  0
SECTION
  2
HEADER
  9
$ACADVER
  1
AC1009
  9
$DWGCODEPAGE
  3
dos932
  9
$EXTMIN
 10
0.0
 20
0.0
 30
0.0
  9
$EXTMAX
 10
2520.0
 20
1782.0
 30
0.0
  9
$LIMMIN
 10
0.0
 20
0.0
  9
$LIMMAX
 10
2520.0
 20
1782.0
  9
$LTSCALE
 40
1.0
  9
$PDMODE
 70
     0
  0
ENDSEC
  0
SECTION
  2
TABLES
  0
TABLE
  2
VPORT
 70
     1
  0
VPORT
  2
*ACTIVE
 70
     0
 10
0.0
 20
0.0
 11
1.0
 21
1.0
 12
1260.0
 22
891.0
 13
0.0
 23
0.0
 14
10.0
 24
10.0
 15
10.0
 25
10.0
 16
0.0
 26
0.0
 36
1.0
 17
0.0
 27
0.0
 37
0.0
 40
2520.0
 41
1.414141414
 42
50.0
 43
0.0
 44
0.0
 50
0.0
 51
0.0
 71
     0
 72
  1000
 73
     1
 74
     3
 75
     0
 76
     0
 77
     0
 78
     0
  0
ENDTAB
  0
TABLE
  2
LTYPE
 70
     6
  0
LTYPE
  2
CONTINUOUS
 70
    64
  3
Solid line
 72
    65
 73
     0
 40
0.0
  0
LTYPE
  2
LTYPE1
 70
    64
  3
HIDDEN
 72
    65
 73
     2
 40
18.0
 49
10.8
 49
-7.2
  0
LTYPE
  2
LTYPE2
 70
    64
  3
CENTER
 72
    65
 73
     4
 40
90.0
 49
63.0
 49
-9.0
 49
9.0
 49
-9.0
  0
LTYPE
  2
LTYPE3
 70
    64
  3
CENTER
 72
    65
 73
     4
 40
60.0
 49
42.0
 49
-6.0
 49
6.0
 49
-6.0
  0
LTYPE
  2
LTYPE4
 70
    64
  3
PHANTOM
 72
    65
 73
     6
 40
60.0
 49
45.0
 49
-3.0
 49
3.0
 49
-3.0
 49
3.0
 49
-3.0
  0
LTYPE
  2
LTYPE5
 70
    64
  3
CENTER
 72
    65
 73
     4
 40
54.0
 49
37.8
 49
-5.4
 49
5.4
 49
-5.4
  0
ENDTAB
  0
TABLE
  2
LAYER
 70
   128
  0
LAYER
  2
0
 70
     0
 62
     7
  6
CONTINUOUS
  0
LAYER
  2
2
 70
     0
 62
     7
  6
CONTINUOUS
  0
LAYER
  2
3
 70
     0
 62
     7
  6
CONTINUOUS
  0
LAYER
  2
4
 70
     0
 62
     7
  6
CONTINUOUS
  0
LAYER
  2
5
 70
     0
 62
     7
  6
CONTINUOUS
  0
LAYER
  2
6
 70
     0
 62
     7
  6
CONTINUOUS
  0
LAYER
  2
7
 70
     0
 62
     7
  6
CONTINUOUS
  0
LAYER
  2
8
 70
     0
 62
     7
  6
CONTINUOUS
  0
LAYER
  2
9
 70
     0
 62
     7
  6
CONTINUOUS
  0
LAYER
  2
10
 70
     0
 62
     7
  6
CONTINUOUS
  0
LAYER
  2
11
 70
     0
 62
     7
  6
CONTINUOUS
  0
LAYER
  2
12
 70
     0
 62
     7
  6
CONTINUOUS
  0
LAYER
  2
13
 70
     0
 62
     7
  6
CONTINUOUS
  0
LAYER
  2
14
 70
     0
 62
     7
  6
CONTINUOUS
  0
LAYER
  2
15
 70
     0
 62
     7
  6
CONTINUOUS
  0
LAYER
  2
16
 70
     0
 62
     7
  6
CONTINUOUS
  0
LAYER
  2
17
 70
     0
 62
     7
  6
CONTINUOUS
  0
LAYER
  2
18
 70
     0
 62
     7
  6
CONTINUOUS
  0
LAYER
  2
19
 70
     0
 62
     7
  6
CONTINUOUS
  0
LAYER
  2
20
 70
     0
 62
     7
  6
CONTINUOUS
  0
LAYER
  2
21
 70
     0
 62
     7
  6
CONTINUOUS
  0
LAYER
  2
22
 70
     0
 62
     7
  6
CONTINUOUS
  0
LAYER
  2
23
 70
     0
 62
     7
  6
CONTINUOUS
  0
LAYER
  2
24
 70
     0
 62
     7
  6
CONTINUOUS
  0
LAYER
  2
25
 70
     0
 62
     7
  6
CONTINUOUS
  0
LAYER
  2
26
 70
     0
 62
     7
  6
CONTINUOUS
  0
LAYER
  2
27
 70
     0
 62
     7
  6
CONTINUOUS
  0
LAYER
  2
28
 70
     0
 62
     7
  6
CONTINUOUS
  0
LAYER
  2
29
 70
     0
 62
     7
  6
CONTINUOUS
  0
LAYER
  2
30
 70
     0
 62
     7
  6
CONTINUOUS
  0
LAYER
  2
31
 70
     0
 62
     7
  6
CONTINUOUS
  0
LAYER
  2
32
 70
     0
 62
     7
  6
CONTINUOUS
  0
LAYER
  2
33
 70
     0
 62
     7
  6
CONTINUOUS
  0
LAYER
  2
34
 70
     0
 62
     7
  6
CONTINUOUS
  0
LAYER
  2
35
 70
     0
 62
     7
  6
CONTINUOUS
  0
LAYER
  2
36
 70
     0
 62
     7
  6
CONTINUOUS
  0
LAYER
  2
37
 70
     0
 62
     7
  6
CONTINUOUS
  0
LAYER
  2
38
 70
     0
 62
     7
  6
CONTINUOUS
  0
LAYER
  2
39
 70
     0
 62
     7
  6
CONTINUOUS
  0
LAYER
  2
40
 70
     0
 62
     7
  6
CONTINUOUS
  0
LAYER
  2
41
 70
     0
 62
     7
  6
CONTINUOUS
  0
LAYER
  2
42
 70
     0
 62
     7
  6
CONTINUOUS
  0
LAYER
  2
43
 70
     0
 62
     7
  6
CONTINUOUS
  0
LAYER
  2
44
 70
     0
 62
     7
  6
CONTINUOUS
  0
LAYER
  2
45
 70
     0
 62
     7
  6
CONTINUOUS
  0
LAYER
  2
46
 70
     0
 62
     7
  6
CONTINUOUS
  0
LAYER
  2
47
 70
     0
 62
     7
  6
CONTINUOUS
  0
LAYER
  2
48
 70
     0
 62
     7
  6
CONTINUOUS
  0
LAYER
  2
49
 70
     0
 62
     7
  6
CONTINUOUS
  0
LAYER
  2
50
 70
     0
 62
     7
  6
CONTINUOUS
  0
LAYER
  2
51
 70
     0
 62
     7
  6
CONTINUOUS
  0
LAYER
  2
52
 70
     0
 62
     7
  6
CONTINUOUS
  0
LAYER
  2
53
 70
     0
 62
     7
  6
CONTINUOUS
  0
LAYER
  2
54
 70
     0
 62
     7
  6
CONTINUOUS
  0
LAYER
  2
55
 70
     0
 62
     7
  6
CONTINUOUS
  0
LAYER
  2
56
 70
     0
 62
     7
  6
CONTINUOUS
  0
LAYER
  2
57
 70
     0
 62
     7
  6
CONTINUOUS
  0
LAYER
  2
58
 70
     0
 62
     7
  6
CONTINUOUS
  0
LAYER
  2
59
 70
     0
 62
     7
  6
CONTINUOUS
  0
LAYER
  2
60
 70
     0
 62
     7
  6
CONTINUOUS
  0
LAYER
  2
61
 70
     0
 62
     7
  6
CONTINUOUS
  0
LAYER
  2
62
 70
     0
 62
     7
  6
CONTINUOUS
  0
LAYER
  2
63
 70
     0
 62
     7
  6
CONTINUOUS
  0
LAYER
  2
64
 70
     0
 62
     7
  6
CONTINUOUS
  0
LAYER
  2
65
 70
     0
 62
     7
  6
CONTINUOUS
  0
LAYER
  2
66
 70
     0
 62
     7
  6
CONTINUOUS
  0
LAYER
  2
67
 70
     0
 62
     7
  6
CONTINUOUS
  0
LAYER
  2
68
 70
     0
 62
     7
  6
CONTINUOUS
  0
LAYER
  2
69
 70
     0
 62
     7
  6
CONTINUOUS
  0
LAYER
  2
70
 70
     0
 62
     7
  6
CONTINUOUS
  0
LAYER
  2
71
 70
     0
 62
     7
  6
CONTINUOUS
  0
LAYER
  2
72
 70
     0
 62
     7
  6
CONTINUOUS
  0
LAYER
  2
73
 70
     0
 62
     7
  6
CONTINUOUS
  0
LAYER
  2
74
 70
     0
 62
     7
  6
CONTINUOUS
  0
LAYER
  2
75
 70
     0
 62
     7
  6
CONTINUOUS
  0
LAYER
  2
76
 70
     0
 62
     7
  6
CONTINUOUS
  0
LAYER
  2
77
 70
     0
 62
     7
  6
CONTINUOUS
  0
LAYER
  2
78
 70
     0
 62
     7
  6
CONTINUOUS
  0
LAYER
  2
79
 70
     0
 62
     7
  6
CONTINUOUS
  0
LAYER
  2
80
 70
     0
 62
     7
  6
CONTINUOUS
  0
LAYER
  2
81
 70
     0
 62
     7
  6
CONTINUOUS
  0
LAYER
  2
82
 70
     0
 62
     7
  6
CONTINUOUS
  0
LAYER
  2
83
 70
     0
 62
     7
  6
CONTINUOUS
  0
LAYER
  2
84
 70
     0
 62
     7
  6
CONTINUOUS
  0
LAYER
  2
85
 70
     0
 62
     7
  6
CONTINUOUS
  0
LAYER
  2
86
 70
     0
 62
     7
  6
CONTINUOUS
  0
LAYER
  2
87
 70
     0
 62
     7
  6
CONTINUOUS
  0
LAYER
  2
88
 70
     0
 62
     7
  6
CONTINUOUS
  0
LAYER
  2
89
 70
     0
 62
     7
  6
CONTINUOUS
  0
LAYER
  2
90
 70
     0
 62
     7
  6
CONTINUOUS
  0
LAYER
  2
91
 70
     0
 62
     7
  6
CONTINUOUS
  0
LAYER
  2
92
 70
     0
 62
     7
  6
CONTINUOUS
  0
LAYER
  2
93
 70
     0
 62
     7
  6
CONTINUOUS
  0
LAYER
  2
94
 70
     0
 62
     7
  6
CONTINUOUS
  0
LAYER
  2
95
 70
     0
 62
     7
  6
CONTINUOUS
  0
LAYER
  2
96
 70
     0
 62
     7
  6
CONTINUOUS
  0
LAYER
  2
97
 70
     0
 62
     7
  6
CONTINUOUS
  0
LAYER
  2
98
 70
     0
 62
     7
  6
CONTINUOUS
  0
LAYER
  2
99
 70
     0
 62
     7
  6
CONTINUOUS
  0
LAYER
  2
100
 70
     0
 62
     7
  6
CONTINUOUS
  0
LAYER
  2
101
 70
     0
 62
     7
  6
CONTINUOUS
  0
LAYER
  2
102
 70
     0
 62
     7
  6
CONTINUOUS
  0
LAYER
  2
103
 70
     0
 62
     7
  6
CONTINUOUS
  0
LAYER
  2
104
 70
     0
 62
     7
  6
CONTINUOUS
  0
LAYER
  2
105
 70
     0
 62
     7
  6
CONTINUOUS
  0
LAYER
  2
106
 70
     0
 62
     7
  6
CONTINUOUS
  0
LAYER
  2
107
 70
     0
 62
     7
  6
CONTINUOUS
  0
LAYER
  2
108
 70
     0
 62
     7
  6
CONTINUOUS
  0
LAYER
  2
109
 70
     0
 62
     7
  6
CONTINUOUS
  0
LAYER
  2
110
 70
     0
 62
     7
  6
CONTINUOUS
  0
LAYER
  2
111
 70
     0
 62
     7
  6
CONTINUOUS
  0
LAYER
  2
112
 70
     0
 62
     7
  6
CONTINUOUS
  0
LAYER
  2
113
 70
     0
 62
     7
  6
CONTINUOUS
  0
LAYER
  2
114
 70
     0
 62
     7
  6
CONTINUOUS
  0
LAYER
  2
115
 70
     0
 62
     7
  6
CONTINUOUS
  0
LAYER
  2
116
 70
     0
 62
     7
  6
CONTINUOUS
  0
LAYER
  2
117
 70
     0
 62
     7
  6
CONTINUOUS
  0
LAYER
  2
118
 70
     0
 62
     7
  6
CONTINUOUS
  0
LAYER
  2
119
 70
     0
 62
     7
  6
CONTINUOUS
  0
LAYER
  2
120
 70
     0
 62
     7
  6
CONTINUOUS
  0
LAYER
  2
121
 70
     0
 62
     7
  6
CONTINUOUS
  0
LAYER
  2
122
 70
     0
 62
     7
  6
CONTINUOUS
  0
LAYER
  2
123
 70
     0
 62
     7
  6
CONTINUOUS
  0
LAYER
  2
124
 70
     0
 62
     7
  6
CONTINUOUS
  0
LAYER
  2
125
 70
     0
 62
     7
  6
CONTINUOUS
  0
LAYER
  2
126
 70
     0
 62
     7
  6
CONTINUOUS
  0
LAYER
  2
127
 70
     0
 62
     7
  6
CONTINUOUS
  0
LAYER
  2
128
 70
     0
 62
     7
  6
CONTINUOUS
  0
ENDTAB
  0
TABLE
  2
STYLE
 70
    83
  0
STYLE
  2
STANDARD
 70
     0
 40
0.0
 41
1.0
 50
0.0
 71
     0
 42
0.2
  3
txt.shx
  4
extfont.shx
  0
STYLE
  2
KANJI0
 70
     0
 40
15.5999988
 41
0.75
 50
0.0
 71
     0
 42
15.5999988
  3
txt.shx
  4
extfont.shx
  0
STYLE
  2
KANJI1
 70
     0
 40
11.999997477
 41
0.6
 50
0.0
 71
     0
 42
11.999997477
  3
txt.shx
  4
extfont.shx
  0
STYLE
  2
KANJI2
 70
     0
 40
14.399996972
 41
0.9
 50
0.0
 71
     0
 42
14.399996972
  3
txt.shx
  4
extfont.shx
  0
STYLE
  2
KANJI3
 70
     0
 40
17.999996215
 41
0.9
 50
0.0
 71
     0
 42
17.999996215
  3
txt.shx
  4
extfont.shx
  0
STYLE
  2
KANJI4
 70
     0
 40
10.3999992
 41
0.6
 50
0.0
 71
     0
 42
10.3999992
  3
txt.shx
  4
extfont.shx
  0
STYLE
  2
KANJI5
 70
     0
 40
12.47999904
 41
0.6
 50
0.0
 71
     0
 42
12.47999904
  3
txt.shx
  4
extfont.shx
  0
STYLE
  2
KANJI6
 70
     0
 40
18.1999986
 41
0.42031746
 50
0.0
 71
     0
 42
18.1999986
  3
txt.shx
  4
extfont.shx
  0
STYLE
  2
KANJI7
 70
     0
 40
31.1999976
 41
0.9
 50
0.0
 71
     0
 42
31.1999976
  3
txt.shx
  4
extfont.shx
  0
STYLE
  2
KANJI8
 70
     0
 40
21.6
 41
1.111111111
 50
0.0
 71
     0
 42
21.6
  3
txt.shx
  4
extfont.shx
  0
STYLE
  2
KANJI9
 70
     0
 40
10.3999992
 41
0.8
 50
0.0
 71
     0
 42
10.3999992
  3
txt.shx
  4
extfont.shx
  0
STYLE
  2
KANJI10
 70
     0
 40
12.47999904
 41
0.8
 50
0.0
 71
     0
 42
12.47999904
  3
txt.shx
  4
extfont.shx
  0
STYLE
  2
KANJI11
 70
     0
 40
30.0
 41
1.0
 50
0.0
 71
     0
 42
30.0
  3
txt.shx
  4
extfont.shx
  0
STYLE
  2
KANJI12
 70
     0
 40
30.0
 41
1.0
 50
0.0
 71
     0
 42
30.0
  3
txt.shx
  4
extfont.shx
  0
STYLE
  2
KANJI13
 70
     0
 40
30.0
 41
0.8
 50
0.0
 71
     0
 42
30.0
  3
txt.shx
  4
extfont.shx
  0
STYLE
  2
KANJI14
 70
     0
 40
24.0
 41
1.0
 50
0.0
 71
     0
 42
24.0
  3
txt.shx
  4
extfont.shx
  0
STYLE
  2
KANJI15
 70
     0
 40
21.0
 41
0.857142857
 50
0.0
 71
     0
 42
21.0
  3
txt.shx
  4
extfont.shx
  0
STYLE
  2
KANJI16
 70
     0
 40
27.0
 41
0.666666667
 50
0.0
 71
     0
 42
27.0
  3
txt.shx
  4
extfont.shx
  0
STYLE
  2
KANJI17
 70
     0
 40
18.0
 41
0.9
 50
0.0
 71
     0
 42
18.0
  3
txt.shx
  4
extfont.shx
  0
STYLE
  2
KANJI18
 70
     0
 40
18.0
 41
0.9
 50
0.0
 71
     0
 42
18.0
  3
txt.shx
  4
extfont.shx
  0
STYLE
  2
KANJI19
 70
     0
 40
21.0
 41
0.914285714
 50
0.0
 71
     0
 42
21.0
  3
txt.shx
  4
extfont.shx
  0
STYLE
  2
KANJI20
 70
     0
 40
18.0
 41
0.9
 50
0.0
 71
     0
 42
18.0
  3
txt.shx
  4
extfont.shx
  0
STYLE
  2
KANJI21
 70
     0
 40
18.0
 41
0.9
 50
0.0
 71
     0
 42
18.0
  3
txt.shx
  4
extfont.shx
  0
STYLE
  2
KANJI22
 70
     0
 40
18.0
 41
0.9
 50
0.0
 71
     0
 42
18.0
  3
txt.shx
  4
extfont.shx
  0
STYLE
  2
KANJI23
 70
     0
 40
13.86
 41
0.9
 50
0.0
 71
     0
 42
13.86
  3
txt.shx
  4
extfont.shx
  0
STYLE
  2
KANJI24
 70
     0
 40
30.0
 41
0.8
 50
0.0
 71
     0
 42
30.0
  3
txt.shx
  4
extfont.shx
  0
STYLE
  2
KANJI25
 70
     0
 40
21.0
 41
0.793650794
 50
0.0
 71
     0
 42
21.0
  3
txt.shx
  4
extfont.shx
  0
STYLE
  2
KANJI26
 70
     0
 40
20.0
 41
0.925
 50
0.0
 71
     0
 42
20.0
  3
txt.shx
  4
extfont.shx
  0
STYLE
  2
KANJI27
 70
     0
 40
15.0
 41
0.9
 50
0.0
 71
     0
 42
15.0
  3
txt.shx
  4
extfont.shx
  0
STYLE
  2
KANJI28
 70
     0
 40
20.0
 41
0.925
 50
0.0
 71
     0
 42
20.0
  3
txt.shx
  4
extfont.shx
  0
STYLE
  2
KANJI29
 70
     0
 40
18.0
 41
0.9
 50
0.0
 71
     0
 42
18.0
  3
txt.shx
  4
extfont.shx
  0
STYLE
  2
KANJI30
 70
     0
 40
21.6
 41
0.857142857
 50
0.0
 71
     0
 42
21.6
  3
txt.shx
  4
extfont.shx
  0
STYLE
  2
KANJI31
 70
     0
 40
21.6
 41
0.857222222
 50
0.0
 71
     0
 42
21.6
  3
txt.shx
  4
extfont.shx
  0
STYLE
  2
KANJI32
 70
     0
 40
24.0
 41
0.9
 50
0.0
 71
     0
 42
24.0
  3
txt.shx
  4
extfont.shx
  0
STYLE
  2
KANJI33
 70
     0
 40
13.182
 41
0.85
 50
0.0
 71
     0
 42
13.182
  3
txt.shx
  4
extfont.shx
  0
STYLE
  2
KANJI34
 70
     0
 40
11.661
 41
0.822608696
 50
0.0
 71
     0
 42
11.661
  3
txt.shx
  4
extfont.shx
  0
STYLE
  2
KANJI35
 70
     0
 40
11.8638
 41
0.726495726
 50
0.0
 71
     0
 42
11.8638
  3
txt.shx
  4
extfont.shx
  0
STYLE
  2
KANJI36
 70
     4
 40
45.0
 41
0.538166667
 50
0.0
 71
     0
 42
45.0
  3
txt.shx
  4
extfont.shx
  0
STYLE
  2
KANJI37
 70
     0
 40
17.740702234
 41
0.880962996
 50
0.0
 71
     0
 42
17.740702234
  3
txt.shx
  4
extfont.shx
  0
STYLE
  2
KANJI38
 70
     0
 40
11.7
 41
0.8
 50
0.0
 71
     0
 42
11.7
  3
txt.shx
  4
extfont.shx
  0
STYLE
  2
KANJI39
 70
     0
 40
15.0
 41
0.911
 50
0.0
 71
     0
 42
15.0
  3
txt.shx
  4
extfont.shx
  0
STYLE
  2
KANJI40
 70
     0
 40
15.36
 41
0.9
 50
0.0
 71
     0
 42
15.36
  3
txt.shx
  4
extfont.shx
  0
STYLE
  2
KANJI41
 70
     0
 40
14.4
 41
0.9
 50
0.0
 71
     0
 42
14.4
  3
txt.shx
  4
extfont.shx
  0
STYLE
  2
KANJI42
 70
     0
 40
14.4
 41
0.9
 50
0.0
 71
     0
 42
14.4
  3
txt.shx
  4
extfont.shx
  0
STYLE
  2
KANJI43
 70
     0
 40
16.8
 41
0.9
 50
0.0
 71
     0
 42
16.8
  3
txt.shx
  4
extfont.shx
  0
STYLE
  2
KANJI44
 70
     0
 40
12.96
 41
0.740740741
 50
0.0
 71
     0
 42
12.96
  3
txt.shx
  4
extfont.shx
  0
STYLE
  2
KANJI45
 70
     0
 40
16.8
 41
0.857142857
 50
0.0
 71
     0
 42
16.8
  3
txt.shx
  4
extfont.shx
  0
STYLE
  2
KANJI46
 70
     0
 40
14.4
 41
0.833333333
 50
0.0
 71
     0
 42
14.4
  3
txt.shx
  4
extfont.shx
  0
STYLE
  2
KANJI47
 70
     0
 40
16.17
 41
0.9
 50
0.0
 71
     0
 42
16.17
  3
txt.shx
  4
extfont.shx
  0
STYLE
  2
KANJI48
 70
     0
 40
18.223173404
 41
0.66671875
 50
0.0
 71
     0
 42
18.223173404
  3
txt.shx
  4
extfont.shx
  0
STYLE
  2
KANJI49
 70
     0
 40
21.6
 41
0.9
 50
0.0
 71
     0
 42
21.6
  3
txt.shx
  4
extfont.shx
  0
STYLE
  2
KANJI50
 70
     0
 40
12.96
 41
0.9
 50
0.0
 71
     0
 42
12.96
  3
txt.shx
  4
extfont.shx
  0
STYLE
  2
KANJI51
 70
     0
 40
17.28
 41
0.9
 50
0.0
 71
     0
 42
17.28
  3
txt.shx
  4
extfont.shx
  0
STYLE
  2
KANJI52
 70
     0
 40
18.72
 41
0.925
 50
0.0
 71
     0
 42
18.72
  3
txt.shx
  4
extfont.shx
  0
STYLE
  2
KANJI53
 70
     0
 40
16.8
 41
0.964285714
 50
0.0
 71
     0
 42
16.8
  3
txt.shx
  4
extfont.shx
  0
STYLE
  2
KANJI54
 70
     0
 40
16.8
 41
0.892857143
 50
0.0
 71
     0
 42
16.8
  3
txt.shx
  4
extfont.shx
  0
STYLE
  2
KANJI55
 70
     0
 40
21.0
 41
0.571428571
 50
0.0
 71
     0
 42
21.0
  3
txt.shx
  4
extfont.shx
  0
STYLE
  2
KANJI56
 70
     0
 40
22.8
 41
0.9
 50
0.0
 71
     0
 42
22.8
  3
txt.shx
  4
extfont.shx
  0
STYLE
  2
KANJI57
 70
     0
 40
22.8
 41
0.9
 50
0.0
 71
     0
 42
22.8
  3
txt.shx
  4
extfont.shx
  0
STYLE
  2
KANJI58
 70
     0
 40
27.0
 41
0.9
 50
0.0
 71
     0
 42
27.0
  3
txt.shx
  4
extfont.shx
  0
STYLE
  2
KANJI59
 70
     0
 40
22.8
 41
0.9
 50
0.0
 71
     0
 42
22.8
  3
txt.shx
  4
extfont.shx
  0
STYLE
  2
KANJI60
 70
     0
 40
22.8
 41
0.9
 50
0.0
 71
     0
 42
22.8
  3
txt.shx
  4
extfont.shx
  0
STYLE
  2
KANJI61
 70
     0
 40
22.8
 41
0.9
 50
0.0
 71
     0
 42
22.8
  3
txt.shx
  4
extfont.shx
  0
STYLE
  2
KANJI62
 70
     0
 40
22.8
 41
0.9
 50
0.0
 71
     0
 42
22.8
  3
txt.shx
  4
extfont.shx
  0
STYLE
  2
KANJI63
 70
     0
 40
22.8
 41
0.9
 50
0.0
 71
     0
 42
22.8
  3
txt.shx
  4
extfont.shx
  0
STYLE
  2
KANJI64
 70
     0
 40
22.8
 41
0.9
 50
0.0
 71
     0
 42
22.8
  3
txt.shx
  4
extfont.shx
  0
STYLE
  2
KANJI65
 70
     4
 40
21.0
 41
0.9
 50
0.0
 71
     0
 42
21.0
  3
txt.shx
  4
extfont.shx
  0
STYLE
  2
KANJI66
 70
     4
 40
21.0
 41
0.9
 50
0.0
 71
     0
 42
21.0
  3
txt.shx
  4
extfont.shx
  0
STYLE
  2
KANJI67
 70
     0
 40
21.0
 41
0.9
 50
0.0
 71
     0
 42
21.0
  3
txt.shx
  4
extfont.shx
  0
STYLE
  2
KANJI68
 70
     0
 40
18.0
 41
0.9
 50
0.0
 71
     0
 42
18.0
  3
txt.shx
  4
extfont.shx
  0
STYLE
  2
KANJI69
 70
     0
 40
21.0
 41
0.9
 50
0.0
 71
     0
 42
21.0
  3
txt.shx
  4
extfont.shx
  0
STYLE
  2
KANJI70
 70
     0
 40
22.8
 41
0.9
 50
0.0
 71
     0
 42
22.8
  3
txt.shx
  4
extfont.shx
  0
STYLE
  2
KANJI71
 70
     0
 40
22.8
 41
0.9
 50
0.0
 71
     0
 42
22.8
  3
txt.shx
  4
extfont.shx
  0
STYLE
  2
KANJI72
 70
     0
 40
21.0
 41
0.628571429
 50
0.0
 71
     0
 42
21.0
  3
txt.shx
  4
extfont.shx
  0
STYLE
  2
KANJI73
 70
     0
 40
20.4
 41
0.705882353
 50
0.0
 71
     0
 42
20.4
  3
txt.shx
  4
extfont.shx
  0
STYLE
  2
KANJI74
 70
     0
 40
18.0
 41
0.8
 50
0.0
 71
     0
 42
18.0
  3
txt.shx
  4
extfont.shx
  0
STYLE
  2
KANJI75
 70
     0
 40
19.2
 41
0.71875
 50
0.0
 71
     0
 42
19.2
  3
txt.shx
  4
extfont.shx
  0
STYLE
  2
KANJI76
 70
     0
 40
19.2
 41
0.8
 50
0.0
 71
     0
 42
19.2
  3
txt.shx
  4
extfont.shx
  0
STYLE
  2
KANJI77
 70
     0
 40
21.0
 41
0.571428571
 50
0.0
 71
     0
 42
21.0
  3
txt.shx
  4
extfont.shx
  0
STYLE
  2
KANJI78
 70
     0
 40
18.0
 41
0.833333333
 50
0.0
 71
     0
 42
18.0
  3
txt.shx
  4
extfont.shx
  0
STYLE
  2
KANJI79
 70
     0
 40
21.0
 41
0.9
 50
0.0
 71
     0
 42
21.0
  3
txt.shx
  4
extfont.shx
  0
STYLE
  2
KANJI80
 70
     0
 40
21.0
 41
0.857142857
 50
0.0
 71
     0
 42
21.0
  3
txt.shx
  4
extfont.shx
  0
STYLE
  2
KANJI81
 70
     0
 40
18.0
 41
0.833333333
 50
0.0
 71
     0
 42
18.0
  3
txt.shx
  4
extfont.shx
  0
ENDTAB
  0
TABLE
  2
VIEW
 70
     0
  0
ENDTAB
  0
ENDSEC
  0
SECTION
  2
BLOCKS
  0
ENDSEC
  0
SECTION
  2
ENTITIES
  0
POLYLINE
  8
0
  6
CONTINUOUS
 62
     6
 66
     1
  0
VERTEX
  8
0
  6
CONTINUOUS
 62
     6
 10
82.92
 20
71.7
 30
0.0
  0
VERTEX
  8
0
  6
CONTINUOUS
 62
     6
 10
82.92
 20
1685.7
 30
0.0
  0
VERTEX
  8
0
  6
CONTINUOUS
 62
     6
 10
2404.92
 20
1685.7
 30
0.0
  0
SEQEND
  0
LINE
  8
0
  6
CONTINUOUS
 62
     6
 10
88.919998738
 20
161.699981077
 30
0.0
 11
478.919916738
 21
161.699981077
 31
0.0
  0
LINE
  8
0
  6
CONTINUOUS
 62
     6
 10
88.919998738
 20
77.699998738
 30
0.0
 11
478.919916738
 21
77.699998738
 31
0.0
  0
LINE
  8
0
  6
CONTINUOUS
 62
     6
 10
88.919998738
 20
77.699998738
 30
0.0
 11
88.919998738
 21
161.699981077
 31
0.0
  0
LINE
  8
0
  6
CONTINUOUS
 62
     6
 10
88.919998738
 20
119.699989908
 30
0.0
 11
478.919916738
 21
119.699989908
 31
0.0
  0
LINE
  8
0
  6
CONTINUOUS
 62
     4
 10
14.6199996
 20
76.8999996
 30
0.0
 11
77.0199948
 21
76.8999996
 31
0.0
  0
LINE
  8
0
  6
CONTINUOUS
 62
     4
 10
14.6199996
 20
108.0999972
 30
0.0
 11
77.0199948
 21
108.0999972
 31
0.0
  0
LINE
  8
0
  6
CONTINUOUS
 62
     4
 10
14.6199996
 20
139.2999948
 30
0.0
 11
77.0199948
 21
139.2999948
 31
0.0
  0
LINE
  8
0
  6
CONTINUOUS
 62
     4
 10
14.6199996
 20
170.4999924
 30
0.0
 11
77.0199948
 21
170.4999924
 31
0.0
  0
LINE
  8
0
  6
CONTINUOUS
 62
     4
 10
14.6199996
 20
201.69999
 30
0.0
 11
77.0199948
 21
201.69999
 31
0.0
  0
LINE
  8
0
  6
CONTINUOUS
 62
     4
 10
14.6199996
 20
232.8999876
 30
0.0
 11
77.0199948
 21
232.8999876
 31
0.0
  0
LINE
  8
0
  6
CONTINUOUS
 62
     4
 10
14.6199996
 20
264.0999852
 30
0.0
 11
77.0199948
 21
264.0999852
 31
0.0
  0
LINE
  8
0
  6
CONTINUOUS
 62
     4
 10
14.6199996
 20
295.2999828
 30
0.0
 11
77.0199948
 21
295.2999828
 31
0.0
  0
LINE
  8
0
  6
CONTINUOUS
 62
     4
 10
14.6199996
 20
326.4999804
 30
0.0
 11
77.0199948
 21
326.4999804
 31
0.0
  0
LINE
  8
0
  6
CONTINUOUS
 62
     4
 10
14.6199996
 20
357.699978
 30
0.0
 11
77.0199948
 21
357.699978
 31
0.0
  0
LINE
  8
0
  6
CONTINUOUS
 62
     4
 10
77.0199948
 20
76.8999996
 30
0.0
 11
77.0199948
 21
357.699978
 31
0.0
  0
LINE
  8
0
  6
CONTINUOUS
 62
     4
 10
45.8199972
 20
76.8999996
 30
0.0
 11
45.8199972
 21
326.4999804
 31
0.0
  0
TEXT
  8
0
  6
CONTINUOUS
 62
     4
 10
25.27999878
 20
85.9999989
 30
1.55999988
 40
15.5999988
  1
計
 50
0.0
 41
0.75
 51
0.0
  7
KANJI0
  0
TEXT
  8
0
  6
CONTINUOUS
 62
     4
 10
25.27999878
 20
148.91999406
 30
1.55999988
 40
15.5999988
  1
設
 50
0.0
 41
0.75
 51
0.0
  7
KANJI0
  0
TEXT
  8
0
  6
CONTINUOUS
 62
     4
 10
25.27999878
 20
179.5999917
 30
1.55999988
 40
15.5999988
  1
管
 50
0.0
 41
0.75
 51
0.0
  7
KANJI0
  0
TEXT
  8
0
  6
CONTINUOUS
 62
     4
 10
25.27999878
 20
210.7999893
 30
1.55999988
 40
15.5999988
  1
製
 50
0.0
 41
0.75
 51
0.0
  7
KANJI0
  0
TEXT
  8
0
  6
CONTINUOUS
 62
     4
 10
25.27999878
 20
241.9999869
 30
1.55999988
 40
15.5999988
  1
資
 50
0.0
 41
0.75
 51
0.0
  7
KANJI0
  0
TEXT
  8
0
  6
CONTINUOUS
 62
     4
 10
25.27999878
 20
273.1999845
 30
1.55999988
 40
15.5999988
  1
営
 50
0.0
 41
0.75
 51
0.0
  7
KANJI0
  0
TEXT
  8
0
  6
CONTINUOUS
 62
     4
 10
25.27999878
 20
304.3999821
 30
1.55999988
 40
15.5999988
  1
客
 50
0.0
 41
0.75
 51
0.0
  7
KANJI0
  0
TEXT
  8
0
  6
CONTINUOUS
 62
     4
 10
25.0199988
 20
336.8999796
 30
1.55999988
 40
15.5999988
  1
出　図
 50
0.0
 41
0.75
 51
0.0
  7
KANJI0
  0
LINE
  8
0
  6
CONTINUOUS
 62
     4
 10
14.6199996
 20
76.8999996
 30
0.0
 11
14.6199996
 21
357.699978
 31
0.0
  0
LINE
  8
0
  6
CONTINUOUS
 62
     6
 10
2404.92
 20
71.7
 30
0.0
 11
82.92
 21
71.7
 31
0.0
  0
TEXT
  8
0
  6
CONTINUOUS
 62
     4
 10
100.919996215
 20
101.699993692
 30
1.199999748
 40
11.999997477
  1
ＰＡＲＴＳ　ＬＩＳＴ
 50
0.0
 41
0.6
 51
0.0
  7
KANJI1
  0
TEXT
  8
0
  6
CONTINUOUS
 62
     4
 10
100.919996215
 20
83.699997477
 30
1.439999697
 40
14.399996972
  1
部品表
 50
0.0
 41
0.9
 51
0.0
  7
KANJI2
  0
TEXT
  8
0
  6
CONTINUOUS
 62
     3
 10
100.919996215
 20
131.699987385
 30
1.799999622
 40
17.999996215
  1
ＰＬ
 50
0.0
 41
0.9
 51
0.0
  7
KANJI3
  0
TEXT
  8
0
  6
CONTINUOUS
 62
     4
 10
370.919939446
 20
101.699993692
 30
1.199999748
 40
11.999997477
  1
Ｎ０．
 50
0.0
 41
0.6
 51
0.0
  7
KANJI1
  0
TEXT
  8
0
  6
CONTINUOUS
 62
     4
 10
370.919939446
 20
83.699997477
 30
1.439999697
 40
14.399996972
  1
項番
 50
0.0
 41
0.9
 51
0.0
  7
KANJI2
  0
LINE
  8
0
  6
CONTINUOUS
 62
     6
 10
478.919916738
 20
77.699998738
 30
0.0
 11
478.919916738
 21
161.699981077
 31
0.0
  0
LINE
  8
0
  6
CONTINUOUS
 62
     6
 10
358.919941969
 20
77.699998738
 30
0.0
 11
358.919941969
 21
161.699981077
 31
0.0
  0
LINE
  8
0
  6
CONTINUOUS
 62
     6
 10
2404.92
 20
1685.7
 30
0.0
 11
2404.92
 21
71.7
 31
0.0
  0
LINE
  8
0
  6
CONTINUOUS
 62
     6
 10
1598.920062
 20
76.8999996
 30
0.0
 11
1598.920062
 21
409.699974
 31
0.0
  0
LINE
  8
0
  6
CONTINUOUS
 62
     6
 10
2399.7200004
 20
76.8999996
 30
0.0
 11
2399.7200004
 21
409.699974
 31
0.0
  0
LINE
  8
0
  6
CONTINUOUS
 62
     4
 10
1788.7200474
 20
76.8999996
 30
0.0
 11
1788.7200474
 21
409.699974
 31
0.0
  0
LINE
  8
0
  6
CONTINUOUS
 62
     4
 10
1598.920062
 20
118.4999964
 30
0.0
 11
1788.7200474
 21
118.4999964
 31
0.0
  0
TEXT
  8
0
  6
CONTINUOUS
 62
     4
 10
1609.3200612
 20
100.2999978
 30
1.03999992
 40
10.3999992
  1
ＳＣＡＬＥ
 50
0.0
 41
0.6
 51
0.0
  7
KANJI4
  0
TEXT
  8
0
  6
CONTINUOUS
 62
     4
 10
1609.3200612
 20
84.699999
 30
1.247999904
 40
12.47999904
  1
尺度
 50
0.0
 41
0.6
 51
0.0
  7
KANJI5
  0
LINE
  8
0
  6
CONTINUOUS
 62
     6
 10
1188.1200936
 20
118.4999964
 30
0.0
 11
1598.920062
 21
118.4999964
 31
0.0
  0
LINE
  8
0
  6
CONTINUOUS
 62
     6
 10
1188.1200936
 20
76.8999996
 30
0.0
 11
2399.7200004
 21
76.8999996
 31
0.0
  0
TEXT
  8
0
  6
CONTINUOUS
 62
     6
 10
1793.920047
 20
100.2999978
 30
0.0
 40
18.1999986
  1
ＵＮＩＴＥＣ　ＩＮＤＵＳＴＲＹ　ＣＯ．，ＬＴＤ．
 50
0.0
 41
0.42031746
 51
0.0
  7
KANJI6
  0
TEXT
  8
0
  6
CONTINUOUS
 62
     6
 10
2049.175027365
 20
93.53999832
 30
3.11999976
 40
31.1999976
  1
ユニテック工業株式会社
 50
0.0
 41
0.9
 51
0.0
  7
KANJI7
  0
LINE
  8
0
  6
CONTINUOUS
 62
     6
 10
2007.575030565
 20
104.45999748
 30
0.0
 11
1993.847031621
 21
104.45999748
 31
0.0
  0
LINE
  8
0
  6
CONTINUOUS
 62
     6
 10
2007.575030565
 20
106.955997288
 30
0.0
 11
1993.847031621
 21
106.955997288
 31
0.0
  0
LINE
  8
0
  6
CONTINUOUS
 62
     6
 10
2007.575030565
 20
104.45999748
 30
0.0
 11
2021.303029509
 21
104.45999748
 31
0.0
  0
LINE
  8
0
  6
CONTINUOUS
 62
     6
 10
2007.575030565
 20
106.955997288
 30
0.0
 11
2021.303029509
 21
106.955997288
 31
0.0
  0
LINE
  8
0
  6
CONTINUOUS
 62
     6
 10
2021.303029509
 20
106.955997288
 30
0.0
 11
2021.303029509
 21
104.45999748
 31
0.0
  0
ARC
  8
0
  6
CONTINUOUS
 62
     6
 10
2024.423029269
 20
105.707997384
 30
0.0
 40
12.47999904
 50
185.739170477
 51
90.0
  0
ARC
  8
0
  6
CONTINUOUS
 62
     6
 10
2024.423029269
 20
105.707997384
 30
0.0
 40
14.975998848
 50
184.780191847
 51
90.0
  0
LINE
  8
0
  6
CONTINUOUS
 62
     6
 10
1993.847031621
 20
104.45999748
 30
0.0
 11
1993.847031621
 21
106.955997288
 31
0.0
  0
ARC
  8
0
  6
CONTINUOUS
 62
     6
 10
1990.727031861
 20
105.707997384
 30
0.0
 40
12.47999904
 50
90.0
 51
354.260829523
  0
ARC
  8
0
  6
CONTINUOUS
 62
     6
 10
1990.727031861
 20
105.707997384
 30
0.0
 40
14.975998848
 50
90.0
 51
355.219808153
  0
LINE
  8
0
  6
CONTINUOUS
 62
     6
 10
2005.703030709
 20
120.683996232
 30
0.0
 11
2005.703030709
 21
118.187996424
 31
0.0
  0
LINE
  8
0
  6
CONTINUOUS
 62
     6
 10
1990.727031861
 20
118.187996424
 30
0.0
 11
2005.703030709
 21
118.187996424
 31
0.0
  0
LINE
  8
0
  6
CONTINUOUS
 62
     6
 10
2009.447030421
 20
120.683996232
 30
0.0
 11
2009.447030421
 21
118.187996424
 31
0.0
  0
LINE
  8
0
  6
CONTINUOUS
 62
     6
 10
2024.423029269
 20
118.187996424
 30
0.0
 11
2009.447030421
 21
118.187996424
 31
0.0
  0
TEXT
  8
0
  6
CONTINUOUS
 62
     4
 10
1320.7200834
 20
100.2999978
 30
1.03999992
 40
10.3999992
  1
ＢＹ
 50
0.0
 41
0.6
 51
0.0
  7
KANJI4
  0
TEXT
  8
0
  6
CONTINUOUS
 62
     4
 10
1435.1200746
 20
100.2999978
 30
1.03999992
 40
10.3999992
  1
ＤＥＳＣＲＩＰＴＩＯＮ
 50
0.0
 41
0.6
 51
0.0
  7
KANJI4
  0
TEXT
  8
0
  6
CONTINUOUS
 62
     4
 10
1320.7200834
 20
84.699999
 30
1.247999904
 40
12.47999904
  1
担当
 50
0.0
 41
0.6
 51
0.0
  7
KANJI5
  0
TEXT
  8
0
  6
CONTINUOUS
 62
     4
 10
1450.7200734
 20
84.699999
 30
1.247999904
 40
12.47999904
  1
記　　　　事
 50
0.0
 41
0.6
 51
0.0
  7
KANJI5
  0
LINE
  8
0
  6
CONTINUOUS
 62
     4
 10
1210.2200919
 20
110.699997
 30
0.0
 11
1193.3200932
 21
84.699999
 31
0.0
  0
TEXT
  8
0
  6
CONTINUOUS
 62
     4
 10
1253.1200886
 20
100.2999978
 30
1.03999992
 40
10.3999992
  1
ＤＡＴＥ
 50
0.0
 41
0.6
 51
0.0
  7
KANJI4
  0
TEXT
  8
0
  6
CONTINUOUS
 62
     4
 10
1260.920088
 20
84.699999
 30
1.247999904
 40
12.47999904
  1
日付
 50
0.0
 41
0.6
 51
0.0
  7
KANJI5
  0
LINE
  8
0
  6
CONTINUOUS
 62
     4
 10
1193.3200932
 20
84.699999
 30
0.0
 11
1227.1200906
 21
84.699999
 31
0.0
  0
LINE
  8
0
  6
CONTINUOUS
 62
     4
 10
1210.2200919
 20
110.699997
 30
0.0
 11
1227.1200906
 21
84.699999
 31
0.0
  0
LINE
  8
0
  6
CONTINUOUS
 62
     6
 10
1188.1200936
 20
76.8999996
 30
0.0
 11
1188.1200936
 21
118.4999964
 31
0.0
  0
LINE
  8
0
  6
CONTINUOUS
 62
     4
 10
1232.3200902
 20
76.8999996
 30
0.0
 11
1232.3200902
 21
118.4999964
 31
0.0
  0
LINE
  8
0
  6
CONTINUOUS
 62
     4
 10
1305.1200846
 20
76.8999996
 30
0.0
 11
1305.1200846
 21
118.4999964
 31
0.0
  0
LINE
  8
0
  6
CONTINUOUS
 62
     4
 10
1351.920081
 20
76.8999996
 30
0.0
 11
1351.920081
 21
118.4999964
 31
0.0
  0
TEXT
  8
0
  6
CONTINUOUS
 62
     4
 10
1609.3200612
 20
308.2999818
 30
1.03999992
 40
10.3999992
  1
ＣＯＤＥ
 50
0.0
 41
0.6
 51
0.0
  7
KANJI4
  0
LINE
  8
0
  6
CONTINUOUS
 62
     4
 10
1598.920062
 20
326.4999804
 30
0.0
 11
2399.7200004
 21
326.4999804
 31
0.0
  0
TEXT
  8
0
  6
CONTINUOUS
 62
     4
 10
1609.3200612
 20
292.699983
 30
1.247999904
 40
12.47999904
  1
分類
 50
0.0
 41
0.6
 51
0.0
  7
KANJI5
  0
TEXT
  8
0
  6
CONTINUOUS
 62
     4
 10
1617.42
 20
332.7
 30
6.0
 40
21.6
  1
ご注文主
 50
0.0
 41
1.111111111
 51
0.0
  7
KANJI8
  0
TEXT
  8
0
  6
CONTINUOUS
 62
     4
 10
1609.3200612
 20
183.4999914
 30
1.03999992
 40
10.3999992
  1
ＤＲＡＷＮ
 50
0.0
 41
0.6
 51
0.0
  7
KANJI4
  0
TEXT
  8
0
  6
CONTINUOUS
 62
     4
 10
1609.3200612
 20
225.0999882
 30
1.03999992
 40
10.3999992
  1
ＤＥＳＩＧＮ
 50
0.0
 41
0.6
 51
0.0
  7
KANJI4
  0
TEXT
  8
0
  6
CONTINUOUS
 62
     4
 10
1609.3200612
 20
266.699985
 30
1.03999992
 40
10.3999992
  1
ＣＨＥＣＫ
 50
0.0
 41
0.6
 51
0.0
  7
KANJI4
  0
LINE
  8
0
  6
CONTINUOUS
 62
     4
 10
1598.920062
 20
243.2999868
 30
0.0
 11
1788.7200474
 21
243.2999868
 31
0.0
  0
LINE
  8
0
  6
CONTINUOUS
 62
     4
 10
1598.920062
 20
201.69999
 30
0.0
 11
1788.7200474
 21
201.69999
 31
0.0
  0
LINE
  8
0
  6
CONTINUOUS
 62
     4
 10
1598.920062
 20
284.8999836
 30
0.0
 11
1788.7200474
 21
284.8999836
 31
0.0
  0
TEXT
  8
0
  6
CONTINUOUS
 62
     4
 10
1609.3200612
 20
209.4999894
 30
1.247999904
 40
12.47999904
  1
設計
 50
0.0
 41
0.6
 51
0.0
  7
KANJI5
  0
TEXT
  8
0
  6
CONTINUOUS
 62
     4
 10
1609.3200612
 20
251.0999862
 30
1.247999904
 40
12.47999904
  1
検図
 50
0.0
 41
0.6
 51
0.0
  7
KANJI5
  0
LINE
  8
0
  6
CONTINUOUS
 62
     4
 10
1804.06004622
 20
284.8999836
 30
0.0
 11
2399.7200004
 21
284.8999836
 31
0.0
  0
LINE
  8
0
  6
CONTINUOUS
 62
     4
 10
1788.7200474
 20
201.69999
 30
0.0
 11
2399.7200004
 21
201.69999
 31
0.0
  0
TEXT
  8
0
  6
CONTINUOUS
 62
     4
 10
1799.1200466
 20
183.4999914
 30
1.03999992
 40
10.3999992
  1
ＤＲＡＷＩＮＧ　ＮＯ．
 50
0.0
 41
0.8
 51
0.0
  7
KANJI9
  0
TEXT
  8
0
  6
CONTINUOUS
 62
     4
 10
1799.1200466
 20
225.0999882
 30
1.03999992
 40
10.3999992
  1
ＭＦＧ　ＮＯ．
 50
0.0
 41
0.8
 51
0.0
  7
KANJI9
  0
TEXT
  8
0
  6
CONTINUOUS
 62
     4
 10
1799.1200466
 20
266.699985
 30
1.03999992
 40
10.3999992
  1
ＴＹＰＥ
 50
0.0
 41
0.8
 51
0.0
  7
KANJI9
  0
LINE
  8
0
  6
CONTINUOUS
 62
     4
 10
1804.3200462
 20
243.2999868
 30
0.0
 11
2043.5200278
 21
243.2999868
 31
0.0
  0
TEXT
  8
0
  6
CONTINUOUS
 62
     4
 10
1799.1200466
 20
165.2999928
 30
1.247999904
 40
12.47999904
  1
図　面　番　号
 50
0.0
 41
0.8
 51
0.0
  7
KANJI10
  0
TEXT
  8
0
  6
CONTINUOUS
 62
     4
 10
1799.1200466
 20
206.8999896
 30
1.247999904
 40
12.47999904
  1
製番
 50
0.0
 41
0.8
 51
0.0
  7
KANJI10
  0
TEXT
  8
0
  6
CONTINUOUS
 62
     4
 10
1799.1200466
 20
248.4999864
 30
1.247999904
 40
12.47999904
  1
機種
 50
0.0
 41
0.8
 51
0.0
  7
KANJI10
  0
LINE
  8
0
  6
CONTINUOUS
 62
     4
 10
1598.920062
 20
160.0999932
 30
0.0
 11
1788.7200474
 21
160.0999932
 31
0.0
  0
TEXT
  8
0
  6
CONTINUOUS
 62
     4
 10
1609.3200612
 20
141.8999946
 30
1.03999992
 40
10.3999992
  1
ＤＡＴＥ
 50
0.0
 41
0.6
 51
0.0
  7
KANJI4
  0
TEXT
  8
0
  6
CONTINUOUS
 62
     4
 10
1609.3200612
 20
126.2999958
 30
1.247999904
 40
12.47999904
  1
日付
 50
0.0
 41
0.6
 51
0.0
  7
KANJI5
  0
TEXT
  8
0
  6
CONTINUOUS
 62
     4
 10
1609.3200612
 20
167.8999926
 30
1.247999904
 40
12.47999904
  1
作図
 50
0.0
 41
0.6
 51
0.0
  7
KANJI5
  0
LINE
  8
0
  6
CONTINUOUS
 62
     4
 10
1788.7200474
 20
141.8999946
 30
0.0
 11
2399.7200004
 21
141.8999946
 31
0.0
  0
LINE
  8
0
  6
LTYPE1
 62
     4
 10
2225.5200138
 20
149.699994
 30
0.0
 11
2225.5200138
 21
191.2999908
 31
0.0
  0
LINE
  8
0
  6
LTYPE1
 62
     4
 10
2189.1200166
 20
149.699994
 30
0.0
 11
2189.1200166
 21
191.2999908
 31
0.0
  0
LINE
  8
0
  6
LTYPE1
 62
     4
 10
2152.7200194
 20
149.699994
 30
0.0
 11
2152.7200194
 21
191.2999908
 31
0.0
  0
LINE
  8
0
  6
LTYPE1
 62
     4
 10
2116.3200222
 20
149.699994
 30
0.0
 11
2116.3200222
 21
191.2999908
 31
0.0
  0
LINE
  8
0
  6
LTYPE1
 62
     4
 10
2079.920025
 20
149.699994
 30
0.0
 11
2079.920025
 21
191.2999908
 31
0.0
  0
LINE
  8
0
  6
LTYPE1
 62
     4
 10
2043.5200278
 20
149.699994
 30
0.0
 11
2043.5200278
 21
191.2999908
 31
0.0
  0
LINE
  8
0
  6
LTYPE1
 62
     4
 10
2007.1200306
 20
149.699994
 30
0.0
 11
2007.1200306
 21
191.2999908
 31
0.0
  0
LINE
  8
0
  6
LTYPE1
 62
     4
 10
1970.7200334
 20
149.699994
 30
0.0
 11
1970.7200334
 21
191.2999908
 31
0.0
  0
LINE
  8
0
  6
LTYPE1
 62
     4
 10
1970.7200334
 20
191.2999908
 30
0.0
 11
2225.5200138
 21
191.2999908
 31
0.0
  0
LINE
  8
0
  6
LTYPE1
 62
     4
 10
1970.7200334
 20
149.699994
 30
0.0
 11
2225.5200138
 21
149.699994
 31
0.0
  0
LINE
  8
0
  6
CONTINUOUS
 62
     4
 10
2246.3200122
 20
171.7999923
 30
0.0
 11
2256.7200114
 21
171.7999923
 31
0.0
  0
LINE
  8
0
  6
CONTINUOUS
 62
     4
 10
2311.3200072
 20
156.1999935
 30
0.0
 11
2274.92001
 21
156.1999935
 31
0.0
  0
LINE
  8
0
  6
CONTINUOUS
 62
     4
 10
2274.92001
 20
156.1999935
 30
0.0
 11
2293.1200086
 21
187.3999911
 31
0.0
  0
LINE
  8
0
  6
CONTINUOUS
 62
     4
 10
2293.1200086
 20
187.3999911
 30
0.0
 11
2311.3200072
 21
156.1999935
 31
0.0
  0
TEXT
  8
0
  6
CONTINUOUS
 62
     4
 10
2059.1200266
 20
266.699985
 30
1.03999992
 40
10.3999992
  1
ＴＩＴＬＥ
 50
0.0
 41
0.8
 51
0.0
  7
KANJI9
  0
TEXT
  8
0
  6
CONTINUOUS
 62
     4
 10
2059.1200266
 20
248.4999864
 30
1.247999904
 40
12.47999904
  1
名称
 50
0.0
 41
0.8
 51
0.0
  7
KANJI10
  0
TEXT
  8
0
  6
CONTINUOUS
 62
     2
 10
2143.92
 20
209.7
 30
15.0
 40
30.0
  1
外形寸法図
 50
0.0
 41
1.0
 51
0.0
  7
KANJI11
  0
TEXT
  8
0
  6
CONTINUOUS
 62
     2
 10
2107.92
 20
245.7
 30
4.285714286
 40
30.0
  1
マイティシリンダ
 50
0.0
 41
1.0
 51
0.0
  7
KANJI12
  0
TEXT
  8
0
  6
CONTINUOUS
 62
     2
 10
1939.2200334
 20
155.699994
 30
1.8
 40
30.0
  1
Ａ
 50
0.0
 41
0.8
 51
0.0
  7
KANJI13
  0
CIRCLE
  8
0
  6
CONTINUOUS
 62
     2
 10
1900.2200334
 20
220.199994
 30
0.0
 40
15.0
  0
TEXT
  8
0
  6
CONTINUOUS
 62
     2
 10
1888.9700334
 20
208.949994
 30
1.8
 40
24.0
  1
Ｓ
 50
0.0
 41
1.0
 51
0.0
  7
KANJI14
  0
LINE
  8
0
  6
CONTINUOUS
 62
     6
 10
2005.703030709
 20
120.683996232
 30
0.0
 11
1990.727031861
 21
120.683996232
 31
0.0
  0
LINE
  8
0
  6
CONTINUOUS
 62
     6
 10
2009.447030421
 20
120.683996232
 30
0.0
 11
2024.423029269
 21
120.683996232
 31
0.0
  0
TEXT
  8
0
  6
CONTINUOUS
 62
     2
 10
1665.9200334
 20
170.699994
 30
6.0
 40
21.0
  1
岡田
 50
0.0
 41
0.857142857
 51
0.0
  7
KANJI15
  0
LINE
  8
0
  6
CONTINUOUS
 62
     4
 10
2399.7200004
 20
368.0999772
 30
0.0
 11
2399.7200004
 21
409.699974
 31
0.0
  0
LINE
  8
0
  6
CONTINUOUS
 62
     6
 10
1599.670062
 20
368.0999772
 30
0.0
 11
2400.4700004
 21
368.0999772
 31
0.0
  0
LINE
  8
0
  6
CONTINUOUS
 62
     6
 10
1598.920062
 20
409.699974
 30
0.0
 11
2399.7200004
 21
409.699974
 31
0.0
  0
TEXT
  8
0
  6
CONTINUOUS
 62
     4
 10
1617.42
 20
374.2999968
 30
6.0
 40
21.6
  1
ご用途
 50
0.0
 41
1.111111111
 51
0.0
  7
KANJI8
  0
TEXT
  8
0
  6
CONTINUOUS
 62
     2
 10
1708.92
 20
83.7
 30
1.8
 40
27.0
  1
１／６
 50
0.0
 41
0.666666667
 51
0.0
  7
KANJI16
  0
CIRCLE
  8
0
  6
CONTINUOUS
 62
     1
 10
444.5199996
 20
591.4999852
 30
0.0
 40
15.0
  0
CIRCLE
  8
0
  6
CONTINUOUS
 62
     1
 10
444.5199996
 20
591.4999852
 30
0.0
 40
30.0
  0
CIRCLE
  8
0
  6
CONTINUOUS
 62
     1
 10
444.5199996
 20
591.4999852
 30
0.0
 40
34.0
  0
LINE
  8
0
  6
CONTINUOUS
 62
     1
 10
344.5199996
 20
671.4999852
 30
0.0
 11
344.5199996
 21
511.4999852
 31
0.0
  0
LINE
  8
0
  6
CONTINUOUS
 62
     1
 10
446.5199996
 20
523.4999852
 30
0.0
 11
520.5199996
 21
523.4999852
 31
0.0
  0
LINE
  8
0
  6
CONTINUOUS
 62
     1
 10
446.5199996
 20
542.0999852
 30
0.0
 11
446.5199996
 21
523.4999852
 31
0.0
  0
LINE
  8
0
  6
CONTINUOUS
 62
     1
 10
520.5199996
 20
542.7999852
 30
0.0
 11
520.5199996
 21
523.4999852
 31
0.0
  0
LINE
  8
0
  6
LTYPE2
 62
     2
 10
444.5199996
 20
636.4999852
 30
0.0
 11
444.5199996
 21
546.4999852
 31
0.0
  0
LINE
  8
0
  6
CONTINUOUS
 62
     1
 10
344.5199996
 20
671.4999852
 30
0.0
 11
360.5199996
 21
671.4999852
 31
0.0
  0
ARC
  8
0
  6
CONTINUOUS
 62
     1
 10
360.5199996
 20
669.4999852
 30
0.0
 40
2.0
 50
0.0
 51
90.0
  0
LINE
  8
0
  6
CONTINUOUS
 62
     1
 10
344.5199996
 20
511.4999852
 30
0.0
 11
360.5199996
 21
511.4999852
 31
0.0
  0
LINE
  8
0
  6
CONTINUOUS
 62
     1
 10
362.5199996
 20
669.4999852
 30
0.0
 11
362.5199996
 21
513.4999852
 31
0.0
  0
ARC
  8
0
  6
CONTINUOUS
 62
     1
 10
360.5199996
 20
513.4999852
 30
0.0
 40
2.0
 50
270.0
 51
0.0
  0
LINE
  8
0
  6
CONTINUOUS
 62
     1
 10
520.6199996
 20
526.4999852
 30
0.0
 11
585.5199996
 21
526.4999852
 31
0.0
  0
LINE
  8
0
  6
CONTINUOUS
 62
     1
 10
366.5199996
 20
531.4999852
 30
0.0
 11
366.5199996
 21
545.330973298
 31
0.0
  0
LINE
  8
0
  6
CONTINUOUS
 62
     1
 10
366.5199996
 20
531.4999852
 30
0.0
 11
366.5199996
 21
517.668997102
 31
0.0
  0
POINT
  8
0
  6
CONTINUOUS
 62
     1
 10
362.5199996
 20
545.4999852
 30
0.0
  0
LINE
  8
0
  6
CONTINUOUS
 62
     1
 10
362.5199996
 20
545.4999852
 30
0.0
 11
366.5199996
 21
545.4999852
 31
0.0
  0
LINE
  8
0
  6
CONTINUOUS
 62
     1
 10
362.5199996
 20
531.4999852
 30
0.0
 11
366.519996595
 21
535.499982195
 31
0.0
  0
LINE
  8
0
  6
CONTINUOUS
 62
     1
 10
366.519996595
 20
531.4999852
 30
0.0
 11
362.5199996
 21
527.499988205
 31
0.0
  0
POINT
  8
0
  6
CONTINUOUS
 62
     1
 10
362.5199996
 20
517.4999852
 30
0.0
  0
LINE
  8
0
  6
CONTINUOUS
 62
     1
 10
362.5199996
 20
517.4999852
 30
0.0
 11
366.5199996
 21
517.4999852
 31
0.0
  0
LINE
  8
0
  6
CONTINUOUS
 62
     1
 10
381.5199996
 20
531.499984976
 30
0.0
 11
381.5199996
 21
543.4999852
 31
0.0
  0
LINE
  8
0
  6
CONTINUOUS
 62
     1
 10
366.5199996
 20
543.4999852
 30
0.0
 11
381.5199996
 21
543.4999852
 31
0.0
  0
LINE
  8
0
  6
CONTINUOUS
 62
     1
 10
381.5199996
 20
543.4999852
 30
0.0
 11
382.5199996
 21
541.767934392
 31
0.0
  0
LINE
  8
0
  6
CONTINUOUS
 62
     1
 10
382.5199996
 20
531.499984962
 30
0.0
 11
382.5199996
 21
541.767934392
 31
0.0
  0
LINE
  8
0
  6
CONTINUOUS
 62
     1
 10
381.5199996
 20
531.499985424
 30
0.0
 11
381.5199996
 21
519.4999852
 31
0.0
  0
LINE
  8
0
  6
CONTINUOUS
 62
     1
 10
366.5199996
 20
519.4999852
 30
0.0
 11
381.5199996
 21
519.4999852
 31
0.0
  0
LINE
  8
0
  6
CONTINUOUS
 62
     1
 10
381.5199996
 20
519.4999852
 30
0.0
 11
382.5199996
 21
521.232036008
 31
0.0
  0
LINE
  8
0
  6
CONTINUOUS
 62
     1
 10
382.5199996
 20
531.499985438
 30
0.0
 11
382.5199996
 21
521.232036008
 31
0.0
  0
LINE
  8
0
  6
CONTINUOUS
 62
     1
 10
382.5199996
 20
526.4999852
 30
0.0
 11
446.7199996
 21
526.4999852
 31
0.0
  0
LINE
  8
0
  6
LTYPE2
 62
     2
 10
332.8199996
 20
531.4999852
 30
0.0
 11
388.6199996
 21
531.4999852
 31
0.0
  0
LINE
  8
0
  6
CONTINUOUS
 62
     1
 10
366.5199996
 20
651.4999852
 30
0.0
 11
366.5199996
 21
637.668997102
 31
0.0
  0
LINE
  8
0
  6
CONTINUOUS
 62
     1
 10
366.5199996
 20
651.4999852
 30
0.0
 11
366.5199996
 21
665.330973298
 31
0.0
  0
POINT
  8
0
  6
CONTINUOUS
 62
     1
 10
362.5199996
 20
637.4999852
 30
0.0
  0
LINE
  8
0
  6
CONTINUOUS
 62
     1
 10
362.5199996
 20
637.4999852
 30
0.0
 11
366.5199996
 21
637.4999852
 31
0.0
  0
LINE
  8
0
  6
CONTINUOUS
 62
     1
 10
362.5199996
 20
651.4999852
 30
0.0
 11
366.519996595
 21
647.499988205
 31
0.0
  0
LINE
  8
0
  6
CONTINUOUS
 62
     1
 10
366.519996595
 20
651.4999852
 30
0.0
 11
362.5199996
 21
655.499982195
 31
0.0
  0
POINT
  8
0
  6
CONTINUOUS
 62
     1
 10
362.5199996
 20
665.4999852
 30
0.0
  0
LINE
  8
0
  6
CONTINUOUS
 62
     1
 10
362.5199996
 20
665.4999852
 30
0.0
 11
366.5199996
 21
665.4999852
 31
0.0
  0
LINE
  8
0
  6
CONTINUOUS
 62
     1
 10
381.5199996
 20
651.499985424
 30
0.0
 11
381.5199996
 21
639.4999852
 31
0.0
  0
LINE
  8
0
  6
CONTINUOUS
 62
     1
 10
366.5199996
 20
639.4999852
 30
0.0
 11
381.5199996
 21
639.4999852
 31
0.0
  0
LINE
  8
0
  6
CONTINUOUS
 62
     1
 10
381.5199996
 20
639.4999852
 30
0.0
 11
382.5199996
 21
641.232036008
 31
0.0
  0
LINE
  8
0
  6
CONTINUOUS
 62
     1
 10
382.5199996
 20
651.499985438
 30
0.0
 11
382.5199996
 21
641.232036008
 31
0.0
  0
LINE
  8
0
  6
CONTINUOUS
 62
     1
 10
381.5199996
 20
651.499984976
 30
0.0
 11
381.5199996
 21
663.4999852
 31
0.0
  0
LINE
  8
0
  6
CONTINUOUS
 62
     1
 10
366.5199996
 20
663.4999852
 30
0.0
 11
381.5199996
 21
663.4999852
 31
0.0
  0
LINE
  8
0
  6
CONTINUOUS
 62
     1
 10
381.5199996
 20
663.4999852
 30
0.0
 11
382.5199996
 21
661.767934392
 31
0.0
  0
LINE
  8
0
  6
CONTINUOUS
 62
     1
 10
382.5199996
 20
651.499984962
 30
0.0
 11
382.5199996
 21
661.767934392
 31
0.0
  0
LINE
  8
0
  6
LTYPE2
 62
     2
 10
332.8199996
 20
651.4999852
 30
0.0
 11
388.6199996
 21
651.4999852
 31
0.0
  0
LINE
  8
0
  6
CONTINUOUS
 62
     1
 10
382.5199996
 20
656.4999852
 30
0.0
 11
585.5199996
 21
656.4999852
 31
0.0
  0
LINE
  8
0
  6
CONTINUOUS
 62
     1
 10
446.5199996
 20
521.9999852
 30
0.0
 11
520.5199996
 21
521.9999852
 31
0.0
  0
LINE
  8
0
  6
CONTINUOUS
 62
     1
 10
529.5199996
 20
521.9999852
 30
0.0
 11
529.5199996
 21
520.9999852
 31
0.0
  0
ARC
  8
0
  6
CONTINUOUS
 62
     1
 10
442.5199996
 20
518.9999852
 30
0.0
 40
3.0
 50
90.0
 51
180.0
  0
LINE
  8
0
  6
CONTINUOUS
 62
     1
 10
568.5199996
 20
478.9999852
 30
0.0
 11
439.5199996
 21
478.9999852
 31
0.0
  0
LINE
  8
0
  6
CONTINUOUS
 62
     1
 10
529.5199996
 20
520.9999852
 30
0.0
 11
565.5199996
 21
520.9999852
 31
0.0
  0
ARC
  8
0
  6
CONTINUOUS
 62
     1
 10
565.5199996
 20
517.9999852
 30
0.0
 40
3.0
 50
0.0
 51
90.0
  0
LINE
  8
0
  6
CONTINUOUS
 62
     1
 10
568.5199996
 20
477.4999852
 30
0.0
 11
439.5199996
 21
477.4999852
 31
0.0
  0
LINE
  8
0
  6
CONTINUOUS
 62
     1
 10
568.5199996
 20
472.4999852
 30
0.0
 11
568.5199996
 21
517.9999852
 31
0.0
  0
ARC
  8
0
  6
CONTINUOUS
 62
     1
 10
567.5199996
 20
472.4999852
 30
0.0
 40
1.0
 50
270.0
 51
0.0
  0
LINE
  8
0
  6
CONTINUOUS
 62
     1
 10
565.5199996
 20
471.4999852
 30
0.0
 11
565.5199996
 21
471.4999852
 31
0.0
  0
ARC
  8
0
  6
CONTINUOUS
 62
     1
 10
564.5199996
 20
471.4999852
 30
0.0
 40
1.0
 50
270.0
 51
0.0
  0
LINE
  8
0
  6
CONTINUOUS
 62
     1
 10
439.5199996
 20
472.4999852
 30
0.0
 11
439.5199996
 21
518.9999852
 31
0.0
  0
LINE
  8
0
  6
CONTINUOUS
 62
     1
 10
567.5199996
 20
471.4999852
 30
0.0
 11
440.5199996
 21
471.4999852
 31
0.0
  0
ARC
  8
0
  6
CONTINUOUS
 62
     1
 10
440.5199996
 20
472.4999852
 30
0.0
 40
1.0
 50
180.0
 51
270.0
  0
ARC
  8
0
  6
CONTINUOUS
 62
     1
 10
443.5199996
 20
471.4999852
 30
0.0
 40
1.0
 50
180.0
 51
270.0
  0
LINE
  8
0
  6
CONTINUOUS
 62
     1
 10
564.5199996
 20
470.4999852
 30
0.0
 11
443.6199996
 21
470.4999852
 31
0.0
  0
LINE
  8
0
  6
CONTINUOUS
 62
     1
 10
442.5199996
 20
521.9999852
 30
0.0
 11
529.5199996
 21
521.9999852
 31
0.0
  0
LINE
  8
0
  6
CONTINUOUS
 62
     1
 10
442.5199996
 20
523.4999852
 30
0.0
 11
529.5199996
 21
523.4999852
 31
0.0
  0
LINE
  8
0
  6
LTYPE2
 62
     2
 10
483.5199996
 20
540.1999852
 30
0.0
 11
483.5199996
 21
506.6999852
 31
0.0
  0
LINE
  8
0
  6
LTYPE2
 62
     2
 10
574.7199996
 20
495.9999852
 30
0.0
 11
555.0199996
 21
495.9999852
 31
0.0
  0
LINE
  8
0
  6
LTYPE1
 62
     2
 10
568.5199996
 20
505.2999852
 30
0.0
 11
558.5199996
 21
505.2999852
 31
0.0
  0
LINE
  8
0
  6
LTYPE1
 62
     2
 10
568.5199996
 20
506.4999852
 30
0.0
 11
558.5199996
 21
506.4999852
 31
0.0
  0
LINE
  8
0
  6
LTYPE1
 62
     2
 10
568.5199996
 20
486.6999852
 30
0.0
 11
558.5199996
 21
486.6999852
 31
0.0
  0
LINE
  8
0
  6
LTYPE1
 62
     2
 10
568.5199996
 20
485.4999852
 30
0.0
 11
558.5199996
 21
485.4999852
 31
0.0
  0
LINE
  8
0
  6
CONTINUOUS
 62
     1
 10
585.5199996
 20
596.4999852
 30
0.0
 11
597.5199996
 21
596.4999852
 31
0.0
  0
LINE
  8
0
  6
CONTINUOUS
 62
     1
 10
585.5199996
 20
586.4999852
 30
0.0
 11
597.5199996
 21
586.4999852
 31
0.0
  0
LINE
  8
0
  6
CONTINUOUS
 62
     1
 10
585.5199996
 20
658.9999852
 30
0.0
 11
597.5199996
 21
658.9999852
 31
0.0
  0
LINE
  8
0
  6
CONTINUOUS
 62
     1
 10
585.5199996
 20
654.9999852
 30
0.0
 11
597.5199996
 21
654.9999852
 31
0.0
  0
LINE
  8
0
  6
CONTINUOUS
 62
     1
 10
585.5199996
 20
523.9999852
 30
0.0
 11
597.5199996
 21
523.9999852
 31
0.0
  0
LINE
  8
0
  6
CONTINUOUS
 62
     1
 10
585.5199996
 20
527.9999852
 30
0.0
 11
597.5199996
 21
527.9999852
 31
0.0
  0
LINE
  8
0
  6
CONTINUOUS
 62
     1
 10
585.5199996
 20
658.9999852
 30
0.0
 11
585.5199996
 21
523.9999852
 31
0.0
  0
LINE
  8
0
  6
CONTINUOUS
 62
     1
 10
597.5199996
 20
658.9999852
 30
0.0
 11
597.5199996
 21
523.9999852
 31
0.0
  0
LINE
  8
0
  6
CONTINUOUS
 62
     1
 10
682.2199996
 20
616.4999852
 30
0.0
 11
732.2199996
 21
616.4999852
 31
0.0
  0
LINE
  8
0
  6
CONTINUOUS
 62
     1
 10
732.2199996
 20
616.4999852
 30
0.0
 11
732.2199996
 21
566.4999852
 31
0.0
  0
LINE
  8
0
  6
CONTINUOUS
 62
     1
 10
682.2199996
 20
566.4999852
 30
0.0
 11
732.2199996
 21
566.4999852
 31
0.0
  0
LINE
  8
0
  6
CONTINUOUS
 62
     1
 10
682.2199996
 20
616.4999852
 30
0.0
 11
682.2199996
 21
566.4999852
 31
0.0
  0
CIRCLE
  8
0
  6
CONTINUOUS
 62
     1
 10
707.2199996
 20
591.4999852
 30
0.0
 40
25.0
  0
LINE
  8
0
  6
LTYPE3
 62
     2
 10
707.2199996
 20
628.6999852
 30
0.0
 11
707.2199996
 21
554.6999852
 31
0.0
  0
LINE
  8
0
  6
CONTINUOUS
 62
     2
 10
722.1199996
 20
606.6999852
 30
0.0
 11
731.247148983
 21
618.603562147
 31
0.0
  0
LINE
  8
0
  6
CONTINUOUS
 62
     2
 10
722.1199996
 20
606.6999852
 30
0.0
 11
724.072554356
 21
621.572359924
 31
0.0
  0
LINE
  8
0
  6
CONTINUOUS
 62
     2
 10
722.1199996
 20
606.6999852
 30
0.0
 11
782.1199996
 21
751.6999852
 31
0.0
  0
LINE
  8
0
  6
CONTINUOUS
 62
     2
 10
782.1199996
 20
751.6999852
 30
0.0
 11
834.3199996
 21
751.6999852
 31
0.0
  0
TEXT
  8
0
  6
CONTINUOUS
 62
     2
 10
782.1199996
 20
757.6999852
 30
1.8
 40
18.0
  1
給脂口
 50
0.0
 41
0.9
 51
0.0
  7
KANJI17
  0
LINE
  8
0
  6
CONTINUOUS
 62
     2
 10
568.6199996
 20
495.4999852
 30
0.0
 11
579.577354041
 21
485.256139065
 31
0.0
  0
LINE
  8
0
  6
CONTINUOUS
 62
     2
 10
568.6199996
 20
495.4999852
 30
0.0
 11
583.231269972
 21
492.107231435
 31
0.0
  0
LINE
  8
0
  6
CONTINUOUS
 62
     2
 10
568.6199996
 20
495.4999852
 30
0.0
 11
628.6199996
 21
463.4999852
 31
0.0
  0
LINE
  8
0
  6
CONTINUOUS
 62
     2
 10
628.6199996
 20
463.4999852
 30
0.0
 11
716.8199996
 21
463.4999852
 31
0.0
  0
TEXT
  8
0
  6
CONTINUOUS
 62
     2
 10
628.6199996
 20
469.4999852
 30
1.8
 40
18.0
  1
ＰＦ１／２
 50
0.0
 41
0.9
 51
0.0
  7
KANJI17
  0
LINE
  8
0
  6
CONTINUOUS
 62
     2
 10
444.5199996
 20
537.4999852
 30
0.0
 11
444.5199996
 21
345.4999852
 31
0.0
  0
LINE
  8
0
  6
CONTINUOUS
 62
     2
 10
444.5199996
 20
354.4999852
 30
0.0
 11
430.031112206
 21
358.382270877
 31
0.0
  0
LINE
  8
0
  6
CONTINUOUS
 62
     2
 10
444.5199996
 20
354.4999852
 30
0.0
 11
430.031112206
 21
350.617699523
 31
0.0
  0
LINE
  8
0
  6
CONTINUOUS
 62
     2
 10
444.5199996
 20
354.4999852
 30
0.0
 11
344.5199996
 21
354.4999852
 31
0.0
  0
LINE
  8
0
  6
CONTINUOUS
 62
     2
 10
344.5199996
 20
354.4999852
 30
0.0
 11
359.008886994
 21
350.617699523
 31
0.0
  0
LINE
  8
0
  6
CONTINUOUS
 62
     2
 10
344.5199996
 20
354.4999852
 30
0.0
 11
359.008886994
 21
358.382270877
 31
0.0
  0
LINE
  8
0
  6
CONTINUOUS
 62
     2
 10
344.5199996
 20
487.4999852
 30
0.0
 11
344.5199996
 21
345.4999852
 31
0.0
  0
TEXT
  8
0
  6
CONTINUOUS
 62
     2
 10
369.0199996
 20
360.4999852
 30
1.2
 40
18.0
  1
１００
 50
0.0
 41
0.9
 51
0.0
  7
KANJI18
  0
LINE
  8
0
  6
CONTINUOUS
 62
     2
 10
344.5199996
 20
354.4999852
 30
0.0
 11
330.031112206
 21
358.382270877
 31
0.0
  0
LINE
  8
0
  6
CONTINUOUS
 62
     2
 10
344.5199996
 20
354.4999852
 30
0.0
 11
330.031112206
 21
350.617699523
 31
0.0
  0
TEXT
  8
0
  6
CONTINUOUS
 62
     2
 10
256.0199996
 20
360.4999852
 30
1.2
 40
18.0
  1
１２５
 50
0.0
 41
0.9
 51
0.0
  7
KANJI18
  0
LINE
  8
0
  6
CONTINUOUS
 62
     2
 10
444.5199996
 20
315.9999852
 30
0.0
 11
430.031112206
 21
319.882270877
 31
0.0
  0
LINE
  8
0
  6
CONTINUOUS
 62
     2
 10
444.5199996
 20
315.9999852
 30
0.0
 11
430.031112206
 21
312.117699523
 31
0.0
  0
LINE
  8
0
  6
CONTINUOUS
 62
     2
 10
444.5199996
 20
345.4999852
 30
0.0
 11
444.5199996
 21
306.9999852
 31
0.0
  0
TEXT
  8
0
  6
CONTINUOUS
 62
     2
 10
306.0199996
 20
321.9999852
 30
1.2
 40
18.0
  1
２２５
 50
0.0
 41
0.9
 51
0.0
  7
KANJI18
  0
LINE
  8
0
  6
CONTINUOUS
 62
     2
 10
444.5199996
 20
315.9999852
 30
0.0
 11
459.008886994
 21
312.117699523
 31
0.0
  0
LINE
  8
0
  6
CONTINUOUS
 62
     2
 10
444.5199996
 20
315.9999852
 30
0.0
 11
459.008886994
 21
319.882270877
 31
0.0
  0
LINE
  8
0
  6
CONTINUOUS
 62
     2
 10
444.5199996
 20
315.9999852
 30
0.0
 11
1079.1199996
 21
315.9999852
 31
0.0
  0
TEXT
  8
0
  6
CONTINUOUS
 62
     2
 10
718.9199996
 20
321.9999852
 30
1.2
 40
18.0
  1
ｍｉｎ．Ｌ
 50
0.0
 41
0.9
 51
0.0
  7
KANJI18
  0
LINE
  8
0
  6
CONTINUOUS
 62
     2
 10
444.5199996
 20
354.4999852
 30
0.0
 11
459.008886994
 21
350.617699523
 31
0.0
  0
LINE
  8
0
  6
CONTINUOUS
 62
     2
 10
444.5199996
 20
354.4999852
 30
0.0
 11
459.008886994
 21
358.382270877
 31
0.0
  0
TEXT
  8
0
  6
CONTINUOUS
 62
     2
 10
674.2199996
 20
360.4999852
 30
1.2
 40
18.0
  1
Ｃ
 50
0.0
 41
0.9
 51
0.0
  7
KANJI18
  0
TEXT
  8
0
  6
CONTINUOUS
 62
     2
 10
597.2199996
 20
283.9999852
 30
1.2
 40
18.0
  1
ｍｉｎ．ＡＬ
 50
0.0
 41
0.9
 51
0.0
  7
KANJI18
  0
LINE
  8
0
  6
CONTINUOUS
 62
     2
 10
467.6199996
 20
467.9499852
 30
0.0
 11
468.960581932
 21
453.010010668
 31
0.0
  0
LINE
  8
0
  6
CONTINUOUS
 62
     2
 10
467.6199996
 20
467.9499852
 30
0.0
 11
476.250965221
 21
455.681878889
 31
0.0
  0
LINE
  8
0
  6
CONTINUOUS
 62
     2
 10
467.6199996
 20
467.9499852
 30
0.0
 11
502.6199996
 21
372.4499852
 31
0.0
  0
LINE
  8
0
  6
CONTINUOUS
 62
     2
 10
502.6199996
 20
372.4499852
 30
0.0
 11
608.8199996
 21
372.4499852
 31
0.0
  0
TEXT
  8
0
  6
CONTINUOUS
 62
     2
 10
502.6199996
 20
378.4499852
 30
1.8
 40
18.0
  1
推力リミッタ
 50
0.0
 41
0.9
 51
0.0
  7
KANJI17
  0
LINE
  8
0
  6
CONTINUOUS
 62
     1
 10
344.5199996
 20
497.2499852
 30
0.0
 11
344.5199996
 21
870.2499852
 31
0.0
  0
LINE
  8
0
  6
CONTINUOUS
 62
     1
 10
334.5199996
 20
870.2499852
 30
0.0
 11
324.5199996
 21
821.4999852
 31
0.0
  0
LINE
  8
0
  6
CONTINUOUS
 62
     1
 10
344.5199996
 20
870.2499852
 30
0.0
 11
334.5199996
 21
870.2499852
 31
0.0
  0
LINE
  8
0
  6
CONTINUOUS
 62
     1
 10
254.5199996
 20
821.4999852
 30
0.0
 11
254.5199996
 21
854.4999852
 31
0.0
  0
LINE
  8
0
  6
CONTINUOUS
 62
     1
 10
324.5199996
 20
821.4999852
 30
0.0
 11
236.5199996
 21
821.4999852
 31
0.0
  0
LINE
  8
0
  6
CONTINUOUS
 62
     1
 10
236.5199996
 20
497.2499852
 30
0.0
 11
236.5199996
 21
821.4999852
 31
0.0
  0
LINE
  8
0
  6
LTYPE2
 62
     2
 10
284.5199996
 20
825.3999852
 30
0.0
 11
284.5199996
 21
870.2499852
 31
0.0
  0
LINE
  8
0
  6
CONTINUOUS
 62
     1
 10
324.5199996
 20
728.2499852
 30
0.0
 11
324.5199996
 21
821.4999852
 31
0.0
  0
LINE
  8
0
  6
CONTINUOUS
 62
     1
 10
331.289230369
 20
854.4999852
 30
0.0
 11
254.5199996
 21
854.4999852
 31
0.0
  0
LINE
  8
0
  6
CONTINUOUS
 62
     1
 10
232.5199996
 20
758.9999852
 30
0.0
 11
232.5199996
 21
789.9999852
 31
0.0
  0
LINE
  8
0
  6
CONTINUOUS
 62
     1
 10
236.5199996
 20
758.9999852
 30
0.0
 11
232.5199996
 21
758.9999852
 31
0.0
  0
LINE
  8
0
  6
CONTINUOUS
 62
     1
 10
236.5199996
 20
789.9999852
 30
0.0
 11
232.5199996
 21
789.9999852
 31
0.0
  0
LINE
  8
0
  6
CONTINUOUS
 62
     1
 10
232.5199996
 20
789.4999852
 30
0.0
 11
204.5199996
 21
789.4999852
 31
0.0
  0
LINE
  8
0
  6
CONTINUOUS
 62
     1
 10
204.5199996
 20
789.4999852
 30
0.0
 11
202.5199996
 21
787.4999852
 31
0.0
  0
LINE
  8
0
  6
CONTINUOUS
 62
     1
 10
232.5199996
 20
759.4999852
 30
0.0
 11
204.5199996
 21
759.4999852
 31
0.0
  0
LINE
  8
0
  6
CONTINUOUS
 62
     1
 10
202.5199996
 20
761.4999852
 30
0.0
 11
202.5199996
 21
787.4999852
 31
0.0
  0
LINE
  8
0
  6
CONTINUOUS
 62
     1
 10
204.5199996
 20
759.4999852
 30
0.0
 11
202.5199996
 21
761.4999852
 31
0.0
  0
CIRCLE
  8
0
  6
CONTINUOUS
 62
     1
 10
284.5199996
 20
879.5999852
 30
0.0
 40
15.0
  0
LINE
  8
0
  6
CONTINUOUS
 62
     1
 10
295.921268563
 20
862.601515618
 30
0.0
 11
284.5199996
 21
864.5999852
 31
0.0
  0
LINE
  8
0
  6
CONTINUOUS
 62
     1
 10
284.5199996
 20
862.5999852
 30
0.0
 11
295.921455367
 21
862.5999852
 31
0.0
  0
ARC
  8
0
  6
CONTINUOUS
 62
     1
 10
284.5199996
 20
879.5999852
 30
0.0
 40
25.0
 50
300.714883545
 51
0.0
  0
LINE
  8
0
  6
CONTINUOUS
 62
     1
 10
296.637094746
 20
856.736994689
 30
0.0
 11
295.921455367
 21
862.5999852
 31
0.0
  0
LINE
  8
0
  6
CONTINUOUS
 62
     1
 10
297.0199996
 20
853.5999852
 30
0.0
 11
296.637094746
 21
856.736994689
 31
0.0
  0
ARC
  8
0
  6
CONTINUOUS
 62
     1
 10
298.025622315
 20
856.91611086
 30
0.0
 40
1.4
 50
121.733468281
 51
187.57738995
  0
LINE
  8
0
  6
CONTINUOUS
 62
     1
 10
273.118730637
 20
862.601515618
 30
0.0
 11
284.5199996
 21
864.5999852
 31
0.0
  0
LINE
  8
0
  6
CONTINUOUS
 62
     1
 10
284.5199996
 20
862.5999852
 30
0.0
 11
273.118543833
 21
862.5999852
 31
0.0
  0
LINE
  8
0
  6
CONTINUOUS
 62
     1
 10
272.402904454
 20
856.736994689
 30
0.0
 11
273.118543833
 21
862.5999852
 31
0.0
  0
LINE
  8
0
  6
CONTINUOUS
 62
     1
 10
272.0199996
 20
853.5999852
 30
0.0
 11
272.402904454
 21
856.736994689
 31
0.0
  0
ARC
  8
0
  6
CONTINUOUS
 62
     1
 10
271.014376885
 20
856.91611086
 30
0.0
 40
1.4
 50
352.42261005
 51
58.266531719
  0
ARC
  8
0
  6
CONTINUOUS
 62
     1
 10
284.5199996
 20
879.5999852
 30
0.0
 40
25.0
 50
0.0
 51
239.342761175
  0
LINE
  8
0
  6
CONTINUOUS
 62
     1
 10
344.5199996
 20
674.3999852
 30
0.0
 11
344.5199996
 21
874.3999852
 31
0.0
  0
LINE
  8
0
  6
CONTINUOUS
 62
     2
 10
344.5199996
 20
883.3999852
 30
0.0
 11
344.5199996
 21
1034.2499852
 31
0.0
  0
LINE
  8
0
  6
CONTINUOUS
 62
     2
 10
344.5199996
 20
1025.2499852
 30
0.0
 11
330.031112206
 21
1029.132270877
 31
0.0
  0
LINE
  8
0
  6
CONTINUOUS
 62
     2
 10
344.5199996
 20
1025.2499852
 30
0.0
 11
330.031112206
 21
1021.367699523
 31
0.0
  0
LINE
  8
0
  6
CONTINUOUS
 62
     2
 10
344.5199996
 20
1025.2499852
 30
0.0
 11
202.5199996
 21
1025.2499852
 31
0.0
  0
LINE
  8
0
  6
CONTINUOUS
 62
     2
 10
202.5199996
 20
1025.2499852
 30
0.0
 11
217.008886994
 21
1021.367699523
 31
0.0
  0
LINE
  8
0
  6
CONTINUOUS
 62
     2
 10
202.5199996
 20
1025.2499852
 30
0.0
 11
217.008886994
 21
1029.132270877
 31
0.0
  0
LINE
  8
0
  6
CONTINUOUS
 62
     2
 10
202.5199996
 20
796.4999852
 30
0.0
 11
202.5199996
 21
1034.2499852
 31
0.0
  0
TEXT
  8
0
  6
CONTINUOUS
 62
     2
 10
248.0199996
 20
1031.2499852
 30
1.2
 40
18.0
  1
１４８
 50
0.0
 41
0.9
 51
0.0
  7
KANJI18
  0
LINE
  8
0
  6
LTYPE2
 62
     2
 10
193.1199996
 20
774.4999852
 30
0.0
 11
647.6199996
 21
774.4999852
 31
0.0
  0
TEXT
  8
2
  6
CONTINUOUS
 62
     2
 10
799.1199996
 20
550.3999852
 30
1.8
 40
21.0
  1
φ１１４
 50
90.0
 41
0.914285714
 51
0.0
  7
KANJI19
  0
LINE
  8
0
  6
LTYPE2
 62
     2
 10
769.6199996
 20
591.4999852
 30
0.0
 11
207.1199996
 21
591.4999852
 31
0.0
  0
LINE
  8
0
  6
LTYPE3
 62
     2
 10
1079.1199996
 20
540.4499852
 30
0.0
 11
1079.1199996
 21
639.1999852
 31
0.0
  0
LINE
  8
0
  6
CONTINUOUS
 62
     1
 10
1009.1199996
 20
628.9999852
 30
0.0
 11
1009.1199996
 21
553.9999852
 31
0.0
  0
CIRCLE
  8
0
  6
CONTINUOUS
 62
     1
 10
1079.1199996
 20
591.4999852
 30
0.0
 40
15.0
  0
LINE
  8
0
  6
CONTINUOUS
 62
     1
 10
1099.1199996
 20
628.9999852
 30
0.0
 11
1009.1199996
 21
628.9999852
 31
0.0
  0
LINE
  8
0
  6
CONTINUOUS
 62
     1
 10
1114.1199996
 20
613.9999852
 30
0.0
 11
1099.1199996
 21
628.9999852
 31
0.0
  0
LINE
  8
0
  6
CONTINUOUS
 62
     1
 10
1099.1199996
 20
553.9999852
 30
0.0
 11
1009.1199996
 21
553.9999852
 31
0.0
  0
LINE
  8
0
  6
CONTINUOUS
 62
     1
 10
1114.1199996
 20
613.9999852
 30
0.0
 11
1114.1199996
 21
568.9999852
 31
0.0
  0
LINE
  8
0
  6
CONTINUOUS
 62
     1
 10
1099.1199996
 20
553.9999852
 30
0.0
 11
1114.1199996
 21
568.9999852
 31
0.0
  0
LINE
  8
0
  6
LTYPE1
 62
     2
 10
1029.1199996
 20
628.9999852
 30
0.0
 11
1029.1199996
 21
553.9999852
 31
0.0
  0
LINE
  8
0
  6
LTYPE3
 62
     2
 10
1079.1199996
 20
639.6999852
 30
0.0
 11
1079.1199996
 21
545.6999852
 31
0.0
  0
LINE
  8
0
  6
LTYPE2
 62
     2
 10
1079.1199996
 20
785.1999852
 30
0.0
 11
1079.1199996
 21
908.1999852
 31
0.0
  0
LINE
  8
0
  6
CONTINUOUS
 62
     1
 10
1029.1199996
 20
828.1999852
 30
0.0
 11
1114.1199996
 21
828.1999852
 31
0.0
  0
LINE
  8
0
  6
CONTINUOUS
 62
     1
 10
1114.1199996
 20
808.1999852
 30
0.0
 11
1114.1199996
 21
828.1999852
 31
0.0
  0
LINE
  8
0
  6
CONTINUOUS
 62
     1
 10
1009.1199996
 20
808.1999852
 30
0.0
 11
1114.1199996
 21
808.1999852
 31
0.0
  0
LINE
  8
0
  6
CONTINUOUS
 62
     1
 10
1029.1199996
 20
868.1999852
 30
0.0
 11
1114.1199996
 21
868.1999852
 31
0.0
  0
LINE
  8
0
  6
CONTINUOUS
 62
     1
 10
1114.1199996
 20
888.1999852
 30
0.0
 11
1114.1199996
 21
868.1999852
 31
0.0
  0
LINE
  8
0
  6
CONTINUOUS
 62
     1
 10
1009.1199996
 20
888.1999852
 30
0.0
 11
1114.1199996
 21
888.1999852
 31
0.0
  0
LINE
  8
0
  6
CONTINUOUS
 62
     1
 10
1029.1199996
 20
828.1999852
 30
0.0
 11
1029.1199996
 21
868.1999852
 31
0.0
  0
LINE
  8
0
  6
CONTINUOUS
 62
     1
 10
1064.1199996
 20
828.1999852
 30
0.0
 11
1064.1199996
 21
868.1999852
 31
0.0
  0
LINE
  8
0
  6
CONTINUOUS
 62
     1
 10
1094.1199996
 20
828.1999852
 30
0.0
 11
1094.1199996
 21
868.1999852
 31
0.0
  0
LINE
  8
0
  6
LTYPE1
 62
     2
 10
1064.1199996
 20
868.1999852
 30
0.0
 11
1064.1199996
 21
888.1999852
 31
0.0
  0
LINE
  8
0
  6
LTYPE1
 62
     2
 10
1094.1199996
 20
868.1999852
 30
0.0
 11
1094.1199996
 21
888.1999852
 31
0.0
  0
LINE
  8
0
  6
CONTINUOUS
 62
     1
 10
1051.1199996
 20
804.1999852
 30
0.0
 11
1107.1199996
 21
804.1999852
 31
0.0
  0
LINE
  8
0
  6
CONTINUOUS
 62
     1
 10
1051.1199996
 20
804.1999852
 30
0.0
 11
1051.1199996
 21
808.1999852
 31
0.0
  0
LINE
  8
0
  6
CONTINUOUS
 62
     1
 10
1107.1199996
 20
804.1999852
 30
0.0
 11
1107.1199996
 21
808.1999852
 31
0.0
  0
LINE
  8
0
  6
CONTINUOUS
 62
     1
 10
1064.1199996
 20
794.1999852
 30
0.0
 11
1094.1199996
 21
794.1999852
 31
0.0
  0
LINE
  8
0
  6
CONTINUOUS
 62
     1
 10
1064.1199996
 20
794.1999852
 30
0.0
 11
1064.1199996
 21
804.1999852
 31
0.0
  0
LINE
  8
0
  6
CONTINUOUS
 62
     1
 10
1094.1199996
 20
794.1999852
 30
0.0
 11
1094.1199996
 21
804.1999852
 31
0.0
  0
LINE
  8
0
  6
LTYPE1
 62
     2
 10
1094.1199996
 20
804.1999852
 30
0.0
 11
1094.1199996
 21
828.1999852
 31
0.0
  0
LINE
  8
0
  6
LTYPE1
 62
     2
 10
1064.1199996
 20
804.1999852
 30
0.0
 11
1064.1199996
 21
828.1999852
 31
0.0
  0
LINE
  8
0
  6
CONTINUOUS
 62
     1
 10
1051.1199996
 20
892.1999852
 30
0.0
 11
1107.1199996
 21
892.1999852
 31
0.0
  0
LINE
  8
0
  6
CONTINUOUS
 62
     1
 10
1051.1199996
 20
892.1999852
 30
0.0
 11
1051.1199996
 21
888.1999852
 31
0.0
  0
LINE
  8
0
  6
CONTINUOUS
 62
     1
 10
1107.1199996
 20
892.1999852
 30
0.0
 11
1107.1199996
 21
888.1999852
 31
0.0
  0
LINE
  8
0
  6
CONTINUOUS
 62
     1
 10
1064.1199996
 20
902.1999852
 30
0.0
 11
1094.1199996
 21
902.1999852
 31
0.0
  0
LINE
  8
0
  6
CONTINUOUS
 62
     1
 10
1064.1199996
 20
902.1999852
 30
0.0
 11
1064.1199996
 21
892.1999852
 31
0.0
  0
LINE
  8
0
  6
CONTINUOUS
 62
     1
 10
1094.1199996
 20
902.1999852
 30
0.0
 11
1094.1199996
 21
892.1999852
 31
0.0
  0
LINE
  8
0
  6
LTYPE2
 62
     2
 10
1072.1199996
 20
800.5999852
 30
0.0
 11
1088.1199996
 21
800.5999852
 31
0.0
  0
CIRCLE
  8
0
  6
CONTINUOUS
 62
     1
 10
1079.1199996
 20
800.5999852
 30
0.0
 40
3.0
  0
LINE
  8
0
  6
LTYPE2
 62
     2
 10
1072.1199996
 20
895.7999852
 30
0.0
 11
1088.1199996
 21
895.7999852
 31
0.0
  0
CIRCLE
  8
0
  6
CONTINUOUS
 62
     1
 10
1079.1199996
 20
895.7999852
 30
0.0
 40
3.0
  0
LINE
  8
0
  6
CONTINUOUS
 62
     2
 10
1108.1199996
 20
628.9999852
 30
0.0
 11
1176.1199996
 21
628.9999852
 31
0.0
  0
LINE
  8
0
  6
CONTINUOUS
 62
     2
 10
1167.1199996
 20
628.9999852
 30
0.0
 11
1163.237713923
 21
614.511097806
 31
0.0
  0
LINE
  8
0
  6
CONTINUOUS
 62
     2
 10
1167.1199996
 20
628.9999852
 30
0.0
 11
1171.002285277
 21
614.511097806
 31
0.0
  0
LINE
  8
0
  6
CONTINUOUS
 62
     2
 10
1167.1199996
 20
628.9999852
 30
0.0
 11
1167.1199996
 21
553.9999852
 31
0.0
  0
LINE
  8
0
  6
CONTINUOUS
 62
     2
 10
1167.1199996
 20
553.9999852
 30
0.0
 11
1171.002285277
 21
568.488872594
 31
0.0
  0
LINE
  8
0
  6
CONTINUOUS
 62
     2
 10
1167.1199996
 20
553.9999852
 30
0.0
 11
1163.237713923
 21
568.488872594
 31
0.0
  0
LINE
  8
0
  6
CONTINUOUS
 62
     2
 10
1108.1199996
 20
553.9999852
 30
0.0
 11
1176.1199996
 21
553.9999852
 31
0.0
  0
TEXT
  8
0
  6
CONTINUOUS
 62
     2
 10
1161.1199996
 20
574.6999852
 30
1.2
 40
18.0
  1
７５
 50
90.0
 41
0.9
 51
0.0
  7
KANJI18
  0
LINE
  8
0
  6
CONTINUOUS
 62
     2
 10
1123.1199996
 20
868.1999852
 30
0.0
 11
1175.6199996
 21
868.1999852
 31
0.0
  0
LINE
  8
0
  6
CONTINUOUS
 62
     2
 10
1166.6199996
 20
868.1999852
 30
0.0
 11
1162.737713923
 21
853.711097806
 31
0.0
  0
LINE
  8
0
  6
CONTINUOUS
 62
     2
 10
1166.6199996
 20
868.1999852
 30
0.0
 11
1170.502285277
 21
853.711097806
 31
0.0
  0
LINE
  8
0
  6
CONTINUOUS
 62
     2
 10
1166.6199996
 20
868.1999852
 30
0.0
 11
1166.6199996
 21
828.1999852
 31
0.0
  0
LINE
  8
0
  6
CONTINUOUS
 62
     2
 10
1166.6199996
 20
828.1999852
 30
0.0
 11
1170.502285277
 21
842.688872594
 31
0.0
  0
LINE
  8
0
  6
CONTINUOUS
 62
     2
 10
1166.6199996
 20
828.1999852
 30
0.0
 11
1162.737713923
 21
842.688872594
 31
0.0
  0
LINE
  8
0
  6
CONTINUOUS
 62
     2
 10
1123.1199996
 20
828.1999852
 30
0.0
 11
1175.6199996
 21
828.1999852
 31
0.0
  0
TEXT
  8
0
  6
CONTINUOUS
 62
     2
 10
1160.6199996
 20
831.3999852
 30
1.2
 40
18.0
  1
４０
 50
90.0
 41
0.9
 51
0.0
  7
KANJI18
  0
LINE
  8
0
  6
CONTINUOUS
 62
     2
 10
1123.1199996
 20
808.1999852
 30
0.0
 11
1216.1199996
 21
808.1999852
 31
0.0
  0
LINE
  8
0
  6
CONTINUOUS
 62
     2
 10
1207.1199996
 20
808.1999852
 30
0.0
 11
1211.002285277
 21
822.688872594
 31
0.0
  0
LINE
  8
0
  6
CONTINUOUS
 62
     2
 10
1207.1199996
 20
808.1999852
 30
0.0
 11
1203.237713923
 21
822.688872594
 31
0.0
  0
LINE
  8
0
  6
CONTINUOUS
 62
     2
 10
1207.1199996
 20
808.1999852
 30
0.0
 11
1207.1199996
 21
888.1999852
 31
0.0
  0
LINE
  8
0
  6
CONTINUOUS
 62
     2
 10
1207.1199996
 20
888.1999852
 30
0.0
 11
1203.237713923
 21
873.711097806
 31
0.0
  0
LINE
  8
0
  6
CONTINUOUS
 62
     2
 10
1207.1199996
 20
888.1999852
 30
0.0
 11
1211.002285277
 21
873.711097806
 31
0.0
  0
LINE
  8
0
  6
CONTINUOUS
 62
     2
 10
1123.1199996
 20
888.1999852
 30
0.0
 11
1216.1199996
 21
888.1999852
 31
0.0
  0
TEXT
  8
0
  6
CONTINUOUS
 62
     2
 10
1201.1199996
 20
831.3999852
 30
1.2
 40
18.0
  1
８０
 50
90.0
 41
0.9
 51
0.0
  7
KANJI18
  0
LINE
  8
0
  6
CONTINUOUS
 62
     2
 10
1064.1199996
 20
795.1999852
 30
0.0
 11
1064.1199996
 21
739.1999852
 31
0.0
  0
LINE
  8
0
  6
CONTINUOUS
 62
     2
 10
1064.1199996
 20
748.1999852
 30
0.0
 11
1049.631112206
 21
752.082270877
 31
0.0
  0
LINE
  8
0
  6
CONTINUOUS
 62
     2
 10
1064.1199996
 20
748.1999852
 30
0.0
 11
1049.631112206
 21
744.317699523
 31
0.0
  0
LINE
  8
0
  6
CONTINUOUS
 62
     2
 10
1041.6199996
 20
748.1999852
 30
0.0
 11
1202.4199996
 21
748.1999852
 31
0.0
  0
LINE
  8
0
  6
CONTINUOUS
 62
     2
 10
1094.1199996
 20
748.1999852
 30
0.0
 11
1108.608886994
 21
744.317699523
 31
0.0
  0
LINE
  8
0
  6
CONTINUOUS
 62
     2
 10
1094.1199996
 20
748.1999852
 30
0.0
 11
1108.608886994
 21
752.082270877
 31
0.0
  0
LINE
  8
0
  6
CONTINUOUS
 62
     2
 10
1094.1199996
 20
785.1999852
 30
0.0
 11
1094.1199996
 21
739.1999852
 31
0.0
  0
TEXT
  8
0
  6
CONTINUOUS
 62
     2
 10
1171.6199996
 20
725.6999852
 30
1.8
 40
18.0
  1
ｄ９
 50
0.0
 41
0.9
 51
0.0
  7
KANJI17
  0
TEXT
  8
0
  6
CONTINUOUS
 62
     2
 10
1116.6199996
 20
754.1999852
 30
1.2
 40
18.0
  1
φ３０Ｈ１０
 50
0.0
 41
0.9
 51
0.0
  7
KANJI18
  0
LINE
  8
0
  6
CONTINUOUS
 62
     2
 10
1029.1199996
 20
819.1999852
 30
0.0
 11
1029.1199996
 21
703.1999852
 31
0.0
  0
LINE
  8
0
  6
CONTINUOUS
 62
     2
 10
1029.1199996
 20
712.1999852
 30
0.0
 11
1043.608886994
 21
708.317699523
 31
0.0
  0
LINE
  8
0
  6
CONTINUOUS
 62
     2
 10
1029.1199996
 20
712.1999852
 30
0.0
 11
1043.608886994
 21
716.082270877
 31
0.0
  0
LINE
  8
0
  6
CONTINUOUS
 62
     2
 10
1029.1199996
 20
712.1999852
 30
0.0
 11
1079.1199996
 21
712.1999852
 31
0.0
  0
LINE
  8
0
  6
CONTINUOUS
 62
     2
 10
1079.1199996
 20
712.1999852
 30
0.0
 11
1064.631112206
 21
716.082270877
 31
0.0
  0
LINE
  8
0
  6
CONTINUOUS
 62
     2
 10
1079.1199996
 20
712.1999852
 30
0.0
 11
1064.631112206
 21
708.317699523
 31
0.0
  0
LINE
  8
0
  6
CONTINUOUS
 62
     2
 10
1079.1199996
 20
776.1999852
 30
0.0
 11
1079.1199996
 21
703.1999852
 31
0.0
  0
TEXT
  8
0
  6
CONTINUOUS
 62
     2
 10
1037.3199996
 20
718.1999852
 30
1.2
 40
18.0
  1
５０
 50
0.0
 41
0.9
 51
0.0
  7
KANJI18
  0
LINE
  8
0
  6
CONTINUOUS
 62
     2
 10
1079.1199996
 20
315.9999852
 30
0.0
 11
1064.631112206
 21
319.882270877
 31
0.0
  0
LINE
  8
0
  6
CONTINUOUS
 62
     2
 10
1079.1199996
 20
315.9999852
 30
0.0
 11
1064.631112206
 21
312.117699523
 31
0.0
  0
LINE
  8
0
  6
CONTINUOUS
 62
     2
 10
1079.1199996
 20
531.4499852
 30
0.0
 11
1079.1199996
 21
306.9999852
 31
0.0
  0
LINE
  8
0
  6
CONTINUOUS
 62
     2
 10
1009.1199996
 20
354.4999852
 30
0.0
 11
994.631112206
 21
358.382270877
 31
0.0
  0
LINE
  8
0
  6
CONTINUOUS
 62
     2
 10
1009.1199996
 20
354.4999852
 30
0.0
 11
994.631112206
 21
350.617699523
 31
0.0
  0
LINE
  8
0
  6
CONTINUOUS
 62
     2
 10
1009.1199996
 20
354.4999852
 30
0.0
 11
1023.608886994
 21
350.617699523
 31
0.0
  0
LINE
  8
0
  6
CONTINUOUS
 62
     2
 10
1009.1199996
 20
354.4999852
 30
0.0
 11
1023.608886994
 21
358.382270877
 31
0.0
  0
LINE
  8
0
  6
CONTINUOUS
 62
     2
 10
1009.1199996
 20
354.4999852
 30
0.0
 11
1079.1199996
 21
354.4999852
 31
0.0
  0
LINE
  8
0
  6
CONTINUOUS
 62
     2
 10
1079.1199996
 20
354.4999852
 30
0.0
 11
1064.631112206
 21
358.382270877
 31
0.0
  0
LINE
  8
0
  6
CONTINUOUS
 62
     2
 10
1079.1199996
 20
354.4999852
 30
0.0
 11
1064.631112206
 21
350.617699523
 31
0.0
  0
TEXT
  8
0
  6
CONTINUOUS
 62
     2
 10
1027.3199996
 20
360.4999852
 30
1.2
 40
18.0
  1
７０
 50
0.0
 41
0.9
 51
0.0
  7
KANJI18
  0
LINE
  8
0
  6
CONTINUOUS
 62
     2
 10
1079.1199996
 20
306.9999852
 30
0.0
 11
1079.1199996
 21
268.9999852
 31
0.0
  0
LINE
  8
0
  6
CONTINUOUS
 62
     2
 10
1114.1199996
 20
559.9999852
 30
0.0
 11
1114.1199996
 21
268.9999852
 31
0.0
  0
TEXT
  8
0
  6
CONTINUOUS
 62
     2
 10
1079.8199996
 20
283.9999852
 30
1.2
 40
18.0
  1
３５
 50
0.0
 41
0.9
 51
0.0
  7
KANJI18
  0
LINE
  8
0
  6
CONTINUOUS
 62
     2
 10
1079.1199996
 20
277.9999852
 30
0.0
 11
1064.631112206
 21
281.882270877
 31
0.0
  0
LINE
  8
0
  6
CONTINUOUS
 62
     2
 10
1079.1199996
 20
277.9999852
 30
0.0
 11
1064.631112206
 21
274.117699523
 31
0.0
  0
LINE
  8
0
  6
CONTINUOUS
 62
     2
 10
1079.1199996
 20
277.9999852
 30
0.0
 11
1093.608886994
 21
274.117699523
 31
0.0
  0
LINE
  8
0
  6
CONTINUOUS
 62
     2
 10
1079.1199996
 20
277.9999852
 30
0.0
 11
1093.608886994
 21
281.882270877
 31
0.0
  0
LINE
  8
0
  6
CONTINUOUS
 62
     2
 10
1079.1199996
 20
277.9999852
 30
0.0
 11
1114.1199996
 21
277.9999852
 31
0.0
  0
LINE
  8
0
  6
CONTINUOUS
 62
     2
 10
1114.1199996
 20
277.9999852
 30
0.0
 11
1099.631112206
 21
281.882270877
 31
0.0
  0
LINE
  8
0
  6
CONTINUOUS
 62
     2
 10
1114.1199996
 20
277.9999852
 30
0.0
 11
1099.631112206
 21
274.117699523
 31
0.0
  0
LINE
  8
0
  6
CONTINUOUS
 62
     2
 10
1009.1199996
 20
544.4999852
 30
0.0
 11
1009.1199996
 21
345.4999852
 31
0.0
  0
LINE
  8
0
  6
CONTINUOUS
 62
     1
 10
1009.1199996
 20
888.1999852
 30
0.0
 11
1009.1199996
 21
808.1999852
 31
0.0
  0
LINE
  8
2
  6
CONTINUOUS
 62
     2
 10
805.1199996
 20
534.4999852
 30
0.0
 11
809.002285277
 21
548.988872594
 31
0.0
  0
LINE
  8
2
  6
CONTINUOUS
 62
     2
 10
805.1199996
 20
534.4999852
 30
0.0
 11
801.237713923
 21
548.988872594
 31
0.0
  0
LINE
  8
2
  6
CONTINUOUS
 62
     2
 10
805.1199996
 20
534.4999852
 30
0.0
 11
805.1199996
 21
648.4999852
 31
0.0
  0
LINE
  8
2
  6
CONTINUOUS
 62
     2
 10
805.1199996
 20
648.4999852
 30
0.0
 11
801.237713923
 21
634.011097806
 31
0.0
  0
LINE
  8
2
  6
CONTINUOUS
 62
     2
 10
805.1199996
 20
648.4999852
 30
0.0
 11
809.002285277
 21
634.011097806
 31
0.0
  0
LINE
  8
0
  6
LTYPE2
 62
     2
 10
1127.5199996
 20
591.4999852
 30
0.0
 11
801.1199996
 21
591.4999852
 31
0.0
  0
LINE
  8
0
  6
CONTINUOUS
 62
     1
 10
1429.6199996
 20
576.4999852
 30
0.0
 11
1389.6199996
 21
576.4999852
 31
0.0
  0
LINE
  8
0
  6
CONTINUOUS
 62
     1
 10
1429.6199996
 20
606.4999852
 30
0.0
 11
1389.6199996
 21
606.4999852
 31
0.0
  0
LINE
  8
0
  6
LTYPE1
 62
     2
 10
1389.6199996
 20
576.4999852
 30
0.0
 11
1369.6199996
 21
576.4999852
 31
0.0
  0
LINE
  8
0
  6
LTYPE1
 62
     2
 10
1389.6199996
 20
606.4999852
 30
0.0
 11
1369.6199996
 21
606.4999852
 31
0.0
  0
LINE
  8
0
  6
CONTINUOUS
 62
     1
 10
1453.6199996
 20
563.4999852
 30
0.0
 11
1453.6199996
 21
619.4999852
 31
0.0
  0
LINE
  8
0
  6
CONTINUOUS
 62
     1
 10
1453.6199996
 20
563.4999852
 30
0.0
 11
1449.6199996
 21
563.4999852
 31
0.0
  0
LINE
  8
0
  6
CONTINUOUS
 62
     1
 10
1453.6199996
 20
619.4999852
 30
0.0
 11
1449.6199996
 21
619.4999852
 31
0.0
  0
LINE
  8
0
  6
CONTINUOUS
 62
     1
 10
1463.6199996
 20
576.4999852
 30
0.0
 11
1463.6199996
 21
606.4999852
 31
0.0
  0
LINE
  8
0
  6
CONTINUOUS
 62
     1
 10
1463.6199996
 20
576.4999852
 30
0.0
 11
1453.6199996
 21
576.4999852
 31
0.0
  0
LINE
  8
0
  6
CONTINUOUS
 62
     1
 10
1463.6199996
 20
606.4999852
 30
0.0
 11
1453.6199996
 21
606.4999852
 31
0.0
  0
LINE
  8
0
  6
LTYPE1
 62
     2
 10
1453.6199996
 20
606.4999852
 30
0.0
 11
1429.6199996
 21
606.4999852
 31
0.0
  0
LINE
  8
0
  6
LTYPE1
 62
     2
 10
1453.6199996
 20
576.4999852
 30
0.0
 11
1429.6199996
 21
576.4999852
 31
0.0
  0
LINE
  8
0
  6
CONTINUOUS
 62
     1
 10
1365.6199996
 20
563.4999852
 30
0.0
 11
1365.6199996
 21
619.4999852
 31
0.0
  0
LINE
  8
0
  6
CONTINUOUS
 62
     1
 10
1365.6199996
 20
563.4999852
 30
0.0
 11
1369.6199996
 21
563.4999852
 31
0.0
  0
LINE
  8
0
  6
CONTINUOUS
 62
     1
 10
1365.6199996
 20
619.4999852
 30
0.0
 11
1369.6199996
 21
619.4999852
 31
0.0
  0
LINE
  8
0
  6
CONTINUOUS
 62
     1
 10
1355.6199996
 20
576.4999852
 30
0.0
 11
1355.6199996
 21
606.4999852
 31
0.0
  0
LINE
  8
0
  6
CONTINUOUS
 62
     1
 10
1355.6199996
 20
576.4999852
 30
0.0
 11
1365.6199996
 21
576.4999852
 31
0.0
  0
LINE
  8
0
  6
CONTINUOUS
 62
     1
 10
1355.6199996
 20
606.4999852
 30
0.0
 11
1365.6199996
 21
606.4999852
 31
0.0
  0
LINE
  8
0
  6
LTYPE2
 62
     2
 10
1457.2199996
 20
584.4999852
 30
0.0
 11
1457.2199996
 21
600.4999852
 31
0.0
  0
CIRCLE
  8
0
  6
CONTINUOUS
 62
     1
 10
1457.2199996
 20
591.4999852
 30
0.0
 40
3.0
  0
LINE
  8
0
  6
LTYPE2
 62
     2
 10
1362.0199996
 20
584.4999852
 30
0.0
 11
1362.0199996
 21
600.4999852
 31
0.0
  0
CIRCLE
  8
0
  6
CONTINUOUS
 62
     1
 10
1362.0199996
 20
591.4999852
 30
0.0
 40
3.0
  0
LINE
  8
0
  6
CONTINUOUS
 62
     1
 10
1449.6199996
 20
628.9999852
 30
0.0
 11
1369.6199996
 21
628.9999852
 31
0.0
  0
LINE
  8
0
  6
CONTINUOUS
 62
     1
 10
1389.6199996
 20
553.9999852
 30
0.0
 11
1389.6199996
 21
628.9999852
 31
0.0
  0
LINE
  8
0
  6
CONTINUOUS
 62
     1
 10
1369.6199996
 20
553.9999852
 30
0.0
 11
1369.6199996
 21
628.9999852
 31
0.0
  0
LINE
  8
0
  6
CONTINUOUS
 62
     1
 10
1429.6199996
 20
553.9999852
 30
0.0
 11
1429.6199996
 21
628.9999852
 31
0.0
  0
LINE
  8
0
  6
CONTINUOUS
 62
     1
 10
1449.6199996
 20
553.9999852
 30
0.0
 11
1369.6199996
 21
553.9999852
 31
0.0
  0
LINE
  8
0
  6
CONTINUOUS
 62
     1
 10
1449.6199996
 20
553.9999852
 30
0.0
 11
1449.6199996
 21
628.9999852
 31
0.0
  0
LINE
  8
0
  6
LTYPE1
 62
     2
 10
1484.6199996
 20
576.4999852
 30
0.0
 11
1484.6199996
 21
606.4999852
 31
0.0
  0
LINE
  8
0
  6
LTYPE1
 62
     2
 10
1484.6199996
 20
606.4999852
 30
0.0
 11
1519.6199996
 21
606.4999852
 31
0.0
  0
LINE
  8
0
  6
LTYPE1
 62
     2
 10
1484.6199996
 20
576.4999852
 30
0.0
 11
1519.6199996
 21
576.4999852
 31
0.0
  0
LINE
  8
0
  6
LTYPE2
 62
     2
 10
1526.6199996
 20
591.4999852
 30
0.0
 11
1303.6199996
 21
591.4999852
 31
0.0
  0
LINE
  8
0
  6
LTYPE1
 62
     2
 10
1334.6199996
 20
576.4999852
 30
0.0
 11
1299.6199996
 21
576.4999852
 31
0.0
  0
LINE
  8
0
  6
LTYPE1
 62
     2
 10
1334.6199996
 20
606.4999852
 30
0.0
 11
1299.6199996
 21
606.4999852
 31
0.0
  0
LINE
  8
0
  6
LTYPE1
 62
     2
 10
1334.6199996
 20
576.4999852
 30
0.0
 11
1334.6199996
 21
606.4999852
 31
0.0
  0
LINE
  8
0
  6
CONTINUOUS
 62
     1
 10
1358.6199996
 20
472.4999852
 30
0.0
 11
1358.6199996
 21
518.9999852
 31
0.0
  0
ARC
  8
0
  6
CONTINUOUS
 62
     1
 10
1359.6199996
 20
472.4999852
 30
0.0
 40
1.0
 50
180.0
 51
270.0
  0
ARC
  8
0
  6
CONTINUOUS
 62
     1
 10
1362.6199996
 20
471.4999852
 30
0.0
 40
1.0
 50
180.0
 51
270.0
  0
ARC
  8
0
  6
CONTINUOUS
 62
     1
 10
1457.6199996
 20
518.9999852
 30
0.0
 40
3.0
 50
0.0
 51
90.0
  0
LINE
  8
0
  6
CONTINUOUS
 62
     1
 10
1460.6199996
 20
472.4999852
 30
0.0
 11
1460.6199996
 21
518.9999852
 31
0.0
  0
ARC
  8
0
  6
CONTINUOUS
 62
     1
 10
1459.6199996
 20
472.4999852
 30
0.0
 40
1.0
 50
270.0
 51
0.0
  0
ARC
  8
0
  6
CONTINUOUS
 62
     1
 10
1456.6199996
 20
471.4999852
 30
0.0
 40
1.0
 50
270.0
 51
0.0
  0
LINE
  8
0
  6
CONTINUOUS
 62
     1
 10
1460.6199996
 20
477.4999852
 30
0.0
 11
1358.6199996
 21
477.4999852
 31
0.0
  0
LINE
  8
0
  6
CONTINUOUS
 62
     1
 10
1460.6199996
 20
478.9999852
 30
0.0
 11
1358.6199996
 21
478.9999852
 31
0.0
  0
LINE
  8
0
  6
CONTINUOUS
 62
     1
 10
1456.6199996
 20
470.4999852
 30
0.0
 11
1362.6199996
 21
470.4999852
 31
0.0
  0
LINE
  8
0
  6
CONTINUOUS
 62
     1
 10
1459.6199996
 20
471.4999852
 30
0.0
 11
1359.6199996
 21
471.4999852
 31
0.0
  0
LINE
  8
0
  6
LTYPE3
 62
     2
 10
1454.6199996
 20
466.7999852
 30
0.0
 11
1454.6199996
 21
485.4999852
 31
0.0
  0
LINE
  8
0
  6
LTYPE3
 62
     2
 10
1364.6199996
 20
466.7999852
 30
0.0
 11
1364.6199996
 21
485.4999852
 31
0.0
  0
CIRCLE
  8
0
  6
CONTINUOUS
 62
     2
 10
1409.6199996
 20
495.9999852
 30
0.0
 40
10.4775
  0
CIRCLE
  8
0
  6
CONTINUOUS
 62
     2
 10
1409.6199996
 20
495.9999852
 30
0.0
 40
9.3155
  0
LINE
  8
0
  6
LTYPE2
 62
     2
 10
1429.5199996
 20
495.9999852
 30
0.0
 11
1388.8199996
 21
495.9999852
 31
0.0
  0
LINE
  8
0
  6
LTYPE2
 62
     2
 10
1487.1199996
 20
531.4999852
 30
0.0
 11
1453.1199996
 21
531.4999852
 31
0.0
  0
LINE
  8
0
  6
LTYPE2
 62
     2
 10
1469.6199996
 20
512.9999852
 30
0.0
 11
1469.6199996
 21
548.9999852
 31
0.0
  0
LINE
  8
0
  6
CONTINUOUS
 62
     1
 10
1481.6199996
 20
511.4999852
 30
0.0
 11
1460.6199996
 21
511.4999852
 31
0.0
  0
LINE
  8
0
  6
LTYPE2
 62
     2
 10
1487.1199996
 20
651.4999852
 30
0.0
 11
1453.1199996
 21
651.4999852
 31
0.0
  0
LINE
  8
0
  6
CONTINUOUS
 62
     2
 10
1535.6199996
 20
591.4999852
 30
0.0
 11
1580.1199996
 21
591.4999852
 31
0.0
  0
LINE
  8
0
  6
CONTINUOUS
 62
     2
 10
1571.1199996
 20
591.4999852
 30
0.0
 11
1575.002285277
 21
605.988872594
 31
0.0
  0
LINE
  8
0
  6
CONTINUOUS
 62
     2
 10
1571.1199996
 20
591.4999852
 30
0.0
 11
1567.237713923
 21
605.988872594
 31
0.0
  0
TEXT
  8
0
  6
CONTINUOUS
 62
     2
 10
1565.1199996
 20
657.1249852
 30
1.2
 40
18.0
  1
１８３
 50
90.0
 41
0.9
 51
0.0
  7
KANJI18
  0
LINE
  8
0
  6
CONTINUOUS
 62
     2
 10
1580.1199996
 20
591.4999852
 30
0.0
 11
1627.1199996
 21
591.4999852
 31
0.0
  0
LINE
  8
0
  6
CONTINUOUS
 62
     2
 10
1618.1199996
 20
591.4999852
 30
0.0
 11
1614.237713923
 21
577.011097806
 31
0.0
  0
LINE
  8
0
  6
CONTINUOUS
 62
     2
 10
1618.1199996
 20
591.4999852
 30
0.0
 11
1622.002285277
 21
577.011097806
 31
0.0
  0
LINE
  8
0
  6
CONTINUOUS
 62
     2
 10
1618.1199996
 20
591.4999852
 30
0.0
 11
1618.1199996
 21
470.4999852
 31
0.0
  0
LINE
  8
0
  6
CONTINUOUS
 62
     2
 10
1618.1199996
 20
470.4999852
 30
0.0
 11
1622.002285277
 21
484.988872594
 31
0.0
  0
LINE
  8
0
  6
CONTINUOUS
 62
     2
 10
1618.1199996
 20
470.4999852
 30
0.0
 11
1614.237713923
 21
484.988872594
 31
0.0
  0
LINE
  8
0
  6
CONTINUOUS
 62
     2
 10
1465.6199996
 20
470.4999852
 30
0.0
 11
1627.1199996
 21
470.4999852
 31
0.0
  0
TEXT
  8
0
  6
CONTINUOUS
 62
     2
 10
1612.1199996
 20
505.4999852
 30
1.2
 40
18.0
  1
１２１
 50
90.0
 41
0.9
 51
0.0
  7
KANJI18
  0
LINE
  8
0
  6
CONTINUOUS
 62
     2
 10
1299.6199996
 20
547.4999852
 30
0.0
 11
1299.6199996
 21
351.9999852
 31
0.0
  0
LINE
  8
0
  6
CONTINUOUS
 62
     2
 10
1299.6199996
 20
360.9999852
 30
0.0
 11
1314.108886994
 21
357.117699523
 31
0.0
  0
LINE
  8
0
  6
CONTINUOUS
 62
     2
 10
1299.6199996
 20
360.9999852
 30
0.0
 11
1314.108886994
 21
364.882270877
 31
0.0
  0
LINE
  8
0
  6
CONTINUOUS
 62
     2
 10
1299.6199996
 20
360.9999852
 30
0.0
 11
1519.6199996
 21
360.9999852
 31
0.0
  0
LINE
  8
0
  6
CONTINUOUS
 62
     2
 10
1519.6199996
 20
360.9999852
 30
0.0
 11
1505.131112206
 21
364.882270877
 31
0.0
  0
LINE
  8
0
  6
CONTINUOUS
 62
     2
 10
1519.6199996
 20
360.9999852
 30
0.0
 11
1505.131112206
 21
357.117699523
 31
0.0
  0
LINE
  8
0
  6
CONTINUOUS
 62
     2
 10
1519.6199996
 20
547.4999852
 30
0.0
 11
1519.6199996
 21
351.9999852
 31
0.0
  0
TEXT
  8
0
  6
CONTINUOUS
 62
     2
 10
1384.1199996
 20
366.9999852
 30
1.2
 40
18.0
  1
２２０
 50
0.0
 41
0.9
 51
0.0
  7
KANJI18
  0
ARC
  8
0
  6
CONTINUOUS
 62
     1
 10
1361.6199996
 20
518.9999852
 30
0.0
 40
3.0
 50
90.0
 51
180.0
  0
LINE
  8
0
  6
CONTINUOUS
 62
     2
 10
1270.6199996
 20
606.4999852
 30
0.0
 11
1274.502285277
 21
620.988872594
 31
0.0
  0
LINE
  8
0
  6
CONTINUOUS
 62
     2
 10
1270.6199996
 20
606.4999852
 30
0.0
 11
1266.737713923
 21
620.988872594
 31
0.0
  0
TEXT
  8
0
  6
CONTINUOUS
 62
     2
 10
1264.6199996
 20
628.9999852
 30
1.2
 40
18.0
  1
φ３０Ｈ１０深３５
 50
90.0
 41
0.9
 51
0.0
  7
KANJI18
  0
LINE
  8
0
  6
CONTINUOUS
 62
     2
 10
1270.6199996
 20
576.4999852
 30
0.0
 11
1266.737713923
 21
562.011097806
 31
0.0
  0
LINE
  8
0
  6
CONTINUOUS
 62
     2
 10
1270.6199996
 20
576.4999852
 30
0.0
 11
1274.502285277
 21
562.011097806
 31
0.0
  0
LINE
  8
0
  6
CONTINUOUS
 62
     2
 10
1293.997633236
 20
606.4999852
 30
0.0
 11
1264.1199996
 21
606.4999852
 31
0.0
  0
LINE
  8
0
  6
CONTINUOUS
 62
     2
 10
1294.0199996
 20
576.4999852
 30
0.0
 11
1264.1199996
 21
576.4999852
 31
0.0
  0
LINE
  8
0
  6
CONTINUOUS
 62
     1
 10
1299.6199996
 20
561.4999852
 30
0.0
 11
1299.6199996
 21
621.4999852
 31
0.0
  0
LINE
  8
0
  6
CONTINUOUS
 62
     1
 10
1519.6199996
 20
561.4999852
 30
0.0
 11
1519.6199996
 21
621.4999852
 31
0.0
  0
LINE
  8
0
  6
CONTINUOUS
 62
     2
 10
1270.6199996
 20
553.9999852
 30
0.0
 11
1270.6199996
 21
797.167403843
 31
0.0
  0
TEXT
  8
0
  6
CONTINUOUS
 62
     2
 10
176.4
 20
26.4
 30
0.0
 40
18.0
  1
ＦＤ　Ｎｏ．ＭＣ１９８
 50
0.0
 41
0.9
 51
0.0
  7
KANJI20
  0
LINE
  8
0
  6
CONTINUOUS
 62
     1
 10
840.1199996
 20
591.4999852
 30
0.0
 11
840.1199996
 21
651.4999852
 31
0.0
  0
LINE
  8
0
  6
CONTINUOUS
 62
     1
 10
850.1199996
 20
591.4999852
 30
0.0
 11
850.1199996
 21
651.4999852
 31
0.0
  0
LINE
  8
0
  6
CONTINUOUS
 62
     1
 10
860.442462859
 20
666.4999852
 30
0.0
 11
860.442462859
 21
591.4999852
 31
0.0
  0
LINE
  8
0
  6
CONTINUOUS
 62
     1
 10
865.996355396
 20
651.4999852
 30
0.0
 11
865.996355396
 21
591.4999852
 31
0.0
  0
LINE
  8
0
  6
CONTINUOUS
 62
     1
 10
871.550247933
 20
666.4999852
 30
0.0
 11
871.550247933
 21
592.5999852
 31
0.0
  0
LINE
  8
0
  6
CONTINUOUS
 62
     1
 10
877.104139795
 20
651.4999852
 30
0.0
 11
877.104139795
 21
591.4999852
 31
0.0
  0
LINE
  8
0
  6
CONTINUOUS
 62
     1
 10
855.1199996
 20
649.4999852
 30
0.0
 11
859.476537033
 21
665.758804245
 31
0.0
  0
ARC
  8
0
  6
CONTINUOUS
 62
     1
 10
860.442462859
 20
665.4999852
 30
0.0
 40
1.0
 50
90.0
 51
165.0
  0
ARC
  8
0
  6
CONTINUOUS
 62
     1
 10
860.442463534
 20
665.4999852
 30
0.0
 40
1.0
 50
15.0
 51
90.0
  0
LINE
  8
0
  6
CONTINUOUS
 62
     1
 10
865.03042957
 20
652.241166155
 30
0.0
 11
861.40838936
 21
665.758804245
 31
0.0
  0
ARC
  8
0
  6
CONTINUOUS
 62
     1
 10
865.996355396
 20
652.4999852
 30
0.0
 40
1.0
 50
195.0
 51
270.0
  0
ARC
  8
0
  6
CONTINUOUS
 62
     1
 10
865.99635607
 20
652.4999852
 30
0.0
 40
1.0
 50
270.0
 51
345.0
  0
LINE
  8
0
  6
CONTINUOUS
 62
     1
 10
866.962281897
 20
652.241166155
 30
0.0
 11
870.584322107
 21
665.758804245
 31
0.0
  0
ARC
  8
0
  6
CONTINUOUS
 62
     1
 10
871.550247933
 20
665.4999852
 30
0.0
 40
1.0
 50
90.0
 51
165.0
  0
ARC
  8
0
  6
CONTINUOUS
 62
     1
 10
871.550247933
 20
665.4999852
 30
0.0
 40
1.0
 50
15.0
 51
90.0
  0
LINE
  8
0
  6
CONTINUOUS
 62
     1
 10
876.138213969
 20
652.241166155
 30
0.0
 11
872.516173759
 21
665.758804245
 31
0.0
  0
ARC
  8
0
  6
CONTINUOUS
 62
     1
 10
877.104139795
 20
652.4999852
 30
0.0
 40
1.0
 50
195.0
 51
270.0
  0
LINE
  8
0
  6
CONTINUOUS
 62
     1
 10
840.1199996
 20
651.4999852
 30
0.0
 11
850.1199996
 21
651.4999852
 31
0.0
  0
LINE
  8
0
  6
CONTINUOUS
 62
     1
 10
850.064743363
 20
649.4999852
 30
0.0
 11
855.1199996
 21
649.4999852
 31
0.0
  0
LINE
  8
0
  6
LTYPE4
 62
     2
 10
871.550247933
 20
666.4999852
 30
0.0
 11
969.1199996
 21
666.4999852
 31
0.0
  0
LINE
  8
0
  6
LTYPE4
 62
     2
 10
877.104139795
 20
651.4999852
 30
0.0
 11
964.1199996
 21
651.4999852
 31
0.0
  0
ARC
  8
0
  6
CONTINUOUS
 62
     1
 10
972.464743363
 20
665.4999852
 30
0.0
 40
1.0
 50
90.0
 51
165.0
  0
LINE
  8
0
  6
CONTINUOUS
 62
     1
 10
967.876777327
 20
652.241166155
 30
0.0
 11
971.498817537
 21
665.758804245
 31
0.0
  0
ARC
  8
0
  6
CONTINUOUS
 62
     1
 10
966.910851501
 20
652.4999852
 30
0.0
 40
1.0
 50
270.0
 51
345.0
  0
LINE
  8
0
  6
CONTINUOUS
 62
     1
 10
996.6199996
 20
631.9999852
 30
0.0
 11
1006.6199996
 21
631.9999852
 31
0.0
  0
LINE
  8
0
  6
CONTINUOUS
 62
     1
 10
994.1199996
 20
629.9999852
 30
0.0
 11
996.564743363
 21
629.9999852
 31
0.0
  0
LINE
  8
0
  6
CONTINUOUS
 62
     1
 10
1006.6199996
 20
631.9999852
 30
0.0
 11
1006.6199996
 21
591.4999852
 31
0.0
  0
LINE
  8
0
  6
CONTINUOUS
 62
     1
 10
994.1199996
 20
629.9999852
 30
0.0
 11
994.1199996
 21
591.4999852
 31
0.0
  0
LINE
  8
0
  6
CONTINUOUS
 62
     1
 10
996.6199996
 20
631.9999852
 30
0.0
 11
996.6199996
 21
591.4999852
 31
0.0
  0
LINE
  8
0
  6
CONTINUOUS
 62
     1
 10
994.1199996
 20
629.9999852
 30
0.0
 11
984.538452915
 21
665.758804245
 31
0.0
  0
ARC
  8
0
  6
CONTINUOUS
 62
     1
 10
983.572527088
 20
665.4999852
 30
0.0
 40
1.0
 50
15.0
 51
90.0
  0
ARC
  8
0
  6
CONTINUOUS
 62
     1
 10
983.572527088
 20
665.4999852
 30
0.0
 40
1.0
 50
90.0
 51
165.0
  0
LINE
  8
0
  6
CONTINUOUS
 62
     1
 10
978.984561052
 20
652.241166155
 30
0.0
 11
982.606601262
 21
665.758804245
 31
0.0
  0
ARC
  8
0
  6
CONTINUOUS
 62
     1
 10
978.018635226
 20
652.4999852
 30
0.0
 40
1.0
 50
270.0
 51
345.0
  0
ARC
  8
0
  6
CONTINUOUS
 62
     1
 10
978.018635226
 20
652.4999852
 30
0.0
 40
1.0
 50
195.0
 51
270.0
  0
LINE
  8
0
  6
CONTINUOUS
 62
     1
 10
977.0527094
 20
652.241166155
 30
0.0
 11
973.43066919
 21
665.758804245
 31
0.0
  0
ARC
  8
0
  6
CONTINUOUS
 62
     1
 10
972.464743363
 20
665.4999852
 30
0.0
 40
1.0
 50
15.0
 51
90.0
  0
LINE
  8
0
  6
CONTINUOUS
 62
     1
 10
966.910851501
 20
651.4999852
 30
0.0
 11
966.910851501
 21
591.4999852
 31
0.0
  0
LINE
  8
0
  6
CONTINUOUS
 62
     1
 10
972.464743363
 20
666.4999852
 30
0.0
 11
972.464743363
 21
591.4999852
 31
0.0
  0
LINE
  8
0
  6
CONTINUOUS
 62
     1
 10
983.572527088
 20
666.4999852
 30
0.0
 11
983.572527088
 21
591.4999852
 31
0.0
  0
LINE
  8
0
  6
CONTINUOUS
 62
     1
 10
978.018635226
 20
651.4999852
 30
0.0
 11
978.018635226
 21
591.4999852
 31
0.0
  0
LINE
  8
0
  6
CONTINUOUS
 62
     1
 10
1006.564743363
 20
629.9999852
 30
0.0
 11
1009.1199996
 21
629.9999852
 31
0.0
  0
LINE
  8
0
  6
CONTINUOUS
 62
     1
 10
855.1199996
 20
533.4999852
 30
0.0
 11
859.476537033
 21
517.241166155
 31
0.0
  0
ARC
  8
0
  6
CONTINUOUS
 62
     1
 10
860.442462859
 20
517.4999852
 30
0.0
 40
1.0
 50
195.0
 51
270.0
  0
ARC
  8
0
  6
CONTINUOUS
 62
     1
 10
860.442463534
 20
517.4999852
 30
0.0
 40
1.0
 50
270.0
 51
345.0
  0
LINE
  8
0
  6
CONTINUOUS
 62
     1
 10
865.03042957
 20
530.758804245
 30
0.0
 11
861.40838936
 21
517.241166155
 31
0.0
  0
ARC
  8
0
  6
CONTINUOUS
 62
     1
 10
865.996355396
 20
530.4999852
 30
0.0
 40
1.0
 50
90.0
 51
165.0
  0
ARC
  8
0
  6
CONTINUOUS
 62
     1
 10
865.99635607
 20
530.4999852
 30
0.0
 40
1.0
 50
15.0
 51
90.0
  0
LINE
  8
0
  6
CONTINUOUS
 62
     1
 10
866.962281897
 20
530.758804245
 30
0.0
 11
870.584322107
 21
517.241166155
 31
0.0
  0
ARC
  8
0
  6
CONTINUOUS
 62
     1
 10
871.550247933
 20
517.4999852
 30
0.0
 40
1.0
 50
195.0
 51
270.0
  0
ARC
  8
0
  6
CONTINUOUS
 62
     1
 10
871.550247933
 20
517.4999852
 30
0.0
 40
1.0
 50
270.0
 51
345.0
  0
LINE
  8
0
  6
CONTINUOUS
 62
     1
 10
876.138213969
 20
530.758804245
 30
0.0
 11
872.516173759
 21
517.241166155
 31
0.0
  0
ARC
  8
0
  6
CONTINUOUS
 62
     1
 10
877.104139795
 20
530.4999852
 30
0.0
 40
1.0
 50
90.0
 51
165.0
  0
LINE
  8
0
  6
CONTINUOUS
 62
     1
 10
840.1199996
 20
531.4999852
 30
0.0
 11
850.1199996
 21
531.4999852
 31
0.0
  0
LINE
  8
0
  6
CONTINUOUS
 62
     1
 10
850.064743363
 20
533.4999852
 30
0.0
 11
855.1199996
 21
533.4999852
 31
0.0
  0
LINE
  8
0
  6
CONTINUOUS
 62
     1
 10
835.1199996
 20
533.4999852
 30
0.0
 11
850.1199996
 21
533.4999852
 31
0.0
  0
LINE
  8
0
  6
LTYPE4
 62
     2
 10
877.104139795
 20
531.4999852
 30
0.0
 11
965.6199996
 21
531.4999852
 31
0.0
  0
LINE
  8
0
  6
LTYPE4
 62
     2
 10
871.550247933
 20
516.4999852
 30
0.0
 11
970.6199996
 21
516.4999852
 31
0.0
  0
LINE
  8
0
  6
CONTINUOUS
 62
     1
 10
850.1199996
 20
531.4999852
 30
0.0
 11
850.1199996
 21
532.9999852
 31
0.0
  0
LINE
  8
0
  6
CONTINUOUS
 62
     1
 10
840.1199996
 20
531.4999852
 30
0.0
 11
840.1199996
 21
532.9999852
 31
0.0
  0
LINE
  8
0
  6
CONTINUOUS
 62
     1
 10
994.1199996
 20
552.9999852
 30
0.0
 11
984.538452915
 21
517.241166155
 31
0.0
  0
ARC
  8
0
  6
CONTINUOUS
 62
     1
 10
978.018635226
 20
530.4999852
 30
0.0
 40
1.0
 50
15.0
 51
90.0
  0
ARC
  8
0
  6
CONTINUOUS
 62
     1
 10
978.018635226
 20
530.4999852
 30
0.0
 40
1.0
 50
90.0
 51
165.0
  0
LINE
  8
0
  6
CONTINUOUS
 62
     1
 10
977.0527094
 20
530.758804245
 30
0.0
 11
973.43066919
 21
517.241166155
 31
0.0
  0
ARC
  8
0
  6
CONTINUOUS
 62
     1
 10
972.464743363
 20
517.4999852
 30
0.0
 40
1.0
 50
270.0
 51
345.0
  0
ARC
  8
0
  6
CONTINUOUS
 62
     1
 10
972.464743363
 20
517.4999852
 30
0.0
 40
1.0
 50
195.0
 51
270.0
  0
LINE
  8
0
  6
CONTINUOUS
 62
     1
 10
967.876777327
 20
530.758804245
 30
0.0
 11
971.498817537
 21
517.241166155
 31
0.0
  0
ARC
  8
0
  6
CONTINUOUS
 62
     1
 10
966.910851501
 20
530.4999852
 30
0.0
 40
1.0
 50
15.0
 51
90.0
  0
LINE
  8
0
  6
CONTINUOUS
 62
     1
 10
996.6199996
 20
550.9999852
 30
0.0
 11
1006.6199996
 21
550.9999852
 31
0.0
  0
ARC
  8
0
  6
CONTINUOUS
 62
     1
 10
983.572527088
 20
517.4999852
 30
0.0
 40
1.0
 50
270.0
 51
345.0
  0
ARC
  8
0
  6
CONTINUOUS
 62
     1
 10
983.572527088
 20
517.4999852
 30
0.0
 40
1.0
 50
195.0
 51
270.0
  0
LINE
  8
0
  6
CONTINUOUS
 62
     1
 10
978.984561052
 20
530.758804245
 30
0.0
 11
982.606601262
 21
517.241166155
 31
0.0
  0
LINE
  8
0
  6
CONTINUOUS
 62
     1
 10
994.1199996
 20
552.9999852
 30
0.0
 11
1009.1199996
 21
552.9999852
 31
0.0
  0
LINE
  8
0
  6
CONTINUOUS
 62
     2
 10
920.1199996
 20
525.4999852
 30
0.0
 11
920.1199996
 21
345.4999852
 31
0.0
  0
LINE
  8
0
  6
CONTINUOUS
 62
     2
 10
920.1199996
 20
354.4999852
 30
0.0
 11
905.631112206
 21
358.382270877
 31
0.0
  0
LINE
  8
0
  6
CONTINUOUS
 62
     2
 10
920.1199996
 20
354.4999852
 30
0.0
 11
934.608886994
 21
358.382270877
 31
0.0
  0
TEXT
  8
0
  6
CONTINUOUS
 62
     2
 10
921.7199996
 20
360.4999852
 30
1.2
 40
18.0
  1
ｍｉｎ．Ｐ
 50
0.0
 41
0.9
 51
0.0
  7
KANJI18
  0
LINE
  8
0
  6
CONTINUOUS
 62
     2
 10
920.1199996
 20
354.4999852
 30
0.0
 11
905.631112206
 21
350.617699523
 31
0.0
  0
LINE
  8
0
  6
CONTINUOUS
 62
     2
 10
920.1199996
 20
354.4999852
 30
0.0
 11
934.608886994
 21
350.617699523
 31
0.0
  0
ARC
  8
0
  6
CONTINUOUS
 62
     1
 10
972.464743363
 20
922.1999852
 30
0.0
 40
1.0
 50
90.0
 51
165.0
  0
LINE
  8
0
  6
CONTINUOUS
 62
     1
 10
967.876777327
 20
908.941166155
 30
0.0
 11
971.498817537
 21
922.458804245
 31
0.0
  0
ARC
  8
0
  6
CONTINUOUS
 62
     1
 10
966.910851501
 20
909.1999852
 30
0.0
 40
1.0
 50
270.0
 51
345.0
  0
LINE
  8
0
  6
CONTINUOUS
 62
     1
 10
996.6199996
 20
888.6999852
 30
0.0
 11
1006.6199996
 21
888.6999852
 31
0.0
  0
LINE
  8
0
  6
CONTINUOUS
 62
     1
 10
1006.564743363
 20
886.6999852
 30
0.0
 11
1009.1199996
 21
886.6999852
 31
0.0
  0
LINE
  8
0
  6
CONTINUOUS
 62
     1
 10
994.1199996
 20
886.6999852
 30
0.0
 11
996.564743363
 21
886.6999852
 31
0.0
  0
LINE
  8
0
  6
CONTINUOUS
 62
     1
 10
994.1199996
 20
886.6999852
 30
0.0
 11
994.1199996
 21
848.1999852
 31
0.0
  0
LINE
  8
0
  6
CONTINUOUS
 62
     1
 10
996.6199996
 20
888.6999852
 30
0.0
 11
996.6199996
 21
848.1999852
 31
0.0
  0
LINE
  8
0
  6
CONTINUOUS
 62
     1
 10
994.1199996
 20
886.6999852
 30
0.0
 11
984.538452915
 21
922.458804245
 31
0.0
  0
ARC
  8
0
  6
CONTINUOUS
 62
     1
 10
983.572527088
 20
922.1999852
 30
0.0
 40
1.0
 50
15.0
 51
90.0
  0
ARC
  8
0
  6
CONTINUOUS
 62
     1
 10
983.572527088
 20
922.1999852
 30
0.0
 40
1.0
 50
90.0
 51
165.0
  0
LINE
  8
0
  6
CONTINUOUS
 62
     1
 10
978.984561052
 20
908.941166155
 30
0.0
 11
982.606601262
 21
922.458804245
 31
0.0
  0
ARC
  8
0
  6
CONTINUOUS
 62
     1
 10
978.018635226
 20
909.1999852
 30
0.0
 40
1.0
 50
270.0
 51
345.0
  0
ARC
  8
0
  6
CONTINUOUS
 62
     1
 10
978.018635226
 20
909.1999852
 30
0.0
 40
1.0
 50
195.0
 51
270.0
  0
LINE
  8
0
  6
CONTINUOUS
 62
     1
 10
977.0527094
 20
908.941166155
 30
0.0
 11
973.43066919
 21
922.458804245
 31
0.0
  0
ARC
  8
0
  6
CONTINUOUS
 62
     1
 10
972.464743363
 20
922.1999852
 30
0.0
 40
1.0
 50
15.0
 51
90.0
  0
LINE
  8
0
  6
CONTINUOUS
 62
     1
 10
966.910851501
 20
908.1999852
 30
0.0
 11
966.910851501
 21
848.1999852
 31
0.0
  0
LINE
  8
0
  6
CONTINUOUS
 62
     1
 10
972.464743363
 20
923.1999852
 30
0.0
 11
972.464743363
 21
848.1999852
 31
0.0
  0
LINE
  8
0
  6
CONTINUOUS
 62
     1
 10
983.572527088
 20
923.1999852
 30
0.0
 11
983.572527088
 21
848.1999852
 31
0.0
  0
LINE
  8
0
  6
CONTINUOUS
 62
     1
 10
978.018635226
 20
908.1999852
 30
0.0
 11
978.018635226
 21
848.1999852
 31
0.0
  0
LINE
  8
0
  6
LTYPE4
 62
     2
 10
950.1199996
 20
923.1999852
 30
0.0
 11
972.3699996
 21
923.1999852
 31
0.0
  0
LINE
  8
0
  6
LTYPE4
 62
     2
 10
947.1199996
 20
908.1999852
 30
0.0
 11
966.7699996
 21
908.1999852
 31
0.0
  0
LINE
  8
0
  6
CONTINUOUS
 62
     2
 10
951.1199996
 20
773.1999852
 30
0.0
 11
951.1199996
 21
923.1999852
 31
0.0
  0
LINE
  8
0
  6
CONTINUOUS
 62
     2
 10
951.1199996
 20
923.1999852
 30
0.0
 11
947.237713923
 21
908.711097806
 31
0.0
  0
LINE
  8
0
  6
CONTINUOUS
 62
     2
 10
951.1199996
 20
923.1999852
 30
0.0
 11
955.002285277
 21
908.711097806
 31
0.0
  0
LINE
  8
0
  6
CONTINUOUS
 62
     2
 10
959.6199996
 20
923.1999852
 30
0.0
 11
960.1199996
 21
923.1999852
 31
0.0
  0
TEXT
  8
0
  6
CONTINUOUS
 62
     2
 10
945.1199996
 20
813.9999852
 30
1.2
 40
18.0
  1
φ１５０
 50
90.0
 41
0.9
 51
0.0
  7
KANJI18
  0
ARC
  8
0
  6
CONTINUOUS
 62
     1
 10
972.464743363
 20
774.1999852
 30
0.0
 40
1.0
 50
195.0
 51
270.0
  0
LINE
  8
0
  6
CONTINUOUS
 62
     1
 10
967.876777327
 20
787.458804245
 30
0.0
 11
971.498817537
 21
773.941166155
 31
0.0
  0
ARC
  8
0
  6
CONTINUOUS
 62
     1
 10
966.910851501
 20
787.1999852
 30
0.0
 40
1.0
 50
15.0
 51
90.0
  0
LINE
  8
0
  6
CONTINUOUS
 62
     1
 10
996.6199996
 20
807.6999852
 30
0.0
 11
1006.6199996
 21
807.6999852
 31
0.0
  0
LINE
  8
0
  6
CONTINUOUS
 62
     1
 10
1006.564743363
 20
809.6999852
 30
0.0
 11
1009.1199996
 21
809.6999852
 31
0.0
  0
LINE
  8
0
  6
CONTINUOUS
 62
     1
 10
994.1199996
 20
809.6999852
 30
0.0
 11
996.564743363
 21
809.6999852
 31
0.0
  0
LINE
  8
0
  6
CONTINUOUS
 62
     1
 10
1006.6199996
 20
807.6999852
 30
0.0
 11
1006.6199996
 21
848.1999852
 31
0.0
  0
LINE
  8
0
  6
CONTINUOUS
 62
     1
 10
994.1199996
 20
809.6999852
 30
0.0
 11
994.1199996
 21
848.1999852
 31
0.0
  0
LINE
  8
0
  6
CONTINUOUS
 62
     1
 10
996.6199996
 20
807.6999852
 30
0.0
 11
996.6199996
 21
848.1999852
 31
0.0
  0
LINE
  8
0
  6
CONTINUOUS
 62
     1
 10
994.1199996
 20
809.6999852
 30
0.0
 11
984.538452915
 21
773.941166155
 31
0.0
  0
ARC
  8
0
  6
CONTINUOUS
 62
     1
 10
983.572527088
 20
774.1999852
 30
0.0
 40
1.0
 50
270.0
 51
345.0
  0
ARC
  8
0
  6
CONTINUOUS
 62
     1
 10
983.572527088
 20
774.1999852
 30
0.0
 40
1.0
 50
195.0
 51
270.0
  0
LINE
  8
0
  6
CONTINUOUS
 62
     1
 10
978.984561052
 20
787.458804245
 30
0.0
 11
982.606601262
 21
773.941166155
 31
0.0
  0
ARC
  8
0
  6
CONTINUOUS
 62
     1
 10
978.018635226
 20
787.1999852
 30
0.0
 40
1.0
 50
15.0
 51
90.0
  0
ARC
  8
0
  6
CONTINUOUS
 62
     1
 10
978.018635226
 20
787.1999852
 30
0.0
 40
1.0
 50
90.0
 51
165.0
  0
LINE
  8
0
  6
CONTINUOUS
 62
     1
 10
977.0527094
 20
787.458804245
 30
0.0
 11
973.43066919
 21
773.941166155
 31
0.0
  0
ARC
  8
0
  6
CONTINUOUS
 62
     1
 10
972.464743363
 20
774.1999852
 30
0.0
 40
1.0
 50
270.0
 51
345.0
  0
LINE
  8
0
  6
CONTINUOUS
 62
     1
 10
966.910851501
 20
788.1999852
 30
0.0
 11
966.910851501
 21
848.1999852
 31
0.0
  0
LINE
  8
0
  6
CONTINUOUS
 62
     1
 10
972.464743363
 20
773.1999852
 30
0.0
 11
972.464743363
 21
848.1999852
 31
0.0
  0
LINE
  8
0
  6
CONTINUOUS
 62
     1
 10
983.572527088
 20
773.1999852
 30
0.0
 11
983.572527088
 21
848.1999852
 31
0.0
  0
LINE
  8
0
  6
CONTINUOUS
 62
     1
 10
978.018635226
 20
788.1999852
 30
0.0
 11
978.018635226
 21
848.1999852
 31
0.0
  0
LINE
  8
0
  6
LTYPE4
 62
     2
 10
950.1199996
 20
773.1999852
 30
0.0
 11
972.3699996
 21
773.1999852
 31
0.0
  0
LINE
  8
0
  6
LTYPE4
 62
     2
 10
947.1199996
 20
788.1999852
 30
0.0
 11
966.7699996
 21
788.1999852
 31
0.0
  0
LINE
  8
0
  6
CONTINUOUS
 62
     2
 10
951.1199996
 20
773.1999852
 30
0.0
 11
955.002285277
 21
787.688872594
 31
0.0
  0
LINE
  8
0
  6
CONTINUOUS
 62
     2
 10
951.1199996
 20
773.1999852
 30
0.0
 11
947.237713923
 21
787.688872594
 31
0.0
  0
LINE
  8
0
  6
CONTINUOUS
 62
     1
 10
1006.6199996
 20
888.6999852
 30
0.0
 11
1006.6199996
 21
848.1999852
 31
0.0
  0
LINE
  8
0
  6
CONTINUOUS
 62
     1
 10
840.1199996
 20
648.4999852
 30
0.0
 11
597.5199996
 21
648.4999852
 31
0.0
  0
LINE
  8
0
  6
CONTINUOUS
 62
     1
 10
855.1199996
 20
534.4999852
 30
0.0
 11
855.1199996
 21
591.4999852
 31
0.0
  0
LINE
  8
0
  6
CONTINUOUS
 62
     2
 10
444.5199996
 20
354.4999852
 30
0.0
 11
920.1199996
 21
354.4999852
 31
0.0
  0
LINE
  8
0
  6
CONTINUOUS
 62
     2
 10
920.1199996
 20
354.4999852
 30
0.0
 11
1009.1199996
 21
354.4999852
 31
0.0
  0
LINE
  8
0
  6
LTYPE2
 62
     2
 10
948.1199996
 20
848.1999852
 30
0.0
 11
1106.1199996
 21
848.1999852
 31
0.0
  0
CIRCLE
  8
0
  6
CONTINUOUS
 62
     1
 10
1409.6199996
 20
591.4999852
 30
0.0
 40
75.0
  0
ARC
  8
0
  6
CONTINUOUS
 62
     1
 10
1469.6199996
 20
531.4999852
 30
0.0
 40
12.0
 50
164.744881297
 51
104.036243469
  0
LINE
  8
0
  6
CONTINUOUS
 62
     1
 10
1441.258583639
 20
523.4999852
 30
0.0
 11
1455.6199996
 21
523.4999852
 31
0.0
  0
LINE
  8
0
  6
CONTINUOUS
 62
     1
 10
1437.811310318
 20
521.9999852
 30
0.0
 11
1457.6199996
 21
521.9999852
 31
0.0
  0
LINE
  8
0
  6
CONTINUOUS
 62
     1
 10
1361.6199996
 20
521.9999852
 30
0.0
 11
1381.428688882
 21
521.9999852
 31
0.0
  0
LINE
  8
0
  6
LTYPE2
 62
     2
 10
1332.1199996
 20
651.4999852
 30
0.0
 11
1366.1199996
 21
651.4999852
 31
0.0
  0
LINE
  8
0
  6
LTYPE2
 62
     2
 10
1349.6199996
 20
669.9999852
 30
0.0
 11
1349.6199996
 21
633.9999852
 31
0.0
  0
ARC
  8
0
  6
CONTINUOUS
 62
     1
 10
1337.6199996
 20
663.4999852
 30
0.0
 40
8.0
 50
90.0
 51
180.0
  0
LINE
  8
0
  6
CONTINUOUS
 62
     1
 10
1337.6199996
 20
671.4999852
 30
0.0
 11
1409.6199996
 21
671.4999852
 31
0.0
  0
LINE
  8
0
  6
CONTINUOUS
 62
     1
 10
1329.6199996
 20
623.697729272
 30
0.0
 11
1329.6199996
 21
663.4999852
 31
0.0
  0
ARC
  8
0
  6
CONTINUOUS
 62
     1
 10
1349.6199996
 20
651.4999852
 30
0.0
 40
12.0
 50
340.016893478
 51
289.983106522
  0
LINE
  8
0
  6
CONTINUOUS
 62
     1
 10
1299.6199996
 20
621.4999852
 30
0.0
 11
1342.6199996
 21
624.650085036
 31
0.0
  0
LINE
  8
0
  6
CONTINUOUS
 62
     1
 10
1329.6199996
 20
519.4999852
 30
0.0
 11
1329.6199996
 21
559.302241128
 31
0.0
  0
LINE
  8
0
  6
CONTINUOUS
 62
     1
 10
1299.6199996
 20
561.4999852
 30
0.0
 11
1342.6199996
 21
558.349885364
 31
0.0
  0
LINE
  8
0
  6
LTYPE2
 62
     2
 10
1332.1199996
 20
531.4999852
 30
0.0
 11
1366.1199996
 21
531.4999852
 31
0.0
  0
LINE
  8
0
  6
LTYPE2
 62
     2
 10
1349.6199996
 20
512.9999852
 30
0.0
 11
1349.6199996
 21
548.9999852
 31
0.0
  0
LINE
  8
0
  6
CONTINUOUS
 62
     1
 10
1337.6199996
 20
511.4999852
 30
0.0
 11
1358.6199996
 21
511.4999852
 31
0.0
  0
ARC
  8
0
  6
CONTINUOUS
 62
     1
 10
1337.6199996
 20
519.4999852
 30
0.0
 40
8.0
 50
180.0
 51
270.0
  0
ARC
  8
0
  6
CONTINUOUS
 62
     1
 10
1349.6199996
 20
531.4999852
 30
0.0
 40
12.0
 50
67.380135052
 51
19.983106522
  0
LINE
  8
0
  6
CONTINUOUS
 62
     1
 10
1363.6199996
 20
523.4999852
 30
0.0
 11
1377.981415561
 21
523.4999852
 31
0.0
  0
LINE
  8
0
  6
LTYPE2
 62
     2
 10
1469.6199996
 20
669.9999852
 30
0.0
 11
1469.6199996
 21
633.9999852
 31
0.0
  0
ARC
  8
0
  6
CONTINUOUS
 62
     1
 10
1481.6199996
 20
663.4999852
 30
0.0
 40
8.0
 50
0.0
 51
90.0
  0
LINE
  8
0
  6
CONTINUOUS
 62
     1
 10
1481.6199996
 20
671.4999852
 30
0.0
 11
1409.6199996
 21
671.4999852
 31
0.0
  0
LINE
  8
0
  6
CONTINUOUS
 62
     1
 10
1489.6199996
 20
623.4999852
 30
0.0
 11
1489.6199996
 21
663.4999852
 31
0.0
  0
ARC
  8
0
  6
CONTINUOUS
 62
     1
 10
1469.6199996
 20
651.4999852
 30
0.0
 40
12.0
 50
254.744881297
 51
199.983106522
  0
LINE
  8
0
  6
CONTINUOUS
 62
     1
 10
1519.6199996
 20
621.4999852
 30
0.0
 11
1476.6199996
 21
624.650085036
 31
0.0
  0
LINE
  8
0
  6
CONTINUOUS
 62
     1
 10
1519.6199996
 20
561.4999852
 30
0.0
 11
1476.6199996
 21
558.349885364
 31
0.0
  0
ARC
  8
0
  6
CONTINUOUS
 62
     1
 10
1481.6199996
 20
519.4999852
 30
0.0
 40
8.0
 50
270.0
 51
0.0
  0
LINE
  8
0
  6
CONTINUOUS
 62
     1
 10
1489.6199996
 20
519.4999852
 30
0.0
 11
1489.6199996
 21
559.302241128
 31
0.0
  0
ARC
  8
0
  6
CONTINUOUS
 62
     1
 10
284.5199996
 20
774.4999852
 30
0.0
 40
410.0
 50
349.054602904
 51
10.945397096
  0
LINE
  8
0
  6
CONTINUOUS
 62
     1
 10
701.261516874
 20
790.448086466
 30
0.0
 11
701.261516874
 21
721.448086466
 31
0.0
  0
LINE
  8
0
  6
CONTINUOUS
 62
     1
 10
706.261516874
 20
721.448086466
 30
0.0
 11
706.261516874
 21
790.448086466
 31
0.0
  0
LINE
  8
0
  6
CONTINUOUS
 62
     1
 10
711.061516874
 20
758.551883934
 30
0.0
 11
711.061516874
 21
790.448086466
 31
0.0
  0
LINE
  8
0
  6
CONTINUOUS
 62
     1
 10
714.5199996
 20
772.1999852
 30
0.0
 11
714.5199996
 21
776.7999852
 31
0.0
  0
LINE
  8
0
  6
CONTINUOUS
 62
     1
 10
701.261516874
 20
790.448086466
 30
0.0
 11
711.061516874
 21
790.448086466
 31
0.0
  0
LINE
  8
0
  6
CONTINUOUS
 62
     1
 10
701.261516874
 20
778.6999852
 30
0.0
 11
694.561516874
 21
778.6999852
 31
0.0
  0
LINE
  8
0
  6
CONTINUOUS
 62
     1
 10
711.061516874
 20
787.8999852
 30
0.0
 11
714.5199996
 21
787.8999852
 31
0.0
  0
LINE
  8
0
  6
CONTINUOUS
 62
     1
 10
714.5199996
 20
787.8999852
 30
0.0
 11
714.5199996
 21
783.2999852
 31
0.0
  0
LINE
  8
0
  6
CONTINUOUS
 62
     1
 10
711.061516874
 20
783.2999852
 30
0.0
 11
714.5199996
 21
783.2999852
 31
0.0
  0
LINE
  8
0
  6
CONTINUOUS
 62
     1
 10
711.061516874
 20
776.7999852
 30
0.0
 11
714.5199996
 21
776.7999852
 31
0.0
  0
LINE
  8
7
  6
CONTINUOUS
 62
     2
 10
714.5199996
 20
796.8999852
 30
0.0
 11
714.5199996
 21
1034.2499852
 31
0.0
  0
LINE
  8
7
  6
CONTINUOUS
 62
     2
 10
706.0199996
 20
746.4249852
 30
0.0
 11
760.595115759
 21
886.273720357
 31
0.0
  0
LINE
  8
0
  6
CONTINUOUS
 62
     1
 10
706.261516874
 20
758.551883934
 30
0.0
 11
711.061516874
 21
758.551883934
 31
0.0
  0
LINE
  8
0
  6
CONTINUOUS
 62
     1
 10
701.261516874
 20
770.2999852
 30
0.0
 11
694.561516874
 21
770.2999852
 31
0.0
  0
LINE
  8
0
  6
CONTINUOUS
 62
     1
 10
706.261516874
 20
734.2499852
 30
0.0
 11
711.661516874
 21
734.2499852
 31
0.0
  0
POINT
  8
0
  6
CONTINUOUS
 62
     1
 10
711.661516874
 20
734.2499852
 30
0.0
  0
LINE
  8
0
  6
CONTINUOUS
 62
     1
 10
711.661516874
 20
734.2499852
 30
0.0
 11
711.661516874
 21
725.4499852
 31
0.0
  0
LINE
  8
0
  6
CONTINUOUS
 62
     1
 10
701.261516874
 20
731.4499852
 30
0.0
 11
692.361516874
 21
731.4499852
 31
0.0
  0
LINE
  8
0
  6
CONTINUOUS
 62
     1
 10
711.061516874
 20
761.0999852
 30
0.0
 11
714.5199996
 21
761.0999852
 31
0.0
  0
LINE
  8
0
  6
CONTINUOUS
 62
     1
 10
714.5199996
 20
761.0999852
 30
0.0
 11
714.5199996
 21
765.6999852
 31
0.0
  0
LINE
  8
0
  6
CONTINUOUS
 62
     1
 10
711.061516874
 20
765.6999852
 30
0.0
 11
714.5199996
 21
765.6999852
 31
0.0
  0
LINE
  8
0
  6
CONTINUOUS
 62
     1
 10
711.061516874
 20
772.1999852
 30
0.0
 11
714.5199996
 21
772.1999852
 31
0.0
  0
LINE
  8
7
  6
CONTINUOUS
 62
     2
 10
706.0199996
 20
746.4249852
 30
0.0
 11
714.903976186
 21
758.511132643
 31
0.0
  0
LINE
  8
7
  6
CONTINUOUS
 62
     2
 10
706.0199996
 20
746.4249852
 30
0.0
 11
707.670675289
 21
761.333884213
 31
0.0
  0
LINE
  8
0
  6
CONTINUOUS
 62
     1
 10
576.5199996
 20
684.4999852
 30
0.0
 11
576.5199996
 21
864.4999852
 31
0.0
  0
LINE
  8
0
  6
CONTINUOUS
 62
     1
 10
566.5199996
 20
734.4999852
 30
0.0
 11
419.5199996
 21
734.4999852
 31
0.0
  0
LINE
  8
0
  6
CONTINUOUS
 62
     1
 10
566.5199996
 20
714.4999852
 30
0.0
 11
419.5199996
 21
714.4999852
 31
0.0
  0
LINE
  8
0
  6
CONTINUOUS
 62
     1
 10
566.5199996
 20
694.4999852
 30
0.0
 11
419.5199996
 21
694.4999852
 31
0.0
  0
LINE
  8
0
  6
CONTINUOUS
 62
     1
 10
591.5199996
 20
684.4999852
 30
0.0
 11
591.5199996
 21
864.4999852
 31
0.0
  0
LINE
  8
0
  6
CONTINUOUS
 62
     1
 10
616.5199996
 20
684.4999852
 30
0.0
 11
616.5199996
 21
864.4999852
 31
0.0
  0
LINE
  8
0
  6
CONTINUOUS
 62
     1
 10
626.5199996
 20
684.4999852
 30
0.0
 11
626.5199996
 21
864.4999852
 31
0.0
  0
ARC
  8
0
  6
CONTINUOUS
 62
     1
 10
672.334388193
 20
699.4999852
 30
0.0
 40
15.0
 50
270.0
 51
349.054602904
  0
LINE
  8
0
  6
CONTINUOUS
 62
     1
 10
576.5199996
 20
684.4999852
 30
0.0
 11
672.334388193
 21
684.4999852
 31
0.0
  0
POINT
  8
0
  6
CONTINUOUS
 62
     1
 10
701.261516874
 20
721.448086466
 30
0.0
  0
LINE
  8
0
  6
CONTINUOUS
 62
     1
 10
701.261516874
 20
721.448086466
 30
0.0
 11
706.261516874
 21
721.448086466
 31
0.0
  0
POINT
  8
0
  6
CONTINUOUS
 62
     1
 10
706.261516874
 20
721.448086466
 30
0.0
  0
POINT
  8
0
  6
CONTINUOUS
 62
     1
 10
711.661516874
 20
725.4499852
 30
0.0
  0
LINE
  8
0
  6
CONTINUOUS
 62
     1
 10
711.661516874
 20
725.4499852
 30
0.0
 11
706.361516874
 21
725.4499852
 31
0.0
  0
LINE
  8
0
  6
CONTINUOUS
 62
     1
 10
701.261516874
 20
728.3499852
 30
0.0
 11
692.061516874
 21
728.3499852
 31
0.0
  0
LINE
  8
0
  6
LTYPE2
 62
     2
 10
687.361516874
 20
729.9499852
 30
0.0
 11
717.361516874
 21
729.9499852
 31
0.0
  0
LINE
  8
0
  6
CONTINUOUS
 62
     1
 10
576.5199996
 20
688.7999852
 30
0.0
 11
409.5199996
 21
688.7999852
 31
0.0
  0
LINE
  8
0
  6
CONTINUOUS
 62
     1
 10
566.5199996
 20
754.4999852
 30
0.0
 11
419.5199996
 21
754.4999852
 31
0.0
  0
LINE
  8
0
  6
CONTINUOUS
 62
     1
 10
576.5199996
 20
864.4999852
 30
0.0
 11
591.5199996
 21
864.4999852
 31
0.0
  0
LINE
  8
0
  6
CONTINUOUS
 62
     1
 10
566.5199996
 20
834.4999852
 30
0.0
 11
419.5199996
 21
834.4999852
 31
0.0
  0
LINE
  8
0
  6
CONTINUOUS
 62
     1
 10
566.5199996
 20
814.4999852
 30
0.0
 11
419.5199996
 21
814.4999852
 31
0.0
  0
LINE
  8
0
  6
CONTINUOUS
 62
     1
 10
566.5199996
 20
794.4999852
 30
0.0
 11
419.5199996
 21
794.4999852
 31
0.0
  0
LINE
  8
0
  6
CONTINUOUS
 62
     1
 10
576.5199996
 20
864.4999852
 30
0.0
 11
672.334388193
 21
864.4999852
 31
0.0
  0
LINE
  8
0
  6
CONTINUOUS
 62
     1
 10
566.5199996
 20
854.4999852
 30
0.0
 11
419.5199996
 21
854.4999852
 31
0.0
  0
LINE
  8
0
  6
CONTINUOUS
 62
     1
 10
576.5199996
 20
860.1999852
 30
0.0
 11
409.5199996
 21
860.1999852
 31
0.0
  0
LINE
  8
0
  6
CONTINUOUS
 62
     1
 10
583.0199996
 20
887.4999852
 30
0.0
 11
583.0199996
 21
927.4999852
 31
0.0
  0
LINE
  8
0
  6
CONTINUOUS
 62
     1
 10
564.0199996
 20
962.4999852
 30
0.0
 11
416.0199996
 21
888.4999852
 31
0.0
  0
LINE
  8
0
  6
CONTINUOUS
 62
     1
 10
568.492135555
 20
953.55571329
 30
0.0
 11
420.492135555
 21
879.55571329
 31
0.0
  0
LINE
  8
0
  6
CONTINUOUS
 62
     1
 10
564.232135555
 20
963.29571329
 30
0.0
 11
569.032135555
 21
954.09571329
 31
0.0
  0
LINE
  8
0
  6
CONTINUOUS
 62
     1
 10
583.0199996
 20
927.4999852
 30
0.0
 11
548.0199996
 21
927.4999852
 31
0.0
  0
LINE
  8
0
  6
CONTINUOUS
 62
     1
 10
583.0199996
 20
887.4999852
 30
0.0
 11
548.0199996
 21
887.4999852
 31
0.0
  0
LINE
  8
0
  6
LTYPE2
 62
     2
 10
589.172135555
 20
907.4999852
 30
0.0
 11
538.072135555
 21
907.4999852
 31
0.0
  0
LINE
  8
0
  6
CONTINUOUS
 62
     2
 10
583.0199996
 20
907.4999852
 30
0.0
 11
593.43991446
 21
918.290044251
 31
0.0
  0
LINE
  8
0
  6
CONTINUOUS
 62
     2
 10
583.0199996
 20
907.4999852
 30
0.0
 11
586.648881048
 21
922.054407876
 31
0.0
  0
LINE
  8
0
  6
CONTINUOUS
 62
     2
 10
583.0199996
 20
907.4999852
 30
0.0
 11
614.0199996
 21
963.4249852
 31
0.0
  0
ARC
  8
0
  6
CONTINUOUS
 62
     1
 10
672.334388193
 20
849.4999852
 30
0.0
 40
15.0
 50
10.945397096
 51
90.0
  0
LINE
  8
0
  6
CONTINUOUS
 62
     2
 10
614.0199996
 20
963.4249852
 30
0.0
 11
702.2199996
 21
963.4249852
 31
0.0
  0
TEXT
  8
0
  6
CONTINUOUS
 62
     2
 10
614.0199996
 20
969.4249852
 30
1.8
 40
18.0
  1
ＰＦ３／４
 50
0.0
 41
0.9
 51
0.0
  7
KANJI21
  0
TEXT
  8
7
  6
CONTINUOUS
 62
     2
 10
760.595115759
 20
892.273720357
 30
1.8
 40
18.0
  1
ブレーキ開放装置
 50
0.0
 41
0.9
 51
0.0
  7
KANJI21
  0
LINE
  8
7
  6
CONTINUOUS
 62
     2
 10
760.595115759
 20
886.273720357
 30
0.0
 11
902.795115759
 21
886.273720357
 31
0.0
  0
LINE
  8
7
  6
CONTINUOUS
 62
     2
 10
344.5199996
 20
1025.2499852
 30
0.0
 11
714.5199996
 21
1025.2499852
 31
0.0
  0
LINE
  8
7
  6
CONTINUOUS
 62
     2
 10
714.5199996
 20
1025.2499852
 30
0.0
 11
700.031112206
 21
1029.132270877
 31
0.0
  0
LINE
  8
7
  6
CONTINUOUS
 62
     2
 10
714.5199996
 20
1025.2499852
 30
0.0
 11
700.031112206
 21
1021.367699523
 31
0.0
  0
ARC
  8
0
  6
CONTINUOUS
 62
     1
 10
538.0199996
 20
886.4999852
 30
0.0
 40
10.0
 50
270.0
 51
0.0
  0
ARC
  8
0
  6
CONTINUOUS
 62
     1
 10
538.0199996
 20
952.4999852
 30
0.0
 40
10.0
 50
0.0
 51
90.0
  0
LINE
  8
0
  6
CONTINUOUS
 62
     1
 10
538.0199996
 20
962.4999852
 30
0.0
 11
448.0199996
 21
962.4999852
 31
0.0
  0
LINE
  8
0
  6
CONTINUOUS
 62
     1
 10
538.0199996
 20
876.4999852
 30
0.0
 11
448.0199996
 21
876.4999852
 31
0.0
  0
LINE
  8
0
  6
CONTINUOUS
 62
     1
 10
548.0199996
 20
886.4999852
 30
0.0
 11
548.0199996
 21
942.41571329
 31
0.0
  0
LINE
  8
0
  6
CONTINUOUS
 62
     1
 10
527.9199996
 20
876.4999852
 30
0.0
 11
527.9199996
 21
860.1999852
 31
0.0
  0
LINE
  8
0
  6
CONTINUOUS
 62
     1
 10
458.1199996
 20
876.4999852
 30
0.0
 11
458.1199996
 21
860.1999852
 31
0.0
  0
LINE
  8
0
  6
LTYPE2
 62
     2
 10
493.0199996
 20
863.2499852
 30
0.0
 11
493.0199996
 21
972.2999852
 31
0.0
  0
TEXT
  8
7
  6
CONTINUOUS
 62
     2
 10
504.0199996
 20
1031.2499852
 30
1.2
 40
18.0
  1
３７０
 50
0.0
 41
0.9
 51
0.0
  7
KANJI22
  0
LINE
  8
0
  6
CONTINUOUS
 62
     1
 10
409.5199996
 20
688.7999852
 30
0.0
 11
409.5199996
 21
860.1999852
 31
0.0
  0
LINE
  8
0
  6
CONTINUOUS
 62
     1
 10
356.5199996
 20
674.4999852
 30
0.0
 11
356.5199996
 21
874.4999852
 31
0.0
  0
LINE
  8
0
  6
CONTINUOUS
 62
     1
 10
356.5199996
 20
857.17571329
 30
0.0
 11
409.192135555
 21
857.17571329
 31
0.0
  0
LINE
  8
0
  6
CONTINUOUS
 62
     1
 10
359.0199996
 20
832.8359852
 30
0.0
 11
359.0199996
 21
842.6359852
 31
0.0
  0
LINE
  8
0
  6
CONTINUOUS
 62
     1
 10
359.0199996
 20
842.6359852
 30
0.0
 11
364.634358954
 21
842.6359852
 31
0.0
  0
LINE
  8
0
  6
CONTINUOUS
 62
     1
 10
366.0199996
 20
840.2359852
 30
0.0
 11
364.634358954
 21
842.6359852
 31
0.0
  0
LINE
  8
0
  6
CONTINUOUS
 62
     1
 10
366.0199996
 20
832.8359852
 30
0.0
 11
366.0199996
 21
840.2359852
 31
0.0
  0
LINE
  8
0
  6
CONTINUOUS
 62
     1
 10
359.0199996
 20
837.7359852
 30
0.0
 11
364.634358954
 21
837.7359852
 31
0.0
  0
LINE
  8
0
  6
CONTINUOUS
 62
     1
 10
359.0199996
 20
832.8359852
 30
0.0
 11
359.0199996
 21
823.0359852
 31
0.0
  0
LINE
  8
0
  6
CONTINUOUS
 62
     1
 10
359.0199996
 20
823.0359852
 30
0.0
 11
364.634358954
 21
823.0359852
 31
0.0
  0
LINE
  8
0
  6
CONTINUOUS
 62
     1
 10
366.0199996
 20
825.4359852
 30
0.0
 11
364.634358954
 21
823.0359852
 31
0.0
  0
LINE
  8
0
  6
CONTINUOUS
 62
     1
 10
366.0199996
 20
832.8359852
 30
0.0
 11
366.0199996
 21
825.4359852
 31
0.0
  0
LINE
  8
0
  6
CONTINUOUS
 62
     1
 10
359.0199996
 20
827.9359852
 30
0.0
 11
364.634358954
 21
827.9359852
 31
0.0
  0
ARC
  8
0
  6
CONTINUOUS
 62
     1
 10
356.6633168
 20
832.8359852
 30
0.0
 40
9.3566828
 50
328.419912243
 51
31.580087757
  0
ARC
  8
0
  6
CONTINUOUS
 62
     1
 10
363.162115768
 20
840.1859852
 30
0.0
 40
2.858321186
 50
301.002313915
 51
2.989498403
  0
LINE
  8
0
  6
CONTINUOUS
 62
     1
 10
366.0199996
 20
825.4359852
 30
0.0
 11
364.634358954
 21
823.0359852
 31
0.0
  0
ARC
  8
0
  6
CONTINUOUS
 62
     1
 10
363.162115768
 20
825.4859852
 30
0.0
 40
2.858321186
 50
357.010501597
 51
58.997686085
  0
LINE
  8
0
  6
CONTINUOUS
 62
     1
 10
356.5199996
 20
842.0359852
 30
0.0
 11
359.0199996
 21
842.0359852
 31
0.0
  0
LINE
  8
0
  6
CONTINUOUS
 62
     1
 10
356.5199996
 20
832.8359852
 30
0.0
 11
359.019999596
 21
835.335985196
 31
0.0
  0
LINE
  8
0
  6
CONTINUOUS
 62
     1
 10
359.019999596
 20
832.8359852
 30
0.0
 11
356.5199996
 21
830.335985204
 31
0.0
  0
LINE
  8
0
  6
CONTINUOUS
 62
     1
 10
356.5199996
 20
823.6359852
 30
0.0
 11
359.0199996
 21
823.6359852
 31
0.0
  0
LINE
  8
0
  6
LTYPE2
 62
     2
 10
373.0199996
 20
832.8359852
 30
0.0
 11
330.0199996
 21
832.8359852
 31
0.0
  0
LINE
  8
0
  6
CONTINUOUS
 62
     1
 10
356.5199996
 20
874.4999852
 30
0.0
 11
344.5199996
 21
874.4999852
 31
0.0
  0
ARC
  8
0
  6
CONTINUOUS
 62
     1
 10
448.0199996
 20
952.4999852
 30
0.0
 40
10.0
 50
90.0
 51
180.0
  0
ARC
  8
0
  6
CONTINUOUS
 62
     1
 10
448.0199996
 20
886.4999852
 30
0.0
 40
10.0
 50
180.0
 51
270.0
  0
LINE
  8
0
  6
CONTINUOUS
 62
     1
 10
416.0199996
 20
888.4999852
 30
0.0
 11
420.492135555
 21
879.55571329
 31
0.0
  0
LINE
  8
0
  6
CONTINUOUS
 62
     1
 10
438.0199996
 20
899.41571329
 30
0.0
 11
438.0199996
 21
952.4999852
 31
0.0
  0
LINE
  8
0
  6
CONTINUOUS
 62
     1
 10
438.0199996
 20
886.4999852
 30
0.0
 11
438.0199996
 21
888.41571329
 31
0.0
  0
LINE
  8
7
  6
CONTINUOUS
 62
     2
 10
344.5199996
 20
1025.2499852
 30
0.0
 11
359.008886994
 21
1021.367699523
 31
0.0
  0
LINE
  8
7
  6
CONTINUOUS
 62
     2
 10
344.5199996
 20
1025.2499852
 30
0.0
 11
359.008886994
 21
1029.132270877
 31
0.0
  0
LINE
  8
0
  6
CONTINUOUS
 62
     1
 10
356.5199996
 20
691.82425711
 30
0.0
 11
409.192135555
 21
691.82425711
 31
0.0
  0
LINE
  8
0
  6
CONTINUOUS
 62
     1
 10
359.0199996
 20
716.1639852
 30
0.0
 11
359.0199996
 21
706.3639852
 31
0.0
  0
LINE
  8
0
  6
CONTINUOUS
 62
     1
 10
359.0199996
 20
706.3639852
 30
0.0
 11
364.634358954
 21
706.3639852
 31
0.0
  0
LINE
  8
0
  6
CONTINUOUS
 62
     1
 10
366.0199996
 20
708.7639852
 30
0.0
 11
364.634358954
 21
706.3639852
 31
0.0
  0
LINE
  8
0
  6
CONTINUOUS
 62
     1
 10
366.0199996
 20
716.1639852
 30
0.0
 11
366.0199996
 21
708.7639852
 31
0.0
  0
LINE
  8
0
  6
CONTINUOUS
 62
     1
 10
359.0199996
 20
711.2639852
 30
0.0
 11
364.634358954
 21
711.2639852
 31
0.0
  0
LINE
  8
0
  6
CONTINUOUS
 62
     1
 10
359.0199996
 20
716.1639852
 30
0.0
 11
359.0199996
 21
725.9639852
 31
0.0
  0
LINE
  8
0
  6
CONTINUOUS
 62
     1
 10
359.0199996
 20
725.9639852
 30
0.0
 11
364.634358954
 21
725.9639852
 31
0.0
  0
LINE
  8
0
  6
CONTINUOUS
 62
     1
 10
366.0199996
 20
723.5639852
 30
0.0
 11
364.634358954
 21
725.9639852
 31
0.0
  0
LINE
  8
0
  6
CONTINUOUS
 62
     1
 10
366.0199996
 20
716.1639852
 30
0.0
 11
366.0199996
 21
723.5639852
 31
0.0
  0
LINE
  8
0
  6
CONTINUOUS
 62
     1
 10
359.0199996
 20
721.0639852
 30
0.0
 11
364.634358954
 21
721.0639852
 31
0.0
  0
ARC
  8
0
  6
CONTINUOUS
 62
     1
 10
356.6633168
 20
716.1639852
 30
0.0
 40
9.3566828
 50
328.419912243
 51
31.580087757
  0
ARC
  8
0
  6
CONTINUOUS
 62
     1
 10
363.162115768
 20
708.8139852
 30
0.0
 40
2.858321186
 50
357.010501597
 51
58.997686085
  0
LINE
  8
0
  6
CONTINUOUS
 62
     1
 10
366.0199996
 20
723.5639852
 30
0.0
 11
364.634358954
 21
725.9639852
 31
0.0
  0
ARC
  8
0
  6
CONTINUOUS
 62
     1
 10
363.162115768
 20
723.5139852
 30
0.0
 40
2.858321186
 50
301.002313915
 51
2.989498403
  0
LINE
  8
0
  6
CONTINUOUS
 62
     1
 10
356.5199996
 20
706.9639852
 30
0.0
 11
359.0199996
 21
706.9639852
 31
0.0
  0
LINE
  8
0
  6
CONTINUOUS
 62
     1
 10
356.5199996
 20
716.1639852
 30
0.0
 11
359.019999596
 21
713.663985204
 31
0.0
  0
LINE
  8
0
  6
CONTINUOUS
 62
     1
 10
359.019999596
 20
716.1639852
 30
0.0
 11
356.5199996
 21
718.663985196
 31
0.0
  0
LINE
  8
0
  6
CONTINUOUS
 62
     1
 10
356.5199996
 20
725.3639852
 30
0.0
 11
359.0199996
 21
725.3639852
 31
0.0
  0
LINE
  8
0
  6
LTYPE2
 62
     2
 10
373.0199996
 20
716.1639852
 30
0.0
 11
330.0199996
 21
716.1639852
 31
0.0
  0
LINE
  8
0
  6
CONTINUOUS
 62
     1
 10
356.5199996
 20
674.4999852
 30
0.0
 11
344.5199996
 21
674.4999852
 31
0.0
  0
LINE
  8
0
  6
LTYPE3
 62
     3
 10
1409.6199996
 20
465.9999852
 30
0.0
 11
1409.6199996
 21
969.4999852
 31
0.0
  0
LINE
  8
0
  6
CONTINUOUS
 62
     1
 10
1523.37
 20
1674.9
 30
0.0
 11
1523.37
 21
1554.78
 31
0.0
  0
LINE
  8
0
  6
CONTINUOUS
 62
     2
 10
1454.07
 20
1674.9
 30
0.0
 11
1454.07
 21
1554.78
 31
0.0
  0
LINE
  8
0
  6
CONTINUOUS
 62
     2
 10
1384.77
 20
1674.9
 30
0.0
 11
1384.77
 21
1554.78
 31
0.0
  0
LINE
  8
0
  6
CONTINUOUS
 62
     1
 10
1292.37
 20
1674.9
 30
0.0
 11
1292.37
 21
1554.78
 31
0.0
  0
LINE
  8
0
  6
CONTINUOUS
 62
     1
 10
1292.37
 20
1674.9
 30
0.0
 11
1523.37
 21
1674.9
 31
0.0
  0
LINE
  8
0
  6
CONTINUOUS
 62
     1
 10
1292.37
 20
1637.94
 30
0.0
 11
1523.37
 21
1637.94
 31
0.0
  0
LINE
  8
0
  6
CONTINUOUS
 62
     2
 10
1292.37
 20
1610.22
 30
0.0
 11
1523.37
 21
1610.22
 31
0.0
  0
LINE
  8
0
  6
CONTINUOUS
 62
     2
 10
1292.37
 20
1582.5
 30
0.0
 11
1523.37
 21
1582.5
 31
0.0
  0
LINE
  8
0
  6
CONTINUOUS
 62
     1
 10
1292.37
 20
1554.78
 30
0.0
 11
1523.37
 21
1554.78
 31
0.0
  0
TEXT
  8
0
  6
CONTINUOUS
 62
     2
 10
1463.31
 20
1658.73
 30
1.386
 40
13.86
  1
起動電流
 50
0.0
 41
0.9
 51
0.0
  7
KANJI23
  0
TEXT
  8
0
  6
CONTINUOUS
 62
     2
 10
1463.31
 20
1642.56
 30
1.386
 40
13.86
  1
　　　Ａ
 50
0.0
 41
0.9
 51
0.0
  7
KANJI23
  0
TEXT
  8
0
  6
CONTINUOUS
 62
     2
 10
1394.01
 20
1658.73
 30
1.386
 40
13.86
  1
定格電流
 50
0.0
 41
0.9
 51
0.0
  7
KANJI23
  0
TEXT
  8
0
  6
CONTINUOUS
 62
     2
 10
1394.01
 20
1642.56
 30
1.386
 40
13.86
  1
　　　Ａ
 50
0.0
 41
0.9
 51
0.0
  7
KANJI23
  0
TEXT
  8
0
  6
CONTINUOUS
 62
     2
 10
1300.224
 20
1589.43
 30
1.386
 40
13.86
  1
２００／６０
 50
0.0
 41
0.9
 51
0.0
  7
KANJI23
  0
TEXT
  8
0
  6
CONTINUOUS
 62
     2
 10
1300.224
 20
1658.73
 30
1.386
 40
13.86
  1
電圧／周波数
 50
0.0
 41
0.9
 51
0.0
  7
KANJI23
  0
TEXT
  8
0
  6
CONTINUOUS
 62
     2
 10
1300.224
 20
1642.56
 30
1.386
 40
13.86
  1
　Ｖ／Ｈｚ
 50
0.0
 41
0.9
 51
0.0
  7
KANJI23
  0
TEXT
  8
0
  6
CONTINUOUS
 62
     2
 10
1300.224
 20
1617.15
 30
1.386
 40
13.86
  1
２００／５０
 50
0.0
 41
0.9
 51
0.0
  7
KANJI23
  0
TEXT
  8
0
  6
CONTINUOUS
 62
     2
 10
1300.224
 20
1561.71
 30
1.386
 40
13.86
  1
２２０／６０
 50
0.0
 41
0.9
 51
0.0
  7
KANJI23
  0
LINE
  8
0
  6
CONTINUOUS
 62
     1
 10
1246.17
 20
1674.9
 30
0.0
 11
1246.17
 21
1554.78
 31
0.0
  0
LINE
  8
0
  6
CONTINUOUS
 62
     2
 10
1176.87
 20
1674.9
 30
0.0
 11
1176.87
 21
1554.78
 31
0.0
  0
LINE
  8
0
  6
CONTINUOUS
 62
     2
 10
1107.57
 20
1674.9
 30
0.0
 11
1107.57
 21
1554.78
 31
0.0
  0
LINE
  8
0
  6
CONTINUOUS
 62
     1
 10
1015.17
 20
1674.9
 30
0.0
 11
1015.17
 21
1554.78
 31
0.0
  0
LINE
  8
0
  6
CONTINUOUS
 62
     1
 10
1015.17
 20
1674.9
 30
0.0
 11
1246.17
 21
1674.9
 31
0.0
  0
LINE
  8
0
  6
CONTINUOUS
 62
     1
 10
1015.17
 20
1637.94
 30
0.0
 11
1246.17
 21
1637.94
 31
0.0
  0
LINE
  8
0
  6
CONTINUOUS
 62
     2
 10
1015.17
 20
1610.22
 30
0.0
 11
1246.17
 21
1610.22
 31
0.0
  0
LINE
  8
0
  6
CONTINUOUS
 62
     2
 10
1015.17
 20
1582.5
 30
0.0
 11
1246.17
 21
1582.5
 31
0.0
  0
LINE
  8
0
  6
CONTINUOUS
 62
     1
 10
1015.17
 20
1554.78
 30
0.0
 11
1246.17
 21
1554.78
 31
0.0
  0
TEXT
  8
0
  6
CONTINUOUS
 62
     2
 10
1186.11
 20
1658.73
 30
1.386
 40
13.86
  1
起動電流
 50
0.0
 41
0.9
 51
0.0
  7
KANJI23
  0
TEXT
  8
0
  6
CONTINUOUS
 62
     2
 10
1186.11
 20
1642.56
 30
1.386
 40
13.86
  1
　　　Ａ
 50
0.0
 41
0.9
 51
0.0
  7
KANJI23
  0
TEXT
  8
0
  6
CONTINUOUS
 62
     2
 10
1116.81
 20
1658.73
 30
1.386
 40
13.86
  1
定格電流
 50
0.0
 41
0.9
 51
0.0
  7
KANJI23
  0
TEXT
  8
0
  6
CONTINUOUS
 62
     2
 10
1116.81
 20
1642.56
 30
1.386
 40
13.86
  1
　　　Ａ
 50
0.0
 41
0.9
 51
0.0
  7
KANJI23
  0
TEXT
  8
0
  6
CONTINUOUS
 62
     2
 10
1023.024
 20
1658.73
 30
1.386
 40
13.86
  1
電圧／周波数
 50
0.0
 41
0.9
 51
0.0
  7
KANJI23
  0
TEXT
  8
0
  6
CONTINUOUS
 62
     2
 10
1023.024
 20
1642.56
 30
1.386
 40
13.86
  1
　Ｖ／Ｈｚ
 50
0.0
 41
0.9
 51
0.0
  7
KANJI23
  0
TEXT
  8
0
  6
CONTINUOUS
 62
     2
 10
1023.024
 20
1617.15
 30
1.386
 40
13.86
  1
４００／５０
 50
0.0
 41
0.9
 51
0.0
  7
KANJI23
  0
TEXT
  8
0
  6
CONTINUOUS
 62
     2
 10
1023.024
 20
1589.43
 30
1.386
 40
13.86
  1
４００／６０
 50
0.0
 41
0.9
 51
0.0
  7
KANJI23
  0
TEXT
  8
0
  6
CONTINUOUS
 62
     2
 10
1023.024
 20
1561.71
 30
1.386
 40
13.86
  1
４４０／６０
 50
0.0
 41
0.9
 51
0.0
  7
KANJI23
  0
TEXT
  8
0
  6
CONTINUOUS
 62
     2
 10
1119.267493476
 20
1615.15
 30
1.386
 40
13.86
  1
　５．２
 50
0.0
 41
0.9
 51
0.0
  7
KANJI23
  0
TEXT
  8
0
  6
CONTINUOUS
 62
     2
 10
1119.267493476
 20
1587.43
 30
1.386
 40
13.86
  1
　４．８
 50
0.0
 41
0.9
 51
0.0
  7
KANJI23
  0
TEXT
  8
0
  6
CONTINUOUS
 62
     2
 10
1119.267493476
 20
1559.71
 30
1.386
 40
13.86
  1
　４．５
 50
0.0
 41
0.9
 51
0.0
  7
KANJI23
  0
TEXT
  8
0
  6
CONTINUOUS
 62
     2
 10
1188.567493476
 20
1615.15
 30
1.386
 40
13.86
  1
２２
 50
0.0
 41
0.9
 51
0.0
  7
KANJI23
  0
TEXT
  8
0
  6
CONTINUOUS
 62
     2
 10
1188.567493476
 20
1587.43
 30
1.386
 40
13.86
  1
１９
 50
0.0
 41
0.9
 51
0.0
  7
KANJI23
  0
TEXT
  8
0
  6
CONTINUOUS
 62
     2
 10
1188.567493476
 20
1559.71
 30
1.386
 40
13.86
  1
２０．９
 50
0.0
 41
0.9
 51
0.0
  7
KANJI23
  0
TEXT
  8
0
  6
CONTINUOUS
 62
     2
 10
1396.467493476
 20
1615.15
 30
1.386
 40
13.86
  1
１０．０
 50
0.0
 41
0.9
 51
0.0
  7
KANJI23
  0
TEXT
  8
0
  6
CONTINUOUS
 62
     2
 10
1396.467493476
 20
1587.43
 30
1.386
 40
13.86
  1
　９．５
 50
0.0
 41
0.9
 51
0.0
  7
KANJI23
  0
TEXT
  8
0
  6
CONTINUOUS
 62
     2
 10
1396.467493476
 20
1559.71
 30
1.386
 40
13.86
  1
　９．０
 50
0.0
 41
0.9
 51
0.0
  7
KANJI23
  0
TEXT
  8
0
  6
CONTINUOUS
 62
     2
 10
1465.767493476
 20
1615.15
 30
1.386
 40
13.86
  1
４４
 50
0.0
 41
0.9
 51
0.0
  7
KANJI23
  0
TEXT
  8
0
  6
CONTINUOUS
 62
     2
 10
1465.767493476
 20
1587.43
 30
1.386
 40
13.86
  1
３８
 50
0.0
 41
0.9
 51
0.0
  7
KANJI23
  0
TEXT
  8
0
  6
CONTINUOUS
 62
     2
 10
1465.767493476
 20
1559.71
 30
1.386
 40
13.86
  1
４１．８
 50
0.0
 41
0.9
 51
0.0
  7
KANJI23
  0
TEXT
  8
0
  6
CONTINUOUS
 62
     2
 10
1976.7200334
 20
155.699994
 30
13.0
 40
30.0
  1
３００２５０１
 50
0.0
 41
0.8
 51
0.0
  7
KANJI24
  0
TEXT
  8
0
  6
CONTINUOUS
 62
     2
 10
1861.92
 20
251.7
 30
0.0
 40
21.0
  1
ＭＤ４－Ｊ
 50
0.0
 41
0.793650794
 51
0.0
  7
KANJI25
  0
LINE
  8
0
  6
CONTINUOUS
 62
     2
 10
333.392674524
 20
222.871526374
 30
0.0
 11
765.680083262
 21
222.871526374
 31
0.0
  0
TEXT
  8
0
  6
CONTINUOUS
 62
     2
 10
335.392674524
 20
230.871526374
 30
0.0
 40
20.0
  1
推力リミッタの作動値は、約４４００ｋｇ（設計値）
 50
0.0
 41
0.925
 51
0.0
  7
KANJI26
  0
LINE
  8
0
  6
CONTINUOUS
 62
     2
 10
559.833427615
 20
190.483330769
 30
0.0
 11
567.560834226
 21
188.412778408
 31
0.0
  0
LINE
  8
0
  6
CONTINUOUS
 62
     2
 10
559.833427615
 20
190.483330769
 30
0.0
 11
567.560834226
 21
192.55388313
 31
0.0
  0
LINE
  8
0
  6
CONTINUOUS
 62
     2
 10
559.833427615
 20
190.483330769
 30
0.0
 11
697.433427615
 21
190.483330769
 31
0.0
  0
LINE
  8
0
  6
CONTINUOUS
 62
     2
 10
697.433427615
 20
190.483330769
 30
0.0
 11
689.706021005
 21
192.55388313
 31
0.0
  0
LINE
  8
0
  6
CONTINUOUS
 62
     2
 10
697.433427615
 20
190.483330769
 30
0.0
 11
689.706021005
 21
188.412778408
 31
0.0
  0
LINE
  8
0
  6
CONTINUOUS
 62
     2
 10
697.433427615
 20
189.283330769
 30
0.0
 11
697.433427615
 21
186.483330769
 31
0.0
  0
LINE
  8
0
  6
CONTINUOUS
 62
     2
 10
697.433427615
 20
190.483330769
 30
0.0
 11
705.160834226
 21
188.412778408
 31
0.0
  0
LINE
  8
0
  6
CONTINUOUS
 62
     2
 10
697.433427615
 20
190.483330769
 30
0.0
 11
705.160834226
 21
192.55388313
 31
0.0
  0
LINE
  8
0
  6
CONTINUOUS
 62
     2
 10
697.433427615
 20
190.483330769
 30
0.0
 11
899.833427615
 21
190.483330769
 31
0.0
  0
LINE
  8
0
  6
CONTINUOUS
 62
     2
 10
899.833427615
 20
190.483330769
 30
0.0
 11
892.106021005
 21
192.55388313
 31
0.0
  0
LINE
  8
0
  6
CONTINUOUS
 62
     2
 10
899.833427615
 20
190.483330769
 30
0.0
 11
892.106021005
 21
188.412778408
 31
0.0
  0
LINE
  8
0
  6
CONTINUOUS
 62
     2
 10
697.433427615
 20
164.15388313
 30
0.0
 11
689.706021005
 21
166.224435491
 31
0.0
  0
LINE
  8
0
  6
CONTINUOUS
 62
     2
 10
697.433427615
 20
164.15388313
 30
0.0
 11
689.706021005
 21
162.083330769
 31
0.0
  0
LINE
  8
0
  6
CONTINUOUS
 62
     2
 10
685.433427615
 20
164.15388313
 30
0.0
 11
697.433427615
 21
164.15388313
 31
0.0
  0
LINE
  8
0
  6
CONTINUOUS
 62
     2
 10
697.433427615
 20
164.15388313
 30
0.0
 11
718.233427615
 21
164.15388313
 31
0.0
  0
LINE
  8
0
  6
CONTINUOUS
 62
     2
 10
718.233427615
 20
164.15388313
 30
0.0
 11
725.960834226
 21
162.083330769
 31
0.0
  0
LINE
  8
0
  6
CONTINUOUS
 62
     2
 10
718.233427615
 20
164.15388313
 30
0.0
 11
725.960834226
 21
166.224435491
 31
0.0
  0
LINE
  8
0
  6
CONTINUOUS
 62
     2
 10
559.833427615
 20
138.883330769
 30
0.0
 11
559.833427615
 21
132.883330769
 31
0.0
  0
LINE
  8
0
  6
CONTINUOUS
 62
     2
 10
559.833427615
 20
136.883330769
 30
0.0
 11
567.560834226
 21
134.812778408
 31
0.0
  0
LINE
  8
0
  6
CONTINUOUS
 62
     2
 10
559.833427615
 20
136.883330769
 30
0.0
 11
567.560834226
 21
138.95388313
 31
0.0
  0
LINE
  8
0
  6
CONTINUOUS
 62
     2
 10
559.833427615
 20
136.883330769
 30
0.0
 11
718.233427615
 21
136.883330769
 31
0.0
  0
LINE
  8
0
  6
CONTINUOUS
 62
     2
 10
718.233427615
 20
136.883330769
 30
0.0
 11
710.506021005
 21
138.95388313
 31
0.0
  0
LINE
  8
0
  6
CONTINUOUS
 62
     2
 10
718.233427615
 20
136.883330769
 30
0.0
 11
710.506021005
 21
134.812778408
 31
0.0
  0
LINE
  8
0
  6
CONTINUOUS
 62
     2
 10
718.233427615
 20
138.083330769
 30
0.0
 11
718.233427615
 21
132.883330769
 31
0.0
  0
LINE
  8
0
  6
CONTINUOUS
 62
     2
 10
718.233427615
 20
136.883330769
 30
0.0
 11
725.960834226
 21
134.812778408
 31
0.0
  0
LINE
  8
0
  6
CONTINUOUS
 62
     2
 10
718.233427615
 20
136.883330769
 30
0.0
 11
725.960834226
 21
138.95388313
 31
0.0
  0
LINE
  8
0
  6
CONTINUOUS
 62
     2
 10
899.833427615
 20
133.283330769
 30
0.0
 11
899.833427615
 21
132.883330769
 31
0.0
  0
LINE
  8
0
  6
CONTINUOUS
 62
     2
 10
559.833427615
 20
107.683330769
 30
0.0
 11
567.560834226
 21
105.612778408
 31
0.0
  0
LINE
  8
0
  6
CONTINUOUS
 62
     2
 10
559.833427615
 20
107.683330769
 30
0.0
 11
567.560834226
 21
109.75388313
 31
0.0
  0
LINE
  8
0
  6
CONTINUOUS
 62
     2
 10
559.833427615
 20
107.683330769
 30
0.0
 11
877.433427615
 21
107.683330769
 31
0.0
  0
LINE
  8
0
  6
CONTINUOUS
 62
     2
 10
877.433427615
 20
107.683330769
 30
0.0
 11
869.706021005
 21
109.75388313
 31
0.0
  0
LINE
  8
0
  6
CONTINUOUS
 62
     2
 10
877.433427615
 20
107.683330769
 30
0.0
 11
869.706021005
 21
105.612778408
 31
0.0
  0
LINE
  8
0
  6
CONTINUOUS
 62
     2
 10
877.433427615
 20
108.483330769
 30
0.0
 11
877.433427615
 21
103.683330769
 31
0.0
  0
LINE
  8
0
  6
CONTINUOUS
 62
     2
 10
877.433427615
 20
107.683330769
 30
0.0
 11
869.706021005
 21
109.75388313
 31
0.0
  0
LINE
  8
0
  6
CONTINUOUS
 62
     2
 10
877.433427615
 20
107.683330769
 30
0.0
 11
869.706021005
 21
105.612778408
 31
0.0
  0
LINE
  8
0
  6
CONTINUOUS
 62
     2
 10
865.433427615
 20
107.683330769
 30
0.0
 11
877.433427615
 21
107.683330769
 31
0.0
  0
LINE
  8
0
  6
CONTINUOUS
 62
     2
 10
877.433427615
 20
107.683330769
 30
0.0
 11
899.833427615
 21
107.683330769
 31
0.0
  0
LINE
  8
0
  6
CONTINUOUS
 62
     2
 10
899.833427615
 20
107.683330769
 30
0.0
 11
907.560834226
 21
105.612778408
 31
0.0
  0
LINE
  8
0
  6
CONTINUOUS
 62
     2
 10
899.833427615
 20
107.683330769
 30
0.0
 11
907.560834226
 21
109.75388313
 31
0.0
  0
LINE
  8
0
  6
CONTINUOUS
 62
     2
 10
559.833427615
 20
201.283330769
 30
0.0
 11
559.833427615
 21
186.483330769
 31
0.0
  0
LINE
  8
0
  6
CONTINUOUS
 62
     2
 10
899.833427615
 20
201.283330769
 30
0.0
 11
899.833427615
 21
186.483330769
 31
0.0
  0
LINE
  8
0
  6
CONTINUOUS
 62
     2
 10
697.433427615
 20
190.083330769
 30
0.0
 11
697.433427615
 21
201.283330769
 31
0.0
  0
LINE
  8
0
  6
CONTINUOUS
 62
     2
 10
718.233427615
 20
176.95388313
 30
0.0
 11
718.233427615
 21
160.15388313
 31
0.0
  0
LINE
  8
0
  6
CONTINUOUS
 62
     2
 10
559.833427615
 20
186.483330769
 30
0.0
 11
559.833427615
 21
94.483330769
 31
0.0
  0
LINE
  8
0
  6
CONTINUOUS
 62
     2
 10
899.833427615
 20
190.483330769
 30
0.0
 11
899.833427615
 21
95.683330769
 31
0.0
  0
LINE
  8
0
  6
CONTINUOUS
 62
     2
 10
718.233427615
 20
164.15388313
 30
0.0
 11
718.233427615
 21
127.683330769
 31
0.0
  0
LINE
  8
0
  6
CONTINUOUS
 62
     2
 10
697.433427615
 20
190.483330769
 30
0.0
 11
697.433427615
 21
154.883330769
 31
0.0
  0
TEXT
  8
0
  6
CONTINUOUS
 62
     3
 10
601.633427615
 20
192.483330769
 30
0.0
 40
15.0
  1
ｍｉｎ．Ｌ
 50
0.0
 41
0.9
 51
0.0
  7
KANJI27
  0
TEXT
  8
0
  6
CONTINUOUS
 62
     3
 10
755.433427615
 20
192.483330769
 30
0.0
 40
15.0
  1
機械的ストローク
 50
0.0
 41
0.9
 51
0.0
  7
KANJI27
  0
TEXT
  8
0
  6
CONTINUOUS
 62
     3
 10
730.233427615
 20
166.15388313
 30
0.0
 40
15.0
  1
余裕
 50
0.0
 41
0.9
 51
0.0
  7
KANJI27
  0
TEXT
  8
0
  6
CONTINUOUS
 62
     3
 10
612.033427615
 20
138.883330769
 30
0.0
 40
15.0
  1
常用ｍｉｎ
 50
0.0
 41
0.9
 51
0.0
  7
KANJI27
  0
TEXT
  8
0
  6
CONTINUOUS
 62
     3
 10
691.633427615
 20
109.683330769
 30
0.0
 40
15.0
  1
常用ｍａｘ
 50
0.0
 41
0.9
 51
0.0
  7
KANJI27
  0
TEXT
  8
0
  6
CONTINUOUS
 62
     3
 10
911.833427615
 20
109.683330769
 30
0.0
 40
15.0
  1
余裕
 50
0.0
 41
0.9
 51
0.0
  7
KANJI27
  0
LINE
  8
0
  6
CONTINUOUS
 62
     2
 10
718.233427615
 20
164.15388313
 30
0.0
 11
758.333427615
 21
164.15388313
 31
0.0
  0
LINE
  8
0
  6
CONTINUOUS
 62
     2
 10
899.833427615
 20
107.683330769
 30
0.0
 11
942.333427615
 21
107.683330769
 31
0.0
  0
LINE
  8
0
  6
CONTINUOUS
 62
     2
 10
877.433427615
 20
150.163330769
 30
0.0
 11
877.433427615
 21
94.883330769
 31
0.0
  0
LINE
  8
0
  6
CONTINUOUS
 62
     2
 10
718.233427615
 20
136.883330769
 30
0.0
 11
877.433427615
 21
136.883330769
 31
0.0
  0
LINE
  8
0
  6
CONTINUOUS
 62
     2
 10
877.433427615
 20
136.883330769
 30
0.0
 11
869.706021005
 21
138.95388313
 31
0.0
  0
LINE
  8
0
  6
CONTINUOUS
 62
     2
 10
877.433427615
 20
136.883330769
 30
0.0
 11
869.706021005
 21
134.812778408
 31
0.0
  0
TEXT
  8
0
  6
CONTINUOUS
 62
     3
 10
757.533427615
 20
139.503330769
 30
0.0
 40
15.0
  1
常用ストローク
 50
0.0
 41
0.9
 51
0.0
  7
KANJI27
  0
LINE
  8
0
  6
CONTINUOUS
 62
     1
 10
276.2199996
 20
666.4999852
 30
0.0
 11
276.2199996
 21
596.4999852
 31
0.0
  0
TEXT
  8
0
  6
CONTINUOUS
 62
     2
 10
281.2199996
 20
655.4999852
 30
5.0
 40
20.0
  1
銘板
 50
270.0
 41
0.925
 51
0.0
  7
KANJI28
  0
LINE
  8
0
  6
CONTINUOUS
 62
     1
 10
319.2199996
 20
666.4999852
 30
0.0
 11
276.2199996
 21
666.4999852
 31
0.0
  0
LINE
  8
0
  6
CONTINUOUS
 62
     1
 10
319.2199996
 20
596.4999852
 30
0.0
 11
276.2199996
 21
596.4999852
 31
0.0
  0
LINE
  8
0
  6
CONTINUOUS
 62
     1
 10
319.2199996
 20
666.4999852
 30
0.0
 11
319.2199996
 21
596.4999852
 31
0.0
  0
LINE
  8
0
  6
CONTINUOUS
 62
     1
 10
454.92
 20
470.4999852
 30
0.0
 11
444.32
 21
470.4999852
 31
0.0
  0
ARC
  8
0
  6
CONTINUOUS
 62
     1
 10
450.02
 20
471.4999852
 30
0.0
 40
5.0
 50
272.3
 51
348.5
  0
ARC
  8
0
  6
CONTINUOUS
 62
     1
 10
449.22
 20
471.4999852
 30
0.0
 40
5.0
 50
191.5
 51
267.7
  0
LINE
  8
0
  6
CONTINUOUS
 62
     1
 10
450.22
 20
466.4999852
 30
0.0
 11
449.02
 21
466.4999852
 31
0.0
  0
LINE
  8
0
  6
LTYPE5
 62
     2
 10
449.62
 20
463.0999852
 30
0.0
 11
449.62
 21
476.4999852
 31
0.0
  0
LINE
  8
0
  6
CONTINUOUS
 62
     1
 10
564.61
 20
470.4999852
 30
0.0
 11
554.01
 21
470.4999852
 31
0.0
  0
ARC
  8
0
  6
CONTINUOUS
 62
     1
 10
559.71
 20
471.4999852
 30
0.0
 40
5.0
 50
272.3
 51
348.5
  0
ARC
  8
0
  6
CONTINUOUS
 62
     1
 10
558.91
 20
471.4999852
 30
0.0
 40
5.0
 50
191.5
 51
267.7
  0
LINE
  8
0
  6
CONTINUOUS
 62
     1
 10
559.91
 20
466.4999852
 30
0.0
 11
558.71
 21
466.4999852
 31
0.0
  0
LINE
  8
0
  6
LTYPE5
 62
     2
 10
559.31
 20
463.0999852
 30
0.0
 11
559.31
 21
476.4999852
 31
0.0
  0
LINE
  8
0
  6
CONTINUOUS
 62
     1
 10
1369.9199996
 20
470.4999852
 30
0.0
 11
1359.3199996
 21
470.4999852
 31
0.0
  0
ARC
  8
0
  6
CONTINUOUS
 62
     1
 10
1365.0199996
 20
471.4999852
 30
0.0
 40
5.0
 50
272.3
 51
348.5
  0
ARC
  8
0
  6
CONTINUOUS
 62
     1
 10
1364.2199996
 20
471.4999852
 30
0.0
 40
5.0
 50
191.5
 51
267.7
  0
LINE
  8
0
  6
CONTINUOUS
 62
     1
 10
1365.2199996
 20
466.4999852
 30
0.0
 11
1364.0199996
 21
466.4999852
 31
0.0
  0
LINE
  8
0
  6
LTYPE5
 62
     2
 10
1364.6199996
 20
463.0999852
 30
0.0
 11
1364.6199996
 21
476.4999852
 31
0.0
  0
LINE
  8
0
  6
CONTINUOUS
 62
     1
 10
1459.9199996
 20
470.4999852
 30
0.0
 11
1449.3199996
 21
470.4999852
 31
0.0
  0
ARC
  8
0
  6
CONTINUOUS
 62
     1
 10
1455.0199996
 20
471.4999852
 30
0.0
 40
5.0
 50
272.3
 51
348.5
  0
ARC
  8
0
  6
CONTINUOUS
 62
     1
 10
1454.2199996
 20
471.4999852
 30
0.0
 40
5.0
 50
191.5
 51
267.7
  0
LINE
  8
0
  6
CONTINUOUS
 62
     1
 10
1455.2199996
 20
466.4999852
 30
0.0
 11
1454.0199996
 21
466.4999852
 31
0.0
  0
LINE
  8
0
  6
LTYPE5
 62
     2
 10
1454.6199996
 20
463.0999852
 30
0.0
 11
1454.6199996
 21
476.4999852
 31
0.0
  0
LINE
  8
0
  6
CONTINUOUS
 62
     1
 10
1314.6199996
 20
502.4999852
 30
0.0
 11
1314.6199996
 21
560.401113164
 31
0.0
  0
ARC
  8
0
  6
CONTINUOUS
 62
     1
 10
1320.6199996
 20
502.4999852
 30
0.0
 40
6.0
 50
180.0
 51
270.0
  0
LINE
  8
0
  6
CONTINUOUS
 62
     1
 10
1504.6199996
 20
502.4999852
 30
0.0
 11
1504.6199996
 21
560.401113164
 31
0.0
  0
ARC
  8
0
  6
CONTINUOUS
 62
     1
 10
1498.6199996
 20
502.4999852
 30
0.0
 40
6.0
 50
270.0
 51
0.0
  0
LINE
  8
0
  6
CONTINUOUS
 62
     1
 10
1358.6199996
 20
496.4999852
 30
0.0
 11
1320.6199996
 21
496.4999852
 31
0.0
  0
LINE
  8
0
  6
CONTINUOUS
 62
     1
 10
1498.6199996
 20
496.4999852
 30
0.0
 11
1460.6199996
 21
496.4999852
 31
0.0
  0
LINE
  8
0
  6
CONTINUOUS
 62
     2
 10
1504.6199996
 20
496.4999852
 30
0.0
 11
1577.1199996
 21
496.4999852
 31
0.0
  0
LINE
  8
0
  6
CONTINUOUS
 62
     2
 10
1571.1199996
 20
496.4999852
 30
0.0
 11
1574.225828141
 21
508.091095115
 31
0.0
  0
LINE
  8
0
  6
CONTINUOUS
 62
     2
 10
1571.1199996
 20
496.4999852
 30
0.0
 11
1568.014171059
 21
508.091095115
 31
0.0
  0
LINE
  8
0
  6
CONTINUOUS
 62
     2
 10
1571.1199996
 20
496.4999852
 30
0.0
 11
1571.1199996
 21
591.4999852
 31
0.0
  0
LINE
  8
0
  6
CONTINUOUS
 62
     2
 10
1571.1199996
 20
591.4999852
 30
0.0
 11
1568.014171059
 21
579.908875285
 31
0.0
  0
LINE
  8
0
  6
CONTINUOUS
 62
     2
 10
1571.1199996
 20
591.4999852
 30
0.0
 11
1574.225828141
 21
579.908875285
 31
0.0
  0
LINE
  8
0
  6
CONTINUOUS
 62
     2
 10
1564.0599996
 20
591.4999852
 30
0.0
 11
1577.1199996
 21
591.4999852
 31
0.0
  0
TEXT
  8
0
  6
CONTINUOUS
 62
     3
 10
1562.1199996
 20
527.7999852
 30
0.0
 40
18.0
  1
９５
 50
90.0
 41
0.9
 51
0.0
  7
KANJI29
  0
LINE
  8
0
  6
CONTINUOUS
 62
     1
 10
1314.6199996
 20
622.598857236
 30
0.0
 11
1314.6199996
 21
743.274995208
 31
0.0
  0
LINE
  8
0
  6
CONTINUOUS
 62
     1
 10
1504.6199996
 20
622.598857236
 30
0.0
 11
1504.6199996
 21
743.274995208
 31
0.0
  0
LINE
  8
0
  6
CONTINUOUS
 62
     2
 10
1314.6199996
 20
496.499992829
 30
0.0
 11
1314.6199996
 21
407.989992829
 31
0.0
  0
LINE
  8
0
  6
CONTINUOUS
 62
     2
 10
1314.6199996
 20
413.989992829
 30
0.0
 11
1326.211109515
 21
410.884164288
 31
0.0
  0
LINE
  8
0
  6
CONTINUOUS
 62
     2
 10
1314.6199996
 20
413.989992829
 30
0.0
 11
1326.211109515
 21
417.095821371
 31
0.0
  0
LINE
  8
0
  6
CONTINUOUS
 62
     2
 10
1314.6199996
 20
413.989992829
 30
0.0
 11
1504.6199996
 21
413.989992829
 31
0.0
  0
LINE
  8
0
  6
CONTINUOUS
 62
     2
 10
1504.6199996
 20
413.989992829
 30
0.0
 11
1493.028889685
 21
417.095821371
 31
0.0
  0
LINE
  8
0
  6
CONTINUOUS
 62
     2
 10
1504.6199996
 20
413.989992829
 30
0.0
 11
1493.028889685
 21
410.884164288
 31
0.0
  0
LINE
  8
0
  6
CONTINUOUS
 62
     2
 10
1504.6199996
 20
496.49999599
 30
0.0
 11
1504.6199996
 21
407.989992829
 31
0.0
  0
TEXT
  8
0
  6
CONTINUOUS
 62
     3
 10
1385.3199996
 20
422.989992829
 30
0.0
 40
18.0
  1
１９０
 50
0.0
 41
0.9
 51
0.0
  7
KANJI29
  0
LINE
  8
0
  6
LTYPE2
 62
     2
 10
251.2199996
 20
666.4999852
 30
0.0
 11
204.2199996
 21
666.4999852
 31
0.0
  0
LINE
  8
0
  6
CONTINUOUS
 62
     1
 10
219.5199996
 20
666.4999852
 30
0.0
 11
219.5199996
 21
652.668997102
 31
0.0
  0
LINE
  8
0
  6
CONTINUOUS
 62
     1
 10
219.5199996
 20
666.4999852
 30
0.0
 11
219.5199996
 21
680.330973298
 31
0.0
  0
LINE
  8
0
  6
CONTINUOUS
 62
     1
 10
209.520090987
 20
656.056177861
 30
0.0
 11
211.47568071
 21
652.668997102
 31
0.0
  0
LINE
  8
0
  6
CONTINUOUS
 62
     1
 10
209.520090987
 20
666.4999852
 30
0.0
 11
209.520090987
 21
656.056177861
 31
0.0
  0
LINE
  8
0
  6
CONTINUOUS
 62
     1
 10
209.520090987
 20
676.943792539
 30
0.0
 11
211.47568071
 21
680.330973298
 31
0.0
  0
LINE
  8
0
  6
CONTINUOUS
 62
     1
 10
209.520090987
 20
666.4999852
 30
0.0
 11
209.520090987
 21
676.943792539
 31
0.0
  0
ARC
  8
0
  6
CONTINUOUS
 62
     1
 10
222.725414298
 20
666.4999852
 30
0.0
 40
13.20532331
 50
148.419912243
 51
211.580087757
  0
ARC
  8
0
  6
CONTINUOUS
 62
     1
 10
213.553494791
 20
656.126744127
 30
0.0
 40
4.034021051
 50
121.002313915
 51
182.989498403
  0
LINE
  8
0
  6
CONTINUOUS
 62
     1
 10
209.520090987
 20
676.943792539
 30
0.0
 11
211.47568071
 21
680.330973298
 31
0.0
  0
ARC
  8
0
  6
CONTINUOUS
 62
     1
 10
213.553494791
 20
676.873226273
 30
0.0
 40
4.034021051
 50
177.010501597
 51
238.997686085
  0
LINE
  8
0
  6
CONTINUOUS
 62
     1
 10
219.5199996
 20
652.668997102
 30
0.0
 11
211.47568071
 21
652.668997102
 31
0.0
  0
LINE
  8
0
  6
CONTINUOUS
 62
     1
 10
219.5199996
 20
659.584491151
 30
0.0
 11
211.47568071
 21
659.584491151
 31
0.0
  0
LINE
  8
0
  6
CONTINUOUS
 62
     1
 10
219.5199996
 20
673.415479249
 30
0.0
 11
211.47568071
 21
673.415479249
 31
0.0
  0
LINE
  8
0
  6
CONTINUOUS
 62
     1
 10
219.5199996
 20
680.330973298
 30
0.0
 11
211.47568071
 21
680.330973298
 31
0.0
  0
LINE
  8
0
  6
LTYPE2
 62
     2
 10
253.2199996
 20
516.4999852
 30
0.0
 11
199.2199996
 21
516.4999852
 31
0.0
  0
LINE
  8
0
  6
CONTINUOUS
 62
     1
 10
219.5199996
 20
516.4999852
 30
0.0
 11
219.5199996
 21
502.668997102
 31
0.0
  0
LINE
  8
0
  6
CONTINUOUS
 62
     1
 10
219.5199996
 20
516.4999852
 30
0.0
 11
219.5199996
 21
530.330973298
 31
0.0
  0
LINE
  8
0
  6
CONTINUOUS
 62
     1
 10
209.520090987
 20
506.056177861
 30
0.0
 11
211.47568071
 21
502.668997102
 31
0.0
  0
LINE
  8
0
  6
CONTINUOUS
 62
     1
 10
209.520090987
 20
516.4999852
 30
0.0
 11
209.520090987
 21
506.056177861
 31
0.0
  0
LINE
  8
0
  6
CONTINUOUS
 62
     1
 10
209.520090987
 20
526.943792539
 30
0.0
 11
211.47568071
 21
530.330973298
 31
0.0
  0
LINE
  8
0
  6
CONTINUOUS
 62
     1
 10
209.520090987
 20
516.4999852
 30
0.0
 11
209.520090987
 21
526.943792539
 31
0.0
  0
ARC
  8
0
  6
CONTINUOUS
 62
     1
 10
222.725414298
 20
516.4999852
 30
0.0
 40
13.20532331
 50
148.419912243
 51
211.580087757
  0
ARC
  8
0
  6
CONTINUOUS
 62
     1
 10
213.553494791
 20
506.126744127
 30
0.0
 40
4.034021051
 50
121.002313915
 51
182.989498403
  0
LINE
  8
0
  6
CONTINUOUS
 62
     1
 10
209.520090987
 20
526.943792539
 30
0.0
 11
211.47568071
 21
530.330973298
 31
0.0
  0
ARC
  8
0
  6
CONTINUOUS
 62
     1
 10
213.553494791
 20
526.873226273
 30
0.0
 40
4.034021051
 50
177.010501597
 51
238.997686085
  0
LINE
  8
0
  6
CONTINUOUS
 62
     1
 10
219.5199996
 20
502.668997102
 30
0.0
 11
211.47568071
 21
502.668997102
 31
0.0
  0
LINE
  8
0
  6
CONTINUOUS
 62
     1
 10
219.5199996
 20
509.584491151
 30
0.0
 11
211.47568071
 21
509.584491151
 31
0.0
  0
LINE
  8
0
  6
CONTINUOUS
 62
     1
 10
219.5199996
 20
523.415479249
 30
0.0
 11
211.47568071
 21
523.415479249
 31
0.0
  0
LINE
  8
0
  6
CONTINUOUS
 62
     1
 10
219.5199996
 20
530.330973298
 30
0.0
 11
211.47568071
 21
530.330973298
 31
0.0
  0
LINE
  8
0
  6
CONTINUOUS
 62
     2
 10
219.5199996
 20
354.4999852
 30
0.0
 11
234.008886994
 21
358.382270877
 31
0.0
  0
LINE
  8
0
  6
CONTINUOUS
 62
     2
 10
219.5199996
 20
487.4999852
 30
0.0
 11
219.5199996
 21
345.4999852
 31
0.0
  0
LINE
  8
0
  6
CONTINUOUS
 62
     2
 10
219.5199996
 20
354.4999852
 30
0.0
 11
234.008886994
 21
350.617699523
 31
0.0
  0
LINE
  8
0
  6
CONTINUOUS
 62
     2
 10
219.5199996
 20
345.4999852
 30
0.0
 11
219.5199996
 21
306.9999852
 31
0.0
  0
LINE
  8
0
  6
CONTINUOUS
 62
     2
 10
219.5199996
 20
315.9999852
 30
0.0
 11
234.008886994
 21
319.882270877
 31
0.0
  0
LINE
  8
0
  6
CONTINUOUS
 62
     2
 10
219.5199996
 20
315.9999852
 30
0.0
 11
234.008886994
 21
312.117699523
 31
0.0
  0
LINE
  8
0
  6
CONTINUOUS
 62
     2
 10
219.5199996
 20
306.9999852
 30
0.0
 11
219.5199996
 21
268.9999852
 31
0.0
  0
LINE
  8
0
  6
CONTINUOUS
 62
     2
 10
219.5199996
 20
277.9999852
 30
0.0
 11
234.008886994
 21
281.882270877
 31
0.0
  0
LINE
  8
0
  6
CONTINUOUS
 62
     2
 10
219.5199996
 20
277.9999852
 30
0.0
 11
234.008886994
 21
274.117699523
 31
0.0
  0
LINE
  8
0
  6
CONTINUOUS
 62
     1
 10
324.5199996
 20
728.2499852
 30
0.0
 11
219.5199996
 21
728.2499852
 31
0.0
  0
LINE
  8
0
  6
CONTINUOUS
 62
     1
 10
219.5199996
 20
496.4999852
 30
0.0
 11
219.5199996
 21
728.2499852
 31
0.0
  0
LINE
  8
0
  6
CONTINUOUS
 62
     1
 10
344.5199996
 20
496.4999852
 30
0.0
 11
219.5199996
 21
496.4999852
 31
0.0
  0
LINE
  8
0
  6
CONTINUOUS
 62
     2
 10
344.5199996
 20
354.4999852
 30
0.0
 11
219.5199996
 21
354.4999852
 31
0.0
  0
LINE
  8
0
  6
CONTINUOUS
 62
     2
 10
219.5199996
 20
315.9999852
 30
0.0
 11
444.5199996
 21
315.9999852
 31
0.0
  0
LINE
  8
0
  6
CONTINUOUS
 62
     2
 10
1079.1199996
 20
277.9999852
 30
0.0
 11
219.5199996
 21
277.9999852
 31
0.0
  0
TEXT
  8
0
  6
CONTINUOUS
 62
     2
 10
1702.92
 20
627.9
 30
6.171428571
 40
21.6
  1
１。運転時は必ずピストンロッドの回転防止を行って下さい。
 50
0.0
 41
0.857142857
 51
0.0
  7
KANJI30
  0
TEXT
  8
0
  6
CONTINUOUS
 62
     2
 10
1702.92
 20
587.1
 30
6.156
 40
21.6
  1
２。モートル：全閉自冷かご形３０分定格
 50
0.0
 41
0.857222222
 51
0.0
  7
KANJI31
  0
TEXT
  8
0
  6
CONTINUOUS
 62
     2
 10
1702.5199098
 20
546.3000036
 30
6.156
 40
21.6
  1
３。呼称ストロークは、機械的ストロークです。
 50
0.0
 41
0.857222222
 51
0.0
  7
KANJI31
  0
TEXT
  8
0
  6
CONTINUOUS
 62
     2
 10
1702.5199098
 20
511.8000036
 30
6.156
 40
21.6
  1
　　必ず、常用はストローク両端に余裕を取って下さい。
 50
0.0
 41
0.857222222
 51
0.0
  7
KANJI31
  0
LINE
  8
0
  6
CONTINUOUS
 62
     2
 10
1770.12
 20
669.3
 30
0.0
 11
1916.52
 21
669.3
 31
0.0
  0
TEXT
  8
0
  6
CONTINUOUS
 62
     2
 10
1786.92
 20
675.9
 30
12.0
 40
24.0
  1
特記事項
 50
0.0
 41
0.9
 51
0.0
  7
KANJI32
  0
TEXT
  8
0
  6
CONTINUOUS
 62
     2
 10
1703.4319098
 20
472.1520036
 30
6.156
 40
21.6
  1
　　前後の推奨余裕寸法は、各々１０ｍｍです。
 50
0.0
 41
0.857222222
 51
0.0
  7
KANJI31
  0
CIRCLE
  8
0
  6
CONTINUOUS
 62
     1
 10
1409.6199996
 20
912.9999852
 30
0.0
 40
12.055
  0
CIRCLE
  8
0
  6
CONTINUOUS
 62
     1
 10
1409.6199996
 20
912.9999852
 30
0.0
 40
20.0
  0
CIRCLE
  8
0
  6
CONTINUOUS
 62
     1
 10
1409.6199996
 20
912.9999852
 30
0.0
 40
25.0
  0
LINE
  8
0
  6
CONTINUOUS
 62
     1
 10
1409.6199996
 20
957.4999852
 30
0.0
 11
1379.6199996
 21
957.4999852
 31
0.0
  0
LINE
  8
0
  6
CONTINUOUS
 62
     1
 10
1369.6199996
 20
888.4999852
 30
0.0
 11
1369.6199996
 21
947.4999852
 31
0.0
  0
ARC
  8
0
  6
CONTINUOUS
 62
     1
 10
1379.6199996
 20
947.4999852
 30
0.0
 40
10.0
 50
90.0
 51
180.0
  0
LINE
  8
0
  6
CONTINUOUS
 62
     1
 10
1409.6199996
 20
962.4999852
 30
0.0
 11
1369.6199996
 21
962.4999852
 31
0.0
  0
ARC
  8
0
  6
CONTINUOUS
 62
     1
 10
1369.6199996
 20
952.4999852
 30
0.0
 40
10.0
 50
90.0
 51
180.0
  0
LINE
  8
0
  6
CONTINUOUS
 62
     1
 10
1359.6199996
 20
888.4999852
 30
0.0
 11
1359.6199996
 21
952.4999852
 31
0.0
  0
ARC
  8
0
  6
CONTINUOUS
 62
     1
 10
1379.6199996
 20
888.4999852
 30
0.0
 40
10.0
 50
180.0
 51
270.0
  0
LINE
  8
0
  6
CONTINUOUS
 62
     1
 10
1409.6199996
 20
878.4999852
 30
0.0
 11
1369.6199996
 21
878.4999852
 31
0.0
  0
ARC
  8
0
  6
CONTINUOUS
 62
     1
 10
1369.6199996
 20
888.4999852
 30
0.0
 40
10.0
 50
180.0
 51
270.0
  0
LINE
  8
0
  6
CONTINUOUS
 62
     1
 10
1379.259872993
 20
878.506471862
 30
0.0
 11
1379.259872993
 21
873.006471862
 31
0.0
  0
ARC
  8
0
  6
CONTINUOUS
 62
     1
 10
1409.6199996
 20
774.4999852
 30
0.0
 40
100.0
 50
66.110646249
 51
173.889353751
  0
LINE
  8
0
  6
LTYPE2
 62
     2
 10
1373.1199996
 20
912.9999852
 30
0.0
 11
1445.1199996
 21
912.9999852
 31
0.0
  0
CIRCLE
  8
0
  6
CONTINUOUS
 62
     2
 10
1409.6199996
 20
912.9999852
 30
0.0
 40
13.221
  0
LINE
  8
0
  6
CONTINUOUS
 62
     1
 10
1409.6199996
 20
957.4999852
 30
0.0
 11
1439.6199996
 21
957.4999852
 31
0.0
  0
LINE
  8
0
  6
CONTINUOUS
 62
     1
 10
1449.6199996
 20
888.4999852
 30
0.0
 11
1449.6199996
 21
947.4999852
 31
0.0
  0
ARC
  8
0
  6
CONTINUOUS
 62
     1
 10
1439.6199996
 20
947.4999852
 30
0.0
 40
10.0
 50
0.0
 51
90.0
  0
LINE
  8
0
  6
CONTINUOUS
 62
     1
 10
1409.6199996
 20
962.4999852
 30
0.0
 11
1449.6199996
 21
962.4999852
 31
0.0
  0
ARC
  8
0
  6
CONTINUOUS
 62
     1
 10
1449.6199996
 20
952.4999852
 30
0.0
 40
10.0
 50
0.0
 51
90.0
  0
ARC
  8
0
  6
CONTINUOUS
 62
     1
 10
1409.6199996
 20
774.4999852
 30
0.0
 40
100.0
 50
306.110646249
 51
53.889353751
  0
ARC
  8
0
  6
CONTINUOUS
 62
     1
 10
1439.6199996
 20
888.4999852
 30
0.0
 40
10.0
 50
270.0
 51
0.0
  0
LINE
  8
0
  6
CONTINUOUS
 62
     1
 10
1409.6199996
 20
878.4999852
 30
0.0
 11
1449.6199996
 21
878.4999852
 31
0.0
  0
LINE
  8
0
  6
CONTINUOUS
 62
     1
 10
1459.6199996
 20
888.4999852
 30
0.0
 11
1459.6199996
 21
952.4999852
 31
0.0
  0
ARC
  8
0
  6
CONTINUOUS
 62
     1
 10
1449.6199996
 20
888.4999852
 30
0.0
 40
10.0
 50
270.0
 51
0.0
  0
LINE
  8
0
  6
CONTINUOUS
 62
     1
 10
1439.980126207
 20
878.506471862
 30
0.0
 11
1439.980126207
 21
873.006471862
 31
0.0
  0
ARC
  8
0
  6
CONTINUOUS
 62
     1
 10
1450.8699996
 20
845.947081012
 30
0.0
 40
20.0
 50
330.0
 51
60.0
  0
ARC
  8
0
  6
CONTINUOUS
 62
     1
 10
1450.8699996
 20
845.947081012
 30
0.0
 40
20.0
 50
60.0
 51
150.0
  0
LINE
  8
0
  6
CONTINUOUS
 62
     1
 10
1433.549491524
 20
855.947081012
 30
0.0
 11
1398.072994216
 21
794.4999852
 31
0.0
  0
LINE
  8
0
  6
CONTINUOUS
 62
     2
 10
1571.1199996
 20
774.4999852
 30
0.0
 11
1571.1199996
 21
962.4999852
 31
0.0
  0
LINE
  8
0
  6
CONTINUOUS
 62
     2
 10
1571.1199996
 20
962.4999852
 30
0.0
 11
1567.237713923
 21
948.011097806
 31
0.0
  0
LINE
  8
0
  6
CONTINUOUS
 62
     2
 10
1571.1199996
 20
962.4999852
 30
0.0
 11
1575.002285277
 21
948.011097806
 31
0.0
  0
LINE
  8
0
  6
CONTINUOUS
 62
     2
 10
1455.620030118
 20
962.4999852
 30
0.0
 11
1577.1199996
 21
962.4999852
 31
0.0
  0
LINE
  8
0
  6
CONTINUOUS
 62
     2
 10
1571.1199996
 20
774.4999852
 30
0.0
 11
1575.002285277
 21
788.988872594
 31
0.0
  0
LINE
  8
0
  6
CONTINUOUS
 62
     2
 10
1571.1199996
 20
774.4999852
 30
0.0
 11
1567.237713923
 21
788.988872594
 31
0.0
  0
LINE
  8
0
  6
CONTINUOUS
 62
     2
 10
1618.1199996
 20
962.4999852
 30
0.0
 11
1614.237713923
 21
948.011097806
 31
0.0
  0
LINE
  8
0
  6
CONTINUOUS
 62
     2
 10
1618.1199996
 20
962.4999852
 30
0.0
 11
1622.002285277
 21
948.011097806
 31
0.0
  0
LINE
  8
0
  6
CONTINUOUS
 62
     2
 10
1562.1199996
 20
962.4999852
 30
0.0
 11
1624.1199996
 21
962.4999852
 31
0.0
  0
TEXT
  8
0
  6
CONTINUOUS
 62
     3
 10
1612.1199996
 20
752.6999852
 30
0.0
 40
18.0
  1
３７１
 50
90.0
 41
0.9
 51
0.0
  7
KANJI29
  0
LINE
  8
0
  6
CONTINUOUS
 62
     2
 10
1618.1199996
 20
591.4999852
 30
0.0
 11
1622.002285277
 21
605.988872594
 31
0.0
  0
LINE
  8
0
  6
CONTINUOUS
 62
     2
 10
1618.1199996
 20
591.4999852
 30
0.0
 11
1614.237713923
 21
605.988872594
 31
0.0
  0
LINE
  8
0
  6
CONTINUOUS
 62
     1
 10
1412.953332933
 20
794.220251144
 30
0.0
 11
1471.286666267
 21
784.360118172
 31
0.0
  0
CIRCLE
  8
0
  6
CONTINUOUS
 62
     1
 10
1469.6199996
 20
774.4999852
 30
0.0
 40
9.0
  0
LINE
  8
0
  6
CONTINUOUS
 62
     1
 10
1468.190507676
 20
835.947081012
 30
0.0
 11
1441.330211438
 21
789.423683223
 31
0.0
  0
ARC
  8
0
  6
CONTINUOUS
 62
     1
 10
1469.6199996
 20
774.4999852
 30
0.0
 40
10.0
 50
279.594068227
 51
80.405931773
  0
LINE
  8
0
  6
LTYPE2
 62
     2
 10
1469.6199996
 20
759.4999852
 30
0.0
 11
1469.6199996
 21
794.4999852
 31
0.0
  0
LINE
  8
0
  6
CONTINUOUS
 62
     1
 10
1412.953332933
 20
754.779719256
 30
0.0
 11
1471.286666267
 21
764.639852228
 31
0.0
  0
LINE
  8
0
  6
CONTINUOUS
 62
     1
 10
1468.190507676
 20
713.052889388
 30
0.0
 11
1441.330211438
 21
759.576287177
 31
0.0
  0
ARC
  8
0
  6
CONTINUOUS
 62
     1
 10
1450.8699996
 20
703.052889388
 30
0.0
 40
20.0
 50
210.0
 51
300.0
  0
ARC
  8
0
  6
CONTINUOUS
 62
     1
 10
1450.8699996
 20
703.052889388
 30
0.0
 40
20.0
 50
300.0
 51
30.0
  0
LINE
  8
0
  6
CONTINUOUS
 62
     1
 10
1433.549491524
 20
693.052889388
 30
0.0
 11
1398.072994216
 21
754.4999852
 31
0.0
  0
LINE
  8
0
  6
CONTINUOUS
 62
     1
 10
1327.1199996
 20
754.4999852
 30
0.0
 11
1398.072994216
 21
754.4999852
 31
0.0
  0
ARC
  8
0
  6
CONTINUOUS
 62
     1
 10
1409.6199996
 20
774.4999852
 30
0.0
 40
20.0
 50
80.405931773
 51
279.594068227
  0
CIRCLE
  8
0
  6
CONTINUOUS
 62
     1
 10
1409.6199996
 20
774.4999852
 30
0.0
 40
19.0
  0
CIRCLE
  8
0
  6
CONTINUOUS
 62
     1
 10
1396.5199996
 20
774.4999852
 30
0.0
 40
4.0
  0
CIRCLE
  8
0
  6
CONTINUOUS
 62
     1
 10
1409.6199996
 20
761.3999852
 30
0.0
 40
4.0
  0
CIRCLE
  8
0
  6
CONTINUOUS
 62
     1
 10
1409.6199996
 20
774.4999852
 30
0.0
 40
4.0
  0
CIRCLE
  8
0
  6
CONTINUOUS
 62
     1
 10
1422.7199996
 20
774.4999852
 30
0.0
 40
4.0
  0
CIRCLE
  8
0
  6
CONTINUOUS
 62
     1
 10
1409.6199996
 20
787.5999852
 30
0.0
 40
4.0
  0
LINE
  8
0
  6
CONTINUOUS
 62
     1
 10
1327.1199996
 20
794.4999852
 30
0.0
 11
1398.072994216
 21
794.4999852
 31
0.0
  0
ARC
  8
0
  6
CONTINUOUS
 62
     1
 10
1327.1199996
 20
774.4999852
 30
0.0
 40
20.0
 50
90.0
 51
180.0
  0
ARC
  8
0
  6
CONTINUOUS
 62
     1
 10
1327.1199996
 20
774.4999852
 30
0.0
 40
20.0
 50
180.0
 51
270.0
  0
ARC
  8
0
  6
CONTINUOUS
 62
     1
 10
1409.6199996
 20
774.4999852
 30
0.0
 40
100.0
 50
186.110646249
 51
291.583969242
  0
TEXT
  8
0
  6
CONTINUOUS
 62
     2
 10
1566.1199996
 20
832.1249852
 30
1.2
 40
18.0
  1
１８８
 50
90.0
 41
0.9
 51
0.0
  7
KANJI18
  0
LINE
  8
0
  6
CONTINUOUS
 62
     2
 10
1571.1199996
 20
774.4999852
 30
0.0
 11
1567.237713923
 21
760.011097806
 31
0.0
  0
LINE
  8
0
  6
CONTINUOUS
 62
     2
 10
1571.1199996
 20
774.4999852
 30
0.0
 11
1575.002285277
 21
760.011097806
 31
0.0
  0
LINE
  8
0
  6
CONTINUOUS
 62
     2
 10
1527.6199996
 20
774.4999852
 30
0.0
 11
1580.1199996
 21
774.4999852
 31
0.0
  0
LINE
  8
0
  6
LTYPE2
 62
     2
 10
1299.1199996
 20
774.4999852
 30
0.0
 11
1523.1199996
 21
774.4999852
 31
0.0
  0
LINE
  8
0
  6
CONTINUOUS
 62
     2
 10
1571.1199996
 20
591.4999852
 30
0.0
 11
1571.1199996
 21
774.4999852
 31
0.0
  0
LINE
  8
0
  6
CONTINUOUS
 62
     2
 10
1618.1199996
 20
591.4999852
 30
0.0
 11
1618.1199996
 21
962.4999852
 31
0.0
  0
LINE
  8
7
  6
CONTINUOUS
 62
     2
 10
200.8599996
 20
882.4299852
 30
0.0
 11
94.6599996
 21
882.4299852
 31
0.0
  0
TEXT
  8
7
  6
CONTINUOUS
 62
     2
 10
94.6599996
 20
888.4299852
 30
1.8
 40
18.0
  1
手動軸カバー
 50
0.0
 41
0.9
 51
0.0
  7
KANJI17
  0
LINE
  8
7
  6
CONTINUOUS
 62
     2
 10
215.8599996
 20
789.2299852
 30
0.0
 11
217.390684844
 21
804.151680904
 31
0.0
  0
LINE
  8
7
  6
CONTINUOUS
 62
     2
 10
215.8599996
 20
789.2299852
 30
0.0
 11
209.724764054
 21
802.917895369
 31
0.0
  0
LINE
  8
7
  6
CONTINUOUS
 62
     2
 10
215.8599996
 20
789.2299852
 30
0.0
 11
200.8599996
 21
882.4299852
 31
0.0
  0
TEXT
  8
7
  6
CONTINUOUS
 62
     2
 10
94.6599996
 20
858.4299852
 30
1.8
 40
18.0
  1
手動軸□１０
 50
0.0
 41
0.9
 51
0.0
  7
KANJI17
  0
ARC
  8
0
  6
CONTINUOUS
 62
     2
 10
164.5399992
 20
773.6299704
 30
0.0
 40
20.0
 50
231.952957468
 51
156.801409486
  0
LINE
  8
0
  6
CONTINUOUS
 62
     2
 10
146.1570986
 20
781.508356372
 30
0.0
 11
148.45179131
 21
791.345795149
 31
0.0
  0
LINE
  8
0
  6
CONTINUOUS
 62
     2
 10
146.1570986
 20
781.508356372
 30
0.0
 11
154.425259978
 21
786.415692907
 31
0.0
  0
TEXT
  8
0
  6
CONTINUOUS
 62
     2
 10
89.0170986
 20
764.508356372
 30
0.0
 40
15.0
  1
前進方向
 50
0.0
 41
0.9
 51
0.0
  7
KANJI27
  0
LINE
  8
0
  6
CONTINUOUS
 62
     6
 10
356.629425053
 20
1631.447759827
 30
0.0
 11
124.584646507
 21
1631.447759827
 31
0.0
  0
LINE
  8
0
  6
CONTINUOUS
 62
     3
 10
356.629425053
 20
1603.985259827
 30
0.0
 11
124.584646507
 21
1603.985259827
 31
0.0
  0
LINE
  8
0
  6
CONTINUOUS
 62
     6
 10
356.629425053
 20
1603.985259827
 30
0.0
 11
124.584646507
 21
1603.985259827
 31
0.0
  0
TEXT
  8
0
  6
CONTINUOUS
 62
     6
 10
382.212228
 20
1628.900410728
 30
1.232517
 40
13.182
  1
電気定格　　　
 50
0.0
 41
0.85
 51
0.0
  7
KANJI33
  0
TEXT
  8
0
  6
CONTINUOUS
 62
     6
 10
128.493517202
 20
1634.64592676
 30
1.0647
 40
11.661
  1
ＬＳ０１　　　：推力リミッタ（前進時過負荷用）
 50
0.0
 41
0.822608696
 51
0.0
  7
KANJI34
  0
TEXT
  8
0
  6
CONTINUOUS
 62
     6
 10
128.493517202
 20
1607.18342676
 30
1.0647
 40
11.661
  1
ＬＳ０２　　　：推力リミッタ（後進時過負荷用）
 50
0.0
 41
0.822608696
 51
0.0
  7
KANJI34
  0
TEXT
  8
0
  6
CONTINUOUS
 62
     6
 10
395.013715102
 20
1598.326958599
 30
0.0
 40
11.8638
  1
ＤＣ１２５Ｖ　０．６Ａ　，ＤＣ２５０Ｖ　０．３Ａ　
 50
0.0
 41
0.726495726
 51
0.0
  7
KANJI35
  0
LINE
  8
0
  6
LTYPE2
 62
     6
 10
655.02
 20
1658.9
 30
0.0
 11
106.62
 21
1658.9
 31
0.0
  0
TEXT
  8
0
  6
CONTINUOUS
 62
     6
 10
389.757132178
 20
1646.661726126
 30
0.0
 40
45.0
  1
｝
 50
0.0
 41
0.538166667
 51
0.0
  7
KANJI36
  0
TEXT
  8
0
  6
CONTINUOUS
 62
     6
 10
319.632791539
 20
1417.92382165
 30
0.0
 40
17.740702234
  1
端子台　接続図
 50
0.0
 41
0.880962996
 51
0.0
  7
KANJI37
  0
LINE
  8
0
  6
LTYPE2
 62
     6
 10
655.02
 20
1399.9
 30
0.0
 11
655.02
 21
1658.9
 31
0.0
  0
LINE
  8
0
  6
LTYPE2
 62
     6
 10
106.62
 20
1399.9
 30
0.0
 11
655.02
 21
1399.9
 31
0.0
  0
LINE
  8
0
  6
LTYPE2
 62
     6
 10
106.62
 20
1658.9
 30
0.0
 11
106.62
 21
1399.9
 31
0.0
  0
LINE
  8
0
  6
CONTINUOUS
 62
     2
 10
354.597373465
 20
1468.928121884
 30
0.0
 11
354.597373465
 21
1446.149155128
 31
0.0
  0
LINE
  8
0
  6
CONTINUOUS
 62
     2
 10
381.17283468
 20
1468.928121884
 30
0.0
 11
381.17283468
 21
1446.149155128
 31
0.0
  0
LINE
  8
0
  6
CONTINUOUS
 62
     2
 10
407.748295894
 20
1468.928121884
 30
0.0
 11
407.748295894
 21
1446.149155128
 31
0.0
  0
LINE
  8
0
  6
CONTINUOUS
 62
     2
 10
434.323757109
 20
1468.928121884
 30
0.0
 11
434.323757109
 21
1446.149155128
 31
0.0
  0
CIRCLE
  8
0
  6
CONTINUOUS
 62
     6
 10
426.404269667
 20
1492.407921517
 30
0.0
 40
4.100214016
  0
LINE
  8
0
  6
CONTINUOUS
 62
     6
 10
422.304055651
 20
1492.407921517
 30
0.0
 11
421.036026502
 21
1492.407921517
 31
0.0
  0
LINE
  8
0
  6
CONTINUOUS
 62
     6
 10
447.358027433
 20
1506.094562742
 30
0.0
 11
443.443558096
 21
1483.759507138
 31
0.0
  0
LINE
  8
0
  6
CONTINUOUS
 62
     6
 10
442.631699663
 20
1506.882284037
 30
0.0
 11
438.716922494
 21
1484.547279739
 31
0.0
  0
LINE
  8
0
  6
CONTINUOUS
 62
     6
 10
443.443558096
 20
1483.759507138
 30
0.0
 11
438.716922494
 21
1484.547279739
 31
0.0
  0
CIRCLE
  8
0
  6
CONTINUOUS
 62
     6
 10
447.611487717
 20
1482.939464335
 30
0.0
 40
4.100214016
  0
LINE
  8
0
  6
CONTINUOUS
 62
     6
 10
447.611487717
 20
1478.839250319
 30
0.0
 11
447.611487717
 21
1468.928121884
 31
0.0
  0
LINE
  8
0
  6
CONTINUOUS
 62
     6
 10
421.036026502
 20
1492.407921517
 30
0.0
 11
421.036026502
 21
1468.928121884
 31
0.0
  0
LINE
  8
0
  6
CONTINUOUS
 62
     6
 10
394.460565287
 20
1468.928121884
 30
0.0
 11
394.460565287
 21
1522.633332504
 31
0.0
  0
LINE
  8
0
  6
CONTINUOUS
 62
     6
 10
314.987641926
 20
1506.094562742
 30
0.0
 11
318.902111263
 21
1483.759507138
 31
0.0
  0
LINE
  8
0
  6
CONTINUOUS
 62
     6
 10
319.713969696
 20
1506.882284037
 30
0.0
 11
323.628746865
 21
1484.547279739
 31
0.0
  0
LINE
  8
0
  6
CONTINUOUS
 62
     6
 10
318.902111263
 20
1483.759507138
 30
0.0
 11
323.628746865
 21
1484.547279739
 31
0.0
  0
CIRCLE
  8
0
  6
CONTINUOUS
 62
     6
 10
314.734181642
 20
1482.939464335
 30
0.0
 40
4.100214016
  0
CIRCLE
  8
0
  6
CONTINUOUS
 62
     6
 10
335.941399692
 20
1492.407921517
 30
0.0
 40
4.100214016
  0
LINE
  8
0
  6
CONTINUOUS
 62
     6
 10
340.041613708
 20
1492.407921517
 30
0.0
 11
341.309642857
 21
1492.407921517
 31
0.0
  0
LINE
  8
0
  6
CONTINUOUS
 62
     6
 10
314.734181642
 20
1478.839250319
 30
0.0
 11
314.734181642
 21
1468.928121884
 31
0.0
  0
LINE
  8
0
  6
CONTINUOUS
 62
     6
 10
341.309642857
 20
1492.407921517
 30
0.0
 11
341.309642857
 21
1468.928121884
 31
0.0
  0
LINE
  8
0
  6
CONTINUOUS
 62
     6
 10
367.885104072
 20
1468.928121884
 30
0.0
 11
367.885104072
 21
1522.633332504
 31
0.0
  0
LINE
  8
0
  6
CONTINUOUS
 62
     2
 10
460.899218324
 20
1468.928121884
 30
0.0
 11
460.899218324
 21
1446.149155128
 31
0.0
  0
LINE
  8
0
  6
CONTINUOUS
 62
     2
 10
301.446451035
 20
1468.928121884
 30
0.0
 11
301.446451035
 21
1446.149155128
 31
0.0
  0
LINE
  8
0
  6
CONTINUOUS
 62
     2
 10
328.02191225
 20
1468.928121884
 30
0.0
 11
328.02191225
 21
1446.149155128
 31
0.0
  0
LINE
  8
0
  6
CONTINUOUS
 62
     6
 10
447.611487717
 20
1522.633332504
 30
0.0
 11
394.460565287
 21
1522.633332504
 31
0.0
  0
CIRCLE
  8
0
  6
CONTINUOUS
 62
     6
 10
447.611487717
 20
1510.28941042
 30
0.0
 40
4.100214016
  0
LINE
  8
0
  6
CONTINUOUS
 62
     6
 10
447.358027433
 20
1506.094562742
 30
0.0
 11
442.631699663
 21
1506.882284037
 31
0.0
  0
LINE
  8
0
  6
CONTINUOUS
 62
     6
 10
447.611487717
 20
1514.389624436
 30
0.0
 11
447.611487717
 21
1522.633332504
 31
0.0
  0
CIRCLE
  8
0
  6
CONTINUOUS
 62
     6
 10
314.734181642
 20
1510.28941042
 30
0.0
 40
4.100214016
  0
LINE
  8
0
  6
CONTINUOUS
 62
     6
 10
314.987641926
 20
1506.094562742
 30
0.0
 11
319.713969696
 21
1506.882284037
 31
0.0
  0
LINE
  8
0
  6
CONTINUOUS
 62
     6
 10
314.734181642
 20
1514.389624436
 30
0.0
 11
314.734181642
 21
1522.633332504
 31
0.0
  0
LINE
  8
0
  6
CONTINUOUS
 62
     6
 10
367.885104072
 20
1522.633332504
 30
0.0
 11
314.734181642
 21
1522.633332504
 31
0.0
  0
TEXT
  8
0
  6
CONTINUOUS
 62
     6
 10
319.4972152
 20
1527.152473273
 30
0.819
 40
11.7
  1
ＬＳ０１
 50
0.0
 41
0.8
 51
0.0
  7
KANJI38
  0
TEXT
  8
0
  6
CONTINUOUS
 62
     6
 10
402.117398844
 20
1527.152473273
 30
0.819
 40
11.7
  1
ＬＳ０２
 50
0.0
 41
0.8
 51
0.0
  7
KANJI38
  0
TEXT
  8
0
  6
CONTINUOUS
 62
     3
 10
147.308775989
 20
1449.945649587
 30
0.0
 40
15.0
  1
　　　　　　　　　　　　　　　　　　１　　２　　　３　　　４　　　５　　　６
 50
0.0
 41
0.911
 51
0.0
  7
KANJI39
  0
LINE
  8
0
  6
CONTINUOUS
 62
     2
 10
301.446451035
 20
1468.928121884
 30
0.0
 11
460.899218324
 21
1468.928121884
 31
0.0
  0
LINE
  8
0
  6
CONTINUOUS
 62
     2
 10
301.446451035
 20
1446.149155128
 30
0.0
 11
460.899218324
 21
1446.149155128
 31
0.0
  0
TEXT
  8
0
  6
CONTINUOUS
 62
     6
 10
293.132791539
 20
1556.92382165
 30
0.0
 40
17.740702234
  1
推力リミッタ端子台配列
 50
0.0
 41
0.880962996
 51
0.0
  7
KANJI37
  0
TEXT
  8
0
  6
CONTINUOUS
 62
     6
 10
395.013715102
 20
1614.071931782
 30
0.0
 40
11.8638
  1
ＡＣ１００Ｖ　１２５Ｖ　２５０Ｖ　－１０Ａ
 50
0.0
 41
0.726495726
 51
0.0
  7
KANJI35
  0
LINE
  8
0
  6
CONTINUOUS
 62
     2
 10
1099.14
 20
944.83
 30
0.0
 11
1087.065927171
 21
948.065238064
 31
0.0
  0
LINE
  8
0
  6
CONTINUOUS
 62
     2
 10
1099.14
 20
944.83
 30
0.0
 11
1087.065927171
 21
941.594761936
 31
0.0
  0
LINE
  8
0
  6
CONTINUOUS
 62
     2
 10
1099.14
 20
944.83
 30
0.0
 11
1058.14
 21
944.83
 31
0.0
  0
TEXT
  8
0
  6
CONTINUOUS
 62
     3
 10
1065.14
 20
954.83
 30
0.0
 40
20.0
  1
前進
 50
0.0
 41
0.925
 51
0.0
  7
KANJI26
  0
LINE
  8
0
  6
CONTINUOUS
 62
     1
 10
1014.12
 20
1511.24
 30
0.0
 11
1791.72
 21
1511.24
 31
0.0
  0
LINE
  8
0
  6
CONTINUOUS
 62
     1
 10
1014.12
 20
1477.64
 30
0.0
 11
1791.72
 21
1477.64
 31
0.0
  0
TEXT
  8
0
  6
CONTINUOUS
 62
     2
 10
1062.12
 20
1487.24
 30
1.536
 40
15.36
  1
形
 50
0.0
 41
0.9
 51
0.0
  7
KANJI40
  0
TEXT
  8
0
  6
CONTINUOUS
 62
     2
 10
1155.72
 20
1487.24
 30
1.536
 40
15.36
  1
式
 50
0.0
 41
0.9
 51
0.0
  7
KANJI40
  0
TEXT
  8
0
  6
CONTINUOUS
 62
     2
 10
1228.2
 20
1486.28
 30
1.44
 40
14.4
  1
ストローク
 50
0.0
 41
0.9
 51
0.0
  7
KANJI41
  0
TEXT
  8
0
  6
CONTINUOUS
 62
     2
 10
1320.36
 20
1485.32
 30
0.0
 40
14.4
  1
ｍｉｎ　
 50
0.0
 41
0.9
 51
0.0
  7
KANJI42
  0
TEXT
  8
0
  6
CONTINUOUS
 62
     2
 10
1416.36
 20
1485.32
 30
0.0
 40
14.4
  1
ｍｉｎ　
 50
0.0
 41
0.9
 51
0.0
  7
KANJI42
  0
TEXT
  8
0
  6
CONTINUOUS
 62
     2
 10
1608.36
 20
1485.32
 30
0.0
 40
14.4
  1
ｍｉｎ　
 50
0.0
 41
0.9
 51
0.0
  7
KANJI42
  0
TEXT
  8
0
  6
CONTINUOUS
 62
     2
 10
1369.32
 20
1486.28
 30
1.68
 40
16.8
  1
ＡＬ
 50
0.0
 41
0.9
 51
0.0
  7
KANJI43
  0
TEXT
  8
0
  6
CONTINUOUS
 62
     2
 10
1465.32
 20
1486.28
 30
1.68
 40
16.8
  1
Ｌ
 50
0.0
 41
0.9
 51
0.0
  7
KANJI43
  0
TEXT
  8
0
  6
CONTINUOUS
 62
     2
 10
1546.92
 20
1486.28
 30
1.68
 40
16.8
  1
Ｃ
 50
0.0
 41
0.9
 51
0.0
  7
KANJI43
  0
TEXT
  8
0
  6
CONTINUOUS
 62
     2
 10
1657.32
 20
1486.28
 30
1.68
 40
16.8
  1
Ｐ
 50
0.0
 41
0.9
 51
0.0
  7
KANJI43
  0
TEXT
  8
0
  6
CONTINUOUS
 62
     2
 10
1756.08
 20
1485.92
 30
0.0
 40
12.96
  1
（ｋｇ）
 50
0.0
 41
0.740740741
 51
0.0
  7
KANJI44
  0
TEXT
  8
0
  6
CONTINUOUS
 62
     2
 10
1698.48
 20
1485.68
 30
1.44
 40
16.8
  1
概算重量
 50
0.0
 41
0.857142857
 51
0.0
  7
KANJI45
  0
TEXT
  8
0
  6
CONTINUOUS
 62
     2
 10
1237.32
 20
1454.08
 30
1.44
 40
14.4
  1
　２００
 50
0.0
 41
0.9
 51
0.0
  7
KANJI41
  0
TEXT
  8
0
  6
CONTINUOUS
 62
     2
 10
1237.32
 20
1422.48
 30
1.44
 40
14.4
  1
　３００
 50
0.0
 41
0.9
 51
0.0
  7
KANJI41
  0
TEXT
  8
0
  6
CONTINUOUS
 62
     2
 10
1237.32
 20
1390.88
 30
1.44
 40
14.4
  1
　４００
 50
0.0
 41
0.9
 51
0.0
  7
KANJI41
  0
TEXT
  8
0
  6
CONTINUOUS
 62
     2
 10
1237.32
 20
1359.28
 30
1.44
 40
14.4
  1
　５００
 50
0.0
 41
0.9
 51
0.0
  7
KANJI41
  0
TEXT
  8
0
  6
CONTINUOUS
 62
     2
 10
1237.32
 20
1327.68
 30
1.44
 40
14.4
  1
　６００
 50
0.0
 41
0.9
 51
0.0
  7
KANJI41
  0
TEXT
  8
0
  6
CONTINUOUS
 62
     2
 10
1237.32
 20
1296.08
 30
1.44
 40
14.4
  1
　７００
 50
0.0
 41
0.9
 51
0.0
  7
KANJI41
  0
TEXT
  8
0
  6
CONTINUOUS
 62
     2
 10
1237.32
 20
1264.48
 30
1.44
 40
14.4
  1
　８００
 50
0.0
 41
0.9
 51
0.0
  7
KANJI41
  0
TEXT
  8
0
  6
CONTINUOUS
 62
     2
 10
1237.32
 20
1232.88
 30
1.44
 40
14.4
  1
　９００
 50
0.0
 41
0.9
 51
0.0
  7
KANJI41
  0
TEXT
  8
0
  6
CONTINUOUS
 62
     2
 10
1237.32
 20
1201.28
 30
1.44
 40
14.4
  1
１０００
 50
0.0
 41
0.9
 51
0.0
  7
KANJI41
  0
LINE
  8
0
  6
CONTINUOUS
 62
     1
 10
1014.12
 20
1003.64
 30
0.0
 11
1791.72
 21
1003.64
 31
0.0
  0
LINE
  8
0
  6
CONTINUOUS
 62
     1
 10
1791.72
 20
1511.24
 30
0.0
 11
1791.72
 21
1003.64
 31
0.0
  0
LINE
  8
0
  6
CONTINUOUS
 62
     1
 10
1014.12
 20
1511.24
 30
0.0
 11
1014.12
 21
1003.64
 31
0.0
  0
LINE
  8
0
  6
CONTINUOUS
 62
     1
 10
1215.72
 20
1511.24
 30
0.0
 11
1215.72
 21
1003.64
 31
0.0
  0
LINE
  8
0
  6
CONTINUOUS
 62
     2
 10
1311.72
 20
1511.24
 30
0.0
 11
1311.72
 21
1003.64
 31
0.0
  0
LINE
  8
0
  6
CONTINUOUS
 62
     2
 10
1695.72
 20
1511.24
 30
0.0
 11
1695.72
 21
1003.64
 31
0.0
  0
TEXT
  8
0
  6
CONTINUOUS
 62
     2
 10
1237.32
 20
1169.68
 30
1.44
 40
14.4
  1
１１００
 50
0.0
 41
0.9
 51
0.0
  7
KANJI41
  0
TEXT
  8
0
  6
CONTINUOUS
 62
     2
 10
1237.32
 20
1138.08
 30
1.44
 40
14.4
  1
１２００
 50
0.0
 41
0.9
 51
0.0
  7
KANJI41
  0
TEXT
  8
0
  6
CONTINUOUS
 62
     2
 10
1237.32
 20
1106.48
 30
1.44
 40
14.4
  1
１３００
 50
0.0
 41
0.9
 51
0.0
  7
KANJI41
  0
TEXT
  8
0
  6
CONTINUOUS
 62
     2
 10
1237.32
 20
1074.88
 30
1.44
 40
14.4
  1
１４００
 50
0.0
 41
0.9
 51
0.0
  7
KANJI41
  0
TEXT
  8
0
  6
CONTINUOUS
 62
     2
 10
1237.32
 20
1043.28
 30
1.44
 40
14.4
  1
１５００
 50
0.0
 41
0.9
 51
0.0
  7
KANJI41
  0
TEXT
  8
0
  6
CONTINUOUS
 62
     2
 10
1717.32
 20
1454.08
 30
1.44
 40
14.4
  1
１０７
 50
0.0
 41
0.9
 51
0.0
  7
KANJI41
  0
TEXT
  8
0
  6
CONTINUOUS
 62
     2
 10
1717.32
 20
1422.48
 30
1.44
 40
14.4
  1
１０９
 50
0.0
 41
0.9
 51
0.0
  7
KANJI41
  0
TEXT
  8
0
  6
CONTINUOUS
 62
     2
 10
1717.32
 20
1390.88
 30
1.44
 40
14.4
  1
１１３
 50
0.0
 41
0.9
 51
0.0
  7
KANJI41
  0
TEXT
  8
0
  6
CONTINUOUS
 62
     2
 10
1029.72
 20
1453.72
 30
0.96
 40
14.4
  1
ＭＤ４－　　２Ｊ
 50
0.0
 41
0.833333333
 51
0.0
  7
KANJI46
  0
TEXT
  8
0
  6
CONTINUOUS
 62
     2
 10
1029.72
 20
1422.12
 30
0.96
 40
14.4
  1
ＭＤ４－　　３Ｊ
 50
0.0
 41
0.833333333
 51
0.0
  7
KANJI46
  0
TEXT
  8
0
  6
CONTINUOUS
 62
     2
 10
1029.72
 20
1390.52
 30
0.96
 40
14.4
  1
ＭＤ４－　　４Ｊ
 50
0.0
 41
0.833333333
 51
0.0
  7
KANJI46
  0
TEXT
  8
0
  6
CONTINUOUS
 62
     2
 10
1029.72
 20
1358.92
 30
0.96
 40
14.4
  1
ＭＤ４－　　５Ｊ
 50
0.0
 41
0.833333333
 51
0.0
  7
KANJI46
  0
TEXT
  8
0
  6
CONTINUOUS
 62
     2
 10
1029.72
 20
1327.32
 30
0.96
 40
14.4
  1
ＭＤ４－　　６Ｊ
 50
0.0
 41
0.833333333
 51
0.0
  7
KANJI46
  0
TEXT
  8
0
  6
CONTINUOUS
 62
     2
 10
1029.72
 20
1295.72
 30
0.96
 40
14.4
  1
ＭＤ４－　　７Ｊ
 50
0.0
 41
0.833333333
 51
0.0
  7
KANJI46
  0
TEXT
  8
0
  6
CONTINUOUS
 62
     2
 10
1029.72
 20
1264.12
 30
0.96
 40
14.4
  1
ＭＤ４－　　８Ｊ
 50
0.0
 41
0.833333333
 51
0.0
  7
KANJI46
  0
TEXT
  8
0
  6
CONTINUOUS
 62
     2
 10
1029.72
 20
1232.52
 30
0.96
 40
14.4
  1
ＭＤ４－　　９Ｊ
 50
0.0
 41
0.833333333
 51
0.0
  7
KANJI46
  0
TEXT
  8
0
  6
CONTINUOUS
 62
     2
 10
1029.72
 20
1200.92
 30
0.96
 40
14.4
  1
ＭＤ４－　１０Ｊ
 50
0.0
 41
0.833333333
 51
0.0
  7
KANJI46
  0
TEXT
  8
0
  6
CONTINUOUS
 62
     2
 10
1029.72
 20
1169.32
 30
0.96
 40
14.4
  1
ＭＤ４－　１１Ｊ
 50
0.0
 41
0.833333333
 51
0.0
  7
KANJI46
  0
TEXT
  8
0
  6
CONTINUOUS
 62
     2
 10
1029.72
 20
1137.72
 30
0.96
 40
14.4
  1
ＭＤ４－　１２Ｊ
 50
0.0
 41
0.833333333
 51
0.0
  7
KANJI46
  0
TEXT
  8
0
  6
CONTINUOUS
 62
     2
 10
1029.72
 20
1106.12
 30
0.96
 40
14.4
  1
ＭＤ４－　１３Ｊ
 50
0.0
 41
0.833333333
 51
0.0
  7
KANJI46
  0
TEXT
  8
0
  6
CONTINUOUS
 62
     2
 10
1029.72
 20
1074.52
 30
0.96
 40
14.4
  1
ＭＤ４－　１４Ｊ
 50
0.0
 41
0.833333333
 51
0.0
  7
KANJI46
  0
TEXT
  8
0
  6
CONTINUOUS
 62
     2
 10
1029.72
 20
1042.92
 30
0.96
 40
14.4
  1
ＭＤ４－　１５Ｊ
 50
0.0
 41
0.833333333
 51
0.0
  7
KANJI46
  0
TEXT
  8
0
  6
CONTINUOUS
 62
     2
 10
1029.72
 20
1011.32
 30
0.96
 40
14.4
  1
ＭＤ４－　　　Ｊ
 50
0.0
 41
0.833333333
 51
0.0
  7
KANJI46
  0
TEXT
  8
0
  6
CONTINUOUS
 62
     2
 10
1621.32
 20
1454.08
 30
1.44
 40
14.4
  1
　　４５
 50
0.0
 41
0.9
 51
0.0
  7
KANJI41
  0
LINE
  8
0
  6
CONTINUOUS
 62
     2
 10
1014.12
 20
1446.04
 30
0.0
 11
1791.72
 21
1446.04
 31
0.0
  0
TEXT
  8
0
  6
CONTINUOUS
 62
     2
 10
1525.32
 20
1454.08
 30
1.44
 40
14.4
  1
　５１０
 50
0.0
 41
0.9
 51
0.0
  7
KANJI41
  0
TEXT
  8
0
  6
CONTINUOUS
 62
     2
 10
1429.32
 20
1454.08
 30
1.44
 40
14.4
  1
　６２５
 50
0.0
 41
0.9
 51
0.0
  7
KANJI41
  0
TEXT
  8
0
  6
CONTINUOUS
 62
     2
 10
1333.32
 20
1454.08
 30
1.44
 40
14.4
  1
　８５０
 50
0.0
 41
0.9
 51
0.0
  7
KANJI41
  0
TEXT
  8
0
  6
CONTINUOUS
 62
     2
 10
1621.32
 20
1422.48
 30
1.44
 40
14.4
  1
　　４５
 50
0.0
 41
0.9
 51
0.0
  7
KANJI41
  0
LINE
  8
0
  6
CONTINUOUS
 62
     2
 10
1014.12
 20
1414.44
 30
0.0
 11
1791.72
 21
1414.44
 31
0.0
  0
TEXT
  8
0
  6
CONTINUOUS
 62
     2
 10
1525.32
 20
1422.48
 30
1.44
 40
14.4
  1
　６１０
 50
0.0
 41
0.9
 51
0.0
  7
KANJI41
  0
TEXT
  8
0
  6
CONTINUOUS
 62
     2
 10
1429.32
 20
1422.48
 30
1.44
 40
14.4
  1
　７２５
 50
0.0
 41
0.9
 51
0.0
  7
KANJI41
  0
TEXT
  8
0
  6
CONTINUOUS
 62
     2
 10
1333.32
 20
1422.48
 30
1.44
 40
14.4
  1
　９５０
 50
0.0
 41
0.9
 51
0.0
  7
KANJI41
  0
LINE
  8
0
  6
CONTINUOUS
 62
     2
 10
1014.12
 20
1382.84
 30
0.0
 11
1791.72
 21
1382.84
 31
0.0
  0
TEXT
  8
0
  6
CONTINUOUS
 62
     2
 10
1525.32
 20
1390.88
 30
1.44
 40
14.4
  1
　７１０
 50
0.0
 41
0.9
 51
0.0
  7
KANJI41
  0
LINE
  8
0
  6
CONTINUOUS
 62
     2
 10
1014.12
 20
1351.24
 30
0.0
 11
1791.72
 21
1351.24
 31
0.0
  0
TEXT
  8
0
  6
CONTINUOUS
 62
     2
 10
1525.32
 20
1359.28
 30
1.44
 40
14.4
  1
　８１０
 50
0.0
 41
0.9
 51
0.0
  7
KANJI41
  0
LINE
  8
0
  6
CONTINUOUS
 62
     2
 10
1014.12
 20
1319.64
 30
0.0
 11
1791.72
 21
1319.64
 31
0.0
  0
TEXT
  8
0
  6
CONTINUOUS
 62
     2
 10
1525.32
 20
1327.68
 30
1.44
 40
14.4
  1
　９５０
 50
0.0
 41
0.9
 51
0.0
  7
KANJI41
  0
LINE
  8
0
  6
CONTINUOUS
 62
     2
 10
1014.12
 20
1288.04
 30
0.0
 11
1791.72
 21
1288.04
 31
0.0
  0
TEXT
  8
0
  6
CONTINUOUS
 62
     2
 10
1525.32
 20
1296.08
 30
1.44
 40
14.4
  1
１０５０
 50
0.0
 41
0.9
 51
0.0
  7
KANJI41
  0
LINE
  8
0
  6
CONTINUOUS
 62
     2
 10
1014.12
 20
1256.44
 30
0.0
 11
1791.72
 21
1256.44
 31
0.0
  0
TEXT
  8
0
  6
CONTINUOUS
 62
     2
 10
1525.32
 20
1264.48
 30
1.44
 40
14.4
  1
１１５０
 50
0.0
 41
0.9
 51
0.0
  7
KANJI41
  0
LINE
  8
0
  6
CONTINUOUS
 62
     2
 10
1014.12
 20
1224.84
 30
0.0
 11
1791.72
 21
1224.84
 31
0.0
  0
TEXT
  8
0
  6
CONTINUOUS
 62
     2
 10
1525.32
 20
1232.88
 30
1.44
 40
14.4
  1
１２５０
 50
0.0
 41
0.9
 51
0.0
  7
KANJI41
  0
TEXT
  8
0
  6
CONTINUOUS
 62
     2
 10
1525.32
 20
1201.28
 30
1.44
 40
14.4
  1
１３５０
 50
0.0
 41
0.9
 51
0.0
  7
KANJI41
  0
LINE
  8
0
  6
CONTINUOUS
 62
     2
 10
1014.12
 20
1193.24
 30
0.0
 11
1791.72
 21
1193.24
 31
0.0
  0
LINE
  8
0
  6
CONTINUOUS
 62
     2
 10
1014.12
 20
1161.64
 30
0.0
 11
1791.72
 21
1161.64
 31
0.0
  0
LINE
  8
0
  6
CONTINUOUS
 62
     2
 10
1014.12
 20
1130.04
 30
0.0
 11
1791.72
 21
1130.04
 31
0.0
  0
LINE
  8
0
  6
CONTINUOUS
 62
     2
 10
1014.12
 20
1098.44
 30
0.0
 11
1791.72
 21
1098.44
 31
0.0
  0
LINE
  8
0
  6
CONTINUOUS
 62
     2
 10
1014.12
 20
1066.84
 30
0.0
 11
1791.72
 21
1066.84
 31
0.0
  0
LINE
  8
0
  6
CONTINUOUS
 62
     2
 10
1014.12
 20
1035.24
 30
0.0
 11
1791.72
 21
1035.24
 31
0.0
  0
LINE
  8
0
  6
CONTINUOUS
 62
     2
 10
1407.72
 20
1511.24
 30
0.0
 11
1407.72
 21
1003.64
 31
0.0
  0
LINE
  8
0
  6
CONTINUOUS
 62
     2
 10
1503.72
 20
1511.24
 30
0.0
 11
1503.72
 21
1003.64
 31
0.0
  0
LINE
  8
0
  6
CONTINUOUS
 62
     2
 10
1599.72
 20
1511.24
 30
0.0
 11
1599.72
 21
1003.64
 31
0.0
  0
TEXT
  8
0
  6
CONTINUOUS
 62
     2
 10
1525.32
 20
1169.68
 30
1.44
 40
14.4
  1
１４８０
 50
0.0
 41
0.9
 51
0.0
  7
KANJI41
  0
TEXT
  8
0
  6
CONTINUOUS
 62
     2
 10
1525.32
 20
1138.08
 30
1.44
 40
14.4
  1
１５８０
 50
0.0
 41
0.9
 51
0.0
  7
KANJI41
  0
TEXT
  8
0
  6
CONTINUOUS
 62
     2
 10
1525.32
 20
1106.48
 30
1.44
 40
14.4
  1
１６８０
 50
0.0
 41
0.9
 51
0.0
  7
KANJI41
  0
TEXT
  8
0
  6
CONTINUOUS
 62
     2
 10
1525.32
 20
1074.88
 30
1.44
 40
14.4
  1
１７８０
 50
0.0
 41
0.9
 51
0.0
  7
KANJI41
  0
TEXT
  8
0
  6
CONTINUOUS
 62
     2
 10
1525.32
 20
1043.28
 30
1.44
 40
14.4
  1
１８８０
 50
0.0
 41
0.9
 51
0.0
  7
KANJI41
  0
TEXT
  8
0
  6
CONTINUOUS
 62
     2
 10
1621.32
 20
1390.88
 30
1.44
 40
14.4
  1
　　８５
 50
0.0
 41
0.9
 51
0.0
  7
KANJI41
  0
TEXT
  8
0
  6
CONTINUOUS
 62
     2
 10
1621.32
 20
1359.28
 30
1.44
 40
14.4
  1
　１１２
 50
0.0
 41
0.9
 51
0.0
  7
KANJI41
  0
TEXT
  8
0
  6
CONTINUOUS
 62
     2
 10
1621.32
 20
1327.68
 30
1.44
 40
14.4
  1
　１２８
 50
0.0
 41
0.9
 51
0.0
  7
KANJI41
  0
TEXT
  8
0
  6
CONTINUOUS
 62
     2
 10
1621.32
 20
1296.08
 30
1.44
 40
14.4
  1
　１４８
 50
0.0
 41
0.9
 51
0.0
  7
KANJI41
  0
TEXT
  8
0
  6
CONTINUOUS
 62
     2
 10
1621.32
 20
1264.48
 30
1.44
 40
14.4
  1
　１６８
 50
0.0
 41
0.9
 51
0.0
  7
KANJI41
  0
TEXT
  8
0
  6
CONTINUOUS
 62
     2
 10
1621.32
 20
1232.88
 30
1.44
 40
14.4
  1
　１９８
 50
0.0
 41
0.9
 51
0.0
  7
KANJI41
  0
TEXT
  8
0
  6
CONTINUOUS
 62
     2
 10
1621.32
 20
1201.28
 30
1.44
 40
14.4
  1
　２３１
 50
0.0
 41
0.9
 51
0.0
  7
KANJI41
  0
TEXT
  8
0
  6
CONTINUOUS
 62
     2
 10
1621.32
 20
1169.68
 30
1.44
 40
14.4
  1
　２４５
 50
0.0
 41
0.9
 51
0.0
  7
KANJI41
  0
TEXT
  8
0
  6
CONTINUOUS
 62
     2
 10
1621.32
 20
1138.08
 30
1.44
 40
14.4
  1
　２６８
 50
0.0
 41
0.9
 51
0.0
  7
KANJI41
  0
TEXT
  8
0
  6
CONTINUOUS
 62
     2
 10
1621.32
 20
1106.48
 30
1.44
 40
14.4
  1
　２８８
 50
0.0
 41
0.9
 51
0.0
  7
KANJI41
  0
TEXT
  8
0
  6
CONTINUOUS
 62
     2
 10
1621.32
 20
1074.88
 30
1.44
 40
14.4
  1
　３１０
 50
0.0
 41
0.9
 51
0.0
  7
KANJI41
  0
TEXT
  8
0
  6
CONTINUOUS
 62
     2
 10
1621.32
 20
1043.28
 30
1.44
 40
14.4
  1
　３５０
 50
0.0
 41
0.9
 51
0.0
  7
KANJI41
  0
TEXT
  8
0
  6
CONTINUOUS
 62
     2
 10
1429.32
 20
1390.88
 30
1.44
 40
14.4
  1
　８６５
 50
0.0
 41
0.9
 51
0.0
  7
KANJI41
  0
TEXT
  8
0
  6
CONTINUOUS
 62
     2
 10
1429.32
 20
1359.28
 30
1.44
 40
14.4
  1
　９９２
 50
0.0
 41
0.9
 51
0.0
  7
KANJI41
  0
TEXT
  8
0
  6
CONTINUOUS
 62
     2
 10
1429.32
 20
1327.68
 30
1.44
 40
14.4
  1
１１４８
 50
0.0
 41
0.9
 51
0.0
  7
KANJI41
  0
TEXT
  8
0
  6
CONTINUOUS
 62
     2
 10
1429.32
 20
1296.08
 30
1.44
 40
14.4
  1
１２６８
 50
0.0
 41
0.9
 51
0.0
  7
KANJI41
  0
TEXT
  8
0
  6
CONTINUOUS
 62
     2
 10
1429.32
 20
1264.48
 30
1.44
 40
14.4
  1
１３８８
 50
0.0
 41
0.9
 51
0.0
  7
KANJI41
  0
TEXT
  8
0
  6
CONTINUOUS
 62
     2
 10
1429.32
 20
1232.88
 30
1.44
 40
14.4
  1
１５１８
 50
0.0
 41
0.9
 51
0.0
  7
KANJI41
  0
TEXT
  8
0
  6
CONTINUOUS
 62
     2
 10
1429.32
 20
1201.28
 30
1.44
 40
14.4
  1
１６５１
 50
0.0
 41
0.9
 51
0.0
  7
KANJI41
  0
TEXT
  8
0
  6
CONTINUOUS
 62
     2
 10
1429.32
 20
1169.68
 30
1.44
 40
14.4
  1
１７９５
 50
0.0
 41
0.9
 51
0.0
  7
KANJI41
  0
TEXT
  8
0
  6
CONTINUOUS
 62
     2
 10
1429.32
 20
1138.08
 30
1.44
 40
14.4
  1
１９１９
 50
0.0
 41
0.9
 51
0.0
  7
KANJI41
  0
TEXT
  8
0
  6
CONTINUOUS
 62
     2
 10
1429.32
 20
1106.48
 30
1.44
 40
14.4
  1
２０３８
 50
0.0
 41
0.9
 51
0.0
  7
KANJI41
  0
TEXT
  8
0
  6
CONTINUOUS
 62
     2
 10
1429.32
 20
1074.88
 30
1.44
 40
14.4
  1
２１６０
 50
0.0
 41
0.9
 51
0.0
  7
KANJI41
  0
TEXT
  8
0
  6
CONTINUOUS
 62
     2
 10
1429.32
 20
1043.28
 30
1.44
 40
14.4
  1
２３００
 50
0.0
 41
0.9
 51
0.0
  7
KANJI41
  0
TEXT
  8
0
  6
CONTINUOUS
 62
     2
 10
1333.32
 20
1390.88
 30
1.44
 40
14.4
  1
１０９０
 50
0.0
 41
0.9
 51
0.0
  7
KANJI41
  0
TEXT
  8
0
  6
CONTINUOUS
 62
     2
 10
1333.32
 20
1359.28
 30
1.44
 40
14.4
  1
１２１７
 50
0.0
 41
0.9
 51
0.0
  7
KANJI41
  0
TEXT
  8
0
  6
CONTINUOUS
 62
     2
 10
1333.32
 20
1327.68
 30
1.44
 40
14.4
  1
１３７３
 50
0.0
 41
0.9
 51
0.0
  7
KANJI41
  0
TEXT
  8
0
  6
CONTINUOUS
 62
     2
 10
1333.32
 20
1296.08
 30
1.44
 40
14.4
  1
１４９３
 50
0.0
 41
0.9
 51
0.0
  7
KANJI41
  0
TEXT
  8
0
  6
CONTINUOUS
 62
     2
 10
1333.32
 20
1264.48
 30
1.44
 40
14.4
  1
１６１３
 50
0.0
 41
0.9
 51
0.0
  7
KANJI41
  0
TEXT
  8
0
  6
CONTINUOUS
 62
     2
 10
1333.32
 20
1232.88
 30
1.44
 40
14.4
  1
１７４３
 50
0.0
 41
0.9
 51
0.0
  7
KANJI41
  0
TEXT
  8
0
  6
CONTINUOUS
 62
     2
 10
1333.32
 20
1201.28
 30
1.44
 40
14.4
  1
１８７６
 50
0.0
 41
0.9
 51
0.0
  7
KANJI41
  0
TEXT
  8
0
  6
CONTINUOUS
 62
     2
 10
1333.32
 20
1169.68
 30
1.44
 40
14.4
  1
２０２０
 50
0.0
 41
0.9
 51
0.0
  7
KANJI41
  0
TEXT
  8
0
  6
CONTINUOUS
 62
     2
 10
1333.32
 20
1138.08
 30
1.44
 40
14.4
  1
２１４４
 50
0.0
 41
0.9
 51
0.0
  7
KANJI41
  0
TEXT
  8
0
  6
CONTINUOUS
 62
     2
 10
1333.32
 20
1106.48
 30
1.44
 40
14.4
  1
２２６３
 50
0.0
 41
0.9
 51
0.0
  7
KANJI41
  0
TEXT
  8
0
  6
CONTINUOUS
 62
     2
 10
1333.32
 20
1074.88
 30
1.44
 40
14.4
  1
２３８５
 50
0.0
 41
0.9
 51
0.0
  7
KANJI41
  0
TEXT
  8
0
  6
CONTINUOUS
 62
     2
 10
1333.32
 20
1043.28
 30
1.44
 40
14.4
  1
２５２５
 50
0.0
 41
0.9
 51
0.0
  7
KANJI41
  0
TEXT
  8
0
  6
CONTINUOUS
 62
     2
 10
1717.32
 20
1296.08
 30
1.44
 40
14.4
  1
１２８
 50
0.0
 41
0.9
 51
0.0
  7
KANJI41
  0
TEXT
  8
0
  6
CONTINUOUS
 62
     2
 10
1717.32
 20
1359.28
 30
1.44
 40
14.4
  1
１１８
 50
0.0
 41
0.9
 51
0.0
  7
KANJI41
  0
TEXT
  8
0
  6
CONTINUOUS
 62
     2
 10
1717.32
 20
1327.68
 30
1.44
 40
14.4
  1
１２３
 50
0.0
 41
0.9
 51
0.0
  7
KANJI41
  0
TEXT
  8
0
  6
CONTINUOUS
 62
     2
 10
1717.32
 20
1201.28
 30
1.44
 40
14.4
  1
１４０
 50
0.0
 41
0.9
 51
0.0
  7
KANJI41
  0
TEXT
  8
0
  6
CONTINUOUS
 62
     2
 10
1717.32
 20
1043.28
 30
1.44
 40
14.4
  1
１６１
 50
0.0
 41
0.9
 51
0.0
  7
KANJI41
  0
TEXT
  8
0
  6
CONTINUOUS
 62
     2
 10
1717.32
 20
1264.48
 30
1.44
 40
14.4
  1
１３２
 50
0.0
 41
0.9
 51
0.0
  7
KANJI41
  0
TEXT
  8
0
  6
CONTINUOUS
 62
     2
 10
1717.32
 20
1232.88
 30
1.44
 40
14.4
  1
１３６
 50
0.0
 41
0.9
 51
0.0
  7
KANJI41
  0
TEXT
  8
0
  6
CONTINUOUS
 62
     2
 10
1717.32
 20
1169.68
 30
1.44
 40
14.4
  1
１４４
 50
0.0
 41
0.9
 51
0.0
  7
KANJI41
  0
TEXT
  8
0
  6
CONTINUOUS
 62
     2
 10
1717.32
 20
1138.08
 30
1.44
 40
14.4
  1
１４８
 50
0.0
 41
0.9
 51
0.0
  7
KANJI41
  0
TEXT
  8
0
  6
CONTINUOUS
 62
     2
 10
1717.32
 20
1074.88
 30
1.44
 40
14.4
  1
１５６
 50
0.0
 41
0.9
 51
0.0
  7
KANJI41
  0
TEXT
  8
0
  6
CONTINUOUS
 62
     2
 10
1717.32
 20
1106.48
 30
1.44
 40
14.4
  1
１５２
 50
0.0
 41
0.9
 51
0.0
  7
KANJI41
  0
TEXT
  8
0
  6
CONTINUOUS
 62
     2
 10
1055.133
 20
1533.99
 30
1.617
 40
16.17
  1
注意：サーマルリレー等の選定は、上記の値で選定して下さい。
 50
0.0
 41
0.9
 51
0.0
  7
KANJI47
  0
LINE
  8
0
  6
CONTINUOUS
 62
     2
 10
1045.893
 20
1529.37
 30
0.0
 11
1515.843
 21
1529.37
 31
0.0
  0
TEXT
  8
0
  6
CONTINUOUS
 62
     6
 10
120.294567657
 20
1352.399357623
 30
1.82231734
 40
18.223173404
  1
クイックブレーキモータ
 50
0.0
 41
0.66671875
 51
0.0
  7
KANJI48
  0
CIRCLE
  8
0
  6
CONTINUOUS
 62
     6
 10
164.736
 20
1290.432
 30
0.0
 40
21.6
  0
TEXT
  8
0
  6
CONTINUOUS
 62
     6
 10
155.664
 20
1280.064
 30
2.16
 40
21.6
  1
Ｍ
 50
0.0
 41
0.9
 51
0.0
  7
KANJI49
  0
LINE
  8
0
  6
CONTINUOUS
 62
     6
 10
136.224
 20
1260.192
 30
0.0
 11
149.616
 21
1275.744
 31
0.0
  0
LINE
  8
0
  6
CONTINUOUS
 62
     6
 10
136.224
 20
1320.672
 30
0.0
 11
149.616
 21
1305.12
 31
0.0
  0
CIRCLE
  8
0
  6
CONTINUOUS
 62
     6
 10
111.6
 20
1320.672
 30
0.0
 40
5.184
  0
LINE
  8
0
  6
CONTINUOUS
 62
     6
 10
105.644103884
 20
1314.716103884
 30
0.0
 11
117.740103884
 21
1326.812103884
 31
0.0
  0
CIRCLE
  8
0
  6
CONTINUOUS
 62
     6
 10
111.6
 20
1290.432
 30
0.0
 40
5.184
  0
LINE
  8
0
  6
CONTINUOUS
 62
     6
 10
105.644103884
 20
1284.476103884
 30
0.0
 11
117.740103884
 21
1296.572103884
 31
0.0
  0
CIRCLE
  8
0
  6
CONTINUOUS
 62
     6
 10
111.6
 20
1260.192
 30
0.0
 40
5.184
  0
LINE
  8
0
  6
CONTINUOUS
 62
     6
 10
105.644103884
 20
1254.236103884
 30
0.0
 11
117.740103884
 21
1266.332103884
 31
0.0
  0
LINE
  8
0
  6
CONTINUOUS
 62
     6
 10
136.224
 20
1320.672
 30
0.0
 11
116.784
 21
1320.672
 31
0.0
  0
LINE
  8
0
  6
CONTINUOUS
 62
     6
 10
143.568
 20
1290.432
 30
0.0
 11
116.784
 21
1290.432
 31
0.0
  0
LINE
  8
0
  6
CONTINUOUS
 62
     6
 10
136.224
 20
1260.192
 30
0.0
 11
116.784
 21
1260.192
 31
0.0
  0
LINE
  8
0
  6
LTYPE2
 62
     6
 10
111.6
 20
1344.0
 30
0.0
 11
111.6
 21
1324.56
 31
0.0
  0
LINE
  8
0
  6
LTYPE2
 62
     6
 10
111.6
 20
1315.92
 30
0.0
 11
111.6
 21
1294.32
 31
0.0
  0
LINE
  8
0
  6
LTYPE2
 62
     6
 10
111.6
 20
1285.68
 30
0.0
 11
111.6
 21
1264.512
 31
0.0
  0
TEXT
  8
0
  6
CONTINUOUS
 62
     6
 10
90.816
 20
1328.016
 30
1.296
 40
12.96
  1
Ｕ
 50
0.0
 41
0.9
 51
0.0
  7
KANJI50
  0
TEXT
  8
0
  6
CONTINUOUS
 62
     6
 10
92.112
 20
1297.344
 30
1.296
 40
12.96
  1
Ｖ
 50
0.0
 41
0.9
 51
0.0
  7
KANJI50
  0
TEXT
  8
0
  6
CONTINUOUS
 62
     6
 10
93.408
 20
1266.672
 30
1.296
 40
12.96
  1
Ｗ
 50
0.0
 41
0.9
 51
0.0
  7
KANJI50
  0
LINE
  8
0
  6
LTYPE2
 62
     6
 10
266.16
 20
1344.0
 30
0.0
 11
111.6
 21
1344.0
 31
0.0
  0
TEXT
  8
0
  6
CONTINUOUS
 62
     6
 10
195.84
 20
1280.6472
 30
1.728
 40
17.28
  1
Ｂ
 50
0.0
 41
0.9
 51
0.0
  7
KANJI51
  0
CIRCLE
  8
0
  6
CONTINUOUS
 62
     6
 10
203.616
 20
1290.432
 30
0.0
 40
17.28
  0
LINE
  8
0
  6
CONTINUOUS
 62
     6
 10
231.216
 20
1260.0192
 30
0.0
 11
212.23698443
 21
1275.456118475
 31
0.0
  0
LINE
  8
0
  6
CONTINUOUS
 62
     6
 10
194.631325074
 20
1275.671443897
 30
0.0
 11
175.536
 21
1260.0192
 31
0.0
  0
CIRCLE
  8
0
  6
CONTINUOUS
 62
     6
 10
175.536
 20
1210.9872
 30
0.0
 40
5.184
  0
LINE
  8
0
  6
CONTINUOUS
 62
     6
 10
169.580103884
 20
1205.031303884
 30
0.0
 11
181.676103884
 21
1217.127303884
 31
0.0
  0
CIRCLE
  8
0
  6
CONTINUOUS
 62
     6
 10
203.376
 20
1210.9872
 30
0.0
 40
5.184
  0
LINE
  8
0
  6
CONTINUOUS
 62
     6
 10
197.420103884
 20
1205.031303884
 30
0.0
 11
209.516103884
 21
1217.127303884
 31
0.0
  0
LINE
  8
0
  6
LTYPE2
 62
     6
 10
180.72
 20
1210.9872
 30
0.0
 11
198.096
 21
1210.9872
 31
0.0
  0
CIRCLE
  8
0
  6
CONTINUOUS
 62
     6
 10
231.216
 20
1210.9872
 30
0.0
 40
5.184
  0
LINE
  8
0
  6
CONTINUOUS
 62
     6
 10
225.260103884
 20
1205.031303884
 30
0.0
 11
237.356103884
 21
1217.127303884
 31
0.0
  0
LINE
  8
0
  6
LTYPE2
 62
     6
 10
208.176
 20
1210.9872
 30
0.0
 11
226.416
 21
1210.9872
 31
0.0
  0
TEXT
  8
0
  6
CONTINUOUS
 62
     6
 10
188.64
 20
1213.8192
 30
1.296
 40
12.96
  1
ｖ
 50
0.0
 41
0.9
 51
0.0
  7
KANJI50
  0
TEXT
  8
0
  6
CONTINUOUS
 62
     6
 10
216.48
 20
1213.8192
 30
1.296
 40
12.96
  1
ｗ
 50
0.0
 41
0.9
 51
0.0
  7
KANJI50
  0
TEXT
  8
0
  6
CONTINUOUS
 62
     6
 10
161.616
 20
1214.6832
 30
1.296
 40
12.96
  1
ｕ
 50
0.0
 41
0.9
 51
0.0
  7
KANJI50
  0
LINE
  8
0
  6
CONTINUOUS
 62
     6
 10
175.536
 20
1216.1712
 30
0.0
 11
175.536
 21
1260.0192
 31
0.0
  0
LINE
  8
0
  6
CONTINUOUS
 62
     6
 10
203.376
 20
1216.1712
 30
0.0
 11
203.376
 21
1273.44
 31
0.0
  0
LINE
  8
0
  6
CONTINUOUS
 62
     6
 10
231.216
 20
1216.1712
 30
0.0
 11
231.216
 21
1260.0192
 31
0.0
  0
LINE
  8
0
  6
LTYPE2
 62
     6
 10
236.976
 20
1210.9872
 30
0.0
 11
266.16
 21
1210.9872
 31
0.0
  0
LINE
  8
0
  6
LTYPE2
 62
     6
 10
266.16
 20
1210.9872
 30
0.0
 11
266.16
 21
1344.0
 31
0.0
  0
LINE
  8
0
  6
LTYPE2
 62
     6
 10
111.6
 20
1210.9872
 30
0.0
 11
170.352
 21
1210.9872
 31
0.0
  0
LINE
  8
0
  6
LTYPE2
 62
     6
 10
111.6
 20
1255.008
 30
0.0
 11
111.6
 21
1210.9872
 31
0.0
  0
TEXT
  8
0
  6
CONTINUOUS
 62
     2
 10
128.014472037
 20
1175.954685773
 30
0.0
 40
18.72
  1
モーター結線図
 50
0.0
 41
0.925
 51
0.0
  7
KANJI52
  0
TEXT
  8
0
  6
CONTINUOUS
 62
     2
 10
420.710009055
 20
756.3499852
 30
0.0
 40
16.8
  1
日本電産
 50
0.0
 41
0.964285714
 51
0.0
  7
KANJI53
  0
TEXT
  8
0
  6
CONTINUOUS
 62
     2
 10
412.510009055
 20
733.9999852
 30
0.0
 40
16.8
  1
クイックブレーキモータ
 50
0.0
 41
0.892857143
 51
0.0
  7
KANJI54
  0
CIRCLE
  8
0
  6
CONTINUOUS
 62
     1
 10
1079.1199996
 20
591.4999852
 30
0.0
 40
28.0
  0
CIRCLE
  8
0
  6
CONTINUOUS
 62
     1
 10
1079.1199996
 20
608.9999852
 30
0.0
 40
2.5
  0
LINE
  8
0
  6
CONTINUOUS
 62
     1
 10
1083.3199996
 20
572.1999852
 30
0.0
 11
1081.3199996
 21
571.8999852
 31
0.0
  0
LINE
  8
0
  6
CONTINUOUS
 62
     1
 10
1081.055384215
 20
575.030754431
 30
0.0
 11
1083.3199996
 21
572.1999852
 31
0.0
  0
LINE
  8
0
  6
CONTINUOUS
 62
     1
 10
1079.1199996
 20
574.5999852
 30
0.0
 11
1081.3199996
 21
571.8999852
 31
0.0
  0
LINE
  8
0
  6
CONTINUOUS
 62
     1
 10
1080.8199996
 20
576.5999852
 30
0.0
 11
1081.055384215
 21
575.030754431
 31
0.0
  0
LINE
  8
0
  6
CONTINUOUS
 62
     1
 10
1079.1199996
 20
574.5999852
 30
0.0
 11
1076.9199996
 21
571.8999852
 31
0.0
  0
LINE
  8
0
  6
CONTINUOUS
 62
     1
 10
1077.4199996
 20
576.5999852
 30
0.0
 11
1077.184614985
 21
575.030754431
 31
0.0
  0
LINE
  8
0
  6
CONTINUOUS
 62
     1
 10
1074.9199996
 20
572.1999852
 30
0.0
 11
1076.9199996
 21
571.8999852
 31
0.0
  0
LINE
  8
0
  6
CONTINUOUS
 62
     1
 10
1077.184614985
 20
575.030754431
 30
0.0
 11
1074.9199996
 21
572.1999852
 31
0.0
  0
LINE
  8
0
  6
CONTINUOUS
 62
     1
 10
920.1199996
 20
534.4999852
 30
0.0
 11
597.5199996
 21
534.4999852
 31
0.0
  0
LINE
  8
0
  6
CONTINUOUS
 62
     1
 10
920.1199996
 20
534.4999852
 30
0.0
 11
920.1199996
 21
591.4999852
 31
0.0
  0
LINE
  8
0
  6
CONTINUOUS
 62
     1
 10
1009.1199996
 20
553.9999852
 30
0.0
 11
920.1199996
 21
553.9999852
 31
0.0
  0
TEXT
  8
0
  6
CONTINUOUS
 62
     2
 10
1648.5200334
 20
126.899994
 30
1.8
 40
21.0
  1
０７．１０．０５
 50
0.0
 41
0.571428571
 51
0.0
  7
KANJI55
  0
LINE
  8
0
  6
CONTINUOUS
 62
     2
 10
1873.92
 20
896.7
 30
0.0
 11
2398.92
 21
896.7
 31
0.0
  0
LINE
  8
0
  6
CONTINUOUS
 62
     2
 10
1873.92
 20
854.7
 30
0.0
 11
2398.92
 21
854.7
 31
0.0
  0
LINE
  8
0
  6
CONTINUOUS
 62
     2
 10
1921.92
 20
1232.7
 30
0.0
 11
1921.92
 21
896.7
 31
0.0
  0
TEXT
  8
0
  6
CONTINUOUS
 62
     2
 10
1906.92
 20
865.5
 30
79.962857143
 40
22.8
  1
付属品
 50
0.0
 41
0.9
 51
0.0
  7
KANJI56
  0
TEXT
  8
0
  6
CONTINUOUS
 62
     2
 10
1906.92
 20
823.5
 30
180.445714286
 40
22.8
  1
台数
 50
0.0
 41
0.9
 51
0.0
  7
KANJI57
  0
LINE
  8
0
  6
CONTINUOUS
 62
     1
 10
1873.92
 20
1628.7
 30
0.0
 11
2398.92
 21
1628.7
 31
0.0
  0
TEXT
  8
0
  6
CONTINUOUS
 62
     2
 10
1948.92
 20
1584.9
 30
17.09964
 40
27.0
  1
マイティシリンダ仕様
 50
0.0
 41
0.9
 51
0.0
  7
KANJI58
  0
LINE
  8
0
  6
CONTINUOUS
 62
     2
 10
1921.92
 20
938.7
 30
0.0
 11
2398.92
 21
938.7
 31
0.0
  0
LINE
  8
0
  6
CONTINUOUS
 62
     2
 10
1921.92
 20
1064.7
 30
0.0
 11
2398.92
 21
1064.7
 31
0.0
  0
LINE
  8
0
  6
CONTINUOUS
 62
     2
 10
1921.92
 20
1106.7
 30
0.0
 11
2398.92
 21
1106.7
 31
0.0
  0
LINE
  8
0
  6
CONTINUOUS
 62
     2
 10
1873.92
 20
1316.7
 30
0.0
 11
2398.92
 21
1316.7
 31
0.0
  0
LINE
  8
0
  6
CONTINUOUS
 62
     2
 10
1873.92
 20
1274.7
 30
0.0
 11
2398.92
 21
1274.7
 31
0.0
  0
LINE
  8
0
  6
CONTINUOUS
 62
     2
 10
1873.92
 20
1232.7
 30
0.0
 11
2398.92
 21
1232.7
 31
0.0
  0
LINE
  8
0
  6
CONTINUOUS
 62
     2
 10
1921.92
 20
1148.7
 30
0.0
 11
2398.92
 21
1148.7
 31
0.0
  0
LINE
  8
0
  6
CONTINUOUS
 62
     2
 10
1921.92
 20
1190.7
 30
0.0
 11
2398.92
 21
1190.7
 31
0.0
  0
LINE
  8
0
  6
CONTINUOUS
 62
     2
 10
1873.92
 20
1526.7
 30
0.0
 11
2398.92
 21
1526.7
 31
0.0
  0
LINE
  8
0
  6
CONTINUOUS
 62
     2
 10
1873.92
 20
1484.7
 30
0.0
 11
2398.92
 21
1484.7
 31
0.0
  0
LINE
  8
0
  6
CONTINUOUS
 62
     2
 10
1873.92
 20
1442.7
 30
0.0
 11
2398.92
 21
1442.7
 31
0.0
  0
LINE
  8
0
  6
CONTINUOUS
 62
     2
 10
1873.92
 20
1400.7
 30
0.0
 11
2398.92
 21
1400.7
 31
0.0
  0
LINE
  8
0
  6
CONTINUOUS
 62
     2
 10
1873.92
 20
1358.7
 30
0.0
 11
2398.92
 21
1358.7
 31
0.0
  0
LINE
  8
0
  6
CONTINUOUS
 62
     2
 10
1873.92
 20
1568.7
 30
0.0
 11
2398.92
 21
1568.7
 31
0.0
  0
TEXT
  8
0
  6
CONTINUOUS
 62
     2
 10
1948.92
 20
1159.5
 30
33.439782857
 40
22.8
  1
電源電圧
 50
0.0
 41
0.9
 51
0.0
  7
KANJI59
  0
TEXT
  8
0
  6
CONTINUOUS
 62
     2
 10
1948.92
 20
1117.5
 30
60.42
 40
22.8
  1
周波数
 50
0.0
 41
0.9
 51
0.0
  7
KANJI60
  0
TEXT
  8
0
  6
CONTINUOUS
 62
     2
 10
1948.92
 20
1075.5
 30
141.36
 40
22.8
  1
電流
 50
0.0
 41
0.9
 51
0.0
  7
KANJI61
  0
TEXT
  8
0
  6
CONTINUOUS
 62
     2
 10
1948.92
 20
1033.5
 30
60.42
 40
22.8
  1
絶縁級
 50
0.0
 41
0.9
 51
0.0
  7
KANJI60
  0
TEXT
  8
0
  6
CONTINUOUS
 62
     2
 10
1906.92
 20
1537.5
 30
180.445714286
 40
22.8
  1
形式
 50
0.0
 41
0.9
 51
0.0
  7
KANJI57
  0
TEXT
  8
0
  6
CONTINUOUS
 62
     2
 10
1906.92
 20
1495.5
 30
180.445714286
 40
22.8
  1
推力
 50
0.0
 41
0.9
 51
0.0
  7
KANJI57
  0
TEXT
  8
0
  6
CONTINUOUS
 62
     2
 10
1906.92
 20
1453.5
 30
29.721428571
 40
22.8
  1
ストローク
 50
0.0
 41
0.9
 51
0.0
  7
KANJI62
  0
TEXT
  8
0
  6
CONTINUOUS
 62
     2
 10
1906.92
 20
1327.5
 30
180.445714286
 40
22.8
  1
構造
 50
0.0
 41
0.9
 51
0.0
  7
KANJI57
  0
TEXT
  8
0
  6
CONTINUOUS
 62
     2
 10
1906.92
 20
1285.5
 30
12.973851429
 40
22.8
  1
過負荷安全装置
 50
0.0
 41
0.9
 51
0.0
  7
KANJI63
  0
TEXT
  8
0
  6
CONTINUOUS
 62
     2
 10
1906.92
 20
1243.5
 30
79.962857143
 40
22.8
  1
塗装色
 50
0.0
 41
0.9
 51
0.0
  7
KANJI56
  0
TEXT
  8
0
  6
CONTINUOUS
 62
     2
 10
1882.92
 20
1369.5
 30
1.954285714
 40
22.8
  1
ピストンロッド回転トルク
 50
0.0
 41
0.9
 51
0.0
  7
KANJI64
  0
LINE
  8
0
  6
CONTINUOUS
 62
     2
 10
1873.92
 20
1022.7
 30
0.0
 11
2398.92
 21
1022.7
 31
0.0
  0
LINE
  8
0
  6
CONTINUOUS
 62
     2
 10
1921.92
 20
980.7
 30
0.0
 11
2398.92
 21
980.7
 31
0.0
  0
TEXT
  8
0
  6
CONTINUOUS
 62
     2
 10
1898.37
 20
1226.7
 30
13.2
 40
21.0
  1
モ　トル仕様
 50
0.0
 41
0.9
 51
0.0
  7
KANJI65
  0
TEXT
  8
0
  6
CONTINUOUS
 62
     2
 10
1898.37
 20
1004.7
 30
1.2
 40
21.0
  1
ブレ　キ
 50
0.0
 41
0.9
 51
0.0
  7
KANJI66
  0
LINE
  8
0
  6
CONTINUOUS
 62
     2
 10
1896.72
 20
954.9
 30
0.0
 11
1896.72
 21
942.3
 31
0.0
  0
TEXT
  8
0
  6
CONTINUOUS
 62
     2
 10
2208.42
 20
1286.7
 30
9.0
 40
21.0
  1
推力リミッタ
 50
0.0
 41
0.9
 51
0.0
  7
KANJI67
  0
TEXT
  8
0
  6
CONTINUOUS
 62
     2
 10
2265.42
 20
1034.7
 30
1.8
 40
18.0
  1
Ｅ
 50
0.0
 41
0.9
 51
0.0
  7
KANJI68
  0
TEXT
  8
0
  6
CONTINUOUS
 62
     2
 10
2221.92
 20
949.5
 30
12.0
 40
21.0
  1
同時切り
 50
0.0
 41
0.9
 51
0.0
  7
KANJI69
  0
TEXT
  8
0
  6
CONTINUOUS
 62
     2
 10
1948.92
 20
991.5
 30
141.36
 40
22.8
  1
形式
 50
0.0
 41
0.9
 51
0.0
  7
KANJI61
  0
TEXT
  8
0
  6
CONTINUOUS
 62
     2
 10
1948.92
 20
949.5
 30
33.439782857
 40
22.8
  1
操作方式
 50
0.0
 41
0.9
 51
0.0
  7
KANJI59
  0
LINE
  8
0
  6
CONTINUOUS
 62
     2
 10
1896.72
 20
1190.1
 30
0.0
 11
1896.72
 21
1176.3
 31
0.0
  0
TEXT
  8
0
  6
CONTINUOUS
 62
     2
 10
1948.92
 20
1201.5
 30
3.0
 40
22.8
  1
出力　相数　極数
 50
0.0
 41
0.9
 51
0.0
  7
KANJI70
  0
TEXT
  8
0
  6
CONTINUOUS
 62
     2
 10
1906.92
 20
1411.5
 30
12.0
 40
22.8
  1
公称速度
 50
0.0
 41
0.9
 51
0.0
  7
KANJI71
  0
TEXT
  8
0
  6
CONTINUOUS
 62
     2
 10
2030.82
 20
1410.3
 30
0.0
 40
21.0
  1
（５０／６０Ｈｚ）
 50
0.0
 41
0.628571429
 51
0.0
  7
KANJI72
  0
TEXT
  8
0
  6
CONTINUOUS
 62
     2
 10
2151.42
 20
991.95
 30
3.3
 40
20.4
  1
スプリング制動式電磁ブレーキ
 50
0.0
 41
0.705882353
 51
0.0
  7
KANJI73
  0
TEXT
  8
0
  6
CONTINUOUS
 62
     2
 10
2370.42
 20
1159.5
 30
0.216
 40
18.0
  1
Ｖ
 50
0.0
 41
0.8
 51
0.0
  7
KANJI74
  0
TEXT
  8
0
  6
CONTINUOUS
 62
     2
 10
2359.62
 20
1117.5
 30
0.216
 40
18.0
  1
Ｈｚ
 50
0.0
 41
0.8
 51
0.0
  7
KANJI74
  0
TEXT
  8
0
  6
CONTINUOUS
 62
     2
 10
2370.42
 20
1075.5
 30
0.216
 40
18.0
  1
Ａ
 50
0.0
 41
0.8
 51
0.0
  7
KANJI74
  0
TEXT
  8
0
  6
CONTINUOUS
 62
     2
 10
2291.52
 20
1202.7
 30
1.8
 40
18.0
  1
３φ
 50
0.0
 41
0.9
 51
0.0
  7
KANJI68
  0
TEXT
  8
0
  6
CONTINUOUS
 62
     2
 10
2351.52
 20
1202.7
 30
1.8
 40
18.0
  1
４Ｐ
 50
0.0
 41
0.9
 51
0.0
  7
KANJI68
  0
TEXT
  8
0
  6
CONTINUOUS
 62
     2
 10
2149.92
 20
1244.7
 30
1.2
 40
19.2
  1
マンセル　７．５ＧＹ　５／４．５
 50
0.0
 41
0.71875
 51
0.0
  7
KANJI75
  0
TEXT
  8
0
  6
CONTINUOUS
 62
     2
 10
2149.92
 20
1160.7
 30
1.8
 40
18.0
  1
　　　　　　　／　　　
 50
0.0
 41
0.9
 51
0.0
  7
KANJI68
  0
TEXT
  8
0
  6
CONTINUOUS
 62
     2
 10
2149.92
 20
1118.7
 30
1.8
 40
18.0
  1
　　　　５０／　６０
 50
0.0
 41
0.9
 51
0.0
  7
KANJI68
  0
TEXT
  8
0
  6
CONTINUOUS
 62
     2
 10
2149.92
 20
1076.7
 30
1.8
 40
18.0
  1
　　　　　　　／　　　
 50
0.0
 41
0.9
 51
0.0
  7
KANJI68
  0
TEXT
  8
0
  6
CONTINUOUS
 62
     2
 10
2354.52
 20
1455.9
 30
0.1536
 40
19.2
  1
ｍｍ
 50
0.0
 41
0.8
 51
0.0
  7
KANJI76
  0
TEXT
  8
0
  6
CONTINUOUS
 62
     2
 10
2315.52
 20
1412.7
 30
0.0
 40
21.0
  1
ｍｍ／ｓｅｃ
 50
0.0
 41
0.571428571
 51
0.0
  7
KANJI77
  0
TEXT
  8
0
  6
CONTINUOUS
 62
     2
 10
2208.42
 20
1328.7
 30
9.0
 40
21.0
  1
全閉屋外形
 50
0.0
 41
0.9
 51
0.0
  7
KANJI67
  0
TEXT
  8
0
  6
CONTINUOUS
 62
     2
 10
2193.72
 20
1496.7
 30
1.8
 40
18.0
  1
３９．２ＫＮ（４ｔｏｎ）
 50
0.0
 41
0.9
 51
0.0
  7
KANJI68
  0
TEXT
  8
0
  6
CONTINUOUS
 62
     2
 10
2152.92
 20
1412.7
 30
1.8
 40
18.0
  1
　１２．５／１５
 50
0.0
 41
0.9
 51
0.0
  7
KANJI68
  0
TEXT
  8
0
  6
CONTINUOUS
 62
     2
 10
2163.42
 20
1536.6
 30
1.2
 40
18.0
  1
ＭＤ４－　Ｊ
 50
0.0
 41
0.833333333
 51
0.0
  7
KANJI78
  0
TEXT
  8
0
  6
CONTINUOUS
 62
     2
 10
2155.92
 20
1202.7
 30
1.8
 40
18.0
  1
　２．０ＫＷ
 50
0.0
 41
0.9
 51
0.0
  7
KANJI68
  0
LINE
  8
0
  6
CONTINUOUS
 62
     1
 10
1873.92
 20
770.7
 30
0.0
 11
2398.92
 21
770.7
 31
0.0
  0
LINE
  8
0
  6
CONTINUOUS
 62
     2
 10
1873.92
 20
812.7
 30
0.0
 11
2398.92
 21
812.7
 31
0.0
  0
TEXT
  8
0
  6
CONTINUOUS
 62
     2
 10
2343.72
 20
782.88
 30
0.0
 40
21.0
  1
ｋｇ
 50
0.0
 41
0.9
 51
0.0
  7
KANJI79
  0
TEXT
  8
0
  6
CONTINUOUS
 62
     2
 10
1905.72
 20
781.5
 30
6.0
 40
21.0
  1
概算重量（１台当り）
 50
0.0
 41
0.857142857
 51
0.0
  7
KANJI80
  0
TEXT
  8
0
  6
CONTINUOUS
 62
     2
 10
2182.92
 20
1370.7
 30
0.0
 40
18.0
  1
１５６Ｎ・ｍ（１６ｋｇ・ｍ）
 50
0.0
 41
0.833333333
 51
0.0
  7
KANJI81
  0
LINE
  8
0
  6
CONTINUOUS
 62
     1
 10
1873.92
 20
1628.7
 30
0.0
 11
1873.92
 21
770.7
 31
0.0
  0
LINE
  8
0
  6
CONTINUOUS
 62
     2
 10
2149.92
 20
1568.7
 30
0.0
 11
2149.92
 21
770.7
 31
0.0
  0
LINE
  8
0
  6
CONTINUOUS
 62
     1
 10
2398.92
 20
1628.7
 30
0.0
 11
2398.92
 21
770.7
 31
0.0
  0
ENDSEC
  0
EOF
