  0
SECTION
  2
HEADER
  9
$ACADVER
  1
AC1009
  9
$DWGCODEPAGE
  3
dos932
  9
$EXTMIN
 10
0.0
 20
0.0
 30
0.0
  9
$EXTMAX
 10
2940.0
 20
2079.0
 30
0.0
  9
$LIMMIN
 10
0.0
 20
0.0
  9
$LIMMAX
 10
2940.0
 20
2079.0
  9
$LTSCALE
 40
1.0
  9
$PDMODE
 70
     0
  0
ENDSEC
  0
SECTION
  2
TABLES
  0
TABLE
  2
VPORT
 70
     1
  0
VPORT
  2
*ACTIVE
 70
     0
 10
0.0
 20
0.0
 11
1.0
 21
1.0
 12
1470.0
 22
1039.5
 13
0.0
 23
0.0
 14
10.0
 24
10.0
 15
10.0
 25
10.0
 16
0.0
 26
0.0
 36
1.0
 17
0.0
 27
0.0
 37
0.0
 40
2940.0
 41
1.414141414
 42
50.0
 43
0.0
 44
0.0
 50
0.0
 51
0.0
 71
     0
 72
  1000
 73
     1
 74
     3
 75
     0
 76
     0
 77
     0
 78
     0
  0
ENDTAB
  0
TABLE
  2
LTYPE
 70
     7
  0
LTYPE
  2
CONTINUOUS
 70
    64
  3
Solid line
 72
    65
 73
     0
 40
0.0
  0
LTYPE
  2
LTYPE1
 70
    64
  3
HIDDEN
 72
    65
 73
     2
 40
21.0
 49
12.6
 49
-8.4
  0
LTYPE
  2
LTYPE2
 70
    64
  3
CENTER
 72
    65
 73
     4
 40
105.0
 49
73.5
 49
-10.5
 49
10.5
 49
-10.5
  0
LTYPE
  2
LTYPE3
 70
    64
  3
CENTER
 72
    65
 73
     4
 40
70.0
 49
49.0
 49
-7.0
 49
7.0
 49
-7.0
  0
LTYPE
  2
LTYPE4
 70
    64
  3
CENTER
 72
    65
 73
     4
 40
140.0
 49
98.0
 49
-14.0
 49
14.0
 49
-14.0
  0
LTYPE
  2
LTYPE5
 70
    64
  3
PHANTOM
 72
    65
 73
     6
 40
70.0
 49
52.5
 49
-3.5
 49
3.5
 49
-3.5
 49
3.5
 49
-3.5
  0
LTYPE
  2
LTYPE6
 70
    64
  3
CENTER
 72
    65
 73
     4
 40
63.0
 49
44.1
 49
-6.3
 49
6.3
 49
-6.3
  0
ENDTAB
  0
TABLE
  2
LAYER
 70
   128
  0
LAYER
  2
0
 70
     0
 62
     7
  6
CONTINUOUS
  0
LAYER
  2
2
 70
     0
 62
     7
  6
CONTINUOUS
  0
LAYER
  2
3
 70
     0
 62
     7
  6
CONTINUOUS
  0
LAYER
  2
4
 70
     0
 62
     7
  6
CONTINUOUS
  0
LAYER
  2
5
 70
     0
 62
     7
  6
CONTINUOUS
  0
LAYER
  2
6
 70
     0
 62
     7
  6
CONTINUOUS
  0
LAYER
  2
7
 70
     0
 62
     7
  6
CONTINUOUS
  0
LAYER
  2
8
 70
     0
 62
     7
  6
CONTINUOUS
  0
LAYER
  2
9
 70
     0
 62
     7
  6
CONTINUOUS
  0
LAYER
  2
10
 70
     0
 62
     7
  6
CONTINUOUS
  0
LAYER
  2
11
 70
     0
 62
     7
  6
CONTINUOUS
  0
LAYER
  2
12
 70
     0
 62
     7
  6
CONTINUOUS
  0
LAYER
  2
13
 70
     0
 62
     7
  6
CONTINUOUS
  0
LAYER
  2
14
 70
     0
 62
     7
  6
CONTINUOUS
  0
LAYER
  2
15
 70
     0
 62
     7
  6
CONTINUOUS
  0
LAYER
  2
16
 70
     0
 62
     7
  6
CONTINUOUS
  0
LAYER
  2
17
 70
     0
 62
     7
  6
CONTINUOUS
  0
LAYER
  2
18
 70
     0
 62
     7
  6
CONTINUOUS
  0
LAYER
  2
19
 70
     0
 62
     7
  6
CONTINUOUS
  0
LAYER
  2
20
 70
     0
 62
     7
  6
CONTINUOUS
  0
LAYER
  2
21
 70
     0
 62
     7
  6
CONTINUOUS
  0
LAYER
  2
22
 70
     0
 62
     7
  6
CONTINUOUS
  0
LAYER
  2
23
 70
     0
 62
     7
  6
CONTINUOUS
  0
LAYER
  2
24
 70
     0
 62
     7
  6
CONTINUOUS
  0
LAYER
  2
25
 70
     0
 62
     7
  6
CONTINUOUS
  0
LAYER
  2
26
 70
     0
 62
     7
  6
CONTINUOUS
  0
LAYER
  2
27
 70
     0
 62
     7
  6
CONTINUOUS
  0
LAYER
  2
28
 70
     0
 62
     7
  6
CONTINUOUS
  0
LAYER
  2
29
 70
     0
 62
     7
  6
CONTINUOUS
  0
LAYER
  2
30
 70
     0
 62
     7
  6
CONTINUOUS
  0
LAYER
  2
31
 70
     0
 62
     7
  6
CONTINUOUS
  0
LAYER
  2
32
 70
     0
 62
     7
  6
CONTINUOUS
  0
LAYER
  2
33
 70
     0
 62
     7
  6
CONTINUOUS
  0
LAYER
  2
34
 70
     0
 62
     7
  6
CONTINUOUS
  0
LAYER
  2
35
 70
     0
 62
     7
  6
CONTINUOUS
  0
LAYER
  2
36
 70
     0
 62
     7
  6
CONTINUOUS
  0
LAYER
  2
37
 70
     0
 62
     7
  6
CONTINUOUS
  0
LAYER
  2
38
 70
     0
 62
     7
  6
CONTINUOUS
  0
LAYER
  2
39
 70
     0
 62
     7
  6
CONTINUOUS
  0
LAYER
  2
40
 70
     0
 62
     7
  6
CONTINUOUS
  0
LAYER
  2
41
 70
     0
 62
     7
  6
CONTINUOUS
  0
LAYER
  2
42
 70
     0
 62
     7
  6
CONTINUOUS
  0
LAYER
  2
43
 70
     0
 62
     7
  6
CONTINUOUS
  0
LAYER
  2
44
 70
     0
 62
     7
  6
CONTINUOUS
  0
LAYER
  2
45
 70
     0
 62
     7
  6
CONTINUOUS
  0
LAYER
  2
46
 70
     0
 62
     7
  6
CONTINUOUS
  0
LAYER
  2
47
 70
     0
 62
     7
  6
CONTINUOUS
  0
LAYER
  2
48
 70
     0
 62
     7
  6
CONTINUOUS
  0
LAYER
  2
49
 70
     0
 62
     7
  6
CONTINUOUS
  0
LAYER
  2
50
 70
     0
 62
     7
  6
CONTINUOUS
  0
LAYER
  2
51
 70
     0
 62
     7
  6
CONTINUOUS
  0
LAYER
  2
52
 70
     0
 62
     7
  6
CONTINUOUS
  0
LAYER
  2
53
 70
     0
 62
     7
  6
CONTINUOUS
  0
LAYER
  2
54
 70
     0
 62
     7
  6
CONTINUOUS
  0
LAYER
  2
55
 70
     0
 62
     7
  6
CONTINUOUS
  0
LAYER
  2
56
 70
     0
 62
     7
  6
CONTINUOUS
  0
LAYER
  2
57
 70
     0
 62
     7
  6
CONTINUOUS
  0
LAYER
  2
58
 70
     0
 62
     7
  6
CONTINUOUS
  0
LAYER
  2
59
 70
     0
 62
     7
  6
CONTINUOUS
  0
LAYER
  2
60
 70
     0
 62
     7
  6
CONTINUOUS
  0
LAYER
  2
61
 70
     0
 62
     7
  6
CONTINUOUS
  0
LAYER
  2
62
 70
     0
 62
     7
  6
CONTINUOUS
  0
LAYER
  2
63
 70
     0
 62
     7
  6
CONTINUOUS
  0
LAYER
  2
64
 70
     0
 62
     7
  6
CONTINUOUS
  0
LAYER
  2
65
 70
     0
 62
     7
  6
CONTINUOUS
  0
LAYER
  2
66
 70
     0
 62
     7
  6
CONTINUOUS
  0
LAYER
  2
67
 70
     0
 62
     7
  6
CONTINUOUS
  0
LAYER
  2
68
 70
     0
 62
     7
  6
CONTINUOUS
  0
LAYER
  2
69
 70
     0
 62
     7
  6
CONTINUOUS
  0
LAYER
  2
70
 70
     0
 62
     7
  6
CONTINUOUS
  0
LAYER
  2
71
 70
     0
 62
     7
  6
CONTINUOUS
  0
LAYER
  2
72
 70
     0
 62
     7
  6
CONTINUOUS
  0
LAYER
  2
73
 70
     0
 62
     7
  6
CONTINUOUS
  0
LAYER
  2
74
 70
     0
 62
     7
  6
CONTINUOUS
  0
LAYER
  2
75
 70
     0
 62
     7
  6
CONTINUOUS
  0
LAYER
  2
76
 70
     0
 62
     7
  6
CONTINUOUS
  0
LAYER
  2
77
 70
     0
 62
     7
  6
CONTINUOUS
  0
LAYER
  2
78
 70
     0
 62
     7
  6
CONTINUOUS
  0
LAYER
  2
79
 70
     0
 62
     7
  6
CONTINUOUS
  0
LAYER
  2
80
 70
     0
 62
     7
  6
CONTINUOUS
  0
LAYER
  2
81
 70
     0
 62
     7
  6
CONTINUOUS
  0
LAYER
  2
82
 70
     0
 62
     7
  6
CONTINUOUS
  0
LAYER
  2
83
 70
     0
 62
     7
  6
CONTINUOUS
  0
LAYER
  2
84
 70
     0
 62
     7
  6
CONTINUOUS
  0
LAYER
  2
85
 70
     0
 62
     7
  6
CONTINUOUS
  0
LAYER
  2
86
 70
     0
 62
     7
  6
CONTINUOUS
  0
LAYER
  2
87
 70
     0
 62
     7
  6
CONTINUOUS
  0
LAYER
  2
88
 70
     0
 62
     7
  6
CONTINUOUS
  0
LAYER
  2
89
 70
     0
 62
     7
  6
CONTINUOUS
  0
LAYER
  2
90
 70
     0
 62
     7
  6
CONTINUOUS
  0
LAYER
  2
91
 70
     0
 62
     7
  6
CONTINUOUS
  0
LAYER
  2
92
 70
     0
 62
     7
  6
CONTINUOUS
  0
LAYER
  2
93
 70
     0
 62
     7
  6
CONTINUOUS
  0
LAYER
  2
94
 70
     0
 62
     7
  6
CONTINUOUS
  0
LAYER
  2
95
 70
     0
 62
     7
  6
CONTINUOUS
  0
LAYER
  2
96
 70
     0
 62
     7
  6
CONTINUOUS
  0
LAYER
  2
97
 70
     0
 62
     7
  6
CONTINUOUS
  0
LAYER
  2
98
 70
     0
 62
     7
  6
CONTINUOUS
  0
LAYER
  2
99
 70
     0
 62
     7
  6
CONTINUOUS
  0
LAYER
  2
100
 70
     0
 62
     7
  6
CONTINUOUS
  0
LAYER
  2
101
 70
     0
 62
     7
  6
CONTINUOUS
  0
LAYER
  2
102
 70
     0
 62
     7
  6
CONTINUOUS
  0
LAYER
  2
103
 70
     0
 62
     7
  6
CONTINUOUS
  0
LAYER
  2
104
 70
     0
 62
     7
  6
CONTINUOUS
  0
LAYER
  2
105
 70
     0
 62
     7
  6
CONTINUOUS
  0
LAYER
  2
106
 70
     0
 62
     7
  6
CONTINUOUS
  0
LAYER
  2
107
 70
     0
 62
     7
  6
CONTINUOUS
  0
LAYER
  2
108
 70
     0
 62
     7
  6
CONTINUOUS
  0
LAYER
  2
109
 70
     0
 62
     7
  6
CONTINUOUS
  0
LAYER
  2
110
 70
     0
 62
     7
  6
CONTINUOUS
  0
LAYER
  2
111
 70
     0
 62
     7
  6
CONTINUOUS
  0
LAYER
  2
112
 70
     0
 62
     7
  6
CONTINUOUS
  0
LAYER
  2
113
 70
     0
 62
     7
  6
CONTINUOUS
  0
LAYER
  2
114
 70
     0
 62
     7
  6
CONTINUOUS
  0
LAYER
  2
115
 70
     0
 62
     7
  6
CONTINUOUS
  0
LAYER
  2
116
 70
     0
 62
     7
  6
CONTINUOUS
  0
LAYER
  2
117
 70
     0
 62
     7
  6
CONTINUOUS
  0
LAYER
  2
118
 70
     0
 62
     7
  6
CONTINUOUS
  0
LAYER
  2
119
 70
     0
 62
     7
  6
CONTINUOUS
  0
LAYER
  2
120
 70
     0
 62
     7
  6
CONTINUOUS
  0
LAYER
  2
121
 70
     0
 62
     7
  6
CONTINUOUS
  0
LAYER
  2
122
 70
     0
 62
     7
  6
CONTINUOUS
  0
LAYER
  2
123
 70
     0
 62
     7
  6
CONTINUOUS
  0
LAYER
  2
124
 70
     0
 62
     7
  6
CONTINUOUS
  0
LAYER
  2
125
 70
     0
 62
     7
  6
CONTINUOUS
  0
LAYER
  2
126
 70
     0
 62
     7
  6
CONTINUOUS
  0
LAYER
  2
127
 70
     0
 62
     7
  6
CONTINUOUS
  0
LAYER
  2
128
 70
     0
 62
     7
  6
CONTINUOUS
  0
ENDTAB
  0
TABLE
  2
STYLE
 70
    82
  0
STYLE
  2
STANDARD
 70
     0
 40
0.0
 41
1.0
 50
0.0
 71
     0
 42
0.2
  3
txt.shx
  4
extfont.shx
  0
STYLE
  2
KANJI0
 70
     0
 40
18.1999986
 41
0.75
 50
0.0
 71
     0
 42
18.1999986
  3
txt.shx
  4
extfont.shx
  0
STYLE
  2
KANJI1
 70
     0
 40
13.999997056
 41
0.6
 50
0.0
 71
     0
 42
13.999997056
  3
txt.shx
  4
extfont.shx
  0
STYLE
  2
KANJI2
 70
     0
 40
16.799996468
 41
0.9
 50
0.0
 71
     0
 42
16.799996468
  3
txt.shx
  4
extfont.shx
  0
STYLE
  2
KANJI3
 70
     0
 40
20.999995585
 41
0.9
 50
0.0
 71
     0
 42
20.999995585
  3
txt.shx
  4
extfont.shx
  0
STYLE
  2
KANJI4
 70
     0
 40
12.1333324
 41
0.6
 50
0.0
 71
     0
 42
12.1333324
  3
txt.shx
  4
extfont.shx
  0
STYLE
  2
KANJI5
 70
     0
 40
14.55999888
 41
0.6
 50
0.0
 71
     0
 42
14.55999888
  3
txt.shx
  4
extfont.shx
  0
STYLE
  2
KANJI6
 70
     0
 40
21.2333317
 41
0.42031746
 50
0.0
 71
     0
 42
21.2333317
  3
txt.shx
  4
extfont.shx
  0
STYLE
  2
KANJI7
 70
     0
 40
36.3999972
 41
0.9
 50
0.0
 71
     0
 42
36.3999972
  3
txt.shx
  4
extfont.shx
  0
STYLE
  2
KANJI8
 70
     0
 40
25.2
 41
1.111111111
 50
0.0
 71
     0
 42
25.2
  3
txt.shx
  4
extfont.shx
  0
STYLE
  2
KANJI9
 70
     0
 40
12.1333324
 41
0.8
 50
0.0
 71
     0
 42
12.1333324
  3
txt.shx
  4
extfont.shx
  0
STYLE
  2
KANJI10
 70
     0
 40
14.55999888
 41
0.8
 50
0.0
 71
     0
 42
14.55999888
  3
txt.shx
  4
extfont.shx
  0
STYLE
  2
KANJI11
 70
     0
 40
35.0
 41
1.0
 50
0.0
 71
     0
 42
35.0
  3
txt.shx
  4
extfont.shx
  0
STYLE
  2
KANJI12
 70
     0
 40
35.0
 41
1.0
 50
0.0
 71
     0
 42
35.0
  3
txt.shx
  4
extfont.shx
  0
STYLE
  2
KANJI13
 70
     0
 40
35.0
 41
0.8
 50
0.0
 71
     0
 42
35.0
  3
txt.shx
  4
extfont.shx
  0
STYLE
  2
KANJI14
 70
     0
 40
28.0
 41
1.0
 50
0.0
 71
     0
 42
28.0
  3
txt.shx
  4
extfont.shx
  0
STYLE
  2
KANJI15
 70
     0
 40
31.5
 41
0.666666667
 50
0.0
 71
     0
 42
31.5
  3
txt.shx
  4
extfont.shx
  0
STYLE
  2
KANJI16
 70
     0
 40
24.5
 41
0.857142857
 50
0.0
 71
     0
 42
24.5
  3
txt.shx
  4
extfont.shx
  0
STYLE
  2
KANJI17
 70
     0
 40
21.0
 41
0.9
 50
0.0
 71
     0
 42
21.0
  3
txt.shx
  4
extfont.shx
  0
STYLE
  2
KANJI18
 70
     0
 40
15.379
 41
0.85
 50
0.0
 71
     0
 42
15.379
  3
txt.shx
  4
extfont.shx
  0
STYLE
  2
KANJI19
 70
     0
 40
13.6045
 41
0.822608696
 50
0.0
 71
     0
 42
13.6045
  3
txt.shx
  4
extfont.shx
  0
STYLE
  2
KANJI20
 70
     0
 40
13.8411
 41
0.726495726
 50
0.0
 71
     0
 42
13.8411
  3
txt.shx
  4
extfont.shx
  0
STYLE
  2
KANJI21
 70
     4
 40
52.5
 41
0.538166667
 50
0.0
 71
     0
 42
52.5
  3
txt.shx
  4
extfont.shx
  0
STYLE
  2
KANJI22
 70
     0
 40
20.697485939
 41
0.880962996
 50
0.0
 71
     0
 42
20.697485939
  3
txt.shx
  4
extfont.shx
  0
STYLE
  2
KANJI23
 70
     0
 40
13.65
 41
0.8
 50
0.0
 71
     0
 42
13.65
  3
txt.shx
  4
extfont.shx
  0
STYLE
  2
KANJI24
 70
     0
 40
17.5
 41
0.911
 50
0.0
 71
     0
 42
17.5
  3
txt.shx
  4
extfont.shx
  0
STYLE
  2
KANJI25
 70
     0
 40
18.223173404
 41
0.66671875
 50
0.0
 71
     0
 42
18.223173404
  3
txt.shx
  4
extfont.shx
  0
STYLE
  2
KANJI26
 70
     0
 40
21.6
 41
0.9
 50
0.0
 71
     0
 42
21.6
  3
txt.shx
  4
extfont.shx
  0
STYLE
  2
KANJI27
 70
     0
 40
12.96
 41
0.9
 50
0.0
 71
     0
 42
12.96
  3
txt.shx
  4
extfont.shx
  0
STYLE
  2
KANJI28
 70
     0
 40
17.28
 41
0.9
 50
0.0
 71
     0
 42
17.28
  3
txt.shx
  4
extfont.shx
  0
STYLE
  2
KANJI29
 70
     0
 40
18.72
 41
0.925
 50
0.0
 71
     0
 42
18.72
  3
txt.shx
  4
extfont.shx
  0
STYLE
  2
KANJI30
 70
     0
 40
25.2
 41
0.857142857
 50
0.0
 71
     0
 42
25.2
  3
txt.shx
  4
extfont.shx
  0
STYLE
  2
KANJI31
 70
     0
 40
25.2
 41
0.857222222
 50
0.0
 71
     0
 42
25.2
  3
txt.shx
  4
extfont.shx
  0
STYLE
  2
KANJI32
 70
     0
 40
28.0
 41
0.9
 50
0.0
 71
     0
 42
28.0
  3
txt.shx
  4
extfont.shx
  0
STYLE
  2
KANJI33
 70
     0
 40
17.92
 41
0.9
 50
0.0
 71
     0
 42
17.92
  3
txt.shx
  4
extfont.shx
  0
STYLE
  2
KANJI34
 70
     0
 40
16.8
 41
0.9
 50
0.0
 71
     0
 42
16.8
  3
txt.shx
  4
extfont.shx
  0
STYLE
  2
KANJI35
 70
     0
 40
16.8
 41
0.9
 50
0.0
 71
     0
 42
16.8
  3
txt.shx
  4
extfont.shx
  0
STYLE
  2
KANJI36
 70
     0
 40
19.6
 41
0.9
 50
0.0
 71
     0
 42
19.6
  3
txt.shx
  4
extfont.shx
  0
STYLE
  2
KANJI37
 70
     0
 40
15.12
 41
0.740740741
 50
0.0
 71
     0
 42
15.12
  3
txt.shx
  4
extfont.shx
  0
STYLE
  2
KANJI38
 70
     0
 40
19.6
 41
0.857142857
 50
0.0
 71
     0
 42
19.6
  3
txt.shx
  4
extfont.shx
  0
STYLE
  2
KANJI39
 70
     0
 40
17.49993
 41
0.9
 50
0.0
 71
     0
 42
17.49993
  3
txt.shx
  4
extfont.shx
  0
STYLE
  2
KANJI40
 70
     0
 40
15.0
 41
0.9
 50
0.0
 71
     0
 42
15.0
  3
txt.shx
  4
extfont.shx
  0
STYLE
  2
KANJI41
 70
     0
 40
20.0
 41
0.925
 50
0.0
 71
     0
 42
20.0
  3
txt.shx
  4
extfont.shx
  0
STYLE
  2
KANJI42
 70
     0
 40
24.5
 41
0.571428571
 50
0.0
 71
     0
 42
24.5
  3
txt.shx
  4
extfont.shx
  0
STYLE
  2
KANJI43
 70
     0
 40
21.0
 41
0.914285714
 50
0.0
 71
     0
 42
21.0
  3
txt.shx
  4
extfont.shx
  0
STYLE
  2
KANJI44
 70
     0
 40
21.0
 41
0.9
 50
0.0
 71
     0
 42
21.0
  3
txt.shx
  4
extfont.shx
  0
STYLE
  2
KANJI45
 70
     0
 40
21.0
 41
0.9
 50
0.0
 71
     0
 42
21.0
  3
txt.shx
  4
extfont.shx
  0
STYLE
  2
KANJI46
 70
     0
 40
21.0
 41
0.9
 50
0.0
 71
     0
 42
21.0
  3
txt.shx
  4
extfont.shx
  0
STYLE
  2
KANJI47
 70
     0
 40
28.0
 41
0.925
 50
0.0
 71
     0
 42
28.0
  3
txt.shx
  4
extfont.shx
  0
STYLE
  2
KANJI48
 70
     0
 40
16.8
 41
0.833333333
 50
0.0
 71
     0
 42
16.8
  3
txt.shx
  4
extfont.shx
  0
STYLE
  2
KANJI49
 70
     0
 40
14.99994
 41
0.9
 50
0.0
 71
     0
 42
14.99994
  3
txt.shx
  4
extfont.shx
  0
STYLE
  2
KANJI50
 70
     0
 40
24.5
 41
0.793650794
 50
0.0
 71
     0
 42
24.5
  3
txt.shx
  4
extfont.shx
  0
STYLE
  2
KANJI51
 70
     0
 40
35.0
 41
0.8
 50
0.0
 71
     0
 42
35.0
  3
txt.shx
  4
extfont.shx
  0
STYLE
  2
KANJI52
 70
     0
 40
21.0
 41
0.9
 50
0.0
 71
     0
 42
21.0
  3
txt.shx
  4
extfont.shx
  0
STYLE
  2
KANJI53
 70
     0
 40
26.6
 41
0.9
 50
0.0
 71
     0
 42
26.6
  3
txt.shx
  4
extfont.shx
  0
STYLE
  2
KANJI54
 70
     0
 40
26.6
 41
0.9
 50
0.0
 71
     0
 42
26.6
  3
txt.shx
  4
extfont.shx
  0
STYLE
  2
KANJI55
 70
     0
 40
31.5
 41
0.9
 50
0.0
 71
     0
 42
31.5
  3
txt.shx
  4
extfont.shx
  0
STYLE
  2
KANJI56
 70
     0
 40
26.6
 41
0.9
 50
0.0
 71
     0
 42
26.6
  3
txt.shx
  4
extfont.shx
  0
STYLE
  2
KANJI57
 70
     0
 40
26.6
 41
0.9
 50
0.0
 71
     0
 42
26.6
  3
txt.shx
  4
extfont.shx
  0
STYLE
  2
KANJI58
 70
     0
 40
26.6
 41
0.9
 50
0.0
 71
     0
 42
26.6
  3
txt.shx
  4
extfont.shx
  0
STYLE
  2
KANJI59
 70
     0
 40
26.6
 41
0.9
 50
0.0
 71
     0
 42
26.6
  3
txt.shx
  4
extfont.shx
  0
STYLE
  2
KANJI60
 70
     0
 40
26.6
 41
0.9
 50
0.0
 71
     0
 42
26.6
  3
txt.shx
  4
extfont.shx
  0
STYLE
  2
KANJI61
 70
     0
 40
26.6
 41
0.9
 50
0.0
 71
     0
 42
26.6
  3
txt.shx
  4
extfont.shx
  0
STYLE
  2
KANJI62
 70
     4
 40
24.5
 41
0.9
 50
0.0
 71
     0
 42
24.5
  3
txt.shx
  4
extfont.shx
  0
STYLE
  2
KANJI63
 70
     4
 40
24.5
 41
0.9
 50
0.0
 71
     0
 42
24.5
  3
txt.shx
  4
extfont.shx
  0
STYLE
  2
KANJI64
 70
     0
 40
24.5
 41
0.9
 50
0.0
 71
     0
 42
24.5
  3
txt.shx
  4
extfont.shx
  0
STYLE
  2
KANJI65
 70
     0
 40
21.0
 41
0.9
 50
0.0
 71
     0
 42
21.0
  3
txt.shx
  4
extfont.shx
  0
STYLE
  2
KANJI66
 70
     0
 40
26.6
 41
0.9
 50
0.0
 71
     0
 42
26.6
  3
txt.shx
  4
extfont.shx
  0
STYLE
  2
KANJI67
 70
     0
 40
26.6
 41
0.9
 50
0.0
 71
     0
 42
26.6
  3
txt.shx
  4
extfont.shx
  0
STYLE
  2
KANJI68
 70
     0
 40
24.5
 41
0.628571429
 50
0.0
 71
     0
 42
24.5
  3
txt.shx
  4
extfont.shx
  0
STYLE
  2
KANJI69
 70
     0
 40
23.8
 41
0.705882353
 50
0.0
 71
     0
 42
23.8
  3
txt.shx
  4
extfont.shx
  0
STYLE
  2
KANJI70
 70
     0
 40
21.0
 41
0.8
 50
0.0
 71
     0
 42
21.0
  3
txt.shx
  4
extfont.shx
  0
STYLE
  2
KANJI71
 70
     0
 40
22.4
 41
0.71875
 50
0.0
 71
     0
 42
22.4
  3
txt.shx
  4
extfont.shx
  0
STYLE
  2
KANJI72
 70
     0
 40
22.4
 41
0.8
 50
0.0
 71
     0
 42
22.4
  3
txt.shx
  4
extfont.shx
  0
STYLE
  2
KANJI73
 70
     0
 40
24.5
 41
0.571428571
 50
0.0
 71
     0
 42
24.5
  3
txt.shx
  4
extfont.shx
  0
STYLE
  2
KANJI74
 70
     0
 40
21.0
 41
0.833333333
 50
0.0
 71
     0
 42
21.0
  3
txt.shx
  4
extfont.shx
  0
STYLE
  2
KANJI75
 70
     0
 40
21.0
 41
0.9
 50
0.0
 71
     0
 42
21.0
  3
txt.shx
  4
extfont.shx
  0
STYLE
  2
KANJI76
 70
     0
 40
21.0
 41
0.833333333
 50
0.0
 71
     0
 42
21.0
  3
txt.shx
  4
extfont.shx
  0
STYLE
  2
KANJI77
 70
     0
 40
28.0
 41
1.0
 50
0.0
 71
     0
 42
28.0
  3
txt.shx
  4
extfont.shx
  0
STYLE
  2
KANJI78
 70
     0
 40
26.6
 41
0.9
 50
0.0
 71
     0
 42
26.6
  3
txt.shx
  4
extfont.shx
  0
STYLE
  2
KANJI79
 70
     0
 40
20.0
 41
0.925
 50
0.0
 71
     0
 42
20.0
  3
txt.shx
  4
extfont.shx
  0
STYLE
  2
KANJI80
 70
     0
 40
24.5
 41
0.9
 50
0.0
 71
     0
 42
24.5
  3
txt.shx
  4
extfont.shx
  0
ENDTAB
  0
TABLE
  2
VIEW
 70
     0
  0
ENDTAB
  0
ENDSEC
  0
SECTION
  2
BLOCKS
  0
ENDSEC
  0
SECTION
  2
ENTITIES
  0
POLYLINE
  8
0
  6
CONTINUOUS
 62
     6
 66
     1
  0
VERTEX
  8
0
  6
CONTINUOUS
 62
     6
 10
103.16
 20
90.39
 30
0.0
  0
VERTEX
  8
0
  6
CONTINUOUS
 62
     6
 10
103.16
 20
1973.39
 30
0.0
  0
VERTEX
  8
0
  6
CONTINUOUS
 62
     6
 10
2812.16
 20
1973.39
 30
0.0
  0
SEQEND
  0
LINE
  8
0
  6
CONTINUOUS
 62
     6
 10
110.159998528
 20
195.389977923
 30
0.0
 11
565.159902862
 21
195.389977923
 31
0.0
  0
LINE
  8
0
  6
CONTINUOUS
 62
     6
 10
110.159998528
 20
97.389998528
 30
0.0
 11
565.159902862
 21
97.389998528
 31
0.0
  0
LINE
  8
0
  6
CONTINUOUS
 62
     6
 10
110.159998528
 20
97.389998528
 30
0.0
 11
110.159998528
 21
195.389977923
 31
0.0
  0
LINE
  8
0
  6
CONTINUOUS
 62
     6
 10
110.159998528
 20
146.389988226
 30
0.0
 11
565.159902862
 21
146.389988226
 31
0.0
  0
LINE
  8
0
  6
CONTINUOUS
 62
     4
 10
23.4766662
 20
96.4566662
 30
0.0
 11
96.2766606
 21
96.4566662
 31
0.0
  0
LINE
  8
0
  6
CONTINUOUS
 62
     4
 10
23.4766662
 20
132.8566634
 30
0.0
 11
96.2766606
 21
132.8566634
 31
0.0
  0
LINE
  8
0
  6
CONTINUOUS
 62
     4
 10
23.4766662
 20
169.2566606
 30
0.0
 11
96.2766606
 21
169.2566606
 31
0.0
  0
LINE
  8
0
  6
CONTINUOUS
 62
     4
 10
23.4766662
 20
205.6566578
 30
0.0
 11
96.2766606
 21
205.6566578
 31
0.0
  0
LINE
  8
0
  6
CONTINUOUS
 62
     4
 10
23.4766662
 20
242.056655
 30
0.0
 11
96.2766606
 21
242.056655
 31
0.0
  0
LINE
  8
0
  6
CONTINUOUS
 62
     4
 10
23.4766662
 20
278.4566522
 30
0.0
 11
96.2766606
 21
278.4566522
 31
0.0
  0
LINE
  8
0
  6
CONTINUOUS
 62
     4
 10
23.4766662
 20
314.8566494
 30
0.0
 11
96.2766606
 21
314.8566494
 31
0.0
  0
LINE
  8
0
  6
CONTINUOUS
 62
     4
 10
23.4766662
 20
351.2566466
 30
0.0
 11
96.2766606
 21
351.2566466
 31
0.0
  0
LINE
  8
0
  6
CONTINUOUS
 62
     4
 10
23.4766662
 20
387.6566438
 30
0.0
 11
96.2766606
 21
387.6566438
 31
0.0
  0
LINE
  8
0
  6
CONTINUOUS
 62
     4
 10
23.4766662
 20
424.056641
 30
0.0
 11
96.2766606
 21
424.056641
 31
0.0
  0
LINE
  8
0
  6
CONTINUOUS
 62
     4
 10
96.2766606
 20
96.4566662
 30
0.0
 11
96.2766606
 21
424.056641
 31
0.0
  0
LINE
  8
0
  6
CONTINUOUS
 62
     4
 10
59.8766634
 20
96.4566662
 30
0.0
 11
59.8766634
 21
387.6566438
 31
0.0
  0
TEXT
  8
0
  6
CONTINUOUS
 62
     4
 10
35.91333191
 20
107.07333205
 30
1.81999986
 40
18.1999986
  1
計
 50
0.0
 41
0.75
 51
0.0
  7
KANJI0
  0
TEXT
  8
0
  6
CONTINUOUS
 62
     4
 10
35.91333191
 20
180.47999307
 30
1.81999986
 40
18.1999986
  1
設
 50
0.0
 41
0.75
 51
0.0
  7
KANJI0
  0
TEXT
  8
0
  6
CONTINUOUS
 62
     4
 10
35.91333191
 20
216.27332365
 30
1.81999986
 40
18.1999986
  1
管
 50
0.0
 41
0.75
 51
0.0
  7
KANJI0
  0
TEXT
  8
0
  6
CONTINUOUS
 62
     4
 10
35.91333191
 20
252.67332085
 30
1.81999986
 40
18.1999986
  1
製
 50
0.0
 41
0.75
 51
0.0
  7
KANJI0
  0
TEXT
  8
0
  6
CONTINUOUS
 62
     4
 10
35.91333191
 20
289.07331805
 30
1.81999986
 40
18.1999986
  1
資
 50
0.0
 41
0.75
 51
0.0
  7
KANJI0
  0
TEXT
  8
0
  6
CONTINUOUS
 62
     4
 10
35.91333191
 20
325.47331525
 30
1.81999986
 40
18.1999986
  1
営
 50
0.0
 41
0.75
 51
0.0
  7
KANJI0
  0
TEXT
  8
0
  6
CONTINUOUS
 62
     4
 10
35.91333191
 20
361.87331245
 30
1.81999986
 40
18.1999986
  1
客
 50
0.0
 41
0.75
 51
0.0
  7
KANJI0
  0
TEXT
  8
0
  6
CONTINUOUS
 62
     4
 10
35.6099986
 20
399.7899762
 30
1.81999986
 40
18.1999986
  1
出　図
 50
0.0
 41
0.75
 51
0.0
  7
KANJI0
  0
LINE
  8
0
  6
CONTINUOUS
 62
     4
 10
23.4766662
 20
96.4566662
 30
0.0
 11
23.4766662
 21
424.056641
 31
0.0
  0
LINE
  8
0
  6
CONTINUOUS
 62
     6
 10
2812.16
 20
90.39
 30
0.0
 11
103.16
 21
90.39
 31
0.0
  0
TEXT
  8
0
  6
CONTINUOUS
 62
     4
 10
124.159995585
 20
125.389992641
 30
1.399999706
 40
13.999997056
  1
ＰＡＲＴＳ　ＬＩＳＴ
 50
0.0
 41
0.6
 51
0.0
  7
KANJI1
  0
TEXT
  8
0
  6
CONTINUOUS
 62
     4
 10
124.159995585
 20
104.389997056
 30
1.679999647
 40
16.799996468
  1
部品表
 50
0.0
 41
0.9
 51
0.0
  7
KANJI2
  0
TEXT
  8
0
  6
CONTINUOUS
 62
     3
 10
124.159995585
 20
160.389985282
 30
2.099999558
 40
20.999995585
  1
ＰＬ
 50
0.0
 41
0.9
 51
0.0
  7
KANJI3
  0
TEXT
  8
0
  6
CONTINUOUS
 62
     4
 10
439.159929354
 20
125.389992641
 30
1.399999706
 40
13.999997056
  1
Ｎ０．
 50
0.0
 41
0.6
 51
0.0
  7
KANJI1
  0
TEXT
  8
0
  6
CONTINUOUS
 62
     4
 10
439.159929354
 20
104.389997056
 30
1.679999647
 40
16.799996468
  1
項番
 50
0.0
 41
0.9
 51
0.0
  7
KANJI2
  0
LINE
  8
0
  6
CONTINUOUS
 62
     6
 10
565.159902862
 20
97.389998528
 30
0.0
 11
565.159902862
 21
195.389977923
 31
0.0
  0
LINE
  8
0
  6
CONTINUOUS
 62
     6
 10
425.159932297
 20
97.389998528
 30
0.0
 11
425.159932297
 21
195.389977923
 31
0.0
  0
LINE
  8
0
  6
CONTINUOUS
 62
     6
 10
2812.16
 20
1973.39
 30
0.0
 11
2812.16
 21
90.39
 31
0.0
  0
LINE
  8
0
  6
CONTINUOUS
 62
     6
 10
1871.826739
 20
96.4566662
 30
0.0
 11
1871.826739
 21
484.723303
 31
0.0
  0
LINE
  8
0
  6
CONTINUOUS
 62
     6
 10
2806.0933338
 20
96.4566662
 30
0.0
 11
2806.0933338
 21
484.723303
 31
0.0
  0
LINE
  8
0
  6
CONTINUOUS
 62
     4
 10
2093.2600553
 20
96.4566662
 30
0.0
 11
2093.2600553
 21
484.723303
 31
0.0
  0
LINE
  8
0
  6
CONTINUOUS
 62
     4
 10
1871.826739
 20
144.9899958
 30
0.0
 11
2093.2600553
 21
144.9899958
 31
0.0
  0
TEXT
  8
0
  6
CONTINUOUS
 62
     4
 10
1883.9600714
 20
123.7566641
 30
1.21333324
 40
12.1333324
  1
ＳＣＡＬＥ
 50
0.0
 41
0.6
 51
0.0
  7
KANJI4
  0
TEXT
  8
0
  6
CONTINUOUS
 62
     4
 10
1883.9600714
 20
105.5566655
 30
1.455999888
 40
14.55999888
  1
尺度
 50
0.0
 41
0.6
 51
0.0
  7
KANJI5
  0
LINE
  8
0
  6
CONTINUOUS
 62
     6
 10
1392.5601092
 20
144.9899958
 30
0.0
 11
1871.826739
 21
144.9899958
 31
0.0
  0
LINE
  8
0
  6
CONTINUOUS
 62
     6
 10
1392.5601092
 20
96.4566662
 30
0.0
 11
2806.0933338
 21
96.4566662
 31
0.0
  0
TEXT
  8
0
  6
CONTINUOUS
 62
     6
 10
2099.3267215
 20
123.7566641
 30
0.0
 40
21.2333317
  1
ＵＮＩＴＥＣ　ＩＮＤＵＳＴＲＹ　ＣＯ．，ＬＴＤ．
 50
0.0
 41
0.42031746
 51
0.0
  7
KANJI6
  0
TEXT
  8
0
  6
CONTINUOUS
 62
     6
 10
2397.124198593
 20
115.86999804
 30
3.63999972
 40
36.3999972
  1
ユニテック工業株式会社
 50
0.0
 41
0.9
 51
0.0
  7
KANJI7
  0
LINE
  8
0
  6
CONTINUOUS
 62
     6
 10
2348.590868993
 20
128.60999706
 30
0.0
 11
2332.574870225
 21
128.60999706
 31
0.0
  0
LINE
  8
0
  6
CONTINUOUS
 62
     6
 10
2348.590868993
 20
131.521996836
 30
0.0
 11
2332.574870225
 21
131.521996836
 31
0.0
  0
LINE
  8
0
  6
CONTINUOUS
 62
     6
 10
2348.590868993
 20
128.60999706
 30
0.0
 11
2364.606867761
 21
128.60999706
 31
0.0
  0
LINE
  8
0
  6
CONTINUOUS
 62
     6
 10
2348.590868993
 20
131.521996836
 30
0.0
 11
2364.606867761
 21
131.521996836
 31
0.0
  0
LINE
  8
0
  6
CONTINUOUS
 62
     6
 10
2364.606867761
 20
131.521996836
 30
0.0
 11
2364.606867761
 21
128.60999706
 31
0.0
  0
ARC
  8
0
  6
CONTINUOUS
 62
     6
 10
2368.246867481
 20
130.065996948
 30
0.0
 40
14.55999888
 50
185.739170477
 51
90.0
  0
ARC
  8
0
  6
CONTINUOUS
 62
     6
 10
2368.246867481
 20
130.065996948
 30
0.0
 40
17.471998656
 50
184.780191847
 51
90.0
  0
LINE
  8
0
  6
CONTINUOUS
 62
     6
 10
2332.574870225
 20
128.60999706
 30
0.0
 11
2332.574870225
 21
131.521996836
 31
0.0
  0
ARC
  8
0
  6
CONTINUOUS
 62
     6
 10
2328.934870505
 20
130.065996948
 30
0.0
 40
14.55999888
 50
90.0
 51
354.260829523
  0
ARC
  8
0
  6
CONTINUOUS
 62
     6
 10
2328.934870505
 20
130.065996948
 30
0.0
 40
17.471998656
 50
90.0
 51
355.219808153
  0
LINE
  8
0
  6
CONTINUOUS
 62
     6
 10
2346.406869161
 20
147.537995604
 30
0.0
 11
2346.406869161
 21
144.625995828
 31
0.0
  0
LINE
  8
0
  6
CONTINUOUS
 62
     6
 10
2328.934870505
 20
144.625995828
 30
0.0
 11
2346.406869161
 21
144.625995828
 31
0.0
  0
LINE
  8
0
  6
CONTINUOUS
 62
     6
 10
2350.774868825
 20
147.537995604
 30
0.0
 11
2350.774868825
 21
144.625995828
 31
0.0
  0
LINE
  8
0
  6
CONTINUOUS
 62
     6
 10
2368.246867481
 20
144.625995828
 30
0.0
 11
2350.774868825
 21
144.625995828
 31
0.0
  0
TEXT
  8
0
  6
CONTINUOUS
 62
     4
 10
1547.2600973
 20
123.7566641
 30
1.21333324
 40
12.1333324
  1
ＢＹ
 50
0.0
 41
0.6
 51
0.0
  7
KANJI4
  0
TEXT
  8
0
  6
CONTINUOUS
 62
     4
 10
1680.7267537
 20
123.7566641
 30
1.21333324
 40
12.1333324
  1
ＤＥＳＣＲＩＰＴＩＯＮ
 50
0.0
 41
0.6
 51
0.0
  7
KANJI4
  0
TEXT
  8
0
  6
CONTINUOUS
 62
     4
 10
1547.2600973
 20
105.5566655
 30
1.455999888
 40
14.55999888
  1
担当
 50
0.0
 41
0.6
 51
0.0
  7
KANJI5
  0
TEXT
  8
0
  6
CONTINUOUS
 62
     4
 10
1698.9267523
 20
105.5566655
 30
1.455999888
 40
14.55999888
  1
記　　　　事
 50
0.0
 41
0.6
 51
0.0
  7
KANJI5
  0
LINE
  8
0
  6
CONTINUOUS
 62
     4
 10
1418.34344055
 20
135.8899965
 30
0.0
 11
1398.6267754
 21
105.5566655
 31
0.0
  0
TEXT
  8
0
  6
CONTINUOUS
 62
     4
 10
1468.3934367
 20
123.7566641
 30
1.21333324
 40
12.1333324
  1
ＤＡＴＥ
 50
0.0
 41
0.6
 51
0.0
  7
KANJI4
  0
TEXT
  8
0
  6
CONTINUOUS
 62
     4
 10
1477.493436
 20
105.5566655
 30
1.455999888
 40
14.55999888
  1
日付
 50
0.0
 41
0.6
 51
0.0
  7
KANJI5
  0
LINE
  8
0
  6
CONTINUOUS
 62
     4
 10
1398.6267754
 20
105.5566655
 30
0.0
 11
1438.0601057
 21
105.5566655
 31
0.0
  0
LINE
  8
0
  6
CONTINUOUS
 62
     4
 10
1418.34344055
 20
135.8899965
 30
0.0
 11
1438.0601057
 21
105.5566655
 31
0.0
  0
LINE
  8
0
  6
CONTINUOUS
 62
     6
 10
1392.5601092
 20
96.4566662
 30
0.0
 11
1392.5601092
 21
144.9899958
 31
0.0
  0
LINE
  8
0
  6
CONTINUOUS
 62
     4
 10
1444.1267719
 20
96.4566662
 30
0.0
 11
1444.1267719
 21
144.9899958
 31
0.0
  0
LINE
  8
0
  6
CONTINUOUS
 62
     4
 10
1529.0600987
 20
96.4566662
 30
0.0
 11
1529.0600987
 21
144.9899958
 31
0.0
  0
LINE
  8
0
  6
CONTINUOUS
 62
     4
 10
1583.6600945
 20
96.4566662
 30
0.0
 11
1583.6600945
 21
144.9899958
 31
0.0
  0
TEXT
  8
0
  6
CONTINUOUS
 62
     4
 10
1883.9600714
 20
366.4233121
 30
1.21333324
 40
12.1333324
  1
ＣＯＤＥ
 50
0.0
 41
0.6
 51
0.0
  7
KANJI4
  0
LINE
  8
0
  6
CONTINUOUS
 62
     4
 10
1871.826739
 20
387.6566438
 30
0.0
 11
2806.0933338
 21
387.6566438
 31
0.0
  0
TEXT
  8
0
  6
CONTINUOUS
 62
     4
 10
1883.9600714
 20
348.2233135
 30
1.455999888
 40
14.55999888
  1
分類
 50
0.0
 41
0.6
 51
0.0
  7
KANJI5
  0
TEXT
  8
0
  6
CONTINUOUS
 62
     4
 10
1893.41
 20
394.89
 30
7.0
 40
25.2
  1
ご注文主
 50
0.0
 41
1.111111111
 51
0.0
  7
KANJI8
  0
TEXT
  8
0
  6
CONTINUOUS
 62
     4
 10
1883.9600714
 20
220.8233233
 30
1.21333324
 40
12.1333324
  1
ＤＲＡＷＮ
 50
0.0
 41
0.6
 51
0.0
  7
KANJI4
  0
TEXT
  8
0
  6
CONTINUOUS
 62
     4
 10
1883.9600714
 20
269.3566529
 30
1.21333324
 40
12.1333324
  1
ＤＥＳＩＧＮ
 50
0.0
 41
0.6
 51
0.0
  7
KANJI4
  0
TEXT
  8
0
  6
CONTINUOUS
 62
     4
 10
1883.9600714
 20
317.8899825
 30
1.21333324
 40
12.1333324
  1
ＣＨＥＣＫ
 50
0.0
 41
0.6
 51
0.0
  7
KANJI4
  0
LINE
  8
0
  6
CONTINUOUS
 62
     4
 10
1871.826739
 20
290.5899846
 30
0.0
 11
2093.2600553
 21
290.5899846
 31
0.0
  0
LINE
  8
0
  6
CONTINUOUS
 62
     4
 10
1871.826739
 20
242.056655
 30
0.0
 11
2093.2600553
 21
242.056655
 31
0.0
  0
LINE
  8
0
  6
CONTINUOUS
 62
     4
 10
1871.826739
 20
339.1233142
 30
0.0
 11
2093.2600553
 21
339.1233142
 31
0.0
  0
TEXT
  8
0
  6
CONTINUOUS
 62
     4
 10
1883.9600714
 20
251.1566543
 30
1.455999888
 40
14.55999888
  1
設計
 50
0.0
 41
0.6
 51
0.0
  7
KANJI5
  0
TEXT
  8
0
  6
CONTINUOUS
 62
     4
 10
1883.9600714
 20
299.6899839
 30
1.455999888
 40
14.55999888
  1
検図
 50
0.0
 41
0.6
 51
0.0
  7
KANJI5
  0
LINE
  8
0
  6
CONTINUOUS
 62
     4
 10
2111.15672059
 20
339.1233142
 30
0.0
 11
2806.0933338
 21
339.1233142
 31
0.0
  0
LINE
  8
0
  6
CONTINUOUS
 62
     4
 10
2093.2600553
 20
242.056655
 30
0.0
 11
2806.0933338
 21
242.056655
 31
0.0
  0
TEXT
  8
0
  6
CONTINUOUS
 62
     4
 10
2105.3933877
 20
220.8233233
 30
1.21333324
 40
12.1333324
  1
ＤＲＡＷＩＮＧ　ＮＯ．
 50
0.0
 41
0.8
 51
0.0
  7
KANJI9
  0
TEXT
  8
0
  6
CONTINUOUS
 62
     4
 10
2105.3933877
 20
269.3566529
 30
1.21333324
 40
12.1333324
  1
ＭＦＧ　ＮＯ．
 50
0.0
 41
0.8
 51
0.0
  7
KANJI9
  0
TEXT
  8
0
  6
CONTINUOUS
 62
     4
 10
2105.3933877
 20
317.8899825
 30
1.21333324
 40
12.1333324
  1
ＴＹＰＥ
 50
0.0
 41
0.8
 51
0.0
  7
KANJI9
  0
LINE
  8
0
  6
CONTINUOUS
 62
     4
 10
2111.4600539
 20
290.5899846
 30
0.0
 11
2390.5266991
 21
290.5899846
 31
0.0
  0
TEXT
  8
0
  6
CONTINUOUS
 62
     4
 10
2105.3933877
 20
199.5899916
 30
1.455999888
 40
14.55999888
  1
図　面　番　号
 50
0.0
 41
0.8
 51
0.0
  7
KANJI10
  0
TEXT
  8
0
  6
CONTINUOUS
 62
     4
 10
2105.3933877
 20
248.1233212
 30
1.455999888
 40
14.55999888
  1
製番
 50
0.0
 41
0.8
 51
0.0
  7
KANJI10
  0
TEXT
  8
0
  6
CONTINUOUS
 62
     4
 10
2105.3933877
 20
296.6566508
 30
1.455999888
 40
14.55999888
  1
機種
 50
0.0
 41
0.8
 51
0.0
  7
KANJI10
  0
LINE
  8
0
  6
CONTINUOUS
 62
     4
 10
1871.826739
 20
193.5233254
 30
0.0
 11
2093.2600553
 21
193.5233254
 31
0.0
  0
TEXT
  8
0
  6
CONTINUOUS
 62
     4
 10
1883.9600714
 20
172.2899937
 30
1.21333324
 40
12.1333324
  1
ＤＡＴＥ
 50
0.0
 41
0.6
 51
0.0
  7
KANJI4
  0
TEXT
  8
0
  6
CONTINUOUS
 62
     4
 10
1883.9600714
 20
154.0899951
 30
1.455999888
 40
14.55999888
  1
日付
 50
0.0
 41
0.6
 51
0.0
  7
KANJI5
  0
TEXT
  8
0
  6
CONTINUOUS
 62
     4
 10
1883.9600714
 20
202.6233247
 30
1.455999888
 40
14.55999888
  1
作図
 50
0.0
 41
0.6
 51
0.0
  7
KANJI5
  0
LINE
  8
0
  6
CONTINUOUS
 62
     4
 10
2093.2600553
 20
172.2899937
 30
0.0
 11
2806.0933338
 21
172.2899937
 31
0.0
  0
LINE
  8
0
  6
LTYPE1
 62
     4
 10
2602.8600161
 20
181.389993
 30
0.0
 11
2602.8600161
 21
229.9233226
 31
0.0
  0
LINE
  8
0
  6
LTYPE1
 62
     4
 10
2560.3933527
 20
181.389993
 30
0.0
 11
2560.3933527
 21
229.9233226
 31
0.0
  0
LINE
  8
0
  6
LTYPE1
 62
     4
 10
2517.9266893
 20
181.389993
 30
0.0
 11
2517.9266893
 21
229.9233226
 31
0.0
  0
LINE
  8
0
  6
LTYPE1
 62
     4
 10
2475.4600259
 20
181.389993
 30
0.0
 11
2475.4600259
 21
229.9233226
 31
0.0
  0
LINE
  8
0
  6
LTYPE1
 62
     4
 10
2432.9933625
 20
181.389993
 30
0.0
 11
2432.9933625
 21
229.9233226
 31
0.0
  0
LINE
  8
0
  6
LTYPE1
 62
     4
 10
2390.5266991
 20
181.389993
 30
0.0
 11
2390.5266991
 21
229.9233226
 31
0.0
  0
LINE
  8
0
  6
LTYPE1
 62
     4
 10
2348.0600357
 20
181.389993
 30
0.0
 11
2348.0600357
 21
229.9233226
 31
0.0
  0
LINE
  8
0
  6
LTYPE1
 62
     4
 10
2305.5933723
 20
181.389993
 30
0.0
 11
2305.5933723
 21
229.9233226
 31
0.0
  0
LINE
  8
0
  6
LTYPE1
 62
     4
 10
2305.5933723
 20
229.9233226
 30
0.0
 11
2602.8600161
 21
229.9233226
 31
0.0
  0
LINE
  8
0
  6
LTYPE1
 62
     4
 10
2305.5933723
 20
181.389993
 30
0.0
 11
2602.8600161
 21
181.389993
 31
0.0
  0
LINE
  8
0
  6
CONTINUOUS
 62
     4
 10
2627.1266809
 20
207.17332435
 30
0.0
 11
2639.2600133
 21
207.17332435
 31
0.0
  0
LINE
  8
0
  6
CONTINUOUS
 62
     4
 10
2702.9600084
 20
188.97332575
 30
0.0
 11
2660.493345
 21
188.97332575
 31
0.0
  0
LINE
  8
0
  6
CONTINUOUS
 62
     4
 10
2660.493345
 20
188.97332575
 30
0.0
 11
2681.7266767
 21
225.37332295
 31
0.0
  0
LINE
  8
0
  6
CONTINUOUS
 62
     4
 10
2681.7266767
 20
225.37332295
 30
0.0
 11
2702.9600084
 21
188.97332575
 31
0.0
  0
TEXT
  8
0
  6
CONTINUOUS
 62
     4
 10
2408.7266977
 20
317.8899825
 30
1.21333324
 40
12.1333324
  1
ＴＩＴＬＥ
 50
0.0
 41
0.8
 51
0.0
  7
KANJI9
  0
TEXT
  8
0
  6
CONTINUOUS
 62
     4
 10
2408.7266977
 20
296.6566508
 30
1.455999888
 40
14.55999888
  1
名称
 50
0.0
 41
0.8
 51
0.0
  7
KANJI10
  0
TEXT
  8
0
  6
CONTINUOUS
 62
     2
 10
2507.66
 20
251.39
 30
17.5
 40
35.0
  1
外形寸法図
 50
0.0
 41
1.0
 51
0.0
  7
KANJI11
  0
TEXT
  8
0
  6
CONTINUOUS
 62
     2
 10
2465.66
 20
293.39
 30
5.0
 40
35.0
  1
マイティシリンダ
 50
0.0
 41
1.0
 51
0.0
  7
KANJI12
  0
TEXT
  8
0
  6
CONTINUOUS
 62
     2
 10
2268.8433723
 20
188.389993
 30
2.1
 40
35.0
  1
Ａ
 50
0.0
 41
0.8
 51
0.0
  7
KANJI13
  0
CIRCLE
  8
0
  6
CONTINUOUS
 62
     2
 10
2223.3433723
 20
263.639993
 30
0.0
 40
17.5
  0
TEXT
  8
0
  6
CONTINUOUS
 62
     2
 10
2210.2183723
 20
250.514993
 30
2.1
 40
28.0
  1
Ｓ
 50
0.0
 41
1.0
 51
0.0
  7
KANJI14
  0
LINE
  8
0
  6
CONTINUOUS
 62
     6
 10
2346.406869161
 20
147.537995604
 30
0.0
 11
2328.934870505
 21
147.537995604
 31
0.0
  0
LINE
  8
0
  6
CONTINUOUS
 62
     6
 10
2350.774868825
 20
147.537995604
 30
0.0
 11
2368.246867481
 21
147.537995604
 31
0.0
  0
LINE
  8
0
  6
CONTINUOUS
 62
     4
 10
2806.0933338
 20
436.1899734
 30
0.0
 11
2806.0933338
 21
484.723303
 31
0.0
  0
LINE
  8
0
  6
CONTINUOUS
 62
     6
 10
1872.701739
 20
436.1899734
 30
0.0
 11
2806.9683338
 21
436.1899734
 31
0.0
  0
LINE
  8
0
  6
CONTINUOUS
 62
     6
 10
1871.826739
 20
484.723303
 30
0.0
 11
2806.0933338
 21
484.723303
 31
0.0
  0
TEXT
  8
0
  6
CONTINUOUS
 62
     4
 10
1893.41
 20
443.4233296
 30
7.0
 40
25.2
  1
ご用途
 50
0.0
 41
1.111111111
 51
0.0
  7
KANJI8
  0
TEXT
  8
0
  6
CONTINUOUS
 62
     2
 10
2000.16
 20
104.39
 30
2.1
 40
31.5
  1
１／７
 50
0.0
 41
0.666666667
 51
0.0
  7
KANJI15
  0
TEXT
  8
0
  6
CONTINUOUS
 62
     2
 10
1949.9933723
 20
205.889993
 30
7.0
 40
24.5
  1
Ｋ．Ｋ
 50
0.0
 41
0.857142857
 51
0.0
  7
KANJI16
  0
POLYLINE
  8
0
  6
CONTINUOUS
 62
     4
 66
     1
  0
VERTEX
  8
0
  6
CONTINUOUS
 62
     4
 10
1418.34344055
 20
184.4233261
 30
0.0
  0
VERTEX
  8
0
  6
CONTINUOUS
 62
     4
 10
1398.6267754
 20
154.0899951
 30
0.0
  0
VERTEX
  8
0
  6
CONTINUOUS
 62
     4
 10
1438.0601057
 20
154.0899951
 30
0.0
  0
SEQEND
  0
LINE
  8
0
  6
CONTINUOUS
 62
     4
 10
1418.34344055
 20
184.4233261
 30
0.0
 11
1438.0601057
 21
154.0899951
 31
0.0
  0
TEXT
  8
0
  6
CONTINUOUS
 62
     2
 10
1411.3567719
 20
155.7799958
 30
0.0
 40
21.0
  1
１
 50
0.0
 41
0.9
 51
0.0
  7
KANJI17
  0
TEXT
  8
0
  6
CONTINUOUS
 62
     2
 10
1412.8167719
 20
57.6499958
 30
0.0
 40
21.0
  1
変更書直し　９９．０５．２２　かし山
 50
0.0
 41
0.9
 51
0.0
  7
KANJI17
  0
LINE
  8
0
  6
CONTINUOUS
 62
     6
 10
422.487662562
 20
1910.095719798
 30
0.0
 11
151.768754258
 21
1910.095719798
 31
0.0
  0
LINE
  8
0
  6
CONTINUOUS
 62
     3
 10
422.487662562
 20
1878.056136465
 30
0.0
 11
151.768754258
 21
1878.056136465
 31
0.0
  0
LINE
  8
0
  6
CONTINUOUS
 62
     6
 10
422.487662562
 20
1878.056136465
 30
0.0
 11
151.768754258
 21
1878.056136465
 31
0.0
  0
TEXT
  8
0
  6
CONTINUOUS
 62
     6
 10
452.334266
 20
1907.123812516
 30
1.4379365
 40
15.379
  1
電気定格　　　
 50
0.0
 41
0.85
 51
0.0
  7
KANJI18
  0
TEXT
  8
0
  6
CONTINUOUS
 62
     6
 10
156.329103403
 20
1913.826914553
 30
1.24215
 40
13.6045
  1
ＬＳ０１　　　：推力リミッタ（前進時過負荷用）
 50
0.0
 41
0.822608696
 51
0.0
  7
KANJI19
  0
TEXT
  8
0
  6
CONTINUOUS
 62
     6
 10
156.329103403
 20
1881.787331219
 30
1.24215
 40
13.6045
  1
ＬＳ０２　　　：推力リミッタ（後進時過負荷用）
 50
0.0
 41
0.822608696
 51
0.0
  7
KANJI19
  0
TEXT
  8
0
  6
CONTINUOUS
 62
     6
 10
467.269334286
 20
1871.454785032
 30
0.0
 40
13.8411
  1
ＤＣ１２５Ｖ　０．６Ａ　，ＤＣ２５０Ｖ　０．３Ａ　
 50
0.0
 41
0.726495726
 51
0.0
  7
KANJI20
  0
LINE
  8
0
  6
LTYPE2
 62
     6
 10
770.61
 20
1942.123333333
 30
0.0
 11
130.81
 21
1942.123333333
 31
0.0
  0
TEXT
  8
0
  6
CONTINUOUS
 62
     6
 10
461.136654208
 20
1927.845347147
 30
0.0
 40
52.5
  1
｝
 50
0.0
 41
0.538166667
 51
0.0
  7
KANJI21
  0
TEXT
  8
0
  6
CONTINUOUS
 62
     6
 10
379.324923463
 20
1660.984458592
 30
0.0
 40
20.697485939
  1
端子台　接続図
 50
0.0
 41
0.880962996
 51
0.0
  7
KANJI22
  0
LINE
  8
0
  6
LTYPE2
 62
     6
 10
770.61
 20
1639.956666667
 30
0.0
 11
770.61
 21
1942.123333333
 31
0.0
  0
LINE
  8
0
  6
LTYPE2
 62
     6
 10
130.81
 20
1639.956666667
 30
0.0
 11
770.61
 21
1639.956666667
 31
0.0
  0
LINE
  8
0
  6
LTYPE2
 62
     6
 10
130.81
 20
1942.123333333
 30
0.0
 11
130.81
 21
1639.956666667
 31
0.0
  0
LINE
  8
0
  6
CONTINUOUS
 62
     2
 10
420.116935709
 20
1720.489475531
 30
0.0
 11
420.116935709
 21
1693.914014316
 31
0.0
  0
LINE
  8
0
  6
CONTINUOUS
 62
     2
 10
451.121640459
 20
1720.489475531
 30
0.0
 11
451.121640459
 21
1693.914014316
 31
0.0
  0
LINE
  8
0
  6
CONTINUOUS
 62
     2
 10
482.12634521
 20
1720.489475531
 30
0.0
 11
482.12634521
 21
1693.914014316
 31
0.0
  0
LINE
  8
0
  6
CONTINUOUS
 62
     2
 10
513.131049961
 20
1720.489475531
 30
0.0
 11
513.131049961
 21
1693.914014316
 31
0.0
  0
CIRCLE
  8
0
  6
CONTINUOUS
 62
     6
 10
503.891647945
 20
1747.882575103
 30
0.0
 40
4.783583019
  0
LINE
  8
0
  6
CONTINUOUS
 62
     6
 10
499.108064926
 20
1747.882575103
 30
0.0
 11
497.628697585
 21
1747.882575103
 31
0.0
  0
LINE
  8
0
  6
CONTINUOUS
 62
     6
 10
528.337698672
 20
1763.850323199
 30
0.0
 11
523.770817779
 21
1737.792758328
 31
0.0
  0
LINE
  8
0
  6
CONTINUOUS
 62
     6
 10
522.823649607
 20
1764.769331377
 30
0.0
 11
518.256409577
 21
1738.711826362
 31
0.0
  0
LINE
  8
0
  6
CONTINUOUS
 62
     6
 10
523.770817779
 20
1737.792758328
 30
0.0
 11
518.256409577
 21
1738.711826362
 31
0.0
  0
CIRCLE
  8
0
  6
CONTINUOUS
 62
     6
 10
528.633402336
 20
1736.836041724
 30
0.0
 40
4.783583019
  0
LINE
  8
0
  6
CONTINUOUS
 62
     6
 10
528.633402336
 20
1732.052458706
 30
0.0
 11
528.633402336
 21
1720.489475531
 31
0.0
  0
LINE
  8
0
  6
CONTINUOUS
 62
     6
 10
497.628697585
 20
1747.882575103
 30
0.0
 11
497.628697585
 21
1720.489475531
 31
0.0
  0
LINE
  8
0
  6
CONTINUOUS
 62
     6
 10
466.623992835
 20
1720.489475531
 30
0.0
 11
466.623992835
 21
1783.145554589
 31
0.0
  0
LINE
  8
0
  6
CONTINUOUS
 62
     6
 10
373.905582247
 20
1763.850323199
 30
0.0
 11
378.47246314
 21
1737.792758328
 31
0.0
  0
LINE
  8
0
  6
CONTINUOUS
 62
     6
 10
379.419631312
 20
1764.769331377
 30
0.0
 11
383.986871342
 21
1738.711826362
 31
0.0
  0
LINE
  8
0
  6
CONTINUOUS
 62
     6
 10
378.47246314
 20
1737.792758328
 30
0.0
 11
383.986871342
 21
1738.711826362
 31
0.0
  0
CIRCLE
  8
0
  6
CONTINUOUS
 62
     6
 10
373.609878583
 20
1736.836041724
 30
0.0
 40
4.783583019
  0
CIRCLE
  8
0
  6
CONTINUOUS
 62
     6
 10
398.351632974
 20
1747.882575103
 30
0.0
 40
4.783583019
  0
LINE
  8
0
  6
CONTINUOUS
 62
     6
 10
403.135215992
 20
1747.882575103
 30
0.0
 11
404.614583333
 21
1747.882575103
 31
0.0
  0
LINE
  8
0
  6
CONTINUOUS
 62
     6
 10
373.609878583
 20
1732.052458706
 30
0.0
 11
373.609878583
 21
1720.489475531
 31
0.0
  0
LINE
  8
0
  6
CONTINUOUS
 62
     6
 10
404.614583333
 20
1747.882575103
 30
0.0
 11
404.614583333
 21
1720.489475531
 31
0.0
  0
LINE
  8
0
  6
CONTINUOUS
 62
     6
 10
435.619288084
 20
1720.489475531
 30
0.0
 11
435.619288084
 21
1783.145554589
 31
0.0
  0
LINE
  8
0
  6
CONTINUOUS
 62
     2
 10
544.135754711
 20
1720.489475531
 30
0.0
 11
544.135754711
 21
1693.914014316
 31
0.0
  0
LINE
  8
0
  6
CONTINUOUS
 62
     2
 10
358.107526207
 20
1720.489475531
 30
0.0
 11
358.107526207
 21
1693.914014316
 31
0.0
  0
LINE
  8
0
  6
CONTINUOUS
 62
     2
 10
389.112230958
 20
1720.489475531
 30
0.0
 11
389.112230958
 21
1693.914014316
 31
0.0
  0
LINE
  8
0
  6
CONTINUOUS
 62
     6
 10
528.633402336
 20
1783.145554589
 30
0.0
 11
466.623992835
 21
1783.145554589
 31
0.0
  0
CIRCLE
  8
0
  6
CONTINUOUS
 62
     6
 10
528.633402336
 20
1768.744312156
 30
0.0
 40
4.783583019
  0
LINE
  8
0
  6
CONTINUOUS
 62
     6
 10
528.337698672
 20
1763.850323199
 30
0.0
 11
522.823649607
 21
1764.769331377
 31
0.0
  0
LINE
  8
0
  6
CONTINUOUS
 62
     6
 10
528.633402336
 20
1773.527895175
 30
0.0
 11
528.633402336
 21
1783.145554589
 31
0.0
  0
CIRCLE
  8
0
  6
CONTINUOUS
 62
     6
 10
373.609878583
 20
1768.744312156
 30
0.0
 40
4.783583019
  0
LINE
  8
0
  6
CONTINUOUS
 62
     6
 10
373.905582247
 20
1763.850323199
 30
0.0
 11
379.419631312
 21
1764.769331377
 31
0.0
  0
LINE
  8
0
  6
CONTINUOUS
 62
     6
 10
373.609878583
 20
1773.527895175
 30
0.0
 11
373.609878583
 21
1783.145554589
 31
0.0
  0
LINE
  8
0
  6
CONTINUOUS
 62
     6
 10
435.619288084
 20
1783.145554589
 30
0.0
 11
373.609878583
 21
1783.145554589
 31
0.0
  0
TEXT
  8
0
  6
CONTINUOUS
 62
     6
 10
379.166751066
 20
1788.417885485
 30
0.9555
 40
13.65
  1
ＬＳ０１
 50
0.0
 41
0.8
 51
0.0
  7
KANJI23
  0
TEXT
  8
0
  6
CONTINUOUS
 62
     6
 10
475.556965318
 20
1788.417885485
 30
0.9555
 40
13.65
  1
ＬＳ０２
 50
0.0
 41
0.8
 51
0.0
  7
KANJI23
  0
TEXT
  8
0
  6
CONTINUOUS
 62
     3
 10
178.280238654
 20
1698.343257852
 30
0.0
 40
17.5
  1
　　　　　　　　　　　　　　　　　　１　　２　　　３　　　４　　　５　　　６
 50
0.0
 41
0.911
 51
0.0
  7
KANJI24
  0
LINE
  8
0
  6
CONTINUOUS
 62
     2
 10
358.107526207
 20
1720.489475531
 30
0.0
 11
544.135754711
 21
1720.489475531
 31
0.0
  0
LINE
  8
0
  6
CONTINUOUS
 62
     2
 10
358.107526207
 20
1693.914014316
 30
0.0
 11
544.135754711
 21
1693.914014316
 31
0.0
  0
TEXT
  8
0
  6
CONTINUOUS
 62
     6
 10
348.408256796
 20
1823.151125258
 30
0.0
 40
20.697485939
  1
推力リミッタ端子台配列
 50
0.0
 41
0.880962996
 51
0.0
  7
KANJI22
  0
TEXT
  8
0
  6
CONTINUOUS
 62
     6
 10
467.269334286
 20
1889.823920413
 30
0.0
 40
13.8411
  1
ＡＣ１００Ｖ　１２５Ｖ　２５０Ｖ　－１０Ａ
 50
0.0
 41
0.726495726
 51
0.0
  7
KANJI20
  0
TEXT
  8
0
  6
CONTINUOUS
 62
     6
 10
144.484567657
 20
1592.456024289
 30
1.82231734
 40
18.223173404
  1
クイックブレーキモータ
 50
0.0
 41
0.66671875
 51
0.0
  7
KANJI25
  0
CIRCLE
  8
0
  6
CONTINUOUS
 62
     6
 10
188.926
 20
1530.488666667
 30
0.0
 40
21.6
  0
TEXT
  8
0
  6
CONTINUOUS
 62
     6
 10
179.854
 20
1520.120666667
 30
2.16
 40
21.6
  1
Ｍ
 50
0.0
 41
0.9
 51
0.0
  7
KANJI26
  0
LINE
  8
0
  6
CONTINUOUS
 62
     6
 10
160.414
 20
1500.248666667
 30
0.0
 11
173.806
 21
1515.800666667
 31
0.0
  0
LINE
  8
0
  6
CONTINUOUS
 62
     6
 10
160.414
 20
1560.728666667
 30
0.0
 11
173.806
 21
1545.176666667
 31
0.0
  0
CIRCLE
  8
0
  6
CONTINUOUS
 62
     6
 10
135.79
 20
1560.728666667
 30
0.0
 40
5.184
  0
LINE
  8
0
  6
CONTINUOUS
 62
     6
 10
129.834103884
 20
1554.772770551
 30
0.0
 11
141.930103884
 21
1566.868770551
 31
0.0
  0
CIRCLE
  8
0
  6
CONTINUOUS
 62
     6
 10
135.79
 20
1530.488666667
 30
0.0
 40
5.184
  0
LINE
  8
0
  6
CONTINUOUS
 62
     6
 10
129.834103884
 20
1524.532770551
 30
0.0
 11
141.930103884
 21
1536.628770551
 31
0.0
  0
CIRCLE
  8
0
  6
CONTINUOUS
 62
     6
 10
135.79
 20
1500.248666667
 30
0.0
 40
5.184
  0
LINE
  8
0
  6
CONTINUOUS
 62
     6
 10
129.834103884
 20
1494.292770551
 30
0.0
 11
141.930103884
 21
1506.388770551
 31
0.0
  0
LINE
  8
0
  6
CONTINUOUS
 62
     6
 10
160.414
 20
1560.728666667
 30
0.0
 11
140.974
 21
1560.728666667
 31
0.0
  0
LINE
  8
0
  6
CONTINUOUS
 62
     6
 10
167.758
 20
1530.488666667
 30
0.0
 11
140.974
 21
1530.488666667
 31
0.0
  0
LINE
  8
0
  6
CONTINUOUS
 62
     6
 10
160.414
 20
1500.248666667
 30
0.0
 11
140.974
 21
1500.248666667
 31
0.0
  0
LINE
  8
0
  6
LTYPE2
 62
     6
 10
135.79
 20
1584.056666667
 30
0.0
 11
135.79
 21
1564.616666667
 31
0.0
  0
LINE
  8
0
  6
LTYPE2
 62
     6
 10
135.79
 20
1555.976666667
 30
0.0
 11
135.79
 21
1534.376666667
 31
0.0
  0
LINE
  8
0
  6
LTYPE2
 62
     6
 10
135.79
 20
1525.736666667
 30
0.0
 11
135.79
 21
1504.568666667
 31
0.0
  0
TEXT
  8
0
  6
CONTINUOUS
 62
     6
 10
115.006
 20
1568.072666667
 30
1.296
 40
12.96
  1
Ｕ
 50
0.0
 41
0.9
 51
0.0
  7
KANJI27
  0
TEXT
  8
0
  6
CONTINUOUS
 62
     6
 10
116.302
 20
1537.400666667
 30
1.296
 40
12.96
  1
Ｖ
 50
0.0
 41
0.9
 51
0.0
  7
KANJI27
  0
TEXT
  8
0
  6
CONTINUOUS
 62
     6
 10
117.598
 20
1506.728666667
 30
1.296
 40
12.96
  1
Ｗ
 50
0.0
 41
0.9
 51
0.0
  7
KANJI27
  0
LINE
  8
0
  6
LTYPE2
 62
     6
 10
290.35
 20
1584.056666667
 30
0.0
 11
135.79
 21
1584.056666667
 31
0.0
  0
TEXT
  8
0
  6
CONTINUOUS
 62
     6
 10
220.03
 20
1520.703866667
 30
1.728
 40
17.28
  1
Ｂ
 50
0.0
 41
0.9
 51
0.0
  7
KANJI28
  0
CIRCLE
  8
0
  6
CONTINUOUS
 62
     6
 10
227.806
 20
1530.488666667
 30
0.0
 40
17.28
  0
LINE
  8
0
  6
CONTINUOUS
 62
     6
 10
255.406
 20
1500.075866667
 30
0.0
 11
236.42698443
 21
1515.512785142
 31
0.0
  0
LINE
  8
0
  6
CONTINUOUS
 62
     6
 10
218.821325074
 20
1515.728110563
 30
0.0
 11
199.726
 21
1500.075866667
 31
0.0
  0
CIRCLE
  8
0
  6
CONTINUOUS
 62
     6
 10
199.726
 20
1451.043866667
 30
0.0
 40
5.184
  0
LINE
  8
0
  6
CONTINUOUS
 62
     6
 10
193.770103884
 20
1445.087970551
 30
0.0
 11
205.866103884
 21
1457.183970551
 31
0.0
  0
CIRCLE
  8
0
  6
CONTINUOUS
 62
     6
 10
227.566
 20
1451.043866667
 30
0.0
 40
5.184
  0
LINE
  8
0
  6
CONTINUOUS
 62
     6
 10
221.610103884
 20
1445.087970551
 30
0.0
 11
233.706103884
 21
1457.183970551
 31
0.0
  0
LINE
  8
0
  6
LTYPE2
 62
     6
 10
204.91
 20
1451.043866667
 30
0.0
 11
222.286
 21
1451.043866667
 31
0.0
  0
CIRCLE
  8
0
  6
CONTINUOUS
 62
     6
 10
255.406
 20
1451.043866667
 30
0.0
 40
5.184
  0
LINE
  8
0
  6
CONTINUOUS
 62
     6
 10
249.450103884
 20
1445.087970551
 30
0.0
 11
261.546103884
 21
1457.183970551
 31
0.0
  0
LINE
  8
0
  6
LTYPE2
 62
     6
 10
232.366
 20
1451.043866667
 30
0.0
 11
250.606
 21
1451.043866667
 31
0.0
  0
TEXT
  8
0
  6
CONTINUOUS
 62
     6
 10
212.83
 20
1453.875866667
 30
1.296
 40
12.96
  1
ｖ
 50
0.0
 41
0.9
 51
0.0
  7
KANJI27
  0
TEXT
  8
0
  6
CONTINUOUS
 62
     6
 10
240.67
 20
1453.875866667
 30
1.296
 40
12.96
  1
ｗ
 50
0.0
 41
0.9
 51
0.0
  7
KANJI27
  0
TEXT
  8
0
  6
CONTINUOUS
 62
     6
 10
185.806
 20
1454.739866667
 30
1.296
 40
12.96
  1
ｕ
 50
0.0
 41
0.9
 51
0.0
  7
KANJI27
  0
LINE
  8
0
  6
CONTINUOUS
 62
     6
 10
199.726
 20
1456.227866667
 30
0.0
 11
199.726
 21
1500.075866667
 31
0.0
  0
LINE
  8
0
  6
CONTINUOUS
 62
     6
 10
227.566
 20
1456.227866667
 30
0.0
 11
227.566
 21
1513.496666667
 31
0.0
  0
LINE
  8
0
  6
CONTINUOUS
 62
     6
 10
255.406
 20
1456.227866667
 30
0.0
 11
255.406
 21
1500.075866667
 31
0.0
  0
LINE
  8
0
  6
LTYPE2
 62
     6
 10
261.166
 20
1451.043866667
 30
0.0
 11
290.35
 21
1451.043866667
 31
0.0
  0
LINE
  8
0
  6
LTYPE2
 62
     6
 10
290.35
 20
1451.043866667
 30
0.0
 11
290.35
 21
1584.056666667
 31
0.0
  0
LINE
  8
0
  6
LTYPE2
 62
     6
 10
135.79
 20
1451.043866667
 30
0.0
 11
194.542
 21
1451.043866667
 31
0.0
  0
LINE
  8
0
  6
LTYPE2
 62
     6
 10
135.79
 20
1495.064666667
 30
0.0
 11
135.79
 21
1451.043866667
 31
0.0
  0
TEXT
  8
0
  6
CONTINUOUS
 62
     2
 10
152.204472037
 20
1416.01135244
 30
0.0
 40
18.72
  1
モーター結線図
 50
0.0
 41
0.925
 51
0.0
  7
KANJI29
  0
TEXT
  8
0
  6
CONTINUOUS
 62
     2
 10
1993.16
 20
739.29
 30
7.2
 40
25.2
  1
１。運転時は必ずピストンロッドの回転防止を行って下さい。
 50
0.0
 41
0.857142857
 51
0.0
  7
KANJI30
  0
TEXT
  8
0
  6
CONTINUOUS
 62
     2
 10
1993.16
 20
691.69
 30
7.182
 40
25.2
  1
２。モートル：全閉自冷かご形３０分定格
 50
0.0
 41
0.857222222
 51
0.0
  7
KANJI31
  0
TEXT
  8
0
  6
CONTINUOUS
 62
     2
 10
1992.6932281
 20
644.0900042
 30
7.182
 40
25.2
  1
３。呼称ストロークは、機械的ストロークです。
 50
0.0
 41
0.857222222
 51
0.0
  7
KANJI31
  0
TEXT
  8
0
  6
CONTINUOUS
 62
     2
 10
1992.6932281
 20
603.8400042
 30
7.182
 40
25.2
  1
　　必ず、常用はストローク両端に余裕を取って下さい。
 50
0.0
 41
0.857222222
 51
0.0
  7
KANJI31
  0
LINE
  8
0
  6
CONTINUOUS
 62
     2
 10
2071.56
 20
787.59
 30
0.0
 11
2242.36
 21
787.59
 31
0.0
  0
TEXT
  8
0
  6
CONTINUOUS
 62
     2
 10
2091.16
 20
795.29
 30
14.0
 40
28.0
  1
特記事項
 50
0.0
 41
0.9
 51
0.0
  7
KANJI32
  0
LINE
  8
0
  6
CONTINUOUS
 62
     1
 10
1261.835
 20
1761.693573333
 30
0.0
 11
2169.035
 21
1761.693573333
 31
0.0
  0
LINE
  8
0
  6
CONTINUOUS
 62
     1
 10
1261.835
 20
1722.493573333
 30
0.0
 11
2169.035
 21
1722.493573333
 31
0.0
  0
TEXT
  8
0
  6
CONTINUOUS
 62
     2
 10
1317.835
 20
1733.693573333
 30
1.792
 40
17.92
  1
形
 50
0.0
 41
0.9
 51
0.0
  7
KANJI33
  0
TEXT
  8
0
  6
CONTINUOUS
 62
     2
 10
1427.035
 20
1733.693573333
 30
1.792
 40
17.92
  1
式
 50
0.0
 41
0.9
 51
0.0
  7
KANJI33
  0
TEXT
  8
0
  6
CONTINUOUS
 62
     2
 10
1511.595
 20
1732.573573333
 30
1.68
 40
16.8
  1
ストローク
 50
0.0
 41
0.9
 51
0.0
  7
KANJI34
  0
TEXT
  8
0
  6
CONTINUOUS
 62
     2
 10
1619.115
 20
1731.453573333
 30
0.0
 40
16.8
  1
ｍｉｎ　
 50
0.0
 41
0.9
 51
0.0
  7
KANJI35
  0
TEXT
  8
0
  6
CONTINUOUS
 62
     2
 10
1731.115
 20
1731.453573333
 30
0.0
 40
16.8
  1
ｍｉｎ　
 50
0.0
 41
0.9
 51
0.0
  7
KANJI35
  0
TEXT
  8
0
  6
CONTINUOUS
 62
     2
 10
1955.115
 20
1731.453573333
 30
0.0
 40
16.8
  1
ｍｉｎ　
 50
0.0
 41
0.9
 51
0.0
  7
KANJI35
  0
TEXT
  8
0
  6
CONTINUOUS
 62
     2
 10
1676.235
 20
1732.573573333
 30
1.96
 40
19.6
  1
ＡＬ
 50
0.0
 41
0.9
 51
0.0
  7
KANJI36
  0
TEXT
  8
0
  6
CONTINUOUS
 62
     2
 10
1788.235
 20
1732.573573333
 30
1.96
 40
19.6
  1
Ｌ
 50
0.0
 41
0.9
 51
0.0
  7
KANJI36
  0
TEXT
  8
0
  6
CONTINUOUS
 62
     2
 10
1883.435
 20
1732.573573333
 30
1.96
 40
19.6
  1
Ｃ
 50
0.0
 41
0.9
 51
0.0
  7
KANJI36
  0
TEXT
  8
0
  6
CONTINUOUS
 62
     2
 10
2012.235
 20
1732.573573333
 30
1.96
 40
19.6
  1
Ｐ
 50
0.0
 41
0.9
 51
0.0
  7
KANJI36
  0
TEXT
  8
0
  6
CONTINUOUS
 62
     2
 10
2127.455
 20
1732.153573333
 30
0.0
 40
15.12
  1
（ｋｇ）
 50
0.0
 41
0.740740741
 51
0.0
  7
KANJI37
  0
TEXT
  8
0
  6
CONTINUOUS
 62
     2
 10
2060.255
 20
1731.873573333
 30
1.68
 40
19.6
  1
概算重量
 50
0.0
 41
0.857142857
 51
0.0
  7
KANJI38
  0
TEXT
  8
0
  6
CONTINUOUS
 62
     2
 10
1522.235
 20
1695.006906667
 30
1.68
 40
16.8
  1
　２００
 50
0.0
 41
0.9
 51
0.0
  7
KANJI34
  0
TEXT
  8
0
  6
CONTINUOUS
 62
     2
 10
1970.235
 20
1695.006906667
 30
1.68
 40
16.8
  1
　　４５
 50
0.0
 41
0.9
 51
0.0
  7
KANJI34
  0
LINE
  8
0
  6
CONTINUOUS
 62
     2
 10
1261.835
 20
1685.626906667
 30
0.0
 11
2169.035
 21
1685.626906667
 31
0.0
  0
TEXT
  8
0
  6
CONTINUOUS
 62
     2
 10
1858.235
 20
1695.006906667
 30
1.68
 40
16.8
  1
　５１０
 50
0.0
 41
0.9
 51
0.0
  7
KANJI34
  0
TEXT
  8
0
  6
CONTINUOUS
 62
     2
 10
1746.235
 20
1695.006906667
 30
1.68
 40
16.8
  1
　６２５
 50
0.0
 41
0.9
 51
0.0
  7
KANJI34
  0
TEXT
  8
0
  6
CONTINUOUS
 62
     2
 10
1634.235
 20
1695.006906667
 30
1.68
 40
16.8
  1
　８５０
 50
0.0
 41
0.9
 51
0.0
  7
KANJI34
  0
TEXT
  8
0
  6
CONTINUOUS
 62
     2
 10
1522.235
 20
1658.14024
 30
1.68
 40
16.8
  1
　３００
 50
0.0
 41
0.9
 51
0.0
  7
KANJI34
  0
TEXT
  8
0
  6
CONTINUOUS
 62
     2
 10
1970.235
 20
1658.14024
 30
1.68
 40
16.8
  1
　　４５
 50
0.0
 41
0.9
 51
0.0
  7
KANJI34
  0
LINE
  8
0
  6
CONTINUOUS
 62
     2
 10
1261.835
 20
1648.76024
 30
0.0
 11
2169.035
 21
1648.76024
 31
0.0
  0
TEXT
  8
0
  6
CONTINUOUS
 62
     2
 10
1858.235
 20
1658.14024
 30
1.68
 40
16.8
  1
　６１０
 50
0.0
 41
0.9
 51
0.0
  7
KANJI34
  0
TEXT
  8
0
  6
CONTINUOUS
 62
     2
 10
1746.235
 20
1658.14024
 30
1.68
 40
16.8
  1
　７２５
 50
0.0
 41
0.9
 51
0.0
  7
KANJI34
  0
TEXT
  8
0
  6
CONTINUOUS
 62
     2
 10
1634.235
 20
1658.14024
 30
1.68
 40
16.8
  1
　９５０
 50
0.0
 41
0.9
 51
0.0
  7
KANJI34
  0
TEXT
  8
0
  6
CONTINUOUS
 62
     2
 10
1522.235
 20
1621.273573333
 30
1.68
 40
16.8
  1
　４００
 50
0.0
 41
0.9
 51
0.0
  7
KANJI34
  0
LINE
  8
0
  6
CONTINUOUS
 62
     2
 10
1261.835
 20
1611.893573333
 30
0.0
 11
2169.035
 21
1611.893573333
 31
0.0
  0
TEXT
  8
0
  6
CONTINUOUS
 62
     2
 10
1858.235
 20
1621.273573333
 30
1.68
 40
16.8
  1
　７１０
 50
0.0
 41
0.9
 51
0.0
  7
KANJI34
  0
TEXT
  8
0
  6
CONTINUOUS
 62
     2
 10
1522.235
 20
1584.406906667
 30
1.68
 40
16.8
  1
　５００
 50
0.0
 41
0.9
 51
0.0
  7
KANJI34
  0
LINE
  8
0
  6
CONTINUOUS
 62
     2
 10
1261.835
 20
1575.026906667
 30
0.0
 11
2169.035
 21
1575.026906667
 31
0.0
  0
TEXT
  8
0
  6
CONTINUOUS
 62
     2
 10
1858.235
 20
1584.406906667
 30
1.68
 40
16.8
  1
　８１０
 50
0.0
 41
0.9
 51
0.0
  7
KANJI34
  0
LINE
  8
0
  6
CONTINUOUS
 62
     2
 10
1261.835
 20
1538.16024
 30
0.0
 11
2169.035
 21
1538.16024
 31
0.0
  0
TEXT
  8
0
  6
CONTINUOUS
 62
     2
 10
1522.235
 20
1547.54024
 30
1.68
 40
16.8
  1
　６００
 50
0.0
 41
0.9
 51
0.0
  7
KANJI34
  0
TEXT
  8
0
  6
CONTINUOUS
 62
     2
 10
1858.235
 20
1547.54024
 30
1.68
 40
16.8
  1
　９５０
 50
0.0
 41
0.9
 51
0.0
  7
KANJI34
  0
LINE
  8
0
  6
CONTINUOUS
 62
     2
 10
1261.835
 20
1501.293573333
 30
0.0
 11
2169.035
 21
1501.293573333
 31
0.0
  0
TEXT
  8
0
  6
CONTINUOUS
 62
     2
 10
1522.235
 20
1510.673573333
 30
1.68
 40
16.8
  1
　７００
 50
0.0
 41
0.9
 51
0.0
  7
KANJI34
  0
TEXT
  8
0
  6
CONTINUOUS
 62
     2
 10
1858.235
 20
1510.673573333
 30
1.68
 40
16.8
  1
１０５０
 50
0.0
 41
0.9
 51
0.0
  7
KANJI34
  0
LINE
  8
0
  6
CONTINUOUS
 62
     2
 10
1261.835
 20
1464.426906667
 30
0.0
 11
2169.035
 21
1464.426906667
 31
0.0
  0
TEXT
  8
0
  6
CONTINUOUS
 62
     2
 10
1522.235
 20
1473.806906667
 30
1.68
 40
16.8
  1
　８００
 50
0.0
 41
0.9
 51
0.0
  7
KANJI34
  0
TEXT
  8
0
  6
CONTINUOUS
 62
     2
 10
1858.235
 20
1473.806906667
 30
1.68
 40
16.8
  1
１１５０
 50
0.0
 41
0.9
 51
0.0
  7
KANJI34
  0
LINE
  8
0
  6
CONTINUOUS
 62
     2
 10
1261.835
 20
1427.56024
 30
0.0
 11
2169.035
 21
1427.56024
 31
0.0
  0
TEXT
  8
0
  6
CONTINUOUS
 62
     2
 10
1522.235
 20
1436.94024
 30
1.68
 40
16.8
  1
　９００
 50
0.0
 41
0.9
 51
0.0
  7
KANJI34
  0
TEXT
  8
0
  6
CONTINUOUS
 62
     2
 10
1858.235
 20
1436.94024
 30
1.68
 40
16.8
  1
１２５０
 50
0.0
 41
0.9
 51
0.0
  7
KANJI34
  0
TEXT
  8
0
  6
CONTINUOUS
 62
     2
 10
1522.235
 20
1400.073573333
 30
1.68
 40
16.8
  1
１０００
 50
0.0
 41
0.9
 51
0.0
  7
KANJI34
  0
LINE
  8
0
  6
CONTINUOUS
 62
     2
 10
1261.835
 20
1390.693573333
 30
0.0
 11
2169.035
 21
1390.693573333
 31
0.0
  0
LINE
  8
0
  6
CONTINUOUS
 62
     2
 10
1261.835
 20
1353.826906667
 30
0.0
 11
2169.035
 21
1353.826906667
 31
0.0
  0
LINE
  8
0
  6
CONTINUOUS
 62
     2
 10
1261.835
 20
1316.96024
 30
0.0
 11
2169.035
 21
1316.96024
 31
0.0
  0
LINE
  8
0
  6
CONTINUOUS
 62
     2
 10
1261.835
 20
1280.093573333
 30
0.0
 11
2169.035
 21
1280.093573333
 31
0.0
  0
LINE
  8
0
  6
CONTINUOUS
 62
     2
 10
1261.835
 20
1243.226906667
 30
0.0
 11
2169.035
 21
1243.226906667
 31
0.0
  0
LINE
  8
0
  6
CONTINUOUS
 62
     2
 10
1261.835
 20
1206.36024
 30
0.0
 11
2169.035
 21
1206.36024
 31
0.0
  0
LINE
  8
0
  6
CONTINUOUS
 62
     1
 10
1261.835
 20
1169.493573333
 30
0.0
 11
2169.035
 21
1169.493573333
 31
0.0
  0
LINE
  8
0
  6
CONTINUOUS
 62
     1
 10
2169.035
 20
1761.693573333
 30
0.0
 11
2169.035
 21
1169.493573333
 31
0.0
  0
LINE
  8
0
  6
CONTINUOUS
 62
     1
 10
1261.835
 20
1761.693573333
 30
0.0
 11
1261.835
 21
1169.493573333
 31
0.0
  0
LINE
  8
0
  6
CONTINUOUS
 62
     1
 10
1497.035
 20
1761.693573333
 30
0.0
 11
1497.035
 21
1169.493573333
 31
0.0
  0
LINE
  8
0
  6
CONTINUOUS
 62
     2
 10
1609.035
 20
1761.693573333
 30
0.0
 11
1609.035
 21
1169.493573333
 31
0.0
  0
LINE
  8
0
  6
CONTINUOUS
 62
     2
 10
1721.035
 20
1761.693573333
 30
0.0
 11
1721.035
 21
1169.493573333
 31
0.0
  0
LINE
  8
0
  6
CONTINUOUS
 62
     2
 10
1833.035
 20
1761.693573333
 30
0.0
 11
1833.035
 21
1169.493573333
 31
0.0
  0
LINE
  8
0
  6
CONTINUOUS
 62
     2
 10
1945.035
 20
1761.693573333
 30
0.0
 11
1945.035
 21
1169.493573333
 31
0.0
  0
LINE
  8
0
  6
CONTINUOUS
 62
     2
 10
2057.035
 20
1761.693573333
 30
0.0
 11
2057.035
 21
1169.493573333
 31
0.0
  0
TEXT
  8
0
  6
CONTINUOUS
 62
     2
 10
1522.235
 20
1363.206906667
 30
1.68
 40
16.8
  1
１１００
 50
0.0
 41
0.9
 51
0.0
  7
KANJI34
  0
TEXT
  8
0
  6
CONTINUOUS
 62
     2
 10
1522.235
 20
1326.34024
 30
1.68
 40
16.8
  1
１２００
 50
0.0
 41
0.9
 51
0.0
  7
KANJI34
  0
TEXT
  8
0
  6
CONTINUOUS
 62
     2
 10
1522.235
 20
1289.473573333
 30
1.68
 40
16.8
  1
１３００
 50
0.0
 41
0.9
 51
0.0
  7
KANJI34
  0
TEXT
  8
0
  6
CONTINUOUS
 62
     2
 10
1522.235
 20
1252.606906667
 30
1.68
 40
16.8
  1
１４００
 50
0.0
 41
0.9
 51
0.0
  7
KANJI34
  0
TEXT
  8
0
  6
CONTINUOUS
 62
     2
 10
1522.235
 20
1215.74024
 30
1.68
 40
16.8
  1
１５００
 50
0.0
 41
0.9
 51
0.0
  7
KANJI34
  0
TEXT
  8
0
  6
CONTINUOUS
 62
     2
 10
1858.235
 20
1363.206906667
 30
1.68
 40
16.8
  1
１４８０
 50
0.0
 41
0.9
 51
0.0
  7
KANJI34
  0
TEXT
  8
0
  6
CONTINUOUS
 62
     2
 10
1858.235
 20
1326.34024
 30
1.68
 40
16.8
  1
１５８０
 50
0.0
 41
0.9
 51
0.0
  7
KANJI34
  0
TEXT
  8
0
  6
CONTINUOUS
 62
     2
 10
1858.235
 20
1289.473573333
 30
1.68
 40
16.8
  1
１６８０
 50
0.0
 41
0.9
 51
0.0
  7
KANJI34
  0
TEXT
  8
0
  6
CONTINUOUS
 62
     2
 10
1858.235
 20
1252.606906667
 30
1.68
 40
16.8
  1
１７８０
 50
0.0
 41
0.9
 51
0.0
  7
KANJI34
  0
TEXT
  8
0
  6
CONTINUOUS
 62
     2
 10
1858.235
 20
1215.74024
 30
1.68
 40
16.8
  1
１８８０
 50
0.0
 41
0.9
 51
0.0
  7
KANJI34
  0
TEXT
  8
0
  6
CONTINUOUS
 62
     2
 10
1306.309827
 20
1785.82368
 30
1.749993
 40
17.49993
  1
注意：サーマルリレー等の選定は、上記の値で選定して下さい。
 50
0.0
 41
0.9
 51
0.0
  7
KANJI39
  0
LINE
  8
0
  6
CONTINUOUS
 62
     2
 10
1298.309867
 20
1780.8237
 30
0.0
 11
1804.097987
 21
1780.8237
 31
0.0
  0
TEXT
  8
0
  6
CONTINUOUS
 62
     2
 10
1970.235
 20
1621.273573333
 30
1.68
 40
16.8
  1
　　８５
 50
0.0
 41
0.9
 51
0.0
  7
KANJI34
  0
TEXT
  8
0
  6
CONTINUOUS
 62
     2
 10
1970.235
 20
1584.406906667
 30
1.68
 40
16.8
  1
　１１２
 50
0.0
 41
0.9
 51
0.0
  7
KANJI34
  0
TEXT
  8
0
  6
CONTINUOUS
 62
     2
 10
1970.235
 20
1547.54024
 30
1.68
 40
16.8
  1
　１２８
 50
0.0
 41
0.9
 51
0.0
  7
KANJI34
  0
TEXT
  8
0
  6
CONTINUOUS
 62
     2
 10
1970.235
 20
1510.673573333
 30
1.68
 40
16.8
  1
　１４８
 50
0.0
 41
0.9
 51
0.0
  7
KANJI34
  0
TEXT
  8
0
  6
CONTINUOUS
 62
     2
 10
1970.235
 20
1473.806906667
 30
1.68
 40
16.8
  1
　１６８
 50
0.0
 41
0.9
 51
0.0
  7
KANJI34
  0
TEXT
  8
0
  6
CONTINUOUS
 62
     2
 10
1970.235
 20
1436.94024
 30
1.68
 40
16.8
  1
　１９８
 50
0.0
 41
0.9
 51
0.0
  7
KANJI34
  0
TEXT
  8
0
  6
CONTINUOUS
 62
     2
 10
1970.235
 20
1400.073573333
 30
1.68
 40
16.8
  1
　２３１
 50
0.0
 41
0.9
 51
0.0
  7
KANJI34
  0
TEXT
  8
0
  6
CONTINUOUS
 62
     2
 10
1970.235
 20
1363.206906667
 30
1.68
 40
16.8
  1
　２４５
 50
0.0
 41
0.9
 51
0.0
  7
KANJI34
  0
TEXT
  8
0
  6
CONTINUOUS
 62
     2
 10
1970.235
 20
1326.34024
 30
1.68
 40
16.8
  1
　２６８
 50
0.0
 41
0.9
 51
0.0
  7
KANJI34
  0
TEXT
  8
0
  6
CONTINUOUS
 62
     2
 10
1970.235
 20
1289.473573333
 30
1.68
 40
16.8
  1
　２８８
 50
0.0
 41
0.9
 51
0.0
  7
KANJI34
  0
TEXT
  8
0
  6
CONTINUOUS
 62
     2
 10
1970.235
 20
1252.606906667
 30
1.68
 40
16.8
  1
　３１０
 50
0.0
 41
0.9
 51
0.0
  7
KANJI34
  0
TEXT
  8
0
  6
CONTINUOUS
 62
     2
 10
1970.235
 20
1215.74024
 30
1.68
 40
16.8
  1
　３５０
 50
0.0
 41
0.9
 51
0.0
  7
KANJI34
  0
TEXT
  8
0
  6
CONTINUOUS
 62
     2
 10
1746.235
 20
1621.273573333
 30
1.68
 40
16.8
  1
　８６５
 50
0.0
 41
0.9
 51
0.0
  7
KANJI34
  0
TEXT
  8
0
  6
CONTINUOUS
 62
     2
 10
1746.235
 20
1584.406906667
 30
1.68
 40
16.8
  1
　９９２
 50
0.0
 41
0.9
 51
0.0
  7
KANJI34
  0
TEXT
  8
0
  6
CONTINUOUS
 62
     2
 10
1746.235
 20
1547.54024
 30
1.68
 40
16.8
  1
１１４８
 50
0.0
 41
0.9
 51
0.0
  7
KANJI34
  0
TEXT
  8
0
  6
CONTINUOUS
 62
     2
 10
1746.235
 20
1510.673573333
 30
1.68
 40
16.8
  1
１２６８
 50
0.0
 41
0.9
 51
0.0
  7
KANJI34
  0
TEXT
  8
0
  6
CONTINUOUS
 62
     2
 10
1746.235
 20
1473.806906667
 30
1.68
 40
16.8
  1
１３８８
 50
0.0
 41
0.9
 51
0.0
  7
KANJI34
  0
TEXT
  8
0
  6
CONTINUOUS
 62
     2
 10
1746.235
 20
1436.94024
 30
1.68
 40
16.8
  1
１５１８
 50
0.0
 41
0.9
 51
0.0
  7
KANJI34
  0
TEXT
  8
0
  6
CONTINUOUS
 62
     2
 10
1746.235
 20
1400.073573333
 30
1.68
 40
16.8
  1
１６５１
 50
0.0
 41
0.9
 51
0.0
  7
KANJI34
  0
TEXT
  8
0
  6
CONTINUOUS
 62
     2
 10
1746.235
 20
1363.206906667
 30
1.68
 40
16.8
  1
１７９５
 50
0.0
 41
0.9
 51
0.0
  7
KANJI34
  0
TEXT
  8
0
  6
CONTINUOUS
 62
     2
 10
1746.235
 20
1326.34024
 30
1.68
 40
16.8
  1
１９１８
 50
0.0
 41
0.9
 51
0.0
  7
KANJI34
  0
TEXT
  8
0
  6
CONTINUOUS
 62
     2
 10
1746.235
 20
1289.473573333
 30
1.68
 40
16.8
  1
２０３８
 50
0.0
 41
0.9
 51
0.0
  7
KANJI34
  0
TEXT
  8
0
  6
CONTINUOUS
 62
     2
 10
1746.235
 20
1252.606906667
 30
1.68
 40
16.8
  1
２１６０
 50
0.0
 41
0.9
 51
0.0
  7
KANJI34
  0
TEXT
  8
0
  6
CONTINUOUS
 62
     2
 10
1746.235
 20
1215.74024
 30
1.68
 40
16.8
  1
２３００
 50
0.0
 41
0.9
 51
0.0
  7
KANJI34
  0
TEXT
  8
0
  6
CONTINUOUS
 62
     2
 10
1634.235
 20
1621.273573333
 30
1.68
 40
16.8
  1
１０９０
 50
0.0
 41
0.9
 51
0.0
  7
KANJI34
  0
TEXT
  8
0
  6
CONTINUOUS
 62
     2
 10
1634.235
 20
1584.406906667
 30
1.68
 40
16.8
  1
１２１７
 50
0.0
 41
0.9
 51
0.0
  7
KANJI34
  0
TEXT
  8
0
  6
CONTINUOUS
 62
     2
 10
1634.235
 20
1547.54024
 30
1.68
 40
16.8
  1
１３７３
 50
0.0
 41
0.9
 51
0.0
  7
KANJI34
  0
TEXT
  8
0
  6
CONTINUOUS
 62
     2
 10
1634.235
 20
1510.673573333
 30
1.68
 40
16.8
  1
１４９３
 50
0.0
 41
0.9
 51
0.0
  7
KANJI34
  0
TEXT
  8
0
  6
CONTINUOUS
 62
     2
 10
1634.235
 20
1473.806906667
 30
1.68
 40
16.8
  1
１６１３
 50
0.0
 41
0.9
 51
0.0
  7
KANJI34
  0
TEXT
  8
0
  6
CONTINUOUS
 62
     2
 10
1634.235
 20
1436.94024
 30
1.68
 40
16.8
  1
１７４３
 50
0.0
 41
0.9
 51
0.0
  7
KANJI34
  0
TEXT
  8
0
  6
CONTINUOUS
 62
     2
 10
1634.235
 20
1400.073573333
 30
1.68
 40
16.8
  1
１８７６
 50
0.0
 41
0.9
 51
0.0
  7
KANJI34
  0
TEXT
  8
0
  6
CONTINUOUS
 62
     2
 10
1634.235
 20
1363.206906667
 30
1.68
 40
16.8
  1
２０２０
 50
0.0
 41
0.9
 51
0.0
  7
KANJI34
  0
TEXT
  8
0
  6
CONTINUOUS
 62
     2
 10
1634.235
 20
1326.34024
 30
1.68
 40
16.8
  1
２１４３
 50
0.0
 41
0.9
 51
0.0
  7
KANJI34
  0
TEXT
  8
0
  6
CONTINUOUS
 62
     2
 10
1634.235
 20
1289.473573333
 30
1.68
 40
16.8
  1
２２６３
 50
0.0
 41
0.9
 51
0.0
  7
KANJI34
  0
TEXT
  8
0
  6
CONTINUOUS
 62
     2
 10
1634.235
 20
1252.606906667
 30
1.68
 40
16.8
  1
２３８５
 50
0.0
 41
0.9
 51
0.0
  7
KANJI34
  0
TEXT
  8
0
  6
CONTINUOUS
 62
     2
 10
1634.235
 20
1215.74024
 30
1.68
 40
16.8
  1
２５２５
 50
0.0
 41
0.9
 51
0.0
  7
KANJI34
  0
TEXT
  8
0
  6
CONTINUOUS
 62
     2
 10
1858.235
 20
1400.073573333
 30
1.68
 40
16.8
  1
１３５０
 50
0.0
 41
0.9
 51
0.0
  7
KANJI34
  0
LINE
  8
0
  6
CONTINUOUS
 62
     2
 10
549.235
 20
1499.54024
 30
0.0
 11
556.96240661
 21
1497.469687639
 31
0.0
  0
LINE
  8
0
  6
CONTINUOUS
 62
     2
 10
549.235
 20
1499.54024
 30
0.0
 11
556.96240661
 21
1501.610792361
 31
0.0
  0
LINE
  8
0
  6
CONTINUOUS
 62
     2
 10
549.235
 20
1499.54024
 30
0.0
 11
686.835
 21
1499.54024
 31
0.0
  0
LINE
  8
0
  6
CONTINUOUS
 62
     2
 10
686.835
 20
1499.54024
 30
0.0
 11
679.10759339
 21
1501.610792361
 31
0.0
  0
LINE
  8
0
  6
CONTINUOUS
 62
     2
 10
686.835
 20
1499.54024
 30
0.0
 11
679.10759339
 21
1497.469687639
 31
0.0
  0
LINE
  8
0
  6
CONTINUOUS
 62
     2
 10
686.835
 20
1498.34024
 30
0.0
 11
686.835
 21
1495.54024
 31
0.0
  0
LINE
  8
0
  6
CONTINUOUS
 62
     2
 10
686.835
 20
1499.54024
 30
0.0
 11
694.56240661
 21
1497.469687639
 31
0.0
  0
LINE
  8
0
  6
CONTINUOUS
 62
     2
 10
686.835
 20
1499.54024
 30
0.0
 11
694.56240661
 21
1501.610792361
 31
0.0
  0
LINE
  8
0
  6
CONTINUOUS
 62
     2
 10
686.835
 20
1499.54024
 30
0.0
 11
889.235
 21
1499.54024
 31
0.0
  0
LINE
  8
0
  6
CONTINUOUS
 62
     2
 10
889.235
 20
1499.54024
 30
0.0
 11
881.50759339
 21
1501.610792361
 31
0.0
  0
LINE
  8
0
  6
CONTINUOUS
 62
     2
 10
889.235
 20
1499.54024
 30
0.0
 11
881.50759339
 21
1497.469687639
 31
0.0
  0
LINE
  8
0
  6
CONTINUOUS
 62
     2
 10
686.835
 20
1473.210792361
 30
0.0
 11
679.10759339
 21
1475.281344722
 31
0.0
  0
LINE
  8
0
  6
CONTINUOUS
 62
     2
 10
686.835
 20
1473.210792361
 30
0.0
 11
679.10759339
 21
1471.14024
 31
0.0
  0
LINE
  8
0
  6
CONTINUOUS
 62
     2
 10
674.835
 20
1473.210792361
 30
0.0
 11
686.835
 21
1473.210792361
 31
0.0
  0
LINE
  8
0
  6
CONTINUOUS
 62
     2
 10
686.835
 20
1473.210792361
 30
0.0
 11
707.635
 21
1473.210792361
 31
0.0
  0
LINE
  8
0
  6
CONTINUOUS
 62
     2
 10
707.635
 20
1473.210792361
 30
0.0
 11
715.36240661
 21
1471.14024
 31
0.0
  0
LINE
  8
0
  6
CONTINUOUS
 62
     2
 10
707.635
 20
1473.210792361
 30
0.0
 11
715.36240661
 21
1475.281344722
 31
0.0
  0
LINE
  8
0
  6
CONTINUOUS
 62
     2
 10
549.235
 20
1447.94024
 30
0.0
 11
549.235
 21
1441.94024
 31
0.0
  0
LINE
  8
0
  6
CONTINUOUS
 62
     2
 10
549.235
 20
1445.94024
 30
0.0
 11
556.96240661
 21
1443.869687639
 31
0.0
  0
LINE
  8
0
  6
CONTINUOUS
 62
     2
 10
549.235
 20
1445.94024
 30
0.0
 11
556.96240661
 21
1448.010792361
 31
0.0
  0
LINE
  8
0
  6
CONTINUOUS
 62
     2
 10
549.235
 20
1445.94024
 30
0.0
 11
707.635
 21
1445.94024
 31
0.0
  0
LINE
  8
0
  6
CONTINUOUS
 62
     2
 10
707.635
 20
1445.94024
 30
0.0
 11
699.90759339
 21
1448.010792361
 31
0.0
  0
LINE
  8
0
  6
CONTINUOUS
 62
     2
 10
707.635
 20
1445.94024
 30
0.0
 11
699.90759339
 21
1443.869687639
 31
0.0
  0
LINE
  8
0
  6
CONTINUOUS
 62
     2
 10
707.635
 20
1447.14024
 30
0.0
 11
707.635
 21
1441.94024
 31
0.0
  0
LINE
  8
0
  6
CONTINUOUS
 62
     2
 10
707.635
 20
1445.94024
 30
0.0
 11
715.36240661
 21
1443.869687639
 31
0.0
  0
LINE
  8
0
  6
CONTINUOUS
 62
     2
 10
707.635
 20
1445.94024
 30
0.0
 11
715.36240661
 21
1448.010792361
 31
0.0
  0
LINE
  8
0
  6
CONTINUOUS
 62
     2
 10
889.235
 20
1442.34024
 30
0.0
 11
889.235
 21
1441.94024
 31
0.0
  0
LINE
  8
0
  6
CONTINUOUS
 62
     2
 10
549.235
 20
1416.74024
 30
0.0
 11
556.96240661
 21
1414.669687639
 31
0.0
  0
LINE
  8
0
  6
CONTINUOUS
 62
     2
 10
549.235
 20
1416.74024
 30
0.0
 11
556.96240661
 21
1418.810792361
 31
0.0
  0
LINE
  8
0
  6
CONTINUOUS
 62
     2
 10
549.235
 20
1416.74024
 30
0.0
 11
866.835
 21
1416.74024
 31
0.0
  0
LINE
  8
0
  6
CONTINUOUS
 62
     2
 10
866.835
 20
1416.74024
 30
0.0
 11
859.10759339
 21
1418.810792361
 31
0.0
  0
LINE
  8
0
  6
CONTINUOUS
 62
     2
 10
866.835
 20
1416.74024
 30
0.0
 11
859.10759339
 21
1414.669687639
 31
0.0
  0
LINE
  8
0
  6
CONTINUOUS
 62
     2
 10
866.835
 20
1417.54024
 30
0.0
 11
866.835
 21
1412.74024
 31
0.0
  0
LINE
  8
0
  6
CONTINUOUS
 62
     2
 10
866.835
 20
1416.74024
 30
0.0
 11
859.10759339
 21
1418.810792361
 31
0.0
  0
LINE
  8
0
  6
CONTINUOUS
 62
     2
 10
866.835
 20
1416.74024
 30
0.0
 11
859.10759339
 21
1414.669687639
 31
0.0
  0
LINE
  8
0
  6
CONTINUOUS
 62
     2
 10
854.835
 20
1416.74024
 30
0.0
 11
866.835
 21
1416.74024
 31
0.0
  0
LINE
  8
0
  6
CONTINUOUS
 62
     2
 10
866.835
 20
1416.74024
 30
0.0
 11
889.235
 21
1416.74024
 31
0.0
  0
LINE
  8
0
  6
CONTINUOUS
 62
     2
 10
889.235
 20
1416.74024
 30
0.0
 11
896.96240661
 21
1414.669687639
 31
0.0
  0
LINE
  8
0
  6
CONTINUOUS
 62
     2
 10
889.235
 20
1416.74024
 30
0.0
 11
896.96240661
 21
1418.810792361
 31
0.0
  0
LINE
  8
0
  6
CONTINUOUS
 62
     2
 10
549.235
 20
1510.34024
 30
0.0
 11
549.235
 21
1495.54024
 31
0.0
  0
LINE
  8
0
  6
CONTINUOUS
 62
     2
 10
889.235
 20
1510.34024
 30
0.0
 11
889.235
 21
1495.54024
 31
0.0
  0
LINE
  8
0
  6
CONTINUOUS
 62
     2
 10
686.835
 20
1499.14024
 30
0.0
 11
686.835
 21
1510.34024
 31
0.0
  0
LINE
  8
0
  6
CONTINUOUS
 62
     2
 10
707.635
 20
1486.010792361
 30
0.0
 11
707.635
 21
1469.210792361
 31
0.0
  0
LINE
  8
0
  6
CONTINUOUS
 62
     2
 10
549.235
 20
1495.54024
 30
0.0
 11
549.235
 21
1403.54024
 31
0.0
  0
LINE
  8
0
  6
CONTINUOUS
 62
     2
 10
889.235
 20
1499.54024
 30
0.0
 11
889.235
 21
1404.74024
 31
0.0
  0
LINE
  8
0
  6
CONTINUOUS
 62
     2
 10
707.635
 20
1473.210792361
 30
0.0
 11
707.635
 21
1436.74024
 31
0.0
  0
LINE
  8
0
  6
CONTINUOUS
 62
     2
 10
686.835
 20
1499.54024
 30
0.0
 11
686.835
 21
1463.94024
 31
0.0
  0
TEXT
  8
0
  6
CONTINUOUS
 62
     3
 10
591.035
 20
1501.54024
 30
0.0
 40
15.0
  1
ｍｉｎ．Ｌ
 50
0.0
 41
0.9
 51
0.0
  7
KANJI40
  0
TEXT
  8
0
  6
CONTINUOUS
 62
     3
 10
744.835
 20
1501.54024
 30
0.0
 40
15.0
  1
機械的ストローク
 50
0.0
 41
0.9
 51
0.0
  7
KANJI40
  0
TEXT
  8
0
  6
CONTINUOUS
 62
     3
 10
719.635
 20
1475.210792361
 30
0.0
 40
15.0
  1
余裕
 50
0.0
 41
0.9
 51
0.0
  7
KANJI40
  0
TEXT
  8
0
  6
CONTINUOUS
 62
     3
 10
601.435
 20
1447.94024
 30
0.0
 40
15.0
  1
常用ｍｉｎ
 50
0.0
 41
0.9
 51
0.0
  7
KANJI40
  0
TEXT
  8
0
  6
CONTINUOUS
 62
     3
 10
681.035
 20
1418.74024
 30
0.0
 40
15.0
  1
常用ｍａｘ
 50
0.0
 41
0.9
 51
0.0
  7
KANJI40
  0
TEXT
  8
0
  6
CONTINUOUS
 62
     3
 10
901.235
 20
1418.74024
 30
0.0
 40
15.0
  1
余裕
 50
0.0
 41
0.9
 51
0.0
  7
KANJI40
  0
LINE
  8
0
  6
CONTINUOUS
 62
     2
 10
707.635
 20
1473.210792361
 30
0.0
 11
747.735
 21
1473.210792361
 31
0.0
  0
LINE
  8
0
  6
CONTINUOUS
 62
     2
 10
889.235
 20
1416.74024
 30
0.0
 11
931.735
 21
1416.74024
 31
0.0
  0
LINE
  8
0
  6
CONTINUOUS
 62
     2
 10
866.835
 20
1458.74024
 30
0.0
 11
866.835
 21
1403.94024
 31
0.0
  0
LINE
  8
0
  6
CONTINUOUS
 62
     2
 10
707.635
 20
1445.94024
 30
0.0
 11
866.835
 21
1445.94024
 31
0.0
  0
LINE
  8
0
  6
CONTINUOUS
 62
     2
 10
866.835
 20
1445.94024
 30
0.0
 11
859.10759339
 21
1448.010792361
 31
0.0
  0
LINE
  8
0
  6
CONTINUOUS
 62
     2
 10
866.835
 20
1445.94024
 30
0.0
 11
859.10759339
 21
1443.869687639
 31
0.0
  0
TEXT
  8
0
  6
CONTINUOUS
 62
     3
 10
747.635
 20
1447.94024
 30
0.0
 40
15.0
  1
常用ストローク
 50
0.0
 41
0.9
 51
0.0
  7
KANJI40
  0
LINE
  8
0
  6
CONTINUOUS
 62
     2
 10
576.235
 20
229.54024
 30
0.0
 11
1008.522408737
 21
229.54024
 31
0.0
  0
TEXT
  8
0
  6
CONTINUOUS
 62
     2
 10
578.235
 20
237.54024
 30
0.0
 40
20.0
  1
推力リミッタの作動値は、約４４００ｋｇ（設計値）
 50
0.0
 41
0.925
 51
0.0
  7
KANJI41
  0
TEXT
  8
0
  6
CONTINUOUS
 62
     2
 10
1929.6933723
 20
154.789993
 30
2.1
 40
24.5
  1
９９．０５．２２
 50
0.0
 41
0.571428571
 51
0.0
  7
KANJI42
  0
TEXT
  8
0
  6
CONTINUOUS
 62
     2
 10
2671.1166991
 20
190.6733226
 30
0.0
 40
21.0
  1
１
 50
0.0
 41
0.9
 51
0.0
  7
KANJI17
  0
CIRCLE
  8
0
  6
CONTINUOUS
 62
     1
 10
530.035
 20
633.493573333
 30
0.0
 40
15.0
  0
CIRCLE
  8
0
  6
CONTINUOUS
 62
     1
 10
530.035
 20
633.493573333
 30
0.0
 40
30.0
  0
CIRCLE
  8
0
  6
CONTINUOUS
 62
     1
 10
530.035
 20
633.493573333
 30
0.0
 40
34.0
  0
LINE
  8
0
  6
CONTINUOUS
 62
     1
 10
430.035
 20
713.493573333
 30
0.0
 11
430.035
 21
553.493573333
 31
0.0
  0
LINE
  8
0
  6
CONTINUOUS
 62
     1
 10
532.035
 20
565.493573333
 30
0.0
 11
606.035
 21
565.493573333
 31
0.0
  0
LINE
  8
0
  6
CONTINUOUS
 62
     1
 10
532.035
 20
584.093573333
 30
0.0
 11
532.035
 21
565.493573333
 31
0.0
  0
LINE
  8
0
  6
CONTINUOUS
 62
     1
 10
606.035
 20
584.793573333
 30
0.0
 11
606.035
 21
565.493573333
 31
0.0
  0
LINE
  8
0
  6
LTYPE2
 62
     2
 10
530.035
 20
678.493573333
 30
0.0
 11
530.035
 21
588.493573333
 31
0.0
  0
LINE
  8
0
  6
CONTINUOUS
 62
     1
 10
430.035
 20
713.493573333
 30
0.0
 11
446.035
 21
713.493573333
 31
0.0
  0
ARC
  8
0
  6
CONTINUOUS
 62
     1
 10
446.035
 20
711.493573333
 30
0.0
 40
2.0
 50
0.0
 51
90.0
  0
LINE
  8
0
  6
CONTINUOUS
 62
     1
 10
430.035
 20
553.493573333
 30
0.0
 11
446.035
 21
553.493573333
 31
0.0
  0
LINE
  8
0
  6
CONTINUOUS
 62
     1
 10
448.035
 20
711.493573333
 30
0.0
 11
448.035
 21
555.493573333
 31
0.0
  0
ARC
  8
0
  6
CONTINUOUS
 62
     1
 10
446.035
 20
555.493573333
 30
0.0
 40
2.0
 50
270.0
 51
0.0
  0
LINE
  8
0
  6
CONTINUOUS
 62
     1
 10
606.135
 20
568.493573333
 30
0.0
 11
671.035
 21
568.493573333
 31
0.0
  0
LINE
  8
0
  6
CONTINUOUS
 62
     1
 10
452.035
 20
573.493573333
 30
0.0
 11
452.035
 21
587.324561431
 31
0.0
  0
LINE
  8
0
  6
CONTINUOUS
 62
     1
 10
452.035
 20
573.493573333
 30
0.0
 11
452.035
 21
559.662585236
 31
0.0
  0
POINT
  8
0
  6
CONTINUOUS
 62
     1
 10
448.035
 20
587.493573333
 30
0.0
  0
LINE
  8
0
  6
CONTINUOUS
 62
     1
 10
448.035
 20
587.493573333
 30
0.0
 11
452.035
 21
587.493573333
 31
0.0
  0
LINE
  8
0
  6
CONTINUOUS
 62
     1
 10
448.035
 20
573.493573333
 30
0.0
 11
452.034996995
 21
577.493570328
 31
0.0
  0
LINE
  8
0
  6
CONTINUOUS
 62
     1
 10
452.034996995
 20
573.493573333
 30
0.0
 11
448.035
 21
569.493576338
 31
0.0
  0
POINT
  8
0
  6
CONTINUOUS
 62
     1
 10
448.035
 20
559.493573333
 30
0.0
  0
LINE
  8
0
  6
CONTINUOUS
 62
     1
 10
448.035
 20
559.493573333
 30
0.0
 11
452.035
 21
559.493573333
 31
0.0
  0
LINE
  8
0
  6
CONTINUOUS
 62
     1
 10
467.035
 20
573.49357311
 30
0.0
 11
467.035
 21
585.493573333
 31
0.0
  0
LINE
  8
0
  6
CONTINUOUS
 62
     1
 10
452.035
 20
585.493573333
 30
0.0
 11
467.035
 21
585.493573333
 31
0.0
  0
LINE
  8
0
  6
CONTINUOUS
 62
     1
 10
467.035
 20
585.493573333
 30
0.0
 11
468.035
 21
583.761522526
 31
0.0
  0
LINE
  8
0
  6
CONTINUOUS
 62
     1
 10
468.035
 20
573.493573095
 30
0.0
 11
468.035
 21
583.761522526
 31
0.0
  0
LINE
  8
0
  6
CONTINUOUS
 62
     1
 10
467.035
 20
573.493573557
 30
0.0
 11
467.035
 21
561.493573333
 31
0.0
  0
LINE
  8
0
  6
CONTINUOUS
 62
     1
 10
452.035
 20
561.493573333
 30
0.0
 11
467.035
 21
561.493573333
 31
0.0
  0
LINE
  8
0
  6
CONTINUOUS
 62
     1
 10
467.035
 20
561.493573333
 30
0.0
 11
468.035
 21
563.225624141
 31
0.0
  0
LINE
  8
0
  6
CONTINUOUS
 62
     1
 10
468.035
 20
573.493573572
 30
0.0
 11
468.035
 21
563.225624141
 31
0.0
  0
LINE
  8
0
  6
CONTINUOUS
 62
     1
 10
468.035
 20
568.493573333
 30
0.0
 11
532.235
 21
568.493573333
 31
0.0
  0
LINE
  8
0
  6
LTYPE2
 62
     2
 10
418.335
 20
573.493573333
 30
0.0
 11
474.135
 21
573.493573333
 31
0.0
  0
LINE
  8
0
  6
CONTINUOUS
 62
     1
 10
452.035
 20
693.493573333
 30
0.0
 11
452.035
 21
679.662585236
 31
0.0
  0
LINE
  8
0
  6
CONTINUOUS
 62
     1
 10
452.035
 20
693.493573333
 30
0.0
 11
452.035
 21
707.324561431
 31
0.0
  0
POINT
  8
0
  6
CONTINUOUS
 62
     1
 10
448.035
 20
679.493573333
 30
0.0
  0
LINE
  8
0
  6
CONTINUOUS
 62
     1
 10
448.035
 20
679.493573333
 30
0.0
 11
452.035
 21
679.493573333
 31
0.0
  0
LINE
  8
0
  6
CONTINUOUS
 62
     1
 10
448.035
 20
693.493573333
 30
0.0
 11
452.034996995
 21
689.493576338
 31
0.0
  0
LINE
  8
0
  6
CONTINUOUS
 62
     1
 10
452.034996995
 20
693.493573333
 30
0.0
 11
448.035
 21
697.493570328
 31
0.0
  0
POINT
  8
0
  6
CONTINUOUS
 62
     1
 10
448.035
 20
707.493573333
 30
0.0
  0
LINE
  8
0
  6
CONTINUOUS
 62
     1
 10
448.035
 20
707.493573333
 30
0.0
 11
452.035
 21
707.493573333
 31
0.0
  0
LINE
  8
0
  6
CONTINUOUS
 62
     1
 10
467.035
 20
693.493573557
 30
0.0
 11
467.035
 21
681.493573333
 31
0.0
  0
LINE
  8
0
  6
CONTINUOUS
 62
     1
 10
452.035
 20
681.493573333
 30
0.0
 11
467.035
 21
681.493573333
 31
0.0
  0
LINE
  8
0
  6
CONTINUOUS
 62
     1
 10
467.035
 20
681.493573333
 30
0.0
 11
468.035
 21
683.225624141
 31
0.0
  0
LINE
  8
0
  6
CONTINUOUS
 62
     1
 10
468.035
 20
693.493573572
 30
0.0
 11
468.035
 21
683.225624141
 31
0.0
  0
LINE
  8
0
  6
CONTINUOUS
 62
     1
 10
467.035
 20
693.49357311
 30
0.0
 11
467.035
 21
705.493573333
 31
0.0
  0
LINE
  8
0
  6
CONTINUOUS
 62
     1
 10
452.035
 20
705.493573333
 30
0.0
 11
467.035
 21
705.493573333
 31
0.0
  0
LINE
  8
0
  6
CONTINUOUS
 62
     1
 10
467.035
 20
705.493573333
 30
0.0
 11
468.035
 21
703.761522526
 31
0.0
  0
LINE
  8
0
  6
CONTINUOUS
 62
     1
 10
468.035
 20
693.493573095
 30
0.0
 11
468.035
 21
703.761522526
 31
0.0
  0
LINE
  8
0
  6
LTYPE2
 62
     2
 10
418.335
 20
693.493573333
 30
0.0
 11
474.135
 21
693.493573333
 31
0.0
  0
LINE
  8
0
  6
CONTINUOUS
 62
     1
 10
468.035
 20
698.493573333
 30
0.0
 11
671.035
 21
698.493573333
 31
0.0
  0
LINE
  8
0
  6
CONTINUOUS
 62
     1
 10
532.035
 20
563.993573333
 30
0.0
 11
606.035
 21
563.993573333
 31
0.0
  0
LINE
  8
0
  6
CONTINUOUS
 62
     1
 10
615.035
 20
563.993573333
 30
0.0
 11
615.035
 21
562.993573333
 31
0.0
  0
ARC
  8
0
  6
CONTINUOUS
 62
     1
 10
528.035
 20
560.993573333
 30
0.0
 40
3.0
 50
90.0
 51
180.0
  0
LINE
  8
0
  6
CONTINUOUS
 62
     1
 10
654.035
 20
520.993573333
 30
0.0
 11
525.035
 21
520.993573333
 31
0.0
  0
LINE
  8
0
  6
CONTINUOUS
 62
     1
 10
615.035
 20
562.993573333
 30
0.0
 11
651.035
 21
562.993573333
 31
0.0
  0
ARC
  8
0
  6
CONTINUOUS
 62
     1
 10
651.035
 20
559.993573333
 30
0.0
 40
3.0
 50
0.0
 51
90.0
  0
LINE
  8
0
  6
CONTINUOUS
 62
     1
 10
654.035
 20
519.493573333
 30
0.0
 11
525.035
 21
519.493573333
 31
0.0
  0
LINE
  8
0
  6
CONTINUOUS
 62
     1
 10
654.035
 20
514.493573333
 30
0.0
 11
654.035
 21
559.993573333
 31
0.0
  0
ARC
  8
0
  6
CONTINUOUS
 62
     1
 10
653.035
 20
514.493573333
 30
0.0
 40
1.0
 50
270.0
 51
0.0
  0
LINE
  8
0
  6
CONTINUOUS
 62
     1
 10
651.035
 20
513.493573333
 30
0.0
 11
651.035
 21
513.493573333
 31
0.0
  0
ARC
  8
0
  6
CONTINUOUS
 62
     1
 10
650.035
 20
513.493573333
 30
0.0
 40
1.0
 50
270.0
 51
0.0
  0
LINE
  8
0
  6
CONTINUOUS
 62
     1
 10
525.035
 20
514.493573333
 30
0.0
 11
525.035
 21
560.993573333
 31
0.0
  0
LINE
  8
0
  6
CONTINUOUS
 62
     1
 10
653.035
 20
513.493573333
 30
0.0
 11
526.035
 21
513.493573333
 31
0.0
  0
ARC
  8
0
  6
CONTINUOUS
 62
     1
 10
526.035
 20
514.493573333
 30
0.0
 40
1.0
 50
180.0
 51
270.0
  0
ARC
  8
0
  6
CONTINUOUS
 62
     1
 10
529.035
 20
513.493573333
 30
0.0
 40
1.0
 50
180.0
 51
270.0
  0
LINE
  8
0
  6
CONTINUOUS
 62
     1
 10
650.035
 20
512.493573333
 30
0.0
 11
529.135
 21
512.493573333
 31
0.0
  0
LINE
  8
0
  6
CONTINUOUS
 62
     1
 10
528.035
 20
563.993573333
 30
0.0
 11
615.035
 21
563.993573333
 31
0.0
  0
LINE
  8
0
  6
CONTINUOUS
 62
     1
 10
528.035
 20
565.493573333
 30
0.0
 11
615.035
 21
565.493573333
 31
0.0
  0
LINE
  8
0
  6
LTYPE2
 62
     2
 10
569.035
 20
582.193573333
 30
0.0
 11
569.035
 21
548.693573333
 31
0.0
  0
LINE
  8
0
  6
LTYPE2
 62
     2
 10
660.235
 20
537.993573333
 30
0.0
 11
640.535
 21
537.993573333
 31
0.0
  0
LINE
  8
0
  6
LTYPE1
 62
     2
 10
654.035
 20
547.293573333
 30
0.0
 11
644.035
 21
547.293573333
 31
0.0
  0
LINE
  8
0
  6
LTYPE1
 62
     2
 10
654.035
 20
548.493573333
 30
0.0
 11
644.035
 21
548.493573333
 31
0.0
  0
LINE
  8
0
  6
LTYPE1
 62
     2
 10
654.035
 20
528.693573333
 30
0.0
 11
644.035
 21
528.693573333
 31
0.0
  0
LINE
  8
0
  6
LTYPE1
 62
     2
 10
654.035
 20
527.493573333
 30
0.0
 11
644.035
 21
527.493573333
 31
0.0
  0
LINE
  8
0
  6
CONTINUOUS
 62
     1
 10
671.035
 20
638.493573333
 30
0.0
 11
683.035
 21
638.493573333
 31
0.0
  0
LINE
  8
0
  6
CONTINUOUS
 62
     1
 10
671.035
 20
628.493573333
 30
0.0
 11
683.035
 21
628.493573333
 31
0.0
  0
LINE
  8
0
  6
CONTINUOUS
 62
     1
 10
671.035
 20
700.993573333
 30
0.0
 11
683.035
 21
700.993573333
 31
0.0
  0
LINE
  8
0
  6
CONTINUOUS
 62
     1
 10
671.035
 20
696.993573333
 30
0.0
 11
683.035
 21
696.993573333
 31
0.0
  0
LINE
  8
0
  6
CONTINUOUS
 62
     1
 10
671.035
 20
565.993573333
 30
0.0
 11
683.035
 21
565.993573333
 31
0.0
  0
LINE
  8
0
  6
CONTINUOUS
 62
     1
 10
671.035
 20
569.993573333
 30
0.0
 11
683.035
 21
569.993573333
 31
0.0
  0
LINE
  8
0
  6
CONTINUOUS
 62
     1
 10
671.035
 20
700.993573333
 30
0.0
 11
671.035
 21
565.993573333
 31
0.0
  0
LINE
  8
0
  6
CONTINUOUS
 62
     1
 10
683.035
 20
700.993573333
 30
0.0
 11
683.035
 21
565.993573333
 31
0.0
  0
LINE
  8
0
  6
CONTINUOUS
 62
     1
 10
940.635
 20
691.493573333
 30
0.0
 11
944.991537433
 21
707.752392378
 31
0.0
  0
ARC
  8
0
  6
CONTINUOUS
 62
     1
 10
945.957463259
 20
707.493573333
 30
0.0
 40
1.0
 50
90.0
 51
165.0
  0
ARC
  8
0
  6
CONTINUOUS
 62
     1
 10
945.957463934
 20
707.493573333
 30
0.0
 40
1.0
 50
15.0
 51
90.0
  0
LINE
  8
0
  6
CONTINUOUS
 62
     1
 10
950.54542997
 20
694.234754288
 30
0.0
 11
946.92338976
 21
707.752392378
 31
0.0
  0
ARC
  8
0
  6
CONTINUOUS
 62
     1
 10
951.511355796
 20
694.493573333
 30
0.0
 40
1.0
 50
195.0
 51
270.0
  0
ARC
  8
0
  6
CONTINUOUS
 62
     1
 10
951.51135647
 20
694.493573333
 30
0.0
 40
1.0
 50
270.0
 51
345.0
  0
LINE
  8
0
  6
CONTINUOUS
 62
     1
 10
952.477282297
 20
694.234754288
 30
0.0
 11
956.099322507
 21
707.752392378
 31
0.0
  0
ARC
  8
0
  6
CONTINUOUS
 62
     1
 10
957.065248333
 20
707.493573333
 30
0.0
 40
1.0
 50
90.0
 51
165.0
  0
ARC
  8
0
  6
CONTINUOUS
 62
     1
 10
957.065248333
 20
707.493573333
 30
0.0
 40
1.0
 50
15.0
 51
90.0
  0
LINE
  8
0
  6
CONTINUOUS
 62
     1
 10
961.653214369
 20
694.234754288
 30
0.0
 11
958.031174159
 21
707.752392378
 31
0.0
  0
ARC
  8
0
  6
CONTINUOUS
 62
     1
 10
962.619140195
 20
694.493573333
 30
0.0
 40
1.0
 50
195.0
 51
270.0
  0
LINE
  8
0
  6
CONTINUOUS
 62
     1
 10
925.635
 20
693.493573333
 30
0.0
 11
935.635
 21
693.493573333
 31
0.0
  0
LINE
  8
0
  6
CONTINUOUS
 62
     1
 10
935.579743763
 20
691.493573333
 30
0.0
 11
940.635
 21
691.493573333
 31
0.0
  0
LINE
  8
0
  6
CONTINUOUS
 62
     1
 10
920.635
 20
691.493573333
 30
0.0
 11
925.579743763
 21
691.493573333
 31
0.0
  0
LINE
  8
0
  6
CONTINUOUS
 62
     1
 10
925.635
 20
633.493573333
 30
0.0
 11
925.635
 21
693.493573333
 31
0.0
  0
LINE
  8
0
  6
CONTINUOUS
 62
     1
 10
935.635
 20
633.493573333
 30
0.0
 11
935.635
 21
693.493573333
 31
0.0
  0
LINE
  8
0
  6
CONTINUOUS
 62
     1
 10
940.635
 20
575.493573333
 30
0.0
 11
944.991537433
 21
559.234754288
 31
0.0
  0
ARC
  8
0
  6
CONTINUOUS
 62
     1
 10
945.957463259
 20
559.493573333
 30
0.0
 40
1.0
 50
195.0
 51
270.0
  0
ARC
  8
0
  6
CONTINUOUS
 62
     1
 10
945.957463934
 20
559.493573333
 30
0.0
 40
1.0
 50
270.0
 51
345.0
  0
LINE
  8
0
  6
CONTINUOUS
 62
     1
 10
950.54542997
 20
572.752392378
 30
0.0
 11
946.92338976
 21
559.234754288
 31
0.0
  0
ARC
  8
0
  6
CONTINUOUS
 62
     1
 10
951.511355796
 20
572.493573333
 30
0.0
 40
1.0
 50
90.0
 51
165.0
  0
ARC
  8
0
  6
CONTINUOUS
 62
     1
 10
951.51135647
 20
572.493573333
 30
0.0
 40
1.0
 50
15.0
 51
90.0
  0
LINE
  8
0
  6
CONTINUOUS
 62
     1
 10
952.477282297
 20
572.752392378
 30
0.0
 11
956.099322507
 21
559.234754288
 31
0.0
  0
ARC
  8
0
  6
CONTINUOUS
 62
     1
 10
957.065248333
 20
559.493573333
 30
0.0
 40
1.0
 50
195.0
 51
270.0
  0
ARC
  8
0
  6
CONTINUOUS
 62
     1
 10
957.065248333
 20
559.493573333
 30
0.0
 40
1.0
 50
270.0
 51
345.0
  0
LINE
  8
0
  6
CONTINUOUS
 62
     1
 10
961.653214369
 20
572.752392378
 30
0.0
 11
958.031174159
 21
559.234754288
 31
0.0
  0
ARC
  8
0
  6
CONTINUOUS
 62
     1
 10
962.619140195
 20
572.493573333
 30
0.0
 40
1.0
 50
90.0
 51
165.0
  0
LINE
  8
0
  6
CONTINUOUS
 62
     1
 10
935.579743763
 20
575.493573333
 30
0.0
 11
940.635
 21
575.493573333
 31
0.0
  0
LINE
  8
0
  6
CONTINUOUS
 62
     1
 10
945.957463259
 20
708.493573333
 30
0.0
 11
945.957463259
 21
633.493573333
 31
0.0
  0
LINE
  8
0
  6
CONTINUOUS
 62
     1
 10
951.511355796
 20
693.493573333
 30
0.0
 11
951.511355796
 21
633.493573333
 31
0.0
  0
LINE
  8
0
  6
CONTINUOUS
 62
     1
 10
957.065248333
 20
708.493573333
 30
0.0
 11
957.065248333
 21
634.593573333
 31
0.0
  0
LINE
  8
0
  6
CONTINUOUS
 62
     1
 10
962.619140195
 20
693.493573333
 30
0.0
 11
962.619140195
 21
633.493573333
 31
0.0
  0
LINE
  8
0
  6
CONTINUOUS
 62
     1
 10
1005.635
 20
576.493573333
 30
0.0
 11
1005.635
 21
633.493573333
 31
0.0
  0
LINE
  8
0
  6
CONTINUOUS
 62
     1
 10
1005.635
 20
595.993573333
 30
0.0
 11
1075.635
 21
595.993573333
 31
0.0
  0
LINE
  8
0
  6
CONTINUOUS
 62
     1
 10
767.735
 20
658.493573333
 30
0.0
 11
817.735
 21
658.493573333
 31
0.0
  0
LINE
  8
0
  6
CONTINUOUS
 62
     1
 10
817.735
 20
658.493573333
 30
0.0
 11
817.735
 21
608.493573333
 31
0.0
  0
LINE
  8
0
  6
CONTINUOUS
 62
     1
 10
767.735
 20
608.493573333
 30
0.0
 11
817.735
 21
608.493573333
 31
0.0
  0
LINE
  8
0
  6
CONTINUOUS
 62
     1
 10
767.735
 20
658.493573333
 30
0.0
 11
767.735
 21
608.493573333
 31
0.0
  0
CIRCLE
  8
0
  6
CONTINUOUS
 62
     1
 10
792.735
 20
633.493573333
 30
0.0
 40
25.0
  0
LINE
  8
0
  6
LTYPE3
 62
     2
 10
1164.635
 20
582.443573333
 30
0.0
 11
1164.635
 21
681.193573333
 31
0.0
  0
LINE
  8
0
  6
LTYPE3
 62
     2
 10
792.735
 20
670.693573333
 30
0.0
 11
792.735
 21
596.693573333
 31
0.0
  0
LINE
  8
0
  6
CONTINUOUS
 62
     1
 10
1094.635
 20
670.993573333
 30
0.0
 11
1094.635
 21
595.993573333
 31
0.0
  0
LINE
  8
0
  6
CONTINUOUS
 62
     1
 10
1184.635
 20
670.993573333
 30
0.0
 11
1094.635
 21
670.993573333
 31
0.0
  0
LINE
  8
0
  6
CONTINUOUS
 62
     1
 10
1199.635
 20
655.993573333
 30
0.0
 11
1184.635
 21
670.993573333
 31
0.0
  0
LINE
  8
0
  6
CONTINUOUS
 62
     1
 10
1184.635
 20
595.993573333
 30
0.0
 11
1094.635
 21
595.993573333
 31
0.0
  0
LINE
  8
0
  6
CONTINUOUS
 62
     1
 10
1199.635
 20
655.993573333
 30
0.0
 11
1199.635
 21
610.993573333
 31
0.0
  0
LINE
  8
0
  6
CONTINUOUS
 62
     1
 10
1184.635
 20
595.993573333
 30
0.0
 11
1199.635
 21
610.993573333
 31
0.0
  0
LINE
  8
0
  6
LTYPE1
 62
     2
 10
1114.635
 20
670.993573333
 30
0.0
 11
1114.635
 21
595.993573333
 31
0.0
  0
LINE
  8
0
  6
LTYPE3
 62
     2
 10
1164.635
 20
681.693573333
 30
0.0
 11
1164.635
 21
587.693573333
 31
0.0
  0
LINE
  8
0
  6
LTYPE2
 62
     2
 10
1213.035
 20
633.493573333
 30
0.0
 11
292.635
 21
633.493573333
 31
0.0
  0
LINE
  8
0
  6
LTYPE2
 62
     2
 10
1164.635
 20
827.193573333
 30
0.0
 11
1164.635
 21
950.193573333
 31
0.0
  0
LINE
  8
0
  6
CONTINUOUS
 62
     1
 10
1114.635
 20
870.193573333
 30
0.0
 11
1199.635
 21
870.193573333
 31
0.0
  0
LINE
  8
0
  6
CONTINUOUS
 62
     1
 10
1199.635
 20
850.193573333
 30
0.0
 11
1199.635
 21
870.193573333
 31
0.0
  0
LINE
  8
0
  6
CONTINUOUS
 62
     1
 10
1114.635
 20
910.193573333
 30
0.0
 11
1199.635
 21
910.193573333
 31
0.0
  0
LINE
  8
0
  6
CONTINUOUS
 62
     1
 10
1199.635
 20
930.193573333
 30
0.0
 11
1199.635
 21
910.193573333
 31
0.0
  0
LINE
  8
0
  6
CONTINUOUS
 62
     1
 10
1114.635
 20
870.193573333
 30
0.0
 11
1114.635
 21
910.193573333
 31
0.0
  0
LINE
  8
0
  6
CONTINUOUS
 62
     1
 10
1149.635
 20
870.193573333
 30
0.0
 11
1149.635
 21
910.193573333
 31
0.0
  0
LINE
  8
0
  6
CONTINUOUS
 62
     1
 10
1179.635
 20
870.193573333
 30
0.0
 11
1179.635
 21
910.193573333
 31
0.0
  0
LINE
  8
0
  6
LTYPE1
 62
     2
 10
1149.635
 20
910.193573333
 30
0.0
 11
1149.635
 21
930.193573333
 31
0.0
  0
LINE
  8
0
  6
LTYPE1
 62
     2
 10
1179.635
 20
910.193573333
 30
0.0
 11
1179.635
 21
930.193573333
 31
0.0
  0
LINE
  8
0
  6
CONTINUOUS
 62
     1
 10
1136.635
 20
846.193573333
 30
0.0
 11
1192.635
 21
846.193573333
 31
0.0
  0
LINE
  8
0
  6
CONTINUOUS
 62
     1
 10
1136.635
 20
846.193573333
 30
0.0
 11
1136.635
 21
850.193573333
 31
0.0
  0
LINE
  8
0
  6
CONTINUOUS
 62
     1
 10
1192.635
 20
846.193573333
 30
0.0
 11
1192.635
 21
850.193573333
 31
0.0
  0
LINE
  8
0
  6
CONTINUOUS
 62
     1
 10
1149.635
 20
836.193573333
 30
0.0
 11
1179.635
 21
836.193573333
 31
0.0
  0
LINE
  8
0
  6
CONTINUOUS
 62
     1
 10
1149.635
 20
836.193573333
 30
0.0
 11
1149.635
 21
846.193573333
 31
0.0
  0
LINE
  8
0
  6
CONTINUOUS
 62
     1
 10
1179.635
 20
836.193573333
 30
0.0
 11
1179.635
 21
846.193573333
 31
0.0
  0
LINE
  8
0
  6
LTYPE1
 62
     2
 10
1179.635
 20
846.193573333
 30
0.0
 11
1179.635
 21
870.193573333
 31
0.0
  0
LINE
  8
0
  6
LTYPE1
 62
     2
 10
1149.635
 20
846.193573333
 30
0.0
 11
1149.635
 21
870.193573333
 31
0.0
  0
LINE
  8
0
  6
CONTINUOUS
 62
     1
 10
1136.635
 20
934.193573333
 30
0.0
 11
1192.635
 21
934.193573333
 31
0.0
  0
LINE
  8
0
  6
CONTINUOUS
 62
     1
 10
1136.635
 20
934.193573333
 30
0.0
 11
1136.635
 21
930.193573333
 31
0.0
  0
LINE
  8
0
  6
CONTINUOUS
 62
     1
 10
1192.635
 20
934.193573333
 30
0.0
 11
1192.635
 21
930.193573333
 31
0.0
  0
LINE
  8
0
  6
CONTINUOUS
 62
     1
 10
1149.635
 20
944.193573333
 30
0.0
 11
1179.635
 21
944.193573333
 31
0.0
  0
LINE
  8
0
  6
CONTINUOUS
 62
     1
 10
1149.635
 20
944.193573333
 30
0.0
 11
1149.635
 21
934.193573333
 31
0.0
  0
LINE
  8
0
  6
CONTINUOUS
 62
     1
 10
1179.635
 20
944.193573333
 30
0.0
 11
1179.635
 21
934.193573333
 31
0.0
  0
LINE
  8
0
  6
LTYPE2
 62
     2
 10
1157.635
 20
842.593573333
 30
0.0
 11
1173.635
 21
842.593573333
 31
0.0
  0
CIRCLE
  8
0
  6
CONTINUOUS
 62
     1
 10
1164.635
 20
842.593573333
 30
0.0
 40
3.0
  0
LINE
  8
0
  6
LTYPE2
 62
     2
 10
1157.635
 20
937.793573333
 30
0.0
 11
1173.635
 21
937.793573333
 31
0.0
  0
CIRCLE
  8
0
  6
CONTINUOUS
 62
     1
 10
1164.635
 20
937.793573333
 30
0.0
 40
3.0
  0
LINE
  8
0
  6
CONTINUOUS
 62
     2
 10
1193.635
 20
670.993573333
 30
0.0
 11
1261.635
 21
670.993573333
 31
0.0
  0
LINE
  8
0
  6
CONTINUOUS
 62
     2
 10
1252.635
 20
670.993573333
 30
0.0
 11
1248.752714323
 21
656.504685939
 31
0.0
  0
LINE
  8
0
  6
CONTINUOUS
 62
     2
 10
1252.635
 20
670.993573333
 30
0.0
 11
1256.517285677
 21
656.504685939
 31
0.0
  0
LINE
  8
0
  6
CONTINUOUS
 62
     2
 10
1252.635
 20
670.993573333
 30
0.0
 11
1252.635
 21
595.993573333
 31
0.0
  0
LINE
  8
0
  6
CONTINUOUS
 62
     2
 10
1252.635
 20
595.993573333
 30
0.0
 11
1256.517285677
 21
610.482460728
 31
0.0
  0
LINE
  8
0
  6
CONTINUOUS
 62
     2
 10
1252.635
 20
595.993573333
 30
0.0
 11
1248.752714323
 21
610.482460728
 31
0.0
  0
LINE
  8
0
  6
CONTINUOUS
 62
     2
 10
1193.635
 20
595.993573333
 30
0.0
 11
1261.635
 21
595.993573333
 31
0.0
  0
LINE
  8
0
  6
CONTINUOUS
 62
     2
 10
1208.635
 20
910.193573333
 30
0.0
 11
1261.135
 21
910.193573333
 31
0.0
  0
LINE
  8
0
  6
CONTINUOUS
 62
     2
 10
1252.135
 20
910.193573333
 30
0.0
 11
1248.252714323
 21
895.704685939
 31
0.0
  0
LINE
  8
0
  6
CONTINUOUS
 62
     2
 10
1252.135
 20
910.193573333
 30
0.0
 11
1256.017285677
 21
895.704685939
 31
0.0
  0
LINE
  8
0
  6
CONTINUOUS
 62
     2
 10
1252.135
 20
910.193573333
 30
0.0
 11
1252.135
 21
870.193573333
 31
0.0
  0
LINE
  8
0
  6
CONTINUOUS
 62
     2
 10
1252.135
 20
870.193573333
 30
0.0
 11
1256.017285677
 21
884.682460728
 31
0.0
  0
LINE
  8
0
  6
CONTINUOUS
 62
     2
 10
1252.135
 20
870.193573333
 30
0.0
 11
1248.252714323
 21
884.682460728
 31
0.0
  0
LINE
  8
0
  6
CONTINUOUS
 62
     2
 10
1208.635
 20
870.193573333
 30
0.0
 11
1261.135
 21
870.193573333
 31
0.0
  0
LINE
  8
0
  6
CONTINUOUS
 62
     2
 10
1208.635
 20
850.193573333
 30
0.0
 11
1301.635
 21
850.193573333
 31
0.0
  0
LINE
  8
0
  6
CONTINUOUS
 62
     2
 10
1292.635
 20
850.193573333
 30
0.0
 11
1296.517285677
 21
864.682460728
 31
0.0
  0
LINE
  8
0
  6
CONTINUOUS
 62
     2
 10
1292.635
 20
850.193573333
 30
0.0
 11
1288.752714323
 21
864.682460728
 31
0.0
  0
LINE
  8
0
  6
CONTINUOUS
 62
     2
 10
1292.635
 20
850.193573333
 30
0.0
 11
1292.635
 21
930.193573333
 31
0.0
  0
LINE
  8
0
  6
CONTINUOUS
 62
     2
 10
1292.635
 20
930.193573333
 30
0.0
 11
1288.752714323
 21
915.704685939
 31
0.0
  0
LINE
  8
0
  6
CONTINUOUS
 62
     2
 10
1292.635
 20
930.193573333
 30
0.0
 11
1296.517285677
 21
915.704685939
 31
0.0
  0
LINE
  8
0
  6
CONTINUOUS
 62
     2
 10
1208.635
 20
930.193573333
 30
0.0
 11
1301.635
 21
930.193573333
 31
0.0
  0
LINE
  8
0
  6
CONTINUOUS
 62
     2
 10
1149.635
 20
837.193573333
 30
0.0
 11
1149.635
 21
781.193573333
 31
0.0
  0
LINE
  8
0
  6
CONTINUOUS
 62
     2
 10
1149.635
 20
790.193573333
 30
0.0
 11
1135.146112606
 21
794.07585901
 31
0.0
  0
LINE
  8
0
  6
CONTINUOUS
 62
     2
 10
1149.635
 20
790.193573333
 30
0.0
 11
1135.146112606
 21
786.311287657
 31
0.0
  0
LINE
  8
0
  6
CONTINUOUS
 62
     2
 10
1127.135
 20
790.193573333
 30
0.0
 11
1287.935
 21
790.193573333
 31
0.0
  0
LINE
  8
0
  6
CONTINUOUS
 62
     2
 10
1179.635
 20
790.193573333
 30
0.0
 11
1194.123887394
 21
786.311287657
 31
0.0
  0
LINE
  8
0
  6
CONTINUOUS
 62
     2
 10
1179.635
 20
790.193573333
 30
0.0
 11
1194.123887394
 21
794.07585901
 31
0.0
  0
LINE
  8
0
  6
CONTINUOUS
 62
     2
 10
1179.635
 20
827.193573333
 30
0.0
 11
1179.635
 21
781.193573333
 31
0.0
  0
LINE
  8
0
  6
CONTINUOUS
 62
     2
 10
1114.635
 20
861.193573333
 30
0.0
 11
1114.635
 21
745.193573333
 31
0.0
  0
LINE
  8
0
  6
CONTINUOUS
 62
     2
 10
1114.635
 20
754.193573333
 30
0.0
 11
1129.123887394
 21
750.311287657
 31
0.0
  0
LINE
  8
0
  6
CONTINUOUS
 62
     2
 10
1114.635
 20
754.193573333
 30
0.0
 11
1129.123887394
 21
758.07585901
 31
0.0
  0
LINE
  8
0
  6
CONTINUOUS
 62
     2
 10
1114.635
 20
754.193573333
 30
0.0
 11
1164.635
 21
754.193573333
 31
0.0
  0
LINE
  8
0
  6
CONTINUOUS
 62
     2
 10
1164.635
 20
754.193573333
 30
0.0
 11
1150.146112606
 21
758.07585901
 31
0.0
  0
LINE
  8
0
  6
CONTINUOUS
 62
     2
 10
1164.635
 20
754.193573333
 30
0.0
 11
1150.146112606
 21
750.311287657
 31
0.0
  0
LINE
  8
0
  6
CONTINUOUS
 62
     2
 10
1164.635
 20
818.193573333
 30
0.0
 11
1164.635
 21
745.193573333
 31
0.0
  0
LINE
  8
0
  6
LTYPE2
 62
     2
 10
1082.435
 20
890.193573333
 30
0.0
 11
1204.835
 21
890.193573333
 31
0.0
  0
LINE
  8
0
  6
CONTINUOUS
 62
     1
 10
1634.135
 20
618.493573333
 30
0.0
 11
1594.135
 21
618.493573333
 31
0.0
  0
LINE
  8
0
  6
CONTINUOUS
 62
     1
 10
1634.135
 20
648.493573333
 30
0.0
 11
1594.135
 21
648.493573333
 31
0.0
  0
LINE
  8
0
  6
LTYPE1
 62
     2
 10
1594.135
 20
618.493573333
 30
0.0
 11
1574.135
 21
618.493573333
 31
0.0
  0
LINE
  8
0
  6
LTYPE1
 62
     2
 10
1594.135
 20
648.493573333
 30
0.0
 11
1574.135
 21
648.493573333
 31
0.0
  0
LINE
  8
0
  6
CONTINUOUS
 62
     1
 10
1658.135
 20
605.493573333
 30
0.0
 11
1658.135
 21
661.493573333
 31
0.0
  0
LINE
  8
0
  6
CONTINUOUS
 62
     1
 10
1658.135
 20
605.493573333
 30
0.0
 11
1654.135
 21
605.493573333
 31
0.0
  0
LINE
  8
0
  6
CONTINUOUS
 62
     1
 10
1658.135
 20
661.493573333
 30
0.0
 11
1654.135
 21
661.493573333
 31
0.0
  0
LINE
  8
0
  6
CONTINUOUS
 62
     1
 10
1668.135
 20
618.493573333
 30
0.0
 11
1668.135
 21
648.493573333
 31
0.0
  0
LINE
  8
0
  6
CONTINUOUS
 62
     1
 10
1668.135
 20
618.493573333
 30
0.0
 11
1658.135
 21
618.493573333
 31
0.0
  0
LINE
  8
0
  6
CONTINUOUS
 62
     1
 10
1668.135
 20
648.493573333
 30
0.0
 11
1658.135
 21
648.493573333
 31
0.0
  0
LINE
  8
0
  6
LTYPE1
 62
     2
 10
1658.135
 20
648.493573333
 30
0.0
 11
1634.135
 21
648.493573333
 31
0.0
  0
LINE
  8
0
  6
LTYPE1
 62
     2
 10
1658.135
 20
618.493573333
 30
0.0
 11
1634.135
 21
618.493573333
 31
0.0
  0
LINE
  8
0
  6
CONTINUOUS
 62
     1
 10
1570.135
 20
605.493573333
 30
0.0
 11
1570.135
 21
661.493573333
 31
0.0
  0
LINE
  8
0
  6
CONTINUOUS
 62
     1
 10
1570.135
 20
605.493573333
 30
0.0
 11
1574.135
 21
605.493573333
 31
0.0
  0
LINE
  8
0
  6
CONTINUOUS
 62
     1
 10
1570.135
 20
661.493573333
 30
0.0
 11
1574.135
 21
661.493573333
 31
0.0
  0
LINE
  8
0
  6
CONTINUOUS
 62
     1
 10
1560.135
 20
618.493573333
 30
0.0
 11
1560.135
 21
648.493573333
 31
0.0
  0
LINE
  8
0
  6
CONTINUOUS
 62
     1
 10
1560.135
 20
618.493573333
 30
0.0
 11
1570.135
 21
618.493573333
 31
0.0
  0
LINE
  8
0
  6
CONTINUOUS
 62
     1
 10
1560.135
 20
648.493573333
 30
0.0
 11
1570.135
 21
648.493573333
 31
0.0
  0
LINE
  8
0
  6
LTYPE2
 62
     2
 10
1661.735
 20
626.493573333
 30
0.0
 11
1661.735
 21
642.493573333
 31
0.0
  0
CIRCLE
  8
0
  6
CONTINUOUS
 62
     1
 10
1661.735
 20
633.493573333
 30
0.0
 40
3.0
  0
LINE
  8
0
  6
LTYPE2
 62
     2
 10
1566.535
 20
626.493573333
 30
0.0
 11
1566.535
 21
642.493573333
 31
0.0
  0
CIRCLE
  8
0
  6
CONTINUOUS
 62
     1
 10
1566.535
 20
633.493573333
 30
0.0
 40
3.0
  0
LINE
  8
0
  6
CONTINUOUS
 62
     1
 10
1654.135
 20
670.993573333
 30
0.0
 11
1574.135
 21
670.993573333
 31
0.0
  0
LINE
  8
0
  6
CONTINUOUS
 62
     1
 10
1594.135
 20
595.993573333
 30
0.0
 11
1594.135
 21
670.993573333
 31
0.0
  0
LINE
  8
0
  6
CONTINUOUS
 62
     1
 10
1574.135
 20
595.993573333
 30
0.0
 11
1574.135
 21
670.993573333
 31
0.0
  0
LINE
  8
0
  6
CONTINUOUS
 62
     1
 10
1634.135
 20
595.993573333
 30
0.0
 11
1634.135
 21
670.993573333
 31
0.0
  0
LINE
  8
0
  6
CONTINUOUS
 62
     1
 10
1654.135
 20
595.993573333
 30
0.0
 11
1574.135
 21
595.993573333
 31
0.0
  0
LINE
  8
0
  6
CONTINUOUS
 62
     1
 10
1654.135
 20
595.993573333
 30
0.0
 11
1654.135
 21
670.993573333
 31
0.0
  0
LINE
  8
0
  6
LTYPE2
 62
     2
 10
1731.135
 20
633.493573333
 30
0.0
 11
1508.135
 21
633.493573333
 31
0.0
  0
LINE
  8
0
  6
LTYPE1
 62
     2
 10
1539.135
 20
618.493573333
 30
0.0
 11
1504.135
 21
618.493573333
 31
0.0
  0
LINE
  8
0
  6
LTYPE1
 62
     2
 10
1539.135
 20
648.493573333
 30
0.0
 11
1504.135
 21
648.493573333
 31
0.0
  0
LINE
  8
0
  6
LTYPE1
 62
     2
 10
1539.135
 20
618.493573333
 30
0.0
 11
1539.135
 21
648.493573333
 31
0.0
  0
ARC
  8
0
  6
CONTINUOUS
 62
     1
 10
1566.135
 20
560.993573333
 30
0.0
 40
3.0
 50
90.0
 51
180.0
  0
LINE
  8
0
  6
CONTINUOUS
 62
     1
 10
1563.135
 20
514.493573333
 30
0.0
 11
1563.135
 21
560.993573333
 31
0.0
  0
ARC
  8
0
  6
CONTINUOUS
 62
     1
 10
1564.135
 20
514.493573333
 30
0.0
 40
1.0
 50
180.0
 51
270.0
  0
ARC
  8
0
  6
CONTINUOUS
 62
     1
 10
1567.135
 20
513.493573333
 30
0.0
 40
1.0
 50
180.0
 51
270.0
  0
ARC
  8
0
  6
CONTINUOUS
 62
     1
 10
1662.135
 20
560.993573333
 30
0.0
 40
3.0
 50
0.0
 51
90.0
  0
LINE
  8
0
  6
CONTINUOUS
 62
     1
 10
1665.135
 20
514.493573333
 30
0.0
 11
1665.135
 21
560.993573333
 31
0.0
  0
ARC
  8
0
  6
CONTINUOUS
 62
     1
 10
1664.135
 20
514.493573333
 30
0.0
 40
1.0
 50
270.0
 51
0.0
  0
ARC
  8
0
  6
CONTINUOUS
 62
     1
 10
1661.135
 20
513.493573333
 30
0.0
 40
1.0
 50
270.0
 51
0.0
  0
LINE
  8
0
  6
CONTINUOUS
 62
     1
 10
1665.135
 20
519.493573333
 30
0.0
 11
1563.135
 21
519.493573333
 31
0.0
  0
LINE
  8
0
  6
CONTINUOUS
 62
     1
 10
1665.135
 20
520.993573333
 30
0.0
 11
1563.135
 21
520.993573333
 31
0.0
  0
LINE
  8
0
  6
CONTINUOUS
 62
     1
 10
1661.135
 20
512.493573333
 30
0.0
 11
1567.135
 21
512.493573333
 31
0.0
  0
LINE
  8
0
  6
CONTINUOUS
 62
     1
 10
1664.135
 20
513.493573333
 30
0.0
 11
1564.135
 21
513.493573333
 31
0.0
  0
LINE
  8
0
  6
LTYPE3
 62
     2
 10
1659.135
 20
508.793573333
 30
0.0
 11
1659.135
 21
527.493573333
 31
0.0
  0
LINE
  8
0
  6
LTYPE3
 62
     2
 10
1569.135
 20
508.793573333
 30
0.0
 11
1569.135
 21
527.493573333
 31
0.0
  0
LINE
  8
0
  6
LTYPE3
 62
     3
 10
1614.135
 20
507.993573333
 30
0.0
 11
1614.135
 21
567.143573333
 31
0.0
  0
LINE
  8
0
  6
CONTINUOUS
 62
     1
 10
1642.635
 20
563.993573333
 30
0.0
 11
1662.135
 21
563.993573333
 31
0.0
  0
LINE
  8
0
  6
CONTINUOUS
 62
     1
 10
1566.135
 20
563.993573333
 30
0.0
 11
1573.635
 21
563.993573333
 31
0.0
  0
LINE
  8
0
  6
CONTINUOUS
 62
     1
 10
1645.635
 20
565.493573333
 30
0.0
 11
1660.135
 21
565.493573333
 31
0.0
  0
CIRCLE
  8
0
  6
CONTINUOUS
 62
     2
 10
1614.135
 20
537.993573333
 30
0.0
 40
10.4775
  0
CIRCLE
  8
0
  6
CONTINUOUS
 62
     2
 10
1614.135
 20
537.993573333
 30
0.0
 40
9.3155
  0
LINE
  8
0
  6
LTYPE2
 62
     2
 10
1634.035
 20
537.993573333
 30
0.0
 11
1593.335
 21
537.993573333
 31
0.0
  0
LINE
  8
0
  6
LTYPE2
 62
     2
 10
1691.635
 20
573.493573333
 30
0.0
 11
1657.635
 21
573.493573333
 31
0.0
  0
LINE
  8
0
  6
LTYPE2
 62
     2
 10
1674.135
 20
554.993573333
 30
0.0
 11
1674.135
 21
590.993573333
 31
0.0
  0
LINE
  8
0
  6
CONTINUOUS
 62
     1
 10
1686.135
 20
553.493573333
 30
0.0
 11
1665.135
 21
553.493573333
 31
0.0
  0
ARC
  8
0
  6
CONTINUOUS
 62
     1
 10
1686.135
 20
561.493573333
 30
0.0
 40
8.0
 50
270.0
 51
0.0
  0
LINE
  8
0
  6
LTYPE2
 62
     2
 10
1536.635
 20
573.493573333
 30
0.0
 11
1570.635
 21
573.493573333
 31
0.0
  0
LINE
  8
0
  6
LTYPE2
 62
     2
 10
1554.135
 20
554.993573333
 30
0.0
 11
1554.135
 21
590.993573333
 31
0.0
  0
LINE
  8
0
  6
CONTINUOUS
 62
     1
 10
1542.135
 20
553.493573333
 30
0.0
 11
1563.135
 21
553.493573333
 31
0.0
  0
ARC
  8
0
  6
CONTINUOUS
 62
     1
 10
1542.135
 20
561.493573333
 30
0.0
 40
8.0
 50
180.0
 51
270.0
  0
ARC
  8
0
  6
CONTINUOUS
 62
     1
 10
1554.135
 20
573.493573333
 30
0.0
 40
12.0
 50
94.763641691
 51
352.234833982
  0
ARC
  8
0
  6
CONTINUOUS
 62
     1
 10
1674.135
 20
573.493573333
 30
0.0
 40
12.0
 50
160.016893478
 51
113.198590514
  0
LINE
  8
0
  6
LTYPE2
 62
     2
 10
1691.635
 20
693.493573333
 30
0.0
 11
1657.635
 21
693.493573333
 31
0.0
  0
LINE
  8
0
  6
LTYPE2
 62
     2
 10
1674.135
 20
711.993573333
 30
0.0
 11
1674.135
 21
675.993573333
 31
0.0
  0
ARC
  8
0
  6
CONTINUOUS
 62
     1
 10
1686.135
 20
705.493573333
 30
0.0
 40
8.0
 50
0.0
 51
90.0
  0
ARC
  8
0
  6
CONTINUOUS
 62
     1
 10
1674.135
 20
693.493573333
 30
0.0
 40
12.0
 50
277.43140797
 51
172.874983651
  0
LINE
  8
0
  6
CONTINUOUS
 62
     2
 10
654.135
 20
537.493573333
 30
0.0
 11
665.092354441
 21
527.249727198
 31
0.0
  0
LINE
  8
0
  6
CONTINUOUS
 62
     2
 10
654.135
 20
537.493573333
 30
0.0
 11
668.746270372
 21
534.100819568
 31
0.0
  0
LINE
  8
0
  6
CONTINUOUS
 62
     2
 10
654.135
 20
537.493573333
 30
0.0
 11
714.135
 21
505.493573333
 31
0.0
  0
LINE
  8
0
  6
CONTINUOUS
 62
     2
 10
714.135
 20
505.493573333
 30
0.0
 11
802.335
 21
505.493573333
 31
0.0
  0
LINE
  8
0
  6
CONTINUOUS
 62
     2
 10
530.035
 20
579.493573333
 30
0.0
 11
530.035
 21
387.493573333
 31
0.0
  0
LINE
  8
0
  6
CONTINUOUS
 62
     2
 10
530.035
 20
396.493573333
 30
0.0
 11
515.546112606
 21
400.37585901
 31
0.0
  0
LINE
  8
0
  6
CONTINUOUS
 62
     2
 10
530.035
 20
396.493573333
 30
0.0
 11
515.546112606
 21
392.611287657
 31
0.0
  0
LINE
  8
0
  6
CONTINUOUS
 62
     2
 10
530.035
 20
396.493573333
 30
0.0
 11
430.035
 21
396.493573333
 31
0.0
  0
LINE
  8
0
  6
CONTINUOUS
 62
     2
 10
430.035
 20
396.493573333
 30
0.0
 11
444.523887394
 21
392.611287657
 31
0.0
  0
LINE
  8
0
  6
CONTINUOUS
 62
     2
 10
430.035
 20
396.493573333
 30
0.0
 11
444.523887394
 21
400.37585901
 31
0.0
  0
LINE
  8
0
  6
CONTINUOUS
 62
     2
 10
430.035
 20
529.493573333
 30
0.0
 11
430.035
 21
387.493573333
 31
0.0
  0
LINE
  8
0
  6
CONTINUOUS
 62
     2
 10
430.035
 20
396.493573333
 30
0.0
 11
415.546112606
 21
400.37585901
 31
0.0
  0
LINE
  8
0
  6
CONTINUOUS
 62
     2
 10
430.035
 20
396.493573333
 30
0.0
 11
415.546112606
 21
392.611287657
 31
0.0
  0
LINE
  8
0
  6
CONTINUOUS
 62
     2
 10
430.035
 20
396.493573333
 30
0.0
 11
304.035
 21
396.493573333
 31
0.0
  0
LINE
  8
0
  6
CONTINUOUS
 62
     2
 10
304.035
 20
396.493573333
 30
0.0
 11
318.523887394
 21
392.611287657
 31
0.0
  0
LINE
  8
0
  6
CONTINUOUS
 62
     2
 10
304.035
 20
396.493573333
 30
0.0
 11
318.523887394
 21
400.37585901
 31
0.0
  0
LINE
  8
0
  6
CONTINUOUS
 62
     2
 10
304.035
 20
529.493573333
 30
0.0
 11
304.035
 21
387.493573333
 31
0.0
  0
LINE
  8
0
  6
CONTINUOUS
 62
     2
 10
304.035
 20
387.493573333
 30
0.0
 11
304.035
 21
348.993573333
 31
0.0
  0
LINE
  8
0
  6
CONTINUOUS
 62
     2
 10
304.035
 20
357.993573333
 30
0.0
 11
318.523887394
 21
354.111287657
 31
0.0
  0
LINE
  8
0
  6
CONTINUOUS
 62
     2
 10
304.035
 20
357.993573333
 30
0.0
 11
318.523887394
 21
361.87585901
 31
0.0
  0
LINE
  8
0
  6
CONTINUOUS
 62
     2
 10
304.035
 20
357.993573333
 30
0.0
 11
530.035
 21
357.993573333
 31
0.0
  0
LINE
  8
0
  6
CONTINUOUS
 62
     2
 10
530.035
 20
357.993573333
 30
0.0
 11
515.546112606
 21
361.87585901
 31
0.0
  0
LINE
  8
0
  6
CONTINUOUS
 62
     2
 10
530.035
 20
357.993573333
 30
0.0
 11
515.546112606
 21
354.111287657
 31
0.0
  0
LINE
  8
0
  6
CONTINUOUS
 62
     2
 10
530.035
 20
387.493573333
 30
0.0
 11
530.035
 21
348.993573333
 31
0.0
  0
LINE
  8
0
  6
CONTINUOUS
 62
     2
 10
530.035
 20
357.993573333
 30
0.0
 11
544.523887394
 21
354.111287657
 31
0.0
  0
LINE
  8
0
  6
CONTINUOUS
 62
     2
 10
530.035
 20
357.993573333
 30
0.0
 11
544.523887394
 21
361.87585901
 31
0.0
  0
LINE
  8
0
  6
CONTINUOUS
 62
     2
 10
530.035
 20
357.993573333
 30
0.0
 11
1164.635
 21
357.993573333
 31
0.0
  0
LINE
  8
0
  6
CONTINUOUS
 62
     2
 10
1164.635
 20
357.993573333
 30
0.0
 11
1150.146112606
 21
361.87585901
 31
0.0
  0
LINE
  8
0
  6
CONTINUOUS
 62
     2
 10
1164.635
 20
357.993573333
 30
0.0
 11
1150.146112606
 21
354.111287657
 31
0.0
  0
LINE
  8
0
  6
CONTINUOUS
 62
     2
 10
1164.635
 20
573.443573333
 30
0.0
 11
1164.635
 21
348.993573333
 31
0.0
  0
LINE
  8
0
  6
CONTINUOUS
 62
     2
 10
530.035
 20
396.493573333
 30
0.0
 11
544.523887394
 21
392.611287657
 31
0.0
  0
LINE
  8
0
  6
CONTINUOUS
 62
     2
 10
530.035
 20
396.493573333
 30
0.0
 11
544.523887394
 21
400.37585901
 31
0.0
  0
LINE
  8
0
  6
CONTINUOUS
 62
     2
 10
530.035
 20
396.493573333
 30
0.0
 11
1005.635
 21
396.493573333
 31
0.0
  0
LINE
  8
0
  6
CONTINUOUS
 62
     2
 10
1005.635
 20
396.493573333
 30
0.0
 11
991.146112606
 21
400.37585901
 31
0.0
  0
LINE
  8
0
  6
CONTINUOUS
 62
     2
 10
1005.635
 20
396.493573333
 30
0.0
 11
991.146112606
 21
392.611287657
 31
0.0
  0
LINE
  8
0
  6
CONTINUOUS
 62
     2
 10
1005.635
 20
567.493573333
 30
0.0
 11
1005.635
 21
387.493573333
 31
0.0
  0
LINE
  8
0
  6
CONTINUOUS
 62
     2
 10
1005.635
 20
396.493573333
 30
0.0
 11
1020.123887394
 21
392.611287657
 31
0.0
  0
LINE
  8
0
  6
CONTINUOUS
 62
     2
 10
1005.635
 20
396.493573333
 30
0.0
 11
1020.123887394
 21
400.37585901
 31
0.0
  0
LINE
  8
0
  6
CONTINUOUS
 62
     2
 10
1005.635
 20
396.493573333
 30
0.0
 11
1094.635
 21
396.493573333
 31
0.0
  0
LINE
  8
0
  6
CONTINUOUS
 62
     2
 10
1094.635
 20
396.493573333
 30
0.0
 11
1080.146112606
 21
400.37585901
 31
0.0
  0
LINE
  8
0
  6
CONTINUOUS
 62
     2
 10
1094.635
 20
396.493573333
 30
0.0
 11
1080.146112606
 21
392.611287657
 31
0.0
  0
LINE
  8
0
  6
CONTINUOUS
 62
     2
 10
1094.635
 20
396.493573333
 30
0.0
 11
1109.123887394
 21
392.611287657
 31
0.0
  0
LINE
  8
0
  6
CONTINUOUS
 62
     2
 10
1094.635
 20
396.493573333
 30
0.0
 11
1109.123887394
 21
400.37585901
 31
0.0
  0
LINE
  8
0
  6
CONTINUOUS
 62
     2
 10
1094.635
 20
396.493573333
 30
0.0
 11
1164.635
 21
396.493573333
 31
0.0
  0
LINE
  8
0
  6
CONTINUOUS
 62
     2
 10
1164.635
 20
396.493573333
 30
0.0
 11
1150.146112606
 21
400.37585901
 31
0.0
  0
LINE
  8
0
  6
CONTINUOUS
 62
     2
 10
1164.635
 20
396.493573333
 30
0.0
 11
1150.146112606
 21
392.611287657
 31
0.0
  0
LINE
  8
0
  6
CONTINUOUS
 62
     2
 10
1164.635
 20
348.993573333
 30
0.0
 11
1164.635
 21
310.993573333
 31
0.0
  0
LINE
  8
0
  6
CONTINUOUS
 62
     2
 10
304.035
 20
348.993573333
 30
0.0
 11
304.035
 21
310.993573333
 31
0.0
  0
LINE
  8
0
  6
CONTINUOUS
 62
     2
 10
1199.635
 20
601.993573333
 30
0.0
 11
1199.635
 21
310.993573333
 31
0.0
  0
LINE
  8
0
  6
CONTINUOUS
 62
     2
 10
553.135
 20
509.943573333
 30
0.0
 11
554.475582332
 21
495.003598801
 31
0.0
  0
LINE
  8
0
  6
CONTINUOUS
 62
     2
 10
553.135
 20
509.943573333
 30
0.0
 11
561.765965621
 21
497.675467023
 31
0.0
  0
LINE
  8
0
  6
CONTINUOUS
 62
     2
 10
553.135
 20
509.943573333
 30
0.0
 11
588.135
 21
414.443573333
 31
0.0
  0
LINE
  8
0
  6
CONTINUOUS
 62
     2
 10
588.135
 20
414.443573333
 30
0.0
 11
694.335
 21
414.443573333
 31
0.0
  0
LINE
  8
0
  6
CONTINUOUS
 62
     2
 10
1017.635
 20
815.193573333
 30
0.0
 11
1021.517285677
 21
829.682460728
 31
0.0
  0
LINE
  8
0
  6
CONTINUOUS
 62
     2
 10
1017.635
 20
815.193573333
 30
0.0
 11
1013.752714323
 21
829.682460728
 31
0.0
  0
LINE
  8
0
  6
CONTINUOUS
 62
     2
 10
1017.635
 20
815.193573333
 30
0.0
 11
1017.635
 21
965.193573333
 31
0.0
  0
LINE
  8
0
  6
CONTINUOUS
 62
     2
 10
1017.635
 20
965.193573333
 30
0.0
 11
1013.752714323
 21
950.704685939
 31
0.0
  0
LINE
  8
0
  6
CONTINUOUS
 62
     2
 10
1017.635
 20
965.193573333
 30
0.0
 11
1021.517285677
 21
950.704685939
 31
0.0
  0
LINE
  8
0
  6
CONTINUOUS
 62
     2
 10
1026.135
 20
965.193573333
 30
0.0
 11
1026.635
 21
965.193573333
 31
0.0
  0
LINE
  8
0
  6
CONTINUOUS
 62
     2
 10
1670.135
 20
512.493573333
 30
0.0
 11
1831.635
 21
512.493573333
 31
0.0
  0
LINE
  8
0
  6
CONTINUOUS
 62
     2
 10
1495.135
 20
618.493573333
 30
0.0
 11
1399.135
 21
618.493573333
 31
0.0
  0
LINE
  8
0
  6
CONTINUOUS
 62
     2
 10
1408.135
 20
618.493573333
 30
0.0
 11
1404.252714323
 21
604.004685939
 31
0.0
  0
LINE
  8
0
  6
CONTINUOUS
 62
     2
 10
1408.135
 20
618.493573333
 30
0.0
 11
1412.017285677
 21
604.004685939
 31
0.0
  0
LINE
  8
0
  6
CONTINUOUS
 62
     2
 10
1408.135
 20
595.993573333
 30
0.0
 11
1408.135
 21
721.993573333
 31
0.0
  0
LINE
  8
0
  6
CONTINUOUS
 62
     2
 10
1408.135
 20
648.493573333
 30
0.0
 11
1412.017285677
 21
662.982460728
 31
0.0
  0
LINE
  8
0
  6
CONTINUOUS
 62
     2
 10
1408.135
 20
648.493573333
 30
0.0
 11
1404.252714323
 21
662.982460728
 31
0.0
  0
LINE
  8
0
  6
CONTINUOUS
 62
     2
 10
1498.512633636
 20
648.493573333
 30
0.0
 11
1399.135
 21
648.493573333
 31
0.0
  0
LINE
  8
0
  6
CONTINUOUS
 62
     2
 10
1504.135
 20
589.493573333
 30
0.0
 11
1504.135
 21
393.993573333
 31
0.0
  0
LINE
  8
0
  6
CONTINUOUS
 62
     2
 10
1504.135
 20
402.993573333
 30
0.0
 11
1518.623887394
 21
399.111287657
 31
0.0
  0
LINE
  8
0
  6
CONTINUOUS
 62
     2
 10
1504.135
 20
402.993573333
 30
0.0
 11
1518.623887394
 21
406.87585901
 31
0.0
  0
LINE
  8
0
  6
CONTINUOUS
 62
     2
 10
1504.135
 20
402.993573333
 30
0.0
 11
1724.135
 21
402.993573333
 31
0.0
  0
LINE
  8
0
  6
CONTINUOUS
 62
     2
 10
1164.635
 20
319.993573333
 30
0.0
 11
304.035
 21
319.993573333
 31
0.0
  0
LINE
  8
0
  6
CONTINUOUS
 62
     2
 10
304.035
 20
319.993573333
 30
0.0
 11
318.523887394
 21
316.111287657
 31
0.0
  0
LINE
  8
0
  6
CONTINUOUS
 62
     2
 10
304.035
 20
319.993573333
 30
0.0
 11
318.523887394
 21
323.87585901
 31
0.0
  0
LINE
  8
0
  6
CONTINUOUS
 62
     2
 10
1164.635
 20
319.993573333
 30
0.0
 11
1150.146112606
 21
323.87585901
 31
0.0
  0
LINE
  8
0
  6
CONTINUOUS
 62
     2
 10
1164.635
 20
319.993573333
 30
0.0
 11
1150.146112606
 21
316.111287657
 31
0.0
  0
LINE
  8
0
  6
CONTINUOUS
 62
     2
 10
1164.635
 20
319.993573333
 30
0.0
 11
1179.123887394
 21
316.111287657
 31
0.0
  0
LINE
  8
0
  6
CONTINUOUS
 62
     2
 10
1164.635
 20
319.993573333
 30
0.0
 11
1179.123887394
 21
323.87585901
 31
0.0
  0
LINE
  8
0
  6
CONTINUOUS
 62
     2
 10
1164.635
 20
319.993573333
 30
0.0
 11
1199.635
 21
319.993573333
 31
0.0
  0
LINE
  8
0
  6
CONTINUOUS
 62
     2
 10
1199.635
 20
319.993573333
 30
0.0
 11
1185.146112606
 21
323.87585901
 31
0.0
  0
LINE
  8
0
  6
CONTINUOUS
 62
     2
 10
1199.635
 20
319.993573333
 30
0.0
 11
1185.146112606
 21
316.111287657
 31
0.0
  0
LINE
  8
0
  6
CONTINUOUS
 62
     1
 10
1563.135
 20
528.493573333
 30
0.0
 11
1515.135
 21
528.493573333
 31
0.0
  0
ARC
  8
0
  6
CONTINUOUS
 62
     1
 10
1515.135
 20
534.493573333
 30
0.0
 40
6.0
 50
180.0
 51
270.0
  0
LINE
  8
0
  6
CONTINUOUS
 62
     1
 10
1713.135
 20
528.493573333
 30
0.0
 11
1665.135
 21
528.493573333
 31
0.0
  0
LINE
  8
0
  6
CONTINUOUS
 62
     1
 10
1509.135
 20
534.493573333
 30
0.0
 11
1509.135
 21
596.093573333
 31
0.0
  0
LINE
  8
0
  6
CONTINUOUS
 62
     1
 10
1534.135
 20
561.493573333
 30
0.0
 11
1534.135
 21
590.45509756
 31
0.0
  0
LINE
  8
0
  6
CONTINUOUS
 62
     2
 10
430.035
 20
976.493573333
 30
0.0
 11
430.035
 21
1092.268573333
 31
0.0
  0
LINE
  8
0
  6
LTYPE2
 62
     2
 10
337.735
 20
548.493573333
 30
0.0
 11
283.735
 21
548.493573333
 31
0.0
  0
LINE
  8
0
  6
CONTINUOUS
 62
     1
 10
304.035
 20
548.493573333
 30
0.0
 11
304.035
 21
534.662585236
 31
0.0
  0
LINE
  8
0
  6
CONTINUOUS
 62
     1
 10
304.035
 20
548.493573333
 30
0.0
 11
304.035
 21
562.324561431
 31
0.0
  0
LINE
  8
0
  6
CONTINUOUS
 62
     1
 10
294.035091387
 20
538.049765994
 30
0.0
 11
295.99068111
 21
534.662585236
 31
0.0
  0
LINE
  8
0
  6
CONTINUOUS
 62
     1
 10
294.035091387
 20
548.493573333
 30
0.0
 11
294.035091387
 21
538.049765994
 31
0.0
  0
LINE
  8
0
  6
CONTINUOUS
 62
     1
 10
294.035091387
 20
558.937380672
 30
0.0
 11
295.99068111
 21
562.324561431
 31
0.0
  0
LINE
  8
0
  6
CONTINUOUS
 62
     1
 10
294.035091387
 20
548.493573333
 30
0.0
 11
294.035091387
 21
558.937380672
 31
0.0
  0
ARC
  8
0
  6
CONTINUOUS
 62
     1
 10
307.240414698
 20
548.493573333
 30
0.0
 40
13.20532331
 50
148.419912243
 51
211.580087757
  0
ARC
  8
0
  6
CONTINUOUS
 62
     1
 10
298.068495191
 20
538.12033226
 30
0.0
 40
4.034021051
 50
121.002313915
 51
182.989498403
  0
LINE
  8
0
  6
CONTINUOUS
 62
     1
 10
294.035091387
 20
558.937380672
 30
0.0
 11
295.99068111
 21
562.324561431
 31
0.0
  0
ARC
  8
0
  6
CONTINUOUS
 62
     1
 10
298.068495191
 20
558.866814407
 30
0.0
 40
4.034021051
 50
177.010501597
 51
238.997686085
  0
LINE
  8
0
  6
CONTINUOUS
 62
     1
 10
304.035
 20
534.662585236
 30
0.0
 11
295.99068111
 21
534.662585236
 31
0.0
  0
LINE
  8
0
  6
CONTINUOUS
 62
     1
 10
304.035
 20
541.578079284
 30
0.0
 11
295.99068111
 21
541.578079284
 31
0.0
  0
LINE
  8
0
  6
CONTINUOUS
 62
     1
 10
304.035
 20
555.409067382
 30
0.0
 11
295.99068111
 21
555.409067382
 31
0.0
  0
LINE
  8
0
  6
CONTINUOUS
 62
     1
 10
304.035
 20
562.324561431
 30
0.0
 11
295.99068111
 21
562.324561431
 31
0.0
  0
LINE
  8
0
  6
CONTINUOUS
 62
     1
 10
430.035
 20
528.493573333
 30
0.0
 11
304.035
 21
528.493573333
 31
0.0
  0
LINE
  8
0
  6
LTYPE2
 62
     2
 10
335.735
 20
718.493573333
 30
0.0
 11
288.735
 21
718.493573333
 31
0.0
  0
LINE
  8
0
  6
CONTINUOUS
 62
     1
 10
304.035
 20
718.493573333
 30
0.0
 11
304.035
 21
704.662585236
 31
0.0
  0
LINE
  8
0
  6
CONTINUOUS
 62
     1
 10
304.035
 20
718.493573333
 30
0.0
 11
304.035
 21
732.324561431
 31
0.0
  0
LINE
  8
0
  6
CONTINUOUS
 62
     1
 10
294.035091387
 20
708.049765994
 30
0.0
 11
295.99068111
 21
704.662585236
 31
0.0
  0
LINE
  8
0
  6
CONTINUOUS
 62
     1
 10
294.035091387
 20
718.493573333
 30
0.0
 11
294.035091387
 21
708.049765994
 31
0.0
  0
LINE
  8
0
  6
CONTINUOUS
 62
     1
 10
294.035091387
 20
728.937380672
 30
0.0
 11
295.99068111
 21
732.324561431
 31
0.0
  0
LINE
  8
0
  6
CONTINUOUS
 62
     1
 10
294.035091387
 20
718.493573333
 30
0.0
 11
294.035091387
 21
728.937380672
 31
0.0
  0
ARC
  8
0
  6
CONTINUOUS
 62
     1
 10
307.240414698
 20
718.493573333
 30
0.0
 40
13.20532331
 50
148.419912243
 51
211.580087757
  0
ARC
  8
0
  6
CONTINUOUS
 62
     1
 10
298.068495191
 20
708.12033226
 30
0.0
 40
4.034021051
 50
121.002313915
 51
182.989498403
  0
LINE
  8
0
  6
CONTINUOUS
 62
     1
 10
294.035091387
 20
728.937380672
 30
0.0
 11
295.99068111
 21
732.324561431
 31
0.0
  0
ARC
  8
0
  6
CONTINUOUS
 62
     1
 10
298.068495191
 20
728.866814407
 30
0.0
 40
4.034021051
 50
177.010501597
 51
238.997686085
  0
LINE
  8
0
  6
CONTINUOUS
 62
     1
 10
304.035
 20
704.662585236
 30
0.0
 11
295.99068111
 21
704.662585236
 31
0.0
  0
LINE
  8
0
  6
CONTINUOUS
 62
     1
 10
304.035
 20
711.578079284
 30
0.0
 11
295.99068111
 21
711.578079284
 31
0.0
  0
LINE
  8
0
  6
CONTINUOUS
 62
     1
 10
304.035
 20
725.409067382
 30
0.0
 11
295.99068111
 21
725.409067382
 31
0.0
  0
LINE
  8
0
  6
CONTINUOUS
 62
     1
 10
304.035
 20
732.324561431
 30
0.0
 11
295.99068111
 21
732.324561431
 31
0.0
  0
LINE
  8
0
  6
CONTINUOUS
 62
     1
 10
430.035
 20
528.493573333
 30
0.0
 11
430.035
 21
967.493573333
 31
0.0
  0
LINE
  8
0
  6
CONTINUOUS
 62
     2
 10
1509.135
 20
525.493573333
 30
0.0
 11
1509.135
 21
430.093573333
 31
0.0
  0
LINE
  8
0
  6
CONTINUOUS
 62
     2
 10
1509.135
 20
439.093573333
 30
0.0
 11
1523.623887394
 21
435.211287657
 31
0.0
  0
LINE
  8
0
  6
CONTINUOUS
 62
     2
 10
1509.135
 20
439.093573333
 30
0.0
 11
1523.623887394
 21
442.97585901
 31
0.0
  0
LINE
  8
0
  6
CONTINUOUS
 62
     2
 10
1509.135
 20
439.093573333
 30
0.0
 11
1719.135
 21
439.093573333
 31
0.0
  0
LINE
  8
0
  6
CONTINUOUS
 62
     1
 10
430.035
 20
715.643573333
 30
0.0
 11
430.035
 21
967.493573333
 31
0.0
  0
LINE
  8
0
  6
CONTINUOUS
 62
     1
 10
430.035
 20
717.493573333
 30
0.0
 11
430.035
 21
967.493573333
 31
0.0
  0
LINE
  8
0
  6
LTYPE4
 62
     2
 10
1478.635
 20
842.493573333
 30
0.0
 11
1752.135
 21
842.493573333
 31
0.0
  0
LINE
  8
0
  6
LTYPE2
 62
     2
 10
869.035
 20
842.493573333
 30
0.0
 11
274.535
 21
842.493573333
 31
0.0
  0
LINE
  8
0
  6
LTYPE4
 62
     2
 10
1614.135
 20
703.993573333
 30
0.0
 11
1614.135
 21
1053.993573333
 31
0.0
  0
LINE
  8
2
  6
CONTINUOUS
 62
     2
 10
743.035
 20
576.493573333
 30
0.0
 11
746.917285677
 21
590.982460728
 31
0.0
  0
LINE
  8
2
  6
CONTINUOUS
 62
     2
 10
743.035
 20
576.493573333
 30
0.0
 11
739.152714323
 21
590.982460728
 31
0.0
  0
LINE
  8
2
  6
CONTINUOUS
 62
     2
 10
743.035
 20
576.493573333
 30
0.0
 11
743.035
 21
690.493573333
 31
0.0
  0
LINE
  8
2
  6
CONTINUOUS
 62
     2
 10
743.035
 20
690.493573333
 30
0.0
 11
739.152714323
 21
676.004685939
 31
0.0
  0
LINE
  8
2
  6
CONTINUOUS
 62
     2
 10
743.035
 20
690.493573333
 30
0.0
 11
746.917285677
 21
676.004685939
 31
0.0
  0
TEXT
  8
2
  6
CONTINUOUS
 62
     2
 10
737.035
 20
592.393573333
 30
1.8
 40
21.0
  1
φ１１４
 50
90.0
 41
0.914285714
 51
0.0
  7
KANJI43
  0
LINE
  8
0
  6
CONTINUOUS
 62
     1
 10
940.635
 20
576.493573333
 30
0.0
 11
940.635
 21
691.493573333
 31
0.0
  0
LINE
  8
0
  6
CONTINUOUS
 62
     1
 10
940.635
 20
576.493573333
 30
0.0
 11
1005.635
 21
576.493573333
 31
0.0
  0
LINE
  8
0
  6
CONTINUOUS
 62
     1
 10
940.635
 20
576.493573333
 30
0.0
 11
683.035
 21
576.493573333
 31
0.0
  0
LINE
  8
0
  6
CONTINUOUS
 62
     1
 10
935.635
 20
573.493573333
 30
0.0
 11
935.635
 21
575.493573333
 31
0.0
  0
LINE
  8
0
  6
CONTINUOUS
 62
     1
 10
925.635
 20
573.493573333
 30
0.0
 11
935.635
 21
573.493573333
 31
0.0
  0
LINE
  8
0
  6
CONTINUOUS
 62
     1
 10
920.635
 20
575.493573333
 30
0.0
 11
935.635
 21
575.493573333
 31
0.0
  0
LINE
  8
0
  6
CONTINUOUS
 62
     1
 10
925.635
 20
573.493573333
 30
0.0
 11
925.635
 21
575.493573333
 31
0.0
  0
LINE
  8
0
  6
CONTINUOUS
 62
     1
 10
925.635
 20
690.493573333
 30
0.0
 11
683.035
 21
690.493573333
 31
0.0
  0
LINE
  8
0
  6
CONTINUOUS
 62
     1
 10
1079.635
 20
594.993573333
 30
0.0
 11
1070.053453315
 21
559.234754288
 31
0.0
  0
ARC
  8
0
  6
CONTINUOUS
 62
     1
 10
1063.533635626
 20
572.493573333
 30
0.0
 40
1.0
 50
15.0
 51
90.0
  0
ARC
  8
0
  6
CONTINUOUS
 62
     1
 10
1063.533635626
 20
572.493573333
 30
0.0
 40
1.0
 50
90.0
 51
165.0
  0
LINE
  8
0
  6
CONTINUOUS
 62
     1
 10
1062.5677098
 20
572.752392378
 30
0.0
 11
1058.94566959
 21
559.234754288
 31
0.0
  0
ARC
  8
0
  6
CONTINUOUS
 62
     1
 10
1057.979743763
 20
559.493573333
 30
0.0
 40
1.0
 50
270.0
 51
345.0
  0
ARC
  8
0
  6
CONTINUOUS
 62
     1
 10
1057.979743763
 20
559.493573333
 30
0.0
 40
1.0
 50
195.0
 51
270.0
  0
LINE
  8
0
  6
CONTINUOUS
 62
     1
 10
1053.391777727
 20
572.752392378
 30
0.0
 11
1057.013817937
 21
559.234754288
 31
0.0
  0
ARC
  8
0
  6
CONTINUOUS
 62
     1
 10
1052.425851901
 20
572.493573333
 30
0.0
 40
1.0
 50
15.0
 51
90.0
  0
LINE
  8
0
  6
CONTINUOUS
 62
     1
 10
1082.135
 20
592.993573333
 30
0.0
 11
1092.135
 21
592.993573333
 31
0.0
  0
LINE
  8
0
  6
CONTINUOUS
 62
     1
 10
1079.635
 20
594.993573333
 30
0.0
 11
1082.079743763
 21
594.993573333
 31
0.0
  0
LINE
  8
0
  6
CONTINUOUS
 62
     1
 10
1079.635
 20
594.993573333
 30
0.0
 11
1094.635
 21
594.993573333
 31
0.0
  0
ARC
  8
0
  6
CONTINUOUS
 62
     1
 10
1069.087527488
 20
559.493573333
 30
0.0
 40
1.0
 50
270.0
 51
345.0
  0
ARC
  8
0
  6
CONTINUOUS
 62
     1
 10
1069.087527488
 20
559.493573333
 30
0.0
 40
1.0
 50
195.0
 51
270.0
  0
LINE
  8
0
  6
CONTINUOUS
 62
     1
 10
1064.499561452
 20
572.752392378
 30
0.0
 11
1068.121601662
 21
559.234754288
 31
0.0
  0
ARC
  8
0
  6
CONTINUOUS
 62
     1
 10
1057.979743763
 20
707.493573333
 30
0.0
 40
1.0
 50
90.0
 51
165.0
  0
LINE
  8
0
  6
CONTINUOUS
 62
     1
 10
1053.391777727
 20
694.234754288
 30
0.0
 11
1057.013817937
 21
707.752392378
 31
0.0
  0
ARC
  8
0
  6
CONTINUOUS
 62
     1
 10
1052.425851901
 20
694.493573333
 30
0.0
 40
1.0
 50
270.0
 51
345.0
  0
LINE
  8
0
  6
CONTINUOUS
 62
     1
 10
1082.135
 20
673.993573333
 30
0.0
 11
1092.135
 21
673.993573333
 31
0.0
  0
LINE
  8
0
  6
CONTINUOUS
 62
     1
 10
1092.079743763
 20
671.993573333
 30
0.0
 11
1094.635
 21
671.993573333
 31
0.0
  0
LINE
  8
0
  6
CONTINUOUS
 62
     1
 10
1079.635
 20
671.993573333
 30
0.0
 11
1082.079743763
 21
671.993573333
 31
0.0
  0
LINE
  8
0
  6
CONTINUOUS
 62
     1
 10
1092.135
 20
673.993573333
 30
0.0
 11
1092.135
 21
633.493573333
 31
0.0
  0
LINE
  8
0
  6
CONTINUOUS
 62
     1
 10
1079.635
 20
671.993573333
 30
0.0
 11
1079.635
 21
633.493573333
 31
0.0
  0
LINE
  8
0
  6
CONTINUOUS
 62
     1
 10
1082.135
 20
673.993573333
 30
0.0
 11
1082.135
 21
633.493573333
 31
0.0
  0
LINE
  8
0
  6
CONTINUOUS
 62
     1
 10
1079.635
 20
671.993573333
 30
0.0
 11
1070.053453315
 21
707.752392378
 31
0.0
  0
ARC
  8
0
  6
CONTINUOUS
 62
     1
 10
1069.087527488
 20
707.493573333
 30
0.0
 40
1.0
 50
15.0
 51
90.0
  0
ARC
  8
0
  6
CONTINUOUS
 62
     1
 10
1069.087527488
 20
707.493573333
 30
0.0
 40
1.0
 50
90.0
 51
165.0
  0
LINE
  8
0
  6
CONTINUOUS
 62
     1
 10
1064.499561452
 20
694.234754288
 30
0.0
 11
1068.121601662
 21
707.752392378
 31
0.0
  0
ARC
  8
0
  6
CONTINUOUS
 62
     1
 10
1063.533635626
 20
694.493573333
 30
0.0
 40
1.0
 50
270.0
 51
345.0
  0
ARC
  8
0
  6
CONTINUOUS
 62
     1
 10
1063.533635626
 20
694.493573333
 30
0.0
 40
1.0
 50
195.0
 51
270.0
  0
LINE
  8
0
  6
CONTINUOUS
 62
     1
 10
1062.5677098
 20
694.234754288
 30
0.0
 11
1058.94566959
 21
707.752392378
 31
0.0
  0
ARC
  8
0
  6
CONTINUOUS
 62
     1
 10
1057.979743763
 20
707.493573333
 30
0.0
 40
1.0
 50
15.0
 51
90.0
  0
LINE
  8
0
  6
CONTINUOUS
 62
     1
 10
1052.425851901
 20
693.493573333
 30
0.0
 11
1052.425851901
 21
633.493573333
 31
0.0
  0
LINE
  8
0
  6
CONTINUOUS
 62
     1
 10
1057.979743763
 20
708.493573333
 30
0.0
 11
1057.979743763
 21
633.493573333
 31
0.0
  0
LINE
  8
0
  6
CONTINUOUS
 62
     1
 10
1069.087527488
 20
708.493573333
 30
0.0
 11
1069.087527488
 21
633.493573333
 31
0.0
  0
LINE
  8
0
  6
CONTINUOUS
 62
     1
 10
1063.533635626
 20
693.493573333
 30
0.0
 11
1063.533635626
 21
633.493573333
 31
0.0
  0
LINE
  8
0
  6
LTYPE5
 62
     2
 10
957.065248333
 20
708.493573333
 30
0.0
 11
1056.135
 21
708.493573333
 31
0.0
  0
LINE
  8
0
  6
LTYPE5
 62
     2
 10
962.619140195
 20
693.493573333
 30
0.0
 11
1052.135
 21
693.493573333
 31
0.0
  0
LINE
  8
0
  6
LTYPE5
 62
     2
 10
962.619140195
 20
573.493573333
 30
0.0
 11
1052.135
 21
573.493573333
 31
0.0
  0
LINE
  8
0
  6
LTYPE5
 62
     2
 10
957.065248333
 20
558.493573333
 30
0.0
 11
1056.135
 21
558.493573333
 31
0.0
  0
ARC
  8
0
  6
CONTINUOUS
 62
     1
 10
1057.979743763
 20
964.193573333
 30
0.0
 40
1.0
 50
90.0
 51
165.0
  0
LINE
  8
0
  6
CONTINUOUS
 62
     1
 10
1053.391777727
 20
950.934754288
 30
0.0
 11
1057.013817937
 21
964.452392378
 31
0.0
  0
ARC
  8
0
  6
CONTINUOUS
 62
     1
 10
1052.425851901
 20
951.193573333
 30
0.0
 40
1.0
 50
270.0
 51
345.0
  0
LINE
  8
0
  6
CONTINUOUS
 62
     1
 10
1082.135
 20
930.693573333
 30
0.0
 11
1092.135
 21
930.693573333
 31
0.0
  0
LINE
  8
0
  6
CONTINUOUS
 62
     1
 10
1092.079743763
 20
928.693573333
 30
0.0
 11
1094.635
 21
928.693573333
 31
0.0
  0
LINE
  8
0
  6
CONTINUOUS
 62
     1
 10
1079.635
 20
928.693573333
 30
0.0
 11
1082.079743763
 21
928.693573333
 31
0.0
  0
LINE
  8
0
  6
CONTINUOUS
 62
     1
 10
1092.135
 20
930.693573333
 30
0.0
 11
1092.135
 21
890.193573333
 31
0.0
  0
LINE
  8
0
  6
CONTINUOUS
 62
     1
 10
1079.635
 20
928.693573333
 30
0.0
 11
1079.635
 21
890.193573333
 31
0.0
  0
LINE
  8
0
  6
CONTINUOUS
 62
     1
 10
1082.135
 20
930.693573333
 30
0.0
 11
1082.135
 21
890.193573333
 31
0.0
  0
LINE
  8
0
  6
CONTINUOUS
 62
     1
 10
1079.635
 20
928.693573333
 30
0.0
 11
1070.053453315
 21
964.452392378
 31
0.0
  0
ARC
  8
0
  6
CONTINUOUS
 62
     1
 10
1069.087527488
 20
964.193573333
 30
0.0
 40
1.0
 50
15.0
 51
90.0
  0
ARC
  8
0
  6
CONTINUOUS
 62
     1
 10
1069.087527488
 20
964.193573333
 30
0.0
 40
1.0
 50
90.0
 51
165.0
  0
LINE
  8
0
  6
CONTINUOUS
 62
     1
 10
1064.499561452
 20
950.934754288
 30
0.0
 11
1068.121601662
 21
964.452392378
 31
0.0
  0
ARC
  8
0
  6
CONTINUOUS
 62
     1
 10
1063.533635626
 20
951.193573333
 30
0.0
 40
1.0
 50
270.0
 51
345.0
  0
ARC
  8
0
  6
CONTINUOUS
 62
     1
 10
1063.533635626
 20
951.193573333
 30
0.0
 40
1.0
 50
195.0
 51
270.0
  0
LINE
  8
0
  6
CONTINUOUS
 62
     1
 10
1062.5677098
 20
950.934754288
 30
0.0
 11
1058.94566959
 21
964.452392378
 31
0.0
  0
ARC
  8
0
  6
CONTINUOUS
 62
     1
 10
1057.979743763
 20
964.193573333
 30
0.0
 40
1.0
 50
15.0
 51
90.0
  0
LINE
  8
0
  6
CONTINUOUS
 62
     1
 10
1052.425851901
 20
950.193573333
 30
0.0
 11
1052.425851901
 21
890.193573333
 31
0.0
  0
LINE
  8
0
  6
CONTINUOUS
 62
     1
 10
1057.979743763
 20
965.193573333
 30
0.0
 11
1057.979743763
 21
890.193573333
 31
0.0
  0
LINE
  8
0
  6
CONTINUOUS
 62
     1
 10
1069.087527488
 20
965.193573333
 30
0.0
 11
1069.087527488
 21
890.193573333
 31
0.0
  0
LINE
  8
0
  6
CONTINUOUS
 62
     1
 10
1063.533635626
 20
950.193573333
 30
0.0
 11
1063.533635626
 21
890.193573333
 31
0.0
  0
ARC
  8
0
  6
CONTINUOUS
 62
     1
 10
1057.979743763
 20
816.193573333
 30
0.0
 40
1.0
 50
195.0
 51
270.0
  0
LINE
  8
0
  6
CONTINUOUS
 62
     1
 10
1053.391777727
 20
829.452392378
 30
0.0
 11
1057.013817937
 21
815.934754288
 31
0.0
  0
ARC
  8
0
  6
CONTINUOUS
 62
     1
 10
1052.425851901
 20
829.193573333
 30
0.0
 40
1.0
 50
15.0
 51
90.0
  0
LINE
  8
0
  6
CONTINUOUS
 62
     1
 10
1082.135
 20
849.693573333
 30
0.0
 11
1092.135
 21
849.693573333
 31
0.0
  0
LINE
  8
0
  6
CONTINUOUS
 62
     1
 10
1092.079743763
 20
851.693573333
 30
0.0
 11
1094.635
 21
851.693573333
 31
0.0
  0
LINE
  8
0
  6
CONTINUOUS
 62
     1
 10
1079.635
 20
851.693573333
 30
0.0
 11
1082.079743763
 21
851.693573333
 31
0.0
  0
LINE
  8
0
  6
CONTINUOUS
 62
     1
 10
1092.135
 20
849.693573333
 30
0.0
 11
1092.135
 21
890.193573333
 31
0.0
  0
LINE
  8
0
  6
CONTINUOUS
 62
     1
 10
1079.635
 20
851.693573333
 30
0.0
 11
1079.635
 21
890.193573333
 31
0.0
  0
LINE
  8
0
  6
CONTINUOUS
 62
     1
 10
1082.135
 20
849.693573333
 30
0.0
 11
1082.135
 21
890.193573333
 31
0.0
  0
LINE
  8
0
  6
CONTINUOUS
 62
     1
 10
1079.635
 20
851.693573333
 30
0.0
 11
1070.053453315
 21
815.934754288
 31
0.0
  0
ARC
  8
0
  6
CONTINUOUS
 62
     1
 10
1069.087527488
 20
816.193573333
 30
0.0
 40
1.0
 50
270.0
 51
345.0
  0
ARC
  8
0
  6
CONTINUOUS
 62
     1
 10
1069.087527488
 20
816.193573333
 30
0.0
 40
1.0
 50
195.0
 51
270.0
  0
LINE
  8
0
  6
CONTINUOUS
 62
     1
 10
1064.499561452
 20
829.452392378
 30
0.0
 11
1068.121601662
 21
815.934754288
 31
0.0
  0
ARC
  8
0
  6
CONTINUOUS
 62
     1
 10
1063.533635626
 20
829.193573333
 30
0.0
 40
1.0
 50
15.0
 51
90.0
  0
ARC
  8
0
  6
CONTINUOUS
 62
     1
 10
1063.533635626
 20
829.193573333
 30
0.0
 40
1.0
 50
90.0
 51
165.0
  0
LINE
  8
0
  6
CONTINUOUS
 62
     1
 10
1062.5677098
 20
829.452392378
 30
0.0
 11
1058.94566959
 21
815.934754288
 31
0.0
  0
ARC
  8
0
  6
CONTINUOUS
 62
     1
 10
1057.979743763
 20
816.193573333
 30
0.0
 40
1.0
 50
270.0
 51
345.0
  0
LINE
  8
0
  6
CONTINUOUS
 62
     1
 10
1052.425851901
 20
830.193573333
 30
0.0
 11
1052.425851901
 21
890.193573333
 31
0.0
  0
LINE
  8
0
  6
CONTINUOUS
 62
     1
 10
1057.979743763
 20
815.193573333
 30
0.0
 11
1057.979743763
 21
890.193573333
 31
0.0
  0
LINE
  8
0
  6
CONTINUOUS
 62
     1
 10
1069.087527488
 20
815.193573333
 30
0.0
 11
1069.087527488
 21
890.193573333
 31
0.0
  0
LINE
  8
0
  6
CONTINUOUS
 62
     1
 10
1063.533635626
 20
830.193573333
 30
0.0
 11
1063.533635626
 21
890.193573333
 31
0.0
  0
LINE
  8
0
  6
LTYPE2
 62
     2
 10
1033.135
 20
890.193573333
 30
0.0
 11
1210.635
 21
890.193573333
 31
0.0
  0
LINE
  8
0
  6
CONTINUOUS
 62
     1
 10
1094.635
 20
930.193573333
 30
0.0
 11
1199.635
 21
930.193573333
 31
0.0
  0
LINE
  8
0
  6
CONTINUOUS
 62
     1
 10
1094.635
 20
930.193573333
 30
0.0
 11
1094.635
 21
850.193573333
 31
0.0
  0
LINE
  8
0
  6
CONTINUOUS
 62
     1
 10
1094.635
 20
850.193573333
 30
0.0
 11
1199.635
 21
850.193573333
 31
0.0
  0
LINE
  8
0
  6
LTYPE5
 62
     2
 10
1014.635
 20
815.193573333
 30
0.0
 11
1057.885
 21
815.193573333
 31
0.0
  0
LINE
  8
0
  6
LTYPE5
 62
     2
 10
1024.635
 20
830.193573333
 30
0.0
 11
1052.285
 21
830.193573333
 31
0.0
  0
LINE
  8
0
  6
LTYPE5
 62
     2
 10
1023.135
 20
950.193573333
 30
0.0
 11
1052.285
 21
950.193573333
 31
0.0
  0
LINE
  8
0
  6
LTYPE5
 62
     2
 10
1014.135
 20
965.193573333
 30
0.0
 11
1057.885
 21
965.193573333
 31
0.0
  0
LINE
  8
0
  6
CONTINUOUS
 62
     2
 10
1094.635
 20
590.693573333
 30
0.0
 11
1094.635
 21
387.493573333
 31
0.0
  0
CIRCLE
  8
0
  6
CONTINUOUS
 62
     1
 10
1614.135
 20
633.493573333
 30
0.0
 40
75.0
  0
LINE
  8
0
  6
LTYPE2
 62
     2
 10
1614.135
 20
589.893573333
 30
0.0
 11
1614.135
 21
696.20200189
 31
0.0
  0
LINE
  8
0
  6
LTYPE2
 62
     2
 10
1536.635
 20
693.493573333
 30
0.0
 11
1570.635
 21
693.493573333
 31
0.0
  0
LINE
  8
0
  6
LTYPE2
 62
     2
 10
1554.135
 20
711.993573333
 30
0.0
 11
1554.135
 21
675.993573333
 31
0.0
  0
ARC
  8
0
  6
CONTINUOUS
 62
     1
 10
1542.135
 20
705.493573333
 30
0.0
 40
8.0
 50
90.0
 51
180.0
  0
ARC
  8
0
  6
CONTINUOUS
 62
     1
 10
1554.135
 20
693.493573333
 30
0.0
 40
12.0
 50
7.125016349
 51
262.56859203
  0
LINE
  8
0
  6
CONTINUOUS
 62
     1
 10
1534.135
 20
676.532049106
 30
0.0
 11
1534.135
 21
705.493573333
 31
0.0
  0
LINE
  8
0
  6
CONTINUOUS
 62
     1
 10
1542.135
 20
713.493573333
 30
0.0
 11
1614.135
 21
713.493573333
 31
0.0
  0
LINE
  8
0
  6
CONTINUOUS
 62
     1
 10
1686.135
 20
713.493573333
 30
0.0
 11
1614.135
 21
713.493573333
 31
0.0
  0
LINE
  8
0
  6
CONTINUOUS
 62
     1
 10
1509.135
 20
669.833319295
 30
0.0
 11
1509.135
 21
774.493573333
 31
0.0
  0
LINE
  8
0
  6
LTYPE1
 62
     2
 10
1689.135
 20
618.493573333
 30
0.0
 11
1689.135
 21
648.493573333
 31
0.0
  0
LINE
  8
0
  6
LTYPE1
 62
     2
 10
1689.135
 20
648.493573333
 30
0.0
 11
1724.135
 21
648.493573333
 31
0.0
  0
LINE
  8
0
  6
LTYPE1
 62
     2
 10
1689.135
 20
618.493573333
 30
0.0
 11
1724.135
 21
618.493573333
 31
0.0
  0
LINE
  8
0
  6
CONTINUOUS
 62
     2
 10
1740.135
 20
633.493573333
 30
0.0
 11
1784.635
 21
633.493573333
 31
0.0
  0
LINE
  8
0
  6
CONTINUOUS
 62
     2
 10
1784.635
 20
633.493573333
 30
0.0
 11
1831.635
 21
633.493573333
 31
0.0
  0
LINE
  8
0
  6
CONTINUOUS
 62
     2
 10
1724.135
 20
402.993573333
 30
0.0
 11
1709.646112606
 21
406.87585901
 31
0.0
  0
LINE
  8
0
  6
CONTINUOUS
 62
     2
 10
1724.135
 20
402.993573333
 30
0.0
 11
1709.646112606
 21
399.111287657
 31
0.0
  0
LINE
  8
0
  6
CONTINUOUS
 62
     2
 10
1724.135
 20
589.493573333
 30
0.0
 11
1724.135
 21
393.993573333
 31
0.0
  0
ARC
  8
0
  6
CONTINUOUS
 62
     1
 10
1713.135
 20
534.493573333
 30
0.0
 40
6.0
 50
270.0
 51
0.0
  0
LINE
  8
0
  6
CONTINUOUS
 62
     2
 10
1719.135
 20
439.093573333
 30
0.0
 11
1704.646112606
 21
442.97585901
 31
0.0
  0
LINE
  8
0
  6
CONTINUOUS
 62
     2
 10
1719.135
 20
439.093573333
 30
0.0
 11
1704.646112606
 21
435.211287657
 31
0.0
  0
LINE
  8
0
  6
CONTINUOUS
 62
     2
 10
1719.135
 20
525.493573333
 30
0.0
 11
1719.135
 21
430.093573333
 31
0.0
  0
LINE
  8
0
  6
CONTINUOUS
 62
     2
 10
1781.535
 20
633.493573333
 30
0.0
 11
1777.652714323
 21
619.004685939
 31
0.0
  0
LINE
  8
0
  6
CONTINUOUS
 62
     2
 10
1781.535
 20
633.493573333
 30
0.0
 11
1785.417285677
 21
619.004685939
 31
0.0
  0
LINE
  8
0
  6
CONTINUOUS
 62
     2
 10
1781.535
 20
633.493573333
 30
0.0
 11
1781.535
 21
528.493573333
 31
0.0
  0
LINE
  8
0
  6
CONTINUOUS
 62
     2
 10
1781.535
 20
528.493573333
 30
0.0
 11
1785.417285677
 21
542.982460728
 31
0.0
  0
LINE
  8
0
  6
CONTINUOUS
 62
     2
 10
1781.535
 20
528.493573333
 30
0.0
 11
1777.652714323
 21
542.982460728
 31
0.0
  0
LINE
  8
0
  6
CONTINUOUS
 62
     2
 10
1722.135
 20
528.493573333
 30
0.0
 11
1790.535
 21
528.493573333
 31
0.0
  0
LINE
  8
0
  6
CONTINUOUS
 62
     2
 10
1781.535
 20
633.493573333
 30
0.0
 11
1785.417285677
 21
647.982460728
 31
0.0
  0
LINE
  8
0
  6
CONTINUOUS
 62
     2
 10
1781.535
 20
633.493573333
 30
0.0
 11
1777.652714323
 21
647.982460728
 31
0.0
  0
LINE
  8
0
  6
CONTINUOUS
 62
     2
 10
1781.535
 20
633.493573333
 30
0.0
 11
1781.535
 21
842.493573333
 31
0.0
  0
LINE
  8
0
  6
CONTINUOUS
 62
     2
 10
1781.535
 20
842.493573333
 30
0.0
 11
1777.652714323
 21
828.004685939
 31
0.0
  0
LINE
  8
0
  6
CONTINUOUS
 62
     2
 10
1781.535
 20
842.493573333
 30
0.0
 11
1785.417285677
 21
828.004685939
 31
0.0
  0
LINE
  8
0
  6
CONTINUOUS
 62
     2
 10
1755.635
 20
842.493573333
 30
0.0
 11
1790.535
 21
842.493573333
 31
0.0
  0
LINE
  8
0
  6
CONTINUOUS
 62
     2
 10
1822.635
 20
633.493573333
 30
0.0
 11
1818.752714323
 21
619.004685939
 31
0.0
  0
LINE
  8
0
  6
CONTINUOUS
 62
     2
 10
1822.635
 20
633.493573333
 30
0.0
 11
1826.517285677
 21
619.004685939
 31
0.0
  0
LINE
  8
0
  6
CONTINUOUS
 62
     2
 10
1822.635
 20
633.493573333
 30
0.0
 11
1822.635
 21
512.493573333
 31
0.0
  0
LINE
  8
0
  6
CONTINUOUS
 62
     2
 10
1822.635
 20
512.493573333
 30
0.0
 11
1826.517285677
 21
526.982460728
 31
0.0
  0
LINE
  8
0
  6
CONTINUOUS
 62
     2
 10
1822.635
 20
512.493573333
 30
0.0
 11
1818.752714323
 21
526.982460728
 31
0.0
  0
CIRCLE
  8
0
  6
CONTINUOUS
 62
     1
 10
1164.635
 20
633.493573333
 30
0.0
 40
15.0
  0
CIRCLE
  8
0
  6
CONTINUOUS
 62
     1
 10
1164.635
 20
633.493573333
 30
0.0
 40
28.0
  0
CIRCLE
  8
0
  6
CONTINUOUS
 62
     1
 10
1164.635
 20
650.993573333
 30
0.0
 40
2.5
  0
LINE
  8
0
  6
CONTINUOUS
 62
     1
 10
1168.835
 20
614.193573333
 30
0.0
 11
1166.835
 21
613.893573333
 31
0.0
  0
LINE
  8
0
  6
CONTINUOUS
 62
     1
 10
1166.570384615
 20
617.024342564
 30
0.0
 11
1168.835
 21
614.193573333
 31
0.0
  0
LINE
  8
0
  6
CONTINUOUS
 62
     1
 10
1164.635
 20
616.593573333
 30
0.0
 11
1166.835
 21
613.893573333
 31
0.0
  0
LINE
  8
0
  6
CONTINUOUS
 62
     1
 10
1166.335
 20
618.593573333
 30
0.0
 11
1166.570384615
 21
617.024342564
 31
0.0
  0
LINE
  8
0
  6
CONTINUOUS
 62
     1
 10
1164.635
 20
616.593573333
 30
0.0
 11
1162.435
 21
613.893573333
 31
0.0
  0
LINE
  8
0
  6
CONTINUOUS
 62
     1
 10
1162.935
 20
618.593573333
 30
0.0
 11
1162.699615385
 21
617.024342564
 31
0.0
  0
LINE
  8
0
  6
CONTINUOUS
 62
     1
 10
1160.435
 20
614.193573333
 30
0.0
 11
1162.435
 21
613.893573333
 31
0.0
  0
LINE
  8
0
  6
CONTINUOUS
 62
     1
 10
1162.699615385
 20
617.024342564
 30
0.0
 11
1160.435
 21
614.193573333
 31
0.0
  0
ARC
  8
0
  6
CONTINUOUS
 62
     1
 10
534.7150004
 20
513.493573333
 30
0.0
 40
5.0
 50
191.5
 51
267.7
  0
ARC
  8
0
  6
CONTINUOUS
 62
     1
 10
535.5150004
 20
513.493573333
 30
0.0
 40
5.0
 50
272.3
 51
348.5
  0
LINE
  8
0
  6
CONTINUOUS
 62
     1
 10
535.7150004
 20
508.493573333
 30
0.0
 11
534.5150004
 21
508.493573333
 31
0.0
  0
ARC
  8
0
  6
CONTINUOUS
 62
     1
 10
644.4150004
 20
513.493573333
 30
0.0
 40
5.0
 50
191.5
 51
267.7
  0
ARC
  8
0
  6
CONTINUOUS
 62
     1
 10
645.2150004
 20
513.493573333
 30
0.0
 40
5.0
 50
272.3
 51
348.5
  0
LINE
  8
0
  6
CONTINUOUS
 62
     1
 10
645.4150004
 20
508.493573333
 30
0.0
 11
644.2150004
 21
508.493573333
 31
0.0
  0
LINE
  8
0
  6
LTYPE6
 62
     2
 10
535.1150004
 20
505.093573333
 30
0.0
 11
535.1150004
 21
518.493573333
 31
0.0
  0
LINE
  8
0
  6
LTYPE6
 62
     2
 10
644.8150004
 20
505.093573333
 30
0.0
 11
644.8150004
 21
518.493573333
 31
0.0
  0
LINE
  8
0
  6
CONTINUOUS
 62
     1
 10
1574.435
 20
512.493573333
 30
0.0
 11
1563.835
 21
512.493573333
 31
0.0
  0
ARC
  8
0
  6
CONTINUOUS
 62
     1
 10
1568.735
 20
513.493573333
 30
0.0
 40
5.0
 50
191.5
 51
267.7
  0
ARC
  8
0
  6
CONTINUOUS
 62
     1
 10
1569.535
 20
513.493573333
 30
0.0
 40
5.0
 50
272.3
 51
348.5
  0
LINE
  8
0
  6
CONTINUOUS
 62
     1
 10
1569.735
 20
508.493573333
 30
0.0
 11
1568.535
 21
508.493573333
 31
0.0
  0
ARC
  8
0
  6
CONTINUOUS
 62
     1
 10
1659.535
 20
513.493573333
 30
0.0
 40
5.0
 50
272.3
 51
348.5
  0
ARC
  8
0
  6
CONTINUOUS
 62
     1
 10
1658.735
 20
513.493573333
 30
0.0
 40
5.0
 50
191.5
 51
267.7
  0
LINE
  8
0
  6
CONTINUOUS
 62
     1
 10
1659.735
 20
508.493573333
 30
0.0
 11
1658.535
 21
508.493573333
 31
0.0
  0
LINE
  8
0
  6
CONTINUOUS
 62
     1
 10
1664.435
 20
512.493573333
 30
0.0
 11
1653.835
 21
512.493573333
 31
0.0
  0
TEXT
  8
0
  6
CONTINUOUS
 62
     2
 10
454.535
 20
402.493573333
 30
0.0
 40
21.0
  1
１００
 50
0.0
 41
0.9
 51
0.0
  7
KANJI44
  0
TEXT
  8
0
  6
CONTINUOUS
 62
     2
 10
341.535
 20
402.493573333
 30
0.0
 40
21.0
  1
１２５
 50
0.0
 41
0.9
 51
0.0
  7
KANJI44
  0
TEXT
  8
0
  6
CONTINUOUS
 62
     2
 10
391.535
 20
363.993573333
 30
0.0
 40
21.0
  1
２２５
 50
0.0
 41
0.9
 51
0.0
  7
KANJI44
  0
TEXT
  8
0
  6
CONTINUOUS
 62
     2
 10
804.435
 20
363.993573333
 30
0.0
 40
21.0
  1
ｍｉｎ．Ｌ
 50
0.0
 41
0.9
 51
0.0
  7
KANJI44
  0
TEXT
  8
0
  6
CONTINUOUS
 62
     2
 10
759.735
 20
402.493573333
 30
0.0
 40
21.0
  1
Ｃ
 50
0.0
 41
0.9
 51
0.0
  7
KANJI44
  0
TEXT
  8
0
  6
CONTINUOUS
 62
     2
 10
1112.835
 20
402.493573333
 30
0.0
 40
21.0
  1
７０
 50
0.0
 41
0.9
 51
0.0
  7
KANJI44
  0
TEXT
  8
0
  6
CONTINUOUS
 62
     2
 10
682.735
 20
325.993573333
 30
0.0
 40
21.0
  1
ｍｉｎ．ＡＬ
 50
0.0
 41
0.9
 51
0.0
  7
KANJI44
  0
TEXT
  8
0
  6
CONTINUOUS
 62
     2
 10
1165.335
 20
325.993573333
 30
0.0
 40
21.0
  1
３５
 50
0.0
 41
0.9
 51
0.0
  7
KANJI44
  0
TEXT
  8
0
  6
CONTINUOUS
 62
     2
 10
588.135
 20
420.443573333
 30
0.0
 40
21.0
  1
推力リミッタ
 50
0.0
 41
0.9
 51
0.0
  7
KANJI44
  0
TEXT
  8
0
  6
CONTINUOUS
 62
     2
 10
714.135
 20
511.493573333
 30
0.0
 40
21.0
  1
ＰＦ１／２
 50
0.0
 41
0.9
 51
0.0
  7
KANJI44
  0
TEXT
  8
0
  6
CONTINUOUS
 62
     2
 10
1402.135
 20
670.993573333
 30
0.0
 40
21.0
  1
φ３０Ｈ１０深３５
 50
90.0
 41
0.9
 51
0.0
  7
KANJI44
  0
TEXT
  8
0
  6
CONTINUOUS
 62
     2
 10
1246.635
 20
616.693573333
 30
0.0
 40
21.0
  1
７５
 50
90.0
 41
0.9
 51
0.0
  7
KANJI44
  0
TEXT
  8
0
  6
CONTINUOUS
 62
     2
 10
1588.635
 20
408.993573333
 30
0.0
 40
21.0
  1
２２０
 50
0.0
 41
0.9
 51
0.0
  7
KANJI44
  0
TEXT
  8
0
  6
CONTINUOUS
 62
     2
 10
1588.635
 20
445.093573333
 30
0.0
 40
21.0
  1
２１０
 50
0.0
 41
0.9
 51
0.0
  7
KANJI44
  0
TEXT
  8
0
  6
CONTINUOUS
 62
     2
 10
1816.635
 20
547.493573333
 30
0.0
 40
21.0
  1
１２１
 50
90.0
 41
0.9
 51
0.0
  7
KANJI44
  0
TEXT
  8
0
  6
CONTINUOUS
 62
     2
 10
1775.535
 20
555.493573333
 30
0.0
 40
21.0
  1
１０５
 50
90.0
 41
0.9
 51
0.0
  7
KANJI44
  0
TEXT
  8
0
  6
CONTINUOUS
 62
     2
 10
1775.535
 20
712.493573333
 30
0.0
 40
21.0
  1
２０９
 50
90.0
 41
0.9
 51
0.0
  7
KANJI44
  0
TEXT
  8
0
  6
CONTINUOUS
 62
     2
 10
1246.135
 20
873.393573333
 30
0.0
 40
21.0
  1
４０
 50
90.0
 41
0.9
 51
0.0
  7
KANJI44
  0
TEXT
  8
0
  6
CONTINUOUS
 62
     2
 10
1286.635
 20
873.393573333
 30
0.0
 40
21.0
  1
８０
 50
90.0
 41
0.9
 51
0.0
  7
KANJI44
  0
TEXT
  8
0
  6
CONTINUOUS
 62
     2
 10
1257.135
 20
767.693573333
 30
0.0
 40
21.0
  1
ｄ９
 50
0.0
 41
0.9
 51
0.0
  7
KANJI44
  0
TEXT
  8
0
  6
CONTINUOUS
 62
     2
 10
1202.135
 20
796.193573333
 30
0.0
 40
21.0
  1
φ３０Ｈ１０
 50
0.0
 41
0.9
 51
0.0
  7
KANJI44
  0
TEXT
  8
0
  6
CONTINUOUS
 62
     2
 10
1122.835
 20
760.193573333
 30
0.0
 40
21.0
  1
５０
 50
0.0
 41
0.9
 51
0.0
  7
KANJI44
  0
TEXT
  8
0
  6
CONTINUOUS
 62
     2
 10
1011.635
 20
855.993573333
 30
0.0
 40
21.0
  1
φ１５０
 50
90.0
 41
0.9
 51
0.0
  7
KANJI44
  0
TEXT
  8
0
  6
CONTINUOUS
 62
     2
 10
1007.235
 20
402.493573333
 30
-2.1
 40
21.0
  1
ｍｉｎ．Ｐ
 50
0.0
 41
0.9
 51
0.0
  7
KANJI45
  0
TEXT
  8
0
  6
CONTINUOUS
 62
     2
 10
212.22
 20
37.54
 30
0.0
 40
21.0
  1
ＦＤ　Ｎｏ．ＭＣ２３１
 50
0.0
 41
0.9
 51
0.0
  7
KANJI17
  0
LINE
  8
0
  6
CONTINUOUS
 62
     1
 10
1694.135
 20
665.691317405
 30
0.0
 11
1694.135
 21
705.493573333
 31
0.0
  0
LINE
  8
0
  6
CONTINUOUS
 62
     1
 10
1719.135
 20
663.859864012
 30
0.0
 11
1719.135
 21
774.493573333
 31
0.0
  0
LINE
  8
0
  6
CONTINUOUS
 62
     1
 10
1694.135
 20
561.493573333
 30
0.0
 11
1694.135
 21
601.295829262
 31
0.0
  0
LINE
  8
0
  6
CONTINUOUS
 62
     1
 10
1719.135
 20
534.493573333
 30
0.0
 11
1719.135
 21
603.127282655
 31
0.0
  0
LINE
  8
0
  6
CONTINUOUS
 62
     1
 10
1724.135
 20
603.493573333
 30
0.0
 11
1724.135
 21
663.493573333
 31
0.0
  0
LINE
  8
0
  6
CONTINUOUS
 62
     1
 10
1681.421414406
 20
666.622690984
 30
0.0
 11
1724.135
 21
663.493573333
 31
0.0
  0
LINE
  8
0
  6
CONTINUOUS
 62
     1
 10
1681.421414406
 20
600.364455683
 30
0.0
 11
1724.135
 21
603.493573333
 31
0.0
  0
LINE
  8
0
  6
CONTINUOUS
 62
     1
 10
1504.135
 20
603.493573333
 30
0.0
 11
1504.135
 21
663.493573333
 31
0.0
  0
LINE
  8
0
  6
CONTINUOUS
 62
     1
 10
1546.848585594
 20
666.622690984
 30
0.0
 11
1504.135
 21
663.493573333
 31
0.0
  0
LINE
  8
0
  6
CONTINUOUS
 62
     1
 10
1546.848585594
 20
600.364455683
 30
0.0
 11
1504.135
 21
603.493573333
 31
0.0
  0
LINE
  8
0
  6
CONTINUOUS
 62
     2
 10
1489.135
 20
851.493573333
 30
0.0
 11
1489.135
 21
1110.993573333
 31
0.0
  0
LINE
  8
0
  6
CONTINUOUS
 62
     2
 10
1489.135
 20
1101.993573333
 30
0.0
 11
1503.623887394
 21
1098.111287657
 31
0.0
  0
LINE
  8
0
  6
CONTINUOUS
 62
     2
 10
1489.135
 20
1101.993573333
 30
0.0
 11
1503.623887394
 21
1105.87585901
 31
0.0
  0
LINE
  8
0
  6
CONTINUOUS
 62
     2
 10
1489.135
 20
1101.993573333
 30
0.0
 11
1739.135
 21
1101.993573333
 31
0.0
  0
LINE
  8
0
  6
CONTINUOUS
 62
     2
 10
1739.135
 20
1101.993573333
 30
0.0
 11
1724.646112606
 21
1105.87585901
 31
0.0
  0
LINE
  8
0
  6
CONTINUOUS
 62
     2
 10
1739.135
 20
1101.993573333
 30
0.0
 11
1724.646112606
 21
1098.111287657
 31
0.0
  0
LINE
  8
0
  6
CONTINUOUS
 62
     2
 10
1739.135
 20
851.493573333
 30
0.0
 11
1739.135
 21
1110.993573333
 31
0.0
  0
CIRCLE
  8
0
  6
CONTINUOUS
 62
     1
 10
1614.135
 20
842.493573333
 30
0.0
 40
20.0
  0
LINE
  8
0
  6
CONTINUOUS
 62
     2
 10
1544.135
 20
912.493573333
 30
0.0
 11
1531.189167588
 21
925.439405745
 31
0.0
  0
ARC
  8
0
  6
CONTINUOUS
 62
     2
 10
1614.135
 20
842.493573333
 30
0.0
 40
107.5
 50
128.674771409
 51
141.719074212
  0
ARC
  8
0
  6
CONTINUOUS
 62
     1
 10
1577.135
 20
1044.199265851
 30
0.0
 40
3.0
 50
90.0
 51
180.0
  0
ARC
  8
0
  6
CONTINUOUS
 62
     1
 10
1570.135
 20
1047.199265851
 30
0.0
 40
6.0
 50
90.0
 51
180.0
  0
ARC
  8
0
  6
CONTINUOUS
 62
     1
 10
1570.135
 20
1051.493573333
 30
0.0
 40
6.0
 50
90.0
 51
180.0
  0
LINE
  8
0
  6
CONTINUOUS
 62
     1
 10
1570.135
 20
1057.493573333
 30
0.0
 11
1614.135
 21
1057.493573333
 31
0.0
  0
LINE
  8
0
  6
CONTINUOUS
 62
     1
 10
1614.135
 20
1053.199265851
 30
0.0
 11
1570.135
 21
1053.199265851
 31
0.0
  0
LINE
  8
0
  6
CONTINUOUS
 62
     1
 10
1614.135
 20
1047.199265851
 30
0.0
 11
1577.135
 21
1047.199265851
 31
0.0
  0
ARC
  8
0
  6
CONTINUOUS
 62
     1
 10
1577.135
 20
982.193573333
 30
0.0
 40
3.0
 50
180.0
 51
270.0
  0
ARC
  8
0
  6
CONTINUOUS
 62
     1
 10
1570.135
 20
988.193573333
 30
0.0
 40
6.0
 50
180.0
 51
270.0
  0
LINE
  8
0
  6
CONTINUOUS
 62
     1
 10
1574.135
 20
982.193573333
 30
0.0
 11
1570.135
 21
982.193573333
 31
0.0
  0
LINE
  8
0
  6
CONTINUOUS
 62
     1
 10
1614.135
 20
979.193573333
 30
0.0
 11
1577.135
 21
979.193573333
 31
0.0
  0
LINE
  8
0
  6
CONTINUOUS
 62
     1
 10
1594.135
 20
963.571213974
 30
0.0
 11
1594.135
 21
979.193573333
 31
0.0
  0
LINE
  8
0
  6
CONTINUOUS
 62
     1
 10
1574.135
 20
982.693573333
 30
0.0
 11
1574.135
 21
1044.199265851
 31
0.0
  0
LINE
  8
0
  6
CONTINUOUS
 62
     1
 10
1564.135
 20
988.693573333
 30
0.0
 11
1564.135
 21
1051.493573333
 31
0.0
  0
CIRCLE
  8
0
  6
CONTINUOUS
 62
     1
 10
1614.135
 20
1010.493573333
 30
0.0
 40
20.0
  0
CIRCLE
  8
0
  6
CONTINUOUS
 62
     2
 10
1614.135
 20
1010.493573333
 30
0.0
 40
13.5
  0
CIRCLE
  8
0
  6
CONTINUOUS
 62
     2
 10
1614.135
 20
1010.493573333
 30
0.0
 40
15.0
  0
LINE
  8
0
  6
LTYPE3
 62
     2
 10
1583.635
 20
1010.493573333
 30
0.0
 11
1643.135
 21
1010.493573333
 31
0.0
  0
ARC
  8
0
  6
CONTINUOUS
 62
     1
 10
1614.135
 20
842.493573333
 30
0.0
 40
125.0
 50
69.402826706
 51
280.557968545
  0
CIRCLE
  8
0
  6
CONTINUOUS
 62
     1
 10
1614.135
 20
842.493573333
 30
0.0
 40
115.0
  0
ARC
  8
0
  6
CONTINUOUS
 62
     1
 10
1519.135
 20
842.493573333
 30
0.0
 40
20.0
 50
90.0
 51
270.0
  0
LINE
  8
0
  6
CONTINUOUS
 62
     1
 10
1519.135
 20
862.493573333
 30
0.0
 11
1602.587994616
 21
862.493573333
 31
0.0
  0
LINE
  8
0
  6
CONTINUOUS
 62
     1
 10
1644.314491924
 20
934.765986693
 30
0.0
 11
1602.587994616
 21
862.493573333
 31
0.0
  0
CIRCLE
  8
0
  6
LTYPE1
 62
     1
 10
1538.121021022
 20
918.507552311
 30
0.0
 40
7.25
  0
LINE
  8
0
  6
CONTINUOUS
 62
     2
 10
1674.135
 20
857.493573333
 30
0.0
 11
1674.135
 21
827.493573333
 31
0.0
  0
LINE
  8
0
  6
CONTINUOUS
 62
     1
 10
1617.468333333
 20
862.213839277
 30
0.0
 11
1675.801666667
 21
852.353706305
 31
0.0
  0
LINE
  8
0
  6
CONTINUOUS
 62
     2
 10
1684.135
 20
912.493573333
 30
0.0
 11
1697.080832412
 21
925.439405745
 31
0.0
  0
ARC
  8
0
  6
CONTINUOUS
 62
     2
 10
1614.135
 20
842.493573333
 30
0.0
 40
107.5
 50
38.280925788
 51
51.325228591
  0
ARC
  8
0
  6
CONTINUOUS
 62
     1
 10
1614.135
 20
842.493573333
 30
0.0
 40
125.0
 50
0.0
 51
69.402826706
  0
ARC
  8
0
  6
CONTINUOUS
 62
     1
 10
1651.135
 20
982.193573333
 30
0.0
 40
3.0
 50
270.0
 51
0.0
  0
ARC
  8
0
  6
CONTINUOUS
 62
     1
 10
1658.135
 20
988.193573333
 30
0.0
 40
6.0
 50
270.0
 51
0.0
  0
LINE
  8
0
  6
CONTINUOUS
 62
     1
 10
1654.135
 20
982.193573333
 30
0.0
 11
1658.135
 21
982.193573333
 31
0.0
  0
LINE
  8
0
  6
CONTINUOUS
 62
     1
 10
1614.135
 20
979.193573333
 30
0.0
 11
1651.135
 21
979.193573333
 31
0.0
  0
LINE
  8
0
  6
CONTINUOUS
 62
     1
 10
1634.135
 20
963.571213974
 30
0.0
 11
1634.135
 21
979.193573333
 31
0.0
  0
LINE
  8
0
  6
CONTINUOUS
 62
     1
 10
1654.135
 20
982.693573333
 30
0.0
 11
1654.135
 21
1044.199265851
 31
0.0
  0
ARC
  8
0
  6
CONTINUOUS
 62
     1
 10
1661.635
 20
924.765986693
 30
0.0
 40
20.0
 50
330.0
 51
150.0
  0
LINE
  8
0
  6
CONTINUOUS
 62
     1
 10
1678.955508076
 20
914.765986693
 30
0.0
 11
1645.845211838
 21
857.417271356
 31
0.0
  0
CIRCLE
  8
0
  6
LTYPE1
 62
     1
 10
1690.148978978
 20
918.507552311
 30
0.0
 40
7.25
  0
ARC
  8
0
  6
CONTINUOUS
 62
     1
 10
1651.135
 20
1044.199265851
 30
0.0
 40
3.0
 50
0.0
 51
90.0
  0
ARC
  8
0
  6
CONTINUOUS
 62
     1
 10
1658.135
 20
1047.199265851
 30
0.0
 40
6.0
 50
0.0
 51
90.0
  0
ARC
  8
0
  6
CONTINUOUS
 62
     1
 10
1658.135
 20
1051.493573333
 30
0.0
 40
6.0
 50
0.0
 51
90.0
  0
LINE
  8
0
  6
CONTINUOUS
 62
     1
 10
1658.135
 20
1057.493573333
 30
0.0
 11
1614.135
 21
1057.493573333
 31
0.0
  0
LINE
  8
0
  6
CONTINUOUS
 62
     1
 10
1614.135
 20
1053.199265851
 30
0.0
 11
1658.135
 21
1053.199265851
 31
0.0
  0
LINE
  8
0
  6
CONTINUOUS
 62
     1
 10
1614.135
 20
1047.199265851
 30
0.0
 11
1651.135
 21
1047.199265851
 31
0.0
  0
LINE
  8
0
  6
CONTINUOUS
 62
     1
 10
1664.135
 20
988.193573333
 30
0.0
 11
1664.135
 21
1051.493573333
 31
0.0
  0
LINE
  8
0
  6
CONTINUOUS
 62
     2
 10
1667.135
 20
1057.493573333
 30
0.0
 11
1828.935
 21
1057.493573333
 31
0.0
  0
LINE
  8
0
  6
CONTINUOUS
 62
     2
 10
1781.535
 20
842.493573333
 30
0.0
 11
1785.417285677
 21
856.982460728
 31
0.0
  0
LINE
  8
0
  6
CONTINUOUS
 62
     2
 10
1781.535
 20
842.493573333
 30
0.0
 11
1777.652714323
 21
856.982460728
 31
0.0
  0
LINE
  8
0
  6
CONTINUOUS
 62
     2
 10
1781.535
 20
1057.493573333
 30
0.0
 11
1777.652714323
 21
1043.004685939
 31
0.0
  0
LINE
  8
0
  6
CONTINUOUS
 62
     2
 10
1781.535
 20
1057.493573333
 30
0.0
 11
1785.417285677
 21
1043.004685939
 31
0.0
  0
LINE
  8
0
  6
CONTINUOUS
 62
     2
 10
1822.635
 20
1057.493573333
 30
0.0
 11
1818.752714323
 21
1043.004685939
 31
0.0
  0
LINE
  8
0
  6
CONTINUOUS
 62
     2
 10
1822.635
 20
1057.493573333
 30
0.0
 11
1826.517285677
 21
1043.004685939
 31
0.0
  0
LINE
  8
0
  6
CONTINUOUS
 62
     2
 10
1818.342952893
 20
1057.493573333
 30
0.0
 11
1813.635
 21
1057.493573333
 31
0.0
  0
LINE
  8
0
  6
CONTINUOUS
 62
     2
 10
1781.535
 20
842.493573333
 30
0.0
 11
1781.535
 21
1057.493573333
 31
0.0
  0
LINE
  8
0
  6
CONTINUOUS
 62
     2
 10
1822.635
 20
633.493573333
 30
0.0
 11
1822.635
 21
1057.493573333
 31
0.0
  0
LINE
  8
0
  6
CONTINUOUS
 62
     2
 10
1822.635
 20
633.493573333
 30
0.0
 11
1826.517285677
 21
647.982460728
 31
0.0
  0
LINE
  8
0
  6
CONTINUOUS
 62
     2
 10
1822.635
 20
633.493573333
 30
0.0
 11
1818.752714323
 21
647.982460728
 31
0.0
  0
ARC
  8
0
  6
CONTINUOUS
 62
     1
 10
1614.135
 20
842.493573333
 30
0.0
 40
125.0
 50
280.557968545
 51
0.0
  0
ARC
  8
0
  6
CONTINUOUS
 62
     1
 10
1661.635
 20
760.221159974
 30
0.0
 40
20.0
 50
210.0
 51
30.0
  0
LINE
  8
0
  6
CONTINUOUS
 62
     1
 10
1678.955508076
 20
770.221159974
 30
0.0
 11
1645.845211838
 21
827.569875311
 31
0.0
  0
LINE
  8
0
  6
CONTINUOUS
 62
     2
 10
1684.135
 20
772.493573333
 30
0.0
 11
1697.080832412
 21
759.547740921
 31
0.0
  0
ARC
  8
0
  6
CONTINUOUS
 62
     2
 10
1614.135
 20
842.493573333
 30
0.0
 40
107.5
 50
308.674771409
 51
321.719074212
  0
CIRCLE
  8
0
  6
LTYPE1
 62
     1
 10
1690.148978978
 20
766.479594356
 30
0.0
 40
7.25
  0
LINE
  8
0
  6
CONTINUOUS
 62
     2
 10
1544.135
 20
772.493573333
 30
0.0
 11
1531.189167588
 21
759.547740921
 31
0.0
  0
ARC
  8
0
  6
CONTINUOUS
 62
     2
 10
1614.135
 20
842.493573333
 30
0.0
 40
107.5
 50
218.280925788
 51
231.325228591
  0
CIRCLE
  8
0
  6
LTYPE1
 62
     1
 10
1538.121021022
 20
766.479594356
 30
0.0
 40
7.25
  0
CIRCLE
  8
0
  6
CONTINUOUS
 62
     1
 10
1674.135
 20
842.493573333
 30
0.0
 40
10.0
  0
LINE
  8
0
  6
CONTINUOUS
 62
     1
 10
1617.468333333
 20
822.77330739
 30
0.0
 11
1675.801666667
 21
832.633440361
 31
0.0
  0
CIRCLE
  8
0
  6
CONTINUOUS
 62
     1
 10
1614.135
 20
857.493573333
 30
0.0
 40
4.0
  0
CIRCLE
  8
0
  6
CONTINUOUS
 62
     1
 10
1614.135
 20
842.493573333
 30
0.0
 40
4.0
  0
CIRCLE
  8
0
  6
CONTINUOUS
 62
     1
 10
1599.135
 20
842.493573333
 30
0.0
 40
4.0
  0
CIRCLE
  8
0
  6
CONTINUOUS
 62
     1
 10
1614.135
 20
827.493573333
 30
0.0
 40
4.0
  0
CIRCLE
  8
0
  6
CONTINUOUS
 62
     1
 10
1629.135
 20
842.493573333
 30
0.0
 40
4.0
  0
LINE
  8
0
  6
CONTINUOUS
 62
     1
 10
1519.135
 20
822.493573333
 30
0.0
 11
1602.587994616
 21
822.493573333
 31
0.0
  0
LINE
  8
0
  6
CONTINUOUS
 62
     1
 10
1644.314491924
 20
750.221159974
 30
0.0
 11
1602.587994616
 21
822.493573333
 31
0.0
  0
TEXT
  8
0
  6
CONTINUOUS
 62
     2
 10
1579.935
 20
1107.993573333
 30
0.0
 40
21.0
  1
φ２５０
 50
0.0
 41
0.9
 51
0.0
  7
KANJI44
  0
TEXT
  8
0
  6
CONTINUOUS
 62
     2
 10
1775.535
 20
902.993573333
 30
0.0
 40
21.0
  1
２１５
 50
90.0
 41
0.9
 51
0.0
  7
KANJI44
  0
TEXT
  8
0
  6
CONTINUOUS
 62
     2
 10
1816.635
 20
798.493573333
 30
0.0
 40
21.0
  1
４２４
 50
90.0
 41
0.9
 51
0.0
  7
KANJI44
  0
LINE
  8
0
  6
CONTINUOUS
 62
     2
 10
430.035
 20
1083.268573333
 30
0.0
 11
444.523887394
 21
1079.386287657
 31
0.0
  0
LINE
  8
0
  6
CONTINUOUS
 62
     2
 10
430.035
 20
1083.268573333
 30
0.0
 11
444.523887394
 21
1087.15085901
 31
0.0
  0
LINE
  8
0
  6
CONTINUOUS
 62
     1
 10
430.035
 20
967.493573333
 30
0.0
 11
446.035
 21
967.493573333
 31
0.0
  0
LINE
  8
0
  6
CONTINUOUS
 62
     1
 10
446.035
 20
717.493573333
 30
0.0
 11
446.035
 21
967.493573333
 31
0.0
  0
LINE
  8
0
  6
CONTINUOUS
 62
     1
 10
496.035
 20
737.493573333
 30
0.0
 11
496.035
 21
947.493573333
 31
0.0
  0
LINE
  8
0
  6
CONTINUOUS
 62
     1
 10
496.035
 20
947.493573333
 30
0.0
 11
446.035
 21
947.493573333
 31
0.0
  0
LINE
  8
0
  6
CONTINUOUS
 62
     2
 10
430.035
 20
1083.268573333
 30
0.0
 11
895.035
 21
1083.268573333
 31
0.0
  0
LINE
  8
0
  6
LTYPE3
 62
     2
 10
590.035
 20
942.336640669
 30
0.0
 11
590.035
 21
982.636640669
 31
0.0
  0
LINE
  8
0
  6
CONTINUOUS
 62
     1
 10
680.035
 20
990.493573333
 30
0.0
 11
680.035
 21
1030.493573333
 31
0.0
  0
LINE
  8
0
  6
CONTINUOUS
 62
     1
 10
680.035
 20
1030.493573333
 30
0.0
 11
654.335
 21
1030.493573333
 31
0.0
  0
LINE
  8
0
  6
CONTINUOUS
 62
     1
 10
680.035
 20
990.493573333
 30
0.0
 11
654.335
 21
990.493573333
 31
0.0
  0
ARC
  8
0
  6
CONTINUOUS
 62
     1
 10
648.335
 20
985.193573333
 30
0.0
 40
6.0
 50
270.0
 51
0.0
  0
LINE
  8
0
  6
LTYPE3
 62
     2
 10
684.291580424
 20
1010.493573333
 30
0.0
 11
644.791580424
 21
1010.493573333
 31
0.0
  0
LINE
  8
0
  6
CONTINUOUS
 62
     2
 10
680.035
 20
1010.493573333
 30
0.0
 11
692.458015724
 21
1018.900039911
 31
0.0
  0
LINE
  8
0
  6
CONTINUOUS
 62
     2
 10
680.035
 20
1010.493573333
 30
0.0
 11
686.59041392
 21
1023.985294807
 31
0.0
  0
LINE
  8
0
  6
CONTINUOUS
 62
     2
 10
680.035
 20
1010.493573333
 30
0.0
 11
712.535
 21
1047.993573333
 31
0.0
  0
ARC
  8
0
  6
CONTINUOUS
 62
     1
 10
534.854480257
 20
985.193573333
 30
0.0
 40
6.0
 50
190.033164511
 51
270.0
  0
LINE
  8
0
  6
CONTINUOUS
 62
     1
 10
648.696039485
 20
979.193573333
 30
0.0
 11
534.854480257
 21
979.193573333
 31
0.0
  0
ARC
  8
0
  6
CONTINUOUS
 62
     1
 10
534.854480257
 20
1047.493573333
 30
0.0
 40
6.0
 50
90.0
 51
180.0
  0
LINE
  8
0
  6
CONTINUOUS
 62
     1
 10
653.143952959
 20
1053.493573333
 30
0.0
 11
534.854480257
 21
1053.493573333
 31
0.0
  0
LINE
  8
0
  6
CONTINUOUS
 62
     1
 10
664.412020398
 20
1052.992397689
 30
0.0
 11
662.235
 21
1057.493573333
 31
0.0
  0
LINE
  8
0
  6
CONTINUOUS
 62
     1
 10
662.235
 20
1057.493573333
 30
0.0
 11
516.836684551
 21
987.170812433
 31
0.0
  0
LINE
  8
0
  6
CONTINUOUS
 62
     1
 10
664.412020398
 20
1052.992397689
 30
0.0
 11
519.01370495
 21
982.669636789
 31
0.0
  0
LINE
  8
0
  6
CONTINUOUS
 62
     1
 10
516.836684551
 20
987.170812433
 30
0.0
 11
519.01370495
 21
982.669636789
 31
0.0
  0
LINE
  8
0
  6
CONTINUOUS
 62
     1
 10
528.854480257
 20
994.169636789
 30
0.0
 11
528.854480257
 21
1047.493573333
 31
0.0
  0
LINE
  8
0
  6
CONTINUOUS
 62
     1
 10
529.51370495
 20
987.169636789
 30
0.0
 11
529.51370495
 21
984.169636789
 31
0.0
  0
LINE
  8
0
  6
CONTINUOUS
 62
     2
 10
712.535
 20
1047.993573333
 30
0.0
 11
779.535
 21
1047.993573333
 31
0.0
  0
LINE
  8
0
  6
CONTINUOUS
 62
     1
 10
654.335
 20
985.193573333
 30
0.0
 11
654.335
 21
1046.993573333
 31
0.0
  0
LINE
  8
0
  6
CONTINUOUS
 62
     1
 10
496.035
 20
947.493573333
 30
0.0
 11
509.16
 21
964.993573333
 31
0.0
  0
LINE
  8
0
  6
CONTINUOUS
 62
     1
 10
857.755549228
 20
957.493573333
 30
0.0
 11
723.035
 21
957.493573333
 31
0.0
  0
LINE
  8
0
  6
CONTINUOUS
 62
     1
 10
773.035
 20
957.493573333
 30
0.0
 11
773.035
 21
727.493573333
 31
0.0
  0
LINE
  8
0
  6
CONTINUOUS
 62
     1
 10
723.035
 20
957.493573333
 30
0.0
 11
723.035
 21
727.493573333
 31
0.0
  0
LINE
  8
0
  6
CONTINUOUS
 62
     1
 10
723.035
 20
957.493573333
 30
0.0
 11
715.535
 21
964.993573333
 31
0.0
  0
LINE
  8
0
  6
CONTINUOUS
 62
     1
 10
509.16
 20
964.993573333
 30
0.0
 11
715.535
 21
964.993573333
 31
0.0
  0
LINE
  8
0
  6
CONTINUOUS
 62
     1
 10
496.035
 20
944.993573333
 30
0.0
 11
723.035
 21
944.993573333
 31
0.0
  0
LINE
  8
0
  6
CONTINUOUS
 62
     1
 10
496.035
 20
929.993573333
 30
0.0
 11
723.035
 21
929.993573333
 31
0.0
  0
LINE
  8
0
  6
CONTINUOUS
 62
     1
 10
496.035
 20
914.993573333
 30
0.0
 11
723.035
 21
914.993573333
 31
0.0
  0
LINE
  8
0
  6
CONTINUOUS
 62
     1
 10
496.035
 20
899.993573333
 30
0.0
 11
723.035
 21
899.993573333
 31
0.0
  0
LINE
  8
0
  6
CONTINUOUS
 62
     1
 10
496.035
 20
884.993573333
 30
0.0
 11
723.035
 21
884.993573333
 31
0.0
  0
LINE
  8
0
  6
CONTINUOUS
 62
     1
 10
496.035
 20
869.993573333
 30
0.0
 11
723.035
 21
869.993573333
 31
0.0
  0
LINE
  8
0
  6
CONTINUOUS
 62
     1
 10
496.035
 20
854.993573333
 30
0.0
 11
723.035
 21
854.993573333
 31
0.0
  0
LINE
  8
0
  6
CONTINUOUS
 62
     1
 10
505.41
 20
959.993573333
 30
0.0
 11
720.535
 21
959.993573333
 31
0.0
  0
LINE
  8
0
  6
CONTINUOUS
 62
     1
 10
610.035
 20
964.993573333
 30
0.0
 11
610.035
 21
979.193573333
 31
0.0
  0
LINE
  8
0
  6
CONTINUOUS
 62
     1
 10
570.035
 20
964.993573333
 30
0.0
 11
570.035
 21
979.193573333
 31
0.0
  0
LINE
  8
0
  6
CONTINUOUS
 62
     2
 10
895.035
 20
812.393573333
 30
0.0
 11
895.035
 21
1092.268573333
 31
0.0
  0
LINE
  8
0
  6
CONTINUOUS
 62
     2
 10
895.035
 20
1083.268573333
 30
0.0
 11
880.546112606
 21
1087.15085901
 31
0.0
  0
LINE
  8
0
  6
CONTINUOUS
 62
     2
 10
895.035
 20
1083.268573333
 30
0.0
 11
880.546112606
 21
1079.386287657
 31
0.0
  0
LINE
  8
0
  6
CONTINUOUS
 62
     2
 10
897.635
 20
864.593573333
 30
0.0
 11
906.867044996
 21
876.415981937
 31
0.0
  0
LINE
  8
0
  6
CONTINUOUS
 62
     2
 10
897.635
 20
864.593573333
 30
0.0
 11
899.718981193
 21
879.448102016
 31
0.0
  0
LINE
  8
0
  6
CONTINUOUS
 62
     2
 10
897.635
 20
864.593573333
 30
0.0
 11
960.91320748
 21
1013.768623333
 31
0.0
  0
LINE
  8
0
  6
CONTINUOUS
 62
     1
 10
885.435
 20
862.493573333
 30
0.0
 11
889.935
 21
862.493573333
 31
0.0
  0
LINE
  8
0
  6
CONTINUOUS
 62
     1
 10
889.935
 20
791.893573333
 30
0.0
 11
889.935
 21
862.493573333
 31
0.0
  0
LINE
  8
0
  6
CONTINUOUS
 62
     1
 10
885.435
 20
862.493573333
 30
0.0
 11
885.435
 21
796.893573333
 31
0.0
  0
ARC
  8
0
  6
CONTINUOUS
 62
     1
 10
857.755549228
 20
937.493573333
 30
0.0
 40
20.0
 50
9.12031501
 51
90.0
  0
ARC
  8
0
  6
CONTINUOUS
 62
     1
 10
-1615.293453082
 20
842.493573333
 30
0.0
 40
2494.728453082
 50
357.744769101
 51
2.255230899
  0
LINE
  8
0
  6
CONTINUOUS
 62
     2
 10
960.91320748
 20
1013.768623333
 30
0.0
 11
1104.83505
 21
1013.768623333
 31
0.0
  0
LINE
  8
0
  6
CONTINUOUS
 62
     1
 10
430.035
 20
717.493573333
 30
0.0
 11
441.035
 21
717.493573333
 31
0.0
  0
LINE
  8
0
  6
CONTINUOUS
 62
     1
 10
430.035
 20
717.493573333
 30
0.0
 11
446.035
 21
717.493573333
 31
0.0
  0
LINE
  8
0
  6
CONTINUOUS
 62
     1
 10
496.035
 20
737.493573333
 30
0.0
 11
446.035
 21
737.493573333
 31
0.0
  0
LINE
  8
0
  6
CONTINUOUS
 62
     1
 10
496.035
 20
737.493573333
 30
0.0
 11
509.16
 21
719.993573333
 31
0.0
  0
LINE
  8
0
  6
CONTINUOUS
 62
     1
 10
509.16
 20
719.993573333
 30
0.0
 11
715.535
 21
719.993573333
 31
0.0
  0
LINE
  8
0
  6
CONTINUOUS
 62
     1
 10
496.035
 20
739.993573333
 30
0.0
 11
723.035
 21
739.993573333
 31
0.0
  0
LINE
  8
0
  6
CONTINUOUS
 62
     1
 10
505.41
 20
724.993573333
 30
0.0
 11
720.535
 21
724.993573333
 31
0.0
  0
LINE
  8
0
  6
CONTINUOUS
 62
     1
 10
496.035
 20
754.993573333
 30
0.0
 11
723.035
 21
754.993573333
 31
0.0
  0
LINE
  8
0
  6
CONTINUOUS
 62
     1
 10
496.035
 20
769.993573333
 30
0.0
 11
723.035
 21
769.993573333
 31
0.0
  0
LINE
  8
0
  6
CONTINUOUS
 62
     1
 10
496.035
 20
784.993573333
 30
0.0
 11
723.035
 21
784.993573333
 31
0.0
  0
LINE
  8
0
  6
CONTINUOUS
 62
     1
 10
496.035
 20
799.993573333
 30
0.0
 11
723.035
 21
799.993573333
 31
0.0
  0
LINE
  8
0
  6
CONTINUOUS
 62
     1
 10
496.035
 20
814.993573333
 30
0.0
 11
723.035
 21
814.993573333
 31
0.0
  0
LINE
  8
0
  6
CONTINUOUS
 62
     1
 10
496.035
 20
829.993573333
 30
0.0
 11
723.035
 21
829.993573333
 31
0.0
  0
LINE
  8
0
  6
CONTINUOUS
 62
     1
 10
857.755549228
 20
727.493573333
 30
0.0
 11
723.035
 21
727.493573333
 31
0.0
  0
LINE
  8
0
  6
CONTINUOUS
 62
     1
 10
723.035
 20
727.493573333
 30
0.0
 11
715.535
 21
719.993573333
 31
0.0
  0
ARC
  8
0
  6
CONTINUOUS
 62
     1
 10
857.755549228
 20
747.493573333
 30
0.0
 40
20.0
 50
270.0
 51
350.87968499
  0
LINE
  8
0
  6
CONTINUOUS
 62
     1
 10
879.535
 20
833.793573333
 30
0.0
 11
885.435
 21
833.793573333
 31
0.0
  0
LINE
  8
0
  6
CONTINUOUS
 62
     1
 10
879.535
 20
851.193573333
 30
0.0
 11
885.435
 21
851.193573333
 31
0.0
  0
LINE
  8
0
  6
CONTINUOUS
 62
     1
 10
893.035
 20
832.493573333
 30
0.0
 11
893.035
 21
842.393573333
 31
0.0
  0
LINE
  8
0
  6
CONTINUOUS
 62
     1
 10
886.435
 20
832.493573333
 30
0.0
 11
893.035
 21
832.493573333
 31
0.0
  0
LINE
  8
0
  6
CONTINUOUS
 62
     1
 10
886.435
 20
837.493573333
 30
0.0
 11
893.035
 21
837.493573333
 31
0.0
  0
LINE
  8
0
  6
CONTINUOUS
 62
     1
 10
893.035
 20
852.493573333
 30
0.0
 11
893.035
 21
842.593573333
 31
0.0
  0
LINE
  8
0
  6
CONTINUOUS
 62
     1
 10
886.435
 20
852.493573333
 30
0.0
 11
893.035
 21
852.493573333
 31
0.0
  0
LINE
  8
0
  6
CONTINUOUS
 62
     1
 10
886.435
 20
847.493573333
 30
0.0
 11
893.035
 21
847.493573333
 31
0.0
  0
LINE
  8
0
  6
CONTINUOUS
 62
     1
 10
879.535
 20
803.793573333
 30
0.0
 11
885.435
 21
803.793573333
 31
0.0
  0
LINE
  8
0
  6
CONTINUOUS
 62
     1
 10
879.535
 20
799.993573333
 30
0.0
 11
885.435
 21
799.993573333
 31
0.0
  0
LINE
  8
0
  6
CONTINUOUS
 62
     1
 10
894.935
 20
811.893573333
 30
0.0
 11
894.935
 21
791.893573333
 31
0.0
  0
LINE
  8
0
  6
CONTINUOUS
 62
     1
 10
889.935
 20
791.893573333
 30
0.0
 11
894.935
 21
791.893573333
 31
0.0
  0
LINE
  8
0
  6
CONTINUOUS
 62
     1
 10
889.935
 20
811.893573333
 30
0.0
 11
894.935
 21
811.893573333
 31
0.0
  0
LINE
  8
0
  6
CONTINUOUS
 62
     1
 10
889.935
 20
796.893573333
 30
0.0
 11
885.435
 21
796.893573333
 31
0.0
  0
LINE
  8
0
  6
CONTINUOUS
 62
     1
 10
883.435
 20
808.893573333
 30
0.0
 11
883.435
 21
793.893573333
 31
0.0
  0
LINE
  8
0
  6
CONTINUOUS
 62
     1
 10
880.935
 20
808.393573333
 30
0.0
 11
880.935
 21
793.893573333
 31
0.0
  0
TEXT
  8
0
  6
CONTINUOUS
 62
     2
 10
592.535
 20
1089.268573333
 30
2.1
 40
21.0
  1
４６５
 50
0.0
 41
0.9
 51
0.0
  7
KANJI46
  0
TEXT
  8
0
  6
CONTINUOUS
 62
     2
 10
694.054480257
 20
1053.993573333
 30
2.1
 40
21.0
  1
ＰＦ３／４
 50
0.0
 41
0.9
 51
0.0
  7
KANJI46
  0
LINE
  8
0
  6
CONTINUOUS
 62
     2
 10
722.535
 20
964.993573333
 30
0.0
 11
950.435
 21
964.993573333
 31
0.0
  0
LINE
  8
0
  6
CONTINUOUS
 62
     2
 10
943.435
 20
964.993573333
 30
0.0
 11
938.905666711
 21
948.089871373
 31
0.0
  0
LINE
  8
0
  6
CONTINUOUS
 62
     2
 10
943.435
 20
964.993573333
 30
0.0
 11
947.964333289
 21
948.089871373
 31
0.0
  0
LINE
  8
0
  6
CONTINUOUS
 62
     2
 10
943.435
 20
964.993573333
 30
0.0
 11
943.435
 21
719.993573333
 31
0.0
  0
LINE
  8
0
  6
CONTINUOUS
 62
     2
 10
943.435
 20
719.993573333
 30
0.0
 11
947.964333289
 21
736.897275293
 31
0.0
  0
LINE
  8
0
  6
CONTINUOUS
 62
     2
 10
943.435
 20
719.993573333
 30
0.0
 11
938.905666711
 21
736.897275293
 31
0.0
  0
LINE
  8
0
  6
CONTINUOUS
 62
     2
 10
722.535
 20
719.993573333
 30
0.0
 11
950.435
 21
719.993573333
 31
0.0
  0
TEXT
  8
0
  6
CONTINUOUS
 62
     3
 10
939.935
 20
790.693573333
 30
2.1
 40
21.0
  1
φ２４５
 50
90.0
 41
0.9
 51
0.0
  7
KANJI46
  0
LINE
  8
0
  6
CONTINUOUS
 62
     2
 10
800.535
 20
608.993573333
 30
0.0
 11
806.926680102
 21
592.702581176
 31
0.0
  0
LINE
  8
0
  6
CONTINUOUS
 62
     2
 10
800.535
 20
608.993573333
 30
0.0
 11
814.21585342
 21
598.081000323
 31
0.0
  0
LINE
  8
0
  6
CONTINUOUS
 62
     2
 10
800.535
 20
608.993573333
 30
0.0
 11
876.535
 21
505.993573333
 31
0.0
  0
LINE
  8
0
  6
CONTINUOUS
 62
     2
 10
876.535
 20
505.993573333
 30
0.0
 11
954.235
 21
505.993573333
 31
0.0
  0
TEXT
  8
0
  6
CONTINUOUS
 62
     3
 10
876.535
 20
509.493573333
 30
0.0
 40
28.0
  1
給脂口
 50
0.0
 41
0.925
 51
0.0
  7
KANJI47
  0
TEXT
  8
0
  6
CONTINUOUS
 62
     2
 10
1280.035
 20
1694.586906667
 30
1.12
 40
16.8
  1
ＭＣＬＧ４－　　２Ｊ
 50
0.0
 41
0.833333333
 51
0.0
  7
KANJI48
  0
TEXT
  8
0
  6
CONTINUOUS
 62
     2
 10
1280.035
 20
1657.72024
 30
1.12
 40
16.8
  1
ＭＣＬＧ４－　　３Ｊ
 50
0.0
 41
0.833333333
 51
0.0
  7
KANJI48
  0
TEXT
  8
0
  6
CONTINUOUS
 62
     2
 10
1280.035
 20
1620.853573333
 30
1.12
 40
16.8
  1
ＭＣＬＧ４－　　４Ｊ
 50
0.0
 41
0.833333333
 51
0.0
  7
KANJI48
  0
TEXT
  8
0
  6
CONTINUOUS
 62
     2
 10
1280.035
 20
1583.986906667
 30
1.12
 40
16.8
  1
ＭＣＬＧ４－　　５Ｊ
 50
0.0
 41
0.833333333
 51
0.0
  7
KANJI48
  0
TEXT
  8
0
  6
CONTINUOUS
 62
     2
 10
1280.035
 20
1547.12024
 30
1.12
 40
16.8
  1
ＭＣＬＧ４－　　６Ｊ
 50
0.0
 41
0.833333333
 51
0.0
  7
KANJI48
  0
TEXT
  8
0
  6
CONTINUOUS
 62
     2
 10
1280.035
 20
1510.253573333
 30
1.12
 40
16.8
  1
ＭＣＬＧ４－　　７Ｊ
 50
0.0
 41
0.833333333
 51
0.0
  7
KANJI48
  0
TEXT
  8
0
  6
CONTINUOUS
 62
     2
 10
1280.035
 20
1473.386906667
 30
1.12
 40
16.8
  1
ＭＣＬＧ４－　　８Ｊ
 50
0.0
 41
0.833333333
 51
0.0
  7
KANJI48
  0
TEXT
  8
0
  6
CONTINUOUS
 62
     2
 10
1280.035
 20
1436.52024
 30
1.12
 40
16.8
  1
ＭＣＬＧ４－　　９Ｊ
 50
0.0
 41
0.833333333
 51
0.0
  7
KANJI48
  0
TEXT
  8
0
  6
CONTINUOUS
 62
     2
 10
1280.035
 20
1399.653573333
 30
1.12
 40
16.8
  1
ＭＣＬＧ４－　１０Ｊ
 50
0.0
 41
0.833333333
 51
0.0
  7
KANJI48
  0
TEXT
  8
0
  6
CONTINUOUS
 62
     2
 10
1280.035
 20
1362.786906667
 30
1.12
 40
16.8
  1
ＭＣＬＧ４－　１１Ｊ
 50
0.0
 41
0.833333333
 51
0.0
  7
KANJI48
  0
TEXT
  8
0
  6
CONTINUOUS
 62
     2
 10
1280.035
 20
1325.92024
 30
1.12
 40
16.8
  1
ＭＣＬＧ４－　１２Ｊ
 50
0.0
 41
0.833333333
 51
0.0
  7
KANJI48
  0
TEXT
  8
0
  6
CONTINUOUS
 62
     2
 10
1280.035
 20
1289.053573333
 30
1.12
 40
16.8
  1
ＭＣＬＧ４－　１３Ｊ
 50
0.0
 41
0.833333333
 51
0.0
  7
KANJI48
  0
TEXT
  8
0
  6
CONTINUOUS
 62
     2
 10
1280.035
 20
1252.186906667
 30
1.12
 40
16.8
  1
ＭＣＬＧ４－　１４Ｊ
 50
0.0
 41
0.833333333
 51
0.0
  7
KANJI48
  0
TEXT
  8
0
  6
CONTINUOUS
 62
     2
 10
1280.035
 20
1215.32024
 30
1.12
 40
16.8
  1
ＭＣＬＧ４－　１５Ｊ
 50
0.0
 41
0.833333333
 51
0.0
  7
KANJI48
  0
TEXT
  8
0
  6
CONTINUOUS
 62
     2
 10
1280.035
 20
1178.453573333
 30
1.12
 40
16.8
  1
ＭＣＬＧ４－　　　Ｊ
 50
0.0
 41
0.833333333
 51
0.0
  7
KANJI48
  0
LINE
  8
0
  6
CONTINUOUS
 62
     1
 10
1813.0578
 20
1942.48972
 30
0.0
 11
1813.0578
 21
1812.49024
 31
0.0
  0
LINE
  8
0
  6
CONTINUOUS
 62
     2
 10
1738.0581
 20
1942.48972
 30
0.0
 11
1738.0581
 21
1812.49024
 31
0.0
  0
LINE
  8
0
  6
CONTINUOUS
 62
     2
 10
1663.0584
 20
1942.48972
 30
0.0
 11
1663.0584
 21
1812.49024
 31
0.0
  0
LINE
  8
0
  6
CONTINUOUS
 62
     1
 10
1563.0588
 20
1942.48972
 30
0.0
 11
1563.0588
 21
1812.49024
 31
0.0
  0
LINE
  8
0
  6
CONTINUOUS
 62
     1
 10
1563.0588
 20
1942.48972
 30
0.0
 11
1813.0578
 21
1942.48972
 31
0.0
  0
LINE
  8
0
  6
CONTINUOUS
 62
     1
 10
1563.0588
 20
1902.48988
 30
0.0
 11
1813.0578
 21
1902.48988
 31
0.0
  0
LINE
  8
0
  6
CONTINUOUS
 62
     2
 10
1563.0588
 20
1872.49
 30
0.0
 11
1813.0578
 21
1872.49
 31
0.0
  0
LINE
  8
0
  6
CONTINUOUS
 62
     2
 10
1563.0588
 20
1842.49012
 30
0.0
 11
1813.0578
 21
1842.49012
 31
0.0
  0
LINE
  8
0
  6
CONTINUOUS
 62
     1
 10
1563.0588
 20
1812.49024
 30
0.0
 11
1813.0578
 21
1812.49024
 31
0.0
  0
TEXT
  8
0
  6
CONTINUOUS
 62
     2
 10
1748.05806
 20
1924.98979
 30
1.499994
 40
14.99994
  1
起動電流
 50
0.0
 41
0.9
 51
0.0
  7
KANJI49
  0
TEXT
  8
0
  6
CONTINUOUS
 62
     2
 10
1748.05806
 20
1907.48986
 30
1.499994
 40
14.99994
  1
　　　Ａ
 50
0.0
 41
0.9
 51
0.0
  7
KANJI49
  0
TEXT
  8
0
  6
CONTINUOUS
 62
     2
 10
1673.05836
 20
1924.98979
 30
1.499994
 40
14.99994
  1
定格電流
 50
0.0
 41
0.9
 51
0.0
  7
KANJI49
  0
TEXT
  8
0
  6
CONTINUOUS
 62
     2
 10
1673.05836
 20
1907.48986
 30
1.499994
 40
14.99994
  1
　　　Ａ
 50
0.0
 41
0.9
 51
0.0
  7
KANJI49
  0
TEXT
  8
0
  6
CONTINUOUS
 62
     2
 10
1571.558766
 20
1849.99009
 30
1.499994
 40
14.99994
  1
２００／６０
 50
0.0
 41
0.9
 51
0.0
  7
KANJI49
  0
TEXT
  8
0
  6
CONTINUOUS
 62
     2
 10
1571.558766
 20
1924.98979
 30
1.499994
 40
14.99994
  1
電圧／周波数
 50
0.0
 41
0.9
 51
0.0
  7
KANJI49
  0
TEXT
  8
0
  6
CONTINUOUS
 62
     2
 10
1571.558766
 20
1907.48986
 30
1.499994
 40
14.99994
  1
　Ｖ／Ｈｚ
 50
0.0
 41
0.9
 51
0.0
  7
KANJI49
  0
TEXT
  8
0
  6
CONTINUOUS
 62
     2
 10
1571.558766
 20
1879.98997
 30
1.499994
 40
14.99994
  1
２００／５０
 50
0.0
 41
0.9
 51
0.0
  7
KANJI49
  0
TEXT
  8
0
  6
CONTINUOUS
 62
     2
 10
1571.558766
 20
1819.99021
 30
1.499994
 40
14.99994
  1
２２０／６０
 50
0.0
 41
0.9
 51
0.0
  7
KANJI49
  0
LINE
  8
0
  6
CONTINUOUS
 62
     1
 10
1513.059
 20
1942.48972
 30
0.0
 11
1513.059
 21
1812.49024
 31
0.0
  0
LINE
  8
0
  6
CONTINUOUS
 62
     2
 10
1438.0593
 20
1942.48972
 30
0.0
 11
1438.0593
 21
1812.49024
 31
0.0
  0
LINE
  8
0
  6
CONTINUOUS
 62
     2
 10
1363.0596
 20
1942.48972
 30
0.0
 11
1363.0596
 21
1812.49024
 31
0.0
  0
LINE
  8
0
  6
CONTINUOUS
 62
     1
 10
1263.06
 20
1942.48972
 30
0.0
 11
1513.059
 21
1942.48972
 31
0.0
  0
LINE
  8
0
  6
CONTINUOUS
 62
     1
 10
1263.06
 20
1902.48988
 30
0.0
 11
1513.059
 21
1902.48988
 31
0.0
  0
LINE
  8
0
  6
CONTINUOUS
 62
     2
 10
1263.06
 20
1872.49
 30
0.0
 11
1513.059
 21
1872.49
 31
0.0
  0
LINE
  8
0
  6
CONTINUOUS
 62
     2
 10
1263.06
 20
1842.49012
 30
0.0
 11
1513.059
 21
1842.49012
 31
0.0
  0
LINE
  8
0
  6
CONTINUOUS
 62
     1
 10
1263.06
 20
1812.49024
 30
0.0
 11
1513.059
 21
1812.49024
 31
0.0
  0
TEXT
  8
0
  6
CONTINUOUS
 62
     2
 10
1448.05926
 20
1924.98979
 30
1.499994
 40
14.99994
  1
起動電流
 50
0.0
 41
0.9
 51
0.0
  7
KANJI49
  0
TEXT
  8
0
  6
CONTINUOUS
 62
     2
 10
1448.05926
 20
1907.48986
 30
1.499994
 40
14.99994
  1
　　　Ａ
 50
0.0
 41
0.9
 51
0.0
  7
KANJI49
  0
TEXT
  8
0
  6
CONTINUOUS
 62
     2
 10
1373.05956
 20
1924.98979
 30
1.499994
 40
14.99994
  1
定格電流
 50
0.0
 41
0.9
 51
0.0
  7
KANJI49
  0
TEXT
  8
0
  6
CONTINUOUS
 62
     2
 10
1373.05956
 20
1907.48986
 30
1.499994
 40
14.99994
  1
　　　Ａ
 50
0.0
 41
0.9
 51
0.0
  7
KANJI49
  0
TEXT
  8
0
  6
CONTINUOUS
 62
     2
 10
1271.559966
 20
1924.98979
 30
1.499994
 40
14.99994
  1
電圧／周波数
 50
0.0
 41
0.9
 51
0.0
  7
KANJI49
  0
TEXT
  8
0
  6
CONTINUOUS
 62
     2
 10
1271.559966
 20
1907.48986
 30
1.499994
 40
14.99994
  1
　Ｖ／Ｈｚ
 50
0.0
 41
0.9
 51
0.0
  7
KANJI49
  0
TEXT
  8
0
  6
CONTINUOUS
 62
     2
 10
1271.559966
 20
1879.98997
 30
1.499994
 40
14.99994
  1
４００／５０
 50
0.0
 41
0.9
 51
0.0
  7
KANJI49
  0
TEXT
  8
0
  6
CONTINUOUS
 62
     2
 10
1271.559966
 20
1849.99009
 30
1.499994
 40
14.99994
  1
４００／６０
 50
0.0
 41
0.9
 51
0.0
  7
KANJI49
  0
TEXT
  8
0
  6
CONTINUOUS
 62
     2
 10
1271.559966
 20
1819.99021
 30
1.499994
 40
14.99994
  1
４４０／６０
 50
0.0
 41
0.9
 51
0.0
  7
KANJI49
  0
LINE
  8
0
  6
CONTINUOUS
 62
     1
 10
1263.06
 20
1942.48972
 30
0.0
 11
1263.06
 21
1812.49024
 31
0.0
  0
TEXT
  8
0
  6
CONTINUOUS
 62
     2
 10
1373.05956
 20
1879.98997
 30
1.499994
 40
14.99994
  1
　７．５
 50
0.0
 41
0.9
 51
0.0
  7
KANJI49
  0
TEXT
  8
0
  6
CONTINUOUS
 62
     2
 10
1448.05926
 20
1879.98997
 30
1.499994
 40
14.99994
  1
４５．５
 50
0.0
 41
0.9
 51
0.0
  7
KANJI49
  0
TEXT
  8
0
  6
CONTINUOUS
 62
     2
 10
1373.05956
 20
1849.99009
 30
1.499994
 40
14.99994
  1
　７．０
 50
0.0
 41
0.9
 51
0.0
  7
KANJI49
  0
TEXT
  8
0
  6
CONTINUOUS
 62
     2
 10
1373.05956
 20
1819.99021
 30
1.499994
 40
14.99994
  1
　６．６
 50
0.0
 41
0.9
 51
0.0
  7
KANJI49
  0
TEXT
  8
0
  6
CONTINUOUS
 62
     2
 10
1448.05926
 20
1849.99009
 30
1.499994
 40
14.99994
  1
４３．０
 50
0.0
 41
0.9
 51
0.0
  7
KANJI49
  0
TEXT
  8
0
  6
CONTINUOUS
 62
     2
 10
1448.05926
 20
1819.99021
 30
1.499994
 40
14.99994
  1
４７．３
 50
0.0
 41
0.9
 51
0.0
  7
KANJI49
  0
TEXT
  8
0
  6
CONTINUOUS
 62
     2
 10
1673.05836
 20
1879.98997
 30
1.499994
 40
14.99994
  1
１５．０
 50
0.0
 41
0.9
 51
0.0
  7
KANJI49
  0
TEXT
  8
0
  6
CONTINUOUS
 62
     2
 10
1673.05836
 20
1849.99009
 30
1.499994
 40
14.99994
  1
１４．０
 50
0.0
 41
0.9
 51
0.0
  7
KANJI49
  0
TEXT
  8
0
  6
CONTINUOUS
 62
     2
 10
1673.05836
 20
1819.99021
 30
1.499994
 40
14.99994
  1
１３．２
 50
0.0
 41
0.9
 51
0.0
  7
KANJI49
  0
TEXT
  8
0
  6
CONTINUOUS
 62
     2
 10
1748.05806
 20
1879.98997
 30
1.499994
 40
14.99994
  1
９１．０
 50
0.0
 41
0.9
 51
0.0
  7
KANJI49
  0
TEXT
  8
0
  6
CONTINUOUS
 62
     2
 10
1747.516423333
 20
1847.6984275
 30
1.499994
 40
14.99994
  1
８６．０
 50
0.0
 41
0.9
 51
0.0
  7
KANJI49
  0
TEXT
  8
0
  6
CONTINUOUS
 62
     2
 10
1748.766418333
 20
1819.3652075
 30
1.499994
 40
14.99994
  1
９４．６
 50
0.0
 41
0.9
 51
0.0
  7
KANJI49
  0
TEXT
  8
0
  6
CONTINUOUS
 62
     2
 10
2082.235
 20
1695.006906667
 30
1.68
 40
16.8
  1
１６７
 50
0.0
 41
0.9
 51
0.0
  7
KANJI34
  0
TEXT
  8
0
  6
CONTINUOUS
 62
     2
 10
2082.235
 20
1658.14024
 30
1.68
 40
16.8
  1
１７１
 50
0.0
 41
0.9
 51
0.0
  7
KANJI34
  0
TEXT
  8
0
  6
CONTINUOUS
 62
     2
 10
1993.7572281
 20
557.5840042
 30
7.182
 40
25.2
  1
　　前後の推奨余裕寸法は、各々３５ｍｍです。
 50
0.0
 41
0.857222222
 51
0.0
  7
KANJI31
  0
TEXT
  8
0
  6
CONTINUOUS
 62
     2
 10
2178.66
 20
300.39
 30
0.0
 40
24.5
  1
ＭＣＬＧ４－Ｊ
 50
0.0
 41
0.793650794
 51
0.0
  7
KANJI50
  0
TEXT
  8
0
  6
CONTINUOUS
 62
     2
 10
2312.5933723
 20
188.389993
 30
15.166666667
 40
35.0
  1
３０００６７６
 50
0.0
 41
0.8
 51
0.0
  7
KANJI51
  0
TEXT
  8
0
  6
CONTINUOUS
 62
     2
 10
2082.235
 20
1621.273573333
 30
1.68
 40
16.8
  1
１７６
 50
0.0
 41
0.9
 51
0.0
  7
KANJI34
  0
TEXT
  8
0
  6
CONTINUOUS
 62
     2
 10
2082.235
 20
1584.406906667
 30
1.68
 40
16.8
  1
１８０
 50
0.0
 41
0.9
 51
0.0
  7
KANJI34
  0
TEXT
  8
0
  6
CONTINUOUS
 62
     2
 10
2082.235
 20
1547.54024
 30
1.68
 40
16.8
  1
１８５
 50
0.0
 41
0.9
 51
0.0
  7
KANJI34
  0
TEXT
  8
0
  6
CONTINUOUS
 62
     2
 10
2082.235
 20
1510.673573333
 30
1.68
 40
16.8
  1
１９０
 50
0.0
 41
0.9
 51
0.0
  7
KANJI34
  0
TEXT
  8
0
  6
CONTINUOUS
 62
     2
 10
2082.235
 20
1473.806906667
 30
1.68
 40
16.8
  1
１９４
 50
0.0
 41
0.9
 51
0.0
  7
KANJI34
  0
TEXT
  8
0
  6
CONTINUOUS
 62
     2
 10
2082.235
 20
1436.94024
 30
1.68
 40
16.8
  1
１９９
 50
0.0
 41
0.9
 51
0.0
  7
KANJI34
  0
TEXT
  8
0
  6
CONTINUOUS
 62
     2
 10
2082.235
 20
1400.073573333
 30
1.68
 40
16.8
  1
２０４
 50
0.0
 41
0.9
 51
0.0
  7
KANJI34
  0
TEXT
  8
0
  6
CONTINUOUS
 62
     2
 10
2082.235
 20
1215.74024
 30
1.68
 40
16.8
  1
２２７
 50
0.0
 41
0.9
 51
0.0
  7
KANJI34
  0
TEXT
  8
0
  6
CONTINUOUS
 62
     2
 10
2082.235
 20
1363.206906667
 30
1.68
 40
16.8
  1
２０８
 50
0.0
 41
0.9
 51
0.0
  7
KANJI34
  0
TEXT
  8
0
  6
CONTINUOUS
 62
     2
 10
2082.235
 20
1326.34024
 30
1.68
 40
16.8
  1
２１２
 50
0.0
 41
0.9
 51
0.0
  7
KANJI34
  0
TEXT
  8
0
  6
CONTINUOUS
 62
     2
 10
2082.235
 20
1289.473573333
 30
1.68
 40
16.8
  1
２１７
 50
0.0
 41
0.9
 51
0.0
  7
KANJI34
  0
TEXT
  8
0
  6
CONTINUOUS
 62
     2
 10
2082.235
 20
1252.606906667
 30
1.68
 40
16.8
  1
２２１
 50
0.0
 41
0.9
 51
0.0
  7
KANJI34
  0
LINE
  8
0
  6
CONTINUOUS
 62
     2
 10
1342.635
 20
1005.193573333
 30
0.0
 11
1325.73129804
 21
1009.722906623
 31
0.0
  0
LINE
  8
0
  6
CONTINUOUS
 62
     2
 10
1342.635
 20
1005.193573333
 30
0.0
 11
1325.73129804
 21
1000.664240044
 31
0.0
  0
LINE
  8
0
  6
CONTINUOUS
 62
     2
 10
1342.635
 20
1005.193573333
 30
0.0
 11
1275.635
 21
1005.193573333
 31
0.0
  0
TEXT
  8
0
  6
CONTINUOUS
 62
     3
 10
1268.835
 20
1013.693573333
 30
0.0
 40
28.0
  1
前進
 50
0.0
 41
0.925
 51
0.0
  7
KANJI47
  0
LINE
  8
0
  6
LTYPE2
 62
     2
 10
337.735
 20
877.493573333
 30
0.0
 11
283.735
 21
877.493573333
 31
0.0
  0
LINE
  8
0
  6
CONTINUOUS
 62
     1
 10
294.035091387
 20
887.937380672
 30
0.0
 11
295.99068111
 21
891.324561431
 31
0.0
  0
LINE
  8
0
  6
CONTINUOUS
 62
     1
 10
294.035091387
 20
877.493573333
 30
0.0
 11
294.035091387
 21
887.937380672
 31
0.0
  0
LINE
  8
0
  6
CONTINUOUS
 62
     1
 10
294.035091387
 20
867.049765994
 30
0.0
 11
295.99068111
 21
863.662585236
 31
0.0
  0
LINE
  8
0
  6
CONTINUOUS
 62
     1
 10
294.035091387
 20
877.493573333
 30
0.0
 11
294.035091387
 21
867.049765994
 31
0.0
  0
ARC
  8
0
  6
CONTINUOUS
 62
     1
 10
307.240414698
 20
877.493573333
 30
0.0
 40
13.20532331
 50
148.419912243
 51
211.580087757
  0
ARC
  8
0
  6
CONTINUOUS
 62
     1
 10
298.068495191
 20
887.866814407
 30
0.0
 40
4.034021051
 50
177.010501597
 51
238.997686085
  0
LINE
  8
0
  6
CONTINUOUS
 62
     1
 10
294.035091387
 20
867.049765994
 30
0.0
 11
295.99068111
 21
863.662585236
 31
0.0
  0
ARC
  8
0
  6
CONTINUOUS
 62
     1
 10
298.068495191
 20
867.12033226
 30
0.0
 40
4.034021051
 50
121.002313915
 51
182.989498403
  0
LINE
  8
0
  6
CONTINUOUS
 62
     1
 10
304.035
 20
891.324561431
 30
0.0
 11
295.99068111
 21
891.324561431
 31
0.0
  0
LINE
  8
0
  6
CONTINUOUS
 62
     1
 10
304.035
 20
884.409067382
 30
0.0
 11
295.99068111
 21
884.409067382
 31
0.0
  0
LINE
  8
0
  6
CONTINUOUS
 62
     1
 10
304.035
 20
870.578079284
 30
0.0
 11
295.99068111
 21
870.578079284
 31
0.0
  0
LINE
  8
0
  6
CONTINUOUS
 62
     1
 10
304.035
 20
863.662585236
 30
0.0
 11
295.99068111
 21
863.662585236
 31
0.0
  0
LINE
  8
0
  6
CONTINUOUS
 62
     1
 10
304.035
 20
892.493573333
 30
0.0
 11
304.035
 21
878.662585236
 31
0.0
  0
LINE
  8
0
  6
CONTINUOUS
 62
     1
 10
304.035
 20
528.493573333
 30
0.0
 11
304.035
 21
897.493573333
 31
0.0
  0
LINE
  8
0
  6
CONTINUOUS
 62
     1
 10
322.035
 20
897.493573333
 30
0.0
 11
322.035
 21
528.493573333
 31
0.0
  0
ARC
  8
0
  6
CONTINUOUS
 62
     1
 10
355.035
 20
902.493573333
 30
0.0
 40
5.0
 50
270.0
 51
0.000123638
  0
ARC
  8
0
  6
CONTINUOUS
 62
     1
 10
425.035
 20
902.493573333
 30
0.0
 40
5.0
 50
270.000107075
 51
0.0
  0
LINE
  8
0
  6
CONTINUOUS
 62
     1
 10
425.035009344
 20
897.493573333
 30
0.0
 11
304.035
 21
897.493573333
 31
0.0
  0
LINE
  8
0
  6
CONTINUOUS
 62
     1
 10
360.035
 20
902.493584123
 30
0.0
 11
360.035
 21
947.493573333
 31
0.0
  0
LINE
  8
0
  6
CONTINUOUS
 62
     1
 10
430.035
 20
947.493573333
 30
0.0
 11
360.035
 21
947.493573333
 31
0.0
  0
LINE
  8
0
  6
LTYPE6
 62
     2
 10
390.035
 20
940.993573333
 30
0.0
 11
390.035
 21
1009.993573333
 31
0.0
  0
LINE
  8
0
  6
LTYPE6
 62
     2
 10
355.535
 20
975.493573333
 30
0.0
 11
424.535
 21
975.493573333
 31
0.0
  0
CIRCLE
  8
0
  6
CONTINUOUS
 62
     1
 10
390.035
 20
975.493573333
 30
0.0
 40
17.5
  0
ARC
  8
0
  6
CONTINUOUS
 62
     1
 10
390.035
 20
975.493573333
 30
0.0
 40
30.0
 50
54.4
 51
234.4
  0
ARC
  8
0
  6
CONTINUOUS
 62
     1
 10
402.335
 20
954.493573333
 30
0.0
 40
2.0
 50
4.7
 51
90.0
  0
ARC
  8
0
  6
CONTINUOUS
 62
     1
 10
377.735
 20
954.493573333
 30
0.0
 40
2.0
 50
90.0
 51
175.3
  0
LINE
  8
0
  6
CONTINUOUS
 62
     1
 10
377.735
 20
956.493573333
 30
0.0
 11
402.335
 21
956.493573333
 31
0.0
  0
LINE
  8
0
  6
CONTINUOUS
 62
     1
 10
390.035
 20
957.993573333
 30
0.0
 11
377.735
 21
956.493573333
 31
0.0
  0
LINE
  8
0
  6
CONTINUOUS
 62
     1
 10
390.035
 20
957.993573333
 30
0.0
 11
402.335
 21
956.493573333
 31
0.0
  0
ARC
  8
0
  6
CONTINUOUS
 62
     1
 10
410.835
 20
946.193573333
 30
0.0
 40
6.0
 50
122.8
 51
172.9
  0
ARC
  8
0
  6
CONTINUOUS
 62
     1
 10
369.235
 20
946.193573333
 30
0.0
 40
6.0
 50
6.4
 51
55.9
  0
ARC
  8
0
  6
CONTINUOUS
 62
     1
 10
390.035
 20
975.493573333
 30
0.0
 40
30.0
 50
305.9
 51
54.4
  0
LINE
  8
0
  6
CONTINUOUS
 62
     1
 10
404.335
 20
954.693573333
 30
0.0
 11
404.882826087
 21
947.493573333
 31
0.0
  0
LINE
  8
0
  6
CONTINUOUS
 62
     1
 10
375.187173913
 20
947.493573333
 30
0.0
 11
375.735
 21
954.693573333
 31
0.0
  0
LINE
  8
0
  6
CONTINUOUS
 62
     1
 10
294.035
 20
789.993573333
 30
0.0
 11
294.035
 21
894.993573333
 31
0.0
  0
LINE
  8
0
  6
CONTINUOUS
 62
     1
 10
304.035
 20
894.993573333
 30
0.0
 11
294.035
 21
894.993573333
 31
0.0
  0
LINE
  8
0
  6
CONTINUOUS
 62
     1
 10
290.035
 20
817.493573333
 30
0.0
 11
290.035
 21
867.493573333
 31
0.0
  0
LINE
  8
0
  6
CONTINUOUS
 62
     1
 10
294.035
 20
867.493573333
 30
0.0
 11
244.035
 21
867.493573333
 31
0.0
  0
LINE
  8
0
  6
CONTINUOUS
 62
     1
 10
304.035
 20
789.993573333
 30
0.0
 11
294.035
 21
789.993573333
 31
0.0
  0
LINE
  8
0
  6
CONTINUOUS
 62
     1
 10
244.035
 20
817.493573333
 30
0.0
 11
244.035
 21
867.493573333
 31
0.0
  0
LINE
  8
0
  6
CONTINUOUS
 62
     1
 10
294.035
 20
817.493573333
 30
0.0
 11
244.035
 21
817.493573333
 31
0.0
  0
LINE
  8
0
  6
CONTINUOUS
 62
     2
 10
264.535
 20
867.493573333
 30
0.0
 11
263.235271271
 21
884.945241025
 31
0.0
  0
LINE
  8
0
  6
CONTINUOUS
 62
     2
 10
264.535
 20
867.493573333
 30
0.0
 11
254.683568057
 21
881.957296529
 31
0.0
  0
LINE
  8
0
  6
CONTINUOUS
 62
     2
 10
264.535
 20
867.493573333
 30
0.0
 11
235.535
 21
950.493573333
 31
0.0
  0
TEXT
  8
7
  6
CONTINUOUS
 62
     2
 10
117.299356223
 20
921.093573333
 30
0.0
 40
21.0
  1
手動軸□１４
 50
0.0
 41
0.9
 51
0.0
  7
KANJI52
  0
ARC
  8
0
  6
CONTINUOUS
 62
     2
 10
207.035
 20
842.893573333
 30
0.0
 40
20.0
 50
231.952957468
 51
156.801409486
  0
LINE
  8
0
  6
CONTINUOUS
 62
     2
 10
188.6520994
 20
850.771959305
 30
0.0
 11
190.94679211
 21
860.609398082
 31
0.0
  0
LINE
  8
0
  6
CONTINUOUS
 62
     2
 10
188.6520994
 20
850.771959305
 30
0.0
 11
196.920260778
 21
855.67929584
 31
0.0
  0
TEXT
  8
0
  6
CONTINUOUS
 62
     2
 10
126.6520994
 20
833.771959305
 30
0.0
 40
15.0
  1
前進方向
 50
0.0
 41
0.9
 51
0.0
  7
KANJI40
  0
TEXT
  8
0
  6
CONTINUOUS
 62
     3
 10
116.135
 20
953.993573333
 30
0.0
 40
21.0
  1
手動軸カバー
 50
0.0
 41
0.9
 51
0.0
  7
KANJI44
  0
LINE
  8
0
  6
CONTINUOUS
 62
     2
 10
235.535
 20
950.493573333
 30
0.0
 11
109.535
 21
950.493573333
 31
0.0
  0
LINE
  8
0
  6
CONTINUOUS
 62
     2
 10
430.035
 20
1083.268573333
 30
0.0
 11
413.13129804
 21
1087.797906623
 31
0.0
  0
LINE
  8
0
  6
CONTINUOUS
 62
     2
 10
430.035
 20
1083.268573333
 30
0.0
 11
413.13129804
 21
1078.739240044
 31
0.0
  0
LINE
  8
0
  6
CONTINUOUS
 62
     2
 10
430.035
 20
1083.268573333
 30
0.0
 11
244.035
 21
1083.268573333
 31
0.0
  0
LINE
  8
0
  6
CONTINUOUS
 62
     2
 10
244.035
 20
1083.268573333
 30
0.0
 11
260.93870196
 21
1078.739240044
 31
0.0
  0
LINE
  8
0
  6
CONTINUOUS
 62
     2
 10
244.035
 20
1083.268573333
 30
0.0
 11
260.93870196
 21
1087.797906623
 31
0.0
  0
LINE
  8
0
  6
CONTINUOUS
 62
     2
 10
244.035
 20
874.493573333
 30
0.0
 11
244.035
 21
1090.268573333
 31
0.0
  0
TEXT
  8
0
  6
CONTINUOUS
 62
     3
 10
298.185
 20
1086.768573333
 30
0.0
 40
21.0
  1
１８６
 50
0.0
 41
0.9
 51
0.0
  7
KANJI44
  0
TEXT
  8
0
  6
CONTINUOUS
 62
     2
 10
959.03505
 20
1019.768623333
 30
2.1
 40
21.0
  1
ブレーキ開放装置
 50
0.0
 41
0.9
 51
0.0
  7
KANJI46
  0
LINE
  8
0
  6
CONTINUOUS
 62
     2
 10
2192.66
 20
1052.89
 30
0.0
 11
2805.16
 21
1052.89
 31
0.0
  0
LINE
  8
0
  6
CONTINUOUS
 62
     2
 10
2192.66
 20
1003.89
 30
0.0
 11
2805.16
 21
1003.89
 31
0.0
  0
LINE
  8
0
  6
CONTINUOUS
 62
     2
 10
2248.66
 20
1444.89
 30
0.0
 11
2248.66
 21
1052.89
 31
0.0
  0
TEXT
  8
0
  6
CONTINUOUS
 62
     2
 10
2231.16
 20
1016.49
 30
93.29
 40
26.6
  1
付属品
 50
0.0
 41
0.9
 51
0.0
  7
KANJI53
  0
TEXT
  8
0
  6
CONTINUOUS
 62
     2
 10
2231.16
 20
967.49
 30
210.52
 40
26.6
  1
台数
 50
0.0
 41
0.9
 51
0.0
  7
KANJI54
  0
LINE
  8
0
  6
CONTINUOUS
 62
     1
 10
2192.66
 20
1906.89
 30
0.0
 11
2805.16
 21
1906.89
 31
0.0
  0
TEXT
  8
0
  6
CONTINUOUS
 62
     2
 10
2280.16
 20
1855.79
 30
19.94958
 40
31.5
  1
マイティシリンダ仕様
 50
0.0
 41
0.9
 51
0.0
  7
KANJI55
  0
LINE
  8
0
  6
CONTINUOUS
 62
     2
 10
2248.66
 20
1101.89
 30
0.0
 11
2805.16
 21
1101.89
 31
0.0
  0
LINE
  8
0
  6
CONTINUOUS
 62
     2
 10
2248.66
 20
1248.89
 30
0.0
 11
2805.16
 21
1248.89
 31
0.0
  0
LINE
  8
0
  6
CONTINUOUS
 62
     2
 10
2248.66
 20
1297.89
 30
0.0
 11
2805.16
 21
1297.89
 31
0.0
  0
LINE
  8
0
  6
CONTINUOUS
 62
     2
 10
2192.66
 20
1542.89
 30
0.0
 11
2805.16
 21
1542.89
 31
0.0
  0
LINE
  8
0
  6
CONTINUOUS
 62
     2
 10
2192.66
 20
1493.89
 30
0.0
 11
2805.16
 21
1493.89
 31
0.0
  0
LINE
  8
0
  6
CONTINUOUS
 62
     2
 10
2192.66
 20
1444.89
 30
0.0
 11
2805.16
 21
1444.89
 31
0.0
  0
LINE
  8
0
  6
CONTINUOUS
 62
     2
 10
2248.66
 20
1346.89
 30
0.0
 11
2805.16
 21
1346.89
 31
0.0
  0
LINE
  8
0
  6
CONTINUOUS
 62
     2
 10
2248.66
 20
1395.89
 30
0.0
 11
2805.16
 21
1395.89
 31
0.0
  0
LINE
  8
0
  6
CONTINUOUS
 62
     2
 10
2192.66
 20
1787.89
 30
0.0
 11
2805.16
 21
1787.89
 31
0.0
  0
LINE
  8
0
  6
CONTINUOUS
 62
     2
 10
2192.66
 20
1738.89
 30
0.0
 11
2805.16
 21
1738.89
 31
0.0
  0
LINE
  8
0
  6
CONTINUOUS
 62
     2
 10
2192.66
 20
1689.89
 30
0.0
 11
2805.16
 21
1689.89
 31
0.0
  0
LINE
  8
0
  6
CONTINUOUS
 62
     2
 10
2192.66
 20
1640.89
 30
0.0
 11
2805.16
 21
1640.89
 31
0.0
  0
LINE
  8
0
  6
CONTINUOUS
 62
     2
 10
2192.66
 20
1591.89
 30
0.0
 11
2805.16
 21
1591.89
 31
0.0
  0
LINE
  8
0
  6
CONTINUOUS
 62
     2
 10
2192.66
 20
1836.89
 30
0.0
 11
2805.16
 21
1836.89
 31
0.0
  0
TEXT
  8
0
  6
CONTINUOUS
 62
     2
 10
2280.16
 20
1359.49
 30
39.01308
 40
26.6
  1
電源電圧
 50
0.0
 41
0.9
 51
0.0
  7
KANJI56
  0
TEXT
  8
0
  6
CONTINUOUS
 62
     2
 10
2280.16
 20
1310.49
 30
70.49
 40
26.6
  1
周波数
 50
0.0
 41
0.9
 51
0.0
  7
KANJI57
  0
TEXT
  8
0
  6
CONTINUOUS
 62
     2
 10
2280.16
 20
1261.49
 30
164.92
 40
26.6
  1
電流
 50
0.0
 41
0.9
 51
0.0
  7
KANJI58
  0
TEXT
  8
0
  6
CONTINUOUS
 62
     2
 10
2280.16
 20
1212.49
 30
70.49
 40
26.6
  1
絶縁級
 50
0.0
 41
0.9
 51
0.0
  7
KANJI57
  0
TEXT
  8
0
  6
CONTINUOUS
 62
     2
 10
2231.16
 20
1800.49
 30
210.52
 40
26.6
  1
形式
 50
0.0
 41
0.9
 51
0.0
  7
KANJI54
  0
TEXT
  8
0
  6
CONTINUOUS
 62
     2
 10
2231.16
 20
1751.49
 30
210.52
 40
26.6
  1
推力
 50
0.0
 41
0.9
 51
0.0
  7
KANJI54
  0
TEXT
  8
0
  6
CONTINUOUS
 62
     2
 10
2231.16
 20
1702.49
 30
34.675
 40
26.6
  1
ストローク
 50
0.0
 41
0.9
 51
0.0
  7
KANJI59
  0
TEXT
  8
0
  6
CONTINUOUS
 62
     2
 10
2231.16
 20
1555.49
 30
210.52
 40
26.6
  1
構造
 50
0.0
 41
0.9
 51
0.0
  7
KANJI54
  0
TEXT
  8
0
  6
CONTINUOUS
 62
     2
 10
2231.16
 20
1506.49
 30
15.13616
 40
26.6
  1
過負荷安全装置
 50
0.0
 41
0.9
 51
0.0
  7
KANJI60
  0
TEXT
  8
0
  6
CONTINUOUS
 62
     2
 10
2231.16
 20
1457.49
 30
93.29
 40
26.6
  1
塗装色
 50
0.0
 41
0.9
 51
0.0
  7
KANJI53
  0
TEXT
  8
0
  6
CONTINUOUS
 62
     2
 10
2203.16
 20
1604.49
 30
2.28
 40
26.6
  1
ピストンロッド回転トルク
 50
0.0
 41
0.9
 51
0.0
  7
KANJI61
  0
LINE
  8
0
  6
CONTINUOUS
 62
     2
 10
2192.66
 20
1199.89
 30
0.0
 11
2805.16
 21
1199.89
 31
0.0
  0
LINE
  8
0
  6
CONTINUOUS
 62
     2
 10
2248.66
 20
1150.89
 30
0.0
 11
2805.16
 21
1150.89
 31
0.0
  0
TEXT
  8
0
  6
CONTINUOUS
 62
     2
 10
2221.185
 20
1437.89
 30
15.4
 40
24.5
  1
モ　トル仕様
 50
0.0
 41
0.9
 51
0.0
  7
KANJI62
  0
TEXT
  8
0
  6
CONTINUOUS
 62
     2
 10
2221.185
 20
1178.89
 30
1.4
 40
24.5
  1
ブレ　キ
 50
0.0
 41
0.9
 51
0.0
  7
KANJI63
  0
LINE
  8
0
  6
CONTINUOUS
 62
     2
 10
2219.26
 20
1120.79
 30
0.0
 11
2219.26
 21
1106.09
 31
0.0
  0
TEXT
  8
0
  6
CONTINUOUS
 62
     2
 10
2582.91
 20
1507.89
 30
10.5
 40
24.5
  1
推力リミッタ
 50
0.0
 41
0.9
 51
0.0
  7
KANJI64
  0
TEXT
  8
0
  6
CONTINUOUS
 62
     2
 10
2649.41
 20
1213.89
 30
2.1
 40
21.0
  1
Ｅ
 50
0.0
 41
0.9
 51
0.0
  7
KANJI65
  0
TEXT
  8
0
  6
CONTINUOUS
 62
     2
 10
2280.16
 20
1163.49
 30
164.92
 40
26.6
  1
形式
 50
0.0
 41
0.9
 51
0.0
  7
KANJI58
  0
TEXT
  8
0
  6
CONTINUOUS
 62
     2
 10
2280.16
 20
1114.49
 30
39.01308
 40
26.6
  1
操作方式
 50
0.0
 41
0.9
 51
0.0
  7
KANJI56
  0
LINE
  8
0
  6
CONTINUOUS
 62
     2
 10
2219.26
 20
1395.19
 30
0.0
 11
2219.26
 21
1379.09
 31
0.0
  0
TEXT
  8
0
  6
CONTINUOUS
 62
     2
 10
2280.16
 20
1408.49
 30
3.5
 40
26.6
  1
出力　相数　極数
 50
0.0
 41
0.9
 51
0.0
  7
KANJI66
  0
TEXT
  8
0
  6
CONTINUOUS
 62
     2
 10
2231.16
 20
1653.49
 30
14.0
 40
26.6
  1
公称速度
 50
0.0
 41
0.9
 51
0.0
  7
KANJI67
  0
TEXT
  8
0
  6
CONTINUOUS
 62
     2
 10
2375.71
 20
1652.09
 30
0.0
 40
24.5
  1
（５０／６０Ｈｚ）
 50
0.0
 41
0.628571429
 51
0.0
  7
KANJI68
  0
TEXT
  8
0
  6
CONTINUOUS
 62
     2
 10
2516.41
 20
1164.015
 30
3.85
 40
23.8
  1
スプリング制動式電磁ブレーキ
 50
0.0
 41
0.705882353
 51
0.0
  7
KANJI69
  0
TEXT
  8
0
  6
CONTINUOUS
 62
     2
 10
2771.91
 20
1359.49
 30
0.252
 40
21.0
  1
Ｖ
 50
0.0
 41
0.8
 51
0.0
  7
KANJI70
  0
TEXT
  8
0
  6
CONTINUOUS
 62
     2
 10
2759.31
 20
1310.49
 30
0.252
 40
21.0
  1
Ｈｚ
 50
0.0
 41
0.8
 51
0.0
  7
KANJI70
  0
TEXT
  8
0
  6
CONTINUOUS
 62
     2
 10
2771.91
 20
1261.49
 30
0.252
 40
21.0
  1
Ａ
 50
0.0
 41
0.8
 51
0.0
  7
KANJI70
  0
TEXT
  8
0
  6
CONTINUOUS
 62
     2
 10
2679.86
 20
1409.89
 30
2.1
 40
21.0
  1
３φ
 50
0.0
 41
0.9
 51
0.0
  7
KANJI65
  0
TEXT
  8
0
  6
CONTINUOUS
 62
     2
 10
2749.86
 20
1409.89
 30
2.1
 40
21.0
  1
４Ｐ
 50
0.0
 41
0.9
 51
0.0
  7
KANJI65
  0
TEXT
  8
0
  6
CONTINUOUS
 62
     2
 10
2514.66
 20
1458.89
 30
1.4
 40
22.4
  1
マンセル　７．５ＧＹ　５／４．５
 50
0.0
 41
0.71875
 51
0.0
  7
KANJI71
  0
TEXT
  8
0
  6
CONTINUOUS
 62
     2
 10
2514.66
 20
1360.89
 30
2.1
 40
21.0
  1
　　　　　　　／　　　
 50
0.0
 41
0.9
 51
0.0
  7
KANJI65
  0
TEXT
  8
0
  6
CONTINUOUS
 62
     2
 10
2514.66
 20
1311.89
 30
2.1
 40
21.0
  1
　　　　５０／　６０
 50
0.0
 41
0.9
 51
0.0
  7
KANJI65
  0
TEXT
  8
0
  6
CONTINUOUS
 62
     2
 10
2514.66
 20
1262.89
 30
2.1
 40
21.0
  1
　　　　　　　／　　　
 50
0.0
 41
0.9
 51
0.0
  7
KANJI65
  0
TEXT
  8
0
  6
CONTINUOUS
 62
     2
 10
2753.36
 20
1705.29
 30
0.1792
 40
22.4
  1
ｍｍ
 50
0.0
 41
0.8
 51
0.0
  7
KANJI72
  0
TEXT
  8
0
  6
CONTINUOUS
 62
     2
 10
2707.86
 20
1654.89
 30
0.0
 40
24.5
  1
ｍｍ／ｓｅｃ
 50
0.0
 41
0.571428571
 51
0.0
  7
KANJI73
  0
TEXT
  8
0
  6
CONTINUOUS
 62
     2
 10
2565.76
 20
1752.89
 30
2.1
 40
21.0
  1
３９．２ＫＮ（４ｔｏｎ）
 50
0.0
 41
0.9
 51
0.0
  7
KANJI65
  0
TEXT
  8
0
  6
CONTINUOUS
 62
     2
 10
2582.91
 20
1556.89
 30
10.5
 40
24.5
  1
全閉屋外形
 50
0.0
 41
0.9
 51
0.0
  7
KANJI64
  0
TEXT
  8
0
  6
CONTINUOUS
 62
     2
 10
2530.41
 20
1799.44
 30
1.4
 40
21.0
  1
ＭＣＬＧ４－　Ｊ
 50
0.0
 41
0.833333333
 51
0.0
  7
KANJI74
  0
TEXT
  8
0
  6
CONTINUOUS
 62
     2
 10
2521.66
 20
1409.89
 30
2.1
 40
21.0
  1
　３．７ＫＷ
 50
0.0
 41
0.9
 51
0.0
  7
KANJI65
  0
TEXT
  8
0
  6
CONTINUOUS
 62
     2
 10
2518.16
 20
1654.89
 30
2.1
 40
21.0
  1
６１．６／７３．９
 50
0.0
 41
0.9
 51
0.0
  7
KANJI75
  0
LINE
  8
0
  6
CONTINUOUS
 62
     2
 10
2192.66
 20
954.89
 30
0.0
 11
2805.16
 21
954.89
 31
0.0
  0
TEXT
  8
0
  6
CONTINUOUS
 62
     2
 10
2532.16
 20
1605.89
 30
0.0
 40
21.0
  1
　７８Ｎ・ｍ（８ｋｇ・ｍ）
 50
0.0
 41
0.833333333
 51
0.0
  7
KANJI76
  0
LINE
  8
0
  6
CONTINUOUS
 62
     1
 10
2192.66
 20
905.89
 30
0.0
 11
2805.16
 21
905.89
 31
0.0
  0
TEXT
  8
0
  6
CONTINUOUS
 62
     2
 10
2748.285
 20
915.515
 30
0.0
 40
28.0
  1
ｋｇ
 50
0.0
 41
1.0
 51
0.0
  7
KANJI77
  0
LINE
  8
0
  6
CONTINUOUS
 62
     1
 10
2805.16
 20
1906.89
 30
0.0
 11
2805.16
 21
905.89
 31
0.0
  0
LINE
  8
0
  6
CONTINUOUS
 62
     2
 10
2514.66
 20
1836.89
 30
0.0
 11
2514.66
 21
905.89
 31
0.0
  0
LINE
  8
0
  6
CONTINUOUS
 62
     1
 10
2192.66
 20
1906.89
 30
0.0
 11
2192.66
 21
905.89
 31
0.0
  0
TEXT
  8
0
  6
CONTINUOUS
 62
     2
 10
2231.16
 20
918.49
 30
3.5
 40
26.6
  1
概算重量（１台当り）
 50
0.0
 41
0.9
 51
0.0
  7
KANJI78
  0
TEXT
  8
0
  6
CONTINUOUS
 62
     2
 10
1448.4367719
 20
152.1499958
 30
0.0
 40
21.0
  1
０８．０４．０９　岡田　回路図追加
 50
0.0
 41
0.9
 51
0.0
  7
KANJI17
  0
LINE
  8
0
  6
CONTINUOUS
 62
     1
 10
327.035
 20
832.993573333
 30
0.0
 11
322.035
 21
827.993573333
 31
0.0
  0
LINE
  8
0
  6
CONTINUOUS
 62
     1
 10
392.035
 20
832.993573333
 30
0.0
 11
327.035
 21
832.993573333
 31
0.0
  0
LINE
  8
0
  6
CONTINUOUS
 62
     1
 10
392.035
 20
832.993573333
 30
0.0
 11
397.035
 21
827.993573333
 31
0.0
  0
LINE
  8
0
  6
CONTINUOUS
 62
     1
 10
397.035
 20
737.993573333
 30
0.0
 11
397.035
 21
827.993573333
 31
0.0
  0
LINE
  8
0
  6
CONTINUOUS
 62
     1
 10
397.035
 20
737.993573333
 30
0.0
 11
392.035
 21
732.993573333
 31
0.0
  0
LINE
  8
0
  6
CONTINUOUS
 62
     1
 10
392.035
 20
732.993573333
 30
0.0
 11
327.035
 21
732.993573333
 31
0.0
  0
LINE
  8
0
  6
CONTINUOUS
 62
     1
 10
322.035
 20
737.993573333
 30
0.0
 11
322.035
 21
827.993573333
 31
0.0
  0
LINE
  8
0
  6
CONTINUOUS
 62
     1
 10
327.035
 20
732.993573333
 30
0.0
 11
322.035
 21
737.993573333
 31
0.0
  0
LINE
  8
0
  6
CONTINUOUS
 62
     2
 10
337.035
 20
822.993573333
 30
0.0
 11
325.035
 21
822.993573333
 31
0.0
  0
LINE
  8
0
  6
CONTINUOUS
 62
     2
 10
393.035
 20
822.993573333
 30
0.0
 11
381.035
 21
822.993573333
 31
0.0
  0
LINE
  8
0
  6
CONTINUOUS
 62
     2
 10
332.035
 20
816.993573333
 30
0.0
 11
332.035
 21
832.493573333
 31
0.0
  0
LINE
  8
0
  6
CONTINUOUS
 62
     2
 10
332.035
 20
735.493573333
 30
0.0
 11
332.035
 21
749.993573333
 31
0.0
  0
LINE
  8
0
  6
CONTINUOUS
 62
     2
 10
340.035
 20
742.993573333
 30
0.0
 11
325.035
 21
742.993573333
 31
0.0
  0
LINE
  8
0
  6
CONTINUOUS
 62
     2
 10
392.035
 20
742.993573333
 30
0.0
 11
379.035
 21
742.993573333
 31
0.0
  0
LINE
  8
0
  6
CONTINUOUS
 62
     2
 10
387.035
 20
816.993573333
 30
0.0
 11
387.035
 21
832.493573333
 31
0.0
  0
LINE
  8
0
  6
CONTINUOUS
 62
     2
 10
387.035
 20
735.493573333
 30
0.0
 11
387.035
 21
749.993573333
 31
0.0
  0
LINE
  8
0
  6
CONTINUOUS
 62
     1
 10
361.035
 20
719.493573333
 30
0.0
 11
361.035
 21
649.493573333
 31
0.0
  0
TEXT
  8
0
  6
CONTINUOUS
 62
     2
 10
366.035
 20
708.493573333
 30
5.0
 40
20.0
  1
銘板
 50
270.0
 41
0.925
 51
0.0
  7
KANJI79
  0
LINE
  8
0
  6
CONTINUOUS
 62
     1
 10
404.035
 20
719.493573333
 30
0.0
 11
361.035
 21
719.493573333
 31
0.0
  0
LINE
  8
0
  6
CONTINUOUS
 62
     1
 10
404.035
 20
719.493573333
 30
0.0
 11
404.035
 21
649.493573333
 31
0.0
  0
LINE
  8
0
  6
CONTINUOUS
 62
     1
 10
404.035
 20
649.493573333
 30
0.0
 11
361.035
 21
649.493573333
 31
0.0
  0
TEXT
  8
0
  6
CONTINUOUS
 62
     2
 10
2598.66
 20
1114.49
 30
14.0
 40
24.5
  1
別切り
 50
0.0
 41
0.9
 51
0.0
  7
KANJI80
  0
ENDSEC
  0
EOF
