  0
SECTION
  2
HEADER
  9
$ACADVER
  1
AC1009
  9
$DWGCODEPAGE
  3
dos932
  9
$EXTMIN
 10
0.0
 20
0.0
 30
0.0
  9
$EXTMAX
 10
2940.0
 20
2079.0
 30
0.0
  9
$LIMMIN
 10
0.0
 20
0.0
  9
$LIMMAX
 10
2940.0
 20
2079.0
  9
$LTSCALE
 40
1.0
  9
$PDMODE
 70
     0
  0
ENDSEC
  0
SECTION
  2
TABLES
  0
TABLE
  2
VPORT
 70
     1
  0
VPORT
  2
*ACTIVE
 70
     0
 10
0.0
 20
0.0
 11
1.0
 21
1.0
 12
1470.0
 22
1039.5
 13
0.0
 23
0.0
 14
10.0
 24
10.0
 15
10.0
 25
10.0
 16
0.0
 26
0.0
 36
1.0
 17
0.0
 27
0.0
 37
0.0
 40
2940.0
 41
1.414141414
 42
50.0
 43
0.0
 44
0.0
 50
0.0
 51
0.0
 71
     0
 72
  1000
 73
     1
 74
     3
 75
     0
 76
     0
 77
     0
 78
     0
  0
ENDTAB
  0
TABLE
  2
LTYPE
 70
     6
  0
LTYPE
  2
CONTINUOUS
 70
    64
  3
Solid line
 72
    65
 73
     0
 40
0.0
  0
LTYPE
  2
LTYPE1
 70
    64
  3
HIDDEN
 72
    65
 73
     2
 40
21.0
 49
12.6
 49
-8.4
  0
LTYPE
  2
LTYPE2
 70
    64
  3
CENTER
 72
    65
 73
     4
 40
105.0
 49
73.5
 49
-10.5
 49
10.5
 49
-10.5
  0
LTYPE
  2
LTYPE3
 70
    64
  3
CENTER
 72
    65
 73
     4
 40
70.0
 49
49.0
 49
-7.0
 49
7.0
 49
-7.0
  0
LTYPE
  2
LTYPE4
 70
    64
  3
CENTER
 72
    65
 73
     4
 40
140.0
 49
98.0
 49
-14.0
 49
14.0
 49
-14.0
  0
LTYPE
  2
LTYPE5
 70
    64
  3
CENTER
 72
    65
 73
     4
 40
63.0
 49
44.1
 49
-6.3
 49
6.3
 49
-6.3
  0
ENDTAB
  0
TABLE
  2
LAYER
 70
   128
  0
LAYER
  2
0
 70
     0
 62
     7
  6
CONTINUOUS
  0
LAYER
  2
2
 70
     0
 62
     7
  6
CONTINUOUS
  0
LAYER
  2
3
 70
     0
 62
     7
  6
CONTINUOUS
  0
LAYER
  2
4
 70
     0
 62
     7
  6
CONTINUOUS
  0
LAYER
  2
5
 70
     0
 62
     7
  6
CONTINUOUS
  0
LAYER
  2
6
 70
     0
 62
     7
  6
CONTINUOUS
  0
LAYER
  2
7
 70
     0
 62
     7
  6
CONTINUOUS
  0
LAYER
  2
8
 70
     0
 62
     7
  6
CONTINUOUS
  0
LAYER
  2
9
 70
     0
 62
     7
  6
CONTINUOUS
  0
LAYER
  2
10
 70
     0
 62
     7
  6
CONTINUOUS
  0
LAYER
  2
11
 70
     0
 62
     7
  6
CONTINUOUS
  0
LAYER
  2
12
 70
     0
 62
     7
  6
CONTINUOUS
  0
LAYER
  2
13
 70
     0
 62
     7
  6
CONTINUOUS
  0
LAYER
  2
14
 70
     0
 62
     7
  6
CONTINUOUS
  0
LAYER
  2
15
 70
     0
 62
     7
  6
CONTINUOUS
  0
LAYER
  2
16
 70
     0
 62
     7
  6
CONTINUOUS
  0
LAYER
  2
17
 70
     0
 62
     7
  6
CONTINUOUS
  0
LAYER
  2
18
 70
     0
 62
     7
  6
CONTINUOUS
  0
LAYER
  2
19
 70
     0
 62
     7
  6
CONTINUOUS
  0
LAYER
  2
20
 70
     0
 62
     7
  6
CONTINUOUS
  0
LAYER
  2
21
 70
     0
 62
     7
  6
CONTINUOUS
  0
LAYER
  2
22
 70
     0
 62
     7
  6
CONTINUOUS
  0
LAYER
  2
23
 70
     0
 62
     7
  6
CONTINUOUS
  0
LAYER
  2
24
 70
     0
 62
     7
  6
CONTINUOUS
  0
LAYER
  2
25
 70
     0
 62
     7
  6
CONTINUOUS
  0
LAYER
  2
26
 70
     0
 62
     7
  6
CONTINUOUS
  0
LAYER
  2
27
 70
     0
 62
     7
  6
CONTINUOUS
  0
LAYER
  2
28
 70
     0
 62
     7
  6
CONTINUOUS
  0
LAYER
  2
29
 70
     0
 62
     7
  6
CONTINUOUS
  0
LAYER
  2
30
 70
     0
 62
     7
  6
CONTINUOUS
  0
LAYER
  2
31
 70
     0
 62
     7
  6
CONTINUOUS
  0
LAYER
  2
32
 70
     0
 62
     7
  6
CONTINUOUS
  0
LAYER
  2
33
 70
     0
 62
     7
  6
CONTINUOUS
  0
LAYER
  2
34
 70
     0
 62
     7
  6
CONTINUOUS
  0
LAYER
  2
35
 70
     0
 62
     7
  6
CONTINUOUS
  0
LAYER
  2
36
 70
     0
 62
     7
  6
CONTINUOUS
  0
LAYER
  2
37
 70
     0
 62
     7
  6
CONTINUOUS
  0
LAYER
  2
38
 70
     0
 62
     7
  6
CONTINUOUS
  0
LAYER
  2
39
 70
     0
 62
     7
  6
CONTINUOUS
  0
LAYER
  2
40
 70
     0
 62
     7
  6
CONTINUOUS
  0
LAYER
  2
41
 70
     0
 62
     7
  6
CONTINUOUS
  0
LAYER
  2
42
 70
     0
 62
     7
  6
CONTINUOUS
  0
LAYER
  2
43
 70
     0
 62
     7
  6
CONTINUOUS
  0
LAYER
  2
44
 70
     0
 62
     7
  6
CONTINUOUS
  0
LAYER
  2
45
 70
     0
 62
     7
  6
CONTINUOUS
  0
LAYER
  2
46
 70
     0
 62
     7
  6
CONTINUOUS
  0
LAYER
  2
47
 70
     0
 62
     7
  6
CONTINUOUS
  0
LAYER
  2
48
 70
     0
 62
     7
  6
CONTINUOUS
  0
LAYER
  2
49
 70
     0
 62
     7
  6
CONTINUOUS
  0
LAYER
  2
50
 70
     0
 62
     7
  6
CONTINUOUS
  0
LAYER
  2
51
 70
     0
 62
     7
  6
CONTINUOUS
  0
LAYER
  2
52
 70
     0
 62
     7
  6
CONTINUOUS
  0
LAYER
  2
53
 70
     0
 62
     7
  6
CONTINUOUS
  0
LAYER
  2
54
 70
     0
 62
     7
  6
CONTINUOUS
  0
LAYER
  2
55
 70
     0
 62
     7
  6
CONTINUOUS
  0
LAYER
  2
56
 70
     0
 62
     7
  6
CONTINUOUS
  0
LAYER
  2
57
 70
     0
 62
     7
  6
CONTINUOUS
  0
LAYER
  2
58
 70
     0
 62
     7
  6
CONTINUOUS
  0
LAYER
  2
59
 70
     0
 62
     7
  6
CONTINUOUS
  0
LAYER
  2
60
 70
     0
 62
     7
  6
CONTINUOUS
  0
LAYER
  2
61
 70
     0
 62
     7
  6
CONTINUOUS
  0
LAYER
  2
62
 70
     0
 62
     7
  6
CONTINUOUS
  0
LAYER
  2
63
 70
     0
 62
     7
  6
CONTINUOUS
  0
LAYER
  2
64
 70
     0
 62
     7
  6
CONTINUOUS
  0
LAYER
  2
65
 70
     0
 62
     7
  6
CONTINUOUS
  0
LAYER
  2
66
 70
     0
 62
     7
  6
CONTINUOUS
  0
LAYER
  2
67
 70
     0
 62
     7
  6
CONTINUOUS
  0
LAYER
  2
68
 70
     0
 62
     7
  6
CONTINUOUS
  0
LAYER
  2
69
 70
     0
 62
     7
  6
CONTINUOUS
  0
LAYER
  2
70
 70
     0
 62
     7
  6
CONTINUOUS
  0
LAYER
  2
71
 70
     0
 62
     7
  6
CONTINUOUS
  0
LAYER
  2
72
 70
     0
 62
     7
  6
CONTINUOUS
  0
LAYER
  2
73
 70
     0
 62
     7
  6
CONTINUOUS
  0
LAYER
  2
74
 70
     0
 62
     7
  6
CONTINUOUS
  0
LAYER
  2
75
 70
     0
 62
     7
  6
CONTINUOUS
  0
LAYER
  2
76
 70
     0
 62
     7
  6
CONTINUOUS
  0
LAYER
  2
77
 70
     0
 62
     7
  6
CONTINUOUS
  0
LAYER
  2
78
 70
     0
 62
     7
  6
CONTINUOUS
  0
LAYER
  2
79
 70
     0
 62
     7
  6
CONTINUOUS
  0
LAYER
  2
80
 70
     0
 62
     7
  6
CONTINUOUS
  0
LAYER
  2
81
 70
     0
 62
     7
  6
CONTINUOUS
  0
LAYER
  2
82
 70
     0
 62
     7
  6
CONTINUOUS
  0
LAYER
  2
83
 70
     0
 62
     7
  6
CONTINUOUS
  0
LAYER
  2
84
 70
     0
 62
     7
  6
CONTINUOUS
  0
LAYER
  2
85
 70
     0
 62
     7
  6
CONTINUOUS
  0
LAYER
  2
86
 70
     0
 62
     7
  6
CONTINUOUS
  0
LAYER
  2
87
 70
     0
 62
     7
  6
CONTINUOUS
  0
LAYER
  2
88
 70
     0
 62
     7
  6
CONTINUOUS
  0
LAYER
  2
89
 70
     0
 62
     7
  6
CONTINUOUS
  0
LAYER
  2
90
 70
     0
 62
     7
  6
CONTINUOUS
  0
LAYER
  2
91
 70
     0
 62
     7
  6
CONTINUOUS
  0
LAYER
  2
92
 70
     0
 62
     7
  6
CONTINUOUS
  0
LAYER
  2
93
 70
     0
 62
     7
  6
CONTINUOUS
  0
LAYER
  2
94
 70
     0
 62
     7
  6
CONTINUOUS
  0
LAYER
  2
95
 70
     0
 62
     7
  6
CONTINUOUS
  0
LAYER
  2
96
 70
     0
 62
     7
  6
CONTINUOUS
  0
LAYER
  2
97
 70
     0
 62
     7
  6
CONTINUOUS
  0
LAYER
  2
98
 70
     0
 62
     7
  6
CONTINUOUS
  0
LAYER
  2
99
 70
     0
 62
     7
  6
CONTINUOUS
  0
LAYER
  2
100
 70
     0
 62
     7
  6
CONTINUOUS
  0
LAYER
  2
101
 70
     0
 62
     7
  6
CONTINUOUS
  0
LAYER
  2
102
 70
     0
 62
     7
  6
CONTINUOUS
  0
LAYER
  2
103
 70
     0
 62
     7
  6
CONTINUOUS
  0
LAYER
  2
104
 70
     0
 62
     7
  6
CONTINUOUS
  0
LAYER
  2
105
 70
     0
 62
     7
  6
CONTINUOUS
  0
LAYER
  2
106
 70
     0
 62
     7
  6
CONTINUOUS
  0
LAYER
  2
107
 70
     0
 62
     7
  6
CONTINUOUS
  0
LAYER
  2
108
 70
     0
 62
     7
  6
CONTINUOUS
  0
LAYER
  2
109
 70
     0
 62
     7
  6
CONTINUOUS
  0
LAYER
  2
110
 70
     0
 62
     7
  6
CONTINUOUS
  0
LAYER
  2
111
 70
     0
 62
     7
  6
CONTINUOUS
  0
LAYER
  2
112
 70
     0
 62
     7
  6
CONTINUOUS
  0
LAYER
  2
113
 70
     0
 62
     7
  6
CONTINUOUS
  0
LAYER
  2
114
 70
     0
 62
     7
  6
CONTINUOUS
  0
LAYER
  2
115
 70
     0
 62
     7
  6
CONTINUOUS
  0
LAYER
  2
116
 70
     0
 62
     7
  6
CONTINUOUS
  0
LAYER
  2
117
 70
     0
 62
     7
  6
CONTINUOUS
  0
LAYER
  2
118
 70
     0
 62
     7
  6
CONTINUOUS
  0
LAYER
  2
119
 70
     0
 62
     7
  6
CONTINUOUS
  0
LAYER
  2
120
 70
     0
 62
     7
  6
CONTINUOUS
  0
LAYER
  2
121
 70
     0
 62
     7
  6
CONTINUOUS
  0
LAYER
  2
122
 70
     0
 62
     7
  6
CONTINUOUS
  0
LAYER
  2
123
 70
     0
 62
     7
  6
CONTINUOUS
  0
LAYER
  2
124
 70
     0
 62
     7
  6
CONTINUOUS
  0
LAYER
  2
125
 70
     0
 62
     7
  6
CONTINUOUS
  0
LAYER
  2
126
 70
     0
 62
     7
  6
CONTINUOUS
  0
LAYER
  2
127
 70
     0
 62
     7
  6
CONTINUOUS
  0
LAYER
  2
128
 70
     0
 62
     7
  6
CONTINUOUS
  0
ENDTAB
  0
TABLE
  2
STYLE
 70
    81
  0
STYLE
  2
STANDARD
 70
     0
 40
0.0
 41
1.0
 50
0.0
 71
     0
 42
0.2
  3
txt.shx
  4
extfont.shx
  0
STYLE
  2
KANJI0
 70
     0
 40
18.1999986
 41
0.75
 50
0.0
 71
     0
 42
18.1999986
  3
txt.shx
  4
extfont.shx
  0
STYLE
  2
KANJI1
 70
     0
 40
13.999997056
 41
0.6
 50
0.0
 71
     0
 42
13.999997056
  3
txt.shx
  4
extfont.shx
  0
STYLE
  2
KANJI2
 70
     0
 40
16.799996468
 41
0.9
 50
0.0
 71
     0
 42
16.799996468
  3
txt.shx
  4
extfont.shx
  0
STYLE
  2
KANJI3
 70
     0
 40
20.999995585
 41
0.9
 50
0.0
 71
     0
 42
20.999995585
  3
txt.shx
  4
extfont.shx
  0
STYLE
  2
KANJI4
 70
     0
 40
12.1333324
 41
0.6
 50
0.0
 71
     0
 42
12.1333324
  3
txt.shx
  4
extfont.shx
  0
STYLE
  2
KANJI5
 70
     0
 40
14.55999888
 41
0.6
 50
0.0
 71
     0
 42
14.55999888
  3
txt.shx
  4
extfont.shx
  0
STYLE
  2
KANJI6
 70
     0
 40
21.2333317
 41
0.42031746
 50
0.0
 71
     0
 42
21.2333317
  3
txt.shx
  4
extfont.shx
  0
STYLE
  2
KANJI7
 70
     0
 40
36.3999972
 41
0.9
 50
0.0
 71
     0
 42
36.3999972
  3
txt.shx
  4
extfont.shx
  0
STYLE
  2
KANJI8
 70
     0
 40
25.2
 41
1.111111111
 50
0.0
 71
     0
 42
25.2
  3
txt.shx
  4
extfont.shx
  0
STYLE
  2
KANJI9
 70
     0
 40
12.1333324
 41
0.8
 50
0.0
 71
     0
 42
12.1333324
  3
txt.shx
  4
extfont.shx
  0
STYLE
  2
KANJI10
 70
     0
 40
14.55999888
 41
0.8
 50
0.0
 71
     0
 42
14.55999888
  3
txt.shx
  4
extfont.shx
  0
STYLE
  2
KANJI11
 70
     0
 40
35.0
 41
1.0
 50
0.0
 71
     0
 42
35.0
  3
txt.shx
  4
extfont.shx
  0
STYLE
  2
KANJI12
 70
     0
 40
35.0
 41
1.0
 50
0.0
 71
     0
 42
35.0
  3
txt.shx
  4
extfont.shx
  0
STYLE
  2
KANJI13
 70
     0
 40
35.0
 41
0.8
 50
0.0
 71
     0
 42
35.0
  3
txt.shx
  4
extfont.shx
  0
STYLE
  2
KANJI14
 70
     0
 40
28.0
 41
1.0
 50
0.0
 71
     0
 42
28.0
  3
txt.shx
  4
extfont.shx
  0
STYLE
  2
KANJI15
 70
     0
 40
31.5
 41
0.666666667
 50
0.0
 71
     0
 42
31.5
  3
txt.shx
  4
extfont.shx
  0
STYLE
  2
KANJI16
 70
     0
 40
24.5
 41
0.857142857
 50
0.0
 71
     0
 42
24.5
  3
txt.shx
  4
extfont.shx
  0
STYLE
  2
KANJI17
 70
     0
 40
21.0
 41
0.9
 50
0.0
 71
     0
 42
21.0
  3
txt.shx
  4
extfont.shx
  0
STYLE
  2
KANJI18
 70
     0
 40
14.99994
 41
0.9
 50
0.0
 71
     0
 42
14.99994
  3
txt.shx
  4
extfont.shx
  0
STYLE
  2
KANJI19
 70
     0
 40
15.379
 41
0.85
 50
0.0
 71
     0
 42
15.379
  3
txt.shx
  4
extfont.shx
  0
STYLE
  2
KANJI20
 70
     0
 40
13.6045
 41
0.822608696
 50
0.0
 71
     0
 42
13.6045
  3
txt.shx
  4
extfont.shx
  0
STYLE
  2
KANJI21
 70
     0
 40
13.8411
 41
0.726495726
 50
0.0
 71
     0
 42
13.8411
  3
txt.shx
  4
extfont.shx
  0
STYLE
  2
KANJI22
 70
     4
 40
52.5
 41
0.538166667
 50
0.0
 71
     0
 42
52.5
  3
txt.shx
  4
extfont.shx
  0
STYLE
  2
KANJI23
 70
     0
 40
20.697485939
 41
0.880962996
 50
0.0
 71
     0
 42
20.697485939
  3
txt.shx
  4
extfont.shx
  0
STYLE
  2
KANJI24
 70
     0
 40
13.65
 41
0.8
 50
0.0
 71
     0
 42
13.65
  3
txt.shx
  4
extfont.shx
  0
STYLE
  2
KANJI25
 70
     0
 40
17.5
 41
0.911
 50
0.0
 71
     0
 42
17.5
  3
txt.shx
  4
extfont.shx
  0
STYLE
  2
KANJI26
 70
     0
 40
25.2
 41
0.857142857
 50
0.0
 71
     0
 42
25.2
  3
txt.shx
  4
extfont.shx
  0
STYLE
  2
KANJI27
 70
     0
 40
25.2
 41
0.857222222
 50
0.0
 71
     0
 42
25.2
  3
txt.shx
  4
extfont.shx
  0
STYLE
  2
KANJI28
 70
     0
 40
28.0
 41
0.9
 50
0.0
 71
     0
 42
28.0
  3
txt.shx
  4
extfont.shx
  0
STYLE
  2
KANJI29
 70
     0
 40
17.92
 41
0.9
 50
0.0
 71
     0
 42
17.92
  3
txt.shx
  4
extfont.shx
  0
STYLE
  2
KANJI30
 70
     0
 40
16.8
 41
0.9
 50
0.0
 71
     0
 42
16.8
  3
txt.shx
  4
extfont.shx
  0
STYLE
  2
KANJI31
 70
     0
 40
16.8
 41
0.9
 50
0.0
 71
     0
 42
16.8
  3
txt.shx
  4
extfont.shx
  0
STYLE
  2
KANJI32
 70
     0
 40
19.6
 41
0.9
 50
0.0
 71
     0
 42
19.6
  3
txt.shx
  4
extfont.shx
  0
STYLE
  2
KANJI33
 70
     0
 40
15.12
 41
0.740740741
 50
0.0
 71
     0
 42
15.12
  3
txt.shx
  4
extfont.shx
  0
STYLE
  2
KANJI34
 70
     0
 40
19.6
 41
0.857142857
 50
0.0
 71
     0
 42
19.6
  3
txt.shx
  4
extfont.shx
  0
STYLE
  2
KANJI35
 70
     0
 40
18.223173404
 41
0.66671875
 50
0.0
 71
     0
 42
18.223173404
  3
txt.shx
  4
extfont.shx
  0
STYLE
  2
KANJI36
 70
     0
 40
21.6
 41
0.9
 50
0.0
 71
     0
 42
21.6
  3
txt.shx
  4
extfont.shx
  0
STYLE
  2
KANJI37
 70
     0
 40
12.96
 41
0.9
 50
0.0
 71
     0
 42
12.96
  3
txt.shx
  4
extfont.shx
  0
STYLE
  2
KANJI38
 70
     0
 40
17.28
 41
0.9
 50
0.0
 71
     0
 42
17.28
  3
txt.shx
  4
extfont.shx
  0
STYLE
  2
KANJI39
 70
     0
 40
18.72
 41
0.925
 50
0.0
 71
     0
 42
18.72
  3
txt.shx
  4
extfont.shx
  0
STYLE
  2
KANJI40
 70
     0
 40
20.0
 41
0.925
 50
0.0
 71
     0
 42
20.0
  3
txt.shx
  4
extfont.shx
  0
STYLE
  2
KANJI41
 70
     0
 40
17.49993
 41
0.9
 50
0.0
 71
     0
 42
17.49993
  3
txt.shx
  4
extfont.shx
  0
STYLE
  2
KANJI42
 70
     0
 40
15.0
 41
0.9
 50
0.0
 71
     0
 42
15.0
  3
txt.shx
  4
extfont.shx
  0
STYLE
  2
KANJI43
 70
     0
 40
24.5
 41
0.793650794
 50
0.0
 71
     0
 42
24.5
  3
txt.shx
  4
extfont.shx
  0
STYLE
  2
KANJI44
 70
     0
 40
35.0
 41
0.8
 50
0.0
 71
     0
 42
35.0
  3
txt.shx
  4
extfont.shx
  0
STYLE
  2
KANJI45
 70
     0
 40
24.5
 41
0.571428571
 50
0.0
 71
     0
 42
24.5
  3
txt.shx
  4
extfont.shx
  0
STYLE
  2
KANJI46
 70
     0
 40
18.0
 41
0.9
 50
0.0
 71
     0
 42
18.0
  3
txt.shx
  4
extfont.shx
  0
STYLE
  2
KANJI47
 70
     0
 40
21.0
 41
0.914285714
 50
0.0
 71
     0
 42
21.0
  3
txt.shx
  4
extfont.shx
  0
STYLE
  2
KANJI48
 70
     0
 40
18.0
 41
0.9
 50
0.0
 71
     0
 42
18.0
  3
txt.shx
  4
extfont.shx
  0
STYLE
  2
KANJI49
 70
     0
 40
16.8
 41
0.833333333
 50
0.0
 71
     0
 42
16.8
  3
txt.shx
  4
extfont.shx
  0
STYLE
  2
KANJI50
 70
     0
 40
18.0
 41
0.9
 50
0.0
 71
     0
 42
18.0
  3
txt.shx
  4
extfont.shx
  0
STYLE
  2
KANJI51
 70
     0
 40
21.0
 41
0.9
 50
0.0
 71
     0
 42
21.0
  3
txt.shx
  4
extfont.shx
  0
STYLE
  2
KANJI52
 70
     0
 40
18.0
 41
0.9
 50
0.0
 71
     0
 42
18.0
  3
txt.shx
  4
extfont.shx
  0
STYLE
  2
KANJI53
 70
     0
 40
26.6
 41
0.9
 50
0.0
 71
     0
 42
26.6
  3
txt.shx
  4
extfont.shx
  0
STYLE
  2
KANJI54
 70
     0
 40
26.6
 41
0.9
 50
0.0
 71
     0
 42
26.6
  3
txt.shx
  4
extfont.shx
  0
STYLE
  2
KANJI55
 70
     0
 40
31.5
 41
0.9
 50
0.0
 71
     0
 42
31.5
  3
txt.shx
  4
extfont.shx
  0
STYLE
  2
KANJI56
 70
     0
 40
26.6
 41
0.9
 50
0.0
 71
     0
 42
26.6
  3
txt.shx
  4
extfont.shx
  0
STYLE
  2
KANJI57
 70
     0
 40
26.6
 41
0.9
 50
0.0
 71
     0
 42
26.6
  3
txt.shx
  4
extfont.shx
  0
STYLE
  2
KANJI58
 70
     0
 40
26.6
 41
0.9
 50
0.0
 71
     0
 42
26.6
  3
txt.shx
  4
extfont.shx
  0
STYLE
  2
KANJI59
 70
     0
 40
26.6
 41
0.9
 50
0.0
 71
     0
 42
26.6
  3
txt.shx
  4
extfont.shx
  0
STYLE
  2
KANJI60
 70
     0
 40
26.6
 41
0.9
 50
0.0
 71
     0
 42
26.6
  3
txt.shx
  4
extfont.shx
  0
STYLE
  2
KANJI61
 70
     0
 40
26.6
 41
0.9
 50
0.0
 71
     0
 42
26.6
  3
txt.shx
  4
extfont.shx
  0
STYLE
  2
KANJI62
 70
     4
 40
24.5
 41
0.9
 50
0.0
 71
     0
 42
24.5
  3
txt.shx
  4
extfont.shx
  0
STYLE
  2
KANJI63
 70
     4
 40
24.5
 41
0.9
 50
0.0
 71
     0
 42
24.5
  3
txt.shx
  4
extfont.shx
  0
STYLE
  2
KANJI64
 70
     0
 40
24.5
 41
0.9
 50
0.0
 71
     0
 42
24.5
  3
txt.shx
  4
extfont.shx
  0
STYLE
  2
KANJI65
 70
     0
 40
21.0
 41
0.9
 50
0.0
 71
     0
 42
21.0
  3
txt.shx
  4
extfont.shx
  0
STYLE
  2
KANJI66
 70
     0
 40
26.6
 41
0.9
 50
0.0
 71
     0
 42
26.6
  3
txt.shx
  4
extfont.shx
  0
STYLE
  2
KANJI67
 70
     0
 40
26.6
 41
0.9
 50
0.0
 71
     0
 42
26.6
  3
txt.shx
  4
extfont.shx
  0
STYLE
  2
KANJI68
 70
     0
 40
24.5
 41
0.628571429
 50
0.0
 71
     0
 42
24.5
  3
txt.shx
  4
extfont.shx
  0
STYLE
  2
KANJI69
 70
     0
 40
23.8
 41
0.705882353
 50
0.0
 71
     0
 42
23.8
  3
txt.shx
  4
extfont.shx
  0
STYLE
  2
KANJI70
 70
     0
 40
21.0
 41
0.8
 50
0.0
 71
     0
 42
21.0
  3
txt.shx
  4
extfont.shx
  0
STYLE
  2
KANJI71
 70
     0
 40
22.4
 41
0.71875
 50
0.0
 71
     0
 42
22.4
  3
txt.shx
  4
extfont.shx
  0
STYLE
  2
KANJI72
 70
     0
 40
22.4
 41
0.8
 50
0.0
 71
     0
 42
22.4
  3
txt.shx
  4
extfont.shx
  0
STYLE
  2
KANJI73
 70
     0
 40
24.5
 41
0.571428571
 50
0.0
 71
     0
 42
24.5
  3
txt.shx
  4
extfont.shx
  0
STYLE
  2
KANJI74
 70
     0
 40
21.0
 41
0.833333333
 50
0.0
 71
     0
 42
21.0
  3
txt.shx
  4
extfont.shx
  0
STYLE
  2
KANJI75
 70
     0
 40
21.0
 41
0.833333333
 50
0.0
 71
     0
 42
21.0
  3
txt.shx
  4
extfont.shx
  0
STYLE
  2
KANJI76
 70
     0
 40
28.0
 41
1.0
 50
0.0
 71
     0
 42
28.0
  3
txt.shx
  4
extfont.shx
  0
STYLE
  2
KANJI77
 70
     0
 40
26.6
 41
0.9
 50
0.0
 71
     0
 42
26.6
  3
txt.shx
  4
extfont.shx
  0
STYLE
  2
KANJI78
 70
     0
 40
20.0
 41
0.925
 50
0.0
 71
     0
 42
20.0
  3
txt.shx
  4
extfont.shx
  0
STYLE
  2
KANJI79
 70
     0
 40
24.5
 41
0.9
 50
0.0
 71
     0
 42
24.5
  3
txt.shx
  4
extfont.shx
  0
ENDTAB
  0
TABLE
  2
VIEW
 70
     0
  0
ENDTAB
  0
ENDSEC
  0
SECTION
  2
BLOCKS
  0
ENDSEC
  0
SECTION
  2
ENTITIES
  0
POLYLINE
  8
0
  6
CONTINUOUS
 62
     6
 66
     1
  0
VERTEX
  8
0
  6
CONTINUOUS
 62
     6
 10
93.333333333
 20
83.833333333
 30
0.0
  0
VERTEX
  8
0
  6
CONTINUOUS
 62
     6
 10
93.333333333
 20
1966.833333333
 30
0.0
  0
VERTEX
  8
0
  6
CONTINUOUS
 62
     6
 10
2802.333333333
 20
1966.833333333
 30
0.0
  0
SEQEND
  0
LINE
  8
0
  6
CONTINUOUS
 62
     6
 10
100.333331862
 20
188.833311256
 30
0.0
 11
555.333236195
 21
188.833311256
 31
0.0
  0
LINE
  8
0
  6
CONTINUOUS
 62
     6
 10
100.333331862
 20
90.833331862
 30
0.0
 11
555.333236195
 21
90.833331862
 31
0.0
  0
LINE
  8
0
  6
CONTINUOUS
 62
     6
 10
100.333331862
 20
90.833331862
 30
0.0
 11
100.333331862
 21
188.833311256
 31
0.0
  0
LINE
  8
0
  6
CONTINUOUS
 62
     6
 10
100.333331862
 20
139.833321559
 30
0.0
 11
555.333236195
 21
139.833321559
 31
0.0
  0
LINE
  8
0
  6
CONTINUOUS
 62
     4
 10
13.649999533
 20
89.899999533
 30
0.0
 11
86.449993933
 21
89.899999533
 31
0.0
  0
LINE
  8
0
  6
CONTINUOUS
 62
     4
 10
13.649999533
 20
126.299996733
 30
0.0
 11
86.449993933
 21
126.299996733
 31
0.0
  0
LINE
  8
0
  6
CONTINUOUS
 62
     4
 10
13.649999533
 20
162.699993933
 30
0.0
 11
86.449993933
 21
162.699993933
 31
0.0
  0
LINE
  8
0
  6
CONTINUOUS
 62
     4
 10
13.649999533
 20
199.099991133
 30
0.0
 11
86.449993933
 21
199.099991133
 31
0.0
  0
LINE
  8
0
  6
CONTINUOUS
 62
     4
 10
13.649999533
 20
235.499988333
 30
0.0
 11
86.449993933
 21
235.499988333
 31
0.0
  0
LINE
  8
0
  6
CONTINUOUS
 62
     4
 10
13.649999533
 20
271.899985533
 30
0.0
 11
86.449993933
 21
271.899985533
 31
0.0
  0
LINE
  8
0
  6
CONTINUOUS
 62
     4
 10
13.649999533
 20
308.299982733
 30
0.0
 11
86.449993933
 21
308.299982733
 31
0.0
  0
LINE
  8
0
  6
CONTINUOUS
 62
     4
 10
13.649999533
 20
344.699979933
 30
0.0
 11
86.449993933
 21
344.699979933
 31
0.0
  0
LINE
  8
0
  6
CONTINUOUS
 62
     4
 10
13.649999533
 20
381.099977133
 30
0.0
 11
86.449993933
 21
381.099977133
 31
0.0
  0
LINE
  8
0
  6
CONTINUOUS
 62
     4
 10
13.649999533
 20
417.499974333
 30
0.0
 11
86.449993933
 21
417.499974333
 31
0.0
  0
LINE
  8
0
  6
CONTINUOUS
 62
     4
 10
86.449993933
 20
89.899999533
 30
0.0
 11
86.449993933
 21
417.499974333
 31
0.0
  0
LINE
  8
0
  6
CONTINUOUS
 62
     4
 10
50.049996733
 20
89.899999533
 30
0.0
 11
50.049996733
 21
381.099977133
 31
0.0
  0
TEXT
  8
0
  6
CONTINUOUS
 62
     4
 10
26.086665243
 20
100.516665383
 30
1.81999986
 40
18.1999986
  1
計
 50
0.0
 41
0.75
 51
0.0
  7
KANJI0
  0
TEXT
  8
0
  6
CONTINUOUS
 62
     4
 10
26.086665243
 20
173.923326403
 30
1.81999986
 40
18.1999986
  1
設
 50
0.0
 41
0.75
 51
0.0
  7
KANJI0
  0
TEXT
  8
0
  6
CONTINUOUS
 62
     4
 10
26.086665243
 20
209.716656983
 30
1.81999986
 40
18.1999986
  1
管
 50
0.0
 41
0.75
 51
0.0
  7
KANJI0
  0
TEXT
  8
0
  6
CONTINUOUS
 62
     4
 10
26.086665243
 20
246.116654183
 30
1.81999986
 40
18.1999986
  1
製
 50
0.0
 41
0.75
 51
0.0
  7
KANJI0
  0
TEXT
  8
0
  6
CONTINUOUS
 62
     4
 10
26.086665243
 20
282.516651383
 30
1.81999986
 40
18.1999986
  1
資
 50
0.0
 41
0.75
 51
0.0
  7
KANJI0
  0
TEXT
  8
0
  6
CONTINUOUS
 62
     4
 10
26.086665243
 20
318.916648583
 30
1.81999986
 40
18.1999986
  1
営
 50
0.0
 41
0.75
 51
0.0
  7
KANJI0
  0
TEXT
  8
0
  6
CONTINUOUS
 62
     4
 10
26.086665243
 20
355.316645783
 30
1.81999986
 40
18.1999986
  1
客
 50
0.0
 41
0.75
 51
0.0
  7
KANJI0
  0
TEXT
  8
0
  6
CONTINUOUS
 62
     4
 10
25.783331933
 20
393.233309533
 30
1.81999986
 40
18.1999986
  1
出　図
 50
0.0
 41
0.75
 51
0.0
  7
KANJI0
  0
LINE
  8
0
  6
CONTINUOUS
 62
     4
 10
13.649999533
 20
89.899999533
 30
0.0
 11
13.649999533
 21
417.499974333
 31
0.0
  0
LINE
  8
0
  6
CONTINUOUS
 62
     6
 10
2802.333333333
 20
83.833333333
 30
0.0
 11
93.333333333
 21
83.833333333
 31
0.0
  0
TEXT
  8
0
  6
CONTINUOUS
 62
     4
 10
114.333328918
 20
118.833325974
 30
1.399999706
 40
13.999997056
  1
ＰＡＲＴＳ　ＬＩＳＴ
 50
0.0
 41
0.6
 51
0.0
  7
KANJI1
  0
TEXT
  8
0
  6
CONTINUOUS
 62
     4
 10
114.333328918
 20
97.83333039
 30
1.679999647
 40
16.799996468
  1
部品表
 50
0.0
 41
0.9
 51
0.0
  7
KANJI2
  0
TEXT
  8
0
  6
CONTINUOUS
 62
     3
 10
114.333328918
 20
153.833318615
 30
2.099999558
 40
20.999995585
  1
ＰＬ
 50
0.0
 41
0.9
 51
0.0
  7
KANJI3
  0
TEXT
  8
0
  6
CONTINUOUS
 62
     4
 10
429.333262687
 20
118.833325974
 30
1.399999706
 40
13.999997056
  1
Ｎ０．
 50
0.0
 41
0.6
 51
0.0
  7
KANJI1
  0
TEXT
  8
0
  6
CONTINUOUS
 62
     4
 10
429.333262687
 20
97.83333039
 30
1.679999647
 40
16.799996468
  1
項番
 50
0.0
 41
0.9
 51
0.0
  7
KANJI2
  0
LINE
  8
0
  6
CONTINUOUS
 62
     6
 10
555.333236195
 20
90.833331862
 30
0.0
 11
555.333236195
 21
188.833311256
 31
0.0
  0
LINE
  8
0
  6
CONTINUOUS
 62
     6
 10
415.333265631
 20
90.833331862
 30
0.0
 11
415.333265631
 21
188.833311256
 31
0.0
  0
LINE
  8
0
  6
CONTINUOUS
 62
     6
 10
2802.333333333
 20
1966.833333333
 30
0.0
 11
2802.333333333
 21
83.833333333
 31
0.0
  0
LINE
  8
0
  6
CONTINUOUS
 62
     6
 10
1862.000072333
 20
89.899999533
 30
0.0
 11
1862.000072333
 21
478.166636333
 31
0.0
  0
LINE
  8
0
  6
CONTINUOUS
 62
     6
 10
2796.266667133
 20
89.899999533
 30
0.0
 11
2796.266667133
 21
478.166636333
 31
0.0
  0
LINE
  8
0
  6
CONTINUOUS
 62
     4
 10
2083.433388633
 20
89.899999533
 30
0.0
 11
2083.433388633
 21
478.166636333
 31
0.0
  0
LINE
  8
0
  6
CONTINUOUS
 62
     4
 10
1862.000072333
 20
138.433329133
 30
0.0
 11
2083.433388633
 21
138.433329133
 31
0.0
  0
TEXT
  8
0
  6
CONTINUOUS
 62
     4
 10
1874.133404733
 20
117.199997433
 30
1.21333324
 40
12.1333324
  1
ＳＣＡＬＥ
 50
0.0
 41
0.6
 51
0.0
  7
KANJI4
  0
TEXT
  8
0
  6
CONTINUOUS
 62
     4
 10
1874.133404733
 20
98.999998833
 30
1.455999888
 40
14.55999888
  1
尺度
 50
0.0
 41
0.6
 51
0.0
  7
KANJI5
  0
LINE
  8
0
  6
CONTINUOUS
 62
     6
 10
1382.733442533
 20
138.433329133
 30
0.0
 11
1862.000072333
 21
138.433329133
 31
0.0
  0
LINE
  8
0
  6
CONTINUOUS
 62
     6
 10
1382.733442533
 20
89.899999533
 30
0.0
 11
2796.266667133
 21
89.899999533
 31
0.0
  0
TEXT
  8
0
  6
CONTINUOUS
 62
     6
 10
2089.500054833
 20
117.199997433
 30
0.0
 40
21.2333317
  1
ＵＮＩＴＥＣ　ＩＮＤＵＳＴＲＹ　ＣＯ．，ＬＴＤ．
 50
0.0
 41
0.42031746
 51
0.0
  7
KANJI6
  0
TEXT
  8
0
  6
CONTINUOUS
 62
     6
 10
2387.297531926
 20
109.313331373
 30
3.63999972
 40
36.3999972
  1
ユニテック工業株式会社
 50
0.0
 41
0.9
 51
0.0
  7
KANJI7
  0
LINE
  8
0
  6
CONTINUOUS
 62
     6
 10
2338.764202326
 20
122.053330393
 30
0.0
 11
2322.748203558
 21
122.053330393
 31
0.0
  0
LINE
  8
0
  6
CONTINUOUS
 62
     6
 10
2338.764202326
 20
124.965330169
 30
0.0
 11
2322.748203558
 21
124.965330169
 31
0.0
  0
LINE
  8
0
  6
CONTINUOUS
 62
     6
 10
2338.764202326
 20
122.053330393
 30
0.0
 11
2354.780201094
 21
122.053330393
 31
0.0
  0
LINE
  8
0
  6
CONTINUOUS
 62
     6
 10
2338.764202326
 20
124.965330169
 30
0.0
 11
2354.780201094
 21
124.965330169
 31
0.0
  0
LINE
  8
0
  6
CONTINUOUS
 62
     6
 10
2354.780201094
 20
124.965330169
 30
0.0
 11
2354.780201094
 21
122.053330393
 31
0.0
  0
ARC
  8
0
  6
CONTINUOUS
 62
     6
 10
2358.420200814
 20
123.509330281
 30
0.0
 40
14.55999888
 50
185.739170477
 51
90.0
  0
ARC
  8
0
  6
CONTINUOUS
 62
     6
 10
2358.420200814
 20
123.509330281
 30
0.0
 40
17.471998656
 50
184.780191847
 51
90.0
  0
LINE
  8
0
  6
CONTINUOUS
 62
     6
 10
2322.748203558
 20
122.053330393
 30
0.0
 11
2322.748203558
 21
124.965330169
 31
0.0
  0
ARC
  8
0
  6
CONTINUOUS
 62
     6
 10
2319.108203838
 20
123.509330281
 30
0.0
 40
14.55999888
 50
90.0
 51
354.260829523
  0
ARC
  8
0
  6
CONTINUOUS
 62
     6
 10
2319.108203838
 20
123.509330281
 30
0.0
 40
17.471998656
 50
90.0
 51
355.219808153
  0
LINE
  8
0
  6
CONTINUOUS
 62
     6
 10
2336.580202494
 20
140.981328937
 30
0.0
 11
2336.580202494
 21
138.069329161
 31
0.0
  0
LINE
  8
0
  6
CONTINUOUS
 62
     6
 10
2319.108203838
 20
138.069329161
 30
0.0
 11
2336.580202494
 21
138.069329161
 31
0.0
  0
LINE
  8
0
  6
CONTINUOUS
 62
     6
 10
2340.948202158
 20
140.981328937
 30
0.0
 11
2340.948202158
 21
138.069329161
 31
0.0
  0
LINE
  8
0
  6
CONTINUOUS
 62
     6
 10
2358.420200814
 20
138.069329161
 30
0.0
 11
2340.948202158
 21
138.069329161
 31
0.0
  0
TEXT
  8
0
  6
CONTINUOUS
 62
     4
 10
1537.433430633
 20
117.199997433
 30
1.21333324
 40
12.1333324
  1
ＢＹ
 50
0.0
 41
0.6
 51
0.0
  7
KANJI4
  0
TEXT
  8
0
  6
CONTINUOUS
 62
     4
 10
1670.900087033
 20
117.199997433
 30
1.21333324
 40
12.1333324
  1
ＤＥＳＣＲＩＰＴＩＯＮ
 50
0.0
 41
0.6
 51
0.0
  7
KANJI4
  0
TEXT
  8
0
  6
CONTINUOUS
 62
     4
 10
1537.433430633
 20
98.999998833
 30
1.455999888
 40
14.55999888
  1
担当
 50
0.0
 41
0.6
 51
0.0
  7
KANJI5
  0
TEXT
  8
0
  6
CONTINUOUS
 62
     4
 10
1689.100085633
 20
98.999998833
 30
1.455999888
 40
14.55999888
  1
記　　　　事
 50
0.0
 41
0.6
 51
0.0
  7
KANJI5
  0
LINE
  8
0
  6
CONTINUOUS
 62
     4
 10
1408.516773883
 20
129.333329833
 30
0.0
 11
1388.800108733
 21
98.999998833
 31
0.0
  0
TEXT
  8
0
  6
CONTINUOUS
 62
     4
 10
1458.566770033
 20
117.199997433
 30
1.21333324
 40
12.1333324
  1
ＤＡＴＥ
 50
0.0
 41
0.6
 51
0.0
  7
KANJI4
  0
TEXT
  8
0
  6
CONTINUOUS
 62
     4
 10
1467.666769333
 20
98.999998833
 30
1.455999888
 40
14.55999888
  1
日付
 50
0.0
 41
0.6
 51
0.0
  7
KANJI5
  0
LINE
  8
0
  6
CONTINUOUS
 62
     4
 10
1388.800108733
 20
98.999998833
 30
0.0
 11
1428.233439033
 21
98.999998833
 31
0.0
  0
LINE
  8
0
  6
CONTINUOUS
 62
     4
 10
1408.516773883
 20
129.333329833
 30
0.0
 11
1428.233439033
 21
98.999998833
 31
0.0
  0
LINE
  8
0
  6
CONTINUOUS
 62
     6
 10
1382.733442533
 20
89.899999533
 30
0.0
 11
1382.733442533
 21
138.433329133
 31
0.0
  0
LINE
  8
0
  6
CONTINUOUS
 62
     4
 10
1434.300105233
 20
89.899999533
 30
0.0
 11
1434.300105233
 21
138.433329133
 31
0.0
  0
LINE
  8
0
  6
CONTINUOUS
 62
     4
 10
1519.233432033
 20
89.899999533
 30
0.0
 11
1519.233432033
 21
138.433329133
 31
0.0
  0
LINE
  8
0
  6
CONTINUOUS
 62
     4
 10
1573.833427833
 20
89.899999533
 30
0.0
 11
1573.833427833
 21
138.433329133
 31
0.0
  0
TEXT
  8
0
  6
CONTINUOUS
 62
     4
 10
1874.133404733
 20
359.866645433
 30
1.21333324
 40
12.1333324
  1
ＣＯＤＥ
 50
0.0
 41
0.6
 51
0.0
  7
KANJI4
  0
LINE
  8
0
  6
CONTINUOUS
 62
     4
 10
1862.000072333
 20
381.099977133
 30
0.0
 11
2796.266667133
 21
381.099977133
 31
0.0
  0
TEXT
  8
0
  6
CONTINUOUS
 62
     4
 10
1874.133404733
 20
341.666646833
 30
1.455999888
 40
14.55999888
  1
分類
 50
0.0
 41
0.6
 51
0.0
  7
KANJI5
  0
TEXT
  8
0
  6
CONTINUOUS
 62
     4
 10
1883.583333333
 20
388.333333333
 30
7.0
 40
25.2
  1
ご注文主
 50
0.0
 41
1.111111111
 51
0.0
  7
KANJI8
  0
TEXT
  8
0
  6
CONTINUOUS
 62
     4
 10
1874.133404733
 20
214.266656633
 30
1.21333324
 40
12.1333324
  1
ＤＲＡＷＮ
 50
0.0
 41
0.6
 51
0.0
  7
KANJI4
  0
TEXT
  8
0
  6
CONTINUOUS
 62
     4
 10
1874.133404733
 20
262.799986233
 30
1.21333324
 40
12.1333324
  1
ＤＥＳＩＧＮ
 50
0.0
 41
0.6
 51
0.0
  7
KANJI4
  0
TEXT
  8
0
  6
CONTINUOUS
 62
     4
 10
1874.133404733
 20
311.333315833
 30
1.21333324
 40
12.1333324
  1
ＣＨＥＣＫ
 50
0.0
 41
0.6
 51
0.0
  7
KANJI4
  0
LINE
  8
0
  6
CONTINUOUS
 62
     4
 10
1862.000072333
 20
284.033317933
 30
0.0
 11
2083.433388633
 21
284.033317933
 31
0.0
  0
LINE
  8
0
  6
CONTINUOUS
 62
     4
 10
1862.000072333
 20
235.499988333
 30
0.0
 11
2083.433388633
 21
235.499988333
 31
0.0
  0
LINE
  8
0
  6
CONTINUOUS
 62
     4
 10
1862.000072333
 20
332.566647533
 30
0.0
 11
2083.433388633
 21
332.566647533
 31
0.0
  0
TEXT
  8
0
  6
CONTINUOUS
 62
     4
 10
1874.133404733
 20
244.599987633
 30
1.455999888
 40
14.55999888
  1
設計
 50
0.0
 41
0.6
 51
0.0
  7
KANJI5
  0
TEXT
  8
0
  6
CONTINUOUS
 62
     4
 10
1874.133404733
 20
293.133317233
 30
1.455999888
 40
14.55999888
  1
検図
 50
0.0
 41
0.6
 51
0.0
  7
KANJI5
  0
LINE
  8
0
  6
CONTINUOUS
 62
     4
 10
2101.330053923
 20
332.566647533
 30
0.0
 11
2796.266667133
 21
332.566647533
 31
0.0
  0
LINE
  8
0
  6
CONTINUOUS
 62
     4
 10
2083.433388633
 20
235.499988333
 30
0.0
 11
2796.266667133
 21
235.499988333
 31
0.0
  0
TEXT
  8
0
  6
CONTINUOUS
 62
     4
 10
2095.566721033
 20
214.266656633
 30
1.21333324
 40
12.1333324
  1
ＤＲＡＷＩＮＧ　ＮＯ．
 50
0.0
 41
0.8
 51
0.0
  7
KANJI9
  0
TEXT
  8
0
  6
CONTINUOUS
 62
     4
 10
2095.566721033
 20
262.799986233
 30
1.21333324
 40
12.1333324
  1
ＭＦＧ　ＮＯ．
 50
0.0
 41
0.8
 51
0.0
  7
KANJI9
  0
TEXT
  8
0
  6
CONTINUOUS
 62
     4
 10
2095.566721033
 20
311.333315833
 30
1.21333324
 40
12.1333324
  1
ＴＹＰＥ
 50
0.0
 41
0.8
 51
0.0
  7
KANJI9
  0
LINE
  8
0
  6
CONTINUOUS
 62
     4
 10
2101.633387233
 20
284.033317933
 30
0.0
 11
2380.700032433
 21
284.033317933
 31
0.0
  0
TEXT
  8
0
  6
CONTINUOUS
 62
     4
 10
2095.566721033
 20
193.033324933
 30
1.455999888
 40
14.55999888
  1
図　面　番　号
 50
0.0
 41
0.8
 51
0.0
  7
KANJI10
  0
TEXT
  8
0
  6
CONTINUOUS
 62
     4
 10
2095.566721033
 20
241.566654533
 30
1.455999888
 40
14.55999888
  1
製番
 50
0.0
 41
0.8
 51
0.0
  7
KANJI10
  0
TEXT
  8
0
  6
CONTINUOUS
 62
     4
 10
2095.566721033
 20
290.099984133
 30
1.455999888
 40
14.55999888
  1
機種
 50
0.0
 41
0.8
 51
0.0
  7
KANJI10
  0
LINE
  8
0
  6
CONTINUOUS
 62
     4
 10
1862.000072333
 20
186.966658733
 30
0.0
 11
2083.433388633
 21
186.966658733
 31
0.0
  0
TEXT
  8
0
  6
CONTINUOUS
 62
     4
 10
1874.133404733
 20
165.733327033
 30
1.21333324
 40
12.1333324
  1
ＤＡＴＥ
 50
0.0
 41
0.6
 51
0.0
  7
KANJI4
  0
TEXT
  8
0
  6
CONTINUOUS
 62
     4
 10
1874.133404733
 20
147.533328433
 30
1.455999888
 40
14.55999888
  1
日付
 50
0.0
 41
0.6
 51
0.0
  7
KANJI5
  0
TEXT
  8
0
  6
CONTINUOUS
 62
     4
 10
1874.133404733
 20
196.066658033
 30
1.455999888
 40
14.55999888
  1
作図
 50
0.0
 41
0.6
 51
0.0
  7
KANJI5
  0
LINE
  8
0
  6
CONTINUOUS
 62
     4
 10
2083.433388633
 20
165.733327033
 30
0.0
 11
2796.266667133
 21
165.733327033
 31
0.0
  0
LINE
  8
0
  6
LTYPE1
 62
     4
 10
2593.033349433
 20
174.833326333
 30
0.0
 11
2593.033349433
 21
223.366655933
 31
0.0
  0
LINE
  8
0
  6
LTYPE1
 62
     4
 10
2550.566686033
 20
174.833326333
 30
0.0
 11
2550.566686033
 21
223.366655933
 31
0.0
  0
LINE
  8
0
  6
LTYPE1
 62
     4
 10
2508.100022633
 20
174.833326333
 30
0.0
 11
2508.100022633
 21
223.366655933
 31
0.0
  0
LINE
  8
0
  6
LTYPE1
 62
     4
 10
2465.633359233
 20
174.833326333
 30
0.0
 11
2465.633359233
 21
223.366655933
 31
0.0
  0
LINE
  8
0
  6
LTYPE1
 62
     4
 10
2423.166695833
 20
174.833326333
 30
0.0
 11
2423.166695833
 21
223.366655933
 31
0.0
  0
LINE
  8
0
  6
LTYPE1
 62
     4
 10
2380.700032433
 20
174.833326333
 30
0.0
 11
2380.700032433
 21
223.366655933
 31
0.0
  0
LINE
  8
0
  6
LTYPE1
 62
     4
 10
2338.233369033
 20
174.833326333
 30
0.0
 11
2338.233369033
 21
223.366655933
 31
0.0
  0
LINE
  8
0
  6
LTYPE1
 62
     4
 10
2295.766705633
 20
174.833326333
 30
0.0
 11
2295.766705633
 21
223.366655933
 31
0.0
  0
LINE
  8
0
  6
LTYPE1
 62
     4
 10
2295.766705633
 20
223.366655933
 30
0.0
 11
2593.033349433
 21
223.366655933
 31
0.0
  0
LINE
  8
0
  6
LTYPE1
 62
     4
 10
2295.766705633
 20
174.833326333
 30
0.0
 11
2593.033349433
 21
174.833326333
 31
0.0
  0
LINE
  8
0
  6
CONTINUOUS
 62
     4
 10
2617.300014233
 20
200.616657683
 30
0.0
 11
2629.433346633
 21
200.616657683
 31
0.0
  0
LINE
  8
0
  6
CONTINUOUS
 62
     4
 10
2693.133341733
 20
182.416659083
 30
0.0
 11
2650.666678333
 21
182.416659083
 31
0.0
  0
LINE
  8
0
  6
CONTINUOUS
 62
     4
 10
2650.666678333
 20
182.416659083
 30
0.0
 11
2671.900010033
 21
218.816656283
 31
0.0
  0
LINE
  8
0
  6
CONTINUOUS
 62
     4
 10
2671.900010033
 20
218.816656283
 30
0.0
 11
2693.133341733
 21
182.416659083
 31
0.0
  0
TEXT
  8
0
  6
CONTINUOUS
 62
     4
 10
2398.900031033
 20
311.333315833
 30
1.21333324
 40
12.1333324
  1
ＴＩＴＬＥ
 50
0.0
 41
0.8
 51
0.0
  7
KANJI9
  0
TEXT
  8
0
  6
CONTINUOUS
 62
     4
 10
2398.900031033
 20
290.099984133
 30
1.455999888
 40
14.55999888
  1
名称
 50
0.0
 41
0.8
 51
0.0
  7
KANJI10
  0
TEXT
  8
0
  6
CONTINUOUS
 62
     2
 10
2497.833333333
 20
244.833333333
 30
17.5
 40
35.0
  1
外形寸法図
 50
0.0
 41
1.0
 51
0.0
  7
KANJI11
  0
TEXT
  8
0
  6
CONTINUOUS
 62
     2
 10
2455.833333333
 20
286.833333333
 30
5.0
 40
35.0
  1
マイティシリンダ
 50
0.0
 41
1.0
 51
0.0
  7
KANJI12
  0
TEXT
  8
0
  6
CONTINUOUS
 62
     2
 10
2259.016705633
 20
181.833326333
 30
2.1
 40
35.0
  1
Ａ
 50
0.0
 41
0.8
 51
0.0
  7
KANJI13
  0
CIRCLE
  8
0
  6
CONTINUOUS
 62
     2
 10
2213.516705633
 20
257.083326333
 30
0.0
 40
17.5
  0
TEXT
  8
0
  6
CONTINUOUS
 62
     2
 10
2200.391705633
 20
243.958326333
 30
2.1
 40
28.0
  1
Ｓ
 50
0.0
 41
1.0
 51
0.0
  7
KANJI14
  0
LINE
  8
0
  6
CONTINUOUS
 62
     6
 10
2336.580202494
 20
140.981328937
 30
0.0
 11
2319.108203838
 21
140.981328937
 31
0.0
  0
LINE
  8
0
  6
CONTINUOUS
 62
     6
 10
2340.948202158
 20
140.981328937
 30
0.0
 11
2358.420200814
 21
140.981328937
 31
0.0
  0
LINE
  8
0
  6
CONTINUOUS
 62
     4
 10
2796.266667133
 20
429.633306733
 30
0.0
 11
2796.266667133
 21
478.166636333
 31
0.0
  0
LINE
  8
0
  6
CONTINUOUS
 62
     6
 10
1862.875072333
 20
429.633306733
 30
0.0
 11
2797.141667133
 21
429.633306733
 31
0.0
  0
LINE
  8
0
  6
CONTINUOUS
 62
     6
 10
1862.000072333
 20
478.166636333
 30
0.0
 11
2796.266667133
 21
478.166636333
 31
0.0
  0
TEXT
  8
0
  6
CONTINUOUS
 62
     4
 10
1883.583333333
 20
436.866662933
 30
7.0
 40
25.2
  1
ご用途
 50
0.0
 41
1.111111111
 51
0.0
  7
KANJI8
  0
TEXT
  8
0
  6
CONTINUOUS
 62
     2
 10
1990.333333333
 20
97.833333333
 30
2.1
 40
31.5
  1
１／７
 50
0.0
 41
0.666666667
 51
0.0
  7
KANJI15
  0
TEXT
  8
0
  6
CONTINUOUS
 62
     2
 10
1940.166705633
 20
199.333326333
 30
7.0
 40
24.5
  1
Ｋ．Ｋ
 50
0.0
 41
0.857142857
 51
0.0
  7
KANJI16
  0
POLYLINE
  8
0
  6
CONTINUOUS
 62
     4
 66
     1
  0
VERTEX
  8
0
  6
CONTINUOUS
 62
     4
 10
1408.516773883
 20
177.866659433
 30
0.0
  0
VERTEX
  8
0
  6
CONTINUOUS
 62
     4
 10
1388.800108733
 20
147.533328433
 30
0.0
  0
VERTEX
  8
0
  6
CONTINUOUS
 62
     4
 10
1428.233439033
 20
147.533328433
 30
0.0
  0
SEQEND
  0
LINE
  8
0
  6
CONTINUOUS
 62
     4
 10
1408.516773883
 20
177.866659433
 30
0.0
 11
1428.233439033
 21
147.533328433
 31
0.0
  0
TEXT
  8
0
  6
CONTINUOUS
 62
     2
 10
1401.530105233
 20
149.223329133
 30
0.0
 40
21.0
  1
１
 50
0.0
 41
0.9
 51
0.0
  7
KANJI17
  0
LINE
  8
0
  6
CONTINUOUS
 62
     1
 10
1803.231133333
 20
1935.933053333
 30
0.0
 11
1803.231133333
 21
1805.933573333
 31
0.0
  0
LINE
  8
0
  6
CONTINUOUS
 62
     2
 10
1728.231433333
 20
1935.933053333
 30
0.0
 11
1728.231433333
 21
1805.933573333
 31
0.0
  0
LINE
  8
0
  6
CONTINUOUS
 62
     2
 10
1653.231733333
 20
1935.933053333
 30
0.0
 11
1653.231733333
 21
1805.933573333
 31
0.0
  0
LINE
  8
0
  6
CONTINUOUS
 62
     1
 10
1553.232133333
 20
1935.933053333
 30
0.0
 11
1553.232133333
 21
1805.933573333
 31
0.0
  0
LINE
  8
0
  6
CONTINUOUS
 62
     1
 10
1553.232133333
 20
1935.933053333
 30
0.0
 11
1803.231133333
 21
1935.933053333
 31
0.0
  0
LINE
  8
0
  6
CONTINUOUS
 62
     1
 10
1553.232133333
 20
1895.933213333
 30
0.0
 11
1803.231133333
 21
1895.933213333
 31
0.0
  0
LINE
  8
0
  6
CONTINUOUS
 62
     2
 10
1553.232133333
 20
1865.933333333
 30
0.0
 11
1803.231133333
 21
1865.933333333
 31
0.0
  0
LINE
  8
0
  6
CONTINUOUS
 62
     2
 10
1553.232133333
 20
1835.933453333
 30
0.0
 11
1803.231133333
 21
1835.933453333
 31
0.0
  0
LINE
  8
0
  6
CONTINUOUS
 62
     1
 10
1553.232133333
 20
1805.933573333
 30
0.0
 11
1803.231133333
 21
1805.933573333
 31
0.0
  0
TEXT
  8
0
  6
CONTINUOUS
 62
     2
 10
1738.231393333
 20
1918.433123333
 30
1.499994
 40
14.99994
  1
起動電流
 50
0.0
 41
0.9
 51
0.0
  7
KANJI18
  0
TEXT
  8
0
  6
CONTINUOUS
 62
     2
 10
1738.231393333
 20
1900.933193333
 30
1.499994
 40
14.99994
  1
　　　Ａ
 50
0.0
 41
0.9
 51
0.0
  7
KANJI18
  0
TEXT
  8
0
  6
CONTINUOUS
 62
     2
 10
1663.231693333
 20
1918.433123333
 30
1.499994
 40
14.99994
  1
定格電流
 50
0.0
 41
0.9
 51
0.0
  7
KANJI18
  0
TEXT
  8
0
  6
CONTINUOUS
 62
     2
 10
1663.231693333
 20
1900.933193333
 30
1.499994
 40
14.99994
  1
　　　Ａ
 50
0.0
 41
0.9
 51
0.0
  7
KANJI18
  0
TEXT
  8
0
  6
CONTINUOUS
 62
     2
 10
1561.732099333
 20
1843.433423333
 30
1.499994
 40
14.99994
  1
２００／６０
 50
0.0
 41
0.9
 51
0.0
  7
KANJI18
  0
TEXT
  8
0
  6
CONTINUOUS
 62
     2
 10
1561.732099333
 20
1918.433123333
 30
1.499994
 40
14.99994
  1
電圧／周波数
 50
0.0
 41
0.9
 51
0.0
  7
KANJI18
  0
TEXT
  8
0
  6
CONTINUOUS
 62
     2
 10
1561.732099333
 20
1900.933193333
 30
1.499994
 40
14.99994
  1
　Ｖ／Ｈｚ
 50
0.0
 41
0.9
 51
0.0
  7
KANJI18
  0
TEXT
  8
0
  6
CONTINUOUS
 62
     2
 10
1561.732099333
 20
1873.433303333
 30
1.499994
 40
14.99994
  1
２００／５０
 50
0.0
 41
0.9
 51
0.0
  7
KANJI18
  0
TEXT
  8
0
  6
CONTINUOUS
 62
     2
 10
1561.732099333
 20
1813.433543333
 30
1.499994
 40
14.99994
  1
２２０／６０
 50
0.0
 41
0.9
 51
0.0
  7
KANJI18
  0
LINE
  8
0
  6
CONTINUOUS
 62
     1
 10
1503.232333333
 20
1935.933053333
 30
0.0
 11
1503.232333333
 21
1805.933573333
 31
0.0
  0
LINE
  8
0
  6
CONTINUOUS
 62
     2
 10
1428.232633333
 20
1935.933053333
 30
0.0
 11
1428.232633333
 21
1805.933573333
 31
0.0
  0
LINE
  8
0
  6
CONTINUOUS
 62
     2
 10
1353.232933333
 20
1935.933053333
 30
0.0
 11
1353.232933333
 21
1805.933573333
 31
0.0
  0
LINE
  8
0
  6
CONTINUOUS
 62
     1
 10
1253.233333333
 20
1935.933053333
 30
0.0
 11
1503.232333333
 21
1935.933053333
 31
0.0
  0
LINE
  8
0
  6
CONTINUOUS
 62
     1
 10
1253.233333333
 20
1895.933213333
 30
0.0
 11
1503.232333333
 21
1895.933213333
 31
0.0
  0
LINE
  8
0
  6
CONTINUOUS
 62
     2
 10
1253.233333333
 20
1865.933333333
 30
0.0
 11
1503.232333333
 21
1865.933333333
 31
0.0
  0
LINE
  8
0
  6
CONTINUOUS
 62
     2
 10
1253.233333333
 20
1835.933453333
 30
0.0
 11
1503.232333333
 21
1835.933453333
 31
0.0
  0
LINE
  8
0
  6
CONTINUOUS
 62
     1
 10
1253.233333333
 20
1805.933573333
 30
0.0
 11
1503.232333333
 21
1805.933573333
 31
0.0
  0
TEXT
  8
0
  6
CONTINUOUS
 62
     2
 10
1438.232593333
 20
1918.433123333
 30
1.499994
 40
14.99994
  1
起動電流
 50
0.0
 41
0.9
 51
0.0
  7
KANJI18
  0
TEXT
  8
0
  6
CONTINUOUS
 62
     2
 10
1438.232593333
 20
1900.933193333
 30
1.499994
 40
14.99994
  1
　　　Ａ
 50
0.0
 41
0.9
 51
0.0
  7
KANJI18
  0
TEXT
  8
0
  6
CONTINUOUS
 62
     2
 10
1363.232893333
 20
1918.433123333
 30
1.499994
 40
14.99994
  1
定格電流
 50
0.0
 41
0.9
 51
0.0
  7
KANJI18
  0
TEXT
  8
0
  6
CONTINUOUS
 62
     2
 10
1363.232893333
 20
1900.933193333
 30
1.499994
 40
14.99994
  1
　　　Ａ
 50
0.0
 41
0.9
 51
0.0
  7
KANJI18
  0
TEXT
  8
0
  6
CONTINUOUS
 62
     2
 10
1261.733299333
 20
1918.433123333
 30
1.499994
 40
14.99994
  1
電圧／周波数
 50
0.0
 41
0.9
 51
0.0
  7
KANJI18
  0
TEXT
  8
0
  6
CONTINUOUS
 62
     2
 10
1261.733299333
 20
1900.933193333
 30
1.499994
 40
14.99994
  1
　Ｖ／Ｈｚ
 50
0.0
 41
0.9
 51
0.0
  7
KANJI18
  0
TEXT
  8
0
  6
CONTINUOUS
 62
     2
 10
1261.733299333
 20
1873.433303333
 30
1.499994
 40
14.99994
  1
４００／５０
 50
0.0
 41
0.9
 51
0.0
  7
KANJI18
  0
TEXT
  8
0
  6
CONTINUOUS
 62
     2
 10
1261.733299333
 20
1843.433423333
 30
1.499994
 40
14.99994
  1
４００／６０
 50
0.0
 41
0.9
 51
0.0
  7
KANJI18
  0
TEXT
  8
0
  6
CONTINUOUS
 62
     2
 10
1261.733299333
 20
1813.433543333
 30
1.499994
 40
14.99994
  1
４４０／６０
 50
0.0
 41
0.9
 51
0.0
  7
KANJI18
  0
LINE
  8
0
  6
CONTINUOUS
 62
     1
 10
1253.233333333
 20
1935.933053333
 30
0.0
 11
1253.233333333
 21
1805.933573333
 31
0.0
  0
LINE
  8
0
  6
CONTINUOUS
 62
     6
 10
412.660995895
 20
1903.539053132
 30
0.0
 11
141.942087592
 21
1903.539053132
 31
0.0
  0
LINE
  8
0
  6
CONTINUOUS
 62
     3
 10
412.660995895
 20
1871.499469798
 30
0.0
 11
141.942087592
 21
1871.499469798
 31
0.0
  0
LINE
  8
0
  6
CONTINUOUS
 62
     6
 10
412.660995895
 20
1871.499469798
 30
0.0
 11
141.942087592
 21
1871.499469798
 31
0.0
  0
TEXT
  8
0
  6
CONTINUOUS
 62
     6
 10
442.507599334
 20
1900.56714585
 30
1.4379365
 40
15.379
  1
電気定格　　　
 50
0.0
 41
0.85
 51
0.0
  7
KANJI19
  0
TEXT
  8
0
  6
CONTINUOUS
 62
     6
 10
146.502436736
 20
1907.270247886
 30
1.24215
 40
13.6045
  1
ＬＳ０１　　　：推力リミッタ（前進時過負荷用）
 50
0.0
 41
0.822608696
 51
0.0
  7
KANJI20
  0
TEXT
  8
0
  6
CONTINUOUS
 62
     6
 10
146.502436736
 20
1875.230664553
 30
1.24215
 40
13.6045
  1
ＬＳ０２　　　：推力リミッタ（後進時過負荷用）
 50
0.0
 41
0.822608696
 51
0.0
  7
KANJI20
  0
TEXT
  8
0
  6
CONTINUOUS
 62
     6
 10
457.44266762
 20
1864.898118365
 30
0.0
 40
13.8411
  1
ＤＣ１２５Ｖ　０．６Ａ　，ＤＣ２５０Ｖ　０．３Ａ　
 50
0.0
 41
0.726495726
 51
0.0
  7
KANJI21
  0
LINE
  8
0
  6
LTYPE2
 62
     6
 10
760.783333333
 20
1935.566666667
 30
0.0
 11
120.983333333
 21
1935.566666667
 31
0.0
  0
TEXT
  8
0
  6
CONTINUOUS
 62
     6
 10
451.309987541
 20
1921.28868048
 30
0.0
 40
52.5
  1
｝
 50
0.0
 41
0.538166667
 51
0.0
  7
KANJI22
  0
TEXT
  8
0
  6
CONTINUOUS
 62
     6
 10
369.498256796
 20
1654.427791925
 30
0.0
 40
20.697485939
  1
端子台　接続図
 50
0.0
 41
0.880962996
 51
0.0
  7
KANJI23
  0
LINE
  8
0
  6
LTYPE2
 62
     6
 10
760.783333333
 20
1633.4
 30
0.0
 11
760.783333333
 21
1935.566666667
 31
0.0
  0
LINE
  8
0
  6
LTYPE2
 62
     6
 10
120.983333333
 20
1633.4
 30
0.0
 11
760.783333333
 21
1633.4
 31
0.0
  0
LINE
  8
0
  6
LTYPE2
 62
     6
 10
120.983333333
 20
1935.566666667
 30
0.0
 11
120.983333333
 21
1633.4
 31
0.0
  0
LINE
  8
0
  6
CONTINUOUS
 62
     2
 10
410.290269042
 20
1713.932808864
 30
0.0
 11
410.290269042
 21
1687.35734765
 31
0.0
  0
LINE
  8
0
  6
CONTINUOUS
 62
     2
 10
441.294973793
 20
1713.932808864
 30
0.0
 11
441.294973793
 21
1687.35734765
 31
0.0
  0
LINE
  8
0
  6
CONTINUOUS
 62
     2
 10
472.299678543
 20
1713.932808864
 30
0.0
 11
472.299678543
 21
1687.35734765
 31
0.0
  0
LINE
  8
0
  6
CONTINUOUS
 62
     2
 10
503.304383294
 20
1713.932808864
 30
0.0
 11
503.304383294
 21
1687.35734765
 31
0.0
  0
CIRCLE
  8
0
  6
CONTINUOUS
 62
     6
 10
494.064981278
 20
1741.325908436
 30
0.0
 40
4.783583019
  0
LINE
  8
0
  6
CONTINUOUS
 62
     6
 10
489.28139826
 20
1741.325908436
 30
0.0
 11
487.802030919
 21
1741.325908436
 31
0.0
  0
LINE
  8
0
  6
CONTINUOUS
 62
     6
 10
518.511032005
 20
1757.293656533
 30
0.0
 11
513.944151112
 21
1731.236091661
 31
0.0
  0
LINE
  8
0
  6
CONTINUOUS
 62
     6
 10
512.99698294
 20
1758.21266471
 30
0.0
 11
508.42974291
 21
1732.155159695
 31
0.0
  0
LINE
  8
0
  6
CONTINUOUS
 62
     6
 10
513.944151112
 20
1731.236091661
 30
0.0
 11
508.42974291
 21
1732.155159695
 31
0.0
  0
CIRCLE
  8
0
  6
CONTINUOUS
 62
     6
 10
518.806735669
 20
1730.279375058
 30
0.0
 40
4.783583019
  0
LINE
  8
0
  6
CONTINUOUS
 62
     6
 10
518.806735669
 20
1725.495792039
 30
0.0
 11
518.806735669
 21
1713.932808864
 31
0.0
  0
LINE
  8
0
  6
CONTINUOUS
 62
     6
 10
487.802030919
 20
1741.325908436
 30
0.0
 11
487.802030919
 21
1713.932808864
 31
0.0
  0
LINE
  8
0
  6
CONTINUOUS
 62
     6
 10
456.797326168
 20
1713.932808864
 30
0.0
 11
456.797326168
 21
1776.588887922
 31
0.0
  0
LINE
  8
0
  6
CONTINUOUS
 62
     6
 10
364.078915581
 20
1757.293656533
 30
0.0
 11
368.645796473
 21
1731.236091661
 31
0.0
  0
LINE
  8
0
  6
CONTINUOUS
 62
     6
 10
369.592964645
 20
1758.21266471
 30
0.0
 11
374.160204675
 21
1732.155159695
 31
0.0
  0
LINE
  8
0
  6
CONTINUOUS
 62
     6
 10
368.645796473
 20
1731.236091661
 30
0.0
 11
374.160204675
 21
1732.155159695
 31
0.0
  0
CIRCLE
  8
0
  6
CONTINUOUS
 62
     6
 10
363.783211916
 20
1730.279375058
 30
0.0
 40
4.783583019
  0
CIRCLE
  8
0
  6
CONTINUOUS
 62
     6
 10
388.524966307
 20
1741.325908436
 30
0.0
 40
4.783583019
  0
LINE
  8
0
  6
CONTINUOUS
 62
     6
 10
393.308549326
 20
1741.325908436
 30
0.0
 11
394.787916667
 21
1741.325908436
 31
0.0
  0
LINE
  8
0
  6
CONTINUOUS
 62
     6
 10
363.783211916
 20
1725.495792039
 30
0.0
 11
363.783211916
 21
1713.932808864
 31
0.0
  0
LINE
  8
0
  6
CONTINUOUS
 62
     6
 10
394.787916667
 20
1741.325908436
 30
0.0
 11
394.787916667
 21
1713.932808864
 31
0.0
  0
LINE
  8
0
  6
CONTINUOUS
 62
     6
 10
425.792621417
 20
1713.932808864
 30
0.0
 11
425.792621417
 21
1776.588887922
 31
0.0
  0
LINE
  8
0
  6
CONTINUOUS
 62
     2
 10
534.309088045
 20
1713.932808864
 30
0.0
 11
534.309088045
 21
1687.35734765
 31
0.0
  0
LINE
  8
0
  6
CONTINUOUS
 62
     2
 10
348.280859541
 20
1713.932808864
 30
0.0
 11
348.280859541
 21
1687.35734765
 31
0.0
  0
LINE
  8
0
  6
CONTINUOUS
 62
     2
 10
379.285564291
 20
1713.932808864
 30
0.0
 11
379.285564291
 21
1687.35734765
 31
0.0
  0
LINE
  8
0
  6
CONTINUOUS
 62
     6
 10
518.806735669
 20
1776.588887922
 30
0.0
 11
456.797326168
 21
1776.588887922
 31
0.0
  0
CIRCLE
  8
0
  6
CONTINUOUS
 62
     6
 10
518.806735669
 20
1762.18764549
 30
0.0
 40
4.783583019
  0
LINE
  8
0
  6
CONTINUOUS
 62
     6
 10
518.511032005
 20
1757.293656533
 30
0.0
 11
512.99698294
 21
1758.21266471
 31
0.0
  0
LINE
  8
0
  6
CONTINUOUS
 62
     6
 10
518.806735669
 20
1766.971228508
 30
0.0
 11
518.806735669
 21
1776.588887922
 31
0.0
  0
CIRCLE
  8
0
  6
CONTINUOUS
 62
     6
 10
363.783211916
 20
1762.18764549
 30
0.0
 40
4.783583019
  0
LINE
  8
0
  6
CONTINUOUS
 62
     6
 10
364.078915581
 20
1757.293656533
 30
0.0
 11
369.592964645
 21
1758.21266471
 31
0.0
  0
LINE
  8
0
  6
CONTINUOUS
 62
     6
 10
363.783211916
 20
1766.971228508
 30
0.0
 11
363.783211916
 21
1776.588887922
 31
0.0
  0
LINE
  8
0
  6
CONTINUOUS
 62
     6
 10
425.792621417
 20
1776.588887922
 30
0.0
 11
363.783211916
 21
1776.588887922
 31
0.0
  0
TEXT
  8
0
  6
CONTINUOUS
 62
     6
 10
369.3400844
 20
1781.861218818
 30
0.9555
 40
13.65
  1
ＬＳ０１
 50
0.0
 41
0.8
 51
0.0
  7
KANJI24
  0
TEXT
  8
0
  6
CONTINUOUS
 62
     6
 10
465.730298652
 20
1781.861218818
 30
0.9555
 40
13.65
  1
ＬＳ０２
 50
0.0
 41
0.8
 51
0.0
  7
KANJI24
  0
TEXT
  8
0
  6
CONTINUOUS
 62
     3
 10
168.453571987
 20
1691.786591185
 30
0.0
 40
17.5
  1
　　　　　　　　　　　　　　　　　　１　　２　　　３　　　４　　　５　　　６
 50
0.0
 41
0.911
 51
0.0
  7
KANJI25
  0
LINE
  8
0
  6
CONTINUOUS
 62
     2
 10
348.280859541
 20
1713.932808864
 30
0.0
 11
534.309088045
 21
1713.932808864
 31
0.0
  0
LINE
  8
0
  6
CONTINUOUS
 62
     2
 10
348.280859541
 20
1687.35734765
 30
0.0
 11
534.309088045
 21
1687.35734765
 31
0.0
  0
TEXT
  8
0
  6
CONTINUOUS
 62
     6
 10
338.581590129
 20
1816.594458592
 30
0.0
 40
20.697485939
  1
推力リミッタ端子台配列
 50
0.0
 41
0.880962996
 51
0.0
  7
KANJI23
  0
TEXT
  8
0
  6
CONTINUOUS
 62
     6
 10
457.44266762
 20
1883.267253746
 30
0.0
 40
13.8411
  1
ＡＣ１００Ｖ　１２５Ｖ　２５０Ｖ　－１０Ａ
 50
0.0
 41
0.726495726
 51
0.0
  7
KANJI21
  0
TEXT
  8
0
  6
CONTINUOUS
 62
     2
 10
1983.333333333
 20
732.733333333
 30
7.2
 40
25.2
  1
１。運転時は必ずピストンロッドの回転防止を行って下さい。
 50
0.0
 41
0.857142857
 51
0.0
  7
KANJI26
  0
TEXT
  8
0
  6
CONTINUOUS
 62
     2
 10
1983.333333333
 20
685.133333333
 30
7.182
 40
25.2
  1
２。モートル：全閉自冷かご形３０分定格
 50
0.0
 41
0.857222222
 51
0.0
  7
KANJI27
  0
TEXT
  8
0
  6
CONTINUOUS
 62
     2
 10
1982.866561433
 20
637.533337533
 30
7.182
 40
25.2
  1
３。呼称ストロークは、機械的ストロークです。
 50
0.0
 41
0.857222222
 51
0.0
  7
KANJI27
  0
TEXT
  8
0
  6
CONTINUOUS
 62
     2
 10
1982.866561433
 20
597.283337533
 30
7.182
 40
25.2
  1
　　必ず、常用はストローク両端に余裕を取って下さい。
 50
0.0
 41
0.857222222
 51
0.0
  7
KANJI27
  0
LINE
  8
0
  6
CONTINUOUS
 62
     2
 10
2061.733333333
 20
781.033333333
 30
0.0
 11
2232.533333333
 21
781.033333333
 31
0.0
  0
TEXT
  8
0
  6
CONTINUOUS
 62
     2
 10
2081.333333333
 20
788.733333333
 30
14.0
 40
28.0
  1
特記事項
 50
0.0
 41
0.9
 51
0.0
  7
KANJI28
  0
LINE
  8
0
  6
CONTINUOUS
 62
     1
 10
1252.008333333
 20
1755.136906667
 30
0.0
 11
2159.208333333
 21
1755.136906667
 31
0.0
  0
LINE
  8
0
  6
CONTINUOUS
 62
     1
 10
1252.008333333
 20
1715.936906667
 30
0.0
 11
2159.208333333
 21
1715.936906667
 31
0.0
  0
TEXT
  8
0
  6
CONTINUOUS
 62
     2
 10
1308.008333333
 20
1727.136906667
 30
1.792
 40
17.92
  1
形
 50
0.0
 41
0.9
 51
0.0
  7
KANJI29
  0
TEXT
  8
0
  6
CONTINUOUS
 62
     2
 10
1417.208333333
 20
1727.136906667
 30
1.792
 40
17.92
  1
式
 50
0.0
 41
0.9
 51
0.0
  7
KANJI29
  0
TEXT
  8
0
  6
CONTINUOUS
 62
     2
 10
1501.768333333
 20
1726.016906667
 30
1.68
 40
16.8
  1
ストローク
 50
0.0
 41
0.9
 51
0.0
  7
KANJI30
  0
TEXT
  8
0
  6
CONTINUOUS
 62
     2
 10
1609.288333333
 20
1724.896906667
 30
0.0
 40
16.8
  1
ｍｉｎ　
 50
0.0
 41
0.9
 51
0.0
  7
KANJI31
  0
TEXT
  8
0
  6
CONTINUOUS
 62
     2
 10
1721.288333333
 20
1724.896906667
 30
0.0
 40
16.8
  1
ｍｉｎ　
 50
0.0
 41
0.9
 51
0.0
  7
KANJI31
  0
TEXT
  8
0
  6
CONTINUOUS
 62
     2
 10
1945.288333333
 20
1724.896906667
 30
0.0
 40
16.8
  1
ｍｉｎ　
 50
0.0
 41
0.9
 51
0.0
  7
KANJI31
  0
TEXT
  8
0
  6
CONTINUOUS
 62
     2
 10
1666.408333333
 20
1726.016906667
 30
1.96
 40
19.6
  1
ＡＬ
 50
0.0
 41
0.9
 51
0.0
  7
KANJI32
  0
TEXT
  8
0
  6
CONTINUOUS
 62
     2
 10
1778.408333333
 20
1726.016906667
 30
1.96
 40
19.6
  1
Ｌ
 50
0.0
 41
0.9
 51
0.0
  7
KANJI32
  0
TEXT
  8
0
  6
CONTINUOUS
 62
     2
 10
1873.608333333
 20
1726.016906667
 30
1.96
 40
19.6
  1
Ｃ
 50
0.0
 41
0.9
 51
0.0
  7
KANJI32
  0
TEXT
  8
0
  6
CONTINUOUS
 62
     2
 10
2002.408333333
 20
1726.016906667
 30
1.96
 40
19.6
  1
Ｐ
 50
0.0
 41
0.9
 51
0.0
  7
KANJI32
  0
TEXT
  8
0
  6
CONTINUOUS
 62
     2
 10
2117.628333333
 20
1725.596906667
 30
0.0
 40
15.12
  1
（ｋｇ）
 50
0.0
 41
0.740740741
 51
0.0
  7
KANJI33
  0
TEXT
  8
0
  6
CONTINUOUS
 62
     2
 10
2050.428333333
 20
1725.316906667
 30
1.68
 40
19.6
  1
概算重量
 50
0.0
 41
0.857142857
 51
0.0
  7
KANJI34
  0
TEXT
  8
0
  6
CONTINUOUS
 62
     2
 10
1512.408333333
 20
1688.45024
 30
1.68
 40
16.8
  1
　２００
 50
0.0
 41
0.9
 51
0.0
  7
KANJI30
  0
TEXT
  8
0
  6
CONTINUOUS
 62
     2
 10
1960.408333333
 20
1688.45024
 30
1.68
 40
16.8
  1
　　４５
 50
0.0
 41
0.9
 51
0.0
  7
KANJI30
  0
LINE
  8
0
  6
CONTINUOUS
 62
     2
 10
1252.008333333
 20
1679.07024
 30
0.0
 11
2159.208333333
 21
1679.07024
 31
0.0
  0
TEXT
  8
0
  6
CONTINUOUS
 62
     2
 10
1848.408333333
 20
1688.45024
 30
1.68
 40
16.8
  1
　５１０
 50
0.0
 41
0.9
 51
0.0
  7
KANJI30
  0
TEXT
  8
0
  6
CONTINUOUS
 62
     2
 10
1736.408333333
 20
1688.45024
 30
1.68
 40
16.8
  1
　６２５
 50
0.0
 41
0.9
 51
0.0
  7
KANJI30
  0
TEXT
  8
0
  6
CONTINUOUS
 62
     2
 10
1624.408333333
 20
1688.45024
 30
1.68
 40
16.8
  1
　８５０
 50
0.0
 41
0.9
 51
0.0
  7
KANJI30
  0
TEXT
  8
0
  6
CONTINUOUS
 62
     2
 10
1512.408333333
 20
1651.583573333
 30
1.68
 40
16.8
  1
　３００
 50
0.0
 41
0.9
 51
0.0
  7
KANJI30
  0
TEXT
  8
0
  6
CONTINUOUS
 62
     2
 10
1960.408333333
 20
1651.583573333
 30
1.68
 40
16.8
  1
　　４５
 50
0.0
 41
0.9
 51
0.0
  7
KANJI30
  0
LINE
  8
0
  6
CONTINUOUS
 62
     2
 10
1252.008333333
 20
1642.203573333
 30
0.0
 11
2159.208333333
 21
1642.203573333
 31
0.0
  0
TEXT
  8
0
  6
CONTINUOUS
 62
     2
 10
1848.408333333
 20
1651.583573333
 30
1.68
 40
16.8
  1
　６１０
 50
0.0
 41
0.9
 51
0.0
  7
KANJI30
  0
TEXT
  8
0
  6
CONTINUOUS
 62
     2
 10
1736.408333333
 20
1651.583573333
 30
1.68
 40
16.8
  1
　７２５
 50
0.0
 41
0.9
 51
0.0
  7
KANJI30
  0
TEXT
  8
0
  6
CONTINUOUS
 62
     2
 10
1624.408333333
 20
1651.583573333
 30
1.68
 40
16.8
  1
　９５０
 50
0.0
 41
0.9
 51
0.0
  7
KANJI30
  0
TEXT
  8
0
  6
CONTINUOUS
 62
     2
 10
1512.408333333
 20
1614.716906667
 30
1.68
 40
16.8
  1
　４００
 50
0.0
 41
0.9
 51
0.0
  7
KANJI30
  0
TEXT
  8
0
  6
CONTINUOUS
 62
     2
 10
1960.408333333
 20
1614.716906667
 30
1.68
 40
16.8
  1
　　４５
 50
0.0
 41
0.9
 51
0.0
  7
KANJI30
  0
LINE
  8
0
  6
CONTINUOUS
 62
     2
 10
1252.008333333
 20
1605.336906667
 30
0.0
 11
2159.208333333
 21
1605.336906667
 31
0.0
  0
TEXT
  8
0
  6
CONTINUOUS
 62
     2
 10
1848.408333333
 20
1614.716906667
 30
1.68
 40
16.8
  1
　７１０
 50
0.0
 41
0.9
 51
0.0
  7
KANJI30
  0
TEXT
  8
0
  6
CONTINUOUS
 62
     2
 10
1736.408333333
 20
1614.716906667
 30
1.68
 40
16.8
  1
　８２５
 50
0.0
 41
0.9
 51
0.0
  7
KANJI30
  0
TEXT
  8
0
  6
CONTINUOUS
 62
     2
 10
1624.408333333
 20
1614.716906667
 30
1.68
 40
16.8
  1
１０５０
 50
0.0
 41
0.9
 51
0.0
  7
KANJI30
  0
TEXT
  8
0
  6
CONTINUOUS
 62
     2
 10
1512.408333333
 20
1577.85024
 30
1.68
 40
16.8
  1
　５００
 50
0.0
 41
0.9
 51
0.0
  7
KANJI30
  0
TEXT
  8
0
  6
CONTINUOUS
 62
     2
 10
1960.408333333
 20
1577.85024
 30
1.68
 40
16.8
  1
　　４５
 50
0.0
 41
0.9
 51
0.0
  7
KANJI30
  0
LINE
  8
0
  6
CONTINUOUS
 62
     2
 10
1252.008333333
 20
1568.47024
 30
0.0
 11
2159.208333333
 21
1568.47024
 31
0.0
  0
TEXT
  8
0
  6
CONTINUOUS
 62
     2
 10
1848.408333333
 20
1577.85024
 30
1.68
 40
16.8
  1
　８１０
 50
0.0
 41
0.9
 51
0.0
  7
KANJI30
  0
TEXT
  8
0
  6
CONTINUOUS
 62
     2
 10
1736.408333333
 20
1577.85024
 30
1.68
 40
16.8
  1
　９２５
 50
0.0
 41
0.9
 51
0.0
  7
KANJI30
  0
TEXT
  8
0
  6
CONTINUOUS
 62
     2
 10
1624.408333333
 20
1577.85024
 30
1.68
 40
16.8
  1
１１５０
 50
0.0
 41
0.9
 51
0.0
  7
KANJI30
  0
LINE
  8
0
  6
CONTINUOUS
 62
     2
 10
1252.008333333
 20
1531.603573333
 30
0.0
 11
2159.208333333
 21
1531.603573333
 31
0.0
  0
TEXT
  8
0
  6
CONTINUOUS
 62
     2
 10
1512.408333333
 20
1540.983573333
 30
1.68
 40
16.8
  1
　６００
 50
0.0
 41
0.9
 51
0.0
  7
KANJI30
  0
TEXT
  8
0
  6
CONTINUOUS
 62
     2
 10
1624.408333333
 20
1540.983573333
 30
1.68
 40
16.8
  1
１２９０
 50
0.0
 41
0.9
 51
0.0
  7
KANJI30
  0
TEXT
  8
0
  6
CONTINUOUS
 62
     2
 10
1736.408333333
 20
1540.983573333
 30
1.68
 40
16.8
  1
１０６５
 50
0.0
 41
0.9
 51
0.0
  7
KANJI30
  0
TEXT
  8
0
  6
CONTINUOUS
 62
     2
 10
1848.408333333
 20
1540.983573333
 30
1.68
 40
16.8
  1
　９５０
 50
0.0
 41
0.9
 51
0.0
  7
KANJI30
  0
TEXT
  8
0
  6
CONTINUOUS
 62
     2
 10
1960.408333333
 20
1540.983573333
 30
1.68
 40
16.8
  1
　　４５
 50
0.0
 41
0.9
 51
0.0
  7
KANJI30
  0
LINE
  8
0
  6
CONTINUOUS
 62
     2
 10
1252.008333333
 20
1494.736906667
 30
0.0
 11
2159.208333333
 21
1494.736906667
 31
0.0
  0
TEXT
  8
0
  6
CONTINUOUS
 62
     2
 10
1512.408333333
 20
1504.116906667
 30
1.68
 40
16.8
  1
　７００
 50
0.0
 41
0.9
 51
0.0
  7
KANJI30
  0
TEXT
  8
0
  6
CONTINUOUS
 62
     2
 10
1624.408333333
 20
1504.116906667
 30
1.68
 40
16.8
  1
１３９０
 50
0.0
 41
0.9
 51
0.0
  7
KANJI30
  0
TEXT
  8
0
  6
CONTINUOUS
 62
     2
 10
1736.408333333
 20
1504.116906667
 30
1.68
 40
16.8
  1
１１６５
 50
0.0
 41
0.9
 51
0.0
  7
KANJI30
  0
TEXT
  8
0
  6
CONTINUOUS
 62
     2
 10
1848.408333333
 20
1504.116906667
 30
1.68
 40
16.8
  1
１０５０
 50
0.0
 41
0.9
 51
0.0
  7
KANJI30
  0
TEXT
  8
0
  6
CONTINUOUS
 62
     2
 10
1960.408333333
 20
1504.116906667
 30
1.68
 40
16.8
  1
　　４５
 50
0.0
 41
0.9
 51
0.0
  7
KANJI30
  0
LINE
  8
0
  6
CONTINUOUS
 62
     2
 10
1252.008333333
 20
1457.87024
 30
0.0
 11
2159.208333333
 21
1457.87024
 31
0.0
  0
TEXT
  8
0
  6
CONTINUOUS
 62
     2
 10
1512.408333333
 20
1467.25024
 30
1.68
 40
16.8
  1
　８００
 50
0.0
 41
0.9
 51
0.0
  7
KANJI30
  0
TEXT
  8
0
  6
CONTINUOUS
 62
     2
 10
1624.408333333
 20
1467.25024
 30
1.68
 40
16.8
  1
１４９０
 50
0.0
 41
0.9
 51
0.0
  7
KANJI30
  0
TEXT
  8
0
  6
CONTINUOUS
 62
     2
 10
1736.408333333
 20
1467.25024
 30
1.68
 40
16.8
  1
１２６５
 50
0.0
 41
0.9
 51
0.0
  7
KANJI30
  0
TEXT
  8
0
  6
CONTINUOUS
 62
     2
 10
1848.408333333
 20
1467.25024
 30
1.68
 40
16.8
  1
１１５０
 50
0.0
 41
0.9
 51
0.0
  7
KANJI30
  0
TEXT
  8
0
  6
CONTINUOUS
 62
     2
 10
1960.408333333
 20
1467.25024
 30
1.68
 40
16.8
  1
　　４５
 50
0.0
 41
0.9
 51
0.0
  7
KANJI30
  0
LINE
  8
0
  6
CONTINUOUS
 62
     2
 10
1252.008333333
 20
1421.003573333
 30
0.0
 11
2159.208333333
 21
1421.003573333
 31
0.0
  0
TEXT
  8
0
  6
CONTINUOUS
 62
     2
 10
1512.408333333
 20
1430.383573333
 30
1.68
 40
16.8
  1
　９００
 50
0.0
 41
0.9
 51
0.0
  7
KANJI30
  0
TEXT
  8
0
  6
CONTINUOUS
 62
     2
 10
1624.408333333
 20
1430.383573333
 30
1.68
 40
16.8
  1
１５９０
 50
0.0
 41
0.9
 51
0.0
  7
KANJI30
  0
TEXT
  8
0
  6
CONTINUOUS
 62
     2
 10
1736.408333333
 20
1430.383573333
 30
1.68
 40
16.8
  1
１３６５
 50
0.0
 41
0.9
 51
0.0
  7
KANJI30
  0
TEXT
  8
0
  6
CONTINUOUS
 62
     2
 10
1848.408333333
 20
1430.383573333
 30
1.68
 40
16.8
  1
１２５０
 50
0.0
 41
0.9
 51
0.0
  7
KANJI30
  0
TEXT
  8
0
  6
CONTINUOUS
 62
     2
 10
1960.408333333
 20
1430.383573333
 30
1.68
 40
16.8
  1
　　４５
 50
0.0
 41
0.9
 51
0.0
  7
KANJI30
  0
TEXT
  8
0
  6
CONTINUOUS
 62
     2
 10
1512.408333333
 20
1393.516906667
 30
1.68
 40
16.8
  1
１０００
 50
0.0
 41
0.9
 51
0.0
  7
KANJI30
  0
TEXT
  8
0
  6
CONTINUOUS
 62
     2
 10
1624.408333333
 20
1393.516906667
 30
1.68
 40
16.8
  1
１６９０
 50
0.0
 41
0.9
 51
0.0
  7
KANJI30
  0
TEXT
  8
0
  6
CONTINUOUS
 62
     2
 10
1736.408333333
 20
1393.516906667
 30
1.68
 40
16.8
  1
１４６５
 50
0.0
 41
0.9
 51
0.0
  7
KANJI30
  0
TEXT
  8
0
  6
CONTINUOUS
 62
     2
 10
1848.408333333
 20
1393.516906667
 30
1.68
 40
16.8
  1
１３５０
 50
0.0
 41
0.9
 51
0.0
  7
KANJI30
  0
TEXT
  8
0
  6
CONTINUOUS
 62
     2
 10
1960.408333333
 20
1393.516906667
 30
1.68
 40
16.8
  1
　　４５
 50
0.0
 41
0.9
 51
0.0
  7
KANJI30
  0
LINE
  8
0
  6
CONTINUOUS
 62
     2
 10
1252.008333333
 20
1384.136906667
 30
0.0
 11
2159.208333333
 21
1384.136906667
 31
0.0
  0
LINE
  8
0
  6
CONTINUOUS
 62
     2
 10
1252.008333333
 20
1347.27024
 30
0.0
 11
2159.208333333
 21
1347.27024
 31
0.0
  0
TEXT
  8
0
  6
CONTINUOUS
 62
     2
 10
1960.408333333
 20
1356.65024
 30
1.68
 40
16.8
  1
　　４５
 50
0.0
 41
0.9
 51
0.0
  7
KANJI30
  0
LINE
  8
0
  6
CONTINUOUS
 62
     2
 10
1252.008333333
 20
1310.403573333
 30
0.0
 11
2159.208333333
 21
1310.403573333
 31
0.0
  0
TEXT
  8
0
  6
CONTINUOUS
 62
     2
 10
1960.408333333
 20
1319.783573333
 30
1.68
 40
16.8
  1
　　４５
 50
0.0
 41
0.9
 51
0.0
  7
KANJI30
  0
LINE
  8
0
  6
CONTINUOUS
 62
     2
 10
1252.008333333
 20
1273.536906667
 30
0.0
 11
2159.208333333
 21
1273.536906667
 31
0.0
  0
TEXT
  8
0
  6
CONTINUOUS
 62
     2
 10
1960.408333333
 20
1282.916906667
 30
1.68
 40
16.8
  1
　　４５
 50
0.0
 41
0.9
 51
0.0
  7
KANJI30
  0
LINE
  8
0
  6
CONTINUOUS
 62
     2
 10
1252.008333333
 20
1236.67024
 30
0.0
 11
2159.208333333
 21
1236.67024
 31
0.0
  0
TEXT
  8
0
  6
CONTINUOUS
 62
     2
 10
1960.408333333
 20
1246.05024
 30
1.68
 40
16.8
  1
　　４５
 50
0.0
 41
0.9
 51
0.0
  7
KANJI30
  0
LINE
  8
0
  6
CONTINUOUS
 62
     2
 10
1252.008333333
 20
1199.803573333
 30
0.0
 11
2159.208333333
 21
1199.803573333
 31
0.0
  0
TEXT
  8
0
  6
CONTINUOUS
 62
     2
 10
1960.408333333
 20
1209.183573333
 30
1.68
 40
16.8
  1
　　４５
 50
0.0
 41
0.9
 51
0.0
  7
KANJI30
  0
LINE
  8
0
  6
CONTINUOUS
 62
     1
 10
1252.008333333
 20
1162.936906667
 30
0.0
 11
2159.208333333
 21
1162.936906667
 31
0.0
  0
LINE
  8
0
  6
CONTINUOUS
 62
     1
 10
2159.208333333
 20
1755.136906667
 30
0.0
 11
2159.208333333
 21
1162.936906667
 31
0.0
  0
LINE
  8
0
  6
CONTINUOUS
 62
     1
 10
1252.008333333
 20
1755.136906667
 30
0.0
 11
1252.008333333
 21
1162.936906667
 31
0.0
  0
LINE
  8
0
  6
CONTINUOUS
 62
     1
 10
1487.208333333
 20
1755.136906667
 30
0.0
 11
1487.208333333
 21
1162.936906667
 31
0.0
  0
LINE
  8
0
  6
CONTINUOUS
 62
     2
 10
1599.208333333
 20
1755.136906667
 30
0.0
 11
1599.208333333
 21
1162.936906667
 31
0.0
  0
LINE
  8
0
  6
CONTINUOUS
 62
     2
 10
1711.208333333
 20
1755.136906667
 30
0.0
 11
1711.208333333
 21
1162.936906667
 31
0.0
  0
LINE
  8
0
  6
CONTINUOUS
 62
     2
 10
1823.208333333
 20
1755.136906667
 30
0.0
 11
1823.208333333
 21
1162.936906667
 31
0.0
  0
LINE
  8
0
  6
CONTINUOUS
 62
     2
 10
1935.208333333
 20
1755.136906667
 30
0.0
 11
1935.208333333
 21
1162.936906667
 31
0.0
  0
LINE
  8
0
  6
CONTINUOUS
 62
     2
 10
2047.208333333
 20
1755.136906667
 30
0.0
 11
2047.208333333
 21
1162.936906667
 31
0.0
  0
TEXT
  8
0
  6
CONTINUOUS
 62
     2
 10
1512.408333333
 20
1356.65024
 30
1.68
 40
16.8
  1
１１００
 50
0.0
 41
0.9
 51
0.0
  7
KANJI30
  0
TEXT
  8
0
  6
CONTINUOUS
 62
     2
 10
1512.408333333
 20
1319.783573333
 30
1.68
 40
16.8
  1
１２００
 50
0.0
 41
0.9
 51
0.0
  7
KANJI30
  0
TEXT
  8
0
  6
CONTINUOUS
 62
     2
 10
1512.408333333
 20
1282.916906667
 30
1.68
 40
16.8
  1
１３００
 50
0.0
 41
0.9
 51
0.0
  7
KANJI30
  0
TEXT
  8
0
  6
CONTINUOUS
 62
     2
 10
1512.408333333
 20
1246.05024
 30
1.68
 40
16.8
  1
１４００
 50
0.0
 41
0.9
 51
0.0
  7
KANJI30
  0
TEXT
  8
0
  6
CONTINUOUS
 62
     2
 10
1512.408333333
 20
1209.183573333
 30
1.68
 40
16.8
  1
１５００
 50
0.0
 41
0.9
 51
0.0
  7
KANJI30
  0
TEXT
  8
0
  6
CONTINUOUS
 62
     2
 10
1848.408333333
 20
1356.65024
 30
1.68
 40
16.8
  1
１４８０
 50
0.0
 41
0.9
 51
0.0
  7
KANJI30
  0
TEXT
  8
0
  6
CONTINUOUS
 62
     2
 10
1848.408333333
 20
1319.783573333
 30
1.68
 40
16.8
  1
１５８０
 50
0.0
 41
0.9
 51
0.0
  7
KANJI30
  0
TEXT
  8
0
  6
CONTINUOUS
 62
     2
 10
1848.408333333
 20
1282.916906667
 30
1.68
 40
16.8
  1
１６８０
 50
0.0
 41
0.9
 51
0.0
  7
KANJI30
  0
TEXT
  8
0
  6
CONTINUOUS
 62
     2
 10
1848.408333333
 20
1246.05024
 30
1.68
 40
16.8
  1
１７８０
 50
0.0
 41
0.9
 51
0.0
  7
KANJI30
  0
TEXT
  8
0
  6
CONTINUOUS
 62
     2
 10
1848.408333333
 20
1209.183573333
 30
1.68
 40
16.8
  1
１８８０
 50
0.0
 41
0.9
 51
0.0
  7
KANJI30
  0
TEXT
  8
0
  6
CONTINUOUS
 62
     2
 10
1736.408333333
 20
1209.183573333
 30
1.68
 40
16.8
  1
１９９５
 50
0.0
 41
0.9
 51
0.0
  7
KANJI30
  0
TEXT
  8
0
  6
CONTINUOUS
 62
     2
 10
1624.408333333
 20
1209.183573333
 30
1.68
 40
16.8
  1
２２２０
 50
0.0
 41
0.9
 51
0.0
  7
KANJI30
  0
TEXT
  8
0
  6
CONTINUOUS
 62
     2
 10
1736.408333333
 20
1246.05024
 30
1.68
 40
16.8
  1
１８９５
 50
0.0
 41
0.9
 51
0.0
  7
KANJI30
  0
TEXT
  8
0
  6
CONTINUOUS
 62
     2
 10
1736.408333333
 20
1282.916906667
 30
1.68
 40
16.8
  1
１７９５
 50
0.0
 41
0.9
 51
0.0
  7
KANJI30
  0
TEXT
  8
0
  6
CONTINUOUS
 62
     2
 10
1736.408333333
 20
1319.783573333
 30
1.68
 40
16.8
  1
１６９５
 50
0.0
 41
0.9
 51
0.0
  7
KANJI30
  0
TEXT
  8
0
  6
CONTINUOUS
 62
     2
 10
1736.408333333
 20
1356.65024
 30
1.68
 40
16.8
  1
１５９５
 50
0.0
 41
0.9
 51
0.0
  7
KANJI30
  0
TEXT
  8
0
  6
CONTINUOUS
 62
     2
 10
1624.408333333
 20
1356.65024
 30
1.68
 40
16.8
  1
１８２０
 50
0.0
 41
0.9
 51
0.0
  7
KANJI30
  0
TEXT
  8
0
  6
CONTINUOUS
 62
     2
 10
1624.408333333
 20
1319.783573333
 30
1.68
 40
16.8
  1
１９２０
 50
0.0
 41
0.9
 51
0.0
  7
KANJI30
  0
TEXT
  8
0
  6
CONTINUOUS
 62
     2
 10
1624.408333333
 20
1282.916906667
 30
1.68
 40
16.8
  1
２０２０
 50
0.0
 41
0.9
 51
0.0
  7
KANJI30
  0
TEXT
  8
0
  6
CONTINUOUS
 62
     2
 10
1624.408333333
 20
1246.05024
 30
1.68
 40
16.8
  1
２１２０
 50
0.0
 41
0.9
 51
0.0
  7
KANJI30
  0
TEXT
  8
0
  6
CONTINUOUS
 62
     6
 10
134.65790099
 20
1585.899357623
 30
1.82231734
 40
18.223173404
  1
クイックブレーキモータ
 50
0.0
 41
0.66671875
 51
0.0
  7
KANJI35
  0
CIRCLE
  8
0
  6
CONTINUOUS
 62
     6
 10
179.099333333
 20
1523.932
 30
0.0
 40
21.6
  0
TEXT
  8
0
  6
CONTINUOUS
 62
     6
 10
170.027333333
 20
1513.564
 30
2.16
 40
21.6
  1
Ｍ
 50
0.0
 41
0.9
 51
0.0
  7
KANJI36
  0
LINE
  8
0
  6
CONTINUOUS
 62
     6
 10
150.587333333
 20
1493.692
 30
0.0
 11
163.979333333
 21
1509.244
 31
0.0
  0
LINE
  8
0
  6
CONTINUOUS
 62
     6
 10
150.587333333
 20
1554.172
 30
0.0
 11
163.979333333
 21
1538.62
 31
0.0
  0
CIRCLE
  8
0
  6
CONTINUOUS
 62
     6
 10
125.963333333
 20
1554.172
 30
0.0
 40
5.184
  0
LINE
  8
0
  6
CONTINUOUS
 62
     6
 10
120.007437218
 20
1548.216103884
 30
0.0
 11
132.103437218
 21
1560.312103884
 31
0.0
  0
CIRCLE
  8
0
  6
CONTINUOUS
 62
     6
 10
125.963333333
 20
1523.932
 30
0.0
 40
5.184
  0
LINE
  8
0
  6
CONTINUOUS
 62
     6
 10
120.007437218
 20
1517.976103884
 30
0.0
 11
132.103437218
 21
1530.072103884
 31
0.0
  0
CIRCLE
  8
0
  6
CONTINUOUS
 62
     6
 10
125.963333333
 20
1493.692
 30
0.0
 40
5.184
  0
LINE
  8
0
  6
CONTINUOUS
 62
     6
 10
120.007437218
 20
1487.736103884
 30
0.0
 11
132.103437218
 21
1499.832103884
 31
0.0
  0
LINE
  8
0
  6
CONTINUOUS
 62
     6
 10
150.587333333
 20
1554.172
 30
0.0
 11
131.147333333
 21
1554.172
 31
0.0
  0
LINE
  8
0
  6
CONTINUOUS
 62
     6
 10
157.931333333
 20
1523.932
 30
0.0
 11
131.147333333
 21
1523.932
 31
0.0
  0
LINE
  8
0
  6
CONTINUOUS
 62
     6
 10
150.587333333
 20
1493.692
 30
0.0
 11
131.147333333
 21
1493.692
 31
0.0
  0
LINE
  8
0
  6
LTYPE2
 62
     6
 10
125.963333333
 20
1577.5
 30
0.0
 11
125.963333333
 21
1558.06
 31
0.0
  0
LINE
  8
0
  6
LTYPE2
 62
     6
 10
125.963333333
 20
1549.42
 30
0.0
 11
125.963333333
 21
1527.82
 31
0.0
  0
LINE
  8
0
  6
LTYPE2
 62
     6
 10
125.963333333
 20
1519.18
 30
0.0
 11
125.963333333
 21
1498.012
 31
0.0
  0
TEXT
  8
0
  6
CONTINUOUS
 62
     6
 10
105.179333333
 20
1561.516
 30
1.296
 40
12.96
  1
Ｕ
 50
0.0
 41
0.9
 51
0.0
  7
KANJI37
  0
TEXT
  8
0
  6
CONTINUOUS
 62
     6
 10
106.475333333
 20
1530.844
 30
1.296
 40
12.96
  1
Ｖ
 50
0.0
 41
0.9
 51
0.0
  7
KANJI37
  0
TEXT
  8
0
  6
CONTINUOUS
 62
     6
 10
107.771333333
 20
1500.172
 30
1.296
 40
12.96
  1
Ｗ
 50
0.0
 41
0.9
 51
0.0
  7
KANJI37
  0
LINE
  8
0
  6
LTYPE2
 62
     6
 10
280.523333333
 20
1577.5
 30
0.0
 11
125.963333333
 21
1577.5
 31
0.0
  0
TEXT
  8
0
  6
CONTINUOUS
 62
     6
 10
210.203333333
 20
1514.1472
 30
1.728
 40
17.28
  1
Ｂ
 50
0.0
 41
0.9
 51
0.0
  7
KANJI38
  0
CIRCLE
  8
0
  6
CONTINUOUS
 62
     6
 10
217.979333333
 20
1523.932
 30
0.0
 40
17.28
  0
LINE
  8
0
  6
CONTINUOUS
 62
     6
 10
245.579333333
 20
1493.5192
 30
0.0
 11
226.600317764
 21
1508.956118475
 31
0.0
  0
LINE
  8
0
  6
CONTINUOUS
 62
     6
 10
208.994658407
 20
1509.171443897
 30
0.0
 11
189.899333333
 21
1493.5192
 31
0.0
  0
CIRCLE
  8
0
  6
CONTINUOUS
 62
     6
 10
189.899333333
 20
1444.4872
 30
0.0
 40
5.184
  0
LINE
  8
0
  6
CONTINUOUS
 62
     6
 10
183.943437218
 20
1438.531303884
 30
0.0
 11
196.039437218
 21
1450.627303884
 31
0.0
  0
CIRCLE
  8
0
  6
CONTINUOUS
 62
     6
 10
217.739333333
 20
1444.4872
 30
0.0
 40
5.184
  0
LINE
  8
0
  6
CONTINUOUS
 62
     6
 10
211.783437218
 20
1438.531303884
 30
0.0
 11
223.879437218
 21
1450.627303884
 31
0.0
  0
LINE
  8
0
  6
LTYPE2
 62
     6
 10
195.083333333
 20
1444.4872
 30
0.0
 11
212.459333333
 21
1444.4872
 31
0.0
  0
CIRCLE
  8
0
  6
CONTINUOUS
 62
     6
 10
245.579333333
 20
1444.4872
 30
0.0
 40
5.184
  0
LINE
  8
0
  6
CONTINUOUS
 62
     6
 10
239.623437218
 20
1438.531303884
 30
0.0
 11
251.719437218
 21
1450.627303884
 31
0.0
  0
LINE
  8
0
  6
LTYPE2
 62
     6
 10
222.539333333
 20
1444.4872
 30
0.0
 11
240.779333333
 21
1444.4872
 31
0.0
  0
TEXT
  8
0
  6
CONTINUOUS
 62
     6
 10
203.003333333
 20
1447.3192
 30
1.296
 40
12.96
  1
ｖ
 50
0.0
 41
0.9
 51
0.0
  7
KANJI37
  0
TEXT
  8
0
  6
CONTINUOUS
 62
     6
 10
230.843333333
 20
1447.3192
 30
1.296
 40
12.96
  1
ｗ
 50
0.0
 41
0.9
 51
0.0
  7
KANJI37
  0
TEXT
  8
0
  6
CONTINUOUS
 62
     6
 10
175.979333333
 20
1448.1832
 30
1.296
 40
12.96
  1
ｕ
 50
0.0
 41
0.9
 51
0.0
  7
KANJI37
  0
LINE
  8
0
  6
CONTINUOUS
 62
     6
 10
189.899333333
 20
1449.6712
 30
0.0
 11
189.899333333
 21
1493.5192
 31
0.0
  0
LINE
  8
0
  6
CONTINUOUS
 62
     6
 10
217.739333333
 20
1449.6712
 30
0.0
 11
217.739333333
 21
1506.94
 31
0.0
  0
LINE
  8
0
  6
CONTINUOUS
 62
     6
 10
245.579333333
 20
1449.6712
 30
0.0
 11
245.579333333
 21
1493.5192
 31
0.0
  0
LINE
  8
0
  6
LTYPE2
 62
     6
 10
251.339333333
 20
1444.4872
 30
0.0
 11
280.523333333
 21
1444.4872
 31
0.0
  0
LINE
  8
0
  6
LTYPE2
 62
     6
 10
280.523333333
 20
1444.4872
 30
0.0
 11
280.523333333
 21
1577.5
 31
0.0
  0
LINE
  8
0
  6
LTYPE2
 62
     6
 10
125.963333333
 20
1444.4872
 30
0.0
 11
184.715333333
 21
1444.4872
 31
0.0
  0
LINE
  8
0
  6
LTYPE2
 62
     6
 10
125.963333333
 20
1488.508
 30
0.0
 11
125.963333333
 21
1444.4872
 31
0.0
  0
TEXT
  8
0
  6
CONTINUOUS
 62
     2
 10
142.37780537
 20
1409.454685773
 30
0.0
 40
18.72
  1
モーター結線図
 50
0.0
 41
0.925
 51
0.0
  7
KANJI39
  0
LINE
  8
0
  6
CONTINUOUS
 62
     2
 10
409.805993981
 20
250.004856554
 30
0.0
 11
842.093402718
 21
250.004856554
 31
0.0
  0
TEXT
  8
0
  6
CONTINUOUS
 62
     2
 10
411.805993981
 20
258.004856554
 30
0.0
 40
20.0
  1
推力リミッタの作動値は、約４４００ｋｇ（設計値）
 50
0.0
 41
0.925
 51
0.0
  7
KANJI40
  0
TEXT
  8
0
  6
CONTINUOUS
 62
     2
 10
1296.483160333
 20
1779.267013333
 30
1.749993
 40
17.49993
  1
注意：サーマルリレー等の選定は、上記の値で選定して下さい。
 50
0.0
 41
0.9
 51
0.0
  7
KANJI41
  0
LINE
  8
0
  6
CONTINUOUS
 62
     2
 10
1288.483200333
 20
1774.267033333
 30
0.0
 11
1794.271320333
 21
1774.267033333
 31
0.0
  0
TEXT
  8
0
  6
CONTINUOUS
 62
     2
 10
202.393333333
 20
30.983333333
 30
0.0
 40
21.0
  1
ＦＤ　Ｎｏ．ＭＣ２３０
 50
0.0
 41
0.9
 51
0.0
  7
KANJI17
  0
LINE
  8
0
  6
CONTINUOUS
 62
     2
 10
491.496721841
 20
1512.266660949
 30
0.0
 11
499.224128451
 21
1510.196108588
 31
0.0
  0
LINE
  8
0
  6
CONTINUOUS
 62
     2
 10
491.496721841
 20
1512.266660949
 30
0.0
 11
499.224128451
 21
1514.33721331
 31
0.0
  0
LINE
  8
0
  6
CONTINUOUS
 62
     2
 10
491.496721841
 20
1512.266660949
 30
0.0
 11
629.096721841
 21
1512.266660949
 31
0.0
  0
LINE
  8
0
  6
CONTINUOUS
 62
     2
 10
629.096721841
 20
1512.266660949
 30
0.0
 11
621.369315231
 21
1514.33721331
 31
0.0
  0
LINE
  8
0
  6
CONTINUOUS
 62
     2
 10
629.096721841
 20
1512.266660949
 30
0.0
 11
621.369315231
 21
1510.196108588
 31
0.0
  0
LINE
  8
0
  6
CONTINUOUS
 62
     2
 10
629.096721841
 20
1511.066660949
 30
0.0
 11
629.096721841
 21
1508.266660949
 31
0.0
  0
LINE
  8
0
  6
CONTINUOUS
 62
     2
 10
629.096721841
 20
1512.266660949
 30
0.0
 11
636.824128451
 21
1510.196108588
 31
0.0
  0
LINE
  8
0
  6
CONTINUOUS
 62
     2
 10
629.096721841
 20
1512.266660949
 30
0.0
 11
636.824128451
 21
1514.33721331
 31
0.0
  0
LINE
  8
0
  6
CONTINUOUS
 62
     2
 10
629.096721841
 20
1512.266660949
 30
0.0
 11
831.496721841
 21
1512.266660949
 31
0.0
  0
LINE
  8
0
  6
CONTINUOUS
 62
     2
 10
831.496721841
 20
1512.266660949
 30
0.0
 11
823.769315231
 21
1514.33721331
 31
0.0
  0
LINE
  8
0
  6
CONTINUOUS
 62
     2
 10
831.496721841
 20
1512.266660949
 30
0.0
 11
823.769315231
 21
1510.196108588
 31
0.0
  0
LINE
  8
0
  6
CONTINUOUS
 62
     2
 10
629.096721841
 20
1485.93721331
 30
0.0
 11
621.369315231
 21
1488.00776567
 31
0.0
  0
LINE
  8
0
  6
CONTINUOUS
 62
     2
 10
629.096721841
 20
1485.93721331
 30
0.0
 11
621.369315231
 21
1483.866660949
 31
0.0
  0
LINE
  8
0
  6
CONTINUOUS
 62
     2
 10
617.096721841
 20
1485.93721331
 30
0.0
 11
629.096721841
 21
1485.93721331
 31
0.0
  0
LINE
  8
0
  6
CONTINUOUS
 62
     2
 10
629.096721841
 20
1485.93721331
 30
0.0
 11
649.896721841
 21
1485.93721331
 31
0.0
  0
LINE
  8
0
  6
CONTINUOUS
 62
     2
 10
649.896721841
 20
1485.93721331
 30
0.0
 11
657.624128451
 21
1483.866660949
 31
0.0
  0
LINE
  8
0
  6
CONTINUOUS
 62
     2
 10
649.896721841
 20
1485.93721331
 30
0.0
 11
657.624128451
 21
1488.00776567
 31
0.0
  0
LINE
  8
0
  6
CONTINUOUS
 62
     2
 10
491.496721841
 20
1460.666660949
 30
0.0
 11
491.496721841
 21
1454.666660949
 31
0.0
  0
LINE
  8
0
  6
CONTINUOUS
 62
     2
 10
491.496721841
 20
1458.666660949
 30
0.0
 11
499.224128451
 21
1456.596108588
 31
0.0
  0
LINE
  8
0
  6
CONTINUOUS
 62
     2
 10
491.496721841
 20
1458.666660949
 30
0.0
 11
499.224128451
 21
1460.73721331
 31
0.0
  0
LINE
  8
0
  6
CONTINUOUS
 62
     2
 10
491.496721841
 20
1458.666660949
 30
0.0
 11
649.896721841
 21
1458.666660949
 31
0.0
  0
LINE
  8
0
  6
CONTINUOUS
 62
     2
 10
649.896721841
 20
1458.666660949
 30
0.0
 11
642.169315231
 21
1460.73721331
 31
0.0
  0
LINE
  8
0
  6
CONTINUOUS
 62
     2
 10
649.896721841
 20
1458.666660949
 30
0.0
 11
642.169315231
 21
1456.596108588
 31
0.0
  0
LINE
  8
0
  6
CONTINUOUS
 62
     2
 10
649.896721841
 20
1459.866660949
 30
0.0
 11
649.896721841
 21
1454.666660949
 31
0.0
  0
LINE
  8
0
  6
CONTINUOUS
 62
     2
 10
649.896721841
 20
1458.666660949
 30
0.0
 11
657.624128451
 21
1456.596108588
 31
0.0
  0
LINE
  8
0
  6
CONTINUOUS
 62
     2
 10
649.896721841
 20
1458.666660949
 30
0.0
 11
657.624128451
 21
1460.73721331
 31
0.0
  0
LINE
  8
0
  6
CONTINUOUS
 62
     2
 10
831.496721841
 20
1455.066660949
 30
0.0
 11
831.496721841
 21
1454.666660949
 31
0.0
  0
LINE
  8
0
  6
CONTINUOUS
 62
     2
 10
491.496721841
 20
1429.466660949
 30
0.0
 11
499.224128451
 21
1427.396108588
 31
0.0
  0
LINE
  8
0
  6
CONTINUOUS
 62
     2
 10
491.496721841
 20
1429.466660949
 30
0.0
 11
499.224128451
 21
1431.53721331
 31
0.0
  0
LINE
  8
0
  6
CONTINUOUS
 62
     2
 10
491.496721841
 20
1429.466660949
 30
0.0
 11
809.096721841
 21
1429.466660949
 31
0.0
  0
LINE
  8
0
  6
CONTINUOUS
 62
     2
 10
809.096721841
 20
1429.466660949
 30
0.0
 11
801.369315231
 21
1431.53721331
 31
0.0
  0
LINE
  8
0
  6
CONTINUOUS
 62
     2
 10
809.096721841
 20
1429.466660949
 30
0.0
 11
801.369315231
 21
1427.396108588
 31
0.0
  0
LINE
  8
0
  6
CONTINUOUS
 62
     2
 10
809.096721841
 20
1430.266660949
 30
0.0
 11
809.096721841
 21
1425.466660949
 31
0.0
  0
LINE
  8
0
  6
CONTINUOUS
 62
     2
 10
809.096721841
 20
1429.466660949
 30
0.0
 11
801.369315231
 21
1431.53721331
 31
0.0
  0
LINE
  8
0
  6
CONTINUOUS
 62
     2
 10
809.096721841
 20
1429.466660949
 30
0.0
 11
801.369315231
 21
1427.396108588
 31
0.0
  0
LINE
  8
0
  6
CONTINUOUS
 62
     2
 10
797.096721841
 20
1429.466660949
 30
0.0
 11
809.096721841
 21
1429.466660949
 31
0.0
  0
LINE
  8
0
  6
CONTINUOUS
 62
     2
 10
809.096721841
 20
1429.466660949
 30
0.0
 11
831.496721841
 21
1429.466660949
 31
0.0
  0
LINE
  8
0
  6
CONTINUOUS
 62
     2
 10
831.496721841
 20
1429.466660949
 30
0.0
 11
839.224128451
 21
1427.396108588
 31
0.0
  0
LINE
  8
0
  6
CONTINUOUS
 62
     2
 10
831.496721841
 20
1429.466660949
 30
0.0
 11
839.224128451
 21
1431.53721331
 31
0.0
  0
LINE
  8
0
  6
CONTINUOUS
 62
     2
 10
491.496721841
 20
1523.066660949
 30
0.0
 11
491.496721841
 21
1508.266660949
 31
0.0
  0
LINE
  8
0
  6
CONTINUOUS
 62
     2
 10
831.496721841
 20
1523.066660949
 30
0.0
 11
831.496721841
 21
1508.266660949
 31
0.0
  0
LINE
  8
0
  6
CONTINUOUS
 62
     2
 10
629.096721841
 20
1511.866660949
 30
0.0
 11
629.096721841
 21
1523.066660949
 31
0.0
  0
LINE
  8
0
  6
CONTINUOUS
 62
     2
 10
649.896721841
 20
1498.73721331
 30
0.0
 11
649.896721841
 21
1481.93721331
 31
0.0
  0
LINE
  8
0
  6
CONTINUOUS
 62
     2
 10
491.496721841
 20
1508.266660949
 30
0.0
 11
491.496721841
 21
1416.266660949
 31
0.0
  0
LINE
  8
0
  6
CONTINUOUS
 62
     2
 10
831.496721841
 20
1512.266660949
 30
0.0
 11
831.496721841
 21
1417.466660949
 31
0.0
  0
LINE
  8
0
  6
CONTINUOUS
 62
     2
 10
649.896721841
 20
1485.93721331
 30
0.0
 11
649.896721841
 21
1449.466660949
 31
0.0
  0
LINE
  8
0
  6
CONTINUOUS
 62
     2
 10
629.096721841
 20
1512.266660949
 30
0.0
 11
629.096721841
 21
1476.666660949
 31
0.0
  0
TEXT
  8
0
  6
CONTINUOUS
 62
     3
 10
533.296721841
 20
1514.266660949
 30
0.0
 40
15.0
  1
ｍｉｎ．Ｌ
 50
0.0
 41
0.9
 51
0.0
  7
KANJI42
  0
TEXT
  8
0
  6
CONTINUOUS
 62
     3
 10
687.096721841
 20
1514.266660949
 30
0.0
 40
15.0
  1
機械的ストローク
 50
0.0
 41
0.9
 51
0.0
  7
KANJI42
  0
TEXT
  8
0
  6
CONTINUOUS
 62
     3
 10
661.896721841
 20
1487.93721331
 30
0.0
 40
15.0
  1
余裕
 50
0.0
 41
0.9
 51
0.0
  7
KANJI42
  0
TEXT
  8
0
  6
CONTINUOUS
 62
     3
 10
543.696721841
 20
1460.666660949
 30
0.0
 40
15.0
  1
常用ｍｉｎ
 50
0.0
 41
0.9
 51
0.0
  7
KANJI42
  0
TEXT
  8
0
  6
CONTINUOUS
 62
     3
 10
623.296721841
 20
1431.466660949
 30
0.0
 40
15.0
  1
常用ｍａｘ
 50
0.0
 41
0.9
 51
0.0
  7
KANJI42
  0
TEXT
  8
0
  6
CONTINUOUS
 62
     3
 10
843.496721841
 20
1431.466660949
 30
0.0
 40
15.0
  1
余裕
 50
0.0
 41
0.9
 51
0.0
  7
KANJI42
  0
LINE
  8
0
  6
CONTINUOUS
 62
     2
 10
649.896721841
 20
1485.93721331
 30
0.0
 11
689.996721841
 21
1485.93721331
 31
0.0
  0
LINE
  8
0
  6
CONTINUOUS
 62
     2
 10
831.496721841
 20
1429.466660949
 30
0.0
 11
873.996721841
 21
1429.466660949
 31
0.0
  0
LINE
  8
0
  6
CONTINUOUS
 62
     2
 10
809.096721841
 20
1471.466660949
 30
0.0
 11
809.096721841
 21
1416.666660949
 31
0.0
  0
LINE
  8
0
  6
CONTINUOUS
 62
     2
 10
649.896721841
 20
1458.666660949
 30
0.0
 11
809.096721841
 21
1458.666660949
 31
0.0
  0
LINE
  8
0
  6
CONTINUOUS
 62
     2
 10
809.096721841
 20
1458.666660949
 30
0.0
 11
801.369315231
 21
1460.73721331
 31
0.0
  0
LINE
  8
0
  6
CONTINUOUS
 62
     2
 10
809.096721841
 20
1458.666660949
 30
0.0
 11
801.369315231
 21
1456.596108588
 31
0.0
  0
TEXT
  8
0
  6
CONTINUOUS
 62
     3
 10
689.896721841
 20
1460.666660949
 30
0.0
 40
15.0
  1
常用ストローク
 50
0.0
 41
0.9
 51
0.0
  7
KANJI42
  0
TEXT
  8
0
  6
CONTINUOUS
 62
     2
 10
2168.833333333
 20
293.833333333
 30
0.0
 40
24.5
  1
ＭＣＬＦ４－
 50
0.0
 41
0.793650794
 51
0.0
  7
KANJI43
  0
TEXT
  8
0
  6
CONTINUOUS
 62
     2
 10
2302.766705633
 20
181.833326333
 30
15.166666667
 40
35.0
  1
３０００６７３
 50
0.0
 41
0.8
 51
0.0
  7
KANJI44
  0
TEXT
  8
0
  6
CONTINUOUS
 62
     2
 10
2661.290032433
 20
184.116655933
 30
0.0
 40
21.0
  1
１
 50
0.0
 41
0.9
 51
0.0
  7
KANJI17
  0
TEXT
  8
0
  6
CONTINUOUS
 62
     2
 10
1919.866705633
 20
148.233326333
 30
2.1
 40
24.5
  1
９９．０５．２２
 50
0.0
 41
0.571428571
 51
0.0
  7
KANJI45
  0
TEXT
  8
0
  6
CONTINUOUS
 62
     2
 10
1402.990105233
 20
51.093329133
 30
0.0
 40
21.0
  1
変更書直し　９９．０５．２２　かし山
 50
0.0
 41
0.9
 51
0.0
  7
KANJI17
  0
CIRCLE
  8
0
  6
CONTINUOUS
 62
     1
 10
586.8999996
 20
644.4999852
 30
0.0
 40
15.0
  0
CIRCLE
  8
0
  6
CONTINUOUS
 62
     1
 10
586.8999996
 20
644.4999852
 30
0.0
 40
30.0
  0
CIRCLE
  8
0
  6
CONTINUOUS
 62
     1
 10
586.8999996
 20
644.4999852
 30
0.0
 40
34.0
  0
LINE
  8
0
  6
CONTINUOUS
 62
     1
 10
486.8999996
 20
724.4999852
 30
0.0
 11
486.8999996
 21
564.4999852
 31
0.0
  0
LINE
  8
0
  6
CONTINUOUS
 62
     1
 10
588.8999996
 20
576.4999852
 30
0.0
 11
662.8999996
 21
576.4999852
 31
0.0
  0
LINE
  8
0
  6
CONTINUOUS
 62
     1
 10
588.8999996
 20
595.0999852
 30
0.0
 11
588.8999996
 21
576.4999852
 31
0.0
  0
LINE
  8
0
  6
CONTINUOUS
 62
     1
 10
662.8999996
 20
595.7999852
 30
0.0
 11
662.8999996
 21
576.4999852
 31
0.0
  0
LINE
  8
0
  6
LTYPE2
 62
     2
 10
586.8999996
 20
689.4999852
 30
0.0
 11
586.8999996
 21
599.4999852
 31
0.0
  0
LINE
  8
0
  6
CONTINUOUS
 62
     1
 10
486.8999996
 20
724.4999852
 30
0.0
 11
502.8999996
 21
724.4999852
 31
0.0
  0
ARC
  8
0
  6
CONTINUOUS
 62
     1
 10
502.8999996
 20
722.4999852
 30
0.0
 40
2.0
 50
0.0
 51
90.0
  0
LINE
  8
0
  6
CONTINUOUS
 62
     1
 10
486.8999996
 20
564.4999852
 30
0.0
 11
502.8999996
 21
564.4999852
 31
0.0
  0
LINE
  8
0
  6
CONTINUOUS
 62
     1
 10
504.8999996
 20
722.4999852
 30
0.0
 11
504.8999996
 21
566.4999852
 31
0.0
  0
ARC
  8
0
  6
CONTINUOUS
 62
     1
 10
502.8999996
 20
566.4999852
 30
0.0
 40
2.0
 50
270.0
 51
0.0
  0
LINE
  8
0
  6
CONTINUOUS
 62
     1
 10
662.9999996
 20
579.4999852
 30
0.0
 11
727.8999996
 21
579.4999852
 31
0.0
  0
LINE
  8
0
  6
CONTINUOUS
 62
     1
 10
508.8999996
 20
584.4999852
 30
0.0
 11
508.8999996
 21
598.330973298
 31
0.0
  0
LINE
  8
0
  6
CONTINUOUS
 62
     1
 10
508.8999996
 20
584.4999852
 30
0.0
 11
508.8999996
 21
570.668997102
 31
0.0
  0
POINT
  8
0
  6
CONTINUOUS
 62
     1
 10
504.8999996
 20
598.4999852
 30
0.0
  0
LINE
  8
0
  6
CONTINUOUS
 62
     1
 10
504.8999996
 20
598.4999852
 30
0.0
 11
508.8999996
 21
598.4999852
 31
0.0
  0
LINE
  8
0
  6
CONTINUOUS
 62
     1
 10
504.8999996
 20
584.4999852
 30
0.0
 11
508.899996595
 21
588.499982195
 31
0.0
  0
LINE
  8
0
  6
CONTINUOUS
 62
     1
 10
508.899996595
 20
584.4999852
 30
0.0
 11
504.8999996
 21
580.499988205
 31
0.0
  0
POINT
  8
0
  6
CONTINUOUS
 62
     1
 10
504.8999996
 20
570.4999852
 30
0.0
  0
LINE
  8
0
  6
CONTINUOUS
 62
     1
 10
504.8999996
 20
570.4999852
 30
0.0
 11
508.8999996
 21
570.4999852
 31
0.0
  0
LINE
  8
0
  6
CONTINUOUS
 62
     1
 10
523.8999996
 20
584.499984976
 30
0.0
 11
523.8999996
 21
596.4999852
 31
0.0
  0
LINE
  8
0
  6
CONTINUOUS
 62
     1
 10
508.8999996
 20
596.4999852
 30
0.0
 11
523.8999996
 21
596.4999852
 31
0.0
  0
LINE
  8
0
  6
CONTINUOUS
 62
     1
 10
523.8999996
 20
596.4999852
 30
0.0
 11
524.8999996
 21
594.767934392
 31
0.0
  0
LINE
  8
0
  6
CONTINUOUS
 62
     1
 10
524.8999996
 20
584.499984962
 30
0.0
 11
524.8999996
 21
594.767934392
 31
0.0
  0
LINE
  8
0
  6
CONTINUOUS
 62
     1
 10
523.8999996
 20
584.499985424
 30
0.0
 11
523.8999996
 21
572.4999852
 31
0.0
  0
LINE
  8
0
  6
CONTINUOUS
 62
     1
 10
508.8999996
 20
572.4999852
 30
0.0
 11
523.8999996
 21
572.4999852
 31
0.0
  0
LINE
  8
0
  6
CONTINUOUS
 62
     1
 10
523.8999996
 20
572.4999852
 30
0.0
 11
524.8999996
 21
574.232036008
 31
0.0
  0
LINE
  8
0
  6
CONTINUOUS
 62
     1
 10
524.8999996
 20
584.499985438
 30
0.0
 11
524.8999996
 21
574.232036008
 31
0.0
  0
LINE
  8
0
  6
CONTINUOUS
 62
     1
 10
524.8999996
 20
579.4999852
 30
0.0
 11
589.0999996
 21
579.4999852
 31
0.0
  0
LINE
  8
0
  6
LTYPE2
 62
     2
 10
475.1999996
 20
584.4999852
 30
0.0
 11
530.9999996
 21
584.4999852
 31
0.0
  0
LINE
  8
0
  6
CONTINUOUS
 62
     1
 10
508.8999996
 20
704.4999852
 30
0.0
 11
508.8999996
 21
690.668997102
 31
0.0
  0
LINE
  8
0
  6
CONTINUOUS
 62
     1
 10
508.8999996
 20
704.4999852
 30
0.0
 11
508.8999996
 21
718.330973298
 31
0.0
  0
POINT
  8
0
  6
CONTINUOUS
 62
     1
 10
504.8999996
 20
690.4999852
 30
0.0
  0
LINE
  8
0
  6
CONTINUOUS
 62
     1
 10
504.8999996
 20
690.4999852
 30
0.0
 11
508.8999996
 21
690.4999852
 31
0.0
  0
LINE
  8
0
  6
CONTINUOUS
 62
     1
 10
504.8999996
 20
704.4999852
 30
0.0
 11
508.899996595
 21
700.499988205
 31
0.0
  0
LINE
  8
0
  6
CONTINUOUS
 62
     1
 10
508.899996595
 20
704.4999852
 30
0.0
 11
504.8999996
 21
708.499982195
 31
0.0
  0
POINT
  8
0
  6
CONTINUOUS
 62
     1
 10
504.8999996
 20
718.4999852
 30
0.0
  0
LINE
  8
0
  6
CONTINUOUS
 62
     1
 10
504.8999996
 20
718.4999852
 30
0.0
 11
508.8999996
 21
718.4999852
 31
0.0
  0
LINE
  8
0
  6
CONTINUOUS
 62
     1
 10
523.8999996
 20
704.499985424
 30
0.0
 11
523.8999996
 21
692.4999852
 31
0.0
  0
LINE
  8
0
  6
CONTINUOUS
 62
     1
 10
508.8999996
 20
692.4999852
 30
0.0
 11
523.8999996
 21
692.4999852
 31
0.0
  0
LINE
  8
0
  6
CONTINUOUS
 62
     1
 10
523.8999996
 20
692.4999852
 30
0.0
 11
524.8999996
 21
694.232036008
 31
0.0
  0
LINE
  8
0
  6
CONTINUOUS
 62
     1
 10
524.8999996
 20
704.499985438
 30
0.0
 11
524.8999996
 21
694.232036008
 31
0.0
  0
LINE
  8
0
  6
CONTINUOUS
 62
     1
 10
523.8999996
 20
704.499984976
 30
0.0
 11
523.8999996
 21
716.4999852
 31
0.0
  0
LINE
  8
0
  6
CONTINUOUS
 62
     1
 10
508.8999996
 20
716.4999852
 30
0.0
 11
523.8999996
 21
716.4999852
 31
0.0
  0
LINE
  8
0
  6
CONTINUOUS
 62
     1
 10
523.8999996
 20
716.4999852
 30
0.0
 11
524.8999996
 21
714.767934392
 31
0.0
  0
LINE
  8
0
  6
CONTINUOUS
 62
     1
 10
524.8999996
 20
704.499984962
 30
0.0
 11
524.8999996
 21
714.767934392
 31
0.0
  0
LINE
  8
0
  6
LTYPE2
 62
     2
 10
475.1999996
 20
704.4999852
 30
0.0
 11
530.9999996
 21
704.4999852
 31
0.0
  0
LINE
  8
0
  6
CONTINUOUS
 62
     1
 10
524.8999996
 20
709.4999852
 30
0.0
 11
727.8999996
 21
709.4999852
 31
0.0
  0
LINE
  8
0
  6
CONTINUOUS
 62
     1
 10
588.8999996
 20
574.9999852
 30
0.0
 11
662.8999996
 21
574.9999852
 31
0.0
  0
LINE
  8
0
  6
CONTINUOUS
 62
     1
 10
671.8999996
 20
574.9999852
 30
0.0
 11
671.8999996
 21
573.9999852
 31
0.0
  0
ARC
  8
0
  6
CONTINUOUS
 62
     1
 10
584.8999996
 20
571.9999852
 30
0.0
 40
3.0
 50
90.0
 51
180.0
  0
LINE
  8
0
  6
CONTINUOUS
 62
     1
 10
710.8999996
 20
531.9999852
 30
0.0
 11
581.8999996
 21
531.9999852
 31
0.0
  0
LINE
  8
0
  6
CONTINUOUS
 62
     1
 10
671.8999996
 20
573.9999852
 30
0.0
 11
707.8999996
 21
573.9999852
 31
0.0
  0
ARC
  8
0
  6
CONTINUOUS
 62
     1
 10
707.8999996
 20
570.9999852
 30
0.0
 40
3.0
 50
0.0
 51
90.0
  0
LINE
  8
0
  6
CONTINUOUS
 62
     1
 10
710.8999996
 20
530.4999852
 30
0.0
 11
581.8999996
 21
530.4999852
 31
0.0
  0
LINE
  8
0
  6
CONTINUOUS
 62
     1
 10
710.8999996
 20
525.4999852
 30
0.0
 11
710.8999996
 21
570.9999852
 31
0.0
  0
ARC
  8
0
  6
CONTINUOUS
 62
     1
 10
709.8999996
 20
525.4999852
 30
0.0
 40
1.0
 50
270.0
 51
0.0
  0
LINE
  8
0
  6
CONTINUOUS
 62
     1
 10
707.8999996
 20
524.4999852
 30
0.0
 11
707.8999996
 21
524.4999852
 31
0.0
  0
ARC
  8
0
  6
CONTINUOUS
 62
     1
 10
706.8999996
 20
524.4999852
 30
0.0
 40
1.0
 50
270.0
 51
0.0
  0
LINE
  8
0
  6
CONTINUOUS
 62
     1
 10
581.8999996
 20
525.4999852
 30
0.0
 11
581.8999996
 21
571.9999852
 31
0.0
  0
LINE
  8
0
  6
CONTINUOUS
 62
     1
 10
709.8999996
 20
524.4999852
 30
0.0
 11
582.8999996
 21
524.4999852
 31
0.0
  0
ARC
  8
0
  6
CONTINUOUS
 62
     1
 10
582.8999996
 20
525.4999852
 30
0.0
 40
1.0
 50
180.0
 51
270.0
  0
ARC
  8
0
  6
CONTINUOUS
 62
     1
 10
585.8999996
 20
524.4999852
 30
0.0
 40
1.0
 50
180.0
 51
270.0
  0
LINE
  8
0
  6
CONTINUOUS
 62
     1
 10
706.8999996
 20
523.4999852
 30
0.0
 11
585.9999996
 21
523.4999852
 31
0.0
  0
LINE
  8
0
  6
CONTINUOUS
 62
     1
 10
584.8999996
 20
574.9999852
 30
0.0
 11
671.8999996
 21
574.9999852
 31
0.0
  0
LINE
  8
0
  6
CONTINUOUS
 62
     1
 10
584.8999996
 20
576.4999852
 30
0.0
 11
671.8999996
 21
576.4999852
 31
0.0
  0
LINE
  8
0
  6
LTYPE2
 62
     2
 10
625.8999996
 20
593.1999852
 30
0.0
 11
625.8999996
 21
559.6999852
 31
0.0
  0
LINE
  8
0
  6
LTYPE2
 62
     2
 10
717.0999996
 20
548.9999852
 30
0.0
 11
697.3999996
 21
548.9999852
 31
0.0
  0
LINE
  8
0
  6
LTYPE1
 62
     2
 10
710.8999996
 20
558.2999852
 30
0.0
 11
700.8999996
 21
558.2999852
 31
0.0
  0
LINE
  8
0
  6
LTYPE1
 62
     2
 10
710.8999996
 20
559.4999852
 30
0.0
 11
700.8999996
 21
559.4999852
 31
0.0
  0
LINE
  8
0
  6
LTYPE1
 62
     2
 10
710.8999996
 20
539.6999852
 30
0.0
 11
700.8999996
 21
539.6999852
 31
0.0
  0
LINE
  8
0
  6
LTYPE1
 62
     2
 10
710.8999996
 20
538.4999852
 30
0.0
 11
700.8999996
 21
538.4999852
 31
0.0
  0
LINE
  8
0
  6
CONTINUOUS
 62
     1
 10
727.8999996
 20
649.4999852
 30
0.0
 11
739.8999996
 21
649.4999852
 31
0.0
  0
LINE
  8
0
  6
CONTINUOUS
 62
     1
 10
727.8999996
 20
639.4999852
 30
0.0
 11
739.8999996
 21
639.4999852
 31
0.0
  0
LINE
  8
0
  6
CONTINUOUS
 62
     1
 10
727.8999996
 20
711.9999852
 30
0.0
 11
739.8999996
 21
711.9999852
 31
0.0
  0
LINE
  8
0
  6
CONTINUOUS
 62
     1
 10
727.8999996
 20
707.9999852
 30
0.0
 11
739.8999996
 21
707.9999852
 31
0.0
  0
LINE
  8
0
  6
CONTINUOUS
 62
     1
 10
727.8999996
 20
576.9999852
 30
0.0
 11
739.8999996
 21
576.9999852
 31
0.0
  0
LINE
  8
0
  6
CONTINUOUS
 62
     1
 10
727.8999996
 20
580.9999852
 30
0.0
 11
739.8999996
 21
580.9999852
 31
0.0
  0
LINE
  8
0
  6
CONTINUOUS
 62
     1
 10
727.8999996
 20
711.9999852
 30
0.0
 11
727.8999996
 21
576.9999852
 31
0.0
  0
LINE
  8
0
  6
CONTINUOUS
 62
     1
 10
739.8999996
 20
711.9999852
 30
0.0
 11
739.8999996
 21
576.9999852
 31
0.0
  0
LINE
  8
0
  6
CONTINUOUS
 62
     1
 10
824.5999996
 20
669.4999852
 30
0.0
 11
874.5999996
 21
669.4999852
 31
0.0
  0
LINE
  8
0
  6
CONTINUOUS
 62
     1
 10
874.5999996
 20
669.4999852
 30
0.0
 11
874.5999996
 21
619.4999852
 31
0.0
  0
LINE
  8
0
  6
CONTINUOUS
 62
     1
 10
824.5999996
 20
619.4999852
 30
0.0
 11
874.5999996
 21
619.4999852
 31
0.0
  0
LINE
  8
0
  6
CONTINUOUS
 62
     1
 10
824.5999996
 20
669.4999852
 30
0.0
 11
824.5999996
 21
619.4999852
 31
0.0
  0
CIRCLE
  8
0
  6
CONTINUOUS
 62
     1
 10
849.5999996
 20
644.4999852
 30
0.0
 40
25.0
  0
LINE
  8
0
  6
LTYPE3
 62
     2
 10
1221.4999996
 20
593.4499852
 30
0.0
 11
1221.4999996
 21
692.1999852
 31
0.0
  0
LINE
  8
0
  6
LTYPE3
 62
     2
 10
849.5999996
 20
681.6999852
 30
0.0
 11
849.5999996
 21
607.6999852
 31
0.0
  0
LINE
  8
0
  6
CONTINUOUS
 62
     1
 10
1151.4999996
 20
681.9999852
 30
0.0
 11
1151.4999996
 21
606.9999852
 31
0.0
  0
LINE
  8
0
  6
CONTINUOUS
 62
     1
 10
1241.4999996
 20
681.9999852
 30
0.0
 11
1151.4999996
 21
681.9999852
 31
0.0
  0
LINE
  8
0
  6
CONTINUOUS
 62
     1
 10
1256.4999996
 20
666.9999852
 30
0.0
 11
1241.4999996
 21
681.9999852
 31
0.0
  0
LINE
  8
0
  6
CONTINUOUS
 62
     1
 10
1241.4999996
 20
606.9999852
 30
0.0
 11
1151.4999996
 21
606.9999852
 31
0.0
  0
LINE
  8
0
  6
CONTINUOUS
 62
     1
 10
1256.4999996
 20
666.9999852
 30
0.0
 11
1256.4999996
 21
621.9999852
 31
0.0
  0
LINE
  8
0
  6
CONTINUOUS
 62
     1
 10
1241.4999996
 20
606.9999852
 30
0.0
 11
1256.4999996
 21
621.9999852
 31
0.0
  0
LINE
  8
0
  6
LTYPE1
 62
     2
 10
1171.4999996
 20
681.9999852
 30
0.0
 11
1171.4999996
 21
606.9999852
 31
0.0
  0
LINE
  8
0
  6
LTYPE3
 62
     2
 10
1221.4999996
 20
692.6999852
 30
0.0
 11
1221.4999996
 21
598.6999852
 31
0.0
  0
LINE
  8
0
  6
LTYPE2
 62
     2
 10
1269.8999996
 20
644.4999852
 30
0.0
 11
349.4999996
 21
644.4999852
 31
0.0
  0
LINE
  8
0
  6
LTYPE2
 62
     2
 10
1221.4999996
 20
838.1999852
 30
0.0
 11
1221.4999996
 21
961.1999852
 31
0.0
  0
LINE
  8
0
  6
CONTINUOUS
 62
     1
 10
1171.4999996
 20
881.1999852
 30
0.0
 11
1256.4999996
 21
881.1999852
 31
0.0
  0
LINE
  8
0
  6
CONTINUOUS
 62
     1
 10
1256.4999996
 20
861.1999852
 30
0.0
 11
1256.4999996
 21
881.1999852
 31
0.0
  0
LINE
  8
0
  6
CONTINUOUS
 62
     1
 10
1171.4999996
 20
921.1999852
 30
0.0
 11
1256.4999996
 21
921.1999852
 31
0.0
  0
LINE
  8
0
  6
CONTINUOUS
 62
     1
 10
1256.4999996
 20
941.1999852
 30
0.0
 11
1256.4999996
 21
921.1999852
 31
0.0
  0
LINE
  8
0
  6
CONTINUOUS
 62
     1
 10
1171.4999996
 20
881.1999852
 30
0.0
 11
1171.4999996
 21
921.1999852
 31
0.0
  0
LINE
  8
0
  6
CONTINUOUS
 62
     1
 10
1206.4999996
 20
881.1999852
 30
0.0
 11
1206.4999996
 21
921.1999852
 31
0.0
  0
LINE
  8
0
  6
CONTINUOUS
 62
     1
 10
1236.4999996
 20
881.1999852
 30
0.0
 11
1236.4999996
 21
921.1999852
 31
0.0
  0
LINE
  8
0
  6
LTYPE1
 62
     2
 10
1206.4999996
 20
921.1999852
 30
0.0
 11
1206.4999996
 21
941.1999852
 31
0.0
  0
LINE
  8
0
  6
LTYPE1
 62
     2
 10
1236.4999996
 20
921.1999852
 30
0.0
 11
1236.4999996
 21
941.1999852
 31
0.0
  0
LINE
  8
0
  6
CONTINUOUS
 62
     1
 10
1193.4999996
 20
857.1999852
 30
0.0
 11
1249.4999996
 21
857.1999852
 31
0.0
  0
LINE
  8
0
  6
CONTINUOUS
 62
     1
 10
1193.4999996
 20
857.1999852
 30
0.0
 11
1193.4999996
 21
861.1999852
 31
0.0
  0
LINE
  8
0
  6
CONTINUOUS
 62
     1
 10
1249.4999996
 20
857.1999852
 30
0.0
 11
1249.4999996
 21
861.1999852
 31
0.0
  0
LINE
  8
0
  6
CONTINUOUS
 62
     1
 10
1206.4999996
 20
847.1999852
 30
0.0
 11
1236.4999996
 21
847.1999852
 31
0.0
  0
LINE
  8
0
  6
CONTINUOUS
 62
     1
 10
1206.4999996
 20
847.1999852
 30
0.0
 11
1206.4999996
 21
857.1999852
 31
0.0
  0
LINE
  8
0
  6
CONTINUOUS
 62
     1
 10
1236.4999996
 20
847.1999852
 30
0.0
 11
1236.4999996
 21
857.1999852
 31
0.0
  0
LINE
  8
0
  6
LTYPE1
 62
     2
 10
1236.4999996
 20
857.1999852
 30
0.0
 11
1236.4999996
 21
881.1999852
 31
0.0
  0
LINE
  8
0
  6
LTYPE1
 62
     2
 10
1206.4999996
 20
857.1999852
 30
0.0
 11
1206.4999996
 21
881.1999852
 31
0.0
  0
LINE
  8
0
  6
CONTINUOUS
 62
     1
 10
1193.4999996
 20
945.1999852
 30
0.0
 11
1249.4999996
 21
945.1999852
 31
0.0
  0
LINE
  8
0
  6
CONTINUOUS
 62
     1
 10
1193.4999996
 20
945.1999852
 30
0.0
 11
1193.4999996
 21
941.1999852
 31
0.0
  0
LINE
  8
0
  6
CONTINUOUS
 62
     1
 10
1249.4999996
 20
945.1999852
 30
0.0
 11
1249.4999996
 21
941.1999852
 31
0.0
  0
LINE
  8
0
  6
CONTINUOUS
 62
     1
 10
1206.4999996
 20
955.1999852
 30
0.0
 11
1236.4999996
 21
955.1999852
 31
0.0
  0
LINE
  8
0
  6
CONTINUOUS
 62
     1
 10
1206.4999996
 20
955.1999852
 30
0.0
 11
1206.4999996
 21
945.1999852
 31
0.0
  0
LINE
  8
0
  6
CONTINUOUS
 62
     1
 10
1236.4999996
 20
955.1999852
 30
0.0
 11
1236.4999996
 21
945.1999852
 31
0.0
  0
LINE
  8
0
  6
LTYPE2
 62
     2
 10
1214.4999996
 20
853.5999852
 30
0.0
 11
1230.4999996
 21
853.5999852
 31
0.0
  0
CIRCLE
  8
0
  6
CONTINUOUS
 62
     1
 10
1221.4999996
 20
853.5999852
 30
0.0
 40
3.0
  0
LINE
  8
0
  6
LTYPE2
 62
     2
 10
1214.4999996
 20
948.7999852
 30
0.0
 11
1230.4999996
 21
948.7999852
 31
0.0
  0
CIRCLE
  8
0
  6
CONTINUOUS
 62
     1
 10
1221.4999996
 20
948.7999852
 30
0.0
 40
3.0
  0
LINE
  8
0
  6
CONTINUOUS
 62
     2
 10
864.4999996
 20
659.6999852
 30
0.0
 11
873.627148983
 21
671.603562147
 31
0.0
  0
LINE
  8
0
  6
CONTINUOUS
 62
     2
 10
864.4999996
 20
659.6999852
 30
0.0
 11
866.452554356
 21
674.572359924
 31
0.0
  0
LINE
  8
0
  6
CONTINUOUS
 62
     2
 10
1250.4999996
 20
681.9999852
 30
0.0
 11
1318.4999996
 21
681.9999852
 31
0.0
  0
LINE
  8
0
  6
CONTINUOUS
 62
     2
 10
1309.4999996
 20
681.9999852
 30
0.0
 11
1305.617713923
 21
667.511097806
 31
0.0
  0
LINE
  8
0
  6
CONTINUOUS
 62
     2
 10
1309.4999996
 20
681.9999852
 30
0.0
 11
1313.382285277
 21
667.511097806
 31
0.0
  0
LINE
  8
0
  6
CONTINUOUS
 62
     2
 10
1309.4999996
 20
681.9999852
 30
0.0
 11
1309.4999996
 21
606.9999852
 31
0.0
  0
LINE
  8
0
  6
CONTINUOUS
 62
     2
 10
1309.4999996
 20
606.9999852
 30
0.0
 11
1313.382285277
 21
621.488872594
 31
0.0
  0
LINE
  8
0
  6
CONTINUOUS
 62
     2
 10
1309.4999996
 20
606.9999852
 30
0.0
 11
1305.617713923
 21
621.488872594
 31
0.0
  0
LINE
  8
0
  6
CONTINUOUS
 62
     2
 10
1250.4999996
 20
606.9999852
 30
0.0
 11
1318.4999996
 21
606.9999852
 31
0.0
  0
TEXT
  8
0
  6
CONTINUOUS
 62
     2
 10
1303.4999996
 20
627.6999852
 30
1.2
 40
18.0
  1
７５
 50
90.0
 41
0.9
 51
0.0
  7
KANJI46
  0
LINE
  8
0
  6
CONTINUOUS
 62
     2
 10
1265.4999996
 20
921.1999852
 30
0.0
 11
1317.9999996
 21
921.1999852
 31
0.0
  0
LINE
  8
0
  6
CONTINUOUS
 62
     2
 10
1308.9999996
 20
921.1999852
 30
0.0
 11
1305.117713923
 21
906.711097806
 31
0.0
  0
LINE
  8
0
  6
CONTINUOUS
 62
     2
 10
1308.9999996
 20
921.1999852
 30
0.0
 11
1312.882285277
 21
906.711097806
 31
0.0
  0
LINE
  8
0
  6
CONTINUOUS
 62
     2
 10
1308.9999996
 20
921.1999852
 30
0.0
 11
1308.9999996
 21
881.1999852
 31
0.0
  0
LINE
  8
0
  6
CONTINUOUS
 62
     2
 10
1308.9999996
 20
881.1999852
 30
0.0
 11
1312.882285277
 21
895.688872594
 31
0.0
  0
LINE
  8
0
  6
CONTINUOUS
 62
     2
 10
1308.9999996
 20
881.1999852
 30
0.0
 11
1305.117713923
 21
895.688872594
 31
0.0
  0
LINE
  8
0
  6
CONTINUOUS
 62
     2
 10
1265.4999996
 20
881.1999852
 30
0.0
 11
1317.9999996
 21
881.1999852
 31
0.0
  0
LINE
  8
0
  6
CONTINUOUS
 62
     2
 10
1265.4999996
 20
861.1999852
 30
0.0
 11
1358.4999996
 21
861.1999852
 31
0.0
  0
LINE
  8
0
  6
CONTINUOUS
 62
     2
 10
1349.4999996
 20
861.1999852
 30
0.0
 11
1353.382285277
 21
875.688872594
 31
0.0
  0
LINE
  8
0
  6
CONTINUOUS
 62
     2
 10
1349.4999996
 20
861.1999852
 30
0.0
 11
1345.617713923
 21
875.688872594
 31
0.0
  0
LINE
  8
0
  6
CONTINUOUS
 62
     2
 10
1349.4999996
 20
861.1999852
 30
0.0
 11
1349.4999996
 21
941.1999852
 31
0.0
  0
LINE
  8
0
  6
CONTINUOUS
 62
     2
 10
1349.4999996
 20
941.1999852
 30
0.0
 11
1345.617713923
 21
926.711097806
 31
0.0
  0
LINE
  8
0
  6
CONTINUOUS
 62
     2
 10
1349.4999996
 20
941.1999852
 30
0.0
 11
1353.382285277
 21
926.711097806
 31
0.0
  0
LINE
  8
0
  6
CONTINUOUS
 62
     2
 10
1265.4999996
 20
941.1999852
 30
0.0
 11
1358.4999996
 21
941.1999852
 31
0.0
  0
LINE
  8
0
  6
CONTINUOUS
 62
     2
 10
1206.4999996
 20
848.1999852
 30
0.0
 11
1206.4999996
 21
792.1999852
 31
0.0
  0
LINE
  8
0
  6
CONTINUOUS
 62
     2
 10
1206.4999996
 20
801.1999852
 30
0.0
 11
1192.011112206
 21
805.082270877
 31
0.0
  0
LINE
  8
0
  6
CONTINUOUS
 62
     2
 10
1206.4999996
 20
801.1999852
 30
0.0
 11
1192.011112206
 21
797.317699523
 31
0.0
  0
LINE
  8
0
  6
CONTINUOUS
 62
     2
 10
1183.9999996
 20
801.1999852
 30
0.0
 11
1344.7999996
 21
801.1999852
 31
0.0
  0
LINE
  8
0
  6
CONTINUOUS
 62
     2
 10
1236.4999996
 20
801.1999852
 30
0.0
 11
1250.988886994
 21
797.317699523
 31
0.0
  0
LINE
  8
0
  6
CONTINUOUS
 62
     2
 10
1236.4999996
 20
801.1999852
 30
0.0
 11
1250.988886994
 21
805.082270877
 31
0.0
  0
LINE
  8
0
  6
CONTINUOUS
 62
     2
 10
1236.4999996
 20
838.1999852
 30
0.0
 11
1236.4999996
 21
792.1999852
 31
0.0
  0
LINE
  8
0
  6
CONTINUOUS
 62
     2
 10
1171.4999996
 20
872.1999852
 30
0.0
 11
1171.4999996
 21
756.1999852
 31
0.0
  0
LINE
  8
0
  6
CONTINUOUS
 62
     2
 10
1171.4999996
 20
765.1999852
 30
0.0
 11
1185.988886994
 21
761.317699523
 31
0.0
  0
LINE
  8
0
  6
CONTINUOUS
 62
     2
 10
1171.4999996
 20
765.1999852
 30
0.0
 11
1185.988886994
 21
769.082270877
 31
0.0
  0
LINE
  8
0
  6
CONTINUOUS
 62
     2
 10
1171.4999996
 20
765.1999852
 30
0.0
 11
1221.4999996
 21
765.1999852
 31
0.0
  0
LINE
  8
0
  6
CONTINUOUS
 62
     2
 10
1221.4999996
 20
765.1999852
 30
0.0
 11
1207.011112206
 21
769.082270877
 31
0.0
  0
LINE
  8
0
  6
CONTINUOUS
 62
     2
 10
1221.4999996
 20
765.1999852
 30
0.0
 11
1207.011112206
 21
761.317699523
 31
0.0
  0
LINE
  8
0
  6
CONTINUOUS
 62
     2
 10
1221.4999996
 20
829.1999852
 30
0.0
 11
1221.4999996
 21
756.1999852
 31
0.0
  0
LINE
  8
0
  6
CONTINUOUS
 62
     2
 10
710.9999996
 20
548.4999852
 30
0.0
 11
721.957354041
 21
538.256139065
 31
0.0
  0
LINE
  8
0
  6
CONTINUOUS
 62
     2
 10
710.9999996
 20
548.4999852
 30
0.0
 11
725.611269972
 21
545.107231435
 31
0.0
  0
LINE
  8
0
  6
CONTINUOUS
 62
     2
 10
710.9999996
 20
548.4999852
 30
0.0
 11
770.9999996
 21
516.4999852
 31
0.0
  0
LINE
  8
0
  6
CONTINUOUS
 62
     2
 10
770.9999996
 20
516.4999852
 30
0.0
 11
859.1999996
 21
516.4999852
 31
0.0
  0
LINE
  8
0
  6
CONTINUOUS
 62
     2
 10
586.8999996
 20
590.4999852
 30
0.0
 11
586.8999996
 21
398.4999852
 31
0.0
  0
LINE
  8
0
  6
CONTINUOUS
 62
     2
 10
586.8999996
 20
407.4999852
 30
0.0
 11
572.411112206
 21
411.382270877
 31
0.0
  0
LINE
  8
0
  6
CONTINUOUS
 62
     2
 10
586.8999996
 20
407.4999852
 30
0.0
 11
572.411112206
 21
403.617699523
 31
0.0
  0
LINE
  8
0
  6
CONTINUOUS
 62
     2
 10
586.8999996
 20
407.4999852
 30
0.0
 11
486.8999996
 21
407.4999852
 31
0.0
  0
LINE
  8
0
  6
CONTINUOUS
 62
     2
 10
486.8999996
 20
407.4999852
 30
0.0
 11
501.388886994
 21
403.617699523
 31
0.0
  0
LINE
  8
0
  6
CONTINUOUS
 62
     2
 10
486.8999996
 20
407.4999852
 30
0.0
 11
501.388886994
 21
411.382270877
 31
0.0
  0
LINE
  8
0
  6
CONTINUOUS
 62
     2
 10
486.8999996
 20
540.4999852
 30
0.0
 11
486.8999996
 21
398.4999852
 31
0.0
  0
LINE
  8
0
  6
CONTINUOUS
 62
     2
 10
486.8999996
 20
407.4999852
 30
0.0
 11
472.411112206
 21
411.382270877
 31
0.0
  0
LINE
  8
0
  6
CONTINUOUS
 62
     2
 10
486.8999996
 20
407.4999852
 30
0.0
 11
472.411112206
 21
403.617699523
 31
0.0
  0
LINE
  8
0
  6
CONTINUOUS
 62
     2
 10
486.8999996
 20
407.4999852
 30
0.0
 11
360.8999996
 21
407.4999852
 31
0.0
  0
LINE
  8
0
  6
CONTINUOUS
 62
     2
 10
360.8999996
 20
407.4999852
 30
0.0
 11
375.388886994
 21
403.617699523
 31
0.0
  0
LINE
  8
0
  6
CONTINUOUS
 62
     2
 10
360.8999996
 20
407.4999852
 30
0.0
 11
375.388886994
 21
411.382270877
 31
0.0
  0
LINE
  8
0
  6
CONTINUOUS
 62
     2
 10
360.8999996
 20
540.4999852
 30
0.0
 11
360.8999996
 21
398.4999852
 31
0.0
  0
LINE
  8
0
  6
CONTINUOUS
 62
     2
 10
360.8999996
 20
398.4999852
 30
0.0
 11
360.8999996
 21
359.9999852
 31
0.0
  0
LINE
  8
0
  6
CONTINUOUS
 62
     2
 10
360.8999996
 20
368.9999852
 30
0.0
 11
375.388886994
 21
365.117699523
 31
0.0
  0
LINE
  8
0
  6
CONTINUOUS
 62
     2
 10
360.8999996
 20
368.9999852
 30
0.0
 11
375.388886994
 21
372.882270877
 31
0.0
  0
LINE
  8
0
  6
CONTINUOUS
 62
     2
 10
360.8999996
 20
368.9999852
 30
0.0
 11
586.8999996
 21
368.9999852
 31
0.0
  0
LINE
  8
0
  6
CONTINUOUS
 62
     2
 10
586.8999996
 20
368.9999852
 30
0.0
 11
572.411112206
 21
372.882270877
 31
0.0
  0
LINE
  8
0
  6
CONTINUOUS
 62
     2
 10
586.8999996
 20
368.9999852
 30
0.0
 11
572.411112206
 21
365.117699523
 31
0.0
  0
LINE
  8
0
  6
CONTINUOUS
 62
     2
 10
586.8999996
 20
398.4999852
 30
0.0
 11
586.8999996
 21
359.9999852
 31
0.0
  0
LINE
  8
0
  6
CONTINUOUS
 62
     2
 10
586.8999996
 20
368.9999852
 30
0.0
 11
601.388886994
 21
365.117699523
 31
0.0
  0
LINE
  8
0
  6
CONTINUOUS
 62
     2
 10
586.8999996
 20
368.9999852
 30
0.0
 11
601.388886994
 21
372.882270877
 31
0.0
  0
LINE
  8
0
  6
CONTINUOUS
 62
     2
 10
586.8999996
 20
368.9999852
 30
0.0
 11
1221.4999996
 21
368.9999852
 31
0.0
  0
LINE
  8
0
  6
CONTINUOUS
 62
     2
 10
1221.4999996
 20
368.9999852
 30
0.0
 11
1207.011112206
 21
372.882270877
 31
0.0
  0
LINE
  8
0
  6
CONTINUOUS
 62
     2
 10
1221.4999996
 20
368.9999852
 30
0.0
 11
1207.011112206
 21
365.117699523
 31
0.0
  0
LINE
  8
0
  6
CONTINUOUS
 62
     2
 10
1221.4999996
 20
584.4499852
 30
0.0
 11
1221.4999996
 21
359.9999852
 31
0.0
  0
LINE
  8
0
  6
CONTINUOUS
 62
     2
 10
586.8999996
 20
407.4999852
 30
0.0
 11
601.388886994
 21
403.617699523
 31
0.0
  0
LINE
  8
0
  6
CONTINUOUS
 62
     2
 10
586.8999996
 20
407.4999852
 30
0.0
 11
601.388886994
 21
411.382270877
 31
0.0
  0
LINE
  8
0
  6
CONTINUOUS
 62
     2
 10
1151.4999996
 20
407.4999852
 30
0.0
 11
1137.011112206
 21
411.382270877
 31
0.0
  0
LINE
  8
0
  6
CONTINUOUS
 62
     2
 10
1151.4999996
 20
407.4999852
 30
0.0
 11
1137.011112206
 21
403.617699523
 31
0.0
  0
LINE
  8
0
  6
CONTINUOUS
 62
     2
 10
1151.4999996
 20
407.4999852
 30
0.0
 11
1165.988886994
 21
403.617699523
 31
0.0
  0
LINE
  8
0
  6
CONTINUOUS
 62
     2
 10
1151.4999996
 20
407.4999852
 30
0.0
 11
1165.988886994
 21
411.382270877
 31
0.0
  0
LINE
  8
0
  6
CONTINUOUS
 62
     2
 10
1151.4999996
 20
407.4999852
 30
0.0
 11
1221.4999996
 21
407.4999852
 31
0.0
  0
LINE
  8
0
  6
CONTINUOUS
 62
     2
 10
1221.4999996
 20
407.4999852
 30
0.0
 11
1207.011112206
 21
411.382270877
 31
0.0
  0
LINE
  8
0
  6
CONTINUOUS
 62
     2
 10
1221.4999996
 20
407.4999852
 30
0.0
 11
1207.011112206
 21
403.617699523
 31
0.0
  0
LINE
  8
0
  6
CONTINUOUS
 62
     2
 10
1221.4999996
 20
359.9999852
 30
0.0
 11
1221.4999996
 21
321.9999852
 31
0.0
  0
LINE
  8
0
  6
CONTINUOUS
 62
     2
 10
360.8999996
 20
359.9999852
 30
0.0
 11
360.8999996
 21
321.9999852
 31
0.0
  0
LINE
  8
0
  6
CONTINUOUS
 62
     2
 10
1256.4999996
 20
612.9999852
 30
0.0
 11
1256.4999996
 21
321.9999852
 31
0.0
  0
LINE
  8
0
  6
CONTINUOUS
 62
     2
 10
609.9999996
 20
520.9499852
 30
0.0
 11
611.340581932
 21
506.010010668
 31
0.0
  0
LINE
  8
0
  6
CONTINUOUS
 62
     2
 10
609.9999996
 20
520.9499852
 30
0.0
 11
618.630965221
 21
508.681878889
 31
0.0
  0
LINE
  8
0
  6
CONTINUOUS
 62
     2
 10
609.9999996
 20
520.9499852
 30
0.0
 11
644.9999996
 21
425.4499852
 31
0.0
  0
LINE
  8
0
  6
CONTINUOUS
 62
     2
 10
644.9999996
 20
425.4499852
 30
0.0
 11
751.1999996
 21
425.4499852
 31
0.0
  0
LINE
  8
0
  6
CONTINUOUS
 62
     2
 10
1221.4999996
 20
330.9999852
 30
0.0
 11
360.8999996
 21
330.9999852
 31
0.0
  0
LINE
  8
0
  6
CONTINUOUS
 62
     2
 10
360.8999996
 20
330.9999852
 30
0.0
 11
375.388886994
 21
327.117699523
 31
0.0
  0
LINE
  8
0
  6
CONTINUOUS
 62
     2
 10
360.8999996
 20
330.9999852
 30
0.0
 11
375.388886994
 21
334.882270877
 31
0.0
  0
LINE
  8
0
  6
CONTINUOUS
 62
     2
 10
1221.4999996
 20
330.9999852
 30
0.0
 11
1207.011112206
 21
334.882270877
 31
0.0
  0
LINE
  8
0
  6
CONTINUOUS
 62
     2
 10
1221.4999996
 20
330.9999852
 30
0.0
 11
1207.011112206
 21
327.117699523
 31
0.0
  0
LINE
  8
0
  6
CONTINUOUS
 62
     2
 10
1221.4999996
 20
330.9999852
 30
0.0
 11
1235.988886994
 21
327.117699523
 31
0.0
  0
LINE
  8
0
  6
CONTINUOUS
 62
     2
 10
1221.4999996
 20
330.9999852
 30
0.0
 11
1235.988886994
 21
334.882270877
 31
0.0
  0
LINE
  8
0
  6
CONTINUOUS
 62
     2
 10
1221.4999996
 20
330.9999852
 30
0.0
 11
1256.4999996
 21
330.9999852
 31
0.0
  0
LINE
  8
0
  6
CONTINUOUS
 62
     2
 10
1256.4999996
 20
330.9999852
 30
0.0
 11
1242.011112206
 21
334.882270877
 31
0.0
  0
LINE
  8
0
  6
CONTINUOUS
 62
     2
 10
1256.4999996
 20
330.9999852
 30
0.0
 11
1242.011112206
 21
327.117699523
 31
0.0
  0
LINE
  8
0
  6
CONTINUOUS
 62
     2
 10
486.8999996
 20
987.4999852
 30
0.0
 11
486.8999996
 21
1103.2749852
 31
0.0
  0
LINE
  8
0
  6
LTYPE2
 62
     2
 10
394.5999996
 20
559.4999852
 30
0.0
 11
340.5999996
 21
559.4999852
 31
0.0
  0
LINE
  8
0
  6
CONTINUOUS
 62
     1
 10
360.8999996
 20
559.4999852
 30
0.0
 11
360.8999996
 21
545.668997102
 31
0.0
  0
LINE
  8
0
  6
CONTINUOUS
 62
     1
 10
360.8999996
 20
559.4999852
 30
0.0
 11
360.8999996
 21
573.330973298
 31
0.0
  0
LINE
  8
0
  6
CONTINUOUS
 62
     1
 10
350.900090987
 20
549.056177861
 30
0.0
 11
352.85568071
 21
545.668997102
 31
0.0
  0
LINE
  8
0
  6
CONTINUOUS
 62
     1
 10
350.900090987
 20
559.4999852
 30
0.0
 11
350.900090987
 21
549.056177861
 31
0.0
  0
LINE
  8
0
  6
CONTINUOUS
 62
     1
 10
350.900090987
 20
569.943792539
 30
0.0
 11
352.85568071
 21
573.330973298
 31
0.0
  0
LINE
  8
0
  6
CONTINUOUS
 62
     1
 10
350.900090987
 20
559.4999852
 30
0.0
 11
350.900090987
 21
569.943792539
 31
0.0
  0
ARC
  8
0
  6
CONTINUOUS
 62
     1
 10
364.105414298
 20
559.4999852
 30
0.0
 40
13.20532331
 50
148.419912243
 51
211.580087757
  0
ARC
  8
0
  6
CONTINUOUS
 62
     1
 10
354.933494791
 20
549.126744127
 30
0.0
 40
4.034021051
 50
121.002313915
 51
182.989498403
  0
LINE
  8
0
  6
CONTINUOUS
 62
     1
 10
350.900090987
 20
569.943792539
 30
0.0
 11
352.85568071
 21
573.330973298
 31
0.0
  0
ARC
  8
0
  6
CONTINUOUS
 62
     1
 10
354.933494791
 20
569.873226273
 30
0.0
 40
4.034021051
 50
177.010501597
 51
238.997686085
  0
LINE
  8
0
  6
CONTINUOUS
 62
     1
 10
360.8999996
 20
545.668997102
 30
0.0
 11
352.85568071
 21
545.668997102
 31
0.0
  0
LINE
  8
0
  6
CONTINUOUS
 62
     1
 10
360.8999996
 20
552.584491151
 30
0.0
 11
352.85568071
 21
552.584491151
 31
0.0
  0
LINE
  8
0
  6
CONTINUOUS
 62
     1
 10
360.8999996
 20
566.415479249
 30
0.0
 11
352.85568071
 21
566.415479249
 31
0.0
  0
LINE
  8
0
  6
CONTINUOUS
 62
     1
 10
360.8999996
 20
573.330973298
 30
0.0
 11
352.85568071
 21
573.330973298
 31
0.0
  0
LINE
  8
0
  6
CONTINUOUS
 62
     1
 10
486.8999996
 20
539.4999852
 30
0.0
 11
360.8999996
 21
539.4999852
 31
0.0
  0
LINE
  8
0
  6
LTYPE2
 62
     2
 10
392.5999996
 20
729.4999852
 30
0.0
 11
345.5999996
 21
729.4999852
 31
0.0
  0
LINE
  8
0
  6
CONTINUOUS
 62
     1
 10
360.8999996
 20
729.4999852
 30
0.0
 11
360.8999996
 21
715.668997102
 31
0.0
  0
LINE
  8
0
  6
CONTINUOUS
 62
     1
 10
360.8999996
 20
729.4999852
 30
0.0
 11
360.8999996
 21
743.330973298
 31
0.0
  0
LINE
  8
0
  6
CONTINUOUS
 62
     1
 10
350.900090987
 20
719.056177861
 30
0.0
 11
352.85568071
 21
715.668997102
 31
0.0
  0
LINE
  8
0
  6
CONTINUOUS
 62
     1
 10
350.900090987
 20
729.4999852
 30
0.0
 11
350.900090987
 21
719.056177861
 31
0.0
  0
LINE
  8
0
  6
CONTINUOUS
 62
     1
 10
350.900090987
 20
739.943792539
 30
0.0
 11
352.85568071
 21
743.330973298
 31
0.0
  0
LINE
  8
0
  6
CONTINUOUS
 62
     1
 10
350.900090987
 20
729.4999852
 30
0.0
 11
350.900090987
 21
739.943792539
 31
0.0
  0
ARC
  8
0
  6
CONTINUOUS
 62
     1
 10
364.105414298
 20
729.4999852
 30
0.0
 40
13.20532331
 50
148.419912243
 51
211.580087757
  0
ARC
  8
0
  6
CONTINUOUS
 62
     1
 10
354.933494791
 20
719.126744127
 30
0.0
 40
4.034021051
 50
121.002313915
 51
182.989498403
  0
LINE
  8
0
  6
CONTINUOUS
 62
     1
 10
350.900090987
 20
739.943792539
 30
0.0
 11
352.85568071
 21
743.330973298
 31
0.0
  0
ARC
  8
0
  6
CONTINUOUS
 62
     1
 10
354.933494791
 20
739.873226273
 30
0.0
 40
4.034021051
 50
177.010501597
 51
238.997686085
  0
LINE
  8
0
  6
CONTINUOUS
 62
     1
 10
360.8999996
 20
715.668997102
 30
0.0
 11
352.85568071
 21
715.668997102
 31
0.0
  0
LINE
  8
0
  6
CONTINUOUS
 62
     1
 10
360.8999996
 20
722.584491151
 30
0.0
 11
352.85568071
 21
722.584491151
 31
0.0
  0
LINE
  8
0
  6
CONTINUOUS
 62
     1
 10
360.8999996
 20
736.415479249
 30
0.0
 11
352.85568071
 21
736.415479249
 31
0.0
  0
LINE
  8
0
  6
CONTINUOUS
 62
     1
 10
360.8999996
 20
743.330973298
 30
0.0
 11
352.85568071
 21
743.330973298
 31
0.0
  0
LINE
  8
0
  6
CONTINUOUS
 62
     1
 10
486.8999996
 20
539.4999852
 30
0.0
 11
486.8999996
 21
978.4999852
 31
0.0
  0
LINE
  8
0
  6
CONTINUOUS
 62
     1
 10
486.8999996
 20
726.6499852
 30
0.0
 11
486.8999996
 21
978.4999852
 31
0.0
  0
LINE
  8
0
  6
CONTINUOUS
 62
     1
 10
486.8999996
 20
728.4999852
 30
0.0
 11
486.8999996
 21
978.4999852
 31
0.0
  0
LINE
  8
0
  6
CONTINUOUS
 62
     1
 10
486.8999996
 20
728.4999852
 30
0.0
 11
497.8999996
 21
728.4999852
 31
0.0
  0
LINE
  8
0
  6
CONTINUOUS
 62
     2
 10
486.8999996
 20
1094.2749852
 30
0.0
 11
501.388886994
 21
1090.392699523
 31
0.0
  0
LINE
  8
0
  6
CONTINUOUS
 62
     2
 10
486.8999996
 20
1094.2749852
 30
0.0
 11
501.388886994
 21
1098.157270877
 31
0.0
  0
LINE
  8
0
  6
LTYPE2
 62
     2
 10
925.8999996
 20
853.4999852
 30
0.0
 11
331.3999996
 21
853.4999852
 31
0.0
  0
LINE
  8
0
  6
CONTINUOUS
 62
     1
 10
876.3999996
 20
844.7999852
 30
0.0
 11
882.2999996
 21
844.7999852
 31
0.0
  0
LINE
  8
0
  6
CONTINUOUS
 62
     1
 10
876.3999996
 20
862.1999852
 30
0.0
 11
882.2999996
 21
862.1999852
 31
0.0
  0
LINE
  8
0
  6
CONTINUOUS
 62
     1
 10
889.8999996
 20
843.4999852
 30
0.0
 11
889.8999996
 21
853.3999852
 31
0.0
  0
LINE
  8
0
  6
CONTINUOUS
 62
     1
 10
883.2999996
 20
843.4999852
 30
0.0
 11
889.8999996
 21
843.4999852
 31
0.0
  0
LINE
  8
0
  6
CONTINUOUS
 62
     1
 10
883.2999996
 20
848.4999852
 30
0.0
 11
889.8999996
 21
848.4999852
 31
0.0
  0
LINE
  8
0
  6
CONTINUOUS
 62
     1
 10
889.8999996
 20
863.4999852
 30
0.0
 11
889.8999996
 21
853.5999852
 31
0.0
  0
LINE
  8
0
  6
CONTINUOUS
 62
     1
 10
883.2999996
 20
863.4999852
 30
0.0
 11
889.8999996
 21
863.4999852
 31
0.0
  0
LINE
  8
0
  6
CONTINUOUS
 62
     1
 10
883.2999996
 20
858.4999852
 30
0.0
 11
889.8999996
 21
858.4999852
 31
0.0
  0
LINE
  8
0
  6
CONTINUOUS
 62
     2
 10
891.8999996
 20
823.3999852
 30
0.0
 11
891.8999996
 21
1103.2749852
 31
0.0
  0
LINE
  8
0
  6
CONTINUOUS
 62
     2
 10
891.8999996
 20
1094.2749852
 30
0.0
 11
877.411112206
 21
1098.157270877
 31
0.0
  0
LINE
  8
0
  6
CONTINUOUS
 62
     2
 10
891.8999996
 20
1094.2749852
 30
0.0
 11
877.411112206
 21
1090.392699523
 31
0.0
  0
LINE
  8
0
  6
CONTINUOUS
 62
     2
 10
486.8999996
 20
1094.2749852
 30
0.0
 11
891.8999996
 21
1094.2749852
 31
0.0
  0
LINE
  8
0
  6
LTYPE3
 62
     2
 10
684.3999996
 20
935.343052536
 30
0.0
 11
684.3999996
 21
975.643052536
 31
0.0
  0
LINE
  8
0
  6
CONTINUOUS
 62
     1
 10
774.3999996
 20
983.4999852
 30
0.0
 11
774.3999996
 21
1023.4999852
 31
0.0
  0
LINE
  8
0
  6
CONTINUOUS
 62
     1
 10
774.3999996
 20
1023.4999852
 30
0.0
 11
748.6999996
 21
1023.4999852
 31
0.0
  0
LINE
  8
0
  6
CONTINUOUS
 62
     1
 10
774.3999996
 20
983.4999852
 30
0.0
 11
748.6999996
 21
983.4999852
 31
0.0
  0
ARC
  8
0
  6
CONTINUOUS
 62
     1
 10
742.6999996
 20
978.1999852
 30
0.0
 40
6.0
 50
270.0
 51
0.0
  0
LINE
  8
0
  6
LTYPE3
 62
     2
 10
778.656580024
 20
1003.4999852
 30
0.0
 11
739.156580024
 21
1003.4999852
 31
0.0
  0
LINE
  8
0
  6
CONTINUOUS
 62
     2
 10
774.3999996
 20
1003.4999852
 30
0.0
 11
786.823015324
 21
1011.906451777
 31
0.0
  0
LINE
  8
0
  6
CONTINUOUS
 62
     2
 10
774.3999996
 20
1003.4999852
 30
0.0
 11
780.95541352
 21
1016.991706674
 31
0.0
  0
LINE
  8
0
  6
CONTINUOUS
 62
     2
 10
774.3999996
 20
1003.4999852
 30
0.0
 11
806.8999996
 21
1040.9999852
 31
0.0
  0
ARC
  8
0
  6
CONTINUOUS
 62
     1
 10
629.219479857
 20
978.1999852
 30
0.0
 40
6.0
 50
190.033164511
 51
270.0
  0
LINE
  8
0
  6
CONTINUOUS
 62
     1
 10
486.8999996
 20
978.4999852
 30
0.0
 11
502.8999996
 21
978.4999852
 31
0.0
  0
LINE
  8
0
  6
CONTINUOUS
 62
     1
 10
502.8999996
 20
728.4999852
 30
0.0
 11
502.8999996
 21
978.4999852
 31
0.0
  0
LINE
  8
0
  6
CONTINUOUS
 62
     1
 10
486.8999996
 20
728.4999852
 30
0.0
 11
502.8999996
 21
728.4999852
 31
0.0
  0
LINE
  8
0
  6
CONTINUOUS
 62
     1
 10
552.8999996
 20
748.4999852
 30
0.0
 11
552.8999996
 21
958.4999852
 31
0.0
  0
LINE
  8
0
  6
CONTINUOUS
 62
     1
 10
552.8999996
 20
748.4999852
 30
0.0
 11
502.8999996
 21
748.4999852
 31
0.0
  0
LINE
  8
0
  6
CONTINUOUS
 62
     1
 10
552.8999996
 20
958.4999852
 30
0.0
 11
502.8999996
 21
958.4999852
 31
0.0
  0
ARC
  8
0
  6
CONTINUOUS
 62
     1
 10
849.620548828
 20
938.4999852
 30
0.0
 40
20.0
 50
9.12031501
 51
90.0
  0
ARC
  8
0
  6
CONTINUOUS
 62
     1
 10
849.620548828
 20
768.4999852
 30
0.0
 40
20.0
 50
270.0
 51
350.87968499
  0
ARC
  8
0
  6
CONTINUOUS
 62
     1
 10
320.1499996
 20
853.4999852
 30
0.0
 40
556.25
 50
350.879686542
 51
9.120316562
  0
LINE
  8
0
  6
CONTINUOUS
 62
     1
 10
719.8999996
 20
958.4999852
 30
0.0
 11
719.8999996
 21
748.4999852
 31
0.0
  0
LINE
  8
0
  6
CONTINUOUS
 62
     1
 10
769.8999996
 20
958.4999852
 30
0.0
 11
769.8999996
 21
748.4999852
 31
0.0
  0
LINE
  8
0
  6
CONTINUOUS
 62
     1
 10
552.8999996
 20
953.4999852
 30
0.0
 11
719.8999996
 21
953.4999852
 31
0.0
  0
LINE
  8
0
  6
CONTINUOUS
 62
     1
 10
552.8999996
 20
948.4999852
 30
0.0
 11
719.8999996
 21
948.4999852
 31
0.0
  0
LINE
  8
0
  6
CONTINUOUS
 62
     1
 10
552.8999996
 20
933.4999852
 30
0.0
 11
719.8999996
 21
933.4999852
 31
0.0
  0
LINE
  8
0
  6
CONTINUOUS
 62
     1
 10
552.8999996
 20
918.4999852
 30
0.0
 11
719.8999996
 21
918.4999852
 31
0.0
  0
LINE
  8
0
  6
CONTINUOUS
 62
     1
 10
849.620559618
 20
958.4999852
 30
0.0
 11
719.8999996
 21
958.4999852
 31
0.0
  0
LINE
  8
0
  6
CONTINUOUS
 62
     1
 10
552.8999996
 20
903.4999852
 30
0.0
 11
719.8999996
 21
903.4999852
 31
0.0
  0
LINE
  8
0
  6
CONTINUOUS
 62
     1
 10
552.8999996
 20
888.4999852
 30
0.0
 11
719.8999996
 21
888.4999852
 31
0.0
  0
LINE
  8
0
  6
CONTINUOUS
 62
     1
 10
552.8999996
 20
873.4999852
 30
0.0
 11
719.8999996
 21
873.4999852
 31
0.0
  0
LINE
  8
0
  6
CONTINUOUS
 62
     1
 10
552.8999996
 20
858.4999852
 30
0.0
 11
719.8999996
 21
858.4999852
 31
0.0
  0
LINE
  8
0
  6
CONTINUOUS
 62
     1
 10
552.8999996
 20
843.4999852
 30
0.0
 11
719.8999996
 21
843.4999852
 31
0.0
  0
LINE
  8
0
  6
CONTINUOUS
 62
     1
 10
552.8999996
 20
828.4999852
 30
0.0
 11
719.8999996
 21
828.4999852
 31
0.0
  0
LINE
  8
0
  6
CONTINUOUS
 62
     1
 10
552.8999996
 20
813.4999852
 30
0.0
 11
719.8999996
 21
813.4999852
 31
0.0
  0
LINE
  8
0
  6
CONTINUOUS
 62
     1
 10
552.8999996
 20
798.4999852
 30
0.0
 11
719.8999996
 21
798.4999852
 31
0.0
  0
LINE
  8
0
  6
CONTINUOUS
 62
     1
 10
552.8999996
 20
783.4999852
 30
0.0
 11
719.8999996
 21
783.4999852
 31
0.0
  0
LINE
  8
0
  6
CONTINUOUS
 62
     1
 10
552.8999996
 20
768.4999852
 30
0.0
 11
719.8999996
 21
768.4999852
 31
0.0
  0
LINE
  8
0
  6
CONTINUOUS
 62
     1
 10
552.8999996
 20
753.4999852
 30
0.0
 11
719.8999996
 21
753.4999852
 31
0.0
  0
LINE
  8
0
  6
CONTINUOUS
 62
     1
 10
849.620559618
 20
748.4999852
 30
0.0
 11
719.8999996
 21
748.4999852
 31
0.0
  0
LINE
  8
0
  6
CONTINUOUS
 62
     1
 10
743.061039085
 20
972.1999852
 30
0.0
 11
629.219479857
 21
972.1999852
 31
0.0
  0
ARC
  8
0
  6
CONTINUOUS
 62
     1
 10
629.219479857
 20
1040.4999852
 30
0.0
 40
6.0
 50
90.0
 51
180.0
  0
LINE
  8
0
  6
CONTINUOUS
 62
     1
 10
747.508952559
 20
1046.4999852
 30
0.0
 11
629.219479857
 21
1046.4999852
 31
0.0
  0
LINE
  8
0
  6
CONTINUOUS
 62
     1
 10
748.6999996
 20
978.1999852
 30
0.0
 11
748.6999996
 21
1037.872975242
 31
0.0
  0
LINE
  8
0
  6
CONTINUOUS
 62
     1
 10
704.3999996
 20
953.4999852
 30
0.0
 11
704.3999996
 21
972.1999852
 31
0.0
  0
LINE
  8
0
  6
CONTINUOUS
 62
     1
 10
664.3999996
 20
953.4999852
 30
0.0
 11
664.3999996
 21
972.1999852
 31
0.0
  0
LINE
  8
0
  6
CONTINUOUS
 62
     1
 10
758.777019998
 20
1045.998809555
 30
0.0
 11
756.5999996
 21
1050.4999852
 31
0.0
  0
LINE
  8
0
  6
CONTINUOUS
 62
     1
 10
756.5999996
 20
1050.4999852
 30
0.0
 11
611.201684151
 21
980.1772243
 31
0.0
  0
LINE
  8
0
  6
CONTINUOUS
 62
     1
 10
758.777019998
 20
1045.998809555
 30
0.0
 11
613.37870455
 21
975.676048655
 31
0.0
  0
LINE
  8
0
  6
CONTINUOUS
 62
     1
 10
611.201684151
 20
980.1772243
 30
0.0
 11
613.37870455
 21
975.676048655
 31
0.0
  0
LINE
  8
0
  6
CONTINUOUS
 62
     1
 10
623.219479857
 20
987.176048655
 30
0.0
 11
623.219479857
 21
1040.4999852
 31
0.0
  0
LINE
  8
0
  6
CONTINUOUS
 62
     1
 10
623.87870455
 20
980.176048655
 30
0.0
 11
623.87870455
 21
977.176048655
 31
0.0
  0
LINE
  8
0
  6
CONTINUOUS
 62
     1
 10
876.3999996
 20
814.7999852
 30
0.0
 11
882.2999996
 21
814.7999852
 31
0.0
  0
LINE
  8
0
  6
CONTINUOUS
 62
     1
 10
876.3999996
 20
810.9999852
 30
0.0
 11
882.2999996
 21
810.9999852
 31
0.0
  0
LINE
  8
0
  6
CONTINUOUS
 62
     1
 10
891.7999996
 20
822.8999852
 30
0.0
 11
891.7999996
 21
802.8999852
 31
0.0
  0
LINE
  8
0
  6
CONTINUOUS
 62
     1
 10
886.7999996
 20
802.8999852
 30
0.0
 11
891.7999996
 21
802.8999852
 31
0.0
  0
LINE
  8
0
  6
CONTINUOUS
 62
     1
 10
886.7999996
 20
822.8999852
 30
0.0
 11
891.7999996
 21
822.8999852
 31
0.0
  0
LINE
  8
0
  6
CONTINUOUS
 62
     1
 10
882.2999996
 20
873.4999852
 30
0.0
 11
886.7999996
 21
873.4999852
 31
0.0
  0
LINE
  8
0
  6
CONTINUOUS
 62
     1
 10
886.7999996
 20
802.8999852
 30
0.0
 11
886.7999996
 21
873.4999852
 31
0.0
  0
LINE
  8
0
  6
LTYPE3
 62
     2
 10
868.2999996
 20
812.8999852
 30
0.0
 11
898.5999996
 21
812.8999852
 31
0.0
  0
LINE
  8
0
  6
CONTINUOUS
 62
     1
 10
882.2999996
 20
873.4999852
 30
0.0
 11
882.2999996
 21
807.8999852
 31
0.0
  0
LINE
  8
0
  6
CONTINUOUS
 62
     1
 10
886.7999996
 20
807.8999852
 30
0.0
 11
882.2999996
 21
807.8999852
 31
0.0
  0
LINE
  8
0
  6
CONTINUOUS
 62
     1
 10
880.2999996
 20
819.8999852
 30
0.0
 11
880.2999996
 21
804.8999852
 31
0.0
  0
LINE
  8
0
  6
CONTINUOUS
 62
     1
 10
877.7999996
 20
819.3999852
 30
0.0
 11
877.7999996
 21
804.8999852
 31
0.0
  0
LINE
  8
0
  6
CONTINUOUS
 62
     2
 10
806.8999996
 20
1040.9999852
 30
0.0
 11
873.8999996
 21
1040.9999852
 31
0.0
  0
LINE
  8
2
  6
CONTINUOUS
 62
     2
 10
799.8999996
 20
587.4999852
 30
0.0
 11
803.782285277
 21
601.988872594
 31
0.0
  0
LINE
  8
2
  6
CONTINUOUS
 62
     2
 10
799.8999996
 20
587.4999852
 30
0.0
 11
796.017713923
 21
601.988872594
 31
0.0
  0
LINE
  8
2
  6
CONTINUOUS
 62
     2
 10
799.8999996
 20
587.4999852
 30
0.0
 11
799.8999996
 21
701.4999852
 31
0.0
  0
LINE
  8
2
  6
CONTINUOUS
 62
     2
 10
799.8999996
 20
701.4999852
 30
0.0
 11
796.017713923
 21
687.011097806
 31
0.0
  0
LINE
  8
2
  6
CONTINUOUS
 62
     2
 10
799.8999996
 20
701.4999852
 30
0.0
 11
803.782285277
 21
687.011097806
 31
0.0
  0
TEXT
  8
2
  6
CONTINUOUS
 62
     2
 10
793.8999996
 20
603.3999852
 30
1.8
 40
21.0
  1
φ１１４
 50
90.0
 41
0.914285714
 51
0.0
  7
KANJI47
  0
LINE
  8
0
  6
CONTINUOUS
 62
     1
 10
1151.4999996
 20
941.1999852
 30
0.0
 11
1256.4999996
 21
941.1999852
 31
0.0
  0
LINE
  8
0
  6
CONTINUOUS
 62
     1
 10
1151.4999996
 20
941.1999852
 30
0.0
 11
1151.4999996
 21
861.1999852
 31
0.0
  0
LINE
  8
0
  6
CONTINUOUS
 62
     1
 10
1151.4999996
 20
861.1999852
 30
0.0
 11
1256.4999996
 21
861.1999852
 31
0.0
  0
LINE
  8
0
  6
CONTINUOUS
 62
     2
 10
894.4999996
 20
875.5999852
 30
0.0
 11
903.732044596
 21
887.422393804
 31
0.0
  0
LINE
  8
0
  6
CONTINUOUS
 62
     2
 10
894.4999996
 20
875.5999852
 30
0.0
 11
896.583980793
 21
890.454513883
 31
0.0
  0
LINE
  8
0
  6
CONTINUOUS
 62
     2
 10
894.4999996
 20
875.5999852
 30
0.0
 11
957.77820708
 21
1024.7750352
 31
0.0
  0
LINE
  8
0
  6
CONTINUOUS
 62
     2
 10
957.77820708
 20
1024.7750352
 30
0.0
 11
1101.7000496
 21
1024.7750352
 31
0.0
  0
LINE
  8
0
  6
CONTINUOUS
 62
     2
 10
1151.4999996
 20
601.6999852
 30
0.0
 11
1151.4999996
 21
398.4999852
 31
0.0
  0
LINE
  8
0
  6
LTYPE2
 62
     2
 10
1062.4999996
 20
901.1999852
 30
0.0
 11
1267.4999996
 21
901.1999852
 31
0.0
  0
LINE
  8
0
  6
CONTINUOUS
 62
     1
 10
1041.4999996
 20
587.4999852
 30
0.0
 11
1041.4999996
 21
702.4999852
 31
0.0
  0
LINE
  8
0
  6
CONTINUOUS
 62
     2
 10
1106.4999996
 20
407.4999852
 30
0.0
 11
1092.011112206
 21
411.382270877
 31
0.0
  0
LINE
  8
0
  6
CONTINUOUS
 62
     2
 10
1106.4999996
 20
578.4999852
 30
0.0
 11
1106.4999996
 21
398.4999852
 31
0.0
  0
LINE
  8
0
  6
CONTINUOUS
 62
     2
 10
1106.4999996
 20
407.4999852
 30
0.0
 11
1120.988886994
 21
411.382270877
 31
0.0
  0
LINE
  8
0
  6
CONTINUOUS
 62
     2
 10
1106.4999996
 20
407.4999852
 30
0.0
 11
1092.011112206
 21
403.617699523
 31
0.0
  0
LINE
  8
0
  6
CONTINUOUS
 62
     2
 10
1106.4999996
 20
407.4999852
 30
0.0
 11
1120.988886994
 21
403.617699523
 31
0.0
  0
LINE
  8
0
  6
CONTINUOUS
 62
     1
 10
1106.4999996
 20
701.4999852
 30
0.0
 11
739.8999996
 21
701.4999852
 31
0.0
  0
LINE
  8
0
  6
CONTINUOUS
 62
     1
 10
1106.4999996
 20
587.4999852
 30
0.0
 11
1106.4999996
 21
701.4999852
 31
0.0
  0
LINE
  8
0
  6
CONTINUOUS
 62
     1
 10
1106.4999996
 20
587.4999852
 30
0.0
 11
739.8999996
 21
587.4999852
 31
0.0
  0
LINE
  8
0
  6
CONTINUOUS
 62
     1
 10
1106.4999996
 20
681.9999852
 30
0.0
 11
1151.4999996
 21
681.9999852
 31
0.0
  0
LINE
  8
0
  6
CONTINUOUS
 62
     1
 10
1106.4999996
 20
606.9999852
 30
0.0
 11
1151.4999996
 21
606.9999852
 31
0.0
  0
LINE
  8
0
  6
CONTINUOUS
 62
     1
 10
1106.4999996
 20
862.6999852
 30
0.0
 11
1151.4999996
 21
862.6999852
 31
0.0
  0
LINE
  8
0
  6
CONTINUOUS
 62
     1
 10
1106.4999996
 20
939.6999852
 30
0.0
 11
1151.4999996
 21
939.6999852
 31
0.0
  0
LINE
  8
0
  6
CONTINUOUS
 62
     2
 10
1106.4999996
 20
407.4999852
 30
0.0
 11
1151.4999996
 21
407.4999852
 31
0.0
  0
LINE
  8
0
  6
CONTINUOUS
 62
     2
 10
586.8999996
 20
407.4999852
 30
0.0
 11
1106.4999996
 21
407.4999852
 31
0.0
  0
TEXT
  8
0
  6
CONTINUOUS
 62
     2
 10
1110.0999996
 20
435.4999852
 30
-1.8
 40
18.0
  1
ｍｉｎ
 50
0.0
 41
0.9
 51
0.0
  7
KANJI48
  0
LINE
  8
0
  6
CONTINUOUS
 62
     1
 10
1690.9999996
 20
629.4999852
 30
0.0
 11
1650.9999996
 21
629.4999852
 31
0.0
  0
LINE
  8
0
  6
CONTINUOUS
 62
     1
 10
1690.9999996
 20
659.4999852
 30
0.0
 11
1650.9999996
 21
659.4999852
 31
0.0
  0
LINE
  8
0
  6
LTYPE1
 62
     2
 10
1650.9999996
 20
629.4999852
 30
0.0
 11
1630.9999996
 21
629.4999852
 31
0.0
  0
LINE
  8
0
  6
LTYPE1
 62
     2
 10
1650.9999996
 20
659.4999852
 30
0.0
 11
1630.9999996
 21
659.4999852
 31
0.0
  0
LINE
  8
0
  6
CONTINUOUS
 62
     1
 10
1714.9999996
 20
616.4999852
 30
0.0
 11
1714.9999996
 21
672.4999852
 31
0.0
  0
LINE
  8
0
  6
CONTINUOUS
 62
     1
 10
1714.9999996
 20
616.4999852
 30
0.0
 11
1710.9999996
 21
616.4999852
 31
0.0
  0
LINE
  8
0
  6
CONTINUOUS
 62
     1
 10
1714.9999996
 20
672.4999852
 30
0.0
 11
1710.9999996
 21
672.4999852
 31
0.0
  0
LINE
  8
0
  6
CONTINUOUS
 62
     1
 10
1724.9999996
 20
629.4999852
 30
0.0
 11
1724.9999996
 21
659.4999852
 31
0.0
  0
LINE
  8
0
  6
CONTINUOUS
 62
     1
 10
1724.9999996
 20
629.4999852
 30
0.0
 11
1714.9999996
 21
629.4999852
 31
0.0
  0
LINE
  8
0
  6
CONTINUOUS
 62
     1
 10
1724.9999996
 20
659.4999852
 30
0.0
 11
1714.9999996
 21
659.4999852
 31
0.0
  0
LINE
  8
0
  6
LTYPE1
 62
     2
 10
1714.9999996
 20
659.4999852
 30
0.0
 11
1690.9999996
 21
659.4999852
 31
0.0
  0
LINE
  8
0
  6
LTYPE1
 62
     2
 10
1714.9999996
 20
629.4999852
 30
0.0
 11
1690.9999996
 21
629.4999852
 31
0.0
  0
LINE
  8
0
  6
CONTINUOUS
 62
     1
 10
1626.9999996
 20
616.4999852
 30
0.0
 11
1626.9999996
 21
672.4999852
 31
0.0
  0
LINE
  8
0
  6
CONTINUOUS
 62
     1
 10
1626.9999996
 20
616.4999852
 30
0.0
 11
1630.9999996
 21
616.4999852
 31
0.0
  0
LINE
  8
0
  6
CONTINUOUS
 62
     1
 10
1626.9999996
 20
672.4999852
 30
0.0
 11
1630.9999996
 21
672.4999852
 31
0.0
  0
LINE
  8
0
  6
CONTINUOUS
 62
     1
 10
1616.9999996
 20
629.4999852
 30
0.0
 11
1616.9999996
 21
659.4999852
 31
0.0
  0
LINE
  8
0
  6
CONTINUOUS
 62
     1
 10
1616.9999996
 20
629.4999852
 30
0.0
 11
1626.9999996
 21
629.4999852
 31
0.0
  0
LINE
  8
0
  6
CONTINUOUS
 62
     1
 10
1616.9999996
 20
659.4999852
 30
0.0
 11
1626.9999996
 21
659.4999852
 31
0.0
  0
LINE
  8
0
  6
LTYPE2
 62
     2
 10
1718.5999996
 20
637.4999852
 30
0.0
 11
1718.5999996
 21
653.4999852
 31
0.0
  0
CIRCLE
  8
0
  6
CONTINUOUS
 62
     1
 10
1718.5999996
 20
644.4999852
 30
0.0
 40
3.0
  0
LINE
  8
0
  6
LTYPE2
 62
     2
 10
1623.3999996
 20
637.4999852
 30
0.0
 11
1623.3999996
 21
653.4999852
 31
0.0
  0
CIRCLE
  8
0
  6
CONTINUOUS
 62
     1
 10
1623.3999996
 20
644.4999852
 30
0.0
 40
3.0
  0
LINE
  8
0
  6
CONTINUOUS
 62
     1
 10
1710.9999996
 20
681.9999852
 30
0.0
 11
1630.9999996
 21
681.9999852
 31
0.0
  0
LINE
  8
0
  6
CONTINUOUS
 62
     1
 10
1650.9999996
 20
606.9999852
 30
0.0
 11
1650.9999996
 21
681.9999852
 31
0.0
  0
LINE
  8
0
  6
CONTINUOUS
 62
     1
 10
1630.9999996
 20
606.9999852
 30
0.0
 11
1630.9999996
 21
681.9999852
 31
0.0
  0
LINE
  8
0
  6
CONTINUOUS
 62
     1
 10
1690.9999996
 20
606.9999852
 30
0.0
 11
1690.9999996
 21
681.9999852
 31
0.0
  0
LINE
  8
0
  6
CONTINUOUS
 62
     1
 10
1710.9999996
 20
606.9999852
 30
0.0
 11
1630.9999996
 21
606.9999852
 31
0.0
  0
LINE
  8
0
  6
CONTINUOUS
 62
     1
 10
1710.9999996
 20
606.9999852
 30
0.0
 11
1710.9999996
 21
681.9999852
 31
0.0
  0
LINE
  8
0
  6
CONTINUOUS
 62
     1
 10
1780.9999996
 20
609.4999852
 30
0.0
 11
1780.9999996
 21
679.4999852
 31
0.0
  0
LINE
  8
0
  6
LTYPE1
 62
     2
 10
1745.9999996
 20
629.4999852
 30
0.0
 11
1745.9999996
 21
659.4999852
 31
0.0
  0
LINE
  8
0
  6
LTYPE1
 62
     2
 10
1745.9999996
 20
659.4999852
 30
0.0
 11
1780.9999996
 21
659.4999852
 31
0.0
  0
LINE
  8
0
  6
LTYPE1
 62
     2
 10
1745.9999996
 20
629.4999852
 30
0.0
 11
1780.9999996
 21
629.4999852
 31
0.0
  0
LINE
  8
0
  6
LTYPE2
 62
     2
 10
1787.9999996
 20
644.4999852
 30
0.0
 11
1564.9999996
 21
644.4999852
 31
0.0
  0
LINE
  8
0
  6
LTYPE1
 62
     2
 10
1595.9999996
 20
629.4999852
 30
0.0
 11
1560.9999996
 21
629.4999852
 31
0.0
  0
LINE
  8
0
  6
LTYPE1
 62
     2
 10
1595.9999996
 20
659.4999852
 30
0.0
 11
1560.9999996
 21
659.4999852
 31
0.0
  0
LINE
  8
0
  6
LTYPE1
 62
     2
 10
1595.9999996
 20
629.4999852
 30
0.0
 11
1595.9999996
 21
659.4999852
 31
0.0
  0
LINE
  8
0
  6
CONTINUOUS
 62
     1
 10
1560.9999996
 20
609.4999852
 30
0.0
 11
1560.9999996
 21
644.9999852
 31
0.0
  0
ARC
  8
0
  6
CONTINUOUS
 62
     1
 10
1622.9999996
 20
571.9999852
 30
0.0
 40
3.0
 50
90.0
 51
180.0
  0
LINE
  8
0
  6
CONTINUOUS
 62
     1
 10
1619.9999996
 20
525.4999852
 30
0.0
 11
1619.9999996
 21
571.9999852
 31
0.0
  0
ARC
  8
0
  6
CONTINUOUS
 62
     1
 10
1620.9999996
 20
525.4999852
 30
0.0
 40
1.0
 50
180.0
 51
270.0
  0
ARC
  8
0
  6
CONTINUOUS
 62
     1
 10
1623.9999996
 20
524.4999852
 30
0.0
 40
1.0
 50
180.0
 51
270.0
  0
ARC
  8
0
  6
CONTINUOUS
 62
     1
 10
1718.9999996
 20
571.9999852
 30
0.0
 40
3.0
 50
0.0
 51
90.0
  0
LINE
  8
0
  6
CONTINUOUS
 62
     1
 10
1721.9999996
 20
525.4999852
 30
0.0
 11
1721.9999996
 21
571.9999852
 31
0.0
  0
ARC
  8
0
  6
CONTINUOUS
 62
     1
 10
1720.9999996
 20
525.4999852
 30
0.0
 40
1.0
 50
270.0
 51
0.0
  0
ARC
  8
0
  6
CONTINUOUS
 62
     1
 10
1717.9999996
 20
524.4999852
 30
0.0
 40
1.0
 50
270.0
 51
0.0
  0
LINE
  8
0
  6
CONTINUOUS
 62
     1
 10
1721.9999996
 20
530.4999852
 30
0.0
 11
1619.9999996
 21
530.4999852
 31
0.0
  0
LINE
  8
0
  6
CONTINUOUS
 62
     1
 10
1721.9999996
 20
531.9999852
 30
0.0
 11
1619.9999996
 21
531.9999852
 31
0.0
  0
LINE
  8
0
  6
CONTINUOUS
 62
     1
 10
1717.9999996
 20
523.4999852
 30
0.0
 11
1623.9999996
 21
523.4999852
 31
0.0
  0
LINE
  8
0
  6
CONTINUOUS
 62
     1
 10
1720.9999996
 20
524.4999852
 30
0.0
 11
1620.9999996
 21
524.4999852
 31
0.0
  0
LINE
  8
0
  6
LTYPE3
 62
     2
 10
1715.9999996
 20
519.7999852
 30
0.0
 11
1715.9999996
 21
538.4999852
 31
0.0
  0
LINE
  8
0
  6
LTYPE3
 62
     2
 10
1625.9999996
 20
519.7999852
 30
0.0
 11
1625.9999996
 21
538.4999852
 31
0.0
  0
LINE
  8
0
  6
LTYPE3
 62
     3
 10
1670.9999996
 20
518.9999852
 30
0.0
 11
1670.9999996
 21
578.1499852
 31
0.0
  0
CIRCLE
  8
0
  6
CONTINUOUS
 62
     2
 10
1670.9999996
 20
548.9999852
 30
0.0
 40
10.4775
  0
CIRCLE
  8
0
  6
CONTINUOUS
 62
     2
 10
1670.9999996
 20
548.9999852
 30
0.0
 40
9.3155
  0
LINE
  8
0
  6
LTYPE2
 62
     2
 10
1690.8999996
 20
548.9999852
 30
0.0
 11
1650.1999996
 21
548.9999852
 31
0.0
  0
LINE
  8
0
  6
LTYPE2
 62
     2
 10
1748.4999996
 20
584.4999852
 30
0.0
 11
1714.4999996
 21
584.4999852
 31
0.0
  0
LINE
  8
0
  6
LTYPE2
 62
     2
 10
1730.9999996
 20
565.9999852
 30
0.0
 11
1730.9999996
 21
601.9999852
 31
0.0
  0
LINE
  8
0
  6
CONTINUOUS
 62
     1
 10
1742.9999996
 20
564.4999852
 30
0.0
 11
1721.9999996
 21
564.4999852
 31
0.0
  0
ARC
  8
0
  6
CONTINUOUS
 62
     1
 10
1742.9999996
 20
572.4999852
 30
0.0
 40
8.0
 50
270.0
 51
0.0
  0
LINE
  8
0
  6
LTYPE2
 62
     2
 10
1593.4999996
 20
584.4999852
 30
0.0
 11
1627.4999996
 21
584.4999852
 31
0.0
  0
LINE
  8
0
  6
LTYPE2
 62
     2
 10
1610.9999996
 20
565.9999852
 30
0.0
 11
1610.9999996
 21
601.9999852
 31
0.0
  0
LINE
  8
0
  6
CONTINUOUS
 62
     1
 10
1598.9999996
 20
564.4999852
 30
0.0
 11
1619.9999996
 21
564.4999852
 31
0.0
  0
ARC
  8
0
  6
CONTINUOUS
 62
     1
 10
1598.9999996
 20
572.4999852
 30
0.0
 40
8.0
 50
180.0
 51
270.0
  0
LINE
  8
0
  6
LTYPE2
 62
     2
 10
1748.4999996
 20
704.4999852
 30
0.0
 11
1714.4999996
 21
704.4999852
 31
0.0
  0
LINE
  8
0
  6
LTYPE2
 62
     2
 10
1730.9999996
 20
722.9999852
 30
0.0
 11
1730.9999996
 21
686.9999852
 31
0.0
  0
ARC
  8
0
  6
CONTINUOUS
 62
     1
 10
1742.9999996
 20
716.4999852
 30
0.0
 40
8.0
 50
0.0
 51
90.0
  0
LINE
  8
0
  6
CONTINUOUS
 62
     2
 10
1796.9999996
 20
644.4999852
 30
0.0
 11
1841.4999996
 21
644.4999852
 31
0.0
  0
LINE
  8
0
  6
CONTINUOUS
 62
     2
 10
1841.4999996
 20
644.4999852
 30
0.0
 11
1888.4999996
 21
644.4999852
 31
0.0
  0
LINE
  8
0
  6
CONTINUOUS
 62
     2
 10
1879.4999996
 20
644.4999852
 30
0.0
 11
1875.617713923
 21
630.011097806
 31
0.0
  0
LINE
  8
0
  6
CONTINUOUS
 62
     2
 10
1879.4999996
 20
644.4999852
 30
0.0
 11
1883.382285277
 21
630.011097806
 31
0.0
  0
LINE
  8
0
  6
CONTINUOUS
 62
     2
 10
1879.4999996
 20
644.4999852
 30
0.0
 11
1879.4999996
 21
523.4999852
 31
0.0
  0
LINE
  8
0
  6
CONTINUOUS
 62
     2
 10
1879.4999996
 20
523.4999852
 30
0.0
 11
1883.382285277
 21
537.988872594
 31
0.0
  0
LINE
  8
0
  6
CONTINUOUS
 62
     2
 10
1879.4999996
 20
523.4999852
 30
0.0
 11
1875.617713923
 21
537.988872594
 31
0.0
  0
LINE
  8
0
  6
CONTINUOUS
 62
     2
 10
1726.9999996
 20
523.4999852
 30
0.0
 11
1888.4999996
 21
523.4999852
 31
0.0
  0
LINE
  8
0
  6
CONTINUOUS
 62
     2
 10
1551.9999996
 20
629.4999852
 30
0.0
 11
1455.9999996
 21
629.4999852
 31
0.0
  0
LINE
  8
0
  6
CONTINUOUS
 62
     2
 10
1464.9999996
 20
629.4999852
 30
0.0
 11
1461.117713923
 21
615.011097806
 31
0.0
  0
LINE
  8
0
  6
CONTINUOUS
 62
     2
 10
1464.9999996
 20
629.4999852
 30
0.0
 11
1468.882285277
 21
615.011097806
 31
0.0
  0
LINE
  8
0
  6
CONTINUOUS
 62
     2
 10
1464.9999996
 20
659.4999852
 30
0.0
 11
1468.882285277
 21
673.988872594
 31
0.0
  0
LINE
  8
0
  6
CONTINUOUS
 62
     2
 10
1464.9999996
 20
659.4999852
 30
0.0
 11
1461.117713923
 21
673.988872594
 31
0.0
  0
LINE
  8
0
  6
CONTINUOUS
 62
     2
 10
1555.377633236
 20
659.4999852
 30
0.0
 11
1455.9999996
 21
659.4999852
 31
0.0
  0
LINE
  8
0
  6
CONTINUOUS
 62
     2
 10
1560.9999996
 20
600.4999852
 30
0.0
 11
1560.9999996
 21
404.9999852
 31
0.0
  0
LINE
  8
0
  6
CONTINUOUS
 62
     2
 10
1560.9999996
 20
413.9999852
 30
0.0
 11
1575.488886994
 21
410.117699523
 31
0.0
  0
LINE
  8
0
  6
CONTINUOUS
 62
     2
 10
1560.9999996
 20
413.9999852
 30
0.0
 11
1575.488886994
 21
417.882270877
 31
0.0
  0
LINE
  8
0
  6
CONTINUOUS
 62
     2
 10
1560.9999996
 20
413.9999852
 30
0.0
 11
1780.9999996
 21
413.9999852
 31
0.0
  0
LINE
  8
0
  6
CONTINUOUS
 62
     2
 10
1780.9999996
 20
413.9999852
 30
0.0
 11
1766.511112206
 21
417.882270877
 31
0.0
  0
LINE
  8
0
  6
CONTINUOUS
 62
     2
 10
1780.9999996
 20
413.9999852
 30
0.0
 11
1766.511112206
 21
410.117699523
 31
0.0
  0
LINE
  8
0
  6
CONTINUOUS
 62
     2
 10
1780.9999996
 20
600.4999852
 30
0.0
 11
1780.9999996
 21
404.9999852
 31
0.0
  0
LINE
  8
0
  6
CONTINUOUS
 62
     1
 10
1619.9999996
 20
539.4999852
 30
0.0
 11
1571.9999996
 21
539.4999852
 31
0.0
  0
ARC
  8
0
  6
CONTINUOUS
 62
     1
 10
1571.9999996
 20
545.4999852
 30
0.0
 40
6.0
 50
180.0
 51
270.0
  0
LINE
  8
0
  6
CONTINUOUS
 62
     1
 10
1769.9999996
 20
539.4999852
 30
0.0
 11
1721.9999996
 21
539.4999852
 31
0.0
  0
ARC
  8
0
  6
CONTINUOUS
 62
     1
 10
1769.9999996
 20
545.4999852
 30
0.0
 40
6.0
 50
270.0
 51
0.0
  0
LINE
  8
0
  6
CONTINUOUS
 62
     1
 10
1775.9999996
 20
545.4999852
 30
0.0
 11
1775.9999996
 21
607.5999852
 31
0.0
  0
LINE
  8
0
  6
CONTINUOUS
 62
     1
 10
1565.9999996
 20
545.4999852
 30
0.0
 11
1565.9999996
 21
607.0999852
 31
0.0
  0
LINE
  8
0
  6
CONTINUOUS
 62
     1
 10
1590.9999996
 20
572.4999852
 30
0.0
 11
1590.9999996
 21
601.461509427
 31
0.0
  0
LINE
  8
0
  6
CONTINUOUS
 62
     1
 10
1750.9999996
 20
572.4999852
 30
0.0
 11
1750.9999996
 21
601.461509427
 31
0.0
  0
LINE
  8
0
  6
CONTINUOUS
 62
     1
 10
1750.9999996
 20
687.538460973
 30
0.0
 11
1750.9999996
 21
716.4999852
 31
0.0
  0
LINE
  8
0
  6
CONTINUOUS
 62
     1
 10
1775.9999996
 20
680.0999852
 30
0.0
 11
1775.9999996
 21
785.4999852
 31
0.0
  0
LINE
  8
0
  6
CONTINUOUS
 62
     2
 10
1545.9999996
 20
862.4999852
 30
0.0
 11
1545.9999996
 21
1121.9999852
 31
0.0
  0
LINE
  8
0
  6
CONTINUOUS
 62
     2
 10
1545.9999996
 20
1112.9999852
 30
0.0
 11
1560.488886994
 21
1109.117699523
 31
0.0
  0
LINE
  8
0
  6
CONTINUOUS
 62
     2
 10
1545.9999996
 20
1112.9999852
 30
0.0
 11
1560.488886994
 21
1116.882270877
 31
0.0
  0
LINE
  8
0
  6
CONTINUOUS
 62
     2
 10
1545.9999996
 20
1112.9999852
 30
0.0
 11
1795.9999996
 21
1112.9999852
 31
0.0
  0
LINE
  8
0
  6
CONTINUOUS
 62
     2
 10
1795.9999996
 20
1112.9999852
 30
0.0
 11
1781.511112206
 21
1116.882270877
 31
0.0
  0
LINE
  8
0
  6
CONTINUOUS
 62
     2
 10
1795.9999996
 20
1112.9999852
 30
0.0
 11
1781.511112206
 21
1109.117699523
 31
0.0
  0
LINE
  8
0
  6
CONTINUOUS
 62
     2
 10
1795.9999996
 20
862.4999852
 30
0.0
 11
1795.9999996
 21
1121.9999852
 31
0.0
  0
LINE
  8
0
  6
CONTINUOUS
 62
     2
 10
1565.9999996
 20
536.4999852
 30
0.0
 11
1565.9999996
 21
441.0999852
 31
0.0
  0
LINE
  8
0
  6
CONTINUOUS
 62
     2
 10
1565.9999996
 20
450.0999852
 30
0.0
 11
1580.488886994
 21
446.217699523
 31
0.0
  0
LINE
  8
0
  6
CONTINUOUS
 62
     2
 10
1565.9999996
 20
450.0999852
 30
0.0
 11
1580.488886994
 21
453.982270877
 31
0.0
  0
LINE
  8
0
  6
CONTINUOUS
 62
     2
 10
1565.9999996
 20
450.0999852
 30
0.0
 11
1775.9999996
 21
450.0999852
 31
0.0
  0
LINE
  8
0
  6
CONTINUOUS
 62
     2
 10
1775.9999996
 20
450.0999852
 30
0.0
 11
1761.511112206
 21
453.982270877
 31
0.0
  0
LINE
  8
0
  6
CONTINUOUS
 62
     2
 10
1775.9999996
 20
450.0999852
 30
0.0
 11
1761.511112206
 21
446.217699523
 31
0.0
  0
LINE
  8
0
  6
CONTINUOUS
 62
     2
 10
1775.9999996
 20
536.4999852
 30
0.0
 11
1775.9999996
 21
441.0999852
 31
0.0
  0
LINE
  8
0
  6
CONTINUOUS
 62
     2
 10
1838.3999996
 20
644.4999852
 30
0.0
 11
1834.517713923
 21
630.011097806
 31
0.0
  0
LINE
  8
0
  6
CONTINUOUS
 62
     2
 10
1838.3999996
 20
644.4999852
 30
0.0
 11
1842.282285277
 21
630.011097806
 31
0.0
  0
LINE
  8
0
  6
CONTINUOUS
 62
     2
 10
1838.3999996
 20
644.4999852
 30
0.0
 11
1838.3999996
 21
539.4999852
 31
0.0
  0
LINE
  8
0
  6
CONTINUOUS
 62
     2
 10
1838.3999996
 20
539.4999852
 30
0.0
 11
1842.282285277
 21
553.988872594
 31
0.0
  0
LINE
  8
0
  6
CONTINUOUS
 62
     2
 10
1838.3999996
 20
539.4999852
 30
0.0
 11
1834.517713923
 21
553.988872594
 31
0.0
  0
LINE
  8
0
  6
CONTINUOUS
 62
     2
 10
1778.9999996
 20
539.4999852
 30
0.0
 11
1847.3999996
 21
539.4999852
 31
0.0
  0
LINE
  8
0
  6
CONTINUOUS
 62
     2
 10
1838.3999996
 20
644.4999852
 30
0.0
 11
1842.282285277
 21
658.988872594
 31
0.0
  0
LINE
  8
0
  6
CONTINUOUS
 62
     2
 10
1838.3999996
 20
644.4999852
 30
0.0
 11
1834.517713923
 21
658.988872594
 31
0.0
  0
LINE
  8
0
  6
CONTINUOUS
 62
     2
 10
1838.3999996
 20
644.4999852
 30
0.0
 11
1838.3999996
 21
853.4999852
 31
0.0
  0
LINE
  8
0
  6
CONTINUOUS
 62
     2
 10
1838.3999996
 20
853.4999852
 30
0.0
 11
1834.517713923
 21
839.011097806
 31
0.0
  0
LINE
  8
0
  6
CONTINUOUS
 62
     2
 10
1838.3999996
 20
853.4999852
 30
0.0
 11
1842.282285277
 21
839.011097806
 31
0.0
  0
LINE
  8
0
  6
LTYPE4
 62
     2
 10
1535.4999996
 20
853.4999852
 30
0.0
 11
1808.9999996
 21
853.4999852
 31
0.0
  0
LINE
  8
0
  6
CONTINUOUS
 62
     2
 10
1838.3999996
 20
853.4999852
 30
0.0
 11
1842.282285277
 21
867.988872594
 31
0.0
  0
LINE
  8
0
  6
CONTINUOUS
 62
     2
 10
1838.3999996
 20
853.4999852
 30
0.0
 11
1834.517713923
 21
867.988872594
 31
0.0
  0
LINE
  8
0
  6
CONTINUOUS
 62
     2
 10
1879.4999996
 20
644.4999852
 30
0.0
 11
1883.382285277
 21
658.988872594
 31
0.0
  0
LINE
  8
0
  6
CONTINUOUS
 62
     2
 10
1879.4999996
 20
644.4999852
 30
0.0
 11
1875.617713923
 21
658.988872594
 31
0.0
  0
ARC
  8
0
  6
CONTINUOUS
 62
     1
 10
1670.9999996
 20
853.4999852
 30
0.0
 40
125.0
 50
280.557968545
 51
0.0
  0
ARC
  8
0
  6
CONTINUOUS
 62
     1
 10
1707.9999996
 20
1037.205677717
 30
0.0
 40
3.0
 50
0.0
 51
90.0
  0
ARC
  8
0
  6
CONTINUOUS
 62
     1
 10
1714.9999996
 20
1040.205677717
 30
0.0
 40
6.0
 50
0.0
 51
90.0
  0
ARC
  8
0
  6
CONTINUOUS
 62
     1
 10
1714.9999996
 20
1044.4999852
 30
0.0
 40
6.0
 50
0.0
 51
90.0
  0
LINE
  8
0
  6
CONTINUOUS
 62
     1
 10
1714.9999996
 20
1050.4999852
 30
0.0
 11
1670.9999996
 21
1050.4999852
 31
0.0
  0
LINE
  8
0
  6
CONTINUOUS
 62
     1
 10
1670.9999996
 20
1046.205677717
 30
0.0
 11
1714.9999996
 21
1046.205677717
 31
0.0
  0
LINE
  8
0
  6
CONTINUOUS
 62
     1
 10
1670.9999996
 20
1040.205677717
 30
0.0
 11
1707.9999996
 21
1040.205677717
 31
0.0
  0
ARC
  8
0
  6
CONTINUOUS
 62
     1
 10
1633.9999996
 20
1037.205677717
 30
0.0
 40
3.0
 50
90.0
 51
180.0
  0
ARC
  8
0
  6
CONTINUOUS
 62
     1
 10
1626.9999996
 20
1040.205677717
 30
0.0
 40
6.0
 50
90.0
 51
180.0
  0
ARC
  8
0
  6
CONTINUOUS
 62
     1
 10
1626.9999996
 20
1044.4999852
 30
0.0
 40
6.0
 50
90.0
 51
180.0
  0
LINE
  8
0
  6
CONTINUOUS
 62
     1
 10
1626.9999996
 20
1050.4999852
 30
0.0
 11
1670.9999996
 21
1050.4999852
 31
0.0
  0
LINE
  8
0
  6
CONTINUOUS
 62
     1
 10
1670.9999996
 20
1046.205677717
 30
0.0
 11
1626.9999996
 21
1046.205677717
 31
0.0
  0
LINE
  8
0
  6
CONTINUOUS
 62
     1
 10
1670.9999996
 20
1040.205677717
 30
0.0
 11
1633.9999996
 21
1040.205677717
 31
0.0
  0
CIRCLE
  8
0
  6
CONTINUOUS
 62
     1
 10
1670.9999996
 20
853.4999852
 30
0.0
 40
20.0
  0
ARC
  8
0
  6
CONTINUOUS
 62
     1
 10
1585.9999996
 20
853.4999852
 30
0.0
 40
20.0
 50
90.0
 51
270.0
  0
ARC
  8
0
  6
CONTINUOUS
 62
     1
 10
1713.4999996
 20
779.887825878
 30
0.0
 40
20.0
 50
210.0
 51
30.0
  0
ARC
  8
0
  6
CONTINUOUS
 62
     1
 10
1713.4999996
 20
927.112144522
 30
0.0
 40
20.0
 50
330.0
 51
150.0
  0
LINE
  8
0
  6
CONTINUOUS
 62
     1
 10
1585.9999996
 20
873.4999852
 30
0.0
 11
1659.452994216
 21
873.4999852
 31
0.0
  0
LINE
  8
0
  6
CONTINUOUS
 62
     1
 10
1696.179491524
 20
937.112144522
 30
0.0
 11
1659.452994216
 21
873.4999852
 31
0.0
  0
LINE
  8
0
  6
CONTINUOUS
 62
     1
 10
1585.9999996
 20
833.4999852
 30
0.0
 11
1659.452994216
 21
833.4999852
 31
0.0
  0
LINE
  8
0
  6
CONTINUOUS
 62
     1
 10
1696.179491524
 20
769.887825878
 30
0.0
 11
1659.452994216
 21
833.4999852
 31
0.0
  0
CIRCLE
  8
0
  6
CONTINUOUS
 62
     1
 10
1730.9999996
 20
853.4999852
 30
0.0
 40
10.0
  0
LINE
  8
0
  6
CONTINUOUS
 62
     2
 10
1730.9999996
 20
868.4999852
 30
0.0
 11
1730.9999996
 21
838.4999852
 31
0.0
  0
LINE
  8
0
  6
CONTINUOUS
 62
     1
 10
1674.333332933
 20
833.779719256
 30
0.0
 11
1732.666666267
 21
843.639852228
 31
0.0
  0
LINE
  8
0
  6
CONTINUOUS
 62
     1
 10
1674.333332933
 20
873.220251144
 30
0.0
 11
1732.666666267
 21
863.360118172
 31
0.0
  0
LINE
  8
0
  6
CONTINUOUS
 62
     1
 10
1730.820507676
 20
917.112144522
 30
0.0
 11
1702.710211438
 21
868.423683223
 31
0.0
  0
LINE
  8
0
  6
CONTINUOUS
 62
     1
 10
1730.820507676
 20
789.887825878
 30
0.0
 11
1702.710211438
 21
838.576287177
 31
0.0
  0
ARC
  8
0
  6
CONTINUOUS
 62
     1
 10
1747.013978578
 20
929.513964178
 30
0.0
 40
7.75
 50
294.214141675
 51
155.785858325
  0
LINE
  8
0
  6
CONTINUOUS
 62
     2
 10
1740.9999996
 20
923.4999852
 30
0.0
 11
1753.945832012
 21
936.445817612
 31
0.0
  0
ARC
  8
0
  6
CONTINUOUS
 62
     2
 10
1670.9999996
 20
853.4999852
 30
0.0
 40
107.5
 50
38.280925788
 51
51.325228591
  0
ARC
  8
0
  6
CONTINUOUS
 62
     1
 10
1747.013978578
 20
777.486006222
 30
0.0
 40
7.75
 50
204.214141675
 51
65.785858325
  0
LINE
  8
0
  6
CONTINUOUS
 62
     2
 10
1740.9999996
 20
783.4999852
 30
0.0
 11
1753.945832012
 21
770.554152788
 31
0.0
  0
ARC
  8
0
  6
CONTINUOUS
 62
     2
 10
1670.9999996
 20
853.4999852
 30
0.0
 40
107.5
 50
308.674771409
 51
321.719074212
  0
ARC
  8
0
  6
CONTINUOUS
 62
     1
 10
1594.986020622
 20
929.513964178
 30
0.0
 40
7.75
 50
24.214141675
 51
245.785858325
  0
LINE
  8
0
  6
CONTINUOUS
 62
     2
 10
1600.9999996
 20
923.4999852
 30
0.0
 11
1588.054167188
 21
936.445817612
 31
0.0
  0
ARC
  8
0
  6
CONTINUOUS
 62
     2
 10
1670.9999996
 20
853.4999852
 30
0.0
 40
107.5
 50
128.674771409
 51
141.719074212
  0
ARC
  8
0
  6
CONTINUOUS
 62
     1
 10
1594.986020622
 20
777.486006222
 30
0.0
 40
7.75
 50
114.214141675
 51
335.785858325
  0
LINE
  8
0
  6
CONTINUOUS
 62
     2
 10
1600.9999996
 20
783.4999852
 30
0.0
 11
1588.054167188
 21
770.554152788
 31
0.0
  0
ARC
  8
0
  6
CONTINUOUS
 62
     2
 10
1670.9999996
 20
853.4999852
 30
0.0
 40
107.5
 50
218.280925788
 51
231.325228591
  0
ARC
  8
0
  6
CONTINUOUS
 62
     1
 10
1670.9999996
 20
853.4999852
 30
0.0
 40
105.0
 50
272.980462591
 51
0.0
  0
ARC
  8
0
  6
CONTINUOUS
 62
     1
 10
1670.9999996
 20
853.4999852
 30
0.0
 40
105.0
 50
0.0
 51
226.520053773
  0
ARC
  8
0
  6
CONTINUOUS
 62
     1
 10
1707.9999996
 20
975.1999852
 30
0.0
 40
3.0
 50
270.0
 51
0.0
  0
ARC
  8
0
  6
CONTINUOUS
 62
     1
 10
1714.9999996
 20
981.1999852
 30
0.0
 40
6.0
 50
270.0
 51
0.0
  0
LINE
  8
0
  6
CONTINUOUS
 62
     1
 10
1710.9999996
 20
975.1999852
 30
0.0
 11
1714.9999996
 21
975.1999852
 31
0.0
  0
LINE
  8
0
  6
CONTINUOUS
 62
     1
 10
1670.9999996
 20
972.1999852
 30
0.0
 11
1707.9999996
 21
972.1999852
 31
0.0
  0
ARC
  8
0
  6
CONTINUOUS
 62
     1
 10
1633.9999996
 20
975.1999852
 30
0.0
 40
3.0
 50
180.0
 51
270.0
  0
ARC
  8
0
  6
CONTINUOUS
 62
     1
 10
1626.9999996
 20
981.1999852
 30
0.0
 40
6.0
 50
180.0
 51
270.0
  0
LINE
  8
0
  6
CONTINUOUS
 62
     1
 10
1630.9999996
 20
975.1999852
 30
0.0
 11
1626.9999996
 21
975.1999852
 31
0.0
  0
LINE
  8
0
  6
CONTINUOUS
 62
     1
 10
1670.9999996
 20
972.1999852
 30
0.0
 11
1633.9999996
 21
972.1999852
 31
0.0
  0
LINE
  8
0
  6
CONTINUOUS
 62
     1
 10
1690.9999996
 20
956.57762584
 30
0.0
 11
1690.9999996
 21
972.1999852
 31
0.0
  0
LINE
  8
0
  6
CONTINUOUS
 62
     1
 10
1650.9999996
 20
956.57762584
 30
0.0
 11
1650.9999996
 21
972.1999852
 31
0.0
  0
ARC
  8
0
  6
CONTINUOUS
 62
     1
 10
1670.9999996
 20
853.4999852
 30
0.0
 40
125.0
 50
0.0
 51
69.402826706
  0
LINE
  8
0
  6
CONTINUOUS
 62
     1
 10
1720.9999996
 20
981.1999852
 30
0.0
 11
1720.9999996
 21
1044.4999852
 31
0.0
  0
LINE
  8
0
  6
CONTINUOUS
 62
     1
 10
1710.9999996
 20
975.6999852
 30
0.0
 11
1710.9999996
 21
1037.205677717
 31
0.0
  0
LINE
  8
0
  6
CONTINUOUS
 62
     1
 10
1630.9999996
 20
975.6999852
 30
0.0
 11
1630.9999996
 21
1037.205677717
 31
0.0
  0
LINE
  8
0
  6
CONTINUOUS
 62
     1
 10
1620.9999996
 20
981.6999852
 30
0.0
 11
1620.9999996
 21
1044.4999852
 31
0.0
  0
CIRCLE
  8
0
  6
CONTINUOUS
 62
     1
 10
1670.9999996
 20
1003.4999852
 30
0.0
 40
20.0
  0
CIRCLE
  8
0
  6
CONTINUOUS
 62
     2
 10
1670.9999996
 20
1003.4999852
 30
0.0
 40
13.5
  0
CIRCLE
  8
0
  6
CONTINUOUS
 62
     2
 10
1670.9999996
 20
1003.4999852
 30
0.0
 40
15.0
  0
LINE
  8
0
  6
LTYPE3
 62
     2
 10
1640.4999996
 20
1003.4999852
 30
0.0
 11
1699.9999996
 21
1003.4999852
 31
0.0
  0
LINE
  8
0
  6
LTYPE4
 62
     2
 10
1670.9999996
 20
714.9999852
 30
0.0
 11
1670.9999996
 21
1064.9999852
 31
0.0
  0
LINE
  8
0
  6
CONTINUOUS
 62
     2
 10
1812.4999996
 20
853.4999852
 30
0.0
 11
1847.3999996
 21
853.4999852
 31
0.0
  0
LINE
  8
0
  6
CONTINUOUS
 62
     2
 10
1838.3999996
 20
1050.4999852
 30
0.0
 11
1834.517713923
 21
1036.011097806
 31
0.0
  0
LINE
  8
0
  6
CONTINUOUS
 62
     2
 10
1838.3999996
 20
1050.4999852
 30
0.0
 11
1842.282285277
 21
1036.011097806
 31
0.0
  0
LINE
  8
0
  6
CONTINUOUS
 62
     2
 10
1879.4999996
 20
1050.4999852
 30
0.0
 11
1875.617713923
 21
1036.011097806
 31
0.0
  0
LINE
  8
0
  6
CONTINUOUS
 62
     2
 10
1879.4999996
 20
1050.4999852
 30
0.0
 11
1883.382285277
 21
1036.011097806
 31
0.0
  0
LINE
  8
0
  6
CONTINUOUS
 62
     2
 10
1875.207952493
 20
1050.4999852
 30
0.0
 11
1870.4999996
 21
1050.4999852
 31
0.0
  0
LINE
  8
0
  6
CONTINUOUS
 62
     2
 10
1723.9999996
 20
1050.4999852
 30
0.0
 11
1885.7999996
 21
1050.4999852
 31
0.0
  0
LINE
  8
0
  6
CONTINUOUS
 62
     2
 10
1838.3999996
 20
853.4999852
 30
0.0
 11
1838.3999996
 21
1050.4999852
 31
0.0
  0
LINE
  8
0
  6
CONTINUOUS
 62
     2
 10
1879.4999996
 20
644.4999852
 30
0.0
 11
1879.4999996
 21
1050.4999852
 31
0.0
  0
CIRCLE
  8
0
  6
CONTINUOUS
 62
     1
 10
1670.9999996
 20
868.4999852
 30
0.0
 40
4.0
  0
CIRCLE
  8
0
  6
CONTINUOUS
 62
     1
 10
1670.9999996
 20
853.4999852
 30
0.0
 40
4.0
  0
CIRCLE
  8
0
  6
CONTINUOUS
 62
     1
 10
1655.9999996
 20
853.4999852
 30
0.0
 40
4.0
  0
CIRCLE
  8
0
  6
CONTINUOUS
 62
     1
 10
1670.9999996
 20
838.4999852
 30
0.0
 40
4.0
  0
CIRCLE
  8
0
  6
CONTINUOUS
 62
     1
 10
1685.9999996
 20
853.4999852
 30
0.0
 40
4.0
  0
LINE
  8
0
  6
CONTINUOUS
 62
     1
 10
1560.9999996
 20
644.9999852
 30
0.0
 11
1560.9999996
 21
679.4999852
 31
0.0
  0
LINE
  8
0
  6
LTYPE2
 62
     2
 10
1670.9999996
 20
600.8999852
 30
0.0
 11
1670.9999996
 21
707.208413757
 31
0.0
  0
LINE
  8
0
  6
LTYPE2
 62
     2
 10
1593.4999996
 20
704.4999852
 30
0.0
 11
1627.4999996
 21
704.4999852
 31
0.0
  0
LINE
  8
0
  6
LTYPE2
 62
     2
 10
1610.9999996
 20
722.9999852
 30
0.0
 11
1610.9999996
 21
686.9999852
 31
0.0
  0
ARC
  8
0
  6
CONTINUOUS
 62
     1
 10
1598.9999996
 20
716.4999852
 30
0.0
 40
8.0
 50
90.0
 51
180.0
  0
LINE
  8
0
  6
CONTINUOUS
 62
     1
 10
1590.9999996
 20
687.538460973
 30
0.0
 11
1590.9999996
 21
716.4999852
 31
0.0
  0
LINE
  8
0
  6
CONTINUOUS
 62
     1
 10
1598.9999996
 20
724.4999852
 30
0.0
 11
1670.9999996
 21
724.4999852
 31
0.0
  0
LINE
  8
0
  6
CONTINUOUS
 62
     1
 10
1742.9999996
 20
724.4999852
 30
0.0
 11
1670.9999996
 21
724.4999852
 31
0.0
  0
LINE
  8
0
  6
CONTINUOUS
 62
     1
 10
1565.9999996
 20
680.839731162
 30
0.0
 11
1565.9999996
 21
785.4999852
 31
0.0
  0
ARC
  8
0
  6
CONTINUOUS
 62
     1
 10
1670.9999996
 20
853.4999852
 30
0.0
 40
125.0
 50
110.088264208
 51
280.557968545
  0
ARC
  8
0
  6
CONTINUOUS
 62
     1
 10
1670.9999996
 20
853.4999852
 30
0.0
 40
105.0
 50
226.520053773
 51
272.980462591
  0
CIRCLE
  8
0
  6
CONTINUOUS
 62
     1
 10
1670.9999996
 20
644.4999852
 30
0.0
 40
57.0
  0
CIRCLE
  8
0
  6
CONTINUOUS
 62
     1
 10
1610.9999996
 20
704.4999852
 30
0.0
 40
12.0
  0
CIRCLE
  8
0
  6
CONTINUOUS
 62
     1
 10
1730.9999996
 20
704.4999852
 30
0.0
 40
12.0
  0
CIRCLE
  8
0
  6
CONTINUOUS
 62
     1
 10
1730.9999996
 20
584.4999852
 30
0.0
 40
12.0
  0
CIRCLE
  8
0
  6
CONTINUOUS
 62
     1
 10
1610.9999996
 20
584.4999852
 30
0.0
 40
12.0
  0
LINE
  8
0
  6
CONTINUOUS
 62
     1
 10
1670.9999996
 20
574.9999852
 30
0.0
 11
1718.9999996
 21
574.9999852
 31
0.0
  0
LINE
  8
0
  6
CONTINUOUS
 62
     1
 10
1622.9999996
 20
574.9999852
 30
0.0
 11
1670.9999996
 21
574.9999852
 31
0.0
  0
LINE
  8
0
  6
CONTINUOUS
 62
     1
 10
1626.4999996
 20
576.4999852
 30
0.0
 11
1716.9999996
 21
576.4999852
 31
0.0
  0
LINE
  8
0
  6
CONTINUOUS
 62
     1
 10
1560.9999996
 20
679.4999852
 30
0.0
 11
1621.4999996
 21
695.710911342
 31
0.0
  0
LINE
  8
0
  6
CONTINUOUS
 62
     1
 10
1560.9999996
 20
609.4999852
 30
0.0
 11
1622.4999996
 21
593.021109865
 31
0.0
  0
LINE
  8
0
  6
CONTINUOUS
 62
     1
 10
1780.9999996
 20
609.4999852
 30
0.0
 11
1712.9999996
 21
591.279440115
 31
0.0
  0
LINE
  8
0
  6
CONTINUOUS
 62
     1
 10
1780.9999996
 20
679.4999852
 30
0.0
 11
1713.4999996
 21
697.586555689
 31
0.0
  0
LINE
  8
0
  6
CONTINUOUS
 62
     1
 10
1665.9999996
 20
707.9999852
 30
0.0
 11
1675.9999996
 21
707.9999852
 31
0.0
  0
LINE
  8
0
  6
CONTINUOUS
 62
     1
 10
1665.9999996
 20
707.9999852
 30
0.0
 11
1665.9999996
 21
711.814545289
 31
0.0
  0
LINE
  8
0
  6
CONTINUOUS
 62
     1
 10
1675.9999996
 20
707.9999852
 30
0.0
 11
1675.9999996
 21
711.814545289
 31
0.0
  0
LINE
  8
0
  6
CONTINUOUS
 62
     1
 10
1607.4999996
 20
639.4999852
 30
0.0
 11
1607.4999996
 21
649.4999852
 31
0.0
  0
LINE
  8
0
  6
CONTINUOUS
 62
     1
 10
1607.4999996
 20
639.4999852
 30
0.0
 11
1603.685439511
 21
639.4999852
 31
0.0
  0
LINE
  8
0
  6
CONTINUOUS
 62
     1
 10
1607.4999996
 20
649.4999852
 30
0.0
 11
1603.685439511
 21
649.4999852
 31
0.0
  0
LINE
  8
0
  6
CONTINUOUS
 62
     1
 10
1675.9999996
 20
580.9999852
 30
0.0
 11
1665.9999996
 21
580.9999852
 31
0.0
  0
LINE
  8
0
  6
CONTINUOUS
 62
     1
 10
1675.9999996
 20
580.9999852
 30
0.0
 11
1675.9999996
 21
577.185425111
 31
0.0
  0
LINE
  8
0
  6
CONTINUOUS
 62
     1
 10
1665.9999996
 20
580.9999852
 30
0.0
 11
1665.9999996
 21
577.185425111
 31
0.0
  0
LINE
  8
0
  6
CONTINUOUS
 62
     1
 10
1734.4999996
 20
649.4999852
 30
0.0
 11
1734.4999996
 21
639.4999852
 31
0.0
  0
LINE
  8
0
  6
CONTINUOUS
 62
     1
 10
1734.4999996
 20
649.4999852
 30
0.0
 11
1738.314559689
 21
649.4999852
 31
0.0
  0
LINE
  8
0
  6
CONTINUOUS
 62
     1
 10
1734.4999996
 20
639.4999852
 30
0.0
 11
1738.314559689
 21
639.4999852
 31
0.0
  0
ARC
  8
0
  6
CONTINUOUS
 62
     1
 10
1670.9999996
 20
644.4999852
 30
0.0
 40
67.5
 50
4.248022667
 51
85.751977333
  0
ARC
  8
0
  6
CONTINUOUS
 62
     1
 10
1670.9999996
 20
644.4999852
 30
0.0
 40
67.5
 50
274.205357002
 51
355.751977333
  0
ARC
  8
0
  6
CONTINUOUS
 62
     1
 10
1670.9999996
 20
644.4999852
 30
0.0
 40
67.5
 50
184.248022667
 51
265.794642998
  0
ARC
  8
0
  6
CONTINUOUS
 62
     1
 10
1670.9999996
 20
644.4999852
 30
0.0
 40
67.5
 50
94.248022667
 51
175.751977333
  0
TEXT
  8
0
  6
CONTINUOUS
 62
     2
 10
1270.208333333
 20
1688.03024
 30
1.12
 40
16.8
  1
ＭＣＬＦ４－　　２
 50
0.0
 41
0.833333333
 51
0.0
  7
KANJI49
  0
TEXT
  8
0
  6
CONTINUOUS
 62
     2
 10
1270.208333333
 20
1651.163573333
 30
1.12
 40
16.8
  1
ＭＣＬＦ４－　　３
 50
0.0
 41
0.833333333
 51
0.0
  7
KANJI49
  0
TEXT
  8
0
  6
CONTINUOUS
 62
     2
 10
1270.208333333
 20
1614.296906667
 30
1.12
 40
16.8
  1
ＭＣＬＦ４－　　４
 50
0.0
 41
0.833333333
 51
0.0
  7
KANJI49
  0
TEXT
  8
0
  6
CONTINUOUS
 62
     2
 10
1270.208333333
 20
1577.43024
 30
1.12
 40
16.8
  1
ＭＣＬＦ４－　　５
 50
0.0
 41
0.833333333
 51
0.0
  7
KANJI49
  0
TEXT
  8
0
  6
CONTINUOUS
 62
     2
 10
1270.208333333
 20
1540.563573333
 30
1.12
 40
16.8
  1
ＭＣＬＦ４－　　６
 50
0.0
 41
0.833333333
 51
0.0
  7
KANJI49
  0
TEXT
  8
0
  6
CONTINUOUS
 62
     2
 10
1270.208333333
 20
1503.696906667
 30
1.12
 40
16.8
  1
ＭＣＬＦ４－　　７
 50
0.0
 41
0.833333333
 51
0.0
  7
KANJI49
  0
TEXT
  8
0
  6
CONTINUOUS
 62
     2
 10
1270.208333333
 20
1466.83024
 30
1.12
 40
16.8
  1
ＭＣＬＦ４－　　８
 50
0.0
 41
0.833333333
 51
0.0
  7
KANJI49
  0
TEXT
  8
0
  6
CONTINUOUS
 62
     2
 10
1270.208333333
 20
1429.963573333
 30
1.12
 40
16.8
  1
ＭＣＬＦ４－　　９
 50
0.0
 41
0.833333333
 51
0.0
  7
KANJI49
  0
TEXT
  8
0
  6
CONTINUOUS
 62
     2
 10
1270.208333333
 20
1393.096906667
 30
1.12
 40
16.8
  1
ＭＣＬＦ４－　１０
 50
0.0
 41
0.833333333
 51
0.0
  7
KANJI49
  0
TEXT
  8
0
  6
CONTINUOUS
 62
     2
 10
1270.208333333
 20
1356.23024
 30
1.12
 40
16.8
  1
ＭＣＬＦ４－　１１
 50
0.0
 41
0.833333333
 51
0.0
  7
KANJI49
  0
TEXT
  8
0
  6
CONTINUOUS
 62
     2
 10
1270.208333333
 20
1319.363573333
 30
1.12
 40
16.8
  1
ＭＣＬＦ４－　１２
 50
0.0
 41
0.833333333
 51
0.0
  7
KANJI49
  0
TEXT
  8
0
  6
CONTINUOUS
 62
     2
 10
1270.208333333
 20
1282.496906667
 30
1.12
 40
16.8
  1
ＭＣＬＦ４－　１３
 50
0.0
 41
0.833333333
 51
0.0
  7
KANJI49
  0
TEXT
  8
0
  6
CONTINUOUS
 62
     2
 10
1270.208333333
 20
1245.63024
 30
1.12
 40
16.8
  1
ＭＣＬＦ４－　１４
 50
0.0
 41
0.833333333
 51
0.0
  7
KANJI49
  0
TEXT
  8
0
  6
CONTINUOUS
 62
     2
 10
1270.208333333
 20
1208.763573333
 30
1.12
 40
16.8
  1
ＭＣＬＦ４－　１５
 50
0.0
 41
0.833333333
 51
0.0
  7
KANJI49
  0
TEXT
  8
0
  6
CONTINUOUS
 62
     2
 10
1270.208333333
 20
1171.896906667
 30
1.12
 40
16.8
  1
ＭＣＬＦ４－　　
 50
0.0
 41
0.833333333
 51
0.0
  7
KANJI49
  0
TEXT
  8
0
  6
CONTINUOUS
 62
     2
 10
1663.231693333
 20
1873.433303333
 30
1.499994
 40
14.99994
  1
　９．０
 50
0.0
 41
0.9
 51
0.0
  7
KANJI18
  0
TEXT
  8
0
  6
CONTINUOUS
 62
     2
 10
1738.231393333
 20
1873.433303333
 30
1.499994
 40
14.99994
  1
６１．１
 50
0.0
 41
0.9
 51
0.0
  7
KANJI18
  0
TEXT
  8
0
  6
CONTINUOUS
 62
     2
 10
1663.231693333
 20
1843.433423333
 30
1.499994
 40
14.99994
  1
　８．５
 50
0.0
 41
0.9
 51
0.0
  7
KANJI18
  0
TEXT
  8
0
  6
CONTINUOUS
 62
     2
 10
1737.689756667
 20
1841.141760833
 30
1.499994
 40
14.99994
  1
５３．４
 50
0.0
 41
0.9
 51
0.0
  7
KANJI18
  0
TEXT
  8
0
  6
CONTINUOUS
 62
     2
 10
1663.231693333
 20
1813.433543333
 30
1.499994
 40
14.99994
  1
　７．９
 50
0.0
 41
0.9
 51
0.0
  7
KANJI18
  0
TEXT
  8
0
  6
CONTINUOUS
 62
     2
 10
1738.939751667
 20
1812.808540833
 30
1.499994
 40
14.99994
  1
５８．７
 50
0.0
 41
0.9
 51
0.0
  7
KANJI18
  0
TEXT
  8
0
  6
CONTINUOUS
 62
     2
 10
1363.232893333
 20
1873.433303333
 30
1.499994
 40
14.99994
  1
　４．５
 50
0.0
 41
0.9
 51
0.0
  7
KANJI18
  0
TEXT
  8
0
  6
CONTINUOUS
 62
     2
 10
1438.232593333
 20
1873.433303333
 30
1.499994
 40
14.99994
  1
３０．０
 50
0.0
 41
0.9
 51
0.0
  7
KANJI18
  0
TEXT
  8
0
  6
CONTINUOUS
 62
     2
 10
1363.232893333
 20
1843.433423333
 30
1.499994
 40
14.99994
  1
　４．２
 50
0.0
 41
0.9
 51
0.0
  7
KANJI18
  0
TEXT
  8
0
  6
CONTINUOUS
 62
     2
 10
1438.232593333
 20
1843.433423333
 30
1.499994
 40
14.99994
  1
２６．０
 50
0.0
 41
0.9
 51
0.0
  7
KANJI18
  0
TEXT
  8
0
  6
CONTINUOUS
 62
     2
 10
1363.232893333
 20
1813.433543333
 30
1.499994
 40
14.99994
  1
　４．０
 50
0.0
 41
0.9
 51
0.0
  7
KANJI18
  0
TEXT
  8
0
  6
CONTINUOUS
 62
     2
 10
1438.232593333
 20
1813.433543333
 30
1.499994
 40
14.99994
  1
２９．０
 50
0.0
 41
0.9
 51
0.0
  7
KANJI18
  0
TEXT
  8
0
  6
CONTINUOUS
 62
     2
 10
1983.930561433
 20
551.027337533
 30
7.182
 40
25.2
  1
　　前後の推奨余裕寸法は、各々２０ｍｍです。
 50
0.0
 41
0.857222222
 51
0.0
  7
KANJI27
  0
CIRCLE
  8
0
  6
CONTINUOUS
 62
     1
 10
1221.4999996
 20
644.4999852
 30
0.0
 40
15.0
  0
CIRCLE
  8
0
  6
CONTINUOUS
 62
     1
 10
1221.4999996
 20
644.4999852
 30
0.0
 40
28.0
  0
CIRCLE
  8
0
  6
CONTINUOUS
 62
     1
 10
1221.4999996
 20
661.9999852
 30
0.0
 40
2.5
  0
LINE
  8
0
  6
CONTINUOUS
 62
     1
 10
1225.6999996
 20
625.1999852
 30
0.0
 11
1223.6999996
 21
624.8999852
 31
0.0
  0
LINE
  8
0
  6
CONTINUOUS
 62
     1
 10
1223.435384215
 20
628.030754431
 30
0.0
 11
1225.6999996
 21
625.1999852
 31
0.0
  0
LINE
  8
0
  6
CONTINUOUS
 62
     1
 10
1221.4999996
 20
627.5999852
 30
0.0
 11
1223.6999996
 21
624.8999852
 31
0.0
  0
LINE
  8
0
  6
CONTINUOUS
 62
     1
 10
1223.1999996
 20
629.5999852
 30
0.0
 11
1223.435384215
 21
628.030754431
 31
0.0
  0
LINE
  8
0
  6
CONTINUOUS
 62
     1
 10
1221.4999996
 20
627.5999852
 30
0.0
 11
1219.2999996
 21
624.8999852
 31
0.0
  0
LINE
  8
0
  6
CONTINUOUS
 62
     1
 10
1219.7999996
 20
629.5999852
 30
0.0
 11
1219.564614985
 21
628.030754431
 31
0.0
  0
LINE
  8
0
  6
CONTINUOUS
 62
     1
 10
1217.2999996
 20
625.1999852
 30
0.0
 11
1219.2999996
 21
624.8999852
 31
0.0
  0
LINE
  8
0
  6
CONTINUOUS
 62
     1
 10
1219.564614985
 20
628.030754431
 30
0.0
 11
1217.2999996
 21
625.1999852
 31
0.0
  0
TEXT
  8
0
  6
CONTINUOUS
 62
     2
 10
2072.408333333
 20
1688.45024
 30
1.68
 40
16.8
  1
１３８
 50
0.0
 41
0.9
 51
0.0
  7
KANJI30
  0
TEXT
  8
0
  6
CONTINUOUS
 62
     2
 10
2072.408333333
 20
1651.583573333
 30
1.68
 40
16.8
  1
１４２
 50
0.0
 41
0.9
 51
0.0
  7
KANJI30
  0
TEXT
  8
0
  6
CONTINUOUS
 62
     2
 10
2072.408333333
 20
1614.716906667
 30
1.68
 40
16.8
  1
１４６
 50
0.0
 41
0.9
 51
0.0
  7
KANJI30
  0
TEXT
  8
0
  6
CONTINUOUS
 62
     2
 10
2072.408333333
 20
1577.85024
 30
1.68
 40
16.8
  1
１５０
 50
0.0
 41
0.9
 51
0.0
  7
KANJI30
  0
TEXT
  8
0
  6
CONTINUOUS
 62
     2
 10
2072.408333333
 20
1540.983573333
 30
1.68
 40
16.8
  1
１５５
 50
0.0
 41
0.9
 51
0.0
  7
KANJI30
  0
TEXT
  8
0
  6
CONTINUOUS
 62
     2
 10
2072.408333333
 20
1504.116906667
 30
1.68
 40
16.8
  1
１６０
 50
0.0
 41
0.9
 51
0.0
  7
KANJI30
  0
TEXT
  8
0
  6
CONTINUOUS
 62
     2
 10
2072.408333333
 20
1467.25024
 30
1.68
 40
16.8
  1
１６４
 50
0.0
 41
0.9
 51
0.0
  7
KANJI30
  0
TEXT
  8
0
  6
CONTINUOUS
 62
     2
 10
2072.408333333
 20
1430.383573333
 30
1.68
 40
16.8
  1
１６８
 50
0.0
 41
0.9
 51
0.0
  7
KANJI30
  0
TEXT
  8
0
  6
CONTINUOUS
 62
     2
 10
2072.408333333
 20
1393.516906667
 30
1.68
 40
16.8
  1
１７３
 50
0.0
 41
0.9
 51
0.0
  7
KANJI30
  0
TEXT
  8
0
  6
CONTINUOUS
 62
     2
 10
2072.408333333
 20
1356.65024
 30
1.68
 40
16.8
  1
１７７
 50
0.0
 41
0.9
 51
0.0
  7
KANJI30
  0
TEXT
  8
0
  6
CONTINUOUS
 62
     2
 10
2072.408333333
 20
1319.783573333
 30
1.68
 40
16.8
  1
１８１
 50
0.0
 41
0.9
 51
0.0
  7
KANJI30
  0
TEXT
  8
0
  6
CONTINUOUS
 62
     2
 10
2072.408333333
 20
1282.916906667
 30
1.68
 40
16.8
  1
１８５
 50
0.0
 41
0.9
 51
0.0
  7
KANJI30
  0
TEXT
  8
0
  6
CONTINUOUS
 62
     2
 10
2072.408333333
 20
1246.05024
 30
1.68
 40
16.8
  1
１８９
 50
0.0
 41
0.9
 51
0.0
  7
KANJI30
  0
TEXT
  8
0
  6
CONTINUOUS
 62
     2
 10
2072.408333333
 20
1209.183573333
 30
1.68
 40
16.8
  1
１９４
 50
0.0
 41
0.9
 51
0.0
  7
KANJI30
  0
LINE
  8
0
  6
CONTINUOUS
 62
     1
 10
1631.2999996
 20
523.4999852
 30
0.0
 11
1620.6999996
 21
523.4999852
 31
0.0
  0
ARC
  8
0
  6
CONTINUOUS
 62
     1
 10
1625.5999996
 20
524.4999852
 30
0.0
 40
5.0
 50
191.5
 51
267.7
  0
ARC
  8
0
  6
CONTINUOUS
 62
     1
 10
1626.3999996
 20
524.4999852
 30
0.0
 40
5.0
 50
272.3
 51
348.5
  0
LINE
  8
0
  6
CONTINUOUS
 62
     1
 10
1626.5999996
 20
519.4999852
 30
0.0
 11
1625.3999996
 21
519.4999852
 31
0.0
  0
ARC
  8
0
  6
CONTINUOUS
 62
     1
 10
1716.3999996
 20
524.4999852
 30
0.0
 40
5.0
 50
272.3
 51
348.5
  0
ARC
  8
0
  6
CONTINUOUS
 62
     1
 10
1715.5999996
 20
524.4999852
 30
0.0
 40
5.0
 50
191.5
 51
267.7
  0
LINE
  8
0
  6
CONTINUOUS
 62
     1
 10
1716.5999996
 20
519.4999852
 30
0.0
 11
1715.3999996
 21
519.4999852
 31
0.0
  0
LINE
  8
0
  6
CONTINUOUS
 62
     1
 10
1721.2999996
 20
523.4999852
 30
0.0
 11
1710.6999996
 21
523.4999852
 31
0.0
  0
ARC
  8
0
  6
CONTINUOUS
 62
     1
 10
591.58
 20
524.4999852
 30
0.0
 40
5.0
 50
191.5
 51
267.7
  0
ARC
  8
0
  6
CONTINUOUS
 62
     1
 10
592.38
 20
524.4999852
 30
0.0
 40
5.0
 50
272.3
 51
348.5
  0
LINE
  8
0
  6
CONTINUOUS
 62
     1
 10
592.58
 20
519.4999852
 30
0.0
 11
591.38
 21
519.4999852
 31
0.0
  0
ARC
  8
0
  6
CONTINUOUS
 62
     1
 10
701.28
 20
524.4999852
 30
0.0
 40
5.0
 50
191.5
 51
267.7
  0
ARC
  8
0
  6
CONTINUOUS
 62
     1
 10
702.08
 20
524.4999852
 30
0.0
 40
5.0
 50
272.3
 51
348.5
  0
LINE
  8
0
  6
CONTINUOUS
 62
     1
 10
702.28
 20
519.4999852
 30
0.0
 11
701.08
 21
519.4999852
 31
0.0
  0
LINE
  8
0
  6
LTYPE5
 62
     2
 10
591.98
 20
516.0999852
 30
0.0
 11
591.98
 21
529.4999852
 31
0.0
  0
LINE
  8
0
  6
LTYPE5
 62
     2
 10
701.68
 20
516.0999852
 30
0.0
 11
701.68
 21
529.4999852
 31
0.0
  0
TEXT
  8
0
  6
CONTINUOUS
 62
     2
 10
891.4999996
 20
725.6999852
 30
1.8
 40
18.0
  1
給脂口
 50
0.0
 41
0.9
 51
0.0
  7
KANJI50
  0
LINE
  8
0
  6
CONTINUOUS
 62
     2
 10
889.327585807
 20
719.6999852
 30
0.0
 11
943.6999996
 21
719.6999852
 31
0.0
  0
LINE
  8
0
  6
CONTINUOUS
 62
     2
 10
864.4999996
 20
659.6999852
 30
0.0
 11
889.327585807
 21
719.6999852
 31
0.0
  0
LINE
  8
0
  6
CONTINUOUS
 62
     2
 10
856.620559618
 20
958.4999852
 30
0.0
 11
963.4999996
 21
958.4999852
 31
0.0
  0
LINE
  8
0
  6
CONTINUOUS
 62
     2
 10
956.4999996
 20
958.4999852
 30
0.0
 11
951.970666311
 21
941.59628324
 31
0.0
  0
LINE
  8
0
  6
CONTINUOUS
 62
     2
 10
956.4999996
 20
958.4999852
 30
0.0
 11
961.029332889
 21
941.59628324
 31
0.0
  0
LINE
  8
0
  6
CONTINUOUS
 62
     2
 10
956.4999996
 20
958.4999852
 30
0.0
 11
956.4999996
 21
748.4999852
 31
0.0
  0
LINE
  8
0
  6
CONTINUOUS
 62
     2
 10
956.4999996
 20
748.4999852
 30
0.0
 11
961.029332889
 21
765.40368716
 31
0.0
  0
LINE
  8
0
  6
CONTINUOUS
 62
     2
 10
956.4999996
 20
748.4999852
 30
0.0
 11
951.970666311
 21
765.40368716
 31
0.0
  0
LINE
  8
0
  6
CONTINUOUS
 62
     2
 10
856.620559618
 20
748.4999852
 30
0.0
 11
963.4999996
 21
748.4999852
 31
0.0
  0
TEXT
  8
0
  6
CONTINUOUS
 62
     2
 10
649.3999996
 20
1100.2749852
 30
0.0
 40
21.0
  1
４０５
 50
0.0
 41
0.9
 51
0.0
  7
KANJI51
  0
TEXT
  8
0
  6
CONTINUOUS
 62
     2
 10
788.419479857
 20
1046.9999852
 30
0.0
 40
21.0
  1
ＰＦ３／４
 50
0.0
 41
0.9
 51
0.0
  7
KANJI51
  0
TEXT
  8
0
  6
CONTINUOUS
 62
     3
 10
952.9999996
 20
801.6999852
 30
0.0
 40
21.0
  1
φ２１０
 50
90.0
 41
0.9
 51
0.0
  7
KANJI51
  0
TEXT
  8
0
  6
CONTINUOUS
 62
     2
 10
1302.9999996
 20
884.3999852
 30
0.0
 40
21.0
  1
４０
 50
90.0
 41
0.9
 51
0.0
  7
KANJI51
  0
TEXT
  8
0
  6
CONTINUOUS
 62
     2
 10
1343.4999996
 20
884.3999852
 30
0.0
 40
21.0
  1
８０
 50
90.0
 41
0.9
 51
0.0
  7
KANJI51
  0
TEXT
  8
0
  6
CONTINUOUS
 62
     2
 10
1313.9999996
 20
778.6999852
 30
0.0
 40
21.0
  1
ｄ９
 50
0.0
 41
0.9
 51
0.0
  7
KANJI51
  0
TEXT
  8
0
  6
CONTINUOUS
 62
     2
 10
1258.9999996
 20
807.1999852
 30
0.0
 40
21.0
  1
φ３０Ｈ１０
 50
0.0
 41
0.9
 51
0.0
  7
KANJI51
  0
TEXT
  8
0
  6
CONTINUOUS
 62
     2
 10
1179.6999996
 20
771.1999852
 30
0.0
 40
21.0
  1
５０
 50
0.0
 41
0.9
 51
0.0
  7
KANJI51
  0
TEXT
  8
0
  6
CONTINUOUS
 62
     2
 10
770.9999996
 20
522.4999852
 30
0.0
 40
21.0
  1
ＰＦ１／２
 50
0.0
 41
0.9
 51
0.0
  7
KANJI51
  0
TEXT
  8
0
  6
CONTINUOUS
 62
     2
 10
511.3999996
 20
413.4999852
 30
0.0
 40
21.0
  1
１００
 50
0.0
 41
0.9
 51
0.0
  7
KANJI51
  0
TEXT
  8
0
  6
CONTINUOUS
 62
     2
 10
398.3999996
 20
413.4999852
 30
0.0
 40
21.0
  1
１２５
 50
0.0
 41
0.9
 51
0.0
  7
KANJI51
  0
TEXT
  8
0
  6
CONTINUOUS
 62
     2
 10
448.3999996
 20
374.9999852
 30
0.0
 40
21.0
  1
２２５
 50
0.0
 41
0.9
 51
0.0
  7
KANJI51
  0
TEXT
  8
0
  6
CONTINUOUS
 62
     2
 10
861.2999996
 20
374.9999852
 30
0.0
 40
21.0
  1
ｍｉｎ．Ｌ
 50
0.0
 41
0.9
 51
0.0
  7
KANJI51
  0
TEXT
  8
0
  6
CONTINUOUS
 62
     2
 10
816.5999996
 20
413.4999852
 30
0.0
 40
21.0
  1
Ｃ
 50
0.0
 41
0.9
 51
0.0
  7
KANJI51
  0
TEXT
  8
0
  6
CONTINUOUS
 62
     2
 10
739.5999996
 20
336.9999852
 30
0.0
 40
21.0
  1
ｍｉｎ．ＡＬ
 50
0.0
 41
0.9
 51
0.0
  7
KANJI51
  0
TEXT
  8
0
  6
CONTINUOUS
 62
     2
 10
644.9999996
 20
431.4499852
 30
0.0
 40
21.0
  1
推力リミッタ
 50
0.0
 41
0.9
 51
0.0
  7
KANJI51
  0
TEXT
  8
0
  6
CONTINUOUS
 62
     2
 10
1169.6999996
 20
413.4999852
 30
0.0
 40
21.0
  1
７０
 50
0.0
 41
0.9
 51
0.0
  7
KANJI51
  0
TEXT
  8
0
  6
CONTINUOUS
 62
     2
 10
1222.1999996
 20
336.9999852
 30
0.0
 40
21.0
  1
３５
 50
0.0
 41
0.9
 51
0.0
  7
KANJI51
  0
TEXT
  8
0
  6
CONTINUOUS
 62
     2
 10
1129.0999996
 20
413.4999852
 30
0.0
 40
21.0
  1
Ｐ
 50
0.0
 41
0.9
 51
0.0
  7
KANJI51
  0
TEXT
  8
0
  6
CONTINUOUS
 62
     2
 10
1458.9999996
 20
681.9999852
 30
0.0
 40
21.0
  1
φ３０Ｈ１０深３５
 50
90.0
 41
0.9
 51
0.0
  7
KANJI51
  0
TEXT
  8
0
  6
CONTINUOUS
 62
     2
 10
1645.4999996
 20
419.9999852
 30
0.0
 40
21.0
  1
２２０
 50
0.0
 41
0.9
 51
0.0
  7
KANJI51
  0
TEXT
  8
0
  6
CONTINUOUS
 62
     2
 10
1645.4999996
 20
456.0999852
 30
0.0
 40
21.0
  1
２１０
 50
0.0
 41
0.9
 51
0.0
  7
KANJI51
  0
TEXT
  8
0
  6
CONTINUOUS
 62
     2
 10
1873.4999996
 20
558.4999852
 30
0.0
 40
21.0
  1
１２１
 50
90.0
 41
0.9
 51
0.0
  7
KANJI51
  0
TEXT
  8
0
  6
CONTINUOUS
 62
     2
 10
1832.3999996
 20
566.4999852
 30
0.0
 40
21.0
  1
１０５
 50
90.0
 41
0.9
 51
0.0
  7
KANJI51
  0
TEXT
  8
0
  6
CONTINUOUS
 62
     2
 10
1832.3999996
 20
723.4999852
 30
0.0
 40
21.0
  1
２０９
 50
90.0
 41
0.9
 51
0.0
  7
KANJI51
  0
TEXT
  8
0
  6
CONTINUOUS
 62
     2
 10
1832.3999996
 20
913.9999852
 30
0.0
 40
21.0
  1
１９７
 50
90.0
 41
0.9
 51
0.0
  7
KANJI51
  0
TEXT
  8
0
  6
CONTINUOUS
 62
     2
 10
1873.4999996
 20
809.4999852
 30
0.0
 40
21.0
  1
４０６
 50
90.0
 41
0.9
 51
0.0
  7
KANJI51
  0
TEXT
  8
0
  6
CONTINUOUS
 62
     2
 10
1636.7999996
 20
1118.9999852
 30
0.0
 40
21.0
  1
φ２５０
 50
0.0
 41
0.9
 51
0.0
  7
KANJI51
  0
LINE
  8
0
  6
CONTINUOUS
 62
     2
 10
1464.9999996
 20
606.9999852
 30
0.0
 11
1464.9999996
 21
856.988872594
 31
0.0
  0
LINE
  8
0
  6
CONTINUOUS
 62
     2
 10
486.8999996
 20
1079.2749852
 30
0.0
 11
486.8999996
 21
1101.2749852
 31
0.0
  0
LINE
  8
0
  6
LTYPE2
 62
     2
 10
394.5999996
 20
888.4999852
 30
0.0
 11
340.5999996
 21
888.4999852
 31
0.0
  0
LINE
  8
0
  6
CONTINUOUS
 62
     1
 10
350.900090987
 20
898.943792539
 30
0.0
 11
352.85568071
 21
902.330973298
 31
0.0
  0
LINE
  8
0
  6
CONTINUOUS
 62
     1
 10
350.900090987
 20
888.4999852
 30
0.0
 11
350.900090987
 21
898.943792539
 31
0.0
  0
LINE
  8
0
  6
CONTINUOUS
 62
     1
 10
350.900090987
 20
878.056177861
 30
0.0
 11
352.85568071
 21
874.668997102
 31
0.0
  0
LINE
  8
0
  6
CONTINUOUS
 62
     1
 10
350.900090987
 20
888.4999852
 30
0.0
 11
350.900090987
 21
878.056177861
 31
0.0
  0
ARC
  8
0
  6
CONTINUOUS
 62
     1
 10
364.105414298
 20
888.4999852
 30
0.0
 40
13.20532331
 50
148.419912243
 51
211.580087757
  0
ARC
  8
0
  6
CONTINUOUS
 62
     1
 10
354.933494791
 20
898.873226273
 30
0.0
 40
4.034021051
 50
177.010501597
 51
238.997686085
  0
LINE
  8
0
  6
CONTINUOUS
 62
     1
 10
350.900090987
 20
878.056177861
 30
0.0
 11
352.85568071
 21
874.668997102
 31
0.0
  0
ARC
  8
0
  6
CONTINUOUS
 62
     1
 10
354.933494791
 20
878.126744127
 30
0.0
 40
4.034021051
 50
121.002313915
 51
182.989498403
  0
LINE
  8
0
  6
CONTINUOUS
 62
     1
 10
360.8999996
 20
902.330973298
 30
0.0
 11
352.85568071
 21
902.330973298
 31
0.0
  0
LINE
  8
0
  6
CONTINUOUS
 62
     1
 10
360.8999996
 20
895.415479249
 30
0.0
 11
352.85568071
 21
895.415479249
 31
0.0
  0
LINE
  8
0
  6
CONTINUOUS
 62
     1
 10
360.8999996
 20
881.584491151
 30
0.0
 11
352.85568071
 21
881.584491151
 31
0.0
  0
LINE
  8
0
  6
CONTINUOUS
 62
     1
 10
360.8999996
 20
874.668997102
 30
0.0
 11
352.85568071
 21
874.668997102
 31
0.0
  0
LINE
  8
0
  6
CONTINUOUS
 62
     1
 10
360.8999996
 20
903.4999852
 30
0.0
 11
360.8999996
 21
889.668997102
 31
0.0
  0
LINE
  8
0
  6
CONTINUOUS
 62
     1
 10
360.8999996
 20
539.4999852
 30
0.0
 11
360.8999996
 21
908.4999852
 31
0.0
  0
LINE
  8
0
  6
CONTINUOUS
 62
     1
 10
378.8999996
 20
908.4999852
 30
0.0
 11
378.8999996
 21
539.4999852
 31
0.0
  0
ARC
  8
0
  6
CONTINUOUS
 62
     1
 10
411.8999996
 20
913.4999852
 30
0.0
 40
5.0
 50
270.0
 51
0.000123638
  0
ARC
  8
0
  6
CONTINUOUS
 62
     1
 10
481.8999996
 20
913.4999852
 30
0.0
 40
5.0
 50
270.000107075
 51
0.0
  0
LINE
  8
0
  6
CONTINUOUS
 62
     1
 10
481.900008944
 20
908.4999852
 30
0.0
 11
360.8999996
 21
908.4999852
 31
0.0
  0
LINE
  8
0
  6
CONTINUOUS
 62
     1
 10
416.8999996
 20
913.49999599
 30
0.0
 11
416.8999996
 21
958.4999852
 31
0.0
  0
LINE
  8
0
  6
CONTINUOUS
 62
     1
 10
486.8999996
 20
958.4999852
 30
0.0
 11
416.8999996
 21
958.4999852
 31
0.0
  0
LINE
  8
0
  6
LTYPE5
 62
     2
 10
446.8999996
 20
951.9999852
 30
0.0
 11
446.8999996
 21
1020.9999852
 31
0.0
  0
LINE
  8
0
  6
LTYPE5
 62
     2
 10
412.3999996
 20
986.4999852
 30
0.0
 11
481.3999996
 21
986.4999852
 31
0.0
  0
CIRCLE
  8
0
  6
CONTINUOUS
 62
     1
 10
446.8999996
 20
986.4999852
 30
0.0
 40
17.5
  0
ARC
  8
0
  6
CONTINUOUS
 62
     1
 10
446.8999996
 20
986.4999852
 30
0.0
 40
30.0
 50
54.4
 51
234.4
  0
ARC
  8
0
  6
CONTINUOUS
 62
     1
 10
459.1999996
 20
965.4999852
 30
0.0
 40
2.0
 50
4.7
 51
90.0
  0
ARC
  8
0
  6
CONTINUOUS
 62
     1
 10
434.5999996
 20
965.4999852
 30
0.0
 40
2.0
 50
90.0
 51
175.3
  0
LINE
  8
0
  6
CONTINUOUS
 62
     1
 10
434.5999996
 20
967.4999852
 30
0.0
 11
459.1999996
 21
967.4999852
 31
0.0
  0
LINE
  8
0
  6
CONTINUOUS
 62
     1
 10
446.8999996
 20
968.9999852
 30
0.0
 11
434.5999996
 21
967.4999852
 31
0.0
  0
LINE
  8
0
  6
CONTINUOUS
 62
     1
 10
446.8999996
 20
968.9999852
 30
0.0
 11
459.1999996
 21
967.4999852
 31
0.0
  0
ARC
  8
0
  6
CONTINUOUS
 62
     1
 10
467.6999996
 20
957.1999852
 30
0.0
 40
6.0
 50
122.8
 51
172.9
  0
ARC
  8
0
  6
CONTINUOUS
 62
     1
 10
426.0999996
 20
957.1999852
 30
0.0
 40
6.0
 50
6.4
 51
55.9
  0
ARC
  8
0
  6
CONTINUOUS
 62
     1
 10
446.8999996
 20
986.4999852
 30
0.0
 40
30.0
 50
305.9
 51
54.4
  0
LINE
  8
0
  6
CONTINUOUS
 62
     1
 10
461.1999996
 20
965.6999852
 30
0.0
 11
461.747825687
 21
958.4999852
 31
0.0
  0
LINE
  8
0
  6
CONTINUOUS
 62
     1
 10
432.052173513
 20
958.4999852
 30
0.0
 11
432.5999996
 21
965.6999852
 31
0.0
  0
LINE
  8
0
  6
CONTINUOUS
 62
     1
 10
350.8999996
 20
800.9999852
 30
0.0
 11
350.8999996
 21
905.9999852
 31
0.0
  0
LINE
  8
0
  6
CONTINUOUS
 62
     1
 10
360.8999996
 20
905.9999852
 30
0.0
 11
350.8999996
 21
905.9999852
 31
0.0
  0
LINE
  8
0
  6
CONTINUOUS
 62
     1
 10
346.8999996
 20
828.4999852
 30
0.0
 11
346.8999996
 21
878.4999852
 31
0.0
  0
LINE
  8
0
  6
CONTINUOUS
 62
     1
 10
350.8999996
 20
878.4999852
 30
0.0
 11
300.8999996
 21
878.4999852
 31
0.0
  0
LINE
  8
0
  6
CONTINUOUS
 62
     1
 10
360.8999996
 20
800.9999852
 30
0.0
 11
350.8999996
 21
800.9999852
 31
0.0
  0
LINE
  8
0
  6
CONTINUOUS
 62
     1
 10
300.8999996
 20
828.4999852
 30
0.0
 11
300.8999996
 21
878.4999852
 31
0.0
  0
LINE
  8
0
  6
CONTINUOUS
 62
     1
 10
350.8999996
 20
828.4999852
 30
0.0
 11
300.8999996
 21
828.4999852
 31
0.0
  0
LINE
  8
0
  6
CONTINUOUS
 62
     2
 10
321.3999996
 20
878.4999852
 30
0.0
 11
320.100270871
 21
895.951652892
 31
0.0
  0
LINE
  8
0
  6
CONTINUOUS
 62
     2
 10
321.3999996
 20
878.4999852
 30
0.0
 11
311.548567657
 21
892.963708395
 31
0.0
  0
LINE
  8
0
  6
CONTINUOUS
 62
     2
 10
321.3999996
 20
878.4999852
 30
0.0
 11
292.3999996
 21
961.4999852
 31
0.0
  0
TEXT
  8
7
  6
CONTINUOUS
 62
     2
 10
174.164355823
 20
932.0999852
 30
0.0
 40
21.0
  1
手動軸□１４
 50
0.0
 41
0.9
 51
0.0
  7
KANJI17
  0
ARC
  8
0
  6
CONTINUOUS
 62
     2
 10
263.8999996
 20
853.8999852
 30
0.0
 40
20.0
 50
231.952957468
 51
156.801409486
  0
LINE
  8
0
  6
CONTINUOUS
 62
     2
 10
245.517099
 20
861.778371172
 30
0.0
 11
247.81179171
 21
871.615809949
 31
0.0
  0
LINE
  8
0
  6
CONTINUOUS
 62
     2
 10
245.517099
 20
861.778371172
 30
0.0
 11
253.785260378
 21
866.685707707
 31
0.0
  0
TEXT
  8
0
  6
CONTINUOUS
 62
     2
 10
183.517099
 20
844.778371172
 30
0.0
 40
15.0
  1
前進方向
 50
0.0
 41
0.9
 51
0.0
  7
KANJI42
  0
TEXT
  8
0
  6
CONTINUOUS
 62
     3
 10
172.9999996
 20
964.9999852
 30
0.0
 40
21.0
  1
手動軸カバー
 50
0.0
 41
0.9
 51
0.0
  7
KANJI51
  0
LINE
  8
0
  6
CONTINUOUS
 62
     2
 10
292.3999996
 20
961.4999852
 30
0.0
 11
166.3999996
 21
961.4999852
 31
0.0
  0
LINE
  8
0
  6
CONTINUOUS
 62
     2
 10
486.8999996
 20
1094.2749852
 30
0.0
 11
469.99629764
 21
1098.804318489
 31
0.0
  0
LINE
  8
0
  6
CONTINUOUS
 62
     2
 10
486.8999996
 20
1094.2749852
 30
0.0
 11
469.99629764
 21
1089.745651911
 31
0.0
  0
LINE
  8
0
  6
CONTINUOUS
 62
     2
 10
486.8999996
 20
1094.2749852
 30
0.0
 11
300.8999996
 21
1094.2749852
 31
0.0
  0
LINE
  8
0
  6
CONTINUOUS
 62
     2
 10
300.8999996
 20
1094.2749852
 30
0.0
 11
317.80370156
 21
1089.745651911
 31
0.0
  0
LINE
  8
0
  6
CONTINUOUS
 62
     2
 10
300.8999996
 20
1094.2749852
 30
0.0
 11
317.80370156
 21
1098.804318489
 31
0.0
  0
LINE
  8
0
  6
CONTINUOUS
 62
     2
 10
300.8999996
 20
885.4999852
 30
0.0
 11
300.8999996
 21
1101.2749852
 31
0.0
  0
TEXT
  8
0
  6
CONTINUOUS
 62
     3
 10
355.0499996
 20
1097.7749852
 30
0.0
 40
21.0
  1
１８６
 50
0.0
 41
0.9
 51
0.0
  7
KANJI51
  0
TEXT
  8
0
  6
CONTINUOUS
 62
     2
 10
955.9000496
 20
1030.7750352
 30
0.0
 40
18.0
  1
ブレーキ開放装置
 50
0.0
 41
0.9
 51
0.0
  7
KANJI52
  0
LINE
  8
0
  6
CONTINUOUS
 62
     2
 10
2182.833333333
 20
1046.333333333
 30
0.0
 11
2795.333333333
 21
1046.333333333
 31
0.0
  0
LINE
  8
0
  6
CONTINUOUS
 62
     2
 10
2182.833333333
 20
997.333333333
 30
0.0
 11
2795.333333333
 21
997.333333333
 31
0.0
  0
LINE
  8
0
  6
CONTINUOUS
 62
     2
 10
2238.833333333
 20
1438.333333333
 30
0.0
 11
2238.833333333
 21
1046.333333333
 31
0.0
  0
TEXT
  8
0
  6
CONTINUOUS
 62
     2
 10
2221.333333333
 20
1009.933333333
 30
93.29
 40
26.6
  1
付属品
 50
0.0
 41
0.9
 51
0.0
  7
KANJI53
  0
TEXT
  8
0
  6
CONTINUOUS
 62
     2
 10
2221.333333333
 20
960.933333333
 30
210.52
 40
26.6
  1
台数
 50
0.0
 41
0.9
 51
0.0
  7
KANJI54
  0
LINE
  8
0
  6
CONTINUOUS
 62
     1
 10
2182.833333333
 20
1900.333333333
 30
0.0
 11
2795.333333333
 21
1900.333333333
 31
0.0
  0
TEXT
  8
0
  6
CONTINUOUS
 62
     2
 10
2270.333333333
 20
1849.233333333
 30
19.94958
 40
31.5
  1
マイティシリンダ仕様
 50
0.0
 41
0.9
 51
0.0
  7
KANJI55
  0
LINE
  8
0
  6
CONTINUOUS
 62
     2
 10
2238.833333333
 20
1095.333333333
 30
0.0
 11
2795.333333333
 21
1095.333333333
 31
0.0
  0
LINE
  8
0
  6
CONTINUOUS
 62
     2
 10
2238.833333333
 20
1242.333333333
 30
0.0
 11
2795.333333333
 21
1242.333333333
 31
0.0
  0
LINE
  8
0
  6
CONTINUOUS
 62
     2
 10
2238.833333333
 20
1291.333333333
 30
0.0
 11
2795.333333333
 21
1291.333333333
 31
0.0
  0
LINE
  8
0
  6
CONTINUOUS
 62
     2
 10
2182.833333333
 20
1536.333333333
 30
0.0
 11
2795.333333333
 21
1536.333333333
 31
0.0
  0
LINE
  8
0
  6
CONTINUOUS
 62
     2
 10
2182.833333333
 20
1487.333333333
 30
0.0
 11
2795.333333333
 21
1487.333333333
 31
0.0
  0
LINE
  8
0
  6
CONTINUOUS
 62
     2
 10
2182.833333333
 20
1438.333333333
 30
0.0
 11
2795.333333333
 21
1438.333333333
 31
0.0
  0
LINE
  8
0
  6
CONTINUOUS
 62
     2
 10
2238.833333333
 20
1340.333333333
 30
0.0
 11
2795.333333333
 21
1340.333333333
 31
0.0
  0
LINE
  8
0
  6
CONTINUOUS
 62
     2
 10
2238.833333333
 20
1389.333333333
 30
0.0
 11
2795.333333333
 21
1389.333333333
 31
0.0
  0
LINE
  8
0
  6
CONTINUOUS
 62
     2
 10
2182.833333333
 20
1781.333333333
 30
0.0
 11
2795.333333333
 21
1781.333333333
 31
0.0
  0
LINE
  8
0
  6
CONTINUOUS
 62
     2
 10
2182.833333333
 20
1732.333333333
 30
0.0
 11
2795.333333333
 21
1732.333333333
 31
0.0
  0
LINE
  8
0
  6
CONTINUOUS
 62
     2
 10
2182.833333333
 20
1683.333333333
 30
0.0
 11
2795.333333333
 21
1683.333333333
 31
0.0
  0
LINE
  8
0
  6
CONTINUOUS
 62
     2
 10
2182.833333333
 20
1634.333333333
 30
0.0
 11
2795.333333333
 21
1634.333333333
 31
0.0
  0
LINE
  8
0
  6
CONTINUOUS
 62
     2
 10
2182.833333333
 20
1585.333333333
 30
0.0
 11
2795.333333333
 21
1585.333333333
 31
0.0
  0
LINE
  8
0
  6
CONTINUOUS
 62
     2
 10
2182.833333333
 20
1830.333333333
 30
0.0
 11
2795.333333333
 21
1830.333333333
 31
0.0
  0
TEXT
  8
0
  6
CONTINUOUS
 62
     2
 10
2270.333333333
 20
1352.933333333
 30
39.01308
 40
26.6
  1
電源電圧
 50
0.0
 41
0.9
 51
0.0
  7
KANJI56
  0
TEXT
  8
0
  6
CONTINUOUS
 62
     2
 10
2270.333333333
 20
1303.933333333
 30
70.49
 40
26.6
  1
周波数
 50
0.0
 41
0.9
 51
0.0
  7
KANJI57
  0
TEXT
  8
0
  6
CONTINUOUS
 62
     2
 10
2270.333333333
 20
1254.933333333
 30
164.92
 40
26.6
  1
電流
 50
0.0
 41
0.9
 51
0.0
  7
KANJI58
  0
TEXT
  8
0
  6
CONTINUOUS
 62
     2
 10
2270.333333333
 20
1205.933333333
 30
70.49
 40
26.6
  1
絶縁級
 50
0.0
 41
0.9
 51
0.0
  7
KANJI57
  0
TEXT
  8
0
  6
CONTINUOUS
 62
     2
 10
2221.333333333
 20
1793.933333333
 30
210.52
 40
26.6
  1
形式
 50
0.0
 41
0.9
 51
0.0
  7
KANJI54
  0
TEXT
  8
0
  6
CONTINUOUS
 62
     2
 10
2221.333333333
 20
1744.933333333
 30
210.52
 40
26.6
  1
推力
 50
0.0
 41
0.9
 51
0.0
  7
KANJI54
  0
TEXT
  8
0
  6
CONTINUOUS
 62
     2
 10
2221.333333333
 20
1695.933333333
 30
34.675
 40
26.6
  1
ストローク
 50
0.0
 41
0.9
 51
0.0
  7
KANJI59
  0
TEXT
  8
0
  6
CONTINUOUS
 62
     2
 10
2221.333333333
 20
1548.933333333
 30
210.52
 40
26.6
  1
構造
 50
0.0
 41
0.9
 51
0.0
  7
KANJI54
  0
TEXT
  8
0
  6
CONTINUOUS
 62
     2
 10
2221.333333333
 20
1499.933333333
 30
15.13616
 40
26.6
  1
過負荷安全装置
 50
0.0
 41
0.9
 51
0.0
  7
KANJI60
  0
TEXT
  8
0
  6
CONTINUOUS
 62
     2
 10
2221.333333333
 20
1450.933333333
 30
93.29
 40
26.6
  1
塗装色
 50
0.0
 41
0.9
 51
0.0
  7
KANJI53
  0
TEXT
  8
0
  6
CONTINUOUS
 62
     2
 10
2193.333333333
 20
1597.933333333
 30
2.28
 40
26.6
  1
ピストンロッド回転トルク
 50
0.0
 41
0.9
 51
0.0
  7
KANJI61
  0
LINE
  8
0
  6
CONTINUOUS
 62
     2
 10
2182.833333333
 20
1193.333333333
 30
0.0
 11
2795.333333333
 21
1193.333333333
 31
0.0
  0
LINE
  8
0
  6
CONTINUOUS
 62
     2
 10
2238.833333333
 20
1144.333333333
 30
0.0
 11
2795.333333333
 21
1144.333333333
 31
0.0
  0
TEXT
  8
0
  6
CONTINUOUS
 62
     2
 10
2211.358333333
 20
1431.333333333
 30
15.4
 40
24.5
  1
モ　トル仕様
 50
0.0
 41
0.9
 51
0.0
  7
KANJI62
  0
TEXT
  8
0
  6
CONTINUOUS
 62
     2
 10
2211.358333333
 20
1172.333333333
 30
1.4
 40
24.5
  1
ブレ　キ
 50
0.0
 41
0.9
 51
0.0
  7
KANJI63
  0
LINE
  8
0
  6
CONTINUOUS
 62
     2
 10
2209.433333333
 20
1114.233333333
 30
0.0
 11
2209.433333333
 21
1099.533333333
 31
0.0
  0
TEXT
  8
0
  6
CONTINUOUS
 62
     2
 10
2573.083333333
 20
1501.333333333
 30
10.5
 40
24.5
  1
推力リミッタ
 50
0.0
 41
0.9
 51
0.0
  7
KANJI64
  0
TEXT
  8
0
  6
CONTINUOUS
 62
     2
 10
2639.583333333
 20
1207.333333333
 30
2.1
 40
21.0
  1
Ｅ
 50
0.0
 41
0.9
 51
0.0
  7
KANJI65
  0
TEXT
  8
0
  6
CONTINUOUS
 62
     2
 10
2270.333333333
 20
1156.933333333
 30
164.92
 40
26.6
  1
形式
 50
0.0
 41
0.9
 51
0.0
  7
KANJI58
  0
TEXT
  8
0
  6
CONTINUOUS
 62
     2
 10
2270.333333333
 20
1107.933333333
 30
39.01308
 40
26.6
  1
操作方式
 50
0.0
 41
0.9
 51
0.0
  7
KANJI56
  0
LINE
  8
0
  6
CONTINUOUS
 62
     2
 10
2209.433333333
 20
1388.633333333
 30
0.0
 11
2209.433333333
 21
1372.533333333
 31
0.0
  0
TEXT
  8
0
  6
CONTINUOUS
 62
     2
 10
2270.333333333
 20
1401.933333333
 30
3.5
 40
26.6
  1
出力　相数　極数
 50
0.0
 41
0.9
 51
0.0
  7
KANJI66
  0
TEXT
  8
0
  6
CONTINUOUS
 62
     2
 10
2221.333333333
 20
1646.933333333
 30
14.0
 40
26.6
  1
公称速度
 50
0.0
 41
0.9
 51
0.0
  7
KANJI67
  0
TEXT
  8
0
  6
CONTINUOUS
 62
     2
 10
2365.883333333
 20
1645.533333333
 30
0.0
 40
24.5
  1
（５０／６０Ｈｚ）
 50
0.0
 41
0.628571429
 51
0.0
  7
KANJI68
  0
TEXT
  8
0
  6
CONTINUOUS
 62
     2
 10
2506.583333333
 20
1157.458333333
 30
3.85
 40
23.8
  1
スプリング制動式電磁ブレーキ
 50
0.0
 41
0.705882353
 51
0.0
  7
KANJI69
  0
TEXT
  8
0
  6
CONTINUOUS
 62
     2
 10
2762.083333333
 20
1352.933333333
 30
0.252
 40
21.0
  1
Ｖ
 50
0.0
 41
0.8
 51
0.0
  7
KANJI70
  0
TEXT
  8
0
  6
CONTINUOUS
 62
     2
 10
2749.483333333
 20
1303.933333333
 30
0.252
 40
21.0
  1
Ｈｚ
 50
0.0
 41
0.8
 51
0.0
  7
KANJI70
  0
TEXT
  8
0
  6
CONTINUOUS
 62
     2
 10
2762.083333333
 20
1254.933333333
 30
0.252
 40
21.0
  1
Ａ
 50
0.0
 41
0.8
 51
0.0
  7
KANJI70
  0
TEXT
  8
0
  6
CONTINUOUS
 62
     2
 10
2670.033333333
 20
1403.333333333
 30
2.1
 40
21.0
  1
３φ
 50
0.0
 41
0.9
 51
0.0
  7
KANJI65
  0
TEXT
  8
0
  6
CONTINUOUS
 62
     2
 10
2740.033333333
 20
1403.333333333
 30
2.1
 40
21.0
  1
４Ｐ
 50
0.0
 41
0.9
 51
0.0
  7
KANJI65
  0
TEXT
  8
0
  6
CONTINUOUS
 62
     2
 10
2504.833333333
 20
1452.333333333
 30
1.4
 40
22.4
  1
マンセル　７．５ＧＹ　５／４．５
 50
0.0
 41
0.71875
 51
0.0
  7
KANJI71
  0
TEXT
  8
0
  6
CONTINUOUS
 62
     2
 10
2504.833333333
 20
1354.333333333
 30
2.1
 40
21.0
  1
　　　　　　　／　　　
 50
0.0
 41
0.9
 51
0.0
  7
KANJI65
  0
TEXT
  8
0
  6
CONTINUOUS
 62
     2
 10
2504.833333333
 20
1305.333333333
 30
2.1
 40
21.0
  1
　　　　５０／　６０
 50
0.0
 41
0.9
 51
0.0
  7
KANJI65
  0
TEXT
  8
0
  6
CONTINUOUS
 62
     2
 10
2504.833333333
 20
1256.333333333
 30
2.1
 40
21.0
  1
　　　　　　　／　　　
 50
0.0
 41
0.9
 51
0.0
  7
KANJI65
  0
TEXT
  8
0
  6
CONTINUOUS
 62
     2
 10
2743.533333333
 20
1698.733333333
 30
0.1792
 40
22.4
  1
ｍｍ
 50
0.0
 41
0.8
 51
0.0
  7
KANJI72
  0
TEXT
  8
0
  6
CONTINUOUS
 62
     2
 10
2573.083333333
 20
1550.333333333
 30
10.5
 40
24.5
  1
全閉屋内形
 50
0.0
 41
0.9
 51
0.0
  7
KANJI64
  0
TEXT
  8
0
  6
CONTINUOUS
 62
     2
 10
2698.033333333
 20
1648.333333333
 30
0.0
 40
24.5
  1
ｍｍ／ｓｅｃ
 50
0.0
 41
0.571428571
 51
0.0
  7
KANJI73
  0
TEXT
  8
0
  6
CONTINUOUS
 62
     2
 10
2555.933333333
 20
1746.333333333
 30
2.1
 40
21.0
  1
３９．２ＫＮ（４ｔｏｎ）
 50
0.0
 41
0.9
 51
0.0
  7
KANJI65
  0
TEXT
  8
0
  6
CONTINUOUS
 62
     2
 10
2520.583333333
 20
1792.883333333
 30
1.4
 40
21.0
  1
ＭＣＬＦ４－　
 50
0.0
 41
0.833333333
 51
0.0
  7
KANJI74
  0
TEXT
  8
0
  6
CONTINUOUS
 62
     2
 10
2508.333333333
 20
1648.333333333
 30
2.1
 40
21.0
  1
３６．２／４３．４
 50
0.0
 41
0.9
 51
0.0
  7
KANJI65
  0
TEXT
  8
0
  6
CONTINUOUS
 62
     2
 10
2511.833333333
 20
1403.333333333
 30
2.1
 40
21.0
  1
　２．２ＫＷ
 50
0.0
 41
0.9
 51
0.0
  7
KANJI65
  0
TEXT
  8
0
  6
CONTINUOUS
 62
     2
 10
2522.333333333
 20
1599.333333333
 30
0.0
 40
21.0
  1
　７８Ｎ・ｍ（８ｋｇ・ｍ）
 50
0.0
 41
0.833333333
 51
0.0
  7
KANJI75
  0
LINE
  8
0
  6
CONTINUOUS
 62
     2
 10
2182.833333333
 20
948.333333333
 30
0.0
 11
2795.333333333
 21
948.333333333
 31
0.0
  0
LINE
  8
0
  6
CONTINUOUS
 62
     1
 10
2182.833333333
 20
899.333333333
 30
0.0
 11
2795.333333333
 21
899.333333333
 31
0.0
  0
TEXT
  8
0
  6
CONTINUOUS
 62
     2
 10
2738.458333333
 20
908.958333333
 30
0.0
 40
28.0
  1
ｋｇ
 50
0.0
 41
1.0
 51
0.0
  7
KANJI76
  0
LINE
  8
0
  6
CONTINUOUS
 62
     2
 10
2504.833333333
 20
1830.333333333
 30
0.0
 11
2504.833333333
 21
899.333333333
 31
0.0
  0
LINE
  8
0
  6
CONTINUOUS
 62
     1
 10
2182.833333333
 20
1900.333333333
 30
0.0
 11
2182.833333333
 21
899.333333333
 31
0.0
  0
LINE
  8
0
  6
CONTINUOUS
 62
     1
 10
2795.333333333
 20
1900.333333333
 30
0.0
 11
2795.333333333
 21
899.333333333
 31
0.0
  0
TEXT
  8
0
  6
CONTINUOUS
 62
     2
 10
2221.333333333
 20
911.933333333
 30
3.5
 40
26.6
  1
概算重量（１台当り）
 50
0.0
 41
0.9
 51
0.0
  7
KANJI77
  0
TEXT
  8
0
  6
CONTINUOUS
 62
     2
 10
1438.610105233
 20
145.593329133
 30
0.0
 40
21.0
  1
０８．０４．０９　岡田　回路図追加
 50
0.0
 41
0.9
 51
0.0
  7
KANJI17
  0
LINE
  8
0
  6
CONTINUOUS
 62
     1
 10
383.8999996
 20
843.9999852
 30
0.0
 11
378.8999996
 21
838.9999852
 31
0.0
  0
LINE
  8
0
  6
CONTINUOUS
 62
     1
 10
448.8999996
 20
843.9999852
 30
0.0
 11
383.8999996
 21
843.9999852
 31
0.0
  0
LINE
  8
0
  6
CONTINUOUS
 62
     1
 10
448.8999996
 20
843.9999852
 30
0.0
 11
453.8999996
 21
838.9999852
 31
0.0
  0
LINE
  8
0
  6
CONTINUOUS
 62
     1
 10
453.8999996
 20
748.9999852
 30
0.0
 11
453.8999996
 21
838.9999852
 31
0.0
  0
LINE
  8
0
  6
CONTINUOUS
 62
     1
 10
453.8999996
 20
748.9999852
 30
0.0
 11
448.8999996
 21
743.9999852
 31
0.0
  0
LINE
  8
0
  6
CONTINUOUS
 62
     1
 10
448.8999996
 20
743.9999852
 30
0.0
 11
383.8999996
 21
743.9999852
 31
0.0
  0
LINE
  8
0
  6
CONTINUOUS
 62
     1
 10
378.8999996
 20
748.9999852
 30
0.0
 11
378.8999996
 21
838.9999852
 31
0.0
  0
LINE
  8
0
  6
CONTINUOUS
 62
     1
 10
383.8999996
 20
743.9999852
 30
0.0
 11
378.8999996
 21
748.9999852
 31
0.0
  0
LINE
  8
0
  6
CONTINUOUS
 62
     2
 10
393.8999996
 20
833.9999852
 30
0.0
 11
381.8999996
 21
833.9999852
 31
0.0
  0
LINE
  8
0
  6
CONTINUOUS
 62
     2
 10
449.8999996
 20
833.9999852
 30
0.0
 11
437.8999996
 21
833.9999852
 31
0.0
  0
LINE
  8
0
  6
CONTINUOUS
 62
     2
 10
388.8999996
 20
827.9999852
 30
0.0
 11
388.8999996
 21
843.4999852
 31
0.0
  0
LINE
  8
0
  6
CONTINUOUS
 62
     2
 10
388.8999996
 20
746.4999852
 30
0.0
 11
388.8999996
 21
760.9999852
 31
0.0
  0
LINE
  8
0
  6
CONTINUOUS
 62
     2
 10
396.8999996
 20
753.9999852
 30
0.0
 11
381.8999996
 21
753.9999852
 31
0.0
  0
LINE
  8
0
  6
CONTINUOUS
 62
     2
 10
448.8999996
 20
753.9999852
 30
0.0
 11
435.8999996
 21
753.9999852
 31
0.0
  0
LINE
  8
0
  6
CONTINUOUS
 62
     2
 10
443.8999996
 20
827.9999852
 30
0.0
 11
443.8999996
 21
843.4999852
 31
0.0
  0
LINE
  8
0
  6
CONTINUOUS
 62
     2
 10
443.8999996
 20
746.4999852
 30
0.0
 11
443.8999996
 21
760.9999852
 31
0.0
  0
LINE
  8
0
  6
CONTINUOUS
 62
     1
 10
417.8999996
 20
730.4999852
 30
0.0
 11
417.8999996
 21
660.4999852
 31
0.0
  0
TEXT
  8
0
  6
CONTINUOUS
 62
     2
 10
422.8999996
 20
719.4999852
 30
5.0
 40
20.0
  1
銘板
 50
270.0
 41
0.925
 51
0.0
  7
KANJI78
  0
LINE
  8
0
  6
CONTINUOUS
 62
     1
 10
460.8999996
 20
730.4999852
 30
0.0
 11
417.8999996
 21
730.4999852
 31
0.0
  0
LINE
  8
0
  6
CONTINUOUS
 62
     1
 10
460.8999996
 20
730.4999852
 30
0.0
 11
460.8999996
 21
660.4999852
 31
0.0
  0
LINE
  8
0
  6
CONTINUOUS
 62
     1
 10
460.8999996
 20
660.4999852
 30
0.0
 11
417.8999996
 21
660.4999852
 31
0.0
  0
TEXT
  8
0
  6
CONTINUOUS
 62
     2
 10
2588.833333333
 20
1107.933333333
 30
14.0
 40
24.5
  1
別切り
 50
0.0
 41
0.9
 51
0.0
  7
KANJI79
  0
ENDSEC
  0
EOF
