  0
SECTION
  2
HEADER
  9
$ACADVER
  1
AC1009
  9
$DWGCODEPAGE
  3
dos932
  9
$EXTMIN
 10
0.0
 20
0.0
 30
0.0
  9
$EXTMAX
 10
2940.0
 20
2079.0
 30
0.0
  9
$LIMMIN
 10
0.0
 20
0.0
  9
$LIMMAX
 10
2940.0
 20
2079.0
  9
$LTSCALE
 40
1.0
  9
$PDMODE
 70
     0
  0
ENDSEC
  0
SECTION
  2
TABLES
  0
TABLE
  2
VPORT
 70
     1
  0
VPORT
  2
*ACTIVE
 70
     0
 10
0.0
 20
0.0
 11
1.0
 21
1.0
 12
1470.0
 22
1039.5
 13
0.0
 23
0.0
 14
10.0
 24
10.0
 15
10.0
 25
10.0
 16
0.0
 26
0.0
 36
1.0
 17
0.0
 27
0.0
 37
0.0
 40
2940.0
 41
1.414141414
 42
50.0
 43
0.0
 44
0.0
 50
0.0
 51
0.0
 71
     0
 72
  1000
 73
     1
 74
     3
 75
     0
 76
     0
 77
     0
 78
     0
  0
ENDTAB
  0
TABLE
  2
LTYPE
 70
     6
  0
LTYPE
  2
CONTINUOUS
 70
    64
  3
Solid line
 72
    65
 73
     0
 40
0.0
  0
LTYPE
  2
LTYPE1
 70
    64
  3
HIDDEN
 72
    65
 73
     2
 40
21.0
 49
12.6
 49
-8.4
  0
LTYPE
  2
LTYPE2
 70
    64
  3
CENTER
 72
    65
 73
     4
 40
105.0
 49
73.5
 49
-10.5
 49
10.5
 49
-10.5
  0
LTYPE
  2
LTYPE3
 70
    64
  3
CENTER
 72
    65
 73
     4
 40
70.0
 49
49.0
 49
-7.0
 49
7.0
 49
-7.0
  0
LTYPE
  2
LTYPE4
 70
    64
  3
CENTER
 72
    65
 73
     4
 40
140.0
 49
98.0
 49
-14.0
 49
14.0
 49
-14.0
  0
LTYPE
  2
LTYPE5
 70
    64
  3
CENTER
 72
    65
 73
     4
 40
63.0
 49
44.1
 49
-6.3
 49
6.3
 49
-6.3
  0
ENDTAB
  0
TABLE
  2
LAYER
 70
   128
  0
LAYER
  2
0
 70
     0
 62
     7
  6
CONTINUOUS
  0
LAYER
  2
2
 70
     0
 62
     7
  6
CONTINUOUS
  0
LAYER
  2
3
 70
     0
 62
     7
  6
CONTINUOUS
  0
LAYER
  2
4
 70
     0
 62
     7
  6
CONTINUOUS
  0
LAYER
  2
5
 70
     0
 62
     7
  6
CONTINUOUS
  0
LAYER
  2
6
 70
     0
 62
     7
  6
CONTINUOUS
  0
LAYER
  2
7
 70
     0
 62
     7
  6
CONTINUOUS
  0
LAYER
  2
8
 70
     0
 62
     7
  6
CONTINUOUS
  0
LAYER
  2
9
 70
     0
 62
     7
  6
CONTINUOUS
  0
LAYER
  2
10
 70
     0
 62
     7
  6
CONTINUOUS
  0
LAYER
  2
11
 70
     0
 62
     7
  6
CONTINUOUS
  0
LAYER
  2
12
 70
     0
 62
     7
  6
CONTINUOUS
  0
LAYER
  2
13
 70
     0
 62
     7
  6
CONTINUOUS
  0
LAYER
  2
14
 70
     0
 62
     7
  6
CONTINUOUS
  0
LAYER
  2
15
 70
     0
 62
     7
  6
CONTINUOUS
  0
LAYER
  2
16
 70
     0
 62
     7
  6
CONTINUOUS
  0
LAYER
  2
17
 70
     0
 62
     7
  6
CONTINUOUS
  0
LAYER
  2
18
 70
     0
 62
     7
  6
CONTINUOUS
  0
LAYER
  2
19
 70
     0
 62
     7
  6
CONTINUOUS
  0
LAYER
  2
20
 70
     0
 62
     7
  6
CONTINUOUS
  0
LAYER
  2
21
 70
     0
 62
     7
  6
CONTINUOUS
  0
LAYER
  2
22
 70
     0
 62
     7
  6
CONTINUOUS
  0
LAYER
  2
23
 70
     0
 62
     7
  6
CONTINUOUS
  0
LAYER
  2
24
 70
     0
 62
     7
  6
CONTINUOUS
  0
LAYER
  2
25
 70
     0
 62
     7
  6
CONTINUOUS
  0
LAYER
  2
26
 70
     0
 62
     7
  6
CONTINUOUS
  0
LAYER
  2
27
 70
     0
 62
     7
  6
CONTINUOUS
  0
LAYER
  2
28
 70
     0
 62
     7
  6
CONTINUOUS
  0
LAYER
  2
29
 70
     0
 62
     7
  6
CONTINUOUS
  0
LAYER
  2
30
 70
     0
 62
     7
  6
CONTINUOUS
  0
LAYER
  2
31
 70
     0
 62
     7
  6
CONTINUOUS
  0
LAYER
  2
32
 70
     0
 62
     7
  6
CONTINUOUS
  0
LAYER
  2
33
 70
     0
 62
     7
  6
CONTINUOUS
  0
LAYER
  2
34
 70
     0
 62
     7
  6
CONTINUOUS
  0
LAYER
  2
35
 70
     0
 62
     7
  6
CONTINUOUS
  0
LAYER
  2
36
 70
     0
 62
     7
  6
CONTINUOUS
  0
LAYER
  2
37
 70
     0
 62
     7
  6
CONTINUOUS
  0
LAYER
  2
38
 70
     0
 62
     7
  6
CONTINUOUS
  0
LAYER
  2
39
 70
     0
 62
     7
  6
CONTINUOUS
  0
LAYER
  2
40
 70
     0
 62
     7
  6
CONTINUOUS
  0
LAYER
  2
41
 70
     0
 62
     7
  6
CONTINUOUS
  0
LAYER
  2
42
 70
     0
 62
     7
  6
CONTINUOUS
  0
LAYER
  2
43
 70
     0
 62
     7
  6
CONTINUOUS
  0
LAYER
  2
44
 70
     0
 62
     7
  6
CONTINUOUS
  0
LAYER
  2
45
 70
     0
 62
     7
  6
CONTINUOUS
  0
LAYER
  2
46
 70
     0
 62
     7
  6
CONTINUOUS
  0
LAYER
  2
47
 70
     0
 62
     7
  6
CONTINUOUS
  0
LAYER
  2
48
 70
     0
 62
     7
  6
CONTINUOUS
  0
LAYER
  2
49
 70
     0
 62
     7
  6
CONTINUOUS
  0
LAYER
  2
50
 70
     0
 62
     7
  6
CONTINUOUS
  0
LAYER
  2
51
 70
     0
 62
     7
  6
CONTINUOUS
  0
LAYER
  2
52
 70
     0
 62
     7
  6
CONTINUOUS
  0
LAYER
  2
53
 70
     0
 62
     7
  6
CONTINUOUS
  0
LAYER
  2
54
 70
     0
 62
     7
  6
CONTINUOUS
  0
LAYER
  2
55
 70
     0
 62
     7
  6
CONTINUOUS
  0
LAYER
  2
56
 70
     0
 62
     7
  6
CONTINUOUS
  0
LAYER
  2
57
 70
     0
 62
     7
  6
CONTINUOUS
  0
LAYER
  2
58
 70
     0
 62
     7
  6
CONTINUOUS
  0
LAYER
  2
59
 70
     0
 62
     7
  6
CONTINUOUS
  0
LAYER
  2
60
 70
     0
 62
     7
  6
CONTINUOUS
  0
LAYER
  2
61
 70
     0
 62
     7
  6
CONTINUOUS
  0
LAYER
  2
62
 70
     0
 62
     7
  6
CONTINUOUS
  0
LAYER
  2
63
 70
     0
 62
     7
  6
CONTINUOUS
  0
LAYER
  2
64
 70
     0
 62
     7
  6
CONTINUOUS
  0
LAYER
  2
65
 70
     0
 62
     7
  6
CONTINUOUS
  0
LAYER
  2
66
 70
     0
 62
     7
  6
CONTINUOUS
  0
LAYER
  2
67
 70
     0
 62
     7
  6
CONTINUOUS
  0
LAYER
  2
68
 70
     0
 62
     7
  6
CONTINUOUS
  0
LAYER
  2
69
 70
     0
 62
     7
  6
CONTINUOUS
  0
LAYER
  2
70
 70
     0
 62
     7
  6
CONTINUOUS
  0
LAYER
  2
71
 70
     0
 62
     7
  6
CONTINUOUS
  0
LAYER
  2
72
 70
     0
 62
     7
  6
CONTINUOUS
  0
LAYER
  2
73
 70
     0
 62
     7
  6
CONTINUOUS
  0
LAYER
  2
74
 70
     0
 62
     7
  6
CONTINUOUS
  0
LAYER
  2
75
 70
     0
 62
     7
  6
CONTINUOUS
  0
LAYER
  2
76
 70
     0
 62
     7
  6
CONTINUOUS
  0
LAYER
  2
77
 70
     0
 62
     7
  6
CONTINUOUS
  0
LAYER
  2
78
 70
     0
 62
     7
  6
CONTINUOUS
  0
LAYER
  2
79
 70
     0
 62
     7
  6
CONTINUOUS
  0
LAYER
  2
80
 70
     0
 62
     7
  6
CONTINUOUS
  0
LAYER
  2
81
 70
     0
 62
     7
  6
CONTINUOUS
  0
LAYER
  2
82
 70
     0
 62
     7
  6
CONTINUOUS
  0
LAYER
  2
83
 70
     0
 62
     7
  6
CONTINUOUS
  0
LAYER
  2
84
 70
     0
 62
     7
  6
CONTINUOUS
  0
LAYER
  2
85
 70
     0
 62
     7
  6
CONTINUOUS
  0
LAYER
  2
86
 70
     0
 62
     7
  6
CONTINUOUS
  0
LAYER
  2
87
 70
     0
 62
     7
  6
CONTINUOUS
  0
LAYER
  2
88
 70
     0
 62
     7
  6
CONTINUOUS
  0
LAYER
  2
89
 70
     0
 62
     7
  6
CONTINUOUS
  0
LAYER
  2
90
 70
     0
 62
     7
  6
CONTINUOUS
  0
LAYER
  2
91
 70
     0
 62
     7
  6
CONTINUOUS
  0
LAYER
  2
92
 70
     0
 62
     7
  6
CONTINUOUS
  0
LAYER
  2
93
 70
     0
 62
     7
  6
CONTINUOUS
  0
LAYER
  2
94
 70
     0
 62
     7
  6
CONTINUOUS
  0
LAYER
  2
95
 70
     0
 62
     7
  6
CONTINUOUS
  0
LAYER
  2
96
 70
     0
 62
     7
  6
CONTINUOUS
  0
LAYER
  2
97
 70
     0
 62
     7
  6
CONTINUOUS
  0
LAYER
  2
98
 70
     0
 62
     7
  6
CONTINUOUS
  0
LAYER
  2
99
 70
     0
 62
     7
  6
CONTINUOUS
  0
LAYER
  2
100
 70
     0
 62
     7
  6
CONTINUOUS
  0
LAYER
  2
101
 70
     0
 62
     7
  6
CONTINUOUS
  0
LAYER
  2
102
 70
     0
 62
     7
  6
CONTINUOUS
  0
LAYER
  2
103
 70
     0
 62
     7
  6
CONTINUOUS
  0
LAYER
  2
104
 70
     0
 62
     7
  6
CONTINUOUS
  0
LAYER
  2
105
 70
     0
 62
     7
  6
CONTINUOUS
  0
LAYER
  2
106
 70
     0
 62
     7
  6
CONTINUOUS
  0
LAYER
  2
107
 70
     0
 62
     7
  6
CONTINUOUS
  0
LAYER
  2
108
 70
     0
 62
     7
  6
CONTINUOUS
  0
LAYER
  2
109
 70
     0
 62
     7
  6
CONTINUOUS
  0
LAYER
  2
110
 70
     0
 62
     7
  6
CONTINUOUS
  0
LAYER
  2
111
 70
     0
 62
     7
  6
CONTINUOUS
  0
LAYER
  2
112
 70
     0
 62
     7
  6
CONTINUOUS
  0
LAYER
  2
113
 70
     0
 62
     7
  6
CONTINUOUS
  0
LAYER
  2
114
 70
     0
 62
     7
  6
CONTINUOUS
  0
LAYER
  2
115
 70
     0
 62
     7
  6
CONTINUOUS
  0
LAYER
  2
116
 70
     0
 62
     7
  6
CONTINUOUS
  0
LAYER
  2
117
 70
     0
 62
     7
  6
CONTINUOUS
  0
LAYER
  2
118
 70
     0
 62
     7
  6
CONTINUOUS
  0
LAYER
  2
119
 70
     0
 62
     7
  6
CONTINUOUS
  0
LAYER
  2
120
 70
     0
 62
     7
  6
CONTINUOUS
  0
LAYER
  2
121
 70
     0
 62
     7
  6
CONTINUOUS
  0
LAYER
  2
122
 70
     0
 62
     7
  6
CONTINUOUS
  0
LAYER
  2
123
 70
     0
 62
     7
  6
CONTINUOUS
  0
LAYER
  2
124
 70
     0
 62
     7
  6
CONTINUOUS
  0
LAYER
  2
125
 70
     0
 62
     7
  6
CONTINUOUS
  0
LAYER
  2
126
 70
     0
 62
     7
  6
CONTINUOUS
  0
LAYER
  2
127
 70
     0
 62
     7
  6
CONTINUOUS
  0
LAYER
  2
128
 70
     0
 62
     7
  6
CONTINUOUS
  0
ENDTAB
  0
TABLE
  2
STYLE
 70
    82
  0
STYLE
  2
STANDARD
 70
     0
 40
0.0
 41
1.0
 50
0.0
 71
     0
 42
0.2
  3
txt.shx
  4
extfont.shx
  0
STYLE
  2
KANJI0
 70
     0
 40
18.1999986
 41
0.75
 50
0.0
 71
     0
 42
18.1999986
  3
txt.shx
  4
extfont.shx
  0
STYLE
  2
KANJI1
 70
     0
 40
13.999997056
 41
0.6
 50
0.0
 71
     0
 42
13.999997056
  3
txt.shx
  4
extfont.shx
  0
STYLE
  2
KANJI2
 70
     0
 40
16.799996468
 41
0.9
 50
0.0
 71
     0
 42
16.799996468
  3
txt.shx
  4
extfont.shx
  0
STYLE
  2
KANJI3
 70
     0
 40
20.999995585
 41
0.9
 50
0.0
 71
     0
 42
20.999995585
  3
txt.shx
  4
extfont.shx
  0
STYLE
  2
KANJI4
 70
     0
 40
12.1333324
 41
0.6
 50
0.0
 71
     0
 42
12.1333324
  3
txt.shx
  4
extfont.shx
  0
STYLE
  2
KANJI5
 70
     0
 40
14.55999888
 41
0.6
 50
0.0
 71
     0
 42
14.55999888
  3
txt.shx
  4
extfont.shx
  0
STYLE
  2
KANJI6
 70
     0
 40
21.2333317
 41
0.42031746
 50
0.0
 71
     0
 42
21.2333317
  3
txt.shx
  4
extfont.shx
  0
STYLE
  2
KANJI7
 70
     0
 40
36.3999972
 41
0.9
 50
0.0
 71
     0
 42
36.3999972
  3
txt.shx
  4
extfont.shx
  0
STYLE
  2
KANJI8
 70
     0
 40
25.2
 41
1.111111111
 50
0.0
 71
     0
 42
25.2
  3
txt.shx
  4
extfont.shx
  0
STYLE
  2
KANJI9
 70
     0
 40
12.1333324
 41
0.8
 50
0.0
 71
     0
 42
12.1333324
  3
txt.shx
  4
extfont.shx
  0
STYLE
  2
KANJI10
 70
     0
 40
14.55999888
 41
0.8
 50
0.0
 71
     0
 42
14.55999888
  3
txt.shx
  4
extfont.shx
  0
STYLE
  2
KANJI11
 70
     0
 40
35.0
 41
1.0
 50
0.0
 71
     0
 42
35.0
  3
txt.shx
  4
extfont.shx
  0
STYLE
  2
KANJI12
 70
     0
 40
35.0
 41
1.0
 50
0.0
 71
     0
 42
35.0
  3
txt.shx
  4
extfont.shx
  0
STYLE
  2
KANJI13
 70
     0
 40
35.0
 41
0.8
 50
0.0
 71
     0
 42
35.0
  3
txt.shx
  4
extfont.shx
  0
STYLE
  2
KANJI14
 70
     0
 40
28.0
 41
1.0
 50
0.0
 71
     0
 42
28.0
  3
txt.shx
  4
extfont.shx
  0
STYLE
  2
KANJI15
 70
     0
 40
31.5
 41
0.666666667
 50
0.0
 71
     0
 42
31.5
  3
txt.shx
  4
extfont.shx
  0
STYLE
  2
KANJI16
 70
     0
 40
21.0
 41
0.9
 50
0.0
 71
     0
 42
21.0
  3
txt.shx
  4
extfont.shx
  0
STYLE
  2
KANJI17
 70
     0
 40
14.99994
 41
0.9
 50
0.0
 71
     0
 42
14.99994
  3
txt.shx
  4
extfont.shx
  0
STYLE
  2
KANJI18
 70
     0
 40
15.379
 41
0.85
 50
0.0
 71
     0
 42
15.379
  3
txt.shx
  4
extfont.shx
  0
STYLE
  2
KANJI19
 70
     0
 40
13.6045
 41
0.822608696
 50
0.0
 71
     0
 42
13.6045
  3
txt.shx
  4
extfont.shx
  0
STYLE
  2
KANJI20
 70
     0
 40
13.8411
 41
0.726495726
 50
0.0
 71
     0
 42
13.8411
  3
txt.shx
  4
extfont.shx
  0
STYLE
  2
KANJI21
 70
     4
 40
52.5
 41
0.538166667
 50
0.0
 71
     0
 42
52.5
  3
txt.shx
  4
extfont.shx
  0
STYLE
  2
KANJI22
 70
     0
 40
20.697485939
 41
0.880962996
 50
0.0
 71
     0
 42
20.697485939
  3
txt.shx
  4
extfont.shx
  0
STYLE
  2
KANJI23
 70
     0
 40
13.65
 41
0.8
 50
0.0
 71
     0
 42
13.65
  3
txt.shx
  4
extfont.shx
  0
STYLE
  2
KANJI24
 70
     0
 40
17.5
 41
0.911
 50
0.0
 71
     0
 42
17.5
  3
txt.shx
  4
extfont.shx
  0
STYLE
  2
KANJI25
 70
     0
 40
17.92
 41
0.9
 50
0.0
 71
     0
 42
17.92
  3
txt.shx
  4
extfont.shx
  0
STYLE
  2
KANJI26
 70
     0
 40
16.8
 41
0.9
 50
0.0
 71
     0
 42
16.8
  3
txt.shx
  4
extfont.shx
  0
STYLE
  2
KANJI27
 70
     0
 40
16.8
 41
0.9
 50
0.0
 71
     0
 42
16.8
  3
txt.shx
  4
extfont.shx
  0
STYLE
  2
KANJI28
 70
     0
 40
19.6
 41
0.9
 50
0.0
 71
     0
 42
19.6
  3
txt.shx
  4
extfont.shx
  0
STYLE
  2
KANJI29
 70
     0
 40
15.12
 41
0.740740741
 50
0.0
 71
     0
 42
15.12
  3
txt.shx
  4
extfont.shx
  0
STYLE
  2
KANJI30
 70
     0
 40
19.6
 41
0.857142857
 50
0.0
 71
     0
 42
19.6
  3
txt.shx
  4
extfont.shx
  0
STYLE
  2
KANJI31
 70
     0
 40
18.223173404
 41
0.66671875
 50
0.0
 71
     0
 42
18.223173404
  3
txt.shx
  4
extfont.shx
  0
STYLE
  2
KANJI32
 70
     0
 40
21.6
 41
0.9
 50
0.0
 71
     0
 42
21.6
  3
txt.shx
  4
extfont.shx
  0
STYLE
  2
KANJI33
 70
     0
 40
12.96
 41
0.9
 50
0.0
 71
     0
 42
12.96
  3
txt.shx
  4
extfont.shx
  0
STYLE
  2
KANJI34
 70
     0
 40
17.28
 41
0.9
 50
0.0
 71
     0
 42
17.28
  3
txt.shx
  4
extfont.shx
  0
STYLE
  2
KANJI35
 70
     0
 40
18.72
 41
0.925
 50
0.0
 71
     0
 42
18.72
  3
txt.shx
  4
extfont.shx
  0
STYLE
  2
KANJI36
 70
     0
 40
17.49993
 41
0.9
 50
0.0
 71
     0
 42
17.49993
  3
txt.shx
  4
extfont.shx
  0
STYLE
  2
KANJI37
 70
     0
 40
15.0
 41
0.9
 50
0.0
 71
     0
 42
15.0
  3
txt.shx
  4
extfont.shx
  0
STYLE
  2
KANJI38
 70
     0
 40
28.0
 41
0.9
 50
0.0
 71
     0
 42
28.0
  3
txt.shx
  4
extfont.shx
  0
STYLE
  2
KANJI39
 70
     0
 40
24.5
 41
0.857142857
 50
0.0
 71
     0
 42
24.5
  3
txt.shx
  4
extfont.shx
  0
STYLE
  2
KANJI40
 70
     0
 40
21.0
 41
0.914285714
 50
0.0
 71
     0
 42
21.0
  3
txt.shx
  4
extfont.shx
  0
STYLE
  2
KANJI41
 70
     0
 40
18.0
 41
0.9
 50
0.0
 71
     0
 42
18.0
  3
txt.shx
  4
extfont.shx
  0
STYLE
  2
KANJI42
 70
     0
 40
20.0
 41
0.925
 50
0.0
 71
     0
 42
20.0
  3
txt.shx
  4
extfont.shx
  0
STYLE
  2
KANJI43
 70
     0
 40
21.0
 41
0.9
 50
0.0
 71
     0
 42
21.0
  3
txt.shx
  4
extfont.shx
  0
STYLE
  2
KANJI44
 70
     0
 40
16.8
 41
0.833333333
 50
0.0
 71
     0
 42
16.8
  3
txt.shx
  4
extfont.shx
  0
STYLE
  2
KANJI45
 70
     0
 40
24.5
 41
0.793650794
 50
0.0
 71
     0
 42
24.5
  3
txt.shx
  4
extfont.shx
  0
STYLE
  2
KANJI46
 70
     0
 40
35.0
 41
0.8
 50
0.0
 71
     0
 42
35.0
  3
txt.shx
  4
extfont.shx
  0
STYLE
  2
KANJI47
 70
     0
 40
24.5
 41
0.857142857
 50
0.0
 71
     0
 42
24.5
  3
txt.shx
  4
extfont.shx
  0
STYLE
  2
KANJI48
 70
     0
 40
24.5
 41
0.571428571
 50
0.0
 71
     0
 42
24.5
  3
txt.shx
  4
extfont.shx
  0
STYLE
  2
KANJI49
 70
     0
 40
21.0
 41
0.833333333
 50
0.0
 71
     0
 42
21.0
  3
txt.shx
  4
extfont.shx
  0
STYLE
  2
KANJI50
 70
     0
 40
26.6
 41
0.9
 50
0.0
 71
     0
 42
26.6
  3
txt.shx
  4
extfont.shx
  0
STYLE
  2
KANJI51
 70
     0
 40
26.6
 41
0.9
 50
0.0
 71
     0
 42
26.6
  3
txt.shx
  4
extfont.shx
  0
STYLE
  2
KANJI52
 70
     0
 40
31.5
 41
0.9
 50
0.0
 71
     0
 42
31.5
  3
txt.shx
  4
extfont.shx
  0
STYLE
  2
KANJI53
 70
     0
 40
26.6
 41
0.9
 50
0.0
 71
     0
 42
26.6
  3
txt.shx
  4
extfont.shx
  0
STYLE
  2
KANJI54
 70
     0
 40
26.6
 41
0.9
 50
0.0
 71
     0
 42
26.6
  3
txt.shx
  4
extfont.shx
  0
STYLE
  2
KANJI55
 70
     0
 40
26.6
 41
0.9
 50
0.0
 71
     0
 42
26.6
  3
txt.shx
  4
extfont.shx
  0
STYLE
  2
KANJI56
 70
     0
 40
26.6
 41
0.9
 50
0.0
 71
     0
 42
26.6
  3
txt.shx
  4
extfont.shx
  0
STYLE
  2
KANJI57
 70
     0
 40
26.6
 41
0.9
 50
0.0
 71
     0
 42
26.6
  3
txt.shx
  4
extfont.shx
  0
STYLE
  2
KANJI58
 70
     0
 40
26.6
 41
0.9
 50
0.0
 71
     0
 42
26.6
  3
txt.shx
  4
extfont.shx
  0
STYLE
  2
KANJI59
 70
     4
 40
24.5
 41
0.9
 50
0.0
 71
     0
 42
24.5
  3
txt.shx
  4
extfont.shx
  0
STYLE
  2
KANJI60
 70
     4
 40
24.5
 41
0.9
 50
0.0
 71
     0
 42
24.5
  3
txt.shx
  4
extfont.shx
  0
STYLE
  2
KANJI61
 70
     0
 40
24.5
 41
0.9
 50
0.0
 71
     0
 42
24.5
  3
txt.shx
  4
extfont.shx
  0
STYLE
  2
KANJI62
 70
     0
 40
21.0
 41
0.9
 50
0.0
 71
     0
 42
21.0
  3
txt.shx
  4
extfont.shx
  0
STYLE
  2
KANJI63
 70
     0
 40
26.6
 41
0.9
 50
0.0
 71
     0
 42
26.6
  3
txt.shx
  4
extfont.shx
  0
STYLE
  2
KANJI64
 70
     0
 40
26.6
 41
0.9
 50
0.0
 71
     0
 42
26.6
  3
txt.shx
  4
extfont.shx
  0
STYLE
  2
KANJI65
 70
     0
 40
24.5
 41
0.628571429
 50
0.0
 71
     0
 42
24.5
  3
txt.shx
  4
extfont.shx
  0
STYLE
  2
KANJI66
 70
     0
 40
23.8
 41
0.705882353
 50
0.0
 71
     0
 42
23.8
  3
txt.shx
  4
extfont.shx
  0
STYLE
  2
KANJI67
 70
     0
 40
21.0
 41
0.8
 50
0.0
 71
     0
 42
21.0
  3
txt.shx
  4
extfont.shx
  0
STYLE
  2
KANJI68
 70
     0
 40
22.4
 41
0.71875
 50
0.0
 71
     0
 42
22.4
  3
txt.shx
  4
extfont.shx
  0
STYLE
  2
KANJI69
 70
     0
 40
22.4
 41
0.8
 50
0.0
 71
     0
 42
22.4
  3
txt.shx
  4
extfont.shx
  0
STYLE
  2
KANJI70
 70
     0
 40
24.5
 41
0.571428571
 50
0.0
 71
     0
 42
24.5
  3
txt.shx
  4
extfont.shx
  0
STYLE
  2
KANJI71
 70
     0
 40
21.0
 41
0.833333333
 50
0.0
 71
     0
 42
21.0
  3
txt.shx
  4
extfont.shx
  0
STYLE
  2
KANJI72
 70
     0
 40
21.0
 41
0.833333333
 50
0.0
 71
     0
 42
21.0
  3
txt.shx
  4
extfont.shx
  0
STYLE
  2
KANJI73
 70
     0
 40
12.0
 41
0.9
 50
0.0
 71
     0
 42
12.0
  3
txt.shx
  4
extfont.shx
  0
STYLE
  2
KANJI74
 70
     0
 40
10.0
 41
0.85
 50
0.0
 71
     0
 42
10.0
  3
txt.shx
  4
extfont.shx
  0
STYLE
  2
KANJI75
 70
     0
 40
10.0
 41
0.75
 50
0.0
 71
     0
 42
10.0
  3
txt.shx
  4
extfont.shx
  0
STYLE
  2
KANJI76
 70
     0
 40
15.0
 41
0.9
 50
0.0
 71
     0
 42
15.0
  3
txt.shx
  4
extfont.shx
  0
STYLE
  2
KANJI77
 70
     0
 40
28.0
 41
1.0
 50
0.0
 71
     0
 42
28.0
  3
txt.shx
  4
extfont.shx
  0
STYLE
  2
KANJI78
 70
     0
 40
26.6
 41
0.9
 50
0.0
 71
     0
 42
26.6
  3
txt.shx
  4
extfont.shx
  0
STYLE
  2
KANJI79
 70
     0
 40
20.0
 41
0.925
 50
0.0
 71
     0
 42
20.0
  3
txt.shx
  4
extfont.shx
  0
STYLE
  2
KANJI80
 70
     0
 40
24.5
 41
0.9
 50
0.0
 71
     0
 42
24.5
  3
txt.shx
  4
extfont.shx
  0
ENDTAB
  0
TABLE
  2
VIEW
 70
     0
  0
ENDTAB
  0
ENDSEC
  0
SECTION
  2
BLOCKS
  0
ENDSEC
  0
SECTION
  2
ENTITIES
  0
POLYLINE
  8
0
  6
CONTINUOUS
 62
     6
 66
     1
  0
VERTEX
  8
0
  6
CONTINUOUS
 62
     6
 10
93.333333333
 20
83.833333333
 30
0.0
  0
VERTEX
  8
0
  6
CONTINUOUS
 62
     6
 10
93.333333333
 20
1966.833333333
 30
0.0
  0
VERTEX
  8
0
  6
CONTINUOUS
 62
     6
 10
2802.333333333
 20
1966.833333333
 30
0.0
  0
SEQEND
  0
LINE
  8
0
  6
CONTINUOUS
 62
     6
 10
100.333331862
 20
188.833311256
 30
0.0
 11
555.333236195
 21
188.833311256
 31
0.0
  0
LINE
  8
0
  6
CONTINUOUS
 62
     6
 10
100.333331862
 20
90.833331862
 30
0.0
 11
555.333236195
 21
90.833331862
 31
0.0
  0
LINE
  8
0
  6
CONTINUOUS
 62
     6
 10
100.333331862
 20
90.833331862
 30
0.0
 11
100.333331862
 21
188.833311256
 31
0.0
  0
LINE
  8
0
  6
CONTINUOUS
 62
     6
 10
100.333331862
 20
139.833321559
 30
0.0
 11
555.333236195
 21
139.833321559
 31
0.0
  0
LINE
  8
0
  6
CONTINUOUS
 62
     4
 10
13.649999533
 20
89.899999533
 30
0.0
 11
86.449993933
 21
89.899999533
 31
0.0
  0
LINE
  8
0
  6
CONTINUOUS
 62
     4
 10
13.649999533
 20
126.299996733
 30
0.0
 11
86.449993933
 21
126.299996733
 31
0.0
  0
LINE
  8
0
  6
CONTINUOUS
 62
     4
 10
13.649999533
 20
162.699993933
 30
0.0
 11
86.449993933
 21
162.699993933
 31
0.0
  0
LINE
  8
0
  6
CONTINUOUS
 62
     4
 10
13.649999533
 20
199.099991133
 30
0.0
 11
86.449993933
 21
199.099991133
 31
0.0
  0
LINE
  8
0
  6
CONTINUOUS
 62
     4
 10
13.649999533
 20
235.499988333
 30
0.0
 11
86.449993933
 21
235.499988333
 31
0.0
  0
LINE
  8
0
  6
CONTINUOUS
 62
     4
 10
13.649999533
 20
271.899985533
 30
0.0
 11
86.449993933
 21
271.899985533
 31
0.0
  0
LINE
  8
0
  6
CONTINUOUS
 62
     4
 10
13.649999533
 20
308.299982733
 30
0.0
 11
86.449993933
 21
308.299982733
 31
0.0
  0
LINE
  8
0
  6
CONTINUOUS
 62
     4
 10
13.649999533
 20
344.699979933
 30
0.0
 11
86.449993933
 21
344.699979933
 31
0.0
  0
LINE
  8
0
  6
CONTINUOUS
 62
     4
 10
13.649999533
 20
381.099977133
 30
0.0
 11
86.449993933
 21
381.099977133
 31
0.0
  0
LINE
  8
0
  6
CONTINUOUS
 62
     4
 10
13.649999533
 20
417.499974333
 30
0.0
 11
86.449993933
 21
417.499974333
 31
0.0
  0
LINE
  8
0
  6
CONTINUOUS
 62
     4
 10
86.449993933
 20
89.899999533
 30
0.0
 11
86.449993933
 21
417.499974333
 31
0.0
  0
LINE
  8
0
  6
CONTINUOUS
 62
     4
 10
50.049996733
 20
89.899999533
 30
0.0
 11
50.049996733
 21
381.099977133
 31
0.0
  0
TEXT
  8
0
  6
CONTINUOUS
 62
     4
 10
26.086665243
 20
100.516665383
 30
1.81999986
 40
18.1999986
  1
計
 50
0.0
 41
0.75
 51
0.0
  7
KANJI0
  0
TEXT
  8
0
  6
CONTINUOUS
 62
     4
 10
26.086665243
 20
173.923326403
 30
1.81999986
 40
18.1999986
  1
設
 50
0.0
 41
0.75
 51
0.0
  7
KANJI0
  0
TEXT
  8
0
  6
CONTINUOUS
 62
     4
 10
26.086665243
 20
209.716656983
 30
1.81999986
 40
18.1999986
  1
管
 50
0.0
 41
0.75
 51
0.0
  7
KANJI0
  0
TEXT
  8
0
  6
CONTINUOUS
 62
     4
 10
26.086665243
 20
246.116654183
 30
1.81999986
 40
18.1999986
  1
製
 50
0.0
 41
0.75
 51
0.0
  7
KANJI0
  0
TEXT
  8
0
  6
CONTINUOUS
 62
     4
 10
26.086665243
 20
282.516651383
 30
1.81999986
 40
18.1999986
  1
資
 50
0.0
 41
0.75
 51
0.0
  7
KANJI0
  0
TEXT
  8
0
  6
CONTINUOUS
 62
     4
 10
26.086665243
 20
318.916648583
 30
1.81999986
 40
18.1999986
  1
営
 50
0.0
 41
0.75
 51
0.0
  7
KANJI0
  0
TEXT
  8
0
  6
CONTINUOUS
 62
     4
 10
26.086665243
 20
355.316645783
 30
1.81999986
 40
18.1999986
  1
客
 50
0.0
 41
0.75
 51
0.0
  7
KANJI0
  0
TEXT
  8
0
  6
CONTINUOUS
 62
     4
 10
25.783331933
 20
393.233309533
 30
1.81999986
 40
18.1999986
  1
出　図
 50
0.0
 41
0.75
 51
0.0
  7
KANJI0
  0
LINE
  8
0
  6
CONTINUOUS
 62
     4
 10
13.649999533
 20
89.899999533
 30
0.0
 11
13.649999533
 21
417.499974333
 31
0.0
  0
LINE
  8
0
  6
CONTINUOUS
 62
     6
 10
2802.333333333
 20
83.833333333
 30
0.0
 11
93.333333333
 21
83.833333333
 31
0.0
  0
TEXT
  8
0
  6
CONTINUOUS
 62
     4
 10
114.333328918
 20
118.833325974
 30
1.399999706
 40
13.999997056
  1
ＰＡＲＴＳ　ＬＩＳＴ
 50
0.0
 41
0.6
 51
0.0
  7
KANJI1
  0
TEXT
  8
0
  6
CONTINUOUS
 62
     4
 10
114.333328918
 20
97.83333039
 30
1.679999647
 40
16.799996468
  1
部品表
 50
0.0
 41
0.9
 51
0.0
  7
KANJI2
  0
TEXT
  8
0
  6
CONTINUOUS
 62
     3
 10
114.333328918
 20
153.833318615
 30
2.099999558
 40
20.999995585
  1
ＰＬ
 50
0.0
 41
0.9
 51
0.0
  7
KANJI3
  0
TEXT
  8
0
  6
CONTINUOUS
 62
     4
 10
429.333262687
 20
118.833325974
 30
1.399999706
 40
13.999997056
  1
Ｎ０．
 50
0.0
 41
0.6
 51
0.0
  7
KANJI1
  0
TEXT
  8
0
  6
CONTINUOUS
 62
     4
 10
429.333262687
 20
97.83333039
 30
1.679999647
 40
16.799996468
  1
項番
 50
0.0
 41
0.9
 51
0.0
  7
KANJI2
  0
LINE
  8
0
  6
CONTINUOUS
 62
     6
 10
555.333236195
 20
90.833331862
 30
0.0
 11
555.333236195
 21
188.833311256
 31
0.0
  0
LINE
  8
0
  6
CONTINUOUS
 62
     6
 10
415.333265631
 20
90.833331862
 30
0.0
 11
415.333265631
 21
188.833311256
 31
0.0
  0
LINE
  8
0
  6
CONTINUOUS
 62
     6
 10
2802.333333333
 20
1966.833333333
 30
0.0
 11
2802.333333333
 21
83.833333333
 31
0.0
  0
LINE
  8
0
  6
CONTINUOUS
 62
     6
 10
1862.000072333
 20
89.899999533
 30
0.0
 11
1862.000072333
 21
478.166636333
 31
0.0
  0
LINE
  8
0
  6
CONTINUOUS
 62
     6
 10
2796.266667133
 20
89.899999533
 30
0.0
 11
2796.266667133
 21
478.166636333
 31
0.0
  0
LINE
  8
0
  6
CONTINUOUS
 62
     4
 10
2083.433388633
 20
89.899999533
 30
0.0
 11
2083.433388633
 21
478.166636333
 31
0.0
  0
LINE
  8
0
  6
CONTINUOUS
 62
     4
 10
1862.000072333
 20
138.433329133
 30
0.0
 11
2083.433388633
 21
138.433329133
 31
0.0
  0
TEXT
  8
0
  6
CONTINUOUS
 62
     4
 10
1874.133404733
 20
117.199997433
 30
1.21333324
 40
12.1333324
  1
ＳＣＡＬＥ
 50
0.0
 41
0.6
 51
0.0
  7
KANJI4
  0
TEXT
  8
0
  6
CONTINUOUS
 62
     4
 10
1874.133404733
 20
98.999998833
 30
1.455999888
 40
14.55999888
  1
尺度
 50
0.0
 41
0.6
 51
0.0
  7
KANJI5
  0
LINE
  8
0
  6
CONTINUOUS
 62
     6
 10
1382.733442533
 20
138.433329133
 30
0.0
 11
1862.000072333
 21
138.433329133
 31
0.0
  0
LINE
  8
0
  6
CONTINUOUS
 62
     6
 10
1382.733442533
 20
89.899999533
 30
0.0
 11
2796.266667133
 21
89.899999533
 31
0.0
  0
TEXT
  8
0
  6
CONTINUOUS
 62
     6
 10
2089.500054833
 20
117.199997433
 30
0.0
 40
21.2333317
  1
ＵＮＩＴＥＣ　ＩＮＤＵＳＴＲＹ　ＣＯ．，ＬＴＤ．
 50
0.0
 41
0.42031746
 51
0.0
  7
KANJI6
  0
TEXT
  8
0
  6
CONTINUOUS
 62
     6
 10
2387.297531926
 20
109.313331373
 30
3.63999972
 40
36.3999972
  1
ユニテック工業株式会社
 50
0.0
 41
0.9
 51
0.0
  7
KANJI7
  0
LINE
  8
0
  6
CONTINUOUS
 62
     6
 10
2338.764202326
 20
122.053330393
 30
0.0
 11
2322.748203558
 21
122.053330393
 31
0.0
  0
LINE
  8
0
  6
CONTINUOUS
 62
     6
 10
2338.764202326
 20
124.965330169
 30
0.0
 11
2322.748203558
 21
124.965330169
 31
0.0
  0
LINE
  8
0
  6
CONTINUOUS
 62
     6
 10
2338.764202326
 20
122.053330393
 30
0.0
 11
2354.780201094
 21
122.053330393
 31
0.0
  0
LINE
  8
0
  6
CONTINUOUS
 62
     6
 10
2338.764202326
 20
124.965330169
 30
0.0
 11
2354.780201094
 21
124.965330169
 31
0.0
  0
LINE
  8
0
  6
CONTINUOUS
 62
     6
 10
2354.780201094
 20
124.965330169
 30
0.0
 11
2354.780201094
 21
122.053330393
 31
0.0
  0
ARC
  8
0
  6
CONTINUOUS
 62
     6
 10
2358.420200814
 20
123.509330281
 30
0.0
 40
14.55999888
 50
185.739170477
 51
90.0
  0
ARC
  8
0
  6
CONTINUOUS
 62
     6
 10
2358.420200814
 20
123.509330281
 30
0.0
 40
17.471998656
 50
184.780191847
 51
90.0
  0
LINE
  8
0
  6
CONTINUOUS
 62
     6
 10
2322.748203558
 20
122.053330393
 30
0.0
 11
2322.748203558
 21
124.965330169
 31
0.0
  0
ARC
  8
0
  6
CONTINUOUS
 62
     6
 10
2319.108203838
 20
123.509330281
 30
0.0
 40
14.55999888
 50
90.0
 51
354.260829523
  0
ARC
  8
0
  6
CONTINUOUS
 62
     6
 10
2319.108203838
 20
123.509330281
 30
0.0
 40
17.471998656
 50
90.0
 51
355.219808153
  0
LINE
  8
0
  6
CONTINUOUS
 62
     6
 10
2336.580202494
 20
140.981328937
 30
0.0
 11
2336.580202494
 21
138.069329161
 31
0.0
  0
LINE
  8
0
  6
CONTINUOUS
 62
     6
 10
2319.108203838
 20
138.069329161
 30
0.0
 11
2336.580202494
 21
138.069329161
 31
0.0
  0
LINE
  8
0
  6
CONTINUOUS
 62
     6
 10
2340.948202158
 20
140.981328937
 30
0.0
 11
2340.948202158
 21
138.069329161
 31
0.0
  0
LINE
  8
0
  6
CONTINUOUS
 62
     6
 10
2358.420200814
 20
138.069329161
 30
0.0
 11
2340.948202158
 21
138.069329161
 31
0.0
  0
TEXT
  8
0
  6
CONTINUOUS
 62
     4
 10
1537.433430633
 20
117.199997433
 30
1.21333324
 40
12.1333324
  1
ＢＹ
 50
0.0
 41
0.6
 51
0.0
  7
KANJI4
  0
TEXT
  8
0
  6
CONTINUOUS
 62
     4
 10
1670.900087033
 20
117.199997433
 30
1.21333324
 40
12.1333324
  1
ＤＥＳＣＲＩＰＴＩＯＮ
 50
0.0
 41
0.6
 51
0.0
  7
KANJI4
  0
TEXT
  8
0
  6
CONTINUOUS
 62
     4
 10
1537.433430633
 20
98.999998833
 30
1.455999888
 40
14.55999888
  1
担当
 50
0.0
 41
0.6
 51
0.0
  7
KANJI5
  0
TEXT
  8
0
  6
CONTINUOUS
 62
     4
 10
1689.100085633
 20
98.999998833
 30
1.455999888
 40
14.55999888
  1
記　　　　事
 50
0.0
 41
0.6
 51
0.0
  7
KANJI5
  0
LINE
  8
0
  6
CONTINUOUS
 62
     4
 10
1408.516773883
 20
129.333329833
 30
0.0
 11
1388.800108733
 21
98.999998833
 31
0.0
  0
TEXT
  8
0
  6
CONTINUOUS
 62
     4
 10
1458.566770033
 20
117.199997433
 30
1.21333324
 40
12.1333324
  1
ＤＡＴＥ
 50
0.0
 41
0.6
 51
0.0
  7
KANJI4
  0
TEXT
  8
0
  6
CONTINUOUS
 62
     4
 10
1467.666769333
 20
98.999998833
 30
1.455999888
 40
14.55999888
  1
日付
 50
0.0
 41
0.6
 51
0.0
  7
KANJI5
  0
LINE
  8
0
  6
CONTINUOUS
 62
     4
 10
1388.800108733
 20
98.999998833
 30
0.0
 11
1428.233439033
 21
98.999998833
 31
0.0
  0
LINE
  8
0
  6
CONTINUOUS
 62
     4
 10
1408.516773883
 20
129.333329833
 30
0.0
 11
1428.233439033
 21
98.999998833
 31
0.0
  0
LINE
  8
0
  6
CONTINUOUS
 62
     6
 10
1382.733442533
 20
89.899999533
 30
0.0
 11
1382.733442533
 21
138.433329133
 31
0.0
  0
LINE
  8
0
  6
CONTINUOUS
 62
     4
 10
1434.300105233
 20
89.899999533
 30
0.0
 11
1434.300105233
 21
138.433329133
 31
0.0
  0
LINE
  8
0
  6
CONTINUOUS
 62
     4
 10
1519.233432033
 20
89.899999533
 30
0.0
 11
1519.233432033
 21
138.433329133
 31
0.0
  0
LINE
  8
0
  6
CONTINUOUS
 62
     4
 10
1573.833427833
 20
89.899999533
 30
0.0
 11
1573.833427833
 21
138.433329133
 31
0.0
  0
TEXT
  8
0
  6
CONTINUOUS
 62
     4
 10
1874.133404733
 20
359.866645433
 30
1.21333324
 40
12.1333324
  1
ＣＯＤＥ
 50
0.0
 41
0.6
 51
0.0
  7
KANJI4
  0
LINE
  8
0
  6
CONTINUOUS
 62
     4
 10
1862.000072333
 20
381.099977133
 30
0.0
 11
2796.266667133
 21
381.099977133
 31
0.0
  0
TEXT
  8
0
  6
CONTINUOUS
 62
     4
 10
1874.133404733
 20
341.666646833
 30
1.455999888
 40
14.55999888
  1
分類
 50
0.0
 41
0.6
 51
0.0
  7
KANJI5
  0
TEXT
  8
0
  6
CONTINUOUS
 62
     4
 10
1883.583333333
 20
388.333333333
 30
7.0
 40
25.2
  1
ご注文主
 50
0.0
 41
1.111111111
 51
0.0
  7
KANJI8
  0
TEXT
  8
0
  6
CONTINUOUS
 62
     4
 10
1874.133404733
 20
214.266656633
 30
1.21333324
 40
12.1333324
  1
ＤＲＡＷＮ
 50
0.0
 41
0.6
 51
0.0
  7
KANJI4
  0
TEXT
  8
0
  6
CONTINUOUS
 62
     4
 10
1874.133404733
 20
262.799986233
 30
1.21333324
 40
12.1333324
  1
ＤＥＳＩＧＮ
 50
0.0
 41
0.6
 51
0.0
  7
KANJI4
  0
TEXT
  8
0
  6
CONTINUOUS
 62
     4
 10
1874.133404733
 20
311.333315833
 30
1.21333324
 40
12.1333324
  1
ＣＨＥＣＫ
 50
0.0
 41
0.6
 51
0.0
  7
KANJI4
  0
LINE
  8
0
  6
CONTINUOUS
 62
     4
 10
1862.000072333
 20
284.033317933
 30
0.0
 11
2083.433388633
 21
284.033317933
 31
0.0
  0
LINE
  8
0
  6
CONTINUOUS
 62
     4
 10
1862.000072333
 20
235.499988333
 30
0.0
 11
2083.433388633
 21
235.499988333
 31
0.0
  0
LINE
  8
0
  6
CONTINUOUS
 62
     4
 10
1862.000072333
 20
332.566647533
 30
0.0
 11
2083.433388633
 21
332.566647533
 31
0.0
  0
TEXT
  8
0
  6
CONTINUOUS
 62
     4
 10
1874.133404733
 20
244.599987633
 30
1.455999888
 40
14.55999888
  1
設計
 50
0.0
 41
0.6
 51
0.0
  7
KANJI5
  0
TEXT
  8
0
  6
CONTINUOUS
 62
     4
 10
1874.133404733
 20
293.133317233
 30
1.455999888
 40
14.55999888
  1
検図
 50
0.0
 41
0.6
 51
0.0
  7
KANJI5
  0
LINE
  8
0
  6
CONTINUOUS
 62
     4
 10
2101.330053923
 20
332.566647533
 30
0.0
 11
2796.266667133
 21
332.566647533
 31
0.0
  0
LINE
  8
0
  6
CONTINUOUS
 62
     4
 10
2083.433388633
 20
235.499988333
 30
0.0
 11
2796.266667133
 21
235.499988333
 31
0.0
  0
TEXT
  8
0
  6
CONTINUOUS
 62
     4
 10
2095.566721033
 20
214.266656633
 30
1.21333324
 40
12.1333324
  1
ＤＲＡＷＩＮＧ　ＮＯ．
 50
0.0
 41
0.8
 51
0.0
  7
KANJI9
  0
TEXT
  8
0
  6
CONTINUOUS
 62
     4
 10
2095.566721033
 20
262.799986233
 30
1.21333324
 40
12.1333324
  1
ＭＦＧ　ＮＯ．
 50
0.0
 41
0.8
 51
0.0
  7
KANJI9
  0
TEXT
  8
0
  6
CONTINUOUS
 62
     4
 10
2095.566721033
 20
311.333315833
 30
1.21333324
 40
12.1333324
  1
ＴＹＰＥ
 50
0.0
 41
0.8
 51
0.0
  7
KANJI9
  0
LINE
  8
0
  6
CONTINUOUS
 62
     4
 10
2101.633387233
 20
284.033317933
 30
0.0
 11
2380.700032433
 21
284.033317933
 31
0.0
  0
TEXT
  8
0
  6
CONTINUOUS
 62
     4
 10
2095.566721033
 20
193.033324933
 30
1.455999888
 40
14.55999888
  1
図　面　番　号
 50
0.0
 41
0.8
 51
0.0
  7
KANJI10
  0
TEXT
  8
0
  6
CONTINUOUS
 62
     4
 10
2095.566721033
 20
241.566654533
 30
1.455999888
 40
14.55999888
  1
製番
 50
0.0
 41
0.8
 51
0.0
  7
KANJI10
  0
TEXT
  8
0
  6
CONTINUOUS
 62
     4
 10
2095.566721033
 20
290.099984133
 30
1.455999888
 40
14.55999888
  1
機種
 50
0.0
 41
0.8
 51
0.0
  7
KANJI10
  0
LINE
  8
0
  6
CONTINUOUS
 62
     4
 10
1862.000072333
 20
186.966658733
 30
0.0
 11
2083.433388633
 21
186.966658733
 31
0.0
  0
TEXT
  8
0
  6
CONTINUOUS
 62
     4
 10
1874.133404733
 20
165.733327033
 30
1.21333324
 40
12.1333324
  1
ＤＡＴＥ
 50
0.0
 41
0.6
 51
0.0
  7
KANJI4
  0
TEXT
  8
0
  6
CONTINUOUS
 62
     4
 10
1874.133404733
 20
147.533328433
 30
1.455999888
 40
14.55999888
  1
日付
 50
0.0
 41
0.6
 51
0.0
  7
KANJI5
  0
TEXT
  8
0
  6
CONTINUOUS
 62
     4
 10
1874.133404733
 20
196.066658033
 30
1.455999888
 40
14.55999888
  1
作図
 50
0.0
 41
0.6
 51
0.0
  7
KANJI5
  0
LINE
  8
0
  6
CONTINUOUS
 62
     4
 10
2083.433388633
 20
165.733327033
 30
0.0
 11
2796.266667133
 21
165.733327033
 31
0.0
  0
LINE
  8
0
  6
LTYPE1
 62
     4
 10
2593.033349433
 20
174.833326333
 30
0.0
 11
2593.033349433
 21
223.366655933
 31
0.0
  0
LINE
  8
0
  6
LTYPE1
 62
     4
 10
2550.566686033
 20
174.833326333
 30
0.0
 11
2550.566686033
 21
223.366655933
 31
0.0
  0
LINE
  8
0
  6
LTYPE1
 62
     4
 10
2508.100022633
 20
174.833326333
 30
0.0
 11
2508.100022633
 21
223.366655933
 31
0.0
  0
LINE
  8
0
  6
LTYPE1
 62
     4
 10
2465.633359233
 20
174.833326333
 30
0.0
 11
2465.633359233
 21
223.366655933
 31
0.0
  0
LINE
  8
0
  6
LTYPE1
 62
     4
 10
2423.166695833
 20
174.833326333
 30
0.0
 11
2423.166695833
 21
223.366655933
 31
0.0
  0
LINE
  8
0
  6
LTYPE1
 62
     4
 10
2380.700032433
 20
174.833326333
 30
0.0
 11
2380.700032433
 21
223.366655933
 31
0.0
  0
LINE
  8
0
  6
LTYPE1
 62
     4
 10
2338.233369033
 20
174.833326333
 30
0.0
 11
2338.233369033
 21
223.366655933
 31
0.0
  0
LINE
  8
0
  6
LTYPE1
 62
     4
 10
2295.766705633
 20
174.833326333
 30
0.0
 11
2295.766705633
 21
223.366655933
 31
0.0
  0
LINE
  8
0
  6
LTYPE1
 62
     4
 10
2295.766705633
 20
223.366655933
 30
0.0
 11
2593.033349433
 21
223.366655933
 31
0.0
  0
LINE
  8
0
  6
LTYPE1
 62
     4
 10
2295.766705633
 20
174.833326333
 30
0.0
 11
2593.033349433
 21
174.833326333
 31
0.0
  0
LINE
  8
0
  6
CONTINUOUS
 62
     4
 10
2617.300014233
 20
200.616657683
 30
0.0
 11
2629.433346633
 21
200.616657683
 31
0.0
  0
LINE
  8
0
  6
CONTINUOUS
 62
     4
 10
2693.133341733
 20
182.416659083
 30
0.0
 11
2650.666678333
 21
182.416659083
 31
0.0
  0
LINE
  8
0
  6
CONTINUOUS
 62
     4
 10
2650.666678333
 20
182.416659083
 30
0.0
 11
2671.900010033
 21
218.816656283
 31
0.0
  0
LINE
  8
0
  6
CONTINUOUS
 62
     4
 10
2671.900010033
 20
218.816656283
 30
0.0
 11
2693.133341733
 21
182.416659083
 31
0.0
  0
TEXT
  8
0
  6
CONTINUOUS
 62
     4
 10
2398.900031033
 20
311.333315833
 30
1.21333324
 40
12.1333324
  1
ＴＩＴＬＥ
 50
0.0
 41
0.8
 51
0.0
  7
KANJI9
  0
TEXT
  8
0
  6
CONTINUOUS
 62
     4
 10
2398.900031033
 20
290.099984133
 30
1.455999888
 40
14.55999888
  1
名称
 50
0.0
 41
0.8
 51
0.0
  7
KANJI10
  0
TEXT
  8
0
  6
CONTINUOUS
 62
     2
 10
2497.833333333
 20
244.833333333
 30
17.5
 40
35.0
  1
外形寸法図
 50
0.0
 41
1.0
 51
0.0
  7
KANJI11
  0
TEXT
  8
0
  6
CONTINUOUS
 62
     2
 10
2455.833333333
 20
286.833333333
 30
5.0
 40
35.0
  1
マイティシリンダ
 50
0.0
 41
1.0
 51
0.0
  7
KANJI12
  0
TEXT
  8
0
  6
CONTINUOUS
 62
     2
 10
2259.016705633
 20
181.833326333
 30
2.1
 40
35.0
  1
Ａ
 50
0.0
 41
0.8
 51
0.0
  7
KANJI13
  0
CIRCLE
  8
0
  6
CONTINUOUS
 62
     2
 10
2213.516705633
 20
257.083326333
 30
0.0
 40
17.5
  0
TEXT
  8
0
  6
CONTINUOUS
 62
     2
 10
2200.391705633
 20
243.958326333
 30
2.1
 40
28.0
  1
Ｓ
 50
0.0
 41
1.0
 51
0.0
  7
KANJI14
  0
LINE
  8
0
  6
CONTINUOUS
 62
     6
 10
2336.580202494
 20
140.981328937
 30
0.0
 11
2319.108203838
 21
140.981328937
 31
0.0
  0
LINE
  8
0
  6
CONTINUOUS
 62
     6
 10
2340.948202158
 20
140.981328937
 30
0.0
 11
2358.420200814
 21
140.981328937
 31
0.0
  0
LINE
  8
0
  6
CONTINUOUS
 62
     4
 10
2796.266667133
 20
429.633306733
 30
0.0
 11
2796.266667133
 21
478.166636333
 31
0.0
  0
LINE
  8
0
  6
CONTINUOUS
 62
     6
 10
1862.875072333
 20
429.633306733
 30
0.0
 11
2797.141667133
 21
429.633306733
 31
0.0
  0
LINE
  8
0
  6
CONTINUOUS
 62
     6
 10
1862.000072333
 20
478.166636333
 30
0.0
 11
2796.266667133
 21
478.166636333
 31
0.0
  0
TEXT
  8
0
  6
CONTINUOUS
 62
     4
 10
1883.583333333
 20
436.866662933
 30
7.0
 40
25.2
  1
ご用途
 50
0.0
 41
1.111111111
 51
0.0
  7
KANJI8
  0
TEXT
  8
0
  6
CONTINUOUS
 62
     2
 10
1990.333333333
 20
97.833333333
 30
2.1
 40
31.5
  1
１／７
 50
0.0
 41
0.666666667
 51
0.0
  7
KANJI15
  0
POLYLINE
  8
0
  6
CONTINUOUS
 62
     4
 66
     1
  0
VERTEX
  8
0
  6
CONTINUOUS
 62
     4
 10
1408.516773883
 20
177.866659433
 30
0.0
  0
VERTEX
  8
0
  6
CONTINUOUS
 62
     4
 10
1388.800108733
 20
147.533328433
 30
0.0
  0
VERTEX
  8
0
  6
CONTINUOUS
 62
     4
 10
1428.233439033
 20
147.533328433
 30
0.0
  0
SEQEND
  0
LINE
  8
0
  6
CONTINUOUS
 62
     4
 10
1408.516773883
 20
177.866659433
 30
0.0
 11
1428.233439033
 21
147.533328433
 31
0.0
  0
TEXT
  8
0
  6
CONTINUOUS
 62
     2
 10
1401.530105233
 20
149.223329133
 30
0.0
 40
21.0
  1
１
 50
0.0
 41
0.9
 51
0.0
  7
KANJI16
  0
LINE
  8
0
  6
CONTINUOUS
 62
     1
 10
1803.231133333
 20
1935.933053333
 30
0.0
 11
1803.231133333
 21
1805.933573333
 31
0.0
  0
LINE
  8
0
  6
CONTINUOUS
 62
     2
 10
1728.231433333
 20
1935.933053333
 30
0.0
 11
1728.231433333
 21
1805.933573333
 31
0.0
  0
LINE
  8
0
  6
CONTINUOUS
 62
     2
 10
1653.231733333
 20
1935.933053333
 30
0.0
 11
1653.231733333
 21
1805.933573333
 31
0.0
  0
LINE
  8
0
  6
CONTINUOUS
 62
     1
 10
1553.232133333
 20
1935.933053333
 30
0.0
 11
1553.232133333
 21
1805.933573333
 31
0.0
  0
LINE
  8
0
  6
CONTINUOUS
 62
     1
 10
1553.232133333
 20
1935.933053333
 30
0.0
 11
1803.231133333
 21
1935.933053333
 31
0.0
  0
LINE
  8
0
  6
CONTINUOUS
 62
     1
 10
1553.232133333
 20
1895.933213333
 30
0.0
 11
1803.231133333
 21
1895.933213333
 31
0.0
  0
LINE
  8
0
  6
CONTINUOUS
 62
     2
 10
1553.232133333
 20
1865.933333333
 30
0.0
 11
1803.231133333
 21
1865.933333333
 31
0.0
  0
LINE
  8
0
  6
CONTINUOUS
 62
     2
 10
1553.232133333
 20
1835.933453333
 30
0.0
 11
1803.231133333
 21
1835.933453333
 31
0.0
  0
LINE
  8
0
  6
CONTINUOUS
 62
     1
 10
1553.232133333
 20
1805.933573333
 30
0.0
 11
1803.231133333
 21
1805.933573333
 31
0.0
  0
TEXT
  8
0
  6
CONTINUOUS
 62
     2
 10
1738.231393333
 20
1918.433123333
 30
1.499994
 40
14.99994
  1
起動電流
 50
0.0
 41
0.9
 51
0.0
  7
KANJI17
  0
TEXT
  8
0
  6
CONTINUOUS
 62
     2
 10
1738.231393333
 20
1900.933193333
 30
1.499994
 40
14.99994
  1
　　　Ａ
 50
0.0
 41
0.9
 51
0.0
  7
KANJI17
  0
TEXT
  8
0
  6
CONTINUOUS
 62
     2
 10
1663.231693333
 20
1918.433123333
 30
1.499994
 40
14.99994
  1
定格電流
 50
0.0
 41
0.9
 51
0.0
  7
KANJI17
  0
TEXT
  8
0
  6
CONTINUOUS
 62
     2
 10
1663.231693333
 20
1900.933193333
 30
1.499994
 40
14.99994
  1
　　　Ａ
 50
0.0
 41
0.9
 51
0.0
  7
KANJI17
  0
TEXT
  8
0
  6
CONTINUOUS
 62
     2
 10
1561.732099333
 20
1843.433423333
 30
1.499994
 40
14.99994
  1
２００／６０
 50
0.0
 41
0.9
 51
0.0
  7
KANJI17
  0
TEXT
  8
0
  6
CONTINUOUS
 62
     2
 10
1561.732099333
 20
1918.433123333
 30
1.499994
 40
14.99994
  1
電圧／周波数
 50
0.0
 41
0.9
 51
0.0
  7
KANJI17
  0
TEXT
  8
0
  6
CONTINUOUS
 62
     2
 10
1561.732099333
 20
1900.933193333
 30
1.499994
 40
14.99994
  1
　Ｖ／Ｈｚ
 50
0.0
 41
0.9
 51
0.0
  7
KANJI17
  0
TEXT
  8
0
  6
CONTINUOUS
 62
     2
 10
1561.732099333
 20
1873.433303333
 30
1.499994
 40
14.99994
  1
２００／５０
 50
0.0
 41
0.9
 51
0.0
  7
KANJI17
  0
TEXT
  8
0
  6
CONTINUOUS
 62
     2
 10
1561.732099333
 20
1813.433543333
 30
1.499994
 40
14.99994
  1
２２０／６０
 50
0.0
 41
0.9
 51
0.0
  7
KANJI17
  0
LINE
  8
0
  6
CONTINUOUS
 62
     1
 10
1503.232333333
 20
1935.933053333
 30
0.0
 11
1503.232333333
 21
1805.933573333
 31
0.0
  0
LINE
  8
0
  6
CONTINUOUS
 62
     2
 10
1428.232633333
 20
1935.933053333
 30
0.0
 11
1428.232633333
 21
1805.933573333
 31
0.0
  0
LINE
  8
0
  6
CONTINUOUS
 62
     2
 10
1353.232933333
 20
1935.933053333
 30
0.0
 11
1353.232933333
 21
1805.933573333
 31
0.0
  0
LINE
  8
0
  6
CONTINUOUS
 62
     1
 10
1253.233333333
 20
1935.933053333
 30
0.0
 11
1503.232333333
 21
1935.933053333
 31
0.0
  0
LINE
  8
0
  6
CONTINUOUS
 62
     1
 10
1253.233333333
 20
1895.933213333
 30
0.0
 11
1503.232333333
 21
1895.933213333
 31
0.0
  0
LINE
  8
0
  6
CONTINUOUS
 62
     2
 10
1253.233333333
 20
1865.933333333
 30
0.0
 11
1503.232333333
 21
1865.933333333
 31
0.0
  0
LINE
  8
0
  6
CONTINUOUS
 62
     2
 10
1253.233333333
 20
1835.933453333
 30
0.0
 11
1503.232333333
 21
1835.933453333
 31
0.0
  0
LINE
  8
0
  6
CONTINUOUS
 62
     1
 10
1253.233333333
 20
1805.933573333
 30
0.0
 11
1503.232333333
 21
1805.933573333
 31
0.0
  0
TEXT
  8
0
  6
CONTINUOUS
 62
     2
 10
1438.232593333
 20
1918.433123333
 30
1.499994
 40
14.99994
  1
起動電流
 50
0.0
 41
0.9
 51
0.0
  7
KANJI17
  0
TEXT
  8
0
  6
CONTINUOUS
 62
     2
 10
1438.232593333
 20
1900.933193333
 30
1.499994
 40
14.99994
  1
　　　Ａ
 50
0.0
 41
0.9
 51
0.0
  7
KANJI17
  0
TEXT
  8
0
  6
CONTINUOUS
 62
     2
 10
1363.232893333
 20
1918.433123333
 30
1.499994
 40
14.99994
  1
定格電流
 50
0.0
 41
0.9
 51
0.0
  7
KANJI17
  0
TEXT
  8
0
  6
CONTINUOUS
 62
     2
 10
1363.232893333
 20
1900.933193333
 30
1.499994
 40
14.99994
  1
　　　Ａ
 50
0.0
 41
0.9
 51
0.0
  7
KANJI17
  0
TEXT
  8
0
  6
CONTINUOUS
 62
     2
 10
1261.733299333
 20
1918.433123333
 30
1.499994
 40
14.99994
  1
電圧／周波数
 50
0.0
 41
0.9
 51
0.0
  7
KANJI17
  0
TEXT
  8
0
  6
CONTINUOUS
 62
     2
 10
1261.733299333
 20
1900.933193333
 30
1.499994
 40
14.99994
  1
　Ｖ／Ｈｚ
 50
0.0
 41
0.9
 51
0.0
  7
KANJI17
  0
TEXT
  8
0
  6
CONTINUOUS
 62
     2
 10
1261.733299333
 20
1873.433303333
 30
1.499994
 40
14.99994
  1
４００／５０
 50
0.0
 41
0.9
 51
0.0
  7
KANJI17
  0
TEXT
  8
0
  6
CONTINUOUS
 62
     2
 10
1261.733299333
 20
1843.433423333
 30
1.499994
 40
14.99994
  1
４００／６０
 50
0.0
 41
0.9
 51
0.0
  7
KANJI17
  0
TEXT
  8
0
  6
CONTINUOUS
 62
     2
 10
1261.733299333
 20
1813.433543333
 30
1.499994
 40
14.99994
  1
４４０／６０
 50
0.0
 41
0.9
 51
0.0
  7
KANJI17
  0
LINE
  8
0
  6
CONTINUOUS
 62
     1
 10
1253.233333333
 20
1935.933053333
 30
0.0
 11
1253.233333333
 21
1805.933573333
 31
0.0
  0
LINE
  8
0
  6
CONTINUOUS
 62
     6
 10
412.660995895
 20
1903.539053132
 30
0.0
 11
141.942087592
 21
1903.539053132
 31
0.0
  0
LINE
  8
0
  6
CONTINUOUS
 62
     3
 10
412.660995895
 20
1871.499469798
 30
0.0
 11
141.942087592
 21
1871.499469798
 31
0.0
  0
LINE
  8
0
  6
CONTINUOUS
 62
     6
 10
412.660995895
 20
1871.499469798
 30
0.0
 11
141.942087592
 21
1871.499469798
 31
0.0
  0
TEXT
  8
0
  6
CONTINUOUS
 62
     6
 10
442.507599334
 20
1900.56714585
 30
1.4379365
 40
15.379
  1
電気定格　　　
 50
0.0
 41
0.85
 51
0.0
  7
KANJI18
  0
TEXT
  8
0
  6
CONTINUOUS
 62
     6
 10
146.502436736
 20
1907.270247886
 30
1.24215
 40
13.6045
  1
ＬＳ０１　　　：推力リミッタ（前進時過負荷用）
 50
0.0
 41
0.822608696
 51
0.0
  7
KANJI19
  0
TEXT
  8
0
  6
CONTINUOUS
 62
     6
 10
146.502436736
 20
1875.230664553
 30
1.24215
 40
13.6045
  1
ＬＳ０２　　　：推力リミッタ（後進時過負荷用）
 50
0.0
 41
0.822608696
 51
0.0
  7
KANJI19
  0
TEXT
  8
0
  6
CONTINUOUS
 62
     6
 10
457.44266762
 20
1864.898118365
 30
0.0
 40
13.8411
  1
ＤＣ１２５Ｖ　０．６Ａ　，ＤＣ２５０Ｖ　０．３Ａ　
 50
0.0
 41
0.726495726
 51
0.0
  7
KANJI20
  0
LINE
  8
0
  6
LTYPE2
 62
     6
 10
760.783333333
 20
1935.566666667
 30
0.0
 11
120.983333333
 21
1935.566666667
 31
0.0
  0
TEXT
  8
0
  6
CONTINUOUS
 62
     6
 10
451.309987541
 20
1921.28868048
 30
0.0
 40
52.5
  1
｝
 50
0.0
 41
0.538166667
 51
0.0
  7
KANJI21
  0
TEXT
  8
0
  6
CONTINUOUS
 62
     6
 10
369.498256796
 20
1654.427791925
 30
0.0
 40
20.697485939
  1
端子台　接続図
 50
0.0
 41
0.880962996
 51
0.0
  7
KANJI22
  0
LINE
  8
0
  6
LTYPE2
 62
     6
 10
760.783333333
 20
1633.4
 30
0.0
 11
760.783333333
 21
1935.566666667
 31
0.0
  0
LINE
  8
0
  6
LTYPE2
 62
     6
 10
120.983333333
 20
1633.4
 30
0.0
 11
760.783333333
 21
1633.4
 31
0.0
  0
LINE
  8
0
  6
LTYPE2
 62
     6
 10
120.983333333
 20
1935.566666667
 30
0.0
 11
120.983333333
 21
1633.4
 31
0.0
  0
LINE
  8
0
  6
CONTINUOUS
 62
     2
 10
410.290269042
 20
1713.932808864
 30
0.0
 11
410.290269042
 21
1687.35734765
 31
0.0
  0
LINE
  8
0
  6
CONTINUOUS
 62
     2
 10
441.294973793
 20
1713.932808864
 30
0.0
 11
441.294973793
 21
1687.35734765
 31
0.0
  0
LINE
  8
0
  6
CONTINUOUS
 62
     2
 10
472.299678543
 20
1713.932808864
 30
0.0
 11
472.299678543
 21
1687.35734765
 31
0.0
  0
LINE
  8
0
  6
CONTINUOUS
 62
     2
 10
503.304383294
 20
1713.932808864
 30
0.0
 11
503.304383294
 21
1687.35734765
 31
0.0
  0
CIRCLE
  8
0
  6
CONTINUOUS
 62
     6
 10
494.064981278
 20
1741.325908436
 30
0.0
 40
4.783583019
  0
LINE
  8
0
  6
CONTINUOUS
 62
     6
 10
489.28139826
 20
1741.325908436
 30
0.0
 11
487.802030919
 21
1741.325908436
 31
0.0
  0
LINE
  8
0
  6
CONTINUOUS
 62
     6
 10
518.511032005
 20
1757.293656533
 30
0.0
 11
513.944151112
 21
1731.236091661
 31
0.0
  0
LINE
  8
0
  6
CONTINUOUS
 62
     6
 10
512.99698294
 20
1758.21266471
 30
0.0
 11
508.42974291
 21
1732.155159695
 31
0.0
  0
LINE
  8
0
  6
CONTINUOUS
 62
     6
 10
513.944151112
 20
1731.236091661
 30
0.0
 11
508.42974291
 21
1732.155159695
 31
0.0
  0
CIRCLE
  8
0
  6
CONTINUOUS
 62
     6
 10
518.806735669
 20
1730.279375058
 30
0.0
 40
4.783583019
  0
LINE
  8
0
  6
CONTINUOUS
 62
     6
 10
518.806735669
 20
1725.495792039
 30
0.0
 11
518.806735669
 21
1713.932808864
 31
0.0
  0
LINE
  8
0
  6
CONTINUOUS
 62
     6
 10
487.802030919
 20
1741.325908436
 30
0.0
 11
487.802030919
 21
1713.932808864
 31
0.0
  0
LINE
  8
0
  6
CONTINUOUS
 62
     6
 10
456.797326168
 20
1713.932808864
 30
0.0
 11
456.797326168
 21
1776.588887922
 31
0.0
  0
LINE
  8
0
  6
CONTINUOUS
 62
     6
 10
364.078915581
 20
1757.293656533
 30
0.0
 11
368.645796473
 21
1731.236091661
 31
0.0
  0
LINE
  8
0
  6
CONTINUOUS
 62
     6
 10
369.592964645
 20
1758.21266471
 30
0.0
 11
374.160204675
 21
1732.155159695
 31
0.0
  0
LINE
  8
0
  6
CONTINUOUS
 62
     6
 10
368.645796473
 20
1731.236091661
 30
0.0
 11
374.160204675
 21
1732.155159695
 31
0.0
  0
CIRCLE
  8
0
  6
CONTINUOUS
 62
     6
 10
363.783211916
 20
1730.279375058
 30
0.0
 40
4.783583019
  0
CIRCLE
  8
0
  6
CONTINUOUS
 62
     6
 10
388.524966307
 20
1741.325908436
 30
0.0
 40
4.783583019
  0
LINE
  8
0
  6
CONTINUOUS
 62
     6
 10
393.308549326
 20
1741.325908436
 30
0.0
 11
394.787916667
 21
1741.325908436
 31
0.0
  0
LINE
  8
0
  6
CONTINUOUS
 62
     6
 10
363.783211916
 20
1725.495792039
 30
0.0
 11
363.783211916
 21
1713.932808864
 31
0.0
  0
LINE
  8
0
  6
CONTINUOUS
 62
     6
 10
394.787916667
 20
1741.325908436
 30
0.0
 11
394.787916667
 21
1713.932808864
 31
0.0
  0
LINE
  8
0
  6
CONTINUOUS
 62
     6
 10
425.792621417
 20
1713.932808864
 30
0.0
 11
425.792621417
 21
1776.588887922
 31
0.0
  0
LINE
  8
0
  6
CONTINUOUS
 62
     2
 10
534.309088045
 20
1713.932808864
 30
0.0
 11
534.309088045
 21
1687.35734765
 31
0.0
  0
LINE
  8
0
  6
CONTINUOUS
 62
     2
 10
348.280859541
 20
1713.932808864
 30
0.0
 11
348.280859541
 21
1687.35734765
 31
0.0
  0
LINE
  8
0
  6
CONTINUOUS
 62
     2
 10
379.285564291
 20
1713.932808864
 30
0.0
 11
379.285564291
 21
1687.35734765
 31
0.0
  0
LINE
  8
0
  6
CONTINUOUS
 62
     6
 10
518.806735669
 20
1776.588887922
 30
0.0
 11
456.797326168
 21
1776.588887922
 31
0.0
  0
CIRCLE
  8
0
  6
CONTINUOUS
 62
     6
 10
518.806735669
 20
1762.18764549
 30
0.0
 40
4.783583019
  0
LINE
  8
0
  6
CONTINUOUS
 62
     6
 10
518.511032005
 20
1757.293656533
 30
0.0
 11
512.99698294
 21
1758.21266471
 31
0.0
  0
LINE
  8
0
  6
CONTINUOUS
 62
     6
 10
518.806735669
 20
1766.971228508
 30
0.0
 11
518.806735669
 21
1776.588887922
 31
0.0
  0
CIRCLE
  8
0
  6
CONTINUOUS
 62
     6
 10
363.783211916
 20
1762.18764549
 30
0.0
 40
4.783583019
  0
LINE
  8
0
  6
CONTINUOUS
 62
     6
 10
364.078915581
 20
1757.293656533
 30
0.0
 11
369.592964645
 21
1758.21266471
 31
0.0
  0
LINE
  8
0
  6
CONTINUOUS
 62
     6
 10
363.783211916
 20
1766.971228508
 30
0.0
 11
363.783211916
 21
1776.588887922
 31
0.0
  0
LINE
  8
0
  6
CONTINUOUS
 62
     6
 10
425.792621417
 20
1776.588887922
 30
0.0
 11
363.783211916
 21
1776.588887922
 31
0.0
  0
TEXT
  8
0
  6
CONTINUOUS
 62
     6
 10
369.3400844
 20
1781.861218818
 30
0.9555
 40
13.65
  1
ＬＳ０１
 50
0.0
 41
0.8
 51
0.0
  7
KANJI23
  0
TEXT
  8
0
  6
CONTINUOUS
 62
     6
 10
465.730298652
 20
1781.861218818
 30
0.9555
 40
13.65
  1
ＬＳ０２
 50
0.0
 41
0.8
 51
0.0
  7
KANJI23
  0
TEXT
  8
0
  6
CONTINUOUS
 62
     3
 10
168.453571987
 20
1691.786591185
 30
0.0
 40
17.5
  1
　　　　　　　　　　　　　　　　　　１　　２　　　３　　　４　　　５　　　６
 50
0.0
 41
0.911
 51
0.0
  7
KANJI24
  0
LINE
  8
0
  6
CONTINUOUS
 62
     2
 10
348.280859541
 20
1713.932808864
 30
0.0
 11
534.309088045
 21
1713.932808864
 31
0.0
  0
LINE
  8
0
  6
CONTINUOUS
 62
     2
 10
348.280859541
 20
1687.35734765
 30
0.0
 11
534.309088045
 21
1687.35734765
 31
0.0
  0
TEXT
  8
0
  6
CONTINUOUS
 62
     6
 10
338.581590129
 20
1816.594458592
 30
0.0
 40
20.697485939
  1
推力リミッタ端子台配列
 50
0.0
 41
0.880962996
 51
0.0
  7
KANJI22
  0
TEXT
  8
0
  6
CONTINUOUS
 62
     6
 10
457.44266762
 20
1883.267253746
 30
0.0
 40
13.8411
  1
ＡＣ１００Ｖ　１２５Ｖ　２５０Ｖ　－１０Ａ
 50
0.0
 41
0.726495726
 51
0.0
  7
KANJI20
  0
LINE
  8
0
  6
CONTINUOUS
 62
     1
 10
1252.008333333
 20
1755.136906667
 30
0.0
 11
2159.208333333
 21
1755.136906667
 31
0.0
  0
LINE
  8
0
  6
CONTINUOUS
 62
     1
 10
1252.008333333
 20
1715.936906667
 30
0.0
 11
2159.208333333
 21
1715.936906667
 31
0.0
  0
TEXT
  8
0
  6
CONTINUOUS
 62
     2
 10
1308.008333333
 20
1727.136906667
 30
1.792
 40
17.92
  1
形
 50
0.0
 41
0.9
 51
0.0
  7
KANJI25
  0
TEXT
  8
0
  6
CONTINUOUS
 62
     2
 10
1417.208333333
 20
1727.136906667
 30
1.792
 40
17.92
  1
式
 50
0.0
 41
0.9
 51
0.0
  7
KANJI25
  0
TEXT
  8
0
  6
CONTINUOUS
 62
     2
 10
1501.768333333
 20
1726.016906667
 30
1.68
 40
16.8
  1
ストローク
 50
0.0
 41
0.9
 51
0.0
  7
KANJI26
  0
TEXT
  8
0
  6
CONTINUOUS
 62
     2
 10
1609.288333333
 20
1724.896906667
 30
0.0
 40
16.8
  1
ｍｉｎ　
 50
0.0
 41
0.9
 51
0.0
  7
KANJI27
  0
TEXT
  8
0
  6
CONTINUOUS
 62
     2
 10
1721.288333333
 20
1724.896906667
 30
0.0
 40
16.8
  1
ｍｉｎ　
 50
0.0
 41
0.9
 51
0.0
  7
KANJI27
  0
TEXT
  8
0
  6
CONTINUOUS
 62
     2
 10
1945.288333333
 20
1724.896906667
 30
0.0
 40
16.8
  1
ｍｉｎ　
 50
0.0
 41
0.9
 51
0.0
  7
KANJI27
  0
TEXT
  8
0
  6
CONTINUOUS
 62
     2
 10
1666.408333333
 20
1726.016906667
 30
1.96
 40
19.6
  1
ＡＬ
 50
0.0
 41
0.9
 51
0.0
  7
KANJI28
  0
TEXT
  8
0
  6
CONTINUOUS
 62
     2
 10
1778.408333333
 20
1726.016906667
 30
1.96
 40
19.6
  1
Ｌ
 50
0.0
 41
0.9
 51
0.0
  7
KANJI28
  0
TEXT
  8
0
  6
CONTINUOUS
 62
     2
 10
1873.608333333
 20
1726.016906667
 30
1.96
 40
19.6
  1
Ｃ
 50
0.0
 41
0.9
 51
0.0
  7
KANJI28
  0
TEXT
  8
0
  6
CONTINUOUS
 62
     2
 10
2002.408333333
 20
1726.016906667
 30
1.96
 40
19.6
  1
Ｐ
 50
0.0
 41
0.9
 51
0.0
  7
KANJI28
  0
TEXT
  8
0
  6
CONTINUOUS
 62
     2
 10
2117.628333333
 20
1725.596906667
 30
0.0
 40
15.12
  1
（ｋｇ）
 50
0.0
 41
0.740740741
 51
0.0
  7
KANJI29
  0
TEXT
  8
0
  6
CONTINUOUS
 62
     2
 10
2050.428333333
 20
1725.316906667
 30
1.68
 40
19.6
  1
概算重量
 50
0.0
 41
0.857142857
 51
0.0
  7
KANJI30
  0
TEXT
  8
0
  6
CONTINUOUS
 62
     2
 10
1512.408333333
 20
1688.45024
 30
1.68
 40
16.8
  1
　２００
 50
0.0
 41
0.9
 51
0.0
  7
KANJI26
  0
TEXT
  8
0
  6
CONTINUOUS
 62
     2
 10
1960.408333333
 20
1688.45024
 30
1.68
 40
16.8
  1
　　４５
 50
0.0
 41
0.9
 51
0.0
  7
KANJI26
  0
LINE
  8
0
  6
CONTINUOUS
 62
     2
 10
1252.008333333
 20
1679.07024
 30
0.0
 11
2159.208333333
 21
1679.07024
 31
0.0
  0
TEXT
  8
0
  6
CONTINUOUS
 62
     2
 10
1848.408333333
 20
1688.45024
 30
1.68
 40
16.8
  1
　５１０
 50
0.0
 41
0.9
 51
0.0
  7
KANJI26
  0
TEXT
  8
0
  6
CONTINUOUS
 62
     2
 10
1736.408333333
 20
1688.45024
 30
1.68
 40
16.8
  1
　６２５
 50
0.0
 41
0.9
 51
0.0
  7
KANJI26
  0
TEXT
  8
0
  6
CONTINUOUS
 62
     2
 10
1624.408333333
 20
1688.45024
 30
1.68
 40
16.8
  1
　８５０
 50
0.0
 41
0.9
 51
0.0
  7
KANJI26
  0
TEXT
  8
0
  6
CONTINUOUS
 62
     2
 10
1512.408333333
 20
1651.583573333
 30
1.68
 40
16.8
  1
　３００
 50
0.0
 41
0.9
 51
0.0
  7
KANJI26
  0
TEXT
  8
0
  6
CONTINUOUS
 62
     2
 10
1960.408333333
 20
1651.583573333
 30
1.68
 40
16.8
  1
　　４５
 50
0.0
 41
0.9
 51
0.0
  7
KANJI26
  0
LINE
  8
0
  6
CONTINUOUS
 62
     2
 10
1252.008333333
 20
1642.203573333
 30
0.0
 11
2159.208333333
 21
1642.203573333
 31
0.0
  0
TEXT
  8
0
  6
CONTINUOUS
 62
     2
 10
1848.408333333
 20
1651.583573333
 30
1.68
 40
16.8
  1
　６１０
 50
0.0
 41
0.9
 51
0.0
  7
KANJI26
  0
TEXT
  8
0
  6
CONTINUOUS
 62
     2
 10
1736.408333333
 20
1651.583573333
 30
1.68
 40
16.8
  1
　７２５
 50
0.0
 41
0.9
 51
0.0
  7
KANJI26
  0
TEXT
  8
0
  6
CONTINUOUS
 62
     2
 10
1624.408333333
 20
1651.583573333
 30
1.68
 40
16.8
  1
　９５０
 50
0.0
 41
0.9
 51
0.0
  7
KANJI26
  0
TEXT
  8
0
  6
CONTINUOUS
 62
     2
 10
1512.408333333
 20
1614.716906667
 30
1.68
 40
16.8
  1
　４００
 50
0.0
 41
0.9
 51
0.0
  7
KANJI26
  0
TEXT
  8
0
  6
CONTINUOUS
 62
     2
 10
1960.408333333
 20
1614.716906667
 30
1.68
 40
16.8
  1
　　４５
 50
0.0
 41
0.9
 51
0.0
  7
KANJI26
  0
LINE
  8
0
  6
CONTINUOUS
 62
     2
 10
1252.008333333
 20
1605.336906667
 30
0.0
 11
2159.208333333
 21
1605.336906667
 31
0.0
  0
TEXT
  8
0
  6
CONTINUOUS
 62
     2
 10
1848.408333333
 20
1614.716906667
 30
1.68
 40
16.8
  1
　７１０
 50
0.0
 41
0.9
 51
0.0
  7
KANJI26
  0
TEXT
  8
0
  6
CONTINUOUS
 62
     2
 10
1736.408333333
 20
1614.716906667
 30
1.68
 40
16.8
  1
　８２５
 50
0.0
 41
0.9
 51
0.0
  7
KANJI26
  0
TEXT
  8
0
  6
CONTINUOUS
 62
     2
 10
1624.408333333
 20
1614.716906667
 30
1.68
 40
16.8
  1
１０５０
 50
0.0
 41
0.9
 51
0.0
  7
KANJI26
  0
TEXT
  8
0
  6
CONTINUOUS
 62
     2
 10
1512.408333333
 20
1577.85024
 30
1.68
 40
16.8
  1
　５００
 50
0.0
 41
0.9
 51
0.0
  7
KANJI26
  0
TEXT
  8
0
  6
CONTINUOUS
 62
     2
 10
1960.408333333
 20
1577.85024
 30
1.68
 40
16.8
  1
　　４５
 50
0.0
 41
0.9
 51
0.0
  7
KANJI26
  0
LINE
  8
0
  6
CONTINUOUS
 62
     2
 10
1252.008333333
 20
1568.47024
 30
0.0
 11
2159.208333333
 21
1568.47024
 31
0.0
  0
TEXT
  8
0
  6
CONTINUOUS
 62
     2
 10
1848.408333333
 20
1577.85024
 30
1.68
 40
16.8
  1
　８１０
 50
0.0
 41
0.9
 51
0.0
  7
KANJI26
  0
TEXT
  8
0
  6
CONTINUOUS
 62
     2
 10
1736.408333333
 20
1577.85024
 30
1.68
 40
16.8
  1
　９２５
 50
0.0
 41
0.9
 51
0.0
  7
KANJI26
  0
TEXT
  8
0
  6
CONTINUOUS
 62
     2
 10
1624.408333333
 20
1577.85024
 30
1.68
 40
16.8
  1
１１５０
 50
0.0
 41
0.9
 51
0.0
  7
KANJI26
  0
LINE
  8
0
  6
CONTINUOUS
 62
     2
 10
1252.008333333
 20
1531.603573333
 30
0.0
 11
2159.208333333
 21
1531.603573333
 31
0.0
  0
TEXT
  8
0
  6
CONTINUOUS
 62
     2
 10
1512.408333333
 20
1540.983573333
 30
1.68
 40
16.8
  1
　６００
 50
0.0
 41
0.9
 51
0.0
  7
KANJI26
  0
TEXT
  8
0
  6
CONTINUOUS
 62
     2
 10
1624.408333333
 20
1540.983573333
 30
1.68
 40
16.8
  1
１２９０
 50
0.0
 41
0.9
 51
0.0
  7
KANJI26
  0
TEXT
  8
0
  6
CONTINUOUS
 62
     2
 10
1736.408333333
 20
1540.983573333
 30
1.68
 40
16.8
  1
１０６５
 50
0.0
 41
0.9
 51
0.0
  7
KANJI26
  0
TEXT
  8
0
  6
CONTINUOUS
 62
     2
 10
1848.408333333
 20
1540.983573333
 30
1.68
 40
16.8
  1
　９５０
 50
0.0
 41
0.9
 51
0.0
  7
KANJI26
  0
TEXT
  8
0
  6
CONTINUOUS
 62
     2
 10
1960.408333333
 20
1540.983573333
 30
1.68
 40
16.8
  1
　　４５
 50
0.0
 41
0.9
 51
0.0
  7
KANJI26
  0
LINE
  8
0
  6
CONTINUOUS
 62
     2
 10
1252.008333333
 20
1494.736906667
 30
0.0
 11
2159.208333333
 21
1494.736906667
 31
0.0
  0
TEXT
  8
0
  6
CONTINUOUS
 62
     2
 10
1512.408333333
 20
1504.116906667
 30
1.68
 40
16.8
  1
　７００
 50
0.0
 41
0.9
 51
0.0
  7
KANJI26
  0
TEXT
  8
0
  6
CONTINUOUS
 62
     2
 10
1624.408333333
 20
1504.116906667
 30
1.68
 40
16.8
  1
１３９０
 50
0.0
 41
0.9
 51
0.0
  7
KANJI26
  0
TEXT
  8
0
  6
CONTINUOUS
 62
     2
 10
1736.408333333
 20
1504.116906667
 30
1.68
 40
16.8
  1
１１６５
 50
0.0
 41
0.9
 51
0.0
  7
KANJI26
  0
TEXT
  8
0
  6
CONTINUOUS
 62
     2
 10
1848.408333333
 20
1504.116906667
 30
1.68
 40
16.8
  1
１０５０
 50
0.0
 41
0.9
 51
0.0
  7
KANJI26
  0
TEXT
  8
0
  6
CONTINUOUS
 62
     2
 10
1960.408333333
 20
1504.116906667
 30
1.68
 40
16.8
  1
　　４５
 50
0.0
 41
0.9
 51
0.0
  7
KANJI26
  0
LINE
  8
0
  6
CONTINUOUS
 62
     2
 10
1252.008333333
 20
1457.87024
 30
0.0
 11
2159.208333333
 21
1457.87024
 31
0.0
  0
TEXT
  8
0
  6
CONTINUOUS
 62
     2
 10
1512.408333333
 20
1467.25024
 30
1.68
 40
16.8
  1
　８００
 50
0.0
 41
0.9
 51
0.0
  7
KANJI26
  0
TEXT
  8
0
  6
CONTINUOUS
 62
     2
 10
1624.408333333
 20
1467.25024
 30
1.68
 40
16.8
  1
１４９０
 50
0.0
 41
0.9
 51
0.0
  7
KANJI26
  0
TEXT
  8
0
  6
CONTINUOUS
 62
     2
 10
1736.408333333
 20
1467.25024
 30
1.68
 40
16.8
  1
１２６５
 50
0.0
 41
0.9
 51
0.0
  7
KANJI26
  0
TEXT
  8
0
  6
CONTINUOUS
 62
     2
 10
1848.408333333
 20
1467.25024
 30
1.68
 40
16.8
  1
１１５０
 50
0.0
 41
0.9
 51
0.0
  7
KANJI26
  0
TEXT
  8
0
  6
CONTINUOUS
 62
     2
 10
1960.408333333
 20
1467.25024
 30
1.68
 40
16.8
  1
　　４５
 50
0.0
 41
0.9
 51
0.0
  7
KANJI26
  0
LINE
  8
0
  6
CONTINUOUS
 62
     2
 10
1252.008333333
 20
1421.003573333
 30
0.0
 11
2159.208333333
 21
1421.003573333
 31
0.0
  0
TEXT
  8
0
  6
CONTINUOUS
 62
     2
 10
1512.408333333
 20
1430.383573333
 30
1.68
 40
16.8
  1
　９００
 50
0.0
 41
0.9
 51
0.0
  7
KANJI26
  0
TEXT
  8
0
  6
CONTINUOUS
 62
     2
 10
1624.408333333
 20
1430.383573333
 30
1.68
 40
16.8
  1
１５９０
 50
0.0
 41
0.9
 51
0.0
  7
KANJI26
  0
TEXT
  8
0
  6
CONTINUOUS
 62
     2
 10
1736.408333333
 20
1430.383573333
 30
1.68
 40
16.8
  1
１３６５
 50
0.0
 41
0.9
 51
0.0
  7
KANJI26
  0
TEXT
  8
0
  6
CONTINUOUS
 62
     2
 10
1848.408333333
 20
1430.383573333
 30
1.68
 40
16.8
  1
１２５０
 50
0.0
 41
0.9
 51
0.0
  7
KANJI26
  0
TEXT
  8
0
  6
CONTINUOUS
 62
     2
 10
1960.408333333
 20
1430.383573333
 30
1.68
 40
16.8
  1
　　４５
 50
0.0
 41
0.9
 51
0.0
  7
KANJI26
  0
TEXT
  8
0
  6
CONTINUOUS
 62
     2
 10
1512.408333333
 20
1393.516906667
 30
1.68
 40
16.8
  1
１０００
 50
0.0
 41
0.9
 51
0.0
  7
KANJI26
  0
TEXT
  8
0
  6
CONTINUOUS
 62
     2
 10
1624.408333333
 20
1393.516906667
 30
1.68
 40
16.8
  1
１６９０
 50
0.0
 41
0.9
 51
0.0
  7
KANJI26
  0
TEXT
  8
0
  6
CONTINUOUS
 62
     2
 10
1736.408333333
 20
1393.516906667
 30
1.68
 40
16.8
  1
１４６５
 50
0.0
 41
0.9
 51
0.0
  7
KANJI26
  0
TEXT
  8
0
  6
CONTINUOUS
 62
     2
 10
1848.408333333
 20
1393.516906667
 30
1.68
 40
16.8
  1
１３５０
 50
0.0
 41
0.9
 51
0.0
  7
KANJI26
  0
TEXT
  8
0
  6
CONTINUOUS
 62
     2
 10
1960.408333333
 20
1393.516906667
 30
1.68
 40
16.8
  1
　　４５
 50
0.0
 41
0.9
 51
0.0
  7
KANJI26
  0
LINE
  8
0
  6
CONTINUOUS
 62
     2
 10
1252.008333333
 20
1384.136906667
 30
0.0
 11
2159.208333333
 21
1384.136906667
 31
0.0
  0
LINE
  8
0
  6
CONTINUOUS
 62
     2
 10
1252.008333333
 20
1347.27024
 30
0.0
 11
2159.208333333
 21
1347.27024
 31
0.0
  0
TEXT
  8
0
  6
CONTINUOUS
 62
     2
 10
1960.408333333
 20
1356.65024
 30
1.68
 40
16.8
  1
　　４５
 50
0.0
 41
0.9
 51
0.0
  7
KANJI26
  0
LINE
  8
0
  6
CONTINUOUS
 62
     2
 10
1252.008333333
 20
1310.403573333
 30
0.0
 11
2159.208333333
 21
1310.403573333
 31
0.0
  0
TEXT
  8
0
  6
CONTINUOUS
 62
     2
 10
1960.408333333
 20
1319.783573333
 30
1.68
 40
16.8
  1
　　４５
 50
0.0
 41
0.9
 51
0.0
  7
KANJI26
  0
LINE
  8
0
  6
CONTINUOUS
 62
     2
 10
1252.008333333
 20
1273.536906667
 30
0.0
 11
2159.208333333
 21
1273.536906667
 31
0.0
  0
TEXT
  8
0
  6
CONTINUOUS
 62
     2
 10
1960.408333333
 20
1282.916906667
 30
1.68
 40
16.8
  1
　　４５
 50
0.0
 41
0.9
 51
0.0
  7
KANJI26
  0
LINE
  8
0
  6
CONTINUOUS
 62
     2
 10
1252.008333333
 20
1236.67024
 30
0.0
 11
2159.208333333
 21
1236.67024
 31
0.0
  0
TEXT
  8
0
  6
CONTINUOUS
 62
     2
 10
1960.408333333
 20
1246.05024
 30
1.68
 40
16.8
  1
　　４５
 50
0.0
 41
0.9
 51
0.0
  7
KANJI26
  0
LINE
  8
0
  6
CONTINUOUS
 62
     2
 10
1252.008333333
 20
1199.803573333
 30
0.0
 11
2159.208333333
 21
1199.803573333
 31
0.0
  0
TEXT
  8
0
  6
CONTINUOUS
 62
     2
 10
1960.408333333
 20
1209.183573333
 30
1.68
 40
16.8
  1
　　４５
 50
0.0
 41
0.9
 51
0.0
  7
KANJI26
  0
LINE
  8
0
  6
CONTINUOUS
 62
     1
 10
1252.008333333
 20
1162.936906667
 30
0.0
 11
2159.208333333
 21
1162.936906667
 31
0.0
  0
LINE
  8
0
  6
CONTINUOUS
 62
     1
 10
2159.208333333
 20
1755.136906667
 30
0.0
 11
2159.208333333
 21
1162.936906667
 31
0.0
  0
LINE
  8
0
  6
CONTINUOUS
 62
     1
 10
1252.008333333
 20
1755.136906667
 30
0.0
 11
1252.008333333
 21
1162.936906667
 31
0.0
  0
LINE
  8
0
  6
CONTINUOUS
 62
     1
 10
1487.208333333
 20
1755.136906667
 30
0.0
 11
1487.208333333
 21
1162.936906667
 31
0.0
  0
LINE
  8
0
  6
CONTINUOUS
 62
     2
 10
1599.208333333
 20
1755.136906667
 30
0.0
 11
1599.208333333
 21
1162.936906667
 31
0.0
  0
LINE
  8
0
  6
CONTINUOUS
 62
     2
 10
1711.208333333
 20
1755.136906667
 30
0.0
 11
1711.208333333
 21
1162.936906667
 31
0.0
  0
LINE
  8
0
  6
CONTINUOUS
 62
     2
 10
1823.208333333
 20
1755.136906667
 30
0.0
 11
1823.208333333
 21
1162.936906667
 31
0.0
  0
LINE
  8
0
  6
CONTINUOUS
 62
     2
 10
1935.208333333
 20
1755.136906667
 30
0.0
 11
1935.208333333
 21
1162.936906667
 31
0.0
  0
LINE
  8
0
  6
CONTINUOUS
 62
     2
 10
2047.208333333
 20
1755.136906667
 30
0.0
 11
2047.208333333
 21
1162.936906667
 31
0.0
  0
TEXT
  8
0
  6
CONTINUOUS
 62
     2
 10
1512.408333333
 20
1356.65024
 30
1.68
 40
16.8
  1
１１００
 50
0.0
 41
0.9
 51
0.0
  7
KANJI26
  0
TEXT
  8
0
  6
CONTINUOUS
 62
     2
 10
1512.408333333
 20
1319.783573333
 30
1.68
 40
16.8
  1
１２００
 50
0.0
 41
0.9
 51
0.0
  7
KANJI26
  0
TEXT
  8
0
  6
CONTINUOUS
 62
     2
 10
1512.408333333
 20
1282.916906667
 30
1.68
 40
16.8
  1
１３００
 50
0.0
 41
0.9
 51
0.0
  7
KANJI26
  0
TEXT
  8
0
  6
CONTINUOUS
 62
     2
 10
1512.408333333
 20
1246.05024
 30
1.68
 40
16.8
  1
１４００
 50
0.0
 41
0.9
 51
0.0
  7
KANJI26
  0
TEXT
  8
0
  6
CONTINUOUS
 62
     2
 10
1512.408333333
 20
1209.183573333
 30
1.68
 40
16.8
  1
１５００
 50
0.0
 41
0.9
 51
0.0
  7
KANJI26
  0
TEXT
  8
0
  6
CONTINUOUS
 62
     2
 10
1848.408333333
 20
1356.65024
 30
1.68
 40
16.8
  1
１４８０
 50
0.0
 41
0.9
 51
0.0
  7
KANJI26
  0
TEXT
  8
0
  6
CONTINUOUS
 62
     2
 10
1848.408333333
 20
1319.783573333
 30
1.68
 40
16.8
  1
１５８０
 50
0.0
 41
0.9
 51
0.0
  7
KANJI26
  0
TEXT
  8
0
  6
CONTINUOUS
 62
     2
 10
1848.408333333
 20
1282.916906667
 30
1.68
 40
16.8
  1
１６８０
 50
0.0
 41
0.9
 51
0.0
  7
KANJI26
  0
TEXT
  8
0
  6
CONTINUOUS
 62
     2
 10
1848.408333333
 20
1246.05024
 30
1.68
 40
16.8
  1
１７８０
 50
0.0
 41
0.9
 51
0.0
  7
KANJI26
  0
TEXT
  8
0
  6
CONTINUOUS
 62
     2
 10
1848.408333333
 20
1209.183573333
 30
1.68
 40
16.8
  1
１８８０
 50
0.0
 41
0.9
 51
0.0
  7
KANJI26
  0
TEXT
  8
0
  6
CONTINUOUS
 62
     2
 10
1736.408333333
 20
1209.183573333
 30
1.68
 40
16.8
  1
１９９５
 50
0.0
 41
0.9
 51
0.0
  7
KANJI26
  0
TEXT
  8
0
  6
CONTINUOUS
 62
     2
 10
1624.408333333
 20
1209.183573333
 30
1.68
 40
16.8
  1
２２２０
 50
0.0
 41
0.9
 51
0.0
  7
KANJI26
  0
TEXT
  8
0
  6
CONTINUOUS
 62
     2
 10
1736.408333333
 20
1246.05024
 30
1.68
 40
16.8
  1
１８９５
 50
0.0
 41
0.9
 51
0.0
  7
KANJI26
  0
TEXT
  8
0
  6
CONTINUOUS
 62
     2
 10
1736.408333333
 20
1282.916906667
 30
1.68
 40
16.8
  1
１７９５
 50
0.0
 41
0.9
 51
0.0
  7
KANJI26
  0
TEXT
  8
0
  6
CONTINUOUS
 62
     2
 10
1736.408333333
 20
1319.783573333
 30
1.68
 40
16.8
  1
１６９５
 50
0.0
 41
0.9
 51
0.0
  7
KANJI26
  0
TEXT
  8
0
  6
CONTINUOUS
 62
     2
 10
1736.408333333
 20
1356.65024
 30
1.68
 40
16.8
  1
１５９５
 50
0.0
 41
0.9
 51
0.0
  7
KANJI26
  0
TEXT
  8
0
  6
CONTINUOUS
 62
     2
 10
1624.408333333
 20
1356.65024
 30
1.68
 40
16.8
  1
１８２０
 50
0.0
 41
0.9
 51
0.0
  7
KANJI26
  0
TEXT
  8
0
  6
CONTINUOUS
 62
     2
 10
1624.408333333
 20
1319.783573333
 30
1.68
 40
16.8
  1
１９２０
 50
0.0
 41
0.9
 51
0.0
  7
KANJI26
  0
TEXT
  8
0
  6
CONTINUOUS
 62
     2
 10
1624.408333333
 20
1282.916906667
 30
1.68
 40
16.8
  1
２０２０
 50
0.0
 41
0.9
 51
0.0
  7
KANJI26
  0
TEXT
  8
0
  6
CONTINUOUS
 62
     2
 10
1624.408333333
 20
1246.05024
 30
1.68
 40
16.8
  1
２１２０
 50
0.0
 41
0.9
 51
0.0
  7
KANJI26
  0
TEXT
  8
0
  6
CONTINUOUS
 62
     6
 10
134.65790099
 20
1585.899357623
 30
1.82231734
 40
18.223173404
  1
クイックブレーキモータ
 50
0.0
 41
0.66671875
 51
0.0
  7
KANJI31
  0
CIRCLE
  8
0
  6
CONTINUOUS
 62
     6
 10
179.099333333
 20
1523.932
 30
0.0
 40
21.6
  0
TEXT
  8
0
  6
CONTINUOUS
 62
     6
 10
170.027333333
 20
1513.564
 30
2.16
 40
21.6
  1
Ｍ
 50
0.0
 41
0.9
 51
0.0
  7
KANJI32
  0
LINE
  8
0
  6
CONTINUOUS
 62
     6
 10
150.587333333
 20
1493.692
 30
0.0
 11
163.979333333
 21
1509.244
 31
0.0
  0
LINE
  8
0
  6
CONTINUOUS
 62
     6
 10
150.587333333
 20
1554.172
 30
0.0
 11
163.979333333
 21
1538.62
 31
0.0
  0
CIRCLE
  8
0
  6
CONTINUOUS
 62
     6
 10
125.963333333
 20
1554.172
 30
0.0
 40
5.184
  0
LINE
  8
0
  6
CONTINUOUS
 62
     6
 10
120.007437218
 20
1548.216103884
 30
0.0
 11
132.103437218
 21
1560.312103884
 31
0.0
  0
CIRCLE
  8
0
  6
CONTINUOUS
 62
     6
 10
125.963333333
 20
1523.932
 30
0.0
 40
5.184
  0
LINE
  8
0
  6
CONTINUOUS
 62
     6
 10
120.007437218
 20
1517.976103884
 30
0.0
 11
132.103437218
 21
1530.072103884
 31
0.0
  0
CIRCLE
  8
0
  6
CONTINUOUS
 62
     6
 10
125.963333333
 20
1493.692
 30
0.0
 40
5.184
  0
LINE
  8
0
  6
CONTINUOUS
 62
     6
 10
120.007437218
 20
1487.736103884
 30
0.0
 11
132.103437218
 21
1499.832103884
 31
0.0
  0
LINE
  8
0
  6
CONTINUOUS
 62
     6
 10
150.587333333
 20
1554.172
 30
0.0
 11
131.147333333
 21
1554.172
 31
0.0
  0
LINE
  8
0
  6
CONTINUOUS
 62
     6
 10
157.931333333
 20
1523.932
 30
0.0
 11
131.147333333
 21
1523.932
 31
0.0
  0
LINE
  8
0
  6
CONTINUOUS
 62
     6
 10
150.587333333
 20
1493.692
 30
0.0
 11
131.147333333
 21
1493.692
 31
0.0
  0
LINE
  8
0
  6
LTYPE2
 62
     6
 10
125.963333333
 20
1577.5
 30
0.0
 11
125.963333333
 21
1558.06
 31
0.0
  0
LINE
  8
0
  6
LTYPE2
 62
     6
 10
125.963333333
 20
1549.42
 30
0.0
 11
125.963333333
 21
1527.82
 31
0.0
  0
LINE
  8
0
  6
LTYPE2
 62
     6
 10
125.963333333
 20
1519.18
 30
0.0
 11
125.963333333
 21
1498.012
 31
0.0
  0
TEXT
  8
0
  6
CONTINUOUS
 62
     6
 10
105.179333333
 20
1561.516
 30
1.296
 40
12.96
  1
Ｕ
 50
0.0
 41
0.9
 51
0.0
  7
KANJI33
  0
TEXT
  8
0
  6
CONTINUOUS
 62
     6
 10
106.475333333
 20
1530.844
 30
1.296
 40
12.96
  1
Ｖ
 50
0.0
 41
0.9
 51
0.0
  7
KANJI33
  0
TEXT
  8
0
  6
CONTINUOUS
 62
     6
 10
107.771333333
 20
1500.172
 30
1.296
 40
12.96
  1
Ｗ
 50
0.0
 41
0.9
 51
0.0
  7
KANJI33
  0
LINE
  8
0
  6
LTYPE2
 62
     6
 10
280.523333333
 20
1577.5
 30
0.0
 11
125.963333333
 21
1577.5
 31
0.0
  0
TEXT
  8
0
  6
CONTINUOUS
 62
     6
 10
210.203333333
 20
1514.1472
 30
1.728
 40
17.28
  1
Ｂ
 50
0.0
 41
0.9
 51
0.0
  7
KANJI34
  0
CIRCLE
  8
0
  6
CONTINUOUS
 62
     6
 10
217.979333333
 20
1523.932
 30
0.0
 40
17.28
  0
LINE
  8
0
  6
CONTINUOUS
 62
     6
 10
245.579333333
 20
1493.5192
 30
0.0
 11
226.600317764
 21
1508.956118475
 31
0.0
  0
LINE
  8
0
  6
CONTINUOUS
 62
     6
 10
208.994658407
 20
1509.171443897
 30
0.0
 11
189.899333333
 21
1493.5192
 31
0.0
  0
CIRCLE
  8
0
  6
CONTINUOUS
 62
     6
 10
189.899333333
 20
1444.4872
 30
0.0
 40
5.184
  0
LINE
  8
0
  6
CONTINUOUS
 62
     6
 10
183.943437218
 20
1438.531303884
 30
0.0
 11
196.039437218
 21
1450.627303884
 31
0.0
  0
CIRCLE
  8
0
  6
CONTINUOUS
 62
     6
 10
217.739333333
 20
1444.4872
 30
0.0
 40
5.184
  0
LINE
  8
0
  6
CONTINUOUS
 62
     6
 10
211.783437218
 20
1438.531303884
 30
0.0
 11
223.879437218
 21
1450.627303884
 31
0.0
  0
LINE
  8
0
  6
LTYPE2
 62
     6
 10
195.083333333
 20
1444.4872
 30
0.0
 11
212.459333333
 21
1444.4872
 31
0.0
  0
CIRCLE
  8
0
  6
CONTINUOUS
 62
     6
 10
245.579333333
 20
1444.4872
 30
0.0
 40
5.184
  0
LINE
  8
0
  6
CONTINUOUS
 62
     6
 10
239.623437218
 20
1438.531303884
 30
0.0
 11
251.719437218
 21
1450.627303884
 31
0.0
  0
LINE
  8
0
  6
LTYPE2
 62
     6
 10
222.539333333
 20
1444.4872
 30
0.0
 11
240.779333333
 21
1444.4872
 31
0.0
  0
TEXT
  8
0
  6
CONTINUOUS
 62
     6
 10
203.003333333
 20
1447.3192
 30
1.296
 40
12.96
  1
ｖ
 50
0.0
 41
0.9
 51
0.0
  7
KANJI33
  0
TEXT
  8
0
  6
CONTINUOUS
 62
     6
 10
230.843333333
 20
1447.3192
 30
1.296
 40
12.96
  1
ｗ
 50
0.0
 41
0.9
 51
0.0
  7
KANJI33
  0
TEXT
  8
0
  6
CONTINUOUS
 62
     6
 10
175.979333333
 20
1448.1832
 30
1.296
 40
12.96
  1
ｕ
 50
0.0
 41
0.9
 51
0.0
  7
KANJI33
  0
LINE
  8
0
  6
CONTINUOUS
 62
     6
 10
189.899333333
 20
1449.6712
 30
0.0
 11
189.899333333
 21
1493.5192
 31
0.0
  0
LINE
  8
0
  6
CONTINUOUS
 62
     6
 10
217.739333333
 20
1449.6712
 30
0.0
 11
217.739333333
 21
1506.94
 31
0.0
  0
LINE
  8
0
  6
CONTINUOUS
 62
     6
 10
245.579333333
 20
1449.6712
 30
0.0
 11
245.579333333
 21
1493.5192
 31
0.0
  0
LINE
  8
0
  6
LTYPE2
 62
     6
 10
251.339333333
 20
1444.4872
 30
0.0
 11
280.523333333
 21
1444.4872
 31
0.0
  0
LINE
  8
0
  6
LTYPE2
 62
     6
 10
280.523333333
 20
1444.4872
 30
0.0
 11
280.523333333
 21
1577.5
 31
0.0
  0
LINE
  8
0
  6
LTYPE2
 62
     6
 10
125.963333333
 20
1444.4872
 30
0.0
 11
184.715333333
 21
1444.4872
 31
0.0
  0
LINE
  8
0
  6
LTYPE2
 62
     6
 10
125.963333333
 20
1488.508
 30
0.0
 11
125.963333333
 21
1444.4872
 31
0.0
  0
TEXT
  8
0
  6
CONTINUOUS
 62
     2
 10
142.37780537
 20
1409.454685773
 30
0.0
 40
18.72
  1
モーター結線図
 50
0.0
 41
0.925
 51
0.0
  7
KANJI35
  0
TEXT
  8
0
  6
CONTINUOUS
 62
     2
 10
1296.483160333
 20
1779.267013333
 30
1.749993
 40
17.49993
  1
注意：サーマルリレー等の選定は、上記の値で選定して下さい。
 50
0.0
 41
0.9
 51
0.0
  7
KANJI36
  0
LINE
  8
0
  6
CONTINUOUS
 62
     2
 10
1288.483200333
 20
1774.267033333
 30
0.0
 11
1794.271320333
 21
1774.267033333
 31
0.0
  0
LINE
  8
0
  6
CONTINUOUS
 62
     2
 10
491.496721841
 20
1512.266660949
 30
0.0
 11
499.224128451
 21
1510.196108588
 31
0.0
  0
LINE
  8
0
  6
CONTINUOUS
 62
     2
 10
491.496721841
 20
1512.266660949
 30
0.0
 11
499.224128451
 21
1514.33721331
 31
0.0
  0
LINE
  8
0
  6
CONTINUOUS
 62
     2
 10
491.496721841
 20
1512.266660949
 30
0.0
 11
629.096721841
 21
1512.266660949
 31
0.0
  0
LINE
  8
0
  6
CONTINUOUS
 62
     2
 10
629.096721841
 20
1512.266660949
 30
0.0
 11
621.369315231
 21
1514.33721331
 31
0.0
  0
LINE
  8
0
  6
CONTINUOUS
 62
     2
 10
629.096721841
 20
1512.266660949
 30
0.0
 11
621.369315231
 21
1510.196108588
 31
0.0
  0
LINE
  8
0
  6
CONTINUOUS
 62
     2
 10
629.096721841
 20
1511.066660949
 30
0.0
 11
629.096721841
 21
1508.266660949
 31
0.0
  0
LINE
  8
0
  6
CONTINUOUS
 62
     2
 10
629.096721841
 20
1512.266660949
 30
0.0
 11
636.824128451
 21
1510.196108588
 31
0.0
  0
LINE
  8
0
  6
CONTINUOUS
 62
     2
 10
629.096721841
 20
1512.266660949
 30
0.0
 11
636.824128451
 21
1514.33721331
 31
0.0
  0
LINE
  8
0
  6
CONTINUOUS
 62
     2
 10
629.096721841
 20
1512.266660949
 30
0.0
 11
831.496721841
 21
1512.266660949
 31
0.0
  0
LINE
  8
0
  6
CONTINUOUS
 62
     2
 10
831.496721841
 20
1512.266660949
 30
0.0
 11
823.769315231
 21
1514.33721331
 31
0.0
  0
LINE
  8
0
  6
CONTINUOUS
 62
     2
 10
831.496721841
 20
1512.266660949
 30
0.0
 11
823.769315231
 21
1510.196108588
 31
0.0
  0
LINE
  8
0
  6
CONTINUOUS
 62
     2
 10
629.096721841
 20
1485.93721331
 30
0.0
 11
621.369315231
 21
1488.00776567
 31
0.0
  0
LINE
  8
0
  6
CONTINUOUS
 62
     2
 10
629.096721841
 20
1485.93721331
 30
0.0
 11
621.369315231
 21
1483.866660949
 31
0.0
  0
LINE
  8
0
  6
CONTINUOUS
 62
     2
 10
617.096721841
 20
1485.93721331
 30
0.0
 11
629.096721841
 21
1485.93721331
 31
0.0
  0
LINE
  8
0
  6
CONTINUOUS
 62
     2
 10
629.096721841
 20
1485.93721331
 30
0.0
 11
649.896721841
 21
1485.93721331
 31
0.0
  0
LINE
  8
0
  6
CONTINUOUS
 62
     2
 10
649.896721841
 20
1485.93721331
 30
0.0
 11
657.624128451
 21
1483.866660949
 31
0.0
  0
LINE
  8
0
  6
CONTINUOUS
 62
     2
 10
649.896721841
 20
1485.93721331
 30
0.0
 11
657.624128451
 21
1488.00776567
 31
0.0
  0
LINE
  8
0
  6
CONTINUOUS
 62
     2
 10
491.496721841
 20
1460.666660949
 30
0.0
 11
491.496721841
 21
1454.666660949
 31
0.0
  0
LINE
  8
0
  6
CONTINUOUS
 62
     2
 10
491.496721841
 20
1458.666660949
 30
0.0
 11
499.224128451
 21
1456.596108588
 31
0.0
  0
LINE
  8
0
  6
CONTINUOUS
 62
     2
 10
491.496721841
 20
1458.666660949
 30
0.0
 11
499.224128451
 21
1460.73721331
 31
0.0
  0
LINE
  8
0
  6
CONTINUOUS
 62
     2
 10
491.496721841
 20
1458.666660949
 30
0.0
 11
649.896721841
 21
1458.666660949
 31
0.0
  0
LINE
  8
0
  6
CONTINUOUS
 62
     2
 10
649.896721841
 20
1458.666660949
 30
0.0
 11
642.169315231
 21
1460.73721331
 31
0.0
  0
LINE
  8
0
  6
CONTINUOUS
 62
     2
 10
649.896721841
 20
1458.666660949
 30
0.0
 11
642.169315231
 21
1456.596108588
 31
0.0
  0
LINE
  8
0
  6
CONTINUOUS
 62
     2
 10
649.896721841
 20
1459.866660949
 30
0.0
 11
649.896721841
 21
1454.666660949
 31
0.0
  0
LINE
  8
0
  6
CONTINUOUS
 62
     2
 10
649.896721841
 20
1458.666660949
 30
0.0
 11
657.624128451
 21
1456.596108588
 31
0.0
  0
LINE
  8
0
  6
CONTINUOUS
 62
     2
 10
649.896721841
 20
1458.666660949
 30
0.0
 11
657.624128451
 21
1460.73721331
 31
0.0
  0
LINE
  8
0
  6
CONTINUOUS
 62
     2
 10
831.496721841
 20
1455.066660949
 30
0.0
 11
831.496721841
 21
1454.666660949
 31
0.0
  0
LINE
  8
0
  6
CONTINUOUS
 62
     2
 10
491.496721841
 20
1429.466660949
 30
0.0
 11
499.224128451
 21
1427.396108588
 31
0.0
  0
LINE
  8
0
  6
CONTINUOUS
 62
     2
 10
491.496721841
 20
1429.466660949
 30
0.0
 11
499.224128451
 21
1431.53721331
 31
0.0
  0
LINE
  8
0
  6
CONTINUOUS
 62
     2
 10
491.496721841
 20
1429.466660949
 30
0.0
 11
809.096721841
 21
1429.466660949
 31
0.0
  0
LINE
  8
0
  6
CONTINUOUS
 62
     2
 10
809.096721841
 20
1429.466660949
 30
0.0
 11
801.369315231
 21
1431.53721331
 31
0.0
  0
LINE
  8
0
  6
CONTINUOUS
 62
     2
 10
809.096721841
 20
1429.466660949
 30
0.0
 11
801.369315231
 21
1427.396108588
 31
0.0
  0
LINE
  8
0
  6
CONTINUOUS
 62
     2
 10
809.096721841
 20
1430.266660949
 30
0.0
 11
809.096721841
 21
1425.466660949
 31
0.0
  0
LINE
  8
0
  6
CONTINUOUS
 62
     2
 10
809.096721841
 20
1429.466660949
 30
0.0
 11
801.369315231
 21
1431.53721331
 31
0.0
  0
LINE
  8
0
  6
CONTINUOUS
 62
     2
 10
809.096721841
 20
1429.466660949
 30
0.0
 11
801.369315231
 21
1427.396108588
 31
0.0
  0
LINE
  8
0
  6
CONTINUOUS
 62
     2
 10
797.096721841
 20
1429.466660949
 30
0.0
 11
809.096721841
 21
1429.466660949
 31
0.0
  0
LINE
  8
0
  6
CONTINUOUS
 62
     2
 10
809.096721841
 20
1429.466660949
 30
0.0
 11
831.496721841
 21
1429.466660949
 31
0.0
  0
LINE
  8
0
  6
CONTINUOUS
 62
     2
 10
831.496721841
 20
1429.466660949
 30
0.0
 11
839.224128451
 21
1427.396108588
 31
0.0
  0
LINE
  8
0
  6
CONTINUOUS
 62
     2
 10
831.496721841
 20
1429.466660949
 30
0.0
 11
839.224128451
 21
1431.53721331
 31
0.0
  0
LINE
  8
0
  6
CONTINUOUS
 62
     2
 10
491.496721841
 20
1523.066660949
 30
0.0
 11
491.496721841
 21
1508.266660949
 31
0.0
  0
LINE
  8
0
  6
CONTINUOUS
 62
     2
 10
831.496721841
 20
1523.066660949
 30
0.0
 11
831.496721841
 21
1508.266660949
 31
0.0
  0
LINE
  8
0
  6
CONTINUOUS
 62
     2
 10
629.096721841
 20
1511.866660949
 30
0.0
 11
629.096721841
 21
1523.066660949
 31
0.0
  0
LINE
  8
0
  6
CONTINUOUS
 62
     2
 10
649.896721841
 20
1498.73721331
 30
0.0
 11
649.896721841
 21
1481.93721331
 31
0.0
  0
LINE
  8
0
  6
CONTINUOUS
 62
     2
 10
491.496721841
 20
1508.266660949
 30
0.0
 11
491.496721841
 21
1416.266660949
 31
0.0
  0
LINE
  8
0
  6
CONTINUOUS
 62
     2
 10
831.496721841
 20
1512.266660949
 30
0.0
 11
831.496721841
 21
1417.466660949
 31
0.0
  0
LINE
  8
0
  6
CONTINUOUS
 62
     2
 10
649.896721841
 20
1485.93721331
 30
0.0
 11
649.896721841
 21
1449.466660949
 31
0.0
  0
LINE
  8
0
  6
CONTINUOUS
 62
     2
 10
629.096721841
 20
1512.266660949
 30
0.0
 11
629.096721841
 21
1476.666660949
 31
0.0
  0
TEXT
  8
0
  6
CONTINUOUS
 62
     3
 10
533.296721841
 20
1514.266660949
 30
0.0
 40
15.0
  1
ｍｉｎ．Ｌ
 50
0.0
 41
0.9
 51
0.0
  7
KANJI37
  0
TEXT
  8
0
  6
CONTINUOUS
 62
     3
 10
687.096721841
 20
1514.266660949
 30
0.0
 40
15.0
  1
機械的ストローク
 50
0.0
 41
0.9
 51
0.0
  7
KANJI37
  0
TEXT
  8
0
  6
CONTINUOUS
 62
     3
 10
661.896721841
 20
1487.93721331
 30
0.0
 40
15.0
  1
余裕
 50
0.0
 41
0.9
 51
0.0
  7
KANJI37
  0
TEXT
  8
0
  6
CONTINUOUS
 62
     3
 10
543.696721841
 20
1460.666660949
 30
0.0
 40
15.0
  1
常用ｍｉｎ
 50
0.0
 41
0.9
 51
0.0
  7
KANJI37
  0
TEXT
  8
0
  6
CONTINUOUS
 62
     3
 10
623.296721841
 20
1431.466660949
 30
0.0
 40
15.0
  1
常用ｍａｘ
 50
0.0
 41
0.9
 51
0.0
  7
KANJI37
  0
TEXT
  8
0
  6
CONTINUOUS
 62
     3
 10
843.496721841
 20
1431.466660949
 30
0.0
 40
15.0
  1
余裕
 50
0.0
 41
0.9
 51
0.0
  7
KANJI37
  0
LINE
  8
0
  6
CONTINUOUS
 62
     2
 10
649.896721841
 20
1485.93721331
 30
0.0
 11
689.996721841
 21
1485.93721331
 31
0.0
  0
LINE
  8
0
  6
CONTINUOUS
 62
     2
 10
831.496721841
 20
1429.466660949
 30
0.0
 11
873.996721841
 21
1429.466660949
 31
0.0
  0
LINE
  8
0
  6
CONTINUOUS
 62
     2
 10
809.096721841
 20
1471.466660949
 30
0.0
 11
809.096721841
 21
1416.666660949
 31
0.0
  0
LINE
  8
0
  6
CONTINUOUS
 62
     2
 10
649.896721841
 20
1458.666660949
 30
0.0
 11
809.096721841
 21
1458.666660949
 31
0.0
  0
LINE
  8
0
  6
CONTINUOUS
 62
     2
 10
809.096721841
 20
1458.666660949
 30
0.0
 11
801.369315231
 21
1460.73721331
 31
0.0
  0
LINE
  8
0
  6
CONTINUOUS
 62
     2
 10
809.096721841
 20
1458.666660949
 30
0.0
 11
801.369315231
 21
1456.596108588
 31
0.0
  0
TEXT
  8
0
  6
CONTINUOUS
 62
     3
 10
689.896721841
 20
1460.666660949
 30
0.0
 40
15.0
  1
常用ストローク
 50
0.0
 41
0.9
 51
0.0
  7
KANJI37
  0
TEXT
  8
0
  6
CONTINUOUS
 62
     2
 10
2661.290032433
 20
184.116655933
 30
0.0
 40
21.0
  1
１
 50
0.0
 41
0.9
 51
0.0
  7
KANJI16
  0
TEXT
  8
0
  6
CONTINUOUS
 62
     2
 10
1663.231693333
 20
1873.433303333
 30
1.499994
 40
14.99994
  1
　９．０
 50
0.0
 41
0.9
 51
0.0
  7
KANJI17
  0
TEXT
  8
0
  6
CONTINUOUS
 62
     2
 10
1738.231393333
 20
1873.433303333
 30
1.499994
 40
14.99994
  1
６１．１
 50
0.0
 41
0.9
 51
0.0
  7
KANJI17
  0
TEXT
  8
0
  6
CONTINUOUS
 62
     2
 10
1663.231693333
 20
1843.433423333
 30
1.499994
 40
14.99994
  1
　８．５
 50
0.0
 41
0.9
 51
0.0
  7
KANJI17
  0
TEXT
  8
0
  6
CONTINUOUS
 62
     2
 10
1737.689756667
 20
1841.141760833
 30
1.499994
 40
14.99994
  1
５３．４
 50
0.0
 41
0.9
 51
0.0
  7
KANJI17
  0
TEXT
  8
0
  6
CONTINUOUS
 62
     2
 10
1663.231693333
 20
1813.433543333
 30
1.499994
 40
14.99994
  1
　７．９
 50
0.0
 41
0.9
 51
0.0
  7
KANJI17
  0
TEXT
  8
0
  6
CONTINUOUS
 62
     2
 10
1738.939751667
 20
1812.808540833
 30
1.499994
 40
14.99994
  1
５８．７
 50
0.0
 41
0.9
 51
0.0
  7
KANJI17
  0
TEXT
  8
0
  6
CONTINUOUS
 62
     2
 10
1363.232893333
 20
1873.433303333
 30
1.499994
 40
14.99994
  1
　４．５
 50
0.0
 41
0.9
 51
0.0
  7
KANJI17
  0
TEXT
  8
0
  6
CONTINUOUS
 62
     2
 10
1438.232593333
 20
1873.433303333
 30
1.499994
 40
14.99994
  1
３０．０
 50
0.0
 41
0.9
 51
0.0
  7
KANJI17
  0
TEXT
  8
0
  6
CONTINUOUS
 62
     2
 10
1363.232893333
 20
1843.433423333
 30
1.499994
 40
14.99994
  1
　４．２
 50
0.0
 41
0.9
 51
0.0
  7
KANJI17
  0
TEXT
  8
0
  6
CONTINUOUS
 62
     2
 10
1438.232593333
 20
1843.433423333
 30
1.499994
 40
14.99994
  1
２６．０
 50
0.0
 41
0.9
 51
0.0
  7
KANJI17
  0
TEXT
  8
0
  6
CONTINUOUS
 62
     2
 10
1363.232893333
 20
1813.433543333
 30
1.499994
 40
14.99994
  1
　４．０
 50
0.0
 41
0.9
 51
0.0
  7
KANJI17
  0
TEXT
  8
0
  6
CONTINUOUS
 62
     2
 10
1438.232593333
 20
1813.433543333
 30
1.499994
 40
14.99994
  1
２９．０
 50
0.0
 41
0.9
 51
0.0
  7
KANJI17
  0
LINE
  8
0
  6
CONTINUOUS
 62
     2
 10
2014.133333333
 20
824.433333333
 30
0.0
 11
2182.133333333
 21
824.433333333
 31
0.0
  0
TEXT
  8
0
  6
CONTINUOUS
 62
     2
 10
2028.833333333
 20
834.233333333
 30
14.0
 40
28.0
  1
特記事項
 50
0.0
 41
0.9
 51
0.0
  7
KANJI38
  0
TEXT
  8
0
  6
CONTINUOUS
 62
     2
 10
2021.833333333
 20
694.583333333
 30
2.1
 40
24.5
  1
３．ＬＳユニット
 50
0.0
 41
0.857142857
 51
0.0
  7
KANJI39
  0
TEXT
  8
0
  6
CONTINUOUS
 62
     2
 10
2021.833333333
 20
782.083333333
 30
2.1
 40
24.5
  1
１．運転時は必ずピストンロッドの回転防止を行って下さい。
 50
0.0
 41
0.857142857
 51
0.0
  7
KANJI39
  0
TEXT
  8
0
  6
CONTINUOUS
 62
     2
 10
2021.833333333
 20
738.333333333
 30
2.1
 40
24.5
  1
２．モートル：全閉自冷かご形３０分定格
 50
0.0
 41
0.857142857
 51
0.0
  7
KANJI39
  0
TEXT
  8
0
  6
CONTINUOUS
 62
     2
 10
2021.833333333
 20
586.083333333
 30
2.1
 40
24.5
  1
４．呼称ストロークは、機械的ストロークです。
 50
0.0
 41
0.857142857
 51
0.0
  7
KANJI39
  0
TEXT
  8
0
  6
CONTINUOUS
 62
     2
 10
2021.833333333
 20
624.583333333
 30
2.1
 40
24.5
  1
　　ストローク７００ｍｍ以上の場合２ロッド方式となります。
 50
0.0
 41
0.857142857
 51
0.0
  7
KANJI39
  0
TEXT
  8
0
  6
CONTINUOUS
 62
     2
 10
2021.833333333
 20
659.583333333
 30
2.1
 40
24.5
  1
　　リミットスイッチ：１ＬＳ１－Ｊｘ２ケ（山武）
 50
0.0
 41
0.857142857
 51
0.0
  7
KANJI39
  0
TEXT
  8
0
  6
CONTINUOUS
 62
     2
 10
2021.833333333
 20
542.963333333
 30
2.1
 40
24.5
  1
　　必ず、常用はストローク両端に必ず余裕を取って下さい。
 50
0.0
 41
0.857142857
 51
0.0
  7
KANJI39
  0
TEXT
  8
0
  6
CONTINUOUS
 62
     2
 10
2021.833333333
 20
498.891333333
 30
2.1
 40
24.5
  1
　　前後の推奨余裕寸法は、各々２０ｍｍです。
 50
0.0
 41
0.857142857
 51
0.0
  7
KANJI39
  0
CIRCLE
  8
0
  6
CONTINUOUS
 62
     1
 10
586.8999996
 20
684.4999852
 30
0.0
 40
15.0
  0
CIRCLE
  8
0
  6
CONTINUOUS
 62
     1
 10
586.8999996
 20
684.4999852
 30
0.0
 40
30.0
  0
CIRCLE
  8
0
  6
CONTINUOUS
 62
     1
 10
586.8999996
 20
684.4999852
 30
0.0
 40
34.0
  0
LINE
  8
0
  6
CONTINUOUS
 62
     1
 10
486.8999996
 20
764.4999852
 30
0.0
 11
486.8999996
 21
604.4999852
 31
0.0
  0
LINE
  8
0
  6
CONTINUOUS
 62
     1
 10
588.8999996
 20
635.0999852
 30
0.0
 11
588.8999996
 21
616.4999852
 31
0.0
  0
LINE
  8
0
  6
CONTINUOUS
 62
     1
 10
662.8999996
 20
635.7999852
 30
0.0
 11
662.8999996
 21
616.4999852
 31
0.0
  0
LINE
  8
0
  6
LTYPE2
 62
     2
 10
586.8999996
 20
729.4999852
 30
0.0
 11
586.8999996
 21
639.4999852
 31
0.0
  0
LINE
  8
0
  6
CONTINUOUS
 62
     1
 10
486.8999996
 20
764.4999852
 30
0.0
 11
502.8999996
 21
764.4999852
 31
0.0
  0
ARC
  8
0
  6
CONTINUOUS
 62
     1
 10
502.8999996
 20
762.4999852
 30
0.0
 40
2.0
 50
0.0
 51
90.0
  0
LINE
  8
0
  6
CONTINUOUS
 62
     1
 10
486.8999996
 20
604.4999852
 30
0.0
 11
502.8999996
 21
604.4999852
 31
0.0
  0
LINE
  8
0
  6
CONTINUOUS
 62
     1
 10
504.8999996
 20
762.4999852
 30
0.0
 11
504.8999996
 21
606.4999852
 31
0.0
  0
ARC
  8
0
  6
CONTINUOUS
 62
     1
 10
502.8999996
 20
606.4999852
 30
0.0
 40
2.0
 50
270.0
 51
0.0
  0
LINE
  8
0
  6
CONTINUOUS
 62
     1
 10
662.9999996
 20
619.4999852
 30
0.0
 11
727.8999996
 21
619.4999852
 31
0.0
  0
LINE
  8
0
  6
CONTINUOUS
 62
     1
 10
508.8999996
 20
624.4999852
 30
0.0
 11
508.8999996
 21
638.330973298
 31
0.0
  0
LINE
  8
0
  6
CONTINUOUS
 62
     1
 10
508.8999996
 20
624.4999852
 30
0.0
 11
508.8999996
 21
610.668997102
 31
0.0
  0
POINT
  8
0
  6
CONTINUOUS
 62
     1
 10
504.8999996
 20
638.4999852
 30
0.0
  0
LINE
  8
0
  6
CONTINUOUS
 62
     1
 10
504.8999996
 20
638.4999852
 30
0.0
 11
508.8999996
 21
638.4999852
 31
0.0
  0
LINE
  8
0
  6
CONTINUOUS
 62
     1
 10
504.8999996
 20
624.4999852
 30
0.0
 11
508.899996595
 21
628.499982195
 31
0.0
  0
LINE
  8
0
  6
CONTINUOUS
 62
     1
 10
508.899996595
 20
624.4999852
 30
0.0
 11
504.8999996
 21
620.499988205
 31
0.0
  0
POINT
  8
0
  6
CONTINUOUS
 62
     1
 10
504.8999996
 20
610.4999852
 30
0.0
  0
LINE
  8
0
  6
CONTINUOUS
 62
     1
 10
504.8999996
 20
610.4999852
 30
0.0
 11
508.8999996
 21
610.4999852
 31
0.0
  0
LINE
  8
0
  6
CONTINUOUS
 62
     1
 10
523.8999996
 20
624.499984976
 30
0.0
 11
523.8999996
 21
636.4999852
 31
0.0
  0
LINE
  8
0
  6
CONTINUOUS
 62
     1
 10
508.8999996
 20
636.4999852
 30
0.0
 11
523.8999996
 21
636.4999852
 31
0.0
  0
LINE
  8
0
  6
CONTINUOUS
 62
     1
 10
523.8999996
 20
636.4999852
 30
0.0
 11
524.8999996
 21
634.767934392
 31
0.0
  0
LINE
  8
0
  6
CONTINUOUS
 62
     1
 10
524.8999996
 20
624.499984962
 30
0.0
 11
524.8999996
 21
634.767934392
 31
0.0
  0
LINE
  8
0
  6
CONTINUOUS
 62
     1
 10
523.8999996
 20
624.499985424
 30
0.0
 11
523.8999996
 21
612.4999852
 31
0.0
  0
LINE
  8
0
  6
CONTINUOUS
 62
     1
 10
508.8999996
 20
612.4999852
 30
0.0
 11
523.8999996
 21
612.4999852
 31
0.0
  0
LINE
  8
0
  6
CONTINUOUS
 62
     1
 10
523.8999996
 20
612.4999852
 30
0.0
 11
524.8999996
 21
614.232036008
 31
0.0
  0
LINE
  8
0
  6
CONTINUOUS
 62
     1
 10
524.8999996
 20
624.499985438
 30
0.0
 11
524.8999996
 21
614.232036008
 31
0.0
  0
LINE
  8
0
  6
CONTINUOUS
 62
     1
 10
524.8999996
 20
619.4999852
 30
0.0
 11
589.0999996
 21
619.4999852
 31
0.0
  0
LINE
  8
0
  6
LTYPE2
 62
     2
 10
475.1999996
 20
624.4999852
 30
0.0
 11
530.9999996
 21
624.4999852
 31
0.0
  0
LINE
  8
0
  6
CONTINUOUS
 62
     1
 10
508.8999996
 20
744.4999852
 30
0.0
 11
508.8999996
 21
730.668997102
 31
0.0
  0
LINE
  8
0
  6
CONTINUOUS
 62
     1
 10
508.8999996
 20
744.4999852
 30
0.0
 11
508.8999996
 21
758.330973298
 31
0.0
  0
POINT
  8
0
  6
CONTINUOUS
 62
     1
 10
504.8999996
 20
730.4999852
 30
0.0
  0
LINE
  8
0
  6
CONTINUOUS
 62
     1
 10
504.8999996
 20
730.4999852
 30
0.0
 11
508.8999996
 21
730.4999852
 31
0.0
  0
LINE
  8
0
  6
CONTINUOUS
 62
     1
 10
504.8999996
 20
744.4999852
 30
0.0
 11
508.899996595
 21
740.499988205
 31
0.0
  0
LINE
  8
0
  6
CONTINUOUS
 62
     1
 10
508.899996595
 20
744.4999852
 30
0.0
 11
504.8999996
 21
748.499982195
 31
0.0
  0
POINT
  8
0
  6
CONTINUOUS
 62
     1
 10
504.8999996
 20
758.4999852
 30
0.0
  0
LINE
  8
0
  6
CONTINUOUS
 62
     1
 10
504.8999996
 20
758.4999852
 30
0.0
 11
508.8999996
 21
758.4999852
 31
0.0
  0
LINE
  8
0
  6
CONTINUOUS
 62
     1
 10
523.8999996
 20
744.499985424
 30
0.0
 11
523.8999996
 21
732.4999852
 31
0.0
  0
LINE
  8
0
  6
CONTINUOUS
 62
     1
 10
508.8999996
 20
732.4999852
 30
0.0
 11
523.8999996
 21
732.4999852
 31
0.0
  0
LINE
  8
0
  6
CONTINUOUS
 62
     1
 10
523.8999996
 20
732.4999852
 30
0.0
 11
524.8999996
 21
734.232036008
 31
0.0
  0
LINE
  8
0
  6
CONTINUOUS
 62
     1
 10
524.8999996
 20
744.499985438
 30
0.0
 11
524.8999996
 21
734.232036008
 31
0.0
  0
LINE
  8
0
  6
CONTINUOUS
 62
     1
 10
523.8999996
 20
744.499984976
 30
0.0
 11
523.8999996
 21
756.4999852
 31
0.0
  0
LINE
  8
0
  6
CONTINUOUS
 62
     1
 10
508.8999996
 20
756.4999852
 30
0.0
 11
523.8999996
 21
756.4999852
 31
0.0
  0
LINE
  8
0
  6
CONTINUOUS
 62
     1
 10
523.8999996
 20
756.4999852
 30
0.0
 11
524.8999996
 21
754.767934392
 31
0.0
  0
LINE
  8
0
  6
CONTINUOUS
 62
     1
 10
524.8999996
 20
744.499984962
 30
0.0
 11
524.8999996
 21
754.767934392
 31
0.0
  0
LINE
  8
0
  6
LTYPE2
 62
     2
 10
475.1999996
 20
744.4999852
 30
0.0
 11
530.9999996
 21
744.4999852
 31
0.0
  0
LINE
  8
0
  6
CONTINUOUS
 62
     1
 10
524.8999996
 20
749.4999852
 30
0.0
 11
727.8999996
 21
749.4999852
 31
0.0
  0
LINE
  8
0
  6
CONTINUOUS
 62
     1
 10
727.8999996
 20
689.4999852
 30
0.0
 11
739.8999996
 21
689.4999852
 31
0.0
  0
LINE
  8
0
  6
CONTINUOUS
 62
     1
 10
727.8999996
 20
679.4999852
 30
0.0
 11
739.8999996
 21
679.4999852
 31
0.0
  0
LINE
  8
0
  6
CONTINUOUS
 62
     1
 10
727.8999996
 20
751.9999852
 30
0.0
 11
739.8999996
 21
751.9999852
 31
0.0
  0
LINE
  8
0
  6
CONTINUOUS
 62
     1
 10
727.8999996
 20
747.9999852
 30
0.0
 11
739.8999996
 21
747.9999852
 31
0.0
  0
LINE
  8
0
  6
CONTINUOUS
 62
     1
 10
727.8999996
 20
616.9999852
 30
0.0
 11
739.8999996
 21
616.9999852
 31
0.0
  0
LINE
  8
0
  6
CONTINUOUS
 62
     1
 10
727.8999996
 20
620.9999852
 30
0.0
 11
739.8999996
 21
620.9999852
 31
0.0
  0
LINE
  8
0
  6
CONTINUOUS
 62
     1
 10
727.8999996
 20
751.9999852
 30
0.0
 11
727.8999996
 21
616.9999852
 31
0.0
  0
LINE
  8
0
  6
CONTINUOUS
 62
     1
 10
739.8999996
 20
751.9999852
 30
0.0
 11
739.8999996
 21
616.9999852
 31
0.0
  0
LINE
  8
0
  6
LTYPE2
 62
     2
 10
1269.8999996
 20
684.4999852
 30
0.0
 11
349.4999996
 21
684.4999852
 31
0.0
  0
LINE
  8
0
  6
CONTINUOUS
 62
     2
 10
486.8999996
 20
1027.4999852
 30
0.0
 11
486.8999996
 21
1143.2749852
 31
0.0
  0
LINE
  8
0
  6
LTYPE2
 62
     2
 10
394.5999996
 20
599.4999852
 30
0.0
 11
340.5999996
 21
599.4999852
 31
0.0
  0
LINE
  8
0
  6
CONTINUOUS
 62
     1
 10
360.8999996
 20
599.4999852
 30
0.0
 11
360.8999996
 21
585.668997102
 31
0.0
  0
LINE
  8
0
  6
CONTINUOUS
 62
     1
 10
360.8999996
 20
599.4999852
 30
0.0
 11
360.8999996
 21
613.330973298
 31
0.0
  0
LINE
  8
0
  6
CONTINUOUS
 62
     1
 10
350.900090987
 20
589.056177861
 30
0.0
 11
352.85568071
 21
585.668997102
 31
0.0
  0
LINE
  8
0
  6
CONTINUOUS
 62
     1
 10
350.900090987
 20
599.4999852
 30
0.0
 11
350.900090987
 21
589.056177861
 31
0.0
  0
LINE
  8
0
  6
CONTINUOUS
 62
     1
 10
350.900090987
 20
609.943792539
 30
0.0
 11
352.85568071
 21
613.330973298
 31
0.0
  0
LINE
  8
0
  6
CONTINUOUS
 62
     1
 10
350.900090987
 20
599.4999852
 30
0.0
 11
350.900090987
 21
609.943792539
 31
0.0
  0
ARC
  8
0
  6
CONTINUOUS
 62
     1
 10
364.105414298
 20
599.4999852
 30
0.0
 40
13.20532331
 50
148.419912243
 51
211.580087757
  0
ARC
  8
0
  6
CONTINUOUS
 62
     1
 10
354.933494791
 20
589.126744127
 30
0.0
 40
4.034021051
 50
121.002313915
 51
182.989498403
  0
LINE
  8
0
  6
CONTINUOUS
 62
     1
 10
350.900090987
 20
609.943792539
 30
0.0
 11
352.85568071
 21
613.330973298
 31
0.0
  0
ARC
  8
0
  6
CONTINUOUS
 62
     1
 10
354.933494791
 20
609.873226273
 30
0.0
 40
4.034021051
 50
177.010501597
 51
238.997686085
  0
LINE
  8
0
  6
CONTINUOUS
 62
     1
 10
360.8999996
 20
585.668997102
 30
0.0
 11
352.85568071
 21
585.668997102
 31
0.0
  0
LINE
  8
0
  6
CONTINUOUS
 62
     1
 10
360.8999996
 20
592.584491151
 30
0.0
 11
352.85568071
 21
592.584491151
 31
0.0
  0
LINE
  8
0
  6
CONTINUOUS
 62
     1
 10
360.8999996
 20
606.415479249
 30
0.0
 11
352.85568071
 21
606.415479249
 31
0.0
  0
LINE
  8
0
  6
CONTINUOUS
 62
     1
 10
360.8999996
 20
613.330973298
 30
0.0
 11
352.85568071
 21
613.330973298
 31
0.0
  0
LINE
  8
0
  6
CONTINUOUS
 62
     1
 10
486.8999996
 20
579.4999852
 30
0.0
 11
360.8999996
 21
579.4999852
 31
0.0
  0
LINE
  8
0
  6
LTYPE2
 62
     2
 10
392.5999996
 20
769.4999852
 30
0.0
 11
345.5999996
 21
769.4999852
 31
0.0
  0
LINE
  8
0
  6
CONTINUOUS
 62
     1
 10
360.8999996
 20
769.4999852
 30
0.0
 11
360.8999996
 21
755.668997102
 31
0.0
  0
LINE
  8
0
  6
CONTINUOUS
 62
     1
 10
360.8999996
 20
769.4999852
 30
0.0
 11
360.8999996
 21
783.330973298
 31
0.0
  0
LINE
  8
0
  6
CONTINUOUS
 62
     1
 10
350.900090987
 20
759.056177861
 30
0.0
 11
352.85568071
 21
755.668997102
 31
0.0
  0
LINE
  8
0
  6
CONTINUOUS
 62
     1
 10
350.900090987
 20
769.4999852
 30
0.0
 11
350.900090987
 21
759.056177861
 31
0.0
  0
LINE
  8
0
  6
CONTINUOUS
 62
     1
 10
350.900090987
 20
779.943792539
 30
0.0
 11
352.85568071
 21
783.330973298
 31
0.0
  0
LINE
  8
0
  6
CONTINUOUS
 62
     1
 10
350.900090987
 20
769.4999852
 30
0.0
 11
350.900090987
 21
779.943792539
 31
0.0
  0
ARC
  8
0
  6
CONTINUOUS
 62
     1
 10
364.105414298
 20
769.4999852
 30
0.0
 40
13.20532331
 50
148.419912243
 51
211.580087757
  0
ARC
  8
0
  6
CONTINUOUS
 62
     1
 10
354.933494791
 20
759.126744127
 30
0.0
 40
4.034021051
 50
121.002313915
 51
182.989498403
  0
LINE
  8
0
  6
CONTINUOUS
 62
     1
 10
350.900090987
 20
779.943792539
 30
0.0
 11
352.85568071
 21
783.330973298
 31
0.0
  0
ARC
  8
0
  6
CONTINUOUS
 62
     1
 10
354.933494791
 20
779.873226273
 30
0.0
 40
4.034021051
 50
177.010501597
 51
238.997686085
  0
LINE
  8
0
  6
CONTINUOUS
 62
     1
 10
360.8999996
 20
755.668997102
 30
0.0
 11
352.85568071
 21
755.668997102
 31
0.0
  0
LINE
  8
0
  6
CONTINUOUS
 62
     1
 10
360.8999996
 20
762.584491151
 30
0.0
 11
352.85568071
 21
762.584491151
 31
0.0
  0
LINE
  8
0
  6
CONTINUOUS
 62
     1
 10
360.8999996
 20
776.415479249
 30
0.0
 11
352.85568071
 21
776.415479249
 31
0.0
  0
LINE
  8
0
  6
CONTINUOUS
 62
     1
 10
360.8999996
 20
783.330973298
 30
0.0
 11
352.85568071
 21
783.330973298
 31
0.0
  0
LINE
  8
0
  6
CONTINUOUS
 62
     1
 10
486.8999996
 20
579.4999852
 30
0.0
 11
486.8999996
 21
1018.4999852
 31
0.0
  0
LINE
  8
0
  6
CONTINUOUS
 62
     1
 10
486.8999996
 20
766.6499852
 30
0.0
 11
486.8999996
 21
1018.4999852
 31
0.0
  0
LINE
  8
0
  6
CONTINUOUS
 62
     1
 10
486.8999996
 20
768.4999852
 30
0.0
 11
486.8999996
 21
1018.4999852
 31
0.0
  0
LINE
  8
0
  6
CONTINUOUS
 62
     1
 10
486.8999996
 20
768.4999852
 30
0.0
 11
497.8999996
 21
768.4999852
 31
0.0
  0
LINE
  8
0
  6
CONTINUOUS
 62
     2
 10
486.8999996
 20
1134.2749852
 30
0.0
 11
501.388886994
 21
1130.392699523
 31
0.0
  0
LINE
  8
0
  6
CONTINUOUS
 62
     2
 10
486.8999996
 20
1134.2749852
 30
0.0
 11
501.388886994
 21
1138.157270877
 31
0.0
  0
LINE
  8
0
  6
CONTINUOUS
 62
     1
 10
876.3999996
 20
884.7999852
 30
0.0
 11
882.2999996
 21
884.7999852
 31
0.0
  0
LINE
  8
0
  6
CONTINUOUS
 62
     1
 10
876.3999996
 20
902.1999852
 30
0.0
 11
882.2999996
 21
902.1999852
 31
0.0
  0
LINE
  8
0
  6
CONTINUOUS
 62
     1
 10
889.8999996
 20
883.4999852
 30
0.0
 11
889.8999996
 21
893.3999852
 31
0.0
  0
LINE
  8
0
  6
CONTINUOUS
 62
     1
 10
883.2999996
 20
883.4999852
 30
0.0
 11
889.8999996
 21
883.4999852
 31
0.0
  0
LINE
  8
0
  6
CONTINUOUS
 62
     1
 10
883.2999996
 20
888.4999852
 30
0.0
 11
889.8999996
 21
888.4999852
 31
0.0
  0
LINE
  8
0
  6
CONTINUOUS
 62
     1
 10
889.8999996
 20
903.4999852
 30
0.0
 11
889.8999996
 21
893.5999852
 31
0.0
  0
LINE
  8
0
  6
CONTINUOUS
 62
     1
 10
883.2999996
 20
903.4999852
 30
0.0
 11
889.8999996
 21
903.4999852
 31
0.0
  0
LINE
  8
0
  6
CONTINUOUS
 62
     1
 10
883.2999996
 20
898.4999852
 30
0.0
 11
889.8999996
 21
898.4999852
 31
0.0
  0
LINE
  8
0
  6
CONTINUOUS
 62
     2
 10
891.8999996
 20
863.3999852
 30
0.0
 11
891.8999996
 21
1143.2749852
 31
0.0
  0
LINE
  8
0
  6
CONTINUOUS
 62
     2
 10
891.8999996
 20
1134.2749852
 30
0.0
 11
877.411112206
 21
1138.157270877
 31
0.0
  0
LINE
  8
0
  6
CONTINUOUS
 62
     2
 10
891.8999996
 20
1134.2749852
 30
0.0
 11
877.411112206
 21
1130.392699523
 31
0.0
  0
LINE
  8
0
  6
CONTINUOUS
 62
     2
 10
486.8999996
 20
1134.2749852
 30
0.0
 11
891.8999996
 21
1134.2749852
 31
0.0
  0
LINE
  8
0
  6
LTYPE3
 62
     2
 10
684.3999996
 20
975.343052536
 30
0.0
 11
684.3999996
 21
1015.643052536
 31
0.0
  0
LINE
  8
0
  6
CONTINUOUS
 62
     1
 10
774.3999996
 20
1023.4999852
 30
0.0
 11
774.3999996
 21
1063.4999852
 31
0.0
  0
LINE
  8
0
  6
CONTINUOUS
 62
     1
 10
774.3999996
 20
1063.4999852
 30
0.0
 11
748.6999996
 21
1063.4999852
 31
0.0
  0
LINE
  8
0
  6
CONTINUOUS
 62
     1
 10
774.3999996
 20
1023.4999852
 30
0.0
 11
748.6999996
 21
1023.4999852
 31
0.0
  0
ARC
  8
0
  6
CONTINUOUS
 62
     1
 10
742.6999996
 20
1018.1999852
 30
0.0
 40
6.0
 50
270.0
 51
0.0
  0
LINE
  8
0
  6
LTYPE3
 62
     2
 10
778.656580024
 20
1043.4999852
 30
0.0
 11
739.156580024
 21
1043.4999852
 31
0.0
  0
LINE
  8
0
  6
CONTINUOUS
 62
     2
 10
774.3999996
 20
1043.4999852
 30
0.0
 11
786.823015324
 21
1051.906451777
 31
0.0
  0
LINE
  8
0
  6
CONTINUOUS
 62
     2
 10
774.3999996
 20
1043.4999852
 30
0.0
 11
780.95541352
 21
1056.991706674
 31
0.0
  0
LINE
  8
0
  6
CONTINUOUS
 62
     2
 10
774.3999996
 20
1043.4999852
 30
0.0
 11
806.8999996
 21
1080.9999852
 31
0.0
  0
ARC
  8
0
  6
CONTINUOUS
 62
     1
 10
629.219479857
 20
1018.1999852
 30
0.0
 40
6.0
 50
190.033164511
 51
270.0
  0
LINE
  8
0
  6
CONTINUOUS
 62
     1
 10
486.8999996
 20
1018.4999852
 30
0.0
 11
502.8999996
 21
1018.4999852
 31
0.0
  0
LINE
  8
0
  6
CONTINUOUS
 62
     1
 10
502.8999996
 20
768.4999852
 30
0.0
 11
502.8999996
 21
1018.4999852
 31
0.0
  0
LINE
  8
0
  6
CONTINUOUS
 62
     1
 10
486.8999996
 20
768.4999852
 30
0.0
 11
502.8999996
 21
768.4999852
 31
0.0
  0
LINE
  8
0
  6
CONTINUOUS
 62
     1
 10
552.8999996
 20
788.4999852
 30
0.0
 11
552.8999996
 21
998.4999852
 31
0.0
  0
LINE
  8
0
  6
CONTINUOUS
 62
     1
 10
552.8999996
 20
788.4999852
 30
0.0
 11
502.8999996
 21
788.4999852
 31
0.0
  0
LINE
  8
0
  6
CONTINUOUS
 62
     1
 10
552.8999996
 20
998.4999852
 30
0.0
 11
502.8999996
 21
998.4999852
 31
0.0
  0
ARC
  8
0
  6
CONTINUOUS
 62
     1
 10
849.620548828
 20
978.4999852
 30
0.0
 40
20.0
 50
9.12031501
 51
90.0
  0
ARC
  8
0
  6
CONTINUOUS
 62
     1
 10
849.620548828
 20
808.4999852
 30
0.0
 40
20.0
 50
270.0
 51
350.87968499
  0
ARC
  8
0
  6
CONTINUOUS
 62
     1
 10
320.1499996
 20
893.4999852
 30
0.0
 40
556.25
 50
350.879686542
 51
9.120316562
  0
LINE
  8
0
  6
CONTINUOUS
 62
     1
 10
719.8999996
 20
998.4999852
 30
0.0
 11
719.8999996
 21
788.4999852
 31
0.0
  0
LINE
  8
0
  6
CONTINUOUS
 62
     1
 10
769.8999996
 20
998.4999852
 30
0.0
 11
769.8999996
 21
788.4999852
 31
0.0
  0
LINE
  8
0
  6
CONTINUOUS
 62
     1
 10
552.8999996
 20
993.4999852
 30
0.0
 11
719.8999996
 21
993.4999852
 31
0.0
  0
LINE
  8
0
  6
CONTINUOUS
 62
     1
 10
552.8999996
 20
988.4999852
 30
0.0
 11
719.8999996
 21
988.4999852
 31
0.0
  0
LINE
  8
0
  6
CONTINUOUS
 62
     1
 10
552.8999996
 20
973.4999852
 30
0.0
 11
719.8999996
 21
973.4999852
 31
0.0
  0
LINE
  8
0
  6
CONTINUOUS
 62
     1
 10
552.8999996
 20
958.4999852
 30
0.0
 11
719.8999996
 21
958.4999852
 31
0.0
  0
LINE
  8
0
  6
CONTINUOUS
 62
     1
 10
849.620559618
 20
998.4999852
 30
0.0
 11
719.8999996
 21
998.4999852
 31
0.0
  0
LINE
  8
0
  6
CONTINUOUS
 62
     1
 10
552.8999996
 20
943.4999852
 30
0.0
 11
719.8999996
 21
943.4999852
 31
0.0
  0
LINE
  8
0
  6
CONTINUOUS
 62
     1
 10
552.8999996
 20
928.4999852
 30
0.0
 11
719.8999996
 21
928.4999852
 31
0.0
  0
LINE
  8
0
  6
CONTINUOUS
 62
     1
 10
552.8999996
 20
913.4999852
 30
0.0
 11
719.8999996
 21
913.4999852
 31
0.0
  0
LINE
  8
0
  6
CONTINUOUS
 62
     1
 10
552.8999996
 20
898.4999852
 30
0.0
 11
719.8999996
 21
898.4999852
 31
0.0
  0
LINE
  8
0
  6
CONTINUOUS
 62
     1
 10
552.8999996
 20
883.4999852
 30
0.0
 11
719.8999996
 21
883.4999852
 31
0.0
  0
LINE
  8
0
  6
CONTINUOUS
 62
     1
 10
552.8999996
 20
868.4999852
 30
0.0
 11
719.8999996
 21
868.4999852
 31
0.0
  0
LINE
  8
0
  6
CONTINUOUS
 62
     1
 10
552.8999996
 20
853.4999852
 30
0.0
 11
719.8999996
 21
853.4999852
 31
0.0
  0
LINE
  8
0
  6
CONTINUOUS
 62
     1
 10
552.8999996
 20
838.4999852
 30
0.0
 11
719.8999996
 21
838.4999852
 31
0.0
  0
LINE
  8
0
  6
CONTINUOUS
 62
     1
 10
552.8999996
 20
823.4999852
 30
0.0
 11
719.8999996
 21
823.4999852
 31
0.0
  0
LINE
  8
0
  6
CONTINUOUS
 62
     1
 10
552.8999996
 20
808.4999852
 30
0.0
 11
719.8999996
 21
808.4999852
 31
0.0
  0
LINE
  8
0
  6
CONTINUOUS
 62
     1
 10
552.8999996
 20
793.4999852
 30
0.0
 11
719.8999996
 21
793.4999852
 31
0.0
  0
LINE
  8
0
  6
CONTINUOUS
 62
     1
 10
849.620559618
 20
788.4999852
 30
0.0
 11
719.8999996
 21
788.4999852
 31
0.0
  0
LINE
  8
0
  6
CONTINUOUS
 62
     1
 10
743.061039085
 20
1012.1999852
 30
0.0
 11
629.219479857
 21
1012.1999852
 31
0.0
  0
ARC
  8
0
  6
CONTINUOUS
 62
     1
 10
629.219479857
 20
1080.4999852
 30
0.0
 40
6.0
 50
90.0
 51
180.0
  0
LINE
  8
0
  6
CONTINUOUS
 62
     1
 10
747.508952559
 20
1086.4999852
 30
0.0
 11
629.219479857
 21
1086.4999852
 31
0.0
  0
LINE
  8
0
  6
CONTINUOUS
 62
     1
 10
748.6999996
 20
1018.1999852
 30
0.0
 11
748.6999996
 21
1077.872975242
 31
0.0
  0
LINE
  8
0
  6
CONTINUOUS
 62
     1
 10
704.3999996
 20
993.4999852
 30
0.0
 11
704.3999996
 21
1012.1999852
 31
0.0
  0
LINE
  8
0
  6
CONTINUOUS
 62
     1
 10
664.3999996
 20
993.4999852
 30
0.0
 11
664.3999996
 21
1012.1999852
 31
0.0
  0
LINE
  8
0
  6
CONTINUOUS
 62
     1
 10
758.777019998
 20
1085.998809555
 30
0.0
 11
756.5999996
 21
1090.4999852
 31
0.0
  0
LINE
  8
0
  6
CONTINUOUS
 62
     1
 10
756.5999996
 20
1090.4999852
 30
0.0
 11
611.201684151
 21
1020.1772243
 31
0.0
  0
LINE
  8
0
  6
CONTINUOUS
 62
     1
 10
758.777019998
 20
1085.998809555
 30
0.0
 11
613.37870455
 21
1015.676048655
 31
0.0
  0
LINE
  8
0
  6
CONTINUOUS
 62
     1
 10
611.201684151
 20
1020.1772243
 30
0.0
 11
613.37870455
 21
1015.676048655
 31
0.0
  0
LINE
  8
0
  6
CONTINUOUS
 62
     1
 10
623.219479857
 20
1027.176048655
 30
0.0
 11
623.219479857
 21
1080.4999852
 31
0.0
  0
LINE
  8
0
  6
CONTINUOUS
 62
     1
 10
623.87870455
 20
1020.176048655
 30
0.0
 11
623.87870455
 21
1017.176048655
 31
0.0
  0
LINE
  8
0
  6
CONTINUOUS
 62
     1
 10
876.3999996
 20
854.7999852
 30
0.0
 11
882.2999996
 21
854.7999852
 31
0.0
  0
LINE
  8
0
  6
CONTINUOUS
 62
     1
 10
876.3999996
 20
850.9999852
 30
0.0
 11
882.2999996
 21
850.9999852
 31
0.0
  0
LINE
  8
0
  6
CONTINUOUS
 62
     1
 10
891.7999996
 20
862.8999852
 30
0.0
 11
891.7999996
 21
842.8999852
 31
0.0
  0
LINE
  8
0
  6
CONTINUOUS
 62
     1
 10
886.7999996
 20
842.8999852
 30
0.0
 11
891.7999996
 21
842.8999852
 31
0.0
  0
LINE
  8
0
  6
CONTINUOUS
 62
     1
 10
886.7999996
 20
862.8999852
 30
0.0
 11
891.7999996
 21
862.8999852
 31
0.0
  0
LINE
  8
0
  6
CONTINUOUS
 62
     1
 10
882.2999996
 20
913.4999852
 30
0.0
 11
886.7999996
 21
913.4999852
 31
0.0
  0
LINE
  8
0
  6
CONTINUOUS
 62
     1
 10
886.7999996
 20
842.8999852
 30
0.0
 11
886.7999996
 21
913.4999852
 31
0.0
  0
LINE
  8
0
  6
LTYPE3
 62
     2
 10
868.2999996
 20
852.8999852
 30
0.0
 11
898.5999996
 21
852.8999852
 31
0.0
  0
LINE
  8
0
  6
CONTINUOUS
 62
     1
 10
882.2999996
 20
913.4999852
 30
0.0
 11
882.2999996
 21
847.8999852
 31
0.0
  0
LINE
  8
0
  6
CONTINUOUS
 62
     1
 10
886.7999996
 20
847.8999852
 30
0.0
 11
882.2999996
 21
847.8999852
 31
0.0
  0
LINE
  8
0
  6
CONTINUOUS
 62
     1
 10
880.2999996
 20
859.8999852
 30
0.0
 11
880.2999996
 21
844.8999852
 31
0.0
  0
LINE
  8
0
  6
CONTINUOUS
 62
     1
 10
877.7999996
 20
859.3999852
 30
0.0
 11
877.7999996
 21
844.8999852
 31
0.0
  0
LINE
  8
0
  6
CONTINUOUS
 62
     2
 10
806.8999996
 20
1080.9999852
 30
0.0
 11
873.8999996
 21
1080.9999852
 31
0.0
  0
LINE
  8
0
  6
CONTINUOUS
 62
     2
 10
894.4999996
 20
915.5999852
 30
0.0
 11
903.732044596
 21
927.422393804
 31
0.0
  0
LINE
  8
0
  6
CONTINUOUS
 62
     2
 10
894.4999996
 20
915.5999852
 30
0.0
 11
896.583980793
 21
930.454513883
 31
0.0
  0
LINE
  8
0
  6
CONTINUOUS
 62
     2
 10
894.4999996
 20
915.5999852
 30
0.0
 11
957.77820708
 21
1064.7750352
 31
0.0
  0
LINE
  8
0
  6
CONTINUOUS
 62
     2
 10
957.77820708
 20
1064.7750352
 30
0.0
 11
1101.7000496
 21
1064.7750352
 31
0.0
  0
LINE
  8
0
  6
CONTINUOUS
 62
     1
 10
1690.9999996
 20
669.4999852
 30
0.0
 11
1650.9999996
 21
669.4999852
 31
0.0
  0
LINE
  8
0
  6
CONTINUOUS
 62
     1
 10
1690.9999996
 20
699.4999852
 30
0.0
 11
1650.9999996
 21
699.4999852
 31
0.0
  0
LINE
  8
0
  6
LTYPE1
 62
     2
 10
1650.9999996
 20
669.4999852
 30
0.0
 11
1630.9999996
 21
669.4999852
 31
0.0
  0
LINE
  8
0
  6
LTYPE1
 62
     2
 10
1650.9999996
 20
699.4999852
 30
0.0
 11
1630.9999996
 21
699.4999852
 31
0.0
  0
LINE
  8
0
  6
CONTINUOUS
 62
     1
 10
1714.9999996
 20
656.4999852
 30
0.0
 11
1714.9999996
 21
712.4999852
 31
0.0
  0
LINE
  8
0
  6
CONTINUOUS
 62
     1
 10
1714.9999996
 20
656.4999852
 30
0.0
 11
1710.9999996
 21
656.4999852
 31
0.0
  0
LINE
  8
0
  6
CONTINUOUS
 62
     1
 10
1714.9999996
 20
712.4999852
 30
0.0
 11
1710.9999996
 21
712.4999852
 31
0.0
  0
LINE
  8
0
  6
CONTINUOUS
 62
     1
 10
1724.9999996
 20
669.4999852
 30
0.0
 11
1724.9999996
 21
699.4999852
 31
0.0
  0
LINE
  8
0
  6
CONTINUOUS
 62
     1
 10
1724.9999996
 20
669.4999852
 30
0.0
 11
1714.9999996
 21
669.4999852
 31
0.0
  0
LINE
  8
0
  6
CONTINUOUS
 62
     1
 10
1724.9999996
 20
699.4999852
 30
0.0
 11
1714.9999996
 21
699.4999852
 31
0.0
  0
LINE
  8
0
  6
LTYPE1
 62
     2
 10
1714.9999996
 20
699.4999852
 30
0.0
 11
1690.9999996
 21
699.4999852
 31
0.0
  0
LINE
  8
0
  6
LTYPE1
 62
     2
 10
1714.9999996
 20
669.4999852
 30
0.0
 11
1690.9999996
 21
669.4999852
 31
0.0
  0
LINE
  8
0
  6
CONTINUOUS
 62
     1
 10
1626.9999996
 20
656.4999852
 30
0.0
 11
1626.9999996
 21
712.4999852
 31
0.0
  0
LINE
  8
0
  6
CONTINUOUS
 62
     1
 10
1626.9999996
 20
656.4999852
 30
0.0
 11
1630.9999996
 21
656.4999852
 31
0.0
  0
LINE
  8
0
  6
CONTINUOUS
 62
     1
 10
1626.9999996
 20
712.4999852
 30
0.0
 11
1630.9999996
 21
712.4999852
 31
0.0
  0
LINE
  8
0
  6
CONTINUOUS
 62
     1
 10
1616.9999996
 20
669.4999852
 30
0.0
 11
1616.9999996
 21
699.4999852
 31
0.0
  0
LINE
  8
0
  6
CONTINUOUS
 62
     1
 10
1616.9999996
 20
669.4999852
 30
0.0
 11
1626.9999996
 21
669.4999852
 31
0.0
  0
LINE
  8
0
  6
CONTINUOUS
 62
     1
 10
1616.9999996
 20
699.4999852
 30
0.0
 11
1626.9999996
 21
699.4999852
 31
0.0
  0
LINE
  8
0
  6
LTYPE2
 62
     2
 10
1718.5999996
 20
677.4999852
 30
0.0
 11
1718.5999996
 21
693.4999852
 31
0.0
  0
CIRCLE
  8
0
  6
CONTINUOUS
 62
     1
 10
1718.5999996
 20
684.4999852
 30
0.0
 40
3.0
  0
LINE
  8
0
  6
LTYPE2
 62
     2
 10
1623.3999996
 20
677.4999852
 30
0.0
 11
1623.3999996
 21
693.4999852
 31
0.0
  0
CIRCLE
  8
0
  6
CONTINUOUS
 62
     1
 10
1623.3999996
 20
684.4999852
 30
0.0
 40
3.0
  0
LINE
  8
0
  6
CONTINUOUS
 62
     1
 10
1710.9999996
 20
721.9999852
 30
0.0
 11
1630.9999996
 21
721.9999852
 31
0.0
  0
LINE
  8
0
  6
CONTINUOUS
 62
     1
 10
1650.9999996
 20
646.9999852
 30
0.0
 11
1650.9999996
 21
721.9999852
 31
0.0
  0
LINE
  8
0
  6
CONTINUOUS
 62
     1
 10
1630.9999996
 20
646.9999852
 30
0.0
 11
1630.9999996
 21
721.9999852
 31
0.0
  0
LINE
  8
0
  6
CONTINUOUS
 62
     1
 10
1690.9999996
 20
646.9999852
 30
0.0
 11
1690.9999996
 21
721.9999852
 31
0.0
  0
LINE
  8
0
  6
CONTINUOUS
 62
     1
 10
1710.9999996
 20
646.9999852
 30
0.0
 11
1630.9999996
 21
646.9999852
 31
0.0
  0
LINE
  8
0
  6
CONTINUOUS
 62
     1
 10
1710.9999996
 20
646.9999852
 30
0.0
 11
1710.9999996
 21
721.9999852
 31
0.0
  0
LINE
  8
0
  6
LTYPE2
 62
     2
 10
1787.9999996
 20
684.4999852
 30
0.0
 11
1564.9999996
 21
684.4999852
 31
0.0
  0
ARC
  8
0
  6
CONTINUOUS
 62
     1
 10
1622.9999996
 20
611.9999852
 30
0.0
 40
3.0
 50
90.0
 51
180.0
  0
LINE
  8
0
  6
CONTINUOUS
 62
     1
 10
1619.9999996
 20
565.4999852
 30
0.0
 11
1619.9999996
 21
611.9999852
 31
0.0
  0
ARC
  8
0
  6
CONTINUOUS
 62
     1
 10
1620.9999996
 20
565.4999852
 30
0.0
 40
1.0
 50
180.0
 51
270.0
  0
ARC
  8
0
  6
CONTINUOUS
 62
     1
 10
1623.9999996
 20
564.4999852
 30
0.0
 40
1.0
 50
180.0
 51
270.0
  0
ARC
  8
0
  6
CONTINUOUS
 62
     1
 10
1718.9999996
 20
611.9999852
 30
0.0
 40
3.0
 50
0.0
 51
90.0
  0
LINE
  8
0
  6
CONTINUOUS
 62
     1
 10
1721.9999996
 20
565.4999852
 30
0.0
 11
1721.9999996
 21
611.9999852
 31
0.0
  0
ARC
  8
0
  6
CONTINUOUS
 62
     1
 10
1720.9999996
 20
565.4999852
 30
0.0
 40
1.0
 50
270.0
 51
0.0
  0
ARC
  8
0
  6
CONTINUOUS
 62
     1
 10
1717.9999996
 20
564.4999852
 30
0.0
 40
1.0
 50
270.0
 51
0.0
  0
LINE
  8
0
  6
CONTINUOUS
 62
     1
 10
1721.9999996
 20
570.4999852
 30
0.0
 11
1619.9999996
 21
570.4999852
 31
0.0
  0
LINE
  8
0
  6
CONTINUOUS
 62
     1
 10
1721.9999996
 20
571.9999852
 30
0.0
 11
1619.9999996
 21
571.9999852
 31
0.0
  0
LINE
  8
0
  6
CONTINUOUS
 62
     1
 10
1717.9999996
 20
563.4999852
 30
0.0
 11
1623.9999996
 21
563.4999852
 31
0.0
  0
LINE
  8
0
  6
CONTINUOUS
 62
     1
 10
1720.9999996
 20
564.4999852
 30
0.0
 11
1620.9999996
 21
564.4999852
 31
0.0
  0
LINE
  8
0
  6
LTYPE3
 62
     2
 10
1715.9999996
 20
559.7999852
 30
0.0
 11
1715.9999996
 21
578.4999852
 31
0.0
  0
LINE
  8
0
  6
LTYPE3
 62
     2
 10
1625.9999996
 20
559.7999852
 30
0.0
 11
1625.9999996
 21
578.4999852
 31
0.0
  0
CIRCLE
  8
0
  6
CONTINUOUS
 62
     2
 10
1670.9999996
 20
588.9999852
 30
0.0
 40
10.4775
  0
CIRCLE
  8
0
  6
CONTINUOUS
 62
     2
 10
1670.9999996
 20
588.9999852
 30
0.0
 40
9.3155
  0
LINE
  8
0
  6
LTYPE2
 62
     2
 10
1690.8999996
 20
588.9999852
 30
0.0
 11
1650.1999996
 21
588.9999852
 31
0.0
  0
LINE
  8
0
  6
LTYPE2
 62
     2
 10
1748.4999996
 20
624.4999852
 30
0.0
 11
1714.4999996
 21
624.4999852
 31
0.0
  0
LINE
  8
0
  6
LTYPE2
 62
     2
 10
1730.9999996
 20
605.9999852
 30
0.0
 11
1730.9999996
 21
641.9999852
 31
0.0
  0
LINE
  8
0
  6
CONTINUOUS
 62
     1
 10
1742.9999996
 20
604.4999852
 30
0.0
 11
1721.9999996
 21
604.4999852
 31
0.0
  0
ARC
  8
0
  6
CONTINUOUS
 62
     1
 10
1742.9999996
 20
612.4999852
 30
0.0
 40
8.0
 50
270.0
 51
0.0
  0
LINE
  8
0
  6
LTYPE2
 62
     2
 10
1593.4999996
 20
624.4999852
 30
0.0
 11
1627.4999996
 21
624.4999852
 31
0.0
  0
LINE
  8
0
  6
LTYPE2
 62
     2
 10
1610.9999996
 20
605.9999852
 30
0.0
 11
1610.9999996
 21
641.9999852
 31
0.0
  0
LINE
  8
0
  6
CONTINUOUS
 62
     1
 10
1598.9999996
 20
604.4999852
 30
0.0
 11
1619.9999996
 21
604.4999852
 31
0.0
  0
ARC
  8
0
  6
CONTINUOUS
 62
     1
 10
1598.9999996
 20
612.4999852
 30
0.0
 40
8.0
 50
180.0
 51
270.0
  0
LINE
  8
0
  6
LTYPE2
 62
     2
 10
1748.4999996
 20
744.4999852
 30
0.0
 11
1714.4999996
 21
744.4999852
 31
0.0
  0
LINE
  8
0
  6
LTYPE2
 62
     2
 10
1730.9999996
 20
762.9999852
 30
0.0
 11
1730.9999996
 21
726.9999852
 31
0.0
  0
ARC
  8
0
  6
CONTINUOUS
 62
     1
 10
1742.9999996
 20
756.4999852
 30
0.0
 40
8.0
 50
0.0
 51
90.0
  0
LINE
  8
0
  6
CONTINUOUS
 62
     2
 10
1796.9999996
 20
684.4999852
 30
0.0
 11
1841.4999996
 21
684.4999852
 31
0.0
  0
LINE
  8
0
  6
CONTINUOUS
 62
     2
 10
1841.4999996
 20
684.4999852
 30
0.0
 11
1888.4999996
 21
684.4999852
 31
0.0
  0
LINE
  8
0
  6
CONTINUOUS
 62
     2
 10
1879.4999996
 20
684.4999852
 30
0.0
 11
1875.617713923
 21
670.011097806
 31
0.0
  0
LINE
  8
0
  6
CONTINUOUS
 62
     2
 10
1879.4999996
 20
684.4999852
 30
0.0
 11
1883.382285277
 21
670.011097806
 31
0.0
  0
LINE
  8
0
  6
CONTINUOUS
 62
     2
 10
1879.4999996
 20
684.4999852
 30
0.0
 11
1879.4999996
 21
563.4999852
 31
0.0
  0
LINE
  8
0
  6
CONTINUOUS
 62
     2
 10
1879.4999996
 20
563.4999852
 30
0.0
 11
1883.382285277
 21
577.988872594
 31
0.0
  0
LINE
  8
0
  6
CONTINUOUS
 62
     2
 10
1879.4999996
 20
563.4999852
 30
0.0
 11
1875.617713923
 21
577.988872594
 31
0.0
  0
LINE
  8
0
  6
CONTINUOUS
 62
     2
 10
1726.9999996
 20
563.4999852
 30
0.0
 11
1888.4999996
 21
563.4999852
 31
0.0
  0
LINE
  8
0
  6
CONTINUOUS
 62
     2
 10
1560.9999996
 20
640.4999852
 30
0.0
 11
1560.9999996
 21
444.9999852
 31
0.0
  0
LINE
  8
0
  6
CONTINUOUS
 62
     2
 10
1560.9999996
 20
453.9999852
 30
0.0
 11
1575.488886994
 21
450.117699523
 31
0.0
  0
LINE
  8
0
  6
CONTINUOUS
 62
     2
 10
1560.9999996
 20
453.9999852
 30
0.0
 11
1575.488886994
 21
457.882270877
 31
0.0
  0
LINE
  8
0
  6
CONTINUOUS
 62
     2
 10
1560.9999996
 20
453.9999852
 30
0.0
 11
1780.9999996
 21
453.9999852
 31
0.0
  0
LINE
  8
0
  6
CONTINUOUS
 62
     2
 10
1780.9999996
 20
453.9999852
 30
0.0
 11
1766.511112206
 21
457.882270877
 31
0.0
  0
LINE
  8
0
  6
CONTINUOUS
 62
     2
 10
1780.9999996
 20
453.9999852
 30
0.0
 11
1766.511112206
 21
450.117699523
 31
0.0
  0
LINE
  8
0
  6
CONTINUOUS
 62
     2
 10
1780.9999996
 20
640.4999852
 30
0.0
 11
1780.9999996
 21
444.9999852
 31
0.0
  0
LINE
  8
0
  6
CONTINUOUS
 62
     1
 10
1619.9999996
 20
579.4999852
 30
0.0
 11
1571.9999996
 21
579.4999852
 31
0.0
  0
ARC
  8
0
  6
CONTINUOUS
 62
     1
 10
1571.9999996
 20
585.4999852
 30
0.0
 40
6.0
 50
180.0
 51
270.0
  0
LINE
  8
0
  6
CONTINUOUS
 62
     1
 10
1769.9999996
 20
579.4999852
 30
0.0
 11
1721.9999996
 21
579.4999852
 31
0.0
  0
ARC
  8
0
  6
CONTINUOUS
 62
     1
 10
1769.9999996
 20
585.4999852
 30
0.0
 40
6.0
 50
270.0
 51
0.0
  0
LINE
  8
0
  6
CONTINUOUS
 62
     2
 10
1565.9999996
 20
576.4999852
 30
0.0
 11
1565.9999996
 21
481.0999852
 31
0.0
  0
LINE
  8
0
  6
CONTINUOUS
 62
     2
 10
1565.9999996
 20
490.0999852
 30
0.0
 11
1580.488886994
 21
486.217699523
 31
0.0
  0
LINE
  8
0
  6
CONTINUOUS
 62
     2
 10
1565.9999996
 20
490.0999852
 30
0.0
 11
1580.488886994
 21
493.982270877
 31
0.0
  0
LINE
  8
0
  6
CONTINUOUS
 62
     2
 10
1565.9999996
 20
490.0999852
 30
0.0
 11
1775.9999996
 21
490.0999852
 31
0.0
  0
LINE
  8
0
  6
CONTINUOUS
 62
     2
 10
1775.9999996
 20
490.0999852
 30
0.0
 11
1761.511112206
 21
493.982270877
 31
0.0
  0
LINE
  8
0
  6
CONTINUOUS
 62
     2
 10
1775.9999996
 20
490.0999852
 30
0.0
 11
1761.511112206
 21
486.217699523
 31
0.0
  0
LINE
  8
0
  6
CONTINUOUS
 62
     2
 10
1775.9999996
 20
576.4999852
 30
0.0
 11
1775.9999996
 21
481.0999852
 31
0.0
  0
LINE
  8
0
  6
CONTINUOUS
 62
     2
 10
1838.3999996
 20
684.4999852
 30
0.0
 11
1834.517713923
 21
670.011097806
 31
0.0
  0
LINE
  8
0
  6
CONTINUOUS
 62
     2
 10
1838.3999996
 20
684.4999852
 30
0.0
 11
1842.282285277
 21
670.011097806
 31
0.0
  0
LINE
  8
0
  6
CONTINUOUS
 62
     2
 10
1838.3999996
 20
684.4999852
 30
0.0
 11
1838.3999996
 21
579.4999852
 31
0.0
  0
LINE
  8
0
  6
CONTINUOUS
 62
     2
 10
1838.3999996
 20
579.4999852
 30
0.0
 11
1842.282285277
 21
593.988872594
 31
0.0
  0
LINE
  8
0
  6
CONTINUOUS
 62
     2
 10
1838.3999996
 20
579.4999852
 30
0.0
 11
1834.517713923
 21
593.988872594
 31
0.0
  0
LINE
  8
0
  6
CONTINUOUS
 62
     2
 10
1778.9999996
 20
579.4999852
 30
0.0
 11
1847.3999996
 21
579.4999852
 31
0.0
  0
LINE
  8
0
  6
CONTINUOUS
 62
     2
 10
1838.3999996
 20
684.4999852
 30
0.0
 11
1842.282285277
 21
698.988872594
 31
0.0
  0
LINE
  8
0
  6
CONTINUOUS
 62
     2
 10
1838.3999996
 20
684.4999852
 30
0.0
 11
1834.517713923
 21
698.988872594
 31
0.0
  0
LINE
  8
0
  6
CONTINUOUS
 62
     2
 10
1838.3999996
 20
684.4999852
 30
0.0
 11
1838.3999996
 21
893.4999852
 31
0.0
  0
LINE
  8
0
  6
CONTINUOUS
 62
     2
 10
1838.3999996
 20
893.4999852
 30
0.0
 11
1834.517713923
 21
879.011097806
 31
0.0
  0
LINE
  8
0
  6
CONTINUOUS
 62
     2
 10
1838.3999996
 20
893.4999852
 30
0.0
 11
1842.282285277
 21
879.011097806
 31
0.0
  0
LINE
  8
0
  6
LTYPE4
 62
     2
 10
1535.4999996
 20
893.4999852
 30
0.0
 11
1808.9999996
 21
893.4999852
 31
0.0
  0
LINE
  8
0
  6
CONTINUOUS
 62
     2
 10
1838.3999996
 20
893.4999852
 30
0.0
 11
1842.282285277
 21
907.988872594
 31
0.0
  0
LINE
  8
0
  6
CONTINUOUS
 62
     2
 10
1838.3999996
 20
893.4999852
 30
0.0
 11
1834.517713923
 21
907.988872594
 31
0.0
  0
LINE
  8
0
  6
CONTINUOUS
 62
     2
 10
1879.4999996
 20
684.4999852
 30
0.0
 11
1883.382285277
 21
698.988872594
 31
0.0
  0
LINE
  8
0
  6
CONTINUOUS
 62
     2
 10
1879.4999996
 20
684.4999852
 30
0.0
 11
1875.617713923
 21
698.988872594
 31
0.0
  0
ARC
  8
0
  6
CONTINUOUS
 62
     1
 10
1670.9999996
 20
893.4999852
 30
0.0
 40
125.0
 50
280.557968545
 51
0.0
  0
ARC
  8
0
  6
CONTINUOUS
 62
     1
 10
1707.9999996
 20
1077.205677717
 30
0.0
 40
3.0
 50
0.0
 51
90.0
  0
ARC
  8
0
  6
CONTINUOUS
 62
     1
 10
1714.9999996
 20
1080.205677717
 30
0.0
 40
6.0
 50
0.0
 51
90.0
  0
ARC
  8
0
  6
CONTINUOUS
 62
     1
 10
1714.9999996
 20
1084.4999852
 30
0.0
 40
6.0
 50
0.0
 51
90.0
  0
LINE
  8
0
  6
CONTINUOUS
 62
     1
 10
1714.9999996
 20
1090.4999852
 30
0.0
 11
1670.9999996
 21
1090.4999852
 31
0.0
  0
LINE
  8
0
  6
CONTINUOUS
 62
     1
 10
1670.9999996
 20
1086.205677717
 30
0.0
 11
1714.9999996
 21
1086.205677717
 31
0.0
  0
LINE
  8
0
  6
CONTINUOUS
 62
     1
 10
1670.9999996
 20
1080.205677717
 30
0.0
 11
1707.9999996
 21
1080.205677717
 31
0.0
  0
ARC
  8
0
  6
CONTINUOUS
 62
     1
 10
1633.9999996
 20
1077.205677717
 30
0.0
 40
3.0
 50
90.0
 51
180.0
  0
ARC
  8
0
  6
CONTINUOUS
 62
     1
 10
1626.9999996
 20
1080.205677717
 30
0.0
 40
6.0
 50
90.0
 51
180.0
  0
ARC
  8
0
  6
CONTINUOUS
 62
     1
 10
1626.9999996
 20
1084.4999852
 30
0.0
 40
6.0
 50
90.0
 51
180.0
  0
LINE
  8
0
  6
CONTINUOUS
 62
     1
 10
1626.9999996
 20
1090.4999852
 30
0.0
 11
1670.9999996
 21
1090.4999852
 31
0.0
  0
LINE
  8
0
  6
CONTINUOUS
 62
     1
 10
1670.9999996
 20
1086.205677717
 30
0.0
 11
1626.9999996
 21
1086.205677717
 31
0.0
  0
LINE
  8
0
  6
CONTINUOUS
 62
     1
 10
1670.9999996
 20
1080.205677717
 30
0.0
 11
1633.9999996
 21
1080.205677717
 31
0.0
  0
CIRCLE
  8
0
  6
CONTINUOUS
 62
     1
 10
1670.9999996
 20
893.4999852
 30
0.0
 40
20.0
  0
ARC
  8
0
  6
CONTINUOUS
 62
     1
 10
1585.9999996
 20
893.4999852
 30
0.0
 40
20.0
 50
90.0
 51
270.0
  0
ARC
  8
0
  6
CONTINUOUS
 62
     1
 10
1713.4999996
 20
819.887825878
 30
0.0
 40
20.0
 50
210.0
 51
30.0
  0
ARC
  8
0
  6
CONTINUOUS
 62
     1
 10
1713.4999996
 20
967.112144522
 30
0.0
 40
20.0
 50
330.0
 51
150.0
  0
LINE
  8
0
  6
CONTINUOUS
 62
     1
 10
1585.9999996
 20
913.4999852
 30
0.0
 11
1659.452994216
 21
913.4999852
 31
0.0
  0
LINE
  8
0
  6
CONTINUOUS
 62
     1
 10
1696.179491524
 20
977.112144522
 30
0.0
 11
1659.452994216
 21
913.4999852
 31
0.0
  0
LINE
  8
0
  6
CONTINUOUS
 62
     1
 10
1585.9999996
 20
873.4999852
 30
0.0
 11
1659.452994216
 21
873.4999852
 31
0.0
  0
LINE
  8
0
  6
CONTINUOUS
 62
     1
 10
1696.179491524
 20
809.887825878
 30
0.0
 11
1659.452994216
 21
873.4999852
 31
0.0
  0
CIRCLE
  8
0
  6
CONTINUOUS
 62
     1
 10
1730.9999996
 20
893.4999852
 30
0.0
 40
10.0
  0
LINE
  8
0
  6
CONTINUOUS
 62
     2
 10
1730.9999996
 20
908.4999852
 30
0.0
 11
1730.9999996
 21
878.4999852
 31
0.0
  0
LINE
  8
0
  6
CONTINUOUS
 62
     1
 10
1674.333332933
 20
873.779719256
 30
0.0
 11
1732.666666267
 21
883.639852228
 31
0.0
  0
LINE
  8
0
  6
CONTINUOUS
 62
     1
 10
1674.333332933
 20
913.220251144
 30
0.0
 11
1732.666666267
 21
903.360118172
 31
0.0
  0
LINE
  8
0
  6
CONTINUOUS
 62
     1
 10
1730.820507676
 20
957.112144522
 30
0.0
 11
1702.710211438
 21
908.423683223
 31
0.0
  0
LINE
  8
0
  6
CONTINUOUS
 62
     1
 10
1730.820507676
 20
829.887825878
 30
0.0
 11
1702.710211438
 21
878.576287177
 31
0.0
  0
ARC
  8
0
  6
CONTINUOUS
 62
     1
 10
1747.013978578
 20
969.513964178
 30
0.0
 40
7.75
 50
294.214141675
 51
155.785858325
  0
LINE
  8
0
  6
CONTINUOUS
 62
     2
 10
1740.9999996
 20
963.4999852
 30
0.0
 11
1753.945832012
 21
976.445817612
 31
0.0
  0
ARC
  8
0
  6
CONTINUOUS
 62
     2
 10
1670.9999996
 20
893.4999852
 30
0.0
 40
107.5
 50
38.280925788
 51
51.325228591
  0
ARC
  8
0
  6
CONTINUOUS
 62
     1
 10
1747.013978578
 20
817.486006222
 30
0.0
 40
7.75
 50
204.214141675
 51
65.785858325
  0
LINE
  8
0
  6
CONTINUOUS
 62
     2
 10
1740.9999996
 20
823.4999852
 30
0.0
 11
1753.945832012
 21
810.554152788
 31
0.0
  0
ARC
  8
0
  6
CONTINUOUS
 62
     2
 10
1670.9999996
 20
893.4999852
 30
0.0
 40
107.5
 50
308.674771409
 51
321.719074212
  0
ARC
  8
0
  6
CONTINUOUS
 62
     1
 10
1594.986020622
 20
969.513964178
 30
0.0
 40
7.75
 50
24.214141675
 51
245.785858325
  0
LINE
  8
0
  6
CONTINUOUS
 62
     2
 10
1600.9999996
 20
963.4999852
 30
0.0
 11
1588.054167188
 21
976.445817612
 31
0.0
  0
ARC
  8
0
  6
CONTINUOUS
 62
     2
 10
1670.9999996
 20
893.4999852
 30
0.0
 40
107.5
 50
128.674771409
 51
141.719074212
  0
ARC
  8
0
  6
CONTINUOUS
 62
     1
 10
1594.986020622
 20
817.486006222
 30
0.0
 40
7.75
 50
114.214141675
 51
335.785858325
  0
LINE
  8
0
  6
CONTINUOUS
 62
     2
 10
1600.9999996
 20
823.4999852
 30
0.0
 11
1588.054167188
 21
810.554152788
 31
0.0
  0
ARC
  8
0
  6
CONTINUOUS
 62
     2
 10
1670.9999996
 20
893.4999852
 30
0.0
 40
107.5
 50
218.280925788
 51
231.325228591
  0
ARC
  8
0
  6
CONTINUOUS
 62
     1
 10
1670.9999996
 20
893.4999852
 30
0.0
 40
105.0
 50
272.980462591
 51
0.0
  0
ARC
  8
0
  6
CONTINUOUS
 62
     1
 10
1670.9999996
 20
893.4999852
 30
0.0
 40
105.0
 50
0.0
 51
226.520053773
  0
ARC
  8
0
  6
CONTINUOUS
 62
     1
 10
1707.9999996
 20
1015.1999852
 30
0.0
 40
3.0
 50
270.0
 51
0.0
  0
ARC
  8
0
  6
CONTINUOUS
 62
     1
 10
1714.9999996
 20
1021.1999852
 30
0.0
 40
6.0
 50
270.0
 51
0.0
  0
LINE
  8
0
  6
CONTINUOUS
 62
     1
 10
1710.9999996
 20
1015.1999852
 30
0.0
 11
1714.9999996
 21
1015.1999852
 31
0.0
  0
LINE
  8
0
  6
CONTINUOUS
 62
     1
 10
1670.9999996
 20
1012.1999852
 30
0.0
 11
1707.9999996
 21
1012.1999852
 31
0.0
  0
ARC
  8
0
  6
CONTINUOUS
 62
     1
 10
1633.9999996
 20
1015.1999852
 30
0.0
 40
3.0
 50
180.0
 51
270.0
  0
ARC
  8
0
  6
CONTINUOUS
 62
     1
 10
1626.9999996
 20
1021.1999852
 30
0.0
 40
6.0
 50
180.0
 51
270.0
  0
LINE
  8
0
  6
CONTINUOUS
 62
     1
 10
1630.9999996
 20
1015.1999852
 30
0.0
 11
1626.9999996
 21
1015.1999852
 31
0.0
  0
LINE
  8
0
  6
CONTINUOUS
 62
     1
 10
1670.9999996
 20
1012.1999852
 30
0.0
 11
1633.9999996
 21
1012.1999852
 31
0.0
  0
LINE
  8
0
  6
CONTINUOUS
 62
     1
 10
1690.9999996
 20
996.57762584
 30
0.0
 11
1690.9999996
 21
1012.1999852
 31
0.0
  0
LINE
  8
0
  6
CONTINUOUS
 62
     1
 10
1650.9999996
 20
996.57762584
 30
0.0
 11
1650.9999996
 21
1012.1999852
 31
0.0
  0
ARC
  8
0
  6
CONTINUOUS
 62
     1
 10
1670.9999996
 20
893.4999852
 30
0.0
 40
125.0
 50
0.0
 51
69.402826706
  0
LINE
  8
0
  6
CONTINUOUS
 62
     1
 10
1720.9999996
 20
1021.1999852
 30
0.0
 11
1720.9999996
 21
1084.4999852
 31
0.0
  0
LINE
  8
0
  6
CONTINUOUS
 62
     1
 10
1710.9999996
 20
1015.6999852
 30
0.0
 11
1710.9999996
 21
1077.205677717
 31
0.0
  0
LINE
  8
0
  6
CONTINUOUS
 62
     1
 10
1630.9999996
 20
1015.6999852
 30
0.0
 11
1630.9999996
 21
1077.205677717
 31
0.0
  0
LINE
  8
0
  6
CONTINUOUS
 62
     1
 10
1620.9999996
 20
1021.6999852
 30
0.0
 11
1620.9999996
 21
1084.4999852
 31
0.0
  0
CIRCLE
  8
0
  6
CONTINUOUS
 62
     1
 10
1670.9999996
 20
1043.4999852
 30
0.0
 40
20.0
  0
CIRCLE
  8
0
  6
CONTINUOUS
 62
     2
 10
1670.9999996
 20
1043.4999852
 30
0.0
 40
13.5
  0
CIRCLE
  8
0
  6
CONTINUOUS
 62
     2
 10
1670.9999996
 20
1043.4999852
 30
0.0
 40
15.0
  0
LINE
  8
0
  6
LTYPE3
 62
     2
 10
1640.4999996
 20
1043.4999852
 30
0.0
 11
1699.9999996
 21
1043.4999852
 31
0.0
  0
LINE
  8
0
  6
LTYPE4
 62
     2
 10
1670.9999996
 20
754.9999852
 30
0.0
 11
1670.9999996
 21
1104.9999852
 31
0.0
  0
LINE
  8
0
  6
CONTINUOUS
 62
     2
 10
1812.4999996
 20
893.4999852
 30
0.0
 11
1847.3999996
 21
893.4999852
 31
0.0
  0
LINE
  8
0
  6
CONTINUOUS
 62
     2
 10
1838.3999996
 20
1090.4999852
 30
0.0
 11
1834.517713923
 21
1076.011097806
 31
0.0
  0
LINE
  8
0
  6
CONTINUOUS
 62
     2
 10
1838.3999996
 20
1090.4999852
 30
0.0
 11
1842.282285277
 21
1076.011097806
 31
0.0
  0
LINE
  8
0
  6
CONTINUOUS
 62
     2
 10
1879.4999996
 20
1090.4999852
 30
0.0
 11
1875.617713923
 21
1076.011097806
 31
0.0
  0
LINE
  8
0
  6
CONTINUOUS
 62
     2
 10
1879.4999996
 20
1090.4999852
 30
0.0
 11
1883.382285277
 21
1076.011097806
 31
0.0
  0
LINE
  8
0
  6
CONTINUOUS
 62
     2
 10
1875.207952493
 20
1090.4999852
 30
0.0
 11
1870.4999996
 21
1090.4999852
 31
0.0
  0
LINE
  8
0
  6
CONTINUOUS
 62
     2
 10
1723.9999996
 20
1090.4999852
 30
0.0
 11
1885.7999996
 21
1090.4999852
 31
0.0
  0
LINE
  8
0
  6
CONTINUOUS
 62
     2
 10
1838.3999996
 20
893.4999852
 30
0.0
 11
1838.3999996
 21
1090.4999852
 31
0.0
  0
LINE
  8
0
  6
CONTINUOUS
 62
     2
 10
1879.4999996
 20
684.4999852
 30
0.0
 11
1879.4999996
 21
1090.4999852
 31
0.0
  0
CIRCLE
  8
0
  6
CONTINUOUS
 62
     1
 10
1670.9999996
 20
908.4999852
 30
0.0
 40
4.0
  0
CIRCLE
  8
0
  6
CONTINUOUS
 62
     1
 10
1670.9999996
 20
893.4999852
 30
0.0
 40
4.0
  0
CIRCLE
  8
0
  6
CONTINUOUS
 62
     1
 10
1655.9999996
 20
893.4999852
 30
0.0
 40
4.0
  0
CIRCLE
  8
0
  6
CONTINUOUS
 62
     1
 10
1670.9999996
 20
878.4999852
 30
0.0
 40
4.0
  0
CIRCLE
  8
0
  6
CONTINUOUS
 62
     1
 10
1685.9999996
 20
893.4999852
 30
0.0
 40
4.0
  0
LINE
  8
0
  6
LTYPE2
 62
     2
 10
1670.9999996
 20
640.8999852
 30
0.0
 11
1670.9999996
 21
747.208413757
 31
0.0
  0
LINE
  8
0
  6
LTYPE2
 62
     2
 10
1593.4999996
 20
744.4999852
 30
0.0
 11
1627.4999996
 21
744.4999852
 31
0.0
  0
LINE
  8
0
  6
LTYPE2
 62
     2
 10
1610.9999996
 20
762.9999852
 30
0.0
 11
1610.9999996
 21
726.9999852
 31
0.0
  0
ARC
  8
0
  6
CONTINUOUS
 62
     1
 10
1670.9999996
 20
893.4999852
 30
0.0
 40
105.0
 50
226.520053773
 51
272.980462591
  0
CIRCLE
  8
0
  6
CONTINUOUS
 62
     1
 10
1730.9999996
 20
744.4999852
 30
0.0
 40
12.0
  0
CIRCLE
  8
0
  6
CONTINUOUS
 62
     1
 10
1730.9999996
 20
624.4999852
 30
0.0
 40
12.0
  0
CIRCLE
  8
0
  6
CONTINUOUS
 62
     1
 10
1610.9999996
 20
624.4999852
 30
0.0
 40
12.0
  0
LINE
  8
0
  6
LTYPE1
 62
     2
 10
515.8499996
 20
583.4999852
 30
0.0
 11
520.3499996
 21
583.4999852
 31
0.0
  0
LINE
  8
0
  6
LTYPE1
 62
     2
 10
515.8499996
 20
582.4999852
 30
0.0
 11
520.3499996
 21
582.4999852
 31
0.0
  0
LINE
  8
0
  6
LTYPE1
 62
     2
 10
515.8499996
 20
575.4999852
 30
0.0
 11
520.3499996
 21
575.4999852
 31
0.0
  0
LINE
  8
0
  6
LTYPE1
 62
     2
 10
515.8499996
 20
576.4999852
 30
0.0
 11
520.3499996
 21
576.4999852
 31
0.0
  0
LINE
  8
0
  6
LTYPE1
 62
     2
 10
515.8499996
 20
575.4999852
 30
0.0
 11
515.8499996
 21
583.4999852
 31
0.0
  0
LINE
  8
0
  6
LTYPE1
 62
     2
 10
527.3499996
 20
589.2999852
 30
0.0
 11
521.735640246
 21
589.2999852
 31
0.0
  0
LINE
  8
0
  6
LTYPE1
 62
     2
 10
527.3499996
 20
584.3999852
 30
0.0
 11
521.735640246
 21
584.3999852
 31
0.0
  0
LINE
  8
0
  6
LTYPE1
 62
     2
 10
527.3499996
 20
569.6999852
 30
0.0
 11
521.735640246
 21
569.6999852
 31
0.0
  0
LINE
  8
0
  6
LTYPE1
 62
     2
 10
527.3499996
 20
574.5999852
 30
0.0
 11
521.735640246
 21
574.5999852
 31
0.0
  0
LINE
  8
0
  6
LTYPE1
 62
     2
 10
520.3499996
 20
579.4999852
 30
0.0
 11
520.3499996
 21
586.8999852
 31
0.0
  0
LINE
  8
0
  6
LTYPE1
 62
     2
 10
520.3499996
 20
586.8999852
 30
0.0
 11
521.735640246
 21
589.2999852
 31
0.0
  0
LINE
  8
0
  6
LTYPE1
 62
     2
 10
520.3499996
 20
586.8999852
 30
0.0
 11
521.735640246
 21
589.2999852
 31
0.0
  0
ARC
  8
0
  6
LTYPE1
 62
     2
 10
523.207883432
 20
586.8499852
 30
0.0
 40
2.858321186
 50
177.010501597
 51
238.997686085
  0
LINE
  8
0
  6
LTYPE1
 62
     2
 10
520.3499996
 20
572.0999852
 30
0.0
 11
521.735640246
 21
569.6999852
 31
0.0
  0
LINE
  8
0
  6
LTYPE1
 62
     2
 10
520.3499996
 20
579.4999852
 30
0.0
 11
520.3499996
 21
572.0999852
 31
0.0
  0
ARC
  8
0
  6
LTYPE1
 62
     2
 10
523.207883432
 20
572.1499852
 30
0.0
 40
2.858321186
 50
121.002313915
 51
182.989498403
  0
ARC
  8
0
  6
LTYPE1
 62
     2
 10
529.7066824
 20
579.4999852
 30
0.0
 40
9.3566828
 50
148.419912243
 51
211.580087757
  0
LINE
  8
0
  6
LTYPE1
 62
     2
 10
560.8499996
 20
538.4999852
 30
0.0
 11
592.8499996
 21
538.4999852
 31
0.0
  0
LINE
  8
0
  6
LTYPE1
 62
     2
 10
560.8499996
 20
538.4999852
 30
0.0
 11
560.8499996
 21
591.4999852
 31
0.0
  0
ARC
  8
0
  6
LTYPE1
 62
     2
 10
560.7066824
 20
551.4999852
 30
0.0
 40
9.3566828
 50
148.419912243
 51
211.580087757
  0
LINE
  8
0
  6
LTYPE1
 62
     2
 10
558.3499996
 20
541.6999852
 30
0.0
 11
552.735640246
 21
541.6999852
 31
0.0
  0
LINE
  8
0
  6
LTYPE1
 62
     2
 10
551.3499996
 20
544.0999852
 30
0.0
 11
552.735640246
 21
541.6999852
 31
0.0
  0
LINE
  8
0
  6
LTYPE1
 62
     2
 10
558.3499996
 20
546.5999852
 30
0.0
 11
552.735640246
 21
546.5999852
 31
0.0
  0
ARC
  8
0
  6
LTYPE1
 62
     2
 10
554.207883432
 20
544.1499852
 30
0.0
 40
2.858321186
 50
121.002313915
 51
182.989498403
  0
LINE
  8
0
  6
LTYPE1
 62
     2
 10
558.3499996
 20
551.4999852
 30
0.0
 11
558.3499996
 21
541.6999852
 31
0.0
  0
LINE
  8
0
  6
LTYPE1
 62
     2
 10
560.8499996
 20
542.2999852
 30
0.0
 11
558.3499996
 21
542.2999852
 31
0.0
  0
LINE
  8
0
  6
LTYPE1
 62
     2
 10
551.3499996
 20
551.4999852
 30
0.0
 11
551.3499996
 21
544.0999852
 31
0.0
  0
LINE
  8
0
  6
LTYPE1
 62
     2
 10
542.8499996
 20
547.4999852
 30
0.0
 11
551.3499996
 21
547.4999852
 31
0.0
  0
LINE
  8
0
  6
LTYPE1
 62
     2
 10
542.8499996
 20
548.4999852
 30
0.0
 11
551.3499996
 21
548.4999852
 31
0.0
  0
LINE
  8
0
  6
LTYPE1
 62
     2
 10
560.8499996
 20
551.4999852
 30
0.0
 11
558.349999604
 21
548.999985204
 31
0.0
  0
LINE
  8
0
  6
LTYPE1
 62
     2
 10
558.3499996
 20
561.2999852
 30
0.0
 11
552.735640246
 21
561.2999852
 31
0.0
  0
LINE
  8
0
  6
LTYPE1
 62
     2
 10
551.3499996
 20
558.8999852
 30
0.0
 11
552.735640246
 21
561.2999852
 31
0.0
  0
LINE
  8
0
  6
LTYPE1
 62
     2
 10
551.3499996
 20
558.8999852
 30
0.0
 11
552.735640246
 21
561.2999852
 31
0.0
  0
LINE
  8
0
  6
LTYPE1
 62
     2
 10
551.3499996
 20
551.4999852
 30
0.0
 11
551.3499996
 21
558.8999852
 31
0.0
  0
LINE
  8
0
  6
LTYPE1
 62
     2
 10
558.3499996
 20
556.3999852
 30
0.0
 11
552.735640246
 21
556.3999852
 31
0.0
  0
ARC
  8
0
  6
LTYPE1
 62
     2
 10
554.207883432
 20
558.8499852
 30
0.0
 40
2.858321186
 50
177.010501597
 51
238.997686085
  0
LINE
  8
0
  6
LTYPE1
 62
     2
 10
542.8499996
 20
555.4999852
 30
0.0
 11
551.3499996
 21
555.4999852
 31
0.0
  0
LINE
  8
0
  6
LTYPE1
 62
     2
 10
542.8499996
 20
554.4999852
 30
0.0
 11
551.3499996
 21
554.4999852
 31
0.0
  0
LINE
  8
0
  6
LTYPE1
 62
     2
 10
560.8499996
 20
560.6999852
 30
0.0
 11
558.3499996
 21
560.6999852
 31
0.0
  0
LINE
  8
0
  6
LTYPE1
 62
     2
 10
558.3499996
 20
551.4999852
 30
0.0
 11
558.3499996
 21
561.2999852
 31
0.0
  0
LINE
  8
0
  6
LTYPE1
 62
     2
 10
558.349999604
 20
551.4999852
 30
0.0
 11
560.8499996
 21
553.999985196
 31
0.0
  0
LINE
  8
0
  6
LTYPE1
 62
     2
 10
764.8499996
 20
593.4999852
 30
0.0
 11
529.8499996
 21
593.4999852
 31
0.0
  0
LINE
  8
0
  6
LTYPE1
 62
     2
 10
764.8499996
 20
599.4999852
 30
0.0
 11
529.8499996
 21
599.4999852
 31
0.0
  0
LINE
  8
0
  6
LTYPE1
 62
     2
 10
560.8499996
 20
573.4999852
 30
0.0
 11
592.8499996
 21
573.4999852
 31
0.0
  0
LINE
  8
0
  6
LTYPE1
 62
     2
 10
592.8499996
 20
591.4999852
 30
0.0
 11
560.8499996
 21
591.4999852
 31
0.0
  0
LINE
  8
0
  6
LTYPE1
 62
     2
 10
592.8499996
 20
585.4999852
 30
0.0
 11
560.8499996
 21
585.4999852
 31
0.0
  0
LINE
  8
0
  6
LTYPE1
 62
     2
 10
560.8499996
 20
583.4999852
 30
0.0
 11
565.8499996
 21
583.4999852
 31
0.0
  0
LINE
  8
0
  6
LTYPE1
 62
     2
 10
560.8499996
 20
582.4999852
 30
0.0
 11
565.8499996
 21
582.4999852
 31
0.0
  0
LINE
  8
0
  6
LTYPE1
 62
     2
 10
560.8499996
 20
575.4999852
 30
0.0
 11
565.8499996
 21
575.4999852
 31
0.0
  0
LINE
  8
0
  6
LTYPE1
 62
     2
 10
560.8499996
 20
576.4999852
 30
0.0
 11
565.8499996
 21
576.4999852
 31
0.0
  0
LINE
  8
0
  6
LTYPE1
 62
     2
 10
565.8499996
 20
573.4999852
 30
0.0
 11
565.8499996
 21
585.4999852
 31
0.0
  0
LINE
  8
0
  6
LTYPE1
 62
     2
 10
542.8499996
 20
547.4999852
 30
0.0
 11
542.8499996
 21
555.4999852
 31
0.0
  0
LINE
  8
0
  6
LTYPE1
 62
     2
 10
529.8499996
 20
566.4999852
 30
0.0
 11
545.8499996
 21
566.4999852
 31
0.0
  0
LINE
  8
0
  6
LTYPE3
 62
     2
 10
548.8499996
 20
579.4999852
 30
0.0
 11
560.3499996
 21
579.4999852
 31
0.0
  0
LINE
  8
0
  6
LTYPE1
 62
     2
 10
553.3499996
 20
583.4999852
 30
0.0
 11
560.8499996
 21
583.4999852
 31
0.0
  0
LINE
  8
0
  6
LTYPE1
 62
     2
 10
553.3499996
 20
582.4999852
 30
0.0
 11
560.8499996
 21
582.4999852
 31
0.0
  0
LINE
  8
0
  6
LTYPE1
 62
     2
 10
545.8499996
 20
569.0999852
 30
0.0
 11
552.3499996
 21
569.0999852
 31
0.0
  0
ARC
  8
0
  6
LTYPE1
 62
     2
 10
549.4499996
 20
571.6999852
 30
0.0
 40
3.9
 50
317.9
 51
42.1
  0
LINE
  8
0
  6
LTYPE1
 62
     2
 10
545.8499996
 20
574.2999852
 30
0.0
 11
552.3499996
 21
574.2999852
 31
0.0
  0
LINE
  8
0
  6
LTYPE1
 62
     2
 10
553.3499996
 20
576.4999852
 30
0.0
 11
560.8499996
 21
576.4999852
 31
0.0
  0
LINE
  8
0
  6
LTYPE1
 62
     2
 10
553.3499996
 20
575.4999852
 30
0.0
 11
560.8499996
 21
575.4999852
 31
0.0
  0
LINE
  8
0
  6
LTYPE1
 62
     2
 10
545.8499996
 20
566.4999852
 30
0.0
 11
545.8499996
 21
593.4999852
 31
0.0
  0
LINE
  8
0
  6
LTYPE1
 62
     2
 10
545.8499996
 20
589.8999852
 30
0.0
 11
545.8499996
 21
569.0999852
 31
0.0
  0
ARC
  8
0
  6
LTYPE1
 62
     2
 10
539.3499996
 20
579.4999852
 30
0.0
 40
14.0
 50
338.2
 51
21.8
  0
LINE
  8
0
  6
LTYPE1
 62
     2
 10
553.3499996
 20
571.6999852
 30
0.0
 11
553.3499996
 21
587.2999852
 31
0.0
  0
LINE
  8
0
  6
LTYPE1
 62
     2
 10
545.8499996
 20
589.8999852
 30
0.0
 11
552.3499996
 21
589.8999852
 31
0.0
  0
ARC
  8
0
  6
LTYPE1
 62
     2
 10
549.4499996
 20
587.2999852
 30
0.0
 40
3.9
 50
317.9
 51
42.1
  0
LINE
  8
0
  6
LTYPE1
 62
     2
 10
552.3499996
 20
584.6999852
 30
0.0
 11
545.8499996
 21
584.6999852
 31
0.0
  0
LINE
  8
0
  6
LTYPE1
 62
     2
 10
541.5970296
 20
599.4999852
 30
0.0
 11
541.5970296
 21
603.940285798
 31
0.0
  0
LINE
  8
0
  6
LTYPE1
 62
     2
 10
545.3440596
 20
599.4999852
 30
0.0
 11
545.3440596
 21
603.940285798
 31
0.0
  0
ARC
  8
0
  6
LTYPE1
 62
     2
 10
537.8499996
 20
597.844829863
 30
0.0
 40
7.155055337
 50
58.419912243
 51
121.580087757
  0
LINE
  8
0
  6
LTYPE1
 62
     2
 10
543.5087796
 20
604.9998852
 30
0.0
 11
545.3440596
 21
603.940285798
 31
0.0
  0
LINE
  8
0
  6
LTYPE1
 62
     2
 10
537.8499996
 20
604.9998852
 30
0.0
 11
543.5087796
 21
604.9998852
 31
0.0
  0
LINE
  8
0
  6
LTYPE1
 62
     2
 10
543.5087796
 20
604.9998852
 30
0.0
 11
545.3440596
 21
603.940285798
 31
0.0
  0
ARC
  8
0
  6
LTYPE1
 62
     2
 10
543.4705446
 20
602.814461433
 30
0.0
 40
2.185758211
 50
87.010501597
 51
148.997686085
  0
LINE
  8
0
  6
LTYPE1
 62
     2
 10
537.8499996
 20
589.4999852
 30
0.0
 11
537.8499996
 21
605.4999852
 31
0.0
  0
LINE
  8
0
  6
LTYPE1
 62
     2
 10
537.8499996
 20
604.9998852
 30
0.0
 11
532.1912196
 21
604.9998852
 31
0.0
  0
ARC
  8
0
  6
LTYPE1
 62
     2
 10
532.2294546
 20
602.814461433
 30
0.0
 40
2.185758211
 50
31.002313915
 51
92.989498403
  0
LINE
  8
0
  6
LTYPE1
 62
     2
 10
534.1029696
 20
599.4999852
 30
0.0
 11
534.1029696
 21
603.940285798
 31
0.0
  0
LINE
  8
0
  6
LTYPE1
 62
     2
 10
527.3499996
 20
579.4999852
 30
0.0
 11
527.3499996
 21
589.2999852
 31
0.0
  0
LINE
  8
0
  6
LTYPE1
 62
     2
 10
529.8499996
 20
588.6999852
 30
0.0
 11
527.3499996
 21
588.6999852
 31
0.0
  0
LINE
  8
0
  6
LTYPE1
 62
     2
 10
527.349999604
 20
579.4999852
 30
0.0
 11
529.8499996
 21
581.999985196
 31
0.0
  0
LINE
  8
0
  6
LTYPE1
 62
     2
 10
527.3499996
 20
579.4999852
 30
0.0
 11
527.3499996
 21
569.6999852
 31
0.0
  0
LINE
  8
0
  6
LTYPE1
 62
     2
 10
529.8499996
 20
579.4999852
 30
0.0
 11
527.349999604
 21
576.999985204
 31
0.0
  0
LINE
  8
0
  6
LTYPE1
 62
     2
 10
529.8499996
 20
570.2999852
 30
0.0
 11
527.3499996
 21
570.2999852
 31
0.0
  0
LINE
  8
0
  6
LTYPE1
 62
     2
 10
529.8499996
 20
566.4999852
 30
0.0
 11
529.8499996
 21
599.4999852
 31
0.0
  0
LINE
  8
0
  6
LTYPE1
 62
     2
 10
532.1912196
 20
604.9998852
 30
0.0
 11
530.3559396
 21
603.940285798
 31
0.0
  0
LINE
  8
0
  6
LTYPE1
 62
     2
 10
530.3559396
 20
599.4999852
 30
0.0
 11
530.3559396
 21
603.940285798
 31
0.0
  0
LINE
  8
0
  6
LTYPE5
 62
     2
 10
533.807883432
 20
556.0999852
 30
0.0
 11
533.807883432
 21
569.4999852
 31
0.0
  0
LINE
  8
0
  6
LTYPE2
 62
     2
 10
510.3499996
 20
579.4999852
 30
0.0
 11
926.6099996
 21
579.4999852
 31
0.0
  0
LINE
  8
0
  6
CONTINUOUS
 62
     1
 10
671.8999996
 20
614.9999852
 30
0.0
 11
671.8999996
 21
613.9999852
 31
0.0
  0
ARC
  8
0
  6
CONTINUOUS
 62
     1
 10
584.8999996
 20
611.9999852
 30
0.0
 40
3.0
 50
90.0
 51
180.0
  0
LINE
  8
0
  6
CONTINUOUS
 62
     1
 10
710.8999996
 20
571.9999852
 30
0.0
 11
581.8999996
 21
571.9999852
 31
0.0
  0
LINE
  8
0
  6
CONTINUOUS
 62
     1
 10
671.8999996
 20
613.9999852
 30
0.0
 11
707.8999996
 21
613.9999852
 31
0.0
  0
ARC
  8
0
  6
CONTINUOUS
 62
     1
 10
707.8999996
 20
610.9999852
 30
0.0
 40
3.0
 50
0.0
 51
90.0
  0
LINE
  8
0
  6
CONTINUOUS
 62
     1
 10
710.8999996
 20
570.4999852
 30
0.0
 11
581.8999996
 21
570.4999852
 31
0.0
  0
LINE
  8
0
  6
CONTINUOUS
 62
     1
 10
710.8999996
 20
565.4999852
 30
0.0
 11
710.8999996
 21
610.9999852
 31
0.0
  0
ARC
  8
0
  6
CONTINUOUS
 62
     1
 10
709.8999996
 20
565.4999852
 30
0.0
 40
1.0
 50
270.0
 51
0.0
  0
LINE
  8
0
  6
CONTINUOUS
 62
     1
 10
707.8999996
 20
564.4999852
 30
0.0
 11
707.8999996
 21
564.4999852
 31
0.0
  0
ARC
  8
0
  6
CONTINUOUS
 62
     1
 10
706.8999996
 20
564.4999852
 30
0.0
 40
1.0
 50
270.0
 51
0.0
  0
LINE
  8
0
  6
CONTINUOUS
 62
     1
 10
581.8999996
 20
565.4999852
 30
0.0
 11
581.8999996
 21
611.9999852
 31
0.0
  0
ARC
  8
0
  6
CONTINUOUS
 62
     1
 10
582.8999996
 20
565.4999852
 30
0.0
 40
1.0
 50
180.0
 51
270.0
  0
ARC
  8
0
  6
CONTINUOUS
 62
     1
 10
585.8999996
 20
564.4999852
 30
0.0
 40
1.0
 50
180.0
 51
270.0
  0
LINE
  8
0
  6
CONTINUOUS
 62
     1
 10
579.3499996
 20
560.0499852
 30
0.0
 11
579.3499996
 21
544.0499852
 31
0.0
  0
LINE
  8
0
  6
CONTINUOUS
 62
     1
 10
579.3499996
 20
544.0499852
 30
0.0
 11
592.8499996
 21
544.0499852
 31
0.0
  0
LINE
  8
0
  6
CONTINUOUS
 62
     1
 10
626.1999996
 20
535.4999852
 30
0.0
 11
626.1999996
 21
567.4999852
 31
0.0
  0
LINE
  8
0
  6
CONTINUOUS
 62
     1
 10
634.8499996
 20
540.4999852
 30
0.0
 11
634.8499996
 21
562.4999852
 31
0.0
  0
LINE
  8
0
  6
CONTINUOUS
 62
     1
 10
601.4999996
 20
535.4999852
 30
0.0
 11
601.4999996
 21
567.4999852
 31
0.0
  0
LINE
  8
0
  6
CONTINUOUS
 62
     1
 10
592.8499996
 20
540.4999852
 30
0.0
 11
601.510253638
 21
535.4999852
 31
0.0
  0
LINE
  8
0
  6
CONTINUOUS
 62
     1
 10
601.4999996
 20
535.4999852
 30
0.0
 11
626.1999996
 21
535.4999852
 31
0.0
  0
LINE
  8
0
  6
CONTINUOUS
 62
     1
 10
634.8499996
 20
540.4999852
 30
0.0
 11
626.189745562
 21
535.4999852
 31
0.0
  0
LINE
  8
0
  6
CONTINUOUS
 62
     1
 10
592.8499996
 20
540.4999852
 30
0.0
 11
592.8499996
 21
562.4999852
 31
0.0
  0
LINE
  8
0
  6
CONTINUOUS
 62
     1
 10
579.3499996
 20
560.0499852
 30
0.0
 11
592.8499996
 21
560.0499852
 31
0.0
  0
LINE
  8
0
  6
CONTINUOUS
 62
     1
 10
592.8499996
 20
562.4999852
 30
0.0
 11
601.510253638
 21
567.4999852
 31
0.0
  0
LINE
  8
0
  6
CONTINUOUS
 62
     1
 10
601.4999996
 20
567.4999852
 30
0.0
 11
626.1999996
 21
567.4999852
 31
0.0
  0
LINE
  8
0
  6
CONTINUOUS
 62
     1
 10
634.8499996
 20
562.4999852
 30
0.0
 11
626.189745562
 21
567.4999852
 31
0.0
  0
LINE
  8
0
  6
CONTINUOUS
 62
     1
 10
596.28
 20
564.4999852
 30
0.0
 11
582.8999996
 21
564.4999852
 31
0.0
  0
LINE
  8
0
  6
CONTINUOUS
 62
     1
 10
709.8999996
 20
564.4999852
 30
0.0
 11
631.13
 21
564.4999852
 31
0.0
  0
LINE
  8
0
  6
CONTINUOUS
 62
     1
 10
706.8999996
 20
563.4999852
 30
0.0
 11
632.73
 21
563.4999852
 31
0.0
  0
LINE
  8
0
  6
CONTINUOUS
 62
     1
 10
706.78
 20
563.4999852
 30
0.0
 11
696.18
 21
563.4999852
 31
0.0
  0
ARC
  8
0
  6
CONTINUOUS
 62
     1
 10
701.88
 20
564.4999852
 30
0.0
 40
5.0
 50
272.3
 51
348.5
  0
ARC
  8
0
  6
CONTINUOUS
 62
     1
 10
701.08
 20
564.4999852
 30
0.0
 40
5.0
 50
191.5
 51
267.7
  0
LINE
  8
0
  6
CONTINUOUS
 62
     1
 10
702.08
 20
559.4999852
 30
0.0
 11
700.88
 21
559.4999852
 31
0.0
  0
LINE
  8
0
  6
CONTINUOUS
 62
     1
 10
594.58
 20
563.4999852
 30
0.0
 11
585.9999996
 21
563.4999852
 31
0.0
  0
ARC
  8
0
  6
CONTINUOUS
 62
     1
 10
590.18
 20
564.4999852
 30
0.0
 40
5.0
 50
191.5
 51
242.667562782
  0
LINE
  8
0
  6
CONTINUOUS
 62
     1
 10
634.8499996
 20
543.4999852
 30
0.0
 11
965.9999996
 21
543.4999852
 31
0.0
  0
LINE
  8
0
  6
CONTINUOUS
 62
     1
 10
634.8499996
 20
559.4999852
 30
0.0
 11
934.6999996
 21
559.4999852
 31
0.0
  0
LINE
  8
0
  6
CONTINUOUS
 62
     1
 10
588.8999996
 20
616.4999852
 30
0.0
 11
662.8999996
 21
616.4999852
 31
0.0
  0
LINE
  8
0
  6
CONTINUOUS
 62
     1
 10
588.8999996
 20
614.9999852
 30
0.0
 11
662.8999996
 21
614.9999852
 31
0.0
  0
LINE
  8
0
  6
CONTINUOUS
 62
     1
 10
584.8999996
 20
614.9999852
 30
0.0
 11
671.8999996
 21
614.9999852
 31
0.0
  0
LINE
  8
0
  6
CONTINUOUS
 62
     1
 10
584.8999996
 20
616.4999852
 30
0.0
 11
671.8999996
 21
616.4999852
 31
0.0
  0
LINE
  8
0
  6
LTYPE2
 62
     2
 10
659.374991696
 20
588.9999852
 30
0.0
 11
639.674991696
 21
588.9999852
 31
0.0
  0
LINE
  8
0
  6
LTYPE1
 62
     2
 10
653.174991696
 20
579.6999852
 30
0.0
 11
643.174991696
 21
579.6999852
 31
0.0
  0
LINE
  8
0
  6
LTYPE2
 62
     2
 10
613.8499996
 20
541.4999852
 30
0.0
 11
613.8499996
 21
561.4999852
 31
0.0
  0
CIRCLE
  8
0
  6
CONTINUOUS
 62
     2
 10
613.8499996
 20
551.4999852
 30
0.0
 40
5.0
  0
CIRCLE
  8
0
  6
CONTINUOUS
 62
     2
 10
613.8499996
 20
551.4999852
 30
0.0
 40
4.0
  0
LINE
  8
0
  6
LTYPE1
 62
     2
 10
592.8499996
 20
538.4999852
 30
0.0
 11
592.8499996
 21
591.4999852
 31
0.0
  0
LINE
  8
0
  6
LTYPE5
 62
     2
 10
643.907883432
 20
556.0999852
 30
0.0
 11
643.907883432
 21
569.4999852
 31
0.0
  0
LINE
  8
0
  6
LTYPE5
 62
     2
 10
590.58
 20
556.0999852
 30
0.0
 11
590.58
 21
569.4999852
 31
0.0
  0
LINE
  8
0
  6
LTYPE1
 62
     2
 10
592.8499996
 20
571.4999852
 30
0.0
 11
909.2999996
 21
571.4999852
 31
0.0
  0
LINE
  8
0
  6
LTYPE1
 62
     2
 10
592.8499996
 20
587.4999852
 30
0.0
 11
909.2999996
 21
587.4999852
 31
0.0
  0
LINE
  8
0
  6
LTYPE3
 62
     2
 10
619.25277302
 20
551.4999852
 30
0.0
 11
1183.4999996
 21
551.4999852
 31
0.0
  0
LINE
  8
0
  6
LTYPE2
 62
     2
 10
717.0999996
 20
588.9999852
 30
0.0
 11
697.3999996
 21
588.9999852
 31
0.0
  0
LINE
  8
0
  6
LTYPE1
 62
     2
 10
710.8999996
 20
598.2999852
 30
0.0
 11
700.8999996
 21
598.2999852
 31
0.0
  0
LINE
  8
0
  6
LTYPE1
 62
     2
 10
710.8999996
 20
599.4999852
 30
0.0
 11
700.8999996
 21
599.4999852
 31
0.0
  0
LINE
  8
0
  6
LTYPE1
 62
     2
 10
710.8999996
 20
579.6999852
 30
0.0
 11
700.8999996
 21
579.6999852
 31
0.0
  0
LINE
  8
0
  6
LTYPE1
 62
     2
 10
710.8999996
 20
578.4999852
 30
0.0
 11
700.8999996
 21
578.4999852
 31
0.0
  0
LINE
  8
0
  6
LTYPE1
 62
     2
 10
764.3499996
 20
593.4999852
 30
0.0
 11
764.3499996
 21
588.8999852
 31
0.0
  0
LINE
  8
0
  6
LTYPE1
 62
     2
 10
749.3499996
 20
593.4999852
 30
0.0
 11
749.3499996
 21
588.8999852
 31
0.0
  0
LINE
  8
0
  6
LTYPE1
 62
     2
 10
753.0499996
 20
593.4999852
 30
0.0
 11
753.0499996
 21
588.8999852
 31
0.0
  0
LINE
  8
0
  6
LTYPE1
 62
     2
 10
760.6499996
 20
593.4999852
 30
0.0
 11
760.6499996
 21
588.8999852
 31
0.0
  0
ARC
  8
0
  6
LTYPE1
 62
     2
 10
751.1499996
 20
590.9999852
 30
0.0
 40
2.8
 50
228.5
 51
311.5
  0
ARC
  8
0
  6
LTYPE1
 62
     2
 10
756.8499996
 20
598.8999852
 30
0.0
 40
10.7
 50
249.1
 51
290.9
  0
ARC
  8
0
  6
LTYPE1
 62
     2
 10
762.5499996
 20
590.9999852
 30
0.0
 40
2.8
 50
228.5
 51
311.5
  0
LINE
  8
0
  6
LTYPE1
 62
     2
 10
756.8499996
 20
584.6999852
 30
0.0
 11
756.8499996
 21
596.4999852
 31
0.0
  0
LINE
  8
0
  6
LTYPE2
 62
     2
 10
756.8499996
 20
580.8499852
 30
0.0
 11
756.8499996
 21
605.1499852
 31
0.0
  0
LINE
  8
0
  6
LTYPE1
 62
     2
 10
762.5499996
 20
588.1999852
 30
0.0
 11
751.1499996
 21
588.1999852
 31
0.0
  0
LINE
  8
0
  6
LTYPE1
 62
     2
 10
756.8499996
 20
591.366010604
 30
0.0
 11
756.8499996
 21
724.366010604
 31
0.0
  0
LINE
  8
0
  6
LTYPE1
 62
     2
 10
764.8499996
 20
599.4999852
 30
0.0
 11
764.8499996
 21
593.5499852
 31
0.0
  0
LINE
  8
0
  6
LTYPE1
 62
     2
 10
763.8499996
 20
599.4999852
 30
0.0
 11
763.8499996
 21
659.1499852
 31
0.0
  0
LINE
  8
0
  6
LTYPE1
 62
     2
 10
749.8499996
 20
599.4999852
 30
0.0
 11
749.8499996
 21
659.1499852
 31
0.0
  0
LINE
  8
0
  6
LTYPE5
 62
     2
 10
701.48
 20
556.0999852
 30
0.0
 11
701.48
 21
569.4999852
 31
0.0
  0
TEXT
  8
2
  6
CONTINUOUS
 62
     2
 10
796.9999996
 20
643.3999852
 30
1.8
 40
21.0
  1
φ１１４
 50
90.0
 41
0.914285714
 51
0.0
  7
KANJI40
  0
LINE
  8
0
  6
LTYPE1
 62
     2
 10
752.8499996
 20
614.4999852
 30
0.0
 11
760.8499996
 21
614.4999852
 31
0.0
  0
LINE
  8
0
  6
LTYPE1
 62
     2
 10
760.1499996
 20
629.0999852
 30
0.0
 11
760.1499996
 21
614.4999852
 31
0.0
  0
LINE
  8
0
  6
LTYPE1
 62
     2
 10
760.8499996
 20
629.1499852
 30
0.0
 11
760.8499996
 21
614.4999852
 31
0.0
  0
LINE
  8
0
  6
LTYPE1
 62
     2
 10
753.5499996
 20
629.0999852
 30
0.0
 11
753.5499996
 21
614.4999852
 31
0.0
  0
LINE
  8
0
  6
LTYPE1
 62
     2
 10
752.8499996
 20
629.0999852
 30
0.0
 11
752.8499996
 21
614.4999852
 31
0.0
  0
LINE
  8
0
  6
LTYPE1
 62
     2
 10
749.8499996
 20
629.1499852
 30
0.0
 11
763.8499996
 21
629.1499852
 31
0.0
  0
LINE
  8
2
  6
CONTINUOUS
 62
     2
 10
802.9999996
 20
627.4999852
 30
0.0
 11
806.882285277
 21
641.988872594
 31
0.0
  0
LINE
  8
2
  6
CONTINUOUS
 62
     2
 10
802.9999996
 20
627.4999852
 30
0.0
 11
799.117713923
 21
641.988872594
 31
0.0
  0
LINE
  8
2
  6
CONTINUOUS
 62
     2
 10
802.9999996
 20
627.4999852
 30
0.0
 11
802.9999996
 21
741.4999852
 31
0.0
  0
LINE
  8
0
  6
CONTINUOUS
 62
     1
 10
944.9999996
 20
627.4999852
 30
0.0
 11
739.8999996
 21
627.4999852
 31
0.0
  0
LINE
  8
0
  6
LTYPE1
 62
     2
 10
749.8499996
 20
659.1499852
 30
0.0
 11
763.8499996
 21
659.1499852
 31
0.0
  0
LINE
  8
0
  6
LTYPE1
 62
     2
 10
760.8499996
 20
659.1499852
 30
0.0
 11
760.8499996
 21
745.9999852
 31
0.0
  0
LINE
  8
0
  6
LTYPE1
 62
     2
 10
752.8499996
 20
659.1499852
 30
0.0
 11
752.8499996
 21
745.9999852
 31
0.0
  0
ARC
  8
0
  6
LTYPE1
 62
     2
 10
756.8499996
 20
745.9999852
 30
0.0
 40
4.0
 50
0.0
 51
180.0
  0
LINE
  8
2
  6
CONTINUOUS
 62
     2
 10
802.9999996
 20
741.4999852
 30
0.0
 11
799.117713923
 21
727.011097806
 31
0.0
  0
LINE
  8
2
  6
CONTINUOUS
 62
     2
 10
802.9999996
 20
741.4999852
 30
0.0
 11
806.882285277
 21
727.011097806
 31
0.0
  0
LINE
  8
0
  6
CONTINUOUS
 62
     1
 10
947.9999996
 20
741.4999852
 30
0.0
 11
739.8999996
 21
741.4999852
 31
0.0
  0
LINE
  8
0
  6
CONTINUOUS
 62
     1
 10
824.5999996
 20
709.4999852
 30
0.0
 11
874.5999996
 21
709.4999852
 31
0.0
  0
LINE
  8
0
  6
CONTINUOUS
 62
     1
 10
874.5999996
 20
709.4999852
 30
0.0
 11
874.5999996
 21
659.4999852
 31
0.0
  0
LINE
  8
0
  6
CONTINUOUS
 62
     1
 10
824.5999996
 20
709.4999852
 30
0.0
 11
824.5999996
 21
659.4999852
 31
0.0
  0
CIRCLE
  8
0
  6
CONTINUOUS
 62
     1
 10
849.5999996
 20
684.4999852
 30
0.0
 40
25.0
  0
LINE
  8
0
  6
LTYPE3
 62
     2
 10
849.5999996
 20
721.6999852
 30
0.0
 11
849.5999996
 21
647.6999852
 31
0.0
  0
LINE
  8
0
  6
CONTINUOUS
 62
     2
 10
859.4999996
 20
709.6999852
 30
0.0
 11
871.908427423
 21
718.127969476
 31
0.0
  0
LINE
  8
0
  6
CONTINUOUS
 62
     2
 10
859.4999996
 20
709.6999852
 30
0.0
 11
866.032021177
 21
723.203047598
 31
0.0
  0
LINE
  8
0
  6
CONTINUOUS
 62
     2
 10
859.4999996
 20
709.6999852
 30
0.0
 11
954.4999996
 21
819.6999852
 31
0.0
  0
LINE
  8
0
  6
CONTINUOUS
 62
     1
 10
824.5999996
 20
659.4999852
 30
0.0
 11
874.5999996
 21
659.4999852
 31
0.0
  0
LINE
  8
0
  6
CONTINUOUS
 62
     1
 10
1064.274891696
 20
562.4999852
 30
0.0
 11
1072.935145734
 21
567.4999852
 31
0.0
  0
LINE
  8
0
  6
CONTINUOUS
 62
     1
 10
1064.274891696
 20
540.4999852
 30
0.0
 11
1064.274891696
 21
562.4999852
 31
0.0
  0
LINE
  8
0
  6
CONTINUOUS
 62
     1
 10
1072.924891696
 20
567.4999852
 30
0.0
 11
1097.624891696
 21
567.4999852
 31
0.0
  0
LINE
  8
0
  6
CONTINUOUS
 62
     1
 10
1072.924891696
 20
535.4999852
 30
0.0
 11
1072.924891696
 21
567.4999852
 31
0.0
  0
LINE
  8
0
  6
CONTINUOUS
 62
     1
 10
1064.274891696
 20
540.4999852
 30
0.0
 11
1072.935145734
 21
535.4999852
 31
0.0
  0
LINE
  8
0
  6
CONTINUOUS
 62
     1
 10
1072.924891696
 20
535.4999852
 30
0.0
 11
1097.624891696
 21
535.4999852
 31
0.0
  0
LINE
  8
0
  6
LTYPE1
 62
     2
 10
1064.274891696
 20
557.4999852
 30
0.0
 11
1106.274891696
 21
557.4999852
 31
0.0
  0
LINE
  8
0
  6
LTYPE1
 62
     2
 10
1064.274891696
 20
545.4999852
 30
0.0
 11
1106.274891696
 21
545.4999852
 31
0.0
  0
CIRCLE
  8
0
  6
CONTINUOUS
 62
     2
 10
1085.274891696
 20
551.4999852
 30
0.0
 40
5.0
  0
CIRCLE
  8
0
  6
CONTINUOUS
 62
     2
 10
1085.274891696
 20
551.4999852
 30
0.0
 40
4.0
  0
LINE
  8
0
  6
LTYPE3
 62
     2
 10
1085.274891696
 20
541.4999852
 30
0.0
 11
1085.274891696
 21
561.4999852
 31
0.0
  0
LINE
  8
0
  6
CONTINUOUS
 62
     1
 10
944.9999996
 20
599.4999852
 30
0.0
 11
944.9999996
 21
659.1499852
 31
0.0
  0
LINE
  8
0
  6
CONTINUOUS
 62
     1
 10
958.9999996
 20
599.4999852
 30
0.0
 11
958.9999996
 21
659.1499852
 31
0.0
  0
LINE
  8
0
  6
CONTINUOUS
 62
     1
 10
1004.9999996
 20
599.4999852
 30
0.0
 11
1004.9999996
 21
659.1499852
 31
0.0
  0
LINE
  8
0
  6
CONTINUOUS
 62
     1
 10
1018.9999996
 20
599.4999852
 30
0.0
 11
1018.9999996
 21
659.1499852
 31
0.0
  0
LINE
  8
0
  6
CONTINUOUS
 62
     1
 10
916.9999996
 20
593.4999852
 30
0.0
 11
1046.9999996
 21
593.4999852
 31
0.0
  0
LINE
  8
0
  6
CONTINUOUS
 62
     1
 10
916.9999996
 20
599.4999852
 30
0.0
 11
1046.9999996
 21
599.4999852
 31
0.0
  0
LINE
  8
0
  6
CONTINUOUS
 62
     1
 10
934.6999996
 20
553.4999852
 30
0.0
 11
1029.2999996
 21
553.4999852
 31
0.0
  0
LINE
  8
0
  6
CONTINUOUS
 62
     1
 10
934.6999996
 20
559.4999852
 30
0.0
 11
1029.2999996
 21
559.4999852
 31
0.0
  0
LINE
  8
0
  6
CONTINUOUS
 62
     1
 10
965.9999996
 20
538.4999852
 30
0.0
 11
997.9999996
 21
538.4999852
 31
0.0
  0
LINE
  8
0
  6
LTYPE1
 62
     2
 10
965.9999996
 20
545.4999852
 30
0.0
 11
998.2999996
 21
545.4999852
 31
0.0
  0
LINE
  8
0
  6
CONTINUOUS
 62
     1
 10
1015.9999996
 20
614.4999852
 30
0.0
 11
1007.9999996
 21
614.4999852
 31
0.0
  0
LINE
  8
0
  6
CONTINUOUS
 62
     2
 10
1015.9999996
 20
629.0999852
 30
0.0
 11
1015.9999996
 21
614.4999852
 31
0.0
  0
LINE
  8
0
  6
CONTINUOUS
 62
     2
 10
1007.9999996
 20
629.1499852
 30
0.0
 11
1007.9999996
 21
614.4999852
 31
0.0
  0
LINE
  8
0
  6
CONTINUOUS
 62
     1
 10
1008.6999996
 20
629.0999852
 30
0.0
 11
1008.6999996
 21
614.4999852
 31
0.0
  0
LINE
  8
0
  6
CONTINUOUS
 62
     1
 10
1015.2999996
 20
629.0999852
 30
0.0
 11
1015.2999996
 21
614.4999852
 31
0.0
  0
LINE
  8
0
  6
CONTINUOUS
 62
     1
 10
998.2999996
 20
545.4999852
 30
0.0
 11
1064.274891696
 21
545.4999852
 31
0.0
  0
LINE
  8
0
  6
CONTINUOUS
 62
     1
 10
1029.274991696
 20
557.4999852
 30
0.0
 11
1064.274891696
 21
557.4999852
 31
0.0
  0
LINE
  8
0
  6
CONTINUOUS
 62
     1
 10
1029.2999996
 20
567.0999852
 30
0.0
 11
1054.6999996
 21
567.0999852
 31
0.0
  0
LINE
  8
0
  6
CONTINUOUS
 62
     1
 10
1054.6999996
 20
592.4999852
 30
0.0
 11
1054.6999996
 21
567.0999852
 31
0.0
  0
LINE
  8
0
  6
CONTINUOUS
 62
     1
 10
1029.2999996
 20
592.4999852
 30
0.0
 11
1054.6999996
 21
592.4999852
 31
0.0
  0
LINE
  8
0
  6
CONTINUOUS
 62
     1
 10
1029.2999996
 20
593.4999852
 30
0.0
 11
1029.2999996
 21
553.4999852
 31
0.0
  0
LINE
  8
0
  6
LTYPE3
 62
     2
 10
1038.9999996
 20
578.6874852
 30
0.0
 11
1038.9999996
 21
538.6999852
 31
0.0
  0
LINE
  8
0
  6
CONTINUOUS
 62
     1
 10
997.9999996
 20
538.4999852
 30
0.0
 11
997.9999996
 21
553.4999852
 31
0.0
  0
LINE
  8
0
  6
CONTINUOUS
 62
     1
 10
1046.9999996
 20
593.4999852
 30
0.0
 11
1046.9999996
 21
599.4999852
 31
0.0
  0
LINE
  8
0
  6
CONTINUOUS
 62
     1
 10
965.9999996
 20
538.4999852
 30
0.0
 11
965.9999996
 21
553.4999852
 31
0.0
  0
LINE
  8
0
  6
CONTINUOUS
 62
     2
 10
949.0999996
 20
553.6999852
 30
0.0
 11
941.511244941
 21
543.767170759
 31
0.0
  0
LINE
  8
0
  6
CONTINUOUS
 62
     2
 10
949.0999996
 20
553.6999852
 30
0.0
 11
947.494352503
 21
541.303538233
 31
0.0
  0
LINE
  8
0
  6
CONTINUOUS
 62
     1
 10
960.5999996
 20
593.4999852
 30
0.0
 11
960.5999996
 21
553.4999852
 31
0.0
  0
LINE
  8
0
  6
LTYPE1
 62
     2
 10
965.6999996
 20
562.7299852
 30
0.0
 11
960.6999996
 21
562.7299852
 31
0.0
  0
LINE
  8
0
  6
LTYPE1
 62
     2
 10
965.6999996
 20
563.8849852
 30
0.0
 11
960.6999996
 21
563.8849852
 31
0.0
  0
LINE
  8
0
  6
LTYPE1
 62
     2
 10
965.6999996
 20
583.6699852
 30
0.0
 11
960.6999996
 21
583.6699852
 31
0.0
  0
LINE
  8
0
  6
LTYPE1
 62
     2
 10
965.6999996
 20
582.5149852
 30
0.0
 11
960.6999996
 21
582.5149852
 31
0.0
  0
LINE
  8
0
  6
LTYPE1
 62
     2
 10
965.6999996
 20
583.6699852
 30
0.0
 11
960.6999996
 21
583.6699852
 31
0.0
  0
LINE
  8
0
  6
LTYPE2
 62
     2
 10
957.274991696
 20
573.1999852
 30
0.0
 11
970.274991696
 21
573.1999852
 31
0.0
  0
LINE
  8
0
  6
CONTINUOUS
 62
     1
 10
934.6999996
 20
567.0999852
 30
0.0
 11
909.2999996
 21
567.0999852
 31
0.0
  0
LINE
  8
0
  6
CONTINUOUS
 62
     1
 10
934.6999996
 20
593.4999852
 30
0.0
 11
934.6999996
 21
553.4999852
 31
0.0
  0
LINE
  8
0
  6
CONTINUOUS
 62
     1
 10
916.9999996
 20
593.4999852
 30
0.0
 11
916.9999996
 21
599.4999852
 31
0.0
  0
LINE
  8
0
  6
CONTINUOUS
 62
     1
 10
909.2999996
 20
592.4999852
 30
0.0
 11
909.2999996
 21
567.0999852
 31
0.0
  0
LINE
  8
0
  6
CONTINUOUS
 62
     1
 10
934.6999996
 20
592.4999852
 30
0.0
 11
909.2999996
 21
592.4999852
 31
0.0
  0
LINE
  8
0
  6
CONTINUOUS
 62
     1
 10
947.9999996
 20
614.4999852
 30
0.0
 11
955.9999996
 21
614.4999852
 31
0.0
  0
LINE
  8
0
  6
CONTINUOUS
 62
     2
 10
947.9999996
 20
629.0999852
 30
0.0
 11
947.9999996
 21
614.4999852
 31
0.0
  0
LINE
  8
0
  6
CONTINUOUS
 62
     1
 10
948.6999996
 20
629.0999852
 30
0.0
 11
948.6999996
 21
614.4999852
 31
0.0
  0
LINE
  8
0
  6
CONTINUOUS
 62
     1
 10
955.2999996
 20
629.0999852
 30
0.0
 11
955.2999996
 21
614.4999852
 31
0.0
  0
LINE
  8
0
  6
CONTINUOUS
 62
     1
 10
1135.4999996
 20
538.4999852
 30
0.0
 11
1151.4999996
 21
538.4999852
 31
0.0
  0
LINE
  8
0
  6
CONTINUOUS
 62
     1
 10
1135.4999996
 20
734.4999852
 30
0.0
 11
1135.4999996
 21
538.4999852
 31
0.0
  0
LINE
  8
0
  6
CONTINUOUS
 62
     2
 10
1256.4999996
 20
652.9999852
 30
0.0
 11
1256.4999996
 21
361.9999852
 31
0.0
  0
CIRCLE
  8
0
  6
CONTINUOUS
 62
     1
 10
1221.4999996
 20
684.4999852
 30
0.0
 40
15.0
  0
LINE
  8
0
  6
CONTINUOUS
 62
     1
 10
1241.4999996
 20
646.9999852
 30
0.0
 11
1151.4999996
 21
646.9999852
 31
0.0
  0
LINE
  8
0
  6
CONTINUOUS
 62
     1
 10
1256.4999996
 20
706.9999852
 30
0.0
 11
1256.4999996
 21
661.9999852
 31
0.0
  0
LINE
  8
0
  6
CONTINUOUS
 62
     1
 10
1241.4999996
 20
646.9999852
 30
0.0
 11
1256.4999996
 21
661.9999852
 31
0.0
  0
LINE
  8
0
  6
LTYPE1
 62
     2
 10
1171.4999996
 20
721.9999852
 30
0.0
 11
1171.4999996
 21
646.9999852
 31
0.0
  0
LINE
  8
0
  6
LTYPE3
 62
     2
 10
1221.4999996
 20
732.6999852
 30
0.0
 11
1221.4999996
 21
638.6999852
 31
0.0
  0
LINE
  8
0
  6
CONTINUOUS
 62
     2
 10
1250.4999996
 20
646.9999852
 30
0.0
 11
1318.4999996
 21
646.9999852
 31
0.0
  0
LINE
  8
0
  6
CONTINUOUS
 62
     2
 10
1221.4999996
 20
624.4499852
 30
0.0
 11
1221.4999996
 21
399.9999852
 31
0.0
  0
LINE
  8
0
  6
CONTINUOUS
 62
     1
 10
1169.5999996
 20
557.4999852
 30
0.0
 11
1165.2999996
 21
557.4999852
 31
0.0
  0
LINE
  8
0
  6
CONTINUOUS
 62
     1
 10
1171.2999996
 20
547.1999852
 30
0.0
 11
1171.2999996
 21
555.7999852
 31
0.0
  0
LINE
  8
0
  6
CONTINUOUS
 62
     1
 10
1169.5999996
 20
557.4999852
 30
0.0
 11
1169.5999996
 21
545.4999852
 31
0.0
  0
LINE
  8
0
  6
CONTINUOUS
 62
     1
 10
1171.2999996
 20
555.7999852
 30
0.0
 11
1169.5999996
 21
557.4999852
 31
0.0
  0
LINE
  8
0
  6
CONTINUOUS
 62
     2
 10
1170.7999996
 20
556.2999852
 30
0.0
 11
1165.2999996
 21
556.2999852
 31
0.0
  0
LINE
  8
0
  6
CONTINUOUS
 62
     1
 10
1169.5999996
 20
545.4999852
 30
0.0
 11
1165.2999996
 21
545.4999852
 31
0.0
  0
LINE
  8
0
  6
CONTINUOUS
 62
     1
 10
1171.2999996
 20
547.1999852
 30
0.0
 11
1169.5999996
 21
545.4999852
 31
0.0
  0
LINE
  8
0
  6
CONTINUOUS
 62
     2
 10
1170.7999996
 20
546.6999852
 30
0.0
 11
1165.2999996
 21
546.6999852
 31
0.0
  0
LINE
  8
0
  6
CONTINUOUS
 62
     1
 10
1151.4999996
 20
540.6999852
 30
0.0
 11
1154.4999996
 21
540.6999852
 31
0.0
  0
LINE
  8
0
  6
CONTINUOUS
 62
     1
 10
1154.4999996
 20
540.6999852
 30
0.0
 11
1154.4999996
 21
562.2999852
 31
0.0
  0
LINE
  8
0
  6
CONTINUOUS
 62
     1
 10
1154.4999996
 20
562.2999852
 30
0.0
 11
1151.4999996
 21
562.2999852
 31
0.0
  0
LINE
  8
0
  6
CONTINUOUS
 62
     1
 10
1151.4999996
 20
551.4999852
 30
0.0
 11
1154.4999996
 21
548.4999852
 31
0.0
  0
LINE
  8
0
  6
CONTINUOUS
 62
     1
 10
1151.4999996
 20
554.4999852
 30
0.0
 11
1154.4999996
 21
551.4999852
 31
0.0
  0
LINE
  8
0
  6
CONTINUOUS
 62
     1
 10
1155.4999996
 20
561.8999852
 30
0.0
 11
1164.2999996
 21
561.8999852
 31
0.0
  0
LINE
  8
0
  6
CONTINUOUS
 62
     1
 10
1155.4999996
 20
541.0999852
 30
0.0
 11
1164.2999996
 21
541.0999852
 31
0.0
  0
LINE
  8
0
  6
CONTINUOUS
 62
     1
 10
1155.4999996
 20
546.2999852
 30
0.0
 11
1164.2999996
 21
546.2999852
 31
0.0
  0
LINE
  8
0
  6
CONTINUOUS
 62
     1
 10
1155.4999996
 20
556.6999852
 30
0.0
 11
1164.2999996
 21
556.6999852
 31
0.0
  0
LINE
  8
0
  6
CONTINUOUS
 62
     1
 10
1165.2999996
 20
559.2999852
 30
0.0
 11
1165.2999996
 21
543.6999852
 31
0.0
  0
ARC
  8
0
  6
CONTINUOUS
 62
     1
 10
1161.3999996
 20
543.6999852
 30
0.0
 40
3.9
 50
317.9
 51
42.1
  0
ARC
  8
0
  6
CONTINUOUS
 62
     1
 10
1151.2999996
 20
551.4999852
 30
0.0
 40
14.0
 50
338.2
 51
21.8
  0
ARC
  8
0
  6
CONTINUOUS
 62
     1
 10
1161.3999996
 20
559.2999852
 30
0.0
 40
3.9
 50
317.9
 51
42.1
  0
ARC
  8
0
  6
CONTINUOUS
 62
     1
 10
1158.3999996
 20
559.2999852
 30
0.0
 40
3.9
 50
137.9
 51
222.1
  0
ARC
  8
0
  6
CONTINUOUS
 62
     1
 10
1168.4999996
 20
551.4999852
 30
0.0
 40
14.0
 50
158.2
 51
201.8
  0
ARC
  8
0
  6
CONTINUOUS
 62
     1
 10
1158.3999996
 20
543.6999852
 30
0.0
 40
3.9
 50
137.9
 51
222.1
  0
LINE
  8
0
  6
CONTINUOUS
 62
     1
 10
1151.4999996
 20
734.4999852
 30
0.0
 11
1151.4999996
 21
538.4999852
 31
0.0
  0
CIRCLE
  8
0
  6
CONTINUOUS
 62
     1
 10
1221.4999996
 20
684.4999852
 30
0.0
 40
28.0
  0
LINE
  8
0
  6
CONTINUOUS
 62
     1
 10
1225.6999996
 20
665.1999852
 30
0.0
 11
1223.6999996
 21
664.8999852
 31
0.0
  0
LINE
  8
0
  6
CONTINUOUS
 62
     1
 10
1223.435384215
 20
668.030754431
 30
0.0
 11
1225.6999996
 21
665.1999852
 31
0.0
  0
LINE
  8
0
  6
CONTINUOUS
 62
     1
 10
1221.4999996
 20
667.5999852
 30
0.0
 11
1223.6999996
 21
664.8999852
 31
0.0
  0
LINE
  8
0
  6
CONTINUOUS
 62
     1
 10
1223.1999996
 20
669.5999852
 30
0.0
 11
1223.435384215
 21
668.030754431
 31
0.0
  0
LINE
  8
0
  6
CONTINUOUS
 62
     1
 10
1221.4999996
 20
667.5999852
 30
0.0
 11
1219.2999996
 21
664.8999852
 31
0.0
  0
LINE
  8
0
  6
CONTINUOUS
 62
     1
 10
1219.7999996
 20
669.5999852
 30
0.0
 11
1219.564614985
 21
668.030754431
 31
0.0
  0
LINE
  8
0
  6
CONTINUOUS
 62
     1
 10
1217.2999996
 20
665.1999852
 30
0.0
 11
1219.2999996
 21
664.8999852
 31
0.0
  0
LINE
  8
0
  6
CONTINUOUS
 62
     1
 10
1219.564614985
 20
668.030754431
 30
0.0
 11
1217.2999996
 21
665.1999852
 31
0.0
  0
LINE
  8
0
  6
CONTINUOUS
 62
     2
 10
1309.4999996
 20
721.9999852
 30
0.0
 11
1309.4999996
 21
646.9999852
 31
0.0
  0
LINE
  8
0
  6
CONTINUOUS
 62
     2
 10
1309.4999996
 20
646.9999852
 30
0.0
 11
1313.382285277
 21
661.488872594
 31
0.0
  0
LINE
  8
0
  6
CONTINUOUS
 62
     2
 10
1309.4999996
 20
646.9999852
 30
0.0
 11
1305.617713923
 21
661.488872594
 31
0.0
  0
LINE
  8
0
  6
CONTINUOUS
 62
     2
 10
1338.5199996
 20
535.4999852
 30
0.0
 11
1341.625828141
 21
547.091095115
 31
0.0
  0
LINE
  8
0
  6
CONTINUOUS
 62
     2
 10
1338.5199996
 20
535.4999852
 30
0.0
 11
1335.414171059
 21
547.091095115
 31
0.0
  0
LINE
  8
0
  6
CONTINUOUS
 62
     2
 10
1338.5199996
 20
535.4999852
 30
0.0
 11
1338.5199996
 21
684.4999852
 31
0.0
  0
LINE
  8
0
  6
CONTINUOUS
 62
     1
 10
1041.4999996
 20
627.4999852
 30
0.0
 11
1041.4999996
 21
742.4999852
 31
0.0
  0
LINE
  8
0
  6
CONTINUOUS
 62
     2
 10
1106.4999996
 20
618.4999852
 30
0.0
 11
1106.4999996
 21
438.4999852
 31
0.0
  0
LINE
  8
0
  6
CONTINUOUS
 62
     1
 10
1097.624891696
 20
535.4999852
 30
0.0
 11
1097.624891696
 21
567.4999852
 31
0.0
  0
LINE
  8
0
  6
CONTINUOUS
 62
     1
 10
1106.274891696
 20
562.4999852
 30
0.0
 11
1097.614637658
 21
567.4999852
 31
0.0
  0
LINE
  8
0
  6
CONTINUOUS
 62
     1
 10
1106.274891696
 20
540.4999852
 30
0.0
 11
1097.614637658
 21
535.4999852
 31
0.0
  0
LINE
  8
0
  6
CONTINUOUS
 62
     1
 10
1106.274891696
 20
540.4999852
 30
0.0
 11
1106.274891696
 21
562.4999852
 31
0.0
  0
LINE
  8
0
  6
CONTINUOUS
 62
     1
 10
947.9999996
 20
659.1499852
 30
0.0
 11
947.9999996
 21
745.9999852
 31
0.0
  0
LINE
  8
0
  6
CONTINUOUS
 62
     1
 10
944.9999996
 20
659.1499852
 30
0.0
 11
958.9999996
 21
659.1499852
 31
0.0
  0
LINE
  8
0
  6
CONTINUOUS
 62
     1
 10
955.9999996
 20
659.1499852
 30
0.0
 11
955.9999996
 21
745.9999852
 31
0.0
  0
LINE
  8
0
  6
CONTINUOUS
 62
     1
 10
1007.9999996
 20
659.1499852
 30
0.0
 11
1007.9999996
 21
745.9999852
 31
0.0
  0
LINE
  8
0
  6
CONTINUOUS
 62
     1
 10
1015.9999996
 20
659.1499852
 30
0.0
 11
1015.9999996
 21
745.9999852
 31
0.0
  0
LINE
  8
0
  6
CONTINUOUS
 62
     1
 10
1018.9999996
 20
659.1499852
 30
0.0
 11
1004.9999996
 21
659.1499852
 31
0.0
  0
LINE
  8
0
  6
CONTINUOUS
 62
     1
 10
1018.9999996
 20
629.1499852
 30
0.0
 11
1004.9999996
 21
629.1499852
 31
0.0
  0
LINE
  8
0
  6
CONTINUOUS
 62
     1
 10
944.9999996
 20
629.1499852
 30
0.0
 11
958.9999996
 21
629.1499852
 31
0.0
  0
LINE
  8
0
  6
CONTINUOUS
 62
     1
 10
1106.4999996
 20
627.4999852
 30
0.0
 11
1106.4999996
 21
741.4999852
 31
0.0
  0
LINE
  8
0
  6
CONTINUOUS
 62
     1
 10
1106.4999996
 20
646.9999852
 30
0.0
 11
1135.4999996
 21
646.9999852
 31
0.0
  0
LINE
  8
0
  6
CONTINUOUS
 62
     1
 10
958.9999996
 20
627.4999852
 30
0.0
 11
1004.9999996
 21
627.4999852
 31
0.0
  0
LINE
  8
0
  6
CONTINUOUS
 62
     1
 10
1018.9999996
 20
627.4999852
 30
0.0
 11
1106.4999996
 21
627.4999852
 31
0.0
  0
LINE
  8
0
  6
CONTINUOUS
 62
     2
 10
1103.624891696
 20
535.4999852
 30
0.0
 11
1344.5199996
 21
535.4999852
 31
0.0
  0
LINE
  8
0
  6
CONTINUOUS
 62
     1
 10
1106.4999996
 20
557.4999852
 30
0.0
 11
1135.4999996
 21
557.4999852
 31
0.0
  0
LINE
  8
0
  6
CONTINUOUS
 62
     1
 10
1106.4999996
 20
545.4999852
 30
0.0
 11
1135.4999996
 21
545.4999852
 31
0.0
  0
ARC
  8
0
  6
CONTINUOUS
 62
     1
 10
951.9999996
 20
745.9999852
 30
0.0
 40
4.0
 50
0.0
 51
180.0
  0
ARC
  8
0
  6
CONTINUOUS
 62
     1
 10
1011.9999996
 20
745.9999852
 30
0.0
 40
4.0
 50
0.0
 51
180.0
  0
LINE
  8
0
  6
CONTINUOUS
 62
     1
 10
1015.9999996
 20
741.4999852
 30
0.0
 11
1106.4999996
 21
741.4999852
 31
0.0
  0
LINE
  8
0
  6
CONTINUOUS
 62
     1
 10
955.9999996
 20
741.4999852
 30
0.0
 11
1007.9999996
 21
741.4999852
 31
0.0
  0
LINE
  8
0
  6
CONTINUOUS
 62
     1
 10
1151.4999996
 20
734.4999852
 30
0.0
 11
1135.4999996
 21
734.4999852
 31
0.0
  0
LINE
  8
0
  6
CONTINUOUS
 62
     1
 10
1241.4999996
 20
721.9999852
 30
0.0
 11
1151.4999996
 21
721.9999852
 31
0.0
  0
LINE
  8
0
  6
CONTINUOUS
 62
     1
 10
1106.4999996
 20
721.9999852
 30
0.0
 11
1135.4999996
 21
721.9999852
 31
0.0
  0
LINE
  8
0
  6
CONTINUOUS
 62
     1
 10
1256.4999996
 20
706.9999852
 30
0.0
 11
1241.4999996
 21
721.9999852
 31
0.0
  0
LINE
  8
0
  6
CONTINUOUS
 62
     2
 10
1250.4999996
 20
721.9999852
 30
0.0
 11
1318.4999996
 21
721.9999852
 31
0.0
  0
CIRCLE
  8
0
  6
CONTINUOUS
 62
     1
 10
1221.4999996
 20
701.9999852
 30
0.0
 40
2.5
  0
LINE
  8
0
  6
CONTINUOUS
 62
     2
 10
1309.4999996
 20
721.9999852
 30
0.0
 11
1305.617713923
 21
707.511097806
 31
0.0
  0
LINE
  8
0
  6
CONTINUOUS
 62
     2
 10
1309.4999996
 20
721.9999852
 30
0.0
 11
1313.382285277
 21
707.511097806
 31
0.0
  0
LINE
  8
0
  6
CONTINUOUS
 62
     2
 10
1338.5199996
 20
684.4999852
 30
0.0
 11
1335.414171059
 21
672.908875285
 31
0.0
  0
LINE
  8
0
  6
CONTINUOUS
 62
     2
 10
1338.5199996
 20
684.4999852
 30
0.0
 11
1341.625828141
 21
672.908875285
 31
0.0
  0
LINE
  8
0
  6
CONTINUOUS
 62
     2
 10
1309.4999996
 20
684.4999852
 30
0.0
 11
1344.5199996
 21
684.4999852
 31
0.0
  0
LINE
  8
0
  6
CONTINUOUS
 62
     2
 10
586.8999996
 20
408.9999852
 30
0.0
 11
1221.4999996
 21
408.9999852
 31
0.0
  0
LINE
  8
0
  6
CONTINUOUS
 62
     2
 10
1221.4999996
 20
370.9999852
 30
0.0
 11
361.8999996
 21
370.9999852
 31
0.0
  0
LINE
  8
0
  6
CONTINUOUS
 62
     2
 10
1151.4999996
 20
447.4999852
 30
0.0
 11
1137.011112206
 21
451.382270877
 31
0.0
  0
LINE
  8
0
  6
CONTINUOUS
 62
     2
 10
1151.4999996
 20
447.4999852
 30
0.0
 11
1137.011112206
 21
443.617699523
 31
0.0
  0
LINE
  8
0
  6
CONTINUOUS
 62
     2
 10
1221.4999996
 20
399.9999852
 30
0.0
 11
1221.4999996
 21
361.9999852
 31
0.0
  0
LINE
  8
0
  6
CONTINUOUS
 62
     2
 10
1221.4999996
 20
370.9999852
 30
0.0
 11
1207.011112206
 21
374.882270877
 31
0.0
  0
LINE
  8
0
  6
CONTINUOUS
 62
     2
 10
1221.4999996
 20
370.9999852
 30
0.0
 11
1207.011112206
 21
367.117699523
 31
0.0
  0
LINE
  8
0
  6
CONTINUOUS
 62
     2
 10
1221.4999996
 20
370.9999852
 30
0.0
 11
1235.988886994
 21
367.117699523
 31
0.0
  0
LINE
  8
0
  6
CONTINUOUS
 62
     2
 10
1221.4999996
 20
370.9999852
 30
0.0
 11
1235.988886994
 21
374.882270877
 31
0.0
  0
LINE
  8
0
  6
CONTINUOUS
 62
     2
 10
1221.4999996
 20
370.9999852
 30
0.0
 11
1256.4999996
 21
370.9999852
 31
0.0
  0
LINE
  8
0
  6
CONTINUOUS
 62
     2
 10
1256.4999996
 20
370.9999852
 30
0.0
 11
1242.011112206
 21
374.882270877
 31
0.0
  0
LINE
  8
0
  6
CONTINUOUS
 62
     2
 10
1256.4999996
 20
370.9999852
 30
0.0
 11
1242.011112206
 21
367.117699523
 31
0.0
  0
LINE
  8
0
  6
CONTINUOUS
 62
     2
 10
1151.4999996
 20
529.3
 30
0.0
 11
1151.4999996
 21
438.4999852
 31
0.0
  0
LINE
  8
0
  6
CONTINUOUS
 62
     2
 10
1151.4999996
 20
447.4999852
 30
0.0
 11
1165.988886994
 21
443.617699523
 31
0.0
  0
LINE
  8
0
  6
CONTINUOUS
 62
     2
 10
1151.4999996
 20
447.4999852
 30
0.0
 11
1165.988886994
 21
451.382270877
 31
0.0
  0
LINE
  8
0
  6
CONTINUOUS
 62
     2
 10
1151.4999996
 20
447.4999852
 30
0.0
 11
1221.4999996
 21
447.4999852
 31
0.0
  0
LINE
  8
0
  6
CONTINUOUS
 62
     2
 10
1221.4999996
 20
447.4999852
 30
0.0
 11
1207.011112206
 21
451.382270877
 31
0.0
  0
LINE
  8
0
  6
CONTINUOUS
 62
     2
 10
1221.4999996
 20
447.4999852
 30
0.0
 11
1207.011112206
 21
443.617699523
 31
0.0
  0
LINE
  8
0
  6
CONTINUOUS
 62
     2
 10
1221.4999996
 20
408.9999852
 30
0.0
 11
1207.011112206
 21
412.882270877
 31
0.0
  0
LINE
  8
0
  6
CONTINUOUS
 62
     2
 10
1221.4999996
 20
408.9999852
 30
0.0
 11
1207.011112206
 21
405.117699523
 31
0.0
  0
LINE
  8
0
  6
CONTINUOUS
 62
     2
 10
1106.4999996
 20
447.4999852
 30
0.0
 11
1092.011112206
 21
451.382270877
 31
0.0
  0
LINE
  8
0
  6
CONTINUOUS
 62
     2
 10
1106.4999996
 20
447.4999852
 30
0.0
 11
1120.988886994
 21
451.382270877
 31
0.0
  0
LINE
  8
0
  6
CONTINUOUS
 62
     2
 10
1106.4999996
 20
447.4999852
 30
0.0
 11
1092.011112206
 21
443.617699523
 31
0.0
  0
LINE
  8
0
  6
CONTINUOUS
 62
     2
 10
1106.4999996
 20
447.4999852
 30
0.0
 11
1120.988886994
 21
443.617699523
 31
0.0
  0
LINE
  8
0
  6
CONTINUOUS
 62
     2
 10
1106.4999996
 20
447.4999852
 30
0.0
 11
1151.4999996
 21
447.4999852
 31
0.0
  0
LINE
  8
0
  6
CONTINUOUS
 62
     2
 10
586.8999996
 20
447.4999852
 30
0.0
 11
1106.4999996
 21
447.4999852
 31
0.0
  0
LINE
  8
0
  6
CONTINUOUS
 62
     2
 10
586.8999996
 20
630.4999852
 30
0.0
 11
586.8999996
 21
438.4999852
 31
0.0
  0
LINE
  8
0
  6
CONTINUOUS
 62
     2
 10
586.8999996
 20
447.4999852
 30
0.0
 11
572.411112206
 21
451.382270877
 31
0.0
  0
LINE
  8
0
  6
CONTINUOUS
 62
     2
 10
586.8999996
 20
447.4999852
 30
0.0
 11
572.411112206
 21
443.617699523
 31
0.0
  0
LINE
  8
0
  6
CONTINUOUS
 62
     2
 10
586.8999996
 20
447.4999852
 30
0.0
 11
486.8999996
 21
447.4999852
 31
0.0
  0
LINE
  8
0
  6
CONTINUOUS
 62
     2
 10
486.8999996
 20
447.4999852
 30
0.0
 11
501.388886994
 21
443.617699523
 31
0.0
  0
LINE
  8
0
  6
CONTINUOUS
 62
     2
 10
486.8999996
 20
447.4999852
 30
0.0
 11
501.388886994
 21
451.382270877
 31
0.0
  0
LINE
  8
0
  6
CONTINUOUS
 62
     2
 10
486.8999996
 20
580.4999852
 30
0.0
 11
486.8999996
 21
438.4999852
 31
0.0
  0
LINE
  8
0
  6
CONTINUOUS
 62
     2
 10
486.8999996
 20
447.4999852
 30
0.0
 11
472.411112206
 21
451.382270877
 31
0.0
  0
LINE
  8
0
  6
CONTINUOUS
 62
     2
 10
486.8999996
 20
447.4999852
 30
0.0
 11
472.411112206
 21
443.617699523
 31
0.0
  0
LINE
  8
0
  6
CONTINUOUS
 62
     2
 10
586.8999996
 20
408.9999852
 30
0.0
 11
572.411112206
 21
412.882270877
 31
0.0
  0
LINE
  8
0
  6
CONTINUOUS
 62
     2
 10
586.8999996
 20
408.9999852
 30
0.0
 11
572.411112206
 21
405.117699523
 31
0.0
  0
LINE
  8
0
  6
CONTINUOUS
 62
     2
 10
586.8999996
 20
438.4999852
 30
0.0
 11
586.8999996
 21
399.9999852
 31
0.0
  0
LINE
  8
0
  6
CONTINUOUS
 62
     2
 10
586.8999996
 20
408.9999852
 30
0.0
 11
601.388886994
 21
405.117699523
 31
0.0
  0
LINE
  8
0
  6
CONTINUOUS
 62
     2
 10
586.8999996
 20
408.9999852
 30
0.0
 11
601.388886994
 21
412.882270877
 31
0.0
  0
LINE
  8
0
  6
CONTINUOUS
 62
     2
 10
586.8999996
 20
447.4999852
 30
0.0
 11
601.388886994
 21
443.617699523
 31
0.0
  0
LINE
  8
0
  6
CONTINUOUS
 62
     2
 10
586.8999996
 20
447.4999852
 30
0.0
 11
601.388886994
 21
451.382270877
 31
0.0
  0
LINE
  8
0
  6
CONTINUOUS
 62
     2
 10
361.8999996
 20
580.4999852
 30
0.0
 11
361.8999996
 21
438.4999852
 31
0.0
  0
LINE
  8
0
  6
CONTINUOUS
 62
     2
 10
361.8999996
 20
447.4999852
 30
0.0
 11
376.388886994
 21
451.382270877
 31
0.0
  0
LINE
  8
0
  6
CONTINUOUS
 62
     2
 10
361.8999996
 20
447.4999852
 30
0.0
 11
376.388886994
 21
443.617699523
 31
0.0
  0
LINE
  8
0
  6
CONTINUOUS
 62
     2
 10
361.8999996
 20
438.4999852
 30
0.0
 11
361.8999996
 21
399.9999852
 31
0.0
  0
LINE
  8
0
  6
CONTINUOUS
 62
     2
 10
361.8999996
 20
408.9999852
 30
0.0
 11
376.388886994
 21
412.882270877
 31
0.0
  0
LINE
  8
0
  6
CONTINUOUS
 62
     2
 10
361.8999996
 20
408.9999852
 30
0.0
 11
376.388886994
 21
405.117699523
 31
0.0
  0
LINE
  8
0
  6
CONTINUOUS
 62
     2
 10
361.8999996
 20
399.9999852
 30
0.0
 11
361.8999996
 21
361.9999852
 31
0.0
  0
LINE
  8
0
  6
CONTINUOUS
 62
     2
 10
361.8999996
 20
370.9999852
 30
0.0
 11
376.388886994
 21
374.882270877
 31
0.0
  0
LINE
  8
0
  6
CONTINUOUS
 62
     2
 10
361.8999996
 20
370.9999852
 30
0.0
 11
376.388886994
 21
367.117699523
 31
0.0
  0
LINE
  8
0
  6
CONTINUOUS
 62
     2
 10
486.8999996
 20
447.4999852
 30
0.0
 11
361.8999996
 21
447.4999852
 31
0.0
  0
LINE
  8
0
  6
CONTINUOUS
 62
     2
 10
361.8999996
 20
408.9999852
 30
0.0
 11
586.8999996
 21
408.9999852
 31
0.0
  0
LINE
  8
0
  6
LTYPE2
 62
     2
 10
625.8999996
 20
633.1999852
 30
0.0
 11
625.8999996
 21
599.6999852
 31
0.0
  0
LINE
  8
0
  6
LTYPE2
 62
     2
 10
1221.4999996
 20
845.1999852
 30
0.0
 11
1221.4999996
 21
968.1999852
 31
0.0
  0
LINE
  8
0
  6
CONTINUOUS
 62
     1
 10
1171.4999996
 20
888.1999852
 30
0.0
 11
1256.4999996
 21
888.1999852
 31
0.0
  0
LINE
  8
0
  6
CONTINUOUS
 62
     1
 10
1256.4999996
 20
868.1999852
 30
0.0
 11
1256.4999996
 21
888.1999852
 31
0.0
  0
LINE
  8
0
  6
CONTINUOUS
 62
     1
 10
1171.4999996
 20
928.1999852
 30
0.0
 11
1256.4999996
 21
928.1999852
 31
0.0
  0
LINE
  8
0
  6
CONTINUOUS
 62
     1
 10
1256.4999996
 20
948.1999852
 30
0.0
 11
1256.4999996
 21
928.1999852
 31
0.0
  0
LINE
  8
0
  6
CONTINUOUS
 62
     1
 10
1171.4999996
 20
888.1999852
 30
0.0
 11
1171.4999996
 21
928.1999852
 31
0.0
  0
LINE
  8
0
  6
CONTINUOUS
 62
     1
 10
1206.4999996
 20
888.1999852
 30
0.0
 11
1206.4999996
 21
928.1999852
 31
0.0
  0
LINE
  8
0
  6
CONTINUOUS
 62
     1
 10
1236.4999996
 20
888.1999852
 30
0.0
 11
1236.4999996
 21
928.1999852
 31
0.0
  0
LINE
  8
0
  6
LTYPE1
 62
     2
 10
1206.4999996
 20
928.1999852
 30
0.0
 11
1206.4999996
 21
948.1999852
 31
0.0
  0
LINE
  8
0
  6
LTYPE1
 62
     2
 10
1236.4999996
 20
928.1999852
 30
0.0
 11
1236.4999996
 21
948.1999852
 31
0.0
  0
LINE
  8
0
  6
CONTINUOUS
 62
     1
 10
1193.4999996
 20
864.1999852
 30
0.0
 11
1249.4999996
 21
864.1999852
 31
0.0
  0
LINE
  8
0
  6
CONTINUOUS
 62
     1
 10
1193.4999996
 20
864.1999852
 30
0.0
 11
1193.4999996
 21
868.1999852
 31
0.0
  0
LINE
  8
0
  6
CONTINUOUS
 62
     1
 10
1249.4999996
 20
864.1999852
 30
0.0
 11
1249.4999996
 21
868.1999852
 31
0.0
  0
LINE
  8
0
  6
CONTINUOUS
 62
     1
 10
1206.4999996
 20
854.1999852
 30
0.0
 11
1236.4999996
 21
854.1999852
 31
0.0
  0
LINE
  8
0
  6
CONTINUOUS
 62
     1
 10
1206.4999996
 20
854.1999852
 30
0.0
 11
1206.4999996
 21
864.1999852
 31
0.0
  0
LINE
  8
0
  6
CONTINUOUS
 62
     1
 10
1236.4999996
 20
854.1999852
 30
0.0
 11
1236.4999996
 21
864.1999852
 31
0.0
  0
LINE
  8
0
  6
LTYPE1
 62
     2
 10
1236.4999996
 20
864.1999852
 30
0.0
 11
1236.4999996
 21
888.1999852
 31
0.0
  0
LINE
  8
0
  6
LTYPE1
 62
     2
 10
1206.4999996
 20
864.1999852
 30
0.0
 11
1206.4999996
 21
888.1999852
 31
0.0
  0
LINE
  8
0
  6
CONTINUOUS
 62
     1
 10
1193.4999996
 20
952.1999852
 30
0.0
 11
1249.4999996
 21
952.1999852
 31
0.0
  0
LINE
  8
0
  6
CONTINUOUS
 62
     1
 10
1193.4999996
 20
952.1999852
 30
0.0
 11
1193.4999996
 21
948.1999852
 31
0.0
  0
LINE
  8
0
  6
CONTINUOUS
 62
     1
 10
1249.4999996
 20
952.1999852
 30
0.0
 11
1249.4999996
 21
948.1999852
 31
0.0
  0
LINE
  8
0
  6
CONTINUOUS
 62
     1
 10
1206.4999996
 20
962.1999852
 30
0.0
 11
1236.4999996
 21
962.1999852
 31
0.0
  0
LINE
  8
0
  6
CONTINUOUS
 62
     1
 10
1206.4999996
 20
962.1999852
 30
0.0
 11
1206.4999996
 21
952.1999852
 31
0.0
  0
LINE
  8
0
  6
CONTINUOUS
 62
     1
 10
1236.4999996
 20
962.1999852
 30
0.0
 11
1236.4999996
 21
952.1999852
 31
0.0
  0
LINE
  8
0
  6
LTYPE2
 62
     2
 10
1214.4999996
 20
860.5999852
 30
0.0
 11
1230.4999996
 21
860.5999852
 31
0.0
  0
CIRCLE
  8
0
  6
CONTINUOUS
 62
     1
 10
1221.4999996
 20
860.5999852
 30
0.0
 40
3.0
  0
LINE
  8
0
  6
LTYPE2
 62
     2
 10
1214.4999996
 20
955.7999852
 30
0.0
 11
1230.4999996
 21
955.7999852
 31
0.0
  0
CIRCLE
  8
0
  6
CONTINUOUS
 62
     1
 10
1221.4999996
 20
955.7999852
 30
0.0
 40
3.0
  0
LINE
  8
0
  6
CONTINUOUS
 62
     2
 10
1206.4999996
 20
855.1999852
 30
0.0
 11
1206.4999996
 21
799.1999852
 31
0.0
  0
LINE
  8
0
  6
CONTINUOUS
 62
     2
 10
1206.4999996
 20
808.1999852
 30
0.0
 11
1192.011112206
 21
812.082270877
 31
0.0
  0
LINE
  8
0
  6
CONTINUOUS
 62
     2
 10
1206.4999996
 20
808.1999852
 30
0.0
 11
1192.011112206
 21
804.317699523
 31
0.0
  0
LINE
  8
0
  6
CONTINUOUS
 62
     2
 10
1183.9999996
 20
808.1999852
 30
0.0
 11
1344.7999996
 21
808.1999852
 31
0.0
  0
LINE
  8
0
  6
CONTINUOUS
 62
     2
 10
1236.4999996
 20
808.1999852
 30
0.0
 11
1250.988886994
 21
804.317699523
 31
0.0
  0
LINE
  8
0
  6
CONTINUOUS
 62
     2
 10
1236.4999996
 20
808.1999852
 30
0.0
 11
1250.988886994
 21
812.082270877
 31
0.0
  0
LINE
  8
0
  6
CONTINUOUS
 62
     2
 10
1236.4999996
 20
845.1999852
 30
0.0
 11
1236.4999996
 21
799.1999852
 31
0.0
  0
LINE
  8
0
  6
CONTINUOUS
 62
     2
 10
1171.4999996
 20
879.1999852
 30
0.0
 11
1171.4999996
 21
763.1999852
 31
0.0
  0
LINE
  8
0
  6
CONTINUOUS
 62
     2
 10
1171.4999996
 20
772.1999852
 30
0.0
 11
1185.988886994
 21
768.317699523
 31
0.0
  0
LINE
  8
0
  6
CONTINUOUS
 62
     2
 10
1171.4999996
 20
772.1999852
 30
0.0
 11
1185.988886994
 21
776.082270877
 31
0.0
  0
LINE
  8
0
  6
CONTINUOUS
 62
     2
 10
1171.4999996
 20
772.1999852
 30
0.0
 11
1221.4999996
 21
772.1999852
 31
0.0
  0
LINE
  8
0
  6
CONTINUOUS
 62
     2
 10
1221.4999996
 20
772.1999852
 30
0.0
 11
1207.011112206
 21
776.082270877
 31
0.0
  0
LINE
  8
0
  6
CONTINUOUS
 62
     2
 10
1221.4999996
 20
772.1999852
 30
0.0
 11
1207.011112206
 21
768.317699523
 31
0.0
  0
LINE
  8
0
  6
CONTINUOUS
 62
     2
 10
1221.4999996
 20
836.1999852
 30
0.0
 11
1221.4999996
 21
763.1999852
 31
0.0
  0
LINE
  8
0
  6
CONTINUOUS
 62
     1
 10
1151.4999996
 20
868.1999852
 30
0.0
 11
1256.4999996
 21
868.1999852
 31
0.0
  0
LINE
  8
0
  6
CONTINUOUS
 62
     2
 10
1232.93
 20
986.1
 30
0.0
 11
1220.855927171
 21
989.335238064
 31
0.0
  0
LINE
  8
0
  6
CONTINUOUS
 62
     2
 10
1232.93
 20
986.1
 30
0.0
 11
1220.855927171
 21
982.864761936
 31
0.0
  0
LINE
  8
0
  6
CONTINUOUS
 62
     2
 10
1232.93
 20
986.1
 30
0.0
 11
1191.93
 21
986.1
 31
0.0
  0
LINE
  8
0
  6
CONTINUOUS
 62
     2
 10
1265.4999996
 20
928.1999852
 30
0.0
 11
1317.9999996
 21
928.1999852
 31
0.0
  0
LINE
  8
0
  6
CONTINUOUS
 62
     2
 10
1308.9999996
 20
928.1999852
 30
0.0
 11
1305.117713923
 21
913.711097806
 31
0.0
  0
LINE
  8
0
  6
CONTINUOUS
 62
     2
 10
1308.9999996
 20
928.1999852
 30
0.0
 11
1312.882285277
 21
913.711097806
 31
0.0
  0
LINE
  8
0
  6
CONTINUOUS
 62
     2
 10
1308.9999996
 20
928.1999852
 30
0.0
 11
1308.9999996
 21
888.1999852
 31
0.0
  0
LINE
  8
0
  6
CONTINUOUS
 62
     2
 10
1308.9999996
 20
888.1999852
 30
0.0
 11
1312.882285277
 21
902.688872594
 31
0.0
  0
LINE
  8
0
  6
CONTINUOUS
 62
     2
 10
1308.9999996
 20
888.1999852
 30
0.0
 11
1305.117713923
 21
902.688872594
 31
0.0
  0
LINE
  8
0
  6
CONTINUOUS
 62
     2
 10
1265.4999996
 20
888.1999852
 30
0.0
 11
1317.9999996
 21
888.1999852
 31
0.0
  0
LINE
  8
0
  6
CONTINUOUS
 62
     2
 10
1265.4999996
 20
868.1999852
 30
0.0
 11
1358.4999996
 21
868.1999852
 31
0.0
  0
LINE
  8
0
  6
CONTINUOUS
 62
     2
 10
1349.4999996
 20
868.1999852
 30
0.0
 11
1353.382285277
 21
882.688872594
 31
0.0
  0
LINE
  8
0
  6
CONTINUOUS
 62
     2
 10
1349.4999996
 20
868.1999852
 30
0.0
 11
1345.617713923
 21
882.688872594
 31
0.0
  0
LINE
  8
0
  6
CONTINUOUS
 62
     2
 10
1349.4999996
 20
868.1999852
 30
0.0
 11
1349.4999996
 21
948.1999852
 31
0.0
  0
LINE
  8
0
  6
CONTINUOUS
 62
     2
 10
1349.4999996
 20
948.1999852
 30
0.0
 11
1345.617713923
 21
933.711097806
 31
0.0
  0
LINE
  8
0
  6
CONTINUOUS
 62
     2
 10
1349.4999996
 20
948.1999852
 30
0.0
 11
1353.382285277
 21
933.711097806
 31
0.0
  0
LINE
  8
0
  6
CONTINUOUS
 62
     2
 10
1265.4999996
 20
948.1999852
 30
0.0
 11
1358.4999996
 21
948.1999852
 31
0.0
  0
LINE
  8
0
  6
CONTINUOUS
 62
     1
 10
1151.4999996
 20
948.1999852
 30
0.0
 11
1256.4999996
 21
948.1999852
 31
0.0
  0
LINE
  8
0
  6
LTYPE2
 62
     2
 10
1137.4999996
 20
908.1999852
 30
0.0
 11
1248.4999996
 21
908.1999852
 31
0.0
  0
LINE
  8
0
  6
CONTINUOUS
 62
     1
 10
1135.4999996
 20
965.6999852
 30
0.0
 11
1151.4999996
 21
965.6999852
 31
0.0
  0
LINE
  8
0
  6
CONTINUOUS
 62
     1
 10
1135.4999996
 20
965.6999852
 30
0.0
 11
1135.4999996
 21
850.6999852
 31
0.0
  0
LINE
  8
0
  6
CONTINUOUS
 62
     1
 10
1135.4999996
 20
850.6999852
 30
0.0
 11
1151.4999996
 21
850.6999852
 31
0.0
  0
LINE
  8
0
  6
CONTINUOUS
 62
     1
 10
1151.4999996
 20
965.6999852
 30
0.0
 11
1151.4999996
 21
850.6999852
 31
0.0
  0
LINE
  8
0
  6
CONTINUOUS
 62
     2
 10
1529.4499518
 20
443.5499852
 30
0.0
 11
1432.2499518
 21
443.5499852
 31
0.0
  0
LINE
  8
0
  6
CONTINUOUS
 62
     2
 10
1512.8349924
 20
969.7449924
 30
0.0
 11
1383.2349924
 21
969.7449924
 31
0.0
  0
TEXT
  8
0
  6
CONTINUOUS
 62
     3
 10
1383.2349924
 20
978.7449924
 30
0.0
 40
18.0
  1
外部ＬＳ組付位置
 50
0.0
 41
0.9
 51
0.0
  7
KANJI41
  0
LINE
  8
0
  6
CONTINUOUS
 62
     1
 10
1557.155807829
 20
777.130973535
 30
0.0
 11
1609.128156246
 21
665.054548717
 31
0.0
  0
LINE
  8
0
  6
CONTINUOUS
 62
     1
 10
1557.001128221
 20
775.562080365
 30
0.0
 11
1522.15402216
 21
740.714974304
 31
0.0
  0
LINE
  8
0
  6
CONTINUOUS
 62
     1
 10
1553.72633994
 20
761.115004942
 30
0.0
 11
1548.670526455
 21
753.089342975
 31
0.0
  0
LINE
  8
0
  6
LTYPE4
 62
     2
 10
1558.711442748
 20
760.301832143
 30
0.0
 11
1594.066781807
 21
795.657171203
 31
0.0
  0
ARC
  8
0
  6
CONTINUOUS
 62
     1
 10
1576.954797702
 20
778.545187098
 30
0.0
 40
16.0
 50
99.340912304
 51
170.659087696
  0
LINE
  8
0
  6
CONTINUOUS
 62
     1
 10
1561.420545603
 20
768.667789248
 30
0.0
 11
1553.797050618
 21
761.044294263
 31
0.0
  0
LINE
  8
0
  6
LTYPE3
 62
     2
 10
1553.478852567
 20
773.736860986
 30
0.0
 11
1567.055302766
 21
760.160410787
 31
0.0
  0
ARC
  8
0
  6
LTYPE1
 62
     1
 10
1576.954797702
 20
778.545187098
 30
0.0
 40
16.0
 50
170.659087696
 51
225.0
  0
LINE
  8
0
  6
LTYPE1
 62
     1
 10
1557.86291461
 20
776.423866754
 30
0.0
 11
1557.001128221
 21
775.562080365
 31
0.0
  0
LINE
  8
0
  6
LTYPE1
 62
     1
 10
1563.51976886
 20
770.767012505
 30
0.0
 11
1561.420545603
 21
768.667789248
 31
0.0
  0
LINE
  8
0
  6
CONTINUOUS
 62
     1
 10
1564.253776442
 20
770.793913306
 30
0.0
 11
1554.150604009
 21
760.690740873
 31
0.0
  0
LINE
  8
0
  6
LTYPE1
 62
     2
 10
1566.52497268
 20
773.065109544
 30
0.0
 11
1564.253776442
 21
770.793913306
 31
0.0
  0
LINE
  8
0
  6
CONTINUOUS
 62
     1
 10
1554.150604009
 20
760.690740873
 30
0.0
 11
1559.100351477
 21
755.740993405
 31
0.0
  0
LINE
  8
0
  6
CONTINUOUS
 62
     1
 10
1557.155807829
 20
777.130973535
 30
0.0
 11
1578.369011265
 21
798.344176971
 31
0.0
  0
LINE
  8
0
  6
LTYPE1
 62
     1
 10
1557.155807829
 20
777.130973535
 30
0.0
 11
1564.875056857
 21
769.411724507
 31
0.0
  0
LINE
  8
0
  6
LTYPE4
 62
     2
 10
1553.671179206
 20
801.828805594
 30
0.0
 11
1688.2887604
 21
667.2112244
 31
0.0
  0
LINE
  8
0
  6
CONTINUOUS
 62
     1
 10
1564.548426354
 20
761.189068281
 30
0.0
 11
1559.100351477
 21
755.740993405
 31
0.0
  0
LINE
  8
0
  6
CONTINUOUS
 62
     2
 10
1558.9549924
 20
796.5449924
 30
0.0
 11
1558.973669044
 21
808.544977866
 31
0.0
  0
LINE
  8
0
  6
CONTINUOUS
 62
     2
 10
1558.9549924
 20
796.5449924
 30
0.0
 11
1552.971174115
 21
806.946622981
 31
0.0
  0
LINE
  8
0
  6
CONTINUOUS
 62
     2
 10
1558.9549924
 20
796.5449924
 30
0.0
 11
1512.8349924
 21
969.7449924
 31
0.0
  0
ARC
  8
0
  6
LTYPE1
 62
     1
 10
1576.954797702
 20
778.545187098
 30
0.0
 40
16.0
 50
225.0
 51
99.340912304
  0
LINE
  8
0
  6
LTYPE1
 62
     2
 10
1566.52497268
 20
773.065109544
 30
0.0
 11
1571.474720148
 21
768.115362075
 31
0.0
  0
CIRCLE
  8
0
  6
CONTINUOUS
 62
     1
 10
1576.954797702
 20
778.545187098
 30
0.0
 40
6.49995
  0
LINE
  8
0
  6
CONTINUOUS
 62
     1
 10
1575.008189302
 20
771.299478053
 30
0.0
 11
1569.709088658
 21
776.598578698
 31
0.0
  0
LINE
  8
0
  6
CONTINUOUS
 62
     1
 10
1569.709088658
 20
776.598578698
 30
0.0
 11
1571.655697058
 21
783.844287742
 31
0.0
  0
LINE
  8
0
  6
LTYPE1
 62
     2
 10
1571.474720148
 20
768.115362075
 30
0.0
 11
1566.149322202
 21
762.78996413
 31
0.0
  0
CIRCLE
  8
0
  6
LTYPE1
 62
     2
 10
1576.954797702
 20
778.545187098
 30
0.0
 40
3.2
  0
CIRCLE
  8
0
  6
CONTINUOUS
 62
     1
 10
1576.954797702
 20
778.545187098
 30
0.0
 40
4.0
  0
LINE
  8
0
  6
CONTINUOUS
 62
     1
 10
1578.901406102
 20
785.790896143
 30
0.0
 11
1571.655697058
 21
783.844287742
 31
0.0
  0
LINE
  8
0
  6
CONTINUOUS
 62
     1
 10
1575.008189302
 20
771.299478053
 30
0.0
 11
1582.253898347
 21
773.246086453
 31
0.0
  0
LINE
  8
0
  6
CONTINUOUS
 62
     1
 10
1584.200506747
 20
780.491795498
 30
0.0
 11
1582.253898347
 21
773.246086453
 31
0.0
  0
LINE
  8
0
  6
CONTINUOUS
 62
     1
 10
1584.200506747
 20
780.491795498
 30
0.0
 11
1578.901406102
 21
785.790896143
 31
0.0
  0
LINE
  8
0
  6
LTYPE1
 62
     2
 10
1582.434875256
 20
788.97501212
 30
0.0
 11
1587.384622725
 21
784.025264652
 31
0.0
  0
LINE
  8
0
  6
LTYPE1
 62
     2
 10
1592.71002067
 20
789.350662598
 30
0.0
 11
1587.384622725
 21
784.025264652
 31
0.0
  0
LINE
  8
0
  6
LTYPE1
 62
     1
 10
1588.268506201
 20
788.444682034
 30
0.0
 11
1589.130292591
 21
789.306468424
 31
0.0
  0
LINE
  8
0
  6
CONTINUOUS
 62
     1
 10
1578.369011265
 20
798.344176971
 30
0.0
 11
1690.445436083
 21
746.371828554
 31
0.0
  0
LINE
  8
0
  6
LTYPE3
 62
     2
 10
1580.066067539
 20
803.718188508
 30
0.0
 11
1595.339574013
 21
788.444682034
 31
0.0
  0
LINE
  8
0
  6
CONTINUOUS
 62
     1
 10
1579.937904435
 20
798.498856579
 30
0.0
 11
1614.785010496
 21
833.34596264
 31
0.0
  0
LINE
  8
0
  6
CONTINUOUS
 62
     1
 10
1586.832195552
 20
794.079439197
 30
0.0
 11
1594.455690537
 21
801.702934182
 31
0.0
  0
LINE
  8
0
  6
LTYPE1
 62
     1
 10
1584.732972295
 20
791.98021594
 30
0.0
 11
1586.832195552
 21
794.079439197
 31
0.0
  0
LINE
  8
0
  6
LTYPE1
 62
     2
 10
1586.625956074
 20
793.166092938
 30
0.0
 11
1585.086525686
 21
791.62666255
 31
0.0
  0
LINE
  8
0
  6
CONTINUOUS
 62
     1
 10
1594.809243927
 20
801.349380791
 30
0.0
 11
1584.706071494
 21
791.246208358
 31
0.0
  0
LINE
  8
0
  6
LTYPE1
 62
     1
 10
1578.369011265
 20
798.344176971
 30
0.0
 11
1586.088260293
 21
790.624927943
 31
0.0
  0
LINE
  8
0
  6
CONTINUOUS
 62
     1
 10
1594.809243927
 20
801.349380791
 30
0.0
 11
1599.758991395
 21
796.399633323
 31
0.0
  0
ARC
  8
0
  6
CONTINUOUS
 62
     1
 10
1670.9999996
 20
867.4999852
 30
0.0
 40
100.0
 50
220.682165828
 51
246.568265639
  0
LINE
  8
0
  6
CONTINUOUS
 62
     1
 10
1599.758991395
 20
796.399633323
 30
0.0
 11
1594.310916519
 21
790.951558446
 31
0.0
  0
LINE
  8
0
  6
CONTINUOUS
 62
     1
 10
1636.351767322
 20
829.456875343
 30
0.0
 11
1608.067496074
 21
801.172604096
 31
0.0
  0
LINE
  8
0
  6
CONTINUOUS
 62
     1
 10
1594.384979858
 20
801.77364486
 30
0.0
 11
1602.410641825
 21
806.829458345
 31
0.0
  0
LINE
  8
0
  6
CONTINUOUS
 62
     1
 10
1632.816233416
 20
832.992409249
 30
0.0
 11
1604.531962168
 21
804.708138002
 31
0.0
  0
LINE
  8
0
  6
CONTINUOUS
 62
     1
 10
1632.766365308
 20
825.871473329
 30
0.0
 11
1608.067496074
 21
801.172604096
 31
0.0
  0
LINE
  8
0
  6
LTYPE3
 62
     2
 10
1638.6852197
 20
777.484526926
 30
0.0
 11
1605.451200984
 21
810.718545642
 31
0.0
  0
LINE
  8
0
  6
CONTINUOUS
 62
     1
 10
1602.410641825
 20
806.829458345
 30
0.0
 11
1611.24947659
 21
815.66829311
 31
0.0
  0
LINE
  8
0
  6
CONTINUOUS
 62
     1
 10
1604.178408778
 20
822.739360922
 30
0.0
 11
1613.370796933
 21
813.546972767
 31
0.0
  0
LINE
  8
0
  6
LTYPE3
 62
     2
 10
1605.521911662
 20
832.002459756
 30
0.0
 11
1646.534104971
 21
790.990266447
 31
0.0
  0
CIRCLE
  8
0
  6
CONTINUOUS
 62
     1
 10
1631.684862566
 20
805.839508852
 30
0.0
 40
9.36
  0
LINE
  8
0
  6
LTYPE3
 62
     2
 10
1640.877250721
 20
815.031897007
 30
0.0
 11
1622.492474411
 21
796.647120696
 31
0.0
  0
CIRCLE
  8
0
  6
CONTINUOUS
 62
     2
 10
1631.684862566
 20
805.839508852
 30
0.0
 40
10.47
  0
LINE
  8
0
  6
CONTINUOUS
 62
     1
 10
1629.634252901
 20
797.283516799
 30
0.0
 11
1638.826641056
 21
788.091128644
 31
0.0
  0
LINE
  8
0
  6
CONTINUOUS
 62
     1
 10
1627.866485948
 20
781.373614223
 30
0.0
 11
1636.705320712
 21
790.212448987
 31
0.0
  0
LINE
  8
0
  6
CONTINUOUS
 62
     1
 10
1604.531962168
 20
804.708138002
 30
0.0
 11
1632.816233416
 21
776.423866754
 31
0.0
  0
LINE
  8
0
  6
CONTINUOUS
 62
     1
 10
1614.785010496
 20
833.34596264
 30
0.0
 11
1623.977398651
 21
824.153574484
 31
0.0
  0
LINE
  8
0
  6
LTYPE3
 62
     2
 10
1627.512932557
 20
831.366063652
 30
0.0
 11
1660.746951273
 21
798.132044937
 31
0.0
  0
LINE
  8
0
  6
CONTINUOUS
 62
     1
 10
1661.100504663
 20
804.708138002
 30
0.0
 11
1632.816233416
 21
832.992409249
 31
0.0
  0
LINE
  8
0
  6
CONTINUOUS
 62
     1
 10
1640.240854618
 20
807.890118517
 30
0.0
 11
1649.433242774
 21
798.697730362
 31
0.0
  0
LINE
  8
0
  6
CONTINUOUS
 62
     1
 10
1658.272077539
 20
807.536565126
 30
0.0
 11
1629.987806291
 21
779.252293879
 31
0.0
  0
LINE
  8
0
  6
CONTINUOUS
 62
     1
 10
1668.525125866
 20
803.64747783
 30
0.0
 11
1636.339575826
 21
771.46192779
 31
0.0
  0
LINE
  8
0
  6
CONTINUOUS
 62
     1
 10
1630.54251937
 20
774.150152708
 30
0.0
 11
1664.282485179
 21
807.890118517
 31
0.0
  0
LINE
  8
0
  6
CONTINUOUS
 62
     1
 10
1646.003774885
 20
780.206888034
 30
0.0
 11
1665.802764758
 21
760.40789816
 31
0.0
  0
LINE
  8
0
  6
CONTINUOUS
 62
     1
 10
1646.003774885
 20
780.206888034
 30
0.0
 11
1636.967590275
 21
771.170703424
 31
0.0
  0
LINE
  8
0
  6
CONTINUOUS
 62
     1
 10
1664.282485179
 20
807.890118517
 30
0.0
 11
1668.525125866
 21
803.64747783
 31
0.0
  0
ARC
  8
0
  6
CONTINUOUS
 62
     1
 10
1667.216978321
 20
761.822111723
 30
0.0
 40
2.0
 50
225.0
 51
315.0
  0
LINE
  8
0
  6
CONTINUOUS
 62
     1
 10
1681.359113944
 20
773.135820222
 30
0.0
 11
1668.631191883
 21
760.40789816
 31
0.0
  0
ARC
  8
0
  6
CONTINUOUS
 62
     1
 10
1682.773327507
 20
771.721606659
 30
0.0
 40
2.0
 50
45.0
 51
135.0
  0
LINE
  8
0
  6
CONTINUOUS
 62
     1
 10
1684.18753028
 20
773.135831011
 30
0.0
 11
1702.57231738
 21
754.751043911
 31
0.0
  0
ARC
  8
0
  6
CONTINUOUS
 62
     1
 10
1701.158103818
 20
753.336830349
 30
0.0
 40
2.0
 50
315.0
 51
45.0
  0
LINE
  8
0
  6
CONTINUOUS
 62
     2
 10
1492.9999996
 20
646.9999852
 30
0.0
 11
1492.9999996
 21
881.4999852
 31
0.0
  0
LINE
  8
0
  6
CONTINUOUS
 62
     2
 10
1640.877250721
 20
811.031897007
 30
0.0
 11
1657.794061666
 21
815.512020606
 31
0.0
  0
LINE
  8
0
  6
CONTINUOUS
 62
     2
 10
1640.877250721
 20
811.031897007
 30
0.0
 11
1653.287576951
 21
823.370203328
 31
0.0
  0
LINE
  8
0
  6
CONTINUOUS
 62
     2
 10
1640.877250721
 20
811.031897007
 30
0.0
 11
1919.877250721
 21
971.031897007
 31
0.0
  0
LINE
  8
0
  6
CONTINUOUS
 62
     2
 10
1919.877250721
 20
971.031897007
 30
0.0
 11
2033.277250721
 21
971.031897007
 31
0.0
  0
LINE
  8
0
  6
CONTINUOUS
 62
     1
 10
1565.9999996
 20
789.858895597
 30
0.0
 11
1565.9999996
 21
825.4999852
 31
0.0
  0
LINE
  8
0
  6
CONTINUOUS
 62
     1
 10
1565.9999996
 20
735.75986983
 30
0.0
 11
1565.9999996
 21
758.058804886
 31
0.0
  0
ARC
  8
0
  6
CONTINUOUS
 62
     1
 10
1670.9999996
 20
893.4999852
 30
0.0
 40
125.0
 50
110.088264208
 51
226.276801065
  0
ARC
  8
0
  6
CONTINUOUS
 62
     1
 10
1670.9999996
 20
893.4999852
 30
0.0
 40
125.0
 50
233.411555187
 51
251.505424422
  0
ARC
  8
0
  6
CONTINUOUS
 62
     1
 10
1670.9999996
 20
893.4999852
 30
0.0
 40
125.0
 50
254.9657709
 51
263.529959855
  0
ARC
  8
0
  6
CONTINUOUS
 62
     1
 10
1670.9999996
 20
893.4999852
 30
0.0
 40
125.0
 50
277.678811068
 51
280.557968545
  0
LINE
  8
0
  6
CONTINUOUS
 62
     1
 10
1742.9999996
 20
764.4999852
 30
0.0
 11
1692.823376091
 21
764.4999852
 31
0.0
  0
LINE
  8
0
  6
LTYPE1
 62
     2
 10
1692.823376091
 20
764.4999852
 30
0.0
 11
1670.9999996
 21
764.4999852
 31
0.0
  0
ARC
  8
0
  6
LTYPE1
 62
     2
 10
1598.9999996
 20
756.4999852
 30
0.0
 40
8.0
 50
90.0
 51
180.0
  0
LINE
  8
0
  6
LTYPE1
 62
     2
 10
1598.9999996
 20
764.4999852
 30
0.0
 11
1670.9999996
 21
764.4999852
 31
0.0
  0
LINE
  8
0
  6
LTYPE1
 62
     2
 10
1590.9999996
 20
727.538460973
 30
0.0
 11
1590.9999996
 21
756.4999852
 31
0.0
  0
LINE
  8
0
  6
CONTINUOUS
 62
     1
 10
1775.9999996
 20
714.866275879
 30
0.0
 11
1775.9999996
 21
825.4999852
 31
0.0
  0
LINE
  8
0
  6
CONTINUOUS
 62
     1
 10
1750.9999996
 20
716.697729272
 30
0.0
 11
1750.9999996
 21
756.4999852
 31
0.0
  0
LINE
  8
0
  6
CONTINUOUS
 62
     1
 10
1631.2999996
 20
563.4999852
 30
0.0
 11
1620.6999996
 21
563.4999852
 31
0.0
  0
ARC
  8
0
  6
CONTINUOUS
 62
     1
 10
1625.5999996
 20
564.4999852
 30
0.0
 40
5.0
 50
191.5
 51
267.7
  0
ARC
  8
0
  6
CONTINUOUS
 62
     1
 10
1626.3999996
 20
564.4999852
 30
0.0
 40
5.0
 50
272.3
 51
348.5
  0
LINE
  8
0
  6
CONTINUOUS
 62
     1
 10
1626.5999996
 20
559.4999852
 30
0.0
 11
1625.3999996
 21
559.4999852
 31
0.0
  0
ARC
  8
0
  6
CONTINUOUS
 62
     1
 10
1716.3999996
 20
564.4999852
 30
0.0
 40
5.0
 50
272.3
 51
348.5
  0
ARC
  8
0
  6
CONTINUOUS
 62
     1
 10
1715.5999996
 20
564.4999852
 30
0.0
 40
5.0
 50
191.5
 51
267.7
  0
LINE
  8
0
  6
CONTINUOUS
 62
     1
 10
1716.5999996
 20
559.4999852
 30
0.0
 11
1715.3999996
 21
559.4999852
 31
0.0
  0
LINE
  8
0
  6
CONTINUOUS
 62
     1
 10
1721.2999996
 20
563.4999852
 30
0.0
 11
1710.6999996
 21
563.4999852
 31
0.0
  0
LINE
  8
0
  6
LTYPE3
 62
     2
 10
1545.488545939
 20
749.341677035
 30
0.0
 11
1578.722564655
 21
716.107658319
 31
0.0
  0
LINE
  8
0
  6
CONTINUOUS
 62
     1
 10
1579.076118046
 20
722.683751384
 30
0.0
 11
1550.791846798
 21
750.968022632
 31
0.0
  0
LINE
  8
0
  6
CONTINUOUS
 62
     1
 10
1548.670526455
 20
753.089342975
 30
0.0
 11
1539.83169169
 21
744.25050821
 31
0.0
  0
LINE
  8
0
  6
CONTINUOUS
 62
     1
 10
1550.791846798
 20
750.968022632
 30
0.0
 11
1541.953012033
 21
742.129187867
 31
0.0
  0
LINE
  8
0
  6
CONTINUOUS
 62
     1
 10
1522.507575551
 20
722.683751384
 30
0.0
 11
1550.791846798
 21
694.399480137
 31
0.0
  0
LINE
  8
0
  6
LTYPE3
 62
     2
 10
1556.660833082
 20
695.460140308
 30
0.0
 11
1523.426814366
 21
728.694159024
 31
0.0
  0
LINE
  8
0
  6
LTYPE3
 62
     2
 10
1545.700677974
 20
707.834508979
 30
0.0
 11
1565.782510559
 21
727.916341565
 31
0.0
  0
LINE
  8
0
  6
CONTINUOUS
 62
     1
 10
1539.124584909
 20
716.390501032
 30
0.0
 11
1554.256670026
 21
701.258415914
 31
0.0
  0
LINE
  8
0
  6
LTYPE3
 62
     2
 10
1524.911738607
 20
748.563859576
 30
0.0
 11
1565.923931916
 21
707.551666267
 31
0.0
  0
LINE
  8
0
  6
CONTINUOUS
 62
     1
 10
1522.15402216
 20
740.714974304
 30
0.0
 11
1541.387326609
 21
721.481669856
 31
0.0
  0
LINE
  8
0
  6
CONTINUOUS
 62
     1
 10
1534.881944222
 20
727.987052243
 30
0.0
 11
1526.043109457
 21
719.148217478
 31
0.0
  0
LINE
  8
0
  6
CONTINUOUS
 62
     1
 10
1554.256670026
 20
734.351013274
 30
0.0
 11
1539.124584909
 21
719.218928156
 31
0.0
  0
ARC
  8
0
  6
CONTINUOUS
 62
     1
 10
1540.538798471
 20
717.804714594
 30
0.0
 40
2.0
 50
135.0
 51
225.0
  0
LINE
  8
0
  6
CONTINUOUS
 62
     1
 10
1539.83169169
 20
744.25050821
 30
0.0
 11
1529.225089972
 21
733.643906492
 31
0.0
  0
LINE
  8
0
  6
CONTINUOUS
 62
     1
 10
1532.760623878
 20
751.321576022
 30
0.0
 11
1551.993928326
 21
732.088271574
 31
0.0
  0
LINE
  8
0
  6
CONTINUOUS
 62
     1
 10
1554.327380704
 20
747.432488726
 30
0.0
 11
1545.417835261
 21
738.522943283
 31
0.0
  0
LINE
  8
0
  6
CONTINUOUS
 62
     1
 10
1531.275699638
 20
731.451875471
 30
0.0
 11
1522.507575551
 21
722.683751384
 31
0.0
  0
ARC
  8
0
  6
CONTINUOUS
 62
     1
 10
1555.670883588
 20
732.936799711
 30
0.0
 40
2.0
 50
45.0
 51
135.0
  0
LINE
  8
0
  6
CONTINUOUS
 62
     1
 10
1702.57231738
 20
751.922616786
 30
0.0
 11
1693.733482615
 21
743.083782021
 31
0.0
  0
LINE
  8
0
  6
LTYPE1
 62
     2
 10
1675.9999996
 20
747.9999852
 30
0.0
 11
1665.9999996
 21
747.9999852
 31
0.0
  0
LINE
  8
0
  6
LTYPE1
 62
     2
 10
1675.9999996
 20
747.9999852
 30
0.0
 11
1675.9999996
 21
751.814545289
 31
0.0
  0
LINE
  8
0
  6
CONTINUOUS
 62
     1
 10
1690.445436083
 20
746.371828554
 30
0.0
 11
1710.597979346
 21
726.21928529
 31
0.0
  0
ARC
  8
0
  6
LTYPE1
 62
     2
 10
1670.9999996
 20
684.4999852
 30
0.0
 40
57.0
 50
343.694413527
 51
282.013359553
  0
LINE
  8
0
  6
CONTINUOUS
 62
     1
 10
1699.390336865
 20
748.740636271
 30
0.0
 11
1717.315493768
 21
730.815479368
 31
0.0
  0
ARC
  8
0
  6
LTYPE1
 62
     2
 10
1670.9999996
 20
684.4999852
 30
0.0
 40
67.5
 50
55.917715182
 51
85.751977333
  0
LINE
  8
0
  6
LTYPE1
 62
     2
 10
1665.9999996
 20
747.9999852
 30
0.0
 11
1665.9999996
 21
751.814545289
 31
0.0
  0
ARC
  8
0
  6
LTYPE1
 62
     2
 10
1670.9999996
 20
684.4999852
 30
0.0
 40
67.5
 50
94.248022667
 51
205.751977333
  0
LINE
  8
0
  6
LTYPE1
 62
     2
 10
1560.9999996
 20
714.4999852
 30
0.0
 11
1612.9999996
 21
718.309408258
 31
0.0
  0
LINE
  8
0
  6
CONTINUOUS
 62
     1
 10
1584.164212493
 20
719.286564457
 30
0.0
 11
1551.85250697
 21
686.974858934
 31
0.0
  0
LINE
  8
0
  6
CONTINUOUS
 62
     1
 10
1581.489504234
 20
725.097137572
 30
0.0
 11
1550.791846798
 21
694.399480137
 31
0.0
  0
LINE
  8
0
  6
CONTINUOUS
 62
     1
 10
1547.609866283
 20
691.217499621
 30
0.0
 11
1581.489504234
 21
725.097137572
 31
0.0
  0
LINE
  8
0
  6
CONTINUOUS
 62
     1
 10
1575.293096766
 20
709.496209915
 30
0.0
 11
1584.329281376
 21
718.532394525
 31
0.0
  0
LINE
  8
0
  6
CONTINUOUS
 62
     1
 10
1557.085097151
 20
734.351013274
 30
0.0
 11
1572.217182268
 21
719.218928156
 31
0.0
  0
LINE
  8
0
  6
CONTINUOUS
 62
     1
 10
1572.217182268
 20
716.390501032
 30
0.0
 11
1557.085097151
 21
701.258415914
 31
0.0
  0
ARC
  8
0
  6
CONTINUOUS
 62
     1
 10
1570.802968706
 20
717.804714594
 30
0.0
 40
2.0
 50
315.0
 51
45.0
  0
LINE
  8
0
  6
LTYPE1
 62
     2
 10
1560.9999996
 20
696.122351564
 30
0.0
 11
1560.9999996
 21
714.4999852
 31
0.0
  0
LINE
  8
0
  6
CONTINUOUS
 62
     1
 10
1575.293096766
 20
709.496209915
 30
0.0
 11
1595.09208664
 21
689.697220042
 31
0.0
  0
LINE
  8
0
  6
CONTINUOUS
 62
     2
 10
1555.377633236
 20
699.4999852
 30
0.0
 11
1487.9999996
 21
699.4999852
 31
0.0
  0
ARC
  8
0
  6
CONTINUOUS
 62
     1
 10
1555.670883588
 20
702.672629477
 30
0.0
 40
2.0
 50
225.0
 51
315.0
  0
LINE
  8
0
  6
LTYPE1
 62
     2
 10
1595.9999996
 20
699.4999852
 30
0.0
 11
1560.9999996
 21
699.4999852
 31
0.0
  0
LINE
  8
0
  6
CONTINUOUS
 62
     1
 10
1550.791846798
 20
694.399480137
 30
0.0
 11
1550.862557476
 21
694.328769459
 31
0.0
  0
LINE
  8
0
  6
CONTINUOUS
 62
     1
 10
1547.609866283
 20
691.217499621
 30
0.0
 11
1551.85250697
 21
686.974858934
 31
0.0
  0
LINE
  8
0
  6
CONTINUOUS
 62
     1
 10
1560.9999996
 20
654.4999852
 30
0.0
 11
1560.9999996
 21
696.122351564
 31
0.0
  0
LINE
  8
0
  6
LTYPE1
 62
     2
 10
1595.9999996
 20
669.4999852
 30
0.0
 11
1595.9999996
 21
699.4999852
 31
0.0
  0
ARC
  8
0
  6
CONTINUOUS
 62
     1
 10
1593.677873077
 20
688.283006479
 30
0.0
 40
2.0
 50
315.0
 51
45.0
  0
LINE
  8
0
  6
CONTINUOUS
 62
     1
 10
1582.364164578
 20
671.312443731
 30
0.0
 11
1600.748940889
 21
652.92766742
 31
0.0
  0
ARC
  8
0
  6
CONTINUOUS
 62
     1
 10
1583.778378141
 20
672.726657293
 30
0.0
 40
2.0
 50
135.0
 51
225.0
  0
LINE
  8
0
  6
CONTINUOUS
 62
     1
 10
1582.364164578
 20
674.140870856
 30
0.0
 11
1595.09208664
 21
686.868792917
 31
0.0
  0
LINE
  8
0
  6
LTYPE1
 62
     2
 10
1595.9999996
 20
669.4999852
 30
0.0
 11
1560.9999996
 21
669.4999852
 31
0.0
  0
LINE
  8
0
  6
CONTINUOUS
 62
     1
 10
1560.9999996
 20
654.4999852
 30
0.0
 11
1604.8499996
 21
651.287615948
 31
0.0
  0
ARC
  8
0
  6
CONTINUOUS
 62
     1
 10
1602.163154451
 20
654.341880982
 30
0.0
 40
2.0
 50
225.0
 51
315.0
  0
LINE
  8
0
  6
CONTINUOUS
 62
     1
 10
1603.577368014
 20
652.92766742
 30
0.0
 11
1612.416202779
 21
661.766502185
 31
0.0
  0
ARC
  8
0
  6
CONTINUOUS
 62
     1
 10
1670.9999996
 20
684.4999852
 30
0.0
 40
67.5
 50
214.248022667
 51
256.586338096
  0
LINE
  8
0
  6
CONTINUOUS
 62
     1
 10
1606.759348529
 20
656.109647935
 30
0.0
 11
1624.684505432
 21
638.184491032
 31
0.0
  0
LINE
  8
0
  6
LTYPE1
 62
     2
 10
1613.50738646
 20
657.080112219
 30
0.0
 11
1618.50738646
 21
648.419858181
 31
0.0
  0
LINE
  8
0
  6
LTYPE1
 62
     2
 10
1618.50738646
 20
648.419858181
 30
0.0
 11
1615.203880518
 21
646.512578136
 31
0.0
  0
LINE
  8
0
  6
LTYPE1
 62
     2
 10
1613.50738646
 20
657.080112219
 30
0.0
 11
1610.203880518
 21
655.172832174
 31
0.0
  0
LINE
  8
0
  6
CONTINUOUS
 62
     1
 10
1609.128156246
 20
665.054548717
 30
0.0
 11
1629.28069951
 21
644.902005454
 31
0.0
  0
LINE
  8
0
  6
CONTINUOUS
 62
     1
 10
1631.402019854
 20
642.78068511
 30
0.0
 11
1665.696698741
 21
608.486006222
 31
0.0
  0
LINE
  8
0
  6
CONTINUOUS
 62
     1
 10
1631.402019854
 20
642.78068511
 30
0.0
 11
1635.621319944
 21
646.9999852
 31
0.0
  0
LINE
  8
0
  6
CONTINUOUS
 62
     1
 10
1629.28069951
 20
644.902005454
 30
0.0
 11
1631.378679256
 21
646.9999852
 31
0.0
  0
LINE
  8
0
  6
LTYPE2
 62
     2
 10
1627.689709252
 20
641.189694852
 30
0.0
 11
1715.583082154
 21
729.083067754
 31
0.0
  0
LINE
  8
0
  6
CONTINUOUS
 62
     1
 10
1706.378679256
 20
721.9999852
 30
0.0
 11
1710.597979346
 21
726.21928529
 31
0.0
  0
LINE
  8
0
  6
CONTINUOUS
 62
     1
 10
1712.71929969
 20
724.097964946
 30
0.0
 11
1747.013978578
 21
689.803286059
 31
0.0
  0
LINE
  8
0
  6
CONTINUOUS
 62
     1
 10
1710.9999996
 20
722.378664856
 30
0.0
 11
1712.71929969
 21
724.097964946
 31
0.0
  0
ARC
  8
0
  6
CONTINUOUS
 62
     1
 10
1670.9999996
 20
684.4999852
 30
0.0
 40
67.5
 50
13.413661903
 51
54.006806579
  0
ARC
  8
0
  6
CONTINUOUS
 62
     1
 10
1670.9999996
 20
684.4999852
 30
0.0
 40
65.5
 50
16.385594749
 51
45.0
  0
ARC
  8
0
  6
LTYPE1
 62
     2
 10
1670.9999996
 20
684.4999852
 30
0.0
 40
67.5
 50
357.67333076
 51
12.054205664
  0
LINE
  8
0
  6
CONTINUOUS
 62
     1
 10
1715.2499996
 20
658.039307081
 30
0.0
 11
1747.013978578
 21
689.803286059
 31
0.0
  0
ARC
  8
0
  6
CONTINUOUS
 62
     1
 10
1670.9999996
 20
684.4999852
 30
0.0
 40
65.5
 50
274.761201874
 51
355.238798126
  0
ARC
  8
0
  6
CONTINUOUS
 62
     1
 10
1670.9999996
 20
684.4999852
 30
0.0
 40
67.5
 50
334.248022667
 51
357.205446404
  0
ARC
  8
0
  6
CONTINUOUS
 62
     1
 10
1670.9999996
 20
684.4999852
 30
0.0
 40
57.0
 50
286.305586473
 51
340.756320969
  0
LINE
  8
0
  6
CONTINUOUS
 62
     1
 10
1665.696698741
 20
608.486006222
 30
0.0
 11
1703.9499996
 21
646.739307081
 31
0.0
  0
LINE
  8
0
  6
LTYPE1
 62
     2
 10
1723.49261274
 20
648.419858181
 30
0.0
 11
1728.49261274
 21
657.080112219
 31
0.0
  0
LINE
  8
0
  6
LTYPE1
 62
     2
 10
1728.49261274
 20
657.080112219
 30
0.0
 11
1731.796118682
 21
655.172832174
 31
0.0
  0
ARC
  8
0
  6
CONTINUOUS
 62
     1
 10
1670.9999996
 20
684.4999852
 30
0.0
 40
67.5
 50
272.794553596
 51
325.751977333
  0
LINE
  8
0
  6
LTYPE1
 62
     2
 10
1723.49261274
 20
648.419858181
 30
0.0
 11
1726.796118682
 21
646.512578136
 31
0.0
  0
ARC
  8
0
  6
CONTINUOUS
 62
     1
 10
1670.9999996
 20
684.4999852
 30
0.0
 40
65.5
 50
225.0
 51
253.614405251
  0
ARC
  8
0
  6
LTYPE1
 62
     2
 10
1670.9999996
 20
684.4999852
 30
0.0
 40
67.5
 50
257.697192877
 51
272.468461904
  0
LINE
  8
0
  6
CONTINUOUS
 62
     1
 10
1710.7499996
 20
653.539307081
 30
0.0
 11
1713.2499996
 21
656.039307081
 31
0.0
  0
LINE
  8
0
  6
CONTINUOUS
 62
     2
 10
1492.9999996
 20
699.4999852
 30
0.0
 11
1489.117713923
 21
713.988872594
 31
0.0
  0
LINE
  8
0
  6
CONTINUOUS
 62
     2
 10
1492.9999996
 20
699.4999852
 30
0.0
 11
1496.882285277
 21
713.988872594
 31
0.0
  0
LINE
  8
0
  6
CONTINUOUS
 62
     2
 10
1492.9999996
 20
669.4999852
 30
0.0
 11
1489.117713923
 21
655.011097806
 31
0.0
  0
LINE
  8
0
  6
CONTINUOUS
 62
     2
 10
1492.9999996
 20
669.4999852
 30
0.0
 11
1496.882285277
 21
655.011097806
 31
0.0
  0
LINE
  8
0
  6
CONTINUOUS
 62
     2
 10
1551.9999996
 20
669.4999852
 30
0.0
 11
1487.9999996
 21
669.4999852
 31
0.0
  0
LINE
  8
0
  6
CONTINUOUS
 62
     2
 10
1520.9999996
 20
715.340993405
 30
0.0
 11
1520.9999996
 21
533.017699523
 31
0.0
  0
LINE
  8
0
  6
CONTINUOUS
 62
     2
 10
1520.9999996
 20
539.017699523
 30
0.0
 11
1532.591109515
 21
535.911870982
 31
0.0
  0
LINE
  8
0
  6
CONTINUOUS
 62
     2
 10
1520.9999996
 20
539.017699523
 30
0.0
 11
1532.591109515
 21
542.123528065
 31
0.0
  0
LINE
  8
0
  6
CONTINUOUS
 62
     2
 10
1520.9999996
 20
539.017699523
 30
0.0
 11
1670.9999996
 21
539.017699523
 31
0.0
  0
LINE
  8
0
  6
CONTINUOUS
 62
     2
 10
1670.9999996
 20
539.017699523
 30
0.0
 11
1659.408889685
 21
542.123528065
 31
0.0
  0
LINE
  8
0
  6
CONTINUOUS
 62
     2
 10
1670.9999996
 20
539.017699523
 30
0.0
 11
1659.408889685
 21
535.911870982
 31
0.0
  0
LINE
  8
0
  6
CONTINUOUS
 62
     2
 10
1657.0999518
 20
563.4999852
 30
0.0
 11
1529.4499518
 21
443.5499852
 31
0.0
  0
LINE
  8
0
  6
CONTINUOUS
 62
     2
 10
1657.0999518
 20
563.4999852
 30
0.0
 11
1650.779821651
 21
553.299203127
 31
0.0
  0
LINE
  8
0
  6
CONTINUOUS
 62
     2
 10
1657.0999518
 20
563.4999852
 30
0.0
 11
1646.5261675
 21
557.82591386
 31
0.0
  0
LINE
  8
0
  6
CONTINUOUS
 62
     2
 10
1540.0999996
 20
485.1999852
 30
0.0
 11
1454.999938
 21
485.1999852
 31
0.0
  0
LINE
  8
0
  6
LTYPE3
 62
     3
 10
1670.9999996
 20
533.9999852
 30
0.0
 11
1670.9999996
 21
618.1499852
 31
0.0
  0
LINE
  8
0
  6
CONTINUOUS
 62
     1
 10
1674.290950313
 20
616.4999852
 30
0.0
 11
1716.9999996
 21
616.4999852
 31
0.0
  0
LINE
  8
0
  6
CONTINUOUS
 62
     1
 10
1672.210677719
 20
614.9999852
 30
0.0
 11
1718.9999996
 21
614.9999852
 31
0.0
  0
LINE
  8
0
  6
CONTINUOUS
 62
     1
 10
1626.4999996
 20
616.4999852
 30
0.0
 11
1657.682719764
 21
616.4999852
 31
0.0
  0
LINE
  8
0
  6
CONTINUOUS
 62
     1
 10
1622.9999996
 20
614.9999852
 30
0.0
 11
1659.182719764
 21
614.9999852
 31
0.0
  0
LINE
  8
0
  6
LTYPE1
 62
     2
 10
1745.9999996
 20
669.4999852
 30
0.0
 11
1745.9999996
 21
699.4999852
 31
0.0
  0
LINE
  8
0
  6
LTYPE1
 62
     2
 10
1745.9999996
 20
669.4999852
 30
0.0
 11
1780.9999996
 21
669.4999852
 31
0.0
  0
LINE
  8
0
  6
LTYPE1
 62
     2
 10
1745.9999996
 20
699.4999852
 30
0.0
 11
1780.9999996
 21
699.4999852
 31
0.0
  0
LINE
  8
0
  6
CONTINUOUS
 62
     1
 10
1780.9999996
 20
654.4999852
 30
0.0
 11
1737.1499996
 21
651.287615948
 31
0.0
  0
LINE
  8
0
  6
CONTINUOUS
 62
     1
 10
1780.9999996
 20
714.4999852
 30
0.0
 11
1737.1499996
 21
717.712354452
 31
0.0
  0
LINE
  8
0
  6
CONTINUOUS
 62
     1
 10
1780.9999996
 20
654.4999852
 30
0.0
 11
1780.9999996
 21
714.4999852
 31
0.0
  0
LINE
  8
0
  6
CONTINUOUS
 62
     1
 10
1750.9999996
 20
612.4999852
 30
0.0
 11
1750.9999996
 21
652.302241128
 31
0.0
  0
LINE
  8
0
  6
CONTINUOUS
 62
     1
 10
1775.9999996
 20
585.4999852
 30
0.0
 11
1775.9999996
 21
654.133694521
 31
0.0
  0
LINE
  8
0
  6
CONTINUOUS
 62
     1
 10
1565.9999996
 20
585.4999852
 30
0.0
 11
1565.9999996
 21
654.133694521
 31
0.0
  0
LINE
  8
0
  6
CONTINUOUS
 62
     1
 10
1590.9999996
 20
612.4999852
 30
0.0
 11
1590.9999996
 21
652.302241128
 31
0.0
  0
LINE
  8
0
  6
CONTINUOUS
 62
     2
 10
1545.9999996
 20
1112.9999852
 30
0.0
 11
1560.488886994
 21
1109.117699523
 31
0.0
  0
LINE
  8
0
  6
CONTINUOUS
 62
     2
 10
1545.9999996
 20
1112.9999852
 30
0.0
 11
1560.488886994
 21
1116.882270877
 31
0.0
  0
LINE
  8
0
  6
CONTINUOUS
 62
     2
 10
1545.9999996
 20
1112.9999852
 30
0.0
 11
1795.9999996
 21
1112.9999852
 31
0.0
  0
LINE
  8
0
  6
CONTINUOUS
 62
     2
 10
1795.9999996
 20
1112.9999852
 30
0.0
 11
1781.511112206
 21
1116.882270877
 31
0.0
  0
LINE
  8
0
  6
CONTINUOUS
 62
     2
 10
1795.9999996
 20
1112.9999852
 30
0.0
 11
1781.511112206
 21
1109.117699523
 31
0.0
  0
LINE
  8
0
  6
CONTINUOUS
 62
     2
 10
1795.9999996
 20
902.4999852
 30
0.0
 11
1795.9999996
 21
1116.882270877
 31
0.0
  0
LINE
  8
0
  6
CONTINUOUS
 62
     2
 10
1545.9999996
 20
902.4999852
 30
0.0
 11
1545.9999996
 21
1116.882270877
 31
0.0
  0
LINE
  8
0
  6
CONTINUOUS
 62
     2
 10
390.805993981
 20
1221.004856554
 30
0.0
 11
823.093402718
 21
1221.004856554
 31
0.0
  0
TEXT
  8
0
  6
CONTINUOUS
 62
     2
 10
392.805993981
 20
1229.004856554
 30
0.0
 40
20.0
  1
推力リミッタの作動値は、約４４００ｋｇ（設計値）
 50
0.0
 41
0.925
 51
0.0
  7
KANJI42
  0
LINE
  8
0
  6
CONTINUOUS
 62
     2
 10
954.4999996
 20
819.6999852
 30
0.0
 11
1021.0999996
 21
819.6999852
 31
0.0
  0
LINE
  8
0
  6
CONTINUOUS
 62
     2
 10
856.620559618
 20
788.4999852
 30
0.0
 11
939.4999996
 21
788.4999852
 31
0.0
  0
LINE
  8
0
  6
CONTINUOUS
 62
     2
 10
932.4999996
 20
788.4999852
 30
0.0
 11
937.029332889
 21
805.40368716
 31
0.0
  0
LINE
  8
0
  6
CONTINUOUS
 62
     2
 10
932.4999996
 20
788.4999852
 30
0.0
 11
927.970666311
 21
805.40368716
 31
0.0
  0
LINE
  8
0
  6
CONTINUOUS
 62
     2
 10
932.4999996
 20
788.4999852
 30
0.0
 11
932.4999996
 21
998.4999852
 31
0.0
  0
LINE
  8
0
  6
CONTINUOUS
 62
     2
 10
932.4999996
 20
998.4999852
 30
0.0
 11
927.970666311
 21
981.59628324
 31
0.0
  0
LINE
  8
0
  6
CONTINUOUS
 62
     2
 10
932.4999996
 20
998.4999852
 30
0.0
 11
937.029332889
 21
981.59628324
 31
0.0
  0
LINE
  8
0
  6
CONTINUOUS
 62
     2
 10
856.620570407
 20
998.4999852
 30
0.0
 11
939.4999996
 21
998.4999852
 31
0.0
  0
TEXT
  8
0
  6
CONTINUOUS
 62
     2
 10
649.3999996
 20
1140.2749852
 30
0.0
 40
21.0
  1
４０５
 50
0.0
 41
0.9
 51
0.0
  7
KANJI43
  0
TEXT
  8
0
  6
CONTINUOUS
 62
     2
 10
788.419479857
 20
1086.9999852
 30
0.0
 40
21.0
  1
ＰＦ３／４
 50
0.0
 41
0.9
 51
0.0
  7
KANJI43
  0
TEXT
  8
0
  6
CONTINUOUS
 62
     3
 10
954.4999996
 20
822.6999852
 30
0.0
 40
21.0
  1
給脂口
 50
0.0
 41
0.9
 51
0.0
  7
KANJI43
  0
TEXT
  8
0
  6
CONTINUOUS
 62
     2
 10
1169.6999996
 20
453.4999852
 30
0.0
 40
21.0
  1
７０
 50
0.0
 41
0.9
 51
0.0
  7
KANJI43
  0
TEXT
  8
0
  6
CONTINUOUS
 62
     2
 10
1222.1999996
 20
376.9999852
 30
0.0
 40
21.0
  1
３５
 50
0.0
 41
0.9
 51
0.0
  7
KANJI43
  0
TEXT
  8
0
  6
CONTINUOUS
 62
     2
 10
1126.0999996
 20
453.4999852
 30
0.0
 40
21.0
  1
Ｐ
 50
0.0
 41
0.9
 51
0.0
  7
KANJI43
  0
TEXT
  8
0
  6
CONTINUOUS
 62
     2
 10
739.5999996
 20
376.9999852
 30
0.0
 40
21.0
  1
ｍｉｎ．ＡＬ
 50
0.0
 41
0.9
 51
0.0
  7
KANJI43
  0
TEXT
  8
0
  6
CONTINUOUS
 62
     2
 10
816.5999996
 20
453.4999852
 30
0.0
 40
21.0
  1
Ｃ
 50
0.0
 41
0.9
 51
0.0
  7
KANJI43
  0
TEXT
  8
0
  6
CONTINUOUS
 62
     2
 10
834.2999996
 20
414.9999852
 30
0.0
 40
21.0
  1
ｍｉｎ．Ｌ
 50
0.0
 41
0.9
 51
0.0
  7
KANJI43
  0
TEXT
  8
0
  6
CONTINUOUS
 62
     2
 10
511.3999996
 20
453.4999852
 30
0.0
 40
21.0
  1
１００
 50
0.0
 41
0.9
 51
0.0
  7
KANJI43
  0
TEXT
  8
0
  6
CONTINUOUS
 62
     2
 10
398.3999996
 20
453.4999852
 30
0.0
 40
21.0
  1
１２５
 50
0.0
 41
0.9
 51
0.0
  7
KANJI43
  0
TEXT
  8
0
  6
CONTINUOUS
 62
     2
 10
448.3999996
 20
414.9999852
 30
0.0
 40
21.0
  1
２２５
 50
0.0
 41
0.9
 51
0.0
  7
KANJI43
  0
TEXT
  8
0
  6
CONTINUOUS
 62
     2
 10
1179.6999996
 20
778.1999852
 30
0.0
 40
21.0
  1
５０
 50
0.0
 41
0.9
 51
0.0
  7
KANJI43
  0
TEXT
  8
0
  6
CONTINUOUS
 62
     3
 10
1198.93
 20
996.1
 30
0.0
 40
21.0
  1
前進
 50
0.0
 41
0.9
 51
0.0
  7
KANJI43
  0
TEXT
  8
0
  6
CONTINUOUS
 62
     2
 10
1302.9999996
 20
891.3999852
 30
0.0
 40
21.0
  1
４０
 50
90.0
 41
0.9
 51
0.0
  7
KANJI43
  0
TEXT
  8
0
  6
CONTINUOUS
 62
     2
 10
1343.4999996
 20
891.3999852
 30
0.0
 40
21.0
  1
８０
 50
90.0
 41
0.9
 51
0.0
  7
KANJI43
  0
TEXT
  8
0
  6
CONTINUOUS
 62
     2
 10
1313.9999996
 20
785.6999852
 30
0.0
 40
21.0
  1
ｄ９
 50
0.0
 41
0.9
 51
0.0
  7
KANJI43
  0
TEXT
  8
0
  6
CONTINUOUS
 62
     2
 10
1258.9999996
 20
814.1999852
 30
0.0
 40
21.0
  1
φ３０Ｈ１０
 50
0.0
 41
0.9
 51
0.0
  7
KANJI43
  0
TEXT
  8
0
  6
CONTINUOUS
 62
     2
 10
1486.9999996
 20
721.9999852
 30
0.0
 40
21.0
  1
φ３０Ｈ１０深３５
 50
90.0
 41
0.9
 51
0.0
  7
KANJI43
  0
TEXT
  8
0
  6
CONTINUOUS
 62
     2
 10
1645.4999996
 20
459.9999852
 30
0.0
 40
21.0
  1
２２０
 50
0.0
 41
0.9
 51
0.0
  7
KANJI43
  0
TEXT
  8
0
  6
CONTINUOUS
 62
     2
 10
1645.4999996
 20
496.0999852
 30
0.0
 40
21.0
  1
２１０
 50
0.0
 41
0.9
 51
0.0
  7
KANJI43
  0
TEXT
  8
0
  6
CONTINUOUS
 62
     3
 10
1432.2499518
 20
452.5499852
 30
0.0
 40
21.0
  1
推力リミッタ
 50
0.0
 41
0.9
 51
0.0
  7
KANJI43
  0
TEXT
  8
0
  6
CONTINUOUS
 62
     3
 10
1459.0999996
 20
494.1999852
 30
0.0
 40
21.0
  1
ＰＦ１／２
 50
0.0
 41
0.9
 51
0.0
  7
KANJI43
  0
TEXT
  8
0
  6
CONTINUOUS
 62
     2
 10
1873.4999996
 20
598.4999852
 30
0.0
 40
21.0
  1
１２１
 50
90.0
 41
0.9
 51
0.0
  7
KANJI43
  0
TEXT
  8
0
  6
CONTINUOUS
 62
     2
 10
1832.3999996
 20
606.4999852
 30
0.0
 40
21.0
  1
１０５
 50
90.0
 41
0.9
 51
0.0
  7
KANJI43
  0
TEXT
  8
0
  6
CONTINUOUS
 62
     2
 10
1832.3999996
 20
763.4999852
 30
0.0
 40
21.0
  1
２０９
 50
90.0
 41
0.9
 51
0.0
  7
KANJI43
  0
TEXT
  8
0
  6
CONTINUOUS
 62
     2
 10
1832.3999996
 20
953.9999852
 30
0.0
 40
21.0
  1
１９７
 50
90.0
 41
0.9
 51
0.0
  7
KANJI43
  0
TEXT
  8
0
  6
CONTINUOUS
 62
     2
 10
1873.4999996
 20
849.4999852
 30
0.0
 40
21.0
  1
４０６
 50
90.0
 41
0.9
 51
0.0
  7
KANJI43
  0
TEXT
  8
0
  6
CONTINUOUS
 62
     3
 10
1919.877250721
 20
980.031897007
 30
0.0
 40
21.0
  1
２－ＰＦ１／２
 50
0.0
 41
0.9
 51
0.0
  7
KANJI43
  0
TEXT
  8
0
  6
CONTINUOUS
 62
     2
 10
1636.7999996
 20
1118.9999852
 30
0.0
 40
21.0
  1
φ２５０
 50
0.0
 41
0.9
 51
0.0
  7
KANJI43
  0
TEXT
  8
0
  6
CONTINUOUS
 62
     3
 10
928.9999996
 20
841.6999852
 30
0.0
 40
21.0
  1
φ２１０
 50
90.0
 41
0.9
 51
0.0
  7
KANJI43
  0
TEXT
  8
0
  6
CONTINUOUS
 62
     3
 10
1329.5199996
 20
585.6999852
 30
0.0
 40
21.0
  1
１４９
 50
90.0
 41
0.9
 51
0.0
  7
KANJI43
  0
TEXT
  8
0
  6
CONTINUOUS
 62
     2
 10
1303.4999996
 20
667.6999852
 30
0.0
 40
21.0
  1
７５
 50
90.0
 41
0.9
 51
0.0
  7
KANJI43
  0
TEXT
  8
0
  6
CONTINUOUS
 62
     2
 10
817.8999996
 20
507.3999852
 30
0.0
 40
21.0
  1
ＬＳユニット
 50
0.0
 41
0.9
 51
0.0
  7
KANJI43
  0
LINE
  8
0
  6
CONTINUOUS
 62
     2
 10
927.976470188
 20
502.3999852
 30
0.0
 11
817.8999996
 21
502.3999852
 31
0.0
  0
LINE
  8
0
  6
CONTINUOUS
 62
     2
 10
949.0999996
 20
553.6999852
 30
0.0
 11
927.976470188
 21
502.3999852
 31
0.0
  0
LINE
  8
0
  6
LTYPE2
 62
     2
 10
899.976470188
 20
893.4999852
 30
0.0
 11
331.3999996
 21
893.4999852
 31
0.0
  0
TEXT
  8
0
  6
CONTINUOUS
 62
     2
 10
1270.208333333
 20
1688.03024
 30
1.12
 40
16.8
  1
ＭＣＬＦ４－　　２Ｌ
 50
0.0
 41
0.833333333
 51
0.0
  7
KANJI44
  0
TEXT
  8
0
  6
CONTINUOUS
 62
     2
 10
1270.208333333
 20
1651.163573333
 30
1.12
 40
16.8
  1
ＭＣＬＦ４－　　３Ｌ
 50
0.0
 41
0.833333333
 51
0.0
  7
KANJI44
  0
TEXT
  8
0
  6
CONTINUOUS
 62
     2
 10
1270.208333333
 20
1614.296906667
 30
1.12
 40
16.8
  1
ＭＣＬＦ４－　　４Ｌ
 50
0.0
 41
0.833333333
 51
0.0
  7
KANJI44
  0
TEXT
  8
0
  6
CONTINUOUS
 62
     2
 10
1270.208333333
 20
1577.43024
 30
1.12
 40
16.8
  1
ＭＣＬＦ４－　　５Ｌ
 50
0.0
 41
0.833333333
 51
0.0
  7
KANJI44
  0
TEXT
  8
0
  6
CONTINUOUS
 62
     2
 10
1270.208333333
 20
1540.563573333
 30
1.12
 40
16.8
  1
ＭＣＬＦ４－　　６Ｌ
 50
0.0
 41
0.833333333
 51
0.0
  7
KANJI44
  0
TEXT
  8
0
  6
CONTINUOUS
 62
     2
 10
1270.208333333
 20
1503.696906667
 30
1.12
 40
16.8
  1
ＭＣＬＦ４－　　７Ｌ
 50
0.0
 41
0.833333333
 51
0.0
  7
KANJI44
  0
TEXT
  8
0
  6
CONTINUOUS
 62
     2
 10
1270.208333333
 20
1466.83024
 30
1.12
 40
16.8
  1
ＭＣＬＦ４－　　８Ｌ
 50
0.0
 41
0.833333333
 51
0.0
  7
KANJI44
  0
TEXT
  8
0
  6
CONTINUOUS
 62
     2
 10
1270.208333333
 20
1429.963573333
 30
1.12
 40
16.8
  1
ＭＣＬＦ４－　　９Ｌ
 50
0.0
 41
0.833333333
 51
0.0
  7
KANJI44
  0
TEXT
  8
0
  6
CONTINUOUS
 62
     2
 10
1270.208333333
 20
1393.096906667
 30
1.12
 40
16.8
  1
ＭＣＬＦ４－　１０Ｌ
 50
0.0
 41
0.833333333
 51
0.0
  7
KANJI44
  0
TEXT
  8
0
  6
CONTINUOUS
 62
     2
 10
1270.208333333
 20
1356.23024
 30
1.12
 40
16.8
  1
ＭＣＬＦ４－　１１Ｌ
 50
0.0
 41
0.833333333
 51
0.0
  7
KANJI44
  0
TEXT
  8
0
  6
CONTINUOUS
 62
     2
 10
1270.208333333
 20
1319.363573333
 30
1.12
 40
16.8
  1
ＭＣＬＦ４－　１２Ｌ
 50
0.0
 41
0.833333333
 51
0.0
  7
KANJI44
  0
TEXT
  8
0
  6
CONTINUOUS
 62
     2
 10
1270.208333333
 20
1282.496906667
 30
1.12
 40
16.8
  1
ＭＣＬＦ４－　１３Ｌ
 50
0.0
 41
0.833333333
 51
0.0
  7
KANJI44
  0
TEXT
  8
0
  6
CONTINUOUS
 62
     2
 10
1270.208333333
 20
1245.63024
 30
1.12
 40
16.8
  1
ＭＣＬＦ４－　１４Ｌ
 50
0.0
 41
0.833333333
 51
0.0
  7
KANJI44
  0
TEXT
  8
0
  6
CONTINUOUS
 62
     2
 10
1270.208333333
 20
1208.763573333
 30
1.12
 40
16.8
  1
ＭＣＬＦ４－　１５Ｌ
 50
0.0
 41
0.833333333
 51
0.0
  7
KANJI44
  0
TEXT
  8
0
  6
CONTINUOUS
 62
     2
 10
1270.208333333
 20
1171.896906667
 30
1.12
 40
16.8
  1
ＭＣＬＦ４－　　　Ｌ
 50
0.0
 41
0.833333333
 51
0.0
  7
KANJI44
  0
TEXT
  8
0
  6
CONTINUOUS
 62
     2
 10
2072.408333333
 20
1688.45024
 30
1.68
 40
16.8
  1
１４１
 50
0.0
 41
0.9
 51
0.0
  7
KANJI26
  0
TEXT
  8
0
  6
CONTINUOUS
 62
     2
 10
2072.408333333
 20
1651.583573333
 30
1.68
 40
16.8
  1
１４５
 50
0.0
 41
0.9
 51
0.0
  7
KANJI26
  0
TEXT
  8
0
  6
CONTINUOUS
 62
     2
 10
2072.408333333
 20
1614.716906667
 30
1.68
 40
16.8
  1
１４９
 50
0.0
 41
0.9
 51
0.0
  7
KANJI26
  0
TEXT
  8
0
  6
CONTINUOUS
 62
     2
 10
2072.408333333
 20
1577.85024
 30
1.68
 40
16.8
  1
１５３
 50
0.0
 41
0.9
 51
0.0
  7
KANJI26
  0
TEXT
  8
0
  6
CONTINUOUS
 62
     2
 10
2072.408333333
 20
1540.983573333
 30
1.68
 40
16.8
  1
１５８
 50
0.0
 41
0.9
 51
0.0
  7
KANJI26
  0
TEXT
  8
0
  6
CONTINUOUS
 62
     2
 10
2072.408333333
 20
1504.116906667
 30
1.68
 40
16.8
  1
１６３
 50
0.0
 41
0.9
 51
0.0
  7
KANJI26
  0
TEXT
  8
0
  6
CONTINUOUS
 62
     2
 10
2072.408333333
 20
1467.25024
 30
1.68
 40
16.8
  1
１６７
 50
0.0
 41
0.9
 51
0.0
  7
KANJI26
  0
TEXT
  8
0
  6
CONTINUOUS
 62
     2
 10
2072.408333333
 20
1430.383573333
 30
1.68
 40
16.8
  1
１７１
 50
0.0
 41
0.9
 51
0.0
  7
KANJI26
  0
TEXT
  8
0
  6
CONTINUOUS
 62
     2
 10
2072.408333333
 20
1393.516906667
 30
1.68
 40
16.8
  1
１７６
 50
0.0
 41
0.9
 51
0.0
  7
KANJI26
  0
TEXT
  8
0
  6
CONTINUOUS
 62
     2
 10
2072.408333333
 20
1356.65024
 30
1.68
 40
16.8
  1
１８０
 50
0.0
 41
0.9
 51
0.0
  7
KANJI26
  0
TEXT
  8
0
  6
CONTINUOUS
 62
     2
 10
2072.408333333
 20
1319.783573333
 30
1.68
 40
16.8
  1
１８４
 50
0.0
 41
0.9
 51
0.0
  7
KANJI26
  0
TEXT
  8
0
  6
CONTINUOUS
 62
     2
 10
2072.408333333
 20
1282.916906667
 30
1.68
 40
16.8
  1
１８８
 50
0.0
 41
0.9
 51
0.0
  7
KANJI26
  0
TEXT
  8
0
  6
CONTINUOUS
 62
     2
 10
2072.408333333
 20
1246.05024
 30
1.68
 40
16.8
  1
１９２
 50
0.0
 41
0.9
 51
0.0
  7
KANJI26
  0
TEXT
  8
0
  6
CONTINUOUS
 62
     2
 10
2072.408333333
 20
1209.183573333
 30
1.68
 40
16.8
  1
１９７
 50
0.0
 41
0.9
 51
0.0
  7
KANJI26
  0
TEXT
  8
0
  6
CONTINUOUS
 62
     2
 10
2168.833333333
 20
293.833333333
 30
0.0
 40
24.5
  1
ＭＣＬＦ４－Ｌ
 50
0.0
 41
0.793650794
 51
0.0
  7
KANJI45
  0
TEXT
  8
0
  6
CONTINUOUS
 62
     2
 10
2302.766705633
 20
181.833326333
 30
15.166666667
 40
35.0
  1
３００１８３９
 50
0.0
 41
0.8
 51
0.0
  7
KANJI46
  0
TEXT
  8
0
  6
CONTINUOUS
 62
     2
 10
1940.166705633
 20
199.333326333
 30
7.0
 40
24.5
  1
岡田
 50
0.0
 41
0.857142857
 51
0.0
  7
KANJI47
  0
TEXT
  8
0
  6
CONTINUOUS
 62
     2
 10
1919.866705633
 20
148.233326333
 30
2.1
 40
24.5
  1
２００３．０７．１４
 50
0.0
 41
0.571428571
 51
0.0
  7
KANJI48
  0
TEXT
  8
0
  6
CONTINUOUS
 62
     2
 10
1940.166705633
 20
296.399985533
 30
7.0
 40
24.5
  1
田口
 50
0.0
 41
0.857142857
 51
0.0
  7
KANJI47
  0
TEXT
  8
0
  6
CONTINUOUS
 62
     2
 10
202.393333333
 20
30.983333333
 30
0.0
 40
21.0
  1
ＦＤ　Ｎｏ．ＭＣ２３１
 50
0.0
 41
0.9
 51
0.0
  7
KANJI16
  0
TEXT
  8
0
  6
CONTINUOUS
 62
     3
 10
1561.0499996
 20
543.017699523
 30
0.0
 40
21.0
  1
１５０
 50
0.0
 41
0.9
 51
0.0
  7
KANJI43
  0
TEXT
  8
0
  6
CONTINUOUS
 62
     2
 10
1107.0999996
 20
476.4999852
 30
-3.5
 40
21.0
  1
ｍｉｎ
 50
0.0
 41
0.833333333
 51
0.0
  7
KANJI49
  0
LINE
  8
0
  6
LTYPE2
 62
     2
 10
394.5999996
 20
928.4999852
 30
0.0
 11
340.5999996
 21
928.4999852
 31
0.0
  0
LINE
  8
0
  6
CONTINUOUS
 62
     1
 10
350.900090987
 20
938.943792539
 30
0.0
 11
352.85568071
 21
942.330973298
 31
0.0
  0
LINE
  8
0
  6
CONTINUOUS
 62
     1
 10
350.900090987
 20
928.4999852
 30
0.0
 11
350.900090987
 21
938.943792539
 31
0.0
  0
LINE
  8
0
  6
CONTINUOUS
 62
     1
 10
350.900090987
 20
918.056177861
 30
0.0
 11
352.85568071
 21
914.668997102
 31
0.0
  0
LINE
  8
0
  6
CONTINUOUS
 62
     1
 10
350.900090987
 20
928.4999852
 30
0.0
 11
350.900090987
 21
918.056177861
 31
0.0
  0
ARC
  8
0
  6
CONTINUOUS
 62
     1
 10
364.105414298
 20
928.4999852
 30
0.0
 40
13.20532331
 50
148.419912243
 51
211.580087757
  0
ARC
  8
0
  6
CONTINUOUS
 62
     1
 10
354.933494791
 20
938.873226273
 30
0.0
 40
4.034021051
 50
177.010501597
 51
238.997686085
  0
LINE
  8
0
  6
CONTINUOUS
 62
     1
 10
350.900090987
 20
918.056177861
 30
0.0
 11
352.85568071
 21
914.668997102
 31
0.0
  0
ARC
  8
0
  6
CONTINUOUS
 62
     1
 10
354.933494791
 20
918.126744127
 30
0.0
 40
4.034021051
 50
121.002313915
 51
182.989498403
  0
LINE
  8
0
  6
CONTINUOUS
 62
     1
 10
360.8999996
 20
942.330973298
 30
0.0
 11
352.85568071
 21
942.330973298
 31
0.0
  0
LINE
  8
0
  6
CONTINUOUS
 62
     1
 10
360.8999996
 20
935.415479249
 30
0.0
 11
352.85568071
 21
935.415479249
 31
0.0
  0
LINE
  8
0
  6
CONTINUOUS
 62
     1
 10
360.8999996
 20
921.584491151
 30
0.0
 11
352.85568071
 21
921.584491151
 31
0.0
  0
LINE
  8
0
  6
CONTINUOUS
 62
     1
 10
360.8999996
 20
914.668997102
 30
0.0
 11
352.85568071
 21
914.668997102
 31
0.0
  0
LINE
  8
0
  6
CONTINUOUS
 62
     1
 10
360.8999996
 20
943.4999852
 30
0.0
 11
360.8999996
 21
929.668997102
 31
0.0
  0
LINE
  8
0
  6
CONTINUOUS
 62
     1
 10
360.8999996
 20
579.4999852
 30
0.0
 11
360.8999996
 21
948.4999852
 31
0.0
  0
LINE
  8
0
  6
CONTINUOUS
 62
     1
 10
378.8999996
 20
948.4999852
 30
0.0
 11
378.8999996
 21
579.4999852
 31
0.0
  0
ARC
  8
0
  6
CONTINUOUS
 62
     1
 10
411.8999996
 20
953.4999852
 30
0.0
 40
5.0
 50
270.0
 51
0.000123638
  0
ARC
  8
0
  6
CONTINUOUS
 62
     1
 10
481.8999996
 20
953.4999852
 30
0.0
 40
5.0
 50
270.000107075
 51
0.0
  0
LINE
  8
0
  6
CONTINUOUS
 62
     1
 10
481.900008944
 20
948.4999852
 30
0.0
 11
360.8999996
 21
948.4999852
 31
0.0
  0
LINE
  8
0
  6
CONTINUOUS
 62
     1
 10
416.8999996
 20
953.49999599
 30
0.0
 11
416.8999996
 21
998.4999852
 31
0.0
  0
LINE
  8
0
  6
CONTINUOUS
 62
     1
 10
486.8999996
 20
998.4999852
 30
0.0
 11
416.8999996
 21
998.4999852
 31
0.0
  0
LINE
  8
0
  6
LTYPE5
 62
     2
 10
446.8999996
 20
991.9999852
 30
0.0
 11
446.8999996
 21
1060.9999852
 31
0.0
  0
LINE
  8
0
  6
LTYPE5
 62
     2
 10
412.3999996
 20
1026.4999852
 30
0.0
 11
481.3999996
 21
1026.4999852
 31
0.0
  0
CIRCLE
  8
0
  6
CONTINUOUS
 62
     1
 10
446.8999996
 20
1026.4999852
 30
0.0
 40
17.5
  0
ARC
  8
0
  6
CONTINUOUS
 62
     1
 10
446.8999996
 20
1026.4999852
 30
0.0
 40
30.0
 50
54.4
 51
234.4
  0
ARC
  8
0
  6
CONTINUOUS
 62
     1
 10
459.1999996
 20
1005.4999852
 30
0.0
 40
2.0
 50
4.7
 51
90.0
  0
ARC
  8
0
  6
CONTINUOUS
 62
     1
 10
434.5999996
 20
1005.4999852
 30
0.0
 40
2.0
 50
90.0
 51
175.3
  0
LINE
  8
0
  6
CONTINUOUS
 62
     1
 10
434.5999996
 20
1007.4999852
 30
0.0
 11
459.1999996
 21
1007.4999852
 31
0.0
  0
LINE
  8
0
  6
CONTINUOUS
 62
     1
 10
446.8999996
 20
1008.9999852
 30
0.0
 11
434.5999996
 21
1007.4999852
 31
0.0
  0
LINE
  8
0
  6
CONTINUOUS
 62
     1
 10
446.8999996
 20
1008.9999852
 30
0.0
 11
459.1999996
 21
1007.4999852
 31
0.0
  0
ARC
  8
0
  6
CONTINUOUS
 62
     1
 10
467.6999996
 20
997.1999852
 30
0.0
 40
6.0
 50
122.8
 51
172.9
  0
ARC
  8
0
  6
CONTINUOUS
 62
     1
 10
426.0999996
 20
997.1999852
 30
0.0
 40
6.0
 50
6.4
 51
55.9
  0
ARC
  8
0
  6
CONTINUOUS
 62
     1
 10
446.8999996
 20
1026.4999852
 30
0.0
 40
30.0
 50
305.9
 51
54.4
  0
LINE
  8
0
  6
CONTINUOUS
 62
     1
 10
461.1999996
 20
1005.6999852
 30
0.0
 11
461.747825687
 21
998.4999852
 31
0.0
  0
LINE
  8
0
  6
CONTINUOUS
 62
     1
 10
432.052173513
 20
998.4999852
 30
0.0
 11
432.5999996
 21
1005.6999852
 31
0.0
  0
LINE
  8
0
  6
CONTINUOUS
 62
     1
 10
350.8999996
 20
840.9999852
 30
0.0
 11
350.8999996
 21
945.9999852
 31
0.0
  0
LINE
  8
0
  6
CONTINUOUS
 62
     1
 10
360.8999996
 20
945.9999852
 30
0.0
 11
350.8999996
 21
945.9999852
 31
0.0
  0
LINE
  8
0
  6
CONTINUOUS
 62
     1
 10
346.8999996
 20
868.4999852
 30
0.0
 11
346.8999996
 21
918.4999852
 31
0.0
  0
LINE
  8
0
  6
CONTINUOUS
 62
     1
 10
350.8999996
 20
918.4999852
 30
0.0
 11
300.8999996
 21
918.4999852
 31
0.0
  0
LINE
  8
0
  6
CONTINUOUS
 62
     1
 10
360.8999996
 20
840.9999852
 30
0.0
 11
350.8999996
 21
840.9999852
 31
0.0
  0
LINE
  8
0
  6
CONTINUOUS
 62
     1
 10
300.8999996
 20
868.4999852
 30
0.0
 11
300.8999996
 21
918.4999852
 31
0.0
  0
LINE
  8
0
  6
CONTINUOUS
 62
     1
 10
350.8999996
 20
868.4999852
 30
0.0
 11
300.8999996
 21
868.4999852
 31
0.0
  0
LINE
  8
0
  6
CONTINUOUS
 62
     2
 10
321.3999996
 20
918.4999852
 30
0.0
 11
320.100270871
 21
935.951652892
 31
0.0
  0
LINE
  8
0
  6
CONTINUOUS
 62
     2
 10
321.3999996
 20
918.4999852
 30
0.0
 11
311.548567657
 21
932.963708395
 31
0.0
  0
LINE
  8
0
  6
CONTINUOUS
 62
     2
 10
321.3999996
 20
918.4999852
 30
0.0
 11
292.3999996
 21
1001.4999852
 31
0.0
  0
TEXT
  8
7
  6
CONTINUOUS
 62
     2
 10
174.164355823
 20
972.0999852
 30
0.0
 40
21.0
  1
手動軸□１４
 50
0.0
 41
0.9
 51
0.0
  7
KANJI16
  0
ARC
  8
0
  6
CONTINUOUS
 62
     2
 10
263.8999996
 20
893.8999852
 30
0.0
 40
20.0
 50
231.952957468
 51
156.801409486
  0
LINE
  8
0
  6
CONTINUOUS
 62
     2
 10
245.517099
 20
901.778371172
 30
0.0
 11
247.81179171
 21
911.615809949
 31
0.0
  0
LINE
  8
0
  6
CONTINUOUS
 62
     2
 10
245.517099
 20
901.778371172
 30
0.0
 11
253.785260378
 21
906.685707707
 31
0.0
  0
TEXT
  8
0
  6
CONTINUOUS
 62
     2
 10
183.517099
 20
884.778371172
 30
0.0
 40
15.0
  1
前進方向
 50
0.0
 41
0.9
 51
0.0
  7
KANJI37
  0
TEXT
  8
0
  6
CONTINUOUS
 62
     3
 10
172.9999996
 20
1004.9999852
 30
0.0
 40
21.0
  1
手動軸カバー
 50
0.0
 41
0.9
 51
0.0
  7
KANJI43
  0
LINE
  8
0
  6
CONTINUOUS
 62
     2
 10
292.3999996
 20
1001.4999852
 30
0.0
 11
166.3999996
 21
1001.4999852
 31
0.0
  0
LINE
  8
0
  6
CONTINUOUS
 62
     2
 10
486.8999996
 20
1134.2749852
 30
0.0
 11
469.99629764
 21
1138.804318489
 31
0.0
  0
LINE
  8
0
  6
CONTINUOUS
 62
     2
 10
486.8999996
 20
1134.2749852
 30
0.0
 11
469.99629764
 21
1129.745651911
 31
0.0
  0
LINE
  8
0
  6
CONTINUOUS
 62
     2
 10
486.8999996
 20
1134.2749852
 30
0.0
 11
300.8999996
 21
1134.2749852
 31
0.0
  0
LINE
  8
0
  6
CONTINUOUS
 62
     2
 10
300.8999996
 20
1134.2749852
 30
0.0
 11
317.80370156
 21
1129.745651911
 31
0.0
  0
LINE
  8
0
  6
CONTINUOUS
 62
     2
 10
300.8999996
 20
1134.2749852
 30
0.0
 11
317.80370156
 21
1138.804318489
 31
0.0
  0
LINE
  8
0
  6
CONTINUOUS
 62
     2
 10
300.8999996
 20
925.4999852
 30
0.0
 11
300.8999996
 21
1141.2749852
 31
0.0
  0
TEXT
  8
0
  6
CONTINUOUS
 62
     3
 10
355.0499996
 20
1137.7749852
 30
0.0
 40
21.0
  1
１８６
 50
0.0
 41
0.9
 51
0.0
  7
KANJI43
  0
LINE
  8
0
  6
CONTINUOUS
 62
     2
 10
2182.833333333
 20
1046.333333333
 30
0.0
 11
2795.333333333
 21
1046.333333333
 31
0.0
  0
LINE
  8
0
  6
CONTINUOUS
 62
     2
 10
2182.833333333
 20
997.333333333
 30
0.0
 11
2795.333333333
 21
997.333333333
 31
0.0
  0
LINE
  8
0
  6
CONTINUOUS
 62
     2
 10
2238.833333333
 20
1438.333333333
 30
0.0
 11
2238.833333333
 21
1046.333333333
 31
0.0
  0
TEXT
  8
0
  6
CONTINUOUS
 62
     2
 10
2221.333333333
 20
1009.933333333
 30
93.29
 40
26.6
  1
付属品
 50
0.0
 41
0.9
 51
0.0
  7
KANJI50
  0
TEXT
  8
0
  6
CONTINUOUS
 62
     2
 10
2221.333333333
 20
960.933333333
 30
210.52
 40
26.6
  1
台数
 50
0.0
 41
0.9
 51
0.0
  7
KANJI51
  0
LINE
  8
0
  6
CONTINUOUS
 62
     1
 10
2182.833333333
 20
1900.333333333
 30
0.0
 11
2795.333333333
 21
1900.333333333
 31
0.0
  0
TEXT
  8
0
  6
CONTINUOUS
 62
     2
 10
2270.333333333
 20
1849.233333333
 30
19.94958
 40
31.5
  1
マイティシリンダ仕様
 50
0.0
 41
0.9
 51
0.0
  7
KANJI52
  0
LINE
  8
0
  6
CONTINUOUS
 62
     2
 10
2238.833333333
 20
1095.333333333
 30
0.0
 11
2795.333333333
 21
1095.333333333
 31
0.0
  0
LINE
  8
0
  6
CONTINUOUS
 62
     2
 10
2238.833333333
 20
1242.333333333
 30
0.0
 11
2795.333333333
 21
1242.333333333
 31
0.0
  0
LINE
  8
0
  6
CONTINUOUS
 62
     2
 10
2238.833333333
 20
1291.333333333
 30
0.0
 11
2795.333333333
 21
1291.333333333
 31
0.0
  0
LINE
  8
0
  6
CONTINUOUS
 62
     2
 10
2182.833333333
 20
1536.333333333
 30
0.0
 11
2795.333333333
 21
1536.333333333
 31
0.0
  0
LINE
  8
0
  6
CONTINUOUS
 62
     2
 10
2182.833333333
 20
1487.333333333
 30
0.0
 11
2795.333333333
 21
1487.333333333
 31
0.0
  0
LINE
  8
0
  6
CONTINUOUS
 62
     2
 10
2182.833333333
 20
1438.333333333
 30
0.0
 11
2795.333333333
 21
1438.333333333
 31
0.0
  0
LINE
  8
0
  6
CONTINUOUS
 62
     2
 10
2238.833333333
 20
1340.333333333
 30
0.0
 11
2795.333333333
 21
1340.333333333
 31
0.0
  0
LINE
  8
0
  6
CONTINUOUS
 62
     2
 10
2238.833333333
 20
1389.333333333
 30
0.0
 11
2795.333333333
 21
1389.333333333
 31
0.0
  0
LINE
  8
0
  6
CONTINUOUS
 62
     2
 10
2182.833333333
 20
1781.333333333
 30
0.0
 11
2795.333333333
 21
1781.333333333
 31
0.0
  0
LINE
  8
0
  6
CONTINUOUS
 62
     2
 10
2182.833333333
 20
1732.333333333
 30
0.0
 11
2795.333333333
 21
1732.333333333
 31
0.0
  0
LINE
  8
0
  6
CONTINUOUS
 62
     2
 10
2182.833333333
 20
1683.333333333
 30
0.0
 11
2795.333333333
 21
1683.333333333
 31
0.0
  0
LINE
  8
0
  6
CONTINUOUS
 62
     2
 10
2182.833333333
 20
1634.333333333
 30
0.0
 11
2795.333333333
 21
1634.333333333
 31
0.0
  0
LINE
  8
0
  6
CONTINUOUS
 62
     2
 10
2182.833333333
 20
1585.333333333
 30
0.0
 11
2795.333333333
 21
1585.333333333
 31
0.0
  0
LINE
  8
0
  6
CONTINUOUS
 62
     2
 10
2182.833333333
 20
1830.333333333
 30
0.0
 11
2795.333333333
 21
1830.333333333
 31
0.0
  0
TEXT
  8
0
  6
CONTINUOUS
 62
     2
 10
2270.333333333
 20
1352.933333333
 30
39.01308
 40
26.6
  1
電源電圧
 50
0.0
 41
0.9
 51
0.0
  7
KANJI53
  0
TEXT
  8
0
  6
CONTINUOUS
 62
     2
 10
2270.333333333
 20
1303.933333333
 30
70.49
 40
26.6
  1
周波数
 50
0.0
 41
0.9
 51
0.0
  7
KANJI54
  0
TEXT
  8
0
  6
CONTINUOUS
 62
     2
 10
2270.333333333
 20
1254.933333333
 30
164.92
 40
26.6
  1
電流
 50
0.0
 41
0.9
 51
0.0
  7
KANJI55
  0
TEXT
  8
0
  6
CONTINUOUS
 62
     2
 10
2270.333333333
 20
1205.933333333
 30
70.49
 40
26.6
  1
絶縁級
 50
0.0
 41
0.9
 51
0.0
  7
KANJI54
  0
TEXT
  8
0
  6
CONTINUOUS
 62
     2
 10
2221.333333333
 20
1793.933333333
 30
210.52
 40
26.6
  1
形式
 50
0.0
 41
0.9
 51
0.0
  7
KANJI51
  0
TEXT
  8
0
  6
CONTINUOUS
 62
     2
 10
2221.333333333
 20
1744.933333333
 30
210.52
 40
26.6
  1
推力
 50
0.0
 41
0.9
 51
0.0
  7
KANJI51
  0
TEXT
  8
0
  6
CONTINUOUS
 62
     2
 10
2221.333333333
 20
1695.933333333
 30
34.675
 40
26.6
  1
ストローク
 50
0.0
 41
0.9
 51
0.0
  7
KANJI56
  0
TEXT
  8
0
  6
CONTINUOUS
 62
     2
 10
2221.333333333
 20
1548.933333333
 30
210.52
 40
26.6
  1
構造
 50
0.0
 41
0.9
 51
0.0
  7
KANJI51
  0
TEXT
  8
0
  6
CONTINUOUS
 62
     2
 10
2221.333333333
 20
1499.933333333
 30
15.13616
 40
26.6
  1
過負荷安全装置
 50
0.0
 41
0.9
 51
0.0
  7
KANJI57
  0
TEXT
  8
0
  6
CONTINUOUS
 62
     2
 10
2221.333333333
 20
1450.933333333
 30
93.29
 40
26.6
  1
塗装色
 50
0.0
 41
0.9
 51
0.0
  7
KANJI50
  0
TEXT
  8
0
  6
CONTINUOUS
 62
     2
 10
2193.333333333
 20
1597.933333333
 30
2.28
 40
26.6
  1
ピストンロッド回転トルク
 50
0.0
 41
0.9
 51
0.0
  7
KANJI58
  0
LINE
  8
0
  6
CONTINUOUS
 62
     2
 10
2182.833333333
 20
1193.333333333
 30
0.0
 11
2795.333333333
 21
1193.333333333
 31
0.0
  0
LINE
  8
0
  6
CONTINUOUS
 62
     2
 10
2238.833333333
 20
1144.333333333
 30
0.0
 11
2795.333333333
 21
1144.333333333
 31
0.0
  0
TEXT
  8
0
  6
CONTINUOUS
 62
     2
 10
2211.358333333
 20
1431.333333333
 30
15.4
 40
24.5
  1
モ　トル仕様
 50
0.0
 41
0.9
 51
0.0
  7
KANJI59
  0
TEXT
  8
0
  6
CONTINUOUS
 62
     2
 10
2211.358333333
 20
1172.333333333
 30
1.4
 40
24.5
  1
ブレ　キ
 50
0.0
 41
0.9
 51
0.0
  7
KANJI60
  0
LINE
  8
0
  6
CONTINUOUS
 62
     2
 10
2209.433333333
 20
1114.233333333
 30
0.0
 11
2209.433333333
 21
1099.533333333
 31
0.0
  0
TEXT
  8
0
  6
CONTINUOUS
 62
     2
 10
2573.083333333
 20
1501.333333333
 30
10.5
 40
24.5
  1
推力リミッタ
 50
0.0
 41
0.9
 51
0.0
  7
KANJI61
  0
TEXT
  8
0
  6
CONTINUOUS
 62
     2
 10
2639.583333333
 20
1207.333333333
 30
2.1
 40
21.0
  1
Ｅ
 50
0.0
 41
0.9
 51
0.0
  7
KANJI62
  0
TEXT
  8
0
  6
CONTINUOUS
 62
     2
 10
2270.333333333
 20
1156.933333333
 30
164.92
 40
26.6
  1
形式
 50
0.0
 41
0.9
 51
0.0
  7
KANJI55
  0
TEXT
  8
0
  6
CONTINUOUS
 62
     2
 10
2270.333333333
 20
1107.933333333
 30
39.01308
 40
26.6
  1
操作方式
 50
0.0
 41
0.9
 51
0.0
  7
KANJI53
  0
LINE
  8
0
  6
CONTINUOUS
 62
     2
 10
2209.433333333
 20
1388.633333333
 30
0.0
 11
2209.433333333
 21
1372.533333333
 31
0.0
  0
TEXT
  8
0
  6
CONTINUOUS
 62
     2
 10
2270.333333333
 20
1401.933333333
 30
3.5
 40
26.6
  1
出力　相数　極数
 50
0.0
 41
0.9
 51
0.0
  7
KANJI63
  0
TEXT
  8
0
  6
CONTINUOUS
 62
     2
 10
2221.333333333
 20
1646.933333333
 30
14.0
 40
26.6
  1
公称速度
 50
0.0
 41
0.9
 51
0.0
  7
KANJI64
  0
TEXT
  8
0
  6
CONTINUOUS
 62
     2
 10
2365.883333333
 20
1645.533333333
 30
0.0
 40
24.5
  1
（５０／６０Ｈｚ）
 50
0.0
 41
0.628571429
 51
0.0
  7
KANJI65
  0
TEXT
  8
0
  6
CONTINUOUS
 62
     2
 10
2506.583333333
 20
1157.458333333
 30
3.85
 40
23.8
  1
スプリング制動式電磁ブレーキ
 50
0.0
 41
0.705882353
 51
0.0
  7
KANJI66
  0
TEXT
  8
0
  6
CONTINUOUS
 62
     2
 10
2762.083333333
 20
1352.933333333
 30
0.252
 40
21.0
  1
Ｖ
 50
0.0
 41
0.8
 51
0.0
  7
KANJI67
  0
TEXT
  8
0
  6
CONTINUOUS
 62
     2
 10
2749.483333333
 20
1303.933333333
 30
0.252
 40
21.0
  1
Ｈｚ
 50
0.0
 41
0.8
 51
0.0
  7
KANJI67
  0
TEXT
  8
0
  6
CONTINUOUS
 62
     2
 10
2762.083333333
 20
1254.933333333
 30
0.252
 40
21.0
  1
Ａ
 50
0.0
 41
0.8
 51
0.0
  7
KANJI67
  0
TEXT
  8
0
  6
CONTINUOUS
 62
     2
 10
2670.033333333
 20
1403.333333333
 30
2.1
 40
21.0
  1
３φ
 50
0.0
 41
0.9
 51
0.0
  7
KANJI62
  0
TEXT
  8
0
  6
CONTINUOUS
 62
     2
 10
2740.033333333
 20
1403.333333333
 30
2.1
 40
21.0
  1
４Ｐ
 50
0.0
 41
0.9
 51
0.0
  7
KANJI62
  0
TEXT
  8
0
  6
CONTINUOUS
 62
     2
 10
2504.833333333
 20
1452.333333333
 30
1.4
 40
22.4
  1
マンセル　７．５ＧＹ　５／４．５
 50
0.0
 41
0.71875
 51
0.0
  7
KANJI68
  0
TEXT
  8
0
  6
CONTINUOUS
 62
     2
 10
2504.833333333
 20
1354.333333333
 30
2.1
 40
21.0
  1
　　　　　　　／　　　
 50
0.0
 41
0.9
 51
0.0
  7
KANJI62
  0
TEXT
  8
0
  6
CONTINUOUS
 62
     2
 10
2504.833333333
 20
1305.333333333
 30
2.1
 40
21.0
  1
　　　　５０／　６０
 50
0.0
 41
0.9
 51
0.0
  7
KANJI62
  0
TEXT
  8
0
  6
CONTINUOUS
 62
     2
 10
2504.833333333
 20
1256.333333333
 30
2.1
 40
21.0
  1
　　　　　　　／　　　
 50
0.0
 41
0.9
 51
0.0
  7
KANJI62
  0
TEXT
  8
0
  6
CONTINUOUS
 62
     2
 10
2743.533333333
 20
1698.733333333
 30
0.1792
 40
22.4
  1
ｍｍ
 50
0.0
 41
0.8
 51
0.0
  7
KANJI69
  0
TEXT
  8
0
  6
CONTINUOUS
 62
     2
 10
2573.083333333
 20
1550.333333333
 30
10.5
 40
24.5
  1
全閉屋内形
 50
0.0
 41
0.9
 51
0.0
  7
KANJI61
  0
TEXT
  8
0
  6
CONTINUOUS
 62
     2
 10
2698.033333333
 20
1648.333333333
 30
0.0
 40
24.5
  1
ｍｍ／ｓｅｃ
 50
0.0
 41
0.571428571
 51
0.0
  7
KANJI70
  0
TEXT
  8
0
  6
CONTINUOUS
 62
     2
 10
2555.933333333
 20
1746.333333333
 30
2.1
 40
21.0
  1
３９．２ＫＮ（４ｔｏｎ）
 50
0.0
 41
0.9
 51
0.0
  7
KANJI62
  0
TEXT
  8
0
  6
CONTINUOUS
 62
     2
 10
2508.333333333
 20
1648.333333333
 30
2.1
 40
21.0
  1
３６．２／４３．４
 50
0.0
 41
0.9
 51
0.0
  7
KANJI62
  0
TEXT
  8
0
  6
CONTINUOUS
 62
     2
 10
2511.833333333
 20
1403.333333333
 30
2.1
 40
21.0
  1
　２．２ＫＷ
 50
0.0
 41
0.9
 51
0.0
  7
KANJI62
  0
TEXT
  8
0
  6
CONTINUOUS
 62
     2
 10
2520.583333333
 20
1792.883333333
 30
1.4
 40
21.0
  1
ＭＣＬＦ４－　Ｌ
 50
0.0
 41
0.833333333
 51
0.0
  7
KANJI71
  0
TEXT
  8
0
  6
CONTINUOUS
 62
     2
 10
2522.333333333
 20
1599.333333333
 30
0.0
 40
21.0
  1
　７８Ｎ・ｍ（８ｋｇ・ｍ）
 50
0.0
 41
0.833333333
 51
0.0
  7
KANJI72
  0
LINE
  8
0
  6
CONTINUOUS
 62
     2
 10
2182.833333333
 20
948.333333333
 30
0.0
 11
2795.333333333
 21
948.333333333
 31
0.0
  0
TEXT
  8
0
  6
CONTINUOUS
 62
     2
 10
955.9000496
 20
1070.7750352
 30
0.0
 40
21.0
  1
ブレーキ開放装置
 50
0.0
 41
0.9
 51
0.0
  7
KANJI43
  0
LINE
  8
0
  6
LTYPE2
 62
     2
 10
981.9999996
 20
196.133959796
 30
0.0
 11
981.9999996
 21
633.5999852
 31
0.0
  0
ARC
  8
0
  6
CONTINUOUS
 62
     1
 10
926.9999996
 20
320.733959796
 30
0.0
 40
10.0
 50
90.0
 51
180.0
  0
LINE
  8
0
  6
CONTINUOUS
 62
     1
 10
926.9999996
 20
330.733959796
 30
0.0
 11
1036.9999996
 21
330.733959796
 31
0.0
  0
ARC
  8
0
  6
CONTINUOUS
 62
     1
 10
1036.9999996
 20
320.733959796
 30
0.0
 40
10.0
 50
0.0
 51
90.0
  0
LINE
  8
0
  6
CONTINUOUS
 62
     2
 10
921.00001039
 20
330.733959796
 30
0.0
 11
864.0
 21
330.733959796
 31
0.0
  0
LINE
  8
0
  6
CONTINUOUS
 62
     2
 10
870.0
 20
330.733959796
 30
0.0
 11
866.894171459
 21
319.142849881
 31
0.0
  0
LINE
  8
0
  6
CONTINUOUS
 62
     2
 10
870.0
 20
330.733959796
 30
0.0
 11
873.105828541
 21
319.142849881
 31
0.0
  0
LINE
  8
0
  6
CONTINUOUS
 62
     2
 10
870.0
 20
330.733959796
 30
0.0
 11
870.0
 21
165.733959796
 31
0.0
  0
LINE
  8
0
  6
CONTINUOUS
 62
     1
 10
965.9999996
 20
264.233959796
 30
0.0
 11
997.9999996
 21
264.233959796
 31
0.0
  0
LINE
  8
0
  6
CONTINUOUS
 62
     1
 10
965.9999996
 20
232.233959796
 30
0.0
 11
965.9999996
 21
264.233959796
 31
0.0
  0
LINE
  8
0
  6
LTYPE3
 62
     2
 10
1048.261020817
 20
306.233959796
 30
0.0
 11
956.9999996
 21
306.233959796
 31
0.0
  0
LINE
  8
0
  6
CONTINUOUS
 62
     1
 10
997.9999996
 20
232.233959796
 30
0.0
 11
965.9999996
 21
232.233959796
 31
0.0
  0
ARC
  8
0
  6
CONTINUOUS
 62
     1
 10
924.9999996
 20
228.233959796
 30
0.0
 40
4.0
 50
356.983042101
 51
183.016952287
  0
ARC
  8
0
  6
CONTINUOUS
 62
     1
 10
924.9999996
 20
228.233959796
 30
0.0
 40
8.75
 50
300.219855722
 51
239.780144278
  0
LINE
  8
0
  6
LTYPE3
 62
     2
 10
924.9999996
 20
181.133959796
 30
0.0
 11
924.9999996
 21
238.633959796
 31
0.0
  0
LINE
  8
0
  6
CONTINUOUS
 62
     1
 10
916.9999996
 20
240.233959796
 30
0.0
 11
916.9999996
 21
231.778321516
 31
0.0
  0
LINE
  8
0
  6
CONTINUOUS
 62
     1
 10
900.620942583
 20
240.233959796
 30
0.0
 11
965.9999996
 21
240.233959796
 31
0.0
  0
LINE
  8
0
  6
CONTINUOUS
 62
     1
 10
965.9999996
 20
256.233959796
 30
0.0
 11
900.690577563
 21
256.233959796
 31
0.0
  0
ARC
  8
0
  6
CONTINUOUS
 62
     1
 10
906.245468178
 20
252.233959796
 30
0.0
 40
6.845203412
 50
144.242860688
 51
215.757139312
  0
ARC
  8
0
  6
CONTINUOUS
 62
     1
 10
895.135686947
 20
252.233959796
 30
0.0
 40
6.845203412
 50
324.242860688
 51
35.757139312
  0
ARC
  8
0
  6
CONTINUOUS
 62
     1
 10
895.135686947
 20
244.233959796
 30
0.0
 40
6.845203412
 50
324.242860688
 51
35.757139312
  0
LINE
  8
0
  6
LTYPE2
 62
     2
 10
1130.4999996
 20
248.233959796
 30
0.0
 11
895.655760073
 21
248.233959796
 31
0.0
  0
LINE
  8
7
  6
CONTINUOUS
 62
     2
 10
960.5999996
 20
306.233959796
 30
0.0
 11
952.29152171
 21
300.668962477
 31
0.0
  0
LINE
  8
7
  6
CONTINUOUS
 62
     2
 10
960.5999996
 20
306.233959796
 30
0.0
 11
956.18714534
 21
297.260291801
 31
0.0
  0
LINE
  8
7
  6
CONTINUOUS
 62
     2
 10
960.5999996
 20
306.233959796
 30
0.0
 11
949.3999996
 21
293.433959796
 31
0.0
  0
LINE
  8
7
  6
CONTINUOUS
 62
     2
 10
949.3999996
 20
293.433959796
 30
0.0
 11
890.5999996
 21
293.433959796
 31
0.0
  0
TEXT
  8
7
  6
CONTINUOUS
 62
     2
 10
890.5999996
 20
297.433959796
 30
1.2
 40
12.0
  1
ＰＦ１／２
 50
0.0
 41
0.9
 51
0.0
  7
KANJI73
  0
LINE
  8
0
  6
CONTINUOUS
 62
     1
 10
916.9999996
 20
310.433959796
 30
0.0
 11
916.9999996
 21
320.733959796
 31
0.0
  0
LINE
  8
0
  6
CONTINUOUS
 62
     1
 10
916.9999996
 20
256.233959796
 30
0.0
 11
916.9999996
 21
290.433959796
 31
0.0
  0
LINE
  8
0
  6
LTYPE3
 62
     2
 10
972.0399996
 20
321.333959796
 30
0.0
 11
960.5999996
 21
321.333959796
 31
0.0
  0
LINE
  8
0
  6
LTYPE3
 62
     2
 10
965.5999996
 20
325.233959796
 30
0.0
 11
965.5999996
 21
316.253959796
 31
0.0
  0
LINE
  8
0
  6
CONTINUOUS
 62
     1
 10
1027.2999996
 20
326.233959796
 30
0.0
 11
962.5999996
 21
326.233959796
 31
0.0
  0
LINE
  8
0
  6
CONTINUOUS
 62
     1
 10
960.5999996
 20
324.233959796
 30
0.0
 11
960.5999996
 21
288.233959796
 31
0.0
  0
ARC
  8
0
  6
CONTINUOUS
 62
     1
 10
962.5999996
 20
324.233959796
 30
0.0
 40
2.0
 50
90.0
 51
180.0
  0
LINE
  8
0
  6
LTYPE3
 62
     2
 10
971.4999996
 20
291.133959796
 30
0.0
 11
960.5999996
 21
291.133959796
 31
0.0
  0
LINE
  8
0
  6
LTYPE3
 62
     2
 10
965.5999996
 20
297.153959796
 30
0.0
 11
965.5999996
 21
287.233959796
 31
0.0
  0
LINE
  8
0
  6
CONTINUOUS
 62
     1
 10
1027.2999996
 20
286.233959796
 30
0.0
 11
962.5999996
 21
286.233959796
 31
0.0
  0
ARC
  8
0
  6
CONTINUOUS
 62
     1
 10
962.5999996
 20
288.233959796
 30
0.0
 40
2.0
 50
180.0
 51
270.0
  0
LINE
  8
0
  6
CONTINUOUS
 62
     1
 10
997.9999996
 20
232.233959796
 30
0.0
 11
997.9999996
 21
264.233959796
 31
0.0
  0
LINE
  8
0
  6
CONTINUOUS
 62
     1
 10
997.9999996
 20
256.233959796
 30
0.0
 11
1053.4999996
 21
256.233959796
 31
0.0
  0
LINE
  8
0
  6
CONTINUOUS
 62
     1
 10
1053.4999996
 20
240.233959796
 30
0.0
 11
997.9999996
 21
240.233959796
 31
0.0
  0
LINE
  8
0
  6
CONTINUOUS
 62
     1
 10
1046.9999996
 20
318.933959796
 30
0.0
 11
1046.9999996
 21
320.733959796
 31
0.0
  0
LINE
  8
0
  6
CONTINUOUS
 62
     1
 10
1046.9999996
 20
271.778321516
 30
0.0
 11
1046.9999996
 21
293.583959796
 31
0.0
  0
LINE
  8
0
  6
CONTINUOUS
 62
     1
 10
1046.9999996
 20
256.233959796
 30
0.0
 11
1046.9999996
 21
264.689598077
 31
0.0
  0
LINE
  8
0
  6
CONTINUOUS
 62
     1
 10
1053.4999996
 20
238.233959796
 30
0.0
 11
1053.4999996
 21
258.233959796
 31
0.0
  0
LINE
  8
0
  6
CONTINUOUS
 62
     1
 10
1053.4999996
 20
258.233959796
 30
0.0
 11
1067.356406061
 21
266.233959796
 31
0.0
  0
LINE
  8
0
  6
CONTINUOUS
 62
     1
 10
1053.4999996
 20
238.233959796
 30
0.0
 11
1067.356406061
 21
230.233959796
 31
0.0
  0
LINE
  8
0
  6
CONTINUOUS
 62
     1
 10
1067.356406061
 20
230.233959796
 30
0.0
 11
1067.356406061
 21
266.233959796
 31
0.0
  0
LINE
  8
0
  6
CONTINUOUS
 62
     1
 10
1089.643593139
 20
230.233959796
 30
0.0
 11
1089.643593139
 21
266.233959796
 31
0.0
  0
LINE
  8
0
  6
CONTINUOUS
 62
     1
 10
1067.356406061
 20
266.233959796
 30
0.0
 11
1089.643593139
 21
266.233959796
 31
0.0
  0
LINE
  8
0
  6
CONTINUOUS
 62
     1
 10
1103.4999996
 20
258.233959796
 30
0.0
 11
1089.643593139
 21
266.233959796
 31
0.0
  0
LINE
  8
0
  6
CONTINUOUS
 62
     1
 10
1067.356406061
 20
230.233959796
 30
0.0
 11
1089.643593139
 21
230.233959796
 31
0.0
  0
LINE
  8
0
  6
CONTINUOUS
 62
     1
 10
1103.4999996
 20
238.233959796
 30
0.0
 11
1089.643593139
 21
230.233959796
 31
0.0
  0
LINE
  8
0
  6
CONTINUOUS
 62
     1
 10
1067.356406061
 20
230.233959796
 30
0.0
 11
1089.643593139
 21
230.233959796
 31
0.0
  0
LINE
  8
0
  6
LTYPE2
 62
     2
 10
1078.4999996
 20
238.233959796
 30
0.0
 11
1078.4999996
 21
258.233959796
 31
0.0
  0
CIRCLE
  8
0
  6
CONTINUOUS
 62
     2
 10
1078.4999996
 20
248.233959796
 30
0.0
 40
5.0
  0
CIRCLE
  8
0
  6
CONTINUOUS
 62
     2
 10
1078.4999996
 20
248.233959796
 30
0.0
 40
4.0
  0
LINE
  8
0
  6
CONTINUOUS
 62
     1
 10
1046.9999996
 20
240.233959796
 30
0.0
 11
1046.9999996
 21
219.433959796
 31
0.0
  0
LINE
  8
0
  6
LTYPE3
 62
     2
 10
1029.2999996
 20
321.333959796
 30
0.0
 11
1019.3399996
 21
321.333959796
 31
0.0
  0
LINE
  8
0
  6
LTYPE3
 62
     2
 10
1024.2999996
 20
325.233959796
 30
0.0
 11
1024.2999996
 21
317.353959796
 31
0.0
  0
ARC
  8
0
  6
CONTINUOUS
 62
     1
 10
1027.2999996
 20
324.233959796
 30
0.0
 40
2.0
 50
0.0
 51
90.0
  0
LINE
  8
0
  6
CONTINUOUS
 62
     1
 10
1052.6999996
 20
318.933959796
 30
0.0
 11
1029.2999996
 21
318.933959796
 31
0.0
  0
LINE
  8
0
  6
CONTINUOUS
 62
     1
 10
1029.2999996
 20
324.233959796
 30
0.0
 11
1029.2999996
 21
288.233959796
 31
0.0
  0
LINE
  8
0
  6
LTYPE3
 62
     2
 10
1029.2999996
 20
291.133959796
 30
0.0
 11
1019.4999996
 21
291.133959796
 31
0.0
  0
LINE
  8
0
  6
LTYPE3
 62
     2
 10
1024.2999996
 20
297.253959796
 30
0.0
 11
1024.2999996
 21
287.233959796
 31
0.0
  0
ARC
  8
0
  6
CONTINUOUS
 62
     1
 10
1027.2999996
 20
288.233959796
 30
0.0
 40
2.0
 50
270.0
 51
0.0
  0
LINE
  8
0
  6
CONTINUOUS
 62
     1
 10
1033.661020817
 20
293.533959796
 30
0.0
 11
1029.2999996
 21
293.533959796
 31
0.0
  0
ARC
  8
0
  6
CONTINUOUS
 62
     1
 10
1052.6999996
 20
316.933959796
 30
0.0
 40
2.0
 50
0.0
 51
90.0
  0
LINE
  8
0
  6
CONTINUOUS
 62
     1
 10
1054.6999996
 20
316.933959796
 30
0.0
 11
1054.6999996
 21
295.533959796
 31
0.0
  0
ARC
  8
0
  6
CONTINUOUS
 62
     1
 10
1038.9999996
 20
306.233959796
 30
0.0
 40
6.0
 50
356.983045121
 51
183.016954879
  0
LINE
  8
0
  6
LTYPE3
 62
     2
 10
1038.9999996
 20
315.333959796
 30
0.0
 11
1038.9999996
 21
257.833959796
 31
0.0
  0
LINE
  8
0
  6
CONTINUOUS
 62
     1
 10
1044.991683588
 20
305.918170323
 30
0.0
 11
1042.994455592
 21
268.02343348
 31
0.0
  0
LINE
  8
0
  6
CONTINUOUS
 62
     1
 10
1033.008315612
 20
305.918170323
 30
0.0
 11
1035.005543608
 21
268.02343348
 31
0.0
  0
ARC
  8
0
  6
CONTINUOUS
 62
     1
 10
1052.6999996
 20
295.533959796
 30
0.0
 40
2.0
 50
270.0
 51
0.0
  0
LINE
  8
0
  6
CONTINUOUS
 62
     1
 10
1052.6999996
 20
293.533959796
 30
0.0
 11
1044.338978383
 21
293.533959796
 31
0.0
  0
LINE
  8
0
  6
LTYPE3
 62
     2
 10
1027.9999996
 20
268.233959796
 30
0.0
 11
1050.9999996
 21
268.233959796
 31
0.0
  0
ARC
  8
0
  6
CONTINUOUS
 62
     1
 10
1038.9999996
 20
268.233959796
 30
0.0
 40
8.75
 50
120.219855722
 51
59.780144278
  0
ARC
  8
0
  6
CONTINUOUS
 62
     1
 10
1038.9999996
 20
268.233959796
 30
0.0
 40
4.0
 50
176.983042101
 51
3.016952287
  0
TEXT
  8
0
  6
CONTINUOUS
 62
     3
 10
861.0
 20
223.933959796
 30
0.0
 40
18.0
  1
１６５
 50
90.0
 41
0.9
 51
0.0
  7
KANJI41
  0
ARC
  8
0
  6
CONTINUOUS
 62
     1
 10
1120.254531022
 20
252.233959796
 30
0.0
 40
6.845203412
 50
324.242860688
 51
35.757139312
  0
ARC
  8
0
  6
CONTINUOUS
 62
     1
 10
1131.364312253
 20
252.233959796
 30
0.0
 40
6.845203412
 50
144.242860688
 51
215.757139312
  0
ARC
  8
0
  6
CONTINUOUS
 62
     1
 10
1131.364312253
 20
244.233959796
 30
0.0
 40
6.845203412
 50
144.242860688
 51
215.757139312
  0
LINE
  8
0
  6
CONTINUOUS
 62
     1
 10
1103.4999996
 20
238.233959796
 30
0.0
 11
1103.4999996
 21
258.233959796
 31
0.0
  0
LINE
  8
0
  6
CONTINUOUS
 62
     1
 10
1103.4999996
 20
256.233959796
 30
0.0
 11
1125.809421637
 21
256.233959796
 31
0.0
  0
LINE
  8
0
  6
CONTINUOUS
 62
     1
 10
1125.809421637
 20
240.233959796
 30
0.0
 11
1103.4999996
 21
240.233959796
 31
0.0
  0
LINE
  8
0
  6
CONTINUOUS
 62
     2
 10
1331.2499996
 20
300.4999852
 30
0.0
 11
1177.9999996
 21
300.4999852
 31
0.0
  0
LINE
  8
0
  6
CONTINUOUS
 62
     2
 10
1177.9999996
 20
300.4999852
 30
0.0
 11
1177.9999996
 21
130.7499852
 31
0.0
  0
LINE
  8
0
  6
CONTINUOUS
 62
     1
 10
1233.6249996
 20
239.2499852
 30
0.0
 11
1233.6249996
 21
174.5499852
 31
0.0
  0
LINE
  8
0
  6
CONTINUOUS
 62
     1
 10
1273.6249996
 20
239.2499852
 30
0.0
 11
1273.6249996
 21
174.5499852
 31
0.0
  0
ARC
  8
0
  6
CONTINUOUS
 62
     1
 10
1235.6249996
 20
239.2499852
 30
0.0
 40
2.0
 50
90.0
 51
180.0
  0
LINE
  8
0
  6
CONTINUOUS
 62
     1
 10
1240.9249996
 20
264.6499852
 30
0.0
 11
1240.9249996
 21
241.2499852
 31
0.0
  0
LINE
  8
0
  6
CONTINUOUS
 62
     1
 10
1235.6249996
 20
241.2499852
 30
0.0
 11
1271.6249996
 21
241.2499852
 31
0.0
  0
ARC
  8
0
  6
CONTINUOUS
 62
     1
 10
1271.6249996
 20
239.2499852
 30
0.0
 40
2.0
 50
0.0
 51
90.0
  0
ARC
  8
0
  6
CONTINUOUS
 62
     1
 10
1242.9249996
 20
264.6499852
 30
0.0
 40
2.0
 50
90.0
 51
180.0
  0
ARC
  8
0
  6
CONTINUOUS
 62
     1
 10
1253.6249996
 20
250.9499852
 30
0.0
 40
6.0
 50
131.983045121
 51
318.016954879
  0
LINE
  8
0
  6
LTYPE3
 62
     2
 10
1247.190327891
 20
244.515313491
 30
0.0
 11
1287.848967809
 21
285.173953409
 31
0.0
  0
LINE
  8
0
  6
CONTINUOUS
 62
     1
 10
1249.6115361
 20
255.410042457
 30
0.0
 11
1277.819414952
 21
280.79341439
 31
0.0
  0
LINE
  8
0
  6
CONTINUOUS
 62
     1
 10
1258.085056857
 20
246.9365217
 30
0.0
 11
1283.46842879
 21
275.144400552
 31
0.0
  0
LINE
  8
0
  6
LTYPE3
 62
     2
 10
1288.273231878
 20
270.041868292
 30
0.0
 11
1272.009775911
 21
286.305324259
 31
0.0
  0
ARC
  8
0
  6
CONTINUOUS
 62
     1
 10
1280.495057285
 20
277.820042885
 30
0.0
 40
8.75
 50
255.219855722
 51
194.780144278
  0
ARC
  8
0
  6
CONTINUOUS
 62
     1
 10
1280.495057285
 20
277.820042885
 30
0.0
 40
4.0
 50
311.983042101
 51
138.016952287
  0
LINE
  8
0
  6
CONTINUOUS
 62
     1
 10
1266.3249996
 20
256.09335505
 30
0.0
 11
1266.3249996
 21
241.2499852
 31
0.0
  0
LINE
  8
0
  6
CONTINUOUS
 62
     1
 10
1242.9249996
 20
266.6499852
 30
0.0
 11
1262.102191165
 21
266.6499852
 31
0.0
  0
TEXT
  8
0
  6
CONTINUOUS
 62
     2
 10
1237.5249996
 20
230.5499852
 30
0.0
 40
10.0
  1
４
 50
0.0
 41
0.85
 51
0.0
  7
KANJI74
  0
TEXT
  8
0
  6
CONTINUOUS
 62
     2
 10
1262.5249996
 20
230.5499852
 30
0.0
 40
10.0
  1
３
 50
0.0
 41
0.85
 51
0.0
  7
KANJI74
  0
POLYLINE
  8
0
  6
CONTINUOUS
 62
     2
 66
     1
 70
     1
  0
VERTEX
  8
0
  6
CONTINUOUS
 62
     2
 10
1248.5249996
 20
229.7999852
 30
0.0
 42
0.021820078
  0
VERTEX
  8
0
  6
CONTINUOUS
 62
     2
 10
1248.516437671
 20
229.996085621
 30
0.0
 42
0.021820078
  0
VERTEX
  8
0
  6
CONTINUOUS
 62
     2
 10
1248.490817044
 20
230.1906936
 30
0.0
 42
0.021820078
  0
VERTEX
  8
0
  6
CONTINUOUS
 62
     2
 10
1248.448332709
 20
230.382328051
 30
0.0
 42
0.021820078
  0
VERTEX
  8
0
  6
CONTINUOUS
 62
     2
 10
1248.389307997
 20
230.569530522
 30
0.0
 42
0.021820078
  0
VERTEX
  8
0
  6
CONTINUOUS
 62
     2
 10
1248.314192121
 20
230.750876289
 30
0.0
 42
0.021820078
  0
VERTEX
  8
0
  6
CONTINUOUS
 62
     2
 10
1248.223556759
 20
230.9249852
 30
0.0
 42
0.021820078
  0
VERTEX
  8
0
  6
CONTINUOUS
 62
     2
 10
1248.1180917
 20
231.090532182
 30
0.0
 42
0.021820078
  0
VERTEX
  8
0
  6
CONTINUOUS
 62
     2
 10
1247.998599597
 20
231.246257322
 30
0.0
 42
0.021820078
  0
VERTEX
  8
0
  6
CONTINUOUS
 62
     2
 10
1247.865989858
 20
231.390975458
 30
0.0
 42
0.021820078
  0
VERTEX
  8
0
  6
CONTINUOUS
 62
     2
 10
1247.721271722
 20
231.523585197
 30
0.0
 42
0.021820078
  0
VERTEX
  8
0
  6
CONTINUOUS
 62
     2
 10
1247.565546582
 20
231.6430773
 30
0.0
 42
0.021820078
  0
VERTEX
  8
0
  6
CONTINUOUS
 62
     2
 10
1247.3999996
 20
231.748542359
 30
0.0
 42
0.021820078
  0
VERTEX
  8
0
  6
CONTINUOUS
 62
     2
 10
1247.225890689
 20
231.839177721
 30
0.0
 42
0.021820078
  0
VERTEX
  8
0
  6
CONTINUOUS
 62
     2
 10
1247.044544922
 20
231.914293597
 30
0.0
 42
0.021820078
  0
VERTEX
  8
0
  6
CONTINUOUS
 62
     2
 10
1246.857342451
 20
231.973318309
 30
0.0
 42
0.021820078
  0
VERTEX
  8
0
  6
CONTINUOUS
 62
     2
 10
1246.665708
 20
232.015802644
 30
0.0
 42
0.021820078
  0
VERTEX
  8
0
  6
CONTINUOUS
 62
     2
 10
1246.471100021
 20
232.041423271
 30
0.0
 42
0.021820078
  0
VERTEX
  8
0
  6
CONTINUOUS
 62
     2
 10
1246.2749996
 20
232.0499852
 30
0.0
 42
0.021820078
  0
VERTEX
  8
0
  6
CONTINUOUS
 62
     2
 10
1246.078899179
 20
232.041423271
 30
0.0
 42
0.021820078
  0
VERTEX
  8
0
  6
CONTINUOUS
 62
     2
 10
1245.8842912
 20
232.015802644
 30
0.0
 42
0.021820078
  0
VERTEX
  8
0
  6
CONTINUOUS
 62
     2
 10
1245.692656749
 20
231.973318309
 30
0.0
 42
0.021820078
  0
VERTEX
  8
0
  6
CONTINUOUS
 62
     2
 10
1245.505454278
 20
231.914293597
 30
0.0
 42
0.021820078
  0
VERTEX
  8
0
  6
CONTINUOUS
 62
     2
 10
1245.324108511
 20
231.839177721
 30
0.0
 42
0.021820078
  0
VERTEX
  8
0
  6
CONTINUOUS
 62
     2
 10
1245.1499996
 20
231.748542359
 30
0.0
 42
0.021820078
  0
VERTEX
  8
0
  6
CONTINUOUS
 62
     2
 10
1244.984452618
 20
231.6430773
 30
0.0
 42
0.021820078
  0
VERTEX
  8
0
  6
CONTINUOUS
 62
     2
 10
1244.828727478
 20
231.523585197
 30
0.0
 42
0.021820078
  0
VERTEX
  8
0
  6
CONTINUOUS
 62
     2
 10
1244.684009342
 20
231.390975458
 30
0.0
 42
0.021820078
  0
VERTEX
  8
0
  6
CONTINUOUS
 62
     2
 10
1244.551399603
 20
231.246257322
 30
0.0
 42
0.021820078
  0
VERTEX
  8
0
  6
CONTINUOUS
 62
     2
 10
1244.4319075
 20
231.090532182
 30
0.0
 42
0.021820078
  0
VERTEX
  8
0
  6
CONTINUOUS
 62
     2
 10
1244.326442441
 20
230.9249852
 30
0.0
 42
0.021820078
  0
VERTEX
  8
0
  6
CONTINUOUS
 62
     2
 10
1244.235807079
 20
230.750876289
 30
0.0
 42
0.021820078
  0
VERTEX
  8
0
  6
CONTINUOUS
 62
     2
 10
1244.160691203
 20
230.569530522
 30
0.0
 42
0.021820078
  0
VERTEX
  8
0
  6
CONTINUOUS
 62
     2
 10
1244.101666491
 20
230.382328051
 30
0.0
 42
0.021820078
  0
VERTEX
  8
0
  6
CONTINUOUS
 62
     2
 10
1244.059182156
 20
230.1906936
 30
0.0
 42
0.021820078
  0
VERTEX
  8
0
  6
CONTINUOUS
 62
     2
 10
1244.033561529
 20
229.996085621
 30
0.0
 42
0.021820078
  0
VERTEX
  8
0
  6
CONTINUOUS
 62
     2
 10
1244.0249996
 20
229.7999852
 30
0.0
 42
0.021820078
  0
VERTEX
  8
0
  6
CONTINUOUS
 62
     2
 10
1244.033561529
 20
229.603884779
 30
0.0
 42
0.021820078
  0
VERTEX
  8
0
  6
CONTINUOUS
 62
     2
 10
1244.059182156
 20
229.4092768
 30
0.0
 42
0.021820078
  0
VERTEX
  8
0
  6
CONTINUOUS
 62
     2
 10
1244.101666491
 20
229.217642349
 30
0.0
 42
0.021820078
  0
VERTEX
  8
0
  6
CONTINUOUS
 62
     2
 10
1244.160691203
 20
229.030439878
 30
0.0
 42
0.021820078
  0
VERTEX
  8
0
  6
CONTINUOUS
 62
     2
 10
1244.235807079
 20
228.849094111
 30
0.0
 42
0.021820078
  0
VERTEX
  8
0
  6
CONTINUOUS
 62
     2
 10
1244.326442441
 20
228.6749852
 30
0.0
 42
0.021820078
  0
VERTEX
  8
0
  6
CONTINUOUS
 62
     2
 10
1244.4319075
 20
228.509438218
 30
0.0
 42
0.021820078
  0
VERTEX
  8
0
  6
CONTINUOUS
 62
     2
 10
1244.551399603
 20
228.353713078
 30
0.0
 42
0.021820078
  0
VERTEX
  8
0
  6
CONTINUOUS
 62
     2
 10
1244.684009342
 20
228.208994942
 30
0.0
 42
0.021820078
  0
VERTEX
  8
0
  6
CONTINUOUS
 62
     2
 10
1244.828727478
 20
228.076385203
 30
0.0
 42
0.021820078
  0
VERTEX
  8
0
  6
CONTINUOUS
 62
     2
 10
1244.984452618
 20
227.9568931
 30
0.0
 42
0.021820078
  0
VERTEX
  8
0
  6
CONTINUOUS
 62
     2
 10
1245.1499996
 20
227.851428041
 30
0.0
 42
0.021820078
  0
VERTEX
  8
0
  6
CONTINUOUS
 62
     2
 10
1245.324108511
 20
227.760792679
 30
0.0
 42
0.021820078
  0
VERTEX
  8
0
  6
CONTINUOUS
 62
     2
 10
1245.505454278
 20
227.685676803
 30
0.0
 42
0.021820078
  0
VERTEX
  8
0
  6
CONTINUOUS
 62
     2
 10
1245.692656749
 20
227.626652091
 30
0.0
 42
0.021820078
  0
VERTEX
  8
0
  6
CONTINUOUS
 62
     2
 10
1245.8842912
 20
227.584167756
 30
0.0
 42
0.021820078
  0
VERTEX
  8
0
  6
CONTINUOUS
 62
     2
 10
1246.078899179
 20
227.558547129
 30
0.0
 42
0.021820078
  0
VERTEX
  8
0
  6
CONTINUOUS
 62
     2
 10
1246.2749996
 20
227.5499852
 30
0.0
 42
0.021820078
  0
VERTEX
  8
0
  6
CONTINUOUS
 62
     2
 10
1246.471100021
 20
227.558547129
 30
0.0
 42
0.021820078
  0
VERTEX
  8
0
  6
CONTINUOUS
 62
     2
 10
1246.665708
 20
227.584167756
 30
0.0
 42
0.021820078
  0
VERTEX
  8
0
  6
CONTINUOUS
 62
     2
 10
1246.857342451
 20
227.626652091
 30
0.0
 42
0.021820078
  0
VERTEX
  8
0
  6
CONTINUOUS
 62
     2
 10
1247.044544922
 20
227.685676803
 30
0.0
 42
0.021820078
  0
VERTEX
  8
0
  6
CONTINUOUS
 62
     2
 10
1247.225890689
 20
227.760792679
 30
0.0
 42
0.021820078
  0
VERTEX
  8
0
  6
CONTINUOUS
 62
     2
 10
1247.3999996
 20
227.851428041
 30
0.0
 42
0.021820078
  0
VERTEX
  8
0
  6
CONTINUOUS
 62
     2
 10
1247.565546582
 20
227.9568931
 30
0.0
 42
0.021820078
  0
VERTEX
  8
0
  6
CONTINUOUS
 62
     2
 10
1247.721271722
 20
228.076385203
 30
0.0
 42
0.021820078
  0
VERTEX
  8
0
  6
CONTINUOUS
 62
     2
 10
1247.865989858
 20
228.208994942
 30
0.0
 42
0.021820078
  0
VERTEX
  8
0
  6
CONTINUOUS
 62
     2
 10
1247.998599597
 20
228.353713078
 30
0.0
 42
0.021820078
  0
VERTEX
  8
0
  6
CONTINUOUS
 62
     2
 10
1248.1180917
 20
228.509438218
 30
0.0
 42
0.021820078
  0
VERTEX
  8
0
  6
CONTINUOUS
 62
     2
 10
1248.223556759
 20
228.6749852
 30
0.0
 42
0.021820078
  0
VERTEX
  8
0
  6
CONTINUOUS
 62
     2
 10
1248.314192121
 20
228.849094111
 30
0.0
 42
0.021820078
  0
VERTEX
  8
0
  6
CONTINUOUS
 62
     2
 10
1248.389307997
 20
229.030439878
 30
0.0
 42
0.021820078
  0
VERTEX
  8
0
  6
CONTINUOUS
 62
     2
 10
1248.448332709
 20
229.217642349
 30
0.0
 42
0.021820078
  0
VERTEX
  8
0
  6
CONTINUOUS
 62
     2
 10
1248.490817044
 20
229.4092768
 30
0.0
 42
0.021820078
  0
VERTEX
  8
0
  6
CONTINUOUS
 62
     2
 10
1248.516437671
 20
229.603884779
 30
0.0
 42
0.021820078
  0
SEQEND
  8
0
  6
CONTINUOUS
 62
     2
  0
POLYLINE
  8
0
  6
CONTINUOUS
 62
     2
 66
     1
 70
     1
  0
VERTEX
  8
0
  6
CONTINUOUS
 62
     2
 10
1263.5249996
 20
229.7999852
 30
0.0
 42
0.021820078
  0
VERTEX
  8
0
  6
CONTINUOUS
 62
     2
 10
1263.516437671
 20
229.996085621
 30
0.0
 42
0.021820078
  0
VERTEX
  8
0
  6
CONTINUOUS
 62
     2
 10
1263.490817044
 20
230.1906936
 30
0.0
 42
0.021820078
  0
VERTEX
  8
0
  6
CONTINUOUS
 62
     2
 10
1263.448332709
 20
230.382328051
 30
0.0
 42
0.021820078
  0
VERTEX
  8
0
  6
CONTINUOUS
 62
     2
 10
1263.389307997
 20
230.569530522
 30
0.0
 42
0.021820078
  0
VERTEX
  8
0
  6
CONTINUOUS
 62
     2
 10
1263.314192121
 20
230.750876289
 30
0.0
 42
0.021820078
  0
VERTEX
  8
0
  6
CONTINUOUS
 62
     2
 10
1263.223556759
 20
230.9249852
 30
0.0
 42
0.021820078
  0
VERTEX
  8
0
  6
CONTINUOUS
 62
     2
 10
1263.1180917
 20
231.090532182
 30
0.0
 42
0.021820078
  0
VERTEX
  8
0
  6
CONTINUOUS
 62
     2
 10
1262.998599597
 20
231.246257322
 30
0.0
 42
0.021820078
  0
VERTEX
  8
0
  6
CONTINUOUS
 62
     2
 10
1262.865989858
 20
231.390975458
 30
0.0
 42
0.021820078
  0
VERTEX
  8
0
  6
CONTINUOUS
 62
     2
 10
1262.721271722
 20
231.523585197
 30
0.0
 42
0.021820078
  0
VERTEX
  8
0
  6
CONTINUOUS
 62
     2
 10
1262.565546582
 20
231.6430773
 30
0.0
 42
0.021820078
  0
VERTEX
  8
0
  6
CONTINUOUS
 62
     2
 10
1262.3999996
 20
231.748542359
 30
0.0
 42
0.021820078
  0
VERTEX
  8
0
  6
CONTINUOUS
 62
     2
 10
1262.225890689
 20
231.839177721
 30
0.0
 42
0.021820078
  0
VERTEX
  8
0
  6
CONTINUOUS
 62
     2
 10
1262.044544922
 20
231.914293597
 30
0.0
 42
0.021820078
  0
VERTEX
  8
0
  6
CONTINUOUS
 62
     2
 10
1261.857342451
 20
231.973318309
 30
0.0
 42
0.021820078
  0
VERTEX
  8
0
  6
CONTINUOUS
 62
     2
 10
1261.665708
 20
232.015802644
 30
0.0
 42
0.021820078
  0
VERTEX
  8
0
  6
CONTINUOUS
 62
     2
 10
1261.471100021
 20
232.041423271
 30
0.0
 42
0.021820078
  0
VERTEX
  8
0
  6
CONTINUOUS
 62
     2
 10
1261.2749996
 20
232.0499852
 30
0.0
 42
0.021820078
  0
VERTEX
  8
0
  6
CONTINUOUS
 62
     2
 10
1261.078899179
 20
232.041423271
 30
0.0
 42
0.021820078
  0
VERTEX
  8
0
  6
CONTINUOUS
 62
     2
 10
1260.8842912
 20
232.015802644
 30
0.0
 42
0.021820078
  0
VERTEX
  8
0
  6
CONTINUOUS
 62
     2
 10
1260.692656749
 20
231.973318309
 30
0.0
 42
0.021820078
  0
VERTEX
  8
0
  6
CONTINUOUS
 62
     2
 10
1260.505454278
 20
231.914293597
 30
0.0
 42
0.021820078
  0
VERTEX
  8
0
  6
CONTINUOUS
 62
     2
 10
1260.324108511
 20
231.839177721
 30
0.0
 42
0.021820078
  0
VERTEX
  8
0
  6
CONTINUOUS
 62
     2
 10
1260.1499996
 20
231.748542359
 30
0.0
 42
0.021820078
  0
VERTEX
  8
0
  6
CONTINUOUS
 62
     2
 10
1259.984452618
 20
231.6430773
 30
0.0
 42
0.021820078
  0
VERTEX
  8
0
  6
CONTINUOUS
 62
     2
 10
1259.828727478
 20
231.523585197
 30
0.0
 42
0.021820078
  0
VERTEX
  8
0
  6
CONTINUOUS
 62
     2
 10
1259.684009342
 20
231.390975458
 30
0.0
 42
0.021820078
  0
VERTEX
  8
0
  6
CONTINUOUS
 62
     2
 10
1259.551399603
 20
231.246257322
 30
0.0
 42
0.021820078
  0
VERTEX
  8
0
  6
CONTINUOUS
 62
     2
 10
1259.4319075
 20
231.090532182
 30
0.0
 42
0.021820078
  0
VERTEX
  8
0
  6
CONTINUOUS
 62
     2
 10
1259.326442441
 20
230.9249852
 30
0.0
 42
0.021820078
  0
VERTEX
  8
0
  6
CONTINUOUS
 62
     2
 10
1259.235807079
 20
230.750876289
 30
0.0
 42
0.021820078
  0
VERTEX
  8
0
  6
CONTINUOUS
 62
     2
 10
1259.160691203
 20
230.569530522
 30
0.0
 42
0.021820078
  0
VERTEX
  8
0
  6
CONTINUOUS
 62
     2
 10
1259.101666491
 20
230.382328051
 30
0.0
 42
0.021820078
  0
VERTEX
  8
0
  6
CONTINUOUS
 62
     2
 10
1259.059182156
 20
230.1906936
 30
0.0
 42
0.021820078
  0
VERTEX
  8
0
  6
CONTINUOUS
 62
     2
 10
1259.033561529
 20
229.996085621
 30
0.0
 42
0.021820078
  0
VERTEX
  8
0
  6
CONTINUOUS
 62
     2
 10
1259.0249996
 20
229.7999852
 30
0.0
 42
0.021820078
  0
VERTEX
  8
0
  6
CONTINUOUS
 62
     2
 10
1259.033561529
 20
229.603884779
 30
0.0
 42
0.021820078
  0
VERTEX
  8
0
  6
CONTINUOUS
 62
     2
 10
1259.059182156
 20
229.4092768
 30
0.0
 42
0.021820078
  0
VERTEX
  8
0
  6
CONTINUOUS
 62
     2
 10
1259.101666491
 20
229.217642349
 30
0.0
 42
0.021820078
  0
VERTEX
  8
0
  6
CONTINUOUS
 62
     2
 10
1259.160691203
 20
229.030439878
 30
0.0
 42
0.021820078
  0
VERTEX
  8
0
  6
CONTINUOUS
 62
     2
 10
1259.235807079
 20
228.849094111
 30
0.0
 42
0.021820078
  0
VERTEX
  8
0
  6
CONTINUOUS
 62
     2
 10
1259.326442441
 20
228.6749852
 30
0.0
 42
0.021820078
  0
VERTEX
  8
0
  6
CONTINUOUS
 62
     2
 10
1259.4319075
 20
228.509438218
 30
0.0
 42
0.021820078
  0
VERTEX
  8
0
  6
CONTINUOUS
 62
     2
 10
1259.551399603
 20
228.353713078
 30
0.0
 42
0.021820078
  0
VERTEX
  8
0
  6
CONTINUOUS
 62
     2
 10
1259.684009342
 20
228.208994942
 30
0.0
 42
0.021820078
  0
VERTEX
  8
0
  6
CONTINUOUS
 62
     2
 10
1259.828727478
 20
228.076385203
 30
0.0
 42
0.021820078
  0
VERTEX
  8
0
  6
CONTINUOUS
 62
     2
 10
1259.984452618
 20
227.9568931
 30
0.0
 42
0.021820078
  0
VERTEX
  8
0
  6
CONTINUOUS
 62
     2
 10
1260.1499996
 20
227.851428041
 30
0.0
 42
0.021820078
  0
VERTEX
  8
0
  6
CONTINUOUS
 62
     2
 10
1260.324108511
 20
227.760792679
 30
0.0
 42
0.021820078
  0
VERTEX
  8
0
  6
CONTINUOUS
 62
     2
 10
1260.505454278
 20
227.685676803
 30
0.0
 42
0.021820078
  0
VERTEX
  8
0
  6
CONTINUOUS
 62
     2
 10
1260.692656749
 20
227.626652091
 30
0.0
 42
0.021820078
  0
VERTEX
  8
0
  6
CONTINUOUS
 62
     2
 10
1260.8842912
 20
227.584167756
 30
0.0
 42
0.021820078
  0
VERTEX
  8
0
  6
CONTINUOUS
 62
     2
 10
1261.078899179
 20
227.558547129
 30
0.0
 42
0.021820078
  0
VERTEX
  8
0
  6
CONTINUOUS
 62
     2
 10
1261.2749996
 20
227.5499852
 30
0.0
 42
0.021820078
  0
VERTEX
  8
0
  6
CONTINUOUS
 62
     2
 10
1261.471100021
 20
227.558547129
 30
0.0
 42
0.021820078
  0
VERTEX
  8
0
  6
CONTINUOUS
 62
     2
 10
1261.665708
 20
227.584167756
 30
0.0
 42
0.021820078
  0
VERTEX
  8
0
  6
CONTINUOUS
 62
     2
 10
1261.857342451
 20
227.626652091
 30
0.0
 42
0.021820078
  0
VERTEX
  8
0
  6
CONTINUOUS
 62
     2
 10
1262.044544922
 20
227.685676803
 30
0.0
 42
0.021820078
  0
VERTEX
  8
0
  6
CONTINUOUS
 62
     2
 10
1262.225890689
 20
227.760792679
 30
0.0
 42
0.021820078
  0
VERTEX
  8
0
  6
CONTINUOUS
 62
     2
 10
1262.3999996
 20
227.851428041
 30
0.0
 42
0.021820078
  0
VERTEX
  8
0
  6
CONTINUOUS
 62
     2
 10
1262.565546582
 20
227.9568931
 30
0.0
 42
0.021820078
  0
VERTEX
  8
0
  6
CONTINUOUS
 62
     2
 10
1262.721271722
 20
228.076385203
 30
0.0
 42
0.021820078
  0
VERTEX
  8
0
  6
CONTINUOUS
 62
     2
 10
1262.865989858
 20
228.208994942
 30
0.0
 42
0.021820078
  0
VERTEX
  8
0
  6
CONTINUOUS
 62
     2
 10
1262.998599597
 20
228.353713078
 30
0.0
 42
0.021820078
  0
VERTEX
  8
0
  6
CONTINUOUS
 62
     2
 10
1263.1180917
 20
228.509438218
 30
0.0
 42
0.021820078
  0
VERTEX
  8
0
  6
CONTINUOUS
 62
     2
 10
1263.223556759
 20
228.6749852
 30
0.0
 42
0.021820078
  0
VERTEX
  8
0
  6
CONTINUOUS
 62
     2
 10
1263.314192121
 20
228.849094111
 30
0.0
 42
0.021820078
  0
VERTEX
  8
0
  6
CONTINUOUS
 62
     2
 10
1263.389307997
 20
229.030439878
 30
0.0
 42
0.021820078
  0
VERTEX
  8
0
  6
CONTINUOUS
 62
     2
 10
1263.448332709
 20
229.217642349
 30
0.0
 42
0.021820078
  0
VERTEX
  8
0
  6
CONTINUOUS
 62
     2
 10
1263.490817044
 20
229.4092768
 30
0.0
 42
0.021820078
  0
VERTEX
  8
0
  6
CONTINUOUS
 62
     2
 10
1263.516437671
 20
229.603884779
 30
0.0
 42
0.021820078
  0
SEQEND
  8
0
  6
CONTINUOUS
 62
     2
  0
TEXT
  8
0
  6
CONTINUOUS
 62
     2
 10
1205.6249996
 20
229.7499852
 30
0.0
 40
10.0
  1
（ＮＯ）
 50
0.0
 41
0.75
 51
0.0
  7
KANJI75
  0
TEXT
  8
0
  6
CONTINUOUS
 62
     2
 10
1271.6249996
 20
229.7499852
 30
0.0
 40
10.0
  1
（ＮＯ）
 50
0.0
 41
0.75
 51
0.0
  7
KANJI75
  0
LINE
  8
0
  6
CONTINUOUS
 62
     2
 10
1331.2499996
 20
130.7499852
 30
0.0
 11
1331.2499996
 21
300.4999852
 31
0.0
  0
LINE
  8
0
  6
CONTINUOUS
 62
     1
 10
1235.6249996
 20
172.5499852
 30
0.0
 11
1271.6249996
 21
172.5499852
 31
0.0
  0
ARC
  8
0
  6
CONTINUOUS
 62
     1
 10
1235.6249996
 20
174.5499852
 30
0.0
 40
2.0
 50
180.0
 51
270.0
  0
ARC
  8
0
  6
CONTINUOUS
 62
     1
 10
1271.6249996
 20
174.5499852
 30
0.0
 40
2.0
 50
270.0
 51
0.0
  0
LINE
  8
0
  6
LTYPE2
 62
     2
 10
1238.7499996
 20
217.7499852
 30
0.0
 11
1268.7499996
 21
217.7499852
 31
0.0
  0
LINE
  8
0
  6
LTYPE2
 62
     2
 10
1268.7499996
 20
217.7499852
 30
0.0
 11
1268.7499996
 21
227.2499852
 31
0.0
  0
LINE
  8
0
  6
LTYPE2
 62
     2
 10
1268.7499996
 20
227.2499852
 30
0.0
 11
1238.7499996
 21
227.2499852
 31
0.0
  0
LINE
  8
0
  6
LTYPE2
 62
     2
 10
1238.7499996
 20
227.2499852
 30
0.0
 11
1238.7499996
 21
217.7499852
 31
0.0
  0
LINE
  8
0
  6
CONTINUOUS
 62
     1
 10
1238.7499996
 20
187.7499852
 30
0.0
 11
1268.7499996
 21
187.7499852
 31
0.0
  0
LINE
  8
0
  6
CONTINUOUS
 62
     1
 10
1268.7499996
 20
187.7499852
 30
0.0
 11
1268.7499996
 21
197.2499852
 31
0.0
  0
LINE
  8
0
  6
CONTINUOUS
 62
     1
 10
1268.7499996
 20
197.2499852
 30
0.0
 11
1238.7499996
 21
197.2499852
 31
0.0
  0
LINE
  8
0
  6
CONTINUOUS
 62
     1
 10
1238.7499996
 20
197.2499852
 30
0.0
 11
1238.7499996
 21
187.7499852
 31
0.0
  0
POLYLINE
  8
0
  6
CONTINUOUS
 62
     2
 66
     1
 70
     1
  0
VERTEX
  8
0
  6
CONTINUOUS
 62
     2
 10
1248.5249996
 20
185.4499852
 30
0.0
 42
-0.021820078
  0
VERTEX
  8
0
  6
CONTINUOUS
 62
     2
 10
1248.516437671
 20
185.253884779
 30
0.0
 42
-0.021820078
  0
VERTEX
  8
0
  6
CONTINUOUS
 62
     2
 10
1248.490817044
 20
185.0592768
 30
0.0
 42
-0.021820078
  0
VERTEX
  8
0
  6
CONTINUOUS
 62
     2
 10
1248.448332709
 20
184.867642349
 30
0.0
 42
-0.021820078
  0
VERTEX
  8
0
  6
CONTINUOUS
 62
     2
 10
1248.389307997
 20
184.680439878
 30
0.0
 42
-0.021820078
  0
VERTEX
  8
0
  6
CONTINUOUS
 62
     2
 10
1248.314192121
 20
184.499094111
 30
0.0
 42
-0.021820078
  0
VERTEX
  8
0
  6
CONTINUOUS
 62
     2
 10
1248.223556759
 20
184.3249852
 30
0.0
 42
-0.021820078
  0
VERTEX
  8
0
  6
CONTINUOUS
 62
     2
 10
1248.1180917
 20
184.159438218
 30
0.0
 42
-0.021820078
  0
VERTEX
  8
0
  6
CONTINUOUS
 62
     2
 10
1247.998599597
 20
184.003713078
 30
0.0
 42
-0.021820078
  0
VERTEX
  8
0
  6
CONTINUOUS
 62
     2
 10
1247.865989858
 20
183.858994942
 30
0.0
 42
-0.021820078
  0
VERTEX
  8
0
  6
CONTINUOUS
 62
     2
 10
1247.721271722
 20
183.726385203
 30
0.0
 42
-0.021820078
  0
VERTEX
  8
0
  6
CONTINUOUS
 62
     2
 10
1247.565546582
 20
183.6068931
 30
0.0
 42
-0.021820078
  0
VERTEX
  8
0
  6
CONTINUOUS
 62
     2
 10
1247.3999996
 20
183.501428041
 30
0.0
 42
-0.021820078
  0
VERTEX
  8
0
  6
CONTINUOUS
 62
     2
 10
1247.225890689
 20
183.410792679
 30
0.0
 42
-0.021820078
  0
VERTEX
  8
0
  6
CONTINUOUS
 62
     2
 10
1247.044544922
 20
183.335676803
 30
0.0
 42
-0.021820078
  0
VERTEX
  8
0
  6
CONTINUOUS
 62
     2
 10
1246.857342451
 20
183.276652091
 30
0.0
 42
-0.021820078
  0
VERTEX
  8
0
  6
CONTINUOUS
 62
     2
 10
1246.665708
 20
183.234167756
 30
0.0
 42
-0.021820078
  0
VERTEX
  8
0
  6
CONTINUOUS
 62
     2
 10
1246.471100021
 20
183.208547129
 30
0.0
 42
-0.021820078
  0
VERTEX
  8
0
  6
CONTINUOUS
 62
     2
 10
1246.2749996
 20
183.1999852
 30
0.0
 42
-0.021820078
  0
VERTEX
  8
0
  6
CONTINUOUS
 62
     2
 10
1246.078899179
 20
183.208547129
 30
0.0
 42
-0.021820078
  0
VERTEX
  8
0
  6
CONTINUOUS
 62
     2
 10
1245.8842912
 20
183.234167756
 30
0.0
 42
-0.021820078
  0
VERTEX
  8
0
  6
CONTINUOUS
 62
     2
 10
1245.692656749
 20
183.276652091
 30
0.0
 42
-0.021820078
  0
VERTEX
  8
0
  6
CONTINUOUS
 62
     2
 10
1245.505454278
 20
183.335676803
 30
0.0
 42
-0.021820078
  0
VERTEX
  8
0
  6
CONTINUOUS
 62
     2
 10
1245.324108511
 20
183.410792679
 30
0.0
 42
-0.021820078
  0
VERTEX
  8
0
  6
CONTINUOUS
 62
     2
 10
1245.1499996
 20
183.501428041
 30
0.0
 42
-0.021820078
  0
VERTEX
  8
0
  6
CONTINUOUS
 62
     2
 10
1244.984452618
 20
183.6068931
 30
0.0
 42
-0.021820078
  0
VERTEX
  8
0
  6
CONTINUOUS
 62
     2
 10
1244.828727478
 20
183.726385203
 30
0.0
 42
-0.021820078
  0
VERTEX
  8
0
  6
CONTINUOUS
 62
     2
 10
1244.684009342
 20
183.858994942
 30
0.0
 42
-0.021820078
  0
VERTEX
  8
0
  6
CONTINUOUS
 62
     2
 10
1244.551399603
 20
184.003713078
 30
0.0
 42
-0.021820078
  0
VERTEX
  8
0
  6
CONTINUOUS
 62
     2
 10
1244.4319075
 20
184.159438218
 30
0.0
 42
-0.021820078
  0
VERTEX
  8
0
  6
CONTINUOUS
 62
     2
 10
1244.326442441
 20
184.3249852
 30
0.0
 42
-0.021820078
  0
VERTEX
  8
0
  6
CONTINUOUS
 62
     2
 10
1244.235807079
 20
184.499094111
 30
0.0
 42
-0.021820078
  0
VERTEX
  8
0
  6
CONTINUOUS
 62
     2
 10
1244.160691203
 20
184.680439878
 30
0.0
 42
-0.021820078
  0
VERTEX
  8
0
  6
CONTINUOUS
 62
     2
 10
1244.101666491
 20
184.867642349
 30
0.0
 42
-0.021820078
  0
VERTEX
  8
0
  6
CONTINUOUS
 62
     2
 10
1244.059182156
 20
185.0592768
 30
0.0
 42
-0.021820078
  0
VERTEX
  8
0
  6
CONTINUOUS
 62
     2
 10
1244.033561529
 20
185.253884779
 30
0.0
 42
-0.021820078
  0
VERTEX
  8
0
  6
CONTINUOUS
 62
     2
 10
1244.0249996
 20
185.4499852
 30
0.0
 42
-0.021820078
  0
VERTEX
  8
0
  6
CONTINUOUS
 62
     2
 10
1244.033561529
 20
185.646085621
 30
0.0
 42
-0.021820078
  0
VERTEX
  8
0
  6
CONTINUOUS
 62
     2
 10
1244.059182156
 20
185.8406936
 30
0.0
 42
-0.021820078
  0
VERTEX
  8
0
  6
CONTINUOUS
 62
     2
 10
1244.101666491
 20
186.032328051
 30
0.0
 42
-0.021820078
  0
VERTEX
  8
0
  6
CONTINUOUS
 62
     2
 10
1244.160691203
 20
186.219530522
 30
0.0
 42
-0.021820078
  0
VERTEX
  8
0
  6
CONTINUOUS
 62
     2
 10
1244.235807079
 20
186.400876289
 30
0.0
 42
-0.021820078
  0
VERTEX
  8
0
  6
CONTINUOUS
 62
     2
 10
1244.326442441
 20
186.5749852
 30
0.0
 42
-0.021820078
  0
VERTEX
  8
0
  6
CONTINUOUS
 62
     2
 10
1244.4319075
 20
186.740532182
 30
0.0
 42
-0.021820078
  0
VERTEX
  8
0
  6
CONTINUOUS
 62
     2
 10
1244.551399603
 20
186.896257322
 30
0.0
 42
-0.021820078
  0
VERTEX
  8
0
  6
CONTINUOUS
 62
     2
 10
1244.684009342
 20
187.040975458
 30
0.0
 42
-0.021820078
  0
VERTEX
  8
0
  6
CONTINUOUS
 62
     2
 10
1244.828727478
 20
187.173585197
 30
0.0
 42
-0.021820078
  0
VERTEX
  8
0
  6
CONTINUOUS
 62
     2
 10
1244.984452618
 20
187.2930773
 30
0.0
 42
-0.021820078
  0
VERTEX
  8
0
  6
CONTINUOUS
 62
     2
 10
1245.1499996
 20
187.398542359
 30
0.0
 42
-0.021820078
  0
VERTEX
  8
0
  6
CONTINUOUS
 62
     2
 10
1245.324108511
 20
187.489177721
 30
0.0
 42
-0.021820078
  0
VERTEX
  8
0
  6
CONTINUOUS
 62
     2
 10
1245.505454278
 20
187.564293597
 30
0.0
 42
-0.021820078
  0
VERTEX
  8
0
  6
CONTINUOUS
 62
     2
 10
1245.692656749
 20
187.623318309
 30
0.0
 42
-0.021820078
  0
VERTEX
  8
0
  6
CONTINUOUS
 62
     2
 10
1245.8842912
 20
187.665802644
 30
0.0
 42
-0.021820078
  0
VERTEX
  8
0
  6
CONTINUOUS
 62
     2
 10
1246.078899179
 20
187.691423271
 30
0.0
 42
-0.021820078
  0
VERTEX
  8
0
  6
CONTINUOUS
 62
     2
 10
1246.2749996
 20
187.6999852
 30
0.0
 42
-0.021820078
  0
VERTEX
  8
0
  6
CONTINUOUS
 62
     2
 10
1246.471100021
 20
187.691423271
 30
0.0
 42
-0.021820078
  0
VERTEX
  8
0
  6
CONTINUOUS
 62
     2
 10
1246.665708
 20
187.665802644
 30
0.0
 42
-0.021820078
  0
VERTEX
  8
0
  6
CONTINUOUS
 62
     2
 10
1246.857342451
 20
187.623318309
 30
0.0
 42
-0.021820078
  0
VERTEX
  8
0
  6
CONTINUOUS
 62
     2
 10
1247.044544922
 20
187.564293597
 30
0.0
 42
-0.021820078
  0
VERTEX
  8
0
  6
CONTINUOUS
 62
     2
 10
1247.225890689
 20
187.489177721
 30
0.0
 42
-0.021820078
  0
VERTEX
  8
0
  6
CONTINUOUS
 62
     2
 10
1247.3999996
 20
187.398542359
 30
0.0
 42
-0.021820078
  0
VERTEX
  8
0
  6
CONTINUOUS
 62
     2
 10
1247.565546582
 20
187.2930773
 30
0.0
 42
-0.021820078
  0
VERTEX
  8
0
  6
CONTINUOUS
 62
     2
 10
1247.721271722
 20
187.173585197
 30
0.0
 42
-0.021820078
  0
VERTEX
  8
0
  6
CONTINUOUS
 62
     2
 10
1247.865989858
 20
187.040975458
 30
0.0
 42
-0.021820078
  0
VERTEX
  8
0
  6
CONTINUOUS
 62
     2
 10
1247.998599597
 20
186.896257322
 30
0.0
 42
-0.021820078
  0
VERTEX
  8
0
  6
CONTINUOUS
 62
     2
 10
1248.1180917
 20
186.740532182
 30
0.0
 42
-0.021820078
  0
VERTEX
  8
0
  6
CONTINUOUS
 62
     2
 10
1248.223556759
 20
186.5749852
 30
0.0
 42
-0.021820078
  0
VERTEX
  8
0
  6
CONTINUOUS
 62
     2
 10
1248.314192121
 20
186.400876289
 30
0.0
 42
-0.021820078
  0
VERTEX
  8
0
  6
CONTINUOUS
 62
     2
 10
1248.389307997
 20
186.219530522
 30
0.0
 42
-0.021820078
  0
VERTEX
  8
0
  6
CONTINUOUS
 62
     2
 10
1248.448332709
 20
186.032328051
 30
0.0
 42
-0.021820078
  0
VERTEX
  8
0
  6
CONTINUOUS
 62
     2
 10
1248.490817044
 20
185.8406936
 30
0.0
 42
-0.021820078
  0
VERTEX
  8
0
  6
CONTINUOUS
 62
     2
 10
1248.516437671
 20
185.646085621
 30
0.0
 42
-0.021820078
  0
SEQEND
  8
0
  6
CONTINUOUS
 62
     2
  0
POLYLINE
  8
0
  6
CONTINUOUS
 62
     2
 66
     1
 70
     1
  0
VERTEX
  8
0
  6
CONTINUOUS
 62
     2
 10
1263.5249996
 20
185.4499852
 30
0.0
 42
-0.021820078
  0
VERTEX
  8
0
  6
CONTINUOUS
 62
     2
 10
1263.516437671
 20
185.253884779
 30
0.0
 42
-0.021820078
  0
VERTEX
  8
0
  6
CONTINUOUS
 62
     2
 10
1263.490817044
 20
185.0592768
 30
0.0
 42
-0.021820078
  0
VERTEX
  8
0
  6
CONTINUOUS
 62
     2
 10
1263.448332709
 20
184.867642349
 30
0.0
 42
-0.021820078
  0
VERTEX
  8
0
  6
CONTINUOUS
 62
     2
 10
1263.389307997
 20
184.680439878
 30
0.0
 42
-0.021820078
  0
VERTEX
  8
0
  6
CONTINUOUS
 62
     2
 10
1263.314192121
 20
184.499094111
 30
0.0
 42
-0.021820078
  0
VERTEX
  8
0
  6
CONTINUOUS
 62
     2
 10
1263.223556759
 20
184.3249852
 30
0.0
 42
-0.021820078
  0
VERTEX
  8
0
  6
CONTINUOUS
 62
     2
 10
1263.1180917
 20
184.159438218
 30
0.0
 42
-0.021820078
  0
VERTEX
  8
0
  6
CONTINUOUS
 62
     2
 10
1262.998599597
 20
184.003713078
 30
0.0
 42
-0.021820078
  0
VERTEX
  8
0
  6
CONTINUOUS
 62
     2
 10
1262.865989858
 20
183.858994942
 30
0.0
 42
-0.021820078
  0
VERTEX
  8
0
  6
CONTINUOUS
 62
     2
 10
1262.721271722
 20
183.726385203
 30
0.0
 42
-0.021820078
  0
VERTEX
  8
0
  6
CONTINUOUS
 62
     2
 10
1262.565546582
 20
183.6068931
 30
0.0
 42
-0.021820078
  0
VERTEX
  8
0
  6
CONTINUOUS
 62
     2
 10
1262.3999996
 20
183.501428041
 30
0.0
 42
-0.021820078
  0
VERTEX
  8
0
  6
CONTINUOUS
 62
     2
 10
1262.225890689
 20
183.410792679
 30
0.0
 42
-0.021820078
  0
VERTEX
  8
0
  6
CONTINUOUS
 62
     2
 10
1262.044544922
 20
183.335676803
 30
0.0
 42
-0.021820078
  0
VERTEX
  8
0
  6
CONTINUOUS
 62
     2
 10
1261.857342451
 20
183.276652091
 30
0.0
 42
-0.021820078
  0
VERTEX
  8
0
  6
CONTINUOUS
 62
     2
 10
1261.665708
 20
183.234167756
 30
0.0
 42
-0.021820078
  0
VERTEX
  8
0
  6
CONTINUOUS
 62
     2
 10
1261.471100021
 20
183.208547129
 30
0.0
 42
-0.021820078
  0
VERTEX
  8
0
  6
CONTINUOUS
 62
     2
 10
1261.2749996
 20
183.1999852
 30
0.0
 42
-0.021820078
  0
VERTEX
  8
0
  6
CONTINUOUS
 62
     2
 10
1261.078899179
 20
183.208547129
 30
0.0
 42
-0.021820078
  0
VERTEX
  8
0
  6
CONTINUOUS
 62
     2
 10
1260.8842912
 20
183.234167756
 30
0.0
 42
-0.021820078
  0
VERTEX
  8
0
  6
CONTINUOUS
 62
     2
 10
1260.692656749
 20
183.276652091
 30
0.0
 42
-0.021820078
  0
VERTEX
  8
0
  6
CONTINUOUS
 62
     2
 10
1260.505454278
 20
183.335676803
 30
0.0
 42
-0.021820078
  0
VERTEX
  8
0
  6
CONTINUOUS
 62
     2
 10
1260.324108511
 20
183.410792679
 30
0.0
 42
-0.021820078
  0
VERTEX
  8
0
  6
CONTINUOUS
 62
     2
 10
1260.1499996
 20
183.501428041
 30
0.0
 42
-0.021820078
  0
VERTEX
  8
0
  6
CONTINUOUS
 62
     2
 10
1259.984452618
 20
183.6068931
 30
0.0
 42
-0.021820078
  0
VERTEX
  8
0
  6
CONTINUOUS
 62
     2
 10
1259.828727478
 20
183.726385203
 30
0.0
 42
-0.021820078
  0
VERTEX
  8
0
  6
CONTINUOUS
 62
     2
 10
1259.684009342
 20
183.858994942
 30
0.0
 42
-0.021820078
  0
VERTEX
  8
0
  6
CONTINUOUS
 62
     2
 10
1259.551399603
 20
184.003713078
 30
0.0
 42
-0.021820078
  0
VERTEX
  8
0
  6
CONTINUOUS
 62
     2
 10
1259.4319075
 20
184.159438218
 30
0.0
 42
-0.021820078
  0
VERTEX
  8
0
  6
CONTINUOUS
 62
     2
 10
1259.326442441
 20
184.3249852
 30
0.0
 42
-0.021820078
  0
VERTEX
  8
0
  6
CONTINUOUS
 62
     2
 10
1259.235807079
 20
184.499094111
 30
0.0
 42
-0.021820078
  0
VERTEX
  8
0
  6
CONTINUOUS
 62
     2
 10
1259.160691203
 20
184.680439878
 30
0.0
 42
-0.021820078
  0
VERTEX
  8
0
  6
CONTINUOUS
 62
     2
 10
1259.101666491
 20
184.867642349
 30
0.0
 42
-0.021820078
  0
VERTEX
  8
0
  6
CONTINUOUS
 62
     2
 10
1259.059182156
 20
185.0592768
 30
0.0
 42
-0.021820078
  0
VERTEX
  8
0
  6
CONTINUOUS
 62
     2
 10
1259.033561529
 20
185.253884779
 30
0.0
 42
-0.021820078
  0
VERTEX
  8
0
  6
CONTINUOUS
 62
     2
 10
1259.0249996
 20
185.4499852
 30
0.0
 42
-0.021820078
  0
VERTEX
  8
0
  6
CONTINUOUS
 62
     2
 10
1259.033561529
 20
185.646085621
 30
0.0
 42
-0.021820078
  0
VERTEX
  8
0
  6
CONTINUOUS
 62
     2
 10
1259.059182156
 20
185.8406936
 30
0.0
 42
-0.021820078
  0
VERTEX
  8
0
  6
CONTINUOUS
 62
     2
 10
1259.101666491
 20
186.032328051
 30
0.0
 42
-0.021820078
  0
VERTEX
  8
0
  6
CONTINUOUS
 62
     2
 10
1259.160691203
 20
186.219530522
 30
0.0
 42
-0.021820078
  0
VERTEX
  8
0
  6
CONTINUOUS
 62
     2
 10
1259.235807079
 20
186.400876289
 30
0.0
 42
-0.021820078
  0
VERTEX
  8
0
  6
CONTINUOUS
 62
     2
 10
1259.326442441
 20
186.5749852
 30
0.0
 42
-0.021820078
  0
VERTEX
  8
0
  6
CONTINUOUS
 62
     2
 10
1259.4319075
 20
186.740532182
 30
0.0
 42
-0.021820078
  0
VERTEX
  8
0
  6
CONTINUOUS
 62
     2
 10
1259.551399603
 20
186.896257322
 30
0.0
 42
-0.021820078
  0
VERTEX
  8
0
  6
CONTINUOUS
 62
     2
 10
1259.684009342
 20
187.040975458
 30
0.0
 42
-0.021820078
  0
VERTEX
  8
0
  6
CONTINUOUS
 62
     2
 10
1259.828727478
 20
187.173585197
 30
0.0
 42
-0.021820078
  0
VERTEX
  8
0
  6
CONTINUOUS
 62
     2
 10
1259.984452618
 20
187.2930773
 30
0.0
 42
-0.021820078
  0
VERTEX
  8
0
  6
CONTINUOUS
 62
     2
 10
1260.1499996
 20
187.398542359
 30
0.0
 42
-0.021820078
  0
VERTEX
  8
0
  6
CONTINUOUS
 62
     2
 10
1260.324108511
 20
187.489177721
 30
0.0
 42
-0.021820078
  0
VERTEX
  8
0
  6
CONTINUOUS
 62
     2
 10
1260.505454278
 20
187.564293597
 30
0.0
 42
-0.021820078
  0
VERTEX
  8
0
  6
CONTINUOUS
 62
     2
 10
1260.692656749
 20
187.623318309
 30
0.0
 42
-0.021820078
  0
VERTEX
  8
0
  6
CONTINUOUS
 62
     2
 10
1260.8842912
 20
187.665802644
 30
0.0
 42
-0.021820078
  0
VERTEX
  8
0
  6
CONTINUOUS
 62
     2
 10
1261.078899179
 20
187.691423271
 30
0.0
 42
-0.021820078
  0
VERTEX
  8
0
  6
CONTINUOUS
 62
     2
 10
1261.2749996
 20
187.6999852
 30
0.0
 42
-0.021820078
  0
VERTEX
  8
0
  6
CONTINUOUS
 62
     2
 10
1261.471100021
 20
187.691423271
 30
0.0
 42
-0.021820078
  0
VERTEX
  8
0
  6
CONTINUOUS
 62
     2
 10
1261.665708
 20
187.665802644
 30
0.0
 42
-0.021820078
  0
VERTEX
  8
0
  6
CONTINUOUS
 62
     2
 10
1261.857342451
 20
187.623318309
 30
0.0
 42
-0.021820078
  0
VERTEX
  8
0
  6
CONTINUOUS
 62
     2
 10
1262.044544922
 20
187.564293597
 30
0.0
 42
-0.021820078
  0
VERTEX
  8
0
  6
CONTINUOUS
 62
     2
 10
1262.225890689
 20
187.489177721
 30
0.0
 42
-0.021820078
  0
VERTEX
  8
0
  6
CONTINUOUS
 62
     2
 10
1262.3999996
 20
187.398542359
 30
0.0
 42
-0.021820078
  0
VERTEX
  8
0
  6
CONTINUOUS
 62
     2
 10
1262.565546582
 20
187.2930773
 30
0.0
 42
-0.021820078
  0
VERTEX
  8
0
  6
CONTINUOUS
 62
     2
 10
1262.721271722
 20
187.173585197
 30
0.0
 42
-0.021820078
  0
VERTEX
  8
0
  6
CONTINUOUS
 62
     2
 10
1262.865989858
 20
187.040975458
 30
0.0
 42
-0.021820078
  0
VERTEX
  8
0
  6
CONTINUOUS
 62
     2
 10
1262.998599597
 20
186.896257322
 30
0.0
 42
-0.021820078
  0
VERTEX
  8
0
  6
CONTINUOUS
 62
     2
 10
1263.1180917
 20
186.740532182
 30
0.0
 42
-0.021820078
  0
VERTEX
  8
0
  6
CONTINUOUS
 62
     2
 10
1263.223556759
 20
186.5749852
 30
0.0
 42
-0.021820078
  0
VERTEX
  8
0
  6
CONTINUOUS
 62
     2
 10
1263.314192121
 20
186.400876289
 30
0.0
 42
-0.021820078
  0
VERTEX
  8
0
  6
CONTINUOUS
 62
     2
 10
1263.389307997
 20
186.219530522
 30
0.0
 42
-0.021820078
  0
VERTEX
  8
0
  6
CONTINUOUS
 62
     2
 10
1263.448332709
 20
186.032328051
 30
0.0
 42
-0.021820078
  0
VERTEX
  8
0
  6
CONTINUOUS
 62
     2
 10
1263.490817044
 20
185.8406936
 30
0.0
 42
-0.021820078
  0
VERTEX
  8
0
  6
CONTINUOUS
 62
     2
 10
1263.516437671
 20
185.646085621
 30
0.0
 42
-0.021820078
  0
SEQEND
  8
0
  6
CONTINUOUS
 62
     2
  0
TEXT
  8
0
  6
CONTINUOUS
 62
     2
 10
1237.5249996
 20
175.0499852
 30
0.0
 40
10.0
  1
１
 50
0.0
 41
0.85
 51
0.0
  7
KANJI74
  0
TEXT
  8
0
  6
CONTINUOUS
 62
     2
 10
1262.5249996
 20
175.0499852
 30
0.0
 40
10.0
  1
２
 50
0.0
 41
0.85
 51
0.0
  7
KANJI74
  0
TEXT
  8
0
  6
CONTINUOUS
 62
     2
 10
1205.6249996
 20
172.2499852
 30
0.0
 40
10.0
  1
（ＮＣ）
 50
0.0
 41
0.75
 51
0.0
  7
KANJI75
  0
TEXT
  8
0
  6
CONTINUOUS
 62
     2
 10
1271.6249996
 20
172.2499852
 30
0.0
 40
10.0
  1
（ＮＣ）
 50
0.0
 41
0.75
 51
0.0
  7
KANJI75
  0
TEXT
  8
0
  6
CONTINUOUS
 62
     2
 10
1189.4999996
 20
143.2499852
 30
0.0
 40
15.0
  1
外部ＬＳリミットＳＷ
 50
0.0
 41
0.9
 51
0.0
  7
KANJI76
  0
TEXT
  8
0
  6
CONTINUOUS
 62
     2
 10
1226.7499996
 20
124.2499852
 30
0.0
 40
15.0
  1
端子符号
 50
0.0
 41
0.9
 51
0.0
  7
KANJI76
  0
LINE
  8
0
  6
CONTINUOUS
 62
     2
 10
1286.2499996
 20
130.7499852
 30
0.0
 11
1331.2499996
 21
130.7499852
 31
0.0
  0
LINE
  8
0
  6
CONTINUOUS
 62
     2
 10
1177.9999996
 20
130.7499852
 30
0.0
 11
1216.9999996
 21
130.7499852
 31
0.0
  0
LINE
  8
0
  6
LTYPE3
 62
     2
 10
934.6999996
 20
175.133959796
 30
0.0
 11
944.6599996
 21
175.133959796
 31
0.0
  0
LINE
  8
0
  6
LTYPE3
 62
     2
 10
939.6999996
 20
171.233959796
 30
0.0
 11
939.6999996
 21
179.113959796
 31
0.0
  0
LINE
  8
0
  6
LTYPE3
 62
     2
 10
934.6999996
 20
205.333959796
 30
0.0
 11
944.4999996
 21
205.333959796
 31
0.0
  0
LINE
  8
0
  6
LTYPE3
 62
     2
 10
939.6999996
 20
199.213959796
 30
0.0
 11
939.6999996
 21
209.233959796
 31
0.0
  0
LINE
  8
0
  6
LTYPE3
 62
     2
 10
935.9999996
 20
228.233959796
 30
0.0
 11
912.9999996
 21
228.233959796
 31
0.0
  0
ARC
  8
0
  6
CONTINUOUS
 62
     1
 10
936.6999996
 20
172.233959796
 30
0.0
 40
2.0
 50
180.0
 51
270.0
  0
LINE
  8
0
  6
CONTINUOUS
 62
     1
 10
911.2999996
 20
177.533959796
 30
0.0
 11
934.6999996
 21
177.533959796
 31
0.0
  0
ARC
  8
0
  6
CONTINUOUS
 62
     1
 10
911.2999996
 20
179.533959796
 30
0.0
 40
2.0
 50
180.0
 51
270.0
  0
LINE
  8
0
  6
CONTINUOUS
 62
     1
 10
909.2999996
 20
179.533959796
 30
0.0
 11
909.2999996
 21
200.933959796
 31
0.0
  0
ARC
  8
0
  6
CONTINUOUS
 62
     1
 10
911.2999996
 20
200.933959796
 30
0.0
 40
2.0
 50
90.0
 51
180.0
  0
LINE
  8
0
  6
CONTINUOUS
 62
     1
 10
934.6999996
 20
172.233959796
 30
0.0
 11
934.6999996
 21
208.233959796
 31
0.0
  0
ARC
  8
0
  6
CONTINUOUS
 62
     1
 10
936.6999996
 20
208.233959796
 30
0.0
 40
2.0
 50
90.0
 51
180.0
  0
LINE
  8
0
  6
CONTINUOUS
 62
     1
 10
936.6999996
 20
210.233959796
 30
0.0
 11
1001.3999996
 21
210.233959796
 31
0.0
  0
LINE
  8
0
  6
CONTINUOUS
 62
     1
 10
936.6999996
 20
170.233959796
 30
0.0
 11
1001.3999996
 21
170.233959796
 31
0.0
  0
LINE
  8
0
  6
CONTINUOUS
 62
     1
 10
916.9999996
 20
177.533959796
 30
0.0
 11
916.9999996
 21
175.733959796
 31
0.0
  0
LINE
  8
0
  6
CONTINUOUS
 62
     1
 10
1036.9999996
 20
165.733959796
 30
0.0
 11
926.9999996
 21
165.733959796
 31
0.0
  0
ARC
  8
0
  6
CONTINUOUS
 62
     1
 10
926.9999996
 20
175.733959796
 30
0.0
 40
10.0
 50
180.0
 51
270.0
  0
LINE
  8
0
  6
CONTINUOUS
 62
     1
 10
919.008315612
 20
190.54974927
 30
0.0
 11
921.005543608
 21
228.444486112
 31
0.0
  0
LINE
  8
0
  6
CONTINUOUS
 62
     1
 10
930.991683588
 20
190.54974927
 30
0.0
 11
928.994455592
 21
228.444486112
 31
0.0
  0
ARC
  8
0
  6
CONTINUOUS
 62
     1
 10
924.9999996
 20
190.233959796
 30
0.0
 40
6.0
 50
176.983045121
 51
3.016954879
  0
LINE
  8
0
  6
CONTINUOUS
 62
     1
 10
930.338978383
 20
202.933959796
 30
0.0
 11
934.6999996
 21
202.933959796
 31
0.0
  0
LINE
  8
0
  6
CONTINUOUS
 62
     1
 10
911.2999996
 20
202.933959796
 30
0.0
 11
919.661020817
 21
202.933959796
 31
0.0
  0
LINE
  8
0
  6
LTYPE3
 62
     2
 10
915.738978383
 20
190.233959796
 30
0.0
 11
1006.9999996
 21
190.233959796
 31
0.0
  0
LINE
  8
0
  6
CONTINUOUS
 62
     1
 10
916.9999996
 20
224.689598077
 30
0.0
 11
916.9999996
 21
202.883959796
 31
0.0
  0
LINE
  8
0
  6
LTYPE3
 62
     2
 10
992.4999996
 20
205.333959796
 30
0.0
 11
1003.3999996
 21
205.333959796
 31
0.0
  0
LINE
  8
0
  6
LTYPE3
 62
     2
 10
998.3999996
 20
199.313959796
 30
0.0
 11
998.3999996
 21
209.233959796
 31
0.0
  0
LINE
  8
0
  6
LTYPE3
 62
     2
 10
991.9599996
 20
175.133959796
 30
0.0
 11
1003.3999996
 21
175.133959796
 31
0.0
  0
LINE
  8
0
  6
LTYPE3
 62
     2
 10
998.3999996
 20
171.233959796
 30
0.0
 11
998.3999996
 21
180.213959796
 31
0.0
  0
ARC
  8
0
  6
CONTINUOUS
 62
     1
 10
1001.3999996
 20
208.233959796
 30
0.0
 40
2.0
 50
0.0
 51
90.0
  0
ARC
  8
0
  6
CONTINUOUS
 62
     1
 10
1001.3999996
 20
172.233959796
 30
0.0
 40
2.0
 50
270.0
 51
0.0
  0
LINE
  8
0
  6
CONTINUOUS
 62
     1
 10
1003.3999996
 20
172.233959796
 30
0.0
 11
1003.3999996
 21
208.233959796
 31
0.0
  0
ARC
  8
0
  6
CONTINUOUS
 62
     1
 10
1036.9999996
 20
175.733959796
 30
0.0
 40
10.0
 50
270.0
 51
0.0
  0
LINE
  8
7
  6
CONTINUOUS
 62
     2
 10
1003.3999996
 20
190.233959796
 30
0.0
 11
1011.767307185
 21
195.710104771
 31
0.0
  0
LINE
  8
7
  6
CONTINUOUS
 62
     2
 10
1003.3999996
 20
190.233959796
 30
0.0
 11
1007.908228042
 21
199.160094251
 31
0.0
  0
LINE
  8
7
  6
CONTINUOUS
 62
     2
 10
1003.3999996
 20
190.233959796
 30
0.0
 11
1016.0499996
 21
204.383959796
 31
0.0
  0
LINE
  8
7
  6
CONTINUOUS
 62
     2
 10
1016.0499996
 20
204.383959796
 30
0.0
 11
1074.8499996
 21
204.383959796
 31
0.0
  0
TEXT
  8
7
  6
CONTINUOUS
 62
     2
 10
1016.0499996
 20
208.383959796
 30
1.2
 40
12.0
  1
ＰＦ１／２
 50
0.0
 41
0.9
 51
0.0
  7
KANJI73
  0
LINE
  8
0
  6
CONTINUOUS
 62
     1
 10
1046.9999996
 20
201.433959796
 30
0.0
 11
1046.9999996
 21
175.733959796
 31
0.0
  0
LINE
  8
0
  6
CONTINUOUS
 62
     2
 10
920.9999996
 20
165.733959796
 30
0.0
 11
864.0
 21
165.733959796
 31
0.0
  0
LINE
  8
0
  6
CONTINUOUS
 62
     2
 10
916.9999996
 20
171.533959796
 30
0.0
 11
916.9999996
 21
121.533959796
 31
0.0
  0
LINE
  8
0
  6
CONTINUOUS
 62
     2
 10
1046.9999996
 20
169.733959796
 30
0.0
 11
1046.9999996
 21
121.533959796
 31
0.0
  0
TEXT
  8
0
  6
CONTINUOUS
 62
     3
 10
957.6999996
 20
136.533959796
 30
0.0
 40
18.0
  1
１３０
 50
0.0
 41
0.9
 51
0.0
  7
KANJI41
  0
LINE
  8
0
  6
CONTINUOUS
 62
     2
 10
916.9999996
 20
127.533959796
 30
0.0
 11
928.591109515
 21
130.639788337
 31
0.0
  0
LINE
  8
0
  6
CONTINUOUS
 62
     2
 10
1046.9999996
 20
127.533959796
 30
0.0
 11
1035.408889685
 21
130.639788337
 31
0.0
  0
LINE
  8
0
  6
CONTINUOUS
 62
     2
 10
870.0
 20
165.733959796
 30
0.0
 11
873.105828541
 21
177.325069712
 31
0.0
  0
LINE
  8
0
  6
CONTINUOUS
 62
     2
 10
870.0
 20
165.733959796
 30
0.0
 11
866.894171459
 21
177.325069712
 31
0.0
  0
LINE
  8
0
  6
CONTINUOUS
 62
     2
 10
916.9999996
 20
127.533959796
 30
0.0
 11
928.591109515
 21
124.428131255
 31
0.0
  0
LINE
  8
0
  6
CONTINUOUS
 62
     2
 10
916.9999996
 20
127.533959796
 30
0.0
 11
1046.9999996
 21
127.533959796
 31
0.0
  0
LINE
  8
0
  6
CONTINUOUS
 62
     2
 10
1046.9999996
 20
127.533959796
 30
0.0
 11
1035.408889685
 21
124.428131255
 31
0.0
  0
LINE
  8
0
  6
CONTINUOUS
 62
     2
 10
955.9999996
 20
629.0999852
 30
0.0
 11
955.9999996
 21
614.4999852
 31
0.0
  0
LINE
  8
0
  6
CONTINUOUS
 62
     2
 10
1662.79037624
 20
582.489985927
 30
0.0
 11
1651.778437487
 21
577.721631399
 31
0.0
  0
LINE
  8
0
  6
CONTINUOUS
 62
     2
 10
1662.79037624
 20
582.489985927
 30
0.0
 11
1655.637934799
 21
572.854500395
 31
0.0
  0
LINE
  8
0
  6
CONTINUOUS
 62
     2
 10
1662.79037624
 20
582.489985927
 30
0.0
 11
1540.0999996
 21
485.1999852
 31
0.0
  0
LINE
  8
0
  6
CONTINUOUS
 62
     1
 10
2182.833333333
 20
899.333333333
 30
0.0
 11
2795.333333333
 21
899.333333333
 31
0.0
  0
TEXT
  8
0
  6
CONTINUOUS
 62
     2
 10
2738.458333333
 20
908.958333333
 30
0.0
 40
28.0
  1
ｋｇ
 50
0.0
 41
1.0
 51
0.0
  7
KANJI77
  0
LINE
  8
0
  6
CONTINUOUS
 62
     1
 10
2182.833333333
 20
1900.333333333
 30
0.0
 11
2182.833333333
 21
899.333333333
 31
0.0
  0
LINE
  8
0
  6
CONTINUOUS
 62
     2
 10
2504.833333333
 20
1830.333333333
 30
0.0
 11
2504.833333333
 21
899.333333333
 31
0.0
  0
LINE
  8
0
  6
CONTINUOUS
 62
     1
 10
2795.333333333
 20
1900.333333333
 30
0.0
 11
2795.333333333
 21
899.333333333
 31
0.0
  0
TEXT
  8
0
  6
CONTINUOUS
 62
     2
 10
2221.333333333
 20
911.933333333
 30
3.5
 40
26.6
  1
概算重量（１台当り）
 50
0.0
 41
0.9
 51
0.0
  7
KANJI78
  0
TEXT
  8
0
  6
CONTINUOUS
 62
     2
 10
1438.610105233
 20
145.593329133
 30
0.0
 40
21.0
  1
０８．０４．０９　岡田　回路図追加
 50
0.0
 41
0.9
 51
0.0
  7
KANJI16
  0
LINE
  8
0
  6
CONTINUOUS
 62
     1
 10
383.8999996
 20
883.9999852
 30
0.0
 11
378.8999996
 21
878.9999852
 31
0.0
  0
LINE
  8
0
  6
CONTINUOUS
 62
     1
 10
448.8999996
 20
883.9999852
 30
0.0
 11
383.8999996
 21
883.9999852
 31
0.0
  0
LINE
  8
0
  6
CONTINUOUS
 62
     1
 10
448.8999996
 20
883.9999852
 30
0.0
 11
453.8999996
 21
878.9999852
 31
0.0
  0
LINE
  8
0
  6
CONTINUOUS
 62
     1
 10
453.8999996
 20
788.9999852
 30
0.0
 11
453.8999996
 21
878.9999852
 31
0.0
  0
LINE
  8
0
  6
CONTINUOUS
 62
     1
 10
453.8999996
 20
788.9999852
 30
0.0
 11
448.8999996
 21
783.9999852
 31
0.0
  0
LINE
  8
0
  6
CONTINUOUS
 62
     1
 10
448.8999996
 20
783.9999852
 30
0.0
 11
383.8999996
 21
783.9999852
 31
0.0
  0
LINE
  8
0
  6
CONTINUOUS
 62
     1
 10
378.8999996
 20
788.9999852
 30
0.0
 11
378.8999996
 21
878.9999852
 31
0.0
  0
LINE
  8
0
  6
CONTINUOUS
 62
     1
 10
383.8999996
 20
783.9999852
 30
0.0
 11
378.8999996
 21
788.9999852
 31
0.0
  0
LINE
  8
0
  6
CONTINUOUS
 62
     2
 10
393.8999996
 20
873.9999852
 30
0.0
 11
381.8999996
 21
873.9999852
 31
0.0
  0
LINE
  8
0
  6
CONTINUOUS
 62
     2
 10
449.8999996
 20
873.9999852
 30
0.0
 11
437.8999996
 21
873.9999852
 31
0.0
  0
LINE
  8
0
  6
CONTINUOUS
 62
     2
 10
388.8999996
 20
867.9999852
 30
0.0
 11
388.8999996
 21
883.4999852
 31
0.0
  0
LINE
  8
0
  6
CONTINUOUS
 62
     2
 10
388.8999996
 20
786.4999852
 30
0.0
 11
388.8999996
 21
800.9999852
 31
0.0
  0
LINE
  8
0
  6
CONTINUOUS
 62
     2
 10
396.8999996
 20
793.9999852
 30
0.0
 11
381.8999996
 21
793.9999852
 31
0.0
  0
LINE
  8
0
  6
CONTINUOUS
 62
     2
 10
448.8999996
 20
793.9999852
 30
0.0
 11
435.8999996
 21
793.9999852
 31
0.0
  0
LINE
  8
0
  6
CONTINUOUS
 62
     2
 10
443.8999996
 20
867.9999852
 30
0.0
 11
443.8999996
 21
883.4999852
 31
0.0
  0
LINE
  8
0
  6
CONTINUOUS
 62
     2
 10
443.8999996
 20
786.4999852
 30
0.0
 11
443.8999996
 21
800.9999852
 31
0.0
  0
LINE
  8
0
  6
CONTINUOUS
 62
     1
 10
417.8999996
 20
770.4999852
 30
0.0
 11
417.8999996
 21
700.4999852
 31
0.0
  0
TEXT
  8
0
  6
CONTINUOUS
 62
     2
 10
422.8999996
 20
759.4999852
 30
5.0
 40
20.0
  1
銘板
 50
270.0
 41
0.925
 51
0.0
  7
KANJI79
  0
LINE
  8
0
  6
CONTINUOUS
 62
     1
 10
460.8999996
 20
770.4999852
 30
0.0
 11
417.8999996
 21
770.4999852
 31
0.0
  0
LINE
  8
0
  6
CONTINUOUS
 62
     1
 10
460.8999996
 20
770.4999852
 30
0.0
 11
460.8999996
 21
700.4999852
 31
0.0
  0
LINE
  8
0
  6
CONTINUOUS
 62
     1
 10
460.8999996
 20
700.4999852
 30
0.0
 11
417.8999996
 21
700.4999852
 31
0.0
  0
TEXT
  8
0
  6
CONTINUOUS
 62
     2
 10
2588.833333333
 20
1107.933333333
 30
14.0
 40
24.5
  1
別切り
 50
0.0
 41
0.9
 51
0.0
  7
KANJI80
  0
ENDSEC
  0
EOF
