  0
SECTION
  2
HEADER
  9
$ACADVER
  1
AC1009
  9
$DWGCODEPAGE
  3
dos932
  9
$EXTMIN
 10
0.0
 20
0.0
 30
0.0
  9
$EXTMAX
 10
2940.0
 20
2079.0
 30
0.0
  9
$LIMMIN
 10
0.0
 20
0.0
  9
$LIMMAX
 10
2940.0
 20
2079.0
  9
$LTSCALE
 40
1.0
  9
$PDMODE
 70
     0
  0
ENDSEC
  0
SECTION
  2
TABLES
  0
TABLE
  2
VPORT
 70
     1
  0
VPORT
  2
*ACTIVE
 70
     0
 10
0.0
 20
0.0
 11
1.0
 21
1.0
 12
1470.0
 22
1039.5
 13
0.0
 23
0.0
 14
10.0
 24
10.0
 15
10.0
 25
10.0
 16
0.0
 26
0.0
 36
1.0
 17
0.0
 27
0.0
 37
0.0
 40
2940.0
 41
1.414141414
 42
50.0
 43
0.0
 44
0.0
 50
0.0
 51
0.0
 71
     0
 72
  1000
 73
     1
 74
     3
 75
     0
 76
     0
 77
     0
 78
     0
  0
ENDTAB
  0
TABLE
  2
LTYPE
 70
     7
  0
LTYPE
  2
CONTINUOUS
 70
    64
  3
Solid line
 72
    65
 73
     0
 40
0.0
  0
LTYPE
  2
LTYPE1
 70
    64
  3
HIDDEN
 72
    65
 73
     2
 40
21.0
 49
12.6
 49
-8.4
  0
LTYPE
  2
LTYPE2
 70
    64
  3
CENTER
 72
    65
 73
     4
 40
105.0
 49
73.5
 49
-10.5
 49
10.5
 49
-10.5
  0
LTYPE
  2
LTYPE3
 70
    64
  3
CENTER
 72
    65
 73
     4
 40
70.0
 49
49.0
 49
-7.0
 49
7.0
 49
-7.0
  0
LTYPE
  2
LTYPE4
 70
    64
  3
CENTER
 72
    65
 73
     4
 40
140.0
 49
98.0
 49
-14.0
 49
14.0
 49
-14.0
  0
LTYPE
  2
LTYPE5
 70
    64
  3
PHANTOM
 72
    65
 73
     6
 40
70.0
 49
52.5
 49
-3.5
 49
3.5
 49
-3.5
 49
3.5
 49
-3.5
  0
LTYPE
  2
LTYPE6
 70
    64
  3
CENTER
 72
    65
 73
     4
 40
63.0
 49
44.1
 49
-6.3
 49
6.3
 49
-6.3
  0
ENDTAB
  0
TABLE
  2
LAYER
 70
   128
  0
LAYER
  2
0
 70
     0
 62
     7
  6
CONTINUOUS
  0
LAYER
  2
2
 70
     0
 62
     7
  6
CONTINUOUS
  0
LAYER
  2
3
 70
     0
 62
     7
  6
CONTINUOUS
  0
LAYER
  2
4
 70
     0
 62
     7
  6
CONTINUOUS
  0
LAYER
  2
5
 70
     0
 62
     7
  6
CONTINUOUS
  0
LAYER
  2
6
 70
     0
 62
     7
  6
CONTINUOUS
  0
LAYER
  2
7
 70
     0
 62
     7
  6
CONTINUOUS
  0
LAYER
  2
8
 70
     0
 62
     7
  6
CONTINUOUS
  0
LAYER
  2
9
 70
     0
 62
     7
  6
CONTINUOUS
  0
LAYER
  2
10
 70
     0
 62
     7
  6
CONTINUOUS
  0
LAYER
  2
11
 70
     0
 62
     7
  6
CONTINUOUS
  0
LAYER
  2
12
 70
     0
 62
     7
  6
CONTINUOUS
  0
LAYER
  2
13
 70
     0
 62
     7
  6
CONTINUOUS
  0
LAYER
  2
14
 70
     0
 62
     7
  6
CONTINUOUS
  0
LAYER
  2
15
 70
     0
 62
     7
  6
CONTINUOUS
  0
LAYER
  2
16
 70
     0
 62
     7
  6
CONTINUOUS
  0
LAYER
  2
17
 70
     0
 62
     7
  6
CONTINUOUS
  0
LAYER
  2
18
 70
     0
 62
     7
  6
CONTINUOUS
  0
LAYER
  2
19
 70
     0
 62
     7
  6
CONTINUOUS
  0
LAYER
  2
20
 70
     0
 62
     7
  6
CONTINUOUS
  0
LAYER
  2
21
 70
     0
 62
     7
  6
CONTINUOUS
  0
LAYER
  2
22
 70
     0
 62
     7
  6
CONTINUOUS
  0
LAYER
  2
23
 70
     0
 62
     7
  6
CONTINUOUS
  0
LAYER
  2
24
 70
     0
 62
     7
  6
CONTINUOUS
  0
LAYER
  2
25
 70
     0
 62
     7
  6
CONTINUOUS
  0
LAYER
  2
26
 70
     0
 62
     7
  6
CONTINUOUS
  0
LAYER
  2
27
 70
     0
 62
     7
  6
CONTINUOUS
  0
LAYER
  2
28
 70
     0
 62
     7
  6
CONTINUOUS
  0
LAYER
  2
29
 70
     0
 62
     7
  6
CONTINUOUS
  0
LAYER
  2
30
 70
     0
 62
     7
  6
CONTINUOUS
  0
LAYER
  2
31
 70
     0
 62
     7
  6
CONTINUOUS
  0
LAYER
  2
32
 70
     0
 62
     7
  6
CONTINUOUS
  0
LAYER
  2
33
 70
     0
 62
     7
  6
CONTINUOUS
  0
LAYER
  2
34
 70
     0
 62
     7
  6
CONTINUOUS
  0
LAYER
  2
35
 70
     0
 62
     7
  6
CONTINUOUS
  0
LAYER
  2
36
 70
     0
 62
     7
  6
CONTINUOUS
  0
LAYER
  2
37
 70
     0
 62
     7
  6
CONTINUOUS
  0
LAYER
  2
38
 70
     0
 62
     7
  6
CONTINUOUS
  0
LAYER
  2
39
 70
     0
 62
     7
  6
CONTINUOUS
  0
LAYER
  2
40
 70
     0
 62
     7
  6
CONTINUOUS
  0
LAYER
  2
41
 70
     0
 62
     7
  6
CONTINUOUS
  0
LAYER
  2
42
 70
     0
 62
     7
  6
CONTINUOUS
  0
LAYER
  2
43
 70
     0
 62
     7
  6
CONTINUOUS
  0
LAYER
  2
44
 70
     0
 62
     7
  6
CONTINUOUS
  0
LAYER
  2
45
 70
     0
 62
     7
  6
CONTINUOUS
  0
LAYER
  2
46
 70
     0
 62
     7
  6
CONTINUOUS
  0
LAYER
  2
47
 70
     0
 62
     7
  6
CONTINUOUS
  0
LAYER
  2
48
 70
     0
 62
     7
  6
CONTINUOUS
  0
LAYER
  2
49
 70
     0
 62
     7
  6
CONTINUOUS
  0
LAYER
  2
50
 70
     0
 62
     7
  6
CONTINUOUS
  0
LAYER
  2
51
 70
     0
 62
     7
  6
CONTINUOUS
  0
LAYER
  2
52
 70
     0
 62
     7
  6
CONTINUOUS
  0
LAYER
  2
53
 70
     0
 62
     7
  6
CONTINUOUS
  0
LAYER
  2
54
 70
     0
 62
     7
  6
CONTINUOUS
  0
LAYER
  2
55
 70
     0
 62
     7
  6
CONTINUOUS
  0
LAYER
  2
56
 70
     0
 62
     7
  6
CONTINUOUS
  0
LAYER
  2
57
 70
     0
 62
     7
  6
CONTINUOUS
  0
LAYER
  2
58
 70
     0
 62
     7
  6
CONTINUOUS
  0
LAYER
  2
59
 70
     0
 62
     7
  6
CONTINUOUS
  0
LAYER
  2
60
 70
     0
 62
     7
  6
CONTINUOUS
  0
LAYER
  2
61
 70
     0
 62
     7
  6
CONTINUOUS
  0
LAYER
  2
62
 70
     0
 62
     7
  6
CONTINUOUS
  0
LAYER
  2
63
 70
     0
 62
     7
  6
CONTINUOUS
  0
LAYER
  2
64
 70
     0
 62
     7
  6
CONTINUOUS
  0
LAYER
  2
65
 70
     0
 62
     7
  6
CONTINUOUS
  0
LAYER
  2
66
 70
     0
 62
     7
  6
CONTINUOUS
  0
LAYER
  2
67
 70
     0
 62
     7
  6
CONTINUOUS
  0
LAYER
  2
68
 70
     0
 62
     7
  6
CONTINUOUS
  0
LAYER
  2
69
 70
     0
 62
     7
  6
CONTINUOUS
  0
LAYER
  2
70
 70
     0
 62
     7
  6
CONTINUOUS
  0
LAYER
  2
71
 70
     0
 62
     7
  6
CONTINUOUS
  0
LAYER
  2
72
 70
     0
 62
     7
  6
CONTINUOUS
  0
LAYER
  2
73
 70
     0
 62
     7
  6
CONTINUOUS
  0
LAYER
  2
74
 70
     0
 62
     7
  6
CONTINUOUS
  0
LAYER
  2
75
 70
     0
 62
     7
  6
CONTINUOUS
  0
LAYER
  2
76
 70
     0
 62
     7
  6
CONTINUOUS
  0
LAYER
  2
77
 70
     0
 62
     7
  6
CONTINUOUS
  0
LAYER
  2
78
 70
     0
 62
     7
  6
CONTINUOUS
  0
LAYER
  2
79
 70
     0
 62
     7
  6
CONTINUOUS
  0
LAYER
  2
80
 70
     0
 62
     7
  6
CONTINUOUS
  0
LAYER
  2
81
 70
     0
 62
     7
  6
CONTINUOUS
  0
LAYER
  2
82
 70
     0
 62
     7
  6
CONTINUOUS
  0
LAYER
  2
83
 70
     0
 62
     7
  6
CONTINUOUS
  0
LAYER
  2
84
 70
     0
 62
     7
  6
CONTINUOUS
  0
LAYER
  2
85
 70
     0
 62
     7
  6
CONTINUOUS
  0
LAYER
  2
86
 70
     0
 62
     7
  6
CONTINUOUS
  0
LAYER
  2
87
 70
     0
 62
     7
  6
CONTINUOUS
  0
LAYER
  2
88
 70
     0
 62
     7
  6
CONTINUOUS
  0
LAYER
  2
89
 70
     0
 62
     7
  6
CONTINUOUS
  0
LAYER
  2
90
 70
     0
 62
     7
  6
CONTINUOUS
  0
LAYER
  2
91
 70
     0
 62
     7
  6
CONTINUOUS
  0
LAYER
  2
92
 70
     0
 62
     7
  6
CONTINUOUS
  0
LAYER
  2
93
 70
     0
 62
     7
  6
CONTINUOUS
  0
LAYER
  2
94
 70
     0
 62
     7
  6
CONTINUOUS
  0
LAYER
  2
95
 70
     0
 62
     7
  6
CONTINUOUS
  0
LAYER
  2
96
 70
     0
 62
     7
  6
CONTINUOUS
  0
LAYER
  2
97
 70
     0
 62
     7
  6
CONTINUOUS
  0
LAYER
  2
98
 70
     0
 62
     7
  6
CONTINUOUS
  0
LAYER
  2
99
 70
     0
 62
     7
  6
CONTINUOUS
  0
LAYER
  2
100
 70
     0
 62
     7
  6
CONTINUOUS
  0
LAYER
  2
101
 70
     0
 62
     7
  6
CONTINUOUS
  0
LAYER
  2
102
 70
     0
 62
     7
  6
CONTINUOUS
  0
LAYER
  2
103
 70
     0
 62
     7
  6
CONTINUOUS
  0
LAYER
  2
104
 70
     0
 62
     7
  6
CONTINUOUS
  0
LAYER
  2
105
 70
     0
 62
     7
  6
CONTINUOUS
  0
LAYER
  2
106
 70
     0
 62
     7
  6
CONTINUOUS
  0
LAYER
  2
107
 70
     0
 62
     7
  6
CONTINUOUS
  0
LAYER
  2
108
 70
     0
 62
     7
  6
CONTINUOUS
  0
LAYER
  2
109
 70
     0
 62
     7
  6
CONTINUOUS
  0
LAYER
  2
110
 70
     0
 62
     7
  6
CONTINUOUS
  0
LAYER
  2
111
 70
     0
 62
     7
  6
CONTINUOUS
  0
LAYER
  2
112
 70
     0
 62
     7
  6
CONTINUOUS
  0
LAYER
  2
113
 70
     0
 62
     7
  6
CONTINUOUS
  0
LAYER
  2
114
 70
     0
 62
     7
  6
CONTINUOUS
  0
LAYER
  2
115
 70
     0
 62
     7
  6
CONTINUOUS
  0
LAYER
  2
116
 70
     0
 62
     7
  6
CONTINUOUS
  0
LAYER
  2
117
 70
     0
 62
     7
  6
CONTINUOUS
  0
LAYER
  2
118
 70
     0
 62
     7
  6
CONTINUOUS
  0
LAYER
  2
119
 70
     0
 62
     7
  6
CONTINUOUS
  0
LAYER
  2
120
 70
     0
 62
     7
  6
CONTINUOUS
  0
LAYER
  2
121
 70
     0
 62
     7
  6
CONTINUOUS
  0
LAYER
  2
122
 70
     0
 62
     7
  6
CONTINUOUS
  0
LAYER
  2
123
 70
     0
 62
     7
  6
CONTINUOUS
  0
LAYER
  2
124
 70
     0
 62
     7
  6
CONTINUOUS
  0
LAYER
  2
125
 70
     0
 62
     7
  6
CONTINUOUS
  0
LAYER
  2
126
 70
     0
 62
     7
  6
CONTINUOUS
  0
LAYER
  2
127
 70
     0
 62
     7
  6
CONTINUOUS
  0
LAYER
  2
128
 70
     0
 62
     7
  6
CONTINUOUS
  0
ENDTAB
  0
TABLE
  2
STYLE
 70
    84
  0
STYLE
  2
STANDARD
 70
     0
 40
0.0
 41
1.0
 50
0.0
 71
     0
 42
0.2
  3
txt.shx
  4
extfont.shx
  0
STYLE
  2
KANJI0
 70
     0
 40
18.1999986
 41
0.75
 50
0.0
 71
     0
 42
18.1999986
  3
txt.shx
  4
extfont.shx
  0
STYLE
  2
KANJI1
 70
     0
 40
13.999997056
 41
0.6
 50
0.0
 71
     0
 42
13.999997056
  3
txt.shx
  4
extfont.shx
  0
STYLE
  2
KANJI2
 70
     0
 40
16.799996468
 41
0.9
 50
0.0
 71
     0
 42
16.799996468
  3
txt.shx
  4
extfont.shx
  0
STYLE
  2
KANJI3
 70
     0
 40
20.999995585
 41
0.9
 50
0.0
 71
     0
 42
20.999995585
  3
txt.shx
  4
extfont.shx
  0
STYLE
  2
KANJI4
 70
     0
 40
12.1333324
 41
0.6
 50
0.0
 71
     0
 42
12.1333324
  3
txt.shx
  4
extfont.shx
  0
STYLE
  2
KANJI5
 70
     0
 40
14.55999888
 41
0.6
 50
0.0
 71
     0
 42
14.55999888
  3
txt.shx
  4
extfont.shx
  0
STYLE
  2
KANJI6
 70
     0
 40
21.2333317
 41
0.42031746
 50
0.0
 71
     0
 42
21.2333317
  3
txt.shx
  4
extfont.shx
  0
STYLE
  2
KANJI7
 70
     0
 40
36.3999972
 41
0.9
 50
0.0
 71
     0
 42
36.3999972
  3
txt.shx
  4
extfont.shx
  0
STYLE
  2
KANJI8
 70
     0
 40
25.2
 41
1.111111111
 50
0.0
 71
     0
 42
25.2
  3
txt.shx
  4
extfont.shx
  0
STYLE
  2
KANJI9
 70
     0
 40
12.1333324
 41
0.8
 50
0.0
 71
     0
 42
12.1333324
  3
txt.shx
  4
extfont.shx
  0
STYLE
  2
KANJI10
 70
     0
 40
14.55999888
 41
0.8
 50
0.0
 71
     0
 42
14.55999888
  3
txt.shx
  4
extfont.shx
  0
STYLE
  2
KANJI11
 70
     0
 40
35.0
 41
1.0
 50
0.0
 71
     0
 42
35.0
  3
txt.shx
  4
extfont.shx
  0
STYLE
  2
KANJI12
 70
     0
 40
35.0
 41
1.0
 50
0.0
 71
     0
 42
35.0
  3
txt.shx
  4
extfont.shx
  0
STYLE
  2
KANJI13
 70
     0
 40
35.0
 41
0.8
 50
0.0
 71
     0
 42
35.0
  3
txt.shx
  4
extfont.shx
  0
STYLE
  2
KANJI14
 70
     0
 40
28.0
 41
1.0
 50
0.0
 71
     0
 42
28.0
  3
txt.shx
  4
extfont.shx
  0
STYLE
  2
KANJI15
 70
     0
 40
31.5
 41
0.666666667
 50
0.0
 71
     0
 42
31.5
  3
txt.shx
  4
extfont.shx
  0
STYLE
  2
KANJI16
 70
     0
 40
21.0
 41
0.9
 50
0.0
 71
     0
 42
21.0
  3
txt.shx
  4
extfont.shx
  0
STYLE
  2
KANJI17
 70
     0
 40
15.379
 41
0.85
 50
0.0
 71
     0
 42
15.379
  3
txt.shx
  4
extfont.shx
  0
STYLE
  2
KANJI18
 70
     0
 40
13.6045
 41
0.822608696
 50
0.0
 71
     0
 42
13.6045
  3
txt.shx
  4
extfont.shx
  0
STYLE
  2
KANJI19
 70
     0
 40
13.8411
 41
0.726495726
 50
0.0
 71
     0
 42
13.8411
  3
txt.shx
  4
extfont.shx
  0
STYLE
  2
KANJI20
 70
     4
 40
52.5
 41
0.538166667
 50
0.0
 71
     0
 42
52.5
  3
txt.shx
  4
extfont.shx
  0
STYLE
  2
KANJI21
 70
     0
 40
20.697485939
 41
0.880962996
 50
0.0
 71
     0
 42
20.697485939
  3
txt.shx
  4
extfont.shx
  0
STYLE
  2
KANJI22
 70
     0
 40
13.65
 41
0.8
 50
0.0
 71
     0
 42
13.65
  3
txt.shx
  4
extfont.shx
  0
STYLE
  2
KANJI23
 70
     0
 40
17.5
 41
0.911
 50
0.0
 71
     0
 42
17.5
  3
txt.shx
  4
extfont.shx
  0
STYLE
  2
KANJI24
 70
     0
 40
18.223173404
 41
0.66671875
 50
0.0
 71
     0
 42
18.223173404
  3
txt.shx
  4
extfont.shx
  0
STYLE
  2
KANJI25
 70
     0
 40
21.6
 41
0.9
 50
0.0
 71
     0
 42
21.6
  3
txt.shx
  4
extfont.shx
  0
STYLE
  2
KANJI26
 70
     0
 40
12.96
 41
0.9
 50
0.0
 71
     0
 42
12.96
  3
txt.shx
  4
extfont.shx
  0
STYLE
  2
KANJI27
 70
     0
 40
17.28
 41
0.9
 50
0.0
 71
     0
 42
17.28
  3
txt.shx
  4
extfont.shx
  0
STYLE
  2
KANJI28
 70
     0
 40
18.72
 41
0.925
 50
0.0
 71
     0
 42
18.72
  3
txt.shx
  4
extfont.shx
  0
STYLE
  2
KANJI29
 70
     0
 40
17.92
 41
0.9
 50
0.0
 71
     0
 42
17.92
  3
txt.shx
  4
extfont.shx
  0
STYLE
  2
KANJI30
 70
     0
 40
16.8
 41
0.9
 50
0.0
 71
     0
 42
16.8
  3
txt.shx
  4
extfont.shx
  0
STYLE
  2
KANJI31
 70
     0
 40
16.8
 41
0.9
 50
0.0
 71
     0
 42
16.8
  3
txt.shx
  4
extfont.shx
  0
STYLE
  2
KANJI32
 70
     0
 40
19.6
 41
0.9
 50
0.0
 71
     0
 42
19.6
  3
txt.shx
  4
extfont.shx
  0
STYLE
  2
KANJI33
 70
     0
 40
15.12
 41
0.740740741
 50
0.0
 71
     0
 42
15.12
  3
txt.shx
  4
extfont.shx
  0
STYLE
  2
KANJI34
 70
     0
 40
19.6
 41
0.857142857
 50
0.0
 71
     0
 42
19.6
  3
txt.shx
  4
extfont.shx
  0
STYLE
  2
KANJI35
 70
     0
 40
17.49993
 41
0.9
 50
0.0
 71
     0
 42
17.49993
  3
txt.shx
  4
extfont.shx
  0
STYLE
  2
KANJI36
 70
     0
 40
15.0
 41
0.9
 50
0.0
 71
     0
 42
15.0
  3
txt.shx
  4
extfont.shx
  0
STYLE
  2
KANJI37
 70
     0
 40
14.99994
 41
0.9
 50
0.0
 71
     0
 42
14.99994
  3
txt.shx
  4
extfont.shx
  0
STYLE
  2
KANJI38
 70
     0
 40
20.0
 41
0.925
 50
0.0
 71
     0
 42
20.0
  3
txt.shx
  4
extfont.shx
  0
STYLE
  2
KANJI39
 70
     0
 40
28.0
 41
0.9
 50
0.0
 71
     0
 42
28.0
  3
txt.shx
  4
extfont.shx
  0
STYLE
  2
KANJI40
 70
     0
 40
24.5
 41
0.857142857
 50
0.0
 71
     0
 42
24.5
  3
txt.shx
  4
extfont.shx
  0
STYLE
  2
KANJI41
 70
     0
 40
21.0
 41
0.9
 50
0.0
 71
     0
 42
21.0
  3
txt.shx
  4
extfont.shx
  0
STYLE
  2
KANJI42
 70
     0
 40
21.0
 41
0.914285714
 50
0.0
 71
     0
 42
21.0
  3
txt.shx
  4
extfont.shx
  0
STYLE
  2
KANJI43
 70
     0
 40
15.0
 41
0.9
 50
0.0
 71
     0
 42
15.0
  3
txt.shx
  4
extfont.shx
  0
STYLE
  2
KANJI44
 70
     0
 40
18.0
 41
0.9
 50
0.0
 71
     0
 42
18.0
  3
txt.shx
  4
extfont.shx
  0
STYLE
  2
KANJI45
 70
     0
 40
18.0
 41
0.9
 50
0.0
 71
     0
 42
18.0
  3
txt.shx
  4
extfont.shx
  0
STYLE
  2
KANJI46
 70
     0
 40
10.0
 41
0.85
 50
0.0
 71
     0
 42
10.0
  3
txt.shx
  4
extfont.shx
  0
STYLE
  2
KANJI47
 70
     0
 40
10.0
 41
0.75
 50
0.0
 71
     0
 42
10.0
  3
txt.shx
  4
extfont.shx
  0
STYLE
  2
KANJI48
 70
     0
 40
16.8
 41
0.833333333
 50
0.0
 71
     0
 42
16.8
  3
txt.shx
  4
extfont.shx
  0
STYLE
  2
KANJI49
 70
     0
 40
24.5
 41
0.793650794
 50
0.0
 71
     0
 42
24.5
  3
txt.shx
  4
extfont.shx
  0
STYLE
  2
KANJI50
 70
     0
 40
35.0
 41
0.8
 50
0.0
 71
     0
 42
35.0
  3
txt.shx
  4
extfont.shx
  0
STYLE
  2
KANJI51
 70
     0
 40
24.5
 41
0.857142857
 50
0.0
 71
     0
 42
24.5
  3
txt.shx
  4
extfont.shx
  0
STYLE
  2
KANJI52
 70
     0
 40
24.5
 41
0.571428571
 50
0.0
 71
     0
 42
24.5
  3
txt.shx
  4
extfont.shx
  0
STYLE
  2
KANJI53
 70
     0
 40
28.0
 41
0.925
 50
0.0
 71
     0
 42
28.0
  3
txt.shx
  4
extfont.shx
  0
STYLE
  2
KANJI54
 70
     0
 40
21.0
 41
0.9
 50
0.0
 71
     0
 42
21.0
  3
txt.shx
  4
extfont.shx
  0
STYLE
  2
KANJI55
 70
     0
 40
26.6
 41
0.9
 50
0.0
 71
     0
 42
26.6
  3
txt.shx
  4
extfont.shx
  0
STYLE
  2
KANJI56
 70
     0
 40
26.6
 41
0.9
 50
0.0
 71
     0
 42
26.6
  3
txt.shx
  4
extfont.shx
  0
STYLE
  2
KANJI57
 70
     0
 40
31.5
 41
0.9
 50
0.0
 71
     0
 42
31.5
  3
txt.shx
  4
extfont.shx
  0
STYLE
  2
KANJI58
 70
     0
 40
26.6
 41
0.9
 50
0.0
 71
     0
 42
26.6
  3
txt.shx
  4
extfont.shx
  0
STYLE
  2
KANJI59
 70
     0
 40
26.6
 41
0.9
 50
0.0
 71
     0
 42
26.6
  3
txt.shx
  4
extfont.shx
  0
STYLE
  2
KANJI60
 70
     0
 40
26.6
 41
0.9
 50
0.0
 71
     0
 42
26.6
  3
txt.shx
  4
extfont.shx
  0
STYLE
  2
KANJI61
 70
     0
 40
26.6
 41
0.9
 50
0.0
 71
     0
 42
26.6
  3
txt.shx
  4
extfont.shx
  0
STYLE
  2
KANJI62
 70
     0
 40
26.6
 41
0.9
 50
0.0
 71
     0
 42
26.6
  3
txt.shx
  4
extfont.shx
  0
STYLE
  2
KANJI63
 70
     0
 40
26.6
 41
0.9
 50
0.0
 71
     0
 42
26.6
  3
txt.shx
  4
extfont.shx
  0
STYLE
  2
KANJI64
 70
     4
 40
24.5
 41
0.9
 50
0.0
 71
     0
 42
24.5
  3
txt.shx
  4
extfont.shx
  0
STYLE
  2
KANJI65
 70
     4
 40
24.5
 41
0.9
 50
0.0
 71
     0
 42
24.5
  3
txt.shx
  4
extfont.shx
  0
STYLE
  2
KANJI66
 70
     0
 40
24.5
 41
0.9
 50
0.0
 71
     0
 42
24.5
  3
txt.shx
  4
extfont.shx
  0
STYLE
  2
KANJI67
 70
     0
 40
21.0
 41
0.9
 50
0.0
 71
     0
 42
21.0
  3
txt.shx
  4
extfont.shx
  0
STYLE
  2
KANJI68
 70
     0
 40
26.6
 41
0.9
 50
0.0
 71
     0
 42
26.6
  3
txt.shx
  4
extfont.shx
  0
STYLE
  2
KANJI69
 70
     0
 40
26.6
 41
0.9
 50
0.0
 71
     0
 42
26.6
  3
txt.shx
  4
extfont.shx
  0
STYLE
  2
KANJI70
 70
     0
 40
24.5
 41
0.628571429
 50
0.0
 71
     0
 42
24.5
  3
txt.shx
  4
extfont.shx
  0
STYLE
  2
KANJI71
 70
     0
 40
23.8
 41
0.705882353
 50
0.0
 71
     0
 42
23.8
  3
txt.shx
  4
extfont.shx
  0
STYLE
  2
KANJI72
 70
     0
 40
21.0
 41
0.8
 50
0.0
 71
     0
 42
21.0
  3
txt.shx
  4
extfont.shx
  0
STYLE
  2
KANJI73
 70
     0
 40
22.4
 41
0.71875
 50
0.0
 71
     0
 42
22.4
  3
txt.shx
  4
extfont.shx
  0
STYLE
  2
KANJI74
 70
     0
 40
22.4
 41
0.8
 50
0.0
 71
     0
 42
22.4
  3
txt.shx
  4
extfont.shx
  0
STYLE
  2
KANJI75
 70
     0
 40
24.5
 41
0.571428571
 50
0.0
 71
     0
 42
24.5
  3
txt.shx
  4
extfont.shx
  0
STYLE
  2
KANJI76
 70
     0
 40
21.0
 41
0.833333333
 50
0.0
 71
     0
 42
21.0
  3
txt.shx
  4
extfont.shx
  0
STYLE
  2
KANJI77
 70
     0
 40
21.0
 41
0.833333333
 50
0.0
 71
     0
 42
21.0
  3
txt.shx
  4
extfont.shx
  0
STYLE
  2
KANJI78
 70
     0
 40
28.0
 41
1.0
 50
0.0
 71
     0
 42
28.0
  3
txt.shx
  4
extfont.shx
  0
STYLE
  2
KANJI79
 70
     0
 40
12.0
 41
0.9
 50
0.0
 71
     0
 42
12.0
  3
txt.shx
  4
extfont.shx
  0
STYLE
  2
KANJI80
 70
     0
 40
26.6
 41
0.9
 50
0.0
 71
     0
 42
26.6
  3
txt.shx
  4
extfont.shx
  0
STYLE
  2
KANJI81
 70
     0
 40
20.0
 41
0.925
 50
0.0
 71
     0
 42
20.0
  3
txt.shx
  4
extfont.shx
  0
STYLE
  2
KANJI82
 70
     0
 40
24.5
 41
0.9
 50
0.0
 71
     0
 42
24.5
  3
txt.shx
  4
extfont.shx
  0
ENDTAB
  0
TABLE
  2
VIEW
 70
     0
  0
ENDTAB
  0
ENDSEC
  0
SECTION
  2
BLOCKS
  0
ENDSEC
  0
SECTION
  2
ENTITIES
  0
POLYLINE
  8
0
  6
CONTINUOUS
 62
     6
 66
     1
  0
VERTEX
  8
0
  6
CONTINUOUS
 62
     6
 10
103.16
 20
90.39
 30
0.0
  0
VERTEX
  8
0
  6
CONTINUOUS
 62
     6
 10
103.16
 20
1973.39
 30
0.0
  0
VERTEX
  8
0
  6
CONTINUOUS
 62
     6
 10
2812.16
 20
1973.39
 30
0.0
  0
SEQEND
  0
LINE
  8
0
  6
CONTINUOUS
 62
     6
 10
110.159998528
 20
195.389977923
 30
0.0
 11
565.159902862
 21
195.389977923
 31
0.0
  0
LINE
  8
0
  6
CONTINUOUS
 62
     6
 10
110.159998528
 20
97.389998528
 30
0.0
 11
565.159902862
 21
97.389998528
 31
0.0
  0
LINE
  8
0
  6
CONTINUOUS
 62
     6
 10
110.159998528
 20
97.389998528
 30
0.0
 11
110.159998528
 21
195.389977923
 31
0.0
  0
LINE
  8
0
  6
CONTINUOUS
 62
     6
 10
110.159998528
 20
146.389988226
 30
0.0
 11
565.159902862
 21
146.389988226
 31
0.0
  0
LINE
  8
0
  6
CONTINUOUS
 62
     4
 10
23.4766662
 20
96.4566662
 30
0.0
 11
96.2766606
 21
96.4566662
 31
0.0
  0
LINE
  8
0
  6
CONTINUOUS
 62
     4
 10
23.4766662
 20
132.8566634
 30
0.0
 11
96.2766606
 21
132.8566634
 31
0.0
  0
LINE
  8
0
  6
CONTINUOUS
 62
     4
 10
23.4766662
 20
169.2566606
 30
0.0
 11
96.2766606
 21
169.2566606
 31
0.0
  0
LINE
  8
0
  6
CONTINUOUS
 62
     4
 10
23.4766662
 20
205.6566578
 30
0.0
 11
96.2766606
 21
205.6566578
 31
0.0
  0
LINE
  8
0
  6
CONTINUOUS
 62
     4
 10
23.4766662
 20
242.056655
 30
0.0
 11
96.2766606
 21
242.056655
 31
0.0
  0
LINE
  8
0
  6
CONTINUOUS
 62
     4
 10
23.4766662
 20
278.4566522
 30
0.0
 11
96.2766606
 21
278.4566522
 31
0.0
  0
LINE
  8
0
  6
CONTINUOUS
 62
     4
 10
23.4766662
 20
314.8566494
 30
0.0
 11
96.2766606
 21
314.8566494
 31
0.0
  0
LINE
  8
0
  6
CONTINUOUS
 62
     4
 10
23.4766662
 20
351.2566466
 30
0.0
 11
96.2766606
 21
351.2566466
 31
0.0
  0
LINE
  8
0
  6
CONTINUOUS
 62
     4
 10
23.4766662
 20
387.6566438
 30
0.0
 11
96.2766606
 21
387.6566438
 31
0.0
  0
LINE
  8
0
  6
CONTINUOUS
 62
     4
 10
23.4766662
 20
424.056641
 30
0.0
 11
96.2766606
 21
424.056641
 31
0.0
  0
LINE
  8
0
  6
CONTINUOUS
 62
     4
 10
96.2766606
 20
96.4566662
 30
0.0
 11
96.2766606
 21
424.056641
 31
0.0
  0
LINE
  8
0
  6
CONTINUOUS
 62
     4
 10
59.8766634
 20
96.4566662
 30
0.0
 11
59.8766634
 21
387.6566438
 31
0.0
  0
TEXT
  8
0
  6
CONTINUOUS
 62
     4
 10
35.91333191
 20
107.07333205
 30
1.81999986
 40
18.1999986
  1
計
 50
0.0
 41
0.75
 51
0.0
  7
KANJI0
  0
TEXT
  8
0
  6
CONTINUOUS
 62
     4
 10
35.91333191
 20
180.47999307
 30
1.81999986
 40
18.1999986
  1
設
 50
0.0
 41
0.75
 51
0.0
  7
KANJI0
  0
TEXT
  8
0
  6
CONTINUOUS
 62
     4
 10
35.91333191
 20
216.27332365
 30
1.81999986
 40
18.1999986
  1
管
 50
0.0
 41
0.75
 51
0.0
  7
KANJI0
  0
TEXT
  8
0
  6
CONTINUOUS
 62
     4
 10
35.91333191
 20
252.67332085
 30
1.81999986
 40
18.1999986
  1
製
 50
0.0
 41
0.75
 51
0.0
  7
KANJI0
  0
TEXT
  8
0
  6
CONTINUOUS
 62
     4
 10
35.91333191
 20
289.07331805
 30
1.81999986
 40
18.1999986
  1
資
 50
0.0
 41
0.75
 51
0.0
  7
KANJI0
  0
TEXT
  8
0
  6
CONTINUOUS
 62
     4
 10
35.91333191
 20
325.47331525
 30
1.81999986
 40
18.1999986
  1
営
 50
0.0
 41
0.75
 51
0.0
  7
KANJI0
  0
TEXT
  8
0
  6
CONTINUOUS
 62
     4
 10
35.91333191
 20
361.87331245
 30
1.81999986
 40
18.1999986
  1
客
 50
0.0
 41
0.75
 51
0.0
  7
KANJI0
  0
TEXT
  8
0
  6
CONTINUOUS
 62
     4
 10
35.6099986
 20
399.7899762
 30
1.81999986
 40
18.1999986
  1
出　図
 50
0.0
 41
0.75
 51
0.0
  7
KANJI0
  0
LINE
  8
0
  6
CONTINUOUS
 62
     4
 10
23.4766662
 20
96.4566662
 30
0.0
 11
23.4766662
 21
424.056641
 31
0.0
  0
LINE
  8
0
  6
CONTINUOUS
 62
     6
 10
2812.16
 20
90.39
 30
0.0
 11
103.16
 21
90.39
 31
0.0
  0
TEXT
  8
0
  6
CONTINUOUS
 62
     4
 10
124.159995585
 20
125.389992641
 30
1.399999706
 40
13.999997056
  1
ＰＡＲＴＳ　ＬＩＳＴ
 50
0.0
 41
0.6
 51
0.0
  7
KANJI1
  0
TEXT
  8
0
  6
CONTINUOUS
 62
     4
 10
124.159995585
 20
104.389997056
 30
1.679999647
 40
16.799996468
  1
部品表
 50
0.0
 41
0.9
 51
0.0
  7
KANJI2
  0
TEXT
  8
0
  6
CONTINUOUS
 62
     3
 10
124.159995585
 20
160.389985282
 30
2.099999558
 40
20.999995585
  1
ＰＬ
 50
0.0
 41
0.9
 51
0.0
  7
KANJI3
  0
TEXT
  8
0
  6
CONTINUOUS
 62
     4
 10
439.159929354
 20
125.389992641
 30
1.399999706
 40
13.999997056
  1
Ｎ０．
 50
0.0
 41
0.6
 51
0.0
  7
KANJI1
  0
TEXT
  8
0
  6
CONTINUOUS
 62
     4
 10
439.159929354
 20
104.389997056
 30
1.679999647
 40
16.799996468
  1
項番
 50
0.0
 41
0.9
 51
0.0
  7
KANJI2
  0
LINE
  8
0
  6
CONTINUOUS
 62
     6
 10
565.159902862
 20
97.389998528
 30
0.0
 11
565.159902862
 21
195.389977923
 31
0.0
  0
LINE
  8
0
  6
CONTINUOUS
 62
     6
 10
425.159932297
 20
97.389998528
 30
0.0
 11
425.159932297
 21
195.389977923
 31
0.0
  0
LINE
  8
0
  6
CONTINUOUS
 62
     6
 10
2812.16
 20
1973.39
 30
0.0
 11
2812.16
 21
90.39
 31
0.0
  0
LINE
  8
0
  6
CONTINUOUS
 62
     6
 10
1871.826739
 20
96.4566662
 30
0.0
 11
1871.826739
 21
484.723303
 31
0.0
  0
LINE
  8
0
  6
CONTINUOUS
 62
     6
 10
2806.0933338
 20
96.4566662
 30
0.0
 11
2806.0933338
 21
484.723303
 31
0.0
  0
LINE
  8
0
  6
CONTINUOUS
 62
     4
 10
2093.2600553
 20
96.4566662
 30
0.0
 11
2093.2600553
 21
484.723303
 31
0.0
  0
LINE
  8
0
  6
CONTINUOUS
 62
     4
 10
1871.826739
 20
144.9899958
 30
0.0
 11
2093.2600553
 21
144.9899958
 31
0.0
  0
TEXT
  8
0
  6
CONTINUOUS
 62
     4
 10
1883.9600714
 20
123.7566641
 30
1.21333324
 40
12.1333324
  1
ＳＣＡＬＥ
 50
0.0
 41
0.6
 51
0.0
  7
KANJI4
  0
TEXT
  8
0
  6
CONTINUOUS
 62
     4
 10
1883.9600714
 20
105.5566655
 30
1.455999888
 40
14.55999888
  1
尺度
 50
0.0
 41
0.6
 51
0.0
  7
KANJI5
  0
LINE
  8
0
  6
CONTINUOUS
 62
     6
 10
1392.5601092
 20
144.9899958
 30
0.0
 11
1871.826739
 21
144.9899958
 31
0.0
  0
LINE
  8
0
  6
CONTINUOUS
 62
     6
 10
1392.5601092
 20
96.4566662
 30
0.0
 11
2806.0933338
 21
96.4566662
 31
0.0
  0
TEXT
  8
0
  6
CONTINUOUS
 62
     6
 10
2099.3267215
 20
123.7566641
 30
0.0
 40
21.2333317
  1
ＵＮＩＴＥＣ　ＩＮＤＵＳＴＲＹ　ＣＯ．，ＬＴＤ．
 50
0.0
 41
0.42031746
 51
0.0
  7
KANJI6
  0
TEXT
  8
0
  6
CONTINUOUS
 62
     6
 10
2397.124198593
 20
115.86999804
 30
3.63999972
 40
36.3999972
  1
ユニテック工業株式会社
 50
0.0
 41
0.9
 51
0.0
  7
KANJI7
  0
LINE
  8
0
  6
CONTINUOUS
 62
     6
 10
2348.590868993
 20
128.60999706
 30
0.0
 11
2332.574870225
 21
128.60999706
 31
0.0
  0
LINE
  8
0
  6
CONTINUOUS
 62
     6
 10
2348.590868993
 20
131.521996836
 30
0.0
 11
2332.574870225
 21
131.521996836
 31
0.0
  0
LINE
  8
0
  6
CONTINUOUS
 62
     6
 10
2348.590868993
 20
128.60999706
 30
0.0
 11
2364.606867761
 21
128.60999706
 31
0.0
  0
LINE
  8
0
  6
CONTINUOUS
 62
     6
 10
2348.590868993
 20
131.521996836
 30
0.0
 11
2364.606867761
 21
131.521996836
 31
0.0
  0
LINE
  8
0
  6
CONTINUOUS
 62
     6
 10
2364.606867761
 20
131.521996836
 30
0.0
 11
2364.606867761
 21
128.60999706
 31
0.0
  0
ARC
  8
0
  6
CONTINUOUS
 62
     6
 10
2368.246867481
 20
130.065996948
 30
0.0
 40
14.55999888
 50
185.739170477
 51
90.0
  0
ARC
  8
0
  6
CONTINUOUS
 62
     6
 10
2368.246867481
 20
130.065996948
 30
0.0
 40
17.471998656
 50
184.780191847
 51
90.0
  0
LINE
  8
0
  6
CONTINUOUS
 62
     6
 10
2332.574870225
 20
128.60999706
 30
0.0
 11
2332.574870225
 21
131.521996836
 31
0.0
  0
ARC
  8
0
  6
CONTINUOUS
 62
     6
 10
2328.934870505
 20
130.065996948
 30
0.0
 40
14.55999888
 50
90.0
 51
354.260829523
  0
ARC
  8
0
  6
CONTINUOUS
 62
     6
 10
2328.934870505
 20
130.065996948
 30
0.0
 40
17.471998656
 50
90.0
 51
355.219808153
  0
LINE
  8
0
  6
CONTINUOUS
 62
     6
 10
2346.406869161
 20
147.537995604
 30
0.0
 11
2346.406869161
 21
144.625995828
 31
0.0
  0
LINE
  8
0
  6
CONTINUOUS
 62
     6
 10
2328.934870505
 20
144.625995828
 30
0.0
 11
2346.406869161
 21
144.625995828
 31
0.0
  0
LINE
  8
0
  6
CONTINUOUS
 62
     6
 10
2350.774868825
 20
147.537995604
 30
0.0
 11
2350.774868825
 21
144.625995828
 31
0.0
  0
LINE
  8
0
  6
CONTINUOUS
 62
     6
 10
2368.246867481
 20
144.625995828
 30
0.0
 11
2350.774868825
 21
144.625995828
 31
0.0
  0
TEXT
  8
0
  6
CONTINUOUS
 62
     4
 10
1547.2600973
 20
123.7566641
 30
1.21333324
 40
12.1333324
  1
ＢＹ
 50
0.0
 41
0.6
 51
0.0
  7
KANJI4
  0
TEXT
  8
0
  6
CONTINUOUS
 62
     4
 10
1680.7267537
 20
123.7566641
 30
1.21333324
 40
12.1333324
  1
ＤＥＳＣＲＩＰＴＩＯＮ
 50
0.0
 41
0.6
 51
0.0
  7
KANJI4
  0
TEXT
  8
0
  6
CONTINUOUS
 62
     4
 10
1547.2600973
 20
105.5566655
 30
1.455999888
 40
14.55999888
  1
担当
 50
0.0
 41
0.6
 51
0.0
  7
KANJI5
  0
TEXT
  8
0
  6
CONTINUOUS
 62
     4
 10
1698.9267523
 20
105.5566655
 30
1.455999888
 40
14.55999888
  1
記　　　　事
 50
0.0
 41
0.6
 51
0.0
  7
KANJI5
  0
LINE
  8
0
  6
CONTINUOUS
 62
     4
 10
1418.34344055
 20
135.8899965
 30
0.0
 11
1398.6267754
 21
105.5566655
 31
0.0
  0
TEXT
  8
0
  6
CONTINUOUS
 62
     4
 10
1468.3934367
 20
123.7566641
 30
1.21333324
 40
12.1333324
  1
ＤＡＴＥ
 50
0.0
 41
0.6
 51
0.0
  7
KANJI4
  0
TEXT
  8
0
  6
CONTINUOUS
 62
     4
 10
1477.493436
 20
105.5566655
 30
1.455999888
 40
14.55999888
  1
日付
 50
0.0
 41
0.6
 51
0.0
  7
KANJI5
  0
LINE
  8
0
  6
CONTINUOUS
 62
     4
 10
1398.6267754
 20
105.5566655
 30
0.0
 11
1438.0601057
 21
105.5566655
 31
0.0
  0
LINE
  8
0
  6
CONTINUOUS
 62
     4
 10
1418.34344055
 20
135.8899965
 30
0.0
 11
1438.0601057
 21
105.5566655
 31
0.0
  0
LINE
  8
0
  6
CONTINUOUS
 62
     6
 10
1392.5601092
 20
96.4566662
 30
0.0
 11
1392.5601092
 21
144.9899958
 31
0.0
  0
LINE
  8
0
  6
CONTINUOUS
 62
     4
 10
1444.1267719
 20
96.4566662
 30
0.0
 11
1444.1267719
 21
144.9899958
 31
0.0
  0
LINE
  8
0
  6
CONTINUOUS
 62
     4
 10
1529.0600987
 20
96.4566662
 30
0.0
 11
1529.0600987
 21
144.9899958
 31
0.0
  0
LINE
  8
0
  6
CONTINUOUS
 62
     4
 10
1583.6600945
 20
96.4566662
 30
0.0
 11
1583.6600945
 21
144.9899958
 31
0.0
  0
TEXT
  8
0
  6
CONTINUOUS
 62
     4
 10
1883.9600714
 20
366.4233121
 30
1.21333324
 40
12.1333324
  1
ＣＯＤＥ
 50
0.0
 41
0.6
 51
0.0
  7
KANJI4
  0
LINE
  8
0
  6
CONTINUOUS
 62
     4
 10
1871.826739
 20
387.6566438
 30
0.0
 11
2806.0933338
 21
387.6566438
 31
0.0
  0
TEXT
  8
0
  6
CONTINUOUS
 62
     4
 10
1883.9600714
 20
348.2233135
 30
1.455999888
 40
14.55999888
  1
分類
 50
0.0
 41
0.6
 51
0.0
  7
KANJI5
  0
TEXT
  8
0
  6
CONTINUOUS
 62
     4
 10
1893.41
 20
394.89
 30
7.0
 40
25.2
  1
ご注文主
 50
0.0
 41
1.111111111
 51
0.0
  7
KANJI8
  0
TEXT
  8
0
  6
CONTINUOUS
 62
     4
 10
1883.9600714
 20
220.8233233
 30
1.21333324
 40
12.1333324
  1
ＤＲＡＷＮ
 50
0.0
 41
0.6
 51
0.0
  7
KANJI4
  0
TEXT
  8
0
  6
CONTINUOUS
 62
     4
 10
1883.9600714
 20
269.3566529
 30
1.21333324
 40
12.1333324
  1
ＤＥＳＩＧＮ
 50
0.0
 41
0.6
 51
0.0
  7
KANJI4
  0
TEXT
  8
0
  6
CONTINUOUS
 62
     4
 10
1883.9600714
 20
317.8899825
 30
1.21333324
 40
12.1333324
  1
ＣＨＥＣＫ
 50
0.0
 41
0.6
 51
0.0
  7
KANJI4
  0
LINE
  8
0
  6
CONTINUOUS
 62
     4
 10
1871.826739
 20
290.5899846
 30
0.0
 11
2093.2600553
 21
290.5899846
 31
0.0
  0
LINE
  8
0
  6
CONTINUOUS
 62
     4
 10
1871.826739
 20
242.056655
 30
0.0
 11
2093.2600553
 21
242.056655
 31
0.0
  0
LINE
  8
0
  6
CONTINUOUS
 62
     4
 10
1871.826739
 20
339.1233142
 30
0.0
 11
2093.2600553
 21
339.1233142
 31
0.0
  0
TEXT
  8
0
  6
CONTINUOUS
 62
     4
 10
1883.9600714
 20
251.1566543
 30
1.455999888
 40
14.55999888
  1
設計
 50
0.0
 41
0.6
 51
0.0
  7
KANJI5
  0
TEXT
  8
0
  6
CONTINUOUS
 62
     4
 10
1883.9600714
 20
299.6899839
 30
1.455999888
 40
14.55999888
  1
検図
 50
0.0
 41
0.6
 51
0.0
  7
KANJI5
  0
LINE
  8
0
  6
CONTINUOUS
 62
     4
 10
2111.15672059
 20
339.1233142
 30
0.0
 11
2806.0933338
 21
339.1233142
 31
0.0
  0
LINE
  8
0
  6
CONTINUOUS
 62
     4
 10
2093.2600553
 20
242.056655
 30
0.0
 11
2806.0933338
 21
242.056655
 31
0.0
  0
TEXT
  8
0
  6
CONTINUOUS
 62
     4
 10
2105.3933877
 20
220.8233233
 30
1.21333324
 40
12.1333324
  1
ＤＲＡＷＩＮＧ　ＮＯ．
 50
0.0
 41
0.8
 51
0.0
  7
KANJI9
  0
TEXT
  8
0
  6
CONTINUOUS
 62
     4
 10
2105.3933877
 20
269.3566529
 30
1.21333324
 40
12.1333324
  1
ＭＦＧ　ＮＯ．
 50
0.0
 41
0.8
 51
0.0
  7
KANJI9
  0
TEXT
  8
0
  6
CONTINUOUS
 62
     4
 10
2105.3933877
 20
317.8899825
 30
1.21333324
 40
12.1333324
  1
ＴＹＰＥ
 50
0.0
 41
0.8
 51
0.0
  7
KANJI9
  0
LINE
  8
0
  6
CONTINUOUS
 62
     4
 10
2111.4600539
 20
290.5899846
 30
0.0
 11
2390.5266991
 21
290.5899846
 31
0.0
  0
TEXT
  8
0
  6
CONTINUOUS
 62
     4
 10
2105.3933877
 20
199.5899916
 30
1.455999888
 40
14.55999888
  1
図　面　番　号
 50
0.0
 41
0.8
 51
0.0
  7
KANJI10
  0
TEXT
  8
0
  6
CONTINUOUS
 62
     4
 10
2105.3933877
 20
248.1233212
 30
1.455999888
 40
14.55999888
  1
製番
 50
0.0
 41
0.8
 51
0.0
  7
KANJI10
  0
TEXT
  8
0
  6
CONTINUOUS
 62
     4
 10
2105.3933877
 20
296.6566508
 30
1.455999888
 40
14.55999888
  1
機種
 50
0.0
 41
0.8
 51
0.0
  7
KANJI10
  0
LINE
  8
0
  6
CONTINUOUS
 62
     4
 10
1871.826739
 20
193.5233254
 30
0.0
 11
2093.2600553
 21
193.5233254
 31
0.0
  0
TEXT
  8
0
  6
CONTINUOUS
 62
     4
 10
1883.9600714
 20
172.2899937
 30
1.21333324
 40
12.1333324
  1
ＤＡＴＥ
 50
0.0
 41
0.6
 51
0.0
  7
KANJI4
  0
TEXT
  8
0
  6
CONTINUOUS
 62
     4
 10
1883.9600714
 20
154.0899951
 30
1.455999888
 40
14.55999888
  1
日付
 50
0.0
 41
0.6
 51
0.0
  7
KANJI5
  0
TEXT
  8
0
  6
CONTINUOUS
 62
     4
 10
1883.9600714
 20
202.6233247
 30
1.455999888
 40
14.55999888
  1
作図
 50
0.0
 41
0.6
 51
0.0
  7
KANJI5
  0
LINE
  8
0
  6
CONTINUOUS
 62
     4
 10
2093.2600553
 20
172.2899937
 30
0.0
 11
2806.0933338
 21
172.2899937
 31
0.0
  0
LINE
  8
0
  6
LTYPE1
 62
     4
 10
2602.8600161
 20
181.389993
 30
0.0
 11
2602.8600161
 21
229.9233226
 31
0.0
  0
LINE
  8
0
  6
LTYPE1
 62
     4
 10
2560.3933527
 20
181.389993
 30
0.0
 11
2560.3933527
 21
229.9233226
 31
0.0
  0
LINE
  8
0
  6
LTYPE1
 62
     4
 10
2517.9266893
 20
181.389993
 30
0.0
 11
2517.9266893
 21
229.9233226
 31
0.0
  0
LINE
  8
0
  6
LTYPE1
 62
     4
 10
2475.4600259
 20
181.389993
 30
0.0
 11
2475.4600259
 21
229.9233226
 31
0.0
  0
LINE
  8
0
  6
LTYPE1
 62
     4
 10
2432.9933625
 20
181.389993
 30
0.0
 11
2432.9933625
 21
229.9233226
 31
0.0
  0
LINE
  8
0
  6
LTYPE1
 62
     4
 10
2390.5266991
 20
181.389993
 30
0.0
 11
2390.5266991
 21
229.9233226
 31
0.0
  0
LINE
  8
0
  6
LTYPE1
 62
     4
 10
2348.0600357
 20
181.389993
 30
0.0
 11
2348.0600357
 21
229.9233226
 31
0.0
  0
LINE
  8
0
  6
LTYPE1
 62
     4
 10
2305.5933723
 20
181.389993
 30
0.0
 11
2305.5933723
 21
229.9233226
 31
0.0
  0
LINE
  8
0
  6
LTYPE1
 62
     4
 10
2305.5933723
 20
229.9233226
 30
0.0
 11
2602.8600161
 21
229.9233226
 31
0.0
  0
LINE
  8
0
  6
LTYPE1
 62
     4
 10
2305.5933723
 20
181.389993
 30
0.0
 11
2602.8600161
 21
181.389993
 31
0.0
  0
LINE
  8
0
  6
CONTINUOUS
 62
     4
 10
2627.1266809
 20
207.17332435
 30
0.0
 11
2639.2600133
 21
207.17332435
 31
0.0
  0
LINE
  8
0
  6
CONTINUOUS
 62
     4
 10
2702.9600084
 20
188.97332575
 30
0.0
 11
2660.493345
 21
188.97332575
 31
0.0
  0
LINE
  8
0
  6
CONTINUOUS
 62
     4
 10
2660.493345
 20
188.97332575
 30
0.0
 11
2681.7266767
 21
225.37332295
 31
0.0
  0
LINE
  8
0
  6
CONTINUOUS
 62
     4
 10
2681.7266767
 20
225.37332295
 30
0.0
 11
2702.9600084
 21
188.97332575
 31
0.0
  0
TEXT
  8
0
  6
CONTINUOUS
 62
     4
 10
2408.7266977
 20
317.8899825
 30
1.21333324
 40
12.1333324
  1
ＴＩＴＬＥ
 50
0.0
 41
0.8
 51
0.0
  7
KANJI9
  0
TEXT
  8
0
  6
CONTINUOUS
 62
     4
 10
2408.7266977
 20
296.6566508
 30
1.455999888
 40
14.55999888
  1
名称
 50
0.0
 41
0.8
 51
0.0
  7
KANJI10
  0
TEXT
  8
0
  6
CONTINUOUS
 62
     2
 10
2507.66
 20
251.39
 30
17.5
 40
35.0
  1
外形寸法図
 50
0.0
 41
1.0
 51
0.0
  7
KANJI11
  0
TEXT
  8
0
  6
CONTINUOUS
 62
     2
 10
2465.66
 20
293.39
 30
5.0
 40
35.0
  1
マイティシリンダ
 50
0.0
 41
1.0
 51
0.0
  7
KANJI12
  0
TEXT
  8
0
  6
CONTINUOUS
 62
     2
 10
2268.8433723
 20
188.389993
 30
2.1
 40
35.0
  1
Ａ
 50
0.0
 41
0.8
 51
0.0
  7
KANJI13
  0
CIRCLE
  8
0
  6
CONTINUOUS
 62
     2
 10
2223.3433723
 20
263.639993
 30
0.0
 40
17.5
  0
TEXT
  8
0
  6
CONTINUOUS
 62
     2
 10
2210.2183723
 20
250.514993
 30
2.1
 40
28.0
  1
Ｓ
 50
0.0
 41
1.0
 51
0.0
  7
KANJI14
  0
LINE
  8
0
  6
CONTINUOUS
 62
     6
 10
2346.406869161
 20
147.537995604
 30
0.0
 11
2328.934870505
 21
147.537995604
 31
0.0
  0
LINE
  8
0
  6
CONTINUOUS
 62
     6
 10
2350.774868825
 20
147.537995604
 30
0.0
 11
2368.246867481
 21
147.537995604
 31
0.0
  0
LINE
  8
0
  6
CONTINUOUS
 62
     4
 10
2806.0933338
 20
436.1899734
 30
0.0
 11
2806.0933338
 21
484.723303
 31
0.0
  0
LINE
  8
0
  6
CONTINUOUS
 62
     6
 10
1872.701739
 20
436.1899734
 30
0.0
 11
2806.9683338
 21
436.1899734
 31
0.0
  0
LINE
  8
0
  6
CONTINUOUS
 62
     6
 10
1871.826739
 20
484.723303
 30
0.0
 11
2806.0933338
 21
484.723303
 31
0.0
  0
TEXT
  8
0
  6
CONTINUOUS
 62
     4
 10
1893.41
 20
443.4233296
 30
7.0
 40
25.2
  1
ご用途
 50
0.0
 41
1.111111111
 51
0.0
  7
KANJI8
  0
TEXT
  8
0
  6
CONTINUOUS
 62
     2
 10
2000.16
 20
104.39
 30
2.1
 40
31.5
  1
１／７
 50
0.0
 41
0.666666667
 51
0.0
  7
KANJI15
  0
POLYLINE
  8
0
  6
CONTINUOUS
 62
     4
 66
     1
  0
VERTEX
  8
0
  6
CONTINUOUS
 62
     4
 10
1418.34344055
 20
184.4233261
 30
0.0
  0
VERTEX
  8
0
  6
CONTINUOUS
 62
     4
 10
1398.6267754
 20
154.0899951
 30
0.0
  0
VERTEX
  8
0
  6
CONTINUOUS
 62
     4
 10
1438.0601057
 20
154.0899951
 30
0.0
  0
SEQEND
  0
LINE
  8
0
  6
CONTINUOUS
 62
     4
 10
1418.34344055
 20
184.4233261
 30
0.0
 11
1438.0601057
 21
154.0899951
 31
0.0
  0
TEXT
  8
0
  6
CONTINUOUS
 62
     2
 10
1411.3567719
 20
155.7799958
 30
0.0
 40
21.0
  1
１
 50
0.0
 41
0.9
 51
0.0
  7
KANJI16
  0
LINE
  8
0
  6
CONTINUOUS
 62
     6
 10
422.487662562
 20
1910.095719798
 30
0.0
 11
151.768754258
 21
1910.095719798
 31
0.0
  0
LINE
  8
0
  6
CONTINUOUS
 62
     3
 10
422.487662562
 20
1878.056136465
 30
0.0
 11
151.768754258
 21
1878.056136465
 31
0.0
  0
LINE
  8
0
  6
CONTINUOUS
 62
     6
 10
422.487662562
 20
1878.056136465
 30
0.0
 11
151.768754258
 21
1878.056136465
 31
0.0
  0
TEXT
  8
0
  6
CONTINUOUS
 62
     6
 10
452.334266
 20
1907.123812516
 30
1.4379365
 40
15.379
  1
電気定格　　　
 50
0.0
 41
0.85
 51
0.0
  7
KANJI17
  0
TEXT
  8
0
  6
CONTINUOUS
 62
     6
 10
156.329103403
 20
1913.826914553
 30
1.24215
 40
13.6045
  1
ＬＳ０１　　　：推力リミッタ（前進時過負荷用）
 50
0.0
 41
0.822608696
 51
0.0
  7
KANJI18
  0
TEXT
  8
0
  6
CONTINUOUS
 62
     6
 10
156.329103403
 20
1881.787331219
 30
1.24215
 40
13.6045
  1
ＬＳ０２　　　：推力リミッタ（後進時過負荷用）
 50
0.0
 41
0.822608696
 51
0.0
  7
KANJI18
  0
TEXT
  8
0
  6
CONTINUOUS
 62
     6
 10
467.269334286
 20
1871.454785032
 30
0.0
 40
13.8411
  1
ＤＣ１２５Ｖ　０．６Ａ　，ＤＣ２５０Ｖ　０．３Ａ　
 50
0.0
 41
0.726495726
 51
0.0
  7
KANJI19
  0
LINE
  8
0
  6
LTYPE2
 62
     6
 10
770.61
 20
1942.123333333
 30
0.0
 11
130.81
 21
1942.123333333
 31
0.0
  0
TEXT
  8
0
  6
CONTINUOUS
 62
     6
 10
461.136654208
 20
1927.845347147
 30
0.0
 40
52.5
  1
｝
 50
0.0
 41
0.538166667
 51
0.0
  7
KANJI20
  0
TEXT
  8
0
  6
CONTINUOUS
 62
     6
 10
379.324923463
 20
1660.984458592
 30
0.0
 40
20.697485939
  1
端子台　接続図
 50
0.0
 41
0.880962996
 51
0.0
  7
KANJI21
  0
LINE
  8
0
  6
LTYPE2
 62
     6
 10
770.61
 20
1639.956666667
 30
0.0
 11
770.61
 21
1942.123333333
 31
0.0
  0
LINE
  8
0
  6
LTYPE2
 62
     6
 10
130.81
 20
1639.956666667
 30
0.0
 11
770.61
 21
1639.956666667
 31
0.0
  0
LINE
  8
0
  6
LTYPE2
 62
     6
 10
130.81
 20
1942.123333333
 30
0.0
 11
130.81
 21
1639.956666667
 31
0.0
  0
LINE
  8
0
  6
CONTINUOUS
 62
     2
 10
420.116935709
 20
1720.489475531
 30
0.0
 11
420.116935709
 21
1693.914014316
 31
0.0
  0
LINE
  8
0
  6
CONTINUOUS
 62
     2
 10
451.121640459
 20
1720.489475531
 30
0.0
 11
451.121640459
 21
1693.914014316
 31
0.0
  0
LINE
  8
0
  6
CONTINUOUS
 62
     2
 10
482.12634521
 20
1720.489475531
 30
0.0
 11
482.12634521
 21
1693.914014316
 31
0.0
  0
LINE
  8
0
  6
CONTINUOUS
 62
     2
 10
513.131049961
 20
1720.489475531
 30
0.0
 11
513.131049961
 21
1693.914014316
 31
0.0
  0
CIRCLE
  8
0
  6
CONTINUOUS
 62
     6
 10
503.891647945
 20
1747.882575103
 30
0.0
 40
4.783583019
  0
LINE
  8
0
  6
CONTINUOUS
 62
     6
 10
499.108064926
 20
1747.882575103
 30
0.0
 11
497.628697585
 21
1747.882575103
 31
0.0
  0
LINE
  8
0
  6
CONTINUOUS
 62
     6
 10
528.337698672
 20
1763.850323199
 30
0.0
 11
523.770817779
 21
1737.792758328
 31
0.0
  0
LINE
  8
0
  6
CONTINUOUS
 62
     6
 10
522.823649607
 20
1764.769331377
 30
0.0
 11
518.256409577
 21
1738.711826362
 31
0.0
  0
LINE
  8
0
  6
CONTINUOUS
 62
     6
 10
523.770817779
 20
1737.792758328
 30
0.0
 11
518.256409577
 21
1738.711826362
 31
0.0
  0
CIRCLE
  8
0
  6
CONTINUOUS
 62
     6
 10
528.633402336
 20
1736.836041724
 30
0.0
 40
4.783583019
  0
LINE
  8
0
  6
CONTINUOUS
 62
     6
 10
528.633402336
 20
1732.052458706
 30
0.0
 11
528.633402336
 21
1720.489475531
 31
0.0
  0
LINE
  8
0
  6
CONTINUOUS
 62
     6
 10
497.628697585
 20
1747.882575103
 30
0.0
 11
497.628697585
 21
1720.489475531
 31
0.0
  0
LINE
  8
0
  6
CONTINUOUS
 62
     6
 10
466.623992835
 20
1720.489475531
 30
0.0
 11
466.623992835
 21
1783.145554589
 31
0.0
  0
LINE
  8
0
  6
CONTINUOUS
 62
     6
 10
373.905582247
 20
1763.850323199
 30
0.0
 11
378.47246314
 21
1737.792758328
 31
0.0
  0
LINE
  8
0
  6
CONTINUOUS
 62
     6
 10
379.419631312
 20
1764.769331377
 30
0.0
 11
383.986871342
 21
1738.711826362
 31
0.0
  0
LINE
  8
0
  6
CONTINUOUS
 62
     6
 10
378.47246314
 20
1737.792758328
 30
0.0
 11
383.986871342
 21
1738.711826362
 31
0.0
  0
CIRCLE
  8
0
  6
CONTINUOUS
 62
     6
 10
373.609878583
 20
1736.836041724
 30
0.0
 40
4.783583019
  0
CIRCLE
  8
0
  6
CONTINUOUS
 62
     6
 10
398.351632974
 20
1747.882575103
 30
0.0
 40
4.783583019
  0
LINE
  8
0
  6
CONTINUOUS
 62
     6
 10
403.135215992
 20
1747.882575103
 30
0.0
 11
404.614583333
 21
1747.882575103
 31
0.0
  0
LINE
  8
0
  6
CONTINUOUS
 62
     6
 10
373.609878583
 20
1732.052458706
 30
0.0
 11
373.609878583
 21
1720.489475531
 31
0.0
  0
LINE
  8
0
  6
CONTINUOUS
 62
     6
 10
404.614583333
 20
1747.882575103
 30
0.0
 11
404.614583333
 21
1720.489475531
 31
0.0
  0
LINE
  8
0
  6
CONTINUOUS
 62
     6
 10
435.619288084
 20
1720.489475531
 30
0.0
 11
435.619288084
 21
1783.145554589
 31
0.0
  0
LINE
  8
0
  6
CONTINUOUS
 62
     2
 10
544.135754711
 20
1720.489475531
 30
0.0
 11
544.135754711
 21
1693.914014316
 31
0.0
  0
LINE
  8
0
  6
CONTINUOUS
 62
     2
 10
358.107526207
 20
1720.489475531
 30
0.0
 11
358.107526207
 21
1693.914014316
 31
0.0
  0
LINE
  8
0
  6
CONTINUOUS
 62
     2
 10
389.112230958
 20
1720.489475531
 30
0.0
 11
389.112230958
 21
1693.914014316
 31
0.0
  0
LINE
  8
0
  6
CONTINUOUS
 62
     6
 10
528.633402336
 20
1783.145554589
 30
0.0
 11
466.623992835
 21
1783.145554589
 31
0.0
  0
CIRCLE
  8
0
  6
CONTINUOUS
 62
     6
 10
528.633402336
 20
1768.744312156
 30
0.0
 40
4.783583019
  0
LINE
  8
0
  6
CONTINUOUS
 62
     6
 10
528.337698672
 20
1763.850323199
 30
0.0
 11
522.823649607
 21
1764.769331377
 31
0.0
  0
LINE
  8
0
  6
CONTINUOUS
 62
     6
 10
528.633402336
 20
1773.527895175
 30
0.0
 11
528.633402336
 21
1783.145554589
 31
0.0
  0
CIRCLE
  8
0
  6
CONTINUOUS
 62
     6
 10
373.609878583
 20
1768.744312156
 30
0.0
 40
4.783583019
  0
LINE
  8
0
  6
CONTINUOUS
 62
     6
 10
373.905582247
 20
1763.850323199
 30
0.0
 11
379.419631312
 21
1764.769331377
 31
0.0
  0
LINE
  8
0
  6
CONTINUOUS
 62
     6
 10
373.609878583
 20
1773.527895175
 30
0.0
 11
373.609878583
 21
1783.145554589
 31
0.0
  0
LINE
  8
0
  6
CONTINUOUS
 62
     6
 10
435.619288084
 20
1783.145554589
 30
0.0
 11
373.609878583
 21
1783.145554589
 31
0.0
  0
TEXT
  8
0
  6
CONTINUOUS
 62
     6
 10
379.166751066
 20
1788.417885485
 30
0.9555
 40
13.65
  1
ＬＳ０１
 50
0.0
 41
0.8
 51
0.0
  7
KANJI22
  0
TEXT
  8
0
  6
CONTINUOUS
 62
     6
 10
475.556965318
 20
1788.417885485
 30
0.9555
 40
13.65
  1
ＬＳ０２
 50
0.0
 41
0.8
 51
0.0
  7
KANJI22
  0
TEXT
  8
0
  6
CONTINUOUS
 62
     3
 10
178.280238654
 20
1698.343257852
 30
0.0
 40
17.5
  1
　　　　　　　　　　　　　　　　　　１　　２　　　３　　　４　　　５　　　６
 50
0.0
 41
0.911
 51
0.0
  7
KANJI23
  0
LINE
  8
0
  6
CONTINUOUS
 62
     2
 10
358.107526207
 20
1720.489475531
 30
0.0
 11
544.135754711
 21
1720.489475531
 31
0.0
  0
LINE
  8
0
  6
CONTINUOUS
 62
     2
 10
358.107526207
 20
1693.914014316
 30
0.0
 11
544.135754711
 21
1693.914014316
 31
0.0
  0
TEXT
  8
0
  6
CONTINUOUS
 62
     6
 10
348.408256796
 20
1823.151125258
 30
0.0
 40
20.697485939
  1
推力リミッタ端子台配列
 50
0.0
 41
0.880962996
 51
0.0
  7
KANJI21
  0
TEXT
  8
0
  6
CONTINUOUS
 62
     6
 10
467.269334286
 20
1889.823920413
 30
0.0
 40
13.8411
  1
ＡＣ１００Ｖ　１２５Ｖ　２５０Ｖ　－１０Ａ
 50
0.0
 41
0.726495726
 51
0.0
  7
KANJI19
  0
TEXT
  8
0
  6
CONTINUOUS
 62
     6
 10
144.484567657
 20
1592.456024289
 30
1.82231734
 40
18.223173404
  1
クイックブレーキモータ
 50
0.0
 41
0.66671875
 51
0.0
  7
KANJI24
  0
CIRCLE
  8
0
  6
CONTINUOUS
 62
     6
 10
188.926
 20
1530.488666667
 30
0.0
 40
21.6
  0
TEXT
  8
0
  6
CONTINUOUS
 62
     6
 10
179.854
 20
1520.120666667
 30
2.16
 40
21.6
  1
Ｍ
 50
0.0
 41
0.9
 51
0.0
  7
KANJI25
  0
LINE
  8
0
  6
CONTINUOUS
 62
     6
 10
160.414
 20
1500.248666667
 30
0.0
 11
173.806
 21
1515.800666667
 31
0.0
  0
LINE
  8
0
  6
CONTINUOUS
 62
     6
 10
160.414
 20
1560.728666667
 30
0.0
 11
173.806
 21
1545.176666667
 31
0.0
  0
CIRCLE
  8
0
  6
CONTINUOUS
 62
     6
 10
135.79
 20
1560.728666667
 30
0.0
 40
5.184
  0
LINE
  8
0
  6
CONTINUOUS
 62
     6
 10
129.834103884
 20
1554.772770551
 30
0.0
 11
141.930103884
 21
1566.868770551
 31
0.0
  0
CIRCLE
  8
0
  6
CONTINUOUS
 62
     6
 10
135.79
 20
1530.488666667
 30
0.0
 40
5.184
  0
LINE
  8
0
  6
CONTINUOUS
 62
     6
 10
129.834103884
 20
1524.532770551
 30
0.0
 11
141.930103884
 21
1536.628770551
 31
0.0
  0
CIRCLE
  8
0
  6
CONTINUOUS
 62
     6
 10
135.79
 20
1500.248666667
 30
0.0
 40
5.184
  0
LINE
  8
0
  6
CONTINUOUS
 62
     6
 10
129.834103884
 20
1494.292770551
 30
0.0
 11
141.930103884
 21
1506.388770551
 31
0.0
  0
LINE
  8
0
  6
CONTINUOUS
 62
     6
 10
160.414
 20
1560.728666667
 30
0.0
 11
140.974
 21
1560.728666667
 31
0.0
  0
LINE
  8
0
  6
CONTINUOUS
 62
     6
 10
167.758
 20
1530.488666667
 30
0.0
 11
140.974
 21
1530.488666667
 31
0.0
  0
LINE
  8
0
  6
CONTINUOUS
 62
     6
 10
160.414
 20
1500.248666667
 30
0.0
 11
140.974
 21
1500.248666667
 31
0.0
  0
LINE
  8
0
  6
LTYPE2
 62
     6
 10
135.79
 20
1584.056666667
 30
0.0
 11
135.79
 21
1564.616666667
 31
0.0
  0
LINE
  8
0
  6
LTYPE2
 62
     6
 10
135.79
 20
1555.976666667
 30
0.0
 11
135.79
 21
1534.376666667
 31
0.0
  0
LINE
  8
0
  6
LTYPE2
 62
     6
 10
135.79
 20
1525.736666667
 30
0.0
 11
135.79
 21
1504.568666667
 31
0.0
  0
TEXT
  8
0
  6
CONTINUOUS
 62
     6
 10
115.006
 20
1568.072666667
 30
1.296
 40
12.96
  1
Ｕ
 50
0.0
 41
0.9
 51
0.0
  7
KANJI26
  0
TEXT
  8
0
  6
CONTINUOUS
 62
     6
 10
116.302
 20
1537.400666667
 30
1.296
 40
12.96
  1
Ｖ
 50
0.0
 41
0.9
 51
0.0
  7
KANJI26
  0
TEXT
  8
0
  6
CONTINUOUS
 62
     6
 10
117.598
 20
1506.728666667
 30
1.296
 40
12.96
  1
Ｗ
 50
0.0
 41
0.9
 51
0.0
  7
KANJI26
  0
LINE
  8
0
  6
LTYPE2
 62
     6
 10
290.35
 20
1584.056666667
 30
0.0
 11
135.79
 21
1584.056666667
 31
0.0
  0
TEXT
  8
0
  6
CONTINUOUS
 62
     6
 10
220.03
 20
1520.703866667
 30
1.728
 40
17.28
  1
Ｂ
 50
0.0
 41
0.9
 51
0.0
  7
KANJI27
  0
CIRCLE
  8
0
  6
CONTINUOUS
 62
     6
 10
227.806
 20
1530.488666667
 30
0.0
 40
17.28
  0
LINE
  8
0
  6
CONTINUOUS
 62
     6
 10
255.406
 20
1500.075866667
 30
0.0
 11
236.42698443
 21
1515.512785142
 31
0.0
  0
LINE
  8
0
  6
CONTINUOUS
 62
     6
 10
218.821325074
 20
1515.728110563
 30
0.0
 11
199.726
 21
1500.075866667
 31
0.0
  0
CIRCLE
  8
0
  6
CONTINUOUS
 62
     6
 10
199.726
 20
1451.043866667
 30
0.0
 40
5.184
  0
LINE
  8
0
  6
CONTINUOUS
 62
     6
 10
193.770103884
 20
1445.087970551
 30
0.0
 11
205.866103884
 21
1457.183970551
 31
0.0
  0
CIRCLE
  8
0
  6
CONTINUOUS
 62
     6
 10
227.566
 20
1451.043866667
 30
0.0
 40
5.184
  0
LINE
  8
0
  6
CONTINUOUS
 62
     6
 10
221.610103884
 20
1445.087970551
 30
0.0
 11
233.706103884
 21
1457.183970551
 31
0.0
  0
LINE
  8
0
  6
LTYPE2
 62
     6
 10
204.91
 20
1451.043866667
 30
0.0
 11
222.286
 21
1451.043866667
 31
0.0
  0
CIRCLE
  8
0
  6
CONTINUOUS
 62
     6
 10
255.406
 20
1451.043866667
 30
0.0
 40
5.184
  0
LINE
  8
0
  6
CONTINUOUS
 62
     6
 10
249.450103884
 20
1445.087970551
 30
0.0
 11
261.546103884
 21
1457.183970551
 31
0.0
  0
LINE
  8
0
  6
LTYPE2
 62
     6
 10
232.366
 20
1451.043866667
 30
0.0
 11
250.606
 21
1451.043866667
 31
0.0
  0
TEXT
  8
0
  6
CONTINUOUS
 62
     6
 10
212.83
 20
1453.875866667
 30
1.296
 40
12.96
  1
ｖ
 50
0.0
 41
0.9
 51
0.0
  7
KANJI26
  0
TEXT
  8
0
  6
CONTINUOUS
 62
     6
 10
240.67
 20
1453.875866667
 30
1.296
 40
12.96
  1
ｗ
 50
0.0
 41
0.9
 51
0.0
  7
KANJI26
  0
TEXT
  8
0
  6
CONTINUOUS
 62
     6
 10
185.806
 20
1454.739866667
 30
1.296
 40
12.96
  1
ｕ
 50
0.0
 41
0.9
 51
0.0
  7
KANJI26
  0
LINE
  8
0
  6
CONTINUOUS
 62
     6
 10
199.726
 20
1456.227866667
 30
0.0
 11
199.726
 21
1500.075866667
 31
0.0
  0
LINE
  8
0
  6
CONTINUOUS
 62
     6
 10
227.566
 20
1456.227866667
 30
0.0
 11
227.566
 21
1513.496666667
 31
0.0
  0
LINE
  8
0
  6
CONTINUOUS
 62
     6
 10
255.406
 20
1456.227866667
 30
0.0
 11
255.406
 21
1500.075866667
 31
0.0
  0
LINE
  8
0
  6
LTYPE2
 62
     6
 10
261.166
 20
1451.043866667
 30
0.0
 11
290.35
 21
1451.043866667
 31
0.0
  0
LINE
  8
0
  6
LTYPE2
 62
     6
 10
290.35
 20
1451.043866667
 30
0.0
 11
290.35
 21
1584.056666667
 31
0.0
  0
LINE
  8
0
  6
LTYPE2
 62
     6
 10
135.79
 20
1451.043866667
 30
0.0
 11
194.542
 21
1451.043866667
 31
0.0
  0
LINE
  8
0
  6
LTYPE2
 62
     6
 10
135.79
 20
1495.064666667
 30
0.0
 11
135.79
 21
1451.043866667
 31
0.0
  0
TEXT
  8
0
  6
CONTINUOUS
 62
     2
 10
152.204472037
 20
1416.01135244
 30
0.0
 40
18.72
  1
モーター結線図
 50
0.0
 41
0.925
 51
0.0
  7
KANJI28
  0
LINE
  8
0
  6
CONTINUOUS
 62
     1
 10
1261.835
 20
1761.693573333
 30
0.0
 11
2169.035
 21
1761.693573333
 31
0.0
  0
LINE
  8
0
  6
CONTINUOUS
 62
     1
 10
1261.835
 20
1722.493573333
 30
0.0
 11
2169.035
 21
1722.493573333
 31
0.0
  0
TEXT
  8
0
  6
CONTINUOUS
 62
     2
 10
1317.835
 20
1733.693573333
 30
1.792
 40
17.92
  1
形
 50
0.0
 41
0.9
 51
0.0
  7
KANJI29
  0
TEXT
  8
0
  6
CONTINUOUS
 62
     2
 10
1427.035
 20
1733.693573333
 30
1.792
 40
17.92
  1
式
 50
0.0
 41
0.9
 51
0.0
  7
KANJI29
  0
TEXT
  8
0
  6
CONTINUOUS
 62
     2
 10
1511.595
 20
1732.573573333
 30
1.68
 40
16.8
  1
ストローク
 50
0.0
 41
0.9
 51
0.0
  7
KANJI30
  0
TEXT
  8
0
  6
CONTINUOUS
 62
     2
 10
1619.115
 20
1731.453573333
 30
0.0
 40
16.8
  1
ｍｉｎ　
 50
0.0
 41
0.9
 51
0.0
  7
KANJI31
  0
TEXT
  8
0
  6
CONTINUOUS
 62
     2
 10
1731.115
 20
1731.453573333
 30
0.0
 40
16.8
  1
ｍｉｎ　
 50
0.0
 41
0.9
 51
0.0
  7
KANJI31
  0
TEXT
  8
0
  6
CONTINUOUS
 62
     2
 10
1955.115
 20
1731.453573333
 30
0.0
 40
16.8
  1
ｍｉｎ　
 50
0.0
 41
0.9
 51
0.0
  7
KANJI31
  0
TEXT
  8
0
  6
CONTINUOUS
 62
     2
 10
1676.235
 20
1732.573573333
 30
1.96
 40
19.6
  1
ＡＬ
 50
0.0
 41
0.9
 51
0.0
  7
KANJI32
  0
TEXT
  8
0
  6
CONTINUOUS
 62
     2
 10
1788.235
 20
1732.573573333
 30
1.96
 40
19.6
  1
Ｌ
 50
0.0
 41
0.9
 51
0.0
  7
KANJI32
  0
TEXT
  8
0
  6
CONTINUOUS
 62
     2
 10
1883.435
 20
1732.573573333
 30
1.96
 40
19.6
  1
Ｃ
 50
0.0
 41
0.9
 51
0.0
  7
KANJI32
  0
TEXT
  8
0
  6
CONTINUOUS
 62
     2
 10
2012.235
 20
1732.573573333
 30
1.96
 40
19.6
  1
Ｐ
 50
0.0
 41
0.9
 51
0.0
  7
KANJI32
  0
TEXT
  8
0
  6
CONTINUOUS
 62
     2
 10
2127.455
 20
1732.153573333
 30
0.0
 40
15.12
  1
（ｋｇ）
 50
0.0
 41
0.740740741
 51
0.0
  7
KANJI33
  0
TEXT
  8
0
  6
CONTINUOUS
 62
     2
 10
2060.255
 20
1731.873573333
 30
1.68
 40
19.6
  1
概算重量
 50
0.0
 41
0.857142857
 51
0.0
  7
KANJI34
  0
TEXT
  8
0
  6
CONTINUOUS
 62
     2
 10
1522.235
 20
1695.006906667
 30
1.68
 40
16.8
  1
　２００
 50
0.0
 41
0.9
 51
0.0
  7
KANJI30
  0
TEXT
  8
0
  6
CONTINUOUS
 62
     2
 10
1970.235
 20
1695.006906667
 30
1.68
 40
16.8
  1
　　４５
 50
0.0
 41
0.9
 51
0.0
  7
KANJI30
  0
LINE
  8
0
  6
CONTINUOUS
 62
     2
 10
1261.835
 20
1685.626906667
 30
0.0
 11
2169.035
 21
1685.626906667
 31
0.0
  0
TEXT
  8
0
  6
CONTINUOUS
 62
     2
 10
1858.235
 20
1695.006906667
 30
1.68
 40
16.8
  1
　５１０
 50
0.0
 41
0.9
 51
0.0
  7
KANJI30
  0
TEXT
  8
0
  6
CONTINUOUS
 62
     2
 10
1746.235
 20
1695.006906667
 30
1.68
 40
16.8
  1
　６２５
 50
0.0
 41
0.9
 51
0.0
  7
KANJI30
  0
TEXT
  8
0
  6
CONTINUOUS
 62
     2
 10
1634.235
 20
1695.006906667
 30
1.68
 40
16.8
  1
　８５０
 50
0.0
 41
0.9
 51
0.0
  7
KANJI30
  0
TEXT
  8
0
  6
CONTINUOUS
 62
     2
 10
1522.235
 20
1658.14024
 30
1.68
 40
16.8
  1
　３００
 50
0.0
 41
0.9
 51
0.0
  7
KANJI30
  0
TEXT
  8
0
  6
CONTINUOUS
 62
     2
 10
1970.235
 20
1658.14024
 30
1.68
 40
16.8
  1
　　４５
 50
0.0
 41
0.9
 51
0.0
  7
KANJI30
  0
LINE
  8
0
  6
CONTINUOUS
 62
     2
 10
1261.835
 20
1648.76024
 30
0.0
 11
2169.035
 21
1648.76024
 31
0.0
  0
TEXT
  8
0
  6
CONTINUOUS
 62
     2
 10
1858.235
 20
1658.14024
 30
1.68
 40
16.8
  1
　６１０
 50
0.0
 41
0.9
 51
0.0
  7
KANJI30
  0
TEXT
  8
0
  6
CONTINUOUS
 62
     2
 10
1746.235
 20
1658.14024
 30
1.68
 40
16.8
  1
　７２５
 50
0.0
 41
0.9
 51
0.0
  7
KANJI30
  0
TEXT
  8
0
  6
CONTINUOUS
 62
     2
 10
1634.235
 20
1658.14024
 30
1.68
 40
16.8
  1
　９５０
 50
0.0
 41
0.9
 51
0.0
  7
KANJI30
  0
TEXT
  8
0
  6
CONTINUOUS
 62
     2
 10
1522.235
 20
1621.273573333
 30
1.68
 40
16.8
  1
　４００
 50
0.0
 41
0.9
 51
0.0
  7
KANJI30
  0
LINE
  8
0
  6
CONTINUOUS
 62
     2
 10
1261.835
 20
1611.893573333
 30
0.0
 11
2169.035
 21
1611.893573333
 31
0.0
  0
TEXT
  8
0
  6
CONTINUOUS
 62
     2
 10
1858.235
 20
1621.273573333
 30
1.68
 40
16.8
  1
　７１０
 50
0.0
 41
0.9
 51
0.0
  7
KANJI30
  0
TEXT
  8
0
  6
CONTINUOUS
 62
     2
 10
1522.235
 20
1584.406906667
 30
1.68
 40
16.8
  1
　５００
 50
0.0
 41
0.9
 51
0.0
  7
KANJI30
  0
LINE
  8
0
  6
CONTINUOUS
 62
     2
 10
1261.835
 20
1575.026906667
 30
0.0
 11
2169.035
 21
1575.026906667
 31
0.0
  0
TEXT
  8
0
  6
CONTINUOUS
 62
     2
 10
1858.235
 20
1584.406906667
 30
1.68
 40
16.8
  1
　８１０
 50
0.0
 41
0.9
 51
0.0
  7
KANJI30
  0
LINE
  8
0
  6
CONTINUOUS
 62
     2
 10
1261.835
 20
1538.16024
 30
0.0
 11
2169.035
 21
1538.16024
 31
0.0
  0
TEXT
  8
0
  6
CONTINUOUS
 62
     2
 10
1522.235
 20
1547.54024
 30
1.68
 40
16.8
  1
　６００
 50
0.0
 41
0.9
 51
0.0
  7
KANJI30
  0
TEXT
  8
0
  6
CONTINUOUS
 62
     2
 10
1858.235
 20
1547.54024
 30
1.68
 40
16.8
  1
　９５０
 50
0.0
 41
0.9
 51
0.0
  7
KANJI30
  0
LINE
  8
0
  6
CONTINUOUS
 62
     2
 10
1261.835
 20
1501.293573333
 30
0.0
 11
2169.035
 21
1501.293573333
 31
0.0
  0
TEXT
  8
0
  6
CONTINUOUS
 62
     2
 10
1522.235
 20
1510.673573333
 30
1.68
 40
16.8
  1
　７００
 50
0.0
 41
0.9
 51
0.0
  7
KANJI30
  0
TEXT
  8
0
  6
CONTINUOUS
 62
     2
 10
1858.235
 20
1510.673573333
 30
1.68
 40
16.8
  1
１０５０
 50
0.0
 41
0.9
 51
0.0
  7
KANJI30
  0
LINE
  8
0
  6
CONTINUOUS
 62
     2
 10
1261.835
 20
1464.426906667
 30
0.0
 11
2169.035
 21
1464.426906667
 31
0.0
  0
TEXT
  8
0
  6
CONTINUOUS
 62
     2
 10
1522.235
 20
1473.806906667
 30
1.68
 40
16.8
  1
　８００
 50
0.0
 41
0.9
 51
0.0
  7
KANJI30
  0
TEXT
  8
0
  6
CONTINUOUS
 62
     2
 10
1858.235
 20
1473.806906667
 30
1.68
 40
16.8
  1
１１５０
 50
0.0
 41
0.9
 51
0.0
  7
KANJI30
  0
LINE
  8
0
  6
CONTINUOUS
 62
     2
 10
1261.835
 20
1427.56024
 30
0.0
 11
2169.035
 21
1427.56024
 31
0.0
  0
TEXT
  8
0
  6
CONTINUOUS
 62
     2
 10
1522.235
 20
1436.94024
 30
1.68
 40
16.8
  1
　９００
 50
0.0
 41
0.9
 51
0.0
  7
KANJI30
  0
TEXT
  8
0
  6
CONTINUOUS
 62
     2
 10
1858.235
 20
1436.94024
 30
1.68
 40
16.8
  1
１２５０
 50
0.0
 41
0.9
 51
0.0
  7
KANJI30
  0
TEXT
  8
0
  6
CONTINUOUS
 62
     2
 10
1522.235
 20
1400.073573333
 30
1.68
 40
16.8
  1
１０００
 50
0.0
 41
0.9
 51
0.0
  7
KANJI30
  0
LINE
  8
0
  6
CONTINUOUS
 62
     2
 10
1261.835
 20
1390.693573333
 30
0.0
 11
2169.035
 21
1390.693573333
 31
0.0
  0
LINE
  8
0
  6
CONTINUOUS
 62
     2
 10
1261.835
 20
1353.826906667
 30
0.0
 11
2169.035
 21
1353.826906667
 31
0.0
  0
LINE
  8
0
  6
CONTINUOUS
 62
     2
 10
1261.835
 20
1316.96024
 30
0.0
 11
2169.035
 21
1316.96024
 31
0.0
  0
LINE
  8
0
  6
CONTINUOUS
 62
     2
 10
1261.835
 20
1280.093573333
 30
0.0
 11
2169.035
 21
1280.093573333
 31
0.0
  0
LINE
  8
0
  6
CONTINUOUS
 62
     2
 10
1261.835
 20
1243.226906667
 30
0.0
 11
2169.035
 21
1243.226906667
 31
0.0
  0
LINE
  8
0
  6
CONTINUOUS
 62
     2
 10
1261.835
 20
1206.36024
 30
0.0
 11
2169.035
 21
1206.36024
 31
0.0
  0
LINE
  8
0
  6
CONTINUOUS
 62
     1
 10
1261.835
 20
1169.493573333
 30
0.0
 11
2169.035
 21
1169.493573333
 31
0.0
  0
LINE
  8
0
  6
CONTINUOUS
 62
     1
 10
2169.035
 20
1761.693573333
 30
0.0
 11
2169.035
 21
1169.493573333
 31
0.0
  0
LINE
  8
0
  6
CONTINUOUS
 62
     1
 10
1261.835
 20
1761.693573333
 30
0.0
 11
1261.835
 21
1169.493573333
 31
0.0
  0
LINE
  8
0
  6
CONTINUOUS
 62
     1
 10
1497.035
 20
1761.693573333
 30
0.0
 11
1497.035
 21
1169.493573333
 31
0.0
  0
LINE
  8
0
  6
CONTINUOUS
 62
     2
 10
1609.035
 20
1761.693573333
 30
0.0
 11
1609.035
 21
1169.493573333
 31
0.0
  0
LINE
  8
0
  6
CONTINUOUS
 62
     2
 10
1721.035
 20
1761.693573333
 30
0.0
 11
1721.035
 21
1169.493573333
 31
0.0
  0
LINE
  8
0
  6
CONTINUOUS
 62
     2
 10
1833.035
 20
1761.693573333
 30
0.0
 11
1833.035
 21
1169.493573333
 31
0.0
  0
LINE
  8
0
  6
CONTINUOUS
 62
     2
 10
1945.035
 20
1761.693573333
 30
0.0
 11
1945.035
 21
1169.493573333
 31
0.0
  0
LINE
  8
0
  6
CONTINUOUS
 62
     2
 10
2057.035
 20
1761.693573333
 30
0.0
 11
2057.035
 21
1169.493573333
 31
0.0
  0
TEXT
  8
0
  6
CONTINUOUS
 62
     2
 10
1522.235
 20
1363.206906667
 30
1.68
 40
16.8
  1
１１００
 50
0.0
 41
0.9
 51
0.0
  7
KANJI30
  0
TEXT
  8
0
  6
CONTINUOUS
 62
     2
 10
1522.235
 20
1326.34024
 30
1.68
 40
16.8
  1
１２００
 50
0.0
 41
0.9
 51
0.0
  7
KANJI30
  0
TEXT
  8
0
  6
CONTINUOUS
 62
     2
 10
1522.235
 20
1289.473573333
 30
1.68
 40
16.8
  1
１３００
 50
0.0
 41
0.9
 51
0.0
  7
KANJI30
  0
TEXT
  8
0
  6
CONTINUOUS
 62
     2
 10
1522.235
 20
1252.606906667
 30
1.68
 40
16.8
  1
１４００
 50
0.0
 41
0.9
 51
0.0
  7
KANJI30
  0
TEXT
  8
0
  6
CONTINUOUS
 62
     2
 10
1522.235
 20
1215.74024
 30
1.68
 40
16.8
  1
１５００
 50
0.0
 41
0.9
 51
0.0
  7
KANJI30
  0
TEXT
  8
0
  6
CONTINUOUS
 62
     2
 10
1858.235
 20
1363.206906667
 30
1.68
 40
16.8
  1
１４８０
 50
0.0
 41
0.9
 51
0.0
  7
KANJI30
  0
TEXT
  8
0
  6
CONTINUOUS
 62
     2
 10
1858.235
 20
1326.34024
 30
1.68
 40
16.8
  1
１５８０
 50
0.0
 41
0.9
 51
0.0
  7
KANJI30
  0
TEXT
  8
0
  6
CONTINUOUS
 62
     2
 10
1858.235
 20
1289.473573333
 30
1.68
 40
16.8
  1
１６８０
 50
0.0
 41
0.9
 51
0.0
  7
KANJI30
  0
TEXT
  8
0
  6
CONTINUOUS
 62
     2
 10
1858.235
 20
1252.606906667
 30
1.68
 40
16.8
  1
１７８０
 50
0.0
 41
0.9
 51
0.0
  7
KANJI30
  0
TEXT
  8
0
  6
CONTINUOUS
 62
     2
 10
1858.235
 20
1215.74024
 30
1.68
 40
16.8
  1
１８８０
 50
0.0
 41
0.9
 51
0.0
  7
KANJI30
  0
TEXT
  8
0
  6
CONTINUOUS
 62
     2
 10
1306.309827
 20
1785.82368
 30
1.749993
 40
17.49993
  1
注意：サーマルリレー等の選定は、上記の値で選定して下さい。
 50
0.0
 41
0.9
 51
0.0
  7
KANJI35
  0
LINE
  8
0
  6
CONTINUOUS
 62
     2
 10
1298.309867
 20
1780.8237
 30
0.0
 11
1804.097987
 21
1780.8237
 31
0.0
  0
TEXT
  8
0
  6
CONTINUOUS
 62
     2
 10
1970.235
 20
1621.273573333
 30
1.68
 40
16.8
  1
　　８５
 50
0.0
 41
0.9
 51
0.0
  7
KANJI30
  0
TEXT
  8
0
  6
CONTINUOUS
 62
     2
 10
1970.235
 20
1584.406906667
 30
1.68
 40
16.8
  1
　１１２
 50
0.0
 41
0.9
 51
0.0
  7
KANJI30
  0
TEXT
  8
0
  6
CONTINUOUS
 62
     2
 10
1970.235
 20
1547.54024
 30
1.68
 40
16.8
  1
　１２８
 50
0.0
 41
0.9
 51
0.0
  7
KANJI30
  0
TEXT
  8
0
  6
CONTINUOUS
 62
     2
 10
1970.235
 20
1510.673573333
 30
1.68
 40
16.8
  1
　１４８
 50
0.0
 41
0.9
 51
0.0
  7
KANJI30
  0
TEXT
  8
0
  6
CONTINUOUS
 62
     2
 10
1970.235
 20
1473.806906667
 30
1.68
 40
16.8
  1
　１６８
 50
0.0
 41
0.9
 51
0.0
  7
KANJI30
  0
TEXT
  8
0
  6
CONTINUOUS
 62
     2
 10
1970.235
 20
1436.94024
 30
1.68
 40
16.8
  1
　１９８
 50
0.0
 41
0.9
 51
0.0
  7
KANJI30
  0
TEXT
  8
0
  6
CONTINUOUS
 62
     2
 10
1970.235
 20
1400.073573333
 30
1.68
 40
16.8
  1
　２３１
 50
0.0
 41
0.9
 51
0.0
  7
KANJI30
  0
TEXT
  8
0
  6
CONTINUOUS
 62
     2
 10
1970.235
 20
1363.206906667
 30
1.68
 40
16.8
  1
　２４５
 50
0.0
 41
0.9
 51
0.0
  7
KANJI30
  0
TEXT
  8
0
  6
CONTINUOUS
 62
     2
 10
1970.235
 20
1326.34024
 30
1.68
 40
16.8
  1
　２６８
 50
0.0
 41
0.9
 51
0.0
  7
KANJI30
  0
TEXT
  8
0
  6
CONTINUOUS
 62
     2
 10
1970.235
 20
1289.473573333
 30
1.68
 40
16.8
  1
　２８８
 50
0.0
 41
0.9
 51
0.0
  7
KANJI30
  0
TEXT
  8
0
  6
CONTINUOUS
 62
     2
 10
1970.235
 20
1252.606906667
 30
1.68
 40
16.8
  1
　３１０
 50
0.0
 41
0.9
 51
0.0
  7
KANJI30
  0
TEXT
  8
0
  6
CONTINUOUS
 62
     2
 10
1970.235
 20
1215.74024
 30
1.68
 40
16.8
  1
　３５０
 50
0.0
 41
0.9
 51
0.0
  7
KANJI30
  0
TEXT
  8
0
  6
CONTINUOUS
 62
     2
 10
1746.235
 20
1621.273573333
 30
1.68
 40
16.8
  1
　８６５
 50
0.0
 41
0.9
 51
0.0
  7
KANJI30
  0
TEXT
  8
0
  6
CONTINUOUS
 62
     2
 10
1746.235
 20
1584.406906667
 30
1.68
 40
16.8
  1
　９９２
 50
0.0
 41
0.9
 51
0.0
  7
KANJI30
  0
TEXT
  8
0
  6
CONTINUOUS
 62
     2
 10
1746.235
 20
1547.54024
 30
1.68
 40
16.8
  1
１１４８
 50
0.0
 41
0.9
 51
0.0
  7
KANJI30
  0
TEXT
  8
0
  6
CONTINUOUS
 62
     2
 10
1746.235
 20
1510.673573333
 30
1.68
 40
16.8
  1
１２６８
 50
0.0
 41
0.9
 51
0.0
  7
KANJI30
  0
TEXT
  8
0
  6
CONTINUOUS
 62
     2
 10
1746.235
 20
1473.806906667
 30
1.68
 40
16.8
  1
１３８８
 50
0.0
 41
0.9
 51
0.0
  7
KANJI30
  0
TEXT
  8
0
  6
CONTINUOUS
 62
     2
 10
1746.235
 20
1436.94024
 30
1.68
 40
16.8
  1
１５１８
 50
0.0
 41
0.9
 51
0.0
  7
KANJI30
  0
TEXT
  8
0
  6
CONTINUOUS
 62
     2
 10
1746.235
 20
1400.073573333
 30
1.68
 40
16.8
  1
１６５１
 50
0.0
 41
0.9
 51
0.0
  7
KANJI30
  0
TEXT
  8
0
  6
CONTINUOUS
 62
     2
 10
1746.235
 20
1363.206906667
 30
1.68
 40
16.8
  1
１７９５
 50
0.0
 41
0.9
 51
0.0
  7
KANJI30
  0
TEXT
  8
0
  6
CONTINUOUS
 62
     2
 10
1746.235
 20
1326.34024
 30
1.68
 40
16.8
  1
１９１８
 50
0.0
 41
0.9
 51
0.0
  7
KANJI30
  0
TEXT
  8
0
  6
CONTINUOUS
 62
     2
 10
1746.235
 20
1289.473573333
 30
1.68
 40
16.8
  1
２０３８
 50
0.0
 41
0.9
 51
0.0
  7
KANJI30
  0
TEXT
  8
0
  6
CONTINUOUS
 62
     2
 10
1746.235
 20
1252.606906667
 30
1.68
 40
16.8
  1
２１６０
 50
0.0
 41
0.9
 51
0.0
  7
KANJI30
  0
TEXT
  8
0
  6
CONTINUOUS
 62
     2
 10
1746.235
 20
1215.74024
 30
1.68
 40
16.8
  1
２３００
 50
0.0
 41
0.9
 51
0.0
  7
KANJI30
  0
TEXT
  8
0
  6
CONTINUOUS
 62
     2
 10
1634.235
 20
1621.273573333
 30
1.68
 40
16.8
  1
１０９０
 50
0.0
 41
0.9
 51
0.0
  7
KANJI30
  0
TEXT
  8
0
  6
CONTINUOUS
 62
     2
 10
1634.235
 20
1584.406906667
 30
1.68
 40
16.8
  1
１２１７
 50
0.0
 41
0.9
 51
0.0
  7
KANJI30
  0
TEXT
  8
0
  6
CONTINUOUS
 62
     2
 10
1634.235
 20
1547.54024
 30
1.68
 40
16.8
  1
１３７３
 50
0.0
 41
0.9
 51
0.0
  7
KANJI30
  0
TEXT
  8
0
  6
CONTINUOUS
 62
     2
 10
1634.235
 20
1510.673573333
 30
1.68
 40
16.8
  1
１４９３
 50
0.0
 41
0.9
 51
0.0
  7
KANJI30
  0
TEXT
  8
0
  6
CONTINUOUS
 62
     2
 10
1634.235
 20
1473.806906667
 30
1.68
 40
16.8
  1
１６１３
 50
0.0
 41
0.9
 51
0.0
  7
KANJI30
  0
TEXT
  8
0
  6
CONTINUOUS
 62
     2
 10
1634.235
 20
1436.94024
 30
1.68
 40
16.8
  1
１７４３
 50
0.0
 41
0.9
 51
0.0
  7
KANJI30
  0
TEXT
  8
0
  6
CONTINUOUS
 62
     2
 10
1634.235
 20
1400.073573333
 30
1.68
 40
16.8
  1
１８７６
 50
0.0
 41
0.9
 51
0.0
  7
KANJI30
  0
TEXT
  8
0
  6
CONTINUOUS
 62
     2
 10
1634.235
 20
1363.206906667
 30
1.68
 40
16.8
  1
２０２０
 50
0.0
 41
0.9
 51
0.0
  7
KANJI30
  0
TEXT
  8
0
  6
CONTINUOUS
 62
     2
 10
1634.235
 20
1326.34024
 30
1.68
 40
16.8
  1
２１４３
 50
0.0
 41
0.9
 51
0.0
  7
KANJI30
  0
TEXT
  8
0
  6
CONTINUOUS
 62
     2
 10
1634.235
 20
1289.473573333
 30
1.68
 40
16.8
  1
２２６３
 50
0.0
 41
0.9
 51
0.0
  7
KANJI30
  0
TEXT
  8
0
  6
CONTINUOUS
 62
     2
 10
1634.235
 20
1252.606906667
 30
1.68
 40
16.8
  1
２３８５
 50
0.0
 41
0.9
 51
0.0
  7
KANJI30
  0
TEXT
  8
0
  6
CONTINUOUS
 62
     2
 10
1634.235
 20
1215.74024
 30
1.68
 40
16.8
  1
２５２５
 50
0.0
 41
0.9
 51
0.0
  7
KANJI30
  0
TEXT
  8
0
  6
CONTINUOUS
 62
     2
 10
1858.235
 20
1400.073573333
 30
1.68
 40
16.8
  1
１３５０
 50
0.0
 41
0.9
 51
0.0
  7
KANJI30
  0
LINE
  8
0
  6
CONTINUOUS
 62
     2
 10
549.235
 20
1499.54024
 30
0.0
 11
556.96240661
 21
1497.469687639
 31
0.0
  0
LINE
  8
0
  6
CONTINUOUS
 62
     2
 10
549.235
 20
1499.54024
 30
0.0
 11
556.96240661
 21
1501.610792361
 31
0.0
  0
LINE
  8
0
  6
CONTINUOUS
 62
     2
 10
549.235
 20
1499.54024
 30
0.0
 11
686.835
 21
1499.54024
 31
0.0
  0
LINE
  8
0
  6
CONTINUOUS
 62
     2
 10
686.835
 20
1499.54024
 30
0.0
 11
679.10759339
 21
1501.610792361
 31
0.0
  0
LINE
  8
0
  6
CONTINUOUS
 62
     2
 10
686.835
 20
1499.54024
 30
0.0
 11
679.10759339
 21
1497.469687639
 31
0.0
  0
LINE
  8
0
  6
CONTINUOUS
 62
     2
 10
686.835
 20
1498.34024
 30
0.0
 11
686.835
 21
1495.54024
 31
0.0
  0
LINE
  8
0
  6
CONTINUOUS
 62
     2
 10
686.835
 20
1499.54024
 30
0.0
 11
694.56240661
 21
1497.469687639
 31
0.0
  0
LINE
  8
0
  6
CONTINUOUS
 62
     2
 10
686.835
 20
1499.54024
 30
0.0
 11
694.56240661
 21
1501.610792361
 31
0.0
  0
LINE
  8
0
  6
CONTINUOUS
 62
     2
 10
686.835
 20
1499.54024
 30
0.0
 11
889.235
 21
1499.54024
 31
0.0
  0
LINE
  8
0
  6
CONTINUOUS
 62
     2
 10
889.235
 20
1499.54024
 30
0.0
 11
881.50759339
 21
1501.610792361
 31
0.0
  0
LINE
  8
0
  6
CONTINUOUS
 62
     2
 10
889.235
 20
1499.54024
 30
0.0
 11
881.50759339
 21
1497.469687639
 31
0.0
  0
LINE
  8
0
  6
CONTINUOUS
 62
     2
 10
686.835
 20
1473.210792361
 30
0.0
 11
679.10759339
 21
1475.281344722
 31
0.0
  0
LINE
  8
0
  6
CONTINUOUS
 62
     2
 10
686.835
 20
1473.210792361
 30
0.0
 11
679.10759339
 21
1471.14024
 31
0.0
  0
LINE
  8
0
  6
CONTINUOUS
 62
     2
 10
674.835
 20
1473.210792361
 30
0.0
 11
686.835
 21
1473.210792361
 31
0.0
  0
LINE
  8
0
  6
CONTINUOUS
 62
     2
 10
686.835
 20
1473.210792361
 30
0.0
 11
707.635
 21
1473.210792361
 31
0.0
  0
LINE
  8
0
  6
CONTINUOUS
 62
     2
 10
707.635
 20
1473.210792361
 30
0.0
 11
715.36240661
 21
1471.14024
 31
0.0
  0
LINE
  8
0
  6
CONTINUOUS
 62
     2
 10
707.635
 20
1473.210792361
 30
0.0
 11
715.36240661
 21
1475.281344722
 31
0.0
  0
LINE
  8
0
  6
CONTINUOUS
 62
     2
 10
549.235
 20
1447.94024
 30
0.0
 11
549.235
 21
1441.94024
 31
0.0
  0
LINE
  8
0
  6
CONTINUOUS
 62
     2
 10
549.235
 20
1445.94024
 30
0.0
 11
556.96240661
 21
1443.869687639
 31
0.0
  0
LINE
  8
0
  6
CONTINUOUS
 62
     2
 10
549.235
 20
1445.94024
 30
0.0
 11
556.96240661
 21
1448.010792361
 31
0.0
  0
LINE
  8
0
  6
CONTINUOUS
 62
     2
 10
549.235
 20
1445.94024
 30
0.0
 11
707.635
 21
1445.94024
 31
0.0
  0
LINE
  8
0
  6
CONTINUOUS
 62
     2
 10
707.635
 20
1445.94024
 30
0.0
 11
699.90759339
 21
1448.010792361
 31
0.0
  0
LINE
  8
0
  6
CONTINUOUS
 62
     2
 10
707.635
 20
1445.94024
 30
0.0
 11
699.90759339
 21
1443.869687639
 31
0.0
  0
LINE
  8
0
  6
CONTINUOUS
 62
     2
 10
707.635
 20
1447.14024
 30
0.0
 11
707.635
 21
1441.94024
 31
0.0
  0
LINE
  8
0
  6
CONTINUOUS
 62
     2
 10
707.635
 20
1445.94024
 30
0.0
 11
715.36240661
 21
1443.869687639
 31
0.0
  0
LINE
  8
0
  6
CONTINUOUS
 62
     2
 10
707.635
 20
1445.94024
 30
0.0
 11
715.36240661
 21
1448.010792361
 31
0.0
  0
LINE
  8
0
  6
CONTINUOUS
 62
     2
 10
889.235
 20
1442.34024
 30
0.0
 11
889.235
 21
1441.94024
 31
0.0
  0
LINE
  8
0
  6
CONTINUOUS
 62
     2
 10
549.235
 20
1416.74024
 30
0.0
 11
556.96240661
 21
1414.669687639
 31
0.0
  0
LINE
  8
0
  6
CONTINUOUS
 62
     2
 10
549.235
 20
1416.74024
 30
0.0
 11
556.96240661
 21
1418.810792361
 31
0.0
  0
LINE
  8
0
  6
CONTINUOUS
 62
     2
 10
549.235
 20
1416.74024
 30
0.0
 11
866.835
 21
1416.74024
 31
0.0
  0
LINE
  8
0
  6
CONTINUOUS
 62
     2
 10
866.835
 20
1416.74024
 30
0.0
 11
859.10759339
 21
1418.810792361
 31
0.0
  0
LINE
  8
0
  6
CONTINUOUS
 62
     2
 10
866.835
 20
1416.74024
 30
0.0
 11
859.10759339
 21
1414.669687639
 31
0.0
  0
LINE
  8
0
  6
CONTINUOUS
 62
     2
 10
866.835
 20
1417.54024
 30
0.0
 11
866.835
 21
1412.74024
 31
0.0
  0
LINE
  8
0
  6
CONTINUOUS
 62
     2
 10
866.835
 20
1416.74024
 30
0.0
 11
859.10759339
 21
1418.810792361
 31
0.0
  0
LINE
  8
0
  6
CONTINUOUS
 62
     2
 10
866.835
 20
1416.74024
 30
0.0
 11
859.10759339
 21
1414.669687639
 31
0.0
  0
LINE
  8
0
  6
CONTINUOUS
 62
     2
 10
854.835
 20
1416.74024
 30
0.0
 11
866.835
 21
1416.74024
 31
0.0
  0
LINE
  8
0
  6
CONTINUOUS
 62
     2
 10
866.835
 20
1416.74024
 30
0.0
 11
889.235
 21
1416.74024
 31
0.0
  0
LINE
  8
0
  6
CONTINUOUS
 62
     2
 10
889.235
 20
1416.74024
 30
0.0
 11
896.96240661
 21
1414.669687639
 31
0.0
  0
LINE
  8
0
  6
CONTINUOUS
 62
     2
 10
889.235
 20
1416.74024
 30
0.0
 11
896.96240661
 21
1418.810792361
 31
0.0
  0
LINE
  8
0
  6
CONTINUOUS
 62
     2
 10
549.235
 20
1510.34024
 30
0.0
 11
549.235
 21
1495.54024
 31
0.0
  0
LINE
  8
0
  6
CONTINUOUS
 62
     2
 10
889.235
 20
1510.34024
 30
0.0
 11
889.235
 21
1495.54024
 31
0.0
  0
LINE
  8
0
  6
CONTINUOUS
 62
     2
 10
686.835
 20
1499.14024
 30
0.0
 11
686.835
 21
1510.34024
 31
0.0
  0
LINE
  8
0
  6
CONTINUOUS
 62
     2
 10
707.635
 20
1486.010792361
 30
0.0
 11
707.635
 21
1469.210792361
 31
0.0
  0
LINE
  8
0
  6
CONTINUOUS
 62
     2
 10
549.235
 20
1495.54024
 30
0.0
 11
549.235
 21
1403.54024
 31
0.0
  0
LINE
  8
0
  6
CONTINUOUS
 62
     2
 10
889.235
 20
1499.54024
 30
0.0
 11
889.235
 21
1404.74024
 31
0.0
  0
LINE
  8
0
  6
CONTINUOUS
 62
     2
 10
707.635
 20
1473.210792361
 30
0.0
 11
707.635
 21
1436.74024
 31
0.0
  0
LINE
  8
0
  6
CONTINUOUS
 62
     2
 10
686.835
 20
1499.54024
 30
0.0
 11
686.835
 21
1463.94024
 31
0.0
  0
TEXT
  8
0
  6
CONTINUOUS
 62
     3
 10
591.035
 20
1501.54024
 30
0.0
 40
15.0
  1
ｍｉｎ．Ｌ
 50
0.0
 41
0.9
 51
0.0
  7
KANJI36
  0
TEXT
  8
0
  6
CONTINUOUS
 62
     3
 10
744.835
 20
1501.54024
 30
0.0
 40
15.0
  1
機械的ストローク
 50
0.0
 41
0.9
 51
0.0
  7
KANJI36
  0
TEXT
  8
0
  6
CONTINUOUS
 62
     3
 10
719.635
 20
1475.210792361
 30
0.0
 40
15.0
  1
余裕
 50
0.0
 41
0.9
 51
0.0
  7
KANJI36
  0
TEXT
  8
0
  6
CONTINUOUS
 62
     3
 10
601.435
 20
1447.94024
 30
0.0
 40
15.0
  1
常用ｍｉｎ
 50
0.0
 41
0.9
 51
0.0
  7
KANJI36
  0
TEXT
  8
0
  6
CONTINUOUS
 62
     3
 10
681.035
 20
1418.74024
 30
0.0
 40
15.0
  1
常用ｍａｘ
 50
0.0
 41
0.9
 51
0.0
  7
KANJI36
  0
TEXT
  8
0
  6
CONTINUOUS
 62
     3
 10
901.235
 20
1418.74024
 30
0.0
 40
15.0
  1
余裕
 50
0.0
 41
0.9
 51
0.0
  7
KANJI36
  0
LINE
  8
0
  6
CONTINUOUS
 62
     2
 10
707.635
 20
1473.210792361
 30
0.0
 11
747.735
 21
1473.210792361
 31
0.0
  0
LINE
  8
0
  6
CONTINUOUS
 62
     2
 10
889.235
 20
1416.74024
 30
0.0
 11
931.735
 21
1416.74024
 31
0.0
  0
LINE
  8
0
  6
CONTINUOUS
 62
     2
 10
866.835
 20
1458.74024
 30
0.0
 11
866.835
 21
1403.94024
 31
0.0
  0
LINE
  8
0
  6
CONTINUOUS
 62
     2
 10
707.635
 20
1445.94024
 30
0.0
 11
866.835
 21
1445.94024
 31
0.0
  0
LINE
  8
0
  6
CONTINUOUS
 62
     2
 10
866.835
 20
1445.94024
 30
0.0
 11
859.10759339
 21
1448.010792361
 31
0.0
  0
LINE
  8
0
  6
CONTINUOUS
 62
     2
 10
866.835
 20
1445.94024
 30
0.0
 11
859.10759339
 21
1443.869687639
 31
0.0
  0
TEXT
  8
0
  6
CONTINUOUS
 62
     3
 10
747.635
 20
1447.94024
 30
0.0
 40
15.0
  1
常用ストローク
 50
0.0
 41
0.9
 51
0.0
  7
KANJI36
  0
TEXT
  8
0
  6
CONTINUOUS
 62
     2
 10
2671.1166991
 20
190.6733226
 30
0.0
 40
21.0
  1
１
 50
0.0
 41
0.9
 51
0.0
  7
KANJI16
  0
LINE
  8
0
  6
CONTINUOUS
 62
     1
 10
1813.0578
 20
1942.48972
 30
0.0
 11
1813.0578
 21
1812.49024
 31
0.0
  0
LINE
  8
0
  6
CONTINUOUS
 62
     2
 10
1738.0581
 20
1942.48972
 30
0.0
 11
1738.0581
 21
1812.49024
 31
0.0
  0
LINE
  8
0
  6
CONTINUOUS
 62
     2
 10
1663.0584
 20
1942.48972
 30
0.0
 11
1663.0584
 21
1812.49024
 31
0.0
  0
LINE
  8
0
  6
CONTINUOUS
 62
     1
 10
1563.0588
 20
1942.48972
 30
0.0
 11
1563.0588
 21
1812.49024
 31
0.0
  0
LINE
  8
0
  6
CONTINUOUS
 62
     1
 10
1563.0588
 20
1942.48972
 30
0.0
 11
1813.0578
 21
1942.48972
 31
0.0
  0
LINE
  8
0
  6
CONTINUOUS
 62
     1
 10
1563.0588
 20
1902.48988
 30
0.0
 11
1813.0578
 21
1902.48988
 31
0.0
  0
LINE
  8
0
  6
CONTINUOUS
 62
     2
 10
1563.0588
 20
1872.49
 30
0.0
 11
1813.0578
 21
1872.49
 31
0.0
  0
LINE
  8
0
  6
CONTINUOUS
 62
     2
 10
1563.0588
 20
1842.49012
 30
0.0
 11
1813.0578
 21
1842.49012
 31
0.0
  0
LINE
  8
0
  6
CONTINUOUS
 62
     1
 10
1563.0588
 20
1812.49024
 30
0.0
 11
1813.0578
 21
1812.49024
 31
0.0
  0
TEXT
  8
0
  6
CONTINUOUS
 62
     2
 10
1748.05806
 20
1924.98979
 30
1.499994
 40
14.99994
  1
起動電流
 50
0.0
 41
0.9
 51
0.0
  7
KANJI37
  0
TEXT
  8
0
  6
CONTINUOUS
 62
     2
 10
1748.05806
 20
1907.48986
 30
1.499994
 40
14.99994
  1
　　　Ａ
 50
0.0
 41
0.9
 51
0.0
  7
KANJI37
  0
TEXT
  8
0
  6
CONTINUOUS
 62
     2
 10
1673.05836
 20
1924.98979
 30
1.499994
 40
14.99994
  1
定格電流
 50
0.0
 41
0.9
 51
0.0
  7
KANJI37
  0
TEXT
  8
0
  6
CONTINUOUS
 62
     2
 10
1673.05836
 20
1907.48986
 30
1.499994
 40
14.99994
  1
　　　Ａ
 50
0.0
 41
0.9
 51
0.0
  7
KANJI37
  0
TEXT
  8
0
  6
CONTINUOUS
 62
     2
 10
1571.558766
 20
1849.99009
 30
1.499994
 40
14.99994
  1
２００／６０
 50
0.0
 41
0.9
 51
0.0
  7
KANJI37
  0
TEXT
  8
0
  6
CONTINUOUS
 62
     2
 10
1571.558766
 20
1924.98979
 30
1.499994
 40
14.99994
  1
電圧／周波数
 50
0.0
 41
0.9
 51
0.0
  7
KANJI37
  0
TEXT
  8
0
  6
CONTINUOUS
 62
     2
 10
1571.558766
 20
1907.48986
 30
1.499994
 40
14.99994
  1
　Ｖ／Ｈｚ
 50
0.0
 41
0.9
 51
0.0
  7
KANJI37
  0
TEXT
  8
0
  6
CONTINUOUS
 62
     2
 10
1571.558766
 20
1879.98997
 30
1.499994
 40
14.99994
  1
２００／５０
 50
0.0
 41
0.9
 51
0.0
  7
KANJI37
  0
TEXT
  8
0
  6
CONTINUOUS
 62
     2
 10
1571.558766
 20
1819.99021
 30
1.499994
 40
14.99994
  1
２２０／６０
 50
0.0
 41
0.9
 51
0.0
  7
KANJI37
  0
LINE
  8
0
  6
CONTINUOUS
 62
     1
 10
1513.059
 20
1942.48972
 30
0.0
 11
1513.059
 21
1812.49024
 31
0.0
  0
LINE
  8
0
  6
CONTINUOUS
 62
     2
 10
1438.0593
 20
1942.48972
 30
0.0
 11
1438.0593
 21
1812.49024
 31
0.0
  0
LINE
  8
0
  6
CONTINUOUS
 62
     2
 10
1363.0596
 20
1942.48972
 30
0.0
 11
1363.0596
 21
1812.49024
 31
0.0
  0
LINE
  8
0
  6
CONTINUOUS
 62
     1
 10
1263.06
 20
1942.48972
 30
0.0
 11
1513.059
 21
1942.48972
 31
0.0
  0
LINE
  8
0
  6
CONTINUOUS
 62
     1
 10
1263.06
 20
1902.48988
 30
0.0
 11
1513.059
 21
1902.48988
 31
0.0
  0
LINE
  8
0
  6
CONTINUOUS
 62
     2
 10
1263.06
 20
1872.49
 30
0.0
 11
1513.059
 21
1872.49
 31
0.0
  0
LINE
  8
0
  6
CONTINUOUS
 62
     2
 10
1263.06
 20
1842.49012
 30
0.0
 11
1513.059
 21
1842.49012
 31
0.0
  0
LINE
  8
0
  6
CONTINUOUS
 62
     1
 10
1263.06
 20
1812.49024
 30
0.0
 11
1513.059
 21
1812.49024
 31
0.0
  0
TEXT
  8
0
  6
CONTINUOUS
 62
     2
 10
1448.05926
 20
1924.98979
 30
1.499994
 40
14.99994
  1
起動電流
 50
0.0
 41
0.9
 51
0.0
  7
KANJI37
  0
TEXT
  8
0
  6
CONTINUOUS
 62
     2
 10
1448.05926
 20
1907.48986
 30
1.499994
 40
14.99994
  1
　　　Ａ
 50
0.0
 41
0.9
 51
0.0
  7
KANJI37
  0
TEXT
  8
0
  6
CONTINUOUS
 62
     2
 10
1373.05956
 20
1924.98979
 30
1.499994
 40
14.99994
  1
定格電流
 50
0.0
 41
0.9
 51
0.0
  7
KANJI37
  0
TEXT
  8
0
  6
CONTINUOUS
 62
     2
 10
1373.05956
 20
1907.48986
 30
1.499994
 40
14.99994
  1
　　　Ａ
 50
0.0
 41
0.9
 51
0.0
  7
KANJI37
  0
TEXT
  8
0
  6
CONTINUOUS
 62
     2
 10
1271.559966
 20
1924.98979
 30
1.499994
 40
14.99994
  1
電圧／周波数
 50
0.0
 41
0.9
 51
0.0
  7
KANJI37
  0
TEXT
  8
0
  6
CONTINUOUS
 62
     2
 10
1271.559966
 20
1907.48986
 30
1.499994
 40
14.99994
  1
　Ｖ／Ｈｚ
 50
0.0
 41
0.9
 51
0.0
  7
KANJI37
  0
TEXT
  8
0
  6
CONTINUOUS
 62
     2
 10
1271.559966
 20
1879.98997
 30
1.499994
 40
14.99994
  1
４００／５０
 50
0.0
 41
0.9
 51
0.0
  7
KANJI37
  0
TEXT
  8
0
  6
CONTINUOUS
 62
     2
 10
1271.559966
 20
1849.99009
 30
1.499994
 40
14.99994
  1
４００／６０
 50
0.0
 41
0.9
 51
0.0
  7
KANJI37
  0
TEXT
  8
0
  6
CONTINUOUS
 62
     2
 10
1271.559966
 20
1819.99021
 30
1.499994
 40
14.99994
  1
４４０／６０
 50
0.0
 41
0.9
 51
0.0
  7
KANJI37
  0
LINE
  8
0
  6
CONTINUOUS
 62
     1
 10
1263.06
 20
1942.48972
 30
0.0
 11
1263.06
 21
1812.49024
 31
0.0
  0
TEXT
  8
0
  6
CONTINUOUS
 62
     2
 10
1673.05836
 20
1879.98997
 30
1.499994
 40
14.99994
  1
　９．０
 50
0.0
 41
0.9
 51
0.0
  7
KANJI37
  0
TEXT
  8
0
  6
CONTINUOUS
 62
     2
 10
1748.05806
 20
1879.98997
 30
1.499994
 40
14.99994
  1
６１．１
 50
0.0
 41
0.9
 51
0.0
  7
KANJI37
  0
TEXT
  8
0
  6
CONTINUOUS
 62
     2
 10
1673.05836
 20
1849.99009
 30
1.499994
 40
14.99994
  1
　８．５
 50
0.0
 41
0.9
 51
0.0
  7
KANJI37
  0
TEXT
  8
0
  6
CONTINUOUS
 62
     2
 10
1747.516423333
 20
1847.6984275
 30
1.499994
 40
14.99994
  1
５３．４
 50
0.0
 41
0.9
 51
0.0
  7
KANJI37
  0
TEXT
  8
0
  6
CONTINUOUS
 62
     2
 10
1673.05836
 20
1819.99021
 30
1.499994
 40
14.99994
  1
　７．９
 50
0.0
 41
0.9
 51
0.0
  7
KANJI37
  0
TEXT
  8
0
  6
CONTINUOUS
 62
     2
 10
1748.766418333
 20
1819.3652075
 30
1.499994
 40
14.99994
  1
５８．７
 50
0.0
 41
0.9
 51
0.0
  7
KANJI37
  0
TEXT
  8
0
  6
CONTINUOUS
 62
     2
 10
1373.05956
 20
1879.98997
 30
1.499994
 40
14.99994
  1
　４．５
 50
0.0
 41
0.9
 51
0.0
  7
KANJI37
  0
TEXT
  8
0
  6
CONTINUOUS
 62
     2
 10
1448.05926
 20
1879.98997
 30
1.499994
 40
14.99994
  1
３０．０
 50
0.0
 41
0.9
 51
0.0
  7
KANJI37
  0
TEXT
  8
0
  6
CONTINUOUS
 62
     2
 10
1373.05956
 20
1849.99009
 30
1.499994
 40
14.99994
  1
　４．２
 50
0.0
 41
0.9
 51
0.0
  7
KANJI37
  0
TEXT
  8
0
  6
CONTINUOUS
 62
     2
 10
1448.05926
 20
1849.99009
 30
1.499994
 40
14.99994
  1
２６．０
 50
0.0
 41
0.9
 51
0.0
  7
KANJI37
  0
TEXT
  8
0
  6
CONTINUOUS
 62
     2
 10
1373.05956
 20
1819.99021
 30
1.499994
 40
14.99994
  1
　４．０
 50
0.0
 41
0.9
 51
0.0
  7
KANJI37
  0
TEXT
  8
0
  6
CONTINUOUS
 62
     2
 10
1448.05926
 20
1819.99021
 30
1.499994
 40
14.99994
  1
２９．０
 50
0.0
 41
0.9
 51
0.0
  7
KANJI37
  0
TEXT
  8
0
  6
CONTINUOUS
 62
     2
 10
212.22
 20
37.54
 30
0.0
 40
21.0
  1
ＦＤ　Ｎｏ．ＭＣ２３１
 50
0.0
 41
0.9
 51
0.0
  7
KANJI16
  0
LINE
  8
0
  6
CONTINUOUS
 62
     2
 10
514.235
 20
1262.54024
 30
0.0
 11
946.522408737
 21
1262.54024
 31
0.0
  0
TEXT
  8
0
  6
CONTINUOUS
 62
     2
 10
516.235
 20
1270.54024
 30
0.0
 40
20.0
  1
推力リミッタの作動値は、約４４００ｋｇ（設計値）
 50
0.0
 41
0.925
 51
0.0
  7
KANJI38
  0
LINE
  8
0
  6
CONTINUOUS
 62
     2
 10
2023.96
 20
830.99
 30
0.0
 11
2191.96
 21
830.99
 31
0.0
  0
TEXT
  8
0
  6
CONTINUOUS
 62
     2
 10
2038.66
 20
840.79
 30
14.0
 40
28.0
  1
特記事項
 50
0.0
 41
0.9
 51
0.0
  7
KANJI39
  0
TEXT
  8
0
  6
CONTINUOUS
 62
     2
 10
2031.66
 20
701.14
 30
2.1
 40
24.5
  1
３．ＬＳユニット
 50
0.0
 41
0.857142857
 51
0.0
  7
KANJI40
  0
TEXT
  8
0
  6
CONTINUOUS
 62
     2
 10
2031.66
 20
788.64
 30
2.1
 40
24.5
  1
１．運転時は必ずピストンロッドの回転防止を行って下さい。
 50
0.0
 41
0.857142857
 51
0.0
  7
KANJI40
  0
TEXT
  8
0
  6
CONTINUOUS
 62
     2
 10
2031.66
 20
744.89
 30
2.1
 40
24.5
  1
２．モートル：全閉自冷かご形３０分定格
 50
0.0
 41
0.857142857
 51
0.0
  7
KANJI40
  0
TEXT
  8
0
  6
CONTINUOUS
 62
     2
 10
2031.66
 20
592.64
 30
2.1
 40
24.5
  1
４．呼称ストロークは、機械的ストロークです。
 50
0.0
 41
0.857142857
 51
0.0
  7
KANJI40
  0
TEXT
  8
0
  6
CONTINUOUS
 62
     2
 10
2031.66
 20
631.14
 30
2.1
 40
24.5
  1
　　ストローク７００ｍｍ以上の場合２ロッド方式となります。
 50
0.0
 41
0.857142857
 51
0.0
  7
KANJI40
  0
TEXT
  8
0
  6
CONTINUOUS
 62
     2
 10
2031.66
 20
666.14
 30
2.1
 40
24.5
  1
　　リミットスイッチ：１ＬＳ１－Ｊｘ２ケ（山武）
 50
0.0
 41
0.857142857
 51
0.0
  7
KANJI40
  0
TEXT
  8
0
  6
CONTINUOUS
 62
     2
 10
2031.66
 20
549.52
 30
2.1
 40
24.5
  1
　　必ず、常用はストローク両端に必ず余裕を取って下さい。
 50
0.0
 41
0.857142857
 51
0.0
  7
KANJI40
  0
TEXT
  8
0
  6
CONTINUOUS
 62
     2
 10
2031.66
 20
505.448
 30
2.1
 40
24.5
  1
　　前後の推奨余裕寸法は、各々２０ｍｍです。
 50
0.0
 41
0.857142857
 51
0.0
  7
KANJI40
  0
LINE
  8
0
  6
CONTINUOUS
 62
     2
 10
1203.576113006
 20
1038.97587381
 30
0.0
 11
1191.502040177
 21
1042.211111874
 31
0.0
  0
LINE
  8
0
  6
CONTINUOUS
 62
     2
 10
1203.576113006
 20
1038.97587381
 30
0.0
 11
1191.502040177
 21
1035.740635746
 31
0.0
  0
LINE
  8
0
  6
CONTINUOUS
 62
     2
 10
1203.576113006
 20
1038.97587381
 30
0.0
 11
1162.576113006
 21
1038.97587381
 31
0.0
  0
TEXT
  8
0
  6
CONTINUOUS
 62
     3
 10
1169.576113006
 20
1048.97587381
 30
0.0
 40
21.0
  1
前進
 50
0.0
 41
0.9
 51
0.0
  7
KANJI41
  0
CIRCLE
  8
0
  6
CONTINUOUS
 62
     1
 10
530.035
 20
683.493573333
 30
0.0
 40
15.0
  0
CIRCLE
  8
0
  6
CONTINUOUS
 62
     1
 10
530.035
 20
683.493573333
 30
0.0
 40
30.0
  0
CIRCLE
  8
0
  6
CONTINUOUS
 62
     1
 10
530.035
 20
683.493573333
 30
0.0
 40
34.0
  0
LINE
  8
0
  6
CONTINUOUS
 62
     1
 10
430.035
 20
763.493573333
 30
0.0
 11
430.035
 21
603.493573333
 31
0.0
  0
LINE
  8
0
  6
CONTINUOUS
 62
     1
 10
532.035
 20
615.493573333
 30
0.0
 11
606.035
 21
615.493573333
 31
0.0
  0
LINE
  8
0
  6
CONTINUOUS
 62
     1
 10
532.035
 20
634.093573333
 30
0.0
 11
532.035
 21
615.493573333
 31
0.0
  0
LINE
  8
0
  6
CONTINUOUS
 62
     1
 10
606.035
 20
634.793573333
 30
0.0
 11
606.035
 21
615.493573333
 31
0.0
  0
LINE
  8
0
  6
LTYPE2
 62
     2
 10
530.035
 20
728.493573333
 30
0.0
 11
530.035
 21
638.493573333
 31
0.0
  0
LINE
  8
0
  6
CONTINUOUS
 62
     1
 10
430.035
 20
763.493573333
 30
0.0
 11
446.035
 21
763.493573333
 31
0.0
  0
ARC
  8
0
  6
CONTINUOUS
 62
     1
 10
446.035
 20
761.493573333
 30
0.0
 40
2.0
 50
0.0
 51
90.0
  0
LINE
  8
0
  6
CONTINUOUS
 62
     1
 10
430.035
 20
603.493573333
 30
0.0
 11
446.035
 21
603.493573333
 31
0.0
  0
LINE
  8
0
  6
CONTINUOUS
 62
     1
 10
448.035
 20
761.493573333
 30
0.0
 11
448.035
 21
605.493573333
 31
0.0
  0
ARC
  8
0
  6
CONTINUOUS
 62
     1
 10
446.035
 20
605.493573333
 30
0.0
 40
2.0
 50
270.0
 51
0.0
  0
LINE
  8
0
  6
CONTINUOUS
 62
     1
 10
606.135
 20
618.493573333
 30
0.0
 11
671.035
 21
618.493573333
 31
0.0
  0
LINE
  8
0
  6
CONTINUOUS
 62
     1
 10
452.035
 20
623.493573333
 30
0.0
 11
452.035
 21
637.324561431
 31
0.0
  0
LINE
  8
0
  6
CONTINUOUS
 62
     1
 10
452.035
 20
623.493573333
 30
0.0
 11
452.035
 21
609.662585236
 31
0.0
  0
POINT
  8
0
  6
CONTINUOUS
 62
     1
 10
448.035
 20
637.493573333
 30
0.0
  0
LINE
  8
0
  6
CONTINUOUS
 62
     1
 10
448.035
 20
637.493573333
 30
0.0
 11
452.035
 21
637.493573333
 31
0.0
  0
LINE
  8
0
  6
CONTINUOUS
 62
     1
 10
448.035
 20
623.493573333
 30
0.0
 11
452.034996995
 21
627.493570328
 31
0.0
  0
LINE
  8
0
  6
CONTINUOUS
 62
     1
 10
452.034996995
 20
623.493573333
 30
0.0
 11
448.035
 21
619.493576338
 31
0.0
  0
POINT
  8
0
  6
CONTINUOUS
 62
     1
 10
448.035
 20
609.493573333
 30
0.0
  0
LINE
  8
0
  6
CONTINUOUS
 62
     1
 10
448.035
 20
609.493573333
 30
0.0
 11
452.035
 21
609.493573333
 31
0.0
  0
LINE
  8
0
  6
CONTINUOUS
 62
     1
 10
467.035
 20
623.49357311
 30
0.0
 11
467.035
 21
635.493573333
 31
0.0
  0
LINE
  8
0
  6
CONTINUOUS
 62
     1
 10
452.035
 20
635.493573333
 30
0.0
 11
467.035
 21
635.493573333
 31
0.0
  0
LINE
  8
0
  6
CONTINUOUS
 62
     1
 10
467.035
 20
635.493573333
 30
0.0
 11
468.035
 21
633.761522526
 31
0.0
  0
LINE
  8
0
  6
CONTINUOUS
 62
     1
 10
468.035
 20
623.493573095
 30
0.0
 11
468.035
 21
633.761522526
 31
0.0
  0
LINE
  8
0
  6
CONTINUOUS
 62
     1
 10
467.035
 20
623.493573557
 30
0.0
 11
467.035
 21
611.493573333
 31
0.0
  0
LINE
  8
0
  6
CONTINUOUS
 62
     1
 10
452.035
 20
611.493573333
 30
0.0
 11
467.035
 21
611.493573333
 31
0.0
  0
LINE
  8
0
  6
CONTINUOUS
 62
     1
 10
467.035
 20
611.493573333
 30
0.0
 11
468.035
 21
613.225624141
 31
0.0
  0
LINE
  8
0
  6
CONTINUOUS
 62
     1
 10
468.035
 20
623.493573572
 30
0.0
 11
468.035
 21
613.225624141
 31
0.0
  0
LINE
  8
0
  6
CONTINUOUS
 62
     1
 10
468.035
 20
618.493573333
 30
0.0
 11
532.235
 21
618.493573333
 31
0.0
  0
LINE
  8
0
  6
LTYPE2
 62
     2
 10
418.335
 20
623.493573333
 30
0.0
 11
474.135
 21
623.493573333
 31
0.0
  0
LINE
  8
0
  6
CONTINUOUS
 62
     1
 10
452.035
 20
743.493573333
 30
0.0
 11
452.035
 21
729.662585236
 31
0.0
  0
LINE
  8
0
  6
CONTINUOUS
 62
     1
 10
452.035
 20
743.493573333
 30
0.0
 11
452.035
 21
757.324561431
 31
0.0
  0
POINT
  8
0
  6
CONTINUOUS
 62
     1
 10
448.035
 20
729.493573333
 30
0.0
  0
LINE
  8
0
  6
CONTINUOUS
 62
     1
 10
448.035
 20
729.493573333
 30
0.0
 11
452.035
 21
729.493573333
 31
0.0
  0
LINE
  8
0
  6
CONTINUOUS
 62
     1
 10
448.035
 20
743.493573333
 30
0.0
 11
452.034996995
 21
739.493576338
 31
0.0
  0
LINE
  8
0
  6
CONTINUOUS
 62
     1
 10
452.034996995
 20
743.493573333
 30
0.0
 11
448.035
 21
747.493570328
 31
0.0
  0
POINT
  8
0
  6
CONTINUOUS
 62
     1
 10
448.035
 20
757.493573333
 30
0.0
  0
LINE
  8
0
  6
CONTINUOUS
 62
     1
 10
448.035
 20
757.493573333
 30
0.0
 11
452.035
 21
757.493573333
 31
0.0
  0
LINE
  8
0
  6
CONTINUOUS
 62
     1
 10
467.035
 20
743.493573557
 30
0.0
 11
467.035
 21
731.493573333
 31
0.0
  0
LINE
  8
0
  6
CONTINUOUS
 62
     1
 10
452.035
 20
731.493573333
 30
0.0
 11
467.035
 21
731.493573333
 31
0.0
  0
LINE
  8
0
  6
CONTINUOUS
 62
     1
 10
467.035
 20
731.493573333
 30
0.0
 11
468.035
 21
733.225624141
 31
0.0
  0
LINE
  8
0
  6
CONTINUOUS
 62
     1
 10
468.035
 20
743.493573572
 30
0.0
 11
468.035
 21
733.225624141
 31
0.0
  0
LINE
  8
0
  6
CONTINUOUS
 62
     1
 10
467.035
 20
743.49357311
 30
0.0
 11
467.035
 21
755.493573333
 31
0.0
  0
LINE
  8
0
  6
CONTINUOUS
 62
     1
 10
452.035
 20
755.493573333
 30
0.0
 11
467.035
 21
755.493573333
 31
0.0
  0
LINE
  8
0
  6
CONTINUOUS
 62
     1
 10
467.035
 20
755.493573333
 30
0.0
 11
468.035
 21
753.761522526
 31
0.0
  0
LINE
  8
0
  6
CONTINUOUS
 62
     1
 10
468.035
 20
743.493573095
 30
0.0
 11
468.035
 21
753.761522526
 31
0.0
  0
LINE
  8
0
  6
LTYPE2
 62
     2
 10
418.335
 20
743.493573333
 30
0.0
 11
474.135
 21
743.493573333
 31
0.0
  0
LINE
  8
0
  6
CONTINUOUS
 62
     1
 10
468.035
 20
748.493573333
 30
0.0
 11
671.035
 21
748.493573333
 31
0.0
  0
LINE
  8
0
  6
CONTINUOUS
 62
     1
 10
532.035
 20
613.993573333
 30
0.0
 11
606.035
 21
613.993573333
 31
0.0
  0
LINE
  8
0
  6
CONTINUOUS
 62
     1
 10
615.035
 20
613.993573333
 30
0.0
 11
615.035
 21
612.993573333
 31
0.0
  0
ARC
  8
0
  6
CONTINUOUS
 62
     1
 10
528.035
 20
610.993573333
 30
0.0
 40
3.0
 50
90.0
 51
180.0
  0
LINE
  8
0
  6
CONTINUOUS
 62
     1
 10
615.035
 20
612.993573333
 30
0.0
 11
651.035
 21
612.993573333
 31
0.0
  0
ARC
  8
0
  6
CONTINUOUS
 62
     1
 10
651.035
 20
609.993573333
 30
0.0
 40
3.0
 50
0.0
 51
90.0
  0
LINE
  8
0
  6
CONTINUOUS
 62
     1
 10
528.035
 20
613.993573333
 30
0.0
 11
615.035
 21
613.993573333
 31
0.0
  0
LINE
  8
0
  6
CONTINUOUS
 62
     1
 10
528.035
 20
615.493573333
 30
0.0
 11
615.035
 21
615.493573333
 31
0.0
  0
LINE
  8
0
  6
LTYPE2
 62
     2
 10
569.035
 20
632.193573333
 30
0.0
 11
569.035
 21
598.693573333
 31
0.0
  0
LINE
  8
0
  6
CONTINUOUS
 62
     1
 10
671.035
 20
688.493573333
 30
0.0
 11
683.035
 21
688.493573333
 31
0.0
  0
LINE
  8
0
  6
CONTINUOUS
 62
     1
 10
671.035
 20
678.493573333
 30
0.0
 11
683.035
 21
678.493573333
 31
0.0
  0
LINE
  8
0
  6
CONTINUOUS
 62
     1
 10
671.035
 20
750.993573333
 30
0.0
 11
683.035
 21
750.993573333
 31
0.0
  0
LINE
  8
0
  6
CONTINUOUS
 62
     1
 10
671.035
 20
746.993573333
 30
0.0
 11
683.035
 21
746.993573333
 31
0.0
  0
LINE
  8
0
  6
CONTINUOUS
 62
     1
 10
671.035
 20
615.993573333
 30
0.0
 11
683.035
 21
615.993573333
 31
0.0
  0
LINE
  8
0
  6
CONTINUOUS
 62
     1
 10
671.035
 20
619.993573333
 30
0.0
 11
683.035
 21
619.993573333
 31
0.0
  0
LINE
  8
0
  6
CONTINUOUS
 62
     1
 10
671.035
 20
750.993573333
 30
0.0
 11
671.035
 21
615.993573333
 31
0.0
  0
LINE
  8
0
  6
CONTINUOUS
 62
     1
 10
683.035
 20
750.993573333
 30
0.0
 11
683.035
 21
615.993573333
 31
0.0
  0
LINE
  8
0
  6
LTYPE2
 62
     2
 10
1213.035
 20
683.493573333
 30
0.0
 11
292.635
 21
683.493573333
 31
0.0
  0
LINE
  8
0
  6
LTYPE2
 62
     2
 10
1164.635
 20
877.193573333
 30
0.0
 11
1164.635
 21
1000.193573333
 31
0.0
  0
LINE
  8
0
  6
CONTINUOUS
 62
     1
 10
1114.635
 20
920.193573333
 30
0.0
 11
1199.635
 21
920.193573333
 31
0.0
  0
LINE
  8
0
  6
CONTINUOUS
 62
     1
 10
1199.635
 20
900.193573333
 30
0.0
 11
1199.635
 21
920.193573333
 31
0.0
  0
LINE
  8
0
  6
CONTINUOUS
 62
     1
 10
1114.635
 20
960.193573333
 30
0.0
 11
1199.635
 21
960.193573333
 31
0.0
  0
LINE
  8
0
  6
CONTINUOUS
 62
     1
 10
1199.635
 20
980.193573333
 30
0.0
 11
1199.635
 21
960.193573333
 31
0.0
  0
LINE
  8
0
  6
CONTINUOUS
 62
     1
 10
1114.635
 20
920.193573333
 30
0.0
 11
1114.635
 21
960.193573333
 31
0.0
  0
LINE
  8
0
  6
CONTINUOUS
 62
     1
 10
1149.635
 20
920.193573333
 30
0.0
 11
1149.635
 21
960.193573333
 31
0.0
  0
LINE
  8
0
  6
CONTINUOUS
 62
     1
 10
1179.635
 20
920.193573333
 30
0.0
 11
1179.635
 21
960.193573333
 31
0.0
  0
LINE
  8
0
  6
LTYPE1
 62
     2
 10
1149.635
 20
960.193573333
 30
0.0
 11
1149.635
 21
980.193573333
 31
0.0
  0
LINE
  8
0
  6
LTYPE1
 62
     2
 10
1179.635
 20
960.193573333
 30
0.0
 11
1179.635
 21
980.193573333
 31
0.0
  0
LINE
  8
0
  6
CONTINUOUS
 62
     1
 10
1136.635
 20
896.193573333
 30
0.0
 11
1192.635
 21
896.193573333
 31
0.0
  0
LINE
  8
0
  6
CONTINUOUS
 62
     1
 10
1136.635
 20
896.193573333
 30
0.0
 11
1136.635
 21
900.193573333
 31
0.0
  0
LINE
  8
0
  6
CONTINUOUS
 62
     1
 10
1192.635
 20
896.193573333
 30
0.0
 11
1192.635
 21
900.193573333
 31
0.0
  0
LINE
  8
0
  6
CONTINUOUS
 62
     1
 10
1149.635
 20
886.193573333
 30
0.0
 11
1179.635
 21
886.193573333
 31
0.0
  0
LINE
  8
0
  6
CONTINUOUS
 62
     1
 10
1149.635
 20
886.193573333
 30
0.0
 11
1149.635
 21
896.193573333
 31
0.0
  0
LINE
  8
0
  6
CONTINUOUS
 62
     1
 10
1179.635
 20
886.193573333
 30
0.0
 11
1179.635
 21
896.193573333
 31
0.0
  0
LINE
  8
0
  6
LTYPE1
 62
     2
 10
1179.635
 20
896.193573333
 30
0.0
 11
1179.635
 21
920.193573333
 31
0.0
  0
LINE
  8
0
  6
LTYPE1
 62
     2
 10
1149.635
 20
896.193573333
 30
0.0
 11
1149.635
 21
920.193573333
 31
0.0
  0
LINE
  8
0
  6
CONTINUOUS
 62
     1
 10
1136.635
 20
984.193573333
 30
0.0
 11
1192.635
 21
984.193573333
 31
0.0
  0
LINE
  8
0
  6
CONTINUOUS
 62
     1
 10
1136.635
 20
984.193573333
 30
0.0
 11
1136.635
 21
980.193573333
 31
0.0
  0
LINE
  8
0
  6
CONTINUOUS
 62
     1
 10
1192.635
 20
984.193573333
 30
0.0
 11
1192.635
 21
980.193573333
 31
0.0
  0
LINE
  8
0
  6
CONTINUOUS
 62
     1
 10
1149.635
 20
994.193573333
 30
0.0
 11
1179.635
 21
994.193573333
 31
0.0
  0
LINE
  8
0
  6
CONTINUOUS
 62
     1
 10
1149.635
 20
994.193573333
 30
0.0
 11
1149.635
 21
984.193573333
 31
0.0
  0
LINE
  8
0
  6
CONTINUOUS
 62
     1
 10
1179.635
 20
994.193573333
 30
0.0
 11
1179.635
 21
984.193573333
 31
0.0
  0
LINE
  8
0
  6
LTYPE2
 62
     2
 10
1157.635
 20
892.593573333
 30
0.0
 11
1173.635
 21
892.593573333
 31
0.0
  0
CIRCLE
  8
0
  6
CONTINUOUS
 62
     1
 10
1164.635
 20
892.593573333
 30
0.0
 40
3.0
  0
LINE
  8
0
  6
LTYPE2
 62
     2
 10
1157.635
 20
987.793573333
 30
0.0
 11
1173.635
 21
987.793573333
 31
0.0
  0
CIRCLE
  8
0
  6
CONTINUOUS
 62
     1
 10
1164.635
 20
987.793573333
 30
0.0
 40
3.0
  0
LINE
  8
0
  6
CONTINUOUS
 62
     2
 10
1208.635
 20
960.193573333
 30
0.0
 11
1261.135
 21
960.193573333
 31
0.0
  0
LINE
  8
0
  6
CONTINUOUS
 62
     2
 10
1252.135
 20
960.193573333
 30
0.0
 11
1248.252714323
 21
945.704685939
 31
0.0
  0
LINE
  8
0
  6
CONTINUOUS
 62
     2
 10
1252.135
 20
960.193573333
 30
0.0
 11
1256.017285677
 21
945.704685939
 31
0.0
  0
LINE
  8
0
  6
CONTINUOUS
 62
     2
 10
1252.135
 20
960.193573333
 30
0.0
 11
1252.135
 21
920.193573333
 31
0.0
  0
LINE
  8
0
  6
CONTINUOUS
 62
     2
 10
1252.135
 20
920.193573333
 30
0.0
 11
1256.017285677
 21
934.682460728
 31
0.0
  0
LINE
  8
0
  6
CONTINUOUS
 62
     2
 10
1252.135
 20
920.193573333
 30
0.0
 11
1248.252714323
 21
934.682460728
 31
0.0
  0
LINE
  8
0
  6
CONTINUOUS
 62
     2
 10
1208.635
 20
920.193573333
 30
0.0
 11
1261.135
 21
920.193573333
 31
0.0
  0
LINE
  8
0
  6
CONTINUOUS
 62
     2
 10
1208.635
 20
900.193573333
 30
0.0
 11
1301.635
 21
900.193573333
 31
0.0
  0
LINE
  8
0
  6
CONTINUOUS
 62
     2
 10
1292.635
 20
900.193573333
 30
0.0
 11
1296.517285677
 21
914.682460728
 31
0.0
  0
LINE
  8
0
  6
CONTINUOUS
 62
     2
 10
1292.635
 20
900.193573333
 30
0.0
 11
1288.752714323
 21
914.682460728
 31
0.0
  0
LINE
  8
0
  6
CONTINUOUS
 62
     2
 10
1292.635
 20
900.193573333
 30
0.0
 11
1292.635
 21
980.193573333
 31
0.0
  0
LINE
  8
0
  6
CONTINUOUS
 62
     2
 10
1292.635
 20
980.193573333
 30
0.0
 11
1288.752714323
 21
965.704685939
 31
0.0
  0
LINE
  8
0
  6
CONTINUOUS
 62
     2
 10
1292.635
 20
980.193573333
 30
0.0
 11
1296.517285677
 21
965.704685939
 31
0.0
  0
LINE
  8
0
  6
CONTINUOUS
 62
     2
 10
1208.635
 20
980.193573333
 30
0.0
 11
1301.635
 21
980.193573333
 31
0.0
  0
LINE
  8
0
  6
CONTINUOUS
 62
     2
 10
1149.635
 20
887.193573333
 30
0.0
 11
1149.635
 21
831.193573333
 31
0.0
  0
LINE
  8
0
  6
CONTINUOUS
 62
     2
 10
1149.635
 20
840.193573333
 30
0.0
 11
1135.146112606
 21
844.07585901
 31
0.0
  0
LINE
  8
0
  6
CONTINUOUS
 62
     2
 10
1149.635
 20
840.193573333
 30
0.0
 11
1135.146112606
 21
836.311287657
 31
0.0
  0
LINE
  8
0
  6
CONTINUOUS
 62
     2
 10
1127.135
 20
840.193573333
 30
0.0
 11
1287.935
 21
840.193573333
 31
0.0
  0
LINE
  8
0
  6
CONTINUOUS
 62
     2
 10
1179.635
 20
840.193573333
 30
0.0
 11
1194.123887394
 21
836.311287657
 31
0.0
  0
LINE
  8
0
  6
CONTINUOUS
 62
     2
 10
1179.635
 20
840.193573333
 30
0.0
 11
1194.123887394
 21
844.07585901
 31
0.0
  0
LINE
  8
0
  6
CONTINUOUS
 62
     2
 10
1179.635
 20
877.193573333
 30
0.0
 11
1179.635
 21
831.193573333
 31
0.0
  0
LINE
  8
0
  6
CONTINUOUS
 62
     2
 10
1114.635
 20
911.193573333
 30
0.0
 11
1114.635
 21
795.193573333
 31
0.0
  0
LINE
  8
0
  6
CONTINUOUS
 62
     2
 10
1114.635
 20
804.193573333
 30
0.0
 11
1129.123887394
 21
800.311287657
 31
0.0
  0
LINE
  8
0
  6
CONTINUOUS
 62
     2
 10
1114.635
 20
804.193573333
 30
0.0
 11
1129.123887394
 21
808.07585901
 31
0.0
  0
LINE
  8
0
  6
CONTINUOUS
 62
     2
 10
1114.635
 20
804.193573333
 30
0.0
 11
1164.635
 21
804.193573333
 31
0.0
  0
LINE
  8
0
  6
CONTINUOUS
 62
     2
 10
1164.635
 20
804.193573333
 30
0.0
 11
1150.146112606
 21
808.07585901
 31
0.0
  0
LINE
  8
0
  6
CONTINUOUS
 62
     2
 10
1164.635
 20
804.193573333
 30
0.0
 11
1150.146112606
 21
800.311287657
 31
0.0
  0
LINE
  8
0
  6
CONTINUOUS
 62
     2
 10
1164.635
 20
868.193573333
 30
0.0
 11
1164.635
 21
795.193573333
 31
0.0
  0
LINE
  8
0
  6
LTYPE2
 62
     2
 10
1082.435
 20
940.193573333
 30
0.0
 11
1204.835
 21
940.193573333
 31
0.0
  0
LINE
  8
0
  6
CONTINUOUS
 62
     1
 10
1634.135
 20
668.493573333
 30
0.0
 11
1594.135
 21
668.493573333
 31
0.0
  0
LINE
  8
0
  6
CONTINUOUS
 62
     1
 10
1634.135
 20
698.493573333
 30
0.0
 11
1594.135
 21
698.493573333
 31
0.0
  0
LINE
  8
0
  6
LTYPE1
 62
     2
 10
1594.135
 20
668.493573333
 30
0.0
 11
1574.135
 21
668.493573333
 31
0.0
  0
LINE
  8
0
  6
LTYPE1
 62
     2
 10
1594.135
 20
698.493573333
 30
0.0
 11
1574.135
 21
698.493573333
 31
0.0
  0
LINE
  8
0
  6
CONTINUOUS
 62
     1
 10
1658.135
 20
655.493573333
 30
0.0
 11
1658.135
 21
711.493573333
 31
0.0
  0
LINE
  8
0
  6
CONTINUOUS
 62
     1
 10
1658.135
 20
655.493573333
 30
0.0
 11
1654.135
 21
655.493573333
 31
0.0
  0
LINE
  8
0
  6
CONTINUOUS
 62
     1
 10
1658.135
 20
711.493573333
 30
0.0
 11
1654.135
 21
711.493573333
 31
0.0
  0
LINE
  8
0
  6
CONTINUOUS
 62
     1
 10
1668.135
 20
668.493573333
 30
0.0
 11
1668.135
 21
698.493573333
 31
0.0
  0
LINE
  8
0
  6
CONTINUOUS
 62
     1
 10
1668.135
 20
668.493573333
 30
0.0
 11
1658.135
 21
668.493573333
 31
0.0
  0
LINE
  8
0
  6
CONTINUOUS
 62
     1
 10
1668.135
 20
698.493573333
 30
0.0
 11
1658.135
 21
698.493573333
 31
0.0
  0
LINE
  8
0
  6
LTYPE1
 62
     2
 10
1658.135
 20
698.493573333
 30
0.0
 11
1634.135
 21
698.493573333
 31
0.0
  0
LINE
  8
0
  6
LTYPE1
 62
     2
 10
1658.135
 20
668.493573333
 30
0.0
 11
1634.135
 21
668.493573333
 31
0.0
  0
LINE
  8
0
  6
CONTINUOUS
 62
     1
 10
1570.135
 20
655.493573333
 30
0.0
 11
1570.135
 21
711.493573333
 31
0.0
  0
LINE
  8
0
  6
CONTINUOUS
 62
     1
 10
1570.135
 20
655.493573333
 30
0.0
 11
1574.135
 21
655.493573333
 31
0.0
  0
LINE
  8
0
  6
CONTINUOUS
 62
     1
 10
1570.135
 20
711.493573333
 30
0.0
 11
1574.135
 21
711.493573333
 31
0.0
  0
LINE
  8
0
  6
CONTINUOUS
 62
     1
 10
1560.135
 20
668.493573333
 30
0.0
 11
1560.135
 21
698.493573333
 31
0.0
  0
LINE
  8
0
  6
CONTINUOUS
 62
     1
 10
1560.135
 20
668.493573333
 30
0.0
 11
1570.135
 21
668.493573333
 31
0.0
  0
LINE
  8
0
  6
CONTINUOUS
 62
     1
 10
1560.135
 20
698.493573333
 30
0.0
 11
1570.135
 21
698.493573333
 31
0.0
  0
LINE
  8
0
  6
LTYPE2
 62
     2
 10
1661.735
 20
676.493573333
 30
0.0
 11
1661.735
 21
692.493573333
 31
0.0
  0
CIRCLE
  8
0
  6
CONTINUOUS
 62
     1
 10
1661.735
 20
683.493573333
 30
0.0
 40
3.0
  0
LINE
  8
0
  6
LTYPE2
 62
     2
 10
1566.535
 20
676.493573333
 30
0.0
 11
1566.535
 21
692.493573333
 31
0.0
  0
CIRCLE
  8
0
  6
CONTINUOUS
 62
     1
 10
1566.535
 20
683.493573333
 30
0.0
 40
3.0
  0
LINE
  8
0
  6
CONTINUOUS
 62
     1
 10
1654.135
 20
720.993573333
 30
0.0
 11
1574.135
 21
720.993573333
 31
0.0
  0
LINE
  8
0
  6
CONTINUOUS
 62
     1
 10
1594.135
 20
645.993573333
 30
0.0
 11
1594.135
 21
720.993573333
 31
0.0
  0
LINE
  8
0
  6
CONTINUOUS
 62
     1
 10
1574.135
 20
645.993573333
 30
0.0
 11
1574.135
 21
720.993573333
 31
0.0
  0
LINE
  8
0
  6
CONTINUOUS
 62
     1
 10
1634.135
 20
645.993573333
 30
0.0
 11
1634.135
 21
720.993573333
 31
0.0
  0
LINE
  8
0
  6
CONTINUOUS
 62
     1
 10
1654.135
 20
645.993573333
 30
0.0
 11
1574.135
 21
645.993573333
 31
0.0
  0
LINE
  8
0
  6
CONTINUOUS
 62
     1
 10
1654.135
 20
645.993573333
 30
0.0
 11
1654.135
 21
720.993573333
 31
0.0
  0
LINE
  8
0
  6
LTYPE2
 62
     2
 10
1731.135
 20
683.493573333
 30
0.0
 11
1508.135
 21
683.493573333
 31
0.0
  0
LINE
  8
0
  6
LTYPE1
 62
     2
 10
1539.135
 20
668.493573333
 30
0.0
 11
1504.135
 21
668.493573333
 31
0.0
  0
LINE
  8
0
  6
LTYPE1
 62
     2
 10
1539.135
 20
698.493573333
 30
0.0
 11
1504.135
 21
698.493573333
 31
0.0
  0
LINE
  8
0
  6
LTYPE1
 62
     2
 10
1539.135
 20
668.493573333
 30
0.0
 11
1539.135
 21
698.493573333
 31
0.0
  0
ARC
  8
0
  6
CONTINUOUS
 62
     1
 10
1566.135
 20
610.993573333
 30
0.0
 40
3.0
 50
90.0
 51
180.0
  0
LINE
  8
0
  6
CONTINUOUS
 62
     1
 10
1563.135
 20
564.493573333
 30
0.0
 11
1563.135
 21
610.993573333
 31
0.0
  0
ARC
  8
0
  6
CONTINUOUS
 62
     1
 10
1564.135
 20
564.493573333
 30
0.0
 40
1.0
 50
180.0
 51
270.0
  0
ARC
  8
0
  6
CONTINUOUS
 62
     1
 10
1567.135
 20
563.493573333
 30
0.0
 40
1.0
 50
180.0
 51
270.0
  0
ARC
  8
0
  6
CONTINUOUS
 62
     1
 10
1662.135
 20
610.993573333
 30
0.0
 40
3.0
 50
0.0
 51
90.0
  0
LINE
  8
0
  6
CONTINUOUS
 62
     1
 10
1665.135
 20
564.493573333
 30
0.0
 11
1665.135
 21
610.993573333
 31
0.0
  0
ARC
  8
0
  6
CONTINUOUS
 62
     1
 10
1664.135
 20
564.493573333
 30
0.0
 40
1.0
 50
270.0
 51
0.0
  0
ARC
  8
0
  6
CONTINUOUS
 62
     1
 10
1661.135
 20
563.493573333
 30
0.0
 40
1.0
 50
270.0
 51
0.0
  0
LINE
  8
0
  6
CONTINUOUS
 62
     1
 10
1665.135
 20
569.493573333
 30
0.0
 11
1563.135
 21
569.493573333
 31
0.0
  0
LINE
  8
0
  6
CONTINUOUS
 62
     1
 10
1665.135
 20
570.993573333
 30
0.0
 11
1563.135
 21
570.993573333
 31
0.0
  0
LINE
  8
0
  6
CONTINUOUS
 62
     1
 10
1661.135
 20
562.493573333
 30
0.0
 11
1567.135
 21
562.493573333
 31
0.0
  0
LINE
  8
0
  6
CONTINUOUS
 62
     1
 10
1664.135
 20
563.493573333
 30
0.0
 11
1564.135
 21
563.493573333
 31
0.0
  0
LINE
  8
0
  6
LTYPE3
 62
     2
 10
1659.135
 20
558.793573333
 30
0.0
 11
1659.135
 21
577.493573333
 31
0.0
  0
LINE
  8
0
  6
LTYPE3
 62
     2
 10
1569.135
 20
558.793573333
 30
0.0
 11
1569.135
 21
577.493573333
 31
0.0
  0
LINE
  8
0
  6
LTYPE3
 62
     3
 10
1614.135
 20
557.993573333
 30
0.0
 11
1614.135
 21
617.143573333
 31
0.0
  0
LINE
  8
0
  6
CONTINUOUS
 62
     1
 10
1642.635
 20
613.993573333
 30
0.0
 11
1662.135
 21
613.993573333
 31
0.0
  0
LINE
  8
0
  6
CONTINUOUS
 62
     1
 10
1645.635
 20
615.493573333
 30
0.0
 11
1660.135
 21
615.493573333
 31
0.0
  0
CIRCLE
  8
0
  6
CONTINUOUS
 62
     2
 10
1614.135
 20
587.993573333
 30
0.0
 40
10.4775
  0
CIRCLE
  8
0
  6
CONTINUOUS
 62
     2
 10
1614.135
 20
587.993573333
 30
0.0
 40
9.3155
  0
LINE
  8
0
  6
LTYPE2
 62
     2
 10
1634.035
 20
587.993573333
 30
0.0
 11
1593.335
 21
587.993573333
 31
0.0
  0
LINE
  8
0
  6
LTYPE2
 62
     2
 10
1691.635
 20
623.493573333
 30
0.0
 11
1657.635
 21
623.493573333
 31
0.0
  0
LINE
  8
0
  6
LTYPE2
 62
     2
 10
1674.135
 20
604.993573333
 30
0.0
 11
1674.135
 21
640.993573333
 31
0.0
  0
LINE
  8
0
  6
CONTINUOUS
 62
     1
 10
1686.135
 20
603.493573333
 30
0.0
 11
1665.135
 21
603.493573333
 31
0.0
  0
ARC
  8
0
  6
CONTINUOUS
 62
     1
 10
1686.135
 20
611.493573333
 30
0.0
 40
8.0
 50
270.0
 51
0.0
  0
LINE
  8
0
  6
LTYPE2
 62
     2
 10
1536.635
 20
623.493573333
 30
0.0
 11
1570.635
 21
623.493573333
 31
0.0
  0
LINE
  8
0
  6
LTYPE2
 62
     2
 10
1554.135
 20
604.993573333
 30
0.0
 11
1554.135
 21
640.993573333
 31
0.0
  0
LINE
  8
0
  6
CONTINUOUS
 62
     1
 10
1542.135
 20
603.493573333
 30
0.0
 11
1563.135
 21
603.493573333
 31
0.0
  0
ARC
  8
0
  6
CONTINUOUS
 62
     1
 10
1542.135
 20
611.493573333
 30
0.0
 40
8.0
 50
180.0
 51
270.0
  0
ARC
  8
0
  6
CONTINUOUS
 62
     1
 10
1554.135
 20
623.493573333
 30
0.0
 40
12.0
 50
94.763641691
 51
352.234833982
  0
ARC
  8
0
  6
CONTINUOUS
 62
     1
 10
1674.135
 20
623.493573333
 30
0.0
 40
12.0
 50
160.016893478
 51
113.198590514
  0
LINE
  8
0
  6
LTYPE2
 62
     2
 10
1691.635
 20
743.493573333
 30
0.0
 11
1657.635
 21
743.493573333
 31
0.0
  0
LINE
  8
0
  6
LTYPE2
 62
     2
 10
1674.135
 20
761.993573333
 30
0.0
 11
1674.135
 21
725.993573333
 31
0.0
  0
ARC
  8
0
  6
CONTINUOUS
 62
     1
 10
1686.135
 20
755.493573333
 30
0.0
 40
8.0
 50
0.0
 51
90.0
  0
ARC
  8
0
  6
CONTINUOUS
 62
     1
 10
1674.135
 20
743.493573333
 30
0.0
 40
12.0
 50
277.43140797
 51
172.874983651
  0
LINE
  8
0
  6
CONTINUOUS
 62
     2
 10
1017.635
 20
865.193573333
 30
0.0
 11
1021.517285677
 21
879.682460728
 31
0.0
  0
LINE
  8
0
  6
CONTINUOUS
 62
     2
 10
1017.635
 20
865.193573333
 30
0.0
 11
1013.752714323
 21
879.682460728
 31
0.0
  0
LINE
  8
0
  6
CONTINUOUS
 62
     2
 10
1017.635
 20
865.193573333
 30
0.0
 11
1017.635
 21
1015.193573333
 31
0.0
  0
LINE
  8
0
  6
CONTINUOUS
 62
     2
 10
1017.635
 20
1015.193573333
 30
0.0
 11
1013.752714323
 21
1000.704685939
 31
0.0
  0
LINE
  8
0
  6
CONTINUOUS
 62
     2
 10
1017.635
 20
1015.193573333
 30
0.0
 11
1021.517285677
 21
1000.704685939
 31
0.0
  0
LINE
  8
0
  6
CONTINUOUS
 62
     2
 10
1026.135
 20
1015.193573333
 30
0.0
 11
1026.635
 21
1015.193573333
 31
0.0
  0
LINE
  8
0
  6
CONTINUOUS
 62
     2
 10
1670.135
 20
562.493573333
 30
0.0
 11
1831.635
 21
562.493573333
 31
0.0
  0
LINE
  8
0
  6
CONTINUOUS
 62
     2
 10
1495.135
 20
668.493573333
 30
0.0
 11
1399.135
 21
668.493573333
 31
0.0
  0
LINE
  8
0
  6
CONTINUOUS
 62
     2
 10
1408.135
 20
668.493573333
 30
0.0
 11
1404.252714323
 21
654.004685939
 31
0.0
  0
LINE
  8
0
  6
CONTINUOUS
 62
     2
 10
1408.135
 20
668.493573333
 30
0.0
 11
1412.017285677
 21
654.004685939
 31
0.0
  0
LINE
  8
0
  6
CONTINUOUS
 62
     2
 10
1408.135
 20
645.993573333
 30
0.0
 11
1408.135
 21
771.993573333
 31
0.0
  0
LINE
  8
0
  6
CONTINUOUS
 62
     2
 10
1408.135
 20
698.493573333
 30
0.0
 11
1412.017285677
 21
712.982460728
 31
0.0
  0
LINE
  8
0
  6
CONTINUOUS
 62
     2
 10
1408.135
 20
698.493573333
 30
0.0
 11
1404.252714323
 21
712.982460728
 31
0.0
  0
LINE
  8
0
  6
CONTINUOUS
 62
     2
 10
1498.512633636
 20
698.493573333
 30
0.0
 11
1399.135
 21
698.493573333
 31
0.0
  0
LINE
  8
0
  6
CONTINUOUS
 62
     2
 10
1504.135
 20
639.493573333
 30
0.0
 11
1504.135
 21
443.993573333
 31
0.0
  0
LINE
  8
0
  6
CONTINUOUS
 62
     2
 10
1504.135
 20
452.993573333
 30
0.0
 11
1518.623887394
 21
449.111287657
 31
0.0
  0
LINE
  8
0
  6
CONTINUOUS
 62
     2
 10
1504.135
 20
452.993573333
 30
0.0
 11
1518.623887394
 21
456.87585901
 31
0.0
  0
LINE
  8
0
  6
CONTINUOUS
 62
     2
 10
1504.135
 20
452.993573333
 30
0.0
 11
1724.135
 21
452.993573333
 31
0.0
  0
LINE
  8
0
  6
CONTINUOUS
 62
     1
 10
1563.135
 20
578.493573333
 30
0.0
 11
1515.135
 21
578.493573333
 31
0.0
  0
ARC
  8
0
  6
CONTINUOUS
 62
     1
 10
1515.135
 20
584.493573333
 30
0.0
 40
6.0
 50
180.0
 51
270.0
  0
LINE
  8
0
  6
CONTINUOUS
 62
     1
 10
1713.135
 20
578.493573333
 30
0.0
 11
1665.135
 21
578.493573333
 31
0.0
  0
LINE
  8
0
  6
CONTINUOUS
 62
     2
 10
430.035
 20
1026.493573333
 30
0.0
 11
430.035
 21
1142.268573333
 31
0.0
  0
LINE
  8
0
  6
LTYPE2
 62
     2
 10
337.735
 20
598.493573333
 30
0.0
 11
283.735
 21
598.493573333
 31
0.0
  0
LINE
  8
0
  6
CONTINUOUS
 62
     1
 10
304.035
 20
598.493573333
 30
0.0
 11
304.035
 21
584.662585236
 31
0.0
  0
LINE
  8
0
  6
CONTINUOUS
 62
     1
 10
304.035
 20
598.493573333
 30
0.0
 11
304.035
 21
612.324561431
 31
0.0
  0
LINE
  8
0
  6
CONTINUOUS
 62
     1
 10
294.035091387
 20
588.049765994
 30
0.0
 11
295.99068111
 21
584.662585236
 31
0.0
  0
LINE
  8
0
  6
CONTINUOUS
 62
     1
 10
294.035091387
 20
598.493573333
 30
0.0
 11
294.035091387
 21
588.049765994
 31
0.0
  0
LINE
  8
0
  6
CONTINUOUS
 62
     1
 10
294.035091387
 20
608.937380672
 30
0.0
 11
295.99068111
 21
612.324561431
 31
0.0
  0
LINE
  8
0
  6
CONTINUOUS
 62
     1
 10
294.035091387
 20
598.493573333
 30
0.0
 11
294.035091387
 21
608.937380672
 31
0.0
  0
ARC
  8
0
  6
CONTINUOUS
 62
     1
 10
307.240414698
 20
598.493573333
 30
0.0
 40
13.20532331
 50
148.419912243
 51
211.580087757
  0
ARC
  8
0
  6
CONTINUOUS
 62
     1
 10
298.068495191
 20
588.12033226
 30
0.0
 40
4.034021051
 50
121.002313915
 51
182.989498403
  0
LINE
  8
0
  6
CONTINUOUS
 62
     1
 10
294.035091387
 20
608.937380672
 30
0.0
 11
295.99068111
 21
612.324561431
 31
0.0
  0
ARC
  8
0
  6
CONTINUOUS
 62
     1
 10
298.068495191
 20
608.866814407
 30
0.0
 40
4.034021051
 50
177.010501597
 51
238.997686085
  0
LINE
  8
0
  6
CONTINUOUS
 62
     1
 10
304.035
 20
584.662585236
 30
0.0
 11
295.99068111
 21
584.662585236
 31
0.0
  0
LINE
  8
0
  6
CONTINUOUS
 62
     1
 10
304.035
 20
591.578079284
 30
0.0
 11
295.99068111
 21
591.578079284
 31
0.0
  0
LINE
  8
0
  6
CONTINUOUS
 62
     1
 10
304.035
 20
605.409067382
 30
0.0
 11
295.99068111
 21
605.409067382
 31
0.0
  0
LINE
  8
0
  6
CONTINUOUS
 62
     1
 10
304.035
 20
612.324561431
 30
0.0
 11
295.99068111
 21
612.324561431
 31
0.0
  0
LINE
  8
0
  6
CONTINUOUS
 62
     1
 10
430.035
 20
578.493573333
 30
0.0
 11
304.035
 21
578.493573333
 31
0.0
  0
LINE
  8
0
  6
LTYPE2
 62
     2
 10
335.735
 20
768.493573333
 30
0.0
 11
288.735
 21
768.493573333
 31
0.0
  0
LINE
  8
0
  6
CONTINUOUS
 62
     1
 10
304.035
 20
768.493573333
 30
0.0
 11
304.035
 21
754.662585236
 31
0.0
  0
LINE
  8
0
  6
CONTINUOUS
 62
     1
 10
304.035
 20
768.493573333
 30
0.0
 11
304.035
 21
782.324561431
 31
0.0
  0
LINE
  8
0
  6
CONTINUOUS
 62
     1
 10
294.035091387
 20
758.049765994
 30
0.0
 11
295.99068111
 21
754.662585236
 31
0.0
  0
LINE
  8
0
  6
CONTINUOUS
 62
     1
 10
294.035091387
 20
768.493573333
 30
0.0
 11
294.035091387
 21
758.049765994
 31
0.0
  0
LINE
  8
0
  6
CONTINUOUS
 62
     1
 10
294.035091387
 20
778.937380672
 30
0.0
 11
295.99068111
 21
782.324561431
 31
0.0
  0
LINE
  8
0
  6
CONTINUOUS
 62
     1
 10
294.035091387
 20
768.493573333
 30
0.0
 11
294.035091387
 21
778.937380672
 31
0.0
  0
ARC
  8
0
  6
CONTINUOUS
 62
     1
 10
307.240414698
 20
768.493573333
 30
0.0
 40
13.20532331
 50
148.419912243
 51
211.580087757
  0
ARC
  8
0
  6
CONTINUOUS
 62
     1
 10
298.068495191
 20
758.12033226
 30
0.0
 40
4.034021051
 50
121.002313915
 51
182.989498403
  0
LINE
  8
0
  6
CONTINUOUS
 62
     1
 10
294.035091387
 20
778.937380672
 30
0.0
 11
295.99068111
 21
782.324561431
 31
0.0
  0
ARC
  8
0
  6
CONTINUOUS
 62
     1
 10
298.068495191
 20
778.866814407
 30
0.0
 40
4.034021051
 50
177.010501597
 51
238.997686085
  0
LINE
  8
0
  6
CONTINUOUS
 62
     1
 10
304.035
 20
754.662585236
 30
0.0
 11
295.99068111
 21
754.662585236
 31
0.0
  0
LINE
  8
0
  6
CONTINUOUS
 62
     1
 10
304.035
 20
761.578079284
 30
0.0
 11
295.99068111
 21
761.578079284
 31
0.0
  0
LINE
  8
0
  6
CONTINUOUS
 62
     1
 10
304.035
 20
775.409067382
 30
0.0
 11
295.99068111
 21
775.409067382
 31
0.0
  0
LINE
  8
0
  6
CONTINUOUS
 62
     1
 10
304.035
 20
782.324561431
 30
0.0
 11
295.99068111
 21
782.324561431
 31
0.0
  0
LINE
  8
0
  6
CONTINUOUS
 62
     1
 10
430.035
 20
578.493573333
 30
0.0
 11
430.035
 21
1017.493573333
 31
0.0
  0
LINE
  8
0
  6
CONTINUOUS
 62
     2
 10
1509.135
 20
575.493573333
 30
0.0
 11
1509.135
 21
480.093573333
 31
0.0
  0
LINE
  8
0
  6
CONTINUOUS
 62
     2
 10
1509.135
 20
489.093573333
 30
0.0
 11
1523.623887394
 21
485.211287657
 31
0.0
  0
LINE
  8
0
  6
CONTINUOUS
 62
     2
 10
1509.135
 20
489.093573333
 30
0.0
 11
1523.623887394
 21
492.97585901
 31
0.0
  0
LINE
  8
0
  6
CONTINUOUS
 62
     2
 10
1509.135
 20
489.093573333
 30
0.0
 11
1719.135
 21
489.093573333
 31
0.0
  0
LINE
  8
0
  6
CONTINUOUS
 62
     1
 10
430.035
 20
765.643573333
 30
0.0
 11
430.035
 21
1017.493573333
 31
0.0
  0
LINE
  8
0
  6
CONTINUOUS
 62
     1
 10
430.035
 20
767.493573333
 30
0.0
 11
430.035
 21
1017.493573333
 31
0.0
  0
LINE
  8
0
  6
CONTINUOUS
 62
     1
 10
430.035
 20
767.493573333
 30
0.0
 11
441.035
 21
767.493573333
 31
0.0
  0
LINE
  8
0
  6
CONTINUOUS
 62
     2
 10
430.035
 20
1133.268573333
 30
0.0
 11
444.523887394
 21
1129.386287657
 31
0.0
  0
LINE
  8
0
  6
CONTINUOUS
 62
     2
 10
430.035
 20
1133.268573333
 30
0.0
 11
444.523887394
 21
1137.15085901
 31
0.0
  0
LINE
  8
0
  6
LTYPE4
 62
     2
 10
1478.635
 20
892.493573333
 30
0.0
 11
1752.135
 21
892.493573333
 31
0.0
  0
ARC
  8
0
  6
CONTINUOUS
 62
     1
 10
1614.135
 20
892.493573333
 30
0.0
 40
125.0
 50
280.557968545
 51
0.0
  0
LINE
  8
0
  6
LTYPE2
 62
     2
 10
869.035
 20
892.493573333
 30
0.0
 11
274.535
 21
892.493573333
 31
0.0
  0
LINE
  8
0
  6
CONTINUOUS
 62
     1
 10
819.535
 20
883.793573333
 30
0.0
 11
825.435
 21
883.793573333
 31
0.0
  0
LINE
  8
0
  6
CONTINUOUS
 62
     1
 10
819.535
 20
901.193573333
 30
0.0
 11
825.435
 21
901.193573333
 31
0.0
  0
LINE
  8
0
  6
CONTINUOUS
 62
     1
 10
833.035
 20
882.493573333
 30
0.0
 11
833.035
 21
892.393573333
 31
0.0
  0
LINE
  8
0
  6
CONTINUOUS
 62
     1
 10
826.435
 20
882.493573333
 30
0.0
 11
833.035
 21
882.493573333
 31
0.0
  0
LINE
  8
0
  6
CONTINUOUS
 62
     1
 10
826.435
 20
887.493573333
 30
0.0
 11
833.035
 21
887.493573333
 31
0.0
  0
LINE
  8
0
  6
CONTINUOUS
 62
     1
 10
833.035
 20
902.493573333
 30
0.0
 11
833.035
 21
892.593573333
 31
0.0
  0
LINE
  8
0
  6
CONTINUOUS
 62
     1
 10
826.435
 20
902.493573333
 30
0.0
 11
833.035
 21
902.493573333
 31
0.0
  0
LINE
  8
0
  6
CONTINUOUS
 62
     1
 10
826.435
 20
897.493573333
 30
0.0
 11
833.035
 21
897.493573333
 31
0.0
  0
LINE
  8
0
  6
CONTINUOUS
 62
     2
 10
835.035
 20
862.393573333
 30
0.0
 11
835.035
 21
1142.268573333
 31
0.0
  0
LINE
  8
0
  6
CONTINUOUS
 62
     2
 10
835.035
 20
1133.268573333
 30
0.0
 11
820.546112606
 21
1137.15085901
 31
0.0
  0
LINE
  8
0
  6
CONTINUOUS
 62
     2
 10
835.035
 20
1133.268573333
 30
0.0
 11
820.546112606
 21
1129.386287657
 31
0.0
  0
LINE
  8
0
  6
CONTINUOUS
 62
     2
 10
430.035
 20
1133.268573333
 30
0.0
 11
835.035
 21
1133.268573333
 31
0.0
  0
LINE
  8
0
  6
LTYPE3
 62
     2
 10
627.535
 20
974.336640669
 30
0.0
 11
627.535
 21
1014.636640669
 31
0.0
  0
LINE
  8
0
  6
CONTINUOUS
 62
     1
 10
717.535
 20
1022.493573333
 30
0.0
 11
717.535
 21
1062.493573333
 31
0.0
  0
LINE
  8
0
  6
CONTINUOUS
 62
     1
 10
717.535
 20
1062.493573333
 30
0.0
 11
691.835
 21
1062.493573333
 31
0.0
  0
LINE
  8
0
  6
CONTINUOUS
 62
     1
 10
717.535
 20
1022.493573333
 30
0.0
 11
691.835
 21
1022.493573333
 31
0.0
  0
ARC
  8
0
  6
CONTINUOUS
 62
     1
 10
685.835
 20
1017.193573333
 30
0.0
 40
6.0
 50
270.0
 51
0.0
  0
LINE
  8
0
  6
LTYPE3
 62
     2
 10
721.791580424
 20
1042.493573333
 30
0.0
 11
682.291580424
 21
1042.493573333
 31
0.0
  0
LINE
  8
0
  6
CONTINUOUS
 62
     2
 10
717.535
 20
1042.493573333
 30
0.0
 11
729.958015724
 21
1050.900039911
 31
0.0
  0
LINE
  8
0
  6
CONTINUOUS
 62
     2
 10
717.535
 20
1042.493573333
 30
0.0
 11
724.09041392
 21
1055.985294807
 31
0.0
  0
LINE
  8
0
  6
CONTINUOUS
 62
     2
 10
717.535
 20
1042.493573333
 30
0.0
 11
750.035
 21
1079.993573333
 31
0.0
  0
ARC
  8
0
  6
CONTINUOUS
 62
     1
 10
572.354480257
 20
1017.193573333
 30
0.0
 40
6.0
 50
190.033164511
 51
270.0
  0
LINE
  8
0
  6
CONTINUOUS
 62
     1
 10
430.035
 20
1017.493573333
 30
0.0
 11
446.035
 21
1017.493573333
 31
0.0
  0
LINE
  8
0
  6
CONTINUOUS
 62
     1
 10
446.035
 20
767.493573333
 30
0.0
 11
446.035
 21
1017.493573333
 31
0.0
  0
LINE
  8
0
  6
CONTINUOUS
 62
     1
 10
430.035
 20
767.493573333
 30
0.0
 11
446.035
 21
767.493573333
 31
0.0
  0
LINE
  8
0
  6
CONTINUOUS
 62
     1
 10
496.035
 20
787.493573333
 30
0.0
 11
496.035
 21
997.493573333
 31
0.0
  0
LINE
  8
0
  6
CONTINUOUS
 62
     1
 10
496.035
 20
787.493573333
 30
0.0
 11
446.035
 21
787.493573333
 31
0.0
  0
LINE
  8
0
  6
CONTINUOUS
 62
     1
 10
496.035
 20
997.493573333
 30
0.0
 11
446.035
 21
997.493573333
 31
0.0
  0
ARC
  8
0
  6
CONTINUOUS
 62
     1
 10
792.755549228
 20
977.493573333
 30
0.0
 40
20.0
 50
9.12031501
 51
90.0
  0
ARC
  8
0
  6
CONTINUOUS
 62
     1
 10
792.755549228
 20
807.493573333
 30
0.0
 40
20.0
 50
270.0
 51
350.87968499
  0
ARC
  8
0
  6
CONTINUOUS
 62
     1
 10
263.285
 20
892.493573333
 30
0.0
 40
556.25
 50
350.879686542
 51
9.120316562
  0
LINE
  8
0
  6
CONTINUOUS
 62
     1
 10
663.035
 20
997.493573333
 30
0.0
 11
663.035
 21
787.493573333
 31
0.0
  0
LINE
  8
0
  6
CONTINUOUS
 62
     1
 10
713.035
 20
997.493573333
 30
0.0
 11
713.035
 21
787.493573333
 31
0.0
  0
LINE
  8
0
  6
CONTINUOUS
 62
     1
 10
496.035
 20
992.493573333
 30
0.0
 11
663.035
 21
992.493573333
 31
0.0
  0
LINE
  8
0
  6
CONTINUOUS
 62
     1
 10
496.035
 20
987.493573333
 30
0.0
 11
663.035
 21
987.493573333
 31
0.0
  0
LINE
  8
0
  6
CONTINUOUS
 62
     1
 10
496.035
 20
972.493573333
 30
0.0
 11
663.035
 21
972.493573333
 31
0.0
  0
LINE
  8
0
  6
CONTINUOUS
 62
     1
 10
496.035
 20
957.493573333
 30
0.0
 11
663.035
 21
957.493573333
 31
0.0
  0
LINE
  8
0
  6
CONTINUOUS
 62
     1
 10
792.755560018
 20
997.493573333
 30
0.0
 11
663.035
 21
997.493573333
 31
0.0
  0
LINE
  8
0
  6
CONTINUOUS
 62
     1
 10
496.035
 20
942.493573333
 30
0.0
 11
663.035
 21
942.493573333
 31
0.0
  0
LINE
  8
0
  6
CONTINUOUS
 62
     1
 10
496.035
 20
927.493573333
 30
0.0
 11
663.035
 21
927.493573333
 31
0.0
  0
LINE
  8
0
  6
CONTINUOUS
 62
     1
 10
496.035
 20
912.493573333
 30
0.0
 11
663.035
 21
912.493573333
 31
0.0
  0
LINE
  8
0
  6
CONTINUOUS
 62
     1
 10
496.035
 20
897.493573333
 30
0.0
 11
663.035
 21
897.493573333
 31
0.0
  0
LINE
  8
0
  6
CONTINUOUS
 62
     1
 10
496.035
 20
882.493573333
 30
0.0
 11
663.035
 21
882.493573333
 31
0.0
  0
LINE
  8
0
  6
CONTINUOUS
 62
     1
 10
496.035
 20
867.493573333
 30
0.0
 11
663.035
 21
867.493573333
 31
0.0
  0
LINE
  8
0
  6
CONTINUOUS
 62
     1
 10
496.035
 20
852.493573333
 30
0.0
 11
663.035
 21
852.493573333
 31
0.0
  0
LINE
  8
0
  6
CONTINUOUS
 62
     1
 10
496.035
 20
837.493573333
 30
0.0
 11
663.035
 21
837.493573333
 31
0.0
  0
LINE
  8
0
  6
CONTINUOUS
 62
     1
 10
496.035
 20
822.493573333
 30
0.0
 11
663.035
 21
822.493573333
 31
0.0
  0
LINE
  8
0
  6
CONTINUOUS
 62
     1
 10
496.035
 20
807.493573333
 30
0.0
 11
663.035
 21
807.493573333
 31
0.0
  0
LINE
  8
0
  6
CONTINUOUS
 62
     1
 10
496.035
 20
792.493573333
 30
0.0
 11
663.035
 21
792.493573333
 31
0.0
  0
LINE
  8
0
  6
CONTINUOUS
 62
     1
 10
792.755560018
 20
787.493573333
 30
0.0
 11
663.035
 21
787.493573333
 31
0.0
  0
LINE
  8
0
  6
CONTINUOUS
 62
     1
 10
686.196039485
 20
1011.193573333
 30
0.0
 11
572.354480257
 21
1011.193573333
 31
0.0
  0
ARC
  8
0
  6
CONTINUOUS
 62
     1
 10
572.354480257
 20
1079.493573333
 30
0.0
 40
6.0
 50
90.0
 51
180.0
  0
LINE
  8
0
  6
CONTINUOUS
 62
     1
 10
690.643952959
 20
1085.493573333
 30
0.0
 11
572.354480257
 21
1085.493573333
 31
0.0
  0
LINE
  8
0
  6
CONTINUOUS
 62
     1
 10
691.835
 20
1017.193573333
 30
0.0
 11
691.835
 21
1076.866563375
 31
0.0
  0
LINE
  8
0
  6
CONTINUOUS
 62
     1
 10
647.535
 20
992.493573333
 30
0.0
 11
647.535
 21
1011.193573333
 31
0.0
  0
LINE
  8
0
  6
CONTINUOUS
 62
     1
 10
607.535
 20
992.493573333
 30
0.0
 11
607.535
 21
1011.193573333
 31
0.0
  0
LINE
  8
0
  6
CONTINUOUS
 62
     1
 10
701.912020398
 20
1084.992397689
 30
0.0
 11
699.735
 21
1089.493573333
 31
0.0
  0
LINE
  8
0
  6
CONTINUOUS
 62
     1
 10
699.735
 20
1089.493573333
 30
0.0
 11
554.336684551
 21
1019.170812433
 31
0.0
  0
LINE
  8
0
  6
CONTINUOUS
 62
     1
 10
701.912020398
 20
1084.992397689
 30
0.0
 11
556.51370495
 21
1014.669636789
 31
0.0
  0
LINE
  8
0
  6
CONTINUOUS
 62
     1
 10
554.336684551
 20
1019.170812433
 30
0.0
 11
556.51370495
 21
1014.669636789
 31
0.0
  0
LINE
  8
0
  6
CONTINUOUS
 62
     1
 10
566.354480257
 20
1026.169636789
 30
0.0
 11
566.354480257
 21
1079.493573333
 31
0.0
  0
LINE
  8
0
  6
CONTINUOUS
 62
     1
 10
567.01370495
 20
1019.169636789
 30
0.0
 11
567.01370495
 21
1016.169636789
 31
0.0
  0
ARC
  8
0
  6
CONTINUOUS
 62
     1
 10
1651.135
 20
1076.199265851
 30
0.0
 40
3.0
 50
0.0
 51
90.0
  0
ARC
  8
0
  6
CONTINUOUS
 62
     1
 10
1658.135
 20
1079.199265851
 30
0.0
 40
6.0
 50
0.0
 51
90.0
  0
ARC
  8
0
  6
CONTINUOUS
 62
     1
 10
1658.135
 20
1083.493573333
 30
0.0
 40
6.0
 50
0.0
 51
90.0
  0
LINE
  8
0
  6
CONTINUOUS
 62
     1
 10
1658.135
 20
1089.493573333
 30
0.0
 11
1614.135
 21
1089.493573333
 31
0.0
  0
LINE
  8
0
  6
CONTINUOUS
 62
     1
 10
1614.135
 20
1085.199265851
 30
0.0
 11
1658.135
 21
1085.199265851
 31
0.0
  0
LINE
  8
0
  6
CONTINUOUS
 62
     1
 10
1614.135
 20
1079.199265851
 30
0.0
 11
1651.135
 21
1079.199265851
 31
0.0
  0
ARC
  8
0
  6
CONTINUOUS
 62
     1
 10
1577.135
 20
1076.199265851
 30
0.0
 40
3.0
 50
90.0
 51
180.0
  0
ARC
  8
0
  6
CONTINUOUS
 62
     1
 10
1570.135
 20
1079.199265851
 30
0.0
 40
6.0
 50
90.0
 51
180.0
  0
ARC
  8
0
  6
CONTINUOUS
 62
     1
 10
1570.135
 20
1083.493573333
 30
0.0
 40
6.0
 50
90.0
 51
180.0
  0
LINE
  8
0
  6
CONTINUOUS
 62
     1
 10
1570.135
 20
1089.493573333
 30
0.0
 11
1614.135
 21
1089.493573333
 31
0.0
  0
LINE
  8
0
  6
CONTINUOUS
 62
     1
 10
1614.135
 20
1085.199265851
 30
0.0
 11
1570.135
 21
1085.199265851
 31
0.0
  0
LINE
  8
0
  6
CONTINUOUS
 62
     1
 10
1614.135
 20
1079.199265851
 30
0.0
 11
1577.135
 21
1079.199265851
 31
0.0
  0
CIRCLE
  8
0
  6
CONTINUOUS
 62
     1
 10
1614.135
 20
892.493573333
 30
0.0
 40
20.0
  0
ARC
  8
0
  6
CONTINUOUS
 62
     1
 10
1529.135
 20
892.493573333
 30
0.0
 40
20.0
 50
90.0
 51
270.0
  0
ARC
  8
0
  6
CONTINUOUS
 62
     1
 10
1656.635
 20
818.881414012
 30
0.0
 40
20.0
 50
210.0
 51
30.0
  0
ARC
  8
0
  6
CONTINUOUS
 62
     1
 10
1656.635
 20
966.105732655
 30
0.0
 40
20.0
 50
330.0
 51
150.0
  0
LINE
  8
0
  6
CONTINUOUS
 62
     1
 10
1529.135
 20
912.493573333
 30
0.0
 11
1602.587994616
 21
912.493573333
 31
0.0
  0
LINE
  8
0
  6
CONTINUOUS
 62
     1
 10
1639.314491924
 20
976.105732655
 30
0.0
 11
1602.587994616
 21
912.493573333
 31
0.0
  0
LINE
  8
0
  6
CONTINUOUS
 62
     1
 10
1529.135
 20
872.493573333
 30
0.0
 11
1602.587994616
 21
872.493573333
 31
0.0
  0
LINE
  8
0
  6
CONTINUOUS
 62
     1
 10
1639.314491924
 20
808.881414012
 30
0.0
 11
1602.587994616
 21
872.493573333
 31
0.0
  0
CIRCLE
  8
0
  6
CONTINUOUS
 62
     1
 10
1674.135
 20
892.493573333
 30
0.0
 40
10.0
  0
LINE
  8
0
  6
CONTINUOUS
 62
     2
 10
1674.135
 20
907.493573333
 30
0.0
 11
1674.135
 21
877.493573333
 31
0.0
  0
LINE
  8
0
  6
CONTINUOUS
 62
     1
 10
819.535
 20
853.793573333
 30
0.0
 11
825.435
 21
853.793573333
 31
0.0
  0
LINE
  8
0
  6
CONTINUOUS
 62
     1
 10
819.535
 20
849.993573333
 30
0.0
 11
825.435
 21
849.993573333
 31
0.0
  0
LINE
  8
0
  6
CONTINUOUS
 62
     1
 10
834.935
 20
861.893573333
 30
0.0
 11
834.935
 21
841.893573333
 31
0.0
  0
LINE
  8
0
  6
CONTINUOUS
 62
     1
 10
829.935
 20
841.893573333
 30
0.0
 11
834.935
 21
841.893573333
 31
0.0
  0
LINE
  8
0
  6
CONTINUOUS
 62
     1
 10
829.935
 20
861.893573333
 30
0.0
 11
834.935
 21
861.893573333
 31
0.0
  0
LINE
  8
0
  6
CONTINUOUS
 62
     1
 10
825.435
 20
912.493573333
 30
0.0
 11
829.935
 21
912.493573333
 31
0.0
  0
LINE
  8
0
  6
CONTINUOUS
 62
     1
 10
829.935
 20
841.893573333
 30
0.0
 11
829.935
 21
912.493573333
 31
0.0
  0
LINE
  8
0
  6
LTYPE3
 62
     2
 10
811.435
 20
851.893573333
 30
0.0
 11
841.735
 21
851.893573333
 31
0.0
  0
LINE
  8
0
  6
CONTINUOUS
 62
     1
 10
825.435
 20
912.493573333
 30
0.0
 11
825.435
 21
846.893573333
 31
0.0
  0
LINE
  8
0
  6
CONTINUOUS
 62
     1
 10
829.935
 20
846.893573333
 30
0.0
 11
825.435
 21
846.893573333
 31
0.0
  0
LINE
  8
0
  6
CONTINUOUS
 62
     1
 10
823.435
 20
858.893573333
 30
0.0
 11
823.435
 21
843.893573333
 31
0.0
  0
LINE
  8
0
  6
CONTINUOUS
 62
     1
 10
820.935
 20
858.393573333
 30
0.0
 11
820.935
 21
843.893573333
 31
0.0
  0
LINE
  8
0
  6
CONTINUOUS
 62
     1
 10
1617.468333333
 20
872.77330739
 30
0.0
 11
1675.801666667
 21
882.633440361
 31
0.0
  0
LINE
  8
0
  6
CONTINUOUS
 62
     1
 10
1617.468333333
 20
912.213839277
 30
0.0
 11
1675.801666667
 21
902.353706305
 31
0.0
  0
LINE
  8
0
  6
CONTINUOUS
 62
     1
 10
1673.955508076
 20
956.105732655
 30
0.0
 11
1645.845211838
 21
907.417271356
 31
0.0
  0
LINE
  8
0
  6
CONTINUOUS
 62
     1
 10
1673.955508076
 20
828.881414012
 30
0.0
 11
1645.845211838
 21
877.569875311
 31
0.0
  0
ARC
  8
0
  6
CONTINUOUS
 62
     1
 10
1690.148978978
 20
968.507552311
 30
0.0
 40
7.75
 50
294.214141675
 51
155.785858325
  0
LINE
  8
0
  6
CONTINUOUS
 62
     2
 10
1684.135
 20
962.493573333
 30
0.0
 11
1697.080832412
 21
975.439405745
 31
0.0
  0
ARC
  8
0
  6
CONTINUOUS
 62
     2
 10
1614.135
 20
892.493573333
 30
0.0
 40
107.5
 50
38.280925788
 51
51.325228591
  0
ARC
  8
0
  6
CONTINUOUS
 62
     1
 10
1690.148978978
 20
816.479594356
 30
0.0
 40
7.75
 50
204.214141675
 51
65.785858325
  0
LINE
  8
0
  6
CONTINUOUS
 62
     2
 10
1684.135
 20
822.493573333
 30
0.0
 11
1697.080832412
 21
809.547740921
 31
0.0
  0
ARC
  8
0
  6
CONTINUOUS
 62
     2
 10
1614.135
 20
892.493573333
 30
0.0
 40
107.5
 50
308.674771409
 51
321.719074212
  0
ARC
  8
0
  6
CONTINUOUS
 62
     1
 10
1538.121021022
 20
968.507552311
 30
0.0
 40
7.75
 50
24.214141675
 51
245.785858325
  0
LINE
  8
0
  6
CONTINUOUS
 62
     2
 10
1544.135
 20
962.493573333
 30
0.0
 11
1531.189167588
 21
975.439405745
 31
0.0
  0
ARC
  8
0
  6
CONTINUOUS
 62
     2
 10
1614.135
 20
892.493573333
 30
0.0
 40
107.5
 50
128.674771409
 51
141.719074212
  0
LINE
  8
0
  6
CONTINUOUS
 62
     2
 10
1544.135
 20
822.493573333
 30
0.0
 11
1531.189167588
 21
809.547740921
 31
0.0
  0
ARC
  8
0
  6
CONTINUOUS
 62
     2
 10
1614.135
 20
892.493573333
 30
0.0
 40
107.5
 50
218.280925788
 51
231.325228591
  0
ARC
  8
0
  6
CONTINUOUS
 62
     1
 10
1614.135
 20
892.493573333
 30
0.0
 40
105.0
 50
272.980462591
 51
0.0
  0
ARC
  8
0
  6
CONTINUOUS
 62
     1
 10
1614.135
 20
892.493573333
 30
0.0
 40
105.0
 50
0.0
 51
226.520053773
  0
ARC
  8
0
  6
CONTINUOUS
 62
     1
 10
1651.135
 20
1014.193573333
 30
0.0
 40
3.0
 50
270.0
 51
0.0
  0
ARC
  8
0
  6
CONTINUOUS
 62
     1
 10
1658.135
 20
1020.193573333
 30
0.0
 40
6.0
 50
270.0
 51
0.0
  0
LINE
  8
0
  6
CONTINUOUS
 62
     1
 10
1654.135
 20
1014.193573333
 30
0.0
 11
1658.135
 21
1014.193573333
 31
0.0
  0
LINE
  8
0
  6
CONTINUOUS
 62
     1
 10
1614.135
 20
1011.193573333
 30
0.0
 11
1651.135
 21
1011.193573333
 31
0.0
  0
ARC
  8
0
  6
CONTINUOUS
 62
     1
 10
1577.135
 20
1014.193573333
 30
0.0
 40
3.0
 50
180.0
 51
270.0
  0
ARC
  8
0
  6
CONTINUOUS
 62
     1
 10
1570.135
 20
1020.193573333
 30
0.0
 40
6.0
 50
180.0
 51
270.0
  0
LINE
  8
0
  6
CONTINUOUS
 62
     1
 10
1574.135
 20
1014.193573333
 30
0.0
 11
1570.135
 21
1014.193573333
 31
0.0
  0
LINE
  8
0
  6
CONTINUOUS
 62
     1
 10
1614.135
 20
1011.193573333
 30
0.0
 11
1577.135
 21
1011.193573333
 31
0.0
  0
LINE
  8
0
  6
CONTINUOUS
 62
     1
 10
1634.135
 20
995.571213974
 30
0.0
 11
1634.135
 21
1011.193573333
 31
0.0
  0
LINE
  8
0
  6
CONTINUOUS
 62
     1
 10
1594.135
 20
995.571213974
 30
0.0
 11
1594.135
 21
1011.193573333
 31
0.0
  0
ARC
  8
0
  6
CONTINUOUS
 62
     1
 10
1614.135
 20
892.493573333
 30
0.0
 40
125.0
 50
0.0
 51
69.402826706
  0
LINE
  8
0
  6
CONTINUOUS
 62
     1
 10
1664.135
 20
1020.193573333
 30
0.0
 11
1664.135
 21
1083.493573333
 31
0.0
  0
LINE
  8
0
  6
CONTINUOUS
 62
     1
 10
1654.135
 20
1014.693573333
 30
0.0
 11
1654.135
 21
1076.199265851
 31
0.0
  0
LINE
  8
0
  6
CONTINUOUS
 62
     1
 10
1574.135
 20
1014.693573333
 30
0.0
 11
1574.135
 21
1076.199265851
 31
0.0
  0
LINE
  8
0
  6
CONTINUOUS
 62
     1
 10
1564.135
 20
1020.693573333
 30
0.0
 11
1564.135
 21
1083.493573333
 31
0.0
  0
CIRCLE
  8
0
  6
CONTINUOUS
 62
     1
 10
1614.135
 20
1042.493573333
 30
0.0
 40
20.0
  0
CIRCLE
  8
0
  6
CONTINUOUS
 62
     2
 10
1614.135
 20
1042.493573333
 30
0.0
 40
13.5
  0
CIRCLE
  8
0
  6
CONTINUOUS
 62
     2
 10
1614.135
 20
1042.493573333
 30
0.0
 40
15.0
  0
LINE
  8
0
  6
LTYPE3
 62
     2
 10
1583.635
 20
1042.493573333
 30
0.0
 11
1643.135
 21
1042.493573333
 31
0.0
  0
LINE
  8
0
  6
LTYPE4
 62
     2
 10
1614.135
 20
753.993573333
 30
0.0
 11
1614.135
 21
1103.993573333
 31
0.0
  0
LINE
  8
0
  6
CONTINUOUS
 62
     2
 10
750.035
 20
1079.993573333
 30
0.0
 11
817.035
 21
1079.993573333
 31
0.0
  0
LINE
  8
0
  6
CONTINUOUS
 62
     2
 10
1667.135
 20
1089.493573333
 30
0.0
 11
1828.935
 21
1089.493573333
 31
0.0
  0
CIRCLE
  8
0
  6
CONTINUOUS
 62
     1
 10
1614.135
 20
907.493573333
 30
0.0
 40
4.0
  0
CIRCLE
  8
0
  6
CONTINUOUS
 62
     1
 10
1614.135
 20
892.493573333
 30
0.0
 40
4.0
  0
CIRCLE
  8
0
  6
CONTINUOUS
 62
     1
 10
1599.135
 20
892.493573333
 30
0.0
 40
4.0
  0
CIRCLE
  8
0
  6
CONTINUOUS
 62
     1
 10
1614.135
 20
877.493573333
 30
0.0
 40
4.0
  0
CIRCLE
  8
0
  6
CONTINUOUS
 62
     1
 10
1629.135
 20
892.493573333
 30
0.0
 40
4.0
  0
ARC
  8
0
  6
CONTINUOUS
 62
     1
 10
1057.979743763
 20
1014.193573333
 30
0.0
 40
1.0
 50
90.0
 51
165.0
  0
LINE
  8
0
  6
CONTINUOUS
 62
     1
 10
1053.391777727
 20
1000.934754288
 30
0.0
 11
1057.013817937
 21
1014.452392378
 31
0.0
  0
ARC
  8
0
  6
CONTINUOUS
 62
     1
 10
1052.425851901
 20
1001.193573333
 30
0.0
 40
1.0
 50
270.0
 51
345.0
  0
LINE
  8
0
  6
CONTINUOUS
 62
     1
 10
1082.135
 20
980.693573333
 30
0.0
 11
1092.135
 21
980.693573333
 31
0.0
  0
LINE
  8
0
  6
CONTINUOUS
 62
     1
 10
1092.079743763
 20
978.693573333
 30
0.0
 11
1094.635
 21
978.693573333
 31
0.0
  0
LINE
  8
0
  6
CONTINUOUS
 62
     1
 10
1079.635
 20
978.693573333
 30
0.0
 11
1082.079743763
 21
978.693573333
 31
0.0
  0
LINE
  8
0
  6
CONTINUOUS
 62
     1
 10
1092.135
 20
980.693573333
 30
0.0
 11
1092.135
 21
940.193573333
 31
0.0
  0
LINE
  8
0
  6
CONTINUOUS
 62
     1
 10
1079.635
 20
978.693573333
 30
0.0
 11
1079.635
 21
940.193573333
 31
0.0
  0
LINE
  8
0
  6
CONTINUOUS
 62
     1
 10
1082.135
 20
980.693573333
 30
0.0
 11
1082.135
 21
940.193573333
 31
0.0
  0
LINE
  8
0
  6
CONTINUOUS
 62
     1
 10
1079.635
 20
978.693573333
 30
0.0
 11
1070.053453315
 21
1014.452392378
 31
0.0
  0
ARC
  8
0
  6
CONTINUOUS
 62
     1
 10
1069.087527488
 20
1014.193573333
 30
0.0
 40
1.0
 50
15.0
 51
90.0
  0
ARC
  8
0
  6
CONTINUOUS
 62
     1
 10
1069.087527488
 20
1014.193573333
 30
0.0
 40
1.0
 50
90.0
 51
165.0
  0
LINE
  8
0
  6
CONTINUOUS
 62
     1
 10
1064.499561452
 20
1000.934754288
 30
0.0
 11
1068.121601662
 21
1014.452392378
 31
0.0
  0
ARC
  8
0
  6
CONTINUOUS
 62
     1
 10
1063.533635626
 20
1001.193573333
 30
0.0
 40
1.0
 50
270.0
 51
345.0
  0
ARC
  8
0
  6
CONTINUOUS
 62
     1
 10
1063.533635626
 20
1001.193573333
 30
0.0
 40
1.0
 50
195.0
 51
270.0
  0
LINE
  8
0
  6
CONTINUOUS
 62
     1
 10
1062.5677098
 20
1000.934754288
 30
0.0
 11
1058.94566959
 21
1014.452392378
 31
0.0
  0
ARC
  8
0
  6
CONTINUOUS
 62
     1
 10
1057.979743763
 20
1014.193573333
 30
0.0
 40
1.0
 50
15.0
 51
90.0
  0
LINE
  8
0
  6
CONTINUOUS
 62
     1
 10
1052.425851901
 20
1000.193573333
 30
0.0
 11
1052.425851901
 21
940.193573333
 31
0.0
  0
LINE
  8
0
  6
CONTINUOUS
 62
     1
 10
1057.979743763
 20
1015.193573333
 30
0.0
 11
1057.979743763
 21
940.193573333
 31
0.0
  0
LINE
  8
0
  6
CONTINUOUS
 62
     1
 10
1069.087527488
 20
1015.193573333
 30
0.0
 11
1069.087527488
 21
940.193573333
 31
0.0
  0
LINE
  8
0
  6
CONTINUOUS
 62
     1
 10
1063.533635626
 20
1000.193573333
 30
0.0
 11
1063.533635626
 21
940.193573333
 31
0.0
  0
ARC
  8
0
  6
CONTINUOUS
 62
     1
 10
1057.979743763
 20
866.193573333
 30
0.0
 40
1.0
 50
195.0
 51
270.0
  0
LINE
  8
0
  6
CONTINUOUS
 62
     1
 10
1053.391777727
 20
879.452392378
 30
0.0
 11
1057.013817937
 21
865.934754288
 31
0.0
  0
ARC
  8
0
  6
CONTINUOUS
 62
     1
 10
1052.425851901
 20
879.193573333
 30
0.0
 40
1.0
 50
15.0
 51
90.0
  0
LINE
  8
0
  6
CONTINUOUS
 62
     1
 10
1082.135
 20
899.693573333
 30
0.0
 11
1092.135
 21
899.693573333
 31
0.0
  0
LINE
  8
0
  6
CONTINUOUS
 62
     1
 10
1092.079743763
 20
901.693573333
 30
0.0
 11
1094.635
 21
901.693573333
 31
0.0
  0
LINE
  8
0
  6
CONTINUOUS
 62
     1
 10
1079.635
 20
901.693573333
 30
0.0
 11
1082.079743763
 21
901.693573333
 31
0.0
  0
LINE
  8
0
  6
CONTINUOUS
 62
     1
 10
1092.135
 20
899.693573333
 30
0.0
 11
1092.135
 21
940.193573333
 31
0.0
  0
LINE
  8
0
  6
CONTINUOUS
 62
     1
 10
1079.635
 20
901.693573333
 30
0.0
 11
1079.635
 21
940.193573333
 31
0.0
  0
LINE
  8
0
  6
CONTINUOUS
 62
     1
 10
1082.135
 20
899.693573333
 30
0.0
 11
1082.135
 21
940.193573333
 31
0.0
  0
LINE
  8
0
  6
CONTINUOUS
 62
     1
 10
1079.635
 20
901.693573333
 30
0.0
 11
1070.053453315
 21
865.934754288
 31
0.0
  0
ARC
  8
0
  6
CONTINUOUS
 62
     1
 10
1069.087527488
 20
866.193573333
 30
0.0
 40
1.0
 50
270.0
 51
345.0
  0
ARC
  8
0
  6
CONTINUOUS
 62
     1
 10
1069.087527488
 20
866.193573333
 30
0.0
 40
1.0
 50
195.0
 51
270.0
  0
LINE
  8
0
  6
CONTINUOUS
 62
     1
 10
1064.499561452
 20
879.452392378
 30
0.0
 11
1068.121601662
 21
865.934754288
 31
0.0
  0
ARC
  8
0
  6
CONTINUOUS
 62
     1
 10
1063.533635626
 20
879.193573333
 30
0.0
 40
1.0
 50
15.0
 51
90.0
  0
ARC
  8
0
  6
CONTINUOUS
 62
     1
 10
1063.533635626
 20
879.193573333
 30
0.0
 40
1.0
 50
90.0
 51
165.0
  0
LINE
  8
0
  6
CONTINUOUS
 62
     1
 10
1062.5677098
 20
879.452392378
 30
0.0
 11
1058.94566959
 21
865.934754288
 31
0.0
  0
ARC
  8
0
  6
CONTINUOUS
 62
     1
 10
1057.979743763
 20
866.193573333
 30
0.0
 40
1.0
 50
270.0
 51
345.0
  0
LINE
  8
0
  6
CONTINUOUS
 62
     1
 10
1052.425851901
 20
880.193573333
 30
0.0
 11
1052.425851901
 21
940.193573333
 31
0.0
  0
LINE
  8
0
  6
CONTINUOUS
 62
     1
 10
1057.979743763
 20
865.193573333
 30
0.0
 11
1057.979743763
 21
940.193573333
 31
0.0
  0
LINE
  8
0
  6
CONTINUOUS
 62
     1
 10
1069.087527488
 20
865.193573333
 30
0.0
 11
1069.087527488
 21
940.193573333
 31
0.0
  0
LINE
  8
0
  6
CONTINUOUS
 62
     1
 10
1063.533635626
 20
880.193573333
 30
0.0
 11
1063.533635626
 21
940.193573333
 31
0.0
  0
LINE
  8
0
  6
LTYPE2
 62
     2
 10
1033.135
 20
940.193573333
 30
0.0
 11
1210.635
 21
940.193573333
 31
0.0
  0
LINE
  8
0
  6
CONTINUOUS
 62
     1
 10
1094.635
 20
980.193573333
 30
0.0
 11
1199.635
 21
980.193573333
 31
0.0
  0
LINE
  8
0
  6
CONTINUOUS
 62
     1
 10
1094.635
 20
980.193573333
 30
0.0
 11
1094.635
 21
900.193573333
 31
0.0
  0
LINE
  8
0
  6
CONTINUOUS
 62
     1
 10
1094.635
 20
900.193573333
 30
0.0
 11
1199.635
 21
900.193573333
 31
0.0
  0
LINE
  8
0
  6
LTYPE5
 62
     2
 10
1014.635
 20
865.193573333
 30
0.0
 11
1057.885
 21
865.193573333
 31
0.0
  0
LINE
  8
0
  6
LTYPE5
 62
     2
 10
1024.635
 20
880.193573333
 30
0.0
 11
1052.285
 21
880.193573333
 31
0.0
  0
LINE
  8
0
  6
LTYPE5
 62
     2
 10
1023.135
 20
1000.193573333
 30
0.0
 11
1052.285
 21
1000.193573333
 31
0.0
  0
LINE
  8
0
  6
LTYPE5
 62
     2
 10
1014.135
 20
1015.193573333
 30
0.0
 11
1057.885
 21
1015.193573333
 31
0.0
  0
LINE
  8
0
  6
CONTINUOUS
 62
     2
 10
837.635
 20
914.593573333
 30
0.0
 11
846.867044996
 21
926.415981937
 31
0.0
  0
LINE
  8
0
  6
CONTINUOUS
 62
     2
 10
837.635
 20
914.593573333
 30
0.0
 11
839.718981193
 21
929.448102016
 31
0.0
  0
LINE
  8
0
  6
CONTINUOUS
 62
     2
 10
837.635
 20
914.593573333
 30
0.0
 11
900.91320748
 21
1063.768623333
 31
0.0
  0
LINE
  8
0
  6
CONTINUOUS
 62
     2
 10
900.91320748
 20
1063.768623333
 30
0.0
 11
1044.83505
 21
1063.768623333
 31
0.0
  0
LINE
  8
0
  6
LTYPE2
 62
     2
 10
1614.135
 20
639.893573333
 30
0.0
 11
1614.135
 21
746.20200189
 31
0.0
  0
LINE
  8
0
  6
LTYPE2
 62
     2
 10
1536.635
 20
743.493573333
 30
0.0
 11
1570.635
 21
743.493573333
 31
0.0
  0
LINE
  8
0
  6
LTYPE2
 62
     2
 10
1554.135
 20
761.993573333
 30
0.0
 11
1554.135
 21
725.993573333
 31
0.0
  0
LINE
  8
0
  6
LTYPE1
 62
     2
 10
1689.135
 20
668.493573333
 30
0.0
 11
1689.135
 21
698.493573333
 31
0.0
  0
LINE
  8
0
  6
LTYPE1
 62
     2
 10
1689.135
 20
698.493573333
 30
0.0
 11
1724.135
 21
698.493573333
 31
0.0
  0
LINE
  8
0
  6
LTYPE1
 62
     2
 10
1689.135
 20
668.493573333
 30
0.0
 11
1724.135
 21
668.493573333
 31
0.0
  0
LINE
  8
0
  6
CONTINUOUS
 62
     2
 10
1740.135
 20
683.493573333
 30
0.0
 11
1784.635
 21
683.493573333
 31
0.0
  0
LINE
  8
0
  6
CONTINUOUS
 62
     2
 10
1784.635
 20
683.493573333
 30
0.0
 11
1831.635
 21
683.493573333
 31
0.0
  0
LINE
  8
0
  6
CONTINUOUS
 62
     2
 10
1724.135
 20
452.993573333
 30
0.0
 11
1709.646112606
 21
456.87585901
 31
0.0
  0
LINE
  8
0
  6
CONTINUOUS
 62
     2
 10
1724.135
 20
452.993573333
 30
0.0
 11
1709.646112606
 21
449.111287657
 31
0.0
  0
LINE
  8
0
  6
CONTINUOUS
 62
     2
 10
1724.135
 20
639.493573333
 30
0.0
 11
1724.135
 21
443.993573333
 31
0.0
  0
ARC
  8
0
  6
CONTINUOUS
 62
     1
 10
1713.135
 20
584.493573333
 30
0.0
 40
6.0
 50
270.0
 51
0.0
  0
LINE
  8
0
  6
CONTINUOUS
 62
     2
 10
1719.135
 20
489.093573333
 30
0.0
 11
1704.646112606
 21
492.97585901
 31
0.0
  0
LINE
  8
0
  6
CONTINUOUS
 62
     2
 10
1719.135
 20
489.093573333
 30
0.0
 11
1704.646112606
 21
485.211287657
 31
0.0
  0
LINE
  8
0
  6
CONTINUOUS
 62
     2
 10
1719.135
 20
575.493573333
 30
0.0
 11
1719.135
 21
480.093573333
 31
0.0
  0
LINE
  8
0
  6
CONTINUOUS
 62
     2
 10
1781.535
 20
683.493573333
 30
0.0
 11
1777.652714323
 21
669.004685939
 31
0.0
  0
LINE
  8
0
  6
CONTINUOUS
 62
     2
 10
1781.535
 20
683.493573333
 30
0.0
 11
1785.417285677
 21
669.004685939
 31
0.0
  0
LINE
  8
0
  6
CONTINUOUS
 62
     2
 10
1781.535
 20
683.493573333
 30
0.0
 11
1781.535
 21
578.493573333
 31
0.0
  0
LINE
  8
0
  6
CONTINUOUS
 62
     2
 10
1781.535
 20
578.493573333
 30
0.0
 11
1785.417285677
 21
592.982460728
 31
0.0
  0
LINE
  8
0
  6
CONTINUOUS
 62
     2
 10
1781.535
 20
578.493573333
 30
0.0
 11
1777.652714323
 21
592.982460728
 31
0.0
  0
LINE
  8
0
  6
CONTINUOUS
 62
     2
 10
1722.135
 20
578.493573333
 30
0.0
 11
1790.535
 21
578.493573333
 31
0.0
  0
LINE
  8
0
  6
CONTINUOUS
 62
     2
 10
1781.535
 20
683.493573333
 30
0.0
 11
1785.417285677
 21
697.982460728
 31
0.0
  0
LINE
  8
0
  6
CONTINUOUS
 62
     2
 10
1781.535
 20
683.493573333
 30
0.0
 11
1777.652714323
 21
697.982460728
 31
0.0
  0
LINE
  8
0
  6
CONTINUOUS
 62
     2
 10
1781.535
 20
683.493573333
 30
0.0
 11
1781.535
 21
892.493573333
 31
0.0
  0
LINE
  8
0
  6
CONTINUOUS
 62
     2
 10
1781.535
 20
892.493573333
 30
0.0
 11
1777.652714323
 21
878.004685939
 31
0.0
  0
LINE
  8
0
  6
CONTINUOUS
 62
     2
 10
1781.535
 20
892.493573333
 30
0.0
 11
1785.417285677
 21
878.004685939
 31
0.0
  0
LINE
  8
0
  6
CONTINUOUS
 62
     2
 10
1781.535
 20
892.493573333
 30
0.0
 11
1785.417285677
 21
906.982460728
 31
0.0
  0
LINE
  8
0
  6
CONTINUOUS
 62
     2
 10
1781.535
 20
892.493573333
 30
0.0
 11
1777.652714323
 21
906.982460728
 31
0.0
  0
LINE
  8
0
  6
CONTINUOUS
 62
     2
 10
1755.635
 20
892.493573333
 30
0.0
 11
1790.535
 21
892.493573333
 31
0.0
  0
LINE
  8
0
  6
CONTINUOUS
 62
     2
 10
1781.535
 20
1089.493573333
 30
0.0
 11
1777.652714323
 21
1075.004685939
 31
0.0
  0
LINE
  8
0
  6
CONTINUOUS
 62
     2
 10
1781.535
 20
1089.493573333
 30
0.0
 11
1785.417285677
 21
1075.004685939
 31
0.0
  0
LINE
  8
0
  6
CONTINUOUS
 62
     2
 10
1818.342952893
 20
1089.493573333
 30
0.0
 11
1813.635
 21
1089.493573333
 31
0.0
  0
LINE
  8
0
  6
CONTINUOUS
 62
     2
 10
1781.535
 20
892.493573333
 30
0.0
 11
1781.535
 21
1089.493573333
 31
0.0
  0
LINE
  8
0
  6
CONTINUOUS
 62
     2
 10
1822.635
 20
683.493573333
 30
0.0
 11
1818.752714323
 21
669.004685939
 31
0.0
  0
LINE
  8
0
  6
CONTINUOUS
 62
     2
 10
1822.635
 20
683.493573333
 30
0.0
 11
1826.517285677
 21
669.004685939
 31
0.0
  0
LINE
  8
0
  6
CONTINUOUS
 62
     2
 10
1822.635
 20
683.493573333
 30
0.0
 11
1822.635
 21
562.493573333
 31
0.0
  0
LINE
  8
0
  6
CONTINUOUS
 62
     2
 10
1822.635
 20
562.493573333
 30
0.0
 11
1826.517285677
 21
576.982460728
 31
0.0
  0
LINE
  8
0
  6
CONTINUOUS
 62
     2
 10
1822.635
 20
562.493573333
 30
0.0
 11
1818.752714323
 21
576.982460728
 31
0.0
  0
LINE
  8
0
  6
CONTINUOUS
 62
     2
 10
1822.635
 20
683.493573333
 30
0.0
 11
1826.517285677
 21
697.982460728
 31
0.0
  0
LINE
  8
0
  6
CONTINUOUS
 62
     2
 10
1822.635
 20
683.493573333
 30
0.0
 11
1818.752714323
 21
697.982460728
 31
0.0
  0
LINE
  8
0
  6
CONTINUOUS
 62
     2
 10
1822.635
 20
1089.493573333
 30
0.0
 11
1818.752714323
 21
1075.004685939
 31
0.0
  0
LINE
  8
0
  6
CONTINUOUS
 62
     2
 10
1822.635
 20
1089.493573333
 30
0.0
 11
1826.517285677
 21
1075.004685939
 31
0.0
  0
LINE
  8
0
  6
CONTINUOUS
 62
     2
 10
1822.635
 20
683.493573333
 30
0.0
 11
1822.635
 21
1089.493573333
 31
0.0
  0
LINE
  8
0
  6
CONTINUOUS
 62
     2
 10
916.635
 20
787.493573333
 30
0.0
 11
921.164333289
 21
804.397275293
 31
0.0
  0
LINE
  8
0
  6
CONTINUOUS
 62
     2
 10
916.635
 20
787.493573333
 30
0.0
 11
912.105666711
 21
804.397275293
 31
0.0
  0
LINE
  8
0
  6
CONTINUOUS
 62
     2
 10
916.635
 20
787.493573333
 30
0.0
 11
916.635
 21
997.493573333
 31
0.0
  0
LINE
  8
0
  6
CONTINUOUS
 62
     2
 10
916.635
 20
997.493573333
 30
0.0
 11
912.105666711
 21
980.589871373
 31
0.0
  0
LINE
  8
0
  6
CONTINUOUS
 62
     2
 10
916.635
 20
997.493573333
 30
0.0
 11
921.164333289
 21
980.589871373
 31
0.0
  0
LINE
  8
0
  6
CONTINUOUS
 62
     2
 10
799.755564487
 20
997.493573333
 30
0.0
 11
923.635
 21
997.493573333
 31
0.0
  0
TEXT
  8
0
  6
CONTINUOUS
 62
     2
 10
1011.635
 20
905.993573333
 30
0.0
 40
21.0
  1
φ１５０
 50
90.0
 41
0.9
 51
0.0
  7
KANJI41
  0
TEXT
  8
0
  6
CONTINUOUS
 62
     2
 10
731.554480257
 20
1085.993573333
 30
0.0
 40
21.0
  1
ＰＦ３／４
 50
0.0
 41
0.9
 51
0.0
  7
KANJI41
  0
TEXT
  8
0
  6
CONTINUOUS
 62
     3
 10
913.135
 20
840.693573333
 30
0.0
 40
21.0
  1
φ２１０
 50
90.0
 41
0.9
 51
0.0
  7
KANJI41
  0
LINE
  8
0
  6
CONTINUOUS
 62
     1
 10
1574.435
 20
562.493573333
 30
0.0
 11
1563.835
 21
562.493573333
 31
0.0
  0
ARC
  8
0
  6
CONTINUOUS
 62
     1
 10
1568.735
 20
563.493573333
 30
0.0
 40
5.0
 50
191.5
 51
267.7
  0
ARC
  8
0
  6
CONTINUOUS
 62
     1
 10
1569.535
 20
563.493573333
 30
0.0
 40
5.0
 50
272.3
 51
348.5
  0
LINE
  8
0
  6
CONTINUOUS
 62
     1
 10
1569.735
 20
558.493573333
 30
0.0
 11
1568.535
 21
558.493573333
 31
0.0
  0
ARC
  8
0
  6
CONTINUOUS
 62
     1
 10
1659.535
 20
563.493573333
 30
0.0
 40
5.0
 50
272.3
 51
348.5
  0
ARC
  8
0
  6
CONTINUOUS
 62
     1
 10
1658.735
 20
563.493573333
 30
0.0
 40
5.0
 50
191.5
 51
267.7
  0
LINE
  8
0
  6
CONTINUOUS
 62
     1
 10
1659.735
 20
558.493573333
 30
0.0
 11
1658.535
 21
558.493573333
 31
0.0
  0
LINE
  8
0
  6
CONTINUOUS
 62
     1
 10
1664.435
 20
562.493573333
 30
0.0
 11
1653.835
 21
562.493573333
 31
0.0
  0
LINE
  8
0
  6
CONTINUOUS
 62
     2
 10
799.755560018
 20
787.493573333
 30
0.0
 11
923.635
 21
787.493573333
 31
0.0
  0
TEXT
  8
0
  6
CONTINUOUS
 62
     2
 10
1402.135
 20
720.993573333
 30
0.0
 40
21.0
  1
φ３０Ｈ１０深３５
 50
90.0
 41
0.9
 51
0.0
  7
KANJI41
  0
TEXT
  8
0
  6
CONTINUOUS
 62
     2
 10
1588.635
 20
458.993573333
 30
0.0
 40
21.0
  1
２２０
 50
0.0
 41
0.9
 51
0.0
  7
KANJI41
  0
TEXT
  8
0
  6
CONTINUOUS
 62
     2
 10
1588.635
 20
495.093573333
 30
0.0
 40
21.0
  1
２１０
 50
0.0
 41
0.9
 51
0.0
  7
KANJI41
  0
TEXT
  8
0
  6
CONTINUOUS
 62
     2
 10
1816.635
 20
597.493573333
 30
0.0
 40
21.0
  1
１２１
 50
90.0
 41
0.9
 51
0.0
  7
KANJI41
  0
TEXT
  8
0
  6
CONTINUOUS
 62
     2
 10
1775.535
 20
605.493573333
 30
0.0
 40
21.0
  1
１０５
 50
90.0
 41
0.9
 51
0.0
  7
KANJI41
  0
TEXT
  8
0
  6
CONTINUOUS
 62
     2
 10
1775.535
 20
762.493573333
 30
0.0
 40
21.0
  1
２０９
 50
90.0
 41
0.9
 51
0.0
  7
KANJI41
  0
TEXT
  8
0
  6
CONTINUOUS
 62
     2
 10
1775.535
 20
952.993573333
 30
0.0
 40
21.0
  1
１９７
 50
90.0
 41
0.9
 51
0.0
  7
KANJI41
  0
TEXT
  8
0
  6
CONTINUOUS
 62
     2
 10
1816.635
 20
848.493573333
 30
0.0
 40
21.0
  1
４０６
 50
90.0
 41
0.9
 51
0.0
  7
KANJI41
  0
TEXT
  8
0
  6
CONTINUOUS
 62
     2
 10
1246.135
 20
923.393573333
 30
0.0
 40
21.0
  1
４０
 50
90.0
 41
0.9
 51
0.0
  7
KANJI41
  0
TEXT
  8
0
  6
CONTINUOUS
 62
     2
 10
1286.635
 20
923.393573333
 30
0.0
 40
21.0
  1
８０
 50
90.0
 41
0.9
 51
0.0
  7
KANJI41
  0
TEXT
  8
0
  6
CONTINUOUS
 62
     2
 10
1257.135
 20
817.693573333
 30
0.0
 40
21.0
  1
ｄ９
 50
0.0
 41
0.9
 51
0.0
  7
KANJI41
  0
TEXT
  8
0
  6
CONTINUOUS
 62
     2
 10
1202.135
 20
846.193573333
 30
0.0
 40
21.0
  1
φ３０Ｈ１０
 50
0.0
 41
0.9
 51
0.0
  7
KANJI41
  0
TEXT
  8
0
  6
CONTINUOUS
 62
     2
 10
1122.835
 20
810.193573333
 30
0.0
 40
21.0
  1
５０
 50
0.0
 41
0.9
 51
0.0
  7
KANJI41
  0
TEXT
  8
2
  6
CONTINUOUS
 62
     2
 10
740.135
 20
642.393573333
 30
1.8
 40
21.0
  1
φ１１４
 50
90.0
 41
0.914285714
 51
0.0
  7
KANJI42
  0
LINE
  8
0
  6
LTYPE1
 62
     2
 10
699.985
 20
590.359598737
 30
0.0
 11
699.985
 21
723.359598737
 31
0.0
  0
LINE
  8
0
  6
LTYPE1
 62
     2
 10
703.985
 20
658.143573333
 30
0.0
 11
703.985
 21
744.993573333
 31
0.0
  0
LINE
  8
0
  6
LTYPE1
 62
     2
 10
695.985
 20
658.143573333
 30
0.0
 11
695.985
 21
744.993573333
 31
0.0
  0
ARC
  8
0
  6
LTYPE1
 62
     2
 10
699.985
 20
744.993573333
 30
0.0
 40
4.0
 50
0.0
 51
180.0
  0
LINE
  8
0
  6
CONTINUOUS
 62
     1
 10
767.735
 20
708.493573333
 30
0.0
 11
817.735
 21
708.493573333
 31
0.0
  0
LINE
  8
0
  6
CONTINUOUS
 62
     1
 10
817.735
 20
708.493573333
 30
0.0
 11
817.735
 21
658.493573333
 31
0.0
  0
LINE
  8
0
  6
CONTINUOUS
 62
     1
 10
767.735
 20
708.493573333
 30
0.0
 11
767.735
 21
658.493573333
 31
0.0
  0
CIRCLE
  8
0
  6
CONTINUOUS
 62
     1
 10
792.735
 20
683.493573333
 30
0.0
 40
25.0
  0
LINE
  8
0
  6
LTYPE3
 62
     2
 10
792.735
 20
720.693573333
 30
0.0
 11
792.735
 21
646.693573333
 31
0.0
  0
LINE
  8
2
  6
CONTINUOUS
 62
     2
 10
746.135
 20
626.493573333
 30
0.0
 11
746.135
 21
740.493573333
 31
0.0
  0
LINE
  8
2
  6
CONTINUOUS
 62
     2
 10
746.135
 20
740.493573333
 30
0.0
 11
742.252714323
 21
726.004685939
 31
0.0
  0
LINE
  8
2
  6
CONTINUOUS
 62
     2
 10
746.135
 20
740.493573333
 30
0.0
 11
750.017285677
 21
726.004685939
 31
0.0
  0
LINE
  8
0
  6
CONTINUOUS
 62
     2
 10
802.635
 20
708.693573333
 30
0.0
 11
815.043427823
 21
717.12155761
 31
0.0
  0
LINE
  8
0
  6
CONTINUOUS
 62
     2
 10
802.635
 20
708.693573333
 30
0.0
 11
809.167021577
 21
722.196635731
 31
0.0
  0
LINE
  8
0
  6
CONTINUOUS
 62
     1
 10
847.135
 20
740.493573333
 30
0.0
 11
683.035
 21
740.493573333
 31
0.0
  0
ARC
  8
0
  6
CONTINUOUS
 62
     1
 10
851.135
 20
744.993573333
 30
0.0
 40
4.0
 50
0.0
 51
180.0
  0
LINE
  8
0
  6
CONTINUOUS
 62
     1
 10
847.135
 20
658.143573333
 30
0.0
 11
847.135
 21
744.993573333
 31
0.0
  0
LINE
  8
0
  6
CONTINUOUS
 62
     1
 10
855.135
 20
658.143573333
 30
0.0
 11
855.135
 21
744.993573333
 31
0.0
  0
LINE
  8
0
  6
CONTINUOUS
 62
     1
 10
940.635
 20
741.493573333
 30
0.0
 11
944.991537433
 21
757.752392378
 31
0.0
  0
ARC
  8
0
  6
CONTINUOUS
 62
     1
 10
945.957463259
 20
757.493573333
 30
0.0
 40
1.0
 50
90.0
 51
165.0
  0
ARC
  8
0
  6
CONTINUOUS
 62
     1
 10
945.957463934
 20
757.493573333
 30
0.0
 40
1.0
 50
15.0
 51
90.0
  0
LINE
  8
0
  6
CONTINUOUS
 62
     1
 10
950.54542997
 20
744.234754288
 30
0.0
 11
946.92338976
 21
757.752392378
 31
0.0
  0
ARC
  8
0
  6
CONTINUOUS
 62
     1
 10
951.511355796
 20
744.493573333
 30
0.0
 40
1.0
 50
195.0
 51
270.0
  0
ARC
  8
0
  6
CONTINUOUS
 62
     1
 10
951.51135647
 20
744.493573333
 30
0.0
 40
1.0
 50
270.0
 51
345.0
  0
LINE
  8
0
  6
CONTINUOUS
 62
     1
 10
952.477282297
 20
744.234754288
 30
0.0
 11
956.099322507
 21
757.752392378
 31
0.0
  0
ARC
  8
0
  6
CONTINUOUS
 62
     1
 10
957.065248333
 20
757.493573333
 30
0.0
 40
1.0
 50
90.0
 51
165.0
  0
ARC
  8
0
  6
CONTINUOUS
 62
     1
 10
957.065248333
 20
757.493573333
 30
0.0
 40
1.0
 50
15.0
 51
90.0
  0
LINE
  8
0
  6
CONTINUOUS
 62
     1
 10
961.653214369
 20
744.234754288
 30
0.0
 11
958.031174159
 21
757.752392378
 31
0.0
  0
ARC
  8
0
  6
CONTINUOUS
 62
     1
 10
962.619140195
 20
744.493573333
 30
0.0
 40
1.0
 50
195.0
 51
270.0
  0
LINE
  8
0
  6
CONTINUOUS
 62
     1
 10
925.635
 20
743.493573333
 30
0.0
 11
935.635
 21
743.493573333
 31
0.0
  0
LINE
  8
0
  6
CONTINUOUS
 62
     1
 10
935.579743763
 20
741.493573333
 30
0.0
 11
940.635
 21
741.493573333
 31
0.0
  0
LINE
  8
0
  6
CONTINUOUS
 62
     1
 10
925.635
 20
683.493573333
 30
0.0
 11
925.635
 21
743.493573333
 31
0.0
  0
LINE
  8
0
  6
CONTINUOUS
 62
     1
 10
935.635
 20
683.493573333
 30
0.0
 11
935.635
 21
743.493573333
 31
0.0
  0
LINE
  8
0
  6
CONTINUOUS
 62
     1
 10
945.957463259
 20
758.493573333
 30
0.0
 11
945.957463259
 21
683.493573333
 31
0.0
  0
LINE
  8
0
  6
CONTINUOUS
 62
     1
 10
951.511355796
 20
743.493573333
 30
0.0
 11
951.511355796
 21
683.493573333
 31
0.0
  0
LINE
  8
0
  6
CONTINUOUS
 62
     1
 10
957.065248333
 20
758.493573333
 30
0.0
 11
957.065248333
 21
684.593573333
 31
0.0
  0
LINE
  8
0
  6
CONTINUOUS
 62
     1
 10
962.619140195
 20
743.493573333
 30
0.0
 11
962.619140195
 21
683.493573333
 31
0.0
  0
LINE
  8
0
  6
CONTINUOUS
 62
     1
 10
940.635
 20
626.493573333
 30
0.0
 11
940.635
 21
741.493573333
 31
0.0
  0
LINE
  8
0
  6
LTYPE5
 62
     2
 10
962.619140195
 20
743.493573333
 30
0.0
 11
1036.285
 21
743.493573333
 31
0.0
  0
LINE
  8
0
  6
LTYPE5
 62
     2
 10
957.065248333
 20
758.493573333
 30
0.0
 11
1041.885
 21
758.493573333
 31
0.0
  0
ARC
  8
0
  6
CONTINUOUS
 62
     1
 10
911.135
 20
744.993573333
 30
0.0
 40
4.0
 50
0.0
 51
180.0
  0
LINE
  8
0
  6
CONTINUOUS
 62
     1
 10
907.135
 20
658.143573333
 30
0.0
 11
907.135
 21
744.993573333
 31
0.0
  0
LINE
  8
0
  6
CONTINUOUS
 62
     1
 10
915.135
 20
658.143573333
 30
0.0
 11
915.135
 21
744.993573333
 31
0.0
  0
ARC
  8
0
  6
CONTINUOUS
 62
     1
 10
1041.979743763
 20
757.493573333
 30
0.0
 40
1.0
 50
90.0
 51
165.0
  0
LINE
  8
0
  6
CONTINUOUS
 62
     1
 10
1037.391777727
 20
744.234754288
 30
0.0
 11
1041.013817937
 21
757.752392378
 31
0.0
  0
ARC
  8
0
  6
CONTINUOUS
 62
     1
 10
1036.425851901
 20
744.493573333
 30
0.0
 40
1.0
 50
270.0
 51
345.0
  0
LINE
  8
0
  6
CONTINUOUS
 62
     1
 10
1066.135
 20
723.993573333
 30
0.0
 11
1076.135
 21
723.993573333
 31
0.0
  0
LINE
  8
0
  6
CONTINUOUS
 62
     1
 10
1076.079743763
 20
721.993573333
 30
0.0
 11
1078.635
 21
721.993573333
 31
0.0
  0
LINE
  8
0
  6
CONTINUOUS
 62
     1
 10
1063.635
 20
721.993573333
 30
0.0
 11
1066.079743763
 21
721.993573333
 31
0.0
  0
LINE
  8
0
  6
CONTINUOUS
 62
     1
 10
1076.135
 20
723.993573333
 30
0.0
 11
1076.135
 21
683.493573333
 31
0.0
  0
LINE
  8
0
  6
CONTINUOUS
 62
     1
 10
1063.635
 20
721.993573333
 30
0.0
 11
1063.635
 21
683.493573333
 31
0.0
  0
LINE
  8
0
  6
CONTINUOUS
 62
     1
 10
1066.135
 20
723.993573333
 30
0.0
 11
1066.135
 21
683.493573333
 31
0.0
  0
LINE
  8
0
  6
CONTINUOUS
 62
     1
 10
1063.635
 20
721.993573333
 30
0.0
 11
1054.053453315
 21
757.752392378
 31
0.0
  0
ARC
  8
0
  6
CONTINUOUS
 62
     1
 10
1053.087527488
 20
757.493573333
 30
0.0
 40
1.0
 50
15.0
 51
90.0
  0
ARC
  8
0
  6
CONTINUOUS
 62
     1
 10
1053.087527488
 20
757.493573333
 30
0.0
 40
1.0
 50
90.0
 51
165.0
  0
LINE
  8
0
  6
CONTINUOUS
 62
     1
 10
1048.499561452
 20
744.234754288
 30
0.0
 11
1052.121601662
 21
757.752392378
 31
0.0
  0
ARC
  8
0
  6
CONTINUOUS
 62
     1
 10
1047.533635626
 20
744.493573333
 30
0.0
 40
1.0
 50
270.0
 51
345.0
  0
ARC
  8
0
  6
CONTINUOUS
 62
     1
 10
1047.533635626
 20
744.493573333
 30
0.0
 40
1.0
 50
195.0
 51
270.0
  0
LINE
  8
0
  6
CONTINUOUS
 62
     1
 10
1046.5677098
 20
744.234754288
 30
0.0
 11
1042.94566959
 21
757.752392378
 31
0.0
  0
ARC
  8
0
  6
CONTINUOUS
 62
     1
 10
1041.979743763
 20
757.493573333
 30
0.0
 40
1.0
 50
15.0
 51
90.0
  0
LINE
  8
0
  6
CONTINUOUS
 62
     1
 10
1036.425851901
 20
743.493573333
 30
0.0
 11
1036.425851901
 21
683.493573333
 31
0.0
  0
LINE
  8
0
  6
CONTINUOUS
 62
     1
 10
1041.979743763
 20
758.493573333
 30
0.0
 11
1041.979743763
 21
683.493573333
 31
0.0
  0
LINE
  8
0
  6
CONTINUOUS
 62
     1
 10
1053.087527488
 20
758.493573333
 30
0.0
 11
1053.087527488
 21
683.493573333
 31
0.0
  0
LINE
  8
0
  6
CONTINUOUS
 62
     1
 10
1047.533635626
 20
743.493573333
 30
0.0
 11
1047.533635626
 21
683.493573333
 31
0.0
  0
LINE
  8
0
  6
CONTINUOUS
 62
     1
 10
1094.635
 20
733.493573333
 30
0.0
 11
1078.635
 21
733.493573333
 31
0.0
  0
LINE
  8
0
  6
CONTINUOUS
 62
     1
 10
1078.635
 20
733.493573333
 30
0.0
 11
1078.635
 21
537.493573333
 31
0.0
  0
LINE
  8
0
  6
CONTINUOUS
 62
     1
 10
915.135
 20
741.493573333
 30
0.0
 11
925.579743763
 21
741.493573333
 31
0.0
  0
LINE
  8
0
  6
CONTINUOUS
 62
     1
 10
855.135
 20
740.493573333
 30
0.0
 11
907.135
 21
740.493573333
 31
0.0
  0
LINE
  8
0
  6
CONTINUOUS
 62
     1
 10
1184.635
 20
720.993573333
 30
0.0
 11
1094.635
 21
720.993573333
 31
0.0
  0
LINE
  8
0
  6
CONTINUOUS
 62
     1
 10
1094.635
 20
733.493573333
 30
0.0
 11
1094.635
 21
537.493573333
 31
0.0
  0
LINE
  8
0
  6
LTYPE2
 62
     2
 10
453.485
 20
578.493573333
 30
0.0
 11
840.745
 21
578.493573333
 31
0.0
  0
LINE
  8
0
  6
LTYPE1
 62
     2
 10
707.985
 20
592.493573333
 30
0.0
 11
472.985
 21
592.493573333
 31
0.0
  0
LINE
  8
0
  6
LTYPE1
 62
     2
 10
707.985
 20
598.493573333
 30
0.0
 11
472.985
 21
598.493573333
 31
0.0
  0
LINE
  8
0
  6
CONTINUOUS
 62
     1
 10
577.985
 20
542.493573333
 30
0.0
 11
865.135
 21
542.493573333
 31
0.0
  0
LINE
  8
0
  6
LTYPE1
 62
     2
 10
707.485
 20
592.493573333
 30
0.0
 11
707.485
 21
587.893573333
 31
0.0
  0
LINE
  8
0
  6
LTYPE1
 62
     2
 10
692.485
 20
592.493573333
 30
0.0
 11
692.485
 21
587.893573333
 31
0.0
  0
LINE
  8
0
  6
LTYPE1
 62
     2
 10
696.185
 20
592.493573333
 30
0.0
 11
696.185
 21
587.893573333
 31
0.0
  0
LINE
  8
0
  6
LTYPE1
 62
     2
 10
703.785
 20
592.493573333
 30
0.0
 11
703.785
 21
587.893573333
 31
0.0
  0
ARC
  8
0
  6
LTYPE1
 62
     2
 10
694.285
 20
589.993573333
 30
0.0
 40
2.8
 50
228.5
 51
311.5
  0
ARC
  8
0
  6
LTYPE1
 62
     2
 10
699.985
 20
597.893573333
 30
0.0
 40
10.7
 50
249.1
 51
290.9
  0
ARC
  8
0
  6
LTYPE1
 62
     2
 10
705.685
 20
589.993573333
 30
0.0
 40
2.8
 50
228.5
 51
311.5
  0
LINE
  8
0
  6
LTYPE1
 62
     2
 10
699.985
 20
583.693573333
 30
0.0
 11
699.985
 21
595.493573333
 31
0.0
  0
LINE
  8
0
  6
LTYPE2
 62
     2
 10
699.985
 20
579.843573333
 30
0.0
 11
699.985
 21
604.143573333
 31
0.0
  0
LINE
  8
0
  6
LTYPE1
 62
     2
 10
705.685
 20
587.193573333
 30
0.0
 11
694.285
 21
587.193573333
 31
0.0
  0
LINE
  8
0
  6
LTYPE1
 62
     2
 10
707.985
 20
598.493573333
 30
0.0
 11
707.985
 21
592.543573333
 31
0.0
  0
LINE
  8
0
  6
LTYPE1
 62
     2
 10
706.985
 20
598.493573333
 30
0.0
 11
706.985
 21
658.143573333
 31
0.0
  0
LINE
  8
0
  6
LTYPE1
 62
     2
 10
692.985
 20
598.493573333
 30
0.0
 11
692.985
 21
658.143573333
 31
0.0
  0
LINE
  8
0
  6
LTYPE1
 62
     2
 10
695.985
 20
613.493573333
 30
0.0
 11
703.985
 21
613.493573333
 31
0.0
  0
LINE
  8
0
  6
LTYPE1
 62
     2
 10
703.285
 20
628.093573333
 30
0.0
 11
703.285
 21
613.493573333
 31
0.0
  0
LINE
  8
0
  6
LTYPE1
 62
     2
 10
703.985
 20
628.143573333
 30
0.0
 11
703.985
 21
613.493573333
 31
0.0
  0
LINE
  8
0
  6
LTYPE1
 62
     2
 10
696.685
 20
628.093573333
 30
0.0
 11
696.685
 21
613.493573333
 31
0.0
  0
LINE
  8
0
  6
LTYPE1
 62
     2
 10
695.985
 20
628.093573333
 30
0.0
 11
695.985
 21
613.493573333
 31
0.0
  0
LINE
  8
0
  6
LTYPE1
 62
     2
 10
692.985
 20
628.143573333
 30
0.0
 11
706.985
 21
628.143573333
 31
0.0
  0
LINE
  8
0
  6
LTYPE1
 62
     2
 10
692.985
 20
658.143573333
 30
0.0
 11
706.985
 21
658.143573333
 31
0.0
  0
LINE
  8
2
  6
CONTINUOUS
 62
     2
 10
746.135
 20
626.493573333
 30
0.0
 11
742.252714323
 21
640.982460728
 31
0.0
  0
LINE
  8
0
  6
LTYPE3
 62
     2
 10
518.38777342
 20
550.493573333
 30
0.0
 11
1123.825
 21
550.493573333
 31
0.0
  0
LINE
  8
0
  6
CONTINUOUS
 62
     1
 10
844.135
 20
626.493573333
 30
0.0
 11
683.035
 21
626.493573333
 31
0.0
  0
LINE
  8
0
  6
CONTINUOUS
 62
     1
 10
767.735
 20
658.493573333
 30
0.0
 11
817.735
 21
658.493573333
 31
0.0
  0
LINE
  8
0
  6
CONTINUOUS
 62
     1
 10
844.135
 20
658.143573333
 30
0.0
 11
858.135
 21
658.143573333
 31
0.0
  0
LINE
  8
0
  6
CONTINUOUS
 62
     1
 10
844.135
 20
598.493573333
 30
0.0
 11
844.135
 21
658.143573333
 31
0.0
  0
LINE
  8
0
  6
CONTINUOUS
 62
     1
 10
844.135
 20
628.143573333
 30
0.0
 11
858.135
 21
628.143573333
 31
0.0
  0
LINE
  8
0
  6
CONTINUOUS
 62
     1
 10
847.135
 20
613.493573333
 30
0.0
 11
855.135
 21
613.493573333
 31
0.0
  0
LINE
  8
0
  6
CONTINUOUS
 62
     2
 10
847.135
 20
628.093573333
 30
0.0
 11
847.135
 21
613.493573333
 31
0.0
  0
LINE
  8
0
  6
CONTINUOUS
 62
     1
 10
847.835
 20
628.093573333
 30
0.0
 11
847.835
 21
613.493573333
 31
0.0
  0
LINE
  8
0
  6
CONTINUOUS
 62
     1
 10
816.135
 20
592.493573333
 30
0.0
 11
946.135
 21
592.493573333
 31
0.0
  0
LINE
  8
0
  6
CONTINUOUS
 62
     1
 10
816.135
 20
598.493573333
 30
0.0
 11
946.135
 21
598.493573333
 31
0.0
  0
LINE
  8
0
  6
CONTINUOUS
 62
     1
 10
816.135
 20
592.493573333
 30
0.0
 11
816.135
 21
598.493573333
 31
0.0
  0
LINE
  8
0
  6
CONTINUOUS
 62
     2
 10
848.235
 20
552.693573333
 30
0.0
 11
840.646245341
 21
542.760758892
 31
0.0
  0
LINE
  8
0
  6
CONTINUOUS
 62
     2
 10
848.235
 20
552.693573333
 30
0.0
 11
846.629352903
 21
540.297126367
 31
0.0
  0
LINE
  8
0
  6
CONTINUOUS
 62
     2
 10
848.235
 20
552.693573333
 30
0.0
 11
827.111470588
 21
501.393573333
 31
0.0
  0
TEXT
  8
0
  6
CONTINUOUS
 62
     2
 10
747.035
 20
506.393573333
 30
0.0
 40
15.0
  1
ＬＳユニット
 50
0.0
 41
0.9
 51
0.0
  7
KANJI43
  0
LINE
  8
0
  6
CONTINUOUS
 62
     2
 10
827.111470588
 20
501.393573333
 30
0.0
 11
747.035
 21
501.393573333
 31
0.0
  0
LINE
  8
0
  6
CONTINUOUS
 62
     1
 10
858.135
 20
598.493573333
 30
0.0
 11
858.135
 21
658.143573333
 31
0.0
  0
LINE
  8
0
  6
CONTINUOUS
 62
     1
 10
854.435
 20
628.093573333
 30
0.0
 11
854.435
 21
613.493573333
 31
0.0
  0
LINE
  8
0
  6
CONTINUOUS
 62
     1
 10
858.135
 20
626.493573333
 30
0.0
 11
904.135
 21
626.493573333
 31
0.0
  0
LINE
  8
2
  6
CONTINUOUS
 62
     2
 10
746.135
 20
626.493573333
 30
0.0
 11
750.017285677
 21
640.982460728
 31
0.0
  0
LINE
  8
0
  6
CONTINUOUS
 62
     1
 10
865.135
 20
537.493573333
 30
0.0
 11
897.135
 21
537.493573333
 31
0.0
  0
LINE
  8
0
  6
LTYPE1
 62
     2
 10
865.135
 20
544.493573333
 30
0.0
 11
897.435
 21
544.493573333
 31
0.0
  0
LINE
  8
0
  6
CONTINUOUS
 62
     1
 10
865.135
 20
537.493573333
 30
0.0
 11
865.135
 21
552.493573333
 31
0.0
  0
LINE
  8
0
  6
CONTINUOUS
 62
     1
 10
940.635
 20
625.493573333
 30
0.0
 11
944.991537433
 21
609.234754288
 31
0.0
  0
ARC
  8
0
  6
CONTINUOUS
 62
     1
 10
945.957463259
 20
609.493573333
 30
0.0
 40
1.0
 50
195.0
 51
270.0
  0
ARC
  8
0
  6
CONTINUOUS
 62
     1
 10
945.957463934
 20
609.493573333
 30
0.0
 40
1.0
 50
270.0
 51
345.0
  0
LINE
  8
0
  6
CONTINUOUS
 62
     1
 10
950.54542997
 20
622.752392378
 30
0.0
 11
946.92338976
 21
609.234754288
 31
0.0
  0
ARC
  8
0
  6
CONTINUOUS
 62
     1
 10
951.511355796
 20
622.493573333
 30
0.0
 40
1.0
 50
90.0
 51
165.0
  0
ARC
  8
0
  6
CONTINUOUS
 62
     1
 10
951.51135647
 20
622.493573333
 30
0.0
 40
1.0
 50
15.0
 51
90.0
  0
LINE
  8
0
  6
CONTINUOUS
 62
     1
 10
952.477282297
 20
622.752392378
 30
0.0
 11
956.099322507
 21
609.234754288
 31
0.0
  0
ARC
  8
0
  6
CONTINUOUS
 62
     1
 10
957.065248333
 20
609.493573333
 30
0.0
 40
1.0
 50
195.0
 51
270.0
  0
ARC
  8
0
  6
CONTINUOUS
 62
     1
 10
957.065248333
 20
609.493573333
 30
0.0
 40
1.0
 50
270.0
 51
345.0
  0
LINE
  8
0
  6
CONTINUOUS
 62
     1
 10
961.653214369
 20
622.752392378
 30
0.0
 11
958.031174159
 21
609.234754288
 31
0.0
  0
ARC
  8
0
  6
CONTINUOUS
 62
     1
 10
962.619140195
 20
622.493573333
 30
0.0
 40
1.0
 50
90.0
 51
165.0
  0
LINE
  8
0
  6
CONTINUOUS
 62
     1
 10
925.635
 20
623.493573333
 30
0.0
 11
935.635
 21
623.493573333
 31
0.0
  0
LINE
  8
0
  6
CONTINUOUS
 62
     1
 10
935.579743763
 20
625.493573333
 30
0.0
 11
940.635
 21
625.493573333
 31
0.0
  0
LINE
  8
0
  6
CONTINUOUS
 62
     1
 10
920.635
 20
625.493573333
 30
0.0
 11
935.635
 21
625.493573333
 31
0.0
  0
LINE
  8
0
  6
CONTINUOUS
 62
     1
 10
920.635
 20
626.493573333
 30
0.0
 11
1005.635
 21
626.493573333
 31
0.0
  0
LINE
  8
0
  6
LTYPE5
 62
     2
 10
962.619140195
 20
623.493573333
 30
0.0
 11
1035.885
 21
623.493573333
 31
0.0
  0
LINE
  8
0
  6
LTYPE5
 62
     2
 10
957.065248333
 20
608.493573333
 30
0.0
 11
1042.285
 21
608.493573333
 31
0.0
  0
LINE
  8
0
  6
CONTINUOUS
 62
     1
 10
918.135
 20
658.143573333
 30
0.0
 11
904.135
 21
658.143573333
 31
0.0
  0
LINE
  8
0
  6
CONTINUOUS
 62
     1
 10
904.135
 20
598.493573333
 30
0.0
 11
904.135
 21
658.143573333
 31
0.0
  0
LINE
  8
0
  6
CONTINUOUS
 62
     1
 10
918.135
 20
598.493573333
 30
0.0
 11
918.135
 21
658.143573333
 31
0.0
  0
LINE
  8
0
  6
CONTINUOUS
 62
     1
 10
918.135
 20
628.143573333
 30
0.0
 11
904.135
 21
628.143573333
 31
0.0
  0
LINE
  8
0
  6
CONTINUOUS
 62
     1
 10
915.135
 20
613.493573333
 30
0.0
 11
907.135
 21
613.493573333
 31
0.0
  0
LINE
  8
0
  6
CONTINUOUS
 62
     2
 10
915.135
 20
628.093573333
 30
0.0
 11
915.135
 21
613.493573333
 31
0.0
  0
LINE
  8
0
  6
CONTINUOUS
 62
     2
 10
907.135
 20
628.143573333
 30
0.0
 11
907.135
 21
613.493573333
 31
0.0
  0
LINE
  8
0
  6
CONTINUOUS
 62
     1
 10
907.835
 20
628.093573333
 30
0.0
 11
907.835
 21
613.493573333
 31
0.0
  0
LINE
  8
0
  6
CONTINUOUS
 62
     1
 10
914.435
 20
628.093573333
 30
0.0
 11
914.435
 21
613.493573333
 31
0.0
  0
LINE
  8
0
  6
CONTINUOUS
 62
     1
 10
897.435
 20
544.493573333
 30
0.0
 11
963.409892096
 21
544.493573333
 31
0.0
  0
LINE
  8
0
  6
CONTINUOUS
 62
     1
 10
928.409992096
 20
556.493573333
 30
0.0
 11
963.409892096
 21
556.493573333
 31
0.0
  0
LINE
  8
0
  6
LTYPE1
 62
     2
 10
963.409892096
 20
544.493573333
 30
0.0
 11
1005.409892096
 21
544.493573333
 31
0.0
  0
LINE
  8
0
  6
LTYPE1
 62
     2
 10
963.409892096
 20
556.493573333
 30
0.0
 11
1005.409892096
 21
556.493573333
 31
0.0
  0
LINE
  8
0
  6
CONTINUOUS
 62
     1
 10
963.409892096
 20
561.493573333
 30
0.0
 11
972.070146134
 21
566.493573333
 31
0.0
  0
LINE
  8
0
  6
CONTINUOUS
 62
     1
 10
963.409892096
 20
539.493573333
 30
0.0
 11
963.409892096
 21
561.493573333
 31
0.0
  0
LINE
  8
0
  6
CONTINUOUS
 62
     1
 10
963.409892096
 20
539.493573333
 30
0.0
 11
972.070146134
 21
534.493573333
 31
0.0
  0
LINE
  8
0
  6
LTYPE3
 62
     2
 10
938.135
 20
577.681073333
 30
0.0
 11
938.135
 21
537.693573333
 31
0.0
  0
LINE
  8
0
  6
CONTINUOUS
 62
     1
 10
897.135
 20
537.493573333
 30
0.0
 11
897.135
 21
552.493573333
 31
0.0
  0
LINE
  8
0
  6
CONTINUOUS
 62
     1
 10
946.135
 20
592.493573333
 30
0.0
 11
946.135
 21
598.493573333
 31
0.0
  0
LINE
  8
0
  6
CONTINUOUS
 62
     1
 10
972.059892096
 20
566.493573333
 30
0.0
 11
996.759892096
 21
566.493573333
 31
0.0
  0
LINE
  8
0
  6
CONTINUOUS
 62
     1
 10
972.059892096
 20
534.493573333
 30
0.0
 11
972.059892096
 21
566.493573333
 31
0.0
  0
LINE
  8
0
  6
CONTINUOUS
 62
     1
 10
972.059892096
 20
534.493573333
 30
0.0
 11
996.759892096
 21
534.493573333
 31
0.0
  0
LINE
  8
0
  6
LTYPE2
 62
     2
 10
881.135
 20
195.12754793
 30
0.0
 11
881.135
 21
632.593573333
 31
0.0
  0
LINE
  8
0
  6
CONTINUOUS
 62
     2
 10
1005.635
 20
617.493573333
 30
0.0
 11
1005.635
 21
437.493573333
 31
0.0
  0
LINE
  8
0
  6
CONTINUOUS
 62
     1
 10
1005.635
 20
645.993573333
 30
0.0
 11
1075.635
 21
645.993573333
 31
0.0
  0
LINE
  8
0
  6
CONTINUOUS
 62
     1
 10
1005.635
 20
626.493573333
 30
0.0
 11
1005.635
 21
683.493573333
 31
0.0
  0
CIRCLE
  8
0
  6
CONTINUOUS
 62
     2
 10
984.409892096
 20
550.493573333
 30
0.0
 40
5.0
  0
CIRCLE
  8
0
  6
CONTINUOUS
 62
     2
 10
984.409892096
 20
550.493573333
 30
0.0
 40
4.0
  0
LINE
  8
0
  6
LTYPE3
 62
     2
 10
984.409892096
 20
540.493573333
 30
0.0
 11
984.409892096
 21
560.493573333
 31
0.0
  0
LINE
  8
0
  6
CONTINUOUS
 62
     1
 10
996.759892096
 20
534.493573333
 30
0.0
 11
996.759892096
 21
566.493573333
 31
0.0
  0
LINE
  8
0
  6
CONTINUOUS
 62
     1
 10
1005.409892096
 20
539.493573333
 30
0.0
 11
996.749638058
 21
534.493573333
 31
0.0
  0
LINE
  8
0
  6
CONTINUOUS
 62
     1
 10
1005.409892096
 20
561.493573333
 30
0.0
 11
996.749638058
 21
566.493573333
 31
0.0
  0
LINE
  8
0
  6
CONTINUOUS
 62
     1
 10
1005.409892096
 20
539.493573333
 30
0.0
 11
1005.409892096
 21
561.493573333
 31
0.0
  0
LINE
  8
0
  6
CONTINUOUS
 62
     1
 10
1005.409892096
 20
556.493573333
 30
0.0
 11
1078.635
 21
556.493573333
 31
0.0
  0
LINE
  8
0
  6
CONTINUOUS
 62
     1
 10
1005.409892096
 20
544.493573333
 30
0.0
 11
1078.635
 21
544.493573333
 31
0.0
  0
LINE
  8
0
  6
CONTINUOUS
 62
     2
 10
1002.759892096
 20
534.493573333
 30
0.0
 11
1287.655
 21
534.493573333
 31
0.0
  0
LINE
  8
0
  6
CONTINUOUS
 62
     1
 10
1063.635
 20
644.993573333
 30
0.0
 11
1054.053453315
 21
609.234754288
 31
0.0
  0
LINE
  8
0
  6
CONTINUOUS
 62
     1
 10
1066.135
 20
642.993573333
 30
0.0
 11
1076.135
 21
642.993573333
 31
0.0
  0
ARC
  8
0
  6
CONTINUOUS
 62
     1
 10
1047.533635626
 20
622.493573333
 30
0.0
 40
1.0
 50
15.0
 51
90.0
  0
ARC
  8
0
  6
CONTINUOUS
 62
     1
 10
1047.533635626
 20
622.493573333
 30
0.0
 40
1.0
 50
90.0
 51
165.0
  0
LINE
  8
0
  6
CONTINUOUS
 62
     1
 10
1046.5677098
 20
622.752392378
 30
0.0
 11
1042.94566959
 21
609.234754288
 31
0.0
  0
ARC
  8
0
  6
CONTINUOUS
 62
     1
 10
1041.979743763
 20
609.493573333
 30
0.0
 40
1.0
 50
270.0
 51
345.0
  0
ARC
  8
0
  6
CONTINUOUS
 62
     1
 10
1041.979743763
 20
609.493573333
 30
0.0
 40
1.0
 50
195.0
 51
270.0
  0
LINE
  8
0
  6
CONTINUOUS
 62
     1
 10
1037.391777727
 20
622.752392378
 30
0.0
 11
1041.013817937
 21
609.234754288
 31
0.0
  0
ARC
  8
0
  6
CONTINUOUS
 62
     1
 10
1036.425851901
 20
622.493573333
 30
0.0
 40
1.0
 50
15.0
 51
90.0
  0
ARC
  8
0
  6
CONTINUOUS
 62
     1
 10
1053.087527488
 20
609.493573333
 30
0.0
 40
1.0
 50
270.0
 51
345.0
  0
ARC
  8
0
  6
CONTINUOUS
 62
     1
 10
1053.087527488
 20
609.493573333
 30
0.0
 40
1.0
 50
195.0
 51
270.0
  0
LINE
  8
0
  6
CONTINUOUS
 62
     1
 10
1048.499561452
 20
622.752392378
 30
0.0
 11
1052.121601662
 21
609.234754288
 31
0.0
  0
LINE
  8
0
  6
CONTINUOUS
 62
     1
 10
1063.635
 20
644.993573333
 30
0.0
 11
1078.635
 21
644.993573333
 31
0.0
  0
LINE
  8
0
  6
CONTINUOUS
 62
     1
 10
1078.635
 20
537.493573333
 30
0.0
 11
1094.635
 21
537.493573333
 31
0.0
  0
LINE
  8
0
  6
CONTINUOUS
 62
     2
 10
1199.635
 20
651.993573333
 30
0.0
 11
1199.635
 21
360.993573333
 31
0.0
  0
LINE
  8
0
  6
CONTINUOUS
 62
     1
 10
1184.635
 20
645.993573333
 30
0.0
 11
1094.635
 21
645.993573333
 31
0.0
  0
LINE
  8
0
  6
CONTINUOUS
 62
     1
 10
1199.635
 20
705.993573333
 30
0.0
 11
1199.635
 21
660.993573333
 31
0.0
  0
LINE
  8
0
  6
CONTINUOUS
 62
     1
 10
1184.635
 20
645.993573333
 30
0.0
 11
1199.635
 21
660.993573333
 31
0.0
  0
LINE
  8
0
  6
LTYPE1
 62
     2
 10
1114.635
 20
720.993573333
 30
0.0
 11
1114.635
 21
645.993573333
 31
0.0
  0
LINE
  8
0
  6
LTYPE3
 62
     2
 10
1164.635
 20
731.693573333
 30
0.0
 11
1164.635
 21
637.693573333
 31
0.0
  0
LINE
  8
0
  6
CONTINUOUS
 62
     2
 10
1193.635
 20
645.993573333
 30
0.0
 11
1261.635
 21
645.993573333
 31
0.0
  0
LINE
  8
0
  6
CONTINUOUS
 62
     2
 10
1164.635
 20
623.443573333
 30
0.0
 11
1164.635
 21
398.993573333
 31
0.0
  0
LINE
  8
0
  6
CONTINUOUS
 62
     1
 10
1112.735
 20
556.493573333
 30
0.0
 11
1108.435
 21
556.493573333
 31
0.0
  0
LINE
  8
0
  6
CONTINUOUS
 62
     1
 10
1114.435
 20
546.193573333
 30
0.0
 11
1114.435
 21
554.793573333
 31
0.0
  0
LINE
  8
0
  6
CONTINUOUS
 62
     1
 10
1112.735
 20
556.493573333
 30
0.0
 11
1112.735
 21
544.493573333
 31
0.0
  0
LINE
  8
0
  6
CONTINUOUS
 62
     1
 10
1114.435
 20
554.793573333
 30
0.0
 11
1112.735
 21
556.493573333
 31
0.0
  0
LINE
  8
0
  6
CONTINUOUS
 62
     2
 10
1113.935
 20
555.293573333
 30
0.0
 11
1108.435
 21
555.293573333
 31
0.0
  0
LINE
  8
0
  6
CONTINUOUS
 62
     1
 10
1112.735
 20
544.493573333
 30
0.0
 11
1108.435
 21
544.493573333
 31
0.0
  0
LINE
  8
0
  6
CONTINUOUS
 62
     1
 10
1114.435
 20
546.193573333
 30
0.0
 11
1112.735
 21
544.493573333
 31
0.0
  0
LINE
  8
0
  6
CONTINUOUS
 62
     2
 10
1113.935
 20
545.693573333
 30
0.0
 11
1108.435
 21
545.693573333
 31
0.0
  0
LINE
  8
0
  6
CONTINUOUS
 62
     1
 10
1094.635
 20
539.693573333
 30
0.0
 11
1097.635
 21
539.693573333
 31
0.0
  0
LINE
  8
0
  6
CONTINUOUS
 62
     1
 10
1097.635
 20
539.693573333
 30
0.0
 11
1097.635
 21
561.293573333
 31
0.0
  0
LINE
  8
0
  6
CONTINUOUS
 62
     1
 10
1097.635
 20
561.293573333
 30
0.0
 11
1094.635
 21
561.293573333
 31
0.0
  0
LINE
  8
0
  6
CONTINUOUS
 62
     1
 10
1094.635
 20
550.493573333
 30
0.0
 11
1097.635
 21
547.493573333
 31
0.0
  0
LINE
  8
0
  6
CONTINUOUS
 62
     1
 10
1094.635
 20
553.493573333
 30
0.0
 11
1097.635
 21
550.493573333
 31
0.0
  0
LINE
  8
0
  6
CONTINUOUS
 62
     1
 10
1098.635
 20
560.893573333
 30
0.0
 11
1107.435
 21
560.893573333
 31
0.0
  0
LINE
  8
0
  6
CONTINUOUS
 62
     1
 10
1098.635
 20
540.093573333
 30
0.0
 11
1107.435
 21
540.093573333
 31
0.0
  0
LINE
  8
0
  6
CONTINUOUS
 62
     1
 10
1098.635
 20
545.293573333
 30
0.0
 11
1107.435
 21
545.293573333
 31
0.0
  0
LINE
  8
0
  6
CONTINUOUS
 62
     1
 10
1098.635
 20
555.693573333
 30
0.0
 11
1107.435
 21
555.693573333
 31
0.0
  0
LINE
  8
0
  6
CONTINUOUS
 62
     1
 10
1108.435
 20
558.293573333
 30
0.0
 11
1108.435
 21
542.693573333
 31
0.0
  0
ARC
  8
0
  6
CONTINUOUS
 62
     1
 10
1104.535
 20
542.693573333
 30
0.0
 40
3.9
 50
317.9
 51
42.1
  0
ARC
  8
0
  6
CONTINUOUS
 62
     1
 10
1094.435
 20
550.493573333
 30
0.0
 40
14.0
 50
338.2
 51
21.8
  0
ARC
  8
0
  6
CONTINUOUS
 62
     1
 10
1104.535
 20
558.293573333
 30
0.0
 40
3.9
 50
317.9
 51
42.1
  0
ARC
  8
0
  6
CONTINUOUS
 62
     1
 10
1101.535
 20
558.293573333
 30
0.0
 40
3.9
 50
137.9
 51
222.1
  0
ARC
  8
0
  6
CONTINUOUS
 62
     1
 10
1111.635
 20
550.493573333
 30
0.0
 40
14.0
 50
158.2
 51
201.8
  0
ARC
  8
0
  6
CONTINUOUS
 62
     1
 10
1101.535
 20
542.693573333
 30
0.0
 40
3.9
 50
137.9
 51
222.1
  0
CIRCLE
  8
0
  6
CONTINUOUS
 62
     1
 10
1164.635
 20
683.493573333
 30
0.0
 40
28.0
  0
LINE
  8
0
  6
CONTINUOUS
 62
     2
 10
1252.635
 20
720.993573333
 30
0.0
 11
1252.635
 21
645.993573333
 31
0.0
  0
LINE
  8
0
  6
CONTINUOUS
 62
     2
 10
1252.635
 20
645.993573333
 30
0.0
 11
1256.517285677
 21
660.482460728
 31
0.0
  0
LINE
  8
0
  6
CONTINUOUS
 62
     2
 10
1252.635
 20
645.993573333
 30
0.0
 11
1248.752714323
 21
660.482460728
 31
0.0
  0
LINE
  8
0
  6
CONTINUOUS
 62
     2
 10
1281.655
 20
534.493573333
 30
0.0
 11
1284.760828541
 21
546.084683249
 31
0.0
  0
LINE
  8
0
  6
CONTINUOUS
 62
     2
 10
1281.655
 20
534.493573333
 30
0.0
 11
1278.549171459
 21
546.084683249
 31
0.0
  0
LINE
  8
0
  6
CONTINUOUS
 62
     2
 10
1281.655
 20
534.493573333
 30
0.0
 11
1281.655
 21
683.493573333
 31
0.0
  0
TEXT
  8
0
  6
CONTINUOUS
 62
     3
 10
1272.655
 20
584.693573333
 30
0.0
 40
18.0
  1
１４９
 50
90.0
 41
0.9
 51
0.0
  7
KANJI44
  0
CIRCLE
  8
0
  6
CONTINUOUS
 62
     1
 10
1164.635
 20
683.493573333
 30
0.0
 40
15.0
  0
LINE
  8
0
  6
CONTINUOUS
 62
     1
 10
1168.835
 20
664.193573333
 30
0.0
 11
1166.835
 21
663.893573333
 31
0.0
  0
LINE
  8
0
  6
CONTINUOUS
 62
     1
 10
1166.570384615
 20
667.024342564
 30
0.0
 11
1168.835
 21
664.193573333
 31
0.0
  0
LINE
  8
0
  6
CONTINUOUS
 62
     1
 10
1164.635
 20
666.593573333
 30
0.0
 11
1166.835
 21
663.893573333
 31
0.0
  0
LINE
  8
0
  6
CONTINUOUS
 62
     1
 10
1166.335
 20
668.593573333
 30
0.0
 11
1166.570384615
 21
667.024342564
 31
0.0
  0
LINE
  8
0
  6
CONTINUOUS
 62
     1
 10
1164.635
 20
666.593573333
 30
0.0
 11
1162.435
 21
663.893573333
 31
0.0
  0
LINE
  8
0
  6
CONTINUOUS
 62
     1
 10
1162.935
 20
668.593573333
 30
0.0
 11
1162.699615385
 21
667.024342564
 31
0.0
  0
LINE
  8
0
  6
CONTINUOUS
 62
     1
 10
1160.435
 20
664.193573333
 30
0.0
 11
1162.435
 21
663.893573333
 31
0.0
  0
LINE
  8
0
  6
CONTINUOUS
 62
     1
 10
1162.699615385
 20
667.024342564
 30
0.0
 11
1160.435
 21
664.193573333
 31
0.0
  0
TEXT
  8
0
  6
CONTINUOUS
 62
     2
 10
1246.635
 20
666.693573333
 30
1.2
 40
18.0
  1
７５
 50
90.0
 41
0.9
 51
0.0
  7
KANJI45
  0
LINE
  8
0
  6
CONTINUOUS
 62
     1
 10
1199.635
 20
705.993573333
 30
0.0
 11
1184.635
 21
720.993573333
 31
0.0
  0
LINE
  8
0
  6
CONTINUOUS
 62
     2
 10
1193.635
 20
720.993573333
 30
0.0
 11
1261.635
 21
720.993573333
 31
0.0
  0
CIRCLE
  8
0
  6
CONTINUOUS
 62
     1
 10
1164.635
 20
700.993573333
 30
0.0
 40
2.5
  0
LINE
  8
0
  6
CONTINUOUS
 62
     2
 10
1252.635
 20
720.993573333
 30
0.0
 11
1248.752714323
 21
706.504685939
 31
0.0
  0
LINE
  8
0
  6
CONTINUOUS
 62
     2
 10
1252.635
 20
720.993573333
 30
0.0
 11
1256.517285677
 21
706.504685939
 31
0.0
  0
LINE
  8
0
  6
CONTINUOUS
 62
     2
 10
1281.655
 20
683.493573333
 30
0.0
 11
1278.549171459
 21
671.902463418
 31
0.0
  0
LINE
  8
0
  6
CONTINUOUS
 62
     2
 10
1281.655
 20
683.493573333
 30
0.0
 11
1284.760828541
 21
671.902463418
 31
0.0
  0
LINE
  8
0
  6
CONTINUOUS
 62
     2
 10
1252.635
 20
683.493573333
 30
0.0
 11
1287.655
 21
683.493573333
 31
0.0
  0
LINE
  8
0
  6
CONTINUOUS
 62
     2
 10
530.035
 20
407.993573333
 30
0.0
 11
1164.635
 21
407.993573333
 31
0.0
  0
LINE
  8
0
  6
CONTINUOUS
 62
     2
 10
530.035
 20
446.493573333
 30
0.0
 11
1005.635
 21
446.493573333
 31
0.0
  0
LINE
  8
0
  6
CONTINUOUS
 62
     2
 10
1164.635
 20
369.993573333
 30
0.0
 11
305.035
 21
369.993573333
 31
0.0
  0
LINE
  8
0
  6
CONTINUOUS
 62
     2
 10
1094.635
 20
446.493573333
 30
0.0
 11
1080.146112606
 21
450.37585901
 31
0.0
  0
LINE
  8
0
  6
CONTINUOUS
 62
     2
 10
1094.635
 20
446.493573333
 30
0.0
 11
1080.146112606
 21
442.611287657
 31
0.0
  0
LINE
  8
0
  6
CONTINUOUS
 62
     2
 10
1005.635
 20
446.493573333
 30
0.0
 11
991.146112606
 21
450.37585901
 31
0.0
  0
LINE
  8
0
  6
CONTINUOUS
 62
     2
 10
1005.635
 20
446.493573333
 30
0.0
 11
1020.123887394
 21
450.37585901
 31
0.0
  0
TEXT
  8
0
  6
CONTINUOUS
 62
     2
 10
1007.235
 20
452.493573333
 30
1.2
 40
18.0
  1
ｍｉｎ．Ｐ
 50
0.0
 41
0.9
 51
0.0
  7
KANJI45
  0
LINE
  8
0
  6
CONTINUOUS
 62
     2
 10
1005.635
 20
446.493573333
 30
0.0
 11
991.146112606
 21
442.611287657
 31
0.0
  0
LINE
  8
0
  6
CONTINUOUS
 62
     2
 10
1005.635
 20
446.493573333
 30
0.0
 11
1020.123887394
 21
442.611287657
 31
0.0
  0
LINE
  8
0
  6
CONTINUOUS
 62
     2
 10
1005.635
 20
446.493573333
 30
0.0
 11
1094.635
 21
446.493573333
 31
0.0
  0
LINE
  8
0
  6
CONTINUOUS
 62
     2
 10
1164.635
 20
398.993573333
 30
0.0
 11
1164.635
 21
360.993573333
 31
0.0
  0
LINE
  8
0
  6
CONTINUOUS
 62
     2
 10
1164.635
 20
369.993573333
 30
0.0
 11
1150.146112606
 21
373.87585901
 31
0.0
  0
LINE
  8
0
  6
CONTINUOUS
 62
     2
 10
1164.635
 20
369.993573333
 30
0.0
 11
1150.146112606
 21
366.111287657
 31
0.0
  0
LINE
  8
0
  6
CONTINUOUS
 62
     2
 10
1164.635
 20
369.993573333
 30
0.0
 11
1179.123887394
 21
366.111287657
 31
0.0
  0
LINE
  8
0
  6
CONTINUOUS
 62
     2
 10
1164.635
 20
369.993573333
 30
0.0
 11
1179.123887394
 21
373.87585901
 31
0.0
  0
LINE
  8
0
  6
CONTINUOUS
 62
     2
 10
1164.635
 20
369.993573333
 30
0.0
 11
1199.635
 21
369.993573333
 31
0.0
  0
LINE
  8
0
  6
CONTINUOUS
 62
     2
 10
1199.635
 20
369.993573333
 30
0.0
 11
1185.146112606
 21
373.87585901
 31
0.0
  0
LINE
  8
0
  6
CONTINUOUS
 62
     2
 10
1199.635
 20
369.993573333
 30
0.0
 11
1185.146112606
 21
366.111287657
 31
0.0
  0
LINE
  8
0
  6
CONTINUOUS
 62
     2
 10
1094.635
 20
528.293588133
 30
0.0
 11
1094.635
 21
437.493573333
 31
0.0
  0
LINE
  8
0
  6
CONTINUOUS
 62
     2
 10
1094.635
 20
446.493573333
 30
0.0
 11
1109.123887394
 21
442.611287657
 31
0.0
  0
LINE
  8
0
  6
CONTINUOUS
 62
     2
 10
1094.635
 20
446.493573333
 30
0.0
 11
1109.123887394
 21
450.37585901
 31
0.0
  0
LINE
  8
0
  6
CONTINUOUS
 62
     2
 10
1094.635
 20
446.493573333
 30
0.0
 11
1164.635
 21
446.493573333
 31
0.0
  0
LINE
  8
0
  6
CONTINUOUS
 62
     2
 10
1164.635
 20
446.493573333
 30
0.0
 11
1150.146112606
 21
450.37585901
 31
0.0
  0
LINE
  8
0
  6
CONTINUOUS
 62
     2
 10
1164.635
 20
446.493573333
 30
0.0
 11
1150.146112606
 21
442.611287657
 31
0.0
  0
TEXT
  8
0
  6
CONTINUOUS
 62
     2
 10
1112.835
 20
452.493573333
 30
1.2
 40
18.0
  1
７０
 50
0.0
 41
0.9
 51
0.0
  7
KANJI45
  0
LINE
  8
0
  6
CONTINUOUS
 62
     2
 10
1164.635
 20
407.993573333
 30
0.0
 11
1150.146112606
 21
411.87585901
 31
0.0
  0
LINE
  8
0
  6
CONTINUOUS
 62
     2
 10
1164.635
 20
407.993573333
 30
0.0
 11
1150.146112606
 21
404.111287657
 31
0.0
  0
TEXT
  8
0
  6
CONTINUOUS
 62
     2
 10
1165.335
 20
375.993573333
 30
1.2
 40
18.0
  1
３５
 50
0.0
 41
0.9
 51
0.0
  7
KANJI45
  0
TEXT
  8
0
  6
CONTINUOUS
 62
     2
 10
682.735
 20
375.993573333
 30
1.2
 40
18.0
  1
ｍｉｎ．ＡＬ
 50
0.0
 41
0.9
 51
0.0
  7
KANJI45
  0
TEXT
  8
0
  6
CONTINUOUS
 62
     2
 10
759.735
 20
452.493573333
 30
1.2
 40
18.0
  1
Ｃ
 50
0.0
 41
0.9
 51
0.0
  7
KANJI45
  0
TEXT
  8
0
  6
CONTINUOUS
 62
     2
 10
777.435
 20
413.993573333
 30
1.2
 40
18.0
  1
ｍｉｎ．Ｌ
 50
0.0
 41
0.9
 51
0.0
  7
KANJI45
  0
LINE
  8
0
  6
CONTINUOUS
 62
     2
 10
530.035
 20
629.493573333
 30
0.0
 11
530.035
 21
437.493573333
 31
0.0
  0
LINE
  8
0
  6
CONTINUOUS
 62
     2
 10
530.035
 20
446.493573333
 30
0.0
 11
515.546112606
 21
450.37585901
 31
0.0
  0
LINE
  8
0
  6
CONTINUOUS
 62
     2
 10
530.035
 20
446.493573333
 30
0.0
 11
515.546112606
 21
442.611287657
 31
0.0
  0
LINE
  8
0
  6
CONTINUOUS
 62
     2
 10
530.035
 20
446.493573333
 30
0.0
 11
430.035
 21
446.493573333
 31
0.0
  0
LINE
  8
0
  6
CONTINUOUS
 62
     2
 10
430.035
 20
446.493573333
 30
0.0
 11
444.523887394
 21
442.611287657
 31
0.0
  0
LINE
  8
0
  6
CONTINUOUS
 62
     2
 10
430.035
 20
446.493573333
 30
0.0
 11
444.523887394
 21
450.37585901
 31
0.0
  0
LINE
  8
0
  6
CONTINUOUS
 62
     2
 10
430.035
 20
579.493573333
 30
0.0
 11
430.035
 21
437.493573333
 31
0.0
  0
TEXT
  8
0
  6
CONTINUOUS
 62
     2
 10
454.535
 20
452.493573333
 30
1.2
 40
18.0
  1
１００
 50
0.0
 41
0.9
 51
0.0
  7
KANJI45
  0
LINE
  8
0
  6
CONTINUOUS
 62
     2
 10
430.035
 20
446.493573333
 30
0.0
 11
415.546112606
 21
450.37585901
 31
0.0
  0
LINE
  8
0
  6
CONTINUOUS
 62
     2
 10
430.035
 20
446.493573333
 30
0.0
 11
415.546112606
 21
442.611287657
 31
0.0
  0
TEXT
  8
0
  6
CONTINUOUS
 62
     2
 10
341.535
 20
452.493573333
 30
1.2
 40
18.0
  1
１２５
 50
0.0
 41
0.9
 51
0.0
  7
KANJI45
  0
LINE
  8
0
  6
CONTINUOUS
 62
     2
 10
530.035
 20
407.993573333
 30
0.0
 11
515.546112606
 21
411.87585901
 31
0.0
  0
LINE
  8
0
  6
CONTINUOUS
 62
     2
 10
530.035
 20
407.993573333
 30
0.0
 11
515.546112606
 21
404.111287657
 31
0.0
  0
LINE
  8
0
  6
CONTINUOUS
 62
     2
 10
530.035
 20
437.493573333
 30
0.0
 11
530.035
 21
398.993573333
 31
0.0
  0
TEXT
  8
0
  6
CONTINUOUS
 62
     2
 10
391.535
 20
413.993573333
 30
1.2
 40
18.0
  1
２２５
 50
0.0
 41
0.9
 51
0.0
  7
KANJI45
  0
LINE
  8
0
  6
CONTINUOUS
 62
     2
 10
530.035
 20
407.993573333
 30
0.0
 11
544.523887394
 21
404.111287657
 31
0.0
  0
LINE
  8
0
  6
CONTINUOUS
 62
     2
 10
530.035
 20
407.993573333
 30
0.0
 11
544.523887394
 21
411.87585901
 31
0.0
  0
LINE
  8
0
  6
CONTINUOUS
 62
     2
 10
530.035
 20
446.493573333
 30
0.0
 11
544.523887394
 21
442.611287657
 31
0.0
  0
LINE
  8
0
  6
CONTINUOUS
 62
     2
 10
530.035
 20
446.493573333
 30
0.0
 11
544.523887394
 21
450.37585901
 31
0.0
  0
LINE
  8
0
  6
CONTINUOUS
 62
     2
 10
305.035
 20
579.493573333
 30
0.0
 11
305.035
 21
437.493573333
 31
0.0
  0
LINE
  8
0
  6
CONTINUOUS
 62
     2
 10
305.035
 20
446.493573333
 30
0.0
 11
319.523887394
 21
450.37585901
 31
0.0
  0
LINE
  8
0
  6
CONTINUOUS
 62
     2
 10
305.035
 20
446.493573333
 30
0.0
 11
319.523887394
 21
442.611287657
 31
0.0
  0
LINE
  8
0
  6
CONTINUOUS
 62
     2
 10
305.035
 20
437.493573333
 30
0.0
 11
305.035
 21
398.993573333
 31
0.0
  0
LINE
  8
0
  6
CONTINUOUS
 62
     2
 10
305.035
 20
407.993573333
 30
0.0
 11
319.523887394
 21
411.87585901
 31
0.0
  0
LINE
  8
0
  6
CONTINUOUS
 62
     2
 10
305.035
 20
407.993573333
 30
0.0
 11
319.523887394
 21
404.111287657
 31
0.0
  0
LINE
  8
0
  6
CONTINUOUS
 62
     2
 10
305.035
 20
398.993573333
 30
0.0
 11
305.035
 21
360.993573333
 31
0.0
  0
LINE
  8
0
  6
CONTINUOUS
 62
     2
 10
305.035
 20
369.993573333
 30
0.0
 11
319.523887394
 21
373.87585901
 31
0.0
  0
LINE
  8
0
  6
CONTINUOUS
 62
     2
 10
305.035
 20
369.993573333
 30
0.0
 11
319.523887394
 21
366.111287657
 31
0.0
  0
LINE
  8
0
  6
CONTINUOUS
 62
     2
 10
430.035
 20
446.493573333
 30
0.0
 11
305.035
 21
446.493573333
 31
0.0
  0
LINE
  8
0
  6
CONTINUOUS
 62
     2
 10
305.035
 20
407.993573333
 30
0.0
 11
530.035
 21
407.993573333
 31
0.0
  0
LINE
  8
0
  6
CONTINUOUS
 62
     1
 10
654.035
 20
570.993573333
 30
0.0
 11
525.035
 21
570.993573333
 31
0.0
  0
LINE
  8
0
  6
CONTINUOUS
 62
     1
 10
654.035
 20
569.493573333
 30
0.0
 11
525.035
 21
569.493573333
 31
0.0
  0
LINE
  8
0
  6
CONTINUOUS
 62
     1
 10
525.035
 20
564.493573333
 30
0.0
 11
525.035
 21
610.993573333
 31
0.0
  0
ARC
  8
0
  6
CONTINUOUS
 62
     1
 10
526.035
 20
564.493573333
 30
0.0
 40
1.0
 50
180.0
 51
270.0
  0
ARC
  8
0
  6
CONTINUOUS
 62
     1
 10
529.035
 20
563.493573333
 30
0.0
 40
1.0
 50
180.0
 51
270.0
  0
LINE
  8
0
  6
LTYPE1
 62
     2
 10
458.985
 20
582.493573333
 30
0.0
 11
463.485
 21
582.493573333
 31
0.0
  0
LINE
  8
0
  6
LTYPE1
 62
     2
 10
458.985
 20
581.493573333
 30
0.0
 11
463.485
 21
581.493573333
 31
0.0
  0
LINE
  8
0
  6
LTYPE1
 62
     2
 10
458.985
 20
574.493573333
 30
0.0
 11
463.485
 21
574.493573333
 31
0.0
  0
LINE
  8
0
  6
LTYPE1
 62
     2
 10
458.985
 20
575.493573333
 30
0.0
 11
463.485
 21
575.493573333
 31
0.0
  0
LINE
  8
0
  6
LTYPE1
 62
     2
 10
458.985
 20
574.493573333
 30
0.0
 11
458.985
 21
582.493573333
 31
0.0
  0
LINE
  8
0
  6
LTYPE1
 62
     2
 10
470.485
 20
588.293573333
 30
0.0
 11
464.870640646
 21
588.293573333
 31
0.0
  0
LINE
  8
0
  6
LTYPE1
 62
     2
 10
470.485
 20
583.393573333
 30
0.0
 11
464.870640646
 21
583.393573333
 31
0.0
  0
LINE
  8
0
  6
LTYPE1
 62
     2
 10
470.485
 20
568.693573333
 30
0.0
 11
464.870640646
 21
568.693573333
 31
0.0
  0
LINE
  8
0
  6
LTYPE1
 62
     2
 10
470.485
 20
573.593573333
 30
0.0
 11
464.870640646
 21
573.593573333
 31
0.0
  0
LINE
  8
0
  6
LTYPE1
 62
     2
 10
463.485
 20
578.493573333
 30
0.0
 11
463.485
 21
585.893573333
 31
0.0
  0
LINE
  8
0
  6
LTYPE1
 62
     2
 10
463.485
 20
585.893573333
 30
0.0
 11
464.870640646
 21
588.293573333
 31
0.0
  0
LINE
  8
0
  6
LTYPE1
 62
     2
 10
463.485
 20
585.893573333
 30
0.0
 11
464.870640646
 21
588.293573333
 31
0.0
  0
ARC
  8
0
  6
LTYPE1
 62
     2
 10
466.342883832
 20
585.843573333
 30
0.0
 40
2.858321186
 50
177.010501597
 51
238.997686085
  0
LINE
  8
0
  6
LTYPE1
 62
     2
 10
463.485
 20
571.093573333
 30
0.0
 11
464.870640646
 21
568.693573333
 31
0.0
  0
LINE
  8
0
  6
LTYPE1
 62
     2
 10
463.485
 20
578.493573333
 30
0.0
 11
463.485
 21
571.093573333
 31
0.0
  0
ARC
  8
0
  6
LTYPE1
 62
     2
 10
466.342883832
 20
571.143573333
 30
0.0
 40
2.858321186
 50
121.002313915
 51
182.989498403
  0
ARC
  8
0
  6
LTYPE1
 62
     2
 10
472.8416828
 20
578.493573333
 30
0.0
 40
9.3566828
 50
148.419912243
 51
211.580087757
  0
LINE
  8
0
  6
LTYPE1
 62
     2
 10
503.985
 20
537.493573333
 30
0.0
 11
535.985
 21
537.493573333
 31
0.0
  0
LINE
  8
0
  6
LTYPE1
 62
     2
 10
503.985
 20
537.493573333
 30
0.0
 11
503.985
 21
590.493573333
 31
0.0
  0
ARC
  8
0
  6
LTYPE1
 62
     2
 10
503.8416828
 20
550.493573333
 30
0.0
 40
9.3566828
 50
148.419912243
 51
211.580087757
  0
LINE
  8
0
  6
LTYPE1
 62
     2
 10
501.485
 20
540.693573333
 30
0.0
 11
495.870640646
 21
540.693573333
 31
0.0
  0
LINE
  8
0
  6
LTYPE1
 62
     2
 10
494.485
 20
543.093573333
 30
0.0
 11
495.870640646
 21
540.693573333
 31
0.0
  0
LINE
  8
0
  6
LTYPE1
 62
     2
 10
501.485
 20
545.593573333
 30
0.0
 11
495.870640646
 21
545.593573333
 31
0.0
  0
ARC
  8
0
  6
LTYPE1
 62
     2
 10
497.342883832
 20
543.143573333
 30
0.0
 40
2.858321186
 50
121.002313915
 51
182.989498403
  0
LINE
  8
0
  6
LTYPE1
 62
     2
 10
501.485
 20
550.493573333
 30
0.0
 11
501.485
 21
540.693573333
 31
0.0
  0
LINE
  8
0
  6
LTYPE1
 62
     2
 10
503.985
 20
541.293573333
 30
0.0
 11
501.485
 21
541.293573333
 31
0.0
  0
LINE
  8
0
  6
LTYPE1
 62
     2
 10
494.485
 20
550.493573333
 30
0.0
 11
494.485
 21
543.093573333
 31
0.0
  0
LINE
  8
0
  6
LTYPE1
 62
     2
 10
485.985
 20
546.493573333
 30
0.0
 11
494.485
 21
546.493573333
 31
0.0
  0
LINE
  8
0
  6
LTYPE1
 62
     2
 10
485.985
 20
547.493573333
 30
0.0
 11
494.485
 21
547.493573333
 31
0.0
  0
LINE
  8
0
  6
LTYPE1
 62
     2
 10
503.985
 20
550.493573333
 30
0.0
 11
501.485000004
 21
547.993573338
 31
0.0
  0
LINE
  8
0
  6
LTYPE1
 62
     2
 10
501.485
 20
560.293573333
 30
0.0
 11
495.870640646
 21
560.293573333
 31
0.0
  0
LINE
  8
0
  6
LTYPE1
 62
     2
 10
494.485
 20
557.893573333
 30
0.0
 11
495.870640646
 21
560.293573333
 31
0.0
  0
LINE
  8
0
  6
LTYPE1
 62
     2
 10
494.485
 20
557.893573333
 30
0.0
 11
495.870640646
 21
560.293573333
 31
0.0
  0
LINE
  8
0
  6
LTYPE1
 62
     2
 10
494.485
 20
550.493573333
 30
0.0
 11
494.485
 21
557.893573333
 31
0.0
  0
LINE
  8
0
  6
LTYPE1
 62
     2
 10
501.485
 20
555.393573333
 30
0.0
 11
495.870640646
 21
555.393573333
 31
0.0
  0
ARC
  8
0
  6
LTYPE1
 62
     2
 10
497.342883832
 20
557.843573333
 30
0.0
 40
2.858321186
 50
177.010501597
 51
238.997686085
  0
LINE
  8
0
  6
LTYPE1
 62
     2
 10
485.985
 20
554.493573333
 30
0.0
 11
494.485
 21
554.493573333
 31
0.0
  0
LINE
  8
0
  6
LTYPE1
 62
     2
 10
485.985
 20
553.493573333
 30
0.0
 11
494.485
 21
553.493573333
 31
0.0
  0
LINE
  8
0
  6
LTYPE1
 62
     2
 10
503.985
 20
559.693573333
 30
0.0
 11
501.485
 21
559.693573333
 31
0.0
  0
LINE
  8
0
  6
LTYPE1
 62
     2
 10
501.485
 20
550.493573333
 30
0.0
 11
501.485
 21
560.293573333
 31
0.0
  0
LINE
  8
0
  6
LTYPE1
 62
     2
 10
501.485000004
 20
550.493573333
 30
0.0
 11
503.985
 21
552.993573329
 31
0.0
  0
LINE
  8
0
  6
LTYPE1
 62
     2
 10
503.985
 20
572.493573333
 30
0.0
 11
535.985
 21
572.493573333
 31
0.0
  0
LINE
  8
0
  6
LTYPE1
 62
     2
 10
535.985
 20
590.493573333
 30
0.0
 11
503.985
 21
590.493573333
 31
0.0
  0
LINE
  8
0
  6
LTYPE1
 62
     2
 10
535.985
 20
584.493573333
 30
0.0
 11
503.985
 21
584.493573333
 31
0.0
  0
LINE
  8
0
  6
LTYPE1
 62
     2
 10
503.985
 20
582.493573333
 30
0.0
 11
508.985
 21
582.493573333
 31
0.0
  0
LINE
  8
0
  6
LTYPE1
 62
     2
 10
503.985
 20
581.493573333
 30
0.0
 11
508.985
 21
581.493573333
 31
0.0
  0
LINE
  8
0
  6
LTYPE1
 62
     2
 10
503.985
 20
574.493573333
 30
0.0
 11
508.985
 21
574.493573333
 31
0.0
  0
LINE
  8
0
  6
LTYPE1
 62
     2
 10
503.985
 20
575.493573333
 30
0.0
 11
508.985
 21
575.493573333
 31
0.0
  0
LINE
  8
0
  6
LTYPE1
 62
     2
 10
508.985
 20
572.493573333
 30
0.0
 11
508.985
 21
584.493573333
 31
0.0
  0
LINE
  8
0
  6
LTYPE6
 62
     2
 10
525.452498621
 20
582.093573333
 30
0.0
 11
525.452498621
 21
595.493573333
 31
0.0
  0
LINE
  8
0
  6
LTYPE1
 62
     2
 10
485.985
 20
546.493573333
 30
0.0
 11
485.985
 21
554.493573333
 31
0.0
  0
LINE
  8
0
  6
LTYPE1
 62
     2
 10
472.985
 20
565.493573333
 30
0.0
 11
488.985
 21
565.493573333
 31
0.0
  0
LINE
  8
0
  6
LTYPE3
 62
     2
 10
491.985
 20
578.493573333
 30
0.0
 11
503.485
 21
578.493573333
 31
0.0
  0
LINE
  8
0
  6
LTYPE1
 62
     2
 10
496.485
 20
582.493573333
 30
0.0
 11
503.985
 21
582.493573333
 31
0.0
  0
LINE
  8
0
  6
LTYPE1
 62
     2
 10
496.485
 20
581.493573333
 30
0.0
 11
503.985
 21
581.493573333
 31
0.0
  0
LINE
  8
0
  6
LTYPE1
 62
     2
 10
488.985
 20
568.093573333
 30
0.0
 11
495.485
 21
568.093573333
 31
0.0
  0
ARC
  8
0
  6
LTYPE1
 62
     2
 10
492.585
 20
570.693573333
 30
0.0
 40
3.9
 50
317.9
 51
42.1
  0
LINE
  8
0
  6
LTYPE1
 62
     2
 10
488.985
 20
573.293573333
 30
0.0
 11
495.485
 21
573.293573333
 31
0.0
  0
LINE
  8
0
  6
LTYPE1
 62
     2
 10
496.485
 20
575.493573333
 30
0.0
 11
503.985
 21
575.493573333
 31
0.0
  0
LINE
  8
0
  6
LTYPE1
 62
     2
 10
496.485
 20
574.493573333
 30
0.0
 11
503.985
 21
574.493573333
 31
0.0
  0
LINE
  8
0
  6
LTYPE1
 62
     2
 10
488.985
 20
565.493573333
 30
0.0
 11
488.985
 21
592.493573333
 31
0.0
  0
LINE
  8
0
  6
LTYPE1
 62
     2
 10
488.985
 20
588.893573333
 30
0.0
 11
488.985
 21
568.093573333
 31
0.0
  0
ARC
  8
0
  6
LTYPE1
 62
     2
 10
482.485
 20
578.493573333
 30
0.0
 40
14.0
 50
338.2
 51
21.8
  0
LINE
  8
0
  6
LTYPE1
 62
     2
 10
496.485
 20
570.693573333
 30
0.0
 11
496.485
 21
586.293573333
 31
0.0
  0
LINE
  8
0
  6
LTYPE1
 62
     2
 10
488.985
 20
588.893573333
 30
0.0
 11
495.485
 21
588.893573333
 31
0.0
  0
ARC
  8
0
  6
LTYPE1
 62
     2
 10
492.585
 20
586.293573333
 30
0.0
 40
3.9
 50
317.9
 51
42.1
  0
LINE
  8
0
  6
LTYPE1
 62
     2
 10
495.485
 20
583.693573333
 30
0.0
 11
488.985
 21
583.693573333
 31
0.0
  0
LINE
  8
0
  6
LTYPE1
 62
     2
 10
484.73203
 20
598.493573333
 30
0.0
 11
484.73203
 21
602.933873931
 31
0.0
  0
LINE
  8
0
  6
LTYPE1
 62
     2
 10
488.47906
 20
598.493573333
 30
0.0
 11
488.47906
 21
602.933873931
 31
0.0
  0
ARC
  8
0
  6
LTYPE1
 62
     2
 10
480.985
 20
596.838417996
 30
0.0
 40
7.155055337
 50
58.419912243
 51
121.580087757
  0
LINE
  8
0
  6
LTYPE1
 62
     2
 10
486.64378
 20
603.993473333
 30
0.0
 11
488.47906
 21
602.933873931
 31
0.0
  0
LINE
  8
0
  6
LTYPE1
 62
     2
 10
480.985
 20
603.993473333
 30
0.0
 11
486.64378
 21
603.993473333
 31
0.0
  0
LINE
  8
0
  6
LTYPE1
 62
     2
 10
486.64378
 20
603.993473333
 30
0.0
 11
488.47906
 21
602.933873931
 31
0.0
  0
ARC
  8
0
  6
LTYPE1
 62
     2
 10
486.605545
 20
601.808049567
 30
0.0
 40
2.185758211
 50
87.010501597
 51
148.997686085
  0
LINE
  8
0
  6
LTYPE1
 62
     2
 10
480.985
 20
588.493573333
 30
0.0
 11
480.985
 21
604.493573333
 31
0.0
  0
LINE
  8
0
  6
LTYPE1
 62
     2
 10
480.985
 20
603.993473333
 30
0.0
 11
475.32622
 21
603.993473333
 31
0.0
  0
ARC
  8
0
  6
LTYPE1
 62
     2
 10
475.364455
 20
601.808049567
 30
0.0
 40
2.185758211
 50
31.002313915
 51
92.989498403
  0
LINE
  8
0
  6
LTYPE1
 62
     2
 10
477.23797
 20
598.493573333
 30
0.0
 11
477.23797
 21
602.933873931
 31
0.0
  0
LINE
  8
0
  6
LTYPE1
 62
     2
 10
470.485
 20
578.493573333
 30
0.0
 11
470.485
 21
588.293573333
 31
0.0
  0
LINE
  8
0
  6
LTYPE1
 62
     2
 10
472.985
 20
587.693573333
 30
0.0
 11
470.485
 21
587.693573333
 31
0.0
  0
LINE
  8
0
  6
LTYPE1
 62
     2
 10
470.485000004
 20
578.493573333
 30
0.0
 11
472.985
 21
580.993573329
 31
0.0
  0
LINE
  8
0
  6
LTYPE1
 62
     2
 10
470.485
 20
578.493573333
 30
0.0
 11
470.485
 21
568.693573333
 31
0.0
  0
LINE
  8
0
  6
LTYPE1
 62
     2
 10
472.985
 20
578.493573333
 30
0.0
 11
470.485000004
 21
575.993573338
 31
0.0
  0
LINE
  8
0
  6
LTYPE1
 62
     2
 10
472.985
 20
569.293573333
 30
0.0
 11
470.485
 21
569.293573333
 31
0.0
  0
LINE
  8
0
  6
LTYPE1
 62
     2
 10
472.985
 20
565.493573333
 30
0.0
 11
472.985
 21
598.493573333
 31
0.0
  0
LINE
  8
0
  6
LTYPE1
 62
     2
 10
475.32622
 20
603.993473333
 30
0.0
 11
473.49094
 21
602.933873931
 31
0.0
  0
LINE
  8
0
  6
LTYPE1
 62
     2
 10
473.49094
 20
598.493573333
 30
0.0
 11
473.49094
 21
602.933873931
 31
0.0
  0
LINE
  8
0
  6
LTYPE2
 62
     2
 10
556.985
 20
540.493573333
 30
0.0
 11
556.985
 21
560.493573333
 31
0.0
  0
CIRCLE
  8
0
  6
CONTINUOUS
 62
     2
 10
556.985
 20
550.493573333
 30
0.0
 40
5.0
  0
CIRCLE
  8
0
  6
CONTINUOUS
 62
     2
 10
556.985
 20
550.493573333
 30
0.0
 40
4.0
  0
LINE
  8
0
  6
LTYPE1
 62
     2
 10
535.985
 20
537.493573333
 30
0.0
 11
535.985
 21
590.493573333
 31
0.0
  0
LINE
  8
0
  6
LTYPE6
 62
     2
 10
476.942883832
 20
555.093573333
 30
0.0
 11
476.942883832
 21
568.493573333
 31
0.0
  0
LINE
  8
0
  6
CONTINUOUS
 62
     1
 10
522.485
 20
559.043573333
 30
0.0
 11
522.485
 21
543.043573333
 31
0.0
  0
LINE
  8
0
  6
CONTINUOUS
 62
     1
 10
522.485
 20
543.043573333
 30
0.0
 11
535.985
 21
543.043573333
 31
0.0
  0
LINE
  8
0
  6
CONTINUOUS
 62
     1
 10
544.635
 20
534.493573333
 30
0.0
 11
544.635
 21
566.493573333
 31
0.0
  0
LINE
  8
0
  6
CONTINUOUS
 62
     1
 10
535.985
 20
539.493573333
 30
0.0
 11
544.645254038
 21
534.493573333
 31
0.0
  0
LINE
  8
0
  6
CONTINUOUS
 62
     1
 10
544.635
 20
534.493573333
 30
0.0
 11
569.335
 21
534.493573333
 31
0.0
  0
LINE
  8
0
  6
CONTINUOUS
 62
     1
 10
535.985
 20
539.493573333
 30
0.0
 11
535.985
 21
561.493573333
 31
0.0
  0
LINE
  8
0
  6
CONTINUOUS
 62
     1
 10
522.485
 20
559.043573333
 30
0.0
 11
535.985
 21
559.043573333
 31
0.0
  0
LINE
  8
0
  6
CONTINUOUS
 62
     1
 10
535.985
 20
561.493573333
 30
0.0
 11
544.645254038
 21
566.493573333
 31
0.0
  0
LINE
  8
0
  6
CONTINUOUS
 62
     1
 10
544.635
 20
566.493573333
 30
0.0
 11
569.335
 21
566.493573333
 31
0.0
  0
LINE
  8
0
  6
CONTINUOUS
 62
     1
 10
539.4150004
 20
563.493573333
 30
0.0
 11
526.035
 21
563.493573333
 31
0.0
  0
LINE
  8
0
  6
LTYPE6
 62
     2
 10
533.7150004
 20
555.093573333
 30
0.0
 11
533.7150004
 21
568.493573333
 31
0.0
  0
LINE
  8
0
  6
CONTINUOUS
 62
     1
 10
537.7150004
 20
562.493573333
 30
0.0
 11
529.135
 21
562.493573333
 31
0.0
  0
ARC
  8
0
  6
CONTINUOUS
 62
     1
 10
533.3150004
 20
563.493573333
 30
0.0
 40
5.0
 50
191.5
 51
242.667562782
  0
LINE
  8
0
  6
CONTINUOUS
 62
     1
 10
654.035
 20
564.493573333
 30
0.0
 11
654.035
 21
609.993573333
 31
0.0
  0
ARC
  8
0
  6
CONTINUOUS
 62
     1
 10
653.035
 20
564.493573333
 30
0.0
 40
1.0
 50
270.0
 51
0.0
  0
LINE
  8
0
  6
CONTINUOUS
 62
     1
 10
651.035
 20
563.493573333
 30
0.0
 11
651.035
 21
563.493573333
 31
0.0
  0
ARC
  8
0
  6
CONTINUOUS
 62
     1
 10
650.035
 20
563.493573333
 30
0.0
 40
1.0
 50
270.0
 51
0.0
  0
LINE
  8
0
  6
LTYPE2
 62
     2
 10
660.235
 20
587.993573333
 30
0.0
 11
640.535
 21
587.993573333
 31
0.0
  0
LINE
  8
0
  6
LTYPE1
 62
     2
 10
654.035
 20
597.293573333
 30
0.0
 11
644.035
 21
597.293573333
 31
0.0
  0
LINE
  8
0
  6
LTYPE1
 62
     2
 10
654.035
 20
598.493573333
 30
0.0
 11
644.035
 21
598.493573333
 31
0.0
  0
LINE
  8
0
  6
LTYPE1
 62
     2
 10
654.035
 20
578.693573333
 30
0.0
 11
644.035
 21
578.693573333
 31
0.0
  0
LINE
  8
0
  6
LTYPE1
 62
     2
 10
654.035
 20
577.493573333
 30
0.0
 11
644.035
 21
577.493573333
 31
0.0
  0
LINE
  8
0
  6
LTYPE2
 62
     2
 10
602.509992096
 20
587.993573333
 30
0.0
 11
582.809992096
 21
587.993573333
 31
0.0
  0
LINE
  8
0
  6
LTYPE1
 62
     2
 10
596.309992096
 20
598.493573333
 30
0.0
 11
586.309992096
 21
598.493573333
 31
0.0
  0
LINE
  8
0
  6
LTYPE1
 62
     2
 10
596.309992096
 20
578.693573333
 30
0.0
 11
586.309992096
 21
578.693573333
 31
0.0
  0
LINE
  8
0
  6
LTYPE6
 62
     2
 10
587.042883832
 20
555.093573333
 30
0.0
 11
587.042883832
 21
568.493573333
 31
0.0
  0
LINE
  8
0
  6
CONTINUOUS
 62
     1
 10
577.985
 20
539.493573333
 30
0.0
 11
577.985
 21
561.493573333
 31
0.0
  0
LINE
  8
0
  6
CONTINUOUS
 62
     1
 10
577.985
 20
539.493573333
 30
0.0
 11
569.324745962
 21
534.493573333
 31
0.0
  0
LINE
  8
0
  6
CONTINUOUS
 62
     1
 10
577.985
 20
561.493573333
 30
0.0
 11
569.324745962
 21
566.493573333
 31
0.0
  0
LINE
  8
0
  6
CONTINUOUS
 62
     1
 10
653.035
 20
563.493573333
 30
0.0
 11
574.2650004
 21
563.493573333
 31
0.0
  0
LINE
  8
0
  6
CONTINUOUS
 62
     1
 10
650.035
 20
562.493573333
 30
0.0
 11
575.8650004
 21
562.493573333
 31
0.0
  0
LINE
  8
0
  6
CONTINUOUS
 62
     1
 10
649.9150004
 20
562.493573333
 30
0.0
 11
639.3150004
 21
562.493573333
 31
0.0
  0
ARC
  8
0
  6
CONTINUOUS
 62
     1
 10
645.0150004
 20
563.493573333
 30
0.0
 40
5.0
 50
272.3
 51
348.5
  0
ARC
  8
0
  6
CONTINUOUS
 62
     1
 10
644.2150004
 20
563.493573333
 30
0.0
 40
5.0
 50
191.5
 51
267.7
  0
LINE
  8
0
  6
CONTINUOUS
 62
     1
 10
645.2150004
 20
558.493573333
 30
0.0
 11
644.0150004
 21
558.493573333
 31
0.0
  0
LINE
  8
0
  6
LTYPE6
 62
     2
 10
644.6150004
 20
555.093573333
 30
0.0
 11
644.6150004
 21
568.493573333
 31
0.0
  0
LINE
  8
0
  6
CONTINUOUS
 62
     1
 10
569.335
 20
534.493573333
 30
0.0
 11
569.335
 21
566.493573333
 31
0.0
  0
LINE
  8
0
  6
CONTINUOUS
 62
     1
 10
615.035
 20
612.993573333
 30
0.0
 11
651.035
 21
612.993573333
 31
0.0
  0
ARC
  8
0
  6
CONTINUOUS
 62
     1
 10
651.035
 20
609.993573333
 30
0.0
 40
3.0
 50
0.0
 51
90.0
  0
TEXT
  8
0
  6
CONTINUOUS
 62
     2
 10
1430.135
 20
720.993573333
 30
1.2
 40
18.0
  1
φ３０Ｈ１０深３５
 50
90.0
 41
0.9
 51
0.0
  7
KANJI45
  0
LINE
  8
0
  6
CONTINUOUS
 62
     2
 10
1436.135
 20
645.993573333
 30
0.0
 11
1436.135
 21
880.493573333
 31
0.0
  0
LINE
  8
0
  6
CONTINUOUS
 62
     2
 10
1502.0899928
 20
795.538580533
 30
0.0
 11
1455.9699928
 21
968.738580533
 31
0.0
  0
LINE
  8
0
  6
CONTINUOUS
 62
     2
 10
1455.9699928
 20
968.738580533
 30
0.0
 11
1326.3699928
 21
968.738580533
 31
0.0
  0
TEXT
  8
0
  6
CONTINUOUS
 62
     3
 10
1326.3699928
 20
977.738580533
 30
0.0
 40
18.0
  1
外部ＬＳ組付位置
 50
0.0
 41
0.9
 51
0.0
  7
KANJI44
  0
LINE
  8
0
  6
CONTINUOUS
 62
     2
 10
1436.135
 20
698.493573333
 30
0.0
 11
1432.252714323
 21
712.982460728
 31
0.0
  0
LINE
  8
0
  6
CONTINUOUS
 62
     2
 10
1436.135
 20
698.493573333
 30
0.0
 11
1440.017285677
 21
712.982460728
 31
0.0
  0
LINE
  8
0
  6
CONTINUOUS
 62
     2
 10
1436.135
 20
668.493573333
 30
0.0
 11
1432.252714323
 21
654.004685939
 31
0.0
  0
LINE
  8
0
  6
CONTINUOUS
 62
     2
 10
1436.135
 20
668.493573333
 30
0.0
 11
1440.017285677
 21
654.004685939
 31
0.0
  0
LINE
  8
0
  6
CONTINUOUS
 62
     2
 10
1495.135
 20
668.493573333
 30
0.0
 11
1431.135
 21
668.493573333
 31
0.0
  0
LINE
  8
0
  6
CONTINUOUS
 62
     2
 10
1498.512633636
 20
698.493573333
 30
0.0
 11
1431.135
 21
698.493573333
 31
0.0
  0
LINE
  8
0
  6
CONTINUOUS
 62
     1
 10
1465.642575951
 20
721.677339517
 30
0.0
 11
1493.926847198
 21
693.39306827
 31
0.0
  0
LINE
  8
0
  6
LTYPE3
 62
     2
 10
1499.795833482
 20
694.453728442
 30
0.0
 11
1466.561814766
 21
727.687747157
 31
0.0
  0
LINE
  8
0
  6
CONTINUOUS
 62
     1
 10
1482.259585309
 20
715.384089165
 30
0.0
 11
1497.391670426
 21
700.252004047
 31
0.0
  0
LINE
  8
0
  6
LTYPE3
 62
     2
 10
1468.046739007
 20
747.557447709
 30
0.0
 11
1509.058932316
 21
706.5452544
 31
0.0
  0
LINE
  8
0
  6
CONTINUOUS
 62
     1
 10
1465.28902256
 20
739.708562438
 30
0.0
 11
1484.522327009
 21
720.475257989
 31
0.0
  0
LINE
  8
0
  6
CONTINUOUS
 62
     1
 10
1478.016944622
 20
726.980640376
 30
0.0
 11
1469.178109857
 21
718.141805611
 31
0.0
  0
LINE
  8
0
  6
CONTINUOUS
 62
     1
 10
1497.391670426
 20
733.344601407
 30
0.0
 11
1482.259585309
 21
718.21251629
 31
0.0
  0
ARC
  8
0
  6
CONTINUOUS
 62
     1
 10
1483.673798871
 20
716.798302727
 30
0.0
 40
2.0
 50
135.0
 51
225.0
  0
LINE
  8
0
  6
CONTINUOUS
 62
     1
 10
1500.136128621
 20
774.555668498
 30
0.0
 11
1465.28902256
 21
739.708562438
 31
0.0
  0
LINE
  8
0
  6
CONTINUOUS
 62
     1
 10
1482.96669209
 20
743.244096344
 30
0.0
 11
1472.360090372
 21
732.637494626
 31
0.0
  0
LINE
  8
0
  6
CONTINUOUS
 62
     1
 10
1475.895624278
 20
750.315164155
 30
0.0
 11
1495.128928726
 21
731.081859707
 31
0.0
  0
LINE
  8
0
  6
CONTINUOUS
 62
     1
 10
1491.805526855
 20
752.082931108
 30
0.0
 11
1482.96669209
 21
743.244096344
 31
0.0
  0
LINE
  8
0
  6
CONTINUOUS
 62
     1
 10
1493.926847198
 20
749.961610765
 30
0.0
 11
1485.088012433
 21
741.122776
 31
0.0
  0
LINE
  8
0
  6
CONTINUOUS
 62
     1
 10
1474.410700038
 20
730.445463604
 30
0.0
 11
1465.642575951
 21
721.677339517
 31
0.0
  0
LINE
  8
0
  6
CONTINUOUS
 62
     2
 10
1464.135
 20
714.334581538
 30
0.0
 11
1464.135
 21
532.011287657
 31
0.0
  0
LINE
  8
0
  6
CONTINUOUS
 62
     2
 10
1464.135
 20
538.011287657
 30
0.0
 11
1475.726109915
 21
534.905459116
 31
0.0
  0
LINE
  8
0
  6
CONTINUOUS
 62
     2
 10
1464.135
 20
538.011287657
 30
0.0
 11
1475.726109915
 21
541.117116198
 31
0.0
  0
LINE
  8
0
  6
CONTINUOUS
 62
     2
 10
1464.135
 20
538.011287657
 30
0.0
 11
1614.135
 21
538.011287657
 31
0.0
  0
LINE
  8
0
  6
CONTINUOUS
 62
     2
 10
1600.2349522
 20
562.493573333
 30
0.0
 11
1472.5849522
 21
442.543573333
 31
0.0
  0
TEXT
  8
0
  6
CONTINUOUS
 62
     3
 10
1402.235
 20
493.193573333
 30
0.0
 40
18.0
  1
ＰＦ１／２
 50
0.0
 41
0.9
 51
0.0
  7
KANJI44
  0
LINE
  8
0
  6
CONTINUOUS
 62
     2
 10
1483.235
 20
484.193573333
 30
0.0
 11
1398.1349384
 21
484.193573333
 31
0.0
  0
TEXT
  8
0
  6
CONTINUOUS
 62
     3
 10
1375.3849522
 20
451.543573333
 30
0.0
 40
18.0
  1
推力リミッタ
 50
0.0
 41
0.9
 51
0.0
  7
KANJI44
  0
LINE
  8
0
  6
CONTINUOUS
 62
     2
 10
1472.5849522
 20
442.543573333
 30
0.0
 11
1375.3849522
 21
442.543573333
 31
0.0
  0
LINE
  8
0
  6
CONTINUOUS
 62
     2
 10
1600.2349522
 20
562.493573333
 30
0.0
 11
1593.914822051
 21
552.29279126
 31
0.0
  0
LINE
  8
0
  6
CONTINUOUS
 62
     2
 10
1600.2349522
 20
562.493573333
 30
0.0
 11
1589.6611679
 21
556.819501994
 31
0.0
  0
LINE
  8
0
  6
CONTINUOUS
 62
     2
 10
1614.135
 20
538.011287657
 30
0.0
 11
1602.543890085
 21
541.117116198
 31
0.0
  0
LINE
  8
0
  6
CONTINUOUS
 62
     2
 10
1614.135
 20
538.011287657
 30
0.0
 11
1602.543890085
 21
534.905459116
 31
0.0
  0
TEXT
  8
0
  6
CONTINUOUS
 62
     3
 10
1509.185
 20
547.011287657
 30
0.0
 40
18.0
  1
１５０
 50
0.0
 41
0.9
 51
0.0
  7
KANJI44
  0
LINE
  8
0
  6
CONTINUOUS
 62
     1
 10
1527.299212893
 20
718.28015259
 30
0.0
 11
1494.98750737
 21
685.968447067
 31
0.0
  0
LINE
  8
0
  6
CONTINUOUS
 62
     1
 10
1493.926847198
 20
693.39306827
 30
0.0
 11
1493.997557876
 21
693.322357592
 31
0.0
  0
LINE
  8
0
  6
CONTINUOUS
 62
     1
 10
1490.744866683
 20
690.211087755
 30
0.0
 11
1494.98750737
 21
685.968447067
 31
0.0
  0
LINE
  8
0
  6
CONTINUOUS
 62
     1
 10
1524.624504634
 20
724.090725705
 30
0.0
 11
1493.926847198
 21
693.39306827
 31
0.0
  0
LINE
  8
0
  6
CONTINUOUS
 62
     1
 10
1490.744866683
 20
690.211087755
 30
0.0
 11
1524.624504634
 21
724.090725705
 31
0.0
  0
LINE
  8
0
  6
LTYPE1
 62
     2
 10
1504.135
 20
713.493573333
 30
0.0
 11
1556.135
 21
717.302996391
 31
0.0
  0
LINE
  8
0
  6
CONTINUOUS
 62
     1
 10
1515.352182668
 20
715.384089165
 30
0.0
 11
1500.220097551
 21
700.252004047
 31
0.0
  0
ARC
  8
0
  6
CONTINUOUS
 62
     1
 10
1498.805883988
 20
701.66621761
 30
0.0
 40
2.0
 50
225.0
 51
315.0
  0
LINE
  8
0
  6
LTYPE1
 62
     2
 10
1504.135
 20
695.115939697
 30
0.0
 11
1504.135
 21
713.493573333
 31
0.0
  0
LINE
  8
0
  6
CONTINUOUS
 62
     1
 10
1500.290808229
 20
776.124561669
 30
0.0
 11
1552.263156646
 21
664.048136851
 31
0.0
  0
LINE
  8
0
  6
LTYPE3
 62
     2
 10
1488.623546339
 20
748.335265168
 30
0.0
 11
1521.857565055
 21
715.101246452
 31
0.0
  0
LINE
  8
0
  6
CONTINUOUS
 62
     1
 10
1522.211118446
 20
721.677339517
 30
0.0
 11
1493.926847198
 21
749.961610765
 31
0.0
  0
LINE
  8
0
  6
CONTINUOUS
 62
     1
 10
1497.462381104
 20
746.426076859
 30
0.0
 11
1488.552835661
 21
737.516531416
 31
0.0
  0
LINE
  8
0
  6
CONTINUOUS
 62
     1
 10
1496.86134034
 20
760.108593075
 30
0.0
 11
1491.805526855
 21
752.082931108
 31
0.0
  0
LINE
  8
0
  6
LTYPE4
 62
     2
 10
1501.846443148
 20
759.295420277
 30
0.0
 11
1537.201782207
 21
794.650759336
 31
0.0
  0
ARC
  8
0
  6
LTYPE1
 62
     1
 10
1520.089798102
 20
777.538775231
 30
0.0
 40
16.0
 50
225.0
 51
99.340912304
  0
ARC
  8
0
  6
CONTINUOUS
 62
     1
 10
1520.089798102
 20
777.538775231
 30
0.0
 40
16.0
 50
99.340912304
 51
170.659087696
  0
LINE
  8
0
  6
CONTINUOUS
 62
     1
 10
1504.555546003
 20
767.661377381
 30
0.0
 11
1496.932051018
 21
760.037882397
 31
0.0
  0
LINE
  8
0
  6
LTYPE3
 62
     2
 10
1496.613852967
 20
772.730449119
 30
0.0
 11
1510.190303166
 21
759.15399892
 31
0.0
  0
LINE
  8
0
  6
LTYPE1
 62
     2
 10
1509.65997308
 20
772.058697677
 30
0.0
 11
1514.609720548
 21
767.108950209
 31
0.0
  0
ARC
  8
0
  6
LTYPE1
 62
     1
 10
1520.089798102
 20
777.538775231
 30
0.0
 40
16.0
 50
170.659087696
 51
225.0
  0
LINE
  8
0
  6
LTYPE1
 62
     1
 10
1500.99791501
 20
775.417454888
 30
0.0
 11
1500.136128621
 21
774.555668498
 31
0.0
  0
LINE
  8
0
  6
LTYPE1
 62
     1
 10
1506.65476926
 20
769.760600638
 30
0.0
 11
1504.555546003
 21
767.661377381
 31
0.0
  0
CIRCLE
  8
0
  6
CONTINUOUS
 62
     1
 10
1520.089798102
 20
777.538775231
 30
0.0
 40
6.49995
  0
LINE
  8
0
  6
CONTINUOUS
 62
     1
 10
1518.143189702
 20
770.293066186
 30
0.0
 11
1512.844089058
 21
775.592166831
 31
0.0
  0
LINE
  8
0
  6
CONTINUOUS
 62
     1
 10
1512.844089058
 20
775.592166831
 30
0.0
 11
1514.790697458
 21
782.837875876
 31
0.0
  0
LINE
  8
0
  6
CONTINUOUS
 62
     1
 10
1507.388776842
 20
769.78750144
 30
0.0
 11
1497.285604409
 21
759.684329006
 31
0.0
  0
LINE
  8
0
  6
LTYPE1
 62
     2
 10
1509.65997308
 20
772.058697677
 30
0.0
 11
1507.388776842
 21
769.78750144
 31
0.0
  0
LINE
  8
0
  6
CONTINUOUS
 62
     1
 10
1497.285604409
 20
759.684329006
 30
0.0
 11
1502.235351877
 21
754.734581538
 31
0.0
  0
LINE
  8
0
  6
LTYPE1
 62
     2
 10
1514.609720548
 20
767.108950209
 30
0.0
 11
1509.284322602
 21
761.783552263
 31
0.0
  0
CIRCLE
  8
0
  6
LTYPE1
 62
     2
 10
1520.089798102
 20
777.538775231
 30
0.0
 40
3.2
  0
CIRCLE
  8
0
  6
CONTINUOUS
 62
     1
 10
1520.089798102
 20
777.538775231
 30
0.0
 40
4.0
  0
LINE
  8
0
  6
CONTINUOUS
 62
     1
 10
1500.290808229
 20
776.124561669
 30
0.0
 11
1521.504011665
 21
797.337765104
 31
0.0
  0
LINE
  8
0
  6
LTYPE1
 62
     1
 10
1500.290808229
 20
776.124561669
 30
0.0
 11
1508.010057257
 21
768.405312641
 31
0.0
  0
LINE
  8
0
  6
LTYPE4
 62
     2
 10
1496.806179606
 20
800.822393728
 30
0.0
 11
1631.4237608
 21
666.204812533
 31
0.0
  0
LINE
  8
0
  6
CONTINUOUS
 62
     1
 10
1507.683426754
 20
760.182656414
 30
0.0
 11
1502.235351877
 21
754.734581538
 31
0.0
  0
LINE
  8
0
  6
CONTINUOUS
 62
     1
 10
1518.143189702
 20
770.293066186
 30
0.0
 11
1525.388898747
 21
772.239674587
 31
0.0
  0
LINE
  8
0
  6
CONTINUOUS
 62
     1
 10
1527.335507147
 20
779.485383631
 30
0.0
 11
1522.036406502
 21
784.784484276
 31
0.0
  0
LINE
  8
0
  6
LTYPE3
 62
     2
 10
1488.835678374
 20
706.828097112
 30
0.0
 11
1508.917510959
 21
726.909929698
 31
0.0
  0
ARC
  8
0
  6
CONTINUOUS
 62
     1
 10
1498.805883988
 20
731.930387845
 30
0.0
 40
2.0
 50
45.0
 51
135.0
  0
LINE
  8
0
  6
CONTINUOUS
 62
     1
 10
1500.220097551
 20
733.344601407
 30
0.0
 11
1515.352182668
 21
718.21251629
 31
0.0
  0
ARC
  8
0
  6
CONTINUOUS
 62
     1
 10
1513.937969106
 20
716.798302727
 30
0.0
 40
2.0
 50
315.0
 51
45.0
  0
LINE
  8
0
  6
CONTINUOUS
 62
     1
 10
1518.428097166
 20
708.489798048
 30
0.0
 11
1527.464281776
 21
717.525982658
 31
0.0
  0
LINE
  8
0
  6
CONTINUOUS
 62
     1
 10
1518.428097166
 20
708.489798048
 30
0.0
 11
1538.22708704
 21
688.690808175
 31
0.0
  0
LINE
  8
0
  6
CONTINUOUS
 62
     2
 10
1502.0899928
 20
795.538580533
 30
0.0
 11
1502.108669444
 21
807.538565999
 31
0.0
  0
LINE
  8
0
  6
CONTINUOUS
 62
     2
 10
1502.0899928
 20
795.538580533
 30
0.0
 11
1496.106174515
 21
805.940211114
 31
0.0
  0
LINE
  8
0
  6
CONTINUOUS
 62
     1
 10
1522.036406502
 20
784.784484276
 30
0.0
 11
1514.790697458
 21
782.837875876
 31
0.0
  0
LINE
  8
0
  6
CONTINUOUS
 62
     1
 10
1527.335507147
 20
779.485383631
 30
0.0
 11
1525.388898747
 21
772.239674587
 31
0.0
  0
LINE
  8
0
  6
LTYPE1
 62
     2
 10
1525.569875656
 20
787.968600254
 30
0.0
 11
1530.519623125
 21
783.018852785
 31
0.0
  0
LINE
  8
0
  6
LTYPE1
 62
     2
 10
1535.84502107
 20
788.344250731
 30
0.0
 11
1530.519623125
 21
783.018852785
 31
0.0
  0
LINE
  8
0
  6
LTYPE1
 62
     1
 10
1531.403506601
 20
787.438270168
 30
0.0
 11
1532.265292991
 21
788.300056557
 31
0.0
  0
LINE
  8
0
  6
CONTINUOUS
 62
     1
 10
1521.504011665
 20
797.337765104
 30
0.0
 11
1633.580436483
 21
745.365416687
 31
0.0
  0
LINE
  8
0
  6
LTYPE3
 62
     2
 10
1523.201067939
 20
802.711776641
 30
0.0
 11
1538.474574413
 21
787.438270168
 31
0.0
  0
LINE
  8
0
  6
CONTINUOUS
 62
     1
 10
1537.944244327
 20
800.342968924
 30
0.0
 11
1527.841071894
 21
790.239796491
 31
0.0
  0
LINE
  8
0
  6
LTYPE1
 62
     1
 10
1521.504011665
 20
797.337765104
 30
0.0
 11
1529.223260693
 21
789.618516076
 31
0.0
  0
LINE
  8
0
  6
CONTINUOUS
 62
     1
 10
1542.893991795
 20
795.393221456
 30
0.0
 11
1537.445916919
 21
789.945146579
 31
0.0
  0
LINE
  8
0
  6
CONTINUOUS
 62
     1
 10
1523.072904835
 20
797.492444713
 30
0.0
 11
1557.920010896
 21
832.339550773
 31
0.0
  0
LINE
  8
0
  6
CONTINUOUS
 62
     1
 10
1529.967195952
 20
793.07302733
 30
0.0
 11
1537.590690937
 21
800.696522315
 31
0.0
  0
LINE
  8
0
  6
LTYPE1
 62
     1
 10
1527.867972695
 20
790.973804074
 30
0.0
 11
1529.967195952
 21
793.07302733
 31
0.0
  0
LINE
  8
0
  6
LTYPE1
 62
     2
 10
1529.760956474
 20
792.159681071
 30
0.0
 11
1528.221526086
 21
790.620250683
 31
0.0
  0
LINE
  8
0
  6
CONTINUOUS
 62
     1
 10
1579.486767722
 20
828.450463477
 30
0.0
 11
1551.202496474
 21
800.166192229
 31
0.0
  0
LINE
  8
0
  6
CONTINUOUS
 62
     1
 10
1537.519980258
 20
800.767232993
 30
0.0
 11
1545.545642225
 21
805.823046479
 31
0.0
  0
LINE
  8
0
  6
CONTINUOUS
 62
     1
 10
1575.951233816
 20
831.985997382
 30
0.0
 11
1547.666962568
 21
803.701726135
 31
0.0
  0
LINE
  8
0
  6
CONTINUOUS
 62
     1
 10
1575.901365708
 20
824.865061463
 30
0.0
 11
1551.202496474
 21
800.166192229
 31
0.0
  0
LINE
  8
0
  6
LTYPE3
 62
     2
 10
1581.8202201
 20
776.478115059
 30
0.0
 11
1548.586201384
 21
809.712133775
 31
0.0
  0
LINE
  8
0
  6
CONTINUOUS
 62
     1
 10
1545.545642225
 20
805.823046479
 30
0.0
 11
1554.38447699
 21
814.661881243
 31
0.0
  0
LINE
  8
0
  6
CONTINUOUS
 62
     1
 10
1547.313409178
 20
821.732949055
 30
0.0
 11
1556.505797333
 21
812.5405609
 31
0.0
  0
LINE
  8
0
  6
LTYPE3
 62
     2
 10
1548.656912062
 20
830.996047889
 30
0.0
 11
1589.669105371
 21
789.98385458
 31
0.0
  0
LINE
  8
0
  6
CONTINUOUS
 62
     1
 10
1557.920010896
 20
832.339550773
 30
0.0
 11
1567.112399051
 21
823.147162618
 31
0.0
  0
LINE
  8
0
  6
LTYPE3
 62
     2
 10
1570.647932957
 20
830.359651786
 30
0.0
 11
1603.881951673
 21
797.12563307
 31
0.0
  0
LINE
  8
0
  6
CONTINUOUS
 62
     1
 10
1604.235505063
 20
803.701726135
 30
0.0
 11
1575.951233816
 21
831.985997382
 31
0.0
  0
CIRCLE
  8
0
  6
CONTINUOUS
 62
     1
 10
1574.819862966
 20
804.833096985
 30
0.0
 40
9.36
  0
LINE
  8
0
  6
LTYPE3
 62
     2
 10
1584.012251121
 20
814.02548514
 30
0.0
 11
1565.627474811
 21
795.64070883
 31
0.0
  0
CIRCLE
  8
0
  6
CONTINUOUS
 62
     2
 10
1574.819862966
 20
804.833096985
 30
0.0
 40
10.47
  0
LINE
  8
0
  6
CONTINUOUS
 62
     1
 10
1583.375855018
 20
806.88370665
 30
0.0
 11
1592.568243174
 21
797.691318495
 31
0.0
  0
LINE
  8
0
  6
CONTINUOUS
 62
     1
 10
1547.666962568
 20
803.701726135
 30
0.0
 11
1575.951233816
 21
775.417454888
 31
0.0
  0
LINE
  8
0
  6
CONTINUOUS
 62
     1
 10
1537.944244327
 20
800.342968924
 30
0.0
 11
1542.893991795
 21
795.393221456
 31
0.0
  0
LINE
  8
0
  6
CONTINUOUS
 62
     1
 10
1572.769253301
 20
796.277104933
 30
0.0
 11
1581.961641456
 21
787.084716777
 31
0.0
  0
LINE
  8
0
  6
CONTINUOUS
 62
     1
 10
1571.001486348
 20
780.367202356
 30
0.0
 11
1579.840321112
 21
789.206037121
 31
0.0
  0
LINE
  8
0
  6
CONTINUOUS
 62
     1
 10
1601.407077939
 20
806.53015326
 30
0.0
 11
1573.122806691
 21
778.245882012
 31
0.0
  0
LINE
  8
0
  6
CONTINUOUS
 62
     1
 10
1611.660126266
 20
802.641065963
 30
0.0
 11
1579.474576226
 21
770.455515923
 31
0.0
  0
LINE
  8
0
  6
CONTINUOUS
 62
     1
 10
1573.67751977
 20
773.143740841
 30
0.0
 11
1607.417485579
 21
806.88370665
 31
0.0
  0
LINE
  8
0
  6
CONTINUOUS
 62
     1
 10
1607.417485579
 20
806.88370665
 30
0.0
 11
1611.660126266
 21
802.641065963
 31
0.0
  0
LINE
  8
0
  6
CONTINUOUS
 62
     1
 10
1589.138775285
 20
779.200476167
 30
0.0
 11
1608.937765158
 21
759.401486294
 31
0.0
  0
LINE
  8
0
  6
CONTINUOUS
 62
     1
 10
1589.138775285
 20
779.200476167
 30
0.0
 11
1580.102590675
 21
770.164291557
 31
0.0
  0
ARC
  8
0
  6
CONTINUOUS
 62
     1
 10
1614.135
 20
683.493573333
 30
0.0
 40
75.0
 50
5.332158882
 51
96.088528154
  0
ARC
  8
0
  6
CONTINUOUS
 62
     1
 10
1610.351978721
 20
760.815699856
 30
0.0
 40
2.0
 50
225.0
 51
315.0
  0
LINE
  8
0
  6
CONTINUOUS
 62
     1
 10
1624.494114344
 20
772.129408355
 30
0.0
 11
1611.766192283
 21
759.401486294
 31
0.0
  0
ARC
  8
0
  6
CONTINUOUS
 62
     1
 10
1625.908327907
 20
770.715194793
 30
0.0
 40
2.0
 50
45.0
 51
135.0
  0
LINE
  8
0
  6
CONTINUOUS
 62
     1
 10
1627.322541469
 20
772.129408355
 30
0.0
 11
1645.70731778
 21
753.744632044
 31
0.0
  0
ARC
  8
0
  6
CONTINUOUS
 62
     1
 10
1644.293104218
 20
752.330418482
 30
0.0
 40
2.0
 50
315.0
 51
45.0
  0
CIRCLE
  8
0
  6
LTYPE1
 62
     2
 10
1614.135
 20
683.493573333
 30
0.0
 40
57.0
  0
LINE
  8
0
  6
LTYPE1
 62
     2
 10
1619.135
 20
746.993573333
 30
0.0
 11
1609.135
 21
746.993573333
 31
0.0
  0
LINE
  8
0
  6
LTYPE1
 62
     2
 10
1609.135
 20
746.993573333
 30
0.0
 11
1609.135
 21
750.808133423
 31
0.0
  0
ARC
  8
0
  6
LTYPE1
 62
     2
 10
1614.135
 20
683.493573333
 30
0.0
 40
67.5
 50
94.248022667
 51
205.751977333
  0
LINE
  8
0
  6
LTYPE1
 62
     2
 10
1619.135
 20
746.993573333
 30
0.0
 11
1619.135
 21
750.808133423
 31
0.0
  0
ARC
  8
0
  6
LTYPE1
 62
     2
 10
1614.135
 20
683.493573333
 30
0.0
 40
67.5
 50
334.248022667
 51
85.751977333
  0
LINE
  8
0
  6
CONTINUOUS
 62
     1
 10
1633.580436483
 20
745.365416687
 30
0.0
 11
1653.732979746
 21
725.212873423
 31
0.0
  0
LINE
  8
0
  6
LTYPE1
 62
     2
 10
1671.62761314
 20
656.073700352
 30
0.0
 11
1674.931119082
 21
654.166420308
 31
0.0
  0
LINE
  8
0
  6
CONTINUOUS
 62
     1
 10
1658.385
 20
657.032895215
 30
0.0
 11
1690.148978978
 21
688.796874192
 31
0.0
  0
ARC
  8
0
  6
CONTINUOUS
 62
     1
 10
1614.135
 20
683.493573333
 30
0.0
 40
75.0
 50
266.913137837
 51
3.008785843
  0
LINE
  8
0
  6
LTYPE1
 62
     2
 10
1666.62761314
 20
647.413446314
 30
0.0
 11
1671.62761314
 21
656.073700352
 31
0.0
  0
LINE
  8
0
  6
LTYPE1
 62
     2
 10
1666.62761314
 20
647.413446314
 30
0.0
 11
1669.931119082
 21
645.50616627
 31
0.0
  0
ARC
  8
0
  6
LTYPE1
 62
     2
 10
1614.135
 20
683.493573333
 30
0.0
 40
67.5
 50
214.248022667
 51
325.751977333
  0
ARC
  8
0
  6
CONTINUOUS
 62
     1
 10
1614.135
 20
683.493573333
 30
0.0
 40
75.0
 50
175.42607874
 51
264.59620864
  0
LINE
  8
0
  6
CONTINUOUS
 62
     1
 10
1574.537020254
 20
641.774273243
 30
0.0
 11
1608.831699141
 21
607.479594356
 31
0.0
  0
LINE
  8
0
  6
CONTINUOUS
 62
     1
 10
1608.831699141
 20
607.479594356
 30
0.0
 11
1647.085
 21
645.732895215
 31
0.0
  0
LINE
  8
0
  6
LTYPE1
 62
     2
 10
1556.64238686
 20
656.073700352
 30
0.0
 11
1561.64238686
 21
647.413446314
 31
0.0
  0
LINE
  8
0
  6
LTYPE1
 62
     2
 10
1561.64238686
 20
647.413446314
 30
0.0
 11
1558.338880918
 21
645.50616627
 31
0.0
  0
LINE
  8
0
  6
LTYPE1
 62
     2
 10
1556.64238686
 20
656.073700352
 30
0.0
 11
1553.338880918
 21
654.166420308
 31
0.0
  0
LINE
  8
0
  6
CONTINUOUS
 62
     1
 10
1525.499164978
 20
670.306031864
 30
0.0
 11
1543.883941289
 21
651.921255553
 31
0.0
  0
ARC
  8
0
  6
CONTINUOUS
 62
     1
 10
1545.298154851
 20
653.335469116
 30
0.0
 40
2.0
 50
225.0
 51
315.0
  0
ARC
  8
0
  6
CONTINUOUS
 62
     1
 10
1526.913378541
 20
671.720245427
 30
0.0
 40
2.0
 50
135.0
 51
225.0
  0
LINE
  8
0
  6
CONTINUOUS
 62
     1
 10
1525.499164978
 20
673.134458989
 30
0.0
 11
1538.22708704
 21
685.86238105
 31
0.0
  0
ARC
  8
0
  6
CONTINUOUS
 62
     1
 10
1536.812873477
 20
687.276594613
 30
0.0
 40
2.0
 50
315.0
 51
45.0
  0
LINE
  8
0
  6
CONTINUOUS
 62
     1
 10
1504.135
 20
653.493573333
 30
0.0
 11
1504.135
 21
695.115939697
 31
0.0
  0
LINE
  8
0
  6
LTYPE2
 62
     2
 10
1570.824709652
 20
640.183282986
 30
0.0
 11
1658.718082554
 21
728.076655887
 31
0.0
  0
LINE
  8
0
  6
CONTINUOUS
 62
     1
 10
1552.263156646
 20
664.048136851
 30
0.0
 11
1572.41569991
 21
643.895593587
 31
0.0
  0
LINE
  8
0
  6
CONTINUOUS
 62
     1
 10
1572.41569991
 20
643.895593587
 30
0.0
 11
1574.513679656
 21
645.993573333
 31
0.0
  0
LINE
  8
0
  6
CONTINUOUS
 62
     1
 10
1574.537020254
 20
641.774273243
 30
0.0
 11
1578.756320344
 21
645.993573333
 31
0.0
  0
LINE
  8
0
  6
CONTINUOUS
 62
     1
 10
1655.85430009
 20
723.09155308
 30
0.0
 11
1690.148978978
 21
688.796874192
 31
0.0
  0
LINE
  8
0
  6
CONTINUOUS
 62
     1
 10
1649.513679656
 20
720.993573333
 30
0.0
 11
1653.732979746
 21
725.212873423
 31
0.0
  0
LINE
  8
0
  6
CONTINUOUS
 62
     1
 10
1654.135
 20
721.37225299
 30
0.0
 11
1655.85430009
 21
723.09155308
 31
0.0
  0
LINE
  8
0
  6
CONTINUOUS
 62
     1
 10
1582.635
 20
615.493573333
 30
0.0
 11
1568.135
 21
615.493573333
 31
0.0
  0
LINE
  8
0
  6
CONTINUOUS
 62
     1
 10
1566.135
 20
613.993573333
 30
0.0
 11
1587.635
 21
613.993573333
 31
0.0
  0
LINE
  8
0
  6
CONTINUOUS
 62
     1
 10
1509.135
 20
788.85248373
 30
0.0
 11
1509.135
 21
824.493573333
 31
0.0
  0
LINE
  8
0
  6
CONTINUOUS
 62
     1
 10
1509.135
 20
734.753457963
 30
0.0
 11
1509.135
 21
757.05239302
 31
0.0
  0
ARC
  8
0
  6
CONTINUOUS
 62
     1
 10
1614.135
 20
892.493573333
 30
0.0
 40
125.0
 50
110.088264208
 51
226.276801065
  0
ARC
  8
0
  6
CONTINUOUS
 62
     1
 10
1614.135
 20
892.493573333
 30
0.0
 40
125.0
 50
233.411555187
 51
251.274250953
  0
ARC
  8
0
  6
CONTINUOUS
 62
     1
 10
1614.135
 20
892.493573333
 30
0.0
 40
125.0
 50
277.678811068
 51
280.557968545
  0
ARC
  8
0
  6
CONTINUOUS
 62
     1
 10
1614.135
 20
892.493573333
 30
0.0
 40
125.0
 50
263.529959855
 51
272.687354399
  0
LINE
  8
0
  6
CONTINUOUS
 62
     1
 10
1686.135
 20
763.493573333
 30
0.0
 11
1635.958376491
 21
763.493573333
 31
0.0
  0
LINE
  8
0
  6
LTYPE1
 62
     2
 10
1635.958376491
 20
763.493573333
 30
0.0
 11
1614.135
 21
763.493573333
 31
0.0
  0
LINE
  8
0
  6
LTYPE1
 62
     2
 10
1542.135
 20
763.493573333
 30
0.0
 11
1614.135
 21
763.493573333
 31
0.0
  0
ARC
  8
0
  6
LTYPE1
 62
     2
 10
1542.135
 20
755.493573333
 30
0.0
 40
8.0
 50
90.0
 51
180.0
  0
LINE
  8
0
  6
LTYPE1
 62
     2
 10
1534.135
 20
726.532049106
 30
0.0
 11
1534.135
 21
755.493573333
 31
0.0
  0
LINE
  8
0
  6
CONTINUOUS
 62
     1
 10
1504.135
 20
653.493573333
 30
0.0
 11
1504.135
 21
683.993573333
 31
0.0
  0
LINE
  8
0
  6
CONTINUOUS
 62
     1
 10
1504.135
 20
653.493573333
 30
0.0
 11
1546.712368414
 21
650.374434699
 31
0.0
  0
LINE
  8
0
  6
CONTINUOUS
 62
     1
 10
1509.135
 20
584.493573333
 30
0.0
 11
1509.135
 21
653.127282655
 31
0.0
  0
LINE
  8
0
  6
CONTINUOUS
 62
     1
 10
1534.135
 20
611.493573333
 30
0.0
 11
1534.135
 21
651.295829262
 31
0.0
  0
LINE
  8
0
  6
CONTINUOUS
 62
     1
 10
1724.135
 20
713.493573333
 30
0.0
 11
1681.557631586
 21
716.612711967
 31
0.0
  0
LINE
  8
0
  6
CONTINUOUS
 62
     1
 10
1724.135
 20
653.493573333
 30
0.0
 11
1724.135
 21
713.493573333
 31
0.0
  0
LINE
  8
0
  6
CONTINUOUS
 62
     1
 10
1724.135
 20
653.493573333
 30
0.0
 11
1681.557631586
 21
650.374434699
 31
0.0
  0
LINE
  8
0
  6
CONTINUOUS
 62
     1
 10
1694.135
 20
715.691317405
 30
0.0
 11
1694.135
 21
755.493573333
 31
0.0
  0
LINE
  8
0
  6
CONTINUOUS
 62
     1
 10
1719.135
 20
713.859864012
 30
0.0
 11
1719.135
 21
824.493573333
 31
0.0
  0
LINE
  8
0
  6
CONTINUOUS
 62
     1
 10
1694.135
 20
611.493573333
 30
0.0
 11
1694.135
 21
651.295829262
 31
0.0
  0
LINE
  8
0
  6
CONTINUOUS
 62
     1
 10
1719.135
 20
584.493573333
 30
0.0
 11
1719.135
 21
653.127282655
 31
0.0
  0
ARC
  8
0
  6
CONTINUOUS
 62
     1
 10
1614.135
 20
892.493573333
 30
0.0
 40
105.0
 50
261.045788104
 51
272.980462591
  0
ARC
  8
0
  6
CONTINUOUS
 62
     1
 10
1614.135
 20
892.493573333
 30
0.0
 40
105.0
 50
231.949956574
 51
233.646419316
  0
ARC
  8
0
  6
CONTINUOUS
 62
     1
 10
1614.135
 20
892.493573333
 30
0.0
 40
105.0
 50
226.520053773
 51
226.520053773
  0
ARC
  8
0
  6
CONTINUOUS
 62
     1
 10
1538.121021022
 20
816.479594356
 30
0.0
 40
7.75
 50
114.214141675
 51
246.063093234
  0
LINE
  8
0
  6
CONTINUOUS
 62
     2
 10
1584.976610311
 20
809.396150188
 30
0.0
 11
1601.997617827
 21
813.462512585
 31
0.0
  0
LINE
  8
0
  6
CONTINUOUS
 62
     2
 10
1584.976610311
 20
809.396150188
 30
0.0
 11
1597.684054019
 21
821.428227083
 31
0.0
  0
LINE
  8
0
  6
CONTINUOUS
 62
     2
 10
1584.976610311
 20
809.396150188
 30
0.0
 11
1861.976610311
 21
959.396150188
 31
0.0
  0
LINE
  8
0
  6
CONTINUOUS
 62
     2
 10
1861.976610311
 20
959.396150188
 30
0.0
 11
1975.376610311
 21
959.396150188
 31
0.0
  0
TEXT
  8
0
  6
CONTINUOUS
 62
     3
 10
1861.976610311
 20
968.396150188
 30
0.0
 40
18.0
  1
２－ＰＦ１／２
 50
0.0
 41
0.9
 51
0.0
  7
KANJI44
  0
ARC
  8
0
  6
CONTINUOUS
 62
     1
 10
826.135
 20
319.72754793
 30
0.0
 40
10.0
 50
90.0
 51
180.0
  0
LINE
  8
0
  6
CONTINUOUS
 62
     1
 10
826.135
 20
329.72754793
 30
0.0
 11
936.135
 21
329.72754793
 31
0.0
  0
ARC
  8
0
  6
CONTINUOUS
 62
     1
 10
936.135
 20
319.72754793
 30
0.0
 40
10.0
 50
0.0
 51
90.0
  0
LINE
  8
0
  6
CONTINUOUS
 62
     2
 10
820.13501079
 20
329.72754793
 30
0.0
 11
763.1350004
 21
329.72754793
 31
0.0
  0
LINE
  8
0
  6
CONTINUOUS
 62
     2
 10
769.1350004
 20
329.72754793
 30
0.0
 11
766.029171859
 21
318.136438014
 31
0.0
  0
LINE
  8
0
  6
CONTINUOUS
 62
     2
 10
769.1350004
 20
329.72754793
 30
0.0
 11
772.240828941
 21
318.136438014
 31
0.0
  0
LINE
  8
0
  6
CONTINUOUS
 62
     2
 10
769.1350004
 20
329.72754793
 30
0.0
 11
769.1350004
 21
164.72754793
 31
0.0
  0
LINE
  8
0
  6
CONTINUOUS
 62
     1
 10
865.135
 20
263.22754793
 30
0.0
 11
897.135
 21
263.22754793
 31
0.0
  0
LINE
  8
0
  6
CONTINUOUS
 62
     1
 10
865.135
 20
231.22754793
 30
0.0
 11
865.135
 21
263.22754793
 31
0.0
  0
LINE
  8
0
  6
CONTINUOUS
 62
     1
 10
897.135
 20
231.22754793
 30
0.0
 11
865.135
 21
231.22754793
 31
0.0
  0
LINE
  8
0
  6
CONTINUOUS
 62
     1
 10
816.135
 20
176.52754793
 30
0.0
 11
816.135
 21
174.72754793
 31
0.0
  0
LINE
  8
0
  6
CONTINUOUS
 62
     1
 10
936.135
 20
164.72754793
 30
0.0
 11
826.135
 21
164.72754793
 31
0.0
  0
ARC
  8
0
  6
CONTINUOUS
 62
     1
 10
826.135
 20
174.72754793
 30
0.0
 40
10.0
 50
180.0
 51
270.0
  0
LINE
  8
0
  6
CONTINUOUS
 62
     1
 10
816.135
 20
223.68318621
 30
0.0
 11
816.135
 21
201.87754793
 31
0.0
  0
LINE
  8
0
  6
CONTINUOUS
 62
     1
 10
816.135
 20
239.22754793
 30
0.0
 11
816.135
 21
230.771909649
 31
0.0
  0
LINE
  8
0
  6
CONTINUOUS
 62
     1
 10
799.755942983
 20
239.22754793
 30
0.0
 11
865.135
 21
239.22754793
 31
0.0
  0
LINE
  8
0
  6
CONTINUOUS
 62
     1
 10
865.135
 20
255.22754793
 30
0.0
 11
799.825577963
 21
255.22754793
 31
0.0
  0
ARC
  8
0
  6
CONTINUOUS
 62
     1
 10
805.380468578
 20
251.22754793
 30
0.0
 40
6.845203412
 50
144.242860688
 51
215.757139312
  0
ARC
  8
0
  6
CONTINUOUS
 62
     1
 10
794.270687347
 20
251.22754793
 30
0.0
 40
6.845203412
 50
324.242860688
 51
35.757139312
  0
ARC
  8
0
  6
CONTINUOUS
 62
     1
 10
794.270687347
 20
243.22754793
 30
0.0
 40
6.845203412
 50
324.242860688
 51
35.757139312
  0
LINE
  8
0
  6
LTYPE2
 62
     2
 10
1029.635
 20
247.22754793
 30
0.0
 11
794.790760473
 21
247.22754793
 31
0.0
  0
LINE
  8
0
  6
CONTINUOUS
 62
     1
 10
816.135
 20
309.42754793
 30
0.0
 11
816.135
 21
319.72754793
 31
0.0
  0
LINE
  8
0
  6
CONTINUOUS
 62
     1
 10
816.135
 20
255.22754793
 30
0.0
 11
816.135
 21
289.42754793
 31
0.0
  0
LINE
  8
0
  6
CONTINUOUS
 62
     1
 10
897.135
 20
231.22754793
 30
0.0
 11
897.135
 21
263.22754793
 31
0.0
  0
LINE
  8
0
  6
CONTINUOUS
 62
     1
 10
897.135
 20
255.22754793
 30
0.0
 11
952.635
 21
255.22754793
 31
0.0
  0
LINE
  8
0
  6
CONTINUOUS
 62
     1
 10
952.635
 20
239.22754793
 30
0.0
 11
897.135
 21
239.22754793
 31
0.0
  0
ARC
  8
0
  6
CONTINUOUS
 62
     1
 10
936.135
 20
174.72754793
 30
0.0
 40
10.0
 50
270.0
 51
0.0
  0
LINE
  8
0
  6
CONTINUOUS
 62
     1
 10
946.135
 20
200.42754793
 30
0.0
 11
946.135
 21
174.72754793
 31
0.0
  0
LINE
  8
0
  6
CONTINUOUS
 62
     1
 10
946.135
 20
317.92754793
 30
0.0
 11
946.135
 21
319.72754793
 31
0.0
  0
LINE
  8
0
  6
CONTINUOUS
 62
     1
 10
946.135
 20
270.771909649
 30
0.0
 11
946.135
 21
292.57754793
 31
0.0
  0
LINE
  8
0
  6
CONTINUOUS
 62
     1
 10
946.135
 20
255.22754793
 30
0.0
 11
946.135
 21
263.68318621
 31
0.0
  0
LINE
  8
0
  6
CONTINUOUS
 62
     1
 10
952.635
 20
237.22754793
 30
0.0
 11
952.635
 21
257.22754793
 31
0.0
  0
LINE
  8
0
  6
CONTINUOUS
 62
     1
 10
952.635
 20
257.22754793
 30
0.0
 11
966.491406461
 21
265.22754793
 31
0.0
  0
LINE
  8
0
  6
CONTINUOUS
 62
     1
 10
952.635
 20
237.22754793
 30
0.0
 11
966.491406461
 21
229.22754793
 31
0.0
  0
LINE
  8
0
  6
CONTINUOUS
 62
     1
 10
966.491406461
 20
229.22754793
 30
0.0
 11
966.491406461
 21
265.22754793
 31
0.0
  0
LINE
  8
0
  6
CONTINUOUS
 62
     1
 10
988.778593539
 20
229.22754793
 30
0.0
 11
988.778593539
 21
265.22754793
 31
0.0
  0
LINE
  8
0
  6
CONTINUOUS
 62
     1
 10
966.491406461
 20
265.22754793
 30
0.0
 11
988.778593539
 21
265.22754793
 31
0.0
  0
LINE
  8
0
  6
CONTINUOUS
 62
     1
 10
1002.635
 20
257.22754793
 30
0.0
 11
988.778593539
 21
265.22754793
 31
0.0
  0
LINE
  8
0
  6
CONTINUOUS
 62
     1
 10
966.491406461
 20
229.22754793
 30
0.0
 11
988.778593539
 21
229.22754793
 31
0.0
  0
LINE
  8
0
  6
CONTINUOUS
 62
     1
 10
1002.635
 20
237.22754793
 30
0.0
 11
988.778593539
 21
229.22754793
 31
0.0
  0
LINE
  8
0
  6
CONTINUOUS
 62
     1
 10
966.491406461
 20
229.22754793
 30
0.0
 11
988.778593539
 21
229.22754793
 31
0.0
  0
LINE
  8
0
  6
LTYPE2
 62
     2
 10
977.635
 20
237.22754793
 30
0.0
 11
977.635
 21
257.22754793
 31
0.0
  0
CIRCLE
  8
0
  6
CONTINUOUS
 62
     2
 10
977.635
 20
247.22754793
 30
0.0
 40
5.0
  0
CIRCLE
  8
0
  6
CONTINUOUS
 62
     2
 10
977.635
 20
247.22754793
 30
0.0
 40
4.0
  0
LINE
  8
0
  6
CONTINUOUS
 62
     1
 10
946.135
 20
239.22754793
 30
0.0
 11
946.135
 21
218.42754793
 31
0.0
  0
LINE
  8
0
  6
CONTINUOUS
 62
     2
 10
769.1350004
 20
164.72754793
 30
0.0
 11
772.240828941
 21
176.318657845
 31
0.0
  0
LINE
  8
0
  6
CONTINUOUS
 62
     2
 10
769.1350004
 20
164.72754793
 30
0.0
 11
766.029171859
 21
176.318657845
 31
0.0
  0
LINE
  8
0
  6
CONTINUOUS
 62
     2
 10
820.135
 20
164.72754793
 30
0.0
 11
763.1350004
 21
164.72754793
 31
0.0
  0
TEXT
  8
0
  6
CONTINUOUS
 62
     3
 10
760.1350004
 20
222.92754793
 30
0.0
 40
18.0
  1
１６５
 50
90.0
 41
0.9
 51
0.0
  7
KANJI44
  0
LINE
  8
0
  6
CONTINUOUS
 62
     2
 10
816.135
 20
170.52754793
 30
0.0
 11
816.135
 21
120.52754793
 31
0.0
  0
LINE
  8
0
  6
CONTINUOUS
 62
     2
 10
946.135
 20
168.72754793
 30
0.0
 11
946.135
 21
120.52754793
 31
0.0
  0
ARC
  8
0
  6
CONTINUOUS
 62
     1
 10
1019.389531422
 20
251.22754793
 30
0.0
 40
6.845203412
 50
324.242860688
 51
35.757139312
  0
ARC
  8
0
  6
CONTINUOUS
 62
     1
 10
1030.499312653
 20
251.22754793
 30
0.0
 40
6.845203412
 50
144.242860688
 51
215.757139312
  0
ARC
  8
0
  6
CONTINUOUS
 62
     1
 10
1030.499312653
 20
243.22754793
 30
0.0
 40
6.845203412
 50
144.242860688
 51
215.757139312
  0
LINE
  8
0
  6
CONTINUOUS
 62
     1
 10
1002.635
 20
237.22754793
 30
0.0
 11
1002.635
 21
257.22754793
 31
0.0
  0
LINE
  8
0
  6
CONTINUOUS
 62
     1
 10
1002.635
 20
255.22754793
 30
0.0
 11
1024.944422037
 21
255.22754793
 31
0.0
  0
LINE
  8
0
  6
CONTINUOUS
 62
     1
 10
1024.944422037
 20
239.22754793
 30
0.0
 11
1002.635
 21
239.22754793
 31
0.0
  0
LINE
  8
0
  6
CONTINUOUS
 62
     2
 10
1230.385
 20
299.493573333
 30
0.0
 11
1077.135
 21
299.493573333
 31
0.0
  0
LINE
  8
0
  6
CONTINUOUS
 62
     2
 10
1077.135
 20
299.493573333
 30
0.0
 11
1077.135
 21
129.743573333
 31
0.0
  0
LINE
  8
0
  6
CONTINUOUS
 62
     1
 10
1132.76
 20
238.243573333
 30
0.0
 11
1132.76
 21
173.543573333
 31
0.0
  0
LINE
  8
0
  6
CONTINUOUS
 62
     1
 10
1134.76
 20
171.543573333
 30
0.0
 11
1170.76
 21
171.543573333
 31
0.0
  0
ARC
  8
0
  6
CONTINUOUS
 62
     1
 10
1134.76
 20
173.543573333
 30
0.0
 40
2.0
 50
180.0
 51
270.0
  0
LINE
  8
0
  6
CONTINUOUS
 62
     1
 10
1172.76
 20
238.243573333
 30
0.0
 11
1172.76
 21
173.543573333
 31
0.0
  0
ARC
  8
0
  6
CONTINUOUS
 62
     1
 10
1170.76
 20
173.543573333
 30
0.0
 40
2.0
 50
270.0
 51
0.0
  0
ARC
  8
0
  6
CONTINUOUS
 62
     1
 10
1134.76
 20
238.243573333
 30
0.0
 40
2.0
 50
90.0
 51
180.0
  0
LINE
  8
0
  6
CONTINUOUS
 62
     1
 10
1140.06
 20
263.643573333
 30
0.0
 11
1140.06
 21
240.243573333
 31
0.0
  0
LINE
  8
0
  6
CONTINUOUS
 62
     1
 10
1134.76
 20
240.243573333
 30
0.0
 11
1170.76
 21
240.243573333
 31
0.0
  0
ARC
  8
0
  6
CONTINUOUS
 62
     1
 10
1170.76
 20
238.243573333
 30
0.0
 40
2.0
 50
0.0
 51
90.0
  0
ARC
  8
0
  6
CONTINUOUS
 62
     1
 10
1142.06
 20
263.643573333
 30
0.0
 40
2.0
 50
90.0
 51
180.0
  0
ARC
  8
0
  6
CONTINUOUS
 62
     1
 10
1152.76
 20
249.943573333
 30
0.0
 40
6.0
 50
131.983045121
 51
318.016954879
  0
LINE
  8
0
  6
LTYPE3
 62
     2
 10
1146.325328291
 20
243.508901625
 30
0.0
 11
1186.983968209
 21
284.167541543
 31
0.0
  0
LINE
  8
0
  6
CONTINUOUS
 62
     1
 10
1148.7465365
 20
254.40363059
 30
0.0
 11
1176.954415352
 21
279.787002523
 31
0.0
  0
LINE
  8
0
  6
CONTINUOUS
 62
     1
 10
1157.220057257
 20
245.930109833
 30
0.0
 11
1182.60342919
 21
274.137988685
 31
0.0
  0
LINE
  8
0
  6
LTYPE3
 62
     2
 10
1187.408232278
 20
269.035456425
 30
0.0
 11
1171.144776311
 21
285.298912393
 31
0.0
  0
ARC
  8
0
  6
CONTINUOUS
 62
     1
 10
1179.630057685
 20
276.813631018
 30
0.0
 40
8.75
 50
255.219855722
 51
194.780144278
  0
ARC
  8
0
  6
CONTINUOUS
 62
     1
 10
1179.630057685
 20
276.813631018
 30
0.0
 40
4.0
 50
311.983042101
 51
138.016952287
  0
LINE
  8
0
  6
CONTINUOUS
 62
     1
 10
1165.46
 20
255.086943183
 30
0.0
 11
1165.46
 21
240.243573333
 31
0.0
  0
LINE
  8
0
  6
CONTINUOUS
 62
     1
 10
1142.06
 20
265.643573333
 30
0.0
 11
1161.237191565
 21
265.643573333
 31
0.0
  0
LINE
  8
0
  6
LTYPE2
 62
     2
 10
1137.885
 20
216.743573333
 30
0.0
 11
1167.885
 21
216.743573333
 31
0.0
  0
LINE
  8
0
  6
LTYPE2
 62
     2
 10
1167.885
 20
216.743573333
 30
0.0
 11
1167.885
 21
226.243573333
 31
0.0
  0
LINE
  8
0
  6
LTYPE2
 62
     2
 10
1167.885
 20
226.243573333
 30
0.0
 11
1137.885
 21
226.243573333
 31
0.0
  0
LINE
  8
0
  6
LTYPE2
 62
     2
 10
1137.885
 20
226.243573333
 30
0.0
 11
1137.885
 21
216.743573333
 31
0.0
  0
LINE
  8
0
  6
CONTINUOUS
 62
     1
 10
1137.885
 20
186.743573333
 30
0.0
 11
1167.885
 21
186.743573333
 31
0.0
  0
LINE
  8
0
  6
CONTINUOUS
 62
     1
 10
1167.885
 20
186.743573333
 30
0.0
 11
1167.885
 21
196.243573333
 31
0.0
  0
LINE
  8
0
  6
CONTINUOUS
 62
     1
 10
1167.885
 20
196.243573333
 30
0.0
 11
1137.885
 21
196.243573333
 31
0.0
  0
LINE
  8
0
  6
CONTINUOUS
 62
     1
 10
1137.885
 20
196.243573333
 30
0.0
 11
1137.885
 21
186.743573333
 31
0.0
  0
TEXT
  8
0
  6
CONTINUOUS
 62
     2
 10
1136.66
 20
229.543573333
 30
0.0
 40
10.0
  1
４
 50
0.0
 41
0.85
 51
0.0
  7
KANJI46
  0
TEXT
  8
0
  6
CONTINUOUS
 62
     2
 10
1161.66
 20
229.543573333
 30
0.0
 40
10.0
  1
３
 50
0.0
 41
0.85
 51
0.0
  7
KANJI46
  0
POLYLINE
  8
0
  6
CONTINUOUS
 62
     2
 66
     1
 70
     1
  0
VERTEX
  8
0
  6
CONTINUOUS
 62
     2
 10
1147.66
 20
228.793573333
 30
0.0
 42
0.021820078
  0
VERTEX
  8
0
  6
CONTINUOUS
 62
     2
 10
1147.651438071
 20
228.989673755
 30
0.0
 42
0.021820078
  0
VERTEX
  8
0
  6
CONTINUOUS
 62
     2
 10
1147.625817444
 20
229.184281733
 30
0.0
 42
0.021820078
  0
VERTEX
  8
0
  6
CONTINUOUS
 62
     2
 10
1147.583333109
 20
229.375916185
 30
0.0
 42
0.021820078
  0
VERTEX
  8
0
  6
CONTINUOUS
 62
     2
 10
1147.524308397
 20
229.563118656
 30
0.0
 42
0.021820078
  0
VERTEX
  8
0
  6
CONTINUOUS
 62
     2
 10
1147.449192521
 20
229.744464422
 30
0.0
 42
0.021820078
  0
VERTEX
  8
0
  6
CONTINUOUS
 62
     2
 10
1147.358557159
 20
229.918573333
 30
0.0
 42
0.021820078
  0
VERTEX
  8
0
  6
CONTINUOUS
 62
     2
 10
1147.2530921
 20
230.084120315
 30
0.0
 42
0.021820078
  0
VERTEX
  8
0
  6
CONTINUOUS
 62
     2
 10
1147.133599997
 20
230.239845455
 30
0.0
 42
0.021820078
  0
VERTEX
  8
0
  6
CONTINUOUS
 62
     2
 10
1147.000990258
 20
230.384563591
 30
0.0
 42
0.021820078
  0
VERTEX
  8
0
  6
CONTINUOUS
 62
     2
 10
1146.856272122
 20
230.51717333
 30
0.0
 42
0.021820078
  0
VERTEX
  8
0
  6
CONTINUOUS
 62
     2
 10
1146.700546982
 20
230.636665433
 30
0.0
 42
0.021820078
  0
VERTEX
  8
0
  6
CONTINUOUS
 62
     2
 10
1146.535
 20
230.742130492
 30
0.0
 42
0.021820078
  0
VERTEX
  8
0
  6
CONTINUOUS
 62
     2
 10
1146.360891089
 20
230.832765854
 30
0.0
 42
0.021820078
  0
VERTEX
  8
0
  6
CONTINUOUS
 62
     2
 10
1146.179545322
 20
230.90788173
 30
0.0
 42
0.021820078
  0
VERTEX
  8
0
  6
CONTINUOUS
 62
     2
 10
1145.992342851
 20
230.966906442
 30
0.0
 42
0.021820078
  0
VERTEX
  8
0
  6
CONTINUOUS
 62
     2
 10
1145.8007084
 20
231.009390778
 30
0.0
 42
0.021820078
  0
VERTEX
  8
0
  6
CONTINUOUS
 62
     2
 10
1145.606100421
 20
231.035011404
 30
0.0
 42
0.021820078
  0
VERTEX
  8
0
  6
CONTINUOUS
 62
     2
 10
1145.41
 20
231.043573333
 30
0.0
 42
0.021820078
  0
VERTEX
  8
0
  6
CONTINUOUS
 62
     2
 10
1145.213899579
 20
231.035011404
 30
0.0
 42
0.021820078
  0
VERTEX
  8
0
  6
CONTINUOUS
 62
     2
 10
1145.0192916
 20
231.009390778
 30
0.0
 42
0.021820078
  0
VERTEX
  8
0
  6
CONTINUOUS
 62
     2
 10
1144.827657149
 20
230.966906442
 30
0.0
 42
0.021820078
  0
VERTEX
  8
0
  6
CONTINUOUS
 62
     2
 10
1144.640454678
 20
230.90788173
 30
0.0
 42
0.021820078
  0
VERTEX
  8
0
  6
CONTINUOUS
 62
     2
 10
1144.459108911
 20
230.832765854
 30
0.0
 42
0.021820078
  0
VERTEX
  8
0
  6
CONTINUOUS
 62
     2
 10
1144.285
 20
230.742130492
 30
0.0
 42
0.021820078
  0
VERTEX
  8
0
  6
CONTINUOUS
 62
     2
 10
1144.119453018
 20
230.636665433
 30
0.0
 42
0.021820078
  0
VERTEX
  8
0
  6
CONTINUOUS
 62
     2
 10
1143.963727878
 20
230.51717333
 30
0.0
 42
0.021820078
  0
VERTEX
  8
0
  6
CONTINUOUS
 62
     2
 10
1143.819009742
 20
230.384563591
 30
0.0
 42
0.021820078
  0
VERTEX
  8
0
  6
CONTINUOUS
 62
     2
 10
1143.686400003
 20
230.239845455
 30
0.0
 42
0.021820078
  0
VERTEX
  8
0
  6
CONTINUOUS
 62
     2
 10
1143.5669079
 20
230.084120315
 30
0.0
 42
0.021820078
  0
VERTEX
  8
0
  6
CONTINUOUS
 62
     2
 10
1143.461442841
 20
229.918573333
 30
0.0
 42
0.021820078
  0
VERTEX
  8
0
  6
CONTINUOUS
 62
     2
 10
1143.370807479
 20
229.744464422
 30
0.0
 42
0.021820078
  0
VERTEX
  8
0
  6
CONTINUOUS
 62
     2
 10
1143.295691603
 20
229.563118656
 30
0.0
 42
0.021820078
  0
VERTEX
  8
0
  6
CONTINUOUS
 62
     2
 10
1143.236666891
 20
229.375916185
 30
0.0
 42
0.021820078
  0
VERTEX
  8
0
  6
CONTINUOUS
 62
     2
 10
1143.194182556
 20
229.184281733
 30
0.0
 42
0.021820078
  0
VERTEX
  8
0
  6
CONTINUOUS
 62
     2
 10
1143.168561929
 20
228.989673755
 30
0.0
 42
0.021820078
  0
VERTEX
  8
0
  6
CONTINUOUS
 62
     2
 10
1143.16
 20
228.793573333
 30
0.0
 42
0.021820078
  0
VERTEX
  8
0
  6
CONTINUOUS
 62
     2
 10
1143.168561929
 20
228.597472912
 30
0.0
 42
0.021820078
  0
VERTEX
  8
0
  6
CONTINUOUS
 62
     2
 10
1143.194182556
 20
228.402864934
 30
0.0
 42
0.021820078
  0
VERTEX
  8
0
  6
CONTINUOUS
 62
     2
 10
1143.236666891
 20
228.211230482
 30
0.0
 42
0.021820078
  0
VERTEX
  8
0
  6
CONTINUOUS
 62
     2
 10
1143.295691603
 20
228.024028011
 30
0.0
 42
0.021820078
  0
VERTEX
  8
0
  6
CONTINUOUS
 62
     2
 10
1143.370807479
 20
227.842682244
 30
0.0
 42
0.021820078
  0
VERTEX
  8
0
  6
CONTINUOUS
 62
     2
 10
1143.461442841
 20
227.668573333
 30
0.0
 42
0.021820078
  0
VERTEX
  8
0
  6
CONTINUOUS
 62
     2
 10
1143.5669079
 20
227.503026352
 30
0.0
 42
0.021820078
  0
VERTEX
  8
0
  6
CONTINUOUS
 62
     2
 10
1143.686400003
 20
227.347301212
 30
0.0
 42
0.021820078
  0
VERTEX
  8
0
  6
CONTINUOUS
 62
     2
 10
1143.819009742
 20
227.202583076
 30
0.0
 42
0.021820078
  0
VERTEX
  8
0
  6
CONTINUOUS
 62
     2
 10
1143.963727878
 20
227.069973336
 30
0.0
 42
0.021820078
  0
VERTEX
  8
0
  6
CONTINUOUS
 62
     2
 10
1144.119453018
 20
226.950481234
 30
0.0
 42
0.021820078
  0
VERTEX
  8
0
  6
CONTINUOUS
 62
     2
 10
1144.285
 20
226.845016175
 30
0.0
 42
0.021820078
  0
VERTEX
  8
0
  6
CONTINUOUS
 62
     2
 10
1144.459108911
 20
226.754380812
 30
0.0
 42
0.021820078
  0
VERTEX
  8
0
  6
CONTINUOUS
 62
     2
 10
1144.640454678
 20
226.679264937
 30
0.0
 42
0.021820078
  0
VERTEX
  8
0
  6
CONTINUOUS
 62
     2
 10
1144.827657149
 20
226.620240224
 30
0.0
 42
0.021820078
  0
VERTEX
  8
0
  6
CONTINUOUS
 62
     2
 10
1145.0192916
 20
226.577755889
 30
0.0
 42
0.021820078
  0
VERTEX
  8
0
  6
CONTINUOUS
 62
     2
 10
1145.213899579
 20
226.552135263
 30
0.0
 42
0.021820078
  0
VERTEX
  8
0
  6
CONTINUOUS
 62
     2
 10
1145.41
 20
226.543573333
 30
0.0
 42
0.021820078
  0
VERTEX
  8
0
  6
CONTINUOUS
 62
     2
 10
1145.606100421
 20
226.552135263
 30
0.0
 42
0.021820078
  0
VERTEX
  8
0
  6
CONTINUOUS
 62
     2
 10
1145.8007084
 20
226.577755889
 30
0.0
 42
0.021820078
  0
VERTEX
  8
0
  6
CONTINUOUS
 62
     2
 10
1145.992342851
 20
226.620240224
 30
0.0
 42
0.021820078
  0
VERTEX
  8
0
  6
CONTINUOUS
 62
     2
 10
1146.179545322
 20
226.679264937
 30
0.0
 42
0.021820078
  0
VERTEX
  8
0
  6
CONTINUOUS
 62
     2
 10
1146.360891089
 20
226.754380812
 30
0.0
 42
0.021820078
  0
VERTEX
  8
0
  6
CONTINUOUS
 62
     2
 10
1146.535
 20
226.845016175
 30
0.0
 42
0.021820078
  0
VERTEX
  8
0
  6
CONTINUOUS
 62
     2
 10
1146.700546982
 20
226.950481234
 30
0.0
 42
0.021820078
  0
VERTEX
  8
0
  6
CONTINUOUS
 62
     2
 10
1146.856272122
 20
227.069973336
 30
0.0
 42
0.021820078
  0
VERTEX
  8
0
  6
CONTINUOUS
 62
     2
 10
1147.000990258
 20
227.202583076
 30
0.0
 42
0.021820078
  0
VERTEX
  8
0
  6
CONTINUOUS
 62
     2
 10
1147.133599997
 20
227.347301212
 30
0.0
 42
0.021820078
  0
VERTEX
  8
0
  6
CONTINUOUS
 62
     2
 10
1147.2530921
 20
227.503026352
 30
0.0
 42
0.021820078
  0
VERTEX
  8
0
  6
CONTINUOUS
 62
     2
 10
1147.358557159
 20
227.668573333
 30
0.0
 42
0.021820078
  0
VERTEX
  8
0
  6
CONTINUOUS
 62
     2
 10
1147.449192521
 20
227.842682244
 30
0.0
 42
0.021820078
  0
VERTEX
  8
0
  6
CONTINUOUS
 62
     2
 10
1147.524308397
 20
228.024028011
 30
0.0
 42
0.021820078
  0
VERTEX
  8
0
  6
CONTINUOUS
 62
     2
 10
1147.583333109
 20
228.211230482
 30
0.0
 42
0.021820078
  0
VERTEX
  8
0
  6
CONTINUOUS
 62
     2
 10
1147.625817444
 20
228.402864934
 30
0.0
 42
0.021820078
  0
VERTEX
  8
0
  6
CONTINUOUS
 62
     2
 10
1147.651438071
 20
228.597472912
 30
0.0
 42
0.021820078
  0
SEQEND
  8
0
  6
CONTINUOUS
 62
     2
  0
POLYLINE
  8
0
  6
CONTINUOUS
 62
     2
 66
     1
 70
     1
  0
VERTEX
  8
0
  6
CONTINUOUS
 62
     2
 10
1162.66
 20
228.793573333
 30
0.0
 42
0.021820078
  0
VERTEX
  8
0
  6
CONTINUOUS
 62
     2
 10
1162.651438071
 20
228.989673755
 30
0.0
 42
0.021820078
  0
VERTEX
  8
0
  6
CONTINUOUS
 62
     2
 10
1162.625817444
 20
229.184281733
 30
0.0
 42
0.021820078
  0
VERTEX
  8
0
  6
CONTINUOUS
 62
     2
 10
1162.583333109
 20
229.375916185
 30
0.0
 42
0.021820078
  0
VERTEX
  8
0
  6
CONTINUOUS
 62
     2
 10
1162.524308397
 20
229.563118656
 30
0.0
 42
0.021820078
  0
VERTEX
  8
0
  6
CONTINUOUS
 62
     2
 10
1162.449192521
 20
229.744464422
 30
0.0
 42
0.021820078
  0
VERTEX
  8
0
  6
CONTINUOUS
 62
     2
 10
1162.358557159
 20
229.918573333
 30
0.0
 42
0.021820078
  0
VERTEX
  8
0
  6
CONTINUOUS
 62
     2
 10
1162.2530921
 20
230.084120315
 30
0.0
 42
0.021820078
  0
VERTEX
  8
0
  6
CONTINUOUS
 62
     2
 10
1162.133599997
 20
230.239845455
 30
0.0
 42
0.021820078
  0
VERTEX
  8
0
  6
CONTINUOUS
 62
     2
 10
1162.000990258
 20
230.384563591
 30
0.0
 42
0.021820078
  0
VERTEX
  8
0
  6
CONTINUOUS
 62
     2
 10
1161.856272122
 20
230.51717333
 30
0.0
 42
0.021820078
  0
VERTEX
  8
0
  6
CONTINUOUS
 62
     2
 10
1161.700546982
 20
230.636665433
 30
0.0
 42
0.021820078
  0
VERTEX
  8
0
  6
CONTINUOUS
 62
     2
 10
1161.535
 20
230.742130492
 30
0.0
 42
0.021820078
  0
VERTEX
  8
0
  6
CONTINUOUS
 62
     2
 10
1161.360891089
 20
230.832765854
 30
0.0
 42
0.021820078
  0
VERTEX
  8
0
  6
CONTINUOUS
 62
     2
 10
1161.179545322
 20
230.90788173
 30
0.0
 42
0.021820078
  0
VERTEX
  8
0
  6
CONTINUOUS
 62
     2
 10
1160.992342851
 20
230.966906442
 30
0.0
 42
0.021820078
  0
VERTEX
  8
0
  6
CONTINUOUS
 62
     2
 10
1160.8007084
 20
231.009390778
 30
0.0
 42
0.021820078
  0
VERTEX
  8
0
  6
CONTINUOUS
 62
     2
 10
1160.606100421
 20
231.035011404
 30
0.0
 42
0.021820078
  0
VERTEX
  8
0
  6
CONTINUOUS
 62
     2
 10
1160.41
 20
231.043573333
 30
0.0
 42
0.021820078
  0
VERTEX
  8
0
  6
CONTINUOUS
 62
     2
 10
1160.213899579
 20
231.035011404
 30
0.0
 42
0.021820078
  0
VERTEX
  8
0
  6
CONTINUOUS
 62
     2
 10
1160.0192916
 20
231.009390778
 30
0.0
 42
0.021820078
  0
VERTEX
  8
0
  6
CONTINUOUS
 62
     2
 10
1159.827657149
 20
230.966906442
 30
0.0
 42
0.021820078
  0
VERTEX
  8
0
  6
CONTINUOUS
 62
     2
 10
1159.640454678
 20
230.90788173
 30
0.0
 42
0.021820078
  0
VERTEX
  8
0
  6
CONTINUOUS
 62
     2
 10
1159.459108911
 20
230.832765854
 30
0.0
 42
0.021820078
  0
VERTEX
  8
0
  6
CONTINUOUS
 62
     2
 10
1159.285
 20
230.742130492
 30
0.0
 42
0.021820078
  0
VERTEX
  8
0
  6
CONTINUOUS
 62
     2
 10
1159.119453018
 20
230.636665433
 30
0.0
 42
0.021820078
  0
VERTEX
  8
0
  6
CONTINUOUS
 62
     2
 10
1158.963727878
 20
230.51717333
 30
0.0
 42
0.021820078
  0
VERTEX
  8
0
  6
CONTINUOUS
 62
     2
 10
1158.819009742
 20
230.384563591
 30
0.0
 42
0.021820078
  0
VERTEX
  8
0
  6
CONTINUOUS
 62
     2
 10
1158.686400003
 20
230.239845455
 30
0.0
 42
0.021820078
  0
VERTEX
  8
0
  6
CONTINUOUS
 62
     2
 10
1158.5669079
 20
230.084120315
 30
0.0
 42
0.021820078
  0
VERTEX
  8
0
  6
CONTINUOUS
 62
     2
 10
1158.461442841
 20
229.918573333
 30
0.0
 42
0.021820078
  0
VERTEX
  8
0
  6
CONTINUOUS
 62
     2
 10
1158.370807479
 20
229.744464422
 30
0.0
 42
0.021820078
  0
VERTEX
  8
0
  6
CONTINUOUS
 62
     2
 10
1158.295691603
 20
229.563118656
 30
0.0
 42
0.021820078
  0
VERTEX
  8
0
  6
CONTINUOUS
 62
     2
 10
1158.236666891
 20
229.375916185
 30
0.0
 42
0.021820078
  0
VERTEX
  8
0
  6
CONTINUOUS
 62
     2
 10
1158.194182556
 20
229.184281733
 30
0.0
 42
0.021820078
  0
VERTEX
  8
0
  6
CONTINUOUS
 62
     2
 10
1158.168561929
 20
228.989673755
 30
0.0
 42
0.021820078
  0
VERTEX
  8
0
  6
CONTINUOUS
 62
     2
 10
1158.16
 20
228.793573333
 30
0.0
 42
0.021820078
  0
VERTEX
  8
0
  6
CONTINUOUS
 62
     2
 10
1158.168561929
 20
228.597472912
 30
0.0
 42
0.021820078
  0
VERTEX
  8
0
  6
CONTINUOUS
 62
     2
 10
1158.194182556
 20
228.402864934
 30
0.0
 42
0.021820078
  0
VERTEX
  8
0
  6
CONTINUOUS
 62
     2
 10
1158.236666891
 20
228.211230482
 30
0.0
 42
0.021820078
  0
VERTEX
  8
0
  6
CONTINUOUS
 62
     2
 10
1158.295691603
 20
228.024028011
 30
0.0
 42
0.021820078
  0
VERTEX
  8
0
  6
CONTINUOUS
 62
     2
 10
1158.370807479
 20
227.842682244
 30
0.0
 42
0.021820078
  0
VERTEX
  8
0
  6
CONTINUOUS
 62
     2
 10
1158.461442841
 20
227.668573333
 30
0.0
 42
0.021820078
  0
VERTEX
  8
0
  6
CONTINUOUS
 62
     2
 10
1158.5669079
 20
227.503026352
 30
0.0
 42
0.021820078
  0
VERTEX
  8
0
  6
CONTINUOUS
 62
     2
 10
1158.686400003
 20
227.347301212
 30
0.0
 42
0.021820078
  0
VERTEX
  8
0
  6
CONTINUOUS
 62
     2
 10
1158.819009742
 20
227.202583076
 30
0.0
 42
0.021820078
  0
VERTEX
  8
0
  6
CONTINUOUS
 62
     2
 10
1158.963727878
 20
227.069973336
 30
0.0
 42
0.021820078
  0
VERTEX
  8
0
  6
CONTINUOUS
 62
     2
 10
1159.119453018
 20
226.950481234
 30
0.0
 42
0.021820078
  0
VERTEX
  8
0
  6
CONTINUOUS
 62
     2
 10
1159.285
 20
226.845016175
 30
0.0
 42
0.021820078
  0
VERTEX
  8
0
  6
CONTINUOUS
 62
     2
 10
1159.459108911
 20
226.754380812
 30
0.0
 42
0.021820078
  0
VERTEX
  8
0
  6
CONTINUOUS
 62
     2
 10
1159.640454678
 20
226.679264937
 30
0.0
 42
0.021820078
  0
VERTEX
  8
0
  6
CONTINUOUS
 62
     2
 10
1159.827657149
 20
226.620240224
 30
0.0
 42
0.021820078
  0
VERTEX
  8
0
  6
CONTINUOUS
 62
     2
 10
1160.0192916
 20
226.577755889
 30
0.0
 42
0.021820078
  0
VERTEX
  8
0
  6
CONTINUOUS
 62
     2
 10
1160.213899579
 20
226.552135263
 30
0.0
 42
0.021820078
  0
VERTEX
  8
0
  6
CONTINUOUS
 62
     2
 10
1160.41
 20
226.543573333
 30
0.0
 42
0.021820078
  0
VERTEX
  8
0
  6
CONTINUOUS
 62
     2
 10
1160.606100421
 20
226.552135263
 30
0.0
 42
0.021820078
  0
VERTEX
  8
0
  6
CONTINUOUS
 62
     2
 10
1160.8007084
 20
226.577755889
 30
0.0
 42
0.021820078
  0
VERTEX
  8
0
  6
CONTINUOUS
 62
     2
 10
1160.992342851
 20
226.620240224
 30
0.0
 42
0.021820078
  0
VERTEX
  8
0
  6
CONTINUOUS
 62
     2
 10
1161.179545322
 20
226.679264937
 30
0.0
 42
0.021820078
  0
VERTEX
  8
0
  6
CONTINUOUS
 62
     2
 10
1161.360891089
 20
226.754380812
 30
0.0
 42
0.021820078
  0
VERTEX
  8
0
  6
CONTINUOUS
 62
     2
 10
1161.535
 20
226.845016175
 30
0.0
 42
0.021820078
  0
VERTEX
  8
0
  6
CONTINUOUS
 62
     2
 10
1161.700546982
 20
226.950481234
 30
0.0
 42
0.021820078
  0
VERTEX
  8
0
  6
CONTINUOUS
 62
     2
 10
1161.856272122
 20
227.069973336
 30
0.0
 42
0.021820078
  0
VERTEX
  8
0
  6
CONTINUOUS
 62
     2
 10
1162.000990258
 20
227.202583076
 30
0.0
 42
0.021820078
  0
VERTEX
  8
0
  6
CONTINUOUS
 62
     2
 10
1162.133599997
 20
227.347301212
 30
0.0
 42
0.021820078
  0
VERTEX
  8
0
  6
CONTINUOUS
 62
     2
 10
1162.2530921
 20
227.503026352
 30
0.0
 42
0.021820078
  0
VERTEX
  8
0
  6
CONTINUOUS
 62
     2
 10
1162.358557159
 20
227.668573333
 30
0.0
 42
0.021820078
  0
VERTEX
  8
0
  6
CONTINUOUS
 62
     2
 10
1162.449192521
 20
227.842682244
 30
0.0
 42
0.021820078
  0
VERTEX
  8
0
  6
CONTINUOUS
 62
     2
 10
1162.524308397
 20
228.024028011
 30
0.0
 42
0.021820078
  0
VERTEX
  8
0
  6
CONTINUOUS
 62
     2
 10
1162.583333109
 20
228.211230482
 30
0.0
 42
0.021820078
  0
VERTEX
  8
0
  6
CONTINUOUS
 62
     2
 10
1162.625817444
 20
228.402864934
 30
0.0
 42
0.021820078
  0
VERTEX
  8
0
  6
CONTINUOUS
 62
     2
 10
1162.651438071
 20
228.597472912
 30
0.0
 42
0.021820078
  0
SEQEND
  8
0
  6
CONTINUOUS
 62
     2
  0
POLYLINE
  8
0
  6
CONTINUOUS
 62
     2
 66
     1
 70
     1
  0
VERTEX
  8
0
  6
CONTINUOUS
 62
     2
 10
1147.66
 20
184.443573333
 30
0.0
 42
-0.021820078
  0
VERTEX
  8
0
  6
CONTINUOUS
 62
     2
 10
1147.651438071
 20
184.247472912
 30
0.0
 42
-0.021820078
  0
VERTEX
  8
0
  6
CONTINUOUS
 62
     2
 10
1147.625817444
 20
184.052864934
 30
0.0
 42
-0.021820078
  0
VERTEX
  8
0
  6
CONTINUOUS
 62
     2
 10
1147.583333109
 20
183.861230482
 30
0.0
 42
-0.021820078
  0
VERTEX
  8
0
  6
CONTINUOUS
 62
     2
 10
1147.524308397
 20
183.674028011
 30
0.0
 42
-0.021820078
  0
VERTEX
  8
0
  6
CONTINUOUS
 62
     2
 10
1147.449192521
 20
183.492682244
 30
0.0
 42
-0.021820078
  0
VERTEX
  8
0
  6
CONTINUOUS
 62
     2
 10
1147.358557159
 20
183.318573333
 30
0.0
 42
-0.021820078
  0
VERTEX
  8
0
  6
CONTINUOUS
 62
     2
 10
1147.2530921
 20
183.153026352
 30
0.0
 42
-0.021820078
  0
VERTEX
  8
0
  6
CONTINUOUS
 62
     2
 10
1147.133599997
 20
182.997301212
 30
0.0
 42
-0.021820078
  0
VERTEX
  8
0
  6
CONTINUOUS
 62
     2
 10
1147.000990258
 20
182.852583076
 30
0.0
 42
-0.021820078
  0
VERTEX
  8
0
  6
CONTINUOUS
 62
     2
 10
1146.856272122
 20
182.719973336
 30
0.0
 42
-0.021820078
  0
VERTEX
  8
0
  6
CONTINUOUS
 62
     2
 10
1146.700546982
 20
182.600481234
 30
0.0
 42
-0.021820078
  0
VERTEX
  8
0
  6
CONTINUOUS
 62
     2
 10
1146.535
 20
182.495016175
 30
0.0
 42
-0.021820078
  0
VERTEX
  8
0
  6
CONTINUOUS
 62
     2
 10
1146.360891089
 20
182.404380812
 30
0.0
 42
-0.021820078
  0
VERTEX
  8
0
  6
CONTINUOUS
 62
     2
 10
1146.179545322
 20
182.329264937
 30
0.0
 42
-0.021820078
  0
VERTEX
  8
0
  6
CONTINUOUS
 62
     2
 10
1145.992342851
 20
182.270240224
 30
0.0
 42
-0.021820078
  0
VERTEX
  8
0
  6
CONTINUOUS
 62
     2
 10
1145.8007084
 20
182.227755889
 30
0.0
 42
-0.021820078
  0
VERTEX
  8
0
  6
CONTINUOUS
 62
     2
 10
1145.606100421
 20
182.202135263
 30
0.0
 42
-0.021820078
  0
VERTEX
  8
0
  6
CONTINUOUS
 62
     2
 10
1145.41
 20
182.193573333
 30
0.0
 42
-0.021820078
  0
VERTEX
  8
0
  6
CONTINUOUS
 62
     2
 10
1145.213899579
 20
182.202135263
 30
0.0
 42
-0.021820078
  0
VERTEX
  8
0
  6
CONTINUOUS
 62
     2
 10
1145.0192916
 20
182.227755889
 30
0.0
 42
-0.021820078
  0
VERTEX
  8
0
  6
CONTINUOUS
 62
     2
 10
1144.827657149
 20
182.270240224
 30
0.0
 42
-0.021820078
  0
VERTEX
  8
0
  6
CONTINUOUS
 62
     2
 10
1144.640454678
 20
182.329264937
 30
0.0
 42
-0.021820078
  0
VERTEX
  8
0
  6
CONTINUOUS
 62
     2
 10
1144.459108911
 20
182.404380812
 30
0.0
 42
-0.021820078
  0
VERTEX
  8
0
  6
CONTINUOUS
 62
     2
 10
1144.285
 20
182.495016175
 30
0.0
 42
-0.021820078
  0
VERTEX
  8
0
  6
CONTINUOUS
 62
     2
 10
1144.119453018
 20
182.600481234
 30
0.0
 42
-0.021820078
  0
VERTEX
  8
0
  6
CONTINUOUS
 62
     2
 10
1143.963727878
 20
182.719973336
 30
0.0
 42
-0.021820078
  0
VERTEX
  8
0
  6
CONTINUOUS
 62
     2
 10
1143.819009742
 20
182.852583076
 30
0.0
 42
-0.021820078
  0
VERTEX
  8
0
  6
CONTINUOUS
 62
     2
 10
1143.686400003
 20
182.997301212
 30
0.0
 42
-0.021820078
  0
VERTEX
  8
0
  6
CONTINUOUS
 62
     2
 10
1143.5669079
 20
183.153026352
 30
0.0
 42
-0.021820078
  0
VERTEX
  8
0
  6
CONTINUOUS
 62
     2
 10
1143.461442841
 20
183.318573333
 30
0.0
 42
-0.021820078
  0
VERTEX
  8
0
  6
CONTINUOUS
 62
     2
 10
1143.370807479
 20
183.492682244
 30
0.0
 42
-0.021820078
  0
VERTEX
  8
0
  6
CONTINUOUS
 62
     2
 10
1143.295691603
 20
183.674028011
 30
0.0
 42
-0.021820078
  0
VERTEX
  8
0
  6
CONTINUOUS
 62
     2
 10
1143.236666891
 20
183.861230482
 30
0.0
 42
-0.021820078
  0
VERTEX
  8
0
  6
CONTINUOUS
 62
     2
 10
1143.194182556
 20
184.052864934
 30
0.0
 42
-0.021820078
  0
VERTEX
  8
0
  6
CONTINUOUS
 62
     2
 10
1143.168561929
 20
184.247472912
 30
0.0
 42
-0.021820078
  0
VERTEX
  8
0
  6
CONTINUOUS
 62
     2
 10
1143.16
 20
184.443573333
 30
0.0
 42
-0.021820078
  0
VERTEX
  8
0
  6
CONTINUOUS
 62
     2
 10
1143.168561929
 20
184.639673755
 30
0.0
 42
-0.021820078
  0
VERTEX
  8
0
  6
CONTINUOUS
 62
     2
 10
1143.194182556
 20
184.834281733
 30
0.0
 42
-0.021820078
  0
VERTEX
  8
0
  6
CONTINUOUS
 62
     2
 10
1143.236666891
 20
185.025916185
 30
0.0
 42
-0.021820078
  0
VERTEX
  8
0
  6
CONTINUOUS
 62
     2
 10
1143.295691603
 20
185.213118656
 30
0.0
 42
-0.021820078
  0
VERTEX
  8
0
  6
CONTINUOUS
 62
     2
 10
1143.370807479
 20
185.394464422
 30
0.0
 42
-0.021820078
  0
VERTEX
  8
0
  6
CONTINUOUS
 62
     2
 10
1143.461442841
 20
185.568573333
 30
0.0
 42
-0.021820078
  0
VERTEX
  8
0
  6
CONTINUOUS
 62
     2
 10
1143.5669079
 20
185.734120315
 30
0.0
 42
-0.021820078
  0
VERTEX
  8
0
  6
CONTINUOUS
 62
     2
 10
1143.686400003
 20
185.889845455
 30
0.0
 42
-0.021820078
  0
VERTEX
  8
0
  6
CONTINUOUS
 62
     2
 10
1143.819009742
 20
186.034563591
 30
0.0
 42
-0.021820078
  0
VERTEX
  8
0
  6
CONTINUOUS
 62
     2
 10
1143.963727878
 20
186.16717333
 30
0.0
 42
-0.021820078
  0
VERTEX
  8
0
  6
CONTINUOUS
 62
     2
 10
1144.119453018
 20
186.286665433
 30
0.0
 42
-0.021820078
  0
VERTEX
  8
0
  6
CONTINUOUS
 62
     2
 10
1144.285
 20
186.392130492
 30
0.0
 42
-0.021820078
  0
VERTEX
  8
0
  6
CONTINUOUS
 62
     2
 10
1144.459108911
 20
186.482765854
 30
0.0
 42
-0.021820078
  0
VERTEX
  8
0
  6
CONTINUOUS
 62
     2
 10
1144.640454678
 20
186.55788173
 30
0.0
 42
-0.021820078
  0
VERTEX
  8
0
  6
CONTINUOUS
 62
     2
 10
1144.827657149
 20
186.616906442
 30
0.0
 42
-0.021820078
  0
VERTEX
  8
0
  6
CONTINUOUS
 62
     2
 10
1145.0192916
 20
186.659390778
 30
0.0
 42
-0.021820078
  0
VERTEX
  8
0
  6
CONTINUOUS
 62
     2
 10
1145.213899579
 20
186.685011404
 30
0.0
 42
-0.021820078
  0
VERTEX
  8
0
  6
CONTINUOUS
 62
     2
 10
1145.41
 20
186.693573333
 30
0.0
 42
-0.021820078
  0
VERTEX
  8
0
  6
CONTINUOUS
 62
     2
 10
1145.606100421
 20
186.685011404
 30
0.0
 42
-0.021820078
  0
VERTEX
  8
0
  6
CONTINUOUS
 62
     2
 10
1145.8007084
 20
186.659390778
 30
0.0
 42
-0.021820078
  0
VERTEX
  8
0
  6
CONTINUOUS
 62
     2
 10
1145.992342851
 20
186.616906442
 30
0.0
 42
-0.021820078
  0
VERTEX
  8
0
  6
CONTINUOUS
 62
     2
 10
1146.179545322
 20
186.55788173
 30
0.0
 42
-0.021820078
  0
VERTEX
  8
0
  6
CONTINUOUS
 62
     2
 10
1146.360891089
 20
186.482765854
 30
0.0
 42
-0.021820078
  0
VERTEX
  8
0
  6
CONTINUOUS
 62
     2
 10
1146.535
 20
186.392130492
 30
0.0
 42
-0.021820078
  0
VERTEX
  8
0
  6
CONTINUOUS
 62
     2
 10
1146.700546982
 20
186.286665433
 30
0.0
 42
-0.021820078
  0
VERTEX
  8
0
  6
CONTINUOUS
 62
     2
 10
1146.856272122
 20
186.16717333
 30
0.0
 42
-0.021820078
  0
VERTEX
  8
0
  6
CONTINUOUS
 62
     2
 10
1147.000990258
 20
186.034563591
 30
0.0
 42
-0.021820078
  0
VERTEX
  8
0
  6
CONTINUOUS
 62
     2
 10
1147.133599997
 20
185.889845455
 30
0.0
 42
-0.021820078
  0
VERTEX
  8
0
  6
CONTINUOUS
 62
     2
 10
1147.2530921
 20
185.734120315
 30
0.0
 42
-0.021820078
  0
VERTEX
  8
0
  6
CONTINUOUS
 62
     2
 10
1147.358557159
 20
185.568573333
 30
0.0
 42
-0.021820078
  0
VERTEX
  8
0
  6
CONTINUOUS
 62
     2
 10
1147.449192521
 20
185.394464422
 30
0.0
 42
-0.021820078
  0
VERTEX
  8
0
  6
CONTINUOUS
 62
     2
 10
1147.524308397
 20
185.213118656
 30
0.0
 42
-0.021820078
  0
VERTEX
  8
0
  6
CONTINUOUS
 62
     2
 10
1147.583333109
 20
185.025916185
 30
0.0
 42
-0.021820078
  0
VERTEX
  8
0
  6
CONTINUOUS
 62
     2
 10
1147.625817444
 20
184.834281733
 30
0.0
 42
-0.021820078
  0
VERTEX
  8
0
  6
CONTINUOUS
 62
     2
 10
1147.651438071
 20
184.639673755
 30
0.0
 42
-0.021820078
  0
SEQEND
  8
0
  6
CONTINUOUS
 62
     2
  0
POLYLINE
  8
0
  6
CONTINUOUS
 62
     2
 66
     1
 70
     1
  0
VERTEX
  8
0
  6
CONTINUOUS
 62
     2
 10
1162.66
 20
184.443573333
 30
0.0
 42
-0.021820078
  0
VERTEX
  8
0
  6
CONTINUOUS
 62
     2
 10
1162.651438071
 20
184.247472912
 30
0.0
 42
-0.021820078
  0
VERTEX
  8
0
  6
CONTINUOUS
 62
     2
 10
1162.625817444
 20
184.052864934
 30
0.0
 42
-0.021820078
  0
VERTEX
  8
0
  6
CONTINUOUS
 62
     2
 10
1162.583333109
 20
183.861230482
 30
0.0
 42
-0.021820078
  0
VERTEX
  8
0
  6
CONTINUOUS
 62
     2
 10
1162.524308397
 20
183.674028011
 30
0.0
 42
-0.021820078
  0
VERTEX
  8
0
  6
CONTINUOUS
 62
     2
 10
1162.449192521
 20
183.492682244
 30
0.0
 42
-0.021820078
  0
VERTEX
  8
0
  6
CONTINUOUS
 62
     2
 10
1162.358557159
 20
183.318573333
 30
0.0
 42
-0.021820078
  0
VERTEX
  8
0
  6
CONTINUOUS
 62
     2
 10
1162.2530921
 20
183.153026352
 30
0.0
 42
-0.021820078
  0
VERTEX
  8
0
  6
CONTINUOUS
 62
     2
 10
1162.133599997
 20
182.997301212
 30
0.0
 42
-0.021820078
  0
VERTEX
  8
0
  6
CONTINUOUS
 62
     2
 10
1162.000990258
 20
182.852583076
 30
0.0
 42
-0.021820078
  0
VERTEX
  8
0
  6
CONTINUOUS
 62
     2
 10
1161.856272122
 20
182.719973336
 30
0.0
 42
-0.021820078
  0
VERTEX
  8
0
  6
CONTINUOUS
 62
     2
 10
1161.700546982
 20
182.600481234
 30
0.0
 42
-0.021820078
  0
VERTEX
  8
0
  6
CONTINUOUS
 62
     2
 10
1161.535
 20
182.495016175
 30
0.0
 42
-0.021820078
  0
VERTEX
  8
0
  6
CONTINUOUS
 62
     2
 10
1161.360891089
 20
182.404380812
 30
0.0
 42
-0.021820078
  0
VERTEX
  8
0
  6
CONTINUOUS
 62
     2
 10
1161.179545322
 20
182.329264937
 30
0.0
 42
-0.021820078
  0
VERTEX
  8
0
  6
CONTINUOUS
 62
     2
 10
1160.992342851
 20
182.270240224
 30
0.0
 42
-0.021820078
  0
VERTEX
  8
0
  6
CONTINUOUS
 62
     2
 10
1160.8007084
 20
182.227755889
 30
0.0
 42
-0.021820078
  0
VERTEX
  8
0
  6
CONTINUOUS
 62
     2
 10
1160.606100421
 20
182.202135263
 30
0.0
 42
-0.021820078
  0
VERTEX
  8
0
  6
CONTINUOUS
 62
     2
 10
1160.41
 20
182.193573333
 30
0.0
 42
-0.021820078
  0
VERTEX
  8
0
  6
CONTINUOUS
 62
     2
 10
1160.213899579
 20
182.202135263
 30
0.0
 42
-0.021820078
  0
VERTEX
  8
0
  6
CONTINUOUS
 62
     2
 10
1160.0192916
 20
182.227755889
 30
0.0
 42
-0.021820078
  0
VERTEX
  8
0
  6
CONTINUOUS
 62
     2
 10
1159.827657149
 20
182.270240224
 30
0.0
 42
-0.021820078
  0
VERTEX
  8
0
  6
CONTINUOUS
 62
     2
 10
1159.640454678
 20
182.329264937
 30
0.0
 42
-0.021820078
  0
VERTEX
  8
0
  6
CONTINUOUS
 62
     2
 10
1159.459108911
 20
182.404380812
 30
0.0
 42
-0.021820078
  0
VERTEX
  8
0
  6
CONTINUOUS
 62
     2
 10
1159.285
 20
182.495016175
 30
0.0
 42
-0.021820078
  0
VERTEX
  8
0
  6
CONTINUOUS
 62
     2
 10
1159.119453018
 20
182.600481234
 30
0.0
 42
-0.021820078
  0
VERTEX
  8
0
  6
CONTINUOUS
 62
     2
 10
1158.963727878
 20
182.719973336
 30
0.0
 42
-0.021820078
  0
VERTEX
  8
0
  6
CONTINUOUS
 62
     2
 10
1158.819009742
 20
182.852583076
 30
0.0
 42
-0.021820078
  0
VERTEX
  8
0
  6
CONTINUOUS
 62
     2
 10
1158.686400003
 20
182.997301212
 30
0.0
 42
-0.021820078
  0
VERTEX
  8
0
  6
CONTINUOUS
 62
     2
 10
1158.5669079
 20
183.153026352
 30
0.0
 42
-0.021820078
  0
VERTEX
  8
0
  6
CONTINUOUS
 62
     2
 10
1158.461442841
 20
183.318573333
 30
0.0
 42
-0.021820078
  0
VERTEX
  8
0
  6
CONTINUOUS
 62
     2
 10
1158.370807479
 20
183.492682244
 30
0.0
 42
-0.021820078
  0
VERTEX
  8
0
  6
CONTINUOUS
 62
     2
 10
1158.295691603
 20
183.674028011
 30
0.0
 42
-0.021820078
  0
VERTEX
  8
0
  6
CONTINUOUS
 62
     2
 10
1158.236666891
 20
183.861230482
 30
0.0
 42
-0.021820078
  0
VERTEX
  8
0
  6
CONTINUOUS
 62
     2
 10
1158.194182556
 20
184.052864934
 30
0.0
 42
-0.021820078
  0
VERTEX
  8
0
  6
CONTINUOUS
 62
     2
 10
1158.168561929
 20
184.247472912
 30
0.0
 42
-0.021820078
  0
VERTEX
  8
0
  6
CONTINUOUS
 62
     2
 10
1158.16
 20
184.443573333
 30
0.0
 42
-0.021820078
  0
VERTEX
  8
0
  6
CONTINUOUS
 62
     2
 10
1158.168561929
 20
184.639673755
 30
0.0
 42
-0.021820078
  0
VERTEX
  8
0
  6
CONTINUOUS
 62
     2
 10
1158.194182556
 20
184.834281733
 30
0.0
 42
-0.021820078
  0
VERTEX
  8
0
  6
CONTINUOUS
 62
     2
 10
1158.236666891
 20
185.025916185
 30
0.0
 42
-0.021820078
  0
VERTEX
  8
0
  6
CONTINUOUS
 62
     2
 10
1158.295691603
 20
185.213118656
 30
0.0
 42
-0.021820078
  0
VERTEX
  8
0
  6
CONTINUOUS
 62
     2
 10
1158.370807479
 20
185.394464422
 30
0.0
 42
-0.021820078
  0
VERTEX
  8
0
  6
CONTINUOUS
 62
     2
 10
1158.461442841
 20
185.568573333
 30
0.0
 42
-0.021820078
  0
VERTEX
  8
0
  6
CONTINUOUS
 62
     2
 10
1158.5669079
 20
185.734120315
 30
0.0
 42
-0.021820078
  0
VERTEX
  8
0
  6
CONTINUOUS
 62
     2
 10
1158.686400003
 20
185.889845455
 30
0.0
 42
-0.021820078
  0
VERTEX
  8
0
  6
CONTINUOUS
 62
     2
 10
1158.819009742
 20
186.034563591
 30
0.0
 42
-0.021820078
  0
VERTEX
  8
0
  6
CONTINUOUS
 62
     2
 10
1158.963727878
 20
186.16717333
 30
0.0
 42
-0.021820078
  0
VERTEX
  8
0
  6
CONTINUOUS
 62
     2
 10
1159.119453018
 20
186.286665433
 30
0.0
 42
-0.021820078
  0
VERTEX
  8
0
  6
CONTINUOUS
 62
     2
 10
1159.285
 20
186.392130492
 30
0.0
 42
-0.021820078
  0
VERTEX
  8
0
  6
CONTINUOUS
 62
     2
 10
1159.459108911
 20
186.482765854
 30
0.0
 42
-0.021820078
  0
VERTEX
  8
0
  6
CONTINUOUS
 62
     2
 10
1159.640454678
 20
186.55788173
 30
0.0
 42
-0.021820078
  0
VERTEX
  8
0
  6
CONTINUOUS
 62
     2
 10
1159.827657149
 20
186.616906442
 30
0.0
 42
-0.021820078
  0
VERTEX
  8
0
  6
CONTINUOUS
 62
     2
 10
1160.0192916
 20
186.659390778
 30
0.0
 42
-0.021820078
  0
VERTEX
  8
0
  6
CONTINUOUS
 62
     2
 10
1160.213899579
 20
186.685011404
 30
0.0
 42
-0.021820078
  0
VERTEX
  8
0
  6
CONTINUOUS
 62
     2
 10
1160.41
 20
186.693573333
 30
0.0
 42
-0.021820078
  0
VERTEX
  8
0
  6
CONTINUOUS
 62
     2
 10
1160.606100421
 20
186.685011404
 30
0.0
 42
-0.021820078
  0
VERTEX
  8
0
  6
CONTINUOUS
 62
     2
 10
1160.8007084
 20
186.659390778
 30
0.0
 42
-0.021820078
  0
VERTEX
  8
0
  6
CONTINUOUS
 62
     2
 10
1160.992342851
 20
186.616906442
 30
0.0
 42
-0.021820078
  0
VERTEX
  8
0
  6
CONTINUOUS
 62
     2
 10
1161.179545322
 20
186.55788173
 30
0.0
 42
-0.021820078
  0
VERTEX
  8
0
  6
CONTINUOUS
 62
     2
 10
1161.360891089
 20
186.482765854
 30
0.0
 42
-0.021820078
  0
VERTEX
  8
0
  6
CONTINUOUS
 62
     2
 10
1161.535
 20
186.392130492
 30
0.0
 42
-0.021820078
  0
VERTEX
  8
0
  6
CONTINUOUS
 62
     2
 10
1161.700546982
 20
186.286665433
 30
0.0
 42
-0.021820078
  0
VERTEX
  8
0
  6
CONTINUOUS
 62
     2
 10
1161.856272122
 20
186.16717333
 30
0.0
 42
-0.021820078
  0
VERTEX
  8
0
  6
CONTINUOUS
 62
     2
 10
1162.000990258
 20
186.034563591
 30
0.0
 42
-0.021820078
  0
VERTEX
  8
0
  6
CONTINUOUS
 62
     2
 10
1162.133599997
 20
185.889845455
 30
0.0
 42
-0.021820078
  0
VERTEX
  8
0
  6
CONTINUOUS
 62
     2
 10
1162.2530921
 20
185.734120315
 30
0.0
 42
-0.021820078
  0
VERTEX
  8
0
  6
CONTINUOUS
 62
     2
 10
1162.358557159
 20
185.568573333
 30
0.0
 42
-0.021820078
  0
VERTEX
  8
0
  6
CONTINUOUS
 62
     2
 10
1162.449192521
 20
185.394464422
 30
0.0
 42
-0.021820078
  0
VERTEX
  8
0
  6
CONTINUOUS
 62
     2
 10
1162.524308397
 20
185.213118656
 30
0.0
 42
-0.021820078
  0
VERTEX
  8
0
  6
CONTINUOUS
 62
     2
 10
1162.583333109
 20
185.025916185
 30
0.0
 42
-0.021820078
  0
VERTEX
  8
0
  6
CONTINUOUS
 62
     2
 10
1162.625817444
 20
184.834281733
 30
0.0
 42
-0.021820078
  0
VERTEX
  8
0
  6
CONTINUOUS
 62
     2
 10
1162.651438071
 20
184.639673755
 30
0.0
 42
-0.021820078
  0
SEQEND
  8
0
  6
CONTINUOUS
 62
     2
  0
TEXT
  8
0
  6
CONTINUOUS
 62
     2
 10
1136.66
 20
174.043573333
 30
0.0
 40
10.0
  1
１
 50
0.0
 41
0.85
 51
0.0
  7
KANJI46
  0
TEXT
  8
0
  6
CONTINUOUS
 62
     2
 10
1161.66
 20
174.043573333
 30
0.0
 40
10.0
  1
２
 50
0.0
 41
0.85
 51
0.0
  7
KANJI46
  0
TEXT
  8
0
  6
CONTINUOUS
 62
     2
 10
1104.76
 20
228.743573333
 30
0.0
 40
10.0
  1
（ＮＯ）
 50
0.0
 41
0.75
 51
0.0
  7
KANJI47
  0
TEXT
  8
0
  6
CONTINUOUS
 62
     2
 10
1170.76
 20
228.743573333
 30
0.0
 40
10.0
  1
（ＮＯ）
 50
0.0
 41
0.75
 51
0.0
  7
KANJI47
  0
TEXT
  8
0
  6
CONTINUOUS
 62
     2
 10
1104.76
 20
171.243573333
 30
0.0
 40
10.0
  1
（ＮＣ）
 50
0.0
 41
0.75
 51
0.0
  7
KANJI47
  0
TEXT
  8
0
  6
CONTINUOUS
 62
     2
 10
1170.76
 20
171.243573333
 30
0.0
 40
10.0
  1
（ＮＣ）
 50
0.0
 41
0.75
 51
0.0
  7
KANJI47
  0
TEXT
  8
0
  6
CONTINUOUS
 62
     2
 10
1088.635
 20
142.243573333
 30
0.0
 40
15.0
  1
外部ＬＳリミットＳＷ
 50
0.0
 41
0.9
 51
0.0
  7
KANJI43
  0
LINE
  8
0
  6
CONTINUOUS
 62
     2
 10
1230.385
 20
129.743573333
 30
0.0
 11
1230.385
 21
299.493573333
 31
0.0
  0
LINE
  8
0
  6
CONTINUOUS
 62
     2
 10
816.135
 20
126.52754793
 30
0.0
 11
827.726109915
 21
123.421719388
 31
0.0
  0
LINE
  8
0
  6
CONTINUOUS
 62
     2
 10
816.135
 20
126.52754793
 30
0.0
 11
827.726109915
 21
129.633376471
 31
0.0
  0
LINE
  8
0
  6
CONTINUOUS
 62
     2
 10
816.135
 20
126.52754793
 30
0.0
 11
946.135
 21
126.52754793
 31
0.0
  0
LINE
  8
0
  6
CONTINUOUS
 62
     2
 10
946.135
 20
126.52754793
 30
0.0
 11
934.543890085
 21
129.633376471
 31
0.0
  0
LINE
  8
0
  6
CONTINUOUS
 62
     2
 10
946.135
 20
126.52754793
 30
0.0
 11
934.543890085
 21
123.421719388
 31
0.0
  0
TEXT
  8
0
  6
CONTINUOUS
 62
     2
 10
1125.885
 20
123.243573333
 30
0.0
 40
15.0
  1
端子符号
 50
0.0
 41
0.9
 51
0.0
  7
KANJI43
  0
LINE
  8
0
  6
CONTINUOUS
 62
     2
 10
1185.385
 20
129.743573333
 30
0.0
 11
1230.385
 21
129.743573333
 31
0.0
  0
LINE
  8
0
  6
CONTINUOUS
 62
     2
 10
1077.135
 20
129.743573333
 30
0.0
 11
1116.135
 21
129.743573333
 31
0.0
  0
TEXT
  8
0
  6
CONTINUOUS
 62
     3
 10
856.835
 20
135.52754793
 30
0.0
 40
18.0
  1
１３０
 50
0.0
 41
0.9
 51
0.0
  7
KANJI44
  0
LINE
  8
0
  6
CONTINUOUS
 62
     2
 10
1489.135
 20
1121.993573333
 30
0.0
 11
1503.623887394
 21
1118.111287657
 31
0.0
  0
LINE
  8
0
  6
CONTINUOUS
 62
     2
 10
1489.135
 20
1121.993573333
 30
0.0
 11
1503.623887394
 21
1125.87585901
 31
0.0
  0
LINE
  8
0
  6
CONTINUOUS
 62
     2
 10
1489.135
 20
1121.993573333
 30
0.0
 11
1739.135
 21
1121.993573333
 31
0.0
  0
LINE
  8
0
  6
CONTINUOUS
 62
     2
 10
1739.135
 20
1121.993573333
 30
0.0
 11
1724.646112606
 21
1125.87585901
 31
0.0
  0
LINE
  8
0
  6
CONTINUOUS
 62
     2
 10
1739.135
 20
1121.993573333
 30
0.0
 11
1724.646112606
 21
1118.111287657
 31
0.0
  0
TEXT
  8
0
  6
CONTINUOUS
 62
     2
 10
1579.935
 20
1127.993573333
 30
0.0
 40
21.0
  1
φ２５０
 50
0.0
 41
0.9
 51
0.0
  7
KANJI41
  0
LINE
  8
0
  6
CONTINUOUS
 62
     2
 10
1739.135
 20
901.493573333
 30
0.0
 11
1739.135
 21
1125.87585901
 31
0.0
  0
LINE
  8
0
  6
CONTINUOUS
 62
     2
 10
1489.135
 20
901.493573333
 30
0.0
 11
1489.135
 21
1125.87585901
 31
0.0
  0
TEXT
  8
0
  6
CONTINUOUS
 62
     2
 10
1280.035
 20
1694.586906667
 30
1.12
 40
16.8
  1
ＭＣＬＦ４－　　２ＪＬ
 50
0.0
 41
0.833333333
 51
0.0
  7
KANJI48
  0
TEXT
  8
0
  6
CONTINUOUS
 62
     2
 10
1280.035
 20
1657.72024
 30
1.12
 40
16.8
  1
ＭＣＬＦ４－　　３ＪＬ
 50
0.0
 41
0.833333333
 51
0.0
  7
KANJI48
  0
TEXT
  8
0
  6
CONTINUOUS
 62
     2
 10
1280.035
 20
1620.853573333
 30
1.12
 40
16.8
  1
ＭＣＬＦ４－　　４ＪＬ
 50
0.0
 41
0.833333333
 51
0.0
  7
KANJI48
  0
TEXT
  8
0
  6
CONTINUOUS
 62
     2
 10
1280.035
 20
1583.986906667
 30
1.12
 40
16.8
  1
ＭＣＬＦ４－　　５ＪＬ
 50
0.0
 41
0.833333333
 51
0.0
  7
KANJI48
  0
TEXT
  8
0
  6
CONTINUOUS
 62
     2
 10
1280.035
 20
1547.12024
 30
1.12
 40
16.8
  1
ＭＣＬＦ４－　　６ＪＬ
 50
0.0
 41
0.833333333
 51
0.0
  7
KANJI48
  0
TEXT
  8
0
  6
CONTINUOUS
 62
     2
 10
1280.035
 20
1510.253573333
 30
1.12
 40
16.8
  1
ＭＣＬＦ４－　　７ＪＬ
 50
0.0
 41
0.833333333
 51
0.0
  7
KANJI48
  0
TEXT
  8
0
  6
CONTINUOUS
 62
     2
 10
1280.035
 20
1473.386906667
 30
1.12
 40
16.8
  1
ＭＣＬＦ４－　　８ＪＬ
 50
0.0
 41
0.833333333
 51
0.0
  7
KANJI48
  0
TEXT
  8
0
  6
CONTINUOUS
 62
     2
 10
1280.035
 20
1436.52024
 30
1.12
 40
16.8
  1
ＭＣＬＦ４－　　９ＪＬ
 50
0.0
 41
0.833333333
 51
0.0
  7
KANJI48
  0
TEXT
  8
0
  6
CONTINUOUS
 62
     2
 10
1280.035
 20
1399.653573333
 30
1.12
 40
16.8
  1
ＭＣＬＦ４－　１０ＪＬ
 50
0.0
 41
0.833333333
 51
0.0
  7
KANJI48
  0
TEXT
  8
0
  6
CONTINUOUS
 62
     2
 10
1280.035
 20
1362.786906667
 30
1.12
 40
16.8
  1
ＭＣＬＦ４－　１１ＪＬ
 50
0.0
 41
0.833333333
 51
0.0
  7
KANJI48
  0
TEXT
  8
0
  6
CONTINUOUS
 62
     2
 10
1280.035
 20
1325.92024
 30
1.12
 40
16.8
  1
ＭＣＬＦ４－　１２ＪＬ
 50
0.0
 41
0.833333333
 51
0.0
  7
KANJI48
  0
TEXT
  8
0
  6
CONTINUOUS
 62
     2
 10
1280.035
 20
1289.053573333
 30
1.12
 40
16.8
  1
ＭＣＬＦ４－　１３ＪＬ
 50
0.0
 41
0.833333333
 51
0.0
  7
KANJI48
  0
TEXT
  8
0
  6
CONTINUOUS
 62
     2
 10
1280.035
 20
1252.186906667
 30
1.12
 40
16.8
  1
ＭＣＬＦ４－　１４ＪＬ
 50
0.0
 41
0.833333333
 51
0.0
  7
KANJI48
  0
TEXT
  8
0
  6
CONTINUOUS
 62
     2
 10
1280.035
 20
1215.32024
 30
1.12
 40
16.8
  1
ＭＣＬＦ４－　１５ＪＬ
 50
0.0
 41
0.833333333
 51
0.0
  7
KANJI48
  0
TEXT
  8
0
  6
CONTINUOUS
 62
     2
 10
1280.035
 20
1178.453573333
 30
1.12
 40
16.8
  1
ＭＣＬＦ４－　　　ＪＬ
 50
0.0
 41
0.833333333
 51
0.0
  7
KANJI48
  0
TEXT
  8
0
  6
CONTINUOUS
 62
     2
 10
2082.235
 20
1695.006906667
 30
1.68
 40
16.8
  1
１４１
 50
0.0
 41
0.9
 51
0.0
  7
KANJI30
  0
TEXT
  8
0
  6
CONTINUOUS
 62
     2
 10
2082.235
 20
1658.14024
 30
1.68
 40
16.8
  1
１４５
 50
0.0
 41
0.9
 51
0.0
  7
KANJI30
  0
TEXT
  8
0
  6
CONTINUOUS
 62
     2
 10
2082.235
 20
1621.273573333
 30
1.68
 40
16.8
  1
１４９
 50
0.0
 41
0.9
 51
0.0
  7
KANJI30
  0
TEXT
  8
0
  6
CONTINUOUS
 62
     2
 10
2082.235
 20
1584.406906667
 30
1.68
 40
16.8
  1
１５４
 50
0.0
 41
0.9
 51
0.0
  7
KANJI30
  0
TEXT
  8
0
  6
CONTINUOUS
 62
     2
 10
2082.235
 20
1547.54024
 30
1.68
 40
16.8
  1
１５９
 50
0.0
 41
0.9
 51
0.0
  7
KANJI30
  0
TEXT
  8
0
  6
CONTINUOUS
 62
     2
 10
2082.235
 20
1510.673573333
 30
1.68
 40
16.8
  1
１６４
 50
0.0
 41
0.9
 51
0.0
  7
KANJI30
  0
TEXT
  8
0
  6
CONTINUOUS
 62
     2
 10
2082.235
 20
1473.806906667
 30
1.68
 40
16.8
  1
１６８
 50
0.0
 41
0.9
 51
0.0
  7
KANJI30
  0
TEXT
  8
0
  6
CONTINUOUS
 62
     2
 10
2082.235
 20
1436.94024
 30
1.68
 40
16.8
  1
１７３
 50
0.0
 41
0.9
 51
0.0
  7
KANJI30
  0
TEXT
  8
0
  6
CONTINUOUS
 62
     2
 10
2082.235
 20
1400.073573333
 30
1.68
 40
16.8
  1
１７８
 50
0.0
 41
0.9
 51
0.0
  7
KANJI30
  0
TEXT
  8
0
  6
CONTINUOUS
 62
     2
 10
2082.235
 20
1363.206906667
 30
1.68
 40
16.8
  1
１８２
 50
0.0
 41
0.9
 51
0.0
  7
KANJI30
  0
TEXT
  8
0
  6
CONTINUOUS
 62
     2
 10
2082.235
 20
1326.34024
 30
1.68
 40
16.8
  1
１８５
 50
0.0
 41
0.9
 51
0.0
  7
KANJI30
  0
TEXT
  8
0
  6
CONTINUOUS
 62
     2
 10
2082.235
 20
1289.473573333
 30
1.68
 40
16.8
  1
１９１
 50
0.0
 41
0.9
 51
0.0
  7
KANJI30
  0
TEXT
  8
0
  6
CONTINUOUS
 62
     2
 10
2082.235
 20
1252.606906667
 30
1.68
 40
16.8
  1
１９５
 50
0.0
 41
0.9
 51
0.0
  7
KANJI30
  0
TEXT
  8
0
  6
CONTINUOUS
 62
     2
 10
2082.235
 20
1215.74024
 30
1.68
 40
16.8
  1
２０１
 50
0.0
 41
0.9
 51
0.0
  7
KANJI30
  0
TEXT
  8
0
  6
CONTINUOUS
 62
     2
 10
2178.66
 20
300.39
 30
0.0
 40
24.5
  1
ＭＣＬＦ４－ＪＬ
 50
0.0
 41
0.793650794
 51
0.0
  7
KANJI49
  0
TEXT
  8
0
  6
CONTINUOUS
 62
     2
 10
2312.5933723
 20
188.389993
 30
15.166666667
 40
35.0
  1
３０００８９７
 50
0.0
 41
0.8
 51
0.0
  7
KANJI50
  0
TEXT
  8
0
  6
CONTINUOUS
 62
     2
 10
1949.9933723
 20
205.889993
 30
7.0
 40
24.5
  1
藤本
 50
0.0
 41
0.857142857
 51
0.0
  7
KANJI51
  0
TEXT
  8
0
  6
CONTINUOUS
 62
     2
 10
1929.6933723
 20
154.789993
 30
2.1
 40
24.5
  1
９８．２．２７
 50
0.0
 41
0.571428571
 51
0.0
  7
KANJI52
  0
TEXT
  8
0
  6
CONTINUOUS
 62
     2
 10
1950.246867481
 20
297.625995828
 30
0.0
 40
28.0
  1
田口
 50
0.0
 41
0.925
 51
0.0
  7
KANJI53
  0
TEXT
  8
0
  6
CONTINUOUS
 62
     2
 10
592.535
 20
1139.268573333
 30
0.0
 40
21.0
  1
４０５
 50
0.0
 41
0.9
 51
0.0
  7
KANJI41
  0
TEXT
  8
0
  6
CONTINUOUS
 62
     3
 10
843.635
 20
759.693573333
 30
0.0
 40
21.0
  1
給脂口
 50
0.0
 41
0.9
 51
0.0
  7
KANJI41
  0
LINE
  8
0
  6
CONTINUOUS
 62
     2
 10
844.089545455
 20
756.693573333
 30
0.0
 11
910.235
 21
756.693573333
 31
0.0
  0
LINE
  8
0
  6
CONTINUOUS
 62
     2
 10
802.635
 20
708.693573333
 30
0.0
 11
844.089545455
 21
756.693573333
 31
0.0
  0
LINE
  8
0
  6
LTYPE2
 62
     2
 10
337.735
 20
927.493573333
 30
0.0
 11
283.735
 21
927.493573333
 31
0.0
  0
LINE
  8
0
  6
CONTINUOUS
 62
     1
 10
294.035091387
 20
937.937380672
 30
0.0
 11
295.99068111
 21
941.324561431
 31
0.0
  0
LINE
  8
0
  6
CONTINUOUS
 62
     1
 10
294.035091387
 20
927.493573333
 30
0.0
 11
294.035091387
 21
937.937380672
 31
0.0
  0
LINE
  8
0
  6
CONTINUOUS
 62
     1
 10
294.035091387
 20
917.049765994
 30
0.0
 11
295.99068111
 21
913.662585236
 31
0.0
  0
LINE
  8
0
  6
CONTINUOUS
 62
     1
 10
294.035091387
 20
927.493573333
 30
0.0
 11
294.035091387
 21
917.049765994
 31
0.0
  0
ARC
  8
0
  6
CONTINUOUS
 62
     1
 10
307.240414698
 20
927.493573333
 30
0.0
 40
13.20532331
 50
148.419912243
 51
211.580087757
  0
ARC
  8
0
  6
CONTINUOUS
 62
     1
 10
298.068495191
 20
937.866814407
 30
0.0
 40
4.034021051
 50
177.010501597
 51
238.997686085
  0
LINE
  8
0
  6
CONTINUOUS
 62
     1
 10
294.035091387
 20
917.049765994
 30
0.0
 11
295.99068111
 21
913.662585236
 31
0.0
  0
ARC
  8
0
  6
CONTINUOUS
 62
     1
 10
298.068495191
 20
917.12033226
 30
0.0
 40
4.034021051
 50
121.002313915
 51
182.989498403
  0
LINE
  8
0
  6
CONTINUOUS
 62
     1
 10
304.035
 20
941.324561431
 30
0.0
 11
295.99068111
 21
941.324561431
 31
0.0
  0
LINE
  8
0
  6
CONTINUOUS
 62
     1
 10
304.035
 20
934.409067382
 30
0.0
 11
295.99068111
 21
934.409067382
 31
0.0
  0
LINE
  8
0
  6
CONTINUOUS
 62
     1
 10
304.035
 20
920.578079284
 30
0.0
 11
295.99068111
 21
920.578079284
 31
0.0
  0
LINE
  8
0
  6
CONTINUOUS
 62
     1
 10
304.035
 20
913.662585236
 30
0.0
 11
295.99068111
 21
913.662585236
 31
0.0
  0
LINE
  8
0
  6
CONTINUOUS
 62
     1
 10
304.035
 20
942.493573333
 30
0.0
 11
304.035
 21
928.662585236
 31
0.0
  0
LINE
  8
0
  6
CONTINUOUS
 62
     1
 10
304.035
 20
578.493573333
 30
0.0
 11
304.035
 21
947.493573333
 31
0.0
  0
ARC
  8
0
  6
CONTINUOUS
 62
     1
 10
355.035
 20
952.493573333
 30
0.0
 40
5.0
 50
270.0
 51
0.000123638
  0
ARC
  8
0
  6
CONTINUOUS
 62
     1
 10
425.035
 20
952.493573333
 30
0.0
 40
5.0
 50
270.000107075
 51
0.0
  0
LINE
  8
0
  6
CONTINUOUS
 62
     1
 10
425.035009344
 20
947.493573333
 30
0.0
 11
304.035
 21
947.493573333
 31
0.0
  0
LINE
  8
0
  6
CONTINUOUS
 62
     1
 10
360.035
 20
952.493584123
 30
0.0
 11
360.035
 21
997.493573333
 31
0.0
  0
LINE
  8
0
  6
CONTINUOUS
 62
     1
 10
430.035
 20
997.493573333
 30
0.0
 11
360.035
 21
997.493573333
 31
0.0
  0
LINE
  8
0
  6
LTYPE6
 62
     2
 10
390.035
 20
990.993573333
 30
0.0
 11
390.035
 21
1059.993573333
 31
0.0
  0
LINE
  8
0
  6
LTYPE6
 62
     2
 10
355.535
 20
1025.493573333
 30
0.0
 11
424.535
 21
1025.493573333
 31
0.0
  0
CIRCLE
  8
0
  6
CONTINUOUS
 62
     1
 10
390.035
 20
1025.493573333
 30
0.0
 40
17.5
  0
ARC
  8
0
  6
CONTINUOUS
 62
     1
 10
390.035
 20
1025.493573333
 30
0.0
 40
30.0
 50
54.4
 51
234.4
  0
ARC
  8
0
  6
CONTINUOUS
 62
     1
 10
402.335
 20
1004.493573333
 30
0.0
 40
2.0
 50
4.7
 51
90.0
  0
ARC
  8
0
  6
CONTINUOUS
 62
     1
 10
377.735
 20
1004.493573333
 30
0.0
 40
2.0
 50
90.0
 51
175.3
  0
LINE
  8
0
  6
CONTINUOUS
 62
     1
 10
377.735
 20
1006.493573333
 30
0.0
 11
402.335
 21
1006.493573333
 31
0.0
  0
LINE
  8
0
  6
CONTINUOUS
 62
     1
 10
390.035
 20
1007.993573333
 30
0.0
 11
377.735
 21
1006.493573333
 31
0.0
  0
LINE
  8
0
  6
CONTINUOUS
 62
     1
 10
390.035
 20
1007.993573333
 30
0.0
 11
402.335
 21
1006.493573333
 31
0.0
  0
ARC
  8
0
  6
CONTINUOUS
 62
     1
 10
410.835
 20
996.193573333
 30
0.0
 40
6.0
 50
122.8
 51
172.9
  0
ARC
  8
0
  6
CONTINUOUS
 62
     1
 10
369.235
 20
996.193573333
 30
0.0
 40
6.0
 50
6.4
 51
55.9
  0
ARC
  8
0
  6
CONTINUOUS
 62
     1
 10
390.035
 20
1025.493573333
 30
0.0
 40
30.0
 50
305.9
 51
54.4
  0
LINE
  8
0
  6
CONTINUOUS
 62
     1
 10
404.335
 20
1004.693573333
 30
0.0
 11
404.882826087
 21
997.493573333
 31
0.0
  0
LINE
  8
0
  6
CONTINUOUS
 62
     1
 10
375.187173913
 20
997.493573333
 30
0.0
 11
375.735
 21
1004.693573333
 31
0.0
  0
LINE
  8
0
  6
CONTINUOUS
 62
     1
 10
294.035
 20
839.993573333
 30
0.0
 11
294.035
 21
944.993573333
 31
0.0
  0
LINE
  8
0
  6
CONTINUOUS
 62
     1
 10
304.035
 20
944.993573333
 30
0.0
 11
294.035
 21
944.993573333
 31
0.0
  0
LINE
  8
0
  6
CONTINUOUS
 62
     1
 10
290.035
 20
867.493573333
 30
0.0
 11
290.035
 21
917.493573333
 31
0.0
  0
LINE
  8
0
  6
CONTINUOUS
 62
     1
 10
294.035
 20
917.493573333
 30
0.0
 11
244.035
 21
917.493573333
 31
0.0
  0
LINE
  8
0
  6
CONTINUOUS
 62
     1
 10
304.035
 20
839.993573333
 30
0.0
 11
294.035
 21
839.993573333
 31
0.0
  0
LINE
  8
0
  6
CONTINUOUS
 62
     1
 10
244.035
 20
867.493573333
 30
0.0
 11
244.035
 21
917.493573333
 31
0.0
  0
LINE
  8
0
  6
CONTINUOUS
 62
     1
 10
294.035
 20
867.493573333
 30
0.0
 11
244.035
 21
867.493573333
 31
0.0
  0
LINE
  8
0
  6
CONTINUOUS
 62
     2
 10
264.535
 20
917.493573333
 30
0.0
 11
263.235271271
 21
934.945241025
 31
0.0
  0
LINE
  8
0
  6
CONTINUOUS
 62
     2
 10
264.535
 20
917.493573333
 30
0.0
 11
254.683568057
 21
931.957296529
 31
0.0
  0
LINE
  8
0
  6
CONTINUOUS
 62
     2
 10
264.535
 20
917.493573333
 30
0.0
 11
235.535
 21
1000.493573333
 31
0.0
  0
TEXT
  8
7
  6
CONTINUOUS
 62
     2
 10
117.299356223
 20
971.093573333
 30
0.0
 40
21.0
  1
手動軸□１４
 50
0.0
 41
0.9
 51
0.0
  7
KANJI54
  0
ARC
  8
0
  6
CONTINUOUS
 62
     2
 10
207.035
 20
892.893573333
 30
0.0
 40
20.0
 50
231.952957468
 51
156.801409486
  0
LINE
  8
0
  6
CONTINUOUS
 62
     2
 10
188.6520994
 20
900.771959305
 30
0.0
 11
190.94679211
 21
910.609398082
 31
0.0
  0
LINE
  8
0
  6
CONTINUOUS
 62
     2
 10
188.6520994
 20
900.771959305
 30
0.0
 11
196.920260778
 21
905.67929584
 31
0.0
  0
TEXT
  8
0
  6
CONTINUOUS
 62
     2
 10
126.6520994
 20
883.771959305
 30
0.0
 40
15.0
  1
前進方向
 50
0.0
 41
0.9
 51
0.0
  7
KANJI36
  0
TEXT
  8
0
  6
CONTINUOUS
 62
     3
 10
116.135
 20
1003.993573333
 30
0.0
 40
21.0
  1
手動軸カバー
 50
0.0
 41
0.9
 51
0.0
  7
KANJI41
  0
LINE
  8
0
  6
CONTINUOUS
 62
     2
 10
235.535
 20
1000.493573333
 30
0.0
 11
109.535
 21
1000.493573333
 31
0.0
  0
LINE
  8
0
  6
CONTINUOUS
 62
     2
 10
430.035
 20
1133.268573333
 30
0.0
 11
413.13129804
 21
1137.797906623
 31
0.0
  0
LINE
  8
0
  6
CONTINUOUS
 62
     2
 10
430.035
 20
1133.268573333
 30
0.0
 11
413.13129804
 21
1128.739240044
 31
0.0
  0
LINE
  8
0
  6
CONTINUOUS
 62
     2
 10
430.035
 20
1133.268573333
 30
0.0
 11
244.035
 21
1133.268573333
 31
0.0
  0
LINE
  8
0
  6
CONTINUOUS
 62
     2
 10
244.035
 20
1133.268573333
 30
0.0
 11
260.93870196
 21
1128.739240044
 31
0.0
  0
LINE
  8
0
  6
CONTINUOUS
 62
     2
 10
244.035
 20
1133.268573333
 30
0.0
 11
260.93870196
 21
1137.797906623
 31
0.0
  0
LINE
  8
0
  6
CONTINUOUS
 62
     2
 10
244.035
 20
924.493573333
 30
0.0
 11
244.035
 21
1140.268573333
 31
0.0
  0
TEXT
  8
0
  6
CONTINUOUS
 62
     3
 10
298.185
 20
1136.768573333
 30
0.0
 40
21.0
  1
１８６
 50
0.0
 41
0.9
 51
0.0
  7
KANJI41
  0
LINE
  8
0
  6
CONTINUOUS
 62
     2
 10
2192.66
 20
1052.89
 30
0.0
 11
2805.16
 21
1052.89
 31
0.0
  0
LINE
  8
0
  6
CONTINUOUS
 62
     2
 10
2192.66
 20
1003.89
 30
0.0
 11
2805.16
 21
1003.89
 31
0.0
  0
LINE
  8
0
  6
CONTINUOUS
 62
     2
 10
2248.66
 20
1444.89
 30
0.0
 11
2248.66
 21
1052.89
 31
0.0
  0
TEXT
  8
0
  6
CONTINUOUS
 62
     2
 10
2231.16
 20
1016.49
 30
93.29
 40
26.6
  1
付属品
 50
0.0
 41
0.9
 51
0.0
  7
KANJI55
  0
TEXT
  8
0
  6
CONTINUOUS
 62
     2
 10
2231.16
 20
967.49
 30
210.52
 40
26.6
  1
台数
 50
0.0
 41
0.9
 51
0.0
  7
KANJI56
  0
LINE
  8
0
  6
CONTINUOUS
 62
     1
 10
2192.66
 20
1906.89
 30
0.0
 11
2805.16
 21
1906.89
 31
0.0
  0
TEXT
  8
0
  6
CONTINUOUS
 62
     2
 10
2280.16
 20
1855.79
 30
19.94958
 40
31.5
  1
マイティシリンダ仕様
 50
0.0
 41
0.9
 51
0.0
  7
KANJI57
  0
LINE
  8
0
  6
CONTINUOUS
 62
     2
 10
2248.66
 20
1101.89
 30
0.0
 11
2805.16
 21
1101.89
 31
0.0
  0
LINE
  8
0
  6
CONTINUOUS
 62
     2
 10
2248.66
 20
1248.89
 30
0.0
 11
2805.16
 21
1248.89
 31
0.0
  0
LINE
  8
0
  6
CONTINUOUS
 62
     2
 10
2248.66
 20
1297.89
 30
0.0
 11
2805.16
 21
1297.89
 31
0.0
  0
LINE
  8
0
  6
CONTINUOUS
 62
     2
 10
2192.66
 20
1542.89
 30
0.0
 11
2805.16
 21
1542.89
 31
0.0
  0
LINE
  8
0
  6
CONTINUOUS
 62
     2
 10
2192.66
 20
1493.89
 30
0.0
 11
2805.16
 21
1493.89
 31
0.0
  0
LINE
  8
0
  6
CONTINUOUS
 62
     2
 10
2192.66
 20
1444.89
 30
0.0
 11
2805.16
 21
1444.89
 31
0.0
  0
LINE
  8
0
  6
CONTINUOUS
 62
     2
 10
2248.66
 20
1346.89
 30
0.0
 11
2805.16
 21
1346.89
 31
0.0
  0
LINE
  8
0
  6
CONTINUOUS
 62
     2
 10
2248.66
 20
1395.89
 30
0.0
 11
2805.16
 21
1395.89
 31
0.0
  0
LINE
  8
0
  6
CONTINUOUS
 62
     2
 10
2192.66
 20
1787.89
 30
0.0
 11
2805.16
 21
1787.89
 31
0.0
  0
LINE
  8
0
  6
CONTINUOUS
 62
     2
 10
2192.66
 20
1738.89
 30
0.0
 11
2805.16
 21
1738.89
 31
0.0
  0
LINE
  8
0
  6
CONTINUOUS
 62
     2
 10
2192.66
 20
1689.89
 30
0.0
 11
2805.16
 21
1689.89
 31
0.0
  0
LINE
  8
0
  6
CONTINUOUS
 62
     2
 10
2192.66
 20
1640.89
 30
0.0
 11
2805.16
 21
1640.89
 31
0.0
  0
LINE
  8
0
  6
CONTINUOUS
 62
     2
 10
2192.66
 20
1591.89
 30
0.0
 11
2805.16
 21
1591.89
 31
0.0
  0
LINE
  8
0
  6
CONTINUOUS
 62
     2
 10
2192.66
 20
1836.89
 30
0.0
 11
2805.16
 21
1836.89
 31
0.0
  0
TEXT
  8
0
  6
CONTINUOUS
 62
     2
 10
2280.16
 20
1359.49
 30
39.01308
 40
26.6
  1
電源電圧
 50
0.0
 41
0.9
 51
0.0
  7
KANJI58
  0
TEXT
  8
0
  6
CONTINUOUS
 62
     2
 10
2280.16
 20
1310.49
 30
70.49
 40
26.6
  1
周波数
 50
0.0
 41
0.9
 51
0.0
  7
KANJI59
  0
TEXT
  8
0
  6
CONTINUOUS
 62
     2
 10
2280.16
 20
1261.49
 30
164.92
 40
26.6
  1
電流
 50
0.0
 41
0.9
 51
0.0
  7
KANJI60
  0
TEXT
  8
0
  6
CONTINUOUS
 62
     2
 10
2280.16
 20
1212.49
 30
70.49
 40
26.6
  1
絶縁級
 50
0.0
 41
0.9
 51
0.0
  7
KANJI59
  0
TEXT
  8
0
  6
CONTINUOUS
 62
     2
 10
2231.16
 20
1800.49
 30
210.52
 40
26.6
  1
形式
 50
0.0
 41
0.9
 51
0.0
  7
KANJI56
  0
TEXT
  8
0
  6
CONTINUOUS
 62
     2
 10
2231.16
 20
1751.49
 30
210.52
 40
26.6
  1
推力
 50
0.0
 41
0.9
 51
0.0
  7
KANJI56
  0
TEXT
  8
0
  6
CONTINUOUS
 62
     2
 10
2231.16
 20
1702.49
 30
34.675
 40
26.6
  1
ストローク
 50
0.0
 41
0.9
 51
0.0
  7
KANJI61
  0
TEXT
  8
0
  6
CONTINUOUS
 62
     2
 10
2231.16
 20
1555.49
 30
210.52
 40
26.6
  1
構造
 50
0.0
 41
0.9
 51
0.0
  7
KANJI56
  0
TEXT
  8
0
  6
CONTINUOUS
 62
     2
 10
2231.16
 20
1506.49
 30
15.13616
 40
26.6
  1
過負荷安全装置
 50
0.0
 41
0.9
 51
0.0
  7
KANJI62
  0
TEXT
  8
0
  6
CONTINUOUS
 62
     2
 10
2231.16
 20
1457.49
 30
93.29
 40
26.6
  1
塗装色
 50
0.0
 41
0.9
 51
0.0
  7
KANJI55
  0
TEXT
  8
0
  6
CONTINUOUS
 62
     2
 10
2203.16
 20
1604.49
 30
2.28
 40
26.6
  1
ピストンロッド回転トルク
 50
0.0
 41
0.9
 51
0.0
  7
KANJI63
  0
LINE
  8
0
  6
CONTINUOUS
 62
     2
 10
2192.66
 20
1199.89
 30
0.0
 11
2805.16
 21
1199.89
 31
0.0
  0
LINE
  8
0
  6
CONTINUOUS
 62
     2
 10
2248.66
 20
1150.89
 30
0.0
 11
2805.16
 21
1150.89
 31
0.0
  0
TEXT
  8
0
  6
CONTINUOUS
 62
     2
 10
2221.185
 20
1437.89
 30
15.4
 40
24.5
  1
モ　トル仕様
 50
0.0
 41
0.9
 51
0.0
  7
KANJI64
  0
TEXT
  8
0
  6
CONTINUOUS
 62
     2
 10
2221.185
 20
1178.89
 30
1.4
 40
24.5
  1
ブレ　キ
 50
0.0
 41
0.9
 51
0.0
  7
KANJI65
  0
LINE
  8
0
  6
CONTINUOUS
 62
     2
 10
2219.26
 20
1120.79
 30
0.0
 11
2219.26
 21
1106.09
 31
0.0
  0
TEXT
  8
0
  6
CONTINUOUS
 62
     2
 10
2582.91
 20
1507.89
 30
10.5
 40
24.5
  1
推力リミッタ
 50
0.0
 41
0.9
 51
0.0
  7
KANJI66
  0
TEXT
  8
0
  6
CONTINUOUS
 62
     2
 10
2649.41
 20
1213.89
 30
2.1
 40
21.0
  1
Ｅ
 50
0.0
 41
0.9
 51
0.0
  7
KANJI67
  0
TEXT
  8
0
  6
CONTINUOUS
 62
     2
 10
2280.16
 20
1163.49
 30
164.92
 40
26.6
  1
形式
 50
0.0
 41
0.9
 51
0.0
  7
KANJI60
  0
TEXT
  8
0
  6
CONTINUOUS
 62
     2
 10
2280.16
 20
1114.49
 30
39.01308
 40
26.6
  1
操作方式
 50
0.0
 41
0.9
 51
0.0
  7
KANJI58
  0
LINE
  8
0
  6
CONTINUOUS
 62
     2
 10
2219.26
 20
1395.19
 30
0.0
 11
2219.26
 21
1379.09
 31
0.0
  0
TEXT
  8
0
  6
CONTINUOUS
 62
     2
 10
2280.16
 20
1408.49
 30
3.5
 40
26.6
  1
出力　相数　極数
 50
0.0
 41
0.9
 51
0.0
  7
KANJI68
  0
TEXT
  8
0
  6
CONTINUOUS
 62
     2
 10
2231.16
 20
1653.49
 30
14.0
 40
26.6
  1
公称速度
 50
0.0
 41
0.9
 51
0.0
  7
KANJI69
  0
TEXT
  8
0
  6
CONTINUOUS
 62
     2
 10
2375.71
 20
1652.09
 30
0.0
 40
24.5
  1
（５０／６０Ｈｚ）
 50
0.0
 41
0.628571429
 51
0.0
  7
KANJI70
  0
TEXT
  8
0
  6
CONTINUOUS
 62
     2
 10
2516.41
 20
1164.015
 30
3.85
 40
23.8
  1
スプリング制動式電磁ブレーキ
 50
0.0
 41
0.705882353
 51
0.0
  7
KANJI71
  0
TEXT
  8
0
  6
CONTINUOUS
 62
     2
 10
2771.91
 20
1359.49
 30
0.252
 40
21.0
  1
Ｖ
 50
0.0
 41
0.8
 51
0.0
  7
KANJI72
  0
TEXT
  8
0
  6
CONTINUOUS
 62
     2
 10
2759.31
 20
1310.49
 30
0.252
 40
21.0
  1
Ｈｚ
 50
0.0
 41
0.8
 51
0.0
  7
KANJI72
  0
TEXT
  8
0
  6
CONTINUOUS
 62
     2
 10
2771.91
 20
1261.49
 30
0.252
 40
21.0
  1
Ａ
 50
0.0
 41
0.8
 51
0.0
  7
KANJI72
  0
TEXT
  8
0
  6
CONTINUOUS
 62
     2
 10
2679.86
 20
1409.89
 30
2.1
 40
21.0
  1
３φ
 50
0.0
 41
0.9
 51
0.0
  7
KANJI67
  0
TEXT
  8
0
  6
CONTINUOUS
 62
     2
 10
2749.86
 20
1409.89
 30
2.1
 40
21.0
  1
４Ｐ
 50
0.0
 41
0.9
 51
0.0
  7
KANJI67
  0
TEXT
  8
0
  6
CONTINUOUS
 62
     2
 10
2514.66
 20
1458.89
 30
1.4
 40
22.4
  1
マンセル　７．５ＧＹ　５／４．５
 50
0.0
 41
0.71875
 51
0.0
  7
KANJI73
  0
TEXT
  8
0
  6
CONTINUOUS
 62
     2
 10
2514.66
 20
1360.89
 30
2.1
 40
21.0
  1
　　　　　　　／　　　
 50
0.0
 41
0.9
 51
0.0
  7
KANJI67
  0
TEXT
  8
0
  6
CONTINUOUS
 62
     2
 10
2514.66
 20
1311.89
 30
2.1
 40
21.0
  1
　　　　５０／　６０
 50
0.0
 41
0.9
 51
0.0
  7
KANJI67
  0
TEXT
  8
0
  6
CONTINUOUS
 62
     2
 10
2514.66
 20
1262.89
 30
2.1
 40
21.0
  1
　　　　　　　／　　　
 50
0.0
 41
0.9
 51
0.0
  7
KANJI67
  0
TEXT
  8
0
  6
CONTINUOUS
 62
     2
 10
2753.36
 20
1705.29
 30
0.1792
 40
22.4
  1
ｍｍ
 50
0.0
 41
0.8
 51
0.0
  7
KANJI74
  0
TEXT
  8
0
  6
CONTINUOUS
 62
     2
 10
2707.86
 20
1654.89
 30
0.0
 40
24.5
  1
ｍｍ／ｓｅｃ
 50
0.0
 41
0.571428571
 51
0.0
  7
KANJI75
  0
TEXT
  8
0
  6
CONTINUOUS
 62
     2
 10
2565.76
 20
1752.89
 30
2.1
 40
21.0
  1
３９．２ＫＮ（４ｔｏｎ）
 50
0.0
 41
0.9
 51
0.0
  7
KANJI67
  0
TEXT
  8
0
  6
CONTINUOUS
 62
     2
 10
2582.91
 20
1556.89
 30
10.5
 40
24.5
  1
全閉屋外形
 50
0.0
 41
0.9
 51
0.0
  7
KANJI66
  0
TEXT
  8
0
  6
CONTINUOUS
 62
     2
 10
2518.16
 20
1654.89
 30
2.1
 40
21.0
  1
３６．２／４３．３
 50
0.0
 41
0.9
 51
0.0
  7
KANJI67
  0
TEXT
  8
0
  6
CONTINUOUS
 62
     2
 10
2521.66
 20
1409.89
 30
2.1
 40
21.0
  1
　２．２ＫＷ
 50
0.0
 41
0.9
 51
0.0
  7
KANJI67
  0
TEXT
  8
0
  6
CONTINUOUS
 62
     2
 10
2530.41
 20
1799.44
 30
1.4
 40
21.0
  1
ＭＣＬＦ４－　ＪＬ
 50
0.0
 41
0.833333333
 51
0.0
  7
KANJI76
  0
TEXT
  8
0
  6
CONTINUOUS
 62
     2
 10
2532.16
 20
1605.89
 30
0.0
 40
21.0
  1
　７８Ｎ・ｍ（８ｋｇ・ｍ）
 50
0.0
 41
0.833333333
 51
0.0
  7
KANJI77
  0
LINE
  8
0
  6
CONTINUOUS
 62
     2
 10
2192.66
 20
954.89
 30
0.0
 11
2805.16
 21
954.89
 31
0.0
  0
TEXT
  8
0
  6
CONTINUOUS
 62
     2
 10
899.03505
 20
1069.768623333
 30
0.0
 40
18.0
  1
ブレーキ開放装置
 50
0.0
 41
0.9
 51
0.0
  7
KANJI44
  0
LINE
  8
0
  6
CONTINUOUS
 62
     2
 10
855.135
 20
628.093573333
 30
0.0
 11
855.135
 21
613.493573333
 31
0.0
  0
LINE
  8
0
  6
CONTINUOUS
 62
     1
 10
859.735
 20
592.493573333
 30
0.0
 11
859.735
 21
552.493573333
 31
0.0
  0
LINE
  8
0
  6
LTYPE1
 62
     2
 10
864.835
 20
582.663573333
 30
0.0
 11
859.835
 21
582.663573333
 31
0.0
  0
LINE
  8
0
  6
LTYPE1
 62
     2
 10
864.835
 20
581.508573333
 30
0.0
 11
859.835
 21
581.508573333
 31
0.0
  0
LINE
  8
0
  6
LTYPE1
 62
     2
 10
864.835
 20
582.663573333
 30
0.0
 11
859.835
 21
582.663573333
 31
0.0
  0
LINE
  8
0
  6
LTYPE1
 62
     2
 10
864.835
 20
561.723573333
 30
0.0
 11
859.835
 21
561.723573333
 31
0.0
  0
LINE
  8
0
  6
LTYPE1
 62
     2
 10
864.835
 20
562.878573333
 30
0.0
 11
859.835
 21
562.878573333
 31
0.0
  0
LINE
  8
0
  6
LTYPE2
 62
     2
 10
856.409992096
 20
572.193573333
 30
0.0
 11
869.409992096
 21
572.193573333
 31
0.0
  0
LINE
  8
0
  6
CONTINUOUS
 62
     1
 10
928.435
 20
566.093573333
 30
0.0
 11
953.835
 21
566.093573333
 31
0.0
  0
LINE
  8
0
  6
CONTINUOUS
 62
     1
 10
928.435
 20
592.493573333
 30
0.0
 11
928.435
 21
552.493573333
 31
0.0
  0
LINE
  8
0
  6
CONTINUOUS
 62
     1
 10
953.835
 20
591.493573333
 30
0.0
 11
953.835
 21
566.093573333
 31
0.0
  0
LINE
  8
0
  6
CONTINUOUS
 62
     1
 10
928.435
 20
591.493573333
 30
0.0
 11
953.835
 21
591.493573333
 31
0.0
  0
LINE
  8
0
  6
CONTINUOUS
 62
     2
 10
1605.92537664
 20
581.483574061
 30
0.0
 11
1594.913437887
 21
576.715219532
 31
0.0
  0
LINE
  8
0
  6
CONTINUOUS
 62
     2
 10
1605.92537664
 20
581.483574061
 30
0.0
 11
1598.772935199
 21
571.848088528
 31
0.0
  0
LINE
  8
0
  6
CONTINUOUS
 62
     2
 10
1605.92537664
 20
581.483574061
 30
0.0
 11
1483.235
 21
484.193573333
 31
0.0
  0
LINE
  8
0
  6
CONTINUOUS
 62
     1
 10
2192.66
 20
905.89
 30
0.0
 11
2805.16
 21
905.89
 31
0.0
  0
TEXT
  8
0
  6
CONTINUOUS
 62
     2
 10
2748.285
 20
915.515
 30
0.0
 40
28.0
  1
ｋｇ
 50
0.0
 41
1.0
 51
0.0
  7
KANJI78
  0
LINE
  8
0
  6
CONTINUOUS
 62
     1
 10
2192.66
 20
1906.89
 30
0.0
 11
2192.66
 21
905.89
 31
0.0
  0
LINE
  8
0
  6
CONTINUOUS
 62
     2
 10
2514.66
 20
1836.89
 30
0.0
 11
2514.66
 21
905.89
 31
0.0
  0
LINE
  8
0
  6
CONTINUOUS
 62
     1
 10
2805.16
 20
1906.89
 30
0.0
 11
2805.16
 21
905.89
 31
0.0
  0
LINE
  8
0
  6
LTYPE3
 62
     2
 10
947.396021217
 20
305.22754793
 30
0.0
 11
856.135
 21
305.22754793
 31
0.0
  0
LINE
  8
7
  6
CONTINUOUS
 62
     2
 10
859.735
 20
305.22754793
 30
0.0
 11
851.42652211
 21
299.662550611
 31
0.0
  0
LINE
  8
7
  6
CONTINUOUS
 62
     2
 10
859.735
 20
305.22754793
 30
0.0
 11
855.32214574
 21
296.253879935
 31
0.0
  0
LINE
  8
7
  6
CONTINUOUS
 62
     2
 10
859.735
 20
305.22754793
 30
0.0
 11
848.535
 21
292.42754793
 31
0.0
  0
LINE
  8
7
  6
CONTINUOUS
 62
     2
 10
848.535
 20
292.42754793
 30
0.0
 11
789.735
 21
292.42754793
 31
0.0
  0
TEXT
  8
7
  6
CONTINUOUS
 62
     2
 10
789.735
 20
296.42754793
 30
1.2
 40
12.0
  1
ＰＦ１／２
 50
0.0
 41
0.9
 51
0.0
  7
KANJI79
  0
LINE
  8
0
  6
LTYPE3
 62
     2
 10
871.175
 20
320.32754793
 30
0.0
 11
859.735
 21
320.32754793
 31
0.0
  0
LINE
  8
0
  6
LTYPE3
 62
     2
 10
864.735
 20
324.22754793
 30
0.0
 11
864.735
 21
315.24754793
 31
0.0
  0
LINE
  8
0
  6
CONTINUOUS
 62
     1
 10
926.435
 20
325.22754793
 30
0.0
 11
861.735
 21
325.22754793
 31
0.0
  0
LINE
  8
0
  6
CONTINUOUS
 62
     1
 10
859.735
 20
323.22754793
 30
0.0
 11
859.735
 21
287.22754793
 31
0.0
  0
ARC
  8
0
  6
CONTINUOUS
 62
     1
 10
861.735
 20
323.22754793
 30
0.0
 40
2.0
 50
90.0
 51
180.0
  0
LINE
  8
0
  6
LTYPE3
 62
     2
 10
870.635
 20
290.12754793
 30
0.0
 11
859.735
 21
290.12754793
 31
0.0
  0
LINE
  8
0
  6
LTYPE3
 62
     2
 10
864.735
 20
296.14754793
 30
0.0
 11
864.735
 21
286.22754793
 31
0.0
  0
LINE
  8
0
  6
CONTINUOUS
 62
     1
 10
926.435
 20
285.22754793
 30
0.0
 11
861.735
 21
285.22754793
 31
0.0
  0
ARC
  8
0
  6
CONTINUOUS
 62
     1
 10
861.735
 20
287.22754793
 30
0.0
 40
2.0
 50
180.0
 51
270.0
  0
LINE
  8
0
  6
LTYPE3
 62
     2
 10
928.435
 20
320.32754793
 30
0.0
 11
918.475
 21
320.32754793
 31
0.0
  0
LINE
  8
0
  6
LTYPE3
 62
     2
 10
923.435
 20
324.22754793
 30
0.0
 11
923.435
 21
316.34754793
 31
0.0
  0
ARC
  8
0
  6
CONTINUOUS
 62
     1
 10
926.435
 20
323.22754793
 30
0.0
 40
2.0
 50
0.0
 51
90.0
  0
LINE
  8
0
  6
CONTINUOUS
 62
     1
 10
951.835
 20
317.92754793
 30
0.0
 11
928.435
 21
317.92754793
 31
0.0
  0
LINE
  8
0
  6
CONTINUOUS
 62
     1
 10
928.435
 20
323.22754793
 30
0.0
 11
928.435
 21
287.22754793
 31
0.0
  0
LINE
  8
0
  6
LTYPE3
 62
     2
 10
928.435
 20
290.12754793
 30
0.0
 11
918.635
 21
290.12754793
 31
0.0
  0
LINE
  8
0
  6
LTYPE3
 62
     2
 10
923.435
 20
296.24754793
 30
0.0
 11
923.435
 21
286.22754793
 31
0.0
  0
ARC
  8
0
  6
CONTINUOUS
 62
     1
 10
926.435
 20
287.22754793
 30
0.0
 40
2.0
 50
270.0
 51
0.0
  0
LINE
  8
0
  6
CONTINUOUS
 62
     1
 10
932.796021217
 20
292.52754793
 30
0.0
 11
928.435
 21
292.52754793
 31
0.0
  0
ARC
  8
0
  6
CONTINUOUS
 62
     1
 10
938.135
 20
305.22754793
 30
0.0
 40
6.0
 50
356.983045121
 51
183.016954879
  0
LINE
  8
0
  6
LTYPE3
 62
     2
 10
938.135
 20
314.32754793
 30
0.0
 11
938.135
 21
256.82754793
 31
0.0
  0
LINE
  8
0
  6
CONTINUOUS
 62
     1
 10
944.126683988
 20
304.911758456
 30
0.0
 11
942.129455992
 21
267.017021614
 31
0.0
  0
LINE
  8
0
  6
CONTINUOUS
 62
     1
 10
932.143316012
 20
304.911758456
 30
0.0
 11
934.140544008
 21
267.017021614
 31
0.0
  0
LINE
  8
0
  6
LTYPE3
 62
     2
 10
927.135
 20
267.22754793
 30
0.0
 11
950.135
 21
267.22754793
 31
0.0
  0
ARC
  8
0
  6
CONTINUOUS
 62
     1
 10
938.135
 20
267.22754793
 30
0.0
 40
8.75
 50
120.219855722
 51
59.780144278
  0
ARC
  8
0
  6
CONTINUOUS
 62
     1
 10
938.135
 20
267.22754793
 30
0.0
 40
4.0
 50
176.983042101
 51
3.016952287
  0
ARC
  8
0
  6
CONTINUOUS
 62
     1
 10
951.835
 20
315.92754793
 30
0.0
 40
2.0
 50
0.0
 51
90.0
  0
LINE
  8
0
  6
CONTINUOUS
 62
     1
 10
953.835
 20
315.92754793
 30
0.0
 11
953.835
 21
294.52754793
 31
0.0
  0
ARC
  8
0
  6
CONTINUOUS
 62
     1
 10
951.835
 20
294.52754793
 30
0.0
 40
2.0
 50
270.0
 51
0.0
  0
LINE
  8
0
  6
CONTINUOUS
 62
     1
 10
951.835
 20
292.52754793
 30
0.0
 11
943.473978783
 21
292.52754793
 31
0.0
  0
LINE
  8
0
  6
LTYPE3
 62
     2
 10
833.835
 20
174.12754793
 30
0.0
 11
843.795
 21
174.12754793
 31
0.0
  0
LINE
  8
0
  6
LTYPE3
 62
     2
 10
838.835
 20
170.22754793
 30
0.0
 11
838.835
 21
178.10754793
 31
0.0
  0
LINE
  8
0
  6
LTYPE3
 62
     2
 10
833.835
 20
204.32754793
 30
0.0
 11
843.635
 21
204.32754793
 31
0.0
  0
LINE
  8
0
  6
LTYPE3
 62
     2
 10
838.835
 20
198.20754793
 30
0.0
 11
838.835
 21
208.22754793
 31
0.0
  0
LINE
  8
0
  6
LTYPE3
 62
     2
 10
835.135
 20
227.22754793
 30
0.0
 11
812.135
 21
227.22754793
 31
0.0
  0
ARC
  8
0
  6
CONTINUOUS
 62
     1
 10
835.835
 20
171.22754793
 30
0.0
 40
2.0
 50
180.0
 51
270.0
  0
LINE
  8
0
  6
CONTINUOUS
 62
     1
 10
810.435
 20
176.52754793
 30
0.0
 11
833.835
 21
176.52754793
 31
0.0
  0
LINE
  8
0
  6
CONTINUOUS
 62
     1
 10
833.835
 20
171.22754793
 30
0.0
 11
833.835
 21
207.22754793
 31
0.0
  0
ARC
  8
0
  6
CONTINUOUS
 62
     1
 10
835.835
 20
207.22754793
 30
0.0
 40
2.0
 50
90.0
 51
180.0
  0
LINE
  8
0
  6
CONTINUOUS
 62
     1
 10
835.835
 20
209.22754793
 30
0.0
 11
900.535
 21
209.22754793
 31
0.0
  0
LINE
  8
0
  6
CONTINUOUS
 62
     1
 10
835.835
 20
169.22754793
 30
0.0
 11
900.535
 21
169.22754793
 31
0.0
  0
LINE
  8
0
  6
CONTINUOUS
 62
     1
 10
830.126683988
 20
189.543337403
 30
0.0
 11
828.129455992
 21
227.438074245
 31
0.0
  0
ARC
  8
0
  6
CONTINUOUS
 62
     1
 10
824.135
 20
227.22754793
 30
0.0
 40
4.0
 50
356.983042101
 51
183.016952287
  0
ARC
  8
0
  6
CONTINUOUS
 62
     1
 10
824.135
 20
227.22754793
 30
0.0
 40
8.75
 50
300.219855722
 51
239.780144278
  0
ARC
  8
0
  6
CONTINUOUS
 62
     1
 10
824.135
 20
189.22754793
 30
0.0
 40
6.0
 50
176.983045121
 51
3.016954879
  0
LINE
  8
0
  6
CONTINUOUS
 62
     1
 10
829.473978783
 20
201.92754793
 30
0.0
 11
833.835
 21
201.92754793
 31
0.0
  0
LINE
  8
0
  6
LTYPE3
 62
     2
 10
824.135
 20
180.12754793
 30
0.0
 11
824.135
 21
237.62754793
 31
0.0
  0
LINE
  8
0
  6
LTYPE3
 62
     2
 10
814.873978783
 20
189.22754793
 30
0.0
 11
906.135
 21
189.22754793
 31
0.0
  0
ARC
  8
0
  6
CONTINUOUS
 62
     1
 10
810.435
 20
178.52754793
 30
0.0
 40
2.0
 50
180.0
 51
270.0
  0
LINE
  8
0
  6
CONTINUOUS
 62
     1
 10
808.435
 20
178.52754793
 30
0.0
 11
808.435
 21
199.92754793
 31
0.0
  0
ARC
  8
0
  6
CONTINUOUS
 62
     1
 10
810.435
 20
199.92754793
 30
0.0
 40
2.0
 50
90.0
 51
180.0
  0
LINE
  8
0
  6
CONTINUOUS
 62
     1
 10
810.435
 20
201.92754793
 30
0.0
 11
818.796021217
 21
201.92754793
 31
0.0
  0
LINE
  8
0
  6
LTYPE3
 62
     2
 10
891.635
 20
204.32754793
 30
0.0
 11
902.535
 21
204.32754793
 31
0.0
  0
LINE
  8
0
  6
LTYPE3
 62
     2
 10
897.535
 20
198.30754793
 30
0.0
 11
897.535
 21
208.22754793
 31
0.0
  0
LINE
  8
0
  6
LTYPE3
 62
     2
 10
891.095
 20
174.12754793
 30
0.0
 11
902.535
 21
174.12754793
 31
0.0
  0
LINE
  8
0
  6
LTYPE3
 62
     2
 10
897.535
 20
170.22754793
 30
0.0
 11
897.535
 21
179.20754793
 31
0.0
  0
ARC
  8
0
  6
CONTINUOUS
 62
     1
 10
900.535
 20
207.22754793
 30
0.0
 40
2.0
 50
0.0
 51
90.0
  0
ARC
  8
0
  6
CONTINUOUS
 62
     1
 10
900.535
 20
171.22754793
 30
0.0
 40
2.0
 50
270.0
 51
0.0
  0
LINE
  8
0
  6
CONTINUOUS
 62
     1
 10
902.535
 20
171.22754793
 30
0.0
 11
902.535
 21
207.22754793
 31
0.0
  0
LINE
  8
7
  6
CONTINUOUS
 62
     2
 10
902.535
 20
189.22754793
 30
0.0
 11
910.902307585
 21
194.703692904
 31
0.0
  0
LINE
  8
7
  6
CONTINUOUS
 62
     2
 10
902.535
 20
189.22754793
 30
0.0
 11
907.043228442
 21
198.153682385
 31
0.0
  0
LINE
  8
7
  6
CONTINUOUS
 62
     2
 10
902.535
 20
189.22754793
 30
0.0
 11
915.185
 21
203.37754793
 31
0.0
  0
LINE
  8
7
  6
CONTINUOUS
 62
     2
 10
915.185
 20
203.37754793
 30
0.0
 11
973.985
 21
203.37754793
 31
0.0
  0
TEXT
  8
7
  6
CONTINUOUS
 62
     2
 10
915.185
 20
207.37754793
 30
1.2
 40
12.0
  1
ＰＦ１／２
 50
0.0
 41
0.9
 51
0.0
  7
KANJI79
  0
LINE
  8
0
  6
CONTINUOUS
 62
     1
 10
818.143316012
 20
189.543337403
 30
0.0
 11
820.140544008
 21
227.438074245
 31
0.0
  0
LINE
  8
0
  6
CONTINUOUS
 62
     1
 10
808.435
 20
591.493573333
 30
0.0
 11
808.435
 21
566.093573333
 31
0.0
  0
LINE
  8
0
  6
CONTINUOUS
 62
     1
 10
833.835
 20
591.493573333
 30
0.0
 11
808.435
 21
591.493573333
 31
0.0
  0
LINE
  8
0
  6
CONTINUOUS
 62
     1
 10
833.835
 20
566.093573333
 30
0.0
 11
808.435
 21
566.093573333
 31
0.0
  0
LINE
  8
0
  6
CONTINUOUS
 62
     1
 10
833.835
 20
592.493573333
 30
0.0
 11
833.835
 21
552.493573333
 31
0.0
  0
LINE
  8
0
  6
LTYPE1
 62
     2
 10
535.985
 20
586.493573333
 30
0.0
 11
808.435
 21
586.493573333
 31
0.0
  0
LINE
  8
0
  6
LTYPE1
 62
     2
 10
535.985
 20
570.493573333
 30
0.0
 11
808.435
 21
570.493573333
 31
0.0
  0
LINE
  8
0
  6
CONTINUOUS
 62
     1
 10
833.835
 20
558.493573333
 30
0.0
 11
928.435
 21
558.493573333
 31
0.0
  0
LINE
  8
0
  6
CONTINUOUS
 62
     1
 10
577.985
 20
558.493573333
 30
0.0
 11
833.835
 21
558.493573333
 31
0.0
  0
LINE
  8
0
  6
CONTINUOUS
 62
     1
 10
833.835
 20
552.493573333
 30
0.0
 11
928.435
 21
552.493573333
 31
0.0
  0
TEXT
  8
0
  6
CONTINUOUS
 62
     2
 10
2231.16
 20
918.49
 30
3.5
 40
26.6
  1
概算重量（１台当り）
 50
0.0
 41
0.9
 51
0.0
  7
KANJI80
  0
TEXT
  8
0
  6
CONTINUOUS
 62
     2
 10
1448.4367719
 20
152.1499958
 30
0.0
 40
21.0
  1
０８．０４．０９　岡田　回路図追加
 50
0.0
 41
0.9
 51
0.0
  7
KANJI16
  0
LINE
  8
0
  6
CONTINUOUS
 62
     1
 10
327.035
 20
882.993573333
 30
0.0
 11
322.035
 21
877.993573333
 31
0.0
  0
LINE
  8
0
  6
CONTINUOUS
 62
     1
 10
392.035
 20
882.993573333
 30
0.0
 11
327.035
 21
882.993573333
 31
0.0
  0
LINE
  8
0
  6
CONTINUOUS
 62
     1
 10
392.035
 20
882.993573333
 30
0.0
 11
397.035
 21
877.993573333
 31
0.0
  0
LINE
  8
0
  6
CONTINUOUS
 62
     1
 10
397.035
 20
787.993573333
 30
0.0
 11
397.035
 21
877.993573333
 31
0.0
  0
LINE
  8
0
  6
CONTINUOUS
 62
     1
 10
397.035
 20
787.993573333
 30
0.0
 11
392.035
 21
782.993573333
 31
0.0
  0
LINE
  8
0
  6
CONTINUOUS
 62
     1
 10
392.035
 20
782.993573333
 30
0.0
 11
327.035
 21
782.993573333
 31
0.0
  0
LINE
  8
0
  6
CONTINUOUS
 62
     1
 10
322.035
 20
787.993573333
 30
0.0
 11
322.035
 21
877.993573333
 31
0.0
  0
LINE
  8
0
  6
CONTINUOUS
 62
     1
 10
327.035
 20
782.993573333
 30
0.0
 11
322.035
 21
787.993573333
 31
0.0
  0
LINE
  8
0
  6
CONTINUOUS
 62
     2
 10
337.035
 20
872.993573333
 30
0.0
 11
325.035
 21
872.993573333
 31
0.0
  0
LINE
  8
0
  6
CONTINUOUS
 62
     2
 10
393.035
 20
872.993573333
 30
0.0
 11
381.035
 21
872.993573333
 31
0.0
  0
LINE
  8
0
  6
CONTINUOUS
 62
     2
 10
332.035
 20
866.993573333
 30
0.0
 11
332.035
 21
882.493573333
 31
0.0
  0
LINE
  8
0
  6
CONTINUOUS
 62
     2
 10
332.035
 20
785.493573333
 30
0.0
 11
332.035
 21
799.993573333
 31
0.0
  0
LINE
  8
0
  6
CONTINUOUS
 62
     2
 10
340.035
 20
792.993573333
 30
0.0
 11
325.035
 21
792.993573333
 31
0.0
  0
LINE
  8
0
  6
CONTINUOUS
 62
     2
 10
392.035
 20
792.993573333
 30
0.0
 11
379.035
 21
792.993573333
 31
0.0
  0
LINE
  8
0
  6
CONTINUOUS
 62
     2
 10
387.035
 20
866.993573333
 30
0.0
 11
387.035
 21
882.493573333
 31
0.0
  0
LINE
  8
0
  6
CONTINUOUS
 62
     2
 10
387.035
 20
785.493573333
 30
0.0
 11
387.035
 21
799.993573333
 31
0.0
  0
LINE
  8
0
  6
CONTINUOUS
 62
     1
 10
361.035
 20
769.493573333
 30
0.0
 11
361.035
 21
699.493573333
 31
0.0
  0
TEXT
  8
0
  6
CONTINUOUS
 62
     2
 10
366.035
 20
758.493573333
 30
5.0
 40
20.0
  1
銘板
 50
270.0
 41
0.925
 51
0.0
  7
KANJI81
  0
LINE
  8
0
  6
CONTINUOUS
 62
     1
 10
404.035
 20
769.493573333
 30
0.0
 11
361.035
 21
769.493573333
 31
0.0
  0
LINE
  8
0
  6
CONTINUOUS
 62
     1
 10
404.035
 20
769.493573333
 30
0.0
 11
404.035
 21
699.493573333
 31
0.0
  0
LINE
  8
0
  6
CONTINUOUS
 62
     1
 10
404.035
 20
699.493573333
 30
0.0
 11
361.035
 21
699.493573333
 31
0.0
  0
LINE
  8
0
  6
CONTINUOUS
 62
     1
 10
322.035
 20
578.493573333
 30
0.0
 11
322.035
 21
947.493573333
 31
0.0
  0
TEXT
  8
0
  6
CONTINUOUS
 62
     2
 10
2598.66
 20
1114.49
 30
14.0
 40
24.5
  1
別切り
 50
0.0
 41
0.9
 51
0.0
  7
KANJI82
  0
ENDSEC
  0
EOF
