  0
SECTION
  2
HEADER
  9
$ACADVER
  1
AC1009
  9
$DWGCODEPAGE
  3
dos932
  9
$EXTMIN
 10
0.0
 20
0.0
 30
0.0
  9
$EXTMAX
 10
2940.0
 20
2079.0
 30
0.0
  9
$LIMMIN
 10
0.0
 20
0.0
  9
$LIMMAX
 10
2940.0
 20
2079.0
  9
$LTSCALE
 40
1.0
  9
$PDMODE
 70
     0
  0
ENDSEC
  0
SECTION
  2
TABLES
  0
TABLE
  2
VPORT
 70
     1
  0
VPORT
  2
*ACTIVE
 70
     0
 10
0.0
 20
0.0
 11
1.0
 21
1.0
 12
1470.0
 22
1039.5
 13
0.0
 23
0.0
 14
10.0
 24
10.0
 15
10.0
 25
10.0
 16
0.0
 26
0.0
 36
1.0
 17
0.0
 27
0.0
 37
0.0
 40
2940.0
 41
1.414141414
 42
50.0
 43
0.0
 44
0.0
 50
0.0
 51
0.0
 71
     0
 72
  1000
 73
     1
 74
     3
 75
     0
 76
     0
 77
     0
 78
     0
  0
ENDTAB
  0
TABLE
  2
LTYPE
 70
     4
  0
LTYPE
  2
CONTINUOUS
 70
    64
  3
Solid line
 72
    65
 73
     0
 40
0.0
  0
LTYPE
  2
LTYPE1
 70
    64
  3
HIDDEN
 72
    65
 73
     2
 40
21.0
 49
12.6
 49
-8.4
  0
LTYPE
  2
LTYPE2
 70
    64
  3
CENTER
 72
    65
 73
     4
 40
105.0
 49
73.5
 49
-10.5
 49
10.5
 49
-10.5
  0
LTYPE
  2
LTYPE3
 70
    64
  3
CENTER
 72
    65
 73
     4
 40
70.0
 49
49.0
 49
-7.0
 49
7.0
 49
-7.0
  0
ENDTAB
  0
TABLE
  2
LAYER
 70
   128
  0
LAYER
  2
0
 70
     0
 62
     7
  6
CONTINUOUS
  0
LAYER
  2
2
 70
     0
 62
     7
  6
CONTINUOUS
  0
LAYER
  2
3
 70
     0
 62
     7
  6
CONTINUOUS
  0
LAYER
  2
4
 70
     0
 62
     7
  6
CONTINUOUS
  0
LAYER
  2
5
 70
     0
 62
     7
  6
CONTINUOUS
  0
LAYER
  2
6
 70
     0
 62
     7
  6
CONTINUOUS
  0
LAYER
  2
7
 70
     0
 62
     7
  6
CONTINUOUS
  0
LAYER
  2
8
 70
     0
 62
     7
  6
CONTINUOUS
  0
LAYER
  2
9
 70
     0
 62
     7
  6
CONTINUOUS
  0
LAYER
  2
10
 70
     0
 62
     7
  6
CONTINUOUS
  0
LAYER
  2
11
 70
     0
 62
     7
  6
CONTINUOUS
  0
LAYER
  2
12
 70
     0
 62
     7
  6
CONTINUOUS
  0
LAYER
  2
13
 70
     0
 62
     7
  6
CONTINUOUS
  0
LAYER
  2
14
 70
     0
 62
     7
  6
CONTINUOUS
  0
LAYER
  2
15
 70
     0
 62
     7
  6
CONTINUOUS
  0
LAYER
  2
16
 70
     0
 62
     7
  6
CONTINUOUS
  0
LAYER
  2
17
 70
     0
 62
     7
  6
CONTINUOUS
  0
LAYER
  2
18
 70
     0
 62
     7
  6
CONTINUOUS
  0
LAYER
  2
19
 70
     0
 62
     7
  6
CONTINUOUS
  0
LAYER
  2
20
 70
     0
 62
     7
  6
CONTINUOUS
  0
LAYER
  2
21
 70
     0
 62
     7
  6
CONTINUOUS
  0
LAYER
  2
22
 70
     0
 62
     7
  6
CONTINUOUS
  0
LAYER
  2
23
 70
     0
 62
     7
  6
CONTINUOUS
  0
LAYER
  2
24
 70
     0
 62
     7
  6
CONTINUOUS
  0
LAYER
  2
25
 70
     0
 62
     7
  6
CONTINUOUS
  0
LAYER
  2
26
 70
     0
 62
     7
  6
CONTINUOUS
  0
LAYER
  2
27
 70
     0
 62
     7
  6
CONTINUOUS
  0
LAYER
  2
28
 70
     0
 62
     7
  6
CONTINUOUS
  0
LAYER
  2
29
 70
     0
 62
     7
  6
CONTINUOUS
  0
LAYER
  2
30
 70
     0
 62
     7
  6
CONTINUOUS
  0
LAYER
  2
31
 70
     0
 62
     7
  6
CONTINUOUS
  0
LAYER
  2
32
 70
     0
 62
     7
  6
CONTINUOUS
  0
LAYER
  2
33
 70
     0
 62
     7
  6
CONTINUOUS
  0
LAYER
  2
34
 70
     0
 62
     7
  6
CONTINUOUS
  0
LAYER
  2
35
 70
     0
 62
     7
  6
CONTINUOUS
  0
LAYER
  2
36
 70
     0
 62
     7
  6
CONTINUOUS
  0
LAYER
  2
37
 70
     0
 62
     7
  6
CONTINUOUS
  0
LAYER
  2
38
 70
     0
 62
     7
  6
CONTINUOUS
  0
LAYER
  2
39
 70
     0
 62
     7
  6
CONTINUOUS
  0
LAYER
  2
40
 70
     0
 62
     7
  6
CONTINUOUS
  0
LAYER
  2
41
 70
     0
 62
     7
  6
CONTINUOUS
  0
LAYER
  2
42
 70
     0
 62
     7
  6
CONTINUOUS
  0
LAYER
  2
43
 70
     0
 62
     7
  6
CONTINUOUS
  0
LAYER
  2
44
 70
     0
 62
     7
  6
CONTINUOUS
  0
LAYER
  2
45
 70
     0
 62
     7
  6
CONTINUOUS
  0
LAYER
  2
46
 70
     0
 62
     7
  6
CONTINUOUS
  0
LAYER
  2
47
 70
     0
 62
     7
  6
CONTINUOUS
  0
LAYER
  2
48
 70
     0
 62
     7
  6
CONTINUOUS
  0
LAYER
  2
49
 70
     0
 62
     7
  6
CONTINUOUS
  0
LAYER
  2
50
 70
     0
 62
     7
  6
CONTINUOUS
  0
LAYER
  2
51
 70
     0
 62
     7
  6
CONTINUOUS
  0
LAYER
  2
52
 70
     0
 62
     7
  6
CONTINUOUS
  0
LAYER
  2
53
 70
     0
 62
     7
  6
CONTINUOUS
  0
LAYER
  2
54
 70
     0
 62
     7
  6
CONTINUOUS
  0
LAYER
  2
55
 70
     0
 62
     7
  6
CONTINUOUS
  0
LAYER
  2
56
 70
     0
 62
     7
  6
CONTINUOUS
  0
LAYER
  2
57
 70
     0
 62
     7
  6
CONTINUOUS
  0
LAYER
  2
58
 70
     0
 62
     7
  6
CONTINUOUS
  0
LAYER
  2
59
 70
     0
 62
     7
  6
CONTINUOUS
  0
LAYER
  2
60
 70
     0
 62
     7
  6
CONTINUOUS
  0
LAYER
  2
61
 70
     0
 62
     7
  6
CONTINUOUS
  0
LAYER
  2
62
 70
     0
 62
     7
  6
CONTINUOUS
  0
LAYER
  2
63
 70
     0
 62
     7
  6
CONTINUOUS
  0
LAYER
  2
64
 70
     0
 62
     7
  6
CONTINUOUS
  0
LAYER
  2
65
 70
     0
 62
     7
  6
CONTINUOUS
  0
LAYER
  2
66
 70
     0
 62
     7
  6
CONTINUOUS
  0
LAYER
  2
67
 70
     0
 62
     7
  6
CONTINUOUS
  0
LAYER
  2
68
 70
     0
 62
     7
  6
CONTINUOUS
  0
LAYER
  2
69
 70
     0
 62
     7
  6
CONTINUOUS
  0
LAYER
  2
70
 70
     0
 62
     7
  6
CONTINUOUS
  0
LAYER
  2
71
 70
     0
 62
     7
  6
CONTINUOUS
  0
LAYER
  2
72
 70
     0
 62
     7
  6
CONTINUOUS
  0
LAYER
  2
73
 70
     0
 62
     7
  6
CONTINUOUS
  0
LAYER
  2
74
 70
     0
 62
     7
  6
CONTINUOUS
  0
LAYER
  2
75
 70
     0
 62
     7
  6
CONTINUOUS
  0
LAYER
  2
76
 70
     0
 62
     7
  6
CONTINUOUS
  0
LAYER
  2
77
 70
     0
 62
     7
  6
CONTINUOUS
  0
LAYER
  2
78
 70
     0
 62
     7
  6
CONTINUOUS
  0
LAYER
  2
79
 70
     0
 62
     7
  6
CONTINUOUS
  0
LAYER
  2
80
 70
     0
 62
     7
  6
CONTINUOUS
  0
LAYER
  2
81
 70
     0
 62
     7
  6
CONTINUOUS
  0
LAYER
  2
82
 70
     0
 62
     7
  6
CONTINUOUS
  0
LAYER
  2
83
 70
     0
 62
     7
  6
CONTINUOUS
  0
LAYER
  2
84
 70
     0
 62
     7
  6
CONTINUOUS
  0
LAYER
  2
85
 70
     0
 62
     7
  6
CONTINUOUS
  0
LAYER
  2
86
 70
     0
 62
     7
  6
CONTINUOUS
  0
LAYER
  2
87
 70
     0
 62
     7
  6
CONTINUOUS
  0
LAYER
  2
88
 70
     0
 62
     7
  6
CONTINUOUS
  0
LAYER
  2
89
 70
     0
 62
     7
  6
CONTINUOUS
  0
LAYER
  2
90
 70
     0
 62
     7
  6
CONTINUOUS
  0
LAYER
  2
91
 70
     0
 62
     7
  6
CONTINUOUS
  0
LAYER
  2
92
 70
     0
 62
     7
  6
CONTINUOUS
  0
LAYER
  2
93
 70
     0
 62
     7
  6
CONTINUOUS
  0
LAYER
  2
94
 70
     0
 62
     7
  6
CONTINUOUS
  0
LAYER
  2
95
 70
     0
 62
     7
  6
CONTINUOUS
  0
LAYER
  2
96
 70
     0
 62
     7
  6
CONTINUOUS
  0
LAYER
  2
97
 70
     0
 62
     7
  6
CONTINUOUS
  0
LAYER
  2
98
 70
     0
 62
     7
  6
CONTINUOUS
  0
LAYER
  2
99
 70
     0
 62
     7
  6
CONTINUOUS
  0
LAYER
  2
100
 70
     0
 62
     7
  6
CONTINUOUS
  0
LAYER
  2
101
 70
     0
 62
     7
  6
CONTINUOUS
  0
LAYER
  2
102
 70
     0
 62
     7
  6
CONTINUOUS
  0
LAYER
  2
103
 70
     0
 62
     7
  6
CONTINUOUS
  0
LAYER
  2
104
 70
     0
 62
     7
  6
CONTINUOUS
  0
LAYER
  2
105
 70
     0
 62
     7
  6
CONTINUOUS
  0
LAYER
  2
106
 70
     0
 62
     7
  6
CONTINUOUS
  0
LAYER
  2
107
 70
     0
 62
     7
  6
CONTINUOUS
  0
LAYER
  2
108
 70
     0
 62
     7
  6
CONTINUOUS
  0
LAYER
  2
109
 70
     0
 62
     7
  6
CONTINUOUS
  0
LAYER
  2
110
 70
     0
 62
     7
  6
CONTINUOUS
  0
LAYER
  2
111
 70
     0
 62
     7
  6
CONTINUOUS
  0
LAYER
  2
112
 70
     0
 62
     7
  6
CONTINUOUS
  0
LAYER
  2
113
 70
     0
 62
     7
  6
CONTINUOUS
  0
LAYER
  2
114
 70
     0
 62
     7
  6
CONTINUOUS
  0
LAYER
  2
115
 70
     0
 62
     7
  6
CONTINUOUS
  0
LAYER
  2
116
 70
     0
 62
     7
  6
CONTINUOUS
  0
LAYER
  2
117
 70
     0
 62
     7
  6
CONTINUOUS
  0
LAYER
  2
118
 70
     0
 62
     7
  6
CONTINUOUS
  0
LAYER
  2
119
 70
     0
 62
     7
  6
CONTINUOUS
  0
LAYER
  2
120
 70
     0
 62
     7
  6
CONTINUOUS
  0
LAYER
  2
121
 70
     0
 62
     7
  6
CONTINUOUS
  0
LAYER
  2
122
 70
     0
 62
     7
  6
CONTINUOUS
  0
LAYER
  2
123
 70
     0
 62
     7
  6
CONTINUOUS
  0
LAYER
  2
124
 70
     0
 62
     7
  6
CONTINUOUS
  0
LAYER
  2
125
 70
     0
 62
     7
  6
CONTINUOUS
  0
LAYER
  2
126
 70
     0
 62
     7
  6
CONTINUOUS
  0
LAYER
  2
127
 70
     0
 62
     7
  6
CONTINUOUS
  0
LAYER
  2
128
 70
     0
 62
     7
  6
CONTINUOUS
  0
ENDTAB
  0
TABLE
  2
STYLE
 70
    76
  0
STYLE
  2
STANDARD
 70
     0
 40
0.0
 41
1.0
 50
0.0
 71
     0
 42
0.2
  3
txt.shx
  4
extfont.shx
  0
STYLE
  2
KANJI0
 70
     0
 40
18.1999986
 41
0.75
 50
0.0
 71
     0
 42
18.1999986
  3
txt.shx
  4
extfont.shx
  0
STYLE
  2
KANJI1
 70
     0
 40
13.999997056
 41
0.6
 50
0.0
 71
     0
 42
13.999997056
  3
txt.shx
  4
extfont.shx
  0
STYLE
  2
KANJI2
 70
     0
 40
16.799996468
 41
0.9
 50
0.0
 71
     0
 42
16.799996468
  3
txt.shx
  4
extfont.shx
  0
STYLE
  2
KANJI3
 70
     0
 40
20.999995585
 41
0.9
 50
0.0
 71
     0
 42
20.999995585
  3
txt.shx
  4
extfont.shx
  0
STYLE
  2
KANJI4
 70
     0
 40
12.1333324
 41
0.6
 50
0.0
 71
     0
 42
12.1333324
  3
txt.shx
  4
extfont.shx
  0
STYLE
  2
KANJI5
 70
     0
 40
14.55999888
 41
0.6
 50
0.0
 71
     0
 42
14.55999888
  3
txt.shx
  4
extfont.shx
  0
STYLE
  2
KANJI6
 70
     0
 40
21.2333317
 41
0.42031746
 50
0.0
 71
     0
 42
21.2333317
  3
txt.shx
  4
extfont.shx
  0
STYLE
  2
KANJI7
 70
     0
 40
36.3999972
 41
0.9
 50
0.0
 71
     0
 42
36.3999972
  3
txt.shx
  4
extfont.shx
  0
STYLE
  2
KANJI8
 70
     0
 40
25.2
 41
1.111111111
 50
0.0
 71
     0
 42
25.2
  3
txt.shx
  4
extfont.shx
  0
STYLE
  2
KANJI9
 70
     0
 40
12.1333324
 41
0.8
 50
0.0
 71
     0
 42
12.1333324
  3
txt.shx
  4
extfont.shx
  0
STYLE
  2
KANJI10
 70
     0
 40
14.55999888
 41
0.8
 50
0.0
 71
     0
 42
14.55999888
  3
txt.shx
  4
extfont.shx
  0
STYLE
  2
KANJI11
 70
     0
 40
35.0
 41
1.0
 50
0.0
 71
     0
 42
35.0
  3
txt.shx
  4
extfont.shx
  0
STYLE
  2
KANJI12
 70
     0
 40
35.0
 41
1.0
 50
0.0
 71
     0
 42
35.0
  3
txt.shx
  4
extfont.shx
  0
STYLE
  2
KANJI13
 70
     0
 40
35.0
 41
0.8
 50
0.0
 71
     0
 42
35.0
  3
txt.shx
  4
extfont.shx
  0
STYLE
  2
KANJI14
 70
     0
 40
28.0
 41
1.0
 50
0.0
 71
     0
 42
28.0
  3
txt.shx
  4
extfont.shx
  0
STYLE
  2
KANJI15
 70
     0
 40
21.0
 41
0.9
 50
0.0
 71
     0
 42
21.0
  3
txt.shx
  4
extfont.shx
  0
STYLE
  2
KANJI16
 70
     0
 40
31.5
 41
0.666666667
 50
0.0
 71
     0
 42
31.5
  3
txt.shx
  4
extfont.shx
  0
STYLE
  2
KANJI17
 70
     0
 40
21.0
 41
0.9
 50
0.0
 71
     0
 42
21.0
  3
txt.shx
  4
extfont.shx
  0
STYLE
  2
KANJI18
 70
     0
 40
24.5
 41
0.793650794
 50
0.0
 71
     0
 42
24.5
  3
txt.shx
  4
extfont.shx
  0
STYLE
  2
KANJI19
 70
     0
 40
35.0
 41
0.8
 50
0.0
 71
     0
 42
35.0
  3
txt.shx
  4
extfont.shx
  0
STYLE
  2
KANJI20
 70
     0
 40
24.5
 41
0.571428571
 50
0.0
 71
     0
 42
24.5
  3
txt.shx
  4
extfont.shx
  0
STYLE
  2
KANJI21
 70
     0
 40
24.5
 41
0.857142857
 50
0.0
 71
     0
 42
24.5
  3
txt.shx
  4
extfont.shx
  0
STYLE
  2
KANJI22
 70
     0
 40
14.99994
 41
0.9
 50
0.0
 71
     0
 42
14.99994
  3
txt.shx
  4
extfont.shx
  0
STYLE
  2
KANJI23
 70
     0
 40
15.379
 41
0.85
 50
0.0
 71
     0
 42
15.379
  3
txt.shx
  4
extfont.shx
  0
STYLE
  2
KANJI24
 70
     0
 40
13.6045
 41
0.822608696
 50
0.0
 71
     0
 42
13.6045
  3
txt.shx
  4
extfont.shx
  0
STYLE
  2
KANJI25
 70
     0
 40
13.8411
 41
0.726495726
 50
0.0
 71
     0
 42
13.8411
  3
txt.shx
  4
extfont.shx
  0
STYLE
  2
KANJI26
 70
     4
 40
52.5
 41
0.538166667
 50
0.0
 71
     0
 42
52.5
  3
txt.shx
  4
extfont.shx
  0
STYLE
  2
KANJI27
 70
     0
 40
20.697485939
 41
0.880962996
 50
0.0
 71
     0
 42
20.697485939
  3
txt.shx
  4
extfont.shx
  0
STYLE
  2
KANJI28
 70
     0
 40
13.65
 41
0.8
 50
0.0
 71
     0
 42
13.65
  3
txt.shx
  4
extfont.shx
  0
STYLE
  2
KANJI29
 70
     0
 40
17.5
 41
0.911
 50
0.0
 71
     0
 42
17.5
  3
txt.shx
  4
extfont.shx
  0
STYLE
  2
KANJI30
 70
     0
 40
25.2
 41
0.857142857
 50
0.0
 71
     0
 42
25.2
  3
txt.shx
  4
extfont.shx
  0
STYLE
  2
KANJI31
 70
     0
 40
25.2
 41
0.857222222
 50
0.0
 71
     0
 42
25.2
  3
txt.shx
  4
extfont.shx
  0
STYLE
  2
KANJI32
 70
     0
 40
28.0
 41
0.9
 50
0.0
 71
     0
 42
28.0
  3
txt.shx
  4
extfont.shx
  0
STYLE
  2
KANJI33
 70
     0
 40
17.92
 41
0.9
 50
0.0
 71
     0
 42
17.92
  3
txt.shx
  4
extfont.shx
  0
STYLE
  2
KANJI34
 70
     0
 40
16.8
 41
0.9
 50
0.0
 71
     0
 42
16.8
  3
txt.shx
  4
extfont.shx
  0
STYLE
  2
KANJI35
 70
     0
 40
16.8
 41
0.9
 50
0.0
 71
     0
 42
16.8
  3
txt.shx
  4
extfont.shx
  0
STYLE
  2
KANJI36
 70
     0
 40
19.6
 41
0.9
 50
0.0
 71
     0
 42
19.6
  3
txt.shx
  4
extfont.shx
  0
STYLE
  2
KANJI37
 70
     0
 40
15.12
 41
0.740740741
 50
0.0
 71
     0
 42
15.12
  3
txt.shx
  4
extfont.shx
  0
STYLE
  2
KANJI38
 70
     0
 40
19.6
 41
0.857142857
 50
0.0
 71
     0
 42
19.6
  3
txt.shx
  4
extfont.shx
  0
STYLE
  2
KANJI39
 70
     0
 40
16.8
 41
0.833333333
 50
0.0
 71
     0
 42
16.8
  3
txt.shx
  4
extfont.shx
  0
STYLE
  2
KANJI40
 70
     0
 40
20.0
 41
0.925
 50
0.0
 71
     0
 42
20.0
  3
txt.shx
  4
extfont.shx
  0
STYLE
  2
KANJI41
 70
     0
 40
18.223173404
 41
0.66671875
 50
0.0
 71
     0
 42
18.223173404
  3
txt.shx
  4
extfont.shx
  0
STYLE
  2
KANJI42
 70
     0
 40
21.6
 41
0.9
 50
0.0
 71
     0
 42
21.6
  3
txt.shx
  4
extfont.shx
  0
STYLE
  2
KANJI43
 70
     0
 40
12.96
 41
0.9
 50
0.0
 71
     0
 42
12.96
  3
txt.shx
  4
extfont.shx
  0
STYLE
  2
KANJI44
 70
     0
 40
17.28
 41
0.9
 50
0.0
 71
     0
 42
17.28
  3
txt.shx
  4
extfont.shx
  0
STYLE
  2
KANJI45
 70
     0
 40
18.72
 41
0.925
 50
0.0
 71
     0
 42
18.72
  3
txt.shx
  4
extfont.shx
  0
STYLE
  2
KANJI46
 70
     0
 40
15.0
 41
0.9
 50
0.0
 71
     0
 42
15.0
  3
txt.shx
  4
extfont.shx
  0
STYLE
  2
KANJI47
 70
     0
 40
20.0
 41
0.925
 50
0.0
 71
     0
 42
20.0
  3
txt.shx
  4
extfont.shx
  0
STYLE
  2
KANJI48
 70
     0
 40
17.49993
 41
0.9
 50
0.0
 71
     0
 42
17.49993
  3
txt.shx
  4
extfont.shx
  0
STYLE
  2
KANJI49
 70
     0
 40
26.6
 41
0.9
 50
0.0
 71
     0
 42
26.6
  3
txt.shx
  4
extfont.shx
  0
STYLE
  2
KANJI50
 70
     0
 40
26.6
 41
0.9
 50
0.0
 71
     0
 42
26.6
  3
txt.shx
  4
extfont.shx
  0
STYLE
  2
KANJI51
 70
     0
 40
31.5
 41
0.9
 50
0.0
 71
     0
 42
31.5
  3
txt.shx
  4
extfont.shx
  0
STYLE
  2
KANJI52
 70
     0
 40
26.6
 41
0.9
 50
0.0
 71
     0
 42
26.6
  3
txt.shx
  4
extfont.shx
  0
STYLE
  2
KANJI53
 70
     0
 40
26.6
 41
0.9
 50
0.0
 71
     0
 42
26.6
  3
txt.shx
  4
extfont.shx
  0
STYLE
  2
KANJI54
 70
     0
 40
26.6
 41
0.9
 50
0.0
 71
     0
 42
26.6
  3
txt.shx
  4
extfont.shx
  0
STYLE
  2
KANJI55
 70
     0
 40
26.6
 41
0.9
 50
0.0
 71
     0
 42
26.6
  3
txt.shx
  4
extfont.shx
  0
STYLE
  2
KANJI56
 70
     0
 40
26.6
 41
0.9
 50
0.0
 71
     0
 42
26.6
  3
txt.shx
  4
extfont.shx
  0
STYLE
  2
KANJI57
 70
     0
 40
26.6
 41
0.9
 50
0.0
 71
     0
 42
26.6
  3
txt.shx
  4
extfont.shx
  0
STYLE
  2
KANJI58
 70
     4
 40
24.5
 41
0.9
 50
0.0
 71
     0
 42
24.5
  3
txt.shx
  4
extfont.shx
  0
STYLE
  2
KANJI59
 70
     4
 40
24.5
 41
0.9
 50
0.0
 71
     0
 42
24.5
  3
txt.shx
  4
extfont.shx
  0
STYLE
  2
KANJI60
 70
     0
 40
24.5
 41
0.9
 50
0.0
 71
     0
 42
24.5
  3
txt.shx
  4
extfont.shx
  0
STYLE
  2
KANJI61
 70
     0
 40
21.0
 41
0.9
 50
0.0
 71
     0
 42
21.0
  3
txt.shx
  4
extfont.shx
  0
STYLE
  2
KANJI62
 70
     0
 40
24.5
 41
0.9
 50
0.0
 71
     0
 42
24.5
  3
txt.shx
  4
extfont.shx
  0
STYLE
  2
KANJI63
 70
     0
 40
26.6
 41
0.9
 50
0.0
 71
     0
 42
26.6
  3
txt.shx
  4
extfont.shx
  0
STYLE
  2
KANJI64
 70
     0
 40
26.6
 41
0.9
 50
0.0
 71
     0
 42
26.6
  3
txt.shx
  4
extfont.shx
  0
STYLE
  2
KANJI65
 70
     0
 40
24.5
 41
0.628571429
 50
0.0
 71
     0
 42
24.5
  3
txt.shx
  4
extfont.shx
  0
STYLE
  2
KANJI66
 70
     0
 40
23.8
 41
0.705882353
 50
0.0
 71
     0
 42
23.8
  3
txt.shx
  4
extfont.shx
  0
STYLE
  2
KANJI67
 70
     0
 40
21.0
 41
0.8
 50
0.0
 71
     0
 42
21.0
  3
txt.shx
  4
extfont.shx
  0
STYLE
  2
KANJI68
 70
     0
 40
22.4
 41
0.71875
 50
0.0
 71
     0
 42
22.4
  3
txt.shx
  4
extfont.shx
  0
STYLE
  2
KANJI69
 70
     0
 40
22.4
 41
0.8
 50
0.0
 71
     0
 42
22.4
  3
txt.shx
  4
extfont.shx
  0
STYLE
  2
KANJI70
 70
     0
 40
24.5
 41
0.571428571
 50
0.0
 71
     0
 42
24.5
  3
txt.shx
  4
extfont.shx
  0
STYLE
  2
KANJI71
 70
     0
 40
21.0
 41
0.833333333
 50
0.0
 71
     0
 42
21.0
  3
txt.shx
  4
extfont.shx
  0
STYLE
  2
KANJI72
 70
     0
 40
21.0
 41
0.833333333
 50
0.0
 71
     0
 42
21.0
  3
txt.shx
  4
extfont.shx
  0
STYLE
  2
KANJI73
 70
     0
 40
28.0
 41
1.0
 50
0.0
 71
     0
 42
28.0
  3
txt.shx
  4
extfont.shx
  0
STYLE
  2
KANJI74
 70
     0
 40
26.6
 41
0.9
 50
0.0
 71
     0
 42
26.6
  3
txt.shx
  4
extfont.shx
  0
ENDTAB
  0
TABLE
  2
VIEW
 70
     0
  0
ENDTAB
  0
ENDSEC
  0
SECTION
  2
BLOCKS
  0
ENDSEC
  0
SECTION
  2
ENTITIES
  0
POLYLINE
  8
0
  6
CONTINUOUS
 62
     6
 66
     1
  0
VERTEX
  8
0
  6
CONTINUOUS
 62
     6
 10
93.333333333
 20
83.833333333
 30
0.0
  0
VERTEX
  8
0
  6
CONTINUOUS
 62
     6
 10
93.333333333
 20
1966.833333333
 30
0.0
  0
VERTEX
  8
0
  6
CONTINUOUS
 62
     6
 10
2802.333333333
 20
1966.833333333
 30
0.0
  0
SEQEND
  0
LINE
  8
0
  6
CONTINUOUS
 62
     6
 10
100.333331862
 20
188.833311256
 30
0.0
 11
555.333236195
 21
188.833311256
 31
0.0
  0
LINE
  8
0
  6
CONTINUOUS
 62
     6
 10
100.333331862
 20
90.833331862
 30
0.0
 11
555.333236195
 21
90.833331862
 31
0.0
  0
LINE
  8
0
  6
CONTINUOUS
 62
     6
 10
100.333331862
 20
90.833331862
 30
0.0
 11
100.333331862
 21
188.833311256
 31
0.0
  0
LINE
  8
0
  6
CONTINUOUS
 62
     6
 10
100.333331862
 20
139.833321559
 30
0.0
 11
555.333236195
 21
139.833321559
 31
0.0
  0
LINE
  8
0
  6
CONTINUOUS
 62
     4
 10
13.649999533
 20
89.899999533
 30
0.0
 11
86.449993933
 21
89.899999533
 31
0.0
  0
LINE
  8
0
  6
CONTINUOUS
 62
     4
 10
13.649999533
 20
126.299996733
 30
0.0
 11
86.449993933
 21
126.299996733
 31
0.0
  0
LINE
  8
0
  6
CONTINUOUS
 62
     4
 10
13.649999533
 20
162.699993933
 30
0.0
 11
86.449993933
 21
162.699993933
 31
0.0
  0
LINE
  8
0
  6
CONTINUOUS
 62
     4
 10
13.649999533
 20
199.099991133
 30
0.0
 11
86.449993933
 21
199.099991133
 31
0.0
  0
LINE
  8
0
  6
CONTINUOUS
 62
     4
 10
13.649999533
 20
235.499988333
 30
0.0
 11
86.449993933
 21
235.499988333
 31
0.0
  0
LINE
  8
0
  6
CONTINUOUS
 62
     4
 10
13.649999533
 20
271.899985533
 30
0.0
 11
86.449993933
 21
271.899985533
 31
0.0
  0
LINE
  8
0
  6
CONTINUOUS
 62
     4
 10
13.649999533
 20
308.299982733
 30
0.0
 11
86.449993933
 21
308.299982733
 31
0.0
  0
LINE
  8
0
  6
CONTINUOUS
 62
     4
 10
13.649999533
 20
344.699979933
 30
0.0
 11
86.449993933
 21
344.699979933
 31
0.0
  0
LINE
  8
0
  6
CONTINUOUS
 62
     4
 10
13.649999533
 20
381.099977133
 30
0.0
 11
86.449993933
 21
381.099977133
 31
0.0
  0
LINE
  8
0
  6
CONTINUOUS
 62
     4
 10
13.649999533
 20
417.499974333
 30
0.0
 11
86.449993933
 21
417.499974333
 31
0.0
  0
LINE
  8
0
  6
CONTINUOUS
 62
     4
 10
86.449993933
 20
89.899999533
 30
0.0
 11
86.449993933
 21
417.499974333
 31
0.0
  0
LINE
  8
0
  6
CONTINUOUS
 62
     4
 10
50.049996733
 20
89.899999533
 30
0.0
 11
50.049996733
 21
381.099977133
 31
0.0
  0
TEXT
  8
0
  6
CONTINUOUS
 62
     4
 10
26.086665243
 20
100.516665383
 30
1.81999986
 40
18.1999986
  1
計
 50
0.0
 41
0.75
 51
0.0
  7
KANJI0
  0
TEXT
  8
0
  6
CONTINUOUS
 62
     4
 10
26.086665243
 20
173.923326403
 30
1.81999986
 40
18.1999986
  1
設
 50
0.0
 41
0.75
 51
0.0
  7
KANJI0
  0
TEXT
  8
0
  6
CONTINUOUS
 62
     4
 10
26.086665243
 20
209.716656983
 30
1.81999986
 40
18.1999986
  1
管
 50
0.0
 41
0.75
 51
0.0
  7
KANJI0
  0
TEXT
  8
0
  6
CONTINUOUS
 62
     4
 10
26.086665243
 20
246.116654183
 30
1.81999986
 40
18.1999986
  1
製
 50
0.0
 41
0.75
 51
0.0
  7
KANJI0
  0
TEXT
  8
0
  6
CONTINUOUS
 62
     4
 10
26.086665243
 20
282.516651383
 30
1.81999986
 40
18.1999986
  1
資
 50
0.0
 41
0.75
 51
0.0
  7
KANJI0
  0
TEXT
  8
0
  6
CONTINUOUS
 62
     4
 10
26.086665243
 20
318.916648583
 30
1.81999986
 40
18.1999986
  1
営
 50
0.0
 41
0.75
 51
0.0
  7
KANJI0
  0
TEXT
  8
0
  6
CONTINUOUS
 62
     4
 10
26.086665243
 20
355.316645783
 30
1.81999986
 40
18.1999986
  1
客
 50
0.0
 41
0.75
 51
0.0
  7
KANJI0
  0
TEXT
  8
0
  6
CONTINUOUS
 62
     4
 10
25.783331933
 20
393.233309533
 30
1.81999986
 40
18.1999986
  1
出　図
 50
0.0
 41
0.75
 51
0.0
  7
KANJI0
  0
LINE
  8
0
  6
CONTINUOUS
 62
     4
 10
13.649999533
 20
89.899999533
 30
0.0
 11
13.649999533
 21
417.499974333
 31
0.0
  0
LINE
  8
0
  6
CONTINUOUS
 62
     6
 10
2802.333333333
 20
83.833333333
 30
0.0
 11
93.333333333
 21
83.833333333
 31
0.0
  0
TEXT
  8
0
  6
CONTINUOUS
 62
     4
 10
114.333328918
 20
118.833325974
 30
1.399999706
 40
13.999997056
  1
ＰＡＲＴＳ　ＬＩＳＴ
 50
0.0
 41
0.6
 51
0.0
  7
KANJI1
  0
TEXT
  8
0
  6
CONTINUOUS
 62
     4
 10
114.333328918
 20
97.83333039
 30
1.679999647
 40
16.799996468
  1
部品表
 50
0.0
 41
0.9
 51
0.0
  7
KANJI2
  0
TEXT
  8
0
  6
CONTINUOUS
 62
     3
 10
114.333328918
 20
153.833318615
 30
2.099999558
 40
20.999995585
  1
ＰＬ
 50
0.0
 41
0.9
 51
0.0
  7
KANJI3
  0
TEXT
  8
0
  6
CONTINUOUS
 62
     4
 10
429.333262687
 20
118.833325974
 30
1.399999706
 40
13.999997056
  1
Ｎ０．
 50
0.0
 41
0.6
 51
0.0
  7
KANJI1
  0
TEXT
  8
0
  6
CONTINUOUS
 62
     4
 10
429.333262687
 20
97.83333039
 30
1.679999647
 40
16.799996468
  1
項番
 50
0.0
 41
0.9
 51
0.0
  7
KANJI2
  0
LINE
  8
0
  6
CONTINUOUS
 62
     6
 10
555.333236195
 20
90.833331862
 30
0.0
 11
555.333236195
 21
188.833311256
 31
0.0
  0
LINE
  8
0
  6
CONTINUOUS
 62
     6
 10
415.333265631
 20
90.833331862
 30
0.0
 11
415.333265631
 21
188.833311256
 31
0.0
  0
LINE
  8
0
  6
CONTINUOUS
 62
     6
 10
2802.333333333
 20
1966.833333333
 30
0.0
 11
2802.333333333
 21
83.833333333
 31
0.0
  0
LINE
  8
0
  6
CONTINUOUS
 62
     6
 10
1862.000072333
 20
89.899999533
 30
0.0
 11
1862.000072333
 21
478.166636333
 31
0.0
  0
LINE
  8
0
  6
CONTINUOUS
 62
     6
 10
2796.266667133
 20
89.899999533
 30
0.0
 11
2796.266667133
 21
478.166636333
 31
0.0
  0
LINE
  8
0
  6
CONTINUOUS
 62
     4
 10
2083.433388633
 20
89.899999533
 30
0.0
 11
2083.433388633
 21
478.166636333
 31
0.0
  0
LINE
  8
0
  6
CONTINUOUS
 62
     4
 10
1862.000072333
 20
138.433329133
 30
0.0
 11
2083.433388633
 21
138.433329133
 31
0.0
  0
TEXT
  8
0
  6
CONTINUOUS
 62
     4
 10
1874.133404733
 20
117.199997433
 30
1.21333324
 40
12.1333324
  1
ＳＣＡＬＥ
 50
0.0
 41
0.6
 51
0.0
  7
KANJI4
  0
TEXT
  8
0
  6
CONTINUOUS
 62
     4
 10
1874.133404733
 20
98.999998833
 30
1.455999888
 40
14.55999888
  1
尺度
 50
0.0
 41
0.6
 51
0.0
  7
KANJI5
  0
LINE
  8
0
  6
CONTINUOUS
 62
     6
 10
1382.733442533
 20
138.433329133
 30
0.0
 11
1862.000072333
 21
138.433329133
 31
0.0
  0
LINE
  8
0
  6
CONTINUOUS
 62
     6
 10
1382.733442533
 20
89.899999533
 30
0.0
 11
2796.266667133
 21
89.899999533
 31
0.0
  0
TEXT
  8
0
  6
CONTINUOUS
 62
     6
 10
2089.500054833
 20
117.199997433
 30
0.0
 40
21.2333317
  1
ＵＮＩＴＥＣ　ＩＮＤＵＳＴＲＹ　ＣＯ．，ＬＴＤ．
 50
0.0
 41
0.42031746
 51
0.0
  7
KANJI6
  0
TEXT
  8
0
  6
CONTINUOUS
 62
     6
 10
2387.297531926
 20
109.313331373
 30
3.63999972
 40
36.3999972
  1
ユニテック工業株式会社
 50
0.0
 41
0.9
 51
0.0
  7
KANJI7
  0
LINE
  8
0
  6
CONTINUOUS
 62
     6
 10
2338.764202326
 20
122.053330393
 30
0.0
 11
2322.748203558
 21
122.053330393
 31
0.0
  0
LINE
  8
0
  6
CONTINUOUS
 62
     6
 10
2338.764202326
 20
124.965330169
 30
0.0
 11
2322.748203558
 21
124.965330169
 31
0.0
  0
LINE
  8
0
  6
CONTINUOUS
 62
     6
 10
2338.764202326
 20
122.053330393
 30
0.0
 11
2354.780201094
 21
122.053330393
 31
0.0
  0
LINE
  8
0
  6
CONTINUOUS
 62
     6
 10
2338.764202326
 20
124.965330169
 30
0.0
 11
2354.780201094
 21
124.965330169
 31
0.0
  0
LINE
  8
0
  6
CONTINUOUS
 62
     6
 10
2354.780201094
 20
124.965330169
 30
0.0
 11
2354.780201094
 21
122.053330393
 31
0.0
  0
ARC
  8
0
  6
CONTINUOUS
 62
     6
 10
2358.420200814
 20
123.509330281
 30
0.0
 40
14.55999888
 50
185.739170477
 51
90.0
  0
ARC
  8
0
  6
CONTINUOUS
 62
     6
 10
2358.420200814
 20
123.509330281
 30
0.0
 40
17.471998656
 50
184.780191847
 51
90.0
  0
LINE
  8
0
  6
CONTINUOUS
 62
     6
 10
2322.748203558
 20
122.053330393
 30
0.0
 11
2322.748203558
 21
124.965330169
 31
0.0
  0
ARC
  8
0
  6
CONTINUOUS
 62
     6
 10
2319.108203838
 20
123.509330281
 30
0.0
 40
14.55999888
 50
90.0
 51
354.260829523
  0
ARC
  8
0
  6
CONTINUOUS
 62
     6
 10
2319.108203838
 20
123.509330281
 30
0.0
 40
17.471998656
 50
90.0
 51
355.219808153
  0
LINE
  8
0
  6
CONTINUOUS
 62
     6
 10
2336.580202494
 20
140.981328937
 30
0.0
 11
2336.580202494
 21
138.069329161
 31
0.0
  0
LINE
  8
0
  6
CONTINUOUS
 62
     6
 10
2319.108203838
 20
138.069329161
 30
0.0
 11
2336.580202494
 21
138.069329161
 31
0.0
  0
LINE
  8
0
  6
CONTINUOUS
 62
     6
 10
2340.948202158
 20
140.981328937
 30
0.0
 11
2340.948202158
 21
138.069329161
 31
0.0
  0
LINE
  8
0
  6
CONTINUOUS
 62
     6
 10
2358.420200814
 20
138.069329161
 30
0.0
 11
2340.948202158
 21
138.069329161
 31
0.0
  0
TEXT
  8
0
  6
CONTINUOUS
 62
     4
 10
1537.433430633
 20
117.199997433
 30
1.21333324
 40
12.1333324
  1
ＢＹ
 50
0.0
 41
0.6
 51
0.0
  7
KANJI4
  0
TEXT
  8
0
  6
CONTINUOUS
 62
     4
 10
1670.900087033
 20
117.199997433
 30
1.21333324
 40
12.1333324
  1
ＤＥＳＣＲＩＰＴＩＯＮ
 50
0.0
 41
0.6
 51
0.0
  7
KANJI4
  0
TEXT
  8
0
  6
CONTINUOUS
 62
     4
 10
1537.433430633
 20
98.999998833
 30
1.455999888
 40
14.55999888
  1
担当
 50
0.0
 41
0.6
 51
0.0
  7
KANJI5
  0
TEXT
  8
0
  6
CONTINUOUS
 62
     4
 10
1689.100085633
 20
98.999998833
 30
1.455999888
 40
14.55999888
  1
記　　　　事
 50
0.0
 41
0.6
 51
0.0
  7
KANJI5
  0
LINE
  8
0
  6
CONTINUOUS
 62
     4
 10
1408.516773883
 20
129.333329833
 30
0.0
 11
1388.800108733
 21
98.999998833
 31
0.0
  0
TEXT
  8
0
  6
CONTINUOUS
 62
     4
 10
1458.566770033
 20
117.199997433
 30
1.21333324
 40
12.1333324
  1
ＤＡＴＥ
 50
0.0
 41
0.6
 51
0.0
  7
KANJI4
  0
TEXT
  8
0
  6
CONTINUOUS
 62
     4
 10
1467.666769333
 20
98.999998833
 30
1.455999888
 40
14.55999888
  1
日付
 50
0.0
 41
0.6
 51
0.0
  7
KANJI5
  0
LINE
  8
0
  6
CONTINUOUS
 62
     4
 10
1388.800108733
 20
98.999998833
 30
0.0
 11
1428.233439033
 21
98.999998833
 31
0.0
  0
LINE
  8
0
  6
CONTINUOUS
 62
     4
 10
1408.516773883
 20
129.333329833
 30
0.0
 11
1428.233439033
 21
98.999998833
 31
0.0
  0
LINE
  8
0
  6
CONTINUOUS
 62
     6
 10
1382.733442533
 20
89.899999533
 30
0.0
 11
1382.733442533
 21
138.433329133
 31
0.0
  0
LINE
  8
0
  6
CONTINUOUS
 62
     4
 10
1434.300105233
 20
89.899999533
 30
0.0
 11
1434.300105233
 21
138.433329133
 31
0.0
  0
LINE
  8
0
  6
CONTINUOUS
 62
     4
 10
1519.233432033
 20
89.899999533
 30
0.0
 11
1519.233432033
 21
138.433329133
 31
0.0
  0
LINE
  8
0
  6
CONTINUOUS
 62
     4
 10
1573.833427833
 20
89.899999533
 30
0.0
 11
1573.833427833
 21
138.433329133
 31
0.0
  0
TEXT
  8
0
  6
CONTINUOUS
 62
     4
 10
1874.133404733
 20
359.866645433
 30
1.21333324
 40
12.1333324
  1
ＣＯＤＥ
 50
0.0
 41
0.6
 51
0.0
  7
KANJI4
  0
LINE
  8
0
  6
CONTINUOUS
 62
     4
 10
1862.000072333
 20
381.099977133
 30
0.0
 11
2796.266667133
 21
381.099977133
 31
0.0
  0
TEXT
  8
0
  6
CONTINUOUS
 62
     4
 10
1874.133404733
 20
341.666646833
 30
1.455999888
 40
14.55999888
  1
分類
 50
0.0
 41
0.6
 51
0.0
  7
KANJI5
  0
TEXT
  8
0
  6
CONTINUOUS
 62
     4
 10
1883.583333333
 20
388.333333333
 30
7.0
 40
25.2
  1
ご注文主
 50
0.0
 41
1.111111111
 51
0.0
  7
KANJI8
  0
TEXT
  8
0
  6
CONTINUOUS
 62
     4
 10
1874.133404733
 20
214.266656633
 30
1.21333324
 40
12.1333324
  1
ＤＲＡＷＮ
 50
0.0
 41
0.6
 51
0.0
  7
KANJI4
  0
TEXT
  8
0
  6
CONTINUOUS
 62
     4
 10
1874.133404733
 20
262.799986233
 30
1.21333324
 40
12.1333324
  1
ＤＥＳＩＧＮ
 50
0.0
 41
0.6
 51
0.0
  7
KANJI4
  0
TEXT
  8
0
  6
CONTINUOUS
 62
     4
 10
1874.133404733
 20
311.333315833
 30
1.21333324
 40
12.1333324
  1
ＣＨＥＣＫ
 50
0.0
 41
0.6
 51
0.0
  7
KANJI4
  0
LINE
  8
0
  6
CONTINUOUS
 62
     4
 10
1862.000072333
 20
284.033317933
 30
0.0
 11
2083.433388633
 21
284.033317933
 31
0.0
  0
LINE
  8
0
  6
CONTINUOUS
 62
     4
 10
1862.000072333
 20
235.499988333
 30
0.0
 11
2083.433388633
 21
235.499988333
 31
0.0
  0
LINE
  8
0
  6
CONTINUOUS
 62
     4
 10
1862.000072333
 20
332.566647533
 30
0.0
 11
2083.433388633
 21
332.566647533
 31
0.0
  0
TEXT
  8
0
  6
CONTINUOUS
 62
     4
 10
1874.133404733
 20
244.599987633
 30
1.455999888
 40
14.55999888
  1
設計
 50
0.0
 41
0.6
 51
0.0
  7
KANJI5
  0
TEXT
  8
0
  6
CONTINUOUS
 62
     4
 10
1874.133404733
 20
293.133317233
 30
1.455999888
 40
14.55999888
  1
検図
 50
0.0
 41
0.6
 51
0.0
  7
KANJI5
  0
LINE
  8
0
  6
CONTINUOUS
 62
     4
 10
2101.330053923
 20
332.566647533
 30
0.0
 11
2796.266667133
 21
332.566647533
 31
0.0
  0
LINE
  8
0
  6
CONTINUOUS
 62
     4
 10
2083.433388633
 20
235.499988333
 30
0.0
 11
2796.266667133
 21
235.499988333
 31
0.0
  0
TEXT
  8
0
  6
CONTINUOUS
 62
     4
 10
2095.566721033
 20
214.266656633
 30
1.21333324
 40
12.1333324
  1
ＤＲＡＷＩＮＧ　ＮＯ．
 50
0.0
 41
0.8
 51
0.0
  7
KANJI9
  0
TEXT
  8
0
  6
CONTINUOUS
 62
     4
 10
2095.566721033
 20
262.799986233
 30
1.21333324
 40
12.1333324
  1
ＭＦＧ　ＮＯ．
 50
0.0
 41
0.8
 51
0.0
  7
KANJI9
  0
TEXT
  8
0
  6
CONTINUOUS
 62
     4
 10
2095.566721033
 20
311.333315833
 30
1.21333324
 40
12.1333324
  1
ＴＹＰＥ
 50
0.0
 41
0.8
 51
0.0
  7
KANJI9
  0
LINE
  8
0
  6
CONTINUOUS
 62
     4
 10
2101.633387233
 20
284.033317933
 30
0.0
 11
2380.700032433
 21
284.033317933
 31
0.0
  0
TEXT
  8
0
  6
CONTINUOUS
 62
     4
 10
2095.566721033
 20
193.033324933
 30
1.455999888
 40
14.55999888
  1
図　面　番　号
 50
0.0
 41
0.8
 51
0.0
  7
KANJI10
  0
TEXT
  8
0
  6
CONTINUOUS
 62
     4
 10
2095.566721033
 20
241.566654533
 30
1.455999888
 40
14.55999888
  1
製番
 50
0.0
 41
0.8
 51
0.0
  7
KANJI10
  0
TEXT
  8
0
  6
CONTINUOUS
 62
     4
 10
2095.566721033
 20
290.099984133
 30
1.455999888
 40
14.55999888
  1
機種
 50
0.0
 41
0.8
 51
0.0
  7
KANJI10
  0
LINE
  8
0
  6
CONTINUOUS
 62
     4
 10
1862.000072333
 20
186.966658733
 30
0.0
 11
2083.433388633
 21
186.966658733
 31
0.0
  0
TEXT
  8
0
  6
CONTINUOUS
 62
     4
 10
1874.133404733
 20
165.733327033
 30
1.21333324
 40
12.1333324
  1
ＤＡＴＥ
 50
0.0
 41
0.6
 51
0.0
  7
KANJI4
  0
TEXT
  8
0
  6
CONTINUOUS
 62
     4
 10
1874.133404733
 20
147.533328433
 30
1.455999888
 40
14.55999888
  1
日付
 50
0.0
 41
0.6
 51
0.0
  7
KANJI5
  0
TEXT
  8
0
  6
CONTINUOUS
 62
     4
 10
1874.133404733
 20
196.066658033
 30
1.455999888
 40
14.55999888
  1
作図
 50
0.0
 41
0.6
 51
0.0
  7
KANJI5
  0
LINE
  8
0
  6
CONTINUOUS
 62
     4
 10
2083.433388633
 20
165.733327033
 30
0.0
 11
2796.266667133
 21
165.733327033
 31
0.0
  0
LINE
  8
0
  6
LTYPE1
 62
     4
 10
2593.033349433
 20
174.833326333
 30
0.0
 11
2593.033349433
 21
223.366655933
 31
0.0
  0
LINE
  8
0
  6
LTYPE1
 62
     4
 10
2550.566686033
 20
174.833326333
 30
0.0
 11
2550.566686033
 21
223.366655933
 31
0.0
  0
LINE
  8
0
  6
LTYPE1
 62
     4
 10
2508.100022633
 20
174.833326333
 30
0.0
 11
2508.100022633
 21
223.366655933
 31
0.0
  0
LINE
  8
0
  6
LTYPE1
 62
     4
 10
2465.633359233
 20
174.833326333
 30
0.0
 11
2465.633359233
 21
223.366655933
 31
0.0
  0
LINE
  8
0
  6
LTYPE1
 62
     4
 10
2423.166695833
 20
174.833326333
 30
0.0
 11
2423.166695833
 21
223.366655933
 31
0.0
  0
LINE
  8
0
  6
LTYPE1
 62
     4
 10
2380.700032433
 20
174.833326333
 30
0.0
 11
2380.700032433
 21
223.366655933
 31
0.0
  0
LINE
  8
0
  6
LTYPE1
 62
     4
 10
2338.233369033
 20
174.833326333
 30
0.0
 11
2338.233369033
 21
223.366655933
 31
0.0
  0
LINE
  8
0
  6
LTYPE1
 62
     4
 10
2295.766705633
 20
174.833326333
 30
0.0
 11
2295.766705633
 21
223.366655933
 31
0.0
  0
LINE
  8
0
  6
LTYPE1
 62
     4
 10
2295.766705633
 20
223.366655933
 30
0.0
 11
2593.033349433
 21
223.366655933
 31
0.0
  0
LINE
  8
0
  6
LTYPE1
 62
     4
 10
2295.766705633
 20
174.833326333
 30
0.0
 11
2593.033349433
 21
174.833326333
 31
0.0
  0
LINE
  8
0
  6
CONTINUOUS
 62
     4
 10
2617.300014233
 20
200.616657683
 30
0.0
 11
2629.433346633
 21
200.616657683
 31
0.0
  0
LINE
  8
0
  6
CONTINUOUS
 62
     4
 10
2693.133341733
 20
182.416659083
 30
0.0
 11
2650.666678333
 21
182.416659083
 31
0.0
  0
LINE
  8
0
  6
CONTINUOUS
 62
     4
 10
2650.666678333
 20
182.416659083
 30
0.0
 11
2671.900010033
 21
218.816656283
 31
0.0
  0
LINE
  8
0
  6
CONTINUOUS
 62
     4
 10
2671.900010033
 20
218.816656283
 30
0.0
 11
2693.133341733
 21
182.416659083
 31
0.0
  0
TEXT
  8
0
  6
CONTINUOUS
 62
     4
 10
2398.900031033
 20
311.333315833
 30
1.21333324
 40
12.1333324
  1
ＴＩＴＬＥ
 50
0.0
 41
0.8
 51
0.0
  7
KANJI9
  0
TEXT
  8
0
  6
CONTINUOUS
 62
     4
 10
2398.900031033
 20
290.099984133
 30
1.455999888
 40
14.55999888
  1
名称
 50
0.0
 41
0.8
 51
0.0
  7
KANJI10
  0
TEXT
  8
0
  6
CONTINUOUS
 62
     2
 10
2497.833333333
 20
244.833333333
 30
17.5
 40
35.0
  1
外形寸法図
 50
0.0
 41
1.0
 51
0.0
  7
KANJI11
  0
TEXT
  8
0
  6
CONTINUOUS
 62
     2
 10
2455.833333333
 20
286.833333333
 30
5.0
 40
35.0
  1
マイティシリンダ
 50
0.0
 41
1.0
 51
0.0
  7
KANJI12
  0
TEXT
  8
0
  6
CONTINUOUS
 62
     2
 10
2259.016705633
 20
181.833326333
 30
2.1
 40
35.0
  1
Ａ
 50
0.0
 41
0.8
 51
0.0
  7
KANJI13
  0
CIRCLE
  8
0
  6
CONTINUOUS
 62
     2
 10
2213.516705633
 20
257.083326333
 30
0.0
 40
17.5
  0
TEXT
  8
0
  6
CONTINUOUS
 62
     2
 10
2200.391705633
 20
243.958326333
 30
2.1
 40
28.0
  1
Ｓ
 50
0.0
 41
1.0
 51
0.0
  7
KANJI14
  0
LINE
  8
0
  6
CONTINUOUS
 62
     6
 10
2336.580202494
 20
140.981328937
 30
0.0
 11
2319.108203838
 21
140.981328937
 31
0.0
  0
LINE
  8
0
  6
CONTINUOUS
 62
     6
 10
2340.948202158
 20
140.981328937
 30
0.0
 11
2358.420200814
 21
140.981328937
 31
0.0
  0
LINE
  8
0
  6
CONTINUOUS
 62
     4
 10
2796.266667133
 20
429.633306733
 30
0.0
 11
2796.266667133
 21
478.166636333
 31
0.0
  0
LINE
  8
0
  6
CONTINUOUS
 62
     6
 10
1862.875072333
 20
429.633306733
 30
0.0
 11
2797.141667133
 21
429.633306733
 31
0.0
  0
LINE
  8
0
  6
CONTINUOUS
 62
     6
 10
1862.000072333
 20
478.166636333
 30
0.0
 11
2796.266667133
 21
478.166636333
 31
0.0
  0
TEXT
  8
0
  6
CONTINUOUS
 62
     4
 10
1883.583333333
 20
436.866662933
 30
7.0
 40
25.2
  1
ご用途
 50
0.0
 41
1.111111111
 51
0.0
  7
KANJI8
  0
CIRCLE
  8
0
  6
CONTINUOUS
 62
     1
 10
638.8999996
 20
728.4999852
 30
0.0
 40
15.0
  0
CIRCLE
  8
0
  6
CONTINUOUS
 62
     1
 10
638.8999996
 20
728.4999852
 30
0.0
 40
30.0
  0
CIRCLE
  8
0
  6
CONTINUOUS
 62
     1
 10
638.8999996
 20
728.4999852
 30
0.0
 40
34.0
  0
LINE
  8
0
  6
CONTINUOUS
 62
     1
 10
538.8999996
 20
808.4999852
 30
0.0
 11
538.8999996
 21
648.4999852
 31
0.0
  0
LINE
  8
0
  6
CONTINUOUS
 62
     1
 10
640.8999996
 20
660.4999852
 30
0.0
 11
714.8999996
 21
660.4999852
 31
0.0
  0
LINE
  8
0
  6
CONTINUOUS
 62
     1
 10
640.8999996
 20
679.0999852
 30
0.0
 11
640.8999996
 21
660.4999852
 31
0.0
  0
LINE
  8
0
  6
CONTINUOUS
 62
     1
 10
714.8999996
 20
679.7999852
 30
0.0
 11
714.8999996
 21
660.4999852
 31
0.0
  0
LINE
  8
0
  6
LTYPE2
 62
     2
 10
638.8999996
 20
773.4999852
 30
0.0
 11
638.8999996
 21
683.4999852
 31
0.0
  0
LINE
  8
0
  6
CONTINUOUS
 62
     1
 10
538.8999996
 20
808.4999852
 30
0.0
 11
554.8999996
 21
808.4999852
 31
0.0
  0
ARC
  8
0
  6
CONTINUOUS
 62
     1
 10
554.8999996
 20
806.4999852
 30
0.0
 40
2.0
 50
0.0
 51
90.0
  0
LINE
  8
0
  6
CONTINUOUS
 62
     1
 10
538.8999996
 20
648.4999852
 30
0.0
 11
554.8999996
 21
648.4999852
 31
0.0
  0
LINE
  8
0
  6
CONTINUOUS
 62
     1
 10
556.8999996
 20
806.4999852
 30
0.0
 11
556.8999996
 21
650.4999852
 31
0.0
  0
ARC
  8
0
  6
CONTINUOUS
 62
     1
 10
554.8999996
 20
650.4999852
 30
0.0
 40
2.0
 50
270.0
 51
0.0
  0
LINE
  8
0
  6
CONTINUOUS
 62
     1
 10
714.9999996
 20
663.4999852
 30
0.0
 11
779.8999996
 21
663.4999852
 31
0.0
  0
LINE
  8
0
  6
CONTINUOUS
 62
     1
 10
560.8999996
 20
668.4999852
 30
0.0
 11
560.8999996
 21
682.330973298
 31
0.0
  0
LINE
  8
0
  6
CONTINUOUS
 62
     1
 10
560.8999996
 20
668.4999852
 30
0.0
 11
560.8999996
 21
654.668997102
 31
0.0
  0
POINT
  8
0
  6
CONTINUOUS
 62
     1
 10
556.8999996
 20
682.4999852
 30
0.0
  0
LINE
  8
0
  6
CONTINUOUS
 62
     1
 10
556.8999996
 20
682.4999852
 30
0.0
 11
560.8999996
 21
682.4999852
 31
0.0
  0
LINE
  8
0
  6
CONTINUOUS
 62
     1
 10
556.8999996
 20
668.4999852
 30
0.0
 11
560.899996595
 21
672.499982195
 31
0.0
  0
LINE
  8
0
  6
CONTINUOUS
 62
     1
 10
560.899996595
 20
668.4999852
 30
0.0
 11
556.8999996
 21
664.499988205
 31
0.0
  0
POINT
  8
0
  6
CONTINUOUS
 62
     1
 10
556.8999996
 20
654.4999852
 30
0.0
  0
LINE
  8
0
  6
CONTINUOUS
 62
     1
 10
556.8999996
 20
654.4999852
 30
0.0
 11
560.8999996
 21
654.4999852
 31
0.0
  0
LINE
  8
0
  6
CONTINUOUS
 62
     1
 10
575.8999996
 20
668.499984976
 30
0.0
 11
575.8999996
 21
680.4999852
 31
0.0
  0
LINE
  8
0
  6
CONTINUOUS
 62
     1
 10
560.8999996
 20
680.4999852
 30
0.0
 11
575.8999996
 21
680.4999852
 31
0.0
  0
LINE
  8
0
  6
CONTINUOUS
 62
     1
 10
575.8999996
 20
680.4999852
 30
0.0
 11
576.8999996
 21
678.767934392
 31
0.0
  0
LINE
  8
0
  6
CONTINUOUS
 62
     1
 10
576.8999996
 20
668.499984962
 30
0.0
 11
576.8999996
 21
678.767934392
 31
0.0
  0
LINE
  8
0
  6
CONTINUOUS
 62
     1
 10
575.8999996
 20
668.499985424
 30
0.0
 11
575.8999996
 21
656.4999852
 31
0.0
  0
LINE
  8
0
  6
CONTINUOUS
 62
     1
 10
560.8999996
 20
656.4999852
 30
0.0
 11
575.8999996
 21
656.4999852
 31
0.0
  0
LINE
  8
0
  6
CONTINUOUS
 62
     1
 10
575.8999996
 20
656.4999852
 30
0.0
 11
576.8999996
 21
658.232036008
 31
0.0
  0
LINE
  8
0
  6
CONTINUOUS
 62
     1
 10
576.8999996
 20
668.499985438
 30
0.0
 11
576.8999996
 21
658.232036008
 31
0.0
  0
LINE
  8
0
  6
CONTINUOUS
 62
     1
 10
576.8999996
 20
663.4999852
 30
0.0
 11
641.0999996
 21
663.4999852
 31
0.0
  0
LINE
  8
0
  6
LTYPE2
 62
     2
 10
527.1999996
 20
668.4999852
 30
0.0
 11
582.9999996
 21
668.4999852
 31
0.0
  0
LINE
  8
0
  6
CONTINUOUS
 62
     1
 10
560.8999996
 20
788.4999852
 30
0.0
 11
560.8999996
 21
774.668997102
 31
0.0
  0
LINE
  8
0
  6
CONTINUOUS
 62
     1
 10
560.8999996
 20
788.4999852
 30
0.0
 11
560.8999996
 21
802.330973298
 31
0.0
  0
POINT
  8
0
  6
CONTINUOUS
 62
     1
 10
556.8999996
 20
774.4999852
 30
0.0
  0
LINE
  8
0
  6
CONTINUOUS
 62
     1
 10
556.8999996
 20
774.4999852
 30
0.0
 11
560.8999996
 21
774.4999852
 31
0.0
  0
LINE
  8
0
  6
CONTINUOUS
 62
     1
 10
556.8999996
 20
788.4999852
 30
0.0
 11
560.899996595
 21
784.499988205
 31
0.0
  0
LINE
  8
0
  6
CONTINUOUS
 62
     1
 10
560.899996595
 20
788.4999852
 30
0.0
 11
556.8999996
 21
792.499982195
 31
0.0
  0
POINT
  8
0
  6
CONTINUOUS
 62
     1
 10
556.8999996
 20
802.4999852
 30
0.0
  0
LINE
  8
0
  6
CONTINUOUS
 62
     1
 10
556.8999996
 20
802.4999852
 30
0.0
 11
560.8999996
 21
802.4999852
 31
0.0
  0
LINE
  8
0
  6
CONTINUOUS
 62
     1
 10
575.8999996
 20
788.499985424
 30
0.0
 11
575.8999996
 21
776.4999852
 31
0.0
  0
LINE
  8
0
  6
CONTINUOUS
 62
     1
 10
560.8999996
 20
776.4999852
 30
0.0
 11
575.8999996
 21
776.4999852
 31
0.0
  0
LINE
  8
0
  6
CONTINUOUS
 62
     1
 10
575.8999996
 20
776.4999852
 30
0.0
 11
576.8999996
 21
778.232036008
 31
0.0
  0
LINE
  8
0
  6
CONTINUOUS
 62
     1
 10
576.8999996
 20
788.499985438
 30
0.0
 11
576.8999996
 21
778.232036008
 31
0.0
  0
LINE
  8
0
  6
CONTINUOUS
 62
     1
 10
575.8999996
 20
788.499984976
 30
0.0
 11
575.8999996
 21
800.4999852
 31
0.0
  0
LINE
  8
0
  6
CONTINUOUS
 62
     1
 10
560.8999996
 20
800.4999852
 30
0.0
 11
575.8999996
 21
800.4999852
 31
0.0
  0
LINE
  8
0
  6
CONTINUOUS
 62
     1
 10
575.8999996
 20
800.4999852
 30
0.0
 11
576.8999996
 21
798.767934392
 31
0.0
  0
LINE
  8
0
  6
CONTINUOUS
 62
     1
 10
576.8999996
 20
788.499984962
 30
0.0
 11
576.8999996
 21
798.767934392
 31
0.0
  0
LINE
  8
0
  6
LTYPE2
 62
     2
 10
527.1999996
 20
788.4999852
 30
0.0
 11
582.9999996
 21
788.4999852
 31
0.0
  0
LINE
  8
0
  6
CONTINUOUS
 62
     1
 10
576.8999996
 20
793.4999852
 30
0.0
 11
779.8999996
 21
793.4999852
 31
0.0
  0
LINE
  8
0
  6
CONTINUOUS
 62
     1
 10
640.8999996
 20
658.9999852
 30
0.0
 11
714.8999996
 21
658.9999852
 31
0.0
  0
LINE
  8
0
  6
CONTINUOUS
 62
     1
 10
723.8999996
 20
658.9999852
 30
0.0
 11
723.8999996
 21
657.9999852
 31
0.0
  0
ARC
  8
0
  6
CONTINUOUS
 62
     1
 10
636.8999996
 20
655.9999852
 30
0.0
 40
3.0
 50
90.0
 51
180.0
  0
LINE
  8
0
  6
CONTINUOUS
 62
     1
 10
762.8999996
 20
615.9999852
 30
0.0
 11
633.8999996
 21
615.9999852
 31
0.0
  0
LINE
  8
0
  6
CONTINUOUS
 62
     1
 10
723.8999996
 20
657.9999852
 30
0.0
 11
759.8999996
 21
657.9999852
 31
0.0
  0
ARC
  8
0
  6
CONTINUOUS
 62
     1
 10
759.8999996
 20
654.9999852
 30
0.0
 40
3.0
 50
0.0
 51
90.0
  0
LINE
  8
0
  6
CONTINUOUS
 62
     1
 10
762.8999996
 20
614.4999852
 30
0.0
 11
633.8999996
 21
614.4999852
 31
0.0
  0
LINE
  8
0
  6
CONTINUOUS
 62
     1
 10
762.8999996
 20
609.4999852
 30
0.0
 11
762.8999996
 21
654.9999852
 31
0.0
  0
ARC
  8
0
  6
CONTINUOUS
 62
     1
 10
761.8999996
 20
609.4999852
 30
0.0
 40
1.0
 50
270.0
 51
0.0
  0
LINE
  8
0
  6
CONTINUOUS
 62
     1
 10
759.8999996
 20
608.4999852
 30
0.0
 11
759.8999996
 21
608.4999852
 31
0.0
  0
ARC
  8
0
  6
CONTINUOUS
 62
     1
 10
758.8999996
 20
608.4999852
 30
0.0
 40
1.0
 50
270.0
 51
0.0
  0
LINE
  8
0
  6
CONTINUOUS
 62
     1
 10
633.8999996
 20
609.4999852
 30
0.0
 11
633.8999996
 21
655.9999852
 31
0.0
  0
LINE
  8
0
  6
CONTINUOUS
 62
     1
 10
761.8999996
 20
608.4999852
 30
0.0
 11
634.8999996
 21
608.4999852
 31
0.0
  0
ARC
  8
0
  6
CONTINUOUS
 62
     1
 10
634.8999996
 20
609.4999852
 30
0.0
 40
1.0
 50
180.0
 51
270.0
  0
ARC
  8
0
  6
CONTINUOUS
 62
     1
 10
637.8999996
 20
608.4999852
 30
0.0
 40
1.0
 50
180.0
 51
270.0
  0
LINE
  8
0
  6
CONTINUOUS
 62
     1
 10
758.8999996
 20
607.4999852
 30
0.0
 11
637.9999996
 21
607.4999852
 31
0.0
  0
LINE
  8
0
  6
CONTINUOUS
 62
     1
 10
636.8999996
 20
658.9999852
 30
0.0
 11
723.8999996
 21
658.9999852
 31
0.0
  0
LINE
  8
0
  6
CONTINUOUS
 62
     1
 10
636.8999996
 20
660.4999852
 30
0.0
 11
723.8999996
 21
660.4999852
 31
0.0
  0
LINE
  8
0
  6
LTYPE2
 62
     2
 10
677.8999996
 20
677.1999852
 30
0.0
 11
677.8999996
 21
643.6999852
 31
0.0
  0
LINE
  8
0
  6
LTYPE2
 62
     2
 10
769.0999996
 20
632.9999852
 30
0.0
 11
749.3999996
 21
632.9999852
 31
0.0
  0
LINE
  8
0
  6
LTYPE1
 62
     2
 10
762.8999996
 20
642.2999852
 30
0.0
 11
752.8999996
 21
642.2999852
 31
0.0
  0
LINE
  8
0
  6
LTYPE1
 62
     2
 10
762.8999996
 20
643.4999852
 30
0.0
 11
752.8999996
 21
643.4999852
 31
0.0
  0
LINE
  8
0
  6
LTYPE1
 62
     2
 10
762.8999996
 20
623.6999852
 30
0.0
 11
752.8999996
 21
623.6999852
 31
0.0
  0
LINE
  8
0
  6
LTYPE1
 62
     2
 10
762.8999996
 20
622.4999852
 30
0.0
 11
752.8999996
 21
622.4999852
 31
0.0
  0
LINE
  8
0
  6
CONTINUOUS
 62
     1
 10
779.8999996
 20
733.4999852
 30
0.0
 11
791.8999996
 21
733.4999852
 31
0.0
  0
LINE
  8
0
  6
CONTINUOUS
 62
     1
 10
779.8999996
 20
723.4999852
 30
0.0
 11
791.8999996
 21
723.4999852
 31
0.0
  0
LINE
  8
0
  6
CONTINUOUS
 62
     1
 10
779.8999996
 20
795.9999852
 30
0.0
 11
791.8999996
 21
795.9999852
 31
0.0
  0
LINE
  8
0
  6
CONTINUOUS
 62
     1
 10
779.8999996
 20
791.9999852
 30
0.0
 11
791.8999996
 21
791.9999852
 31
0.0
  0
LINE
  8
0
  6
CONTINUOUS
 62
     1
 10
779.8999996
 20
660.9999852
 30
0.0
 11
791.8999996
 21
660.9999852
 31
0.0
  0
LINE
  8
0
  6
CONTINUOUS
 62
     1
 10
779.8999996
 20
664.9999852
 30
0.0
 11
791.8999996
 21
664.9999852
 31
0.0
  0
LINE
  8
0
  6
CONTINUOUS
 62
     1
 10
779.8999996
 20
795.9999852
 30
0.0
 11
779.8999996
 21
660.9999852
 31
0.0
  0
LINE
  8
0
  6
CONTINUOUS
 62
     1
 10
791.8999996
 20
795.9999852
 30
0.0
 11
791.8999996
 21
660.9999852
 31
0.0
  0
LINE
  8
0
  6
CONTINUOUS
 62
     1
 10
876.5999996
 20
753.4999852
 30
0.0
 11
926.5999996
 21
753.4999852
 31
0.0
  0
LINE
  8
0
  6
CONTINUOUS
 62
     1
 10
876.5999996
 20
703.4999852
 30
0.0
 11
926.5999996
 21
703.4999852
 31
0.0
  0
LINE
  8
0
  6
CONTINUOUS
 62
     1
 10
876.5999996
 20
753.4999852
 30
0.0
 11
876.5999996
 21
703.4999852
 31
0.0
  0
CIRCLE
  8
0
  6
CONTINUOUS
 62
     1
 10
901.5999996
 20
728.4999852
 30
0.0
 40
25.0
  0
LINE
  8
0
  6
LTYPE3
 62
     2
 10
901.5999996
 20
765.6999852
 30
0.0
 11
901.5999996
 21
691.6999852
 31
0.0
  0
LINE
  8
0
  6
CONTINUOUS
 62
     2
 10
762.9999996
 20
632.4999852
 30
0.0
 11
773.957354041
 21
622.256139065
 31
0.0
  0
LINE
  8
0
  6
CONTINUOUS
 62
     2
 10
762.9999996
 20
632.4999852
 30
0.0
 11
777.611269972
 21
629.107231435
 31
0.0
  0
LINE
  8
0
  6
CONTINUOUS
 62
     2
 10
762.9999996
 20
632.4999852
 30
0.0
 11
822.9999996
 21
600.4999852
 31
0.0
  0
LINE
  8
0
  6
CONTINUOUS
 62
     2
 10
822.9999996
 20
600.4999852
 30
0.0
 11
911.1999996
 21
600.4999852
 31
0.0
  0
LINE
  8
0
  6
CONTINUOUS
 62
     2
 10
638.8999996
 20
674.4999852
 30
0.0
 11
638.8999996
 21
482.4999852
 31
0.0
  0
LINE
  8
0
  6
CONTINUOUS
 62
     2
 10
638.8999996
 20
491.4999852
 30
0.0
 11
624.411112206
 21
495.382270877
 31
0.0
  0
LINE
  8
0
  6
CONTINUOUS
 62
     2
 10
638.8999996
 20
491.4999852
 30
0.0
 11
624.411112206
 21
487.617699523
 31
0.0
  0
LINE
  8
0
  6
CONTINUOUS
 62
     2
 10
638.8999996
 20
491.4999852
 30
0.0
 11
538.8999996
 21
491.4999852
 31
0.0
  0
LINE
  8
0
  6
CONTINUOUS
 62
     2
 10
538.8999996
 20
491.4999852
 30
0.0
 11
553.388886994
 21
487.617699523
 31
0.0
  0
LINE
  8
0
  6
CONTINUOUS
 62
     2
 10
538.8999996
 20
491.4999852
 30
0.0
 11
553.388886994
 21
495.382270877
 31
0.0
  0
LINE
  8
0
  6
CONTINUOUS
 62
     2
 10
538.8999996
 20
624.4999852
 30
0.0
 11
538.8999996
 21
482.4999852
 31
0.0
  0
LINE
  8
0
  6
CONTINUOUS
 62
     2
 10
538.8999996
 20
491.4999852
 30
0.0
 11
524.411112206
 21
495.382270877
 31
0.0
  0
LINE
  8
0
  6
CONTINUOUS
 62
     2
 10
538.8999996
 20
491.4999852
 30
0.0
 11
524.411112206
 21
487.617699523
 31
0.0
  0
LINE
  8
0
  6
CONTINUOUS
 62
     2
 10
638.8999996
 20
452.9999852
 30
0.0
 11
624.411112206
 21
456.882270877
 31
0.0
  0
LINE
  8
0
  6
CONTINUOUS
 62
     2
 10
638.8999996
 20
452.9999852
 30
0.0
 11
624.411112206
 21
449.117699523
 31
0.0
  0
LINE
  8
0
  6
CONTINUOUS
 62
     2
 10
638.8999996
 20
482.4999852
 30
0.0
 11
638.8999996
 21
443.9999852
 31
0.0
  0
LINE
  8
0
  6
CONTINUOUS
 62
     2
 10
638.8999996
 20
452.9999852
 30
0.0
 11
653.388886994
 21
449.117699523
 31
0.0
  0
LINE
  8
0
  6
CONTINUOUS
 62
     2
 10
638.8999996
 20
452.9999852
 30
0.0
 11
653.388886994
 21
456.882270877
 31
0.0
  0
LINE
  8
0
  6
CONTINUOUS
 62
     2
 10
638.8999996
 20
452.9999852
 30
0.0
 11
1273.4999996
 21
452.9999852
 31
0.0
  0
LINE
  8
0
  6
CONTINUOUS
 62
     2
 10
638.8999996
 20
491.4999852
 30
0.0
 11
653.388886994
 21
487.617699523
 31
0.0
  0
LINE
  8
0
  6
CONTINUOUS
 62
     2
 10
638.8999996
 20
491.4999852
 30
0.0
 11
653.388886994
 21
495.382270877
 31
0.0
  0
LINE
  8
0
  6
CONTINUOUS
 62
     2
 10
661.9999996
 20
604.9499852
 30
0.0
 11
663.340581932
 21
590.010010668
 31
0.0
  0
LINE
  8
0
  6
CONTINUOUS
 62
     2
 10
661.9999996
 20
604.9499852
 30
0.0
 11
670.630965221
 21
592.681878889
 31
0.0
  0
LINE
  8
0
  6
CONTINUOUS
 62
     2
 10
661.9999996
 20
604.9499852
 30
0.0
 11
696.9999996
 21
509.4499852
 31
0.0
  0
LINE
  8
0
  6
CONTINUOUS
 62
     2
 10
696.9999996
 20
509.4499852
 30
0.0
 11
803.1999996
 21
509.4499852
 31
0.0
  0
LINE
  8
0
  6
CONTINUOUS
 62
     1
 10
538.8999996
 20
634.2499852
 30
0.0
 11
538.8999996
 21
1007.2499852
 31
0.0
  0
LINE
  8
0
  6
CONTINUOUS
 62
     1
 10
528.8999996
 20
1007.2499852
 30
0.0
 11
518.8999996
 21
958.4999852
 31
0.0
  0
LINE
  8
0
  6
CONTINUOUS
 62
     1
 10
538.8999996
 20
1007.2499852
 30
0.0
 11
528.8999996
 21
1007.2499852
 31
0.0
  0
LINE
  8
0
  6
CONTINUOUS
 62
     1
 10
448.8999996
 20
958.4999852
 30
0.0
 11
448.8999996
 21
991.4999852
 31
0.0
  0
LINE
  8
0
  6
CONTINUOUS
 62
     1
 10
518.8999996
 20
958.4999852
 30
0.0
 11
430.8999996
 21
958.4999852
 31
0.0
  0
LINE
  8
0
  6
LTYPE2
 62
     2
 10
478.8999996
 20
962.3999852
 30
0.0
 11
478.8999996
 21
1007.2499852
 31
0.0
  0
LINE
  8
0
  6
CONTINUOUS
 62
     1
 10
518.8999996
 20
865.2499852
 30
0.0
 11
518.8999996
 21
958.4999852
 31
0.0
  0
LINE
  8
0
  6
CONTINUOUS
 62
     1
 10
525.669230369
 20
991.4999852
 30
0.0
 11
448.8999996
 21
991.4999852
 31
0.0
  0
LINE
  8
0
  6
CONTINUOUS
 62
     1
 10
426.8999996
 20
895.9999852
 30
0.0
 11
426.8999996
 21
926.9999852
 31
0.0
  0
LINE
  8
0
  6
CONTINUOUS
 62
     1
 10
430.8999996
 20
895.9999852
 30
0.0
 11
426.8999996
 21
895.9999852
 31
0.0
  0
LINE
  8
0
  6
CONTINUOUS
 62
     1
 10
430.8999996
 20
926.9999852
 30
0.0
 11
426.8999996
 21
926.9999852
 31
0.0
  0
LINE
  8
0
  6
CONTINUOUS
 62
     1
 10
426.8999996
 20
926.4999852
 30
0.0
 11
398.8999996
 21
926.4999852
 31
0.0
  0
LINE
  8
0
  6
CONTINUOUS
 62
     1
 10
398.8999996
 20
926.4999852
 30
0.0
 11
396.8999996
 21
924.4999852
 31
0.0
  0
LINE
  8
0
  6
CONTINUOUS
 62
     1
 10
426.8999996
 20
896.4999852
 30
0.0
 11
398.8999996
 21
896.4999852
 31
0.0
  0
LINE
  8
0
  6
CONTINUOUS
 62
     1
 10
396.8999996
 20
898.4999852
 30
0.0
 11
396.8999996
 21
924.4999852
 31
0.0
  0
LINE
  8
0
  6
CONTINUOUS
 62
     1
 10
398.8999996
 20
896.4999852
 30
0.0
 11
396.8999996
 21
898.4999852
 31
0.0
  0
CIRCLE
  8
0
  6
CONTINUOUS
 62
     1
 10
478.8999996
 20
1016.5999852
 30
0.0
 40
15.0
  0
LINE
  8
0
  6
CONTINUOUS
 62
     1
 10
490.301268563
 20
999.601515618
 30
0.0
 11
478.8999996
 21
1001.5999852
 31
0.0
  0
LINE
  8
0
  6
CONTINUOUS
 62
     1
 10
478.8999996
 20
999.5999852
 30
0.0
 11
490.301455367
 21
999.5999852
 31
0.0
  0
ARC
  8
0
  6
CONTINUOUS
 62
     1
 10
478.8999996
 20
1016.5999852
 30
0.0
 40
25.0
 50
300.714883545
 51
0.0
  0
LINE
  8
0
  6
CONTINUOUS
 62
     1
 10
491.017094746
 20
993.736994689
 30
0.0
 11
490.301455367
 21
999.5999852
 31
0.0
  0
LINE
  8
0
  6
CONTINUOUS
 62
     1
 10
491.3999996
 20
990.5999852
 30
0.0
 11
491.017094746
 21
993.736994689
 31
0.0
  0
ARC
  8
0
  6
CONTINUOUS
 62
     1
 10
492.405622315
 20
993.91611086
 30
0.0
 40
1.4
 50
121.733468281
 51
187.57738995
  0
LINE
  8
0
  6
CONTINUOUS
 62
     1
 10
467.498730637
 20
999.601515618
 30
0.0
 11
478.8999996
 21
1001.5999852
 31
0.0
  0
LINE
  8
0
  6
CONTINUOUS
 62
     1
 10
478.8999996
 20
999.5999852
 30
0.0
 11
467.498543833
 21
999.5999852
 31
0.0
  0
LINE
  8
0
  6
CONTINUOUS
 62
     1
 10
466.782904454
 20
993.736994689
 30
0.0
 11
467.498543833
 21
999.5999852
 31
0.0
  0
LINE
  8
0
  6
CONTINUOUS
 62
     1
 10
466.3999996
 20
990.5999852
 30
0.0
 11
466.782904454
 21
993.736994689
 31
0.0
  0
ARC
  8
0
  6
CONTINUOUS
 62
     1
 10
465.394376885
 20
993.91611086
 30
0.0
 40
1.4
 50
352.42261005
 51
58.266531719
  0
ARC
  8
0
  6
CONTINUOUS
 62
     1
 10
478.8999996
 20
1016.5999852
 30
0.0
 40
25.0
 50
0.0
 51
239.342761175
  0
LINE
  8
0
  6
CONTINUOUS
 62
     1
 10
538.8999996
 20
811.3999852
 30
0.0
 11
538.8999996
 21
1011.3999852
 31
0.0
  0
LINE
  8
0
  6
CONTINUOUS
 62
     2
 10
538.8999996
 20
1020.3999852
 30
0.0
 11
538.8999996
 21
1171.2499852
 31
0.0
  0
LINE
  8
0
  6
CONTINUOUS
 62
     2
 10
538.8999996
 20
1162.2499852
 30
0.0
 11
524.411112206
 21
1166.132270877
 31
0.0
  0
LINE
  8
0
  6
CONTINUOUS
 62
     2
 10
538.8999996
 20
1162.2499852
 30
0.0
 11
524.411112206
 21
1158.367699523
 31
0.0
  0
LINE
  8
0
  6
CONTINUOUS
 62
     2
 10
538.8999996
 20
1162.2499852
 30
0.0
 11
396.8999996
 21
1162.2499852
 31
0.0
  0
LINE
  8
0
  6
CONTINUOUS
 62
     2
 10
396.8999996
 20
1162.2499852
 30
0.0
 11
411.388886994
 21
1158.367699523
 31
0.0
  0
LINE
  8
0
  6
CONTINUOUS
 62
     2
 10
396.8999996
 20
1162.2499852
 30
0.0
 11
411.388886994
 21
1166.132270877
 31
0.0
  0
LINE
  8
0
  6
CONTINUOUS
 62
     2
 10
396.8999996
 20
933.4999852
 30
0.0
 11
396.8999996
 21
1171.2499852
 31
0.0
  0
LINE
  8
0
  6
LTYPE2
 62
     2
 10
387.4999996
 20
911.4999852
 30
0.0
 11
841.9999996
 21
911.4999852
 31
0.0
  0
LINE
  8
7
  6
CONTINUOUS
 62
     2
 10
394.9999996
 20
925.0999852
 30
0.0
 11
396.530684844
 21
940.021680904
 31
0.0
  0
LINE
  8
7
  6
CONTINUOUS
 62
     2
 10
394.9999996
 20
925.0999852
 30
0.0
 11
388.864764054
 21
938.787895369
 31
0.0
  0
LINE
  8
0
  6
CONTINUOUS
 62
     1
 10
550.8999996
 20
994.17571329
 30
0.0
 11
603.572135555
 21
994.17571329
 31
0.0
  0
LINE
  8
0
  6
CONTINUOUS
 62
     1
 10
550.8999996
 20
828.82425711
 30
0.0
 11
603.572135555
 21
828.82425711
 31
0.0
  0
LINE
  8
0
  6
CONTINUOUS
 62
     1
 10
553.3999996
 20
969.8359852
 30
0.0
 11
553.3999996
 21
979.6359852
 31
0.0
  0
LINE
  8
0
  6
CONTINUOUS
 62
     1
 10
553.3999996
 20
979.6359852
 30
0.0
 11
559.014358954
 21
979.6359852
 31
0.0
  0
LINE
  8
0
  6
CONTINUOUS
 62
     1
 10
560.3999996
 20
977.2359852
 30
0.0
 11
559.014358954
 21
979.6359852
 31
0.0
  0
LINE
  8
0
  6
CONTINUOUS
 62
     1
 10
560.3999996
 20
969.8359852
 30
0.0
 11
560.3999996
 21
977.2359852
 31
0.0
  0
LINE
  8
0
  6
CONTINUOUS
 62
     1
 10
553.3999996
 20
974.7359852
 30
0.0
 11
559.014358954
 21
974.7359852
 31
0.0
  0
LINE
  8
0
  6
CONTINUOUS
 62
     1
 10
553.3999996
 20
969.8359852
 30
0.0
 11
553.3999996
 21
960.0359852
 31
0.0
  0
LINE
  8
0
  6
CONTINUOUS
 62
     1
 10
553.3999996
 20
960.0359852
 30
0.0
 11
559.014358954
 21
960.0359852
 31
0.0
  0
LINE
  8
0
  6
CONTINUOUS
 62
     1
 10
560.3999996
 20
962.4359852
 30
0.0
 11
559.014358954
 21
960.0359852
 31
0.0
  0
LINE
  8
0
  6
CONTINUOUS
 62
     1
 10
560.3999996
 20
969.8359852
 30
0.0
 11
560.3999996
 21
962.4359852
 31
0.0
  0
LINE
  8
0
  6
CONTINUOUS
 62
     1
 10
553.3999996
 20
964.9359852
 30
0.0
 11
559.014358954
 21
964.9359852
 31
0.0
  0
ARC
  8
0
  6
CONTINUOUS
 62
     1
 10
551.0433168
 20
969.8359852
 30
0.0
 40
9.3566828
 50
328.419912243
 51
31.580087757
  0
ARC
  8
0
  6
CONTINUOUS
 62
     1
 10
557.542115768
 20
977.1859852
 30
0.0
 40
2.858321186
 50
301.002313915
 51
2.989498403
  0
LINE
  8
0
  6
CONTINUOUS
 62
     1
 10
560.3999996
 20
962.4359852
 30
0.0
 11
559.014358954
 21
960.0359852
 31
0.0
  0
ARC
  8
0
  6
CONTINUOUS
 62
     1
 10
557.542115768
 20
962.4859852
 30
0.0
 40
2.858321186
 50
357.010501597
 51
58.997686085
  0
LINE
  8
0
  6
CONTINUOUS
 62
     1
 10
550.8999996
 20
979.0359852
 30
0.0
 11
553.3999996
 21
979.0359852
 31
0.0
  0
LINE
  8
0
  6
CONTINUOUS
 62
     1
 10
550.8999996
 20
969.8359852
 30
0.0
 11
553.399999596
 21
972.335985196
 31
0.0
  0
LINE
  8
0
  6
CONTINUOUS
 62
     1
 10
553.399999596
 20
969.8359852
 30
0.0
 11
550.8999996
 21
967.335985204
 31
0.0
  0
LINE
  8
0
  6
CONTINUOUS
 62
     1
 10
550.8999996
 20
960.6359852
 30
0.0
 11
553.3999996
 21
960.6359852
 31
0.0
  0
LINE
  8
0
  6
LTYPE2
 62
     2
 10
567.3999996
 20
969.8359852
 30
0.0
 11
524.3999996
 21
969.8359852
 31
0.0
  0
LINE
  8
0
  6
CONTINUOUS
 62
     1
 10
553.3999996
 20
853.1639852
 30
0.0
 11
553.3999996
 21
843.3639852
 31
0.0
  0
LINE
  8
0
  6
CONTINUOUS
 62
     1
 10
553.3999996
 20
843.3639852
 30
0.0
 11
559.014358954
 21
843.3639852
 31
0.0
  0
LINE
  8
0
  6
CONTINUOUS
 62
     1
 10
560.3999996
 20
845.7639852
 30
0.0
 11
559.014358954
 21
843.3639852
 31
0.0
  0
LINE
  8
0
  6
CONTINUOUS
 62
     1
 10
560.3999996
 20
853.1639852
 30
0.0
 11
560.3999996
 21
845.7639852
 31
0.0
  0
LINE
  8
0
  6
CONTINUOUS
 62
     1
 10
553.3999996
 20
848.2639852
 30
0.0
 11
559.014358954
 21
848.2639852
 31
0.0
  0
LINE
  8
0
  6
CONTINUOUS
 62
     1
 10
553.3999996
 20
853.1639852
 30
0.0
 11
553.3999996
 21
862.9639852
 31
0.0
  0
LINE
  8
0
  6
CONTINUOUS
 62
     1
 10
553.3999996
 20
862.9639852
 30
0.0
 11
559.014358954
 21
862.9639852
 31
0.0
  0
LINE
  8
0
  6
CONTINUOUS
 62
     1
 10
560.3999996
 20
860.5639852
 30
0.0
 11
559.014358954
 21
862.9639852
 31
0.0
  0
LINE
  8
0
  6
CONTINUOUS
 62
     1
 10
560.3999996
 20
853.1639852
 30
0.0
 11
560.3999996
 21
860.5639852
 31
0.0
  0
LINE
  8
0
  6
CONTINUOUS
 62
     1
 10
553.3999996
 20
858.0639852
 30
0.0
 11
559.014358954
 21
858.0639852
 31
0.0
  0
ARC
  8
0
  6
CONTINUOUS
 62
     1
 10
551.0433168
 20
853.1639852
 30
0.0
 40
9.3566828
 50
328.419912243
 51
31.580087757
  0
ARC
  8
0
  6
CONTINUOUS
 62
     1
 10
557.542115768
 20
845.8139852
 30
0.0
 40
2.858321186
 50
357.010501597
 51
58.997686085
  0
LINE
  8
0
  6
CONTINUOUS
 62
     1
 10
560.3999996
 20
860.5639852
 30
0.0
 11
559.014358954
 21
862.9639852
 31
0.0
  0
ARC
  8
0
  6
CONTINUOUS
 62
     1
 10
557.542115768
 20
860.5139852
 30
0.0
 40
2.858321186
 50
301.002313915
 51
2.989498403
  0
LINE
  8
0
  6
CONTINUOUS
 62
     1
 10
550.8999996
 20
843.9639852
 30
0.0
 11
553.3999996
 21
843.9639852
 31
0.0
  0
LINE
  8
0
  6
CONTINUOUS
 62
     1
 10
550.8999996
 20
853.1639852
 30
0.0
 11
553.399999596
 21
850.663985204
 31
0.0
  0
LINE
  8
0
  6
CONTINUOUS
 62
     1
 10
553.399999596
 20
853.1639852
 30
0.0
 11
550.8999996
 21
855.663985196
 31
0.0
  0
LINE
  8
0
  6
CONTINUOUS
 62
     1
 10
550.8999996
 20
862.3639852
 30
0.0
 11
553.3999996
 21
862.3639852
 31
0.0
  0
LINE
  8
0
  6
LTYPE2
 62
     2
 10
567.3999996
 20
853.1639852
 30
0.0
 11
524.3999996
 21
853.1639852
 31
0.0
  0
LINE
  8
0
  6
CONTINUOUS
 62
     1
 10
760.8999996
 20
971.4999852
 30
0.0
 11
613.8999996
 21
971.4999852
 31
0.0
  0
LINE
  8
0
  6
CONTINUOUS
 62
     1
 10
760.8999996
 20
951.4999852
 30
0.0
 11
613.8999996
 21
951.4999852
 31
0.0
  0
LINE
  8
0
  6
CONTINUOUS
 62
     1
 10
760.8999996
 20
931.4999852
 30
0.0
 11
613.8999996
 21
931.4999852
 31
0.0
  0
LINE
  8
0
  6
CONTINUOUS
 62
     1
 10
760.8999996
 20
891.4999852
 30
0.0
 11
613.8999996
 21
891.4999852
 31
0.0
  0
LINE
  8
0
  6
CONTINUOUS
 62
     1
 10
760.8999996
 20
871.4999852
 30
0.0
 11
613.8999996
 21
871.4999852
 31
0.0
  0
LINE
  8
0
  6
CONTINUOUS
 62
     1
 10
760.8999996
 20
851.4999852
 30
0.0
 11
613.8999996
 21
851.4999852
 31
0.0
  0
LINE
  8
0
  6
CONTINUOUS
 62
     1
 10
760.8999996
 20
831.4999852
 30
0.0
 11
613.8999996
 21
831.4999852
 31
0.0
  0
LINE
  8
0
  6
CONTINUOUS
 62
     1
 10
550.8999996
 20
811.4999852
 30
0.0
 11
550.8999996
 21
1011.4999852
 31
0.0
  0
LINE
  8
0
  6
CONTINUOUS
 62
     1
 10
550.8999996
 20
811.4999852
 30
0.0
 11
538.8999996
 21
811.4999852
 31
0.0
  0
LINE
  8
0
  6
CONTINUOUS
 62
     1
 10
550.8999996
 20
1011.4999852
 30
0.0
 11
538.8999996
 21
1011.4999852
 31
0.0
  0
LINE
  8
0
  6
CONTINUOUS
 62
     1
 10
895.641516874
 20
927.448086466
 30
0.0
 11
895.641516874
 21
858.448086466
 31
0.0
  0
POINT
  8
0
  6
CONTINUOUS
 62
     1
 10
895.641516874
 20
858.448086466
 30
0.0
  0
LINE
  8
0
  6
CONTINUOUS
 62
     1
 10
895.641516874
 20
858.448086466
 30
0.0
 11
900.641516874
 21
858.448086466
 31
0.0
  0
POINT
  8
0
  6
CONTINUOUS
 62
     1
 10
900.641516874
 20
858.448086466
 30
0.0
  0
LINE
  8
0
  6
CONTINUOUS
 62
     1
 10
900.641516874
 20
858.448086466
 30
0.0
 11
900.641516874
 21
927.448086466
 31
0.0
  0
LINE
  8
0
  6
CONTINUOUS
 62
     1
 10
895.641516874
 20
927.448086466
 30
0.0
 11
905.441516874
 21
927.448086466
 31
0.0
  0
LINE
  8
0
  6
CONTINUOUS
 62
     1
 10
905.441516874
 20
895.551883934
 30
0.0
 11
905.441516874
 21
927.448086466
 31
0.0
  0
LINE
  8
0
  6
CONTINUOUS
 62
     1
 10
900.641516874
 20
895.551883934
 30
0.0
 11
905.441516874
 21
895.551883934
 31
0.0
  0
LINE
  8
0
  6
CONTINUOUS
 62
     1
 10
895.641516874
 20
915.6999852
 30
0.0
 11
888.941516874
 21
915.6999852
 31
0.0
  0
LINE
  8
0
  6
CONTINUOUS
 62
     1
 10
895.641516874
 20
907.2999852
 30
0.0
 11
888.941516874
 21
907.2999852
 31
0.0
  0
LINE
  8
0
  6
CONTINUOUS
 62
     1
 10
900.641516874
 20
871.2499852
 30
0.0
 11
906.041516874
 21
871.2499852
 31
0.0
  0
POINT
  8
0
  6
CONTINUOUS
 62
     1
 10
906.041516874
 20
871.2499852
 30
0.0
  0
LINE
  8
0
  6
CONTINUOUS
 62
     1
 10
906.041516874
 20
871.2499852
 30
0.0
 11
906.041516874
 21
862.4499852
 31
0.0
  0
POINT
  8
0
  6
CONTINUOUS
 62
     1
 10
906.041516874
 20
862.4499852
 30
0.0
  0
LINE
  8
0
  6
CONTINUOUS
 62
     1
 10
906.041516874
 20
862.4499852
 30
0.0
 11
900.741516874
 21
862.4499852
 31
0.0
  0
LINE
  8
0
  6
CONTINUOUS
 62
     1
 10
895.641516874
 20
868.4499852
 30
0.0
 11
886.741516874
 21
868.4499852
 31
0.0
  0
LINE
  8
0
  6
CONTINUOUS
 62
     1
 10
895.641516874
 20
865.3499852
 30
0.0
 11
886.441516874
 21
865.3499852
 31
0.0
  0
LINE
  8
0
  6
CONTINUOUS
 62
     1
 10
905.441516874
 20
924.8999852
 30
0.0
 11
908.8999996
 21
924.8999852
 31
0.0
  0
LINE
  8
0
  6
CONTINUOUS
 62
     1
 10
908.8999996
 20
924.8999852
 30
0.0
 11
908.8999996
 21
920.2999852
 31
0.0
  0
LINE
  8
0
  6
CONTINUOUS
 62
     1
 10
905.441516874
 20
920.2999852
 30
0.0
 11
908.8999996
 21
920.2999852
 31
0.0
  0
LINE
  8
0
  6
CONTINUOUS
 62
     1
 10
905.441516874
 20
898.0999852
 30
0.0
 11
908.8999996
 21
898.0999852
 31
0.0
  0
LINE
  8
0
  6
CONTINUOUS
 62
     1
 10
908.8999996
 20
898.0999852
 30
0.0
 11
908.8999996
 21
902.6999852
 31
0.0
  0
LINE
  8
0
  6
CONTINUOUS
 62
     1
 10
905.441516874
 20
902.6999852
 30
0.0
 11
908.8999996
 21
902.6999852
 31
0.0
  0
LINE
  8
0
  6
CONTINUOUS
 62
     1
 10
905.441516874
 20
909.1999852
 30
0.0
 11
908.8999996
 21
909.1999852
 31
0.0
  0
LINE
  8
0
  6
CONTINUOUS
 62
     1
 10
908.8999996
 20
909.1999852
 30
0.0
 11
908.8999996
 21
913.7999852
 31
0.0
  0
LINE
  8
0
  6
CONTINUOUS
 62
     1
 10
905.441516874
 20
913.7999852
 30
0.0
 11
908.8999996
 21
913.7999852
 31
0.0
  0
LINE
  8
0
  6
LTYPE2
 62
     2
 10
881.741516874
 20
866.9499852
 30
0.0
 11
911.741516874
 21
866.9499852
 31
0.0
  0
LINE
  8
0
  6
CONTINUOUS
 62
     1
 10
760.8999996
 20
991.4999852
 30
0.0
 11
613.8999996
 21
991.4999852
 31
0.0
  0
LINE
  8
0
  6
CONTINUOUS
 62
     1
 10
777.3999996
 20
1024.4999852
 30
0.0
 11
777.3999996
 21
1064.4999852
 31
0.0
  0
LINE
  8
0
  6
CONTINUOUS
 62
     1
 10
758.3999996
 20
1099.4999852
 30
0.0
 11
610.3999996
 21
1025.4999852
 31
0.0
  0
LINE
  8
0
  6
CONTINUOUS
 62
     1
 10
762.872135555
 20
1090.55571329
 30
0.0
 11
614.872135555
 21
1016.55571329
 31
0.0
  0
ARC
  8
0
  6
CONTINUOUS
 62
     1
 10
732.3999996
 20
1023.4999852
 30
0.0
 40
10.0
 50
270.0
 51
0.0
  0
ARC
  8
0
  6
CONTINUOUS
 62
     1
 10
732.3999996
 20
1089.4999852
 30
0.0
 40
10.0
 50
0.0
 51
90.0
  0
LINE
  8
0
  6
CONTINUOUS
 62
     1
 10
732.3999996
 20
1099.4999852
 30
0.0
 11
642.3999996
 21
1099.4999852
 31
0.0
  0
ARC
  8
0
  6
CONTINUOUS
 62
     1
 10
642.3999996
 20
1089.4999852
 30
0.0
 40
10.0
 50
90.0
 51
180.0
  0
LINE
  8
0
  6
CONTINUOUS
 62
     1
 10
732.3999996
 20
1013.4999852
 30
0.0
 11
642.3999996
 21
1013.4999852
 31
0.0
  0
ARC
  8
0
  6
CONTINUOUS
 62
     1
 10
642.3999996
 20
1023.4999852
 30
0.0
 40
10.0
 50
180.0
 51
270.0
  0
LINE
  8
0
  6
CONTINUOUS
 62
     1
 10
610.3999996
 20
1025.4999852
 30
0.0
 11
614.872135555
 21
1016.55571329
 31
0.0
  0
LINE
  8
0
  6
CONTINUOUS
 62
     1
 10
632.3999996
 20
1036.41571329
 30
0.0
 11
632.3999996
 21
1089.4999852
 31
0.0
  0
LINE
  8
0
  6
CONTINUOUS
 62
     1
 10
632.3999996
 20
1023.4999852
 30
0.0
 11
632.3999996
 21
1025.41571329
 31
0.0
  0
LINE
  8
0
  6
CONTINUOUS
 62
     1
 10
742.3999996
 20
1023.4999852
 30
0.0
 11
742.3999996
 21
1079.41571329
 31
0.0
  0
LINE
  8
0
  6
CONTINUOUS
 62
     1
 10
758.612135555
 20
1100.29571329
 30
0.0
 11
763.412135555
 21
1091.09571329
 31
0.0
  0
LINE
  8
0
  6
CONTINUOUS
 62
     1
 10
777.3999996
 20
1064.4999852
 30
0.0
 11
742.3999996
 21
1064.4999852
 31
0.0
  0
LINE
  8
0
  6
CONTINUOUS
 62
     1
 10
777.3999996
 20
1024.4999852
 30
0.0
 11
742.3999996
 21
1024.4999852
 31
0.0
  0
LINE
  8
0
  6
LTYPE2
 62
     2
 10
783.552135555
 20
1044.4999852
 30
0.0
 11
732.452135555
 21
1044.4999852
 31
0.0
  0
LINE
  8
0
  6
LTYPE2
 62
     2
 10
687.3999996
 20
1000.2499852
 30
0.0
 11
687.3999996
 21
1109.2999852
 31
0.0
  0
LINE
  8
0
  6
CONTINUOUS
 62
     2
 10
777.3999996
 20
1044.4999852
 30
0.0
 11
787.81991446
 21
1055.290044251
 31
0.0
  0
LINE
  8
0
  6
CONTINUOUS
 62
     2
 10
777.3999996
 20
1044.4999852
 30
0.0
 11
781.028881048
 21
1059.054407876
 31
0.0
  0
LINE
  8
0
  6
CONTINUOUS
 62
     2
 10
777.3999996
 20
1044.4999852
 30
0.0
 11
808.3999996
 21
1100.4249852
 31
0.0
  0
LINE
  8
0
  6
CONTINUOUS
 62
     2
 10
808.3999996
 20
1100.4249852
 30
0.0
 11
896.5999996
 21
1100.4249852
 31
0.0
  0
LINE
  8
7
  6
CONTINUOUS
 62
     2
 10
900.3999996
 20
883.4249852
 30
0.0
 11
909.283976186
 21
895.511132643
 31
0.0
  0
LINE
  8
7
  6
CONTINUOUS
 62
     2
 10
900.3999996
 20
883.4249852
 30
0.0
 11
902.050675289
 21
898.333884213
 31
0.0
  0
LINE
  8
7
  6
CONTINUOUS
 62
     2
 10
900.3999996
 20
883.4249852
 30
0.0
 11
980.3999996
 21
1088.4249852
 31
0.0
  0
LINE
  8
7
  6
CONTINUOUS
 62
     2
 10
538.8999996
 20
1162.2499852
 30
0.0
 11
553.388886994
 21
1158.367699523
 31
0.0
  0
LINE
  8
7
  6
CONTINUOUS
 62
     2
 10
538.8999996
 20
1162.2499852
 30
0.0
 11
553.388886994
 21
1166.132270877
 31
0.0
  0
LINE
  8
7
  6
CONTINUOUS
 62
     2
 10
538.8999996
 20
1162.2499852
 30
0.0
 11
908.8999996
 21
1162.2499852
 31
0.0
  0
LINE
  8
7
  6
CONTINUOUS
 62
     2
 10
908.8999996
 20
1162.2499852
 30
0.0
 11
894.411112206
 21
1166.132270877
 31
0.0
  0
LINE
  8
7
  6
CONTINUOUS
 62
     2
 10
908.8999996
 20
1162.2499852
 30
0.0
 11
894.411112206
 21
1158.367699523
 31
0.0
  0
LINE
  8
7
  6
CONTINUOUS
 62
     2
 10
908.8999996
 20
933.8999852
 30
0.0
 11
908.8999996
 21
1171.2499852
 31
0.0
  0
LINE
  8
0
  6
CONTINUOUS
 62
     1
 10
770.8999996
 20
1011.4999852
 30
0.0
 11
866.714388193
 21
1011.4999852
 31
0.0
  0
ARC
  8
0
  6
CONTINUOUS
 62
     1
 10
864.714388193
 20
996.4999852
 30
0.0
 40
15.0
 50
10.945397096
 51
90.0
  0
ARC
  8
0
  6
CONTINUOUS
 62
     1
 10
864.823513517
 20
999.193925571
 30
0.0
 40
15.0
 50
10.945397096
 51
90.0
  0
LINE
  8
0
  6
CONTINUOUS
 62
     1
 10
770.8999996
 20
1013.9999852
 30
0.0
 11
866.714388193
 21
1013.9999852
 31
0.0
  0
LINE
  8
0
  6
CONTINUOUS
 62
     1
 10
770.8999996
 20
811.4999852
 30
0.0
 11
866.714388193
 21
811.4999852
 31
0.0
  0
ARC
  8
0
  6
CONTINUOUS
 62
     1
 10
864.714388193
 20
826.4999852
 30
0.0
 40
15.0
 50
270.0
 51
349.054602904
  0
ARC
  8
0
  6
CONTINUOUS
 62
     1
 10
864.823513517
 20
823.806044829
 30
0.0
 40
15.0
 50
270.0
 51
349.054602904
  0
LINE
  8
0
  6
CONTINUOUS
 62
     1
 10
770.8999996
 20
808.9999852
 30
0.0
 11
770.8999996
 21
1013.9999852
 31
0.0
  0
LINE
  8
0
  6
CONTINUOUS
 62
     1
 10
770.8999996
 20
808.9999852
 30
0.0
 11
866.714388193
 21
808.9999852
 31
0.0
  0
ARC
  8
0
  6
CONTINUOUS
 62
     1
 10
478.8999996
 20
911.4999852
 30
0.0
 40
410.0
 50
347.629566941
 51
12.370433059
  0
LINE
  8
0
  6
CONTINUOUS
 62
     1
 10
770.8999996
 20
1002.1999852
 30
0.0
 11
603.8999996
 21
1002.1999852
 31
0.0
  0
LINE
  8
0
  6
CONTINUOUS
 62
     1
 10
603.8999996
 20
820.7999852
 30
0.0
 11
603.8999996
 21
1002.1999852
 31
0.0
  0
LINE
  8
0
  6
CONTINUOUS
 62
     1
 10
770.8999996
 20
820.7999852
 30
0.0
 11
603.8999996
 21
820.7999852
 31
0.0
  0
LINE
  8
0
  6
CONTINUOUS
 62
     1
 10
722.2999996
 20
1013.4999852
 30
0.0
 11
722.2999996
 21
1002.1999852
 31
0.0
  0
LINE
  8
0
  6
CONTINUOUS
 62
     1
 10
652.4999996
 20
1013.4999852
 30
0.0
 11
652.4999996
 21
1002.1999852
 31
0.0
  0
ARC
  8
0
  6
CONTINUOUS
 62
     1
 10
878.774980063
 20
921.4999852
 30
0.0
 40
10.0
 50
1.432543738
 51
90.0
  0
ARC
  8
0
  6
CONTINUOUS
 62
     1
 10
878.774980063
 20
901.4999852
 30
0.0
 40
10.0
 50
270.0
 51
358.567456262
  0
LINE
  8
0
  6
CONTINUOUS
 62
     1
 10
878.774998751
 20
931.4999852
 30
0.0
 11
770.8999996
 21
931.4999852
 31
0.0
  0
LINE
  8
0
  6
CONTINUOUS
 62
     1
 10
770.8999996
 20
891.4999852
 30
0.0
 11
879.274998751
 21
891.4999852
 31
0.0
  0
LINE
  8
2
  6
CONTINUOUS
 62
     2
 10
873.227800995
 20
1013.9999852
 30
0.0
 11
987.774998751
 21
1013.9999852
 31
0.0
  0
LINE
  8
2
  6
CONTINUOUS
 62
     2
 10
873.227800995
 20
808.9999852
 30
0.0
 11
987.774998751
 21
808.9999852
 31
0.0
  0
LINE
  8
0
  6
CONTINUOUS
 62
     1
 10
926.5999996
 20
753.4999852
 30
0.0
 11
926.5999996
 21
703.4999852
 31
0.0
  0
LINE
  8
0
  6
LTYPE3
 62
     2
 10
1273.4999996
 20
677.4499852
 30
0.0
 11
1273.4999996
 21
776.1999852
 31
0.0
  0
LINE
  8
0
  6
CONTINUOUS
 62
     1
 10
1203.4999996
 20
765.9999852
 30
0.0
 11
1203.4999996
 21
690.9999852
 31
0.0
  0
CIRCLE
  8
0
  6
CONTINUOUS
 62
     1
 10
1273.4999996
 20
728.4999852
 30
0.0
 40
15.0
  0
LINE
  8
0
  6
CONTINUOUS
 62
     1
 10
1293.4999996
 20
765.9999852
 30
0.0
 11
1203.4999996
 21
765.9999852
 31
0.0
  0
LINE
  8
0
  6
CONTINUOUS
 62
     1
 10
1308.4999996
 20
750.9999852
 30
0.0
 11
1293.4999996
 21
765.9999852
 31
0.0
  0
LINE
  8
0
  6
CONTINUOUS
 62
     1
 10
1293.4999996
 20
690.9999852
 30
0.0
 11
1203.4999996
 21
690.9999852
 31
0.0
  0
LINE
  8
0
  6
CONTINUOUS
 62
     1
 10
1308.4999996
 20
750.9999852
 30
0.0
 11
1308.4999996
 21
705.9999852
 31
0.0
  0
LINE
  8
0
  6
CONTINUOUS
 62
     1
 10
1293.4999996
 20
690.9999852
 30
0.0
 11
1308.4999996
 21
705.9999852
 31
0.0
  0
LINE
  8
0
  6
LTYPE1
 62
     2
 10
1223.4999996
 20
765.9999852
 30
0.0
 11
1223.4999996
 21
690.9999852
 31
0.0
  0
LINE
  8
0
  6
LTYPE3
 62
     2
 10
1273.4999996
 20
776.6999852
 30
0.0
 11
1273.4999996
 21
682.6999852
 31
0.0
  0
LINE
  8
0
  6
LTYPE2
 62
     2
 10
1273.4999996
 20
922.1999852
 30
0.0
 11
1273.4999996
 21
1045.1999852
 31
0.0
  0
LINE
  8
0
  6
CONTINUOUS
 62
     1
 10
1223.4999996
 20
965.1999852
 30
0.0
 11
1308.4999996
 21
965.1999852
 31
0.0
  0
LINE
  8
0
  6
CONTINUOUS
 62
     1
 10
1308.4999996
 20
945.1999852
 30
0.0
 11
1308.4999996
 21
965.1999852
 31
0.0
  0
LINE
  8
0
  6
CONTINUOUS
 62
     1
 10
1203.4999996
 20
945.1999852
 30
0.0
 11
1308.4999996
 21
945.1999852
 31
0.0
  0
LINE
  8
0
  6
CONTINUOUS
 62
     1
 10
1223.4999996
 20
1005.1999852
 30
0.0
 11
1308.4999996
 21
1005.1999852
 31
0.0
  0
LINE
  8
0
  6
CONTINUOUS
 62
     1
 10
1308.4999996
 20
1025.1999852
 30
0.0
 11
1308.4999996
 21
1005.1999852
 31
0.0
  0
LINE
  8
0
  6
CONTINUOUS
 62
     1
 10
1203.4999996
 20
1025.1999852
 30
0.0
 11
1308.4999996
 21
1025.1999852
 31
0.0
  0
LINE
  8
0
  6
CONTINUOUS
 62
     1
 10
1223.4999996
 20
965.1999852
 30
0.0
 11
1223.4999996
 21
1005.1999852
 31
0.0
  0
LINE
  8
0
  6
CONTINUOUS
 62
     1
 10
1258.4999996
 20
965.1999852
 30
0.0
 11
1258.4999996
 21
1005.1999852
 31
0.0
  0
LINE
  8
0
  6
CONTINUOUS
 62
     1
 10
1288.4999996
 20
965.1999852
 30
0.0
 11
1288.4999996
 21
1005.1999852
 31
0.0
  0
LINE
  8
0
  6
LTYPE1
 62
     2
 10
1258.4999996
 20
1005.1999852
 30
0.0
 11
1258.4999996
 21
1025.1999852
 31
0.0
  0
LINE
  8
0
  6
LTYPE1
 62
     2
 10
1288.4999996
 20
1005.1999852
 30
0.0
 11
1288.4999996
 21
1025.1999852
 31
0.0
  0
LINE
  8
0
  6
CONTINUOUS
 62
     1
 10
1245.4999996
 20
941.1999852
 30
0.0
 11
1301.4999996
 21
941.1999852
 31
0.0
  0
LINE
  8
0
  6
CONTINUOUS
 62
     1
 10
1245.4999996
 20
941.1999852
 30
0.0
 11
1245.4999996
 21
945.1999852
 31
0.0
  0
LINE
  8
0
  6
CONTINUOUS
 62
     1
 10
1301.4999996
 20
941.1999852
 30
0.0
 11
1301.4999996
 21
945.1999852
 31
0.0
  0
LINE
  8
0
  6
CONTINUOUS
 62
     1
 10
1258.4999996
 20
931.1999852
 30
0.0
 11
1288.4999996
 21
931.1999852
 31
0.0
  0
LINE
  8
0
  6
CONTINUOUS
 62
     1
 10
1258.4999996
 20
931.1999852
 30
0.0
 11
1258.4999996
 21
941.1999852
 31
0.0
  0
LINE
  8
0
  6
CONTINUOUS
 62
     1
 10
1288.4999996
 20
931.1999852
 30
0.0
 11
1288.4999996
 21
941.1999852
 31
0.0
  0
LINE
  8
0
  6
LTYPE1
 62
     2
 10
1288.4999996
 20
941.1999852
 30
0.0
 11
1288.4999996
 21
965.1999852
 31
0.0
  0
LINE
  8
0
  6
LTYPE1
 62
     2
 10
1258.4999996
 20
941.1999852
 30
0.0
 11
1258.4999996
 21
965.1999852
 31
0.0
  0
LINE
  8
0
  6
CONTINUOUS
 62
     1
 10
1245.4999996
 20
1029.1999852
 30
0.0
 11
1301.4999996
 21
1029.1999852
 31
0.0
  0
LINE
  8
0
  6
CONTINUOUS
 62
     1
 10
1245.4999996
 20
1029.1999852
 30
0.0
 11
1245.4999996
 21
1025.1999852
 31
0.0
  0
LINE
  8
0
  6
CONTINUOUS
 62
     1
 10
1301.4999996
 20
1029.1999852
 30
0.0
 11
1301.4999996
 21
1025.1999852
 31
0.0
  0
LINE
  8
0
  6
CONTINUOUS
 62
     1
 10
1258.4999996
 20
1039.1999852
 30
0.0
 11
1288.4999996
 21
1039.1999852
 31
0.0
  0
LINE
  8
0
  6
CONTINUOUS
 62
     1
 10
1258.4999996
 20
1039.1999852
 30
0.0
 11
1258.4999996
 21
1029.1999852
 31
0.0
  0
LINE
  8
0
  6
CONTINUOUS
 62
     1
 10
1288.4999996
 20
1039.1999852
 30
0.0
 11
1288.4999996
 21
1029.1999852
 31
0.0
  0
LINE
  8
0
  6
LTYPE2
 62
     2
 10
1266.4999996
 20
937.5999852
 30
0.0
 11
1282.4999996
 21
937.5999852
 31
0.0
  0
CIRCLE
  8
0
  6
CONTINUOUS
 62
     1
 10
1273.4999996
 20
937.5999852
 30
0.0
 40
3.0
  0
LINE
  8
0
  6
LTYPE2
 62
     2
 10
1266.4999996
 20
1032.7999852
 30
0.0
 11
1282.4999996
 21
1032.7999852
 31
0.0
  0
CIRCLE
  8
0
  6
CONTINUOUS
 62
     1
 10
1273.4999996
 20
1032.7999852
 30
0.0
 40
3.0
  0
LINE
  8
0
  6
CONTINUOUS
 62
     2
 10
1302.4999996
 20
765.9999852
 30
0.0
 11
1370.4999996
 21
765.9999852
 31
0.0
  0
LINE
  8
0
  6
CONTINUOUS
 62
     2
 10
1361.4999996
 20
765.9999852
 30
0.0
 11
1357.617713923
 21
751.511097806
 31
0.0
  0
LINE
  8
0
  6
CONTINUOUS
 62
     2
 10
1361.4999996
 20
765.9999852
 30
0.0
 11
1365.382285277
 21
751.511097806
 31
0.0
  0
LINE
  8
0
  6
CONTINUOUS
 62
     2
 10
1361.4999996
 20
765.9999852
 30
0.0
 11
1361.4999996
 21
690.9999852
 31
0.0
  0
LINE
  8
0
  6
CONTINUOUS
 62
     2
 10
1361.4999996
 20
690.9999852
 30
0.0
 11
1365.382285277
 21
705.488872594
 31
0.0
  0
LINE
  8
0
  6
CONTINUOUS
 62
     2
 10
1361.4999996
 20
690.9999852
 30
0.0
 11
1357.617713923
 21
705.488872594
 31
0.0
  0
LINE
  8
0
  6
CONTINUOUS
 62
     2
 10
1302.4999996
 20
690.9999852
 30
0.0
 11
1370.4999996
 21
690.9999852
 31
0.0
  0
LINE
  8
0
  6
CONTINUOUS
 62
     2
 10
1317.4999996
 20
1005.1999852
 30
0.0
 11
1369.9999996
 21
1005.1999852
 31
0.0
  0
LINE
  8
0
  6
CONTINUOUS
 62
     2
 10
1360.9999996
 20
1005.1999852
 30
0.0
 11
1357.117713923
 21
990.711097806
 31
0.0
  0
LINE
  8
0
  6
CONTINUOUS
 62
     2
 10
1360.9999996
 20
1005.1999852
 30
0.0
 11
1364.882285277
 21
990.711097806
 31
0.0
  0
LINE
  8
0
  6
CONTINUOUS
 62
     2
 10
1360.9999996
 20
1005.1999852
 30
0.0
 11
1360.9999996
 21
965.1999852
 31
0.0
  0
LINE
  8
0
  6
CONTINUOUS
 62
     2
 10
1360.9999996
 20
965.1999852
 30
0.0
 11
1364.882285277
 21
979.688872594
 31
0.0
  0
LINE
  8
0
  6
CONTINUOUS
 62
     2
 10
1360.9999996
 20
965.1999852
 30
0.0
 11
1357.117713923
 21
979.688872594
 31
0.0
  0
LINE
  8
0
  6
CONTINUOUS
 62
     2
 10
1317.4999996
 20
965.1999852
 30
0.0
 11
1369.9999996
 21
965.1999852
 31
0.0
  0
LINE
  8
0
  6
CONTINUOUS
 62
     2
 10
1317.4999996
 20
945.1999852
 30
0.0
 11
1410.4999996
 21
945.1999852
 31
0.0
  0
LINE
  8
0
  6
CONTINUOUS
 62
     2
 10
1401.4999996
 20
945.1999852
 30
0.0
 11
1405.382285277
 21
959.688872594
 31
0.0
  0
LINE
  8
0
  6
CONTINUOUS
 62
     2
 10
1401.4999996
 20
945.1999852
 30
0.0
 11
1397.617713923
 21
959.688872594
 31
0.0
  0
LINE
  8
0
  6
CONTINUOUS
 62
     2
 10
1401.4999996
 20
945.1999852
 30
0.0
 11
1401.4999996
 21
1025.1999852
 31
0.0
  0
LINE
  8
0
  6
CONTINUOUS
 62
     2
 10
1401.4999996
 20
1025.1999852
 30
0.0
 11
1397.617713923
 21
1010.711097806
 31
0.0
  0
LINE
  8
0
  6
CONTINUOUS
 62
     2
 10
1401.4999996
 20
1025.1999852
 30
0.0
 11
1405.382285277
 21
1010.711097806
 31
0.0
  0
LINE
  8
0
  6
CONTINUOUS
 62
     2
 10
1317.4999996
 20
1025.1999852
 30
0.0
 11
1410.4999996
 21
1025.1999852
 31
0.0
  0
LINE
  8
0
  6
CONTINUOUS
 62
     2
 10
1258.4999996
 20
932.1999852
 30
0.0
 11
1258.4999996
 21
876.1999852
 31
0.0
  0
LINE
  8
0
  6
CONTINUOUS
 62
     2
 10
1258.4999996
 20
885.1999852
 30
0.0
 11
1244.011112206
 21
889.082270877
 31
0.0
  0
LINE
  8
0
  6
CONTINUOUS
 62
     2
 10
1258.4999996
 20
885.1999852
 30
0.0
 11
1244.011112206
 21
881.317699523
 31
0.0
  0
LINE
  8
0
  6
CONTINUOUS
 62
     2
 10
1235.9999996
 20
885.1999852
 30
0.0
 11
1396.7999996
 21
885.1999852
 31
0.0
  0
LINE
  8
0
  6
CONTINUOUS
 62
     2
 10
1288.4999996
 20
885.1999852
 30
0.0
 11
1302.988886994
 21
881.317699523
 31
0.0
  0
LINE
  8
0
  6
CONTINUOUS
 62
     2
 10
1288.4999996
 20
885.1999852
 30
0.0
 11
1302.988886994
 21
889.082270877
 31
0.0
  0
LINE
  8
0
  6
CONTINUOUS
 62
     2
 10
1288.4999996
 20
922.1999852
 30
0.0
 11
1288.4999996
 21
876.1999852
 31
0.0
  0
LINE
  8
0
  6
CONTINUOUS
 62
     2
 10
1223.4999996
 20
956.1999852
 30
0.0
 11
1223.4999996
 21
840.1999852
 31
0.0
  0
LINE
  8
0
  6
CONTINUOUS
 62
     2
 10
1223.4999996
 20
849.1999852
 30
0.0
 11
1237.988886994
 21
845.317699523
 31
0.0
  0
LINE
  8
0
  6
CONTINUOUS
 62
     2
 10
1223.4999996
 20
849.1999852
 30
0.0
 11
1237.988886994
 21
853.082270877
 31
0.0
  0
LINE
  8
0
  6
CONTINUOUS
 62
     2
 10
1223.4999996
 20
849.1999852
 30
0.0
 11
1273.4999996
 21
849.1999852
 31
0.0
  0
LINE
  8
0
  6
CONTINUOUS
 62
     2
 10
1273.4999996
 20
849.1999852
 30
0.0
 11
1259.011112206
 21
853.082270877
 31
0.0
  0
LINE
  8
0
  6
CONTINUOUS
 62
     2
 10
1273.4999996
 20
849.1999852
 30
0.0
 11
1259.011112206
 21
845.317699523
 31
0.0
  0
LINE
  8
0
  6
CONTINUOUS
 62
     2
 10
1273.4999996
 20
913.1999852
 30
0.0
 11
1273.4999996
 21
840.1999852
 31
0.0
  0
LINE
  8
0
  6
LTYPE2
 62
     2
 10
1122.9999996
 20
985.1999852
 30
0.0
 11
1300.4999996
 21
985.1999852
 31
0.0
  0
LINE
  8
0
  6
CONTINUOUS
 62
     2
 10
1273.4999996
 20
452.9999852
 30
0.0
 11
1259.011112206
 21
456.882270877
 31
0.0
  0
LINE
  8
0
  6
CONTINUOUS
 62
     2
 10
1273.4999996
 20
452.9999852
 30
0.0
 11
1259.011112206
 21
449.117699523
 31
0.0
  0
LINE
  8
0
  6
CONTINUOUS
 62
     2
 10
1273.4999996
 20
668.4499852
 30
0.0
 11
1273.4999996
 21
443.9999852
 31
0.0
  0
LINE
  8
0
  6
CONTINUOUS
 62
     2
 10
1203.4999996
 20
491.4999852
 30
0.0
 11
1189.011112206
 21
495.382270877
 31
0.0
  0
LINE
  8
0
  6
CONTINUOUS
 62
     2
 10
1203.4999996
 20
491.4999852
 30
0.0
 11
1189.011112206
 21
487.617699523
 31
0.0
  0
LINE
  8
0
  6
CONTINUOUS
 62
     2
 10
1203.4999996
 20
491.4999852
 30
0.0
 11
1217.988886994
 21
487.617699523
 31
0.0
  0
LINE
  8
0
  6
CONTINUOUS
 62
     2
 10
1203.4999996
 20
491.4999852
 30
0.0
 11
1217.988886994
 21
495.382270877
 31
0.0
  0
LINE
  8
0
  6
CONTINUOUS
 62
     2
 10
1203.4999996
 20
491.4999852
 30
0.0
 11
1273.4999996
 21
491.4999852
 31
0.0
  0
LINE
  8
0
  6
CONTINUOUS
 62
     2
 10
1273.4999996
 20
491.4999852
 30
0.0
 11
1259.011112206
 21
495.382270877
 31
0.0
  0
LINE
  8
0
  6
CONTINUOUS
 62
     2
 10
1273.4999996
 20
491.4999852
 30
0.0
 11
1259.011112206
 21
487.617699523
 31
0.0
  0
LINE
  8
0
  6
CONTINUOUS
 62
     2
 10
1273.4999996
 20
443.9999852
 30
0.0
 11
1273.4999996
 21
405.9999852
 31
0.0
  0
LINE
  8
0
  6
CONTINUOUS
 62
     2
 10
1308.4999996
 20
696.9999852
 30
0.0
 11
1308.4999996
 21
405.9999852
 31
0.0
  0
LINE
  8
0
  6
CONTINUOUS
 62
     2
 10
1603.9999996
 20
713.4999852
 30
0.0
 11
1507.9999996
 21
713.4999852
 31
0.0
  0
LINE
  8
0
  6
CONTINUOUS
 62
     2
 10
1516.9999996
 20
713.4999852
 30
0.0
 11
1513.117713923
 21
699.011097806
 31
0.0
  0
LINE
  8
0
  6
CONTINUOUS
 62
     2
 10
1516.9999996
 20
713.4999852
 30
0.0
 11
1520.882285277
 21
699.011097806
 31
0.0
  0
LINE
  8
0
  6
CONTINUOUS
 62
     2
 10
1516.9999996
 20
743.4999852
 30
0.0
 11
1520.882285277
 21
757.988872594
 31
0.0
  0
LINE
  8
0
  6
CONTINUOUS
 62
     2
 10
1516.9999996
 20
743.4999852
 30
0.0
 11
1513.117713923
 21
757.988872594
 31
0.0
  0
LINE
  8
0
  6
CONTINUOUS
 62
     2
 10
1607.377633236
 20
743.4999852
 30
0.0
 11
1507.9999996
 21
743.4999852
 31
0.0
  0
LINE
  8
0
  6
CONTINUOUS
 62
     2
 10
1273.4999996
 20
414.9999852
 30
0.0
 11
1259.011112206
 21
418.882270877
 31
0.0
  0
LINE
  8
0
  6
CONTINUOUS
 62
     2
 10
1273.4999996
 20
414.9999852
 30
0.0
 11
1259.011112206
 21
411.117699523
 31
0.0
  0
LINE
  8
0
  6
CONTINUOUS
 62
     2
 10
1273.4999996
 20
414.9999852
 30
0.0
 11
1287.988886994
 21
411.117699523
 31
0.0
  0
LINE
  8
0
  6
CONTINUOUS
 62
     2
 10
1273.4999996
 20
414.9999852
 30
0.0
 11
1287.988886994
 21
418.882270877
 31
0.0
  0
LINE
  8
0
  6
CONTINUOUS
 62
     2
 10
1273.4999996
 20
414.9999852
 30
0.0
 11
1308.4999996
 21
414.9999852
 31
0.0
  0
LINE
  8
0
  6
CONTINUOUS
 62
     2
 10
1308.4999996
 20
414.9999852
 30
0.0
 11
1294.011112206
 21
418.882270877
 31
0.0
  0
LINE
  8
0
  6
CONTINUOUS
 62
     2
 10
1308.4999996
 20
414.9999852
 30
0.0
 11
1294.011112206
 21
411.117699523
 31
0.0
  0
LINE
  8
0
  6
CONTINUOUS
 62
     2
 10
1203.4999996
 20
681.4999852
 30
0.0
 11
1203.4999996
 21
482.4999852
 31
0.0
  0
LINE
  8
0
  6
CONTINUOUS
 62
     1
 10
1203.4999996
 20
1025.1999852
 30
0.0
 11
1203.4999996
 21
945.1999852
 31
0.0
  0
LINE
  8
2
  6
CONTINUOUS
 62
     2
 10
999.4999996
 20
671.4999852
 30
0.0
 11
1003.382285277
 21
685.988872594
 31
0.0
  0
LINE
  8
2
  6
CONTINUOUS
 62
     2
 10
999.4999996
 20
671.4999852
 30
0.0
 11
995.617713923
 21
685.988872594
 31
0.0
  0
LINE
  8
2
  6
CONTINUOUS
 62
     2
 10
999.4999996
 20
671.4999852
 30
0.0
 11
999.4999996
 21
785.4999852
 31
0.0
  0
LINE
  8
2
  6
CONTINUOUS
 62
     2
 10
999.4999996
 20
785.4999852
 30
0.0
 11
995.617713923
 21
771.011097806
 31
0.0
  0
LINE
  8
2
  6
CONTINUOUS
 62
     2
 10
999.4999996
 20
785.4999852
 30
0.0
 11
1003.382285277
 21
771.011097806
 31
0.0
  0
LINE
  8
7
  6
CONTINUOUS
 62
     2
 10
980.3999996
 20
1088.4249852
 30
0.0
 11
978.5999996
 21
1088.4249852
 31
0.0
  0
LINE
  8
7
  6
CONTINUOUS
 62
     2
 10
980.3999996
 20
1088.4249852
 30
0.0
 11
1122.5999996
 21
1088.4249852
 31
0.0
  0
LINE
  8
2
  6
CONTINUOUS
 62
     2
 10
981.774998751
 20
1013.9999852
 30
0.0
 11
977.892713074
 21
999.511097806
 31
0.0
  0
LINE
  8
2
  6
CONTINUOUS
 62
     2
 10
981.774998751
 20
1013.9999852
 30
0.0
 11
985.657284427
 21
999.511097806
 31
0.0
  0
LINE
  8
2
  6
CONTINUOUS
 62
     2
 10
981.774998751
 20
1013.9999852
 30
0.0
 11
981.774998751
 21
808.9999852
 31
0.0
  0
LINE
  8
2
  6
CONTINUOUS
 62
     2
 10
981.774998751
 20
808.9999852
 30
0.0
 11
985.657284427
 21
823.488872594
 31
0.0
  0
LINE
  8
2
  6
CONTINUOUS
 62
     2
 10
981.774998751
 20
808.9999852
 30
0.0
 11
977.892713074
 21
823.488872594
 31
0.0
  0
LINE
  8
0
  6
CONTINUOUS
 62
     2
 10
1013.9999996
 20
888.6999852
 30
0.0
 11
1066.1999996
 21
888.6999852
 31
0.0
  0
LINE
  8
2
  6
CONTINUOUS
 62
     2
 10
918.4999996
 20
741.9999852
 30
0.0
 11
929.658317113
 21
752.024552536
 31
0.0
  0
LINE
  8
2
  6
CONTINUOUS
 62
     2
 10
918.4999996
 20
741.9999852
 30
0.0
 11
923.151102362
 21
756.260673931
 31
0.0
  0
LINE
  8
2
  6
CONTINUOUS
 62
     2
 10
918.4999996
 20
741.9999852
 30
0.0
 11
1013.9999996
 21
888.6999852
 31
0.0
  0
LINE
  8
0
  6
CONTINUOUS
 62
     1
 10
1742.9999996
 20
713.4999852
 30
0.0
 11
1702.9999996
 21
713.4999852
 31
0.0
  0
LINE
  8
0
  6
CONTINUOUS
 62
     1
 10
1742.9999996
 20
743.4999852
 30
0.0
 11
1702.9999996
 21
743.4999852
 31
0.0
  0
LINE
  8
0
  6
LTYPE1
 62
     2
 10
1702.9999996
 20
713.4999852
 30
0.0
 11
1682.9999996
 21
713.4999852
 31
0.0
  0
LINE
  8
0
  6
LTYPE1
 62
     2
 10
1702.9999996
 20
743.4999852
 30
0.0
 11
1682.9999996
 21
743.4999852
 31
0.0
  0
LINE
  8
0
  6
CONTINUOUS
 62
     1
 10
1766.9999996
 20
700.4999852
 30
0.0
 11
1766.9999996
 21
756.4999852
 31
0.0
  0
LINE
  8
0
  6
CONTINUOUS
 62
     1
 10
1766.9999996
 20
700.4999852
 30
0.0
 11
1762.9999996
 21
700.4999852
 31
0.0
  0
LINE
  8
0
  6
CONTINUOUS
 62
     1
 10
1766.9999996
 20
756.4999852
 30
0.0
 11
1762.9999996
 21
756.4999852
 31
0.0
  0
LINE
  8
0
  6
CONTINUOUS
 62
     1
 10
1776.9999996
 20
713.4999852
 30
0.0
 11
1776.9999996
 21
743.4999852
 31
0.0
  0
LINE
  8
0
  6
CONTINUOUS
 62
     1
 10
1776.9999996
 20
713.4999852
 30
0.0
 11
1766.9999996
 21
713.4999852
 31
0.0
  0
LINE
  8
0
  6
CONTINUOUS
 62
     1
 10
1776.9999996
 20
743.4999852
 30
0.0
 11
1766.9999996
 21
743.4999852
 31
0.0
  0
LINE
  8
0
  6
LTYPE1
 62
     2
 10
1766.9999996
 20
743.4999852
 30
0.0
 11
1742.9999996
 21
743.4999852
 31
0.0
  0
LINE
  8
0
  6
LTYPE1
 62
     2
 10
1766.9999996
 20
713.4999852
 30
0.0
 11
1742.9999996
 21
713.4999852
 31
0.0
  0
LINE
  8
0
  6
CONTINUOUS
 62
     1
 10
1678.9999996
 20
700.4999852
 30
0.0
 11
1678.9999996
 21
756.4999852
 31
0.0
  0
LINE
  8
0
  6
CONTINUOUS
 62
     1
 10
1678.9999996
 20
700.4999852
 30
0.0
 11
1682.9999996
 21
700.4999852
 31
0.0
  0
LINE
  8
0
  6
CONTINUOUS
 62
     1
 10
1678.9999996
 20
756.4999852
 30
0.0
 11
1682.9999996
 21
756.4999852
 31
0.0
  0
LINE
  8
0
  6
CONTINUOUS
 62
     1
 10
1668.9999996
 20
713.4999852
 30
0.0
 11
1678.9999996
 21
713.4999852
 31
0.0
  0
LINE
  8
0
  6
CONTINUOUS
 62
     1
 10
1668.9999996
 20
743.4999852
 30
0.0
 11
1678.9999996
 21
743.4999852
 31
0.0
  0
LINE
  8
0
  6
LTYPE2
 62
     2
 10
1770.5999996
 20
721.4999852
 30
0.0
 11
1770.5999996
 21
737.4999852
 31
0.0
  0
CIRCLE
  8
0
  6
CONTINUOUS
 62
     1
 10
1770.5999996
 20
728.4999852
 30
0.0
 40
3.0
  0
LINE
  8
0
  6
LTYPE2
 62
     2
 10
1675.3999996
 20
721.4999852
 30
0.0
 11
1675.3999996
 21
737.4999852
 31
0.0
  0
CIRCLE
  8
0
  6
CONTINUOUS
 62
     1
 10
1675.3999996
 20
728.4999852
 30
0.0
 40
3.0
  0
LINE
  8
0
  6
CONTINUOUS
 62
     1
 10
1762.9999996
 20
765.9999852
 30
0.0
 11
1682.9999996
 21
765.9999852
 31
0.0
  0
LINE
  8
0
  6
CONTINUOUS
 62
     1
 10
1702.9999996
 20
690.9999852
 30
0.0
 11
1702.9999996
 21
765.9999852
 31
0.0
  0
LINE
  8
0
  6
CONTINUOUS
 62
     1
 10
1682.9999996
 20
690.9999852
 30
0.0
 11
1682.9999996
 21
765.9999852
 31
0.0
  0
LINE
  8
0
  6
CONTINUOUS
 62
     1
 10
1742.9999996
 20
690.9999852
 30
0.0
 11
1742.9999996
 21
765.9999852
 31
0.0
  0
LINE
  8
0
  6
CONTINUOUS
 62
     1
 10
1762.9999996
 20
690.9999852
 30
0.0
 11
1682.9999996
 21
690.9999852
 31
0.0
  0
LINE
  8
0
  6
CONTINUOUS
 62
     1
 10
1762.9999996
 20
690.9999852
 30
0.0
 11
1762.9999996
 21
765.9999852
 31
0.0
  0
LINE
  8
0
  6
LTYPE1
 62
     2
 10
1797.9999996
 20
713.4999852
 30
0.0
 11
1797.9999996
 21
743.4999852
 31
0.0
  0
LINE
  8
0
  6
LTYPE1
 62
     2
 10
1797.9999996
 20
743.4999852
 30
0.0
 11
1832.9999996
 21
743.4999852
 31
0.0
  0
LINE
  8
0
  6
LTYPE1
 62
     2
 10
1797.9999996
 20
713.4999852
 30
0.0
 11
1832.9999996
 21
713.4999852
 31
0.0
  0
LINE
  8
0
  6
LTYPE2
 62
     2
 10
1839.9999996
 20
728.4999852
 30
0.0
 11
1616.9999996
 21
728.4999852
 31
0.0
  0
ARC
  8
0
  6
CONTINUOUS
 62
     1
 10
1770.9999996
 20
655.9999852
 30
0.0
 40
3.0
 50
0.0
 51
90.0
  0
LINE
  8
0
  6
CONTINUOUS
 62
     1
 10
1773.9999996
 20
609.4999852
 30
0.0
 11
1773.9999996
 21
655.9999852
 31
0.0
  0
ARC
  8
0
  6
CONTINUOUS
 62
     1
 10
1772.9999996
 20
609.4999852
 30
0.0
 40
1.0
 50
270.0
 51
0.0
  0
LINE
  8
0
  6
CONTINUOUS
 62
     1
 10
1773.9999996
 20
614.4999852
 30
0.0
 11
1671.9999996
 21
614.4999852
 31
0.0
  0
LINE
  8
0
  6
CONTINUOUS
 62
     1
 10
1773.9999996
 20
615.9999852
 30
0.0
 11
1671.9999996
 21
615.9999852
 31
0.0
  0
LINE
  8
0
  6
LTYPE3
 62
     2
 10
1767.9999996
 20
603.7999852
 30
0.0
 11
1767.9999996
 21
622.4999852
 31
0.0
  0
LINE
  8
0
  6
LTYPE3
 62
     2
 10
1677.9999996
 20
603.7999852
 30
0.0
 11
1677.9999996
 21
622.4999852
 31
0.0
  0
CIRCLE
  8
0
  6
CONTINUOUS
 62
     2
 10
1722.9999996
 20
632.9999852
 30
0.0
 40
10.4775
  0
CIRCLE
  8
0
  6
CONTINUOUS
 62
     2
 10
1722.9999996
 20
632.9999852
 30
0.0
 40
9.3155
  0
LINE
  8
0
  6
LTYPE2
 62
     2
 10
1742.8999996
 20
632.9999852
 30
0.0
 11
1702.1999996
 21
632.9999852
 31
0.0
  0
LINE
  8
0
  6
LTYPE2
 62
     2
 10
1800.4999996
 20
668.4999852
 30
0.0
 11
1766.4999996
 21
668.4999852
 31
0.0
  0
LINE
  8
0
  6
LTYPE2
 62
     2
 10
1782.9999996
 20
649.9999852
 30
0.0
 11
1782.9999996
 21
685.9999852
 31
0.0
  0
LINE
  8
0
  6
CONTINUOUS
 62
     1
 10
1794.9999996
 20
648.4999852
 30
0.0
 11
1773.9999996
 21
648.4999852
 31
0.0
  0
ARC
  8
0
  6
CONTINUOUS
 62
     1
 10
1794.9999996
 20
656.4999852
 30
0.0
 40
8.0
 50
270.0
 51
0.0
  0
LINE
  8
0
  6
LTYPE2
 62
     2
 10
1645.4999996
 20
668.4999852
 30
0.0
 11
1679.4999996
 21
668.4999852
 31
0.0
  0
LINE
  8
0
  6
LTYPE2
 62
     2
 10
1800.4999996
 20
788.4999852
 30
0.0
 11
1766.4999996
 21
788.4999852
 31
0.0
  0
LINE
  8
0
  6
LTYPE2
 62
     2
 10
1782.9999996
 20
806.9999852
 30
0.0
 11
1782.9999996
 21
770.9999852
 31
0.0
  0
ARC
  8
0
  6
CONTINUOUS
 62
     1
 10
1794.9999996
 20
800.4999852
 30
0.0
 40
8.0
 50
0.0
 51
90.0
  0
LINE
  8
0
  6
CONTINUOUS
 62
     2
 10
1848.9999996
 20
728.4999852
 30
0.0
 11
1893.4999996
 21
728.4999852
 31
0.0
  0
LINE
  8
0
  6
CONTINUOUS
 62
     2
 10
1884.4999996
 20
728.4999852
 30
0.0
 11
1880.617713923
 21
714.011097806
 31
0.0
  0
LINE
  8
0
  6
CONTINUOUS
 62
     2
 10
1884.4999996
 20
728.4999852
 30
0.0
 11
1888.382285277
 21
714.011097806
 31
0.0
  0
LINE
  8
0
  6
CONTINUOUS
 62
     2
 10
1884.4999996
 20
728.4999852
 30
0.0
 11
1884.4999996
 21
633.4999852
 31
0.0
  0
LINE
  8
0
  6
CONTINUOUS
 62
     2
 10
1884.4999996
 20
633.4999852
 30
0.0
 11
1888.382285277
 21
647.988872594
 31
0.0
  0
LINE
  8
0
  6
CONTINUOUS
 62
     2
 10
1884.4999996
 20
633.4999852
 30
0.0
 11
1880.617713923
 21
647.988872594
 31
0.0
  0
LINE
  8
0
  6
CONTINUOUS
 62
     2
 10
1820.9999996
 20
633.4999852
 30
0.0
 11
1893.4999996
 21
633.4999852
 31
0.0
  0
LINE
  8
0
  6
CONTINUOUS
 62
     2
 10
1884.4999996
 20
728.4999852
 30
0.0
 11
1888.382285277
 21
742.988872594
 31
0.0
  0
LINE
  8
0
  6
CONTINUOUS
 62
     2
 10
1884.4999996
 20
728.4999852
 30
0.0
 11
1880.617713923
 21
742.988872594
 31
0.0
  0
LINE
  8
0
  6
CONTINUOUS
 62
     2
 10
1931.4999996
 20
728.4999852
 30
0.0
 11
1935.382285277
 21
742.988872594
 31
0.0
  0
LINE
  8
0
  6
CONTINUOUS
 62
     2
 10
1931.4999996
 20
728.4999852
 30
0.0
 11
1927.617713923
 21
742.988872594
 31
0.0
  0
LINE
  8
0
  6
CONTINUOUS
 62
     2
 10
1893.4999996
 20
728.4999852
 30
0.0
 11
1940.4999996
 21
728.4999852
 31
0.0
  0
LINE
  8
0
  6
CONTINUOUS
 62
     2
 10
1931.4999996
 20
728.4999852
 30
0.0
 11
1927.617713923
 21
714.011097806
 31
0.0
  0
LINE
  8
0
  6
CONTINUOUS
 62
     2
 10
1931.4999996
 20
728.4999852
 30
0.0
 11
1935.382285277
 21
714.011097806
 31
0.0
  0
LINE
  8
0
  6
CONTINUOUS
 62
     2
 10
1931.4999996
 20
728.4999852
 30
0.0
 11
1931.4999996
 21
607.4999852
 31
0.0
  0
LINE
  8
0
  6
CONTINUOUS
 62
     2
 10
1931.4999996
 20
607.4999852
 30
0.0
 11
1935.382285277
 21
621.988872594
 31
0.0
  0
LINE
  8
0
  6
CONTINUOUS
 62
     2
 10
1931.4999996
 20
607.4999852
 30
0.0
 11
1927.617713923
 21
621.988872594
 31
0.0
  0
LINE
  8
0
  6
CONTINUOUS
 62
     2
 10
1832.9999996
 20
684.4999852
 30
0.0
 11
1832.9999996
 21
488.9999852
 31
0.0
  0
LINE
  8
0
  6
CONTINUOUS
 62
     2
 10
1884.4999996
 20
729.2499852
 30
0.0
 11
1884.4999996
 21
911.4999852
 31
0.0
  0
LINE
  8
0
  6
CONTINUOUS
 62
     2
 10
1884.4999996
 20
911.4999852
 30
0.0
 11
1880.617713923
 21
897.011097806
 31
0.0
  0
LINE
  8
0
  6
CONTINUOUS
 62
     2
 10
1884.4999996
 20
911.4999852
 30
0.0
 11
1888.382285277
 21
897.011097806
 31
0.0
  0
LINE
  8
0
  6
CONTINUOUS
 62
     2
 10
1884.4999996
 20
911.4999852
 30
0.0
 11
1888.382285277
 21
925.988872594
 31
0.0
  0
LINE
  8
0
  6
CONTINUOUS
 62
     2
 10
1884.4999996
 20
911.4999852
 30
0.0
 11
1880.617713923
 21
925.988872594
 31
0.0
  0
LINE
  8
0
  6
LTYPE2
 62
     2
 10
1612.4999996
 20
911.4999852
 30
0.0
 11
1836.4999996
 21
911.4999852
 31
0.0
  0
LINE
  8
0
  6
CONTINUOUS
 62
     2
 10
1840.9999996
 20
911.4999852
 30
0.0
 11
1893.4999996
 21
911.4999852
 31
0.0
  0
LINE
  8
0
  6
LTYPE2
 62
     2
 10
1645.4999996
 20
788.4999852
 30
0.0
 11
1679.4999996
 21
788.4999852
 31
0.0
  0
LINE
  8
0
  6
CONTINUOUS
 62
     1
 10
1650.9999996
 20
808.4999852
 30
0.0
 11
1722.9999996
 21
808.4999852
 31
0.0
  0
LINE
  8
0
  6
CONTINUOUS
 62
     1
 10
1794.9999996
 20
808.4999852
 30
0.0
 11
1722.9999996
 21
808.4999852
 31
0.0
  0
CIRCLE
  8
0
  6
CONTINUOUS
 62
     1
 10
1722.9999996
 20
1049.9999852
 30
0.0
 40
12.055
  0
CIRCLE
  8
0
  6
CONTINUOUS
 62
     1
 10
1722.9999996
 20
1049.9999852
 30
0.0
 40
20.0
  0
CIRCLE
  8
0
  6
CONTINUOUS
 62
     1
 10
1722.9999996
 20
1049.9999852
 30
0.0
 40
25.0
  0
CIRCLE
  8
0
  6
CONTINUOUS
 62
     2
 10
1722.9999996
 20
1049.9999852
 30
0.0
 40
13.221
  0
LINE
  8
0
  6
LTYPE2
 62
     2
 10
1686.4999996
 20
1049.9999852
 30
0.0
 11
1758.4999996
 21
1049.9999852
 31
0.0
  0
ARC
  8
0
  6
CONTINUOUS
 62
     1
 10
1752.9999996
 20
1025.4999852
 30
0.0
 40
10.0
 50
270.0
 51
0.0
  0
LINE
  8
0
  6
CONTINUOUS
 62
     1
 10
1722.9999996
 20
1094.4999852
 30
0.0
 11
1752.9999996
 21
1094.4999852
 31
0.0
  0
LINE
  8
0
  6
CONTINUOUS
 62
     1
 10
1762.9999996
 20
1025.4999852
 30
0.0
 11
1762.9999996
 21
1084.4999852
 31
0.0
  0
ARC
  8
0
  6
CONTINUOUS
 62
     1
 10
1752.9999996
 20
1084.4999852
 30
0.0
 40
10.0
 50
0.0
 51
90.0
  0
LINE
  8
0
  6
CONTINUOUS
 62
     1
 10
1722.9999996
 20
1099.4999852
 30
0.0
 11
1762.9999996
 21
1099.4999852
 31
0.0
  0
ARC
  8
0
  6
CONTINUOUS
 62
     1
 10
1762.9999996
 20
1089.4999852
 30
0.0
 40
10.0
 50
0.0
 51
90.0
  0
LINE
  8
0
  6
CONTINUOUS
 62
     1
 10
1722.9999996
 20
1015.4999852
 30
0.0
 11
1762.9999996
 21
1015.4999852
 31
0.0
  0
LINE
  8
0
  6
CONTINUOUS
 62
     1
 10
1772.9999996
 20
1025.4999852
 30
0.0
 11
1772.9999996
 21
1089.4999852
 31
0.0
  0
ARC
  8
0
  6
CONTINUOUS
 62
     1
 10
1762.9999996
 20
1025.4999852
 30
0.0
 40
10.0
 50
270.0
 51
0.0
  0
LINE
  8
0
  6
CONTINUOUS
 62
     1
 10
1753.360126207
 20
1015.506471862
 30
0.0
 11
1753.360126207
 21
1010.006471862
 31
0.0
  0
LINE
  8
0
  6
CONTINUOUS
 62
     1
 10
1722.9999996
 20
1094.4999852
 30
0.0
 11
1692.9999996
 21
1094.4999852
 31
0.0
  0
LINE
  8
0
  6
CONTINUOUS
 62
     1
 10
1682.9999996
 20
1025.4999852
 30
0.0
 11
1682.9999996
 21
1084.4999852
 31
0.0
  0
ARC
  8
0
  6
CONTINUOUS
 62
     1
 10
1692.9999996
 20
1084.4999852
 30
0.0
 40
10.0
 50
90.0
 51
180.0
  0
LINE
  8
0
  6
CONTINUOUS
 62
     1
 10
1722.9999996
 20
1099.4999852
 30
0.0
 11
1682.9999996
 21
1099.4999852
 31
0.0
  0
ARC
  8
0
  6
CONTINUOUS
 62
     1
 10
1682.9999996
 20
1089.4999852
 30
0.0
 40
10.0
 50
90.0
 51
180.0
  0
LINE
  8
0
  6
CONTINUOUS
 62
     1
 10
1672.9999996
 20
1025.4999852
 30
0.0
 11
1672.9999996
 21
1089.4999852
 31
0.0
  0
ARC
  8
0
  6
CONTINUOUS
 62
     1
 10
1692.9999996
 20
1025.4999852
 30
0.0
 40
10.0
 50
180.0
 51
270.0
  0
LINE
  8
0
  6
CONTINUOUS
 62
     1
 10
1722.9999996
 20
1015.4999852
 30
0.0
 11
1682.9999996
 21
1015.4999852
 31
0.0
  0
ARC
  8
0
  6
CONTINUOUS
 62
     1
 10
1682.9999996
 20
1025.4999852
 30
0.0
 40
10.0
 50
180.0
 51
270.0
  0
LINE
  8
0
  6
CONTINUOUS
 62
     1
 10
1692.639872993
 20
1015.506471862
 30
0.0
 11
1692.639872993
 21
1010.006471862
 31
0.0
  0
ARC
  8
0
  6
CONTINUOUS
 62
     1
 10
1764.2499996
 20
840.052889388
 30
0.0
 40
20.0
 50
210.0
 51
300.0
  0
ARC
  8
0
  6
CONTINUOUS
 62
     1
 10
1764.2499996
 20
840.052889388
 30
0.0
 40
20.0
 50
300.0
 51
30.0
  0
LINE
  8
0
  6
CONTINUOUS
 62
     1
 10
1640.4999996
 20
891.4999852
 30
0.0
 11
1711.452994216
 21
891.4999852
 31
0.0
  0
LINE
  8
0
  6
CONTINUOUS
 62
     1
 10
1746.929491524
 20
830.052889388
 30
0.0
 11
1711.452994216
 21
891.4999852
 31
0.0
  0
ARC
  8
0
  6
CONTINUOUS
 62
     1
 10
1764.2499996
 20
982.947081012
 30
0.0
 40
20.0
 50
330.0
 51
60.0
  0
ARC
  8
0
  6
CONTINUOUS
 62
     1
 10
1764.2499996
 20
982.947081012
 30
0.0
 40
20.0
 50
60.0
 51
150.0
  0
LINE
  8
0
  6
CONTINUOUS
 62
     1
 10
1746.929491524
 20
992.947081012
 30
0.0
 11
1711.452994216
 21
931.4999852
 31
0.0
  0
LINE
  8
0
  6
CONTINUOUS
 62
     1
 10
1640.4999996
 20
931.4999852
 30
0.0
 11
1711.452994216
 21
931.4999852
 31
0.0
  0
ARC
  8
0
  6
CONTINUOUS
 62
     1
 10
1722.9999996
 20
911.4999852
 30
0.0
 40
100.0
 50
186.110646249
 51
293.889353751
  0
ARC
  8
0
  6
CONTINUOUS
 62
     1
 10
1722.9999996
 20
911.4999852
 30
0.0
 40
100.0
 50
66.110646249
 51
173.889353751
  0
ARC
  8
0
  6
CONTINUOUS
 62
     1
 10
1722.9999996
 20
911.4999852
 30
0.0
 40
100.0
 50
306.110646249
 51
53.889353751
  0
LINE
  8
0
  6
CONTINUOUS
 62
     1
 10
1726.333332933
 20
931.220251144
 30
0.0
 11
1784.666666267
 21
921.360118172
 31
0.0
  0
LINE
  8
0
  6
CONTINUOUS
 62
     1
 10
1726.333332933
 20
891.779719256
 30
0.0
 11
1784.666666267
 21
901.639852228
 31
0.0
  0
LINE
  8
0
  6
LTYPE2
 62
     2
 10
1782.9999996
 20
896.4999852
 30
0.0
 11
1782.9999996
 21
931.4999852
 31
0.0
  0
ARC
  8
0
  6
CONTINUOUS
 62
     1
 10
1722.9999996
 20
911.4999852
 30
0.0
 40
20.0
 50
80.405931773
 51
279.594068227
  0
ARC
  8
0
  6
CONTINUOUS
 62
     1
 10
1782.9999996
 20
911.4999852
 30
0.0
 40
10.0
 50
279.594068227
 51
80.405931773
  0
CIRCLE
  8
0
  6
CONTINUOUS
 62
     1
 10
1782.9999996
 20
911.4999852
 30
0.0
 40
9.0
  0
CIRCLE
  8
0
  6
CONTINUOUS
 62
     1
 10
1722.9999996
 20
911.4999852
 30
0.0
 40
19.0
  0
CIRCLE
  8
0
  6
CONTINUOUS
 62
     1
 10
1709.8999996
 20
911.4999852
 30
0.0
 40
4.0
  0
CIRCLE
  8
0
  6
CONTINUOUS
 62
     1
 10
1722.9999996
 20
898.3999852
 30
0.0
 40
4.0
  0
CIRCLE
  8
0
  6
CONTINUOUS
 62
     1
 10
1736.0999996
 20
911.4999852
 30
0.0
 40
4.0
  0
CIRCLE
  8
0
  6
CONTINUOUS
 62
     1
 10
1722.9999996
 20
924.5999852
 30
0.0
 40
4.0
  0
CIRCLE
  8
0
  6
CONTINUOUS
 62
     1
 10
1722.9999996
 20
911.4999852
 30
0.0
 40
4.0
  0
LINE
  8
0
  6
CONTINUOUS
 62
     1
 10
1781.570507676
 20
972.947081012
 30
0.0
 11
1754.710211438
 21
926.423683223
 31
0.0
  0
LINE
  8
0
  6
CONTINUOUS
 62
     1
 10
1781.570507676
 20
850.052889388
 30
0.0
 11
1754.710211438
 21
896.576287177
 31
0.0
  0
LINE
  8
0
  6
CONTINUOUS
 62
     2
 10
1884.4999996
 20
1099.4999852
 30
0.0
 11
1880.617713923
 21
1085.011097806
 31
0.0
  0
LINE
  8
0
  6
CONTINUOUS
 62
     2
 10
1884.4999996
 20
1099.4999852
 30
0.0
 11
1888.382285277
 21
1085.011097806
 31
0.0
  0
LINE
  8
0
  6
CONTINUOUS
 62
     2
 10
1775.9999996
 20
1099.4999852
 30
0.0
 11
1893.4999996
 21
1099.4999852
 31
0.0
  0
LINE
  8
0
  6
CONTINUOUS
 62
     2
 10
1893.4999996
 20
1099.4999852
 30
0.0
 11
1940.4999996
 21
1099.4999852
 31
0.0
  0
LINE
  8
0
  6
CONTINUOUS
 62
     2
 10
1931.4999996
 20
1099.4999852
 30
0.0
 11
1927.617713923
 21
1085.011097806
 31
0.0
  0
LINE
  8
0
  6
CONTINUOUS
 62
     2
 10
1931.4999996
 20
1099.4999852
 30
0.0
 11
1935.382285277
 21
1085.011097806
 31
0.0
  0
LINE
  8
0
  6
CONTINUOUS
 62
     2
 10
1884.4999996
 20
911.4999852
 30
0.0
 11
1884.4999996
 21
1099.4999852
 31
0.0
  0
LINE
  8
0
  6
CONTINUOUS
 62
     2
 10
1931.4999996
 20
1099.4999852
 30
0.0
 11
1931.4999996
 21
728.4999852
 31
0.0
  0
ARC
  8
0
  6
CONTINUOUS
 62
     1
 10
1811.9999996
 20
639.4999852
 30
0.0
 40
6.0
 50
270.0
 51
0.0
  0
LINE
  8
0
  6
CONTINUOUS
 62
     1
 10
1777.9999996
 20
633.4999852
 30
0.0
 11
1811.9999996
 21
633.4999852
 31
0.0
  0
LINE
  8
0
  6
CONTINUOUS
 62
     2
 10
1817.9999996
 20
630.4999852
 30
0.0
 11
1817.9999996
 21
531.9999852
 31
0.0
  0
LINE
  8
0
  6
CONTINUOUS
 62
     1
 10
1668.9999996
 20
713.4999852
 30
0.0
 11
1668.9999996
 21
743.4999852
 31
0.0
  0
LINE
  8
0
  6
CONTINUOUS
 62
     1
 10
1631.076118046
 20
766.683751384
 30
0.0
 11
1631.146828724
 21
766.613040706
 31
0.0
  0
LINE
  8
0
  6
LTYPE1
 62
     2
 10
1647.9999996
 20
713.4999852
 30
0.0
 11
1612.9999996
 21
713.4999852
 31
0.0
  0
LINE
  8
0
  6
LTYPE1
 62
     2
 10
1647.9999996
 20
743.4999852
 30
0.0
 11
1612.9999996
 21
743.4999852
 31
0.0
  0
LINE
  8
0
  6
LTYPE1
 62
     2
 10
1647.9999996
 20
713.4999852
 30
0.0
 11
1647.9999996
 21
743.4999852
 31
0.0
  0
LINE
  8
0
  6
CONTINUOUS
 62
     1
 10
1671.9999996
 20
609.4999852
 30
0.0
 11
1671.9999996
 21
655.9999852
 31
0.0
  0
ARC
  8
0
  6
CONTINUOUS
 62
     1
 10
1672.9999996
 20
609.4999852
 30
0.0
 40
1.0
 50
180.0
 51
270.0
  0
ARC
  8
0
  6
CONTINUOUS
 62
     1
 10
1675.9999996
 20
608.4999852
 30
0.0
 40
1.0
 50
180.0
 51
270.0
  0
ARC
  8
0
  6
CONTINUOUS
 62
     1
 10
1769.9999996
 20
608.4999852
 30
0.0
 40
1.0
 50
270.0
 51
0.0
  0
LINE
  8
0
  6
CONTINUOUS
 62
     1
 10
1769.9999996
 20
607.4999852
 30
0.0
 11
1675.9999996
 21
607.4999852
 31
0.0
  0
LINE
  8
0
  6
CONTINUOUS
 62
     1
 10
1772.9999996
 20
608.4999852
 30
0.0
 11
1672.9999996
 21
608.4999852
 31
0.0
  0
LINE
  8
0
  6
LTYPE2
 62
     2
 10
1662.9999996
 20
649.9999852
 30
0.0
 11
1662.9999996
 21
685.9999852
 31
0.0
  0
LINE
  8
0
  6
CONTINUOUS
 62
     1
 10
1650.9999996
 20
648.4999852
 30
0.0
 11
1671.9999996
 21
648.4999852
 31
0.0
  0
ARC
  8
0
  6
CONTINUOUS
 62
     1
 10
1650.9999996
 20
656.4999852
 30
0.0
 40
8.0
 50
180.0
 51
270.0
  0
LINE
  8
0
  6
CONTINUOUS
 62
     2
 10
1778.9999996
 20
607.4999852
 30
0.0
 11
1940.4999996
 21
607.4999852
 31
0.0
  0
LINE
  8
0
  6
CONTINUOUS
 62
     2
 10
1612.9999996
 20
684.4999852
 30
0.0
 11
1612.9999996
 21
488.9999852
 31
0.0
  0
LINE
  8
0
  6
CONTINUOUS
 62
     2
 10
1612.9999996
 20
497.9999852
 30
0.0
 11
1627.488886994
 21
494.117699523
 31
0.0
  0
LINE
  8
0
  6
CONTINUOUS
 62
     2
 10
1612.9999996
 20
497.9999852
 30
0.0
 11
1627.488886994
 21
501.882270877
 31
0.0
  0
LINE
  8
0
  6
CONTINUOUS
 62
     2
 10
1612.9999996
 20
497.9999852
 30
0.0
 11
1832.9999996
 21
497.9999852
 31
0.0
  0
LINE
  8
0
  6
CONTINUOUS
 62
     2
 10
1832.9999996
 20
497.9999852
 30
0.0
 11
1818.511112206
 21
501.882270877
 31
0.0
  0
LINE
  8
0
  6
CONTINUOUS
 62
     2
 10
1832.9999996
 20
497.9999852
 30
0.0
 11
1818.511112206
 21
494.117699523
 31
0.0
  0
LINE
  8
0
  6
LTYPE2
 62
     2
 10
1662.9999996
 20
806.9999852
 30
0.0
 11
1662.9999996
 21
770.9999852
 31
0.0
  0
ARC
  8
0
  6
CONTINUOUS
 62
     1
 10
1650.9999996
 20
800.4999852
 30
0.0
 40
8.0
 50
90.0
 51
180.0
  0
ARC
  8
0
  6
CONTINUOUS
 62
     1
 10
1633.9999996
 20
639.4999852
 30
0.0
 40
6.0
 50
180.0
 51
270.0
  0
LINE
  8
0
  6
CONTINUOUS
 62
     1
 10
1633.9999996
 20
633.4999852
 30
0.0
 11
1672.4999996
 21
633.4999852
 31
0.0
  0
LINE
  8
0
  6
CONTINUOUS
 62
     2
 10
1627.9999996
 20
630.4999852
 30
0.0
 11
1627.9999996
 21
531.9999852
 31
0.0
  0
LINE
  8
0
  6
CONTINUOUS
 62
     2
 10
1627.9999996
 20
540.9999852
 30
0.0
 11
1642.488886994
 21
537.117699523
 31
0.0
  0
LINE
  8
0
  6
CONTINUOUS
 62
     2
 10
1627.9999996
 20
540.9999852
 30
0.0
 11
1642.488886994
 21
544.882270877
 31
0.0
  0
LINE
  8
0
  6
CONTINUOUS
 62
     2
 10
1817.9999996
 20
540.9999852
 30
0.0
 11
1803.511112206
 21
544.882270877
 31
0.0
  0
LINE
  8
0
  6
CONTINUOUS
 62
     2
 10
1817.9999996
 20
540.9999852
 30
0.0
 11
1803.511112206
 21
537.117699523
 31
0.0
  0
LINE
  8
0
  6
CONTINUOUS
 62
     2
 10
1627.9999996
 20
540.9999852
 30
0.0
 11
1817.9999996
 21
540.9999852
 31
0.0
  0
TEXT
  8
0
  6
CONTINUOUS
 62
     2
 10
822.9999996
 20
606.4999852
 30
0.0
 40
21.0
  1
ＰＦ１／２
 50
0.0
 41
0.9
 51
0.0
  7
KANJI15
  0
TEXT
  8
0
  6
CONTINUOUS
 62
     2
 10
563.3999996
 20
497.4999852
 30
0.0
 40
21.0
  1
１００
 50
0.0
 41
0.9
 51
0.0
  7
KANJI15
  0
TEXT
  8
0
  6
CONTINUOUS
 62
     2
 10
450.3999996
 20
497.4999852
 30
0.0
 40
21.0
  1
１２５
 50
0.0
 41
0.9
 51
0.0
  7
KANJI15
  0
TEXT
  8
0
  6
CONTINUOUS
 62
     2
 10
500.3999996
 20
458.9999852
 30
0.0
 40
21.0
  1
２２５
 50
0.0
 41
0.9
 51
0.0
  7
KANJI15
  0
TEXT
  8
0
  6
CONTINUOUS
 62
     2
 10
868.5999996
 20
497.4999852
 30
0.0
 40
21.0
  1
Ｃ
 50
0.0
 41
0.9
 51
0.0
  7
KANJI15
  0
TEXT
  8
0
  6
CONTINUOUS
 62
     2
 10
791.5999996
 20
420.9999852
 30
0.0
 40
21.0
  1
ｍｉｎ．ＡＬ
 50
0.0
 41
0.9
 51
0.0
  7
KANJI15
  0
TEXT
  8
0
  6
CONTINUOUS
 62
     2
 10
696.9999996
 20
515.4499852
 30
0.0
 40
21.0
  1
推力リミッタ
 50
0.0
 41
0.9
 51
0.0
  7
KANJI15
  0
TEXT
  8
0
  6
CONTINUOUS
 62
     2
 10
808.3999996
 20
1106.4249852
 30
0.0
 40
21.0
  1
ＰＦ３／４
 50
0.0
 41
0.9
 51
0.0
  7
KANJI15
  0
TEXT
  8
7
  6
CONTINUOUS
 62
     2
 10
698.3999996
 20
1168.2499852
 30
0.0
 40
21.0
  1
３７０
 50
0.0
 41
0.9
 51
0.0
  7
KANJI15
  0
TEXT
  8
0
  6
CONTINUOUS
 62
     2
 10
913.2999996
 20
458.9999852
 30
0.0
 40
21.0
  1
ｍｉｎ．Ｌ
 50
0.0
 41
0.9
 51
0.0
  7
KANJI15
  0
TEXT
  8
2
  6
CONTINUOUS
 62
     2
 10
993.4999996
 20
687.3999852
 30
0.0
 40
21.0
  1
φ１１４
 50
90.0
 41
0.9
 51
0.0
  7
KANJI15
  0
TEXT
  8
7
  6
CONTINUOUS
 62
     2
 10
980.3999996
 20
1094.4249852
 30
0.0
 40
21.0
  1
ブレーキ開放装置
 50
0.0
 41
0.9
 51
0.0
  7
KANJI15
  0
TEXT
  8
2
  6
CONTINUOUS
 62
     2
 10
975.774998751
 20
872.7999852
 30
0.0
 40
21.0
  1
φ２０５
 50
90.0
 41
0.9
 51
0.0
  7
KANJI15
  0
TEXT
  8
0
  6
CONTINUOUS
 62
     2
 10
1355.4999996
 20
711.6999852
 30
0.0
 40
21.0
  1
７５
 50
90.0
 41
0.9
 51
0.0
  7
KANJI15
  0
TEXT
  8
0
  6
CONTINUOUS
 62
     2
 10
1354.9999996
 20
968.3999852
 30
0.0
 40
21.0
  1
４０
 50
90.0
 41
0.9
 51
0.0
  7
KANJI15
  0
TEXT
  8
0
  6
CONTINUOUS
 62
     2
 10
1395.4999996
 20
968.3999852
 30
0.0
 40
21.0
  1
８０
 50
90.0
 41
0.9
 51
0.0
  7
KANJI15
  0
TEXT
  8
0
  6
CONTINUOUS
 62
     2
 10
1365.9999996
 20
862.6999852
 30
0.0
 40
21.0
  1
ｄ９
 50
0.0
 41
0.9
 51
0.0
  7
KANJI15
  0
TEXT
  8
0
  6
CONTINUOUS
 62
     2
 10
1231.6999996
 20
855.1999852
 30
0.0
 40
21.0
  1
５０
 50
0.0
 41
0.9
 51
0.0
  7
KANJI15
  0
TEXT
  8
0
  6
CONTINUOUS
 62
     2
 10
1221.6999996
 20
497.4999852
 30
0.0
 40
21.0
  1
７０
 50
0.0
 41
0.9
 51
0.0
  7
KANJI15
  0
TEXT
  8
0
  6
CONTINUOUS
 62
     2
 10
1274.1999996
 20
420.9999852
 30
0.0
 40
21.0
  1
３５
 50
0.0
 41
0.9
 51
0.0
  7
KANJI15
  0
TEXT
  8
0
  6
CONTINUOUS
 62
     2
 10
1013.9999996
 20
894.6999852
 30
0.0
 40
21.0
  1
給脂口
 50
0.0
 41
0.9
 51
0.0
  7
KANJI15
  0
TEXT
  8
0
  6
CONTINUOUS
 62
     2
 10
1510.9999996
 20
765.9999852
 30
0.0
 40
21.0
  1
φ３０Ｈ１０深３５
 50
90.0
 41
0.9
 51
0.0
  7
KANJI15
  0
TEXT
  8
0
  6
CONTINUOUS
 62
     2
 10
1878.4999996
 20
664.1999852
 30
0.0
 40
21.0
  1
９５
 50
90.0
 41
0.9
 51
0.0
  7
KANJI15
  0
TEXT
  8
0
  6
CONTINUOUS
 62
     2
 10
1878.4999996
 20
794.1249852
 30
0.0
 40
21.0
  1
１８３
 50
90.0
 41
0.9
 51
0.0
  7
KANJI15
  0
TEXT
  8
0
  6
CONTINUOUS
 62
     2
 10
1925.4999996
 20
642.4999852
 30
0.0
 40
21.0
  1
１２１
 50
90.0
 41
0.9
 51
0.0
  7
KANJI15
  0
TEXT
  8
0
  6
CONTINUOUS
 62
     2
 10
1878.4999996
 20
968.1999852
 30
0.0
 40
21.0
  1
１８８
 50
90.0
 41
0.9
 51
0.0
  7
KANJI15
  0
TEXT
  8
0
  6
CONTINUOUS
 62
     2
 10
1925.4999996
 20
877.0749852
 30
0.0
 40
21.0
  1
３７１
 50
90.0
 41
0.9
 51
0.0
  7
KANJI15
  0
TEXT
  8
0
  6
CONTINUOUS
 62
     2
 10
1697.4999996
 20
503.9999852
 30
0.0
 40
21.0
  1
２２０
 50
0.0
 41
0.9
 51
0.0
  7
KANJI15
  0
TEXT
  8
0
  6
CONTINUOUS
 62
     2
 10
1697.4999996
 20
546.9999852
 30
0.0
 40
21.0
  1
１９０
 50
0.0
 41
0.9
 51
0.0
  7
KANJI15
  0
TEXT
  8
0
  6
CONTINUOUS
 62
     2
 10
1310.9999996
 20
891.1999852
 30
0.0
 40
21.0
  1
φ３０Ｈ１０
 50
0.0
 41
0.9
 51
0.0
  7
KANJI15
  0
TEXT
  8
0
  6
CONTINUOUS
 62
     2
 10
1990.333333333
 20
97.833333333
 30
2.1
 40
31.5
  1
１／７
 50
0.0
 41
0.666666667
 51
0.0
  7
KANJI16
  0
ARC
  8
0
  6
CONTINUOUS
 62
     1
 10
1640.4999996
 20
911.4999852
 30
0.0
 40
20.0
 50
90.0
 51
180.0
  0
ARC
  8
0
  6
CONTINUOUS
 62
     1
 10
1640.4999996
 20
911.4999852
 30
0.0
 40
20.0
 50
180.0
 51
270.0
  0
LINE
  8
0
  6
LTYPE3
 62
     3
 10
1722.9999996
 20
602.9999852
 30
0.0
 11
1722.9999996
 21
1099.4999852
 31
0.0
  0
LINE
  8
0
  6
CONTINUOUS
 62
     2
 10
1516.9999996
 20
690.9999852
 30
0.0
 11
1516.9999996
 21
935.0
 31
0.0
  0
LINE
  8
0
  6
CONTINUOUS
 62
     1
 10
1093.4999996
 20
671.4999852
 30
0.0
 11
1093.4999996
 21
786.4999852
 31
0.0
  0
LINE
  8
0
  6
CONTINUOUS
 62
     2
 10
1158.4999996
 20
491.4999852
 30
0.0
 11
1144.011112206
 21
487.617699523
 31
0.0
  0
LINE
  8
0
  6
CONTINUOUS
 62
     2
 10
1158.4999996
 20
491.4999852
 30
0.0
 11
1172.988886994
 21
487.617699523
 31
0.0
  0
LINE
  8
0
  6
CONTINUOUS
 62
     2
 10
1158.4999996
 20
491.4999852
 30
0.0
 11
1144.011112206
 21
495.382270877
 31
0.0
  0
LINE
  8
0
  6
CONTINUOUS
 62
     2
 10
1158.4999996
 20
491.4999852
 30
0.0
 11
1172.988886994
 21
495.382270877
 31
0.0
  0
LINE
  8
0
  6
CONTINUOUS
 62
     1
 10
1158.4999996
 20
785.4999852
 30
0.0
 11
791.8999996
 21
785.4999852
 31
0.0
  0
LINE
  8
0
  6
CONTINUOUS
 62
     1
 10
1158.4999996
 20
671.4999852
 30
0.0
 11
1158.4999996
 21
785.4999852
 31
0.0
  0
LINE
  8
0
  6
CONTINUOUS
 62
     1
 10
1158.4999996
 20
671.4999852
 30
0.0
 11
791.8999996
 21
671.4999852
 31
0.0
  0
LINE
  8
0
  6
CONTINUOUS
 62
     1
 10
1158.4999996
 20
765.9999852
 30
0.0
 11
1203.4999996
 21
765.9999852
 31
0.0
  0
LINE
  8
0
  6
CONTINUOUS
 62
     1
 10
1158.4999996
 20
690.9999852
 30
0.0
 11
1203.4999996
 21
690.9999852
 31
0.0
  0
LINE
  8
0
  6
LTYPE2
 62
     2
 10
964.7199996
 20
728.4999852
 30
0.0
 11
401.4999996
 21
728.4999852
 31
0.0
  0
LINE
  8
0
  6
LTYPE2
 62
     2
 10
1321.8999996
 20
728.4999852
 30
0.0
 11
997.4299996
 21
728.4999852
 31
0.0
  0
LINE
  8
0
  6
CONTINUOUS
 62
     2
 10
1158.4999996
 20
491.4999852
 30
0.0
 11
1203.4999996
 21
491.4999852
 31
0.0
  0
LINE
  8
0
  6
CONTINUOUS
 62
     2
 10
638.8999996
 20
491.4999852
 30
0.0
 11
1158.4999996
 21
491.4999852
 31
0.0
  0
TEXT
  8
0
  6
CONTINUOUS
 62
     2
 10
1122.6899996
 20
497.3099852
 30
-3.5
 40
21.0
  1
ｍｉｎ．Ｐ
 50
0.0
 41
0.9
 51
0.0
  7
KANJI17
  0
LINE
  8
0
  6
CONTINUOUS
 62
     2
 10
1158.4999996
 20
496.24
 30
0.0
 11
1158.4999996
 21
482.4999852
 31
0.0
  0
LINE
  8
0
  6
CONTINUOUS
 62
     2
 10
1158.4999996
 20
662.4999852
 30
0.0
 11
1158.4999996
 21
517.01
 31
0.0
  0
TEXT
  8
0
  6
CONTINUOUS
 62
     2
 10
2168.833333333
 20
293.833333333
 30
0.0
 40
24.5
  1
ＭＣＬＥ４－
 50
0.0
 41
0.793650794
 51
0.0
  7
KANJI18
  0
TEXT
  8
0
  6
CONTINUOUS
 62
     2
 10
2302.766705633
 20
181.833326333
 30
15.166666667
 40
35.0
  1
３０００６６９
 50
0.0
 41
0.8
 51
0.0
  7
KANJI19
  0
TEXT
  8
0
  6
CONTINUOUS
 62
     2
 10
2661.290032433
 20
184.116655933
 30
0.0
 40
21.0
  1
２
 50
0.0
 41
0.9
 51
0.0
  7
KANJI15
  0
TEXT
  8
0
  6
CONTINUOUS
 62
     2
 10
1919.866705633
 20
148.233326333
 30
2.1
 40
24.5
  1
９９．０５．２１
 50
0.0
 41
0.571428571
 51
0.0
  7
KANJI20
  0
TEXT
  8
0
  6
CONTINUOUS
 62
     2
 10
1940.166705633
 20
199.333326333
 30
7.0
 40
24.5
  1
Ｋ．Ｋ
 50
0.0
 41
0.857142857
 51
0.0
  7
KANJI21
  0
TEXT
  8
0
  6
CONTINUOUS
 62
     2
 10
1940.166705633
 20
247.866655933
 30
7.0
 40
24.5
  1
樫山
 50
0.0
 41
0.857142857
 51
0.0
  7
KANJI21
  0
POLYLINE
  8
0
  6
CONTINUOUS
 62
     4
 66
     1
  0
VERTEX
  8
0
  6
CONTINUOUS
 62
     4
 10
1408.516773883
 20
177.866659433
 30
0.0
  0
VERTEX
  8
0
  6
CONTINUOUS
 62
     4
 10
1388.800108733
 20
147.533328433
 30
0.0
  0
VERTEX
  8
0
  6
CONTINUOUS
 62
     4
 10
1428.233439033
 20
147.533328433
 30
0.0
  0
SEQEND
  0
LINE
  8
0
  6
CONTINUOUS
 62
     4
 10
1408.516773883
 20
177.866659433
 30
0.0
 11
1428.233439033
 21
147.533328433
 31
0.0
  0
TEXT
  8
0
  6
CONTINUOUS
 62
     2
 10
1401.530105233
 20
149.223329133
 30
0.0
 40
21.0
  1
１
 50
0.0
 41
0.9
 51
0.0
  7
KANJI15
  0
TEXT
  8
0
  6
CONTINUOUS
 62
     2
 10
1438.610105233
 20
145.593329133
 30
0.0
 40
21.0
  1
２００３．１０．２９　岡田　重量変更　０３．１１．０４　村上
 50
0.0
 41
0.9
 51
0.0
  7
KANJI15
  0
POLYLINE
  8
0
  6
CONTINUOUS
 62
     4
 66
     1
  0
VERTEX
  8
0
  6
CONTINUOUS
 62
     4
 10
1408.516773883
 20
208.406659433
 30
0.0
  0
VERTEX
  8
0
  6
CONTINUOUS
 62
     4
 10
1388.800108733
 20
178.073328433
 30
0.0
  0
VERTEX
  8
0
  6
CONTINUOUS
 62
     4
 10
1428.233439033
 20
178.073328433
 30
0.0
  0
SEQEND
  0
LINE
  8
0
  6
CONTINUOUS
 62
     4
 10
1408.516773883
 20
208.406659433
 30
0.0
 11
1428.233439033
 21
178.073328433
 31
0.0
  0
TEXT
  8
0
  6
CONTINUOUS
 62
     2
 10
1401.530105233
 20
179.763329133
 30
0.0
 40
21.0
  1
２
 50
0.0
 41
0.9
 51
0.0
  7
KANJI15
  0
TEXT
  8
0
  6
CONTINUOUS
 62
     2
 10
1402.990105233
 20
51.093329133
 30
0.0
 40
21.0
  1
図面ＣＡＤ化の為書直し２００２．１２．１６　岡田　村上
 50
0.0
 41
0.9
 51
0.0
  7
KANJI15
  0
LINE
  8
0
  6
CONTINUOUS
 62
     1
 10
1803.231133333
 20
1935.933053333
 30
0.0
 11
1803.231133333
 21
1805.933573333
 31
0.0
  0
LINE
  8
0
  6
CONTINUOUS
 62
     2
 10
1728.231433333
 20
1935.933053333
 30
0.0
 11
1728.231433333
 21
1805.933573333
 31
0.0
  0
LINE
  8
0
  6
CONTINUOUS
 62
     2
 10
1653.231733333
 20
1935.933053333
 30
0.0
 11
1653.231733333
 21
1805.933573333
 31
0.0
  0
LINE
  8
0
  6
CONTINUOUS
 62
     1
 10
1553.232133333
 20
1935.933053333
 30
0.0
 11
1553.232133333
 21
1805.933573333
 31
0.0
  0
LINE
  8
0
  6
CONTINUOUS
 62
     1
 10
1553.232133333
 20
1935.933053333
 30
0.0
 11
1803.231133333
 21
1935.933053333
 31
0.0
  0
LINE
  8
0
  6
CONTINUOUS
 62
     1
 10
1553.232133333
 20
1895.933213333
 30
0.0
 11
1803.231133333
 21
1895.933213333
 31
0.0
  0
LINE
  8
0
  6
CONTINUOUS
 62
     2
 10
1553.232133333
 20
1865.933333333
 30
0.0
 11
1803.231133333
 21
1865.933333333
 31
0.0
  0
LINE
  8
0
  6
CONTINUOUS
 62
     2
 10
1553.232133333
 20
1835.933453333
 30
0.0
 11
1803.231133333
 21
1835.933453333
 31
0.0
  0
LINE
  8
0
  6
CONTINUOUS
 62
     1
 10
1553.232133333
 20
1805.933573333
 30
0.0
 11
1803.231133333
 21
1805.933573333
 31
0.0
  0
TEXT
  8
0
  6
CONTINUOUS
 62
     2
 10
1738.231393333
 20
1918.433123333
 30
1.499994
 40
14.99994
  1
起動電流
 50
0.0
 41
0.9
 51
0.0
  7
KANJI22
  0
TEXT
  8
0
  6
CONTINUOUS
 62
     2
 10
1738.231393333
 20
1900.933193333
 30
1.499994
 40
14.99994
  1
　　　Ａ
 50
0.0
 41
0.9
 51
0.0
  7
KANJI22
  0
TEXT
  8
0
  6
CONTINUOUS
 62
     2
 10
1663.231693333
 20
1918.433123333
 30
1.499994
 40
14.99994
  1
定格電流
 50
0.0
 41
0.9
 51
0.0
  7
KANJI22
  0
TEXT
  8
0
  6
CONTINUOUS
 62
     2
 10
1663.231693333
 20
1900.933193333
 30
1.499994
 40
14.99994
  1
　　　Ａ
 50
0.0
 41
0.9
 51
0.0
  7
KANJI22
  0
TEXT
  8
0
  6
CONTINUOUS
 62
     2
 10
1561.732099333
 20
1843.433423333
 30
1.499994
 40
14.99994
  1
２００／６０
 50
0.0
 41
0.9
 51
0.0
  7
KANJI22
  0
TEXT
  8
0
  6
CONTINUOUS
 62
     2
 10
1561.732099333
 20
1918.433123333
 30
1.499994
 40
14.99994
  1
電圧／周波数
 50
0.0
 41
0.9
 51
0.0
  7
KANJI22
  0
TEXT
  8
0
  6
CONTINUOUS
 62
     2
 10
1561.732099333
 20
1900.933193333
 30
1.499994
 40
14.99994
  1
　Ｖ／Ｈｚ
 50
0.0
 41
0.9
 51
0.0
  7
KANJI22
  0
TEXT
  8
0
  6
CONTINUOUS
 62
     2
 10
1561.732099333
 20
1873.433303333
 30
1.499994
 40
14.99994
  1
２００／５０
 50
0.0
 41
0.9
 51
0.0
  7
KANJI22
  0
TEXT
  8
0
  6
CONTINUOUS
 62
     2
 10
1561.732099333
 20
1813.433543333
 30
1.499994
 40
14.99994
  1
２２０／６０
 50
0.0
 41
0.9
 51
0.0
  7
KANJI22
  0
LINE
  8
0
  6
CONTINUOUS
 62
     1
 10
1503.232333333
 20
1935.933053333
 30
0.0
 11
1503.232333333
 21
1805.933573333
 31
0.0
  0
LINE
  8
0
  6
CONTINUOUS
 62
     2
 10
1428.232633333
 20
1935.933053333
 30
0.0
 11
1428.232633333
 21
1805.933573333
 31
0.0
  0
LINE
  8
0
  6
CONTINUOUS
 62
     2
 10
1353.232933333
 20
1935.933053333
 30
0.0
 11
1353.232933333
 21
1805.933573333
 31
0.0
  0
LINE
  8
0
  6
CONTINUOUS
 62
     1
 10
1253.233333333
 20
1935.933053333
 30
0.0
 11
1503.232333333
 21
1935.933053333
 31
0.0
  0
LINE
  8
0
  6
CONTINUOUS
 62
     1
 10
1253.233333333
 20
1895.933213333
 30
0.0
 11
1503.232333333
 21
1895.933213333
 31
0.0
  0
LINE
  8
0
  6
CONTINUOUS
 62
     2
 10
1253.233333333
 20
1865.933333333
 30
0.0
 11
1503.232333333
 21
1865.933333333
 31
0.0
  0
LINE
  8
0
  6
CONTINUOUS
 62
     2
 10
1253.233333333
 20
1835.933453333
 30
0.0
 11
1503.232333333
 21
1835.933453333
 31
0.0
  0
LINE
  8
0
  6
CONTINUOUS
 62
     1
 10
1253.233333333
 20
1805.933573333
 30
0.0
 11
1503.232333333
 21
1805.933573333
 31
0.0
  0
TEXT
  8
0
  6
CONTINUOUS
 62
     2
 10
1438.232593333
 20
1918.433123333
 30
1.499994
 40
14.99994
  1
起動電流
 50
0.0
 41
0.9
 51
0.0
  7
KANJI22
  0
TEXT
  8
0
  6
CONTINUOUS
 62
     2
 10
1438.232593333
 20
1900.933193333
 30
1.499994
 40
14.99994
  1
　　　Ａ
 50
0.0
 41
0.9
 51
0.0
  7
KANJI22
  0
TEXT
  8
0
  6
CONTINUOUS
 62
     2
 10
1363.232893333
 20
1918.433123333
 30
1.499994
 40
14.99994
  1
定格電流
 50
0.0
 41
0.9
 51
0.0
  7
KANJI22
  0
TEXT
  8
0
  6
CONTINUOUS
 62
     2
 10
1363.232893333
 20
1900.933193333
 30
1.499994
 40
14.99994
  1
　　　Ａ
 50
0.0
 41
0.9
 51
0.0
  7
KANJI22
  0
TEXT
  8
0
  6
CONTINUOUS
 62
     2
 10
1261.733299333
 20
1918.433123333
 30
1.499994
 40
14.99994
  1
電圧／周波数
 50
0.0
 41
0.9
 51
0.0
  7
KANJI22
  0
TEXT
  8
0
  6
CONTINUOUS
 62
     2
 10
1261.733299333
 20
1900.933193333
 30
1.499994
 40
14.99994
  1
　Ｖ／Ｈｚ
 50
0.0
 41
0.9
 51
0.0
  7
KANJI22
  0
TEXT
  8
0
  6
CONTINUOUS
 62
     2
 10
1261.733299333
 20
1873.433303333
 30
1.499994
 40
14.99994
  1
４００／５０
 50
0.0
 41
0.9
 51
0.0
  7
KANJI22
  0
TEXT
  8
0
  6
CONTINUOUS
 62
     2
 10
1261.733299333
 20
1843.433423333
 30
1.499994
 40
14.99994
  1
４００／６０
 50
0.0
 41
0.9
 51
0.0
  7
KANJI22
  0
TEXT
  8
0
  6
CONTINUOUS
 62
     2
 10
1261.733299333
 20
1813.433543333
 30
1.499994
 40
14.99994
  1
４４０／６０
 50
0.0
 41
0.9
 51
0.0
  7
KANJI22
  0
TEXT
  8
0
  6
CONTINUOUS
 62
     2
 10
1363.232893333
 20
1873.433303333
 30
1.499994
 40
14.99994
  1
　　３．４
 50
0.0
 41
0.9
 51
0.0
  7
KANJI22
  0
TEXT
  8
0
  6
CONTINUOUS
 62
     2
 10
1363.232893333
 20
1813.433543333
 30
1.499994
 40
14.99994
  1
　　３．０
 50
0.0
 41
0.9
 51
0.0
  7
KANJI22
  0
TEXT
  8
0
  6
CONTINUOUS
 62
     2
 10
1663.231693333
 20
1873.433303333
 30
1.499994
 40
14.99994
  1
　　６．８
 50
0.0
 41
0.9
 51
0.0
  7
KANJI22
  0
TEXT
  8
0
  6
CONTINUOUS
 62
     2
 10
1663.231693333
 20
1813.433543333
 30
1.499994
 40
14.99994
  1
　　６．０
 50
0.0
 41
0.9
 51
0.0
  7
KANJI22
  0
TEXT
  8
0
  6
CONTINUOUS
 62
     2
 10
1738.231393333
 20
1873.433303333
 30
1.499994
 40
14.99994
  1
４４．０
 50
0.0
 41
0.9
 51
0.0
  7
KANJI22
  0
LINE
  8
0
  6
CONTINUOUS
 62
     1
 10
1253.233333333
 20
1935.933053333
 30
0.0
 11
1253.233333333
 21
1805.933573333
 31
0.0
  0
TEXT
  8
0
  6
CONTINUOUS
 62
     2
 10
1363.232893333
 20
1843.433423333
 30
1.499994
 40
14.99994
  1
　　３．１
 50
0.0
 41
0.9
 51
0.0
  7
KANJI22
  0
TEXT
  8
0
  6
CONTINUOUS
 62
     2
 10
1663.231693333
 20
1843.433423333
 30
1.499994
 40
14.99994
  1
　　６．２
 50
0.0
 41
0.9
 51
0.0
  7
KANJI22
  0
LINE
  8
0
  6
CONTINUOUS
 62
     6
 10
412.660995895
 20
1903.539053132
 30
0.0
 11
141.942087592
 21
1903.539053132
 31
0.0
  0
LINE
  8
0
  6
CONTINUOUS
 62
     3
 10
412.660995895
 20
1871.499469798
 30
0.0
 11
141.942087592
 21
1871.499469798
 31
0.0
  0
LINE
  8
0
  6
CONTINUOUS
 62
     6
 10
412.660995895
 20
1871.499469798
 30
0.0
 11
141.942087592
 21
1871.499469798
 31
0.0
  0
TEXT
  8
0
  6
CONTINUOUS
 62
     6
 10
442.507599334
 20
1900.56714585
 30
1.4379365
 40
15.379
  1
電気定格　　　
 50
0.0
 41
0.85
 51
0.0
  7
KANJI23
  0
TEXT
  8
0
  6
CONTINUOUS
 62
     6
 10
146.502436736
 20
1907.270247886
 30
1.24215
 40
13.6045
  1
ＬＳ０１　　　：推力リミッタ（前進時過負荷用）
 50
0.0
 41
0.822608696
 51
0.0
  7
KANJI24
  0
TEXT
  8
0
  6
CONTINUOUS
 62
     6
 10
146.502436736
 20
1875.230664553
 30
1.24215
 40
13.6045
  1
ＬＳ０２　　　：推力リミッタ（後進時過負荷用）
 50
0.0
 41
0.822608696
 51
0.0
  7
KANJI24
  0
TEXT
  8
0
  6
CONTINUOUS
 62
     6
 10
457.44266762
 20
1864.898118365
 30
0.0
 40
13.8411
  1
ＤＣ１２５Ｖ　０．６Ａ　，ＤＣ２５０Ｖ　０．３Ａ　
 50
0.0
 41
0.726495726
 51
0.0
  7
KANJI25
  0
LINE
  8
0
  6
LTYPE2
 62
     6
 10
760.783333333
 20
1935.566666667
 30
0.0
 11
120.983333333
 21
1935.566666667
 31
0.0
  0
TEXT
  8
0
  6
CONTINUOUS
 62
     6
 10
451.309987541
 20
1921.28868048
 30
0.0
 40
52.5
  1
｝
 50
0.0
 41
0.538166667
 51
0.0
  7
KANJI26
  0
TEXT
  8
0
  6
CONTINUOUS
 62
     6
 10
369.498256796
 20
1654.427791925
 30
0.0
 40
20.697485939
  1
端子台　接続図
 50
0.0
 41
0.880962996
 51
0.0
  7
KANJI27
  0
LINE
  8
0
  6
LTYPE2
 62
     6
 10
760.783333333
 20
1633.4
 30
0.0
 11
760.783333333
 21
1935.566666667
 31
0.0
  0
LINE
  8
0
  6
LTYPE2
 62
     6
 10
120.983333333
 20
1633.4
 30
0.0
 11
760.783333333
 21
1633.4
 31
0.0
  0
LINE
  8
0
  6
LTYPE2
 62
     6
 10
120.983333333
 20
1935.566666667
 30
0.0
 11
120.983333333
 21
1633.4
 31
0.0
  0
LINE
  8
0
  6
CONTINUOUS
 62
     2
 10
410.290269042
 20
1713.932808864
 30
0.0
 11
410.290269042
 21
1687.35734765
 31
0.0
  0
LINE
  8
0
  6
CONTINUOUS
 62
     2
 10
441.294973793
 20
1713.932808864
 30
0.0
 11
441.294973793
 21
1687.35734765
 31
0.0
  0
LINE
  8
0
  6
CONTINUOUS
 62
     2
 10
472.299678543
 20
1713.932808864
 30
0.0
 11
472.299678543
 21
1687.35734765
 31
0.0
  0
LINE
  8
0
  6
CONTINUOUS
 62
     2
 10
503.304383294
 20
1713.932808864
 30
0.0
 11
503.304383294
 21
1687.35734765
 31
0.0
  0
CIRCLE
  8
0
  6
CONTINUOUS
 62
     6
 10
494.064981278
 20
1741.325908436
 30
0.0
 40
4.783583019
  0
LINE
  8
0
  6
CONTINUOUS
 62
     6
 10
489.28139826
 20
1741.325908436
 30
0.0
 11
487.802030919
 21
1741.325908436
 31
0.0
  0
LINE
  8
0
  6
CONTINUOUS
 62
     6
 10
518.511032005
 20
1757.293656533
 30
0.0
 11
513.944151112
 21
1731.236091661
 31
0.0
  0
LINE
  8
0
  6
CONTINUOUS
 62
     6
 10
512.99698294
 20
1758.21266471
 30
0.0
 11
508.42974291
 21
1732.155159695
 31
0.0
  0
LINE
  8
0
  6
CONTINUOUS
 62
     6
 10
513.944151112
 20
1731.236091661
 30
0.0
 11
508.42974291
 21
1732.155159695
 31
0.0
  0
CIRCLE
  8
0
  6
CONTINUOUS
 62
     6
 10
518.806735669
 20
1730.279375058
 30
0.0
 40
4.783583019
  0
LINE
  8
0
  6
CONTINUOUS
 62
     6
 10
518.806735669
 20
1725.495792039
 30
0.0
 11
518.806735669
 21
1713.932808864
 31
0.0
  0
LINE
  8
0
  6
CONTINUOUS
 62
     6
 10
487.802030919
 20
1741.325908436
 30
0.0
 11
487.802030919
 21
1713.932808864
 31
0.0
  0
LINE
  8
0
  6
CONTINUOUS
 62
     6
 10
456.797326168
 20
1713.932808864
 30
0.0
 11
456.797326168
 21
1776.588887922
 31
0.0
  0
LINE
  8
0
  6
CONTINUOUS
 62
     6
 10
364.078915581
 20
1757.293656533
 30
0.0
 11
368.645796473
 21
1731.236091661
 31
0.0
  0
LINE
  8
0
  6
CONTINUOUS
 62
     6
 10
369.592964645
 20
1758.21266471
 30
0.0
 11
374.160204675
 21
1732.155159695
 31
0.0
  0
LINE
  8
0
  6
CONTINUOUS
 62
     6
 10
368.645796473
 20
1731.236091661
 30
0.0
 11
374.160204675
 21
1732.155159695
 31
0.0
  0
CIRCLE
  8
0
  6
CONTINUOUS
 62
     6
 10
363.783211916
 20
1730.279375058
 30
0.0
 40
4.783583019
  0
CIRCLE
  8
0
  6
CONTINUOUS
 62
     6
 10
388.524966307
 20
1741.325908436
 30
0.0
 40
4.783583019
  0
LINE
  8
0
  6
CONTINUOUS
 62
     6
 10
393.308549326
 20
1741.325908436
 30
0.0
 11
394.787916667
 21
1741.325908436
 31
0.0
  0
LINE
  8
0
  6
CONTINUOUS
 62
     6
 10
363.783211916
 20
1725.495792039
 30
0.0
 11
363.783211916
 21
1713.932808864
 31
0.0
  0
LINE
  8
0
  6
CONTINUOUS
 62
     6
 10
394.787916667
 20
1741.325908436
 30
0.0
 11
394.787916667
 21
1713.932808864
 31
0.0
  0
LINE
  8
0
  6
CONTINUOUS
 62
     6
 10
425.792621417
 20
1713.932808864
 30
0.0
 11
425.792621417
 21
1776.588887922
 31
0.0
  0
LINE
  8
0
  6
CONTINUOUS
 62
     2
 10
534.309088045
 20
1713.932808864
 30
0.0
 11
534.309088045
 21
1687.35734765
 31
0.0
  0
LINE
  8
0
  6
CONTINUOUS
 62
     2
 10
348.280859541
 20
1713.932808864
 30
0.0
 11
348.280859541
 21
1687.35734765
 31
0.0
  0
LINE
  8
0
  6
CONTINUOUS
 62
     2
 10
379.285564291
 20
1713.932808864
 30
0.0
 11
379.285564291
 21
1687.35734765
 31
0.0
  0
LINE
  8
0
  6
CONTINUOUS
 62
     6
 10
518.806735669
 20
1776.588887922
 30
0.0
 11
456.797326168
 21
1776.588887922
 31
0.0
  0
CIRCLE
  8
0
  6
CONTINUOUS
 62
     6
 10
518.806735669
 20
1762.18764549
 30
0.0
 40
4.783583019
  0
LINE
  8
0
  6
CONTINUOUS
 62
     6
 10
518.511032005
 20
1757.293656533
 30
0.0
 11
512.99698294
 21
1758.21266471
 31
0.0
  0
LINE
  8
0
  6
CONTINUOUS
 62
     6
 10
518.806735669
 20
1766.971228508
 30
0.0
 11
518.806735669
 21
1776.588887922
 31
0.0
  0
CIRCLE
  8
0
  6
CONTINUOUS
 62
     6
 10
363.783211916
 20
1762.18764549
 30
0.0
 40
4.783583019
  0
LINE
  8
0
  6
CONTINUOUS
 62
     6
 10
364.078915581
 20
1757.293656533
 30
0.0
 11
369.592964645
 21
1758.21266471
 31
0.0
  0
LINE
  8
0
  6
CONTINUOUS
 62
     6
 10
363.783211916
 20
1766.971228508
 30
0.0
 11
363.783211916
 21
1776.588887922
 31
0.0
  0
LINE
  8
0
  6
CONTINUOUS
 62
     6
 10
425.792621417
 20
1776.588887922
 30
0.0
 11
363.783211916
 21
1776.588887922
 31
0.0
  0
TEXT
  8
0
  6
CONTINUOUS
 62
     6
 10
369.3400844
 20
1781.861218818
 30
0.9555
 40
13.65
  1
ＬＳ０１
 50
0.0
 41
0.8
 51
0.0
  7
KANJI28
  0
TEXT
  8
0
  6
CONTINUOUS
 62
     6
 10
465.730298652
 20
1781.861218818
 30
0.9555
 40
13.65
  1
ＬＳ０２
 50
0.0
 41
0.8
 51
0.0
  7
KANJI28
  0
TEXT
  8
0
  6
CONTINUOUS
 62
     3
 10
168.453571987
 20
1691.786591185
 30
0.0
 40
17.5
  1
　　　　　　　　　　　　　　　　　　１　　２　　　３　　　４　　　５　　　６
 50
0.0
 41
0.911
 51
0.0
  7
KANJI29
  0
LINE
  8
0
  6
CONTINUOUS
 62
     2
 10
348.280859541
 20
1713.932808864
 30
0.0
 11
534.309088045
 21
1713.932808864
 31
0.0
  0
LINE
  8
0
  6
CONTINUOUS
 62
     2
 10
348.280859541
 20
1687.35734765
 30
0.0
 11
534.309088045
 21
1687.35734765
 31
0.0
  0
TEXT
  8
0
  6
CONTINUOUS
 62
     6
 10
338.581590129
 20
1816.594458592
 30
0.0
 40
20.697485939
  1
推力リミッタ端子台配列
 50
0.0
 41
0.880962996
 51
0.0
  7
KANJI27
  0
TEXT
  8
0
  6
CONTINUOUS
 62
     6
 10
457.44266762
 20
1883.267253746
 30
0.0
 40
13.8411
  1
ＡＣ１００Ｖ　１２５Ｖ　２５０Ｖ　－１０Ａ
 50
0.0
 41
0.726495726
 51
0.0
  7
KANJI25
  0
TEXT
  8
0
  6
CONTINUOUS
 62
     2
 10
1983.333333333
 20
732.733333333
 30
7.2
 40
25.2
  1
１。運転時は必ずピストンロッドの回転防止を行って下さい。
 50
0.0
 41
0.857142857
 51
0.0
  7
KANJI30
  0
TEXT
  8
0
  6
CONTINUOUS
 62
     2
 10
1983.333333333
 20
685.133333333
 30
7.182
 40
25.2
  1
２。モートル：全閉自冷かご形３０分定格
 50
0.0
 41
0.857222222
 51
0.0
  7
KANJI31
  0
TEXT
  8
0
  6
CONTINUOUS
 62
     2
 10
1982.866561433
 20
637.533337533
 30
7.182
 40
25.2
  1
３。呼称ストロークは、機械的ストロークです。
 50
0.0
 41
0.857222222
 51
0.0
  7
KANJI31
  0
TEXT
  8
0
  6
CONTINUOUS
 62
     2
 10
1982.866561433
 20
597.283337533
 30
7.182
 40
25.2
  1
　　必ず、常用はストローク両端に余裕を取って下さい。
 50
0.0
 41
0.857222222
 51
0.0
  7
KANJI31
  0
LINE
  8
0
  6
CONTINUOUS
 62
     2
 10
2061.733333333
 20
781.033333333
 30
0.0
 11
2232.533333333
 21
781.033333333
 31
0.0
  0
TEXT
  8
0
  6
CONTINUOUS
 62
     2
 10
2081.333333333
 20
788.733333333
 30
14.0
 40
28.0
  1
特記事項
 50
0.0
 41
0.9
 51
0.0
  7
KANJI32
  0
LINE
  8
0
  6
CONTINUOUS
 62
     1
 10
1252.008333333
 20
1755.136906667
 30
0.0
 11
2159.208333333
 21
1755.136906667
 31
0.0
  0
LINE
  8
0
  6
CONTINUOUS
 62
     1
 10
1252.008333333
 20
1715.936906667
 30
0.0
 11
2159.208333333
 21
1715.936906667
 31
0.0
  0
TEXT
  8
0
  6
CONTINUOUS
 62
     2
 10
1308.008333333
 20
1727.136906667
 30
1.792
 40
17.92
  1
形
 50
0.0
 41
0.9
 51
0.0
  7
KANJI33
  0
TEXT
  8
0
  6
CONTINUOUS
 62
     2
 10
1417.208333333
 20
1727.136906667
 30
1.792
 40
17.92
  1
式
 50
0.0
 41
0.9
 51
0.0
  7
KANJI33
  0
TEXT
  8
0
  6
CONTINUOUS
 62
     2
 10
1501.768333333
 20
1726.016906667
 30
1.68
 40
16.8
  1
ストローク
 50
0.0
 41
0.9
 51
0.0
  7
KANJI34
  0
TEXT
  8
0
  6
CONTINUOUS
 62
     2
 10
1609.288333333
 20
1724.896906667
 30
0.0
 40
16.8
  1
ｍｉｎ　
 50
0.0
 41
0.9
 51
0.0
  7
KANJI35
  0
TEXT
  8
0
  6
CONTINUOUS
 62
     2
 10
1721.288333333
 20
1724.896906667
 30
0.0
 40
16.8
  1
ｍｉｎ　
 50
0.0
 41
0.9
 51
0.0
  7
KANJI35
  0
TEXT
  8
0
  6
CONTINUOUS
 62
     2
 10
1945.288333333
 20
1724.896906667
 30
0.0
 40
16.8
  1
ｍｉｎ　
 50
0.0
 41
0.9
 51
0.0
  7
KANJI35
  0
TEXT
  8
0
  6
CONTINUOUS
 62
     2
 10
1666.408333333
 20
1726.016906667
 30
1.96
 40
19.6
  1
ＡＬ
 50
0.0
 41
0.9
 51
0.0
  7
KANJI36
  0
TEXT
  8
0
  6
CONTINUOUS
 62
     2
 10
1778.408333333
 20
1726.016906667
 30
1.96
 40
19.6
  1
Ｌ
 50
0.0
 41
0.9
 51
0.0
  7
KANJI36
  0
TEXT
  8
0
  6
CONTINUOUS
 62
     2
 10
1873.608333333
 20
1726.016906667
 30
1.96
 40
19.6
  1
Ｃ
 50
0.0
 41
0.9
 51
0.0
  7
KANJI36
  0
TEXT
  8
0
  6
CONTINUOUS
 62
     2
 10
2002.408333333
 20
1726.016906667
 30
1.96
 40
19.6
  1
Ｐ
 50
0.0
 41
0.9
 51
0.0
  7
KANJI36
  0
TEXT
  8
0
  6
CONTINUOUS
 62
     2
 10
2117.628333333
 20
1725.596906667
 30
0.0
 40
15.12
  1
（ｋｇ）
 50
0.0
 41
0.740740741
 51
0.0
  7
KANJI37
  0
TEXT
  8
0
  6
CONTINUOUS
 62
     2
 10
2050.428333333
 20
1725.316906667
 30
1.68
 40
19.6
  1
概算重量
 50
0.0
 41
0.857142857
 51
0.0
  7
KANJI38
  0
TEXT
  8
0
  6
CONTINUOUS
 62
     2
 10
1512.408333333
 20
1688.45024
 30
1.68
 40
16.8
  1
　２００
 50
0.0
 41
0.9
 51
0.0
  7
KANJI34
  0
TEXT
  8
0
  6
CONTINUOUS
 62
     2
 10
1960.408333333
 20
1688.45024
 30
1.68
 40
16.8
  1
　　４５
 50
0.0
 41
0.9
 51
0.0
  7
KANJI34
  0
LINE
  8
0
  6
CONTINUOUS
 62
     2
 10
1252.008333333
 20
1679.07024
 30
0.0
 11
2159.208333333
 21
1679.07024
 31
0.0
  0
TEXT
  8
0
  6
CONTINUOUS
 62
     2
 10
1848.408333333
 20
1688.45024
 30
1.68
 40
16.8
  1
　５１０
 50
0.0
 41
0.9
 51
0.0
  7
KANJI34
  0
TEXT
  8
0
  6
CONTINUOUS
 62
     2
 10
1736.408333333
 20
1688.45024
 30
1.68
 40
16.8
  1
　６２５
 50
0.0
 41
0.9
 51
0.0
  7
KANJI34
  0
TEXT
  8
0
  6
CONTINUOUS
 62
     2
 10
1624.408333333
 20
1688.45024
 30
1.68
 40
16.8
  1
　８５０
 50
0.0
 41
0.9
 51
0.0
  7
KANJI34
  0
TEXT
  8
0
  6
CONTINUOUS
 62
     2
 10
1512.408333333
 20
1651.583573333
 30
1.68
 40
16.8
  1
　３００
 50
0.0
 41
0.9
 51
0.0
  7
KANJI34
  0
TEXT
  8
0
  6
CONTINUOUS
 62
     2
 10
1960.408333333
 20
1651.583573333
 30
1.68
 40
16.8
  1
　　４５
 50
0.0
 41
0.9
 51
0.0
  7
KANJI34
  0
LINE
  8
0
  6
CONTINUOUS
 62
     2
 10
1252.008333333
 20
1642.203573333
 30
0.0
 11
2159.208333333
 21
1642.203573333
 31
0.0
  0
TEXT
  8
0
  6
CONTINUOUS
 62
     2
 10
1848.408333333
 20
1651.583573333
 30
1.68
 40
16.8
  1
　６１０
 50
0.0
 41
0.9
 51
0.0
  7
KANJI34
  0
TEXT
  8
0
  6
CONTINUOUS
 62
     2
 10
1736.408333333
 20
1651.583573333
 30
1.68
 40
16.8
  1
　７２５
 50
0.0
 41
0.9
 51
0.0
  7
KANJI34
  0
TEXT
  8
0
  6
CONTINUOUS
 62
     2
 10
1624.408333333
 20
1651.583573333
 30
1.68
 40
16.8
  1
　９５０
 50
0.0
 41
0.9
 51
0.0
  7
KANJI34
  0
TEXT
  8
0
  6
CONTINUOUS
 62
     2
 10
1512.408333333
 20
1614.716906667
 30
1.68
 40
16.8
  1
　４００
 50
0.0
 41
0.9
 51
0.0
  7
KANJI34
  0
TEXT
  8
0
  6
CONTINUOUS
 62
     2
 10
1960.408333333
 20
1614.716906667
 30
1.68
 40
16.8
  1
　　４５
 50
0.0
 41
0.9
 51
0.0
  7
KANJI34
  0
LINE
  8
0
  6
CONTINUOUS
 62
     2
 10
1252.008333333
 20
1605.336906667
 30
0.0
 11
2159.208333333
 21
1605.336906667
 31
0.0
  0
TEXT
  8
0
  6
CONTINUOUS
 62
     2
 10
1848.408333333
 20
1614.716906667
 30
1.68
 40
16.8
  1
　７１０
 50
0.0
 41
0.9
 51
0.0
  7
KANJI34
  0
TEXT
  8
0
  6
CONTINUOUS
 62
     2
 10
1736.408333333
 20
1614.716906667
 30
1.68
 40
16.8
  1
　８２５
 50
0.0
 41
0.9
 51
0.0
  7
KANJI34
  0
TEXT
  8
0
  6
CONTINUOUS
 62
     2
 10
1624.408333333
 20
1614.716906667
 30
1.68
 40
16.8
  1
１０５０
 50
0.0
 41
0.9
 51
0.0
  7
KANJI34
  0
TEXT
  8
0
  6
CONTINUOUS
 62
     2
 10
1512.408333333
 20
1577.85024
 30
1.68
 40
16.8
  1
　５００
 50
0.0
 41
0.9
 51
0.0
  7
KANJI34
  0
TEXT
  8
0
  6
CONTINUOUS
 62
     2
 10
1960.408333333
 20
1577.85024
 30
1.68
 40
16.8
  1
　　４５
 50
0.0
 41
0.9
 51
0.0
  7
KANJI34
  0
LINE
  8
0
  6
CONTINUOUS
 62
     2
 10
1252.008333333
 20
1568.47024
 30
0.0
 11
2159.208333333
 21
1568.47024
 31
0.0
  0
TEXT
  8
0
  6
CONTINUOUS
 62
     2
 10
1848.408333333
 20
1577.85024
 30
1.68
 40
16.8
  1
　８１０
 50
0.0
 41
0.9
 51
0.0
  7
KANJI34
  0
TEXT
  8
0
  6
CONTINUOUS
 62
     2
 10
1736.408333333
 20
1577.85024
 30
1.68
 40
16.8
  1
　９２５
 50
0.0
 41
0.9
 51
0.0
  7
KANJI34
  0
TEXT
  8
0
  6
CONTINUOUS
 62
     2
 10
1624.408333333
 20
1577.85024
 30
1.68
 40
16.8
  1
１１５０
 50
0.0
 41
0.9
 51
0.0
  7
KANJI34
  0
LINE
  8
0
  6
CONTINUOUS
 62
     2
 10
1252.008333333
 20
1531.603573333
 30
0.0
 11
2159.208333333
 21
1531.603573333
 31
0.0
  0
TEXT
  8
0
  6
CONTINUOUS
 62
     2
 10
1512.408333333
 20
1540.983573333
 30
1.68
 40
16.8
  1
　６００
 50
0.0
 41
0.9
 51
0.0
  7
KANJI34
  0
TEXT
  8
0
  6
CONTINUOUS
 62
     2
 10
1624.408333333
 20
1540.983573333
 30
1.68
 40
16.8
  1
１２９０
 50
0.0
 41
0.9
 51
0.0
  7
KANJI34
  0
TEXT
  8
0
  6
CONTINUOUS
 62
     2
 10
1736.408333333
 20
1540.983573333
 30
1.68
 40
16.8
  1
１０６５
 50
0.0
 41
0.9
 51
0.0
  7
KANJI34
  0
TEXT
  8
0
  6
CONTINUOUS
 62
     2
 10
1848.408333333
 20
1540.983573333
 30
1.68
 40
16.8
  1
　９５０
 50
0.0
 41
0.9
 51
0.0
  7
KANJI34
  0
TEXT
  8
0
  6
CONTINUOUS
 62
     2
 10
1960.408333333
 20
1540.983573333
 30
1.68
 40
16.8
  1
　　４５
 50
0.0
 41
0.9
 51
0.0
  7
KANJI34
  0
LINE
  8
0
  6
CONTINUOUS
 62
     2
 10
1252.008333333
 20
1494.736906667
 30
0.0
 11
2159.208333333
 21
1494.736906667
 31
0.0
  0
TEXT
  8
0
  6
CONTINUOUS
 62
     2
 10
1512.408333333
 20
1504.116906667
 30
1.68
 40
16.8
  1
　７００
 50
0.0
 41
0.9
 51
0.0
  7
KANJI34
  0
TEXT
  8
0
  6
CONTINUOUS
 62
     2
 10
1624.408333333
 20
1504.116906667
 30
1.68
 40
16.8
  1
１３９０
 50
0.0
 41
0.9
 51
0.0
  7
KANJI34
  0
TEXT
  8
0
  6
CONTINUOUS
 62
     2
 10
1736.408333333
 20
1504.116906667
 30
1.68
 40
16.8
  1
１１６５
 50
0.0
 41
0.9
 51
0.0
  7
KANJI34
  0
TEXT
  8
0
  6
CONTINUOUS
 62
     2
 10
1848.408333333
 20
1504.116906667
 30
1.68
 40
16.8
  1
１０５０
 50
0.0
 41
0.9
 51
0.0
  7
KANJI34
  0
TEXT
  8
0
  6
CONTINUOUS
 62
     2
 10
1960.408333333
 20
1504.116906667
 30
1.68
 40
16.8
  1
　　４５
 50
0.0
 41
0.9
 51
0.0
  7
KANJI34
  0
LINE
  8
0
  6
CONTINUOUS
 62
     2
 10
1252.008333333
 20
1457.87024
 30
0.0
 11
2159.208333333
 21
1457.87024
 31
0.0
  0
TEXT
  8
0
  6
CONTINUOUS
 62
     2
 10
1512.408333333
 20
1467.25024
 30
1.68
 40
16.8
  1
　８００
 50
0.0
 41
0.9
 51
0.0
  7
KANJI34
  0
TEXT
  8
0
  6
CONTINUOUS
 62
     2
 10
1624.408333333
 20
1467.25024
 30
1.68
 40
16.8
  1
１４９０
 50
0.0
 41
0.9
 51
0.0
  7
KANJI34
  0
TEXT
  8
0
  6
CONTINUOUS
 62
     2
 10
1736.408333333
 20
1467.25024
 30
1.68
 40
16.8
  1
１２６５
 50
0.0
 41
0.9
 51
0.0
  7
KANJI34
  0
TEXT
  8
0
  6
CONTINUOUS
 62
     2
 10
1848.408333333
 20
1467.25024
 30
1.68
 40
16.8
  1
１１５０
 50
0.0
 41
0.9
 51
0.0
  7
KANJI34
  0
TEXT
  8
0
  6
CONTINUOUS
 62
     2
 10
1960.408333333
 20
1467.25024
 30
1.68
 40
16.8
  1
　　４５
 50
0.0
 41
0.9
 51
0.0
  7
KANJI34
  0
LINE
  8
0
  6
CONTINUOUS
 62
     2
 10
1252.008333333
 20
1421.003573333
 30
0.0
 11
2159.208333333
 21
1421.003573333
 31
0.0
  0
TEXT
  8
0
  6
CONTINUOUS
 62
     2
 10
1512.408333333
 20
1430.383573333
 30
1.68
 40
16.8
  1
　９００
 50
0.0
 41
0.9
 51
0.0
  7
KANJI34
  0
TEXT
  8
0
  6
CONTINUOUS
 62
     2
 10
1624.408333333
 20
1430.383573333
 30
1.68
 40
16.8
  1
１５９０
 50
0.0
 41
0.9
 51
0.0
  7
KANJI34
  0
TEXT
  8
0
  6
CONTINUOUS
 62
     2
 10
1736.408333333
 20
1430.383573333
 30
1.68
 40
16.8
  1
１３６５
 50
0.0
 41
0.9
 51
0.0
  7
KANJI34
  0
TEXT
  8
0
  6
CONTINUOUS
 62
     2
 10
1848.408333333
 20
1430.383573333
 30
1.68
 40
16.8
  1
１２５０
 50
0.0
 41
0.9
 51
0.0
  7
KANJI34
  0
TEXT
  8
0
  6
CONTINUOUS
 62
     2
 10
1960.408333333
 20
1430.383573333
 30
1.68
 40
16.8
  1
　　４５
 50
0.0
 41
0.9
 51
0.0
  7
KANJI34
  0
TEXT
  8
0
  6
CONTINUOUS
 62
     2
 10
1512.408333333
 20
1393.516906667
 30
1.68
 40
16.8
  1
１０００
 50
0.0
 41
0.9
 51
0.0
  7
KANJI34
  0
TEXT
  8
0
  6
CONTINUOUS
 62
     2
 10
1624.408333333
 20
1393.516906667
 30
1.68
 40
16.8
  1
１６９０
 50
0.0
 41
0.9
 51
0.0
  7
KANJI34
  0
TEXT
  8
0
  6
CONTINUOUS
 62
     2
 10
1736.408333333
 20
1393.516906667
 30
1.68
 40
16.8
  1
１４６５
 50
0.0
 41
0.9
 51
0.0
  7
KANJI34
  0
TEXT
  8
0
  6
CONTINUOUS
 62
     2
 10
1848.408333333
 20
1393.516906667
 30
1.68
 40
16.8
  1
１３５０
 50
0.0
 41
0.9
 51
0.0
  7
KANJI34
  0
TEXT
  8
0
  6
CONTINUOUS
 62
     2
 10
1960.408333333
 20
1393.516906667
 30
1.68
 40
16.8
  1
　　４５
 50
0.0
 41
0.9
 51
0.0
  7
KANJI34
  0
LINE
  8
0
  6
CONTINUOUS
 62
     2
 10
1252.008333333
 20
1384.136906667
 30
0.0
 11
2159.208333333
 21
1384.136906667
 31
0.0
  0
LINE
  8
0
  6
CONTINUOUS
 62
     2
 10
1252.008333333
 20
1347.27024
 30
0.0
 11
2159.208333333
 21
1347.27024
 31
0.0
  0
TEXT
  8
0
  6
CONTINUOUS
 62
     2
 10
1960.408333333
 20
1356.65024
 30
1.68
 40
16.8
  1
　　４５
 50
0.0
 41
0.9
 51
0.0
  7
KANJI34
  0
LINE
  8
0
  6
CONTINUOUS
 62
     2
 10
1252.008333333
 20
1310.403573333
 30
0.0
 11
2159.208333333
 21
1310.403573333
 31
0.0
  0
TEXT
  8
0
  6
CONTINUOUS
 62
     2
 10
1960.408333333
 20
1319.783573333
 30
1.68
 40
16.8
  1
　　４５
 50
0.0
 41
0.9
 51
0.0
  7
KANJI34
  0
LINE
  8
0
  6
CONTINUOUS
 62
     2
 10
1252.008333333
 20
1273.536906667
 30
0.0
 11
2159.208333333
 21
1273.536906667
 31
0.0
  0
TEXT
  8
0
  6
CONTINUOUS
 62
     2
 10
1960.408333333
 20
1282.916906667
 30
1.68
 40
16.8
  1
　　４５
 50
0.0
 41
0.9
 51
0.0
  7
KANJI34
  0
LINE
  8
0
  6
CONTINUOUS
 62
     2
 10
1252.008333333
 20
1236.67024
 30
0.0
 11
2159.208333333
 21
1236.67024
 31
0.0
  0
TEXT
  8
0
  6
CONTINUOUS
 62
     2
 10
1960.408333333
 20
1246.05024
 30
1.68
 40
16.8
  1
　　４５
 50
0.0
 41
0.9
 51
0.0
  7
KANJI34
  0
LINE
  8
0
  6
CONTINUOUS
 62
     2
 10
1252.008333333
 20
1199.803573333
 30
0.0
 11
2159.208333333
 21
1199.803573333
 31
0.0
  0
TEXT
  8
0
  6
CONTINUOUS
 62
     2
 10
1960.408333333
 20
1209.183573333
 30
1.68
 40
16.8
  1
　　４５
 50
0.0
 41
0.9
 51
0.0
  7
KANJI34
  0
LINE
  8
0
  6
CONTINUOUS
 62
     1
 10
1252.008333333
 20
1162.936906667
 30
0.0
 11
2159.208333333
 21
1162.936906667
 31
0.0
  0
LINE
  8
0
  6
CONTINUOUS
 62
     1
 10
2159.208333333
 20
1755.136906667
 30
0.0
 11
2159.208333333
 21
1162.936906667
 31
0.0
  0
LINE
  8
0
  6
CONTINUOUS
 62
     1
 10
1252.008333333
 20
1755.136906667
 30
0.0
 11
1252.008333333
 21
1162.936906667
 31
0.0
  0
LINE
  8
0
  6
CONTINUOUS
 62
     1
 10
1487.208333333
 20
1755.136906667
 30
0.0
 11
1487.208333333
 21
1162.936906667
 31
0.0
  0
LINE
  8
0
  6
CONTINUOUS
 62
     2
 10
1599.208333333
 20
1755.136906667
 30
0.0
 11
1599.208333333
 21
1162.936906667
 31
0.0
  0
LINE
  8
0
  6
CONTINUOUS
 62
     2
 10
1711.208333333
 20
1755.136906667
 30
0.0
 11
1711.208333333
 21
1162.936906667
 31
0.0
  0
LINE
  8
0
  6
CONTINUOUS
 62
     2
 10
1823.208333333
 20
1755.136906667
 30
0.0
 11
1823.208333333
 21
1162.936906667
 31
0.0
  0
LINE
  8
0
  6
CONTINUOUS
 62
     2
 10
1935.208333333
 20
1755.136906667
 30
0.0
 11
1935.208333333
 21
1162.936906667
 31
0.0
  0
LINE
  8
0
  6
CONTINUOUS
 62
     2
 10
2047.208333333
 20
1755.136906667
 30
0.0
 11
2047.208333333
 21
1162.936906667
 31
0.0
  0
TEXT
  8
0
  6
CONTINUOUS
 62
     2
 10
1512.408333333
 20
1356.65024
 30
1.68
 40
16.8
  1
１１００
 50
0.0
 41
0.9
 51
0.0
  7
KANJI34
  0
TEXT
  8
0
  6
CONTINUOUS
 62
     2
 10
1512.408333333
 20
1319.783573333
 30
1.68
 40
16.8
  1
１２００
 50
0.0
 41
0.9
 51
0.0
  7
KANJI34
  0
TEXT
  8
0
  6
CONTINUOUS
 62
     2
 10
1512.408333333
 20
1282.916906667
 30
1.68
 40
16.8
  1
１３００
 50
0.0
 41
0.9
 51
0.0
  7
KANJI34
  0
TEXT
  8
0
  6
CONTINUOUS
 62
     2
 10
1512.408333333
 20
1246.05024
 30
1.68
 40
16.8
  1
１４００
 50
0.0
 41
0.9
 51
0.0
  7
KANJI34
  0
TEXT
  8
0
  6
CONTINUOUS
 62
     2
 10
1512.408333333
 20
1209.183573333
 30
1.68
 40
16.8
  1
１５００
 50
0.0
 41
0.9
 51
0.0
  7
KANJI34
  0
TEXT
  8
0
  6
CONTINUOUS
 62
     2
 10
1848.408333333
 20
1356.65024
 30
1.68
 40
16.8
  1
１４８０
 50
0.0
 41
0.9
 51
0.0
  7
KANJI34
  0
TEXT
  8
0
  6
CONTINUOUS
 62
     2
 10
1848.408333333
 20
1319.783573333
 30
1.68
 40
16.8
  1
１５８０
 50
0.0
 41
0.9
 51
0.0
  7
KANJI34
  0
TEXT
  8
0
  6
CONTINUOUS
 62
     2
 10
1848.408333333
 20
1282.916906667
 30
1.68
 40
16.8
  1
１６８０
 50
0.0
 41
0.9
 51
0.0
  7
KANJI34
  0
TEXT
  8
0
  6
CONTINUOUS
 62
     2
 10
1848.408333333
 20
1246.05024
 30
1.68
 40
16.8
  1
１７８０
 50
0.0
 41
0.9
 51
0.0
  7
KANJI34
  0
TEXT
  8
0
  6
CONTINUOUS
 62
     2
 10
1848.408333333
 20
1209.183573333
 30
1.68
 40
16.8
  1
１８８０
 50
0.0
 41
0.9
 51
0.0
  7
KANJI34
  0
TEXT
  8
0
  6
CONTINUOUS
 62
     2
 10
1736.408333333
 20
1209.183573333
 30
1.68
 40
16.8
  1
１９９５
 50
0.0
 41
0.9
 51
0.0
  7
KANJI34
  0
TEXT
  8
0
  6
CONTINUOUS
 62
     2
 10
1624.408333333
 20
1209.183573333
 30
1.68
 40
16.8
  1
２２２０
 50
0.0
 41
0.9
 51
0.0
  7
KANJI34
  0
TEXT
  8
0
  6
CONTINUOUS
 62
     2
 10
1736.408333333
 20
1246.05024
 30
1.68
 40
16.8
  1
１８９５
 50
0.0
 41
0.9
 51
0.0
  7
KANJI34
  0
TEXT
  8
0
  6
CONTINUOUS
 62
     2
 10
1736.408333333
 20
1282.916906667
 30
1.68
 40
16.8
  1
１７９５
 50
0.0
 41
0.9
 51
0.0
  7
KANJI34
  0
TEXT
  8
0
  6
CONTINUOUS
 62
     2
 10
1736.408333333
 20
1319.783573333
 30
1.68
 40
16.8
  1
１６９５
 50
0.0
 41
0.9
 51
0.0
  7
KANJI34
  0
TEXT
  8
0
  6
CONTINUOUS
 62
     2
 10
1736.408333333
 20
1356.65024
 30
1.68
 40
16.8
  1
１５９５
 50
0.0
 41
0.9
 51
0.0
  7
KANJI34
  0
TEXT
  8
0
  6
CONTINUOUS
 62
     2
 10
1624.408333333
 20
1356.65024
 30
1.68
 40
16.8
  1
１８２０
 50
0.0
 41
0.9
 51
0.0
  7
KANJI34
  0
TEXT
  8
0
  6
CONTINUOUS
 62
     2
 10
1624.408333333
 20
1319.783573333
 30
1.68
 40
16.8
  1
１９２０
 50
0.0
 41
0.9
 51
0.0
  7
KANJI34
  0
TEXT
  8
0
  6
CONTINUOUS
 62
     2
 10
1624.408333333
 20
1282.916906667
 30
1.68
 40
16.8
  1
２０２０
 50
0.0
 41
0.9
 51
0.0
  7
KANJI34
  0
TEXT
  8
0
  6
CONTINUOUS
 62
     2
 10
1624.408333333
 20
1246.05024
 30
1.68
 40
16.8
  1
２１２０
 50
0.0
 41
0.9
 51
0.0
  7
KANJI34
  0
TEXT
  8
0
  6
CONTINUOUS
 62
     2
 10
2072.408333333
 20
1688.45024
 30
1.68
 40
16.8
  1
１０７
 50
0.0
 41
0.9
 51
0.0
  7
KANJI34
  0
TEXT
  8
0
  6
CONTINUOUS
 62
     2
 10
2072.408333333
 20
1651.583573333
 30
1.68
 40
16.8
  1
１０９
 50
0.0
 41
0.9
 51
0.0
  7
KANJI34
  0
TEXT
  8
0
  6
CONTINUOUS
 62
     2
 10
2072.408333333
 20
1614.716906667
 30
1.68
 40
16.8
  1
１１３
 50
0.0
 41
0.9
 51
0.0
  7
KANJI34
  0
TEXT
  8
0
  6
CONTINUOUS
 62
     2
 10
2072.408333333
 20
1577.85024
 30
1.68
 40
16.8
  1
１１７
 50
0.0
 41
0.9
 51
0.0
  7
KANJI34
  0
TEXT
  8
0
  6
CONTINUOUS
 62
     2
 10
2072.408333333
 20
1540.983573333
 30
1.68
 40
16.8
  1
１２２
 50
0.0
 41
0.9
 51
0.0
  7
KANJI34
  0
TEXT
  8
0
  6
CONTINUOUS
 62
     2
 10
2072.408333333
 20
1504.116906667
 30
1.68
 40
16.8
  1
１２７
 50
0.0
 41
0.9
 51
0.0
  7
KANJI34
  0
TEXT
  8
0
  6
CONTINUOUS
 62
     2
 10
2072.408333333
 20
1467.25024
 30
1.68
 40
16.8
  1
１３０
 50
0.0
 41
0.9
 51
0.0
  7
KANJI34
  0
TEXT
  8
0
  6
CONTINUOUS
 62
     2
 10
2072.408333333
 20
1430.383573333
 30
1.68
 40
16.8
  1
１３４
 50
0.0
 41
0.9
 51
0.0
  7
KANJI34
  0
TEXT
  8
0
  6
CONTINUOUS
 62
     2
 10
2072.408333333
 20
1393.516906667
 30
1.68
 40
16.8
  1
１３８
 50
0.0
 41
0.9
 51
0.0
  7
KANJI34
  0
TEXT
  8
0
  6
CONTINUOUS
 62
     2
 10
2072.408333333
 20
1356.65024
 30
1.68
 40
16.8
  1
１４１
 50
0.0
 41
0.9
 51
0.0
  7
KANJI34
  0
TEXT
  8
0
  6
CONTINUOUS
 62
     2
 10
2072.408333333
 20
1319.783573333
 30
1.68
 40
16.8
  1
１４５
 50
0.0
 41
0.9
 51
0.0
  7
KANJI34
  0
TEXT
  8
0
  6
CONTINUOUS
 62
     2
 10
2072.408333333
 20
1282.916906667
 30
1.68
 40
16.8
  1
１４９
 50
0.0
 41
0.9
 51
0.0
  7
KANJI34
  0
TEXT
  8
0
  6
CONTINUOUS
 62
     2
 10
2072.408333333
 20
1246.05024
 30
1.68
 40
16.8
  1
１５３
 50
0.0
 41
0.9
 51
0.0
  7
KANJI34
  0
TEXT
  8
0
  6
CONTINUOUS
 62
     2
 10
2072.408333333
 20
1209.183573333
 30
1.68
 40
16.8
  1
１５８
 50
0.0
 41
0.9
 51
0.0
  7
KANJI34
  0
TEXT
  8
0
  6
CONTINUOUS
 62
     2
 10
1270.208333333
 20
1688.03024
 30
1.12
 40
16.8
  1
ＭＣＬＥ４－　　２
 50
0.0
 41
0.833333333
 51
0.0
  7
KANJI39
  0
TEXT
  8
0
  6
CONTINUOUS
 62
     2
 10
1270.208333333
 20
1651.163573333
 30
1.12
 40
16.8
  1
ＭＣＬＥ４－　　３
 50
0.0
 41
0.833333333
 51
0.0
  7
KANJI39
  0
TEXT
  8
0
  6
CONTINUOUS
 62
     2
 10
1270.208333333
 20
1614.296906667
 30
1.12
 40
16.8
  1
ＭＣＬＥ４－　　４
 50
0.0
 41
0.833333333
 51
0.0
  7
KANJI39
  0
TEXT
  8
0
  6
CONTINUOUS
 62
     2
 10
1270.208333333
 20
1577.43024
 30
1.12
 40
16.8
  1
ＭＣＬＥ４－　　５
 50
0.0
 41
0.833333333
 51
0.0
  7
KANJI39
  0
TEXT
  8
0
  6
CONTINUOUS
 62
     2
 10
1270.208333333
 20
1540.563573333
 30
1.12
 40
16.8
  1
ＭＣＬＥ４－　　６
 50
0.0
 41
0.833333333
 51
0.0
  7
KANJI39
  0
TEXT
  8
0
  6
CONTINUOUS
 62
     2
 10
1270.208333333
 20
1503.696906667
 30
1.12
 40
16.8
  1
ＭＣＬＥ４－　　７
 50
0.0
 41
0.833333333
 51
0.0
  7
KANJI39
  0
TEXT
  8
0
  6
CONTINUOUS
 62
     2
 10
1270.208333333
 20
1466.83024
 30
1.12
 40
16.8
  1
ＭＣＬＥ４－　　８
 50
0.0
 41
0.833333333
 51
0.0
  7
KANJI39
  0
TEXT
  8
0
  6
CONTINUOUS
 62
     2
 10
1270.208333333
 20
1429.963573333
 30
1.12
 40
16.8
  1
ＭＣＬＥ４－　　９
 50
0.0
 41
0.833333333
 51
0.0
  7
KANJI39
  0
TEXT
  8
0
  6
CONTINUOUS
 62
     2
 10
1270.208333333
 20
1393.096906667
 30
1.12
 40
16.8
  1
ＭＣＬＥ４－　１０
 50
0.0
 41
0.833333333
 51
0.0
  7
KANJI39
  0
TEXT
  8
0
  6
CONTINUOUS
 62
     2
 10
1270.208333333
 20
1356.23024
 30
1.12
 40
16.8
  1
ＭＣＬＥ４－　１１
 50
0.0
 41
0.833333333
 51
0.0
  7
KANJI39
  0
TEXT
  8
0
  6
CONTINUOUS
 62
     2
 10
1270.208333333
 20
1319.363573333
 30
1.12
 40
16.8
  1
ＭＣＬＥ４－　１２
 50
0.0
 41
0.833333333
 51
0.0
  7
KANJI39
  0
TEXT
  8
0
  6
CONTINUOUS
 62
     2
 10
1270.208333333
 20
1282.496906667
 30
1.12
 40
16.8
  1
ＭＣＬＥ４－　１３
 50
0.0
 41
0.833333333
 51
0.0
  7
KANJI39
  0
TEXT
  8
0
  6
CONTINUOUS
 62
     2
 10
1270.208333333
 20
1245.63024
 30
1.12
 40
16.8
  1
ＭＣＬＥ４－　１４
 50
0.0
 41
0.833333333
 51
0.0
  7
KANJI39
  0
TEXT
  8
0
  6
CONTINUOUS
 62
     2
 10
1270.208333333
 20
1208.763573333
 30
1.12
 40
16.8
  1
ＭＣＬＥ４－　１５
 50
0.0
 41
0.833333333
 51
0.0
  7
KANJI39
  0
TEXT
  8
0
  6
CONTINUOUS
 62
     2
 10
1270.208333333
 20
1171.896906667
 30
1.12
 40
16.8
  1
ＭＣＬＥ４－　　
 50
0.0
 41
0.833333333
 51
0.0
  7
KANJI39
  0
LINE
  8
0
  6
CONTINUOUS
 62
     1
 10
638.0
 20
607.4999852
 30
0.0
 11
648.0
 21
607.4999852
 31
0.0
  0
LINE
  8
0
  6
LTYPE3
 62
     2
 10
643.0
 20
612.4999852
 30
0.0
 11
643.0
 21
601.7999852
 31
0.0
  0
ARC
  8
0
  6
CONTINUOUS
 62
     1
 10
643.0
 20
608.3999852
 30
0.0
 40
5.1
 50
189.9
 51
350.1
  0
LINE
  8
0
  6
CONTINUOUS
 62
     1
 10
749.0
 20
607.4999852
 30
0.0
 11
759.0
 21
607.4999852
 31
0.0
  0
LINE
  8
0
  6
LTYPE3
 62
     2
 10
754.0
 20
612.4999852
 30
0.0
 11
754.0
 21
601.7999852
 31
0.0
  0
ARC
  8
0
  6
CONTINUOUS
 62
     1
 10
754.0
 20
608.3999852
 30
0.0
 40
5.1
 50
189.9
 51
350.1
  0
LINE
  8
0
  6
CONTINUOUS
 62
     1
 10
1672.9999996
 20
607.4999852
 30
0.0
 11
1682.9999996
 21
607.4999852
 31
0.0
  0
LINE
  8
0
  6
LTYPE3
 62
     2
 10
1677.9999996
 20
612.4999852
 30
0.0
 11
1677.9999996
 21
601.7999852
 31
0.0
  0
ARC
  8
0
  6
CONTINUOUS
 62
     1
 10
1677.9999996
 20
608.3999852
 30
0.0
 40
5.1
 50
189.9
 51
350.1
  0
LINE
  8
0
  6
CONTINUOUS
 62
     1
 10
1762.9999996
 20
607.4999852
 30
0.0
 11
1772.9999996
 21
607.4999852
 31
0.0
  0
LINE
  8
0
  6
LTYPE3
 62
     2
 10
1767.9999996
 20
612.4999852
 30
0.0
 11
1767.9999996
 21
601.7999852
 31
0.0
  0
ARC
  8
0
  6
CONTINUOUS
 62
     1
 10
1767.9999996
 20
608.3999852
 30
0.0
 40
5.1
 50
189.9
 51
350.1
  0
LINE
  8
0
  6
CONTINUOUS
 62
     1
 10
430.8999996
 20
633.4999852
 30
0.0
 11
430.8999996
 21
958.4999852
 31
0.0
  0
LINE
  8
0
  6
LTYPE2
 62
     2
 10
445.5999996
 20
803.4999852
 30
0.0
 11
398.5999996
 21
803.4999852
 31
0.0
  0
LINE
  8
0
  6
CONTINUOUS
 62
     1
 10
413.8999996
 20
803.4999852
 30
0.0
 11
413.8999996
 21
789.668997102
 31
0.0
  0
LINE
  8
0
  6
CONTINUOUS
 62
     1
 10
413.8999996
 20
803.4999852
 30
0.0
 11
413.8999996
 21
817.330973298
 31
0.0
  0
LINE
  8
0
  6
CONTINUOUS
 62
     1
 10
403.900090987
 20
793.056177861
 30
0.0
 11
405.85568071
 21
789.668997102
 31
0.0
  0
LINE
  8
0
  6
CONTINUOUS
 62
     1
 10
403.900090987
 20
803.4999852
 30
0.0
 11
403.900090987
 21
793.056177861
 31
0.0
  0
LINE
  8
0
  6
CONTINUOUS
 62
     1
 10
403.900090987
 20
813.943792539
 30
0.0
 11
405.85568071
 21
817.330973298
 31
0.0
  0
LINE
  8
0
  6
CONTINUOUS
 62
     1
 10
403.900090987
 20
803.4999852
 30
0.0
 11
403.900090987
 21
813.943792539
 31
0.0
  0
ARC
  8
0
  6
CONTINUOUS
 62
     1
 10
417.105414298
 20
803.4999852
 30
0.0
 40
13.20532331
 50
148.419912243
 51
211.580087757
  0
ARC
  8
0
  6
CONTINUOUS
 62
     1
 10
407.933494791
 20
793.126744127
 30
0.0
 40
4.034021051
 50
121.002313915
 51
182.989498403
  0
LINE
  8
0
  6
CONTINUOUS
 62
     1
 10
403.900090987
 20
813.943792539
 30
0.0
 11
405.85568071
 21
817.330973298
 31
0.0
  0
ARC
  8
0
  6
CONTINUOUS
 62
     1
 10
407.933494791
 20
813.873226273
 30
0.0
 40
4.034021051
 50
177.010501597
 51
238.997686085
  0
LINE
  8
0
  6
CONTINUOUS
 62
     1
 10
413.8999996
 20
789.668997102
 30
0.0
 11
405.85568071
 21
789.668997102
 31
0.0
  0
LINE
  8
0
  6
CONTINUOUS
 62
     1
 10
413.8999996
 20
796.584491151
 30
0.0
 11
405.85568071
 21
796.584491151
 31
0.0
  0
LINE
  8
0
  6
CONTINUOUS
 62
     1
 10
413.8999996
 20
810.415479249
 30
0.0
 11
405.85568071
 21
810.415479249
 31
0.0
  0
LINE
  8
0
  6
CONTINUOUS
 62
     1
 10
413.8999996
 20
817.330973298
 30
0.0
 11
405.85568071
 21
817.330973298
 31
0.0
  0
LINE
  8
0
  6
LTYPE2
 62
     2
 10
447.5999996
 20
653.4999852
 30
0.0
 11
393.5999996
 21
653.4999852
 31
0.0
  0
LINE
  8
0
  6
CONTINUOUS
 62
     1
 10
413.8999996
 20
653.4999852
 30
0.0
 11
413.8999996
 21
639.668997102
 31
0.0
  0
LINE
  8
0
  6
CONTINUOUS
 62
     1
 10
413.8999996
 20
653.4999852
 30
0.0
 11
413.8999996
 21
667.330973298
 31
0.0
  0
LINE
  8
0
  6
CONTINUOUS
 62
     1
 10
403.900090987
 20
653.4999852
 30
0.0
 11
403.900090987
 21
643.056177861
 31
0.0
  0
LINE
  8
0
  6
CONTINUOUS
 62
     1
 10
403.900090987
 20
663.943792539
 30
0.0
 11
405.85568071
 21
667.330973298
 31
0.0
  0
LINE
  8
0
  6
CONTINUOUS
 62
     1
 10
403.900090987
 20
653.4999852
 30
0.0
 11
403.900090987
 21
663.943792539
 31
0.0
  0
ARC
  8
0
  6
CONTINUOUS
 62
     1
 10
417.105414298
 20
653.4999852
 30
0.0
 40
13.20532331
 50
148.419912243
 51
211.580087757
  0
ARC
  8
0
  6
CONTINUOUS
 62
     1
 10
407.933494791
 20
643.126744127
 30
0.0
 40
4.034021051
 50
121.002313915
 51
182.989498403
  0
LINE
  8
0
  6
CONTINUOUS
 62
     1
 10
403.900090987
 20
663.943792539
 30
0.0
 11
405.85568071
 21
667.330973298
 31
0.0
  0
ARC
  8
0
  6
CONTINUOUS
 62
     1
 10
407.933494791
 20
663.873226273
 30
0.0
 40
4.034021051
 50
177.010501597
 51
238.997686085
  0
LINE
  8
0
  6
CONTINUOUS
 62
     1
 10
413.8999996
 20
646.584491151
 30
0.0
 11
405.85568071
 21
646.584491151
 31
0.0
  0
LINE
  8
0
  6
CONTINUOUS
 62
     1
 10
413.8999996
 20
660.415479249
 30
0.0
 11
405.85568071
 21
660.415479249
 31
0.0
  0
LINE
  8
0
  6
CONTINUOUS
 62
     1
 10
413.8999996
 20
667.330973298
 30
0.0
 11
405.85568071
 21
667.330973298
 31
0.0
  0
LINE
  8
0
  6
CONTINUOUS
 62
     1
 10
403.900090987
 20
643.056177861
 30
0.0
 11
405.85568071
 21
639.668997102
 31
0.0
  0
LINE
  8
0
  6
CONTINUOUS
 62
     1
 10
413.8999996
 20
639.668997102
 30
0.0
 11
405.85568071
 21
639.668997102
 31
0.0
  0
LINE
  8
0
  6
CONTINUOUS
 62
     2
 10
413.8999996
 20
624.4999852
 30
0.0
 11
413.8999996
 21
482.4999852
 31
0.0
  0
LINE
  8
0
  6
CONTINUOUS
 62
     2
 10
413.8999996
 20
491.4999852
 30
0.0
 11
428.388886994
 21
495.382270877
 31
0.0
  0
LINE
  8
0
  6
CONTINUOUS
 62
     2
 10
413.8999996
 20
491.4999852
 30
0.0
 11
428.388886994
 21
487.617699523
 31
0.0
  0
LINE
  8
0
  6
CONTINUOUS
 62
     2
 10
413.8999996
 20
482.4999852
 30
0.0
 11
413.8999996
 21
443.9999852
 31
0.0
  0
LINE
  8
0
  6
CONTINUOUS
 62
     2
 10
413.8999996
 20
452.9999852
 30
0.0
 11
428.388886994
 21
456.882270877
 31
0.0
  0
LINE
  8
0
  6
CONTINUOUS
 62
     2
 10
413.8999996
 20
452.9999852
 30
0.0
 11
428.388886994
 21
449.117699523
 31
0.0
  0
LINE
  8
0
  6
CONTINUOUS
 62
     2
 10
413.8999996
 20
443.9999852
 30
0.0
 11
413.8999996
 21
405.9999852
 31
0.0
  0
LINE
  8
0
  6
CONTINUOUS
 62
     2
 10
413.8999996
 20
414.9999852
 30
0.0
 11
428.388886994
 21
418.882270877
 31
0.0
  0
LINE
  8
0
  6
CONTINUOUS
 62
     2
 10
413.8999996
 20
414.9999852
 30
0.0
 11
428.388886994
 21
411.117699523
 31
0.0
  0
LINE
  8
0
  6
CONTINUOUS
 62
     1
 10
518.8999996
 20
865.2499852
 30
0.0
 11
413.8999996
 21
865.2499852
 31
0.0
  0
LINE
  8
0
  6
CONTINUOUS
 62
     1
 10
413.8999996
 20
633.4999852
 30
0.0
 11
413.8999996
 21
865.2499852
 31
0.0
  0
LINE
  8
0
  6
CONTINUOUS
 62
     1
 10
538.8999996
 20
633.4999852
 30
0.0
 11
413.8999996
 21
633.4999852
 31
0.0
  0
LINE
  8
0
  6
CONTINUOUS
 62
     2
 10
538.8999996
 20
491.4999852
 30
0.0
 11
413.8999996
 21
491.4999852
 31
0.0
  0
LINE
  8
0
  6
CONTINUOUS
 62
     2
 10
413.8999996
 20
452.9999852
 30
0.0
 11
638.8999996
 21
452.9999852
 31
0.0
  0
LINE
  8
0
  6
CONTINUOUS
 62
     2
 10
1273.4999996
 20
414.9999852
 30
0.0
 11
413.8999996
 21
414.9999852
 31
0.0
  0
CIRCLE
  8
0
  6
CONTINUOUS
 62
     1
 10
1273.4999996
 20
728.4999852
 30
0.0
 40
28.0
  0
CIRCLE
  8
0
  6
CONTINUOUS
 62
     1
 10
1273.4999996
 20
745.9999852
 30
0.0
 40
2.5
  0
LINE
  8
0
  6
CONTINUOUS
 62
     1
 10
1277.6999996
 20
709.1999852
 30
0.0
 11
1275.6999996
 21
708.8999852
 31
0.0
  0
LINE
  8
0
  6
CONTINUOUS
 62
     1
 10
1275.435384215
 20
712.030754431
 30
0.0
 11
1277.6999996
 21
709.1999852
 31
0.0
  0
LINE
  8
0
  6
CONTINUOUS
 62
     1
 10
1273.4999996
 20
711.5999852
 30
0.0
 11
1275.6999996
 21
708.8999852
 31
0.0
  0
LINE
  8
0
  6
CONTINUOUS
 62
     1
 10
1275.1999996
 20
713.5999852
 30
0.0
 11
1275.435384215
 21
712.030754431
 31
0.0
  0
LINE
  8
0
  6
CONTINUOUS
 62
     1
 10
1273.4999996
 20
711.5999852
 30
0.0
 11
1271.2999996
 21
708.8999852
 31
0.0
  0
LINE
  8
0
  6
CONTINUOUS
 62
     1
 10
1271.7999996
 20
713.5999852
 30
0.0
 11
1271.564614985
 21
712.030754431
 31
0.0
  0
LINE
  8
0
  6
CONTINUOUS
 62
     1
 10
1269.2999996
 20
709.1999852
 30
0.0
 11
1271.2999996
 21
708.8999852
 31
0.0
  0
LINE
  8
0
  6
CONTINUOUS
 62
     1
 10
1271.564614985
 20
712.030754431
 30
0.0
 11
1269.2999996
 21
709.1999852
 31
0.0
  0
LINE
  8
0
  6
CONTINUOUS
 62
     1
 10
1158.4999996
 20
946.6999852
 30
0.0
 11
1203.4999996
 21
946.6999852
 31
0.0
  0
LINE
  8
0
  6
CONTINUOUS
 62
     1
 10
1158.4999996
 20
1023.6999852
 30
0.0
 11
1203.4999996
 21
1023.6999852
 31
0.0
  0
LINE
  8
0
  6
CONTINUOUS
 62
     2
 10
1294.4799996
 20
1081.4599852
 30
0.0
 11
1282.405926771
 21
1084.695223264
 31
0.0
  0
LINE
  8
0
  6
CONTINUOUS
 62
     2
 10
1294.4799996
 20
1081.4599852
 30
0.0
 11
1282.405926771
 21
1078.224747136
 31
0.0
  0
LINE
  8
0
  6
CONTINUOUS
 62
     2
 10
1294.4799996
 20
1081.4599852
 30
0.0
 11
1253.4799996
 21
1081.4599852
 31
0.0
  0
TEXT
  8
0
  6
CONTINUOUS
 62
     3
 10
1260.4799996
 20
1091.4599852
 30
0.0
 40
20.0
  1
前進
 50
0.0
 41
0.925
 51
0.0
  7
KANJI40
  0
TEXT
  8
0
  6
CONTINUOUS
 62
     6
 10
134.65790099
 20
1585.899357623
 30
1.82231734
 40
18.223173404
  1
クイックブレーキモータ
 50
0.0
 41
0.66671875
 51
0.0
  7
KANJI41
  0
CIRCLE
  8
0
  6
CONTINUOUS
 62
     6
 10
179.099333333
 20
1523.932
 30
0.0
 40
21.6
  0
TEXT
  8
0
  6
CONTINUOUS
 62
     6
 10
170.027333333
 20
1513.564
 30
2.16
 40
21.6
  1
Ｍ
 50
0.0
 41
0.9
 51
0.0
  7
KANJI42
  0
LINE
  8
0
  6
CONTINUOUS
 62
     6
 10
150.587333333
 20
1493.692
 30
0.0
 11
163.979333333
 21
1509.244
 31
0.0
  0
LINE
  8
0
  6
CONTINUOUS
 62
     6
 10
150.587333333
 20
1554.172
 30
0.0
 11
163.979333333
 21
1538.62
 31
0.0
  0
CIRCLE
  8
0
  6
CONTINUOUS
 62
     6
 10
125.963333333
 20
1554.172
 30
0.0
 40
5.184
  0
LINE
  8
0
  6
CONTINUOUS
 62
     6
 10
120.007437218
 20
1548.216103884
 30
0.0
 11
132.103437218
 21
1560.312103884
 31
0.0
  0
CIRCLE
  8
0
  6
CONTINUOUS
 62
     6
 10
125.963333333
 20
1523.932
 30
0.0
 40
5.184
  0
LINE
  8
0
  6
CONTINUOUS
 62
     6
 10
120.007437218
 20
1517.976103884
 30
0.0
 11
132.103437218
 21
1530.072103884
 31
0.0
  0
CIRCLE
  8
0
  6
CONTINUOUS
 62
     6
 10
125.963333333
 20
1493.692
 30
0.0
 40
5.184
  0
LINE
  8
0
  6
CONTINUOUS
 62
     6
 10
120.007437218
 20
1487.736103884
 30
0.0
 11
132.103437218
 21
1499.832103884
 31
0.0
  0
LINE
  8
0
  6
CONTINUOUS
 62
     6
 10
150.587333333
 20
1554.172
 30
0.0
 11
131.147333333
 21
1554.172
 31
0.0
  0
LINE
  8
0
  6
CONTINUOUS
 62
     6
 10
157.931333333
 20
1523.932
 30
0.0
 11
131.147333333
 21
1523.932
 31
0.0
  0
LINE
  8
0
  6
CONTINUOUS
 62
     6
 10
150.587333333
 20
1493.692
 30
0.0
 11
131.147333333
 21
1493.692
 31
0.0
  0
LINE
  8
0
  6
LTYPE2
 62
     6
 10
125.963333333
 20
1577.5
 30
0.0
 11
125.963333333
 21
1558.06
 31
0.0
  0
LINE
  8
0
  6
LTYPE2
 62
     6
 10
125.963333333
 20
1549.42
 30
0.0
 11
125.963333333
 21
1527.82
 31
0.0
  0
LINE
  8
0
  6
LTYPE2
 62
     6
 10
125.963333333
 20
1519.18
 30
0.0
 11
125.963333333
 21
1498.012
 31
0.0
  0
TEXT
  8
0
  6
CONTINUOUS
 62
     6
 10
105.179333333
 20
1561.516
 30
1.296
 40
12.96
  1
Ｕ
 50
0.0
 41
0.9
 51
0.0
  7
KANJI43
  0
TEXT
  8
0
  6
CONTINUOUS
 62
     6
 10
106.475333333
 20
1530.844
 30
1.296
 40
12.96
  1
Ｖ
 50
0.0
 41
0.9
 51
0.0
  7
KANJI43
  0
TEXT
  8
0
  6
CONTINUOUS
 62
     6
 10
107.771333333
 20
1500.172
 30
1.296
 40
12.96
  1
Ｗ
 50
0.0
 41
0.9
 51
0.0
  7
KANJI43
  0
LINE
  8
0
  6
LTYPE2
 62
     6
 10
280.523333333
 20
1577.5
 30
0.0
 11
125.963333333
 21
1577.5
 31
0.0
  0
TEXT
  8
0
  6
CONTINUOUS
 62
     6
 10
210.203333333
 20
1514.1472
 30
1.728
 40
17.28
  1
Ｂ
 50
0.0
 41
0.9
 51
0.0
  7
KANJI44
  0
CIRCLE
  8
0
  6
CONTINUOUS
 62
     6
 10
217.979333333
 20
1523.932
 30
0.0
 40
17.28
  0
LINE
  8
0
  6
CONTINUOUS
 62
     6
 10
245.579333333
 20
1493.5192
 30
0.0
 11
226.600317764
 21
1508.956118475
 31
0.0
  0
LINE
  8
0
  6
CONTINUOUS
 62
     6
 10
208.994658407
 20
1509.171443897
 30
0.0
 11
189.899333333
 21
1493.5192
 31
0.0
  0
CIRCLE
  8
0
  6
CONTINUOUS
 62
     6
 10
189.899333333
 20
1444.4872
 30
0.0
 40
5.184
  0
LINE
  8
0
  6
CONTINUOUS
 62
     6
 10
183.943437218
 20
1438.531303884
 30
0.0
 11
196.039437218
 21
1450.627303884
 31
0.0
  0
CIRCLE
  8
0
  6
CONTINUOUS
 62
     6
 10
217.739333333
 20
1444.4872
 30
0.0
 40
5.184
  0
LINE
  8
0
  6
CONTINUOUS
 62
     6
 10
211.783437218
 20
1438.531303884
 30
0.0
 11
223.879437218
 21
1450.627303884
 31
0.0
  0
LINE
  8
0
  6
LTYPE2
 62
     6
 10
195.083333333
 20
1444.4872
 30
0.0
 11
212.459333333
 21
1444.4872
 31
0.0
  0
CIRCLE
  8
0
  6
CONTINUOUS
 62
     6
 10
245.579333333
 20
1444.4872
 30
0.0
 40
5.184
  0
LINE
  8
0
  6
CONTINUOUS
 62
     6
 10
239.623437218
 20
1438.531303884
 30
0.0
 11
251.719437218
 21
1450.627303884
 31
0.0
  0
LINE
  8
0
  6
LTYPE2
 62
     6
 10
222.539333333
 20
1444.4872
 30
0.0
 11
240.779333333
 21
1444.4872
 31
0.0
  0
TEXT
  8
0
  6
CONTINUOUS
 62
     6
 10
203.003333333
 20
1447.3192
 30
1.296
 40
12.96
  1
ｖ
 50
0.0
 41
0.9
 51
0.0
  7
KANJI43
  0
TEXT
  8
0
  6
CONTINUOUS
 62
     6
 10
230.843333333
 20
1447.3192
 30
1.296
 40
12.96
  1
ｗ
 50
0.0
 41
0.9
 51
0.0
  7
KANJI43
  0
TEXT
  8
0
  6
CONTINUOUS
 62
     6
 10
175.979333333
 20
1448.1832
 30
1.296
 40
12.96
  1
ｕ
 50
0.0
 41
0.9
 51
0.0
  7
KANJI43
  0
LINE
  8
0
  6
CONTINUOUS
 62
     6
 10
189.899333333
 20
1449.6712
 30
0.0
 11
189.899333333
 21
1493.5192
 31
0.0
  0
LINE
  8
0
  6
CONTINUOUS
 62
     6
 10
217.739333333
 20
1449.6712
 30
0.0
 11
217.739333333
 21
1506.94
 31
0.0
  0
LINE
  8
0
  6
CONTINUOUS
 62
     6
 10
245.579333333
 20
1449.6712
 30
0.0
 11
245.579333333
 21
1493.5192
 31
0.0
  0
LINE
  8
0
  6
LTYPE2
 62
     6
 10
251.339333333
 20
1444.4872
 30
0.0
 11
280.523333333
 21
1444.4872
 31
0.0
  0
LINE
  8
0
  6
LTYPE2
 62
     6
 10
280.523333333
 20
1444.4872
 30
0.0
 11
280.523333333
 21
1577.5
 31
0.0
  0
LINE
  8
0
  6
LTYPE2
 62
     6
 10
125.963333333
 20
1444.4872
 30
0.0
 11
184.715333333
 21
1444.4872
 31
0.0
  0
LINE
  8
0
  6
LTYPE2
 62
     6
 10
125.963333333
 20
1488.508
 30
0.0
 11
125.963333333
 21
1444.4872
 31
0.0
  0
TEXT
  8
0
  6
CONTINUOUS
 62
     2
 10
142.37780537
 20
1409.454685773
 30
0.0
 40
18.72
  1
モーター結線図
 50
0.0
 41
0.925
 51
0.0
  7
KANJI45
  0
TEXT
  8
0
  6
CONTINUOUS
 62
     2
 10
442.3999996
 20
1168.2499852
 30
0.0
 40
21.0
  1
１４２
 50
0.0
 41
0.9
 51
0.0
  7
KANJI15
  0
TEXT
  8
7
  6
CONTINUOUS
 62
     2
 10
260.3399996
 20
1023.8299852
 30
0.0
 40
21.0
  1
手動軸カバー
 50
0.0
 41
0.9
 51
0.0
  7
KANJI15
  0
TEXT
  8
7
  6
CONTINUOUS
 62
     2
 10
260.3399996
 20
990.8299852
 30
0.0
 40
21.0
  1
手動軸□１０
 50
0.0
 41
0.9
 51
0.0
  7
KANJI15
  0
POLYLINE
  8
7
  6
CONTINUOUS
 62
     2
 66
     1
  0
VERTEX
  8
7
  6
CONTINUOUS
 62
     2
 10
394.9999996
 20
925.0999852
 30
0.0
  0
VERTEX
  8
7
  6
CONTINUOUS
 62
     2
 10
380.075643377
 20
1017.8299852
 30
0.0
  0
VERTEX
  8
7
  6
CONTINUOUS
 62
     2
 10
260.3399996
 20
1017.8299852
 30
0.0
  0
SEQEND
  0
ARC
  8
0
  6
CONTINUOUS
 62
     2
 10
365.3999996
 20
910.8999852
 30
0.0
 40
20.0
 50
231.952957468
 51
156.801409486
  0
LINE
  8
0
  6
CONTINUOUS
 62
     2
 10
347.017099
 20
918.778371172
 30
0.0
 11
349.31179171
 21
928.615809949
 31
0.0
  0
LINE
  8
0
  6
CONTINUOUS
 62
     2
 10
347.017099
 20
918.778371172
 30
0.0
 11
355.285260378
 21
923.685707707
 31
0.0
  0
TEXT
  8
0
  6
CONTINUOUS
 62
     2
 10
285.017099
 20
901.778371172
 30
0.0
 40
15.0
  1
前進方向
 50
0.0
 41
0.9
 51
0.0
  7
KANJI46
  0
LINE
  8
0
  6
CONTINUOUS
 62
     1
 10
488.3999996
 20
803.4999852
 30
0.0
 11
488.3999996
 21
733.4999852
 31
0.0
  0
TEXT
  8
0
  6
CONTINUOUS
 62
     2
 10
493.3999996
 20
792.4999852
 30
5.0
 40
20.0
  1
銘板
 50
270.0
 41
0.925
 51
0.0
  7
KANJI47
  0
LINE
  8
0
  6
CONTINUOUS
 62
     1
 10
531.3999996
 20
803.4999852
 30
0.0
 11
488.3999996
 21
803.4999852
 31
0.0
  0
LINE
  8
0
  6
CONTINUOUS
 62
     1
 10
531.3999996
 20
733.4999852
 30
0.0
 11
488.3999996
 21
733.4999852
 31
0.0
  0
LINE
  8
0
  6
CONTINUOUS
 62
     1
 10
531.3999996
 20
803.4999852
 30
0.0
 11
531.3999996
 21
733.4999852
 31
0.0
  0
LINE
  8
0
  6
CONTINUOUS
 62
     2
 10
409.805993981
 20
250.004856554
 30
0.0
 11
842.093402718
 21
250.004856554
 31
0.0
  0
TEXT
  8
0
  6
CONTINUOUS
 62
     2
 10
411.805993981
 20
258.004856554
 30
0.0
 40
20.0
  1
推力リミッタの作動値は、約４４００ｋｇ（設計値）
 50
0.0
 41
0.925
 51
0.0
  7
KANJI40
  0
TEXT
  8
0
  6
CONTINUOUS
 62
     2
 10
1983.930561433
 20
551.027337533
 30
7.182
 40
25.2
  1
　　前後の推奨余裕寸法は、各々１５ｍｍです。
 50
0.0
 41
0.857222222
 51
0.0
  7
KANJI31
  0
TEXT
  8
0
  6
CONTINUOUS
 62
     2
 10
1296.483160333
 20
1779.267013333
 30
1.749993
 40
17.49993
  1
注意：サーマルリレー等の選定は、上記の値で選定して下さい。
 50
0.0
 41
0.9
 51
0.0
  7
KANJI48
  0
LINE
  8
0
  6
CONTINUOUS
 62
     2
 10
1288.483200333
 20
1774.267033333
 30
0.0
 11
1794.271320333
 21
1774.267033333
 31
0.0
  0
TEXT
  8
0
  6
CONTINUOUS
 62
     2
 10
202.393333333
 20
30.983333333
 30
0.0
 40
21.0
  1
ＦＤ　Ｎｏ．ＭＣ２３０
 50
0.0
 41
0.9
 51
0.0
  7
KANJI15
  0
TEXT
  8
0
  6
CONTINUOUS
 62
     2
 10
1438.232593333
 20
1873.433303333
 30
1.499994
 40
14.99994
  1
２２．１
 50
0.0
 41
0.9
 51
0.0
  7
KANJI22
  0
TEXT
  8
0
  6
CONTINUOUS
 62
     2
 10
1438.232593333
 20
1843.433423333
 30
1.499994
 40
14.99994
  1
１９．２
 50
0.0
 41
0.9
 51
0.0
  7
KANJI22
  0
TEXT
  8
0
  6
CONTINUOUS
 62
     2
 10
1438.232593333
 20
1813.433543333
 30
1.499994
 40
14.99994
  1
２１．１
 50
0.0
 41
0.9
 51
0.0
  7
KANJI22
  0
TEXT
  8
0
  6
CONTINUOUS
 62
     2
 10
1737.689756667
 20
1841.141760833
 30
1.499994
 40
14.99994
  1
３８．２
 50
0.0
 41
0.9
 51
0.0
  7
KANJI22
  0
TEXT
  8
0
  6
CONTINUOUS
 62
     2
 10
1738.939751667
 20
1812.808540833
 30
1.499994
 40
14.99994
  1
４２．１
 50
0.0
 41
0.9
 51
0.0
  7
KANJI22
  0
LINE
  8
0
  6
CONTINUOUS
 62
     2
 10
491.496721841
 20
1512.266660949
 30
0.0
 11
499.224128451
 21
1510.196108588
 31
0.0
  0
LINE
  8
0
  6
CONTINUOUS
 62
     2
 10
491.496721841
 20
1512.266660949
 30
0.0
 11
499.224128451
 21
1514.33721331
 31
0.0
  0
LINE
  8
0
  6
CONTINUOUS
 62
     2
 10
491.496721841
 20
1512.266660949
 30
0.0
 11
629.096721841
 21
1512.266660949
 31
0.0
  0
LINE
  8
0
  6
CONTINUOUS
 62
     2
 10
629.096721841
 20
1512.266660949
 30
0.0
 11
621.369315231
 21
1514.33721331
 31
0.0
  0
LINE
  8
0
  6
CONTINUOUS
 62
     2
 10
629.096721841
 20
1512.266660949
 30
0.0
 11
621.369315231
 21
1510.196108588
 31
0.0
  0
LINE
  8
0
  6
CONTINUOUS
 62
     2
 10
629.096721841
 20
1511.066660949
 30
0.0
 11
629.096721841
 21
1508.266660949
 31
0.0
  0
LINE
  8
0
  6
CONTINUOUS
 62
     2
 10
629.096721841
 20
1512.266660949
 30
0.0
 11
636.824128451
 21
1510.196108588
 31
0.0
  0
LINE
  8
0
  6
CONTINUOUS
 62
     2
 10
629.096721841
 20
1512.266660949
 30
0.0
 11
636.824128451
 21
1514.33721331
 31
0.0
  0
LINE
  8
0
  6
CONTINUOUS
 62
     2
 10
629.096721841
 20
1512.266660949
 30
0.0
 11
831.496721841
 21
1512.266660949
 31
0.0
  0
LINE
  8
0
  6
CONTINUOUS
 62
     2
 10
831.496721841
 20
1512.266660949
 30
0.0
 11
823.769315231
 21
1514.33721331
 31
0.0
  0
LINE
  8
0
  6
CONTINUOUS
 62
     2
 10
831.496721841
 20
1512.266660949
 30
0.0
 11
823.769315231
 21
1510.196108588
 31
0.0
  0
LINE
  8
0
  6
CONTINUOUS
 62
     2
 10
629.096721841
 20
1485.93721331
 30
0.0
 11
621.369315231
 21
1488.00776567
 31
0.0
  0
LINE
  8
0
  6
CONTINUOUS
 62
     2
 10
629.096721841
 20
1485.93721331
 30
0.0
 11
621.369315231
 21
1483.866660949
 31
0.0
  0
LINE
  8
0
  6
CONTINUOUS
 62
     2
 10
617.096721841
 20
1485.93721331
 30
0.0
 11
629.096721841
 21
1485.93721331
 31
0.0
  0
LINE
  8
0
  6
CONTINUOUS
 62
     2
 10
629.096721841
 20
1485.93721331
 30
0.0
 11
649.896721841
 21
1485.93721331
 31
0.0
  0
LINE
  8
0
  6
CONTINUOUS
 62
     2
 10
649.896721841
 20
1485.93721331
 30
0.0
 11
657.624128451
 21
1483.866660949
 31
0.0
  0
LINE
  8
0
  6
CONTINUOUS
 62
     2
 10
649.896721841
 20
1485.93721331
 30
0.0
 11
657.624128451
 21
1488.00776567
 31
0.0
  0
LINE
  8
0
  6
CONTINUOUS
 62
     2
 10
491.496721841
 20
1460.666660949
 30
0.0
 11
491.496721841
 21
1454.666660949
 31
0.0
  0
LINE
  8
0
  6
CONTINUOUS
 62
     2
 10
491.496721841
 20
1458.666660949
 30
0.0
 11
499.224128451
 21
1456.596108588
 31
0.0
  0
LINE
  8
0
  6
CONTINUOUS
 62
     2
 10
491.496721841
 20
1458.666660949
 30
0.0
 11
499.224128451
 21
1460.73721331
 31
0.0
  0
LINE
  8
0
  6
CONTINUOUS
 62
     2
 10
491.496721841
 20
1458.666660949
 30
0.0
 11
649.896721841
 21
1458.666660949
 31
0.0
  0
LINE
  8
0
  6
CONTINUOUS
 62
     2
 10
649.896721841
 20
1458.666660949
 30
0.0
 11
642.169315231
 21
1460.73721331
 31
0.0
  0
LINE
  8
0
  6
CONTINUOUS
 62
     2
 10
649.896721841
 20
1458.666660949
 30
0.0
 11
642.169315231
 21
1456.596108588
 31
0.0
  0
LINE
  8
0
  6
CONTINUOUS
 62
     2
 10
649.896721841
 20
1459.866660949
 30
0.0
 11
649.896721841
 21
1454.666660949
 31
0.0
  0
LINE
  8
0
  6
CONTINUOUS
 62
     2
 10
649.896721841
 20
1458.666660949
 30
0.0
 11
657.624128451
 21
1456.596108588
 31
0.0
  0
LINE
  8
0
  6
CONTINUOUS
 62
     2
 10
649.896721841
 20
1458.666660949
 30
0.0
 11
657.624128451
 21
1460.73721331
 31
0.0
  0
LINE
  8
0
  6
CONTINUOUS
 62
     2
 10
831.496721841
 20
1455.066660949
 30
0.0
 11
831.496721841
 21
1454.666660949
 31
0.0
  0
LINE
  8
0
  6
CONTINUOUS
 62
     2
 10
491.496721841
 20
1429.466660949
 30
0.0
 11
499.224128451
 21
1427.396108588
 31
0.0
  0
LINE
  8
0
  6
CONTINUOUS
 62
     2
 10
491.496721841
 20
1429.466660949
 30
0.0
 11
499.224128451
 21
1431.53721331
 31
0.0
  0
LINE
  8
0
  6
CONTINUOUS
 62
     2
 10
491.496721841
 20
1429.466660949
 30
0.0
 11
809.096721841
 21
1429.466660949
 31
0.0
  0
LINE
  8
0
  6
CONTINUOUS
 62
     2
 10
809.096721841
 20
1429.466660949
 30
0.0
 11
801.369315231
 21
1431.53721331
 31
0.0
  0
LINE
  8
0
  6
CONTINUOUS
 62
     2
 10
809.096721841
 20
1429.466660949
 30
0.0
 11
801.369315231
 21
1427.396108588
 31
0.0
  0
LINE
  8
0
  6
CONTINUOUS
 62
     2
 10
809.096721841
 20
1430.266660949
 30
0.0
 11
809.096721841
 21
1425.466660949
 31
0.0
  0
LINE
  8
0
  6
CONTINUOUS
 62
     2
 10
809.096721841
 20
1429.466660949
 30
0.0
 11
801.369315231
 21
1431.53721331
 31
0.0
  0
LINE
  8
0
  6
CONTINUOUS
 62
     2
 10
809.096721841
 20
1429.466660949
 30
0.0
 11
801.369315231
 21
1427.396108588
 31
0.0
  0
LINE
  8
0
  6
CONTINUOUS
 62
     2
 10
797.096721841
 20
1429.466660949
 30
0.0
 11
809.096721841
 21
1429.466660949
 31
0.0
  0
LINE
  8
0
  6
CONTINUOUS
 62
     2
 10
809.096721841
 20
1429.466660949
 30
0.0
 11
831.496721841
 21
1429.466660949
 31
0.0
  0
LINE
  8
0
  6
CONTINUOUS
 62
     2
 10
831.496721841
 20
1429.466660949
 30
0.0
 11
839.224128451
 21
1427.396108588
 31
0.0
  0
LINE
  8
0
  6
CONTINUOUS
 62
     2
 10
831.496721841
 20
1429.466660949
 30
0.0
 11
839.224128451
 21
1431.53721331
 31
0.0
  0
LINE
  8
0
  6
CONTINUOUS
 62
     2
 10
491.496721841
 20
1523.066660949
 30
0.0
 11
491.496721841
 21
1508.266660949
 31
0.0
  0
LINE
  8
0
  6
CONTINUOUS
 62
     2
 10
831.496721841
 20
1523.066660949
 30
0.0
 11
831.496721841
 21
1508.266660949
 31
0.0
  0
LINE
  8
0
  6
CONTINUOUS
 62
     2
 10
629.096721841
 20
1511.866660949
 30
0.0
 11
629.096721841
 21
1523.066660949
 31
0.0
  0
LINE
  8
0
  6
CONTINUOUS
 62
     2
 10
649.896721841
 20
1498.73721331
 30
0.0
 11
649.896721841
 21
1481.93721331
 31
0.0
  0
LINE
  8
0
  6
CONTINUOUS
 62
     2
 10
491.496721841
 20
1508.266660949
 30
0.0
 11
491.496721841
 21
1416.266660949
 31
0.0
  0
LINE
  8
0
  6
CONTINUOUS
 62
     2
 10
831.496721841
 20
1512.266660949
 30
0.0
 11
831.496721841
 21
1417.466660949
 31
0.0
  0
LINE
  8
0
  6
CONTINUOUS
 62
     2
 10
649.896721841
 20
1485.93721331
 30
0.0
 11
649.896721841
 21
1449.466660949
 31
0.0
  0
LINE
  8
0
  6
CONTINUOUS
 62
     2
 10
629.096721841
 20
1512.266660949
 30
0.0
 11
629.096721841
 21
1476.666660949
 31
0.0
  0
TEXT
  8
0
  6
CONTINUOUS
 62
     3
 10
533.296721841
 20
1514.266660949
 30
0.0
 40
15.0
  1
ｍｉｎ．Ｌ
 50
0.0
 41
0.9
 51
0.0
  7
KANJI46
  0
TEXT
  8
0
  6
CONTINUOUS
 62
     3
 10
687.096721841
 20
1514.266660949
 30
0.0
 40
15.0
  1
機械的ストローク
 50
0.0
 41
0.9
 51
0.0
  7
KANJI46
  0
TEXT
  8
0
  6
CONTINUOUS
 62
     3
 10
661.896721841
 20
1487.93721331
 30
0.0
 40
15.0
  1
余裕
 50
0.0
 41
0.9
 51
0.0
  7
KANJI46
  0
TEXT
  8
0
  6
CONTINUOUS
 62
     3
 10
543.696721841
 20
1460.666660949
 30
0.0
 40
15.0
  1
常用ｍｉｎ
 50
0.0
 41
0.9
 51
0.0
  7
KANJI46
  0
TEXT
  8
0
  6
CONTINUOUS
 62
     3
 10
623.296721841
 20
1431.466660949
 30
0.0
 40
15.0
  1
常用ｍａｘ
 50
0.0
 41
0.9
 51
0.0
  7
KANJI46
  0
TEXT
  8
0
  6
CONTINUOUS
 62
     3
 10
843.496721841
 20
1431.466660949
 30
0.0
 40
15.0
  1
余裕
 50
0.0
 41
0.9
 51
0.0
  7
KANJI46
  0
LINE
  8
0
  6
CONTINUOUS
 62
     2
 10
649.896721841
 20
1485.93721331
 30
0.0
 11
689.996721841
 21
1485.93721331
 31
0.0
  0
LINE
  8
0
  6
CONTINUOUS
 62
     2
 10
831.496721841
 20
1429.466660949
 30
0.0
 11
873.996721841
 21
1429.466660949
 31
0.0
  0
LINE
  8
0
  6
CONTINUOUS
 62
     2
 10
809.096721841
 20
1471.466660949
 30
0.0
 11
809.096721841
 21
1416.666660949
 31
0.0
  0
LINE
  8
0
  6
CONTINUOUS
 62
     2
 10
649.896721841
 20
1458.666660949
 30
0.0
 11
809.096721841
 21
1458.666660949
 31
0.0
  0
LINE
  8
0
  6
CONTINUOUS
 62
     2
 10
809.096721841
 20
1458.666660949
 30
0.0
 11
801.369315231
 21
1460.73721331
 31
0.0
  0
LINE
  8
0
  6
CONTINUOUS
 62
     2
 10
809.096721841
 20
1458.666660949
 30
0.0
 11
801.369315231
 21
1456.596108588
 31
0.0
  0
TEXT
  8
0
  6
CONTINUOUS
 62
     3
 10
689.896721841
 20
1460.666660949
 30
0.0
 40
15.0
  1
常用ストローク
 50
0.0
 41
0.9
 51
0.0
  7
KANJI46
  0
LINE
  8
0
  6
CONTINUOUS
 62
     1
 10
1817.9999996
 20
759.598857236
 30
0.0
 11
1817.9999996
 21
880.274995208
 31
0.0
  0
LINE
  8
0
  6
CONTINUOUS
 62
     1
 10
1817.9999996
 20
639.4999852
 30
0.0
 11
1817.9999996
 21
697.401113164
 31
0.0
  0
LINE
  8
0
  6
CONTINUOUS
 62
     1
 10
1802.9999996
 20
656.4999852
 30
0.0
 11
1802.9999996
 21
696.302241128
 31
0.0
  0
LINE
  8
0
  6
CONTINUOUS
 62
     1
 10
1802.9999996
 20
760.697729272
 30
0.0
 11
1802.9999996
 21
800.4999852
 31
0.0
  0
LINE
  8
0
  6
CONTINUOUS
 62
     1
 10
1717.9999996
 20
791.9999852
 30
0.0
 11
1727.9999996
 21
791.9999852
 31
0.0
  0
LINE
  8
0
  6
CONTINUOUS
 62
     1
 10
1717.9999996
 20
791.9999852
 30
0.0
 11
1717.9999996
 21
795.814545289
 31
0.0
  0
LINE
  8
0
  6
CONTINUOUS
 62
     1
 10
1727.9999996
 20
791.9999852
 30
0.0
 11
1727.9999996
 21
795.814545289
 31
0.0
  0
LINE
  8
0
  6
CONTINUOUS
 62
     1
 10
1670.50738646
 20
692.419858181
 30
0.0
 11
1665.50738646
 21
701.080112219
 31
0.0
  0
LINE
  8
0
  6
CONTINUOUS
 62
     1
 10
1780.49261274
 20
701.080112219
 30
0.0
 11
1775.49261274
 21
692.419858181
 31
0.0
  0
LINE
  8
0
  6
CONTINUOUS
 62
     1
 10
1780.49261274
 20
701.080112219
 30
0.0
 11
1783.796118682
 21
699.172832174
 31
0.0
  0
ARC
  8
0
  6
CONTINUOUS
 62
     1
 10
1722.9999996
 20
728.4999852
 30
0.0
 40
67.5
 50
334.248022667
 51
85.751977333
  0
LINE
  8
0
  6
CONTINUOUS
 62
     1
 10
1775.49261274
 20
692.419858181
 30
0.0
 11
1778.796118682
 21
690.512578136
 31
0.0
  0
ARC
  8
0
  6
CONTINUOUS
 62
     1
 10
1722.9999996
 20
728.4999852
 30
0.0
 40
67.5
 50
94.248022667
 51
205.751977333
  0
LINE
  8
0
  6
CONTINUOUS
 62
     1
 10
1665.50738646
 20
701.080112219
 30
0.0
 11
1662.203880518
 21
699.172832174
 31
0.0
  0
LINE
  8
0
  6
CONTINUOUS
 62
     1
 10
1670.50738646
 20
692.419858181
 30
0.0
 11
1667.203880518
 21
690.512578136
 31
0.0
  0
ARC
  8
0
  6
CONTINUOUS
 62
     1
 10
1722.9999996
 20
728.4999852
 30
0.0
 40
67.5
 50
214.248022667
 51
325.751977333
  0
LINE
  8
0
  6
CONTINUOUS
 62
     1
 10
1832.9999996
 20
698.4999852
 30
0.0
 11
1832.9999996
 21
758.4999852
 31
0.0
  0
LINE
  8
0
  6
CONTINUOUS
 62
     1
 10
1781.441052657
 20
762.277097533
 30
0.0
 11
1832.9999996
 21
758.4999852
 31
0.0
  0
LINE
  8
0
  6
CONTINUOUS
 62
     1
 10
1778.398555538
 20
694.4999852
 30
0.0
 11
1832.9999996
 21
698.4999852
 31
0.0
  0
LINE
  8
0
  6
CONTINUOUS
 62
     1
 10
1612.9999996
 20
698.4999852
 30
0.0
 11
1612.9999996
 21
758.4999852
 31
0.0
  0
LINE
  8
0
  6
CONTINUOUS
 62
     1
 10
1664.558946543
 20
762.277097533
 30
0.0
 11
1612.9999996
 21
758.4999852
 31
0.0
  0
LINE
  8
0
  6
CONTINUOUS
 62
     1
 10
1667.601443662
 20
694.4999852
 30
0.0
 11
1612.9999996
 21
698.4999852
 31
0.0
  0
LINE
  8
0
  6
CONTINUOUS
 62
     1
 10
1627.9999996
 20
759.598857236
 30
0.0
 11
1627.9999996
 21
880.274995208
 31
0.0
  0
LINE
  8
0
  6
CONTINUOUS
 62
     1
 10
1627.9999996
 20
639.4999852
 30
0.0
 11
1627.9999996
 21
697.401113164
 31
0.0
  0
LINE
  8
0
  6
CONTINUOUS
 62
     1
 10
1642.9999996
 20
760.697729272
 30
0.0
 11
1642.9999996
 21
800.4999852
 31
0.0
  0
LINE
  8
0
  6
CONTINUOUS
 62
     1
 10
1642.9999996
 20
656.4999852
 30
0.0
 11
1642.9999996
 21
696.302241128
 31
0.0
  0
LINE
  8
0
  6
CONTINUOUS
 62
     1
 10
1676.9999996
 20
660.4999852
 30
0.0
 11
1768.9999996
 21
660.4999852
 31
0.0
  0
LINE
  8
0
  6
CONTINUOUS
 62
     1
 10
1674.9999996
 20
658.9999852
 30
0.0
 11
1770.9999996
 21
658.9999852
 31
0.0
  0
ARC
  8
0
  6
CONTINUOUS
 62
     1
 10
1674.9999996
 20
655.9999852
 30
0.0
 40
3.0
 50
90.0
 51
180.0
  0
CIRCLE
  8
0
  6
CONTINUOUS
 62
     1
 10
1662.9999996
 20
788.4999852
 30
0.0
 40
12.0
  0
CIRCLE
  8
0
  6
CONTINUOUS
 62
     1
 10
1782.9999996
 20
788.4999852
 30
0.0
 40
12.0
  0
CIRCLE
  8
0
  6
CONTINUOUS
 62
     1
 10
1782.9999996
 20
668.4999852
 30
0.0
 40
12.0
  0
CIRCLE
  8
0
  6
CONTINUOUS
 62
     1
 10
1662.9999996
 20
668.4999852
 30
0.0
 40
12.0
  0
LINE
  8
0
  6
CONTINUOUS
 62
     2
 10
2182.833333333
 20
1046.333333333
 30
0.0
 11
2795.333333333
 21
1046.333333333
 31
0.0
  0
LINE
  8
0
  6
CONTINUOUS
 62
     2
 10
2182.833333333
 20
997.333333333
 30
0.0
 11
2795.333333333
 21
997.333333333
 31
0.0
  0
LINE
  8
0
  6
CONTINUOUS
 62
     2
 10
2238.833333333
 20
1438.333333333
 30
0.0
 11
2238.833333333
 21
1046.333333333
 31
0.0
  0
TEXT
  8
0
  6
CONTINUOUS
 62
     2
 10
2221.333333333
 20
1009.933333333
 30
93.29
 40
26.6
  1
付属品
 50
0.0
 41
0.9
 51
0.0
  7
KANJI49
  0
TEXT
  8
0
  6
CONTINUOUS
 62
     2
 10
2221.333333333
 20
960.933333333
 30
210.52
 40
26.6
  1
台数
 50
0.0
 41
0.9
 51
0.0
  7
KANJI50
  0
LINE
  8
0
  6
CONTINUOUS
 62
     1
 10
2182.833333333
 20
1900.333333333
 30
0.0
 11
2795.333333333
 21
1900.333333333
 31
0.0
  0
TEXT
  8
0
  6
CONTINUOUS
 62
     2
 10
2270.333333333
 20
1849.233333333
 30
19.94958
 40
31.5
  1
マイティシリンダ仕様
 50
0.0
 41
0.9
 51
0.0
  7
KANJI51
  0
LINE
  8
0
  6
CONTINUOUS
 62
     2
 10
2238.833333333
 20
1095.333333333
 30
0.0
 11
2795.333333333
 21
1095.333333333
 31
0.0
  0
LINE
  8
0
  6
CONTINUOUS
 62
     2
 10
2238.833333333
 20
1242.333333333
 30
0.0
 11
2795.333333333
 21
1242.333333333
 31
0.0
  0
LINE
  8
0
  6
CONTINUOUS
 62
     2
 10
2238.833333333
 20
1291.333333333
 30
0.0
 11
2795.333333333
 21
1291.333333333
 31
0.0
  0
LINE
  8
0
  6
CONTINUOUS
 62
     2
 10
2182.833333333
 20
1536.333333333
 30
0.0
 11
2795.333333333
 21
1536.333333333
 31
0.0
  0
LINE
  8
0
  6
CONTINUOUS
 62
     2
 10
2182.833333333
 20
1487.333333333
 30
0.0
 11
2795.333333333
 21
1487.333333333
 31
0.0
  0
LINE
  8
0
  6
CONTINUOUS
 62
     2
 10
2182.833333333
 20
1438.333333333
 30
0.0
 11
2795.333333333
 21
1438.333333333
 31
0.0
  0
LINE
  8
0
  6
CONTINUOUS
 62
     2
 10
2238.833333333
 20
1340.333333333
 30
0.0
 11
2795.333333333
 21
1340.333333333
 31
0.0
  0
LINE
  8
0
  6
CONTINUOUS
 62
     2
 10
2238.833333333
 20
1389.333333333
 30
0.0
 11
2795.333333333
 21
1389.333333333
 31
0.0
  0
LINE
  8
0
  6
CONTINUOUS
 62
     2
 10
2182.833333333
 20
1781.333333333
 30
0.0
 11
2795.333333333
 21
1781.333333333
 31
0.0
  0
LINE
  8
0
  6
CONTINUOUS
 62
     2
 10
2182.833333333
 20
1732.333333333
 30
0.0
 11
2795.333333333
 21
1732.333333333
 31
0.0
  0
LINE
  8
0
  6
CONTINUOUS
 62
     2
 10
2182.833333333
 20
1683.333333333
 30
0.0
 11
2795.333333333
 21
1683.333333333
 31
0.0
  0
LINE
  8
0
  6
CONTINUOUS
 62
     2
 10
2182.833333333
 20
1634.333333333
 30
0.0
 11
2795.333333333
 21
1634.333333333
 31
0.0
  0
LINE
  8
0
  6
CONTINUOUS
 62
     2
 10
2182.833333333
 20
1585.333333333
 30
0.0
 11
2795.333333333
 21
1585.333333333
 31
0.0
  0
LINE
  8
0
  6
CONTINUOUS
 62
     2
 10
2182.833333333
 20
1830.333333333
 30
0.0
 11
2795.333333333
 21
1830.333333333
 31
0.0
  0
TEXT
  8
0
  6
CONTINUOUS
 62
     2
 10
2270.333333333
 20
1352.933333333
 30
39.01308
 40
26.6
  1
電源電圧
 50
0.0
 41
0.9
 51
0.0
  7
KANJI52
  0
TEXT
  8
0
  6
CONTINUOUS
 62
     2
 10
2270.333333333
 20
1303.933333333
 30
70.49
 40
26.6
  1
周波数
 50
0.0
 41
0.9
 51
0.0
  7
KANJI53
  0
TEXT
  8
0
  6
CONTINUOUS
 62
     2
 10
2270.333333333
 20
1254.933333333
 30
164.92
 40
26.6
  1
電流
 50
0.0
 41
0.9
 51
0.0
  7
KANJI54
  0
TEXT
  8
0
  6
CONTINUOUS
 62
     2
 10
2270.333333333
 20
1205.933333333
 30
70.49
 40
26.6
  1
絶縁級
 50
0.0
 41
0.9
 51
0.0
  7
KANJI53
  0
TEXT
  8
0
  6
CONTINUOUS
 62
     2
 10
2221.333333333
 20
1793.933333333
 30
210.52
 40
26.6
  1
形式
 50
0.0
 41
0.9
 51
0.0
  7
KANJI50
  0
TEXT
  8
0
  6
CONTINUOUS
 62
     2
 10
2221.333333333
 20
1744.933333333
 30
210.52
 40
26.6
  1
推力
 50
0.0
 41
0.9
 51
0.0
  7
KANJI50
  0
TEXT
  8
0
  6
CONTINUOUS
 62
     2
 10
2221.333333333
 20
1695.933333333
 30
34.675
 40
26.6
  1
ストローク
 50
0.0
 41
0.9
 51
0.0
  7
KANJI55
  0
TEXT
  8
0
  6
CONTINUOUS
 62
     2
 10
2221.333333333
 20
1548.933333333
 30
210.52
 40
26.6
  1
構造
 50
0.0
 41
0.9
 51
0.0
  7
KANJI50
  0
TEXT
  8
0
  6
CONTINUOUS
 62
     2
 10
2221.333333333
 20
1499.933333333
 30
15.13616
 40
26.6
  1
過負荷安全装置
 50
0.0
 41
0.9
 51
0.0
  7
KANJI56
  0
TEXT
  8
0
  6
CONTINUOUS
 62
     2
 10
2221.333333333
 20
1450.933333333
 30
93.29
 40
26.6
  1
塗装色
 50
0.0
 41
0.9
 51
0.0
  7
KANJI49
  0
TEXT
  8
0
  6
CONTINUOUS
 62
     2
 10
2193.333333333
 20
1597.933333333
 30
2.28
 40
26.6
  1
ピストンロッド回転トルク
 50
0.0
 41
0.9
 51
0.0
  7
KANJI57
  0
LINE
  8
0
  6
CONTINUOUS
 62
     2
 10
2182.833333333
 20
1193.333333333
 30
0.0
 11
2795.333333333
 21
1193.333333333
 31
0.0
  0
LINE
  8
0
  6
CONTINUOUS
 62
     2
 10
2238.833333333
 20
1144.333333333
 30
0.0
 11
2795.333333333
 21
1144.333333333
 31
0.0
  0
TEXT
  8
0
  6
CONTINUOUS
 62
     2
 10
2211.358333333
 20
1431.333333333
 30
15.4
 40
24.5
  1
モ　トル仕様
 50
0.0
 41
0.9
 51
0.0
  7
KANJI58
  0
TEXT
  8
0
  6
CONTINUOUS
 62
     2
 10
2211.358333333
 20
1172.333333333
 30
1.4
 40
24.5
  1
ブレ　キ
 50
0.0
 41
0.9
 51
0.0
  7
KANJI59
  0
LINE
  8
0
  6
CONTINUOUS
 62
     2
 10
2209.433333333
 20
1114.233333333
 30
0.0
 11
2209.433333333
 21
1099.533333333
 31
0.0
  0
TEXT
  8
0
  6
CONTINUOUS
 62
     2
 10
2573.083333333
 20
1501.333333333
 30
10.5
 40
24.5
  1
推力リミッタ
 50
0.0
 41
0.9
 51
0.0
  7
KANJI60
  0
TEXT
  8
0
  6
CONTINUOUS
 62
     2
 10
2639.583333333
 20
1207.333333333
 30
2.1
 40
21.0
  1
Ｅ
 50
0.0
 41
0.9
 51
0.0
  7
KANJI61
  0
TEXT
  8
0
  6
CONTINUOUS
 62
     2
 10
2588.833333333
 20
1107.933333333
 30
14.0
 40
24.5
  1
同時切り
 50
0.0
 41
0.9
 51
0.0
  7
KANJI62
  0
TEXT
  8
0
  6
CONTINUOUS
 62
     2
 10
2270.333333333
 20
1156.933333333
 30
164.92
 40
26.6
  1
形式
 50
0.0
 41
0.9
 51
0.0
  7
KANJI54
  0
TEXT
  8
0
  6
CONTINUOUS
 62
     2
 10
2270.333333333
 20
1107.933333333
 30
39.01308
 40
26.6
  1
操作方式
 50
0.0
 41
0.9
 51
0.0
  7
KANJI52
  0
LINE
  8
0
  6
CONTINUOUS
 62
     2
 10
2209.433333333
 20
1388.633333333
 30
0.0
 11
2209.433333333
 21
1372.533333333
 31
0.0
  0
TEXT
  8
0
  6
CONTINUOUS
 62
     2
 10
2270.333333333
 20
1401.933333333
 30
3.5
 40
26.6
  1
出力　相数　極数
 50
0.0
 41
0.9
 51
0.0
  7
KANJI63
  0
TEXT
  8
0
  6
CONTINUOUS
 62
     2
 10
2221.333333333
 20
1646.933333333
 30
14.0
 40
26.6
  1
公称速度
 50
0.0
 41
0.9
 51
0.0
  7
KANJI64
  0
TEXT
  8
0
  6
CONTINUOUS
 62
     2
 10
2365.883333333
 20
1645.533333333
 30
0.0
 40
24.5
  1
（５０／６０Ｈｚ）
 50
0.0
 41
0.628571429
 51
0.0
  7
KANJI65
  0
TEXT
  8
0
  6
CONTINUOUS
 62
     2
 10
2506.583333333
 20
1157.458333333
 30
3.85
 40
23.8
  1
スプリング制動式電磁ブレーキ
 50
0.0
 41
0.705882353
 51
0.0
  7
KANJI66
  0
TEXT
  8
0
  6
CONTINUOUS
 62
     2
 10
2762.083333333
 20
1352.933333333
 30
0.252
 40
21.0
  1
Ｖ
 50
0.0
 41
0.8
 51
0.0
  7
KANJI67
  0
TEXT
  8
0
  6
CONTINUOUS
 62
     2
 10
2749.483333333
 20
1303.933333333
 30
0.252
 40
21.0
  1
Ｈｚ
 50
0.0
 41
0.8
 51
0.0
  7
KANJI67
  0
TEXT
  8
0
  6
CONTINUOUS
 62
     2
 10
2762.083333333
 20
1254.933333333
 30
0.252
 40
21.0
  1
Ａ
 50
0.0
 41
0.8
 51
0.0
  7
KANJI67
  0
TEXT
  8
0
  6
CONTINUOUS
 62
     2
 10
2670.033333333
 20
1403.333333333
 30
2.1
 40
21.0
  1
３φ
 50
0.0
 41
0.9
 51
0.0
  7
KANJI61
  0
TEXT
  8
0
  6
CONTINUOUS
 62
     2
 10
2740.033333333
 20
1403.333333333
 30
2.1
 40
21.0
  1
４Ｐ
 50
0.0
 41
0.9
 51
0.0
  7
KANJI61
  0
TEXT
  8
0
  6
CONTINUOUS
 62
     2
 10
2504.833333333
 20
1452.333333333
 30
1.4
 40
22.4
  1
マンセル　７．５ＧＹ　５／４．５
 50
0.0
 41
0.71875
 51
0.0
  7
KANJI68
  0
TEXT
  8
0
  6
CONTINUOUS
 62
     2
 10
2504.833333333
 20
1354.333333333
 30
2.1
 40
21.0
  1
　　　　　　　／　　　
 50
0.0
 41
0.9
 51
0.0
  7
KANJI61
  0
TEXT
  8
0
  6
CONTINUOUS
 62
     2
 10
2504.833333333
 20
1305.333333333
 30
2.1
 40
21.0
  1
　　　　５０／　６０
 50
0.0
 41
0.9
 51
0.0
  7
KANJI61
  0
TEXT
  8
0
  6
CONTINUOUS
 62
     2
 10
2504.833333333
 20
1256.333333333
 30
2.1
 40
21.0
  1
　　　　　　　／　　　
 50
0.0
 41
0.9
 51
0.0
  7
KANJI61
  0
TEXT
  8
0
  6
CONTINUOUS
 62
     2
 10
2743.533333333
 20
1698.733333333
 30
0.1792
 40
22.4
  1
ｍｍ
 50
0.0
 41
0.8
 51
0.0
  7
KANJI69
  0
TEXT
  8
0
  6
CONTINUOUS
 62
     2
 10
2573.083333333
 20
1550.333333333
 30
10.5
 40
24.5
  1
全閉屋内形
 50
0.0
 41
0.9
 51
0.0
  7
KANJI60
  0
TEXT
  8
0
  6
CONTINUOUS
 62
     2
 10
2698.033333333
 20
1648.333333333
 30
0.0
 40
24.5
  1
ｍｍ／ｓｅｃ
 50
0.0
 41
0.571428571
 51
0.0
  7
KANJI70
  0
TEXT
  8
0
  6
CONTINUOUS
 62
     2
 10
2555.933333333
 20
1746.333333333
 30
2.1
 40
21.0
  1
３９．２ＫＮ（４ｔｏｎ）
 50
0.0
 41
0.9
 51
0.0
  7
KANJI61
  0
TEXT
  8
0
  6
CONTINUOUS
 62
     2
 10
2520.583333333
 20
1792.883333333
 30
1.4
 40
21.0
  1
ＭＣＬＥ４－　
 50
0.0
 41
0.833333333
 51
0.0
  7
KANJI71
  0
TEXT
  8
0
  6
CONTINUOUS
 62
     2
 10
2508.333333333
 20
1648.333333333
 30
2.1
 40
21.0
  1
　２５／３０
 50
0.0
 41
0.9
 51
0.0
  7
KANJI61
  0
TEXT
  8
0
  6
CONTINUOUS
 62
     2
 10
2511.833333333
 20
1403.333333333
 30
2.1
 40
21.0
  1
　１．５ＫＷ
 50
0.0
 41
0.9
 51
0.0
  7
KANJI61
  0
TEXT
  8
0
  6
CONTINUOUS
 62
     2
 10
2522.333333333
 20
1599.333333333
 30
0.0
 40
21.0
  1
　７８Ｎ・ｍ（８ｋｇ・ｍ）
 50
0.0
 41
0.833333333
 51
0.0
  7
KANJI72
  0
LINE
  8
0
  6
CONTINUOUS
 62
     2
 10
2182.833333333
 20
948.333333333
 30
0.0
 11
2795.333333333
 21
948.333333333
 31
0.0
  0
LINE
  8
0
  6
CONTINUOUS
 62
     1
 10
2182.833333333
 20
899.333333333
 30
0.0
 11
2795.333333333
 21
899.333333333
 31
0.0
  0
TEXT
  8
0
  6
CONTINUOUS
 62
     2
 10
2738.458333333
 20
908.958333333
 30
0.0
 40
28.0
  1
ｋｇ
 50
0.0
 41
1.0
 51
0.0
  7
KANJI73
  0
LINE
  8
0
  6
CONTINUOUS
 62
     1
 10
2182.833333333
 20
1900.333333333
 30
0.0
 11
2182.833333333
 21
899.333333333
 31
0.0
  0
LINE
  8
0
  6
CONTINUOUS
 62
     2
 10
2504.833333333
 20
1830.333333333
 30
0.0
 11
2504.833333333
 21
899.333333333
 31
0.0
  0
LINE
  8
0
  6
CONTINUOUS
 62
     1
 10
2795.333333333
 20
1900.333333333
 30
0.0
 11
2795.333333333
 21
899.333333333
 31
0.0
  0
TEXT
  8
0
  6
CONTINUOUS
 62
     2
 10
1438.610105233
 20
176.133329133
 30
0.0
 40
21.0
  1
０８．０４．０９　岡田　追記
 50
0.0
 41
0.9
 51
0.0
  7
KANJI15
  0
TEXT
  8
0
  6
CONTINUOUS
 62
     2
 10
2221.333333333
 20
911.933333333
 30
3.5
 40
26.6
  1
概算重量（１台当り）
 50
0.0
 41
0.9
 51
0.0
  7
KANJI74
  0
ENDSEC
  0
EOF
