  0
SECTION
  2
HEADER
  9
$ACADVER
  1
AC1009
  9
$DWGCODEPAGE
  3
dos932
  9
$EXTMIN
 10
0.0
 20
0.0
 30
0.0
  9
$EXTMAX
 10
2940.0
 20
2079.0
 30
0.0
  9
$LIMMIN
 10
0.0
 20
0.0
  9
$LIMMAX
 10
2940.0
 20
2079.0
  9
$LTSCALE
 40
1.0
  9
$PDMODE
 70
     0
  0
ENDSEC
  0
SECTION
  2
TABLES
  0
TABLE
  2
VPORT
 70
     1
  0
VPORT
  2
*ACTIVE
 70
     0
 10
0.0
 20
0.0
 11
1.0
 21
1.0
 12
1470.0
 22
1039.5
 13
0.0
 23
0.0
 14
10.0
 24
10.0
 15
10.0
 25
10.0
 16
0.0
 26
0.0
 36
1.0
 17
0.0
 27
0.0
 37
0.0
 40
2940.0
 41
1.414141414
 42
50.0
 43
0.0
 44
0.0
 50
0.0
 51
0.0
 71
     0
 72
  1000
 73
     1
 74
     3
 75
     0
 76
     0
 77
     0
 78
     0
  0
ENDTAB
  0
TABLE
  2
LTYPE
 70
     6
  0
LTYPE
  2
CONTINUOUS
 70
    64
  3
Solid line
 72
    65
 73
     0
 40
0.0
  0
LTYPE
  2
LTYPE1
 70
    64
  3
HIDDEN
 72
    65
 73
     2
 40
21.0
 49
12.6
 49
-8.4
  0
LTYPE
  2
LTYPE2
 70
    64
  3
CENTER
 72
    65
 73
     4
 40
105.0
 49
73.5
 49
-10.5
 49
10.5
 49
-10.5
  0
LTYPE
  2
LTYPE3
 70
    64
  3
CENTER
 72
    65
 73
     4
 40
70.0
 49
49.0
 49
-7.0
 49
7.0
 49
-7.0
  0
LTYPE
  2
LTYPE4
 70
    64
  3
PHANTOM
 72
    65
 73
     6
 40
70.0
 49
52.5
 49
-3.5
 49
3.5
 49
-3.5
 49
3.5
 49
-3.5
  0
LTYPE
  2
LTYPE5
 70
    64
  3
CENTER
 72
    65
 73
     4
 40
140.0
 49
98.0
 49
-14.0
 49
14.0
 49
-14.0
  0
ENDTAB
  0
TABLE
  2
LAYER
 70
   128
  0
LAYER
  2
0
 70
     0
 62
     7
  6
CONTINUOUS
  0
LAYER
  2
2
 70
     0
 62
     7
  6
CONTINUOUS
  0
LAYER
  2
3
 70
     0
 62
     7
  6
CONTINUOUS
  0
LAYER
  2
4
 70
     0
 62
     7
  6
CONTINUOUS
  0
LAYER
  2
5
 70
     0
 62
     7
  6
CONTINUOUS
  0
LAYER
  2
6
 70
     0
 62
     7
  6
CONTINUOUS
  0
LAYER
  2
7
 70
     0
 62
     7
  6
CONTINUOUS
  0
LAYER
  2
8
 70
     0
 62
     7
  6
CONTINUOUS
  0
LAYER
  2
9
 70
     0
 62
     7
  6
CONTINUOUS
  0
LAYER
  2
10
 70
     0
 62
     7
  6
CONTINUOUS
  0
LAYER
  2
11
 70
     0
 62
     7
  6
CONTINUOUS
  0
LAYER
  2
12
 70
     0
 62
     7
  6
CONTINUOUS
  0
LAYER
  2
13
 70
     0
 62
     7
  6
CONTINUOUS
  0
LAYER
  2
14
 70
     0
 62
     7
  6
CONTINUOUS
  0
LAYER
  2
15
 70
     0
 62
     7
  6
CONTINUOUS
  0
LAYER
  2
16
 70
     0
 62
     7
  6
CONTINUOUS
  0
LAYER
  2
17
 70
     0
 62
     7
  6
CONTINUOUS
  0
LAYER
  2
18
 70
     0
 62
     7
  6
CONTINUOUS
  0
LAYER
  2
19
 70
     0
 62
     7
  6
CONTINUOUS
  0
LAYER
  2
20
 70
     0
 62
     7
  6
CONTINUOUS
  0
LAYER
  2
21
 70
     0
 62
     7
  6
CONTINUOUS
  0
LAYER
  2
22
 70
     0
 62
     7
  6
CONTINUOUS
  0
LAYER
  2
23
 70
     0
 62
     7
  6
CONTINUOUS
  0
LAYER
  2
24
 70
     0
 62
     7
  6
CONTINUOUS
  0
LAYER
  2
25
 70
     0
 62
     7
  6
CONTINUOUS
  0
LAYER
  2
26
 70
     0
 62
     7
  6
CONTINUOUS
  0
LAYER
  2
27
 70
     0
 62
     7
  6
CONTINUOUS
  0
LAYER
  2
28
 70
     0
 62
     7
  6
CONTINUOUS
  0
LAYER
  2
29
 70
     0
 62
     7
  6
CONTINUOUS
  0
LAYER
  2
30
 70
     0
 62
     7
  6
CONTINUOUS
  0
LAYER
  2
31
 70
     0
 62
     7
  6
CONTINUOUS
  0
LAYER
  2
32
 70
     0
 62
     7
  6
CONTINUOUS
  0
LAYER
  2
33
 70
     0
 62
     7
  6
CONTINUOUS
  0
LAYER
  2
34
 70
     0
 62
     7
  6
CONTINUOUS
  0
LAYER
  2
35
 70
     0
 62
     7
  6
CONTINUOUS
  0
LAYER
  2
36
 70
     0
 62
     7
  6
CONTINUOUS
  0
LAYER
  2
37
 70
     0
 62
     7
  6
CONTINUOUS
  0
LAYER
  2
38
 70
     0
 62
     7
  6
CONTINUOUS
  0
LAYER
  2
39
 70
     0
 62
     7
  6
CONTINUOUS
  0
LAYER
  2
40
 70
     0
 62
     7
  6
CONTINUOUS
  0
LAYER
  2
41
 70
     0
 62
     7
  6
CONTINUOUS
  0
LAYER
  2
42
 70
     0
 62
     7
  6
CONTINUOUS
  0
LAYER
  2
43
 70
     0
 62
     7
  6
CONTINUOUS
  0
LAYER
  2
44
 70
     0
 62
     7
  6
CONTINUOUS
  0
LAYER
  2
45
 70
     0
 62
     7
  6
CONTINUOUS
  0
LAYER
  2
46
 70
     0
 62
     7
  6
CONTINUOUS
  0
LAYER
  2
47
 70
     0
 62
     7
  6
CONTINUOUS
  0
LAYER
  2
48
 70
     0
 62
     7
  6
CONTINUOUS
  0
LAYER
  2
49
 70
     0
 62
     7
  6
CONTINUOUS
  0
LAYER
  2
50
 70
     0
 62
     7
  6
CONTINUOUS
  0
LAYER
  2
51
 70
     0
 62
     7
  6
CONTINUOUS
  0
LAYER
  2
52
 70
     0
 62
     7
  6
CONTINUOUS
  0
LAYER
  2
53
 70
     0
 62
     7
  6
CONTINUOUS
  0
LAYER
  2
54
 70
     0
 62
     7
  6
CONTINUOUS
  0
LAYER
  2
55
 70
     0
 62
     7
  6
CONTINUOUS
  0
LAYER
  2
56
 70
     0
 62
     7
  6
CONTINUOUS
  0
LAYER
  2
57
 70
     0
 62
     7
  6
CONTINUOUS
  0
LAYER
  2
58
 70
     0
 62
     7
  6
CONTINUOUS
  0
LAYER
  2
59
 70
     0
 62
     7
  6
CONTINUOUS
  0
LAYER
  2
60
 70
     0
 62
     7
  6
CONTINUOUS
  0
LAYER
  2
61
 70
     0
 62
     7
  6
CONTINUOUS
  0
LAYER
  2
62
 70
     0
 62
     7
  6
CONTINUOUS
  0
LAYER
  2
63
 70
     0
 62
     7
  6
CONTINUOUS
  0
LAYER
  2
64
 70
     0
 62
     7
  6
CONTINUOUS
  0
LAYER
  2
65
 70
     0
 62
     7
  6
CONTINUOUS
  0
LAYER
  2
66
 70
     0
 62
     7
  6
CONTINUOUS
  0
LAYER
  2
67
 70
     0
 62
     7
  6
CONTINUOUS
  0
LAYER
  2
68
 70
     0
 62
     7
  6
CONTINUOUS
  0
LAYER
  2
69
 70
     0
 62
     7
  6
CONTINUOUS
  0
LAYER
  2
70
 70
     0
 62
     7
  6
CONTINUOUS
  0
LAYER
  2
71
 70
     0
 62
     7
  6
CONTINUOUS
  0
LAYER
  2
72
 70
     0
 62
     7
  6
CONTINUOUS
  0
LAYER
  2
73
 70
     0
 62
     7
  6
CONTINUOUS
  0
LAYER
  2
74
 70
     0
 62
     7
  6
CONTINUOUS
  0
LAYER
  2
75
 70
     0
 62
     7
  6
CONTINUOUS
  0
LAYER
  2
76
 70
     0
 62
     7
  6
CONTINUOUS
  0
LAYER
  2
77
 70
     0
 62
     7
  6
CONTINUOUS
  0
LAYER
  2
78
 70
     0
 62
     7
  6
CONTINUOUS
  0
LAYER
  2
79
 70
     0
 62
     7
  6
CONTINUOUS
  0
LAYER
  2
80
 70
     0
 62
     7
  6
CONTINUOUS
  0
LAYER
  2
81
 70
     0
 62
     7
  6
CONTINUOUS
  0
LAYER
  2
82
 70
     0
 62
     7
  6
CONTINUOUS
  0
LAYER
  2
83
 70
     0
 62
     7
  6
CONTINUOUS
  0
LAYER
  2
84
 70
     0
 62
     7
  6
CONTINUOUS
  0
LAYER
  2
85
 70
     0
 62
     7
  6
CONTINUOUS
  0
LAYER
  2
86
 70
     0
 62
     7
  6
CONTINUOUS
  0
LAYER
  2
87
 70
     0
 62
     7
  6
CONTINUOUS
  0
LAYER
  2
88
 70
     0
 62
     7
  6
CONTINUOUS
  0
LAYER
  2
89
 70
     0
 62
     7
  6
CONTINUOUS
  0
LAYER
  2
90
 70
     0
 62
     7
  6
CONTINUOUS
  0
LAYER
  2
91
 70
     0
 62
     7
  6
CONTINUOUS
  0
LAYER
  2
92
 70
     0
 62
     7
  6
CONTINUOUS
  0
LAYER
  2
93
 70
     0
 62
     7
  6
CONTINUOUS
  0
LAYER
  2
94
 70
     0
 62
     7
  6
CONTINUOUS
  0
LAYER
  2
95
 70
     0
 62
     7
  6
CONTINUOUS
  0
LAYER
  2
96
 70
     0
 62
     7
  6
CONTINUOUS
  0
LAYER
  2
97
 70
     0
 62
     7
  6
CONTINUOUS
  0
LAYER
  2
98
 70
     0
 62
     7
  6
CONTINUOUS
  0
LAYER
  2
99
 70
     0
 62
     7
  6
CONTINUOUS
  0
LAYER
  2
100
 70
     0
 62
     7
  6
CONTINUOUS
  0
LAYER
  2
101
 70
     0
 62
     7
  6
CONTINUOUS
  0
LAYER
  2
102
 70
     0
 62
     7
  6
CONTINUOUS
  0
LAYER
  2
103
 70
     0
 62
     7
  6
CONTINUOUS
  0
LAYER
  2
104
 70
     0
 62
     7
  6
CONTINUOUS
  0
LAYER
  2
105
 70
     0
 62
     7
  6
CONTINUOUS
  0
LAYER
  2
106
 70
     0
 62
     7
  6
CONTINUOUS
  0
LAYER
  2
107
 70
     0
 62
     7
  6
CONTINUOUS
  0
LAYER
  2
108
 70
     0
 62
     7
  6
CONTINUOUS
  0
LAYER
  2
109
 70
     0
 62
     7
  6
CONTINUOUS
  0
LAYER
  2
110
 70
     0
 62
     7
  6
CONTINUOUS
  0
LAYER
  2
111
 70
     0
 62
     7
  6
CONTINUOUS
  0
LAYER
  2
112
 70
     0
 62
     7
  6
CONTINUOUS
  0
LAYER
  2
113
 70
     0
 62
     7
  6
CONTINUOUS
  0
LAYER
  2
114
 70
     0
 62
     7
  6
CONTINUOUS
  0
LAYER
  2
115
 70
     0
 62
     7
  6
CONTINUOUS
  0
LAYER
  2
116
 70
     0
 62
     7
  6
CONTINUOUS
  0
LAYER
  2
117
 70
     0
 62
     7
  6
CONTINUOUS
  0
LAYER
  2
118
 70
     0
 62
     7
  6
CONTINUOUS
  0
LAYER
  2
119
 70
     0
 62
     7
  6
CONTINUOUS
  0
LAYER
  2
120
 70
     0
 62
     7
  6
CONTINUOUS
  0
LAYER
  2
121
 70
     0
 62
     7
  6
CONTINUOUS
  0
LAYER
  2
122
 70
     0
 62
     7
  6
CONTINUOUS
  0
LAYER
  2
123
 70
     0
 62
     7
  6
CONTINUOUS
  0
LAYER
  2
124
 70
     0
 62
     7
  6
CONTINUOUS
  0
LAYER
  2
125
 70
     0
 62
     7
  6
CONTINUOUS
  0
LAYER
  2
126
 70
     0
 62
     7
  6
CONTINUOUS
  0
LAYER
  2
127
 70
     0
 62
     7
  6
CONTINUOUS
  0
LAYER
  2
128
 70
     0
 62
     7
  6
CONTINUOUS
  0
ENDTAB
  0
TABLE
  2
STYLE
 70
    77
  0
STYLE
  2
STANDARD
 70
     0
 40
0.0
 41
1.0
 50
0.0
 71
     0
 42
0.2
  3
txt.shx
  4
extfont.shx
  0
STYLE
  2
KANJI0
 70
     0
 40
18.1999986
 41
0.75
 50
0.0
 71
     0
 42
18.1999986
  3
txt.shx
  4
extfont.shx
  0
STYLE
  2
KANJI1
 70
     0
 40
13.999997056
 41
0.6
 50
0.0
 71
     0
 42
13.999997056
  3
txt.shx
  4
extfont.shx
  0
STYLE
  2
KANJI2
 70
     0
 40
16.799996468
 41
0.9
 50
0.0
 71
     0
 42
16.799996468
  3
txt.shx
  4
extfont.shx
  0
STYLE
  2
KANJI3
 70
     0
 40
20.999995585
 41
0.9
 50
0.0
 71
     0
 42
20.999995585
  3
txt.shx
  4
extfont.shx
  0
STYLE
  2
KANJI4
 70
     0
 40
12.1333324
 41
0.6
 50
0.0
 71
     0
 42
12.1333324
  3
txt.shx
  4
extfont.shx
  0
STYLE
  2
KANJI5
 70
     0
 40
14.55999888
 41
0.6
 50
0.0
 71
     0
 42
14.55999888
  3
txt.shx
  4
extfont.shx
  0
STYLE
  2
KANJI6
 70
     0
 40
21.2333317
 41
0.42031746
 50
0.0
 71
     0
 42
21.2333317
  3
txt.shx
  4
extfont.shx
  0
STYLE
  2
KANJI7
 70
     0
 40
36.3999972
 41
0.9
 50
0.0
 71
     0
 42
36.3999972
  3
txt.shx
  4
extfont.shx
  0
STYLE
  2
KANJI8
 70
     0
 40
25.2
 41
1.111111111
 50
0.0
 71
     0
 42
25.2
  3
txt.shx
  4
extfont.shx
  0
STYLE
  2
KANJI9
 70
     0
 40
12.1333324
 41
0.8
 50
0.0
 71
     0
 42
12.1333324
  3
txt.shx
  4
extfont.shx
  0
STYLE
  2
KANJI10
 70
     0
 40
14.55999888
 41
0.8
 50
0.0
 71
     0
 42
14.55999888
  3
txt.shx
  4
extfont.shx
  0
STYLE
  2
KANJI11
 70
     0
 40
35.0
 41
1.0
 50
0.0
 71
     0
 42
35.0
  3
txt.shx
  4
extfont.shx
  0
STYLE
  2
KANJI12
 70
     0
 40
35.0
 41
1.0
 50
0.0
 71
     0
 42
35.0
  3
txt.shx
  4
extfont.shx
  0
STYLE
  2
KANJI13
 70
     0
 40
35.0
 41
0.8
 50
0.0
 71
     0
 42
35.0
  3
txt.shx
  4
extfont.shx
  0
STYLE
  2
KANJI14
 70
     0
 40
28.0
 41
1.0
 50
0.0
 71
     0
 42
28.0
  3
txt.shx
  4
extfont.shx
  0
STYLE
  2
KANJI15
 70
     0
 40
31.5
 41
0.666666667
 50
0.0
 71
     0
 42
31.5
  3
txt.shx
  4
extfont.shx
  0
STYLE
  2
KANJI16
 70
     0
 40
21.0
 41
0.9
 50
0.0
 71
     0
 42
21.0
  3
txt.shx
  4
extfont.shx
  0
STYLE
  2
KANJI17
 70
     0
 40
24.5
 41
0.571428571
 50
0.0
 71
     0
 42
24.5
  3
txt.shx
  4
extfont.shx
  0
STYLE
  2
KANJI18
 70
     0
 40
24.5
 41
0.857142857
 50
0.0
 71
     0
 42
24.5
  3
txt.shx
  4
extfont.shx
  0
STYLE
  2
KANJI19
 70
     0
 40
24.5
 41
0.793650794
 50
0.0
 71
     0
 42
24.5
  3
txt.shx
  4
extfont.shx
  0
STYLE
  2
KANJI20
 70
     0
 40
35.0
 41
0.8
 50
0.0
 71
     0
 42
35.0
  3
txt.shx
  4
extfont.shx
  0
STYLE
  2
KANJI21
 70
     0
 40
21.0
 41
0.9
 50
0.0
 71
     0
 42
21.0
  3
txt.shx
  4
extfont.shx
  0
STYLE
  2
KANJI22
 70
     0
 40
21.0
 41
0.9
 50
0.0
 71
     0
 42
21.0
  3
txt.shx
  4
extfont.shx
  0
STYLE
  2
KANJI23
 70
     0
 40
15.379
 41
0.85
 50
0.0
 71
     0
 42
15.379
  3
txt.shx
  4
extfont.shx
  0
STYLE
  2
KANJI24
 70
     0
 40
13.6045
 41
0.822608696
 50
0.0
 71
     0
 42
13.6045
  3
txt.shx
  4
extfont.shx
  0
STYLE
  2
KANJI25
 70
     0
 40
13.8411
 41
0.726495726
 50
0.0
 71
     0
 42
13.8411
  3
txt.shx
  4
extfont.shx
  0
STYLE
  2
KANJI26
 70
     4
 40
52.5
 41
0.538166667
 50
0.0
 71
     0
 42
52.5
  3
txt.shx
  4
extfont.shx
  0
STYLE
  2
KANJI27
 70
     0
 40
20.697485939
 41
0.880962996
 50
0.0
 71
     0
 42
20.697485939
  3
txt.shx
  4
extfont.shx
  0
STYLE
  2
KANJI28
 70
     0
 40
13.65
 41
0.8
 50
0.0
 71
     0
 42
13.65
  3
txt.shx
  4
extfont.shx
  0
STYLE
  2
KANJI29
 70
     0
 40
17.5
 41
0.911
 50
0.0
 71
     0
 42
17.5
  3
txt.shx
  4
extfont.shx
  0
STYLE
  2
KANJI30
 70
     0
 40
18.223173404
 41
0.66671875
 50
0.0
 71
     0
 42
18.223173404
  3
txt.shx
  4
extfont.shx
  0
STYLE
  2
KANJI31
 70
     0
 40
21.6
 41
0.9
 50
0.0
 71
     0
 42
21.6
  3
txt.shx
  4
extfont.shx
  0
STYLE
  2
KANJI32
 70
     0
 40
12.96
 41
0.9
 50
0.0
 71
     0
 42
12.96
  3
txt.shx
  4
extfont.shx
  0
STYLE
  2
KANJI33
 70
     0
 40
17.28
 41
0.9
 50
0.0
 71
     0
 42
17.28
  3
txt.shx
  4
extfont.shx
  0
STYLE
  2
KANJI34
 70
     0
 40
18.72
 41
0.925
 50
0.0
 71
     0
 42
18.72
  3
txt.shx
  4
extfont.shx
  0
STYLE
  2
KANJI35
 70
     0
 40
25.2
 41
0.857142857
 50
0.0
 71
     0
 42
25.2
  3
txt.shx
  4
extfont.shx
  0
STYLE
  2
KANJI36
 70
     0
 40
25.2
 41
0.857222222
 50
0.0
 71
     0
 42
25.2
  3
txt.shx
  4
extfont.shx
  0
STYLE
  2
KANJI37
 70
     0
 40
28.0
 41
0.9
 50
0.0
 71
     0
 42
28.0
  3
txt.shx
  4
extfont.shx
  0
STYLE
  2
KANJI38
 70
     0
 40
14.99994
 41
0.9
 50
0.0
 71
     0
 42
14.99994
  3
txt.shx
  4
extfont.shx
  0
STYLE
  2
KANJI39
 70
     0
 40
17.92
 41
0.9
 50
0.0
 71
     0
 42
17.92
  3
txt.shx
  4
extfont.shx
  0
STYLE
  2
KANJI40
 70
     0
 40
16.8
 41
0.9
 50
0.0
 71
     0
 42
16.8
  3
txt.shx
  4
extfont.shx
  0
STYLE
  2
KANJI41
 70
     0
 40
16.8
 41
0.9
 50
0.0
 71
     0
 42
16.8
  3
txt.shx
  4
extfont.shx
  0
STYLE
  2
KANJI42
 70
     0
 40
19.6
 41
0.9
 50
0.0
 71
     0
 42
19.6
  3
txt.shx
  4
extfont.shx
  0
STYLE
  2
KANJI43
 70
     0
 40
15.12
 41
0.740740741
 50
0.0
 71
     0
 42
15.12
  3
txt.shx
  4
extfont.shx
  0
STYLE
  2
KANJI44
 70
     0
 40
19.6
 41
0.857142857
 50
0.0
 71
     0
 42
19.6
  3
txt.shx
  4
extfont.shx
  0
STYLE
  2
KANJI45
 70
     0
 40
17.49993
 41
0.9
 50
0.0
 71
     0
 42
17.49993
  3
txt.shx
  4
extfont.shx
  0
STYLE
  2
KANJI46
 70
     0
 40
16.8
 41
0.833333333
 50
0.0
 71
     0
 42
16.8
  3
txt.shx
  4
extfont.shx
  0
STYLE
  2
KANJI47
 70
     0
 40
20.0
 41
0.925
 50
0.0
 71
     0
 42
20.0
  3
txt.shx
  4
extfont.shx
  0
STYLE
  2
KANJI48
 70
     0
 40
15.0
 41
0.9
 50
0.0
 71
     0
 42
15.0
  3
txt.shx
  4
extfont.shx
  0
STYLE
  2
KANJI49
 70
     0
 40
26.6
 41
0.9
 50
0.0
 71
     0
 42
26.6
  3
txt.shx
  4
extfont.shx
  0
STYLE
  2
KANJI50
 70
     0
 40
26.6
 41
0.9
 50
0.0
 71
     0
 42
26.6
  3
txt.shx
  4
extfont.shx
  0
STYLE
  2
KANJI51
 70
     0
 40
31.5
 41
0.9
 50
0.0
 71
     0
 42
31.5
  3
txt.shx
  4
extfont.shx
  0
STYLE
  2
KANJI52
 70
     0
 40
26.6
 41
0.9
 50
0.0
 71
     0
 42
26.6
  3
txt.shx
  4
extfont.shx
  0
STYLE
  2
KANJI53
 70
     0
 40
26.6
 41
0.9
 50
0.0
 71
     0
 42
26.6
  3
txt.shx
  4
extfont.shx
  0
STYLE
  2
KANJI54
 70
     0
 40
26.6
 41
0.9
 50
0.0
 71
     0
 42
26.6
  3
txt.shx
  4
extfont.shx
  0
STYLE
  2
KANJI55
 70
     0
 40
26.6
 41
0.9
 50
0.0
 71
     0
 42
26.6
  3
txt.shx
  4
extfont.shx
  0
STYLE
  2
KANJI56
 70
     0
 40
26.6
 41
0.9
 50
0.0
 71
     0
 42
26.6
  3
txt.shx
  4
extfont.shx
  0
STYLE
  2
KANJI57
 70
     0
 40
26.6
 41
0.9
 50
0.0
 71
     0
 42
26.6
  3
txt.shx
  4
extfont.shx
  0
STYLE
  2
KANJI58
 70
     4
 40
24.5
 41
0.9
 50
0.0
 71
     0
 42
24.5
  3
txt.shx
  4
extfont.shx
  0
STYLE
  2
KANJI59
 70
     4
 40
24.5
 41
0.9
 50
0.0
 71
     0
 42
24.5
  3
txt.shx
  4
extfont.shx
  0
STYLE
  2
KANJI60
 70
     0
 40
24.5
 41
0.9
 50
0.0
 71
     0
 42
24.5
  3
txt.shx
  4
extfont.shx
  0
STYLE
  2
KANJI61
 70
     0
 40
21.0
 41
0.9
 50
0.0
 71
     0
 42
21.0
  3
txt.shx
  4
extfont.shx
  0
STYLE
  2
KANJI62
 70
     0
 40
24.5
 41
0.9
 50
0.0
 71
     0
 42
24.5
  3
txt.shx
  4
extfont.shx
  0
STYLE
  2
KANJI63
 70
     0
 40
26.6
 41
0.9
 50
0.0
 71
     0
 42
26.6
  3
txt.shx
  4
extfont.shx
  0
STYLE
  2
KANJI64
 70
     0
 40
26.6
 41
0.9
 50
0.0
 71
     0
 42
26.6
  3
txt.shx
  4
extfont.shx
  0
STYLE
  2
KANJI65
 70
     0
 40
24.5
 41
0.628571429
 50
0.0
 71
     0
 42
24.5
  3
txt.shx
  4
extfont.shx
  0
STYLE
  2
KANJI66
 70
     0
 40
23.8
 41
0.705882353
 50
0.0
 71
     0
 42
23.8
  3
txt.shx
  4
extfont.shx
  0
STYLE
  2
KANJI67
 70
     0
 40
21.0
 41
0.8
 50
0.0
 71
     0
 42
21.0
  3
txt.shx
  4
extfont.shx
  0
STYLE
  2
KANJI68
 70
     0
 40
22.4
 41
0.71875
 50
0.0
 71
     0
 42
22.4
  3
txt.shx
  4
extfont.shx
  0
STYLE
  2
KANJI69
 70
     0
 40
22.4
 41
0.8
 50
0.0
 71
     0
 42
22.4
  3
txt.shx
  4
extfont.shx
  0
STYLE
  2
KANJI70
 70
     0
 40
24.5
 41
0.571428571
 50
0.0
 71
     0
 42
24.5
  3
txt.shx
  4
extfont.shx
  0
STYLE
  2
KANJI71
 70
     0
 40
21.0
 41
0.833333333
 50
0.0
 71
     0
 42
21.0
  3
txt.shx
  4
extfont.shx
  0
STYLE
  2
KANJI72
 70
     0
 40
21.0
 41
0.833333333
 50
0.0
 71
     0
 42
21.0
  3
txt.shx
  4
extfont.shx
  0
STYLE
  2
KANJI73
 70
     0
 40
28.0
 41
1.0
 50
0.0
 71
     0
 42
28.0
  3
txt.shx
  4
extfont.shx
  0
STYLE
  2
KANJI74
 70
     0
 40
26.6
 41
0.9
 50
0.0
 71
     0
 42
26.6
  3
txt.shx
  4
extfont.shx
  0
STYLE
  2
KANJI75
 70
     0
 40
20.0
 41
0.925
 50
0.0
 71
     0
 42
20.0
  3
txt.shx
  4
extfont.shx
  0
ENDTAB
  0
TABLE
  2
VIEW
 70
     0
  0
ENDTAB
  0
ENDSEC
  0
SECTION
  2
BLOCKS
  0
ENDSEC
  0
SECTION
  2
ENTITIES
  0
POLYLINE
  8
0
  6
CONTINUOUS
 62
     6
 66
     1
  0
VERTEX
  8
0
  6
CONTINUOUS
 62
     6
 10
103.16
 20
90.39
 30
0.0
  0
VERTEX
  8
0
  6
CONTINUOUS
 62
     6
 10
103.16
 20
1973.39
 30
0.0
  0
VERTEX
  8
0
  6
CONTINUOUS
 62
     6
 10
2812.16
 20
1973.39
 30
0.0
  0
SEQEND
  0
LINE
  8
0
  6
CONTINUOUS
 62
     6
 10
110.159998528
 20
195.389977923
 30
0.0
 11
565.159902862
 21
195.389977923
 31
0.0
  0
LINE
  8
0
  6
CONTINUOUS
 62
     6
 10
110.159998528
 20
97.389998528
 30
0.0
 11
565.159902862
 21
97.389998528
 31
0.0
  0
LINE
  8
0
  6
CONTINUOUS
 62
     6
 10
110.159998528
 20
97.389998528
 30
0.0
 11
110.159998528
 21
195.389977923
 31
0.0
  0
LINE
  8
0
  6
CONTINUOUS
 62
     6
 10
110.159998528
 20
146.389988226
 30
0.0
 11
565.159902862
 21
146.389988226
 31
0.0
  0
LINE
  8
0
  6
CONTINUOUS
 62
     4
 10
23.4766662
 20
96.4566662
 30
0.0
 11
96.2766606
 21
96.4566662
 31
0.0
  0
LINE
  8
0
  6
CONTINUOUS
 62
     4
 10
23.4766662
 20
132.8566634
 30
0.0
 11
96.2766606
 21
132.8566634
 31
0.0
  0
LINE
  8
0
  6
CONTINUOUS
 62
     4
 10
23.4766662
 20
169.2566606
 30
0.0
 11
96.2766606
 21
169.2566606
 31
0.0
  0
LINE
  8
0
  6
CONTINUOUS
 62
     4
 10
23.4766662
 20
205.6566578
 30
0.0
 11
96.2766606
 21
205.6566578
 31
0.0
  0
LINE
  8
0
  6
CONTINUOUS
 62
     4
 10
23.4766662
 20
242.056655
 30
0.0
 11
96.2766606
 21
242.056655
 31
0.0
  0
LINE
  8
0
  6
CONTINUOUS
 62
     4
 10
23.4766662
 20
278.4566522
 30
0.0
 11
96.2766606
 21
278.4566522
 31
0.0
  0
LINE
  8
0
  6
CONTINUOUS
 62
     4
 10
23.4766662
 20
314.8566494
 30
0.0
 11
96.2766606
 21
314.8566494
 31
0.0
  0
LINE
  8
0
  6
CONTINUOUS
 62
     4
 10
23.4766662
 20
351.2566466
 30
0.0
 11
96.2766606
 21
351.2566466
 31
0.0
  0
LINE
  8
0
  6
CONTINUOUS
 62
     4
 10
23.4766662
 20
387.6566438
 30
0.0
 11
96.2766606
 21
387.6566438
 31
0.0
  0
LINE
  8
0
  6
CONTINUOUS
 62
     4
 10
23.4766662
 20
424.056641
 30
0.0
 11
96.2766606
 21
424.056641
 31
0.0
  0
LINE
  8
0
  6
CONTINUOUS
 62
     4
 10
96.2766606
 20
96.4566662
 30
0.0
 11
96.2766606
 21
424.056641
 31
0.0
  0
LINE
  8
0
  6
CONTINUOUS
 62
     4
 10
59.8766634
 20
96.4566662
 30
0.0
 11
59.8766634
 21
387.6566438
 31
0.0
  0
TEXT
  8
0
  6
CONTINUOUS
 62
     4
 10
35.91333191
 20
107.07333205
 30
1.81999986
 40
18.1999986
  1
計
 50
0.0
 41
0.75
 51
0.0
  7
KANJI0
  0
TEXT
  8
0
  6
CONTINUOUS
 62
     4
 10
35.91333191
 20
180.47999307
 30
1.81999986
 40
18.1999986
  1
設
 50
0.0
 41
0.75
 51
0.0
  7
KANJI0
  0
TEXT
  8
0
  6
CONTINUOUS
 62
     4
 10
35.91333191
 20
216.27332365
 30
1.81999986
 40
18.1999986
  1
管
 50
0.0
 41
0.75
 51
0.0
  7
KANJI0
  0
TEXT
  8
0
  6
CONTINUOUS
 62
     4
 10
35.91333191
 20
252.67332085
 30
1.81999986
 40
18.1999986
  1
製
 50
0.0
 41
0.75
 51
0.0
  7
KANJI0
  0
TEXT
  8
0
  6
CONTINUOUS
 62
     4
 10
35.91333191
 20
289.07331805
 30
1.81999986
 40
18.1999986
  1
資
 50
0.0
 41
0.75
 51
0.0
  7
KANJI0
  0
TEXT
  8
0
  6
CONTINUOUS
 62
     4
 10
35.91333191
 20
325.47331525
 30
1.81999986
 40
18.1999986
  1
営
 50
0.0
 41
0.75
 51
0.0
  7
KANJI0
  0
TEXT
  8
0
  6
CONTINUOUS
 62
     4
 10
35.91333191
 20
361.87331245
 30
1.81999986
 40
18.1999986
  1
客
 50
0.0
 41
0.75
 51
0.0
  7
KANJI0
  0
TEXT
  8
0
  6
CONTINUOUS
 62
     4
 10
35.6099986
 20
399.7899762
 30
1.81999986
 40
18.1999986
  1
出　図
 50
0.0
 41
0.75
 51
0.0
  7
KANJI0
  0
LINE
  8
0
  6
CONTINUOUS
 62
     4
 10
23.4766662
 20
96.4566662
 30
0.0
 11
23.4766662
 21
424.056641
 31
0.0
  0
LINE
  8
0
  6
CONTINUOUS
 62
     6
 10
2812.16
 20
90.39
 30
0.0
 11
103.16
 21
90.39
 31
0.0
  0
TEXT
  8
0
  6
CONTINUOUS
 62
     4
 10
124.159995585
 20
125.389992641
 30
1.399999706
 40
13.999997056
  1
ＰＡＲＴＳ　ＬＩＳＴ
 50
0.0
 41
0.6
 51
0.0
  7
KANJI1
  0
TEXT
  8
0
  6
CONTINUOUS
 62
     4
 10
124.159995585
 20
104.389997056
 30
1.679999647
 40
16.799996468
  1
部品表
 50
0.0
 41
0.9
 51
0.0
  7
KANJI2
  0
TEXT
  8
0
  6
CONTINUOUS
 62
     3
 10
124.159995585
 20
160.389985282
 30
2.099999558
 40
20.999995585
  1
ＰＬ
 50
0.0
 41
0.9
 51
0.0
  7
KANJI3
  0
TEXT
  8
0
  6
CONTINUOUS
 62
     4
 10
439.159929354
 20
125.389992641
 30
1.399999706
 40
13.999997056
  1
Ｎ０．
 50
0.0
 41
0.6
 51
0.0
  7
KANJI1
  0
TEXT
  8
0
  6
CONTINUOUS
 62
     4
 10
439.159929354
 20
104.389997056
 30
1.679999647
 40
16.799996468
  1
項番
 50
0.0
 41
0.9
 51
0.0
  7
KANJI2
  0
LINE
  8
0
  6
CONTINUOUS
 62
     6
 10
565.159902862
 20
97.389998528
 30
0.0
 11
565.159902862
 21
195.389977923
 31
0.0
  0
LINE
  8
0
  6
CONTINUOUS
 62
     6
 10
425.159932297
 20
97.389998528
 30
0.0
 11
425.159932297
 21
195.389977923
 31
0.0
  0
LINE
  8
0
  6
CONTINUOUS
 62
     6
 10
2812.16
 20
1973.39
 30
0.0
 11
2812.16
 21
90.39
 31
0.0
  0
LINE
  8
0
  6
CONTINUOUS
 62
     6
 10
1871.826739
 20
96.4566662
 30
0.0
 11
1871.826739
 21
484.723303
 31
0.0
  0
LINE
  8
0
  6
CONTINUOUS
 62
     6
 10
2806.0933338
 20
96.4566662
 30
0.0
 11
2806.0933338
 21
484.723303
 31
0.0
  0
LINE
  8
0
  6
CONTINUOUS
 62
     4
 10
2093.2600553
 20
96.4566662
 30
0.0
 11
2093.2600553
 21
484.723303
 31
0.0
  0
LINE
  8
0
  6
CONTINUOUS
 62
     4
 10
1871.826739
 20
144.9899958
 30
0.0
 11
2093.2600553
 21
144.9899958
 31
0.0
  0
TEXT
  8
0
  6
CONTINUOUS
 62
     4
 10
1883.9600714
 20
123.7566641
 30
1.21333324
 40
12.1333324
  1
ＳＣＡＬＥ
 50
0.0
 41
0.6
 51
0.0
  7
KANJI4
  0
TEXT
  8
0
  6
CONTINUOUS
 62
     4
 10
1883.9600714
 20
105.5566655
 30
1.455999888
 40
14.55999888
  1
尺度
 50
0.0
 41
0.6
 51
0.0
  7
KANJI5
  0
LINE
  8
0
  6
CONTINUOUS
 62
     6
 10
1392.5601092
 20
144.9899958
 30
0.0
 11
1871.826739
 21
144.9899958
 31
0.0
  0
LINE
  8
0
  6
CONTINUOUS
 62
     6
 10
1392.5601092
 20
96.4566662
 30
0.0
 11
2806.0933338
 21
96.4566662
 31
0.0
  0
TEXT
  8
0
  6
CONTINUOUS
 62
     6
 10
2099.3267215
 20
123.7566641
 30
0.0
 40
21.2333317
  1
ＵＮＩＴＥＣ　ＩＮＤＵＳＴＲＹ　ＣＯ．，ＬＴＤ．
 50
0.0
 41
0.42031746
 51
0.0
  7
KANJI6
  0
TEXT
  8
0
  6
CONTINUOUS
 62
     6
 10
2397.124198593
 20
115.86999804
 30
3.63999972
 40
36.3999972
  1
ユニテック工業株式会社
 50
0.0
 41
0.9
 51
0.0
  7
KANJI7
  0
LINE
  8
0
  6
CONTINUOUS
 62
     6
 10
2348.590868993
 20
128.60999706
 30
0.0
 11
2332.574870225
 21
128.60999706
 31
0.0
  0
LINE
  8
0
  6
CONTINUOUS
 62
     6
 10
2348.590868993
 20
131.521996836
 30
0.0
 11
2332.574870225
 21
131.521996836
 31
0.0
  0
LINE
  8
0
  6
CONTINUOUS
 62
     6
 10
2348.590868993
 20
128.60999706
 30
0.0
 11
2364.606867761
 21
128.60999706
 31
0.0
  0
LINE
  8
0
  6
CONTINUOUS
 62
     6
 10
2348.590868993
 20
131.521996836
 30
0.0
 11
2364.606867761
 21
131.521996836
 31
0.0
  0
LINE
  8
0
  6
CONTINUOUS
 62
     6
 10
2364.606867761
 20
131.521996836
 30
0.0
 11
2364.606867761
 21
128.60999706
 31
0.0
  0
ARC
  8
0
  6
CONTINUOUS
 62
     6
 10
2368.246867481
 20
130.065996948
 30
0.0
 40
14.55999888
 50
185.739170477
 51
90.0
  0
ARC
  8
0
  6
CONTINUOUS
 62
     6
 10
2368.246867481
 20
130.065996948
 30
0.0
 40
17.471998656
 50
184.780191847
 51
90.0
  0
LINE
  8
0
  6
CONTINUOUS
 62
     6
 10
2332.574870225
 20
128.60999706
 30
0.0
 11
2332.574870225
 21
131.521996836
 31
0.0
  0
ARC
  8
0
  6
CONTINUOUS
 62
     6
 10
2328.934870505
 20
130.065996948
 30
0.0
 40
14.55999888
 50
90.0
 51
354.260829523
  0
ARC
  8
0
  6
CONTINUOUS
 62
     6
 10
2328.934870505
 20
130.065996948
 30
0.0
 40
17.471998656
 50
90.0
 51
355.219808153
  0
LINE
  8
0
  6
CONTINUOUS
 62
     6
 10
2346.406869161
 20
147.537995604
 30
0.0
 11
2346.406869161
 21
144.625995828
 31
0.0
  0
LINE
  8
0
  6
CONTINUOUS
 62
     6
 10
2328.934870505
 20
144.625995828
 30
0.0
 11
2346.406869161
 21
144.625995828
 31
0.0
  0
LINE
  8
0
  6
CONTINUOUS
 62
     6
 10
2350.774868825
 20
147.537995604
 30
0.0
 11
2350.774868825
 21
144.625995828
 31
0.0
  0
LINE
  8
0
  6
CONTINUOUS
 62
     6
 10
2368.246867481
 20
144.625995828
 30
0.0
 11
2350.774868825
 21
144.625995828
 31
0.0
  0
TEXT
  8
0
  6
CONTINUOUS
 62
     4
 10
1547.2600973
 20
123.7566641
 30
1.21333324
 40
12.1333324
  1
ＢＹ
 50
0.0
 41
0.6
 51
0.0
  7
KANJI4
  0
TEXT
  8
0
  6
CONTINUOUS
 62
     4
 10
1680.7267537
 20
123.7566641
 30
1.21333324
 40
12.1333324
  1
ＤＥＳＣＲＩＰＴＩＯＮ
 50
0.0
 41
0.6
 51
0.0
  7
KANJI4
  0
TEXT
  8
0
  6
CONTINUOUS
 62
     4
 10
1547.2600973
 20
105.5566655
 30
1.455999888
 40
14.55999888
  1
担当
 50
0.0
 41
0.6
 51
0.0
  7
KANJI5
  0
TEXT
  8
0
  6
CONTINUOUS
 62
     4
 10
1698.9267523
 20
105.5566655
 30
1.455999888
 40
14.55999888
  1
記　　　　事
 50
0.0
 41
0.6
 51
0.0
  7
KANJI5
  0
LINE
  8
0
  6
CONTINUOUS
 62
     4
 10
1418.34344055
 20
135.8899965
 30
0.0
 11
1398.6267754
 21
105.5566655
 31
0.0
  0
TEXT
  8
0
  6
CONTINUOUS
 62
     4
 10
1468.3934367
 20
123.7566641
 30
1.21333324
 40
12.1333324
  1
ＤＡＴＥ
 50
0.0
 41
0.6
 51
0.0
  7
KANJI4
  0
TEXT
  8
0
  6
CONTINUOUS
 62
     4
 10
1477.493436
 20
105.5566655
 30
1.455999888
 40
14.55999888
  1
日付
 50
0.0
 41
0.6
 51
0.0
  7
KANJI5
  0
LINE
  8
0
  6
CONTINUOUS
 62
     4
 10
1398.6267754
 20
105.5566655
 30
0.0
 11
1438.0601057
 21
105.5566655
 31
0.0
  0
LINE
  8
0
  6
CONTINUOUS
 62
     4
 10
1418.34344055
 20
135.8899965
 30
0.0
 11
1438.0601057
 21
105.5566655
 31
0.0
  0
LINE
  8
0
  6
CONTINUOUS
 62
     6
 10
1392.5601092
 20
96.4566662
 30
0.0
 11
1392.5601092
 21
144.9899958
 31
0.0
  0
LINE
  8
0
  6
CONTINUOUS
 62
     4
 10
1444.1267719
 20
96.4566662
 30
0.0
 11
1444.1267719
 21
144.9899958
 31
0.0
  0
LINE
  8
0
  6
CONTINUOUS
 62
     4
 10
1529.0600987
 20
96.4566662
 30
0.0
 11
1529.0600987
 21
144.9899958
 31
0.0
  0
LINE
  8
0
  6
CONTINUOUS
 62
     4
 10
1583.6600945
 20
96.4566662
 30
0.0
 11
1583.6600945
 21
144.9899958
 31
0.0
  0
TEXT
  8
0
  6
CONTINUOUS
 62
     4
 10
1883.9600714
 20
366.4233121
 30
1.21333324
 40
12.1333324
  1
ＣＯＤＥ
 50
0.0
 41
0.6
 51
0.0
  7
KANJI4
  0
LINE
  8
0
  6
CONTINUOUS
 62
     4
 10
1871.826739
 20
387.6566438
 30
0.0
 11
2806.0933338
 21
387.6566438
 31
0.0
  0
TEXT
  8
0
  6
CONTINUOUS
 62
     4
 10
1883.9600714
 20
348.2233135
 30
1.455999888
 40
14.55999888
  1
分類
 50
0.0
 41
0.6
 51
0.0
  7
KANJI5
  0
TEXT
  8
0
  6
CONTINUOUS
 62
     4
 10
1893.41
 20
394.89
 30
7.0
 40
25.2
  1
ご注文主
 50
0.0
 41
1.111111111
 51
0.0
  7
KANJI8
  0
TEXT
  8
0
  6
CONTINUOUS
 62
     4
 10
1883.9600714
 20
220.8233233
 30
1.21333324
 40
12.1333324
  1
ＤＲＡＷＮ
 50
0.0
 41
0.6
 51
0.0
  7
KANJI4
  0
TEXT
  8
0
  6
CONTINUOUS
 62
     4
 10
1883.9600714
 20
269.3566529
 30
1.21333324
 40
12.1333324
  1
ＤＥＳＩＧＮ
 50
0.0
 41
0.6
 51
0.0
  7
KANJI4
  0
TEXT
  8
0
  6
CONTINUOUS
 62
     4
 10
1883.9600714
 20
317.8899825
 30
1.21333324
 40
12.1333324
  1
ＣＨＥＣＫ
 50
0.0
 41
0.6
 51
0.0
  7
KANJI4
  0
LINE
  8
0
  6
CONTINUOUS
 62
     4
 10
1871.826739
 20
290.5899846
 30
0.0
 11
2093.2600553
 21
290.5899846
 31
0.0
  0
LINE
  8
0
  6
CONTINUOUS
 62
     4
 10
1871.826739
 20
242.056655
 30
0.0
 11
2093.2600553
 21
242.056655
 31
0.0
  0
LINE
  8
0
  6
CONTINUOUS
 62
     4
 10
1871.826739
 20
339.1233142
 30
0.0
 11
2093.2600553
 21
339.1233142
 31
0.0
  0
TEXT
  8
0
  6
CONTINUOUS
 62
     4
 10
1883.9600714
 20
251.1566543
 30
1.455999888
 40
14.55999888
  1
設計
 50
0.0
 41
0.6
 51
0.0
  7
KANJI5
  0
TEXT
  8
0
  6
CONTINUOUS
 62
     4
 10
1883.9600714
 20
299.6899839
 30
1.455999888
 40
14.55999888
  1
検図
 50
0.0
 41
0.6
 51
0.0
  7
KANJI5
  0
LINE
  8
0
  6
CONTINUOUS
 62
     4
 10
2111.15672059
 20
339.1233142
 30
0.0
 11
2806.0933338
 21
339.1233142
 31
0.0
  0
LINE
  8
0
  6
CONTINUOUS
 62
     4
 10
2093.2600553
 20
242.056655
 30
0.0
 11
2806.0933338
 21
242.056655
 31
0.0
  0
TEXT
  8
0
  6
CONTINUOUS
 62
     4
 10
2105.3933877
 20
220.8233233
 30
1.21333324
 40
12.1333324
  1
ＤＲＡＷＩＮＧ　ＮＯ．
 50
0.0
 41
0.8
 51
0.0
  7
KANJI9
  0
TEXT
  8
0
  6
CONTINUOUS
 62
     4
 10
2105.3933877
 20
269.3566529
 30
1.21333324
 40
12.1333324
  1
ＭＦＧ　ＮＯ．
 50
0.0
 41
0.8
 51
0.0
  7
KANJI9
  0
TEXT
  8
0
  6
CONTINUOUS
 62
     4
 10
2105.3933877
 20
317.8899825
 30
1.21333324
 40
12.1333324
  1
ＴＹＰＥ
 50
0.0
 41
0.8
 51
0.0
  7
KANJI9
  0
LINE
  8
0
  6
CONTINUOUS
 62
     4
 10
2111.4600539
 20
290.5899846
 30
0.0
 11
2390.5266991
 21
290.5899846
 31
0.0
  0
TEXT
  8
0
  6
CONTINUOUS
 62
     4
 10
2105.3933877
 20
199.5899916
 30
1.455999888
 40
14.55999888
  1
図　面　番　号
 50
0.0
 41
0.8
 51
0.0
  7
KANJI10
  0
TEXT
  8
0
  6
CONTINUOUS
 62
     4
 10
2105.3933877
 20
248.1233212
 30
1.455999888
 40
14.55999888
  1
製番
 50
0.0
 41
0.8
 51
0.0
  7
KANJI10
  0
TEXT
  8
0
  6
CONTINUOUS
 62
     4
 10
2105.3933877
 20
296.6566508
 30
1.455999888
 40
14.55999888
  1
機種
 50
0.0
 41
0.8
 51
0.0
  7
KANJI10
  0
LINE
  8
0
  6
CONTINUOUS
 62
     4
 10
1871.826739
 20
193.5233254
 30
0.0
 11
2093.2600553
 21
193.5233254
 31
0.0
  0
TEXT
  8
0
  6
CONTINUOUS
 62
     4
 10
1883.9600714
 20
172.2899937
 30
1.21333324
 40
12.1333324
  1
ＤＡＴＥ
 50
0.0
 41
0.6
 51
0.0
  7
KANJI4
  0
TEXT
  8
0
  6
CONTINUOUS
 62
     4
 10
1883.9600714
 20
154.0899951
 30
1.455999888
 40
14.55999888
  1
日付
 50
0.0
 41
0.6
 51
0.0
  7
KANJI5
  0
TEXT
  8
0
  6
CONTINUOUS
 62
     4
 10
1883.9600714
 20
202.6233247
 30
1.455999888
 40
14.55999888
  1
作図
 50
0.0
 41
0.6
 51
0.0
  7
KANJI5
  0
LINE
  8
0
  6
CONTINUOUS
 62
     4
 10
2093.2600553
 20
172.2899937
 30
0.0
 11
2806.0933338
 21
172.2899937
 31
0.0
  0
LINE
  8
0
  6
LTYPE1
 62
     4
 10
2602.8600161
 20
181.389993
 30
0.0
 11
2602.8600161
 21
229.9233226
 31
0.0
  0
LINE
  8
0
  6
LTYPE1
 62
     4
 10
2560.3933527
 20
181.389993
 30
0.0
 11
2560.3933527
 21
229.9233226
 31
0.0
  0
LINE
  8
0
  6
LTYPE1
 62
     4
 10
2517.9266893
 20
181.389993
 30
0.0
 11
2517.9266893
 21
229.9233226
 31
0.0
  0
LINE
  8
0
  6
LTYPE1
 62
     4
 10
2475.4600259
 20
181.389993
 30
0.0
 11
2475.4600259
 21
229.9233226
 31
0.0
  0
LINE
  8
0
  6
LTYPE1
 62
     4
 10
2432.9933625
 20
181.389993
 30
0.0
 11
2432.9933625
 21
229.9233226
 31
0.0
  0
LINE
  8
0
  6
LTYPE1
 62
     4
 10
2390.5266991
 20
181.389993
 30
0.0
 11
2390.5266991
 21
229.9233226
 31
0.0
  0
LINE
  8
0
  6
LTYPE1
 62
     4
 10
2348.0600357
 20
181.389993
 30
0.0
 11
2348.0600357
 21
229.9233226
 31
0.0
  0
LINE
  8
0
  6
LTYPE1
 62
     4
 10
2305.5933723
 20
181.389993
 30
0.0
 11
2305.5933723
 21
229.9233226
 31
0.0
  0
LINE
  8
0
  6
LTYPE1
 62
     4
 10
2305.5933723
 20
229.9233226
 30
0.0
 11
2602.8600161
 21
229.9233226
 31
0.0
  0
LINE
  8
0
  6
LTYPE1
 62
     4
 10
2305.5933723
 20
181.389993
 30
0.0
 11
2602.8600161
 21
181.389993
 31
0.0
  0
LINE
  8
0
  6
CONTINUOUS
 62
     4
 10
2627.1266809
 20
207.17332435
 30
0.0
 11
2639.2600133
 21
207.17332435
 31
0.0
  0
LINE
  8
0
  6
CONTINUOUS
 62
     4
 10
2702.9600084
 20
188.97332575
 30
0.0
 11
2660.493345
 21
188.97332575
 31
0.0
  0
LINE
  8
0
  6
CONTINUOUS
 62
     4
 10
2660.493345
 20
188.97332575
 30
0.0
 11
2681.7266767
 21
225.37332295
 31
0.0
  0
LINE
  8
0
  6
CONTINUOUS
 62
     4
 10
2681.7266767
 20
225.37332295
 30
0.0
 11
2702.9600084
 21
188.97332575
 31
0.0
  0
TEXT
  8
0
  6
CONTINUOUS
 62
     4
 10
2408.7266977
 20
317.8899825
 30
1.21333324
 40
12.1333324
  1
ＴＩＴＬＥ
 50
0.0
 41
0.8
 51
0.0
  7
KANJI9
  0
TEXT
  8
0
  6
CONTINUOUS
 62
     4
 10
2408.7266977
 20
296.6566508
 30
1.455999888
 40
14.55999888
  1
名称
 50
0.0
 41
0.8
 51
0.0
  7
KANJI10
  0
TEXT
  8
0
  6
CONTINUOUS
 62
     2
 10
2507.66
 20
251.39
 30
17.5
 40
35.0
  1
外形寸法図
 50
0.0
 41
1.0
 51
0.0
  7
KANJI11
  0
TEXT
  8
0
  6
CONTINUOUS
 62
     2
 10
2465.66
 20
293.39
 30
5.0
 40
35.0
  1
マイティシリンダ
 50
0.0
 41
1.0
 51
0.0
  7
KANJI12
  0
TEXT
  8
0
  6
CONTINUOUS
 62
     2
 10
2268.8433723
 20
188.389993
 30
2.1
 40
35.0
  1
Ａ
 50
0.0
 41
0.8
 51
0.0
  7
KANJI13
  0
CIRCLE
  8
0
  6
CONTINUOUS
 62
     2
 10
2223.3433723
 20
263.639993
 30
0.0
 40
17.5
  0
TEXT
  8
0
  6
CONTINUOUS
 62
     2
 10
2210.2183723
 20
250.514993
 30
2.1
 40
28.0
  1
Ｓ
 50
0.0
 41
1.0
 51
0.0
  7
KANJI14
  0
LINE
  8
0
  6
CONTINUOUS
 62
     6
 10
2346.406869161
 20
147.537995604
 30
0.0
 11
2328.934870505
 21
147.537995604
 31
0.0
  0
LINE
  8
0
  6
CONTINUOUS
 62
     6
 10
2350.774868825
 20
147.537995604
 30
0.0
 11
2368.246867481
 21
147.537995604
 31
0.0
  0
LINE
  8
0
  6
CONTINUOUS
 62
     4
 10
2806.0933338
 20
436.1899734
 30
0.0
 11
2806.0933338
 21
484.723303
 31
0.0
  0
LINE
  8
0
  6
CONTINUOUS
 62
     6
 10
1872.701739
 20
436.1899734
 30
0.0
 11
2806.9683338
 21
436.1899734
 31
0.0
  0
LINE
  8
0
  6
CONTINUOUS
 62
     6
 10
1871.826739
 20
484.723303
 30
0.0
 11
2806.0933338
 21
484.723303
 31
0.0
  0
TEXT
  8
0
  6
CONTINUOUS
 62
     4
 10
1893.41
 20
443.4233296
 30
7.0
 40
25.2
  1
ご用途
 50
0.0
 41
1.111111111
 51
0.0
  7
KANJI8
  0
TEXT
  8
0
  6
CONTINUOUS
 62
     2
 10
2000.16
 20
104.39
 30
2.1
 40
31.5
  1
１／７
 50
0.0
 41
0.666666667
 51
0.0
  7
KANJI15
  0
TEXT
  8
0
  6
CONTINUOUS
 62
     2
 10
2671.1166991
 20
190.6733226
 30
0.0
 40
21.0
  1
２
 50
0.0
 41
0.9
 51
0.0
  7
KANJI16
  0
TEXT
  8
0
  6
CONTINUOUS
 62
     2
 10
1929.6933723
 20
154.789993
 30
2.1
 40
24.5
  1
９９．０５．２１
 50
0.0
 41
0.571428571
 51
0.0
  7
KANJI17
  0
TEXT
  8
0
  6
CONTINUOUS
 62
     2
 10
1949.9933723
 20
205.889993
 30
7.0
 40
24.5
  1
Ｋ．Ｋ
 50
0.0
 41
0.857142857
 51
0.0
  7
KANJI18
  0
TEXT
  8
0
  6
CONTINUOUS
 62
     2
 10
1949.9933723
 20
254.4233226
 30
7.0
 40
24.5
  1
樫山
 50
0.0
 41
0.857142857
 51
0.0
  7
KANJI18
  0
POLYLINE
  8
0
  6
CONTINUOUS
 62
     4
 66
     1
  0
VERTEX
  8
0
  6
CONTINUOUS
 62
     4
 10
1418.34344055
 20
184.4233261
 30
0.0
  0
VERTEX
  8
0
  6
CONTINUOUS
 62
     4
 10
1398.6267754
 20
154.0899951
 30
0.0
  0
VERTEX
  8
0
  6
CONTINUOUS
 62
     4
 10
1438.0601057
 20
154.0899951
 30
0.0
  0
SEQEND
  0
LINE
  8
0
  6
CONTINUOUS
 62
     4
 10
1418.34344055
 20
184.4233261
 30
0.0
 11
1438.0601057
 21
154.0899951
 31
0.0
  0
TEXT
  8
0
  6
CONTINUOUS
 62
     2
 10
1411.3567719
 20
155.7799958
 30
0.0
 40
21.0
  1
１
 50
0.0
 41
0.9
 51
0.0
  7
KANJI16
  0
TEXT
  8
0
  6
CONTINUOUS
 62
     2
 10
1448.4367719
 20
152.1499958
 30
0.0
 40
21.0
  1
２００３．１０．２９　岡田　重量変更　０３．１１．０４　村上
 50
0.0
 41
0.9
 51
0.0
  7
KANJI16
  0
POLYLINE
  8
0
  6
CONTINUOUS
 62
     4
 66
     1
  0
VERTEX
  8
0
  6
CONTINUOUS
 62
     4
 10
1418.34344055
 20
214.9633261
 30
0.0
  0
VERTEX
  8
0
  6
CONTINUOUS
 62
     4
 10
1398.6267754
 20
184.6299951
 30
0.0
  0
VERTEX
  8
0
  6
CONTINUOUS
 62
     4
 10
1438.0601057
 20
184.6299951
 30
0.0
  0
SEQEND
  0
LINE
  8
0
  6
CONTINUOUS
 62
     4
 10
1418.34344055
 20
214.9633261
 30
0.0
 11
1438.0601057
 21
184.6299951
 31
0.0
  0
TEXT
  8
0
  6
CONTINUOUS
 62
     2
 10
1411.3567719
 20
186.3199958
 30
0.0
 40
21.0
  1
２
 50
0.0
 41
0.9
 51
0.0
  7
KANJI16
  0
TEXT
  8
0
  6
CONTINUOUS
 62
     2
 10
2178.66
 20
300.39
 30
0.0
 40
24.5
  1
ＭＣＬＥ４－Ｊ
 50
0.0
 41
0.793650794
 51
0.0
  7
KANJI19
  0
TEXT
  8
0
  6
CONTINUOUS
 62
     2
 10
2312.5933723
 20
188.389993
 30
15.166666667
 40
35.0
  1
３０００６６８
 50
0.0
 41
0.8
 51
0.0
  7
KANJI20
  0
TEXT
  8
0
  6
CONTINUOUS
 62
     2
 10
1412.8167719
 20
57.6499958
 30
0.0
 40
21.0
  1
変更書直し　９９．０５．２２　かし山
 50
0.0
 41
0.9
 51
0.0
  7
KANJI16
  0
LINE
  8
0
  6
LTYPE2
 62
     2
 10
370.072857143
 20
829.257142857
 30
0.0
 11
323.072857143
 21
829.257142857
 31
0.0
  0
LINE
  8
0
  6
LTYPE2
 62
     2
 10
372.072857143
 20
679.257142857
 30
0.0
 11
318.072857143
 21
679.257142857
 31
0.0
  0
LINE
  8
0
  6
CONTINUOUS
 62
     1
 10
464.372857143
 20
659.257142857
 30
0.0
 11
338.372857143
 21
659.257142857
 31
0.0
  0
LINE
  8
0
  6
CONTINUOUS
 62
     1
 10
338.372857143
 20
679.257142857
 30
0.0
 11
338.372857143
 21
665.426154759
 31
0.0
  0
LINE
  8
0
  6
CONTINUOUS
 62
     1
 10
338.372857143
 20
679.257142857
 30
0.0
 11
338.372857143
 21
693.088130955
 31
0.0
  0
LINE
  8
0
  6
CONTINUOUS
 62
     1
 10
328.37294853
 20
668.813335518
 30
0.0
 11
330.328538253
 21
665.426154759
 31
0.0
  0
LINE
  8
0
  6
CONTINUOUS
 62
     1
 10
328.37294853
 20
679.257142857
 30
0.0
 11
328.37294853
 21
668.813335518
 31
0.0
  0
LINE
  8
0
  6
CONTINUOUS
 62
     1
 10
328.37294853
 20
689.700950196
 30
0.0
 11
330.328538253
 21
693.088130955
 31
0.0
  0
LINE
  8
0
  6
CONTINUOUS
 62
     1
 10
328.37294853
 20
679.257142857
 30
0.0
 11
328.37294853
 21
689.700950196
 31
0.0
  0
ARC
  8
0
  6
CONTINUOUS
 62
     1
 10
341.578271841
 20
679.257142857
 30
0.0
 40
13.20532331
 50
148.419912243
 51
211.580087757
  0
ARC
  8
0
  6
CONTINUOUS
 62
     1
 10
332.406352333
 20
668.883901784
 30
0.0
 40
4.034021051
 50
121.002313915
 51
182.989498403
  0
LINE
  8
0
  6
CONTINUOUS
 62
     1
 10
328.37294853
 20
689.700950196
 30
0.0
 11
330.328538253
 21
693.088130955
 31
0.0
  0
ARC
  8
0
  6
CONTINUOUS
 62
     1
 10
332.406352333
 20
689.63038393
 30
0.0
 40
4.034021051
 50
177.010501597
 51
238.997686085
  0
LINE
  8
0
  6
CONTINUOUS
 62
     1
 10
338.372857143
 20
665.426154759
 30
0.0
 11
330.328538253
 21
665.426154759
 31
0.0
  0
LINE
  8
0
  6
CONTINUOUS
 62
     1
 10
338.372857143
 20
672.341648808
 30
0.0
 11
330.328538253
 21
672.341648808
 31
0.0
  0
LINE
  8
0
  6
CONTINUOUS
 62
     1
 10
338.372857143
 20
686.172636906
 30
0.0
 11
330.328538253
 21
686.172636906
 31
0.0
  0
LINE
  8
0
  6
CONTINUOUS
 62
     1
 10
338.372857143
 20
693.088130955
 30
0.0
 11
330.328538253
 21
693.088130955
 31
0.0
  0
LINE
  8
0
  6
CONTINUOUS
 62
     1
 10
338.372857143
 20
829.257142857
 30
0.0
 11
338.372857143
 21
815.426154759
 31
0.0
  0
LINE
  8
0
  6
CONTINUOUS
 62
     1
 10
338.372857143
 20
829.257142857
 30
0.0
 11
338.372857143
 21
843.088130955
 31
0.0
  0
LINE
  8
0
  6
CONTINUOUS
 62
     1
 10
328.37294853
 20
818.813335518
 30
0.0
 11
330.328538253
 21
815.426154759
 31
0.0
  0
LINE
  8
0
  6
CONTINUOUS
 62
     1
 10
328.37294853
 20
829.257142857
 30
0.0
 11
328.37294853
 21
818.813335518
 31
0.0
  0
LINE
  8
0
  6
CONTINUOUS
 62
     1
 10
328.37294853
 20
839.700950196
 30
0.0
 11
330.328538253
 21
843.088130955
 31
0.0
  0
LINE
  8
0
  6
CONTINUOUS
 62
     1
 10
328.37294853
 20
829.257142857
 30
0.0
 11
328.37294853
 21
839.700950196
 31
0.0
  0
ARC
  8
0
  6
CONTINUOUS
 62
     1
 10
341.578271841
 20
829.257142857
 30
0.0
 40
13.20532331
 50
148.419912243
 51
211.580087757
  0
ARC
  8
0
  6
CONTINUOUS
 62
     1
 10
332.406352333
 20
818.883901784
 30
0.0
 40
4.034021051
 50
121.002313915
 51
182.989498403
  0
LINE
  8
0
  6
CONTINUOUS
 62
     1
 10
328.37294853
 20
839.700950196
 30
0.0
 11
330.328538253
 21
843.088130955
 31
0.0
  0
ARC
  8
0
  6
CONTINUOUS
 62
     1
 10
332.406352333
 20
839.63038393
 30
0.0
 40
4.034021051
 50
177.010501597
 51
238.997686085
  0
LINE
  8
0
  6
CONTINUOUS
 62
     1
 10
338.372857143
 20
815.426154759
 30
0.0
 11
330.328538253
 21
815.426154759
 31
0.0
  0
LINE
  8
0
  6
CONTINUOUS
 62
     1
 10
338.372857143
 20
822.341648808
 30
0.0
 11
330.328538253
 21
822.341648808
 31
0.0
  0
LINE
  8
0
  6
CONTINUOUS
 62
     1
 10
338.372857143
 20
836.172636906
 30
0.0
 11
330.328538253
 21
836.172636906
 31
0.0
  0
LINE
  8
0
  6
CONTINUOUS
 62
     1
 10
338.372857143
 20
843.088130955
 30
0.0
 11
330.328538253
 21
843.088130955
 31
0.0
  0
CIRCLE
  8
0
  6
CONTINUOUS
 62
     1
 10
564.372857143
 20
754.257142857
 30
0.0
 40
15.0
  0
CIRCLE
  8
0
  6
CONTINUOUS
 62
     1
 10
564.372857143
 20
754.257142857
 30
0.0
 40
30.0
  0
CIRCLE
  8
0
  6
CONTINUOUS
 62
     1
 10
564.372857143
 20
754.257142857
 30
0.0
 40
34.0
  0
LINE
  8
0
  6
CONTINUOUS
 62
     1
 10
464.372857143
 20
834.257142857
 30
0.0
 11
464.372857143
 21
674.257142857
 31
0.0
  0
LINE
  8
0
  6
CONTINUOUS
 62
     1
 10
566.372857143
 20
686.257142857
 30
0.0
 11
640.372857143
 21
686.257142857
 31
0.0
  0
LINE
  8
0
  6
CONTINUOUS
 62
     1
 10
566.372857143
 20
704.857142857
 30
0.0
 11
566.372857143
 21
686.257142857
 31
0.0
  0
LINE
  8
0
  6
CONTINUOUS
 62
     1
 10
640.372857143
 20
705.557142857
 30
0.0
 11
640.372857143
 21
686.257142857
 31
0.0
  0
LINE
  8
0
  6
LTYPE2
 62
     2
 10
564.372857143
 20
799.257142857
 30
0.0
 11
564.372857143
 21
709.257142857
 31
0.0
  0
LINE
  8
0
  6
CONTINUOUS
 62
     1
 10
464.372857143
 20
834.257142857
 30
0.0
 11
480.372857143
 21
834.257142857
 31
0.0
  0
ARC
  8
0
  6
CONTINUOUS
 62
     1
 10
480.372857143
 20
832.257142857
 30
0.0
 40
2.0
 50
0.0
 51
90.0
  0
LINE
  8
0
  6
CONTINUOUS
 62
     1
 10
464.372857143
 20
674.257142857
 30
0.0
 11
480.372857143
 21
674.257142857
 31
0.0
  0
LINE
  8
0
  6
CONTINUOUS
 62
     1
 10
482.372857143
 20
832.257142857
 30
0.0
 11
482.372857143
 21
676.257142857
 31
0.0
  0
ARC
  8
0
  6
CONTINUOUS
 62
     1
 10
480.372857143
 20
676.257142857
 30
0.0
 40
2.0
 50
270.0
 51
0.0
  0
LINE
  8
0
  6
CONTINUOUS
 62
     1
 10
640.472857143
 20
689.257142857
 30
0.0
 11
705.372857143
 21
689.257142857
 31
0.0
  0
LINE
  8
0
  6
CONTINUOUS
 62
     1
 10
486.372857143
 20
694.257142857
 30
0.0
 11
486.372857143
 21
708.088130955
 31
0.0
  0
LINE
  8
0
  6
CONTINUOUS
 62
     1
 10
486.372857143
 20
694.257142857
 30
0.0
 11
486.372857143
 21
680.426154759
 31
0.0
  0
POINT
  8
0
  6
CONTINUOUS
 62
     1
 10
482.372857143
 20
708.257142857
 30
0.0
  0
LINE
  8
0
  6
CONTINUOUS
 62
     1
 10
482.372857143
 20
708.257142857
 30
0.0
 11
486.372857143
 21
708.257142857
 31
0.0
  0
LINE
  8
0
  6
CONTINUOUS
 62
     1
 10
482.372857143
 20
694.257142857
 30
0.0
 11
486.372854138
 21
698.257139852
 31
0.0
  0
LINE
  8
0
  6
CONTINUOUS
 62
     1
 10
486.372854138
 20
694.257142857
 30
0.0
 11
482.372857143
 21
690.257145862
 31
0.0
  0
POINT
  8
0
  6
CONTINUOUS
 62
     1
 10
482.372857143
 20
680.257142857
 30
0.0
  0
LINE
  8
0
  6
CONTINUOUS
 62
     1
 10
482.372857143
 20
680.257142857
 30
0.0
 11
486.372857143
 21
680.257142857
 31
0.0
  0
LINE
  8
0
  6
CONTINUOUS
 62
     1
 10
501.372857143
 20
694.257142634
 30
0.0
 11
501.372857143
 21
706.257142857
 31
0.0
  0
LINE
  8
0
  6
CONTINUOUS
 62
     1
 10
486.372857143
 20
706.257142857
 30
0.0
 11
501.372857143
 21
706.257142857
 31
0.0
  0
LINE
  8
0
  6
CONTINUOUS
 62
     1
 10
501.372857143
 20
706.257142857
 30
0.0
 11
502.372857143
 21
704.52509205
 31
0.0
  0
LINE
  8
0
  6
CONTINUOUS
 62
     1
 10
502.372857143
 20
694.257142619
 30
0.0
 11
502.372857143
 21
704.52509205
 31
0.0
  0
LINE
  8
0
  6
CONTINUOUS
 62
     1
 10
501.372857143
 20
694.257143081
 30
0.0
 11
501.372857143
 21
682.257142857
 31
0.0
  0
LINE
  8
0
  6
CONTINUOUS
 62
     1
 10
486.372857143
 20
682.257142857
 30
0.0
 11
501.372857143
 21
682.257142857
 31
0.0
  0
LINE
  8
0
  6
CONTINUOUS
 62
     1
 10
501.372857143
 20
682.257142857
 30
0.0
 11
502.372857143
 21
683.989193665
 31
0.0
  0
LINE
  8
0
  6
CONTINUOUS
 62
     1
 10
502.372857143
 20
694.257143096
 30
0.0
 11
502.372857143
 21
683.989193665
 31
0.0
  0
LINE
  8
0
  6
CONTINUOUS
 62
     1
 10
502.372857143
 20
689.257142857
 30
0.0
 11
566.572857143
 21
689.257142857
 31
0.0
  0
LINE
  8
0
  6
LTYPE2
 62
     2
 10
452.672857143
 20
694.257142857
 30
0.0
 11
508.472857143
 21
694.257142857
 31
0.0
  0
LINE
  8
0
  6
CONTINUOUS
 62
     1
 10
486.372857143
 20
814.257142857
 30
0.0
 11
486.372857143
 21
800.426154759
 31
0.0
  0
LINE
  8
0
  6
CONTINUOUS
 62
     1
 10
486.372857143
 20
814.257142857
 30
0.0
 11
486.372857143
 21
828.088130955
 31
0.0
  0
POINT
  8
0
  6
CONTINUOUS
 62
     1
 10
482.372857143
 20
800.257142857
 30
0.0
  0
LINE
  8
0
  6
CONTINUOUS
 62
     1
 10
482.372857143
 20
800.257142857
 30
0.0
 11
486.372857143
 21
800.257142857
 31
0.0
  0
LINE
  8
0
  6
CONTINUOUS
 62
     1
 10
482.372857143
 20
814.257142857
 30
0.0
 11
486.372854138
 21
810.257145862
 31
0.0
  0
LINE
  8
0
  6
CONTINUOUS
 62
     1
 10
486.372854138
 20
814.257142857
 30
0.0
 11
482.372857143
 21
818.257139852
 31
0.0
  0
POINT
  8
0
  6
CONTINUOUS
 62
     1
 10
482.372857143
 20
828.257142857
 30
0.0
  0
LINE
  8
0
  6
CONTINUOUS
 62
     1
 10
482.372857143
 20
828.257142857
 30
0.0
 11
486.372857143
 21
828.257142857
 31
0.0
  0
LINE
  8
0
  6
CONTINUOUS
 62
     1
 10
501.372857143
 20
814.257143081
 30
0.0
 11
501.372857143
 21
802.257142857
 31
0.0
  0
LINE
  8
0
  6
CONTINUOUS
 62
     1
 10
486.372857143
 20
802.257142857
 30
0.0
 11
501.372857143
 21
802.257142857
 31
0.0
  0
LINE
  8
0
  6
CONTINUOUS
 62
     1
 10
501.372857143
 20
802.257142857
 30
0.0
 11
502.372857143
 21
803.989193665
 31
0.0
  0
LINE
  8
0
  6
CONTINUOUS
 62
     1
 10
502.372857143
 20
814.257143096
 30
0.0
 11
502.372857143
 21
803.989193665
 31
0.0
  0
LINE
  8
0
  6
CONTINUOUS
 62
     1
 10
501.372857143
 20
814.257142634
 30
0.0
 11
501.372857143
 21
826.257142857
 31
0.0
  0
LINE
  8
0
  6
CONTINUOUS
 62
     1
 10
486.372857143
 20
826.257142857
 30
0.0
 11
501.372857143
 21
826.257142857
 31
0.0
  0
LINE
  8
0
  6
CONTINUOUS
 62
     1
 10
501.372857143
 20
826.257142857
 30
0.0
 11
502.372857143
 21
824.52509205
 31
0.0
  0
LINE
  8
0
  6
CONTINUOUS
 62
     1
 10
502.372857143
 20
814.257142619
 30
0.0
 11
502.372857143
 21
824.52509205
 31
0.0
  0
LINE
  8
0
  6
LTYPE2
 62
     2
 10
452.672857143
 20
814.257142857
 30
0.0
 11
508.472857143
 21
814.257142857
 31
0.0
  0
LINE
  8
0
  6
CONTINUOUS
 62
     1
 10
502.372857143
 20
819.257142857
 30
0.0
 11
705.372857143
 21
819.257142857
 31
0.0
  0
LINE
  8
0
  6
CONTINUOUS
 62
     1
 10
566.372857143
 20
684.757142857
 30
0.0
 11
640.372857143
 21
684.757142857
 31
0.0
  0
LINE
  8
0
  6
CONTINUOUS
 62
     1
 10
649.372857143
 20
684.757142857
 30
0.0
 11
649.372857143
 21
683.757142857
 31
0.0
  0
ARC
  8
0
  6
CONTINUOUS
 62
     1
 10
562.372857143
 20
681.757142857
 30
0.0
 40
3.0
 50
90.0
 51
180.0
  0
LINE
  8
0
  6
CONTINUOUS
 62
     1
 10
688.372857143
 20
641.757142857
 30
0.0
 11
559.372857143
 21
641.757142857
 31
0.0
  0
LINE
  8
0
  6
CONTINUOUS
 62
     1
 10
649.372857143
 20
683.757142857
 30
0.0
 11
685.372857143
 21
683.757142857
 31
0.0
  0
ARC
  8
0
  6
CONTINUOUS
 62
     1
 10
685.372857143
 20
680.757142857
 30
0.0
 40
3.0
 50
0.0
 51
90.0
  0
LINE
  8
0
  6
CONTINUOUS
 62
     1
 10
688.372857143
 20
640.257142857
 30
0.0
 11
559.372857143
 21
640.257142857
 31
0.0
  0
LINE
  8
0
  6
CONTINUOUS
 62
     1
 10
688.372857143
 20
635.257142857
 30
0.0
 11
688.372857143
 21
680.757142857
 31
0.0
  0
ARC
  8
0
  6
CONTINUOUS
 62
     1
 10
687.372857143
 20
635.257142857
 30
0.0
 40
1.0
 50
270.0
 51
0.0
  0
LINE
  8
0
  6
CONTINUOUS
 62
     1
 10
685.372857143
 20
634.257142857
 30
0.0
 11
685.372857143
 21
634.257142857
 31
0.0
  0
ARC
  8
0
  6
CONTINUOUS
 62
     1
 10
684.372857143
 20
634.257142857
 30
0.0
 40
1.0
 50
270.0
 51
0.0
  0
LINE
  8
0
  6
CONTINUOUS
 62
     1
 10
559.372857143
 20
635.257142857
 30
0.0
 11
559.372857143
 21
681.757142857
 31
0.0
  0
LINE
  8
0
  6
CONTINUOUS
 62
     1
 10
687.372857143
 20
634.257142857
 30
0.0
 11
560.372857143
 21
634.257142857
 31
0.0
  0
ARC
  8
0
  6
CONTINUOUS
 62
     1
 10
560.372857143
 20
635.257142857
 30
0.0
 40
1.0
 50
180.0
 51
270.0
  0
ARC
  8
0
  6
CONTINUOUS
 62
     1
 10
563.372857143
 20
634.257142857
 30
0.0
 40
1.0
 50
180.0
 51
270.0
  0
LINE
  8
0
  6
CONTINUOUS
 62
     1
 10
684.372857143
 20
633.257142857
 30
0.0
 11
563.472857143
 21
633.257142857
 31
0.0
  0
LINE
  8
0
  6
CONTINUOUS
 62
     1
 10
562.372857143
 20
684.757142857
 30
0.0
 11
649.372857143
 21
684.757142857
 31
0.0
  0
LINE
  8
0
  6
CONTINUOUS
 62
     1
 10
562.372857143
 20
686.257142857
 30
0.0
 11
649.372857143
 21
686.257142857
 31
0.0
  0
LINE
  8
0
  6
LTYPE2
 62
     2
 10
603.372857143
 20
702.957142857
 30
0.0
 11
603.372857143
 21
669.457142857
 31
0.0
  0
LINE
  8
0
  6
LTYPE2
 62
     2
 10
694.572857143
 20
658.757142857
 30
0.0
 11
674.872857143
 21
658.757142857
 31
0.0
  0
LINE
  8
0
  6
LTYPE1
 62
     2
 10
688.372857143
 20
668.057142857
 30
0.0
 11
678.372857143
 21
668.057142857
 31
0.0
  0
LINE
  8
0
  6
LTYPE1
 62
     2
 10
688.372857143
 20
669.257142857
 30
0.0
 11
678.372857143
 21
669.257142857
 31
0.0
  0
LINE
  8
0
  6
LTYPE1
 62
     2
 10
688.372857143
 20
649.457142857
 30
0.0
 11
678.372857143
 21
649.457142857
 31
0.0
  0
LINE
  8
0
  6
LTYPE1
 62
     2
 10
688.372857143
 20
648.257142857
 30
0.0
 11
678.372857143
 21
648.257142857
 31
0.0
  0
LINE
  8
0
  6
CONTINUOUS
 62
     1
 10
705.372857143
 20
759.257142857
 30
0.0
 11
717.372857143
 21
759.257142857
 31
0.0
  0
LINE
  8
0
  6
CONTINUOUS
 62
     1
 10
705.372857143
 20
749.257142857
 30
0.0
 11
717.372857143
 21
749.257142857
 31
0.0
  0
LINE
  8
0
  6
CONTINUOUS
 62
     1
 10
705.372857143
 20
821.757142857
 30
0.0
 11
717.372857143
 21
821.757142857
 31
0.0
  0
LINE
  8
0
  6
CONTINUOUS
 62
     1
 10
705.372857143
 20
817.757142857
 30
0.0
 11
717.372857143
 21
817.757142857
 31
0.0
  0
LINE
  8
0
  6
CONTINUOUS
 62
     1
 10
705.372857143
 20
686.757142857
 30
0.0
 11
717.372857143
 21
686.757142857
 31
0.0
  0
LINE
  8
0
  6
CONTINUOUS
 62
     1
 10
705.372857143
 20
690.757142857
 30
0.0
 11
717.372857143
 21
690.757142857
 31
0.0
  0
LINE
  8
0
  6
CONTINUOUS
 62
     1
 10
705.372857143
 20
821.757142857
 30
0.0
 11
705.372857143
 21
686.757142857
 31
0.0
  0
LINE
  8
0
  6
CONTINUOUS
 62
     1
 10
717.372857143
 20
821.757142857
 30
0.0
 11
717.372857143
 21
686.757142857
 31
0.0
  0
LINE
  8
0
  6
CONTINUOUS
 62
     1
 10
802.072857143
 20
779.257142857
 30
0.0
 11
852.072857143
 21
779.257142857
 31
0.0
  0
LINE
  8
0
  6
CONTINUOUS
 62
     1
 10
852.072857143
 20
779.257142857
 30
0.0
 11
852.072857143
 21
729.257142857
 31
0.0
  0
LINE
  8
0
  6
CONTINUOUS
 62
     1
 10
802.072857143
 20
729.257142857
 30
0.0
 11
852.072857143
 21
729.257142857
 31
0.0
  0
LINE
  8
0
  6
CONTINUOUS
 62
     1
 10
802.072857143
 20
779.257142857
 30
0.0
 11
802.072857143
 21
729.257142857
 31
0.0
  0
CIRCLE
  8
0
  6
CONTINUOUS
 62
     1
 10
827.072857143
 20
754.257142857
 30
0.0
 40
25.0
  0
LINE
  8
0
  6
LTYPE3
 62
     2
 10
827.072857143
 20
791.457142857
 30
0.0
 11
827.072857143
 21
717.457142857
 31
0.0
  0
LINE
  8
0
  6
CONTINUOUS
 62
     2
 10
688.472857143
 20
658.257142857
 30
0.0
 11
699.430211584
 21
648.013296722
 31
0.0
  0
LINE
  8
0
  6
CONTINUOUS
 62
     2
 10
688.472857143
 20
658.257142857
 30
0.0
 11
703.084127515
 21
654.864389092
 31
0.0
  0
LINE
  8
0
  6
CONTINUOUS
 62
     2
 10
688.472857143
 20
658.257142857
 30
0.0
 11
748.472857143
 21
626.257142857
 31
0.0
  0
LINE
  8
0
  6
CONTINUOUS
 62
     2
 10
748.472857143
 20
626.257142857
 30
0.0
 11
836.672857143
 21
626.257142857
 31
0.0
  0
LINE
  8
0
  6
CONTINUOUS
 62
     2
 10
564.372857143
 20
700.257142857
 30
0.0
 11
564.372857143
 21
508.257142857
 31
0.0
  0
LINE
  8
0
  6
CONTINUOUS
 62
     2
 10
564.372857143
 20
517.257142857
 30
0.0
 11
549.883969749
 21
521.139428534
 31
0.0
  0
LINE
  8
0
  6
CONTINUOUS
 62
     2
 10
564.372857143
 20
517.257142857
 30
0.0
 11
549.883969749
 21
513.374857181
 31
0.0
  0
LINE
  8
0
  6
CONTINUOUS
 62
     2
 10
564.372857143
 20
517.257142857
 30
0.0
 11
464.372857143
 21
517.257142857
 31
0.0
  0
LINE
  8
0
  6
CONTINUOUS
 62
     2
 10
464.372857143
 20
517.257142857
 30
0.0
 11
478.861744537
 21
513.374857181
 31
0.0
  0
LINE
  8
0
  6
CONTINUOUS
 62
     2
 10
464.372857143
 20
517.257142857
 30
0.0
 11
478.861744537
 21
521.139428534
 31
0.0
  0
LINE
  8
0
  6
CONTINUOUS
 62
     2
 10
464.372857143
 20
650.257142857
 30
0.0
 11
464.372857143
 21
508.257142857
 31
0.0
  0
LINE
  8
0
  6
CONTINUOUS
 62
     2
 10
464.372857143
 20
517.257142857
 30
0.0
 11
449.883969749
 21
521.139428534
 31
0.0
  0
LINE
  8
0
  6
CONTINUOUS
 62
     2
 10
464.372857143
 20
517.257142857
 30
0.0
 11
449.883969749
 21
513.374857181
 31
0.0
  0
LINE
  8
0
  6
CONTINUOUS
 62
     2
 10
464.372857143
 20
517.257142857
 30
0.0
 11
338.372857143
 21
517.257142857
 31
0.0
  0
LINE
  8
0
  6
CONTINUOUS
 62
     2
 10
338.372857143
 20
517.257142857
 30
0.0
 11
352.861744537
 21
513.374857181
 31
0.0
  0
LINE
  8
0
  6
CONTINUOUS
 62
     2
 10
338.372857143
 20
517.257142857
 30
0.0
 11
352.861744537
 21
521.139428534
 31
0.0
  0
LINE
  8
0
  6
CONTINUOUS
 62
     2
 10
338.372857143
 20
650.257142857
 30
0.0
 11
338.372857143
 21
508.257142857
 31
0.0
  0
LINE
  8
0
  6
CONTINUOUS
 62
     2
 10
338.372857143
 20
508.257142857
 30
0.0
 11
338.372857143
 21
469.757142857
 31
0.0
  0
LINE
  8
0
  6
CONTINUOUS
 62
     2
 10
338.372857143
 20
478.757142857
 30
0.0
 11
352.861744537
 21
474.874857181
 31
0.0
  0
LINE
  8
0
  6
CONTINUOUS
 62
     2
 10
338.372857143
 20
478.757142857
 30
0.0
 11
352.861744537
 21
482.639428534
 31
0.0
  0
LINE
  8
0
  6
CONTINUOUS
 62
     2
 10
338.372857143
 20
478.757142857
 30
0.0
 11
564.372857143
 21
478.757142857
 31
0.0
  0
LINE
  8
0
  6
CONTINUOUS
 62
     2
 10
564.372857143
 20
478.757142857
 30
0.0
 11
549.883969749
 21
482.639428534
 31
0.0
  0
LINE
  8
0
  6
CONTINUOUS
 62
     2
 10
564.372857143
 20
478.757142857
 30
0.0
 11
549.883969749
 21
474.874857181
 31
0.0
  0
LINE
  8
0
  6
CONTINUOUS
 62
     2
 10
564.372857143
 20
508.257142857
 30
0.0
 11
564.372857143
 21
469.757142857
 31
0.0
  0
LINE
  8
0
  6
CONTINUOUS
 62
     2
 10
564.372857143
 20
478.757142857
 30
0.0
 11
578.861744537
 21
474.874857181
 31
0.0
  0
LINE
  8
0
  6
CONTINUOUS
 62
     2
 10
564.372857143
 20
478.757142857
 30
0.0
 11
578.861744537
 21
482.639428534
 31
0.0
  0
LINE
  8
0
  6
CONTINUOUS
 62
     2
 10
564.372857143
 20
478.757142857
 30
0.0
 11
1198.972857143
 21
478.757142857
 31
0.0
  0
LINE
  8
0
  6
CONTINUOUS
 62
     2
 10
564.372857143
 20
517.257142857
 30
0.0
 11
578.861744537
 21
513.374857181
 31
0.0
  0
LINE
  8
0
  6
CONTINUOUS
 62
     2
 10
564.372857143
 20
517.257142857
 30
0.0
 11
578.861744537
 21
521.139428534
 31
0.0
  0
LINE
  8
0
  6
CONTINUOUS
 62
     2
 10
564.372857143
 20
517.257142857
 30
0.0
 11
1039.972857143
 21
517.257142857
 31
0.0
  0
LINE
  8
0
  6
CONTINUOUS
 62
     2
 10
338.372857143
 20
469.757142857
 30
0.0
 11
338.372857143
 21
431.757142857
 31
0.0
  0
LINE
  8
0
  6
CONTINUOUS
 62
     2
 10
587.472857143
 20
630.707142857
 30
0.0
 11
588.813439475
 21
615.767168325
 31
0.0
  0
LINE
  8
0
  6
CONTINUOUS
 62
     2
 10
587.472857143
 20
630.707142857
 30
0.0
 11
596.103822764
 21
618.439036547
 31
0.0
  0
LINE
  8
0
  6
CONTINUOUS
 62
     2
 10
587.472857143
 20
630.707142857
 30
0.0
 11
622.472857143
 21
535.207142857
 31
0.0
  0
LINE
  8
0
  6
CONTINUOUS
 62
     2
 10
622.472857143
 20
535.207142857
 30
0.0
 11
728.672857143
 21
535.207142857
 31
0.0
  0
LINE
  8
0
  6
CONTINUOUS
 62
     2
 10
1198.972857143
 20
440.757142857
 30
0.0
 11
338.372857143
 21
440.757142857
 31
0.0
  0
LINE
  8
0
  6
CONTINUOUS
 62
     2
 10
338.372857143
 20
440.757142857
 30
0.0
 11
352.861744537
 21
436.874857181
 31
0.0
  0
LINE
  8
0
  6
CONTINUOUS
 62
     2
 10
338.372857143
 20
440.757142857
 30
0.0
 11
352.861744537
 21
444.639428534
 31
0.0
  0
LINE
  8
0
  6
CONTINUOUS
 62
     1
 10
464.372857143
 20
660.007142857
 30
0.0
 11
464.372857143
 21
1033.007142857
 31
0.0
  0
LINE
  8
0
  6
CONTINUOUS
 62
     1
 10
454.372857143
 20
1033.007142857
 30
0.0
 11
444.372857143
 21
984.257142857
 31
0.0
  0
LINE
  8
0
  6
CONTINUOUS
 62
     1
 10
464.372857143
 20
1033.007142857
 30
0.0
 11
454.372857143
 21
1033.007142857
 31
0.0
  0
LINE
  8
0
  6
CONTINUOUS
 62
     1
 10
374.372857143
 20
984.257142857
 30
0.0
 11
374.372857143
 21
1017.257142857
 31
0.0
  0
LINE
  8
0
  6
CONTINUOUS
 62
     1
 10
444.372857143
 20
984.257142857
 30
0.0
 11
356.372857143
 21
984.257142857
 31
0.0
  0
LINE
  8
0
  6
CONTINUOUS
 62
     1
 10
356.372857143
 20
660.007142857
 30
0.0
 11
356.372857143
 21
984.257142857
 31
0.0
  0
LINE
  8
0
  6
LTYPE2
 62
     2
 10
404.372857143
 20
988.157142857
 30
0.0
 11
404.372857143
 21
1033.007142857
 31
0.0
  0
LINE
  8
0
  6
CONTINUOUS
 62
     1
 10
444.372857143
 20
891.007142857
 30
0.0
 11
444.372857143
 21
984.257142857
 31
0.0
  0
LINE
  8
0
  6
CONTINUOUS
 62
     1
 10
451.142087912
 20
1017.257142857
 30
0.0
 11
374.372857143
 21
1017.257142857
 31
0.0
  0
LINE
  8
0
  6
CONTINUOUS
 62
     1
 10
352.372857143
 20
921.757142857
 30
0.0
 11
352.372857143
 21
952.757142857
 31
0.0
  0
LINE
  8
0
  6
CONTINUOUS
 62
     1
 10
356.372857143
 20
921.757142857
 30
0.0
 11
352.372857143
 21
921.757142857
 31
0.0
  0
LINE
  8
0
  6
CONTINUOUS
 62
     1
 10
356.372857143
 20
952.757142857
 30
0.0
 11
352.372857143
 21
952.757142857
 31
0.0
  0
LINE
  8
0
  6
CONTINUOUS
 62
     1
 10
352.372857143
 20
952.257142857
 30
0.0
 11
324.372857143
 21
952.257142857
 31
0.0
  0
LINE
  8
0
  6
CONTINUOUS
 62
     1
 10
324.372857143
 20
952.257142857
 30
0.0
 11
322.372857143
 21
950.257142857
 31
0.0
  0
LINE
  8
0
  6
CONTINUOUS
 62
     1
 10
352.372857143
 20
922.257142857
 30
0.0
 11
324.372857143
 21
922.257142857
 31
0.0
  0
LINE
  8
0
  6
CONTINUOUS
 62
     1
 10
322.372857143
 20
924.257142857
 30
0.0
 11
322.372857143
 21
950.257142857
 31
0.0
  0
LINE
  8
0
  6
CONTINUOUS
 62
     1
 10
324.372857143
 20
922.257142857
 30
0.0
 11
322.372857143
 21
924.257142857
 31
0.0
  0
LINE
  8
0
  6
CONTINUOUS
 62
     1
 10
444.372857143
 20
891.007142857
 30
0.0
 11
338.372857143
 21
891.007142857
 31
0.0
  0
LINE
  8
0
  6
CONTINUOUS
 62
     1
 10
338.372857143
 20
660.007142857
 30
0.0
 11
338.372857143
 21
891.007142857
 31
0.0
  0
CIRCLE
  8
0
  6
CONTINUOUS
 62
     1
 10
404.372857143
 20
1042.357142857
 30
0.0
 40
15.0
  0
LINE
  8
0
  6
CONTINUOUS
 62
     1
 10
415.774126106
 20
1025.358673275
 30
0.0
 11
404.372857143
 21
1027.357142857
 31
0.0
  0
LINE
  8
0
  6
CONTINUOUS
 62
     1
 10
404.372857143
 20
1025.357142857
 30
0.0
 11
415.77431291
 21
1025.357142857
 31
0.0
  0
ARC
  8
0
  6
CONTINUOUS
 62
     1
 10
404.372857143
 20
1042.357142857
 30
0.0
 40
25.0
 50
300.714883545
 51
0.0
  0
LINE
  8
0
  6
CONTINUOUS
 62
     1
 10
416.489952289
 20
1019.494152346
 30
0.0
 11
415.77431291
 21
1025.357142857
 31
0.0
  0
LINE
  8
0
  6
CONTINUOUS
 62
     1
 10
416.872857143
 20
1016.357142857
 30
0.0
 11
416.489952289
 21
1019.494152346
 31
0.0
  0
ARC
  8
0
  6
CONTINUOUS
 62
     1
 10
417.878479858
 20
1019.673268517
 30
0.0
 40
1.4
 50
121.733468281
 51
187.57738995
  0
LINE
  8
0
  6
CONTINUOUS
 62
     1
 10
392.971588179
 20
1025.358673275
 30
0.0
 11
404.372857143
 21
1027.357142857
 31
0.0
  0
LINE
  8
0
  6
CONTINUOUS
 62
     1
 10
404.372857143
 20
1025.357142857
 30
0.0
 11
392.971401376
 21
1025.357142857
 31
0.0
  0
LINE
  8
0
  6
CONTINUOUS
 62
     1
 10
392.255761996
 20
1019.494152346
 30
0.0
 11
392.971401376
 21
1025.357142857
 31
0.0
  0
LINE
  8
0
  6
CONTINUOUS
 62
     1
 10
391.872857143
 20
1016.357142857
 30
0.0
 11
392.255761996
 21
1019.494152346
 31
0.0
  0
ARC
  8
0
  6
CONTINUOUS
 62
     1
 10
390.867234428
 20
1019.673268517
 30
0.0
 40
1.4
 50
352.42261005
 51
58.266531719
  0
ARC
  8
0
  6
CONTINUOUS
 62
     1
 10
404.372857143
 20
1042.357142857
 30
0.0
 40
25.0
 50
0.0
 51
239.342761175
  0
LINE
  8
0
  6
CONTINUOUS
 62
     1
 10
464.372857143
 20
837.157142857
 30
0.0
 11
464.372857143
 21
1037.157142857
 31
0.0
  0
LINE
  8
0
  6
CONTINUOUS
 62
     2
 10
464.372857143
 20
1046.157142857
 30
0.0
 11
464.372857143
 21
1197.007142857
 31
0.0
  0
LINE
  8
0
  6
CONTINUOUS
 62
     2
 10
464.372857143
 20
1188.007142857
 30
0.0
 11
449.883969749
 21
1191.889428534
 31
0.0
  0
LINE
  8
0
  6
CONTINUOUS
 62
     2
 10
464.372857143
 20
1188.007142857
 30
0.0
 11
449.883969749
 21
1184.124857181
 31
0.0
  0
LINE
  8
0
  6
CONTINUOUS
 62
     2
 10
464.372857143
 20
1188.007142857
 30
0.0
 11
322.372857143
 21
1188.007142857
 31
0.0
  0
LINE
  8
0
  6
CONTINUOUS
 62
     2
 10
322.372857143
 20
1188.007142857
 30
0.0
 11
336.861744537
 21
1184.124857181
 31
0.0
  0
LINE
  8
0
  6
CONTINUOUS
 62
     2
 10
322.372857143
 20
1188.007142857
 30
0.0
 11
336.861744537
 21
1191.889428534
 31
0.0
  0
LINE
  8
0
  6
CONTINUOUS
 62
     2
 10
322.372857143
 20
959.257142857
 30
0.0
 11
322.372857143
 21
1197.007142857
 31
0.0
  0
LINE
  8
0
  6
CONTINUOUS
 62
     1
 10
959.972857143
 20
811.257142857
 30
0.0
 11
717.372857143
 21
811.257142857
 31
0.0
  0
LINE
  8
0
  6
CONTINUOUS
 62
     1
 10
974.972857143
 20
697.257142857
 30
0.0
 11
717.372857143
 21
697.257142857
 31
0.0
  0
LINE
  8
7
  6
CONTINUOUS
 62
     2
 10
319.472857143
 20
951.657142857
 30
0.0
 11
321.003542387
 21
966.578838561
 31
0.0
  0
LINE
  8
7
  6
CONTINUOUS
 62
     2
 10
319.472857143
 20
951.657142857
 30
0.0
 11
313.337621597
 21
965.345053026
 31
0.0
  0
LINE
  8
7
  6
CONTINUOUS
 62
     2
 10
319.472857143
 20
951.657142857
 30
0.0
 11
304.472857143
 21
1044.857142857
 31
0.0
  0
LINE
  8
7
  6
CONTINUOUS
 62
     2
 10
304.472857143
 20
1044.857142857
 30
0.0
 11
198.272857143
 21
1044.857142857
 31
0.0
  0
LINE
  8
2
  6
CONTINUOUS
 62
     2
 10
770.472857143
 20
697.257142857
 30
0.0
 11
774.355142819
 21
711.746030251
 31
0.0
  0
LINE
  8
2
  6
CONTINUOUS
 62
     2
 10
770.472857143
 20
697.257142857
 30
0.0
 11
766.590571466
 21
711.746030251
 31
0.0
  0
LINE
  8
2
  6
CONTINUOUS
 62
     2
 10
770.472857143
 20
697.257142857
 30
0.0
 11
770.472857143
 21
811.257142857
 31
0.0
  0
LINE
  8
2
  6
CONTINUOUS
 62
     2
 10
770.472857143
 20
811.257142857
 30
0.0
 11
766.590571466
 21
796.768255463
 31
0.0
  0
LINE
  8
2
  6
CONTINUOUS
 62
     2
 10
770.472857143
 20
811.257142857
 30
0.0
 11
774.355142819
 21
796.768255463
 31
0.0
  0
POINT
  8
2
  6
CONTINUOUS
 62
     2
 10
776.472857143
 20
811.257142857
 30
0.0
  0
LINE
  8
0
  6
CONTINUOUS
 62
     1
 10
476.372857143
 20
1019.932870947
 30
0.0
 11
529.044993098
 21
1019.932870947
 31
0.0
  0
LINE
  8
0
  6
CONTINUOUS
 62
     1
 10
476.372857143
 20
854.581414767
 30
0.0
 11
529.044993098
 21
854.581414767
 31
0.0
  0
LINE
  8
0
  6
CONTINUOUS
 62
     1
 10
478.872857143
 20
995.593142857
 30
0.0
 11
478.872857143
 21
1005.393142857
 31
0.0
  0
LINE
  8
0
  6
CONTINUOUS
 62
     1
 10
478.872857143
 20
1005.393142857
 30
0.0
 11
484.487216497
 21
1005.393142857
 31
0.0
  0
LINE
  8
0
  6
CONTINUOUS
 62
     1
 10
485.872857143
 20
1002.993142857
 30
0.0
 11
484.487216497
 21
1005.393142857
 31
0.0
  0
LINE
  8
0
  6
CONTINUOUS
 62
     1
 10
485.872857143
 20
995.593142857
 30
0.0
 11
485.872857143
 21
1002.993142857
 31
0.0
  0
LINE
  8
0
  6
CONTINUOUS
 62
     1
 10
478.872857143
 20
1000.493142857
 30
0.0
 11
484.487216497
 21
1000.493142857
 31
0.0
  0
LINE
  8
0
  6
CONTINUOUS
 62
     1
 10
478.872857143
 20
995.593142857
 30
0.0
 11
478.872857143
 21
985.793142857
 31
0.0
  0
LINE
  8
0
  6
CONTINUOUS
 62
     1
 10
478.872857143
 20
985.793142857
 30
0.0
 11
484.487216497
 21
985.793142857
 31
0.0
  0
LINE
  8
0
  6
CONTINUOUS
 62
     1
 10
485.872857143
 20
988.193142857
 30
0.0
 11
484.487216497
 21
985.793142857
 31
0.0
  0
LINE
  8
0
  6
CONTINUOUS
 62
     1
 10
485.872857143
 20
995.593142857
 30
0.0
 11
485.872857143
 21
988.193142857
 31
0.0
  0
LINE
  8
0
  6
CONTINUOUS
 62
     1
 10
478.872857143
 20
990.693142857
 30
0.0
 11
484.487216497
 21
990.693142857
 31
0.0
  0
ARC
  8
0
  6
CONTINUOUS
 62
     1
 10
476.516174343
 20
995.593142857
 30
0.0
 40
9.3566828
 50
328.419912243
 51
31.580087757
  0
ARC
  8
0
  6
CONTINUOUS
 62
     1
 10
483.01497331
 20
1002.943142857
 30
0.0
 40
2.858321186
 50
301.002313915
 51
2.989498403
  0
LINE
  8
0
  6
CONTINUOUS
 62
     1
 10
485.872857143
 20
988.193142857
 30
0.0
 11
484.487216497
 21
985.793142857
 31
0.0
  0
ARC
  8
0
  6
CONTINUOUS
 62
     1
 10
483.01497331
 20
988.243142857
 30
0.0
 40
2.858321186
 50
357.010501597
 51
58.997686085
  0
LINE
  8
0
  6
CONTINUOUS
 62
     1
 10
476.372857143
 20
1004.793142857
 30
0.0
 11
478.872857143
 21
1004.793142857
 31
0.0
  0
LINE
  8
0
  6
CONTINUOUS
 62
     1
 10
476.372857143
 20
995.593142857
 30
0.0
 11
478.872857139
 21
998.093142853
 31
0.0
  0
LINE
  8
0
  6
CONTINUOUS
 62
     1
 10
478.872857139
 20
995.593142857
 30
0.0
 11
476.372857143
 21
993.093142861
 31
0.0
  0
LINE
  8
0
  6
CONTINUOUS
 62
     1
 10
476.372857143
 20
986.393142857
 30
0.0
 11
478.872857143
 21
986.393142857
 31
0.0
  0
LINE
  8
0
  6
LTYPE2
 62
     2
 10
492.872857143
 20
995.593142857
 30
0.0
 11
449.872857143
 21
995.593142857
 31
0.0
  0
LINE
  8
0
  6
CONTINUOUS
 62
     1
 10
478.872857143
 20
878.921142857
 30
0.0
 11
478.872857143
 21
869.121142857
 31
0.0
  0
LINE
  8
0
  6
CONTINUOUS
 62
     1
 10
478.872857143
 20
869.121142857
 30
0.0
 11
484.487216497
 21
869.121142857
 31
0.0
  0
LINE
  8
0
  6
CONTINUOUS
 62
     1
 10
485.872857143
 20
871.521142857
 30
0.0
 11
484.487216497
 21
869.121142857
 31
0.0
  0
LINE
  8
0
  6
CONTINUOUS
 62
     1
 10
485.872857143
 20
878.921142857
 30
0.0
 11
485.872857143
 21
871.521142857
 31
0.0
  0
LINE
  8
0
  6
CONTINUOUS
 62
     1
 10
478.872857143
 20
874.021142857
 30
0.0
 11
484.487216497
 21
874.021142857
 31
0.0
  0
LINE
  8
0
  6
CONTINUOUS
 62
     1
 10
478.872857143
 20
878.921142857
 30
0.0
 11
478.872857143
 21
888.721142857
 31
0.0
  0
LINE
  8
0
  6
CONTINUOUS
 62
     1
 10
478.872857143
 20
888.721142857
 30
0.0
 11
484.487216497
 21
888.721142857
 31
0.0
  0
LINE
  8
0
  6
CONTINUOUS
 62
     1
 10
485.872857143
 20
886.321142857
 30
0.0
 11
484.487216497
 21
888.721142857
 31
0.0
  0
LINE
  8
0
  6
CONTINUOUS
 62
     1
 10
485.872857143
 20
878.921142857
 30
0.0
 11
485.872857143
 21
886.321142857
 31
0.0
  0
LINE
  8
0
  6
CONTINUOUS
 62
     1
 10
478.872857143
 20
883.821142857
 30
0.0
 11
484.487216497
 21
883.821142857
 31
0.0
  0
ARC
  8
0
  6
CONTINUOUS
 62
     1
 10
476.516174343
 20
878.921142857
 30
0.0
 40
9.3566828
 50
328.419912243
 51
31.580087757
  0
ARC
  8
0
  6
CONTINUOUS
 62
     1
 10
483.01497331
 20
871.571142857
 30
0.0
 40
2.858321186
 50
357.010501597
 51
58.997686085
  0
LINE
  8
0
  6
CONTINUOUS
 62
     1
 10
485.872857143
 20
886.321142857
 30
0.0
 11
484.487216497
 21
888.721142857
 31
0.0
  0
ARC
  8
0
  6
CONTINUOUS
 62
     1
 10
483.01497331
 20
886.271142857
 30
0.0
 40
2.858321186
 50
301.002313915
 51
2.989498403
  0
LINE
  8
0
  6
CONTINUOUS
 62
     1
 10
476.372857143
 20
869.721142857
 30
0.0
 11
478.872857143
 21
869.721142857
 31
0.0
  0
LINE
  8
0
  6
CONTINUOUS
 62
     1
 10
476.372857143
 20
878.921142857
 30
0.0
 11
478.872857139
 21
876.421142861
 31
0.0
  0
LINE
  8
0
  6
CONTINUOUS
 62
     1
 10
478.872857139
 20
878.921142857
 30
0.0
 11
476.372857143
 21
881.421142853
 31
0.0
  0
LINE
  8
0
  6
CONTINUOUS
 62
     1
 10
476.372857143
 20
888.121142857
 30
0.0
 11
478.872857143
 21
888.121142857
 31
0.0
  0
LINE
  8
0
  6
LTYPE2
 62
     2
 10
492.872857143
 20
878.921142857
 30
0.0
 11
449.872857143
 21
878.921142857
 31
0.0
  0
LINE
  8
0
  6
CONTINUOUS
 62
     1
 10
686.372857143
 20
997.257142857
 30
0.0
 11
539.372857143
 21
997.257142857
 31
0.0
  0
LINE
  8
0
  6
CONTINUOUS
 62
     1
 10
686.372857143
 20
977.257142857
 30
0.0
 11
539.372857143
 21
977.257142857
 31
0.0
  0
LINE
  8
0
  6
CONTINUOUS
 62
     1
 10
686.372857143
 20
957.257142857
 30
0.0
 11
539.372857143
 21
957.257142857
 31
0.0
  0
LINE
  8
0
  6
CONTINUOUS
 62
     1
 10
686.372857143
 20
917.257142857
 30
0.0
 11
539.372857143
 21
917.257142857
 31
0.0
  0
LINE
  8
0
  6
CONTINUOUS
 62
     1
 10
686.372857143
 20
897.257142857
 30
0.0
 11
539.372857143
 21
897.257142857
 31
0.0
  0
LINE
  8
0
  6
CONTINUOUS
 62
     1
 10
686.372857143
 20
877.257142857
 30
0.0
 11
539.372857143
 21
877.257142857
 31
0.0
  0
LINE
  8
0
  6
CONTINUOUS
 62
     1
 10
686.372857143
 20
857.257142857
 30
0.0
 11
539.372857143
 21
857.257142857
 31
0.0
  0
LINE
  8
0
  6
CONTINUOUS
 62
     1
 10
476.372857143
 20
837.257142857
 30
0.0
 11
476.372857143
 21
1037.257142857
 31
0.0
  0
LINE
  8
0
  6
CONTINUOUS
 62
     1
 10
476.372857143
 20
837.257142857
 30
0.0
 11
464.372857143
 21
837.257142857
 31
0.0
  0
LINE
  8
0
  6
CONTINUOUS
 62
     1
 10
476.372857143
 20
1037.257142857
 30
0.0
 11
464.372857143
 21
1037.257142857
 31
0.0
  0
LINE
  8
0
  6
CONTINUOUS
 62
     1
 10
821.114374417
 20
953.205244123
 30
0.0
 11
821.114374417
 21
884.205244123
 31
0.0
  0
POINT
  8
0
  6
CONTINUOUS
 62
     1
 10
821.114374417
 20
884.205244123
 30
0.0
  0
LINE
  8
0
  6
CONTINUOUS
 62
     1
 10
821.114374417
 20
884.205244123
 30
0.0
 11
826.114374417
 21
884.205244123
 31
0.0
  0
POINT
  8
0
  6
CONTINUOUS
 62
     1
 10
826.114374417
 20
884.205244123
 30
0.0
  0
LINE
  8
0
  6
CONTINUOUS
 62
     1
 10
826.114374417
 20
884.205244123
 30
0.0
 11
826.114374417
 21
953.205244123
 31
0.0
  0
LINE
  8
0
  6
CONTINUOUS
 62
     1
 10
821.114374417
 20
953.205244123
 30
0.0
 11
830.914374417
 21
953.205244123
 31
0.0
  0
LINE
  8
0
  6
CONTINUOUS
 62
     1
 10
830.914374417
 20
921.309041591
 30
0.0
 11
830.914374417
 21
953.205244123
 31
0.0
  0
LINE
  8
0
  6
CONTINUOUS
 62
     1
 10
826.114374417
 20
921.309041591
 30
0.0
 11
830.914374417
 21
921.309041591
 31
0.0
  0
LINE
  8
0
  6
CONTINUOUS
 62
     1
 10
821.114374417
 20
941.457142857
 30
0.0
 11
814.414374417
 21
941.457142857
 31
0.0
  0
LINE
  8
0
  6
CONTINUOUS
 62
     1
 10
821.114374417
 20
933.057142857
 30
0.0
 11
814.414374417
 21
933.057142857
 31
0.0
  0
LINE
  8
0
  6
CONTINUOUS
 62
     1
 10
826.114374417
 20
897.007142857
 30
0.0
 11
831.514374417
 21
897.007142857
 31
0.0
  0
POINT
  8
0
  6
CONTINUOUS
 62
     1
 10
831.514374417
 20
897.007142857
 30
0.0
  0
LINE
  8
0
  6
CONTINUOUS
 62
     1
 10
831.514374417
 20
897.007142857
 30
0.0
 11
831.514374417
 21
888.207142857
 31
0.0
  0
POINT
  8
0
  6
CONTINUOUS
 62
     1
 10
831.514374417
 20
888.207142857
 30
0.0
  0
LINE
  8
0
  6
CONTINUOUS
 62
     1
 10
831.514374417
 20
888.207142857
 30
0.0
 11
826.214374417
 21
888.207142857
 31
0.0
  0
LINE
  8
0
  6
CONTINUOUS
 62
     1
 10
821.114374417
 20
894.207142857
 30
0.0
 11
812.214374417
 21
894.207142857
 31
0.0
  0
LINE
  8
0
  6
CONTINUOUS
 62
     1
 10
821.114374417
 20
891.107142857
 30
0.0
 11
811.914374417
 21
891.107142857
 31
0.0
  0
LINE
  8
0
  6
CONTINUOUS
 62
     1
 10
830.914374417
 20
950.657142857
 30
0.0
 11
834.372857143
 21
950.657142857
 31
0.0
  0
LINE
  8
0
  6
CONTINUOUS
 62
     1
 10
834.372857143
 20
950.657142857
 30
0.0
 11
834.372857143
 21
946.057142857
 31
0.0
  0
LINE
  8
0
  6
CONTINUOUS
 62
     1
 10
830.914374417
 20
946.057142857
 30
0.0
 11
834.372857143
 21
946.057142857
 31
0.0
  0
LINE
  8
0
  6
CONTINUOUS
 62
     1
 10
830.914374417
 20
923.857142857
 30
0.0
 11
834.372857143
 21
923.857142857
 31
0.0
  0
LINE
  8
0
  6
CONTINUOUS
 62
     1
 10
834.372857143
 20
923.857142857
 30
0.0
 11
834.372857143
 21
928.457142857
 31
0.0
  0
LINE
  8
0
  6
CONTINUOUS
 62
     1
 10
830.914374417
 20
928.457142857
 30
0.0
 11
834.372857143
 21
928.457142857
 31
0.0
  0
LINE
  8
0
  6
CONTINUOUS
 62
     1
 10
830.914374417
 20
934.957142857
 30
0.0
 11
834.372857143
 21
934.957142857
 31
0.0
  0
LINE
  8
0
  6
CONTINUOUS
 62
     1
 10
834.372857143
 20
934.957142857
 30
0.0
 11
834.372857143
 21
939.557142857
 31
0.0
  0
LINE
  8
0
  6
CONTINUOUS
 62
     1
 10
830.914374417
 20
939.557142857
 30
0.0
 11
834.372857143
 21
939.557142857
 31
0.0
  0
LINE
  8
0
  6
LTYPE2
 62
     2
 10
807.214374417
 20
892.707142857
 30
0.0
 11
837.214374417
 21
892.707142857
 31
0.0
  0
LINE
  8
0
  6
CONTINUOUS
 62
     1
 10
686.372857143
 20
1017.257142857
 30
0.0
 11
539.372857143
 21
1017.257142857
 31
0.0
  0
LINE
  8
0
  6
CONTINUOUS
 62
     1
 10
702.872857143
 20
1050.257142857
 30
0.0
 11
702.872857143
 21
1090.257142857
 31
0.0
  0
LINE
  8
0
  6
CONTINUOUS
 62
     1
 10
683.872857143
 20
1125.257142857
 30
0.0
 11
535.872857143
 21
1051.257142857
 31
0.0
  0
LINE
  8
0
  6
CONTINUOUS
 62
     1
 10
688.344993098
 20
1116.312870947
 30
0.0
 11
540.344993098
 21
1042.312870947
 31
0.0
  0
ARC
  8
0
  6
CONTINUOUS
 62
     1
 10
657.872857143
 20
1049.257142857
 30
0.0
 40
10.0
 50
270.0
 51
0.0
  0
ARC
  8
0
  6
CONTINUOUS
 62
     1
 10
657.872857143
 20
1115.257142857
 30
0.0
 40
10.0
 50
0.0
 51
90.0
  0
LINE
  8
0
  6
CONTINUOUS
 62
     1
 10
657.872857143
 20
1125.257142857
 30
0.0
 11
567.872857143
 21
1125.257142857
 31
0.0
  0
ARC
  8
0
  6
CONTINUOUS
 62
     1
 10
567.872857143
 20
1115.257142857
 30
0.0
 40
10.0
 50
90.0
 51
180.0
  0
LINE
  8
0
  6
CONTINUOUS
 62
     1
 10
657.872857143
 20
1039.257142857
 30
0.0
 11
567.872857143
 21
1039.257142857
 31
0.0
  0
ARC
  8
0
  6
CONTINUOUS
 62
     1
 10
567.872857143
 20
1049.257142857
 30
0.0
 40
10.0
 50
180.0
 51
270.0
  0
LINE
  8
0
  6
CONTINUOUS
 62
     1
 10
535.872857143
 20
1051.257142857
 30
0.0
 11
540.344993098
 21
1042.312870947
 31
0.0
  0
LINE
  8
0
  6
CONTINUOUS
 62
     1
 10
557.872857143
 20
1062.172870947
 30
0.0
 11
557.872857143
 21
1115.257142857
 31
0.0
  0
LINE
  8
0
  6
CONTINUOUS
 62
     1
 10
557.872857143
 20
1049.257142857
 30
0.0
 11
557.872857143
 21
1051.172870947
 31
0.0
  0
LINE
  8
0
  6
CONTINUOUS
 62
     1
 10
667.872857143
 20
1049.257142857
 30
0.0
 11
667.872857143
 21
1105.172870947
 31
0.0
  0
LINE
  8
0
  6
CONTINUOUS
 62
     1
 10
684.084993098
 20
1126.052870947
 30
0.0
 11
688.884993098
 21
1116.852870947
 31
0.0
  0
LINE
  8
0
  6
CONTINUOUS
 62
     1
 10
702.872857143
 20
1090.257142857
 30
0.0
 11
667.872857143
 21
1090.257142857
 31
0.0
  0
LINE
  8
0
  6
CONTINUOUS
 62
     1
 10
702.872857143
 20
1050.257142857
 30
0.0
 11
667.872857143
 21
1050.257142857
 31
0.0
  0
LINE
  8
0
  6
LTYPE2
 62
     2
 10
709.024993098
 20
1070.257142857
 30
0.0
 11
657.924993098
 21
1070.257142857
 31
0.0
  0
LINE
  8
0
  6
LTYPE2
 62
     2
 10
612.872857143
 20
1026.007142857
 30
0.0
 11
612.872857143
 21
1135.057142857
 31
0.0
  0
LINE
  8
0
  6
CONTINUOUS
 62
     2
 10
702.872857143
 20
1070.257142857
 30
0.0
 11
713.292772003
 21
1081.047201908
 31
0.0
  0
LINE
  8
0
  6
CONTINUOUS
 62
     2
 10
702.872857143
 20
1070.257142857
 30
0.0
 11
706.501738591
 21
1084.811565533
 31
0.0
  0
LINE
  8
0
  6
CONTINUOUS
 62
     2
 10
702.872857143
 20
1070.257142857
 30
0.0
 11
733.872857143
 21
1126.182142857
 31
0.0
  0
LINE
  8
0
  6
CONTINUOUS
 62
     2
 10
733.872857143
 20
1126.182142857
 30
0.0
 11
822.072857143
 21
1126.182142857
 31
0.0
  0
LINE
  8
7
  6
CONTINUOUS
 62
     2
 10
825.872857143
 20
909.182142857
 30
0.0
 11
834.756833729
 21
921.2682903
 31
0.0
  0
LINE
  8
7
  6
CONTINUOUS
 62
     2
 10
825.872857143
 20
909.182142857
 30
0.0
 11
827.523532832
 21
924.09104187
 31
0.0
  0
LINE
  8
7
  6
CONTINUOUS
 62
     2
 10
825.872857143
 20
909.182142857
 30
0.0
 11
905.872857143
 21
1114.182142857
 31
0.0
  0
LINE
  8
7
  6
CONTINUOUS
 62
     2
 10
905.872857143
 20
1114.182142857
 30
0.0
 11
904.072857143
 21
1114.182142857
 31
0.0
  0
LINE
  8
7
  6
CONTINUOUS
 62
     2
 10
905.872857143
 20
1114.182142857
 30
0.0
 11
1048.072857143
 21
1114.182142857
 31
0.0
  0
LINE
  8
7
  6
CONTINUOUS
 62
     2
 10
464.372857143
 20
1188.007142857
 30
0.0
 11
478.861744537
 21
1184.124857181
 31
0.0
  0
LINE
  8
7
  6
CONTINUOUS
 62
     2
 10
464.372857143
 20
1188.007142857
 30
0.0
 11
478.861744537
 21
1191.889428534
 31
0.0
  0
LINE
  8
7
  6
CONTINUOUS
 62
     2
 10
464.372857143
 20
1188.007142857
 30
0.0
 11
834.372857143
 21
1188.007142857
 31
0.0
  0
LINE
  8
7
  6
CONTINUOUS
 62
     2
 10
834.372857143
 20
1188.007142857
 30
0.0
 11
819.883969749
 21
1191.889428534
 31
0.0
  0
LINE
  8
7
  6
CONTINUOUS
 62
     2
 10
834.372857143
 20
1188.007142857
 30
0.0
 11
819.883969749
 21
1184.124857181
 31
0.0
  0
LINE
  8
7
  6
CONTINUOUS
 62
     2
 10
834.372857143
 20
959.657142857
 30
0.0
 11
834.372857143
 21
1197.007142857
 31
0.0
  0
LINE
  8
0
  6
CONTINUOUS
 62
     1
 10
696.372857143
 20
1037.257142857
 30
0.0
 11
792.187245736
 21
1037.257142857
 31
0.0
  0
ARC
  8
0
  6
CONTINUOUS
 62
     1
 10
790.187245736
 20
1022.257142857
 30
0.0
 40
15.0
 50
10.945397096
 51
90.0
  0
ARC
  8
0
  6
CONTINUOUS
 62
     1
 10
790.29637106
 20
1024.951083229
 30
0.0
 40
15.0
 50
10.945397096
 51
90.0
  0
LINE
  8
0
  6
CONTINUOUS
 62
     1
 10
696.372857143
 20
1039.757142857
 30
0.0
 11
792.187245736
 21
1039.757142857
 31
0.0
  0
LINE
  8
0
  6
CONTINUOUS
 62
     1
 10
696.372857143
 20
837.257142857
 30
0.0
 11
792.187245736
 21
837.257142857
 31
0.0
  0
ARC
  8
0
  6
CONTINUOUS
 62
     1
 10
790.187245736
 20
852.257142857
 30
0.0
 40
15.0
 50
270.0
 51
349.054602904
  0
ARC
  8
0
  6
CONTINUOUS
 62
     1
 10
790.29637106
 20
849.563202486
 30
0.0
 40
15.0
 50
270.0
 51
349.054602904
  0
LINE
  8
0
  6
CONTINUOUS
 62
     1
 10
696.372857143
 20
834.757142857
 30
0.0
 11
696.372857143
 21
1039.757142857
 31
0.0
  0
LINE
  8
0
  6
CONTINUOUS
 62
     1
 10
696.372857143
 20
834.757142857
 30
0.0
 11
792.187245736
 21
834.757142857
 31
0.0
  0
ARC
  8
0
  6
CONTINUOUS
 62
     1
 10
404.372857143
 20
937.257142857
 30
0.0
 40
410.0
 50
347.629566941
 51
12.370433059
  0
LINE
  8
0
  6
CONTINUOUS
 62
     1
 10
696.372857143
 20
1027.957142857
 30
0.0
 11
529.372857143
 21
1027.957142857
 31
0.0
  0
LINE
  8
0
  6
CONTINUOUS
 62
     1
 10
529.372857143
 20
846.557142857
 30
0.0
 11
529.372857143
 21
1027.957142857
 31
0.0
  0
LINE
  8
0
  6
CONTINUOUS
 62
     1
 10
696.372857143
 20
846.557142857
 30
0.0
 11
529.372857143
 21
846.557142857
 31
0.0
  0
LINE
  8
0
  6
CONTINUOUS
 62
     1
 10
647.772857143
 20
1039.257142857
 30
0.0
 11
647.772857143
 21
1027.957142857
 31
0.0
  0
LINE
  8
0
  6
CONTINUOUS
 62
     1
 10
577.972857143
 20
1039.257142857
 30
0.0
 11
577.972857143
 21
1027.957142857
 31
0.0
  0
ARC
  8
0
  6
CONTINUOUS
 62
     1
 10
804.247837605
 20
947.257142857
 30
0.0
 40
10.0
 50
1.432543738
 51
90.0
  0
ARC
  8
0
  6
CONTINUOUS
 62
     1
 10
804.247837605
 20
927.257142857
 30
0.0
 40
10.0
 50
270.0
 51
358.567456262
  0
LINE
  8
0
  6
CONTINUOUS
 62
     1
 10
804.247856294
 20
957.257142857
 30
0.0
 11
696.372857143
 21
957.257142857
 31
0.0
  0
LINE
  8
0
  6
CONTINUOUS
 62
     1
 10
696.372857143
 20
917.257142857
 30
0.0
 11
804.747856294
 21
917.257142857
 31
0.0
  0
LINE
  8
2
  6
CONTINUOUS
 62
     2
 10
798.700658538
 20
1039.757142857
 30
0.0
 11
913.247856294
 21
1039.757142857
 31
0.0
  0
LINE
  8
2
  6
CONTINUOUS
 62
     2
 10
907.247856294
 20
1039.757142857
 30
0.0
 11
903.365570617
 21
1025.268255463
 31
0.0
  0
LINE
  8
2
  6
CONTINUOUS
 62
     2
 10
907.247856294
 20
1039.757142857
 30
0.0
 11
911.13014197
 21
1025.268255463
 31
0.0
  0
LINE
  8
2
  6
CONTINUOUS
 62
     2
 10
907.247856294
 20
1039.757142857
 30
0.0
 11
907.247856294
 21
834.757142857
 31
0.0
  0
LINE
  8
2
  6
CONTINUOUS
 62
     2
 10
907.247856294
 20
834.757142857
 30
0.0
 11
911.13014197
 21
849.246030251
 31
0.0
  0
LINE
  8
2
  6
CONTINUOUS
 62
     2
 10
907.247856294
 20
834.757142857
 30
0.0
 11
903.365570617
 21
849.246030251
 31
0.0
  0
LINE
  8
2
  6
CONTINUOUS
 62
     2
 10
798.700658538
 20
834.757142857
 30
0.0
 11
913.247856294
 21
834.757142857
 31
0.0
  0
LINE
  8
0
  6
CONTINUOUS
 62
     1
 10
974.972857143
 20
812.257142857
 30
0.0
 11
979.329394576
 21
828.515961902
 31
0.0
  0
ARC
  8
0
  6
CONTINUOUS
 62
     1
 10
980.295320402
 20
828.257142857
 30
0.0
 40
1.0
 50
90.0
 51
165.0
  0
ARC
  8
0
  6
CONTINUOUS
 62
     1
 10
980.295321077
 20
828.257142857
 30
0.0
 40
1.0
 50
15.0
 51
90.0
  0
LINE
  8
0
  6
CONTINUOUS
 62
     1
 10
984.883287113
 20
814.998323812
 30
0.0
 11
981.261246903
 21
828.515961902
 31
0.0
  0
ARC
  8
0
  6
CONTINUOUS
 62
     1
 10
985.849212939
 20
815.257142857
 30
0.0
 40
1.0
 50
195.0
 51
270.0
  0
ARC
  8
0
  6
CONTINUOUS
 62
     1
 10
985.849213613
 20
815.257142857
 30
0.0
 40
1.0
 50
270.0
 51
345.0
  0
LINE
  8
0
  6
CONTINUOUS
 62
     1
 10
986.81513944
 20
814.998323812
 30
0.0
 11
990.437179649
 21
828.515961902
 31
0.0
  0
ARC
  8
0
  6
CONTINUOUS
 62
     1
 10
991.403105476
 20
828.257142857
 30
0.0
 40
1.0
 50
90.0
 51
165.0
  0
ARC
  8
0
  6
CONTINUOUS
 62
     1
 10
991.403105476
 20
828.257142857
 30
0.0
 40
1.0
 50
15.0
 51
90.0
  0
LINE
  8
0
  6
CONTINUOUS
 62
     1
 10
995.991071512
 20
814.998323812
 30
0.0
 11
992.369031302
 21
828.515961902
 31
0.0
  0
ARC
  8
0
  6
CONTINUOUS
 62
     1
 10
996.956997338
 20
815.257142857
 30
0.0
 40
1.0
 50
195.0
 51
270.0
  0
LINE
  8
0
  6
CONTINUOUS
 62
     1
 10
959.972857143
 20
814.257142857
 30
0.0
 11
969.972857143
 21
814.257142857
 31
0.0
  0
LINE
  8
0
  6
CONTINUOUS
 62
     1
 10
969.917600906
 20
812.257142857
 30
0.0
 11
974.972857143
 21
812.257142857
 31
0.0
  0
LINE
  8
0
  6
CONTINUOUS
 62
     1
 10
959.972857143
 20
754.257142857
 30
0.0
 11
959.972857143
 21
814.257142857
 31
0.0
  0
LINE
  8
0
  6
CONTINUOUS
 62
     1
 10
969.972857143
 20
754.257142857
 30
0.0
 11
969.972857143
 21
814.257142857
 31
0.0
  0
LINE
  8
0
  6
CONTINUOUS
 62
     1
 10
974.972857143
 20
696.257142857
 30
0.0
 11
979.329394576
 21
679.998323812
 31
0.0
  0
ARC
  8
0
  6
CONTINUOUS
 62
     1
 10
980.295320402
 20
680.257142857
 30
0.0
 40
1.0
 50
195.0
 51
270.0
  0
ARC
  8
0
  6
CONTINUOUS
 62
     1
 10
980.295321077
 20
680.257142857
 30
0.0
 40
1.0
 50
270.0
 51
345.0
  0
LINE
  8
0
  6
CONTINUOUS
 62
     1
 10
984.883287113
 20
693.515961902
 30
0.0
 11
981.261246903
 21
679.998323812
 31
0.0
  0
ARC
  8
0
  6
CONTINUOUS
 62
     1
 10
985.849212939
 20
693.257142857
 30
0.0
 40
1.0
 50
90.0
 51
165.0
  0
ARC
  8
0
  6
CONTINUOUS
 62
     1
 10
985.849213613
 20
693.257142857
 30
0.0
 40
1.0
 50
15.0
 51
90.0
  0
LINE
  8
0
  6
CONTINUOUS
 62
     1
 10
986.81513944
 20
693.515961902
 30
0.0
 11
990.437179649
 21
679.998323812
 31
0.0
  0
ARC
  8
0
  6
CONTINUOUS
 62
     1
 10
991.403105476
 20
680.257142857
 30
0.0
 40
1.0
 50
195.0
 51
270.0
  0
ARC
  8
0
  6
CONTINUOUS
 62
     1
 10
991.403105476
 20
680.257142857
 30
0.0
 40
1.0
 50
270.0
 51
345.0
  0
LINE
  8
0
  6
CONTINUOUS
 62
     1
 10
995.991071512
 20
693.515961902
 30
0.0
 11
992.369031302
 21
679.998323812
 31
0.0
  0
ARC
  8
0
  6
CONTINUOUS
 62
     1
 10
996.956997338
 20
693.257142857
 30
0.0
 40
1.0
 50
90.0
 51
165.0
  0
LINE
  8
0
  6
CONTINUOUS
 62
     1
 10
959.972857143
 20
694.257142857
 30
0.0
 11
969.972857143
 21
694.257142857
 31
0.0
  0
LINE
  8
0
  6
CONTINUOUS
 62
     1
 10
969.917600906
 20
696.257142857
 30
0.0
 11
974.972857143
 21
696.257142857
 31
0.0
  0
LINE
  8
0
  6
CONTINUOUS
 62
     1
 10
954.972857143
 20
696.257142857
 30
0.0
 11
969.972857143
 21
696.257142857
 31
0.0
  0
LINE
  8
0
  6
CONTINUOUS
 62
     1
 10
980.295320402
 20
829.257142857
 30
0.0
 11
980.295320402
 21
754.257142857
 31
0.0
  0
LINE
  8
0
  6
CONTINUOUS
 62
     1
 10
985.849212939
 20
814.257142857
 30
0.0
 11
985.849212939
 21
754.257142857
 31
0.0
  0
LINE
  8
0
  6
CONTINUOUS
 62
     1
 10
991.403105476
 20
829.257142857
 30
0.0
 11
991.403105476
 21
755.357142857
 31
0.0
  0
LINE
  8
0
  6
CONTINUOUS
 62
     1
 10
996.956997338
 20
814.257142857
 30
0.0
 11
996.956997338
 21
754.257142857
 31
0.0
  0
LINE
  8
0
  6
CONTINUOUS
 62
     1
 10
1039.972857143
 20
697.257142857
 30
0.0
 11
1039.972857143
 21
754.257142857
 31
0.0
  0
LINE
  8
0
  6
LTYPE3
 62
     2
 10
1198.972857143
 20
703.207142857
 30
0.0
 11
1198.972857143
 21
801.957142857
 31
0.0
  0
CIRCLE
  8
0
  6
CONTINUOUS
 62
     1
 10
1198.972857143
 20
754.257142857
 30
0.0
 40
15.0
  0
LINE
  8
0
  6
CONTINUOUS
 62
     1
 10
1218.972857143
 20
791.757142857
 30
0.0
 11
1128.972857143
 21
791.757142857
 31
0.0
  0
LINE
  8
0
  6
CONTINUOUS
 62
     1
 10
1233.972857143
 20
776.757142857
 30
0.0
 11
1218.972857143
 21
791.757142857
 31
0.0
  0
LINE
  8
0
  6
CONTINUOUS
 62
     1
 10
1218.972857143
 20
716.757142857
 30
0.0
 11
1128.972857143
 21
716.757142857
 31
0.0
  0
LINE
  8
0
  6
CONTINUOUS
 62
     1
 10
1233.972857143
 20
776.757142857
 30
0.0
 11
1233.972857143
 21
731.757142857
 31
0.0
  0
LINE
  8
0
  6
CONTINUOUS
 62
     1
 10
1218.972857143
 20
716.757142857
 30
0.0
 11
1233.972857143
 21
731.757142857
 31
0.0
  0
LINE
  8
0
  6
LTYPE1
 62
     2
 10
1148.972857143
 20
791.757142857
 30
0.0
 11
1148.972857143
 21
716.757142857
 31
0.0
  0
LINE
  8
0
  6
LTYPE3
 62
     2
 10
1198.972857143
 20
802.457142857
 30
0.0
 11
1198.972857143
 21
708.457142857
 31
0.0
  0
LINE
  8
0
  6
LTYPE2
 62
     2
 10
1198.972857143
 20
947.957142857
 30
0.0
 11
1198.972857143
 21
1070.957142857
 31
0.0
  0
LINE
  8
0
  6
CONTINUOUS
 62
     1
 10
1148.972857143
 20
990.957142857
 30
0.0
 11
1233.972857143
 21
990.957142857
 31
0.0
  0
LINE
  8
0
  6
CONTINUOUS
 62
     1
 10
1233.972857143
 20
970.957142857
 30
0.0
 11
1233.972857143
 21
990.957142857
 31
0.0
  0
LINE
  8
0
  6
CONTINUOUS
 62
     1
 10
1148.972857143
 20
1030.957142857
 30
0.0
 11
1233.972857143
 21
1030.957142857
 31
0.0
  0
LINE
  8
0
  6
CONTINUOUS
 62
     1
 10
1233.972857143
 20
1050.957142857
 30
0.0
 11
1233.972857143
 21
1030.957142857
 31
0.0
  0
LINE
  8
0
  6
CONTINUOUS
 62
     1
 10
1148.972857143
 20
990.957142857
 30
0.0
 11
1148.972857143
 21
1030.957142857
 31
0.0
  0
LINE
  8
0
  6
CONTINUOUS
 62
     1
 10
1183.972857143
 20
990.957142857
 30
0.0
 11
1183.972857143
 21
1030.957142857
 31
0.0
  0
LINE
  8
0
  6
CONTINUOUS
 62
     1
 10
1213.972857143
 20
990.957142857
 30
0.0
 11
1213.972857143
 21
1030.957142857
 31
0.0
  0
LINE
  8
0
  6
LTYPE1
 62
     2
 10
1183.972857143
 20
1030.957142857
 30
0.0
 11
1183.972857143
 21
1050.957142857
 31
0.0
  0
LINE
  8
0
  6
LTYPE1
 62
     2
 10
1213.972857143
 20
1030.957142857
 30
0.0
 11
1213.972857143
 21
1050.957142857
 31
0.0
  0
LINE
  8
0
  6
CONTINUOUS
 62
     1
 10
1170.972857143
 20
966.957142857
 30
0.0
 11
1226.972857143
 21
966.957142857
 31
0.0
  0
LINE
  8
0
  6
CONTINUOUS
 62
     1
 10
1170.972857143
 20
966.957142857
 30
0.0
 11
1170.972857143
 21
970.957142857
 31
0.0
  0
LINE
  8
0
  6
CONTINUOUS
 62
     1
 10
1226.972857143
 20
966.957142857
 30
0.0
 11
1226.972857143
 21
970.957142857
 31
0.0
  0
LINE
  8
0
  6
CONTINUOUS
 62
     1
 10
1183.972857143
 20
956.957142857
 30
0.0
 11
1213.972857143
 21
956.957142857
 31
0.0
  0
LINE
  8
0
  6
CONTINUOUS
 62
     1
 10
1183.972857143
 20
956.957142857
 30
0.0
 11
1183.972857143
 21
966.957142857
 31
0.0
  0
LINE
  8
0
  6
CONTINUOUS
 62
     1
 10
1213.972857143
 20
956.957142857
 30
0.0
 11
1213.972857143
 21
966.957142857
 31
0.0
  0
LINE
  8
0
  6
LTYPE1
 62
     2
 10
1213.972857143
 20
966.957142857
 30
0.0
 11
1213.972857143
 21
990.957142857
 31
0.0
  0
LINE
  8
0
  6
LTYPE1
 62
     2
 10
1183.972857143
 20
966.957142857
 30
0.0
 11
1183.972857143
 21
990.957142857
 31
0.0
  0
LINE
  8
0
  6
CONTINUOUS
 62
     1
 10
1170.972857143
 20
1054.957142857
 30
0.0
 11
1226.972857143
 21
1054.957142857
 31
0.0
  0
LINE
  8
0
  6
CONTINUOUS
 62
     1
 10
1170.972857143
 20
1054.957142857
 30
0.0
 11
1170.972857143
 21
1050.957142857
 31
0.0
  0
LINE
  8
0
  6
CONTINUOUS
 62
     1
 10
1226.972857143
 20
1054.957142857
 30
0.0
 11
1226.972857143
 21
1050.957142857
 31
0.0
  0
LINE
  8
0
  6
CONTINUOUS
 62
     1
 10
1183.972857143
 20
1064.957142857
 30
0.0
 11
1213.972857143
 21
1064.957142857
 31
0.0
  0
LINE
  8
0
  6
CONTINUOUS
 62
     1
 10
1183.972857143
 20
1064.957142857
 30
0.0
 11
1183.972857143
 21
1054.957142857
 31
0.0
  0
LINE
  8
0
  6
CONTINUOUS
 62
     1
 10
1213.972857143
 20
1064.957142857
 30
0.0
 11
1213.972857143
 21
1054.957142857
 31
0.0
  0
LINE
  8
0
  6
LTYPE2
 62
     2
 10
1191.972857143
 20
963.357142857
 30
0.0
 11
1207.972857143
 21
963.357142857
 31
0.0
  0
CIRCLE
  8
0
  6
CONTINUOUS
 62
     1
 10
1198.972857143
 20
963.357142857
 30
0.0
 40
3.0
  0
LINE
  8
0
  6
LTYPE2
 62
     2
 10
1191.972857143
 20
1058.557142857
 30
0.0
 11
1207.972857143
 21
1058.557142857
 31
0.0
  0
CIRCLE
  8
0
  6
CONTINUOUS
 62
     1
 10
1198.972857143
 20
1058.557142857
 30
0.0
 40
3.0
  0
LINE
  8
0
  6
CONTINUOUS
 62
     2
 10
1227.972857143
 20
791.757142857
 30
0.0
 11
1295.972857143
 21
791.757142857
 31
0.0
  0
LINE
  8
0
  6
CONTINUOUS
 62
     2
 10
1286.972857143
 20
791.757142857
 30
0.0
 11
1283.090571466
 21
777.268255463
 31
0.0
  0
LINE
  8
0
  6
CONTINUOUS
 62
     2
 10
1286.972857143
 20
791.757142857
 30
0.0
 11
1290.855142819
 21
777.268255463
 31
0.0
  0
LINE
  8
0
  6
CONTINUOUS
 62
     2
 10
1286.972857143
 20
791.757142857
 30
0.0
 11
1286.972857143
 21
716.757142857
 31
0.0
  0
LINE
  8
0
  6
CONTINUOUS
 62
     2
 10
1286.972857143
 20
716.757142857
 30
0.0
 11
1290.855142819
 21
731.246030251
 31
0.0
  0
LINE
  8
0
  6
CONTINUOUS
 62
     2
 10
1286.972857143
 20
716.757142857
 30
0.0
 11
1283.090571466
 21
731.246030251
 31
0.0
  0
LINE
  8
0
  6
CONTINUOUS
 62
     2
 10
1227.972857143
 20
716.757142857
 30
0.0
 11
1295.972857143
 21
716.757142857
 31
0.0
  0
LINE
  8
0
  6
CONTINUOUS
 62
     2
 10
1242.972857143
 20
1030.957142857
 30
0.0
 11
1295.472857143
 21
1030.957142857
 31
0.0
  0
LINE
  8
0
  6
CONTINUOUS
 62
     2
 10
1286.472857143
 20
1030.957142857
 30
0.0
 11
1282.590571466
 21
1016.468255463
 31
0.0
  0
LINE
  8
0
  6
CONTINUOUS
 62
     2
 10
1286.472857143
 20
1030.957142857
 30
0.0
 11
1290.355142819
 21
1016.468255463
 31
0.0
  0
LINE
  8
0
  6
CONTINUOUS
 62
     2
 10
1286.472857143
 20
1030.957142857
 30
0.0
 11
1286.472857143
 21
990.957142857
 31
0.0
  0
LINE
  8
0
  6
CONTINUOUS
 62
     2
 10
1286.472857143
 20
990.957142857
 30
0.0
 11
1290.355142819
 21
1005.446030251
 31
0.0
  0
LINE
  8
0
  6
CONTINUOUS
 62
     2
 10
1286.472857143
 20
990.957142857
 30
0.0
 11
1282.590571466
 21
1005.446030251
 31
0.0
  0
LINE
  8
0
  6
CONTINUOUS
 62
     2
 10
1242.972857143
 20
990.957142857
 30
0.0
 11
1295.472857143
 21
990.957142857
 31
0.0
  0
LINE
  8
0
  6
CONTINUOUS
 62
     2
 10
1242.972857143
 20
970.957142857
 30
0.0
 11
1335.972857143
 21
970.957142857
 31
0.0
  0
LINE
  8
0
  6
CONTINUOUS
 62
     2
 10
1326.972857143
 20
970.957142857
 30
0.0
 11
1330.855142819
 21
985.446030251
 31
0.0
  0
LINE
  8
0
  6
CONTINUOUS
 62
     2
 10
1326.972857143
 20
970.957142857
 30
0.0
 11
1323.090571466
 21
985.446030251
 31
0.0
  0
LINE
  8
0
  6
CONTINUOUS
 62
     2
 10
1326.972857143
 20
970.957142857
 30
0.0
 11
1326.972857143
 21
1050.957142857
 31
0.0
  0
LINE
  8
0
  6
CONTINUOUS
 62
     2
 10
1326.972857143
 20
1050.957142857
 30
0.0
 11
1323.090571466
 21
1036.468255463
 31
0.0
  0
LINE
  8
0
  6
CONTINUOUS
 62
     2
 10
1326.972857143
 20
1050.957142857
 30
0.0
 11
1330.855142819
 21
1036.468255463
 31
0.0
  0
LINE
  8
0
  6
CONTINUOUS
 62
     2
 10
1242.972857143
 20
1050.957142857
 30
0.0
 11
1335.972857143
 21
1050.957142857
 31
0.0
  0
LINE
  8
0
  6
CONTINUOUS
 62
     2
 10
1183.972857143
 20
957.957142857
 30
0.0
 11
1183.972857143
 21
901.957142857
 31
0.0
  0
LINE
  8
0
  6
CONTINUOUS
 62
     2
 10
1183.972857143
 20
910.957142857
 30
0.0
 11
1169.483969749
 21
914.839428534
 31
0.0
  0
LINE
  8
0
  6
CONTINUOUS
 62
     2
 10
1183.972857143
 20
910.957142857
 30
0.0
 11
1169.483969749
 21
907.074857181
 31
0.0
  0
LINE
  8
0
  6
CONTINUOUS
 62
     2
 10
1161.472857143
 20
910.957142857
 30
0.0
 11
1322.272857143
 21
910.957142857
 31
0.0
  0
LINE
  8
0
  6
CONTINUOUS
 62
     2
 10
1213.972857143
 20
910.957142857
 30
0.0
 11
1228.461744537
 21
907.074857181
 31
0.0
  0
LINE
  8
0
  6
CONTINUOUS
 62
     2
 10
1213.972857143
 20
910.957142857
 30
0.0
 11
1228.461744537
 21
914.839428534
 31
0.0
  0
LINE
  8
0
  6
CONTINUOUS
 62
     2
 10
1213.972857143
 20
947.957142857
 30
0.0
 11
1213.972857143
 21
901.957142857
 31
0.0
  0
LINE
  8
0
  6
CONTINUOUS
 62
     2
 10
1148.972857143
 20
981.957142857
 30
0.0
 11
1148.972857143
 21
865.957142857
 31
0.0
  0
LINE
  8
0
  6
CONTINUOUS
 62
     2
 10
1148.972857143
 20
874.957142857
 30
0.0
 11
1163.461744537
 21
871.074857181
 31
0.0
  0
LINE
  8
0
  6
CONTINUOUS
 62
     2
 10
1148.972857143
 20
874.957142857
 30
0.0
 11
1163.461744537
 21
878.839428534
 31
0.0
  0
LINE
  8
0
  6
CONTINUOUS
 62
     2
 10
1148.972857143
 20
874.957142857
 30
0.0
 11
1198.972857143
 21
874.957142857
 31
0.0
  0
LINE
  8
0
  6
CONTINUOUS
 62
     2
 10
1198.972857143
 20
874.957142857
 30
0.0
 11
1184.483969749
 21
878.839428534
 31
0.0
  0
LINE
  8
0
  6
CONTINUOUS
 62
     2
 10
1198.972857143
 20
874.957142857
 30
0.0
 11
1184.483969749
 21
871.074857181
 31
0.0
  0
LINE
  8
0
  6
CONTINUOUS
 62
     2
 10
1198.972857143
 20
938.957142857
 30
0.0
 11
1198.972857143
 21
865.957142857
 31
0.0
  0
LINE
  8
0
  6
CONTINUOUS
 62
     2
 10
1198.972857143
 20
478.757142857
 30
0.0
 11
1184.483969749
 21
482.639428534
 31
0.0
  0
LINE
  8
0
  6
CONTINUOUS
 62
     2
 10
1198.972857143
 20
478.757142857
 30
0.0
 11
1184.483969749
 21
474.874857181
 31
0.0
  0
LINE
  8
0
  6
CONTINUOUS
 62
     2
 10
1198.972857143
 20
694.207142857
 30
0.0
 11
1198.972857143
 21
469.757142857
 31
0.0
  0
LINE
  8
0
  6
CONTINUOUS
 62
     2
 10
1039.972857143
 20
517.257142857
 30
0.0
 11
1025.483969749
 21
521.139428534
 31
0.0
  0
LINE
  8
0
  6
CONTINUOUS
 62
     2
 10
1039.972857143
 20
517.257142857
 30
0.0
 11
1025.483969749
 21
513.374857181
 31
0.0
  0
LINE
  8
0
  6
CONTINUOUS
 62
     2
 10
1039.972857143
 20
688.257142857
 30
0.0
 11
1039.972857143
 21
508.257142857
 31
0.0
  0
LINE
  8
0
  6
CONTINUOUS
 62
     2
 10
1039.972857143
 20
517.257142857
 30
0.0
 11
1054.461744537
 21
513.374857181
 31
0.0
  0
LINE
  8
0
  6
CONTINUOUS
 62
     2
 10
1039.972857143
 20
517.257142857
 30
0.0
 11
1054.461744537
 21
521.139428534
 31
0.0
  0
LINE
  8
0
  6
CONTINUOUS
 62
     2
 10
1039.972857143
 20
517.257142857
 30
0.0
 11
1128.972857143
 21
517.257142857
 31
0.0
  0
LINE
  8
0
  6
CONTINUOUS
 62
     2
 10
1128.972857143
 20
517.257142857
 30
0.0
 11
1114.483969749
 21
521.139428534
 31
0.0
  0
LINE
  8
0
  6
CONTINUOUS
 62
     2
 10
1128.972857143
 20
517.257142857
 30
0.0
 11
1114.483969749
 21
513.374857181
 31
0.0
  0
LINE
  8
0
  6
CONTINUOUS
 62
     2
 10
1128.972857143
 20
517.257142857
 30
0.0
 11
1143.461744537
 21
513.374857181
 31
0.0
  0
LINE
  8
0
  6
CONTINUOUS
 62
     2
 10
1128.972857143
 20
517.257142857
 30
0.0
 11
1143.461744537
 21
521.139428534
 31
0.0
  0
LINE
  8
0
  6
CONTINUOUS
 62
     2
 10
1128.972857143
 20
517.257142857
 30
0.0
 11
1198.972857143
 21
517.257142857
 31
0.0
  0
LINE
  8
0
  6
CONTINUOUS
 62
     2
 10
1198.972857143
 20
517.257142857
 30
0.0
 11
1184.483969749
 21
521.139428534
 31
0.0
  0
LINE
  8
0
  6
CONTINUOUS
 62
     2
 10
1198.972857143
 20
517.257142857
 30
0.0
 11
1184.483969749
 21
513.374857181
 31
0.0
  0
LINE
  8
0
  6
CONTINUOUS
 62
     2
 10
1198.972857143
 20
469.757142857
 30
0.0
 11
1198.972857143
 21
431.757142857
 31
0.0
  0
LINE
  8
0
  6
CONTINUOUS
 62
     2
 10
1233.972857143
 20
722.757142857
 30
0.0
 11
1233.972857143
 21
431.757142857
 31
0.0
  0
LINE
  8
0
  6
CONTINUOUS
 62
     2
 10
1198.972857143
 20
440.757142857
 30
0.0
 11
1184.483969749
 21
444.639428534
 31
0.0
  0
LINE
  8
0
  6
CONTINUOUS
 62
     2
 10
1198.972857143
 20
440.757142857
 30
0.0
 11
1184.483969749
 21
436.874857181
 31
0.0
  0
LINE
  8
0
  6
CONTINUOUS
 62
     2
 10
1198.972857143
 20
440.757142857
 30
0.0
 11
1213.461744537
 21
436.874857181
 31
0.0
  0
LINE
  8
0
  6
CONTINUOUS
 62
     2
 10
1198.972857143
 20
440.757142857
 30
0.0
 11
1213.461744537
 21
444.639428534
 31
0.0
  0
LINE
  8
0
  6
CONTINUOUS
 62
     2
 10
1198.972857143
 20
440.757142857
 30
0.0
 11
1233.972857143
 21
440.757142857
 31
0.0
  0
LINE
  8
0
  6
CONTINUOUS
 62
     2
 10
1233.972857143
 20
440.757142857
 30
0.0
 11
1219.483969749
 21
444.639428534
 31
0.0
  0
LINE
  8
0
  6
CONTINUOUS
 62
     2
 10
1233.972857143
 20
440.757142857
 30
0.0
 11
1219.483969749
 21
436.874857181
 31
0.0
  0
LINE
  8
0
  6
CONTINUOUS
 62
     1
 10
1113.972857143
 20
715.757142857
 30
0.0
 11
1104.391310457
 21
679.998323812
 31
0.0
  0
ARC
  8
0
  6
CONTINUOUS
 62
     1
 10
1097.871492769
 20
693.257142857
 30
0.0
 40
1.0
 50
15.0
 51
90.0
  0
ARC
  8
0
  6
CONTINUOUS
 62
     1
 10
1097.871492769
 20
693.257142857
 30
0.0
 40
1.0
 50
90.0
 51
165.0
  0
LINE
  8
0
  6
CONTINUOUS
 62
     1
 10
1096.905566942
 20
693.515961902
 30
0.0
 11
1093.283526733
 21
679.998323812
 31
0.0
  0
ARC
  8
0
  6
CONTINUOUS
 62
     1
 10
1092.317600906
 20
680.257142857
 30
0.0
 40
1.0
 50
270.0
 51
345.0
  0
ARC
  8
0
  6
CONTINUOUS
 62
     1
 10
1092.317600906
 20
680.257142857
 30
0.0
 40
1.0
 50
195.0
 51
270.0
  0
LINE
  8
0
  6
CONTINUOUS
 62
     1
 10
1087.72963487
 20
693.515961902
 30
0.0
 11
1091.35167508
 21
679.998323812
 31
0.0
  0
ARC
  8
0
  6
CONTINUOUS
 62
     1
 10
1086.763709044
 20
693.257142857
 30
0.0
 40
1.0
 50
15.0
 51
90.0
  0
LINE
  8
0
  6
CONTINUOUS
 62
     1
 10
1116.472857143
 20
713.757142857
 30
0.0
 11
1126.472857143
 21
713.757142857
 31
0.0
  0
LINE
  8
0
  6
CONTINUOUS
 62
     1
 10
1113.972857143
 20
715.757142857
 30
0.0
 11
1116.417600906
 21
715.757142857
 31
0.0
  0
LINE
  8
0
  6
CONTINUOUS
 62
     1
 10
1113.972857143
 20
715.757142857
 30
0.0
 11
1128.972857143
 21
715.757142857
 31
0.0
  0
ARC
  8
0
  6
CONTINUOUS
 62
     1
 10
1103.425384631
 20
680.257142857
 30
0.0
 40
1.0
 50
270.0
 51
345.0
  0
ARC
  8
0
  6
CONTINUOUS
 62
     1
 10
1103.425384631
 20
680.257142857
 30
0.0
 40
1.0
 50
195.0
 51
270.0
  0
LINE
  8
0
  6
CONTINUOUS
 62
     1
 10
1098.837418595
 20
693.515961902
 30
0.0
 11
1102.459458805
 21
679.998323812
 31
0.0
  0
ARC
  8
0
  6
CONTINUOUS
 62
     1
 10
1092.317600906
 20
828.257142857
 30
0.0
 40
1.0
 50
90.0
 51
165.0
  0
LINE
  8
0
  6
CONTINUOUS
 62
     1
 10
1087.72963487
 20
814.998323812
 30
0.0
 11
1091.35167508
 21
828.515961902
 31
0.0
  0
ARC
  8
0
  6
CONTINUOUS
 62
     1
 10
1086.763709044
 20
815.257142857
 30
0.0
 40
1.0
 50
270.0
 51
345.0
  0
LINE
  8
0
  6
CONTINUOUS
 62
     1
 10
1116.472857143
 20
794.757142857
 30
0.0
 11
1126.472857143
 21
794.757142857
 31
0.0
  0
LINE
  8
0
  6
CONTINUOUS
 62
     1
 10
1113.972857143
 20
792.757142857
 30
0.0
 11
1116.417600906
 21
792.757142857
 31
0.0
  0
LINE
  8
0
  6
CONTINUOUS
 62
     1
 10
1126.472857143
 20
794.757142857
 30
0.0
 11
1126.472857143
 21
754.257142857
 31
0.0
  0
LINE
  8
0
  6
CONTINUOUS
 62
     1
 10
1113.972857143
 20
792.757142857
 30
0.0
 11
1113.972857143
 21
754.257142857
 31
0.0
  0
LINE
  8
0
  6
CONTINUOUS
 62
     1
 10
1116.472857143
 20
794.757142857
 30
0.0
 11
1116.472857143
 21
754.257142857
 31
0.0
  0
LINE
  8
0
  6
CONTINUOUS
 62
     1
 10
1113.972857143
 20
792.757142857
 30
0.0
 11
1104.391310457
 21
828.515961902
 31
0.0
  0
ARC
  8
0
  6
CONTINUOUS
 62
     1
 10
1103.425384631
 20
828.257142857
 30
0.0
 40
1.0
 50
15.0
 51
90.0
  0
ARC
  8
0
  6
CONTINUOUS
 62
     1
 10
1103.425384631
 20
828.257142857
 30
0.0
 40
1.0
 50
90.0
 51
165.0
  0
LINE
  8
0
  6
CONTINUOUS
 62
     1
 10
1098.837418595
 20
814.998323812
 30
0.0
 11
1102.459458805
 21
828.515961902
 31
0.0
  0
ARC
  8
0
  6
CONTINUOUS
 62
     1
 10
1097.871492769
 20
815.257142857
 30
0.0
 40
1.0
 50
270.0
 51
345.0
  0
ARC
  8
0
  6
CONTINUOUS
 62
     1
 10
1097.871492769
 20
815.257142857
 30
0.0
 40
1.0
 50
195.0
 51
270.0
  0
LINE
  8
0
  6
CONTINUOUS
 62
     1
 10
1096.905566942
 20
814.998323812
 30
0.0
 11
1093.283526733
 21
828.515961902
 31
0.0
  0
ARC
  8
0
  6
CONTINUOUS
 62
     1
 10
1092.317600906
 20
828.257142857
 30
0.0
 40
1.0
 50
15.0
 51
90.0
  0
LINE
  8
0
  6
CONTINUOUS
 62
     1
 10
1086.763709044
 20
814.257142857
 30
0.0
 11
1086.763709044
 21
754.257142857
 31
0.0
  0
LINE
  8
0
  6
CONTINUOUS
 62
     1
 10
1092.317600906
 20
829.257142857
 30
0.0
 11
1092.317600906
 21
754.257142857
 31
0.0
  0
LINE
  8
0
  6
CONTINUOUS
 62
     1
 10
1103.425384631
 20
829.257142857
 30
0.0
 11
1103.425384631
 21
754.257142857
 31
0.0
  0
LINE
  8
0
  6
CONTINUOUS
 62
     1
 10
1097.871492769
 20
814.257142857
 30
0.0
 11
1097.871492769
 21
754.257142857
 31
0.0
  0
LINE
  8
0
  6
CONTINUOUS
 62
     1
 10
1039.972857143
 20
716.757142857
 30
0.0
 11
1128.972857143
 21
716.757142857
 31
0.0
  0
LINE
  8
0
  6
CONTINUOUS
 62
     1
 10
1126.417600906
 20
792.757142857
 30
0.0
 11
1128.972857143
 21
792.757142857
 31
0.0
  0
LINE
  8
0
  6
CONTINUOUS
 62
     1
 10
1128.972857143
 20
792.757142857
 30
0.0
 11
1128.972857143
 21
716.757142857
 31
0.0
  0
LINE
  8
0
  6
LTYPE4
 62
     2
 10
991.403105476
 20
829.257142857
 30
0.0
 11
1088.972857143
 21
829.257142857
 31
0.0
  0
LINE
  8
0
  6
LTYPE4
 62
     2
 10
996.956997338
 20
814.257142857
 30
0.0
 11
1083.972857143
 21
814.257142857
 31
0.0
  0
LINE
  8
0
  6
LTYPE4
 62
     2
 10
996.956997338
 20
694.257142857
 30
0.0
 11
1085.472857143
 21
694.257142857
 31
0.0
  0
LINE
  8
0
  6
LTYPE4
 62
     2
 10
991.403105476
 20
679.257142857
 30
0.0
 11
1090.472857143
 21
679.257142857
 31
0.0
  0
LINE
  8
0
  6
CONTINUOUS
 62
     1
 10
974.972857143
 20
697.257142857
 30
0.0
 11
974.972857143
 21
812.257142857
 31
0.0
  0
LINE
  8
0
  6
CONTINUOUS
 62
     1
 10
974.972857143
 20
697.257142857
 30
0.0
 11
1039.972857143
 21
697.257142857
 31
0.0
  0
LINE
  8
0
  6
CONTINUOUS
 62
     1
 10
969.972857143
 20
694.257142857
 30
0.0
 11
969.972857143
 21
695.757142857
 31
0.0
  0
LINE
  8
0
  6
CONTINUOUS
 62
     1
 10
959.972857143
 20
694.257142857
 30
0.0
 11
959.972857143
 21
695.757142857
 31
0.0
  0
LINE
  8
0
  6
CONTINUOUS
 62
     1
 10
1128.972857143
 20
970.957142857
 30
0.0
 11
1233.972857143
 21
970.957142857
 31
0.0
  0
LINE
  8
0
  6
CONTINUOUS
 62
     1
 10
1128.972857143
 20
1050.957142857
 30
0.0
 11
1128.972857143
 21
970.957142857
 31
0.0
  0
LINE
  8
0
  6
CONTINUOUS
 62
     1
 10
1128.972857143
 20
1050.957142857
 30
0.0
 11
1233.972857143
 21
1050.957142857
 31
0.0
  0
ARC
  8
0
  6
CONTINUOUS
 62
     1
 10
1092.317600906
 20
1084.957142857
 30
0.0
 40
1.0
 50
90.0
 51
165.0
  0
LINE
  8
0
  6
CONTINUOUS
 62
     1
 10
1087.72963487
 20
1071.698323812
 30
0.0
 11
1091.35167508
 21
1085.215961902
 31
0.0
  0
ARC
  8
0
  6
CONTINUOUS
 62
     1
 10
1086.763709044
 20
1071.957142857
 30
0.0
 40
1.0
 50
270.0
 51
345.0
  0
LINE
  8
0
  6
CONTINUOUS
 62
     1
 10
1116.472857143
 20
1051.457142857
 30
0.0
 11
1126.472857143
 21
1051.457142857
 31
0.0
  0
LINE
  8
0
  6
CONTINUOUS
 62
     1
 10
1126.417600906
 20
1049.457142857
 30
0.0
 11
1128.972857143
 21
1049.457142857
 31
0.0
  0
LINE
  8
0
  6
CONTINUOUS
 62
     1
 10
1113.972857143
 20
1049.457142857
 30
0.0
 11
1116.417600906
 21
1049.457142857
 31
0.0
  0
LINE
  8
0
  6
CONTINUOUS
 62
     1
 10
1126.472857143
 20
1051.457142857
 30
0.0
 11
1126.472857143
 21
1010.957142857
 31
0.0
  0
LINE
  8
0
  6
CONTINUOUS
 62
     1
 10
1113.972857143
 20
1049.457142857
 30
0.0
 11
1113.972857143
 21
1010.957142857
 31
0.0
  0
LINE
  8
0
  6
CONTINUOUS
 62
     1
 10
1116.472857143
 20
1051.457142857
 30
0.0
 11
1116.472857143
 21
1010.957142857
 31
0.0
  0
LINE
  8
0
  6
CONTINUOUS
 62
     1
 10
1113.972857143
 20
1049.457142857
 30
0.0
 11
1104.391310457
 21
1085.215961902
 31
0.0
  0
ARC
  8
0
  6
CONTINUOUS
 62
     1
 10
1103.425384631
 20
1084.957142857
 30
0.0
 40
1.0
 50
15.0
 51
90.0
  0
ARC
  8
0
  6
CONTINUOUS
 62
     1
 10
1103.425384631
 20
1084.957142857
 30
0.0
 40
1.0
 50
90.0
 51
165.0
  0
LINE
  8
0
  6
CONTINUOUS
 62
     1
 10
1098.837418595
 20
1071.698323812
 30
0.0
 11
1102.459458805
 21
1085.215961902
 31
0.0
  0
ARC
  8
0
  6
CONTINUOUS
 62
     1
 10
1097.871492769
 20
1071.957142857
 30
0.0
 40
1.0
 50
270.0
 51
345.0
  0
ARC
  8
0
  6
CONTINUOUS
 62
     1
 10
1097.871492769
 20
1071.957142857
 30
0.0
 40
1.0
 50
195.0
 51
270.0
  0
LINE
  8
0
  6
CONTINUOUS
 62
     1
 10
1096.905566942
 20
1071.698323812
 30
0.0
 11
1093.283526733
 21
1085.215961902
 31
0.0
  0
ARC
  8
0
  6
CONTINUOUS
 62
     1
 10
1092.317600906
 20
1084.957142857
 30
0.0
 40
1.0
 50
15.0
 51
90.0
  0
LINE
  8
0
  6
CONTINUOUS
 62
     1
 10
1086.763709044
 20
1070.957142857
 30
0.0
 11
1086.763709044
 21
1010.957142857
 31
0.0
  0
LINE
  8
0
  6
CONTINUOUS
 62
     1
 10
1092.317600906
 20
1085.957142857
 30
0.0
 11
1092.317600906
 21
1010.957142857
 31
0.0
  0
LINE
  8
0
  6
CONTINUOUS
 62
     1
 10
1103.425384631
 20
1085.957142857
 30
0.0
 11
1103.425384631
 21
1010.957142857
 31
0.0
  0
LINE
  8
0
  6
CONTINUOUS
 62
     1
 10
1097.871492769
 20
1070.957142857
 30
0.0
 11
1097.871492769
 21
1010.957142857
 31
0.0
  0
LINE
  8
0
  6
LTYPE4
 62
     2
 10
1069.972857143
 20
1085.957142857
 30
0.0
 11
1092.222857143
 21
1085.957142857
 31
0.0
  0
LINE
  8
0
  6
LTYPE4
 62
     2
 10
1066.972857143
 20
1070.957142857
 30
0.0
 11
1086.622857143
 21
1070.957142857
 31
0.0
  0
ARC
  8
0
  6
CONTINUOUS
 62
     1
 10
1092.317600906
 20
936.957142857
 30
0.0
 40
1.0
 50
195.0
 51
270.0
  0
LINE
  8
0
  6
CONTINUOUS
 62
     1
 10
1087.72963487
 20
950.215961902
 30
0.0
 11
1091.35167508
 21
936.698323812
 31
0.0
  0
ARC
  8
0
  6
CONTINUOUS
 62
     1
 10
1086.763709044
 20
949.957142857
 30
0.0
 40
1.0
 50
15.0
 51
90.0
  0
LINE
  8
0
  6
CONTINUOUS
 62
     1
 10
1116.472857143
 20
970.457142857
 30
0.0
 11
1126.472857143
 21
970.457142857
 31
0.0
  0
LINE
  8
0
  6
CONTINUOUS
 62
     1
 10
1126.417600906
 20
972.457142857
 30
0.0
 11
1128.972857143
 21
972.457142857
 31
0.0
  0
LINE
  8
0
  6
CONTINUOUS
 62
     1
 10
1113.972857143
 20
972.457142857
 30
0.0
 11
1116.417600906
 21
972.457142857
 31
0.0
  0
LINE
  8
0
  6
CONTINUOUS
 62
     1
 10
1126.472857143
 20
970.457142857
 30
0.0
 11
1126.472857143
 21
1010.957142857
 31
0.0
  0
LINE
  8
0
  6
CONTINUOUS
 62
     1
 10
1113.972857143
 20
972.457142857
 30
0.0
 11
1113.972857143
 21
1010.957142857
 31
0.0
  0
LINE
  8
0
  6
CONTINUOUS
 62
     1
 10
1116.472857143
 20
970.457142857
 30
0.0
 11
1116.472857143
 21
1010.957142857
 31
0.0
  0
LINE
  8
0
  6
CONTINUOUS
 62
     1
 10
1113.972857143
 20
972.457142857
 30
0.0
 11
1104.391310457
 21
936.698323812
 31
0.0
  0
ARC
  8
0
  6
CONTINUOUS
 62
     1
 10
1103.425384631
 20
936.957142857
 30
0.0
 40
1.0
 50
270.0
 51
345.0
  0
ARC
  8
0
  6
CONTINUOUS
 62
     1
 10
1103.425384631
 20
936.957142857
 30
0.0
 40
1.0
 50
195.0
 51
270.0
  0
LINE
  8
0
  6
CONTINUOUS
 62
     1
 10
1098.837418595
 20
950.215961902
 30
0.0
 11
1102.459458805
 21
936.698323812
 31
0.0
  0
ARC
  8
0
  6
CONTINUOUS
 62
     1
 10
1097.871492769
 20
949.957142857
 30
0.0
 40
1.0
 50
15.0
 51
90.0
  0
ARC
  8
0
  6
CONTINUOUS
 62
     1
 10
1097.871492769
 20
949.957142857
 30
0.0
 40
1.0
 50
90.0
 51
165.0
  0
LINE
  8
0
  6
CONTINUOUS
 62
     1
 10
1096.905566942
 20
950.215961902
 30
0.0
 11
1093.283526733
 21
936.698323812
 31
0.0
  0
ARC
  8
0
  6
CONTINUOUS
 62
     1
 10
1092.317600906
 20
936.957142857
 30
0.0
 40
1.0
 50
270.0
 51
345.0
  0
LINE
  8
0
  6
CONTINUOUS
 62
     1
 10
1086.763709044
 20
950.957142857
 30
0.0
 11
1086.763709044
 21
1010.957142857
 31
0.0
  0
LINE
  8
0
  6
CONTINUOUS
 62
     1
 10
1092.317600906
 20
935.957142857
 30
0.0
 11
1092.317600906
 21
1010.957142857
 31
0.0
  0
LINE
  8
0
  6
CONTINUOUS
 62
     1
 10
1103.425384631
 20
935.957142857
 30
0.0
 11
1103.425384631
 21
1010.957142857
 31
0.0
  0
LINE
  8
0
  6
CONTINUOUS
 62
     1
 10
1097.871492769
 20
950.957142857
 30
0.0
 11
1097.871492769
 21
1010.957142857
 31
0.0
  0
LINE
  8
0
  6
LTYPE4
 62
     2
 10
1069.972857143
 20
935.957142857
 30
0.0
 11
1092.222857143
 21
935.957142857
 31
0.0
  0
LINE
  8
0
  6
LTYPE4
 62
     2
 10
1066.972857143
 20
950.957142857
 30
0.0
 11
1086.622857143
 21
950.957142857
 31
0.0
  0
LINE
  8
0
  6
LTYPE2
 62
     2
 10
1067.472857143
 20
1010.957142857
 30
0.0
 11
1244.972857143
 21
1010.957142857
 31
0.0
  0
LINE
  8
0
  6
CONTINUOUS
 62
     2
 10
1070.972857143
 20
935.957142857
 30
0.0
 11
1074.855142819
 21
950.446030251
 31
0.0
  0
LINE
  8
0
  6
CONTINUOUS
 62
     2
 10
1070.972857143
 20
935.957142857
 30
0.0
 11
1067.090571466
 21
950.446030251
 31
0.0
  0
LINE
  8
0
  6
CONTINUOUS
 62
     2
 10
1070.972857143
 20
935.957142857
 30
0.0
 11
1070.972857143
 21
1085.957142857
 31
0.0
  0
LINE
  8
0
  6
CONTINUOUS
 62
     2
 10
1070.972857143
 20
1085.957142857
 30
0.0
 11
1067.090571466
 21
1071.468255463
 31
0.0
  0
LINE
  8
0
  6
CONTINUOUS
 62
     2
 10
1070.972857143
 20
1085.957142857
 30
0.0
 11
1074.855142819
 21
1071.468255463
 31
0.0
  0
LINE
  8
0
  6
CONTINUOUS
 62
     2
 10
1079.472857143
 20
1085.957142857
 30
0.0
 11
1079.972857143
 21
1085.957142857
 31
0.0
  0
LINE
  8
0
  6
CONTINUOUS
 62
     1
 10
1668.472857143
 20
739.257142857
 30
0.0
 11
1628.472857143
 21
739.257142857
 31
0.0
  0
LINE
  8
0
  6
CONTINUOUS
 62
     1
 10
1668.472857143
 20
769.257142857
 30
0.0
 11
1628.472857143
 21
769.257142857
 31
0.0
  0
LINE
  8
0
  6
LTYPE1
 62
     2
 10
1628.472857143
 20
739.257142857
 30
0.0
 11
1608.472857143
 21
739.257142857
 31
0.0
  0
LINE
  8
0
  6
LTYPE1
 62
     2
 10
1628.472857143
 20
769.257142857
 30
0.0
 11
1608.472857143
 21
769.257142857
 31
0.0
  0
LINE
  8
0
  6
CONTINUOUS
 62
     1
 10
1692.472857143
 20
726.257142857
 30
0.0
 11
1692.472857143
 21
782.257142857
 31
0.0
  0
LINE
  8
0
  6
CONTINUOUS
 62
     1
 10
1692.472857143
 20
726.257142857
 30
0.0
 11
1688.472857143
 21
726.257142857
 31
0.0
  0
LINE
  8
0
  6
CONTINUOUS
 62
     1
 10
1692.472857143
 20
782.257142857
 30
0.0
 11
1688.472857143
 21
782.257142857
 31
0.0
  0
LINE
  8
0
  6
CONTINUOUS
 62
     1
 10
1702.472857143
 20
739.257142857
 30
0.0
 11
1702.472857143
 21
769.257142857
 31
0.0
  0
LINE
  8
0
  6
CONTINUOUS
 62
     1
 10
1702.472857143
 20
739.257142857
 30
0.0
 11
1692.472857143
 21
739.257142857
 31
0.0
  0
LINE
  8
0
  6
CONTINUOUS
 62
     1
 10
1702.472857143
 20
769.257142857
 30
0.0
 11
1692.472857143
 21
769.257142857
 31
0.0
  0
LINE
  8
0
  6
LTYPE1
 62
     2
 10
1692.472857143
 20
769.257142857
 30
0.0
 11
1668.472857143
 21
769.257142857
 31
0.0
  0
LINE
  8
0
  6
LTYPE1
 62
     2
 10
1692.472857143
 20
739.257142857
 30
0.0
 11
1668.472857143
 21
739.257142857
 31
0.0
  0
LINE
  8
0
  6
CONTINUOUS
 62
     1
 10
1604.472857143
 20
726.257142857
 30
0.0
 11
1604.472857143
 21
782.257142857
 31
0.0
  0
LINE
  8
0
  6
CONTINUOUS
 62
     1
 10
1604.472857143
 20
726.257142857
 30
0.0
 11
1608.472857143
 21
726.257142857
 31
0.0
  0
LINE
  8
0
  6
CONTINUOUS
 62
     1
 10
1604.472857143
 20
782.257142857
 30
0.0
 11
1608.472857143
 21
782.257142857
 31
0.0
  0
LINE
  8
0
  6
CONTINUOUS
 62
     1
 10
1594.472857143
 20
739.257142857
 30
0.0
 11
1594.472857143
 21
769.257142857
 31
0.0
  0
LINE
  8
0
  6
CONTINUOUS
 62
     1
 10
1594.472857143
 20
739.257142857
 30
0.0
 11
1604.472857143
 21
739.257142857
 31
0.0
  0
LINE
  8
0
  6
CONTINUOUS
 62
     1
 10
1594.472857143
 20
769.257142857
 30
0.0
 11
1604.472857143
 21
769.257142857
 31
0.0
  0
LINE
  8
0
  6
LTYPE2
 62
     2
 10
1696.072857143
 20
747.257142857
 30
0.0
 11
1696.072857143
 21
763.257142857
 31
0.0
  0
CIRCLE
  8
0
  6
CONTINUOUS
 62
     1
 10
1696.072857143
 20
754.257142857
 30
0.0
 40
3.0
  0
LINE
  8
0
  6
LTYPE2
 62
     2
 10
1600.872857143
 20
747.257142857
 30
0.0
 11
1600.872857143
 21
763.257142857
 31
0.0
  0
CIRCLE
  8
0
  6
CONTINUOUS
 62
     1
 10
1600.872857143
 20
754.257142857
 30
0.0
 40
3.0
  0
LINE
  8
0
  6
CONTINUOUS
 62
     1
 10
1688.472857143
 20
791.757142857
 30
0.0
 11
1608.472857143
 21
791.757142857
 31
0.0
  0
LINE
  8
0
  6
CONTINUOUS
 62
     1
 10
1628.472857143
 20
716.757142857
 30
0.0
 11
1628.472857143
 21
791.757142857
 31
0.0
  0
LINE
  8
0
  6
CONTINUOUS
 62
     1
 10
1608.472857143
 20
716.757142857
 30
0.0
 11
1608.472857143
 21
791.757142857
 31
0.0
  0
LINE
  8
0
  6
CONTINUOUS
 62
     1
 10
1668.472857143
 20
716.757142857
 30
0.0
 11
1668.472857143
 21
791.757142857
 31
0.0
  0
LINE
  8
0
  6
CONTINUOUS
 62
     1
 10
1688.472857143
 20
716.757142857
 30
0.0
 11
1608.472857143
 21
716.757142857
 31
0.0
  0
LINE
  8
0
  6
CONTINUOUS
 62
     1
 10
1688.472857143
 20
716.757142857
 30
0.0
 11
1688.472857143
 21
791.757142857
 31
0.0
  0
LINE
  8
0
  6
LTYPE1
 62
     2
 10
1723.472857143
 20
739.257142857
 30
0.0
 11
1723.472857143
 21
769.257142857
 31
0.0
  0
LINE
  8
0
  6
LTYPE1
 62
     2
 10
1723.472857143
 20
769.257142857
 30
0.0
 11
1758.472857143
 21
769.257142857
 31
0.0
  0
LINE
  8
0
  6
LTYPE1
 62
     2
 10
1723.472857143
 20
739.257142857
 30
0.0
 11
1758.472857143
 21
739.257142857
 31
0.0
  0
LINE
  8
0
  6
LTYPE2
 62
     2
 10
1765.472857143
 20
754.257142857
 30
0.0
 11
1542.472857143
 21
754.257142857
 31
0.0
  0
LINE
  8
0
  6
LTYPE1
 62
     2
 10
1573.472857143
 20
739.257142857
 30
0.0
 11
1538.472857143
 21
739.257142857
 31
0.0
  0
LINE
  8
0
  6
LTYPE1
 62
     2
 10
1573.472857143
 20
769.257142857
 30
0.0
 11
1538.472857143
 21
769.257142857
 31
0.0
  0
LINE
  8
0
  6
LTYPE1
 62
     2
 10
1573.472857143
 20
739.257142857
 30
0.0
 11
1573.472857143
 21
769.257142857
 31
0.0
  0
ARC
  8
0
  6
CONTINUOUS
 62
     1
 10
1600.472857143
 20
681.757142857
 30
0.0
 40
3.0
 50
90.0
 51
180.0
  0
LINE
  8
0
  6
CONTINUOUS
 62
     1
 10
1597.472857143
 20
635.257142857
 30
0.0
 11
1597.472857143
 21
681.757142857
 31
0.0
  0
ARC
  8
0
  6
CONTINUOUS
 62
     1
 10
1598.472857143
 20
635.257142857
 30
0.0
 40
1.0
 50
180.0
 51
270.0
  0
ARC
  8
0
  6
CONTINUOUS
 62
     1
 10
1601.472857143
 20
634.257142857
 30
0.0
 40
1.0
 50
180.0
 51
270.0
  0
ARC
  8
0
  6
CONTINUOUS
 62
     1
 10
1696.472857143
 20
681.757142857
 30
0.0
 40
3.0
 50
0.0
 51
90.0
  0
LINE
  8
0
  6
CONTINUOUS
 62
     1
 10
1699.472857143
 20
635.257142857
 30
0.0
 11
1699.472857143
 21
681.757142857
 31
0.0
  0
ARC
  8
0
  6
CONTINUOUS
 62
     1
 10
1698.472857143
 20
635.257142857
 30
0.0
 40
1.0
 50
270.0
 51
0.0
  0
ARC
  8
0
  6
CONTINUOUS
 62
     1
 10
1695.472857143
 20
634.257142857
 30
0.0
 40
1.0
 50
270.0
 51
0.0
  0
LINE
  8
0
  6
CONTINUOUS
 62
     1
 10
1699.472857143
 20
640.257142857
 30
0.0
 11
1597.472857143
 21
640.257142857
 31
0.0
  0
LINE
  8
0
  6
CONTINUOUS
 62
     1
 10
1699.472857143
 20
641.757142857
 30
0.0
 11
1597.472857143
 21
641.757142857
 31
0.0
  0
LINE
  8
0
  6
CONTINUOUS
 62
     1
 10
1695.472857143
 20
633.257142857
 30
0.0
 11
1601.472857143
 21
633.257142857
 31
0.0
  0
LINE
  8
0
  6
CONTINUOUS
 62
     1
 10
1698.472857143
 20
634.257142857
 30
0.0
 11
1598.472857143
 21
634.257142857
 31
0.0
  0
LINE
  8
0
  6
LTYPE3
 62
     2
 10
1693.472857143
 20
629.557142857
 30
0.0
 11
1693.472857143
 21
648.257142857
 31
0.0
  0
LINE
  8
0
  6
LTYPE3
 62
     2
 10
1603.472857143
 20
629.557142857
 30
0.0
 11
1603.472857143
 21
648.257142857
 31
0.0
  0
LINE
  8
0
  6
CONTINUOUS
 62
     1
 10
1676.972857143
 20
684.757142857
 30
0.0
 11
1696.472857143
 21
684.757142857
 31
0.0
  0
LINE
  8
0
  6
CONTINUOUS
 62
     1
 10
1679.972857143
 20
686.257142857
 30
0.0
 11
1694.472857143
 21
686.257142857
 31
0.0
  0
CIRCLE
  8
0
  6
CONTINUOUS
 62
     2
 10
1648.472857143
 20
658.757142857
 30
0.0
 40
10.4775
  0
CIRCLE
  8
0
  6
CONTINUOUS
 62
     2
 10
1648.472857143
 20
658.757142857
 30
0.0
 40
9.3155
  0
LINE
  8
0
  6
LTYPE2
 62
     2
 10
1668.372857143
 20
658.757142857
 30
0.0
 11
1627.672857143
 21
658.757142857
 31
0.0
  0
LINE
  8
0
  6
LTYPE2
 62
     2
 10
1725.972857143
 20
694.257142857
 30
0.0
 11
1691.972857143
 21
694.257142857
 31
0.0
  0
LINE
  8
0
  6
LTYPE2
 62
     2
 10
1708.472857143
 20
675.757142857
 30
0.0
 11
1708.472857143
 21
711.757142857
 31
0.0
  0
LINE
  8
0
  6
CONTINUOUS
 62
     1
 10
1720.472857143
 20
674.257142857
 30
0.0
 11
1699.472857143
 21
674.257142857
 31
0.0
  0
ARC
  8
0
  6
CONTINUOUS
 62
     1
 10
1720.472857143
 20
682.257142857
 30
0.0
 40
8.0
 50
270.0
 51
0.0
  0
LINE
  8
0
  6
LTYPE2
 62
     2
 10
1570.972857143
 20
694.257142857
 30
0.0
 11
1604.972857143
 21
694.257142857
 31
0.0
  0
LINE
  8
0
  6
LTYPE2
 62
     2
 10
1588.472857143
 20
675.757142857
 30
0.0
 11
1588.472857143
 21
711.757142857
 31
0.0
  0
LINE
  8
0
  6
CONTINUOUS
 62
     1
 10
1576.472857143
 20
674.257142857
 30
0.0
 11
1597.472857143
 21
674.257142857
 31
0.0
  0
ARC
  8
0
  6
CONTINUOUS
 62
     1
 10
1576.472857143
 20
682.257142857
 30
0.0
 40
8.0
 50
180.0
 51
270.0
  0
ARC
  8
0
  6
CONTINUOUS
 62
     1
 10
1588.472857143
 20
694.257142857
 30
0.0
 40
12.0
 50
94.763641691
 51
352.234833982
  0
ARC
  8
0
  6
CONTINUOUS
 62
     1
 10
1708.472857143
 20
694.257142857
 30
0.0
 40
12.0
 50
160.016893478
 51
113.198590514
  0
LINE
  8
0
  6
LTYPE2
 62
     2
 10
1725.972857143
 20
814.257142857
 30
0.0
 11
1691.972857143
 21
814.257142857
 31
0.0
  0
LINE
  8
0
  6
LTYPE2
 62
     2
 10
1708.472857143
 20
832.757142857
 30
0.0
 11
1708.472857143
 21
796.757142857
 31
0.0
  0
ARC
  8
0
  6
CONTINUOUS
 62
     1
 10
1720.472857143
 20
826.257142857
 30
0.0
 40
8.0
 50
0.0
 51
90.0
  0
ARC
  8
0
  6
CONTINUOUS
 62
     1
 10
1708.472857143
 20
814.257142857
 30
0.0
 40
12.0
 50
277.43140797
 51
172.874983651
  0
LINE
  8
0
  6
CONTINUOUS
 62
     2
 10
1774.472857143
 20
754.257142857
 30
0.0
 11
1818.972857143
 21
754.257142857
 31
0.0
  0
LINE
  8
0
  6
CONTINUOUS
 62
     2
 10
1809.972857143
 20
754.257142857
 30
0.0
 11
1806.090571466
 21
739.768255463
 31
0.0
  0
LINE
  8
0
  6
CONTINUOUS
 62
     2
 10
1809.972857143
 20
754.257142857
 30
0.0
 11
1813.855142819
 21
739.768255463
 31
0.0
  0
LINE
  8
0
  6
CONTINUOUS
 62
     2
 10
1809.972857143
 20
754.257142857
 30
0.0
 11
1809.972857143
 21
659.257142857
 31
0.0
  0
LINE
  8
0
  6
CONTINUOUS
 62
     2
 10
1809.972857143
 20
659.257142857
 30
0.0
 11
1813.855142819
 21
673.746030251
 31
0.0
  0
LINE
  8
0
  6
CONTINUOUS
 62
     2
 10
1809.972857143
 20
659.257142857
 30
0.0
 11
1806.090571466
 21
673.746030251
 31
0.0
  0
LINE
  8
0
  6
CONTINUOUS
 62
     2
 10
1746.472857143
 20
659.257142857
 30
0.0
 11
1818.972857143
 21
659.257142857
 31
0.0
  0
LINE
  8
0
  6
CONTINUOUS
 62
     2
 10
1809.972857143
 20
754.257142857
 30
0.0
 11
1813.855142819
 21
768.746030251
 31
0.0
  0
LINE
  8
0
  6
CONTINUOUS
 62
     2
 10
1809.972857143
 20
754.257142857
 30
0.0
 11
1806.090571466
 21
768.746030251
 31
0.0
  0
LINE
  8
0
  6
CONTINUOUS
 62
     2
 10
1856.972857143
 20
754.257142857
 30
0.0
 11
1860.855142819
 21
768.746030251
 31
0.0
  0
LINE
  8
0
  6
CONTINUOUS
 62
     2
 10
1856.972857143
 20
754.257142857
 30
0.0
 11
1853.090571466
 21
768.746030251
 31
0.0
  0
LINE
  8
0
  6
CONTINUOUS
 62
     2
 10
1818.972857143
 20
754.257142857
 30
0.0
 11
1865.972857143
 21
754.257142857
 31
0.0
  0
LINE
  8
0
  6
CONTINUOUS
 62
     2
 10
1856.972857143
 20
754.257142857
 30
0.0
 11
1853.090571466
 21
739.768255463
 31
0.0
  0
LINE
  8
0
  6
CONTINUOUS
 62
     2
 10
1856.972857143
 20
754.257142857
 30
0.0
 11
1860.855142819
 21
739.768255463
 31
0.0
  0
LINE
  8
0
  6
CONTINUOUS
 62
     2
 10
1856.972857143
 20
754.257142857
 30
0.0
 11
1856.972857143
 21
633.257142857
 31
0.0
  0
LINE
  8
0
  6
CONTINUOUS
 62
     2
 10
1856.972857143
 20
633.257142857
 30
0.0
 11
1860.855142819
 21
647.746030251
 31
0.0
  0
LINE
  8
0
  6
CONTINUOUS
 62
     2
 10
1856.972857143
 20
633.257142857
 30
0.0
 11
1853.090571466
 21
647.746030251
 31
0.0
  0
LINE
  8
0
  6
CONTINUOUS
 62
     2
 10
1704.472857143
 20
633.257142857
 30
0.0
 11
1865.972857143
 21
633.257142857
 31
0.0
  0
LINE
  8
0
  6
CONTINUOUS
 62
     2
 10
1529.472857143
 20
739.257142857
 30
0.0
 11
1433.472857143
 21
739.257142857
 31
0.0
  0
LINE
  8
0
  6
CONTINUOUS
 62
     2
 10
1442.472857143
 20
739.257142857
 30
0.0
 11
1438.590571466
 21
724.768255463
 31
0.0
  0
LINE
  8
0
  6
CONTINUOUS
 62
     2
 10
1442.472857143
 20
739.257142857
 30
0.0
 11
1446.355142819
 21
724.768255463
 31
0.0
  0
LINE
  8
0
  6
CONTINUOUS
 62
     2
 10
1442.472857143
 20
769.257142857
 30
0.0
 11
1446.355142819
 21
783.746030251
 31
0.0
  0
LINE
  8
0
  6
CONTINUOUS
 62
     2
 10
1442.472857143
 20
769.257142857
 30
0.0
 11
1438.590571466
 21
783.746030251
 31
0.0
  0
LINE
  8
0
  6
CONTINUOUS
 62
     2
 10
1532.850490779
 20
769.257142857
 30
0.0
 11
1433.472857143
 21
769.257142857
 31
0.0
  0
LINE
  8
0
  6
CONTINUOUS
 62
     2
 10
1538.472857143
 20
710.257142857
 30
0.0
 11
1538.472857143
 21
514.757142857
 31
0.0
  0
LINE
  8
0
  6
CONTINUOUS
 62
     2
 10
1538.472857143
 20
523.757142857
 30
0.0
 11
1552.961744537
 21
519.874857181
 31
0.0
  0
LINE
  8
0
  6
CONTINUOUS
 62
     2
 10
1538.472857143
 20
523.757142857
 30
0.0
 11
1552.961744537
 21
527.639428534
 31
0.0
  0
LINE
  8
0
  6
CONTINUOUS
 62
     2
 10
1538.472857143
 20
523.757142857
 30
0.0
 11
1758.472857143
 21
523.757142857
 31
0.0
  0
LINE
  8
0
  6
CONTINUOUS
 62
     2
 10
1758.472857143
 20
523.757142857
 30
0.0
 11
1743.983969749
 21
527.639428534
 31
0.0
  0
LINE
  8
0
  6
CONTINUOUS
 62
     2
 10
1758.472857143
 20
523.757142857
 30
0.0
 11
1743.983969749
 21
519.874857181
 31
0.0
  0
LINE
  8
0
  6
CONTINUOUS
 62
     2
 10
1758.472857143
 20
710.257142857
 30
0.0
 11
1758.472857143
 21
514.757142857
 31
0.0
  0
LINE
  8
0
  6
CONTINUOUS
 62
     2
 10
1809.972857143
 20
755.007142857
 30
0.0
 11
1809.972857143
 21
937.257142857
 31
0.0
  0
LINE
  8
0
  6
CONTINUOUS
 62
     2
 10
1809.972857143
 20
937.257142857
 30
0.0
 11
1806.090571466
 21
922.768255463
 31
0.0
  0
LINE
  8
0
  6
CONTINUOUS
 62
     2
 10
1809.972857143
 20
937.257142857
 30
0.0
 11
1813.855142819
 21
922.768255463
 31
0.0
  0
LINE
  8
0
  6
CONTINUOUS
 62
     2
 10
1809.972857143
 20
937.257142857
 30
0.0
 11
1813.855142819
 21
951.746030251
 31
0.0
  0
LINE
  8
0
  6
CONTINUOUS
 62
     2
 10
1809.972857143
 20
937.257142857
 30
0.0
 11
1806.090571466
 21
951.746030251
 31
0.0
  0
LINE
  8
0
  6
LTYPE2
 62
     2
 10
1537.972857143
 20
937.257142857
 30
0.0
 11
1761.972857143
 21
937.257142857
 31
0.0
  0
LINE
  8
0
  6
CONTINUOUS
 62
     2
 10
1766.472857143
 20
937.257142857
 30
0.0
 11
1818.972857143
 21
937.257142857
 31
0.0
  0
ARC
  8
0
  6
CONTINUOUS
 62
     1
 10
1559.472857143
 20
665.257142857
 30
0.0
 40
6.0
 50
180.0
 51
270.0
  0
LINE
  8
0
  6
CONTINUOUS
 62
     1
 10
1559.472857143
 20
659.257142857
 30
0.0
 11
1597.972857143
 21
659.257142857
 31
0.0
  0
LINE
  8
0
  6
CONTINUOUS
 62
     2
 10
1553.472857143
 20
656.257142857
 30
0.0
 11
1553.472857143
 21
557.757142857
 31
0.0
  0
ARC
  8
0
  6
CONTINUOUS
 62
     1
 10
1737.472857143
 20
665.257142857
 30
0.0
 40
6.0
 50
270.0
 51
0.0
  0
LINE
  8
0
  6
CONTINUOUS
 62
     1
 10
1698.472857143
 20
659.257142857
 30
0.0
 11
1737.472857143
 21
659.257142857
 31
0.0
  0
LINE
  8
0
  6
CONTINUOUS
 62
     2
 10
1743.472857143
 20
566.757142857
 30
0.0
 11
1728.983969749
 21
570.639428534
 31
0.0
  0
LINE
  8
0
  6
CONTINUOUS
 62
     2
 10
1743.472857143
 20
566.757142857
 30
0.0
 11
1728.983969749
 21
562.874857181
 31
0.0
  0
LINE
  8
0
  6
CONTINUOUS
 62
     2
 10
1743.472857143
 20
656.257142857
 30
0.0
 11
1743.472857143
 21
557.757142857
 31
0.0
  0
LINE
  8
0
  6
CONTINUOUS
 62
     2
 10
1553.472857143
 20
566.757142857
 30
0.0
 11
1567.961744537
 21
562.874857181
 31
0.0
  0
LINE
  8
0
  6
CONTINUOUS
 62
     2
 10
1553.472857143
 20
566.757142857
 30
0.0
 11
1567.961744537
 21
570.639428534
 31
0.0
  0
LINE
  8
0
  6
CONTINUOUS
 62
     2
 10
1553.472857143
 20
566.757142857
 30
0.0
 11
1743.472857143
 21
566.757142857
 31
0.0
  0
CIRCLE
  8
0
  6
CONTINUOUS
 62
     1
 10
1648.472857143
 20
754.257142857
 30
0.0
 40
75.0
  0
LINE
  8
0
  6
LTYPE2
 62
     2
 10
1570.972857143
 20
814.257142857
 30
0.0
 11
1604.972857143
 21
814.257142857
 31
0.0
  0
LINE
  8
0
  6
LTYPE2
 62
     2
 10
1588.472857143
 20
832.757142857
 30
0.0
 11
1588.472857143
 21
796.757142857
 31
0.0
  0
ARC
  8
0
  6
CONTINUOUS
 62
     1
 10
1576.472857143
 20
826.257142857
 30
0.0
 40
8.0
 50
90.0
 51
180.0
  0
ARC
  8
0
  6
CONTINUOUS
 62
     1
 10
1588.472857143
 20
814.257142857
 30
0.0
 40
12.0
 50
7.125016349
 51
262.56859203
  0
LINE
  8
0
  6
CONTINUOUS
 62
     1
 10
1576.472857143
 20
834.257142857
 30
0.0
 11
1648.472857143
 21
834.257142857
 31
0.0
  0
LINE
  8
0
  6
CONTINUOUS
 62
     1
 10
1720.472857143
 20
834.257142857
 30
0.0
 11
1648.472857143
 21
834.257142857
 31
0.0
  0
LINE
  8
0
  6
CONTINUOUS
 62
     1
 10
1600.472857143
 20
684.757142857
 30
0.0
 11
1620.472857143
 21
684.757142857
 31
0.0
  0
LINE
  8
0
  6
CONTINUOUS
 62
     1
 10
1616.972857143
 20
686.257142857
 30
0.0
 11
1602.472857143
 21
686.257142857
 31
0.0
  0
LINE
  8
0
  6
LTYPE5
 62
     2
 10
1648.472857143
 20
951.532028178
 30
0.0
 11
1648.472857143
 21
1132.007142857
 31
0.0
  0
CIRCLE
  8
0
  6
CONTINUOUS
 62
     1
 10
1648.472857143
 20
1075.757142857
 30
0.0
 40
12.055
  0
CIRCLE
  8
0
  6
CONTINUOUS
 62
     1
 10
1648.472857143
 20
1075.757142857
 30
0.0
 40
20.0
  0
CIRCLE
  8
0
  6
CONTINUOUS
 62
     1
 10
1648.472857143
 20
1075.757142857
 30
0.0
 40
25.0
  0
CIRCLE
  8
0
  6
CONTINUOUS
 62
     2
 10
1648.472857143
 20
1075.757142857
 30
0.0
 40
13.221
  0
LINE
  8
0
  6
LTYPE2
 62
     2
 10
1611.972857143
 20
1075.757142857
 30
0.0
 11
1683.972857143
 21
1075.757142857
 31
0.0
  0
ARC
  8
0
  6
CONTINUOUS
 62
     1
 10
1678.472857143
 20
1051.257142857
 30
0.0
 40
10.0
 50
270.0
 51
0.0
  0
LINE
  8
0
  6
CONTINUOUS
 62
     1
 10
1648.472857143
 20
1120.257142857
 30
0.0
 11
1678.472857143
 21
1120.257142857
 31
0.0
  0
LINE
  8
0
  6
CONTINUOUS
 62
     1
 10
1688.472857143
 20
1051.257142857
 30
0.0
 11
1688.472857143
 21
1110.257142857
 31
0.0
  0
ARC
  8
0
  6
CONTINUOUS
 62
     1
 10
1678.472857143
 20
1110.257142857
 30
0.0
 40
10.0
 50
0.0
 51
90.0
  0
LINE
  8
0
  6
CONTINUOUS
 62
     1
 10
1648.472857143
 20
1125.257142857
 30
0.0
 11
1688.472857143
 21
1125.257142857
 31
0.0
  0
ARC
  8
0
  6
CONTINUOUS
 62
     1
 10
1688.472857143
 20
1115.257142857
 30
0.0
 40
10.0
 50
0.0
 51
90.0
  0
LINE
  8
0
  6
CONTINUOUS
 62
     1
 10
1648.472857143
 20
1041.257142857
 30
0.0
 11
1688.472857143
 21
1041.257142857
 31
0.0
  0
LINE
  8
0
  6
CONTINUOUS
 62
     1
 10
1698.472857143
 20
1051.257142857
 30
0.0
 11
1698.472857143
 21
1115.257142857
 31
0.0
  0
ARC
  8
0
  6
CONTINUOUS
 62
     1
 10
1688.472857143
 20
1051.257142857
 30
0.0
 40
10.0
 50
270.0
 51
0.0
  0
LINE
  8
0
  6
CONTINUOUS
 62
     1
 10
1678.83298375
 20
1041.26362952
 30
0.0
 11
1678.83298375
 21
1035.76362952
 31
0.0
  0
LINE
  8
0
  6
CONTINUOUS
 62
     1
 10
1648.472857143
 20
1120.257142857
 30
0.0
 11
1618.472857143
 21
1120.257142857
 31
0.0
  0
LINE
  8
0
  6
CONTINUOUS
 62
     1
 10
1608.472857143
 20
1051.257142857
 30
0.0
 11
1608.472857143
 21
1110.257142857
 31
0.0
  0
ARC
  8
0
  6
CONTINUOUS
 62
     1
 10
1618.472857143
 20
1110.257142857
 30
0.0
 40
10.0
 50
90.0
 51
180.0
  0
LINE
  8
0
  6
CONTINUOUS
 62
     1
 10
1648.472857143
 20
1125.257142857
 30
0.0
 11
1608.472857143
 21
1125.257142857
 31
0.0
  0
ARC
  8
0
  6
CONTINUOUS
 62
     1
 10
1608.472857143
 20
1115.257142857
 30
0.0
 40
10.0
 50
90.0
 51
180.0
  0
LINE
  8
0
  6
CONTINUOUS
 62
     1
 10
1598.472857143
 20
1051.257142857
 30
0.0
 11
1598.472857143
 21
1115.257142857
 31
0.0
  0
ARC
  8
0
  6
CONTINUOUS
 62
     1
 10
1618.472857143
 20
1051.257142857
 30
0.0
 40
10.0
 50
180.0
 51
270.0
  0
LINE
  8
0
  6
CONTINUOUS
 62
     1
 10
1648.472857143
 20
1041.257142857
 30
0.0
 11
1608.472857143
 21
1041.257142857
 31
0.0
  0
ARC
  8
0
  6
CONTINUOUS
 62
     1
 10
1608.472857143
 20
1051.257142857
 30
0.0
 40
10.0
 50
180.0
 51
270.0
  0
LINE
  8
0
  6
CONTINUOUS
 62
     1
 10
1618.112730536
 20
1041.26362952
 30
0.0
 11
1618.112730536
 21
1035.76362952
 31
0.0
  0
ARC
  8
0
  6
CONTINUOUS
 62
     1
 10
1565.972857143
 20
937.257142857
 30
0.0
 40
20.0
 50
90.0
 51
180.0
  0
ARC
  8
0
  6
CONTINUOUS
 62
     1
 10
1565.972857143
 20
937.257142857
 30
0.0
 40
20.0
 50
180.0
 51
270.0
  0
ARC
  8
0
  6
CONTINUOUS
 62
     1
 10
1689.722857143
 20
865.810047045
 30
0.0
 40
20.0
 50
210.0
 51
300.0
  0
ARC
  8
0
  6
CONTINUOUS
 62
     1
 10
1689.722857143
 20
865.810047045
 30
0.0
 40
20.0
 50
300.0
 51
30.0
  0
LINE
  8
0
  6
CONTINUOUS
 62
     1
 10
1565.972857143
 20
917.257142857
 30
0.0
 11
1636.925851759
 21
917.257142857
 31
0.0
  0
LINE
  8
0
  6
CONTINUOUS
 62
     1
 10
1672.402349067
 20
855.810047045
 30
0.0
 11
1636.925851759
 21
917.257142857
 31
0.0
  0
ARC
  8
0
  6
CONTINUOUS
 62
     1
 10
1689.722857143
 20
1008.704238669
 30
0.0
 40
20.0
 50
330.0
 51
60.0
  0
ARC
  8
0
  6
CONTINUOUS
 62
     1
 10
1689.722857143
 20
1008.704238669
 30
0.0
 40
20.0
 50
60.0
 51
150.0
  0
LINE
  8
0
  6
CONTINUOUS
 62
     1
 10
1672.402349067
 20
1018.704238669
 30
0.0
 11
1636.925851759
 21
957.257142857
 31
0.0
  0
LINE
  8
0
  6
CONTINUOUS
 62
     1
 10
1565.972857143
 20
957.257142857
 30
0.0
 11
1636.925851759
 21
957.257142857
 31
0.0
  0
ARC
  8
0
  6
CONTINUOUS
 62
     1
 10
1648.472857143
 20
937.257142857
 30
0.0
 40
100.0
 50
186.110646249
 51
293.889353751
  0
ARC
  8
0
  6
CONTINUOUS
 62
     1
 10
1648.472857143
 20
937.257142857
 30
0.0
 40
100.0
 50
66.110646249
 51
173.889353751
  0
ARC
  8
0
  6
CONTINUOUS
 62
     1
 10
1648.472857143
 20
937.257142857
 30
0.0
 40
100.0
 50
306.110646249
 51
53.889353751
  0
LINE
  8
0
  6
CONTINUOUS
 62
     1
 10
1651.806190476
 20
956.977408801
 30
0.0
 11
1710.13952381
 21
947.117275829
 31
0.0
  0
LINE
  8
0
  6
CONTINUOUS
 62
     1
 10
1651.806190476
 20
917.536876913
 30
0.0
 11
1710.13952381
 21
927.397009885
 31
0.0
  0
LINE
  8
0
  6
LTYPE2
 62
     2
 10
1708.472857143
 20
922.257142857
 30
0.0
 11
1708.472857143
 21
957.257142857
 31
0.0
  0
ARC
  8
0
  6
CONTINUOUS
 62
     1
 10
1648.472857143
 20
937.257142857
 30
0.0
 40
20.0
 50
80.405931773
 51
279.594068227
  0
ARC
  8
0
  6
CONTINUOUS
 62
     1
 10
1708.472857143
 20
937.257142857
 30
0.0
 40
10.0
 50
279.594068227
 51
80.405931773
  0
CIRCLE
  8
0
  6
CONTINUOUS
 62
     1
 10
1708.472857143
 20
937.257142857
 30
0.0
 40
9.0
  0
CIRCLE
  8
0
  6
CONTINUOUS
 62
     1
 10
1648.472857143
 20
937.257142857
 30
0.0
 40
19.0
  0
CIRCLE
  8
0
  6
CONTINUOUS
 62
     1
 10
1635.372857143
 20
937.257142857
 30
0.0
 40
4.0
  0
CIRCLE
  8
0
  6
CONTINUOUS
 62
     1
 10
1648.472857143
 20
924.157142857
 30
0.0
 40
4.0
  0
CIRCLE
  8
0
  6
CONTINUOUS
 62
     1
 10
1661.572857143
 20
937.257142857
 30
0.0
 40
4.0
  0
CIRCLE
  8
0
  6
CONTINUOUS
 62
     1
 10
1648.472857143
 20
950.357142857
 30
0.0
 40
4.0
  0
CIRCLE
  8
0
  6
CONTINUOUS
 62
     1
 10
1648.472857143
 20
937.257142857
 30
0.0
 40
4.0
  0
LINE
  8
0
  6
CONTINUOUS
 62
     1
 10
1707.043365219
 20
998.704238669
 30
0.0
 11
1680.183068981
 21
952.18084088
 31
0.0
  0
LINE
  8
0
  6
CONTINUOUS
 62
     1
 10
1707.043365219
 20
875.810047045
 30
0.0
 11
1680.183068981
 21
922.333444834
 31
0.0
  0
LINE
  8
0
  6
CONTINUOUS
 62
     2
 10
1809.972857143
 20
1125.257142857
 30
0.0
 11
1806.090571466
 21
1110.768255463
 31
0.0
  0
LINE
  8
0
  6
CONTINUOUS
 62
     2
 10
1809.972857143
 20
1125.257142857
 30
0.0
 11
1813.855142819
 21
1110.768255463
 31
0.0
  0
LINE
  8
0
  6
CONTINUOUS
 62
     2
 10
1701.472857143
 20
1125.257142857
 30
0.0
 11
1818.972857143
 21
1125.257142857
 31
0.0
  0
LINE
  8
0
  6
CONTINUOUS
 62
     2
 10
1818.972857143
 20
1125.257142857
 30
0.0
 11
1865.972857143
 21
1125.257142857
 31
0.0
  0
LINE
  8
0
  6
CONTINUOUS
 62
     2
 10
1856.972857143
 20
1125.257142857
 30
0.0
 11
1853.090571466
 21
1110.768255463
 31
0.0
  0
LINE
  8
0
  6
CONTINUOUS
 62
     2
 10
1856.972857143
 20
1125.257142857
 30
0.0
 11
1860.855142819
 21
1110.768255463
 31
0.0
  0
LINE
  8
0
  6
CONTINUOUS
 62
     2
 10
1809.972857143
 20
937.257142857
 30
0.0
 11
1809.972857143
 21
1125.257142857
 31
0.0
  0
LINE
  8
0
  6
CONTINUOUS
 62
     2
 10
1856.972857143
 20
1125.257142857
 30
0.0
 11
1856.972857143
 21
754.257142857
 31
0.0
  0
TEXT
  8
0
  6
CONTINUOUS
 62
     2
 10
367.872857143
 20
1194.007142857
 30
0.0
 40
21.0
  1
１４８
 50
0.0
 41
0.9
 51
0.0
  7
KANJI21
  0
TEXT
  8
7
  6
CONTINUOUS
 62
     2
 10
198.272857143
 20
1050.857142857
 30
0.0
 40
21.0
  1
手動軸カバー
 50
0.0
 41
0.9
 51
0.0
  7
KANJI21
  0
TEXT
  8
0
  6
CONTINUOUS
 62
     2
 10
733.872857143
 20
1132.182142857
 30
0.0
 40
21.0
  1
ＰＦ３／４
 50
0.0
 41
0.9
 51
0.0
  7
KANJI21
  0
TEXT
  8
7
  6
CONTINUOUS
 62
     2
 10
905.872857143
 20
1120.182142857
 30
0.0
 40
21.0
  1
ブレーキ開放装置
 50
0.0
 41
0.9
 51
0.0
  7
KANJI21
  0
TEXT
  8
7
  6
CONTINUOUS
 62
     2
 10
623.872857143
 20
1194.007142857
 30
0.0
 40
21.0
  1
３７０
 50
0.0
 41
0.9
 51
0.0
  7
KANJI21
  0
TEXT
  8
0
  6
CONTINUOUS
 62
     2
 10
748.472857143
 20
632.257142857
 30
0.0
 40
21.0
  1
ＰＦ１／２
 50
0.0
 41
0.9
 51
0.0
  7
KANJI21
  0
TEXT
  8
0
  6
CONTINUOUS
 62
     2
 10
488.872857143
 20
523.257142857
 30
0.0
 40
21.0
  1
１００
 50
0.0
 41
0.9
 51
0.0
  7
KANJI21
  0
TEXT
  8
0
  6
CONTINUOUS
 62
     2
 10
375.872857143
 20
523.257142857
 30
0.0
 40
21.0
  1
１２５
 50
0.0
 41
0.9
 51
0.0
  7
KANJI21
  0
TEXT
  8
0
  6
CONTINUOUS
 62
     2
 10
425.872857143
 20
484.757142857
 30
0.0
 40
21.0
  1
２２５
 50
0.0
 41
0.9
 51
0.0
  7
KANJI21
  0
TEXT
  8
0
  6
CONTINUOUS
 62
     2
 10
838.772857143
 20
484.757142857
 30
0.0
 40
21.0
  1
ｍｉｎ．Ｌ
 50
0.0
 41
0.9
 51
0.0
  7
KANJI21
  0
TEXT
  8
0
  6
CONTINUOUS
 62
     2
 10
794.072857143
 20
523.257142857
 30
0.0
 40
21.0
  1
Ｃ
 50
0.0
 41
0.9
 51
0.0
  7
KANJI21
  0
TEXT
  8
0
  6
CONTINUOUS
 62
     2
 10
717.072857143
 20
446.757142857
 30
0.0
 40
21.0
  1
ｍｉｎ．ＡＬ
 50
0.0
 41
0.9
 51
0.0
  7
KANJI21
  0
TEXT
  8
0
  6
CONTINUOUS
 62
     2
 10
622.472857143
 20
541.207142857
 30
0.0
 40
21.0
  1
推力リミッタ
 50
0.0
 41
0.9
 51
0.0
  7
KANJI21
  0
TEXT
  8
0
  6
CONTINUOUS
 62
     2
 10
1280.972857143
 20
737.457142857
 30
0.0
 40
21.0
  1
７５
 50
90.0
 41
0.9
 51
0.0
  7
KANJI21
  0
TEXT
  8
0
  6
CONTINUOUS
 62
     2
 10
1147.172857143
 20
523.257142857
 30
0.0
 40
21.0
  1
７０
 50
0.0
 41
0.9
 51
0.0
  7
KANJI21
  0
TEXT
  8
0
  6
CONTINUOUS
 62
     2
 10
1199.672857143
 20
446.757142857
 30
0.0
 40
21.0
  1
３５
 50
0.0
 41
0.9
 51
0.0
  7
KANJI21
  0
TEXT
  8
2
  6
CONTINUOUS
 62
     2
 10
764.472857143
 20
713.157142857
 30
0.0
 40
21.0
  1
φ１１４
 50
90.0
 41
0.9
 51
0.0
  7
KANJI21
  0
TEXT
  8
0
  6
CONTINUOUS
 62
     2
 10
1280.472857143
 20
994.157142857
 30
0.0
 40
21.0
  1
４０
 50
90.0
 41
0.9
 51
0.0
  7
KANJI21
  0
TEXT
  8
0
  6
CONTINUOUS
 62
     2
 10
1320.972857143
 20
994.157142857
 30
0.0
 40
21.0
  1
８０
 50
90.0
 41
0.9
 51
0.0
  7
KANJI21
  0
TEXT
  8
0
  6
CONTINUOUS
 62
     2
 10
1291.472857143
 20
888.457142857
 30
0.0
 40
21.0
  1
ｄ９
 50
0.0
 41
0.9
 51
0.0
  7
KANJI21
  0
TEXT
  8
0
  6
CONTINUOUS
 62
     2
 10
1236.472857143
 20
916.957142857
 30
0.0
 40
21.0
  1
φ３０Ｈ１０
 50
0.0
 41
0.9
 51
0.0
  7
KANJI21
  0
TEXT
  8
0
  6
CONTINUOUS
 62
     2
 10
1157.172857143
 20
880.957142857
 30
0.0
 40
21.0
  1
５０
 50
0.0
 41
0.9
 51
0.0
  7
KANJI21
  0
TEXT
  8
0
  6
CONTINUOUS
 62
     2
 10
1064.972857143
 20
976.757142857
 30
0.0
 40
21.0
  1
φ１５０
 50
90.0
 41
0.9
 51
0.0
  7
KANJI21
  0
TEXT
  8
2
  6
CONTINUOUS
 62
     2
 10
901.247856294
 20
898.557142857
 30
0.0
 40
21.0
  1
φ２０５
 50
90.0
 41
0.9
 51
0.0
  7
KANJI21
  0
TEXT
  8
0
  6
CONTINUOUS
 62
     2
 10
1803.972857143
 20
689.957142857
 30
0.0
 40
21.0
  1
９５
 50
90.0
 41
0.9
 51
0.0
  7
KANJI21
  0
TEXT
  8
0
  6
CONTINUOUS
 62
     2
 10
1803.972857143
 20
819.882142857
 30
0.0
 40
21.0
  1
１８３
 50
90.0
 41
0.9
 51
0.0
  7
KANJI21
  0
TEXT
  8
0
  6
CONTINUOUS
 62
     2
 10
1850.972857143
 20
668.257142857
 30
0.0
 40
21.0
  1
１２１
 50
90.0
 41
0.9
 51
0.0
  7
KANJI21
  0
TEXT
  8
0
  6
CONTINUOUS
 62
     2
 10
1436.472857143
 20
791.757142857
 30
0.0
 40
21.0
  1
φ３０Ｈ１０深３５
 50
90.0
 41
0.9
 51
0.0
  7
KANJI21
  0
TEXT
  8
0
  6
CONTINUOUS
 62
     2
 10
1622.972857143
 20
529.757142857
 30
0.0
 40
21.0
  1
２２０
 50
0.0
 41
0.9
 51
0.0
  7
KANJI21
  0
TEXT
  8
0
  6
CONTINUOUS
 62
     2
 10
1622.972857143
 20
572.757142857
 30
0.0
 40
21.0
  1
１９０
 50
0.0
 41
0.9
 51
0.0
  7
KANJI21
  0
TEXT
  8
0
  6
CONTINUOUS
 62
     2
 10
1803.972857143
 20
993.957142857
 30
0.0
 40
21.0
  1
１８８
 50
90.0
 41
0.9
 51
0.0
  7
KANJI21
  0
TEXT
  8
0
  6
CONTINUOUS
 62
     2
 10
1850.972857143
 20
902.832142857
 30
0.0
 40
21.0
  1
３７１
 50
90.0
 41
0.9
 51
0.0
  7
KANJI21
  0
LINE
  8
0
  6
CONTINUOUS
 62
     2
 10
1442.472857143
 20
716.757142857
 30
0.0
 11
1442.472857143
 21
964.087142857
 31
0.0
  0
LINE
  8
0
  6
CONTINUOUS
 62
     2
 10
1128.972857143
 20
707.767142857
 30
0.0
 11
1128.972857143
 21
508.257142857
 31
0.0
  0
TEXT
  8
0
  6
CONTINUOUS
 62
     2
 10
1041.572857143
 20
523.257142857
 30
-3.5
 40
21.0
  1
ｍｉｎ．Ｐ
 50
0.0
 41
0.9
 51
0.0
  7
KANJI22
  0
LINE
  8
0
  6
LTYPE2
 62
     2
 10
740.284374417
 20
754.257142857
 30
0.0
 11
326.972857143
 21
754.257142857
 31
0.0
  0
LINE
  8
0
  6
LTYPE2
 62
     2
 10
1247.372857143
 20
754.257142857
 30
0.0
 11
771.544374417
 21
754.257142857
 31
0.0
  0
LINE
  8
0
  6
CONTINUOUS
 62
     2
 10
838.5
 20
730.79
 30
0.0
 11
842.60643638
 21
713.778616157
 31
0.0
  0
LINE
  8
0
  6
CONTINUOUS
 62
     2
 10
838.5
 20
730.79
 30
0.0
 11
850.561970146
 21
718.110927628
 31
0.0
  0
LINE
  8
0
  6
CONTINUOUS
 62
     2
 10
838.5
 20
730.79
 30
0.0
 11
890.86
 21
634.64
 31
0.0
  0
LINE
  8
0
  6
CONTINUOUS
 62
     2
 10
890.86
 20
634.64
 30
0.0
 11
947.56
 21
634.64
 31
0.0
  0
TEXT
  8
0
  6
CONTINUOUS
 62
     3
 10
890.86
 20
641.64
 30
0.0
 40
21.0
  1
給脂口
 50
0.0
 41
0.9
 51
0.0
  7
KANJI21
  0
LINE
  8
0
  6
CONTINUOUS
 62
     6
 10
422.487662562
 20
1910.095719798
 30
0.0
 11
151.768754258
 21
1910.095719798
 31
0.0
  0
LINE
  8
0
  6
CONTINUOUS
 62
     3
 10
422.487662562
 20
1878.056136465
 30
0.0
 11
151.768754258
 21
1878.056136465
 31
0.0
  0
LINE
  8
0
  6
CONTINUOUS
 62
     6
 10
422.487662562
 20
1878.056136465
 30
0.0
 11
151.768754258
 21
1878.056136465
 31
0.0
  0
TEXT
  8
0
  6
CONTINUOUS
 62
     6
 10
452.334266
 20
1907.123812516
 30
1.4379365
 40
15.379
  1
電気定格　　　
 50
0.0
 41
0.85
 51
0.0
  7
KANJI23
  0
TEXT
  8
0
  6
CONTINUOUS
 62
     6
 10
156.329103403
 20
1913.826914553
 30
1.24215
 40
13.6045
  1
ＬＳ０１　　　：推力リミッタ（前進時過負荷用）
 50
0.0
 41
0.822608696
 51
0.0
  7
KANJI24
  0
TEXT
  8
0
  6
CONTINUOUS
 62
     6
 10
156.329103403
 20
1881.787331219
 30
1.24215
 40
13.6045
  1
ＬＳ０２　　　：推力リミッタ（後進時過負荷用）
 50
0.0
 41
0.822608696
 51
0.0
  7
KANJI24
  0
TEXT
  8
0
  6
CONTINUOUS
 62
     6
 10
467.269334286
 20
1871.454785032
 30
0.0
 40
13.8411
  1
ＤＣ１２５Ｖ　０．６Ａ　，ＤＣ２５０Ｖ　０．３Ａ　
 50
0.0
 41
0.726495726
 51
0.0
  7
KANJI25
  0
LINE
  8
0
  6
LTYPE2
 62
     6
 10
770.61
 20
1942.123333333
 30
0.0
 11
130.81
 21
1942.123333333
 31
0.0
  0
TEXT
  8
0
  6
CONTINUOUS
 62
     6
 10
461.136654208
 20
1927.845347147
 30
0.0
 40
52.5
  1
｝
 50
0.0
 41
0.538166667
 51
0.0
  7
KANJI26
  0
TEXT
  8
0
  6
CONTINUOUS
 62
     6
 10
379.324923463
 20
1660.984458592
 30
0.0
 40
20.697485939
  1
端子台　接続図
 50
0.0
 41
0.880962996
 51
0.0
  7
KANJI27
  0
LINE
  8
0
  6
LTYPE2
 62
     6
 10
770.61
 20
1639.956666667
 30
0.0
 11
770.61
 21
1942.123333333
 31
0.0
  0
LINE
  8
0
  6
LTYPE2
 62
     6
 10
130.81
 20
1639.956666667
 30
0.0
 11
770.61
 21
1639.956666667
 31
0.0
  0
LINE
  8
0
  6
LTYPE2
 62
     6
 10
130.81
 20
1942.123333333
 30
0.0
 11
130.81
 21
1639.956666667
 31
0.0
  0
LINE
  8
0
  6
CONTINUOUS
 62
     2
 10
420.116935709
 20
1720.489475531
 30
0.0
 11
420.116935709
 21
1693.914014316
 31
0.0
  0
LINE
  8
0
  6
CONTINUOUS
 62
     2
 10
451.121640459
 20
1720.489475531
 30
0.0
 11
451.121640459
 21
1693.914014316
 31
0.0
  0
LINE
  8
0
  6
CONTINUOUS
 62
     2
 10
482.12634521
 20
1720.489475531
 30
0.0
 11
482.12634521
 21
1693.914014316
 31
0.0
  0
LINE
  8
0
  6
CONTINUOUS
 62
     2
 10
513.131049961
 20
1720.489475531
 30
0.0
 11
513.131049961
 21
1693.914014316
 31
0.0
  0
CIRCLE
  8
0
  6
CONTINUOUS
 62
     6
 10
503.891647945
 20
1747.882575103
 30
0.0
 40
4.783583019
  0
LINE
  8
0
  6
CONTINUOUS
 62
     6
 10
499.108064926
 20
1747.882575103
 30
0.0
 11
497.628697585
 21
1747.882575103
 31
0.0
  0
LINE
  8
0
  6
CONTINUOUS
 62
     6
 10
528.337698672
 20
1763.850323199
 30
0.0
 11
523.770817779
 21
1737.792758328
 31
0.0
  0
LINE
  8
0
  6
CONTINUOUS
 62
     6
 10
522.823649607
 20
1764.769331377
 30
0.0
 11
518.256409577
 21
1738.711826362
 31
0.0
  0
LINE
  8
0
  6
CONTINUOUS
 62
     6
 10
523.770817779
 20
1737.792758328
 30
0.0
 11
518.256409577
 21
1738.711826362
 31
0.0
  0
CIRCLE
  8
0
  6
CONTINUOUS
 62
     6
 10
528.633402336
 20
1736.836041724
 30
0.0
 40
4.783583019
  0
LINE
  8
0
  6
CONTINUOUS
 62
     6
 10
528.633402336
 20
1732.052458706
 30
0.0
 11
528.633402336
 21
1720.489475531
 31
0.0
  0
LINE
  8
0
  6
CONTINUOUS
 62
     6
 10
497.628697585
 20
1747.882575103
 30
0.0
 11
497.628697585
 21
1720.489475531
 31
0.0
  0
LINE
  8
0
  6
CONTINUOUS
 62
     6
 10
466.623992835
 20
1720.489475531
 30
0.0
 11
466.623992835
 21
1783.145554589
 31
0.0
  0
LINE
  8
0
  6
CONTINUOUS
 62
     6
 10
373.905582247
 20
1763.850323199
 30
0.0
 11
378.47246314
 21
1737.792758328
 31
0.0
  0
LINE
  8
0
  6
CONTINUOUS
 62
     6
 10
379.419631312
 20
1764.769331377
 30
0.0
 11
383.986871342
 21
1738.711826362
 31
0.0
  0
LINE
  8
0
  6
CONTINUOUS
 62
     6
 10
378.47246314
 20
1737.792758328
 30
0.0
 11
383.986871342
 21
1738.711826362
 31
0.0
  0
CIRCLE
  8
0
  6
CONTINUOUS
 62
     6
 10
373.609878583
 20
1736.836041724
 30
0.0
 40
4.783583019
  0
CIRCLE
  8
0
  6
CONTINUOUS
 62
     6
 10
398.351632974
 20
1747.882575103
 30
0.0
 40
4.783583019
  0
LINE
  8
0
  6
CONTINUOUS
 62
     6
 10
403.135215992
 20
1747.882575103
 30
0.0
 11
404.614583333
 21
1747.882575103
 31
0.0
  0
LINE
  8
0
  6
CONTINUOUS
 62
     6
 10
373.609878583
 20
1732.052458706
 30
0.0
 11
373.609878583
 21
1720.489475531
 31
0.0
  0
LINE
  8
0
  6
CONTINUOUS
 62
     6
 10
404.614583333
 20
1747.882575103
 30
0.0
 11
404.614583333
 21
1720.489475531
 31
0.0
  0
LINE
  8
0
  6
CONTINUOUS
 62
     6
 10
435.619288084
 20
1720.489475531
 30
0.0
 11
435.619288084
 21
1783.145554589
 31
0.0
  0
LINE
  8
0
  6
CONTINUOUS
 62
     2
 10
544.135754711
 20
1720.489475531
 30
0.0
 11
544.135754711
 21
1693.914014316
 31
0.0
  0
LINE
  8
0
  6
CONTINUOUS
 62
     2
 10
358.107526207
 20
1720.489475531
 30
0.0
 11
358.107526207
 21
1693.914014316
 31
0.0
  0
LINE
  8
0
  6
CONTINUOUS
 62
     2
 10
389.112230958
 20
1720.489475531
 30
0.0
 11
389.112230958
 21
1693.914014316
 31
0.0
  0
LINE
  8
0
  6
CONTINUOUS
 62
     6
 10
528.633402336
 20
1783.145554589
 30
0.0
 11
466.623992835
 21
1783.145554589
 31
0.0
  0
CIRCLE
  8
0
  6
CONTINUOUS
 62
     6
 10
528.633402336
 20
1768.744312156
 30
0.0
 40
4.783583019
  0
LINE
  8
0
  6
CONTINUOUS
 62
     6
 10
528.337698672
 20
1763.850323199
 30
0.0
 11
522.823649607
 21
1764.769331377
 31
0.0
  0
LINE
  8
0
  6
CONTINUOUS
 62
     6
 10
528.633402336
 20
1773.527895175
 30
0.0
 11
528.633402336
 21
1783.145554589
 31
0.0
  0
CIRCLE
  8
0
  6
CONTINUOUS
 62
     6
 10
373.609878583
 20
1768.744312156
 30
0.0
 40
4.783583019
  0
LINE
  8
0
  6
CONTINUOUS
 62
     6
 10
373.905582247
 20
1763.850323199
 30
0.0
 11
379.419631312
 21
1764.769331377
 31
0.0
  0
LINE
  8
0
  6
CONTINUOUS
 62
     6
 10
373.609878583
 20
1773.527895175
 30
0.0
 11
373.609878583
 21
1783.145554589
 31
0.0
  0
LINE
  8
0
  6
CONTINUOUS
 62
     6
 10
435.619288084
 20
1783.145554589
 30
0.0
 11
373.609878583
 21
1783.145554589
 31
0.0
  0
TEXT
  8
0
  6
CONTINUOUS
 62
     6
 10
379.166751066
 20
1788.417885485
 30
0.9555
 40
13.65
  1
ＬＳ０１
 50
0.0
 41
0.8
 51
0.0
  7
KANJI28
  0
TEXT
  8
0
  6
CONTINUOUS
 62
     6
 10
475.556965318
 20
1788.417885485
 30
0.9555
 40
13.65
  1
ＬＳ０２
 50
0.0
 41
0.8
 51
0.0
  7
KANJI28
  0
TEXT
  8
0
  6
CONTINUOUS
 62
     3
 10
178.280238654
 20
1698.343257852
 30
0.0
 40
17.5
  1
　　　　　　　　　　　　　　　　　　１　　２　　　３　　　４　　　５　　　６
 50
0.0
 41
0.911
 51
0.0
  7
KANJI29
  0
LINE
  8
0
  6
CONTINUOUS
 62
     2
 10
358.107526207
 20
1720.489475531
 30
0.0
 11
544.135754711
 21
1720.489475531
 31
0.0
  0
LINE
  8
0
  6
CONTINUOUS
 62
     2
 10
358.107526207
 20
1693.914014316
 30
0.0
 11
544.135754711
 21
1693.914014316
 31
0.0
  0
TEXT
  8
0
  6
CONTINUOUS
 62
     6
 10
348.408256796
 20
1823.151125258
 30
0.0
 40
20.697485939
  1
推力リミッタ端子台配列
 50
0.0
 41
0.880962996
 51
0.0
  7
KANJI27
  0
TEXT
  8
0
  6
CONTINUOUS
 62
     6
 10
467.269334286
 20
1889.823920413
 30
0.0
 40
13.8411
  1
ＡＣ１００Ｖ　１２５Ｖ　２５０Ｖ　－１０Ａ
 50
0.0
 41
0.726495726
 51
0.0
  7
KANJI25
  0
TEXT
  8
0
  6
CONTINUOUS
 62
     6
 10
144.484567657
 20
1592.456024289
 30
1.82231734
 40
18.223173404
  1
クイックブレーキモータ
 50
0.0
 41
0.66671875
 51
0.0
  7
KANJI30
  0
CIRCLE
  8
0
  6
CONTINUOUS
 62
     6
 10
188.926
 20
1530.488666667
 30
0.0
 40
21.6
  0
TEXT
  8
0
  6
CONTINUOUS
 62
     6
 10
179.854
 20
1520.120666667
 30
2.16
 40
21.6
  1
Ｍ
 50
0.0
 41
0.9
 51
0.0
  7
KANJI31
  0
LINE
  8
0
  6
CONTINUOUS
 62
     6
 10
160.414
 20
1500.248666667
 30
0.0
 11
173.806
 21
1515.800666667
 31
0.0
  0
LINE
  8
0
  6
CONTINUOUS
 62
     6
 10
160.414
 20
1560.728666667
 30
0.0
 11
173.806
 21
1545.176666667
 31
0.0
  0
CIRCLE
  8
0
  6
CONTINUOUS
 62
     6
 10
135.79
 20
1560.728666667
 30
0.0
 40
5.184
  0
LINE
  8
0
  6
CONTINUOUS
 62
     6
 10
129.834103884
 20
1554.772770551
 30
0.0
 11
141.930103884
 21
1566.868770551
 31
0.0
  0
CIRCLE
  8
0
  6
CONTINUOUS
 62
     6
 10
135.79
 20
1530.488666667
 30
0.0
 40
5.184
  0
LINE
  8
0
  6
CONTINUOUS
 62
     6
 10
129.834103884
 20
1524.532770551
 30
0.0
 11
141.930103884
 21
1536.628770551
 31
0.0
  0
CIRCLE
  8
0
  6
CONTINUOUS
 62
     6
 10
135.79
 20
1500.248666667
 30
0.0
 40
5.184
  0
LINE
  8
0
  6
CONTINUOUS
 62
     6
 10
129.834103884
 20
1494.292770551
 30
0.0
 11
141.930103884
 21
1506.388770551
 31
0.0
  0
LINE
  8
0
  6
CONTINUOUS
 62
     6
 10
160.414
 20
1560.728666667
 30
0.0
 11
140.974
 21
1560.728666667
 31
0.0
  0
LINE
  8
0
  6
CONTINUOUS
 62
     6
 10
167.758
 20
1530.488666667
 30
0.0
 11
140.974
 21
1530.488666667
 31
0.0
  0
LINE
  8
0
  6
CONTINUOUS
 62
     6
 10
160.414
 20
1500.248666667
 30
0.0
 11
140.974
 21
1500.248666667
 31
0.0
  0
LINE
  8
0
  6
LTYPE2
 62
     6
 10
135.79
 20
1584.056666667
 30
0.0
 11
135.79
 21
1564.616666667
 31
0.0
  0
LINE
  8
0
  6
LTYPE2
 62
     6
 10
135.79
 20
1555.976666667
 30
0.0
 11
135.79
 21
1534.376666667
 31
0.0
  0
LINE
  8
0
  6
LTYPE2
 62
     6
 10
135.79
 20
1525.736666667
 30
0.0
 11
135.79
 21
1504.568666667
 31
0.0
  0
TEXT
  8
0
  6
CONTINUOUS
 62
     6
 10
115.006
 20
1568.072666667
 30
1.296
 40
12.96
  1
Ｕ
 50
0.0
 41
0.9
 51
0.0
  7
KANJI32
  0
TEXT
  8
0
  6
CONTINUOUS
 62
     6
 10
116.302
 20
1537.400666667
 30
1.296
 40
12.96
  1
Ｖ
 50
0.0
 41
0.9
 51
0.0
  7
KANJI32
  0
TEXT
  8
0
  6
CONTINUOUS
 62
     6
 10
117.598
 20
1506.728666667
 30
1.296
 40
12.96
  1
Ｗ
 50
0.0
 41
0.9
 51
0.0
  7
KANJI32
  0
LINE
  8
0
  6
LTYPE2
 62
     6
 10
290.35
 20
1584.056666667
 30
0.0
 11
135.79
 21
1584.056666667
 31
0.0
  0
TEXT
  8
0
  6
CONTINUOUS
 62
     6
 10
220.03
 20
1520.703866667
 30
1.728
 40
17.28
  1
Ｂ
 50
0.0
 41
0.9
 51
0.0
  7
KANJI33
  0
CIRCLE
  8
0
  6
CONTINUOUS
 62
     6
 10
227.806
 20
1530.488666667
 30
0.0
 40
17.28
  0
LINE
  8
0
  6
CONTINUOUS
 62
     6
 10
255.406
 20
1500.075866667
 30
0.0
 11
236.42698443
 21
1515.512785142
 31
0.0
  0
LINE
  8
0
  6
CONTINUOUS
 62
     6
 10
218.821325074
 20
1515.728110563
 30
0.0
 11
199.726
 21
1500.075866667
 31
0.0
  0
CIRCLE
  8
0
  6
CONTINUOUS
 62
     6
 10
199.726
 20
1451.043866667
 30
0.0
 40
5.184
  0
LINE
  8
0
  6
CONTINUOUS
 62
     6
 10
193.770103884
 20
1445.087970551
 30
0.0
 11
205.866103884
 21
1457.183970551
 31
0.0
  0
CIRCLE
  8
0
  6
CONTINUOUS
 62
     6
 10
227.566
 20
1451.043866667
 30
0.0
 40
5.184
  0
LINE
  8
0
  6
CONTINUOUS
 62
     6
 10
221.610103884
 20
1445.087970551
 30
0.0
 11
233.706103884
 21
1457.183970551
 31
0.0
  0
LINE
  8
0
  6
LTYPE2
 62
     6
 10
204.91
 20
1451.043866667
 30
0.0
 11
222.286
 21
1451.043866667
 31
0.0
  0
CIRCLE
  8
0
  6
CONTINUOUS
 62
     6
 10
255.406
 20
1451.043866667
 30
0.0
 40
5.184
  0
LINE
  8
0
  6
CONTINUOUS
 62
     6
 10
249.450103884
 20
1445.087970551
 30
0.0
 11
261.546103884
 21
1457.183970551
 31
0.0
  0
LINE
  8
0
  6
LTYPE2
 62
     6
 10
232.366
 20
1451.043866667
 30
0.0
 11
250.606
 21
1451.043866667
 31
0.0
  0
TEXT
  8
0
  6
CONTINUOUS
 62
     6
 10
212.83
 20
1453.875866667
 30
1.296
 40
12.96
  1
ｖ
 50
0.0
 41
0.9
 51
0.0
  7
KANJI32
  0
TEXT
  8
0
  6
CONTINUOUS
 62
     6
 10
240.67
 20
1453.875866667
 30
1.296
 40
12.96
  1
ｗ
 50
0.0
 41
0.9
 51
0.0
  7
KANJI32
  0
TEXT
  8
0
  6
CONTINUOUS
 62
     6
 10
185.806
 20
1454.739866667
 30
1.296
 40
12.96
  1
ｕ
 50
0.0
 41
0.9
 51
0.0
  7
KANJI32
  0
LINE
  8
0
  6
CONTINUOUS
 62
     6
 10
199.726
 20
1456.227866667
 30
0.0
 11
199.726
 21
1500.075866667
 31
0.0
  0
LINE
  8
0
  6
CONTINUOUS
 62
     6
 10
227.566
 20
1456.227866667
 30
0.0
 11
227.566
 21
1513.496666667
 31
0.0
  0
LINE
  8
0
  6
CONTINUOUS
 62
     6
 10
255.406
 20
1456.227866667
 30
0.0
 11
255.406
 21
1500.075866667
 31
0.0
  0
LINE
  8
0
  6
LTYPE2
 62
     6
 10
261.166
 20
1451.043866667
 30
0.0
 11
290.35
 21
1451.043866667
 31
0.0
  0
LINE
  8
0
  6
LTYPE2
 62
     6
 10
290.35
 20
1451.043866667
 30
0.0
 11
290.35
 21
1584.056666667
 31
0.0
  0
LINE
  8
0
  6
LTYPE2
 62
     6
 10
135.79
 20
1451.043866667
 30
0.0
 11
194.542
 21
1451.043866667
 31
0.0
  0
LINE
  8
0
  6
LTYPE2
 62
     6
 10
135.79
 20
1495.064666667
 30
0.0
 11
135.79
 21
1451.043866667
 31
0.0
  0
TEXT
  8
0
  6
CONTINUOUS
 62
     2
 10
152.204472037
 20
1416.01135244
 30
0.0
 40
18.72
  1
モーター結線図
 50
0.0
 41
0.925
 51
0.0
  7
KANJI34
  0
TEXT
  8
0
  6
CONTINUOUS
 62
     2
 10
212.22
 20
37.54
 30
0.0
 40
21.0
  1
ＦＤ　Ｎｏ．ＭＣ２３０
 50
0.0
 41
0.9
 51
0.0
  7
KANJI16
  0
TEXT
  8
0
  6
CONTINUOUS
 62
     2
 10
1993.16
 20
739.29
 30
7.2
 40
25.2
  1
１。運転時は必ずピストンロッドの回転防止を行って下さい。
 50
0.0
 41
0.857142857
 51
0.0
  7
KANJI35
  0
TEXT
  8
0
  6
CONTINUOUS
 62
     2
 10
1993.16
 20
691.69
 30
7.182
 40
25.2
  1
２。モートル：全閉自冷かご形３０分定格
 50
0.0
 41
0.857222222
 51
0.0
  7
KANJI36
  0
TEXT
  8
0
  6
CONTINUOUS
 62
     2
 10
1992.6932281
 20
644.0900042
 30
7.182
 40
25.2
  1
３。呼称ストロークは、機械的ストロークです。
 50
0.0
 41
0.857222222
 51
0.0
  7
KANJI36
  0
TEXT
  8
0
  6
CONTINUOUS
 62
     2
 10
1992.6932281
 20
603.8400042
 30
7.182
 40
25.2
  1
　　必ず、常用はストローク両端に余裕を取って下さい。
 50
0.0
 41
0.857222222
 51
0.0
  7
KANJI36
  0
LINE
  8
0
  6
CONTINUOUS
 62
     2
 10
2071.56
 20
787.59
 30
0.0
 11
2242.36
 21
787.59
 31
0.0
  0
TEXT
  8
0
  6
CONTINUOUS
 62
     2
 10
2091.16
 20
795.29
 30
14.0
 40
28.0
  1
特記事項
 50
0.0
 41
0.9
 51
0.0
  7
KANJI37
  0
TEXT
  8
0
  6
CONTINUOUS
 62
     2
 10
1993.7572281
 20
557.5840042
 30
7.182
 40
25.2
  1
　　前後の推奨余裕寸法は、各々１５ｍｍです。
 50
0.0
 41
0.857222222
 51
0.0
  7
KANJI36
  0
LINE
  8
0
  6
CONTINUOUS
 62
     1
 10
1813.0578
 20
1942.48972
 30
0.0
 11
1813.0578
 21
1812.49024
 31
0.0
  0
LINE
  8
0
  6
CONTINUOUS
 62
     2
 10
1738.0581
 20
1942.48972
 30
0.0
 11
1738.0581
 21
1812.49024
 31
0.0
  0
LINE
  8
0
  6
CONTINUOUS
 62
     2
 10
1663.0584
 20
1942.48972
 30
0.0
 11
1663.0584
 21
1812.49024
 31
0.0
  0
LINE
  8
0
  6
CONTINUOUS
 62
     1
 10
1563.0588
 20
1942.48972
 30
0.0
 11
1563.0588
 21
1812.49024
 31
0.0
  0
LINE
  8
0
  6
CONTINUOUS
 62
     1
 10
1563.0588
 20
1942.48972
 30
0.0
 11
1813.0578
 21
1942.48972
 31
0.0
  0
LINE
  8
0
  6
CONTINUOUS
 62
     1
 10
1563.0588
 20
1902.48988
 30
0.0
 11
1813.0578
 21
1902.48988
 31
0.0
  0
LINE
  8
0
  6
CONTINUOUS
 62
     2
 10
1563.0588
 20
1872.49
 30
0.0
 11
1813.0578
 21
1872.49
 31
0.0
  0
LINE
  8
0
  6
CONTINUOUS
 62
     2
 10
1563.0588
 20
1842.49012
 30
0.0
 11
1813.0578
 21
1842.49012
 31
0.0
  0
LINE
  8
0
  6
CONTINUOUS
 62
     1
 10
1563.0588
 20
1812.49024
 30
0.0
 11
1813.0578
 21
1812.49024
 31
0.0
  0
TEXT
  8
0
  6
CONTINUOUS
 62
     2
 10
1748.05806
 20
1924.98979
 30
1.499994
 40
14.99994
  1
起動電流
 50
0.0
 41
0.9
 51
0.0
  7
KANJI38
  0
TEXT
  8
0
  6
CONTINUOUS
 62
     2
 10
1748.05806
 20
1907.48986
 30
1.499994
 40
14.99994
  1
　　　Ａ
 50
0.0
 41
0.9
 51
0.0
  7
KANJI38
  0
TEXT
  8
0
  6
CONTINUOUS
 62
     2
 10
1673.05836
 20
1924.98979
 30
1.499994
 40
14.99994
  1
定格電流
 50
0.0
 41
0.9
 51
0.0
  7
KANJI38
  0
TEXT
  8
0
  6
CONTINUOUS
 62
     2
 10
1673.05836
 20
1907.48986
 30
1.499994
 40
14.99994
  1
　　　Ａ
 50
0.0
 41
0.9
 51
0.0
  7
KANJI38
  0
TEXT
  8
0
  6
CONTINUOUS
 62
     2
 10
1571.558766
 20
1849.99009
 30
1.499994
 40
14.99994
  1
２００／６０
 50
0.0
 41
0.9
 51
0.0
  7
KANJI38
  0
TEXT
  8
0
  6
CONTINUOUS
 62
     2
 10
1571.558766
 20
1924.98979
 30
1.499994
 40
14.99994
  1
電圧／周波数
 50
0.0
 41
0.9
 51
0.0
  7
KANJI38
  0
TEXT
  8
0
  6
CONTINUOUS
 62
     2
 10
1571.558766
 20
1907.48986
 30
1.499994
 40
14.99994
  1
　Ｖ／Ｈｚ
 50
0.0
 41
0.9
 51
0.0
  7
KANJI38
  0
TEXT
  8
0
  6
CONTINUOUS
 62
     2
 10
1571.558766
 20
1879.98997
 30
1.499994
 40
14.99994
  1
２００／５０
 50
0.0
 41
0.9
 51
0.0
  7
KANJI38
  0
TEXT
  8
0
  6
CONTINUOUS
 62
     2
 10
1571.558766
 20
1819.99021
 30
1.499994
 40
14.99994
  1
２２０／６０
 50
0.0
 41
0.9
 51
0.0
  7
KANJI38
  0
LINE
  8
0
  6
CONTINUOUS
 62
     1
 10
1513.059
 20
1942.48972
 30
0.0
 11
1513.059
 21
1812.49024
 31
0.0
  0
LINE
  8
0
  6
CONTINUOUS
 62
     2
 10
1438.0593
 20
1942.48972
 30
0.0
 11
1438.0593
 21
1812.49024
 31
0.0
  0
LINE
  8
0
  6
CONTINUOUS
 62
     2
 10
1363.0596
 20
1942.48972
 30
0.0
 11
1363.0596
 21
1812.49024
 31
0.0
  0
LINE
  8
0
  6
CONTINUOUS
 62
     1
 10
1263.06
 20
1942.48972
 30
0.0
 11
1513.059
 21
1942.48972
 31
0.0
  0
LINE
  8
0
  6
CONTINUOUS
 62
     1
 10
1263.06
 20
1902.48988
 30
0.0
 11
1513.059
 21
1902.48988
 31
0.0
  0
LINE
  8
0
  6
CONTINUOUS
 62
     2
 10
1263.06
 20
1872.49
 30
0.0
 11
1513.059
 21
1872.49
 31
0.0
  0
LINE
  8
0
  6
CONTINUOUS
 62
     2
 10
1263.06
 20
1842.49012
 30
0.0
 11
1513.059
 21
1842.49012
 31
0.0
  0
LINE
  8
0
  6
CONTINUOUS
 62
     1
 10
1263.06
 20
1812.49024
 30
0.0
 11
1513.059
 21
1812.49024
 31
0.0
  0
TEXT
  8
0
  6
CONTINUOUS
 62
     2
 10
1448.05926
 20
1924.98979
 30
1.499994
 40
14.99994
  1
起動電流
 50
0.0
 41
0.9
 51
0.0
  7
KANJI38
  0
TEXT
  8
0
  6
CONTINUOUS
 62
     2
 10
1448.05926
 20
1907.48986
 30
1.499994
 40
14.99994
  1
　　　Ａ
 50
0.0
 41
0.9
 51
0.0
  7
KANJI38
  0
TEXT
  8
0
  6
CONTINUOUS
 62
     2
 10
1373.05956
 20
1924.98979
 30
1.499994
 40
14.99994
  1
定格電流
 50
0.0
 41
0.9
 51
0.0
  7
KANJI38
  0
TEXT
  8
0
  6
CONTINUOUS
 62
     2
 10
1373.05956
 20
1907.48986
 30
1.499994
 40
14.99994
  1
　　　Ａ
 50
0.0
 41
0.9
 51
0.0
  7
KANJI38
  0
TEXT
  8
0
  6
CONTINUOUS
 62
     2
 10
1271.559966
 20
1924.98979
 30
1.499994
 40
14.99994
  1
電圧／周波数
 50
0.0
 41
0.9
 51
0.0
  7
KANJI38
  0
TEXT
  8
0
  6
CONTINUOUS
 62
     2
 10
1271.559966
 20
1907.48986
 30
1.499994
 40
14.99994
  1
　Ｖ／Ｈｚ
 50
0.0
 41
0.9
 51
0.0
  7
KANJI38
  0
TEXT
  8
0
  6
CONTINUOUS
 62
     2
 10
1271.559966
 20
1879.98997
 30
1.499994
 40
14.99994
  1
４００／５０
 50
0.0
 41
0.9
 51
0.0
  7
KANJI38
  0
TEXT
  8
0
  6
CONTINUOUS
 62
     2
 10
1271.559966
 20
1849.99009
 30
1.499994
 40
14.99994
  1
４００／６０
 50
0.0
 41
0.9
 51
0.0
  7
KANJI38
  0
TEXT
  8
0
  6
CONTINUOUS
 62
     2
 10
1271.559966
 20
1819.99021
 30
1.499994
 40
14.99994
  1
４４０／６０
 50
0.0
 41
0.9
 51
0.0
  7
KANJI38
  0
TEXT
  8
0
  6
CONTINUOUS
 62
     2
 10
1373.05956
 20
1879.98997
 30
1.499994
 40
14.99994
  1
　　３．４
 50
0.0
 41
0.9
 51
0.0
  7
KANJI38
  0
TEXT
  8
0
  6
CONTINUOUS
 62
     2
 10
1373.05956
 20
1819.99021
 30
1.499994
 40
14.99994
  1
　　３．０
 50
0.0
 41
0.9
 51
0.0
  7
KANJI38
  0
TEXT
  8
0
  6
CONTINUOUS
 62
     2
 10
1673.05836
 20
1879.98997
 30
1.499994
 40
14.99994
  1
　　６．８
 50
0.0
 41
0.9
 51
0.0
  7
KANJI38
  0
TEXT
  8
0
  6
CONTINUOUS
 62
     2
 10
1673.05836
 20
1819.99021
 30
1.499994
 40
14.99994
  1
　　６．０
 50
0.0
 41
0.9
 51
0.0
  7
KANJI38
  0
TEXT
  8
0
  6
CONTINUOUS
 62
     2
 10
1748.05806
 20
1879.98997
 30
1.499994
 40
14.99994
  1
４４．０
 50
0.0
 41
0.9
 51
0.0
  7
KANJI38
  0
LINE
  8
0
  6
CONTINUOUS
 62
     1
 10
1263.06
 20
1942.48972
 30
0.0
 11
1263.06
 21
1812.49024
 31
0.0
  0
TEXT
  8
0
  6
CONTINUOUS
 62
     2
 10
1373.05956
 20
1849.99009
 30
1.499994
 40
14.99994
  1
　　３．１
 50
0.0
 41
0.9
 51
0.0
  7
KANJI38
  0
TEXT
  8
0
  6
CONTINUOUS
 62
     2
 10
1673.05836
 20
1849.99009
 30
1.499994
 40
14.99994
  1
　　６．２
 50
0.0
 41
0.9
 51
0.0
  7
KANJI38
  0
LINE
  8
0
  6
CONTINUOUS
 62
     1
 10
1261.835
 20
1761.693573333
 30
0.0
 11
2169.035
 21
1761.693573333
 31
0.0
  0
LINE
  8
0
  6
CONTINUOUS
 62
     1
 10
1261.835
 20
1722.493573333
 30
0.0
 11
2169.035
 21
1722.493573333
 31
0.0
  0
TEXT
  8
0
  6
CONTINUOUS
 62
     2
 10
1317.835
 20
1733.693573333
 30
1.792
 40
17.92
  1
形
 50
0.0
 41
0.9
 51
0.0
  7
KANJI39
  0
TEXT
  8
0
  6
CONTINUOUS
 62
     2
 10
1427.035
 20
1733.693573333
 30
1.792
 40
17.92
  1
式
 50
0.0
 41
0.9
 51
0.0
  7
KANJI39
  0
TEXT
  8
0
  6
CONTINUOUS
 62
     2
 10
1511.595
 20
1732.573573333
 30
1.68
 40
16.8
  1
ストローク
 50
0.0
 41
0.9
 51
0.0
  7
KANJI40
  0
TEXT
  8
0
  6
CONTINUOUS
 62
     2
 10
1619.115
 20
1731.453573333
 30
0.0
 40
16.8
  1
ｍｉｎ　
 50
0.0
 41
0.9
 51
0.0
  7
KANJI41
  0
TEXT
  8
0
  6
CONTINUOUS
 62
     2
 10
1731.115
 20
1731.453573333
 30
0.0
 40
16.8
  1
ｍｉｎ　
 50
0.0
 41
0.9
 51
0.0
  7
KANJI41
  0
TEXT
  8
0
  6
CONTINUOUS
 62
     2
 10
1955.115
 20
1731.453573333
 30
0.0
 40
16.8
  1
ｍｉｎ　
 50
0.0
 41
0.9
 51
0.0
  7
KANJI41
  0
TEXT
  8
0
  6
CONTINUOUS
 62
     2
 10
1676.235
 20
1732.573573333
 30
1.96
 40
19.6
  1
ＡＬ
 50
0.0
 41
0.9
 51
0.0
  7
KANJI42
  0
TEXT
  8
0
  6
CONTINUOUS
 62
     2
 10
1788.235
 20
1732.573573333
 30
1.96
 40
19.6
  1
Ｌ
 50
0.0
 41
0.9
 51
0.0
  7
KANJI42
  0
TEXT
  8
0
  6
CONTINUOUS
 62
     2
 10
1883.435
 20
1732.573573333
 30
1.96
 40
19.6
  1
Ｃ
 50
0.0
 41
0.9
 51
0.0
  7
KANJI42
  0
TEXT
  8
0
  6
CONTINUOUS
 62
     2
 10
2012.235
 20
1732.573573333
 30
1.96
 40
19.6
  1
Ｐ
 50
0.0
 41
0.9
 51
0.0
  7
KANJI42
  0
TEXT
  8
0
  6
CONTINUOUS
 62
     2
 10
2127.455
 20
1732.153573333
 30
0.0
 40
15.12
  1
（ｋｇ）
 50
0.0
 41
0.740740741
 51
0.0
  7
KANJI43
  0
TEXT
  8
0
  6
CONTINUOUS
 62
     2
 10
2060.255
 20
1731.873573333
 30
1.68
 40
19.6
  1
概算重量
 50
0.0
 41
0.857142857
 51
0.0
  7
KANJI44
  0
TEXT
  8
0
  6
CONTINUOUS
 62
     2
 10
1522.235
 20
1695.006906667
 30
1.68
 40
16.8
  1
　２００
 50
0.0
 41
0.9
 51
0.0
  7
KANJI40
  0
TEXT
  8
0
  6
CONTINUOUS
 62
     2
 10
1970.235
 20
1695.006906667
 30
1.68
 40
16.8
  1
　　４５
 50
0.0
 41
0.9
 51
0.0
  7
KANJI40
  0
LINE
  8
0
  6
CONTINUOUS
 62
     2
 10
1261.835
 20
1685.626906667
 30
0.0
 11
2169.035
 21
1685.626906667
 31
0.0
  0
TEXT
  8
0
  6
CONTINUOUS
 62
     2
 10
1858.235
 20
1695.006906667
 30
1.68
 40
16.8
  1
　５１０
 50
0.0
 41
0.9
 51
0.0
  7
KANJI40
  0
TEXT
  8
0
  6
CONTINUOUS
 62
     2
 10
1746.235
 20
1695.006906667
 30
1.68
 40
16.8
  1
　６２５
 50
0.0
 41
0.9
 51
0.0
  7
KANJI40
  0
TEXT
  8
0
  6
CONTINUOUS
 62
     2
 10
1634.235
 20
1695.006906667
 30
1.68
 40
16.8
  1
　８５０
 50
0.0
 41
0.9
 51
0.0
  7
KANJI40
  0
TEXT
  8
0
  6
CONTINUOUS
 62
     2
 10
1522.235
 20
1658.14024
 30
1.68
 40
16.8
  1
　３００
 50
0.0
 41
0.9
 51
0.0
  7
KANJI40
  0
TEXT
  8
0
  6
CONTINUOUS
 62
     2
 10
1970.235
 20
1658.14024
 30
1.68
 40
16.8
  1
　　４５
 50
0.0
 41
0.9
 51
0.0
  7
KANJI40
  0
LINE
  8
0
  6
CONTINUOUS
 62
     2
 10
1261.835
 20
1648.76024
 30
0.0
 11
2169.035
 21
1648.76024
 31
0.0
  0
TEXT
  8
0
  6
CONTINUOUS
 62
     2
 10
1858.235
 20
1658.14024
 30
1.68
 40
16.8
  1
　６１０
 50
0.0
 41
0.9
 51
0.0
  7
KANJI40
  0
TEXT
  8
0
  6
CONTINUOUS
 62
     2
 10
1746.235
 20
1658.14024
 30
1.68
 40
16.8
  1
　７２５
 50
0.0
 41
0.9
 51
0.0
  7
KANJI40
  0
TEXT
  8
0
  6
CONTINUOUS
 62
     2
 10
1634.235
 20
1658.14024
 30
1.68
 40
16.8
  1
　９５０
 50
0.0
 41
0.9
 51
0.0
  7
KANJI40
  0
TEXT
  8
0
  6
CONTINUOUS
 62
     2
 10
1522.235
 20
1621.273573333
 30
1.68
 40
16.8
  1
　４００
 50
0.0
 41
0.9
 51
0.0
  7
KANJI40
  0
LINE
  8
0
  6
CONTINUOUS
 62
     2
 10
1261.835
 20
1611.893573333
 30
0.0
 11
2169.035
 21
1611.893573333
 31
0.0
  0
TEXT
  8
0
  6
CONTINUOUS
 62
     2
 10
1858.235
 20
1621.273573333
 30
1.68
 40
16.8
  1
　７１０
 50
0.0
 41
0.9
 51
0.0
  7
KANJI40
  0
TEXT
  8
0
  6
CONTINUOUS
 62
     2
 10
1522.235
 20
1584.406906667
 30
1.68
 40
16.8
  1
　５００
 50
0.0
 41
0.9
 51
0.0
  7
KANJI40
  0
LINE
  8
0
  6
CONTINUOUS
 62
     2
 10
1261.835
 20
1575.026906667
 30
0.0
 11
2169.035
 21
1575.026906667
 31
0.0
  0
TEXT
  8
0
  6
CONTINUOUS
 62
     2
 10
1858.235
 20
1584.406906667
 30
1.68
 40
16.8
  1
　８１０
 50
0.0
 41
0.9
 51
0.0
  7
KANJI40
  0
LINE
  8
0
  6
CONTINUOUS
 62
     2
 10
1261.835
 20
1538.16024
 30
0.0
 11
2169.035
 21
1538.16024
 31
0.0
  0
TEXT
  8
0
  6
CONTINUOUS
 62
     2
 10
1522.235
 20
1547.54024
 30
1.68
 40
16.8
  1
　６００
 50
0.0
 41
0.9
 51
0.0
  7
KANJI40
  0
TEXT
  8
0
  6
CONTINUOUS
 62
     2
 10
1858.235
 20
1547.54024
 30
1.68
 40
16.8
  1
　９５０
 50
0.0
 41
0.9
 51
0.0
  7
KANJI40
  0
LINE
  8
0
  6
CONTINUOUS
 62
     2
 10
1261.835
 20
1501.293573333
 30
0.0
 11
2169.035
 21
1501.293573333
 31
0.0
  0
TEXT
  8
0
  6
CONTINUOUS
 62
     2
 10
1522.235
 20
1510.673573333
 30
1.68
 40
16.8
  1
　７００
 50
0.0
 41
0.9
 51
0.0
  7
KANJI40
  0
TEXT
  8
0
  6
CONTINUOUS
 62
     2
 10
1858.235
 20
1510.673573333
 30
1.68
 40
16.8
  1
１０５０
 50
0.0
 41
0.9
 51
0.0
  7
KANJI40
  0
LINE
  8
0
  6
CONTINUOUS
 62
     2
 10
1261.835
 20
1464.426906667
 30
0.0
 11
2169.035
 21
1464.426906667
 31
0.0
  0
TEXT
  8
0
  6
CONTINUOUS
 62
     2
 10
1522.235
 20
1473.806906667
 30
1.68
 40
16.8
  1
　８００
 50
0.0
 41
0.9
 51
0.0
  7
KANJI40
  0
TEXT
  8
0
  6
CONTINUOUS
 62
     2
 10
1858.235
 20
1473.806906667
 30
1.68
 40
16.8
  1
１１５０
 50
0.0
 41
0.9
 51
0.0
  7
KANJI40
  0
LINE
  8
0
  6
CONTINUOUS
 62
     2
 10
1261.835
 20
1427.56024
 30
0.0
 11
2169.035
 21
1427.56024
 31
0.0
  0
TEXT
  8
0
  6
CONTINUOUS
 62
     2
 10
1522.235
 20
1436.94024
 30
1.68
 40
16.8
  1
　９００
 50
0.0
 41
0.9
 51
0.0
  7
KANJI40
  0
TEXT
  8
0
  6
CONTINUOUS
 62
     2
 10
1858.235
 20
1436.94024
 30
1.68
 40
16.8
  1
１２５０
 50
0.0
 41
0.9
 51
0.0
  7
KANJI40
  0
TEXT
  8
0
  6
CONTINUOUS
 62
     2
 10
1522.235
 20
1400.073573333
 30
1.68
 40
16.8
  1
１０００
 50
0.0
 41
0.9
 51
0.0
  7
KANJI40
  0
LINE
  8
0
  6
CONTINUOUS
 62
     2
 10
1261.835
 20
1390.693573333
 30
0.0
 11
2169.035
 21
1390.693573333
 31
0.0
  0
LINE
  8
0
  6
CONTINUOUS
 62
     2
 10
1261.835
 20
1353.826906667
 30
0.0
 11
2169.035
 21
1353.826906667
 31
0.0
  0
LINE
  8
0
  6
CONTINUOUS
 62
     2
 10
1261.835
 20
1316.96024
 30
0.0
 11
2169.035
 21
1316.96024
 31
0.0
  0
LINE
  8
0
  6
CONTINUOUS
 62
     2
 10
1261.835
 20
1280.093573333
 30
0.0
 11
2169.035
 21
1280.093573333
 31
0.0
  0
LINE
  8
0
  6
CONTINUOUS
 62
     2
 10
1261.835
 20
1243.226906667
 30
0.0
 11
2169.035
 21
1243.226906667
 31
0.0
  0
LINE
  8
0
  6
CONTINUOUS
 62
     2
 10
1261.835
 20
1206.36024
 30
0.0
 11
2169.035
 21
1206.36024
 31
0.0
  0
LINE
  8
0
  6
CONTINUOUS
 62
     1
 10
1261.835
 20
1169.493573333
 30
0.0
 11
2169.035
 21
1169.493573333
 31
0.0
  0
LINE
  8
0
  6
CONTINUOUS
 62
     1
 10
2169.035
 20
1761.693573333
 30
0.0
 11
2169.035
 21
1169.493573333
 31
0.0
  0
LINE
  8
0
  6
CONTINUOUS
 62
     1
 10
1261.835
 20
1761.693573333
 30
0.0
 11
1261.835
 21
1169.493573333
 31
0.0
  0
LINE
  8
0
  6
CONTINUOUS
 62
     1
 10
1497.035
 20
1761.693573333
 30
0.0
 11
1497.035
 21
1169.493573333
 31
0.0
  0
LINE
  8
0
  6
CONTINUOUS
 62
     2
 10
1609.035
 20
1761.693573333
 30
0.0
 11
1609.035
 21
1169.493573333
 31
0.0
  0
LINE
  8
0
  6
CONTINUOUS
 62
     2
 10
1721.035
 20
1761.693573333
 30
0.0
 11
1721.035
 21
1169.493573333
 31
0.0
  0
LINE
  8
0
  6
CONTINUOUS
 62
     2
 10
1833.035
 20
1761.693573333
 30
0.0
 11
1833.035
 21
1169.493573333
 31
0.0
  0
LINE
  8
0
  6
CONTINUOUS
 62
     2
 10
1945.035
 20
1761.693573333
 30
0.0
 11
1945.035
 21
1169.493573333
 31
0.0
  0
LINE
  8
0
  6
CONTINUOUS
 62
     2
 10
2057.035
 20
1761.693573333
 30
0.0
 11
2057.035
 21
1169.493573333
 31
0.0
  0
TEXT
  8
0
  6
CONTINUOUS
 62
     2
 10
1522.235
 20
1363.206906667
 30
1.68
 40
16.8
  1
１１００
 50
0.0
 41
0.9
 51
0.0
  7
KANJI40
  0
TEXT
  8
0
  6
CONTINUOUS
 62
     2
 10
1522.235
 20
1326.34024
 30
1.68
 40
16.8
  1
１２００
 50
0.0
 41
0.9
 51
0.0
  7
KANJI40
  0
TEXT
  8
0
  6
CONTINUOUS
 62
     2
 10
1522.235
 20
1289.473573333
 30
1.68
 40
16.8
  1
１３００
 50
0.0
 41
0.9
 51
0.0
  7
KANJI40
  0
TEXT
  8
0
  6
CONTINUOUS
 62
     2
 10
1522.235
 20
1252.606906667
 30
1.68
 40
16.8
  1
１４００
 50
0.0
 41
0.9
 51
0.0
  7
KANJI40
  0
TEXT
  8
0
  6
CONTINUOUS
 62
     2
 10
1522.235
 20
1215.74024
 30
1.68
 40
16.8
  1
１５００
 50
0.0
 41
0.9
 51
0.0
  7
KANJI40
  0
TEXT
  8
0
  6
CONTINUOUS
 62
     2
 10
1858.235
 20
1363.206906667
 30
1.68
 40
16.8
  1
１４８０
 50
0.0
 41
0.9
 51
0.0
  7
KANJI40
  0
TEXT
  8
0
  6
CONTINUOUS
 62
     2
 10
1858.235
 20
1326.34024
 30
1.68
 40
16.8
  1
１５８０
 50
0.0
 41
0.9
 51
0.0
  7
KANJI40
  0
TEXT
  8
0
  6
CONTINUOUS
 62
     2
 10
1858.235
 20
1289.473573333
 30
1.68
 40
16.8
  1
１６８０
 50
0.0
 41
0.9
 51
0.0
  7
KANJI40
  0
TEXT
  8
0
  6
CONTINUOUS
 62
     2
 10
1858.235
 20
1252.606906667
 30
1.68
 40
16.8
  1
１７８０
 50
0.0
 41
0.9
 51
0.0
  7
KANJI40
  0
TEXT
  8
0
  6
CONTINUOUS
 62
     2
 10
1858.235
 20
1215.74024
 30
1.68
 40
16.8
  1
１８８０
 50
0.0
 41
0.9
 51
0.0
  7
KANJI40
  0
TEXT
  8
0
  6
CONTINUOUS
 62
     2
 10
2082.235
 20
1695.006906667
 30
1.68
 40
16.8
  1
１０７
 50
0.0
 41
0.9
 51
0.0
  7
KANJI40
  0
TEXT
  8
0
  6
CONTINUOUS
 62
     2
 10
2082.235
 20
1658.14024
 30
1.68
 40
16.8
  1
１０９
 50
0.0
 41
0.9
 51
0.0
  7
KANJI40
  0
TEXT
  8
0
  6
CONTINUOUS
 62
     2
 10
2082.235
 20
1621.273573333
 30
1.68
 40
16.8
  1
１１３
 50
0.0
 41
0.9
 51
0.0
  7
KANJI40
  0
TEXT
  8
0
  6
CONTINUOUS
 62
     2
 10
1306.309827
 20
1785.82368
 30
1.749993
 40
17.49993
  1
注意：サーマルリレー等の選定は、上記の値で選定して下さい。
 50
0.0
 41
0.9
 51
0.0
  7
KANJI45
  0
LINE
  8
0
  6
CONTINUOUS
 62
     2
 10
1298.309867
 20
1780.8237
 30
0.0
 11
1804.097987
 21
1780.8237
 31
0.0
  0
TEXT
  8
0
  6
CONTINUOUS
 62
     2
 10
1448.05926
 20
1879.98997
 30
1.499994
 40
14.99994
  1
２２．１
 50
0.0
 41
0.9
 51
0.0
  7
KANJI38
  0
TEXT
  8
0
  6
CONTINUOUS
 62
     2
 10
1448.05926
 20
1849.99009
 30
1.499994
 40
14.99994
  1
１９．２
 50
0.0
 41
0.9
 51
0.0
  7
KANJI38
  0
TEXT
  8
0
  6
CONTINUOUS
 62
     2
 10
1448.05926
 20
1819.99021
 30
1.499994
 40
14.99994
  1
２１．１
 50
0.0
 41
0.9
 51
0.0
  7
KANJI38
  0
TEXT
  8
0
  6
CONTINUOUS
 62
     2
 10
1747.516423333
 20
1847.6984275
 30
1.499994
 40
14.99994
  1
３８．２
 50
0.0
 41
0.9
 51
0.0
  7
KANJI38
  0
TEXT
  8
0
  6
CONTINUOUS
 62
     2
 10
1748.766418333
 20
1819.3652075
 30
1.499994
 40
14.99994
  1
４２．１
 50
0.0
 41
0.9
 51
0.0
  7
KANJI38
  0
TEXT
  8
0
  6
CONTINUOUS
 62
     2
 10
1970.235
 20
1621.273573333
 30
1.68
 40
16.8
  1
　　８５
 50
0.0
 41
0.9
 51
0.0
  7
KANJI40
  0
TEXT
  8
0
  6
CONTINUOUS
 62
     2
 10
1970.235
 20
1584.406906667
 30
1.68
 40
16.8
  1
　１１２
 50
0.0
 41
0.9
 51
0.0
  7
KANJI40
  0
TEXT
  8
0
  6
CONTINUOUS
 62
     2
 10
1970.235
 20
1547.54024
 30
1.68
 40
16.8
  1
　１２８
 50
0.0
 41
0.9
 51
0.0
  7
KANJI40
  0
TEXT
  8
0
  6
CONTINUOUS
 62
     2
 10
1970.235
 20
1510.673573333
 30
1.68
 40
16.8
  1
　１４８
 50
0.0
 41
0.9
 51
0.0
  7
KANJI40
  0
TEXT
  8
0
  6
CONTINUOUS
 62
     2
 10
1970.235
 20
1473.806906667
 30
1.68
 40
16.8
  1
　１６８
 50
0.0
 41
0.9
 51
0.0
  7
KANJI40
  0
TEXT
  8
0
  6
CONTINUOUS
 62
     2
 10
1970.235
 20
1436.94024
 30
1.68
 40
16.8
  1
　１９８
 50
0.0
 41
0.9
 51
0.0
  7
KANJI40
  0
TEXT
  8
0
  6
CONTINUOUS
 62
     2
 10
1970.235
 20
1400.073573333
 30
1.68
 40
16.8
  1
　２３１
 50
0.0
 41
0.9
 51
0.0
  7
KANJI40
  0
TEXT
  8
0
  6
CONTINUOUS
 62
     2
 10
1970.235
 20
1363.206906667
 30
1.68
 40
16.8
  1
　２４５
 50
0.0
 41
0.9
 51
0.0
  7
KANJI40
  0
TEXT
  8
0
  6
CONTINUOUS
 62
     2
 10
1970.235
 20
1326.34024
 30
1.68
 40
16.8
  1
　２６８
 50
0.0
 41
0.9
 51
0.0
  7
KANJI40
  0
TEXT
  8
0
  6
CONTINUOUS
 62
     2
 10
1970.235
 20
1289.473573333
 30
1.68
 40
16.8
  1
　２８８
 50
0.0
 41
0.9
 51
0.0
  7
KANJI40
  0
TEXT
  8
0
  6
CONTINUOUS
 62
     2
 10
1970.235
 20
1252.606906667
 30
1.68
 40
16.8
  1
　３１０
 50
0.0
 41
0.9
 51
0.0
  7
KANJI40
  0
TEXT
  8
0
  6
CONTINUOUS
 62
     2
 10
1970.235
 20
1215.74024
 30
1.68
 40
16.8
  1
　３５０
 50
0.0
 41
0.9
 51
0.0
  7
KANJI40
  0
TEXT
  8
0
  6
CONTINUOUS
 62
     2
 10
1280.035
 20
1694.586906667
 30
1.12
 40
16.8
  1
ＭＣＬＥ４－　　２Ｊ
 50
0.0
 41
0.833333333
 51
0.0
  7
KANJI46
  0
TEXT
  8
0
  6
CONTINUOUS
 62
     2
 10
1280.035
 20
1657.72024
 30
1.12
 40
16.8
  1
ＭＣＬＥ４－　　３Ｊ
 50
0.0
 41
0.833333333
 51
0.0
  7
KANJI46
  0
TEXT
  8
0
  6
CONTINUOUS
 62
     2
 10
1280.035
 20
1620.853573333
 30
1.12
 40
16.8
  1
ＭＣＬＥ４－　　４Ｊ
 50
0.0
 41
0.833333333
 51
0.0
  7
KANJI46
  0
TEXT
  8
0
  6
CONTINUOUS
 62
     2
 10
1280.035
 20
1583.986906667
 30
1.12
 40
16.8
  1
ＭＣＬＥ４－　　５Ｊ
 50
0.0
 41
0.833333333
 51
0.0
  7
KANJI46
  0
TEXT
  8
0
  6
CONTINUOUS
 62
     2
 10
1280.035
 20
1547.12024
 30
1.12
 40
16.8
  1
ＭＣＬＥ４－　　６Ｊ
 50
0.0
 41
0.833333333
 51
0.0
  7
KANJI46
  0
TEXT
  8
0
  6
CONTINUOUS
 62
     2
 10
1280.035
 20
1510.253573333
 30
1.12
 40
16.8
  1
ＭＣＬＥ４－　　７Ｊ
 50
0.0
 41
0.833333333
 51
0.0
  7
KANJI46
  0
TEXT
  8
0
  6
CONTINUOUS
 62
     2
 10
1280.035
 20
1473.386906667
 30
1.12
 40
16.8
  1
ＭＣＬＥ４－　　８Ｊ
 50
0.0
 41
0.833333333
 51
0.0
  7
KANJI46
  0
TEXT
  8
0
  6
CONTINUOUS
 62
     2
 10
1280.035
 20
1436.52024
 30
1.12
 40
16.8
  1
ＭＣＬＥ４－　　９Ｊ
 50
0.0
 41
0.833333333
 51
0.0
  7
KANJI46
  0
TEXT
  8
0
  6
CONTINUOUS
 62
     2
 10
1280.035
 20
1399.653573333
 30
1.12
 40
16.8
  1
ＭＣＬＥ４－　１０Ｊ
 50
0.0
 41
0.833333333
 51
0.0
  7
KANJI46
  0
TEXT
  8
0
  6
CONTINUOUS
 62
     2
 10
1280.035
 20
1362.786906667
 30
1.12
 40
16.8
  1
ＭＣＬＥ４－　１１Ｊ
 50
0.0
 41
0.833333333
 51
0.0
  7
KANJI46
  0
TEXT
  8
0
  6
CONTINUOUS
 62
     2
 10
1280.035
 20
1325.92024
 30
1.12
 40
16.8
  1
ＭＣＬＥ４－　１２Ｊ
 50
0.0
 41
0.833333333
 51
0.0
  7
KANJI46
  0
TEXT
  8
0
  6
CONTINUOUS
 62
     2
 10
1280.035
 20
1289.053573333
 30
1.12
 40
16.8
  1
ＭＣＬＥ４－　１３Ｊ
 50
0.0
 41
0.833333333
 51
0.0
  7
KANJI46
  0
TEXT
  8
0
  6
CONTINUOUS
 62
     2
 10
1280.035
 20
1252.186906667
 30
1.12
 40
16.8
  1
ＭＣＬＥ４－　１４Ｊ
 50
0.0
 41
0.833333333
 51
0.0
  7
KANJI46
  0
TEXT
  8
0
  6
CONTINUOUS
 62
     2
 10
1280.035
 20
1215.32024
 30
1.12
 40
16.8
  1
ＭＣＬＥ４－　１５Ｊ
 50
0.0
 41
0.833333333
 51
0.0
  7
KANJI46
  0
TEXT
  8
0
  6
CONTINUOUS
 62
     2
 10
1280.035
 20
1178.453573333
 30
1.12
 40
16.8
  1
ＭＣＬＥ４－　　　Ｊ
 50
0.0
 41
0.833333333
 51
0.0
  7
KANJI46
  0
TEXT
  8
0
  6
CONTINUOUS
 62
     2
 10
1746.235
 20
1621.273573333
 30
1.68
 40
16.8
  1
　８６５
 50
0.0
 41
0.9
 51
0.0
  7
KANJI40
  0
TEXT
  8
0
  6
CONTINUOUS
 62
     2
 10
1746.235
 20
1584.406906667
 30
1.68
 40
16.8
  1
　９９２
 50
0.0
 41
0.9
 51
0.0
  7
KANJI40
  0
TEXT
  8
0
  6
CONTINUOUS
 62
     2
 10
1746.235
 20
1547.54024
 30
1.68
 40
16.8
  1
１１４８
 50
0.0
 41
0.9
 51
0.0
  7
KANJI40
  0
TEXT
  8
0
  6
CONTINUOUS
 62
     2
 10
1746.235
 20
1510.673573333
 30
1.68
 40
16.8
  1
１２６８
 50
0.0
 41
0.9
 51
0.0
  7
KANJI40
  0
TEXT
  8
0
  6
CONTINUOUS
 62
     2
 10
1746.235
 20
1473.806906667
 30
1.68
 40
16.8
  1
１３８８
 50
0.0
 41
0.9
 51
0.0
  7
KANJI40
  0
TEXT
  8
0
  6
CONTINUOUS
 62
     2
 10
1746.235
 20
1436.94024
 30
1.68
 40
16.8
  1
１５１８
 50
0.0
 41
0.9
 51
0.0
  7
KANJI40
  0
TEXT
  8
0
  6
CONTINUOUS
 62
     2
 10
1746.235
 20
1400.073573333
 30
1.68
 40
16.8
  1
１６５１
 50
0.0
 41
0.9
 51
0.0
  7
KANJI40
  0
TEXT
  8
0
  6
CONTINUOUS
 62
     2
 10
1746.235
 20
1363.206906667
 30
1.68
 40
16.8
  1
１７９５
 50
0.0
 41
0.9
 51
0.0
  7
KANJI40
  0
TEXT
  8
0
  6
CONTINUOUS
 62
     2
 10
1746.235
 20
1326.34024
 30
1.68
 40
16.8
  1
１９１８
 50
0.0
 41
0.9
 51
0.0
  7
KANJI40
  0
TEXT
  8
0
  6
CONTINUOUS
 62
     2
 10
1746.235
 20
1289.473573333
 30
1.68
 40
16.8
  1
２０３８
 50
0.0
 41
0.9
 51
0.0
  7
KANJI40
  0
TEXT
  8
0
  6
CONTINUOUS
 62
     2
 10
1746.235
 20
1252.606906667
 30
1.68
 40
16.8
  1
２１６０
 50
0.0
 41
0.9
 51
0.0
  7
KANJI40
  0
TEXT
  8
0
  6
CONTINUOUS
 62
     2
 10
1746.235
 20
1215.74024
 30
1.68
 40
16.8
  1
２３００
 50
0.0
 41
0.9
 51
0.0
  7
KANJI40
  0
TEXT
  8
0
  6
CONTINUOUS
 62
     2
 10
1634.235
 20
1621.273573333
 30
1.68
 40
16.8
  1
１０９０
 50
0.0
 41
0.9
 51
0.0
  7
KANJI40
  0
TEXT
  8
0
  6
CONTINUOUS
 62
     2
 10
1634.235
 20
1584.406906667
 30
1.68
 40
16.8
  1
１２１７
 50
0.0
 41
0.9
 51
0.0
  7
KANJI40
  0
TEXT
  8
0
  6
CONTINUOUS
 62
     2
 10
1634.235
 20
1547.54024
 30
1.68
 40
16.8
  1
１３７３
 50
0.0
 41
0.9
 51
0.0
  7
KANJI40
  0
TEXT
  8
0
  6
CONTINUOUS
 62
     2
 10
1634.235
 20
1510.673573333
 30
1.68
 40
16.8
  1
１４９３
 50
0.0
 41
0.9
 51
0.0
  7
KANJI40
  0
TEXT
  8
0
  6
CONTINUOUS
 62
     2
 10
1634.235
 20
1473.806906667
 30
1.68
 40
16.8
  1
１６１３
 50
0.0
 41
0.9
 51
0.0
  7
KANJI40
  0
TEXT
  8
0
  6
CONTINUOUS
 62
     2
 10
1634.235
 20
1436.94024
 30
1.68
 40
16.8
  1
１７４３
 50
0.0
 41
0.9
 51
0.0
  7
KANJI40
  0
TEXT
  8
0
  6
CONTINUOUS
 62
     2
 10
1634.235
 20
1400.073573333
 30
1.68
 40
16.8
  1
１８７６
 50
0.0
 41
0.9
 51
0.0
  7
KANJI40
  0
TEXT
  8
0
  6
CONTINUOUS
 62
     2
 10
1634.235
 20
1363.206906667
 30
1.68
 40
16.8
  1
２０２０
 50
0.0
 41
0.9
 51
0.0
  7
KANJI40
  0
TEXT
  8
0
  6
CONTINUOUS
 62
     2
 10
1634.235
 20
1326.34024
 30
1.68
 40
16.8
  1
２１４３
 50
0.0
 41
0.9
 51
0.0
  7
KANJI40
  0
TEXT
  8
0
  6
CONTINUOUS
 62
     2
 10
1634.235
 20
1289.473573333
 30
1.68
 40
16.8
  1
２２６３
 50
0.0
 41
0.9
 51
0.0
  7
KANJI40
  0
TEXT
  8
0
  6
CONTINUOUS
 62
     2
 10
1634.235
 20
1252.606906667
 30
1.68
 40
16.8
  1
２３８５
 50
0.0
 41
0.9
 51
0.0
  7
KANJI40
  0
TEXT
  8
0
  6
CONTINUOUS
 62
     2
 10
1634.235
 20
1215.74024
 30
1.68
 40
16.8
  1
２５２５
 50
0.0
 41
0.9
 51
0.0
  7
KANJI40
  0
TEXT
  8
0
  6
CONTINUOUS
 62
     2
 10
1858.235
 20
1400.073573333
 30
1.68
 40
16.8
  1
１３５０
 50
0.0
 41
0.9
 51
0.0
  7
KANJI40
  0
TEXT
  8
0
  6
CONTINUOUS
 62
     2
 10
2082.235
 20
1584.406906667
 30
1.68
 40
16.8
  1
１１８
 50
0.0
 41
0.9
 51
0.0
  7
KANJI40
  0
TEXT
  8
0
  6
CONTINUOUS
 62
     2
 10
2082.235
 20
1547.54024
 30
1.68
 40
16.8
  1
１２３
 50
0.0
 41
0.9
 51
0.0
  7
KANJI40
  0
TEXT
  8
0
  6
CONTINUOUS
 62
     2
 10
2082.235
 20
1510.673573333
 30
1.68
 40
16.8
  1
１２８
 50
0.0
 41
0.9
 51
0.0
  7
KANJI40
  0
TEXT
  8
0
  6
CONTINUOUS
 62
     2
 10
2082.235
 20
1473.806906667
 30
1.68
 40
16.8
  1
１３２
 50
0.0
 41
0.9
 51
0.0
  7
KANJI40
  0
TEXT
  8
0
  6
CONTINUOUS
 62
     2
 10
2082.235
 20
1436.94024
 30
1.68
 40
16.8
  1
１３６
 50
0.0
 41
0.9
 51
0.0
  7
KANJI40
  0
TEXT
  8
0
  6
CONTINUOUS
 62
     2
 10
2082.235
 20
1400.073573333
 30
1.68
 40
16.8
  1
１４０
 50
0.0
 41
0.9
 51
0.0
  7
KANJI40
  0
TEXT
  8
0
  6
CONTINUOUS
 62
     2
 10
2082.235
 20
1363.206906667
 30
1.68
 40
16.8
  1
１４３
 50
0.0
 41
0.9
 51
0.0
  7
KANJI40
  0
TEXT
  8
0
  6
CONTINUOUS
 62
     2
 10
2082.235
 20
1326.34024
 30
1.68
 40
16.8
  1
１４７
 50
0.0
 41
0.9
 51
0.0
  7
KANJI40
  0
TEXT
  8
0
  6
CONTINUOUS
 62
     2
 10
2082.235
 20
1289.473573333
 30
1.68
 40
16.8
  1
１５２
 50
0.0
 41
0.9
 51
0.0
  7
KANJI40
  0
TEXT
  8
0
  6
CONTINUOUS
 62
     2
 10
2082.235
 20
1252.606906667
 30
1.68
 40
16.8
  1
１５６
 50
0.0
 41
0.9
 51
0.0
  7
KANJI40
  0
TEXT
  8
0
  6
CONTINUOUS
 62
     2
 10
2082.235
 20
1215.74024
 30
1.68
 40
16.8
  1
１６２
 50
0.0
 41
0.9
 51
0.0
  7
KANJI40
  0
LINE
  8
0
  6
CONTINUOUS
 62
     2
 10
448.235
 20
338.54024
 30
0.0
 11
880.522408737
 21
338.54024
 31
0.0
  0
TEXT
  8
0
  6
CONTINUOUS
 62
     2
 10
450.235
 20
346.54024
 30
0.0
 40
20.0
  1
推力リミッタの作動値は、約４４００ｋｇ（設計値）
 50
0.0
 41
0.925
 51
0.0
  7
KANJI47
  0
LINE
  8
0
  6
CONTINUOUS
 62
     2
 10
549.235
 20
1499.54024
 30
0.0
 11
556.96240661
 21
1497.469687639
 31
0.0
  0
LINE
  8
0
  6
CONTINUOUS
 62
     2
 10
549.235
 20
1499.54024
 30
0.0
 11
556.96240661
 21
1501.610792361
 31
0.0
  0
LINE
  8
0
  6
CONTINUOUS
 62
     2
 10
549.235
 20
1499.54024
 30
0.0
 11
686.835
 21
1499.54024
 31
0.0
  0
LINE
  8
0
  6
CONTINUOUS
 62
     2
 10
686.835
 20
1499.54024
 30
0.0
 11
679.10759339
 21
1501.610792361
 31
0.0
  0
LINE
  8
0
  6
CONTINUOUS
 62
     2
 10
686.835
 20
1499.54024
 30
0.0
 11
679.10759339
 21
1497.469687639
 31
0.0
  0
LINE
  8
0
  6
CONTINUOUS
 62
     2
 10
686.835
 20
1498.34024
 30
0.0
 11
686.835
 21
1495.54024
 31
0.0
  0
LINE
  8
0
  6
CONTINUOUS
 62
     2
 10
686.835
 20
1499.54024
 30
0.0
 11
694.56240661
 21
1497.469687639
 31
0.0
  0
LINE
  8
0
  6
CONTINUOUS
 62
     2
 10
686.835
 20
1499.54024
 30
0.0
 11
694.56240661
 21
1501.610792361
 31
0.0
  0
LINE
  8
0
  6
CONTINUOUS
 62
     2
 10
686.835
 20
1499.54024
 30
0.0
 11
889.235
 21
1499.54024
 31
0.0
  0
LINE
  8
0
  6
CONTINUOUS
 62
     2
 10
889.235
 20
1499.54024
 30
0.0
 11
881.50759339
 21
1501.610792361
 31
0.0
  0
LINE
  8
0
  6
CONTINUOUS
 62
     2
 10
889.235
 20
1499.54024
 30
0.0
 11
881.50759339
 21
1497.469687639
 31
0.0
  0
LINE
  8
0
  6
CONTINUOUS
 62
     2
 10
686.835
 20
1473.210792361
 30
0.0
 11
679.10759339
 21
1475.281344722
 31
0.0
  0
LINE
  8
0
  6
CONTINUOUS
 62
     2
 10
686.835
 20
1473.210792361
 30
0.0
 11
679.10759339
 21
1471.14024
 31
0.0
  0
LINE
  8
0
  6
CONTINUOUS
 62
     2
 10
674.835
 20
1473.210792361
 30
0.0
 11
686.835
 21
1473.210792361
 31
0.0
  0
LINE
  8
0
  6
CONTINUOUS
 62
     2
 10
686.835
 20
1473.210792361
 30
0.0
 11
707.635
 21
1473.210792361
 31
0.0
  0
LINE
  8
0
  6
CONTINUOUS
 62
     2
 10
707.635
 20
1473.210792361
 30
0.0
 11
715.36240661
 21
1471.14024
 31
0.0
  0
LINE
  8
0
  6
CONTINUOUS
 62
     2
 10
707.635
 20
1473.210792361
 30
0.0
 11
715.36240661
 21
1475.281344722
 31
0.0
  0
LINE
  8
0
  6
CONTINUOUS
 62
     2
 10
549.235
 20
1447.94024
 30
0.0
 11
549.235
 21
1441.94024
 31
0.0
  0
LINE
  8
0
  6
CONTINUOUS
 62
     2
 10
549.235
 20
1445.94024
 30
0.0
 11
556.96240661
 21
1443.869687639
 31
0.0
  0
LINE
  8
0
  6
CONTINUOUS
 62
     2
 10
549.235
 20
1445.94024
 30
0.0
 11
556.96240661
 21
1448.010792361
 31
0.0
  0
LINE
  8
0
  6
CONTINUOUS
 62
     2
 10
549.235
 20
1445.94024
 30
0.0
 11
707.635
 21
1445.94024
 31
0.0
  0
LINE
  8
0
  6
CONTINUOUS
 62
     2
 10
707.635
 20
1445.94024
 30
0.0
 11
699.90759339
 21
1448.010792361
 31
0.0
  0
LINE
  8
0
  6
CONTINUOUS
 62
     2
 10
707.635
 20
1445.94024
 30
0.0
 11
699.90759339
 21
1443.869687639
 31
0.0
  0
LINE
  8
0
  6
CONTINUOUS
 62
     2
 10
707.635
 20
1447.14024
 30
0.0
 11
707.635
 21
1441.94024
 31
0.0
  0
LINE
  8
0
  6
CONTINUOUS
 62
     2
 10
707.635
 20
1445.94024
 30
0.0
 11
715.36240661
 21
1443.869687639
 31
0.0
  0
LINE
  8
0
  6
CONTINUOUS
 62
     2
 10
707.635
 20
1445.94024
 30
0.0
 11
715.36240661
 21
1448.010792361
 31
0.0
  0
LINE
  8
0
  6
CONTINUOUS
 62
     2
 10
889.235
 20
1442.34024
 30
0.0
 11
889.235
 21
1441.94024
 31
0.0
  0
LINE
  8
0
  6
CONTINUOUS
 62
     2
 10
549.235
 20
1416.74024
 30
0.0
 11
556.96240661
 21
1414.669687639
 31
0.0
  0
LINE
  8
0
  6
CONTINUOUS
 62
     2
 10
549.235
 20
1416.74024
 30
0.0
 11
556.96240661
 21
1418.810792361
 31
0.0
  0
LINE
  8
0
  6
CONTINUOUS
 62
     2
 10
549.235
 20
1416.74024
 30
0.0
 11
866.835
 21
1416.74024
 31
0.0
  0
LINE
  8
0
  6
CONTINUOUS
 62
     2
 10
866.835
 20
1416.74024
 30
0.0
 11
859.10759339
 21
1418.810792361
 31
0.0
  0
LINE
  8
0
  6
CONTINUOUS
 62
     2
 10
866.835
 20
1416.74024
 30
0.0
 11
859.10759339
 21
1414.669687639
 31
0.0
  0
LINE
  8
0
  6
CONTINUOUS
 62
     2
 10
866.835
 20
1417.54024
 30
0.0
 11
866.835
 21
1412.74024
 31
0.0
  0
LINE
  8
0
  6
CONTINUOUS
 62
     2
 10
866.835
 20
1416.74024
 30
0.0
 11
859.10759339
 21
1418.810792361
 31
0.0
  0
LINE
  8
0
  6
CONTINUOUS
 62
     2
 10
866.835
 20
1416.74024
 30
0.0
 11
859.10759339
 21
1414.669687639
 31
0.0
  0
LINE
  8
0
  6
CONTINUOUS
 62
     2
 10
854.835
 20
1416.74024
 30
0.0
 11
866.835
 21
1416.74024
 31
0.0
  0
LINE
  8
0
  6
CONTINUOUS
 62
     2
 10
866.835
 20
1416.74024
 30
0.0
 11
889.235
 21
1416.74024
 31
0.0
  0
LINE
  8
0
  6
CONTINUOUS
 62
     2
 10
889.235
 20
1416.74024
 30
0.0
 11
896.96240661
 21
1414.669687639
 31
0.0
  0
LINE
  8
0
  6
CONTINUOUS
 62
     2
 10
889.235
 20
1416.74024
 30
0.0
 11
896.96240661
 21
1418.810792361
 31
0.0
  0
LINE
  8
0
  6
CONTINUOUS
 62
     2
 10
549.235
 20
1510.34024
 30
0.0
 11
549.235
 21
1495.54024
 31
0.0
  0
LINE
  8
0
  6
CONTINUOUS
 62
     2
 10
889.235
 20
1510.34024
 30
0.0
 11
889.235
 21
1495.54024
 31
0.0
  0
LINE
  8
0
  6
CONTINUOUS
 62
     2
 10
686.835
 20
1499.14024
 30
0.0
 11
686.835
 21
1510.34024
 31
0.0
  0
LINE
  8
0
  6
CONTINUOUS
 62
     2
 10
707.635
 20
1486.010792361
 30
0.0
 11
707.635
 21
1469.210792361
 31
0.0
  0
LINE
  8
0
  6
CONTINUOUS
 62
     2
 10
549.235
 20
1495.54024
 30
0.0
 11
549.235
 21
1403.54024
 31
0.0
  0
LINE
  8
0
  6
CONTINUOUS
 62
     2
 10
889.235
 20
1499.54024
 30
0.0
 11
889.235
 21
1404.74024
 31
0.0
  0
LINE
  8
0
  6
CONTINUOUS
 62
     2
 10
707.635
 20
1473.210792361
 30
0.0
 11
707.635
 21
1436.74024
 31
0.0
  0
LINE
  8
0
  6
CONTINUOUS
 62
     2
 10
686.835
 20
1499.54024
 30
0.0
 11
686.835
 21
1463.94024
 31
0.0
  0
TEXT
  8
0
  6
CONTINUOUS
 62
     3
 10
591.035
 20
1501.54024
 30
0.0
 40
15.0
  1
ｍｉｎ．Ｌ
 50
0.0
 41
0.9
 51
0.0
  7
KANJI48
  0
TEXT
  8
0
  6
CONTINUOUS
 62
     3
 10
744.835
 20
1501.54024
 30
0.0
 40
15.0
  1
機械的ストローク
 50
0.0
 41
0.9
 51
0.0
  7
KANJI48
  0
TEXT
  8
0
  6
CONTINUOUS
 62
     3
 10
719.635
 20
1475.210792361
 30
0.0
 40
15.0
  1
余裕
 50
0.0
 41
0.9
 51
0.0
  7
KANJI48
  0
TEXT
  8
0
  6
CONTINUOUS
 62
     3
 10
601.435
 20
1447.94024
 30
0.0
 40
15.0
  1
常用ｍｉｎ
 50
0.0
 41
0.9
 51
0.0
  7
KANJI48
  0
TEXT
  8
0
  6
CONTINUOUS
 62
     3
 10
681.035
 20
1418.74024
 30
0.0
 40
15.0
  1
常用ｍａｘ
 50
0.0
 41
0.9
 51
0.0
  7
KANJI48
  0
TEXT
  8
0
  6
CONTINUOUS
 62
     3
 10
901.235
 20
1418.74024
 30
0.0
 40
15.0
  1
余裕
 50
0.0
 41
0.9
 51
0.0
  7
KANJI48
  0
LINE
  8
0
  6
CONTINUOUS
 62
     2
 10
707.635
 20
1473.210792361
 30
0.0
 11
747.735
 21
1473.210792361
 31
0.0
  0
LINE
  8
0
  6
CONTINUOUS
 62
     2
 10
889.235
 20
1416.74024
 30
0.0
 11
931.735
 21
1416.74024
 31
0.0
  0
LINE
  8
0
  6
CONTINUOUS
 62
     2
 10
866.835
 20
1458.74024
 30
0.0
 11
866.835
 21
1403.94024
 31
0.0
  0
LINE
  8
0
  6
CONTINUOUS
 62
     2
 10
707.635
 20
1445.94024
 30
0.0
 11
866.835
 21
1445.94024
 31
0.0
  0
LINE
  8
0
  6
CONTINUOUS
 62
     2
 10
866.835
 20
1445.94024
 30
0.0
 11
859.10759339
 21
1448.010792361
 31
0.0
  0
LINE
  8
0
  6
CONTINUOUS
 62
     2
 10
866.835
 20
1445.94024
 30
0.0
 11
859.10759339
 21
1443.869687639
 31
0.0
  0
TEXT
  8
0
  6
CONTINUOUS
 62
     3
 10
747.635
 20
1447.94024
 30
0.0
 40
15.0
  1
常用ストローク
 50
0.0
 41
0.9
 51
0.0
  7
KANJI48
  0
LINE
  8
0
  6
CONTINUOUS
 62
     1
 10
1743.472857143
 20
785.356014893
 30
0.0
 11
1743.472857143
 21
906.032152865
 31
0.0
  0
LINE
  8
0
  6
CONTINUOUS
 62
     1
 10
1743.472857143
 20
665.257142857
 30
0.0
 11
1743.472857143
 21
723.158270821
 31
0.0
  0
LINE
  8
0
  6
CONTINUOUS
 62
     1
 10
1728.472857143
 20
786.454886929
 30
0.0
 11
1728.472857143
 21
826.257142857
 31
0.0
  0
LINE
  8
0
  6
CONTINUOUS
 62
     1
 10
1728.472857143
 20
682.257142857
 30
0.0
 11
1728.472857143
 21
722.059398785
 31
0.0
  0
LINE
  8
0
  6
CONTINUOUS
 62
     1
 10
1758.472857143
 20
724.257142857
 30
0.0
 11
1758.472857143
 21
784.257142857
 31
0.0
  0
LINE
  8
0
  6
CONTINUOUS
 62
     1
 10
1715.759271549
 20
787.386260508
 30
0.0
 11
1758.472857143
 21
784.257142857
 31
0.0
  0
LINE
  8
0
  6
CONTINUOUS
 62
     1
 10
1758.472857143
 20
724.257142857
 30
0.0
 11
1715.759271549
 21
721.128025206
 31
0.0
  0
LINE
  8
0
  6
CONTINUOUS
 62
     1
 10
1538.472857143
 20
724.257142857
 30
0.0
 11
1538.472857143
 21
784.257142857
 31
0.0
  0
LINE
  8
0
  6
CONTINUOUS
 62
     1
 10
1581.186442736
 20
787.386260508
 30
0.0
 11
1538.472857143
 21
784.257142857
 31
0.0
  0
LINE
  8
0
  6
CONTINUOUS
 62
     1
 10
1538.472857143
 20
724.257142857
 30
0.0
 11
1581.186442736
 21
721.128025206
 31
0.0
  0
LINE
  8
0
  6
LTYPE5
 62
     2
 10
1648.472857143
 20
620.907142857
 30
0.0
 11
1648.472857143
 21
1087.457142857
 31
0.0
  0
LINE
  8
0
  6
CONTINUOUS
 62
     1
 10
1553.472857143
 20
785.356014893
 30
0.0
 11
1553.472857143
 21
909.032152865
 31
0.0
  0
LINE
  8
0
  6
CONTINUOUS
 62
     1
 10
1553.472857143
 20
665.257142857
 30
0.0
 11
1553.472857143
 21
723.158270821
 31
0.0
  0
LINE
  8
0
  6
CONTINUOUS
 62
     1
 10
1568.472857143
 20
786.454886929
 30
0.0
 11
1568.472857143
 21
826.257142857
 31
0.0
  0
LINE
  8
0
  6
CONTINUOUS
 62
     1
 10
1568.472857143
 20
682.257142857
 30
0.0
 11
1568.472857143
 21
722.059398785
 31
0.0
  0
LINE
  8
0
  6
CONTINUOUS
 62
     1
 10
674.472857543
 20
633.257142857
 30
0.0
 11
684.472857543
 21
633.257142857
 31
0.0
  0
LINE
  8
0
  6
LTYPE3
 62
     2
 10
679.472857543
 20
638.257142857
 30
0.0
 11
679.472857543
 21
627.557142857
 31
0.0
  0
ARC
  8
0
  6
CONTINUOUS
 62
     1
 10
679.472857543
 20
634.157142857
 30
0.0
 40
5.1
 50
189.9
 51
350.1
  0
LINE
  8
0
  6
LTYPE3
 62
     2
 10
568.472857543
 20
638.257142857
 30
0.0
 11
568.472857543
 21
627.557142857
 31
0.0
  0
ARC
  8
0
  6
CONTINUOUS
 62
     1
 10
568.472857543
 20
634.157142857
 30
0.0
 40
5.1
 50
189.9
 51
350.1
  0
LINE
  8
0
  6
CONTINUOUS
 62
     1
 10
1598.472857143
 20
633.257142857
 30
0.0
 11
1608.472857143
 21
633.257142857
 31
0.0
  0
LINE
  8
0
  6
LTYPE3
 62
     2
 10
1603.472857143
 20
638.257142857
 30
0.0
 11
1603.472857143
 21
627.557142857
 31
0.0
  0
ARC
  8
0
  6
CONTINUOUS
 62
     1
 10
1603.472857143
 20
634.157142857
 30
0.0
 40
5.1
 50
189.9
 51
350.1
  0
ARC
  8
0
  6
CONTINUOUS
 62
     1
 10
1693.472857143
 20
634.157142857
 30
0.0
 40
5.1
 50
189.9
 51
350.1
  0
LINE
  8
0
  6
CONTINUOUS
 62
     1
 10
1698.472857143
 20
633.257142857
 30
0.0
 11
1688.472857143
 21
633.257142857
 31
0.0
  0
LINE
  8
0
  6
CONTINUOUS
 62
     2
 10
1304.306666267
 20
1088.016651867
 30
0.0
 11
1292.232593438
 21
1091.25188993
 31
0.0
  0
LINE
  8
0
  6
CONTINUOUS
 62
     2
 10
1304.306666267
 20
1088.016651867
 30
0.0
 11
1292.232593438
 21
1084.781413803
 31
0.0
  0
LINE
  8
0
  6
CONTINUOUS
 62
     2
 10
1304.306666267
 20
1088.016651867
 30
0.0
 11
1263.306666267
 21
1088.016651867
 31
0.0
  0
TEXT
  8
0
  6
CONTINUOUS
 62
     3
 10
1270.306666267
 20
1098.016651867
 30
0.0
 40
20.0
  1
前進
 50
0.0
 41
0.925
 51
0.0
  7
KANJI47
  0
LINE
  8
0
  6
CONTINUOUS
 62
     2
 10
2192.66
 20
1052.89
 30
0.0
 11
2805.16
 21
1052.89
 31
0.0
  0
LINE
  8
0
  6
CONTINUOUS
 62
     2
 10
2192.66
 20
1003.89
 30
0.0
 11
2805.16
 21
1003.89
 31
0.0
  0
LINE
  8
0
  6
CONTINUOUS
 62
     2
 10
2248.66
 20
1444.89
 30
0.0
 11
2248.66
 21
1052.89
 31
0.0
  0
TEXT
  8
0
  6
CONTINUOUS
 62
     2
 10
2231.16
 20
1016.49
 30
93.29
 40
26.6
  1
付属品
 50
0.0
 41
0.9
 51
0.0
  7
KANJI49
  0
TEXT
  8
0
  6
CONTINUOUS
 62
     2
 10
2231.16
 20
967.49
 30
210.52
 40
26.6
  1
台数
 50
0.0
 41
0.9
 51
0.0
  7
KANJI50
  0
LINE
  8
0
  6
CONTINUOUS
 62
     1
 10
2192.66
 20
1906.89
 30
0.0
 11
2805.16
 21
1906.89
 31
0.0
  0
TEXT
  8
0
  6
CONTINUOUS
 62
     2
 10
2280.16
 20
1855.79
 30
19.94958
 40
31.5
  1
マイティシリンダ仕様
 50
0.0
 41
0.9
 51
0.0
  7
KANJI51
  0
LINE
  8
0
  6
CONTINUOUS
 62
     2
 10
2248.66
 20
1101.89
 30
0.0
 11
2805.16
 21
1101.89
 31
0.0
  0
LINE
  8
0
  6
CONTINUOUS
 62
     2
 10
2248.66
 20
1248.89
 30
0.0
 11
2805.16
 21
1248.89
 31
0.0
  0
LINE
  8
0
  6
CONTINUOUS
 62
     2
 10
2248.66
 20
1297.89
 30
0.0
 11
2805.16
 21
1297.89
 31
0.0
  0
LINE
  8
0
  6
CONTINUOUS
 62
     2
 10
2192.66
 20
1542.89
 30
0.0
 11
2805.16
 21
1542.89
 31
0.0
  0
LINE
  8
0
  6
CONTINUOUS
 62
     2
 10
2192.66
 20
1493.89
 30
0.0
 11
2805.16
 21
1493.89
 31
0.0
  0
LINE
  8
0
  6
CONTINUOUS
 62
     2
 10
2192.66
 20
1444.89
 30
0.0
 11
2805.16
 21
1444.89
 31
0.0
  0
LINE
  8
0
  6
CONTINUOUS
 62
     2
 10
2248.66
 20
1346.89
 30
0.0
 11
2805.16
 21
1346.89
 31
0.0
  0
LINE
  8
0
  6
CONTINUOUS
 62
     2
 10
2248.66
 20
1395.89
 30
0.0
 11
2805.16
 21
1395.89
 31
0.0
  0
LINE
  8
0
  6
CONTINUOUS
 62
     2
 10
2192.66
 20
1787.89
 30
0.0
 11
2805.16
 21
1787.89
 31
0.0
  0
LINE
  8
0
  6
CONTINUOUS
 62
     2
 10
2192.66
 20
1738.89
 30
0.0
 11
2805.16
 21
1738.89
 31
0.0
  0
LINE
  8
0
  6
CONTINUOUS
 62
     2
 10
2192.66
 20
1689.89
 30
0.0
 11
2805.16
 21
1689.89
 31
0.0
  0
LINE
  8
0
  6
CONTINUOUS
 62
     2
 10
2192.66
 20
1640.89
 30
0.0
 11
2805.16
 21
1640.89
 31
0.0
  0
LINE
  8
0
  6
CONTINUOUS
 62
     2
 10
2192.66
 20
1591.89
 30
0.0
 11
2805.16
 21
1591.89
 31
0.0
  0
LINE
  8
0
  6
CONTINUOUS
 62
     2
 10
2192.66
 20
1836.89
 30
0.0
 11
2805.16
 21
1836.89
 31
0.0
  0
TEXT
  8
0
  6
CONTINUOUS
 62
     2
 10
2280.16
 20
1359.49
 30
39.01308
 40
26.6
  1
電源電圧
 50
0.0
 41
0.9
 51
0.0
  7
KANJI52
  0
TEXT
  8
0
  6
CONTINUOUS
 62
     2
 10
2280.16
 20
1310.49
 30
70.49
 40
26.6
  1
周波数
 50
0.0
 41
0.9
 51
0.0
  7
KANJI53
  0
TEXT
  8
0
  6
CONTINUOUS
 62
     2
 10
2280.16
 20
1261.49
 30
164.92
 40
26.6
  1
電流
 50
0.0
 41
0.9
 51
0.0
  7
KANJI54
  0
TEXT
  8
0
  6
CONTINUOUS
 62
     2
 10
2280.16
 20
1212.49
 30
70.49
 40
26.6
  1
絶縁級
 50
0.0
 41
0.9
 51
0.0
  7
KANJI53
  0
TEXT
  8
0
  6
CONTINUOUS
 62
     2
 10
2231.16
 20
1800.49
 30
210.52
 40
26.6
  1
形式
 50
0.0
 41
0.9
 51
0.0
  7
KANJI50
  0
TEXT
  8
0
  6
CONTINUOUS
 62
     2
 10
2231.16
 20
1751.49
 30
210.52
 40
26.6
  1
推力
 50
0.0
 41
0.9
 51
0.0
  7
KANJI50
  0
TEXT
  8
0
  6
CONTINUOUS
 62
     2
 10
2231.16
 20
1702.49
 30
34.675
 40
26.6
  1
ストローク
 50
0.0
 41
0.9
 51
0.0
  7
KANJI55
  0
TEXT
  8
0
  6
CONTINUOUS
 62
     2
 10
2231.16
 20
1555.49
 30
210.52
 40
26.6
  1
構造
 50
0.0
 41
0.9
 51
0.0
  7
KANJI50
  0
TEXT
  8
0
  6
CONTINUOUS
 62
     2
 10
2231.16
 20
1506.49
 30
15.13616
 40
26.6
  1
過負荷安全装置
 50
0.0
 41
0.9
 51
0.0
  7
KANJI56
  0
TEXT
  8
0
  6
CONTINUOUS
 62
     2
 10
2231.16
 20
1457.49
 30
93.29
 40
26.6
  1
塗装色
 50
0.0
 41
0.9
 51
0.0
  7
KANJI49
  0
TEXT
  8
0
  6
CONTINUOUS
 62
     2
 10
2203.16
 20
1604.49
 30
2.28
 40
26.6
  1
ピストンロッド回転トルク
 50
0.0
 41
0.9
 51
0.0
  7
KANJI57
  0
LINE
  8
0
  6
CONTINUOUS
 62
     2
 10
2192.66
 20
1199.89
 30
0.0
 11
2805.16
 21
1199.89
 31
0.0
  0
LINE
  8
0
  6
CONTINUOUS
 62
     2
 10
2248.66
 20
1150.89
 30
0.0
 11
2805.16
 21
1150.89
 31
0.0
  0
TEXT
  8
0
  6
CONTINUOUS
 62
     2
 10
2221.185
 20
1437.89
 30
15.4
 40
24.5
  1
モ　トル仕様
 50
0.0
 41
0.9
 51
0.0
  7
KANJI58
  0
TEXT
  8
0
  6
CONTINUOUS
 62
     2
 10
2221.185
 20
1178.89
 30
1.4
 40
24.5
  1
ブレ　キ
 50
0.0
 41
0.9
 51
0.0
  7
KANJI59
  0
LINE
  8
0
  6
CONTINUOUS
 62
     2
 10
2219.26
 20
1120.79
 30
0.0
 11
2219.26
 21
1106.09
 31
0.0
  0
TEXT
  8
0
  6
CONTINUOUS
 62
     2
 10
2582.91
 20
1507.89
 30
10.5
 40
24.5
  1
推力リミッタ
 50
0.0
 41
0.9
 51
0.0
  7
KANJI60
  0
TEXT
  8
0
  6
CONTINUOUS
 62
     2
 10
2649.41
 20
1213.89
 30
2.1
 40
21.0
  1
Ｅ
 50
0.0
 41
0.9
 51
0.0
  7
KANJI61
  0
TEXT
  8
0
  6
CONTINUOUS
 62
     2
 10
2598.66
 20
1114.49
 30
14.0
 40
24.5
  1
同時切り
 50
0.0
 41
0.9
 51
0.0
  7
KANJI62
  0
TEXT
  8
0
  6
CONTINUOUS
 62
     2
 10
2280.16
 20
1163.49
 30
164.92
 40
26.6
  1
形式
 50
0.0
 41
0.9
 51
0.0
  7
KANJI54
  0
TEXT
  8
0
  6
CONTINUOUS
 62
     2
 10
2280.16
 20
1114.49
 30
39.01308
 40
26.6
  1
操作方式
 50
0.0
 41
0.9
 51
0.0
  7
KANJI52
  0
LINE
  8
0
  6
CONTINUOUS
 62
     2
 10
2219.26
 20
1395.19
 30
0.0
 11
2219.26
 21
1379.09
 31
0.0
  0
TEXT
  8
0
  6
CONTINUOUS
 62
     2
 10
2280.16
 20
1408.49
 30
3.5
 40
26.6
  1
出力　相数　極数
 50
0.0
 41
0.9
 51
0.0
  7
KANJI63
  0
TEXT
  8
0
  6
CONTINUOUS
 62
     2
 10
2231.16
 20
1653.49
 30
14.0
 40
26.6
  1
公称速度
 50
0.0
 41
0.9
 51
0.0
  7
KANJI64
  0
TEXT
  8
0
  6
CONTINUOUS
 62
     2
 10
2375.71
 20
1652.09
 30
0.0
 40
24.5
  1
（５０／６０Ｈｚ）
 50
0.0
 41
0.628571429
 51
0.0
  7
KANJI65
  0
TEXT
  8
0
  6
CONTINUOUS
 62
     2
 10
2516.41
 20
1164.015
 30
3.85
 40
23.8
  1
スプリング制動式電磁ブレーキ
 50
0.0
 41
0.705882353
 51
0.0
  7
KANJI66
  0
TEXT
  8
0
  6
CONTINUOUS
 62
     2
 10
2771.91
 20
1359.49
 30
0.252
 40
21.0
  1
Ｖ
 50
0.0
 41
0.8
 51
0.0
  7
KANJI67
  0
TEXT
  8
0
  6
CONTINUOUS
 62
     2
 10
2759.31
 20
1310.49
 30
0.252
 40
21.0
  1
Ｈｚ
 50
0.0
 41
0.8
 51
0.0
  7
KANJI67
  0
TEXT
  8
0
  6
CONTINUOUS
 62
     2
 10
2771.91
 20
1261.49
 30
0.252
 40
21.0
  1
Ａ
 50
0.0
 41
0.8
 51
0.0
  7
KANJI67
  0
TEXT
  8
0
  6
CONTINUOUS
 62
     2
 10
2679.86
 20
1409.89
 30
2.1
 40
21.0
  1
３φ
 50
0.0
 41
0.9
 51
0.0
  7
KANJI61
  0
TEXT
  8
0
  6
CONTINUOUS
 62
     2
 10
2749.86
 20
1409.89
 30
2.1
 40
21.0
  1
４Ｐ
 50
0.0
 41
0.9
 51
0.0
  7
KANJI61
  0
TEXT
  8
0
  6
CONTINUOUS
 62
     2
 10
2514.66
 20
1458.89
 30
1.4
 40
22.4
  1
マンセル　７．５ＧＹ　５／４．５
 50
0.0
 41
0.71875
 51
0.0
  7
KANJI68
  0
TEXT
  8
0
  6
CONTINUOUS
 62
     2
 10
2514.66
 20
1360.89
 30
2.1
 40
21.0
  1
　　　　　　　／　　　
 50
0.0
 41
0.9
 51
0.0
  7
KANJI61
  0
TEXT
  8
0
  6
CONTINUOUS
 62
     2
 10
2514.66
 20
1311.89
 30
2.1
 40
21.0
  1
　　　　５０／　６０
 50
0.0
 41
0.9
 51
0.0
  7
KANJI61
  0
TEXT
  8
0
  6
CONTINUOUS
 62
     2
 10
2514.66
 20
1262.89
 30
2.1
 40
21.0
  1
　　　　　　　／　　　
 50
0.0
 41
0.9
 51
0.0
  7
KANJI61
  0
TEXT
  8
0
  6
CONTINUOUS
 62
     2
 10
2753.36
 20
1705.29
 30
0.1792
 40
22.4
  1
ｍｍ
 50
0.0
 41
0.8
 51
0.0
  7
KANJI69
  0
TEXT
  8
0
  6
CONTINUOUS
 62
     2
 10
2707.86
 20
1654.89
 30
0.0
 40
24.5
  1
ｍｍ／ｓｅｃ
 50
0.0
 41
0.571428571
 51
0.0
  7
KANJI70
  0
TEXT
  8
0
  6
CONTINUOUS
 62
     2
 10
2565.76
 20
1752.89
 30
2.1
 40
21.0
  1
３９．２ＫＮ（４ｔｏｎ）
 50
0.0
 41
0.9
 51
0.0
  7
KANJI61
  0
TEXT
  8
0
  6
CONTINUOUS
 62
     2
 10
2518.16
 20
1654.89
 30
2.1
 40
21.0
  1
　２５／３０
 50
0.0
 41
0.9
 51
0.0
  7
KANJI61
  0
TEXT
  8
0
  6
CONTINUOUS
 62
     2
 10
2521.66
 20
1409.89
 30
2.1
 40
21.0
  1
　１．５ＫＷ
 50
0.0
 41
0.9
 51
0.0
  7
KANJI61
  0
TEXT
  8
0
  6
CONTINUOUS
 62
     2
 10
2530.41
 20
1799.44
 30
1.4
 40
21.0
  1
ＭＣＬＥ４－　Ｊ
 50
0.0
 41
0.833333333
 51
0.0
  7
KANJI71
  0
TEXT
  8
0
  6
CONTINUOUS
 62
     2
 10
2582.91
 20
1556.89
 30
10.5
 40
24.5
  1
全閉屋外形
 50
0.0
 41
0.9
 51
0.0
  7
KANJI60
  0
TEXT
  8
0
  6
CONTINUOUS
 62
     2
 10
2532.16
 20
1605.89
 30
0.0
 40
21.0
  1
　７８Ｎ・ｍ（８ｋｇ・ｍ）
 50
0.0
 41
0.833333333
 51
0.0
  7
KANJI72
  0
LINE
  8
0
  6
CONTINUOUS
 62
     2
 10
2192.66
 20
954.89
 30
0.0
 11
2805.16
 21
954.89
 31
0.0
  0
LINE
  8
0
  6
CONTINUOUS
 62
     1
 10
2192.66
 20
905.89
 30
0.0
 11
2805.16
 21
905.89
 31
0.0
  0
TEXT
  8
0
  6
CONTINUOUS
 62
     2
 10
2748.285
 20
915.515
 30
0.0
 40
28.0
  1
ｋｇ
 50
0.0
 41
1.0
 51
0.0
  7
KANJI73
  0
LINE
  8
0
  6
CONTINUOUS
 62
     1
 10
2192.66
 20
1906.89
 30
0.0
 11
2192.66
 21
905.89
 31
0.0
  0
LINE
  8
0
  6
CONTINUOUS
 62
     2
 10
2514.66
 20
1836.89
 30
0.0
 11
2514.66
 21
905.89
 31
0.0
  0
LINE
  8
0
  6
CONTINUOUS
 62
     1
 10
2805.16
 20
1906.89
 30
0.0
 11
2805.16
 21
905.89
 31
0.0
  0
TEXT
  8
0
  6
CONTINUOUS
 62
     2
 10
1448.4367719
 20
182.6899958
 30
0.0
 40
21.0
  1
０８．０４．０９　岡田　回路図追記
 50
0.0
 41
0.9
 51
0.0
  7
KANJI16
  0
TEXT
  8
0
  6
CONTINUOUS
 62
     2
 10
2231.16
 20
918.49
 30
3.5
 40
26.6
  1
概算重量（１台当り）
 50
0.0
 41
0.9
 51
0.0
  7
KANJI74
  0
LINE
  8
0
  6
CONTINUOUS
 62
     1
 10
398.372857143
 20
832.257142857
 30
0.0
 11
398.372857143
 21
762.257142857
 31
0.0
  0
TEXT
  8
0
  6
CONTINUOUS
 62
     2
 10
403.372857143
 20
821.257142857
 30
5.0
 40
20.0
  1
銘板
 50
270.0
 41
0.925
 51
0.0
  7
KANJI75
  0
LINE
  8
0
  6
CONTINUOUS
 62
     1
 10
441.372857143
 20
832.257142857
 30
0.0
 11
398.372857143
 21
832.257142857
 31
0.0
  0
LINE
  8
0
  6
CONTINUOUS
 62
     1
 10
441.372857143
 20
762.257142857
 30
0.0
 11
398.372857143
 21
762.257142857
 31
0.0
  0
LINE
  8
0
  6
CONTINUOUS
 62
     1
 10
441.372857143
 20
832.257142857
 30
0.0
 11
441.372857143
 21
762.257142857
 31
0.0
  0
ENDSEC
  0
EOF
