  0
SECTION
  2
HEADER
  9
$ACADVER
  1
AC1009
  9
$DWGCODEPAGE
  3
dos932
  9
$EXTMIN
 10
0.0
 20
0.0
 30
0.0
  9
$EXTMAX
 10
2520.0
 20
1782.0
 30
0.0
  9
$LIMMIN
 10
0.0
 20
0.0
  9
$LIMMAX
 10
2520.0
 20
1782.0
  9
$LTSCALE
 40
1.0
  9
$PDMODE
 70
     0
  0
ENDSEC
  0
SECTION
  2
TABLES
  0
TABLE
  2
VPORT
 70
     1
  0
VPORT
  2
*ACTIVE
 70
     0
 10
0.0
 20
0.0
 11
1.0
 21
1.0
 12
1260.0
 22
891.0
 13
0.0
 23
0.0
 14
10.0
 24
10.0
 15
10.0
 25
10.0
 16
0.0
 26
0.0
 36
1.0
 17
0.0
 27
0.0
 37
0.0
 40
2520.0
 41
1.414141414
 42
50.0
 43
0.0
 44
0.0
 50
0.0
 51
0.0
 71
     0
 72
  1000
 73
     1
 74
     3
 75
     0
 76
     0
 77
     0
 78
     0
  0
ENDTAB
  0
TABLE
  2
LTYPE
 70
     6
  0
LTYPE
  2
CONTINUOUS
 70
    64
  3
Solid line
 72
    65
 73
     0
 40
0.0
  0
LTYPE
  2
LTYPE1
 70
    64
  3
HIDDEN
 72
    65
 73
     2
 40
18.0
 49
10.8
 49
-7.2
  0
LTYPE
  2
LTYPE2
 70
    64
  3
CENTER
 72
    65
 73
     4
 40
60.0
 49
42.0
 49
-6.0
 49
6.0
 49
-6.0
  0
LTYPE
  2
LTYPE3
 70
    64
  3
CENTER
 72
    65
 73
     4
 40
90.0
 49
63.0
 49
-9.0
 49
9.0
 49
-9.0
  0
LTYPE
  2
LTYPE4
 70
    64
  3
CENTER
 72
    65
 73
     4
 40
120.0
 49
84.0
 49
-12.0
 49
12.0
 49
-12.0
  0
LTYPE
  2
LTYPE5
 70
    64
  3
CENTER
 72
    65
 73
     4
 40
54.0
 49
37.8
 49
-5.4
 49
5.4
 49
-5.4
  0
ENDTAB
  0
TABLE
  2
LAYER
 70
   128
  0
LAYER
  2
0
 70
     0
 62
     7
  6
CONTINUOUS
  0
LAYER
  2
2
 70
     0
 62
     7
  6
CONTINUOUS
  0
LAYER
  2
3
 70
     0
 62
     7
  6
CONTINUOUS
  0
LAYER
  2
4
 70
     0
 62
     7
  6
CONTINUOUS
  0
LAYER
  2
5
 70
     0
 62
     7
  6
CONTINUOUS
  0
LAYER
  2
6
 70
     0
 62
     7
  6
CONTINUOUS
  0
LAYER
  2
7
 70
     0
 62
     7
  6
CONTINUOUS
  0
LAYER
  2
8
 70
     0
 62
     7
  6
CONTINUOUS
  0
LAYER
  2
9
 70
     0
 62
     7
  6
CONTINUOUS
  0
LAYER
  2
10
 70
     0
 62
     7
  6
CONTINUOUS
  0
LAYER
  2
11
 70
     0
 62
     7
  6
CONTINUOUS
  0
LAYER
  2
12
 70
     0
 62
     7
  6
CONTINUOUS
  0
LAYER
  2
13
 70
     0
 62
     7
  6
CONTINUOUS
  0
LAYER
  2
14
 70
     0
 62
     7
  6
CONTINUOUS
  0
LAYER
  2
15
 70
     0
 62
     7
  6
CONTINUOUS
  0
LAYER
  2
16
 70
     0
 62
     7
  6
CONTINUOUS
  0
LAYER
  2
17
 70
     0
 62
     7
  6
CONTINUOUS
  0
LAYER
  2
18
 70
     0
 62
     7
  6
CONTINUOUS
  0
LAYER
  2
19
 70
     0
 62
     7
  6
CONTINUOUS
  0
LAYER
  2
20
 70
     0
 62
     7
  6
CONTINUOUS
  0
LAYER
  2
21
 70
     0
 62
     7
  6
CONTINUOUS
  0
LAYER
  2
22
 70
     0
 62
     7
  6
CONTINUOUS
  0
LAYER
  2
23
 70
     0
 62
     7
  6
CONTINUOUS
  0
LAYER
  2
24
 70
     0
 62
     7
  6
CONTINUOUS
  0
LAYER
  2
25
 70
     0
 62
     7
  6
CONTINUOUS
  0
LAYER
  2
26
 70
     0
 62
     7
  6
CONTINUOUS
  0
LAYER
  2
27
 70
     0
 62
     7
  6
CONTINUOUS
  0
LAYER
  2
28
 70
     0
 62
     7
  6
CONTINUOUS
  0
LAYER
  2
29
 70
     0
 62
     7
  6
CONTINUOUS
  0
LAYER
  2
30
 70
     0
 62
     7
  6
CONTINUOUS
  0
LAYER
  2
31
 70
     0
 62
     7
  6
CONTINUOUS
  0
LAYER
  2
32
 70
     0
 62
     7
  6
CONTINUOUS
  0
LAYER
  2
33
 70
     0
 62
     7
  6
CONTINUOUS
  0
LAYER
  2
34
 70
     0
 62
     7
  6
CONTINUOUS
  0
LAYER
  2
35
 70
     0
 62
     7
  6
CONTINUOUS
  0
LAYER
  2
36
 70
     0
 62
     7
  6
CONTINUOUS
  0
LAYER
  2
37
 70
     0
 62
     7
  6
CONTINUOUS
  0
LAYER
  2
38
 70
     0
 62
     7
  6
CONTINUOUS
  0
LAYER
  2
39
 70
     0
 62
     7
  6
CONTINUOUS
  0
LAYER
  2
40
 70
     0
 62
     7
  6
CONTINUOUS
  0
LAYER
  2
41
 70
     0
 62
     7
  6
CONTINUOUS
  0
LAYER
  2
42
 70
     0
 62
     7
  6
CONTINUOUS
  0
LAYER
  2
43
 70
     0
 62
     7
  6
CONTINUOUS
  0
LAYER
  2
44
 70
     0
 62
     7
  6
CONTINUOUS
  0
LAYER
  2
45
 70
     0
 62
     7
  6
CONTINUOUS
  0
LAYER
  2
46
 70
     0
 62
     7
  6
CONTINUOUS
  0
LAYER
  2
47
 70
     0
 62
     7
  6
CONTINUOUS
  0
LAYER
  2
48
 70
     0
 62
     7
  6
CONTINUOUS
  0
LAYER
  2
49
 70
     0
 62
     7
  6
CONTINUOUS
  0
LAYER
  2
50
 70
     0
 62
     7
  6
CONTINUOUS
  0
LAYER
  2
51
 70
     0
 62
     7
  6
CONTINUOUS
  0
LAYER
  2
52
 70
     0
 62
     7
  6
CONTINUOUS
  0
LAYER
  2
53
 70
     0
 62
     7
  6
CONTINUOUS
  0
LAYER
  2
54
 70
     0
 62
     7
  6
CONTINUOUS
  0
LAYER
  2
55
 70
     0
 62
     7
  6
CONTINUOUS
  0
LAYER
  2
56
 70
     0
 62
     7
  6
CONTINUOUS
  0
LAYER
  2
57
 70
     0
 62
     7
  6
CONTINUOUS
  0
LAYER
  2
58
 70
     0
 62
     7
  6
CONTINUOUS
  0
LAYER
  2
59
 70
     0
 62
     7
  6
CONTINUOUS
  0
LAYER
  2
60
 70
     0
 62
     7
  6
CONTINUOUS
  0
LAYER
  2
61
 70
     0
 62
     7
  6
CONTINUOUS
  0
LAYER
  2
62
 70
     0
 62
     7
  6
CONTINUOUS
  0
LAYER
  2
63
 70
     0
 62
     7
  6
CONTINUOUS
  0
LAYER
  2
64
 70
     0
 62
     7
  6
CONTINUOUS
  0
LAYER
  2
65
 70
     0
 62
     7
  6
CONTINUOUS
  0
LAYER
  2
66
 70
     0
 62
     7
  6
CONTINUOUS
  0
LAYER
  2
67
 70
     0
 62
     7
  6
CONTINUOUS
  0
LAYER
  2
68
 70
     0
 62
     7
  6
CONTINUOUS
  0
LAYER
  2
69
 70
     0
 62
     7
  6
CONTINUOUS
  0
LAYER
  2
70
 70
     0
 62
     7
  6
CONTINUOUS
  0
LAYER
  2
71
 70
     0
 62
     7
  6
CONTINUOUS
  0
LAYER
  2
72
 70
     0
 62
     7
  6
CONTINUOUS
  0
LAYER
  2
73
 70
     0
 62
     7
  6
CONTINUOUS
  0
LAYER
  2
74
 70
     0
 62
     7
  6
CONTINUOUS
  0
LAYER
  2
75
 70
     0
 62
     7
  6
CONTINUOUS
  0
LAYER
  2
76
 70
     0
 62
     7
  6
CONTINUOUS
  0
LAYER
  2
77
 70
     0
 62
     7
  6
CONTINUOUS
  0
LAYER
  2
78
 70
     0
 62
     7
  6
CONTINUOUS
  0
LAYER
  2
79
 70
     0
 62
     7
  6
CONTINUOUS
  0
LAYER
  2
80
 70
     0
 62
     7
  6
CONTINUOUS
  0
LAYER
  2
81
 70
     0
 62
     7
  6
CONTINUOUS
  0
LAYER
  2
82
 70
     0
 62
     7
  6
CONTINUOUS
  0
LAYER
  2
83
 70
     0
 62
     7
  6
CONTINUOUS
  0
LAYER
  2
84
 70
     0
 62
     7
  6
CONTINUOUS
  0
LAYER
  2
85
 70
     0
 62
     7
  6
CONTINUOUS
  0
LAYER
  2
86
 70
     0
 62
     7
  6
CONTINUOUS
  0
LAYER
  2
87
 70
     0
 62
     7
  6
CONTINUOUS
  0
LAYER
  2
88
 70
     0
 62
     7
  6
CONTINUOUS
  0
LAYER
  2
89
 70
     0
 62
     7
  6
CONTINUOUS
  0
LAYER
  2
90
 70
     0
 62
     7
  6
CONTINUOUS
  0
LAYER
  2
91
 70
     0
 62
     7
  6
CONTINUOUS
  0
LAYER
  2
92
 70
     0
 62
     7
  6
CONTINUOUS
  0
LAYER
  2
93
 70
     0
 62
     7
  6
CONTINUOUS
  0
LAYER
  2
94
 70
     0
 62
     7
  6
CONTINUOUS
  0
LAYER
  2
95
 70
     0
 62
     7
  6
CONTINUOUS
  0
LAYER
  2
96
 70
     0
 62
     7
  6
CONTINUOUS
  0
LAYER
  2
97
 70
     0
 62
     7
  6
CONTINUOUS
  0
LAYER
  2
98
 70
     0
 62
     7
  6
CONTINUOUS
  0
LAYER
  2
99
 70
     0
 62
     7
  6
CONTINUOUS
  0
LAYER
  2
100
 70
     0
 62
     7
  6
CONTINUOUS
  0
LAYER
  2
101
 70
     0
 62
     7
  6
CONTINUOUS
  0
LAYER
  2
102
 70
     0
 62
     7
  6
CONTINUOUS
  0
LAYER
  2
103
 70
     0
 62
     7
  6
CONTINUOUS
  0
LAYER
  2
104
 70
     0
 62
     7
  6
CONTINUOUS
  0
LAYER
  2
105
 70
     0
 62
     7
  6
CONTINUOUS
  0
LAYER
  2
106
 70
     0
 62
     7
  6
CONTINUOUS
  0
LAYER
  2
107
 70
     0
 62
     7
  6
CONTINUOUS
  0
LAYER
  2
108
 70
     0
 62
     7
  6
CONTINUOUS
  0
LAYER
  2
109
 70
     0
 62
     7
  6
CONTINUOUS
  0
LAYER
  2
110
 70
     0
 62
     7
  6
CONTINUOUS
  0
LAYER
  2
111
 70
     0
 62
     7
  6
CONTINUOUS
  0
LAYER
  2
112
 70
     0
 62
     7
  6
CONTINUOUS
  0
LAYER
  2
113
 70
     0
 62
     7
  6
CONTINUOUS
  0
LAYER
  2
114
 70
     0
 62
     7
  6
CONTINUOUS
  0
LAYER
  2
115
 70
     0
 62
     7
  6
CONTINUOUS
  0
LAYER
  2
116
 70
     0
 62
     7
  6
CONTINUOUS
  0
LAYER
  2
117
 70
     0
 62
     7
  6
CONTINUOUS
  0
LAYER
  2
118
 70
     0
 62
     7
  6
CONTINUOUS
  0
LAYER
  2
119
 70
     0
 62
     7
  6
CONTINUOUS
  0
LAYER
  2
120
 70
     0
 62
     7
  6
CONTINUOUS
  0
LAYER
  2
121
 70
     0
 62
     7
  6
CONTINUOUS
  0
LAYER
  2
122
 70
     0
 62
     7
  6
CONTINUOUS
  0
LAYER
  2
123
 70
     0
 62
     7
  6
CONTINUOUS
  0
LAYER
  2
124
 70
     0
 62
     7
  6
CONTINUOUS
  0
LAYER
  2
125
 70
     0
 62
     7
  6
CONTINUOUS
  0
LAYER
  2
126
 70
     0
 62
     7
  6
CONTINUOUS
  0
LAYER
  2
127
 70
     0
 62
     7
  6
CONTINUOUS
  0
LAYER
  2
128
 70
     0
 62
     7
  6
CONTINUOUS
  0
ENDTAB
  0
TABLE
  2
STYLE
 70
    82
  0
STYLE
  2
STANDARD
 70
     0
 40
0.0
 41
1.0
 50
0.0
 71
     0
 42
0.2
  3
txt.shx
  4
extfont.shx
  0
STYLE
  2
KANJI0
 70
     0
 40
15.5999988
 41
0.75
 50
0.0
 71
     0
 42
15.5999988
  3
txt.shx
  4
extfont.shx
  0
STYLE
  2
KANJI1
 70
     0
 40
11.999997477
 41
0.6
 50
0.0
 71
     0
 42
11.999997477
  3
txt.shx
  4
extfont.shx
  0
STYLE
  2
KANJI2
 70
     0
 40
14.399996972
 41
0.9
 50
0.0
 71
     0
 42
14.399996972
  3
txt.shx
  4
extfont.shx
  0
STYLE
  2
KANJI3
 70
     0
 40
17.999996215
 41
0.9
 50
0.0
 71
     0
 42
17.999996215
  3
txt.shx
  4
extfont.shx
  0
STYLE
  2
KANJI4
 70
     0
 40
10.3999992
 41
0.6
 50
0.0
 71
     0
 42
10.3999992
  3
txt.shx
  4
extfont.shx
  0
STYLE
  2
KANJI5
 70
     0
 40
12.47999904
 41
0.6
 50
0.0
 71
     0
 42
12.47999904
  3
txt.shx
  4
extfont.shx
  0
STYLE
  2
KANJI6
 70
     0
 40
18.1999986
 41
0.42031746
 50
0.0
 71
     0
 42
18.1999986
  3
txt.shx
  4
extfont.shx
  0
STYLE
  2
KANJI7
 70
     0
 40
31.1999976
 41
0.9
 50
0.0
 71
     0
 42
31.1999976
  3
txt.shx
  4
extfont.shx
  0
STYLE
  2
KANJI8
 70
     0
 40
21.6
 41
1.111111111
 50
0.0
 71
     0
 42
21.6
  3
txt.shx
  4
extfont.shx
  0
STYLE
  2
KANJI9
 70
     0
 40
10.3999992
 41
0.8
 50
0.0
 71
     0
 42
10.3999992
  3
txt.shx
  4
extfont.shx
  0
STYLE
  2
KANJI10
 70
     0
 40
12.47999904
 41
0.8
 50
0.0
 71
     0
 42
12.47999904
  3
txt.shx
  4
extfont.shx
  0
STYLE
  2
KANJI11
 70
     0
 40
30.0
 41
1.0
 50
0.0
 71
     0
 42
30.0
  3
txt.shx
  4
extfont.shx
  0
STYLE
  2
KANJI12
 70
     0
 40
30.0
 41
1.0
 50
0.0
 71
     0
 42
30.0
  3
txt.shx
  4
extfont.shx
  0
STYLE
  2
KANJI13
 70
     0
 40
30.0
 41
0.8
 50
0.0
 71
     0
 42
30.0
  3
txt.shx
  4
extfont.shx
  0
STYLE
  2
KANJI14
 70
     0
 40
24.0
 41
1.0
 50
0.0
 71
     0
 42
24.0
  3
txt.shx
  4
extfont.shx
  0
STYLE
  2
KANJI15
 70
     0
 40
21.0
 41
0.857142857
 50
0.0
 71
     0
 42
21.0
  3
txt.shx
  4
extfont.shx
  0
STYLE
  2
KANJI16
 70
     0
 40
27.0
 41
0.666666667
 50
0.0
 71
     0
 42
27.0
  3
txt.shx
  4
extfont.shx
  0
STYLE
  2
KANJI17
 70
     0
 40
13.86
 41
0.9
 50
0.0
 71
     0
 42
13.86
  3
txt.shx
  4
extfont.shx
  0
STYLE
  2
KANJI18
 70
     0
 40
18.0
 41
0.9
 50
0.0
 71
     0
 42
18.0
  3
txt.shx
  4
extfont.shx
  0
STYLE
  2
KANJI19
 70
     0
 40
21.0
 41
0.793650794
 50
0.0
 71
     0
 42
21.0
  3
txt.shx
  4
extfont.shx
  0
STYLE
  2
KANJI20
 70
     0
 40
30.0
 41
0.8
 50
0.0
 71
     0
 42
30.0
  3
txt.shx
  4
extfont.shx
  0
STYLE
  2
KANJI21
 70
     0
 40
24.0
 41
0.9
 50
0.0
 71
     0
 42
24.0
  3
txt.shx
  4
extfont.shx
  0
STYLE
  2
KANJI22
 70
     0
 40
21.0
 41
0.857142857
 50
0.0
 71
     0
 42
21.0
  3
txt.shx
  4
extfont.shx
  0
STYLE
  2
KANJI23
 70
     0
 40
12.0
 41
0.9
 50
0.0
 71
     0
 42
12.0
  3
txt.shx
  4
extfont.shx
  0
STYLE
  2
KANJI24
 70
     0
 40
18.0
 41
0.9
 50
0.0
 71
     0
 42
18.0
  3
txt.shx
  4
extfont.shx
  0
STYLE
  2
KANJI25
 70
     0
 40
15.36
 41
0.9
 50
0.0
 71
     0
 42
15.36
  3
txt.shx
  4
extfont.shx
  0
STYLE
  2
KANJI26
 70
     0
 40
14.4
 41
0.9
 50
0.0
 71
     0
 42
14.4
  3
txt.shx
  4
extfont.shx
  0
STYLE
  2
KANJI27
 70
     0
 40
14.4
 41
0.9
 50
0.0
 71
     0
 42
14.4
  3
txt.shx
  4
extfont.shx
  0
STYLE
  2
KANJI28
 70
     0
 40
16.8
 41
0.9
 50
0.0
 71
     0
 42
16.8
  3
txt.shx
  4
extfont.shx
  0
STYLE
  2
KANJI29
 70
     0
 40
12.96
 41
0.740740741
 50
0.0
 71
     0
 42
12.96
  3
txt.shx
  4
extfont.shx
  0
STYLE
  2
KANJI30
 70
     0
 40
16.8
 41
0.857142857
 50
0.0
 71
     0
 42
16.8
  3
txt.shx
  4
extfont.shx
  0
STYLE
  2
KANJI31
 70
     0
 40
10.0
 41
0.85
 50
0.0
 71
     0
 42
10.0
  3
txt.shx
  4
extfont.shx
  0
STYLE
  2
KANJI32
 70
     0
 40
10.0
 41
0.75
 50
0.0
 71
     0
 42
10.0
  3
txt.shx
  4
extfont.shx
  0
STYLE
  2
KANJI33
 70
     0
 40
15.0
 41
0.9
 50
0.0
 71
     0
 42
15.0
  3
txt.shx
  4
extfont.shx
  0
STYLE
  2
KANJI34
 70
     0
 40
18.0
 41
0.9
 50
0.0
 71
     0
 42
18.0
  3
txt.shx
  4
extfont.shx
  0
STYLE
  2
KANJI35
 70
     0
 40
18.0
 41
0.9
 50
0.0
 71
     0
 42
18.0
  3
txt.shx
  4
extfont.shx
  0
STYLE
  2
KANJI36
 70
     0
 40
18.0
 41
0.666666667
 50
0.0
 71
     0
 42
18.0
  3
txt.shx
  4
extfont.shx
  0
STYLE
  2
KANJI37
 70
     0
 40
20.0
 41
0.925
 50
0.0
 71
     0
 42
20.0
  3
txt.shx
  4
extfont.shx
  0
STYLE
  2
KANJI38
 70
     0
 40
21.0
 41
0.914285714
 50
0.0
 71
     0
 42
21.0
  3
txt.shx
  4
extfont.shx
  0
STYLE
  2
KANJI39
 70
     0
 40
20.0
 41
0.925
 50
0.0
 71
     0
 42
20.0
  3
txt.shx
  4
extfont.shx
  0
STYLE
  2
KANJI40
 70
     0
 40
14.4
 41
0.833333333
 50
0.0
 71
     0
 42
14.4
  3
txt.shx
  4
extfont.shx
  0
STYLE
  2
KANJI41
 70
     0
 40
13.182
 41
0.85
 50
0.0
 71
     0
 42
13.182
  3
txt.shx
  4
extfont.shx
  0
STYLE
  2
KANJI42
 70
     0
 40
11.661
 41
0.822608696
 50
0.0
 71
     0
 42
11.661
  3
txt.shx
  4
extfont.shx
  0
STYLE
  2
KANJI43
 70
     0
 40
11.8638
 41
0.726495726
 50
0.0
 71
     0
 42
11.8638
  3
txt.shx
  4
extfont.shx
  0
STYLE
  2
KANJI44
 70
     4
 40
45.0
 41
0.538166667
 50
0.0
 71
     0
 42
45.0
  3
txt.shx
  4
extfont.shx
  0
STYLE
  2
KANJI45
 70
     0
 40
17.740702234
 41
0.880962996
 50
0.0
 71
     0
 42
17.740702234
  3
txt.shx
  4
extfont.shx
  0
STYLE
  2
KANJI46
 70
     0
 40
11.7
 41
0.8
 50
0.0
 71
     0
 42
11.7
  3
txt.shx
  4
extfont.shx
  0
STYLE
  2
KANJI47
 70
     0
 40
15.0
 41
0.911
 50
0.0
 71
     0
 42
15.0
  3
txt.shx
  4
extfont.shx
  0
STYLE
  2
KANJI48
 70
     0
 40
10.933904043
 41
0.9
 50
0.0
 71
     0
 42
10.933904043
  3
txt.shx
  4
extfont.shx
  0
STYLE
  2
KANJI49
 70
     0
 40
15.185977837
 41
0.66671875
 50
0.0
 71
     0
 42
15.185977837
  3
txt.shx
  4
extfont.shx
  0
STYLE
  2
KANJI50
 70
     0
 40
18.223173404
 41
0.9
 50
0.0
 71
     0
 42
18.223173404
  3
txt.shx
  4
extfont.shx
  0
STYLE
  2
KANJI51
 70
     0
 40
14.578538724
 41
0.9
 50
0.0
 71
     0
 42
14.578538724
  3
txt.shx
  4
extfont.shx
  0
STYLE
  2
KANJI52
 70
     0
 40
15.6
 41
0.925
 50
0.0
 71
     0
 42
15.6
  3
txt.shx
  4
extfont.shx
  0
STYLE
  2
KANJI53
 70
     0
 40
16.17
 41
0.9
 50
0.0
 71
     0
 42
16.17
  3
txt.shx
  4
extfont.shx
  0
STYLE
  2
KANJI54
 70
     0
 40
21.0
 41
0.571428571
 50
0.0
 71
     0
 42
21.0
  3
txt.shx
  4
extfont.shx
  0
STYLE
  2
KANJI55
 70
     0
 40
22.8
 41
0.9
 50
0.0
 71
     0
 42
22.8
  3
txt.shx
  4
extfont.shx
  0
STYLE
  2
KANJI56
 70
     0
 40
22.8
 41
0.9
 50
0.0
 71
     0
 42
22.8
  3
txt.shx
  4
extfont.shx
  0
STYLE
  2
KANJI57
 70
     0
 40
27.0
 41
0.9
 50
0.0
 71
     0
 42
27.0
  3
txt.shx
  4
extfont.shx
  0
STYLE
  2
KANJI58
 70
     0
 40
22.8
 41
0.9
 50
0.0
 71
     0
 42
22.8
  3
txt.shx
  4
extfont.shx
  0
STYLE
  2
KANJI59
 70
     0
 40
22.8
 41
0.9
 50
0.0
 71
     0
 42
22.8
  3
txt.shx
  4
extfont.shx
  0
STYLE
  2
KANJI60
 70
     0
 40
22.8
 41
0.9
 50
0.0
 71
     0
 42
22.8
  3
txt.shx
  4
extfont.shx
  0
STYLE
  2
KANJI61
 70
     0
 40
22.8
 41
0.9
 50
0.0
 71
     0
 42
22.8
  3
txt.shx
  4
extfont.shx
  0
STYLE
  2
KANJI62
 70
     0
 40
22.8
 41
0.9
 50
0.0
 71
     0
 42
22.8
  3
txt.shx
  4
extfont.shx
  0
STYLE
  2
KANJI63
 70
     0
 40
22.8
 41
0.9
 50
0.0
 71
     0
 42
22.8
  3
txt.shx
  4
extfont.shx
  0
STYLE
  2
KANJI64
 70
     4
 40
21.0
 41
0.9
 50
0.0
 71
     0
 42
21.0
  3
txt.shx
  4
extfont.shx
  0
STYLE
  2
KANJI65
 70
     4
 40
21.0
 41
0.9
 50
0.0
 71
     0
 42
21.0
  3
txt.shx
  4
extfont.shx
  0
STYLE
  2
KANJI66
 70
     0
 40
21.0
 41
0.9
 50
0.0
 71
     0
 42
21.0
  3
txt.shx
  4
extfont.shx
  0
STYLE
  2
KANJI67
 70
     0
 40
18.0
 41
0.9
 50
0.0
 71
     0
 42
18.0
  3
txt.shx
  4
extfont.shx
  0
STYLE
  2
KANJI68
 70
     0
 40
21.0
 41
0.9
 50
0.0
 71
     0
 42
21.0
  3
txt.shx
  4
extfont.shx
  0
STYLE
  2
KANJI69
 70
     0
 40
22.8
 41
0.9
 50
0.0
 71
     0
 42
22.8
  3
txt.shx
  4
extfont.shx
  0
STYLE
  2
KANJI70
 70
     0
 40
22.8
 41
0.9
 50
0.0
 71
     0
 42
22.8
  3
txt.shx
  4
extfont.shx
  0
STYLE
  2
KANJI71
 70
     0
 40
21.0
 41
0.628571429
 50
0.0
 71
     0
 42
21.0
  3
txt.shx
  4
extfont.shx
  0
STYLE
  2
KANJI72
 70
     0
 40
20.4
 41
0.705882353
 50
0.0
 71
     0
 42
20.4
  3
txt.shx
  4
extfont.shx
  0
STYLE
  2
KANJI73
 70
     0
 40
18.0
 41
0.8
 50
0.0
 71
     0
 42
18.0
  3
txt.shx
  4
extfont.shx
  0
STYLE
  2
KANJI74
 70
     0
 40
19.2
 41
0.71875
 50
0.0
 71
     0
 42
19.2
  3
txt.shx
  4
extfont.shx
  0
STYLE
  2
KANJI75
 70
     0
 40
19.2
 41
0.8
 50
0.0
 71
     0
 42
19.2
  3
txt.shx
  4
extfont.shx
  0
STYLE
  2
KANJI76
 70
     0
 40
21.0
 41
0.571428571
 50
0.0
 71
     0
 42
21.0
  3
txt.shx
  4
extfont.shx
  0
STYLE
  2
KANJI77
 70
     0
 40
18.0
 41
0.833333333
 50
0.0
 71
     0
 42
18.0
  3
txt.shx
  4
extfont.shx
  0
STYLE
  2
KANJI78
 70
     0
 40
21.0
 41
0.9
 50
0.0
 71
     0
 42
21.0
  3
txt.shx
  4
extfont.shx
  0
STYLE
  2
KANJI79
 70
     0
 40
21.0
 41
0.857142857
 50
0.0
 71
     0
 42
21.0
  3
txt.shx
  4
extfont.shx
  0
STYLE
  2
KANJI80
 70
     0
 40
18.0
 41
0.833333333
 50
0.0
 71
     0
 42
18.0
  3
txt.shx
  4
extfont.shx
  0
ENDTAB
  0
TABLE
  2
VIEW
 70
     0
  0
ENDTAB
  0
ENDSEC
  0
SECTION
  2
BLOCKS
  0
ENDSEC
  0
SECTION
  2
ENTITIES
  0
POLYLINE
  8
0
  6
CONTINUOUS
 62
     6
 66
     1
  0
VERTEX
  8
0
  6
CONTINUOUS
 62
     6
 10
82.92
 20
71.7
 30
0.0
  0
VERTEX
  8
0
  6
CONTINUOUS
 62
     6
 10
82.92
 20
1685.7
 30
0.0
  0
VERTEX
  8
0
  6
CONTINUOUS
 62
     6
 10
2404.92
 20
1685.7
 30
0.0
  0
SEQEND
  0
LINE
  8
0
  6
CONTINUOUS
 62
     6
 10
88.919998738
 20
161.699981077
 30
0.0
 11
478.919916738
 21
161.699981077
 31
0.0
  0
LINE
  8
0
  6
CONTINUOUS
 62
     6
 10
88.919998738
 20
77.699998738
 30
0.0
 11
478.919916738
 21
77.699998738
 31
0.0
  0
LINE
  8
0
  6
CONTINUOUS
 62
     6
 10
88.919998738
 20
77.699998738
 30
0.0
 11
88.919998738
 21
161.699981077
 31
0.0
  0
LINE
  8
0
  6
CONTINUOUS
 62
     6
 10
88.919998738
 20
119.699989908
 30
0.0
 11
478.919916738
 21
119.699989908
 31
0.0
  0
LINE
  8
0
  6
CONTINUOUS
 62
     4
 10
14.6199996
 20
76.8999996
 30
0.0
 11
77.0199948
 21
76.8999996
 31
0.0
  0
LINE
  8
0
  6
CONTINUOUS
 62
     4
 10
14.6199996
 20
108.0999972
 30
0.0
 11
77.0199948
 21
108.0999972
 31
0.0
  0
LINE
  8
0
  6
CONTINUOUS
 62
     4
 10
14.6199996
 20
139.2999948
 30
0.0
 11
77.0199948
 21
139.2999948
 31
0.0
  0
LINE
  8
0
  6
CONTINUOUS
 62
     4
 10
14.6199996
 20
170.4999924
 30
0.0
 11
77.0199948
 21
170.4999924
 31
0.0
  0
LINE
  8
0
  6
CONTINUOUS
 62
     4
 10
14.6199996
 20
201.69999
 30
0.0
 11
77.0199948
 21
201.69999
 31
0.0
  0
LINE
  8
0
  6
CONTINUOUS
 62
     4
 10
14.6199996
 20
232.8999876
 30
0.0
 11
77.0199948
 21
232.8999876
 31
0.0
  0
LINE
  8
0
  6
CONTINUOUS
 62
     4
 10
14.6199996
 20
264.0999852
 30
0.0
 11
77.0199948
 21
264.0999852
 31
0.0
  0
LINE
  8
0
  6
CONTINUOUS
 62
     4
 10
14.6199996
 20
295.2999828
 30
0.0
 11
77.0199948
 21
295.2999828
 31
0.0
  0
LINE
  8
0
  6
CONTINUOUS
 62
     4
 10
14.6199996
 20
326.4999804
 30
0.0
 11
77.0199948
 21
326.4999804
 31
0.0
  0
LINE
  8
0
  6
CONTINUOUS
 62
     4
 10
14.6199996
 20
357.699978
 30
0.0
 11
77.0199948
 21
357.699978
 31
0.0
  0
LINE
  8
0
  6
CONTINUOUS
 62
     4
 10
77.0199948
 20
76.8999996
 30
0.0
 11
77.0199948
 21
357.699978
 31
0.0
  0
LINE
  8
0
  6
CONTINUOUS
 62
     4
 10
45.8199972
 20
76.8999996
 30
0.0
 11
45.8199972
 21
326.4999804
 31
0.0
  0
TEXT
  8
0
  6
CONTINUOUS
 62
     4
 10
25.27999878
 20
85.9999989
 30
1.55999988
 40
15.5999988
  1
計
 50
0.0
 41
0.75
 51
0.0
  7
KANJI0
  0
TEXT
  8
0
  6
CONTINUOUS
 62
     4
 10
25.27999878
 20
148.91999406
 30
1.55999988
 40
15.5999988
  1
設
 50
0.0
 41
0.75
 51
0.0
  7
KANJI0
  0
TEXT
  8
0
  6
CONTINUOUS
 62
     4
 10
25.27999878
 20
179.5999917
 30
1.55999988
 40
15.5999988
  1
管
 50
0.0
 41
0.75
 51
0.0
  7
KANJI0
  0
TEXT
  8
0
  6
CONTINUOUS
 62
     4
 10
25.27999878
 20
210.7999893
 30
1.55999988
 40
15.5999988
  1
製
 50
0.0
 41
0.75
 51
0.0
  7
KANJI0
  0
TEXT
  8
0
  6
CONTINUOUS
 62
     4
 10
25.27999878
 20
241.9999869
 30
1.55999988
 40
15.5999988
  1
資
 50
0.0
 41
0.75
 51
0.0
  7
KANJI0
  0
TEXT
  8
0
  6
CONTINUOUS
 62
     4
 10
25.27999878
 20
273.1999845
 30
1.55999988
 40
15.5999988
  1
営
 50
0.0
 41
0.75
 51
0.0
  7
KANJI0
  0
TEXT
  8
0
  6
CONTINUOUS
 62
     4
 10
25.27999878
 20
304.3999821
 30
1.55999988
 40
15.5999988
  1
客
 50
0.0
 41
0.75
 51
0.0
  7
KANJI0
  0
TEXT
  8
0
  6
CONTINUOUS
 62
     4
 10
25.0199988
 20
336.8999796
 30
1.55999988
 40
15.5999988
  1
出　図
 50
0.0
 41
0.75
 51
0.0
  7
KANJI0
  0
LINE
  8
0
  6
CONTINUOUS
 62
     4
 10
14.6199996
 20
76.8999996
 30
0.0
 11
14.6199996
 21
357.699978
 31
0.0
  0
LINE
  8
0
  6
CONTINUOUS
 62
     6
 10
2404.92
 20
71.7
 30
0.0
 11
82.92
 21
71.7
 31
0.0
  0
TEXT
  8
0
  6
CONTINUOUS
 62
     4
 10
100.919996215
 20
101.699993692
 30
1.199999748
 40
11.999997477
  1
ＰＡＲＴＳ　ＬＩＳＴ
 50
0.0
 41
0.6
 51
0.0
  7
KANJI1
  0
TEXT
  8
0
  6
CONTINUOUS
 62
     4
 10
100.919996215
 20
83.699997477
 30
1.439999697
 40
14.399996972
  1
部品表
 50
0.0
 41
0.9
 51
0.0
  7
KANJI2
  0
TEXT
  8
0
  6
CONTINUOUS
 62
     3
 10
100.919996215
 20
131.699987385
 30
1.799999622
 40
17.999996215
  1
ＰＬ
 50
0.0
 41
0.9
 51
0.0
  7
KANJI3
  0
TEXT
  8
0
  6
CONTINUOUS
 62
     4
 10
370.919939446
 20
101.699993692
 30
1.199999748
 40
11.999997477
  1
Ｎ０．
 50
0.0
 41
0.6
 51
0.0
  7
KANJI1
  0
TEXT
  8
0
  6
CONTINUOUS
 62
     4
 10
370.919939446
 20
83.699997477
 30
1.439999697
 40
14.399996972
  1
項番
 50
0.0
 41
0.9
 51
0.0
  7
KANJI2
  0
LINE
  8
0
  6
CONTINUOUS
 62
     6
 10
478.919916738
 20
77.699998738
 30
0.0
 11
478.919916738
 21
161.699981077
 31
0.0
  0
LINE
  8
0
  6
CONTINUOUS
 62
     6
 10
358.919941969
 20
77.699998738
 30
0.0
 11
358.919941969
 21
161.699981077
 31
0.0
  0
LINE
  8
0
  6
CONTINUOUS
 62
     6
 10
2404.92
 20
1685.7
 30
0.0
 11
2404.92
 21
71.7
 31
0.0
  0
LINE
  8
0
  6
CONTINUOUS
 62
     6
 10
1598.920062
 20
76.8999996
 30
0.0
 11
1598.920062
 21
409.699974
 31
0.0
  0
LINE
  8
0
  6
CONTINUOUS
 62
     6
 10
2399.7200004
 20
76.8999996
 30
0.0
 11
2399.7200004
 21
409.699974
 31
0.0
  0
LINE
  8
0
  6
CONTINUOUS
 62
     4
 10
1788.7200474
 20
76.8999996
 30
0.0
 11
1788.7200474
 21
409.699974
 31
0.0
  0
LINE
  8
0
  6
CONTINUOUS
 62
     4
 10
1598.920062
 20
118.4999964
 30
0.0
 11
1788.7200474
 21
118.4999964
 31
0.0
  0
TEXT
  8
0
  6
CONTINUOUS
 62
     4
 10
1609.3200612
 20
100.2999978
 30
1.03999992
 40
10.3999992
  1
ＳＣＡＬＥ
 50
0.0
 41
0.6
 51
0.0
  7
KANJI4
  0
TEXT
  8
0
  6
CONTINUOUS
 62
     4
 10
1609.3200612
 20
84.699999
 30
1.247999904
 40
12.47999904
  1
尺度
 50
0.0
 41
0.6
 51
0.0
  7
KANJI5
  0
LINE
  8
0
  6
CONTINUOUS
 62
     6
 10
1188.1200936
 20
118.4999964
 30
0.0
 11
1598.920062
 21
118.4999964
 31
0.0
  0
LINE
  8
0
  6
CONTINUOUS
 62
     6
 10
1188.1200936
 20
76.8999996
 30
0.0
 11
2399.7200004
 21
76.8999996
 31
0.0
  0
TEXT
  8
0
  6
CONTINUOUS
 62
     6
 10
1793.920047
 20
100.2999978
 30
0.0
 40
18.1999986
  1
ＵＮＩＴＥＣ　ＩＮＤＵＳＴＲＹ　ＣＯ．，ＬＴＤ．
 50
0.0
 41
0.42031746
 51
0.0
  7
KANJI6
  0
TEXT
  8
0
  6
CONTINUOUS
 62
     6
 10
2049.175027365
 20
93.53999832
 30
3.11999976
 40
31.1999976
  1
ユニテック工業株式会社
 50
0.0
 41
0.9
 51
0.0
  7
KANJI7
  0
LINE
  8
0
  6
CONTINUOUS
 62
     6
 10
2007.575030565
 20
104.45999748
 30
0.0
 11
1993.847031621
 21
104.45999748
 31
0.0
  0
LINE
  8
0
  6
CONTINUOUS
 62
     6
 10
2007.575030565
 20
106.955997288
 30
0.0
 11
1993.847031621
 21
106.955997288
 31
0.0
  0
LINE
  8
0
  6
CONTINUOUS
 62
     6
 10
2007.575030565
 20
104.45999748
 30
0.0
 11
2021.303029509
 21
104.45999748
 31
0.0
  0
LINE
  8
0
  6
CONTINUOUS
 62
     6
 10
2007.575030565
 20
106.955997288
 30
0.0
 11
2021.303029509
 21
106.955997288
 31
0.0
  0
LINE
  8
0
  6
CONTINUOUS
 62
     6
 10
2021.303029509
 20
106.955997288
 30
0.0
 11
2021.303029509
 21
104.45999748
 31
0.0
  0
ARC
  8
0
  6
CONTINUOUS
 62
     6
 10
2024.423029269
 20
105.707997384
 30
0.0
 40
12.47999904
 50
185.739170477
 51
90.0
  0
ARC
  8
0
  6
CONTINUOUS
 62
     6
 10
2024.423029269
 20
105.707997384
 30
0.0
 40
14.975998848
 50
184.780191847
 51
90.0
  0
LINE
  8
0
  6
CONTINUOUS
 62
     6
 10
1993.847031621
 20
104.45999748
 30
0.0
 11
1993.847031621
 21
106.955997288
 31
0.0
  0
ARC
  8
0
  6
CONTINUOUS
 62
     6
 10
1990.727031861
 20
105.707997384
 30
0.0
 40
12.47999904
 50
90.0
 51
354.260829523
  0
ARC
  8
0
  6
CONTINUOUS
 62
     6
 10
1990.727031861
 20
105.707997384
 30
0.0
 40
14.975998848
 50
90.0
 51
355.219808153
  0
LINE
  8
0
  6
CONTINUOUS
 62
     6
 10
2005.703030709
 20
120.683996232
 30
0.0
 11
2005.703030709
 21
118.187996424
 31
0.0
  0
LINE
  8
0
  6
CONTINUOUS
 62
     6
 10
1990.727031861
 20
118.187996424
 30
0.0
 11
2005.703030709
 21
118.187996424
 31
0.0
  0
LINE
  8
0
  6
CONTINUOUS
 62
     6
 10
2009.447030421
 20
120.683996232
 30
0.0
 11
2009.447030421
 21
118.187996424
 31
0.0
  0
LINE
  8
0
  6
CONTINUOUS
 62
     6
 10
2024.423029269
 20
118.187996424
 30
0.0
 11
2009.447030421
 21
118.187996424
 31
0.0
  0
TEXT
  8
0
  6
CONTINUOUS
 62
     4
 10
1320.7200834
 20
100.2999978
 30
1.03999992
 40
10.3999992
  1
ＢＹ
 50
0.0
 41
0.6
 51
0.0
  7
KANJI4
  0
TEXT
  8
0
  6
CONTINUOUS
 62
     4
 10
1435.1200746
 20
100.2999978
 30
1.03999992
 40
10.3999992
  1
ＤＥＳＣＲＩＰＴＩＯＮ
 50
0.0
 41
0.6
 51
0.0
  7
KANJI4
  0
TEXT
  8
0
  6
CONTINUOUS
 62
     4
 10
1320.7200834
 20
84.699999
 30
1.247999904
 40
12.47999904
  1
担当
 50
0.0
 41
0.6
 51
0.0
  7
KANJI5
  0
TEXT
  8
0
  6
CONTINUOUS
 62
     4
 10
1450.7200734
 20
84.699999
 30
1.247999904
 40
12.47999904
  1
記　　　　事
 50
0.0
 41
0.6
 51
0.0
  7
KANJI5
  0
LINE
  8
0
  6
CONTINUOUS
 62
     4
 10
1210.2200919
 20
110.699997
 30
0.0
 11
1193.3200932
 21
84.699999
 31
0.0
  0
TEXT
  8
0
  6
CONTINUOUS
 62
     4
 10
1253.1200886
 20
100.2999978
 30
1.03999992
 40
10.3999992
  1
ＤＡＴＥ
 50
0.0
 41
0.6
 51
0.0
  7
KANJI4
  0
TEXT
  8
0
  6
CONTINUOUS
 62
     4
 10
1260.920088
 20
84.699999
 30
1.247999904
 40
12.47999904
  1
日付
 50
0.0
 41
0.6
 51
0.0
  7
KANJI5
  0
LINE
  8
0
  6
CONTINUOUS
 62
     4
 10
1193.3200932
 20
84.699999
 30
0.0
 11
1227.1200906
 21
84.699999
 31
0.0
  0
LINE
  8
0
  6
CONTINUOUS
 62
     4
 10
1210.2200919
 20
110.699997
 30
0.0
 11
1227.1200906
 21
84.699999
 31
0.0
  0
LINE
  8
0
  6
CONTINUOUS
 62
     6
 10
1188.1200936
 20
76.8999996
 30
0.0
 11
1188.1200936
 21
118.4999964
 31
0.0
  0
LINE
  8
0
  6
CONTINUOUS
 62
     4
 10
1232.3200902
 20
76.8999996
 30
0.0
 11
1232.3200902
 21
118.4999964
 31
0.0
  0
LINE
  8
0
  6
CONTINUOUS
 62
     4
 10
1305.1200846
 20
76.8999996
 30
0.0
 11
1305.1200846
 21
118.4999964
 31
0.0
  0
LINE
  8
0
  6
CONTINUOUS
 62
     4
 10
1351.920081
 20
76.8999996
 30
0.0
 11
1351.920081
 21
118.4999964
 31
0.0
  0
TEXT
  8
0
  6
CONTINUOUS
 62
     4
 10
1609.3200612
 20
308.2999818
 30
1.03999992
 40
10.3999992
  1
ＣＯＤＥ
 50
0.0
 41
0.6
 51
0.0
  7
KANJI4
  0
LINE
  8
0
  6
CONTINUOUS
 62
     4
 10
1598.920062
 20
326.4999804
 30
0.0
 11
2399.7200004
 21
326.4999804
 31
0.0
  0
TEXT
  8
0
  6
CONTINUOUS
 62
     4
 10
1609.3200612
 20
292.699983
 30
1.247999904
 40
12.47999904
  1
分類
 50
0.0
 41
0.6
 51
0.0
  7
KANJI5
  0
TEXT
  8
0
  6
CONTINUOUS
 62
     4
 10
1617.42
 20
332.7
 30
6.0
 40
21.6
  1
ご注文主
 50
0.0
 41
1.111111111
 51
0.0
  7
KANJI8
  0
TEXT
  8
0
  6
CONTINUOUS
 62
     4
 10
1609.3200612
 20
183.4999914
 30
1.03999992
 40
10.3999992
  1
ＤＲＡＷＮ
 50
0.0
 41
0.6
 51
0.0
  7
KANJI4
  0
TEXT
  8
0
  6
CONTINUOUS
 62
     4
 10
1609.3200612
 20
225.0999882
 30
1.03999992
 40
10.3999992
  1
ＤＥＳＩＧＮ
 50
0.0
 41
0.6
 51
0.0
  7
KANJI4
  0
TEXT
  8
0
  6
CONTINUOUS
 62
     4
 10
1609.3200612
 20
266.699985
 30
1.03999992
 40
10.3999992
  1
ＣＨＥＣＫ
 50
0.0
 41
0.6
 51
0.0
  7
KANJI4
  0
LINE
  8
0
  6
CONTINUOUS
 62
     4
 10
1598.920062
 20
243.2999868
 30
0.0
 11
1788.7200474
 21
243.2999868
 31
0.0
  0
LINE
  8
0
  6
CONTINUOUS
 62
     4
 10
1598.920062
 20
201.69999
 30
0.0
 11
1788.7200474
 21
201.69999
 31
0.0
  0
LINE
  8
0
  6
CONTINUOUS
 62
     4
 10
1598.920062
 20
284.8999836
 30
0.0
 11
1788.7200474
 21
284.8999836
 31
0.0
  0
TEXT
  8
0
  6
CONTINUOUS
 62
     4
 10
1609.3200612
 20
209.4999894
 30
1.247999904
 40
12.47999904
  1
設計
 50
0.0
 41
0.6
 51
0.0
  7
KANJI5
  0
TEXT
  8
0
  6
CONTINUOUS
 62
     4
 10
1609.3200612
 20
251.0999862
 30
1.247999904
 40
12.47999904
  1
検図
 50
0.0
 41
0.6
 51
0.0
  7
KANJI5
  0
LINE
  8
0
  6
CONTINUOUS
 62
     4
 10
1804.06004622
 20
284.8999836
 30
0.0
 11
2399.7200004
 21
284.8999836
 31
0.0
  0
LINE
  8
0
  6
CONTINUOUS
 62
     4
 10
1788.7200474
 20
201.69999
 30
0.0
 11
2399.7200004
 21
201.69999
 31
0.0
  0
TEXT
  8
0
  6
CONTINUOUS
 62
     4
 10
1799.1200466
 20
183.4999914
 30
1.03999992
 40
10.3999992
  1
ＤＲＡＷＩＮＧ　ＮＯ．
 50
0.0
 41
0.8
 51
0.0
  7
KANJI9
  0
TEXT
  8
0
  6
CONTINUOUS
 62
     4
 10
1799.1200466
 20
225.0999882
 30
1.03999992
 40
10.3999992
  1
ＭＦＧ　ＮＯ．
 50
0.0
 41
0.8
 51
0.0
  7
KANJI9
  0
TEXT
  8
0
  6
CONTINUOUS
 62
     4
 10
1799.1200466
 20
266.699985
 30
1.03999992
 40
10.3999992
  1
ＴＹＰＥ
 50
0.0
 41
0.8
 51
0.0
  7
KANJI9
  0
LINE
  8
0
  6
CONTINUOUS
 62
     4
 10
1804.3200462
 20
243.2999868
 30
0.0
 11
2043.5200278
 21
243.2999868
 31
0.0
  0
TEXT
  8
0
  6
CONTINUOUS
 62
     4
 10
1799.1200466
 20
165.2999928
 30
1.247999904
 40
12.47999904
  1
図　面　番　号
 50
0.0
 41
0.8
 51
0.0
  7
KANJI10
  0
TEXT
  8
0
  6
CONTINUOUS
 62
     4
 10
1799.1200466
 20
206.8999896
 30
1.247999904
 40
12.47999904
  1
製番
 50
0.0
 41
0.8
 51
0.0
  7
KANJI10
  0
TEXT
  8
0
  6
CONTINUOUS
 62
     4
 10
1799.1200466
 20
248.4999864
 30
1.247999904
 40
12.47999904
  1
機種
 50
0.0
 41
0.8
 51
0.0
  7
KANJI10
  0
LINE
  8
0
  6
CONTINUOUS
 62
     4
 10
1598.920062
 20
160.0999932
 30
0.0
 11
1788.7200474
 21
160.0999932
 31
0.0
  0
TEXT
  8
0
  6
CONTINUOUS
 62
     4
 10
1609.3200612
 20
141.8999946
 30
1.03999992
 40
10.3999992
  1
ＤＡＴＥ
 50
0.0
 41
0.6
 51
0.0
  7
KANJI4
  0
TEXT
  8
0
  6
CONTINUOUS
 62
     4
 10
1609.3200612
 20
126.2999958
 30
1.247999904
 40
12.47999904
  1
日付
 50
0.0
 41
0.6
 51
0.0
  7
KANJI5
  0
TEXT
  8
0
  6
CONTINUOUS
 62
     4
 10
1609.3200612
 20
167.8999926
 30
1.247999904
 40
12.47999904
  1
作図
 50
0.0
 41
0.6
 51
0.0
  7
KANJI5
  0
LINE
  8
0
  6
CONTINUOUS
 62
     4
 10
1788.7200474
 20
141.8999946
 30
0.0
 11
2399.7200004
 21
141.8999946
 31
0.0
  0
LINE
  8
0
  6
LTYPE1
 62
     4
 10
2225.5200138
 20
149.699994
 30
0.0
 11
2225.5200138
 21
191.2999908
 31
0.0
  0
LINE
  8
0
  6
LTYPE1
 62
     4
 10
2189.1200166
 20
149.699994
 30
0.0
 11
2189.1200166
 21
191.2999908
 31
0.0
  0
LINE
  8
0
  6
LTYPE1
 62
     4
 10
2152.7200194
 20
149.699994
 30
0.0
 11
2152.7200194
 21
191.2999908
 31
0.0
  0
LINE
  8
0
  6
LTYPE1
 62
     4
 10
2116.3200222
 20
149.699994
 30
0.0
 11
2116.3200222
 21
191.2999908
 31
0.0
  0
LINE
  8
0
  6
LTYPE1
 62
     4
 10
2079.920025
 20
149.699994
 30
0.0
 11
2079.920025
 21
191.2999908
 31
0.0
  0
LINE
  8
0
  6
LTYPE1
 62
     4
 10
2043.5200278
 20
149.699994
 30
0.0
 11
2043.5200278
 21
191.2999908
 31
0.0
  0
LINE
  8
0
  6
LTYPE1
 62
     4
 10
2007.1200306
 20
149.699994
 30
0.0
 11
2007.1200306
 21
191.2999908
 31
0.0
  0
LINE
  8
0
  6
LTYPE1
 62
     4
 10
1970.7200334
 20
149.699994
 30
0.0
 11
1970.7200334
 21
191.2999908
 31
0.0
  0
LINE
  8
0
  6
LTYPE1
 62
     4
 10
1970.7200334
 20
191.2999908
 30
0.0
 11
2225.5200138
 21
191.2999908
 31
0.0
  0
LINE
  8
0
  6
LTYPE1
 62
     4
 10
1970.7200334
 20
149.699994
 30
0.0
 11
2225.5200138
 21
149.699994
 31
0.0
  0
LINE
  8
0
  6
CONTINUOUS
 62
     4
 10
2246.3200122
 20
171.7999923
 30
0.0
 11
2256.7200114
 21
171.7999923
 31
0.0
  0
LINE
  8
0
  6
CONTINUOUS
 62
     4
 10
2311.3200072
 20
156.1999935
 30
0.0
 11
2274.92001
 21
156.1999935
 31
0.0
  0
LINE
  8
0
  6
CONTINUOUS
 62
     4
 10
2274.92001
 20
156.1999935
 30
0.0
 11
2293.1200086
 21
187.3999911
 31
0.0
  0
LINE
  8
0
  6
CONTINUOUS
 62
     4
 10
2293.1200086
 20
187.3999911
 30
0.0
 11
2311.3200072
 21
156.1999935
 31
0.0
  0
TEXT
  8
0
  6
CONTINUOUS
 62
     4
 10
2059.1200266
 20
266.699985
 30
1.03999992
 40
10.3999992
  1
ＴＩＴＬＥ
 50
0.0
 41
0.8
 51
0.0
  7
KANJI9
  0
TEXT
  8
0
  6
CONTINUOUS
 62
     4
 10
2059.1200266
 20
248.4999864
 30
1.247999904
 40
12.47999904
  1
名称
 50
0.0
 41
0.8
 51
0.0
  7
KANJI10
  0
TEXT
  8
0
  6
CONTINUOUS
 62
     2
 10
2143.92
 20
209.7
 30
15.0
 40
30.0
  1
外形寸法図
 50
0.0
 41
1.0
 51
0.0
  7
KANJI11
  0
TEXT
  8
0
  6
CONTINUOUS
 62
     2
 10
2107.92
 20
245.7
 30
4.285714286
 40
30.0
  1
マイティシリンダ
 50
0.0
 41
1.0
 51
0.0
  7
KANJI12
  0
TEXT
  8
0
  6
CONTINUOUS
 62
     2
 10
1939.2200334
 20
155.699994
 30
1.8
 40
30.0
  1
Ａ
 50
0.0
 41
0.8
 51
0.0
  7
KANJI13
  0
CIRCLE
  8
0
  6
CONTINUOUS
 62
     2
 10
1900.2200334
 20
220.199994
 30
0.0
 40
15.0
  0
TEXT
  8
0
  6
CONTINUOUS
 62
     2
 10
1888.9700334
 20
208.949994
 30
1.8
 40
24.0
  1
Ｓ
 50
0.0
 41
1.0
 51
0.0
  7
KANJI14
  0
LINE
  8
0
  6
CONTINUOUS
 62
     6
 10
2005.703030709
 20
120.683996232
 30
0.0
 11
1990.727031861
 21
120.683996232
 31
0.0
  0
LINE
  8
0
  6
CONTINUOUS
 62
     6
 10
2009.447030421
 20
120.683996232
 30
0.0
 11
2024.423029269
 21
120.683996232
 31
0.0
  0
TEXT
  8
0
  6
CONTINUOUS
 62
     2
 10
1665.9200334
 20
170.699994
 30
6.0
 40
21.0
  1
岡田
 50
0.0
 41
0.857142857
 51
0.0
  7
KANJI15
  0
LINE
  8
0
  6
CONTINUOUS
 62
     4
 10
2399.7200004
 20
368.0999772
 30
0.0
 11
2399.7200004
 21
409.699974
 31
0.0
  0
LINE
  8
0
  6
CONTINUOUS
 62
     6
 10
1599.670062
 20
368.0999772
 30
0.0
 11
2400.4700004
 21
368.0999772
 31
0.0
  0
LINE
  8
0
  6
CONTINUOUS
 62
     6
 10
1598.920062
 20
409.699974
 30
0.0
 11
2399.7200004
 21
409.699974
 31
0.0
  0
TEXT
  8
0
  6
CONTINUOUS
 62
     4
 10
1617.42
 20
374.2999968
 30
6.0
 40
21.6
  1
ご用途
 50
0.0
 41
1.111111111
 51
0.0
  7
KANJI8
  0
TEXT
  8
0
  6
CONTINUOUS
 62
     2
 10
1708.92
 20
83.7
 30
1.8
 40
27.0
  1
１／６
 50
0.0
 41
0.666666667
 51
0.0
  7
KANJI16
  0
LINE
  8
0
  6
CONTINUOUS
 62
     1
 10
1523.37
 20
1674.9
 30
0.0
 11
1523.37
 21
1554.78
 31
0.0
  0
LINE
  8
0
  6
CONTINUOUS
 62
     2
 10
1454.07
 20
1674.9
 30
0.0
 11
1454.07
 21
1554.78
 31
0.0
  0
LINE
  8
0
  6
CONTINUOUS
 62
     2
 10
1384.77
 20
1674.9
 30
0.0
 11
1384.77
 21
1554.78
 31
0.0
  0
LINE
  8
0
  6
CONTINUOUS
 62
     1
 10
1292.37
 20
1674.9
 30
0.0
 11
1292.37
 21
1554.78
 31
0.0
  0
LINE
  8
0
  6
CONTINUOUS
 62
     1
 10
1292.37
 20
1674.9
 30
0.0
 11
1523.37
 21
1674.9
 31
0.0
  0
LINE
  8
0
  6
CONTINUOUS
 62
     1
 10
1292.37
 20
1637.94
 30
0.0
 11
1523.37
 21
1637.94
 31
0.0
  0
LINE
  8
0
  6
CONTINUOUS
 62
     2
 10
1292.37
 20
1610.22
 30
0.0
 11
1523.37
 21
1610.22
 31
0.0
  0
LINE
  8
0
  6
CONTINUOUS
 62
     2
 10
1292.37
 20
1582.5
 30
0.0
 11
1523.37
 21
1582.5
 31
0.0
  0
LINE
  8
0
  6
CONTINUOUS
 62
     1
 10
1292.37
 20
1554.78
 30
0.0
 11
1523.37
 21
1554.78
 31
0.0
  0
TEXT
  8
0
  6
CONTINUOUS
 62
     2
 10
1463.31
 20
1658.73
 30
1.386
 40
13.86
  1
起動電流
 50
0.0
 41
0.9
 51
0.0
  7
KANJI17
  0
TEXT
  8
0
  6
CONTINUOUS
 62
     2
 10
1463.31
 20
1642.56
 30
1.386
 40
13.86
  1
　　　Ａ
 50
0.0
 41
0.9
 51
0.0
  7
KANJI17
  0
TEXT
  8
0
  6
CONTINUOUS
 62
     2
 10
1394.01
 20
1658.73
 30
1.386
 40
13.86
  1
定格電流
 50
0.0
 41
0.9
 51
0.0
  7
KANJI17
  0
TEXT
  8
0
  6
CONTINUOUS
 62
     2
 10
1394.01
 20
1642.56
 30
1.386
 40
13.86
  1
　　　Ａ
 50
0.0
 41
0.9
 51
0.0
  7
KANJI17
  0
TEXT
  8
0
  6
CONTINUOUS
 62
     2
 10
1300.224
 20
1589.43
 30
1.386
 40
13.86
  1
２００／６０
 50
0.0
 41
0.9
 51
0.0
  7
KANJI17
  0
TEXT
  8
0
  6
CONTINUOUS
 62
     2
 10
1300.224
 20
1658.73
 30
1.386
 40
13.86
  1
電圧／周波数
 50
0.0
 41
0.9
 51
0.0
  7
KANJI17
  0
TEXT
  8
0
  6
CONTINUOUS
 62
     2
 10
1300.224
 20
1642.56
 30
1.386
 40
13.86
  1
　Ｖ／Ｈｚ
 50
0.0
 41
0.9
 51
0.0
  7
KANJI17
  0
TEXT
  8
0
  6
CONTINUOUS
 62
     2
 10
1300.224
 20
1617.15
 30
1.386
 40
13.86
  1
２００／５０
 50
0.0
 41
0.9
 51
0.0
  7
KANJI17
  0
TEXT
  8
0
  6
CONTINUOUS
 62
     2
 10
1300.224
 20
1561.71
 30
1.386
 40
13.86
  1
２２０／６０
 50
0.0
 41
0.9
 51
0.0
  7
KANJI17
  0
LINE
  8
0
  6
CONTINUOUS
 62
     1
 10
1246.17
 20
1674.9
 30
0.0
 11
1246.17
 21
1554.78
 31
0.0
  0
LINE
  8
0
  6
CONTINUOUS
 62
     2
 10
1176.87
 20
1674.9
 30
0.0
 11
1176.87
 21
1554.78
 31
0.0
  0
LINE
  8
0
  6
CONTINUOUS
 62
     2
 10
1107.57
 20
1674.9
 30
0.0
 11
1107.57
 21
1554.78
 31
0.0
  0
LINE
  8
0
  6
CONTINUOUS
 62
     1
 10
1015.17
 20
1674.9
 30
0.0
 11
1015.17
 21
1554.78
 31
0.0
  0
LINE
  8
0
  6
CONTINUOUS
 62
     1
 10
1015.17
 20
1674.9
 30
0.0
 11
1246.17
 21
1674.9
 31
0.0
  0
LINE
  8
0
  6
CONTINUOUS
 62
     1
 10
1015.17
 20
1637.94
 30
0.0
 11
1246.17
 21
1637.94
 31
0.0
  0
LINE
  8
0
  6
CONTINUOUS
 62
     2
 10
1015.17
 20
1610.22
 30
0.0
 11
1246.17
 21
1610.22
 31
0.0
  0
LINE
  8
0
  6
CONTINUOUS
 62
     2
 10
1015.17
 20
1582.5
 30
0.0
 11
1246.17
 21
1582.5
 31
0.0
  0
LINE
  8
0
  6
CONTINUOUS
 62
     1
 10
1015.17
 20
1554.78
 30
0.0
 11
1246.17
 21
1554.78
 31
0.0
  0
TEXT
  8
0
  6
CONTINUOUS
 62
     2
 10
1186.11
 20
1658.73
 30
1.386
 40
13.86
  1
起動電流
 50
0.0
 41
0.9
 51
0.0
  7
KANJI17
  0
TEXT
  8
0
  6
CONTINUOUS
 62
     2
 10
1186.11
 20
1642.56
 30
1.386
 40
13.86
  1
　　　Ａ
 50
0.0
 41
0.9
 51
0.0
  7
KANJI17
  0
TEXT
  8
0
  6
CONTINUOUS
 62
     2
 10
1116.81
 20
1658.73
 30
1.386
 40
13.86
  1
定格電流
 50
0.0
 41
0.9
 51
0.0
  7
KANJI17
  0
TEXT
  8
0
  6
CONTINUOUS
 62
     2
 10
1116.81
 20
1642.56
 30
1.386
 40
13.86
  1
　　　Ａ
 50
0.0
 41
0.9
 51
0.0
  7
KANJI17
  0
TEXT
  8
0
  6
CONTINUOUS
 62
     2
 10
1023.024
 20
1658.73
 30
1.386
 40
13.86
  1
電圧／周波数
 50
0.0
 41
0.9
 51
0.0
  7
KANJI17
  0
TEXT
  8
0
  6
CONTINUOUS
 62
     2
 10
1023.024
 20
1642.56
 30
1.386
 40
13.86
  1
　Ｖ／Ｈｚ
 50
0.0
 41
0.9
 51
0.0
  7
KANJI17
  0
TEXT
  8
0
  6
CONTINUOUS
 62
     2
 10
1023.024
 20
1617.15
 30
1.386
 40
13.86
  1
４００／５０
 50
0.0
 41
0.9
 51
0.0
  7
KANJI17
  0
TEXT
  8
0
  6
CONTINUOUS
 62
     2
 10
1023.024
 20
1589.43
 30
1.386
 40
13.86
  1
４００／６０
 50
0.0
 41
0.9
 51
0.0
  7
KANJI17
  0
TEXT
  8
0
  6
CONTINUOUS
 62
     2
 10
1023.024
 20
1561.71
 30
1.386
 40
13.86
  1
４４０／６０
 50
0.0
 41
0.9
 51
0.0
  7
KANJI17
  0
TEXT
  8
0
  6
CONTINUOUS
 62
     2
 10
1119.267493476
 20
1615.15
 30
1.386
 40
13.86
  1
　３．２
 50
0.0
 41
0.9
 51
0.0
  7
KANJI17
  0
TEXT
  8
0
  6
CONTINUOUS
 62
     2
 10
1119.267493476
 20
1587.43
 30
1.386
 40
13.86
  1
　２．８
 50
0.0
 41
0.9
 51
0.0
  7
KANJI17
  0
TEXT
  8
0
  6
CONTINUOUS
 62
     2
 10
1119.267493476
 20
1559.71
 30
1.386
 40
13.86
  1
　２．７
 50
0.0
 41
0.9
 51
0.0
  7
KANJI17
  0
TEXT
  8
0
  6
CONTINUOUS
 62
     2
 10
1396.467493476
 20
1559.71
 30
1.386
 40
13.86
  1
　５．３
 50
0.0
 41
0.9
 51
0.0
  7
KANJI17
  0
TEXT
  8
0
  6
CONTINUOUS
 62
     2
 10
1396.467493476
 20
1587.43
 30
1.386
 40
13.86
  1
　５．２
 50
0.0
 41
0.9
 51
0.0
  7
KANJI17
  0
TEXT
  8
0
  6
CONTINUOUS
 62
     2
 10
1396.467493476
 20
1615.15
 30
1.386
 40
13.86
  1
　６．１
 50
0.0
 41
0.9
 51
0.0
  7
KANJI17
  0
TEXT
  8
0
  6
CONTINUOUS
 62
     2
 10
1465.767493476
 20
1615.15
 30
1.386
 40
13.86
  1
２５．１
 50
0.0
 41
0.9
 51
0.0
  7
KANJI17
  0
TEXT
  8
0
  6
CONTINUOUS
 62
     2
 10
1465.767493476
 20
1587.43
 30
1.386
 40
13.86
  1
２２．５
 50
0.0
 41
0.9
 51
0.0
  7
KANJI17
  0
TEXT
  8
0
  6
CONTINUOUS
 62
     2
 10
1465.767493476
 20
1559.71
 30
1.386
 40
13.86
  1
２４．８
 50
0.0
 41
0.9
 51
0.0
  7
KANJI17
  0
TEXT
  8
0
  6
CONTINUOUS
 62
     2
 10
1188.567493476
 20
1615.15
 30
1.386
 40
13.86
  1
１２．５
 50
0.0
 41
0.9
 51
0.0
  7
KANJI17
  0
TEXT
  8
0
  6
CONTINUOUS
 62
     2
 10
1188.567493476
 20
1587.43
 30
1.386
 40
13.86
  1
１１．３
 50
0.0
 41
0.9
 51
0.0
  7
KANJI17
  0
TEXT
  8
0
  6
CONTINUOUS
 62
     2
 10
1188.567493476
 20
1559.71
 30
1.386
 40
13.86
  1
１２．４
 50
0.0
 41
0.9
 51
0.0
  7
KANJI17
  0
TEXT
  8
0
  6
CONTINUOUS
 62
     2
 10
176.4
 20
26.4
 30
0.0
 40
18.0
  1
ＦＤ　Ｎｏ．ＭＣ１９８
 50
0.0
 41
0.9
 51
0.0
  7
KANJI18
  0
TEXT
  8
0
  6
CONTINUOUS
 62
     2
 10
1861.92
 20
251.7
 30
0.0
 40
21.0
  1
ＭＣＬＤ４－Ｌ
 50
0.0
 41
0.793650794
 51
0.0
  7
KANJI19
  0
TEXT
  8
0
  6
CONTINUOUS
 62
     2
 10
1976.7200334
 20
155.699994
 30
13.0
 40
30.0
  1
３００２４９６
 50
0.0
 41
0.8
 51
0.0
  7
KANJI20
  0
LINE
  8
0
  6
CONTINUOUS
 62
     2
 10
1729.32
 20
706.5
 30
0.0
 11
1873.32
 21
706.5
 31
0.0
  0
TEXT
  8
0
  6
CONTINUOUS
 62
     2
 10
1741.92
 20
714.9
 30
12.0
 40
24.0
  1
特記事項
 50
0.0
 41
0.9
 51
0.0
  7
KANJI21
  0
TEXT
  8
0
  6
CONTINUOUS
 62
     2
 10
1735.92
 20
595.2
 30
1.8
 40
21.0
  1
３．ＬＳユニット
 50
0.0
 41
0.857142857
 51
0.0
  7
KANJI22
  0
TEXT
  8
0
  6
CONTINUOUS
 62
     2
 10
1735.92
 20
670.2
 30
1.8
 40
21.0
  1
１．運転時は必ずピストンロッドの回転防止を行って下さい。
 50
0.0
 41
0.857142857
 51
0.0
  7
KANJI22
  0
TEXT
  8
0
  6
CONTINUOUS
 62
     2
 10
1735.92
 20
632.7
 30
1.8
 40
21.0
  1
２．モートル：全閉自冷かご形３０分定格
 50
0.0
 41
0.857142857
 51
0.0
  7
KANJI22
  0
TEXT
  8
0
  6
CONTINUOUS
 62
     2
 10
1735.92
 20
502.2
 30
1.8
 40
21.0
  1
４．呼称ストロークは、機械的ストロークです。
 50
0.0
 41
0.857142857
 51
0.0
  7
KANJI22
  0
TEXT
  8
0
  6
CONTINUOUS
 62
     2
 10
1735.92
 20
535.2
 30
1.8
 40
21.0
  1
　　ストローク７００ｍｍ以上の場合２ロッド方式となります。
 50
0.0
 41
0.857142857
 51
0.0
  7
KANJI22
  0
TEXT
  8
0
  6
CONTINUOUS
 62
     2
 10
1735.92
 20
565.2
 30
1.8
 40
21.0
  1
　　リミットスイッチ：１ＬＳ１－Ｊｘ２ケ（山武）
 50
0.0
 41
0.857142857
 51
0.0
  7
KANJI22
  0
TEXT
  8
0
  6
CONTINUOUS
 62
     2
 10
1735.92
 20
465.24
 30
1.8
 40
21.0
  1
　　必ず、常用はストローク両端に必ず余裕を取って下さい。
 50
0.0
 41
0.857142857
 51
0.0
  7
KANJI22
  0
TEXT
  8
0
  6
CONTINUOUS
 62
     2
 10
1735.92
 20
427.464
 30
1.8
 40
21.0
  1
　　前後の推奨余裕寸法は、各々１０ｍｍです。
 50
0.0
 41
0.857142857
 51
0.0
  7
KANJI22
  0
LINE
  8
0
  6
CONTINUOUS
 62
     1
 10
850.345007504
 20
234.233959796
 30
0.0
 11
882.345007504
 21
234.233959796
 31
0.0
  0
LINE
  8
0
  6
CONTINUOUS
 62
     1
 10
850.345007504
 20
202.233959796
 30
0.0
 11
850.345007504
 21
234.233959796
 31
0.0
  0
ARC
  8
0
  6
CONTINUOUS
 62
     1
 10
811.345007504
 20
290.733959796
 30
0.0
 40
10.0
 50
90.0
 51
180.0
  0
LINE
  8
0
  6
CONTINUOUS
 62
     1
 10
811.345007504
 20
300.733959796
 30
0.0
 11
921.345007504
 21
300.733959796
 31
0.0
  0
LINE
  8
0
  6
LTYPE2
 62
     2
 10
932.606028721
 20
276.233959796
 30
0.0
 11
841.345007504
 21
276.233959796
 31
0.0
  0
LINE
  8
0
  6
CONTINUOUS
 62
     1
 10
882.345007504
 20
202.233959796
 30
0.0
 11
850.345007504
 21
202.233959796
 31
0.0
  0
LINE
  8
0
  6
LTYPE2
 62
     2
 10
819.045007504
 20
145.133959796
 30
0.0
 11
829.005007504
 21
145.133959796
 31
0.0
  0
LINE
  8
0
  6
LTYPE2
 62
     2
 10
824.045007504
 20
141.233959796
 30
0.0
 11
824.045007504
 21
149.113959796
 31
0.0
  0
LINE
  8
0
  6
LTYPE2
 62
     2
 10
819.045007504
 20
175.333959796
 30
0.0
 11
828.845007504
 21
175.333959796
 31
0.0
  0
LINE
  8
0
  6
LTYPE2
 62
     2
 10
824.045007504
 20
169.213959796
 30
0.0
 11
824.045007504
 21
179.233959796
 31
0.0
  0
LINE
  8
0
  6
LTYPE2
 62
     2
 10
820.345007504
 20
198.233959796
 30
0.0
 11
797.345007504
 21
198.233959796
 31
0.0
  0
ARC
  8
0
  6
CONTINUOUS
 62
     1
 10
821.045007504
 20
142.233959796
 30
0.0
 40
2.0
 50
180.0
 51
270.0
  0
LINE
  8
0
  6
CONTINUOUS
 62
     1
 10
795.645007504
 20
147.533959796
 30
0.0
 11
819.045007504
 21
147.533959796
 31
0.0
  0
ARC
  8
0
  6
CONTINUOUS
 62
     1
 10
795.645007504
 20
149.533959796
 30
0.0
 40
2.0
 50
180.0
 51
270.0
  0
LINE
  8
0
  6
CONTINUOUS
 62
     1
 10
793.645007504
 20
149.533959796
 30
0.0
 11
793.645007504
 21
170.933959796
 31
0.0
  0
ARC
  8
0
  6
CONTINUOUS
 62
     1
 10
795.645007504
 20
170.933959796
 30
0.0
 40
2.0
 50
90.0
 51
180.0
  0
LINE
  8
0
  6
CONTINUOUS
 62
     1
 10
819.045007504
 20
142.233959796
 30
0.0
 11
819.045007504
 21
178.233959796
 31
0.0
  0
ARC
  8
0
  6
CONTINUOUS
 62
     1
 10
821.045007504
 20
178.233959796
 30
0.0
 40
2.0
 50
90.0
 51
180.0
  0
LINE
  8
0
  6
CONTINUOUS
 62
     1
 10
821.045007504
 20
180.233959796
 30
0.0
 11
885.745007504
 21
180.233959796
 31
0.0
  0
LINE
  8
0
  6
CONTINUOUS
 62
     1
 10
821.045007504
 20
140.233959796
 30
0.0
 11
885.745007504
 21
140.233959796
 31
0.0
  0
LINE
  8
0
  6
CONTINUOUS
 62
     1
 10
801.345007504
 20
147.533959796
 30
0.0
 11
801.345007504
 21
145.733959796
 31
0.0
  0
LINE
  8
0
  6
CONTINUOUS
 62
     1
 10
921.345007504
 20
135.733959796
 30
0.0
 11
811.345007504
 21
135.733959796
 31
0.0
  0
ARC
  8
0
  6
CONTINUOUS
 62
     1
 10
811.345007504
 20
145.733959796
 30
0.0
 40
10.0
 50
180.0
 51
270.0
  0
LINE
  8
0
  6
CONTINUOUS
 62
     1
 10
803.353323516
 20
160.54974927
 30
0.0
 11
805.350551512
 21
198.444486112
 31
0.0
  0
LINE
  8
0
  6
CONTINUOUS
 62
     1
 10
815.336691491
 20
160.54974927
 30
0.0
 11
813.339463495
 21
198.444486112
 31
0.0
  0
ARC
  8
0
  6
CONTINUOUS
 62
     1
 10
809.345007504
 20
198.233959796
 30
0.0
 40
4.0
 50
356.983042101
 51
183.016952287
  0
ARC
  8
0
  6
CONTINUOUS
 62
     1
 10
809.345007504
 20
198.233959796
 30
0.0
 40
8.75
 50
300.219855722
 51
239.780144278
  0
ARC
  8
0
  6
CONTINUOUS
 62
     1
 10
809.345007504
 20
160.233959796
 30
0.0
 40
6.0
 50
176.983045121
 51
3.016954879
  0
LINE
  8
0
  6
CONTINUOUS
 62
     1
 10
814.683986287
 20
172.933959796
 30
0.0
 11
819.045007504
 21
172.933959796
 31
0.0
  0
LINE
  8
0
  6
CONTINUOUS
 62
     1
 10
795.645007504
 20
172.933959796
 30
0.0
 11
804.006028721
 21
172.933959796
 31
0.0
  0
LINE
  8
0
  6
LTYPE2
 62
     2
 10
809.345007504
 20
151.133959796
 30
0.0
 11
809.345007504
 21
208.633959796
 31
0.0
  0
LINE
  8
0
  6
LTYPE2
 62
     2
 10
800.083986287
 20
160.233959796
 30
0.0
 11
891.345007504
 21
160.233959796
 31
0.0
  0
LINE
  8
0
  6
CONTINUOUS
 62
     1
 10
801.345007504
 20
194.689598077
 30
0.0
 11
801.345007504
 21
172.883959796
 31
0.0
  0
LINE
  8
0
  6
CONTINUOUS
 62
     1
 10
801.345007504
 20
210.233959796
 30
0.0
 11
801.345007504
 21
201.778321516
 31
0.0
  0
LINE
  8
0
  6
CONTINUOUS
 62
     1
 10
784.965950487
 20
210.233959796
 30
0.0
 11
850.345007504
 21
210.233959796
 31
0.0
  0
LINE
  8
0
  6
CONTINUOUS
 62
     1
 10
850.345007504
 20
226.233959796
 30
0.0
 11
785.035585466
 21
226.233959796
 31
0.0
  0
ARC
  8
0
  6
CONTINUOUS
 62
     1
 10
790.590476082
 20
222.233959796
 30
0.0
 40
6.845203412
 50
144.242860688
 51
215.757139312
  0
ARC
  8
0
  6
CONTINUOUS
 62
     1
 10
779.480694851
 20
222.233959796
 30
0.0
 40
6.845203412
 50
324.242860688
 51
35.757139312
  0
ARC
  8
0
  6
CONTINUOUS
 62
     1
 10
779.480694851
 20
214.233959796
 30
0.0
 40
6.845203412
 50
324.242860688
 51
35.757139312
  0
LINE
  8
0
  6
LTYPE3
 62
     2
 10
1014.845007504
 20
218.233959796
 30
0.0
 11
780.000767977
 21
218.233959796
 31
0.0
  0
LINE
  8
7
  6
CONTINUOUS
 62
     2
 10
844.945007504
 20
276.233959796
 30
0.0
 11
836.636529614
 21
270.668962477
 31
0.0
  0
LINE
  8
7
  6
CONTINUOUS
 62
     2
 10
844.945007504
 20
276.233959796
 30
0.0
 11
840.532153244
 21
267.260291801
 31
0.0
  0
LINE
  8
7
  6
CONTINUOUS
 62
     2
 10
844.945007504
 20
276.233959796
 30
0.0
 11
833.745007504
 21
263.433959796
 31
0.0
  0
LINE
  8
7
  6
CONTINUOUS
 62
     2
 10
833.745007504
 20
263.433959796
 30
0.0
 11
774.945007504
 21
263.433959796
 31
0.0
  0
TEXT
  8
7
  6
CONTINUOUS
 62
     2
 10
774.945007504
 20
267.433959796
 30
1.2
 40
12.0
  1
ＰＦ１／２
 50
0.0
 41
0.9
 51
0.0
  7
KANJI23
  0
LINE
  8
0
  6
CONTINUOUS
 62
     1
 10
801.345007504
 20
280.433959796
 30
0.0
 11
801.345007504
 21
290.733959796
 31
0.0
  0
LINE
  8
0
  6
CONTINUOUS
 62
     1
 10
801.345007504
 20
226.233959796
 30
0.0
 11
801.345007504
 21
260.433959796
 31
0.0
  0
LINE
  8
0
  6
LTYPE2
 62
     2
 10
856.385007504
 20
291.333959796
 30
0.0
 11
844.945007504
 21
291.333959796
 31
0.0
  0
LINE
  8
0
  6
LTYPE2
 62
     2
 10
849.945007504
 20
295.233959796
 30
0.0
 11
849.945007504
 21
286.253959796
 31
0.0
  0
LINE
  8
0
  6
CONTINUOUS
 62
     1
 10
911.645007504
 20
296.233959796
 30
0.0
 11
846.945007504
 21
296.233959796
 31
0.0
  0
LINE
  8
0
  6
CONTINUOUS
 62
     1
 10
844.945007504
 20
294.233959796
 30
0.0
 11
844.945007504
 21
258.233959796
 31
0.0
  0
ARC
  8
0
  6
CONTINUOUS
 62
     1
 10
846.945007504
 20
294.233959796
 30
0.0
 40
2.0
 50
90.0
 51
180.0
  0
LINE
  8
0
  6
LTYPE2
 62
     2
 10
855.845007504
 20
261.133959796
 30
0.0
 11
844.945007504
 21
261.133959796
 31
0.0
  0
LINE
  8
0
  6
LTYPE2
 62
     2
 10
849.945007504
 20
267.153959796
 30
0.0
 11
849.945007504
 21
257.233959796
 31
0.0
  0
LINE
  8
0
  6
CONTINUOUS
 62
     1
 10
911.645007504
 20
256.233959796
 30
0.0
 11
846.945007504
 21
256.233959796
 31
0.0
  0
ARC
  8
0
  6
CONTINUOUS
 62
     1
 10
846.945007504
 20
258.233959796
 30
0.0
 40
2.0
 50
180.0
 51
270.0
  0
LINE
  8
0
  6
LTYPE2
 62
     2
 10
876.845007504
 20
175.333959796
 30
0.0
 11
887.745007504
 21
175.333959796
 31
0.0
  0
LINE
  8
0
  6
LTYPE2
 62
     2
 10
882.745007504
 20
169.313959796
 30
0.0
 11
882.745007504
 21
179.233959796
 31
0.0
  0
LINE
  8
0
  6
LTYPE2
 62
     2
 10
876.305007504
 20
145.133959796
 30
0.0
 11
887.745007504
 21
145.133959796
 31
0.0
  0
LINE
  8
0
  6
LTYPE2
 62
     2
 10
882.745007504
 20
141.233959796
 30
0.0
 11
882.745007504
 21
150.213959796
 31
0.0
  0
ARC
  8
0
  6
CONTINUOUS
 62
     1
 10
885.745007504
 20
178.233959796
 30
0.0
 40
2.0
 50
0.0
 51
90.0
  0
ARC
  8
0
  6
CONTINUOUS
 62
     1
 10
885.745007504
 20
142.233959796
 30
0.0
 40
2.0
 50
270.0
 51
0.0
  0
LINE
  8
0
  6
CONTINUOUS
 62
     1
 10
882.345007504
 20
202.233959796
 30
0.0
 11
882.345007504
 21
234.233959796
 31
0.0
  0
LINE
  8
0
  6
CONTINUOUS
 62
     1
 10
887.745007504
 20
142.233959796
 30
0.0
 11
887.745007504
 21
178.233959796
 31
0.0
  0
ARC
  8
0
  6
CONTINUOUS
 62
     1
 10
921.345007504
 20
145.733959796
 30
0.0
 40
10.0
 50
270.0
 51
0.0
  0
LINE
  8
7
  6
CONTINUOUS
 62
     2
 10
887.745007504
 20
160.233959796
 30
0.0
 11
896.112315088
 21
165.710104771
 31
0.0
  0
LINE
  8
7
  6
CONTINUOUS
 62
     2
 10
887.745007504
 20
160.233959796
 30
0.0
 11
892.253235946
 21
169.160094251
 31
0.0
  0
LINE
  8
7
  6
CONTINUOUS
 62
     2
 10
887.745007504
 20
160.233959796
 30
0.0
 11
900.395007504
 21
174.383959796
 31
0.0
  0
LINE
  8
7
  6
CONTINUOUS
 62
     2
 10
900.395007504
 20
174.383959796
 30
0.0
 11
959.195007504
 21
174.383959796
 31
0.0
  0
TEXT
  8
7
  6
CONTINUOUS
 62
     2
 10
900.395007504
 20
178.383959796
 30
1.2
 40
12.0
  1
ＰＦ１／２
 50
0.0
 41
0.9
 51
0.0
  7
KANJI23
  0
LINE
  8
0
  6
CONTINUOUS
 62
     1
 10
931.345007504
 20
171.433959796
 30
0.0
 11
931.345007504
 21
145.733959796
 31
0.0
  0
LINE
  8
0
  6
CONTINUOUS
 62
     1
 10
931.345007504
 20
288.933959796
 30
0.0
 11
931.345007504
 21
290.733959796
 31
0.0
  0
ARC
  8
0
  6
CONTINUOUS
 62
     1
 10
921.345007504
 20
290.733959796
 30
0.0
 40
10.0
 50
0.0
 51
90.0
  0
LINE
  8
0
  6
CONTINUOUS
 62
     1
 10
931.345007504
 20
241.778321516
 30
0.0
 11
931.345007504
 21
263.583959796
 31
0.0
  0
LINE
  8
0
  6
CONTINUOUS
 62
     1
 10
931.345007504
 20
226.233959796
 30
0.0
 11
931.345007504
 21
234.689598077
 31
0.0
  0
ARC
  8
0
  6
CONTINUOUS
 62
     1
 10
1004.599538926
 20
222.233959796
 30
0.0
 40
6.845203412
 50
324.242860688
 51
35.757139312
  0
ARC
  8
0
  6
CONTINUOUS
 62
     1
 10
1015.709320156
 20
222.233959796
 30
0.0
 40
6.845203412
 50
144.242860688
 51
215.757139312
  0
ARC
  8
0
  6
CONTINUOUS
 62
     1
 10
1015.709320156
 20
214.233959796
 30
0.0
 40
6.845203412
 50
144.242860688
 51
215.757139312
  0
LINE
  8
0
  6
LTYPE3
 62
     2
 10
962.845007504
 20
208.233959796
 30
0.0
 11
962.845007504
 21
228.233959796
 31
0.0
  0
CIRCLE
  8
0
  6
CONTINUOUS
 62
     2
 10
962.845007504
 20
218.233959796
 30
0.0
 40
5.0
  0
CIRCLE
  8
0
  6
CONTINUOUS
 62
     2
 10
962.845007504
 20
218.233959796
 30
0.0
 40
4.0
  0
LINE
  8
0
  6
LTYPE2
 62
     2
 10
913.645007504
 20
291.333959796
 30
0.0
 11
903.685007504
 21
291.333959796
 31
0.0
  0
LINE
  8
0
  6
LTYPE2
 62
     2
 10
908.645007504
 20
295.233959796
 30
0.0
 11
908.645007504
 21
287.353959796
 31
0.0
  0
ARC
  8
0
  6
CONTINUOUS
 62
     1
 10
911.645007504
 20
294.233959796
 30
0.0
 40
2.0
 50
0.0
 51
90.0
  0
LINE
  8
0
  6
CONTINUOUS
 62
     1
 10
937.045007504
 20
288.933959796
 30
0.0
 11
913.645007504
 21
288.933959796
 31
0.0
  0
LINE
  8
0
  6
CONTINUOUS
 62
     1
 10
913.645007504
 20
294.233959796
 30
0.0
 11
913.645007504
 21
258.233959796
 31
0.0
  0
LINE
  8
0
  6
LTYPE2
 62
     2
 10
913.645007504
 20
261.133959796
 30
0.0
 11
903.845007504
 21
261.133959796
 31
0.0
  0
LINE
  8
0
  6
LTYPE2
 62
     2
 10
908.645007504
 20
267.253959796
 30
0.0
 11
908.645007504
 21
257.233959796
 31
0.0
  0
ARC
  8
0
  6
CONTINUOUS
 62
     1
 10
911.645007504
 20
258.233959796
 30
0.0
 40
2.0
 50
270.0
 51
0.0
  0
LINE
  8
0
  6
CONTINUOUS
 62
     1
 10
918.006028721
 20
263.533959796
 30
0.0
 11
913.645007504
 21
263.533959796
 31
0.0
  0
ARC
  8
0
  6
CONTINUOUS
 62
     1
 10
937.045007504
 20
286.933959796
 30
0.0
 40
2.0
 50
0.0
 51
90.0
  0
LINE
  8
0
  6
CONTINUOUS
 62
     1
 10
939.045007504
 20
286.933959796
 30
0.0
 11
939.045007504
 21
265.533959796
 31
0.0
  0
ARC
  8
0
  6
CONTINUOUS
 62
     1
 10
923.345007504
 20
276.233959796
 30
0.0
 40
6.0
 50
356.983045121
 51
183.016954879
  0
LINE
  8
0
  6
LTYPE2
 62
     2
 10
923.345007504
 20
285.333959796
 30
0.0
 11
923.345007504
 21
227.833959796
 31
0.0
  0
LINE
  8
0
  6
CONTINUOUS
 62
     1
 10
929.336691491
 20
275.918170323
 30
0.0
 11
927.339463495
 21
238.02343348
 31
0.0
  0
LINE
  8
0
  6
CONTINUOUS
 62
     1
 10
917.353323516
 20
275.918170323
 30
0.0
 11
919.350551512
 21
238.02343348
 31
0.0
  0
ARC
  8
0
  6
CONTINUOUS
 62
     1
 10
937.045007504
 20
265.533959796
 30
0.0
 40
2.0
 50
270.0
 51
0.0
  0
LINE
  8
0
  6
CONTINUOUS
 62
     1
 10
937.045007504
 20
263.533959796
 30
0.0
 11
928.683986287
 21
263.533959796
 31
0.0
  0
LINE
  8
0
  6
LTYPE2
 62
     2
 10
912.345007504
 20
238.233959796
 30
0.0
 11
935.345007504
 21
238.233959796
 31
0.0
  0
ARC
  8
0
  6
CONTINUOUS
 62
     1
 10
923.345007504
 20
238.233959796
 30
0.0
 40
8.75
 50
120.219855722
 51
59.780144278
  0
ARC
  8
0
  6
CONTINUOUS
 62
     1
 10
923.345007504
 20
238.233959796
 30
0.0
 40
4.0
 50
176.983042101
 51
3.016952287
  0
LINE
  8
0
  6
CONTINUOUS
 62
     1
 10
941.845007504
 20
229.233959796
 30
0.0
 11
950.505261542
 21
234.233959796
 31
0.0
  0
LINE
  8
0
  6
CONTINUOUS
 62
     1
 10
941.845007504
 20
207.233959796
 30
0.0
 11
941.845007504
 21
229.233959796
 31
0.0
  0
LINE
  8
0
  6
CONTINUOUS
 62
     1
 10
950.495007504
 20
234.233959796
 30
0.0
 11
975.195007504
 21
234.233959796
 31
0.0
  0
LINE
  8
0
  6
CONTINUOUS
 62
     1
 10
950.495007504
 20
202.233959796
 30
0.0
 11
950.495007504
 21
234.233959796
 31
0.0
  0
LINE
  8
0
  6
CONTINUOUS
 62
     1
 10
950.495007504
 20
202.233959796
 30
0.0
 11
975.195007504
 21
202.233959796
 31
0.0
  0
LINE
  8
0
  6
CONTINUOUS
 62
     1
 10
941.845007504
 20
207.233959796
 30
0.0
 11
950.505261542
 21
202.233959796
 31
0.0
  0
LINE
  8
0
  6
CONTINUOUS
 62
     1
 10
983.845007504
 20
207.233959796
 30
0.0
 11
983.845007504
 21
229.233959796
 31
0.0
  0
LINE
  8
0
  6
CONTINUOUS
 62
     1
 10
975.195007504
 20
202.233959796
 30
0.0
 11
975.195007504
 21
234.233959796
 31
0.0
  0
LINE
  8
0
  6
CONTINUOUS
 62
     1
 10
983.845007504
 20
207.233959796
 30
0.0
 11
975.184753466
 21
202.233959796
 31
0.0
  0
LINE
  8
0
  6
CONTINUOUS
 62
     1
 10
983.845007504
 20
229.233959796
 30
0.0
 11
975.184753466
 21
234.233959796
 31
0.0
  0
LINE
  8
0
  6
CONTINUOUS
 62
     1
 10
983.845007504
 20
226.233959796
 30
0.0
 11
1010.154429541
 21
226.233959796
 31
0.0
  0
LINE
  8
0
  6
CONTINUOUS
 62
     1
 10
1010.154429541
 20
210.233959796
 30
0.0
 11
983.845007504
 21
210.233959796
 31
0.0
  0
LINE
  8
0
  6
CONTINUOUS
 62
     1
 10
941.845007504
 20
210.233959796
 30
0.0
 11
882.345007504
 21
210.233959796
 31
0.0
  0
LINE
  8
0
  6
CONTINUOUS
 62
     1
 10
882.345007504
 20
226.233959796
 30
0.0
 11
941.845007504
 21
226.233959796
 31
0.0
  0
LINE
  8
0
  6
CONTINUOUS
 62
     2
 10
801.345007504
 20
141.533959796
 30
0.0
 11
801.345007504
 21
86.833959796
 31
0.0
  0
LINE
  8
0
  6
CONTINUOUS
 62
     2
 10
801.345007504
 20
92.833959796
 30
0.0
 11
812.936117419
 21
89.728131255
 31
0.0
  0
LINE
  8
0
  6
CONTINUOUS
 62
     2
 10
801.345007504
 20
92.833959796
 30
0.0
 11
812.936117419
 21
95.939788337
 31
0.0
  0
LINE
  8
0
  6
CONTINUOUS
 62
     2
 10
801.345007504
 20
92.833959796
 30
0.0
 11
931.345007504
 21
92.833959796
 31
0.0
  0
LINE
  8
0
  6
CONTINUOUS
 62
     2
 10
931.345007504
 20
92.833959796
 30
0.0
 11
919.753897588
 21
95.939788337
 31
0.0
  0
LINE
  8
0
  6
CONTINUOUS
 62
     2
 10
931.345007504
 20
92.833959796
 30
0.0
 11
919.753897588
 21
89.728131255
 31
0.0
  0
LINE
  8
0
  6
CONTINUOUS
 62
     2
 10
931.345007504
 20
139.733970586
 30
0.0
 11
931.345007504
 21
86.833959796
 31
0.0
  0
TEXT
  8
0
  6
CONTINUOUS
 62
     3
 10
842.045007504
 20
101.833959796
 30
0.0
 40
18.0
  1
１３０
 50
0.0
 41
0.9
 51
0.0
  7
KANJI24
  0
LINE
  8
0
  6
CONTINUOUS
 62
     2
 10
805.345007504
 20
300.733959796
 30
0.0
 11
745.0
 21
300.733959796
 31
0.0
  0
LINE
  8
0
  6
CONTINUOUS
 62
     2
 10
751.0
 20
300.733959796
 30
0.0
 11
747.894171459
 21
289.142849881
 31
0.0
  0
LINE
  8
0
  6
CONTINUOUS
 62
     2
 10
751.0
 20
300.733959796
 30
0.0
 11
754.105828541
 21
289.142849881
 31
0.0
  0
LINE
  8
0
  6
CONTINUOUS
 62
     2
 10
751.0
 20
300.733959796
 30
0.0
 11
751.0
 21
135.733959796
 31
0.0
  0
LINE
  8
0
  6
CONTINUOUS
 62
     2
 10
751.0
 20
135.733959796
 30
0.0
 11
754.105828541
 21
147.325069712
 31
0.0
  0
LINE
  8
0
  6
CONTINUOUS
 62
     2
 10
751.0
 20
135.733959796
 30
0.0
 11
747.894171459
 21
147.325069712
 31
0.0
  0
LINE
  8
0
  6
CONTINUOUS
 62
     2
 10
805.345018293
 20
135.733959796
 30
0.0
 11
745.0
 21
135.733959796
 31
0.0
  0
TEXT
  8
0
  6
CONTINUOUS
 62
     3
 10
742.0
 20
193.933959796
 30
0.0
 40
18.0
  1
１６５
 50
90.0
 41
0.9
 51
0.0
  7
KANJI24
  0
LINE
  8
0
  6
CONTINUOUS
 62
     1
 10
1014.12
 20
1511.24
 30
0.0
 11
1791.72
 21
1511.24
 31
0.0
  0
LINE
  8
0
  6
CONTINUOUS
 62
     1
 10
1014.12
 20
1477.64
 30
0.0
 11
1791.72
 21
1477.64
 31
0.0
  0
TEXT
  8
0
  6
CONTINUOUS
 62
     2
 10
1062.12
 20
1487.24
 30
1.536
 40
15.36
  1
形
 50
0.0
 41
0.9
 51
0.0
  7
KANJI25
  0
TEXT
  8
0
  6
CONTINUOUS
 62
     2
 10
1155.72
 20
1487.24
 30
1.536
 40
15.36
  1
式
 50
0.0
 41
0.9
 51
0.0
  7
KANJI25
  0
TEXT
  8
0
  6
CONTINUOUS
 62
     2
 10
1228.2
 20
1486.28
 30
1.44
 40
14.4
  1
ストローク
 50
0.0
 41
0.9
 51
0.0
  7
KANJI26
  0
TEXT
  8
0
  6
CONTINUOUS
 62
     2
 10
1320.36
 20
1485.32
 30
0.0
 40
14.4
  1
ｍｉｎ　
 50
0.0
 41
0.9
 51
0.0
  7
KANJI27
  0
TEXT
  8
0
  6
CONTINUOUS
 62
     2
 10
1416.36
 20
1485.32
 30
0.0
 40
14.4
  1
ｍｉｎ　
 50
0.0
 41
0.9
 51
0.0
  7
KANJI27
  0
TEXT
  8
0
  6
CONTINUOUS
 62
     2
 10
1608.36
 20
1485.32
 30
0.0
 40
14.4
  1
ｍｉｎ　
 50
0.0
 41
0.9
 51
0.0
  7
KANJI27
  0
TEXT
  8
0
  6
CONTINUOUS
 62
     2
 10
1369.32
 20
1486.28
 30
1.68
 40
16.8
  1
ＡＬ
 50
0.0
 41
0.9
 51
0.0
  7
KANJI28
  0
TEXT
  8
0
  6
CONTINUOUS
 62
     2
 10
1465.32
 20
1486.28
 30
1.68
 40
16.8
  1
Ｌ
 50
0.0
 41
0.9
 51
0.0
  7
KANJI28
  0
TEXT
  8
0
  6
CONTINUOUS
 62
     2
 10
1546.92
 20
1486.28
 30
1.68
 40
16.8
  1
Ｃ
 50
0.0
 41
0.9
 51
0.0
  7
KANJI28
  0
TEXT
  8
0
  6
CONTINUOUS
 62
     2
 10
1657.32
 20
1486.28
 30
1.68
 40
16.8
  1
Ｐ
 50
0.0
 41
0.9
 51
0.0
  7
KANJI28
  0
TEXT
  8
0
  6
CONTINUOUS
 62
     2
 10
1756.08
 20
1485.92
 30
0.0
 40
12.96
  1
（ｋｇ）
 50
0.0
 41
0.740740741
 51
0.0
  7
KANJI29
  0
TEXT
  8
0
  6
CONTINUOUS
 62
     2
 10
1698.48
 20
1485.68
 30
1.44
 40
16.8
  1
概算重量
 50
0.0
 41
0.857142857
 51
0.0
  7
KANJI30
  0
TEXT
  8
0
  6
CONTINUOUS
 62
     2
 10
1237.32
 20
1454.08
 30
1.44
 40
14.4
  1
　２００
 50
0.0
 41
0.9
 51
0.0
  7
KANJI26
  0
TEXT
  8
0
  6
CONTINUOUS
 62
     2
 10
1621.32
 20
1454.08
 30
1.44
 40
14.4
  1
　　４５
 50
0.0
 41
0.9
 51
0.0
  7
KANJI26
  0
LINE
  8
0
  6
CONTINUOUS
 62
     2
 10
1014.12
 20
1446.04
 30
0.0
 11
1791.72
 21
1446.04
 31
0.0
  0
TEXT
  8
0
  6
CONTINUOUS
 62
     2
 10
1525.32
 20
1454.08
 30
1.44
 40
14.4
  1
　５１０
 50
0.0
 41
0.9
 51
0.0
  7
KANJI26
  0
TEXT
  8
0
  6
CONTINUOUS
 62
     2
 10
1429.32
 20
1454.08
 30
1.44
 40
14.4
  1
　６２５
 50
0.0
 41
0.9
 51
0.0
  7
KANJI26
  0
TEXT
  8
0
  6
CONTINUOUS
 62
     2
 10
1333.32
 20
1454.08
 30
1.44
 40
14.4
  1
　８５０
 50
0.0
 41
0.9
 51
0.0
  7
KANJI26
  0
TEXT
  8
0
  6
CONTINUOUS
 62
     2
 10
1237.32
 20
1422.48
 30
1.44
 40
14.4
  1
　３００
 50
0.0
 41
0.9
 51
0.0
  7
KANJI26
  0
TEXT
  8
0
  6
CONTINUOUS
 62
     2
 10
1621.32
 20
1422.48
 30
1.44
 40
14.4
  1
　　４５
 50
0.0
 41
0.9
 51
0.0
  7
KANJI26
  0
LINE
  8
0
  6
CONTINUOUS
 62
     2
 10
1014.12
 20
1414.44
 30
0.0
 11
1791.72
 21
1414.44
 31
0.0
  0
TEXT
  8
0
  6
CONTINUOUS
 62
     2
 10
1525.32
 20
1422.48
 30
1.44
 40
14.4
  1
　６１０
 50
0.0
 41
0.9
 51
0.0
  7
KANJI26
  0
TEXT
  8
0
  6
CONTINUOUS
 62
     2
 10
1429.32
 20
1422.48
 30
1.44
 40
14.4
  1
　７２５
 50
0.0
 41
0.9
 51
0.0
  7
KANJI26
  0
TEXT
  8
0
  6
CONTINUOUS
 62
     2
 10
1333.32
 20
1422.48
 30
1.44
 40
14.4
  1
　９５０
 50
0.0
 41
0.9
 51
0.0
  7
KANJI26
  0
TEXT
  8
0
  6
CONTINUOUS
 62
     2
 10
1237.32
 20
1390.88
 30
1.44
 40
14.4
  1
　４００
 50
0.0
 41
0.9
 51
0.0
  7
KANJI26
  0
TEXT
  8
0
  6
CONTINUOUS
 62
     2
 10
1621.32
 20
1390.88
 30
1.44
 40
14.4
  1
　　４５
 50
0.0
 41
0.9
 51
0.0
  7
KANJI26
  0
LINE
  8
0
  6
CONTINUOUS
 62
     2
 10
1014.12
 20
1382.84
 30
0.0
 11
1791.72
 21
1382.84
 31
0.0
  0
TEXT
  8
0
  6
CONTINUOUS
 62
     2
 10
1525.32
 20
1390.88
 30
1.44
 40
14.4
  1
　７１０
 50
0.0
 41
0.9
 51
0.0
  7
KANJI26
  0
TEXT
  8
0
  6
CONTINUOUS
 62
     2
 10
1429.32
 20
1390.88
 30
1.44
 40
14.4
  1
　８２５
 50
0.0
 41
0.9
 51
0.0
  7
KANJI26
  0
TEXT
  8
0
  6
CONTINUOUS
 62
     2
 10
1333.32
 20
1390.88
 30
1.44
 40
14.4
  1
１０５０
 50
0.0
 41
0.9
 51
0.0
  7
KANJI26
  0
TEXT
  8
0
  6
CONTINUOUS
 62
     2
 10
1237.32
 20
1359.28
 30
1.44
 40
14.4
  1
　５００
 50
0.0
 41
0.9
 51
0.0
  7
KANJI26
  0
TEXT
  8
0
  6
CONTINUOUS
 62
     2
 10
1621.32
 20
1359.28
 30
1.44
 40
14.4
  1
　　４５
 50
0.0
 41
0.9
 51
0.0
  7
KANJI26
  0
LINE
  8
0
  6
CONTINUOUS
 62
     2
 10
1014.12
 20
1351.24
 30
0.0
 11
1791.72
 21
1351.24
 31
0.0
  0
TEXT
  8
0
  6
CONTINUOUS
 62
     2
 10
1525.32
 20
1359.28
 30
1.44
 40
14.4
  1
　８１０
 50
0.0
 41
0.9
 51
0.0
  7
KANJI26
  0
TEXT
  8
0
  6
CONTINUOUS
 62
     2
 10
1429.32
 20
1359.28
 30
1.44
 40
14.4
  1
　９２５
 50
0.0
 41
0.9
 51
0.0
  7
KANJI26
  0
TEXT
  8
0
  6
CONTINUOUS
 62
     2
 10
1333.32
 20
1359.28
 30
1.44
 40
14.4
  1
１１５０
 50
0.0
 41
0.9
 51
0.0
  7
KANJI26
  0
LINE
  8
0
  6
CONTINUOUS
 62
     2
 10
1014.12
 20
1319.64
 30
0.0
 11
1791.72
 21
1319.64
 31
0.0
  0
TEXT
  8
0
  6
CONTINUOUS
 62
     2
 10
1237.32
 20
1327.68
 30
1.44
 40
14.4
  1
　６００
 50
0.0
 41
0.9
 51
0.0
  7
KANJI26
  0
TEXT
  8
0
  6
CONTINUOUS
 62
     2
 10
1333.32
 20
1327.68
 30
1.44
 40
14.4
  1
１２９０
 50
0.0
 41
0.9
 51
0.0
  7
KANJI26
  0
TEXT
  8
0
  6
CONTINUOUS
 62
     2
 10
1429.32
 20
1327.68
 30
1.44
 40
14.4
  1
１０６５
 50
0.0
 41
0.9
 51
0.0
  7
KANJI26
  0
TEXT
  8
0
  6
CONTINUOUS
 62
     2
 10
1525.32
 20
1327.68
 30
1.44
 40
14.4
  1
　９５０
 50
0.0
 41
0.9
 51
0.0
  7
KANJI26
  0
TEXT
  8
0
  6
CONTINUOUS
 62
     2
 10
1621.32
 20
1327.68
 30
1.44
 40
14.4
  1
　　４５
 50
0.0
 41
0.9
 51
0.0
  7
KANJI26
  0
LINE
  8
0
  6
CONTINUOUS
 62
     2
 10
1014.12
 20
1288.04
 30
0.0
 11
1791.72
 21
1288.04
 31
0.0
  0
TEXT
  8
0
  6
CONTINUOUS
 62
     2
 10
1237.32
 20
1296.08
 30
1.44
 40
14.4
  1
　７００
 50
0.0
 41
0.9
 51
0.0
  7
KANJI26
  0
TEXT
  8
0
  6
CONTINUOUS
 62
     2
 10
1333.32
 20
1296.08
 30
1.44
 40
14.4
  1
１３９０
 50
0.0
 41
0.9
 51
0.0
  7
KANJI26
  0
TEXT
  8
0
  6
CONTINUOUS
 62
     2
 10
1429.32
 20
1296.08
 30
1.44
 40
14.4
  1
１１６５
 50
0.0
 41
0.9
 51
0.0
  7
KANJI26
  0
TEXT
  8
0
  6
CONTINUOUS
 62
     2
 10
1525.32
 20
1296.08
 30
1.44
 40
14.4
  1
１０５０
 50
0.0
 41
0.9
 51
0.0
  7
KANJI26
  0
TEXT
  8
0
  6
CONTINUOUS
 62
     2
 10
1621.32
 20
1296.08
 30
1.44
 40
14.4
  1
　　４５
 50
0.0
 41
0.9
 51
0.0
  7
KANJI26
  0
LINE
  8
0
  6
CONTINUOUS
 62
     2
 10
1014.12
 20
1256.44
 30
0.0
 11
1791.72
 21
1256.44
 31
0.0
  0
TEXT
  8
0
  6
CONTINUOUS
 62
     2
 10
1237.32
 20
1264.48
 30
1.44
 40
14.4
  1
　８００
 50
0.0
 41
0.9
 51
0.0
  7
KANJI26
  0
TEXT
  8
0
  6
CONTINUOUS
 62
     2
 10
1333.32
 20
1264.48
 30
1.44
 40
14.4
  1
１４９０
 50
0.0
 41
0.9
 51
0.0
  7
KANJI26
  0
TEXT
  8
0
  6
CONTINUOUS
 62
     2
 10
1429.32
 20
1264.48
 30
1.44
 40
14.4
  1
１２６５
 50
0.0
 41
0.9
 51
0.0
  7
KANJI26
  0
TEXT
  8
0
  6
CONTINUOUS
 62
     2
 10
1525.32
 20
1264.48
 30
1.44
 40
14.4
  1
１１５０
 50
0.0
 41
0.9
 51
0.0
  7
KANJI26
  0
TEXT
  8
0
  6
CONTINUOUS
 62
     2
 10
1621.32
 20
1264.48
 30
1.44
 40
14.4
  1
　　４５
 50
0.0
 41
0.9
 51
0.0
  7
KANJI26
  0
LINE
  8
0
  6
CONTINUOUS
 62
     2
 10
1014.12
 20
1224.84
 30
0.0
 11
1791.72
 21
1224.84
 31
0.0
  0
TEXT
  8
0
  6
CONTINUOUS
 62
     2
 10
1237.32
 20
1232.88
 30
1.44
 40
14.4
  1
　９００
 50
0.0
 41
0.9
 51
0.0
  7
KANJI26
  0
TEXT
  8
0
  6
CONTINUOUS
 62
     2
 10
1333.32
 20
1232.88
 30
1.44
 40
14.4
  1
１５９０
 50
0.0
 41
0.9
 51
0.0
  7
KANJI26
  0
TEXT
  8
0
  6
CONTINUOUS
 62
     2
 10
1429.32
 20
1232.88
 30
1.44
 40
14.4
  1
１３６５
 50
0.0
 41
0.9
 51
0.0
  7
KANJI26
  0
TEXT
  8
0
  6
CONTINUOUS
 62
     2
 10
1525.32
 20
1232.88
 30
1.44
 40
14.4
  1
１２５０
 50
0.0
 41
0.9
 51
0.0
  7
KANJI26
  0
TEXT
  8
0
  6
CONTINUOUS
 62
     2
 10
1621.32
 20
1232.88
 30
1.44
 40
14.4
  1
　　４５
 50
0.0
 41
0.9
 51
0.0
  7
KANJI26
  0
TEXT
  8
0
  6
CONTINUOUS
 62
     2
 10
1237.32
 20
1201.28
 30
1.44
 40
14.4
  1
１０００
 50
0.0
 41
0.9
 51
0.0
  7
KANJI26
  0
TEXT
  8
0
  6
CONTINUOUS
 62
     2
 10
1333.32
 20
1201.28
 30
1.44
 40
14.4
  1
１６９０
 50
0.0
 41
0.9
 51
0.0
  7
KANJI26
  0
TEXT
  8
0
  6
CONTINUOUS
 62
     2
 10
1429.32
 20
1201.28
 30
1.44
 40
14.4
  1
１４６５
 50
0.0
 41
0.9
 51
0.0
  7
KANJI26
  0
TEXT
  8
0
  6
CONTINUOUS
 62
     2
 10
1525.32
 20
1201.28
 30
1.44
 40
14.4
  1
１３５０
 50
0.0
 41
0.9
 51
0.0
  7
KANJI26
  0
TEXT
  8
0
  6
CONTINUOUS
 62
     2
 10
1621.32
 20
1201.28
 30
1.44
 40
14.4
  1
　　４５
 50
0.0
 41
0.9
 51
0.0
  7
KANJI26
  0
LINE
  8
0
  6
CONTINUOUS
 62
     2
 10
1014.12
 20
1193.24
 30
0.0
 11
1791.72
 21
1193.24
 31
0.0
  0
LINE
  8
0
  6
CONTINUOUS
 62
     2
 10
1014.12
 20
1161.64
 30
0.0
 11
1791.72
 21
1161.64
 31
0.0
  0
TEXT
  8
0
  6
CONTINUOUS
 62
     2
 10
1621.32
 20
1169.68
 30
1.44
 40
14.4
  1
　　４５
 50
0.0
 41
0.9
 51
0.0
  7
KANJI26
  0
LINE
  8
0
  6
CONTINUOUS
 62
     2
 10
1014.12
 20
1130.04
 30
0.0
 11
1791.72
 21
1130.04
 31
0.0
  0
TEXT
  8
0
  6
CONTINUOUS
 62
     2
 10
1621.32
 20
1138.08
 30
1.44
 40
14.4
  1
　　４５
 50
0.0
 41
0.9
 51
0.0
  7
KANJI26
  0
LINE
  8
0
  6
CONTINUOUS
 62
     2
 10
1014.12
 20
1098.44
 30
0.0
 11
1791.72
 21
1098.44
 31
0.0
  0
TEXT
  8
0
  6
CONTINUOUS
 62
     2
 10
1621.32
 20
1106.48
 30
1.44
 40
14.4
  1
　　４５
 50
0.0
 41
0.9
 51
0.0
  7
KANJI26
  0
LINE
  8
0
  6
CONTINUOUS
 62
     2
 10
1014.12
 20
1066.84
 30
0.0
 11
1791.72
 21
1066.84
 31
0.0
  0
TEXT
  8
0
  6
CONTINUOUS
 62
     2
 10
1621.32
 20
1074.88
 30
1.44
 40
14.4
  1
　　４５
 50
0.0
 41
0.9
 51
0.0
  7
KANJI26
  0
LINE
  8
0
  6
CONTINUOUS
 62
     2
 10
1014.12
 20
1035.24
 30
0.0
 11
1791.72
 21
1035.24
 31
0.0
  0
TEXT
  8
0
  6
CONTINUOUS
 62
     2
 10
1621.32
 20
1043.28
 30
1.44
 40
14.4
  1
　　４５
 50
0.0
 41
0.9
 51
0.0
  7
KANJI26
  0
LINE
  8
0
  6
CONTINUOUS
 62
     1
 10
1014.12
 20
1003.64
 30
0.0
 11
1791.72
 21
1003.64
 31
0.0
  0
LINE
  8
0
  6
CONTINUOUS
 62
     1
 10
1791.72
 20
1511.24
 30
0.0
 11
1791.72
 21
1003.64
 31
0.0
  0
LINE
  8
0
  6
CONTINUOUS
 62
     1
 10
1014.12
 20
1511.24
 30
0.0
 11
1014.12
 21
1003.64
 31
0.0
  0
LINE
  8
0
  6
CONTINUOUS
 62
     1
 10
1215.72
 20
1511.24
 30
0.0
 11
1215.72
 21
1003.64
 31
0.0
  0
LINE
  8
0
  6
CONTINUOUS
 62
     2
 10
1311.72
 20
1511.24
 30
0.0
 11
1311.72
 21
1003.64
 31
0.0
  0
LINE
  8
0
  6
CONTINUOUS
 62
     2
 10
1407.72
 20
1511.24
 30
0.0
 11
1407.72
 21
1003.64
 31
0.0
  0
LINE
  8
0
  6
CONTINUOUS
 62
     2
 10
1503.72
 20
1511.24
 30
0.0
 11
1503.72
 21
1003.64
 31
0.0
  0
LINE
  8
0
  6
CONTINUOUS
 62
     2
 10
1599.72
 20
1511.24
 30
0.0
 11
1599.72
 21
1003.64
 31
0.0
  0
LINE
  8
0
  6
CONTINUOUS
 62
     2
 10
1695.72
 20
1511.24
 30
0.0
 11
1695.72
 21
1003.64
 31
0.0
  0
TEXT
  8
0
  6
CONTINUOUS
 62
     2
 10
1237.32
 20
1169.68
 30
1.44
 40
14.4
  1
１１００
 50
0.0
 41
0.9
 51
0.0
  7
KANJI26
  0
TEXT
  8
0
  6
CONTINUOUS
 62
     2
 10
1237.32
 20
1138.08
 30
1.44
 40
14.4
  1
１２００
 50
0.0
 41
0.9
 51
0.0
  7
KANJI26
  0
TEXT
  8
0
  6
CONTINUOUS
 62
     2
 10
1237.32
 20
1106.48
 30
1.44
 40
14.4
  1
１３００
 50
0.0
 41
0.9
 51
0.0
  7
KANJI26
  0
TEXT
  8
0
  6
CONTINUOUS
 62
     2
 10
1237.32
 20
1074.88
 30
1.44
 40
14.4
  1
１４００
 50
0.0
 41
0.9
 51
0.0
  7
KANJI26
  0
TEXT
  8
0
  6
CONTINUOUS
 62
     2
 10
1237.32
 20
1043.28
 30
1.44
 40
14.4
  1
１５００
 50
0.0
 41
0.9
 51
0.0
  7
KANJI26
  0
TEXT
  8
0
  6
CONTINUOUS
 62
     2
 10
1525.32
 20
1169.68
 30
1.44
 40
14.4
  1
１４８０
 50
0.0
 41
0.9
 51
0.0
  7
KANJI26
  0
TEXT
  8
0
  6
CONTINUOUS
 62
     2
 10
1525.32
 20
1138.08
 30
1.44
 40
14.4
  1
１５８０
 50
0.0
 41
0.9
 51
0.0
  7
KANJI26
  0
TEXT
  8
0
  6
CONTINUOUS
 62
     2
 10
1525.32
 20
1106.48
 30
1.44
 40
14.4
  1
１６８０
 50
0.0
 41
0.9
 51
0.0
  7
KANJI26
  0
TEXT
  8
0
  6
CONTINUOUS
 62
     2
 10
1525.32
 20
1074.88
 30
1.44
 40
14.4
  1
１７８０
 50
0.0
 41
0.9
 51
0.0
  7
KANJI26
  0
TEXT
  8
0
  6
CONTINUOUS
 62
     2
 10
1525.32
 20
1043.28
 30
1.44
 40
14.4
  1
１８８０
 50
0.0
 41
0.9
 51
0.0
  7
KANJI26
  0
TEXT
  8
0
  6
CONTINUOUS
 62
     2
 10
1429.32
 20
1043.28
 30
1.44
 40
14.4
  1
１９９５
 50
0.0
 41
0.9
 51
0.0
  7
KANJI26
  0
TEXT
  8
0
  6
CONTINUOUS
 62
     2
 10
1333.32
 20
1043.28
 30
1.44
 40
14.4
  1
２２２０
 50
0.0
 41
0.9
 51
0.0
  7
KANJI26
  0
TEXT
  8
0
  6
CONTINUOUS
 62
     2
 10
1429.32
 20
1074.88
 30
1.44
 40
14.4
  1
１８９５
 50
0.0
 41
0.9
 51
0.0
  7
KANJI26
  0
TEXT
  8
0
  6
CONTINUOUS
 62
     2
 10
1429.32
 20
1106.48
 30
1.44
 40
14.4
  1
１７９５
 50
0.0
 41
0.9
 51
0.0
  7
KANJI26
  0
TEXT
  8
0
  6
CONTINUOUS
 62
     2
 10
1429.32
 20
1138.08
 30
1.44
 40
14.4
  1
１６９５
 50
0.0
 41
0.9
 51
0.0
  7
KANJI26
  0
TEXT
  8
0
  6
CONTINUOUS
 62
     2
 10
1429.32
 20
1169.68
 30
1.44
 40
14.4
  1
１５９５
 50
0.0
 41
0.9
 51
0.0
  7
KANJI26
  0
TEXT
  8
0
  6
CONTINUOUS
 62
     2
 10
1333.32
 20
1169.68
 30
1.44
 40
14.4
  1
１８２０
 50
0.0
 41
0.9
 51
0.0
  7
KANJI26
  0
TEXT
  8
0
  6
CONTINUOUS
 62
     2
 10
1333.32
 20
1138.08
 30
1.44
 40
14.4
  1
１９２０
 50
0.0
 41
0.9
 51
0.0
  7
KANJI26
  0
TEXT
  8
0
  6
CONTINUOUS
 62
     2
 10
1333.32
 20
1106.48
 30
1.44
 40
14.4
  1
２０２０
 50
0.0
 41
0.9
 51
0.0
  7
KANJI26
  0
TEXT
  8
0
  6
CONTINUOUS
 62
     2
 10
1333.32
 20
1074.88
 30
1.44
 40
14.4
  1
２１２０
 50
0.0
 41
0.9
 51
0.0
  7
KANJI26
  0
LINE
  8
0
  6
CONTINUOUS
 62
     1
 10
1228.595007504
 20
260.633959796
 30
0.0
 11
1228.595007504
 21
195.933959796
 31
0.0
  0
LINE
  8
0
  6
CONTINUOUS
 62
     1
 10
1230.595007504
 20
193.933959796
 30
0.0
 11
1266.595007504
 21
193.933959796
 31
0.0
  0
ARC
  8
0
  6
CONTINUOUS
 62
     1
 10
1230.595007504
 20
195.933959796
 30
0.0
 40
2.0
 50
180.0
 51
270.0
  0
LINE
  8
0
  6
CONTINUOUS
 62
     1
 10
1268.595007504
 20
260.633959796
 30
0.0
 11
1268.595007504
 21
195.933959796
 31
0.0
  0
ARC
  8
0
  6
CONTINUOUS
 62
     1
 10
1266.595007504
 20
195.933959796
 30
0.0
 40
2.0
 50
270.0
 51
0.0
  0
ARC
  8
0
  6
CONTINUOUS
 62
     1
 10
1230.595007504
 20
260.633959796
 30
0.0
 40
2.0
 50
90.0
 51
180.0
  0
LINE
  8
0
  6
CONTINUOUS
 62
     1
 10
1235.895007504
 20
286.033959796
 30
0.0
 11
1235.895007504
 21
262.633959796
 31
0.0
  0
LINE
  8
0
  6
CONTINUOUS
 62
     1
 10
1230.595007504
 20
262.633959796
 30
0.0
 11
1266.595007504
 21
262.633959796
 31
0.0
  0
ARC
  8
0
  6
CONTINUOUS
 62
     1
 10
1266.595007504
 20
260.633959796
 30
0.0
 40
2.0
 50
0.0
 51
90.0
  0
ARC
  8
0
  6
CONTINUOUS
 62
     1
 10
1237.895007504
 20
286.033959796
 30
0.0
 40
2.0
 50
90.0
 51
180.0
  0
ARC
  8
0
  6
CONTINUOUS
 62
     1
 10
1248.595007504
 20
272.333959796
 30
0.0
 40
6.0
 50
131.983045121
 51
318.016954879
  0
LINE
  8
0
  6
LTYPE2
 62
     2
 10
1242.160335795
 20
265.899288087
 30
0.0
 11
1282.818975713
 21
306.557928006
 31
0.0
  0
LINE
  8
0
  6
CONTINUOUS
 62
     1
 10
1244.581544004
 20
276.794017053
 30
0.0
 11
1272.789422855
 21
302.177388986
 31
0.0
  0
LINE
  8
0
  6
CONTINUOUS
 62
     1
 10
1253.05506476
 20
268.320496296
 30
0.0
 11
1278.438436693
 21
296.528375148
 31
0.0
  0
LINE
  8
0
  6
LTYPE2
 62
     2
 10
1283.243239782
 20
291.425842888
 30
0.0
 11
1266.979783815
 21
307.689298856
 31
0.0
  0
ARC
  8
0
  6
CONTINUOUS
 62
     1
 10
1275.465065189
 20
299.204017481
 30
0.0
 40
8.75
 50
255.219855722
 51
194.780144278
  0
ARC
  8
0
  6
CONTINUOUS
 62
     1
 10
1275.465065189
 20
299.204017481
 30
0.0
 40
4.0
 50
311.983042101
 51
138.016952287
  0
LINE
  8
0
  6
CONTINUOUS
 62
     1
 10
1261.295007504
 20
277.477329646
 30
0.0
 11
1261.295007504
 21
262.633959796
 31
0.0
  0
LINE
  8
0
  6
CONTINUOUS
 62
     1
 10
1237.895007504
 20
288.033959796
 30
0.0
 11
1257.072199069
 21
288.033959796
 31
0.0
  0
LINE
  8
0
  6
LTYPE3
 62
     2
 10
1233.720007504
 20
239.133959796
 30
0.0
 11
1263.720007504
 21
239.133959796
 31
0.0
  0
LINE
  8
0
  6
LTYPE3
 62
     2
 10
1263.720007504
 20
239.133959796
 30
0.0
 11
1263.720007504
 21
248.633959796
 31
0.0
  0
LINE
  8
0
  6
LTYPE3
 62
     2
 10
1263.720007504
 20
248.633959796
 30
0.0
 11
1233.720007504
 21
248.633959796
 31
0.0
  0
LINE
  8
0
  6
LTYPE3
 62
     2
 10
1233.720007504
 20
248.633959796
 30
0.0
 11
1233.720007504
 21
239.133959796
 31
0.0
  0
LINE
  8
0
  6
CONTINUOUS
 62
     1
 10
1233.720007504
 20
209.133959796
 30
0.0
 11
1263.720007504
 21
209.133959796
 31
0.0
  0
LINE
  8
0
  6
CONTINUOUS
 62
     1
 10
1263.720007504
 20
209.133959796
 30
0.0
 11
1263.720007504
 21
218.633959796
 31
0.0
  0
LINE
  8
0
  6
CONTINUOUS
 62
     1
 10
1263.720007504
 20
218.633959796
 30
0.0
 11
1233.720007504
 21
218.633959796
 31
0.0
  0
LINE
  8
0
  6
CONTINUOUS
 62
     1
 10
1233.720007504
 20
218.633959796
 30
0.0
 11
1233.720007504
 21
209.133959796
 31
0.0
  0
TEXT
  8
0
  6
CONTINUOUS
 62
     2
 10
1232.495007504
 20
251.933959796
 30
0.0
 40
10.0
  1
４
 50
0.0
 41
0.85
 51
0.0
  7
KANJI31
  0
TEXT
  8
0
  6
CONTINUOUS
 62
     2
 10
1257.495007504
 20
251.933959796
 30
0.0
 40
10.0
  1
３
 50
0.0
 41
0.85
 51
0.0
  7
KANJI31
  0
POLYLINE
  8
0
  6
CONTINUOUS
 62
     2
 66
     1
 70
     1
  0
VERTEX
  8
0
  6
CONTINUOUS
 62
     2
 10
1243.495007504
 20
251.183959796
 30
0.0
 42
0.021820078
  0
VERTEX
  8
0
  6
CONTINUOUS
 62
     2
 10
1243.486445574
 20
251.380060217
 30
0.0
 42
0.021820078
  0
VERTEX
  8
0
  6
CONTINUOUS
 62
     2
 10
1243.460824948
 20
251.574668196
 30
0.0
 42
0.021820078
  0
VERTEX
  8
0
  6
CONTINUOUS
 62
     2
 10
1243.418340613
 20
251.766302648
 30
0.0
 42
0.021820078
  0
VERTEX
  8
0
  6
CONTINUOUS
 62
     2
 10
1243.3593159
 20
251.953505119
 30
0.0
 42
0.021820078
  0
VERTEX
  8
0
  6
CONTINUOUS
 62
     2
 10
1243.284200025
 20
252.134850885
 30
0.0
 42
0.021820078
  0
VERTEX
  8
0
  6
CONTINUOUS
 62
     2
 10
1243.193564662
 20
252.308959796
 30
0.0
 42
0.021820078
  0
VERTEX
  8
0
  6
CONTINUOUS
 62
     2
 10
1243.088099603
 20
252.474506778
 30
0.0
 42
0.021820078
  0
VERTEX
  8
0
  6
CONTINUOUS
 62
     2
 10
1242.968607501
 20
252.630231918
 30
0.0
 42
0.021820078
  0
VERTEX
  8
0
  6
CONTINUOUS
 62
     2
 10
1242.835997761
 20
252.774950054
 30
0.0
 42
0.021820078
  0
VERTEX
  8
0
  6
CONTINUOUS
 62
     2
 10
1242.691279626
 20
252.907559793
 30
0.0
 42
0.021820078
  0
VERTEX
  8
0
  6
CONTINUOUS
 62
     2
 10
1242.535554485
 20
253.027051896
 30
0.0
 42
0.021820078
  0
VERTEX
  8
0
  6
CONTINUOUS
 62
     2
 10
1242.370007504
 20
253.132516955
 30
0.0
 42
0.021820078
  0
VERTEX
  8
0
  6
CONTINUOUS
 62
     2
 10
1242.195898593
 20
253.223152317
 30
0.0
 42
0.021820078
  0
VERTEX
  8
0
  6
CONTINUOUS
 62
     2
 10
1242.014552826
 20
253.298268193
 30
0.0
 42
0.021820078
  0
VERTEX
  8
0
  6
CONTINUOUS
 62
     2
 10
1241.827350355
 20
253.357292905
 30
0.0
 42
0.021820078
  0
VERTEX
  8
0
  6
CONTINUOUS
 62
     2
 10
1241.635715903
 20
253.39977724
 30
0.0
 42
0.021820078
  0
VERTEX
  8
0
  6
CONTINUOUS
 62
     2
 10
1241.441107925
 20
253.425397867
 30
0.0
 42
0.021820078
  0
VERTEX
  8
0
  6
CONTINUOUS
 62
     2
 10
1241.245007504
 20
253.433959796
 30
0.0
 42
0.021820078
  0
VERTEX
  8
0
  6
CONTINUOUS
 62
     2
 10
1241.048907083
 20
253.425397867
 30
0.0
 42
0.021820078
  0
VERTEX
  8
0
  6
CONTINUOUS
 62
     2
 10
1240.854299104
 20
253.39977724
 30
0.0
 42
0.021820078
  0
VERTEX
  8
0
  6
CONTINUOUS
 62
     2
 10
1240.662664652
 20
253.357292905
 30
0.0
 42
0.021820078
  0
VERTEX
  8
0
  6
CONTINUOUS
 62
     2
 10
1240.475462181
 20
253.298268193
 30
0.0
 42
0.021820078
  0
VERTEX
  8
0
  6
CONTINUOUS
 62
     2
 10
1240.294116415
 20
253.223152317
 30
0.0
 42
0.021820078
  0
VERTEX
  8
0
  6
CONTINUOUS
 62
     2
 10
1240.120007504
 20
253.132516955
 30
0.0
 42
0.021820078
  0
VERTEX
  8
0
  6
CONTINUOUS
 62
     2
 10
1239.954460522
 20
253.027051896
 30
0.0
 42
0.021820078
  0
VERTEX
  8
0
  6
CONTINUOUS
 62
     2
 10
1239.798735382
 20
252.907559793
 30
0.0
 42
0.021820078
  0
VERTEX
  8
0
  6
CONTINUOUS
 62
     2
 10
1239.654017246
 20
252.774950054
 30
0.0
 42
0.021820078
  0
VERTEX
  8
0
  6
CONTINUOUS
 62
     2
 10
1239.521407507
 20
252.630231918
 30
0.0
 42
0.021820078
  0
VERTEX
  8
0
  6
CONTINUOUS
 62
     2
 10
1239.401915404
 20
252.474506778
 30
0.0
 42
0.021820078
  0
VERTEX
  8
0
  6
CONTINUOUS
 62
     2
 10
1239.296450345
 20
252.308959796
 30
0.0
 42
0.021820078
  0
VERTEX
  8
0
  6
CONTINUOUS
 62
     2
 10
1239.205814983
 20
252.134850885
 30
0.0
 42
0.021820078
  0
VERTEX
  8
0
  6
CONTINUOUS
 62
     2
 10
1239.130699107
 20
251.953505119
 30
0.0
 42
0.021820078
  0
VERTEX
  8
0
  6
CONTINUOUS
 62
     2
 10
1239.071674395
 20
251.766302648
 30
0.0
 42
0.021820078
  0
VERTEX
  8
0
  6
CONTINUOUS
 62
     2
 10
1239.029190059
 20
251.574668196
 30
0.0
 42
0.021820078
  0
VERTEX
  8
0
  6
CONTINUOUS
 62
     2
 10
1239.003569433
 20
251.380060217
 30
0.0
 42
0.021820078
  0
VERTEX
  8
0
  6
CONTINUOUS
 62
     2
 10
1238.995007504
 20
251.183959796
 30
0.0
 42
0.021820078
  0
VERTEX
  8
0
  6
CONTINUOUS
 62
     2
 10
1239.003569433
 20
250.987859375
 30
0.0
 42
0.021820078
  0
VERTEX
  8
0
  6
CONTINUOUS
 62
     2
 10
1239.029190059
 20
250.793251396
 30
0.0
 42
0.021820078
  0
VERTEX
  8
0
  6
CONTINUOUS
 62
     2
 10
1239.071674395
 20
250.601616945
 30
0.0
 42
0.021820078
  0
VERTEX
  8
0
  6
CONTINUOUS
 62
     2
 10
1239.130699107
 20
250.414414474
 30
0.0
 42
0.021820078
  0
VERTEX
  8
0
  6
CONTINUOUS
 62
     2
 10
1239.205814983
 20
250.233068707
 30
0.0
 42
0.021820078
  0
VERTEX
  8
0
  6
CONTINUOUS
 62
     2
 10
1239.296450345
 20
250.058959796
 30
0.0
 42
0.021820078
  0
VERTEX
  8
0
  6
CONTINUOUS
 62
     2
 10
1239.401915404
 20
249.893412814
 30
0.0
 42
0.021820078
  0
VERTEX
  8
0
  6
CONTINUOUS
 62
     2
 10
1239.521407507
 20
249.737687674
 30
0.0
 42
0.021820078
  0
VERTEX
  8
0
  6
CONTINUOUS
 62
     2
 10
1239.654017246
 20
249.592969539
 30
0.0
 42
0.021820078
  0
VERTEX
  8
0
  6
CONTINUOUS
 62
     2
 10
1239.798735382
 20
249.460359799
 30
0.0
 42
0.021820078
  0
VERTEX
  8
0
  6
CONTINUOUS
 62
     2
 10
1239.954460522
 20
249.340867697
 30
0.0
 42
0.021820078
  0
VERTEX
  8
0
  6
CONTINUOUS
 62
     2
 10
1240.120007504
 20
249.235402638
 30
0.0
 42
0.021820078
  0
VERTEX
  8
0
  6
CONTINUOUS
 62
     2
 10
1240.294116415
 20
249.144767275
 30
0.0
 42
0.021820078
  0
VERTEX
  8
0
  6
CONTINUOUS
 62
     2
 10
1240.475462181
 20
249.069651399
 30
0.0
 42
0.021820078
  0
VERTEX
  8
0
  6
CONTINUOUS
 62
     2
 10
1240.662664652
 20
249.010626687
 30
0.0
 42
0.021820078
  0
VERTEX
  8
0
  6
CONTINUOUS
 62
     2
 10
1240.854299104
 20
248.968142352
 30
0.0
 42
0.021820078
  0
VERTEX
  8
0
  6
CONTINUOUS
 62
     2
 10
1241.048907083
 20
248.942521726
 30
0.0
 42
0.021820078
  0
VERTEX
  8
0
  6
CONTINUOUS
 62
     2
 10
1241.245007504
 20
248.933959796
 30
0.0
 42
0.021820078
  0
VERTEX
  8
0
  6
CONTINUOUS
 62
     2
 10
1241.441107925
 20
248.942521726
 30
0.0
 42
0.021820078
  0
VERTEX
  8
0
  6
CONTINUOUS
 62
     2
 10
1241.635715903
 20
248.968142352
 30
0.0
 42
0.021820078
  0
VERTEX
  8
0
  6
CONTINUOUS
 62
     2
 10
1241.827350355
 20
249.010626687
 30
0.0
 42
0.021820078
  0
VERTEX
  8
0
  6
CONTINUOUS
 62
     2
 10
1242.014552826
 20
249.069651399
 30
0.0
 42
0.021820078
  0
VERTEX
  8
0
  6
CONTINUOUS
 62
     2
 10
1242.195898593
 20
249.144767275
 30
0.0
 42
0.021820078
  0
VERTEX
  8
0
  6
CONTINUOUS
 62
     2
 10
1242.370007504
 20
249.235402638
 30
0.0
 42
0.021820078
  0
VERTEX
  8
0
  6
CONTINUOUS
 62
     2
 10
1242.535554485
 20
249.340867697
 30
0.0
 42
0.021820078
  0
VERTEX
  8
0
  6
CONTINUOUS
 62
     2
 10
1242.691279626
 20
249.460359799
 30
0.0
 42
0.021820078
  0
VERTEX
  8
0
  6
CONTINUOUS
 62
     2
 10
1242.835997761
 20
249.592969539
 30
0.0
 42
0.021820078
  0
VERTEX
  8
0
  6
CONTINUOUS
 62
     2
 10
1242.968607501
 20
249.737687674
 30
0.0
 42
0.021820078
  0
VERTEX
  8
0
  6
CONTINUOUS
 62
     2
 10
1243.088099603
 20
249.893412814
 30
0.0
 42
0.021820078
  0
VERTEX
  8
0
  6
CONTINUOUS
 62
     2
 10
1243.193564662
 20
250.058959796
 30
0.0
 42
0.021820078
  0
VERTEX
  8
0
  6
CONTINUOUS
 62
     2
 10
1243.284200025
 20
250.233068707
 30
0.0
 42
0.021820078
  0
VERTEX
  8
0
  6
CONTINUOUS
 62
     2
 10
1243.3593159
 20
250.414414474
 30
0.0
 42
0.021820078
  0
VERTEX
  8
0
  6
CONTINUOUS
 62
     2
 10
1243.418340613
 20
250.601616945
 30
0.0
 42
0.021820078
  0
VERTEX
  8
0
  6
CONTINUOUS
 62
     2
 10
1243.460824948
 20
250.793251396
 30
0.0
 42
0.021820078
  0
VERTEX
  8
0
  6
CONTINUOUS
 62
     2
 10
1243.486445574
 20
250.987859375
 30
0.0
 42
0.021820078
  0
SEQEND
  8
0
  6
CONTINUOUS
 62
     2
  0
POLYLINE
  8
0
  6
CONTINUOUS
 62
     2
 66
     1
 70
     1
  0
VERTEX
  8
0
  6
CONTINUOUS
 62
     2
 10
1258.495007504
 20
251.183959796
 30
0.0
 42
0.021820078
  0
VERTEX
  8
0
  6
CONTINUOUS
 62
     2
 10
1258.486445574
 20
251.380060217
 30
0.0
 42
0.021820078
  0
VERTEX
  8
0
  6
CONTINUOUS
 62
     2
 10
1258.460824948
 20
251.574668196
 30
0.0
 42
0.021820078
  0
VERTEX
  8
0
  6
CONTINUOUS
 62
     2
 10
1258.418340613
 20
251.766302648
 30
0.0
 42
0.021820078
  0
VERTEX
  8
0
  6
CONTINUOUS
 62
     2
 10
1258.3593159
 20
251.953505119
 30
0.0
 42
0.021820078
  0
VERTEX
  8
0
  6
CONTINUOUS
 62
     2
 10
1258.284200025
 20
252.134850885
 30
0.0
 42
0.021820078
  0
VERTEX
  8
0
  6
CONTINUOUS
 62
     2
 10
1258.193564662
 20
252.308959796
 30
0.0
 42
0.021820078
  0
VERTEX
  8
0
  6
CONTINUOUS
 62
     2
 10
1258.088099603
 20
252.474506778
 30
0.0
 42
0.021820078
  0
VERTEX
  8
0
  6
CONTINUOUS
 62
     2
 10
1257.968607501
 20
252.630231918
 30
0.0
 42
0.021820078
  0
VERTEX
  8
0
  6
CONTINUOUS
 62
     2
 10
1257.835997761
 20
252.774950054
 30
0.0
 42
0.021820078
  0
VERTEX
  8
0
  6
CONTINUOUS
 62
     2
 10
1257.691279626
 20
252.907559793
 30
0.0
 42
0.021820078
  0
VERTEX
  8
0
  6
CONTINUOUS
 62
     2
 10
1257.535554485
 20
253.027051896
 30
0.0
 42
0.021820078
  0
VERTEX
  8
0
  6
CONTINUOUS
 62
     2
 10
1257.370007504
 20
253.132516955
 30
0.0
 42
0.021820078
  0
VERTEX
  8
0
  6
CONTINUOUS
 62
     2
 10
1257.195898593
 20
253.223152317
 30
0.0
 42
0.021820078
  0
VERTEX
  8
0
  6
CONTINUOUS
 62
     2
 10
1257.014552826
 20
253.298268193
 30
0.0
 42
0.021820078
  0
VERTEX
  8
0
  6
CONTINUOUS
 62
     2
 10
1256.827350355
 20
253.357292905
 30
0.0
 42
0.021820078
  0
VERTEX
  8
0
  6
CONTINUOUS
 62
     2
 10
1256.635715903
 20
253.39977724
 30
0.0
 42
0.021820078
  0
VERTEX
  8
0
  6
CONTINUOUS
 62
     2
 10
1256.441107925
 20
253.425397867
 30
0.0
 42
0.021820078
  0
VERTEX
  8
0
  6
CONTINUOUS
 62
     2
 10
1256.245007504
 20
253.433959796
 30
0.0
 42
0.021820078
  0
VERTEX
  8
0
  6
CONTINUOUS
 62
     2
 10
1256.048907083
 20
253.425397867
 30
0.0
 42
0.021820078
  0
VERTEX
  8
0
  6
CONTINUOUS
 62
     2
 10
1255.854299104
 20
253.39977724
 30
0.0
 42
0.021820078
  0
VERTEX
  8
0
  6
CONTINUOUS
 62
     2
 10
1255.662664652
 20
253.357292905
 30
0.0
 42
0.021820078
  0
VERTEX
  8
0
  6
CONTINUOUS
 62
     2
 10
1255.475462181
 20
253.298268193
 30
0.0
 42
0.021820078
  0
VERTEX
  8
0
  6
CONTINUOUS
 62
     2
 10
1255.294116415
 20
253.223152317
 30
0.0
 42
0.021820078
  0
VERTEX
  8
0
  6
CONTINUOUS
 62
     2
 10
1255.120007504
 20
253.132516955
 30
0.0
 42
0.021820078
  0
VERTEX
  8
0
  6
CONTINUOUS
 62
     2
 10
1254.954460522
 20
253.027051896
 30
0.0
 42
0.021820078
  0
VERTEX
  8
0
  6
CONTINUOUS
 62
     2
 10
1254.798735382
 20
252.907559793
 30
0.0
 42
0.021820078
  0
VERTEX
  8
0
  6
CONTINUOUS
 62
     2
 10
1254.654017246
 20
252.774950054
 30
0.0
 42
0.021820078
  0
VERTEX
  8
0
  6
CONTINUOUS
 62
     2
 10
1254.521407507
 20
252.630231918
 30
0.0
 42
0.021820078
  0
VERTEX
  8
0
  6
CONTINUOUS
 62
     2
 10
1254.401915404
 20
252.474506778
 30
0.0
 42
0.021820078
  0
VERTEX
  8
0
  6
CONTINUOUS
 62
     2
 10
1254.296450345
 20
252.308959796
 30
0.0
 42
0.021820078
  0
VERTEX
  8
0
  6
CONTINUOUS
 62
     2
 10
1254.205814983
 20
252.134850885
 30
0.0
 42
0.021820078
  0
VERTEX
  8
0
  6
CONTINUOUS
 62
     2
 10
1254.130699107
 20
251.953505119
 30
0.0
 42
0.021820078
  0
VERTEX
  8
0
  6
CONTINUOUS
 62
     2
 10
1254.071674395
 20
251.766302648
 30
0.0
 42
0.021820078
  0
VERTEX
  8
0
  6
CONTINUOUS
 62
     2
 10
1254.029190059
 20
251.574668196
 30
0.0
 42
0.021820078
  0
VERTEX
  8
0
  6
CONTINUOUS
 62
     2
 10
1254.003569433
 20
251.380060217
 30
0.0
 42
0.021820078
  0
VERTEX
  8
0
  6
CONTINUOUS
 62
     2
 10
1253.995007504
 20
251.183959796
 30
0.0
 42
0.021820078
  0
VERTEX
  8
0
  6
CONTINUOUS
 62
     2
 10
1254.003569433
 20
250.987859375
 30
0.0
 42
0.021820078
  0
VERTEX
  8
0
  6
CONTINUOUS
 62
     2
 10
1254.029190059
 20
250.793251396
 30
0.0
 42
0.021820078
  0
VERTEX
  8
0
  6
CONTINUOUS
 62
     2
 10
1254.071674395
 20
250.601616945
 30
0.0
 42
0.021820078
  0
VERTEX
  8
0
  6
CONTINUOUS
 62
     2
 10
1254.130699107
 20
250.414414474
 30
0.0
 42
0.021820078
  0
VERTEX
  8
0
  6
CONTINUOUS
 62
     2
 10
1254.205814983
 20
250.233068707
 30
0.0
 42
0.021820078
  0
VERTEX
  8
0
  6
CONTINUOUS
 62
     2
 10
1254.296450345
 20
250.058959796
 30
0.0
 42
0.021820078
  0
VERTEX
  8
0
  6
CONTINUOUS
 62
     2
 10
1254.401915404
 20
249.893412814
 30
0.0
 42
0.021820078
  0
VERTEX
  8
0
  6
CONTINUOUS
 62
     2
 10
1254.521407507
 20
249.737687674
 30
0.0
 42
0.021820078
  0
VERTEX
  8
0
  6
CONTINUOUS
 62
     2
 10
1254.654017246
 20
249.592969539
 30
0.0
 42
0.021820078
  0
VERTEX
  8
0
  6
CONTINUOUS
 62
     2
 10
1254.798735382
 20
249.460359799
 30
0.0
 42
0.021820078
  0
VERTEX
  8
0
  6
CONTINUOUS
 62
     2
 10
1254.954460522
 20
249.340867697
 30
0.0
 42
0.021820078
  0
VERTEX
  8
0
  6
CONTINUOUS
 62
     2
 10
1255.120007504
 20
249.235402638
 30
0.0
 42
0.021820078
  0
VERTEX
  8
0
  6
CONTINUOUS
 62
     2
 10
1255.294116415
 20
249.144767275
 30
0.0
 42
0.021820078
  0
VERTEX
  8
0
  6
CONTINUOUS
 62
     2
 10
1255.475462181
 20
249.069651399
 30
0.0
 42
0.021820078
  0
VERTEX
  8
0
  6
CONTINUOUS
 62
     2
 10
1255.662664652
 20
249.010626687
 30
0.0
 42
0.021820078
  0
VERTEX
  8
0
  6
CONTINUOUS
 62
     2
 10
1255.854299104
 20
248.968142352
 30
0.0
 42
0.021820078
  0
VERTEX
  8
0
  6
CONTINUOUS
 62
     2
 10
1256.048907083
 20
248.942521726
 30
0.0
 42
0.021820078
  0
VERTEX
  8
0
  6
CONTINUOUS
 62
     2
 10
1256.245007504
 20
248.933959796
 30
0.0
 42
0.021820078
  0
VERTEX
  8
0
  6
CONTINUOUS
 62
     2
 10
1256.441107925
 20
248.942521726
 30
0.0
 42
0.021820078
  0
VERTEX
  8
0
  6
CONTINUOUS
 62
     2
 10
1256.635715903
 20
248.968142352
 30
0.0
 42
0.021820078
  0
VERTEX
  8
0
  6
CONTINUOUS
 62
     2
 10
1256.827350355
 20
249.010626687
 30
0.0
 42
0.021820078
  0
VERTEX
  8
0
  6
CONTINUOUS
 62
     2
 10
1257.014552826
 20
249.069651399
 30
0.0
 42
0.021820078
  0
VERTEX
  8
0
  6
CONTINUOUS
 62
     2
 10
1257.195898593
 20
249.144767275
 30
0.0
 42
0.021820078
  0
VERTEX
  8
0
  6
CONTINUOUS
 62
     2
 10
1257.370007504
 20
249.235402638
 30
0.0
 42
0.021820078
  0
VERTEX
  8
0
  6
CONTINUOUS
 62
     2
 10
1257.535554485
 20
249.340867697
 30
0.0
 42
0.021820078
  0
VERTEX
  8
0
  6
CONTINUOUS
 62
     2
 10
1257.691279626
 20
249.460359799
 30
0.0
 42
0.021820078
  0
VERTEX
  8
0
  6
CONTINUOUS
 62
     2
 10
1257.835997761
 20
249.592969539
 30
0.0
 42
0.021820078
  0
VERTEX
  8
0
  6
CONTINUOUS
 62
     2
 10
1257.968607501
 20
249.737687674
 30
0.0
 42
0.021820078
  0
VERTEX
  8
0
  6
CONTINUOUS
 62
     2
 10
1258.088099603
 20
249.893412814
 30
0.0
 42
0.021820078
  0
VERTEX
  8
0
  6
CONTINUOUS
 62
     2
 10
1258.193564662
 20
250.058959796
 30
0.0
 42
0.021820078
  0
VERTEX
  8
0
  6
CONTINUOUS
 62
     2
 10
1258.284200025
 20
250.233068707
 30
0.0
 42
0.021820078
  0
VERTEX
  8
0
  6
CONTINUOUS
 62
     2
 10
1258.3593159
 20
250.414414474
 30
0.0
 42
0.021820078
  0
VERTEX
  8
0
  6
CONTINUOUS
 62
     2
 10
1258.418340613
 20
250.601616945
 30
0.0
 42
0.021820078
  0
VERTEX
  8
0
  6
CONTINUOUS
 62
     2
 10
1258.460824948
 20
250.793251396
 30
0.0
 42
0.021820078
  0
VERTEX
  8
0
  6
CONTINUOUS
 62
     2
 10
1258.486445574
 20
250.987859375
 30
0.0
 42
0.021820078
  0
SEQEND
  8
0
  6
CONTINUOUS
 62
     2
  0
POLYLINE
  8
0
  6
CONTINUOUS
 62
     2
 66
     1
 70
     1
  0
VERTEX
  8
0
  6
CONTINUOUS
 62
     2
 10
1243.495007504
 20
206.833959796
 30
0.0
 42
-0.021820078
  0
VERTEX
  8
0
  6
CONTINUOUS
 62
     2
 10
1243.486445574
 20
206.637859375
 30
0.0
 42
-0.021820078
  0
VERTEX
  8
0
  6
CONTINUOUS
 62
     2
 10
1243.460824948
 20
206.443251396
 30
0.0
 42
-0.021820078
  0
VERTEX
  8
0
  6
CONTINUOUS
 62
     2
 10
1243.418340613
 20
206.251616945
 30
0.0
 42
-0.021820078
  0
VERTEX
  8
0
  6
CONTINUOUS
 62
     2
 10
1243.3593159
 20
206.064414474
 30
0.0
 42
-0.021820078
  0
VERTEX
  8
0
  6
CONTINUOUS
 62
     2
 10
1243.284200025
 20
205.883068707
 30
0.0
 42
-0.021820078
  0
VERTEX
  8
0
  6
CONTINUOUS
 62
     2
 10
1243.193564662
 20
205.708959796
 30
0.0
 42
-0.021820078
  0
VERTEX
  8
0
  6
CONTINUOUS
 62
     2
 10
1243.088099603
 20
205.543412814
 30
0.0
 42
-0.021820078
  0
VERTEX
  8
0
  6
CONTINUOUS
 62
     2
 10
1242.968607501
 20
205.387687674
 30
0.0
 42
-0.021820078
  0
VERTEX
  8
0
  6
CONTINUOUS
 62
     2
 10
1242.835997761
 20
205.242969539
 30
0.0
 42
-0.021820078
  0
VERTEX
  8
0
  6
CONTINUOUS
 62
     2
 10
1242.691279626
 20
205.110359799
 30
0.0
 42
-0.021820078
  0
VERTEX
  8
0
  6
CONTINUOUS
 62
     2
 10
1242.535554485
 20
204.990867697
 30
0.0
 42
-0.021820078
  0
VERTEX
  8
0
  6
CONTINUOUS
 62
     2
 10
1242.370007504
 20
204.885402638
 30
0.0
 42
-0.021820078
  0
VERTEX
  8
0
  6
CONTINUOUS
 62
     2
 10
1242.195898593
 20
204.794767275
 30
0.0
 42
-0.021820078
  0
VERTEX
  8
0
  6
CONTINUOUS
 62
     2
 10
1242.014552826
 20
204.719651399
 30
0.0
 42
-0.021820078
  0
VERTEX
  8
0
  6
CONTINUOUS
 62
     2
 10
1241.827350355
 20
204.660626687
 30
0.0
 42
-0.021820078
  0
VERTEX
  8
0
  6
CONTINUOUS
 62
     2
 10
1241.635715903
 20
204.618142352
 30
0.0
 42
-0.021820078
  0
VERTEX
  8
0
  6
CONTINUOUS
 62
     2
 10
1241.441107925
 20
204.592521726
 30
0.0
 42
-0.021820078
  0
VERTEX
  8
0
  6
CONTINUOUS
 62
     2
 10
1241.245007504
 20
204.583959796
 30
0.0
 42
-0.021820078
  0
VERTEX
  8
0
  6
CONTINUOUS
 62
     2
 10
1241.048907083
 20
204.592521726
 30
0.0
 42
-0.021820078
  0
VERTEX
  8
0
  6
CONTINUOUS
 62
     2
 10
1240.854299104
 20
204.618142352
 30
0.0
 42
-0.021820078
  0
VERTEX
  8
0
  6
CONTINUOUS
 62
     2
 10
1240.662664652
 20
204.660626687
 30
0.0
 42
-0.021820078
  0
VERTEX
  8
0
  6
CONTINUOUS
 62
     2
 10
1240.475462181
 20
204.719651399
 30
0.0
 42
-0.021820078
  0
VERTEX
  8
0
  6
CONTINUOUS
 62
     2
 10
1240.294116415
 20
204.794767275
 30
0.0
 42
-0.021820078
  0
VERTEX
  8
0
  6
CONTINUOUS
 62
     2
 10
1240.120007504
 20
204.885402638
 30
0.0
 42
-0.021820078
  0
VERTEX
  8
0
  6
CONTINUOUS
 62
     2
 10
1239.954460522
 20
204.990867697
 30
0.0
 42
-0.021820078
  0
VERTEX
  8
0
  6
CONTINUOUS
 62
     2
 10
1239.798735382
 20
205.110359799
 30
0.0
 42
-0.021820078
  0
VERTEX
  8
0
  6
CONTINUOUS
 62
     2
 10
1239.654017246
 20
205.242969539
 30
0.0
 42
-0.021820078
  0
VERTEX
  8
0
  6
CONTINUOUS
 62
     2
 10
1239.521407507
 20
205.387687674
 30
0.0
 42
-0.021820078
  0
VERTEX
  8
0
  6
CONTINUOUS
 62
     2
 10
1239.401915404
 20
205.543412814
 30
0.0
 42
-0.021820078
  0
VERTEX
  8
0
  6
CONTINUOUS
 62
     2
 10
1239.296450345
 20
205.708959796
 30
0.0
 42
-0.021820078
  0
VERTEX
  8
0
  6
CONTINUOUS
 62
     2
 10
1239.205814983
 20
205.883068707
 30
0.0
 42
-0.021820078
  0
VERTEX
  8
0
  6
CONTINUOUS
 62
     2
 10
1239.130699107
 20
206.064414474
 30
0.0
 42
-0.021820078
  0
VERTEX
  8
0
  6
CONTINUOUS
 62
     2
 10
1239.071674395
 20
206.251616945
 30
0.0
 42
-0.021820078
  0
VERTEX
  8
0
  6
CONTINUOUS
 62
     2
 10
1239.029190059
 20
206.443251396
 30
0.0
 42
-0.021820078
  0
VERTEX
  8
0
  6
CONTINUOUS
 62
     2
 10
1239.003569433
 20
206.637859375
 30
0.0
 42
-0.021820078
  0
VERTEX
  8
0
  6
CONTINUOUS
 62
     2
 10
1238.995007504
 20
206.833959796
 30
0.0
 42
-0.021820078
  0
VERTEX
  8
0
  6
CONTINUOUS
 62
     2
 10
1239.003569433
 20
207.030060217
 30
0.0
 42
-0.021820078
  0
VERTEX
  8
0
  6
CONTINUOUS
 62
     2
 10
1239.029190059
 20
207.224668196
 30
0.0
 42
-0.021820078
  0
VERTEX
  8
0
  6
CONTINUOUS
 62
     2
 10
1239.071674395
 20
207.416302648
 30
0.0
 42
-0.021820078
  0
VERTEX
  8
0
  6
CONTINUOUS
 62
     2
 10
1239.130699107
 20
207.603505119
 30
0.0
 42
-0.021820078
  0
VERTEX
  8
0
  6
CONTINUOUS
 62
     2
 10
1239.205814983
 20
207.784850885
 30
0.0
 42
-0.021820078
  0
VERTEX
  8
0
  6
CONTINUOUS
 62
     2
 10
1239.296450345
 20
207.958959796
 30
0.0
 42
-0.021820078
  0
VERTEX
  8
0
  6
CONTINUOUS
 62
     2
 10
1239.401915404
 20
208.124506778
 30
0.0
 42
-0.021820078
  0
VERTEX
  8
0
  6
CONTINUOUS
 62
     2
 10
1239.521407507
 20
208.280231918
 30
0.0
 42
-0.021820078
  0
VERTEX
  8
0
  6
CONTINUOUS
 62
     2
 10
1239.654017246
 20
208.424950054
 30
0.0
 42
-0.021820078
  0
VERTEX
  8
0
  6
CONTINUOUS
 62
     2
 10
1239.798735382
 20
208.557559793
 30
0.0
 42
-0.021820078
  0
VERTEX
  8
0
  6
CONTINUOUS
 62
     2
 10
1239.954460522
 20
208.677051896
 30
0.0
 42
-0.021820078
  0
VERTEX
  8
0
  6
CONTINUOUS
 62
     2
 10
1240.120007504
 20
208.782516955
 30
0.0
 42
-0.021820078
  0
VERTEX
  8
0
  6
CONTINUOUS
 62
     2
 10
1240.294116415
 20
208.873152317
 30
0.0
 42
-0.021820078
  0
VERTEX
  8
0
  6
CONTINUOUS
 62
     2
 10
1240.475462181
 20
208.948268193
 30
0.0
 42
-0.021820078
  0
VERTEX
  8
0
  6
CONTINUOUS
 62
     2
 10
1240.662664652
 20
209.007292905
 30
0.0
 42
-0.021820078
  0
VERTEX
  8
0
  6
CONTINUOUS
 62
     2
 10
1240.854299104
 20
209.04977724
 30
0.0
 42
-0.021820078
  0
VERTEX
  8
0
  6
CONTINUOUS
 62
     2
 10
1241.048907083
 20
209.075397867
 30
0.0
 42
-0.021820078
  0
VERTEX
  8
0
  6
CONTINUOUS
 62
     2
 10
1241.245007504
 20
209.083959796
 30
0.0
 42
-0.021820078
  0
VERTEX
  8
0
  6
CONTINUOUS
 62
     2
 10
1241.441107925
 20
209.075397867
 30
0.0
 42
-0.021820078
  0
VERTEX
  8
0
  6
CONTINUOUS
 62
     2
 10
1241.635715903
 20
209.04977724
 30
0.0
 42
-0.021820078
  0
VERTEX
  8
0
  6
CONTINUOUS
 62
     2
 10
1241.827350355
 20
209.007292905
 30
0.0
 42
-0.021820078
  0
VERTEX
  8
0
  6
CONTINUOUS
 62
     2
 10
1242.014552826
 20
208.948268193
 30
0.0
 42
-0.021820078
  0
VERTEX
  8
0
  6
CONTINUOUS
 62
     2
 10
1242.195898593
 20
208.873152317
 30
0.0
 42
-0.021820078
  0
VERTEX
  8
0
  6
CONTINUOUS
 62
     2
 10
1242.370007504
 20
208.782516955
 30
0.0
 42
-0.021820078
  0
VERTEX
  8
0
  6
CONTINUOUS
 62
     2
 10
1242.535554485
 20
208.677051896
 30
0.0
 42
-0.021820078
  0
VERTEX
  8
0
  6
CONTINUOUS
 62
     2
 10
1242.691279626
 20
208.557559793
 30
0.0
 42
-0.021820078
  0
VERTEX
  8
0
  6
CONTINUOUS
 62
     2
 10
1242.835997761
 20
208.424950054
 30
0.0
 42
-0.021820078
  0
VERTEX
  8
0
  6
CONTINUOUS
 62
     2
 10
1242.968607501
 20
208.280231918
 30
0.0
 42
-0.021820078
  0
VERTEX
  8
0
  6
CONTINUOUS
 62
     2
 10
1243.088099603
 20
208.124506778
 30
0.0
 42
-0.021820078
  0
VERTEX
  8
0
  6
CONTINUOUS
 62
     2
 10
1243.193564662
 20
207.958959796
 30
0.0
 42
-0.021820078
  0
VERTEX
  8
0
  6
CONTINUOUS
 62
     2
 10
1243.284200025
 20
207.784850885
 30
0.0
 42
-0.021820078
  0
VERTEX
  8
0
  6
CONTINUOUS
 62
     2
 10
1243.3593159
 20
207.603505119
 30
0.0
 42
-0.021820078
  0
VERTEX
  8
0
  6
CONTINUOUS
 62
     2
 10
1243.418340613
 20
207.416302648
 30
0.0
 42
-0.021820078
  0
VERTEX
  8
0
  6
CONTINUOUS
 62
     2
 10
1243.460824948
 20
207.224668196
 30
0.0
 42
-0.021820078
  0
VERTEX
  8
0
  6
CONTINUOUS
 62
     2
 10
1243.486445574
 20
207.030060217
 30
0.0
 42
-0.021820078
  0
SEQEND
  8
0
  6
CONTINUOUS
 62
     2
  0
POLYLINE
  8
0
  6
CONTINUOUS
 62
     2
 66
     1
 70
     1
  0
VERTEX
  8
0
  6
CONTINUOUS
 62
     2
 10
1258.495007504
 20
206.833959796
 30
0.0
 42
-0.021820078
  0
VERTEX
  8
0
  6
CONTINUOUS
 62
     2
 10
1258.486445574
 20
206.637859375
 30
0.0
 42
-0.021820078
  0
VERTEX
  8
0
  6
CONTINUOUS
 62
     2
 10
1258.460824948
 20
206.443251396
 30
0.0
 42
-0.021820078
  0
VERTEX
  8
0
  6
CONTINUOUS
 62
     2
 10
1258.418340613
 20
206.251616945
 30
0.0
 42
-0.021820078
  0
VERTEX
  8
0
  6
CONTINUOUS
 62
     2
 10
1258.3593159
 20
206.064414474
 30
0.0
 42
-0.021820078
  0
VERTEX
  8
0
  6
CONTINUOUS
 62
     2
 10
1258.284200025
 20
205.883068707
 30
0.0
 42
-0.021820078
  0
VERTEX
  8
0
  6
CONTINUOUS
 62
     2
 10
1258.193564662
 20
205.708959796
 30
0.0
 42
-0.021820078
  0
VERTEX
  8
0
  6
CONTINUOUS
 62
     2
 10
1258.088099603
 20
205.543412814
 30
0.0
 42
-0.021820078
  0
VERTEX
  8
0
  6
CONTINUOUS
 62
     2
 10
1257.968607501
 20
205.387687674
 30
0.0
 42
-0.021820078
  0
VERTEX
  8
0
  6
CONTINUOUS
 62
     2
 10
1257.835997761
 20
205.242969539
 30
0.0
 42
-0.021820078
  0
VERTEX
  8
0
  6
CONTINUOUS
 62
     2
 10
1257.691279626
 20
205.110359799
 30
0.0
 42
-0.021820078
  0
VERTEX
  8
0
  6
CONTINUOUS
 62
     2
 10
1257.535554485
 20
204.990867697
 30
0.0
 42
-0.021820078
  0
VERTEX
  8
0
  6
CONTINUOUS
 62
     2
 10
1257.370007504
 20
204.885402638
 30
0.0
 42
-0.021820078
  0
VERTEX
  8
0
  6
CONTINUOUS
 62
     2
 10
1257.195898593
 20
204.794767275
 30
0.0
 42
-0.021820078
  0
VERTEX
  8
0
  6
CONTINUOUS
 62
     2
 10
1257.014552826
 20
204.719651399
 30
0.0
 42
-0.021820078
  0
VERTEX
  8
0
  6
CONTINUOUS
 62
     2
 10
1256.827350355
 20
204.660626687
 30
0.0
 42
-0.021820078
  0
VERTEX
  8
0
  6
CONTINUOUS
 62
     2
 10
1256.635715903
 20
204.618142352
 30
0.0
 42
-0.021820078
  0
VERTEX
  8
0
  6
CONTINUOUS
 62
     2
 10
1256.441107925
 20
204.592521726
 30
0.0
 42
-0.021820078
  0
VERTEX
  8
0
  6
CONTINUOUS
 62
     2
 10
1256.245007504
 20
204.583959796
 30
0.0
 42
-0.021820078
  0
VERTEX
  8
0
  6
CONTINUOUS
 62
     2
 10
1256.048907083
 20
204.592521726
 30
0.0
 42
-0.021820078
  0
VERTEX
  8
0
  6
CONTINUOUS
 62
     2
 10
1255.854299104
 20
204.618142352
 30
0.0
 42
-0.021820078
  0
VERTEX
  8
0
  6
CONTINUOUS
 62
     2
 10
1255.662664652
 20
204.660626687
 30
0.0
 42
-0.021820078
  0
VERTEX
  8
0
  6
CONTINUOUS
 62
     2
 10
1255.475462181
 20
204.719651399
 30
0.0
 42
-0.021820078
  0
VERTEX
  8
0
  6
CONTINUOUS
 62
     2
 10
1255.294116415
 20
204.794767275
 30
0.0
 42
-0.021820078
  0
VERTEX
  8
0
  6
CONTINUOUS
 62
     2
 10
1255.120007504
 20
204.885402638
 30
0.0
 42
-0.021820078
  0
VERTEX
  8
0
  6
CONTINUOUS
 62
     2
 10
1254.954460522
 20
204.990867697
 30
0.0
 42
-0.021820078
  0
VERTEX
  8
0
  6
CONTINUOUS
 62
     2
 10
1254.798735382
 20
205.110359799
 30
0.0
 42
-0.021820078
  0
VERTEX
  8
0
  6
CONTINUOUS
 62
     2
 10
1254.654017246
 20
205.242969539
 30
0.0
 42
-0.021820078
  0
VERTEX
  8
0
  6
CONTINUOUS
 62
     2
 10
1254.521407507
 20
205.387687674
 30
0.0
 42
-0.021820078
  0
VERTEX
  8
0
  6
CONTINUOUS
 62
     2
 10
1254.401915404
 20
205.543412814
 30
0.0
 42
-0.021820078
  0
VERTEX
  8
0
  6
CONTINUOUS
 62
     2
 10
1254.296450345
 20
205.708959796
 30
0.0
 42
-0.021820078
  0
VERTEX
  8
0
  6
CONTINUOUS
 62
     2
 10
1254.205814983
 20
205.883068707
 30
0.0
 42
-0.021820078
  0
VERTEX
  8
0
  6
CONTINUOUS
 62
     2
 10
1254.130699107
 20
206.064414474
 30
0.0
 42
-0.021820078
  0
VERTEX
  8
0
  6
CONTINUOUS
 62
     2
 10
1254.071674395
 20
206.251616945
 30
0.0
 42
-0.021820078
  0
VERTEX
  8
0
  6
CONTINUOUS
 62
     2
 10
1254.029190059
 20
206.443251396
 30
0.0
 42
-0.021820078
  0
VERTEX
  8
0
  6
CONTINUOUS
 62
     2
 10
1254.003569433
 20
206.637859375
 30
0.0
 42
-0.021820078
  0
VERTEX
  8
0
  6
CONTINUOUS
 62
     2
 10
1253.995007504
 20
206.833959796
 30
0.0
 42
-0.021820078
  0
VERTEX
  8
0
  6
CONTINUOUS
 62
     2
 10
1254.003569433
 20
207.030060217
 30
0.0
 42
-0.021820078
  0
VERTEX
  8
0
  6
CONTINUOUS
 62
     2
 10
1254.029190059
 20
207.224668196
 30
0.0
 42
-0.021820078
  0
VERTEX
  8
0
  6
CONTINUOUS
 62
     2
 10
1254.071674395
 20
207.416302648
 30
0.0
 42
-0.021820078
  0
VERTEX
  8
0
  6
CONTINUOUS
 62
     2
 10
1254.130699107
 20
207.603505119
 30
0.0
 42
-0.021820078
  0
VERTEX
  8
0
  6
CONTINUOUS
 62
     2
 10
1254.205814983
 20
207.784850885
 30
0.0
 42
-0.021820078
  0
VERTEX
  8
0
  6
CONTINUOUS
 62
     2
 10
1254.296450345
 20
207.958959796
 30
0.0
 42
-0.021820078
  0
VERTEX
  8
0
  6
CONTINUOUS
 62
     2
 10
1254.401915404
 20
208.124506778
 30
0.0
 42
-0.021820078
  0
VERTEX
  8
0
  6
CONTINUOUS
 62
     2
 10
1254.521407507
 20
208.280231918
 30
0.0
 42
-0.021820078
  0
VERTEX
  8
0
  6
CONTINUOUS
 62
     2
 10
1254.654017246
 20
208.424950054
 30
0.0
 42
-0.021820078
  0
VERTEX
  8
0
  6
CONTINUOUS
 62
     2
 10
1254.798735382
 20
208.557559793
 30
0.0
 42
-0.021820078
  0
VERTEX
  8
0
  6
CONTINUOUS
 62
     2
 10
1254.954460522
 20
208.677051896
 30
0.0
 42
-0.021820078
  0
VERTEX
  8
0
  6
CONTINUOUS
 62
     2
 10
1255.120007504
 20
208.782516955
 30
0.0
 42
-0.021820078
  0
VERTEX
  8
0
  6
CONTINUOUS
 62
     2
 10
1255.294116415
 20
208.873152317
 30
0.0
 42
-0.021820078
  0
VERTEX
  8
0
  6
CONTINUOUS
 62
     2
 10
1255.475462181
 20
208.948268193
 30
0.0
 42
-0.021820078
  0
VERTEX
  8
0
  6
CONTINUOUS
 62
     2
 10
1255.662664652
 20
209.007292905
 30
0.0
 42
-0.021820078
  0
VERTEX
  8
0
  6
CONTINUOUS
 62
     2
 10
1255.854299104
 20
209.04977724
 30
0.0
 42
-0.021820078
  0
VERTEX
  8
0
  6
CONTINUOUS
 62
     2
 10
1256.048907083
 20
209.075397867
 30
0.0
 42
-0.021820078
  0
VERTEX
  8
0
  6
CONTINUOUS
 62
     2
 10
1256.245007504
 20
209.083959796
 30
0.0
 42
-0.021820078
  0
VERTEX
  8
0
  6
CONTINUOUS
 62
     2
 10
1256.441107925
 20
209.075397867
 30
0.0
 42
-0.021820078
  0
VERTEX
  8
0
  6
CONTINUOUS
 62
     2
 10
1256.635715903
 20
209.04977724
 30
0.0
 42
-0.021820078
  0
VERTEX
  8
0
  6
CONTINUOUS
 62
     2
 10
1256.827350355
 20
209.007292905
 30
0.0
 42
-0.021820078
  0
VERTEX
  8
0
  6
CONTINUOUS
 62
     2
 10
1257.014552826
 20
208.948268193
 30
0.0
 42
-0.021820078
  0
VERTEX
  8
0
  6
CONTINUOUS
 62
     2
 10
1257.195898593
 20
208.873152317
 30
0.0
 42
-0.021820078
  0
VERTEX
  8
0
  6
CONTINUOUS
 62
     2
 10
1257.370007504
 20
208.782516955
 30
0.0
 42
-0.021820078
  0
VERTEX
  8
0
  6
CONTINUOUS
 62
     2
 10
1257.535554485
 20
208.677051896
 30
0.0
 42
-0.021820078
  0
VERTEX
  8
0
  6
CONTINUOUS
 62
     2
 10
1257.691279626
 20
208.557559793
 30
0.0
 42
-0.021820078
  0
VERTEX
  8
0
  6
CONTINUOUS
 62
     2
 10
1257.835997761
 20
208.424950054
 30
0.0
 42
-0.021820078
  0
VERTEX
  8
0
  6
CONTINUOUS
 62
     2
 10
1257.968607501
 20
208.280231918
 30
0.0
 42
-0.021820078
  0
VERTEX
  8
0
  6
CONTINUOUS
 62
     2
 10
1258.088099603
 20
208.124506778
 30
0.0
 42
-0.021820078
  0
VERTEX
  8
0
  6
CONTINUOUS
 62
     2
 10
1258.193564662
 20
207.958959796
 30
0.0
 42
-0.021820078
  0
VERTEX
  8
0
  6
CONTINUOUS
 62
     2
 10
1258.284200025
 20
207.784850885
 30
0.0
 42
-0.021820078
  0
VERTEX
  8
0
  6
CONTINUOUS
 62
     2
 10
1258.3593159
 20
207.603505119
 30
0.0
 42
-0.021820078
  0
VERTEX
  8
0
  6
CONTINUOUS
 62
     2
 10
1258.418340613
 20
207.416302648
 30
0.0
 42
-0.021820078
  0
VERTEX
  8
0
  6
CONTINUOUS
 62
     2
 10
1258.460824948
 20
207.224668196
 30
0.0
 42
-0.021820078
  0
VERTEX
  8
0
  6
CONTINUOUS
 62
     2
 10
1258.486445574
 20
207.030060217
 30
0.0
 42
-0.021820078
  0
SEQEND
  8
0
  6
CONTINUOUS
 62
     2
  0
TEXT
  8
0
  6
CONTINUOUS
 62
     2
 10
1232.495007504
 20
196.433959796
 30
0.0
 40
10.0
  1
１
 50
0.0
 41
0.85
 51
0.0
  7
KANJI31
  0
TEXT
  8
0
  6
CONTINUOUS
 62
     2
 10
1257.495007504
 20
196.433959796
 30
0.0
 40
10.0
  1
２
 50
0.0
 41
0.85
 51
0.0
  7
KANJI31
  0
TEXT
  8
0
  6
CONTINUOUS
 62
     2
 10
1200.595007504
 20
251.133959796
 30
0.0
 40
10.0
  1
（ＮＯ）
 50
0.0
 41
0.75
 51
0.0
  7
KANJI32
  0
TEXT
  8
0
  6
CONTINUOUS
 62
     2
 10
1266.595007504
 20
251.133959796
 30
0.0
 40
10.0
  1
（ＮＯ）
 50
0.0
 41
0.75
 51
0.0
  7
KANJI32
  0
TEXT
  8
0
  6
CONTINUOUS
 62
     2
 10
1200.595007504
 20
193.633959796
 30
0.0
 40
10.0
  1
（ＮＣ）
 50
0.0
 41
0.75
 51
0.0
  7
KANJI32
  0
TEXT
  8
0
  6
CONTINUOUS
 62
     2
 10
1266.595007504
 20
193.633959796
 30
0.0
 40
10.0
  1
（ＮＣ）
 50
0.0
 41
0.75
 51
0.0
  7
KANJI32
  0
TEXT
  8
0
  6
CONTINUOUS
 62
     2
 10
1184.470007504
 20
164.633959796
 30
0.0
 40
15.0
  1
外部ＬＳリミットＳＷ
 50
0.0
 41
0.9
 51
0.0
  7
KANJI33
  0
TEXT
  8
0
  6
CONTINUOUS
 62
     2
 10
1221.720007504
 20
145.633959796
 30
0.0
 40
15.0
  1
端子符号
 50
0.0
 41
0.9
 51
0.0
  7
KANJI33
  0
LINE
  8
0
  6
CONTINUOUS
 62
     2
 10
1326.220007504
 20
152.133959796
 30
0.0
 11
1326.220007504
 21
321.883959796
 31
0.0
  0
LINE
  8
0
  6
CONTINUOUS
 62
     2
 10
1326.220007504
 20
321.883959796
 30
0.0
 11
1172.970007504
 21
321.883959796
 31
0.0
  0
LINE
  8
0
  6
CONTINUOUS
 62
     2
 10
1172.970007504
 20
321.883959796
 30
0.0
 11
1172.970007504
 21
152.133959796
 31
0.0
  0
LINE
  8
0
  6
CONTINUOUS
 62
     2
 10
1281.220007504
 20
152.133959796
 30
0.0
 11
1326.220007504
 21
152.133959796
 31
0.0
  0
LINE
  8
0
  6
CONTINUOUS
 62
     2
 10
1172.970007504
 20
152.133959796
 30
0.0
 11
1211.970007504
 21
152.133959796
 31
0.0
  0
CIRCLE
  8
0
  6
CONTINUOUS
 62
     1
 10
457.5199996
 20
642.9999852
 30
0.0
 40
15.0
  0
CIRCLE
  8
0
  6
CONTINUOUS
 62
     1
 10
457.5199996
 20
642.9999852
 30
0.0
 40
30.0
  0
CIRCLE
  8
0
  6
CONTINUOUS
 62
     1
 10
457.5199996
 20
642.9999852
 30
0.0
 40
34.0
  0
LINE
  8
0
  6
CONTINUOUS
 62
     1
 10
357.5199996
 20
722.9999852
 30
0.0
 11
357.5199996
 21
562.9999852
 31
0.0
  0
LINE
  8
0
  6
CONTINUOUS
 62
     1
 10
459.5199996
 20
574.9999852
 30
0.0
 11
533.5199996
 21
574.9999852
 31
0.0
  0
LINE
  8
0
  6
CONTINUOUS
 62
     1
 10
459.5199996
 20
593.5999852
 30
0.0
 11
459.5199996
 21
574.9999852
 31
0.0
  0
LINE
  8
0
  6
CONTINUOUS
 62
     1
 10
533.5199996
 20
594.2999852
 30
0.0
 11
533.5199996
 21
574.9999852
 31
0.0
  0
LINE
  8
0
  6
LTYPE3
 62
     2
 10
457.5199996
 20
687.9999852
 30
0.0
 11
457.5199996
 21
597.9999852
 31
0.0
  0
LINE
  8
0
  6
CONTINUOUS
 62
     1
 10
357.5199996
 20
722.9999852
 30
0.0
 11
373.5199996
 21
722.9999852
 31
0.0
  0
ARC
  8
0
  6
CONTINUOUS
 62
     1
 10
373.5199996
 20
720.9999852
 30
0.0
 40
2.0
 50
0.0
 51
90.0
  0
LINE
  8
0
  6
CONTINUOUS
 62
     1
 10
357.5199996
 20
562.9999852
 30
0.0
 11
373.5199996
 21
562.9999852
 31
0.0
  0
LINE
  8
0
  6
CONTINUOUS
 62
     1
 10
375.5199996
 20
720.9999852
 30
0.0
 11
375.5199996
 21
564.9999852
 31
0.0
  0
ARC
  8
0
  6
CONTINUOUS
 62
     1
 10
373.5199996
 20
564.9999852
 30
0.0
 40
2.0
 50
270.0
 51
0.0
  0
LINE
  8
0
  6
CONTINUOUS
 62
     1
 10
533.6199996
 20
577.9999852
 30
0.0
 11
598.5199996
 21
577.9999852
 31
0.0
  0
LINE
  8
0
  6
CONTINUOUS
 62
     1
 10
379.5199996
 20
582.9999852
 30
0.0
 11
379.5199996
 21
596.830973298
 31
0.0
  0
LINE
  8
0
  6
CONTINUOUS
 62
     1
 10
379.5199996
 20
582.9999852
 30
0.0
 11
379.5199996
 21
569.168997102
 31
0.0
  0
POINT
  8
0
  6
CONTINUOUS
 62
     1
 10
375.5199996
 20
596.9999852
 30
0.0
  0
LINE
  8
0
  6
CONTINUOUS
 62
     1
 10
375.5199996
 20
596.9999852
 30
0.0
 11
379.5199996
 21
596.9999852
 31
0.0
  0
LINE
  8
0
  6
CONTINUOUS
 62
     1
 10
375.5199996
 20
582.9999852
 30
0.0
 11
379.519996595
 21
586.999982195
 31
0.0
  0
LINE
  8
0
  6
CONTINUOUS
 62
     1
 10
379.519996595
 20
582.9999852
 30
0.0
 11
375.5199996
 21
578.999988205
 31
0.0
  0
POINT
  8
0
  6
CONTINUOUS
 62
     1
 10
375.5199996
 20
568.9999852
 30
0.0
  0
LINE
  8
0
  6
CONTINUOUS
 62
     1
 10
375.5199996
 20
568.9999852
 30
0.0
 11
379.5199996
 21
568.9999852
 31
0.0
  0
LINE
  8
0
  6
CONTINUOUS
 62
     1
 10
394.5199996
 20
582.999984976
 30
0.0
 11
394.5199996
 21
594.9999852
 31
0.0
  0
LINE
  8
0
  6
CONTINUOUS
 62
     1
 10
379.5199996
 20
594.9999852
 30
0.0
 11
394.5199996
 21
594.9999852
 31
0.0
  0
LINE
  8
0
  6
CONTINUOUS
 62
     1
 10
394.5199996
 20
594.9999852
 30
0.0
 11
395.5199996
 21
593.267934392
 31
0.0
  0
LINE
  8
0
  6
CONTINUOUS
 62
     1
 10
395.5199996
 20
582.999984962
 30
0.0
 11
395.5199996
 21
593.267934392
 31
0.0
  0
LINE
  8
0
  6
CONTINUOUS
 62
     1
 10
394.5199996
 20
582.999985424
 30
0.0
 11
394.5199996
 21
570.9999852
 31
0.0
  0
LINE
  8
0
  6
CONTINUOUS
 62
     1
 10
379.5199996
 20
570.9999852
 30
0.0
 11
394.5199996
 21
570.9999852
 31
0.0
  0
LINE
  8
0
  6
CONTINUOUS
 62
     1
 10
394.5199996
 20
570.9999852
 30
0.0
 11
395.5199996
 21
572.732036008
 31
0.0
  0
LINE
  8
0
  6
CONTINUOUS
 62
     1
 10
395.5199996
 20
582.999985438
 30
0.0
 11
395.5199996
 21
572.732036008
 31
0.0
  0
LINE
  8
0
  6
CONTINUOUS
 62
     1
 10
395.5199996
 20
577.9999852
 30
0.0
 11
459.7199996
 21
577.9999852
 31
0.0
  0
LINE
  8
0
  6
LTYPE3
 62
     2
 10
345.8199996
 20
582.9999852
 30
0.0
 11
401.6199996
 21
582.9999852
 31
0.0
  0
LINE
  8
0
  6
CONTINUOUS
 62
     1
 10
379.5199996
 20
702.9999852
 30
0.0
 11
379.5199996
 21
689.168997102
 31
0.0
  0
LINE
  8
0
  6
CONTINUOUS
 62
     1
 10
379.5199996
 20
702.9999852
 30
0.0
 11
379.5199996
 21
716.830973298
 31
0.0
  0
POINT
  8
0
  6
CONTINUOUS
 62
     1
 10
375.5199996
 20
688.9999852
 30
0.0
  0
LINE
  8
0
  6
CONTINUOUS
 62
     1
 10
375.5199996
 20
688.9999852
 30
0.0
 11
379.5199996
 21
688.9999852
 31
0.0
  0
LINE
  8
0
  6
CONTINUOUS
 62
     1
 10
375.5199996
 20
702.9999852
 30
0.0
 11
379.519996595
 21
698.999988205
 31
0.0
  0
LINE
  8
0
  6
CONTINUOUS
 62
     1
 10
379.519996595
 20
702.9999852
 30
0.0
 11
375.5199996
 21
706.999982195
 31
0.0
  0
POINT
  8
0
  6
CONTINUOUS
 62
     1
 10
375.5199996
 20
716.9999852
 30
0.0
  0
LINE
  8
0
  6
CONTINUOUS
 62
     1
 10
375.5199996
 20
716.9999852
 30
0.0
 11
379.5199996
 21
716.9999852
 31
0.0
  0
LINE
  8
0
  6
CONTINUOUS
 62
     1
 10
394.5199996
 20
702.999985424
 30
0.0
 11
394.5199996
 21
690.9999852
 31
0.0
  0
LINE
  8
0
  6
CONTINUOUS
 62
     1
 10
379.5199996
 20
690.9999852
 30
0.0
 11
394.5199996
 21
690.9999852
 31
0.0
  0
LINE
  8
0
  6
CONTINUOUS
 62
     1
 10
394.5199996
 20
690.9999852
 30
0.0
 11
395.5199996
 21
692.732036008
 31
0.0
  0
LINE
  8
0
  6
CONTINUOUS
 62
     1
 10
395.5199996
 20
702.999985438
 30
0.0
 11
395.5199996
 21
692.732036008
 31
0.0
  0
LINE
  8
0
  6
CONTINUOUS
 62
     1
 10
394.5199996
 20
702.999984976
 30
0.0
 11
394.5199996
 21
714.9999852
 31
0.0
  0
LINE
  8
0
  6
CONTINUOUS
 62
     1
 10
379.5199996
 20
714.9999852
 30
0.0
 11
394.5199996
 21
714.9999852
 31
0.0
  0
LINE
  8
0
  6
CONTINUOUS
 62
     1
 10
394.5199996
 20
714.9999852
 30
0.0
 11
395.5199996
 21
713.267934392
 31
0.0
  0
LINE
  8
0
  6
CONTINUOUS
 62
     1
 10
395.5199996
 20
702.999984962
 30
0.0
 11
395.5199996
 21
713.267934392
 31
0.0
  0
LINE
  8
0
  6
LTYPE3
 62
     2
 10
345.8199996
 20
702.9999852
 30
0.0
 11
401.6199996
 21
702.9999852
 31
0.0
  0
LINE
  8
0
  6
CONTINUOUS
 62
     1
 10
395.5199996
 20
707.9999852
 30
0.0
 11
598.5199996
 21
707.9999852
 31
0.0
  0
LINE
  8
0
  6
CONTINUOUS
 62
     1
 10
459.5199996
 20
573.4999852
 30
0.0
 11
533.5199996
 21
573.4999852
 31
0.0
  0
LINE
  8
0
  6
CONTINUOUS
 62
     1
 10
542.5199996
 20
573.4999852
 30
0.0
 11
542.5199996
 21
572.4999852
 31
0.0
  0
ARC
  8
0
  6
CONTINUOUS
 62
     1
 10
455.5199996
 20
570.4999852
 30
0.0
 40
3.0
 50
90.0
 51
180.0
  0
LINE
  8
0
  6
CONTINUOUS
 62
     1
 10
581.5199996
 20
530.4999852
 30
0.0
 11
452.5199996
 21
530.4999852
 31
0.0
  0
LINE
  8
0
  6
CONTINUOUS
 62
     1
 10
542.5199996
 20
572.4999852
 30
0.0
 11
578.5199996
 21
572.4999852
 31
0.0
  0
ARC
  8
0
  6
CONTINUOUS
 62
     1
 10
578.5199996
 20
569.4999852
 30
0.0
 40
3.0
 50
0.0
 51
90.0
  0
LINE
  8
0
  6
CONTINUOUS
 62
     1
 10
581.5199996
 20
528.9999852
 30
0.0
 11
452.5199996
 21
528.9999852
 31
0.0
  0
LINE
  8
0
  6
CONTINUOUS
 62
     1
 10
581.5199996
 20
523.9999852
 30
0.0
 11
581.5199996
 21
569.4999852
 31
0.0
  0
ARC
  8
0
  6
CONTINUOUS
 62
     1
 10
580.5199996
 20
523.9999852
 30
0.0
 40
1.0
 50
270.0
 51
0.0
  0
LINE
  8
0
  6
CONTINUOUS
 62
     1
 10
578.5199996
 20
522.9999852
 30
0.0
 11
578.5199996
 21
522.9999852
 31
0.0
  0
ARC
  8
0
  6
CONTINUOUS
 62
     1
 10
577.5199996
 20
522.9999852
 30
0.0
 40
1.0
 50
270.0
 51
0.0
  0
LINE
  8
0
  6
CONTINUOUS
 62
     1
 10
452.5199996
 20
523.9999852
 30
0.0
 11
452.5199996
 21
570.4999852
 31
0.0
  0
ARC
  8
0
  6
CONTINUOUS
 62
     1
 10
453.5199996
 20
523.9999852
 30
0.0
 40
1.0
 50
180.0
 51
270.0
  0
ARC
  8
0
  6
CONTINUOUS
 62
     1
 10
456.5199996
 20
522.9999852
 30
0.0
 40
1.0
 50
180.0
 51
270.0
  0
LINE
  8
0
  6
CONTINUOUS
 62
     1
 10
455.5199996
 20
573.4999852
 30
0.0
 11
542.5199996
 21
573.4999852
 31
0.0
  0
LINE
  8
0
  6
CONTINUOUS
 62
     1
 10
455.5199996
 20
574.9999852
 30
0.0
 11
542.5199996
 21
574.9999852
 31
0.0
  0
LINE
  8
0
  6
CONTINUOUS
 62
     1
 10
598.5199996
 20
647.9999852
 30
0.0
 11
610.5199996
 21
647.9999852
 31
0.0
  0
LINE
  8
0
  6
CONTINUOUS
 62
     1
 10
598.5199996
 20
637.9999852
 30
0.0
 11
610.5199996
 21
637.9999852
 31
0.0
  0
LINE
  8
0
  6
CONTINUOUS
 62
     1
 10
598.5199996
 20
710.4999852
 30
0.0
 11
610.5199996
 21
710.4999852
 31
0.0
  0
LINE
  8
0
  6
CONTINUOUS
 62
     1
 10
598.5199996
 20
706.4999852
 30
0.0
 11
610.5199996
 21
706.4999852
 31
0.0
  0
LINE
  8
0
  6
CONTINUOUS
 62
     1
 10
598.5199996
 20
575.4999852
 30
0.0
 11
610.5199996
 21
575.4999852
 31
0.0
  0
LINE
  8
0
  6
CONTINUOUS
 62
     1
 10
598.5199996
 20
579.4999852
 30
0.0
 11
610.5199996
 21
579.4999852
 31
0.0
  0
LINE
  8
0
  6
CONTINUOUS
 62
     1
 10
598.5199996
 20
710.4999852
 30
0.0
 11
598.5199996
 21
575.4999852
 31
0.0
  0
LINE
  8
0
  6
CONTINUOUS
 62
     1
 10
610.5199996
 20
710.4999852
 30
0.0
 11
610.5199996
 21
575.4999852
 31
0.0
  0
LINE
  8
0
  6
CONTINUOUS
 62
     2
 10
457.5199996
 20
405.9999852
 30
0.0
 11
443.031112206
 21
409.882270877
 31
0.0
  0
LINE
  8
0
  6
CONTINUOUS
 62
     2
 10
457.5199996
 20
405.9999852
 30
0.0
 11
443.031112206
 21
402.117699523
 31
0.0
  0
LINE
  8
0
  6
CONTINUOUS
 62
     2
 10
457.5199996
 20
405.9999852
 30
0.0
 11
357.5199996
 21
405.9999852
 31
0.0
  0
LINE
  8
0
  6
CONTINUOUS
 62
     2
 10
357.5199996
 20
405.9999852
 30
0.0
 11
372.008886994
 21
402.117699523
 31
0.0
  0
LINE
  8
0
  6
CONTINUOUS
 62
     2
 10
357.5199996
 20
405.9999852
 30
0.0
 11
372.008886994
 21
409.882270877
 31
0.0
  0
LINE
  8
0
  6
CONTINUOUS
 62
     2
 10
357.5199996
 20
538.9999852
 30
0.0
 11
357.5199996
 21
396.9999852
 31
0.0
  0
TEXT
  8
0
  6
CONTINUOUS
 62
     2
 10
382.0199996
 20
411.9999852
 30
1.2
 40
18.0
  1
１００
 50
0.0
 41
0.9
 51
0.0
  7
KANJI34
  0
LINE
  8
0
  6
CONTINUOUS
 62
     2
 10
357.5199996
 20
405.9999852
 30
0.0
 11
343.031112206
 21
409.882270877
 31
0.0
  0
LINE
  8
0
  6
CONTINUOUS
 62
     2
 10
357.5199996
 20
405.9999852
 30
0.0
 11
343.031112206
 21
402.117699523
 31
0.0
  0
TEXT
  8
0
  6
CONTINUOUS
 62
     2
 10
269.0199996
 20
411.9999852
 30
1.2
 40
18.0
  1
１２５
 50
0.0
 41
0.9
 51
0.0
  7
KANJI34
  0
LINE
  8
0
  6
CONTINUOUS
 62
     2
 10
457.5199996
 20
367.4999852
 30
0.0
 11
443.031112206
 21
371.382270877
 31
0.0
  0
LINE
  8
0
  6
CONTINUOUS
 62
     2
 10
457.5199996
 20
367.4999852
 30
0.0
 11
443.031112206
 21
363.617699523
 31
0.0
  0
LINE
  8
0
  6
CONTINUOUS
 62
     2
 10
457.5199996
 20
396.9999852
 30
0.0
 11
457.5199996
 21
358.4999852
 31
0.0
  0
TEXT
  8
0
  6
CONTINUOUS
 62
     2
 10
319.0199996
 20
373.4999852
 30
1.2
 40
18.0
  1
２２５
 50
0.0
 41
0.9
 51
0.0
  7
KANJI34
  0
LINE
  8
0
  6
CONTINUOUS
 62
     2
 10
457.5199996
 20
367.4999852
 30
0.0
 11
472.008886994
 21
363.617699523
 31
0.0
  0
LINE
  8
0
  6
CONTINUOUS
 62
     2
 10
457.5199996
 20
367.4999852
 30
0.0
 11
472.008886994
 21
371.382270877
 31
0.0
  0
LINE
  8
0
  6
CONTINUOUS
 62
     2
 10
457.5199996
 20
367.4999852
 30
0.0
 11
1092.1199996
 21
367.4999852
 31
0.0
  0
TEXT
  8
0
  6
CONTINUOUS
 62
     2
 10
731.9199996
 20
373.4999852
 30
1.2
 40
18.0
  1
ｍｉｎ．Ｌ
 50
0.0
 41
0.9
 51
0.0
  7
KANJI34
  0
LINE
  8
0
  6
CONTINUOUS
 62
     2
 10
457.5199996
 20
405.9999852
 30
0.0
 11
472.008886994
 21
402.117699523
 31
0.0
  0
LINE
  8
0
  6
CONTINUOUS
 62
     2
 10
457.5199996
 20
405.9999852
 30
0.0
 11
472.008886994
 21
409.882270877
 31
0.0
  0
LINE
  8
0
  6
CONTINUOUS
 62
     2
 10
457.5199996
 20
405.9999852
 30
0.0
 11
933.1199996
 21
405.9999852
 31
0.0
  0
TEXT
  8
0
  6
CONTINUOUS
 62
     2
 10
687.2199996
 20
411.9999852
 30
1.2
 40
18.0
  1
Ｃ
 50
0.0
 41
0.9
 51
0.0
  7
KANJI34
  0
LINE
  8
0
  6
CONTINUOUS
 62
     1
 10
357.5199996
 20
548.7499852
 30
0.0
 11
357.5199996
 21
921.7499852
 31
0.0
  0
LINE
  8
0
  6
CONTINUOUS
 62
     1
 10
347.5199996
 20
921.7499852
 30
0.0
 11
337.5199996
 21
872.9999852
 31
0.0
  0
LINE
  8
0
  6
CONTINUOUS
 62
     1
 10
357.5199996
 20
921.7499852
 30
0.0
 11
347.5199996
 21
921.7499852
 31
0.0
  0
LINE
  8
0
  6
CONTINUOUS
 62
     1
 10
267.5199996
 20
872.9999852
 30
0.0
 11
267.5199996
 21
905.9999852
 31
0.0
  0
LINE
  8
0
  6
CONTINUOUS
 62
     1
 10
337.5199996
 20
872.9999852
 30
0.0
 11
249.5199996
 21
872.9999852
 31
0.0
  0
LINE
  8
0
  6
CONTINUOUS
 62
     1
 10
249.5199996
 20
548.7499852
 30
0.0
 11
249.5199996
 21
872.9999852
 31
0.0
  0
LINE
  8
0
  6
LTYPE3
 62
     2
 10
297.5199996
 20
876.8999852
 30
0.0
 11
297.5199996
 21
921.7499852
 31
0.0
  0
LINE
  8
0
  6
CONTINUOUS
 62
     1
 10
337.5199996
 20
779.7499852
 30
0.0
 11
337.5199996
 21
872.9999852
 31
0.0
  0
LINE
  8
0
  6
CONTINUOUS
 62
     1
 10
344.289230369
 20
905.9999852
 30
0.0
 11
267.5199996
 21
905.9999852
 31
0.0
  0
LINE
  8
0
  6
CONTINUOUS
 62
     1
 10
245.5199996
 20
810.4999852
 30
0.0
 11
245.5199996
 21
841.4999852
 31
0.0
  0
LINE
  8
0
  6
CONTINUOUS
 62
     1
 10
249.5199996
 20
810.4999852
 30
0.0
 11
245.5199996
 21
810.4999852
 31
0.0
  0
LINE
  8
0
  6
CONTINUOUS
 62
     1
 10
249.5199996
 20
841.4999852
 30
0.0
 11
245.5199996
 21
841.4999852
 31
0.0
  0
LINE
  8
0
  6
CONTINUOUS
 62
     1
 10
245.5199996
 20
840.9999852
 30
0.0
 11
217.5199996
 21
840.9999852
 31
0.0
  0
LINE
  8
0
  6
CONTINUOUS
 62
     1
 10
217.5199996
 20
840.9999852
 30
0.0
 11
215.5199996
 21
838.9999852
 31
0.0
  0
LINE
  8
0
  6
CONTINUOUS
 62
     1
 10
245.5199996
 20
810.9999852
 30
0.0
 11
217.5199996
 21
810.9999852
 31
0.0
  0
LINE
  8
0
  6
CONTINUOUS
 62
     1
 10
215.5199996
 20
812.9999852
 30
0.0
 11
215.5199996
 21
838.9999852
 31
0.0
  0
LINE
  8
0
  6
CONTINUOUS
 62
     1
 10
217.5199996
 20
810.9999852
 30
0.0
 11
215.5199996
 21
812.9999852
 31
0.0
  0
CIRCLE
  8
0
  6
CONTINUOUS
 62
     1
 10
297.5199996
 20
931.0999852
 30
0.0
 40
15.0
  0
LINE
  8
0
  6
CONTINUOUS
 62
     1
 10
308.921268563
 20
914.101515618
 30
0.0
 11
297.5199996
 21
916.0999852
 31
0.0
  0
LINE
  8
0
  6
CONTINUOUS
 62
     1
 10
297.5199996
 20
914.0999852
 30
0.0
 11
308.921455367
 21
914.0999852
 31
0.0
  0
ARC
  8
0
  6
CONTINUOUS
 62
     1
 10
297.5199996
 20
931.0999852
 30
0.0
 40
25.0
 50
300.714883545
 51
0.0
  0
LINE
  8
0
  6
CONTINUOUS
 62
     1
 10
309.637094746
 20
908.236994689
 30
0.0
 11
308.921455367
 21
914.0999852
 31
0.0
  0
LINE
  8
0
  6
CONTINUOUS
 62
     1
 10
310.0199996
 20
905.0999852
 30
0.0
 11
309.637094746
 21
908.236994689
 31
0.0
  0
ARC
  8
0
  6
CONTINUOUS
 62
     1
 10
311.025622315
 20
908.41611086
 30
0.0
 40
1.4
 50
121.733468281
 51
187.57738995
  0
LINE
  8
0
  6
CONTINUOUS
 62
     1
 10
286.118730637
 20
914.101515618
 30
0.0
 11
297.5199996
 21
916.0999852
 31
0.0
  0
LINE
  8
0
  6
CONTINUOUS
 62
     1
 10
297.5199996
 20
914.0999852
 30
0.0
 11
286.118543833
 21
914.0999852
 31
0.0
  0
LINE
  8
0
  6
CONTINUOUS
 62
     1
 10
285.402904454
 20
908.236994689
 30
0.0
 11
286.118543833
 21
914.0999852
 31
0.0
  0
LINE
  8
0
  6
CONTINUOUS
 62
     1
 10
285.0199996
 20
905.0999852
 30
0.0
 11
285.402904454
 21
908.236994689
 31
0.0
  0
ARC
  8
0
  6
CONTINUOUS
 62
     1
 10
284.014376885
 20
908.41611086
 30
0.0
 40
1.4
 50
352.42261005
 51
58.266531719
  0
ARC
  8
0
  6
CONTINUOUS
 62
     1
 10
297.5199996
 20
931.0999852
 30
0.0
 40
25.0
 50
0.0
 51
239.342761175
  0
LINE
  8
0
  6
CONTINUOUS
 62
     1
 10
357.5199996
 20
725.8999852
 30
0.0
 11
357.5199996
 21
925.8999852
 31
0.0
  0
LINE
  8
0
  6
CONTINUOUS
 62
     1
 10
357.5199996
 20
925.9999852
 30
0.0
 11
366.5199996
 21
925.9999852
 31
0.0
  0
ARC
  8
0
  6
CONTINUOUS
 62
     1
 10
366.5199996
 20
922.9999852
 30
0.0
 40
3.0
 50
0.0
 51
90.0
  0
LINE
  8
0
  6
CONTINUOUS
 62
     1
 10
369.5199996
 20
896.9999852
 30
0.0
 11
369.5199996
 21
922.9999852
 31
0.0
  0
LINE
  8
0
  6
CONTINUOUS
 62
     1
 10
369.5199996
 20
728.9999852
 30
0.0
 11
369.5199996
 21
896.9999852
 31
0.0
  0
ARC
  8
0
  6
CONTINUOUS
 62
     1
 10
371.5199996
 20
898.9999852
 30
0.0
 40
2.0
 50
180.0
 51
270.0
  0
LINE
  8
0
  6
CONTINUOUS
 62
     1
 10
404.5199996
 20
754.9999852
 30
0.0
 11
404.5199996
 21
896.8999852
 31
0.0
  0
ARC
  8
0
  6
CONTINUOUS
 62
     1
 10
371.5199996
 20
752.9999852
 30
0.0
 40
2.0
 50
90.0
 51
180.0
  0
LINE
  8
0
  6
CONTINUOUS
 62
     1
 10
508.0699996
 20
915.9999852
 30
0.0
 11
508.0699996
 21
949.9999852
 31
0.0
  0
LINE
  8
0
  6
CONTINUOUS
 62
     1
 10
508.0699996
 20
915.9999852
 30
0.0
 11
482.0699996
 21
915.9999852
 31
0.0
  0
LINE
  8
0
  6
CONTINUOUS
 62
     1
 10
508.0699996
 20
949.9999852
 30
0.0
 11
482.0699996
 21
949.9999852
 31
0.0
  0
LINE
  8
0
  6
LTYPE3
 62
     2
 10
514.999475445
 20
932.9999852
 30
0.0
 11
474.999475445
 21
932.9999852
 31
0.0
  0
LINE
  8
0
  6
CONTINUOUS
 62
     1
 10
412.0699996
 20
907.9999852
 30
0.0
 11
412.0699996
 21
910.9999852
 31
0.0
  0
ARC
  8
0
  6
CONTINUOUS
 62
     1
 10
416.0699996
 20
904.9999852
 30
0.0
 40
3.0
 50
0.0
 51
90.0
  0
LINE
  8
0
  6
CONTINUOUS
 62
     1
 10
472.0699996
 20
907.9999852
 30
0.0
 11
472.0699996
 21
910.9999852
 31
0.0
  0
ARC
  8
0
  6
CONTINUOUS
 62
     1
 10
468.0699996
 20
904.9999852
 30
0.0
 40
3.0
 50
90.0
 51
180.0
  0
LINE
  8
0
  6
CONTINUOUS
 62
     1
 10
472.0699996
 20
907.9999852
 30
0.0
 11
412.0699996
 21
907.9999852
 31
0.0
  0
LINE
  8
0
  6
CONTINUOUS
 62
     1
 10
396.982087512
 20
912.9999852
 30
0.0
 11
489.0699996
 21
957.020031088
 31
0.0
  0
LINE
  8
0
  6
CONTINUOUS
 62
     1
 10
395.0699996
 20
916.9999852
 30
0.0
 11
396.982087512
 21
912.9999852
 31
0.0
  0
LINE
  8
0
  6
CONTINUOUS
 62
     1
 10
395.0699996
 20
916.9999852
 30
0.0
 11
487.157911688
 21
961.020031088
 31
0.0
  0
LINE
  8
0
  6
CONTINUOUS
 62
     1
 10
487.157911688
 20
961.020031088
 30
0.0
 11
489.0699996
 21
957.020031088
 31
0.0
  0
LINE
  8
0
  6
CONTINUOUS
 62
     1
 10
402.0699996
 20
920.346139046
 30
0.0
 11
402.0699996
 21
959.9999852
 31
0.0
  0
ARC
  8
0
  6
CONTINUOUS
 62
     1
 10
405.0699996
 20
959.9999852
 30
0.0
 40
3.0
 50
90.0
 51
180.0
  0
LINE
  8
0
  6
CONTINUOUS
 62
     1
 10
402.0699996
 20
913.9999852
 30
0.0
 11
402.0699996
 21
915.432119
 31
0.0
  0
ARC
  8
0
  6
CONTINUOUS
 62
     1
 10
405.0699996
 20
913.9999852
 30
0.0
 40
3.0
 50
180.0
 51
270.0
  0
LINE
  8
0
  6
CONTINUOUS
 62
     1
 10
482.0699996
 20
913.9999852
 30
0.0
 11
482.0699996
 21
953.673877242
 31
0.0
  0
LINE
  8
0
  6
CONTINUOUS
 62
     1
 10
479.0699996
 20
910.9999852
 30
0.0
 11
405.0699996
 21
910.9999852
 31
0.0
  0
ARC
  8
0
  6
CONTINUOUS
 62
     1
 10
479.0699996
 20
913.9999852
 30
0.0
 40
3.0
 50
270.0
 51
0.0
  0
LINE
  8
0
  6
CONTINUOUS
 62
     1
 10
482.0699996
 20
958.587897288
 30
0.0
 11
482.0699996
 21
959.9999852
 31
0.0
  0
LINE
  8
0
  6
CONTINUOUS
 62
     1
 10
479.0699996
 20
962.9999852
 30
0.0
 11
405.0699996
 21
962.9999852
 31
0.0
  0
ARC
  8
0
  6
CONTINUOUS
 62
     1
 10
479.0699996
 20
959.9999852
 30
0.0
 40
3.0
 50
0.0
 51
90.0
  0
ARC
  8
0
  6
CONTINUOUS
 62
     1
 10
422.0699996
 20
899.4999852
 30
0.0
 40
3.0
 50
180.0
 51
270.0
  0
ARC
  8
0
  6
CONTINUOUS
 62
     1
 10
462.0699996
 20
899.4999852
 30
0.0
 40
3.0
 50
270.0
 51
0.0
  0
LINE
  8
0
  6
CONTINUOUS
 62
     1
 10
465.0699996
 20
899.499990595
 30
0.0
 11
465.0699996
 21
904.9999852
 31
0.0
  0
LINE
  8
0
  6
CONTINUOUS
 62
     1
 10
419.0699996
 20
899.499990595
 30
0.0
 11
419.0699996
 21
904.9999852
 31
0.0
  0
LINE
  8
0
  6
LTYPE3
 62
     2
 10
442.0199996
 20
889.9999852
 30
0.0
 11
442.0199996
 21
964.9999852
 31
0.0
  0
LINE
  8
0
  6
CONTINUOUS
 62
     1
 10
609.330381415
 20
867.827567884
 30
0.0
 11
626.709617785
 21
866.172402516
 31
0.0
  0
ARC
  8
0
  6
CONTINUOUS
 62
     1
 10
609.5199996
 20
869.818558829
 30
0.0
 40
2.0
 50
180.0
 51
264.559667969
  0
LINE
  8
0
  6
CONTINUOUS
 62
     1
 10
609.330381415
 20
877.827567884
 30
0.0
 11
626.709617785
 21
876.172402516
 31
0.0
  0
ARC
  8
0
  6
CONTINUOUS
 62
     1
 10
609.5199996
 20
879.818558829
 30
0.0
 40
2.0
 50
180.0
 51
264.559667969
  0
LINE
  8
0
  6
CONTINUOUS
 62
     1
 10
609.330381415
 20
784.172402516
 30
0.0
 11
626.709617785
 21
785.827567884
 31
0.0
  0
ARC
  8
0
  6
CONTINUOUS
 62
     1
 10
609.5199996
 20
782.181411571
 30
0.0
 40
2.0
 50
95.440332031
 51
180.0
  0
ARC
  8
0
  6
CONTINUOUS
 62
     1
 10
630.5199996
 20
850.9999852
 30
0.0
 40
2.0
 50
180.0
 51
270.0
  0
LINE
  8
0
  6
CONTINUOUS
 62
     1
 10
639.5199996
 20
848.9999852
 30
0.0
 11
630.5199996
 21
848.9999852
 31
0.0
  0
ARC
  8
0
  6
CONTINUOUS
 62
     1
 10
639.5199996
 20
846.9999852
 30
0.0
 40
2.0
 50
0.0
 51
90.0
  0
LINE
  8
0
  6
CONTINUOUS
 62
     1
 10
641.5199996
 20
846.9999852
 30
0.0
 11
641.5199996
 21
804.9999852
 31
0.0
  0
ARC
  8
0
  6
CONTINUOUS
 62
     1
 10
639.5199996
 20
804.9999852
 30
0.0
 40
2.0
 50
270.0
 51
0.0
  0
ARC
  8
0
  6
CONTINUOUS
 62
     1
 10
630.5199996
 20
800.9999852
 30
0.0
 40
2.0
 50
90.0
 51
180.0
  0
LINE
  8
0
  6
CONTINUOUS
 62
     1
 10
639.5199996
 20
802.9999852
 30
0.0
 11
630.5199996
 21
802.9999852
 31
0.0
  0
LINE
  8
0
  6
CONTINUOUS
 62
     1
 10
644.5199996
 20
837.4999852
 30
0.0
 11
641.5199996
 21
837.4999852
 31
0.0
  0
LINE
  8
0
  6
CONTINUOUS
 62
     1
 10
644.5199996
 20
814.4999852
 30
0.0
 11
641.5199996
 21
814.4999852
 31
0.0
  0
LINE
  8
0
  6
CONTINUOUS
 62
     1
 10
644.5199996
 20
837.4999852
 30
0.0
 11
644.5199996
 21
814.4999852
 31
0.0
  0
ARC
  8
0
  6
CONTINUOUS
 62
     1
 10
626.5199996
 20
818.818558829
 30
0.0
 40
2.0
 50
275.440332031
 51
0.0
  0
LINE
  8
0
  6
CONTINUOUS
 62
     1
 10
626.709617785
 20
816.827567884
 30
0.0
 11
609.330381415
 21
815.172402516
 31
0.0
  0
ARC
  8
0
  6
CONTINUOUS
 62
     1
 10
609.5199996
 20
813.181411571
 30
0.0
 40
2.0
 50
95.440332031
 51
180.0
  0
ARC
  8
0
  6
CONTINUOUS
 62
     1
 10
626.5199996
 20
833.181411571
 30
0.0
 40
2.0
 50
0.0
 51
84.559667969
  0
LINE
  8
0
  6
CONTINUOUS
 62
     1
 10
626.709617785
 20
835.172402516
 30
0.0
 11
609.330381415
 21
836.827567884
 31
0.0
  0
ARC
  8
0
  6
CONTINUOUS
 62
     1
 10
609.5199996
 20
838.818558829
 30
0.0
 40
2.0
 50
180.0
 51
264.559667969
  0
LINE
  8
0
  6
LTYPE3
 62
     2
 10
621.0199996
 20
868.9999852
 30
0.0
 11
634.2199996
 21
868.9999852
 31
0.0
  0
LINE
  8
0
  6
CONTINUOUS
 62
     1
 10
609.330381415
 20
774.172402516
 30
0.0
 11
626.709617785
 21
775.827567884
 31
0.0
  0
LINE
  8
0
  6
LTYPE3
 62
     2
 10
621.0199996
 20
782.9999852
 30
0.0
 11
634.2199996
 21
782.9999852
 31
0.0
  0
ARC
  8
0
  6
CONTINUOUS
 62
     1
 10
609.5199996
 20
772.181411571
 30
0.0
 40
2.0
 50
95.440332031
 51
180.0
  0
LINE
  8
0
  6
CONTINUOUS
 62
     1
 10
628.5199996
 20
874.181411571
 30
0.0
 11
628.5199996
 21
778.3881052
 31
0.0
  0
ARC
  8
0
  6
CONTINUOUS
 62
     1
 10
626.5199996
 20
864.181411571
 30
0.0
 40
2.0
 50
0.0
 51
84.559667969
  0
ARC
  8
0
  6
CONTINUOUS
 62
     1
 10
626.5199996
 20
874.181411571
 30
0.0
 40
2.0
 50
0.0
 51
84.559667969
  0
LINE
  8
0
  6
CONTINUOUS
 62
     1
 10
632.0201996
 20
872.4824252
 30
0.0
 11
631.368117112
 21
873.6118652
 31
0.0
  0
LINE
  8
0
  6
CONTINUOUS
 62
     1
 10
632.0201996
 20
865.5175452
 30
0.0
 11
631.368117112
 21
864.3881052
 31
0.0
  0
ARC
  8
0
  6
CONTINUOUS
 62
     1
 10
627.616944674
 20
868.9999852
 30
0.0
 40
4.403254926
 50
328.419912243
 51
31.580087757
  0
ARC
  8
0
  6
CONTINUOUS
 62
     1
 10
630.675279468
 20
872.4588952
 30
0.0
 40
1.34512595
 50
301.002313915
 51
2.989498403
  0
LINE
  8
0
  6
CONTINUOUS
 62
     1
 10
632.0201996
 20
865.5175452
 30
0.0
 11
631.368117112
 21
864.3881052
 31
0.0
  0
ARC
  8
0
  6
CONTINUOUS
 62
     1
 10
630.675279468
 20
865.5410752
 30
0.0
 40
1.34512595
 50
357.010501597
 51
58.997686085
  0
LINE
  8
0
  6
CONTINUOUS
 62
     1
 10
628.5199996
 20
873.6118652
 30
0.0
 11
631.368117112
 21
873.6118652
 31
0.0
  0
LINE
  8
0
  6
CONTINUOUS
 62
     1
 10
628.5199996
 20
871.3059252
 30
0.0
 11
631.368117112
 21
871.3059252
 31
0.0
  0
LINE
  8
0
  6
CONTINUOUS
 62
     1
 10
628.5199996
 20
866.6940452
 30
0.0
 11
631.368117112
 21
866.6940452
 31
0.0
  0
LINE
  8
0
  6
CONTINUOUS
 62
     1
 10
628.5199996
 20
864.3881052
 30
0.0
 11
631.368117112
 21
864.3881052
 31
0.0
  0
LINE
  8
0
  6
CONTINUOUS
 62
     1
 10
632.0201996
 20
872.4824252
 30
0.0
 11
632.0201996
 21
865.5175452
 31
0.0
  0
LINE
  8
0
  6
CONTINUOUS
 62
     1
 10
649.5199996
 20
830.3528872
 30
0.0
 11
648.704924203
 21
831.7646392
 31
0.0
  0
LINE
  8
0
  6
CONTINUOUS
 62
     1
 10
649.5199996
 20
821.6470832
 30
0.0
 11
648.704924203
 21
820.2353312
 31
0.0
  0
ARC
  8
0
  6
CONTINUOUS
 62
     1
 10
644.016118077
 20
825.9999852
 30
0.0
 40
5.503881523
 50
328.419912243
 51
31.580087757
  0
ARC
  8
0
  6
CONTINUOUS
 62
     1
 10
647.838906593
 20
830.3234757
 30
0.0
 40
1.681350271
 50
301.002313915
 51
2.989498403
  0
LINE
  8
0
  6
CONTINUOUS
 62
     1
 10
649.5199996
 20
821.6470832
 30
0.0
 11
648.704924203
 21
820.2353312
 31
0.0
  0
ARC
  8
0
  6
CONTINUOUS
 62
     1
 10
647.838906593
 20
821.6764947
 30
0.0
 40
1.681350271
 50
357.010501597
 51
58.997686085
  0
LINE
  8
0
  6
CONTINUOUS
 62
     1
 10
645.5203896
 20
828.8823122
 30
0.0
 11
648.704924203
 21
828.8823122
 31
0.0
  0
LINE
  8
0
  6
CONTINUOUS
 62
     1
 10
645.5203896
 20
831.7646392
 30
0.0
 11
648.704924203
 21
831.7646392
 31
0.0
  0
LINE
  8
0
  6
CONTINUOUS
 62
     1
 10
645.5203896
 20
823.1176582
 30
0.0
 11
648.704924203
 21
823.1176582
 31
0.0
  0
LINE
  8
0
  6
CONTINUOUS
 62
     1
 10
645.5203896
 20
820.2353312
 30
0.0
 11
648.704924203
 21
820.2353312
 31
0.0
  0
LINE
  8
0
  6
CONTINUOUS
 62
     1
 10
649.5199996
 20
821.6470832
 30
0.0
 11
649.5199996
 21
830.3528872
 31
0.0
  0
LINE
  8
0
  6
CONTINUOUS
 62
     1
 10
645.5203896
 20
832.4999852
 30
0.0
 11
644.5199996
 21
832.4999852
 31
0.0
  0
LINE
  8
0
  6
CONTINUOUS
 62
     1
 10
645.5203896
 20
832.4999852
 30
0.0
 11
645.5203896
 21
819.4999852
 31
0.0
  0
LINE
  8
0
  6
CONTINUOUS
 62
     1
 10
645.5203896
 20
819.4999852
 30
0.0
 11
644.5199996
 21
819.4999852
 31
0.0
  0
ARC
  8
0
  6
CONTINUOUS
 62
     1
 10
626.5199996
 20
787.818558829
 30
0.0
 40
2.0
 50
275.440332031
 51
0.0
  0
LINE
  8
0
  6
CONTINUOUS
 62
     1
 10
632.0201996
 20
779.5175452
 30
0.0
 11
631.368117112
 21
778.3881052
 31
0.0
  0
LINE
  8
0
  6
CONTINUOUS
 62
     1
 10
632.0201996
 20
786.4824252
 30
0.0
 11
631.368117112
 21
787.6118652
 31
0.0
  0
ARC
  8
0
  6
CONTINUOUS
 62
     1
 10
627.616944674
 20
782.9999852
 30
0.0
 40
4.403254926
 50
328.419912243
 51
31.580087757
  0
ARC
  8
0
  6
CONTINUOUS
 62
     1
 10
630.675279468
 20
779.5410752
 30
0.0
 40
1.34512595
 50
357.010501597
 51
58.997686085
  0
LINE
  8
0
  6
CONTINUOUS
 62
     1
 10
632.0201996
 20
786.4824252
 30
0.0
 11
631.368117112
 21
787.6118652
 31
0.0
  0
ARC
  8
0
  6
CONTINUOUS
 62
     1
 10
630.675279468
 20
786.4588952
 30
0.0
 40
1.34512595
 50
301.002313915
 51
2.989498403
  0
LINE
  8
0
  6
CONTINUOUS
 62
     1
 10
628.5199996
 20
778.3881052
 30
0.0
 11
631.368117112
 21
778.3881052
 31
0.0
  0
LINE
  8
0
  6
CONTINUOUS
 62
     1
 10
628.5199996
 20
780.6940452
 30
0.0
 11
631.368117112
 21
780.6940452
 31
0.0
  0
LINE
  8
0
  6
CONTINUOUS
 62
     1
 10
628.5199996
 20
785.3059252
 30
0.0
 11
631.368117112
 21
785.3059252
 31
0.0
  0
LINE
  8
0
  6
CONTINUOUS
 62
     1
 10
628.5199996
 20
787.6118652
 30
0.0
 11
631.368117112
 21
787.6118652
 31
0.0
  0
LINE
  8
0
  6
CONTINUOUS
 62
     1
 10
632.0201996
 20
779.5175452
 30
0.0
 11
632.0201996
 21
786.4824252
 31
0.0
  0
ARC
  8
0
  6
CONTINUOUS
 62
     1
 10
626.5199996
 20
777.818558829
 30
0.0
 40
2.0
 50
275.440332031
 51
0.0
  0
LINE
  8
0
  6
LTYPE1
 62
     1
 10
636.6199996
 20
840.4999852
 30
0.0
 11
628.5199996
 21
831.2999852
 31
0.0
  0
ARC
  8
0
  6
LTYPE1
 62
     1
 10
640.0199996
 20
837.4999852
 30
0.0
 40
4.5
 50
290.9
 51
137.7
  0
LINE
  8
0
  6
LTYPE1
 62
     1
 10
634.5199996
 20
830.4999852
 30
0.0
 11
628.5199996
 21
831.2999852
 31
0.0
  0
LINE
  8
0
  6
LTYPE1
 62
     1
 10
641.6199996
 20
833.2999852
 30
0.0
 11
634.5199996
 21
830.4999852
 31
0.0
  0
LINE
  8
0
  6
LTYPE1
 62
     1
 10
634.5199996
 20
821.4999852
 30
0.0
 11
628.5199996
 21
820.6999852
 31
0.0
  0
ARC
  8
0
  6
LTYPE1
 62
     1
 10
640.0199996
 20
814.4999852
 30
0.0
 40
4.5
 50
222.3
 51
69.1
  0
LINE
  8
0
  6
LTYPE1
 62
     1
 10
636.6199996
 20
811.4999852
 30
0.0
 11
628.5199996
 21
820.6999852
 31
0.0
  0
LINE
  8
0
  6
LTYPE1
 62
     1
 10
641.6199996
 20
818.6999852
 30
0.0
 11
634.5199996
 21
821.4999852
 31
0.0
  0
LINE
  8
0
  6
LTYPE1
 62
     1
 10
634.5199996
 20
830.4999852
 30
0.0
 11
634.5199996
 21
821.4999852
 31
0.0
  0
LINE
  8
0
  6
CONTINUOUS
 62
     1
 10
599.5199996
 20
754.9999852
 30
0.0
 11
599.5199996
 21
896.9999852
 31
0.0
  0
LINE
  8
0
  6
CONTINUOUS
 62
     1
 10
371.5199996
 20
896.9999852
 30
0.0
 11
604.5199996
 21
896.9999852
 31
0.0
  0
ARC
  8
0
  6
CONTINUOUS
 62
     1
 10
604.5199996
 20
893.9999852
 30
0.0
 40
3.0
 50
0.0
 51
90.0
  0
LINE
  8
0
  6
CONTINUOUS
 62
     1
 10
371.5199996
 20
754.9999852
 30
0.0
 11
604.5199996
 21
754.9999852
 31
0.0
  0
LINE
  8
0
  6
CONTINUOUS
 62
     1
 10
607.5199996
 20
893.9999852
 30
0.0
 11
607.5199996
 21
757.9999852
 31
0.0
  0
ARC
  8
0
  6
CONTINUOUS
 62
     1
 10
604.5199996
 20
757.9999852
 30
0.0
 40
3.0
 50
270.0
 51
0.0
  0
LINE
  8
0
  6
CONTINUOUS
 62
     2
 10
354.5199996
 20
884.336294648
 30
0.0
 11
384.5199996
 21
884.336294648
 31
0.0
  0
LINE
  8
0
  6
CONTINUOUS
 62
     1
 10
376.5199996
 20
874.336294648
 30
0.0
 11
376.5199996
 21
894.336294648
 31
0.0
  0
LINE
  8
0
  6
CONTINUOUS
 62
     1
 10
369.5199996
 20
894.336294648
 30
0.0
 11
376.5199996
 21
894.336294648
 31
0.0
  0
LINE
  8
0
  6
CONTINUOUS
 62
     1
 10
369.5199996
 20
874.336294648
 30
0.0
 11
376.5199996
 21
874.336294648
 31
0.0
  0
LINE
  8
0
  6
CONTINUOUS
 62
     1
 10
369.5199996
 20
889.336294648
 30
0.0
 11
376.5199996
 21
889.336294648
 31
0.0
  0
LINE
  8
0
  6
CONTINUOUS
 62
     1
 10
369.5199996
 20
879.336294648
 30
0.0
 11
376.5199996
 21
879.336294648
 31
0.0
  0
LINE
  8
0
  6
CONTINUOUS
 62
     2
 10
354.5199996
 20
767.663675752
 30
0.0
 11
384.5199996
 21
767.663675752
 31
0.0
  0
LINE
  8
0
  6
CONTINUOUS
 62
     1
 10
376.5199996
 20
777.663675752
 30
0.0
 11
376.5199996
 21
757.663675752
 31
0.0
  0
LINE
  8
0
  6
CONTINUOUS
 62
     1
 10
369.5199996
 20
757.663675752
 30
0.0
 11
376.5199996
 21
757.663675752
 31
0.0
  0
LINE
  8
0
  6
CONTINUOUS
 62
     1
 10
369.5199996
 20
777.663675752
 30
0.0
 11
376.5199996
 21
777.663675752
 31
0.0
  0
LINE
  8
0
  6
CONTINUOUS
 62
     1
 10
369.5199996
 20
762.663675752
 30
0.0
 11
376.5199996
 21
762.663675752
 31
0.0
  0
LINE
  8
0
  6
CONTINUOUS
 62
     1
 10
369.5199996
 20
772.663675752
 30
0.0
 11
376.5199996
 21
772.663675752
 31
0.0
  0
LINE
  8
2
  6
CONTINUOUS
 62
     2
 10
605.5199996
 20
896.9999852
 30
0.0
 11
712.6199996
 21
896.9999852
 31
0.0
  0
LINE
  8
2
  6
CONTINUOUS
 62
     2
 10
706.6199996
 20
896.9999852
 30
0.0
 11
702.737713923
 21
882.511097806
 31
0.0
  0
LINE
  8
2
  6
CONTINUOUS
 62
     2
 10
706.6199996
 20
896.9999852
 30
0.0
 11
710.502285277
 21
882.511097806
 31
0.0
  0
LINE
  8
2
  6
CONTINUOUS
 62
     2
 10
706.6199996
 20
896.9999852
 30
0.0
 11
706.6199996
 21
754.9999852
 31
0.0
  0
LINE
  8
2
  6
CONTINUOUS
 62
     2
 10
706.6199996
 20
754.9999852
 30
0.0
 11
710.502285277
 21
769.488872594
 31
0.0
  0
LINE
  8
2
  6
CONTINUOUS
 62
     2
 10
706.6199996
 20
754.9999852
 30
0.0
 11
702.737713923
 21
769.488872594
 31
0.0
  0
LINE
  8
2
  6
CONTINUOUS
 62
     2
 10
605.5199996
 20
754.9999852
 30
0.0
 11
712.6199996
 21
754.9999852
 31
0.0
  0
TEXT
  8
2
  6
CONTINUOUS
 62
     2
 10
700.6199996
 20
784.8999852
 30
1.8
 40
18.0
  1
φ１４２
 50
90.0
 41
0.9
 51
0.0
  7
KANJI35
  0
LINE
  8
0
  6
CONTINUOUS
 62
     2
 10
508.0699996
 20
932.9999852
 30
0.0
 11
518.48991446
 21
943.790044251
 31
0.0
  0
LINE
  8
0
  6
CONTINUOUS
 62
     2
 10
508.0699996
 20
932.9999852
 30
0.0
 11
511.698881048
 21
947.554407876
 31
0.0
  0
LINE
  8
0
  6
CONTINUOUS
 62
     2
 10
508.0699996
 20
932.9999852
 30
0.0
 11
539.0699996
 21
988.9249852
 31
0.0
  0
LINE
  8
0
  6
CONTINUOUS
 62
     2
 10
539.0699996
 20
988.9249852
 30
0.0
 11
627.2699996
 21
988.9249852
 31
0.0
  0
TEXT
  8
0
  6
CONTINUOUS
 62
     2
 10
539.0699996
 20
994.9249852
 30
1.8
 40
18.0
  1
ＰＦ３／４
 50
0.0
 41
0.9
 51
0.0
  7
KANJI35
  0
LINE
  8
0
  6
CONTINUOUS
 62
     1
 10
357.5199996
 20
725.9999852
 30
0.0
 11
366.5199996
 21
725.9999852
 31
0.0
  0
ARC
  8
0
  6
CONTINUOUS
 62
     1
 10
366.5199996
 20
728.9999852
 30
0.0
 40
3.0
 50
270.0
 51
0.0
  0
LINE
  8
7
  6
CONTINUOUS
 62
     2
 10
212.0199996
 20
838.5999852
 30
0.0
 11
213.550684844
 21
853.521680904
 31
0.0
  0
LINE
  8
7
  6
CONTINUOUS
 62
     2
 10
212.0199996
 20
838.5999852
 30
0.0
 11
205.884764054
 21
852.287895369
 31
0.0
  0
LINE
  8
0
  6
LTYPE3
 62
     2
 10
206.1199996
 20
825.9999852
 30
0.0
 11
668.5199996
 21
825.9999852
 31
0.0
  0
TEXT
  8
0
  6
CONTINUOUS
 62
     2
 10
427.0199996
 20
798.4999852
 30
1.8
 40
18.0
  1
日本電産
 50
0.0
 41
0.666666667
 51
0.0
  7
KANJI36
  0
TEXT
  8
0
  6
CONTINUOUS
 62
     2
 10
427.0199996
 20
774.9999852
 30
1.8
 40
18.0
  1
エコノストップモータ
 50
0.0
 41
0.666666667
 51
0.0
  7
KANJI36
  0
LINE
  8
0
  6
CONTINUOUS
 62
     2
 10
357.5199996
 20
894.8999852
 30
0.0
 11
357.5199996
 21
1045.7499852
 31
0.0
  0
LINE
  8
0
  6
CONTINUOUS
 62
     2
 10
357.5199996
 20
1036.7499852
 30
0.0
 11
343.031112206
 21
1040.632270877
 31
0.0
  0
LINE
  8
0
  6
CONTINUOUS
 62
     2
 10
357.5199996
 20
1036.7499852
 30
0.0
 11
343.031112206
 21
1032.867699523
 31
0.0
  0
LINE
  8
0
  6
CONTINUOUS
 62
     2
 10
357.5199996
 20
1036.7499852
 30
0.0
 11
215.5199996
 21
1036.7499852
 31
0.0
  0
LINE
  8
0
  6
CONTINUOUS
 62
     2
 10
215.5199996
 20
1036.7499852
 30
0.0
 11
230.008886994
 21
1032.867699523
 31
0.0
  0
LINE
  8
0
  6
CONTINUOUS
 62
     2
 10
215.5199996
 20
1036.7499852
 30
0.0
 11
230.008886994
 21
1040.632270877
 31
0.0
  0
TEXT
  8
0
  6
CONTINUOUS
 62
     2
 10
261.0199996
 20
1042.7499852
 30
1.2
 40
18.0
  1
１４８
 50
0.0
 41
0.9
 51
0.0
  7
KANJI34
  0
LINE
  8
2
  6
CONTINUOUS
 62
     2
 10
357.5199996
 20
1036.7499852
 30
0.0
 11
372.008886994
 21
1032.867699523
 31
0.0
  0
LINE
  8
2
  6
CONTINUOUS
 62
     2
 10
357.5199996
 20
1036.7499852
 30
0.0
 11
372.008886994
 21
1040.632270877
 31
0.0
  0
LINE
  8
2
  6
CONTINUOUS
 62
     2
 10
357.5199996
 20
1036.7499852
 30
0.0
 11
649.5199996
 21
1036.7499852
 31
0.0
  0
LINE
  8
2
  6
CONTINUOUS
 62
     2
 10
649.5199996
 20
1036.7499852
 30
0.0
 11
635.031112206
 21
1040.632270877
 31
0.0
  0
LINE
  8
2
  6
CONTINUOUS
 62
     2
 10
649.5199996
 20
1036.7499852
 30
0.0
 11
635.031112206
 21
1032.867699523
 31
0.0
  0
TEXT
  8
2
  6
CONTINUOUS
 62
     2
 10
472.9199996
 20
1042.7499852
 30
1.8
 40
18.0
  1
２９２
 50
0.0
 41
0.9
 51
0.0
  7
KANJI35
  0
LINE
  8
0
  6
CONTINUOUS
 62
     2
 10
215.5199996
 20
840.9999852
 30
0.0
 11
215.5199996
 21
1045.7499852
 31
0.0
  0
LINE
  8
2
  6
CONTINUOUS
 62
     2
 10
649.5199996
 20
840.9999852
 30
0.0
 11
649.5199996
 21
1042.7499852
 31
0.0
  0
LINE
  8
7
  6
CONTINUOUS
 62
     2
 10
651.0199996
 20
833.5499852
 30
0.0
 11
658.480279697
 21
846.56321773
 31
0.0
  0
LINE
  8
7
  6
CONTINUOUS
 62
     2
 10
651.0199996
 20
833.5499852
 30
0.0
 11
650.974175419
 21
848.549915205
 31
0.0
  0
LINE
  8
7
  6
CONTINUOUS
 62
     2
 10
651.0199996
 20
833.5499852
 30
0.0
 11
697.697480196
 21
1009.905993705
 31
0.0
  0
TEXT
  8
7
  6
CONTINUOUS
 62
     2
 10
697.697480196
 20
1015.905993705
 30
1.8
 40
18.0
  1
ブレーキ開放装置
 50
0.0
 41
0.9
 51
0.0
  7
KANJI35
  0
LINE
  8
7
  6
CONTINUOUS
 62
     2
 10
697.697480196
 20
1009.905993705
 30
0.0
 11
839.897480196
 21
1009.905993705
 31
0.0
  0
TEXT
  8
7
  6
CONTINUOUS
 62
     2
 10
93.8199996
 20
921.7999852
 30
1.8
 40
18.0
  1
手動軸カバー
 50
0.0
 41
0.9
 51
0.0
  7
KANJI35
  0
LINE
  8
7
  6
CONTINUOUS
 62
     2
 10
212.0199996
 20
838.5999852
 30
0.0
 11
199.595106896
 21
915.7999852
 31
0.0
  0
LINE
  8
7
  6
CONTINUOUS
 62
     2
 10
199.595106896
 20
915.7999852
 30
0.0
 11
93.8199996
 21
915.7999852
 31
0.0
  0
TEXT
  8
7
  6
CONTINUOUS
 62
     2
 10
93.8199996
 20
891.7999852
 30
1.8
 40
18.0
  1
手動軸□１０
 50
0.0
 41
0.9
 51
0.0
  7
KANJI35
  0
ARC
  8
0
  6
CONTINUOUS
 62
     2
 10
179.1199996
 20
825.2999852
 30
0.0
 40
20.0
 50
231.952957468
 51
156.801409486
  0
LINE
  8
0
  6
CONTINUOUS
 62
     2
 10
160.737099
 20
833.178371172
 30
0.0
 11
163.03179171
 21
843.015809949
 31
0.0
  0
TEXT
  8
0
  6
CONTINUOUS
 62
     2
 10
98.737099
 20
816.178371172
 30
0.0
 40
15.0
  1
前進方向
 50
0.0
 41
0.9
 51
0.0
  7
KANJI33
  0
LINE
  8
0
  6
CONTINUOUS
 62
     2
 10
160.737099
 20
833.178371172
 30
0.0
 11
169.005260378
 21
838.085707707
 31
0.0
  0
LINE
  8
0
  6
CONTINUOUS
 62
     1
 10
289.2199996
 20
717.9999852
 30
0.0
 11
289.2199996
 21
647.9999852
 31
0.0
  0
TEXT
  8
0
  6
CONTINUOUS
 62
     2
 10
294.2199996
 20
706.9999852
 30
5.0
 40
20.0
  1
銘板
 50
270.0
 41
0.925
 51
0.0
  7
KANJI37
  0
LINE
  8
0
  6
CONTINUOUS
 62
     1
 10
332.2199996
 20
717.9999852
 30
0.0
 11
289.2199996
 21
717.9999852
 31
0.0
  0
LINE
  8
0
  6
CONTINUOUS
 62
     1
 10
332.2199996
 20
647.9999852
 30
0.0
 11
289.2199996
 21
647.9999852
 31
0.0
  0
LINE
  8
0
  6
CONTINUOUS
 62
     1
 10
332.2199996
 20
717.9999852
 30
0.0
 11
332.2199996
 21
647.9999852
 31
0.0
  0
LINE
  8
0
  6
LTYPE3
 62
     2
 10
264.2199996
 20
717.9999852
 30
0.0
 11
217.2199996
 21
717.9999852
 31
0.0
  0
LINE
  8
0
  6
CONTINUOUS
 62
     1
 10
232.5199996
 20
717.9999852
 30
0.0
 11
232.5199996
 21
704.168997102
 31
0.0
  0
LINE
  8
0
  6
CONTINUOUS
 62
     1
 10
232.5199996
 20
717.9999852
 30
0.0
 11
232.5199996
 21
731.830973298
 31
0.0
  0
LINE
  8
0
  6
CONTINUOUS
 62
     1
 10
222.520090987
 20
707.556177861
 30
0.0
 11
224.47568071
 21
704.168997102
 31
0.0
  0
LINE
  8
0
  6
CONTINUOUS
 62
     1
 10
222.520090987
 20
717.9999852
 30
0.0
 11
222.520090987
 21
707.556177861
 31
0.0
  0
LINE
  8
0
  6
CONTINUOUS
 62
     1
 10
222.520090987
 20
728.443792539
 30
0.0
 11
224.47568071
 21
731.830973298
 31
0.0
  0
LINE
  8
0
  6
CONTINUOUS
 62
     1
 10
222.520090987
 20
717.9999852
 30
0.0
 11
222.520090987
 21
728.443792539
 31
0.0
  0
ARC
  8
0
  6
CONTINUOUS
 62
     1
 10
235.725414298
 20
717.9999852
 30
0.0
 40
13.20532331
 50
148.419912243
 51
211.580087757
  0
ARC
  8
0
  6
CONTINUOUS
 62
     1
 10
226.553494791
 20
707.626744127
 30
0.0
 40
4.034021051
 50
121.002313915
 51
182.989498403
  0
LINE
  8
0
  6
CONTINUOUS
 62
     1
 10
222.520090987
 20
728.443792539
 30
0.0
 11
224.47568071
 21
731.830973298
 31
0.0
  0
ARC
  8
0
  6
CONTINUOUS
 62
     1
 10
226.553494791
 20
728.373226273
 30
0.0
 40
4.034021051
 50
177.010501597
 51
238.997686085
  0
LINE
  8
0
  6
CONTINUOUS
 62
     1
 10
232.5199996
 20
704.168997102
 30
0.0
 11
224.47568071
 21
704.168997102
 31
0.0
  0
LINE
  8
0
  6
CONTINUOUS
 62
     1
 10
232.5199996
 20
711.084491151
 30
0.0
 11
224.47568071
 21
711.084491151
 31
0.0
  0
LINE
  8
0
  6
CONTINUOUS
 62
     1
 10
232.5199996
 20
724.915479249
 30
0.0
 11
224.47568071
 21
724.915479249
 31
0.0
  0
LINE
  8
0
  6
CONTINUOUS
 62
     1
 10
232.5199996
 20
731.830973298
 30
0.0
 11
224.47568071
 21
731.830973298
 31
0.0
  0
LINE
  8
0
  6
LTYPE3
 62
     2
 10
266.2199996
 20
567.9999852
 30
0.0
 11
212.2199996
 21
567.9999852
 31
0.0
  0
LINE
  8
0
  6
CONTINUOUS
 62
     1
 10
232.5199996
 20
567.9999852
 30
0.0
 11
232.5199996
 21
554.168997102
 31
0.0
  0
LINE
  8
0
  6
CONTINUOUS
 62
     1
 10
232.5199996
 20
567.9999852
 30
0.0
 11
232.5199996
 21
581.830973298
 31
0.0
  0
LINE
  8
0
  6
CONTINUOUS
 62
     1
 10
222.520090987
 20
557.556177861
 30
0.0
 11
224.47568071
 21
554.168997102
 31
0.0
  0
LINE
  8
0
  6
CONTINUOUS
 62
     1
 10
222.520090987
 20
567.9999852
 30
0.0
 11
222.520090987
 21
557.556177861
 31
0.0
  0
LINE
  8
0
  6
CONTINUOUS
 62
     1
 10
222.520090987
 20
578.443792539
 30
0.0
 11
224.47568071
 21
581.830973298
 31
0.0
  0
LINE
  8
0
  6
CONTINUOUS
 62
     1
 10
222.520090987
 20
567.9999852
 30
0.0
 11
222.520090987
 21
578.443792539
 31
0.0
  0
ARC
  8
0
  6
CONTINUOUS
 62
     1
 10
235.725414298
 20
567.9999852
 30
0.0
 40
13.20532331
 50
148.419912243
 51
211.580087757
  0
ARC
  8
0
  6
CONTINUOUS
 62
     1
 10
226.553494791
 20
557.626744127
 30
0.0
 40
4.034021051
 50
121.002313915
 51
182.989498403
  0
LINE
  8
0
  6
CONTINUOUS
 62
     1
 10
222.520090987
 20
578.443792539
 30
0.0
 11
224.47568071
 21
581.830973298
 31
0.0
  0
ARC
  8
0
  6
CONTINUOUS
 62
     1
 10
226.553494791
 20
578.373226273
 30
0.0
 40
4.034021051
 50
177.010501597
 51
238.997686085
  0
LINE
  8
0
  6
CONTINUOUS
 62
     1
 10
232.5199996
 20
554.168997102
 30
0.0
 11
224.47568071
 21
554.168997102
 31
0.0
  0
LINE
  8
0
  6
CONTINUOUS
 62
     1
 10
232.5199996
 20
561.084491151
 30
0.0
 11
224.47568071
 21
561.084491151
 31
0.0
  0
LINE
  8
0
  6
CONTINUOUS
 62
     1
 10
232.5199996
 20
574.915479249
 30
0.0
 11
224.47568071
 21
574.915479249
 31
0.0
  0
LINE
  8
0
  6
CONTINUOUS
 62
     1
 10
232.5199996
 20
581.830973298
 30
0.0
 11
224.47568071
 21
581.830973298
 31
0.0
  0
LINE
  8
0
  6
CONTINUOUS
 62
     2
 10
232.5199996
 20
405.9999852
 30
0.0
 11
247.008886994
 21
402.117699523
 31
0.0
  0
LINE
  8
0
  6
CONTINUOUS
 62
     2
 10
232.5199996
 20
538.9999852
 30
0.0
 11
232.5199996
 21
396.9999852
 31
0.0
  0
LINE
  8
0
  6
CONTINUOUS
 62
     2
 10
232.5199996
 20
396.9999852
 30
0.0
 11
232.5199996
 21
358.4999852
 31
0.0
  0
LINE
  8
0
  6
CONTINUOUS
 62
     2
 10
232.5199996
 20
405.9999852
 30
0.0
 11
247.008886994
 21
409.882270877
 31
0.0
  0
LINE
  8
0
  6
CONTINUOUS
 62
     2
 10
232.5199996
 20
367.4999852
 30
0.0
 11
247.008886994
 21
371.382270877
 31
0.0
  0
LINE
  8
0
  6
CONTINUOUS
 62
     2
 10
232.5199996
 20
367.4999852
 30
0.0
 11
247.008886994
 21
363.617699523
 31
0.0
  0
LINE
  8
0
  6
CONTINUOUS
 62
     2
 10
232.5199996
 20
358.4999852
 30
0.0
 11
232.5199996
 21
320.4999852
 31
0.0
  0
LINE
  8
0
  6
CONTINUOUS
 62
     1
 10
337.5199996
 20
779.7499852
 30
0.0
 11
232.5199996
 21
779.7499852
 31
0.0
  0
LINE
  8
0
  6
CONTINUOUS
 62
     1
 10
232.5199996
 20
547.9999852
 30
0.0
 11
232.5199996
 21
779.7499852
 31
0.0
  0
LINE
  8
0
  6
CONTINUOUS
 62
     1
 10
357.5199996
 20
547.9999852
 30
0.0
 11
232.5199996
 21
547.9999852
 31
0.0
  0
LINE
  8
0
  6
CONTINUOUS
 62
     2
 10
357.5199996
 20
405.9999852
 30
0.0
 11
232.5199996
 21
405.9999852
 31
0.0
  0
LINE
  8
0
  6
CONTINUOUS
 62
     2
 10
232.5199996
 20
367.4999852
 30
0.0
 11
457.5199996
 21
367.4999852
 31
0.0
  0
LINE
  8
0
  6
CONTINUOUS
 62
     1
 10
524.659109119
 20
522.9999852
 30
0.0
 11
453.5199996
 21
522.9999852
 31
0.0
  0
LINE
  8
0
  6
CONTINUOUS
 62
     1
 10
580.5199996
 20
522.9999852
 30
0.0
 11
559.730905889
 21
522.9999852
 31
0.0
  0
LINE
  8
0
  6
CONTINUOUS
 62
     1
 10
522.927058311
 20
521.9999852
 30
0.0
 11
456.6199996
 21
521.9999852
 31
0.0
  0
LINE
  8
0
  6
CONTINUOUS
 62
     1
 10
577.5199996
 20
521.9999852
 30
0.0
 11
561.462956696
 21
521.9999852
 31
0.0
  0
LINE
  8
0
  6
CONTINUOUS
 62
     1
 10
467.452891336
 20
521.9999852
 30
0.0
 11
456.852891336
 21
521.9999852
 31
0.0
  0
ARC
  8
0
  6
CONTINUOUS
 62
     1
 10
462.552891336
 20
522.9999852
 30
0.0
 40
5.0
 50
272.3
 51
348.5
  0
ARC
  8
0
  6
CONTINUOUS
 62
     1
 10
461.752891336
 20
522.9999852
 30
0.0
 40
5.0
 50
191.5
 51
267.7
  0
LINE
  8
0
  6
CONTINUOUS
 62
     1
 10
462.752891336
 20
517.9999852
 30
0.0
 11
461.552891336
 21
517.9999852
 31
0.0
  0
LINE
  8
0
  6
CONTINUOUS
 62
     1
 10
577.552891336
 20
521.9999852
 30
0.0
 11
566.952891336
 21
521.9999852
 31
0.0
  0
ARC
  8
0
  6
CONTINUOUS
 62
     1
 10
572.652891336
 20
522.9999852
 30
0.0
 40
5.0
 50
272.3
 51
348.5
  0
ARC
  8
0
  6
CONTINUOUS
 62
     1
 10
571.852891336
 20
522.9999852
 30
0.0
 40
5.0
 50
191.5
 51
267.7
  0
LINE
  8
0
  6
CONTINUOUS
 62
     1
 10
572.852891336
 20
517.9999852
 30
0.0
 11
571.652891336
 21
517.9999852
 31
0.0
  0
LINE
  8
0
  6
CONTINUOUS
 62
     2
 10
840.345007504
 20
587.6499852
 30
0.0
 11
840.345007504
 21
572.9999852
 31
0.0
  0
LINE
  8
0
  6
CONTINUOUS
 62
     1
 10
843.345007504
 20
585.9999852
 30
0.0
 11
889.345007504
 21
585.9999852
 31
0.0
  0
LINE
  8
0
  6
CONTINUOUS
 62
     1
 10
829.345007504
 20
585.9999852
 30
0.0
 11
610.5199996
 21
585.9999852
 31
0.0
  0
LINE
  8
0
  6
CONTINUOUS
 62
     1
 10
840.345007504
 20
699.9999852
 30
0.0
 11
892.345007504
 21
699.9999852
 31
0.0
  0
LINE
  8
0
  6
CONTINUOUS
 62
     1
 10
832.345007504
 20
699.9999852
 30
0.0
 11
610.5199996
 21
699.9999852
 31
0.0
  0
LINE
  8
2
  6
CONTINUOUS
 62
     2
 10
660.6199996
 20
585.9999852
 30
0.0
 11
660.6199996
 21
699.9999852
 31
0.0
  0
LINE
  8
2
  6
CONTINUOUS
 62
     2
 10
660.6199996
 20
699.9999852
 30
0.0
 11
656.737713923
 21
685.511097806
 31
0.0
  0
LINE
  8
2
  6
CONTINUOUS
 62
     2
 10
660.6199996
 20
699.9999852
 30
0.0
 11
664.502285277
 21
685.511097806
 31
0.0
  0
TEXT
  8
2
  6
CONTINUOUS
 62
     2
 10
654.6199996
 20
601.8999852
 30
1.8
 40
21.0
  1
φ１１４
 50
90.0
 41
0.914285714
 51
0.0
  7
KANJI38
  0
LINE
  8
2
  6
CONTINUOUS
 62
     2
 10
660.6199996
 20
585.9999852
 30
0.0
 11
656.737713923
 21
600.488872594
 31
0.0
  0
LINE
  8
2
  6
CONTINUOUS
 62
     2
 10
660.6199996
 20
585.9999852
 30
0.0
 11
664.502285277
 21
600.488872594
 31
0.0
  0
LINE
  8
0
  6
LTYPE3
 62
     2
 10
630.1699996
 20
642.9999852
 30
0.0
 11
220.1199996
 21
642.9999852
 31
0.0
  0
LINE
  8
0
  6
LTYPE3
 62
     2
 10
1140.5199996
 20
642.9999852
 30
0.0
 11
667.5699996
 21
642.9999852
 31
0.0
  0
LINE
  8
0
  6
CONTINUOUS
 62
     1
 10
708.7199996
 20
667.9999852
 30
0.0
 11
758.7199996
 21
667.9999852
 31
0.0
  0
LINE
  8
0
  6
CONTINUOUS
 62
     1
 10
758.7199996
 20
667.9999852
 30
0.0
 11
758.7199996
 21
617.9999852
 31
0.0
  0
LINE
  8
0
  6
CONTINUOUS
 62
     1
 10
708.7199996
 20
667.9999852
 30
0.0
 11
708.7199996
 21
617.9999852
 31
0.0
  0
CIRCLE
  8
0
  6
CONTINUOUS
 62
     1
 10
733.7199996
 20
642.9999852
 30
0.0
 40
25.0
  0
LINE
  8
0
  6
LTYPE2
 62
     2
 10
733.7199996
 20
680.1999852
 30
0.0
 11
733.7199996
 21
606.1999852
 31
0.0
  0
LINE
  8
0
  6
CONTINUOUS
 62
     2
 10
748.6199996
 20
658.1999852
 30
0.0
 11
757.747148983
 21
670.103562147
 31
0.0
  0
LINE
  8
0
  6
CONTINUOUS
 62
     2
 10
748.6199996
 20
658.1999852
 30
0.0
 11
750.572554356
 21
673.072359924
 31
0.0
  0
LINE
  8
0
  6
CONTINUOUS
 62
     2
 10
748.6199996
 20
658.1999852
 30
0.0
 11
808.6199996
 21
803.1999852
 31
0.0
  0
LINE
  8
0
  6
CONTINUOUS
 62
     1
 10
708.7199996
 20
617.9999852
 30
0.0
 11
758.7199996
 21
617.9999852
 31
0.0
  0
LINE
  8
0
  6
CONTINUOUS
 62
     2
 10
808.6199996
 20
803.1999852
 30
0.0
 11
860.8199996
 21
803.1999852
 31
0.0
  0
TEXT
  8
0
  6
CONTINUOUS
 62
     2
 10
808.6199996
 20
809.1999852
 30
1.8
 40
18.0
  1
給脂口
 50
0.0
 41
0.9
 51
0.0
  7
KANJI35
  0
LINE
  8
0
  6
LTYPE3
 62
     2
 10
866.345007504
 20
458.4999852
 30
0.0
 11
866.345007504
 21
569.5499852
 31
0.0
  0
LINE
  8
0
  6
CONTINUOUS
 62
     2
 10
232.5199996
 20
329.4999852
 30
0.0
 11
247.008886994
 21
333.382270877
 31
0.0
  0
LINE
  8
0
  6
CONTINUOUS
 62
     2
 10
232.5199996
 20
329.4999852
 30
0.0
 11
247.008886994
 21
325.617699523
 31
0.0
  0
LINE
  8
0
  6
CONTINUOUS
 62
     2
 10
1092.1199996
 20
329.4999852
 30
0.0
 11
232.5199996
 21
329.4999852
 31
0.0
  0
LINE
  8
0
  6
CONTINUOUS
 62
     2
 10
199.342674524
 20
278.321526374
 30
0.0
 11
631.630083262
 21
278.321526374
 31
0.0
  0
TEXT
  8
0
  6
CONTINUOUS
 62
     2
 10
201.342674524
 20
286.321526374
 30
0.0
 40
20.0
  1
推力リミッタの作動値は、約４４００ｋｇ（設計値）
 50
0.0
 41
0.925
 51
0.0
  7
KANJI39
  0
TEXT
  8
0
  6
CONTINUOUS
 62
     2
 10
610.2199996
 20
335.4999852
 30
1.2
 40
18.0
  1
ｍｉｎ．ＡＬ
 50
0.0
 41
0.9
 51
0.0
  7
KANJI34
  0
LINE
  8
0
  6
CONTINUOUS
 62
     1
 10
1022.1199996
 20
680.4999852
 30
0.0
 11
1022.1199996
 21
605.4999852
 31
0.0
  0
CIRCLE
  8
0
  6
CONTINUOUS
 62
     1
 10
1092.1199996
 20
642.9999852
 30
0.0
 40
15.0
  0
LINE
  8
0
  6
CONTINUOUS
 62
     1
 10
1112.1199996
 20
680.4999852
 30
0.0
 11
1022.1199996
 21
680.4999852
 31
0.0
  0
LINE
  8
0
  6
CONTINUOUS
 62
     1
 10
1127.1199996
 20
665.4999852
 30
0.0
 11
1112.1199996
 21
680.4999852
 31
0.0
  0
LINE
  8
0
  6
CONTINUOUS
 62
     1
 10
1112.1199996
 20
605.4999852
 30
0.0
 11
1022.1199996
 21
605.4999852
 31
0.0
  0
LINE
  8
0
  6
CONTINUOUS
 62
     1
 10
1127.1199996
 20
665.4999852
 30
0.0
 11
1127.1199996
 21
620.4999852
 31
0.0
  0
LINE
  8
0
  6
CONTINUOUS
 62
     1
 10
1112.1199996
 20
605.4999852
 30
0.0
 11
1127.1199996
 21
620.4999852
 31
0.0
  0
LINE
  8
0
  6
LTYPE1
 62
     2
 10
1042.1199996
 20
680.4999852
 30
0.0
 11
1042.1199996
 21
605.4999852
 31
0.0
  0
LINE
  8
0
  6
LTYPE2
 62
     2
 10
1092.1199996
 20
691.1999852
 30
0.0
 11
1092.1199996
 21
597.1999852
 31
0.0
  0
LINE
  8
0
  6
CONTINUOUS
 62
     2
 10
1121.1199996
 20
680.4999852
 30
0.0
 11
1189.1199996
 21
680.4999852
 31
0.0
  0
LINE
  8
0
  6
CONTINUOUS
 62
     2
 10
1121.1199996
 20
605.4999852
 30
0.0
 11
1189.1199996
 21
605.4999852
 31
0.0
  0
LINE
  8
0
  6
CONTINUOUS
 62
     2
 10
1092.1199996
 20
367.4999852
 30
0.0
 11
1077.631112206
 21
371.382270877
 31
0.0
  0
LINE
  8
0
  6
CONTINUOUS
 62
     2
 10
1092.1199996
 20
367.4999852
 30
0.0
 11
1077.631112206
 21
363.617699523
 31
0.0
  0
LINE
  8
0
  6
CONTINUOUS
 62
     2
 10
1092.1199996
 20
582.9499852
 30
0.0
 11
1092.1199996
 21
358.4999852
 31
0.0
  0
LINE
  8
0
  6
CONTINUOUS
 62
     2
 10
933.1199996
 20
405.9999852
 30
0.0
 11
1022.1199996
 21
405.9999852
 31
0.0
  0
LINE
  8
0
  6
CONTINUOUS
 62
     2
 10
1022.1199996
 20
405.9999852
 30
0.0
 11
1007.631112206
 21
409.882270877
 31
0.0
  0
LINE
  8
0
  6
CONTINUOUS
 62
     2
 10
1022.1199996
 20
405.9999852
 30
0.0
 11
1007.631112206
 21
402.117699523
 31
0.0
  0
LINE
  8
0
  6
CONTINUOUS
 62
     2
 10
1022.1199996
 20
405.9999852
 30
0.0
 11
1036.608886994
 21
402.117699523
 31
0.0
  0
LINE
  8
0
  6
CONTINUOUS
 62
     2
 10
1022.1199996
 20
405.9999852
 30
0.0
 11
1036.608886994
 21
409.882270877
 31
0.0
  0
LINE
  8
0
  6
CONTINUOUS
 62
     2
 10
1022.1199996
 20
405.9999852
 30
0.0
 11
1092.1199996
 21
405.9999852
 31
0.0
  0
LINE
  8
0
  6
CONTINUOUS
 62
     2
 10
1092.1199996
 20
405.9999852
 30
0.0
 11
1077.631112206
 21
409.882270877
 31
0.0
  0
LINE
  8
0
  6
CONTINUOUS
 62
     2
 10
1092.1199996
 20
405.9999852
 30
0.0
 11
1077.631112206
 21
402.117699523
 31
0.0
  0
TEXT
  8
0
  6
CONTINUOUS
 62
     2
 10
1040.3199996
 20
411.9999852
 30
1.2
 40
18.0
  1
７０
 50
0.0
 41
0.9
 51
0.0
  7
KANJI34
  0
LINE
  8
0
  6
CONTINUOUS
 62
     2
 10
1092.1199996
 20
358.4999852
 30
0.0
 11
1092.1199996
 21
320.4999852
 31
0.0
  0
LINE
  8
0
  6
CONTINUOUS
 62
     2
 10
1127.1199996
 20
611.4999852
 30
0.0
 11
1127.1199996
 21
320.4999852
 31
0.0
  0
TEXT
  8
0
  6
CONTINUOUS
 62
     2
 10
1092.8199996
 20
335.4999852
 30
1.2
 40
18.0
  1
３５
 50
0.0
 41
0.9
 51
0.0
  7
KANJI34
  0
LINE
  8
0
  6
CONTINUOUS
 62
     2
 10
1092.1199996
 20
329.4999852
 30
0.0
 11
1077.631112206
 21
333.382270877
 31
0.0
  0
LINE
  8
0
  6
CONTINUOUS
 62
     2
 10
1092.1199996
 20
329.4999852
 30
0.0
 11
1077.631112206
 21
325.617699523
 31
0.0
  0
LINE
  8
0
  6
CONTINUOUS
 62
     2
 10
1092.1199996
 20
329.4999852
 30
0.0
 11
1106.608886994
 21
325.617699523
 31
0.0
  0
LINE
  8
0
  6
CONTINUOUS
 62
     2
 10
1092.1199996
 20
329.4999852
 30
0.0
 11
1106.608886994
 21
333.382270877
 31
0.0
  0
LINE
  8
0
  6
CONTINUOUS
 62
     2
 10
1092.1199996
 20
329.4999852
 30
0.0
 11
1127.1199996
 21
329.4999852
 31
0.0
  0
LINE
  8
0
  6
CONTINUOUS
 62
     2
 10
1127.1199996
 20
329.4999852
 30
0.0
 11
1112.631112206
 21
333.382270877
 31
0.0
  0
LINE
  8
0
  6
CONTINUOUS
 62
     2
 10
1127.1199996
 20
329.4999852
 30
0.0
 11
1112.631112206
 21
325.617699523
 31
0.0
  0
LINE
  8
0
  6
CONTINUOUS
 62
     1
 10
977.1199996
 20
585.9999852
 30
0.0
 11
977.1199996
 21
699.9999852
 31
0.0
  0
LINE
  8
0
  6
CONTINUOUS
 62
     2
 10
977.1199996
 20
576.9999852
 30
0.0
 11
977.1199996
 21
396.9999852
 31
0.0
  0
LINE
  8
0
  6
CONTINUOUS
 62
     2
 10
977.1199996
 20
405.9999852
 30
0.0
 11
962.631112206
 21
409.882270877
 31
0.0
  0
LINE
  8
0
  6
CONTINUOUS
 62
     2
 10
977.1199996
 20
405.9999852
 30
0.0
 11
991.608886994
 21
409.882270877
 31
0.0
  0
LINE
  8
0
  6
CONTINUOUS
 62
     2
 10
977.1199996
 20
405.9999852
 30
0.0
 11
962.631112206
 21
402.117699523
 31
0.0
  0
LINE
  8
0
  6
CONTINUOUS
 62
     2
 10
977.1199996
 20
405.9999852
 30
0.0
 11
991.608886994
 21
402.117699523
 31
0.0
  0
TEXT
  8
0
  6
CONTINUOUS
 62
     2
 10
934.7199996
 20
381.9999852
 30
1.2
 40
18.0
  1
ｍｉｎ．Ｐ
 50
0.0
 41
0.9
 51
0.0
  7
KANJI34
  0
LINE
  8
0
  6
CONTINUOUS
 62
     1
 10
1022.1199996
 20
520.7999852
 30
0.0
 11
1022.1199996
 21
499.1999852
 31
0.0
  0
LINE
  8
0
  6
LTYPE2
 62
     2
 10
1018.1199996
 20
509.9999852
 30
0.0
 11
1045.4199996
 21
509.9999852
 31
0.0
  0
LINE
  8
0
  6
CONTINUOUS
 62
     1
 10
977.1199996
 20
680.4999852
 30
0.0
 11
1006.1199996
 21
680.4999852
 31
0.0
  0
LINE
  8
0
  6
CONTINUOUS
 62
     1
 10
977.1199996
 20
605.4999852
 30
0.0
 11
1006.1199996
 21
605.4999852
 31
0.0
  0
LINE
  8
0
  6
CONTINUOUS
 62
     1
 10
1022.1199996
 20
496.9999852
 30
0.0
 11
1022.1199996
 21
692.9999852
 31
0.0
  0
LINE
  8
0
  6
CONTINUOUS
 62
     1
 10
1022.1199996
 20
692.9999852
 30
0.0
 11
1006.1199996
 21
692.9999852
 31
0.0
  0
LINE
  8
0
  6
CONTINUOUS
 62
     1
 10
1006.1199996
 20
692.9999852
 30
0.0
 11
1006.1199996
 21
496.9999852
 31
0.0
  0
LINE
  8
0
  6
CONTINUOUS
 62
     2
 10
1022.1199996
 20
488.5499852
 30
0.0
 11
1022.1199996
 21
396.9999852
 31
0.0
  0
LINE
  8
0
  6
CONTINUOUS
 62
     1
 10
903.345007504
 20
585.9999852
 30
0.0
 11
977.1199996
 21
585.9999852
 31
0.0
  0
LINE
  8
0
  6
CONTINUOUS
 62
     1
 10
900.345007504
 20
699.9999852
 30
0.0
 11
977.1199996
 21
699.9999852
 31
0.0
  0
LINE
  8
0
  6
CONTINUOUS
 62
     2
 10
987.9698996
 20
493.9999852
 30
0.0
 11
1213.1
 21
493.9999852
 31
0.0
  0
LINE
  8
0
  6
CONTINUOUS
 62
     1
 10
912.1199996
 20
585.9999852
 30
0.0
 11
912.1199996
 21
699.9999852
 31
0.0
  0
TEXT
  8
0
  6
CONTINUOUS
 62
     2
 10
1277.6199996
 20
680.4999852
 30
1.2
 40
18.0
  1
φ３０Ｈ１０深３５
 50
90.0
 41
0.9
 51
0.0
  7
KANJI34
  0
LINE
  8
0
  6
CONTINUOUS
 62
     2
 10
1180.1199996
 20
680.4999852
 30
0.0
 11
1176.237713923
 21
666.011097806
 31
0.0
  0
LINE
  8
0
  6
CONTINUOUS
 62
     2
 10
1180.1199996
 20
680.4999852
 30
0.0
 11
1184.002285277
 21
666.011097806
 31
0.0
  0
LINE
  8
0
  6
CONTINUOUS
 62
     2
 10
1180.1199996
 20
680.4999852
 30
0.0
 11
1180.1199996
 21
605.4999852
 31
0.0
  0
LINE
  8
0
  6
CONTINUOUS
 62
     2
 10
1180.1199996
 20
605.4999852
 30
0.0
 11
1184.002285277
 21
619.988872594
 31
0.0
  0
LINE
  8
0
  6
CONTINUOUS
 62
     2
 10
1180.1199996
 20
605.4999852
 30
0.0
 11
1176.237713923
 21
619.988872594
 31
0.0
  0
TEXT
  8
0
  6
CONTINUOUS
 62
     2
 10
1174.1199996
 20
626.1999852
 30
1.2
 40
18.0
  1
７５
 50
90.0
 41
0.9
 51
0.0
  7
KANJI34
  0
LINE
  8
0
  6
CONTINUOUS
 62
     1
 10
1481.6199996
 20
627.9999852
 30
0.0
 11
1441.6199996
 21
627.9999852
 31
0.0
  0
LINE
  8
0
  6
CONTINUOUS
 62
     1
 10
1481.6199996
 20
657.9999852
 30
0.0
 11
1441.6199996
 21
657.9999852
 31
0.0
  0
LINE
  8
0
  6
LTYPE1
 62
     2
 10
1441.6199996
 20
627.9999852
 30
0.0
 11
1421.6199996
 21
627.9999852
 31
0.0
  0
LINE
  8
0
  6
LTYPE1
 62
     2
 10
1441.6199996
 20
657.9999852
 30
0.0
 11
1421.6199996
 21
657.9999852
 31
0.0
  0
LINE
  8
0
  6
CONTINUOUS
 62
     1
 10
1505.6199996
 20
614.9999852
 30
0.0
 11
1505.6199996
 21
670.9999852
 31
0.0
  0
LINE
  8
0
  6
CONTINUOUS
 62
     1
 10
1505.6199996
 20
614.9999852
 30
0.0
 11
1501.6199996
 21
614.9999852
 31
0.0
  0
LINE
  8
0
  6
CONTINUOUS
 62
     1
 10
1505.6199996
 20
670.9999852
 30
0.0
 11
1501.6199996
 21
670.9999852
 31
0.0
  0
LINE
  8
0
  6
CONTINUOUS
 62
     1
 10
1515.6199996
 20
627.9999852
 30
0.0
 11
1505.6199996
 21
627.9999852
 31
0.0
  0
LINE
  8
0
  6
CONTINUOUS
 62
     1
 10
1515.6199996
 20
657.9999852
 30
0.0
 11
1505.6199996
 21
657.9999852
 31
0.0
  0
LINE
  8
0
  6
LTYPE1
 62
     2
 10
1505.6199996
 20
657.9999852
 30
0.0
 11
1481.6199996
 21
657.9999852
 31
0.0
  0
LINE
  8
0
  6
LTYPE1
 62
     2
 10
1505.6199996
 20
627.9999852
 30
0.0
 11
1481.6199996
 21
627.9999852
 31
0.0
  0
LINE
  8
0
  6
CONTINUOUS
 62
     1
 10
1417.6199996
 20
614.9999852
 30
0.0
 11
1417.6199996
 21
670.9999852
 31
0.0
  0
LINE
  8
0
  6
CONTINUOUS
 62
     1
 10
1417.6199996
 20
614.9999852
 30
0.0
 11
1421.6199996
 21
614.9999852
 31
0.0
  0
LINE
  8
0
  6
CONTINUOUS
 62
     1
 10
1417.6199996
 20
670.9999852
 30
0.0
 11
1421.6199996
 21
670.9999852
 31
0.0
  0
LINE
  8
0
  6
CONTINUOUS
 62
     1
 10
1407.6199996
 20
627.9999852
 30
0.0
 11
1407.6199996
 21
657.9999852
 31
0.0
  0
LINE
  8
0
  6
CONTINUOUS
 62
     1
 10
1407.6199996
 20
627.9999852
 30
0.0
 11
1417.6199996
 21
627.9999852
 31
0.0
  0
LINE
  8
0
  6
CONTINUOUS
 62
     1
 10
1407.6199996
 20
657.9999852
 30
0.0
 11
1417.6199996
 21
657.9999852
 31
0.0
  0
CIRCLE
  8
0
  6
CONTINUOUS
 62
     1
 10
1509.2199996
 20
642.9999852
 30
0.0
 40
3.0
  0
LINE
  8
0
  6
LTYPE3
 62
     2
 10
1414.0199996
 20
635.9999852
 30
0.0
 11
1414.0199996
 21
651.9999852
 31
0.0
  0
CIRCLE
  8
0
  6
CONTINUOUS
 62
     1
 10
1414.0199996
 20
642.9999852
 30
0.0
 40
3.0
  0
LINE
  8
0
  6
CONTINUOUS
 62
     1
 10
1501.6199996
 20
680.4999852
 30
0.0
 11
1421.6199996
 21
680.4999852
 31
0.0
  0
LINE
  8
0
  6
CONTINUOUS
 62
     1
 10
1441.6199996
 20
605.4999852
 30
0.0
 11
1441.6199996
 21
680.4999852
 31
0.0
  0
LINE
  8
0
  6
CONTINUOUS
 62
     1
 10
1421.6199996
 20
605.4999852
 30
0.0
 11
1421.6199996
 21
680.4999852
 31
0.0
  0
LINE
  8
0
  6
CONTINUOUS
 62
     1
 10
1481.6199996
 20
605.4999852
 30
0.0
 11
1481.6199996
 21
680.4999852
 31
0.0
  0
LINE
  8
0
  6
CONTINUOUS
 62
     1
 10
1501.6199996
 20
605.4999852
 30
0.0
 11
1421.6199996
 21
605.4999852
 31
0.0
  0
LINE
  8
0
  6
CONTINUOUS
 62
     1
 10
1501.6199996
 20
605.4999852
 30
0.0
 11
1501.6199996
 21
680.4999852
 31
0.0
  0
LINE
  8
0
  6
LTYPE3
 62
     2
 10
1461.6199996
 20
599.3999852
 30
0.0
 11
1461.6199996
 21
683.1999852
 31
0.0
  0
LINE
  8
0
  6
LTYPE3
 62
     2
 10
1578.6199996
 20
642.9999852
 30
0.0
 11
1355.6199996
 21
642.9999852
 31
0.0
  0
LINE
  8
0
  6
LTYPE1
 62
     2
 10
1386.6199996
 20
627.9999852
 30
0.0
 11
1351.6199996
 21
627.9999852
 31
0.0
  0
LINE
  8
0
  6
LTYPE1
 62
     2
 10
1386.6199996
 20
657.9999852
 30
0.0
 11
1351.6199996
 21
657.9999852
 31
0.0
  0
LINE
  8
0
  6
LTYPE1
 62
     2
 10
1386.6199996
 20
627.9999852
 30
0.0
 11
1386.6199996
 21
657.9999852
 31
0.0
  0
ARC
  8
0
  6
CONTINUOUS
 62
     1
 10
1413.6199996
 20
570.4999852
 30
0.0
 40
3.0
 50
90.0
 51
180.0
  0
LINE
  8
0
  6
CONTINUOUS
 62
     1
 10
1410.6199996
 20
523.9999852
 30
0.0
 11
1410.6199996
 21
570.4999852
 31
0.0
  0
ARC
  8
0
  6
CONTINUOUS
 62
     1
 10
1411.6199996
 20
523.9999852
 30
0.0
 40
1.0
 50
180.0
 51
270.0
  0
ARC
  8
0
  6
CONTINUOUS
 62
     1
 10
1414.6199996
 20
522.9999852
 30
0.0
 40
1.0
 50
180.0
 51
270.0
  0
LINE
  8
0
  6
CONTINUOUS
 62
     1
 10
1512.6199996
 20
528.9999852
 30
0.0
 11
1410.6199996
 21
528.9999852
 31
0.0
  0
LINE
  8
0
  6
CONTINUOUS
 62
     1
 10
1508.6199996
 20
521.9999852
 30
0.0
 11
1414.6199996
 21
521.9999852
 31
0.0
  0
LINE
  8
0
  6
CONTINUOUS
 62
     1
 10
1511.6199996
 20
522.9999852
 30
0.0
 11
1411.6199996
 21
522.9999852
 31
0.0
  0
LINE
  8
0
  6
LTYPE2
 62
     2
 10
1506.6199996
 20
518.2999852
 30
0.0
 11
1506.6199996
 21
536.9999852
 31
0.0
  0
LINE
  8
0
  6
LTYPE2
 62
     2
 10
1416.6199996
 20
518.2999852
 30
0.0
 11
1416.6199996
 21
536.9999852
 31
0.0
  0
LINE
  8
0
  6
LTYPE2
 62
     3
 10
1461.6199996
 20
517.4999852
 30
0.0
 11
1461.6199996
 21
576.6499852
 31
0.0
  0
CIRCLE
  8
0
  6
CONTINUOUS
 62
     2
 10
1461.6199996
 20
547.4999852
 30
0.0
 40
10.4775
  0
CIRCLE
  8
0
  6
CONTINUOUS
 62
     2
 10
1461.6199996
 20
547.4999852
 30
0.0
 40
9.3155
  0
LINE
  8
0
  6
LTYPE3
 62
     2
 10
1481.5199996
 20
547.4999852
 30
0.0
 11
1440.8199996
 21
547.4999852
 31
0.0
  0
LINE
  8
0
  6
LTYPE3
 62
     2
 10
1539.1199996
 20
582.9999852
 30
0.0
 11
1505.1199996
 21
582.9999852
 31
0.0
  0
LINE
  8
0
  6
LTYPE3
 62
     2
 10
1384.1199996
 20
582.9999852
 30
0.0
 11
1418.1199996
 21
582.9999852
 31
0.0
  0
LINE
  8
0
  6
LTYPE3
 62
     2
 10
1401.6199996
 20
564.4999852
 30
0.0
 11
1401.6199996
 21
600.4999852
 31
0.0
  0
LINE
  8
0
  6
CONTINUOUS
 62
     1
 10
1389.6199996
 20
562.9999852
 30
0.0
 11
1410.6199996
 21
562.9999852
 31
0.0
  0
ARC
  8
0
  6
CONTINUOUS
 62
     1
 10
1389.6199996
 20
570.9999852
 30
0.0
 40
8.0
 50
180.0
 51
270.0
  0
LINE
  8
0
  6
LTYPE3
 62
     2
 10
1539.1199996
 20
702.9999852
 30
0.0
 11
1505.1199996
 21
702.9999852
 31
0.0
  0
LINE
  8
0
  6
CONTINUOUS
 62
     2
 10
1351.6199996
 20
598.9999852
 30
0.0
 11
1351.6199996
 21
403.4999852
 31
0.0
  0
LINE
  8
0
  6
CONTINUOUS
 62
     2
 10
1351.6199996
 20
412.4999852
 30
0.0
 11
1366.108886994
 21
408.617699523
 31
0.0
  0
LINE
  8
0
  6
CONTINUOUS
 62
     2
 10
1351.6199996
 20
412.4999852
 30
0.0
 11
1366.108886994
 21
416.382270877
 31
0.0
  0
LINE
  8
0
  6
CONTINUOUS
 62
     2
 10
1351.6199996
 20
412.4999852
 30
0.0
 11
1571.6199996
 21
412.4999852
 31
0.0
  0
TEXT
  8
0
  6
CONTINUOUS
 62
     2
 10
1436.1199996
 20
418.4999852
 30
1.2
 40
18.0
  1
２２０
 50
0.0
 41
0.9
 51
0.0
  7
KANJI34
  0
ARC
  8
0
  6
CONTINUOUS
 62
     1
 10
1476.607994796
 20
780.3999852
 30
0.0
 40
8.0
 50
108.194872339
 51
159.512684885
  0
ARC
  8
0
  6
CONTINUOUS
 62
     1
 10
1446.632004404
 20
780.3999852
 30
0.0
 40
8.0
 50
20.487315115
 51
71.805127661
  0
ARC
  8
0
  6
CONTINUOUS
 62
     1
 10
1461.6199996
 20
785.9999852
 30
0.0
 40
8.0
 50
200.487459889
 51
339.512684885
  0
ARC
  8
0
  6
CONTINUOUS
 62
     1
 10
1461.6199996
 20
825.9999852
 30
0.0
 40
40.0
 50
108.194872339
 51
251.805127661
  0
CIRCLE
  8
0
  6
CONTINUOUS
 62
     1
 10
1461.6199996
 20
825.9999852
 30
0.0
 40
23.0
  0
ARC
  8
0
  6
CONTINUOUS
 62
     1
 10
1461.6199996
 20
825.9999852
 30
0.0
 40
40.0
 50
25.554707728
 51
71.805142343
  0
ARC
  8
0
  6
CONTINUOUS
 62
     1
 10
1461.6199996
 20
825.9999852
 30
0.0
 40
40.0
 50
288.194857657
 51
334.445306215
  0
LINE
  8
0
  6
CONTINUOUS
 62
     2
 10
1504.6199996
 20
842.9999852
 30
0.0
 11
1504.6199996
 21
806.9999852
 31
0.0
  0
LINE
  8
0
  6
CONTINUOUS
 62
     1
 10
1505.6199996
 20
842.0999852
 30
0.0
 11
1503.6199996
 21
842.0999852
 31
0.0
  0
LINE
  8
0
  6
CONTINUOUS
 62
     1
 10
1503.6199996
 20
842.0999852
 30
0.0
 11
1501.6199996
 21
830.4999852
 31
0.0
  0
LINE
  8
0
  6
CONTINUOUS
 62
     1
 10
1505.6199996
 20
842.0999852
 30
0.0
 11
1507.6199996
 21
830.4999852
 31
0.0
  0
LINE
  8
0
  6
CONTINUOUS
 62
     1
 10
1505.6199996
 20
809.8999852
 30
0.0
 11
1503.6199996
 21
809.8999852
 31
0.0
  0
LINE
  8
0
  6
CONTINUOUS
 62
     1
 10
1503.6199996
 20
809.8999852
 30
0.0
 11
1501.6199996
 21
821.4999852
 31
0.0
  0
LINE
  8
0
  6
CONTINUOUS
 62
     1
 10
1505.6199996
 20
809.8999852
 30
0.0
 11
1507.6199996
 21
821.4999852
 31
0.0
  0
ARC
  8
0
  6
CONTINUOUS
 62
     1
 10
1511.239564817
 20
849.7254725
 30
0.0
 40
15.0
 50
205.554693785
 51
235.747997449
  0
ARC
  8
0
  6
CONTINUOUS
 62
     1
 10
1511.239564817
 20
849.7254725
 30
0.0
 40
15.0
 50
252.681090544
 51
261.325827457
  0
ARC
  8
0
  6
CONTINUOUS
 62
     1
 10
1511.239564817
 20
802.2744979
 30
0.0
 40
15.0
 50
124.468179449
 51
154.445306215
  0
ARC
  8
0
  6
CONTINUOUS
 62
     1
 10
1511.239564817
 20
802.2744979
 30
0.0
 40
15.0
 50
98.674172543
 51
107.318909456
  0
CIRCLE
  8
0
  6
CONTINUOUS
 62
     1
 10
1504.6199996
 20
825.9999852
 30
0.0
 40
3.0
  0
LINE
  8
0
  6
CONTINUOUS
 62
     1
 10
1501.641304302
 20
830.623552472
 30
0.0
 11
1501.598694898
 21
821.376417928
 31
0.0
  0
ARC
  8
0
  6
CONTINUOUS
 62
     1
 10
1504.6199996
 20
825.9999852
 30
0.0
 40
5.5
 50
122.791326846
 51
235.429602121
  0
LINE
  8
0
  6
CONTINUOUS
 62
     1
 10
1463.9699996
 20
778.929665802
 30
0.0
 11
1459.2699996
 21
778.929665802
 31
0.0
  0
LINE
  8
0
  6
CONTINUOUS
 62
     1
 10
1459.2699996
 20
778.929665802
 30
0.0
 11
1456.9199996
 21
782.9999852
 31
0.0
  0
LINE
  8
0
  6
CONTINUOUS
 62
     1
 10
1456.9199996
 20
782.9999852
 30
0.0
 11
1459.2699996
 21
787.070304598
 31
0.0
  0
LINE
  8
0
  6
CONTINUOUS
 62
     1
 10
1459.2699996
 20
787.070304598
 30
0.0
 11
1463.9699996
 21
787.070304598
 31
0.0
  0
LINE
  8
0
  6
CONTINUOUS
 62
     1
 10
1463.9699996
 20
787.070304598
 30
0.0
 11
1466.3199996
 21
782.9999852
 31
0.0
  0
LINE
  8
0
  6
CONTINUOUS
 62
     1
 10
1466.3199996
 20
782.9999852
 30
0.0
 11
1463.9699996
 21
778.929665802
 31
0.0
  0
LINE
  8
0
  6
CONTINUOUS
 62
     2
 10
1467.6199996
 20
782.9999852
 30
0.0
 11
1455.6199996
 21
782.9999852
 31
0.0
  0
LINE
  8
0
  6
CONTINUOUS
 62
     1
 10
1456.683654798
 20
828.8499852
 30
0.0
 11
1456.683654798
 21
823.1499852
 31
0.0
  0
LINE
  8
0
  6
CONTINUOUS
 62
     1
 10
1456.683654798
 20
823.1499852
 30
0.0
 11
1461.6199996
 21
820.2999852
 31
0.0
  0
LINE
  8
0
  6
CONTINUOUS
 62
     1
 10
1461.6199996
 20
820.2999852
 30
0.0
 11
1466.556344402
 21
823.1499852
 31
0.0
  0
LINE
  8
0
  6
CONTINUOUS
 62
     1
 10
1466.556344402
 20
823.1499852
 30
0.0
 11
1466.556344402
 21
828.8499852
 31
0.0
  0
LINE
  8
0
  6
CONTINUOUS
 62
     1
 10
1466.556344402
 20
828.8499852
 30
0.0
 11
1461.6199996
 21
831.6999852
 31
0.0
  0
LINE
  8
0
  6
CONTINUOUS
 62
     1
 10
1461.6199996
 20
831.6999852
 30
0.0
 11
1456.683654798
 21
828.8499852
 31
0.0
  0
CIRCLE
  8
0
  6
CONTINUOUS
 62
     1
 10
1461.6199996
 20
825.9999852
 30
0.0
 40
6.5
  0
ARC
  8
0
  6
LTYPE3
 62
     2
 10
1461.6199996
 20
825.9999852
 30
0.0
 40
82.5
 50
300.927939213
 51
327.087998905
  0
LINE
  8
0
  6
LTYPE3
 62
     2
 10
1351.1199996
 20
825.9999852
 30
0.0
 11
1575.1199996
 21
825.9999852
 31
0.0
  0
ARC
  8
0
  6
CONTINUOUS
 62
     1
 10
1461.6199996
 20
825.9999852
 30
0.0
 40
71.0
 50
0.0
 51
212.675777406
  0
LINE
  8
0
  6
LTYPE4
 62
     2
 10
1461.6199996
 20
690.7499852
 30
0.0
 11
1461.6199996
 21
974.9999852
 31
0.0
  0
LINE
  8
0
  6
CONTINUOUS
 62
     1
 10
1381.6199996
 20
570.9999852
 30
0.0
 11
1381.6199996
 21
610.802241128
 31
0.0
  0
LINE
  8
0
  6
LTYPE1
 62
     2
 10
1351.6199996
 20
672.9999852
 30
0.0
 11
1403.6199996
 21
676.809408258
 31
0.0
  0
LINE
  8
0
  6
CONTINUOUS
 62
     2
 10
1283.6199996
 20
657.9999852
 30
0.0
 11
1279.737713923
 21
672.488872594
 31
0.0
  0
LINE
  8
0
  6
CONTINUOUS
 62
     2
 10
1283.6199996
 20
657.9999852
 30
0.0
 11
1287.502285277
 21
672.488872594
 31
0.0
  0
LINE
  8
0
  6
CONTINUOUS
 62
     2
 10
1283.6199996
 20
605.4999852
 30
0.0
 11
1283.6199996
 21
839.9999852
 31
0.0
  0
LINE
  8
0
  6
CONTINUOUS
 62
     2
 10
1283.6199996
 20
627.9999852
 30
0.0
 11
1279.737713923
 21
613.511097806
 31
0.0
  0
LINE
  8
0
  6
CONTINUOUS
 62
     2
 10
1283.6199996
 20
627.9999852
 30
0.0
 11
1287.502285277
 21
613.511097806
 31
0.0
  0
LINE
  8
0
  6
CONTINUOUS
 62
     2
 10
1342.6199996
 20
627.9999852
 30
0.0
 11
1278.6199996
 21
627.9999852
 31
0.0
  0
LINE
  8
0
  6
CONTINUOUS
 62
     2
 10
1345.997633236
 20
657.9999852
 30
0.0
 11
1278.6199996
 21
657.9999852
 31
0.0
  0
CIRCLE
  8
0
  6
LTYPE1
 62
     2
 10
1461.6199996
 20
642.9999852
 30
0.0
 40
57.0
  0
LINE
  8
0
  6
LTYPE1
 62
     2
 10
1466.6199996
 20
706.4999852
 30
0.0
 11
1456.6199996
 21
706.4999852
 31
0.0
  0
LINE
  8
0
  6
LTYPE1
 62
     2
 10
1456.6199996
 20
706.4999852
 30
0.0
 11
1456.6199996
 21
710.314545289
 31
0.0
  0
ARC
  8
0
  6
LTYPE1
 62
     2
 10
1461.6199996
 20
642.9999852
 30
0.0
 40
67.5
 50
94.248022667
 51
205.751977333
  0
LINE
  8
0
  6
LTYPE1
 62
     2
 10
1466.6199996
 20
706.4999852
 30
0.0
 11
1466.6199996
 21
710.314545289
 31
0.0
  0
LINE
  8
0
  6
LTYPE1
 62
     2
 10
1404.12738646
 20
615.580112219
 30
0.0
 11
1409.12738646
 21
606.919858181
 31
0.0
  0
LINE
  8
0
  6
LTYPE1
 62
     2
 10
1404.12738646
 20
615.580112219
 30
0.0
 11
1400.823880518
 21
613.672832174
 31
0.0
  0
LINE
  8
0
  6
LTYPE1
 62
     2
 10
1409.12738646
 20
606.919858181
 30
0.0
 11
1405.823880518
 21
605.012578136
 31
0.0
  0
LINE
  8
0
  6
CONTINUOUS
 62
     1
 10
1372.6199996
 20
547.9999852
 30
0.0
 11
1410.6199996
 21
547.9999852
 31
0.0
  0
ARC
  8
0
  6
CONTINUOUS
 62
     1
 10
1372.6199996
 20
553.9999852
 30
0.0
 40
6.0
 50
180.0
 51
270.0
  0
LINE
  8
0
  6
CONTINUOUS
 62
     1
 10
1366.6199996
 20
553.9999852
 30
0.0
 11
1366.6199996
 21
611.901113164
 31
0.0
  0
LINE
  8
0
  6
CONTINUOUS
 62
     1
 10
1394.197368014
 20
611.42766742
 30
0.0
 11
1403.036202779
 21
620.266502185
 31
0.0
  0
LINE
  8
0
  6
CONTINUOUS
 62
     1
 10
1493.19231738
 20
710.422616786
 30
0.0
 11
1484.353482615
 21
701.583782021
 31
0.0
  0
LINE
  8
0
  6
CONTINUOUS
 62
     1
 10
1397.379348529
 20
614.609647935
 30
0.0
 11
1415.304505432
 21
596.684491032
 31
0.0
  0
LINE
  8
0
  6
CONTINUOUS
 62
     1
 10
1490.010336865
 20
707.240636271
 30
0.0
 11
1507.935493768
 21
689.315479368
 31
0.0
  0
ARC
  8
0
  6
CONTINUOUS
 62
     1
 10
1461.6199996
 20
642.9999852
 30
0.0
 40
65.5
 50
225.0
 51
253.614405251
  0
ARC
  8
0
  6
CONTINUOUS
 62
     1
 10
1461.6199996
 20
642.9999852
 30
0.0
 40
57.5
 50
285.408154206
 51
344.591845794
  0
ARC
  8
0
  6
CONTINUOUS
 62
     1
 10
1461.6199996
 20
642.9999852
 30
0.0
 40
65.5
 50
274.761201874
 51
355.238798126
  0
LINE
  8
0
  6
CONTINUOUS
 62
     1
 10
1533.6199996
 20
722.9999852
 30
0.0
 11
1483.443376091
 21
722.9999852
 31
0.0
  0
ARC
  8
0
  6
CONTINUOUS
 62
     1
 10
1461.6199996
 20
825.9999852
 30
0.0
 40
100.0
 50
116.103881137
 51
216.025516218
  0
LINE
  8
0
  6
LTYPE1
 62
     2
 10
1351.6199996
 20
654.622351564
 30
0.0
 11
1351.6199996
 21
672.9999852
 31
0.0
  0
LINE
  8
0
  6
CONTINUOUS
 62
     1
 10
1351.6199996
 20
612.9999852
 30
0.0
 11
1351.6199996
 21
654.622351564
 31
0.0
  0
CIRCLE
  8
0
  6
CONTINUOUS
 62
     1
 10
1401.6199996
 20
582.9999852
 30
0.0
 40
12.0
  0
LINE
  8
0
  6
CONTINUOUS
 62
     1
 10
1462.830677719
 20
573.4999852
 30
0.0
 11
1509.6199996
 21
573.4999852
 31
0.0
  0
LINE
  8
0
  6
CONTINUOUS
 62
     1
 10
1464.330677719
 20
574.9999852
 30
0.0
 11
1507.6199996
 21
574.9999852
 31
0.0
  0
LINE
  8
0
  6
CONTINUOUS
 62
     1
 10
1413.6199996
 20
573.4999852
 30
0.0
 11
1449.802719764
 21
573.4999852
 31
0.0
  0
LINE
  8
0
  6
CONTINUOUS
 62
     1
 10
1448.302719764
 20
574.9999852
 30
0.0
 11
1415.6199996
 21
574.9999852
 31
0.0
  0
ARC
  8
0
  6
LTYPE1
 62
     2
 10
1461.6199996
 20
642.9999852
 30
0.0
 40
67.5
 50
257.697192877
 51
272.468461904
  0
ARC
  8
0
  6
LTYPE1
 62
     2
 10
1461.6199996
 20
642.9999852
 30
0.0
 40
67.5
 50
55.917715182
 51
85.751977333
  0
ARC
  8
0
  6
CONTINUOUS
 62
     1
 10
1461.6199996
 20
642.9999852
 30
0.0
 40
67.5
 50
13.413661903
 51
54.006806579
  0
ARC
  8
0
  6
CONTINUOUS
 62
     1
 10
1461.6199996
 20
642.9999852
 30
0.0
 40
67.5
 50
272.794553596
 51
325.751977333
  0
ARC
  8
0
  6
CONTINUOUS
 62
     1
 10
1461.6199996
 20
642.9999852
 30
0.0
 40
67.5
 50
214.248022667
 51
256.586338096
  0
LINE
  8
0
  6
CONTINUOUS
 62
     1
 10
1421.9199996
 20
521.9999852
 30
0.0
 11
1411.3199996
 21
521.9999852
 31
0.0
  0
ARC
  8
0
  6
CONTINUOUS
 62
     1
 10
1417.0199996
 20
522.9999852
 30
0.0
 40
5.0
 50
272.3
 51
348.5
  0
ARC
  8
0
  6
CONTINUOUS
 62
     1
 10
1416.2199996
 20
522.9999852
 30
0.0
 40
5.0
 50
191.5
 51
267.7
  0
LINE
  8
0
  6
CONTINUOUS
 62
     1
 10
1417.2199996
 20
517.9999852
 30
0.0
 11
1416.0199996
 21
517.9999852
 31
0.0
  0
LINE
  8
0
  6
LTYPE5
 62
     2
 10
1416.6199996
 20
514.5999852
 30
0.0
 11
1416.6199996
 21
527.9999852
 31
0.0
  0
LINE
  8
0
  6
CONTINUOUS
 62
     1
 10
1511.9199996
 20
521.9999852
 30
0.0
 11
1501.3199996
 21
521.9999852
 31
0.0
  0
ARC
  8
0
  6
CONTINUOUS
 62
     1
 10
1507.0199996
 20
522.9999852
 30
0.0
 40
5.0
 50
272.3
 51
348.5
  0
ARC
  8
0
  6
CONTINUOUS
 62
     1
 10
1506.2199996
 20
522.9999852
 30
0.0
 40
5.0
 50
191.5
 51
267.7
  0
LINE
  8
0
  6
CONTINUOUS
 62
     1
 10
1507.2199996
 20
517.9999852
 30
0.0
 11
1506.0199996
 21
517.9999852
 31
0.0
  0
LINE
  8
0
  6
LTYPE5
 62
     2
 10
1506.6199996
 20
514.5999852
 30
0.0
 11
1506.6199996
 21
527.9999852
 31
0.0
  0
LINE
  8
0
  6
CONTINUOUS
 62
     2
 10
1207.1
 20
642.9999852
 30
0.0
 11
1203.994171459
 21
631.408875285
 31
0.0
  0
LINE
  8
0
  6
CONTINUOUS
 62
     2
 10
1207.1
 20
642.9999852
 30
0.0
 11
1210.205828541
 21
631.408875285
 31
0.0
  0
LINE
  8
0
  6
CONTINUOUS
 62
     2
 10
1207.1
 20
642.9999852
 30
0.0
 11
1207.1
 21
493.9999852
 31
0.0
  0
LINE
  8
0
  6
CONTINUOUS
 62
     2
 10
1207.1
 20
493.9999852
 30
0.0
 11
1210.205828541
 21
505.591095115
 31
0.0
  0
LINE
  8
0
  6
CONTINUOUS
 62
     2
 10
1207.1
 20
493.9999852
 30
0.0
 11
1203.994171459
 21
505.591095115
 31
0.0
  0
TEXT
  8
0
  6
CONTINUOUS
 62
     3
 10
1198.1
 20
544.1999852
 30
0.0
 40
18.0
  1
１４９
 50
90.0
 41
0.9
 51
0.0
  7
KANJI24
  0
LINE
  8
0
  6
CONTINUOUS
 62
     2
 10
1180.0698996
 20
642.9999852
 30
0.0
 11
1213.1
 21
642.9999852
 31
0.0
  0
LINE
  8
0
  6
CONTINUOUS
 62
     1
 10
1351.6199996
 20
612.9999852
 30
0.0
 11
1394.0200474
 21
609.893836743
 31
0.0
  0
LINE
  8
0
  6
CONTINUOUS
 62
     1
 10
1515.6199996
 20
627.9999852
 30
0.0
 11
1515.6199996
 21
657.9999852
 31
0.0
  0
LINE
  8
0
  6
LTYPE1
 62
     2
 10
1536.6199996
 20
627.9999852
 30
0.0
 11
1536.6199996
 21
657.9999852
 31
0.0
  0
LINE
  8
0
  6
LTYPE1
 62
     2
 10
1536.6199996
 20
627.9999852
 30
0.0
 11
1571.6199996
 21
627.9999852
 31
0.0
  0
ARC
  8
0
  6
CONTINUOUS
 62
     1
 10
1509.6199996
 20
570.4999852
 30
0.0
 40
3.0
 50
0.0
 51
90.0
  0
LINE
  8
0
  6
CONTINUOUS
 62
     1
 10
1512.6199996
 20
523.9999852
 30
0.0
 11
1512.6199996
 21
570.4999852
 31
0.0
  0
ARC
  8
0
  6
CONTINUOUS
 62
     1
 10
1511.6199996
 20
523.9999852
 30
0.0
 40
1.0
 50
270.0
 51
0.0
  0
ARC
  8
0
  6
CONTINUOUS
 62
     1
 10
1508.6199996
 20
522.9999852
 30
0.0
 40
1.0
 50
270.0
 51
0.0
  0
LINE
  8
0
  6
LTYPE3
 62
     2
 10
1521.6199996
 20
564.4999852
 30
0.0
 11
1521.6199996
 21
600.4999852
 31
0.0
  0
LINE
  8
0
  6
CONTINUOUS
 62
     1
 10
1533.6199996
 20
562.9999852
 30
0.0
 11
1512.6199996
 21
562.9999852
 31
0.0
  0
ARC
  8
0
  6
CONTINUOUS
 62
     1
 10
1533.6199996
 20
570.9999852
 30
0.0
 40
8.0
 50
270.0
 51
0.0
  0
LINE
  8
0
  6
CONTINUOUS
 62
     2
 10
1623.1199996
 20
642.9999852
 30
0.0
 11
1623.1199996
 21
547.9999852
 31
0.0
  0
LINE
  8
0
  6
CONTINUOUS
 62
     2
 10
1623.1199996
 20
547.9999852
 30
0.0
 11
1627.002285277
 21
562.488872594
 31
0.0
  0
LINE
  8
0
  6
CONTINUOUS
 62
     2
 10
1623.1199996
 20
547.9999852
 30
0.0
 11
1619.237713923
 21
562.488872594
 31
0.0
  0
LINE
  8
0
  6
CONTINUOUS
 62
     2
 10
1559.6199996
 20
547.9999852
 30
0.0
 11
1632.1199996
 21
547.9999852
 31
0.0
  0
TEXT
  8
0
  6
CONTINUOUS
 62
     2
 10
1617.1199996
 20
578.6999852
 30
1.2
 40
18.0
  1
９５
 50
90.0
 41
0.9
 51
0.0
  7
KANJI34
  0
LINE
  8
0
  6
CONTINUOUS
 62
     2
 10
1670.1199996
 20
642.9999852
 30
0.0
 11
1670.1199996
 21
521.9999852
 31
0.0
  0
LINE
  8
0
  6
CONTINUOUS
 62
     2
 10
1670.1199996
 20
521.9999852
 30
0.0
 11
1674.002285277
 21
536.488872594
 31
0.0
  0
LINE
  8
0
  6
CONTINUOUS
 62
     2
 10
1670.1199996
 20
521.9999852
 30
0.0
 11
1666.237713923
 21
536.488872594
 31
0.0
  0
LINE
  8
0
  6
CONTINUOUS
 62
     2
 10
1517.6199996
 20
521.9999852
 30
0.0
 11
1679.1199996
 21
521.9999852
 31
0.0
  0
TEXT
  8
0
  6
CONTINUOUS
 62
     2
 10
1664.1199996
 20
556.9999852
 30
1.2
 40
18.0
  1
１２１
 50
90.0
 41
0.9
 51
0.0
  7
KANJI34
  0
LINE
  8
0
  6
CONTINUOUS
 62
     2
 10
1571.6199996
 20
412.4999852
 30
0.0
 11
1557.131112206
 21
416.382270877
 31
0.0
  0
LINE
  8
0
  6
CONTINUOUS
 62
     2
 10
1571.6199996
 20
412.4999852
 30
0.0
 11
1557.131112206
 21
408.617699523
 31
0.0
  0
LINE
  8
0
  6
CONTINUOUS
 62
     2
 10
1571.6199996
 20
598.9999852
 30
0.0
 11
1571.6199996
 21
403.4999852
 31
0.0
  0
LINE
  8
0
  6
CONTINUOUS
 62
     1
 10
1571.6199996
 20
612.9999852
 30
0.0
 11
1571.6199996
 21
672.9999852
 31
0.0
  0
LINE
  8
0
  6
CONTINUOUS
 62
     1
 10
1571.6199996
 20
612.9999852
 30
0.0
 11
1527.373535493
 21
609.758571727
 31
0.0
  0
LINE
  8
0
  6
CONTINUOUS
 62
     1
 10
1541.6199996
 20
570.9999852
 30
0.0
 11
1541.6199996
 21
610.802241128
 31
0.0
  0
LINE
  8
0
  6
LTYPE1
 62
     2
 10
1514.11261274
 20
606.919858181
 30
0.0
 11
1519.11261274
 21
615.580112219
 31
0.0
  0
LINE
  8
0
  6
LTYPE1
 62
     2
 10
1519.11261274
 20
615.580112219
 30
0.0
 11
1522.416118682
 21
613.672832174
 31
0.0
  0
LINE
  8
0
  6
LTYPE1
 62
     2
 10
1514.11261274
 20
606.919858181
 30
0.0
 11
1517.416118682
 21
605.012578136
 31
0.0
  0
CIRCLE
  8
0
  6
CONTINUOUS
 62
     1
 10
1521.6199996
 20
582.9999852
 30
0.0
 40
12.0
  0
LINE
  8
0
  6
CONTINUOUS
 62
     1
 10
1512.6199996
 20
547.9999852
 30
0.0
 11
1550.6199996
 21
547.9999852
 31
0.0
  0
ARC
  8
0
  6
CONTINUOUS
 62
     1
 10
1550.6199996
 20
553.9999852
 30
0.0
 40
6.0
 50
270.0
 51
0.0
  0
LINE
  8
0
  6
CONTINUOUS
 62
     1
 10
1556.6199996
 20
553.9999852
 30
0.0
 11
1556.6199996
 21
611.901113164
 31
0.0
  0
ARC
  8
0
  6
CONTINUOUS
 62
     1
 10
1461.6199996
 20
642.9999852
 30
0.0
 40
67.5
 50
334.248022667
 51
357.205446404
  0
LINE
  8
0
  6
LTYPE3
 62
     2
 10
1509.2199996
 20
635.9999852
 30
0.0
 11
1509.2199996
 21
651.9999852
 31
0.0
  0
LINE
  8
0
  6
LTYPE1
 62
     2
 10
1536.6199996
 20
657.9999852
 30
0.0
 11
1571.6199996
 21
657.9999852
 31
0.0
  0
LINE
  8
0
  6
LTYPE3
 62
     2
 10
1521.6199996
 20
721.4999852
 30
0.0
 11
1521.6199996
 21
685.4999852
 31
0.0
  0
ARC
  8
0
  6
CONTINUOUS
 62
     1
 10
1533.6199996
 20
714.9999852
 30
0.0
 40
8.0
 50
0.0
 51
90.0
  0
LINE
  8
0
  6
CONTINUOUS
 62
     2
 10
1587.6199996
 20
642.9999852
 30
0.0
 11
1632.1199996
 21
642.9999852
 31
0.0
  0
LINE
  8
0
  6
CONTINUOUS
 62
     2
 10
1623.1199996
 20
642.9999852
 30
0.0
 11
1619.237713923
 21
628.511097806
 31
0.0
  0
LINE
  8
0
  6
CONTINUOUS
 62
     2
 10
1623.1199996
 20
642.9999852
 30
0.0
 11
1627.002285277
 21
628.511097806
 31
0.0
  0
LINE
  8
0
  6
CONTINUOUS
 62
     2
 10
1623.1199996
 20
642.9999852
 30
0.0
 11
1627.002285277
 21
657.488872594
 31
0.0
  0
LINE
  8
0
  6
CONTINUOUS
 62
     2
 10
1623.1199996
 20
642.9999852
 30
0.0
 11
1619.237713923
 21
657.488872594
 31
0.0
  0
TEXT
  8
0
  6
CONTINUOUS
 62
     2
 10
1617.1199996
 20
708.6249852
 30
1.2
 40
18.0
  1
１８３
 50
90.0
 41
0.9
 51
0.0
  7
KANJI34
  0
LINE
  8
0
  6
CONTINUOUS
 62
     2
 10
1632.1199996
 20
642.9999852
 30
0.0
 11
1679.1199996
 21
642.9999852
 31
0.0
  0
LINE
  8
0
  6
CONTINUOUS
 62
     2
 10
1623.1199996
 20
643.7499852
 30
0.0
 11
1623.1199996
 21
825.9999852
 31
0.0
  0
LINE
  8
0
  6
CONTINUOUS
 62
     2
 10
1623.1199996
 20
825.9999852
 30
0.0
 11
1619.237713923
 21
811.511097806
 31
0.0
  0
LINE
  8
0
  6
CONTINUOUS
 62
     2
 10
1623.1199996
 20
825.9999852
 30
0.0
 11
1627.002285277
 21
811.511097806
 31
0.0
  0
LINE
  8
0
  6
CONTINUOUS
 62
     2
 10
1623.1199996
 20
825.9999852
 30
0.0
 11
1627.002285277
 21
840.488872594
 31
0.0
  0
LINE
  8
0
  6
CONTINUOUS
 62
     2
 10
1623.1199996
 20
825.9999852
 30
0.0
 11
1619.237713923
 21
840.488872594
 31
0.0
  0
ARC
  8
0
  6
CONTINUOUS
 62
     1
 10
1476.607994796
 20
871.5999852
 30
0.0
 40
8.0
 50
200.487315115
 51
251.805127661
  0
ARC
  8
0
  6
CONTINUOUS
 62
     1
 10
1446.632004404
 20
871.5999852
 30
0.0
 40
8.0
 50
288.194872339
 51
339.512684885
  0
ARC
  8
0
  6
CONTINUOUS
 62
     1
 10
1461.6199996
 20
865.9999852
 30
0.0
 40
8.0
 50
20.487315115
 51
159.512540111
  0
ARC
  8
0
  6
CONTINUOUS
 62
     1
 10
1507.6199996
 20
825.9999852
 30
0.0
 40
9.0
 50
278.674045508
 51
81.325934821
  0
LINE
  8
0
  6
CONTINUOUS
 62
     1
 10
1507.641304302
 20
821.376417928
 30
0.0
 11
1507.598694898
 21
830.623552472
 31
0.0
  0
ARC
  8
0
  6
CONTINUOUS
 62
     1
 10
1504.6199996
 20
825.9999852
 30
0.0
 40
5.5
 50
304.570397879
 51
57.208673154
  0
LINE
  8
0
  6
CONTINUOUS
 62
     1
 10
1463.9699996
 20
873.070304598
 30
0.0
 11
1459.2699996
 21
873.070304598
 31
0.0
  0
LINE
  8
0
  6
CONTINUOUS
 62
     1
 10
1459.2699996
 20
873.070304598
 30
0.0
 11
1456.9199996
 21
868.9999852
 31
0.0
  0
LINE
  8
0
  6
CONTINUOUS
 62
     1
 10
1456.9199996
 20
868.9999852
 30
0.0
 11
1459.2699996
 21
864.929665802
 31
0.0
  0
LINE
  8
0
  6
CONTINUOUS
 62
     1
 10
1459.2699996
 20
864.929665802
 30
0.0
 11
1463.9699996
 21
864.929665802
 31
0.0
  0
LINE
  8
0
  6
CONTINUOUS
 62
     1
 10
1463.9699996
 20
864.929665802
 30
0.0
 11
1466.3199996
 21
868.9999852
 31
0.0
  0
LINE
  8
0
  6
CONTINUOUS
 62
     1
 10
1466.3199996
 20
868.9999852
 30
0.0
 11
1463.9699996
 21
873.070304598
 31
0.0
  0
LINE
  8
0
  6
CONTINUOUS
 62
     2
 10
1467.6199996
 20
868.9999852
 30
0.0
 11
1455.6199996
 21
868.9999852
 31
0.0
  0
LINE
  8
0
  6
LTYPE3
 62
     2
 10
1411.6199996
 20
875.9999852
 30
0.0
 11
1395.6199996
 21
891.9999852
 31
0.0
  0
LINE
  8
0
  6
LTYPE3
 62
     2
 10
1511.6199996
 20
875.9999852
 30
0.0
 11
1527.6199996
 21
891.9999852
 31
0.0
  0
LINE
  8
0
  6
CONTINUOUS
 62
     1
 10
1529.956309048
 20
884.336294648
 30
0.0
 11
1524.956309048
 21
875.67604061
 31
0.0
  0
LINE
  8
0
  6
CONTINUOUS
 62
     1
 10
1524.956309048
 20
875.67604061
 30
0.0
 11
1514.956309048
 21
875.67604061
 31
0.0
  0
LINE
  8
0
  6
CONTINUOUS
 62
     1
 10
1514.956309048
 20
875.67604061
 30
0.0
 11
1509.956309048
 21
884.336294648
 31
0.0
  0
LINE
  8
0
  6
LTYPE3
 62
     2
 10
1511.6199996
 20
775.9999852
 30
0.0
 11
1527.6199996
 21
759.9999852
 31
0.0
  0
LINE
  8
0
  6
CONTINUOUS
 62
     1
 10
1514.956309048
 20
759.003421714
 30
0.0
 11
1524.956309048
 21
759.003421714
 31
0.0
  0
LINE
  8
0
  6
CONTINUOUS
 62
     1
 10
1524.956309048
 20
759.003421714
 30
0.0
 11
1529.956309048
 21
767.663675752
 31
0.0
  0
LINE
  8
0
  6
CONTINUOUS
 62
     1
 10
1529.956309048
 20
767.663675752
 30
0.0
 11
1524.956309048
 21
776.32392979
 31
0.0
  0
LINE
  8
0
  6
CONTINUOUS
 62
     1
 10
1524.956309048
 20
776.32392979
 30
0.0
 11
1514.956309048
 21
776.32392979
 31
0.0
  0
LINE
  8
0
  6
CONTINUOUS
 62
     1
 10
1514.956309048
 20
776.32392979
 30
0.0
 11
1509.956309048
 21
767.663675752
 31
0.0
  0
LINE
  8
0
  6
CONTINUOUS
 62
     1
 10
1509.956309048
 20
767.663675752
 30
0.0
 11
1514.956309048
 21
759.003421714
 31
0.0
  0
ARC
  8
0
  6
LTYPE3
 62
     2
 10
1461.6199996
 20
825.9999852
 30
0.0
 40
82.5
 50
35.204140887
 51
56.44447448
  0
LINE
  8
0
  6
CONTINUOUS
 62
     2
 10
1579.6199996
 20
825.9999852
 30
0.0
 11
1632.1199996
 21
825.9999852
 31
0.0
  0
TEXT
  8
0
  6
CONTINUOUS
 62
     2
 10
1664.1199996
 20
791.5749852
 30
1.2
 40
18.0
  1
３２０
 50
90.0
 41
0.9
 51
0.0
  7
KANJI34
  0
LINE
  8
0
  6
CONTINUOUS
 62
     2
 10
1623.1199996
 20
825.9999852
 30
0.0
 11
1623.1199996
 21
962.9999852
 31
0.0
  0
LINE
  8
0
  6
CONTINUOUS
 62
     1
 10
1541.6199996
 20
675.197729272
 30
0.0
 11
1541.6199996
 21
714.9999852
 31
0.0
  0
LINE
  8
0
  6
CONTINUOUS
 62
     1
 10
1556.6199996
 20
674.098857236
 30
0.0
 11
1556.6199996
 21
792.1999852
 31
0.0
  0
ARC
  8
0
  6
CONTINUOUS
 62
     1
 10
1461.6199996
 20
642.9999852
 30
0.0
 40
65.5
 50
16.385594749
 51
45.0
  0
ARC
  8
0
  6
LTYPE1
 62
     2
 10
1461.6199996
 20
642.9999852
 30
0.0
 40
67.5
 50
357.67333076
 51
12.054205664
  0
CIRCLE
  8
0
  6
CONTINUOUS
 62
     1
 10
1521.6199996
 20
702.9999852
 30
0.0
 40
12.0
  0
LINE
  8
0
  6
CONTINUOUS
 62
     1
 10
1571.6199996
 20
672.9999852
 30
0.0
 11
1530.4700474
 21
676.014553983
 31
0.0
  0
LINE
  8
0
  6
CONTINUOUS
 62
     2
 10
1670.1199996
 20
962.9999852
 30
0.0
 11
1670.1199996
 21
642.9999852
 31
0.0
  0
LINE
  8
0
  6
CONTINUOUS
 62
     2
 10
1670.1199996
 20
642.9999852
 30
0.0
 11
1674.002285277
 21
657.488872594
 31
0.0
  0
LINE
  8
0
  6
CONTINUOUS
 62
     2
 10
1670.1199996
 20
642.9999852
 30
0.0
 11
1666.237713923
 21
657.488872594
 31
0.0
  0
LINE
  8
0
  6
CONTINUOUS
 62
     2
 10
1670.1199996
 20
642.9999852
 30
0.0
 11
1666.237713923
 21
628.511097806
 31
0.0
  0
LINE
  8
0
  6
CONTINUOUS
 62
     2
 10
1670.1199996
 20
642.9999852
 30
0.0
 11
1674.002285277
 21
628.511097806
 31
0.0
  0
LINE
  8
0
  6
CONTINUOUS
 62
     1
 10
1491.6199996
 20
907.9999852
 30
0.0
 11
1491.6199996
 21
910.9999852
 31
0.0
  0
ARC
  8
0
  6
CONTINUOUS
 62
     1
 10
1487.6199996
 20
904.9999852
 30
0.0
 40
3.0
 50
90.0
 51
180.0
  0
LINE
  8
0
  6
CONTINUOUS
 62
     1
 10
1484.6199996
 20
894.153604442
 30
0.0
 11
1484.6199996
 21
904.9999852
 31
0.0
  0
ARC
  8
0
  6
CONTINUOUS
 62
     1
 10
1480.6199996
 20
894.153604442
 30
0.0
 40
4.0
 50
304.936144888
 51
0.0
  0
ARC
  8
0
  6
CONTINUOUS
 62
     1
 10
1435.6199996
 20
904.9999852
 30
0.0
 40
3.0
 50
0.0
 51
90.0
  0
LINE
  8
0
  6
CONTINUOUS
 62
     1
 10
1438.6199996
 20
894.153604442
 30
0.0
 11
1438.6199996
 21
904.9999852
 31
0.0
  0
ARC
  8
0
  6
CONTINUOUS
 62
     1
 10
1442.6199996
 20
894.153604442
 30
0.0
 40
4.0
 50
180.0
 51
235.063855112
  0
CIRCLE
  8
0
  6
CONTINUOUS
 62
     1
 10
1461.6199996
 20
932.9999852
 30
0.0
 40
17.0
  0
LINE
  8
0
  6
LTYPE3
 62
     2
 10
1438.6199996
 20
932.9999852
 30
0.0
 11
1484.6199996
 21
932.9999852
 31
0.0
  0
ARC
  8
0
  6
CONTINUOUS
 62
     1
 10
1419.6199996
 20
955.020031088
 30
0.0
 40
2.0
 50
90.0
 51
180.0
  0
ARC
  8
0
  6
CONTINUOUS
 62
     1
 10
1427.6199996
 20
960.9999852
 30
0.0
 40
2.0
 50
90.0
 51
180.0
  0
LINE
  8
0
  6
CONTINUOUS
 62
     1
 10
1427.6199996
 20
962.9999852
 30
0.0
 11
1495.6199996
 21
962.9999852
 31
0.0
  0
ARC
  8
0
  6
CONTINUOUS
 62
     1
 10
1495.6199996
 20
960.9999852
 30
0.0
 40
2.0
 50
0.0
 51
90.0
  0
LINE
  8
0
  6
CONTINUOUS
 62
     1
 10
1503.6199996
 20
957.020031088
 30
0.0
 11
1419.6199996
 21
957.020031088
 31
0.0
  0
ARC
  8
0
  6
CONTINUOUS
 62
     1
 10
1503.6199996
 20
955.020031088
 30
0.0
 40
2.0
 50
0.0
 51
90.0
  0
ARC
  8
0
  6
CONTINUOUS
 62
     1
 10
1419.6199996
 20
959.020031088
 30
0.0
 40
2.0
 50
90.0
 51
180.0
  0
ARC
  8
0
  6
CONTINUOUS
 62
     1
 10
1427.6199996
 20
951.9999852
 30
0.0
 40
2.0
 50
90.0
 51
180.0
  0
LINE
  8
0
  6
CONTINUOUS
 62
     1
 10
1427.6199996
 20
953.9999852
 30
0.0
 11
1495.6199996
 21
953.9999852
 31
0.0
  0
ARC
  8
0
  6
CONTINUOUS
 62
     1
 10
1495.6199996
 20
951.9999852
 30
0.0
 40
2.0
 50
0.0
 51
90.0
  0
LINE
  8
0
  6
CONTINUOUS
 62
     1
 10
1503.6199996
 20
961.020031088
 30
0.0
 11
1419.6199996
 21
961.020031088
 31
0.0
  0
ARC
  8
0
  6
CONTINUOUS
 62
     1
 10
1503.6199996
 20
959.020031088
 30
0.0
 40
2.0
 50
0.0
 51
90.0
  0
LINE
  8
0
  6
CONTINUOUS
 62
     1
 10
1431.6199996
 20
907.9999852
 30
0.0
 11
1491.6199996
 21
907.9999852
 31
0.0
  0
LINE
  8
0
  6
CONTINUOUS
 62
     1
 10
1431.6199996
 20
907.9999852
 30
0.0
 11
1431.6199996
 21
910.9999852
 31
0.0
  0
LINE
  8
0
  6
CONTINUOUS
 62
     1
 10
1497.6199996
 20
912.9999852
 30
0.0
 11
1503.6199996
 21
912.9999852
 31
0.0
  0
LINE
  8
0
  6
CONTINUOUS
 62
     1
 10
1505.6199996
 20
914.9999852
 30
0.0
 11
1505.6199996
 21
959.020031088
 31
0.0
  0
ARC
  8
0
  6
CONTINUOUS
 62
     1
 10
1503.6199996
 20
914.9999852
 30
0.0
 40
2.0
 50
270.0
 51
0.0
  0
LINE
  8
0
  6
CONTINUOUS
 62
     1
 10
1497.6199996
 20
912.9999852
 30
0.0
 11
1497.6199996
 21
951.9999852
 31
0.0
  0
ARC
  8
0
  6
CONTINUOUS
 62
     1
 10
1495.6199996
 20
912.9999852
 30
0.0
 40
2.0
 50
270.0
 51
0.0
  0
LINE
  8
0
  6
CONTINUOUS
 62
     1
 10
1425.6199996
 20
912.9999852
 30
0.0
 11
1425.6199996
 21
951.9999852
 31
0.0
  0
LINE
  8
0
  6
CONTINUOUS
 62
     1
 10
1427.6199996
 20
910.9999852
 30
0.0
 11
1495.6199996
 21
910.9999852
 31
0.0
  0
ARC
  8
0
  6
CONTINUOUS
 62
     1
 10
1427.6199996
 20
912.9999852
 30
0.0
 40
2.0
 50
180.0
 51
270.0
  0
LINE
  8
0
  6
CONTINUOUS
 62
     1
 10
1425.6199996
 20
912.9999852
 30
0.0
 11
1419.6199996
 21
912.9999852
 31
0.0
  0
LINE
  8
0
  6
CONTINUOUS
 62
     1
 10
1417.6199996
 20
914.9999852
 30
0.0
 11
1417.6199996
 21
959.020031088
 31
0.0
  0
ARC
  8
0
  6
CONTINUOUS
 62
     1
 10
1419.6199996
 20
914.9999852
 30
0.0
 40
2.0
 50
180.0
 51
270.0
  0
CIRCLE
  8
0
  6
CONTINUOUS
 62
     2
 10
1461.6199996
 20
932.9999852
 30
0.0
 40
15.0
  0
LINE
  8
0
  6
CONTINUOUS
 62
     1
 10
1408.283690152
 20
892.996548686
 30
0.0
 11
1398.283690152
 21
892.996548686
 31
0.0
  0
LINE
  8
0
  6
CONTINUOUS
 62
     1
 10
1398.283690152
 20
892.996548686
 30
0.0
 11
1393.283690152
 21
884.336294648
 31
0.0
  0
LINE
  8
0
  6
CONTINUOUS
 62
     1
 10
1393.283690152
 20
884.336294648
 30
0.0
 11
1398.283690152
 21
875.67604061
 31
0.0
  0
LINE
  8
0
  6
CONTINUOUS
 62
     1
 10
1398.283690152
 20
875.67604061
 30
0.0
 11
1408.283690152
 21
875.67604061
 31
0.0
  0
LINE
  8
0
  6
CONTINUOUS
 62
     1
 10
1408.283690152
 20
875.67604061
 30
0.0
 11
1413.283690152
 21
884.336294648
 31
0.0
  0
LINE
  8
0
  6
CONTINUOUS
 62
     1
 10
1413.283690152
 20
884.336294648
 30
0.0
 11
1408.283690152
 21
892.996548686
 31
0.0
  0
LINE
  8
0
  6
CONTINUOUS
 62
     1
 10
1514.956309048
 20
892.996548686
 30
0.0
 11
1524.956309048
 21
892.996548686
 31
0.0
  0
LINE
  8
0
  6
CONTINUOUS
 62
     1
 10
1524.956309048
 20
892.996548686
 30
0.0
 11
1529.956309048
 21
884.336294648
 31
0.0
  0
LINE
  8
0
  6
CONTINUOUS
 62
     1
 10
1509.956309048
 20
884.336294648
 30
0.0
 11
1514.956309048
 21
892.996548686
 31
0.0
  0
ARC
  8
0
  6
LTYPE3
 62
     2
 10
1461.6199996
 20
825.9999852
 30
0.0
 40
82.5
 50
122.095648245
 51
145.904134413
  0
LINE
  8
0
  6
CONTINUOUS
 62
     2
 10
1623.1199996
 20
962.9999852
 30
0.0
 11
1619.237713923
 21
948.511097806
 31
0.0
  0
LINE
  8
0
  6
CONTINUOUS
 62
     2
 10
1623.1199996
 20
962.9999852
 30
0.0
 11
1627.002285277
 21
948.511097806
 31
0.0
  0
LINE
  8
0
  6
CONTINUOUS
 62
     2
 10
1514.6199996
 20
962.9999852
 30
0.0
 11
1632.1199996
 21
962.9999852
 31
0.0
  0
LINE
  8
0
  6
CONTINUOUS
 62
     2
 10
1632.1199996
 20
962.9999852
 30
0.0
 11
1679.1199996
 21
962.9999852
 31
0.0
  0
LINE
  8
0
  6
CONTINUOUS
 62
     2
 10
1670.1199996
 20
962.9999852
 30
0.0
 11
1666.237713923
 21
948.511097806
 31
0.0
  0
LINE
  8
0
  6
CONTINUOUS
 62
     2
 10
1670.1199996
 20
962.9999852
 30
0.0
 11
1674.002285277
 21
948.511097806
 31
0.0
  0
TEXT
  8
0
  6
CONTINUOUS
 62
     2
 10
1617.1199996
 20
882.6999852
 30
1.2
 40
18.0
  1
１３７
 50
90.0
 41
0.9
 51
0.0
  7
KANJI34
  0
LINE
  8
0
  6
LTYPE3
 62
     2
 10
866.345007504
 20
184.133959796
 30
0.0
 11
866.345007504
 21
458.4999852
 31
0.0
  0
LINE
  8
0
  6
CONTINUOUS
 62
     1
 10
1410.6199996
 20
530.4999852
 30
0.0
 11
1512.6199996
 21
530.4999852
 31
0.0
  0
LINE
  8
0
  6
CONTINUOUS
 62
     2
 10
1042.1199996
 20
846.6999852
 30
0.0
 11
1042.1199996
 21
730.6999852
 31
0.0
  0
LINE
  8
0
  6
CONTINUOUS
 62
     2
 10
1042.1199996
 20
739.6999852
 30
0.0
 11
1056.608886994
 21
735.817699523
 31
0.0
  0
LINE
  8
0
  6
CONTINUOUS
 62
     2
 10
1042.1199996
 20
739.6999852
 30
0.0
 11
1056.608886994
 21
743.582270877
 31
0.0
  0
LINE
  8
0
  6
CONTINUOUS
 62
     2
 10
1042.1199996
 20
739.6999852
 30
0.0
 11
1092.1199996
 21
739.6999852
 31
0.0
  0
LINE
  8
0
  6
CONTINUOUS
 62
     2
 10
1092.1199996
 20
739.6999852
 30
0.0
 11
1077.631112206
 21
743.582270877
 31
0.0
  0
LINE
  8
0
  6
CONTINUOUS
 62
     2
 10
1092.1199996
 20
739.6999852
 30
0.0
 11
1077.631112206
 21
735.817699523
 31
0.0
  0
LINE
  8
0
  6
CONTINUOUS
 62
     2
 10
1092.1199996
 20
803.6999852
 30
0.0
 11
1092.1199996
 21
730.6999852
 31
0.0
  0
TEXT
  8
0
  6
CONTINUOUS
 62
     2
 10
1050.3199996
 20
745.6999852
 30
1.2
 40
18.0
  1
５０
 50
0.0
 41
0.9
 51
0.0
  7
KANJI34
  0
LINE
  8
0
  6
LTYPE3
 62
     2
 10
1092.1199996
 20
812.6999852
 30
0.0
 11
1092.1199996
 21
935.6999852
 31
0.0
  0
LINE
  8
0
  6
CONTINUOUS
 62
     1
 10
1042.1199996
 20
855.6999852
 30
0.0
 11
1127.1199996
 21
855.6999852
 31
0.0
  0
LINE
  8
0
  6
CONTINUOUS
 62
     1
 10
1127.1199996
 20
835.6999852
 30
0.0
 11
1127.1199996
 21
855.6999852
 31
0.0
  0
LINE
  8
0
  6
CONTINUOUS
 62
     1
 10
1042.1199996
 20
895.6999852
 30
0.0
 11
1127.1199996
 21
895.6999852
 31
0.0
  0
LINE
  8
0
  6
CONTINUOUS
 62
     1
 10
1127.1199996
 20
915.6999852
 30
0.0
 11
1127.1199996
 21
895.6999852
 31
0.0
  0
LINE
  8
0
  6
CONTINUOUS
 62
     1
 10
1042.1199996
 20
855.6999852
 30
0.0
 11
1042.1199996
 21
895.6999852
 31
0.0
  0
LINE
  8
0
  6
CONTINUOUS
 62
     1
 10
1077.1199996
 20
855.6999852
 30
0.0
 11
1077.1199996
 21
895.6999852
 31
0.0
  0
LINE
  8
0
  6
CONTINUOUS
 62
     1
 10
1107.1199996
 20
855.6999852
 30
0.0
 11
1107.1199996
 21
895.6999852
 31
0.0
  0
LINE
  8
0
  6
LTYPE1
 62
     2
 10
1077.1199996
 20
895.6999852
 30
0.0
 11
1077.1199996
 21
915.6999852
 31
0.0
  0
LINE
  8
0
  6
LTYPE1
 62
     2
 10
1107.1199996
 20
895.6999852
 30
0.0
 11
1107.1199996
 21
915.6999852
 31
0.0
  0
LINE
  8
0
  6
CONTINUOUS
 62
     1
 10
1064.1199996
 20
831.6999852
 30
0.0
 11
1120.1199996
 21
831.6999852
 31
0.0
  0
LINE
  8
0
  6
CONTINUOUS
 62
     1
 10
1064.1199996
 20
831.6999852
 30
0.0
 11
1064.1199996
 21
835.6999852
 31
0.0
  0
LINE
  8
0
  6
CONTINUOUS
 62
     1
 10
1120.1199996
 20
831.6999852
 30
0.0
 11
1120.1199996
 21
835.6999852
 31
0.0
  0
LINE
  8
0
  6
CONTINUOUS
 62
     1
 10
1077.1199996
 20
821.6999852
 30
0.0
 11
1107.1199996
 21
821.6999852
 31
0.0
  0
LINE
  8
0
  6
CONTINUOUS
 62
     1
 10
1077.1199996
 20
821.6999852
 30
0.0
 11
1077.1199996
 21
831.6999852
 31
0.0
  0
LINE
  8
0
  6
CONTINUOUS
 62
     1
 10
1107.1199996
 20
821.6999852
 30
0.0
 11
1107.1199996
 21
831.6999852
 31
0.0
  0
LINE
  8
0
  6
LTYPE1
 62
     2
 10
1107.1199996
 20
831.6999852
 30
0.0
 11
1107.1199996
 21
855.6999852
 31
0.0
  0
LINE
  8
0
  6
LTYPE1
 62
     2
 10
1077.1199996
 20
831.6999852
 30
0.0
 11
1077.1199996
 21
855.6999852
 31
0.0
  0
LINE
  8
0
  6
CONTINUOUS
 62
     1
 10
1064.1199996
 20
919.6999852
 30
0.0
 11
1120.1199996
 21
919.6999852
 31
0.0
  0
LINE
  8
0
  6
CONTINUOUS
 62
     1
 10
1064.1199996
 20
919.6999852
 30
0.0
 11
1064.1199996
 21
915.6999852
 31
0.0
  0
LINE
  8
0
  6
CONTINUOUS
 62
     1
 10
1120.1199996
 20
919.6999852
 30
0.0
 11
1120.1199996
 21
915.6999852
 31
0.0
  0
LINE
  8
0
  6
CONTINUOUS
 62
     1
 10
1077.1199996
 20
929.6999852
 30
0.0
 11
1107.1199996
 21
929.6999852
 31
0.0
  0
LINE
  8
0
  6
CONTINUOUS
 62
     1
 10
1077.1199996
 20
929.6999852
 30
0.0
 11
1077.1199996
 21
919.6999852
 31
0.0
  0
LINE
  8
0
  6
CONTINUOUS
 62
     1
 10
1107.1199996
 20
929.6999852
 30
0.0
 11
1107.1199996
 21
919.6999852
 31
0.0
  0
LINE
  8
0
  6
LTYPE3
 62
     2
 10
1085.1199996
 20
828.0999852
 30
0.0
 11
1101.1199996
 21
828.0999852
 31
0.0
  0
CIRCLE
  8
0
  6
CONTINUOUS
 62
     1
 10
1092.1199996
 20
828.0999852
 30
0.0
 40
3.0
  0
LINE
  8
0
  6
LTYPE3
 62
     2
 10
1085.1199996
 20
923.2999852
 30
0.0
 11
1101.1199996
 21
923.2999852
 31
0.0
  0
CIRCLE
  8
0
  6
CONTINUOUS
 62
     1
 10
1092.1199996
 20
923.2999852
 30
0.0
 40
3.0
  0
LINE
  8
0
  6
CONTINUOUS
 62
     2
 10
1136.1199996
 20
895.6999852
 30
0.0
 11
1188.6199996
 21
895.6999852
 31
0.0
  0
LINE
  8
0
  6
CONTINUOUS
 62
     2
 10
1179.6199996
 20
895.6999852
 30
0.0
 11
1175.737713923
 21
881.211097806
 31
0.0
  0
LINE
  8
0
  6
CONTINUOUS
 62
     2
 10
1179.6199996
 20
895.6999852
 30
0.0
 11
1183.502285277
 21
881.211097806
 31
0.0
  0
LINE
  8
0
  6
CONTINUOUS
 62
     2
 10
1179.6199996
 20
895.6999852
 30
0.0
 11
1179.6199996
 21
855.6999852
 31
0.0
  0
LINE
  8
0
  6
CONTINUOUS
 62
     2
 10
1179.6199996
 20
855.6999852
 30
0.0
 11
1183.502285277
 21
870.188872594
 31
0.0
  0
LINE
  8
0
  6
CONTINUOUS
 62
     2
 10
1179.6199996
 20
855.6999852
 30
0.0
 11
1175.737713923
 21
870.188872594
 31
0.0
  0
LINE
  8
0
  6
CONTINUOUS
 62
     2
 10
1136.1199996
 20
855.6999852
 30
0.0
 11
1188.6199996
 21
855.6999852
 31
0.0
  0
TEXT
  8
0
  6
CONTINUOUS
 62
     2
 10
1173.6199996
 20
858.8999852
 30
1.2
 40
18.0
  1
４０
 50
90.0
 41
0.9
 51
0.0
  7
KANJI34
  0
LINE
  8
0
  6
CONTINUOUS
 62
     2
 10
1136.1199996
 20
835.6999852
 30
0.0
 11
1229.1199996
 21
835.6999852
 31
0.0
  0
LINE
  8
0
  6
CONTINUOUS
 62
     2
 10
1220.1199996
 20
835.6999852
 30
0.0
 11
1224.002285277
 21
850.188872594
 31
0.0
  0
LINE
  8
0
  6
CONTINUOUS
 62
     2
 10
1220.1199996
 20
835.6999852
 30
0.0
 11
1216.237713923
 21
850.188872594
 31
0.0
  0
LINE
  8
0
  6
CONTINUOUS
 62
     2
 10
1220.1199996
 20
835.6999852
 30
0.0
 11
1220.1199996
 21
915.6999852
 31
0.0
  0
LINE
  8
0
  6
CONTINUOUS
 62
     2
 10
1220.1199996
 20
915.6999852
 30
0.0
 11
1216.237713923
 21
901.211097806
 31
0.0
  0
LINE
  8
0
  6
CONTINUOUS
 62
     2
 10
1220.1199996
 20
915.6999852
 30
0.0
 11
1224.002285277
 21
901.211097806
 31
0.0
  0
LINE
  8
0
  6
CONTINUOUS
 62
     2
 10
1136.1199996
 20
915.6999852
 30
0.0
 11
1229.1199996
 21
915.6999852
 31
0.0
  0
TEXT
  8
0
  6
CONTINUOUS
 62
     2
 10
1214.1199996
 20
858.8999852
 30
1.2
 40
18.0
  1
８０
 50
90.0
 41
0.9
 51
0.0
  7
KANJI34
  0
LINE
  8
0
  6
CONTINUOUS
 62
     2
 10
1077.1199996
 20
822.6999852
 30
0.0
 11
1077.1199996
 21
766.6999852
 31
0.0
  0
LINE
  8
0
  6
CONTINUOUS
 62
     2
 10
1077.1199996
 20
775.6999852
 30
0.0
 11
1062.631112206
 21
779.582270877
 31
0.0
  0
LINE
  8
0
  6
CONTINUOUS
 62
     2
 10
1077.1199996
 20
775.6999852
 30
0.0
 11
1062.631112206
 21
771.817699523
 31
0.0
  0
LINE
  8
0
  6
CONTINUOUS
 62
     2
 10
1054.6199996
 20
775.6999852
 30
0.0
 11
1215.4199996
 21
775.6999852
 31
0.0
  0
LINE
  8
0
  6
CONTINUOUS
 62
     2
 10
1107.1199996
 20
775.6999852
 30
0.0
 11
1121.608886994
 21
771.817699523
 31
0.0
  0
LINE
  8
0
  6
CONTINUOUS
 62
     2
 10
1107.1199996
 20
775.6999852
 30
0.0
 11
1121.608886994
 21
779.582270877
 31
0.0
  0
LINE
  8
0
  6
CONTINUOUS
 62
     2
 10
1107.1199996
 20
812.6999852
 30
0.0
 11
1107.1199996
 21
766.6999852
 31
0.0
  0
TEXT
  8
0
  6
CONTINUOUS
 62
     2
 10
1184.6199996
 20
753.1999852
 30
1.8
 40
18.0
  1
ｄ９
 50
0.0
 41
0.9
 51
0.0
  7
KANJI35
  0
TEXT
  8
0
  6
CONTINUOUS
 62
     2
 10
1129.6199996
 20
781.6999852
 30
1.2
 40
18.0
  1
φ３０Ｈ１０
 50
0.0
 41
0.9
 51
0.0
  7
KANJI34
  0
LINE
  8
0
  6
LTYPE3
 62
     2
 10
1009.9199996
 20
875.6999852
 30
0.0
 11
1132.3199996
 21
875.6999852
 31
0.0
  0
LINE
  8
0
  6
LTYPE3
 62
     2
 10
941.6199996
 20
875.6999852
 30
0.0
 11
1119.1199996
 21
875.6999852
 31
0.0
  0
LINE
  8
0
  6
CONTINUOUS
 62
     1
 10
1022.1199996
 20
915.6999852
 30
0.0
 11
1127.1199996
 21
915.6999852
 31
0.0
  0
LINE
  8
0
  6
CONTINUOUS
 62
     1
 10
1022.1199996
 20
835.6999852
 30
0.0
 11
1127.1199996
 21
835.6999852
 31
0.0
  0
LINE
  8
0
  6
CONTINUOUS
 62
     1
 10
1006.1199996
 20
933.1999852
 30
0.0
 11
1022.1199996
 21
933.1999852
 31
0.0
  0
LINE
  8
0
  6
CONTINUOUS
 62
     1
 10
1006.1199996
 20
933.1999852
 30
0.0
 11
1006.1199996
 21
818.1999852
 31
0.0
  0
LINE
  8
0
  6
CONTINUOUS
 62
     1
 10
1006.1199996
 20
818.1999852
 30
0.0
 11
1022.1199996
 21
818.1999852
 31
0.0
  0
LINE
  8
0
  6
CONTINUOUS
 62
     1
 10
1022.1199996
 20
933.1999852
 30
0.0
 11
1022.1199996
 21
818.1999852
 31
0.0
  0
LINE
  8
0
  6
CONTINUOUS
 62
     1
 10
977.1199996
 20
838.1999852
 30
0.0
 11
1006.1199996
 21
838.1999852
 31
0.0
  0
LINE
  8
0
  6
CONTINUOUS
 62
     1
 10
977.1199996
 20
913.1999852
 30
0.0
 11
1006.1199996
 21
913.1999852
 31
0.0
  0
LINE
  8
0
  6
CONTINUOUS
 62
     2
 10
1108.6198996
 20
954.0999852
 30
0.0
 11
1096.545826771
 21
957.335223264
 31
0.0
  0
LINE
  8
0
  6
CONTINUOUS
 62
     2
 10
1108.6198996
 20
954.0999852
 30
0.0
 11
1096.545826771
 21
950.864747136
 31
0.0
  0
LINE
  8
0
  6
CONTINUOUS
 62
     2
 10
1108.6198996
 20
954.0999852
 30
0.0
 11
1067.6198996
 21
954.0999852
 31
0.0
  0
TEXT
  8
0
  6
CONTINUOUS
 62
     3
 10
1074.6198996
 20
964.0999852
 30
0.0
 40
20.0
  1
前進
 50
0.0
 41
0.925
 51
0.0
  7
KANJI39
  0
TEXT
  8
0
  6
CONTINUOUS
 62
     2
 10
1029.72
 20
1453.72
 30
0.96
 40
14.4
  1
ＭＣＬＤ４－　　２Ｌ
 50
0.0
 41
0.833333333
 51
0.0
  7
KANJI40
  0
TEXT
  8
0
  6
CONTINUOUS
 62
     2
 10
1029.72
 20
1422.12
 30
0.96
 40
14.4
  1
ＭＣＬＤ４－　　３Ｌ
 50
0.0
 41
0.833333333
 51
0.0
  7
KANJI40
  0
TEXT
  8
0
  6
CONTINUOUS
 62
     2
 10
1029.72
 20
1390.52
 30
0.96
 40
14.4
  1
ＭＣＬＤ４－　　４Ｌ
 50
0.0
 41
0.833333333
 51
0.0
  7
KANJI40
  0
TEXT
  8
0
  6
CONTINUOUS
 62
     2
 10
1029.72
 20
1358.92
 30
0.96
 40
14.4
  1
ＭＣＬＤ４－　　５Ｌ
 50
0.0
 41
0.833333333
 51
0.0
  7
KANJI40
  0
TEXT
  8
0
  6
CONTINUOUS
 62
     2
 10
1029.72
 20
1327.32
 30
0.96
 40
14.4
  1
ＭＣＬＤ４－　　６Ｌ
 50
0.0
 41
0.833333333
 51
0.0
  7
KANJI40
  0
TEXT
  8
0
  6
CONTINUOUS
 62
     2
 10
1029.72
 20
1295.72
 30
0.96
 40
14.4
  1
ＭＣＬＤ４－　　７Ｌ
 50
0.0
 41
0.833333333
 51
0.0
  7
KANJI40
  0
TEXT
  8
0
  6
CONTINUOUS
 62
     2
 10
1029.72
 20
1264.12
 30
0.96
 40
14.4
  1
ＭＣＬＤ４－　　８Ｌ
 50
0.0
 41
0.833333333
 51
0.0
  7
KANJI40
  0
TEXT
  8
0
  6
CONTINUOUS
 62
     2
 10
1029.72
 20
1232.52
 30
0.96
 40
14.4
  1
ＭＣＬＤ４－　　９Ｌ
 50
0.0
 41
0.833333333
 51
0.0
  7
KANJI40
  0
TEXT
  8
0
  6
CONTINUOUS
 62
     2
 10
1029.72
 20
1200.92
 30
0.96
 40
14.4
  1
ＭＣＬＤ４－　１０Ｌ
 50
0.0
 41
0.833333333
 51
0.0
  7
KANJI40
  0
TEXT
  8
0
  6
CONTINUOUS
 62
     2
 10
1029.72
 20
1169.32
 30
0.96
 40
14.4
  1
ＭＣＬＤ４－　１１Ｌ
 50
0.0
 41
0.833333333
 51
0.0
  7
KANJI40
  0
TEXT
  8
0
  6
CONTINUOUS
 62
     2
 10
1029.72
 20
1137.72
 30
0.96
 40
14.4
  1
ＭＣＬＤ４－　１２Ｌ
 50
0.0
 41
0.833333333
 51
0.0
  7
KANJI40
  0
TEXT
  8
0
  6
CONTINUOUS
 62
     2
 10
1029.72
 20
1106.12
 30
0.96
 40
14.4
  1
ＭＣＬＤ４－　１３Ｌ
 50
0.0
 41
0.833333333
 51
0.0
  7
KANJI40
  0
TEXT
  8
0
  6
CONTINUOUS
 62
     2
 10
1029.72
 20
1074.52
 30
0.96
 40
14.4
  1
ＭＣＬＤ４－　１４Ｌ
 50
0.0
 41
0.833333333
 51
0.0
  7
KANJI40
  0
TEXT
  8
0
  6
CONTINUOUS
 62
     2
 10
1029.72
 20
1042.92
 30
0.96
 40
14.4
  1
ＭＣＬＤ４－　１５Ｌ
 50
0.0
 41
0.833333333
 51
0.0
  7
KANJI40
  0
TEXT
  8
0
  6
CONTINUOUS
 62
     2
 10
1029.72
 20
1011.32
 30
0.96
 40
14.4
  1
ＭＣＬＤ４－　　　Ｌ
 50
0.0
 41
0.833333333
 51
0.0
  7
KANJI40
  0
TEXT
  8
0
  6
CONTINUOUS
 62
     2
 10
1717.32
 20
1454.08
 30
1.44
 40
14.4
  1
　９１
 50
0.0
 41
0.9
 51
0.0
  7
KANJI26
  0
TEXT
  8
0
  6
CONTINUOUS
 62
     2
 10
1717.32
 20
1422.48
 30
1.44
 40
14.4
  1
　９３
 50
0.0
 41
0.9
 51
0.0
  7
KANJI26
  0
TEXT
  8
0
  6
CONTINUOUS
 62
     2
 10
1717.32
 20
1390.88
 30
1.44
 40
14.4
  1
　９７
 50
0.0
 41
0.9
 51
0.0
  7
KANJI26
  0
TEXT
  8
0
  6
CONTINUOUS
 62
     2
 10
1717.32
 20
1359.28
 30
1.44
 40
14.4
  1
１０１
 50
0.0
 41
0.9
 51
0.0
  7
KANJI26
  0
TEXT
  8
0
  6
CONTINUOUS
 62
     2
 10
1717.32
 20
1327.68
 30
1.44
 40
14.4
  1
１０６
 50
0.0
 41
0.9
 51
0.0
  7
KANJI26
  0
TEXT
  8
0
  6
CONTINUOUS
 62
     2
 10
1717.32
 20
1296.08
 30
1.44
 40
14.4
  1
１１１
 50
0.0
 41
0.9
 51
0.0
  7
KANJI26
  0
TEXT
  8
0
  6
CONTINUOUS
 62
     2
 10
1717.32
 20
1264.48
 30
1.44
 40
14.4
  1
１１４
 50
0.0
 41
0.9
 51
0.0
  7
KANJI26
  0
TEXT
  8
0
  6
CONTINUOUS
 62
     2
 10
1717.32
 20
1232.88
 30
1.44
 40
14.4
  1
１１８
 50
0.0
 41
0.9
 51
0.0
  7
KANJI26
  0
TEXT
  8
0
  6
CONTINUOUS
 62
     2
 10
1717.32
 20
1201.28
 30
1.44
 40
14.4
  1
１２２
 50
0.0
 41
0.9
 51
0.0
  7
KANJI26
  0
TEXT
  8
0
  6
CONTINUOUS
 62
     2
 10
1717.32
 20
1169.68
 30
1.44
 40
14.4
  1
１２５
 50
0.0
 41
0.9
 51
0.0
  7
KANJI26
  0
TEXT
  8
0
  6
CONTINUOUS
 62
     2
 10
1717.32
 20
1138.08
 30
1.44
 40
14.4
  1
１２９
 50
0.0
 41
0.9
 51
0.0
  7
KANJI26
  0
TEXT
  8
0
  6
CONTINUOUS
 62
     2
 10
1717.32
 20
1106.48
 30
1.44
 40
14.4
  1
１３３
 50
0.0
 41
0.9
 51
0.0
  7
KANJI26
  0
TEXT
  8
0
  6
CONTINUOUS
 62
     2
 10
1717.32
 20
1074.88
 30
1.44
 40
14.4
  1
１３７
 50
0.0
 41
0.9
 51
0.0
  7
KANJI26
  0
TEXT
  8
0
  6
CONTINUOUS
 62
     2
 10
1717.32
 20
1043.28
 30
1.44
 40
14.4
  1
１４１
 50
0.0
 41
0.9
 51
0.0
  7
KANJI26
  0
LINE
  8
0
  6
LTYPE3
 62
     2
 10
438.695007504
 20
537.9999852
 30
0.0
 11
825.955007504
 21
537.9999852
 31
0.0
  0
LINE
  8
0
  6
LTYPE1
 62
     2
 10
444.195007504
 20
541.9999852
 30
0.0
 11
448.695007504
 21
541.9999852
 31
0.0
  0
LINE
  8
0
  6
LTYPE1
 62
     2
 10
444.195007504
 20
540.9999852
 30
0.0
 11
448.695007504
 21
540.9999852
 31
0.0
  0
LINE
  8
0
  6
LTYPE1
 62
     2
 10
444.195007504
 20
533.9999852
 30
0.0
 11
448.695007504
 21
533.9999852
 31
0.0
  0
LINE
  8
0
  6
LTYPE1
 62
     2
 10
444.195007504
 20
534.9999852
 30
0.0
 11
448.695007504
 21
534.9999852
 31
0.0
  0
LINE
  8
0
  6
LTYPE1
 62
     2
 10
444.195007504
 20
533.9999852
 30
0.0
 11
444.195007504
 21
541.9999852
 31
0.0
  0
LINE
  8
0
  6
LTYPE1
 62
     2
 10
455.695007504
 20
547.7999852
 30
0.0
 11
450.08064815
 21
547.7999852
 31
0.0
  0
LINE
  8
0
  6
LTYPE1
 62
     2
 10
455.695007504
 20
542.8999852
 30
0.0
 11
450.08064815
 21
542.8999852
 31
0.0
  0
LINE
  8
0
  6
LTYPE1
 62
     2
 10
455.695007504
 20
528.1999852
 30
0.0
 11
450.08064815
 21
528.1999852
 31
0.0
  0
LINE
  8
0
  6
LTYPE1
 62
     2
 10
455.695007504
 20
533.0999852
 30
0.0
 11
450.08064815
 21
533.0999852
 31
0.0
  0
LINE
  8
0
  6
LTYPE1
 62
     2
 10
448.695007504
 20
537.9999852
 30
0.0
 11
448.695007504
 21
545.3999852
 31
0.0
  0
LINE
  8
0
  6
LTYPE1
 62
     2
 10
448.695007504
 20
545.3999852
 30
0.0
 11
450.08064815
 21
547.7999852
 31
0.0
  0
LINE
  8
0
  6
LTYPE1
 62
     2
 10
448.695007504
 20
545.3999852
 30
0.0
 11
450.08064815
 21
547.7999852
 31
0.0
  0
ARC
  8
0
  6
LTYPE1
 62
     2
 10
451.552891336
 20
545.3499852
 30
0.0
 40
2.858321186
 50
177.010501597
 51
238.997686085
  0
LINE
  8
0
  6
LTYPE1
 62
     2
 10
448.695007504
 20
530.5999852
 30
0.0
 11
450.08064815
 21
528.1999852
 31
0.0
  0
LINE
  8
0
  6
LTYPE1
 62
     2
 10
448.695007504
 20
537.9999852
 30
0.0
 11
448.695007504
 21
530.5999852
 31
0.0
  0
ARC
  8
0
  6
LTYPE1
 62
     2
 10
451.552891336
 20
530.6499852
 30
0.0
 40
2.858321186
 50
121.002313915
 51
182.989498403
  0
ARC
  8
0
  6
LTYPE1
 62
     2
 10
458.051690304
 20
537.9999852
 30
0.0
 40
9.3566828
 50
148.419912243
 51
211.580087757
  0
LINE
  8
0
  6
LTYPE3
 62
     2
 10
496.5199996
 20
591.6999852
 30
0.0
 11
496.5199996
 21
558.1999852
 31
0.0
  0
LINE
  8
0
  6
LTYPE3
 62
     2
 10
587.7199996
 20
547.4999852
 30
0.0
 11
568.0199996
 21
547.4999852
 31
0.0
  0
LINE
  8
0
  6
LTYPE1
 62
     2
 10
581.5199996
 20
556.7999852
 30
0.0
 11
571.5199996
 21
556.7999852
 31
0.0
  0
LINE
  8
0
  6
LTYPE1
 62
     2
 10
581.5199996
 20
557.9999852
 30
0.0
 11
571.5199996
 21
557.9999852
 31
0.0
  0
LINE
  8
0
  6
LTYPE1
 62
     2
 10
581.5199996
 20
538.1999852
 30
0.0
 11
571.5199996
 21
538.1999852
 31
0.0
  0
LINE
  8
0
  6
LTYPE1
 62
     2
 10
581.5199996
 20
536.9999852
 30
0.0
 11
571.5199996
 21
536.9999852
 31
0.0
  0
LINE
  8
0
  6
CONTINUOUS
 62
     2
 10
457.5199996
 20
588.9999852
 30
0.0
 11
457.5199996
 21
396.9999852
 31
0.0
  0
LINE
  8
0
  6
LTYPE2
 62
     2
 10
503.597780923
 20
509.9999852
 30
0.0
 11
1061.1199996
 21
509.9999852
 31
0.0
  0
LINE
  8
0
  6
LTYPE1
 62
     2
 10
489.195007504
 20
496.9999852
 30
0.0
 11
521.195007504
 21
496.9999852
 31
0.0
  0
LINE
  8
0
  6
LTYPE1
 62
     2
 10
489.195007504
 20
496.9999852
 30
0.0
 11
489.195007504
 21
549.9999852
 31
0.0
  0
ARC
  8
0
  6
LTYPE1
 62
     2
 10
489.051690304
 20
509.9999852
 30
0.0
 40
9.3566828
 50
148.419912243
 51
211.580087757
  0
LINE
  8
0
  6
LTYPE1
 62
     2
 10
486.695007504
 20
500.1999852
 30
0.0
 11
481.08064815
 21
500.1999852
 31
0.0
  0
LINE
  8
0
  6
LTYPE1
 62
     2
 10
479.695007504
 20
502.5999852
 30
0.0
 11
481.08064815
 21
500.1999852
 31
0.0
  0
LINE
  8
0
  6
LTYPE1
 62
     2
 10
486.695007504
 20
505.0999852
 30
0.0
 11
481.08064815
 21
505.0999852
 31
0.0
  0
ARC
  8
0
  6
LTYPE1
 62
     2
 10
482.552891336
 20
502.6499852
 30
0.0
 40
2.858321186
 50
121.002313915
 51
182.989498403
  0
LINE
  8
0
  6
LTYPE1
 62
     2
 10
486.695007504
 20
509.9999852
 30
0.0
 11
486.695007504
 21
500.1999852
 31
0.0
  0
LINE
  8
0
  6
LTYPE1
 62
     2
 10
489.195007504
 20
500.7999852
 30
0.0
 11
486.695007504
 21
500.7999852
 31
0.0
  0
LINE
  8
0
  6
LTYPE1
 62
     2
 10
479.695007504
 20
509.9999852
 30
0.0
 11
479.695007504
 21
502.5999852
 31
0.0
  0
LINE
  8
0
  6
LTYPE1
 62
     2
 10
471.195007504
 20
505.9999852
 30
0.0
 11
479.695007504
 21
505.9999852
 31
0.0
  0
LINE
  8
0
  6
LTYPE1
 62
     2
 10
471.195007504
 20
506.9999852
 30
0.0
 11
479.695007504
 21
506.9999852
 31
0.0
  0
LINE
  8
0
  6
LTYPE1
 62
     2
 10
489.195007504
 20
509.9999852
 30
0.0
 11
486.695007508
 21
507.499985204
 31
0.0
  0
LINE
  8
0
  6
LTYPE1
 62
     2
 10
486.695007504
 20
519.7999852
 30
0.0
 11
481.08064815
 21
519.7999852
 31
0.0
  0
LINE
  8
0
  6
LTYPE1
 62
     2
 10
479.695007504
 20
517.3999852
 30
0.0
 11
481.08064815
 21
519.7999852
 31
0.0
  0
LINE
  8
0
  6
LTYPE1
 62
     2
 10
479.695007504
 20
517.3999852
 30
0.0
 11
481.08064815
 21
519.7999852
 31
0.0
  0
LINE
  8
0
  6
LTYPE1
 62
     2
 10
479.695007504
 20
509.9999852
 30
0.0
 11
479.695007504
 21
517.3999852
 31
0.0
  0
LINE
  8
0
  6
LTYPE1
 62
     2
 10
486.695007504
 20
514.8999852
 30
0.0
 11
481.08064815
 21
514.8999852
 31
0.0
  0
ARC
  8
0
  6
LTYPE1
 62
     2
 10
482.552891336
 20
517.3499852
 30
0.0
 40
2.858321186
 50
177.010501597
 51
238.997686085
  0
LINE
  8
0
  6
LTYPE1
 62
     2
 10
471.195007504
 20
513.9999852
 30
0.0
 11
479.695007504
 21
513.9999852
 31
0.0
  0
LINE
  8
0
  6
LTYPE1
 62
     2
 10
471.195007504
 20
512.9999852
 30
0.0
 11
479.695007504
 21
512.9999852
 31
0.0
  0
LINE
  8
0
  6
LTYPE1
 62
     2
 10
489.195007504
 20
519.1999852
 30
0.0
 11
486.695007504
 21
519.1999852
 31
0.0
  0
LINE
  8
0
  6
LTYPE1
 62
     2
 10
486.695007504
 20
509.9999852
 30
0.0
 11
486.695007504
 21
519.7999852
 31
0.0
  0
LINE
  8
0
  6
LTYPE1
 62
     2
 10
486.695007508
 20
509.9999852
 30
0.0
 11
489.195007504
 21
512.499985196
 31
0.0
  0
LINE
  8
0
  6
LTYPE1
 62
     2
 10
693.195007504
 20
551.9999852
 30
0.0
 11
458.195007504
 21
551.9999852
 31
0.0
  0
LINE
  8
0
  6
LTYPE1
 62
     2
 10
693.195007504
 20
557.9999852
 30
0.0
 11
458.195007504
 21
557.9999852
 31
0.0
  0
LINE
  8
0
  6
LTYPE1
 62
     2
 10
489.195007504
 20
531.9999852
 30
0.0
 11
521.195007504
 21
531.9999852
 31
0.0
  0
LINE
  8
0
  6
LTYPE1
 62
     2
 10
521.195007504
 20
549.9999852
 30
0.0
 11
489.195007504
 21
549.9999852
 31
0.0
  0
LINE
  8
0
  6
LTYPE1
 62
     2
 10
521.195007504
 20
543.9999852
 30
0.0
 11
489.195007504
 21
543.9999852
 31
0.0
  0
LINE
  8
0
  6
LTYPE1
 62
     2
 10
489.195007504
 20
541.9999852
 30
0.0
 11
494.195007504
 21
541.9999852
 31
0.0
  0
LINE
  8
0
  6
LTYPE1
 62
     2
 10
489.195007504
 20
540.9999852
 30
0.0
 11
494.195007504
 21
540.9999852
 31
0.0
  0
LINE
  8
0
  6
LTYPE1
 62
     2
 10
489.195007504
 20
533.9999852
 30
0.0
 11
494.195007504
 21
533.9999852
 31
0.0
  0
LINE
  8
0
  6
LTYPE1
 62
     2
 10
489.195007504
 20
534.9999852
 30
0.0
 11
494.195007504
 21
534.9999852
 31
0.0
  0
LINE
  8
0
  6
LTYPE1
 62
     2
 10
494.195007504
 20
531.9999852
 30
0.0
 11
494.195007504
 21
543.9999852
 31
0.0
  0
LINE
  8
0
  6
LTYPE5
 62
     2
 10
510.662506124
 20
541.5999852
 30
0.0
 11
510.662506124
 21
554.9999852
 31
0.0
  0
LINE
  8
0
  6
LTYPE1
 62
     2
 10
471.195007504
 20
505.9999852
 30
0.0
 11
471.195007504
 21
513.9999852
 31
0.0
  0
LINE
  8
0
  6
LTYPE1
 62
     2
 10
458.195007504
 20
524.9999852
 30
0.0
 11
474.195007504
 21
524.9999852
 31
0.0
  0
LINE
  8
0
  6
LTYPE2
 62
     2
 10
477.195007504
 20
537.9999852
 30
0.0
 11
488.695007504
 21
537.9999852
 31
0.0
  0
LINE
  8
0
  6
LTYPE1
 62
     2
 10
481.695007504
 20
541.9999852
 30
0.0
 11
489.195007504
 21
541.9999852
 31
0.0
  0
LINE
  8
0
  6
LTYPE1
 62
     2
 10
481.695007504
 20
540.9999852
 30
0.0
 11
489.195007504
 21
540.9999852
 31
0.0
  0
LINE
  8
0
  6
LTYPE1
 62
     2
 10
474.195007504
 20
527.5999852
 30
0.0
 11
480.695007504
 21
527.5999852
 31
0.0
  0
ARC
  8
0
  6
LTYPE1
 62
     2
 10
477.795007504
 20
530.1999852
 30
0.0
 40
3.9
 50
317.9
 51
42.1
  0
LINE
  8
0
  6
LTYPE1
 62
     2
 10
474.195007504
 20
532.7999852
 30
0.0
 11
480.695007504
 21
532.7999852
 31
0.0
  0
LINE
  8
0
  6
LTYPE1
 62
     2
 10
481.695007504
 20
534.9999852
 30
0.0
 11
489.195007504
 21
534.9999852
 31
0.0
  0
LINE
  8
0
  6
LTYPE1
 62
     2
 10
481.695007504
 20
533.9999852
 30
0.0
 11
489.195007504
 21
533.9999852
 31
0.0
  0
LINE
  8
0
  6
LTYPE1
 62
     2
 10
474.195007504
 20
524.9999852
 30
0.0
 11
474.195007504
 21
551.9999852
 31
0.0
  0
LINE
  8
0
  6
LTYPE1
 62
     2
 10
474.195007504
 20
548.3999852
 30
0.0
 11
474.195007504
 21
527.5999852
 31
0.0
  0
ARC
  8
0
  6
LTYPE1
 62
     2
 10
467.695007504
 20
537.9999852
 30
0.0
 40
14.0
 50
338.2
 51
21.8
  0
LINE
  8
0
  6
LTYPE1
 62
     2
 10
481.695007504
 20
530.1999852
 30
0.0
 11
481.695007504
 21
545.7999852
 31
0.0
  0
LINE
  8
0
  6
LTYPE1
 62
     2
 10
474.195007504
 20
548.3999852
 30
0.0
 11
480.695007504
 21
548.3999852
 31
0.0
  0
ARC
  8
0
  6
LTYPE1
 62
     2
 10
477.795007504
 20
545.7999852
 30
0.0
 40
3.9
 50
317.9
 51
42.1
  0
LINE
  8
0
  6
LTYPE1
 62
     2
 10
480.695007504
 20
543.1999852
 30
0.0
 11
474.195007504
 21
543.1999852
 31
0.0
  0
LINE
  8
0
  6
LTYPE1
 62
     2
 10
469.942037504
 20
557.9999852
 30
0.0
 11
469.942037504
 21
562.440285798
 31
0.0
  0
LINE
  8
0
  6
LTYPE1
 62
     2
 10
473.689067504
 20
557.9999852
 30
0.0
 11
473.689067504
 21
562.440285798
 31
0.0
  0
ARC
  8
0
  6
LTYPE1
 62
     2
 10
466.195007504
 20
556.344829863
 30
0.0
 40
7.155055337
 50
58.419912243
 51
121.580087757
  0
LINE
  8
0
  6
LTYPE1
 62
     2
 10
471.853787504
 20
563.4998852
 30
0.0
 11
473.689067504
 21
562.440285798
 31
0.0
  0
LINE
  8
0
  6
LTYPE1
 62
     2
 10
466.195007504
 20
563.4998852
 30
0.0
 11
471.853787504
 21
563.4998852
 31
0.0
  0
LINE
  8
0
  6
LTYPE1
 62
     2
 10
471.853787504
 20
563.4998852
 30
0.0
 11
473.689067504
 21
562.440285798
 31
0.0
  0
ARC
  8
0
  6
LTYPE1
 62
     2
 10
471.815552504
 20
561.314461433
 30
0.0
 40
2.185758211
 50
87.010501597
 51
148.997686085
  0
LINE
  8
0
  6
LTYPE1
 62
     2
 10
466.195007504
 20
547.9999852
 30
0.0
 11
466.195007504
 21
563.9999852
 31
0.0
  0
LINE
  8
0
  6
LTYPE1
 62
     2
 10
466.195007504
 20
563.4998852
 30
0.0
 11
460.536227504
 21
563.4998852
 31
0.0
  0
ARC
  8
0
  6
LTYPE1
 62
     2
 10
460.574462504
 20
561.314461433
 30
0.0
 40
2.185758211
 50
31.002313915
 51
92.989498403
  0
LINE
  8
0
  6
LTYPE1
 62
     2
 10
462.447977504
 20
557.9999852
 30
0.0
 11
462.447977504
 21
562.440285798
 31
0.0
  0
LINE
  8
0
  6
LTYPE1
 62
     2
 10
455.695007504
 20
537.9999852
 30
0.0
 11
455.695007504
 21
547.7999852
 31
0.0
  0
LINE
  8
0
  6
LTYPE1
 62
     2
 10
458.195007504
 20
547.1999852
 30
0.0
 11
455.695007504
 21
547.1999852
 31
0.0
  0
LINE
  8
0
  6
LTYPE1
 62
     2
 10
455.695007508
 20
537.9999852
 30
0.0
 11
458.195007504
 21
540.499985196
 31
0.0
  0
LINE
  8
0
  6
LTYPE1
 62
     2
 10
455.695007504
 20
537.9999852
 30
0.0
 11
455.695007504
 21
528.1999852
 31
0.0
  0
LINE
  8
0
  6
LTYPE1
 62
     2
 10
458.195007504
 20
537.9999852
 30
0.0
 11
455.695007508
 21
535.499985204
 31
0.0
  0
LINE
  8
0
  6
LTYPE1
 62
     2
 10
458.195007504
 20
528.7999852
 30
0.0
 11
455.695007504
 21
528.7999852
 31
0.0
  0
LINE
  8
0
  6
LTYPE1
 62
     2
 10
458.195007504
 20
524.9999852
 30
0.0
 11
458.195007504
 21
557.9999852
 31
0.0
  0
LINE
  8
0
  6
LTYPE1
 62
     2
 10
460.536227504
 20
563.4998852
 30
0.0
 11
458.700947504
 21
562.440285798
 31
0.0
  0
LINE
  8
0
  6
LTYPE1
 62
     2
 10
458.700947504
 20
557.9999852
 30
0.0
 11
458.700947504
 21
562.440285798
 31
0.0
  0
LINE
  8
0
  6
LTYPE3
 62
     2
 10
542.195007504
 20
499.9999852
 30
0.0
 11
542.195007504
 21
519.9999852
 31
0.0
  0
CIRCLE
  8
0
  6
CONTINUOUS
 62
     2
 10
542.195007504
 20
509.9999852
 30
0.0
 40
5.0
  0
CIRCLE
  8
0
  6
CONTINUOUS
 62
     2
 10
542.195007504
 20
509.9999852
 30
0.0
 40
4.0
  0
LINE
  8
0
  6
LTYPE1
 62
     2
 10
521.195007504
 20
496.9999852
 30
0.0
 11
521.195007504
 21
549.9999852
 31
0.0
  0
LINE
  8
0
  6
LTYPE1
 62
     2
 10
521.195007504
 20
529.9999852
 30
0.0
 11
793.645007504
 21
529.9999852
 31
0.0
  0
LINE
  8
0
  6
LTYPE1
 62
     2
 10
521.195007504
 20
545.9999852
 30
0.0
 11
793.645007504
 21
545.9999852
 31
0.0
  0
LINE
  8
0
  6
LTYPE5
 62
     2
 10
462.152891336
 20
514.5999852
 30
0.0
 11
462.152891336
 21
527.9999852
 31
0.0
  0
LINE
  8
0
  6
LTYPE5
 62
     2
 10
572.252891336
 20
514.5999852
 30
0.0
 11
572.252891336
 21
527.9999852
 31
0.0
  0
LINE
  8
0
  6
CONTINUOUS
 62
     1
 10
507.695007504
 20
518.5499852
 30
0.0
 11
507.695007504
 21
502.5499852
 31
0.0
  0
LINE
  8
0
  6
CONTINUOUS
 62
     1
 10
507.695007504
 20
502.5499852
 30
0.0
 11
521.195007504
 21
502.5499852
 31
0.0
  0
LINE
  8
0
  6
CONTINUOUS
 62
     1
 10
563.195007504
 20
501.9999852
 30
0.0
 11
850.345007504
 21
501.9999852
 31
0.0
  0
LINE
  8
0
  6
CONTINUOUS
 62
     1
 10
554.545007504
 20
493.9999852
 30
0.0
 11
554.545007504
 21
525.9999852
 31
0.0
  0
LINE
  8
0
  6
CONTINUOUS
 62
     1
 10
563.195007504
 20
498.9999852
 30
0.0
 11
563.195007504
 21
520.9999852
 31
0.0
  0
LINE
  8
0
  6
CONTINUOUS
 62
     1
 10
529.845007504
 20
493.9999852
 30
0.0
 11
529.845007504
 21
525.9999852
 31
0.0
  0
LINE
  8
0
  6
CONTINUOUS
 62
     1
 10
521.195007504
 20
498.9999852
 30
0.0
 11
529.855261542
 21
493.9999852
 31
0.0
  0
LINE
  8
0
  6
CONTINUOUS
 62
     1
 10
529.845007504
 20
493.9999852
 30
0.0
 11
554.545007504
 21
493.9999852
 31
0.0
  0
LINE
  8
0
  6
CONTINUOUS
 62
     1
 10
563.195007504
 20
498.9999852
 30
0.0
 11
554.534753466
 21
493.9999852
 31
0.0
  0
LINE
  8
0
  6
CONTINUOUS
 62
     1
 10
521.195007504
 20
498.9999852
 30
0.0
 11
521.195007504
 21
520.9999852
 31
0.0
  0
LINE
  8
0
  6
CONTINUOUS
 62
     1
 10
507.695007504
 20
518.5499852
 30
0.0
 11
521.195007504
 21
518.5499852
 31
0.0
  0
LINE
  8
0
  6
CONTINUOUS
 62
     1
 10
521.195007504
 20
520.9999852
 30
0.0
 11
529.855261542
 21
525.9999852
 31
0.0
  0
LINE
  8
0
  6
CONTINUOUS
 62
     1
 10
529.845007504
 20
525.9999852
 30
0.0
 11
554.545007504
 21
525.9999852
 31
0.0
  0
LINE
  8
0
  6
CONTINUOUS
 62
     1
 10
563.195007504
 20
520.9999852
 30
0.0
 11
554.534753466
 21
525.9999852
 31
0.0
  0
LINE
  8
0
  6
LTYPE1
 62
     2
 10
692.695007504
 20
551.9999852
 30
0.0
 11
692.695007504
 21
547.3999852
 31
0.0
  0
LINE
  8
0
  6
LTYPE1
 62
     2
 10
677.695007504
 20
551.9999852
 30
0.0
 11
677.695007504
 21
547.3999852
 31
0.0
  0
LINE
  8
0
  6
LTYPE1
 62
     2
 10
681.395007504
 20
551.9999852
 30
0.0
 11
681.395007504
 21
547.3999852
 31
0.0
  0
LINE
  8
0
  6
LTYPE1
 62
     2
 10
688.995007504
 20
551.9999852
 30
0.0
 11
688.995007504
 21
547.3999852
 31
0.0
  0
ARC
  8
0
  6
LTYPE1
 62
     2
 10
679.495007504
 20
549.4999852
 30
0.0
 40
2.8
 50
228.5
 51
311.5
  0
ARC
  8
0
  6
LTYPE1
 62
     2
 10
685.195007504
 20
557.3999852
 30
0.0
 40
10.7
 50
249.1
 51
290.9
  0
ARC
  8
0
  6
LTYPE1
 62
     2
 10
690.895007504
 20
549.4999852
 30
0.0
 40
2.8
 50
228.5
 51
311.5
  0
LINE
  8
0
  6
LTYPE1
 62
     2
 10
685.195007504
 20
543.1999852
 30
0.0
 11
685.195007504
 21
554.9999852
 31
0.0
  0
LINE
  8
0
  6
LTYPE3
 62
     2
 10
685.195007504
 20
539.3499852
 30
0.0
 11
685.195007504
 21
563.6499852
 31
0.0
  0
LINE
  8
0
  6
LTYPE1
 62
     2
 10
690.895007504
 20
546.6999852
 30
0.0
 11
679.495007504
 21
546.6999852
 31
0.0
  0
LINE
  8
0
  6
LTYPE1
 62
     2
 10
685.195007504
 20
549.866010604
 30
0.0
 11
685.195007504
 21
682.866010604
 31
0.0
  0
LINE
  8
0
  6
LTYPE1
 62
     2
 10
693.195007504
 20
557.9999852
 30
0.0
 11
693.195007504
 21
552.0499852
 31
0.0
  0
LINE
  8
0
  6
LTYPE1
 62
     2
 10
692.195007504
 20
557.9999852
 30
0.0
 11
692.195007504
 21
617.6499852
 31
0.0
  0
LINE
  8
0
  6
LTYPE1
 62
     2
 10
678.195007504
 20
557.9999852
 30
0.0
 11
678.195007504
 21
617.6499852
 31
0.0
  0
LINE
  8
0
  6
LTYPE1
 62
     2
 10
681.195007504
 20
572.9999852
 30
0.0
 11
689.195007504
 21
572.9999852
 31
0.0
  0
LINE
  8
0
  6
LTYPE1
 62
     2
 10
688.495007504
 20
587.5999852
 30
0.0
 11
688.495007504
 21
572.9999852
 31
0.0
  0
LINE
  8
0
  6
LTYPE1
 62
     2
 10
689.195007504
 20
587.6499852
 30
0.0
 11
689.195007504
 21
572.9999852
 31
0.0
  0
LINE
  8
0
  6
LTYPE1
 62
     2
 10
681.895007504
 20
587.5999852
 30
0.0
 11
681.895007504
 21
572.9999852
 31
0.0
  0
LINE
  8
0
  6
LTYPE1
 62
     2
 10
681.195007504
 20
587.5999852
 30
0.0
 11
681.195007504
 21
572.9999852
 31
0.0
  0
LINE
  8
0
  6
LTYPE1
 62
     2
 10
678.195007504
 20
587.6499852
 30
0.0
 11
692.195007504
 21
587.6499852
 31
0.0
  0
LINE
  8
0
  6
LTYPE1
 62
     2
 10
678.195007504
 20
617.6499852
 30
0.0
 11
692.195007504
 21
617.6499852
 31
0.0
  0
LINE
  8
0
  6
LTYPE1
 62
     2
 10
689.195007504
 20
617.6499852
 30
0.0
 11
689.195007504
 21
704.4999852
 31
0.0
  0
LINE
  8
0
  6
LTYPE1
 62
     2
 10
681.195007504
 20
617.6499852
 30
0.0
 11
681.195007504
 21
704.4999852
 31
0.0
  0
ARC
  8
0
  6
LTYPE1
 62
     2
 10
685.195007504
 20
704.4999852
 30
0.0
 40
4.0
 50
0.0
 51
180.0
  0
ARC
  8
0
  6
CONTINUOUS
 62
     1
 10
836.345007504
 20
704.4999852
 30
0.0
 40
4.0
 50
0.0
 51
180.0
  0
ARC
  8
0
  6
CONTINUOUS
 62
     1
 10
896.345007504
 20
704.4999852
 30
0.0
 40
4.0
 50
0.0
 51
180.0
  0
LINE
  8
0
  6
CONTINUOUS
 62
     1
 10
840.345007504
 20
617.6499852
 30
0.0
 11
840.345007504
 21
704.4999852
 31
0.0
  0
LINE
  8
0
  6
CONTINUOUS
 62
     1
 10
832.345007504
 20
617.6499852
 30
0.0
 11
832.345007504
 21
704.4999852
 31
0.0
  0
LINE
  8
0
  6
CONTINUOUS
 62
     1
 10
892.345007504
 20
617.6499852
 30
0.0
 11
892.345007504
 21
704.4999852
 31
0.0
  0
LINE
  8
0
  6
CONTINUOUS
 62
     1
 10
900.345007504
 20
617.6499852
 30
0.0
 11
900.345007504
 21
704.4999852
 31
0.0
  0
LINE
  8
0
  6
CONTINUOUS
 62
     1
 10
829.345007504
 20
617.6499852
 30
0.0
 11
843.345007504
 21
617.6499852
 31
0.0
  0
LINE
  8
0
  6
CONTINUOUS
 62
     1
 10
843.345007504
 20
557.9999852
 30
0.0
 11
843.345007504
 21
617.6499852
 31
0.0
  0
LINE
  8
0
  6
CONTINUOUS
 62
     1
 10
829.345007504
 20
557.9999852
 30
0.0
 11
829.345007504
 21
617.6499852
 31
0.0
  0
LINE
  8
0
  6
CONTINUOUS
 62
     1
 10
903.345007504
 20
617.6499852
 30
0.0
 11
889.345007504
 21
617.6499852
 31
0.0
  0
LINE
  8
0
  6
CONTINUOUS
 62
     1
 10
889.345007504
 20
557.9999852
 30
0.0
 11
889.345007504
 21
617.6499852
 31
0.0
  0
LINE
  8
0
  6
CONTINUOUS
 62
     1
 10
903.345007504
 20
557.9999852
 30
0.0
 11
903.345007504
 21
617.6499852
 31
0.0
  0
LINE
  8
0
  6
CONTINUOUS
 62
     1
 10
829.345007504
 20
587.6499852
 30
0.0
 11
843.345007504
 21
587.6499852
 31
0.0
  0
LINE
  8
0
  6
CONTINUOUS
 62
     1
 10
832.345007504
 20
572.9999852
 30
0.0
 11
840.345007504
 21
572.9999852
 31
0.0
  0
LINE
  8
0
  6
CONTINUOUS
 62
     2
 10
832.345007504
 20
587.5999852
 30
0.0
 11
832.345007504
 21
572.9999852
 31
0.0
  0
LINE
  8
0
  6
CONTINUOUS
 62
     1
 10
839.645007504
 20
587.5999852
 30
0.0
 11
839.645007504
 21
572.9999852
 31
0.0
  0
LINE
  8
0
  6
CONTINUOUS
 62
     1
 10
833.045007504
 20
587.5999852
 30
0.0
 11
833.045007504
 21
572.9999852
 31
0.0
  0
LINE
  8
0
  6
CONTINUOUS
 62
     1
 10
903.345007504
 20
587.6499852
 30
0.0
 11
889.345007504
 21
587.6499852
 31
0.0
  0
LINE
  8
0
  6
CONTINUOUS
 62
     1
 10
900.345007504
 20
572.9999852
 30
0.0
 11
892.345007504
 21
572.9999852
 31
0.0
  0
LINE
  8
0
  6
CONTINUOUS
 62
     2
 10
900.345007504
 20
587.5999852
 30
0.0
 11
900.345007504
 21
572.9999852
 31
0.0
  0
LINE
  8
0
  6
CONTINUOUS
 62
     2
 10
892.345007504
 20
587.6499852
 30
0.0
 11
892.345007504
 21
572.9999852
 31
0.0
  0
LINE
  8
0
  6
CONTINUOUS
 62
     1
 10
893.045007504
 20
587.5999852
 30
0.0
 11
893.045007504
 21
572.9999852
 31
0.0
  0
LINE
  8
0
  6
CONTINUOUS
 62
     1
 10
899.645007504
 20
587.5999852
 30
0.0
 11
899.645007504
 21
572.9999852
 31
0.0
  0
LINE
  8
0
  6
CONTINUOUS
 62
     1
 10
563.195007504
 20
517.9999852
 30
0.0
 11
819.045007504
 21
517.9999852
 31
0.0
  0
LINE
  8
0
  6
CONTINUOUS
 62
     1
 10
801.345007504
 20
551.9999852
 30
0.0
 11
931.345007504
 21
551.9999852
 31
0.0
  0
LINE
  8
0
  6
CONTINUOUS
 62
     1
 10
801.345007504
 20
557.9999852
 30
0.0
 11
931.345007504
 21
557.9999852
 31
0.0
  0
LINE
  8
0
  6
CONTINUOUS
 62
     1
 10
819.045007504
 20
511.9999852
 30
0.0
 11
913.645007504
 21
511.9999852
 31
0.0
  0
LINE
  8
0
  6
CONTINUOUS
 62
     1
 10
819.045007504
 20
517.9999852
 30
0.0
 11
913.645007504
 21
517.9999852
 31
0.0
  0
LINE
  8
0
  6
CONTINUOUS
 62
     1
 10
819.045007504
 20
525.5999852
 30
0.0
 11
793.645007504
 21
525.5999852
 31
0.0
  0
LINE
  8
0
  6
CONTINUOUS
 62
     1
 10
819.045007504
 20
551.9999852
 30
0.0
 11
819.045007504
 21
511.9999852
 31
0.0
  0
LINE
  8
0
  6
CONTINUOUS
 62
     1
 10
801.345007504
 20
551.9999852
 30
0.0
 11
801.345007504
 21
557.9999852
 31
0.0
  0
LINE
  8
0
  6
CONTINUOUS
 62
     1
 10
793.645007504
 20
550.9999852
 30
0.0
 11
793.645007504
 21
525.5999852
 31
0.0
  0
LINE
  8
0
  6
CONTINUOUS
 62
     1
 10
819.045007504
 20
550.9999852
 30
0.0
 11
793.645007504
 21
550.9999852
 31
0.0
  0
LINE
  8
0
  6
CONTINUOUS
 62
     2
 10
833.445007504
 20
512.1999852
 30
0.0
 11
825.856252845
 21
502.267170759
 31
0.0
  0
LINE
  8
0
  6
CONTINUOUS
 62
     2
 10
833.445007504
 20
512.1999852
 30
0.0
 11
831.839360407
 21
499.803538233
 31
0.0
  0
LINE
  8
0
  6
CONTINUOUS
 62
     2
 10
833.445007504
 20
512.1999852
 30
0.0
 11
812.321478092
 21
460.8999852
 31
0.0
  0
TEXT
  8
0
  6
CONTINUOUS
 62
     2
 10
732.245007504
 20
465.8999852
 30
0.0
 40
15.0
  1
ＬＳユニット
 50
0.0
 41
0.9
 51
0.0
  7
KANJI33
  0
LINE
  8
0
  6
CONTINUOUS
 62
     2
 10
812.321478092
 20
460.8999852
 30
0.0
 11
732.245007504
 21
460.8999852
 31
0.0
  0
LINE
  8
0
  6
CONTINUOUS
 62
     1
 10
850.345007504
 20
496.9999852
 30
0.0
 11
882.345007504
 21
496.9999852
 31
0.0
  0
LINE
  8
0
  6
LTYPE1
 62
     2
 10
850.345007504
 20
503.9999852
 30
0.0
 11
882.645007504
 21
503.9999852
 31
0.0
  0
LINE
  8
0
  6
CONTINUOUS
 62
     1
 10
844.945007504
 20
551.9999852
 30
0.0
 11
844.945007504
 21
511.9999852
 31
0.0
  0
LINE
  8
0
  6
CONTINUOUS
 62
     1
 10
850.345007504
 20
496.9999852
 30
0.0
 11
850.345007504
 21
511.9999852
 31
0.0
  0
LINE
  8
0
  6
LTYPE1
 62
     2
 10
850.045007504
 20
521.2299852
 30
0.0
 11
845.045007504
 21
521.2299852
 31
0.0
  0
LINE
  8
0
  6
LTYPE1
 62
     2
 10
850.045007504
 20
522.3849852
 30
0.0
 11
845.045007504
 21
522.3849852
 31
0.0
  0
LINE
  8
0
  6
LTYPE1
 62
     2
 10
850.045007504
 20
542.1699852
 30
0.0
 11
845.045007504
 21
542.1699852
 31
0.0
  0
LINE
  8
0
  6
LTYPE1
 62
     2
 10
850.045007504
 20
541.0149852
 30
0.0
 11
845.045007504
 21
541.0149852
 31
0.0
  0
LINE
  8
0
  6
LTYPE1
 62
     2
 10
850.045007504
 20
542.1699852
 30
0.0
 11
845.045007504
 21
542.1699852
 31
0.0
  0
LINE
  8
0
  6
LTYPE3
 62
     2
 10
841.6199996
 20
531.6999852
 30
0.0
 11
854.6199996
 21
531.6999852
 31
0.0
  0
LINE
  8
0
  6
CONTINUOUS
 62
     1
 10
882.645007504
 20
503.9999852
 30
0.0
 11
948.6198996
 21
503.9999852
 31
0.0
  0
LINE
  8
0
  6
CONTINUOUS
 62
     1
 10
913.6199996
 20
515.9999852
 30
0.0
 11
948.6198996
 21
515.9999852
 31
0.0
  0
LINE
  8
0
  6
CONTINUOUS
 62
     1
 10
913.645007504
 20
525.5999852
 30
0.0
 11
939.045007504
 21
525.5999852
 31
0.0
  0
LINE
  8
0
  6
CONTINUOUS
 62
     1
 10
939.045007504
 20
550.9999852
 30
0.0
 11
939.045007504
 21
525.5999852
 31
0.0
  0
LINE
  8
0
  6
CONTINUOUS
 62
     1
 10
913.645007504
 20
550.9999852
 30
0.0
 11
939.045007504
 21
550.9999852
 31
0.0
  0
LINE
  8
0
  6
LTYPE1
 62
     2
 10
948.6198996
 20
503.9999852
 30
0.0
 11
990.6198996
 21
503.9999852
 31
0.0
  0
LINE
  8
0
  6
LTYPE1
 62
     2
 10
948.6198996
 20
515.9999852
 30
0.0
 11
990.6198996
 21
515.9999852
 31
0.0
  0
LINE
  8
0
  6
CONTINUOUS
 62
     1
 10
948.6198996
 20
520.9999852
 30
0.0
 11
957.280153638
 21
525.9999852
 31
0.0
  0
LINE
  8
0
  6
CONTINUOUS
 62
     1
 10
948.6198996
 20
498.9999852
 30
0.0
 11
948.6198996
 21
520.9999852
 31
0.0
  0
LINE
  8
0
  6
CONTINUOUS
 62
     1
 10
948.6198996
 20
498.9999852
 30
0.0
 11
957.280153638
 21
493.9999852
 31
0.0
  0
LINE
  8
0
  6
CONTINUOUS
 62
     1
 10
913.645007504
 20
551.9999852
 30
0.0
 11
913.645007504
 21
511.9999852
 31
0.0
  0
LINE
  8
0
  6
LTYPE2
 62
     2
 10
923.345007504
 20
537.1874852
 30
0.0
 11
923.345007504
 21
497.1999852
 31
0.0
  0
LINE
  8
0
  6
CONTINUOUS
 62
     1
 10
882.345007504
 20
496.9999852
 30
0.0
 11
882.345007504
 21
511.9999852
 31
0.0
  0
LINE
  8
0
  6
CONTINUOUS
 62
     1
 10
931.345007504
 20
551.9999852
 30
0.0
 11
931.345007504
 21
557.9999852
 31
0.0
  0
CIRCLE
  8
0
  6
CONTINUOUS
 62
     2
 10
969.6198996
 20
509.9999852
 30
0.0
 40
5.0
  0
CIRCLE
  8
0
  6
CONTINUOUS
 62
     2
 10
969.6198996
 20
509.9999852
 30
0.0
 40
4.0
  0
LINE
  8
0
  6
CONTINUOUS
 62
     1
 10
957.2698996
 20
525.9999852
 30
0.0
 11
981.9698996
 21
525.9999852
 31
0.0
  0
LINE
  8
0
  6
CONTINUOUS
 62
     1
 10
957.2698996
 20
493.9999852
 30
0.0
 11
957.2698996
 21
525.9999852
 31
0.0
  0
LINE
  8
0
  6
CONTINUOUS
 62
     1
 10
957.2698996
 20
493.9999852
 30
0.0
 11
981.9698996
 21
493.9999852
 31
0.0
  0
LINE
  8
0
  6
LTYPE2
 62
     2
 10
969.6198996
 20
499.9999852
 30
0.0
 11
969.6198996
 21
519.9999852
 31
0.0
  0
LINE
  8
0
  6
CONTINUOUS
 62
     1
 10
981.9698996
 20
493.9999852
 30
0.0
 11
981.9698996
 21
525.9999852
 31
0.0
  0
LINE
  8
0
  6
CONTINUOUS
 62
     1
 10
990.6198996
 20
498.9999852
 30
0.0
 11
981.959645562
 21
493.9999852
 31
0.0
  0
LINE
  8
0
  6
CONTINUOUS
 62
     1
 10
990.6198996
 20
520.9999852
 30
0.0
 11
981.959645562
 21
525.9999852
 31
0.0
  0
LINE
  8
0
  6
CONTINUOUS
 62
     1
 10
990.6198996
 20
503.9999852
 30
0.0
 11
1006.1199996
 21
503.9999852
 31
0.0
  0
LINE
  8
0
  6
CONTINUOUS
 62
     1
 10
990.6198996
 20
515.9999852
 30
0.0
 11
1006.1199996
 21
515.9999852
 31
0.0
  0
LINE
  8
0
  6
CONTINUOUS
 62
     1
 10
990.6198996
 20
498.9999852
 30
0.0
 11
990.6198996
 21
520.9999852
 31
0.0
  0
LINE
  8
0
  6
CONTINUOUS
 62
     1
 10
1040.2199996
 20
515.9999852
 30
0.0
 11
1035.9199996
 21
515.9999852
 31
0.0
  0
LINE
  8
0
  6
CONTINUOUS
 62
     1
 10
1041.9199996
 20
505.6999852
 30
0.0
 11
1041.9199996
 21
514.2999852
 31
0.0
  0
LINE
  8
0
  6
CONTINUOUS
 62
     1
 10
1040.2199996
 20
515.9999852
 30
0.0
 11
1040.2199996
 21
503.9999852
 31
0.0
  0
LINE
  8
0
  6
CONTINUOUS
 62
     1
 10
1041.9199996
 20
514.2999852
 30
0.0
 11
1040.2199996
 21
515.9999852
 31
0.0
  0
LINE
  8
0
  6
CONTINUOUS
 62
     2
 10
1041.4199996
 20
514.7999852
 30
0.0
 11
1035.9199996
 21
514.7999852
 31
0.0
  0
LINE
  8
0
  6
CONTINUOUS
 62
     1
 10
1040.2199996
 20
503.9999852
 30
0.0
 11
1035.9199996
 21
503.9999852
 31
0.0
  0
LINE
  8
0
  6
CONTINUOUS
 62
     1
 10
1041.9199996
 20
505.6999852
 30
0.0
 11
1040.2199996
 21
503.9999852
 31
0.0
  0
LINE
  8
0
  6
CONTINUOUS
 62
     2
 10
1041.4199996
 20
505.1999852
 30
0.0
 11
1035.9199996
 21
505.1999852
 31
0.0
  0
LINE
  8
0
  6
CONTINUOUS
 62
     1
 10
1022.1199996
 20
499.1999852
 30
0.0
 11
1025.1199996
 21
499.1999852
 31
0.0
  0
LINE
  8
0
  6
CONTINUOUS
 62
     1
 10
1025.1199996
 20
499.1999852
 30
0.0
 11
1025.1199996
 21
520.7999852
 31
0.0
  0
LINE
  8
0
  6
CONTINUOUS
 62
     1
 10
1025.1199996
 20
520.7999852
 30
0.0
 11
1022.1199996
 21
520.7999852
 31
0.0
  0
LINE
  8
0
  6
CONTINUOUS
 62
     1
 10
1022.1199996
 20
509.9999852
 30
0.0
 11
1025.1199996
 21
506.9999852
 31
0.0
  0
LINE
  8
0
  6
CONTINUOUS
 62
     1
 10
1022.1199996
 20
512.9999852
 30
0.0
 11
1025.1199996
 21
509.9999852
 31
0.0
  0
LINE
  8
0
  6
CONTINUOUS
 62
     1
 10
1026.1199996
 20
520.3999852
 30
0.0
 11
1034.9199996
 21
520.3999852
 31
0.0
  0
LINE
  8
0
  6
CONTINUOUS
 62
     1
 10
1026.1199996
 20
499.5999852
 30
0.0
 11
1034.9199996
 21
499.5999852
 31
0.0
  0
LINE
  8
0
  6
CONTINUOUS
 62
     1
 10
1026.1199996
 20
504.7999852
 30
0.0
 11
1034.9199996
 21
504.7999852
 31
0.0
  0
LINE
  8
0
  6
CONTINUOUS
 62
     1
 10
1026.1199996
 20
515.1999852
 30
0.0
 11
1034.9199996
 21
515.1999852
 31
0.0
  0
LINE
  8
0
  6
CONTINUOUS
 62
     1
 10
1035.9199996
 20
517.7999852
 30
0.0
 11
1035.9199996
 21
502.1999852
 31
0.0
  0
ARC
  8
0
  6
CONTINUOUS
 62
     1
 10
1032.0199996
 20
502.1999852
 30
0.0
 40
3.9
 50
317.9
 51
42.1
  0
ARC
  8
0
  6
CONTINUOUS
 62
     1
 10
1021.9199996
 20
509.9999852
 30
0.0
 40
14.0
 50
338.2
 51
21.8
  0
ARC
  8
0
  6
CONTINUOUS
 62
     1
 10
1032.0199996
 20
517.7999852
 30
0.0
 40
3.9
 50
317.9
 51
42.1
  0
ARC
  8
0
  6
CONTINUOUS
 62
     1
 10
1029.0199996
 20
517.7999852
 30
0.0
 40
3.9
 50
137.9
 51
222.1
  0
ARC
  8
0
  6
CONTINUOUS
 62
     1
 10
1039.1199996
 20
509.9999852
 30
0.0
 40
14.0
 50
158.2
 51
201.8
  0
ARC
  8
0
  6
CONTINUOUS
 62
     1
 10
1029.0199996
 20
502.1999852
 30
0.0
 40
3.9
 50
137.9
 51
222.1
  0
LINE
  8
0
  6
CONTINUOUS
 62
     1
 10
1006.1199996
 20
496.9999852
 30
0.0
 11
1022.1199996
 21
496.9999852
 31
0.0
  0
LINE
  8
0
  6
CONTINUOUS
 62
     1
 10
1456.316698741
 20
566.986006222
 30
0.0
 11
1537.633978578
 21
648.303286059
 31
0.0
  0
LINE
  8
0
  6
CONTINUOUS
 62
     1
 10
1422.022019854
 20
601.28068511
 30
0.0
 11
1456.316698741
 21
566.986006222
 31
0.0
  0
LINE
  8
0
  6
CONTINUOUS
 62
     1
 10
1422.022019854
 20
601.28068511
 30
0.0
 11
1426.241319944
 21
605.4999852
 31
0.0
  0
LINE
  8
0
  6
CONTINUOUS
 62
     1
 10
1399.748156246
 20
623.554548717
 30
0.0
 11
1419.90069951
 21
603.402005454
 31
0.0
  0
LINE
  8
0
  6
CONTINUOUS
 62
     1
 10
1419.90069951
 20
603.402005454
 30
0.0
 11
1421.998679256
 21
605.4999852
 31
0.0
  0
LINE
  8
0
  6
CONTINUOUS
 62
     1
 10
1347.775807829
 20
735.630973535
 30
0.0
 11
1399.748156246
 21
623.554548717
 31
0.0
  0
LINE
  8
0
  6
CONTINUOUS
 62
     1
 10
1372.984164578
 20
629.812443731
 30
0.0
 11
1391.368940889
 21
611.42766742
 31
0.0
  0
ARC
  8
0
  6
CONTINUOUS
 62
     1
 10
1392.783154451
 20
612.841880982
 30
0.0
 40
2.0
 50
225.0
 51
315.0
  0
LINE
  8
0
  6
CONTINUOUS
 62
     1
 10
1374.784212493
 20
677.786564457
 30
0.0
 11
1342.47250697
 21
645.474858934
 31
0.0
  0
LINE
  8
0
  6
CONTINUOUS
 62
     1
 10
1313.127575551
 20
681.183751384
 30
0.0
 11
1341.411846798
 21
652.899480137
 31
0.0
  0
LINE
  8
0
  6
CONTINUOUS
 62
     1
 10
1341.411846798
 20
652.899480137
 30
0.0
 11
1341.482557476
 21
652.828769458
 31
0.0
  0
LINE
  8
0
  6
CONTINUOUS
 62
     1
 10
1338.229866283
 20
649.717499621
 30
0.0
 11
1342.47250697
 21
645.474858934
 31
0.0
  0
LINE
  8
0
  6
CONTINUOUS
 62
     1
 10
1372.109504234
 20
683.597137572
 30
0.0
 11
1341.411846798
 21
652.899480137
 31
0.0
  0
LINE
  8
0
  6
CONTINUOUS
 62
     1
 10
1338.229866283
 20
649.717499621
 30
0.0
 11
1372.109504234
 21
683.597137572
 31
0.0
  0
LINE
  8
0
  6
LTYPE2
 62
     2
 10
1347.280833082
 20
653.960140308
 30
0.0
 11
1314.046814366
 21
687.194159024
 31
0.0
  0
LINE
  8
0
  6
LTYPE2
 62
     2
 10
1336.320677974
 20
666.334508979
 30
0.0
 11
1356.402510559
 21
686.416341565
 31
0.0
  0
LINE
  8
0
  6
CONTINUOUS
 62
     1
 10
1329.744584909
 20
674.890501032
 30
0.0
 11
1344.876670026
 21
659.758415914
 31
0.0
  0
LINE
  8
0
  6
CONTINUOUS
 62
     1
 10
1362.837182268
 20
674.890501032
 30
0.0
 11
1347.705097151
 21
659.758415914
 31
0.0
  0
ARC
  8
0
  6
CONTINUOUS
 62
     1
 10
1346.290883588
 20
661.172629476
 30
0.0
 40
2.0
 50
225.0
 51
315.0
  0
LINE
  8
0
  6
LTYPE2
 62
     2
 10
1315.531738607
 20
707.063859576
 30
0.0
 11
1356.543931916
 21
666.051666267
 31
0.0
  0
LINE
  8
0
  6
CONTINUOUS
 62
     1
 10
1312.77402216
 20
699.214974304
 30
0.0
 11
1332.007326609
 21
679.981669856
 31
0.0
  0
LINE
  8
0
  6
CONTINUOUS
 62
     1
 10
1325.501944222
 20
686.487052243
 30
0.0
 11
1316.663109457
 21
677.648217478
 31
0.0
  0
LINE
  8
0
  6
CONTINUOUS
 62
     1
 10
1344.876670026
 20
692.851013274
 30
0.0
 11
1329.744584909
 21
677.718928156
 31
0.0
  0
ARC
  8
0
  6
CONTINUOUS
 62
     1
 10
1331.158798471
 20
676.304714594
 30
0.0
 40
2.0
 50
135.0
 51
225.0
  0
LINE
  8
0
  6
CONTINUOUS
 62
     1
 10
1347.621128221
 20
734.062080365
 30
0.0
 11
1312.77402216
 21
699.214974304
 31
0.0
  0
LINE
  8
0
  6
CONTINUOUS
 62
     1
 10
1330.45169169
 20
702.75050821
 30
0.0
 11
1319.845089972
 21
692.143906492
 31
0.0
  0
LINE
  8
0
  6
CONTINUOUS
 62
     1
 10
1323.380623878
 20
709.821576022
 30
0.0
 11
1342.613928326
 21
690.588271574
 31
0.0
  0
LINE
  8
0
  6
LTYPE2
 62
     2
 10
1336.108545939
 20
707.841677035
 30
0.0
 11
1369.342564655
 21
674.607658319
 31
0.0
  0
LINE
  8
0
  6
CONTINUOUS
 62
     1
 10
1369.696118046
 20
681.183751384
 30
0.0
 11
1341.411846798
 21
709.468022632
 31
0.0
  0
LINE
  8
0
  6
CONTINUOUS
 62
     1
 10
1339.290526455
 20
711.589342975
 30
0.0
 11
1330.45169169
 21
702.75050821
 31
0.0
  0
LINE
  8
0
  6
CONTINUOUS
 62
     1
 10
1344.947380704
 20
705.932488726
 30
0.0
 11
1336.037835261
 21
697.022943283
 31
0.0
  0
LINE
  8
0
  6
CONTINUOUS
 62
     1
 10
1341.411846798
 20
709.468022632
 30
0.0
 11
1332.573012033
 21
700.629187867
 31
0.0
  0
LINE
  8
0
  6
CONTINUOUS
 62
     1
 10
1344.34633994
 20
719.615004942
 30
0.0
 11
1339.290526455
 21
711.589342975
 31
0.0
  0
LINE
  8
0
  6
CONTINUOUS
 62
     1
 10
1321.895699638
 20
689.951875471
 30
0.0
 11
1313.127575551
 21
681.183751384
 31
0.0
  0
ARC
  8
0
  6
CONTINUOUS
 62
     1
 10
1346.290883588
 20
691.436799711
 30
0.0
 40
2.0
 50
45.0
 51
135.0
  0
LINE
  8
0
  6
CONTINUOUS
 62
     1
 10
1347.705097151
 20
692.851013274
 30
0.0
 11
1362.837182268
 21
677.718928156
 31
0.0
  0
ARC
  8
0
  6
CONTINUOUS
 62
     1
 10
1361.422968706
 20
676.304714594
 30
0.0
 40
2.0
 50
315.0
 51
45.0
  0
LINE
  8
0
  6
LTYPE4
 62
     2
 10
1349.331442748
 20
718.801832143
 30
0.0
 11
1384.686781807
 21
754.157171203
 31
0.0
  0
ARC
  8
0
  6
LTYPE1
 62
     1
 10
1367.574797702
 20
737.045187098
 30
0.0
 40
16.0
 50
225.0
 51
99.340912304
  0
ARC
  8
0
  6
CONTINUOUS
 62
     1
 10
1367.574797702
 20
737.045187098
 30
0.0
 40
16.0
 50
99.340912304
 51
170.659087696
  0
LINE
  8
0
  6
CONTINUOUS
 62
     1
 10
1352.040545603
 20
727.167789248
 30
0.0
 11
1344.417050618
 21
719.544294263
 31
0.0
  0
LINE
  8
0
  6
LTYPE2
 62
     2
 10
1344.098852567
 20
732.236860986
 30
0.0
 11
1357.675302766
 21
718.660410787
 31
0.0
  0
LINE
  8
0
  6
LTYPE1
 62
     2
 10
1357.14497268
 20
731.565109544
 30
0.0
 11
1362.094720148
 21
726.615362075
 31
0.0
  0
ARC
  8
0
  6
LTYPE1
 62
     1
 10
1367.574797702
 20
737.045187098
 30
0.0
 40
16.0
 50
170.659087696
 51
225.0
  0
LINE
  8
0
  6
LTYPE1
 62
     1
 10
1348.48291461
 20
734.923866754
 30
0.0
 11
1347.621128221
 21
734.062080365
 31
0.0
  0
LINE
  8
0
  6
LTYPE1
 62
     1
 10
1354.13976886
 20
729.267012505
 30
0.0
 11
1352.040545603
 21
727.167789248
 31
0.0
  0
CIRCLE
  8
0
  6
CONTINUOUS
 62
     1
 10
1367.574797702
 20
737.045187098
 30
0.0
 40
6.49995
  0
LINE
  8
0
  6
CONTINUOUS
 62
     1
 10
1365.628189302
 20
729.799478053
 30
0.0
 11
1360.329088658
 21
735.098578698
 31
0.0
  0
LINE
  8
0
  6
CONTINUOUS
 62
     1
 10
1360.329088658
 20
735.098578698
 30
0.0
 11
1362.275697058
 21
742.344287742
 31
0.0
  0
LINE
  8
0
  6
CONTINUOUS
 62
     1
 10
1354.873776442
 20
729.293913306
 30
0.0
 11
1344.770604009
 21
719.190740873
 31
0.0
  0
LINE
  8
0
  6
LTYPE1
 62
     2
 10
1357.14497268
 20
731.565109544
 30
0.0
 11
1354.873776442
 21
729.293913306
 31
0.0
  0
LINE
  8
0
  6
CONTINUOUS
 62
     1
 10
1344.770604009
 20
719.190740873
 30
0.0
 11
1349.720351477
 21
714.240993405
 31
0.0
  0
LINE
  8
0
  6
LTYPE1
 62
     2
 10
1362.094720148
 20
726.615362075
 30
0.0
 11
1356.769322202
 21
721.289964129
 31
0.0
  0
LINE
  8
0
  6
CONTINUOUS
 62
     1
 10
1365.628189302
 20
729.799478053
 30
0.0
 11
1372.873898347
 21
731.746086453
 31
0.0
  0
CIRCLE
  8
0
  6
LTYPE1
 62
     2
 10
1367.574797702
 20
737.045187098
 30
0.0
 40
3.2
  0
CIRCLE
  8
0
  6
CONTINUOUS
 62
     1
 10
1367.574797702
 20
737.045187098
 30
0.0
 40
4.0
  0
LINE
  8
0
  6
CONTINUOUS
 62
     1
 10
1347.775807829
 20
735.630973535
 30
0.0
 11
1368.989011265
 21
756.844176971
 31
0.0
  0
LINE
  8
0
  6
LTYPE1
 62
     1
 10
1347.775807829
 20
735.630973535
 30
0.0
 11
1355.495056857
 21
727.911724507
 31
0.0
  0
LINE
  8
0
  6
CONTINUOUS
 62
     1
 10
1369.521406102
 20
744.290896142
 30
0.0
 11
1362.275697058
 21
742.344287742
 31
0.0
  0
LINE
  8
0
  6
CONTINUOUS
 62
     1
 10
1374.820506747
 20
738.991795498
 30
0.0
 11
1372.873898347
 21
731.746086453
 31
0.0
  0
LINE
  8
0
  6
CONTINUOUS
 62
     1
 10
1374.820506747
 20
738.991795498
 30
0.0
 11
1369.521406102
 21
744.290896142
 31
0.0
  0
LINE
  8
0
  6
LTYPE1
 62
     2
 10
1373.054875256
 20
747.47501212
 30
0.0
 11
1378.004622725
 21
742.525264652
 31
0.0
  0
LINE
  8
0
  6
LTYPE1
 62
     2
 10
1383.330020671
 20
747.850662598
 30
0.0
 11
1378.004622725
 21
742.525264652
 31
0.0
  0
LINE
  8
0
  6
LTYPE1
 62
     1
 10
1378.888506201
 20
746.944682034
 30
0.0
 11
1379.750292591
 21
747.806468424
 31
0.0
  0
LINE
  8
0
  6
LTYPE4
 62
     2
 10
1344.291179206
 20
760.328805594
 30
0.0
 11
1478.9087604
 21
625.7112244
 31
0.0
  0
LINE
  8
0
  6
CONTINUOUS
 62
     1
 10
1355.168426354
 20
719.689068281
 30
0.0
 11
1349.720351477
 21
714.240993405
 31
0.0
  0
LINE
  8
0
  6
CONTINUOUS
 62
     2
 10
1311.6199996
 20
673.840993405
 30
0.0
 11
1311.6199996
 21
491.517699523
 31
0.0
  0
LINE
  8
0
  6
LTYPE3
 62
     2
 10
1418.309709252
 20
599.689694852
 30
0.0
 11
1506.203082154
 21
687.583067754
 31
0.0
  0
LINE
  8
0
  6
CONTINUOUS
 62
     1
 10
1503.33929969
 20
682.597964946
 30
0.0
 11
1537.633978578
 21
648.303286059
 31
0.0
  0
LINE
  8
0
  6
CONTINUOUS
 62
     1
 10
1481.065436083
 20
704.871828554
 30
0.0
 11
1501.217979346
 21
684.71928529
 31
0.0
  0
LINE
  8
0
  6
CONTINUOUS
 62
     1
 10
1496.998679256
 20
680.4999852
 30
0.0
 11
1501.217979346
 21
684.71928529
 31
0.0
  0
LINE
  8
0
  6
CONTINUOUS
 62
     1
 10
1501.6199996
 20
680.878664856
 30
0.0
 11
1503.33929969
 21
682.597964946
 31
0.0
  0
LINE
  8
0
  6
CONTINUOUS
 62
     1
 10
1368.989011265
 20
756.844176971
 30
0.0
 11
1481.065436083
 21
704.871828554
 31
0.0
  0
ARC
  8
0
  6
CONTINUOUS
 62
     1
 10
1491.778103818
 20
711.836830349
 30
0.0
 40
2.0
 50
315.0
 51
45.0
  0
LINE
  8
0
  6
LTYPE3
 62
     2
 10
1401.6199996
 20
721.4999852
 30
0.0
 11
1401.6199996
 21
685.4999852
 31
0.0
  0
LINE
  8
0
  6
LTYPE3
 62
     2
 10
1384.1199996
 20
702.9999852
 30
0.0
 11
1418.1199996
 21
702.9999852
 31
0.0
  0
LINE
  8
0
  6
LTYPE2
 62
     2
 10
1370.686067539
 20
762.218188508
 30
0.0
 11
1385.959574013
 21
746.944682034
 31
0.0
  0
LINE
  8
0
  6
CONTINUOUS
 62
     1
 10
1370.557904435
 20
756.998856579
 30
0.0
 11
1405.405010496
 21
791.84596264
 31
0.0
  0
LINE
  8
0
  6
CONTINUOUS
 62
     1
 10
1377.452195552
 20
752.579439197
 30
0.0
 11
1385.075690537
 21
760.202934182
 31
0.0
  0
LINE
  8
0
  6
LTYPE1
 62
     1
 10
1375.352972295
 20
750.48021594
 30
0.0
 11
1377.452195552
 21
752.579439197
 31
0.0
  0
LINE
  8
0
  6
LTYPE1
 62
     2
 10
1377.245956074
 20
751.666092938
 30
0.0
 11
1375.706525686
 21
750.12666255
 31
0.0
  0
LINE
  8
0
  6
CONTINUOUS
 62
     1
 10
1385.429243927
 20
759.849380791
 30
0.0
 11
1375.326071494
 21
749.746208358
 31
0.0
  0
LINE
  8
0
  6
LTYPE1
 62
     1
 10
1368.989011265
 20
756.844176971
 30
0.0
 11
1376.708260293
 21
749.124927943
 31
0.0
  0
LINE
  8
0
  6
CONTINUOUS
 62
     1
 10
1385.429243927
 20
759.849380791
 30
0.0
 11
1390.378991395
 21
754.899633323
 31
0.0
  0
ARC
  8
0
  6
CONTINUOUS
 62
     1
 10
1461.6199996
 20
825.9999852
 30
0.0
 40
100.0
 50
220.682165828
 51
246.568265639
  0
LINE
  8
0
  6
CONTINUOUS
 62
     1
 10
1390.378991395
 20
754.899633323
 30
0.0
 11
1384.930916519
 21
749.451558446
 31
0.0
  0
LINE
  8
0
  6
CONTINUOUS
 62
     1
 10
1426.971767322
 20
787.956875343
 30
0.0
 11
1398.687496074
 21
759.672604096
 31
0.0
  0
LINE
  8
0
  6
CONTINUOUS
 62
     1
 10
1385.004979858
 20
760.27364486
 30
0.0
 11
1393.030641825
 21
765.329458345
 31
0.0
  0
LINE
  8
0
  6
CONTINUOUS
 62
     1
 10
1423.436233416
 20
791.492409249
 30
0.0
 11
1395.151962168
 21
763.208138002
 31
0.0
  0
LINE
  8
0
  6
CONTINUOUS
 62
     1
 10
1423.386365308
 20
784.371473329
 30
0.0
 11
1398.687496074
 21
759.672604096
 31
0.0
  0
LINE
  8
0
  6
LTYPE2
 62
     2
 10
1429.3052197
 20
735.984526926
 30
0.0
 11
1396.071200984
 21
769.218545642
 31
0.0
  0
LINE
  8
0
  6
CONTINUOUS
 62
     1
 10
1393.030641825
 20
765.329458345
 30
0.0
 11
1401.86947659
 21
774.16829311
 31
0.0
  0
LINE
  8
0
  6
CONTINUOUS
 62
     1
 10
1394.798408778
 20
781.239360922
 30
0.0
 11
1403.990796933
 21
772.046972767
 31
0.0
  0
LINE
  8
0
  6
LTYPE2
 62
     2
 10
1396.141911662
 20
790.502459756
 30
0.0
 11
1437.154104971
 21
749.490266447
 31
0.0
  0
LINE
  8
0
  6
CONTINUOUS
 62
     1
 10
1405.405010496
 20
791.84596264
 30
0.0
 11
1414.597398651
 21
782.653574484
 31
0.0
  0
LINE
  8
0
  6
LTYPE2
 62
     2
 10
1418.132932557
 20
789.866063652
 30
0.0
 11
1451.366951273
 21
756.632044937
 31
0.0
  0
LINE
  8
0
  6
CONTINUOUS
 62
     1
 10
1451.720504663
 20
763.208138002
 30
0.0
 11
1423.436233416
 21
791.492409249
 31
0.0
  0
CIRCLE
  8
0
  6
CONTINUOUS
 62
     1
 10
1422.304862566
 20
764.339508852
 30
0.0
 40
9.36
  0
LINE
  8
0
  6
LTYPE2
 62
     2
 10
1431.497250721
 20
773.531897007
 30
0.0
 11
1413.112474411
 21
755.147120696
 31
0.0
  0
CIRCLE
  8
0
  6
CONTINUOUS
 62
     2
 10
1422.304862566
 20
764.339508852
 30
0.0
 40
10.47
  0
LINE
  8
0
  6
CONTINUOUS
 62
     1
 10
1420.254252901
 20
755.783516799
 30
0.0
 11
1429.446641056
 21
746.591128644
 31
0.0
  0
LINE
  8
0
  6
CONTINUOUS
 62
     1
 10
1430.860854618
 20
766.390118517
 30
0.0
 11
1440.053242774
 21
757.197730362
 31
0.0
  0
LINE
  8
0
  6
CONTINUOUS
 62
     1
 10
1418.486485948
 20
739.873614223
 30
0.0
 11
1427.325320712
 21
748.712448987
 31
0.0
  0
LINE
  8
0
  6
CONTINUOUS
 62
     1
 10
1448.892077539
 20
766.036565126
 30
0.0
 11
1420.607806291
 21
737.752293879
 31
0.0
  0
LINE
  8
0
  6
CONTINUOUS
 62
     1
 10
1459.145125866
 20
762.14747783
 30
0.0
 11
1426.959575826
 21
729.96192779
 31
0.0
  0
LINE
  8
0
  6
CONTINUOUS
 62
     1
 10
1421.16251937
 20
732.650152708
 30
0.0
 11
1454.902485179
 21
766.390118517
 31
0.0
  0
LINE
  8
0
  6
CONTINUOUS
 62
     1
 10
1454.902485179
 20
766.390118517
 30
0.0
 11
1459.145125866
 21
762.14747783
 31
0.0
  0
LINE
  8
0
  6
CONTINUOUS
 62
     2
 10
1311.6199996
 20
497.517699523
 30
0.0
 11
1323.211109515
 21
494.411870982
 31
0.0
  0
LINE
  8
0
  6
CONTINUOUS
 62
     2
 10
1311.6199996
 20
497.517699523
 30
0.0
 11
1323.211109515
 21
500.623528065
 31
0.0
  0
LINE
  8
0
  6
CONTINUOUS
 62
     2
 10
1311.6199996
 20
497.517699523
 30
0.0
 11
1461.6199996
 21
497.517699523
 31
0.0
  0
TEXT
  8
0
  6
CONTINUOUS
 62
     3
 10
1356.6699996
 20
506.517699523
 30
0.0
 40
18.0
  1
１５０
 50
0.0
 41
0.9
 51
0.0
  7
KANJI24
  0
LINE
  8
0
  6
CONTINUOUS
 62
     2
 10
1461.6199996
 20
497.517699523
 30
0.0
 11
1450.028889685
 21
500.623528065
 31
0.0
  0
LINE
  8
0
  6
CONTINUOUS
 62
     2
 10
1461.6199996
 20
497.517699523
 30
0.0
 11
1450.028889685
 21
494.411870982
 31
0.0
  0
LINE
  8
0
  6
CONTINUOUS
 62
     2
 10
1461.6199996
 20
510.817699523
 30
0.0
 11
1461.6199996
 21
491.517699523
 31
0.0
  0
LINE
  8
0
  6
CONTINUOUS
 62
     2
 10
1366.6199996
 20
547.999992829
 30
0.0
 11
1366.6199996
 21
528.0499852
 31
0.0
  0
LINE
  8
0
  6
CONTINUOUS
 62
     2
 10
1366.6199996
 20
457.282270877
 30
0.0
 11
1378.211109515
 21
454.176442335
 31
0.0
  0
LINE
  8
0
  6
CONTINUOUS
 62
     2
 10
1366.6199996
 20
457.282270877
 30
0.0
 11
1378.211109515
 21
460.388099418
 31
0.0
  0
LINE
  8
0
  6
CONTINUOUS
 62
     2
 10
1366.6199996
 20
457.282270877
 30
0.0
 11
1556.6199996
 21
457.282270877
 31
0.0
  0
LINE
  8
0
  6
CONTINUOUS
 62
     2
 10
1366.6199996
 20
495.2499852
 30
0.0
 11
1366.6199996
 21
451.282270877
 31
0.0
  0
LINE
  8
0
  6
CONTINUOUS
 62
     2
 10
1447.7199518
 20
521.9999852
 30
0.0
 11
1320.0699518
 21
402.0499852
 31
0.0
  0
LINE
  8
0
  6
CONTINUOUS
 62
     2
 10
1461.6199996
 20
547.4999852
 30
0.0
 11
1330.7199996
 21
443.6999852
 31
0.0
  0
LINE
  8
0
  6
CONTINUOUS
 62
     2
 10
1447.7199518
 20
521.9999852
 30
0.0
 11
1441.399821651
 21
511.799203127
 31
0.0
  0
LINE
  8
0
  6
CONTINUOUS
 62
     2
 10
1447.7199518
 20
521.9999852
 30
0.0
 11
1437.1461675
 21
516.32591386
 31
0.0
  0
LINE
  8
0
  6
CONTINUOUS
 62
     2
 10
1461.6199996
 20
547.4999852
 30
0.0
 11
1454.46755816
 21
537.864499668
 31
0.0
  0
LINE
  8
0
  6
CONTINUOUS
 62
     2
 10
1461.6199996
 20
547.4999852
 30
0.0
 11
1450.608060848
 21
542.731630671
 31
0.0
  0
LINE
  8
0
  6
CONTINUOUS
 62
     2
 10
1556.6199996
 20
457.282270877
 30
0.0
 11
1545.028889685
 21
460.388099418
 31
0.0
  0
LINE
  8
0
  6
CONTINUOUS
 62
     2
 10
1556.6199996
 20
457.282270877
 30
0.0
 11
1545.028889685
 21
454.176442335
 31
0.0
  0
LINE
  8
0
  6
CONTINUOUS
 62
     2
 10
1556.6199996
 20
548.000000459
 30
0.0
 11
1556.6199996
 21
451.282270877
 31
0.0
  0
TEXT
  8
0
  6
CONTINUOUS
 62
     3
 10
1437.3199996
 20
466.282270877
 30
0.0
 40
18.0
  1
１９０
 50
0.0
 41
0.9
 51
0.0
  7
KANJI24
  0
TEXT
  8
0
  6
CONTINUOUS
 62
     3
 10
1249.7199996
 20
452.6999852
 30
0.0
 40
18.0
  1
ＰＦ１／２
 50
0.0
 41
0.9
 51
0.0
  7
KANJI24
  0
LINE
  8
0
  6
CONTINUOUS
 62
     2
 10
1330.7199996
 20
443.6999852
 30
0.0
 11
1245.619938
 21
443.6999852
 31
0.0
  0
TEXT
  8
0
  6
CONTINUOUS
 62
     3
 10
1222.8699518
 20
411.0499852
 30
0.0
 40
18.0
  1
推力リミッタ
 50
0.0
 41
0.9
 51
0.0
  7
KANJI24
  0
LINE
  8
0
  6
CONTINUOUS
 62
     2
 10
1320.0699518
 20
402.0499852
 30
0.0
 11
1222.8699518
 21
402.0499852
 31
0.0
  0
CIRCLE
  8
0
  6
CONTINUOUS
 62
     1
 10
1092.1199996
 20
642.9999852
 30
0.0
 40
28.0
  0
CIRCLE
  8
0
  6
CONTINUOUS
 62
     1
 10
1092.1199996
 20
660.4999852
 30
0.0
 40
2.5
  0
LINE
  8
0
  6
CONTINUOUS
 62
     1
 10
1096.3199996
 20
623.6999852
 30
0.0
 11
1094.3199996
 21
623.3999852
 31
0.0
  0
LINE
  8
0
  6
CONTINUOUS
 62
     1
 10
1094.055384215
 20
626.530754431
 30
0.0
 11
1096.3199996
 21
623.6999852
 31
0.0
  0
LINE
  8
0
  6
CONTINUOUS
 62
     1
 10
1092.1199996
 20
626.0999852
 30
0.0
 11
1094.3199996
 21
623.3999852
 31
0.0
  0
LINE
  8
0
  6
CONTINUOUS
 62
     1
 10
1093.8199996
 20
628.0999852
 30
0.0
 11
1094.055384215
 21
626.530754431
 31
0.0
  0
LINE
  8
0
  6
CONTINUOUS
 62
     1
 10
1092.1199996
 20
626.0999852
 30
0.0
 11
1089.9199996
 21
623.3999852
 31
0.0
  0
LINE
  8
0
  6
CONTINUOUS
 62
     1
 10
1090.4199996
 20
628.0999852
 30
0.0
 11
1090.184614985
 21
626.530754431
 31
0.0
  0
LINE
  8
0
  6
CONTINUOUS
 62
     1
 10
1087.9199996
 20
623.6999852
 30
0.0
 11
1089.9199996
 21
623.3999852
 31
0.0
  0
LINE
  8
0
  6
CONTINUOUS
 62
     1
 10
1090.184614985
 20
626.530754431
 30
0.0
 11
1087.9199996
 21
623.6999852
 31
0.0
  0
LINE
  8
0
  6
CONTINUOUS
 62
     6
 10
356.629425053
 20
1631.447759827
 30
0.0
 11
124.584646507
 21
1631.447759827
 31
0.0
  0
LINE
  8
0
  6
CONTINUOUS
 62
     3
 10
356.629425053
 20
1603.985259827
 30
0.0
 11
124.584646507
 21
1603.985259827
 31
0.0
  0
LINE
  8
0
  6
CONTINUOUS
 62
     6
 10
356.629425053
 20
1603.985259827
 30
0.0
 11
124.584646507
 21
1603.985259827
 31
0.0
  0
TEXT
  8
0
  6
CONTINUOUS
 62
     6
 10
382.212228
 20
1628.900410728
 30
1.232517
 40
13.182
  1
電気定格　　　
 50
0.0
 41
0.85
 51
0.0
  7
KANJI41
  0
TEXT
  8
0
  6
CONTINUOUS
 62
     6
 10
128.493517202
 20
1634.64592676
 30
1.0647
 40
11.661
  1
ＬＳ０１　　　：推力リミッタ（前進時過負荷用）
 50
0.0
 41
0.822608696
 51
0.0
  7
KANJI42
  0
TEXT
  8
0
  6
CONTINUOUS
 62
     6
 10
128.493517202
 20
1607.18342676
 30
1.0647
 40
11.661
  1
ＬＳ０２　　　：推力リミッタ（後進時過負荷用）
 50
0.0
 41
0.822608696
 51
0.0
  7
KANJI42
  0
TEXT
  8
0
  6
CONTINUOUS
 62
     6
 10
395.013715102
 20
1598.326958599
 30
0.0
 40
11.8638
  1
ＤＣ１２５Ｖ　０．６Ａ　，ＤＣ２５０Ｖ　０．３Ａ　
 50
0.0
 41
0.726495726
 51
0.0
  7
KANJI43
  0
LINE
  8
0
  6
LTYPE3
 62
     6
 10
655.02
 20
1658.9
 30
0.0
 11
106.62
 21
1658.9
 31
0.0
  0
TEXT
  8
0
  6
CONTINUOUS
 62
     6
 10
389.757132178
 20
1646.661726126
 30
0.0
 40
45.0
  1
｝
 50
0.0
 41
0.538166667
 51
0.0
  7
KANJI44
  0
TEXT
  8
0
  6
CONTINUOUS
 62
     6
 10
319.632791539
 20
1417.92382165
 30
0.0
 40
17.740702234
  1
端子台　接続図
 50
0.0
 41
0.880962996
 51
0.0
  7
KANJI45
  0
LINE
  8
0
  6
LTYPE3
 62
     6
 10
655.02
 20
1399.9
 30
0.0
 11
655.02
 21
1658.9
 31
0.0
  0
LINE
  8
0
  6
LTYPE3
 62
     6
 10
106.62
 20
1399.9
 30
0.0
 11
655.02
 21
1399.9
 31
0.0
  0
LINE
  8
0
  6
LTYPE3
 62
     6
 10
106.62
 20
1658.9
 30
0.0
 11
106.62
 21
1399.9
 31
0.0
  0
LINE
  8
0
  6
CONTINUOUS
 62
     2
 10
354.597373465
 20
1468.928121884
 30
0.0
 11
354.597373465
 21
1446.149155128
 31
0.0
  0
LINE
  8
0
  6
CONTINUOUS
 62
     2
 10
381.17283468
 20
1468.928121884
 30
0.0
 11
381.17283468
 21
1446.149155128
 31
0.0
  0
LINE
  8
0
  6
CONTINUOUS
 62
     2
 10
407.748295894
 20
1468.928121884
 30
0.0
 11
407.748295894
 21
1446.149155128
 31
0.0
  0
LINE
  8
0
  6
CONTINUOUS
 62
     2
 10
434.323757109
 20
1468.928121884
 30
0.0
 11
434.323757109
 21
1446.149155128
 31
0.0
  0
CIRCLE
  8
0
  6
CONTINUOUS
 62
     6
 10
426.404269667
 20
1492.407921517
 30
0.0
 40
4.100214016
  0
LINE
  8
0
  6
CONTINUOUS
 62
     6
 10
422.304055651
 20
1492.407921517
 30
0.0
 11
421.036026502
 21
1492.407921517
 31
0.0
  0
LINE
  8
0
  6
CONTINUOUS
 62
     6
 10
447.358027433
 20
1506.094562742
 30
0.0
 11
443.443558096
 21
1483.759507138
 31
0.0
  0
LINE
  8
0
  6
CONTINUOUS
 62
     6
 10
442.631699663
 20
1506.882284037
 30
0.0
 11
438.716922494
 21
1484.547279739
 31
0.0
  0
LINE
  8
0
  6
CONTINUOUS
 62
     6
 10
443.443558096
 20
1483.759507138
 30
0.0
 11
438.716922494
 21
1484.547279739
 31
0.0
  0
CIRCLE
  8
0
  6
CONTINUOUS
 62
     6
 10
447.611487717
 20
1482.939464335
 30
0.0
 40
4.100214016
  0
LINE
  8
0
  6
CONTINUOUS
 62
     6
 10
447.611487717
 20
1478.839250319
 30
0.0
 11
447.611487717
 21
1468.928121884
 31
0.0
  0
LINE
  8
0
  6
CONTINUOUS
 62
     6
 10
421.036026502
 20
1492.407921517
 30
0.0
 11
421.036026502
 21
1468.928121884
 31
0.0
  0
LINE
  8
0
  6
CONTINUOUS
 62
     6
 10
394.460565287
 20
1468.928121884
 30
0.0
 11
394.460565287
 21
1522.633332504
 31
0.0
  0
LINE
  8
0
  6
CONTINUOUS
 62
     6
 10
314.987641926
 20
1506.094562742
 30
0.0
 11
318.902111263
 21
1483.759507138
 31
0.0
  0
LINE
  8
0
  6
CONTINUOUS
 62
     6
 10
319.713969696
 20
1506.882284037
 30
0.0
 11
323.628746865
 21
1484.547279739
 31
0.0
  0
LINE
  8
0
  6
CONTINUOUS
 62
     6
 10
318.902111263
 20
1483.759507138
 30
0.0
 11
323.628746865
 21
1484.547279739
 31
0.0
  0
CIRCLE
  8
0
  6
CONTINUOUS
 62
     6
 10
314.734181642
 20
1482.939464335
 30
0.0
 40
4.100214016
  0
CIRCLE
  8
0
  6
CONTINUOUS
 62
     6
 10
335.941399692
 20
1492.407921517
 30
0.0
 40
4.100214016
  0
LINE
  8
0
  6
CONTINUOUS
 62
     6
 10
340.041613708
 20
1492.407921517
 30
0.0
 11
341.309642857
 21
1492.407921517
 31
0.0
  0
LINE
  8
0
  6
CONTINUOUS
 62
     6
 10
314.734181642
 20
1478.839250319
 30
0.0
 11
314.734181642
 21
1468.928121884
 31
0.0
  0
LINE
  8
0
  6
CONTINUOUS
 62
     6
 10
341.309642857
 20
1492.407921517
 30
0.0
 11
341.309642857
 21
1468.928121884
 31
0.0
  0
LINE
  8
0
  6
CONTINUOUS
 62
     6
 10
367.885104072
 20
1468.928121884
 30
0.0
 11
367.885104072
 21
1522.633332504
 31
0.0
  0
LINE
  8
0
  6
CONTINUOUS
 62
     2
 10
460.899218324
 20
1468.928121884
 30
0.0
 11
460.899218324
 21
1446.149155128
 31
0.0
  0
LINE
  8
0
  6
CONTINUOUS
 62
     2
 10
301.446451035
 20
1468.928121884
 30
0.0
 11
301.446451035
 21
1446.149155128
 31
0.0
  0
LINE
  8
0
  6
CONTINUOUS
 62
     2
 10
328.02191225
 20
1468.928121884
 30
0.0
 11
328.02191225
 21
1446.149155128
 31
0.0
  0
LINE
  8
0
  6
CONTINUOUS
 62
     6
 10
447.611487717
 20
1522.633332504
 30
0.0
 11
394.460565287
 21
1522.633332504
 31
0.0
  0
CIRCLE
  8
0
  6
CONTINUOUS
 62
     6
 10
447.611487717
 20
1510.28941042
 30
0.0
 40
4.100214016
  0
LINE
  8
0
  6
CONTINUOUS
 62
     6
 10
447.358027433
 20
1506.094562742
 30
0.0
 11
442.631699663
 21
1506.882284037
 31
0.0
  0
LINE
  8
0
  6
CONTINUOUS
 62
     6
 10
447.611487717
 20
1514.389624436
 30
0.0
 11
447.611487717
 21
1522.633332504
 31
0.0
  0
CIRCLE
  8
0
  6
CONTINUOUS
 62
     6
 10
314.734181642
 20
1510.28941042
 30
0.0
 40
4.100214016
  0
LINE
  8
0
  6
CONTINUOUS
 62
     6
 10
314.987641926
 20
1506.094562742
 30
0.0
 11
319.713969696
 21
1506.882284037
 31
0.0
  0
LINE
  8
0
  6
CONTINUOUS
 62
     6
 10
314.734181642
 20
1514.389624436
 30
0.0
 11
314.734181642
 21
1522.633332504
 31
0.0
  0
LINE
  8
0
  6
CONTINUOUS
 62
     6
 10
367.885104072
 20
1522.633332504
 30
0.0
 11
314.734181642
 21
1522.633332504
 31
0.0
  0
TEXT
  8
0
  6
CONTINUOUS
 62
     6
 10
319.4972152
 20
1527.152473273
 30
0.819
 40
11.7
  1
ＬＳ０１
 50
0.0
 41
0.8
 51
0.0
  7
KANJI46
  0
TEXT
  8
0
  6
CONTINUOUS
 62
     6
 10
402.117398844
 20
1527.152473273
 30
0.819
 40
11.7
  1
ＬＳ０２
 50
0.0
 41
0.8
 51
0.0
  7
KANJI46
  0
TEXT
  8
0
  6
CONTINUOUS
 62
     3
 10
147.308775989
 20
1449.945649587
 30
0.0
 40
15.0
  1
　　　　　　　　　　　　　　　　　　１　　２　　　３　　　４　　　５　　　６
 50
0.0
 41
0.911
 51
0.0
  7
KANJI47
  0
LINE
  8
0
  6
CONTINUOUS
 62
     2
 10
301.446451035
 20
1468.928121884
 30
0.0
 11
460.899218324
 21
1468.928121884
 31
0.0
  0
LINE
  8
0
  6
CONTINUOUS
 62
     2
 10
301.446451035
 20
1446.149155128
 30
0.0
 11
460.899218324
 21
1446.149155128
 31
0.0
  0
TEXT
  8
0
  6
CONTINUOUS
 62
     6
 10
293.132791539
 20
1556.92382165
 30
0.0
 40
17.740702234
  1
推力リミッタ端子台配列
 50
0.0
 41
0.880962996
 51
0.0
  7
KANJI45
  0
TEXT
  8
0
  6
CONTINUOUS
 62
     6
 10
395.013715102
 20
1614.071931782
 30
0.0
 40
11.8638
  1
ＡＣ１００Ｖ　１２５Ｖ　２５０Ｖ　－１０Ａ
 50
0.0
 41
0.726495726
 51
0.0
  7
KANJI43
  0
LINE
  8
0
  6
LTYPE3
 62
     6
 10
148.708333
 20
1243.133317
 30
0.0
 11
148.708333
 21
1226.732460936
 31
0.0
  0
LINE
  8
0
  6
LTYPE3
 62
     6
 10
279.105262694
 20
1243.133317
 30
0.0
 11
148.708333
 21
1243.133317
 31
0.0
  0
TEXT
  8
0
  6
CONTINUOUS
 62
     6
 10
131.173590591
 20
1229.648168681
 30
1.093390404
 40
10.933904043
  1
Ｕ
 50
0.0
 41
0.9
 51
0.0
  7
KANJI48
  0
CIRCLE
  8
0
  6
CONTINUOUS
 62
     6
 10
148.708333
 20
1223.452289723
 30
0.0
 40
4.373561617
  0
LINE
  8
0
  6
CONTINUOUS
 62
     6
 10
143.68354931
 20
1218.427506033
 30
0.0
 11
153.888526417
 21
1228.63248314
 31
0.0
  0
TEXT
  8
0
  6
CONTINUOUS
 62
     6
 10
158.953806047
 20
1251.799448352
 30
1.518597784
 40
15.185977837
  1
エコノストップモータ
 50
0.0
 41
0.66671875
 51
0.0
  7
KANJI49
  0
CIRCLE
  8
0
  6
CONTINUOUS
 62
     6
 10
193.537339575
 20
1197.939846957
 30
0.0
 40
18.223173404
  0
TEXT
  8
0
  6
CONTINUOUS
 62
     6
 10
185.883606745
 20
1189.192723723
 30
1.82231734
 40
18.223173404
  1
Ｍ
 50
0.0
 41
0.9
 51
0.0
  7
KANJI50
  0
LINE
  8
0
  6
CONTINUOUS
 62
     6
 10
169.482750681
 20
1172.427404191
 30
0.0
 11
180.781118192
 21
1185.548089042
 31
0.0
  0
LINE
  8
0
  6
CONTINUOUS
 62
     6
 10
169.482750681
 20
1223.452289723
 30
0.0
 11
180.781118192
 21
1210.331604872
 31
0.0
  0
LINE
  8
0
  6
CONTINUOUS
 62
     6
 10
169.482750681
 20
1223.452289723
 30
0.0
 11
153.081894617
 21
1223.452289723
 31
0.0
  0
LINE
  8
0
  6
CONTINUOUS
 62
     6
 10
175.678629639
 20
1197.939846957
 30
0.0
 11
153.081894617
 21
1197.939846957
 31
0.0
  0
LINE
  8
0
  6
CONTINUOUS
 62
     6
 10
169.482750681
 20
1172.427404191
 30
0.0
 11
153.081894617
 21
1172.427404191
 31
0.0
  0
TEXT
  8
0
  6
CONTINUOUS
 62
     6
 10
132.266980995
 20
1203.771262446
 30
1.093390404
 40
10.933904043
  1
Ｖ
 50
0.0
 41
0.9
 51
0.0
  7
KANJI48
  0
TEXT
  8
0
  6
CONTINUOUS
 62
     6
 10
133.360371399
 20
1177.894356212
 30
1.093390404
 40
10.933904043
  1
Ｗ
 50
0.0
 41
0.9
 51
0.0
  7
KANJI48
  0
CIRCLE
  8
0
  6
CONTINUOUS
 62
     6
 10
148.708333
 20
1197.939846957
 30
0.0
 40
4.373561617
  0
LINE
  8
0
  6
CONTINUOUS
 62
     6
 10
143.68354931
 20
1192.915063267
 30
0.0
 11
153.888526417
 21
1203.120040374
 31
0.0
  0
LINE
  8
0
  6
LTYPE3
 62
     6
 10
148.708333
 20
1219.443191574
 30
0.0
 11
148.708333
 21
1201.22001817
 31
0.0
  0
CIRCLE
  8
0
  6
CONTINUOUS
 62
     6
 10
148.708333
 20
1172.427404191
 30
0.0
 40
4.373561617
  0
LINE
  8
0
  6
CONTINUOUS
 62
     6
 10
143.68354931
 20
1167.402620501
 30
0.0
 11
153.888526417
 21
1177.607597607
 31
0.0
  0
LINE
  8
0
  6
LTYPE3
 62
     6
 10
148.708333
 20
1193.930748808
 30
0.0
 11
148.708333
 21
1176.800965808
 31
0.0
  0
LINE
  8
0
  6
LTYPE3
 62
     6
 10
148.708333
 20
1168.053842574
 30
0.0
 11
148.708333
 21
1147.721584891
 31
0.0
  0
TEXT
  8
0
  6
CONTINUOUS
 62
     6
 10
219.778709277
 20
1189.684749405
 30
1.457853872
 40
14.578538724
  1
Ｂ
 50
0.0
 41
0.9
 51
0.0
  7
KANJI51
  0
CIRCLE
  8
0
  6
CONTINUOUS
 62
     6
 10
226.339051703
 20
1197.939846957
 30
0.0
 40
14.578538724
  0
LINE
  8
0
  6
LTYPE3
 62
     6
 10
279.105262694
 20
1147.721584891
 30
0.0
 11
148.708333
 21
1147.721584891
 31
0.0
  0
LINE
  8
0
  6
LTYPE3
 62
     6
 10
279.105262694
 20
1147.721584891
 30
0.0
 11
279.105262694
 21
1243.133317
 31
0.0
  0
TEXT
  8
0
  6
CONTINUOUS
 62
     2
 10
153.803726364
 20
1122.512221811
 30
0.0
 40
15.6
  1
モーター結線図
 50
0.0
 41
0.925
 51
0.0
  7
KANJI52
  0
LINE
  8
0
  6
CONTINUOUS
 62
     2
 10
394.5199996
 20
1257.6999852
 30
0.0
 11
402.24740621
 21
1255.629432839
 31
0.0
  0
LINE
  8
0
  6
CONTINUOUS
 62
     2
 10
394.5199996
 20
1257.6999852
 30
0.0
 11
402.24740621
 21
1259.770537561
 31
0.0
  0
LINE
  8
0
  6
CONTINUOUS
 62
     2
 10
394.5199996
 20
1257.6999852
 30
0.0
 11
532.1199996
 21
1257.6999852
 31
0.0
  0
LINE
  8
0
  6
CONTINUOUS
 62
     2
 10
532.1199996
 20
1257.6999852
 30
0.0
 11
524.39259299
 21
1259.770537561
 31
0.0
  0
LINE
  8
0
  6
CONTINUOUS
 62
     2
 10
532.1199996
 20
1257.6999852
 30
0.0
 11
524.39259299
 21
1255.629432839
 31
0.0
  0
LINE
  8
0
  6
CONTINUOUS
 62
     2
 10
532.1199996
 20
1256.4999852
 30
0.0
 11
532.1199996
 21
1253.6999852
 31
0.0
  0
LINE
  8
0
  6
CONTINUOUS
 62
     2
 10
532.1199996
 20
1257.6999852
 30
0.0
 11
539.84740621
 21
1255.629432839
 31
0.0
  0
LINE
  8
0
  6
CONTINUOUS
 62
     2
 10
532.1199996
 20
1257.6999852
 30
0.0
 11
539.84740621
 21
1259.770537561
 31
0.0
  0
LINE
  8
0
  6
CONTINUOUS
 62
     2
 10
532.1199996
 20
1257.6999852
 30
0.0
 11
734.5199996
 21
1257.6999852
 31
0.0
  0
LINE
  8
0
  6
CONTINUOUS
 62
     2
 10
734.5199996
 20
1257.6999852
 30
0.0
 11
726.79259299
 21
1259.770537561
 31
0.0
  0
LINE
  8
0
  6
CONTINUOUS
 62
     2
 10
734.5199996
 20
1257.6999852
 30
0.0
 11
726.79259299
 21
1255.629432839
 31
0.0
  0
LINE
  8
0
  6
CONTINUOUS
 62
     2
 10
532.1199996
 20
1231.370537561
 30
0.0
 11
524.39259299
 21
1233.441089922
 31
0.0
  0
LINE
  8
0
  6
CONTINUOUS
 62
     2
 10
532.1199996
 20
1231.370537561
 30
0.0
 11
524.39259299
 21
1229.2999852
 31
0.0
  0
LINE
  8
0
  6
CONTINUOUS
 62
     2
 10
520.1199996
 20
1231.370537561
 30
0.0
 11
532.1199996
 21
1231.370537561
 31
0.0
  0
LINE
  8
0
  6
CONTINUOUS
 62
     2
 10
532.1199996
 20
1231.370537561
 30
0.0
 11
552.9199996
 21
1231.370537561
 31
0.0
  0
LINE
  8
0
  6
CONTINUOUS
 62
     2
 10
552.9199996
 20
1231.370537561
 30
0.0
 11
560.64740621
 21
1229.2999852
 31
0.0
  0
LINE
  8
0
  6
CONTINUOUS
 62
     2
 10
552.9199996
 20
1231.370537561
 30
0.0
 11
560.64740621
 21
1233.441089922
 31
0.0
  0
LINE
  8
0
  6
CONTINUOUS
 62
     2
 10
394.5199996
 20
1206.0999852
 30
0.0
 11
394.5199996
 21
1200.0999852
 31
0.0
  0
LINE
  8
0
  6
CONTINUOUS
 62
     2
 10
394.5199996
 20
1204.0999852
 30
0.0
 11
402.24740621
 21
1202.029432839
 31
0.0
  0
LINE
  8
0
  6
CONTINUOUS
 62
     2
 10
394.5199996
 20
1204.0999852
 30
0.0
 11
402.24740621
 21
1206.170537561
 31
0.0
  0
LINE
  8
0
  6
CONTINUOUS
 62
     2
 10
394.5199996
 20
1204.0999852
 30
0.0
 11
552.9199996
 21
1204.0999852
 31
0.0
  0
LINE
  8
0
  6
CONTINUOUS
 62
     2
 10
552.9199996
 20
1204.0999852
 30
0.0
 11
545.19259299
 21
1206.170537561
 31
0.0
  0
LINE
  8
0
  6
CONTINUOUS
 62
     2
 10
552.9199996
 20
1204.0999852
 30
0.0
 11
545.19259299
 21
1202.029432839
 31
0.0
  0
LINE
  8
0
  6
CONTINUOUS
 62
     2
 10
552.9199996
 20
1205.2999852
 30
0.0
 11
552.9199996
 21
1200.0999852
 31
0.0
  0
LINE
  8
0
  6
CONTINUOUS
 62
     2
 10
552.9199996
 20
1204.0999852
 30
0.0
 11
560.64740621
 21
1202.029432839
 31
0.0
  0
LINE
  8
0
  6
CONTINUOUS
 62
     2
 10
552.9199996
 20
1204.0999852
 30
0.0
 11
560.64740621
 21
1206.170537561
 31
0.0
  0
LINE
  8
0
  6
CONTINUOUS
 62
     2
 10
734.5199996
 20
1200.4999852
 30
0.0
 11
734.5199996
 21
1200.0999852
 31
0.0
  0
LINE
  8
0
  6
CONTINUOUS
 62
     2
 10
394.5199996
 20
1174.8999852
 30
0.0
 11
402.24740621
 21
1172.829432839
 31
0.0
  0
LINE
  8
0
  6
CONTINUOUS
 62
     2
 10
394.5199996
 20
1174.8999852
 30
0.0
 11
402.24740621
 21
1176.970537561
 31
0.0
  0
LINE
  8
0
  6
CONTINUOUS
 62
     2
 10
394.5199996
 20
1174.8999852
 30
0.0
 11
712.1199996
 21
1174.8999852
 31
0.0
  0
LINE
  8
0
  6
CONTINUOUS
 62
     2
 10
712.1199996
 20
1174.8999852
 30
0.0
 11
704.39259299
 21
1176.970537561
 31
0.0
  0
LINE
  8
0
  6
CONTINUOUS
 62
     2
 10
712.1199996
 20
1174.8999852
 30
0.0
 11
704.39259299
 21
1172.829432839
 31
0.0
  0
LINE
  8
0
  6
CONTINUOUS
 62
     2
 10
712.1199996
 20
1175.6999852
 30
0.0
 11
712.1199996
 21
1170.8999852
 31
0.0
  0
LINE
  8
0
  6
CONTINUOUS
 62
     2
 10
712.1199996
 20
1174.8999852
 30
0.0
 11
704.39259299
 21
1176.970537561
 31
0.0
  0
LINE
  8
0
  6
CONTINUOUS
 62
     2
 10
712.1199996
 20
1174.8999852
 30
0.0
 11
704.39259299
 21
1172.829432839
 31
0.0
  0
LINE
  8
0
  6
CONTINUOUS
 62
     2
 10
700.1199996
 20
1174.8999852
 30
0.0
 11
712.1199996
 21
1174.8999852
 31
0.0
  0
LINE
  8
0
  6
CONTINUOUS
 62
     2
 10
712.1199996
 20
1174.8999852
 30
0.0
 11
734.5199996
 21
1174.8999852
 31
0.0
  0
LINE
  8
0
  6
CONTINUOUS
 62
     2
 10
734.5199996
 20
1174.8999852
 30
0.0
 11
742.24740621
 21
1172.829432839
 31
0.0
  0
LINE
  8
0
  6
CONTINUOUS
 62
     2
 10
734.5199996
 20
1174.8999852
 30
0.0
 11
742.24740621
 21
1176.970537561
 31
0.0
  0
LINE
  8
0
  6
CONTINUOUS
 62
     2
 10
394.5199996
 20
1268.4999852
 30
0.0
 11
394.5199996
 21
1253.6999852
 31
0.0
  0
LINE
  8
0
  6
CONTINUOUS
 62
     2
 10
734.5199996
 20
1268.4999852
 30
0.0
 11
734.5199996
 21
1253.6999852
 31
0.0
  0
LINE
  8
0
  6
CONTINUOUS
 62
     2
 10
532.1199996
 20
1257.2999852
 30
0.0
 11
532.1199996
 21
1268.4999852
 31
0.0
  0
LINE
  8
0
  6
CONTINUOUS
 62
     2
 10
552.9199996
 20
1244.170537561
 30
0.0
 11
552.9199996
 21
1227.370537561
 31
0.0
  0
LINE
  8
0
  6
CONTINUOUS
 62
     2
 10
394.5199996
 20
1253.6999852
 30
0.0
 11
394.5199996
 21
1161.6999852
 31
0.0
  0
LINE
  8
0
  6
CONTINUOUS
 62
     2
 10
734.5199996
 20
1257.6999852
 30
0.0
 11
734.5199996
 21
1162.8999852
 31
0.0
  0
LINE
  8
0
  6
CONTINUOUS
 62
     2
 10
552.9199996
 20
1231.370537561
 30
0.0
 11
552.9199996
 21
1194.8999852
 31
0.0
  0
LINE
  8
0
  6
CONTINUOUS
 62
     2
 10
532.1199996
 20
1257.6999852
 30
0.0
 11
532.1199996
 21
1222.0999852
 31
0.0
  0
TEXT
  8
0
  6
CONTINUOUS
 62
     3
 10
436.3199996
 20
1259.6999852
 30
0.0
 40
15.0
  1
ｍｉｎ．Ｌ
 50
0.0
 41
0.9
 51
0.0
  7
KANJI33
  0
TEXT
  8
0
  6
CONTINUOUS
 62
     3
 10
590.1199996
 20
1259.6999852
 30
0.0
 40
15.0
  1
機械的ストローク
 50
0.0
 41
0.9
 51
0.0
  7
KANJI33
  0
TEXT
  8
0
  6
CONTINUOUS
 62
     3
 10
564.9199996
 20
1233.370537561
 30
0.0
 40
15.0
  1
余裕
 50
0.0
 41
0.9
 51
0.0
  7
KANJI33
  0
TEXT
  8
0
  6
CONTINUOUS
 62
     3
 10
446.7199996
 20
1206.0999852
 30
0.0
 40
15.0
  1
常用ｍｉｎ
 50
0.0
 41
0.9
 51
0.0
  7
KANJI33
  0
TEXT
  8
0
  6
CONTINUOUS
 62
     3
 10
526.3199996
 20
1176.8999852
 30
0.0
 40
15.0
  1
常用ｍａｘ
 50
0.0
 41
0.9
 51
0.0
  7
KANJI33
  0
TEXT
  8
0
  6
CONTINUOUS
 62
     3
 10
746.5199996
 20
1176.8999852
 30
0.0
 40
15.0
  1
余裕
 50
0.0
 41
0.9
 51
0.0
  7
KANJI33
  0
LINE
  8
0
  6
CONTINUOUS
 62
     2
 10
552.9199996
 20
1231.370537561
 30
0.0
 11
593.0199996
 21
1231.370537561
 31
0.0
  0
LINE
  8
0
  6
CONTINUOUS
 62
     2
 10
734.5199996
 20
1174.8999852
 30
0.0
 11
777.0199996
 21
1174.8999852
 31
0.0
  0
LINE
  8
0
  6
CONTINUOUS
 62
     2
 10
712.1199996
 20
1217.8999852
 30
0.0
 11
712.1199996
 21
1162.0999852
 31
0.0
  0
LINE
  8
0
  6
CONTINUOUS
 62
     2
 10
552.9199996
 20
1204.0999852
 30
0.0
 11
712.1199996
 21
1204.0999852
 31
0.0
  0
LINE
  8
0
  6
CONTINUOUS
 62
     2
 10
712.1199996
 20
1204.0999852
 30
0.0
 11
704.39259299
 21
1206.170537561
 31
0.0
  0
LINE
  8
0
  6
CONTINUOUS
 62
     2
 10
712.1199996
 20
1204.0999852
 30
0.0
 11
704.39259299
 21
1202.029432839
 31
0.0
  0
TEXT
  8
0
  6
CONTINUOUS
 62
     3
 10
589.9199996
 20
1206.0999852
 30
0.0
 40
15.0
  1
常用ストローク
 50
0.0
 41
0.9
 51
0.0
  7
KANJI33
  0
ARC
  8
0
  6
CONTINUOUS
 62
     1
 10
1461.6199996
 20
825.9999852
 30
0.0
 40
71.0
 50
263.180922556
 51
0.0
  0
LINE
  8
0
  6
CONTINUOUS
 62
     1
 10
1395.151962168
 20
763.208138002
 30
0.0
 11
1423.436233416
 21
734.923866754
 31
0.0
  0
LINE
  8
0
  6
CONTINUOUS
 62
     1
 10
1365.913096766
 20
667.996209915
 30
0.0
 11
1385.71208664
 21
648.197220042
 31
0.0
  0
LINE
  8
0
  6
CONTINUOUS
 62
     1
 10
1365.913096766
 20
667.996209915
 30
0.0
 11
1374.949281376
 21
677.032394525
 31
0.0
  0
ARC
  8
0
  6
CONTINUOUS
 62
     1
 10
1384.297873077
 20
646.783006479
 30
0.0
 40
2.0
 50
315.0
 51
45.0
  0
LINE
  8
0
  6
CONTINUOUS
 62
     1
 10
1372.984164578
 20
632.640870856
 30
0.0
 11
1385.71208664
 21
645.368792917
 31
0.0
  0
ARC
  8
0
  6
CONTINUOUS
 62
     1
 10
1374.398378141
 20
631.226657293
 30
0.0
 40
2.0
 50
135.0
 51
225.0
  0
LINE
  8
0
  6
CONTINUOUS
 62
     1
 10
1436.623774885
 20
738.706888034
 30
0.0
 11
1456.422764758
 21
718.90789816
 31
0.0
  0
LINE
  8
0
  6
CONTINUOUS
 62
     1
 10
1436.623774885
 20
738.706888034
 30
0.0
 11
1427.587590275
 21
729.670703424
 31
0.0
  0
ARC
  8
0
  6
CONTINUOUS
 62
     1
 10
1457.836978321
 20
720.322111723
 30
0.0
 40
2.0
 50
225.0
 51
315.0
  0
LINE
  8
0
  6
CONTINUOUS
 62
     1
 10
1471.979113944
 20
731.635820222
 30
0.0
 11
1459.251191883
 21
718.90789816
 31
0.0
  0
ARC
  8
0
  6
CONTINUOUS
 62
     1
 10
1473.393327507
 20
730.221606659
 30
0.0
 40
2.0
 50
45.000437132
 51
135.0
  0
LINE
  8
0
  6
CONTINUOUS
 62
     1
 10
1474.80753028
 20
731.635831011
 30
0.0
 11
1493.19231738
 21
713.251043911
 31
0.0
  0
ARC
  8
0
  6
CONTINUOUS
 62
     1
 10
1461.6199996
 20
825.9999852
 30
0.0
 40
100.0
 50
279.969989864
 51
63.896118863
  0
ARC
  8
0
  6
CONTINUOUS
 62
     1
 10
1461.6199996
 20
825.9999852
 30
0.0
 40
100.0
 50
262.438585238
 51
272.774486522
  0
LINE
  8
0
  6
CONTINUOUS
 62
     1
 10
1366.6199996
 20
684.25986983
 30
0.0
 11
1366.6199996
 21
694.994179036
 31
0.0
  0
LINE
  8
0
  6
CONTINUOUS
 62
     1
 10
1366.6199996
 20
754.475165306
 30
0.0
 11
1366.6199996
 21
794.774995208
 31
0.0
  0
LINE
  8
0
  6
CONTINUOUS
 62
     2
 10
1350.8099924
 20
753.8099924
 30
0.0
 11
1349.935518835
 21
765.778087319
 31
0.0
  0
LINE
  8
0
  6
CONTINUOUS
 62
     2
 10
1350.8099924
 20
753.8099924
 30
0.0
 11
1344.068628618
 21
763.737429852
 31
0.0
  0
LINE
  8
0
  6
CONTINUOUS
 62
     2
 10
1350.8099924
 20
753.8099924
 30
0.0
 11
1286.8099924
 21
937.8099924
 31
0.0
  0
TEXT
  8
0
  6
CONTINUOUS
 62
     3
 10
1157.2099924
 20
946.8099924
 30
0.0
 40
18.0
  1
ＬＳユニット組付位置
 50
0.0
 41
0.9
 51
0.0
  7
KANJI24
  0
LINE
  8
0
  6
CONTINUOUS
 62
     2
 10
1322.8099924
 20
937.8099924
 30
0.0
 11
1157.2099924
 21
937.8099924
 31
0.0
  0
LINE
  8
0
  6
CONTINUOUS
 62
     2
 10
1433.12
 20
766.89
 30
0.0
 11
1445.083200407
 21
765.950938758
 31
0.0
  0
LINE
  8
0
  6
CONTINUOUS
 62
     2
 10
1433.12
 20
766.89
 30
0.0
 11
1443.949966084
 21
772.058349313
 31
0.0
  0
LINE
  8
0
  6
CONTINUOUS
 62
     2
 10
1723.93
 20
820.85
 30
0.0
 11
1837.33
 21
820.85
 31
0.0
  0
TEXT
  8
0
  6
CONTINUOUS
 62
     3
 10
1723.93
 20
829.85
 30
0.0
 40
18.0
  1
２－ＰＦ１／２
 50
0.0
 41
0.9
 51
0.0
  7
KANJI24
  0
LINE
  8
0
  6
CONTINUOUS
 62
     2
 10
1672.83
 20
811.368359066
 30
0.0
 11
1723.93
 21
820.85
 31
0.0
  0
LINE
  8
0
  6
CONTINUOUS
 62
     2
 10
1433.12
 20
766.89
 30
0.0
 11
1642.93
 21
805.82039304
 31
0.0
  0
TEXT
  8
0
  6
CONTINUOUS
 62
     2
 10
1055.133
 20
1533.99
 30
1.617
 40
16.17
  1
注意：サーマルリレー等の選定は、上記の値で選定して下さい。
 50
0.0
 41
0.9
 51
0.0
  7
KANJI53
  0
LINE
  8
0
  6
CONTINUOUS
 62
     2
 10
1045.893
 20
1529.37
 30
0.0
 11
1513.95
 21
1529.37
 31
0.0
  0
LINE
  8
0
  6
CONTINUOUS
 62
     1
 10
931.345007504
 20
210.233959796
 30
0.0
 11
931.345007504
 21
192.0
 31
0.0
  0
TEXT
  8
0
  6
CONTINUOUS
 62
     2
 10
1648.5200334
 20
126.899994
 30
1.8
 40
21.0
  1
０７．１０．０５
 50
0.0
 41
0.571428571
 51
0.0
  7
KANJI54
  0
LINE
  8
0
  6
CONTINUOUS
 62
     2
 10
1873.92
 20
896.7
 30
0.0
 11
2398.92
 21
896.7
 31
0.0
  0
LINE
  8
0
  6
CONTINUOUS
 62
     2
 10
1873.92
 20
854.7
 30
0.0
 11
2398.92
 21
854.7
 31
0.0
  0
LINE
  8
0
  6
CONTINUOUS
 62
     2
 10
1921.92
 20
1232.7
 30
0.0
 11
1921.92
 21
896.7
 31
0.0
  0
TEXT
  8
0
  6
CONTINUOUS
 62
     2
 10
1906.92
 20
865.5
 30
79.962857143
 40
22.8
  1
付属品
 50
0.0
 41
0.9
 51
0.0
  7
KANJI55
  0
TEXT
  8
0
  6
CONTINUOUS
 62
     2
 10
1906.92
 20
823.5
 30
180.445714286
 40
22.8
  1
台数
 50
0.0
 41
0.9
 51
0.0
  7
KANJI56
  0
LINE
  8
0
  6
CONTINUOUS
 62
     1
 10
1873.92
 20
1628.7
 30
0.0
 11
2398.92
 21
1628.7
 31
0.0
  0
TEXT
  8
0
  6
CONTINUOUS
 62
     2
 10
1948.92
 20
1584.9
 30
17.09964
 40
27.0
  1
マイティシリンダ仕様
 50
0.0
 41
0.9
 51
0.0
  7
KANJI57
  0
LINE
  8
0
  6
CONTINUOUS
 62
     2
 10
1921.92
 20
938.7
 30
0.0
 11
2398.92
 21
938.7
 31
0.0
  0
LINE
  8
0
  6
CONTINUOUS
 62
     2
 10
1921.92
 20
1064.7
 30
0.0
 11
2398.92
 21
1064.7
 31
0.0
  0
LINE
  8
0
  6
CONTINUOUS
 62
     2
 10
1921.92
 20
1106.7
 30
0.0
 11
2398.92
 21
1106.7
 31
0.0
  0
LINE
  8
0
  6
CONTINUOUS
 62
     2
 10
1873.92
 20
1316.7
 30
0.0
 11
2398.92
 21
1316.7
 31
0.0
  0
LINE
  8
0
  6
CONTINUOUS
 62
     2
 10
1873.92
 20
1274.7
 30
0.0
 11
2398.92
 21
1274.7
 31
0.0
  0
LINE
  8
0
  6
CONTINUOUS
 62
     2
 10
1873.92
 20
1232.7
 30
0.0
 11
2398.92
 21
1232.7
 31
0.0
  0
LINE
  8
0
  6
CONTINUOUS
 62
     2
 10
1921.92
 20
1148.7
 30
0.0
 11
2398.92
 21
1148.7
 31
0.0
  0
LINE
  8
0
  6
CONTINUOUS
 62
     2
 10
1921.92
 20
1190.7
 30
0.0
 11
2398.92
 21
1190.7
 31
0.0
  0
LINE
  8
0
  6
CONTINUOUS
 62
     2
 10
1873.92
 20
1526.7
 30
0.0
 11
2398.92
 21
1526.7
 31
0.0
  0
LINE
  8
0
  6
CONTINUOUS
 62
     2
 10
1873.92
 20
1484.7
 30
0.0
 11
2398.92
 21
1484.7
 31
0.0
  0
LINE
  8
0
  6
CONTINUOUS
 62
     2
 10
1873.92
 20
1442.7
 30
0.0
 11
2398.92
 21
1442.7
 31
0.0
  0
LINE
  8
0
  6
CONTINUOUS
 62
     2
 10
1873.92
 20
1400.7
 30
0.0
 11
2398.92
 21
1400.7
 31
0.0
  0
LINE
  8
0
  6
CONTINUOUS
 62
     2
 10
1873.92
 20
1358.7
 30
0.0
 11
2398.92
 21
1358.7
 31
0.0
  0
LINE
  8
0
  6
CONTINUOUS
 62
     2
 10
1873.92
 20
1568.7
 30
0.0
 11
2398.92
 21
1568.7
 31
0.0
  0
TEXT
  8
0
  6
CONTINUOUS
 62
     2
 10
1948.92
 20
1159.5
 30
33.439782857
 40
22.8
  1
電源電圧
 50
0.0
 41
0.9
 51
0.0
  7
KANJI58
  0
TEXT
  8
0
  6
CONTINUOUS
 62
     2
 10
1948.92
 20
1117.5
 30
60.42
 40
22.8
  1
周波数
 50
0.0
 41
0.9
 51
0.0
  7
KANJI59
  0
TEXT
  8
0
  6
CONTINUOUS
 62
     2
 10
1948.92
 20
1075.5
 30
141.36
 40
22.8
  1
電流
 50
0.0
 41
0.9
 51
0.0
  7
KANJI60
  0
TEXT
  8
0
  6
CONTINUOUS
 62
     2
 10
1948.92
 20
1033.5
 30
60.42
 40
22.8
  1
絶縁級
 50
0.0
 41
0.9
 51
0.0
  7
KANJI59
  0
TEXT
  8
0
  6
CONTINUOUS
 62
     2
 10
1906.92
 20
1537.5
 30
180.445714286
 40
22.8
  1
形式
 50
0.0
 41
0.9
 51
0.0
  7
KANJI56
  0
TEXT
  8
0
  6
CONTINUOUS
 62
     2
 10
1906.92
 20
1495.5
 30
180.445714286
 40
22.8
  1
推力
 50
0.0
 41
0.9
 51
0.0
  7
KANJI56
  0
TEXT
  8
0
  6
CONTINUOUS
 62
     2
 10
1906.92
 20
1453.5
 30
29.721428571
 40
22.8
  1
ストローク
 50
0.0
 41
0.9
 51
0.0
  7
KANJI61
  0
TEXT
  8
0
  6
CONTINUOUS
 62
     2
 10
1906.92
 20
1327.5
 30
180.445714286
 40
22.8
  1
構造
 50
0.0
 41
0.9
 51
0.0
  7
KANJI56
  0
TEXT
  8
0
  6
CONTINUOUS
 62
     2
 10
1906.92
 20
1285.5
 30
12.973851429
 40
22.8
  1
過負荷安全装置
 50
0.0
 41
0.9
 51
0.0
  7
KANJI62
  0
TEXT
  8
0
  6
CONTINUOUS
 62
     2
 10
1906.92
 20
1243.5
 30
79.962857143
 40
22.8
  1
塗装色
 50
0.0
 41
0.9
 51
0.0
  7
KANJI55
  0
TEXT
  8
0
  6
CONTINUOUS
 62
     2
 10
1882.92
 20
1369.5
 30
1.954285714
 40
22.8
  1
ピストンロッド回転トルク
 50
0.0
 41
0.9
 51
0.0
  7
KANJI63
  0
LINE
  8
0
  6
CONTINUOUS
 62
     2
 10
1873.92
 20
1022.7
 30
0.0
 11
2398.92
 21
1022.7
 31
0.0
  0
LINE
  8
0
  6
CONTINUOUS
 62
     2
 10
1921.92
 20
980.7
 30
0.0
 11
2398.92
 21
980.7
 31
0.0
  0
TEXT
  8
0
  6
CONTINUOUS
 62
     2
 10
1898.37
 20
1226.7
 30
13.2
 40
21.0
  1
モ　トル仕様
 50
0.0
 41
0.9
 51
0.0
  7
KANJI64
  0
TEXT
  8
0
  6
CONTINUOUS
 62
     2
 10
1898.37
 20
1004.7
 30
1.2
 40
21.0
  1
ブレ　キ
 50
0.0
 41
0.9
 51
0.0
  7
KANJI65
  0
LINE
  8
0
  6
CONTINUOUS
 62
     2
 10
1896.72
 20
954.9
 30
0.0
 11
1896.72
 21
942.3
 31
0.0
  0
TEXT
  8
0
  6
CONTINUOUS
 62
     2
 10
2208.42
 20
1286.7
 30
9.0
 40
21.0
  1
推力リミッタ
 50
0.0
 41
0.9
 51
0.0
  7
KANJI66
  0
TEXT
  8
0
  6
CONTINUOUS
 62
     2
 10
2265.42
 20
1034.7
 30
1.8
 40
18.0
  1
Ｅ
 50
0.0
 41
0.9
 51
0.0
  7
KANJI67
  0
TEXT
  8
0
  6
CONTINUOUS
 62
     2
 10
2221.92
 20
949.5
 30
12.0
 40
21.0
  1
同時切り
 50
0.0
 41
0.9
 51
0.0
  7
KANJI68
  0
TEXT
  8
0
  6
CONTINUOUS
 62
     2
 10
1948.92
 20
991.5
 30
141.36
 40
22.8
  1
形式
 50
0.0
 41
0.9
 51
0.0
  7
KANJI60
  0
TEXT
  8
0
  6
CONTINUOUS
 62
     2
 10
1948.92
 20
949.5
 30
33.439782857
 40
22.8
  1
操作方式
 50
0.0
 41
0.9
 51
0.0
  7
KANJI58
  0
LINE
  8
0
  6
CONTINUOUS
 62
     2
 10
1896.72
 20
1190.1
 30
0.0
 11
1896.72
 21
1176.3
 31
0.0
  0
TEXT
  8
0
  6
CONTINUOUS
 62
     2
 10
1948.92
 20
1201.5
 30
3.0
 40
22.8
  1
出力　相数　極数
 50
0.0
 41
0.9
 51
0.0
  7
KANJI69
  0
TEXT
  8
0
  6
CONTINUOUS
 62
     2
 10
1906.92
 20
1411.5
 30
12.0
 40
22.8
  1
公称速度
 50
0.0
 41
0.9
 51
0.0
  7
KANJI70
  0
TEXT
  8
0
  6
CONTINUOUS
 62
     2
 10
2030.82
 20
1410.3
 30
0.0
 40
21.0
  1
（５０／６０Ｈｚ）
 50
0.0
 41
0.628571429
 51
0.0
  7
KANJI71
  0
TEXT
  8
0
  6
CONTINUOUS
 62
     2
 10
2151.42
 20
991.95
 30
3.3
 40
20.4
  1
スプリング制動式電磁ブレーキ
 50
0.0
 41
0.705882353
 51
0.0
  7
KANJI72
  0
TEXT
  8
0
  6
CONTINUOUS
 62
     2
 10
2370.42
 20
1159.5
 30
0.216
 40
18.0
  1
Ｖ
 50
0.0
 41
0.8
 51
0.0
  7
KANJI73
  0
TEXT
  8
0
  6
CONTINUOUS
 62
     2
 10
2359.62
 20
1117.5
 30
0.216
 40
18.0
  1
Ｈｚ
 50
0.0
 41
0.8
 51
0.0
  7
KANJI73
  0
TEXT
  8
0
  6
CONTINUOUS
 62
     2
 10
2370.42
 20
1075.5
 30
0.216
 40
18.0
  1
Ａ
 50
0.0
 41
0.8
 51
0.0
  7
KANJI73
  0
TEXT
  8
0
  6
CONTINUOUS
 62
     2
 10
2291.52
 20
1202.7
 30
1.8
 40
18.0
  1
３φ
 50
0.0
 41
0.9
 51
0.0
  7
KANJI67
  0
TEXT
  8
0
  6
CONTINUOUS
 62
     2
 10
2351.52
 20
1202.7
 30
1.8
 40
18.0
  1
４Ｐ
 50
0.0
 41
0.9
 51
0.0
  7
KANJI67
  0
TEXT
  8
0
  6
CONTINUOUS
 62
     2
 10
2149.92
 20
1244.7
 30
1.2
 40
19.2
  1
マンセル　７．５ＧＹ　５／４．５
 50
0.0
 41
0.71875
 51
0.0
  7
KANJI74
  0
TEXT
  8
0
  6
CONTINUOUS
 62
     2
 10
2149.92
 20
1160.7
 30
1.8
 40
18.0
  1
　　　　　　　／　　　
 50
0.0
 41
0.9
 51
0.0
  7
KANJI67
  0
TEXT
  8
0
  6
CONTINUOUS
 62
     2
 10
2149.92
 20
1118.7
 30
1.8
 40
18.0
  1
　　　　５０／　６０
 50
0.0
 41
0.9
 51
0.0
  7
KANJI67
  0
TEXT
  8
0
  6
CONTINUOUS
 62
     2
 10
2149.92
 20
1076.7
 30
1.8
 40
18.0
  1
　　　　　　　／　　　
 50
0.0
 41
0.9
 51
0.0
  7
KANJI67
  0
TEXT
  8
0
  6
CONTINUOUS
 62
     2
 10
2354.52
 20
1455.9
 30
0.1536
 40
19.2
  1
ｍｍ
 50
0.0
 41
0.8
 51
0.0
  7
KANJI75
  0
TEXT
  8
0
  6
CONTINUOUS
 62
     2
 10
2208.42
 20
1328.7
 30
9.0
 40
21.0
  1
全閉屋内形
 50
0.0
 41
0.9
 51
0.0
  7
KANJI66
  0
TEXT
  8
0
  6
CONTINUOUS
 62
     2
 10
2315.52
 20
1412.7
 30
0.0
 40
21.0
  1
ｍｍ／ｓｅｃ
 50
0.0
 41
0.571428571
 51
0.0
  7
KANJI76
  0
TEXT
  8
0
  6
CONTINUOUS
 62
     2
 10
2155.92
 20
1202.7
 30
1.8
 40
18.0
  1
　１．１ＫＷ
 50
0.0
 41
0.9
 51
0.0
  7
KANJI67
  0
TEXT
  8
0
  6
CONTINUOUS
 62
     2
 10
2193.72
 20
1496.7
 30
1.8
 40
18.0
  1
３９．２ＫＮ（４ｔｏｎ）
 50
0.0
 41
0.9
 51
0.0
  7
KANJI67
  0
TEXT
  8
0
  6
CONTINUOUS
 62
     2
 10
2152.92
 20
1412.7
 30
1.8
 40
18.0
  1
　１２．５／１５
 50
0.0
 41
0.9
 51
0.0
  7
KANJI67
  0
TEXT
  8
0
  6
CONTINUOUS
 62
     2
 10
2163.42
 20
1536.6
 30
1.2
 40
18.0
  1
ＭＣＬＤ４－　Ｌ
 50
0.0
 41
0.833333333
 51
0.0
  7
KANJI77
  0
LINE
  8
0
  6
CONTINUOUS
 62
     1
 10
1873.92
 20
770.7
 30
0.0
 11
2398.92
 21
770.7
 31
0.0
  0
LINE
  8
0
  6
CONTINUOUS
 62
     2
 10
1873.92
 20
812.7
 30
0.0
 11
2398.92
 21
812.7
 31
0.0
  0
TEXT
  8
0
  6
CONTINUOUS
 62
     2
 10
2343.72
 20
782.88
 30
0.0
 40
21.0
  1
ｋｇ
 50
0.0
 41
0.9
 51
0.0
  7
KANJI78
  0
TEXT
  8
0
  6
CONTINUOUS
 62
     2
 10
1905.72
 20
781.5
 30
6.0
 40
21.0
  1
概算重量（１台当り）
 50
0.0
 41
0.857142857
 51
0.0
  7
KANJI79
  0
TEXT
  8
0
  6
CONTINUOUS
 62
     2
 10
2182.92
 20
1370.7
 30
0.0
 40
18.0
  1
７８Ｎ・ｍ（８ｋｇ・ｍ）
 50
0.0
 41
0.833333333
 51
0.0
  7
KANJI80
  0
LINE
  8
0
  6
CONTINUOUS
 62
     1
 10
1873.92
 20
1628.7
 30
0.0
 11
1873.92
 21
770.7
 31
0.0
  0
LINE
  8
0
  6
CONTINUOUS
 62
     2
 10
2149.92
 20
1568.7
 30
0.0
 11
2149.92
 21
770.7
 31
0.0
  0
LINE
  8
0
  6
CONTINUOUS
 62
     1
 10
2398.92
 20
1628.7
 30
0.0
 11
2398.92
 21
770.7
 31
0.0
  0
ENDSEC
  0
EOF
