  0
SECTION
  2
HEADER
  9
$ACADVER
  1
AC1009
  9
$DWGCODEPAGE
  3
dos932
  9
$EXTMIN
 10
0.0
 20
0.0
 30
0.0
  9
$EXTMAX
 10
2520.0
 20
1782.0
 30
0.0
  9
$LIMMIN
 10
0.0
 20
0.0
  9
$LIMMAX
 10
2520.0
 20
1782.0
  9
$LTSCALE
 40
1.0
  9
$PDMODE
 70
     0
  0
ENDSEC
  0
SECTION
  2
TABLES
  0
TABLE
  2
VPORT
 70
     1
  0
VPORT
  2
*ACTIVE
 70
     0
 10
0.0
 20
0.0
 11
1.0
 21
1.0
 12
1260.0
 22
891.0
 13
0.0
 23
0.0
 14
10.0
 24
10.0
 15
10.0
 25
10.0
 16
0.0
 26
0.0
 36
1.0
 17
0.0
 27
0.0
 37
0.0
 40
2520.0
 41
1.414141414
 42
50.0
 43
0.0
 44
0.0
 50
0.0
 51
0.0
 71
     0
 72
  1000
 73
     1
 74
     3
 75
     0
 76
     0
 77
     0
 78
     0
  0
ENDTAB
  0
TABLE
  2
LTYPE
 70
     7
  0
LTYPE
  2
CONTINUOUS
 70
    64
  3
Solid line
 72
    65
 73
     0
 40
0.0
  0
LTYPE
  2
LTYPE1
 70
    64
  3
HIDDEN
 72
    65
 73
     2
 40
18.0
 49
10.8
 49
-7.2
  0
LTYPE
  2
LTYPE2
 70
    64
  3
CENTER
 72
    65
 73
     4
 40
90.0
 49
63.0
 49
-9.0
 49
9.0
 49
-9.0
  0
LTYPE
  2
LTYPE3
 70
    64
  3
CENTER
 72
    65
 73
     4
 40
60.0
 49
42.0
 49
-6.0
 49
6.0
 49
-6.0
  0
LTYPE
  2
LTYPE4
 70
    64
  3
PHANTOM
 72
    65
 73
     6
 40
60.0
 49
45.0
 49
-3.0
 49
3.0
 49
-3.0
 49
3.0
 49
-3.0
  0
LTYPE
  2
LTYPE5
 70
    64
  3
PHANTOM
 72
    65
 73
     6
 40
90.0
 49
67.5
 49
-4.5
 49
4.5
 49
-4.5
 49
4.5
 49
-4.5
  0
LTYPE
  2
LTYPE6
 70
    64
  3
CENTER
 72
    65
 73
     4
 40
54.0
 49
37.8
 49
-5.4
 49
5.4
 49
-5.4
  0
ENDTAB
  0
TABLE
  2
LAYER
 70
   128
  0
LAYER
  2
0
 70
     0
 62
     7
  6
CONTINUOUS
  0
LAYER
  2
2
 70
     0
 62
     7
  6
CONTINUOUS
  0
LAYER
  2
3
 70
     0
 62
     7
  6
CONTINUOUS
  0
LAYER
  2
4
 70
     0
 62
     7
  6
CONTINUOUS
  0
LAYER
  2
5
 70
     0
 62
     7
  6
CONTINUOUS
  0
LAYER
  2
6
 70
     0
 62
     7
  6
CONTINUOUS
  0
LAYER
  2
7
 70
     0
 62
     7
  6
CONTINUOUS
  0
LAYER
  2
8
 70
     0
 62
     7
  6
CONTINUOUS
  0
LAYER
  2
9
 70
     0
 62
     7
  6
CONTINUOUS
  0
LAYER
  2
10
 70
     0
 62
     7
  6
CONTINUOUS
  0
LAYER
  2
11
 70
     0
 62
     7
  6
CONTINUOUS
  0
LAYER
  2
12
 70
     0
 62
     7
  6
CONTINUOUS
  0
LAYER
  2
13
 70
     0
 62
     7
  6
CONTINUOUS
  0
LAYER
  2
14
 70
     0
 62
     7
  6
CONTINUOUS
  0
LAYER
  2
15
 70
     0
 62
     7
  6
CONTINUOUS
  0
LAYER
  2
16
 70
     0
 62
     7
  6
CONTINUOUS
  0
LAYER
  2
17
 70
     0
 62
     7
  6
CONTINUOUS
  0
LAYER
  2
18
 70
     0
 62
     7
  6
CONTINUOUS
  0
LAYER
  2
19
 70
     0
 62
     7
  6
CONTINUOUS
  0
LAYER
  2
20
 70
     0
 62
     7
  6
CONTINUOUS
  0
LAYER
  2
21
 70
     0
 62
     7
  6
CONTINUOUS
  0
LAYER
  2
22
 70
     0
 62
     7
  6
CONTINUOUS
  0
LAYER
  2
23
 70
     0
 62
     7
  6
CONTINUOUS
  0
LAYER
  2
24
 70
     0
 62
     7
  6
CONTINUOUS
  0
LAYER
  2
25
 70
     0
 62
     7
  6
CONTINUOUS
  0
LAYER
  2
26
 70
     0
 62
     7
  6
CONTINUOUS
  0
LAYER
  2
27
 70
     0
 62
     7
  6
CONTINUOUS
  0
LAYER
  2
28
 70
     0
 62
     7
  6
CONTINUOUS
  0
LAYER
  2
29
 70
     0
 62
     7
  6
CONTINUOUS
  0
LAYER
  2
30
 70
     0
 62
     7
  6
CONTINUOUS
  0
LAYER
  2
31
 70
     0
 62
     7
  6
CONTINUOUS
  0
LAYER
  2
32
 70
     0
 62
     7
  6
CONTINUOUS
  0
LAYER
  2
33
 70
     0
 62
     7
  6
CONTINUOUS
  0
LAYER
  2
34
 70
     0
 62
     7
  6
CONTINUOUS
  0
LAYER
  2
35
 70
     0
 62
     7
  6
CONTINUOUS
  0
LAYER
  2
36
 70
     0
 62
     7
  6
CONTINUOUS
  0
LAYER
  2
37
 70
     0
 62
     7
  6
CONTINUOUS
  0
LAYER
  2
38
 70
     0
 62
     7
  6
CONTINUOUS
  0
LAYER
  2
39
 70
     0
 62
     7
  6
CONTINUOUS
  0
LAYER
  2
40
 70
     0
 62
     7
  6
CONTINUOUS
  0
LAYER
  2
41
 70
     0
 62
     7
  6
CONTINUOUS
  0
LAYER
  2
42
 70
     0
 62
     7
  6
CONTINUOUS
  0
LAYER
  2
43
 70
     0
 62
     7
  6
CONTINUOUS
  0
LAYER
  2
44
 70
     0
 62
     7
  6
CONTINUOUS
  0
LAYER
  2
45
 70
     0
 62
     7
  6
CONTINUOUS
  0
LAYER
  2
46
 70
     0
 62
     7
  6
CONTINUOUS
  0
LAYER
  2
47
 70
     0
 62
     7
  6
CONTINUOUS
  0
LAYER
  2
48
 70
     0
 62
     7
  6
CONTINUOUS
  0
LAYER
  2
49
 70
     0
 62
     7
  6
CONTINUOUS
  0
LAYER
  2
50
 70
     0
 62
     7
  6
CONTINUOUS
  0
LAYER
  2
51
 70
     0
 62
     7
  6
CONTINUOUS
  0
LAYER
  2
52
 70
     0
 62
     7
  6
CONTINUOUS
  0
LAYER
  2
53
 70
     0
 62
     7
  6
CONTINUOUS
  0
LAYER
  2
54
 70
     0
 62
     7
  6
CONTINUOUS
  0
LAYER
  2
55
 70
     0
 62
     7
  6
CONTINUOUS
  0
LAYER
  2
56
 70
     0
 62
     7
  6
CONTINUOUS
  0
LAYER
  2
57
 70
     0
 62
     7
  6
CONTINUOUS
  0
LAYER
  2
58
 70
     0
 62
     7
  6
CONTINUOUS
  0
LAYER
  2
59
 70
     0
 62
     7
  6
CONTINUOUS
  0
LAYER
  2
60
 70
     0
 62
     7
  6
CONTINUOUS
  0
LAYER
  2
61
 70
     0
 62
     7
  6
CONTINUOUS
  0
LAYER
  2
62
 70
     0
 62
     7
  6
CONTINUOUS
  0
LAYER
  2
63
 70
     0
 62
     7
  6
CONTINUOUS
  0
LAYER
  2
64
 70
     0
 62
     7
  6
CONTINUOUS
  0
LAYER
  2
65
 70
     0
 62
     7
  6
CONTINUOUS
  0
LAYER
  2
66
 70
     0
 62
     7
  6
CONTINUOUS
  0
LAYER
  2
67
 70
     0
 62
     7
  6
CONTINUOUS
  0
LAYER
  2
68
 70
     0
 62
     7
  6
CONTINUOUS
  0
LAYER
  2
69
 70
     0
 62
     7
  6
CONTINUOUS
  0
LAYER
  2
70
 70
     0
 62
     7
  6
CONTINUOUS
  0
LAYER
  2
71
 70
     0
 62
     7
  6
CONTINUOUS
  0
LAYER
  2
72
 70
     0
 62
     7
  6
CONTINUOUS
  0
LAYER
  2
73
 70
     0
 62
     7
  6
CONTINUOUS
  0
LAYER
  2
74
 70
     0
 62
     7
  6
CONTINUOUS
  0
LAYER
  2
75
 70
     0
 62
     7
  6
CONTINUOUS
  0
LAYER
  2
76
 70
     0
 62
     7
  6
CONTINUOUS
  0
LAYER
  2
77
 70
     0
 62
     7
  6
CONTINUOUS
  0
LAYER
  2
78
 70
     0
 62
     7
  6
CONTINUOUS
  0
LAYER
  2
79
 70
     0
 62
     7
  6
CONTINUOUS
  0
LAYER
  2
80
 70
     0
 62
     7
  6
CONTINUOUS
  0
LAYER
  2
81
 70
     0
 62
     7
  6
CONTINUOUS
  0
LAYER
  2
82
 70
     0
 62
     7
  6
CONTINUOUS
  0
LAYER
  2
83
 70
     0
 62
     7
  6
CONTINUOUS
  0
LAYER
  2
84
 70
     0
 62
     7
  6
CONTINUOUS
  0
LAYER
  2
85
 70
     0
 62
     7
  6
CONTINUOUS
  0
LAYER
  2
86
 70
     0
 62
     7
  6
CONTINUOUS
  0
LAYER
  2
87
 70
     0
 62
     7
  6
CONTINUOUS
  0
LAYER
  2
88
 70
     0
 62
     7
  6
CONTINUOUS
  0
LAYER
  2
89
 70
     0
 62
     7
  6
CONTINUOUS
  0
LAYER
  2
90
 70
     0
 62
     7
  6
CONTINUOUS
  0
LAYER
  2
91
 70
     0
 62
     7
  6
CONTINUOUS
  0
LAYER
  2
92
 70
     0
 62
     7
  6
CONTINUOUS
  0
LAYER
  2
93
 70
     0
 62
     7
  6
CONTINUOUS
  0
LAYER
  2
94
 70
     0
 62
     7
  6
CONTINUOUS
  0
LAYER
  2
95
 70
     0
 62
     7
  6
CONTINUOUS
  0
LAYER
  2
96
 70
     0
 62
     7
  6
CONTINUOUS
  0
LAYER
  2
97
 70
     0
 62
     7
  6
CONTINUOUS
  0
LAYER
  2
98
 70
     0
 62
     7
  6
CONTINUOUS
  0
LAYER
  2
99
 70
     0
 62
     7
  6
CONTINUOUS
  0
LAYER
  2
100
 70
     0
 62
     7
  6
CONTINUOUS
  0
LAYER
  2
101
 70
     0
 62
     7
  6
CONTINUOUS
  0
LAYER
  2
102
 70
     0
 62
     7
  6
CONTINUOUS
  0
LAYER
  2
103
 70
     0
 62
     7
  6
CONTINUOUS
  0
LAYER
  2
104
 70
     0
 62
     7
  6
CONTINUOUS
  0
LAYER
  2
105
 70
     0
 62
     7
  6
CONTINUOUS
  0
LAYER
  2
106
 70
     0
 62
     7
  6
CONTINUOUS
  0
LAYER
  2
107
 70
     0
 62
     7
  6
CONTINUOUS
  0
LAYER
  2
108
 70
     0
 62
     7
  6
CONTINUOUS
  0
LAYER
  2
109
 70
     0
 62
     7
  6
CONTINUOUS
  0
LAYER
  2
110
 70
     0
 62
     7
  6
CONTINUOUS
  0
LAYER
  2
111
 70
     0
 62
     7
  6
CONTINUOUS
  0
LAYER
  2
112
 70
     0
 62
     7
  6
CONTINUOUS
  0
LAYER
  2
113
 70
     0
 62
     7
  6
CONTINUOUS
  0
LAYER
  2
114
 70
     0
 62
     7
  6
CONTINUOUS
  0
LAYER
  2
115
 70
     0
 62
     7
  6
CONTINUOUS
  0
LAYER
  2
116
 70
     0
 62
     7
  6
CONTINUOUS
  0
LAYER
  2
117
 70
     0
 62
     7
  6
CONTINUOUS
  0
LAYER
  2
118
 70
     0
 62
     7
  6
CONTINUOUS
  0
LAYER
  2
119
 70
     0
 62
     7
  6
CONTINUOUS
  0
LAYER
  2
120
 70
     0
 62
     7
  6
CONTINUOUS
  0
LAYER
  2
121
 70
     0
 62
     7
  6
CONTINUOUS
  0
LAYER
  2
122
 70
     0
 62
     7
  6
CONTINUOUS
  0
LAYER
  2
123
 70
     0
 62
     7
  6
CONTINUOUS
  0
LAYER
  2
124
 70
     0
 62
     7
  6
CONTINUOUS
  0
LAYER
  2
125
 70
     0
 62
     7
  6
CONTINUOUS
  0
LAYER
  2
126
 70
     0
 62
     7
  6
CONTINUOUS
  0
LAYER
  2
127
 70
     0
 62
     7
  6
CONTINUOUS
  0
LAYER
  2
128
 70
     0
 62
     7
  6
CONTINUOUS
  0
ENDTAB
  0
TABLE
  2
STYLE
 70
    84
  0
STYLE
  2
STANDARD
 70
     0
 40
0.0
 41
1.0
 50
0.0
 71
     0
 42
0.2
  3
txt.shx
  4
extfont.shx
  0
STYLE
  2
KANJI0
 70
     0
 40
15.5999988
 41
0.75
 50
0.0
 71
     0
 42
15.5999988
  3
txt.shx
  4
extfont.shx
  0
STYLE
  2
KANJI1
 70
     0
 40
11.999997477
 41
0.6
 50
0.0
 71
     0
 42
11.999997477
  3
txt.shx
  4
extfont.shx
  0
STYLE
  2
KANJI2
 70
     0
 40
14.399996972
 41
0.9
 50
0.0
 71
     0
 42
14.399996972
  3
txt.shx
  4
extfont.shx
  0
STYLE
  2
KANJI3
 70
     0
 40
17.999996215
 41
0.9
 50
0.0
 71
     0
 42
17.999996215
  3
txt.shx
  4
extfont.shx
  0
STYLE
  2
KANJI4
 70
     0
 40
10.3999992
 41
0.6
 50
0.0
 71
     0
 42
10.3999992
  3
txt.shx
  4
extfont.shx
  0
STYLE
  2
KANJI5
 70
     0
 40
12.47999904
 41
0.6
 50
0.0
 71
     0
 42
12.47999904
  3
txt.shx
  4
extfont.shx
  0
STYLE
  2
KANJI6
 70
     0
 40
18.1999986
 41
0.42031746
 50
0.0
 71
     0
 42
18.1999986
  3
txt.shx
  4
extfont.shx
  0
STYLE
  2
KANJI7
 70
     0
 40
31.1999976
 41
0.9
 50
0.0
 71
     0
 42
31.1999976
  3
txt.shx
  4
extfont.shx
  0
STYLE
  2
KANJI8
 70
     0
 40
21.6
 41
1.111111111
 50
0.0
 71
     0
 42
21.6
  3
txt.shx
  4
extfont.shx
  0
STYLE
  2
KANJI9
 70
     0
 40
10.3999992
 41
0.8
 50
0.0
 71
     0
 42
10.3999992
  3
txt.shx
  4
extfont.shx
  0
STYLE
  2
KANJI10
 70
     0
 40
12.47999904
 41
0.8
 50
0.0
 71
     0
 42
12.47999904
  3
txt.shx
  4
extfont.shx
  0
STYLE
  2
KANJI11
 70
     0
 40
30.0
 41
1.0
 50
0.0
 71
     0
 42
30.0
  3
txt.shx
  4
extfont.shx
  0
STYLE
  2
KANJI12
 70
     0
 40
30.0
 41
1.0
 50
0.0
 71
     0
 42
30.0
  3
txt.shx
  4
extfont.shx
  0
STYLE
  2
KANJI13
 70
     0
 40
30.0
 41
0.8
 50
0.0
 71
     0
 42
30.0
  3
txt.shx
  4
extfont.shx
  0
STYLE
  2
KANJI14
 70
     0
 40
24.0
 41
1.0
 50
0.0
 71
     0
 42
24.0
  3
txt.shx
  4
extfont.shx
  0
STYLE
  2
KANJI15
 70
     0
 40
21.0
 41
0.857142857
 50
0.0
 71
     0
 42
21.0
  3
txt.shx
  4
extfont.shx
  0
STYLE
  2
KANJI16
 70
     0
 40
27.0
 41
0.666666667
 50
0.0
 71
     0
 42
27.0
  3
txt.shx
  4
extfont.shx
  0
STYLE
  2
KANJI17
 70
     0
 40
13.86
 41
0.9
 50
0.0
 71
     0
 42
13.86
  3
txt.shx
  4
extfont.shx
  0
STYLE
  2
KANJI18
 70
     0
 40
18.0
 41
0.9
 50
0.0
 71
     0
 42
18.0
  3
txt.shx
  4
extfont.shx
  0
STYLE
  2
KANJI19
 70
     0
 40
21.0
 41
0.857142857
 50
0.0
 71
     0
 42
21.0
  3
txt.shx
  4
extfont.shx
  0
STYLE
  2
KANJI20
 70
     0
 40
18.0
 41
0.9
 50
0.0
 71
     0
 42
18.0
  3
txt.shx
  4
extfont.shx
  0
STYLE
  2
KANJI21
 70
     0
 40
18.0
 41
0.9
 50
0.0
 71
     0
 42
18.0
  3
txt.shx
  4
extfont.shx
  0
STYLE
  2
KANJI22
 70
     0
 40
18.0
 41
0.9
 50
0.0
 71
     0
 42
18.0
  3
txt.shx
  4
extfont.shx
  0
STYLE
  2
KANJI23
 70
     0
 40
18.0
 41
0.666666667
 50
0.0
 71
     0
 42
18.0
  3
txt.shx
  4
extfont.shx
  0
STYLE
  2
KANJI24
 70
     0
 40
21.0
 41
0.793650794
 50
0.0
 71
     0
 42
21.0
  3
txt.shx
  4
extfont.shx
  0
STYLE
  2
KANJI25
 70
     0
 40
30.0
 41
0.8
 50
0.0
 71
     0
 42
30.0
  3
txt.shx
  4
extfont.shx
  0
STYLE
  2
KANJI26
 70
     0
 40
18.0
 41
0.9
 50
0.0
 71
     0
 42
18.0
  3
txt.shx
  4
extfont.shx
  0
STYLE
  2
KANJI27
 70
     0
 40
15.36
 41
0.9
 50
0.0
 71
     0
 42
15.36
  3
txt.shx
  4
extfont.shx
  0
STYLE
  2
KANJI28
 70
     0
 40
14.4
 41
0.9
 50
0.0
 71
     0
 42
14.4
  3
txt.shx
  4
extfont.shx
  0
STYLE
  2
KANJI29
 70
     0
 40
14.4
 41
0.9
 50
0.0
 71
     0
 42
14.4
  3
txt.shx
  4
extfont.shx
  0
STYLE
  2
KANJI30
 70
     0
 40
16.8
 41
0.9
 50
0.0
 71
     0
 42
16.8
  3
txt.shx
  4
extfont.shx
  0
STYLE
  2
KANJI31
 70
     0
 40
12.96
 41
0.740740741
 50
0.0
 71
     0
 42
12.96
  3
txt.shx
  4
extfont.shx
  0
STYLE
  2
KANJI32
 70
     0
 40
16.8
 41
0.857142857
 50
0.0
 71
     0
 42
16.8
  3
txt.shx
  4
extfont.shx
  0
STYLE
  2
KANJI33
 70
     0
 40
20.0
 41
0.925
 50
0.0
 71
     0
 42
20.0
  3
txt.shx
  4
extfont.shx
  0
STYLE
  2
KANJI34
 70
     0
 40
14.4
 41
0.833333333
 50
0.0
 71
     0
 42
14.4
  3
txt.shx
  4
extfont.shx
  0
STYLE
  2
KANJI35
 70
     0
 40
20.0
 41
0.925
 50
0.0
 71
     0
 42
20.0
  3
txt.shx
  4
extfont.shx
  0
STYLE
  2
KANJI36
 70
     0
 40
15.0
 41
0.9
 50
0.0
 71
     0
 42
15.0
  3
txt.shx
  4
extfont.shx
  0
STYLE
  2
KANJI37
 70
     0
 40
17.031074144
 41
0.880962996
 50
0.0
 71
     0
 42
17.031074144
  3
txt.shx
  4
extfont.shx
  0
STYLE
  2
KANJI38
 70
     0
 40
14.37696
 41
0.9125
 50
0.0
 71
     0
 42
14.37696
  3
txt.shx
  4
extfont.shx
  0
STYLE
  2
KANJI39
 70
     0
 40
11.232
 41
0.8
 50
0.0
 71
     0
 42
11.232
  3
txt.shx
  4
extfont.shx
  0
STYLE
  2
KANJI40
 70
     0
 40
14.4
 41
0.911
 50
0.0
 71
     0
 42
14.4
  3
txt.shx
  4
extfont.shx
  0
STYLE
  2
KANJI41
 70
     0
 40
13.9932
 41
0.943315325
 50
0.0
 71
     0
 42
13.9932
  3
txt.shx
  4
extfont.shx
  0
STYLE
  2
KANJI42
 70
     0
 40
12.0
 41
0.85
 50
0.0
 71
     0
 42
12.0
  3
txt.shx
  4
extfont.shx
  0
STYLE
  2
KANJI43
 70
     0
 40
18.223173404
 41
0.66671875
 50
0.0
 71
     0
 42
18.223173404
  3
txt.shx
  4
extfont.shx
  0
STYLE
  2
KANJI44
 70
     0
 40
21.867808085
 41
0.9
 50
0.0
 71
     0
 42
21.867808085
  3
txt.shx
  4
extfont.shx
  0
STYLE
  2
KANJI45
 70
     0
 40
18.72
 41
0.925
 50
0.0
 71
     0
 42
18.72
  3
txt.shx
  4
extfont.shx
  0
STYLE
  2
KANJI46
 70
     0
 40
17.494246468
 41
0.9
 50
0.0
 71
     0
 42
17.494246468
  3
txt.shx
  4
extfont.shx
  0
STYLE
  2
KANJI47
 70
     0
 40
13.120684851
 41
0.9
 50
0.0
 71
     0
 42
13.120684851
  3
txt.shx
  4
extfont.shx
  0
STYLE
  2
KANJI48
 70
     0
 40
21.0
 41
0.857222222
 50
0.0
 71
     0
 42
21.0
  3
txt.shx
  4
extfont.shx
  0
STYLE
  2
KANJI49
 70
     0
 40
21.0
 41
0.857142857
 50
0.0
 71
     0
 42
21.0
  3
txt.shx
  4
extfont.shx
  0
STYLE
  2
KANJI50
 70
     0
 40
24.0
 41
0.9
 50
0.0
 71
     0
 42
24.0
  3
txt.shx
  4
extfont.shx
  0
STYLE
  2
KANJI51
 70
     0
 40
16.17
 41
0.9
 50
0.0
 71
     0
 42
16.17
  3
txt.shx
  4
extfont.shx
  0
STYLE
  2
KANJI52
 70
     0
 40
15.0
 41
0.9
 50
0.0
 71
     0
 42
15.0
  3
txt.shx
  4
extfont.shx
  0
STYLE
  2
KANJI53
 70
     0
 40
21.0
 41
0.571428571
 50
0.0
 71
     0
 42
21.0
  3
txt.shx
  4
extfont.shx
  0
STYLE
  2
KANJI54
 70
     4
 40
216.0
 41
0.180555556
 50
0.0
 71
     0
 42
216.0
  3
txt.shx
  4
extfont.shx
  0
STYLE
  2
KANJI55
 70
     0
 40
18.98208
 41
0.85
 50
0.0
 71
     0
 42
18.98208
  3
txt.shx
  4
extfont.shx
  0
STYLE
  2
KANJI56
 70
     0
 40
16.8
 41
0.714285714
 50
0.0
 71
     0
 42
16.8
  3
txt.shx
  4
extfont.shx
  0
STYLE
  2
KANJI57
 70
     0
 40
22.8
 41
0.9
 50
0.0
 71
     0
 42
22.8
  3
txt.shx
  4
extfont.shx
  0
STYLE
  2
KANJI58
 70
     0
 40
22.8
 41
0.9
 50
0.0
 71
     0
 42
22.8
  3
txt.shx
  4
extfont.shx
  0
STYLE
  2
KANJI59
 70
     0
 40
27.0
 41
0.9
 50
0.0
 71
     0
 42
27.0
  3
txt.shx
  4
extfont.shx
  0
STYLE
  2
KANJI60
 70
     0
 40
22.8
 41
0.9
 50
0.0
 71
     0
 42
22.8
  3
txt.shx
  4
extfont.shx
  0
STYLE
  2
KANJI61
 70
     0
 40
22.8
 41
0.9
 50
0.0
 71
     0
 42
22.8
  3
txt.shx
  4
extfont.shx
  0
STYLE
  2
KANJI62
 70
     0
 40
22.8
 41
0.9
 50
0.0
 71
     0
 42
22.8
  3
txt.shx
  4
extfont.shx
  0
STYLE
  2
KANJI63
 70
     0
 40
22.8
 41
0.9
 50
0.0
 71
     0
 42
22.8
  3
txt.shx
  4
extfont.shx
  0
STYLE
  2
KANJI64
 70
     0
 40
22.8
 41
0.9
 50
0.0
 71
     0
 42
22.8
  3
txt.shx
  4
extfont.shx
  0
STYLE
  2
KANJI65
 70
     0
 40
22.8
 41
0.9
 50
0.0
 71
     0
 42
22.8
  3
txt.shx
  4
extfont.shx
  0
STYLE
  2
KANJI66
 70
     4
 40
21.0
 41
0.9
 50
0.0
 71
     0
 42
21.0
  3
txt.shx
  4
extfont.shx
  0
STYLE
  2
KANJI67
 70
     4
 40
21.0
 41
0.9
 50
0.0
 71
     0
 42
21.0
  3
txt.shx
  4
extfont.shx
  0
STYLE
  2
KANJI68
 70
     0
 40
21.0
 41
0.9
 50
0.0
 71
     0
 42
21.0
  3
txt.shx
  4
extfont.shx
  0
STYLE
  2
KANJI69
 70
     0
 40
18.0
 41
0.9
 50
0.0
 71
     0
 42
18.0
  3
txt.shx
  4
extfont.shx
  0
STYLE
  2
KANJI70
 70
     0
 40
21.0
 41
0.9
 50
0.0
 71
     0
 42
21.0
  3
txt.shx
  4
extfont.shx
  0
STYLE
  2
KANJI71
 70
     0
 40
22.8
 41
0.9
 50
0.0
 71
     0
 42
22.8
  3
txt.shx
  4
extfont.shx
  0
STYLE
  2
KANJI72
 70
     0
 40
22.8
 41
0.9
 50
0.0
 71
     0
 42
22.8
  3
txt.shx
  4
extfont.shx
  0
STYLE
  2
KANJI73
 70
     0
 40
21.0
 41
0.628571429
 50
0.0
 71
     0
 42
21.0
  3
txt.shx
  4
extfont.shx
  0
STYLE
  2
KANJI74
 70
     0
 40
20.4
 41
0.705882353
 50
0.0
 71
     0
 42
20.4
  3
txt.shx
  4
extfont.shx
  0
STYLE
  2
KANJI75
 70
     0
 40
18.0
 41
0.8
 50
0.0
 71
     0
 42
18.0
  3
txt.shx
  4
extfont.shx
  0
STYLE
  2
KANJI76
 70
     0
 40
19.2
 41
0.71875
 50
0.0
 71
     0
 42
19.2
  3
txt.shx
  4
extfont.shx
  0
STYLE
  2
KANJI77
 70
     0
 40
19.2
 41
0.8
 50
0.0
 71
     0
 42
19.2
  3
txt.shx
  4
extfont.shx
  0
STYLE
  2
KANJI78
 70
     0
 40
21.0
 41
0.571428571
 50
0.0
 71
     0
 42
21.0
  3
txt.shx
  4
extfont.shx
  0
STYLE
  2
KANJI79
 70
     0
 40
18.0
 41
0.833333333
 50
0.0
 71
     0
 42
18.0
  3
txt.shx
  4
extfont.shx
  0
STYLE
  2
KANJI80
 70
     0
 40
21.0
 41
0.9
 50
0.0
 71
     0
 42
21.0
  3
txt.shx
  4
extfont.shx
  0
STYLE
  2
KANJI81
 70
     0
 40
21.0
 41
0.857142857
 50
0.0
 71
     0
 42
21.0
  3
txt.shx
  4
extfont.shx
  0
STYLE
  2
KANJI82
 70
     0
 40
18.0
 41
0.833333333
 50
0.0
 71
     0
 42
18.0
  3
txt.shx
  4
extfont.shx
  0
ENDTAB
  0
TABLE
  2
VIEW
 70
     0
  0
ENDTAB
  0
ENDSEC
  0
SECTION
  2
BLOCKS
  0
ENDSEC
  0
SECTION
  2
ENTITIES
  0
POLYLINE
  8
0
  6
CONTINUOUS
 62
     6
 66
     1
  0
VERTEX
  8
0
  6
CONTINUOUS
 62
     6
 10
82.92
 20
71.7
 30
0.0
  0
VERTEX
  8
0
  6
CONTINUOUS
 62
     6
 10
82.92
 20
1685.7
 30
0.0
  0
VERTEX
  8
0
  6
CONTINUOUS
 62
     6
 10
2404.92
 20
1685.7
 30
0.0
  0
SEQEND
  0
LINE
  8
0
  6
CONTINUOUS
 62
     6
 10
88.919998738
 20
161.699981077
 30
0.0
 11
478.919916738
 21
161.699981077
 31
0.0
  0
LINE
  8
0
  6
CONTINUOUS
 62
     6
 10
88.919998738
 20
77.699998738
 30
0.0
 11
478.919916738
 21
77.699998738
 31
0.0
  0
LINE
  8
0
  6
CONTINUOUS
 62
     6
 10
88.919998738
 20
77.699998738
 30
0.0
 11
88.919998738
 21
161.699981077
 31
0.0
  0
LINE
  8
0
  6
CONTINUOUS
 62
     6
 10
88.919998738
 20
119.699989908
 30
0.0
 11
478.919916738
 21
119.699989908
 31
0.0
  0
LINE
  8
0
  6
CONTINUOUS
 62
     4
 10
14.6199996
 20
76.8999996
 30
0.0
 11
77.0199948
 21
76.8999996
 31
0.0
  0
LINE
  8
0
  6
CONTINUOUS
 62
     4
 10
14.6199996
 20
108.0999972
 30
0.0
 11
77.0199948
 21
108.0999972
 31
0.0
  0
LINE
  8
0
  6
CONTINUOUS
 62
     4
 10
14.6199996
 20
139.2999948
 30
0.0
 11
77.0199948
 21
139.2999948
 31
0.0
  0
LINE
  8
0
  6
CONTINUOUS
 62
     4
 10
14.6199996
 20
170.4999924
 30
0.0
 11
77.0199948
 21
170.4999924
 31
0.0
  0
LINE
  8
0
  6
CONTINUOUS
 62
     4
 10
14.6199996
 20
201.69999
 30
0.0
 11
77.0199948
 21
201.69999
 31
0.0
  0
LINE
  8
0
  6
CONTINUOUS
 62
     4
 10
14.6199996
 20
232.8999876
 30
0.0
 11
77.0199948
 21
232.8999876
 31
0.0
  0
LINE
  8
0
  6
CONTINUOUS
 62
     4
 10
14.6199996
 20
264.0999852
 30
0.0
 11
77.0199948
 21
264.0999852
 31
0.0
  0
LINE
  8
0
  6
CONTINUOUS
 62
     4
 10
14.6199996
 20
295.2999828
 30
0.0
 11
77.0199948
 21
295.2999828
 31
0.0
  0
LINE
  8
0
  6
CONTINUOUS
 62
     4
 10
14.6199996
 20
326.4999804
 30
0.0
 11
77.0199948
 21
326.4999804
 31
0.0
  0
LINE
  8
0
  6
CONTINUOUS
 62
     4
 10
14.6199996
 20
357.699978
 30
0.0
 11
77.0199948
 21
357.699978
 31
0.0
  0
LINE
  8
0
  6
CONTINUOUS
 62
     4
 10
77.0199948
 20
76.8999996
 30
0.0
 11
77.0199948
 21
357.699978
 31
0.0
  0
LINE
  8
0
  6
CONTINUOUS
 62
     4
 10
45.8199972
 20
76.8999996
 30
0.0
 11
45.8199972
 21
326.4999804
 31
0.0
  0
TEXT
  8
0
  6
CONTINUOUS
 62
     4
 10
25.27999878
 20
85.9999989
 30
1.55999988
 40
15.5999988
  1
計
 50
0.0
 41
0.75
 51
0.0
  7
KANJI0
  0
TEXT
  8
0
  6
CONTINUOUS
 62
     4
 10
25.27999878
 20
148.91999406
 30
1.55999988
 40
15.5999988
  1
設
 50
0.0
 41
0.75
 51
0.0
  7
KANJI0
  0
TEXT
  8
0
  6
CONTINUOUS
 62
     4
 10
25.27999878
 20
179.5999917
 30
1.55999988
 40
15.5999988
  1
管
 50
0.0
 41
0.75
 51
0.0
  7
KANJI0
  0
TEXT
  8
0
  6
CONTINUOUS
 62
     4
 10
25.27999878
 20
210.7999893
 30
1.55999988
 40
15.5999988
  1
製
 50
0.0
 41
0.75
 51
0.0
  7
KANJI0
  0
TEXT
  8
0
  6
CONTINUOUS
 62
     4
 10
25.27999878
 20
241.9999869
 30
1.55999988
 40
15.5999988
  1
資
 50
0.0
 41
0.75
 51
0.0
  7
KANJI0
  0
TEXT
  8
0
  6
CONTINUOUS
 62
     4
 10
25.27999878
 20
273.1999845
 30
1.55999988
 40
15.5999988
  1
営
 50
0.0
 41
0.75
 51
0.0
  7
KANJI0
  0
TEXT
  8
0
  6
CONTINUOUS
 62
     4
 10
25.27999878
 20
304.3999821
 30
1.55999988
 40
15.5999988
  1
客
 50
0.0
 41
0.75
 51
0.0
  7
KANJI0
  0
TEXT
  8
0
  6
CONTINUOUS
 62
     4
 10
25.0199988
 20
336.8999796
 30
1.55999988
 40
15.5999988
  1
出　図
 50
0.0
 41
0.75
 51
0.0
  7
KANJI0
  0
LINE
  8
0
  6
CONTINUOUS
 62
     4
 10
14.6199996
 20
76.8999996
 30
0.0
 11
14.6199996
 21
357.699978
 31
0.0
  0
LINE
  8
0
  6
CONTINUOUS
 62
     6
 10
2404.92
 20
71.7
 30
0.0
 11
82.92
 21
71.7
 31
0.0
  0
TEXT
  8
0
  6
CONTINUOUS
 62
     4
 10
100.919996215
 20
101.699993692
 30
1.199999748
 40
11.999997477
  1
ＰＡＲＴＳ　ＬＩＳＴ
 50
0.0
 41
0.6
 51
0.0
  7
KANJI1
  0
TEXT
  8
0
  6
CONTINUOUS
 62
     4
 10
100.919996215
 20
83.699997477
 30
1.439999697
 40
14.399996972
  1
部品表
 50
0.0
 41
0.9
 51
0.0
  7
KANJI2
  0
TEXT
  8
0
  6
CONTINUOUS
 62
     3
 10
100.919996215
 20
131.699987385
 30
1.799999622
 40
17.999996215
  1
ＰＬ
 50
0.0
 41
0.9
 51
0.0
  7
KANJI3
  0
TEXT
  8
0
  6
CONTINUOUS
 62
     4
 10
370.919939446
 20
101.699993692
 30
1.199999748
 40
11.999997477
  1
Ｎ０．
 50
0.0
 41
0.6
 51
0.0
  7
KANJI1
  0
TEXT
  8
0
  6
CONTINUOUS
 62
     4
 10
370.919939446
 20
83.699997477
 30
1.439999697
 40
14.399996972
  1
項番
 50
0.0
 41
0.9
 51
0.0
  7
KANJI2
  0
LINE
  8
0
  6
CONTINUOUS
 62
     6
 10
478.919916738
 20
77.699998738
 30
0.0
 11
478.919916738
 21
161.699981077
 31
0.0
  0
LINE
  8
0
  6
CONTINUOUS
 62
     6
 10
358.919941969
 20
77.699998738
 30
0.0
 11
358.919941969
 21
161.699981077
 31
0.0
  0
LINE
  8
0
  6
CONTINUOUS
 62
     6
 10
2404.92
 20
1685.7
 30
0.0
 11
2404.92
 21
71.7
 31
0.0
  0
LINE
  8
0
  6
CONTINUOUS
 62
     6
 10
1598.920062
 20
76.8999996
 30
0.0
 11
1598.920062
 21
409.699974
 31
0.0
  0
LINE
  8
0
  6
CONTINUOUS
 62
     6
 10
2399.7200004
 20
76.8999996
 30
0.0
 11
2399.7200004
 21
409.699974
 31
0.0
  0
LINE
  8
0
  6
CONTINUOUS
 62
     4
 10
1788.7200474
 20
76.8999996
 30
0.0
 11
1788.7200474
 21
409.699974
 31
0.0
  0
LINE
  8
0
  6
CONTINUOUS
 62
     4
 10
1598.920062
 20
118.4999964
 30
0.0
 11
1788.7200474
 21
118.4999964
 31
0.0
  0
TEXT
  8
0
  6
CONTINUOUS
 62
     4
 10
1609.3200612
 20
100.2999978
 30
1.03999992
 40
10.3999992
  1
ＳＣＡＬＥ
 50
0.0
 41
0.6
 51
0.0
  7
KANJI4
  0
TEXT
  8
0
  6
CONTINUOUS
 62
     4
 10
1609.3200612
 20
84.699999
 30
1.247999904
 40
12.47999904
  1
尺度
 50
0.0
 41
0.6
 51
0.0
  7
KANJI5
  0
LINE
  8
0
  6
CONTINUOUS
 62
     6
 10
1188.1200936
 20
118.4999964
 30
0.0
 11
1598.920062
 21
118.4999964
 31
0.0
  0
LINE
  8
0
  6
CONTINUOUS
 62
     6
 10
1188.1200936
 20
76.8999996
 30
0.0
 11
2399.7200004
 21
76.8999996
 31
0.0
  0
TEXT
  8
0
  6
CONTINUOUS
 62
     6
 10
1793.920047
 20
100.2999978
 30
0.0
 40
18.1999986
  1
ＵＮＩＴＥＣ　ＩＮＤＵＳＴＲＹ　ＣＯ．，ＬＴＤ．
 50
0.0
 41
0.42031746
 51
0.0
  7
KANJI6
  0
TEXT
  8
0
  6
CONTINUOUS
 62
     6
 10
2049.175027365
 20
93.53999832
 30
3.11999976
 40
31.1999976
  1
ユニテック工業株式会社
 50
0.0
 41
0.9
 51
0.0
  7
KANJI7
  0
LINE
  8
0
  6
CONTINUOUS
 62
     6
 10
2007.575030565
 20
104.45999748
 30
0.0
 11
1993.847031621
 21
104.45999748
 31
0.0
  0
LINE
  8
0
  6
CONTINUOUS
 62
     6
 10
2007.575030565
 20
106.955997288
 30
0.0
 11
1993.847031621
 21
106.955997288
 31
0.0
  0
LINE
  8
0
  6
CONTINUOUS
 62
     6
 10
2007.575030565
 20
104.45999748
 30
0.0
 11
2021.303029509
 21
104.45999748
 31
0.0
  0
LINE
  8
0
  6
CONTINUOUS
 62
     6
 10
2007.575030565
 20
106.955997288
 30
0.0
 11
2021.303029509
 21
106.955997288
 31
0.0
  0
LINE
  8
0
  6
CONTINUOUS
 62
     6
 10
2021.303029509
 20
106.955997288
 30
0.0
 11
2021.303029509
 21
104.45999748
 31
0.0
  0
ARC
  8
0
  6
CONTINUOUS
 62
     6
 10
2024.423029269
 20
105.707997384
 30
0.0
 40
12.47999904
 50
185.739170477
 51
90.0
  0
ARC
  8
0
  6
CONTINUOUS
 62
     6
 10
2024.423029269
 20
105.707997384
 30
0.0
 40
14.975998848
 50
184.780191847
 51
90.0
  0
LINE
  8
0
  6
CONTINUOUS
 62
     6
 10
1993.847031621
 20
104.45999748
 30
0.0
 11
1993.847031621
 21
106.955997288
 31
0.0
  0
ARC
  8
0
  6
CONTINUOUS
 62
     6
 10
1990.727031861
 20
105.707997384
 30
0.0
 40
12.47999904
 50
90.0
 51
354.260829523
  0
ARC
  8
0
  6
CONTINUOUS
 62
     6
 10
1990.727031861
 20
105.707997384
 30
0.0
 40
14.975998848
 50
90.0
 51
355.219808153
  0
LINE
  8
0
  6
CONTINUOUS
 62
     6
 10
2005.703030709
 20
120.683996232
 30
0.0
 11
2005.703030709
 21
118.187996424
 31
0.0
  0
LINE
  8
0
  6
CONTINUOUS
 62
     6
 10
1990.727031861
 20
118.187996424
 30
0.0
 11
2005.703030709
 21
118.187996424
 31
0.0
  0
LINE
  8
0
  6
CONTINUOUS
 62
     6
 10
2009.447030421
 20
120.683996232
 30
0.0
 11
2009.447030421
 21
118.187996424
 31
0.0
  0
LINE
  8
0
  6
CONTINUOUS
 62
     6
 10
2024.423029269
 20
118.187996424
 30
0.0
 11
2009.447030421
 21
118.187996424
 31
0.0
  0
TEXT
  8
0
  6
CONTINUOUS
 62
     4
 10
1320.7200834
 20
100.2999978
 30
1.03999992
 40
10.3999992
  1
ＢＹ
 50
0.0
 41
0.6
 51
0.0
  7
KANJI4
  0
TEXT
  8
0
  6
CONTINUOUS
 62
     4
 10
1435.1200746
 20
100.2999978
 30
1.03999992
 40
10.3999992
  1
ＤＥＳＣＲＩＰＴＩＯＮ
 50
0.0
 41
0.6
 51
0.0
  7
KANJI4
  0
TEXT
  8
0
  6
CONTINUOUS
 62
     4
 10
1320.7200834
 20
84.699999
 30
1.247999904
 40
12.47999904
  1
担当
 50
0.0
 41
0.6
 51
0.0
  7
KANJI5
  0
TEXT
  8
0
  6
CONTINUOUS
 62
     4
 10
1450.7200734
 20
84.699999
 30
1.247999904
 40
12.47999904
  1
記　　　　事
 50
0.0
 41
0.6
 51
0.0
  7
KANJI5
  0
LINE
  8
0
  6
CONTINUOUS
 62
     4
 10
1210.2200919
 20
110.699997
 30
0.0
 11
1193.3200932
 21
84.699999
 31
0.0
  0
TEXT
  8
0
  6
CONTINUOUS
 62
     4
 10
1253.1200886
 20
100.2999978
 30
1.03999992
 40
10.3999992
  1
ＤＡＴＥ
 50
0.0
 41
0.6
 51
0.0
  7
KANJI4
  0
TEXT
  8
0
  6
CONTINUOUS
 62
     4
 10
1260.920088
 20
84.699999
 30
1.247999904
 40
12.47999904
  1
日付
 50
0.0
 41
0.6
 51
0.0
  7
KANJI5
  0
LINE
  8
0
  6
CONTINUOUS
 62
     4
 10
1193.3200932
 20
84.699999
 30
0.0
 11
1227.1200906
 21
84.699999
 31
0.0
  0
LINE
  8
0
  6
CONTINUOUS
 62
     4
 10
1210.2200919
 20
110.699997
 30
0.0
 11
1227.1200906
 21
84.699999
 31
0.0
  0
LINE
  8
0
  6
CONTINUOUS
 62
     6
 10
1188.1200936
 20
76.8999996
 30
0.0
 11
1188.1200936
 21
118.4999964
 31
0.0
  0
LINE
  8
0
  6
CONTINUOUS
 62
     4
 10
1232.3200902
 20
76.8999996
 30
0.0
 11
1232.3200902
 21
118.4999964
 31
0.0
  0
LINE
  8
0
  6
CONTINUOUS
 62
     4
 10
1305.1200846
 20
76.8999996
 30
0.0
 11
1305.1200846
 21
118.4999964
 31
0.0
  0
LINE
  8
0
  6
CONTINUOUS
 62
     4
 10
1351.920081
 20
76.8999996
 30
0.0
 11
1351.920081
 21
118.4999964
 31
0.0
  0
TEXT
  8
0
  6
CONTINUOUS
 62
     4
 10
1609.3200612
 20
308.2999818
 30
1.03999992
 40
10.3999992
  1
ＣＯＤＥ
 50
0.0
 41
0.6
 51
0.0
  7
KANJI4
  0
LINE
  8
0
  6
CONTINUOUS
 62
     4
 10
1598.920062
 20
326.4999804
 30
0.0
 11
2399.7200004
 21
326.4999804
 31
0.0
  0
TEXT
  8
0
  6
CONTINUOUS
 62
     4
 10
1609.3200612
 20
292.699983
 30
1.247999904
 40
12.47999904
  1
分類
 50
0.0
 41
0.6
 51
0.0
  7
KANJI5
  0
TEXT
  8
0
  6
CONTINUOUS
 62
     4
 10
1617.42
 20
332.7
 30
6.0
 40
21.6
  1
ご注文主
 50
0.0
 41
1.111111111
 51
0.0
  7
KANJI8
  0
TEXT
  8
0
  6
CONTINUOUS
 62
     4
 10
1609.3200612
 20
183.4999914
 30
1.03999992
 40
10.3999992
  1
ＤＲＡＷＮ
 50
0.0
 41
0.6
 51
0.0
  7
KANJI4
  0
TEXT
  8
0
  6
CONTINUOUS
 62
     4
 10
1609.3200612
 20
225.0999882
 30
1.03999992
 40
10.3999992
  1
ＤＥＳＩＧＮ
 50
0.0
 41
0.6
 51
0.0
  7
KANJI4
  0
TEXT
  8
0
  6
CONTINUOUS
 62
     4
 10
1609.3200612
 20
266.699985
 30
1.03999992
 40
10.3999992
  1
ＣＨＥＣＫ
 50
0.0
 41
0.6
 51
0.0
  7
KANJI4
  0
LINE
  8
0
  6
CONTINUOUS
 62
     4
 10
1598.920062
 20
243.2999868
 30
0.0
 11
1788.7200474
 21
243.2999868
 31
0.0
  0
LINE
  8
0
  6
CONTINUOUS
 62
     4
 10
1598.920062
 20
201.69999
 30
0.0
 11
1788.7200474
 21
201.69999
 31
0.0
  0
LINE
  8
0
  6
CONTINUOUS
 62
     4
 10
1598.920062
 20
284.8999836
 30
0.0
 11
1788.7200474
 21
284.8999836
 31
0.0
  0
TEXT
  8
0
  6
CONTINUOUS
 62
     4
 10
1609.3200612
 20
209.4999894
 30
1.247999904
 40
12.47999904
  1
設計
 50
0.0
 41
0.6
 51
0.0
  7
KANJI5
  0
TEXT
  8
0
  6
CONTINUOUS
 62
     4
 10
1609.3200612
 20
251.0999862
 30
1.247999904
 40
12.47999904
  1
検図
 50
0.0
 41
0.6
 51
0.0
  7
KANJI5
  0
LINE
  8
0
  6
CONTINUOUS
 62
     4
 10
1804.06004622
 20
284.8999836
 30
0.0
 11
2399.7200004
 21
284.8999836
 31
0.0
  0
LINE
  8
0
  6
CONTINUOUS
 62
     4
 10
1788.7200474
 20
201.69999
 30
0.0
 11
2399.7200004
 21
201.69999
 31
0.0
  0
TEXT
  8
0
  6
CONTINUOUS
 62
     4
 10
1799.1200466
 20
183.4999914
 30
1.03999992
 40
10.3999992
  1
ＤＲＡＷＩＮＧ　ＮＯ．
 50
0.0
 41
0.8
 51
0.0
  7
KANJI9
  0
TEXT
  8
0
  6
CONTINUOUS
 62
     4
 10
1799.1200466
 20
225.0999882
 30
1.03999992
 40
10.3999992
  1
ＭＦＧ　ＮＯ．
 50
0.0
 41
0.8
 51
0.0
  7
KANJI9
  0
TEXT
  8
0
  6
CONTINUOUS
 62
     4
 10
1799.1200466
 20
266.699985
 30
1.03999992
 40
10.3999992
  1
ＴＹＰＥ
 50
0.0
 41
0.8
 51
0.0
  7
KANJI9
  0
LINE
  8
0
  6
CONTINUOUS
 62
     4
 10
1804.3200462
 20
243.2999868
 30
0.0
 11
2043.5200278
 21
243.2999868
 31
0.0
  0
TEXT
  8
0
  6
CONTINUOUS
 62
     4
 10
1799.1200466
 20
165.2999928
 30
1.247999904
 40
12.47999904
  1
図　面　番　号
 50
0.0
 41
0.8
 51
0.0
  7
KANJI10
  0
TEXT
  8
0
  6
CONTINUOUS
 62
     4
 10
1799.1200466
 20
206.8999896
 30
1.247999904
 40
12.47999904
  1
製番
 50
0.0
 41
0.8
 51
0.0
  7
KANJI10
  0
TEXT
  8
0
  6
CONTINUOUS
 62
     4
 10
1799.1200466
 20
248.4999864
 30
1.247999904
 40
12.47999904
  1
機種
 50
0.0
 41
0.8
 51
0.0
  7
KANJI10
  0
LINE
  8
0
  6
CONTINUOUS
 62
     4
 10
1598.920062
 20
160.0999932
 30
0.0
 11
1788.7200474
 21
160.0999932
 31
0.0
  0
TEXT
  8
0
  6
CONTINUOUS
 62
     4
 10
1609.3200612
 20
141.8999946
 30
1.03999992
 40
10.3999992
  1
ＤＡＴＥ
 50
0.0
 41
0.6
 51
0.0
  7
KANJI4
  0
TEXT
  8
0
  6
CONTINUOUS
 62
     4
 10
1609.3200612
 20
126.2999958
 30
1.247999904
 40
12.47999904
  1
日付
 50
0.0
 41
0.6
 51
0.0
  7
KANJI5
  0
TEXT
  8
0
  6
CONTINUOUS
 62
     4
 10
1609.3200612
 20
167.8999926
 30
1.247999904
 40
12.47999904
  1
作図
 50
0.0
 41
0.6
 51
0.0
  7
KANJI5
  0
LINE
  8
0
  6
CONTINUOUS
 62
     4
 10
1788.7200474
 20
141.8999946
 30
0.0
 11
2399.7200004
 21
141.8999946
 31
0.0
  0
LINE
  8
0
  6
LTYPE1
 62
     4
 10
2225.5200138
 20
149.699994
 30
0.0
 11
2225.5200138
 21
191.2999908
 31
0.0
  0
LINE
  8
0
  6
LTYPE1
 62
     4
 10
2189.1200166
 20
149.699994
 30
0.0
 11
2189.1200166
 21
191.2999908
 31
0.0
  0
LINE
  8
0
  6
LTYPE1
 62
     4
 10
2152.7200194
 20
149.699994
 30
0.0
 11
2152.7200194
 21
191.2999908
 31
0.0
  0
LINE
  8
0
  6
LTYPE1
 62
     4
 10
2116.3200222
 20
149.699994
 30
0.0
 11
2116.3200222
 21
191.2999908
 31
0.0
  0
LINE
  8
0
  6
LTYPE1
 62
     4
 10
2079.920025
 20
149.699994
 30
0.0
 11
2079.920025
 21
191.2999908
 31
0.0
  0
LINE
  8
0
  6
LTYPE1
 62
     4
 10
2043.5200278
 20
149.699994
 30
0.0
 11
2043.5200278
 21
191.2999908
 31
0.0
  0
LINE
  8
0
  6
LTYPE1
 62
     4
 10
2007.1200306
 20
149.699994
 30
0.0
 11
2007.1200306
 21
191.2999908
 31
0.0
  0
LINE
  8
0
  6
LTYPE1
 62
     4
 10
1970.7200334
 20
149.699994
 30
0.0
 11
1970.7200334
 21
191.2999908
 31
0.0
  0
LINE
  8
0
  6
LTYPE1
 62
     4
 10
1970.7200334
 20
191.2999908
 30
0.0
 11
2225.5200138
 21
191.2999908
 31
0.0
  0
LINE
  8
0
  6
LTYPE1
 62
     4
 10
1970.7200334
 20
149.699994
 30
0.0
 11
2225.5200138
 21
149.699994
 31
0.0
  0
LINE
  8
0
  6
CONTINUOUS
 62
     4
 10
2246.3200122
 20
171.7999923
 30
0.0
 11
2256.7200114
 21
171.7999923
 31
0.0
  0
LINE
  8
0
  6
CONTINUOUS
 62
     4
 10
2311.3200072
 20
156.1999935
 30
0.0
 11
2274.92001
 21
156.1999935
 31
0.0
  0
LINE
  8
0
  6
CONTINUOUS
 62
     4
 10
2274.92001
 20
156.1999935
 30
0.0
 11
2293.1200086
 21
187.3999911
 31
0.0
  0
LINE
  8
0
  6
CONTINUOUS
 62
     4
 10
2293.1200086
 20
187.3999911
 30
0.0
 11
2311.3200072
 21
156.1999935
 31
0.0
  0
TEXT
  8
0
  6
CONTINUOUS
 62
     4
 10
2059.1200266
 20
266.699985
 30
1.03999992
 40
10.3999992
  1
ＴＩＴＬＥ
 50
0.0
 41
0.8
 51
0.0
  7
KANJI9
  0
TEXT
  8
0
  6
CONTINUOUS
 62
     4
 10
2059.1200266
 20
248.4999864
 30
1.247999904
 40
12.47999904
  1
名称
 50
0.0
 41
0.8
 51
0.0
  7
KANJI10
  0
TEXT
  8
0
  6
CONTINUOUS
 62
     2
 10
2143.92
 20
209.7
 30
15.0
 40
30.0
  1
外形寸法図
 50
0.0
 41
1.0
 51
0.0
  7
KANJI11
  0
TEXT
  8
0
  6
CONTINUOUS
 62
     2
 10
2107.92
 20
245.7
 30
4.285714286
 40
30.0
  1
マイティシリンダ
 50
0.0
 41
1.0
 51
0.0
  7
KANJI12
  0
TEXT
  8
0
  6
CONTINUOUS
 62
     2
 10
1939.2200334
 20
155.699994
 30
1.8
 40
30.0
  1
Ａ
 50
0.0
 41
0.8
 51
0.0
  7
KANJI13
  0
CIRCLE
  8
0
  6
CONTINUOUS
 62
     2
 10
1900.2200334
 20
220.199994
 30
0.0
 40
15.0
  0
TEXT
  8
0
  6
CONTINUOUS
 62
     2
 10
1888.9700334
 20
208.949994
 30
1.8
 40
24.0
  1
Ｓ
 50
0.0
 41
1.0
 51
0.0
  7
KANJI14
  0
LINE
  8
0
  6
CONTINUOUS
 62
     6
 10
2005.703030709
 20
120.683996232
 30
0.0
 11
1990.727031861
 21
120.683996232
 31
0.0
  0
LINE
  8
0
  6
CONTINUOUS
 62
     6
 10
2009.447030421
 20
120.683996232
 30
0.0
 11
2024.423029269
 21
120.683996232
 31
0.0
  0
TEXT
  8
0
  6
CONTINUOUS
 62
     2
 10
1665.9200334
 20
170.699994
 30
6.0
 40
21.0
  1
岡田
 50
0.0
 41
0.857142857
 51
0.0
  7
KANJI15
  0
LINE
  8
0
  6
CONTINUOUS
 62
     4
 10
2399.7200004
 20
368.0999772
 30
0.0
 11
2399.7200004
 21
409.699974
 31
0.0
  0
LINE
  8
0
  6
CONTINUOUS
 62
     6
 10
1599.670062
 20
368.0999772
 30
0.0
 11
2400.4700004
 21
368.0999772
 31
0.0
  0
LINE
  8
0
  6
CONTINUOUS
 62
     6
 10
1598.920062
 20
409.699974
 30
0.0
 11
2399.7200004
 21
409.699974
 31
0.0
  0
TEXT
  8
0
  6
CONTINUOUS
 62
     4
 10
1617.42
 20
374.2999968
 30
6.0
 40
21.6
  1
ご用途
 50
0.0
 41
1.111111111
 51
0.0
  7
KANJI8
  0
TEXT
  8
0
  6
CONTINUOUS
 62
     2
 10
1708.92
 20
83.7
 30
1.8
 40
27.0
  1
１／６
 50
0.0
 41
0.666666667
 51
0.0
  7
KANJI16
  0
LINE
  8
0
  6
CONTINUOUS
 62
     1
 10
1523.37
 20
1674.9
 30
0.0
 11
1523.37
 21
1554.78
 31
0.0
  0
LINE
  8
0
  6
CONTINUOUS
 62
     2
 10
1454.07
 20
1674.9
 30
0.0
 11
1454.07
 21
1554.78
 31
0.0
  0
LINE
  8
0
  6
CONTINUOUS
 62
     2
 10
1384.77
 20
1674.9
 30
0.0
 11
1384.77
 21
1554.78
 31
0.0
  0
LINE
  8
0
  6
CONTINUOUS
 62
     1
 10
1292.37
 20
1674.9
 30
0.0
 11
1292.37
 21
1554.78
 31
0.0
  0
LINE
  8
0
  6
CONTINUOUS
 62
     1
 10
1292.37
 20
1674.9
 30
0.0
 11
1523.37
 21
1674.9
 31
0.0
  0
LINE
  8
0
  6
CONTINUOUS
 62
     1
 10
1292.37
 20
1637.94
 30
0.0
 11
1523.37
 21
1637.94
 31
0.0
  0
LINE
  8
0
  6
CONTINUOUS
 62
     2
 10
1292.37
 20
1610.22
 30
0.0
 11
1523.37
 21
1610.22
 31
0.0
  0
LINE
  8
0
  6
CONTINUOUS
 62
     2
 10
1292.37
 20
1582.5
 30
0.0
 11
1523.37
 21
1582.5
 31
0.0
  0
LINE
  8
0
  6
CONTINUOUS
 62
     1
 10
1292.37
 20
1554.78
 30
0.0
 11
1523.37
 21
1554.78
 31
0.0
  0
TEXT
  8
0
  6
CONTINUOUS
 62
     2
 10
1463.31
 20
1658.73
 30
1.386
 40
13.86
  1
起動電流
 50
0.0
 41
0.9
 51
0.0
  7
KANJI17
  0
TEXT
  8
0
  6
CONTINUOUS
 62
     2
 10
1463.31
 20
1642.56
 30
1.386
 40
13.86
  1
　　　Ａ
 50
0.0
 41
0.9
 51
0.0
  7
KANJI17
  0
TEXT
  8
0
  6
CONTINUOUS
 62
     2
 10
1394.01
 20
1658.73
 30
1.386
 40
13.86
  1
定格電流
 50
0.0
 41
0.9
 51
0.0
  7
KANJI17
  0
TEXT
  8
0
  6
CONTINUOUS
 62
     2
 10
1394.01
 20
1642.56
 30
1.386
 40
13.86
  1
　　　Ａ
 50
0.0
 41
0.9
 51
0.0
  7
KANJI17
  0
TEXT
  8
0
  6
CONTINUOUS
 62
     2
 10
1300.224
 20
1589.43
 30
1.386
 40
13.86
  1
２００／６０
 50
0.0
 41
0.9
 51
0.0
  7
KANJI17
  0
TEXT
  8
0
  6
CONTINUOUS
 62
     2
 10
1300.224
 20
1658.73
 30
1.386
 40
13.86
  1
電圧／周波数
 50
0.0
 41
0.9
 51
0.0
  7
KANJI17
  0
TEXT
  8
0
  6
CONTINUOUS
 62
     2
 10
1300.224
 20
1642.56
 30
1.386
 40
13.86
  1
　Ｖ／Ｈｚ
 50
0.0
 41
0.9
 51
0.0
  7
KANJI17
  0
TEXT
  8
0
  6
CONTINUOUS
 62
     2
 10
1300.224
 20
1617.15
 30
1.386
 40
13.86
  1
２００／５０
 50
0.0
 41
0.9
 51
0.0
  7
KANJI17
  0
TEXT
  8
0
  6
CONTINUOUS
 62
     2
 10
1300.224
 20
1561.71
 30
1.386
 40
13.86
  1
２２０／６０
 50
0.0
 41
0.9
 51
0.0
  7
KANJI17
  0
LINE
  8
0
  6
CONTINUOUS
 62
     1
 10
1246.17
 20
1674.9
 30
0.0
 11
1246.17
 21
1554.78
 31
0.0
  0
LINE
  8
0
  6
CONTINUOUS
 62
     2
 10
1176.87
 20
1674.9
 30
0.0
 11
1176.87
 21
1554.78
 31
0.0
  0
LINE
  8
0
  6
CONTINUOUS
 62
     2
 10
1107.57
 20
1674.9
 30
0.0
 11
1107.57
 21
1554.78
 31
0.0
  0
LINE
  8
0
  6
CONTINUOUS
 62
     1
 10
1015.17
 20
1674.9
 30
0.0
 11
1015.17
 21
1554.78
 31
0.0
  0
LINE
  8
0
  6
CONTINUOUS
 62
     1
 10
1015.17
 20
1674.9
 30
0.0
 11
1246.17
 21
1674.9
 31
0.0
  0
LINE
  8
0
  6
CONTINUOUS
 62
     1
 10
1015.17
 20
1637.94
 30
0.0
 11
1246.17
 21
1637.94
 31
0.0
  0
LINE
  8
0
  6
CONTINUOUS
 62
     2
 10
1015.17
 20
1610.22
 30
0.0
 11
1246.17
 21
1610.22
 31
0.0
  0
LINE
  8
0
  6
CONTINUOUS
 62
     2
 10
1015.17
 20
1582.5
 30
0.0
 11
1246.17
 21
1582.5
 31
0.0
  0
LINE
  8
0
  6
CONTINUOUS
 62
     1
 10
1015.17
 20
1554.78
 30
0.0
 11
1246.17
 21
1554.78
 31
0.0
  0
TEXT
  8
0
  6
CONTINUOUS
 62
     2
 10
1186.11
 20
1658.73
 30
1.386
 40
13.86
  1
起動電流
 50
0.0
 41
0.9
 51
0.0
  7
KANJI17
  0
TEXT
  8
0
  6
CONTINUOUS
 62
     2
 10
1186.11
 20
1642.56
 30
1.386
 40
13.86
  1
　　　Ａ
 50
0.0
 41
0.9
 51
0.0
  7
KANJI17
  0
TEXT
  8
0
  6
CONTINUOUS
 62
     2
 10
1116.81
 20
1658.73
 30
1.386
 40
13.86
  1
定格電流
 50
0.0
 41
0.9
 51
0.0
  7
KANJI17
  0
TEXT
  8
0
  6
CONTINUOUS
 62
     2
 10
1116.81
 20
1642.56
 30
1.386
 40
13.86
  1
　　　Ａ
 50
0.0
 41
0.9
 51
0.0
  7
KANJI17
  0
TEXT
  8
0
  6
CONTINUOUS
 62
     2
 10
1023.024
 20
1658.73
 30
1.386
 40
13.86
  1
電圧／周波数
 50
0.0
 41
0.9
 51
0.0
  7
KANJI17
  0
TEXT
  8
0
  6
CONTINUOUS
 62
     2
 10
1023.024
 20
1642.56
 30
1.386
 40
13.86
  1
　Ｖ／Ｈｚ
 50
0.0
 41
0.9
 51
0.0
  7
KANJI17
  0
TEXT
  8
0
  6
CONTINUOUS
 62
     2
 10
1023.024
 20
1617.15
 30
1.386
 40
13.86
  1
４００／５０
 50
0.0
 41
0.9
 51
0.0
  7
KANJI17
  0
TEXT
  8
0
  6
CONTINUOUS
 62
     2
 10
1023.024
 20
1589.43
 30
1.386
 40
13.86
  1
４００／６０
 50
0.0
 41
0.9
 51
0.0
  7
KANJI17
  0
TEXT
  8
0
  6
CONTINUOUS
 62
     2
 10
1023.024
 20
1561.71
 30
1.386
 40
13.86
  1
４４０／６０
 50
0.0
 41
0.9
 51
0.0
  7
KANJI17
  0
TEXT
  8
0
  6
CONTINUOUS
 62
     2
 10
1119.267493476
 20
1615.15
 30
1.386
 40
13.86
  1
　３．２
 50
0.0
 41
0.9
 51
0.0
  7
KANJI17
  0
TEXT
  8
0
  6
CONTINUOUS
 62
     2
 10
1119.267493476
 20
1587.43
 30
1.386
 40
13.86
  1
　２．８
 50
0.0
 41
0.9
 51
0.0
  7
KANJI17
  0
TEXT
  8
0
  6
CONTINUOUS
 62
     2
 10
1119.267493476
 20
1559.71
 30
1.386
 40
13.86
  1
　２．７
 50
0.0
 41
0.9
 51
0.0
  7
KANJI17
  0
TEXT
  8
0
  6
CONTINUOUS
 62
     2
 10
1396.467493476
 20
1559.71
 30
1.386
 40
13.86
  1
　５．３
 50
0.0
 41
0.9
 51
0.0
  7
KANJI17
  0
TEXT
  8
0
  6
CONTINUOUS
 62
     2
 10
1396.467493476
 20
1587.43
 30
1.386
 40
13.86
  1
　５．２
 50
0.0
 41
0.9
 51
0.0
  7
KANJI17
  0
TEXT
  8
0
  6
CONTINUOUS
 62
     2
 10
1396.467493476
 20
1615.15
 30
1.386
 40
13.86
  1
　６．１
 50
0.0
 41
0.9
 51
0.0
  7
KANJI17
  0
TEXT
  8
0
  6
CONTINUOUS
 62
     2
 10
1465.767493476
 20
1615.15
 30
1.386
 40
13.86
  1
２５．１
 50
0.0
 41
0.9
 51
0.0
  7
KANJI17
  0
TEXT
  8
0
  6
CONTINUOUS
 62
     2
 10
1465.767493476
 20
1587.43
 30
1.386
 40
13.86
  1
２２．５
 50
0.0
 41
0.9
 51
0.0
  7
KANJI17
  0
TEXT
  8
0
  6
CONTINUOUS
 62
     2
 10
1465.767493476
 20
1559.71
 30
1.386
 40
13.86
  1
２４．８
 50
0.0
 41
0.9
 51
0.0
  7
KANJI17
  0
TEXT
  8
0
  6
CONTINUOUS
 62
     2
 10
1188.567493476
 20
1615.15
 30
1.386
 40
13.86
  1
１２．５
 50
0.0
 41
0.9
 51
0.0
  7
KANJI17
  0
TEXT
  8
0
  6
CONTINUOUS
 62
     2
 10
1188.567493476
 20
1587.43
 30
1.386
 40
13.86
  1
１１．３
 50
0.0
 41
0.9
 51
0.0
  7
KANJI17
  0
TEXT
  8
0
  6
CONTINUOUS
 62
     2
 10
1188.567493476
 20
1559.71
 30
1.386
 40
13.86
  1
１２．４
 50
0.0
 41
0.9
 51
0.0
  7
KANJI17
  0
LINE
  8
0
  6
CONTINUOUS
 62
     1
 10
1455.1
 20
544.5
 30
0.0
 11
1415.1
 21
544.5
 31
0.0
  0
LINE
  8
0
  6
CONTINUOUS
 62
     1
 10
1455.1
 20
574.5
 30
0.0
 11
1415.1
 21
574.5
 31
0.0
  0
LINE
  8
0
  6
LTYPE1
 62
     2
 10
1415.1
 20
544.5
 30
0.0
 11
1395.1
 21
544.5
 31
0.0
  0
LINE
  8
0
  6
LTYPE1
 62
     2
 10
1415.1
 20
574.5
 30
0.0
 11
1395.1
 21
574.5
 31
0.0
  0
LINE
  8
0
  6
CONTINUOUS
 62
     1
 10
1479.1
 20
531.5
 30
0.0
 11
1479.1
 21
587.5
 31
0.0
  0
LINE
  8
0
  6
CONTINUOUS
 62
     1
 10
1479.1
 20
531.5
 30
0.0
 11
1475.1
 21
531.5
 31
0.0
  0
LINE
  8
0
  6
CONTINUOUS
 62
     1
 10
1479.1
 20
587.5
 30
0.0
 11
1475.1
 21
587.5
 31
0.0
  0
LINE
  8
0
  6
CONTINUOUS
 62
     1
 10
1489.1
 20
544.5
 30
0.0
 11
1489.1
 21
574.5
 31
0.0
  0
LINE
  8
0
  6
CONTINUOUS
 62
     1
 10
1489.1
 20
544.5
 30
0.0
 11
1479.1
 21
544.5
 31
0.0
  0
LINE
  8
0
  6
CONTINUOUS
 62
     1
 10
1489.1
 20
574.5
 30
0.0
 11
1479.1
 21
574.5
 31
0.0
  0
LINE
  8
0
  6
LTYPE1
 62
     2
 10
1479.1
 20
574.5
 30
0.0
 11
1455.1
 21
574.5
 31
0.0
  0
LINE
  8
0
  6
LTYPE1
 62
     2
 10
1479.1
 20
544.5
 30
0.0
 11
1455.1
 21
544.5
 31
0.0
  0
LINE
  8
0
  6
CONTINUOUS
 62
     1
 10
1391.1
 20
531.5
 30
0.0
 11
1391.1
 21
587.5
 31
0.0
  0
LINE
  8
0
  6
CONTINUOUS
 62
     1
 10
1391.1
 20
531.5
 30
0.0
 11
1395.1
 21
531.5
 31
0.0
  0
LINE
  8
0
  6
CONTINUOUS
 62
     1
 10
1391.1
 20
587.5
 30
0.0
 11
1395.1
 21
587.5
 31
0.0
  0
LINE
  8
0
  6
CONTINUOUS
 62
     1
 10
1381.1
 20
544.5
 30
0.0
 11
1381.1
 21
574.5
 31
0.0
  0
LINE
  8
0
  6
CONTINUOUS
 62
     1
 10
1381.1
 20
544.5
 30
0.0
 11
1391.1
 21
544.5
 31
0.0
  0
LINE
  8
0
  6
CONTINUOUS
 62
     1
 10
1381.1
 20
574.5
 30
0.0
 11
1391.1
 21
574.5
 31
0.0
  0
LINE
  8
0
  6
LTYPE2
 62
     2
 10
1482.7
 20
552.5
 30
0.0
 11
1482.7
 21
568.5
 31
0.0
  0
CIRCLE
  8
0
  6
CONTINUOUS
 62
     1
 10
1482.7
 20
559.5
 30
0.0
 40
3.0
  0
LINE
  8
0
  6
LTYPE2
 62
     2
 10
1387.5
 20
552.5
 30
0.0
 11
1387.5
 21
568.5
 31
0.0
  0
CIRCLE
  8
0
  6
CONTINUOUS
 62
     1
 10
1387.5
 20
559.5
 30
0.0
 40
3.0
  0
LINE
  8
0
  6
CONTINUOUS
 62
     1
 10
1475.1
 20
597.0
 30
0.0
 11
1395.1
 21
597.0
 31
0.0
  0
LINE
  8
0
  6
CONTINUOUS
 62
     1
 10
1415.1
 20
522.0
 30
0.0
 11
1415.1
 21
597.0
 31
0.0
  0
LINE
  8
0
  6
CONTINUOUS
 62
     1
 10
1395.1
 20
522.0
 30
0.0
 11
1395.1
 21
597.0
 31
0.0
  0
LINE
  8
0
  6
CONTINUOUS
 62
     1
 10
1455.1
 20
522.0
 30
0.0
 11
1455.1
 21
597.0
 31
0.0
  0
LINE
  8
0
  6
CONTINUOUS
 62
     1
 10
1475.1
 20
522.0
 30
0.0
 11
1395.1
 21
522.0
 31
0.0
  0
LINE
  8
0
  6
CONTINUOUS
 62
     1
 10
1475.1
 20
522.0
 30
0.0
 11
1475.1
 21
597.0
 31
0.0
  0
LINE
  8
0
  6
LTYPE1
 62
     2
 10
1510.1
 20
544.5
 30
0.0
 11
1510.1
 21
574.5
 31
0.0
  0
LINE
  8
0
  6
LTYPE1
 62
     2
 10
1510.1
 20
574.5
 30
0.0
 11
1545.1
 21
574.5
 31
0.0
  0
LINE
  8
0
  6
LTYPE1
 62
     2
 10
1510.1
 20
544.5
 30
0.0
 11
1545.1
 21
544.5
 31
0.0
  0
LINE
  8
0
  6
LTYPE2
 62
     2
 10
1552.1
 20
559.5
 30
0.0
 11
1329.1
 21
559.5
 31
0.0
  0
ARC
  8
0
  6
CONTINUOUS
 62
     1
 10
1524.1
 20
470.5
 30
0.0
 40
6.0
 50
270.0
 51
0.0
  0
LINE
  8
0
  6
LTYPE1
 62
     2
 10
1360.1
 20
544.5
 30
0.0
 11
1325.1
 21
544.5
 31
0.0
  0
LINE
  8
0
  6
LTYPE1
 62
     2
 10
1360.1
 20
574.5
 30
0.0
 11
1325.1
 21
574.5
 31
0.0
  0
LINE
  8
0
  6
LTYPE1
 62
     2
 10
1360.1
 20
544.5
 30
0.0
 11
1360.1
 21
574.5
 31
0.0
  0
ARC
  8
0
  6
CONTINUOUS
 62
     1
 10
1387.1
 20
487.0
 30
0.0
 40
3.0
 50
90.0
 51
180.0
  0
LINE
  8
0
  6
CONTINUOUS
 62
     1
 10
1384.1
 20
440.5
 30
0.0
 11
1384.1
 21
487.0
 31
0.0
  0
ARC
  8
0
  6
CONTINUOUS
 62
     1
 10
1385.1
 20
440.5
 30
0.0
 40
1.0
 50
180.0
 51
270.0
  0
ARC
  8
0
  6
CONTINUOUS
 62
     1
 10
1388.1
 20
439.5
 30
0.0
 40
1.0
 50
180.0
 51
270.0
  0
ARC
  8
0
  6
CONTINUOUS
 62
     1
 10
1483.1
 20
487.0
 30
0.0
 40
3.0
 50
0.0
 51
90.0
  0
LINE
  8
0
  6
CONTINUOUS
 62
     1
 10
1486.1
 20
440.5
 30
0.0
 11
1486.1
 21
487.0
 31
0.0
  0
ARC
  8
0
  6
CONTINUOUS
 62
     1
 10
1485.1
 20
440.5
 30
0.0
 40
1.0
 50
270.0
 51
0.0
  0
ARC
  8
0
  6
CONTINUOUS
 62
     1
 10
1482.1
 20
439.5
 30
0.0
 40
1.0
 50
270.0
 51
0.0
  0
LINE
  8
0
  6
CONTINUOUS
 62
     1
 10
1486.1
 20
445.5
 30
0.0
 11
1384.1
 21
445.5
 31
0.0
  0
LINE
  8
0
  6
CONTINUOUS
 62
     1
 10
1486.1
 20
447.0
 30
0.0
 11
1384.1
 21
447.0
 31
0.0
  0
LINE
  8
0
  6
CONTINUOUS
 62
     1
 10
1482.1
 20
438.5
 30
0.0
 11
1388.1
 21
438.5
 31
0.0
  0
LINE
  8
0
  6
CONTINUOUS
 62
     1
 10
1485.1
 20
439.5
 30
0.0
 11
1385.1
 21
439.5
 31
0.0
  0
LINE
  8
0
  6
LTYPE3
 62
     2
 10
1480.1
 20
434.8
 30
0.0
 11
1480.1
 21
453.5
 31
0.0
  0
LINE
  8
0
  6
LTYPE3
 62
     2
 10
1390.1
 20
434.8
 30
0.0
 11
1390.1
 21
453.5
 31
0.0
  0
LINE
  8
0
  6
CONTINUOUS
 62
     1
 10
1463.6
 20
490.0
 30
0.0
 11
1483.1
 21
490.0
 31
0.0
  0
LINE
  8
0
  6
CONTINUOUS
 62
     1
 10
1466.6
 20
491.5
 30
0.0
 11
1481.1
 21
491.5
 31
0.0
  0
LINE
  8
0
  6
LTYPE2
 62
     2
 10
1455.0
 20
464.0
 30
0.0
 11
1414.3
 21
464.0
 31
0.0
  0
LINE
  8
0
  6
LTYPE2
 62
     2
 10
1512.6
 20
499.5
 30
0.0
 11
1478.6
 21
499.5
 31
0.0
  0
LINE
  8
0
  6
LTYPE2
 62
     2
 10
1495.1
 20
481.0
 30
0.0
 11
1495.1
 21
517.0
 31
0.0
  0
LINE
  8
0
  6
CONTINUOUS
 62
     1
 10
1507.1
 20
479.5
 30
0.0
 11
1486.1
 21
479.5
 31
0.0
  0
ARC
  8
0
  6
CONTINUOUS
 62
     1
 10
1507.1
 20
487.5
 30
0.0
 40
8.0
 50
270.0
 51
0.0
  0
ARC
  8
0
  6
CONTINUOUS
 62
     1
 10
1495.1
 20
499.5
 30
0.0
 40
12.0
 50
160.016893478
 51
113.198590514
  0
LINE
  8
0
  6
CONTINUOUS
 62
     2
 10
1561.1
 20
559.5
 30
0.0
 11
1605.6
 21
559.5
 31
0.0
  0
LINE
  8
0
  6
CONTINUOUS
 62
     2
 10
1596.6
 20
559.5
 30
0.0
 11
1592.717714323
 21
545.011112606
 31
0.0
  0
LINE
  8
0
  6
CONTINUOUS
 62
     2
 10
1596.6
 20
559.5
 30
0.0
 11
1600.482285677
 21
545.011112606
 31
0.0
  0
LINE
  8
0
  6
CONTINUOUS
 62
     2
 10
1596.6
 20
559.5
 30
0.0
 11
1596.6
 21
464.5
 31
0.0
  0
LINE
  8
0
  6
CONTINUOUS
 62
     2
 10
1596.6
 20
464.5
 30
0.0
 11
1600.482285677
 21
478.988887394
 31
0.0
  0
LINE
  8
0
  6
CONTINUOUS
 62
     2
 10
1596.6
 20
464.5
 30
0.0
 11
1592.717714323
 21
478.988887394
 31
0.0
  0
LINE
  8
0
  6
CONTINUOUS
 62
     2
 10
1533.1
 20
464.5
 30
0.0
 11
1605.6
 21
464.5
 31
0.0
  0
TEXT
  8
0
  6
CONTINUOUS
 62
     2
 10
1590.6
 20
495.2
 30
1.2
 40
18.0
  1
９５
 50
90.0
 41
0.9
 51
0.0
  7
KANJI18
  0
LINE
  8
0
  6
CONTINUOUS
 62
     2
 10
1596.6
 20
559.5
 30
0.0
 11
1600.482285677
 21
573.988887394
 31
0.0
  0
LINE
  8
0
  6
CONTINUOUS
 62
     2
 10
1596.6
 20
559.5
 30
0.0
 11
1592.717714323
 21
573.988887394
 31
0.0
  0
LINE
  8
0
  6
CONTINUOUS
 62
     2
 10
1596.6
 20
559.5
 30
0.0
 11
1596.6
 21
741.75
 31
0.0
  0
LINE
  8
0
  6
CONTINUOUS
 62
     2
 10
1596.6
 20
741.75
 30
0.0
 11
1592.717714323
 21
727.261112606
 31
0.0
  0
LINE
  8
0
  6
CONTINUOUS
 62
     2
 10
1596.6
 20
741.75
 30
0.0
 11
1600.482285677
 21
727.261112606
 31
0.0
  0
LINE
  8
0
  6
CONTINUOUS
 62
     2
 10
1566.6
 20
741.75
 30
0.0
 11
1605.6
 21
741.75
 31
0.0
  0
TEXT
  8
0
  6
CONTINUOUS
 62
     2
 10
1590.6
 20
625.125
 30
1.2
 40
18.0
  1
１８３
 50
90.0
 41
0.9
 51
0.0
  7
KANJI18
  0
LINE
  8
0
  6
CONTINUOUS
 62
     2
 10
1596.6
 20
741.75
 30
0.0
 11
1600.482285677
 21
756.238887394
 31
0.0
  0
LINE
  8
0
  6
CONTINUOUS
 62
     2
 10
1596.6
 20
741.75
 30
0.0
 11
1592.717714323
 21
756.238887394
 31
0.0
  0
LINE
  8
0
  6
CONTINUOUS
 62
     2
 10
1643.6
 20
559.5
 30
0.0
 11
1647.482285677
 21
573.988887394
 31
0.0
  0
LINE
  8
0
  6
CONTINUOUS
 62
     2
 10
1643.6
 20
559.5
 30
0.0
 11
1639.717714323
 21
573.988887394
 31
0.0
  0
LINE
  8
0
  6
CONTINUOUS
 62
     2
 10
1605.6
 20
559.5
 30
0.0
 11
1652.6
 21
559.5
 31
0.0
  0
LINE
  8
0
  6
CONTINUOUS
 62
     2
 10
1643.6
 20
559.5
 30
0.0
 11
1639.717714323
 21
545.011112606
 31
0.0
  0
LINE
  8
0
  6
CONTINUOUS
 62
     2
 10
1643.6
 20
559.5
 30
0.0
 11
1647.482285677
 21
545.011112606
 31
0.0
  0
LINE
  8
0
  6
CONTINUOUS
 62
     2
 10
1643.6
 20
559.5
 30
0.0
 11
1643.6
 21
438.5
 31
0.0
  0
LINE
  8
0
  6
CONTINUOUS
 62
     2
 10
1643.6
 20
438.5
 30
0.0
 11
1647.482285677
 21
452.988887394
 31
0.0
  0
LINE
  8
0
  6
CONTINUOUS
 62
     2
 10
1643.6
 20
438.5
 30
0.0
 11
1639.717714323
 21
452.988887394
 31
0.0
  0
LINE
  8
0
  6
CONTINUOUS
 62
     2
 10
1491.1
 20
438.5
 30
0.0
 11
1652.6
 21
438.5
 31
0.0
  0
TEXT
  8
0
  6
CONTINUOUS
 62
     2
 10
1637.6
 20
473.5
 30
1.2
 40
18.0
  1
１２１
 50
90.0
 41
0.9
 51
0.0
  7
KANJI18
  0
LINE
  8
0
  6
CONTINUOUS
 62
     2
 10
1340.1
 20
372.0
 30
0.0
 11
1354.588887394
 21
368.117714323
 31
0.0
  0
LINE
  8
0
  6
CONTINUOUS
 62
     2
 10
1340.1
 20
372.0
 30
0.0
 11
1354.588887394
 21
375.882285677
 31
0.0
  0
LINE
  8
0
  6
CONTINUOUS
 62
     2
 10
1340.1
 20
372.0
 30
0.0
 11
1530.1
 21
372.0
 31
0.0
  0
LINE
  8
0
  6
CONTINUOUS
 62
     2
 10
1530.1
 20
372.0
 30
0.0
 11
1515.611112606
 21
375.882285677
 31
0.0
  0
LINE
  8
0
  6
CONTINUOUS
 62
     2
 10
1530.1
 20
372.0
 30
0.0
 11
1515.611112606
 21
368.117714323
 31
0.0
  0
LINE
  8
0
  6
CONTINUOUS
 62
     2
 10
1530.1
 20
461.5
 30
0.0
 11
1530.1
 21
363.0
 31
0.0
  0
TEXT
  8
0
  6
CONTINUOUS
 62
     2
 10
1409.6
 20
378.0
 30
1.2
 40
18.0
  1
１９０
 50
0.0
 41
0.9
 51
0.0
  7
KANJI18
  0
LINE
  8
0
  6
CONTINUOUS
 62
     2
 10
1325.1
 20
329.0
 30
0.0
 11
1339.588887394
 21
325.117714323
 31
0.0
  0
LINE
  8
0
  6
CONTINUOUS
 62
     2
 10
1325.1
 20
329.0
 30
0.0
 11
1339.588887394
 21
332.882285677
 31
0.0
  0
LINE
  8
0
  6
CONTINUOUS
 62
     2
 10
1325.1
 20
329.0
 30
0.0
 11
1545.1
 21
329.0
 31
0.0
  0
LINE
  8
0
  6
CONTINUOUS
 62
     2
 10
1545.1
 20
329.0
 30
0.0
 11
1530.611112606
 21
332.882285677
 31
0.0
  0
LINE
  8
0
  6
CONTINUOUS
 62
     2
 10
1545.1
 20
329.0
 30
0.0
 11
1530.611112606
 21
325.117714323
 31
0.0
  0
LINE
  8
0
  6
CONTINUOUS
 62
     2
 10
1545.1
 20
515.5
 30
0.0
 11
1545.1
 21
320.0
 31
0.0
  0
TEXT
  8
0
  6
CONTINUOUS
 62
     2
 10
1409.6
 20
335.0
 30
1.2
 40
18.0
  1
２２０
 50
0.0
 41
0.9
 51
0.0
  7
KANJI18
  0
LINE
  8
0
  6
CONTINUOUS
 62
     2
 10
1435.1
 20
408.5
 30
0.0
 11
1435.1
 21
404.05
 31
0.0
  0
CIRCLE
  8
0
  6
LTYPE1
 62
     2
 10
1435.1
 20
464.0
 30
0.0
 40
10.4775
  0
CIRCLE
  8
0
  6
LTYPE1
 62
     2
 10
1435.1
 20
464.0
 30
0.0
 40
9.3155
  0
CIRCLE
  8
0
  6
CONTINUOUS
 62
     1
 10
1435.1
 20
559.5
 30
0.0
 40
75.0
  0
LINE
  8
0
  6
CONTINUOUS
 62
     1
 10
1325.1
 20
470.75
 30
0.0
 11
1325.1
 21
706.75
 31
0.0
  0
ARC
  8
0
  6
CONTINUOUS
 62
     1
 10
1333.1
 20
706.75
 30
0.0
 40
8.0
 50
90.0
 51
180.0
  0
LINE
  8
0
  6
CONTINUOUS
 62
     1
 10
1333.1
 20
714.75
 30
0.0
 11
1340.1
 21
714.75
 31
0.0
  0
ARC
  8
0
  6
CONTINUOUS
 62
     1
 10
1537.1
 20
470.75
 30
0.0
 40
8.0
 50
270.0
 51
0.0
  0
LINE
  8
0
  6
CONTINUOUS
 62
     1
 10
1545.1
 20
470.75
 30
0.0
 11
1545.1
 21
706.75
 31
0.0
  0
ARC
  8
0
  6
CONTINUOUS
 62
     1
 10
1537.1
 20
706.75
 30
0.0
 40
8.0
 50
0.0
 51
90.0
  0
LINE
  8
0
  6
CONTINUOUS
 62
     1
 10
1537.1
 20
714.75
 30
0.0
 11
1530.1
 21
714.75
 31
0.0
  0
LINE
  8
0
  6
CONTINUOUS
 62
     2
 10
1274.1
 20
544.5
 30
0.0
 11
1270.217714323
 21
530.011112606
 31
0.0
  0
LINE
  8
0
  6
CONTINUOUS
 62
     2
 10
1274.1
 20
544.5
 30
0.0
 11
1277.982285677
 21
530.011112606
 31
0.0
  0
LINE
  8
0
  6
CONTINUOUS
 62
     2
 10
1274.1
 20
574.5
 30
0.0
 11
1277.982285677
 21
588.988887394
 31
0.0
  0
LINE
  8
0
  6
CONTINUOUS
 62
     2
 10
1274.1
 20
574.5
 30
0.0
 11
1270.217714323
 21
588.988887394
 31
0.0
  0
LINE
  8
0
  6
CONTINUOUS
 62
     2
 10
1319.477633636
 20
574.5
 30
0.0
 11
1266.9
 21
574.5
 31
0.0
  0
LINE
  8
0
  6
CONTINUOUS
 62
     2
 10
1316.1
 20
544.5
 30
0.0
 11
1266.4
 21
544.5
 31
0.0
  0
LINE
  8
0
  6
CONTINUOUS
 62
     1
 10
1320.3
 20
510.6
 30
0.0
 11
1320.3
 21
482.9
 31
0.0
  0
LINE
  8
0
  6
CONTINUOUS
 62
     1
 10
1325.1
 20
503.65
 30
0.0
 11
1320.3
 21
503.65
 31
0.0
  0
LINE
  8
0
  6
CONTINUOUS
 62
     1
 10
1325.1
 20
489.85
 30
0.0
 11
1320.3
 21
489.85
 31
0.0
  0
LINE
  8
0
  6
CONTINUOUS
 62
     1
 10
1325.1
 20
482.9
 30
0.0
 11
1320.3
 21
482.9
 31
0.0
  0
LINE
  8
0
  6
CONTINUOUS
 62
     1
 10
1325.1
 20
510.6
 30
0.0
 11
1320.3
 21
510.6
 31
0.0
  0
LINE
  8
0
  6
CONTINUOUS
 62
     1
 10
1315.1
 20
511.4
 30
0.0
 11
1315.1
 21
482.1
 31
0.0
  0
LINE
  8
0
  6
CONTINUOUS
 62
     1
 10
1315.1
 20
511.4
 30
0.0
 11
1302.1
 21
511.4
 31
0.0
  0
ARC
  8
0
  6
CONTINUOUS
 62
     1
 10
1302.1
 20
509.4
 30
0.0
 40
2.0
 50
90.0
 51
180.0
  0
LINE
  8
0
  6
CONTINUOUS
 62
     1
 10
1315.1
 20
482.1
 30
0.0
 11
1302.1
 21
482.1
 31
0.0
  0
LINE
  8
0
  6
CONTINUOUS
 62
     1
 10
1300.1
 20
509.4
 30
0.0
 11
1300.1
 21
484.1
 31
0.0
  0
ARC
  8
0
  6
CONTINUOUS
 62
     1
 10
1302.1
 20
484.1
 30
0.0
 40
2.0
 50
180.0
 51
270.0
  0
LINE
  8
0
  6
CONTINUOUS
 62
     1
 10
1304.1
 20
484.1
 30
0.0
 11
1315.1
 21
484.1
 31
0.0
  0
LINE
  8
0
  6
CONTINUOUS
 62
     1
 10
1304.1
 20
493.0
 30
0.0
 11
1315.1
 21
493.0
 31
0.0
  0
LINE
  8
0
  6
CONTINUOUS
 62
     1
 10
1304.1
 20
488.9
 30
0.0
 11
1315.1
 21
488.9
 31
0.0
  0
LINE
  8
0
  6
CONTINUOUS
 62
     1
 10
1304.1
 20
488.9
 30
0.0
 11
1304.1
 21
484.1
 31
0.0
  0
LINE
  8
0
  6
CONTINUOUS
 62
     1
 10
1304.1
 20
496.75
 30
0.0
 11
1304.1
 21
493.0
 31
0.0
  0
LINE
  8
0
  6
CONTINUOUS
 62
     1
 10
1304.1
 20
509.4
 30
0.0
 11
1315.1
 21
509.4
 31
0.0
  0
LINE
  8
0
  6
CONTINUOUS
 62
     1
 10
1304.1
 20
500.5
 30
0.0
 11
1315.1
 21
500.5
 31
0.0
  0
LINE
  8
0
  6
CONTINUOUS
 62
     1
 10
1304.1
 20
504.6
 30
0.0
 11
1315.1
 21
504.6
 31
0.0
  0
LINE
  8
0
  6
CONTINUOUS
 62
     1
 10
1304.1
 20
504.6
 30
0.0
 11
1304.1
 21
509.4
 31
0.0
  0
LINE
  8
0
  6
CONTINUOUS
 62
     1
 10
1304.1
 20
496.75
 30
0.0
 11
1304.1
 21
500.5
 31
0.0
  0
LINE
  8
0
  6
CONTINUOUS
 62
     1
 10
1320.4
 20
484.05
 30
0.0
 11
1315.1
 21
484.05
 31
0.0
  0
LINE
  8
0
  6
CONTINUOUS
 62
     1
 10
1320.4
 20
484.85
 30
0.0
 11
1315.1
 21
484.85
 31
0.0
  0
LINE
  8
0
  6
CONTINUOUS
 62
     1
 10
1320.4
 20
509.45
 30
0.0
 11
1315.1
 21
509.45
 31
0.0
  0
LINE
  8
0
  6
CONTINUOUS
 62
     1
 10
1320.4
 20
508.65
 30
0.0
 11
1315.1
 21
508.65
 31
0.0
  0
LINE
  8
0
  6
CONTINUOUS
 62
     2
 10
1325.1
 20
462.25
 30
0.0
 11
1325.1
 21
320.0
 31
0.0
  0
ARC
  8
0
  6
CONTINUOUS
 62
     1
 10
1450.087995196
 20
787.35
 30
0.0
 40
8.0
 50
200.487315115
 51
251.805127661
  0
ARC
  8
0
  6
CONTINUOUS
 62
     1
 10
1420.112004804
 20
787.35
 30
0.0
 40
8.0
 50
288.194872339
 51
339.512684885
  0
ARC
  8
0
  6
CONTINUOUS
 62
     1
 10
1435.1
 20
781.75
 30
0.0
 40
8.0
 50
20.487315115
 51
159.512540111
  0
ARC
  8
0
  6
CONTINUOUS
 62
     1
 10
1450.087995196
 20
696.15
 30
0.0
 40
8.0
 50
108.194872339
 51
159.512684885
  0
ARC
  8
0
  6
CONTINUOUS
 62
     1
 10
1420.112004804
 20
696.15
 30
0.0
 40
8.0
 50
20.487315115
 51
71.805127661
  0
ARC
  8
0
  6
CONTINUOUS
 62
     1
 10
1435.1
 20
701.75
 30
0.0
 40
8.0
 50
200.487459889
 51
339.512684885
  0
ARC
  8
0
  6
CONTINUOUS
 62
     1
 10
1435.1
 20
741.75
 30
0.0
 40
40.0
 50
108.194872339
 51
251.805127661
  0
ARC
  8
0
  6
CONTINUOUS
 62
     1
 10
1481.1
 20
741.75
 30
0.0
 40
9.0
 50
278.674045508
 51
81.325934821
  0
CIRCLE
  8
0
  6
CONTINUOUS
 62
     1
 10
1435.1
 20
741.75
 30
0.0
 40
23.0
  0
ARC
  8
0
  6
CONTINUOUS
 62
     1
 10
1435.1
 20
741.75
 30
0.0
 40
40.0
 50
25.554707728
 51
71.805142343
  0
ARC
  8
0
  6
CONTINUOUS
 62
     1
 10
1435.1
 20
741.75
 30
0.0
 40
40.0
 50
288.194857657
 51
334.445306215
  0
LINE
  8
0
  6
CONTINUOUS
 62
     2
 10
1478.1
 20
758.75
 30
0.0
 11
1478.1
 21
722.75
 31
0.0
  0
LINE
  8
0
  6
CONTINUOUS
 62
     1
 10
1479.1
 20
757.85
 30
0.0
 11
1477.1
 21
757.85
 31
0.0
  0
LINE
  8
0
  6
CONTINUOUS
 62
     1
 10
1477.1
 20
757.85
 30
0.0
 11
1475.1
 21
746.25
 31
0.0
  0
LINE
  8
0
  6
CONTINUOUS
 62
     1
 10
1479.1
 20
757.85
 30
0.0
 11
1481.1
 21
746.25
 31
0.0
  0
LINE
  8
0
  6
CONTINUOUS
 62
     1
 10
1479.1
 20
725.65
 30
0.0
 11
1477.1
 21
725.65
 31
0.0
  0
LINE
  8
0
  6
CONTINUOUS
 62
     1
 10
1477.1
 20
725.65
 30
0.0
 11
1475.1
 21
737.25
 31
0.0
  0
LINE
  8
0
  6
CONTINUOUS
 62
     1
 10
1479.1
 20
725.65
 30
0.0
 11
1481.1
 21
737.25
 31
0.0
  0
ARC
  8
0
  6
CONTINUOUS
 62
     1
 10
1484.719565217
 20
765.4754873
 30
0.0
 40
15.0
 50
205.554693785
 51
235.747997449
  0
ARC
  8
0
  6
CONTINUOUS
 62
     1
 10
1484.719565217
 20
765.4754873
 30
0.0
 40
15.0
 50
252.681090544
 51
261.325827457
  0
ARC
  8
0
  6
CONTINUOUS
 62
     1
 10
1484.719565217
 20
718.0245127
 30
0.0
 40
15.0
 50
124.468179449
 51
154.445306215
  0
ARC
  8
0
  6
CONTINUOUS
 62
     1
 10
1484.719565217
 20
718.0245127
 30
0.0
 40
15.0
 50
98.674172543
 51
107.318909456
  0
CIRCLE
  8
0
  6
CONTINUOUS
 62
     1
 10
1478.1
 20
741.75
 30
0.0
 40
3.0
  0
LINE
  8
0
  6
CONTINUOUS
 62
     1
 10
1475.121304702
 20
746.373567272
 30
0.0
 11
1475.078695298
 21
737.126432728
 31
0.0
  0
LINE
  8
0
  6
CONTINUOUS
 62
     1
 10
1481.121304702
 20
737.126432728
 30
0.0
 11
1481.078695298
 21
746.373567272
 31
0.0
  0
ARC
  8
0
  6
CONTINUOUS
 62
     1
 10
1478.1
 20
741.75
 30
0.0
 40
5.5
 50
304.570397879
 51
57.208673154
  0
ARC
  8
0
  6
CONTINUOUS
 62
     1
 10
1478.1
 20
741.75
 30
0.0
 40
5.5
 50
122.791326846
 51
235.429602121
  0
LINE
  8
0
  6
CONTINUOUS
 62
     1
 10
1437.45
 20
788.820319398
 30
0.0
 11
1432.75
 21
788.820319398
 31
0.0
  0
LINE
  8
0
  6
CONTINUOUS
 62
     1
 10
1432.75
 20
788.820319398
 30
0.0
 11
1430.4
 21
784.75
 31
0.0
  0
LINE
  8
0
  6
CONTINUOUS
 62
     1
 10
1430.4
 20
784.75
 30
0.0
 11
1432.75
 21
780.679680602
 31
0.0
  0
LINE
  8
0
  6
CONTINUOUS
 62
     1
 10
1432.75
 20
780.679680602
 30
0.0
 11
1437.45
 21
780.679680602
 31
0.0
  0
LINE
  8
0
  6
CONTINUOUS
 62
     1
 10
1437.45
 20
780.679680602
 30
0.0
 11
1439.8
 21
784.75
 31
0.0
  0
LINE
  8
0
  6
CONTINUOUS
 62
     1
 10
1439.8
 20
784.75
 30
0.0
 11
1437.45
 21
788.820319398
 31
0.0
  0
LINE
  8
0
  6
CONTINUOUS
 62
     2
 10
1441.1
 20
784.75
 30
0.0
 11
1429.1
 21
784.75
 31
0.0
  0
LINE
  8
0
  6
CONTINUOUS
 62
     1
 10
1437.45
 20
694.679680602
 30
0.0
 11
1432.75
 21
694.679680602
 31
0.0
  0
LINE
  8
0
  6
CONTINUOUS
 62
     1
 10
1432.75
 20
694.679680602
 30
0.0
 11
1430.4
 21
698.75
 31
0.0
  0
LINE
  8
0
  6
CONTINUOUS
 62
     1
 10
1430.4
 20
698.75
 30
0.0
 11
1432.75
 21
702.820319398
 31
0.0
  0
LINE
  8
0
  6
CONTINUOUS
 62
     1
 10
1432.75
 20
702.820319398
 30
0.0
 11
1437.45
 21
702.820319398
 31
0.0
  0
LINE
  8
0
  6
CONTINUOUS
 62
     1
 10
1437.45
 20
702.820319398
 30
0.0
 11
1439.8
 21
698.75
 31
0.0
  0
LINE
  8
0
  6
CONTINUOUS
 62
     1
 10
1439.8
 20
698.75
 30
0.0
 11
1437.45
 21
694.679680602
 31
0.0
  0
LINE
  8
0
  6
CONTINUOUS
 62
     2
 10
1441.1
 20
698.75
 30
0.0
 11
1429.1
 21
698.75
 31
0.0
  0
LINE
  8
0
  6
CONTINUOUS
 62
     1
 10
1430.163655198
 20
744.6
 30
0.0
 11
1430.163655198
 21
738.9
 31
0.0
  0
LINE
  8
0
  6
CONTINUOUS
 62
     1
 10
1430.163655198
 20
738.9
 30
0.0
 11
1435.1
 21
736.05
 31
0.0
  0
LINE
  8
0
  6
CONTINUOUS
 62
     1
 10
1435.1
 20
736.05
 30
0.0
 11
1440.036344802
 21
738.9
 31
0.0
  0
LINE
  8
0
  6
CONTINUOUS
 62
     1
 10
1440.036344802
 20
738.9
 30
0.0
 11
1440.036344802
 21
744.6
 31
0.0
  0
LINE
  8
0
  6
CONTINUOUS
 62
     1
 10
1440.036344802
 20
744.6
 30
0.0
 11
1435.1
 21
747.45
 31
0.0
  0
LINE
  8
0
  6
CONTINUOUS
 62
     1
 10
1435.1
 20
747.45
 30
0.0
 11
1430.163655198
 21
744.6
 31
0.0
  0
CIRCLE
  8
0
  6
CONTINUOUS
 62
     1
 10
1435.1
 20
741.75
 30
0.0
 40
6.5
  0
LINE
  8
0
  6
CONTINUOUS
 62
     1
 10
1465.1
 20
823.75
 30
0.0
 11
1465.1
 21
826.75
 31
0.0
  0
ARC
  8
0
  6
CONTINUOUS
 62
     1
 10
1461.1
 20
820.75
 30
0.0
 40
3.0
 50
90.0
 51
180.0
  0
LINE
  8
0
  6
CONTINUOUS
 62
     1
 10
1458.1
 20
809.903619242
 30
0.0
 11
1458.1
 21
820.75
 31
0.0
  0
ARC
  8
0
  6
CONTINUOUS
 62
     1
 10
1454.1
 20
809.903619242
 30
0.0
 40
4.0
 50
304.936144888
 51
0.0
  0
ARC
  8
0
  6
CONTINUOUS
 62
     1
 10
1409.1
 20
820.75
 30
0.0
 40
3.0
 50
0.0
 51
90.0
  0
LINE
  8
0
  6
CONTINUOUS
 62
     1
 10
1412.1
 20
809.903619242
 30
0.0
 11
1412.1
 21
820.75
 31
0.0
  0
ARC
  8
0
  6
CONTINUOUS
 62
     1
 10
1416.1
 20
809.903619242
 30
0.0
 40
4.0
 50
180.0
 51
235.063855112
  0
CIRCLE
  8
0
  6
CONTINUOUS
 62
     1
 10
1435.1
 20
848.75
 30
0.0
 40
17.0
  0
LINE
  8
0
  6
LTYPE2
 62
     2
 10
1412.1
 20
848.75
 30
0.0
 11
1458.1
 21
848.75
 31
0.0
  0
ARC
  8
0
  6
CONTINUOUS
 62
     1
 10
1393.1
 20
870.770045888
 30
0.0
 40
2.0
 50
90.0
 51
180.0
  0
ARC
  8
0
  6
CONTINUOUS
 62
     1
 10
1401.1
 20
876.75
 30
0.0
 40
2.0
 50
90.0
 51
180.0
  0
LINE
  8
0
  6
CONTINUOUS
 62
     1
 10
1401.1
 20
878.75
 30
0.0
 11
1469.1
 21
878.75
 31
0.0
  0
ARC
  8
0
  6
CONTINUOUS
 62
     1
 10
1469.1
 20
876.75
 30
0.0
 40
2.0
 50
0.0
 51
90.0
  0
LINE
  8
0
  6
CONTINUOUS
 62
     1
 10
1477.1
 20
872.770045888
 30
0.0
 11
1393.1
 21
872.770045888
 31
0.0
  0
ARC
  8
0
  6
CONTINUOUS
 62
     1
 10
1477.1
 20
870.770045888
 30
0.0
 40
2.0
 50
0.0
 51
90.0
  0
ARC
  8
0
  6
CONTINUOUS
 62
     1
 10
1393.1
 20
874.770045888
 30
0.0
 40
2.0
 50
90.0
 51
180.0
  0
ARC
  8
0
  6
CONTINUOUS
 62
     1
 10
1401.1
 20
867.75
 30
0.0
 40
2.0
 50
90.0
 51
180.0
  0
LINE
  8
0
  6
CONTINUOUS
 62
     1
 10
1401.1
 20
869.75
 30
0.0
 11
1469.1
 21
869.75
 31
0.0
  0
ARC
  8
0
  6
CONTINUOUS
 62
     1
 10
1469.1
 20
867.75
 30
0.0
 40
2.0
 50
0.0
 51
90.0
  0
LINE
  8
0
  6
CONTINUOUS
 62
     1
 10
1477.1
 20
876.770045888
 30
0.0
 11
1393.1
 21
876.770045888
 31
0.0
  0
ARC
  8
0
  6
CONTINUOUS
 62
     1
 10
1477.1
 20
874.770045888
 30
0.0
 40
2.0
 50
0.0
 51
90.0
  0
LINE
  8
0
  6
CONTINUOUS
 62
     1
 10
1405.1
 20
823.75
 30
0.0
 11
1465.1
 21
823.75
 31
0.0
  0
LINE
  8
0
  6
CONTINUOUS
 62
     1
 10
1405.1
 20
823.75
 30
0.0
 11
1405.1
 21
826.75
 31
0.0
  0
LINE
  8
0
  6
CONTINUOUS
 62
     1
 10
1471.1
 20
828.75
 30
0.0
 11
1477.1
 21
828.75
 31
0.0
  0
LINE
  8
0
  6
CONTINUOUS
 62
     1
 10
1479.1
 20
830.75
 30
0.0
 11
1479.1
 21
874.770045888
 31
0.0
  0
ARC
  8
0
  6
CONTINUOUS
 62
     1
 10
1477.1
 20
830.75
 30
0.0
 40
2.0
 50
270.0
 51
0.0
  0
LINE
  8
0
  6
CONTINUOUS
 62
     1
 10
1471.1
 20
828.75
 30
0.0
 11
1471.1
 21
867.75
 31
0.0
  0
ARC
  8
0
  6
CONTINUOUS
 62
     1
 10
1469.1
 20
828.75
 30
0.0
 40
2.0
 50
270.0
 51
0.0
  0
LINE
  8
0
  6
CONTINUOUS
 62
     1
 10
1399.1
 20
828.75
 30
0.0
 11
1399.1
 21
867.75
 31
0.0
  0
LINE
  8
0
  6
CONTINUOUS
 62
     1
 10
1401.1
 20
826.75
 30
0.0
 11
1469.1
 21
826.75
 31
0.0
  0
ARC
  8
0
  6
CONTINUOUS
 62
     1
 10
1401.1
 20
828.75
 30
0.0
 40
2.0
 50
180.0
 51
270.0
  0
LINE
  8
0
  6
CONTINUOUS
 62
     1
 10
1399.1
 20
828.75
 30
0.0
 11
1393.1
 21
828.75
 31
0.0
  0
LINE
  8
0
  6
CONTINUOUS
 62
     1
 10
1391.1
 20
830.75
 30
0.0
 11
1391.1
 21
874.770045888
 31
0.0
  0
ARC
  8
0
  6
CONTINUOUS
 62
     1
 10
1393.1
 20
830.75
 30
0.0
 40
2.0
 50
180.0
 51
270.0
  0
CIRCLE
  8
0
  6
CONTINUOUS
 62
     2
 10
1435.1
 20
848.75
 30
0.0
 40
15.0
  0
CIRCLE
  8
0
  6
CONTINUOUS
 62
     1
 10
1435.1
 20
741.75
 30
0.0
 40
71.0
  0
ARC
  8
0
  6
CONTINUOUS
 62
     1
 10
1435.1
 20
741.75
 30
0.0
 40
100.0
 50
116.103881137
 51
63.896118863
  0
LINE
  8
0
  6
LTYPE2
 62
     2
 10
1385.1
 20
791.75
 30
0.0
 11
1369.1
 21
807.75
 31
0.0
  0
LINE
  8
0
  6
CONTINUOUS
 62
     1
 10
1381.763690552
 20
808.746563486
 30
0.0
 11
1371.763690552
 21
808.746563486
 31
0.0
  0
LINE
  8
0
  6
CONTINUOUS
 62
     1
 10
1371.763690552
 20
808.746563486
 30
0.0
 11
1366.763690552
 21
800.086309448
 31
0.0
  0
LINE
  8
0
  6
CONTINUOUS
 62
     1
 10
1366.763690552
 20
800.086309448
 30
0.0
 11
1371.763690552
 21
791.42605541
 31
0.0
  0
LINE
  8
0
  6
CONTINUOUS
 62
     1
 10
1371.763690552
 20
791.42605541
 30
0.0
 11
1381.763690552
 21
791.42605541
 31
0.0
  0
LINE
  8
0
  6
CONTINUOUS
 62
     1
 10
1381.763690552
 20
791.42605541
 30
0.0
 11
1386.763690552
 21
800.086309448
 31
0.0
  0
LINE
  8
0
  6
CONTINUOUS
 62
     1
 10
1386.763690552
 20
800.086309448
 30
0.0
 11
1381.763690552
 21
808.746563486
 31
0.0
  0
LINE
  8
0
  6
LTYPE2
 62
     2
 10
1485.1
 20
791.75
 30
0.0
 11
1501.1
 21
807.75
 31
0.0
  0
LINE
  8
0
  6
CONTINUOUS
 62
     1
 10
1488.436309448
 20
808.746563486
 30
0.0
 11
1498.436309448
 21
808.746563486
 31
0.0
  0
LINE
  8
0
  6
CONTINUOUS
 62
     1
 10
1498.436309448
 20
808.746563486
 30
0.0
 11
1503.436309448
 21
800.086309448
 31
0.0
  0
LINE
  8
0
  6
CONTINUOUS
 62
     1
 10
1503.436309448
 20
800.086309448
 30
0.0
 11
1498.436309448
 21
791.42605541
 31
0.0
  0
LINE
  8
0
  6
CONTINUOUS
 62
     1
 10
1498.436309448
 20
791.42605541
 30
0.0
 11
1488.436309448
 21
791.42605541
 31
0.0
  0
LINE
  8
0
  6
CONTINUOUS
 62
     1
 10
1488.436309448
 20
791.42605541
 30
0.0
 11
1483.436309448
 21
800.086309448
 31
0.0
  0
LINE
  8
0
  6
CONTINUOUS
 62
     1
 10
1483.436309448
 20
800.086309448
 30
0.0
 11
1488.436309448
 21
808.746563486
 31
0.0
  0
LINE
  8
0
  6
LTYPE2
 62
     2
 10
1385.1
 20
691.75
 30
0.0
 11
1369.1
 21
675.75
 31
0.0
  0
LINE
  8
0
  6
CONTINUOUS
 62
     1
 10
1381.763690552
 20
674.753436514
 30
0.0
 11
1371.763690552
 21
674.753436514
 31
0.0
  0
LINE
  8
0
  6
CONTINUOUS
 62
     1
 10
1371.763690552
 20
674.753436514
 30
0.0
 11
1366.763690552
 21
683.413690552
 31
0.0
  0
LINE
  8
0
  6
CONTINUOUS
 62
     1
 10
1366.763690552
 20
683.413690552
 30
0.0
 11
1371.763690552
 21
692.07394459
 31
0.0
  0
LINE
  8
0
  6
CONTINUOUS
 62
     1
 10
1371.763690552
 20
692.07394459
 30
0.0
 11
1381.763690552
 21
692.07394459
 31
0.0
  0
LINE
  8
0
  6
CONTINUOUS
 62
     1
 10
1381.763690552
 20
692.07394459
 30
0.0
 11
1386.763690552
 21
683.413690552
 31
0.0
  0
LINE
  8
0
  6
CONTINUOUS
 62
     1
 10
1386.763690552
 20
683.413690552
 30
0.0
 11
1381.763690552
 21
674.753436514
 31
0.0
  0
LINE
  8
0
  6
LTYPE2
 62
     2
 10
1485.1
 20
691.75
 30
0.0
 11
1501.1
 21
675.75
 31
0.0
  0
LINE
  8
0
  6
CONTINUOUS
 62
     1
 10
1488.436309448
 20
674.753436514
 30
0.0
 11
1498.436309448
 21
674.753436514
 31
0.0
  0
LINE
  8
0
  6
CONTINUOUS
 62
     1
 10
1498.436309448
 20
674.753436514
 30
0.0
 11
1503.436309448
 21
683.413690552
 31
0.0
  0
LINE
  8
0
  6
CONTINUOUS
 62
     1
 10
1503.436309448
 20
683.413690552
 30
0.0
 11
1498.436309448
 21
692.07394459
 31
0.0
  0
LINE
  8
0
  6
CONTINUOUS
 62
     1
 10
1498.436309448
 20
692.07394459
 30
0.0
 11
1488.436309448
 21
692.07394459
 31
0.0
  0
LINE
  8
0
  6
CONTINUOUS
 62
     1
 10
1488.436309448
 20
692.07394459
 30
0.0
 11
1483.436309448
 21
683.413690552
 31
0.0
  0
LINE
  8
0
  6
CONTINUOUS
 62
     1
 10
1483.436309448
 20
683.413690552
 30
0.0
 11
1488.436309448
 21
674.753436514
 31
0.0
  0
ARC
  8
0
  6
LTYPE2
 62
     2
 10
1435.1
 20
741.75
 30
0.0
 40
82.5
 50
213.899731785
 51
235.960335446
  0
ARC
  8
0
  6
LTYPE2
 62
     2
 10
1435.1
 20
741.75
 30
0.0
 40
82.5
 50
300.927939213
 51
327.087998905
  0
ARC
  8
0
  6
LTYPE2
 62
     2
 10
1435.1
 20
741.75
 30
0.0
 40
82.5
 50
122.095648245
 51
145.904134413
  0
ARC
  8
0
  6
LTYPE2
 62
     2
 10
1435.1
 20
741.75
 30
0.0
 40
82.5
 50
35.204140887
 51
56.44447448
  0
LINE
  8
0
  6
LTYPE2
 62
     2
 10
1435.1
 20
426.0
 30
0.0
 11
1435.1
 21
890.0
 31
0.0
  0
LINE
  8
0
  6
CONTINUOUS
 62
     2
 10
1596.6
 20
878.75
 30
0.0
 11
1592.717714323
 21
864.261112606
 31
0.0
  0
LINE
  8
0
  6
CONTINUOUS
 62
     2
 10
1596.6
 20
878.75
 30
0.0
 11
1600.482285677
 21
864.261112606
 31
0.0
  0
LINE
  8
0
  6
CONTINUOUS
 62
     2
 10
1488.1
 20
878.75
 30
0.0
 11
1605.6
 21
878.75
 31
0.0
  0
LINE
  8
0
  6
CONTINUOUS
 62
     2
 10
1605.6
 20
878.75
 30
0.0
 11
1652.6
 21
878.75
 31
0.0
  0
LINE
  8
0
  6
CONTINUOUS
 62
     2
 10
1643.6
 20
878.75
 30
0.0
 11
1639.717714323
 21
864.261112606
 31
0.0
  0
LINE
  8
0
  6
CONTINUOUS
 62
     2
 10
1643.6
 20
878.75
 30
0.0
 11
1647.482285677
 21
864.261112606
 31
0.0
  0
LINE
  8
0
  6
CONTINUOUS
 62
     2
 10
1596.6
 20
741.75
 30
0.0
 11
1596.6
 21
878.75
 31
0.0
  0
TEXT
  8
0
  6
CONTINUOUS
 62
     2
 10
1590.6
 20
799.2
 30
1.2
 40
18.0
  1
１３７
 50
90.0
 41
0.9
 51
0.0
  7
KANJI18
  0
LINE
  8
0
  6
CONTINUOUS
 62
     2
 10
1643.6
 20
878.75
 30
0.0
 11
1643.6
 21
559.5
 31
0.0
  0
TEXT
  8
0
  6
CONTINUOUS
 62
     2
 10
1637.6
 20
708.075
 30
1.2
 40
18.0
  1
３２０
 50
90.0
 41
0.9
 51
0.0
  7
KANJI18
  0
ARC
  8
0
  6
CONTINUOUS
 62
     1
 10
1280.1
 20
486.25
 30
0.0
 40
6.0
 50
90.0
 51
180.0
  0
LINE
  8
0
  6
CONTINUOUS
 62
     1
 10
1274.1
 20
473.75
 30
0.0
 11
1274.1
 21
486.25
 31
0.0
  0
ARC
  8
0
  6
CONTINUOUS
 62
     1
 10
1280.1
 20
473.75
 30
0.0
 40
6.0
 50
180.0
 51
270.0
  0
ARC
  8
0
  6
CONTINUOUS
 62
     1
 10
1280.1
 20
473.75
 30
0.0
 40
15.0
 50
180.0
 51
270.0
  0
ARC
  8
0
  6
CONTINUOUS
 62
     1
 10
1280.1
 20
486.25
 30
0.0
 40
15.0
 50
90.0
 51
180.0
  0
LINE
  8
0
  6
CONTINUOUS
 62
     1
 10
1265.1
 20
473.75
 30
0.0
 11
1265.1
 21
486.25
 31
0.0
  0
ARC
  8
0
  6
LTYPE2
 62
     2
 10
1280.1
 20
473.75
 30
0.0
 40
10.5
 50
180.0
 51
270.0
  0
LINE
  8
0
  6
LTYPE2
 62
     2
 10
1269.6
 20
473.75
 30
0.0
 11
1269.6
 21
486.25
 31
0.0
  0
ARC
  8
0
  6
LTYPE2
 62
     2
 10
1280.1
 20
486.25
 30
0.0
 40
10.5
 50
90.0
 51
180.0
  0
LINE
  8
0
  6
CONTINUOUS
 62
     1
 10
1300.1
 20
501.25
 30
0.0
 11
1280.1
 21
501.25
 31
0.0
  0
LINE
  8
0
  6
LTYPE2
 62
     2
 10
1280.1
 20
496.75
 30
0.0
 11
1331.0
 21
496.75
 31
0.0
  0
LINE
  8
0
  6
CONTINUOUS
 62
     1
 10
1300.1
 20
492.25
 30
0.0
 11
1280.1
 21
492.25
 31
0.0
  0
LINE
  8
0
  6
CONTINUOUS
 62
     1
 10
1384.1
 20
458.75
 30
0.0
 11
1280.1
 21
458.75
 31
0.0
  0
LINE
  8
0
  6
LTYPE2
 62
     2
 10
1387.1
 20
463.25
 30
0.0
 11
1369.1
 21
463.25
 31
0.0
  0
LINE
  8
2
  6
CONTINUOUS
 62
     2
 10
1325.1
 20
409.75
 30
0.0
 11
1310.611112606
 21
413.632285677
 31
0.0
  0
LINE
  8
2
  6
CONTINUOUS
 62
     2
 10
1325.1
 20
409.75
 30
0.0
 11
1310.611112606
 21
405.867714323
 31
0.0
  0
LINE
  8
2
  6
CONTINUOUS
 62
     2
 10
1325.1
 20
409.75
 30
0.0
 11
1265.1
 21
409.75
 31
0.0
  0
LINE
  8
2
  6
CONTINUOUS
 62
     2
 10
1265.1
 20
409.75
 30
0.0
 11
1279.588887394
 21
405.867714323
 31
0.0
  0
LINE
  8
2
  6
CONTINUOUS
 62
     2
 10
1265.1
 20
409.75
 30
0.0
 11
1279.588887394
 21
413.632285677
 31
0.0
  0
LINE
  8
2
  6
CONTINUOUS
 62
     2
 10
1265.1
 20
459.0
 30
0.0
 11
1265.1
 21
403.75
 31
0.0
  0
TEXT
  8
2
  6
CONTINUOUS
 62
     2
 10
1276.2
 20
415.75
 30
1.8
 40
21.0
  1
６０
 50
0.0
 41
0.857142857
 51
0.0
  7
KANJI19
  0
TEXT
  8
0
  6
CONTINUOUS
 62
     2
 10
1268.1
 20
574.0
 30
1.2
 40
18.0
  1
φ３０Ｈ１０深３５
 50
90.0
 41
0.9
 51
0.0
  7
KANJI18
  0
LINE
  8
0
  6
CONTINUOUS
 62
     2
 10
1274.1
 20
522.0
 30
0.0
 11
1274.1
 21
726.0
 31
0.0
  0
LINE
  8
0
  6
CONTINUOUS
 62
     1
 10
1387.1
 20
490.0
 30
0.0
 11
1411.0
 21
490.0
 31
0.0
  0
LINE
  8
0
  6
LTYPE2
 62
     2
 10
1357.6
 20
619.5
 30
0.0
 11
1391.6
 21
619.5
 31
0.0
  0
LINE
  8
0
  6
LTYPE2
 62
     2
 10
1375.1
 20
638.0
 30
0.0
 11
1375.1
 21
602.0
 31
0.0
  0
ARC
  8
0
  6
CONTINUOUS
 62
     1
 10
1363.1
 20
631.5
 30
0.0
 40
8.0
 50
90.0
 51
180.0
  0
LINE
  8
0
  6
CONTINUOUS
 62
     1
 10
1363.1
 20
639.5
 30
0.0
 11
1435.1
 21
639.5
 31
0.0
  0
LINE
  8
0
  6
CONTINUOUS
 62
     1
 10
1355.1
 20
591.697744072
 30
0.0
 11
1355.1
 21
631.5
 31
0.0
  0
ARC
  8
0
  6
CONTINUOUS
 62
     1
 10
1375.1
 20
619.5
 30
0.0
 40
12.0
 50
340.016893478
 51
289.983106522
  0
LINE
  8
0
  6
CONTINUOUS
 62
     1
 10
1325.1
 20
589.5
 30
0.0
 11
1368.1
 21
592.650099836
 31
0.0
  0
LINE
  8
0
  6
CONTINUOUS
 62
     1
 10
1355.1
 20
487.5
 30
0.0
 11
1355.1
 21
527.302255928
 31
0.0
  0
LINE
  8
0
  6
CONTINUOUS
 62
     1
 10
1325.1
 20
529.5
 30
0.0
 11
1368.1
 21
526.349900164
 31
0.0
  0
LINE
  8
0
  6
LTYPE2
 62
     2
 10
1357.6
 20
499.5
 30
0.0
 11
1391.6
 21
499.5
 31
0.0
  0
LINE
  8
0
  6
LTYPE2
 62
     2
 10
1375.1
 20
481.0
 30
0.0
 11
1375.1
 21
517.0
 31
0.0
  0
LINE
  8
0
  6
CONTINUOUS
 62
     1
 10
1363.1
 20
479.5
 30
0.0
 11
1384.1
 21
479.5
 31
0.0
  0
ARC
  8
0
  6
CONTINUOUS
 62
     1
 10
1363.1
 20
487.5
 30
0.0
 40
8.0
 50
180.0
 51
270.0
  0
ARC
  8
0
  6
CONTINUOUS
 62
     1
 10
1375.1
 20
499.5
 30
0.0
 40
12.0
 50
67.380135052
 51
19.983106522
  0
LINE
  8
0
  6
CONTINUOUS
 62
     1
 10
1389.1
 20
491.5
 30
0.0
 11
1403.461415961
 21
491.5
 31
0.0
  0
LINE
  8
0
  6
LTYPE2
 62
     2
 10
1495.1
 20
638.0
 30
0.0
 11
1495.1
 21
602.0
 31
0.0
  0
ARC
  8
0
  6
CONTINUOUS
 62
     1
 10
1507.1
 20
631.5
 30
0.0
 40
8.0
 50
0.0
 51
90.0
  0
LINE
  8
0
  6
CONTINUOUS
 62
     1
 10
1507.1
 20
639.5
 30
0.0
 11
1435.1
 21
639.5
 31
0.0
  0
LINE
  8
0
  6
CONTINUOUS
 62
     1
 10
1515.1
 20
591.5
 30
0.0
 11
1515.1
 21
631.5
 31
0.0
  0
ARC
  8
0
  6
CONTINUOUS
 62
     1
 10
1495.1
 20
619.5
 30
0.0
 40
12.0
 50
254.744881297
 51
199.983106522
  0
LINE
  8
0
  6
CONTINUOUS
 62
     1
 10
1545.1
 20
589.5
 30
0.0
 11
1502.1
 21
592.650099836
 31
0.0
  0
LINE
  8
0
  6
CONTINUOUS
 62
     1
 10
1545.1
 20
529.5
 30
0.0
 11
1502.1
 21
526.349900164
 31
0.0
  0
ARC
  8
0
  6
CONTINUOUS
 62
     1
 10
1507.1
 20
487.5
 30
0.0
 40
8.0
 50
270.0
 51
0.0
  0
LINE
  8
0
  6
CONTINUOUS
 62
     1
 10
1515.1
 20
487.5
 30
0.0
 11
1515.1
 21
527.302255928
 31
0.0
  0
LINE
  8
0
  6
CONTINUOUS
 62
     1
 10
1340.1
 20
590.598872036
 30
0.0
 11
1340.1
 21
710.35
 31
0.0
  0
LINE
  8
0
  6
CONTINUOUS
 62
     1
 10
1340.1
 20
470.5
 30
0.0
 11
1340.1
 21
528.401127964
 31
0.0
  0
LINE
  8
0
  6
CONTINUOUS
 62
     1
 10
1530.1
 20
590.598872036
 30
0.0
 11
1530.1
 21
714.6
 31
0.0
  0
LINE
  8
0
  6
CONTINUOUS
 62
     1
 10
1530.1
 20
470.5
 30
0.0
 11
1530.1
 21
528.401127964
 31
0.0
  0
LINE
  8
0
  6
CONTINUOUS
 62
     1
 10
1515.1
 20
487.5
 30
0.0
 11
1515.1
 21
527.302255928
 31
0.0
  0
LINE
  8
0
  6
LTYPE2
 62
     2
 10
1345.4
 20
741.75
 30
0.0
 11
1556.1
 21
741.75
 31
0.0
  0
LINE
  8
0
  6
LTYPE2
 62
     2
 10
1085.6
 20
793.2
 30
0.0
 11
1085.6
 21
916.2
 31
0.0
  0
LINE
  8
0
  6
CONTINUOUS
 62
     1
 10
1035.6
 20
836.2
 30
0.0
 11
1120.6
 21
836.2
 31
0.0
  0
LINE
  8
0
  6
CONTINUOUS
 62
     1
 10
1120.6
 20
816.2
 30
0.0
 11
1120.6
 21
836.2
 31
0.0
  0
LINE
  8
0
  6
CONTINUOUS
 62
     1
 10
1035.6
 20
876.2
 30
0.0
 11
1120.6
 21
876.2
 31
0.0
  0
LINE
  8
0
  6
CONTINUOUS
 62
     1
 10
1120.6
 20
896.2
 30
0.0
 11
1120.6
 21
876.2
 31
0.0
  0
LINE
  8
0
  6
CONTINUOUS
 62
     1
 10
1035.6
 20
836.2
 30
0.0
 11
1035.6
 21
876.2
 31
0.0
  0
LINE
  8
0
  6
CONTINUOUS
 62
     1
 10
1070.6
 20
836.2
 30
0.0
 11
1070.6
 21
876.2
 31
0.0
  0
LINE
  8
0
  6
CONTINUOUS
 62
     1
 10
1100.6
 20
836.2
 30
0.0
 11
1100.6
 21
876.2
 31
0.0
  0
LINE
  8
0
  6
LTYPE1
 62
     2
 10
1070.6
 20
876.2
 30
0.0
 11
1070.6
 21
896.2
 31
0.0
  0
LINE
  8
0
  6
LTYPE1
 62
     2
 10
1100.6
 20
876.2
 30
0.0
 11
1100.6
 21
896.2
 31
0.0
  0
LINE
  8
0
  6
CONTINUOUS
 62
     1
 10
1057.6
 20
812.2
 30
0.0
 11
1113.6
 21
812.2
 31
0.0
  0
LINE
  8
0
  6
CONTINUOUS
 62
     1
 10
1057.6
 20
812.2
 30
0.0
 11
1057.6
 21
816.2
 31
0.0
  0
LINE
  8
0
  6
CONTINUOUS
 62
     1
 10
1113.6
 20
812.2
 30
0.0
 11
1113.6
 21
816.2
 31
0.0
  0
LINE
  8
0
  6
CONTINUOUS
 62
     1
 10
1070.6
 20
802.2
 30
0.0
 11
1100.6
 21
802.2
 31
0.0
  0
LINE
  8
0
  6
CONTINUOUS
 62
     1
 10
1070.6
 20
802.2
 30
0.0
 11
1070.6
 21
812.2
 31
0.0
  0
LINE
  8
0
  6
CONTINUOUS
 62
     1
 10
1100.6
 20
802.2
 30
0.0
 11
1100.6
 21
812.2
 31
0.0
  0
LINE
  8
0
  6
LTYPE1
 62
     2
 10
1100.6
 20
812.2
 30
0.0
 11
1100.6
 21
836.2
 31
0.0
  0
LINE
  8
0
  6
LTYPE1
 62
     2
 10
1070.6
 20
812.2
 30
0.0
 11
1070.6
 21
836.2
 31
0.0
  0
LINE
  8
0
  6
CONTINUOUS
 62
     1
 10
1057.6
 20
900.2
 30
0.0
 11
1113.6
 21
900.2
 31
0.0
  0
LINE
  8
0
  6
CONTINUOUS
 62
     1
 10
1057.6
 20
900.2
 30
0.0
 11
1057.6
 21
896.2
 31
0.0
  0
LINE
  8
0
  6
CONTINUOUS
 62
     1
 10
1113.6
 20
900.2
 30
0.0
 11
1113.6
 21
896.2
 31
0.0
  0
LINE
  8
0
  6
CONTINUOUS
 62
     1
 10
1070.6
 20
910.2
 30
0.0
 11
1100.6
 21
910.2
 31
0.0
  0
LINE
  8
0
  6
CONTINUOUS
 62
     1
 10
1070.6
 20
910.2
 30
0.0
 11
1070.6
 21
900.2
 31
0.0
  0
LINE
  8
0
  6
CONTINUOUS
 62
     1
 10
1100.6
 20
910.2
 30
0.0
 11
1100.6
 21
900.2
 31
0.0
  0
LINE
  8
0
  6
LTYPE2
 62
     2
 10
1078.6
 20
808.6
 30
0.0
 11
1094.6
 21
808.6
 31
0.0
  0
CIRCLE
  8
0
  6
CONTINUOUS
 62
     1
 10
1085.6
 20
808.6
 30
0.0
 40
3.0
  0
LINE
  8
0
  6
LTYPE2
 62
     2
 10
1078.6
 20
903.8
 30
0.0
 11
1094.6
 21
903.8
 31
0.0
  0
CIRCLE
  8
0
  6
CONTINUOUS
 62
     1
 10
1085.6
 20
903.8
 30
0.0
 40
3.0
  0
LINE
  8
0
  6
CONTINUOUS
 62
     2
 10
1129.6
 20
876.2
 30
0.0
 11
1182.1
 21
876.2
 31
0.0
  0
LINE
  8
0
  6
CONTINUOUS
 62
     2
 10
1173.1
 20
876.2
 30
0.0
 11
1169.217714323
 21
861.711112606
 31
0.0
  0
LINE
  8
0
  6
CONTINUOUS
 62
     2
 10
1173.1
 20
876.2
 30
0.0
 11
1176.982285677
 21
861.711112606
 31
0.0
  0
LINE
  8
0
  6
CONTINUOUS
 62
     2
 10
1173.1
 20
876.2
 30
0.0
 11
1173.1
 21
836.2
 31
0.0
  0
LINE
  8
0
  6
CONTINUOUS
 62
     2
 10
1173.1
 20
836.2
 30
0.0
 11
1176.982285677
 21
850.688887394
 31
0.0
  0
LINE
  8
0
  6
CONTINUOUS
 62
     2
 10
1173.1
 20
836.2
 30
0.0
 11
1169.217714323
 21
850.688887394
 31
0.0
  0
LINE
  8
0
  6
CONTINUOUS
 62
     2
 10
1129.6
 20
836.2
 30
0.0
 11
1182.1
 21
836.2
 31
0.0
  0
TEXT
  8
0
  6
CONTINUOUS
 62
     2
 10
1167.1
 20
839.4
 30
1.2
 40
18.0
  1
４０
 50
90.0
 41
0.9
 51
0.0
  7
KANJI18
  0
LINE
  8
0
  6
CONTINUOUS
 62
     2
 10
1129.6
 20
816.2
 30
0.0
 11
1222.6
 21
816.2
 31
0.0
  0
LINE
  8
0
  6
CONTINUOUS
 62
     2
 10
1129.6
 20
896.2
 30
0.0
 11
1222.6
 21
896.2
 31
0.0
  0
LINE
  8
0
  6
CONTINUOUS
 62
     2
 10
1070.6
 20
803.2
 30
0.0
 11
1070.6
 21
747.2
 31
0.0
  0
LINE
  8
0
  6
CONTINUOUS
 62
     2
 10
1070.6
 20
756.2
 30
0.0
 11
1056.111112606
 21
760.082285677
 31
0.0
  0
LINE
  8
0
  6
CONTINUOUS
 62
     2
 10
1070.6
 20
756.2
 30
0.0
 11
1056.111112606
 21
752.317714323
 31
0.0
  0
LINE
  8
0
  6
CONTINUOUS
 62
     2
 10
1048.1
 20
756.2
 30
0.0
 11
1208.9
 21
756.2
 31
0.0
  0
LINE
  8
0
  6
CONTINUOUS
 62
     2
 10
1100.6
 20
756.2
 30
0.0
 11
1115.088887394
 21
752.317714323
 31
0.0
  0
LINE
  8
0
  6
CONTINUOUS
 62
     2
 10
1100.6
 20
756.2
 30
0.0
 11
1115.088887394
 21
760.082285677
 31
0.0
  0
LINE
  8
0
  6
CONTINUOUS
 62
     2
 10
1100.6
 20
793.2
 30
0.0
 11
1100.6
 21
747.2
 31
0.0
  0
LINE
  8
0
  6
CONTINUOUS
 62
     2
 10
1035.6
 20
827.2
 30
0.0
 11
1035.6
 21
711.2
 31
0.0
  0
LINE
  8
0
  6
CONTINUOUS
 62
     2
 10
1085.6
 20
784.2
 30
0.0
 11
1085.6
 21
711.2
 31
0.0
  0
LINE
  8
0
  6
LTYPE2
 62
     2
 10
1003.4
 20
856.2
 30
0.0
 11
1125.8
 21
856.2
 31
0.0
  0
LINE
  8
0
  6
LTYPE2
 62
     2
 10
935.1
 20
856.2
 30
0.0
 11
1112.6
 21
856.2
 31
0.0
  0
LINE
  8
0
  6
CONTINUOUS
 62
     1
 10
971.356777727
 20
916.941180955
 30
0.0
 11
974.978817937
 21
930.458819045
 31
0.0
  0
ARC
  8
0
  6
CONTINUOUS
 62
     1
 10
970.390851901
 20
917.2
 30
0.0
 40
1.0
 50
270.0
 51
345.0
  0
LINE
  8
0
  6
CONTINUOUS
 62
     1
 10
1000.1
 20
896.7
 30
0.0
 11
1010.1
 21
896.7
 31
0.0
  0
LINE
  8
0
  6
CONTINUOUS
 62
     1
 10
1010.044743763
 20
894.7
 30
0.0
 11
1012.6
 21
894.7
 31
0.0
  0
LINE
  8
0
  6
CONTINUOUS
 62
     1
 10
997.6
 20
894.7
 30
0.0
 11
1000.044743763
 21
894.7
 31
0.0
  0
LINE
  8
0
  6
CONTINUOUS
 62
     1
 10
1010.1
 20
896.7
 30
0.0
 11
1010.1
 21
856.2
 31
0.0
  0
LINE
  8
0
  6
CONTINUOUS
 62
     1
 10
997.6
 20
894.7
 30
0.0
 11
997.6
 21
856.2
 31
0.0
  0
LINE
  8
0
  6
CONTINUOUS
 62
     1
 10
1000.1
 20
896.7
 30
0.0
 11
1000.1
 21
856.2
 31
0.0
  0
LINE
  8
0
  6
CONTINUOUS
 62
     1
 10
997.6
 20
894.7
 30
0.0
 11
988.018453315
 21
930.458819045
 31
0.0
  0
LINE
  8
0
  6
CONTINUOUS
 62
     1
 10
982.464561452
 20
916.941180955
 30
0.0
 11
986.086601662
 21
930.458819045
 31
0.0
  0
ARC
  8
0
  6
CONTINUOUS
 62
     1
 10
981.498635626
 20
917.2
 30
0.0
 40
1.0
 50
270.0
 51
345.0
  0
ARC
  8
0
  6
CONTINUOUS
 62
     1
 10
981.498635626
 20
917.2
 30
0.0
 40
1.0
 50
195.0
 51
270.0
  0
LINE
  8
0
  6
CONTINUOUS
 62
     1
 10
980.5327098
 20
916.941180955
 30
0.0
 11
976.91066959
 21
930.458819045
 31
0.0
  0
LINE
  8
0
  6
CONTINUOUS
 62
     1
 10
970.390851901
 20
916.2
 30
0.0
 11
970.390851901
 21
856.2
 31
0.0
  0
LINE
  8
0
  6
CONTINUOUS
 62
     1
 10
975.944743763
 20
931.2
 30
0.0
 11
975.944743763
 21
856.2
 31
0.0
  0
LINE
  8
0
  6
CONTINUOUS
 62
     1
 10
987.052527488
 20
931.2
 30
0.0
 11
987.052527488
 21
856.2
 31
0.0
  0
LINE
  8
0
  6
CONTINUOUS
 62
     1
 10
981.498635626
 20
916.2
 30
0.0
 11
981.498635626
 21
856.2
 31
0.0
  0
LINE
  8
0
  6
LTYPE4
 62
     2
 10
950.6
 20
916.2
 30
0.0
 11
970.25
 21
916.2
 31
0.0
  0
ARC
  8
0
  6
CONTINUOUS
 62
     1
 10
975.944743763
 20
782.2
 30
0.0
 40
1.0
 50
195.0
 51
270.0
  0
LINE
  8
0
  6
CONTINUOUS
 62
     1
 10
971.356777727
 20
795.458819045
 30
0.0
 11
974.978817937
 21
781.941180955
 31
0.0
  0
ARC
  8
0
  6
CONTINUOUS
 62
     1
 10
970.390851901
 20
795.2
 30
0.0
 40
1.0
 50
15.0
 51
90.0
  0
LINE
  8
0
  6
CONTINUOUS
 62
     1
 10
1000.1
 20
815.7
 30
0.0
 11
1010.1
 21
815.7
 31
0.0
  0
LINE
  8
0
  6
CONTINUOUS
 62
     1
 10
1010.044743763
 20
817.7
 30
0.0
 11
1012.6
 21
817.7
 31
0.0
  0
LINE
  8
0
  6
CONTINUOUS
 62
     1
 10
997.6
 20
817.7
 30
0.0
 11
1000.044743763
 21
817.7
 31
0.0
  0
LINE
  8
0
  6
CONTINUOUS
 62
     1
 10
1010.1
 20
815.7
 30
0.0
 11
1010.1
 21
856.2
 31
0.0
  0
LINE
  8
0
  6
CONTINUOUS
 62
     1
 10
997.6
 20
817.7
 30
0.0
 11
997.6
 21
856.2
 31
0.0
  0
LINE
  8
0
  6
CONTINUOUS
 62
     1
 10
1000.1
 20
815.7
 30
0.0
 11
1000.1
 21
856.2
 31
0.0
  0
LINE
  8
0
  6
CONTINUOUS
 62
     1
 10
997.6
 20
817.7
 30
0.0
 11
988.018453315
 21
781.941180955
 31
0.0
  0
ARC
  8
0
  6
CONTINUOUS
 62
     1
 10
987.052527488
 20
782.2
 30
0.0
 40
1.0
 50
270.0
 51
345.0
  0
ARC
  8
0
  6
CONTINUOUS
 62
     1
 10
987.052527488
 20
782.2
 30
0.0
 40
1.0
 50
195.0
 51
270.0
  0
LINE
  8
0
  6
CONTINUOUS
 62
     1
 10
982.464561452
 20
795.458819045
 30
0.0
 11
986.086601662
 21
781.941180955
 31
0.0
  0
ARC
  8
0
  6
CONTINUOUS
 62
     1
 10
981.498635626
 20
795.2
 30
0.0
 40
1.0
 50
15.0
 51
90.0
  0
ARC
  8
0
  6
CONTINUOUS
 62
     1
 10
981.498635626
 20
795.2
 30
0.0
 40
1.0
 50
90.0
 51
165.0
  0
LINE
  8
0
  6
CONTINUOUS
 62
     1
 10
980.5327098
 20
795.458819045
 30
0.0
 11
976.91066959
 21
781.941180955
 31
0.0
  0
ARC
  8
0
  6
CONTINUOUS
 62
     1
 10
975.944743763
 20
782.2
 30
0.0
 40
1.0
 50
270.0
 51
345.0
  0
LINE
  8
0
  6
CONTINUOUS
 62
     1
 10
970.390851901
 20
796.2
 30
0.0
 11
970.390851901
 21
856.2
 31
0.0
  0
LINE
  8
0
  6
CONTINUOUS
 62
     1
 10
975.944743763
 20
781.2
 30
0.0
 11
975.944743763
 21
856.2
 31
0.0
  0
LINE
  8
0
  6
CONTINUOUS
 62
     1
 10
987.052527488
 20
781.2
 30
0.0
 11
987.052527488
 21
856.2
 31
0.0
  0
LINE
  8
0
  6
CONTINUOUS
 62
     1
 10
981.498635626
 20
796.2
 30
0.0
 11
981.498635626
 21
856.2
 31
0.0
  0
LINE
  8
0
  6
LTYPE4
 62
     2
 10
953.6
 20
781.2
 30
0.0
 11
975.85
 21
781.2
 31
0.0
  0
LINE
  8
0
  6
LTYPE4
 62
     2
 10
950.6
 20
796.2
 30
0.0
 11
970.25
 21
796.2
 31
0.0
  0
LINE
  8
0
  6
CONTINUOUS
 62
     1
 10
1015.6
 20
896.2
 30
0.0
 11
1120.6
 21
896.2
 31
0.0
  0
LINE
  8
0
  6
CONTINUOUS
 62
     1
 10
1015.6
 20
896.2
 30
0.0
 11
1015.6
 21
816.2
 31
0.0
  0
LINE
  8
0
  6
CONTINUOUS
 62
     1
 10
1015.6
 20
816.2
 30
0.0
 11
1120.6
 21
816.2
 31
0.0
  0
LINE
  8
0
  6
CONTINUOUS
 62
     2
 10
1213.6
 20
816.2
 30
0.0
 11
1217.482285677
 21
830.688887394
 31
0.0
  0
LINE
  8
0
  6
CONTINUOUS
 62
     2
 10
1213.6
 20
816.2
 30
0.0
 11
1209.717714323
 21
830.688887394
 31
0.0
  0
LINE
  8
0
  6
CONTINUOUS
 62
     2
 10
1213.6
 20
816.2
 30
0.0
 11
1213.6
 21
896.2
 31
0.0
  0
LINE
  8
0
  6
CONTINUOUS
 62
     2
 10
1213.6
 20
896.2
 30
0.0
 11
1209.717714323
 21
881.711112606
 31
0.0
  0
LINE
  8
0
  6
CONTINUOUS
 62
     2
 10
1213.6
 20
896.2
 30
0.0
 11
1217.482285677
 21
881.711112606
 31
0.0
  0
TEXT
  8
0
  6
CONTINUOUS
 62
     2
 10
1207.6
 20
839.4
 30
1.2
 40
18.0
  1
８０
 50
90.0
 41
0.9
 51
0.0
  7
KANJI18
  0
ARC
  8
0
  6
CONTINUOUS
 62
     1
 10
975.944743763
 20
930.2
 30
0.0
 40
1.0
 50
90.0
 51
165.0
  0
ARC
  8
0
  6
CONTINUOUS
 62
     1
 10
987.052527488
 20
930.2
 30
0.0
 40
1.0
 50
15.0
 51
90.0
  0
ARC
  8
0
  6
CONTINUOUS
 62
     1
 10
987.052527488
 20
930.2
 30
0.0
 40
1.0
 50
90.0
 51
165.0
  0
ARC
  8
0
  6
CONTINUOUS
 62
     1
 10
975.944743763
 20
930.2
 30
0.0
 40
1.0
 50
15.0
 51
90.0
  0
LINE
  8
0
  6
LTYPE4
 62
     2
 10
953.6
 20
931.2
 30
0.0
 11
975.85
 21
931.2
 31
0.0
  0
LINE
  8
0
  6
CONTINUOUS
 62
     2
 10
963.1
 20
931.2
 30
0.0
 11
963.6
 21
931.2
 31
0.0
  0
LINE
  8
0
  6
CONTINUOUS
 62
     2
 10
1035.6
 20
720.2
 30
0.0
 11
1050.088887394
 21
716.317714323
 31
0.0
  0
LINE
  8
0
  6
CONTINUOUS
 62
     2
 10
1035.6
 20
720.2
 30
0.0
 11
1050.088887394
 21
724.082285677
 31
0.0
  0
LINE
  8
0
  6
CONTINUOUS
 62
     2
 10
1035.6
 20
720.2
 30
0.0
 11
1085.6
 21
720.2
 31
0.0
  0
LINE
  8
0
  6
CONTINUOUS
 62
     2
 10
1085.6
 20
720.2
 30
0.0
 11
1071.111112606
 21
724.082285677
 31
0.0
  0
LINE
  8
0
  6
CONTINUOUS
 62
     2
 10
1085.6
 20
720.2
 30
0.0
 11
1071.111112606
 21
716.317714323
 31
0.0
  0
TEXT
  8
0
  6
CONTINUOUS
 62
     2
 10
1043.8
 20
726.2
 30
1.2
 40
18.0
  1
５０
 50
0.0
 41
0.9
 51
0.0
  7
KANJI18
  0
TEXT
  8
0
  6
CONTINUOUS
 62
     2
 10
1112.1
 20
762.2
 30
1.2
 40
18.0
  1
φ３０Ｈ１０
 50
0.0
 41
0.9
 51
0.0
  7
KANJI18
  0
TEXT
  8
0
  6
CONTINUOUS
 62
     2
 10
1168.1
 20
734.7
 30
1.8
 40
18.0
  1
ｄ９
 50
0.0
 41
0.9
 51
0.0
  7
KANJI20
  0
LINE
  8
0
  6
CONTINUOUS
 62
     1
 10
1015.6
 20
597.0
 30
0.0
 11
1015.6
 21
522.0
 31
0.0
  0
LINE
  8
0
  6
CONTINUOUS
 62
     1
 10
1105.6
 20
597.0
 30
0.0
 11
1015.6
 21
597.0
 31
0.0
  0
LINE
  8
0
  6
CONTINUOUS
 62
     1
 10
1120.6
 20
582.0
 30
0.0
 11
1105.6
 21
597.0
 31
0.0
  0
LINE
  8
0
  6
CONTINUOUS
 62
     1
 10
1120.6
 20
582.0
 30
0.0
 11
1120.6
 21
537.0
 31
0.0
  0
LINE
  8
0
  6
LTYPE1
 62
     2
 10
1035.6
 20
597.0
 30
0.0
 11
1035.6
 21
522.0
 31
0.0
  0
LINE
  8
0
  6
LTYPE3
 62
     2
 10
1085.6
 20
607.7
 30
0.0
 11
1085.6
 21
513.7
 31
0.0
  0
LINE
  8
0
  6
CONTINUOUS
 62
     2
 10
1114.6
 20
597.0
 30
0.0
 11
1182.6
 21
597.0
 31
0.0
  0
LINE
  8
0
  6
CONTINUOUS
 62
     2
 10
1173.6
 20
597.0
 30
0.0
 11
1169.717714323
 21
582.511112606
 31
0.0
  0
LINE
  8
0
  6
CONTINUOUS
 62
     2
 10
1173.6
 20
597.0
 30
0.0
 11
1177.482285677
 21
582.511112606
 31
0.0
  0
LINE
  8
0
  6
CONTINUOUS
 62
     2
 10
1173.6
 20
597.0
 30
0.0
 11
1173.6
 21
522.0
 31
0.0
  0
LINE
  8
0
  6
CONTINUOUS
 62
     1
 10
877.6
 20
617.5
 30
0.0
 11
881.956537433
 21
633.758819045
 31
0.0
  0
ARC
  8
0
  6
CONTINUOUS
 62
     1
 10
882.922463259
 20
633.5
 30
0.0
 40
1.0
 50
90.0
 51
165.0
  0
ARC
  8
0
  6
CONTINUOUS
 62
     1
 10
882.922463934
 20
633.5
 30
0.0
 40
1.0
 50
15.0
 51
90.0
  0
LINE
  8
0
  6
CONTINUOUS
 62
     1
 10
887.51042997
 20
620.241180955
 30
0.0
 11
883.88838976
 21
633.758819045
 31
0.0
  0
ARC
  8
0
  6
CONTINUOUS
 62
     1
 10
888.476355796
 20
620.5
 30
0.0
 40
1.0
 50
195.0
 51
270.0
  0
ARC
  8
0
  6
CONTINUOUS
 62
     1
 10
888.47635647
 20
620.5
 30
0.0
 40
1.0
 50
270.0
 51
345.0
  0
LINE
  8
0
  6
CONTINUOUS
 62
     1
 10
889.442282297
 20
620.241180955
 30
0.0
 11
893.064322507
 21
633.758819045
 31
0.0
  0
ARC
  8
0
  6
CONTINUOUS
 62
     1
 10
894.030248333
 20
633.5
 30
0.0
 40
1.0
 50
90.0
 51
165.0
  0
ARC
  8
0
  6
CONTINUOUS
 62
     1
 10
894.030248333
 20
633.5
 30
0.0
 40
1.0
 50
15.0
 51
90.0
  0
LINE
  8
0
  6
CONTINUOUS
 62
     1
 10
898.618214369
 20
620.241180955
 30
0.0
 11
894.996174159
 21
633.758819045
 31
0.0
  0
ARC
  8
0
  6
CONTINUOUS
 62
     1
 10
899.584140195
 20
620.5
 30
0.0
 40
1.0
 50
195.0
 51
270.0
  0
LINE
  8
0
  6
CONTINUOUS
 62
     1
 10
862.6
 20
619.5
 30
0.0
 11
872.6
 21
619.5
 31
0.0
  0
LINE
  8
0
  6
CONTINUOUS
 62
     1
 10
872.544743763
 20
617.5
 30
0.0
 11
877.6
 21
617.5
 31
0.0
  0
LINE
  8
0
  6
CONTINUOUS
 62
     1
 10
857.6
 20
617.5
 30
0.0
 11
862.544743763
 21
617.5
 31
0.0
  0
LINE
  8
0
  6
CONTINUOUS
 62
     1
 10
862.6
 20
559.5
 30
0.0
 11
862.6
 21
619.5
 31
0.0
  0
LINE
  8
0
  6
CONTINUOUS
 62
     1
 10
872.6
 20
559.5
 30
0.0
 11
872.6
 21
619.5
 31
0.0
  0
LINE
  8
0
  6
CONTINUOUS
 62
     1
 10
882.922463259
 20
634.5
 30
0.0
 11
882.922463259
 21
559.5
 31
0.0
  0
LINE
  8
0
  6
CONTINUOUS
 62
     1
 10
888.476355796
 20
619.5
 30
0.0
 11
888.476355796
 21
559.5
 31
0.0
  0
LINE
  8
0
  6
CONTINUOUS
 62
     1
 10
894.030248333
 20
634.5
 30
0.0
 11
894.030248333
 21
560.6
 31
0.0
  0
LINE
  8
0
  6
CONTINUOUS
 62
     1
 10
899.584140195
 20
619.5
 30
0.0
 11
899.584140195
 21
559.5
 31
0.0
  0
ARC
  8
0
  6
CONTINUOUS
 62
     1
 10
975.944743763
 20
633.5
 30
0.0
 40
1.0
 50
90.0
 51
165.0
  0
LINE
  8
0
  6
CONTINUOUS
 62
     1
 10
971.356777727
 20
620.241180955
 30
0.0
 11
974.978817937
 21
633.758819045
 31
0.0
  0
ARC
  8
0
  6
CONTINUOUS
 62
     1
 10
970.390851901
 20
620.5
 30
0.0
 40
1.0
 50
270.0
 51
345.0
  0
LINE
  8
0
  6
CONTINUOUS
 62
     1
 10
1000.1
 20
600.0
 30
0.0
 11
1010.1
 21
600.0
 31
0.0
  0
LINE
  8
0
  6
CONTINUOUS
 62
     1
 10
1010.044743763
 20
598.0
 30
0.0
 11
1012.6
 21
598.0
 31
0.0
  0
LINE
  8
0
  6
CONTINUOUS
 62
     1
 10
997.6
 20
598.0
 30
0.0
 11
1000.044743763
 21
598.0
 31
0.0
  0
LINE
  8
0
  6
CONTINUOUS
 62
     1
 10
1010.1
 20
600.0
 30
0.0
 11
1010.1
 21
559.5
 31
0.0
  0
LINE
  8
0
  6
CONTINUOUS
 62
     1
 10
997.6
 20
598.0
 30
0.0
 11
997.6
 21
559.5
 31
0.0
  0
LINE
  8
0
  6
CONTINUOUS
 62
     1
 10
1000.1
 20
600.0
 30
0.0
 11
1000.1
 21
559.5
 31
0.0
  0
LINE
  8
0
  6
CONTINUOUS
 62
     1
 10
997.6
 20
598.0
 30
0.0
 11
988.018453315
 21
633.758819045
 31
0.0
  0
ARC
  8
0
  6
CONTINUOUS
 62
     1
 10
987.052527488
 20
633.5
 30
0.0
 40
1.0
 50
15.0
 51
90.0
  0
ARC
  8
0
  6
CONTINUOUS
 62
     1
 10
987.052527488
 20
633.5
 30
0.0
 40
1.0
 50
90.0
 51
165.0
  0
LINE
  8
0
  6
CONTINUOUS
 62
     1
 10
982.464561452
 20
620.241180955
 30
0.0
 11
986.086601662
 21
633.758819045
 31
0.0
  0
ARC
  8
0
  6
CONTINUOUS
 62
     1
 10
981.498635626
 20
620.5
 30
0.0
 40
1.0
 50
270.0
 51
345.0
  0
ARC
  8
0
  6
CONTINUOUS
 62
     1
 10
981.498635626
 20
620.5
 30
0.0
 40
1.0
 50
195.0
 51
270.0
  0
LINE
  8
0
  6
CONTINUOUS
 62
     1
 10
980.5327098
 20
620.241180955
 30
0.0
 11
976.91066959
 21
633.758819045
 31
0.0
  0
ARC
  8
0
  6
CONTINUOUS
 62
     1
 10
975.944743763
 20
633.5
 30
0.0
 40
1.0
 50
15.0
 51
90.0
  0
LINE
  8
0
  6
CONTINUOUS
 62
     1
 10
970.390851901
 20
619.5
 30
0.0
 11
970.390851901
 21
559.5
 31
0.0
  0
LINE
  8
0
  6
CONTINUOUS
 62
     1
 10
975.944743763
 20
634.5
 30
0.0
 11
975.944743763
 21
559.5
 31
0.0
  0
LINE
  8
0
  6
CONTINUOUS
 62
     1
 10
987.052527488
 20
634.5
 30
0.0
 11
987.052527488
 21
559.5
 31
0.0
  0
LINE
  8
0
  6
CONTINUOUS
 62
     1
 10
981.498635626
 20
619.5
 30
0.0
 11
981.498635626
 21
559.5
 31
0.0
  0
LINE
  8
0
  6
CONTINUOUS
 62
     1
 10
877.6
 20
502.5
 30
0.0
 11
877.6
 21
617.5
 31
0.0
  0
LINE
  8
0
  6
LTYPE4
 62
     2
 10
894.030248333
 20
634.5
 30
0.0
 11
975.85
 21
634.5
 31
0.0
  0
LINE
  8
0
  6
LTYPE4
 62
     2
 10
899.584140195
 20
619.5
 30
0.0
 11
970.25
 21
619.5
 31
0.0
  0
LINE
  8
0
  6
CONTINUOUS
 62
     1
 10
857.6
 20
617.5
 30
0.0
 11
857.6
 21
559.5
 31
0.0
  0
LINE
  8
0
  6
CONTINUOUS
 62
     2
 10
1173.6
 20
522.0
 30
0.0
 11
1177.482285677
 21
536.488887394
 31
0.0
  0
LINE
  8
0
  6
CONTINUOUS
 62
     2
 10
1173.6
 20
522.0
 30
0.0
 11
1169.717714323
 21
536.488887394
 31
0.0
  0
LINE
  8
0
  6
CONTINUOUS
 62
     2
 10
1114.6
 20
522.0
 30
0.0
 11
1182.6
 21
522.0
 31
0.0
  0
TEXT
  8
0
  6
CONTINUOUS
 62
     2
 10
1167.6
 20
542.7
 30
1.2
 40
18.0
  1
７５
 50
90.0
 41
0.9
 51
0.0
  7
KANJI18
  0
CIRCLE
  8
0
  6
CONTINUOUS
 62
     1
 10
1085.6
 20
559.5
 30
0.0
 40
15.0
  0
LINE
  8
0
  6
CONTINUOUS
 62
     1
 10
1105.6
 20
522.0
 30
0.0
 11
1015.6
 21
522.0
 31
0.0
  0
LINE
  8
0
  6
CONTINUOUS
 62
     1
 10
1105.6
 20
522.0
 30
0.0
 11
1120.6
 21
537.0
 31
0.0
  0
LINE
  8
0
  6
CONTINUOUS
 62
     2
 10
1085.6
 20
284.0
 30
0.0
 11
1071.111112606
 21
287.882285677
 31
0.0
  0
LINE
  8
0
  6
CONTINUOUS
 62
     2
 10
1085.6
 20
284.0
 30
0.0
 11
1071.111112606
 21
280.117714323
 31
0.0
  0
LINE
  8
0
  6
CONTINUOUS
 62
     2
 10
1085.6
 20
499.45
 30
0.0
 11
1085.6
 21
275.0
 31
0.0
  0
LINE
  8
0
  6
CONTINUOUS
 62
     2
 10
926.6
 20
322.5
 30
0.0
 11
1015.6
 21
322.5
 31
0.0
  0
LINE
  8
0
  6
CONTINUOUS
 62
     2
 10
1015.6
 20
322.5
 30
0.0
 11
1001.111112606
 21
326.382285677
 31
0.0
  0
LINE
  8
0
  6
CONTINUOUS
 62
     2
 10
1015.6
 20
322.5
 30
0.0
 11
1001.111112606
 21
318.617714323
 31
0.0
  0
TEXT
  8
0
  6
CONTINUOUS
 62
     2
 10
928.2
 20
328.5
 30
1.2
 40
18.0
  1
ｍｉｎ．Ｐ
 50
0.0
 41
0.9
 51
0.0
  7
KANJI18
  0
LINE
  8
0
  6
CONTINUOUS
 62
     2
 10
1015.6
 20
322.5
 30
0.0
 11
1030.088887394
 21
318.617714323
 31
0.0
  0
LINE
  8
0
  6
CONTINUOUS
 62
     2
 10
1015.6
 20
322.5
 30
0.0
 11
1030.088887394
 21
326.382285677
 31
0.0
  0
LINE
  8
0
  6
CONTINUOUS
 62
     2
 10
1015.6
 20
322.5
 30
0.0
 11
1085.6
 21
322.5
 31
0.0
  0
LINE
  8
0
  6
CONTINUOUS
 62
     2
 10
1085.6
 20
322.5
 30
0.0
 11
1071.111112606
 21
326.382285677
 31
0.0
  0
LINE
  8
0
  6
CONTINUOUS
 62
     2
 10
1085.6
 20
322.5
 30
0.0
 11
1071.111112606
 21
318.617714323
 31
0.0
  0
TEXT
  8
0
  6
CONTINUOUS
 62
     2
 10
1033.8
 20
328.5
 30
1.2
 40
18.0
  1
７０
 50
0.0
 41
0.9
 51
0.0
  7
KANJI18
  0
LINE
  8
0
  6
CONTINUOUS
 62
     2
 10
1085.6
 20
275.0
 30
0.0
 11
1085.6
 21
237.0
 31
0.0
  0
LINE
  8
0
  6
CONTINUOUS
 62
     2
 10
1120.6
 20
528.0
 30
0.0
 11
1120.6
 21
237.0
 31
0.0
  0
TEXT
  8
0
  6
CONTINUOUS
 62
     2
 10
1086.3
 20
252.0
 30
1.2
 40
18.0
  1
３５
 50
0.0
 41
0.9
 51
0.0
  7
KANJI18
  0
LINE
  8
0
  6
CONTINUOUS
 62
     2
 10
1085.6
 20
246.0
 30
0.0
 11
1071.111112606
 21
249.882285677
 31
0.0
  0
LINE
  8
0
  6
CONTINUOUS
 62
     2
 10
1085.6
 20
246.0
 30
0.0
 11
1071.111112606
 21
242.117714323
 31
0.0
  0
LINE
  8
0
  6
CONTINUOUS
 62
     2
 10
1085.6
 20
246.0
 30
0.0
 11
1100.088887394
 21
242.117714323
 31
0.0
  0
LINE
  8
0
  6
CONTINUOUS
 62
     2
 10
1085.6
 20
246.0
 30
0.0
 11
1100.088887394
 21
249.882285677
 31
0.0
  0
LINE
  8
0
  6
CONTINUOUS
 62
     2
 10
1085.6
 20
246.0
 30
0.0
 11
1120.6
 21
246.0
 31
0.0
  0
LINE
  8
0
  6
CONTINUOUS
 62
     2
 10
1120.6
 20
246.0
 30
0.0
 11
1106.111112606
 21
249.882285677
 31
0.0
  0
LINE
  8
0
  6
CONTINUOUS
 62
     2
 10
1120.6
 20
246.0
 30
0.0
 11
1106.111112606
 21
242.117714323
 31
0.0
  0
LINE
  8
0
  6
CONTINUOUS
 62
     1
 10
877.6
 20
501.5
 30
0.0
 11
881.956537433
 21
485.241180955
 31
0.0
  0
ARC
  8
0
  6
CONTINUOUS
 62
     1
 10
882.922463259
 20
485.5
 30
0.0
 40
1.0
 50
195.0
 51
270.0
  0
ARC
  8
0
  6
CONTINUOUS
 62
     1
 10
882.922463934
 20
485.5
 30
0.0
 40
1.0
 50
270.0
 51
345.0
  0
LINE
  8
0
  6
CONTINUOUS
 62
     1
 10
887.51042997
 20
498.758819045
 30
0.0
 11
883.88838976
 21
485.241180955
 31
0.0
  0
ARC
  8
0
  6
CONTINUOUS
 62
     1
 10
888.476355796
 20
498.5
 30
0.0
 40
1.0
 50
90.0
 51
165.0
  0
ARC
  8
0
  6
CONTINUOUS
 62
     1
 10
888.47635647
 20
498.5
 30
0.0
 40
1.0
 50
15.0
 51
90.0
  0
LINE
  8
0
  6
CONTINUOUS
 62
     1
 10
889.442282297
 20
498.758819045
 30
0.0
 11
893.064322507
 21
485.241180955
 31
0.0
  0
ARC
  8
0
  6
CONTINUOUS
 62
     1
 10
894.030248333
 20
485.5
 30
0.0
 40
1.0
 50
195.0
 51
270.0
  0
ARC
  8
0
  6
CONTINUOUS
 62
     1
 10
894.030248333
 20
485.5
 30
0.0
 40
1.0
 50
270.0
 51
345.0
  0
LINE
  8
0
  6
CONTINUOUS
 62
     1
 10
898.618214369
 20
498.758819045
 30
0.0
 11
894.996174159
 21
485.241180955
 31
0.0
  0
ARC
  8
0
  6
CONTINUOUS
 62
     1
 10
899.584140195
 20
498.5
 30
0.0
 40
1.0
 50
90.0
 51
165.0
  0
LINE
  8
0
  6
CONTINUOUS
 62
     1
 10
862.6
 20
499.5
 30
0.0
 11
872.6
 21
499.5
 31
0.0
  0
LINE
  8
0
  6
CONTINUOUS
 62
     1
 10
872.544743763
 20
501.5
 30
0.0
 11
877.6
 21
501.5
 31
0.0
  0
LINE
  8
0
  6
CONTINUOUS
 62
     1
 10
857.6
 20
501.5
 30
0.0
 11
872.6
 21
501.5
 31
0.0
  0
LINE
  8
0
  6
CONTINUOUS
 62
     1
 10
942.6
 20
502.5
 30
0.0
 11
942.6
 21
559.5
 31
0.0
  0
LINE
  8
0
  6
CONTINUOUS
 62
     1
 10
997.6
 20
521.0
 30
0.0
 11
988.018453315
 21
485.241180955
 31
0.0
  0
ARC
  8
0
  6
CONTINUOUS
 62
     1
 10
981.498635626
 20
498.5
 30
0.0
 40
1.0
 50
15.0
 51
90.0
  0
ARC
  8
0
  6
CONTINUOUS
 62
     1
 10
981.498635626
 20
498.5
 30
0.0
 40
1.0
 50
90.0
 51
165.0
  0
LINE
  8
0
  6
CONTINUOUS
 62
     1
 10
980.5327098
 20
498.758819045
 30
0.0
 11
976.91066959
 21
485.241180955
 31
0.0
  0
ARC
  8
0
  6
CONTINUOUS
 62
     1
 10
975.944743763
 20
485.5
 30
0.0
 40
1.0
 50
270.0
 51
345.0
  0
ARC
  8
0
  6
CONTINUOUS
 62
     1
 10
975.944743763
 20
485.5
 30
0.0
 40
1.0
 50
195.0
 51
270.0
  0
LINE
  8
0
  6
CONTINUOUS
 62
     1
 10
971.356777727
 20
498.758819045
 30
0.0
 11
974.978817937
 21
485.241180955
 31
0.0
  0
ARC
  8
0
  6
CONTINUOUS
 62
     1
 10
970.390851901
 20
498.5
 30
0.0
 40
1.0
 50
15.0
 51
90.0
  0
LINE
  8
0
  6
CONTINUOUS
 62
     1
 10
1000.1
 20
519.0
 30
0.0
 11
1010.1
 21
519.0
 31
0.0
  0
LINE
  8
0
  6
CONTINUOUS
 62
     1
 10
997.6
 20
521.0
 30
0.0
 11
1000.044743763
 21
521.0
 31
0.0
  0
LINE
  8
0
  6
CONTINUOUS
 62
     1
 10
997.6
 20
521.0
 30
0.0
 11
1012.6
 21
521.0
 31
0.0
  0
ARC
  8
0
  6
CONTINUOUS
 62
     1
 10
987.052527488
 20
485.5
 30
0.0
 40
1.0
 50
270.0
 51
345.0
  0
ARC
  8
0
  6
CONTINUOUS
 62
     1
 10
987.052527488
 20
485.5
 30
0.0
 40
1.0
 50
195.0
 51
270.0
  0
LINE
  8
0
  6
CONTINUOUS
 62
     1
 10
982.464561452
 20
498.758819045
 30
0.0
 11
986.086601662
 21
485.241180955
 31
0.0
  0
LINE
  8
0
  6
CONTINUOUS
 62
     1
 10
942.6
 20
522.0
 30
0.0
 11
1012.6
 21
522.0
 31
0.0
  0
LINE
  8
0
  6
LTYPE4
 62
     2
 10
899.584140195
 20
499.5
 30
0.0
 11
969.85
 21
499.5
 31
0.0
  0
LINE
  8
0
  6
LTYPE4
 62
     2
 10
894.030248333
 20
484.5
 30
0.0
 11
976.25
 21
484.5
 31
0.0
  0
LINE
  8
0
  6
CONTINUOUS
 62
     2
 10
942.6
 20
322.5
 30
0.0
 11
928.111112606
 21
326.382285677
 31
0.0
  0
LINE
  8
0
  6
CONTINUOUS
 62
     2
 10
942.6
 20
322.5
 30
0.0
 11
928.111112606
 21
318.617714323
 31
0.0
  0
LINE
  8
0
  6
CONTINUOUS
 62
     2
 10
942.6
 20
493.5
 30
0.0
 11
942.6
 21
313.5
 31
0.0
  0
LINE
  8
0
  6
CONTINUOUS
 62
     2
 10
942.6
 20
322.5
 30
0.0
 11
957.088887394
 21
318.617714323
 31
0.0
  0
LINE
  8
0
  6
CONTINUOUS
 62
     2
 10
942.6
 20
322.5
 30
0.0
 11
957.088887394
 21
326.382285677
 31
0.0
  0
LINE
  8
0
  6
CONTINUOUS
 62
     2
 10
1015.6
 20
516.5
 30
0.0
 11
1015.6
 21
313.5
 31
0.0
  0
LINE
  8
0
  6
CONTINUOUS
 62
     1
 10
411.0
 20
464.5
 30
0.0
 11
411.0
 21
837.5
 31
0.0
  0
CIRCLE
  8
0
  6
CONTINUOUS
 62
     1
 10
511.0
 20
559.5
 30
0.0
 40
15.0
  0
CIRCLE
  8
0
  6
CONTINUOUS
 62
     1
 10
511.0
 20
559.5
 30
0.0
 40
30.0
  0
CIRCLE
  8
0
  6
CONTINUOUS
 62
     1
 10
511.0
 20
559.5
 30
0.0
 40
34.0
  0
LINE
  8
0
  6
CONTINUOUS
 62
     1
 10
411.0
 20
639.5
 30
0.0
 11
411.0
 21
479.5
 31
0.0
  0
LINE
  8
0
  6
CONTINUOUS
 62
     1
 10
513.0
 20
491.5
 30
0.0
 11
587.0
 21
491.5
 31
0.0
  0
LINE
  8
0
  6
CONTINUOUS
 62
     1
 10
513.0
 20
510.1
 30
0.0
 11
513.0
 21
491.5
 31
0.0
  0
LINE
  8
0
  6
CONTINUOUS
 62
     1
 10
587.0
 20
510.8
 30
0.0
 11
587.0
 21
491.5
 31
0.0
  0
LINE
  8
0
  6
LTYPE2
 62
     2
 10
511.0
 20
604.5
 30
0.0
 11
511.0
 21
514.5
 31
0.0
  0
LINE
  8
0
  6
CONTINUOUS
 62
     1
 10
411.0
 20
639.5
 30
0.0
 11
427.0
 21
639.5
 31
0.0
  0
ARC
  8
0
  6
CONTINUOUS
 62
     1
 10
427.0
 20
637.5
 30
0.0
 40
2.0
 50
0.0
 51
90.0
  0
LINE
  8
0
  6
CONTINUOUS
 62
     1
 10
411.0
 20
479.5
 30
0.0
 11
427.0
 21
479.5
 31
0.0
  0
LINE
  8
0
  6
CONTINUOUS
 62
     1
 10
429.0
 20
637.5
 30
0.0
 11
429.0
 21
481.5
 31
0.0
  0
ARC
  8
0
  6
CONTINUOUS
 62
     1
 10
427.0
 20
481.5
 30
0.0
 40
2.0
 50
270.0
 51
0.0
  0
LINE
  8
0
  6
CONTINUOUS
 62
     1
 10
587.1
 20
494.5
 30
0.0
 11
652.0
 21
494.5
 31
0.0
  0
LINE
  8
0
  6
CONTINUOUS
 62
     1
 10
433.0
 20
499.5
 30
0.0
 11
433.0
 21
513.330988098
 31
0.0
  0
LINE
  8
0
  6
CONTINUOUS
 62
     1
 10
433.0
 20
499.5
 30
0.0
 11
433.0
 21
485.669011902
 31
0.0
  0
POINT
  8
0
  6
CONTINUOUS
 62
     1
 10
429.0
 20
513.5
 30
0.0
  0
LINE
  8
0
  6
CONTINUOUS
 62
     1
 10
429.0
 20
513.5
 30
0.0
 11
433.0
 21
513.5
 31
0.0
  0
LINE
  8
0
  6
CONTINUOUS
 62
     1
 10
429.0
 20
499.5
 30
0.0
 11
432.999996995
 21
503.499996995
 31
0.0
  0
LINE
  8
0
  6
CONTINUOUS
 62
     1
 10
432.999996995
 20
499.5
 30
0.0
 11
429.0
 21
495.500003005
 31
0.0
  0
POINT
  8
0
  6
CONTINUOUS
 62
     1
 10
429.0
 20
485.5
 30
0.0
  0
LINE
  8
0
  6
CONTINUOUS
 62
     1
 10
429.0
 20
485.5
 30
0.0
 11
433.0
 21
485.5
 31
0.0
  0
LINE
  8
0
  6
CONTINUOUS
 62
     1
 10
448.0
 20
499.499999776
 30
0.0
 11
448.0
 21
511.5
 31
0.0
  0
LINE
  8
0
  6
CONTINUOUS
 62
     1
 10
433.0
 20
511.5
 30
0.0
 11
448.0
 21
511.5
 31
0.0
  0
LINE
  8
0
  6
CONTINUOUS
 62
     1
 10
448.0
 20
511.5
 30
0.0
 11
449.0
 21
509.767949192
 31
0.0
  0
LINE
  8
0
  6
CONTINUOUS
 62
     1
 10
449.0
 20
499.499999762
 30
0.0
 11
449.0
 21
509.767949192
 31
0.0
  0
LINE
  8
0
  6
CONTINUOUS
 62
     1
 10
448.0
 20
499.500000224
 30
0.0
 11
448.0
 21
487.5
 31
0.0
  0
LINE
  8
0
  6
CONTINUOUS
 62
     1
 10
433.0
 20
487.5
 30
0.0
 11
448.0
 21
487.5
 31
0.0
  0
LINE
  8
0
  6
CONTINUOUS
 62
     1
 10
448.0
 20
487.5
 30
0.0
 11
449.0
 21
489.232050808
 31
0.0
  0
LINE
  8
0
  6
CONTINUOUS
 62
     1
 10
449.0
 20
499.500000238
 30
0.0
 11
449.0
 21
489.232050808
 31
0.0
  0
LINE
  8
0
  6
CONTINUOUS
 62
     1
 10
449.0
 20
494.5
 30
0.0
 11
513.2
 21
494.5
 31
0.0
  0
LINE
  8
0
  6
LTYPE2
 62
     2
 10
399.3
 20
499.5
 30
0.0
 11
455.1
 21
499.5
 31
0.0
  0
LINE
  8
0
  6
CONTINUOUS
 62
     1
 10
433.0
 20
619.5
 30
0.0
 11
433.0
 21
605.669011902
 31
0.0
  0
LINE
  8
0
  6
CONTINUOUS
 62
     1
 10
433.0
 20
619.5
 30
0.0
 11
433.0
 21
633.330988098
 31
0.0
  0
POINT
  8
0
  6
CONTINUOUS
 62
     1
 10
429.0
 20
605.5
 30
0.0
  0
LINE
  8
0
  6
CONTINUOUS
 62
     1
 10
429.0
 20
605.5
 30
0.0
 11
433.0
 21
605.5
 31
0.0
  0
LINE
  8
0
  6
CONTINUOUS
 62
     1
 10
429.0
 20
619.5
 30
0.0
 11
432.999996995
 21
615.500003005
 31
0.0
  0
LINE
  8
0
  6
CONTINUOUS
 62
     1
 10
432.999996995
 20
619.5
 30
0.0
 11
429.0
 21
623.499996995
 31
0.0
  0
POINT
  8
0
  6
CONTINUOUS
 62
     1
 10
429.0
 20
633.5
 30
0.0
  0
LINE
  8
0
  6
CONTINUOUS
 62
     1
 10
429.0
 20
633.5
 30
0.0
 11
433.0
 21
633.5
 31
0.0
  0
LINE
  8
0
  6
CONTINUOUS
 62
     1
 10
448.0
 20
619.500000224
 30
0.0
 11
448.0
 21
607.5
 31
0.0
  0
LINE
  8
0
  6
CONTINUOUS
 62
     1
 10
433.0
 20
607.5
 30
0.0
 11
448.0
 21
607.5
 31
0.0
  0
LINE
  8
0
  6
CONTINUOUS
 62
     1
 10
448.0
 20
607.5
 30
0.0
 11
449.0
 21
609.232050808
 31
0.0
  0
LINE
  8
0
  6
CONTINUOUS
 62
     1
 10
449.0
 20
619.500000238
 30
0.0
 11
449.0
 21
609.232050808
 31
0.0
  0
LINE
  8
0
  6
CONTINUOUS
 62
     1
 10
448.0
 20
619.499999776
 30
0.0
 11
448.0
 21
631.5
 31
0.0
  0
LINE
  8
0
  6
CONTINUOUS
 62
     1
 10
433.0
 20
631.5
 30
0.0
 11
448.0
 21
631.5
 31
0.0
  0
LINE
  8
0
  6
CONTINUOUS
 62
     1
 10
448.0
 20
631.5
 30
0.0
 11
449.0
 21
629.767949192
 31
0.0
  0
LINE
  8
0
  6
CONTINUOUS
 62
     1
 10
449.0
 20
619.499999762
 30
0.0
 11
449.0
 21
629.767949192
 31
0.0
  0
LINE
  8
0
  6
LTYPE2
 62
     2
 10
399.3
 20
619.5
 30
0.0
 11
455.1
 21
619.5
 31
0.0
  0
LINE
  8
0
  6
CONTINUOUS
 62
     1
 10
449.0
 20
624.5
 30
0.0
 11
652.0
 21
624.5
 31
0.0
  0
LINE
  8
0
  6
CONTINUOUS
 62
     1
 10
509.0
 20
491.5
 30
0.0
 11
596.0
 21
491.5
 31
0.0
  0
LINE
  8
0
  6
LTYPE2
 62
     2
 10
550.0
 20
508.2
 30
0.0
 11
550.0
 21
474.7
 31
0.0
  0
LINE
  8
0
  6
CONTINUOUS
 62
     1
 10
652.0
 20
564.5
 30
0.0
 11
664.0
 21
564.5
 31
0.0
  0
LINE
  8
0
  6
CONTINUOUS
 62
     1
 10
652.0
 20
554.5
 30
0.0
 11
664.0
 21
554.5
 31
0.0
  0
LINE
  8
0
  6
CONTINUOUS
 62
     1
 10
652.0
 20
627.0
 30
0.0
 11
664.0
 21
627.0
 31
0.0
  0
LINE
  8
0
  6
CONTINUOUS
 62
     1
 10
652.0
 20
623.0
 30
0.0
 11
664.0
 21
623.0
 31
0.0
  0
LINE
  8
0
  6
CONTINUOUS
 62
     1
 10
652.0
 20
492.0
 30
0.0
 11
664.0
 21
492.0
 31
0.0
  0
LINE
  8
0
  6
CONTINUOUS
 62
     1
 10
652.0
 20
496.0
 30
0.0
 11
664.0
 21
496.0
 31
0.0
  0
LINE
  8
0
  6
CONTINUOUS
 62
     1
 10
652.0
 20
627.0
 30
0.0
 11
652.0
 21
492.0
 31
0.0
  0
LINE
  8
0
  6
CONTINUOUS
 62
     1
 10
664.0
 20
627.0
 30
0.0
 11
664.0
 21
492.0
 31
0.0
  0
LINE
  8
0
  6
CONTINUOUS
 62
     1
 10
411.0
 20
641.65
 30
0.0
 11
411.0
 21
841.65
 31
0.0
  0
LINE
  8
0
  6
CONTINUOUS
 62
     1
 10
748.7
 20
584.5
 30
0.0
 11
798.7
 21
584.5
 31
0.0
  0
LINE
  8
0
  6
CONTINUOUS
 62
     1
 10
798.7
 20
584.5
 30
0.0
 11
798.7
 21
534.5
 31
0.0
  0
LINE
  8
0
  6
CONTINUOUS
 62
     1
 10
748.7
 20
534.5
 30
0.0
 11
798.7
 21
534.5
 31
0.0
  0
LINE
  8
0
  6
CONTINUOUS
 62
     1
 10
748.7
 20
584.5
 30
0.0
 11
748.7
 21
534.5
 31
0.0
  0
CIRCLE
  8
0
  6
CONTINUOUS
 62
     1
 10
773.7
 20
559.5
 30
0.0
 40
25.0
  0
LINE
  8
0
  6
LTYPE3
 62
     2
 10
773.7
 20
596.7
 30
0.0
 11
773.7
 21
522.7
 31
0.0
  0
LINE
  8
0
  6
CONTINUOUS
 62
     2
 10
511.0
 20
505.5
 30
0.0
 11
511.0
 21
313.5
 31
0.0
  0
LINE
  8
0
  6
CONTINUOUS
 62
     2
 10
511.0
 20
313.5
 30
0.0
 11
511.0
 21
275.0
 31
0.0
  0
LINE
  8
0
  6
CONTINUOUS
 62
     2
 10
511.0
 20
284.0
 30
0.0
 11
525.488887394
 21
280.117714323
 31
0.0
  0
LINE
  8
0
  6
CONTINUOUS
 62
     2
 10
511.0
 20
284.0
 30
0.0
 11
525.488887394
 21
287.882285677
 31
0.0
  0
TEXT
  8
0
  6
CONTINUOUS
 62
     2
 10
785.4
 20
290.0
 30
1.2
 40
18.0
  1
ｍｉｎ．Ｌ
 50
0.0
 41
0.9
 51
0.0
  7
KANJI18
  0
LINE
  8
0
  6
CONTINUOUS
 62
     2
 10
511.0
 20
322.5
 30
0.0
 11
525.488887394
 21
318.617714323
 31
0.0
  0
LINE
  8
0
  6
CONTINUOUS
 62
     2
 10
511.0
 20
322.5
 30
0.0
 11
525.488887394
 21
326.382285677
 31
0.0
  0
TEXT
  8
0
  6
CONTINUOUS
 62
     2
 10
740.7
 20
328.5
 30
1.2
 40
18.0
  1
Ｃ
 50
0.0
 41
0.9
 51
0.0
  7
KANJI18
  0
TEXT
  8
0
  6
CONTINUOUS
 62
     2
 10
663.7
 20
252.0
 30
1.2
 40
18.0
  1
ｍｉｎ．ＡＬ
 50
0.0
 41
0.9
 51
0.0
  7
KANJI18
  0
LINE
  8
0
  6
LTYPE5
 62
     2
 10
822.5
 20
622.4
 30
0.0
 11
822.5
 21
497.4
 31
0.0
  0
LINE
  8
0
  6
CONTINUOUS
 62
     1
 10
822.5
 20
502.5
 30
0.0
 11
664.0
 21
502.5
 31
0.0
  0
LINE
  8
0
  6
CONTINUOUS
 62
     1
 10
822.5
 20
616.5
 30
0.0
 11
664.0
 21
616.5
 31
0.0
  0
LINE
  8
0
  6
LTYPE5
 62
     2
 10
825.5
 20
622.4
 30
0.0
 11
825.5
 21
497.4
 31
0.0
  0
LINE
  8
0
  6
CONTINUOUS
 62
     1
 10
587.0
 20
490.0
 30
0.0
 11
513.0
 21
490.0
 31
0.0
  0
LINE
  8
0
  6
CONTINUOUS
 62
     1
 10
504.0
 20
490.0
 30
0.0
 11
504.0
 21
489.0
 31
0.0
  0
ARC
  8
0
  6
CONTINUOUS
 62
     1
 10
591.0
 20
487.0
 30
0.0
 40
3.0
 50
0.0
 51
90.0
  0
LINE
  8
0
  6
CONTINUOUS
 62
     1
 10
465.0
 20
447.0
 30
0.0
 11
594.0
 21
447.0
 31
0.0
  0
LINE
  8
0
  6
CONTINUOUS
 62
     1
 10
504.0
 20
489.0
 30
0.0
 11
468.0
 21
489.0
 31
0.0
  0
ARC
  8
0
  6
CONTINUOUS
 62
     1
 10
468.0
 20
486.0
 30
0.0
 40
3.0
 50
90.0
 51
180.0
  0
LINE
  8
0
  6
CONTINUOUS
 62
     1
 10
465.0
 20
445.5
 30
0.0
 11
594.0
 21
445.5
 31
0.0
  0
LINE
  8
0
  6
CONTINUOUS
 62
     1
 10
465.0
 20
440.5
 30
0.0
 11
465.0
 21
486.0
 31
0.0
  0
ARC
  8
0
  6
CONTINUOUS
 62
     1
 10
466.0
 20
440.5
 30
0.0
 40
1.0
 50
180.0
 51
270.0
  0
LINE
  8
0
  6
CONTINUOUS
 62
     1
 10
468.0
 20
439.5
 30
0.0
 11
468.0
 21
439.5
 31
0.0
  0
ARC
  8
0
  6
CONTINUOUS
 62
     1
 10
469.0
 20
439.5
 30
0.0
 40
1.0
 50
180.0
 51
270.0
  0
LINE
  8
0
  6
CONTINUOUS
 62
     1
 10
594.0
 20
440.5
 30
0.0
 11
594.0
 21
487.0
 31
0.0
  0
LINE
  8
0
  6
CONTINUOUS
 62
     1
 10
466.0
 20
439.5
 30
0.0
 11
593.0
 21
439.5
 31
0.0
  0
ARC
  8
0
  6
CONTINUOUS
 62
     1
 10
593.0
 20
440.5
 30
0.0
 40
1.0
 50
270.0
 51
0.0
  0
ARC
  8
0
  6
CONTINUOUS
 62
     1
 10
590.0
 20
439.5
 30
0.0
 40
1.0
 50
270.0
 51
0.0
  0
LINE
  8
0
  6
CONTINUOUS
 62
     1
 10
469.0
 20
438.5
 30
0.0
 11
589.9
 21
438.5
 31
0.0
  0
LINE
  8
0
  6
CONTINUOUS
 62
     1
 10
591.0
 20
490.0
 30
0.0
 11
504.0
 21
490.0
 31
0.0
  0
LINE
  8
0
  6
LTYPE2
 62
     2
 10
458.8
 20
464.0
 30
0.0
 11
478.5
 21
464.0
 31
0.0
  0
LINE
  8
0
  6
LTYPE1
 62
     2
 10
465.0
 20
473.3
 30
0.0
 11
475.0
 21
473.3
 31
0.0
  0
LINE
  8
0
  6
LTYPE1
 62
     2
 10
465.0
 20
474.5
 30
0.0
 11
475.0
 21
474.5
 31
0.0
  0
LINE
  8
0
  6
LTYPE1
 62
     2
 10
465.0
 20
454.7
 30
0.0
 11
475.0
 21
454.7
 31
0.0
  0
LINE
  8
0
  6
LTYPE1
 62
     2
 10
465.0
 20
453.5
 30
0.0
 11
475.0
 21
453.5
 31
0.0
  0
LINE
  8
0
  6
CONTINUOUS
 62
     1
 10
460.2
 20
477.85
 30
0.0
 11
460.2
 21
450.15
 31
0.0
  0
LINE
  8
0
  6
CONTINUOUS
 62
     1
 10
465.0
 20
470.9
 30
0.0
 11
460.2
 21
470.9
 31
0.0
  0
LINE
  8
0
  6
CONTINUOUS
 62
     1
 10
465.0
 20
457.1
 30
0.0
 11
460.2
 21
457.1
 31
0.0
  0
LINE
  8
0
  6
CONTINUOUS
 62
     1
 10
465.0
 20
450.15
 30
0.0
 11
460.2
 21
450.15
 31
0.0
  0
LINE
  8
0
  6
CONTINUOUS
 62
     1
 10
465.0
 20
477.85
 30
0.0
 11
465.0
 21
450.15
 31
0.0
  0
LINE
  8
0
  6
CONTINUOUS
 62
     1
 10
465.0
 20
477.85
 30
0.0
 11
460.2
 21
477.85
 31
0.0
  0
LINE
  8
0
  6
CONTINUOUS
 62
     1
 10
455.0
 20
478.65
 30
0.0
 11
455.0
 21
449.35
 31
0.0
  0
LINE
  8
0
  6
CONTINUOUS
 62
     1
 10
455.0
 20
478.65
 30
0.0
 11
442.0
 21
478.65
 31
0.0
  0
ARC
  8
0
  6
CONTINUOUS
 62
     1
 10
442.0
 20
476.65
 30
0.0
 40
2.0
 50
90.0
 51
180.0
  0
LINE
  8
0
  6
CONTINUOUS
 62
     1
 10
455.0
 20
449.35
 30
0.0
 11
442.0
 21
449.35
 31
0.0
  0
LINE
  8
0
  6
CONTINUOUS
 62
     1
 10
440.0
 20
476.65
 30
0.0
 11
440.0
 21
451.35
 31
0.0
  0
ARC
  8
0
  6
CONTINUOUS
 62
     1
 10
442.0
 20
451.35
 30
0.0
 40
2.0
 50
180.0
 51
270.0
  0
LINE
  8
0
  6
CONTINUOUS
 62
     1
 10
444.0
 20
451.35
 30
0.0
 11
455.0
 21
451.35
 31
0.0
  0
LINE
  8
0
  6
CONTINUOUS
 62
     1
 10
444.0
 20
460.25
 30
0.0
 11
455.0
 21
460.25
 31
0.0
  0
LINE
  8
0
  6
CONTINUOUS
 62
     1
 10
444.0
 20
456.15
 30
0.0
 11
455.0
 21
456.15
 31
0.0
  0
LINE
  8
0
  6
CONTINUOUS
 62
     1
 10
444.0
 20
456.15
 30
0.0
 11
444.0
 21
451.35
 31
0.0
  0
LINE
  8
0
  6
CONTINUOUS
 62
     1
 10
444.0
 20
464.0
 30
0.0
 11
444.0
 21
460.25
 31
0.0
  0
LINE
  8
0
  6
CONTINUOUS
 62
     1
 10
440.0
 20
459.5
 30
0.0
 11
428.8
 21
459.5
 31
0.0
  0
LINE
  8
0
  6
CONTINUOUS
 62
     1
 10
444.0
 20
476.65
 30
0.0
 11
455.0
 21
476.65
 31
0.0
  0
LINE
  8
0
  6
CONTINUOUS
 62
     1
 10
444.0
 20
467.75
 30
0.0
 11
455.0
 21
467.75
 31
0.0
  0
LINE
  8
0
  6
CONTINUOUS
 62
     1
 10
444.0
 20
471.85
 30
0.0
 11
455.0
 21
471.85
 31
0.0
  0
LINE
  8
0
  6
CONTINUOUS
 62
     1
 10
444.0
 20
471.85
 30
0.0
 11
444.0
 21
476.65
 31
0.0
  0
LINE
  8
0
  6
CONTINUOUS
 62
     1
 10
444.0
 20
464.0
 30
0.0
 11
444.0
 21
467.75
 31
0.0
  0
LINE
  8
0
  6
CONTINUOUS
 62
     1
 10
440.0
 20
468.5
 30
0.0
 11
428.8
 21
468.5
 31
0.0
  0
LINE
  8
0
  6
CONTINUOUS
 62
     1
 10
460.3
 20
451.3
 30
0.0
 11
455.0
 21
451.3
 31
0.0
  0
LINE
  8
0
  6
CONTINUOUS
 62
     1
 10
460.3
 20
452.1
 30
0.0
 11
455.0
 21
452.1
 31
0.0
  0
LINE
  8
0
  6
CONTINUOUS
 62
     1
 10
460.3
 20
476.7
 30
0.0
 11
455.0
 21
476.7
 31
0.0
  0
LINE
  8
0
  6
CONTINUOUS
 62
     1
 10
460.3
 20
475.9
 30
0.0
 11
455.0
 21
475.9
 31
0.0
  0
LINE
  8
0
  6
CONTINUOUS
 62
     1
 10
228.0
 20
462.75
 30
0.0
 11
228.0
 21
714.75
 31
0.0
  0
LINE
  8
0
  6
CONTINUOUS
 62
     1
 10
228.0
 20
640.75
 30
0.0
 11
228.0
 21
629.80046
 31
0.0
  0
LINE
  8
0
  6
CONTINUOUS
 62
     1
 10
228.0
 20
640.75
 30
0.0
 11
228.0
 21
651.69954
 31
0.0
  0
LINE
  8
0
  6
CONTINUOUS
 62
     1
 10
228.5
 20
469.8
 30
0.0
 11
123.218048035
 21
480.140191711
 31
0.0
  0
ARC
  8
0
  6
CONTINUOUS
 62
     1
 10
124.0
 20
488.101884441
 30
0.0
 40
8.0
 50
180.0
 51
264.390725554
  0
LINE
  8
0
  6
CONTINUOUS
 62
     1
 10
228.5
 20
682.7
 30
0.0
 11
123.218048035
 21
672.359808289
 31
0.0
  0
ARC
  8
0
  6
CONTINUOUS
 62
     1
 10
124.0
 20
664.398115559
 30
0.0
 40
8.0
 50
95.609274446
 51
180.0
  0
LINE
  8
0
  6
CONTINUOUS
 62
     1
 10
228.5
 20
494.8
 30
0.0
 11
123.218048035
 21
505.140191711
 31
0.0
  0
ARC
  8
0
  6
CONTINUOUS
 62
     1
 10
124.0
 20
513.101884441
 30
0.0
 40
8.0
 50
180.0
 51
264.390725554
  0
LINE
  8
0
  6
CONTINUOUS
 62
     1
 10
219.9789
 20
472.48198
 30
0.0
 11
221.527076294
 21
469.80046
 31
0.0
  0
LINE
  8
0
  6
CONTINUOUS
 62
     1
 10
219.9789
 20
480.75
 30
0.0
 11
219.9789
 21
472.48198
 31
0.0
  0
LINE
  8
0
  6
CONTINUOUS
 62
     1
 10
219.9789
 20
489.01802
 30
0.0
 11
221.527076294
 21
491.69954
 31
0.0
  0
LINE
  8
0
  6
CONTINUOUS
 62
     1
 10
219.9789
 20
480.75
 30
0.0
 11
219.9789
 21
489.01802
 31
0.0
  0
ARC
  8
0
  6
CONTINUOUS
 62
     1
 10
230.433121693
 20
480.75
 30
0.0
 40
10.454221693
 50
148.419912243
 51
211.580087757
  0
ARC
  8
0
  6
CONTINUOUS
 62
     1
 10
223.172013606
 20
472.537845
 30
0.0
 40
3.193602261
 50
121.002313915
 51
182.989498403
  0
LINE
  8
0
  6
CONTINUOUS
 62
     1
 10
219.9789
 20
489.01802
 30
0.0
 11
221.527076294
 21
491.69954
 31
0.0
  0
ARC
  8
0
  6
CONTINUOUS
 62
     1
 10
223.172013606
 20
488.962155
 30
0.0
 40
3.193602261
 50
177.010501597
 51
238.997686085
  0
LINE
  8
0
  6
CONTINUOUS
 62
     1
 10
228.0
 20
469.80046
 30
0.0
 11
221.527076294
 21
469.80046
 31
0.0
  0
LINE
  8
0
  6
CONTINUOUS
 62
     1
 10
228.0
 20
475.27523
 30
0.0
 11
221.527076294
 21
475.27523
 31
0.0
  0
LINE
  8
0
  6
CONTINUOUS
 62
     1
 10
228.0
 20
486.22477
 30
0.0
 11
221.527076294
 21
486.22477
 31
0.0
  0
LINE
  8
0
  6
CONTINUOUS
 62
     1
 10
228.0
 20
491.69954
 30
0.0
 11
221.527076294
 21
491.69954
 31
0.0
  0
LINE
  8
0
  6
LTYPE3
 62
     2
 10
214.4
 20
480.75
 30
0.0
 11
263.1
 21
480.75
 31
0.0
  0
LINE
  8
0
  6
CONTINUOUS
 62
     1
 10
238.0
 20
462.75
 30
0.0
 11
238.0
 21
719.75
 31
0.0
  0
LINE
  8
0
  6
CONTINUOUS
 62
     2
 10
511.0
 20
284.0
 30
0.0
 11
496.511112606
 21
287.882285677
 31
0.0
  0
LINE
  8
0
  6
CONTINUOUS
 62
     2
 10
511.0
 20
284.0
 30
0.0
 11
496.511112606
 21
280.117714323
 31
0.0
  0
LINE
  8
0
  6
CONTINUOUS
 62
     2
 10
511.0
 20
284.0
 30
0.0
 11
303.0
 21
284.0
 31
0.0
  0
LINE
  8
0
  6
CONTINUOUS
 62
     2
 10
303.0
 20
284.0
 30
0.0
 11
317.488887394
 21
280.117714323
 31
0.0
  0
LINE
  8
0
  6
CONTINUOUS
 62
     2
 10
303.0
 20
284.0
 30
0.0
 11
317.488887394
 21
287.882285677
 31
0.0
  0
LINE
  8
0
  6
CONTINUOUS
 62
     2
 10
303.0
 20
455.5
 30
0.0
 11
303.0
 21
275.0
 31
0.0
  0
TEXT
  8
0
  6
CONTINUOUS
 62
     2
 10
381.5
 20
290.0
 30
1.2
 40
18.0
  1
２０８
 50
0.0
 41
0.9
 51
0.0
  7
KANJI21
  0
LINE
  8
0
  6
CONTINUOUS
 62
     2
 10
303.0
 20
284.0
 30
0.0
 11
288.511112606
 21
287.882285677
 31
0.0
  0
LINE
  8
0
  6
CONTINUOUS
 62
     2
 10
303.0
 20
284.0
 30
0.0
 11
288.511112606
 21
280.117714323
 31
0.0
  0
LINE
  8
0
  6
CONTINUOUS
 62
     2
 10
303.0
 20
284.0
 30
0.0
 11
116.0
 21
284.0
 31
0.0
  0
LINE
  8
0
  6
CONTINUOUS
 62
     2
 10
116.0
 20
284.0
 30
0.0
 11
130.488887394
 21
280.117714323
 31
0.0
  0
LINE
  8
0
  6
CONTINUOUS
 62
     2
 10
116.0
 20
284.0
 30
0.0
 11
130.488887394
 21
287.882285677
 31
0.0
  0
TEXT
  8
0
  6
CONTINUOUS
 62
     2
 10
184.0
 20
290.0
 30
1.2
 40
18.0
  1
１８７
 50
0.0
 41
0.9
 51
0.0
  7
KANJI21
  0
LINE
  8
0
  6
CONTINUOUS
 62
     2
 10
116.0
 20
246.0
 30
0.0
 11
130.488887394
 21
242.117714323
 31
0.0
  0
LINE
  8
0
  6
CONTINUOUS
 62
     2
 10
116.0
 20
246.0
 30
0.0
 11
130.488887394
 21
249.882285677
 31
0.0
  0
LINE
  8
0
  6
CONTINUOUS
 62
     2
 10
730.1
 20
502.5
 30
0.0
 11
733.982285677
 21
516.988887394
 31
0.0
  0
LINE
  8
0
  6
CONTINUOUS
 62
     2
 10
730.1
 20
502.5
 30
0.0
 11
726.217714323
 21
516.988887394
 31
0.0
  0
LINE
  8
0
  6
CONTINUOUS
 62
     2
 10
730.1
 20
502.5
 30
0.0
 11
730.1
 21
616.5
 31
0.0
  0
LINE
  8
0
  6
CONTINUOUS
 62
     2
 10
730.1
 20
616.5
 30
0.0
 11
726.217714323
 21
602.011112606
 31
0.0
  0
LINE
  8
0
  6
CONTINUOUS
 62
     2
 10
730.1
 20
616.5
 30
0.0
 11
733.982285677
 21
602.011112606
 31
0.0
  0
TEXT
  8
0
  6
CONTINUOUS
 62
     2
 10
724.1
 20
525.3
 30
1.2
 40
18.0
  1
φ１１４
 50
90.0
 41
0.9
 51
0.0
  7
KANJI21
  0
LINE
  8
0
  6
LTYPE2
 62
     2
 10
243.3
 20
496.75
 30
0.0
 11
286.8
 21
496.75
 31
0.0
  0
LINE
  8
0
  6
LTYPE2
 62
     2
 10
265.8
 20
473.75
 30
0.0
 11
265.8
 21
518.25
 31
0.0
  0
CIRCLE
  8
0
  6
CONTINUOUS
 62
     2
 10
265.5
 20
569.75
 30
0.0
 40
17.0
  0
CIRCLE
  8
0
  6
CONTINUOUS
 62
     1
 10
265.5
 20
569.75
 30
0.0
 40
14.5
  0
LINE
  8
0
  6
LTYPE2
 62
     2
 10
265.5
 20
544.75
 30
0.0
 11
265.5
 21
599.75
 31
0.0
  0
LINE
  8
0
  6
LTYPE2
 62
     2
 10
235.5
 20
569.75
 30
0.0
 11
295.7
 21
569.75
 31
0.0
  0
LINE
  8
0
  6
CONTINUOUS
 62
     2
 10
275.7
 20
563.75
 30
0.0
 11
277.437226073
 21
551.371306791
 31
0.0
  0
LINE
  8
0
  6
CONTINUOUS
 62
     2
 10
275.7
 20
563.75
 30
0.0
 11
283.393828516
 21
553.898350251
 31
0.0
  0
LINE
  8
0
  6
CONTINUOUS
 62
     2
 10
275.7
 20
563.75
 30
0.0
 11
345.7
 21
398.75
 31
0.0
  0
LINE
  8
0
  6
CONTINUOUS
 62
     2
 10
345.7
 20
398.75
 30
0.0
 11
419.2
 21
398.75
 31
0.0
  0
ARC
  8
0
  6
CONTINUOUS
 62
     1
 10
265.8
 20
496.75
 30
0.0
 40
5.0
 50
42.397437796
 51
227.862405227
  0
ARC
  8
0
  6
CONTINUOUS
 62
     1
 10
265.8
 20
496.75
 30
0.0
 40
14.65
 50
332.012546809
 51
293.902050411
  0
LINE
  8
0
  6
CONTINUOUS
 62
     1
 10
293.3
 20
462.75
 30
0.0
 11
228.0
 21
462.75
 31
0.0
  0
LINE
  8
0
  6
CONTINUOUS
 62
     1
 10
303.0
 20
466.75
 30
0.0
 11
303.0
 21
788.75
 31
0.0
  0
LINE
  8
0
  6
CONTINUOUS
 62
     1
 10
269.335533906
 20
500.285533906
 30
0.0
 11
305.121067812
 21
464.5
 31
0.0
  0
LINE
  8
0
  6
CONTINUOUS
 62
     1
 10
411.0
 20
464.5
 30
0.0
 11
305.121067812
 21
464.5
 31
0.0
  0
LINE
  8
0
  6
CONTINUOUS
 62
     1
 10
262.264466094
 20
493.214466094
 30
0.0
 11
297.05
 21
458.428932188
 31
0.0
  0
LINE
  8
0
  6
CONTINUOUS
 62
     1
 10
411.0
 20
455.5
 30
0.0
 11
304.121067812
 21
455.5
 31
0.0
  0
ARC
  8
0
  6
CONTINUOUS
 62
     1
 10
304.121067812
 20
465.5
 30
0.0
 40
10.0
 50
225.0
 51
270.0
  0
LINE
  8
0
  6
CONTINUOUS
 62
     1
 10
428.8
 20
459.5
 30
0.0
 11
411.0
 21
455.5
 31
0.0
  0
LINE
  8
0
  6
CONTINUOUS
 62
     1
 10
426.826738038
 20
468.281015729
 30
0.0
 11
409.026738038
 21
464.281015729
 31
0.0
  0
LINE
  8
7
  6
CONTINUOUS
 62
     2
 10
786.0
 20
543.7
 30
0.0
 11
787.254874512
 21
528.752582499
 31
0.0
  0
LINE
  8
7
  6
CONTINUOUS
 62
     2
 10
786.0
 20
543.7
 30
0.0
 11
794.560461956
 21
531.382593979
 31
0.0
  0
LINE
  8
7
  6
CONTINUOUS
 62
     2
 10
786.0
 20
543.7
 30
0.0
 11
831.0
 21
418.7
 31
0.0
  0
LINE
  8
7
  6
CONTINUOUS
 62
     2
 10
831.0
 20
418.7
 30
0.0
 11
883.2
 21
418.7
 31
0.0
  0
TEXT
  8
7
  6
CONTINUOUS
 62
     2
 10
831.0
 20
424.7
 30
1.8
 40
18.0
  1
給脂口
 50
0.0
 41
0.9
 51
0.0
  7
KANJI20
  0
LINE
  8
7
  6
CONTINUOUS
 62
     2
 10
577.0
 20
447.3
 30
0.0
 11
577.898728913
 21
432.326947995
 31
0.0
  0
LINE
  8
7
  6
CONTINUOUS
 62
     2
 10
577.0
 20
447.3
 30
0.0
 11
585.264848072
 21
434.782321048
 31
0.0
  0
LINE
  8
7
  6
CONTINUOUS
 62
     2
 10
577.0
 20
447.3
 30
0.0
 11
597.0
 21
387.3
 31
0.0
  0
LINE
  8
7
  6
CONTINUOUS
 62
     2
 10
597.0
 20
387.3
 30
0.0
 11
703.2
 21
387.3
 31
0.0
  0
TEXT
  8
7
  6
CONTINUOUS
 62
     2
 10
597.0
 20
393.3
 30
1.8
 40
18.0
  1
推力リミッタ
 50
0.0
 41
0.9
 51
0.0
  7
KANJI20
  0
TEXT
  8
0
  6
CONTINUOUS
 62
     2
 10
126.0
 20
586.5
 30
1.8
 40
18.0
  1
ポジショナ
 50
0.0
 41
0.9
 51
0.0
  7
KANJI20
  0
LINE
  8
0
  6
CONTINUOUS
 62
     1
 10
411.0
 20
641.75
 30
0.0
 11
411.0
 21
841.75
 31
0.0
  0
LINE
  8
0
  6
CONTINUOUS
 62
     1
 10
411.0
 20
641.75
 30
0.0
 11
420.0
 21
641.75
 31
0.0
  0
ARC
  8
0
  6
CONTINUOUS
 62
     1
 10
420.0
 20
644.75
 30
0.0
 40
3.0
 50
270.0
 51
0.0
  0
LINE
  8
0
  6
CONTINUOUS
 62
     1
 10
423.0
 20
644.75
 30
0.0
 11
423.0
 21
812.75
 31
0.0
  0
LINE
  8
0
  6
CONTINUOUS
 62
     1
 10
458.0
 20
670.75
 30
0.0
 11
458.0
 21
812.65
 31
0.0
  0
ARC
  8
0
  6
CONTINUOUS
 62
     1
 10
425.0
 20
668.75
 30
0.0
 40
2.0
 50
90.0
 51
180.0
  0
LINE
  8
0
  6
CONTINUOUS
 62
     1
 10
653.0
 20
670.75
 30
0.0
 11
653.0
 21
812.75
 31
0.0
  0
LINE
  8
0
  6
CONTINUOUS
 62
     1
 10
425.0
 20
670.75
 30
0.0
 11
658.0
 21
670.75
 31
0.0
  0
LINE
  8
0
  6
CONTINUOUS
 62
     1
 10
661.0
 20
809.75
 30
0.0
 11
661.0
 21
673.75
 31
0.0
  0
ARC
  8
0
  6
CONTINUOUS
 62
     1
 10
658.0
 20
673.75
 30
0.0
 40
3.0
 50
270.0
 51
0.0
  0
LINE
  8
0
  6
CONTINUOUS
 62
     1
 10
430.0
 20
693.413690552
 30
0.0
 11
430.0
 21
673.413690552
 31
0.0
  0
LINE
  8
0
  6
CONTINUOUS
 62
     1
 10
423.0
 20
673.413690552
 30
0.0
 11
430.0
 21
673.413690552
 31
0.0
  0
LINE
  8
0
  6
CONTINUOUS
 62
     1
 10
423.0
 20
678.413690552
 30
0.0
 11
430.0
 21
678.413690552
 31
0.0
  0
LINE
  8
2
  6
CONTINUOUS
 62
     2
 10
760.1
 20
812.75
 30
0.0
 11
760.1
 21
670.75
 31
0.0
  0
LINE
  8
2
  6
CONTINUOUS
 62
     2
 10
760.1
 20
670.75
 30
0.0
 11
763.982285677
 21
685.238887394
 31
0.0
  0
LINE
  8
2
  6
CONTINUOUS
 62
     2
 10
760.1
 20
670.75
 30
0.0
 11
756.217714323
 21
685.238887394
 31
0.0
  0
LINE
  8
2
  6
CONTINUOUS
 62
     2
 10
659.0
 20
670.75
 30
0.0
 11
766.1
 21
670.75
 31
0.0
  0
LINE
  8
0
  6
LTYPE2
 62
     2
 10
703.1
 20
559.5
 30
0.0
 11
273.6
 21
559.5
 31
0.0
  0
LINE
  8
0
  6
LTYPE2
 62
     2
 10
965.1
 20
559.5
 30
0.0
 11
731.1
 21
559.5
 31
0.0
  0
LINE
  8
0
  6
CONTINUOUS
 62
     1
 10
825.5
 20
616.5
 30
0.0
 11
857.6
 21
616.5
 31
0.0
  0
LINE
  8
0
  6
CONTINUOUS
 62
     1
 10
825.5
 20
502.5
 30
0.0
 11
942.6
 21
502.5
 31
0.0
  0
LINE
  8
0
  6
CONTINUOUS
 62
     2
 10
511.0
 20
322.5
 30
0.0
 11
926.6
 21
322.5
 31
0.0
  0
LINE
  8
0
  6
CONTINUOUS
 62
     2
 10
511.0
 20
284.0
 30
0.0
 11
1085.6
 21
284.0
 31
0.0
  0
LINE
  8
0
  6
CONTINUOUS
 62
     2
 10
1085.6
 20
246.0
 30
0.0
 11
116.0
 21
246.0
 31
0.0
  0
LINE
  8
0
  6
LTYPE2
 62
     2
 10
1131.0
 20
559.5
 30
0.0
 11
994.1
 21
559.5
 31
0.0
  0
LINE
  8
0
  6
CONTINUOUS
 62
     1
 10
401.0
 20
837.5
 30
0.0
 11
391.0
 21
788.75
 31
0.0
  0
LINE
  8
0
  6
CONTINUOUS
 62
     1
 10
411.0
 20
837.5
 30
0.0
 11
401.0
 21
837.5
 31
0.0
  0
LINE
  8
0
  6
CONTINUOUS
 62
     1
 10
321.0
 20
788.75
 30
0.0
 11
321.0
 21
821.75
 31
0.0
  0
LINE
  8
0
  6
CONTINUOUS
 62
     1
 10
391.0
 20
788.75
 30
0.0
 11
303.0
 21
788.75
 31
0.0
  0
LINE
  8
0
  6
CONTINUOUS
 62
     1
 10
391.0
 20
695.5
 30
0.0
 11
391.0
 21
788.75
 31
0.0
  0
LINE
  8
0
  6
CONTINUOUS
 62
     1
 10
397.769230769
 20
821.75
 30
0.0
 11
321.0
 21
821.75
 31
0.0
  0
CIRCLE
  8
0
  6
CONTINUOUS
 62
     1
 10
351.0
 20
846.85
 30
0.0
 40
15.0
  0
LINE
  8
0
  6
CONTINUOUS
 62
     1
 10
362.401268963
 20
829.851530418
 30
0.0
 11
351.0
 21
831.85
 31
0.0
  0
LINE
  8
0
  6
CONTINUOUS
 62
     1
 10
351.0
 20
829.85
 30
0.0
 11
362.401455767
 21
829.85
 31
0.0
  0
ARC
  8
0
  6
CONTINUOUS
 62
     1
 10
351.0
 20
846.85
 30
0.0
 40
25.0
 50
300.714883545
 51
0.0
  0
LINE
  8
0
  6
CONTINUOUS
 62
     1
 10
363.117095146
 20
823.987009489
 30
0.0
 11
362.401455767
 21
829.85
 31
0.0
  0
LINE
  8
0
  6
CONTINUOUS
 62
     1
 10
363.5
 20
820.85
 30
0.0
 11
363.117095146
 21
823.987009489
 31
0.0
  0
ARC
  8
0
  6
CONTINUOUS
 62
     1
 10
364.505622715
 20
824.16612566
 30
0.0
 40
1.4
 50
121.733468281
 51
187.57738995
  0
LINE
  8
0
  6
CONTINUOUS
 62
     1
 10
339.598731037
 20
829.851530418
 30
0.0
 11
351.0
 21
831.85
 31
0.0
  0
LINE
  8
0
  6
CONTINUOUS
 62
     1
 10
351.0
 20
829.85
 30
0.0
 11
339.598544233
 21
829.85
 31
0.0
  0
LINE
  8
0
  6
CONTINUOUS
 62
     1
 10
338.882904854
 20
823.987009489
 30
0.0
 11
339.598544233
 21
829.85
 31
0.0
  0
LINE
  8
0
  6
CONTINUOUS
 62
     1
 10
338.5
 20
820.85
 30
0.0
 11
338.882904854
 21
823.987009489
 31
0.0
  0
ARC
  8
0
  6
CONTINUOUS
 62
     1
 10
337.494377285
 20
824.16612566
 30
0.0
 40
1.4
 50
352.42261005
 51
58.266531719
  0
ARC
  8
0
  6
CONTINUOUS
 62
     1
 10
351.0
 20
846.85
 30
0.0
 40
25.0
 50
0.0
 51
239.342761175
  0
LINE
  8
0
  6
CONTINUOUS
 62
     1
 10
391.0
 20
695.5
 30
0.0
 11
303.0
 21
695.5
 31
0.0
  0
LINE
  8
0
  6
CONTINUOUS
 62
     1
 10
192.0
 20
724.75
 30
0.0
 11
192.0
 21
758.75
 31
0.0
  0
LINE
  8
0
  6
CONTINUOUS
 62
     1
 10
224.0
 20
724.75
 30
0.0
 11
224.0
 21
758.75
 31
0.0
  0
LINE
  8
0
  6
CONTINUOUS
 62
     1
 10
192.0
 20
758.75
 30
0.0
 11
228.0
 21
758.75
 31
0.0
  0
LINE
  8
0
  6
CONTINUOUS
 62
     1
 10
192.0
 20
724.75
 30
0.0
 11
228.0
 21
724.75
 31
0.0
  0
LINE
  8
0
  6
CONTINUOUS
 62
     1
 10
228.5
 20
707.7
 30
0.0
 11
123.218048035
 21
697.359808289
 31
0.0
  0
ARC
  8
0
  6
CONTINUOUS
 62
     1
 10
124.0
 20
689.398115559
 30
0.0
 40
8.0
 50
95.609274446
 51
180.0
  0
LINE
  8
0
  6
CONTINUOUS
 62
     1
 10
116.0
 20
488.101884441
 30
0.0
 11
116.0
 21
689.398115559
 31
0.0
  0
LINE
  8
0
  6
CONTINUOUS
 62
     1
 10
219.9789
 20
705.01802
 30
0.0
 11
221.527076294
 21
707.69954
 31
0.0
  0
LINE
  8
0
  6
CONTINUOUS
 62
     1
 10
219.9789
 20
696.75
 30
0.0
 11
219.9789
 21
705.01802
 31
0.0
  0
LINE
  8
0
  6
CONTINUOUS
 62
     1
 10
219.9789
 20
688.48198
 30
0.0
 11
221.527076294
 21
685.80046
 31
0.0
  0
LINE
  8
0
  6
CONTINUOUS
 62
     1
 10
219.9789
 20
696.75
 30
0.0
 11
219.9789
 21
688.48198
 31
0.0
  0
ARC
  8
0
  6
CONTINUOUS
 62
     1
 10
230.433121693
 20
696.75
 30
0.0
 40
10.454221693
 50
148.419912243
 51
211.580087757
  0
ARC
  8
0
  6
CONTINUOUS
 62
     1
 10
223.172013606
 20
704.962155
 30
0.0
 40
3.193602261
 50
177.010501597
 51
238.997686085
  0
LINE
  8
0
  6
CONTINUOUS
 62
     1
 10
219.9789
 20
688.48198
 30
0.0
 11
221.527076294
 21
685.80046
 31
0.0
  0
ARC
  8
0
  6
CONTINUOUS
 62
     1
 10
223.172013606
 20
688.537845
 30
0.0
 40
3.193602261
 50
121.002313915
 51
182.989498403
  0
LINE
  8
0
  6
CONTINUOUS
 62
     1
 10
228.0
 20
707.69954
 30
0.0
 11
221.527076294
 21
707.69954
 31
0.0
  0
LINE
  8
0
  6
CONTINUOUS
 62
     1
 10
228.0
 20
702.22477
 30
0.0
 11
221.527076294
 21
702.22477
 31
0.0
  0
LINE
  8
0
  6
CONTINUOUS
 62
     1
 10
228.0
 20
691.27523
 30
0.0
 11
221.527076294
 21
691.27523
 31
0.0
  0
LINE
  8
0
  6
CONTINUOUS
 62
     1
 10
228.0
 20
685.80046
 30
0.0
 11
221.527076294
 21
685.80046
 31
0.0
  0
LINE
  8
0
  6
LTYPE3
 62
     2
 10
214.4
 20
696.75
 30
0.0
 11
263.1
 21
696.75
 31
0.0
  0
LINE
  8
0
  6
CONTINUOUS
 62
     1
 10
228.0
 20
719.75
 30
0.0
 11
228.0
 21
781.75
 31
0.0
  0
LINE
  8
0
  6
CONTINUOUS
 62
     1
 10
238.0
 20
719.75
 30
0.0
 11
228.0
 21
719.75
 31
0.0
  0
LINE
  8
0
  6
CONTINUOUS
 62
     1
 10
228.0
 20
781.75
 30
0.0
 11
303.0
 21
781.75
 31
0.0
  0
LINE
  8
0
  6
CONTINUOUS
 62
     1
 10
303.0
 20
714.75
 30
0.0
 11
228.0
 21
714.75
 31
0.0
  0
LINE
  8
0
  6
CONTINUOUS
 62
     2
 10
116.0
 20
479.101884441
 30
0.0
 11
116.0
 21
235.9
 31
0.0
  0
LINE
  8
0
  6
CONTINUOUS
 62
     1
 10
411.0
 20
841.75
 30
0.0
 11
420.0
 21
841.75
 31
0.0
  0
ARC
  8
0
  6
CONTINUOUS
 62
     1
 10
420.0
 20
838.75
 30
0.0
 40
3.0
 50
0.0
 51
90.0
  0
LINE
  8
0
  6
CONTINUOUS
 62
     1
 10
423.0
 20
812.75
 30
0.0
 11
423.0
 21
838.75
 31
0.0
  0
ARC
  8
0
  6
CONTINUOUS
 62
     1
 10
425.0
 20
814.75
 30
0.0
 40
2.0
 50
180.0
 51
270.0
  0
LINE
  8
0
  6
CONTINUOUS
 62
     1
 10
561.55
 20
831.75
 30
0.0
 11
561.55
 21
865.75
 31
0.0
  0
LINE
  8
0
  6
CONTINUOUS
 62
     1
 10
561.55
 20
831.75
 30
0.0
 11
535.55
 21
831.75
 31
0.0
  0
LINE
  8
0
  6
CONTINUOUS
 62
     1
 10
561.55
 20
865.75
 30
0.0
 11
535.55
 21
865.75
 31
0.0
  0
LINE
  8
0
  6
LTYPE2
 62
     2
 10
568.479475845
 20
848.75
 30
0.0
 11
528.479475845
 21
848.75
 31
0.0
  0
LINE
  8
0
  6
CONTINUOUS
 62
     1
 10
465.55
 20
823.75
 30
0.0
 11
465.55
 21
826.75
 31
0.0
  0
ARC
  8
0
  6
CONTINUOUS
 62
     1
 10
469.55
 20
820.75
 30
0.0
 40
3.0
 50
0.0
 51
90.0
  0
LINE
  8
0
  6
CONTINUOUS
 62
     1
 10
525.55
 20
823.75
 30
0.0
 11
525.55
 21
826.75
 31
0.0
  0
ARC
  8
0
  6
CONTINUOUS
 62
     1
 10
521.55
 20
820.75
 30
0.0
 40
3.0
 50
90.0
 51
180.0
  0
LINE
  8
0
  6
CONTINUOUS
 62
     1
 10
525.55
 20
823.75
 30
0.0
 11
465.55
 21
823.75
 31
0.0
  0
LINE
  8
0
  6
CONTINUOUS
 62
     1
 10
450.462087912
 20
828.75
 30
0.0
 11
542.55
 21
872.770045888
 31
0.0
  0
LINE
  8
0
  6
CONTINUOUS
 62
     1
 10
448.55
 20
832.75
 30
0.0
 11
450.462087912
 21
828.75
 31
0.0
  0
LINE
  8
0
  6
CONTINUOUS
 62
     1
 10
448.55
 20
832.75
 30
0.0
 11
540.637912088
 21
876.770045888
 31
0.0
  0
LINE
  8
0
  6
CONTINUOUS
 62
     1
 10
540.637912088
 20
876.770045888
 30
0.0
 11
542.55
 21
872.770045888
 31
0.0
  0
LINE
  8
0
  6
CONTINUOUS
 62
     1
 10
455.55
 20
836.096153846
 30
0.0
 11
455.55
 21
875.75
 31
0.0
  0
ARC
  8
0
  6
CONTINUOUS
 62
     1
 10
458.55
 20
875.75
 30
0.0
 40
3.0
 50
90.0
 51
180.0
  0
LINE
  8
0
  6
CONTINUOUS
 62
     1
 10
455.55
 20
829.75
 30
0.0
 11
455.55
 21
831.1821338
 31
0.0
  0
ARC
  8
0
  6
CONTINUOUS
 62
     1
 10
458.55
 20
829.75
 30
0.0
 40
3.0
 50
180.0
 51
270.0
  0
LINE
  8
0
  6
CONTINUOUS
 62
     1
 10
535.55
 20
829.75
 30
0.0
 11
535.55
 21
869.423892042
 31
0.0
  0
LINE
  8
0
  6
CONTINUOUS
 62
     1
 10
532.55
 20
826.75
 30
0.0
 11
458.55
 21
826.75
 31
0.0
  0
ARC
  8
0
  6
CONTINUOUS
 62
     1
 10
532.55
 20
829.75
 30
0.0
 40
3.0
 50
270.0
 51
0.0
  0
LINE
  8
0
  6
CONTINUOUS
 62
     1
 10
535.55
 20
874.337912088
 30
0.0
 11
535.55
 21
875.75
 31
0.0
  0
LINE
  8
0
  6
CONTINUOUS
 62
     1
 10
532.55
 20
878.75
 30
0.0
 11
458.55
 21
878.75
 31
0.0
  0
ARC
  8
0
  6
CONTINUOUS
 62
     1
 10
532.55
 20
875.75
 30
0.0
 40
3.0
 50
0.0
 51
90.0
  0
ARC
  8
0
  6
CONTINUOUS
 62
     1
 10
475.55
 20
815.25
 30
0.0
 40
3.0
 50
180.0
 51
270.0
  0
ARC
  8
0
  6
CONTINUOUS
 62
     1
 10
515.55
 20
815.25
 30
0.0
 40
3.0
 50
270.0
 51
0.0
  0
LINE
  8
0
  6
CONTINUOUS
 62
     1
 10
518.55
 20
815.250005395
 30
0.0
 11
518.55
 21
820.75
 31
0.0
  0
LINE
  8
0
  6
CONTINUOUS
 62
     1
 10
472.55
 20
815.250005395
 30
0.0
 11
472.55
 21
820.75
 31
0.0
  0
LINE
  8
0
  6
LTYPE2
 62
     2
 10
495.5
 20
805.75
 30
0.0
 11
495.5
 21
880.75
 31
0.0
  0
LINE
  8
0
  6
CONTINUOUS
 62
     1
 10
662.810381815
 20
783.577582684
 30
0.0
 11
680.189618185
 21
781.922417316
 31
0.0
  0
ARC
  8
0
  6
CONTINUOUS
 62
     1
 10
663.0
 20
785.568573629
 30
0.0
 40
2.0
 50
180.0
 51
264.559667969
  0
LINE
  8
0
  6
CONTINUOUS
 62
     1
 10
662.810381815
 20
793.577582684
 30
0.0
 11
680.189618185
 21
791.922417316
 31
0.0
  0
ARC
  8
0
  6
CONTINUOUS
 62
     1
 10
663.0
 20
795.568573629
 30
0.0
 40
2.0
 50
180.0
 51
264.559667969
  0
LINE
  8
0
  6
CONTINUOUS
 62
     1
 10
662.810381815
 20
699.922417316
 30
0.0
 11
680.189618185
 21
701.577582684
 31
0.0
  0
ARC
  8
0
  6
CONTINUOUS
 62
     1
 10
663.0
 20
697.931426371
 30
0.0
 40
2.0
 50
95.440332031
 51
180.0
  0
ARC
  8
0
  6
CONTINUOUS
 62
     1
 10
684.0
 20
766.75
 30
0.0
 40
2.0
 50
180.0
 51
270.0
  0
LINE
  8
0
  6
CONTINUOUS
 62
     1
 10
693.0
 20
764.75
 30
0.0
 11
684.0
 21
764.75
 31
0.0
  0
ARC
  8
0
  6
CONTINUOUS
 62
     1
 10
693.0
 20
762.75
 30
0.0
 40
2.0
 50
0.0
 51
90.0
  0
LINE
  8
0
  6
CONTINUOUS
 62
     1
 10
695.0
 20
762.75
 30
0.0
 11
695.0
 21
720.75
 31
0.0
  0
ARC
  8
0
  6
CONTINUOUS
 62
     1
 10
693.0
 20
720.75
 30
0.0
 40
2.0
 50
270.0
 51
0.0
  0
ARC
  8
0
  6
CONTINUOUS
 62
     1
 10
684.0
 20
716.75
 30
0.0
 40
2.0
 50
90.0
 51
180.0
  0
LINE
  8
0
  6
CONTINUOUS
 62
     1
 10
693.0
 20
718.75
 30
0.0
 11
684.0
 21
718.75
 31
0.0
  0
LINE
  8
0
  6
CONTINUOUS
 62
     1
 10
698.0
 20
753.25
 30
0.0
 11
695.0
 21
753.25
 31
0.0
  0
LINE
  8
0
  6
CONTINUOUS
 62
     1
 10
698.0
 20
730.25
 30
0.0
 11
695.0
 21
730.25
 31
0.0
  0
LINE
  8
0
  6
CONTINUOUS
 62
     1
 10
698.0
 20
753.25
 30
0.0
 11
698.0
 21
730.25
 31
0.0
  0
ARC
  8
0
  6
CONTINUOUS
 62
     1
 10
680.0
 20
734.568573629
 30
0.0
 40
2.0
 50
275.440332031
 51
0.0
  0
LINE
  8
0
  6
CONTINUOUS
 62
     1
 10
680.189618185
 20
732.577582684
 30
0.0
 11
662.810381815
 21
730.922417316
 31
0.0
  0
ARC
  8
0
  6
CONTINUOUS
 62
     1
 10
663.0
 20
728.931426371
 30
0.0
 40
2.0
 50
95.440332031
 51
180.0
  0
ARC
  8
0
  6
CONTINUOUS
 62
     1
 10
680.0
 20
748.931426371
 30
0.0
 40
2.0
 50
0.0
 51
84.559667969
  0
LINE
  8
0
  6
CONTINUOUS
 62
     1
 10
680.189618185
 20
750.922417316
 30
0.0
 11
662.810381815
 21
752.577582684
 31
0.0
  0
ARC
  8
0
  6
CONTINUOUS
 62
     1
 10
663.0
 20
754.568573629
 30
0.0
 40
2.0
 50
180.0
 51
264.559667969
  0
LINE
  8
0
  6
LTYPE2
 62
     2
 10
674.5
 20
784.75
 30
0.0
 11
687.7
 21
784.75
 31
0.0
  0
LINE
  8
0
  6
CONTINUOUS
 62
     1
 10
662.810381815
 20
689.922417316
 30
0.0
 11
680.189618185
 21
691.577582684
 31
0.0
  0
LINE
  8
0
  6
LTYPE2
 62
     2
 10
674.5
 20
698.75
 30
0.0
 11
687.7
 21
698.75
 31
0.0
  0
ARC
  8
0
  6
CONTINUOUS
 62
     1
 10
663.0
 20
687.931426371
 30
0.0
 40
2.0
 50
95.440332031
 51
180.0
  0
LINE
  8
0
  6
CONTINUOUS
 62
     1
 10
682.0
 20
789.931426371
 30
0.0
 11
682.0
 21
694.13812
 31
0.0
  0
ARC
  8
0
  6
CONTINUOUS
 62
     1
 10
680.0
 20
779.931426371
 30
0.0
 40
2.0
 50
0.0
 51
84.559667969
  0
ARC
  8
0
  6
CONTINUOUS
 62
     1
 10
680.0
 20
789.931426371
 30
0.0
 40
2.0
 50
0.0
 51
84.559667969
  0
LINE
  8
0
  6
CONTINUOUS
 62
     1
 10
685.5002
 20
788.23244
 30
0.0
 11
684.848117512
 21
789.36188
 31
0.0
  0
LINE
  8
0
  6
CONTINUOUS
 62
     1
 10
685.5002
 20
781.26756
 30
0.0
 11
684.848117512
 21
780.13812
 31
0.0
  0
ARC
  8
0
  6
CONTINUOUS
 62
     1
 10
681.096945074
 20
784.75
 30
0.0
 40
4.403254926
 50
328.419912243
 51
31.580087757
  0
ARC
  8
0
  6
CONTINUOUS
 62
     1
 10
684.155279868
 20
788.20891
 30
0.0
 40
1.34512595
 50
301.002313915
 51
2.989498403
  0
LINE
  8
0
  6
CONTINUOUS
 62
     1
 10
685.5002
 20
781.26756
 30
0.0
 11
684.848117512
 21
780.13812
 31
0.0
  0
ARC
  8
0
  6
CONTINUOUS
 62
     1
 10
684.155279868
 20
781.29109
 30
0.0
 40
1.34512595
 50
357.010501597
 51
58.997686085
  0
LINE
  8
0
  6
CONTINUOUS
 62
     1
 10
682.0
 20
789.36188
 30
0.0
 11
684.848117512
 21
789.36188
 31
0.0
  0
LINE
  8
0
  6
CONTINUOUS
 62
     1
 10
682.0
 20
787.05594
 30
0.0
 11
684.848117512
 21
787.05594
 31
0.0
  0
LINE
  8
0
  6
CONTINUOUS
 62
     1
 10
682.0
 20
782.44406
 30
0.0
 11
684.848117512
 21
782.44406
 31
0.0
  0
LINE
  8
0
  6
CONTINUOUS
 62
     1
 10
682.0
 20
780.13812
 30
0.0
 11
684.848117512
 21
780.13812
 31
0.0
  0
LINE
  8
0
  6
CONTINUOUS
 62
     1
 10
685.5002
 20
788.23244
 30
0.0
 11
685.5002
 21
781.26756
 31
0.0
  0
LINE
  8
0
  6
CONTINUOUS
 62
     1
 10
703.0
 20
746.102902
 30
0.0
 11
702.184924603
 21
747.514654
 31
0.0
  0
LINE
  8
0
  6
CONTINUOUS
 62
     1
 10
703.0
 20
737.397098
 30
0.0
 11
702.184924603
 21
735.985346
 31
0.0
  0
ARC
  8
0
  6
CONTINUOUS
 62
     1
 10
697.496118477
 20
741.75
 30
0.0
 40
5.503881523
 50
328.419912243
 51
31.580087757
  0
ARC
  8
0
  6
CONTINUOUS
 62
     1
 10
701.318906993
 20
746.0734905
 30
0.0
 40
1.681350271
 50
301.002313915
 51
2.989498403
  0
LINE
  8
0
  6
CONTINUOUS
 62
     1
 10
703.0
 20
737.397098
 30
0.0
 11
702.184924603
 21
735.985346
 31
0.0
  0
ARC
  8
0
  6
CONTINUOUS
 62
     1
 10
701.318906993
 20
737.4265095
 30
0.0
 40
1.681350271
 50
357.010501597
 51
58.997686085
  0
LINE
  8
0
  6
CONTINUOUS
 62
     1
 10
699.00039
 20
744.632327
 30
0.0
 11
702.184924603
 21
744.632327
 31
0.0
  0
LINE
  8
0
  6
CONTINUOUS
 62
     1
 10
699.00039
 20
747.514654
 30
0.0
 11
702.184924603
 21
747.514654
 31
0.0
  0
LINE
  8
0
  6
CONTINUOUS
 62
     1
 10
699.00039
 20
738.867673
 30
0.0
 11
702.184924603
 21
738.867673
 31
0.0
  0
LINE
  8
0
  6
CONTINUOUS
 62
     1
 10
699.00039
 20
735.985346
 30
0.0
 11
702.184924603
 21
735.985346
 31
0.0
  0
LINE
  8
0
  6
CONTINUOUS
 62
     1
 10
703.0
 20
737.397098
 30
0.0
 11
703.0
 21
746.102902
 31
0.0
  0
LINE
  8
0
  6
CONTINUOUS
 62
     1
 10
699.00039
 20
748.25
 30
0.0
 11
698.0
 21
748.25
 31
0.0
  0
LINE
  8
0
  6
CONTINUOUS
 62
     1
 10
699.00039
 20
748.25
 30
0.0
 11
699.00039
 21
735.25
 31
0.0
  0
LINE
  8
0
  6
CONTINUOUS
 62
     1
 10
699.00039
 20
735.25
 30
0.0
 11
698.0
 21
735.25
 31
0.0
  0
ARC
  8
0
  6
CONTINUOUS
 62
     1
 10
680.0
 20
703.568573629
 30
0.0
 40
2.0
 50
275.440332031
 51
0.0
  0
LINE
  8
0
  6
CONTINUOUS
 62
     1
 10
685.5002
 20
695.26756
 30
0.0
 11
684.848117512
 21
694.13812
 31
0.0
  0
LINE
  8
0
  6
CONTINUOUS
 62
     1
 10
685.5002
 20
702.23244
 30
0.0
 11
684.848117512
 21
703.36188
 31
0.0
  0
ARC
  8
0
  6
CONTINUOUS
 62
     1
 10
681.096945074
 20
698.75
 30
0.0
 40
4.403254926
 50
328.419912243
 51
31.580087757
  0
ARC
  8
0
  6
CONTINUOUS
 62
     1
 10
684.155279868
 20
695.29109
 30
0.0
 40
1.34512595
 50
357.010501597
 51
58.997686085
  0
LINE
  8
0
  6
CONTINUOUS
 62
     1
 10
685.5002
 20
702.23244
 30
0.0
 11
684.848117512
 21
703.36188
 31
0.0
  0
ARC
  8
0
  6
CONTINUOUS
 62
     1
 10
684.155279868
 20
702.20891
 30
0.0
 40
1.34512595
 50
301.002313915
 51
2.989498403
  0
LINE
  8
0
  6
CONTINUOUS
 62
     1
 10
682.0
 20
694.13812
 30
0.0
 11
684.848117512
 21
694.13812
 31
0.0
  0
LINE
  8
0
  6
CONTINUOUS
 62
     1
 10
682.0
 20
696.44406
 30
0.0
 11
684.848117512
 21
696.44406
 31
0.0
  0
LINE
  8
0
  6
CONTINUOUS
 62
     1
 10
682.0
 20
701.05594
 30
0.0
 11
684.848117512
 21
701.05594
 31
0.0
  0
LINE
  8
0
  6
CONTINUOUS
 62
     1
 10
682.0
 20
703.36188
 30
0.0
 11
684.848117512
 21
703.36188
 31
0.0
  0
LINE
  8
0
  6
CONTINUOUS
 62
     1
 10
685.5002
 20
695.26756
 30
0.0
 11
685.5002
 21
702.23244
 31
0.0
  0
ARC
  8
0
  6
CONTINUOUS
 62
     1
 10
680.0
 20
693.568573629
 30
0.0
 40
2.0
 50
275.440332031
 51
0.0
  0
LINE
  8
0
  6
LTYPE1
 62
     1
 10
690.1
 20
756.25
 30
0.0
 11
682.0
 21
747.05
 31
0.0
  0
ARC
  8
0
  6
LTYPE1
 62
     1
 10
693.5
 20
753.25
 30
0.0
 40
4.5
 50
290.9
 51
137.7
  0
LINE
  8
0
  6
LTYPE1
 62
     1
 10
688.0
 20
746.25
 30
0.0
 11
682.0
 21
747.05
 31
0.0
  0
LINE
  8
0
  6
LTYPE1
 62
     1
 10
695.1
 20
749.05
 30
0.0
 11
688.0
 21
746.25
 31
0.0
  0
LINE
  8
0
  6
LTYPE1
 62
     1
 10
688.0
 20
737.25
 30
0.0
 11
682.0
 21
736.45
 31
0.0
  0
ARC
  8
0
  6
LTYPE1
 62
     1
 10
693.5
 20
730.25
 30
0.0
 40
4.5
 50
222.3
 51
69.1
  0
LINE
  8
0
  6
LTYPE1
 62
     1
 10
690.1
 20
727.25
 30
0.0
 11
682.0
 21
736.45
 31
0.0
  0
LINE
  8
0
  6
LTYPE1
 62
     1
 10
695.1
 20
734.45
 30
0.0
 11
688.0
 21
737.25
 31
0.0
  0
LINE
  8
0
  6
LTYPE1
 62
     1
 10
688.0
 20
746.25
 30
0.0
 11
688.0
 21
737.25
 31
0.0
  0
LINE
  8
0
  6
CONTINUOUS
 62
     1
 10
425.0
 20
812.75
 30
0.0
 11
658.0
 21
812.75
 31
0.0
  0
ARC
  8
0
  6
CONTINUOUS
 62
     1
 10
658.0
 20
809.75
 30
0.0
 40
3.0
 50
0.0
 51
90.0
  0
LINE
  8
0
  6
CONTINUOUS
 62
     2
 10
408.0
 20
800.086309448
 30
0.0
 11
438.0
 21
800.086309448
 31
0.0
  0
LINE
  8
0
  6
CONTINUOUS
 62
     1
 10
430.0
 20
790.086309448
 30
0.0
 11
430.0
 21
810.086309448
 31
0.0
  0
LINE
  8
0
  6
CONTINUOUS
 62
     1
 10
423.0
 20
810.086309448
 30
0.0
 11
430.0
 21
810.086309448
 31
0.0
  0
LINE
  8
0
  6
CONTINUOUS
 62
     1
 10
423.0
 20
790.086309448
 30
0.0
 11
430.0
 21
790.086309448
 31
0.0
  0
LINE
  8
0
  6
CONTINUOUS
 62
     1
 10
423.0
 20
805.086309448
 30
0.0
 11
430.0
 21
805.086309448
 31
0.0
  0
LINE
  8
0
  6
CONTINUOUS
 62
     1
 10
423.0
 20
795.086309448
 30
0.0
 11
430.0
 21
795.086309448
 31
0.0
  0
LINE
  8
0
  6
CONTINUOUS
 62
     2
 10
408.0
 20
683.413690552
 30
0.0
 11
438.0
 21
683.413690552
 31
0.0
  0
LINE
  8
0
  6
CONTINUOUS
 62
     1
 10
423.0
 20
693.413690552
 30
0.0
 11
430.0
 21
693.413690552
 31
0.0
  0
LINE
  8
0
  6
CONTINUOUS
 62
     1
 10
423.0
 20
688.413690552
 30
0.0
 11
430.0
 21
688.413690552
 31
0.0
  0
LINE
  8
0
  6
LTYPE2
 62
     2
 10
181.1
 20
741.75
 30
0.0
 11
713.1
 21
741.75
 31
0.0
  0
LINE
  8
2
  6
CONTINUOUS
 62
     2
 10
659.0
 20
812.75
 30
0.0
 11
766.1
 21
812.75
 31
0.0
  0
LINE
  8
2
  6
CONTINUOUS
 62
     2
 10
760.1
 20
812.75
 30
0.0
 11
756.217714323
 21
798.261112606
 31
0.0
  0
LINE
  8
2
  6
CONTINUOUS
 62
     2
 10
760.1
 20
812.75
 30
0.0
 11
763.982285677
 21
798.261112606
 31
0.0
  0
TEXT
  8
2
  6
CONTINUOUS
 62
     2
 10
754.1
 20
700.65
 30
1.8
 40
18.0
  1
φ１４２
 50
90.0
 41
0.9
 51
0.0
  7
KANJI20
  0
LINE
  8
7
  6
CONTINUOUS
 62
     2
 10
704.5
 20
749.3
 30
0.0
 11
711.960280097
 21
762.31323253
 31
0.0
  0
LINE
  8
7
  6
CONTINUOUS
 62
     2
 10
704.5
 20
749.3
 30
0.0
 11
704.454175819
 21
764.299930005
 31
0.0
  0
LINE
  8
2
  6
CONTINUOUS
 62
     2
 10
561.55
 20
848.75
 30
0.0
 11
575.758987648
 21
853.556731741
 31
0.0
  0
LINE
  8
2
  6
CONTINUOUS
 62
     2
 10
561.55
 20
848.75
 30
0.0
 11
571.451978395
 21
860.017245621
 31
0.0
  0
LINE
  8
2
  6
CONTINUOUS
 62
     2
 10
561.55
 20
848.75
 30
0.0
 11
585.55
 21
864.75
 31
0.0
  0
LINE
  8
2
  6
CONTINUOUS
 62
     2
 10
585.55
 20
864.75
 30
0.0
 11
666.55
 21
864.75
 31
0.0
  0
TEXT
  8
2
  6
CONTINUOUS
 62
     3
 10
585.55
 20
867.75
 30
0.0
 40
18.0
  1
ＰＦ３／４
 50
0.0
 41
0.9
 51
0.0
  7
KANJI22
  0
LINE
  8
0
  6
CONTINUOUS
 62
     2
 10
411.0
 20
912.5
 30
0.0
 11
192.0
 21
912.5
 31
0.0
  0
LINE
  8
0
  6
CONTINUOUS
 62
     2
 10
192.0
 20
912.5
 30
0.0
 11
206.488887394
 21
908.617714323
 31
0.0
  0
LINE
  8
0
  6
CONTINUOUS
 62
     2
 10
192.0
 20
912.5
 30
0.0
 11
206.488887394
 21
916.382285677
 31
0.0
  0
TEXT
  8
0
  6
CONTINUOUS
 62
     2
 10
276.0
 20
918.5
 30
1.2
 40
18.0
  1
２１９
 50
0.0
 41
0.9
 51
0.0
  7
KANJI21
  0
LINE
  8
0
  6
CONTINUOUS
 62
     2
 10
411.0
 20
912.5
 30
0.0
 11
396.511112606
 21
908.617714323
 31
0.0
  0
LINE
  8
0
  6
CONTINUOUS
 62
     2
 10
411.0
 20
912.5
 30
0.0
 11
396.511112606
 21
916.382285677
 31
0.0
  0
LINE
  8
2
  6
CONTINUOUS
 62
     2
 10
411.0
 20
912.5
 30
0.0
 11
425.488887394
 21
916.382285677
 31
0.0
  0
LINE
  8
2
  6
CONTINUOUS
 62
     2
 10
411.0
 20
912.5
 30
0.0
 11
425.488887394
 21
908.617714323
 31
0.0
  0
TEXT
  8
2
  6
CONTINUOUS
 62
     2
 10
526.4
 20
918.5
 30
1.8
 40
18.0
  1
２９２
 50
0.0
 41
0.9
 51
0.0
  7
KANJI20
  0
LINE
  8
2
  6
CONTINUOUS
 62
     2
 10
703.0
 20
912.5
 30
0.0
 11
688.511112606
 21
916.382285677
 31
0.0
  0
LINE
  8
2
  6
CONTINUOUS
 62
     2
 10
703.0
 20
912.5
 30
0.0
 11
688.511112606
 21
908.617714323
 31
0.0
  0
LINE
  8
2
  6
CONTINUOUS
 62
     2
 10
411.0
 20
912.5
 30
0.0
 11
703.0
 21
912.5
 31
0.0
  0
LINE
  8
0
  6
CONTINUOUS
 62
     2
 10
192.0
 20
758.75
 30
0.0
 11
192.0
 21
919.0
 31
0.0
  0
LINE
  8
0
  6
CONTINUOUS
 62
     2
 10
411.0
 20
810.65
 30
0.0
 11
411.0
 21
919.0
 31
0.0
  0
LINE
  8
2
  6
CONTINUOUS
 62
     2
 10
703.0
 20
758.75
 30
0.0
 11
703.0
 21
917.0
 31
0.0
  0
LINE
  8
0
  6
LTYPE2
 62
     2
 10
351.0
 20
792.65
 30
0.0
 11
351.0
 21
875.0
 31
0.0
  0
LINE
  8
2
  6
CONTINUOUS
 62
     2
 10
205.0
 20
758.75
 30
0.0
 11
212.557767228
 21
771.706857432
 31
0.0
  0
LINE
  8
2
  6
CONTINUOUS
 62
     2
 10
205.0
 20
758.75
 30
0.0
 11
205.0667897
 21
773.749851304
 31
0.0
  0
TEXT
  8
7
  6
CONTINUOUS
 62
     2
 10
731.177480596
 20
859.656008505
 30
1.8
 40
18.0
  1
ブレーキ開放装置
 50
0.0
 41
0.9
 51
0.0
  7
KANJI20
  0
LINE
  8
7
  6
CONTINUOUS
 62
     2
 10
732.120695225
 20
853.656008505
 30
0.0
 11
873.377480596
 21
853.656008505
 31
0.0
  0
LINE
  8
7
  6
CONTINUOUS
 62
     2
 10
704.5
 20
749.3
 30
0.0
 11
732.120695225
 21
853.656008505
 31
0.0
  0
TEXT
  8
0
  6
CONTINUOUS
 62
     2
 10
480.5
 20
714.25
 30
1.8
 40
18.0
  1
日本電産
 50
0.0
 41
0.666666667
 51
0.0
  7
KANJI23
  0
TEXT
  8
0
  6
CONTINUOUS
 62
     2
 10
479.5
 20
693.25
 30
1.8
 40
18.0
  1
エコノストップモータ
 50
0.0
 41
0.666666667
 51
0.0
  7
KANJI23
  0
TEXT
  8
0
  6
CONTINUOUS
 62
     2
 10
1861.92
 20
251.7
 30
0.0
 40
21.0
  1
ＭＣＬＤ４－ＪＰＮ
 50
0.0
 41
0.793650794
 51
0.0
  7
KANJI24
  0
TEXT
  8
0
  6
CONTINUOUS
 62
     2
 10
1976.7200334
 20
155.699994
 30
13.0
 40
30.0
  1
３００２４９８
 50
0.0
 41
0.8
 51
0.0
  7
KANJI25
  0
TEXT
  8
0
  6
CONTINUOUS
 62
     2
 10
176.4
 20
26.4
 30
0.0
 40
18.0
  1
ＦＤ　Ｎｏ．ＭＣ１９８
 50
0.0
 41
0.9
 51
0.0
  7
KANJI26
  0
LINE
  8
2
  6
CONTINUOUS
 62
     2
 10
953.0
 20
931.2
 30
0.0
 11
915.0
 21
931.2
 31
0.0
  0
LINE
  8
2
  6
CONTINUOUS
 62
     2
 10
921.0
 20
931.2
 30
0.0
 11
917.117714323
 21
916.711112606
 31
0.0
  0
LINE
  8
2
  6
CONTINUOUS
 62
     2
 10
921.0
 20
931.2
 30
0.0
 11
924.882285677
 21
916.711112606
 31
0.0
  0
LINE
  8
2
  6
CONTINUOUS
 62
     2
 10
921.0
 20
931.2
 30
0.0
 11
921.0
 21
781.2
 31
0.0
  0
LINE
  8
2
  6
CONTINUOUS
 62
     2
 10
921.0
 20
781.2
 30
0.0
 11
924.882285677
 21
795.688887394
 31
0.0
  0
LINE
  8
2
  6
CONTINUOUS
 62
     2
 10
921.0
 20
781.2
 30
0.0
 11
917.117714323
 21
795.688887394
 31
0.0
  0
LINE
  8
2
  6
CONTINUOUS
 62
     2
 10
950.0
 20
781.2
 30
0.0
 11
915.0
 21
781.2
 31
0.0
  0
TEXT
  8
2
  6
CONTINUOUS
 62
     3
 10
918.0
 20
823.8
 30
0.0
 40
18.0
  1
φ１５０
 50
90.0
 41
0.9
 51
0.0
  7
KANJI22
  0
LINE
  8
0
  6
CONTINUOUS
 62
     1
 10
479.7
 20
438.5
 30
0.0
 11
469.1
 21
438.5
 31
0.0
  0
ARC
  8
0
  6
CONTINUOUS
 62
     1
 10
474.8
 20
439.5
 30
0.0
 40
5.0
 50
272.3
 51
348.5
  0
ARC
  8
0
  6
CONTINUOUS
 62
     1
 10
474.0
 20
439.5
 30
0.0
 40
5.0
 50
191.5
 51
267.7
  0
LINE
  8
0
  6
CONTINUOUS
 62
     1
 10
475.0
 20
434.5
 30
0.0
 11
473.8
 21
434.5
 31
0.0
  0
LINE
  8
0
  6
LTYPE6
 62
     2
 10
474.4
 20
431.1
 30
0.0
 11
474.4
 21
444.5
 31
0.0
  0
LINE
  8
0
  6
CONTINUOUS
 62
     1
 10
589.3
 20
438.5
 30
0.0
 11
578.7
 21
438.5
 31
0.0
  0
ARC
  8
0
  6
CONTINUOUS
 62
     1
 10
584.4
 20
439.5
 30
0.0
 40
5.0
 50
272.3
 51
348.5
  0
ARC
  8
0
  6
CONTINUOUS
 62
     1
 10
583.6
 20
439.5
 30
0.0
 40
5.0
 50
191.5
 51
267.7
  0
LINE
  8
0
  6
CONTINUOUS
 62
     1
 10
584.6
 20
434.5
 30
0.0
 11
583.4
 21
434.5
 31
0.0
  0
LINE
  8
0
  6
LTYPE6
 62
     2
 10
584.0
 20
431.1
 30
0.0
 11
584.0
 21
444.5
 31
0.0
  0
LINE
  8
0
  6
CONTINUOUS
 62
     1
 10
1395.4
 20
438.5
 30
0.0
 11
1384.8
 21
438.5
 31
0.0
  0
ARC
  8
0
  6
CONTINUOUS
 62
     1
 10
1390.5
 20
439.5
 30
0.0
 40
5.0
 50
272.3
 51
348.5
  0
ARC
  8
0
  6
CONTINUOUS
 62
     1
 10
1389.7
 20
439.5
 30
0.0
 40
5.0
 50
191.5
 51
267.7
  0
LINE
  8
0
  6
CONTINUOUS
 62
     1
 10
1390.7
 20
434.5
 30
0.0
 11
1389.5
 21
434.5
 31
0.0
  0
LINE
  8
0
  6
LTYPE6
 62
     2
 10
1390.1
 20
431.1
 30
0.0
 11
1390.1
 21
444.5
 31
0.0
  0
LINE
  8
0
  6
CONTINUOUS
 62
     1
 10
1485.4
 20
438.5
 30
0.0
 11
1474.8
 21
438.5
 31
0.0
  0
ARC
  8
0
  6
CONTINUOUS
 62
     1
 10
1480.5
 20
439.5
 30
0.0
 40
5.0
 50
272.3
 51
348.5
  0
ARC
  8
0
  6
CONTINUOUS
 62
     1
 10
1479.7
 20
439.5
 30
0.0
 40
5.0
 50
191.5
 51
267.7
  0
LINE
  8
0
  6
CONTINUOUS
 62
     1
 10
1480.7
 20
434.5
 30
0.0
 11
1479.5
 21
434.5
 31
0.0
  0
LINE
  8
0
  6
LTYPE6
 62
     2
 10
1480.1
 20
431.1
 30
0.0
 11
1480.1
 21
444.5
 31
0.0
  0
LINE
  8
0
  6
CONTINUOUS
 62
     1
 10
1486.1
 20
464.5
 30
0.0
 11
1524.1
 21
464.5
 31
0.0
  0
LINE
  8
0
  6
CONTINUOUS
 62
     1
 10
1537.1
 20
462.75
 30
0.0
 11
1486.1
 21
462.75
 31
0.0
  0
LINE
  8
0
  6
CONTINUOUS
 62
     1
 10
1384.1
 20
467.75
 30
0.0
 11
1280.1
 21
467.75
 31
0.0
  0
ARC
  8
0
  6
CONTINUOUS
 62
     1
 10
1346.1
 20
470.5
 30
0.0
 40
6.0
 50
180.0
 51
211.138972437
  0
ARC
  8
0
  6
CONTINUOUS
 62
     1
 10
1333.1
 20
470.75
 30
0.0
 40
8.0
 50
180.0
 51
208.225333546
  0
LINE
  8
0
  6
CONTINUOUS
 62
     2
 10
1340.1
 20
465.9
 30
0.0
 11
1340.1
 21
363.0
 31
0.0
  0
LINE
  8
0
  6
CONTINUOUS
 62
     1
 10
1014.12
 20
1511.24
 30
0.0
 11
1791.72
 21
1511.24
 31
0.0
  0
LINE
  8
0
  6
CONTINUOUS
 62
     1
 10
1014.12
 20
1477.64
 30
0.0
 11
1791.72
 21
1477.64
 31
0.0
  0
TEXT
  8
0
  6
CONTINUOUS
 62
     2
 10
1062.12
 20
1487.24
 30
1.536
 40
15.36
  1
形
 50
0.0
 41
0.9
 51
0.0
  7
KANJI27
  0
TEXT
  8
0
  6
CONTINUOUS
 62
     2
 10
1155.72
 20
1487.24
 30
1.536
 40
15.36
  1
式
 50
0.0
 41
0.9
 51
0.0
  7
KANJI27
  0
TEXT
  8
0
  6
CONTINUOUS
 62
     2
 10
1228.2
 20
1486.28
 30
1.44
 40
14.4
  1
ストローク
 50
0.0
 41
0.9
 51
0.0
  7
KANJI28
  0
TEXT
  8
0
  6
CONTINUOUS
 62
     2
 10
1320.36
 20
1485.32
 30
0.0
 40
14.4
  1
ｍｉｎ　
 50
0.0
 41
0.9
 51
0.0
  7
KANJI29
  0
TEXT
  8
0
  6
CONTINUOUS
 62
     2
 10
1416.36
 20
1485.32
 30
0.0
 40
14.4
  1
ｍｉｎ　
 50
0.0
 41
0.9
 51
0.0
  7
KANJI29
  0
TEXT
  8
0
  6
CONTINUOUS
 62
     2
 10
1608.36
 20
1485.32
 30
0.0
 40
14.4
  1
ｍｉｎ　
 50
0.0
 41
0.9
 51
0.0
  7
KANJI29
  0
TEXT
  8
0
  6
CONTINUOUS
 62
     2
 10
1369.32
 20
1486.28
 30
1.68
 40
16.8
  1
ＡＬ
 50
0.0
 41
0.9
 51
0.0
  7
KANJI30
  0
TEXT
  8
0
  6
CONTINUOUS
 62
     2
 10
1465.32
 20
1486.28
 30
1.68
 40
16.8
  1
Ｌ
 50
0.0
 41
0.9
 51
0.0
  7
KANJI30
  0
TEXT
  8
0
  6
CONTINUOUS
 62
     2
 10
1546.92
 20
1486.28
 30
1.68
 40
16.8
  1
Ｃ
 50
0.0
 41
0.9
 51
0.0
  7
KANJI30
  0
TEXT
  8
0
  6
CONTINUOUS
 62
     2
 10
1657.32
 20
1486.28
 30
1.68
 40
16.8
  1
Ｐ
 50
0.0
 41
0.9
 51
0.0
  7
KANJI30
  0
TEXT
  8
0
  6
CONTINUOUS
 62
     2
 10
1756.08
 20
1485.92
 30
0.0
 40
12.96
  1
（ｋｇ）
 50
0.0
 41
0.740740741
 51
0.0
  7
KANJI31
  0
TEXT
  8
0
  6
CONTINUOUS
 62
     2
 10
1698.48
 20
1485.68
 30
1.44
 40
16.8
  1
概算重量
 50
0.0
 41
0.857142857
 51
0.0
  7
KANJI32
  0
TEXT
  8
0
  6
CONTINUOUS
 62
     2
 10
1237.32
 20
1454.08
 30
1.44
 40
14.4
  1
　２００
 50
0.0
 41
0.9
 51
0.0
  7
KANJI28
  0
TEXT
  8
0
  6
CONTINUOUS
 62
     2
 10
1621.32
 20
1454.08
 30
1.44
 40
14.4
  1
　　４５
 50
0.0
 41
0.9
 51
0.0
  7
KANJI28
  0
LINE
  8
0
  6
CONTINUOUS
 62
     2
 10
1014.12
 20
1446.04
 30
0.0
 11
1791.72
 21
1446.04
 31
0.0
  0
TEXT
  8
0
  6
CONTINUOUS
 62
     2
 10
1525.32
 20
1454.08
 30
1.44
 40
14.4
  1
　５１０
 50
0.0
 41
0.9
 51
0.0
  7
KANJI28
  0
TEXT
  8
0
  6
CONTINUOUS
 62
     2
 10
1429.32
 20
1454.08
 30
1.44
 40
14.4
  1
　６２５
 50
0.0
 41
0.9
 51
0.0
  7
KANJI28
  0
TEXT
  8
0
  6
CONTINUOUS
 62
     2
 10
1237.32
 20
1422.48
 30
1.44
 40
14.4
  1
　３００
 50
0.0
 41
0.9
 51
0.0
  7
KANJI28
  0
TEXT
  8
0
  6
CONTINUOUS
 62
     2
 10
1621.32
 20
1422.48
 30
1.44
 40
14.4
  1
　　４５
 50
0.0
 41
0.9
 51
0.0
  7
KANJI28
  0
LINE
  8
0
  6
CONTINUOUS
 62
     2
 10
1014.12
 20
1414.44
 30
0.0
 11
1791.72
 21
1414.44
 31
0.0
  0
TEXT
  8
0
  6
CONTINUOUS
 62
     2
 10
1525.32
 20
1422.48
 30
1.44
 40
14.4
  1
　６１０
 50
0.0
 41
0.9
 51
0.0
  7
KANJI28
  0
TEXT
  8
0
  6
CONTINUOUS
 62
     2
 10
1429.32
 20
1422.48
 30
1.44
 40
14.4
  1
　７２５
 50
0.0
 41
0.9
 51
0.0
  7
KANJI28
  0
TEXT
  8
0
  6
CONTINUOUS
 62
     2
 10
1237.32
 20
1390.88
 30
1.44
 40
14.4
  1
　４００
 50
0.0
 41
0.9
 51
0.0
  7
KANJI28
  0
LINE
  8
0
  6
CONTINUOUS
 62
     2
 10
1014.12
 20
1382.84
 30
0.0
 11
1791.72
 21
1382.84
 31
0.0
  0
TEXT
  8
0
  6
CONTINUOUS
 62
     2
 10
1525.32
 20
1390.88
 30
1.44
 40
14.4
  1
　７１０
 50
0.0
 41
0.9
 51
0.0
  7
KANJI28
  0
TEXT
  8
0
  6
CONTINUOUS
 62
     2
 10
1237.32
 20
1359.28
 30
1.44
 40
14.4
  1
　５００
 50
0.0
 41
0.9
 51
0.0
  7
KANJI28
  0
LINE
  8
0
  6
CONTINUOUS
 62
     2
 10
1014.12
 20
1351.24
 30
0.0
 11
1791.72
 21
1351.24
 31
0.0
  0
TEXT
  8
0
  6
CONTINUOUS
 62
     2
 10
1525.32
 20
1359.28
 30
1.44
 40
14.4
  1
　８１０
 50
0.0
 41
0.9
 51
0.0
  7
KANJI28
  0
LINE
  8
0
  6
CONTINUOUS
 62
     2
 10
1014.12
 20
1319.64
 30
0.0
 11
1791.72
 21
1319.64
 31
0.0
  0
TEXT
  8
0
  6
CONTINUOUS
 62
     2
 10
1237.32
 20
1327.68
 30
1.44
 40
14.4
  1
　６００
 50
0.0
 41
0.9
 51
0.0
  7
KANJI28
  0
TEXT
  8
0
  6
CONTINUOUS
 62
     2
 10
1525.32
 20
1327.68
 30
1.44
 40
14.4
  1
　９５０
 50
0.0
 41
0.9
 51
0.0
  7
KANJI28
  0
LINE
  8
0
  6
CONTINUOUS
 62
     2
 10
1014.12
 20
1288.04
 30
0.0
 11
1791.72
 21
1288.04
 31
0.0
  0
TEXT
  8
0
  6
CONTINUOUS
 62
     2
 10
1237.32
 20
1296.08
 30
1.44
 40
14.4
  1
　７００
 50
0.0
 41
0.9
 51
0.0
  7
KANJI28
  0
TEXT
  8
0
  6
CONTINUOUS
 62
     2
 10
1525.32
 20
1296.08
 30
1.44
 40
14.4
  1
１０５０
 50
0.0
 41
0.9
 51
0.0
  7
KANJI28
  0
LINE
  8
0
  6
CONTINUOUS
 62
     2
 10
1014.12
 20
1256.44
 30
0.0
 11
1791.72
 21
1256.44
 31
0.0
  0
TEXT
  8
0
  6
CONTINUOUS
 62
     2
 10
1237.32
 20
1264.48
 30
1.44
 40
14.4
  1
　８００
 50
0.0
 41
0.9
 51
0.0
  7
KANJI28
  0
TEXT
  8
0
  6
CONTINUOUS
 62
     2
 10
1525.32
 20
1264.48
 30
1.44
 40
14.4
  1
１１５０
 50
0.0
 41
0.9
 51
0.0
  7
KANJI28
  0
LINE
  8
0
  6
CONTINUOUS
 62
     2
 10
1014.12
 20
1224.84
 30
0.0
 11
1791.72
 21
1224.84
 31
0.0
  0
TEXT
  8
0
  6
CONTINUOUS
 62
     2
 10
1237.32
 20
1232.88
 30
1.44
 40
14.4
  1
　９００
 50
0.0
 41
0.9
 51
0.0
  7
KANJI28
  0
TEXT
  8
0
  6
CONTINUOUS
 62
     2
 10
1525.32
 20
1232.88
 30
1.44
 40
14.4
  1
１２５０
 50
0.0
 41
0.9
 51
0.0
  7
KANJI28
  0
TEXT
  8
0
  6
CONTINUOUS
 62
     2
 10
1237.32
 20
1201.28
 30
1.44
 40
14.4
  1
１０００
 50
0.0
 41
0.9
 51
0.0
  7
KANJI28
  0
TEXT
  8
0
  6
CONTINUOUS
 62
     2
 10
1525.32
 20
1201.28
 30
1.44
 40
14.4
  1
１３５０
 50
0.0
 41
0.9
 51
0.0
  7
KANJI28
  0
LINE
  8
0
  6
CONTINUOUS
 62
     2
 10
1014.12
 20
1193.24
 30
0.0
 11
1791.72
 21
1193.24
 31
0.0
  0
LINE
  8
0
  6
CONTINUOUS
 62
     2
 10
1014.12
 20
1161.64
 30
0.0
 11
1791.72
 21
1161.64
 31
0.0
  0
LINE
  8
0
  6
CONTINUOUS
 62
     2
 10
1014.12
 20
1130.04
 30
0.0
 11
1791.72
 21
1130.04
 31
0.0
  0
LINE
  8
0
  6
CONTINUOUS
 62
     2
 10
1014.12
 20
1098.44
 30
0.0
 11
1791.72
 21
1098.44
 31
0.0
  0
LINE
  8
0
  6
CONTINUOUS
 62
     2
 10
1014.12
 20
1066.84
 30
0.0
 11
1791.72
 21
1066.84
 31
0.0
  0
LINE
  8
0
  6
CONTINUOUS
 62
     2
 10
1014.12
 20
1035.24
 30
0.0
 11
1791.72
 21
1035.24
 31
0.0
  0
LINE
  8
0
  6
CONTINUOUS
 62
     1
 10
1014.12
 20
1003.64
 30
0.0
 11
1791.72
 21
1003.64
 31
0.0
  0
LINE
  8
0
  6
CONTINUOUS
 62
     1
 10
1791.72
 20
1511.24
 30
0.0
 11
1791.72
 21
1003.64
 31
0.0
  0
LINE
  8
0
  6
CONTINUOUS
 62
     1
 10
1014.12
 20
1511.24
 30
0.0
 11
1014.12
 21
1003.64
 31
0.0
  0
LINE
  8
0
  6
CONTINUOUS
 62
     1
 10
1215.72
 20
1511.24
 30
0.0
 11
1215.72
 21
1003.64
 31
0.0
  0
LINE
  8
0
  6
CONTINUOUS
 62
     2
 10
1311.72
 20
1511.24
 30
0.0
 11
1311.72
 21
1003.64
 31
0.0
  0
LINE
  8
0
  6
CONTINUOUS
 62
     2
 10
1407.72
 20
1511.24
 30
0.0
 11
1407.72
 21
1003.64
 31
0.0
  0
LINE
  8
0
  6
CONTINUOUS
 62
     2
 10
1503.72
 20
1511.24
 30
0.0
 11
1503.72
 21
1003.64
 31
0.0
  0
LINE
  8
0
  6
CONTINUOUS
 62
     2
 10
1599.72
 20
1511.24
 30
0.0
 11
1599.72
 21
1003.64
 31
0.0
  0
LINE
  8
0
  6
CONTINUOUS
 62
     2
 10
1695.72
 20
1511.24
 30
0.0
 11
1695.72
 21
1003.64
 31
0.0
  0
TEXT
  8
0
  6
CONTINUOUS
 62
     2
 10
1237.32
 20
1169.68
 30
1.44
 40
14.4
  1
１１００
 50
0.0
 41
0.9
 51
0.0
  7
KANJI28
  0
TEXT
  8
0
  6
CONTINUOUS
 62
     2
 10
1237.32
 20
1138.08
 30
1.44
 40
14.4
  1
１２００
 50
0.0
 41
0.9
 51
0.0
  7
KANJI28
  0
TEXT
  8
0
  6
CONTINUOUS
 62
     2
 10
1237.32
 20
1106.48
 30
1.44
 40
14.4
  1
１３００
 50
0.0
 41
0.9
 51
0.0
  7
KANJI28
  0
TEXT
  8
0
  6
CONTINUOUS
 62
     2
 10
1237.32
 20
1074.88
 30
1.44
 40
14.4
  1
１４００
 50
0.0
 41
0.9
 51
0.0
  7
KANJI28
  0
TEXT
  8
0
  6
CONTINUOUS
 62
     2
 10
1237.32
 20
1043.28
 30
1.44
 40
14.4
  1
１５００
 50
0.0
 41
0.9
 51
0.0
  7
KANJI28
  0
TEXT
  8
0
  6
CONTINUOUS
 62
     2
 10
1525.32
 20
1169.68
 30
1.44
 40
14.4
  1
１４８０
 50
0.0
 41
0.9
 51
0.0
  7
KANJI28
  0
TEXT
  8
0
  6
CONTINUOUS
 62
     2
 10
1525.32
 20
1138.08
 30
1.44
 40
14.4
  1
１５８０
 50
0.0
 41
0.9
 51
0.0
  7
KANJI28
  0
TEXT
  8
0
  6
CONTINUOUS
 62
     2
 10
1525.32
 20
1106.48
 30
1.44
 40
14.4
  1
１６８０
 50
0.0
 41
0.9
 51
0.0
  7
KANJI28
  0
TEXT
  8
0
  6
CONTINUOUS
 62
     2
 10
1525.32
 20
1074.88
 30
1.44
 40
14.4
  1
１７８０
 50
0.0
 41
0.9
 51
0.0
  7
KANJI28
  0
TEXT
  8
0
  6
CONTINUOUS
 62
     2
 10
1525.32
 20
1043.28
 30
1.44
 40
14.4
  1
１８８０
 50
0.0
 41
0.9
 51
0.0
  7
KANJI28
  0
TEXT
  8
0
  6
CONTINUOUS
 62
     2
 10
1621.32
 20
1390.88
 30
1.44
 40
14.4
  1
　　８５
 50
0.0
 41
0.9
 51
0.0
  7
KANJI28
  0
TEXT
  8
0
  6
CONTINUOUS
 62
     2
 10
1621.32
 20
1359.28
 30
1.44
 40
14.4
  1
　１１２
 50
0.0
 41
0.9
 51
0.0
  7
KANJI28
  0
TEXT
  8
0
  6
CONTINUOUS
 62
     2
 10
1621.32
 20
1327.68
 30
1.44
 40
14.4
  1
　１２８
 50
0.0
 41
0.9
 51
0.0
  7
KANJI28
  0
TEXT
  8
0
  6
CONTINUOUS
 62
     2
 10
1621.32
 20
1296.08
 30
1.44
 40
14.4
  1
　１４８
 50
0.0
 41
0.9
 51
0.0
  7
KANJI28
  0
TEXT
  8
0
  6
CONTINUOUS
 62
     2
 10
1621.32
 20
1264.48
 30
1.44
 40
14.4
  1
　１６８
 50
0.0
 41
0.9
 51
0.0
  7
KANJI28
  0
TEXT
  8
0
  6
CONTINUOUS
 62
     2
 10
1621.32
 20
1232.88
 30
1.44
 40
14.4
  1
　１９８
 50
0.0
 41
0.9
 51
0.0
  7
KANJI28
  0
TEXT
  8
0
  6
CONTINUOUS
 62
     2
 10
1621.32
 20
1201.28
 30
1.44
 40
14.4
  1
　２３１
 50
0.0
 41
0.9
 51
0.0
  7
KANJI28
  0
TEXT
  8
0
  6
CONTINUOUS
 62
     2
 10
1621.32
 20
1169.68
 30
1.44
 40
14.4
  1
　２４５
 50
0.0
 41
0.9
 51
0.0
  7
KANJI28
  0
TEXT
  8
0
  6
CONTINUOUS
 62
     2
 10
1621.32
 20
1138.08
 30
1.44
 40
14.4
  1
　２６８
 50
0.0
 41
0.9
 51
0.0
  7
KANJI28
  0
TEXT
  8
0
  6
CONTINUOUS
 62
     2
 10
1621.32
 20
1106.48
 30
1.44
 40
14.4
  1
　２８８
 50
0.0
 41
0.9
 51
0.0
  7
KANJI28
  0
TEXT
  8
0
  6
CONTINUOUS
 62
     2
 10
1621.32
 20
1074.88
 30
1.44
 40
14.4
  1
　３１０
 50
0.0
 41
0.9
 51
0.0
  7
KANJI28
  0
TEXT
  8
0
  6
CONTINUOUS
 62
     2
 10
1621.32
 20
1043.28
 30
1.44
 40
14.4
  1
　３５０
 50
0.0
 41
0.9
 51
0.0
  7
KANJI28
  0
TEXT
  8
0
  6
CONTINUOUS
 62
     2
 10
1429.32
 20
1390.88
 30
1.44
 40
14.4
  1
　８６５
 50
0.0
 41
0.9
 51
0.0
  7
KANJI28
  0
TEXT
  8
0
  6
CONTINUOUS
 62
     2
 10
1429.32
 20
1359.28
 30
1.44
 40
14.4
  1
　９９２
 50
0.0
 41
0.9
 51
0.0
  7
KANJI28
  0
TEXT
  8
0
  6
CONTINUOUS
 62
     2
 10
1429.32
 20
1327.68
 30
1.44
 40
14.4
  1
１１４８
 50
0.0
 41
0.9
 51
0.0
  7
KANJI28
  0
TEXT
  8
0
  6
CONTINUOUS
 62
     2
 10
1429.32
 20
1296.08
 30
1.44
 40
14.4
  1
１２６８
 50
0.0
 41
0.9
 51
0.0
  7
KANJI28
  0
TEXT
  8
0
  6
CONTINUOUS
 62
     2
 10
1429.32
 20
1264.48
 30
1.44
 40
14.4
  1
１３８８
 50
0.0
 41
0.9
 51
0.0
  7
KANJI28
  0
TEXT
  8
0
  6
CONTINUOUS
 62
     2
 10
1429.32
 20
1232.88
 30
1.44
 40
14.4
  1
１５１８
 50
0.0
 41
0.9
 51
0.0
  7
KANJI28
  0
TEXT
  8
0
  6
CONTINUOUS
 62
     2
 10
1429.32
 20
1201.28
 30
1.44
 40
14.4
  1
１６５１
 50
0.0
 41
0.9
 51
0.0
  7
KANJI28
  0
TEXT
  8
0
  6
CONTINUOUS
 62
     2
 10
1429.32
 20
1169.68
 30
1.44
 40
14.4
  1
１７９５
 50
0.0
 41
0.9
 51
0.0
  7
KANJI28
  0
TEXT
  8
0
  6
CONTINUOUS
 62
     2
 10
1429.32
 20
1138.08
 30
1.44
 40
14.4
  1
１９１９
 50
0.0
 41
0.9
 51
0.0
  7
KANJI28
  0
TEXT
  8
0
  6
CONTINUOUS
 62
     2
 10
1429.32
 20
1106.48
 30
1.44
 40
14.4
  1
２０３８
 50
0.0
 41
0.9
 51
0.0
  7
KANJI28
  0
TEXT
  8
0
  6
CONTINUOUS
 62
     2
 10
1429.32
 20
1074.88
 30
1.44
 40
14.4
  1
２１６０
 50
0.0
 41
0.9
 51
0.0
  7
KANJI28
  0
TEXT
  8
0
  6
CONTINUOUS
 62
     2
 10
1429.32
 20
1043.28
 30
1.44
 40
14.4
  1
２３００
 50
0.0
 41
0.9
 51
0.0
  7
KANJI28
  0
LINE
  8
0
  6
CONTINUOUS
 62
     2
 10
1102.5
 20
939.1
 30
0.0
 11
1090.425927171
 21
942.335238064
 31
0.0
  0
LINE
  8
0
  6
CONTINUOUS
 62
     2
 10
1102.5
 20
939.1
 30
0.0
 11
1090.425927171
 21
935.864761936
 31
0.0
  0
LINE
  8
0
  6
CONTINUOUS
 62
     2
 10
1102.5
 20
939.1
 30
0.0
 11
1061.5
 21
939.1
 31
0.0
  0
TEXT
  8
0
  6
CONTINUOUS
 62
     3
 10
1068.5
 20
949.1
 30
0.0
 40
20.0
  1
前進
 50
0.0
 41
0.925
 51
0.0
  7
KANJI33
  0
TEXT
  8
0
  6
CONTINUOUS
 62
     2
 10
1029.72
 20
1453.72
 30
0.96
 40
14.4
  1
ＭＣＬＤ４－　　２ＪＰＮ
 50
0.0
 41
0.833333333
 51
0.0
  7
KANJI34
  0
TEXT
  8
0
  6
CONTINUOUS
 62
     2
 10
1029.72
 20
1422.12
 30
0.96
 40
14.4
  1
ＭＣＬＤ４－　　３ＪＰＮ
 50
0.0
 41
0.833333333
 51
0.0
  7
KANJI34
  0
TEXT
  8
0
  6
CONTINUOUS
 62
     2
 10
1029.72
 20
1390.52
 30
0.96
 40
14.4
  1
ＭＣＬＤ４－　　４ＪＰＮ
 50
0.0
 41
0.833333333
 51
0.0
  7
KANJI34
  0
TEXT
  8
0
  6
CONTINUOUS
 62
     2
 10
1029.72
 20
1358.92
 30
0.96
 40
14.4
  1
ＭＣＬＤ４－　　５ＪＰＮ
 50
0.0
 41
0.833333333
 51
0.0
  7
KANJI34
  0
TEXT
  8
0
  6
CONTINUOUS
 62
     2
 10
1029.72
 20
1327.32
 30
0.96
 40
14.4
  1
ＭＣＬＤ４－　　６ＪＰＮ
 50
0.0
 41
0.833333333
 51
0.0
  7
KANJI34
  0
TEXT
  8
0
  6
CONTINUOUS
 62
     2
 10
1029.72
 20
1295.72
 30
0.96
 40
14.4
  1
ＭＣＬＤ４－　　７ＪＰＮ
 50
0.0
 41
0.833333333
 51
0.0
  7
KANJI34
  0
TEXT
  8
0
  6
CONTINUOUS
 62
     2
 10
1029.72
 20
1264.12
 30
0.96
 40
14.4
  1
ＭＣＬＤ４－　　８ＪＰＮ
 50
0.0
 41
0.833333333
 51
0.0
  7
KANJI34
  0
TEXT
  8
0
  6
CONTINUOUS
 62
     2
 10
1029.72
 20
1232.52
 30
0.96
 40
14.4
  1
ＭＣＬＤ４－　　９ＪＰＮ
 50
0.0
 41
0.833333333
 51
0.0
  7
KANJI34
  0
TEXT
  8
0
  6
CONTINUOUS
 62
     2
 10
1029.72
 20
1200.92
 30
0.96
 40
14.4
  1
ＭＣＬＤ４－　１０ＪＰＮ
 50
0.0
 41
0.833333333
 51
0.0
  7
KANJI34
  0
TEXT
  8
0
  6
CONTINUOUS
 62
     2
 10
1029.72
 20
1169.32
 30
0.96
 40
14.4
  1
ＭＣＬＤ４－　１１ＪＰＮ
 50
0.0
 41
0.833333333
 51
0.0
  7
KANJI34
  0
TEXT
  8
0
  6
CONTINUOUS
 62
     2
 10
1029.72
 20
1137.72
 30
0.96
 40
14.4
  1
ＭＣＬＤ４－　１２ＪＰＮ
 50
0.0
 41
0.833333333
 51
0.0
  7
KANJI34
  0
TEXT
  8
0
  6
CONTINUOUS
 62
     2
 10
1029.72
 20
1106.12
 30
0.96
 40
14.4
  1
ＭＣＬＤ４－　１３ＪＰＮ
 50
0.0
 41
0.833333333
 51
0.0
  7
KANJI34
  0
TEXT
  8
0
  6
CONTINUOUS
 62
     2
 10
1029.72
 20
1074.52
 30
0.96
 40
14.4
  1
ＭＣＬＤ４－　１４ＪＰＮ
 50
0.0
 41
0.833333333
 51
0.0
  7
KANJI34
  0
TEXT
  8
0
  6
CONTINUOUS
 62
     2
 10
1029.72
 20
1042.92
 30
0.96
 40
14.4
  1
ＭＣＬＤ４－　１５ＪＰＮ
 50
0.0
 41
0.833333333
 51
0.0
  7
KANJI34
  0
TEXT
  8
0
  6
CONTINUOUS
 62
     2
 10
1029.72
 20
1011.32
 30
0.96
 40
14.4
  1
ＭＣＬＤ４－　　　ＪＰＮ
 50
0.0
 41
0.833333333
 51
0.0
  7
KANJI34
  0
TEXT
  8
0
  6
CONTINUOUS
 62
     2
 10
1717.32
 20
1454.08
 30
1.44
 40
14.4
  1
　９５
 50
0.0
 41
0.9
 51
0.0
  7
KANJI28
  0
TEXT
  8
0
  6
CONTINUOUS
 62
     2
 10
1717.32
 20
1422.48
 30
1.44
 40
14.4
  1
　９７
 50
0.0
 41
0.9
 51
0.0
  7
KANJI28
  0
TEXT
  8
0
  6
CONTINUOUS
 62
     2
 10
1717.32
 20
1390.88
 30
1.44
 40
14.4
  1
１０１
 50
0.0
 41
0.9
 51
0.0
  7
KANJI28
  0
TEXT
  8
0
  6
CONTINUOUS
 62
     2
 10
1717.32
 20
1359.28
 30
1.44
 40
14.4
  1
１０６
 50
0.0
 41
0.9
 51
0.0
  7
KANJI28
  0
TEXT
  8
0
  6
CONTINUOUS
 62
     2
 10
1717.32
 20
1327.68
 30
1.44
 40
14.4
  1
１１２
 50
0.0
 41
0.9
 51
0.0
  7
KANJI28
  0
TEXT
  8
0
  6
CONTINUOUS
 62
     2
 10
1717.32
 20
1296.08
 30
1.44
 40
14.4
  1
１１６
 50
0.0
 41
0.9
 51
0.0
  7
KANJI28
  0
TEXT
  8
0
  6
CONTINUOUS
 62
     2
 10
1717.32
 20
1264.48
 30
1.44
 40
14.4
  1
１１９
 50
0.0
 41
0.9
 51
0.0
  7
KANJI28
  0
TEXT
  8
0
  6
CONTINUOUS
 62
     2
 10
1717.32
 20
1232.88
 30
1.44
 40
14.4
  1
１２３
 50
0.0
 41
0.9
 51
0.0
  7
KANJI28
  0
TEXT
  8
0
  6
CONTINUOUS
 62
     2
 10
1717.32
 20
1201.28
 30
1.44
 40
14.4
  1
１２８
 50
0.0
 41
0.9
 51
0.0
  7
KANJI28
  0
TEXT
  8
0
  6
CONTINUOUS
 62
     2
 10
1717.32
 20
1169.68
 30
1.44
 40
14.4
  1
１３２
 50
0.0
 41
0.9
 51
0.0
  7
KANJI28
  0
TEXT
  8
0
  6
CONTINUOUS
 62
     2
 10
1717.32
 20
1138.08
 30
1.44
 40
14.4
  1
１３６
 50
0.0
 41
0.9
 51
0.0
  7
KANJI28
  0
TEXT
  8
0
  6
CONTINUOUS
 62
     2
 10
1717.32
 20
1106.48
 30
1.44
 40
14.4
  1
１４０
 50
0.0
 41
0.9
 51
0.0
  7
KANJI28
  0
TEXT
  8
0
  6
CONTINUOUS
 62
     2
 10
1717.32
 20
1074.88
 30
1.44
 40
14.4
  1
１４４
 50
0.0
 41
0.9
 51
0.0
  7
KANJI28
  0
TEXT
  8
0
  6
CONTINUOUS
 62
     2
 10
1717.32
 20
1043.28
 30
1.44
 40
14.4
  1
１４９
 50
0.0
 41
0.9
 51
0.0
  7
KANJI28
  0
TEXT
  8
0
  6
CONTINUOUS
 62
     2
 10
1333.32
 20
1454.08
 30
1.44
 40
14.4
  1
１０２０
 50
0.0
 41
0.9
 51
0.0
  7
KANJI28
  0
TEXT
  8
0
  6
CONTINUOUS
 62
     2
 10
1333.32
 20
1422.48
 30
1.44
 40
14.4
  1
１１２０
 50
0.0
 41
0.9
 51
0.0
  7
KANJI28
  0
TEXT
  8
0
  6
CONTINUOUS
 62
     2
 10
1333.32
 20
1390.88
 30
1.44
 40
14.4
  1
１２６０
 50
0.0
 41
0.9
 51
0.0
  7
KANJI28
  0
TEXT
  8
0
  6
CONTINUOUS
 62
     2
 10
1333.32
 20
1359.28
 30
1.44
 40
14.4
  1
１３８７
 50
0.0
 41
0.9
 51
0.0
  7
KANJI28
  0
TEXT
  8
0
  6
CONTINUOUS
 62
     2
 10
1333.32
 20
1327.68
 30
1.44
 40
14.4
  1
１５４３
 50
0.0
 41
0.9
 51
0.0
  7
KANJI28
  0
TEXT
  8
0
  6
CONTINUOUS
 62
     2
 10
1333.32
 20
1296.08
 30
1.44
 40
14.4
  1
１６６３
 50
0.0
 41
0.9
 51
0.0
  7
KANJI28
  0
TEXT
  8
0
  6
CONTINUOUS
 62
     2
 10
1333.32
 20
1232.88
 30
1.44
 40
14.4
  1
１９１３
 50
0.0
 41
0.9
 51
0.0
  7
KANJI28
  0
TEXT
  8
0
  6
CONTINUOUS
 62
     2
 10
1333.32
 20
1201.28
 30
1.44
 40
14.4
  1
２０４６
 50
0.0
 41
0.9
 51
0.0
  7
KANJI28
  0
TEXT
  8
0
  6
CONTINUOUS
 62
     2
 10
1333.32
 20
1169.68
 30
1.44
 40
14.4
  1
２１９０
 50
0.0
 41
0.9
 51
0.0
  7
KANJI28
  0
TEXT
  8
0
  6
CONTINUOUS
 62
     2
 10
1333.32
 20
1138.08
 30
1.44
 40
14.4
  1
２３１４
 50
0.0
 41
0.9
 51
0.0
  7
KANJI28
  0
TEXT
  8
0
  6
CONTINUOUS
 62
     2
 10
1333.32
 20
1106.48
 30
1.44
 40
14.4
  1
２４３３
 50
0.0
 41
0.9
 51
0.0
  7
KANJI28
  0
TEXT
  8
0
  6
CONTINUOUS
 62
     2
 10
1333.32
 20
1074.88
 30
1.44
 40
14.4
  1
２５５５
 50
0.0
 41
0.9
 51
0.0
  7
KANJI28
  0
TEXT
  8
0
  6
CONTINUOUS
 62
     2
 10
1333.32
 20
1043.28
 30
1.44
 40
14.4
  1
２６９５
 50
0.0
 41
0.9
 51
0.0
  7
KANJI28
  0
TEXT
  8
0
  6
CONTINUOUS
 62
     2
 10
1333.32
 20
1264.48
 30
1.44
 40
14.4
  1
１７８３
 50
0.0
 41
0.9
 51
0.0
  7
KANJI28
  0
CIRCLE
  8
0
  6
CONTINUOUS
 62
     1
 10
1085.6
 20
559.5
 30
0.0
 40
28.0
  0
CIRCLE
  8
0
  6
CONTINUOUS
 62
     1
 10
1085.6
 20
577.0
 30
0.0
 40
2.5
  0
LINE
  8
0
  6
CONTINUOUS
 62
     1
 10
1089.8
 20
540.2
 30
0.0
 11
1087.8
 21
539.9
 31
0.0
  0
LINE
  8
0
  6
CONTINUOUS
 62
     1
 10
1087.535384615
 20
543.030769231
 30
0.0
 11
1089.8
 21
540.2
 31
0.0
  0
LINE
  8
0
  6
CONTINUOUS
 62
     1
 10
1085.6
 20
542.6
 30
0.0
 11
1087.8
 21
539.9
 31
0.0
  0
LINE
  8
0
  6
CONTINUOUS
 62
     1
 10
1087.3
 20
544.6
 30
0.0
 11
1087.535384615
 21
543.030769231
 31
0.0
  0
LINE
  8
0
  6
CONTINUOUS
 62
     1
 10
1085.6
 20
542.6
 30
0.0
 11
1083.4
 21
539.9
 31
0.0
  0
LINE
  8
0
  6
CONTINUOUS
 62
     1
 10
1083.9
 20
544.6
 30
0.0
 11
1083.664615385
 21
543.030769231
 31
0.0
  0
LINE
  8
0
  6
CONTINUOUS
 62
     1
 10
1081.4
 20
540.2
 30
0.0
 11
1083.4
 21
539.9
 31
0.0
  0
LINE
  8
0
  6
CONTINUOUS
 62
     1
 10
1083.664615385
 20
543.030769231
 30
0.0
 11
1081.4
 21
540.2
 31
0.0
  0
LINE
  8
0
  6
CONTINUOUS
 62
     1
 10
342.7
 20
634.5
 30
0.0
 11
342.7
 21
564.5
 31
0.0
  0
TEXT
  8
0
  6
CONTINUOUS
 62
     2
 10
347.7
 20
623.5
 30
5.0
 40
20.0
  1
銘板
 50
270.0
 41
0.925
 51
0.0
  7
KANJI35
  0
LINE
  8
0
  6
CONTINUOUS
 62
     1
 10
385.7
 20
634.5
 30
0.0
 11
342.7
 21
634.5
 31
0.0
  0
LINE
  8
0
  6
CONTINUOUS
 62
     1
 10
385.7
 20
564.5
 30
0.0
 11
342.7
 21
564.5
 31
0.0
  0
LINE
  8
0
  6
CONTINUOUS
 62
     1
 10
385.7
 20
634.5
 30
0.0
 11
385.7
 21
564.5
 31
0.0
  0
TEXT
  8
2
  6
CONTINUOUS
 62
     3
 10
232.89
 20
875.52
 30
0.0
 40
18.0
  1
手動軸カバー
 50
0.0
 41
0.9
 51
0.0
  7
KANJI22
  0
LINE
  8
2
  6
CONTINUOUS
 62
     2
 10
236.028181818
 20
872.52
 30
0.0
 11
330.09
 21
872.52
 31
0.0
  0
LINE
  8
2
  6
CONTINUOUS
 62
     2
 10
205.0
 20
758.75
 30
0.0
 11
236.028181818
 21
872.52
 31
0.0
  0
TEXT
  8
2
  6
CONTINUOUS
 62
     3
 10
232.89
 20
851.52
 30
0.0
 40
18.0
  1
手動軸□１０
 50
0.0
 41
0.9
 51
0.0
  7
KANJI22
  0
ARC
  8
0
  6
CONTINUOUS
 62
     2
 10
155.6
 20
741.05
 30
0.0
 40
20.0
 50
231.952957468
 51
156.801409486
  0
LINE
  8
0
  6
CONTINUOUS
 62
     2
 10
137.2170994
 20
748.928385972
 30
0.0
 11
139.51179211
 21
758.765824749
 31
0.0
  0
LINE
  8
0
  6
CONTINUOUS
 62
     2
 10
137.2170994
 20
748.928385972
 30
0.0
 11
145.485260778
 21
753.835722507
 31
0.0
  0
TEXT
  8
0
  6
CONTINUOUS
 62
     2
 10
118.0470994
 20
773.378385972
 30
0.0
 40
15.0
  1
前進方向
 50
0.0
 41
0.9
 51
0.0
  7
KANJI36
  0
LINE
  8
0
  6
LTYPE2
 62
     6
 10
117.36
 20
1653.54
 30
0.0
 11
117.36
 21
1147.14
 31
0.0
  0
TEXT
  8
0
  6
CONTINUOUS
 62
     6
 10
244.661963977
 20
1155.209618036
 30
0.0
 40
17.031074144
  1
２カム端子台　接続図
 50
0.0
 41
0.880962996
 51
0.0
  7
KANJI37
  0
LINE
  8
0
  6
LTYPE2
 62
     6
 10
117.36
 20
1147.14
 30
0.0
 11
872.64
 21
1147.14
 31
0.0
  0
LINE
  8
0
  6
CONTINUOUS
 62
     6
 10
314.839298476
 20
1206.935916515
 30
0.0
 11
314.839298476
 21
1258.492918711
 31
0.0
  0
LINE
  8
0
  6
CONTINUOUS
 62
     2
 10
251.05819156
 20
1206.935916515
 30
0.0
 11
251.05819156
 21
1185.068108429
 31
0.0
  0
LINE
  8
0
  6
CONTINUOUS
 62
     2
 10
225.545748794
 20
1206.935916515
 30
0.0
 11
225.545748794
 21
1185.068108429
 31
0.0
  0
LINE
  8
0
  6
CONTINUOUS
 62
     2
 10
200.033306028
 20
1206.935916515
 30
0.0
 11
200.033306028
 21
1185.068108429
 31
0.0
  0
LINE
  8
0
  6
CONTINUOUS
 62
     2
 10
276.570634326
 20
1206.935916515
 30
0.0
 11
276.570634326
 21
1185.068108429
 31
0.0
  0
LINE
  8
0
  6
CONTINUOUS
 62
     2
 10
302.083077093
 20
1206.935916515
 30
0.0
 11
302.083077093
 21
1185.068108429
 31
0.0
  0
LINE
  8
0
  6
CONTINUOUS
 62
     6
 10
263.814412943
 20
1216.450599813
 30
0.0
 11
263.814412943
 21
1206.935916515
 31
0.0
  0
LINE
  8
0
  6
CONTINUOUS
 62
     6
 10
289.326855709
 20
1229.476524162
 30
0.0
 11
289.326855709
 21
1206.935916515
 31
0.0
  0
LINE
  8
0
  6
CONTINUOUS
 62
     2
 10
200.033306028
 20
1206.935916515
 30
0.0
 11
404.132848158
 21
1206.935916515
 31
0.0
  0
LINE
  8
0
  6
CONTINUOUS
 62
     2
 10
200.033306028
 20
1185.068108429
 30
0.0
 11
404.132848158
 21
1185.068108429
 31
0.0
  0
TEXT
  8
0
  6
CONTINUOUS
 62
     3
 10
257.997767516
 20
1188.02384711
 30
0.0
 40
14.37696
  1
２１　２２　２３　２４　　２５　　２６　　
 50
0.0
 41
0.9125
 51
0.0
  7
KANJI38
  0
TEXT
  8
0
  6
CONTINUOUS
 62
     6
 10
613.061963977
 20
1155.209618036
 30
0.0
 40
17.031074144
  1
４カム端子台　接続図
 50
0.0
 41
0.880962996
 51
0.0
  7
KANJI37
  0
LINE
  8
0
  6
LTYPE2
 62
     6
 10
872.64
 20
1653.54
 30
0.0
 11
117.36
 21
1653.54
 31
0.0
  0
LINE
  8
0
  6
LTYPE2
 62
     6
 10
872.64
 20
1147.14
 30
0.0
 11
872.64
 21
1653.54
 31
0.0
  0
CIRCLE
  8
0
  6
CONTINUOUS
 62
     6
 10
263.814412943
 20
1246.642753509
 30
0.0
 40
3.936205455
  0
LINE
  8
0
  6
CONTINUOUS
 62
     6
 10
264.057734816
 20
1242.615699739
 30
0.0
 11
267.815625379
 21
1221.174046359
 31
0.0
  0
LINE
  8
0
  6
CONTINUOUS
 62
     6
 10
264.057734816
 20
1242.615699739
 30
0.0
 11
268.595009475
 21
1243.371912182
 31
0.0
  0
LINE
  8
0
  6
CONTINUOUS
 62
     6
 10
268.595009475
 20
1243.371912182
 30
0.0
 11
272.353195556
 21
1221.930308055
 31
0.0
  0
LINE
  8
0
  6
CONTINUOUS
 62
     6
 10
263.814412943
 20
1250.578958964
 30
0.0
 11
263.814412943
 21
1258.492918711
 31
0.0
  0
LINE
  8
0
  6
CONTINUOUS
 62
     6
 10
314.839298476
 20
1258.492918711
 30
0.0
 11
263.814412943
 21
1258.492918711
 31
0.0
  0
CIRCLE
  8
0
  6
CONTINUOUS
 62
     6
 10
391.376626774
 20
1246.642753509
 30
0.0
 40
3.936205455
  0
LINE
  8
0
  6
CONTINUOUS
 62
     6
 10
391.133304902
 20
1242.615699739
 30
0.0
 11
387.375414339
 21
1221.174046359
 31
0.0
  0
LINE
  8
0
  6
CONTINUOUS
 62
     6
 10
391.133304902
 20
1242.615699739
 30
0.0
 11
386.596030243
 21
1243.371912182
 31
0.0
  0
LINE
  8
0
  6
CONTINUOUS
 62
     6
 10
386.596030243
 20
1243.371912182
 30
0.0
 11
382.837844161
 21
1221.930308055
 31
0.0
  0
LINE
  8
0
  6
CONTINUOUS
 62
     6
 10
391.376626774
 20
1250.578958964
 30
0.0
 11
391.376626774
 21
1258.492918711
 31
0.0
  0
LINE
  8
0
  6
CONTINUOUS
 62
     6
 10
340.351741242
 20
1258.492918711
 30
0.0
 11
391.376626774
 21
1258.492918711
 31
0.0
  0
LINE
  8
0
  6
CONTINUOUS
 62
     6
 10
340.351741242
 20
1206.935916515
 30
0.0
 11
340.351741242
 21
1258.492918711
 31
0.0
  0
LINE
  8
0
  6
CONTINUOUS
 62
     2
 10
353.107962625
 20
1307.373746261
 30
0.0
 11
353.107962625
 21
1285.505938175
 31
0.0
  0
LINE
  8
0
  6
CONTINUOUS
 62
     2
 10
378.620405391
 20
1307.373746261
 30
0.0
 11
378.620405391
 21
1285.505938175
 31
0.0
  0
LINE
  8
0
  6
CONTINUOUS
 62
     2
 10
404.132848158
 20
1307.373746261
 30
0.0
 11
404.132848158
 21
1285.505938175
 31
0.0
  0
LINE
  8
0
  6
CONTINUOUS
 62
     2
 10
429.645290924
 20
1307.373746261
 30
0.0
 11
429.645290924
 21
1285.505938175
 31
0.0
  0
CIRCLE
  8
0
  6
CONTINUOUS
 62
     6
 10
289.326855709
 20
1320.824635014
 30
0.0
 40
3.936205455
  0
LINE
  8
0
  6
CONTINUOUS
 62
     6
 10
289.083533837
 20
1343.053529485
 30
0.0
 11
285.325643274
 21
1321.611876105
 31
0.0
  0
LINE
  8
0
  6
CONTINUOUS
 62
     6
 10
284.546259178
 20
1343.809741928
 30
0.0
 11
280.788073096
 21
1322.368137801
 31
0.0
  0
LINE
  8
0
  6
CONTINUOUS
 62
     6
 10
285.325643274
 20
1321.611876105
 30
0.0
 11
280.788073096
 21
1322.368137801
 31
0.0
  0
CIRCLE
  8
0
  6
CONTINUOUS
 62
     6
 10
422.042582979
 20
1329.914353908
 30
0.0
 40
3.936205455
  0
LINE
  8
0
  6
CONTINUOUS
 62
     6
 10
418.106377524
 20
1329.914353908
 30
0.0
 11
416.889069541
 21
1329.914353908
 31
0.0
  0
LINE
  8
0
  6
CONTINUOUS
 62
     6
 10
442.158190434
 20
1343.053529485
 30
0.0
 11
438.400299871
 21
1321.611876105
 31
0.0
  0
LINE
  8
0
  6
CONTINUOUS
 62
     6
 10
437.620915776
 20
1343.809741928
 30
0.0
 11
433.862729694
 21
1322.368137801
 31
0.0
  0
LINE
  8
0
  6
CONTINUOUS
 62
     6
 10
438.400299871
 20
1321.611876105
 30
0.0
 11
433.862729694
 21
1322.368137801
 31
0.0
  0
CIRCLE
  8
0
  6
CONTINUOUS
 62
     6
 10
442.401512307
 20
1320.824635014
 30
0.0
 40
3.936205455
  0
LINE
  8
0
  6
CONTINUOUS
 62
     6
 10
289.326855709
 20
1316.888429558
 30
0.0
 11
289.326855709
 21
1307.373746261
 31
0.0
  0
LINE
  8
0
  6
CONTINUOUS
 62
     6
 10
263.814412943
 20
1358.930748456
 30
0.0
 11
263.814412943
 21
1307.373746261
 31
0.0
  0
LINE
  8
0
  6
CONTINUOUS
 62
     6
 10
442.401512307
 20
1316.888429558
 30
0.0
 11
442.401512307
 21
1307.373746261
 31
0.0
  0
LINE
  8
0
  6
CONTINUOUS
 62
     6
 10
416.889069541
 20
1329.914353908
 30
0.0
 11
416.889069541
 21
1307.373746261
 31
0.0
  0
LINE
  8
0
  6
CONTINUOUS
 62
     6
 10
391.376626774
 20
1307.373746261
 30
0.0
 11
391.376626774
 21
1358.930748456
 31
0.0
  0
LINE
  8
0
  6
CONTINUOUS
 62
     6
 10
315.082620348
 20
1343.053529485
 30
0.0
 11
318.840510911
 21
1321.611876105
 31
0.0
  0
LINE
  8
0
  6
CONTINUOUS
 62
     6
 10
319.619895007
 20
1343.809741928
 30
0.0
 11
323.378081089
 21
1322.368137801
 31
0.0
  0
LINE
  8
0
  6
CONTINUOUS
 62
     6
 10
318.840510911
 20
1321.611876105
 30
0.0
 11
323.378081089
 21
1322.368137801
 31
0.0
  0
CIRCLE
  8
0
  6
CONTINUOUS
 62
     6
 10
314.839298476
 20
1320.824635014
 30
0.0
 40
3.936205455
  0
CIRCLE
  8
0
  6
CONTINUOUS
 62
     6
 10
335.198227803
 20
1329.914353908
 30
0.0
 40
3.936205455
  0
LINE
  8
0
  6
CONTINUOUS
 62
     6
 10
339.134433259
 20
1329.914353908
 30
0.0
 11
340.351741242
 21
1329.914353908
 31
0.0
  0
LINE
  8
0
  6
CONTINUOUS
 62
     6
 10
314.839298476
 20
1316.888429558
 30
0.0
 11
314.839298476
 21
1307.373746261
 31
0.0
  0
LINE
  8
0
  6
CONTINUOUS
 62
     6
 10
340.351741242
 20
1329.914353908
 30
0.0
 11
340.351741242
 21
1307.373746261
 31
0.0
  0
LINE
  8
0
  6
CONTINUOUS
 62
     6
 10
365.864184008
 20
1307.373746261
 30
0.0
 11
365.864184008
 21
1358.930748456
 31
0.0
  0
LINE
  8
0
  6
CONTINUOUS
 62
     2
 10
455.15773369
 20
1307.373746261
 30
0.0
 11
455.15773369
 21
1285.505938175
 31
0.0
  0
LINE
  8
0
  6
CONTINUOUS
 62
     2
 10
251.05819156
 20
1307.373746261
 30
0.0
 11
251.05819156
 21
1285.505938175
 31
0.0
  0
LINE
  8
0
  6
CONTINUOUS
 62
     2
 10
276.570634326
 20
1307.373746261
 30
0.0
 11
276.570634326
 21
1285.505938175
 31
0.0
  0
LINE
  8
0
  6
CONTINUOUS
 62
     2
 10
302.083077093
 20
1307.373746261
 30
0.0
 11
302.083077093
 21
1285.505938175
 31
0.0
  0
LINE
  8
0
  6
CONTINUOUS
 62
     2
 10
327.595519859
 20
1307.373746261
 30
0.0
 11
327.595519859
 21
1285.505938175
 31
0.0
  0
LINE
  8
0
  6
CONTINUOUS
 62
     2
 10
200.033306028
 20
1307.373746261
 30
0.0
 11
200.033306028
 21
1285.505938175
 31
0.0
  0
LINE
  8
0
  6
CONTINUOUS
 62
     2
 10
225.545748794
 20
1307.373746261
 30
0.0
 11
225.545748794
 21
1285.505938175
 31
0.0
  0
LINE
  8
0
  6
CONTINUOUS
 62
     2
 10
149.008420495
 20
1307.373746261
 30
0.0
 11
455.15773369
 21
1307.373746261
 31
0.0
  0
LINE
  8
0
  6
CONTINUOUS
 62
     2
 10
149.008420495
 20
1285.505938175
 30
0.0
 11
455.15773369
 21
1285.505938175
 31
0.0
  0
CIRCLE
  8
0
  6
CONTINUOUS
 62
     6
 10
289.326855709
 20
1347.080583255
 30
0.0
 40
3.936205455
  0
LINE
  8
0
  6
CONTINUOUS
 62
     6
 10
289.083533837
 20
1343.053529485
 30
0.0
 11
284.546259178
 21
1343.809741928
 31
0.0
  0
LINE
  8
0
  6
CONTINUOUS
 62
     6
 10
289.326855709
 20
1351.01678871
 30
0.0
 11
289.326855709
 21
1358.930748456
 31
0.0
  0
LINE
  8
0
  6
CONTINUOUS
 62
     6
 10
289.326855709
 20
1358.930748456
 30
0.0
 11
263.814412943
 21
1358.930748456
 31
0.0
  0
LINE
  8
0
  6
CONTINUOUS
 62
     6
 10
442.401512307
 20
1358.930748456
 30
0.0
 11
391.376626774
 21
1358.930748456
 31
0.0
  0
CIRCLE
  8
0
  6
CONTINUOUS
 62
     6
 10
442.401512307
 20
1347.080583255
 30
0.0
 40
3.936205455
  0
LINE
  8
0
  6
CONTINUOUS
 62
     6
 10
442.158190434
 20
1343.053529485
 30
0.0
 11
437.620915776
 21
1343.809741928
 31
0.0
  0
LINE
  8
0
  6
CONTINUOUS
 62
     6
 10
442.401512307
 20
1351.01678871
 30
0.0
 11
442.401512307
 21
1358.930748456
 31
0.0
  0
CIRCLE
  8
0
  6
CONTINUOUS
 62
     6
 10
314.839298476
 20
1347.080583255
 30
0.0
 40
3.936205455
  0
LINE
  8
0
  6
CONTINUOUS
 62
     6
 10
315.082620348
 20
1343.053529485
 30
0.0
 11
319.619895007
 21
1343.809741928
 31
0.0
  0
LINE
  8
0
  6
CONTINUOUS
 62
     6
 10
314.839298476
 20
1351.01678871
 30
0.0
 11
314.839298476
 21
1358.930748456
 31
0.0
  0
LINE
  8
0
  6
CONTINUOUS
 62
     6
 10
365.864184008
 20
1358.930748456
 30
0.0
 11
314.839298476
 21
1358.930748456
 31
0.0
  0
TEXT
  8
0
  6
CONTINUOUS
 62
     6
 10
261.561199775
 20
1363.269123594
 30
0.78624
 40
11.232
  1
ＬＳＡ
 50
0.0
 41
0.8
 51
0.0
  7
KANJI39
  0
TEXT
  8
0
  6
CONTINUOUS
 62
     6
 10
319.411810691
 20
1363.269123594
 30
0.78624
 40
11.232
  1
ＬＳ０１
 50
0.0
 41
0.8
 51
0.0
  7
KANJI39
  0
TEXT
  8
0
  6
CONTINUOUS
 62
     6
 10
398.72718699
 20
1363.269123594
 30
0.78624
 40
11.232
  1
ＬＳ０２
 50
0.0
 41
0.8
 51
0.0
  7
KANJI39
  0
TEXT
  8
0
  6
CONTINUOUS
 62
     6
 10
348.338781457
 20
1262.486688026
 30
0.78624
 40
11.232
  1
ＬＳ１２
 50
0.0
 41
0.8
 51
0.0
  7
KANJI39
  0
TEXT
  8
0
  6
CONTINUOUS
 62
     6
 10
269.023405158
 20
1262.486688026
 30
0.78624
 40
11.232
  1
ＬＳ１１
 50
0.0
 41
0.8
 51
0.0
  7
KANJI39
  0
LINE
  8
0
  6
CONTINUOUS
 62
     2
 10
327.595519859
 20
1206.935916515
 30
0.0
 11
327.595519859
 21
1185.068108429
 31
0.0
  0
LINE
  8
0
  6
CONTINUOUS
 62
     2
 10
353.107962625
 20
1206.935916515
 30
0.0
 11
353.107962625
 21
1185.068108429
 31
0.0
  0
LINE
  8
0
  6
CONTINUOUS
 62
     2
 10
378.620405391
 20
1206.935916515
 30
0.0
 11
378.620405391
 21
1185.068108429
 31
0.0
  0
LINE
  8
0
  6
CONTINUOUS
 62
     6
 10
267.815625379
 20
1221.174046359
 30
0.0
 11
272.353195556
 21
1221.930308055
 31
0.0
  0
CIRCLE
  8
0
  6
CONTINUOUS
 62
     6
 10
263.814412943
 20
1220.386805268
 30
0.0
 40
3.936205455
  0
CIRCLE
  8
0
  6
CONTINUOUS
 62
     6
 10
284.173342271
 20
1229.476524162
 30
0.0
 40
3.936205455
  0
LINE
  8
0
  6
CONTINUOUS
 62
     6
 10
288.109547726
 20
1229.476524162
 30
0.0
 11
289.326855709
 21
1229.476524162
 31
0.0
  0
LINE
  8
0
  6
CONTINUOUS
 62
     6
 10
387.375414339
 20
1221.174046359
 30
0.0
 11
382.837844161
 21
1221.930308055
 31
0.0
  0
CIRCLE
  8
0
  6
CONTINUOUS
 62
     6
 10
391.376626774
 20
1220.386805268
 30
0.0
 40
3.936205455
  0
CIRCLE
  8
0
  6
CONTINUOUS
 62
     6
 10
371.017697447
 20
1229.476524162
 30
0.0
 40
3.936205455
  0
LINE
  8
0
  6
CONTINUOUS
 62
     6
 10
367.081491992
 20
1229.476524162
 30
0.0
 11
365.864184008
 21
1229.476524162
 31
0.0
  0
LINE
  8
0
  6
CONTINUOUS
 62
     6
 10
391.376626774
 20
1216.450599813
 30
0.0
 11
391.376626774
 21
1206.935916515
 31
0.0
  0
LINE
  8
0
  6
CONTINUOUS
 62
     6
 10
365.864184008
 20
1229.476524162
 30
0.0
 11
365.864184008
 21
1206.935916515
 31
0.0
  0
LINE
  8
0
  6
CONTINUOUS
 62
     2
 10
404.132848158
 20
1206.935916515
 30
0.0
 11
404.132848158
 21
1185.068108429
 31
0.0
  0
LINE
  8
0
  6
CONTINUOUS
 62
     2
 10
149.008420495
 20
1307.373746261
 30
0.0
 11
149.008420495
 21
1285.505938175
 31
0.0
  0
LINE
  8
0
  6
CONTINUOUS
 62
     2
 10
174.520863261
 20
1307.373746261
 30
0.0
 11
174.520863261
 21
1285.505938175
 31
0.0
  0
LINE
  8
0
  6
CONTINUOUS
 62
     2
 10
721.507962625
 20
1307.373746261
 30
0.0
 11
721.507962625
 21
1285.505938175
 31
0.0
  0
LINE
  8
0
  6
CONTINUOUS
 62
     2
 10
747.020405391
 20
1307.373746261
 30
0.0
 11
747.020405391
 21
1285.505938175
 31
0.0
  0
LINE
  8
0
  6
CONTINUOUS
 62
     2
 10
772.532848158
 20
1307.373746261
 30
0.0
 11
772.532848158
 21
1285.505938175
 31
0.0
  0
LINE
  8
0
  6
CONTINUOUS
 62
     2
 10
798.045290924
 20
1307.373746261
 30
0.0
 11
798.045290924
 21
1285.505938175
 31
0.0
  0
LINE
  8
0
  6
CONTINUOUS
 62
     6
 10
657.726855709
 20
1316.888429558
 30
0.0
 11
657.726855709
 21
1307.373746261
 31
0.0
  0
LINE
  8
0
  6
CONTINUOUS
 62
     6
 10
632.214412943
 20
1358.930748456
 30
0.0
 11
632.214412943
 21
1307.373746261
 31
0.0
  0
LINE
  8
0
  6
CONTINUOUS
 62
     6
 10
810.801512307
 20
1316.888429558
 30
0.0
 11
810.801512307
 21
1307.373746261
 31
0.0
  0
LINE
  8
0
  6
CONTINUOUS
 62
     6
 10
785.289069541
 20
1329.914353908
 30
0.0
 11
785.289069541
 21
1307.373746261
 31
0.0
  0
LINE
  8
0
  6
CONTINUOUS
 62
     6
 10
759.776626774
 20
1307.373746261
 30
0.0
 11
759.776626774
 21
1358.930748456
 31
0.0
  0
LINE
  8
0
  6
CONTINUOUS
 62
     6
 10
683.239298476
 20
1316.888429558
 30
0.0
 11
683.239298476
 21
1307.373746261
 31
0.0
  0
LINE
  8
0
  6
CONTINUOUS
 62
     6
 10
708.751741242
 20
1329.914353908
 30
0.0
 11
708.751741242
 21
1307.373746261
 31
0.0
  0
LINE
  8
0
  6
CONTINUOUS
 62
     6
 10
734.264184008
 20
1307.373746261
 30
0.0
 11
734.264184008
 21
1358.930748456
 31
0.0
  0
LINE
  8
0
  6
CONTINUOUS
 62
     2
 10
823.55773369
 20
1307.373746261
 30
0.0
 11
823.55773369
 21
1285.505938175
 31
0.0
  0
LINE
  8
0
  6
CONTINUOUS
 62
     2
 10
619.45819156
 20
1307.373746261
 30
0.0
 11
619.45819156
 21
1285.505938175
 31
0.0
  0
LINE
  8
0
  6
CONTINUOUS
 62
     2
 10
644.970634326
 20
1307.373746261
 30
0.0
 11
644.970634326
 21
1285.505938175
 31
0.0
  0
LINE
  8
0
  6
CONTINUOUS
 62
     2
 10
670.483077093
 20
1307.373746261
 30
0.0
 11
670.483077093
 21
1285.505938175
 31
0.0
  0
LINE
  8
0
  6
CONTINUOUS
 62
     2
 10
695.995519859
 20
1307.373746261
 30
0.0
 11
695.995519859
 21
1285.505938175
 31
0.0
  0
LINE
  8
0
  6
CONTINUOUS
 62
     2
 10
568.433306028
 20
1307.373746261
 30
0.0
 11
568.433306028
 21
1285.505938175
 31
0.0
  0
LINE
  8
0
  6
CONTINUOUS
 62
     2
 10
593.945748794
 20
1307.373746261
 30
0.0
 11
593.945748794
 21
1285.505938175
 31
0.0
  0
LINE
  8
0
  6
CONTINUOUS
 62
     2
 10
517.408420495
 20
1307.373746261
 30
0.0
 11
823.55773369
 21
1307.373746261
 31
0.0
  0
LINE
  8
0
  6
CONTINUOUS
 62
     2
 10
517.408420495
 20
1285.505938175
 30
0.0
 11
823.55773369
 21
1285.505938175
 31
0.0
  0
LINE
  8
0
  6
CONTINUOUS
 62
     2
 10
517.408420495
 20
1307.373746261
 30
0.0
 11
517.408420495
 21
1285.505938175
 31
0.0
  0
LINE
  8
0
  6
CONTINUOUS
 62
     2
 10
542.920863261
 20
1307.373746261
 30
0.0
 11
542.920863261
 21
1285.505938175
 31
0.0
  0
CIRCLE
  8
0
  6
CONTINUOUS
 62
     6
 10
657.726855709
 20
1320.824635014
 30
0.0
 40
3.936205455
  0
LINE
  8
0
  6
CONTINUOUS
 62
     6
 10
657.483533837
 20
1343.053529485
 30
0.0
 11
653.725643274
 21
1321.611876105
 31
0.0
  0
LINE
  8
0
  6
CONTINUOUS
 62
     6
 10
652.946259178
 20
1343.809741928
 30
0.0
 11
649.188073096
 21
1322.368137801
 31
0.0
  0
LINE
  8
0
  6
CONTINUOUS
 62
     6
 10
653.725643274
 20
1321.611876105
 30
0.0
 11
649.188073096
 21
1322.368137801
 31
0.0
  0
CIRCLE
  8
0
  6
CONTINUOUS
 62
     6
 10
790.442582979
 20
1329.914353908
 30
0.0
 40
3.936205455
  0
LINE
  8
0
  6
CONTINUOUS
 62
     6
 10
786.506377524
 20
1329.914353908
 30
0.0
 11
785.289069541
 21
1329.914353908
 31
0.0
  0
LINE
  8
0
  6
CONTINUOUS
 62
     6
 10
810.558190434
 20
1343.053529485
 30
0.0
 11
806.800299871
 21
1321.611876105
 31
0.0
  0
LINE
  8
0
  6
CONTINUOUS
 62
     6
 10
806.020915776
 20
1343.809741928
 30
0.0
 11
802.262729694
 21
1322.368137801
 31
0.0
  0
LINE
  8
0
  6
CONTINUOUS
 62
     6
 10
806.800299871
 20
1321.611876105
 30
0.0
 11
802.262729694
 21
1322.368137801
 31
0.0
  0
CIRCLE
  8
0
  6
CONTINUOUS
 62
     6
 10
810.801512307
 20
1320.824635014
 30
0.0
 40
3.936205455
  0
LINE
  8
0
  6
CONTINUOUS
 62
     6
 10
683.482620348
 20
1343.053529485
 30
0.0
 11
687.240510911
 21
1321.611876105
 31
0.0
  0
LINE
  8
0
  6
CONTINUOUS
 62
     6
 10
688.019895007
 20
1343.809741928
 30
0.0
 11
691.778081089
 21
1322.368137801
 31
0.0
  0
LINE
  8
0
  6
CONTINUOUS
 62
     6
 10
687.240510911
 20
1321.611876105
 30
0.0
 11
691.778081089
 21
1322.368137801
 31
0.0
  0
CIRCLE
  8
0
  6
CONTINUOUS
 62
     6
 10
683.239298476
 20
1320.824635014
 30
0.0
 40
3.936205455
  0
CIRCLE
  8
0
  6
CONTINUOUS
 62
     6
 10
703.598227803
 20
1329.914353908
 30
0.0
 40
3.936205455
  0
LINE
  8
0
  6
CONTINUOUS
 62
     6
 10
707.534433259
 20
1329.914353908
 30
0.0
 11
708.751741242
 21
1329.914353908
 31
0.0
  0
CIRCLE
  8
0
  6
CONTINUOUS
 62
     6
 10
657.726855709
 20
1347.080583255
 30
0.0
 40
3.936205455
  0
LINE
  8
0
  6
CONTINUOUS
 62
     6
 10
657.483533837
 20
1343.053529485
 30
0.0
 11
652.946259178
 21
1343.809741928
 31
0.0
  0
LINE
  8
0
  6
CONTINUOUS
 62
     6
 10
657.726855709
 20
1351.01678871
 30
0.0
 11
657.726855709
 21
1358.930748456
 31
0.0
  0
LINE
  8
0
  6
CONTINUOUS
 62
     6
 10
657.726855709
 20
1358.930748456
 30
0.0
 11
632.214412943
 21
1358.930748456
 31
0.0
  0
LINE
  8
0
  6
CONTINUOUS
 62
     6
 10
810.801512307
 20
1358.930748456
 30
0.0
 11
759.776626774
 21
1358.930748456
 31
0.0
  0
CIRCLE
  8
0
  6
CONTINUOUS
 62
     6
 10
810.801512307
 20
1347.080583255
 30
0.0
 40
3.936205455
  0
LINE
  8
0
  6
CONTINUOUS
 62
     6
 10
810.558190434
 20
1343.053529485
 30
0.0
 11
806.020915776
 21
1343.809741928
 31
0.0
  0
LINE
  8
0
  6
CONTINUOUS
 62
     6
 10
810.801512307
 20
1351.01678871
 30
0.0
 11
810.801512307
 21
1358.930748456
 31
0.0
  0
CIRCLE
  8
0
  6
CONTINUOUS
 62
     6
 10
683.239298476
 20
1347.080583255
 30
0.0
 40
3.936205455
  0
LINE
  8
0
  6
CONTINUOUS
 62
     6
 10
683.482620348
 20
1343.053529485
 30
0.0
 11
688.019895007
 21
1343.809741928
 31
0.0
  0
LINE
  8
0
  6
CONTINUOUS
 62
     6
 10
683.239298476
 20
1351.01678871
 30
0.0
 11
683.239298476
 21
1358.930748456
 31
0.0
  0
LINE
  8
0
  6
CONTINUOUS
 62
     6
 10
734.264184008
 20
1358.930748456
 30
0.0
 11
683.239298476
 21
1358.930748456
 31
0.0
  0
TEXT
  8
0
  6
CONTINUOUS
 62
     6
 10
629.961199775
 20
1363.269123594
 30
0.78624
 40
11.232
  1
ＬＳＡ
 50
0.0
 41
0.8
 51
0.0
  7
KANJI39
  0
TEXT
  8
0
  6
CONTINUOUS
 62
     6
 10
687.811810691
 20
1363.269123594
 30
0.78624
 40
11.232
  1
ＬＳ０１
 50
0.0
 41
0.8
 51
0.0
  7
KANJI39
  0
TEXT
  8
0
  6
CONTINUOUS
 62
     6
 10
767.12718699
 20
1363.269123594
 30
0.78624
 40
11.232
  1
ＬＳ０２
 50
0.0
 41
0.8
 51
0.0
  7
KANJI39
  0
TEXT
  8
0
  6
CONTINUOUS
 62
     3
 10
154.110909048
 20
1289.150572856
 30
0.0
 40
14.4
  1
１１　１２　１３　　　４０　４１　１　　２　　　３　　　４　　　５　　　６
 50
0.0
 41
0.911
 51
0.0
  7
KANJI40
  0
POINT
  8
0
  6
CONTINUOUS
 62
     6
 10
160.221347684
 20
1336.199042337
 30
0.0
  0
POINT
  8
0
  6
CONTINUOUS
 62
     6
 10
214.317347684
 20
1336.199042337
 30
0.0
  0
LINE
  8
0
  6
CONTINUOUS
 62
     6
 10
170.794147684
 20
1348.199042337
 30
0.0
 11
176.076235385
 21
1358.102956776
 31
0.0
  0
LINE
  8
0
  6
CONTINUOUS
 62
     6
 10
176.076235385
 20
1358.102956776
 30
0.0
 11
182.597863813
 21
1339.842397176
 31
0.0
  0
LINE
  8
0
  6
CONTINUOUS
 62
     6
 10
191.133347684
 20
1358.279042337
 30
0.0
 11
198.525347684
 21
1340.135042337
 31
0.0
  0
LINE
  8
0
  6
CONTINUOUS
 62
     6
 10
182.597863813
 20
1339.842397176
 30
0.0
 11
191.133347684
 21
1358.279042337
 31
0.0
  0
LINE
  8
0
  6
CONTINUOUS
 62
     6
 10
198.525347684
 20
1340.135042337
 30
0.0
 11
201.885347684
 21
1348.199042337
 31
0.0
  0
LINE
  8
0
  6
CONTINUOUS
 62
     6
 10
201.885347684
 20
1348.199042337
 30
0.0
 11
214.317347684
 21
1348.199042337
 31
0.0
  0
LINE
  8
0
  6
CONTINUOUS
 62
     6
 10
160.221347684
 20
1348.199042337
 30
0.0
 11
170.794147684
 21
1348.199042337
 31
0.0
  0
LINE
  8
0
  6
CONTINUOUS
 62
     6
 10
160.221347684
 20
1307.373746261
 30
0.0
 11
160.221347684
 21
1348.199042337
 31
0.0
  0
LINE
  8
0
  6
CONTINUOUS
 62
     6
 10
187.437347684
 20
1307.373746261
 30
0.0
 11
187.437347684
 21
1337.831042337
 31
0.0
  0
LINE
  8
0
  6
CONTINUOUS
 62
     6
 10
214.317347684
 20
1348.199042337
 30
0.0
 11
214.317347684
 21
1307.373746261
 31
0.0
  0
LINE
  8
0
  6
CONTINUOUS
 62
     6
 10
187.437347684
 20
1337.831042337
 30
0.0
 11
184.94423925
 21
1331.598271253
 31
0.0
  0
LINE
  8
0
  6
CONTINUOUS
 62
     6
 10
187.437347684
 20
1337.831042337
 30
0.0
 11
189.930456118
 21
1331.598271253
 31
0.0
  0
TEXT
  8
0
  6
CONTINUOUS
 62
     3
 10
522.510909048
 20
1289.150572856
 30
0.0
 40
14.4
  1
１１　１２　１３　　　４０　４１　１　　２　　　３　　　４　　　５　　　６
 50
0.0
 41
0.911
 51
0.0
  7
KANJI40
  0
POINT
  8
0
  6
CONTINUOUS
 62
     6
 10
528.621347684
 20
1336.199042337
 30
0.0
  0
POINT
  8
0
  6
CONTINUOUS
 62
     6
 10
582.717347684
 20
1336.199042337
 30
0.0
  0
LINE
  8
0
  6
CONTINUOUS
 62
     6
 10
539.194147684
 20
1348.199042337
 30
0.0
 11
544.476235385
 21
1358.102956776
 31
0.0
  0
LINE
  8
0
  6
CONTINUOUS
 62
     6
 10
544.476235385
 20
1358.102956776
 30
0.0
 11
550.997863813
 21
1339.842397176
 31
0.0
  0
LINE
  8
0
  6
CONTINUOUS
 62
     6
 10
559.533347684
 20
1358.279042337
 30
0.0
 11
566.925347684
 21
1340.135042337
 31
0.0
  0
LINE
  8
0
  6
CONTINUOUS
 62
     6
 10
550.997863813
 20
1339.842397176
 30
0.0
 11
559.533347684
 21
1358.279042337
 31
0.0
  0
LINE
  8
0
  6
CONTINUOUS
 62
     6
 10
566.925347684
 20
1340.135042337
 30
0.0
 11
570.285347684
 21
1348.199042337
 31
0.0
  0
LINE
  8
0
  6
CONTINUOUS
 62
     6
 10
570.285347684
 20
1348.199042337
 30
0.0
 11
582.717347684
 21
1348.199042337
 31
0.0
  0
LINE
  8
0
  6
CONTINUOUS
 62
     6
 10
528.621347684
 20
1348.199042337
 30
0.0
 11
539.194147684
 21
1348.199042337
 31
0.0
  0
LINE
  8
0
  6
CONTINUOUS
 62
     6
 10
528.621347684
 20
1307.373746261
 30
0.0
 11
528.621347684
 21
1348.199042337
 31
0.0
  0
LINE
  8
0
  6
CONTINUOUS
 62
     6
 10
555.837347684
 20
1307.373746261
 30
0.0
 11
555.837347684
 21
1337.831042337
 31
0.0
  0
LINE
  8
0
  6
CONTINUOUS
 62
     6
 10
582.717347684
 20
1348.199042337
 30
0.0
 11
582.717347684
 21
1307.373746261
 31
0.0
  0
LINE
  8
0
  6
CONTINUOUS
 62
     6
 10
555.837347684
 20
1337.831042337
 30
0.0
 11
553.34423925
 21
1331.598271253
 31
0.0
  0
LINE
  8
0
  6
CONTINUOUS
 62
     6
 10
555.837347684
 20
1337.831042337
 30
0.0
 11
558.330456118
 21
1331.598271253
 31
0.0
  0
CIRCLE
  8
0
  6
CONTINUOUS
 62
     6
 10
530.164641878
 20
1246.642753509
 30
0.0
 40
3.936205455
  0
LINE
  8
0
  6
CONTINUOUS
 62
     6
 10
530.407963751
 20
1242.615699739
 30
0.0
 11
534.165854314
 21
1221.174046359
 31
0.0
  0
LINE
  8
0
  6
CONTINUOUS
 62
     6
 10
530.407963751
 20
1242.615699739
 30
0.0
 11
534.94523841
 21
1243.371912182
 31
0.0
  0
LINE
  8
0
  6
CONTINUOUS
 62
     6
 10
534.94523841
 20
1243.371912182
 30
0.0
 11
538.703424491
 21
1221.930308055
 31
0.0
  0
LINE
  8
0
  6
CONTINUOUS
 62
     6
 10
530.164641878
 20
1250.578958964
 30
0.0
 11
530.164641878
 21
1258.492918711
 31
0.0
  0
LINE
  8
0
  6
CONTINUOUS
 62
     6
 10
581.189527411
 20
1258.492918711
 30
0.0
 11
530.164641878
 21
1258.492918711
 31
0.0
  0
LINE
  8
0
  6
CONTINUOUS
 62
     6
 10
581.189527411
 20
1206.935916515
 30
0.0
 11
581.189527411
 21
1258.492918711
 31
0.0
  0
CIRCLE
  8
0
  6
CONTINUOUS
 62
     6
 10
657.726855709
 20
1246.642753509
 30
0.0
 40
3.936205455
  0
LINE
  8
0
  6
CONTINUOUS
 62
     6
 10
657.483533837
 20
1242.615699739
 30
0.0
 11
653.725643274
 21
1221.174046359
 31
0.0
  0
LINE
  8
0
  6
CONTINUOUS
 62
     6
 10
657.483533837
 20
1242.615699739
 30
0.0
 11
652.946259178
 21
1243.371912182
 31
0.0
  0
LINE
  8
0
  6
CONTINUOUS
 62
     6
 10
652.946259178
 20
1243.371912182
 30
0.0
 11
649.188073096
 21
1221.930308055
 31
0.0
  0
LINE
  8
0
  6
CONTINUOUS
 62
     6
 10
657.726855709
 20
1250.578958964
 30
0.0
 11
657.726855709
 21
1258.492918711
 31
0.0
  0
LINE
  8
0
  6
CONTINUOUS
 62
     6
 10
606.701970177
 20
1258.492918711
 30
0.0
 11
657.726855709
 21
1258.492918711
 31
0.0
  0
LINE
  8
0
  6
CONTINUOUS
 62
     6
 10
606.701970177
 20
1206.935916515
 30
0.0
 11
606.701970177
 21
1258.492918711
 31
0.0
  0
TEXT
  8
0
  6
CONTINUOUS
 62
     6
 10
614.689010392
 20
1262.486688026
 30
0.78624
 40
11.232
  1
ＬＳ１２
 50
0.0
 41
0.8
 51
0.0
  7
KANJI39
  0
TEXT
  8
0
  6
CONTINUOUS
 62
     6
 10
535.373634093
 20
1262.486688026
 30
0.78624
 40
11.232
  1
ＬＳ１１
 50
0.0
 41
0.8
 51
0.0
  7
KANJI39
  0
LINE
  8
0
  6
CONTINUOUS
 62
     2
 10
517.408420495
 20
1206.935916515
 30
0.0
 11
517.408420495
 21
1185.068108429
 31
0.0
  0
LINE
  8
0
  6
CONTINUOUS
 62
     2
 10
542.920863261
 20
1206.935916515
 30
0.0
 11
542.920863261
 21
1185.068108429
 31
0.0
  0
LINE
  8
0
  6
CONTINUOUS
 62
     2
 10
568.433306028
 20
1206.935916515
 30
0.0
 11
568.433306028
 21
1185.068108429
 31
0.0
  0
LINE
  8
0
  6
CONTINUOUS
 62
     2
 10
593.945748794
 20
1206.935916515
 30
0.0
 11
593.945748794
 21
1185.068108429
 31
0.0
  0
LINE
  8
0
  6
CONTINUOUS
 62
     2
 10
619.45819156
 20
1206.935916515
 30
0.0
 11
619.45819156
 21
1185.068108429
 31
0.0
  0
LINE
  8
0
  6
CONTINUOUS
 62
     2
 10
644.970634326
 20
1206.935916515
 30
0.0
 11
644.970634326
 21
1185.068108429
 31
0.0
  0
LINE
  8
0
  6
CONTINUOUS
 62
     6
 10
534.165854314
 20
1221.174046359
 30
0.0
 11
538.703424491
 21
1221.930308055
 31
0.0
  0
CIRCLE
  8
0
  6
CONTINUOUS
 62
     6
 10
530.164641878
 20
1220.386805268
 30
0.0
 40
3.936205455
  0
CIRCLE
  8
0
  6
CONTINUOUS
 62
     6
 10
550.523571206
 20
1229.476524162
 30
0.0
 40
3.936205455
  0
LINE
  8
0
  6
CONTINUOUS
 62
     6
 10
554.459776661
 20
1229.476524162
 30
0.0
 11
555.677084644
 21
1229.476524162
 31
0.0
  0
LINE
  8
0
  6
CONTINUOUS
 62
     6
 10
530.164641878
 20
1216.450599813
 30
0.0
 11
530.164641878
 21
1206.935916515
 31
0.0
  0
LINE
  8
0
  6
CONTINUOUS
 62
     6
 10
555.677084644
 20
1229.476524162
 30
0.0
 11
555.677084644
 21
1206.935916515
 31
0.0
  0
LINE
  8
0
  6
CONTINUOUS
 62
     6
 10
653.725643274
 20
1221.174046359
 30
0.0
 11
649.188073096
 21
1221.930308055
 31
0.0
  0
CIRCLE
  8
0
  6
CONTINUOUS
 62
     6
 10
657.726855709
 20
1220.386805268
 30
0.0
 40
3.936205455
  0
CIRCLE
  8
0
  6
CONTINUOUS
 62
     6
 10
637.367926382
 20
1229.476524162
 30
0.0
 40
3.936205455
  0
LINE
  8
0
  6
CONTINUOUS
 62
     6
 10
633.431720927
 20
1229.476524162
 30
0.0
 11
632.214412943
 21
1229.476524162
 31
0.0
  0
LINE
  8
0
  6
CONTINUOUS
 62
     6
 10
657.726855709
 20
1216.450599813
 30
0.0
 11
657.726855709
 21
1206.935916515
 31
0.0
  0
LINE
  8
0
  6
CONTINUOUS
 62
     6
 10
632.214412943
 20
1229.476524162
 30
0.0
 11
632.214412943
 21
1206.935916515
 31
0.0
  0
LINE
  8
0
  6
CONTINUOUS
 62
     2
 10
670.483077093
 20
1206.935916515
 30
0.0
 11
670.483077093
 21
1185.068108429
 31
0.0
  0
TEXT
  8
0
  6
CONTINUOUS
 62
     3
 10
524.347996451
 20
1188.02384711
 30
0.0
 40
14.37696
  1
２１　２２　２３　２４　　２５　　２６　　
 50
0.0
 41
0.9125
 51
0.0
  7
KANJI38
  0
LINE
  8
0
  6
CONTINUOUS
 62
     2
 10
517.408420495
 20
1185.068108429
 30
0.0
 11
670.483077093
 21
1185.068108429
 31
0.0
  0
LINE
  8
0
  6
CONTINUOUS
 62
     2
 10
517.408420495
 20
1206.935916515
 30
0.0
 11
670.483077093
 21
1206.935916515
 31
0.0
  0
CIRCLE
  8
0
  6
CONTINUOUS
 62
     6
 10
683.239298476
 20
1246.642753509
 30
0.0
 40
3.936205455
  0
LINE
  8
0
  6
CONTINUOUS
 62
     6
 10
683.482620348
 20
1242.615699739
 30
0.0
 11
687.240510911
 21
1221.174046359
 31
0.0
  0
LINE
  8
0
  6
CONTINUOUS
 62
     6
 10
683.482620348
 20
1242.615699739
 30
0.0
 11
688.019895007
 21
1243.371912182
 31
0.0
  0
LINE
  8
0
  6
CONTINUOUS
 62
     6
 10
688.019895007
 20
1243.371912182
 30
0.0
 11
691.778081089
 21
1221.930308055
 31
0.0
  0
LINE
  8
0
  6
CONTINUOUS
 62
     6
 10
683.239298476
 20
1250.578958964
 30
0.0
 11
683.239298476
 21
1258.492918711
 31
0.0
  0
LINE
  8
0
  6
CONTINUOUS
 62
     6
 10
734.264184008
 20
1258.492918711
 30
0.0
 11
683.239298476
 21
1258.492918711
 31
0.0
  0
LINE
  8
0
  6
CONTINUOUS
 62
     6
 10
734.264184008
 20
1206.935916515
 30
0.0
 11
734.264184008
 21
1258.492918711
 31
0.0
  0
CIRCLE
  8
0
  6
CONTINUOUS
 62
     6
 10
810.801512307
 20
1246.642753509
 30
0.0
 40
3.936205455
  0
LINE
  8
0
  6
CONTINUOUS
 62
     6
 10
810.558190434
 20
1242.615699739
 30
0.0
 11
806.800299871
 21
1221.174046359
 31
0.0
  0
LINE
  8
0
  6
CONTINUOUS
 62
     6
 10
810.558190434
 20
1242.615699739
 30
0.0
 11
806.020915776
 21
1243.371912182
 31
0.0
  0
LINE
  8
0
  6
CONTINUOUS
 62
     6
 10
806.020915776
 20
1243.371912182
 30
0.0
 11
802.262729694
 21
1221.930308055
 31
0.0
  0
LINE
  8
0
  6
CONTINUOUS
 62
     6
 10
810.801512307
 20
1250.578958964
 30
0.0
 11
810.801512307
 21
1258.492918711
 31
0.0
  0
LINE
  8
0
  6
CONTINUOUS
 62
     6
 10
759.776626774
 20
1258.492918711
 30
0.0
 11
810.801512307
 21
1258.492918711
 31
0.0
  0
LINE
  8
0
  6
CONTINUOUS
 62
     6
 10
759.776626774
 20
1206.935916515
 30
0.0
 11
759.776626774
 21
1258.492918711
 31
0.0
  0
LINE
  8
0
  6
CONTINUOUS
 62
     2
 10
695.995519859
 20
1206.935916515
 30
0.0
 11
695.995519859
 21
1185.068108429
 31
0.0
  0
LINE
  8
0
  6
CONTINUOUS
 62
     2
 10
721.507962625
 20
1206.935916515
 30
0.0
 11
721.507962625
 21
1185.068108429
 31
0.0
  0
LINE
  8
0
  6
CONTINUOUS
 62
     2
 10
747.020405391
 20
1206.935916515
 30
0.0
 11
747.020405391
 21
1185.068108429
 31
0.0
  0
LINE
  8
0
  6
CONTINUOUS
 62
     2
 10
772.532848158
 20
1206.935916515
 30
0.0
 11
772.532848158
 21
1185.068108429
 31
0.0
  0
LINE
  8
0
  6
CONTINUOUS
 62
     2
 10
798.045290924
 20
1206.935916515
 30
0.0
 11
798.045290924
 21
1185.068108429
 31
0.0
  0
LINE
  8
0
  6
CONTINUOUS
 62
     6
 10
687.240510911
 20
1221.174046359
 30
0.0
 11
691.778081089
 21
1221.930308055
 31
0.0
  0
CIRCLE
  8
0
  6
CONTINUOUS
 62
     6
 10
683.239298476
 20
1220.386805268
 30
0.0
 40
3.936205455
  0
CIRCLE
  8
0
  6
CONTINUOUS
 62
     6
 10
703.598227803
 20
1229.476524162
 30
0.0
 40
3.936205455
  0
LINE
  8
0
  6
CONTINUOUS
 62
     6
 10
707.534433259
 20
1229.476524162
 30
0.0
 11
708.751741242
 21
1229.476524162
 31
0.0
  0
LINE
  8
0
  6
CONTINUOUS
 62
     6
 10
683.239298476
 20
1216.450599813
 30
0.0
 11
683.239298476
 21
1206.935916515
 31
0.0
  0
LINE
  8
0
  6
CONTINUOUS
 62
     6
 10
708.751741242
 20
1229.476524162
 30
0.0
 11
708.751741242
 21
1206.935916515
 31
0.0
  0
LINE
  8
0
  6
CONTINUOUS
 62
     6
 10
806.800299871
 20
1221.174046359
 30
0.0
 11
802.262729694
 21
1221.930308055
 31
0.0
  0
CIRCLE
  8
0
  6
CONTINUOUS
 62
     6
 10
810.801512307
 20
1220.386805268
 30
0.0
 40
3.936205455
  0
CIRCLE
  8
0
  6
CONTINUOUS
 62
     6
 10
790.44258298
 20
1229.476524162
 30
0.0
 40
3.936205455
  0
LINE
  8
0
  6
CONTINUOUS
 62
     6
 10
786.506377524
 20
1229.476524162
 30
0.0
 11
785.289069541
 21
1229.476524162
 31
0.0
  0
LINE
  8
0
  6
CONTINUOUS
 62
     6
 10
810.801512307
 20
1216.450599813
 30
0.0
 11
810.801512307
 21
1206.935916515
 31
0.0
  0
LINE
  8
0
  6
CONTINUOUS
 62
     6
 10
785.289069541
 20
1229.476524162
 30
0.0
 11
785.289069541
 21
1206.935916515
 31
0.0
  0
LINE
  8
0
  6
CONTINUOUS
 62
     2
 10
823.55773369
 20
1206.935916515
 30
0.0
 11
823.55773369
 21
1185.068108429
 31
0.0
  0
LINE
  8
0
  6
CONTINUOUS
 62
     2
 10
670.483077093
 20
1185.068108429
 30
0.0
 11
823.55773369
 21
1185.068108429
 31
0.0
  0
LINE
  8
0
  6
CONTINUOUS
 62
     2
 10
670.483077093
 20
1206.935916515
 30
0.0
 11
823.55773369
 21
1206.935916515
 31
0.0
  0
TEXT
  8
0
  6
CONTINUOUS
 62
     3
 10
677.422653048
 20
1188.02384711
 30
0.0
 40
14.37696
  1
２７　２８　２９　３０　　３１　　３２　　
 50
0.0
 41
0.9125
 51
0.0
  7
KANJI38
  0
TEXT
  8
0
  6
CONTINUOUS
 62
     6
 10
179.361199775
 20
1363.269123594
 30
0.78624
 40
11.232
  1
Ｐｔ
 50
0.0
 41
0.8
 51
0.0
  7
KANJI39
  0
TEXT
  8
0
  6
CONTINUOUS
 62
     6
 10
688.448290691
 20
1262.486688026
 30
0.78624
 40
11.232
  1
ＬＳ１３
 50
0.0
 41
0.8
 51
0.0
  7
KANJI39
  0
TEXT
  8
0
  6
CONTINUOUS
 62
     6
 10
767.76366699
 20
1262.486688026
 30
0.78624
 40
11.232
  1
ＬＳ１４
 50
0.0
 41
0.8
 51
0.0
  7
KANJI39
  0
TEXT
  8
0
  6
CONTINUOUS
 62
     6
 10
547.761199775
 20
1363.269123594
 30
0.78624
 40
11.232
  1
Ｐｔ
 50
0.0
 41
0.8
 51
0.0
  7
KANJI39
  0
TEXT
  8
0
  6
CONTINUOUS
 62
     6
 10
136.408220643
 20
1525.570112111
 30
0.0
 40
13.9932
  1
ＬＳ１１，１２：位置リミットスイッチ　［２カム用］
 50
0.0
 41
0.943315325
 51
0.0
  7
KANJI41
  0
TEXT
  8
0
  6
CONTINUOUS
 62
     6
 10
136.408220643
 20
1492.615112111
 30
0.0
 40
13.9932
  1
ＬＳ１１～１４：位置リミットスイッチ　［４カム用］
 50
0.0
 41
0.943315325
 51
0.0
  7
KANJI41
  0
LINE
  8
0
  6
CONTINUOUS
 62
     6
 10
471.259958074
 20
1521.732311792
 30
0.0
 11
131.717575809
 21
1521.732311792
 31
0.0
  0
LINE
  8
0
  6
CONTINUOUS
 62
     6
 10
471.259958074
 20
1488.777311792
 30
0.0
 11
131.717575809
 21
1488.777311792
 31
0.0
  0
TEXT
  8
0
  6
CONTINUOUS
 62
     6
 10
136.408220643
 20
1624.435112111
 30
0.0
 40
13.9932
  1
ＬＳ０１　　　：推力リミッタ（前進時過負荷用）
 50
0.0
 41
0.943315325
 51
0.0
  7
KANJI41
  0
TEXT
  8
0
  6
CONTINUOUS
 62
     6
 10
136.408220643
 20
1591.480112111
 30
0.0
 40
13.9932
  1
ＬＳ０２　　　：推力リミッタ（後進時過負荷用）
 50
0.0
 41
0.943315325
 51
0.0
  7
KANJI41
  0
TEXT
  8
0
  6
CONTINUOUS
 62
     6
 10
136.408220643
 20
1558.525112111
 30
0.0
 40
13.9932
  1
ＬＳＡ　　　　：安全リミットスイッチ
 50
0.0
 41
0.943315325
 51
0.0
  7
KANJI41
  0
TEXT
  8
0
  6
CONTINUOUS
 62
     6
 10
136.408220643
 20
1459.660112111
 30
0.0
 40
13.9932
  1
Ｐｔ　　　　　：ポテンションメータ（１ｋΩ）
 50
0.0
 41
0.943315325
 51
0.0
  7
KANJI41
  0
LINE
  8
0
  6
CONTINUOUS
 62
     6
 10
471.259958074
 20
1620.597311792
 30
0.0
 11
131.717575809
 21
1620.597311792
 31
0.0
  0
LINE
  8
0
  6
CONTINUOUS
 62
     6
 10
471.259958074
 20
1587.642311792
 30
0.0
 11
131.717575809
 21
1587.642311792
 31
0.0
  0
LINE
  8
0
  6
CONTINUOUS
 62
     6
 10
471.259958074
 20
1554.687311792
 30
0.0
 11
131.717575809
 21
1554.687311792
 31
0.0
  0
LINE
  8
0
  6
CONTINUOUS
 62
     6
 10
471.259958074
 20
1455.822311792
 30
0.0
 11
131.717575809
 21
1455.822311792
 31
0.0
  0
TEXT
  8
0
  6
CONTINUOUS
 62
     6
 10
416.244011737
 20
1418.308448882
 30
0.0
 40
18.0
  1
ポジショナ内端子台配列
 50
0.0
 41
0.9
 51
0.0
  7
KANJI22
  0
LINE
  8
0
  6
CONTINUOUS
 62
     2
 10
207.12
 20
1391.1
 30
0.0
 11
195.528890085
 21
1394.205828541
 31
0.0
  0
LINE
  8
0
  6
CONTINUOUS
 62
     2
 10
207.12
 20
1391.1
 30
0.0
 11
195.528890085
 21
1387.994171459
 31
0.0
  0
LINE
  8
0
  6
CONTINUOUS
 62
     2
 10
207.12
 20
1391.1
 30
0.0
 11
165.72
 21
1391.1
 31
0.0
  0
TEXT
  8
0
  6
CONTINUOUS
 62
     3
 10
174.12
 20
1397.1
 30
0.0
 40
12.0
  1
前進
 50
0.0
 41
0.85
 51
0.0
  7
KANJI42
  0
LINE
  8
0
  6
CONTINUOUS
 62
     2
 10
575.52
 20
1391.1
 30
0.0
 11
563.928890085
 21
1394.205828541
 31
0.0
  0
LINE
  8
0
  6
CONTINUOUS
 62
     2
 10
575.52
 20
1391.1
 30
0.0
 11
563.928890085
 21
1387.994171459
 31
0.0
  0
LINE
  8
0
  6
CONTINUOUS
 62
     2
 10
575.52
 20
1391.1
 30
0.0
 11
534.12
 21
1391.1
 31
0.0
  0
TEXT
  8
0
  6
CONTINUOUS
 62
     3
 10
542.52
 20
1397.1
 30
0.0
 40
12.0
  1
前進
 50
0.0
 41
0.85
 51
0.0
  7
KANJI42
  0
LINE
  8
0
  6
LTYPE2
 62
     6
 10
480.72
 20
1386.9
 30
0.0
 11
480.72
 21
1163.7
 31
0.0
  0
TEXT
  8
0
  6
CONTINUOUS
 62
     6
 10
128.814567657
 20
1115.299357623
 30
1.82231734
 40
18.223173404
  1
エコノストップモータ
 50
0.0
 41
0.66671875
 51
0.0
  7
KANJI43
  0
LINE
  8
0
  6
LTYPE2
 62
     6
 10
272.996315633
 20
1104.9
 30
0.0
 11
116.52
 21
1104.9
 31
0.0
  0
CIRCLE
  8
0
  6
CONTINUOUS
 62
     6
 10
116.52
 20
1081.282767268
 30
0.0
 40
5.24827394
  0
LINE
  8
0
  6
CONTINUOUS
 62
     6
 10
110.490259572
 20
1075.25302684
 30
0.0
 11
122.7362321
 21
1087.498999368
 31
0.0
  0
CIRCLE
  8
0
  6
CONTINUOUS
 62
     6
 10
170.31480789
 20
1050.667835948
 30
0.0
 40
21.867808085
  0
TEXT
  8
0
  6
CONTINUOUS
 62
     6
 10
161.130328494
 20
1040.171288067
 30
2.186780809
 40
21.867808085
  1
Ｍ
 50
0.0
 41
0.9
 51
0.0
  7
KANJI44
  0
LINE
  8
0
  6
CONTINUOUS
 62
     6
 10
141.449301217
 20
1020.052904629
 30
0.0
 11
155.00734223
 21
1035.79772645
 31
0.0
  0
LINE
  8
0
  6
CONTINUOUS
 62
     6
 10
141.449301217
 20
1081.282767268
 30
0.0
 11
155.00734223
 21
1065.537945446
 31
0.0
  0
LINE
  8
0
  6
CONTINUOUS
 62
     6
 10
141.449301217
 20
1081.282767268
 30
0.0
 11
121.76827394
 21
1081.282767268
 31
0.0
  0
LINE
  8
0
  6
CONTINUOUS
 62
     6
 10
148.884355966
 20
1050.667835948
 30
0.0
 11
121.76827394
 21
1050.667835948
 31
0.0
  0
LINE
  8
0
  6
CONTINUOUS
 62
     6
 10
141.449301217
 20
1020.052904629
 30
0.0
 11
121.76827394
 21
1020.052904629
 31
0.0
  0
CIRCLE
  8
0
  6
CONTINUOUS
 62
     6
 10
116.52
 20
1050.667835948
 30
0.0
 40
5.24827394
  0
LINE
  8
0
  6
CONTINUOUS
 62
     6
 10
110.490259572
 20
1044.638095521
 30
0.0
 11
122.7362321
 21
1056.884068048
 31
0.0
  0
CIRCLE
  8
0
  6
CONTINUOUS
 62
     6
 10
116.52
 20
1020.052904629
 30
0.0
 40
5.24827394
  0
LINE
  8
0
  6
CONTINUOUS
 62
     6
 10
110.490259572
 20
1014.023164201
 30
0.0
 11
122.7362321
 21
1026.269136729
 31
0.0
  0
LINE
  8
0
  6
LTYPE2
 62
     6
 10
272.996315633
 20
990.405921469
 30
0.0
 11
116.52
 21
990.405921469
 31
0.0
  0
TEXT
  8
0
  6
CONTINUOUS
 62
     2
 10
122.634472037
 20
960.154685773
 30
0.0
 40
18.72
  1
モーター結線図
 50
0.0
 41
0.925
 51
0.0
  7
KANJI45
  0
TEXT
  8
0
  6
CONTINUOUS
 62
     6
 10
201.804451533
 20
1040.761718886
 30
1.749424647
 40
17.494246468
  1
Ｂ
 50
0.0
 41
0.9
 51
0.0
  7
KANJI46
  0
CIRCLE
  8
0
  6
CONTINUOUS
 62
     6
 10
209.676862444
 20
1050.667835948
 30
0.0
 40
17.494246468
  0
LINE
  8
0
  6
LTYPE2
 62
     6
 10
272.996315633
 20
990.405921469
 30
0.0
 11
272.996315633
 21
1104.9
 31
0.0
  0
LINE
  8
0
  6
LTYPE2
 62
     6
 10
116.52
 20
1104.9
 30
0.0
 11
116.52
 21
1085.218972723
 31
0.0
  0
TEXT
  8
0
  6
CONTINUOUS
 62
     6
 10
95.478309109
 20
1088.717822017
 30
1.312068485
 40
13.120684851
  1
Ｕ
 50
0.0
 41
0.9
 51
0.0
  7
KANJI47
  0
TEXT
  8
0
  6
CONTINUOUS
 62
     6
 10
96.790377594
 20
1057.665534536
 30
1.312068485
 40
13.120684851
  1
Ｖ
 50
0.0
 41
0.9
 51
0.0
  7
KANJI47
  0
TEXT
  8
0
  6
CONTINUOUS
 62
     6
 10
98.102446079
 20
1026.613247054
 30
1.312068485
 40
13.120684851
  1
Ｗ
 50
0.0
 41
0.9
 51
0.0
  7
KANJI47
  0
LINE
  8
0
  6
LTYPE2
 62
     6
 10
116.52
 20
1076.471849489
 30
0.0
 11
116.52
 21
1054.604041404
 31
0.0
  0
LINE
  8
0
  6
LTYPE2
 62
     6
 10
116.52
 20
1045.85691817
 30
0.0
 11
116.52
 21
1025.301178569
 31
0.0
  0
LINE
  8
0
  6
LTYPE2
 62
     6
 10
116.52
 20
1014.804630688
 30
0.0
 11
116.52
 21
990.405921469
 31
0.0
  0
LINE
  8
0
  6
CONTINUOUS
 62
     2
 10
1705.32
 20
696.0
 30
0.0
 11
1849.32
 21
696.0
 31
0.0
  0
TEXT
  8
0
  6
CONTINUOUS
 62
     2
 10
1711.92
 20
532.2
 30
5.985
 40
21.0
  1
　　ポテンショメータ：　１ｋΩ
 50
0.0
 41
0.857222222
 51
0.0
  7
KANJI48
  0
TEXT
  8
0
  6
CONTINUOUS
 62
     2
 10
1711.92
 20
562.2
 30
5.985
 40
21.0
  1
　　カム式位置リミットスイッチ：　４点　　　２点
 50
0.0
 41
0.857222222
 51
0.0
  7
KANJI48
  0
TEXT
  8
0
  6
CONTINUOUS
 62
     2
 10
1711.92
 20
667.2
 30
6.0
 40
21.0
  1
１．運転時は必ずピストンロッドの回転防止を行って下さい。
 50
0.0
 41
0.857142857
 51
0.0
  7
KANJI49
  0
TEXT
  8
0
  6
CONTINUOUS
 62
     2
 10
1711.92
 20
592.2
 30
5.985
 40
21.0
  1
３．ポジショナ
 50
0.0
 41
0.857222222
 51
0.0
  7
KANJI48
  0
TEXT
  8
0
  6
CONTINUOUS
 62
     2
 10
1712.52
 20
500.1
 30
5.985
 40
21.0
  1
４．呼称ストロークは、機械的ストロークです。
 50
0.0
 41
0.857222222
 51
0.0
  7
KANJI48
  0
TEXT
  8
0
  6
CONTINUOUS
 62
     2
 10
1717.92
 20
704.4
 30
12.0
 40
24.0
  1
特記事項
 50
0.0
 41
0.9
 51
0.0
  7
KANJI50
  0
TEXT
  8
0
  6
CONTINUOUS
 62
     2
 10
1712.52
 20
434.1
 30
5.985
 40
21.0
  1
　　前後の推奨余裕寸法は、各々１０ｍｍです。
 50
0.0
 41
0.857222222
 51
0.0
  7
KANJI48
  0
LINE
  8
0
  6
CONTINUOUS
 62
     2
 10
416.082218677
 20
1081.263086418
 30
0.0
 11
423.809625287
 21
1079.192534058
 31
0.0
  0
LINE
  8
0
  6
CONTINUOUS
 62
     2
 10
416.082218677
 20
1081.263086418
 30
0.0
 11
423.809625287
 21
1083.333638779
 31
0.0
  0
LINE
  8
0
  6
CONTINUOUS
 62
     2
 10
416.082218677
 20
1081.263086418
 30
0.0
 11
553.682218677
 21
1081.263086418
 31
0.0
  0
LINE
  8
0
  6
CONTINUOUS
 62
     2
 10
553.682218677
 20
1081.263086418
 30
0.0
 11
545.954812066
 21
1083.333638779
 31
0.0
  0
LINE
  8
0
  6
CONTINUOUS
 62
     2
 10
553.682218677
 20
1081.263086418
 30
0.0
 11
545.954812066
 21
1079.192534058
 31
0.0
  0
LINE
  8
0
  6
CONTINUOUS
 62
     2
 10
553.682218677
 20
1080.063086418
 30
0.0
 11
553.682218677
 21
1077.263086418
 31
0.0
  0
LINE
  8
0
  6
CONTINUOUS
 62
     2
 10
553.682218677
 20
1081.263086418
 30
0.0
 11
561.409625287
 21
1079.192534058
 31
0.0
  0
LINE
  8
0
  6
CONTINUOUS
 62
     2
 10
553.682218677
 20
1081.263086418
 30
0.0
 11
561.409625287
 21
1083.333638779
 31
0.0
  0
LINE
  8
0
  6
CONTINUOUS
 62
     2
 10
553.682218677
 20
1081.263086418
 30
0.0
 11
756.082218677
 21
1081.263086418
 31
0.0
  0
LINE
  8
0
  6
CONTINUOUS
 62
     2
 10
756.082218677
 20
1081.263086418
 30
0.0
 11
748.354812066
 21
1083.333638779
 31
0.0
  0
LINE
  8
0
  6
CONTINUOUS
 62
     2
 10
756.082218677
 20
1081.263086418
 30
0.0
 11
748.354812066
 21
1079.192534058
 31
0.0
  0
LINE
  8
0
  6
CONTINUOUS
 62
     2
 10
553.682218677
 20
1054.933638779
 30
0.0
 11
545.954812066
 21
1057.00419114
 31
0.0
  0
LINE
  8
0
  6
CONTINUOUS
 62
     2
 10
553.682218677
 20
1054.933638779
 30
0.0
 11
545.954812066
 21
1052.863086418
 31
0.0
  0
LINE
  8
0
  6
CONTINUOUS
 62
     2
 10
541.682218677
 20
1054.933638779
 30
0.0
 11
553.682218677
 21
1054.933638779
 31
0.0
  0
LINE
  8
0
  6
CONTINUOUS
 62
     2
 10
553.682218677
 20
1054.933638779
 30
0.0
 11
574.482218677
 21
1054.933638779
 31
0.0
  0
LINE
  8
0
  6
CONTINUOUS
 62
     2
 10
574.482218677
 20
1054.933638779
 30
0.0
 11
582.209625287
 21
1052.863086418
 31
0.0
  0
LINE
  8
0
  6
CONTINUOUS
 62
     2
 10
574.482218677
 20
1054.933638779
 30
0.0
 11
582.209625287
 21
1057.00419114
 31
0.0
  0
LINE
  8
0
  6
CONTINUOUS
 62
     2
 10
416.082218677
 20
1029.663086418
 30
0.0
 11
416.082218677
 21
1023.663086418
 31
0.0
  0
LINE
  8
0
  6
CONTINUOUS
 62
     2
 10
416.082218677
 20
1027.663086418
 30
0.0
 11
423.809625287
 21
1025.592534058
 31
0.0
  0
LINE
  8
0
  6
CONTINUOUS
 62
     2
 10
416.082218677
 20
1027.663086418
 30
0.0
 11
423.809625287
 21
1029.733638779
 31
0.0
  0
LINE
  8
0
  6
CONTINUOUS
 62
     2
 10
416.082218677
 20
1027.663086418
 30
0.0
 11
574.482218677
 21
1027.663086418
 31
0.0
  0
LINE
  8
0
  6
CONTINUOUS
 62
     2
 10
574.482218677
 20
1027.663086418
 30
0.0
 11
566.754812066
 21
1029.733638779
 31
0.0
  0
LINE
  8
0
  6
CONTINUOUS
 62
     2
 10
574.482218677
 20
1027.663086418
 30
0.0
 11
566.754812066
 21
1025.592534058
 31
0.0
  0
LINE
  8
0
  6
CONTINUOUS
 62
     2
 10
574.482218677
 20
1028.863086418
 30
0.0
 11
574.482218677
 21
1023.663086418
 31
0.0
  0
LINE
  8
0
  6
CONTINUOUS
 62
     2
 10
574.482218677
 20
1027.663086418
 30
0.0
 11
582.209625287
 21
1025.592534058
 31
0.0
  0
LINE
  8
0
  6
CONTINUOUS
 62
     2
 10
574.482218677
 20
1027.663086418
 30
0.0
 11
582.209625287
 21
1029.733638779
 31
0.0
  0
LINE
  8
0
  6
CONTINUOUS
 62
     2
 10
756.082218677
 20
1024.063086418
 30
0.0
 11
756.082218677
 21
1023.663086418
 31
0.0
  0
LINE
  8
0
  6
CONTINUOUS
 62
     2
 10
416.082218677
 20
998.463086418
 30
0.0
 11
423.809625287
 21
996.392534058
 31
0.0
  0
LINE
  8
0
  6
CONTINUOUS
 62
     2
 10
416.082218677
 20
998.463086418
 30
0.0
 11
423.809625287
 21
1000.533638779
 31
0.0
  0
LINE
  8
0
  6
CONTINUOUS
 62
     2
 10
416.082218677
 20
998.463086418
 30
0.0
 11
733.682218677
 21
998.463086418
 31
0.0
  0
LINE
  8
0
  6
CONTINUOUS
 62
     2
 10
733.682218677
 20
998.463086418
 30
0.0
 11
725.954812066
 21
1000.533638779
 31
0.0
  0
LINE
  8
0
  6
CONTINUOUS
 62
     2
 10
733.682218677
 20
998.463086418
 30
0.0
 11
725.954812066
 21
996.392534058
 31
0.0
  0
LINE
  8
0
  6
CONTINUOUS
 62
     2
 10
733.682218677
 20
999.263086418
 30
0.0
 11
733.682218677
 21
994.463086418
 31
0.0
  0
LINE
  8
0
  6
CONTINUOUS
 62
     2
 10
733.682218677
 20
998.463086418
 30
0.0
 11
725.954812066
 21
1000.533638779
 31
0.0
  0
LINE
  8
0
  6
CONTINUOUS
 62
     2
 10
733.682218677
 20
998.463086418
 30
0.0
 11
725.954812066
 21
996.392534058
 31
0.0
  0
LINE
  8
0
  6
CONTINUOUS
 62
     2
 10
721.682218677
 20
998.463086418
 30
0.0
 11
733.682218677
 21
998.463086418
 31
0.0
  0
LINE
  8
0
  6
CONTINUOUS
 62
     2
 10
733.682218677
 20
998.463086418
 30
0.0
 11
756.082218677
 21
998.463086418
 31
0.0
  0
LINE
  8
0
  6
CONTINUOUS
 62
     2
 10
756.082218677
 20
998.463086418
 30
0.0
 11
763.809625287
 21
996.392534058
 31
0.0
  0
LINE
  8
0
  6
CONTINUOUS
 62
     2
 10
756.082218677
 20
998.463086418
 30
0.0
 11
763.809625287
 21
1000.533638779
 31
0.0
  0
LINE
  8
0
  6
CONTINUOUS
 62
     2
 10
416.082218677
 20
1092.063086418
 30
0.0
 11
416.082218677
 21
1077.263086418
 31
0.0
  0
LINE
  8
0
  6
CONTINUOUS
 62
     2
 10
756.082218677
 20
1092.063086418
 30
0.0
 11
756.082218677
 21
1077.263086418
 31
0.0
  0
LINE
  8
0
  6
CONTINUOUS
 62
     2
 10
553.682218677
 20
1080.863086418
 30
0.0
 11
553.682218677
 21
1092.063086418
 31
0.0
  0
LINE
  8
0
  6
CONTINUOUS
 62
     2
 10
574.482218677
 20
1067.733638779
 30
0.0
 11
574.482218677
 21
1050.933638779
 31
0.0
  0
LINE
  8
0
  6
CONTINUOUS
 62
     2
 10
416.082218677
 20
1077.263086418
 30
0.0
 11
416.082218677
 21
985.263086418
 31
0.0
  0
LINE
  8
0
  6
CONTINUOUS
 62
     2
 10
756.082218677
 20
1081.263086418
 30
0.0
 11
756.082218677
 21
986.463086418
 31
0.0
  0
LINE
  8
0
  6
CONTINUOUS
 62
     2
 10
574.482218677
 20
1054.933638779
 30
0.0
 11
574.482218677
 21
1018.463086418
 31
0.0
  0
LINE
  8
0
  6
CONTINUOUS
 62
     2
 10
553.682218677
 20
1081.263086418
 30
0.0
 11
553.682218677
 21
1045.663086418
 31
0.0
  0
TEXT
  8
0
  6
CONTINUOUS
 62
     3
 10
457.882218677
 20
1083.263086418
 30
0.0
 40
15.0
  1
ｍｉｎ．Ｌ
 50
0.0
 41
0.9
 51
0.0
  7
KANJI36
  0
TEXT
  8
0
  6
CONTINUOUS
 62
     3
 10
611.682218677
 20
1083.263086418
 30
0.0
 40
15.0
  1
機械的ストローク
 50
0.0
 41
0.9
 51
0.0
  7
KANJI36
  0
TEXT
  8
0
  6
CONTINUOUS
 62
     3
 10
586.482218677
 20
1056.933638779
 30
0.0
 40
15.0
  1
余裕
 50
0.0
 41
0.9
 51
0.0
  7
KANJI36
  0
TEXT
  8
0
  6
CONTINUOUS
 62
     3
 10
468.282218677
 20
1029.663086418
 30
0.0
 40
15.0
  1
常用ｍｉｎ
 50
0.0
 41
0.9
 51
0.0
  7
KANJI36
  0
TEXT
  8
0
  6
CONTINUOUS
 62
     3
 10
547.882218677
 20
1000.463086418
 30
0.0
 40
15.0
  1
常用ｍａｘ
 50
0.0
 41
0.9
 51
0.0
  7
KANJI36
  0
TEXT
  8
0
  6
CONTINUOUS
 62
     3
 10
768.082218677
 20
1000.463086418
 30
0.0
 40
15.0
  1
余裕
 50
0.0
 41
0.9
 51
0.0
  7
KANJI36
  0
LINE
  8
0
  6
CONTINUOUS
 62
     2
 10
574.482218677
 20
1054.933638779
 30
0.0
 11
614.582218677
 21
1054.933638779
 31
0.0
  0
LINE
  8
0
  6
CONTINUOUS
 62
     2
 10
756.082218677
 20
998.463086418
 30
0.0
 11
798.582218677
 21
998.463086418
 31
0.0
  0
LINE
  8
0
  6
CONTINUOUS
 62
     2
 10
392.354810339
 20
187.064606269
 30
0.0
 11
831.642219077
 21
187.064606269
 31
0.0
  0
TEXT
  8
0
  6
CONTINUOUS
 62
     2
 10
394.354810339
 20
195.064606269
 30
0.0
 40
20.0
  1
推力リミッタの作動値は、約４４００ｋｇ（設計値）
 50
0.0
 41
0.925
 51
0.0
  7
KANJI33
  0
LINE
  8
0
  6
CONTINUOUS
 62
     2
 10
1690.27
 20
714.75
 30
0.0
 11
1687.164171459
 21
703.158890085
 31
0.0
  0
LINE
  8
0
  6
CONTINUOUS
 62
     2
 10
1690.27
 20
714.75
 30
0.0
 11
1693.375828541
 21
703.158890085
 31
0.0
  0
LINE
  8
0
  6
CONTINUOUS
 62
     2
 10
1690.27
 20
714.75
 30
0.0
 11
1690.27
 21
462.75
 31
0.0
  0
LINE
  8
0
  6
CONTINUOUS
 62
     2
 10
1690.27
 20
462.75
 30
0.0
 11
1693.375828541
 21
474.341109915
 31
0.0
  0
LINE
  8
0
  6
CONTINUOUS
 62
     2
 10
1690.27
 20
462.75
 30
0.0
 11
1687.164171459
 21
474.341109915
 31
0.0
  0
LINE
  8
0
  6
CONTINUOUS
 62
     2
 10
1543.1
 20
462.75
 30
0.0
 11
1696.27
 21
462.75
 31
0.0
  0
TEXT
  8
0
  6
CONTINUOUS
 62
     3
 10
1681.27
 20
564.45
 30
0.0
 40
18.0
  1
２５２
 50
90.0
 41
0.9
 51
0.0
  7
KANJI22
  0
LINE
  8
0
  6
CONTINUOUS
 62
     2
 10
1645.41
 20
714.75
 30
0.0
 11
1696.27
 21
714.75
 31
0.0
  0
LINE
  8
0
  6
CONTINUOUS
 62
     2
 10
1543.1
 20
714.75
 30
0.0
 11
1616.75
 21
714.75
 31
0.0
  0
LINE
  8
0
  6
CONTINUOUS
 62
     2
 10
733.682218677
 20
1039.983086418
 30
0.0
 11
733.682218677
 21
985.663086418
 31
0.0
  0
LINE
  8
0
  6
CONTINUOUS
 62
     2
 10
574.482218677
 20
1027.663086418
 30
0.0
 11
733.682218677
 21
1027.663086418
 31
0.0
  0
LINE
  8
0
  6
CONTINUOUS
 62
     2
 10
733.682218677
 20
1027.663086418
 30
0.0
 11
725.954812066
 21
1029.733638779
 31
0.0
  0
LINE
  8
0
  6
CONTINUOUS
 62
     2
 10
733.682218677
 20
1027.663086418
 30
0.0
 11
725.954812066
 21
1025.592534058
 31
0.0
  0
TEXT
  8
0
  6
CONTINUOUS
 62
     3
 10
608.172218677
 20
1029.663086418
 30
0.0
 40
15.0
  1
常用ストローク
 50
0.0
 41
0.9
 51
0.0
  7
KANJI36
  0
TEXT
  8
0
  6
CONTINUOUS
 62
     2
 10
1055.133
 20
1533.99
 30
1.617
 40
16.17
  1
注意：サーマルリレー等の選定は、上記の値で選定して下さい。
 50
0.0
 41
0.9
 51
0.0
  7
KANJI51
  0
LINE
  8
0
  6
CONTINUOUS
 62
     2
 10
1045.893
 20
1529.37
 30
0.0
 11
1513.64
 21
1529.37
 31
0.0
  0
TEXT
  8
0
  6
CONTINUOUS
 62
     2
 10
1711.92
 20
629.7
 30
5.985
 40
21.0
  1
２．モートル：全閉自冷かご形３０分定格
 50
0.0
 41
0.857222222
 51
0.0
  7
KANJI48
  0
TEXT
  8
0
  6
CONTINUOUS
 62
     2
 10
345.7
 20
403.75
 30
1.5
 40
15.0
  1
　ＰＦ１
 50
0.0
 41
0.9
 51
0.0
  7
KANJI52
  0
TEXT
  8
0
  6
CONTINUOUS
 62
     2
 10
1648.5200334
 20
126.899994
 30
1.8
 40
21.0
  1
０７．１０．０５
 50
0.0
 41
0.571428571
 51
0.0
  7
KANJI53
  0
TEXT
  8
0
  6
CONTINUOUS
 62
     2
 10
1712.52
 20
465.9
 30
5.985
 40
21.0
  1
　　必ず、常用はストローク両端に余裕を取って下さい。
 50
0.0
 41
0.857222222
 51
0.0
  7
KANJI48
  0
TEXT
  8
0
  6
CONTINUOUS
 62
     6
 10
538.92
 20
1653.9
 30
0.0
 40
216.0
  1
｝
 50
0.0
 41
0.180555556
 51
0.0
  7
KANJI54
  0
TEXT
  8
0
  6
CONTINUOUS
 62
     6
 10
523.928537984
 20
1560.023705827
 30
1.77482448
 40
18.98208
  1
電気定格　　　
 50
0.0
 41
0.85
 51
0.0
  7
KANJI55
  0
TEXT
  8
0
  6
CONTINUOUS
 62
     6
 10
542.362679411
 20
1515.997934761
 30
0.0
 40
16.8
  1
ＤＣ１２５Ｖ　０．６Ａ　，ＤＣ２５０Ｖ　０．３Ａ　
 50
0.0
 41
0.714285714
 51
0.0
  7
KANJI56
  0
TEXT
  8
0
  6
CONTINUOUS
 62
     6
 10
542.362679411
 20
1538.670696145
 30
0.0
 40
16.8
  1
ＡＣ１００Ｖ　１２５Ｖ　２５０Ｖ　－１０Ａ
 50
0.0
 41
0.714285714
 51
0.0
  7
KANJI56
  0
LINE
  8
0
  6
CONTINUOUS
 62
     2
 10
1873.92
 20
896.7
 30
0.0
 11
2398.92
 21
896.7
 31
0.0
  0
LINE
  8
0
  6
CONTINUOUS
 62
     2
 10
1873.92
 20
854.7
 30
0.0
 11
2398.92
 21
854.7
 31
0.0
  0
LINE
  8
0
  6
CONTINUOUS
 62
     2
 10
1921.92
 20
1232.7
 30
0.0
 11
1921.92
 21
896.7
 31
0.0
  0
TEXT
  8
0
  6
CONTINUOUS
 62
     2
 10
1906.92
 20
865.5
 30
79.962857143
 40
22.8
  1
付属品
 50
0.0
 41
0.9
 51
0.0
  7
KANJI57
  0
TEXT
  8
0
  6
CONTINUOUS
 62
     2
 10
1906.92
 20
823.5
 30
180.445714286
 40
22.8
  1
台数
 50
0.0
 41
0.9
 51
0.0
  7
KANJI58
  0
LINE
  8
0
  6
CONTINUOUS
 62
     1
 10
1873.92
 20
1628.7
 30
0.0
 11
2398.92
 21
1628.7
 31
0.0
  0
TEXT
  8
0
  6
CONTINUOUS
 62
     2
 10
1948.92
 20
1584.9
 30
17.09964
 40
27.0
  1
マイティシリンダ仕様
 50
0.0
 41
0.9
 51
0.0
  7
KANJI59
  0
LINE
  8
0
  6
CONTINUOUS
 62
     2
 10
1921.92
 20
938.7
 30
0.0
 11
2398.92
 21
938.7
 31
0.0
  0
LINE
  8
0
  6
CONTINUOUS
 62
     2
 10
1921.92
 20
1064.7
 30
0.0
 11
2398.92
 21
1064.7
 31
0.0
  0
LINE
  8
0
  6
CONTINUOUS
 62
     2
 10
1921.92
 20
1106.7
 30
0.0
 11
2398.92
 21
1106.7
 31
0.0
  0
LINE
  8
0
  6
CONTINUOUS
 62
     2
 10
1873.92
 20
1316.7
 30
0.0
 11
2398.92
 21
1316.7
 31
0.0
  0
LINE
  8
0
  6
CONTINUOUS
 62
     2
 10
1873.92
 20
1274.7
 30
0.0
 11
2398.92
 21
1274.7
 31
0.0
  0
LINE
  8
0
  6
CONTINUOUS
 62
     2
 10
1873.92
 20
1232.7
 30
0.0
 11
2398.92
 21
1232.7
 31
0.0
  0
LINE
  8
0
  6
CONTINUOUS
 62
     2
 10
1921.92
 20
1148.7
 30
0.0
 11
2398.92
 21
1148.7
 31
0.0
  0
LINE
  8
0
  6
CONTINUOUS
 62
     2
 10
1921.92
 20
1190.7
 30
0.0
 11
2398.92
 21
1190.7
 31
0.0
  0
LINE
  8
0
  6
CONTINUOUS
 62
     2
 10
1873.92
 20
1526.7
 30
0.0
 11
2398.92
 21
1526.7
 31
0.0
  0
LINE
  8
0
  6
CONTINUOUS
 62
     2
 10
1873.92
 20
1484.7
 30
0.0
 11
2398.92
 21
1484.7
 31
0.0
  0
LINE
  8
0
  6
CONTINUOUS
 62
     2
 10
1873.92
 20
1442.7
 30
0.0
 11
2398.92
 21
1442.7
 31
0.0
  0
LINE
  8
0
  6
CONTINUOUS
 62
     2
 10
1873.92
 20
1400.7
 30
0.0
 11
2398.92
 21
1400.7
 31
0.0
  0
LINE
  8
0
  6
CONTINUOUS
 62
     2
 10
1873.92
 20
1358.7
 30
0.0
 11
2398.92
 21
1358.7
 31
0.0
  0
LINE
  8
0
  6
CONTINUOUS
 62
     2
 10
1873.92
 20
1568.7
 30
0.0
 11
2398.92
 21
1568.7
 31
0.0
  0
TEXT
  8
0
  6
CONTINUOUS
 62
     2
 10
1948.92
 20
1159.5
 30
33.439782857
 40
22.8
  1
電源電圧
 50
0.0
 41
0.9
 51
0.0
  7
KANJI60
  0
TEXT
  8
0
  6
CONTINUOUS
 62
     2
 10
1948.92
 20
1117.5
 30
60.42
 40
22.8
  1
周波数
 50
0.0
 41
0.9
 51
0.0
  7
KANJI61
  0
TEXT
  8
0
  6
CONTINUOUS
 62
     2
 10
1948.92
 20
1075.5
 30
141.36
 40
22.8
  1
電流
 50
0.0
 41
0.9
 51
0.0
  7
KANJI62
  0
TEXT
  8
0
  6
CONTINUOUS
 62
     2
 10
1948.92
 20
1033.5
 30
60.42
 40
22.8
  1
絶縁級
 50
0.0
 41
0.9
 51
0.0
  7
KANJI61
  0
TEXT
  8
0
  6
CONTINUOUS
 62
     2
 10
1906.92
 20
1537.5
 30
180.445714286
 40
22.8
  1
形式
 50
0.0
 41
0.9
 51
0.0
  7
KANJI58
  0
TEXT
  8
0
  6
CONTINUOUS
 62
     2
 10
1906.92
 20
1495.5
 30
180.445714286
 40
22.8
  1
推力
 50
0.0
 41
0.9
 51
0.0
  7
KANJI58
  0
TEXT
  8
0
  6
CONTINUOUS
 62
     2
 10
1906.92
 20
1453.5
 30
29.721428571
 40
22.8
  1
ストローク
 50
0.0
 41
0.9
 51
0.0
  7
KANJI63
  0
TEXT
  8
0
  6
CONTINUOUS
 62
     2
 10
1906.92
 20
1327.5
 30
180.445714286
 40
22.8
  1
構造
 50
0.0
 41
0.9
 51
0.0
  7
KANJI58
  0
TEXT
  8
0
  6
CONTINUOUS
 62
     2
 10
1906.92
 20
1285.5
 30
12.973851429
 40
22.8
  1
過負荷安全装置
 50
0.0
 41
0.9
 51
0.0
  7
KANJI64
  0
TEXT
  8
0
  6
CONTINUOUS
 62
     2
 10
1906.92
 20
1243.5
 30
79.962857143
 40
22.8
  1
塗装色
 50
0.0
 41
0.9
 51
0.0
  7
KANJI57
  0
TEXT
  8
0
  6
CONTINUOUS
 62
     2
 10
1882.92
 20
1369.5
 30
1.954285714
 40
22.8
  1
ピストンロッド回転トルク
 50
0.0
 41
0.9
 51
0.0
  7
KANJI65
  0
LINE
  8
0
  6
CONTINUOUS
 62
     2
 10
1873.92
 20
1022.7
 30
0.0
 11
2398.92
 21
1022.7
 31
0.0
  0
LINE
  8
0
  6
CONTINUOUS
 62
     2
 10
1921.92
 20
980.7
 30
0.0
 11
2398.92
 21
980.7
 31
0.0
  0
TEXT
  8
0
  6
CONTINUOUS
 62
     2
 10
1898.37
 20
1226.7
 30
13.2
 40
21.0
  1
モ　トル仕様
 50
0.0
 41
0.9
 51
0.0
  7
KANJI66
  0
TEXT
  8
0
  6
CONTINUOUS
 62
     2
 10
1898.37
 20
1004.7
 30
1.2
 40
21.0
  1
ブレ　キ
 50
0.0
 41
0.9
 51
0.0
  7
KANJI67
  0
LINE
  8
0
  6
CONTINUOUS
 62
     2
 10
1896.72
 20
954.9
 30
0.0
 11
1896.72
 21
942.3
 31
0.0
  0
TEXT
  8
0
  6
CONTINUOUS
 62
     2
 10
2208.42
 20
1286.7
 30
9.0
 40
21.0
  1
推力リミッタ
 50
0.0
 41
0.9
 51
0.0
  7
KANJI68
  0
TEXT
  8
0
  6
CONTINUOUS
 62
     2
 10
2265.42
 20
1034.7
 30
1.8
 40
18.0
  1
Ｅ
 50
0.0
 41
0.9
 51
0.0
  7
KANJI69
  0
TEXT
  8
0
  6
CONTINUOUS
 62
     2
 10
2221.92
 20
949.5
 30
12.0
 40
21.0
  1
同時切り
 50
0.0
 41
0.9
 51
0.0
  7
KANJI70
  0
TEXT
  8
0
  6
CONTINUOUS
 62
     2
 10
1948.92
 20
991.5
 30
141.36
 40
22.8
  1
形式
 50
0.0
 41
0.9
 51
0.0
  7
KANJI62
  0
TEXT
  8
0
  6
CONTINUOUS
 62
     2
 10
1948.92
 20
949.5
 30
33.439782857
 40
22.8
  1
操作方式
 50
0.0
 41
0.9
 51
0.0
  7
KANJI60
  0
LINE
  8
0
  6
CONTINUOUS
 62
     2
 10
1896.72
 20
1190.1
 30
0.0
 11
1896.72
 21
1176.3
 31
0.0
  0
TEXT
  8
0
  6
CONTINUOUS
 62
     2
 10
1948.92
 20
1201.5
 30
3.0
 40
22.8
  1
出力　相数　極数
 50
0.0
 41
0.9
 51
0.0
  7
KANJI71
  0
TEXT
  8
0
  6
CONTINUOUS
 62
     2
 10
1906.92
 20
1411.5
 30
12.0
 40
22.8
  1
公称速度
 50
0.0
 41
0.9
 51
0.0
  7
KANJI72
  0
TEXT
  8
0
  6
CONTINUOUS
 62
     2
 10
2030.82
 20
1410.3
 30
0.0
 40
21.0
  1
（５０／６０Ｈｚ）
 50
0.0
 41
0.628571429
 51
0.0
  7
KANJI73
  0
TEXT
  8
0
  6
CONTINUOUS
 62
     2
 10
2151.42
 20
991.95
 30
3.3
 40
20.4
  1
スプリング制動式電磁ブレーキ
 50
0.0
 41
0.705882353
 51
0.0
  7
KANJI74
  0
TEXT
  8
0
  6
CONTINUOUS
 62
     2
 10
2370.42
 20
1159.5
 30
0.216
 40
18.0
  1
Ｖ
 50
0.0
 41
0.8
 51
0.0
  7
KANJI75
  0
TEXT
  8
0
  6
CONTINUOUS
 62
     2
 10
2359.62
 20
1117.5
 30
0.216
 40
18.0
  1
Ｈｚ
 50
0.0
 41
0.8
 51
0.0
  7
KANJI75
  0
TEXT
  8
0
  6
CONTINUOUS
 62
     2
 10
2370.42
 20
1075.5
 30
0.216
 40
18.0
  1
Ａ
 50
0.0
 41
0.8
 51
0.0
  7
KANJI75
  0
TEXT
  8
0
  6
CONTINUOUS
 62
     2
 10
2291.52
 20
1202.7
 30
1.8
 40
18.0
  1
３φ
 50
0.0
 41
0.9
 51
0.0
  7
KANJI69
  0
TEXT
  8
0
  6
CONTINUOUS
 62
     2
 10
2351.52
 20
1202.7
 30
1.8
 40
18.0
  1
４Ｐ
 50
0.0
 41
0.9
 51
0.0
  7
KANJI69
  0
TEXT
  8
0
  6
CONTINUOUS
 62
     2
 10
2149.92
 20
1244.7
 30
1.2
 40
19.2
  1
マンセル　７．５ＧＹ　５／４．５
 50
0.0
 41
0.71875
 51
0.0
  7
KANJI76
  0
TEXT
  8
0
  6
CONTINUOUS
 62
     2
 10
2149.92
 20
1160.7
 30
1.8
 40
18.0
  1
　　　　　　　／　　　
 50
0.0
 41
0.9
 51
0.0
  7
KANJI69
  0
TEXT
  8
0
  6
CONTINUOUS
 62
     2
 10
2149.92
 20
1118.7
 30
1.8
 40
18.0
  1
　　　　５０／　６０
 50
0.0
 41
0.9
 51
0.0
  7
KANJI69
  0
TEXT
  8
0
  6
CONTINUOUS
 62
     2
 10
2149.92
 20
1076.7
 30
1.8
 40
18.0
  1
　　　　　　　／　　　
 50
0.0
 41
0.9
 51
0.0
  7
KANJI69
  0
TEXT
  8
0
  6
CONTINUOUS
 62
     2
 10
2354.52
 20
1455.9
 30
0.1536
 40
19.2
  1
ｍｍ
 50
0.0
 41
0.8
 51
0.0
  7
KANJI77
  0
TEXT
  8
0
  6
CONTINUOUS
 62
     2
 10
2315.52
 20
1412.7
 30
0.0
 40
21.0
  1
ｍｍ／ｓｅｃ
 50
0.0
 41
0.571428571
 51
0.0
  7
KANJI78
  0
TEXT
  8
0
  6
CONTINUOUS
 62
     2
 10
2155.92
 20
1202.7
 30
1.8
 40
18.0
  1
　１．１ＫＷ
 50
0.0
 41
0.9
 51
0.0
  7
KANJI69
  0
TEXT
  8
0
  6
CONTINUOUS
 62
     2
 10
2208.42
 20
1328.7
 30
9.0
 40
21.0
  1
全閉屋外形
 50
0.0
 41
0.9
 51
0.0
  7
KANJI68
  0
TEXT
  8
0
  6
CONTINUOUS
 62
     2
 10
2193.72
 20
1496.7
 30
1.8
 40
18.0
  1
３９．２ＫＮ（４ｔｏｎ）
 50
0.0
 41
0.9
 51
0.0
  7
KANJI69
  0
TEXT
  8
0
  6
CONTINUOUS
 62
     2
 10
2152.92
 20
1412.7
 30
1.8
 40
18.0
  1
　１２．５／１５
 50
0.0
 41
0.9
 51
0.0
  7
KANJI69
  0
TEXT
  8
0
  6
CONTINUOUS
 62
     2
 10
2163.42
 20
1536.6
 30
1.2
 40
18.0
  1
ＭＣＬＤ４－　　ＪＰＮ
 50
0.0
 41
0.833333333
 51
0.0
  7
KANJI79
  0
TEXT
  8
0
  6
CONTINUOUS
 62
     2
 10
2186.0
 20
866.0
 30
0.0
 40
18.0
  1
手動ハンドル
 50
0.0
 41
0.9
 51
0.0
  7
KANJI22
  0
LINE
  8
0
  6
CONTINUOUS
 62
     1
 10
1873.92
 20
770.7
 30
0.0
 11
2398.92
 21
770.7
 31
0.0
  0
LINE
  8
0
  6
CONTINUOUS
 62
     2
 10
1873.92
 20
812.7
 30
0.0
 11
2398.92
 21
812.7
 31
0.0
  0
TEXT
  8
0
  6
CONTINUOUS
 62
     2
 10
2343.72
 20
782.88
 30
0.0
 40
21.0
  1
ｋｇ
 50
0.0
 41
0.9
 51
0.0
  7
KANJI80
  0
TEXT
  8
0
  6
CONTINUOUS
 62
     2
 10
1905.72
 20
781.5
 30
6.0
 40
21.0
  1
概算重量（１台当り）
 50
0.0
 41
0.857142857
 51
0.0
  7
KANJI81
  0
TEXT
  8
0
  6
CONTINUOUS
 62
     2
 10
2182.92
 20
1370.7
 30
0.0
 40
18.0
  1
７８Ｎ・ｍ（８ｋｇ・ｍ）
 50
0.0
 41
0.833333333
 51
0.0
  7
KANJI82
  0
LINE
  8
0
  6
CONTINUOUS
 62
     1
 10
1873.92
 20
1628.7
 30
0.0
 11
1873.92
 21
770.7
 31
0.0
  0
LINE
  8
0
  6
CONTINUOUS
 62
     2
 10
2149.92
 20
1568.7
 30
0.0
 11
2149.92
 21
770.7
 31
0.0
  0
LINE
  8
0
  6
CONTINUOUS
 62
     1
 10
2398.92
 20
1628.7
 30
0.0
 11
2398.92
 21
770.7
 31
0.0
  0
ENDSEC
  0
EOF
