  0
SECTION
  2
HEADER
  9
$ACADVER
  1
AC1009
  9
$DWGCODEPAGE
  3
dos932
  9
$EXTMIN
 10
0.0
 20
0.0
 30
0.0
  9
$EXTMAX
 10
2520.0
 20
1782.0
 30
0.0
  9
$LIMMIN
 10
0.0
 20
0.0
  9
$LIMMAX
 10
2520.0
 20
1782.0
  9
$LTSCALE
 40
1.0
  9
$PDMODE
 70
     0
  0
ENDSEC
  0
SECTION
  2
TABLES
  0
TABLE
  2
VPORT
 70
     1
  0
VPORT
  2
*ACTIVE
 70
     0
 10
0.0
 20
0.0
 11
1.0
 21
1.0
 12
1260.0
 22
891.0
 13
0.0
 23
0.0
 14
10.0
 24
10.0
 15
10.0
 25
10.0
 16
0.0
 26
0.0
 36
1.0
 17
0.0
 27
0.0
 37
0.0
 40
2520.0
 41
1.414141414
 42
50.0
 43
0.0
 44
0.0
 50
0.0
 51
0.0
 71
     0
 72
  1000
 73
     1
 74
     3
 75
     0
 76
     0
 77
     0
 78
     0
  0
ENDTAB
  0
TABLE
  2
LTYPE
 70
     7
  0
LTYPE
  2
CONTINUOUS
 70
    64
  3
Solid line
 72
    65
 73
     0
 40
0.0
  0
LTYPE
  2
LTYPE1
 70
    64
  3
HIDDEN
 72
    65
 73
     2
 40
18.0
 49
10.8
 49
-7.2
  0
LTYPE
  2
LTYPE2
 70
    64
  3
CENTER
 72
    65
 73
     4
 40
60.0
 49
42.0
 49
-6.0
 49
6.0
 49
-6.0
  0
LTYPE
  2
LTYPE3
 70
    64
  3
CENTER
 72
    65
 73
     4
 40
90.0
 49
63.0
 49
-9.0
 49
9.0
 49
-9.0
  0
LTYPE
  2
LTYPE4
 70
    64
  3
CENTER
 72
    65
 73
     4
 40
54.0
 49
37.8
 49
-5.4
 49
5.4
 49
-5.4
  0
LTYPE
  2
LTYPE5
 70
    64
  3
PHANTOM
 72
    65
 73
     6
 40
60.0
 49
45.0
 49
-3.0
 49
3.0
 49
-3.0
 49
3.0
 49
-3.0
  0
LTYPE
  2
LTYPE6
 70
    64
  3
CENTER
 72
    65
 73
     4
 40
120.0
 49
84.0
 49
-12.0
 49
12.0
 49
-12.0
  0
ENDTAB
  0
TABLE
  2
LAYER
 70
   128
  0
LAYER
  2
0
 70
     0
 62
     7
  6
CONTINUOUS
  0
LAYER
  2
2
 70
     0
 62
     7
  6
CONTINUOUS
  0
LAYER
  2
3
 70
     0
 62
     7
  6
CONTINUOUS
  0
LAYER
  2
4
 70
     0
 62
     7
  6
CONTINUOUS
  0
LAYER
  2
5
 70
     0
 62
     7
  6
CONTINUOUS
  0
LAYER
  2
6
 70
     0
 62
     7
  6
CONTINUOUS
  0
LAYER
  2
7
 70
     0
 62
     7
  6
CONTINUOUS
  0
LAYER
  2
8
 70
     0
 62
     7
  6
CONTINUOUS
  0
LAYER
  2
9
 70
     0
 62
     7
  6
CONTINUOUS
  0
LAYER
  2
10
 70
     0
 62
     7
  6
CONTINUOUS
  0
LAYER
  2
11
 70
     0
 62
     7
  6
CONTINUOUS
  0
LAYER
  2
12
 70
     0
 62
     7
  6
CONTINUOUS
  0
LAYER
  2
13
 70
     0
 62
     7
  6
CONTINUOUS
  0
LAYER
  2
14
 70
     0
 62
     7
  6
CONTINUOUS
  0
LAYER
  2
15
 70
     0
 62
     7
  6
CONTINUOUS
  0
LAYER
  2
16
 70
     0
 62
     7
  6
CONTINUOUS
  0
LAYER
  2
17
 70
     0
 62
     7
  6
CONTINUOUS
  0
LAYER
  2
18
 70
     0
 62
     7
  6
CONTINUOUS
  0
LAYER
  2
19
 70
     0
 62
     7
  6
CONTINUOUS
  0
LAYER
  2
20
 70
     0
 62
     7
  6
CONTINUOUS
  0
LAYER
  2
21
 70
     0
 62
     7
  6
CONTINUOUS
  0
LAYER
  2
22
 70
     0
 62
     7
  6
CONTINUOUS
  0
LAYER
  2
23
 70
     0
 62
     7
  6
CONTINUOUS
  0
LAYER
  2
24
 70
     0
 62
     7
  6
CONTINUOUS
  0
LAYER
  2
25
 70
     0
 62
     7
  6
CONTINUOUS
  0
LAYER
  2
26
 70
     0
 62
     7
  6
CONTINUOUS
  0
LAYER
  2
27
 70
     0
 62
     7
  6
CONTINUOUS
  0
LAYER
  2
28
 70
     0
 62
     7
  6
CONTINUOUS
  0
LAYER
  2
29
 70
     0
 62
     7
  6
CONTINUOUS
  0
LAYER
  2
30
 70
     0
 62
     7
  6
CONTINUOUS
  0
LAYER
  2
31
 70
     0
 62
     7
  6
CONTINUOUS
  0
LAYER
  2
32
 70
     0
 62
     7
  6
CONTINUOUS
  0
LAYER
  2
33
 70
     0
 62
     7
  6
CONTINUOUS
  0
LAYER
  2
34
 70
     0
 62
     7
  6
CONTINUOUS
  0
LAYER
  2
35
 70
     0
 62
     7
  6
CONTINUOUS
  0
LAYER
  2
36
 70
     0
 62
     7
  6
CONTINUOUS
  0
LAYER
  2
37
 70
     0
 62
     7
  6
CONTINUOUS
  0
LAYER
  2
38
 70
     0
 62
     7
  6
CONTINUOUS
  0
LAYER
  2
39
 70
     0
 62
     7
  6
CONTINUOUS
  0
LAYER
  2
40
 70
     0
 62
     7
  6
CONTINUOUS
  0
LAYER
  2
41
 70
     0
 62
     7
  6
CONTINUOUS
  0
LAYER
  2
42
 70
     0
 62
     7
  6
CONTINUOUS
  0
LAYER
  2
43
 70
     0
 62
     7
  6
CONTINUOUS
  0
LAYER
  2
44
 70
     0
 62
     7
  6
CONTINUOUS
  0
LAYER
  2
45
 70
     0
 62
     7
  6
CONTINUOUS
  0
LAYER
  2
46
 70
     0
 62
     7
  6
CONTINUOUS
  0
LAYER
  2
47
 70
     0
 62
     7
  6
CONTINUOUS
  0
LAYER
  2
48
 70
     0
 62
     7
  6
CONTINUOUS
  0
LAYER
  2
49
 70
     0
 62
     7
  6
CONTINUOUS
  0
LAYER
  2
50
 70
     0
 62
     7
  6
CONTINUOUS
  0
LAYER
  2
51
 70
     0
 62
     7
  6
CONTINUOUS
  0
LAYER
  2
52
 70
     0
 62
     7
  6
CONTINUOUS
  0
LAYER
  2
53
 70
     0
 62
     7
  6
CONTINUOUS
  0
LAYER
  2
54
 70
     0
 62
     7
  6
CONTINUOUS
  0
LAYER
  2
55
 70
     0
 62
     7
  6
CONTINUOUS
  0
LAYER
  2
56
 70
     0
 62
     7
  6
CONTINUOUS
  0
LAYER
  2
57
 70
     0
 62
     7
  6
CONTINUOUS
  0
LAYER
  2
58
 70
     0
 62
     7
  6
CONTINUOUS
  0
LAYER
  2
59
 70
     0
 62
     7
  6
CONTINUOUS
  0
LAYER
  2
60
 70
     0
 62
     7
  6
CONTINUOUS
  0
LAYER
  2
61
 70
     0
 62
     7
  6
CONTINUOUS
  0
LAYER
  2
62
 70
     0
 62
     7
  6
CONTINUOUS
  0
LAYER
  2
63
 70
     0
 62
     7
  6
CONTINUOUS
  0
LAYER
  2
64
 70
     0
 62
     7
  6
CONTINUOUS
  0
LAYER
  2
65
 70
     0
 62
     7
  6
CONTINUOUS
  0
LAYER
  2
66
 70
     0
 62
     7
  6
CONTINUOUS
  0
LAYER
  2
67
 70
     0
 62
     7
  6
CONTINUOUS
  0
LAYER
  2
68
 70
     0
 62
     7
  6
CONTINUOUS
  0
LAYER
  2
69
 70
     0
 62
     7
  6
CONTINUOUS
  0
LAYER
  2
70
 70
     0
 62
     7
  6
CONTINUOUS
  0
LAYER
  2
71
 70
     0
 62
     7
  6
CONTINUOUS
  0
LAYER
  2
72
 70
     0
 62
     7
  6
CONTINUOUS
  0
LAYER
  2
73
 70
     0
 62
     7
  6
CONTINUOUS
  0
LAYER
  2
74
 70
     0
 62
     7
  6
CONTINUOUS
  0
LAYER
  2
75
 70
     0
 62
     7
  6
CONTINUOUS
  0
LAYER
  2
76
 70
     0
 62
     7
  6
CONTINUOUS
  0
LAYER
  2
77
 70
     0
 62
     7
  6
CONTINUOUS
  0
LAYER
  2
78
 70
     0
 62
     7
  6
CONTINUOUS
  0
LAYER
  2
79
 70
     0
 62
     7
  6
CONTINUOUS
  0
LAYER
  2
80
 70
     0
 62
     7
  6
CONTINUOUS
  0
LAYER
  2
81
 70
     0
 62
     7
  6
CONTINUOUS
  0
LAYER
  2
82
 70
     0
 62
     7
  6
CONTINUOUS
  0
LAYER
  2
83
 70
     0
 62
     7
  6
CONTINUOUS
  0
LAYER
  2
84
 70
     0
 62
     7
  6
CONTINUOUS
  0
LAYER
  2
85
 70
     0
 62
     7
  6
CONTINUOUS
  0
LAYER
  2
86
 70
     0
 62
     7
  6
CONTINUOUS
  0
LAYER
  2
87
 70
     0
 62
     7
  6
CONTINUOUS
  0
LAYER
  2
88
 70
     0
 62
     7
  6
CONTINUOUS
  0
LAYER
  2
89
 70
     0
 62
     7
  6
CONTINUOUS
  0
LAYER
  2
90
 70
     0
 62
     7
  6
CONTINUOUS
  0
LAYER
  2
91
 70
     0
 62
     7
  6
CONTINUOUS
  0
LAYER
  2
92
 70
     0
 62
     7
  6
CONTINUOUS
  0
LAYER
  2
93
 70
     0
 62
     7
  6
CONTINUOUS
  0
LAYER
  2
94
 70
     0
 62
     7
  6
CONTINUOUS
  0
LAYER
  2
95
 70
     0
 62
     7
  6
CONTINUOUS
  0
LAYER
  2
96
 70
     0
 62
     7
  6
CONTINUOUS
  0
LAYER
  2
97
 70
     0
 62
     7
  6
CONTINUOUS
  0
LAYER
  2
98
 70
     0
 62
     7
  6
CONTINUOUS
  0
LAYER
  2
99
 70
     0
 62
     7
  6
CONTINUOUS
  0
LAYER
  2
100
 70
     0
 62
     7
  6
CONTINUOUS
  0
LAYER
  2
101
 70
     0
 62
     7
  6
CONTINUOUS
  0
LAYER
  2
102
 70
     0
 62
     7
  6
CONTINUOUS
  0
LAYER
  2
103
 70
     0
 62
     7
  6
CONTINUOUS
  0
LAYER
  2
104
 70
     0
 62
     7
  6
CONTINUOUS
  0
LAYER
  2
105
 70
     0
 62
     7
  6
CONTINUOUS
  0
LAYER
  2
106
 70
     0
 62
     7
  6
CONTINUOUS
  0
LAYER
  2
107
 70
     0
 62
     7
  6
CONTINUOUS
  0
LAYER
  2
108
 70
     0
 62
     7
  6
CONTINUOUS
  0
LAYER
  2
109
 70
     0
 62
     7
  6
CONTINUOUS
  0
LAYER
  2
110
 70
     0
 62
     7
  6
CONTINUOUS
  0
LAYER
  2
111
 70
     0
 62
     7
  6
CONTINUOUS
  0
LAYER
  2
112
 70
     0
 62
     7
  6
CONTINUOUS
  0
LAYER
  2
113
 70
     0
 62
     7
  6
CONTINUOUS
  0
LAYER
  2
114
 70
     0
 62
     7
  6
CONTINUOUS
  0
LAYER
  2
115
 70
     0
 62
     7
  6
CONTINUOUS
  0
LAYER
  2
116
 70
     0
 62
     7
  6
CONTINUOUS
  0
LAYER
  2
117
 70
     0
 62
     7
  6
CONTINUOUS
  0
LAYER
  2
118
 70
     0
 62
     7
  6
CONTINUOUS
  0
LAYER
  2
119
 70
     0
 62
     7
  6
CONTINUOUS
  0
LAYER
  2
120
 70
     0
 62
     7
  6
CONTINUOUS
  0
LAYER
  2
121
 70
     0
 62
     7
  6
CONTINUOUS
  0
LAYER
  2
122
 70
     0
 62
     7
  6
CONTINUOUS
  0
LAYER
  2
123
 70
     0
 62
     7
  6
CONTINUOUS
  0
LAYER
  2
124
 70
     0
 62
     7
  6
CONTINUOUS
  0
LAYER
  2
125
 70
     0
 62
     7
  6
CONTINUOUS
  0
LAYER
  2
126
 70
     0
 62
     7
  6
CONTINUOUS
  0
LAYER
  2
127
 70
     0
 62
     7
  6
CONTINUOUS
  0
LAYER
  2
128
 70
     0
 62
     7
  6
CONTINUOUS
  0
ENDTAB
  0
TABLE
  2
STYLE
 70
    83
  0
STYLE
  2
STANDARD
 70
     0
 40
0.0
 41
1.0
 50
0.0
 71
     0
 42
0.2
  3
txt.shx
  4
extfont.shx
  0
STYLE
  2
KANJI0
 70
     0
 40
15.5999988
 41
0.75
 50
0.0
 71
     0
 42
15.5999988
  3
txt.shx
  4
extfont.shx
  0
STYLE
  2
KANJI1
 70
     0
 40
11.999997477
 41
0.6
 50
0.0
 71
     0
 42
11.999997477
  3
txt.shx
  4
extfont.shx
  0
STYLE
  2
KANJI2
 70
     0
 40
14.399996972
 41
0.9
 50
0.0
 71
     0
 42
14.399996972
  3
txt.shx
  4
extfont.shx
  0
STYLE
  2
KANJI3
 70
     0
 40
17.999996215
 41
0.9
 50
0.0
 71
     0
 42
17.999996215
  3
txt.shx
  4
extfont.shx
  0
STYLE
  2
KANJI4
 70
     0
 40
10.3999992
 41
0.6
 50
0.0
 71
     0
 42
10.3999992
  3
txt.shx
  4
extfont.shx
  0
STYLE
  2
KANJI5
 70
     0
 40
12.47999904
 41
0.6
 50
0.0
 71
     0
 42
12.47999904
  3
txt.shx
  4
extfont.shx
  0
STYLE
  2
KANJI6
 70
     0
 40
18.1999986
 41
0.42031746
 50
0.0
 71
     0
 42
18.1999986
  3
txt.shx
  4
extfont.shx
  0
STYLE
  2
KANJI7
 70
     0
 40
31.1999976
 41
0.9
 50
0.0
 71
     0
 42
31.1999976
  3
txt.shx
  4
extfont.shx
  0
STYLE
  2
KANJI8
 70
     0
 40
21.6
 41
1.111111111
 50
0.0
 71
     0
 42
21.6
  3
txt.shx
  4
extfont.shx
  0
STYLE
  2
KANJI9
 70
     0
 40
10.3999992
 41
0.8
 50
0.0
 71
     0
 42
10.3999992
  3
txt.shx
  4
extfont.shx
  0
STYLE
  2
KANJI10
 70
     0
 40
12.47999904
 41
0.8
 50
0.0
 71
     0
 42
12.47999904
  3
txt.shx
  4
extfont.shx
  0
STYLE
  2
KANJI11
 70
     0
 40
30.0
 41
1.0
 50
0.0
 71
     0
 42
30.0
  3
txt.shx
  4
extfont.shx
  0
STYLE
  2
KANJI12
 70
     0
 40
30.0
 41
1.0
 50
0.0
 71
     0
 42
30.0
  3
txt.shx
  4
extfont.shx
  0
STYLE
  2
KANJI13
 70
     0
 40
30.0
 41
0.8
 50
0.0
 71
     0
 42
30.0
  3
txt.shx
  4
extfont.shx
  0
STYLE
  2
KANJI14
 70
     0
 40
24.0
 41
1.0
 50
0.0
 71
     0
 42
24.0
  3
txt.shx
  4
extfont.shx
  0
STYLE
  2
KANJI15
 70
     0
 40
21.0
 41
0.857142857
 50
0.0
 71
     0
 42
21.0
  3
txt.shx
  4
extfont.shx
  0
STYLE
  2
KANJI16
 70
     0
 40
27.0
 41
0.666666667
 50
0.0
 71
     0
 42
27.0
  3
txt.shx
  4
extfont.shx
  0
STYLE
  2
KANJI17
 70
     0
 40
13.86
 41
0.9
 50
0.0
 71
     0
 42
13.86
  3
txt.shx
  4
extfont.shx
  0
STYLE
  2
KANJI18
 70
     0
 40
18.0
 41
0.9
 50
0.0
 71
     0
 42
18.0
  3
txt.shx
  4
extfont.shx
  0
STYLE
  2
KANJI19
 70
     0
 40
12.0
 41
0.9
 50
0.0
 71
     0
 42
12.0
  3
txt.shx
  4
extfont.shx
  0
STYLE
  2
KANJI20
 70
     0
 40
21.0
 41
0.793650794
 50
0.0
 71
     0
 42
21.0
  3
txt.shx
  4
extfont.shx
  0
STYLE
  2
KANJI21
 70
     0
 40
30.0
 41
0.8
 50
0.0
 71
     0
 42
30.0
  3
txt.shx
  4
extfont.shx
  0
STYLE
  2
KANJI22
 70
     0
 40
24.0
 41
0.9
 50
0.0
 71
     0
 42
24.0
  3
txt.shx
  4
extfont.shx
  0
STYLE
  2
KANJI23
 70
     0
 40
21.0
 41
0.857142857
 50
0.0
 71
     0
 42
21.0
  3
txt.shx
  4
extfont.shx
  0
STYLE
  2
KANJI24
 70
     0
 40
18.0
 41
0.9
 50
0.0
 71
     0
 42
18.0
  3
txt.shx
  4
extfont.shx
  0
STYLE
  2
KANJI25
 70
     0
 40
10.0
 41
0.85
 50
0.0
 71
     0
 42
10.0
  3
txt.shx
  4
extfont.shx
  0
STYLE
  2
KANJI26
 70
     0
 40
10.0
 41
0.75
 50
0.0
 71
     0
 42
10.0
  3
txt.shx
  4
extfont.shx
  0
STYLE
  2
KANJI27
 70
     0
 40
15.0
 41
0.9
 50
0.0
 71
     0
 42
15.0
  3
txt.shx
  4
extfont.shx
  0
STYLE
  2
KANJI28
 70
     0
 40
18.0
 41
0.9
 50
0.0
 71
     0
 42
18.0
  3
txt.shx
  4
extfont.shx
  0
STYLE
  2
KANJI29
 70
     0
 40
18.0
 41
0.9
 50
0.0
 71
     0
 42
18.0
  3
txt.shx
  4
extfont.shx
  0
STYLE
  2
KANJI30
 70
     0
 40
21.0
 41
0.914285714
 50
0.0
 71
     0
 42
21.0
  3
txt.shx
  4
extfont.shx
  0
STYLE
  2
KANJI31
 70
     0
 40
18.0
 41
0.666666667
 50
0.0
 71
     0
 42
18.0
  3
txt.shx
  4
extfont.shx
  0
STYLE
  2
KANJI32
 70
     0
 40
20.0
 41
0.925
 50
0.0
 71
     0
 42
20.0
  3
txt.shx
  4
extfont.shx
  0
STYLE
  2
KANJI33
 70
     0
 40
13.182
 41
0.85
 50
0.0
 71
     0
 42
13.182
  3
txt.shx
  4
extfont.shx
  0
STYLE
  2
KANJI34
 70
     0
 40
11.661
 41
0.822608696
 50
0.0
 71
     0
 42
11.661
  3
txt.shx
  4
extfont.shx
  0
STYLE
  2
KANJI35
 70
     0
 40
11.8638
 41
0.726495726
 50
0.0
 71
     0
 42
11.8638
  3
txt.shx
  4
extfont.shx
  0
STYLE
  2
KANJI36
 70
     4
 40
45.0
 41
0.538166667
 50
0.0
 71
     0
 42
45.0
  3
txt.shx
  4
extfont.shx
  0
STYLE
  2
KANJI37
 70
     0
 40
17.740702234
 41
0.880962996
 50
0.0
 71
     0
 42
17.740702234
  3
txt.shx
  4
extfont.shx
  0
STYLE
  2
KANJI38
 70
     0
 40
11.7
 41
0.8
 50
0.0
 71
     0
 42
11.7
  3
txt.shx
  4
extfont.shx
  0
STYLE
  2
KANJI39
 70
     0
 40
15.0
 41
0.911
 50
0.0
 71
     0
 42
15.0
  3
txt.shx
  4
extfont.shx
  0
STYLE
  2
KANJI40
 70
     0
 40
10.933904043
 41
0.9
 50
0.0
 71
     0
 42
10.933904043
  3
txt.shx
  4
extfont.shx
  0
STYLE
  2
KANJI41
 70
     0
 40
15.185977837
 41
0.66671875
 50
0.0
 71
     0
 42
15.185977837
  3
txt.shx
  4
extfont.shx
  0
STYLE
  2
KANJI42
 70
     0
 40
18.223173404
 41
0.9
 50
0.0
 71
     0
 42
18.223173404
  3
txt.shx
  4
extfont.shx
  0
STYLE
  2
KANJI43
 70
     0
 40
14.578538724
 41
0.9
 50
0.0
 71
     0
 42
14.578538724
  3
txt.shx
  4
extfont.shx
  0
STYLE
  2
KANJI44
 70
     0
 40
15.6
 41
0.925
 50
0.0
 71
     0
 42
15.6
  3
txt.shx
  4
extfont.shx
  0
STYLE
  2
KANJI45
 70
     0
 40
15.36
 41
0.9
 50
0.0
 71
     0
 42
15.36
  3
txt.shx
  4
extfont.shx
  0
STYLE
  2
KANJI46
 70
     0
 40
14.4
 41
0.9
 50
0.0
 71
     0
 42
14.4
  3
txt.shx
  4
extfont.shx
  0
STYLE
  2
KANJI47
 70
     0
 40
14.4
 41
0.9
 50
0.0
 71
     0
 42
14.4
  3
txt.shx
  4
extfont.shx
  0
STYLE
  2
KANJI48
 70
     0
 40
16.8
 41
0.9
 50
0.0
 71
     0
 42
16.8
  3
txt.shx
  4
extfont.shx
  0
STYLE
  2
KANJI49
 70
     0
 40
12.96
 41
0.740740741
 50
0.0
 71
     0
 42
12.96
  3
txt.shx
  4
extfont.shx
  0
STYLE
  2
KANJI50
 70
     0
 40
16.8
 41
0.857142857
 50
0.0
 71
     0
 42
16.8
  3
txt.shx
  4
extfont.shx
  0
STYLE
  2
KANJI51
 70
     0
 40
14.4
 41
0.833333333
 50
0.0
 71
     0
 42
14.4
  3
txt.shx
  4
extfont.shx
  0
STYLE
  2
KANJI52
 70
     0
 40
20.0
 41
0.925
 50
0.0
 71
     0
 42
20.0
  3
txt.shx
  4
extfont.shx
  0
STYLE
  2
KANJI53
 70
     0
 40
18.0
 41
0.9
 50
0.0
 71
     0
 42
18.0
  3
txt.shx
  4
extfont.shx
  0
STYLE
  2
KANJI54
 70
     0
 40
16.17
 41
0.9
 50
0.0
 71
     0
 42
16.17
  3
txt.shx
  4
extfont.shx
  0
STYLE
  2
KANJI55
 70
     0
 40
21.0
 41
0.571428571
 50
0.0
 71
     0
 42
21.0
  3
txt.shx
  4
extfont.shx
  0
STYLE
  2
KANJI56
 70
     0
 40
22.8
 41
0.9
 50
0.0
 71
     0
 42
22.8
  3
txt.shx
  4
extfont.shx
  0
STYLE
  2
KANJI57
 70
     0
 40
22.8
 41
0.9
 50
0.0
 71
     0
 42
22.8
  3
txt.shx
  4
extfont.shx
  0
STYLE
  2
KANJI58
 70
     0
 40
27.0
 41
0.9
 50
0.0
 71
     0
 42
27.0
  3
txt.shx
  4
extfont.shx
  0
STYLE
  2
KANJI59
 70
     0
 40
22.8
 41
0.9
 50
0.0
 71
     0
 42
22.8
  3
txt.shx
  4
extfont.shx
  0
STYLE
  2
KANJI60
 70
     0
 40
22.8
 41
0.9
 50
0.0
 71
     0
 42
22.8
  3
txt.shx
  4
extfont.shx
  0
STYLE
  2
KANJI61
 70
     0
 40
22.8
 41
0.9
 50
0.0
 71
     0
 42
22.8
  3
txt.shx
  4
extfont.shx
  0
STYLE
  2
KANJI62
 70
     0
 40
22.8
 41
0.9
 50
0.0
 71
     0
 42
22.8
  3
txt.shx
  4
extfont.shx
  0
STYLE
  2
KANJI63
 70
     0
 40
22.8
 41
0.9
 50
0.0
 71
     0
 42
22.8
  3
txt.shx
  4
extfont.shx
  0
STYLE
  2
KANJI64
 70
     0
 40
22.8
 41
0.9
 50
0.0
 71
     0
 42
22.8
  3
txt.shx
  4
extfont.shx
  0
STYLE
  2
KANJI65
 70
     4
 40
21.0
 41
0.9
 50
0.0
 71
     0
 42
21.0
  3
txt.shx
  4
extfont.shx
  0
STYLE
  2
KANJI66
 70
     4
 40
21.0
 41
0.9
 50
0.0
 71
     0
 42
21.0
  3
txt.shx
  4
extfont.shx
  0
STYLE
  2
KANJI67
 70
     0
 40
21.0
 41
0.9
 50
0.0
 71
     0
 42
21.0
  3
txt.shx
  4
extfont.shx
  0
STYLE
  2
KANJI68
 70
     0
 40
18.0
 41
0.9
 50
0.0
 71
     0
 42
18.0
  3
txt.shx
  4
extfont.shx
  0
STYLE
  2
KANJI69
 70
     0
 40
21.0
 41
0.9
 50
0.0
 71
     0
 42
21.0
  3
txt.shx
  4
extfont.shx
  0
STYLE
  2
KANJI70
 70
     0
 40
22.8
 41
0.9
 50
0.0
 71
     0
 42
22.8
  3
txt.shx
  4
extfont.shx
  0
STYLE
  2
KANJI71
 70
     0
 40
22.8
 41
0.9
 50
0.0
 71
     0
 42
22.8
  3
txt.shx
  4
extfont.shx
  0
STYLE
  2
KANJI72
 70
     0
 40
21.0
 41
0.628571429
 50
0.0
 71
     0
 42
21.0
  3
txt.shx
  4
extfont.shx
  0
STYLE
  2
KANJI73
 70
     0
 40
20.4
 41
0.705882353
 50
0.0
 71
     0
 42
20.4
  3
txt.shx
  4
extfont.shx
  0
STYLE
  2
KANJI74
 70
     0
 40
18.0
 41
0.8
 50
0.0
 71
     0
 42
18.0
  3
txt.shx
  4
extfont.shx
  0
STYLE
  2
KANJI75
 70
     0
 40
19.2
 41
0.71875
 50
0.0
 71
     0
 42
19.2
  3
txt.shx
  4
extfont.shx
  0
STYLE
  2
KANJI76
 70
     0
 40
19.2
 41
0.8
 50
0.0
 71
     0
 42
19.2
  3
txt.shx
  4
extfont.shx
  0
STYLE
  2
KANJI77
 70
     0
 40
21.0
 41
0.571428571
 50
0.0
 71
     0
 42
21.0
  3
txt.shx
  4
extfont.shx
  0
STYLE
  2
KANJI78
 70
     0
 40
18.0
 41
0.833333333
 50
0.0
 71
     0
 42
18.0
  3
txt.shx
  4
extfont.shx
  0
STYLE
  2
KANJI79
 70
     0
 40
21.0
 41
0.9
 50
0.0
 71
     0
 42
21.0
  3
txt.shx
  4
extfont.shx
  0
STYLE
  2
KANJI80
 70
     0
 40
21.0
 41
0.857142857
 50
0.0
 71
     0
 42
21.0
  3
txt.shx
  4
extfont.shx
  0
STYLE
  2
KANJI81
 70
     0
 40
18.0
 41
0.833333333
 50
0.0
 71
     0
 42
18.0
  3
txt.shx
  4
extfont.shx
  0
ENDTAB
  0
TABLE
  2
VIEW
 70
     0
  0
ENDTAB
  0
ENDSEC
  0
SECTION
  2
BLOCKS
  0
ENDSEC
  0
SECTION
  2
ENTITIES
  0
POLYLINE
  8
0
  6
CONTINUOUS
 62
     6
 66
     1
  0
VERTEX
  8
0
  6
CONTINUOUS
 62
     6
 10
82.92
 20
71.7
 30
0.0
  0
VERTEX
  8
0
  6
CONTINUOUS
 62
     6
 10
82.92
 20
1685.7
 30
0.0
  0
VERTEX
  8
0
  6
CONTINUOUS
 62
     6
 10
2404.92
 20
1685.7
 30
0.0
  0
SEQEND
  0
LINE
  8
0
  6
CONTINUOUS
 62
     6
 10
88.919998738
 20
161.699981077
 30
0.0
 11
478.919916738
 21
161.699981077
 31
0.0
  0
LINE
  8
0
  6
CONTINUOUS
 62
     6
 10
88.919998738
 20
77.699998738
 30
0.0
 11
478.919916738
 21
77.699998738
 31
0.0
  0
LINE
  8
0
  6
CONTINUOUS
 62
     6
 10
88.919998738
 20
77.699998738
 30
0.0
 11
88.919998738
 21
161.699981077
 31
0.0
  0
LINE
  8
0
  6
CONTINUOUS
 62
     6
 10
88.919998738
 20
119.699989908
 30
0.0
 11
478.919916738
 21
119.699989908
 31
0.0
  0
LINE
  8
0
  6
CONTINUOUS
 62
     4
 10
14.6199996
 20
76.8999996
 30
0.0
 11
77.0199948
 21
76.8999996
 31
0.0
  0
LINE
  8
0
  6
CONTINUOUS
 62
     4
 10
14.6199996
 20
108.0999972
 30
0.0
 11
77.0199948
 21
108.0999972
 31
0.0
  0
LINE
  8
0
  6
CONTINUOUS
 62
     4
 10
14.6199996
 20
139.2999948
 30
0.0
 11
77.0199948
 21
139.2999948
 31
0.0
  0
LINE
  8
0
  6
CONTINUOUS
 62
     4
 10
14.6199996
 20
170.4999924
 30
0.0
 11
77.0199948
 21
170.4999924
 31
0.0
  0
LINE
  8
0
  6
CONTINUOUS
 62
     4
 10
14.6199996
 20
201.69999
 30
0.0
 11
77.0199948
 21
201.69999
 31
0.0
  0
LINE
  8
0
  6
CONTINUOUS
 62
     4
 10
14.6199996
 20
232.8999876
 30
0.0
 11
77.0199948
 21
232.8999876
 31
0.0
  0
LINE
  8
0
  6
CONTINUOUS
 62
     4
 10
14.6199996
 20
264.0999852
 30
0.0
 11
77.0199948
 21
264.0999852
 31
0.0
  0
LINE
  8
0
  6
CONTINUOUS
 62
     4
 10
14.6199996
 20
295.2999828
 30
0.0
 11
77.0199948
 21
295.2999828
 31
0.0
  0
LINE
  8
0
  6
CONTINUOUS
 62
     4
 10
14.6199996
 20
326.4999804
 30
0.0
 11
77.0199948
 21
326.4999804
 31
0.0
  0
LINE
  8
0
  6
CONTINUOUS
 62
     4
 10
14.6199996
 20
357.699978
 30
0.0
 11
77.0199948
 21
357.699978
 31
0.0
  0
LINE
  8
0
  6
CONTINUOUS
 62
     4
 10
77.0199948
 20
76.8999996
 30
0.0
 11
77.0199948
 21
357.699978
 31
0.0
  0
LINE
  8
0
  6
CONTINUOUS
 62
     4
 10
45.8199972
 20
76.8999996
 30
0.0
 11
45.8199972
 21
326.4999804
 31
0.0
  0
TEXT
  8
0
  6
CONTINUOUS
 62
     4
 10
25.27999878
 20
85.9999989
 30
1.55999988
 40
15.5999988
  1
計
 50
0.0
 41
0.75
 51
0.0
  7
KANJI0
  0
TEXT
  8
0
  6
CONTINUOUS
 62
     4
 10
25.27999878
 20
148.91999406
 30
1.55999988
 40
15.5999988
  1
設
 50
0.0
 41
0.75
 51
0.0
  7
KANJI0
  0
TEXT
  8
0
  6
CONTINUOUS
 62
     4
 10
25.27999878
 20
179.5999917
 30
1.55999988
 40
15.5999988
  1
管
 50
0.0
 41
0.75
 51
0.0
  7
KANJI0
  0
TEXT
  8
0
  6
CONTINUOUS
 62
     4
 10
25.27999878
 20
210.7999893
 30
1.55999988
 40
15.5999988
  1
製
 50
0.0
 41
0.75
 51
0.0
  7
KANJI0
  0
TEXT
  8
0
  6
CONTINUOUS
 62
     4
 10
25.27999878
 20
241.9999869
 30
1.55999988
 40
15.5999988
  1
資
 50
0.0
 41
0.75
 51
0.0
  7
KANJI0
  0
TEXT
  8
0
  6
CONTINUOUS
 62
     4
 10
25.27999878
 20
273.1999845
 30
1.55999988
 40
15.5999988
  1
営
 50
0.0
 41
0.75
 51
0.0
  7
KANJI0
  0
TEXT
  8
0
  6
CONTINUOUS
 62
     4
 10
25.27999878
 20
304.3999821
 30
1.55999988
 40
15.5999988
  1
客
 50
0.0
 41
0.75
 51
0.0
  7
KANJI0
  0
TEXT
  8
0
  6
CONTINUOUS
 62
     4
 10
25.0199988
 20
336.8999796
 30
1.55999988
 40
15.5999988
  1
出　図
 50
0.0
 41
0.75
 51
0.0
  7
KANJI0
  0
LINE
  8
0
  6
CONTINUOUS
 62
     4
 10
14.6199996
 20
76.8999996
 30
0.0
 11
14.6199996
 21
357.699978
 31
0.0
  0
LINE
  8
0
  6
CONTINUOUS
 62
     6
 10
2404.92
 20
71.7
 30
0.0
 11
82.92
 21
71.7
 31
0.0
  0
TEXT
  8
0
  6
CONTINUOUS
 62
     4
 10
100.919996215
 20
101.699993692
 30
1.199999748
 40
11.999997477
  1
ＰＡＲＴＳ　ＬＩＳＴ
 50
0.0
 41
0.6
 51
0.0
  7
KANJI1
  0
TEXT
  8
0
  6
CONTINUOUS
 62
     4
 10
100.919996215
 20
83.699997477
 30
1.439999697
 40
14.399996972
  1
部品表
 50
0.0
 41
0.9
 51
0.0
  7
KANJI2
  0
TEXT
  8
0
  6
CONTINUOUS
 62
     3
 10
100.919996215
 20
131.699987385
 30
1.799999622
 40
17.999996215
  1
ＰＬ
 50
0.0
 41
0.9
 51
0.0
  7
KANJI3
  0
TEXT
  8
0
  6
CONTINUOUS
 62
     4
 10
370.919939446
 20
101.699993692
 30
1.199999748
 40
11.999997477
  1
Ｎ０．
 50
0.0
 41
0.6
 51
0.0
  7
KANJI1
  0
TEXT
  8
0
  6
CONTINUOUS
 62
     4
 10
370.919939446
 20
83.699997477
 30
1.439999697
 40
14.399996972
  1
項番
 50
0.0
 41
0.9
 51
0.0
  7
KANJI2
  0
LINE
  8
0
  6
CONTINUOUS
 62
     6
 10
478.919916738
 20
77.699998738
 30
0.0
 11
478.919916738
 21
161.699981077
 31
0.0
  0
LINE
  8
0
  6
CONTINUOUS
 62
     6
 10
358.919941969
 20
77.699998738
 30
0.0
 11
358.919941969
 21
161.699981077
 31
0.0
  0
LINE
  8
0
  6
CONTINUOUS
 62
     6
 10
2404.92
 20
1685.7
 30
0.0
 11
2404.92
 21
71.7
 31
0.0
  0
LINE
  8
0
  6
CONTINUOUS
 62
     6
 10
1598.920062
 20
76.8999996
 30
0.0
 11
1598.920062
 21
409.699974
 31
0.0
  0
LINE
  8
0
  6
CONTINUOUS
 62
     6
 10
2399.7200004
 20
76.8999996
 30
0.0
 11
2399.7200004
 21
409.699974
 31
0.0
  0
LINE
  8
0
  6
CONTINUOUS
 62
     4
 10
1788.7200474
 20
76.8999996
 30
0.0
 11
1788.7200474
 21
409.699974
 31
0.0
  0
LINE
  8
0
  6
CONTINUOUS
 62
     4
 10
1598.920062
 20
118.4999964
 30
0.0
 11
1788.7200474
 21
118.4999964
 31
0.0
  0
TEXT
  8
0
  6
CONTINUOUS
 62
     4
 10
1609.3200612
 20
100.2999978
 30
1.03999992
 40
10.3999992
  1
ＳＣＡＬＥ
 50
0.0
 41
0.6
 51
0.0
  7
KANJI4
  0
TEXT
  8
0
  6
CONTINUOUS
 62
     4
 10
1609.3200612
 20
84.699999
 30
1.247999904
 40
12.47999904
  1
尺度
 50
0.0
 41
0.6
 51
0.0
  7
KANJI5
  0
LINE
  8
0
  6
CONTINUOUS
 62
     6
 10
1188.1200936
 20
118.4999964
 30
0.0
 11
1598.920062
 21
118.4999964
 31
0.0
  0
LINE
  8
0
  6
CONTINUOUS
 62
     6
 10
1188.1200936
 20
76.8999996
 30
0.0
 11
2399.7200004
 21
76.8999996
 31
0.0
  0
TEXT
  8
0
  6
CONTINUOUS
 62
     6
 10
1793.920047
 20
100.2999978
 30
0.0
 40
18.1999986
  1
ＵＮＩＴＥＣ　ＩＮＤＵＳＴＲＹ　ＣＯ．，ＬＴＤ．
 50
0.0
 41
0.42031746
 51
0.0
  7
KANJI6
  0
TEXT
  8
0
  6
CONTINUOUS
 62
     6
 10
2049.175027365
 20
93.53999832
 30
3.11999976
 40
31.1999976
  1
ユニテック工業株式会社
 50
0.0
 41
0.9
 51
0.0
  7
KANJI7
  0
LINE
  8
0
  6
CONTINUOUS
 62
     6
 10
2007.575030565
 20
104.45999748
 30
0.0
 11
1993.847031621
 21
104.45999748
 31
0.0
  0
LINE
  8
0
  6
CONTINUOUS
 62
     6
 10
2007.575030565
 20
106.955997288
 30
0.0
 11
1993.847031621
 21
106.955997288
 31
0.0
  0
LINE
  8
0
  6
CONTINUOUS
 62
     6
 10
2007.575030565
 20
104.45999748
 30
0.0
 11
2021.303029509
 21
104.45999748
 31
0.0
  0
LINE
  8
0
  6
CONTINUOUS
 62
     6
 10
2007.575030565
 20
106.955997288
 30
0.0
 11
2021.303029509
 21
106.955997288
 31
0.0
  0
LINE
  8
0
  6
CONTINUOUS
 62
     6
 10
2021.303029509
 20
106.955997288
 30
0.0
 11
2021.303029509
 21
104.45999748
 31
0.0
  0
ARC
  8
0
  6
CONTINUOUS
 62
     6
 10
2024.423029269
 20
105.707997384
 30
0.0
 40
12.47999904
 50
185.739170477
 51
90.0
  0
ARC
  8
0
  6
CONTINUOUS
 62
     6
 10
2024.423029269
 20
105.707997384
 30
0.0
 40
14.975998848
 50
184.780191847
 51
90.0
  0
LINE
  8
0
  6
CONTINUOUS
 62
     6
 10
1993.847031621
 20
104.45999748
 30
0.0
 11
1993.847031621
 21
106.955997288
 31
0.0
  0
ARC
  8
0
  6
CONTINUOUS
 62
     6
 10
1990.727031861
 20
105.707997384
 30
0.0
 40
12.47999904
 50
90.0
 51
354.260829523
  0
ARC
  8
0
  6
CONTINUOUS
 62
     6
 10
1990.727031861
 20
105.707997384
 30
0.0
 40
14.975998848
 50
90.0
 51
355.219808153
  0
LINE
  8
0
  6
CONTINUOUS
 62
     6
 10
2005.703030709
 20
120.683996232
 30
0.0
 11
2005.703030709
 21
118.187996424
 31
0.0
  0
LINE
  8
0
  6
CONTINUOUS
 62
     6
 10
1990.727031861
 20
118.187996424
 30
0.0
 11
2005.703030709
 21
118.187996424
 31
0.0
  0
LINE
  8
0
  6
CONTINUOUS
 62
     6
 10
2009.447030421
 20
120.683996232
 30
0.0
 11
2009.447030421
 21
118.187996424
 31
0.0
  0
LINE
  8
0
  6
CONTINUOUS
 62
     6
 10
2024.423029269
 20
118.187996424
 30
0.0
 11
2009.447030421
 21
118.187996424
 31
0.0
  0
TEXT
  8
0
  6
CONTINUOUS
 62
     4
 10
1320.7200834
 20
100.2999978
 30
1.03999992
 40
10.3999992
  1
ＢＹ
 50
0.0
 41
0.6
 51
0.0
  7
KANJI4
  0
TEXT
  8
0
  6
CONTINUOUS
 62
     4
 10
1435.1200746
 20
100.2999978
 30
1.03999992
 40
10.3999992
  1
ＤＥＳＣＲＩＰＴＩＯＮ
 50
0.0
 41
0.6
 51
0.0
  7
KANJI4
  0
TEXT
  8
0
  6
CONTINUOUS
 62
     4
 10
1320.7200834
 20
84.699999
 30
1.247999904
 40
12.47999904
  1
担当
 50
0.0
 41
0.6
 51
0.0
  7
KANJI5
  0
TEXT
  8
0
  6
CONTINUOUS
 62
     4
 10
1450.7200734
 20
84.699999
 30
1.247999904
 40
12.47999904
  1
記　　　　事
 50
0.0
 41
0.6
 51
0.0
  7
KANJI5
  0
LINE
  8
0
  6
CONTINUOUS
 62
     4
 10
1210.2200919
 20
110.699997
 30
0.0
 11
1193.3200932
 21
84.699999
 31
0.0
  0
TEXT
  8
0
  6
CONTINUOUS
 62
     4
 10
1253.1200886
 20
100.2999978
 30
1.03999992
 40
10.3999992
  1
ＤＡＴＥ
 50
0.0
 41
0.6
 51
0.0
  7
KANJI4
  0
TEXT
  8
0
  6
CONTINUOUS
 62
     4
 10
1260.920088
 20
84.699999
 30
1.247999904
 40
12.47999904
  1
日付
 50
0.0
 41
0.6
 51
0.0
  7
KANJI5
  0
LINE
  8
0
  6
CONTINUOUS
 62
     4
 10
1193.3200932
 20
84.699999
 30
0.0
 11
1227.1200906
 21
84.699999
 31
0.0
  0
LINE
  8
0
  6
CONTINUOUS
 62
     4
 10
1210.2200919
 20
110.699997
 30
0.0
 11
1227.1200906
 21
84.699999
 31
0.0
  0
LINE
  8
0
  6
CONTINUOUS
 62
     6
 10
1188.1200936
 20
76.8999996
 30
0.0
 11
1188.1200936
 21
118.4999964
 31
0.0
  0
LINE
  8
0
  6
CONTINUOUS
 62
     4
 10
1232.3200902
 20
76.8999996
 30
0.0
 11
1232.3200902
 21
118.4999964
 31
0.0
  0
LINE
  8
0
  6
CONTINUOUS
 62
     4
 10
1305.1200846
 20
76.8999996
 30
0.0
 11
1305.1200846
 21
118.4999964
 31
0.0
  0
LINE
  8
0
  6
CONTINUOUS
 62
     4
 10
1351.920081
 20
76.8999996
 30
0.0
 11
1351.920081
 21
118.4999964
 31
0.0
  0
TEXT
  8
0
  6
CONTINUOUS
 62
     4
 10
1609.3200612
 20
308.2999818
 30
1.03999992
 40
10.3999992
  1
ＣＯＤＥ
 50
0.0
 41
0.6
 51
0.0
  7
KANJI4
  0
LINE
  8
0
  6
CONTINUOUS
 62
     4
 10
1598.920062
 20
326.4999804
 30
0.0
 11
2399.7200004
 21
326.4999804
 31
0.0
  0
TEXT
  8
0
  6
CONTINUOUS
 62
     4
 10
1609.3200612
 20
292.699983
 30
1.247999904
 40
12.47999904
  1
分類
 50
0.0
 41
0.6
 51
0.0
  7
KANJI5
  0
TEXT
  8
0
  6
CONTINUOUS
 62
     4
 10
1617.42
 20
332.7
 30
6.0
 40
21.6
  1
ご注文主
 50
0.0
 41
1.111111111
 51
0.0
  7
KANJI8
  0
TEXT
  8
0
  6
CONTINUOUS
 62
     4
 10
1609.3200612
 20
183.4999914
 30
1.03999992
 40
10.3999992
  1
ＤＲＡＷＮ
 50
0.0
 41
0.6
 51
0.0
  7
KANJI4
  0
TEXT
  8
0
  6
CONTINUOUS
 62
     4
 10
1609.3200612
 20
225.0999882
 30
1.03999992
 40
10.3999992
  1
ＤＥＳＩＧＮ
 50
0.0
 41
0.6
 51
0.0
  7
KANJI4
  0
TEXT
  8
0
  6
CONTINUOUS
 62
     4
 10
1609.3200612
 20
266.699985
 30
1.03999992
 40
10.3999992
  1
ＣＨＥＣＫ
 50
0.0
 41
0.6
 51
0.0
  7
KANJI4
  0
LINE
  8
0
  6
CONTINUOUS
 62
     4
 10
1598.920062
 20
243.2999868
 30
0.0
 11
1788.7200474
 21
243.2999868
 31
0.0
  0
LINE
  8
0
  6
CONTINUOUS
 62
     4
 10
1598.920062
 20
201.69999
 30
0.0
 11
1788.7200474
 21
201.69999
 31
0.0
  0
LINE
  8
0
  6
CONTINUOUS
 62
     4
 10
1598.920062
 20
284.8999836
 30
0.0
 11
1788.7200474
 21
284.8999836
 31
0.0
  0
TEXT
  8
0
  6
CONTINUOUS
 62
     4
 10
1609.3200612
 20
209.4999894
 30
1.247999904
 40
12.47999904
  1
設計
 50
0.0
 41
0.6
 51
0.0
  7
KANJI5
  0
TEXT
  8
0
  6
CONTINUOUS
 62
     4
 10
1609.3200612
 20
251.0999862
 30
1.247999904
 40
12.47999904
  1
検図
 50
0.0
 41
0.6
 51
0.0
  7
KANJI5
  0
LINE
  8
0
  6
CONTINUOUS
 62
     4
 10
1804.06004622
 20
284.8999836
 30
0.0
 11
2399.7200004
 21
284.8999836
 31
0.0
  0
LINE
  8
0
  6
CONTINUOUS
 62
     4
 10
1788.7200474
 20
201.69999
 30
0.0
 11
2399.7200004
 21
201.69999
 31
0.0
  0
TEXT
  8
0
  6
CONTINUOUS
 62
     4
 10
1799.1200466
 20
183.4999914
 30
1.03999992
 40
10.3999992
  1
ＤＲＡＷＩＮＧ　ＮＯ．
 50
0.0
 41
0.8
 51
0.0
  7
KANJI9
  0
TEXT
  8
0
  6
CONTINUOUS
 62
     4
 10
1799.1200466
 20
225.0999882
 30
1.03999992
 40
10.3999992
  1
ＭＦＧ　ＮＯ．
 50
0.0
 41
0.8
 51
0.0
  7
KANJI9
  0
TEXT
  8
0
  6
CONTINUOUS
 62
     4
 10
1799.1200466
 20
266.699985
 30
1.03999992
 40
10.3999992
  1
ＴＹＰＥ
 50
0.0
 41
0.8
 51
0.0
  7
KANJI9
  0
LINE
  8
0
  6
CONTINUOUS
 62
     4
 10
1804.3200462
 20
243.2999868
 30
0.0
 11
2043.5200278
 21
243.2999868
 31
0.0
  0
TEXT
  8
0
  6
CONTINUOUS
 62
     4
 10
1799.1200466
 20
165.2999928
 30
1.247999904
 40
12.47999904
  1
図　面　番　号
 50
0.0
 41
0.8
 51
0.0
  7
KANJI10
  0
TEXT
  8
0
  6
CONTINUOUS
 62
     4
 10
1799.1200466
 20
206.8999896
 30
1.247999904
 40
12.47999904
  1
製番
 50
0.0
 41
0.8
 51
0.0
  7
KANJI10
  0
TEXT
  8
0
  6
CONTINUOUS
 62
     4
 10
1799.1200466
 20
248.4999864
 30
1.247999904
 40
12.47999904
  1
機種
 50
0.0
 41
0.8
 51
0.0
  7
KANJI10
  0
LINE
  8
0
  6
CONTINUOUS
 62
     4
 10
1598.920062
 20
160.0999932
 30
0.0
 11
1788.7200474
 21
160.0999932
 31
0.0
  0
TEXT
  8
0
  6
CONTINUOUS
 62
     4
 10
1609.3200612
 20
141.8999946
 30
1.03999992
 40
10.3999992
  1
ＤＡＴＥ
 50
0.0
 41
0.6
 51
0.0
  7
KANJI4
  0
TEXT
  8
0
  6
CONTINUOUS
 62
     4
 10
1609.3200612
 20
126.2999958
 30
1.247999904
 40
12.47999904
  1
日付
 50
0.0
 41
0.6
 51
0.0
  7
KANJI5
  0
TEXT
  8
0
  6
CONTINUOUS
 62
     4
 10
1609.3200612
 20
167.8999926
 30
1.247999904
 40
12.47999904
  1
作図
 50
0.0
 41
0.6
 51
0.0
  7
KANJI5
  0
LINE
  8
0
  6
CONTINUOUS
 62
     4
 10
1788.7200474
 20
141.8999946
 30
0.0
 11
2399.7200004
 21
141.8999946
 31
0.0
  0
LINE
  8
0
  6
LTYPE1
 62
     4
 10
2225.5200138
 20
149.699994
 30
0.0
 11
2225.5200138
 21
191.2999908
 31
0.0
  0
LINE
  8
0
  6
LTYPE1
 62
     4
 10
2189.1200166
 20
149.699994
 30
0.0
 11
2189.1200166
 21
191.2999908
 31
0.0
  0
LINE
  8
0
  6
LTYPE1
 62
     4
 10
2152.7200194
 20
149.699994
 30
0.0
 11
2152.7200194
 21
191.2999908
 31
0.0
  0
LINE
  8
0
  6
LTYPE1
 62
     4
 10
2116.3200222
 20
149.699994
 30
0.0
 11
2116.3200222
 21
191.2999908
 31
0.0
  0
LINE
  8
0
  6
LTYPE1
 62
     4
 10
2079.920025
 20
149.699994
 30
0.0
 11
2079.920025
 21
191.2999908
 31
0.0
  0
LINE
  8
0
  6
LTYPE1
 62
     4
 10
2043.5200278
 20
149.699994
 30
0.0
 11
2043.5200278
 21
191.2999908
 31
0.0
  0
LINE
  8
0
  6
LTYPE1
 62
     4
 10
2007.1200306
 20
149.699994
 30
0.0
 11
2007.1200306
 21
191.2999908
 31
0.0
  0
LINE
  8
0
  6
LTYPE1
 62
     4
 10
1970.7200334
 20
149.699994
 30
0.0
 11
1970.7200334
 21
191.2999908
 31
0.0
  0
LINE
  8
0
  6
LTYPE1
 62
     4
 10
1970.7200334
 20
191.2999908
 30
0.0
 11
2225.5200138
 21
191.2999908
 31
0.0
  0
LINE
  8
0
  6
LTYPE1
 62
     4
 10
1970.7200334
 20
149.699994
 30
0.0
 11
2225.5200138
 21
149.699994
 31
0.0
  0
LINE
  8
0
  6
CONTINUOUS
 62
     4
 10
2246.3200122
 20
171.7999923
 30
0.0
 11
2256.7200114
 21
171.7999923
 31
0.0
  0
LINE
  8
0
  6
CONTINUOUS
 62
     4
 10
2311.3200072
 20
156.1999935
 30
0.0
 11
2274.92001
 21
156.1999935
 31
0.0
  0
LINE
  8
0
  6
CONTINUOUS
 62
     4
 10
2274.92001
 20
156.1999935
 30
0.0
 11
2293.1200086
 21
187.3999911
 31
0.0
  0
LINE
  8
0
  6
CONTINUOUS
 62
     4
 10
2293.1200086
 20
187.3999911
 30
0.0
 11
2311.3200072
 21
156.1999935
 31
0.0
  0
TEXT
  8
0
  6
CONTINUOUS
 62
     4
 10
2059.1200266
 20
266.699985
 30
1.03999992
 40
10.3999992
  1
ＴＩＴＬＥ
 50
0.0
 41
0.8
 51
0.0
  7
KANJI9
  0
TEXT
  8
0
  6
CONTINUOUS
 62
     4
 10
2059.1200266
 20
248.4999864
 30
1.247999904
 40
12.47999904
  1
名称
 50
0.0
 41
0.8
 51
0.0
  7
KANJI10
  0
TEXT
  8
0
  6
CONTINUOUS
 62
     2
 10
2143.92
 20
209.7
 30
15.0
 40
30.0
  1
外形寸法図
 50
0.0
 41
1.0
 51
0.0
  7
KANJI11
  0
TEXT
  8
0
  6
CONTINUOUS
 62
     2
 10
2107.92
 20
245.7
 30
4.285714286
 40
30.0
  1
マイティシリンダ
 50
0.0
 41
1.0
 51
0.0
  7
KANJI12
  0
TEXT
  8
0
  6
CONTINUOUS
 62
     2
 10
1939.2200334
 20
155.699994
 30
1.8
 40
30.0
  1
Ａ
 50
0.0
 41
0.8
 51
0.0
  7
KANJI13
  0
CIRCLE
  8
0
  6
CONTINUOUS
 62
     2
 10
1900.2200334
 20
220.199994
 30
0.0
 40
15.0
  0
TEXT
  8
0
  6
CONTINUOUS
 62
     2
 10
1888.9700334
 20
208.949994
 30
1.8
 40
24.0
  1
Ｓ
 50
0.0
 41
1.0
 51
0.0
  7
KANJI14
  0
LINE
  8
0
  6
CONTINUOUS
 62
     6
 10
2005.703030709
 20
120.683996232
 30
0.0
 11
1990.727031861
 21
120.683996232
 31
0.0
  0
LINE
  8
0
  6
CONTINUOUS
 62
     6
 10
2009.447030421
 20
120.683996232
 30
0.0
 11
2024.423029269
 21
120.683996232
 31
0.0
  0
TEXT
  8
0
  6
CONTINUOUS
 62
     2
 10
1665.9200334
 20
170.699994
 30
6.0
 40
21.0
  1
岡田
 50
0.0
 41
0.857142857
 51
0.0
  7
KANJI15
  0
LINE
  8
0
  6
CONTINUOUS
 62
     4
 10
2399.7200004
 20
368.0999772
 30
0.0
 11
2399.7200004
 21
409.699974
 31
0.0
  0
LINE
  8
0
  6
CONTINUOUS
 62
     6
 10
1599.670062
 20
368.0999772
 30
0.0
 11
2400.4700004
 21
368.0999772
 31
0.0
  0
LINE
  8
0
  6
CONTINUOUS
 62
     6
 10
1598.920062
 20
409.699974
 30
0.0
 11
2399.7200004
 21
409.699974
 31
0.0
  0
TEXT
  8
0
  6
CONTINUOUS
 62
     4
 10
1617.42
 20
374.2999968
 30
6.0
 40
21.6
  1
ご用途
 50
0.0
 41
1.111111111
 51
0.0
  7
KANJI8
  0
TEXT
  8
0
  6
CONTINUOUS
 62
     2
 10
1708.92
 20
83.7
 30
1.8
 40
27.0
  1
１／６
 50
0.0
 41
0.666666667
 51
0.0
  7
KANJI16
  0
LINE
  8
0
  6
CONTINUOUS
 62
     1
 10
1523.37
 20
1674.9
 30
0.0
 11
1523.37
 21
1554.78
 31
0.0
  0
LINE
  8
0
  6
CONTINUOUS
 62
     2
 10
1454.07
 20
1674.9
 30
0.0
 11
1454.07
 21
1554.78
 31
0.0
  0
LINE
  8
0
  6
CONTINUOUS
 62
     2
 10
1384.77
 20
1674.9
 30
0.0
 11
1384.77
 21
1554.78
 31
0.0
  0
LINE
  8
0
  6
CONTINUOUS
 62
     1
 10
1292.37
 20
1674.9
 30
0.0
 11
1292.37
 21
1554.78
 31
0.0
  0
LINE
  8
0
  6
CONTINUOUS
 62
     1
 10
1292.37
 20
1674.9
 30
0.0
 11
1523.37
 21
1674.9
 31
0.0
  0
LINE
  8
0
  6
CONTINUOUS
 62
     1
 10
1292.37
 20
1637.94
 30
0.0
 11
1523.37
 21
1637.94
 31
0.0
  0
LINE
  8
0
  6
CONTINUOUS
 62
     2
 10
1292.37
 20
1610.22
 30
0.0
 11
1523.37
 21
1610.22
 31
0.0
  0
LINE
  8
0
  6
CONTINUOUS
 62
     2
 10
1292.37
 20
1582.5
 30
0.0
 11
1523.37
 21
1582.5
 31
0.0
  0
LINE
  8
0
  6
CONTINUOUS
 62
     1
 10
1292.37
 20
1554.78
 30
0.0
 11
1523.37
 21
1554.78
 31
0.0
  0
TEXT
  8
0
  6
CONTINUOUS
 62
     2
 10
1463.31
 20
1658.73
 30
1.386
 40
13.86
  1
起動電流
 50
0.0
 41
0.9
 51
0.0
  7
KANJI17
  0
TEXT
  8
0
  6
CONTINUOUS
 62
     2
 10
1463.31
 20
1642.56
 30
1.386
 40
13.86
  1
　　　Ａ
 50
0.0
 41
0.9
 51
0.0
  7
KANJI17
  0
TEXT
  8
0
  6
CONTINUOUS
 62
     2
 10
1394.01
 20
1658.73
 30
1.386
 40
13.86
  1
定格電流
 50
0.0
 41
0.9
 51
0.0
  7
KANJI17
  0
TEXT
  8
0
  6
CONTINUOUS
 62
     2
 10
1394.01
 20
1642.56
 30
1.386
 40
13.86
  1
　　　Ａ
 50
0.0
 41
0.9
 51
0.0
  7
KANJI17
  0
TEXT
  8
0
  6
CONTINUOUS
 62
     2
 10
1300.224
 20
1589.43
 30
1.386
 40
13.86
  1
２００／６０
 50
0.0
 41
0.9
 51
0.0
  7
KANJI17
  0
TEXT
  8
0
  6
CONTINUOUS
 62
     2
 10
1300.224
 20
1658.73
 30
1.386
 40
13.86
  1
電圧／周波数
 50
0.0
 41
0.9
 51
0.0
  7
KANJI17
  0
TEXT
  8
0
  6
CONTINUOUS
 62
     2
 10
1300.224
 20
1642.56
 30
1.386
 40
13.86
  1
　Ｖ／Ｈｚ
 50
0.0
 41
0.9
 51
0.0
  7
KANJI17
  0
TEXT
  8
0
  6
CONTINUOUS
 62
     2
 10
1300.224
 20
1617.15
 30
1.386
 40
13.86
  1
２００／５０
 50
0.0
 41
0.9
 51
0.0
  7
KANJI17
  0
TEXT
  8
0
  6
CONTINUOUS
 62
     2
 10
1300.224
 20
1561.71
 30
1.386
 40
13.86
  1
２２０／６０
 50
0.0
 41
0.9
 51
0.0
  7
KANJI17
  0
LINE
  8
0
  6
CONTINUOUS
 62
     1
 10
1246.17
 20
1674.9
 30
0.0
 11
1246.17
 21
1554.78
 31
0.0
  0
LINE
  8
0
  6
CONTINUOUS
 62
     2
 10
1176.87
 20
1674.9
 30
0.0
 11
1176.87
 21
1554.78
 31
0.0
  0
LINE
  8
0
  6
CONTINUOUS
 62
     2
 10
1107.57
 20
1674.9
 30
0.0
 11
1107.57
 21
1554.78
 31
0.0
  0
LINE
  8
0
  6
CONTINUOUS
 62
     1
 10
1015.17
 20
1674.9
 30
0.0
 11
1015.17
 21
1554.78
 31
0.0
  0
LINE
  8
0
  6
CONTINUOUS
 62
     1
 10
1015.17
 20
1674.9
 30
0.0
 11
1246.17
 21
1674.9
 31
0.0
  0
LINE
  8
0
  6
CONTINUOUS
 62
     1
 10
1015.17
 20
1637.94
 30
0.0
 11
1246.17
 21
1637.94
 31
0.0
  0
LINE
  8
0
  6
CONTINUOUS
 62
     2
 10
1015.17
 20
1610.22
 30
0.0
 11
1246.17
 21
1610.22
 31
0.0
  0
LINE
  8
0
  6
CONTINUOUS
 62
     2
 10
1015.17
 20
1582.5
 30
0.0
 11
1246.17
 21
1582.5
 31
0.0
  0
LINE
  8
0
  6
CONTINUOUS
 62
     1
 10
1015.17
 20
1554.78
 30
0.0
 11
1246.17
 21
1554.78
 31
0.0
  0
TEXT
  8
0
  6
CONTINUOUS
 62
     2
 10
1186.11
 20
1658.73
 30
1.386
 40
13.86
  1
起動電流
 50
0.0
 41
0.9
 51
0.0
  7
KANJI17
  0
TEXT
  8
0
  6
CONTINUOUS
 62
     2
 10
1186.11
 20
1642.56
 30
1.386
 40
13.86
  1
　　　Ａ
 50
0.0
 41
0.9
 51
0.0
  7
KANJI17
  0
TEXT
  8
0
  6
CONTINUOUS
 62
     2
 10
1116.81
 20
1658.73
 30
1.386
 40
13.86
  1
定格電流
 50
0.0
 41
0.9
 51
0.0
  7
KANJI17
  0
TEXT
  8
0
  6
CONTINUOUS
 62
     2
 10
1116.81
 20
1642.56
 30
1.386
 40
13.86
  1
　　　Ａ
 50
0.0
 41
0.9
 51
0.0
  7
KANJI17
  0
TEXT
  8
0
  6
CONTINUOUS
 62
     2
 10
1023.024
 20
1658.73
 30
1.386
 40
13.86
  1
電圧／周波数
 50
0.0
 41
0.9
 51
0.0
  7
KANJI17
  0
TEXT
  8
0
  6
CONTINUOUS
 62
     2
 10
1023.024
 20
1642.56
 30
1.386
 40
13.86
  1
　Ｖ／Ｈｚ
 50
0.0
 41
0.9
 51
0.0
  7
KANJI17
  0
TEXT
  8
0
  6
CONTINUOUS
 62
     2
 10
1023.024
 20
1617.15
 30
1.386
 40
13.86
  1
４００／５０
 50
0.0
 41
0.9
 51
0.0
  7
KANJI17
  0
TEXT
  8
0
  6
CONTINUOUS
 62
     2
 10
1023.024
 20
1589.43
 30
1.386
 40
13.86
  1
４００／６０
 50
0.0
 41
0.9
 51
0.0
  7
KANJI17
  0
TEXT
  8
0
  6
CONTINUOUS
 62
     2
 10
1023.024
 20
1561.71
 30
1.386
 40
13.86
  1
４４０／６０
 50
0.0
 41
0.9
 51
0.0
  7
KANJI17
  0
TEXT
  8
0
  6
CONTINUOUS
 62
     2
 10
1119.267493476
 20
1615.15
 30
1.386
 40
13.86
  1
　３．２
 50
0.0
 41
0.9
 51
0.0
  7
KANJI17
  0
TEXT
  8
0
  6
CONTINUOUS
 62
     2
 10
1119.267493476
 20
1587.43
 30
1.386
 40
13.86
  1
　２．８
 50
0.0
 41
0.9
 51
0.0
  7
KANJI17
  0
TEXT
  8
0
  6
CONTINUOUS
 62
     2
 10
1119.267493476
 20
1559.71
 30
1.386
 40
13.86
  1
　２．７
 50
0.0
 41
0.9
 51
0.0
  7
KANJI17
  0
TEXT
  8
0
  6
CONTINUOUS
 62
     2
 10
1396.467493476
 20
1559.71
 30
1.386
 40
13.86
  1
　５．３
 50
0.0
 41
0.9
 51
0.0
  7
KANJI17
  0
TEXT
  8
0
  6
CONTINUOUS
 62
     2
 10
1396.467493476
 20
1587.43
 30
1.386
 40
13.86
  1
　５．２
 50
0.0
 41
0.9
 51
0.0
  7
KANJI17
  0
TEXT
  8
0
  6
CONTINUOUS
 62
     2
 10
1396.467493476
 20
1615.15
 30
1.386
 40
13.86
  1
　６．１
 50
0.0
 41
0.9
 51
0.0
  7
KANJI17
  0
TEXT
  8
0
  6
CONTINUOUS
 62
     2
 10
1465.767493476
 20
1615.15
 30
1.386
 40
13.86
  1
２５．１
 50
0.0
 41
0.9
 51
0.0
  7
KANJI17
  0
TEXT
  8
0
  6
CONTINUOUS
 62
     2
 10
1465.767493476
 20
1587.43
 30
1.386
 40
13.86
  1
２２．５
 50
0.0
 41
0.9
 51
0.0
  7
KANJI17
  0
TEXT
  8
0
  6
CONTINUOUS
 62
     2
 10
1465.767493476
 20
1559.71
 30
1.386
 40
13.86
  1
２４．８
 50
0.0
 41
0.9
 51
0.0
  7
KANJI17
  0
TEXT
  8
0
  6
CONTINUOUS
 62
     2
 10
1188.567493476
 20
1615.15
 30
1.386
 40
13.86
  1
１２．５
 50
0.0
 41
0.9
 51
0.0
  7
KANJI17
  0
TEXT
  8
0
  6
CONTINUOUS
 62
     2
 10
1188.567493476
 20
1587.43
 30
1.386
 40
13.86
  1
１１．３
 50
0.0
 41
0.9
 51
0.0
  7
KANJI17
  0
TEXT
  8
0
  6
CONTINUOUS
 62
     2
 10
1188.567493476
 20
1559.71
 30
1.386
 40
13.86
  1
１２．４
 50
0.0
 41
0.9
 51
0.0
  7
KANJI17
  0
TEXT
  8
0
  6
CONTINUOUS
 62
     2
 10
176.4
 20
26.4
 30
0.0
 40
18.0
  1
ＦＤ　Ｎｏ．ＭＣ１９８
 50
0.0
 41
0.9
 51
0.0
  7
KANJI18
  0
LINE
  8
0
  6
CONTINUOUS
 62
     1
 10
792.6199996
 20
234.233959796
 30
0.0
 11
824.6199996
 21
234.233959796
 31
0.0
  0
LINE
  8
0
  6
CONTINUOUS
 62
     1
 10
792.6199996
 20
202.233959796
 30
0.0
 11
792.6199996
 21
234.233959796
 31
0.0
  0
ARC
  8
0
  6
CONTINUOUS
 62
     1
 10
753.6199996
 20
290.733959796
 30
0.0
 40
10.0
 50
90.0
 51
180.0
  0
LINE
  8
0
  6
CONTINUOUS
 62
     1
 10
753.6199996
 20
300.733959796
 30
0.0
 11
863.6199996
 21
300.733959796
 31
0.0
  0
LINE
  8
0
  6
LTYPE2
 62
     2
 10
874.881020817
 20
276.233959796
 30
0.0
 11
783.6199996
 21
276.233959796
 31
0.0
  0
LINE
  8
0
  6
CONTINUOUS
 62
     1
 10
824.6199996
 20
202.233959796
 30
0.0
 11
792.6199996
 21
202.233959796
 31
0.0
  0
LINE
  8
0
  6
LTYPE2
 62
     2
 10
761.3199996
 20
145.133959796
 30
0.0
 11
771.2799996
 21
145.133959796
 31
0.0
  0
LINE
  8
0
  6
LTYPE2
 62
     2
 10
766.3199996
 20
141.233959796
 30
0.0
 11
766.3199996
 21
149.113959796
 31
0.0
  0
LINE
  8
0
  6
LTYPE2
 62
     2
 10
761.3199996
 20
175.333959796
 30
0.0
 11
771.1199996
 21
175.333959796
 31
0.0
  0
LINE
  8
0
  6
LTYPE2
 62
     2
 10
766.3199996
 20
169.213959796
 30
0.0
 11
766.3199996
 21
179.233959796
 31
0.0
  0
LINE
  8
0
  6
LTYPE2
 62
     2
 10
762.6199996
 20
198.233959796
 30
0.0
 11
739.6199996
 21
198.233959796
 31
0.0
  0
ARC
  8
0
  6
CONTINUOUS
 62
     1
 10
763.3199996
 20
142.233959796
 30
0.0
 40
2.0
 50
180.0
 51
270.0
  0
LINE
  8
0
  6
CONTINUOUS
 62
     1
 10
737.9199996
 20
147.533959796
 30
0.0
 11
761.3199996
 21
147.533959796
 31
0.0
  0
ARC
  8
0
  6
CONTINUOUS
 62
     1
 10
737.9199996
 20
149.533959796
 30
0.0
 40
2.0
 50
180.0
 51
270.0
  0
LINE
  8
0
  6
CONTINUOUS
 62
     1
 10
735.9199996
 20
149.533959796
 30
0.0
 11
735.9199996
 21
170.933959796
 31
0.0
  0
ARC
  8
0
  6
CONTINUOUS
 62
     1
 10
737.9199996
 20
170.933959796
 30
0.0
 40
2.0
 50
90.0
 51
180.0
  0
LINE
  8
0
  6
CONTINUOUS
 62
     1
 10
761.3199996
 20
142.233959796
 30
0.0
 11
761.3199996
 21
178.233959796
 31
0.0
  0
ARC
  8
0
  6
CONTINUOUS
 62
     1
 10
763.3199996
 20
178.233959796
 30
0.0
 40
2.0
 50
90.0
 51
180.0
  0
LINE
  8
0
  6
CONTINUOUS
 62
     1
 10
763.3199996
 20
180.233959796
 30
0.0
 11
828.0199996
 21
180.233959796
 31
0.0
  0
LINE
  8
0
  6
CONTINUOUS
 62
     1
 10
763.3199996
 20
140.233959796
 30
0.0
 11
828.0199996
 21
140.233959796
 31
0.0
  0
LINE
  8
0
  6
CONTINUOUS
 62
     1
 10
743.6199996
 20
147.533959796
 30
0.0
 11
743.6199996
 21
145.733959796
 31
0.0
  0
LINE
  8
0
  6
CONTINUOUS
 62
     1
 10
863.6199996
 20
135.733959796
 30
0.0
 11
753.6199996
 21
135.733959796
 31
0.0
  0
ARC
  8
0
  6
CONTINUOUS
 62
     1
 10
753.6199996
 20
145.733959796
 30
0.0
 40
10.0
 50
180.0
 51
270.0
  0
LINE
  8
0
  6
CONTINUOUS
 62
     1
 10
745.628315612
 20
160.54974927
 30
0.0
 11
747.625543608
 21
198.444486112
 31
0.0
  0
LINE
  8
0
  6
CONTINUOUS
 62
     1
 10
757.611683588
 20
160.54974927
 30
0.0
 11
755.614455592
 21
198.444486112
 31
0.0
  0
ARC
  8
0
  6
CONTINUOUS
 62
     1
 10
751.6199996
 20
198.233959796
 30
0.0
 40
4.0
 50
356.983042101
 51
183.016952287
  0
ARC
  8
0
  6
CONTINUOUS
 62
     1
 10
751.6199996
 20
198.233959796
 30
0.0
 40
8.75
 50
300.219855722
 51
239.780144278
  0
ARC
  8
0
  6
CONTINUOUS
 62
     1
 10
751.6199996
 20
160.233959796
 30
0.0
 40
6.0
 50
176.983045121
 51
3.016954879
  0
LINE
  8
0
  6
CONTINUOUS
 62
     1
 10
756.958978383
 20
172.933959796
 30
0.0
 11
761.3199996
 21
172.933959796
 31
0.0
  0
LINE
  8
0
  6
CONTINUOUS
 62
     1
 10
737.9199996
 20
172.933959796
 30
0.0
 11
746.281020817
 21
172.933959796
 31
0.0
  0
LINE
  8
0
  6
LTYPE2
 62
     2
 10
751.6199996
 20
151.133959796
 30
0.0
 11
751.6199996
 21
208.633959796
 31
0.0
  0
LINE
  8
0
  6
LTYPE2
 62
     2
 10
742.358978383
 20
160.233959796
 30
0.0
 11
833.6199996
 21
160.233959796
 31
0.0
  0
LINE
  8
0
  6
CONTINUOUS
 62
     1
 10
743.6199996
 20
194.689598077
 30
0.0
 11
743.6199996
 21
172.883959796
 31
0.0
  0
LINE
  8
0
  6
CONTINUOUS
 62
     1
 10
743.6199996
 20
210.233959796
 30
0.0
 11
743.6199996
 21
201.778321516
 31
0.0
  0
LINE
  8
0
  6
CONTINUOUS
 62
     1
 10
727.240942583
 20
210.233959796
 30
0.0
 11
792.6199996
 21
210.233959796
 31
0.0
  0
LINE
  8
0
  6
CONTINUOUS
 62
     1
 10
792.6199996
 20
226.233959796
 30
0.0
 11
727.310577563
 21
226.233959796
 31
0.0
  0
ARC
  8
0
  6
CONTINUOUS
 62
     1
 10
732.865468178
 20
222.233959796
 30
0.0
 40
6.845203412
 50
144.242860688
 51
215.757139312
  0
ARC
  8
0
  6
CONTINUOUS
 62
     1
 10
721.755686947
 20
222.233959796
 30
0.0
 40
6.845203412
 50
324.242860688
 51
35.757139312
  0
ARC
  8
0
  6
CONTINUOUS
 62
     1
 10
721.755686947
 20
214.233959796
 30
0.0
 40
6.845203412
 50
324.242860688
 51
35.757139312
  0
LINE
  8
0
  6
LTYPE3
 62
     2
 10
957.1199996
 20
218.233959796
 30
0.0
 11
722.275760073
 21
218.233959796
 31
0.0
  0
LINE
  8
7
  6
CONTINUOUS
 62
     2
 10
787.2199996
 20
276.233959796
 30
0.0
 11
778.91152171
 21
270.668962477
 31
0.0
  0
LINE
  8
7
  6
CONTINUOUS
 62
     2
 10
787.2199996
 20
276.233959796
 30
0.0
 11
782.80714534
 21
267.260291801
 31
0.0
  0
LINE
  8
7
  6
CONTINUOUS
 62
     2
 10
787.2199996
 20
276.233959796
 30
0.0
 11
776.0199996
 21
263.433959796
 31
0.0
  0
LINE
  8
7
  6
CONTINUOUS
 62
     2
 10
776.0199996
 20
263.433959796
 30
0.0
 11
717.2199996
 21
263.433959796
 31
0.0
  0
TEXT
  8
7
  6
CONTINUOUS
 62
     2
 10
717.2199996
 20
267.433959796
 30
1.2
 40
12.0
  1
ＰＦ１／２
 50
0.0
 41
0.9
 51
0.0
  7
KANJI19
  0
LINE
  8
0
  6
CONTINUOUS
 62
     1
 10
743.6199996
 20
280.433959796
 30
0.0
 11
743.6199996
 21
290.733959796
 31
0.0
  0
LINE
  8
0
  6
CONTINUOUS
 62
     1
 10
743.6199996
 20
226.233959796
 30
0.0
 11
743.6199996
 21
260.433959796
 31
0.0
  0
LINE
  8
0
  6
LTYPE2
 62
     2
 10
798.6599996
 20
291.333959796
 30
0.0
 11
787.2199996
 21
291.333959796
 31
0.0
  0
LINE
  8
0
  6
LTYPE2
 62
     2
 10
792.2199996
 20
295.233959796
 30
0.0
 11
792.2199996
 21
286.253959796
 31
0.0
  0
LINE
  8
0
  6
CONTINUOUS
 62
     1
 10
853.9199996
 20
296.233959796
 30
0.0
 11
789.2199996
 21
296.233959796
 31
0.0
  0
LINE
  8
0
  6
CONTINUOUS
 62
     1
 10
787.2199996
 20
294.233959796
 30
0.0
 11
787.2199996
 21
258.233959796
 31
0.0
  0
ARC
  8
0
  6
CONTINUOUS
 62
     1
 10
789.2199996
 20
294.233959796
 30
0.0
 40
2.0
 50
90.0
 51
180.0
  0
LINE
  8
0
  6
LTYPE2
 62
     2
 10
798.1199996
 20
261.133959796
 30
0.0
 11
787.2199996
 21
261.133959796
 31
0.0
  0
LINE
  8
0
  6
LTYPE2
 62
     2
 10
792.2199996
 20
267.153959796
 30
0.0
 11
792.2199996
 21
257.233959796
 31
0.0
  0
LINE
  8
0
  6
CONTINUOUS
 62
     1
 10
853.9199996
 20
256.233959796
 30
0.0
 11
789.2199996
 21
256.233959796
 31
0.0
  0
ARC
  8
0
  6
CONTINUOUS
 62
     1
 10
789.2199996
 20
258.233959796
 30
0.0
 40
2.0
 50
180.0
 51
270.0
  0
LINE
  8
0
  6
LTYPE2
 62
     2
 10
819.1199996
 20
175.333959796
 30
0.0
 11
830.0199996
 21
175.333959796
 31
0.0
  0
LINE
  8
0
  6
LTYPE2
 62
     2
 10
825.0199996
 20
169.313959796
 30
0.0
 11
825.0199996
 21
179.233959796
 31
0.0
  0
LINE
  8
0
  6
LTYPE2
 62
     2
 10
818.5799996
 20
145.133959796
 30
0.0
 11
830.0199996
 21
145.133959796
 31
0.0
  0
LINE
  8
0
  6
LTYPE2
 62
     2
 10
825.0199996
 20
141.233959796
 30
0.0
 11
825.0199996
 21
150.213959796
 31
0.0
  0
ARC
  8
0
  6
CONTINUOUS
 62
     1
 10
828.0199996
 20
178.233959796
 30
0.0
 40
2.0
 50
0.0
 51
90.0
  0
ARC
  8
0
  6
CONTINUOUS
 62
     1
 10
828.0199996
 20
142.233959796
 30
0.0
 40
2.0
 50
270.0
 51
0.0
  0
LINE
  8
0
  6
CONTINUOUS
 62
     1
 10
824.6199996
 20
202.233959796
 30
0.0
 11
824.6199996
 21
234.233959796
 31
0.0
  0
LINE
  8
0
  6
CONTINUOUS
 62
     1
 10
824.6199996
 20
226.233959796
 30
0.0
 11
880.1199996
 21
226.233959796
 31
0.0
  0
LINE
  8
0
  6
CONTINUOUS
 62
     1
 10
880.1199996
 20
210.233959796
 30
0.0
 11
824.6199996
 21
210.233959796
 31
0.0
  0
LINE
  8
0
  6
CONTINUOUS
 62
     1
 10
830.0199996
 20
142.233959796
 30
0.0
 11
830.0199996
 21
178.233959796
 31
0.0
  0
ARC
  8
0
  6
CONTINUOUS
 62
     1
 10
863.6199996
 20
145.733959796
 30
0.0
 40
10.0
 50
270.0
 51
0.0
  0
LINE
  8
7
  6
CONTINUOUS
 62
     2
 10
830.0199996
 20
160.233959796
 30
0.0
 11
838.387307185
 21
165.710104771
 31
0.0
  0
LINE
  8
7
  6
CONTINUOUS
 62
     2
 10
830.0199996
 20
160.233959796
 30
0.0
 11
834.528228042
 21
169.160094251
 31
0.0
  0
LINE
  8
7
  6
CONTINUOUS
 62
     2
 10
830.0199996
 20
160.233959796
 30
0.0
 11
842.6699996
 21
174.383959796
 31
0.0
  0
LINE
  8
7
  6
CONTINUOUS
 62
     2
 10
842.6699996
 20
174.383959796
 30
0.0
 11
901.4699996
 21
174.383959796
 31
0.0
  0
TEXT
  8
7
  6
CONTINUOUS
 62
     2
 10
842.6699996
 20
178.383959796
 30
1.2
 40
12.0
  1
ＰＦ１／２
 50
0.0
 41
0.9
 51
0.0
  7
KANJI19
  0
LINE
  8
0
  6
CONTINUOUS
 62
     1
 10
873.6199996
 20
171.433959796
 30
0.0
 11
873.6199996
 21
145.733959796
 31
0.0
  0
LINE
  8
0
  6
CONTINUOUS
 62
     1
 10
873.6199996
 20
288.933959796
 30
0.0
 11
873.6199996
 21
290.733959796
 31
0.0
  0
ARC
  8
0
  6
CONTINUOUS
 62
     1
 10
863.6199996
 20
290.733959796
 30
0.0
 40
10.0
 50
0.0
 51
90.0
  0
LINE
  8
0
  6
CONTINUOUS
 62
     1
 10
873.6199996
 20
241.778321516
 30
0.0
 11
873.6199996
 21
263.583959796
 31
0.0
  0
LINE
  8
0
  6
CONTINUOUS
 62
     1
 10
873.6199996
 20
226.233959796
 30
0.0
 11
873.6199996
 21
234.689598077
 31
0.0
  0
ARC
  8
0
  6
CONTINUOUS
 62
     1
 10
946.874531022
 20
222.233959796
 30
0.0
 40
6.845203412
 50
324.242860688
 51
35.757139312
  0
ARC
  8
0
  6
CONTINUOUS
 62
     1
 10
957.984312253
 20
222.233959796
 30
0.0
 40
6.845203412
 50
144.242860688
 51
215.757139312
  0
ARC
  8
0
  6
CONTINUOUS
 62
     1
 10
957.984312253
 20
214.233959796
 30
0.0
 40
6.845203412
 50
144.242860688
 51
215.757139312
  0
LINE
  8
0
  6
CONTINUOUS
 62
     1
 10
880.1199996
 20
208.233959796
 30
0.0
 11
880.1199996
 21
228.233959796
 31
0.0
  0
LINE
  8
0
  6
CONTINUOUS
 62
     1
 10
880.1199996
 20
228.233959796
 30
0.0
 11
893.976406061
 21
236.233959796
 31
0.0
  0
LINE
  8
0
  6
CONTINUOUS
 62
     1
 10
880.1199996
 20
208.233959796
 30
0.0
 11
893.976406061
 21
200.233959796
 31
0.0
  0
LINE
  8
0
  6
CONTINUOUS
 62
     1
 10
893.976406061
 20
200.233959796
 30
0.0
 11
893.976406061
 21
236.233959796
 31
0.0
  0
LINE
  8
0
  6
CONTINUOUS
 62
     1
 10
930.1199996
 20
208.233959796
 30
0.0
 11
930.1199996
 21
228.233959796
 31
0.0
  0
LINE
  8
0
  6
CONTINUOUS
 62
     1
 10
916.263593139
 20
200.233959796
 30
0.0
 11
916.263593139
 21
236.233959796
 31
0.0
  0
LINE
  8
0
  6
CONTINUOUS
 62
     1
 10
893.976406061
 20
236.233959796
 30
0.0
 11
916.263593139
 21
236.233959796
 31
0.0
  0
LINE
  8
0
  6
CONTINUOUS
 62
     1
 10
930.1199996
 20
228.233959796
 30
0.0
 11
916.263593139
 21
236.233959796
 31
0.0
  0
LINE
  8
0
  6
CONTINUOUS
 62
     1
 10
893.976406061
 20
200.233959796
 30
0.0
 11
916.263593139
 21
200.233959796
 31
0.0
  0
LINE
  8
0
  6
CONTINUOUS
 62
     1
 10
930.1199996
 20
208.233959796
 30
0.0
 11
916.263593139
 21
200.233959796
 31
0.0
  0
LINE
  8
0
  6
CONTINUOUS
 62
     1
 10
893.976406061
 20
200.233959796
 30
0.0
 11
916.263593139
 21
200.233959796
 31
0.0
  0
LINE
  8
0
  6
LTYPE3
 62
     2
 10
905.1199996
 20
208.233959796
 30
0.0
 11
905.1199996
 21
228.233959796
 31
0.0
  0
CIRCLE
  8
0
  6
CONTINUOUS
 62
     2
 10
905.1199996
 20
218.233959796
 30
0.0
 40
5.0
  0
CIRCLE
  8
0
  6
CONTINUOUS
 62
     2
 10
905.1199996
 20
218.233959796
 30
0.0
 40
4.0
  0
LINE
  8
0
  6
CONTINUOUS
 62
     1
 10
930.1199996
 20
226.233959796
 30
0.0
 11
952.429421637
 21
226.233959796
 31
0.0
  0
LINE
  8
0
  6
CONTINUOUS
 62
     1
 10
952.429421637
 20
210.233959796
 30
0.0
 11
930.1199996
 21
210.233959796
 31
0.0
  0
LINE
  8
0
  6
LTYPE2
 62
     2
 10
855.9199996
 20
291.333959796
 30
0.0
 11
845.9599996
 21
291.333959796
 31
0.0
  0
LINE
  8
0
  6
LTYPE2
 62
     2
 10
850.9199996
 20
295.233959796
 30
0.0
 11
850.9199996
 21
287.353959796
 31
0.0
  0
ARC
  8
0
  6
CONTINUOUS
 62
     1
 10
853.9199996
 20
294.233959796
 30
0.0
 40
2.0
 50
0.0
 51
90.0
  0
LINE
  8
0
  6
CONTINUOUS
 62
     1
 10
879.3199996
 20
288.933959796
 30
0.0
 11
855.9199996
 21
288.933959796
 31
0.0
  0
LINE
  8
0
  6
CONTINUOUS
 62
     1
 10
855.9199996
 20
294.233959796
 30
0.0
 11
855.9199996
 21
258.233959796
 31
0.0
  0
LINE
  8
0
  6
LTYPE2
 62
     2
 10
855.9199996
 20
261.133959796
 30
0.0
 11
846.1199996
 21
261.133959796
 31
0.0
  0
LINE
  8
0
  6
LTYPE2
 62
     2
 10
850.9199996
 20
267.253959796
 30
0.0
 11
850.9199996
 21
257.233959796
 31
0.0
  0
ARC
  8
0
  6
CONTINUOUS
 62
     1
 10
853.9199996
 20
258.233959796
 30
0.0
 40
2.0
 50
270.0
 51
0.0
  0
LINE
  8
0
  6
CONTINUOUS
 62
     1
 10
860.281020817
 20
263.533959796
 30
0.0
 11
855.9199996
 21
263.533959796
 31
0.0
  0
ARC
  8
0
  6
CONTINUOUS
 62
     1
 10
879.3199996
 20
286.933959796
 30
0.0
 40
2.0
 50
0.0
 51
90.0
  0
LINE
  8
0
  6
CONTINUOUS
 62
     1
 10
881.3199996
 20
286.933959796
 30
0.0
 11
881.3199996
 21
265.533959796
 31
0.0
  0
ARC
  8
0
  6
CONTINUOUS
 62
     1
 10
865.6199996
 20
276.233959796
 30
0.0
 40
6.0
 50
356.983045121
 51
183.016954879
  0
LINE
  8
0
  6
LTYPE2
 62
     2
 10
865.6199996
 20
285.333959796
 30
0.0
 11
865.6199996
 21
227.833959796
 31
0.0
  0
LINE
  8
0
  6
CONTINUOUS
 62
     1
 10
871.611683588
 20
275.918170323
 30
0.0
 11
869.614455592
 21
238.02343348
 31
0.0
  0
LINE
  8
0
  6
CONTINUOUS
 62
     1
 10
859.628315612
 20
275.918170323
 30
0.0
 11
861.625543608
 21
238.02343348
 31
0.0
  0
ARC
  8
0
  6
CONTINUOUS
 62
     1
 10
879.3199996
 20
265.533959796
 30
0.0
 40
2.0
 50
270.0
 51
0.0
  0
LINE
  8
0
  6
CONTINUOUS
 62
     1
 10
879.3199996
 20
263.533959796
 30
0.0
 11
870.958978383
 21
263.533959796
 31
0.0
  0
LINE
  8
0
  6
LTYPE2
 62
     2
 10
854.6199996
 20
238.233959796
 30
0.0
 11
877.6199996
 21
238.233959796
 31
0.0
  0
ARC
  8
0
  6
CONTINUOUS
 62
     1
 10
865.6199996
 20
238.233959796
 30
0.0
 40
8.75
 50
120.219855722
 51
59.780144278
  0
ARC
  8
0
  6
CONTINUOUS
 62
     1
 10
865.6199996
 20
238.233959796
 30
0.0
 40
4.0
 50
176.983042101
 51
3.016952287
  0
TEXT
  8
0
  6
CONTINUOUS
 62
     2
 10
1861.92
 20
251.7
 30
0.0
 40
21.0
  1
ＭＣＬＤ４－ＪＬ
 50
0.0
 41
0.793650794
 51
0.0
  7
KANJI20
  0
TEXT
  8
0
  6
CONTINUOUS
 62
     2
 10
1976.7200334
 20
155.699994
 30
13.0
 40
30.0
  1
３００２４９７
 50
0.0
 41
0.8
 51
0.0
  7
KANJI21
  0
LINE
  8
0
  6
CONTINUOUS
 62
     2
 10
1729.32
 20
706.5
 30
0.0
 11
1873.32
 21
706.5
 31
0.0
  0
TEXT
  8
0
  6
CONTINUOUS
 62
     2
 10
1741.92
 20
714.9
 30
12.0
 40
24.0
  1
特記事項
 50
0.0
 41
0.9
 51
0.0
  7
KANJI22
  0
TEXT
  8
0
  6
CONTINUOUS
 62
     2
 10
1735.92
 20
595.2
 30
1.8
 40
21.0
  1
３．ＬＳユニット
 50
0.0
 41
0.857142857
 51
0.0
  7
KANJI23
  0
TEXT
  8
0
  6
CONTINUOUS
 62
     2
 10
1735.92
 20
670.2
 30
1.8
 40
21.0
  1
１．運転時は必ずピストンロッドの回転防止を行って下さい。
 50
0.0
 41
0.857142857
 51
0.0
  7
KANJI23
  0
TEXT
  8
0
  6
CONTINUOUS
 62
     2
 10
1735.92
 20
632.7
 30
1.8
 40
21.0
  1
２．モートル：全閉自冷かご形３０分定格
 50
0.0
 41
0.857142857
 51
0.0
  7
KANJI23
  0
TEXT
  8
0
  6
CONTINUOUS
 62
     2
 10
1735.92
 20
502.2
 30
1.8
 40
21.0
  1
４．呼称ストロークは、機械的ストロークです。
 50
0.0
 41
0.857142857
 51
0.0
  7
KANJI23
  0
TEXT
  8
0
  6
CONTINUOUS
 62
     2
 10
1735.92
 20
535.2
 30
1.8
 40
21.0
  1
　　ストローク７００ｍｍ以上の場合２ロッド方式となります。
 50
0.0
 41
0.857142857
 51
0.0
  7
KANJI23
  0
TEXT
  8
0
  6
CONTINUOUS
 62
     2
 10
1735.92
 20
565.2
 30
1.8
 40
21.0
  1
　　リミットスイッチ：１ＬＳ１－Ｊｘ２ケ（山武）
 50
0.0
 41
0.857142857
 51
0.0
  7
KANJI23
  0
TEXT
  8
0
  6
CONTINUOUS
 62
     2
 10
1735.92
 20
465.24
 30
1.8
 40
21.0
  1
　　必ず、常用はストローク両端に必ず余裕を取って下さい。
 50
0.0
 41
0.857142857
 51
0.0
  7
KANJI23
  0
TEXT
  8
0
  6
CONTINUOUS
 62
     2
 10
1735.92
 20
427.464
 30
1.8
 40
21.0
  1
　　前後の推奨余裕寸法は、各々１０ｍｍです。
 50
0.0
 41
0.857142857
 51
0.0
  7
KANJI23
  0
LINE
  8
0
  6
CONTINUOUS
 62
     2
 10
747.62001039
 20
300.733959796
 30
0.0
 11
690.62
 21
300.733959796
 31
0.0
  0
LINE
  8
0
  6
CONTINUOUS
 62
     2
 10
696.62
 20
300.733959796
 30
0.0
 11
693.514171459
 21
289.142849881
 31
0.0
  0
LINE
  8
0
  6
CONTINUOUS
 62
     2
 10
696.62
 20
300.733959796
 30
0.0
 11
699.725828541
 21
289.142849881
 31
0.0
  0
LINE
  8
0
  6
CONTINUOUS
 62
     2
 10
696.62
 20
300.733959796
 30
0.0
 11
696.62
 21
135.733959796
 31
0.0
  0
LINE
  8
0
  6
CONTINUOUS
 62
     2
 10
696.62
 20
135.733959796
 30
0.0
 11
699.725828541
 21
147.325069712
 31
0.0
  0
LINE
  8
0
  6
CONTINUOUS
 62
     2
 10
696.62
 20
135.733959796
 30
0.0
 11
693.514171459
 21
147.325069712
 31
0.0
  0
LINE
  8
0
  6
CONTINUOUS
 62
     2
 10
747.6199996
 20
135.733959796
 30
0.0
 11
690.62
 21
135.733959796
 31
0.0
  0
TEXT
  8
0
  6
CONTINUOUS
 62
     3
 10
687.62
 20
193.933959796
 30
0.0
 40
18.0
  1
１６５
 50
90.0
 41
0.9
 51
0.0
  7
KANJI24
  0
LINE
  8
0
  6
CONTINUOUS
 62
     2
 10
743.6199996
 20
141.533959796
 30
0.0
 11
743.6199996
 21
91.533959796
 31
0.0
  0
LINE
  8
0
  6
CONTINUOUS
 62
     2
 10
743.6199996
 20
97.533959796
 30
0.0
 11
755.211109515
 21
94.428131255
 31
0.0
  0
LINE
  8
0
  6
CONTINUOUS
 62
     2
 10
743.6199996
 20
97.533959796
 30
0.0
 11
755.211109515
 21
100.639788337
 31
0.0
  0
LINE
  8
0
  6
CONTINUOUS
 62
     2
 10
743.6199996
 20
97.533959796
 30
0.0
 11
873.6199996
 21
97.533959796
 31
0.0
  0
LINE
  8
0
  6
CONTINUOUS
 62
     2
 10
873.6199996
 20
97.533959796
 30
0.0
 11
862.028889685
 21
100.639788337
 31
0.0
  0
LINE
  8
0
  6
CONTINUOUS
 62
     2
 10
873.6199996
 20
97.533959796
 30
0.0
 11
862.028889685
 21
94.428131255
 31
0.0
  0
LINE
  8
0
  6
CONTINUOUS
 62
     2
 10
873.6199996
 20
139.733959796
 30
0.0
 11
873.6199996
 21
91.533959796
 31
0.0
  0
TEXT
  8
0
  6
CONTINUOUS
 62
     3
 10
784.3199996
 20
106.533959796
 30
0.0
 40
18.0
  1
１３０
 50
0.0
 41
0.9
 51
0.0
  7
KANJI24
  0
LINE
  8
0
  6
CONTINUOUS
 62
     1
 10
1206.1199996
 20
259.983959796
 30
0.0
 11
1206.1199996
 21
195.283959796
 31
0.0
  0
LINE
  8
0
  6
CONTINUOUS
 62
     1
 10
1208.1199996
 20
193.283959796
 30
0.0
 11
1244.1199996
 21
193.283959796
 31
0.0
  0
ARC
  8
0
  6
CONTINUOUS
 62
     1
 10
1208.1199996
 20
195.283959796
 30
0.0
 40
2.0
 50
180.0
 51
270.0
  0
LINE
  8
0
  6
CONTINUOUS
 62
     1
 10
1246.1199996
 20
259.983959796
 30
0.0
 11
1246.1199996
 21
195.283959796
 31
0.0
  0
ARC
  8
0
  6
CONTINUOUS
 62
     1
 10
1244.1199996
 20
195.283959796
 30
0.0
 40
2.0
 50
270.0
 51
0.0
  0
ARC
  8
0
  6
CONTINUOUS
 62
     1
 10
1208.1199996
 20
259.983959796
 30
0.0
 40
2.0
 50
90.0
 51
180.0
  0
LINE
  8
0
  6
CONTINUOUS
 62
     1
 10
1213.4199996
 20
285.383959796
 30
0.0
 11
1213.4199996
 21
261.983959796
 31
0.0
  0
LINE
  8
0
  6
CONTINUOUS
 62
     1
 10
1208.1199996
 20
261.983959796
 30
0.0
 11
1244.1199996
 21
261.983959796
 31
0.0
  0
ARC
  8
0
  6
CONTINUOUS
 62
     1
 10
1244.1199996
 20
259.983959796
 30
0.0
 40
2.0
 50
0.0
 51
90.0
  0
ARC
  8
0
  6
CONTINUOUS
 62
     1
 10
1215.4199996
 20
285.383959796
 30
0.0
 40
2.0
 50
90.0
 51
180.0
  0
ARC
  8
0
  6
CONTINUOUS
 62
     1
 10
1226.1199996
 20
271.683959796
 30
0.0
 40
6.0
 50
131.983045121
 51
318.016954879
  0
LINE
  8
0
  6
LTYPE2
 62
     2
 10
1219.685327891
 20
265.249288087
 30
0.0
 11
1260.343967809
 21
305.907928006
 31
0.0
  0
LINE
  8
0
  6
CONTINUOUS
 62
     1
 10
1222.1065361
 20
276.144017053
 30
0.0
 11
1250.314414952
 21
301.527388986
 31
0.0
  0
LINE
  8
0
  6
CONTINUOUS
 62
     1
 10
1230.580056857
 20
267.670496296
 30
0.0
 11
1255.96342879
 21
295.878375148
 31
0.0
  0
LINE
  8
0
  6
LTYPE2
 62
     2
 10
1260.768231878
 20
290.775842888
 30
0.0
 11
1244.504775911
 21
307.039298856
 31
0.0
  0
ARC
  8
0
  6
CONTINUOUS
 62
     1
 10
1252.990057285
 20
298.554017481
 30
0.0
 40
8.75
 50
255.219855722
 51
194.780144278
  0
ARC
  8
0
  6
CONTINUOUS
 62
     1
 10
1252.990057285
 20
298.554017481
 30
0.0
 40
4.0
 50
311.983042101
 51
138.016952287
  0
LINE
  8
0
  6
CONTINUOUS
 62
     1
 10
1238.8199996
 20
276.827329646
 30
0.0
 11
1238.8199996
 21
261.983959796
 31
0.0
  0
LINE
  8
0
  6
CONTINUOUS
 62
     1
 10
1215.4199996
 20
287.383959796
 30
0.0
 11
1234.597191165
 21
287.383959796
 31
0.0
  0
LINE
  8
0
  6
LTYPE3
 62
     2
 10
1211.2449996
 20
238.483959796
 30
0.0
 11
1241.2449996
 21
238.483959796
 31
0.0
  0
LINE
  8
0
  6
LTYPE3
 62
     2
 10
1241.2449996
 20
238.483959796
 30
0.0
 11
1241.2449996
 21
247.983959796
 31
0.0
  0
LINE
  8
0
  6
LTYPE3
 62
     2
 10
1241.2449996
 20
247.983959796
 30
0.0
 11
1211.2449996
 21
247.983959796
 31
0.0
  0
LINE
  8
0
  6
LTYPE3
 62
     2
 10
1211.2449996
 20
247.983959796
 30
0.0
 11
1211.2449996
 21
238.483959796
 31
0.0
  0
LINE
  8
0
  6
CONTINUOUS
 62
     1
 10
1211.2449996
 20
208.483959796
 30
0.0
 11
1241.2449996
 21
208.483959796
 31
0.0
  0
LINE
  8
0
  6
CONTINUOUS
 62
     1
 10
1241.2449996
 20
208.483959796
 30
0.0
 11
1241.2449996
 21
217.983959796
 31
0.0
  0
LINE
  8
0
  6
CONTINUOUS
 62
     1
 10
1241.2449996
 20
217.983959796
 30
0.0
 11
1211.2449996
 21
217.983959796
 31
0.0
  0
LINE
  8
0
  6
CONTINUOUS
 62
     1
 10
1211.2449996
 20
217.983959796
 30
0.0
 11
1211.2449996
 21
208.483959796
 31
0.0
  0
TEXT
  8
0
  6
CONTINUOUS
 62
     2
 10
1210.0199996
 20
251.283959796
 30
0.0
 40
10.0
  1
４
 50
0.0
 41
0.85
 51
0.0
  7
KANJI25
  0
TEXT
  8
0
  6
CONTINUOUS
 62
     2
 10
1235.0199996
 20
251.283959796
 30
0.0
 40
10.0
  1
３
 50
0.0
 41
0.85
 51
0.0
  7
KANJI25
  0
POLYLINE
  8
0
  6
CONTINUOUS
 62
     2
 66
     1
 70
     1
  0
VERTEX
  8
0
  6
CONTINUOUS
 62
     2
 10
1221.0199996
 20
250.533959796
 30
0.0
 42
0.021820078
  0
VERTEX
  8
0
  6
CONTINUOUS
 62
     2
 10
1221.011437671
 20
250.730060217
 30
0.0
 42
0.021820078
  0
VERTEX
  8
0
  6
CONTINUOUS
 62
     2
 10
1220.985817044
 20
250.924668196
 30
0.0
 42
0.021820078
  0
VERTEX
  8
0
  6
CONTINUOUS
 62
     2
 10
1220.943332709
 20
251.116302648
 30
0.0
 42
0.021820078
  0
VERTEX
  8
0
  6
CONTINUOUS
 62
     2
 10
1220.884307997
 20
251.303505119
 30
0.0
 42
0.021820078
  0
VERTEX
  8
0
  6
CONTINUOUS
 62
     2
 10
1220.809192121
 20
251.484850885
 30
0.0
 42
0.021820078
  0
VERTEX
  8
0
  6
CONTINUOUS
 62
     2
 10
1220.718556759
 20
251.658959796
 30
0.0
 42
0.021820078
  0
VERTEX
  8
0
  6
CONTINUOUS
 62
     2
 10
1220.6130917
 20
251.824506778
 30
0.0
 42
0.021820078
  0
VERTEX
  8
0
  6
CONTINUOUS
 62
     2
 10
1220.493599597
 20
251.980231918
 30
0.0
 42
0.021820078
  0
VERTEX
  8
0
  6
CONTINUOUS
 62
     2
 10
1220.360989858
 20
252.124950054
 30
0.0
 42
0.021820078
  0
VERTEX
  8
0
  6
CONTINUOUS
 62
     2
 10
1220.216271722
 20
252.257559793
 30
0.0
 42
0.021820078
  0
VERTEX
  8
0
  6
CONTINUOUS
 62
     2
 10
1220.060546582
 20
252.377051896
 30
0.0
 42
0.021820078
  0
VERTEX
  8
0
  6
CONTINUOUS
 62
     2
 10
1219.8949996
 20
252.482516955
 30
0.0
 42
0.021820078
  0
VERTEX
  8
0
  6
CONTINUOUS
 62
     2
 10
1219.720890689
 20
252.573152317
 30
0.0
 42
0.021820078
  0
VERTEX
  8
0
  6
CONTINUOUS
 62
     2
 10
1219.539544922
 20
252.648268193
 30
0.0
 42
0.021820078
  0
VERTEX
  8
0
  6
CONTINUOUS
 62
     2
 10
1219.352342451
 20
252.707292905
 30
0.0
 42
0.021820078
  0
VERTEX
  8
0
  6
CONTINUOUS
 62
     2
 10
1219.160708
 20
252.74977724
 30
0.0
 42
0.021820078
  0
VERTEX
  8
0
  6
CONTINUOUS
 62
     2
 10
1218.966100021
 20
252.775397867
 30
0.0
 42
0.021820078
  0
VERTEX
  8
0
  6
CONTINUOUS
 62
     2
 10
1218.7699996
 20
252.783959796
 30
0.0
 42
0.021820078
  0
VERTEX
  8
0
  6
CONTINUOUS
 62
     2
 10
1218.573899179
 20
252.775397867
 30
0.0
 42
0.021820078
  0
VERTEX
  8
0
  6
CONTINUOUS
 62
     2
 10
1218.3792912
 20
252.74977724
 30
0.0
 42
0.021820078
  0
VERTEX
  8
0
  6
CONTINUOUS
 62
     2
 10
1218.187656749
 20
252.707292905
 30
0.0
 42
0.021820078
  0
VERTEX
  8
0
  6
CONTINUOUS
 62
     2
 10
1218.000454278
 20
252.648268193
 30
0.0
 42
0.021820078
  0
VERTEX
  8
0
  6
CONTINUOUS
 62
     2
 10
1217.819108511
 20
252.573152317
 30
0.0
 42
0.021820078
  0
VERTEX
  8
0
  6
CONTINUOUS
 62
     2
 10
1217.6449996
 20
252.482516955
 30
0.0
 42
0.021820078
  0
VERTEX
  8
0
  6
CONTINUOUS
 62
     2
 10
1217.479452618
 20
252.377051896
 30
0.0
 42
0.021820078
  0
VERTEX
  8
0
  6
CONTINUOUS
 62
     2
 10
1217.323727478
 20
252.257559793
 30
0.0
 42
0.021820078
  0
VERTEX
  8
0
  6
CONTINUOUS
 62
     2
 10
1217.179009342
 20
252.124950054
 30
0.0
 42
0.021820078
  0
VERTEX
  8
0
  6
CONTINUOUS
 62
     2
 10
1217.046399603
 20
251.980231918
 30
0.0
 42
0.021820078
  0
VERTEX
  8
0
  6
CONTINUOUS
 62
     2
 10
1216.9269075
 20
251.824506778
 30
0.0
 42
0.021820078
  0
VERTEX
  8
0
  6
CONTINUOUS
 62
     2
 10
1216.821442441
 20
251.658959796
 30
0.0
 42
0.021820078
  0
VERTEX
  8
0
  6
CONTINUOUS
 62
     2
 10
1216.730807079
 20
251.484850885
 30
0.0
 42
0.021820078
  0
VERTEX
  8
0
  6
CONTINUOUS
 62
     2
 10
1216.655691203
 20
251.303505119
 30
0.0
 42
0.021820078
  0
VERTEX
  8
0
  6
CONTINUOUS
 62
     2
 10
1216.596666491
 20
251.116302648
 30
0.0
 42
0.021820078
  0
VERTEX
  8
0
  6
CONTINUOUS
 62
     2
 10
1216.554182156
 20
250.924668196
 30
0.0
 42
0.021820078
  0
VERTEX
  8
0
  6
CONTINUOUS
 62
     2
 10
1216.528561529
 20
250.730060217
 30
0.0
 42
0.021820078
  0
VERTEX
  8
0
  6
CONTINUOUS
 62
     2
 10
1216.5199996
 20
250.533959796
 30
0.0
 42
0.021820078
  0
VERTEX
  8
0
  6
CONTINUOUS
 62
     2
 10
1216.528561529
 20
250.337859375
 30
0.0
 42
0.021820078
  0
VERTEX
  8
0
  6
CONTINUOUS
 62
     2
 10
1216.554182156
 20
250.143251396
 30
0.0
 42
0.021820078
  0
VERTEX
  8
0
  6
CONTINUOUS
 62
     2
 10
1216.596666491
 20
249.951616945
 30
0.0
 42
0.021820078
  0
VERTEX
  8
0
  6
CONTINUOUS
 62
     2
 10
1216.655691203
 20
249.764414474
 30
0.0
 42
0.021820078
  0
VERTEX
  8
0
  6
CONTINUOUS
 62
     2
 10
1216.730807079
 20
249.583068707
 30
0.0
 42
0.021820078
  0
VERTEX
  8
0
  6
CONTINUOUS
 62
     2
 10
1216.821442441
 20
249.408959796
 30
0.0
 42
0.021820078
  0
VERTEX
  8
0
  6
CONTINUOUS
 62
     2
 10
1216.9269075
 20
249.243412814
 30
0.0
 42
0.021820078
  0
VERTEX
  8
0
  6
CONTINUOUS
 62
     2
 10
1217.046399603
 20
249.087687674
 30
0.0
 42
0.021820078
  0
VERTEX
  8
0
  6
CONTINUOUS
 62
     2
 10
1217.179009342
 20
248.942969539
 30
0.0
 42
0.021820078
  0
VERTEX
  8
0
  6
CONTINUOUS
 62
     2
 10
1217.323727478
 20
248.810359799
 30
0.0
 42
0.021820078
  0
VERTEX
  8
0
  6
CONTINUOUS
 62
     2
 10
1217.479452618
 20
248.690867697
 30
0.0
 42
0.021820078
  0
VERTEX
  8
0
  6
CONTINUOUS
 62
     2
 10
1217.6449996
 20
248.585402638
 30
0.0
 42
0.021820078
  0
VERTEX
  8
0
  6
CONTINUOUS
 62
     2
 10
1217.819108511
 20
248.494767275
 30
0.0
 42
0.021820078
  0
VERTEX
  8
0
  6
CONTINUOUS
 62
     2
 10
1218.000454278
 20
248.419651399
 30
0.0
 42
0.021820078
  0
VERTEX
  8
0
  6
CONTINUOUS
 62
     2
 10
1218.187656749
 20
248.360626687
 30
0.0
 42
0.021820078
  0
VERTEX
  8
0
  6
CONTINUOUS
 62
     2
 10
1218.3792912
 20
248.318142352
 30
0.0
 42
0.021820078
  0
VERTEX
  8
0
  6
CONTINUOUS
 62
     2
 10
1218.573899179
 20
248.292521726
 30
0.0
 42
0.021820078
  0
VERTEX
  8
0
  6
CONTINUOUS
 62
     2
 10
1218.7699996
 20
248.283959796
 30
0.0
 42
0.021820078
  0
VERTEX
  8
0
  6
CONTINUOUS
 62
     2
 10
1218.966100021
 20
248.292521726
 30
0.0
 42
0.021820078
  0
VERTEX
  8
0
  6
CONTINUOUS
 62
     2
 10
1219.160708
 20
248.318142352
 30
0.0
 42
0.021820078
  0
VERTEX
  8
0
  6
CONTINUOUS
 62
     2
 10
1219.352342451
 20
248.360626687
 30
0.0
 42
0.021820078
  0
VERTEX
  8
0
  6
CONTINUOUS
 62
     2
 10
1219.539544922
 20
248.419651399
 30
0.0
 42
0.021820078
  0
VERTEX
  8
0
  6
CONTINUOUS
 62
     2
 10
1219.720890689
 20
248.494767275
 30
0.0
 42
0.021820078
  0
VERTEX
  8
0
  6
CONTINUOUS
 62
     2
 10
1219.8949996
 20
248.585402638
 30
0.0
 42
0.021820078
  0
VERTEX
  8
0
  6
CONTINUOUS
 62
     2
 10
1220.060546582
 20
248.690867697
 30
0.0
 42
0.021820078
  0
VERTEX
  8
0
  6
CONTINUOUS
 62
     2
 10
1220.216271722
 20
248.810359799
 30
0.0
 42
0.021820078
  0
VERTEX
  8
0
  6
CONTINUOUS
 62
     2
 10
1220.360989858
 20
248.942969539
 30
0.0
 42
0.021820078
  0
VERTEX
  8
0
  6
CONTINUOUS
 62
     2
 10
1220.493599597
 20
249.087687674
 30
0.0
 42
0.021820078
  0
VERTEX
  8
0
  6
CONTINUOUS
 62
     2
 10
1220.6130917
 20
249.243412814
 30
0.0
 42
0.021820078
  0
VERTEX
  8
0
  6
CONTINUOUS
 62
     2
 10
1220.718556759
 20
249.408959796
 30
0.0
 42
0.021820078
  0
VERTEX
  8
0
  6
CONTINUOUS
 62
     2
 10
1220.809192121
 20
249.583068707
 30
0.0
 42
0.021820078
  0
VERTEX
  8
0
  6
CONTINUOUS
 62
     2
 10
1220.884307997
 20
249.764414474
 30
0.0
 42
0.021820078
  0
VERTEX
  8
0
  6
CONTINUOUS
 62
     2
 10
1220.943332709
 20
249.951616945
 30
0.0
 42
0.021820078
  0
VERTEX
  8
0
  6
CONTINUOUS
 62
     2
 10
1220.985817044
 20
250.143251396
 30
0.0
 42
0.021820078
  0
VERTEX
  8
0
  6
CONTINUOUS
 62
     2
 10
1221.011437671
 20
250.337859375
 30
0.0
 42
0.021820078
  0
SEQEND
  8
0
  6
CONTINUOUS
 62
     2
  0
POLYLINE
  8
0
  6
CONTINUOUS
 62
     2
 66
     1
 70
     1
  0
VERTEX
  8
0
  6
CONTINUOUS
 62
     2
 10
1236.0199996
 20
250.533959796
 30
0.0
 42
0.021820078
  0
VERTEX
  8
0
  6
CONTINUOUS
 62
     2
 10
1236.011437671
 20
250.730060217
 30
0.0
 42
0.021820078
  0
VERTEX
  8
0
  6
CONTINUOUS
 62
     2
 10
1235.985817044
 20
250.924668196
 30
0.0
 42
0.021820078
  0
VERTEX
  8
0
  6
CONTINUOUS
 62
     2
 10
1235.943332709
 20
251.116302648
 30
0.0
 42
0.021820078
  0
VERTEX
  8
0
  6
CONTINUOUS
 62
     2
 10
1235.884307997
 20
251.303505119
 30
0.0
 42
0.021820078
  0
VERTEX
  8
0
  6
CONTINUOUS
 62
     2
 10
1235.809192121
 20
251.484850885
 30
0.0
 42
0.021820078
  0
VERTEX
  8
0
  6
CONTINUOUS
 62
     2
 10
1235.718556759
 20
251.658959796
 30
0.0
 42
0.021820078
  0
VERTEX
  8
0
  6
CONTINUOUS
 62
     2
 10
1235.6130917
 20
251.824506778
 30
0.0
 42
0.021820078
  0
VERTEX
  8
0
  6
CONTINUOUS
 62
     2
 10
1235.493599597
 20
251.980231918
 30
0.0
 42
0.021820078
  0
VERTEX
  8
0
  6
CONTINUOUS
 62
     2
 10
1235.360989858
 20
252.124950054
 30
0.0
 42
0.021820078
  0
VERTEX
  8
0
  6
CONTINUOUS
 62
     2
 10
1235.216271722
 20
252.257559793
 30
0.0
 42
0.021820078
  0
VERTEX
  8
0
  6
CONTINUOUS
 62
     2
 10
1235.060546582
 20
252.377051896
 30
0.0
 42
0.021820078
  0
VERTEX
  8
0
  6
CONTINUOUS
 62
     2
 10
1234.8949996
 20
252.482516955
 30
0.0
 42
0.021820078
  0
VERTEX
  8
0
  6
CONTINUOUS
 62
     2
 10
1234.720890689
 20
252.573152317
 30
0.0
 42
0.021820078
  0
VERTEX
  8
0
  6
CONTINUOUS
 62
     2
 10
1234.539544922
 20
252.648268193
 30
0.0
 42
0.021820078
  0
VERTEX
  8
0
  6
CONTINUOUS
 62
     2
 10
1234.352342451
 20
252.707292905
 30
0.0
 42
0.021820078
  0
VERTEX
  8
0
  6
CONTINUOUS
 62
     2
 10
1234.160708
 20
252.74977724
 30
0.0
 42
0.021820078
  0
VERTEX
  8
0
  6
CONTINUOUS
 62
     2
 10
1233.966100021
 20
252.775397867
 30
0.0
 42
0.021820078
  0
VERTEX
  8
0
  6
CONTINUOUS
 62
     2
 10
1233.7699996
 20
252.783959796
 30
0.0
 42
0.021820078
  0
VERTEX
  8
0
  6
CONTINUOUS
 62
     2
 10
1233.573899179
 20
252.775397867
 30
0.0
 42
0.021820078
  0
VERTEX
  8
0
  6
CONTINUOUS
 62
     2
 10
1233.3792912
 20
252.74977724
 30
0.0
 42
0.021820078
  0
VERTEX
  8
0
  6
CONTINUOUS
 62
     2
 10
1233.187656749
 20
252.707292905
 30
0.0
 42
0.021820078
  0
VERTEX
  8
0
  6
CONTINUOUS
 62
     2
 10
1233.000454278
 20
252.648268193
 30
0.0
 42
0.021820078
  0
VERTEX
  8
0
  6
CONTINUOUS
 62
     2
 10
1232.819108511
 20
252.573152317
 30
0.0
 42
0.021820078
  0
VERTEX
  8
0
  6
CONTINUOUS
 62
     2
 10
1232.6449996
 20
252.482516955
 30
0.0
 42
0.021820078
  0
VERTEX
  8
0
  6
CONTINUOUS
 62
     2
 10
1232.479452618
 20
252.377051896
 30
0.0
 42
0.021820078
  0
VERTEX
  8
0
  6
CONTINUOUS
 62
     2
 10
1232.323727478
 20
252.257559793
 30
0.0
 42
0.021820078
  0
VERTEX
  8
0
  6
CONTINUOUS
 62
     2
 10
1232.179009342
 20
252.124950054
 30
0.0
 42
0.021820078
  0
VERTEX
  8
0
  6
CONTINUOUS
 62
     2
 10
1232.046399603
 20
251.980231918
 30
0.0
 42
0.021820078
  0
VERTEX
  8
0
  6
CONTINUOUS
 62
     2
 10
1231.9269075
 20
251.824506778
 30
0.0
 42
0.021820078
  0
VERTEX
  8
0
  6
CONTINUOUS
 62
     2
 10
1231.821442441
 20
251.658959796
 30
0.0
 42
0.021820078
  0
VERTEX
  8
0
  6
CONTINUOUS
 62
     2
 10
1231.730807079
 20
251.484850885
 30
0.0
 42
0.021820078
  0
VERTEX
  8
0
  6
CONTINUOUS
 62
     2
 10
1231.655691203
 20
251.303505119
 30
0.0
 42
0.021820078
  0
VERTEX
  8
0
  6
CONTINUOUS
 62
     2
 10
1231.596666491
 20
251.116302648
 30
0.0
 42
0.021820078
  0
VERTEX
  8
0
  6
CONTINUOUS
 62
     2
 10
1231.554182156
 20
250.924668196
 30
0.0
 42
0.021820078
  0
VERTEX
  8
0
  6
CONTINUOUS
 62
     2
 10
1231.528561529
 20
250.730060217
 30
0.0
 42
0.021820078
  0
VERTEX
  8
0
  6
CONTINUOUS
 62
     2
 10
1231.5199996
 20
250.533959796
 30
0.0
 42
0.021820078
  0
VERTEX
  8
0
  6
CONTINUOUS
 62
     2
 10
1231.528561529
 20
250.337859375
 30
0.0
 42
0.021820078
  0
VERTEX
  8
0
  6
CONTINUOUS
 62
     2
 10
1231.554182156
 20
250.143251396
 30
0.0
 42
0.021820078
  0
VERTEX
  8
0
  6
CONTINUOUS
 62
     2
 10
1231.596666491
 20
249.951616945
 30
0.0
 42
0.021820078
  0
VERTEX
  8
0
  6
CONTINUOUS
 62
     2
 10
1231.655691203
 20
249.764414474
 30
0.0
 42
0.021820078
  0
VERTEX
  8
0
  6
CONTINUOUS
 62
     2
 10
1231.730807079
 20
249.583068707
 30
0.0
 42
0.021820078
  0
VERTEX
  8
0
  6
CONTINUOUS
 62
     2
 10
1231.821442441
 20
249.408959796
 30
0.0
 42
0.021820078
  0
VERTEX
  8
0
  6
CONTINUOUS
 62
     2
 10
1231.9269075
 20
249.243412814
 30
0.0
 42
0.021820078
  0
VERTEX
  8
0
  6
CONTINUOUS
 62
     2
 10
1232.046399603
 20
249.087687674
 30
0.0
 42
0.021820078
  0
VERTEX
  8
0
  6
CONTINUOUS
 62
     2
 10
1232.179009342
 20
248.942969539
 30
0.0
 42
0.021820078
  0
VERTEX
  8
0
  6
CONTINUOUS
 62
     2
 10
1232.323727478
 20
248.810359799
 30
0.0
 42
0.021820078
  0
VERTEX
  8
0
  6
CONTINUOUS
 62
     2
 10
1232.479452618
 20
248.690867697
 30
0.0
 42
0.021820078
  0
VERTEX
  8
0
  6
CONTINUOUS
 62
     2
 10
1232.6449996
 20
248.585402638
 30
0.0
 42
0.021820078
  0
VERTEX
  8
0
  6
CONTINUOUS
 62
     2
 10
1232.819108511
 20
248.494767275
 30
0.0
 42
0.021820078
  0
VERTEX
  8
0
  6
CONTINUOUS
 62
     2
 10
1233.000454278
 20
248.419651399
 30
0.0
 42
0.021820078
  0
VERTEX
  8
0
  6
CONTINUOUS
 62
     2
 10
1233.187656749
 20
248.360626687
 30
0.0
 42
0.021820078
  0
VERTEX
  8
0
  6
CONTINUOUS
 62
     2
 10
1233.3792912
 20
248.318142352
 30
0.0
 42
0.021820078
  0
VERTEX
  8
0
  6
CONTINUOUS
 62
     2
 10
1233.573899179
 20
248.292521726
 30
0.0
 42
0.021820078
  0
VERTEX
  8
0
  6
CONTINUOUS
 62
     2
 10
1233.7699996
 20
248.283959796
 30
0.0
 42
0.021820078
  0
VERTEX
  8
0
  6
CONTINUOUS
 62
     2
 10
1233.966100021
 20
248.292521726
 30
0.0
 42
0.021820078
  0
VERTEX
  8
0
  6
CONTINUOUS
 62
     2
 10
1234.160708
 20
248.318142352
 30
0.0
 42
0.021820078
  0
VERTEX
  8
0
  6
CONTINUOUS
 62
     2
 10
1234.352342451
 20
248.360626687
 30
0.0
 42
0.021820078
  0
VERTEX
  8
0
  6
CONTINUOUS
 62
     2
 10
1234.539544922
 20
248.419651399
 30
0.0
 42
0.021820078
  0
VERTEX
  8
0
  6
CONTINUOUS
 62
     2
 10
1234.720890689
 20
248.494767275
 30
0.0
 42
0.021820078
  0
VERTEX
  8
0
  6
CONTINUOUS
 62
     2
 10
1234.8949996
 20
248.585402638
 30
0.0
 42
0.021820078
  0
VERTEX
  8
0
  6
CONTINUOUS
 62
     2
 10
1235.060546582
 20
248.690867697
 30
0.0
 42
0.021820078
  0
VERTEX
  8
0
  6
CONTINUOUS
 62
     2
 10
1235.216271722
 20
248.810359799
 30
0.0
 42
0.021820078
  0
VERTEX
  8
0
  6
CONTINUOUS
 62
     2
 10
1235.360989858
 20
248.942969539
 30
0.0
 42
0.021820078
  0
VERTEX
  8
0
  6
CONTINUOUS
 62
     2
 10
1235.493599597
 20
249.087687674
 30
0.0
 42
0.021820078
  0
VERTEX
  8
0
  6
CONTINUOUS
 62
     2
 10
1235.6130917
 20
249.243412814
 30
0.0
 42
0.021820078
  0
VERTEX
  8
0
  6
CONTINUOUS
 62
     2
 10
1235.718556759
 20
249.408959796
 30
0.0
 42
0.021820078
  0
VERTEX
  8
0
  6
CONTINUOUS
 62
     2
 10
1235.809192121
 20
249.583068707
 30
0.0
 42
0.021820078
  0
VERTEX
  8
0
  6
CONTINUOUS
 62
     2
 10
1235.884307997
 20
249.764414474
 30
0.0
 42
0.021820078
  0
VERTEX
  8
0
  6
CONTINUOUS
 62
     2
 10
1235.943332709
 20
249.951616945
 30
0.0
 42
0.021820078
  0
VERTEX
  8
0
  6
CONTINUOUS
 62
     2
 10
1235.985817044
 20
250.143251396
 30
0.0
 42
0.021820078
  0
VERTEX
  8
0
  6
CONTINUOUS
 62
     2
 10
1236.011437671
 20
250.337859375
 30
0.0
 42
0.021820078
  0
SEQEND
  8
0
  6
CONTINUOUS
 62
     2
  0
POLYLINE
  8
0
  6
CONTINUOUS
 62
     2
 66
     1
 70
     1
  0
VERTEX
  8
0
  6
CONTINUOUS
 62
     2
 10
1221.0199996
 20
206.183959796
 30
0.0
 42
-0.021820078
  0
VERTEX
  8
0
  6
CONTINUOUS
 62
     2
 10
1221.011437671
 20
205.987859375
 30
0.0
 42
-0.021820078
  0
VERTEX
  8
0
  6
CONTINUOUS
 62
     2
 10
1220.985817044
 20
205.793251396
 30
0.0
 42
-0.021820078
  0
VERTEX
  8
0
  6
CONTINUOUS
 62
     2
 10
1220.943332709
 20
205.601616945
 30
0.0
 42
-0.021820078
  0
VERTEX
  8
0
  6
CONTINUOUS
 62
     2
 10
1220.884307997
 20
205.414414474
 30
0.0
 42
-0.021820078
  0
VERTEX
  8
0
  6
CONTINUOUS
 62
     2
 10
1220.809192121
 20
205.233068707
 30
0.0
 42
-0.021820078
  0
VERTEX
  8
0
  6
CONTINUOUS
 62
     2
 10
1220.718556759
 20
205.058959796
 30
0.0
 42
-0.021820078
  0
VERTEX
  8
0
  6
CONTINUOUS
 62
     2
 10
1220.6130917
 20
204.893412814
 30
0.0
 42
-0.021820078
  0
VERTEX
  8
0
  6
CONTINUOUS
 62
     2
 10
1220.493599597
 20
204.737687674
 30
0.0
 42
-0.021820078
  0
VERTEX
  8
0
  6
CONTINUOUS
 62
     2
 10
1220.360989858
 20
204.592969539
 30
0.0
 42
-0.021820078
  0
VERTEX
  8
0
  6
CONTINUOUS
 62
     2
 10
1220.216271722
 20
204.460359799
 30
0.0
 42
-0.021820078
  0
VERTEX
  8
0
  6
CONTINUOUS
 62
     2
 10
1220.060546582
 20
204.340867697
 30
0.0
 42
-0.021820078
  0
VERTEX
  8
0
  6
CONTINUOUS
 62
     2
 10
1219.8949996
 20
204.235402638
 30
0.0
 42
-0.021820078
  0
VERTEX
  8
0
  6
CONTINUOUS
 62
     2
 10
1219.720890689
 20
204.144767275
 30
0.0
 42
-0.021820078
  0
VERTEX
  8
0
  6
CONTINUOUS
 62
     2
 10
1219.539544922
 20
204.069651399
 30
0.0
 42
-0.021820078
  0
VERTEX
  8
0
  6
CONTINUOUS
 62
     2
 10
1219.352342451
 20
204.010626687
 30
0.0
 42
-0.021820078
  0
VERTEX
  8
0
  6
CONTINUOUS
 62
     2
 10
1219.160708
 20
203.968142352
 30
0.0
 42
-0.021820078
  0
VERTEX
  8
0
  6
CONTINUOUS
 62
     2
 10
1218.966100021
 20
203.942521726
 30
0.0
 42
-0.021820078
  0
VERTEX
  8
0
  6
CONTINUOUS
 62
     2
 10
1218.7699996
 20
203.933959796
 30
0.0
 42
-0.021820078
  0
VERTEX
  8
0
  6
CONTINUOUS
 62
     2
 10
1218.573899179
 20
203.942521726
 30
0.0
 42
-0.021820078
  0
VERTEX
  8
0
  6
CONTINUOUS
 62
     2
 10
1218.3792912
 20
203.968142352
 30
0.0
 42
-0.021820078
  0
VERTEX
  8
0
  6
CONTINUOUS
 62
     2
 10
1218.187656749
 20
204.010626687
 30
0.0
 42
-0.021820078
  0
VERTEX
  8
0
  6
CONTINUOUS
 62
     2
 10
1218.000454278
 20
204.069651399
 30
0.0
 42
-0.021820078
  0
VERTEX
  8
0
  6
CONTINUOUS
 62
     2
 10
1217.819108511
 20
204.144767275
 30
0.0
 42
-0.021820078
  0
VERTEX
  8
0
  6
CONTINUOUS
 62
     2
 10
1217.6449996
 20
204.235402638
 30
0.0
 42
-0.021820078
  0
VERTEX
  8
0
  6
CONTINUOUS
 62
     2
 10
1217.479452618
 20
204.340867697
 30
0.0
 42
-0.021820078
  0
VERTEX
  8
0
  6
CONTINUOUS
 62
     2
 10
1217.323727478
 20
204.460359799
 30
0.0
 42
-0.021820078
  0
VERTEX
  8
0
  6
CONTINUOUS
 62
     2
 10
1217.179009342
 20
204.592969539
 30
0.0
 42
-0.021820078
  0
VERTEX
  8
0
  6
CONTINUOUS
 62
     2
 10
1217.046399603
 20
204.737687674
 30
0.0
 42
-0.021820078
  0
VERTEX
  8
0
  6
CONTINUOUS
 62
     2
 10
1216.9269075
 20
204.893412814
 30
0.0
 42
-0.021820078
  0
VERTEX
  8
0
  6
CONTINUOUS
 62
     2
 10
1216.821442441
 20
205.058959796
 30
0.0
 42
-0.021820078
  0
VERTEX
  8
0
  6
CONTINUOUS
 62
     2
 10
1216.730807079
 20
205.233068707
 30
0.0
 42
-0.021820078
  0
VERTEX
  8
0
  6
CONTINUOUS
 62
     2
 10
1216.655691203
 20
205.414414474
 30
0.0
 42
-0.021820078
  0
VERTEX
  8
0
  6
CONTINUOUS
 62
     2
 10
1216.596666491
 20
205.601616945
 30
0.0
 42
-0.021820078
  0
VERTEX
  8
0
  6
CONTINUOUS
 62
     2
 10
1216.554182156
 20
205.793251396
 30
0.0
 42
-0.021820078
  0
VERTEX
  8
0
  6
CONTINUOUS
 62
     2
 10
1216.528561529
 20
205.987859375
 30
0.0
 42
-0.021820078
  0
VERTEX
  8
0
  6
CONTINUOUS
 62
     2
 10
1216.5199996
 20
206.183959796
 30
0.0
 42
-0.021820078
  0
VERTEX
  8
0
  6
CONTINUOUS
 62
     2
 10
1216.528561529
 20
206.380060217
 30
0.0
 42
-0.021820078
  0
VERTEX
  8
0
  6
CONTINUOUS
 62
     2
 10
1216.554182156
 20
206.574668196
 30
0.0
 42
-0.021820078
  0
VERTEX
  8
0
  6
CONTINUOUS
 62
     2
 10
1216.596666491
 20
206.766302648
 30
0.0
 42
-0.021820078
  0
VERTEX
  8
0
  6
CONTINUOUS
 62
     2
 10
1216.655691203
 20
206.953505119
 30
0.0
 42
-0.021820078
  0
VERTEX
  8
0
  6
CONTINUOUS
 62
     2
 10
1216.730807079
 20
207.134850885
 30
0.0
 42
-0.021820078
  0
VERTEX
  8
0
  6
CONTINUOUS
 62
     2
 10
1216.821442441
 20
207.308959796
 30
0.0
 42
-0.021820078
  0
VERTEX
  8
0
  6
CONTINUOUS
 62
     2
 10
1216.9269075
 20
207.474506778
 30
0.0
 42
-0.021820078
  0
VERTEX
  8
0
  6
CONTINUOUS
 62
     2
 10
1217.046399603
 20
207.630231918
 30
0.0
 42
-0.021820078
  0
VERTEX
  8
0
  6
CONTINUOUS
 62
     2
 10
1217.179009342
 20
207.774950054
 30
0.0
 42
-0.021820078
  0
VERTEX
  8
0
  6
CONTINUOUS
 62
     2
 10
1217.323727478
 20
207.907559793
 30
0.0
 42
-0.021820078
  0
VERTEX
  8
0
  6
CONTINUOUS
 62
     2
 10
1217.479452618
 20
208.027051896
 30
0.0
 42
-0.021820078
  0
VERTEX
  8
0
  6
CONTINUOUS
 62
     2
 10
1217.6449996
 20
208.132516955
 30
0.0
 42
-0.021820078
  0
VERTEX
  8
0
  6
CONTINUOUS
 62
     2
 10
1217.819108511
 20
208.223152317
 30
0.0
 42
-0.021820078
  0
VERTEX
  8
0
  6
CONTINUOUS
 62
     2
 10
1218.000454278
 20
208.298268193
 30
0.0
 42
-0.021820078
  0
VERTEX
  8
0
  6
CONTINUOUS
 62
     2
 10
1218.187656749
 20
208.357292905
 30
0.0
 42
-0.021820078
  0
VERTEX
  8
0
  6
CONTINUOUS
 62
     2
 10
1218.3792912
 20
208.39977724
 30
0.0
 42
-0.021820078
  0
VERTEX
  8
0
  6
CONTINUOUS
 62
     2
 10
1218.573899179
 20
208.425397867
 30
0.0
 42
-0.021820078
  0
VERTEX
  8
0
  6
CONTINUOUS
 62
     2
 10
1218.7699996
 20
208.433959796
 30
0.0
 42
-0.021820078
  0
VERTEX
  8
0
  6
CONTINUOUS
 62
     2
 10
1218.966100021
 20
208.425397867
 30
0.0
 42
-0.021820078
  0
VERTEX
  8
0
  6
CONTINUOUS
 62
     2
 10
1219.160708
 20
208.39977724
 30
0.0
 42
-0.021820078
  0
VERTEX
  8
0
  6
CONTINUOUS
 62
     2
 10
1219.352342451
 20
208.357292905
 30
0.0
 42
-0.021820078
  0
VERTEX
  8
0
  6
CONTINUOUS
 62
     2
 10
1219.539544922
 20
208.298268193
 30
0.0
 42
-0.021820078
  0
VERTEX
  8
0
  6
CONTINUOUS
 62
     2
 10
1219.720890689
 20
208.223152317
 30
0.0
 42
-0.021820078
  0
VERTEX
  8
0
  6
CONTINUOUS
 62
     2
 10
1219.8949996
 20
208.132516955
 30
0.0
 42
-0.021820078
  0
VERTEX
  8
0
  6
CONTINUOUS
 62
     2
 10
1220.060546582
 20
208.027051896
 30
0.0
 42
-0.021820078
  0
VERTEX
  8
0
  6
CONTINUOUS
 62
     2
 10
1220.216271722
 20
207.907559793
 30
0.0
 42
-0.021820078
  0
VERTEX
  8
0
  6
CONTINUOUS
 62
     2
 10
1220.360989858
 20
207.774950054
 30
0.0
 42
-0.021820078
  0
VERTEX
  8
0
  6
CONTINUOUS
 62
     2
 10
1220.493599597
 20
207.630231918
 30
0.0
 42
-0.021820078
  0
VERTEX
  8
0
  6
CONTINUOUS
 62
     2
 10
1220.6130917
 20
207.474506778
 30
0.0
 42
-0.021820078
  0
VERTEX
  8
0
  6
CONTINUOUS
 62
     2
 10
1220.718556759
 20
207.308959796
 30
0.0
 42
-0.021820078
  0
VERTEX
  8
0
  6
CONTINUOUS
 62
     2
 10
1220.809192121
 20
207.134850885
 30
0.0
 42
-0.021820078
  0
VERTEX
  8
0
  6
CONTINUOUS
 62
     2
 10
1220.884307997
 20
206.953505119
 30
0.0
 42
-0.021820078
  0
VERTEX
  8
0
  6
CONTINUOUS
 62
     2
 10
1220.943332709
 20
206.766302648
 30
0.0
 42
-0.021820078
  0
VERTEX
  8
0
  6
CONTINUOUS
 62
     2
 10
1220.985817044
 20
206.574668196
 30
0.0
 42
-0.021820078
  0
VERTEX
  8
0
  6
CONTINUOUS
 62
     2
 10
1221.011437671
 20
206.380060217
 30
0.0
 42
-0.021820078
  0
SEQEND
  8
0
  6
CONTINUOUS
 62
     2
  0
POLYLINE
  8
0
  6
CONTINUOUS
 62
     2
 66
     1
 70
     1
  0
VERTEX
  8
0
  6
CONTINUOUS
 62
     2
 10
1236.0199996
 20
206.183959796
 30
0.0
 42
-0.021820078
  0
VERTEX
  8
0
  6
CONTINUOUS
 62
     2
 10
1236.011437671
 20
205.987859375
 30
0.0
 42
-0.021820078
  0
VERTEX
  8
0
  6
CONTINUOUS
 62
     2
 10
1235.985817044
 20
205.793251396
 30
0.0
 42
-0.021820078
  0
VERTEX
  8
0
  6
CONTINUOUS
 62
     2
 10
1235.943332709
 20
205.601616945
 30
0.0
 42
-0.021820078
  0
VERTEX
  8
0
  6
CONTINUOUS
 62
     2
 10
1235.884307997
 20
205.414414474
 30
0.0
 42
-0.021820078
  0
VERTEX
  8
0
  6
CONTINUOUS
 62
     2
 10
1235.809192121
 20
205.233068707
 30
0.0
 42
-0.021820078
  0
VERTEX
  8
0
  6
CONTINUOUS
 62
     2
 10
1235.718556759
 20
205.058959796
 30
0.0
 42
-0.021820078
  0
VERTEX
  8
0
  6
CONTINUOUS
 62
     2
 10
1235.6130917
 20
204.893412814
 30
0.0
 42
-0.021820078
  0
VERTEX
  8
0
  6
CONTINUOUS
 62
     2
 10
1235.493599597
 20
204.737687674
 30
0.0
 42
-0.021820078
  0
VERTEX
  8
0
  6
CONTINUOUS
 62
     2
 10
1235.360989858
 20
204.592969539
 30
0.0
 42
-0.021820078
  0
VERTEX
  8
0
  6
CONTINUOUS
 62
     2
 10
1235.216271722
 20
204.460359799
 30
0.0
 42
-0.021820078
  0
VERTEX
  8
0
  6
CONTINUOUS
 62
     2
 10
1235.060546582
 20
204.340867697
 30
0.0
 42
-0.021820078
  0
VERTEX
  8
0
  6
CONTINUOUS
 62
     2
 10
1234.8949996
 20
204.235402638
 30
0.0
 42
-0.021820078
  0
VERTEX
  8
0
  6
CONTINUOUS
 62
     2
 10
1234.720890689
 20
204.144767275
 30
0.0
 42
-0.021820078
  0
VERTEX
  8
0
  6
CONTINUOUS
 62
     2
 10
1234.539544922
 20
204.069651399
 30
0.0
 42
-0.021820078
  0
VERTEX
  8
0
  6
CONTINUOUS
 62
     2
 10
1234.352342451
 20
204.010626687
 30
0.0
 42
-0.021820078
  0
VERTEX
  8
0
  6
CONTINUOUS
 62
     2
 10
1234.160708
 20
203.968142352
 30
0.0
 42
-0.021820078
  0
VERTEX
  8
0
  6
CONTINUOUS
 62
     2
 10
1233.966100021
 20
203.942521726
 30
0.0
 42
-0.021820078
  0
VERTEX
  8
0
  6
CONTINUOUS
 62
     2
 10
1233.7699996
 20
203.933959796
 30
0.0
 42
-0.021820078
  0
VERTEX
  8
0
  6
CONTINUOUS
 62
     2
 10
1233.573899179
 20
203.942521726
 30
0.0
 42
-0.021820078
  0
VERTEX
  8
0
  6
CONTINUOUS
 62
     2
 10
1233.3792912
 20
203.968142352
 30
0.0
 42
-0.021820078
  0
VERTEX
  8
0
  6
CONTINUOUS
 62
     2
 10
1233.187656749
 20
204.010626687
 30
0.0
 42
-0.021820078
  0
VERTEX
  8
0
  6
CONTINUOUS
 62
     2
 10
1233.000454278
 20
204.069651399
 30
0.0
 42
-0.021820078
  0
VERTEX
  8
0
  6
CONTINUOUS
 62
     2
 10
1232.819108511
 20
204.144767275
 30
0.0
 42
-0.021820078
  0
VERTEX
  8
0
  6
CONTINUOUS
 62
     2
 10
1232.6449996
 20
204.235402638
 30
0.0
 42
-0.021820078
  0
VERTEX
  8
0
  6
CONTINUOUS
 62
     2
 10
1232.479452618
 20
204.340867697
 30
0.0
 42
-0.021820078
  0
VERTEX
  8
0
  6
CONTINUOUS
 62
     2
 10
1232.323727478
 20
204.460359799
 30
0.0
 42
-0.021820078
  0
VERTEX
  8
0
  6
CONTINUOUS
 62
     2
 10
1232.179009342
 20
204.592969539
 30
0.0
 42
-0.021820078
  0
VERTEX
  8
0
  6
CONTINUOUS
 62
     2
 10
1232.046399603
 20
204.737687674
 30
0.0
 42
-0.021820078
  0
VERTEX
  8
0
  6
CONTINUOUS
 62
     2
 10
1231.9269075
 20
204.893412814
 30
0.0
 42
-0.021820078
  0
VERTEX
  8
0
  6
CONTINUOUS
 62
     2
 10
1231.821442441
 20
205.058959796
 30
0.0
 42
-0.021820078
  0
VERTEX
  8
0
  6
CONTINUOUS
 62
     2
 10
1231.730807079
 20
205.233068707
 30
0.0
 42
-0.021820078
  0
VERTEX
  8
0
  6
CONTINUOUS
 62
     2
 10
1231.655691203
 20
205.414414474
 30
0.0
 42
-0.021820078
  0
VERTEX
  8
0
  6
CONTINUOUS
 62
     2
 10
1231.596666491
 20
205.601616945
 30
0.0
 42
-0.021820078
  0
VERTEX
  8
0
  6
CONTINUOUS
 62
     2
 10
1231.554182156
 20
205.793251396
 30
0.0
 42
-0.021820078
  0
VERTEX
  8
0
  6
CONTINUOUS
 62
     2
 10
1231.528561529
 20
205.987859375
 30
0.0
 42
-0.021820078
  0
VERTEX
  8
0
  6
CONTINUOUS
 62
     2
 10
1231.5199996
 20
206.183959796
 30
0.0
 42
-0.021820078
  0
VERTEX
  8
0
  6
CONTINUOUS
 62
     2
 10
1231.528561529
 20
206.380060217
 30
0.0
 42
-0.021820078
  0
VERTEX
  8
0
  6
CONTINUOUS
 62
     2
 10
1231.554182156
 20
206.574668196
 30
0.0
 42
-0.021820078
  0
VERTEX
  8
0
  6
CONTINUOUS
 62
     2
 10
1231.596666491
 20
206.766302648
 30
0.0
 42
-0.021820078
  0
VERTEX
  8
0
  6
CONTINUOUS
 62
     2
 10
1231.655691203
 20
206.953505119
 30
0.0
 42
-0.021820078
  0
VERTEX
  8
0
  6
CONTINUOUS
 62
     2
 10
1231.730807079
 20
207.134850885
 30
0.0
 42
-0.021820078
  0
VERTEX
  8
0
  6
CONTINUOUS
 62
     2
 10
1231.821442441
 20
207.308959796
 30
0.0
 42
-0.021820078
  0
VERTEX
  8
0
  6
CONTINUOUS
 62
     2
 10
1231.9269075
 20
207.474506778
 30
0.0
 42
-0.021820078
  0
VERTEX
  8
0
  6
CONTINUOUS
 62
     2
 10
1232.046399603
 20
207.630231918
 30
0.0
 42
-0.021820078
  0
VERTEX
  8
0
  6
CONTINUOUS
 62
     2
 10
1232.179009342
 20
207.774950054
 30
0.0
 42
-0.021820078
  0
VERTEX
  8
0
  6
CONTINUOUS
 62
     2
 10
1232.323727478
 20
207.907559793
 30
0.0
 42
-0.021820078
  0
VERTEX
  8
0
  6
CONTINUOUS
 62
     2
 10
1232.479452618
 20
208.027051896
 30
0.0
 42
-0.021820078
  0
VERTEX
  8
0
  6
CONTINUOUS
 62
     2
 10
1232.6449996
 20
208.132516955
 30
0.0
 42
-0.021820078
  0
VERTEX
  8
0
  6
CONTINUOUS
 62
     2
 10
1232.819108511
 20
208.223152317
 30
0.0
 42
-0.021820078
  0
VERTEX
  8
0
  6
CONTINUOUS
 62
     2
 10
1233.000454278
 20
208.298268193
 30
0.0
 42
-0.021820078
  0
VERTEX
  8
0
  6
CONTINUOUS
 62
     2
 10
1233.187656749
 20
208.357292905
 30
0.0
 42
-0.021820078
  0
VERTEX
  8
0
  6
CONTINUOUS
 62
     2
 10
1233.3792912
 20
208.39977724
 30
0.0
 42
-0.021820078
  0
VERTEX
  8
0
  6
CONTINUOUS
 62
     2
 10
1233.573899179
 20
208.425397867
 30
0.0
 42
-0.021820078
  0
VERTEX
  8
0
  6
CONTINUOUS
 62
     2
 10
1233.7699996
 20
208.433959796
 30
0.0
 42
-0.021820078
  0
VERTEX
  8
0
  6
CONTINUOUS
 62
     2
 10
1233.966100021
 20
208.425397867
 30
0.0
 42
-0.021820078
  0
VERTEX
  8
0
  6
CONTINUOUS
 62
     2
 10
1234.160708
 20
208.39977724
 30
0.0
 42
-0.021820078
  0
VERTEX
  8
0
  6
CONTINUOUS
 62
     2
 10
1234.352342451
 20
208.357292905
 30
0.0
 42
-0.021820078
  0
VERTEX
  8
0
  6
CONTINUOUS
 62
     2
 10
1234.539544922
 20
208.298268193
 30
0.0
 42
-0.021820078
  0
VERTEX
  8
0
  6
CONTINUOUS
 62
     2
 10
1234.720890689
 20
208.223152317
 30
0.0
 42
-0.021820078
  0
VERTEX
  8
0
  6
CONTINUOUS
 62
     2
 10
1234.8949996
 20
208.132516955
 30
0.0
 42
-0.021820078
  0
VERTEX
  8
0
  6
CONTINUOUS
 62
     2
 10
1235.060546582
 20
208.027051896
 30
0.0
 42
-0.021820078
  0
VERTEX
  8
0
  6
CONTINUOUS
 62
     2
 10
1235.216271722
 20
207.907559793
 30
0.0
 42
-0.021820078
  0
VERTEX
  8
0
  6
CONTINUOUS
 62
     2
 10
1235.360989858
 20
207.774950054
 30
0.0
 42
-0.021820078
  0
VERTEX
  8
0
  6
CONTINUOUS
 62
     2
 10
1235.493599597
 20
207.630231918
 30
0.0
 42
-0.021820078
  0
VERTEX
  8
0
  6
CONTINUOUS
 62
     2
 10
1235.6130917
 20
207.474506778
 30
0.0
 42
-0.021820078
  0
VERTEX
  8
0
  6
CONTINUOUS
 62
     2
 10
1235.718556759
 20
207.308959796
 30
0.0
 42
-0.021820078
  0
VERTEX
  8
0
  6
CONTINUOUS
 62
     2
 10
1235.809192121
 20
207.134850885
 30
0.0
 42
-0.021820078
  0
VERTEX
  8
0
  6
CONTINUOUS
 62
     2
 10
1235.884307997
 20
206.953505119
 30
0.0
 42
-0.021820078
  0
VERTEX
  8
0
  6
CONTINUOUS
 62
     2
 10
1235.943332709
 20
206.766302648
 30
0.0
 42
-0.021820078
  0
VERTEX
  8
0
  6
CONTINUOUS
 62
     2
 10
1235.985817044
 20
206.574668196
 30
0.0
 42
-0.021820078
  0
VERTEX
  8
0
  6
CONTINUOUS
 62
     2
 10
1236.011437671
 20
206.380060217
 30
0.0
 42
-0.021820078
  0
SEQEND
  8
0
  6
CONTINUOUS
 62
     2
  0
TEXT
  8
0
  6
CONTINUOUS
 62
     2
 10
1210.0199996
 20
195.783959796
 30
0.0
 40
10.0
  1
１
 50
0.0
 41
0.85
 51
0.0
  7
KANJI25
  0
TEXT
  8
0
  6
CONTINUOUS
 62
     2
 10
1235.0199996
 20
195.783959796
 30
0.0
 40
10.0
  1
２
 50
0.0
 41
0.85
 51
0.0
  7
KANJI25
  0
TEXT
  8
0
  6
CONTINUOUS
 62
     2
 10
1178.1199996
 20
250.483959796
 30
0.0
 40
10.0
  1
（ＮＯ）
 50
0.0
 41
0.75
 51
0.0
  7
KANJI26
  0
TEXT
  8
0
  6
CONTINUOUS
 62
     2
 10
1244.1199996
 20
250.483959796
 30
0.0
 40
10.0
  1
（ＮＯ）
 50
0.0
 41
0.75
 51
0.0
  7
KANJI26
  0
TEXT
  8
0
  6
CONTINUOUS
 62
     2
 10
1178.1199996
 20
192.983959796
 30
0.0
 40
10.0
  1
（ＮＣ）
 50
0.0
 41
0.75
 51
0.0
  7
KANJI26
  0
TEXT
  8
0
  6
CONTINUOUS
 62
     2
 10
1244.1199996
 20
192.983959796
 30
0.0
 40
10.0
  1
（ＮＣ）
 50
0.0
 41
0.75
 51
0.0
  7
KANJI26
  0
TEXT
  8
0
  6
CONTINUOUS
 62
     2
 10
1161.9949996
 20
163.983959796
 30
0.0
 40
15.0
  1
外部ＬＳリミットＳＷ
 50
0.0
 41
0.9
 51
0.0
  7
KANJI27
  0
TEXT
  8
0
  6
CONTINUOUS
 62
     2
 10
1199.2449996
 20
144.983959796
 30
0.0
 40
15.0
  1
端子符号
 50
0.0
 41
0.9
 51
0.0
  7
KANJI27
  0
LINE
  8
0
  6
CONTINUOUS
 62
     2
 10
1303.7449996
 20
151.483959796
 30
0.0
 11
1303.7449996
 21
321.233959796
 31
0.0
  0
LINE
  8
0
  6
CONTINUOUS
 62
     2
 10
1303.7449996
 20
321.233959796
 30
0.0
 11
1150.4949996
 21
321.233959796
 31
0.0
  0
LINE
  8
0
  6
CONTINUOUS
 62
     2
 10
1150.4949996
 20
321.233959796
 30
0.0
 11
1150.4949996
 21
151.483959796
 31
0.0
  0
LINE
  8
0
  6
CONTINUOUS
 62
     2
 10
1258.7449996
 20
151.483959796
 30
0.0
 11
1303.7449996
 21
151.483959796
 31
0.0
  0
LINE
  8
0
  6
CONTINUOUS
 62
     2
 10
1150.4949996
 20
151.483959796
 30
0.0
 11
1189.4949996
 21
151.483959796
 31
0.0
  0
CIRCLE
  8
0
  6
CONTINUOUS
 62
     1
 10
457.5199996
 20
654.4999852
 30
0.0
 40
15.0
  0
CIRCLE
  8
0
  6
CONTINUOUS
 62
     1
 10
457.5199996
 20
654.4999852
 30
0.0
 40
30.0
  0
CIRCLE
  8
0
  6
CONTINUOUS
 62
     1
 10
457.5199996
 20
654.4999852
 30
0.0
 40
34.0
  0
LINE
  8
0
  6
CONTINUOUS
 62
     1
 10
357.5199996
 20
734.4999852
 30
0.0
 11
357.5199996
 21
574.4999852
 31
0.0
  0
LINE
  8
0
  6
CONTINUOUS
 62
     1
 10
459.5199996
 20
586.4999852
 30
0.0
 11
533.5199996
 21
586.4999852
 31
0.0
  0
LINE
  8
0
  6
CONTINUOUS
 62
     1
 10
459.5199996
 20
605.0999852
 30
0.0
 11
459.5199996
 21
586.4999852
 31
0.0
  0
LINE
  8
0
  6
CONTINUOUS
 62
     1
 10
533.5199996
 20
605.7999852
 30
0.0
 11
533.5199996
 21
586.4999852
 31
0.0
  0
LINE
  8
0
  6
LTYPE3
 62
     2
 10
457.5199996
 20
699.4999852
 30
0.0
 11
457.5199996
 21
609.4999852
 31
0.0
  0
LINE
  8
0
  6
CONTINUOUS
 62
     1
 10
357.5199996
 20
734.4999852
 30
0.0
 11
373.5199996
 21
734.4999852
 31
0.0
  0
ARC
  8
0
  6
CONTINUOUS
 62
     1
 10
373.5199996
 20
732.4999852
 30
0.0
 40
2.0
 50
0.0
 51
90.0
  0
LINE
  8
0
  6
CONTINUOUS
 62
     1
 10
357.5199996
 20
574.4999852
 30
0.0
 11
373.5199996
 21
574.4999852
 31
0.0
  0
LINE
  8
0
  6
CONTINUOUS
 62
     1
 10
375.5199996
 20
732.4999852
 30
0.0
 11
375.5199996
 21
576.4999852
 31
0.0
  0
ARC
  8
0
  6
CONTINUOUS
 62
     1
 10
373.5199996
 20
576.4999852
 30
0.0
 40
2.0
 50
270.0
 51
0.0
  0
LINE
  8
0
  6
CONTINUOUS
 62
     1
 10
533.6199996
 20
589.4999852
 30
0.0
 11
598.5199996
 21
589.4999852
 31
0.0
  0
LINE
  8
0
  6
CONTINUOUS
 62
     1
 10
379.5199996
 20
594.4999852
 30
0.0
 11
379.5199996
 21
608.330973298
 31
0.0
  0
LINE
  8
0
  6
CONTINUOUS
 62
     1
 10
379.5199996
 20
594.4999852
 30
0.0
 11
379.5199996
 21
580.668997102
 31
0.0
  0
POINT
  8
0
  6
CONTINUOUS
 62
     1
 10
375.5199996
 20
608.4999852
 30
0.0
  0
LINE
  8
0
  6
CONTINUOUS
 62
     1
 10
375.5199996
 20
608.4999852
 30
0.0
 11
379.5199996
 21
608.4999852
 31
0.0
  0
LINE
  8
0
  6
CONTINUOUS
 62
     1
 10
375.5199996
 20
594.4999852
 30
0.0
 11
379.519996595
 21
598.499982195
 31
0.0
  0
LINE
  8
0
  6
CONTINUOUS
 62
     1
 10
379.519996595
 20
594.4999852
 30
0.0
 11
375.5199996
 21
590.499988205
 31
0.0
  0
POINT
  8
0
  6
CONTINUOUS
 62
     1
 10
375.5199996
 20
580.4999852
 30
0.0
  0
LINE
  8
0
  6
CONTINUOUS
 62
     1
 10
375.5199996
 20
580.4999852
 30
0.0
 11
379.5199996
 21
580.4999852
 31
0.0
  0
LINE
  8
0
  6
CONTINUOUS
 62
     1
 10
394.5199996
 20
594.499984976
 30
0.0
 11
394.5199996
 21
606.4999852
 31
0.0
  0
LINE
  8
0
  6
CONTINUOUS
 62
     1
 10
379.5199996
 20
606.4999852
 30
0.0
 11
394.5199996
 21
606.4999852
 31
0.0
  0
LINE
  8
0
  6
CONTINUOUS
 62
     1
 10
394.5199996
 20
606.4999852
 30
0.0
 11
395.5199996
 21
604.767934392
 31
0.0
  0
LINE
  8
0
  6
CONTINUOUS
 62
     1
 10
395.5199996
 20
594.499984962
 30
0.0
 11
395.5199996
 21
604.767934392
 31
0.0
  0
LINE
  8
0
  6
CONTINUOUS
 62
     1
 10
394.5199996
 20
594.499985424
 30
0.0
 11
394.5199996
 21
582.4999852
 31
0.0
  0
LINE
  8
0
  6
CONTINUOUS
 62
     1
 10
379.5199996
 20
582.4999852
 30
0.0
 11
394.5199996
 21
582.4999852
 31
0.0
  0
LINE
  8
0
  6
CONTINUOUS
 62
     1
 10
394.5199996
 20
582.4999852
 30
0.0
 11
395.5199996
 21
584.232036008
 31
0.0
  0
LINE
  8
0
  6
CONTINUOUS
 62
     1
 10
395.5199996
 20
594.499985438
 30
0.0
 11
395.5199996
 21
584.232036008
 31
0.0
  0
LINE
  8
0
  6
CONTINUOUS
 62
     1
 10
395.5199996
 20
589.4999852
 30
0.0
 11
459.7199996
 21
589.4999852
 31
0.0
  0
LINE
  8
0
  6
LTYPE3
 62
     2
 10
345.8199996
 20
594.4999852
 30
0.0
 11
401.6199996
 21
594.4999852
 31
0.0
  0
LINE
  8
0
  6
CONTINUOUS
 62
     1
 10
379.5199996
 20
714.4999852
 30
0.0
 11
379.5199996
 21
700.668997102
 31
0.0
  0
LINE
  8
0
  6
CONTINUOUS
 62
     1
 10
379.5199996
 20
714.4999852
 30
0.0
 11
379.5199996
 21
728.330973298
 31
0.0
  0
POINT
  8
0
  6
CONTINUOUS
 62
     1
 10
375.5199996
 20
700.4999852
 30
0.0
  0
LINE
  8
0
  6
CONTINUOUS
 62
     1
 10
375.5199996
 20
700.4999852
 30
0.0
 11
379.5199996
 21
700.4999852
 31
0.0
  0
LINE
  8
0
  6
CONTINUOUS
 62
     1
 10
375.5199996
 20
714.4999852
 30
0.0
 11
379.519996595
 21
710.499988205
 31
0.0
  0
LINE
  8
0
  6
CONTINUOUS
 62
     1
 10
379.519996595
 20
714.4999852
 30
0.0
 11
375.5199996
 21
718.499982195
 31
0.0
  0
POINT
  8
0
  6
CONTINUOUS
 62
     1
 10
375.5199996
 20
728.4999852
 30
0.0
  0
LINE
  8
0
  6
CONTINUOUS
 62
     1
 10
375.5199996
 20
728.4999852
 30
0.0
 11
379.5199996
 21
728.4999852
 31
0.0
  0
LINE
  8
0
  6
CONTINUOUS
 62
     1
 10
394.5199996
 20
714.499985424
 30
0.0
 11
394.5199996
 21
702.4999852
 31
0.0
  0
LINE
  8
0
  6
CONTINUOUS
 62
     1
 10
379.5199996
 20
702.4999852
 30
0.0
 11
394.5199996
 21
702.4999852
 31
0.0
  0
LINE
  8
0
  6
CONTINUOUS
 62
     1
 10
394.5199996
 20
702.4999852
 30
0.0
 11
395.5199996
 21
704.232036008
 31
0.0
  0
LINE
  8
0
  6
CONTINUOUS
 62
     1
 10
395.5199996
 20
714.499985438
 30
0.0
 11
395.5199996
 21
704.232036008
 31
0.0
  0
LINE
  8
0
  6
CONTINUOUS
 62
     1
 10
394.5199996
 20
714.499984976
 30
0.0
 11
394.5199996
 21
726.4999852
 31
0.0
  0
LINE
  8
0
  6
CONTINUOUS
 62
     1
 10
379.5199996
 20
726.4999852
 30
0.0
 11
394.5199996
 21
726.4999852
 31
0.0
  0
LINE
  8
0
  6
CONTINUOUS
 62
     1
 10
394.5199996
 20
726.4999852
 30
0.0
 11
395.5199996
 21
724.767934392
 31
0.0
  0
LINE
  8
0
  6
CONTINUOUS
 62
     1
 10
395.5199996
 20
714.499984962
 30
0.0
 11
395.5199996
 21
724.767934392
 31
0.0
  0
LINE
  8
0
  6
LTYPE3
 62
     2
 10
345.8199996
 20
714.4999852
 30
0.0
 11
401.6199996
 21
714.4999852
 31
0.0
  0
LINE
  8
0
  6
CONTINUOUS
 62
     1
 10
395.5199996
 20
719.4999852
 30
0.0
 11
598.5199996
 21
719.4999852
 31
0.0
  0
LINE
  8
0
  6
CONTINUOUS
 62
     1
 10
459.5199996
 20
584.9999852
 30
0.0
 11
533.5199996
 21
584.9999852
 31
0.0
  0
LINE
  8
0
  6
CONTINUOUS
 62
     1
 10
542.5199996
 20
584.9999852
 30
0.0
 11
542.5199996
 21
583.9999852
 31
0.0
  0
ARC
  8
0
  6
CONTINUOUS
 62
     1
 10
455.5199996
 20
581.9999852
 30
0.0
 40
3.0
 50
90.0
 51
180.0
  0
LINE
  8
0
  6
CONTINUOUS
 62
     1
 10
581.5199996
 20
541.9999852
 30
0.0
 11
452.5199996
 21
541.9999852
 31
0.0
  0
LINE
  8
0
  6
CONTINUOUS
 62
     1
 10
542.5199996
 20
583.9999852
 30
0.0
 11
578.5199996
 21
583.9999852
 31
0.0
  0
ARC
  8
0
  6
CONTINUOUS
 62
     1
 10
578.5199996
 20
580.9999852
 30
0.0
 40
3.0
 50
0.0
 51
90.0
  0
LINE
  8
0
  6
CONTINUOUS
 62
     1
 10
581.5199996
 20
540.4999852
 30
0.0
 11
452.5199996
 21
540.4999852
 31
0.0
  0
LINE
  8
0
  6
CONTINUOUS
 62
     1
 10
581.5199996
 20
535.4999852
 30
0.0
 11
581.5199996
 21
580.9999852
 31
0.0
  0
ARC
  8
0
  6
CONTINUOUS
 62
     1
 10
580.5199996
 20
535.4999852
 30
0.0
 40
1.0
 50
270.0
 51
0.0
  0
LINE
  8
0
  6
CONTINUOUS
 62
     1
 10
578.5199996
 20
534.4999852
 30
0.0
 11
578.5199996
 21
534.4999852
 31
0.0
  0
ARC
  8
0
  6
CONTINUOUS
 62
     1
 10
577.5199996
 20
534.4999852
 30
0.0
 40
1.0
 50
270.0
 51
0.0
  0
LINE
  8
0
  6
CONTINUOUS
 62
     1
 10
452.5199996
 20
535.4999852
 30
0.0
 11
452.5199996
 21
581.9999852
 31
0.0
  0
ARC
  8
0
  6
CONTINUOUS
 62
     1
 10
453.5199996
 20
535.4999852
 30
0.0
 40
1.0
 50
180.0
 51
270.0
  0
ARC
  8
0
  6
CONTINUOUS
 62
     1
 10
456.5199996
 20
534.4999852
 30
0.0
 40
1.0
 50
180.0
 51
270.0
  0
LINE
  8
0
  6
CONTINUOUS
 62
     1
 10
455.5199996
 20
584.9999852
 30
0.0
 11
542.5199996
 21
584.9999852
 31
0.0
  0
LINE
  8
0
  6
CONTINUOUS
 62
     1
 10
455.5199996
 20
586.4999852
 30
0.0
 11
542.5199996
 21
586.4999852
 31
0.0
  0
LINE
  8
0
  6
LTYPE3
 62
     2
 10
496.5199996
 20
603.1999852
 30
0.0
 11
496.5199996
 21
569.6999852
 31
0.0
  0
LINE
  8
0
  6
LTYPE3
 62
     2
 10
587.7199996
 20
558.9999852
 30
0.0
 11
568.0199996
 21
558.9999852
 31
0.0
  0
LINE
  8
0
  6
LTYPE1
 62
     2
 10
581.5199996
 20
568.2999852
 30
0.0
 11
571.5199996
 21
568.2999852
 31
0.0
  0
LINE
  8
0
  6
LTYPE1
 62
     2
 10
581.5199996
 20
569.4999852
 30
0.0
 11
571.5199996
 21
569.4999852
 31
0.0
  0
LINE
  8
0
  6
LTYPE1
 62
     2
 10
581.5199996
 20
549.6999852
 30
0.0
 11
571.5199996
 21
549.6999852
 31
0.0
  0
LINE
  8
0
  6
LTYPE1
 62
     2
 10
581.5199996
 20
548.4999852
 30
0.0
 11
571.5199996
 21
548.4999852
 31
0.0
  0
LINE
  8
0
  6
CONTINUOUS
 62
     1
 10
598.5199996
 20
659.4999852
 30
0.0
 11
610.5199996
 21
659.4999852
 31
0.0
  0
LINE
  8
0
  6
CONTINUOUS
 62
     1
 10
598.5199996
 20
649.4999852
 30
0.0
 11
610.5199996
 21
649.4999852
 31
0.0
  0
LINE
  8
0
  6
CONTINUOUS
 62
     1
 10
598.5199996
 20
721.9999852
 30
0.0
 11
610.5199996
 21
721.9999852
 31
0.0
  0
LINE
  8
0
  6
CONTINUOUS
 62
     1
 10
598.5199996
 20
717.9999852
 30
0.0
 11
610.5199996
 21
717.9999852
 31
0.0
  0
LINE
  8
0
  6
CONTINUOUS
 62
     1
 10
598.5199996
 20
586.9999852
 30
0.0
 11
610.5199996
 21
586.9999852
 31
0.0
  0
LINE
  8
0
  6
CONTINUOUS
 62
     1
 10
598.5199996
 20
590.9999852
 30
0.0
 11
610.5199996
 21
590.9999852
 31
0.0
  0
LINE
  8
0
  6
CONTINUOUS
 62
     1
 10
598.5199996
 20
721.9999852
 30
0.0
 11
598.5199996
 21
586.9999852
 31
0.0
  0
LINE
  8
0
  6
CONTINUOUS
 62
     1
 10
610.5199996
 20
721.9999852
 30
0.0
 11
610.5199996
 21
586.9999852
 31
0.0
  0
LINE
  8
0
  6
CONTINUOUS
 62
     2
 10
457.5199996
 20
600.4999852
 30
0.0
 11
457.5199996
 21
408.4999852
 31
0.0
  0
LINE
  8
0
  6
CONTINUOUS
 62
     2
 10
457.5199996
 20
417.4999852
 30
0.0
 11
443.031112206
 21
421.382270877
 31
0.0
  0
LINE
  8
0
  6
CONTINUOUS
 62
     2
 10
457.5199996
 20
417.4999852
 30
0.0
 11
443.031112206
 21
413.617699523
 31
0.0
  0
LINE
  8
0
  6
CONTINUOUS
 62
     2
 10
457.5199996
 20
417.4999852
 30
0.0
 11
357.5199996
 21
417.4999852
 31
0.0
  0
LINE
  8
0
  6
CONTINUOUS
 62
     2
 10
357.5199996
 20
417.4999852
 30
0.0
 11
372.008886994
 21
413.617699523
 31
0.0
  0
LINE
  8
0
  6
CONTINUOUS
 62
     2
 10
357.5199996
 20
417.4999852
 30
0.0
 11
372.008886994
 21
421.382270877
 31
0.0
  0
LINE
  8
0
  6
CONTINUOUS
 62
     2
 10
357.5199996
 20
550.4999852
 30
0.0
 11
357.5199996
 21
408.4999852
 31
0.0
  0
TEXT
  8
0
  6
CONTINUOUS
 62
     2
 10
382.0199996
 20
423.4999852
 30
1.2
 40
18.0
  1
１００
 50
0.0
 41
0.9
 51
0.0
  7
KANJI28
  0
LINE
  8
0
  6
CONTINUOUS
 62
     2
 10
357.5199996
 20
417.4999852
 30
0.0
 11
343.031112206
 21
421.382270877
 31
0.0
  0
LINE
  8
0
  6
CONTINUOUS
 62
     2
 10
357.5199996
 20
417.4999852
 30
0.0
 11
343.031112206
 21
413.617699523
 31
0.0
  0
TEXT
  8
0
  6
CONTINUOUS
 62
     2
 10
269.0199996
 20
423.4999852
 30
1.2
 40
18.0
  1
１２５
 50
0.0
 41
0.9
 51
0.0
  7
KANJI28
  0
LINE
  8
0
  6
CONTINUOUS
 62
     2
 10
457.5199996
 20
378.9999852
 30
0.0
 11
443.031112206
 21
382.882270877
 31
0.0
  0
LINE
  8
0
  6
CONTINUOUS
 62
     2
 10
457.5199996
 20
378.9999852
 30
0.0
 11
443.031112206
 21
375.117699523
 31
0.0
  0
LINE
  8
0
  6
CONTINUOUS
 62
     2
 10
457.5199996
 20
408.4999852
 30
0.0
 11
457.5199996
 21
369.9999852
 31
0.0
  0
TEXT
  8
0
  6
CONTINUOUS
 62
     2
 10
319.0199996
 20
384.9999852
 30
1.2
 40
18.0
  1
２２５
 50
0.0
 41
0.9
 51
0.0
  7
KANJI28
  0
LINE
  8
0
  6
CONTINUOUS
 62
     2
 10
457.5199996
 20
378.9999852
 30
0.0
 11
472.008886994
 21
375.117699523
 31
0.0
  0
LINE
  8
0
  6
CONTINUOUS
 62
     2
 10
457.5199996
 20
378.9999852
 30
0.0
 11
472.008886994
 21
382.882270877
 31
0.0
  0
LINE
  8
0
  6
CONTINUOUS
 62
     2
 10
457.5199996
 20
378.9999852
 30
0.0
 11
1092.1199996
 21
378.9999852
 31
0.0
  0
LINE
  8
0
  6
CONTINUOUS
 62
     2
 10
457.5199996
 20
417.4999852
 30
0.0
 11
472.008886994
 21
413.617699523
 31
0.0
  0
LINE
  8
0
  6
CONTINUOUS
 62
     2
 10
457.5199996
 20
417.4999852
 30
0.0
 11
472.008886994
 21
421.382270877
 31
0.0
  0
LINE
  8
0
  6
CONTINUOUS
 62
     2
 10
457.5199996
 20
417.4999852
 30
0.0
 11
933.1199996
 21
417.4999852
 31
0.0
  0
TEXT
  8
0
  6
CONTINUOUS
 62
     2
 10
610.2199996
 20
346.9999852
 30
1.2
 40
18.0
  1
ｍｉｎ．ＡＬ
 50
0.0
 41
0.9
 51
0.0
  7
KANJI28
  0
LINE
  8
0
  6
CONTINUOUS
 62
     1
 10
357.5199996
 20
560.2499852
 30
0.0
 11
357.5199996
 21
933.2499852
 31
0.0
  0
LINE
  8
0
  6
CONTINUOUS
 62
     1
 10
347.5199996
 20
933.2499852
 30
0.0
 11
337.5199996
 21
884.4999852
 31
0.0
  0
LINE
  8
0
  6
CONTINUOUS
 62
     1
 10
357.5199996
 20
933.2499852
 30
0.0
 11
347.5199996
 21
933.2499852
 31
0.0
  0
LINE
  8
0
  6
CONTINUOUS
 62
     1
 10
267.5199996
 20
884.4999852
 30
0.0
 11
267.5199996
 21
917.4999852
 31
0.0
  0
LINE
  8
0
  6
CONTINUOUS
 62
     1
 10
337.5199996
 20
884.4999852
 30
0.0
 11
249.5199996
 21
884.4999852
 31
0.0
  0
LINE
  8
0
  6
CONTINUOUS
 62
     1
 10
249.5199996
 20
560.2499852
 30
0.0
 11
249.5199996
 21
884.4999852
 31
0.0
  0
LINE
  8
0
  6
LTYPE3
 62
     2
 10
297.5199996
 20
888.3999852
 30
0.0
 11
297.5199996
 21
933.2499852
 31
0.0
  0
LINE
  8
0
  6
CONTINUOUS
 62
     1
 10
337.5199996
 20
791.2499852
 30
0.0
 11
337.5199996
 21
884.4999852
 31
0.0
  0
LINE
  8
0
  6
CONTINUOUS
 62
     1
 10
344.289230369
 20
917.4999852
 30
0.0
 11
267.5199996
 21
917.4999852
 31
0.0
  0
LINE
  8
0
  6
CONTINUOUS
 62
     1
 10
245.5199996
 20
821.9999852
 30
0.0
 11
245.5199996
 21
852.9999852
 31
0.0
  0
LINE
  8
0
  6
CONTINUOUS
 62
     1
 10
249.5199996
 20
821.9999852
 30
0.0
 11
245.5199996
 21
821.9999852
 31
0.0
  0
LINE
  8
0
  6
CONTINUOUS
 62
     1
 10
249.5199996
 20
852.9999852
 30
0.0
 11
245.5199996
 21
852.9999852
 31
0.0
  0
LINE
  8
0
  6
CONTINUOUS
 62
     1
 10
245.5199996
 20
852.4999852
 30
0.0
 11
217.5199996
 21
852.4999852
 31
0.0
  0
LINE
  8
0
  6
CONTINUOUS
 62
     1
 10
217.5199996
 20
852.4999852
 30
0.0
 11
215.5199996
 21
850.4999852
 31
0.0
  0
LINE
  8
0
  6
CONTINUOUS
 62
     1
 10
245.5199996
 20
822.4999852
 30
0.0
 11
217.5199996
 21
822.4999852
 31
0.0
  0
LINE
  8
0
  6
CONTINUOUS
 62
     1
 10
215.5199996
 20
824.4999852
 30
0.0
 11
215.5199996
 21
850.4999852
 31
0.0
  0
LINE
  8
0
  6
CONTINUOUS
 62
     1
 10
217.5199996
 20
822.4999852
 30
0.0
 11
215.5199996
 21
824.4999852
 31
0.0
  0
CIRCLE
  8
0
  6
CONTINUOUS
 62
     1
 10
297.5199996
 20
942.5999852
 30
0.0
 40
15.0
  0
LINE
  8
0
  6
CONTINUOUS
 62
     1
 10
308.921268563
 20
925.601515618
 30
0.0
 11
297.5199996
 21
927.5999852
 31
0.0
  0
LINE
  8
0
  6
CONTINUOUS
 62
     1
 10
297.5199996
 20
925.5999852
 30
0.0
 11
308.921455367
 21
925.5999852
 31
0.0
  0
ARC
  8
0
  6
CONTINUOUS
 62
     1
 10
297.5199996
 20
942.5999852
 30
0.0
 40
25.0
 50
300.714883545
 51
0.0
  0
LINE
  8
0
  6
CONTINUOUS
 62
     1
 10
309.637094746
 20
919.736994689
 30
0.0
 11
308.921455367
 21
925.5999852
 31
0.0
  0
LINE
  8
0
  6
CONTINUOUS
 62
     1
 10
310.0199996
 20
916.5999852
 30
0.0
 11
309.637094746
 21
919.736994689
 31
0.0
  0
ARC
  8
0
  6
CONTINUOUS
 62
     1
 10
311.025622315
 20
919.91611086
 30
0.0
 40
1.4
 50
121.733468281
 51
187.57738995
  0
LINE
  8
0
  6
CONTINUOUS
 62
     1
 10
286.118730637
 20
925.601515618
 30
0.0
 11
297.5199996
 21
927.5999852
 31
0.0
  0
LINE
  8
0
  6
CONTINUOUS
 62
     1
 10
297.5199996
 20
925.5999852
 30
0.0
 11
286.118543833
 21
925.5999852
 31
0.0
  0
LINE
  8
0
  6
CONTINUOUS
 62
     1
 10
285.402904454
 20
919.736994689
 30
0.0
 11
286.118543833
 21
925.5999852
 31
0.0
  0
LINE
  8
0
  6
CONTINUOUS
 62
     1
 10
285.0199996
 20
916.5999852
 30
0.0
 11
285.402904454
 21
919.736994689
 31
0.0
  0
ARC
  8
0
  6
CONTINUOUS
 62
     1
 10
284.014376885
 20
919.91611086
 30
0.0
 40
1.4
 50
352.42261005
 51
58.266531719
  0
ARC
  8
0
  6
CONTINUOUS
 62
     1
 10
297.5199996
 20
942.5999852
 30
0.0
 40
25.0
 50
0.0
 51
239.342761175
  0
LINE
  8
0
  6
CONTINUOUS
 62
     1
 10
357.5199996
 20
737.3999852
 30
0.0
 11
357.5199996
 21
937.3999852
 31
0.0
  0
LINE
  8
0
  6
CONTINUOUS
 62
     1
 10
357.5199996
 20
937.4999852
 30
0.0
 11
366.5199996
 21
937.4999852
 31
0.0
  0
ARC
  8
0
  6
CONTINUOUS
 62
     1
 10
366.5199996
 20
934.4999852
 30
0.0
 40
3.0
 50
0.0
 51
90.0
  0
LINE
  8
0
  6
CONTINUOUS
 62
     1
 10
369.5199996
 20
908.4999852
 30
0.0
 11
369.5199996
 21
934.4999852
 31
0.0
  0
LINE
  8
0
  6
CONTINUOUS
 62
     1
 10
369.5199996
 20
740.4999852
 30
0.0
 11
369.5199996
 21
908.4999852
 31
0.0
  0
ARC
  8
0
  6
CONTINUOUS
 62
     1
 10
371.5199996
 20
910.4999852
 30
0.0
 40
2.0
 50
180.0
 51
270.0
  0
LINE
  8
0
  6
CONTINUOUS
 62
     1
 10
404.5199996
 20
766.4999852
 30
0.0
 11
404.5199996
 21
908.3999852
 31
0.0
  0
ARC
  8
0
  6
CONTINUOUS
 62
     1
 10
371.5199996
 20
764.4999852
 30
0.0
 40
2.0
 50
90.0
 51
180.0
  0
LINE
  8
0
  6
CONTINUOUS
 62
     1
 10
508.0699996
 20
927.4999852
 30
0.0
 11
508.0699996
 21
961.4999852
 31
0.0
  0
LINE
  8
0
  6
CONTINUOUS
 62
     1
 10
508.0699996
 20
927.4999852
 30
0.0
 11
482.0699996
 21
927.4999852
 31
0.0
  0
LINE
  8
0
  6
CONTINUOUS
 62
     1
 10
508.0699996
 20
961.4999852
 30
0.0
 11
482.0699996
 21
961.4999852
 31
0.0
  0
LINE
  8
0
  6
LTYPE3
 62
     2
 10
514.999475445
 20
944.4999852
 30
0.0
 11
474.999475445
 21
944.4999852
 31
0.0
  0
LINE
  8
0
  6
CONTINUOUS
 62
     1
 10
412.0699996
 20
919.4999852
 30
0.0
 11
412.0699996
 21
922.4999852
 31
0.0
  0
ARC
  8
0
  6
CONTINUOUS
 62
     1
 10
416.0699996
 20
916.4999852
 30
0.0
 40
3.0
 50
0.0
 51
90.0
  0
LINE
  8
0
  6
CONTINUOUS
 62
     1
 10
472.0699996
 20
919.4999852
 30
0.0
 11
472.0699996
 21
922.4999852
 31
0.0
  0
ARC
  8
0
  6
CONTINUOUS
 62
     1
 10
468.0699996
 20
916.4999852
 30
0.0
 40
3.0
 50
90.0
 51
180.0
  0
LINE
  8
0
  6
CONTINUOUS
 62
     1
 10
472.0699996
 20
919.4999852
 30
0.0
 11
412.0699996
 21
919.4999852
 31
0.0
  0
LINE
  8
0
  6
CONTINUOUS
 62
     1
 10
396.982087512
 20
924.4999852
 30
0.0
 11
489.0699996
 21
968.520031088
 31
0.0
  0
LINE
  8
0
  6
CONTINUOUS
 62
     1
 10
395.0699996
 20
928.4999852
 30
0.0
 11
396.982087512
 21
924.4999852
 31
0.0
  0
LINE
  8
0
  6
CONTINUOUS
 62
     1
 10
395.0699996
 20
928.4999852
 30
0.0
 11
487.157911688
 21
972.520031088
 31
0.0
  0
LINE
  8
0
  6
CONTINUOUS
 62
     1
 10
487.157911688
 20
972.520031088
 30
0.0
 11
489.0699996
 21
968.520031088
 31
0.0
  0
LINE
  8
0
  6
CONTINUOUS
 62
     1
 10
402.0699996
 20
931.846139046
 30
0.0
 11
402.0699996
 21
971.4999852
 31
0.0
  0
ARC
  8
0
  6
CONTINUOUS
 62
     1
 10
405.0699996
 20
971.4999852
 30
0.0
 40
3.0
 50
90.0
 51
180.0
  0
LINE
  8
0
  6
CONTINUOUS
 62
     1
 10
402.0699996
 20
925.4999852
 30
0.0
 11
402.0699996
 21
926.932119
 31
0.0
  0
ARC
  8
0
  6
CONTINUOUS
 62
     1
 10
405.0699996
 20
925.4999852
 30
0.0
 40
3.0
 50
180.0
 51
270.0
  0
LINE
  8
0
  6
CONTINUOUS
 62
     1
 10
482.0699996
 20
925.4999852
 30
0.0
 11
482.0699996
 21
965.173877242
 31
0.0
  0
LINE
  8
0
  6
CONTINUOUS
 62
     1
 10
479.0699996
 20
922.4999852
 30
0.0
 11
405.0699996
 21
922.4999852
 31
0.0
  0
ARC
  8
0
  6
CONTINUOUS
 62
     1
 10
479.0699996
 20
925.4999852
 30
0.0
 40
3.0
 50
270.0
 51
0.0
  0
LINE
  8
0
  6
CONTINUOUS
 62
     1
 10
482.0699996
 20
970.087897288
 30
0.0
 11
482.0699996
 21
971.4999852
 31
0.0
  0
LINE
  8
0
  6
CONTINUOUS
 62
     1
 10
479.0699996
 20
974.4999852
 30
0.0
 11
405.0699996
 21
974.4999852
 31
0.0
  0
ARC
  8
0
  6
CONTINUOUS
 62
     1
 10
479.0699996
 20
971.4999852
 30
0.0
 40
3.0
 50
0.0
 51
90.0
  0
ARC
  8
0
  6
CONTINUOUS
 62
     1
 10
422.0699996
 20
910.9999852
 30
0.0
 40
3.0
 50
180.0
 51
270.0
  0
ARC
  8
0
  6
CONTINUOUS
 62
     1
 10
462.0699996
 20
910.9999852
 30
0.0
 40
3.0
 50
270.0
 51
0.0
  0
LINE
  8
0
  6
CONTINUOUS
 62
     1
 10
465.0699996
 20
910.999990595
 30
0.0
 11
465.0699996
 21
916.4999852
 31
0.0
  0
LINE
  8
0
  6
CONTINUOUS
 62
     1
 10
419.0699996
 20
910.999990595
 30
0.0
 11
419.0699996
 21
916.4999852
 31
0.0
  0
LINE
  8
0
  6
LTYPE3
 62
     2
 10
442.0199996
 20
901.4999852
 30
0.0
 11
442.0199996
 21
976.4999852
 31
0.0
  0
LINE
  8
0
  6
CONTINUOUS
 62
     1
 10
609.330381415
 20
879.327567884
 30
0.0
 11
626.709617785
 21
877.672402516
 31
0.0
  0
ARC
  8
0
  6
CONTINUOUS
 62
     1
 10
609.5199996
 20
881.318558829
 30
0.0
 40
2.0
 50
180.0
 51
264.559667969
  0
LINE
  8
0
  6
CONTINUOUS
 62
     1
 10
609.330381415
 20
889.327567884
 30
0.0
 11
626.709617785
 21
887.672402516
 31
0.0
  0
ARC
  8
0
  6
CONTINUOUS
 62
     1
 10
609.5199996
 20
891.318558829
 30
0.0
 40
2.0
 50
180.0
 51
264.559667969
  0
LINE
  8
0
  6
CONTINUOUS
 62
     1
 10
609.330381415
 20
795.672402516
 30
0.0
 11
626.709617785
 21
797.327567884
 31
0.0
  0
ARC
  8
0
  6
CONTINUOUS
 62
     1
 10
609.5199996
 20
793.681411571
 30
0.0
 40
2.0
 50
95.440332031
 51
180.0
  0
ARC
  8
0
  6
CONTINUOUS
 62
     1
 10
630.5199996
 20
862.4999852
 30
0.0
 40
2.0
 50
180.0
 51
270.0
  0
LINE
  8
0
  6
CONTINUOUS
 62
     1
 10
639.5199996
 20
860.4999852
 30
0.0
 11
630.5199996
 21
860.4999852
 31
0.0
  0
ARC
  8
0
  6
CONTINUOUS
 62
     1
 10
639.5199996
 20
858.4999852
 30
0.0
 40
2.0
 50
0.0
 51
90.0
  0
LINE
  8
0
  6
CONTINUOUS
 62
     1
 10
641.5199996
 20
858.4999852
 30
0.0
 11
641.5199996
 21
816.4999852
 31
0.0
  0
ARC
  8
0
  6
CONTINUOUS
 62
     1
 10
639.5199996
 20
816.4999852
 30
0.0
 40
2.0
 50
270.0
 51
0.0
  0
ARC
  8
0
  6
CONTINUOUS
 62
     1
 10
630.5199996
 20
812.4999852
 30
0.0
 40
2.0
 50
90.0
 51
180.0
  0
LINE
  8
0
  6
CONTINUOUS
 62
     1
 10
639.5199996
 20
814.4999852
 30
0.0
 11
630.5199996
 21
814.4999852
 31
0.0
  0
LINE
  8
0
  6
CONTINUOUS
 62
     1
 10
644.5199996
 20
848.9999852
 30
0.0
 11
641.5199996
 21
848.9999852
 31
0.0
  0
LINE
  8
0
  6
CONTINUOUS
 62
     1
 10
644.5199996
 20
825.9999852
 30
0.0
 11
641.5199996
 21
825.9999852
 31
0.0
  0
LINE
  8
0
  6
CONTINUOUS
 62
     1
 10
644.5199996
 20
848.9999852
 30
0.0
 11
644.5199996
 21
825.9999852
 31
0.0
  0
ARC
  8
0
  6
CONTINUOUS
 62
     1
 10
626.5199996
 20
830.318558829
 30
0.0
 40
2.0
 50
275.440332031
 51
0.0
  0
LINE
  8
0
  6
CONTINUOUS
 62
     1
 10
626.709617785
 20
828.327567884
 30
0.0
 11
609.330381415
 21
826.672402516
 31
0.0
  0
ARC
  8
0
  6
CONTINUOUS
 62
     1
 10
609.5199996
 20
824.681411571
 30
0.0
 40
2.0
 50
95.440332031
 51
180.0
  0
ARC
  8
0
  6
CONTINUOUS
 62
     1
 10
626.5199996
 20
844.681411571
 30
0.0
 40
2.0
 50
0.0
 51
84.559667969
  0
LINE
  8
0
  6
CONTINUOUS
 62
     1
 10
626.709617785
 20
846.672402516
 30
0.0
 11
609.330381415
 21
848.327567884
 31
0.0
  0
ARC
  8
0
  6
CONTINUOUS
 62
     1
 10
609.5199996
 20
850.318558829
 30
0.0
 40
2.0
 50
180.0
 51
264.559667969
  0
LINE
  8
0
  6
LTYPE3
 62
     2
 10
621.0199996
 20
880.4999852
 30
0.0
 11
634.2199996
 21
880.4999852
 31
0.0
  0
LINE
  8
0
  6
CONTINUOUS
 62
     1
 10
609.330381415
 20
785.672402516
 30
0.0
 11
626.709617785
 21
787.327567884
 31
0.0
  0
LINE
  8
0
  6
LTYPE3
 62
     2
 10
621.0199996
 20
794.4999852
 30
0.0
 11
634.2199996
 21
794.4999852
 31
0.0
  0
ARC
  8
0
  6
CONTINUOUS
 62
     1
 10
609.5199996
 20
783.681411571
 30
0.0
 40
2.0
 50
95.440332031
 51
180.0
  0
LINE
  8
0
  6
CONTINUOUS
 62
     1
 10
628.5199996
 20
885.681411571
 30
0.0
 11
628.5199996
 21
789.8881052
 31
0.0
  0
ARC
  8
0
  6
CONTINUOUS
 62
     1
 10
626.5199996
 20
875.681411571
 30
0.0
 40
2.0
 50
0.0
 51
84.559667969
  0
ARC
  8
0
  6
CONTINUOUS
 62
     1
 10
626.5199996
 20
885.681411571
 30
0.0
 40
2.0
 50
0.0
 51
84.559667969
  0
LINE
  8
0
  6
CONTINUOUS
 62
     1
 10
632.0201996
 20
883.9824252
 30
0.0
 11
631.368117112
 21
885.1118652
 31
0.0
  0
LINE
  8
0
  6
CONTINUOUS
 62
     1
 10
632.0201996
 20
877.0175452
 30
0.0
 11
631.368117112
 21
875.8881052
 31
0.0
  0
ARC
  8
0
  6
CONTINUOUS
 62
     1
 10
627.616944674
 20
880.4999852
 30
0.0
 40
4.403254926
 50
328.419912243
 51
31.580087757
  0
ARC
  8
0
  6
CONTINUOUS
 62
     1
 10
630.675279468
 20
883.9588952
 30
0.0
 40
1.34512595
 50
301.002313915
 51
2.989498403
  0
LINE
  8
0
  6
CONTINUOUS
 62
     1
 10
632.0201996
 20
877.0175452
 30
0.0
 11
631.368117112
 21
875.8881052
 31
0.0
  0
ARC
  8
0
  6
CONTINUOUS
 62
     1
 10
630.675279468
 20
877.0410752
 30
0.0
 40
1.34512595
 50
357.010501597
 51
58.997686085
  0
LINE
  8
0
  6
CONTINUOUS
 62
     1
 10
628.5199996
 20
885.1118652
 30
0.0
 11
631.368117112
 21
885.1118652
 31
0.0
  0
LINE
  8
0
  6
CONTINUOUS
 62
     1
 10
628.5199996
 20
882.8059252
 30
0.0
 11
631.368117112
 21
882.8059252
 31
0.0
  0
LINE
  8
0
  6
CONTINUOUS
 62
     1
 10
628.5199996
 20
878.1940452
 30
0.0
 11
631.368117112
 21
878.1940452
 31
0.0
  0
LINE
  8
0
  6
CONTINUOUS
 62
     1
 10
628.5199996
 20
875.8881052
 30
0.0
 11
631.368117112
 21
875.8881052
 31
0.0
  0
LINE
  8
0
  6
CONTINUOUS
 62
     1
 10
632.0201996
 20
883.9824252
 30
0.0
 11
632.0201996
 21
877.0175452
 31
0.0
  0
LINE
  8
0
  6
CONTINUOUS
 62
     1
 10
649.5199996
 20
841.8528872
 30
0.0
 11
648.704924203
 21
843.2646392
 31
0.0
  0
LINE
  8
0
  6
CONTINUOUS
 62
     1
 10
649.5199996
 20
833.1470832
 30
0.0
 11
648.704924203
 21
831.7353312
 31
0.0
  0
ARC
  8
0
  6
CONTINUOUS
 62
     1
 10
644.016118077
 20
837.4999852
 30
0.0
 40
5.503881523
 50
328.419912243
 51
31.580087757
  0
ARC
  8
0
  6
CONTINUOUS
 62
     1
 10
647.838906593
 20
841.8234757
 30
0.0
 40
1.681350271
 50
301.002313915
 51
2.989498403
  0
LINE
  8
0
  6
CONTINUOUS
 62
     1
 10
649.5199996
 20
833.1470832
 30
0.0
 11
648.704924203
 21
831.7353312
 31
0.0
  0
ARC
  8
0
  6
CONTINUOUS
 62
     1
 10
647.838906593
 20
833.1764947
 30
0.0
 40
1.681350271
 50
357.010501597
 51
58.997686085
  0
LINE
  8
0
  6
CONTINUOUS
 62
     1
 10
645.5203896
 20
840.3823122
 30
0.0
 11
648.704924203
 21
840.3823122
 31
0.0
  0
LINE
  8
0
  6
CONTINUOUS
 62
     1
 10
645.5203896
 20
843.2646392
 30
0.0
 11
648.704924203
 21
843.2646392
 31
0.0
  0
LINE
  8
0
  6
CONTINUOUS
 62
     1
 10
645.5203896
 20
834.6176582
 30
0.0
 11
648.704924203
 21
834.6176582
 31
0.0
  0
LINE
  8
0
  6
CONTINUOUS
 62
     1
 10
645.5203896
 20
831.7353312
 30
0.0
 11
648.704924203
 21
831.7353312
 31
0.0
  0
LINE
  8
0
  6
CONTINUOUS
 62
     1
 10
649.5199996
 20
833.1470832
 30
0.0
 11
649.5199996
 21
841.8528872
 31
0.0
  0
LINE
  8
0
  6
CONTINUOUS
 62
     1
 10
645.5203896
 20
843.9999852
 30
0.0
 11
644.5199996
 21
843.9999852
 31
0.0
  0
LINE
  8
0
  6
CONTINUOUS
 62
     1
 10
645.5203896
 20
843.9999852
 30
0.0
 11
645.5203896
 21
830.9999852
 31
0.0
  0
LINE
  8
0
  6
CONTINUOUS
 62
     1
 10
645.5203896
 20
830.9999852
 30
0.0
 11
644.5199996
 21
830.9999852
 31
0.0
  0
ARC
  8
0
  6
CONTINUOUS
 62
     1
 10
626.5199996
 20
799.318558829
 30
0.0
 40
2.0
 50
275.440332031
 51
0.0
  0
LINE
  8
0
  6
CONTINUOUS
 62
     1
 10
632.0201996
 20
791.0175452
 30
0.0
 11
631.368117112
 21
789.8881052
 31
0.0
  0
LINE
  8
0
  6
CONTINUOUS
 62
     1
 10
632.0201996
 20
797.9824252
 30
0.0
 11
631.368117112
 21
799.1118652
 31
0.0
  0
ARC
  8
0
  6
CONTINUOUS
 62
     1
 10
627.616944674
 20
794.4999852
 30
0.0
 40
4.403254926
 50
328.419912243
 51
31.580087757
  0
ARC
  8
0
  6
CONTINUOUS
 62
     1
 10
630.675279468
 20
791.0410752
 30
0.0
 40
1.34512595
 50
357.010501597
 51
58.997686085
  0
LINE
  8
0
  6
CONTINUOUS
 62
     1
 10
632.0201996
 20
797.9824252
 30
0.0
 11
631.368117112
 21
799.1118652
 31
0.0
  0
ARC
  8
0
  6
CONTINUOUS
 62
     1
 10
630.675279468
 20
797.9588952
 30
0.0
 40
1.34512595
 50
301.002313915
 51
2.989498403
  0
LINE
  8
0
  6
CONTINUOUS
 62
     1
 10
628.5199996
 20
789.8881052
 30
0.0
 11
631.368117112
 21
789.8881052
 31
0.0
  0
LINE
  8
0
  6
CONTINUOUS
 62
     1
 10
628.5199996
 20
792.1940452
 30
0.0
 11
631.368117112
 21
792.1940452
 31
0.0
  0
LINE
  8
0
  6
CONTINUOUS
 62
     1
 10
628.5199996
 20
796.8059252
 30
0.0
 11
631.368117112
 21
796.8059252
 31
0.0
  0
LINE
  8
0
  6
CONTINUOUS
 62
     1
 10
628.5199996
 20
799.1118652
 30
0.0
 11
631.368117112
 21
799.1118652
 31
0.0
  0
LINE
  8
0
  6
CONTINUOUS
 62
     1
 10
632.0201996
 20
791.0175452
 30
0.0
 11
632.0201996
 21
797.9824252
 31
0.0
  0
ARC
  8
0
  6
CONTINUOUS
 62
     1
 10
626.5199996
 20
789.318558829
 30
0.0
 40
2.0
 50
275.440332031
 51
0.0
  0
LINE
  8
0
  6
LTYPE1
 62
     1
 10
636.6199996
 20
851.9999852
 30
0.0
 11
628.5199996
 21
842.7999852
 31
0.0
  0
ARC
  8
0
  6
LTYPE1
 62
     1
 10
640.0199996
 20
848.9999852
 30
0.0
 40
4.5
 50
290.9
 51
137.7
  0
LINE
  8
0
  6
LTYPE1
 62
     1
 10
634.5199996
 20
841.9999852
 30
0.0
 11
628.5199996
 21
842.7999852
 31
0.0
  0
LINE
  8
0
  6
LTYPE1
 62
     1
 10
641.6199996
 20
844.7999852
 30
0.0
 11
634.5199996
 21
841.9999852
 31
0.0
  0
LINE
  8
0
  6
LTYPE1
 62
     1
 10
634.5199996
 20
832.9999852
 30
0.0
 11
628.5199996
 21
832.1999852
 31
0.0
  0
ARC
  8
0
  6
LTYPE1
 62
     1
 10
640.0199996
 20
825.9999852
 30
0.0
 40
4.5
 50
222.3
 51
69.1
  0
LINE
  8
0
  6
LTYPE1
 62
     1
 10
636.6199996
 20
822.9999852
 30
0.0
 11
628.5199996
 21
832.1999852
 31
0.0
  0
LINE
  8
0
  6
LTYPE1
 62
     1
 10
641.6199996
 20
830.1999852
 30
0.0
 11
634.5199996
 21
832.9999852
 31
0.0
  0
LINE
  8
0
  6
LTYPE1
 62
     1
 10
634.5199996
 20
841.9999852
 30
0.0
 11
634.5199996
 21
832.9999852
 31
0.0
  0
LINE
  8
0
  6
CONTINUOUS
 62
     1
 10
599.5199996
 20
766.4999852
 30
0.0
 11
599.5199996
 21
908.4999852
 31
0.0
  0
LINE
  8
0
  6
CONTINUOUS
 62
     1
 10
371.5199996
 20
908.4999852
 30
0.0
 11
604.5199996
 21
908.4999852
 31
0.0
  0
ARC
  8
0
  6
CONTINUOUS
 62
     1
 10
604.5199996
 20
905.4999852
 30
0.0
 40
3.0
 50
0.0
 51
90.0
  0
LINE
  8
0
  6
CONTINUOUS
 62
     1
 10
371.5199996
 20
766.4999852
 30
0.0
 11
604.5199996
 21
766.4999852
 31
0.0
  0
LINE
  8
0
  6
CONTINUOUS
 62
     1
 10
607.5199996
 20
905.4999852
 30
0.0
 11
607.5199996
 21
769.4999852
 31
0.0
  0
ARC
  8
0
  6
CONTINUOUS
 62
     1
 10
604.5199996
 20
769.4999852
 30
0.0
 40
3.0
 50
270.0
 51
0.0
  0
LINE
  8
0
  6
CONTINUOUS
 62
     2
 10
354.5199996
 20
895.836294648
 30
0.0
 11
384.5199996
 21
895.836294648
 31
0.0
  0
LINE
  8
0
  6
CONTINUOUS
 62
     1
 10
376.5199996
 20
885.836294648
 30
0.0
 11
376.5199996
 21
905.836294648
 31
0.0
  0
LINE
  8
0
  6
CONTINUOUS
 62
     1
 10
369.5199996
 20
905.836294648
 30
0.0
 11
376.5199996
 21
905.836294648
 31
0.0
  0
LINE
  8
0
  6
CONTINUOUS
 62
     1
 10
369.5199996
 20
885.836294648
 30
0.0
 11
376.5199996
 21
885.836294648
 31
0.0
  0
LINE
  8
0
  6
CONTINUOUS
 62
     1
 10
369.5199996
 20
900.836294648
 30
0.0
 11
376.5199996
 21
900.836294648
 31
0.0
  0
LINE
  8
0
  6
CONTINUOUS
 62
     1
 10
369.5199996
 20
890.836294648
 30
0.0
 11
376.5199996
 21
890.836294648
 31
0.0
  0
LINE
  8
0
  6
CONTINUOUS
 62
     2
 10
354.5199996
 20
779.163675752
 30
0.0
 11
384.5199996
 21
779.163675752
 31
0.0
  0
LINE
  8
0
  6
CONTINUOUS
 62
     1
 10
376.5199996
 20
789.163675752
 30
0.0
 11
376.5199996
 21
769.163675752
 31
0.0
  0
LINE
  8
0
  6
CONTINUOUS
 62
     1
 10
369.5199996
 20
769.163675752
 30
0.0
 11
376.5199996
 21
769.163675752
 31
0.0
  0
LINE
  8
0
  6
CONTINUOUS
 62
     1
 10
369.5199996
 20
789.163675752
 30
0.0
 11
376.5199996
 21
789.163675752
 31
0.0
  0
LINE
  8
0
  6
CONTINUOUS
 62
     1
 10
369.5199996
 20
774.163675752
 30
0.0
 11
376.5199996
 21
774.163675752
 31
0.0
  0
LINE
  8
0
  6
CONTINUOUS
 62
     1
 10
369.5199996
 20
784.163675752
 30
0.0
 11
376.5199996
 21
784.163675752
 31
0.0
  0
LINE
  8
2
  6
CONTINUOUS
 62
     2
 10
605.5199996
 20
908.4999852
 30
0.0
 11
712.6199996
 21
908.4999852
 31
0.0
  0
LINE
  8
2
  6
CONTINUOUS
 62
     2
 10
605.5199996
 20
766.4999852
 30
0.0
 11
712.6199996
 21
766.4999852
 31
0.0
  0
LINE
  8
0
  6
CONTINUOUS
 62
     2
 10
508.0699996
 20
944.4999852
 30
0.0
 11
518.48991446
 21
955.290044251
 31
0.0
  0
LINE
  8
0
  6
CONTINUOUS
 62
     2
 10
508.0699996
 20
944.4999852
 30
0.0
 11
511.698881048
 21
959.054407876
 31
0.0
  0
LINE
  8
0
  6
CONTINUOUS
 62
     2
 10
508.0699996
 20
944.4999852
 30
0.0
 11
539.0699996
 21
1000.4249852
 31
0.0
  0
LINE
  8
0
  6
CONTINUOUS
 62
     2
 10
539.0699996
 20
1000.4249852
 30
0.0
 11
627.2699996
 21
1000.4249852
 31
0.0
  0
TEXT
  8
0
  6
CONTINUOUS
 62
     2
 10
539.0699996
 20
1006.4249852
 30
1.8
 40
18.0
  1
ＰＦ３／４
 50
0.0
 41
0.9
 51
0.0
  7
KANJI29
  0
LINE
  8
0
  6
CONTINUOUS
 62
     1
 10
357.5199996
 20
737.4999852
 30
0.0
 11
366.5199996
 21
737.4999852
 31
0.0
  0
ARC
  8
0
  6
CONTINUOUS
 62
     1
 10
366.5199996
 20
740.4999852
 30
0.0
 40
3.0
 50
270.0
 51
0.0
  0
TEXT
  8
2
  6
CONTINUOUS
 62
     2
 10
667.6199996
 20
613.3999852
 30
1.8
 40
21.0
  1
φ１１４
 50
90.0
 41
0.914285714
 51
0.0
  7
KANJI30
  0
LINE
  8
0
  6
LTYPE3
 62
     2
 10
206.1199996
 20
837.4999852
 30
0.0
 11
668.5199996
 21
837.4999852
 31
0.0
  0
TEXT
  8
0
  6
CONTINUOUS
 62
     2
 10
427.0199996
 20
809.9999852
 30
1.8
 40
18.0
  1
日本電産
 50
0.0
 41
0.666666667
 51
0.0
  7
KANJI31
  0
TEXT
  8
0
  6
CONTINUOUS
 62
     2
 10
427.0199996
 20
786.4999852
 30
1.8
 40
18.0
  1
エコノストップモータ
 50
0.0
 41
0.666666667
 51
0.0
  7
KANJI31
  0
LINE
  8
0
  6
LTYPE3
 62
     2
 10
643.1199996
 20
654.4999852
 30
0.0
 11
220.1199996
 21
654.4999852
 31
0.0
  0
LINE
  8
0
  6
CONTINUOUS
 62
     2
 10
357.5199996
 20
906.3999852
 30
0.0
 11
357.5199996
 21
1057.2499852
 31
0.0
  0
LINE
  8
0
  6
CONTINUOUS
 62
     2
 10
357.5199996
 20
1048.2499852
 30
0.0
 11
343.031112206
 21
1052.132270877
 31
0.0
  0
LINE
  8
0
  6
CONTINUOUS
 62
     2
 10
357.5199996
 20
1048.2499852
 30
0.0
 11
343.031112206
 21
1044.367699523
 31
0.0
  0
LINE
  8
0
  6
CONTINUOUS
 62
     2
 10
357.5199996
 20
1048.2499852
 30
0.0
 11
215.5199996
 21
1048.2499852
 31
0.0
  0
LINE
  8
0
  6
CONTINUOUS
 62
     2
 10
215.5199996
 20
1048.2499852
 30
0.0
 11
230.008886994
 21
1044.367699523
 31
0.0
  0
LINE
  8
0
  6
CONTINUOUS
 62
     2
 10
215.5199996
 20
1048.2499852
 30
0.0
 11
230.008886994
 21
1052.132270877
 31
0.0
  0
TEXT
  8
0
  6
CONTINUOUS
 62
     2
 10
261.0199996
 20
1054.2499852
 30
1.2
 40
18.0
  1
１４８
 50
0.0
 41
0.9
 51
0.0
  7
KANJI28
  0
LINE
  8
2
  6
CONTINUOUS
 62
     2
 10
357.5199996
 20
1048.2499852
 30
0.0
 11
372.008886994
 21
1044.367699523
 31
0.0
  0
LINE
  8
2
  6
CONTINUOUS
 62
     2
 10
357.5199996
 20
1048.2499852
 30
0.0
 11
372.008886994
 21
1052.132270877
 31
0.0
  0
LINE
  8
2
  6
CONTINUOUS
 62
     2
 10
357.5199996
 20
1048.2499852
 30
0.0
 11
649.5199996
 21
1048.2499852
 31
0.0
  0
LINE
  8
2
  6
CONTINUOUS
 62
     2
 10
649.5199996
 20
1048.2499852
 30
0.0
 11
635.031112206
 21
1052.132270877
 31
0.0
  0
LINE
  8
2
  6
CONTINUOUS
 62
     2
 10
649.5199996
 20
1048.2499852
 30
0.0
 11
635.031112206
 21
1044.367699523
 31
0.0
  0
TEXT
  8
2
  6
CONTINUOUS
 62
     2
 10
472.9199996
 20
1054.2499852
 30
1.8
 40
18.0
  1
２９２
 50
0.0
 41
0.9
 51
0.0
  7
KANJI29
  0
LINE
  8
0
  6
CONTINUOUS
 62
     2
 10
215.5199996
 20
852.4999852
 30
0.0
 11
215.5199996
 21
1057.2499852
 31
0.0
  0
LINE
  8
2
  6
CONTINUOUS
 62
     2
 10
649.5199996
 20
852.4999852
 30
0.0
 11
649.5199996
 21
1054.2499852
 31
0.0
  0
LINE
  8
0
  6
CONTINUOUS
 62
     1
 10
769.1199996
 20
711.4999852
 30
0.0
 11
610.5199996
 21
711.4999852
 31
0.0
  0
LINE
  8
0
  6
CONTINUOUS
 62
     1
 10
769.1199996
 20
597.4999852
 30
0.0
 11
610.5199996
 21
597.4999852
 31
0.0
  0
LINE
  8
0
  6
LTYPE3
 62
     2
 10
380.9699996
 20
549.4999852
 30
0.0
 11
768.2299996
 21
549.4999852
 31
0.0
  0
LINE
  8
0
  6
LTYPE1
 62
     2
 10
386.4699996
 20
553.4999852
 30
0.0
 11
390.9699996
 21
553.4999852
 31
0.0
  0
LINE
  8
0
  6
LTYPE1
 62
     2
 10
386.4699996
 20
552.4999852
 30
0.0
 11
390.9699996
 21
552.4999852
 31
0.0
  0
LINE
  8
0
  6
LTYPE1
 62
     2
 10
386.4699996
 20
545.4999852
 30
0.0
 11
390.9699996
 21
545.4999852
 31
0.0
  0
LINE
  8
0
  6
LTYPE1
 62
     2
 10
386.4699996
 20
546.4999852
 30
0.0
 11
390.9699996
 21
546.4999852
 31
0.0
  0
LINE
  8
0
  6
LTYPE1
 62
     2
 10
386.4699996
 20
545.4999852
 30
0.0
 11
386.4699996
 21
553.4999852
 31
0.0
  0
LINE
  8
0
  6
LTYPE1
 62
     2
 10
397.9699996
 20
559.2999852
 30
0.0
 11
392.355640246
 21
559.2999852
 31
0.0
  0
LINE
  8
0
  6
LTYPE1
 62
     2
 10
397.9699996
 20
554.3999852
 30
0.0
 11
392.355640246
 21
554.3999852
 31
0.0
  0
LINE
  8
0
  6
LTYPE1
 62
     2
 10
397.9699996
 20
539.6999852
 30
0.0
 11
392.355640246
 21
539.6999852
 31
0.0
  0
LINE
  8
0
  6
LTYPE1
 62
     2
 10
397.9699996
 20
544.5999852
 30
0.0
 11
392.355640246
 21
544.5999852
 31
0.0
  0
LINE
  8
0
  6
LTYPE1
 62
     2
 10
390.9699996
 20
549.4999852
 30
0.0
 11
390.9699996
 21
556.8999852
 31
0.0
  0
LINE
  8
0
  6
LTYPE1
 62
     2
 10
390.9699996
 20
556.8999852
 30
0.0
 11
392.355640246
 21
559.2999852
 31
0.0
  0
LINE
  8
0
  6
LTYPE1
 62
     2
 10
390.9699996
 20
556.8999852
 30
0.0
 11
392.355640246
 21
559.2999852
 31
0.0
  0
ARC
  8
0
  6
LTYPE1
 62
     2
 10
393.827883432
 20
556.8499852
 30
0.0
 40
2.858321186
 50
177.010501597
 51
238.997686085
  0
LINE
  8
0
  6
LTYPE1
 62
     2
 10
390.9699996
 20
542.0999852
 30
0.0
 11
392.355640246
 21
539.6999852
 31
0.0
  0
LINE
  8
0
  6
LTYPE1
 62
     2
 10
390.9699996
 20
549.4999852
 30
0.0
 11
390.9699996
 21
542.0999852
 31
0.0
  0
ARC
  8
0
  6
LTYPE1
 62
     2
 10
393.827883432
 20
542.1499852
 30
0.0
 40
2.858321186
 50
121.002313915
 51
182.989498403
  0
ARC
  8
0
  6
LTYPE1
 62
     2
 10
400.3266824
 20
549.4999852
 30
0.0
 40
9.3566828
 50
148.419912243
 51
211.580087757
  0
LINE
  8
0
  6
LTYPE3
 62
     2
 10
529.994991696
 20
558.9999852
 30
0.0
 11
510.294991696
 21
558.9999852
 31
0.0
  0
LINE
  8
0
  6
LTYPE1
 62
     2
 10
523.794991696
 20
569.4999852
 30
0.0
 11
513.794991696
 21
569.4999852
 31
0.0
  0
LINE
  8
0
  6
LTYPE1
 62
     2
 10
523.794991696
 20
549.6999852
 30
0.0
 11
513.794991696
 21
549.6999852
 31
0.0
  0
LINE
  8
0
  6
LTYPE1
 62
     2
 10
431.4699996
 20
508.4999852
 30
0.0
 11
463.4699996
 21
508.4999852
 31
0.0
  0
LINE
  8
0
  6
LTYPE1
 62
     2
 10
431.4699996
 20
508.4999852
 30
0.0
 11
431.4699996
 21
561.4999852
 31
0.0
  0
ARC
  8
0
  6
LTYPE1
 62
     2
 10
431.3266824
 20
521.4999852
 30
0.0
 40
9.3566828
 50
148.419912243
 51
211.580087757
  0
LINE
  8
0
  6
LTYPE1
 62
     2
 10
428.9699996
 20
511.6999852
 30
0.0
 11
423.355640246
 21
511.6999852
 31
0.0
  0
LINE
  8
0
  6
LTYPE1
 62
     2
 10
421.9699996
 20
514.0999852
 30
0.0
 11
423.355640246
 21
511.6999852
 31
0.0
  0
LINE
  8
0
  6
LTYPE1
 62
     2
 10
428.9699996
 20
516.5999852
 30
0.0
 11
423.355640246
 21
516.5999852
 31
0.0
  0
ARC
  8
0
  6
LTYPE1
 62
     2
 10
424.827883432
 20
514.1499852
 30
0.0
 40
2.858321186
 50
121.002313915
 51
182.989498403
  0
LINE
  8
0
  6
LTYPE1
 62
     2
 10
428.9699996
 20
521.4999852
 30
0.0
 11
428.9699996
 21
511.6999852
 31
0.0
  0
LINE
  8
0
  6
LTYPE1
 62
     2
 10
431.4699996
 20
512.2999852
 30
0.0
 11
428.9699996
 21
512.2999852
 31
0.0
  0
LINE
  8
0
  6
LTYPE1
 62
     2
 10
421.9699996
 20
521.4999852
 30
0.0
 11
421.9699996
 21
514.0999852
 31
0.0
  0
LINE
  8
0
  6
LTYPE1
 62
     2
 10
413.4699996
 20
517.4999852
 30
0.0
 11
421.9699996
 21
517.4999852
 31
0.0
  0
LINE
  8
0
  6
LTYPE1
 62
     2
 10
413.4699996
 20
518.4999852
 30
0.0
 11
421.9699996
 21
518.4999852
 31
0.0
  0
LINE
  8
0
  6
LTYPE1
 62
     2
 10
431.4699996
 20
521.4999852
 30
0.0
 11
428.969999604
 21
518.999985204
 31
0.0
  0
LINE
  8
0
  6
LTYPE1
 62
     2
 10
428.9699996
 20
531.2999852
 30
0.0
 11
423.355640246
 21
531.2999852
 31
0.0
  0
LINE
  8
0
  6
LTYPE1
 62
     2
 10
421.9699996
 20
528.8999852
 30
0.0
 11
423.355640246
 21
531.2999852
 31
0.0
  0
LINE
  8
0
  6
LTYPE1
 62
     2
 10
421.9699996
 20
528.8999852
 30
0.0
 11
423.355640246
 21
531.2999852
 31
0.0
  0
LINE
  8
0
  6
LTYPE1
 62
     2
 10
421.9699996
 20
521.4999852
 30
0.0
 11
421.9699996
 21
528.8999852
 31
0.0
  0
LINE
  8
0
  6
LTYPE1
 62
     2
 10
428.9699996
 20
526.3999852
 30
0.0
 11
423.355640246
 21
526.3999852
 31
0.0
  0
ARC
  8
0
  6
LTYPE1
 62
     2
 10
424.827883432
 20
528.8499852
 30
0.0
 40
2.858321186
 50
177.010501597
 51
238.997686085
  0
LINE
  8
0
  6
LTYPE1
 62
     2
 10
413.4699996
 20
525.4999852
 30
0.0
 11
421.9699996
 21
525.4999852
 31
0.0
  0
LINE
  8
0
  6
LTYPE1
 62
     2
 10
413.4699996
 20
524.4999852
 30
0.0
 11
421.9699996
 21
524.4999852
 31
0.0
  0
LINE
  8
0
  6
LTYPE1
 62
     2
 10
431.4699996
 20
530.6999852
 30
0.0
 11
428.9699996
 21
530.6999852
 31
0.0
  0
LINE
  8
0
  6
LTYPE1
 62
     2
 10
428.9699996
 20
521.4999852
 30
0.0
 11
428.9699996
 21
531.2999852
 31
0.0
  0
LINE
  8
0
  6
LTYPE1
 62
     2
 10
428.969999604
 20
521.4999852
 30
0.0
 11
431.4699996
 21
523.999985196
 31
0.0
  0
LINE
  8
0
  6
LTYPE1
 62
     2
 10
635.4699996
 20
563.4999852
 30
0.0
 11
400.4699996
 21
563.4999852
 31
0.0
  0
LINE
  8
0
  6
LTYPE1
 62
     2
 10
635.4699996
 20
569.4999852
 30
0.0
 11
400.4699996
 21
569.4999852
 31
0.0
  0
LINE
  8
0
  6
LTYPE1
 62
     2
 10
431.4699996
 20
543.4999852
 30
0.0
 11
463.4699996
 21
543.4999852
 31
0.0
  0
LINE
  8
0
  6
LTYPE1
 62
     2
 10
463.4699996
 20
561.4999852
 30
0.0
 11
431.4699996
 21
561.4999852
 31
0.0
  0
LINE
  8
0
  6
LTYPE1
 62
     2
 10
463.4699996
 20
555.4999852
 30
0.0
 11
431.4699996
 21
555.4999852
 31
0.0
  0
LINE
  8
0
  6
LTYPE1
 62
     2
 10
431.4699996
 20
553.4999852
 30
0.0
 11
436.4699996
 21
553.4999852
 31
0.0
  0
LINE
  8
0
  6
LTYPE1
 62
     2
 10
431.4699996
 20
552.4999852
 30
0.0
 11
436.4699996
 21
552.4999852
 31
0.0
  0
LINE
  8
0
  6
LTYPE1
 62
     2
 10
431.4699996
 20
545.4999852
 30
0.0
 11
436.4699996
 21
545.4999852
 31
0.0
  0
LINE
  8
0
  6
LTYPE1
 62
     2
 10
431.4699996
 20
546.4999852
 30
0.0
 11
436.4699996
 21
546.4999852
 31
0.0
  0
LINE
  8
0
  6
LTYPE1
 62
     2
 10
436.4699996
 20
543.4999852
 30
0.0
 11
436.4699996
 21
555.4999852
 31
0.0
  0
LINE
  8
0
  6
LTYPE4
 62
     2
 10
452.937498221
 20
553.0999852
 30
0.0
 11
452.937498221
 21
566.4999852
 31
0.0
  0
LINE
  8
0
  6
LTYPE1
 62
     2
 10
413.4699996
 20
517.4999852
 30
0.0
 11
413.4699996
 21
525.4999852
 31
0.0
  0
LINE
  8
0
  6
LTYPE1
 62
     2
 10
400.4699996
 20
536.4999852
 30
0.0
 11
416.4699996
 21
536.4999852
 31
0.0
  0
LINE
  8
0
  6
LTYPE2
 62
     2
 10
419.4699996
 20
549.4999852
 30
0.0
 11
430.9699996
 21
549.4999852
 31
0.0
  0
LINE
  8
0
  6
LTYPE1
 62
     2
 10
423.9699996
 20
553.4999852
 30
0.0
 11
431.4699996
 21
553.4999852
 31
0.0
  0
LINE
  8
0
  6
LTYPE1
 62
     2
 10
423.9699996
 20
552.4999852
 30
0.0
 11
431.4699996
 21
552.4999852
 31
0.0
  0
LINE
  8
0
  6
LTYPE1
 62
     2
 10
416.4699996
 20
539.0999852
 30
0.0
 11
422.9699996
 21
539.0999852
 31
0.0
  0
ARC
  8
0
  6
LTYPE1
 62
     2
 10
420.0699996
 20
541.6999852
 30
0.0
 40
3.9
 50
317.9
 51
42.1
  0
LINE
  8
0
  6
LTYPE1
 62
     2
 10
416.4699996
 20
544.2999852
 30
0.0
 11
422.9699996
 21
544.2999852
 31
0.0
  0
LINE
  8
0
  6
LTYPE1
 62
     2
 10
423.9699996
 20
546.4999852
 30
0.0
 11
431.4699996
 21
546.4999852
 31
0.0
  0
LINE
  8
0
  6
LTYPE1
 62
     2
 10
423.9699996
 20
545.4999852
 30
0.0
 11
431.4699996
 21
545.4999852
 31
0.0
  0
LINE
  8
0
  6
LTYPE1
 62
     2
 10
416.4699996
 20
536.4999852
 30
0.0
 11
416.4699996
 21
563.4999852
 31
0.0
  0
LINE
  8
0
  6
LTYPE1
 62
     2
 10
416.4699996
 20
559.8999852
 30
0.0
 11
416.4699996
 21
539.0999852
 31
0.0
  0
ARC
  8
0
  6
LTYPE1
 62
     2
 10
409.9699996
 20
549.4999852
 30
0.0
 40
14.0
 50
338.2
 51
21.8
  0
LINE
  8
0
  6
LTYPE1
 62
     2
 10
423.9699996
 20
541.6999852
 30
0.0
 11
423.9699996
 21
557.2999852
 31
0.0
  0
LINE
  8
0
  6
LTYPE1
 62
     2
 10
416.4699996
 20
559.8999852
 30
0.0
 11
422.9699996
 21
559.8999852
 31
0.0
  0
ARC
  8
0
  6
LTYPE1
 62
     2
 10
420.0699996
 20
557.2999852
 30
0.0
 40
3.9
 50
317.9
 51
42.1
  0
LINE
  8
0
  6
LTYPE1
 62
     2
 10
422.9699996
 20
554.6999852
 30
0.0
 11
416.4699996
 21
554.6999852
 31
0.0
  0
LINE
  8
0
  6
LTYPE1
 62
     2
 10
412.2170296
 20
569.4999852
 30
0.0
 11
412.2170296
 21
573.940285798
 31
0.0
  0
LINE
  8
0
  6
LTYPE1
 62
     2
 10
415.9640596
 20
569.4999852
 30
0.0
 11
415.9640596
 21
573.940285798
 31
0.0
  0
ARC
  8
0
  6
LTYPE1
 62
     2
 10
408.4699996
 20
567.844829863
 30
0.0
 40
7.155055337
 50
58.419912243
 51
121.580087757
  0
LINE
  8
0
  6
LTYPE1
 62
     2
 10
414.1287796
 20
574.9998852
 30
0.0
 11
415.9640596
 21
573.940285798
 31
0.0
  0
LINE
  8
0
  6
LTYPE1
 62
     2
 10
408.4699996
 20
574.9998852
 30
0.0
 11
414.1287796
 21
574.9998852
 31
0.0
  0
LINE
  8
0
  6
LTYPE1
 62
     2
 10
414.1287796
 20
574.9998852
 30
0.0
 11
415.9640596
 21
573.940285798
 31
0.0
  0
ARC
  8
0
  6
LTYPE1
 62
     2
 10
414.0905446
 20
572.814461433
 30
0.0
 40
2.185758211
 50
87.010501597
 51
148.997686085
  0
LINE
  8
0
  6
LTYPE1
 62
     2
 10
408.4699996
 20
559.4999852
 30
0.0
 11
408.4699996
 21
575.4999852
 31
0.0
  0
LINE
  8
0
  6
LTYPE1
 62
     2
 10
408.4699996
 20
574.9998852
 30
0.0
 11
402.8112196
 21
574.9998852
 31
0.0
  0
ARC
  8
0
  6
LTYPE1
 62
     2
 10
402.8494546
 20
572.814461433
 30
0.0
 40
2.185758211
 50
31.002313915
 51
92.989498403
  0
LINE
  8
0
  6
LTYPE1
 62
     2
 10
404.7229696
 20
569.4999852
 30
0.0
 11
404.7229696
 21
573.940285798
 31
0.0
  0
LINE
  8
0
  6
LTYPE1
 62
     2
 10
397.9699996
 20
549.4999852
 30
0.0
 11
397.9699996
 21
559.2999852
 31
0.0
  0
LINE
  8
0
  6
LTYPE1
 62
     2
 10
400.4699996
 20
558.6999852
 30
0.0
 11
397.9699996
 21
558.6999852
 31
0.0
  0
LINE
  8
0
  6
LTYPE1
 62
     2
 10
397.969999604
 20
549.4999852
 30
0.0
 11
400.4699996
 21
551.999985196
 31
0.0
  0
LINE
  8
0
  6
LTYPE1
 62
     2
 10
397.9699996
 20
549.4999852
 30
0.0
 11
397.9699996
 21
539.6999852
 31
0.0
  0
LINE
  8
0
  6
LTYPE1
 62
     2
 10
400.4699996
 20
549.4999852
 30
0.0
 11
397.969999604
 21
546.999985204
 31
0.0
  0
LINE
  8
0
  6
LTYPE1
 62
     2
 10
400.4699996
 20
540.2999852
 30
0.0
 11
397.9699996
 21
540.2999852
 31
0.0
  0
LINE
  8
0
  6
LTYPE1
 62
     2
 10
400.4699996
 20
536.4999852
 30
0.0
 11
400.4699996
 21
569.4999852
 31
0.0
  0
LINE
  8
0
  6
LTYPE1
 62
     2
 10
402.8112196
 20
574.9998852
 30
0.0
 11
400.9759396
 21
573.940285798
 31
0.0
  0
LINE
  8
0
  6
LTYPE1
 62
     2
 10
400.9759396
 20
569.4999852
 30
0.0
 11
400.9759396
 21
573.940285798
 31
0.0
  0
LINE
  8
0
  6
LTYPE3
 62
     2
 10
484.4699996
 20
511.4999852
 30
0.0
 11
484.4699996
 21
531.4999852
 31
0.0
  0
CIRCLE
  8
0
  6
CONTINUOUS
 62
     2
 10
484.4699996
 20
521.4999852
 30
0.0
 40
5.0
  0
CIRCLE
  8
0
  6
CONTINUOUS
 62
     2
 10
484.4699996
 20
521.4999852
 30
0.0
 40
4.0
  0
LINE
  8
0
  6
LTYPE1
 62
     2
 10
463.4699996
 20
508.4999852
 30
0.0
 11
463.4699996
 21
561.4999852
 31
0.0
  0
LINE
  8
0
  6
LTYPE1
 62
     2
 10
463.4699996
 20
541.4999852
 30
0.0
 11
735.9199996
 21
541.4999852
 31
0.0
  0
LINE
  8
0
  6
LTYPE4
 62
     2
 10
404.427883432
 20
526.0999852
 30
0.0
 11
404.427883432
 21
539.4999852
 31
0.0
  0
LINE
  8
0
  6
LTYPE4
 62
     2
 10
514.527883432
 20
526.0999852
 30
0.0
 11
514.527883432
 21
539.4999852
 31
0.0
  0
LINE
  8
0
  6
CONTINUOUS
 62
     1
 10
449.9699996
 20
530.0499852
 30
0.0
 11
449.9699996
 21
514.0499852
 31
0.0
  0
LINE
  8
0
  6
CONTINUOUS
 62
     1
 10
449.9699996
 20
514.0499852
 30
0.0
 11
463.4699996
 21
514.0499852
 31
0.0
  0
LINE
  8
0
  6
CONTINUOUS
 62
     1
 10
505.4699996
 20
513.4999852
 30
0.0
 11
792.6199996
 21
513.4999852
 31
0.0
  0
LINE
  8
0
  6
CONTINUOUS
 62
     1
 10
496.8199996
 20
505.4999852
 30
0.0
 11
496.8199996
 21
537.4999852
 31
0.0
  0
LINE
  8
0
  6
CONTINUOUS
 62
     1
 10
505.4699996
 20
510.4999852
 30
0.0
 11
505.4699996
 21
532.4999852
 31
0.0
  0
LINE
  8
0
  6
CONTINUOUS
 62
     1
 10
472.1199996
 20
505.4999852
 30
0.0
 11
472.1199996
 21
537.4999852
 31
0.0
  0
LINE
  8
0
  6
CONTINUOUS
 62
     1
 10
463.4699996
 20
510.4999852
 30
0.0
 11
472.130253638
 21
505.4999852
 31
0.0
  0
LINE
  8
0
  6
CONTINUOUS
 62
     1
 10
472.1199996
 20
505.4999852
 30
0.0
 11
496.8199996
 21
505.4999852
 31
0.0
  0
LINE
  8
0
  6
CONTINUOUS
 62
     1
 10
505.4699996
 20
510.4999852
 30
0.0
 11
496.809745562
 21
505.4999852
 31
0.0
  0
LINE
  8
0
  6
CONTINUOUS
 62
     1
 10
463.4699996
 20
510.4999852
 30
0.0
 11
463.4699996
 21
532.4999852
 31
0.0
  0
LINE
  8
0
  6
CONTINUOUS
 62
     1
 10
449.9699996
 20
530.0499852
 30
0.0
 11
463.4699996
 21
530.0499852
 31
0.0
  0
LINE
  8
0
  6
CONTINUOUS
 62
     1
 10
463.4699996
 20
532.4999852
 30
0.0
 11
472.130253638
 21
537.4999852
 31
0.0
  0
LINE
  8
0
  6
CONTINUOUS
 62
     1
 10
472.1199996
 20
537.4999852
 30
0.0
 11
496.8199996
 21
537.4999852
 31
0.0
  0
LINE
  8
0
  6
CONTINUOUS
 62
     1
 10
505.4699996
 20
532.4999852
 30
0.0
 11
496.809745562
 21
537.4999852
 31
0.0
  0
LINE
  8
0
  6
LTYPE1
 62
     2
 10
634.9699996
 20
563.4999852
 30
0.0
 11
634.9699996
 21
558.8999852
 31
0.0
  0
LINE
  8
0
  6
LTYPE1
 62
     2
 10
619.9699996
 20
563.4999852
 30
0.0
 11
619.9699996
 21
558.8999852
 31
0.0
  0
LINE
  8
0
  6
LTYPE1
 62
     2
 10
623.6699996
 20
563.4999852
 30
0.0
 11
623.6699996
 21
558.8999852
 31
0.0
  0
LINE
  8
0
  6
LTYPE1
 62
     2
 10
631.2699996
 20
563.4999852
 30
0.0
 11
631.2699996
 21
558.8999852
 31
0.0
  0
ARC
  8
0
  6
LTYPE1
 62
     2
 10
621.7699996
 20
560.9999852
 30
0.0
 40
2.8
 50
228.5
 51
311.5
  0
ARC
  8
0
  6
LTYPE1
 62
     2
 10
627.4699996
 20
568.8999852
 30
0.0
 40
10.7
 50
249.1
 51
290.9
  0
ARC
  8
0
  6
LTYPE1
 62
     2
 10
633.1699996
 20
560.9999852
 30
0.0
 40
2.8
 50
228.5
 51
311.5
  0
LINE
  8
0
  6
LTYPE1
 62
     2
 10
627.4699996
 20
554.6999852
 30
0.0
 11
627.4699996
 21
566.4999852
 31
0.0
  0
LINE
  8
0
  6
LTYPE3
 62
     2
 10
627.4699996
 20
550.8499852
 30
0.0
 11
627.4699996
 21
575.1499852
 31
0.0
  0
LINE
  8
0
  6
LTYPE1
 62
     2
 10
633.1699996
 20
558.1999852
 30
0.0
 11
621.7699996
 21
558.1999852
 31
0.0
  0
LINE
  8
0
  6
LTYPE1
 62
     2
 10
627.4699996
 20
561.366010604
 30
0.0
 11
627.4699996
 21
694.366010604
 31
0.0
  0
LINE
  8
0
  6
LTYPE1
 62
     2
 10
635.4699996
 20
569.4999852
 30
0.0
 11
635.4699996
 21
563.5499852
 31
0.0
  0
LINE
  8
0
  6
LTYPE1
 62
     2
 10
634.4699996
 20
569.4999852
 30
0.0
 11
634.4699996
 21
629.1499852
 31
0.0
  0
LINE
  8
0
  6
LTYPE1
 62
     2
 10
620.4699996
 20
569.4999852
 30
0.0
 11
620.4699996
 21
629.1499852
 31
0.0
  0
LINE
  8
0
  6
LTYPE1
 62
     2
 10
623.4699996
 20
584.4999852
 30
0.0
 11
631.4699996
 21
584.4999852
 31
0.0
  0
LINE
  8
0
  6
LTYPE1
 62
     2
 10
630.7699996
 20
599.0999852
 30
0.0
 11
630.7699996
 21
584.4999852
 31
0.0
  0
LINE
  8
0
  6
LTYPE1
 62
     2
 10
631.4699996
 20
599.1499852
 30
0.0
 11
631.4699996
 21
584.4999852
 31
0.0
  0
LINE
  8
0
  6
LTYPE1
 62
     2
 10
624.1699996
 20
599.0999852
 30
0.0
 11
624.1699996
 21
584.4999852
 31
0.0
  0
LINE
  8
0
  6
LTYPE1
 62
     2
 10
623.4699996
 20
599.0999852
 30
0.0
 11
623.4699996
 21
584.4999852
 31
0.0
  0
LINE
  8
0
  6
LTYPE1
 62
     2
 10
620.4699996
 20
599.1499852
 30
0.0
 11
634.4699996
 21
599.1499852
 31
0.0
  0
LINE
  8
0
  6
LTYPE1
 62
     2
 10
620.4699996
 20
629.1499852
 30
0.0
 11
634.4699996
 21
629.1499852
 31
0.0
  0
LINE
  8
0
  6
LTYPE1
 62
     2
 10
631.4699996
 20
629.1499852
 30
0.0
 11
631.4699996
 21
715.9999852
 31
0.0
  0
LINE
  8
0
  6
LTYPE1
 62
     2
 10
623.4699996
 20
629.1499852
 30
0.0
 11
623.4699996
 21
715.9999852
 31
0.0
  0
ARC
  8
0
  6
LTYPE1
 62
     2
 10
627.4699996
 20
715.9999852
 30
0.0
 40
4.0
 50
0.0
 51
180.0
  0
LINE
  8
0
  6
CONTINUOUS
 62
     1
 10
505.4699996
 20
529.4999852
 30
0.0
 11
761.3199996
 21
529.4999852
 31
0.0
  0
LINE
  8
0
  6
CONTINUOUS
 62
     1
 10
466.9
 20
534.4999852
 30
0.0
 11
453.5199996
 21
534.4999852
 31
0.0
  0
LINE
  8
0
  6
CONTINUOUS
 62
     1
 10
580.5199996
 20
534.4999852
 30
0.0
 11
501.75
 21
534.4999852
 31
0.0
  0
LINE
  8
0
  6
CONTINUOUS
 62
     1
 10
577.5199996
 20
533.4999852
 30
0.0
 11
503.35
 21
533.4999852
 31
0.0
  0
LINE
  8
0
  6
LTYPE4
 62
     2
 10
461.2
 20
526.0999852
 30
0.0
 11
461.2
 21
539.4999852
 31
0.0
  0
LINE
  8
0
  6
CONTINUOUS
 62
     1
 10
577.4
 20
533.4999852
 30
0.0
 11
566.8
 21
533.4999852
 31
0.0
  0
ARC
  8
0
  6
CONTINUOUS
 62
     1
 10
572.5
 20
534.4999852
 30
0.0
 40
5.0
 50
272.3
 51
348.5
  0
ARC
  8
0
  6
CONTINUOUS
 62
     1
 10
571.7
 20
534.4999852
 30
0.0
 40
5.0
 50
191.5
 51
267.7
  0
LINE
  8
0
  6
CONTINUOUS
 62
     1
 10
572.7
 20
529.4999852
 30
0.0
 11
571.5
 21
529.4999852
 31
0.0
  0
LINE
  8
0
  6
LTYPE4
 62
     2
 10
572.1
 20
526.0999852
 30
0.0
 11
572.1
 21
539.4999852
 31
0.0
  0
LINE
  8
0
  6
CONTINUOUS
 62
     1
 10
465.2
 20
533.4999852
 30
0.0
 11
456.6199996
 21
533.4999852
 31
0.0
  0
ARC
  8
0
  6
CONTINUOUS
 62
     1
 10
460.8
 20
534.4999852
 30
0.0
 40
5.0
 50
191.5
 51
242.667562782
  0
LINE
  8
0
  6
CONTINUOUS
 62
     2
 10
201.092674524
 20
264.221526374
 30
0.0
 11
633.380083262
 21
264.221526374
 31
0.0
  0
TEXT
  8
0
  6
CONTINUOUS
 62
     2
 10
203.092674524
 20
272.221526374
 30
0.0
 40
20.0
  1
推力リミッタの作動値は、約４４００ｋｇ（設計値）
 50
0.0
 41
0.925
 51
0.0
  7
KANJI32
  0
LINE
  8
0
  6
LTYPE3
 62
     2
 10
264.2199996
 20
729.4999852
 30
0.0
 11
217.2199996
 21
729.4999852
 31
0.0
  0
LINE
  8
0
  6
CONTINUOUS
 62
     1
 10
232.5199996
 20
729.4999852
 30
0.0
 11
232.5199996
 21
715.668997102
 31
0.0
  0
LINE
  8
0
  6
CONTINUOUS
 62
     1
 10
232.5199996
 20
729.4999852
 30
0.0
 11
232.5199996
 21
743.330973298
 31
0.0
  0
LINE
  8
0
  6
CONTINUOUS
 62
     1
 10
222.520090987
 20
719.056177861
 30
0.0
 11
224.47568071
 21
715.668997102
 31
0.0
  0
LINE
  8
0
  6
CONTINUOUS
 62
     1
 10
222.520090987
 20
729.4999852
 30
0.0
 11
222.520090987
 21
719.056177861
 31
0.0
  0
LINE
  8
0
  6
CONTINUOUS
 62
     1
 10
222.520090987
 20
739.943792539
 30
0.0
 11
224.47568071
 21
743.330973298
 31
0.0
  0
LINE
  8
0
  6
CONTINUOUS
 62
     1
 10
222.520090987
 20
729.4999852
 30
0.0
 11
222.520090987
 21
739.943792539
 31
0.0
  0
ARC
  8
0
  6
CONTINUOUS
 62
     1
 10
235.725414298
 20
729.4999852
 30
0.0
 40
13.20532331
 50
148.419912243
 51
211.580087757
  0
ARC
  8
0
  6
CONTINUOUS
 62
     1
 10
226.553494791
 20
719.126744127
 30
0.0
 40
4.034021051
 50
121.002313915
 51
182.989498403
  0
LINE
  8
0
  6
CONTINUOUS
 62
     1
 10
222.520090987
 20
739.943792539
 30
0.0
 11
224.47568071
 21
743.330973298
 31
0.0
  0
ARC
  8
0
  6
CONTINUOUS
 62
     1
 10
226.553494791
 20
739.873226273
 30
0.0
 40
4.034021051
 50
177.010501597
 51
238.997686085
  0
LINE
  8
0
  6
CONTINUOUS
 62
     1
 10
232.5199996
 20
715.668997102
 30
0.0
 11
224.47568071
 21
715.668997102
 31
0.0
  0
LINE
  8
0
  6
CONTINUOUS
 62
     1
 10
232.5199996
 20
722.584491151
 30
0.0
 11
224.47568071
 21
722.584491151
 31
0.0
  0
LINE
  8
0
  6
CONTINUOUS
 62
     1
 10
232.5199996
 20
736.415479249
 30
0.0
 11
224.47568071
 21
736.415479249
 31
0.0
  0
LINE
  8
0
  6
CONTINUOUS
 62
     1
 10
232.5199996
 20
743.330973298
 30
0.0
 11
224.47568071
 21
743.330973298
 31
0.0
  0
LINE
  8
0
  6
LTYPE3
 62
     2
 10
266.2199996
 20
579.4999852
 30
0.0
 11
212.2199996
 21
579.4999852
 31
0.0
  0
LINE
  8
0
  6
CONTINUOUS
 62
     1
 10
232.5199996
 20
579.4999852
 30
0.0
 11
232.5199996
 21
565.668997102
 31
0.0
  0
LINE
  8
0
  6
CONTINUOUS
 62
     1
 10
232.5199996
 20
579.4999852
 30
0.0
 11
232.5199996
 21
593.330973298
 31
0.0
  0
LINE
  8
0
  6
CONTINUOUS
 62
     1
 10
222.520090987
 20
569.056177861
 30
0.0
 11
224.47568071
 21
565.668997102
 31
0.0
  0
LINE
  8
0
  6
CONTINUOUS
 62
     1
 10
222.520090987
 20
579.4999852
 30
0.0
 11
222.520090987
 21
569.056177861
 31
0.0
  0
LINE
  8
0
  6
CONTINUOUS
 62
     1
 10
222.520090987
 20
589.943792539
 30
0.0
 11
224.47568071
 21
593.330973298
 31
0.0
  0
LINE
  8
0
  6
CONTINUOUS
 62
     1
 10
222.520090987
 20
579.4999852
 30
0.0
 11
222.520090987
 21
589.943792539
 31
0.0
  0
ARC
  8
0
  6
CONTINUOUS
 62
     1
 10
235.725414298
 20
579.4999852
 30
0.0
 40
13.20532331
 50
148.419912243
 51
211.580087757
  0
ARC
  8
0
  6
CONTINUOUS
 62
     1
 10
226.553494791
 20
569.126744127
 30
0.0
 40
4.034021051
 50
121.002313915
 51
182.989498403
  0
LINE
  8
0
  6
CONTINUOUS
 62
     1
 10
222.520090987
 20
589.943792539
 30
0.0
 11
224.47568071
 21
593.330973298
 31
0.0
  0
ARC
  8
0
  6
CONTINUOUS
 62
     1
 10
226.553494791
 20
589.873226273
 30
0.0
 40
4.034021051
 50
177.010501597
 51
238.997686085
  0
LINE
  8
0
  6
CONTINUOUS
 62
     1
 10
232.5199996
 20
565.668997102
 30
0.0
 11
224.47568071
 21
565.668997102
 31
0.0
  0
LINE
  8
0
  6
CONTINUOUS
 62
     1
 10
232.5199996
 20
572.584491151
 30
0.0
 11
224.47568071
 21
572.584491151
 31
0.0
  0
LINE
  8
0
  6
CONTINUOUS
 62
     1
 10
232.5199996
 20
586.415479249
 30
0.0
 11
224.47568071
 21
586.415479249
 31
0.0
  0
LINE
  8
0
  6
CONTINUOUS
 62
     1
 10
232.5199996
 20
593.330973298
 30
0.0
 11
224.47568071
 21
593.330973298
 31
0.0
  0
LINE
  8
0
  6
CONTINUOUS
 62
     2
 10
232.5199996
 20
550.4999852
 30
0.0
 11
232.5199996
 21
408.4999852
 31
0.0
  0
LINE
  8
0
  6
CONTINUOUS
 62
     2
 10
232.5199996
 20
417.4999852
 30
0.0
 11
247.008886994
 21
421.382270877
 31
0.0
  0
LINE
  8
0
  6
CONTINUOUS
 62
     2
 10
232.5199996
 20
417.4999852
 30
0.0
 11
247.008886994
 21
413.617699523
 31
0.0
  0
LINE
  8
0
  6
CONTINUOUS
 62
     2
 10
232.5199996
 20
408.4999852
 30
0.0
 11
232.5199996
 21
369.9999852
 31
0.0
  0
LINE
  8
0
  6
CONTINUOUS
 62
     2
 10
232.5199996
 20
378.9999852
 30
0.0
 11
247.008886994
 21
382.882270877
 31
0.0
  0
LINE
  8
0
  6
CONTINUOUS
 62
     2
 10
232.5199996
 20
378.9999852
 30
0.0
 11
247.008886994
 21
375.117699523
 31
0.0
  0
LINE
  8
0
  6
CONTINUOUS
 62
     2
 10
232.5199996
 20
369.9999852
 30
0.0
 11
232.5199996
 21
331.9999852
 31
0.0
  0
LINE
  8
0
  6
CONTINUOUS
 62
     2
 10
232.5199996
 20
340.9999852
 30
0.0
 11
247.008886994
 21
344.882270877
 31
0.0
  0
LINE
  8
0
  6
CONTINUOUS
 62
     2
 10
232.5199996
 20
340.9999852
 30
0.0
 11
247.008886994
 21
337.117699523
 31
0.0
  0
LINE
  8
0
  6
CONTINUOUS
 62
     1
 10
337.5199996
 20
791.2499852
 30
0.0
 11
232.5199996
 21
791.2499852
 31
0.0
  0
LINE
  8
0
  6
CONTINUOUS
 62
     1
 10
232.5199996
 20
559.4999852
 30
0.0
 11
232.5199996
 21
791.2499852
 31
0.0
  0
LINE
  8
0
  6
CONTINUOUS
 62
     1
 10
357.5199996
 20
559.4999852
 30
0.0
 11
232.5199996
 21
559.4999852
 31
0.0
  0
LINE
  8
0
  6
CONTINUOUS
 62
     2
 10
357.5199996
 20
417.4999852
 30
0.0
 11
232.5199996
 21
417.4999852
 31
0.0
  0
LINE
  8
0
  6
CONTINUOUS
 62
     2
 10
232.5199996
 20
378.9999852
 30
0.0
 11
457.5199996
 21
378.9999852
 31
0.0
  0
LINE
  8
0
  6
CONTINUOUS
 62
     2
 10
1092.1199996
 20
340.9999852
 30
0.0
 11
232.5199996
 21
340.9999852
 31
0.0
  0
LINE
  8
0
  6
CONTINUOUS
 62
     1
 10
695.2199996
 20
679.4999852
 30
0.0
 11
745.2199996
 21
679.4999852
 31
0.0
  0
LINE
  8
0
  6
CONTINUOUS
 62
     1
 10
745.2199996
 20
679.4999852
 30
0.0
 11
745.2199996
 21
629.4999852
 31
0.0
  0
LINE
  8
0
  6
CONTINUOUS
 62
     1
 10
695.2199996
 20
629.4999852
 30
0.0
 11
745.2199996
 21
629.4999852
 31
0.0
  0
LINE
  8
0
  6
CONTINUOUS
 62
     1
 10
695.2199996
 20
679.4999852
 30
0.0
 11
695.2199996
 21
629.4999852
 31
0.0
  0
CIRCLE
  8
0
  6
CONTINUOUS
 62
     1
 10
720.2199996
 20
654.4999852
 30
0.0
 40
25.0
  0
LINE
  8
0
  6
LTYPE2
 62
     2
 10
720.2199996
 20
691.6999852
 30
0.0
 11
720.2199996
 21
617.6999852
 31
0.0
  0
LINE
  8
0
  6
CONTINUOUS
 62
     2
 10
735.1199996
 20
669.6999852
 30
0.0
 11
744.247148983
 21
681.603562147
 31
0.0
  0
LINE
  8
0
  6
CONTINUOUS
 62
     2
 10
735.1199996
 20
669.6999852
 30
0.0
 11
737.072554356
 21
684.572359924
 31
0.0
  0
LINE
  8
0
  6
CONTINUOUS
 62
     2
 10
735.1199996
 20
669.6999852
 30
0.0
 11
795.1199996
 21
814.6999852
 31
0.0
  0
TEXT
  8
0
  6
CONTINUOUS
 62
     2
 10
687.2199996
 20
423.4999852
 30
1.2
 40
18.0
  1
Ｃ
 50
0.0
 41
0.9
 51
0.0
  7
KANJI28
  0
LINE
  8
2
  6
CONTINUOUS
 62
     2
 10
706.6199996
 20
908.4999852
 30
0.0
 11
702.737713923
 21
894.011097806
 31
0.0
  0
LINE
  8
2
  6
CONTINUOUS
 62
     2
 10
706.6199996
 20
908.4999852
 30
0.0
 11
710.502285277
 21
894.011097806
 31
0.0
  0
LINE
  8
2
  6
CONTINUOUS
 62
     2
 10
706.6199996
 20
908.4999852
 30
0.0
 11
706.6199996
 21
766.4999852
 31
0.0
  0
LINE
  8
2
  6
CONTINUOUS
 62
     2
 10
706.6199996
 20
766.4999852
 30
0.0
 11
710.502285277
 21
780.988872594
 31
0.0
  0
LINE
  8
2
  6
CONTINUOUS
 62
     2
 10
706.6199996
 20
766.4999852
 30
0.0
 11
702.737713923
 21
780.988872594
 31
0.0
  0
TEXT
  8
2
  6
CONTINUOUS
 62
     2
 10
700.6199996
 20
796.3999852
 30
1.8
 40
18.0
  1
φ１４２
 50
90.0
 41
0.9
 51
0.0
  7
KANJI29
  0
LINE
  8
2
  6
CONTINUOUS
 62
     2
 10
673.6199996
 20
597.4999852
 30
0.0
 11
677.502285277
 21
611.988872594
 31
0.0
  0
LINE
  8
2
  6
CONTINUOUS
 62
     2
 10
673.6199996
 20
597.4999852
 30
0.0
 11
669.737713923
 21
611.988872594
 31
0.0
  0
LINE
  8
2
  6
CONTINUOUS
 62
     2
 10
673.6199996
 20
597.4999852
 30
0.0
 11
673.6199996
 21
711.4999852
 31
0.0
  0
LINE
  8
2
  6
CONTINUOUS
 62
     2
 10
673.6199996
 20
711.4999852
 30
0.0
 11
669.737713923
 21
697.011097806
 31
0.0
  0
LINE
  8
2
  6
CONTINUOUS
 62
     2
 10
673.6199996
 20
711.4999852
 30
0.0
 11
677.502285277
 21
697.011097806
 31
0.0
  0
LINE
  8
0
  6
LTYPE3
 62
     2
 10
1140.5199996
 20
654.4999852
 30
0.0
 11
679.1199996
 21
654.4999852
 31
0.0
  0
LINE
  8
7
  6
CONTINUOUS
 62
     2
 10
651.0199996
 20
845.0499852
 30
0.0
 11
658.480279697
 21
858.06321773
 31
0.0
  0
LINE
  8
7
  6
CONTINUOUS
 62
     2
 10
651.0199996
 20
845.0499852
 30
0.0
 11
650.974175419
 21
860.049915205
 31
0.0
  0
LINE
  8
7
  6
CONTINUOUS
 62
     2
 10
651.0199996
 20
845.0499852
 30
0.0
 11
697.697480196
 21
1021.405993705
 31
0.0
  0
TEXT
  8
7
  6
CONTINUOUS
 62
     2
 10
697.697480196
 20
1027.405993705
 30
1.8
 40
18.0
  1
ブレーキ開放装置
 50
0.0
 41
0.9
 51
0.0
  7
KANJI29
  0
LINE
  8
7
  6
CONTINUOUS
 62
     2
 10
697.697480196
 20
1021.405993705
 30
0.0
 11
839.897480196
 21
1021.405993705
 31
0.0
  0
TEXT
  8
0
  6
CONTINUOUS
 62
     2
 10
704.9199996
 20
384.9999852
 30
1.2
 40
18.0
  1
ｍｉｎ．Ｌ
 50
0.0
 41
0.9
 51
0.0
  7
KANJI28
  0
ARC
  8
0
  6
CONTINUOUS
 62
     1
 10
778.6199996
 20
715.9999852
 30
0.0
 40
4.0
 50
0.0
 51
180.0
  0
LINE
  8
0
  6
CONTINUOUS
 62
     1
 10
774.6199996
 20
629.1499852
 30
0.0
 11
774.6199996
 21
715.9999852
 31
0.0
  0
LINE
  8
0
  6
CONTINUOUS
 62
     1
 10
771.6199996
 20
629.1499852
 30
0.0
 11
785.6199996
 21
629.1499852
 31
0.0
  0
LINE
  8
0
  6
CONTINUOUS
 62
     1
 10
771.6199996
 20
569.4999852
 30
0.0
 11
771.6199996
 21
629.1499852
 31
0.0
  0
LINE
  8
0
  6
CONTINUOUS
 62
     1
 10
771.6199996
 20
599.1499852
 30
0.0
 11
785.6199996
 21
599.1499852
 31
0.0
  0
LINE
  8
0
  6
CONTINUOUS
 62
     1
 10
774.6199996
 20
584.4999852
 30
0.0
 11
782.6199996
 21
584.4999852
 31
0.0
  0
LINE
  8
0
  6
CONTINUOUS
 62
     2
 10
774.6199996
 20
599.0999852
 30
0.0
 11
774.6199996
 21
584.4999852
 31
0.0
  0
LINE
  8
0
  6
CONTINUOUS
 62
     1
 10
775.3199996
 20
599.0999852
 30
0.0
 11
775.3199996
 21
584.4999852
 31
0.0
  0
LINE
  8
0
  6
CONTINUOUS
 62
     1
 10
743.6199996
 20
563.4999852
 30
0.0
 11
873.6199996
 21
563.4999852
 31
0.0
  0
LINE
  8
0
  6
CONTINUOUS
 62
     1
 10
743.6199996
 20
569.4999852
 30
0.0
 11
873.6199996
 21
569.4999852
 31
0.0
  0
LINE
  8
0
  6
CONTINUOUS
 62
     1
 10
761.3199996
 20
523.4999852
 30
0.0
 11
855.9199996
 21
523.4999852
 31
0.0
  0
LINE
  8
0
  6
CONTINUOUS
 62
     1
 10
761.3199996
 20
529.4999852
 30
0.0
 11
855.9199996
 21
529.4999852
 31
0.0
  0
LINE
  8
0
  6
CONTINUOUS
 62
     1
 10
761.3199996
 20
537.0999852
 30
0.0
 11
735.9199996
 21
537.0999852
 31
0.0
  0
LINE
  8
0
  6
CONTINUOUS
 62
     1
 10
761.3199996
 20
563.4999852
 30
0.0
 11
761.3199996
 21
523.4999852
 31
0.0
  0
LINE
  8
0
  6
CONTINUOUS
 62
     1
 10
743.6199996
 20
563.4999852
 30
0.0
 11
743.6199996
 21
569.4999852
 31
0.0
  0
LINE
  8
0
  6
CONTINUOUS
 62
     1
 10
735.9199996
 20
562.4999852
 30
0.0
 11
735.9199996
 21
537.0999852
 31
0.0
  0
LINE
  8
0
  6
CONTINUOUS
 62
     1
 10
761.3199996
 20
562.4999852
 30
0.0
 11
735.9199996
 21
562.4999852
 31
0.0
  0
LINE
  8
0
  6
CONTINUOUS
 62
     2
 10
775.7199996
 20
523.6999852
 30
0.0
 11
768.131244941
 21
513.767170759
 31
0.0
  0
LINE
  8
0
  6
CONTINUOUS
 62
     2
 10
775.7199996
 20
523.6999852
 30
0.0
 11
774.114352503
 21
511.303538233
 31
0.0
  0
LINE
  8
0
  6
CONTINUOUS
 62
     2
 10
775.7199996
 20
523.6999852
 30
0.0
 11
754.596470188
 21
472.3999852
 31
0.0
  0
TEXT
  8
0
  6
CONTINUOUS
 62
     2
 10
674.5199996
 20
477.3999852
 30
0.0
 40
15.0
  1
ＬＳユニット
 50
0.0
 41
0.9
 51
0.0
  7
KANJI27
  0
LINE
  8
0
  6
CONTINUOUS
 62
     2
 10
754.596470188
 20
472.3999852
 30
0.0
 11
674.5199996
 21
472.3999852
 31
0.0
  0
LINE
  8
0
  6
CONTINUOUS
 62
     2
 10
795.1199996
 20
814.6999852
 30
0.0
 11
847.3199996
 21
814.6999852
 31
0.0
  0
TEXT
  8
0
  6
CONTINUOUS
 62
     2
 10
795.1199996
 20
820.6999852
 30
1.8
 40
18.0
  1
給脂口
 50
0.0
 41
0.9
 51
0.0
  7
KANJI29
  0
LINE
  8
0
  6
CONTINUOUS
 62
     1
 10
788.1199996
 20
711.4999852
 30
0.0
 11
829.1199996
 21
711.4999852
 31
0.0
  0
LINE
  8
0
  6
CONTINUOUS
 62
     1
 10
788.1199996
 20
597.4999852
 30
0.0
 11
829.1199996
 21
597.4999852
 31
0.0
  0
LINE
  8
0
  6
CONTINUOUS
 62
     1
 10
782.6199996
 20
629.1499852
 30
0.0
 11
782.6199996
 21
715.9999852
 31
0.0
  0
LINE
  8
0
  6
CONTINUOUS
 62
     1
 10
785.6199996
 20
569.4999852
 30
0.0
 11
785.6199996
 21
629.1499852
 31
0.0
  0
LINE
  8
0
  6
CONTINUOUS
 62
     1
 10
781.9199996
 20
599.0999852
 30
0.0
 11
781.9199996
 21
584.4999852
 31
0.0
  0
LINE
  8
0
  6
CONTINUOUS
 62
     1
 10
792.6199996
 20
508.4999852
 30
0.0
 11
824.6199996
 21
508.4999852
 31
0.0
  0
LINE
  8
0
  6
LTYPE1
 62
     2
 10
792.6199996
 20
515.4999852
 30
0.0
 11
824.9199996
 21
515.4999852
 31
0.0
  0
LINE
  8
0
  6
CONTINUOUS
 62
     1
 10
787.2199996
 20
563.4999852
 30
0.0
 11
787.2199996
 21
523.4999852
 31
0.0
  0
LINE
  8
0
  6
CONTINUOUS
 62
     1
 10
792.6199996
 20
508.4999852
 30
0.0
 11
792.6199996
 21
523.4999852
 31
0.0
  0
LINE
  8
0
  6
LTYPE1
 62
     2
 10
792.3199996
 20
532.7299852
 30
0.0
 11
787.3199996
 21
532.7299852
 31
0.0
  0
LINE
  8
0
  6
LTYPE1
 62
     2
 10
792.3199996
 20
533.8849852
 30
0.0
 11
787.3199996
 21
533.8849852
 31
0.0
  0
LINE
  8
0
  6
LTYPE1
 62
     2
 10
792.3199996
 20
553.6699852
 30
0.0
 11
787.3199996
 21
553.6699852
 31
0.0
  0
LINE
  8
0
  6
LTYPE1
 62
     2
 10
792.3199996
 20
552.5149852
 30
0.0
 11
787.3199996
 21
552.5149852
 31
0.0
  0
LINE
  8
0
  6
LTYPE1
 62
     2
 10
792.3199996
 20
553.6699852
 30
0.0
 11
787.3199996
 21
553.6699852
 31
0.0
  0
LINE
  8
0
  6
LTYPE3
 62
     2
 10
783.894991696
 20
543.1999852
 30
0.0
 11
796.894991696
 21
543.1999852
 31
0.0
  0
CIRCLE
  8
0
  6
CONTINUOUS
 62
     1
 10
1092.1199996
 20
654.4999852
 30
0.0
 40
15.0
  0
LINE
  8
0
  6
CONTINUOUS
 62
     1
 10
1112.1199996
 20
691.9999852
 30
0.0
 11
1022.1199996
 21
691.9999852
 31
0.0
  0
LINE
  8
0
  6
CONTINUOUS
 62
     1
 10
1127.1199996
 20
676.9999852
 30
0.0
 11
1112.1199996
 21
691.9999852
 31
0.0
  0
LINE
  8
0
  6
CONTINUOUS
 62
     1
 10
1112.1199996
 20
616.9999852
 30
0.0
 11
1022.1199996
 21
616.9999852
 31
0.0
  0
LINE
  8
0
  6
CONTINUOUS
 62
     1
 10
1127.1199996
 20
676.9999852
 30
0.0
 11
1127.1199996
 21
631.9999852
 31
0.0
  0
LINE
  8
0
  6
CONTINUOUS
 62
     1
 10
1112.1199996
 20
616.9999852
 30
0.0
 11
1127.1199996
 21
631.9999852
 31
0.0
  0
LINE
  8
0
  6
LTYPE1
 62
     2
 10
1042.1199996
 20
691.9999852
 30
0.0
 11
1042.1199996
 21
616.9999852
 31
0.0
  0
LINE
  8
0
  6
LTYPE2
 62
     2
 10
1092.1199996
 20
702.6999852
 30
0.0
 11
1092.1199996
 21
608.6999852
 31
0.0
  0
LINE
  8
0
  6
CONTINUOUS
 62
     2
 10
1121.1199996
 20
691.9999852
 30
0.0
 11
1189.1199996
 21
691.9999852
 31
0.0
  0
LINE
  8
0
  6
CONTINUOUS
 62
     2
 10
1180.1199996
 20
691.9999852
 30
0.0
 11
1176.237713923
 21
677.511097806
 31
0.0
  0
LINE
  8
0
  6
CONTINUOUS
 62
     2
 10
1180.1199996
 20
691.9999852
 30
0.0
 11
1184.002285277
 21
677.511097806
 31
0.0
  0
LINE
  8
0
  6
CONTINUOUS
 62
     2
 10
1180.1199996
 20
691.9999852
 30
0.0
 11
1180.1199996
 21
616.9999852
 31
0.0
  0
LINE
  8
0
  6
CONTINUOUS
 62
     2
 10
1180.1199996
 20
616.9999852
 30
0.0
 11
1184.002285277
 21
631.488872594
 31
0.0
  0
LINE
  8
0
  6
CONTINUOUS
 62
     2
 10
1180.1199996
 20
616.9999852
 30
0.0
 11
1176.237713923
 21
631.488872594
 31
0.0
  0
LINE
  8
0
  6
CONTINUOUS
 62
     2
 10
1121.1199996
 20
616.9999852
 30
0.0
 11
1189.1199996
 21
616.9999852
 31
0.0
  0
TEXT
  8
0
  6
CONTINUOUS
 62
     2
 10
1174.1199996
 20
637.6999852
 30
1.2
 40
18.0
  1
７５
 50
90.0
 41
0.9
 51
0.0
  7
KANJI28
  0
LINE
  8
0
  6
CONTINUOUS
 62
     2
 10
1092.1199996
 20
594.4499852
 30
0.0
 11
1092.1199996
 21
369.9999852
 31
0.0
  0
LINE
  8
0
  6
CONTINUOUS
 62
     2
 10
1127.1199996
 20
622.9999852
 30
0.0
 11
1127.1199996
 21
331.9999852
 31
0.0
  0
LINE
  8
0
  6
CONTINUOUS
 62
     2
 10
933.1199996
 20
588.4999852
 30
0.0
 11
933.1199996
 21
408.4999852
 31
0.0
  0
LINE
  8
0
  6
CONTINUOUS
 62
     1
 10
868.1199996
 20
712.4999852
 30
0.0
 11
872.476537033
 21
728.758804245
 31
0.0
  0
ARC
  8
0
  6
CONTINUOUS
 62
     1
 10
873.442462859
 20
728.4999852
 30
0.0
 40
1.0
 50
90.0
 51
165.0
  0
ARC
  8
0
  6
CONTINUOUS
 62
     1
 10
873.442463534
 20
728.4999852
 30
0.0
 40
1.0
 50
15.0
 51
90.0
  0
LINE
  8
0
  6
CONTINUOUS
 62
     1
 10
878.03042957
 20
715.241166155
 30
0.0
 11
874.40838936
 21
728.758804245
 31
0.0
  0
ARC
  8
0
  6
CONTINUOUS
 62
     1
 10
878.996355396
 20
715.4999852
 30
0.0
 40
1.0
 50
195.0
 51
270.0
  0
ARC
  8
0
  6
CONTINUOUS
 62
     1
 10
878.99635607
 20
715.4999852
 30
0.0
 40
1.0
 50
270.0
 51
345.0
  0
LINE
  8
0
  6
CONTINUOUS
 62
     1
 10
879.962281897
 20
715.241166155
 30
0.0
 11
883.584322107
 21
728.758804245
 31
0.0
  0
ARC
  8
0
  6
CONTINUOUS
 62
     1
 10
884.550247933
 20
728.4999852
 30
0.0
 40
1.0
 50
90.0
 51
165.0
  0
ARC
  8
0
  6
CONTINUOUS
 62
     1
 10
884.550247933
 20
728.4999852
 30
0.0
 40
1.0
 50
15.0
 51
90.0
  0
LINE
  8
0
  6
CONTINUOUS
 62
     1
 10
889.138213969
 20
715.241166155
 30
0.0
 11
885.516173759
 21
728.758804245
 31
0.0
  0
ARC
  8
0
  6
CONTINUOUS
 62
     1
 10
890.104139795
 20
715.4999852
 30
0.0
 40
1.0
 50
195.0
 51
270.0
  0
LINE
  8
0
  6
CONTINUOUS
 62
     1
 10
853.1199996
 20
714.4999852
 30
0.0
 11
863.1199996
 21
714.4999852
 31
0.0
  0
LINE
  8
0
  6
CONTINUOUS
 62
     1
 10
863.064743363
 20
712.4999852
 30
0.0
 11
868.1199996
 21
712.4999852
 31
0.0
  0
LINE
  8
0
  6
CONTINUOUS
 62
     1
 10
848.1199996
 20
712.4999852
 30
0.0
 11
853.064743363
 21
712.4999852
 31
0.0
  0
LINE
  8
0
  6
CONTINUOUS
 62
     1
 10
853.1199996
 20
654.4999852
 30
0.0
 11
853.1199996
 21
714.4999852
 31
0.0
  0
LINE
  8
0
  6
CONTINUOUS
 62
     1
 10
863.1199996
 20
654.4999852
 30
0.0
 11
863.1199996
 21
714.4999852
 31
0.0
  0
LINE
  8
0
  6
CONTINUOUS
 62
     1
 10
873.442462859
 20
729.4999852
 30
0.0
 11
873.442462859
 21
654.4999852
 31
0.0
  0
LINE
  8
0
  6
CONTINUOUS
 62
     1
 10
878.996355396
 20
714.4999852
 30
0.0
 11
878.996355396
 21
654.4999852
 31
0.0
  0
LINE
  8
0
  6
CONTINUOUS
 62
     1
 10
884.550247933
 20
729.4999852
 30
0.0
 11
884.550247933
 21
655.5999852
 31
0.0
  0
LINE
  8
0
  6
CONTINUOUS
 62
     1
 10
890.104139795
 20
714.4999852
 30
0.0
 11
890.104139795
 21
654.4999852
 31
0.0
  0
LINE
  8
0
  6
CONTINUOUS
 62
     1
 10
868.1199996
 20
597.4999852
 30
0.0
 11
868.1199996
 21
712.4999852
 31
0.0
  0
LINE
  8
0
  6
CONTINUOUS
 62
     1
 10
933.1199996
 20
616.9999852
 30
0.0
 11
1003.1199996
 21
616.9999852
 31
0.0
  0
LINE
  8
0
  6
CONTINUOUS
 62
     1
 10
933.1199996
 20
597.4999852
 30
0.0
 11
933.1199996
 21
654.4999852
 31
0.0
  0
LINE
  8
0
  6
CONTINUOUS
 62
     1
 10
868.1199996
 20
596.4999852
 30
0.0
 11
872.476537033
 21
580.241166155
 31
0.0
  0
ARC
  8
0
  6
CONTINUOUS
 62
     1
 10
873.442462859
 20
580.4999852
 30
0.0
 40
1.0
 50
195.0
 51
270.0
  0
ARC
  8
0
  6
CONTINUOUS
 62
     1
 10
873.442463534
 20
580.4999852
 30
0.0
 40
1.0
 50
270.0
 51
345.0
  0
LINE
  8
0
  6
CONTINUOUS
 62
     1
 10
878.03042957
 20
593.758804245
 30
0.0
 11
874.40838936
 21
580.241166155
 31
0.0
  0
ARC
  8
0
  6
CONTINUOUS
 62
     1
 10
878.996355396
 20
593.4999852
 30
0.0
 40
1.0
 50
90.0
 51
165.0
  0
ARC
  8
0
  6
CONTINUOUS
 62
     1
 10
878.99635607
 20
593.4999852
 30
0.0
 40
1.0
 50
15.0
 51
90.0
  0
LINE
  8
0
  6
CONTINUOUS
 62
     1
 10
879.962281897
 20
593.758804245
 30
0.0
 11
883.584322107
 21
580.241166155
 31
0.0
  0
ARC
  8
0
  6
CONTINUOUS
 62
     1
 10
884.550247933
 20
580.4999852
 30
0.0
 40
1.0
 50
195.0
 51
270.0
  0
ARC
  8
0
  6
CONTINUOUS
 62
     1
 10
884.550247933
 20
580.4999852
 30
0.0
 40
1.0
 50
270.0
 51
345.0
  0
LINE
  8
0
  6
CONTINUOUS
 62
     1
 10
889.138213969
 20
593.758804245
 30
0.0
 11
885.516173759
 21
580.241166155
 31
0.0
  0
ARC
  8
0
  6
CONTINUOUS
 62
     1
 10
890.104139795
 20
593.4999852
 30
0.0
 40
1.0
 50
90.0
 51
165.0
  0
LINE
  8
0
  6
CONTINUOUS
 62
     1
 10
853.1199996
 20
594.4999852
 30
0.0
 11
863.1199996
 21
594.4999852
 31
0.0
  0
LINE
  8
0
  6
CONTINUOUS
 62
     1
 10
863.064743363
 20
596.4999852
 30
0.0
 11
868.1199996
 21
596.4999852
 31
0.0
  0
LINE
  8
0
  6
CONTINUOUS
 62
     1
 10
848.1199996
 20
596.4999852
 30
0.0
 11
863.1199996
 21
596.4999852
 31
0.0
  0
LINE
  8
0
  6
CONTINUOUS
 62
     1
 10
848.1199996
 20
597.4999852
 30
0.0
 11
933.1199996
 21
597.4999852
 31
0.0
  0
ARC
  8
0
  6
CONTINUOUS
 62
     1
 10
969.464743363
 20
728.4999852
 30
0.0
 40
1.0
 50
90.0
 51
165.0
  0
LINE
  8
0
  6
CONTINUOUS
 62
     1
 10
964.876777327
 20
715.241166155
 30
0.0
 11
968.498817537
 21
728.758804245
 31
0.0
  0
ARC
  8
0
  6
CONTINUOUS
 62
     1
 10
963.910851501
 20
715.4999852
 30
0.0
 40
1.0
 50
270.0
 51
345.0
  0
LINE
  8
0
  6
CONTINUOUS
 62
     1
 10
993.6199996
 20
694.9999852
 30
0.0
 11
1003.6199996
 21
694.9999852
 31
0.0
  0
LINE
  8
0
  6
CONTINUOUS
 62
     1
 10
1003.564743363
 20
692.9999852
 30
0.0
 11
1006.1199996
 21
692.9999852
 31
0.0
  0
LINE
  8
0
  6
CONTINUOUS
 62
     1
 10
991.1199996
 20
692.9999852
 30
0.0
 11
993.564743363
 21
692.9999852
 31
0.0
  0
LINE
  8
0
  6
CONTINUOUS
 62
     1
 10
1003.6199996
 20
694.9999852
 30
0.0
 11
1003.6199996
 21
654.4999852
 31
0.0
  0
LINE
  8
0
  6
CONTINUOUS
 62
     1
 10
991.1199996
 20
692.9999852
 30
0.0
 11
991.1199996
 21
654.4999852
 31
0.0
  0
LINE
  8
0
  6
CONTINUOUS
 62
     1
 10
993.6199996
 20
694.9999852
 30
0.0
 11
993.6199996
 21
654.4999852
 31
0.0
  0
LINE
  8
0
  6
CONTINUOUS
 62
     1
 10
991.1199996
 20
692.9999852
 30
0.0
 11
981.538452915
 21
728.758804245
 31
0.0
  0
ARC
  8
0
  6
CONTINUOUS
 62
     1
 10
980.572527088
 20
728.4999852
 30
0.0
 40
1.0
 50
15.0
 51
90.0
  0
ARC
  8
0
  6
CONTINUOUS
 62
     1
 10
980.572527088
 20
728.4999852
 30
0.0
 40
1.0
 50
90.0
 51
165.0
  0
LINE
  8
0
  6
CONTINUOUS
 62
     1
 10
975.984561052
 20
715.241166155
 30
0.0
 11
979.606601262
 21
728.758804245
 31
0.0
  0
ARC
  8
0
  6
CONTINUOUS
 62
     1
 10
975.018635226
 20
715.4999852
 30
0.0
 40
1.0
 50
270.0
 51
345.0
  0
ARC
  8
0
  6
CONTINUOUS
 62
     1
 10
975.018635226
 20
715.4999852
 30
0.0
 40
1.0
 50
195.0
 51
270.0
  0
LINE
  8
0
  6
CONTINUOUS
 62
     1
 10
974.0527094
 20
715.241166155
 30
0.0
 11
970.43066919
 21
728.758804245
 31
0.0
  0
ARC
  8
0
  6
CONTINUOUS
 62
     1
 10
969.464743363
 20
728.4999852
 30
0.0
 40
1.0
 50
15.0
 51
90.0
  0
LINE
  8
0
  6
CONTINUOUS
 62
     1
 10
963.910851501
 20
714.4999852
 30
0.0
 11
963.910851501
 21
654.4999852
 31
0.0
  0
LINE
  8
0
  6
CONTINUOUS
 62
     1
 10
969.464743363
 20
729.4999852
 30
0.0
 11
969.464743363
 21
654.4999852
 31
0.0
  0
LINE
  8
0
  6
CONTINUOUS
 62
     1
 10
980.572527088
 20
729.4999852
 30
0.0
 11
980.572527088
 21
654.4999852
 31
0.0
  0
LINE
  8
0
  6
CONTINUOUS
 62
     1
 10
975.018635226
 20
714.4999852
 30
0.0
 11
975.018635226
 21
654.4999852
 31
0.0
  0
LINE
  8
0
  6
CONTINUOUS
 62
     1
 10
991.1199996
 20
615.9999852
 30
0.0
 11
981.538452915
 21
580.241166155
 31
0.0
  0
LINE
  8
0
  6
CONTINUOUS
 62
     1
 10
993.6199996
 20
613.9999852
 30
0.0
 11
1003.6199996
 21
613.9999852
 31
0.0
  0
ARC
  8
0
  6
CONTINUOUS
 62
     1
 10
975.018635226
 20
593.4999852
 30
0.0
 40
1.0
 50
15.0
 51
90.0
  0
ARC
  8
0
  6
CONTINUOUS
 62
     1
 10
975.018635226
 20
593.4999852
 30
0.0
 40
1.0
 50
90.0
 51
165.0
  0
LINE
  8
0
  6
CONTINUOUS
 62
     1
 10
974.0527094
 20
593.758804245
 30
0.0
 11
970.43066919
 21
580.241166155
 31
0.0
  0
ARC
  8
0
  6
CONTINUOUS
 62
     1
 10
969.464743363
 20
580.4999852
 30
0.0
 40
1.0
 50
270.0
 51
345.0
  0
ARC
  8
0
  6
CONTINUOUS
 62
     1
 10
969.464743363
 20
580.4999852
 30
0.0
 40
1.0
 50
195.0
 51
270.0
  0
LINE
  8
0
  6
CONTINUOUS
 62
     1
 10
964.876777327
 20
593.758804245
 30
0.0
 11
968.498817537
 21
580.241166155
 31
0.0
  0
ARC
  8
0
  6
CONTINUOUS
 62
     1
 10
963.910851501
 20
593.4999852
 30
0.0
 40
1.0
 50
15.0
 51
90.0
  0
ARC
  8
0
  6
CONTINUOUS
 62
     1
 10
980.572527088
 20
580.4999852
 30
0.0
 40
1.0
 50
270.0
 51
345.0
  0
ARC
  8
0
  6
CONTINUOUS
 62
     1
 10
980.572527088
 20
580.4999852
 30
0.0
 40
1.0
 50
195.0
 51
270.0
  0
LINE
  8
0
  6
CONTINUOUS
 62
     1
 10
975.984561052
 20
593.758804245
 30
0.0
 11
979.606601262
 21
580.241166155
 31
0.0
  0
LINE
  8
0
  6
CONTINUOUS
 62
     1
 10
991.1199996
 20
615.9999852
 30
0.0
 11
1006.1199996
 21
615.9999852
 31
0.0
  0
LINE
  8
0
  6
LTYPE5
 62
     2
 10
890.104139795
 20
714.4999852
 30
0.0
 11
963.7699996
 21
714.4999852
 31
0.0
  0
LINE
  8
0
  6
LTYPE5
 62
     2
 10
890.104139795
 20
594.4999852
 30
0.0
 11
963.3699996
 21
594.4999852
 31
0.0
  0
LINE
  8
0
  6
LTYPE5
 62
     2
 10
884.550247933
 20
729.4999852
 30
0.0
 11
969.3699996
 21
729.4999852
 31
0.0
  0
LINE
  8
0
  6
LTYPE5
 62
     2
 10
884.550247933
 20
579.4999852
 30
0.0
 11
969.7699996
 21
579.4999852
 31
0.0
  0
ARC
  8
0
  6
CONTINUOUS
 62
     1
 10
838.6199996
 20
715.9999852
 30
0.0
 40
4.0
 50
0.0
 51
180.0
  0
LINE
  8
0
  6
CONTINUOUS
 62
     1
 10
834.6199996
 20
629.1499852
 30
0.0
 11
834.6199996
 21
715.9999852
 31
0.0
  0
LINE
  8
0
  6
CONTINUOUS
 62
     1
 10
842.6199996
 20
629.1499852
 30
0.0
 11
842.6199996
 21
715.9999852
 31
0.0
  0
LINE
  8
0
  6
CONTINUOUS
 62
     1
 10
845.6199996
 20
629.1499852
 30
0.0
 11
831.6199996
 21
629.1499852
 31
0.0
  0
LINE
  8
0
  6
CONTINUOUS
 62
     1
 10
831.6199996
 20
569.4999852
 30
0.0
 11
831.6199996
 21
629.1499852
 31
0.0
  0
LINE
  8
0
  6
CONTINUOUS
 62
     1
 10
845.6199996
 20
569.4999852
 30
0.0
 11
845.6199996
 21
629.1499852
 31
0.0
  0
LINE
  8
0
  6
CONTINUOUS
 62
     1
 10
845.6199996
 20
599.1499852
 30
0.0
 11
831.6199996
 21
599.1499852
 31
0.0
  0
LINE
  8
0
  6
CONTINUOUS
 62
     1
 10
842.6199996
 20
584.4999852
 30
0.0
 11
834.6199996
 21
584.4999852
 31
0.0
  0
LINE
  8
0
  6
CONTINUOUS
 62
     2
 10
842.6199996
 20
599.0999852
 30
0.0
 11
842.6199996
 21
584.4999852
 31
0.0
  0
LINE
  8
0
  6
CONTINUOUS
 62
     2
 10
834.6199996
 20
599.1499852
 30
0.0
 11
834.6199996
 21
584.4999852
 31
0.0
  0
LINE
  8
0
  6
CONTINUOUS
 62
     1
 10
835.3199996
 20
599.0999852
 30
0.0
 11
835.3199996
 21
584.4999852
 31
0.0
  0
LINE
  8
0
  6
CONTINUOUS
 62
     1
 10
841.9199996
 20
599.0999852
 30
0.0
 11
841.9199996
 21
584.4999852
 31
0.0
  0
LINE
  8
0
  6
CONTINUOUS
 62
     1
 10
824.9199996
 20
515.4999852
 30
0.0
 11
890.894891696
 21
515.4999852
 31
0.0
  0
LINE
  8
0
  6
CONTINUOUS
 62
     1
 10
855.894991696
 20
527.4999852
 30
0.0
 11
890.894891696
 21
527.4999852
 31
0.0
  0
LINE
  8
0
  6
CONTINUOUS
 62
     1
 10
855.9199996
 20
537.0999852
 30
0.0
 11
881.3199996
 21
537.0999852
 31
0.0
  0
LINE
  8
0
  6
CONTINUOUS
 62
     1
 10
881.3199996
 20
562.4999852
 30
0.0
 11
881.3199996
 21
537.0999852
 31
0.0
  0
LINE
  8
0
  6
CONTINUOUS
 62
     1
 10
855.9199996
 20
562.4999852
 30
0.0
 11
881.3199996
 21
562.4999852
 31
0.0
  0
LINE
  8
0
  6
LTYPE1
 62
     2
 10
890.894891696
 20
515.4999852
 30
0.0
 11
932.894891696
 21
515.4999852
 31
0.0
  0
LINE
  8
0
  6
LTYPE1
 62
     2
 10
890.894891696
 20
527.4999852
 30
0.0
 11
932.894891696
 21
527.4999852
 31
0.0
  0
LINE
  8
0
  6
CONTINUOUS
 62
     1
 10
890.894891696
 20
532.4999852
 30
0.0
 11
899.555145734
 21
537.4999852
 31
0.0
  0
LINE
  8
0
  6
CONTINUOUS
 62
     1
 10
890.894891696
 20
510.4999852
 30
0.0
 11
890.894891696
 21
532.4999852
 31
0.0
  0
LINE
  8
0
  6
CONTINUOUS
 62
     1
 10
890.894891696
 20
510.4999852
 30
0.0
 11
899.555145734
 21
505.4999852
 31
0.0
  0
LINE
  8
0
  6
CONTINUOUS
 62
     1
 10
855.9199996
 20
563.4999852
 30
0.0
 11
855.9199996
 21
523.4999852
 31
0.0
  0
LINE
  8
0
  6
LTYPE2
 62
     2
 10
865.6199996
 20
548.6874852
 30
0.0
 11
865.6199996
 21
508.6999852
 31
0.0
  0
LINE
  8
0
  6
CONTINUOUS
 62
     1
 10
824.6199996
 20
508.4999852
 30
0.0
 11
824.6199996
 21
523.4999852
 31
0.0
  0
LINE
  8
0
  6
CONTINUOUS
 62
     1
 10
873.6199996
 20
563.4999852
 30
0.0
 11
873.6199996
 21
569.4999852
 31
0.0
  0
CIRCLE
  8
0
  6
CONTINUOUS
 62
     2
 10
911.894891696
 20
521.4999852
 30
0.0
 40
5.0
  0
CIRCLE
  8
0
  6
CONTINUOUS
 62
     2
 10
911.894891696
 20
521.4999852
 30
0.0
 40
4.0
  0
LINE
  8
0
  6
CONTINUOUS
 62
     1
 10
899.544891696
 20
537.4999852
 30
0.0
 11
924.244891696
 21
537.4999852
 31
0.0
  0
LINE
  8
0
  6
CONTINUOUS
 62
     1
 10
899.544891696
 20
505.4999852
 30
0.0
 11
899.544891696
 21
537.4999852
 31
0.0
  0
LINE
  8
0
  6
CONTINUOUS
 62
     1
 10
899.544891696
 20
505.4999852
 30
0.0
 11
924.244891696
 21
505.4999852
 31
0.0
  0
LINE
  8
0
  6
LTYPE2
 62
     2
 10
911.894891696
 20
511.4999852
 30
0.0
 11
911.894891696
 21
531.4999852
 31
0.0
  0
LINE
  8
0
  6
CONTINUOUS
 62
     1
 10
924.244891696
 20
505.4999852
 30
0.0
 11
924.244891696
 21
537.4999852
 31
0.0
  0
LINE
  8
0
  6
CONTINUOUS
 62
     1
 10
932.894891696
 20
510.4999852
 30
0.0
 11
924.234637658
 21
505.4999852
 31
0.0
  0
LINE
  8
0
  6
CONTINUOUS
 62
     1
 10
932.894891696
 20
532.4999852
 30
0.0
 11
924.234637658
 21
537.4999852
 31
0.0
  0
LINE
  8
0
  6
CONTINUOUS
 62
     1
 10
932.894891696
 20
510.4999852
 30
0.0
 11
932.894891696
 21
532.4999852
 31
0.0
  0
LINE
  8
0
  6
CONTINUOUS
 62
     1
 10
1040.2199996
 20
527.4999852
 30
0.0
 11
1035.9199996
 21
527.4999852
 31
0.0
  0
LINE
  8
0
  6
CONTINUOUS
 62
     1
 10
1041.9199996
 20
517.1999852
 30
0.0
 11
1041.9199996
 21
525.7999852
 31
0.0
  0
LINE
  8
0
  6
CONTINUOUS
 62
     1
 10
1040.2199996
 20
527.4999852
 30
0.0
 11
1040.2199996
 21
515.4999852
 31
0.0
  0
LINE
  8
0
  6
CONTINUOUS
 62
     1
 10
1041.9199996
 20
525.7999852
 30
0.0
 11
1040.2199996
 21
527.4999852
 31
0.0
  0
LINE
  8
0
  6
CONTINUOUS
 62
     2
 10
1041.4199996
 20
526.2999852
 30
0.0
 11
1035.9199996
 21
526.2999852
 31
0.0
  0
LINE
  8
0
  6
CONTINUOUS
 62
     1
 10
1040.2199996
 20
515.4999852
 30
0.0
 11
1035.9199996
 21
515.4999852
 31
0.0
  0
LINE
  8
0
  6
CONTINUOUS
 62
     1
 10
1041.9199996
 20
517.1999852
 30
0.0
 11
1040.2199996
 21
515.4999852
 31
0.0
  0
LINE
  8
0
  6
CONTINUOUS
 62
     2
 10
1041.4199996
 20
516.6999852
 30
0.0
 11
1035.9199996
 21
516.6999852
 31
0.0
  0
LINE
  8
0
  6
CONTINUOUS
 62
     1
 10
1022.1199996
 20
510.6999852
 30
0.0
 11
1025.1199996
 21
510.6999852
 31
0.0
  0
LINE
  8
0
  6
CONTINUOUS
 62
     1
 10
1025.1199996
 20
510.6999852
 30
0.0
 11
1025.1199996
 21
532.2999852
 31
0.0
  0
LINE
  8
0
  6
CONTINUOUS
 62
     1
 10
1025.1199996
 20
532.2999852
 30
0.0
 11
1022.1199996
 21
532.2999852
 31
0.0
  0
LINE
  8
0
  6
CONTINUOUS
 62
     1
 10
1022.1199996
 20
521.4999852
 30
0.0
 11
1025.1199996
 21
518.4999852
 31
0.0
  0
LINE
  8
0
  6
CONTINUOUS
 62
     1
 10
1022.1199996
 20
524.4999852
 30
0.0
 11
1025.1199996
 21
521.4999852
 31
0.0
  0
LINE
  8
0
  6
CONTINUOUS
 62
     1
 10
1026.1199996
 20
531.8999852
 30
0.0
 11
1034.9199996
 21
531.8999852
 31
0.0
  0
LINE
  8
0
  6
CONTINUOUS
 62
     1
 10
1026.1199996
 20
511.0999852
 30
0.0
 11
1034.9199996
 21
511.0999852
 31
0.0
  0
LINE
  8
0
  6
CONTINUOUS
 62
     1
 10
1026.1199996
 20
516.2999852
 30
0.0
 11
1034.9199996
 21
516.2999852
 31
0.0
  0
LINE
  8
0
  6
CONTINUOUS
 62
     1
 10
1026.1199996
 20
526.6999852
 30
0.0
 11
1034.9199996
 21
526.6999852
 31
0.0
  0
LINE
  8
0
  6
CONTINUOUS
 62
     1
 10
1035.9199996
 20
529.2999852
 30
0.0
 11
1035.9199996
 21
513.6999852
 31
0.0
  0
ARC
  8
0
  6
CONTINUOUS
 62
     1
 10
1032.0199996
 20
513.6999852
 30
0.0
 40
3.9
 50
317.9
 51
42.1
  0
ARC
  8
0
  6
CONTINUOUS
 62
     1
 10
1021.9199996
 20
521.4999852
 30
0.0
 40
14.0
 50
338.2
 51
21.8
  0
ARC
  8
0
  6
CONTINUOUS
 62
     1
 10
1032.0199996
 20
529.2999852
 30
0.0
 40
3.9
 50
317.9
 51
42.1
  0
ARC
  8
0
  6
CONTINUOUS
 62
     1
 10
1029.0199996
 20
529.2999852
 30
0.0
 40
3.9
 50
137.9
 51
222.1
  0
ARC
  8
0
  6
CONTINUOUS
 62
     1
 10
1039.1199996
 20
521.4999852
 30
0.0
 40
14.0
 50
158.2
 51
201.8
  0
ARC
  8
0
  6
CONTINUOUS
 62
     1
 10
1029.0199996
 20
513.6999852
 30
0.0
 40
3.9
 50
137.9
 51
222.1
  0
LINE
  8
0
  6
CONTINUOUS
 62
     1
 10
1022.1199996
 20
704.4999852
 30
0.0
 11
1006.1199996
 21
704.4999852
 31
0.0
  0
LINE
  8
0
  6
CONTINUOUS
 62
     1
 10
1022.1199996
 20
704.4999852
 30
0.0
 11
1022.1199996
 21
508.4999852
 31
0.0
  0
LINE
  8
0
  6
CONTINUOUS
 62
     1
 10
1006.1199996
 20
508.4999852
 30
0.0
 11
1022.1199996
 21
508.4999852
 31
0.0
  0
LINE
  8
0
  6
CONTINUOUS
 62
     1
 10
1006.1199996
 20
704.4999852
 30
0.0
 11
1006.1199996
 21
508.4999852
 31
0.0
  0
LINE
  8
0
  6
CONTINUOUS
 62
     1
 10
932.894891696
 20
527.4999852
 30
0.0
 11
1006.1199996
 21
527.4999852
 31
0.0
  0
LINE
  8
0
  6
CONTINUOUS
 62
     1
 10
932.894891696
 20
515.4999852
 30
0.0
 11
1006.1199996
 21
515.4999852
 31
0.0
  0
LINE
  8
0
  6
CONTINUOUS
 62
     2
 10
1022.1199996
 20
499.3
 30
0.0
 11
1022.1199996
 21
408.4999852
 31
0.0
  0
LINE
  8
0
  6
LTYPE3
 62
     2
 10
808.6199996
 20
166.133959796
 30
0.0
 11
808.6199996
 21
603.5999852
 31
0.0
  0
LINE
  8
0
  6
CONTINUOUS
 62
     2
 10
1022.1199996
 20
417.4999852
 30
0.0
 11
1007.631112206
 21
421.382270877
 31
0.0
  0
LINE
  8
0
  6
CONTINUOUS
 62
     2
 10
1022.1199996
 20
417.4999852
 30
0.0
 11
1007.631112206
 21
413.617699523
 31
0.0
  0
LINE
  8
0
  6
CONTINUOUS
 62
     2
 10
1022.1199996
 20
417.4999852
 30
0.0
 11
1036.608886994
 21
413.617699523
 31
0.0
  0
LINE
  8
0
  6
CONTINUOUS
 62
     2
 10
1022.1199996
 20
417.4999852
 30
0.0
 11
1036.608886994
 21
421.382270877
 31
0.0
  0
LINE
  8
0
  6
CONTINUOUS
 62
     2
 10
1022.1199996
 20
417.4999852
 30
0.0
 11
1092.1199996
 21
417.4999852
 31
0.0
  0
LINE
  8
0
  6
CONTINUOUS
 62
     2
 10
1092.1199996
 20
417.4999852
 30
0.0
 11
1077.631112206
 21
421.382270877
 31
0.0
  0
LINE
  8
0
  6
CONTINUOUS
 62
     2
 10
1092.1199996
 20
417.4999852
 30
0.0
 11
1077.631112206
 21
413.617699523
 31
0.0
  0
TEXT
  8
0
  6
CONTINUOUS
 62
     2
 10
1040.3199996
 20
423.4999852
 30
1.2
 40
18.0
  1
７０
 50
0.0
 41
0.9
 51
0.0
  7
KANJI28
  0
LINE
  8
0
  6
CONTINUOUS
 62
     2
 10
933.1199996
 20
417.4999852
 30
0.0
 11
918.631112206
 21
421.382270877
 31
0.0
  0
LINE
  8
0
  6
CONTINUOUS
 62
     2
 10
933.1199996
 20
417.4999852
 30
0.0
 11
947.608886994
 21
421.382270877
 31
0.0
  0
TEXT
  8
0
  6
CONTINUOUS
 62
     2
 10
934.7199996
 20
423.4999852
 30
1.2
 40
18.0
  1
ｍｉｎ．Ｐ
 50
0.0
 41
0.9
 51
0.0
  7
KANJI28
  0
LINE
  8
0
  6
CONTINUOUS
 62
     2
 10
933.1199996
 20
417.4999852
 30
0.0
 11
918.631112206
 21
413.617699523
 31
0.0
  0
LINE
  8
0
  6
CONTINUOUS
 62
     2
 10
933.1199996
 20
417.4999852
 30
0.0
 11
947.608886994
 21
413.617699523
 31
0.0
  0
LINE
  8
0
  6
CONTINUOUS
 62
     2
 10
933.1199996
 20
417.4999852
 30
0.0
 11
1022.1199996
 21
417.4999852
 31
0.0
  0
LINE
  8
0
  6
CONTINUOUS
 62
     2
 10
1092.1199996
 20
378.9999852
 30
0.0
 11
1077.631112206
 21
382.882270877
 31
0.0
  0
LINE
  8
0
  6
CONTINUOUS
 62
     2
 10
1092.1199996
 20
378.9999852
 30
0.0
 11
1077.631112206
 21
375.117699523
 31
0.0
  0
LINE
  8
0
  6
CONTINUOUS
 62
     2
 10
1092.1199996
 20
369.9999852
 30
0.0
 11
1092.1199996
 21
331.9999852
 31
0.0
  0
TEXT
  8
0
  6
CONTINUOUS
 62
     2
 10
1092.8199996
 20
346.9999852
 30
1.2
 40
18.0
  1
３５
 50
0.0
 41
0.9
 51
0.0
  7
KANJI28
  0
LINE
  8
0
  6
CONTINUOUS
 62
     2
 10
1092.1199996
 20
340.9999852
 30
0.0
 11
1077.631112206
 21
344.882270877
 31
0.0
  0
LINE
  8
0
  6
CONTINUOUS
 62
     2
 10
1092.1199996
 20
340.9999852
 30
0.0
 11
1077.631112206
 21
337.117699523
 31
0.0
  0
LINE
  8
0
  6
CONTINUOUS
 62
     2
 10
1092.1199996
 20
340.9999852
 30
0.0
 11
1106.608886994
 21
337.117699523
 31
0.0
  0
LINE
  8
0
  6
CONTINUOUS
 62
     2
 10
1092.1199996
 20
340.9999852
 30
0.0
 11
1106.608886994
 21
344.882270877
 31
0.0
  0
LINE
  8
0
  6
CONTINUOUS
 62
     2
 10
1092.1199996
 20
340.9999852
 30
0.0
 11
1127.1199996
 21
340.9999852
 31
0.0
  0
LINE
  8
0
  6
CONTINUOUS
 62
     2
 10
1127.1199996
 20
340.9999852
 30
0.0
 11
1112.631112206
 21
344.882270877
 31
0.0
  0
LINE
  8
0
  6
CONTINUOUS
 62
     2
 10
1127.1199996
 20
340.9999852
 30
0.0
 11
1112.631112206
 21
337.117699523
 31
0.0
  0
TEXT
  8
0
  6
CONTINUOUS
 62
     2
 10
1277.6199996
 20
691.9999852
 30
1.2
 40
18.0
  1
φ３０Ｈ１０深３５
 50
90.0
 41
0.9
 51
0.0
  7
KANJI28
  0
LINE
  8
0
  6
CONTINUOUS
 62
     1
 10
1481.6199996
 20
639.4999852
 30
0.0
 11
1441.6199996
 21
639.4999852
 31
0.0
  0
LINE
  8
0
  6
CONTINUOUS
 62
     1
 10
1481.6199996
 20
669.4999852
 30
0.0
 11
1441.6199996
 21
669.4999852
 31
0.0
  0
LINE
  8
0
  6
LTYPE1
 62
     2
 10
1441.6199996
 20
639.4999852
 30
0.0
 11
1421.6199996
 21
639.4999852
 31
0.0
  0
LINE
  8
0
  6
LTYPE1
 62
     2
 10
1441.6199996
 20
669.4999852
 30
0.0
 11
1421.6199996
 21
669.4999852
 31
0.0
  0
LINE
  8
0
  6
CONTINUOUS
 62
     1
 10
1505.6199996
 20
626.4999852
 30
0.0
 11
1505.6199996
 21
682.4999852
 31
0.0
  0
LINE
  8
0
  6
CONTINUOUS
 62
     1
 10
1505.6199996
 20
626.4999852
 30
0.0
 11
1501.6199996
 21
626.4999852
 31
0.0
  0
LINE
  8
0
  6
CONTINUOUS
 62
     1
 10
1505.6199996
 20
682.4999852
 30
0.0
 11
1501.6199996
 21
682.4999852
 31
0.0
  0
LINE
  8
0
  6
CONTINUOUS
 62
     1
 10
1515.6199996
 20
639.4999852
 30
0.0
 11
1515.6199996
 21
669.4999852
 31
0.0
  0
LINE
  8
0
  6
CONTINUOUS
 62
     1
 10
1515.6199996
 20
639.4999852
 30
0.0
 11
1505.6199996
 21
639.4999852
 31
0.0
  0
LINE
  8
0
  6
CONTINUOUS
 62
     1
 10
1515.6199996
 20
669.4999852
 30
0.0
 11
1505.6199996
 21
669.4999852
 31
0.0
  0
LINE
  8
0
  6
LTYPE1
 62
     2
 10
1505.6199996
 20
669.4999852
 30
0.0
 11
1481.6199996
 21
669.4999852
 31
0.0
  0
LINE
  8
0
  6
LTYPE1
 62
     2
 10
1505.6199996
 20
639.4999852
 30
0.0
 11
1481.6199996
 21
639.4999852
 31
0.0
  0
LINE
  8
0
  6
CONTINUOUS
 62
     1
 10
1417.6199996
 20
626.4999852
 30
0.0
 11
1417.6199996
 21
682.4999852
 31
0.0
  0
LINE
  8
0
  6
CONTINUOUS
 62
     1
 10
1417.6199996
 20
626.4999852
 30
0.0
 11
1421.6199996
 21
626.4999852
 31
0.0
  0
LINE
  8
0
  6
CONTINUOUS
 62
     1
 10
1417.6199996
 20
682.4999852
 30
0.0
 11
1421.6199996
 21
682.4999852
 31
0.0
  0
LINE
  8
0
  6
CONTINUOUS
 62
     1
 10
1407.6199996
 20
639.4999852
 30
0.0
 11
1407.6199996
 21
669.4999852
 31
0.0
  0
LINE
  8
0
  6
CONTINUOUS
 62
     1
 10
1407.6199996
 20
639.4999852
 30
0.0
 11
1417.6199996
 21
639.4999852
 31
0.0
  0
LINE
  8
0
  6
CONTINUOUS
 62
     1
 10
1407.6199996
 20
669.4999852
 30
0.0
 11
1417.6199996
 21
669.4999852
 31
0.0
  0
LINE
  8
0
  6
LTYPE3
 62
     2
 10
1509.2199996
 20
647.4999852
 30
0.0
 11
1509.2199996
 21
663.4999852
 31
0.0
  0
CIRCLE
  8
0
  6
CONTINUOUS
 62
     1
 10
1509.2199996
 20
654.4999852
 30
0.0
 40
3.0
  0
LINE
  8
0
  6
LTYPE3
 62
     2
 10
1414.0199996
 20
647.4999852
 30
0.0
 11
1414.0199996
 21
663.4999852
 31
0.0
  0
CIRCLE
  8
0
  6
CONTINUOUS
 62
     1
 10
1414.0199996
 20
654.4999852
 30
0.0
 40
3.0
  0
LINE
  8
0
  6
CONTINUOUS
 62
     1
 10
1501.6199996
 20
691.9999852
 30
0.0
 11
1421.6199996
 21
691.9999852
 31
0.0
  0
LINE
  8
0
  6
CONTINUOUS
 62
     1
 10
1441.6199996
 20
616.9999852
 30
0.0
 11
1441.6199996
 21
691.9999852
 31
0.0
  0
LINE
  8
0
  6
CONTINUOUS
 62
     1
 10
1421.6199996
 20
616.9999852
 30
0.0
 11
1421.6199996
 21
691.9999852
 31
0.0
  0
LINE
  8
0
  6
CONTINUOUS
 62
     1
 10
1481.6199996
 20
616.9999852
 30
0.0
 11
1481.6199996
 21
691.9999852
 31
0.0
  0
LINE
  8
0
  6
CONTINUOUS
 62
     1
 10
1501.6199996
 20
616.9999852
 30
0.0
 11
1421.6199996
 21
616.9999852
 31
0.0
  0
LINE
  8
0
  6
CONTINUOUS
 62
     1
 10
1501.6199996
 20
616.9999852
 30
0.0
 11
1501.6199996
 21
691.9999852
 31
0.0
  0
LINE
  8
0
  6
LTYPE3
 62
     2
 10
1461.6199996
 20
610.8999852
 30
0.0
 11
1461.6199996
 21
694.6999852
 31
0.0
  0
LINE
  8
0
  6
LTYPE1
 62
     2
 10
1536.6199996
 20
639.4999852
 30
0.0
 11
1536.6199996
 21
669.4999852
 31
0.0
  0
LINE
  8
0
  6
LTYPE1
 62
     2
 10
1536.6199996
 20
669.4999852
 30
0.0
 11
1571.6199996
 21
669.4999852
 31
0.0
  0
LINE
  8
0
  6
LTYPE1
 62
     2
 10
1536.6199996
 20
639.4999852
 30
0.0
 11
1571.6199996
 21
639.4999852
 31
0.0
  0
LINE
  8
0
  6
LTYPE3
 62
     2
 10
1578.6199996
 20
654.4999852
 30
0.0
 11
1355.6199996
 21
654.4999852
 31
0.0
  0
LINE
  8
0
  6
LTYPE1
 62
     2
 10
1386.6199996
 20
639.4999852
 30
0.0
 11
1351.6199996
 21
639.4999852
 31
0.0
  0
LINE
  8
0
  6
LTYPE1
 62
     2
 10
1386.6199996
 20
669.4999852
 30
0.0
 11
1351.6199996
 21
669.4999852
 31
0.0
  0
LINE
  8
0
  6
LTYPE1
 62
     2
 10
1386.6199996
 20
639.4999852
 30
0.0
 11
1386.6199996
 21
669.4999852
 31
0.0
  0
ARC
  8
0
  6
CONTINUOUS
 62
     1
 10
1413.6199996
 20
581.9999852
 30
0.0
 40
3.0
 50
90.0
 51
180.0
  0
LINE
  8
0
  6
CONTINUOUS
 62
     1
 10
1410.6199996
 20
535.4999852
 30
0.0
 11
1410.6199996
 21
581.9999852
 31
0.0
  0
ARC
  8
0
  6
CONTINUOUS
 62
     1
 10
1411.6199996
 20
535.4999852
 30
0.0
 40
1.0
 50
180.0
 51
270.0
  0
ARC
  8
0
  6
CONTINUOUS
 62
     1
 10
1414.6199996
 20
534.4999852
 30
0.0
 40
1.0
 50
180.0
 51
270.0
  0
ARC
  8
0
  6
CONTINUOUS
 62
     1
 10
1509.6199996
 20
581.9999852
 30
0.0
 40
3.0
 50
0.0
 51
90.0
  0
LINE
  8
0
  6
CONTINUOUS
 62
     1
 10
1512.6199996
 20
535.4999852
 30
0.0
 11
1512.6199996
 21
581.9999852
 31
0.0
  0
ARC
  8
0
  6
CONTINUOUS
 62
     1
 10
1511.6199996
 20
535.4999852
 30
0.0
 40
1.0
 50
270.0
 51
0.0
  0
ARC
  8
0
  6
CONTINUOUS
 62
     1
 10
1508.6199996
 20
534.4999852
 30
0.0
 40
1.0
 50
270.0
 51
0.0
  0
LINE
  8
0
  6
CONTINUOUS
 62
     1
 10
1512.6199996
 20
540.4999852
 30
0.0
 11
1410.6199996
 21
540.4999852
 31
0.0
  0
LINE
  8
0
  6
CONTINUOUS
 62
     1
 10
1512.6199996
 20
541.9999852
 30
0.0
 11
1410.6199996
 21
541.9999852
 31
0.0
  0
LINE
  8
0
  6
CONTINUOUS
 62
     1
 10
1508.6199996
 20
533.4999852
 30
0.0
 11
1414.6199996
 21
533.4999852
 31
0.0
  0
LINE
  8
0
  6
CONTINUOUS
 62
     1
 10
1511.6199996
 20
534.4999852
 30
0.0
 11
1411.6199996
 21
534.4999852
 31
0.0
  0
LINE
  8
0
  6
LTYPE2
 62
     2
 10
1506.6199996
 20
529.7999852
 30
0.0
 11
1506.6199996
 21
548.4999852
 31
0.0
  0
LINE
  8
0
  6
LTYPE2
 62
     2
 10
1416.6199996
 20
529.7999852
 30
0.0
 11
1416.6199996
 21
548.4999852
 31
0.0
  0
LINE
  8
0
  6
LTYPE2
 62
     3
 10
1461.6199996
 20
528.9999852
 30
0.0
 11
1461.6199996
 21
588.1499852
 31
0.0
  0
LINE
  8
0
  6
CONTINUOUS
 62
     1
 10
1490.1199996
 20
584.9999852
 30
0.0
 11
1509.6199996
 21
584.9999852
 31
0.0
  0
LINE
  8
0
  6
CONTINUOUS
 62
     1
 10
1493.1199996
 20
586.4999852
 30
0.0
 11
1507.6199996
 21
586.4999852
 31
0.0
  0
CIRCLE
  8
0
  6
CONTINUOUS
 62
     2
 10
1461.6199996
 20
558.9999852
 30
0.0
 40
10.4775
  0
CIRCLE
  8
0
  6
CONTINUOUS
 62
     2
 10
1461.6199996
 20
558.9999852
 30
0.0
 40
9.3155
  0
LINE
  8
0
  6
LTYPE3
 62
     2
 10
1481.5199996
 20
558.9999852
 30
0.0
 11
1440.8199996
 21
558.9999852
 31
0.0
  0
LINE
  8
0
  6
LTYPE3
 62
     2
 10
1539.1199996
 20
594.4999852
 30
0.0
 11
1505.1199996
 21
594.4999852
 31
0.0
  0
LINE
  8
0
  6
LTYPE3
 62
     2
 10
1521.6199996
 20
575.9999852
 30
0.0
 11
1521.6199996
 21
611.9999852
 31
0.0
  0
LINE
  8
0
  6
CONTINUOUS
 62
     1
 10
1533.6199996
 20
574.4999852
 30
0.0
 11
1512.6199996
 21
574.4999852
 31
0.0
  0
ARC
  8
0
  6
CONTINUOUS
 62
     1
 10
1533.6199996
 20
582.4999852
 30
0.0
 40
8.0
 50
270.0
 51
0.0
  0
LINE
  8
0
  6
LTYPE3
 62
     2
 10
1384.1199996
 20
594.4999852
 30
0.0
 11
1418.1199996
 21
594.4999852
 31
0.0
  0
LINE
  8
0
  6
LTYPE3
 62
     2
 10
1401.6199996
 20
575.9999852
 30
0.0
 11
1401.6199996
 21
611.9999852
 31
0.0
  0
LINE
  8
0
  6
CONTINUOUS
 62
     1
 10
1389.6199996
 20
574.4999852
 30
0.0
 11
1410.6199996
 21
574.4999852
 31
0.0
  0
ARC
  8
0
  6
CONTINUOUS
 62
     1
 10
1389.6199996
 20
582.4999852
 30
0.0
 40
8.0
 50
180.0
 51
270.0
  0
ARC
  8
0
  6
CONTINUOUS
 62
     1
 10
1521.6199996
 20
594.4999852
 30
0.0
 40
12.0
 50
160.016893478
 51
113.198590514
  0
LINE
  8
0
  6
LTYPE3
 62
     2
 10
1539.1199996
 20
714.4999852
 30
0.0
 11
1505.1199996
 21
714.4999852
 31
0.0
  0
LINE
  8
0
  6
LTYPE3
 62
     2
 10
1521.6199996
 20
732.9999852
 30
0.0
 11
1521.6199996
 21
696.9999852
 31
0.0
  0
ARC
  8
0
  6
CONTINUOUS
 62
     1
 10
1533.6199996
 20
726.4999852
 30
0.0
 40
8.0
 50
0.0
 51
90.0
  0
ARC
  8
0
  6
CONTINUOUS
 62
     1
 10
1521.6199996
 20
714.4999852
 30
0.0
 40
12.0
 50
277.43140797
 51
172.874983651
  0
LINE
  8
0
  6
CONTINUOUS
 62
     2
 10
1517.6199996
 20
533.4999852
 30
0.0
 11
1679.1199996
 21
533.4999852
 31
0.0
  0
LINE
  8
0
  6
CONTINUOUS
 62
     2
 10
1351.6199996
 20
610.4999852
 30
0.0
 11
1351.6199996
 21
414.9999852
 31
0.0
  0
LINE
  8
0
  6
CONTINUOUS
 62
     2
 10
1351.6199996
 20
423.9999852
 30
0.0
 11
1366.108886994
 21
420.117699523
 31
0.0
  0
LINE
  8
0
  6
CONTINUOUS
 62
     2
 10
1351.6199996
 20
423.9999852
 30
0.0
 11
1366.108886994
 21
427.882270877
 31
0.0
  0
LINE
  8
0
  6
CONTINUOUS
 62
     2
 10
1351.6199996
 20
423.9999852
 30
0.0
 11
1571.6199996
 21
423.9999852
 31
0.0
  0
TEXT
  8
0
  6
CONTINUOUS
 62
     2
 10
1436.1199996
 20
429.9999852
 30
1.2
 40
18.0
  1
２２０
 50
0.0
 41
0.9
 51
0.0
  7
KANJI28
  0
ARC
  8
0
  6
CONTINUOUS
 62
     1
 10
1476.607994796
 20
883.0999852
 30
0.0
 40
8.0
 50
200.487315115
 51
251.805127661
  0
ARC
  8
0
  6
CONTINUOUS
 62
     1
 10
1446.632004404
 20
883.0999852
 30
0.0
 40
8.0
 50
288.194872339
 51
339.512684885
  0
ARC
  8
0
  6
CONTINUOUS
 62
     1
 10
1461.6199996
 20
877.4999852
 30
0.0
 40
8.0
 50
20.487315115
 51
159.512540111
  0
ARC
  8
0
  6
CONTINUOUS
 62
     1
 10
1476.607994796
 20
791.8999852
 30
0.0
 40
8.0
 50
108.194872339
 51
159.512684885
  0
ARC
  8
0
  6
CONTINUOUS
 62
     1
 10
1446.632004404
 20
791.8999852
 30
0.0
 40
8.0
 50
20.487315115
 51
71.805127661
  0
ARC
  8
0
  6
CONTINUOUS
 62
     1
 10
1461.6199996
 20
797.4999852
 30
0.0
 40
8.0
 50
200.487459889
 51
339.512684885
  0
ARC
  8
0
  6
CONTINUOUS
 62
     1
 10
1461.6199996
 20
837.4999852
 30
0.0
 40
40.0
 50
108.194872339
 51
251.805127661
  0
ARC
  8
0
  6
CONTINUOUS
 62
     1
 10
1507.6199996
 20
837.4999852
 30
0.0
 40
9.0
 50
278.674045508
 51
81.325934821
  0
CIRCLE
  8
0
  6
CONTINUOUS
 62
     1
 10
1461.6199996
 20
837.4999852
 30
0.0
 40
23.0
  0
ARC
  8
0
  6
CONTINUOUS
 62
     1
 10
1461.6199996
 20
837.4999852
 30
0.0
 40
40.0
 50
25.554707728
 51
71.805142343
  0
ARC
  8
0
  6
CONTINUOUS
 62
     1
 10
1461.6199996
 20
837.4999852
 30
0.0
 40
40.0
 50
288.194857657
 51
334.445306215
  0
LINE
  8
0
  6
CONTINUOUS
 62
     2
 10
1504.6199996
 20
854.4999852
 30
0.0
 11
1504.6199996
 21
818.4999852
 31
0.0
  0
LINE
  8
0
  6
CONTINUOUS
 62
     1
 10
1505.6199996
 20
853.5999852
 30
0.0
 11
1503.6199996
 21
853.5999852
 31
0.0
  0
LINE
  8
0
  6
CONTINUOUS
 62
     1
 10
1503.6199996
 20
853.5999852
 30
0.0
 11
1501.6199996
 21
841.9999852
 31
0.0
  0
LINE
  8
0
  6
CONTINUOUS
 62
     1
 10
1505.6199996
 20
853.5999852
 30
0.0
 11
1507.6199996
 21
841.9999852
 31
0.0
  0
LINE
  8
0
  6
CONTINUOUS
 62
     1
 10
1505.6199996
 20
821.3999852
 30
0.0
 11
1503.6199996
 21
821.3999852
 31
0.0
  0
LINE
  8
0
  6
CONTINUOUS
 62
     1
 10
1503.6199996
 20
821.3999852
 30
0.0
 11
1501.6199996
 21
832.9999852
 31
0.0
  0
LINE
  8
0
  6
CONTINUOUS
 62
     1
 10
1505.6199996
 20
821.3999852
 30
0.0
 11
1507.6199996
 21
832.9999852
 31
0.0
  0
ARC
  8
0
  6
CONTINUOUS
 62
     1
 10
1511.239564817
 20
861.2254725
 30
0.0
 40
15.0
 50
205.554693785
 51
235.747997449
  0
ARC
  8
0
  6
CONTINUOUS
 62
     1
 10
1511.239564817
 20
861.2254725
 30
0.0
 40
15.0
 50
252.681090544
 51
261.325827457
  0
ARC
  8
0
  6
CONTINUOUS
 62
     1
 10
1511.239564817
 20
813.7744979
 30
0.0
 40
15.0
 50
124.468179449
 51
154.445306215
  0
ARC
  8
0
  6
CONTINUOUS
 62
     1
 10
1511.239564817
 20
813.7744979
 30
0.0
 40
15.0
 50
98.674172543
 51
107.318909456
  0
CIRCLE
  8
0
  6
CONTINUOUS
 62
     1
 10
1504.6199996
 20
837.4999852
 30
0.0
 40
3.0
  0
LINE
  8
0
  6
CONTINUOUS
 62
     1
 10
1501.641304302
 20
842.123552472
 30
0.0
 11
1501.598694898
 21
832.876417928
 31
0.0
  0
LINE
  8
0
  6
CONTINUOUS
 62
     1
 10
1507.641304302
 20
832.876417928
 30
0.0
 11
1507.598694898
 21
842.123552472
 31
0.0
  0
ARC
  8
0
  6
CONTINUOUS
 62
     1
 10
1504.6199996
 20
837.4999852
 30
0.0
 40
5.5
 50
304.570397879
 51
57.208673154
  0
ARC
  8
0
  6
CONTINUOUS
 62
     1
 10
1504.6199996
 20
837.4999852
 30
0.0
 40
5.5
 50
122.791326846
 51
235.429602121
  0
LINE
  8
0
  6
CONTINUOUS
 62
     1
 10
1463.9699996
 20
884.570304598
 30
0.0
 11
1459.2699996
 21
884.570304598
 31
0.0
  0
LINE
  8
0
  6
CONTINUOUS
 62
     1
 10
1459.2699996
 20
884.570304598
 30
0.0
 11
1456.9199996
 21
880.4999852
 31
0.0
  0
LINE
  8
0
  6
CONTINUOUS
 62
     1
 10
1456.9199996
 20
880.4999852
 30
0.0
 11
1459.2699996
 21
876.429665802
 31
0.0
  0
LINE
  8
0
  6
CONTINUOUS
 62
     1
 10
1459.2699996
 20
876.429665802
 30
0.0
 11
1463.9699996
 21
876.429665802
 31
0.0
  0
LINE
  8
0
  6
CONTINUOUS
 62
     1
 10
1463.9699996
 20
876.429665802
 30
0.0
 11
1466.3199996
 21
880.4999852
 31
0.0
  0
LINE
  8
0
  6
CONTINUOUS
 62
     1
 10
1466.3199996
 20
880.4999852
 30
0.0
 11
1463.9699996
 21
884.570304598
 31
0.0
  0
LINE
  8
0
  6
CONTINUOUS
 62
     2
 10
1467.6199996
 20
880.4999852
 30
0.0
 11
1455.6199996
 21
880.4999852
 31
0.0
  0
LINE
  8
0
  6
CONTINUOUS
 62
     1
 10
1463.9699996
 20
790.429665802
 30
0.0
 11
1459.2699996
 21
790.429665802
 31
0.0
  0
LINE
  8
0
  6
CONTINUOUS
 62
     1
 10
1459.2699996
 20
790.429665802
 30
0.0
 11
1456.9199996
 21
794.4999852
 31
0.0
  0
LINE
  8
0
  6
CONTINUOUS
 62
     1
 10
1456.9199996
 20
794.4999852
 30
0.0
 11
1459.2699996
 21
798.570304598
 31
0.0
  0
LINE
  8
0
  6
CONTINUOUS
 62
     1
 10
1459.2699996
 20
798.570304598
 30
0.0
 11
1463.9699996
 21
798.570304598
 31
0.0
  0
LINE
  8
0
  6
CONTINUOUS
 62
     1
 10
1463.9699996
 20
798.570304598
 30
0.0
 11
1466.3199996
 21
794.4999852
 31
0.0
  0
LINE
  8
0
  6
CONTINUOUS
 62
     1
 10
1466.3199996
 20
794.4999852
 30
0.0
 11
1463.9699996
 21
790.429665802
 31
0.0
  0
LINE
  8
0
  6
CONTINUOUS
 62
     2
 10
1467.6199996
 20
794.4999852
 30
0.0
 11
1455.6199996
 21
794.4999852
 31
0.0
  0
LINE
  8
0
  6
CONTINUOUS
 62
     1
 10
1456.683654798
 20
840.3499852
 30
0.0
 11
1456.683654798
 21
834.6499852
 31
0.0
  0
LINE
  8
0
  6
CONTINUOUS
 62
     1
 10
1456.683654798
 20
834.6499852
 30
0.0
 11
1461.6199996
 21
831.7999852
 31
0.0
  0
LINE
  8
0
  6
CONTINUOUS
 62
     1
 10
1461.6199996
 20
831.7999852
 30
0.0
 11
1466.556344402
 21
834.6499852
 31
0.0
  0
LINE
  8
0
  6
CONTINUOUS
 62
     1
 10
1466.556344402
 20
834.6499852
 30
0.0
 11
1466.556344402
 21
840.3499852
 31
0.0
  0
LINE
  8
0
  6
CONTINUOUS
 62
     1
 10
1466.556344402
 20
840.3499852
 30
0.0
 11
1461.6199996
 21
843.1999852
 31
0.0
  0
LINE
  8
0
  6
CONTINUOUS
 62
     1
 10
1461.6199996
 20
843.1999852
 30
0.0
 11
1456.683654798
 21
840.3499852
 31
0.0
  0
CIRCLE
  8
0
  6
CONTINUOUS
 62
     1
 10
1461.6199996
 20
837.4999852
 30
0.0
 40
6.5
  0
LINE
  8
0
  6
CONTINUOUS
 62
     1
 10
1491.6199996
 20
919.4999852
 30
0.0
 11
1491.6199996
 21
922.4999852
 31
0.0
  0
ARC
  8
0
  6
CONTINUOUS
 62
     1
 10
1487.6199996
 20
916.4999852
 30
0.0
 40
3.0
 50
90.0
 51
180.0
  0
LINE
  8
0
  6
CONTINUOUS
 62
     1
 10
1484.6199996
 20
905.653604442
 30
0.0
 11
1484.6199996
 21
916.4999852
 31
0.0
  0
ARC
  8
0
  6
CONTINUOUS
 62
     1
 10
1480.6199996
 20
905.653604442
 30
0.0
 40
4.0
 50
304.936144888
 51
0.0
  0
ARC
  8
0
  6
CONTINUOUS
 62
     1
 10
1435.6199996
 20
916.4999852
 30
0.0
 40
3.0
 50
0.0
 51
90.0
  0
LINE
  8
0
  6
CONTINUOUS
 62
     1
 10
1438.6199996
 20
905.653604442
 30
0.0
 11
1438.6199996
 21
916.4999852
 31
0.0
  0
ARC
  8
0
  6
CONTINUOUS
 62
     1
 10
1442.6199996
 20
905.653604442
 30
0.0
 40
4.0
 50
180.0
 51
235.063855112
  0
CIRCLE
  8
0
  6
CONTINUOUS
 62
     1
 10
1461.6199996
 20
944.4999852
 30
0.0
 40
17.0
  0
LINE
  8
0
  6
LTYPE3
 62
     2
 10
1438.6199996
 20
944.4999852
 30
0.0
 11
1484.6199996
 21
944.4999852
 31
0.0
  0
ARC
  8
0
  6
CONTINUOUS
 62
     1
 10
1419.6199996
 20
966.520031088
 30
0.0
 40
2.0
 50
90.0
 51
180.0
  0
ARC
  8
0
  6
CONTINUOUS
 62
     1
 10
1427.6199996
 20
972.4999852
 30
0.0
 40
2.0
 50
90.0
 51
180.0
  0
LINE
  8
0
  6
CONTINUOUS
 62
     1
 10
1427.6199996
 20
974.4999852
 30
0.0
 11
1495.6199996
 21
974.4999852
 31
0.0
  0
ARC
  8
0
  6
CONTINUOUS
 62
     1
 10
1495.6199996
 20
972.4999852
 30
0.0
 40
2.0
 50
0.0
 51
90.0
  0
LINE
  8
0
  6
CONTINUOUS
 62
     1
 10
1503.6199996
 20
968.520031088
 30
0.0
 11
1419.6199996
 21
968.520031088
 31
0.0
  0
ARC
  8
0
  6
CONTINUOUS
 62
     1
 10
1503.6199996
 20
966.520031088
 30
0.0
 40
2.0
 50
0.0
 51
90.0
  0
ARC
  8
0
  6
CONTINUOUS
 62
     1
 10
1419.6199996
 20
970.520031088
 30
0.0
 40
2.0
 50
90.0
 51
180.0
  0
ARC
  8
0
  6
CONTINUOUS
 62
     1
 10
1427.6199996
 20
963.4999852
 30
0.0
 40
2.0
 50
90.0
 51
180.0
  0
LINE
  8
0
  6
CONTINUOUS
 62
     1
 10
1427.6199996
 20
965.4999852
 30
0.0
 11
1495.6199996
 21
965.4999852
 31
0.0
  0
ARC
  8
0
  6
CONTINUOUS
 62
     1
 10
1495.6199996
 20
963.4999852
 30
0.0
 40
2.0
 50
0.0
 51
90.0
  0
LINE
  8
0
  6
CONTINUOUS
 62
     1
 10
1503.6199996
 20
972.520031088
 30
0.0
 11
1419.6199996
 21
972.520031088
 31
0.0
  0
ARC
  8
0
  6
CONTINUOUS
 62
     1
 10
1503.6199996
 20
970.520031088
 30
0.0
 40
2.0
 50
0.0
 51
90.0
  0
LINE
  8
0
  6
CONTINUOUS
 62
     1
 10
1431.6199996
 20
919.4999852
 30
0.0
 11
1491.6199996
 21
919.4999852
 31
0.0
  0
LINE
  8
0
  6
CONTINUOUS
 62
     1
 10
1431.6199996
 20
919.4999852
 30
0.0
 11
1431.6199996
 21
922.4999852
 31
0.0
  0
LINE
  8
0
  6
CONTINUOUS
 62
     1
 10
1497.6199996
 20
924.4999852
 30
0.0
 11
1503.6199996
 21
924.4999852
 31
0.0
  0
LINE
  8
0
  6
CONTINUOUS
 62
     1
 10
1505.6199996
 20
926.4999852
 30
0.0
 11
1505.6199996
 21
970.520031088
 31
0.0
  0
ARC
  8
0
  6
CONTINUOUS
 62
     1
 10
1503.6199996
 20
926.4999852
 30
0.0
 40
2.0
 50
270.0
 51
0.0
  0
LINE
  8
0
  6
CONTINUOUS
 62
     1
 10
1497.6199996
 20
924.4999852
 30
0.0
 11
1497.6199996
 21
963.4999852
 31
0.0
  0
ARC
  8
0
  6
CONTINUOUS
 62
     1
 10
1495.6199996
 20
924.4999852
 30
0.0
 40
2.0
 50
270.0
 51
0.0
  0
LINE
  8
0
  6
CONTINUOUS
 62
     1
 10
1425.6199996
 20
924.4999852
 30
0.0
 11
1425.6199996
 21
963.4999852
 31
0.0
  0
LINE
  8
0
  6
CONTINUOUS
 62
     1
 10
1427.6199996
 20
922.4999852
 30
0.0
 11
1495.6199996
 21
922.4999852
 31
0.0
  0
ARC
  8
0
  6
CONTINUOUS
 62
     1
 10
1427.6199996
 20
924.4999852
 30
0.0
 40
2.0
 50
180.0
 51
270.0
  0
LINE
  8
0
  6
CONTINUOUS
 62
     1
 10
1425.6199996
 20
924.4999852
 30
0.0
 11
1419.6199996
 21
924.4999852
 31
0.0
  0
LINE
  8
0
  6
CONTINUOUS
 62
     1
 10
1417.6199996
 20
926.4999852
 30
0.0
 11
1417.6199996
 21
970.520031088
 31
0.0
  0
ARC
  8
0
  6
CONTINUOUS
 62
     1
 10
1419.6199996
 20
926.4999852
 30
0.0
 40
2.0
 50
180.0
 51
270.0
  0
CIRCLE
  8
0
  6
CONTINUOUS
 62
     2
 10
1461.6199996
 20
944.4999852
 30
0.0
 40
15.0
  0
LINE
  8
0
  6
LTYPE3
 62
     2
 10
1411.6199996
 20
887.4999852
 30
0.0
 11
1395.6199996
 21
903.4999852
 31
0.0
  0
LINE
  8
0
  6
CONTINUOUS
 62
     1
 10
1408.283690152
 20
904.496548686
 30
0.0
 11
1398.283690152
 21
904.496548686
 31
0.0
  0
LINE
  8
0
  6
CONTINUOUS
 62
     1
 10
1398.283690152
 20
904.496548686
 30
0.0
 11
1393.283690152
 21
895.836294648
 31
0.0
  0
LINE
  8
0
  6
CONTINUOUS
 62
     1
 10
1393.283690152
 20
895.836294648
 30
0.0
 11
1398.283690152
 21
887.17604061
 31
0.0
  0
LINE
  8
0
  6
CONTINUOUS
 62
     1
 10
1398.283690152
 20
887.17604061
 30
0.0
 11
1408.283690152
 21
887.17604061
 31
0.0
  0
LINE
  8
0
  6
CONTINUOUS
 62
     1
 10
1408.283690152
 20
887.17604061
 30
0.0
 11
1413.283690152
 21
895.836294648
 31
0.0
  0
LINE
  8
0
  6
CONTINUOUS
 62
     1
 10
1413.283690152
 20
895.836294648
 30
0.0
 11
1408.283690152
 21
904.496548686
 31
0.0
  0
LINE
  8
0
  6
LTYPE3
 62
     2
 10
1511.6199996
 20
887.4999852
 30
0.0
 11
1527.6199996
 21
903.4999852
 31
0.0
  0
LINE
  8
0
  6
CONTINUOUS
 62
     1
 10
1514.956309048
 20
904.496548686
 30
0.0
 11
1524.956309048
 21
904.496548686
 31
0.0
  0
LINE
  8
0
  6
CONTINUOUS
 62
     1
 10
1524.956309048
 20
904.496548686
 30
0.0
 11
1529.956309048
 21
895.836294648
 31
0.0
  0
LINE
  8
0
  6
CONTINUOUS
 62
     1
 10
1529.956309048
 20
895.836294648
 30
0.0
 11
1524.956309048
 21
887.17604061
 31
0.0
  0
LINE
  8
0
  6
CONTINUOUS
 62
     1
 10
1524.956309048
 20
887.17604061
 30
0.0
 11
1514.956309048
 21
887.17604061
 31
0.0
  0
LINE
  8
0
  6
CONTINUOUS
 62
     1
 10
1514.956309048
 20
887.17604061
 30
0.0
 11
1509.956309048
 21
895.836294648
 31
0.0
  0
LINE
  8
0
  6
CONTINUOUS
 62
     1
 10
1509.956309048
 20
895.836294648
 30
0.0
 11
1514.956309048
 21
904.496548686
 31
0.0
  0
LINE
  8
0
  6
LTYPE3
 62
     2
 10
1511.6199996
 20
787.4999852
 30
0.0
 11
1527.6199996
 21
771.4999852
 31
0.0
  0
LINE
  8
0
  6
CONTINUOUS
 62
     1
 10
1514.956309048
 20
770.503421714
 30
0.0
 11
1524.956309048
 21
770.503421714
 31
0.0
  0
LINE
  8
0
  6
CONTINUOUS
 62
     1
 10
1524.956309048
 20
770.503421714
 30
0.0
 11
1529.956309048
 21
779.163675752
 31
0.0
  0
LINE
  8
0
  6
CONTINUOUS
 62
     1
 10
1529.956309048
 20
779.163675752
 30
0.0
 11
1524.956309048
 21
787.82392979
 31
0.0
  0
LINE
  8
0
  6
CONTINUOUS
 62
     1
 10
1524.956309048
 20
787.82392979
 30
0.0
 11
1514.956309048
 21
787.82392979
 31
0.0
  0
LINE
  8
0
  6
CONTINUOUS
 62
     1
 10
1514.956309048
 20
787.82392979
 30
0.0
 11
1509.956309048
 21
779.163675752
 31
0.0
  0
LINE
  8
0
  6
CONTINUOUS
 62
     1
 10
1509.956309048
 20
779.163675752
 30
0.0
 11
1514.956309048
 21
770.503421714
 31
0.0
  0
ARC
  8
0
  6
LTYPE3
 62
     2
 10
1461.6199996
 20
837.4999852
 30
0.0
 40
82.5
 50
300.927939213
 51
327.087998905
  0
ARC
  8
0
  6
LTYPE3
 62
     2
 10
1461.6199996
 20
837.4999852
 30
0.0
 40
82.5
 50
122.095648245
 51
145.904134413
  0
ARC
  8
0
  6
LTYPE3
 62
     2
 10
1461.6199996
 20
837.4999852
 30
0.0
 40
82.5
 50
35.204140887
 51
56.44447448
  0
LINE
  8
0
  6
LTYPE3
 62
     2
 10
1351.1199996
 20
837.4999852
 30
0.0
 11
1575.1199996
 21
837.4999852
 31
0.0
  0
ARC
  8
0
  6
CONTINUOUS
 62
     1
 10
1461.6199996
 20
837.4999852
 30
0.0
 40
100.0
 50
116.103881137
 51
216.025516218
  0
ARC
  8
0
  6
CONTINUOUS
 62
     1
 10
1461.6199996
 20
837.4999852
 30
0.0
 40
71.0
 50
0.0
 51
212.675777406
  0
LINE
  8
0
  6
LTYPE6
 62
     2
 10
1461.6199996
 20
702.2499852
 30
0.0
 11
1461.6199996
 21
986.4999852
 31
0.0
  0
LINE
  8
0
  6
CONTINUOUS
 62
     2
 10
1514.6199996
 20
974.4999852
 30
0.0
 11
1632.1199996
 21
974.4999852
 31
0.0
  0
LINE
  8
0
  6
CONTINUOUS
 62
     1
 10
1571.6199996
 20
624.4999852
 30
0.0
 11
1527.373535493
 21
621.258571727
 31
0.0
  0
LINE
  8
0
  6
CONTINUOUS
 62
     1
 10
1381.6199996
 20
582.4999852
 30
0.0
 11
1381.6199996
 21
622.302241128
 31
0.0
  0
LINE
  8
0
  6
CONTINUOUS
 62
     1
 10
1541.6199996
 20
582.4999852
 30
0.0
 11
1541.6199996
 21
622.302241128
 31
0.0
  0
LINE
  8
0
  6
LTYPE1
 62
     2
 10
1351.6199996
 20
684.4999852
 30
0.0
 11
1403.6199996
 21
688.309408258
 31
0.0
  0
LINE
  8
0
  6
CONTINUOUS
 62
     1
 10
1541.6199996
 20
686.697729272
 30
0.0
 11
1541.6199996
 21
726.4999852
 31
0.0
  0
LINE
  8
0
  6
CONTINUOUS
 62
     2
 10
1283.6199996
 20
669.4999852
 30
0.0
 11
1279.737713923
 21
683.988872594
 31
0.0
  0
LINE
  8
0
  6
CONTINUOUS
 62
     2
 10
1283.6199996
 20
669.4999852
 30
0.0
 11
1287.502285277
 21
683.988872594
 31
0.0
  0
LINE
  8
0
  6
CONTINUOUS
 62
     2
 10
1283.6199996
 20
616.9999852
 30
0.0
 11
1283.6199996
 21
851.4999852
 31
0.0
  0
LINE
  8
0
  6
CONTINUOUS
 62
     2
 10
1283.6199996
 20
639.4999852
 30
0.0
 11
1279.737713923
 21
625.011097806
 31
0.0
  0
LINE
  8
0
  6
CONTINUOUS
 62
     2
 10
1283.6199996
 20
639.4999852
 30
0.0
 11
1287.502285277
 21
625.011097806
 31
0.0
  0
LINE
  8
0
  6
CONTINUOUS
 62
     2
 10
1342.6199996
 20
639.4999852
 30
0.0
 11
1278.6199996
 21
639.4999852
 31
0.0
  0
LINE
  8
0
  6
CONTINUOUS
 62
     2
 10
1345.997633236
 20
669.4999852
 30
0.0
 11
1278.6199996
 21
669.4999852
 31
0.0
  0
CIRCLE
  8
0
  6
LTYPE1
 62
     2
 10
1461.6199996
 20
654.4999852
 30
0.0
 40
57.0
  0
LINE
  8
0
  6
LTYPE1
 62
     2
 10
1466.6199996
 20
717.9999852
 30
0.0
 11
1456.6199996
 21
717.9999852
 31
0.0
  0
LINE
  8
0
  6
LTYPE1
 62
     2
 10
1456.6199996
 20
717.9999852
 30
0.0
 11
1456.6199996
 21
721.814545289
 31
0.0
  0
ARC
  8
0
  6
LTYPE1
 62
     2
 10
1461.6199996
 20
654.4999852
 30
0.0
 40
67.5
 50
94.248022667
 51
205.751977333
  0
LINE
  8
0
  6
LTYPE1
 62
     2
 10
1466.6199996
 20
717.9999852
 30
0.0
 11
1466.6199996
 21
721.814545289
 31
0.0
  0
ARC
  8
0
  6
LTYPE1
 62
     2
 10
1461.6199996
 20
654.4999852
 30
0.0
 40
67.5
 50
334.248022667
 51
85.751977333
  0
LINE
  8
0
  6
LTYPE1
 62
     2
 10
1514.11261274
 20
618.419858181
 30
0.0
 11
1519.11261274
 21
627.080112219
 31
0.0
  0
LINE
  8
0
  6
LTYPE1
 62
     2
 10
1519.11261274
 20
627.080112219
 30
0.0
 11
1522.416118682
 21
625.172832174
 31
0.0
  0
ARC
  8
0
  6
LTYPE1
 62
     2
 10
1461.6199996
 20
654.4999852
 30
0.0
 40
67.5
 50
214.248022667
 51
325.751977333
  0
LINE
  8
0
  6
LTYPE1
 62
     2
 10
1514.11261274
 20
618.419858181
 30
0.0
 11
1517.416118682
 21
616.512578136
 31
0.0
  0
LINE
  8
0
  6
LTYPE1
 62
     2
 10
1404.12738646
 20
627.080112219
 30
0.0
 11
1409.12738646
 21
618.419858181
 31
0.0
  0
LINE
  8
0
  6
LTYPE1
 62
     2
 10
1404.12738646
 20
627.080112219
 30
0.0
 11
1400.823880518
 21
625.172832174
 31
0.0
  0
LINE
  8
0
  6
LTYPE1
 62
     2
 10
1409.12738646
 20
618.419858181
 30
0.0
 11
1405.823880518
 21
616.512578136
 31
0.0
  0
ARC
  8
0
  6
CONTINUOUS
 62
     1
 10
1461.6199996
 20
654.4999852
 30
0.0
 40
75.0
 50
175.42607874
 51
264.59620864
  0
ARC
  8
0
  6
CONTINUOUS
 62
     1
 10
1461.6199996
 20
654.4999852
 30
0.0
 40
75.0
 50
5.332158882
 51
96.088528154
  0
LINE
  8
0
  6
CONTINUOUS
 62
     1
 10
1422.022019854
 20
612.78068511
 30
0.0
 11
1456.316698741
 21
578.486006222
 31
0.0
  0
LINE
  8
0
  6
CONTINUOUS
 62
     1
 10
1422.022019854
 20
612.78068511
 30
0.0
 11
1426.241319944
 21
616.9999852
 31
0.0
  0
LINE
  8
0
  6
CONTINUOUS
 62
     1
 10
1399.748156246
 20
635.054548717
 30
0.0
 11
1419.90069951
 21
614.902005454
 31
0.0
  0
LINE
  8
0
  6
CONTINUOUS
 62
     1
 10
1419.90069951
 20
614.902005454
 30
0.0
 11
1421.998679256
 21
616.9999852
 31
0.0
  0
LINE
  8
0
  6
CONTINUOUS
 62
     1
 10
1347.775807829
 20
747.130973535
 30
0.0
 11
1399.748156246
 21
635.054548717
 31
0.0
  0
LINE
  8
0
  6
CONTINUOUS
 62
     1
 10
1372.984164578
 20
641.312443731
 30
0.0
 11
1391.368940889
 21
622.92766742
 31
0.0
  0
ARC
  8
0
  6
CONTINUOUS
 62
     1
 10
1392.783154451
 20
624.341880982
 30
0.0
 40
2.0
 50
225.0
 51
315.0
  0
LINE
  8
0
  6
CONTINUOUS
 62
     1
 10
1374.784212493
 20
689.286564457
 30
0.0
 11
1342.47250697
 21
656.974858934
 31
0.0
  0
LINE
  8
0
  6
CONTINUOUS
 62
     1
 10
1313.127575551
 20
692.683751384
 30
0.0
 11
1341.411846798
 21
664.399480137
 31
0.0
  0
LINE
  8
0
  6
CONTINUOUS
 62
     1
 10
1341.411846798
 20
664.399480137
 30
0.0
 11
1341.482557476
 21
664.328769458
 31
0.0
  0
LINE
  8
0
  6
CONTINUOUS
 62
     1
 10
1338.229866283
 20
661.217499621
 30
0.0
 11
1342.47250697
 21
656.974858934
 31
0.0
  0
LINE
  8
0
  6
CONTINUOUS
 62
     1
 10
1372.109504234
 20
695.097137572
 30
0.0
 11
1341.411846798
 21
664.399480137
 31
0.0
  0
LINE
  8
0
  6
CONTINUOUS
 62
     1
 10
1338.229866283
 20
661.217499621
 30
0.0
 11
1372.109504234
 21
695.097137572
 31
0.0
  0
LINE
  8
0
  6
LTYPE2
 62
     2
 10
1347.280833082
 20
665.460140308
 30
0.0
 11
1314.046814366
 21
698.694159024
 31
0.0
  0
LINE
  8
0
  6
LTYPE2
 62
     2
 10
1336.320677974
 20
677.834508979
 30
0.0
 11
1356.402510559
 21
697.916341565
 31
0.0
  0
LINE
  8
0
  6
CONTINUOUS
 62
     1
 10
1329.744584909
 20
686.390501032
 30
0.0
 11
1344.876670026
 21
671.258415914
 31
0.0
  0
LINE
  8
0
  6
CONTINUOUS
 62
     1
 10
1362.837182268
 20
686.390501032
 30
0.0
 11
1347.705097151
 21
671.258415914
 31
0.0
  0
ARC
  8
0
  6
CONTINUOUS
 62
     1
 10
1346.290883588
 20
672.672629476
 30
0.0
 40
2.0
 50
225.0
 51
315.0
  0
LINE
  8
0
  6
LTYPE2
 62
     2
 10
1315.531738607
 20
718.563859576
 30
0.0
 11
1356.543931916
 21
677.551666267
 31
0.0
  0
LINE
  8
0
  6
CONTINUOUS
 62
     1
 10
1312.77402216
 20
710.714974304
 30
0.0
 11
1332.007326609
 21
691.481669856
 31
0.0
  0
LINE
  8
0
  6
CONTINUOUS
 62
     1
 10
1325.501944222
 20
697.987052243
 30
0.0
 11
1316.663109457
 21
689.148217478
 31
0.0
  0
LINE
  8
0
  6
CONTINUOUS
 62
     1
 10
1344.876670026
 20
704.351013274
 30
0.0
 11
1329.744584909
 21
689.218928156
 31
0.0
  0
ARC
  8
0
  6
CONTINUOUS
 62
     1
 10
1331.158798471
 20
687.804714594
 30
0.0
 40
2.0
 50
135.0
 51
225.0
  0
LINE
  8
0
  6
CONTINUOUS
 62
     1
 10
1347.621128221
 20
745.562080365
 30
0.0
 11
1312.77402216
 21
710.714974304
 31
0.0
  0
LINE
  8
0
  6
CONTINUOUS
 62
     1
 10
1330.45169169
 20
714.25050821
 30
0.0
 11
1319.845089972
 21
703.643906492
 31
0.0
  0
LINE
  8
0
  6
CONTINUOUS
 62
     1
 10
1323.380623878
 20
721.321576022
 30
0.0
 11
1342.613928326
 21
702.088271574
 31
0.0
  0
LINE
  8
0
  6
LTYPE2
 62
     2
 10
1336.108545939
 20
719.341677035
 30
0.0
 11
1369.342564655
 21
686.107658319
 31
0.0
  0
LINE
  8
0
  6
CONTINUOUS
 62
     1
 10
1369.696118046
 20
692.683751384
 30
0.0
 11
1341.411846798
 21
720.968022632
 31
0.0
  0
LINE
  8
0
  6
CONTINUOUS
 62
     1
 10
1339.290526455
 20
723.089342975
 30
0.0
 11
1330.45169169
 21
714.25050821
 31
0.0
  0
LINE
  8
0
  6
CONTINUOUS
 62
     1
 10
1344.947380704
 20
717.432488726
 30
0.0
 11
1336.037835261
 21
708.522943283
 31
0.0
  0
LINE
  8
0
  6
CONTINUOUS
 62
     1
 10
1341.411846798
 20
720.968022632
 30
0.0
 11
1332.573012033
 21
712.129187867
 31
0.0
  0
LINE
  8
0
  6
CONTINUOUS
 62
     1
 10
1344.34633994
 20
731.115004942
 30
0.0
 11
1339.290526455
 21
723.089342975
 31
0.0
  0
LINE
  8
0
  6
CONTINUOUS
 62
     1
 10
1321.895699638
 20
701.451875471
 30
0.0
 11
1313.127575551
 21
692.683751384
 31
0.0
  0
ARC
  8
0
  6
CONTINUOUS
 62
     1
 10
1346.290883588
 20
702.936799711
 30
0.0
 40
2.0
 50
45.0
 51
135.0
  0
LINE
  8
0
  6
CONTINUOUS
 62
     1
 10
1347.705097151
 20
704.351013274
 30
0.0
 11
1362.837182268
 21
689.218928156
 31
0.0
  0
ARC
  8
0
  6
CONTINUOUS
 62
     1
 10
1361.422968706
 20
687.804714594
 30
0.0
 40
2.0
 50
315.0
 51
45.0
  0
LINE
  8
0
  6
LTYPE6
 62
     2
 10
1349.331442748
 20
730.301832143
 30
0.0
 11
1384.686781807
 21
765.657171203
 31
0.0
  0
ARC
  8
0
  6
LTYPE1
 62
     1
 10
1367.574797702
 20
748.545187098
 30
0.0
 40
16.0
 50
225.0
 51
99.340912304
  0
ARC
  8
0
  6
CONTINUOUS
 62
     1
 10
1367.574797702
 20
748.545187098
 30
0.0
 40
16.0
 50
99.340912304
 51
170.659087696
  0
LINE
  8
0
  6
CONTINUOUS
 62
     1
 10
1352.040545603
 20
738.667789248
 30
0.0
 11
1344.417050618
 21
731.044294263
 31
0.0
  0
LINE
  8
0
  6
LTYPE2
 62
     2
 10
1344.098852567
 20
743.736860986
 30
0.0
 11
1357.675302766
 21
730.160410787
 31
0.0
  0
LINE
  8
0
  6
LTYPE1
 62
     2
 10
1357.14497268
 20
743.065109544
 30
0.0
 11
1362.094720148
 21
738.115362075
 31
0.0
  0
ARC
  8
0
  6
LTYPE1
 62
     1
 10
1367.574797702
 20
748.545187098
 30
0.0
 40
16.0
 50
170.659087696
 51
225.0
  0
LINE
  8
0
  6
LTYPE1
 62
     1
 10
1348.48291461
 20
746.423866754
 30
0.0
 11
1347.621128221
 21
745.562080365
 31
0.0
  0
LINE
  8
0
  6
LTYPE1
 62
     1
 10
1354.13976886
 20
740.767012505
 30
0.0
 11
1352.040545603
 21
738.667789248
 31
0.0
  0
CIRCLE
  8
0
  6
CONTINUOUS
 62
     1
 10
1367.574797702
 20
748.545187098
 30
0.0
 40
6.49995
  0
LINE
  8
0
  6
CONTINUOUS
 62
     1
 10
1365.628189302
 20
741.299478053
 30
0.0
 11
1360.329088658
 21
746.598578698
 31
0.0
  0
LINE
  8
0
  6
CONTINUOUS
 62
     1
 10
1360.329088658
 20
746.598578698
 30
0.0
 11
1362.275697058
 21
753.844287742
 31
0.0
  0
LINE
  8
0
  6
CONTINUOUS
 62
     1
 10
1354.873776442
 20
740.793913306
 30
0.0
 11
1344.770604009
 21
730.690740873
 31
0.0
  0
LINE
  8
0
  6
LTYPE1
 62
     2
 10
1357.14497268
 20
743.065109544
 30
0.0
 11
1354.873776442
 21
740.793913306
 31
0.0
  0
LINE
  8
0
  6
CONTINUOUS
 62
     1
 10
1344.770604009
 20
730.690740873
 30
0.0
 11
1349.720351477
 21
725.740993405
 31
0.0
  0
LINE
  8
0
  6
LTYPE1
 62
     2
 10
1362.094720148
 20
738.115362075
 30
0.0
 11
1356.769322202
 21
732.789964129
 31
0.0
  0
LINE
  8
0
  6
CONTINUOUS
 62
     1
 10
1365.628189302
 20
741.299478053
 30
0.0
 11
1372.873898347
 21
743.246086453
 31
0.0
  0
CIRCLE
  8
0
  6
LTYPE1
 62
     2
 10
1367.574797702
 20
748.545187098
 30
0.0
 40
3.2
  0
CIRCLE
  8
0
  6
CONTINUOUS
 62
     1
 10
1367.574797702
 20
748.545187098
 30
0.0
 40
4.0
  0
LINE
  8
0
  6
CONTINUOUS
 62
     1
 10
1347.775807829
 20
747.130973535
 30
0.0
 11
1368.989011265
 21
768.344176971
 31
0.0
  0
LINE
  8
0
  6
LTYPE1
 62
     1
 10
1347.775807829
 20
747.130973535
 30
0.0
 11
1355.495056857
 21
739.411724507
 31
0.0
  0
LINE
  8
0
  6
CONTINUOUS
 62
     1
 10
1369.521406102
 20
755.790896142
 30
0.0
 11
1362.275697058
 21
753.844287742
 31
0.0
  0
LINE
  8
0
  6
CONTINUOUS
 62
     1
 10
1374.820506747
 20
750.491795498
 30
0.0
 11
1372.873898347
 21
743.246086453
 31
0.0
  0
LINE
  8
0
  6
CONTINUOUS
 62
     1
 10
1374.820506747
 20
750.491795498
 30
0.0
 11
1369.521406102
 21
755.790896142
 31
0.0
  0
LINE
  8
0
  6
LTYPE1
 62
     2
 10
1373.054875256
 20
758.97501212
 30
0.0
 11
1378.004622725
 21
754.025264652
 31
0.0
  0
LINE
  8
0
  6
LTYPE1
 62
     2
 10
1383.330020671
 20
759.350662598
 30
0.0
 11
1378.004622725
 21
754.025264652
 31
0.0
  0
LINE
  8
0
  6
LTYPE1
 62
     1
 10
1378.888506201
 20
758.444682034
 30
0.0
 11
1379.750292591
 21
759.306468424
 31
0.0
  0
LINE
  8
0
  6
LTYPE6
 62
     2
 10
1344.291179206
 20
771.828805594
 30
0.0
 11
1478.9087604
 21
637.2112244
 31
0.0
  0
LINE
  8
0
  6
CONTINUOUS
 62
     1
 10
1355.168426354
 20
731.189068281
 30
0.0
 11
1349.720351477
 21
725.740993405
 31
0.0
  0
LINE
  8
0
  6
CONTINUOUS
 62
     2
 10
1311.6199996
 20
685.340993405
 30
0.0
 11
1311.6199996
 21
503.017699523
 31
0.0
  0
LINE
  8
0
  6
LTYPE3
 62
     2
 10
1418.309709252
 20
611.189694852
 30
0.0
 11
1506.203082154
 21
699.083067754
 31
0.0
  0
LINE
  8
0
  6
CONTINUOUS
 62
     1
 10
1503.33929969
 20
694.097964946
 30
0.0
 11
1537.633978578
 21
659.803286059
 31
0.0
  0
LINE
  8
0
  6
CONTINUOUS
 62
     1
 10
1481.065436083
 20
716.371828554
 30
0.0
 11
1501.217979346
 21
696.21928529
 31
0.0
  0
LINE
  8
0
  6
CONTINUOUS
 62
     1
 10
1496.998679256
 20
691.9999852
 30
0.0
 11
1501.217979346
 21
696.21928529
 31
0.0
  0
LINE
  8
0
  6
CONTINUOUS
 62
     1
 10
1501.6199996
 20
692.378664856
 30
0.0
 11
1503.33929969
 21
694.097964946
 31
0.0
  0
LINE
  8
0
  6
CONTINUOUS
 62
     1
 10
1368.989011265
 20
768.344176971
 30
0.0
 11
1481.065436083
 21
716.371828554
 31
0.0
  0
ARC
  8
0
  6
CONTINUOUS
 62
     1
 10
1491.778103818
 20
723.336830349
 30
0.0
 40
2.0
 50
315.0
 51
45.0
  0
LINE
  8
0
  6
LTYPE3
 62
     2
 10
1401.6199996
 20
732.9999852
 30
0.0
 11
1401.6199996
 21
696.9999852
 31
0.0
  0
LINE
  8
0
  6
LTYPE3
 62
     2
 10
1384.1199996
 20
714.4999852
 30
0.0
 11
1418.1199996
 21
714.4999852
 31
0.0
  0
LINE
  8
0
  6
LTYPE2
 62
     2
 10
1370.686067539
 20
773.718188508
 30
0.0
 11
1385.959574013
 21
758.444682034
 31
0.0
  0
LINE
  8
0
  6
CONTINUOUS
 62
     1
 10
1370.557904435
 20
768.498856579
 30
0.0
 11
1405.405010496
 21
803.34596264
 31
0.0
  0
LINE
  8
0
  6
CONTINUOUS
 62
     1
 10
1377.452195552
 20
764.079439197
 30
0.0
 11
1385.075690537
 21
771.702934182
 31
0.0
  0
LINE
  8
0
  6
LTYPE1
 62
     1
 10
1375.352972295
 20
761.98021594
 30
0.0
 11
1377.452195552
 21
764.079439197
 31
0.0
  0
LINE
  8
0
  6
LTYPE1
 62
     2
 10
1377.245956074
 20
763.166092938
 30
0.0
 11
1375.706525686
 21
761.62666255
 31
0.0
  0
LINE
  8
0
  6
CONTINUOUS
 62
     1
 10
1385.429243927
 20
771.349380791
 30
0.0
 11
1375.326071494
 21
761.246208358
 31
0.0
  0
LINE
  8
0
  6
LTYPE1
 62
     1
 10
1368.989011265
 20
768.344176971
 30
0.0
 11
1376.708260293
 21
760.624927943
 31
0.0
  0
LINE
  8
0
  6
CONTINUOUS
 62
     1
 10
1385.429243927
 20
771.349380791
 30
0.0
 11
1390.378991395
 21
766.399633323
 31
0.0
  0
ARC
  8
0
  6
CONTINUOUS
 62
     1
 10
1461.6199996
 20
837.4999852
 30
0.0
 40
100.0
 50
220.682165828
 51
246.568265639
  0
LINE
  8
0
  6
CONTINUOUS
 62
     1
 10
1390.378991395
 20
766.399633323
 30
0.0
 11
1384.930916519
 21
760.951558446
 31
0.0
  0
LINE
  8
0
  6
CONTINUOUS
 62
     1
 10
1426.971767322
 20
799.456875343
 30
0.0
 11
1398.687496074
 21
771.172604096
 31
0.0
  0
LINE
  8
0
  6
CONTINUOUS
 62
     1
 10
1385.004979858
 20
771.77364486
 30
0.0
 11
1393.030641825
 21
776.829458345
 31
0.0
  0
LINE
  8
0
  6
CONTINUOUS
 62
     1
 10
1423.436233416
 20
802.992409249
 30
0.0
 11
1395.151962168
 21
774.708138002
 31
0.0
  0
LINE
  8
0
  6
CONTINUOUS
 62
     1
 10
1423.386365308
 20
795.871473329
 30
0.0
 11
1398.687496074
 21
771.172604096
 31
0.0
  0
LINE
  8
0
  6
LTYPE2
 62
     2
 10
1429.3052197
 20
747.484526926
 30
0.0
 11
1396.071200984
 21
780.718545642
 31
0.0
  0
LINE
  8
0
  6
CONTINUOUS
 62
     1
 10
1393.030641825
 20
776.829458345
 30
0.0
 11
1401.86947659
 21
785.66829311
 31
0.0
  0
LINE
  8
0
  6
CONTINUOUS
 62
     1
 10
1394.798408778
 20
792.739360922
 30
0.0
 11
1403.990796933
 21
783.546972767
 31
0.0
  0
LINE
  8
0
  6
LTYPE2
 62
     2
 10
1396.141911662
 20
802.002459756
 30
0.0
 11
1437.154104971
 21
760.990266447
 31
0.0
  0
LINE
  8
0
  6
CONTINUOUS
 62
     1
 10
1405.405010496
 20
803.34596264
 30
0.0
 11
1414.597398651
 21
794.153574484
 31
0.0
  0
LINE
  8
0
  6
LTYPE2
 62
     2
 10
1418.132932557
 20
801.366063652
 30
0.0
 11
1451.366951273
 21
768.132044937
 31
0.0
  0
LINE
  8
0
  6
CONTINUOUS
 62
     1
 10
1451.720504663
 20
774.708138002
 30
0.0
 11
1423.436233416
 21
802.992409249
 31
0.0
  0
CIRCLE
  8
0
  6
CONTINUOUS
 62
     1
 10
1422.304862566
 20
775.839508852
 30
0.0
 40
9.36
  0
LINE
  8
0
  6
LTYPE2
 62
     2
 10
1431.497250721
 20
785.031897007
 30
0.0
 11
1413.112474411
 21
766.647120696
 31
0.0
  0
CIRCLE
  8
0
  6
CONTINUOUS
 62
     2
 10
1422.304862566
 20
775.839508852
 30
0.0
 40
10.47
  0
LINE
  8
0
  6
CONTINUOUS
 62
     1
 10
1420.254252901
 20
767.283516799
 30
0.0
 11
1429.446641056
 21
758.091128644
 31
0.0
  0
LINE
  8
0
  6
CONTINUOUS
 62
     1
 10
1430.860854618
 20
777.890118517
 30
0.0
 11
1440.053242774
 21
768.697730362
 31
0.0
  0
LINE
  8
0
  6
CONTINUOUS
 62
     1
 10
1418.486485948
 20
751.373614223
 30
0.0
 11
1427.325320712
 21
760.212448987
 31
0.0
  0
LINE
  8
0
  6
CONTINUOUS
 62
     1
 10
1448.892077539
 20
777.536565126
 30
0.0
 11
1420.607806291
 21
749.252293879
 31
0.0
  0
LINE
  8
0
  6
CONTINUOUS
 62
     1
 10
1459.145125866
 20
773.64747783
 30
0.0
 11
1426.959575826
 21
741.46192779
 31
0.0
  0
LINE
  8
0
  6
CONTINUOUS
 62
     1
 10
1421.16251937
 20
744.150152708
 30
0.0
 11
1454.902485179
 21
777.890118517
 31
0.0
  0
LINE
  8
0
  6
CONTINUOUS
 62
     1
 10
1454.902485179
 20
777.890118517
 30
0.0
 11
1459.145125866
 21
773.64747783
 31
0.0
  0
LINE
  8
0
  6
CONTINUOUS
 62
     2
 10
1311.6199996
 20
509.017699523
 30
0.0
 11
1323.211109515
 21
505.911870982
 31
0.0
  0
LINE
  8
0
  6
CONTINUOUS
 62
     2
 10
1311.6199996
 20
509.017699523
 30
0.0
 11
1323.211109515
 21
512.123528065
 31
0.0
  0
LINE
  8
0
  6
CONTINUOUS
 62
     2
 10
1311.6199996
 20
509.017699523
 30
0.0
 11
1461.6199996
 21
509.017699523
 31
0.0
  0
TEXT
  8
0
  6
CONTINUOUS
 62
     3
 10
1356.6699996
 20
518.017699523
 30
0.0
 40
18.0
  1
１５０
 50
0.0
 41
0.9
 51
0.0
  7
KANJI24
  0
LINE
  8
0
  6
CONTINUOUS
 62
     2
 10
1461.6199996
 20
509.017699523
 30
0.0
 11
1450.028889685
 21
512.123528065
 31
0.0
  0
LINE
  8
0
  6
CONTINUOUS
 62
     2
 10
1461.6199996
 20
509.017699523
 30
0.0
 11
1450.028889685
 21
505.911870982
 31
0.0
  0
LINE
  8
0
  6
CONTINUOUS
 62
     2
 10
1461.6199996
 20
522.317699523
 30
0.0
 11
1461.6199996
 21
503.017699523
 31
0.0
  0
LINE
  8
0
  6
CONTINUOUS
 62
     2
 10
1366.6199996
 20
559.499992829
 30
0.0
 11
1366.6199996
 21
539.5499852
 31
0.0
  0
LINE
  8
0
  6
CONTINUOUS
 62
     2
 10
1366.6199996
 20
468.782270877
 30
0.0
 11
1378.211109515
 21
465.676442335
 31
0.0
  0
LINE
  8
0
  6
CONTINUOUS
 62
     2
 10
1366.6199996
 20
468.782270877
 30
0.0
 11
1378.211109515
 21
471.888099418
 31
0.0
  0
LINE
  8
0
  6
CONTINUOUS
 62
     2
 10
1366.6199996
 20
468.782270877
 30
0.0
 11
1556.6199996
 21
468.782270877
 31
0.0
  0
LINE
  8
0
  6
CONTINUOUS
 62
     2
 10
1366.6199996
 20
506.7499852
 30
0.0
 11
1366.6199996
 21
462.782270877
 31
0.0
  0
LINE
  8
0
  6
CONTINUOUS
 62
     2
 10
1447.7199518
 20
533.4999852
 30
0.0
 11
1320.0699518
 21
413.5499852
 31
0.0
  0
LINE
  8
0
  6
CONTINUOUS
 62
     2
 10
1461.6199996
 20
558.9999852
 30
0.0
 11
1330.7199996
 21
455.1999852
 31
0.0
  0
LINE
  8
0
  6
CONTINUOUS
 62
     2
 10
1447.7199518
 20
533.4999852
 30
0.0
 11
1441.399821651
 21
523.299203127
 31
0.0
  0
LINE
  8
0
  6
CONTINUOUS
 62
     2
 10
1447.7199518
 20
533.4999852
 30
0.0
 11
1437.1461675
 21
527.82591386
 31
0.0
  0
LINE
  8
0
  6
CONTINUOUS
 62
     2
 10
1461.6199996
 20
558.9999852
 30
0.0
 11
1454.46755816
 21
549.364499668
 31
0.0
  0
LINE
  8
0
  6
CONTINUOUS
 62
     2
 10
1461.6199996
 20
558.9999852
 30
0.0
 11
1450.608060848
 21
554.231630671
 31
0.0
  0
LINE
  8
0
  6
CONTINUOUS
 62
     2
 10
1556.6199996
 20
468.782270877
 30
0.0
 11
1545.028889685
 21
471.888099418
 31
0.0
  0
LINE
  8
0
  6
CONTINUOUS
 62
     2
 10
1556.6199996
 20
468.782270877
 30
0.0
 11
1545.028889685
 21
465.676442335
 31
0.0
  0
TEXT
  8
0
  6
CONTINUOUS
 62
     3
 10
1437.3199996
 20
477.782270877
 30
0.0
 40
18.0
  1
１９０
 50
0.0
 41
0.9
 51
0.0
  7
KANJI24
  0
TEXT
  8
0
  6
CONTINUOUS
 62
     3
 10
1249.7199996
 20
464.1999852
 30
0.0
 40
18.0
  1
ＰＦ１／２
 50
0.0
 41
0.9
 51
0.0
  7
KANJI24
  0
LINE
  8
0
  6
CONTINUOUS
 62
     2
 10
1330.7199996
 20
455.1999852
 30
0.0
 11
1245.619938
 21
455.1999852
 31
0.0
  0
TEXT
  8
0
  6
CONTINUOUS
 62
     3
 10
1222.8699518
 20
422.5499852
 30
0.0
 40
18.0
  1
推力リミッタ
 50
0.0
 41
0.9
 51
0.0
  7
KANJI24
  0
LINE
  8
0
  6
CONTINUOUS
 62
     2
 10
1320.0699518
 20
413.5499852
 30
0.0
 11
1222.8699518
 21
413.5499852
 31
0.0
  0
LINE
  8
0
  6
CONTINUOUS
 62
     1
 10
1430.1199996
 20
586.4999852
 30
0.0
 11
1415.6199996
 21
586.4999852
 31
0.0
  0
LINE
  8
0
  6
CONTINUOUS
 62
     1
 10
1413.6199996
 20
584.9999852
 30
0.0
 11
1431.6699996
 21
584.9999852
 31
0.0
  0
LINE
  8
0
  6
CONTINUOUS
 62
     1
 10
1421.9199996
 20
533.4999852
 30
0.0
 11
1411.3199996
 21
533.4999852
 31
0.0
  0
ARC
  8
0
  6
CONTINUOUS
 62
     1
 10
1417.0199996
 20
534.4999852
 30
0.0
 40
5.0
 50
272.3
 51
348.5
  0
ARC
  8
0
  6
CONTINUOUS
 62
     1
 10
1416.2199996
 20
534.4999852
 30
0.0
 40
5.0
 50
191.5
 51
267.7
  0
LINE
  8
0
  6
CONTINUOUS
 62
     1
 10
1417.2199996
 20
529.4999852
 30
0.0
 11
1416.0199996
 21
529.4999852
 31
0.0
  0
LINE
  8
0
  6
LTYPE4
 62
     2
 10
1416.6199996
 20
526.0999852
 30
0.0
 11
1416.6199996
 21
539.4999852
 31
0.0
  0
LINE
  8
0
  6
CONTINUOUS
 62
     1
 10
1511.9199996
 20
533.4999852
 30
0.0
 11
1501.3199996
 21
533.4999852
 31
0.0
  0
ARC
  8
0
  6
CONTINUOUS
 62
     1
 10
1507.0199996
 20
534.4999852
 30
0.0
 40
5.0
 50
272.3
 51
348.5
  0
ARC
  8
0
  6
CONTINUOUS
 62
     1
 10
1506.2199996
 20
534.4999852
 30
0.0
 40
5.0
 50
191.5
 51
267.7
  0
LINE
  8
0
  6
CONTINUOUS
 62
     1
 10
1507.2199996
 20
529.4999852
 30
0.0
 11
1506.0199996
 21
529.4999852
 31
0.0
  0
LINE
  8
0
  6
LTYPE4
 62
     2
 10
1506.6199996
 20
526.0999852
 30
0.0
 11
1506.6199996
 21
539.4999852
 31
0.0
  0
ARC
  8
0
  6
CONTINUOUS
 62
     1
 10
1401.6199996
 20
594.4999852
 30
0.0
 40
12.0
 50
74.810713263
 51
13.187059908
  0
LINE
  8
0
  6
CONTINUOUS
 62
     1
 10
1456.316698741
 20
578.486006222
 30
0.0
 11
1494.5699996
 21
616.739307081
 31
0.0
  0
LINE
  8
0
  6
CONTINUOUS
 62
     1
 10
1505.8699996
 20
628.039307081
 30
0.0
 11
1537.633978578
 21
659.803286059
 31
0.0
  0
LINE
  8
0
  6
CONTINUOUS
 62
     1
 10
1501.3699996
 20
623.539307081
 30
0.0
 11
1503.8699996
 21
626.039307081
 31
0.0
  0
ARC
  8
0
  6
CONTINUOUS
 62
     1
 10
1461.6199996
 20
654.4999852
 30
0.0
 40
75.0
 50
266.913137837
 51
3.008785843
  0
LINE
  8
0
  6
LTYPE1
 62
     2
 10
1351.6199996
 20
666.122351564
 30
0.0
 11
1351.6199996
 21
684.4999852
 31
0.0
  0
LINE
  8
0
  6
CONTINUOUS
 62
     1
 10
1351.6199996
 20
624.4999852
 30
0.0
 11
1351.6199996
 21
666.122351564
 31
0.0
  0
LINE
  8
0
  6
CONTINUOUS
 62
     1
 10
1372.6199996
 20
559.4999852
 30
0.0
 11
1410.6199996
 21
559.4999852
 31
0.0
  0
ARC
  8
0
  6
CONTINUOUS
 62
     1
 10
1372.6199996
 20
565.4999852
 30
0.0
 40
6.0
 50
180.0
 51
270.0
  0
LINE
  8
0
  6
CONTINUOUS
 62
     1
 10
1512.6199996
 20
559.4999852
 30
0.0
 11
1550.6199996
 21
559.4999852
 31
0.0
  0
ARC
  8
0
  6
CONTINUOUS
 62
     1
 10
1550.6199996
 20
565.4999852
 30
0.0
 40
6.0
 50
270.0
 51
0.0
  0
LINE
  8
0
  6
CONTINUOUS
 62
     1
 10
1571.6199996
 20
684.4999852
 30
0.0
 11
1528.8199996
 21
687.635433409
 31
0.0
  0
LINE
  8
0
  6
CONTINUOUS
 62
     1
 10
1351.6199996
 20
624.4999852
 30
0.0
 11
1395.4699996
 21
621.287615948
 31
0.0
  0
LINE
  8
0
  6
CONTINUOUS
 62
     1
 10
1366.6199996
 20
565.4999852
 30
0.0
 11
1366.6199996
 21
622.7999852
 31
0.0
  0
LINE
  8
0
  6
CONTINUOUS
 62
     2
 10
1587.6199996
 20
654.4999852
 30
0.0
 11
1632.1199996
 21
654.4999852
 31
0.0
  0
LINE
  8
0
  6
CONTINUOUS
 62
     2
 10
1623.1199996
 20
654.4999852
 30
0.0
 11
1619.237713923
 21
640.011097806
 31
0.0
  0
LINE
  8
0
  6
CONTINUOUS
 62
     2
 10
1623.1199996
 20
654.4999852
 30
0.0
 11
1627.002285277
 21
640.011097806
 31
0.0
  0
LINE
  8
0
  6
CONTINUOUS
 62
     2
 10
1623.1199996
 20
654.4999852
 30
0.0
 11
1623.1199996
 21
559.4999852
 31
0.0
  0
LINE
  8
0
  6
CONTINUOUS
 62
     2
 10
1623.1199996
 20
559.4999852
 30
0.0
 11
1627.002285277
 21
573.988872594
 31
0.0
  0
LINE
  8
0
  6
CONTINUOUS
 62
     2
 10
1623.1199996
 20
559.4999852
 30
0.0
 11
1619.237713923
 21
573.988872594
 31
0.0
  0
LINE
  8
0
  6
CONTINUOUS
 62
     2
 10
1559.6199996
 20
559.4999852
 30
0.0
 11
1632.1199996
 21
559.4999852
 31
0.0
  0
TEXT
  8
0
  6
CONTINUOUS
 62
     2
 10
1617.1199996
 20
590.1999852
 30
1.2
 40
18.0
  1
９５
 50
90.0
 41
0.9
 51
0.0
  7
KANJI28
  0
LINE
  8
0
  6
CONTINUOUS
 62
     2
 10
1623.1199996
 20
654.4999852
 30
0.0
 11
1627.002285277
 21
668.988872594
 31
0.0
  0
LINE
  8
0
  6
CONTINUOUS
 62
     2
 10
1623.1199996
 20
654.4999852
 30
0.0
 11
1619.237713923
 21
668.988872594
 31
0.0
  0
TEXT
  8
0
  6
CONTINUOUS
 62
     2
 10
1617.1199996
 20
720.1249852
 30
1.2
 40
18.0
  1
１８３
 50
90.0
 41
0.9
 51
0.0
  7
KANJI28
  0
LINE
  8
0
  6
CONTINUOUS
 62
     2
 10
1670.1199996
 20
654.4999852
 30
0.0
 11
1674.002285277
 21
668.988872594
 31
0.0
  0
LINE
  8
0
  6
CONTINUOUS
 62
     2
 10
1670.1199996
 20
654.4999852
 30
0.0
 11
1666.237713923
 21
668.988872594
 31
0.0
  0
LINE
  8
0
  6
CONTINUOUS
 62
     2
 10
1632.1199996
 20
654.4999852
 30
0.0
 11
1679.1199996
 21
654.4999852
 31
0.0
  0
LINE
  8
0
  6
CONTINUOUS
 62
     2
 10
1670.1199996
 20
654.4999852
 30
0.0
 11
1666.237713923
 21
640.011097806
 31
0.0
  0
LINE
  8
0
  6
CONTINUOUS
 62
     2
 10
1670.1199996
 20
654.4999852
 30
0.0
 11
1674.002285277
 21
640.011097806
 31
0.0
  0
LINE
  8
0
  6
CONTINUOUS
 62
     2
 10
1670.1199996
 20
654.4999852
 30
0.0
 11
1670.1199996
 21
533.4999852
 31
0.0
  0
LINE
  8
0
  6
CONTINUOUS
 62
     2
 10
1670.1199996
 20
533.4999852
 30
0.0
 11
1674.002285277
 21
547.988872594
 31
0.0
  0
LINE
  8
0
  6
CONTINUOUS
 62
     2
 10
1670.1199996
 20
533.4999852
 30
0.0
 11
1666.237713923
 21
547.988872594
 31
0.0
  0
TEXT
  8
0
  6
CONTINUOUS
 62
     2
 10
1664.1199996
 20
568.4999852
 30
1.2
 40
18.0
  1
１２１
 50
90.0
 41
0.9
 51
0.0
  7
KANJI28
  0
LINE
  8
0
  6
CONTINUOUS
 62
     2
 10
1571.6199996
 20
423.9999852
 30
0.0
 11
1557.131112206
 21
427.882270877
 31
0.0
  0
LINE
  8
0
  6
CONTINUOUS
 62
     2
 10
1571.6199996
 20
423.9999852
 30
0.0
 11
1557.131112206
 21
420.117699523
 31
0.0
  0
LINE
  8
0
  6
CONTINUOUS
 62
     2
 10
1571.6199996
 20
610.4999852
 30
0.0
 11
1571.6199996
 21
414.9999852
 31
0.0
  0
LINE
  8
0
  6
CONTINUOUS
 62
     2
 10
1623.1199996
 20
655.2499852
 30
0.0
 11
1623.1199996
 21
837.4999852
 31
0.0
  0
LINE
  8
0
  6
CONTINUOUS
 62
     2
 10
1623.1199996
 20
837.4999852
 30
0.0
 11
1619.237713923
 21
823.011097806
 31
0.0
  0
LINE
  8
0
  6
CONTINUOUS
 62
     2
 10
1623.1199996
 20
837.4999852
 30
0.0
 11
1627.002285277
 21
823.011097806
 31
0.0
  0
LINE
  8
0
  6
CONTINUOUS
 62
     2
 10
1623.1199996
 20
837.4999852
 30
0.0
 11
1627.002285277
 21
851.988872594
 31
0.0
  0
LINE
  8
0
  6
CONTINUOUS
 62
     2
 10
1623.1199996
 20
837.4999852
 30
0.0
 11
1619.237713923
 21
851.988872594
 31
0.0
  0
LINE
  8
0
  6
CONTINUOUS
 62
     2
 10
1579.6199996
 20
837.4999852
 30
0.0
 11
1632.1199996
 21
837.4999852
 31
0.0
  0
TEXT
  8
0
  6
CONTINUOUS
 62
     2
 10
1664.1199996
 20
803.0749852
 30
1.2
 40
18.0
  1
３２０
 50
90.0
 41
0.9
 51
0.0
  7
KANJI28
  0
LINE
  8
0
  6
CONTINUOUS
 62
     2
 10
1623.1199996
 20
974.4999852
 30
0.0
 11
1619.237713923
 21
960.011097806
 31
0.0
  0
LINE
  8
0
  6
CONTINUOUS
 62
     2
 10
1623.1199996
 20
974.4999852
 30
0.0
 11
1627.002285277
 21
960.011097806
 31
0.0
  0
LINE
  8
0
  6
CONTINUOUS
 62
     2
 10
1632.1199996
 20
974.4999852
 30
0.0
 11
1679.1199996
 21
974.4999852
 31
0.0
  0
LINE
  8
0
  6
CONTINUOUS
 62
     2
 10
1670.1199996
 20
974.4999852
 30
0.0
 11
1666.237713923
 21
960.011097806
 31
0.0
  0
LINE
  8
0
  6
CONTINUOUS
 62
     2
 10
1670.1199996
 20
974.4999852
 30
0.0
 11
1674.002285277
 21
960.011097806
 31
0.0
  0
LINE
  8
0
  6
CONTINUOUS
 62
     2
 10
1623.1199996
 20
837.4999852
 30
0.0
 11
1623.1199996
 21
974.4999852
 31
0.0
  0
LINE
  8
0
  6
CONTINUOUS
 62
     2
 10
1670.1199996
 20
974.4999852
 30
0.0
 11
1670.1199996
 21
654.4999852
 31
0.0
  0
TEXT
  8
0
  6
CONTINUOUS
 62
     2
 10
1617.1199996
 20
894.1999852
 30
1.2
 40
18.0
  1
１３７
 50
90.0
 41
0.9
 51
0.0
  7
KANJI28
  0
LINE
  8
0
  6
CONTINUOUS
 62
     1
 10
1571.6199996
 20
624.4999852
 30
0.0
 11
1571.6199996
 21
684.4999852
 31
0.0
  0
LINE
  8
0
  6
CONTINUOUS
 62
     2
 10
1556.6199996
 20
559.500000459
 30
0.0
 11
1556.6199996
 21
462.782270877
 31
0.0
  0
LINE
  8
0
  6
CONTINUOUS
 62
     1
 10
1556.6199996
 20
686.3499852
 30
0.0
 11
1556.6199996
 21
807.2499852
 31
0.0
  0
LINE
  8
0
  6
CONTINUOUS
 62
     1
 10
1556.6199996
 20
565.4999852
 30
0.0
 11
1556.6199996
 21
622.1999852
 31
0.0
  0
LINE
  8
0
  6
LTYPE3
 62
     2
 10
1092.1199996
 20
815.1999852
 30
0.0
 11
1092.1199996
 21
938.1999852
 31
0.0
  0
LINE
  8
0
  6
CONTINUOUS
 62
     1
 10
1042.1199996
 20
858.1999852
 30
0.0
 11
1127.1199996
 21
858.1999852
 31
0.0
  0
LINE
  8
0
  6
CONTINUOUS
 62
     1
 10
1127.1199996
 20
838.1999852
 30
0.0
 11
1127.1199996
 21
858.1999852
 31
0.0
  0
LINE
  8
0
  6
CONTINUOUS
 62
     1
 10
1042.1199996
 20
898.1999852
 30
0.0
 11
1127.1199996
 21
898.1999852
 31
0.0
  0
LINE
  8
0
  6
CONTINUOUS
 62
     1
 10
1127.1199996
 20
918.1999852
 30
0.0
 11
1127.1199996
 21
898.1999852
 31
0.0
  0
LINE
  8
0
  6
CONTINUOUS
 62
     1
 10
1042.1199996
 20
858.1999852
 30
0.0
 11
1042.1199996
 21
898.1999852
 31
0.0
  0
LINE
  8
0
  6
CONTINUOUS
 62
     1
 10
1077.1199996
 20
858.1999852
 30
0.0
 11
1077.1199996
 21
898.1999852
 31
0.0
  0
LINE
  8
0
  6
CONTINUOUS
 62
     1
 10
1107.1199996
 20
858.1999852
 30
0.0
 11
1107.1199996
 21
898.1999852
 31
0.0
  0
LINE
  8
0
  6
LTYPE1
 62
     2
 10
1077.1199996
 20
898.1999852
 30
0.0
 11
1077.1199996
 21
918.1999852
 31
0.0
  0
LINE
  8
0
  6
LTYPE1
 62
     2
 10
1107.1199996
 20
898.1999852
 30
0.0
 11
1107.1199996
 21
918.1999852
 31
0.0
  0
LINE
  8
0
  6
CONTINUOUS
 62
     1
 10
1064.1199996
 20
834.1999852
 30
0.0
 11
1120.1199996
 21
834.1999852
 31
0.0
  0
LINE
  8
0
  6
CONTINUOUS
 62
     1
 10
1064.1199996
 20
834.1999852
 30
0.0
 11
1064.1199996
 21
838.1999852
 31
0.0
  0
LINE
  8
0
  6
CONTINUOUS
 62
     1
 10
1120.1199996
 20
834.1999852
 30
0.0
 11
1120.1199996
 21
838.1999852
 31
0.0
  0
LINE
  8
0
  6
CONTINUOUS
 62
     1
 10
1077.1199996
 20
824.1999852
 30
0.0
 11
1107.1199996
 21
824.1999852
 31
0.0
  0
LINE
  8
0
  6
CONTINUOUS
 62
     1
 10
1077.1199996
 20
824.1999852
 30
0.0
 11
1077.1199996
 21
834.1999852
 31
0.0
  0
LINE
  8
0
  6
CONTINUOUS
 62
     1
 10
1107.1199996
 20
824.1999852
 30
0.0
 11
1107.1199996
 21
834.1999852
 31
0.0
  0
LINE
  8
0
  6
LTYPE1
 62
     2
 10
1107.1199996
 20
834.1999852
 30
0.0
 11
1107.1199996
 21
858.1999852
 31
0.0
  0
LINE
  8
0
  6
LTYPE1
 62
     2
 10
1077.1199996
 20
834.1999852
 30
0.0
 11
1077.1199996
 21
858.1999852
 31
0.0
  0
LINE
  8
0
  6
CONTINUOUS
 62
     1
 10
1064.1199996
 20
922.1999852
 30
0.0
 11
1120.1199996
 21
922.1999852
 31
0.0
  0
LINE
  8
0
  6
CONTINUOUS
 62
     1
 10
1064.1199996
 20
922.1999852
 30
0.0
 11
1064.1199996
 21
918.1999852
 31
0.0
  0
LINE
  8
0
  6
CONTINUOUS
 62
     1
 10
1120.1199996
 20
922.1999852
 30
0.0
 11
1120.1199996
 21
918.1999852
 31
0.0
  0
LINE
  8
0
  6
CONTINUOUS
 62
     1
 10
1077.1199996
 20
932.1999852
 30
0.0
 11
1107.1199996
 21
932.1999852
 31
0.0
  0
LINE
  8
0
  6
CONTINUOUS
 62
     1
 10
1077.1199996
 20
932.1999852
 30
0.0
 11
1077.1199996
 21
922.1999852
 31
0.0
  0
LINE
  8
0
  6
CONTINUOUS
 62
     1
 10
1107.1199996
 20
932.1999852
 30
0.0
 11
1107.1199996
 21
922.1999852
 31
0.0
  0
LINE
  8
0
  6
LTYPE3
 62
     2
 10
1085.1199996
 20
830.5999852
 30
0.0
 11
1101.1199996
 21
830.5999852
 31
0.0
  0
CIRCLE
  8
0
  6
CONTINUOUS
 62
     1
 10
1092.1199996
 20
830.5999852
 30
0.0
 40
3.0
  0
LINE
  8
0
  6
LTYPE3
 62
     2
 10
1085.1199996
 20
925.7999852
 30
0.0
 11
1101.1199996
 21
925.7999852
 31
0.0
  0
CIRCLE
  8
0
  6
CONTINUOUS
 62
     1
 10
1092.1199996
 20
925.7999852
 30
0.0
 40
3.0
  0
LINE
  8
0
  6
CONTINUOUS
 62
     2
 10
1136.1199996
 20
898.1999852
 30
0.0
 11
1188.6199996
 21
898.1999852
 31
0.0
  0
LINE
  8
0
  6
CONTINUOUS
 62
     2
 10
1179.6199996
 20
898.1999852
 30
0.0
 11
1175.737713923
 21
883.711097806
 31
0.0
  0
LINE
  8
0
  6
CONTINUOUS
 62
     2
 10
1179.6199996
 20
898.1999852
 30
0.0
 11
1183.502285277
 21
883.711097806
 31
0.0
  0
LINE
  8
0
  6
CONTINUOUS
 62
     2
 10
1179.6199996
 20
898.1999852
 30
0.0
 11
1179.6199996
 21
858.1999852
 31
0.0
  0
LINE
  8
0
  6
CONTINUOUS
 62
     2
 10
1179.6199996
 20
858.1999852
 30
0.0
 11
1183.502285277
 21
872.688872594
 31
0.0
  0
LINE
  8
0
  6
CONTINUOUS
 62
     2
 10
1179.6199996
 20
858.1999852
 30
0.0
 11
1175.737713923
 21
872.688872594
 31
0.0
  0
LINE
  8
0
  6
CONTINUOUS
 62
     2
 10
1136.1199996
 20
858.1999852
 30
0.0
 11
1188.6199996
 21
858.1999852
 31
0.0
  0
TEXT
  8
0
  6
CONTINUOUS
 62
     2
 10
1173.6199996
 20
861.3999852
 30
1.2
 40
18.0
  1
４０
 50
90.0
 41
0.9
 51
0.0
  7
KANJI28
  0
LINE
  8
0
  6
CONTINUOUS
 62
     2
 10
1136.1199996
 20
838.1999852
 30
0.0
 11
1229.1199996
 21
838.1999852
 31
0.0
  0
LINE
  8
0
  6
CONTINUOUS
 62
     2
 10
1220.1199996
 20
838.1999852
 30
0.0
 11
1224.002285277
 21
852.688872594
 31
0.0
  0
LINE
  8
0
  6
CONTINUOUS
 62
     2
 10
1220.1199996
 20
838.1999852
 30
0.0
 11
1216.237713923
 21
852.688872594
 31
0.0
  0
LINE
  8
0
  6
CONTINUOUS
 62
     2
 10
1220.1199996
 20
838.1999852
 30
0.0
 11
1220.1199996
 21
918.1999852
 31
0.0
  0
LINE
  8
0
  6
CONTINUOUS
 62
     2
 10
1220.1199996
 20
918.1999852
 30
0.0
 11
1216.237713923
 21
903.711097806
 31
0.0
  0
LINE
  8
0
  6
CONTINUOUS
 62
     2
 10
1220.1199996
 20
918.1999852
 30
0.0
 11
1224.002285277
 21
903.711097806
 31
0.0
  0
LINE
  8
0
  6
CONTINUOUS
 62
     2
 10
1136.1199996
 20
918.1999852
 30
0.0
 11
1229.1199996
 21
918.1999852
 31
0.0
  0
TEXT
  8
0
  6
CONTINUOUS
 62
     2
 10
1214.1199996
 20
861.3999852
 30
1.2
 40
18.0
  1
８０
 50
90.0
 41
0.9
 51
0.0
  7
KANJI28
  0
LINE
  8
0
  6
CONTINUOUS
 62
     2
 10
1077.1199996
 20
825.1999852
 30
0.0
 11
1077.1199996
 21
769.1999852
 31
0.0
  0
LINE
  8
0
  6
CONTINUOUS
 62
     2
 10
1077.1199996
 20
778.1999852
 30
0.0
 11
1062.631112206
 21
782.082270877
 31
0.0
  0
LINE
  8
0
  6
CONTINUOUS
 62
     2
 10
1077.1199996
 20
778.1999852
 30
0.0
 11
1062.631112206
 21
774.317699523
 31
0.0
  0
LINE
  8
0
  6
CONTINUOUS
 62
     2
 10
1054.6199996
 20
778.1999852
 30
0.0
 11
1215.4199996
 21
778.1999852
 31
0.0
  0
LINE
  8
0
  6
CONTINUOUS
 62
     2
 10
1107.1199996
 20
778.1999852
 30
0.0
 11
1121.608886994
 21
774.317699523
 31
0.0
  0
LINE
  8
0
  6
CONTINUOUS
 62
     2
 10
1107.1199996
 20
778.1999852
 30
0.0
 11
1121.608886994
 21
782.082270877
 31
0.0
  0
LINE
  8
0
  6
CONTINUOUS
 62
     2
 10
1107.1199996
 20
815.1999852
 30
0.0
 11
1107.1199996
 21
769.1999852
 31
0.0
  0
TEXT
  8
0
  6
CONTINUOUS
 62
     2
 10
1184.6199996
 20
755.6999852
 30
1.8
 40
18.0
  1
ｄ９
 50
0.0
 41
0.9
 51
0.0
  7
KANJI29
  0
TEXT
  8
0
  6
CONTINUOUS
 62
     2
 10
1129.6199996
 20
784.1999852
 30
1.2
 40
18.0
  1
φ３０Ｈ１０
 50
0.0
 41
0.9
 51
0.0
  7
KANJI28
  0
LINE
  8
0
  6
CONTINUOUS
 62
     2
 10
1042.1199996
 20
849.1999852
 30
0.0
 11
1042.1199996
 21
733.1999852
 31
0.0
  0
LINE
  8
0
  6
CONTINUOUS
 62
     2
 10
1042.1199996
 20
742.1999852
 30
0.0
 11
1056.608886994
 21
738.317699523
 31
0.0
  0
LINE
  8
0
  6
CONTINUOUS
 62
     2
 10
1042.1199996
 20
742.1999852
 30
0.0
 11
1056.608886994
 21
746.082270877
 31
0.0
  0
LINE
  8
0
  6
CONTINUOUS
 62
     2
 10
1042.1199996
 20
742.1999852
 30
0.0
 11
1092.1199996
 21
742.1999852
 31
0.0
  0
LINE
  8
0
  6
CONTINUOUS
 62
     2
 10
1092.1199996
 20
742.1999852
 30
0.0
 11
1077.631112206
 21
746.082270877
 31
0.0
  0
LINE
  8
0
  6
CONTINUOUS
 62
     2
 10
1092.1199996
 20
742.1999852
 30
0.0
 11
1077.631112206
 21
738.317699523
 31
0.0
  0
LINE
  8
0
  6
CONTINUOUS
 62
     2
 10
1092.1199996
 20
806.1999852
 30
0.0
 11
1092.1199996
 21
733.1999852
 31
0.0
  0
TEXT
  8
0
  6
CONTINUOUS
 62
     2
 10
1050.3199996
 20
748.1999852
 30
1.2
 40
18.0
  1
５０
 50
0.0
 41
0.9
 51
0.0
  7
KANJI28
  0
LINE
  8
0
  6
LTYPE3
 62
     2
 10
1009.9199996
 20
878.1999852
 30
0.0
 11
1132.3199996
 21
878.1999852
 31
0.0
  0
LINE
  8
0
  6
LTYPE3
 62
     2
 10
941.6199996
 20
878.1999852
 30
0.0
 11
1119.1199996
 21
878.1999852
 31
0.0
  0
LINE
  8
0
  6
CONTINUOUS
 62
     1
 10
1022.1199996
 20
918.1999852
 30
0.0
 11
1127.1199996
 21
918.1999852
 31
0.0
  0
LINE
  8
0
  6
CONTINUOUS
 62
     1
 10
1022.1199996
 20
918.1999852
 30
0.0
 11
1022.1199996
 21
838.1999852
 31
0.0
  0
LINE
  8
0
  6
CONTINUOUS
 62
     1
 10
1022.1199996
 20
838.1999852
 30
0.0
 11
1127.1199996
 21
838.1999852
 31
0.0
  0
ARC
  8
0
  6
CONTINUOUS
 62
     1
 10
966.464743363
 20
952.1999852
 30
0.0
 40
1.0
 50
90.0
 51
165.0
  0
LINE
  8
0
  6
CONTINUOUS
 62
     1
 10
961.876777327
 20
938.941166155
 30
0.0
 11
965.498817537
 21
952.458804245
 31
0.0
  0
ARC
  8
0
  6
CONTINUOUS
 62
     1
 10
960.910851501
 20
939.1999852
 30
0.0
 40
1.0
 50
270.0
 51
345.0
  0
LINE
  8
0
  6
CONTINUOUS
 62
     1
 10
990.6199996
 20
918.6999852
 30
0.0
 11
1000.6199996
 21
918.6999852
 31
0.0
  0
LINE
  8
0
  6
CONTINUOUS
 62
     1
 10
1000.564743363
 20
916.6999852
 30
0.0
 11
1003.1199996
 21
916.6999852
 31
0.0
  0
LINE
  8
0
  6
CONTINUOUS
 62
     1
 10
988.1199996
 20
916.6999852
 30
0.0
 11
990.564743363
 21
916.6999852
 31
0.0
  0
LINE
  8
0
  6
CONTINUOUS
 62
     1
 10
1000.6199996
 20
918.6999852
 30
0.0
 11
1000.6199996
 21
878.1999852
 31
0.0
  0
LINE
  8
0
  6
CONTINUOUS
 62
     1
 10
988.1199996
 20
916.6999852
 30
0.0
 11
988.1199996
 21
878.1999852
 31
0.0
  0
LINE
  8
0
  6
CONTINUOUS
 62
     1
 10
990.6199996
 20
918.6999852
 30
0.0
 11
990.6199996
 21
878.1999852
 31
0.0
  0
LINE
  8
0
  6
CONTINUOUS
 62
     1
 10
988.1199996
 20
916.6999852
 30
0.0
 11
978.538452915
 21
952.458804245
 31
0.0
  0
ARC
  8
0
  6
CONTINUOUS
 62
     1
 10
977.572527088
 20
952.1999852
 30
0.0
 40
1.0
 50
15.0
 51
90.0
  0
ARC
  8
0
  6
CONTINUOUS
 62
     1
 10
977.572527088
 20
952.1999852
 30
0.0
 40
1.0
 50
90.0
 51
165.0
  0
LINE
  8
0
  6
CONTINUOUS
 62
     1
 10
972.984561052
 20
938.941166155
 30
0.0
 11
976.606601262
 21
952.458804245
 31
0.0
  0
ARC
  8
0
  6
CONTINUOUS
 62
     1
 10
972.018635226
 20
939.1999852
 30
0.0
 40
1.0
 50
270.0
 51
345.0
  0
ARC
  8
0
  6
CONTINUOUS
 62
     1
 10
972.018635226
 20
939.1999852
 30
0.0
 40
1.0
 50
195.0
 51
270.0
  0
LINE
  8
0
  6
CONTINUOUS
 62
     1
 10
971.0527094
 20
938.941166155
 30
0.0
 11
967.43066919
 21
952.458804245
 31
0.0
  0
ARC
  8
0
  6
CONTINUOUS
 62
     1
 10
966.464743363
 20
952.1999852
 30
0.0
 40
1.0
 50
15.0
 51
90.0
  0
LINE
  8
0
  6
CONTINUOUS
 62
     1
 10
960.910851501
 20
938.1999852
 30
0.0
 11
960.910851501
 21
878.1999852
 31
0.0
  0
LINE
  8
0
  6
CONTINUOUS
 62
     1
 10
966.464743363
 20
953.1999852
 30
0.0
 11
966.464743363
 21
878.1999852
 31
0.0
  0
LINE
  8
0
  6
CONTINUOUS
 62
     1
 10
977.572527088
 20
953.1999852
 30
0.0
 11
977.572527088
 21
878.1999852
 31
0.0
  0
LINE
  8
0
  6
CONTINUOUS
 62
     1
 10
972.018635226
 20
938.1999852
 30
0.0
 11
972.018635226
 21
878.1999852
 31
0.0
  0
LINE
  8
0
  6
CONTINUOUS
 62
     1
 10
1003.1199996
 20
936.4624852
 30
0.0
 11
1022.1199996
 21
936.4624852
 31
0.0
  0
LINE
  8
0
  6
LTYPE5
 62
     2
 10
944.1199996
 20
953.1999852
 30
0.0
 11
966.3699996
 21
953.1999852
 31
0.0
  0
LINE
  8
0
  6
LTYPE5
 62
     2
 10
941.1199996
 20
938.1999852
 30
0.0
 11
960.7699996
 21
938.1999852
 31
0.0
  0
LINE
  8
0
  6
CONTINUOUS
 62
     1
 10
1003.1199996
 20
878.1999852
 30
0.0
 11
1003.1199996
 21
936.4624852
 31
0.0
  0
LINE
  8
0
  6
CONTINUOUS
 62
     2
 10
945.1199996
 20
803.1999852
 30
0.0
 11
945.1199996
 21
953.1999852
 31
0.0
  0
LINE
  8
0
  6
CONTINUOUS
 62
     2
 10
945.1199996
 20
953.1999852
 30
0.0
 11
941.237713923
 21
938.711097806
 31
0.0
  0
LINE
  8
0
  6
CONTINUOUS
 62
     2
 10
945.1199996
 20
953.1999852
 30
0.0
 11
949.002285277
 21
938.711097806
 31
0.0
  0
LINE
  8
0
  6
CONTINUOUS
 62
     2
 10
953.6199996
 20
953.1999852
 30
0.0
 11
954.1199996
 21
953.1999852
 31
0.0
  0
TEXT
  8
0
  6
CONTINUOUS
 62
     2
 10
939.1199996
 20
843.9999852
 30
1.2
 40
18.0
  1
φ１５０
 50
90.0
 41
0.9
 51
0.0
  7
KANJI28
  0
ARC
  8
0
  6
CONTINUOUS
 62
     1
 10
966.464743363
 20
804.1999852
 30
0.0
 40
1.0
 50
195.0
 51
270.0
  0
LINE
  8
0
  6
CONTINUOUS
 62
     1
 10
961.876777327
 20
817.458804245
 30
0.0
 11
965.498817537
 21
803.941166155
 31
0.0
  0
ARC
  8
0
  6
CONTINUOUS
 62
     1
 10
960.910851501
 20
817.1999852
 30
0.0
 40
1.0
 50
15.0
 51
90.0
  0
LINE
  8
0
  6
CONTINUOUS
 62
     1
 10
990.6199996
 20
837.6999852
 30
0.0
 11
1000.6199996
 21
837.6999852
 31
0.0
  0
LINE
  8
0
  6
CONTINUOUS
 62
     1
 10
1000.564743363
 20
839.6999852
 30
0.0
 11
1003.1199996
 21
839.6999852
 31
0.0
  0
LINE
  8
0
  6
CONTINUOUS
 62
     1
 10
988.1199996
 20
839.6999852
 30
0.0
 11
990.564743363
 21
839.6999852
 31
0.0
  0
LINE
  8
0
  6
CONTINUOUS
 62
     1
 10
1000.6199996
 20
837.6999852
 30
0.0
 11
1000.6199996
 21
878.1999852
 31
0.0
  0
LINE
  8
0
  6
CONTINUOUS
 62
     1
 10
988.1199996
 20
839.6999852
 30
0.0
 11
988.1199996
 21
878.1999852
 31
0.0
  0
LINE
  8
0
  6
CONTINUOUS
 62
     1
 10
990.6199996
 20
837.6999852
 30
0.0
 11
990.6199996
 21
878.1999852
 31
0.0
  0
LINE
  8
0
  6
CONTINUOUS
 62
     1
 10
988.1199996
 20
839.6999852
 30
0.0
 11
978.538452915
 21
803.941166155
 31
0.0
  0
ARC
  8
0
  6
CONTINUOUS
 62
     1
 10
977.572527088
 20
804.1999852
 30
0.0
 40
1.0
 50
270.0
 51
345.0
  0
ARC
  8
0
  6
CONTINUOUS
 62
     1
 10
977.572527088
 20
804.1999852
 30
0.0
 40
1.0
 50
195.0
 51
270.0
  0
LINE
  8
0
  6
CONTINUOUS
 62
     1
 10
972.984561052
 20
817.458804245
 30
0.0
 11
976.606601262
 21
803.941166155
 31
0.0
  0
ARC
  8
0
  6
CONTINUOUS
 62
     1
 10
972.018635226
 20
817.1999852
 30
0.0
 40
1.0
 50
15.0
 51
90.0
  0
ARC
  8
0
  6
CONTINUOUS
 62
     1
 10
972.018635226
 20
817.1999852
 30
0.0
 40
1.0
 50
90.0
 51
165.0
  0
LINE
  8
0
  6
CONTINUOUS
 62
     1
 10
971.0527094
 20
817.458804245
 30
0.0
 11
967.43066919
 21
803.941166155
 31
0.0
  0
ARC
  8
0
  6
CONTINUOUS
 62
     1
 10
966.464743363
 20
804.1999852
 30
0.0
 40
1.0
 50
270.0
 51
345.0
  0
LINE
  8
0
  6
CONTINUOUS
 62
     1
 10
960.910851501
 20
818.1999852
 30
0.0
 11
960.910851501
 21
878.1999852
 31
0.0
  0
LINE
  8
0
  6
CONTINUOUS
 62
     1
 10
966.464743363
 20
803.1999852
 30
0.0
 11
966.464743363
 21
878.1999852
 31
0.0
  0
LINE
  8
0
  6
CONTINUOUS
 62
     1
 10
977.572527088
 20
803.1999852
 30
0.0
 11
977.572527088
 21
878.1999852
 31
0.0
  0
LINE
  8
0
  6
CONTINUOUS
 62
     1
 10
972.018635226
 20
818.1999852
 30
0.0
 11
972.018635226
 21
878.1999852
 31
0.0
  0
LINE
  8
0
  6
LTYPE5
 62
     2
 10
944.1199996
 20
803.1999852
 30
0.0
 11
966.3699996
 21
803.1999852
 31
0.0
  0
LINE
  8
0
  6
LTYPE5
 62
     2
 10
941.1199996
 20
818.1999852
 30
0.0
 11
960.7699996
 21
818.1999852
 31
0.0
  0
LINE
  8
0
  6
CONTINUOUS
 62
     1
 10
1003.1199996
 20
878.1999852
 30
0.0
 11
1003.1199996
 21
819.9374852
 31
0.0
  0
LINE
  8
0
  6
CONTINUOUS
 62
     1
 10
1003.1199996
 20
819.9374852
 30
0.0
 11
1022.1199996
 21
819.9374852
 31
0.0
  0
LINE
  8
0
  6
CONTINUOUS
 62
     2
 10
945.1199996
 20
803.1999852
 30
0.0
 11
949.002285277
 21
817.688872594
 31
0.0
  0
LINE
  8
0
  6
CONTINUOUS
 62
     2
 10
945.1199996
 20
803.1999852
 30
0.0
 11
941.237713923
 21
817.688872594
 31
0.0
  0
LINE
  8
0
  6
CONTINUOUS
 62
     1
 10
1022.1199996
 20
936.4624852
 30
0.0
 11
1022.1199996
 21
819.9374852
 31
0.0
  0
CIRCLE
  8
0
  6
CONTINUOUS
 62
     1
 10
1092.1199996
 20
654.4999852
 30
0.0
 40
28.0
  0
CIRCLE
  8
0
  6
CONTINUOUS
 62
     1
 10
1092.1199996
 20
671.9999852
 30
0.0
 40
2.5
  0
LINE
  8
0
  6
CONTINUOUS
 62
     1
 10
1096.3199996
 20
635.1999852
 30
0.0
 11
1094.3199996
 21
634.8999852
 31
0.0
  0
LINE
  8
0
  6
CONTINUOUS
 62
     1
 10
1094.055384215
 20
638.030754431
 30
0.0
 11
1096.3199996
 21
635.1999852
 31
0.0
  0
LINE
  8
0
  6
CONTINUOUS
 62
     1
 10
1092.1199996
 20
637.5999852
 30
0.0
 11
1094.3199996
 21
634.8999852
 31
0.0
  0
LINE
  8
0
  6
CONTINUOUS
 62
     1
 10
1093.8199996
 20
639.5999852
 30
0.0
 11
1094.055384215
 21
638.030754431
 31
0.0
  0
LINE
  8
0
  6
CONTINUOUS
 62
     1
 10
1092.1199996
 20
637.5999852
 30
0.0
 11
1089.9199996
 21
634.8999852
 31
0.0
  0
LINE
  8
0
  6
CONTINUOUS
 62
     1
 10
1090.4199996
 20
639.5999852
 30
0.0
 11
1090.184614985
 21
638.030754431
 31
0.0
  0
LINE
  8
0
  6
CONTINUOUS
 62
     1
 10
1087.9199996
 20
635.1999852
 30
0.0
 11
1089.9199996
 21
634.8999852
 31
0.0
  0
LINE
  8
0
  6
CONTINUOUS
 62
     1
 10
1090.184614985
 20
638.030754431
 30
0.0
 11
1087.9199996
 21
635.1999852
 31
0.0
  0
LINE
  8
0
  6
CONTINUOUS
 62
     6
 10
356.629425053
 20
1631.447759827
 30
0.0
 11
124.584646507
 21
1631.447759827
 31
0.0
  0
LINE
  8
0
  6
CONTINUOUS
 62
     3
 10
356.629425053
 20
1603.985259827
 30
0.0
 11
124.584646507
 21
1603.985259827
 31
0.0
  0
LINE
  8
0
  6
CONTINUOUS
 62
     6
 10
356.629425053
 20
1603.985259827
 30
0.0
 11
124.584646507
 21
1603.985259827
 31
0.0
  0
TEXT
  8
0
  6
CONTINUOUS
 62
     6
 10
382.212228
 20
1628.900410728
 30
1.232517
 40
13.182
  1
電気定格　　　
 50
0.0
 41
0.85
 51
0.0
  7
KANJI33
  0
TEXT
  8
0
  6
CONTINUOUS
 62
     6
 10
128.493517202
 20
1634.64592676
 30
1.0647
 40
11.661
  1
ＬＳ０１　　　：推力リミッタ（前進時過負荷用）
 50
0.0
 41
0.822608696
 51
0.0
  7
KANJI34
  0
TEXT
  8
0
  6
CONTINUOUS
 62
     6
 10
128.493517202
 20
1607.18342676
 30
1.0647
 40
11.661
  1
ＬＳ０２　　　：推力リミッタ（後進時過負荷用）
 50
0.0
 41
0.822608696
 51
0.0
  7
KANJI34
  0
TEXT
  8
0
  6
CONTINUOUS
 62
     6
 10
395.013715102
 20
1598.326958599
 30
0.0
 40
11.8638
  1
ＤＣ１２５Ｖ　０．６Ａ　，ＤＣ２５０Ｖ　０．３Ａ　
 50
0.0
 41
0.726495726
 51
0.0
  7
KANJI35
  0
LINE
  8
0
  6
LTYPE3
 62
     6
 10
655.02
 20
1658.9
 30
0.0
 11
106.62
 21
1658.9
 31
0.0
  0
TEXT
  8
0
  6
CONTINUOUS
 62
     6
 10
389.757132178
 20
1646.661726126
 30
0.0
 40
45.0
  1
｝
 50
0.0
 41
0.538166667
 51
0.0
  7
KANJI36
  0
TEXT
  8
0
  6
CONTINUOUS
 62
     6
 10
319.632791539
 20
1417.92382165
 30
0.0
 40
17.740702234
  1
端子台　接続図
 50
0.0
 41
0.880962996
 51
0.0
  7
KANJI37
  0
LINE
  8
0
  6
LTYPE3
 62
     6
 10
655.02
 20
1399.9
 30
0.0
 11
655.02
 21
1658.9
 31
0.0
  0
LINE
  8
0
  6
LTYPE3
 62
     6
 10
106.62
 20
1399.9
 30
0.0
 11
655.02
 21
1399.9
 31
0.0
  0
LINE
  8
0
  6
LTYPE3
 62
     6
 10
106.62
 20
1658.9
 30
0.0
 11
106.62
 21
1399.9
 31
0.0
  0
LINE
  8
0
  6
CONTINUOUS
 62
     2
 10
354.597373465
 20
1468.928121884
 30
0.0
 11
354.597373465
 21
1446.149155128
 31
0.0
  0
LINE
  8
0
  6
CONTINUOUS
 62
     2
 10
381.17283468
 20
1468.928121884
 30
0.0
 11
381.17283468
 21
1446.149155128
 31
0.0
  0
LINE
  8
0
  6
CONTINUOUS
 62
     2
 10
407.748295894
 20
1468.928121884
 30
0.0
 11
407.748295894
 21
1446.149155128
 31
0.0
  0
LINE
  8
0
  6
CONTINUOUS
 62
     2
 10
434.323757109
 20
1468.928121884
 30
0.0
 11
434.323757109
 21
1446.149155128
 31
0.0
  0
CIRCLE
  8
0
  6
CONTINUOUS
 62
     6
 10
426.404269667
 20
1492.407921517
 30
0.0
 40
4.100214016
  0
LINE
  8
0
  6
CONTINUOUS
 62
     6
 10
422.304055651
 20
1492.407921517
 30
0.0
 11
421.036026502
 21
1492.407921517
 31
0.0
  0
LINE
  8
0
  6
CONTINUOUS
 62
     6
 10
447.358027433
 20
1506.094562742
 30
0.0
 11
443.443558096
 21
1483.759507138
 31
0.0
  0
LINE
  8
0
  6
CONTINUOUS
 62
     6
 10
442.631699663
 20
1506.882284037
 30
0.0
 11
438.716922494
 21
1484.547279739
 31
0.0
  0
LINE
  8
0
  6
CONTINUOUS
 62
     6
 10
443.443558096
 20
1483.759507138
 30
0.0
 11
438.716922494
 21
1484.547279739
 31
0.0
  0
CIRCLE
  8
0
  6
CONTINUOUS
 62
     6
 10
447.611487717
 20
1482.939464335
 30
0.0
 40
4.100214016
  0
LINE
  8
0
  6
CONTINUOUS
 62
     6
 10
447.611487717
 20
1478.839250319
 30
0.0
 11
447.611487717
 21
1468.928121884
 31
0.0
  0
LINE
  8
0
  6
CONTINUOUS
 62
     6
 10
421.036026502
 20
1492.407921517
 30
0.0
 11
421.036026502
 21
1468.928121884
 31
0.0
  0
LINE
  8
0
  6
CONTINUOUS
 62
     6
 10
394.460565287
 20
1468.928121884
 30
0.0
 11
394.460565287
 21
1522.633332504
 31
0.0
  0
LINE
  8
0
  6
CONTINUOUS
 62
     6
 10
314.987641926
 20
1506.094562742
 30
0.0
 11
318.902111263
 21
1483.759507138
 31
0.0
  0
LINE
  8
0
  6
CONTINUOUS
 62
     6
 10
319.713969696
 20
1506.882284037
 30
0.0
 11
323.628746865
 21
1484.547279739
 31
0.0
  0
LINE
  8
0
  6
CONTINUOUS
 62
     6
 10
318.902111263
 20
1483.759507138
 30
0.0
 11
323.628746865
 21
1484.547279739
 31
0.0
  0
CIRCLE
  8
0
  6
CONTINUOUS
 62
     6
 10
314.734181642
 20
1482.939464335
 30
0.0
 40
4.100214016
  0
CIRCLE
  8
0
  6
CONTINUOUS
 62
     6
 10
335.941399692
 20
1492.407921517
 30
0.0
 40
4.100214016
  0
LINE
  8
0
  6
CONTINUOUS
 62
     6
 10
340.041613708
 20
1492.407921517
 30
0.0
 11
341.309642857
 21
1492.407921517
 31
0.0
  0
LINE
  8
0
  6
CONTINUOUS
 62
     6
 10
314.734181642
 20
1478.839250319
 30
0.0
 11
314.734181642
 21
1468.928121884
 31
0.0
  0
LINE
  8
0
  6
CONTINUOUS
 62
     6
 10
341.309642857
 20
1492.407921517
 30
0.0
 11
341.309642857
 21
1468.928121884
 31
0.0
  0
LINE
  8
0
  6
CONTINUOUS
 62
     6
 10
367.885104072
 20
1468.928121884
 30
0.0
 11
367.885104072
 21
1522.633332504
 31
0.0
  0
LINE
  8
0
  6
CONTINUOUS
 62
     2
 10
460.899218324
 20
1468.928121884
 30
0.0
 11
460.899218324
 21
1446.149155128
 31
0.0
  0
LINE
  8
0
  6
CONTINUOUS
 62
     2
 10
301.446451035
 20
1468.928121884
 30
0.0
 11
301.446451035
 21
1446.149155128
 31
0.0
  0
LINE
  8
0
  6
CONTINUOUS
 62
     2
 10
328.02191225
 20
1468.928121884
 30
0.0
 11
328.02191225
 21
1446.149155128
 31
0.0
  0
LINE
  8
0
  6
CONTINUOUS
 62
     6
 10
447.611487717
 20
1522.633332504
 30
0.0
 11
394.460565287
 21
1522.633332504
 31
0.0
  0
CIRCLE
  8
0
  6
CONTINUOUS
 62
     6
 10
447.611487717
 20
1510.28941042
 30
0.0
 40
4.100214016
  0
LINE
  8
0
  6
CONTINUOUS
 62
     6
 10
447.358027433
 20
1506.094562742
 30
0.0
 11
442.631699663
 21
1506.882284037
 31
0.0
  0
LINE
  8
0
  6
CONTINUOUS
 62
     6
 10
447.611487717
 20
1514.389624436
 30
0.0
 11
447.611487717
 21
1522.633332504
 31
0.0
  0
CIRCLE
  8
0
  6
CONTINUOUS
 62
     6
 10
314.734181642
 20
1510.28941042
 30
0.0
 40
4.100214016
  0
LINE
  8
0
  6
CONTINUOUS
 62
     6
 10
314.987641926
 20
1506.094562742
 30
0.0
 11
319.713969696
 21
1506.882284037
 31
0.0
  0
LINE
  8
0
  6
CONTINUOUS
 62
     6
 10
314.734181642
 20
1514.389624436
 30
0.0
 11
314.734181642
 21
1522.633332504
 31
0.0
  0
LINE
  8
0
  6
CONTINUOUS
 62
     6
 10
367.885104072
 20
1522.633332504
 30
0.0
 11
314.734181642
 21
1522.633332504
 31
0.0
  0
TEXT
  8
0
  6
CONTINUOUS
 62
     6
 10
319.4972152
 20
1527.152473273
 30
0.819
 40
11.7
  1
ＬＳ０１
 50
0.0
 41
0.8
 51
0.0
  7
KANJI38
  0
TEXT
  8
0
  6
CONTINUOUS
 62
     6
 10
402.117398844
 20
1527.152473273
 30
0.819
 40
11.7
  1
ＬＳ０２
 50
0.0
 41
0.8
 51
0.0
  7
KANJI38
  0
TEXT
  8
0
  6
CONTINUOUS
 62
     3
 10
147.308775989
 20
1449.945649587
 30
0.0
 40
15.0
  1
　　　　　　　　　　　　　　　　　　１　　２　　　３　　　４　　　５　　　６
 50
0.0
 41
0.911
 51
0.0
  7
KANJI39
  0
LINE
  8
0
  6
CONTINUOUS
 62
     2
 10
301.446451035
 20
1468.928121884
 30
0.0
 11
460.899218324
 21
1468.928121884
 31
0.0
  0
LINE
  8
0
  6
CONTINUOUS
 62
     2
 10
301.446451035
 20
1446.149155128
 30
0.0
 11
460.899218324
 21
1446.149155128
 31
0.0
  0
TEXT
  8
0
  6
CONTINUOUS
 62
     6
 10
293.132791539
 20
1556.92382165
 30
0.0
 40
17.740702234
  1
推力リミッタ端子台配列
 50
0.0
 41
0.880962996
 51
0.0
  7
KANJI37
  0
TEXT
  8
0
  6
CONTINUOUS
 62
     6
 10
395.013715102
 20
1614.071931782
 30
0.0
 40
11.8638
  1
ＡＣ１００Ｖ　１２５Ｖ　２５０Ｖ　－１０Ａ
 50
0.0
 41
0.726495726
 51
0.0
  7
KANJI35
  0
LINE
  8
0
  6
LTYPE3
 62
     6
 10
148.708333
 20
1243.133317
 30
0.0
 11
148.708333
 21
1226.732460936
 31
0.0
  0
LINE
  8
0
  6
LTYPE3
 62
     6
 10
279.105262694
 20
1243.133317
 30
0.0
 11
148.708333
 21
1243.133317
 31
0.0
  0
TEXT
  8
0
  6
CONTINUOUS
 62
     6
 10
131.173590591
 20
1229.648168681
 30
1.093390404
 40
10.933904043
  1
Ｕ
 50
0.0
 41
0.9
 51
0.0
  7
KANJI40
  0
CIRCLE
  8
0
  6
CONTINUOUS
 62
     6
 10
148.708333
 20
1223.452289723
 30
0.0
 40
4.373561617
  0
LINE
  8
0
  6
CONTINUOUS
 62
     6
 10
143.68354931
 20
1218.427506033
 30
0.0
 11
153.888526417
 21
1228.63248314
 31
0.0
  0
TEXT
  8
0
  6
CONTINUOUS
 62
     6
 10
158.953806047
 20
1251.799448352
 30
1.518597784
 40
15.185977837
  1
エコノストップモータ
 50
0.0
 41
0.66671875
 51
0.0
  7
KANJI41
  0
CIRCLE
  8
0
  6
CONTINUOUS
 62
     6
 10
193.537339575
 20
1197.939846957
 30
0.0
 40
18.223173404
  0
TEXT
  8
0
  6
CONTINUOUS
 62
     6
 10
185.883606745
 20
1189.192723723
 30
1.82231734
 40
18.223173404
  1
Ｍ
 50
0.0
 41
0.9
 51
0.0
  7
KANJI42
  0
LINE
  8
0
  6
CONTINUOUS
 62
     6
 10
169.482750681
 20
1172.427404191
 30
0.0
 11
180.781118192
 21
1185.548089042
 31
0.0
  0
LINE
  8
0
  6
CONTINUOUS
 62
     6
 10
169.482750681
 20
1223.452289723
 30
0.0
 11
180.781118192
 21
1210.331604872
 31
0.0
  0
LINE
  8
0
  6
CONTINUOUS
 62
     6
 10
169.482750681
 20
1223.452289723
 30
0.0
 11
153.081894617
 21
1223.452289723
 31
0.0
  0
LINE
  8
0
  6
CONTINUOUS
 62
     6
 10
175.678629639
 20
1197.939846957
 30
0.0
 11
153.081894617
 21
1197.939846957
 31
0.0
  0
LINE
  8
0
  6
CONTINUOUS
 62
     6
 10
169.482750681
 20
1172.427404191
 30
0.0
 11
153.081894617
 21
1172.427404191
 31
0.0
  0
TEXT
  8
0
  6
CONTINUOUS
 62
     6
 10
132.266980995
 20
1203.771262446
 30
1.093390404
 40
10.933904043
  1
Ｖ
 50
0.0
 41
0.9
 51
0.0
  7
KANJI40
  0
TEXT
  8
0
  6
CONTINUOUS
 62
     6
 10
133.360371399
 20
1177.894356212
 30
1.093390404
 40
10.933904043
  1
Ｗ
 50
0.0
 41
0.9
 51
0.0
  7
KANJI40
  0
CIRCLE
  8
0
  6
CONTINUOUS
 62
     6
 10
148.708333
 20
1197.939846957
 30
0.0
 40
4.373561617
  0
LINE
  8
0
  6
CONTINUOUS
 62
     6
 10
143.68354931
 20
1192.915063267
 30
0.0
 11
153.888526417
 21
1203.120040374
 31
0.0
  0
LINE
  8
0
  6
LTYPE3
 62
     6
 10
148.708333
 20
1219.443191574
 30
0.0
 11
148.708333
 21
1201.22001817
 31
0.0
  0
CIRCLE
  8
0
  6
CONTINUOUS
 62
     6
 10
148.708333
 20
1172.427404191
 30
0.0
 40
4.373561617
  0
LINE
  8
0
  6
CONTINUOUS
 62
     6
 10
143.68354931
 20
1167.402620501
 30
0.0
 11
153.888526417
 21
1177.607597607
 31
0.0
  0
LINE
  8
0
  6
LTYPE3
 62
     6
 10
148.708333
 20
1193.930748808
 30
0.0
 11
148.708333
 21
1176.800965808
 31
0.0
  0
LINE
  8
0
  6
LTYPE3
 62
     6
 10
148.708333
 20
1168.053842574
 30
0.0
 11
148.708333
 21
1147.721584891
 31
0.0
  0
TEXT
  8
0
  6
CONTINUOUS
 62
     6
 10
219.778709277
 20
1189.684749405
 30
1.457853872
 40
14.578538724
  1
Ｂ
 50
0.0
 41
0.9
 51
0.0
  7
KANJI43
  0
CIRCLE
  8
0
  6
CONTINUOUS
 62
     6
 10
226.339051703
 20
1197.939846957
 30
0.0
 40
14.578538724
  0
LINE
  8
0
  6
LTYPE3
 62
     6
 10
279.105262694
 20
1147.721584891
 30
0.0
 11
148.708333
 21
1147.721584891
 31
0.0
  0
LINE
  8
0
  6
LTYPE3
 62
     6
 10
279.105262694
 20
1147.721584891
 30
0.0
 11
279.105262694
 21
1243.133317
 31
0.0
  0
TEXT
  8
0
  6
CONTINUOUS
 62
     2
 10
153.803726364
 20
1122.512221811
 30
0.0
 40
15.6
  1
モーター結線図
 50
0.0
 41
0.925
 51
0.0
  7
KANJI44
  0
LINE
  8
0
  6
CONTINUOUS
 62
     2
 10
394.5199996
 20
1257.6999852
 30
0.0
 11
402.24740621
 21
1255.629432839
 31
0.0
  0
LINE
  8
0
  6
CONTINUOUS
 62
     2
 10
394.5199996
 20
1257.6999852
 30
0.0
 11
402.24740621
 21
1259.770537561
 31
0.0
  0
LINE
  8
0
  6
CONTINUOUS
 62
     2
 10
394.5199996
 20
1257.6999852
 30
0.0
 11
532.1199996
 21
1257.6999852
 31
0.0
  0
LINE
  8
0
  6
CONTINUOUS
 62
     2
 10
532.1199996
 20
1257.6999852
 30
0.0
 11
524.39259299
 21
1259.770537561
 31
0.0
  0
LINE
  8
0
  6
CONTINUOUS
 62
     2
 10
532.1199996
 20
1257.6999852
 30
0.0
 11
524.39259299
 21
1255.629432839
 31
0.0
  0
LINE
  8
0
  6
CONTINUOUS
 62
     2
 10
532.1199996
 20
1256.4999852
 30
0.0
 11
532.1199996
 21
1253.6999852
 31
0.0
  0
LINE
  8
0
  6
CONTINUOUS
 62
     2
 10
532.1199996
 20
1257.6999852
 30
0.0
 11
539.84740621
 21
1255.629432839
 31
0.0
  0
LINE
  8
0
  6
CONTINUOUS
 62
     2
 10
532.1199996
 20
1257.6999852
 30
0.0
 11
539.84740621
 21
1259.770537561
 31
0.0
  0
LINE
  8
0
  6
CONTINUOUS
 62
     2
 10
532.1199996
 20
1257.6999852
 30
0.0
 11
734.5199996
 21
1257.6999852
 31
0.0
  0
LINE
  8
0
  6
CONTINUOUS
 62
     2
 10
734.5199996
 20
1257.6999852
 30
0.0
 11
726.79259299
 21
1259.770537561
 31
0.0
  0
LINE
  8
0
  6
CONTINUOUS
 62
     2
 10
734.5199996
 20
1257.6999852
 30
0.0
 11
726.79259299
 21
1255.629432839
 31
0.0
  0
LINE
  8
0
  6
CONTINUOUS
 62
     2
 10
532.1199996
 20
1231.370537561
 30
0.0
 11
524.39259299
 21
1233.441089922
 31
0.0
  0
LINE
  8
0
  6
CONTINUOUS
 62
     2
 10
532.1199996
 20
1231.370537561
 30
0.0
 11
524.39259299
 21
1229.2999852
 31
0.0
  0
LINE
  8
0
  6
CONTINUOUS
 62
     2
 10
520.1199996
 20
1231.370537561
 30
0.0
 11
532.1199996
 21
1231.370537561
 31
0.0
  0
LINE
  8
0
  6
CONTINUOUS
 62
     2
 10
532.1199996
 20
1231.370537561
 30
0.0
 11
552.9199996
 21
1231.370537561
 31
0.0
  0
LINE
  8
0
  6
CONTINUOUS
 62
     2
 10
552.9199996
 20
1231.370537561
 30
0.0
 11
560.64740621
 21
1229.2999852
 31
0.0
  0
LINE
  8
0
  6
CONTINUOUS
 62
     2
 10
552.9199996
 20
1231.370537561
 30
0.0
 11
560.64740621
 21
1233.441089922
 31
0.0
  0
LINE
  8
0
  6
CONTINUOUS
 62
     2
 10
394.5199996
 20
1206.0999852
 30
0.0
 11
394.5199996
 21
1200.0999852
 31
0.0
  0
LINE
  8
0
  6
CONTINUOUS
 62
     2
 10
394.5199996
 20
1204.0999852
 30
0.0
 11
402.24740621
 21
1202.029432839
 31
0.0
  0
LINE
  8
0
  6
CONTINUOUS
 62
     2
 10
394.5199996
 20
1204.0999852
 30
0.0
 11
402.24740621
 21
1206.170537561
 31
0.0
  0
LINE
  8
0
  6
CONTINUOUS
 62
     2
 10
394.5199996
 20
1204.0999852
 30
0.0
 11
552.9199996
 21
1204.0999852
 31
0.0
  0
LINE
  8
0
  6
CONTINUOUS
 62
     2
 10
552.9199996
 20
1204.0999852
 30
0.0
 11
545.19259299
 21
1206.170537561
 31
0.0
  0
LINE
  8
0
  6
CONTINUOUS
 62
     2
 10
552.9199996
 20
1204.0999852
 30
0.0
 11
545.19259299
 21
1202.029432839
 31
0.0
  0
LINE
  8
0
  6
CONTINUOUS
 62
     2
 10
552.9199996
 20
1205.2999852
 30
0.0
 11
552.9199996
 21
1200.0999852
 31
0.0
  0
LINE
  8
0
  6
CONTINUOUS
 62
     2
 10
552.9199996
 20
1204.0999852
 30
0.0
 11
560.64740621
 21
1202.029432839
 31
0.0
  0
LINE
  8
0
  6
CONTINUOUS
 62
     2
 10
552.9199996
 20
1204.0999852
 30
0.0
 11
560.64740621
 21
1206.170537561
 31
0.0
  0
LINE
  8
0
  6
CONTINUOUS
 62
     2
 10
734.5199996
 20
1200.4999852
 30
0.0
 11
734.5199996
 21
1200.0999852
 31
0.0
  0
LINE
  8
0
  6
CONTINUOUS
 62
     2
 10
394.5199996
 20
1174.8999852
 30
0.0
 11
402.24740621
 21
1172.829432839
 31
0.0
  0
LINE
  8
0
  6
CONTINUOUS
 62
     2
 10
394.5199996
 20
1174.8999852
 30
0.0
 11
402.24740621
 21
1176.970537561
 31
0.0
  0
LINE
  8
0
  6
CONTINUOUS
 62
     2
 10
394.5199996
 20
1174.8999852
 30
0.0
 11
712.1199996
 21
1174.8999852
 31
0.0
  0
LINE
  8
0
  6
CONTINUOUS
 62
     2
 10
712.1199996
 20
1174.8999852
 30
0.0
 11
704.39259299
 21
1176.970537561
 31
0.0
  0
LINE
  8
0
  6
CONTINUOUS
 62
     2
 10
712.1199996
 20
1174.8999852
 30
0.0
 11
704.39259299
 21
1172.829432839
 31
0.0
  0
LINE
  8
0
  6
CONTINUOUS
 62
     2
 10
712.1199996
 20
1175.6999852
 30
0.0
 11
712.1199996
 21
1170.8999852
 31
0.0
  0
LINE
  8
0
  6
CONTINUOUS
 62
     2
 10
712.1199996
 20
1174.8999852
 30
0.0
 11
704.39259299
 21
1176.970537561
 31
0.0
  0
LINE
  8
0
  6
CONTINUOUS
 62
     2
 10
712.1199996
 20
1174.8999852
 30
0.0
 11
704.39259299
 21
1172.829432839
 31
0.0
  0
LINE
  8
0
  6
CONTINUOUS
 62
     2
 10
700.1199996
 20
1174.8999852
 30
0.0
 11
712.1199996
 21
1174.8999852
 31
0.0
  0
LINE
  8
0
  6
CONTINUOUS
 62
     2
 10
712.1199996
 20
1174.8999852
 30
0.0
 11
734.5199996
 21
1174.8999852
 31
0.0
  0
LINE
  8
0
  6
CONTINUOUS
 62
     2
 10
734.5199996
 20
1174.8999852
 30
0.0
 11
742.24740621
 21
1172.829432839
 31
0.0
  0
LINE
  8
0
  6
CONTINUOUS
 62
     2
 10
734.5199996
 20
1174.8999852
 30
0.0
 11
742.24740621
 21
1176.970537561
 31
0.0
  0
LINE
  8
0
  6
CONTINUOUS
 62
     2
 10
394.5199996
 20
1268.4999852
 30
0.0
 11
394.5199996
 21
1253.6999852
 31
0.0
  0
LINE
  8
0
  6
CONTINUOUS
 62
     2
 10
734.5199996
 20
1268.4999852
 30
0.0
 11
734.5199996
 21
1253.6999852
 31
0.0
  0
LINE
  8
0
  6
CONTINUOUS
 62
     2
 10
532.1199996
 20
1257.2999852
 30
0.0
 11
532.1199996
 21
1268.4999852
 31
0.0
  0
LINE
  8
0
  6
CONTINUOUS
 62
     2
 10
552.9199996
 20
1244.170537561
 30
0.0
 11
552.9199996
 21
1227.370537561
 31
0.0
  0
LINE
  8
0
  6
CONTINUOUS
 62
     2
 10
394.5199996
 20
1253.6999852
 30
0.0
 11
394.5199996
 21
1161.6999852
 31
0.0
  0
LINE
  8
0
  6
CONTINUOUS
 62
     2
 10
734.5199996
 20
1257.6999852
 30
0.0
 11
734.5199996
 21
1162.8999852
 31
0.0
  0
LINE
  8
0
  6
CONTINUOUS
 62
     2
 10
552.9199996
 20
1231.370537561
 30
0.0
 11
552.9199996
 21
1194.8999852
 31
0.0
  0
LINE
  8
0
  6
CONTINUOUS
 62
     2
 10
532.1199996
 20
1257.6999852
 30
0.0
 11
532.1199996
 21
1222.0999852
 31
0.0
  0
TEXT
  8
0
  6
CONTINUOUS
 62
     3
 10
436.3199996
 20
1259.6999852
 30
0.0
 40
15.0
  1
ｍｉｎ．Ｌ
 50
0.0
 41
0.9
 51
0.0
  7
KANJI27
  0
TEXT
  8
0
  6
CONTINUOUS
 62
     3
 10
590.1199996
 20
1259.6999852
 30
0.0
 40
15.0
  1
機械的ストローク
 50
0.0
 41
0.9
 51
0.0
  7
KANJI27
  0
TEXT
  8
0
  6
CONTINUOUS
 62
     3
 10
564.9199996
 20
1233.370537561
 30
0.0
 40
15.0
  1
余裕
 50
0.0
 41
0.9
 51
0.0
  7
KANJI27
  0
TEXT
  8
0
  6
CONTINUOUS
 62
     3
 10
446.7199996
 20
1206.0999852
 30
0.0
 40
15.0
  1
常用ｍｉｎ
 50
0.0
 41
0.9
 51
0.0
  7
KANJI27
  0
TEXT
  8
0
  6
CONTINUOUS
 62
     3
 10
526.3199996
 20
1176.8999852
 30
0.0
 40
15.0
  1
常用ｍａｘ
 50
0.0
 41
0.9
 51
0.0
  7
KANJI27
  0
TEXT
  8
0
  6
CONTINUOUS
 62
     3
 10
746.5199996
 20
1176.8999852
 30
0.0
 40
15.0
  1
余裕
 50
0.0
 41
0.9
 51
0.0
  7
KANJI27
  0
LINE
  8
0
  6
CONTINUOUS
 62
     2
 10
552.9199996
 20
1231.370537561
 30
0.0
 11
593.0199996
 21
1231.370537561
 31
0.0
  0
LINE
  8
0
  6
CONTINUOUS
 62
     2
 10
734.5199996
 20
1174.8999852
 30
0.0
 11
777.0199996
 21
1174.8999852
 31
0.0
  0
LINE
  8
0
  6
CONTINUOUS
 62
     1
 10
1014.12
 20
1511.24
 30
0.0
 11
1791.72
 21
1511.24
 31
0.0
  0
LINE
  8
0
  6
CONTINUOUS
 62
     1
 10
1014.12
 20
1477.64
 30
0.0
 11
1791.72
 21
1477.64
 31
0.0
  0
TEXT
  8
0
  6
CONTINUOUS
 62
     2
 10
1062.12
 20
1487.24
 30
1.536
 40
15.36
  1
形
 50
0.0
 41
0.9
 51
0.0
  7
KANJI45
  0
TEXT
  8
0
  6
CONTINUOUS
 62
     2
 10
1155.72
 20
1487.24
 30
1.536
 40
15.36
  1
式
 50
0.0
 41
0.9
 51
0.0
  7
KANJI45
  0
TEXT
  8
0
  6
CONTINUOUS
 62
     2
 10
1228.2
 20
1486.28
 30
1.44
 40
14.4
  1
ストローク
 50
0.0
 41
0.9
 51
0.0
  7
KANJI46
  0
TEXT
  8
0
  6
CONTINUOUS
 62
     2
 10
1320.36
 20
1485.32
 30
0.0
 40
14.4
  1
ｍｉｎ　
 50
0.0
 41
0.9
 51
0.0
  7
KANJI47
  0
TEXT
  8
0
  6
CONTINUOUS
 62
     2
 10
1416.36
 20
1485.32
 30
0.0
 40
14.4
  1
ｍｉｎ　
 50
0.0
 41
0.9
 51
0.0
  7
KANJI47
  0
TEXT
  8
0
  6
CONTINUOUS
 62
     2
 10
1608.36
 20
1485.32
 30
0.0
 40
14.4
  1
ｍｉｎ　
 50
0.0
 41
0.9
 51
0.0
  7
KANJI47
  0
TEXT
  8
0
  6
CONTINUOUS
 62
     2
 10
1369.32
 20
1486.28
 30
1.68
 40
16.8
  1
ＡＬ
 50
0.0
 41
0.9
 51
0.0
  7
KANJI48
  0
TEXT
  8
0
  6
CONTINUOUS
 62
     2
 10
1465.32
 20
1486.28
 30
1.68
 40
16.8
  1
Ｌ
 50
0.0
 41
0.9
 51
0.0
  7
KANJI48
  0
TEXT
  8
0
  6
CONTINUOUS
 62
     2
 10
1546.92
 20
1486.28
 30
1.68
 40
16.8
  1
Ｃ
 50
0.0
 41
0.9
 51
0.0
  7
KANJI48
  0
TEXT
  8
0
  6
CONTINUOUS
 62
     2
 10
1657.32
 20
1486.28
 30
1.68
 40
16.8
  1
Ｐ
 50
0.0
 41
0.9
 51
0.0
  7
KANJI48
  0
TEXT
  8
0
  6
CONTINUOUS
 62
     2
 10
1756.08
 20
1485.92
 30
0.0
 40
12.96
  1
（ｋｇ）
 50
0.0
 41
0.740740741
 51
0.0
  7
KANJI49
  0
TEXT
  8
0
  6
CONTINUOUS
 62
     2
 10
1698.48
 20
1485.68
 30
1.44
 40
16.8
  1
概算重量
 50
0.0
 41
0.857142857
 51
0.0
  7
KANJI50
  0
TEXT
  8
0
  6
CONTINUOUS
 62
     2
 10
1237.32
 20
1454.08
 30
1.44
 40
14.4
  1
　２００
 50
0.0
 41
0.9
 51
0.0
  7
KANJI46
  0
TEXT
  8
0
  6
CONTINUOUS
 62
     2
 10
1621.32
 20
1454.08
 30
1.44
 40
14.4
  1
　　４５
 50
0.0
 41
0.9
 51
0.0
  7
KANJI46
  0
LINE
  8
0
  6
CONTINUOUS
 62
     2
 10
1014.12
 20
1446.04
 30
0.0
 11
1791.72
 21
1446.04
 31
0.0
  0
TEXT
  8
0
  6
CONTINUOUS
 62
     2
 10
1525.32
 20
1454.08
 30
1.44
 40
14.4
  1
　５１０
 50
0.0
 41
0.9
 51
0.0
  7
KANJI46
  0
TEXT
  8
0
  6
CONTINUOUS
 62
     2
 10
1429.32
 20
1454.08
 30
1.44
 40
14.4
  1
　６２５
 50
0.0
 41
0.9
 51
0.0
  7
KANJI46
  0
TEXT
  8
0
  6
CONTINUOUS
 62
     2
 10
1333.32
 20
1454.08
 30
1.44
 40
14.4
  1
　８５０
 50
0.0
 41
0.9
 51
0.0
  7
KANJI46
  0
TEXT
  8
0
  6
CONTINUOUS
 62
     2
 10
1237.32
 20
1422.48
 30
1.44
 40
14.4
  1
　３００
 50
0.0
 41
0.9
 51
0.0
  7
KANJI46
  0
TEXT
  8
0
  6
CONTINUOUS
 62
     2
 10
1621.32
 20
1422.48
 30
1.44
 40
14.4
  1
　　４５
 50
0.0
 41
0.9
 51
0.0
  7
KANJI46
  0
LINE
  8
0
  6
CONTINUOUS
 62
     2
 10
1014.12
 20
1414.44
 30
0.0
 11
1791.72
 21
1414.44
 31
0.0
  0
TEXT
  8
0
  6
CONTINUOUS
 62
     2
 10
1525.32
 20
1422.48
 30
1.44
 40
14.4
  1
　６１０
 50
0.0
 41
0.9
 51
0.0
  7
KANJI46
  0
TEXT
  8
0
  6
CONTINUOUS
 62
     2
 10
1429.32
 20
1422.48
 30
1.44
 40
14.4
  1
　７２５
 50
0.0
 41
0.9
 51
0.0
  7
KANJI46
  0
TEXT
  8
0
  6
CONTINUOUS
 62
     2
 10
1333.32
 20
1422.48
 30
1.44
 40
14.4
  1
　９５０
 50
0.0
 41
0.9
 51
0.0
  7
KANJI46
  0
TEXT
  8
0
  6
CONTINUOUS
 62
     2
 10
1237.32
 20
1390.88
 30
1.44
 40
14.4
  1
　４００
 50
0.0
 41
0.9
 51
0.0
  7
KANJI46
  0
LINE
  8
0
  6
CONTINUOUS
 62
     2
 10
1014.12
 20
1382.84
 30
0.0
 11
1791.72
 21
1382.84
 31
0.0
  0
TEXT
  8
0
  6
CONTINUOUS
 62
     2
 10
1525.32
 20
1390.88
 30
1.44
 40
14.4
  1
　７１０
 50
0.0
 41
0.9
 51
0.0
  7
KANJI46
  0
TEXT
  8
0
  6
CONTINUOUS
 62
     2
 10
1237.32
 20
1359.28
 30
1.44
 40
14.4
  1
　５００
 50
0.0
 41
0.9
 51
0.0
  7
KANJI46
  0
LINE
  8
0
  6
CONTINUOUS
 62
     2
 10
1014.12
 20
1351.24
 30
0.0
 11
1791.72
 21
1351.24
 31
0.0
  0
TEXT
  8
0
  6
CONTINUOUS
 62
     2
 10
1525.32
 20
1359.28
 30
1.44
 40
14.4
  1
　８１０
 50
0.0
 41
0.9
 51
0.0
  7
KANJI46
  0
LINE
  8
0
  6
CONTINUOUS
 62
     2
 10
1014.12
 20
1319.64
 30
0.0
 11
1791.72
 21
1319.64
 31
0.0
  0
TEXT
  8
0
  6
CONTINUOUS
 62
     2
 10
1237.32
 20
1327.68
 30
1.44
 40
14.4
  1
　６００
 50
0.0
 41
0.9
 51
0.0
  7
KANJI46
  0
TEXT
  8
0
  6
CONTINUOUS
 62
     2
 10
1525.32
 20
1327.68
 30
1.44
 40
14.4
  1
　９５０
 50
0.0
 41
0.9
 51
0.0
  7
KANJI46
  0
LINE
  8
0
  6
CONTINUOUS
 62
     2
 10
1014.12
 20
1288.04
 30
0.0
 11
1791.72
 21
1288.04
 31
0.0
  0
TEXT
  8
0
  6
CONTINUOUS
 62
     2
 10
1237.32
 20
1296.08
 30
1.44
 40
14.4
  1
　７００
 50
0.0
 41
0.9
 51
0.0
  7
KANJI46
  0
TEXT
  8
0
  6
CONTINUOUS
 62
     2
 10
1525.32
 20
1296.08
 30
1.44
 40
14.4
  1
１０５０
 50
0.0
 41
0.9
 51
0.0
  7
KANJI46
  0
LINE
  8
0
  6
CONTINUOUS
 62
     2
 10
1014.12
 20
1256.44
 30
0.0
 11
1791.72
 21
1256.44
 31
0.0
  0
TEXT
  8
0
  6
CONTINUOUS
 62
     2
 10
1237.32
 20
1264.48
 30
1.44
 40
14.4
  1
　８００
 50
0.0
 41
0.9
 51
0.0
  7
KANJI46
  0
TEXT
  8
0
  6
CONTINUOUS
 62
     2
 10
1525.32
 20
1264.48
 30
1.44
 40
14.4
  1
１１５０
 50
0.0
 41
0.9
 51
0.0
  7
KANJI46
  0
LINE
  8
0
  6
CONTINUOUS
 62
     2
 10
1014.12
 20
1224.84
 30
0.0
 11
1791.72
 21
1224.84
 31
0.0
  0
TEXT
  8
0
  6
CONTINUOUS
 62
     2
 10
1237.32
 20
1232.88
 30
1.44
 40
14.4
  1
　９００
 50
0.0
 41
0.9
 51
0.0
  7
KANJI46
  0
TEXT
  8
0
  6
CONTINUOUS
 62
     2
 10
1525.32
 20
1232.88
 30
1.44
 40
14.4
  1
１２５０
 50
0.0
 41
0.9
 51
0.0
  7
KANJI46
  0
TEXT
  8
0
  6
CONTINUOUS
 62
     2
 10
1237.32
 20
1201.28
 30
1.44
 40
14.4
  1
１０００
 50
0.0
 41
0.9
 51
0.0
  7
KANJI46
  0
TEXT
  8
0
  6
CONTINUOUS
 62
     2
 10
1525.32
 20
1201.28
 30
1.44
 40
14.4
  1
１３５０
 50
0.0
 41
0.9
 51
0.0
  7
KANJI46
  0
LINE
  8
0
  6
CONTINUOUS
 62
     2
 10
1014.12
 20
1193.24
 30
0.0
 11
1791.72
 21
1193.24
 31
0.0
  0
LINE
  8
0
  6
CONTINUOUS
 62
     2
 10
1014.12
 20
1161.64
 30
0.0
 11
1791.72
 21
1161.64
 31
0.0
  0
LINE
  8
0
  6
CONTINUOUS
 62
     2
 10
1014.12
 20
1130.04
 30
0.0
 11
1791.72
 21
1130.04
 31
0.0
  0
LINE
  8
0
  6
CONTINUOUS
 62
     2
 10
1014.12
 20
1098.44
 30
0.0
 11
1791.72
 21
1098.44
 31
0.0
  0
LINE
  8
0
  6
CONTINUOUS
 62
     2
 10
1014.12
 20
1066.84
 30
0.0
 11
1791.72
 21
1066.84
 31
0.0
  0
LINE
  8
0
  6
CONTINUOUS
 62
     2
 10
1014.12
 20
1035.24
 30
0.0
 11
1791.72
 21
1035.24
 31
0.0
  0
LINE
  8
0
  6
CONTINUOUS
 62
     1
 10
1014.12
 20
1003.64
 30
0.0
 11
1791.72
 21
1003.64
 31
0.0
  0
LINE
  8
0
  6
CONTINUOUS
 62
     1
 10
1791.72
 20
1511.24
 30
0.0
 11
1791.72
 21
1003.64
 31
0.0
  0
LINE
  8
0
  6
CONTINUOUS
 62
     1
 10
1014.12
 20
1511.24
 30
0.0
 11
1014.12
 21
1003.64
 31
0.0
  0
LINE
  8
0
  6
CONTINUOUS
 62
     1
 10
1215.72
 20
1511.24
 30
0.0
 11
1215.72
 21
1003.64
 31
0.0
  0
LINE
  8
0
  6
CONTINUOUS
 62
     2
 10
1311.72
 20
1511.24
 30
0.0
 11
1311.72
 21
1003.64
 31
0.0
  0
LINE
  8
0
  6
CONTINUOUS
 62
     2
 10
1407.72
 20
1511.24
 30
0.0
 11
1407.72
 21
1003.64
 31
0.0
  0
LINE
  8
0
  6
CONTINUOUS
 62
     2
 10
1503.72
 20
1511.24
 30
0.0
 11
1503.72
 21
1003.64
 31
0.0
  0
LINE
  8
0
  6
CONTINUOUS
 62
     2
 10
1599.72
 20
1511.24
 30
0.0
 11
1599.72
 21
1003.64
 31
0.0
  0
LINE
  8
0
  6
CONTINUOUS
 62
     2
 10
1695.72
 20
1511.24
 30
0.0
 11
1695.72
 21
1003.64
 31
0.0
  0
TEXT
  8
0
  6
CONTINUOUS
 62
     2
 10
1237.32
 20
1169.68
 30
1.44
 40
14.4
  1
１１００
 50
0.0
 41
0.9
 51
0.0
  7
KANJI46
  0
TEXT
  8
0
  6
CONTINUOUS
 62
     2
 10
1237.32
 20
1138.08
 30
1.44
 40
14.4
  1
１２００
 50
0.0
 41
0.9
 51
0.0
  7
KANJI46
  0
TEXT
  8
0
  6
CONTINUOUS
 62
     2
 10
1237.32
 20
1106.48
 30
1.44
 40
14.4
  1
１３００
 50
0.0
 41
0.9
 51
0.0
  7
KANJI46
  0
TEXT
  8
0
  6
CONTINUOUS
 62
     2
 10
1237.32
 20
1074.88
 30
1.44
 40
14.4
  1
１４００
 50
0.0
 41
0.9
 51
0.0
  7
KANJI46
  0
TEXT
  8
0
  6
CONTINUOUS
 62
     2
 10
1237.32
 20
1043.28
 30
1.44
 40
14.4
  1
１５００
 50
0.0
 41
0.9
 51
0.0
  7
KANJI46
  0
TEXT
  8
0
  6
CONTINUOUS
 62
     2
 10
1525.32
 20
1169.68
 30
1.44
 40
14.4
  1
１４８０
 50
0.0
 41
0.9
 51
0.0
  7
KANJI46
  0
TEXT
  8
0
  6
CONTINUOUS
 62
     2
 10
1525.32
 20
1138.08
 30
1.44
 40
14.4
  1
１５８０
 50
0.0
 41
0.9
 51
0.0
  7
KANJI46
  0
TEXT
  8
0
  6
CONTINUOUS
 62
     2
 10
1525.32
 20
1106.48
 30
1.44
 40
14.4
  1
１６８０
 50
0.0
 41
0.9
 51
0.0
  7
KANJI46
  0
TEXT
  8
0
  6
CONTINUOUS
 62
     2
 10
1525.32
 20
1074.88
 30
1.44
 40
14.4
  1
１７８０
 50
0.0
 41
0.9
 51
0.0
  7
KANJI46
  0
TEXT
  8
0
  6
CONTINUOUS
 62
     2
 10
1525.32
 20
1043.28
 30
1.44
 40
14.4
  1
１８８０
 50
0.0
 41
0.9
 51
0.0
  7
KANJI46
  0
TEXT
  8
0
  6
CONTINUOUS
 62
     2
 10
1621.32
 20
1390.88
 30
1.44
 40
14.4
  1
　　８５
 50
0.0
 41
0.9
 51
0.0
  7
KANJI46
  0
TEXT
  8
0
  6
CONTINUOUS
 62
     2
 10
1621.32
 20
1359.28
 30
1.44
 40
14.4
  1
　１１２
 50
0.0
 41
0.9
 51
0.0
  7
KANJI46
  0
TEXT
  8
0
  6
CONTINUOUS
 62
     2
 10
1621.32
 20
1327.68
 30
1.44
 40
14.4
  1
　１２８
 50
0.0
 41
0.9
 51
0.0
  7
KANJI46
  0
TEXT
  8
0
  6
CONTINUOUS
 62
     2
 10
1621.32
 20
1296.08
 30
1.44
 40
14.4
  1
　１４８
 50
0.0
 41
0.9
 51
0.0
  7
KANJI46
  0
TEXT
  8
0
  6
CONTINUOUS
 62
     2
 10
1621.32
 20
1264.48
 30
1.44
 40
14.4
  1
　１６８
 50
0.0
 41
0.9
 51
0.0
  7
KANJI46
  0
TEXT
  8
0
  6
CONTINUOUS
 62
     2
 10
1621.32
 20
1232.88
 30
1.44
 40
14.4
  1
　１９８
 50
0.0
 41
0.9
 51
0.0
  7
KANJI46
  0
TEXT
  8
0
  6
CONTINUOUS
 62
     2
 10
1621.32
 20
1201.28
 30
1.44
 40
14.4
  1
　２３１
 50
0.0
 41
0.9
 51
0.0
  7
KANJI46
  0
TEXT
  8
0
  6
CONTINUOUS
 62
     2
 10
1621.32
 20
1169.68
 30
1.44
 40
14.4
  1
　２４５
 50
0.0
 41
0.9
 51
0.0
  7
KANJI46
  0
TEXT
  8
0
  6
CONTINUOUS
 62
     2
 10
1621.32
 20
1138.08
 30
1.44
 40
14.4
  1
　２６８
 50
0.0
 41
0.9
 51
0.0
  7
KANJI46
  0
TEXT
  8
0
  6
CONTINUOUS
 62
     2
 10
1621.32
 20
1106.48
 30
1.44
 40
14.4
  1
　２８８
 50
0.0
 41
0.9
 51
0.0
  7
KANJI46
  0
TEXT
  8
0
  6
CONTINUOUS
 62
     2
 10
1621.32
 20
1074.88
 30
1.44
 40
14.4
  1
　３１０
 50
0.0
 41
0.9
 51
0.0
  7
KANJI46
  0
TEXT
  8
0
  6
CONTINUOUS
 62
     2
 10
1621.32
 20
1043.28
 30
1.44
 40
14.4
  1
　３５０
 50
0.0
 41
0.9
 51
0.0
  7
KANJI46
  0
TEXT
  8
0
  6
CONTINUOUS
 62
     2
 10
1429.32
 20
1390.88
 30
1.44
 40
14.4
  1
　８６５
 50
0.0
 41
0.9
 51
0.0
  7
KANJI46
  0
TEXT
  8
0
  6
CONTINUOUS
 62
     2
 10
1429.32
 20
1359.28
 30
1.44
 40
14.4
  1
　９９２
 50
0.0
 41
0.9
 51
0.0
  7
KANJI46
  0
TEXT
  8
0
  6
CONTINUOUS
 62
     2
 10
1429.32
 20
1327.68
 30
1.44
 40
14.4
  1
１１４８
 50
0.0
 41
0.9
 51
0.0
  7
KANJI46
  0
TEXT
  8
0
  6
CONTINUOUS
 62
     2
 10
1429.32
 20
1296.08
 30
1.44
 40
14.4
  1
１２６８
 50
0.0
 41
0.9
 51
0.0
  7
KANJI46
  0
TEXT
  8
0
  6
CONTINUOUS
 62
     2
 10
1429.32
 20
1264.48
 30
1.44
 40
14.4
  1
１３８８
 50
0.0
 41
0.9
 51
0.0
  7
KANJI46
  0
TEXT
  8
0
  6
CONTINUOUS
 62
     2
 10
1429.32
 20
1232.88
 30
1.44
 40
14.4
  1
１５１８
 50
0.0
 41
0.9
 51
0.0
  7
KANJI46
  0
TEXT
  8
0
  6
CONTINUOUS
 62
     2
 10
1429.32
 20
1201.28
 30
1.44
 40
14.4
  1
１６５１
 50
0.0
 41
0.9
 51
0.0
  7
KANJI46
  0
TEXT
  8
0
  6
CONTINUOUS
 62
     2
 10
1429.32
 20
1169.68
 30
1.44
 40
14.4
  1
１７９５
 50
0.0
 41
0.9
 51
0.0
  7
KANJI46
  0
TEXT
  8
0
  6
CONTINUOUS
 62
     2
 10
1429.32
 20
1138.08
 30
1.44
 40
14.4
  1
１９１９
 50
0.0
 41
0.9
 51
0.0
  7
KANJI46
  0
TEXT
  8
0
  6
CONTINUOUS
 62
     2
 10
1429.32
 20
1106.48
 30
1.44
 40
14.4
  1
２０３８
 50
0.0
 41
0.9
 51
0.0
  7
KANJI46
  0
TEXT
  8
0
  6
CONTINUOUS
 62
     2
 10
1429.32
 20
1074.88
 30
1.44
 40
14.4
  1
２１６０
 50
0.0
 41
0.9
 51
0.0
  7
KANJI46
  0
TEXT
  8
0
  6
CONTINUOUS
 62
     2
 10
1429.32
 20
1043.28
 30
1.44
 40
14.4
  1
２３００
 50
0.0
 41
0.9
 51
0.0
  7
KANJI46
  0
TEXT
  8
0
  6
CONTINUOUS
 62
     2
 10
1333.32
 20
1390.88
 30
1.44
 40
14.4
  1
１０９０
 50
0.0
 41
0.9
 51
0.0
  7
KANJI46
  0
TEXT
  8
0
  6
CONTINUOUS
 62
     2
 10
1333.32
 20
1359.28
 30
1.44
 40
14.4
  1
１２１７
 50
0.0
 41
0.9
 51
0.0
  7
KANJI46
  0
TEXT
  8
0
  6
CONTINUOUS
 62
     2
 10
1333.32
 20
1327.68
 30
1.44
 40
14.4
  1
１３７３
 50
0.0
 41
0.9
 51
0.0
  7
KANJI46
  0
TEXT
  8
0
  6
CONTINUOUS
 62
     2
 10
1333.32
 20
1296.08
 30
1.44
 40
14.4
  1
１４９３
 50
0.0
 41
0.9
 51
0.0
  7
KANJI46
  0
TEXT
  8
0
  6
CONTINUOUS
 62
     2
 10
1333.32
 20
1264.48
 30
1.44
 40
14.4
  1
１６１３
 50
0.0
 41
0.9
 51
0.0
  7
KANJI46
  0
TEXT
  8
0
  6
CONTINUOUS
 62
     2
 10
1333.32
 20
1232.88
 30
1.44
 40
14.4
  1
１７４３
 50
0.0
 41
0.9
 51
0.0
  7
KANJI46
  0
TEXT
  8
0
  6
CONTINUOUS
 62
     2
 10
1333.32
 20
1201.28
 30
1.44
 40
14.4
  1
１８７６
 50
0.0
 41
0.9
 51
0.0
  7
KANJI46
  0
TEXT
  8
0
  6
CONTINUOUS
 62
     2
 10
1333.32
 20
1169.68
 30
1.44
 40
14.4
  1
２０２０
 50
0.0
 41
0.9
 51
0.0
  7
KANJI46
  0
TEXT
  8
0
  6
CONTINUOUS
 62
     2
 10
1333.32
 20
1138.08
 30
1.44
 40
14.4
  1
２１４４
 50
0.0
 41
0.9
 51
0.0
  7
KANJI46
  0
TEXT
  8
0
  6
CONTINUOUS
 62
     2
 10
1333.32
 20
1106.48
 30
1.44
 40
14.4
  1
２２６３
 50
0.0
 41
0.9
 51
0.0
  7
KANJI46
  0
TEXT
  8
0
  6
CONTINUOUS
 62
     2
 10
1333.32
 20
1074.88
 30
1.44
 40
14.4
  1
２３８５
 50
0.0
 41
0.9
 51
0.0
  7
KANJI46
  0
TEXT
  8
0
  6
CONTINUOUS
 62
     2
 10
1333.32
 20
1043.28
 30
1.44
 40
14.4
  1
２５２５
 50
0.0
 41
0.9
 51
0.0
  7
KANJI46
  0
LINE
  8
0
  6
CONTINUOUS
 62
     2
 10
1103.55
 20
956.1
 30
0.0
 11
1091.475927171
 21
959.335238064
 31
0.0
  0
LINE
  8
0
  6
CONTINUOUS
 62
     2
 10
1103.55
 20
956.1
 30
0.0
 11
1091.475927171
 21
952.864761936
 31
0.0
  0
LINE
  8
0
  6
CONTINUOUS
 62
     2
 10
1103.55
 20
956.1
 30
0.0
 11
1062.55
 21
956.1
 31
0.0
  0
TEXT
  8
0
  6
CONTINUOUS
 62
     3
 10
1069.55
 20
966.1
 30
0.0
 40
20.0
  1
前進
 50
0.0
 41
0.925
 51
0.0
  7
KANJI32
  0
TEXT
  8
0
  6
CONTINUOUS
 62
     2
 10
1029.72
 20
1453.72
 30
0.96
 40
14.4
  1
ＭＣＬＤ４－　　２ＪＬ
 50
0.0
 41
0.833333333
 51
0.0
  7
KANJI51
  0
TEXT
  8
0
  6
CONTINUOUS
 62
     2
 10
1029.72
 20
1422.12
 30
0.96
 40
14.4
  1
ＭＣＬＤ４－　　３ＪＬ
 50
0.0
 41
0.833333333
 51
0.0
  7
KANJI51
  0
TEXT
  8
0
  6
CONTINUOUS
 62
     2
 10
1029.72
 20
1390.52
 30
0.96
 40
14.4
  1
ＭＣＬＤ４－　　４ＪＬ
 50
0.0
 41
0.833333333
 51
0.0
  7
KANJI51
  0
TEXT
  8
0
  6
CONTINUOUS
 62
     2
 10
1029.72
 20
1358.92
 30
0.96
 40
14.4
  1
ＭＣＬＤ４－　　５ＪＬ
 50
0.0
 41
0.833333333
 51
0.0
  7
KANJI51
  0
TEXT
  8
0
  6
CONTINUOUS
 62
     2
 10
1029.72
 20
1327.32
 30
0.96
 40
14.4
  1
ＭＣＬＤ４－　　６ＪＬ
 50
0.0
 41
0.833333333
 51
0.0
  7
KANJI51
  0
TEXT
  8
0
  6
CONTINUOUS
 62
     2
 10
1029.72
 20
1295.72
 30
0.96
 40
14.4
  1
ＭＣＬＤ４－　　７ＪＬ
 50
0.0
 41
0.833333333
 51
0.0
  7
KANJI51
  0
TEXT
  8
0
  6
CONTINUOUS
 62
     2
 10
1029.72
 20
1264.12
 30
0.96
 40
14.4
  1
ＭＣＬＤ４－　　８ＪＬ
 50
0.0
 41
0.833333333
 51
0.0
  7
KANJI51
  0
TEXT
  8
0
  6
CONTINUOUS
 62
     2
 10
1029.72
 20
1232.52
 30
0.96
 40
14.4
  1
ＭＣＬＤ４－　　９ＪＬ
 50
0.0
 41
0.833333333
 51
0.0
  7
KANJI51
  0
TEXT
  8
0
  6
CONTINUOUS
 62
     2
 10
1029.72
 20
1200.92
 30
0.96
 40
14.4
  1
ＭＣＬＤ４－　１０ＪＬ
 50
0.0
 41
0.833333333
 51
0.0
  7
KANJI51
  0
TEXT
  8
0
  6
CONTINUOUS
 62
     2
 10
1029.72
 20
1169.32
 30
0.96
 40
14.4
  1
ＭＣＬＤ４－　１１ＪＬ
 50
0.0
 41
0.833333333
 51
0.0
  7
KANJI51
  0
TEXT
  8
0
  6
CONTINUOUS
 62
     2
 10
1029.72
 20
1137.72
 30
0.96
 40
14.4
  1
ＭＣＬＤ４－　１２ＪＬ
 50
0.0
 41
0.833333333
 51
0.0
  7
KANJI51
  0
TEXT
  8
0
  6
CONTINUOUS
 62
     2
 10
1029.72
 20
1106.12
 30
0.96
 40
14.4
  1
ＭＣＬＤ４－　１３ＪＬ
 50
0.0
 41
0.833333333
 51
0.0
  7
KANJI51
  0
TEXT
  8
0
  6
CONTINUOUS
 62
     2
 10
1029.72
 20
1074.52
 30
0.96
 40
14.4
  1
ＭＣＬＤ４－　１４ＪＬ
 50
0.0
 41
0.833333333
 51
0.0
  7
KANJI51
  0
TEXT
  8
0
  6
CONTINUOUS
 62
     2
 10
1029.72
 20
1042.92
 30
0.96
 40
14.4
  1
ＭＣＬＤ４－　１５ＪＬ
 50
0.0
 41
0.833333333
 51
0.0
  7
KANJI51
  0
TEXT
  8
0
  6
CONTINUOUS
 62
     2
 10
1029.72
 20
1011.32
 30
0.96
 40
14.4
  1
ＭＣＬＤ４－　　　ＪＬ
 50
0.0
 41
0.833333333
 51
0.0
  7
KANJI51
  0
TEXT
  8
0
  6
CONTINUOUS
 62
     2
 10
1717.32
 20
1454.08
 30
1.44
 40
14.4
  1
　９１
 50
0.0
 41
0.9
 51
0.0
  7
KANJI46
  0
TEXT
  8
0
  6
CONTINUOUS
 62
     2
 10
1717.32
 20
1422.48
 30
1.44
 40
14.4
  1
　９３
 50
0.0
 41
0.9
 51
0.0
  7
KANJI46
  0
TEXT
  8
0
  6
CONTINUOUS
 62
     2
 10
1717.32
 20
1390.88
 30
1.44
 40
14.4
  1
　９７
 50
0.0
 41
0.9
 51
0.0
  7
KANJI46
  0
TEXT
  8
0
  6
CONTINUOUS
 62
     2
 10
1717.32
 20
1359.28
 30
1.44
 40
14.4
  1
１０２
 50
0.0
 41
0.9
 51
0.0
  7
KANJI46
  0
TEXT
  8
0
  6
CONTINUOUS
 62
     2
 10
1717.32
 20
1327.68
 30
1.44
 40
14.4
  1
１０８
 50
0.0
 41
0.9
 51
0.0
  7
KANJI46
  0
TEXT
  8
0
  6
CONTINUOUS
 62
     2
 10
1717.32
 20
1296.08
 30
1.44
 40
14.4
  1
１１２
 50
0.0
 41
0.9
 51
0.0
  7
KANJI46
  0
TEXT
  8
0
  6
CONTINUOUS
 62
     2
 10
1717.32
 20
1264.48
 30
1.44
 40
14.4
  1
１１５
 50
0.0
 41
0.9
 51
0.0
  7
KANJI46
  0
TEXT
  8
0
  6
CONTINUOUS
 62
     2
 10
1717.32
 20
1232.88
 30
1.44
 40
14.4
  1
１１９
 50
0.0
 41
0.9
 51
0.0
  7
KANJI46
  0
TEXT
  8
0
  6
CONTINUOUS
 62
     2
 10
1717.32
 20
1201.28
 30
1.44
 40
14.4
  1
１２４
 50
0.0
 41
0.9
 51
0.0
  7
KANJI46
  0
TEXT
  8
0
  6
CONTINUOUS
 62
     2
 10
1717.32
 20
1169.68
 30
1.44
 40
14.4
  1
１２８
 50
0.0
 41
0.9
 51
0.0
  7
KANJI46
  0
TEXT
  8
0
  6
CONTINUOUS
 62
     2
 10
1717.32
 20
1138.08
 30
1.44
 40
14.4
  1
１３２
 50
0.0
 41
0.9
 51
0.0
  7
KANJI46
  0
TEXT
  8
0
  6
CONTINUOUS
 62
     2
 10
1717.32
 20
1106.48
 30
1.44
 40
14.4
  1
１３６
 50
0.0
 41
0.9
 51
0.0
  7
KANJI46
  0
TEXT
  8
0
  6
CONTINUOUS
 62
     2
 10
1717.32
 20
1074.88
 30
1.44
 40
14.4
  1
１４０
 50
0.0
 41
0.9
 51
0.0
  7
KANJI46
  0
TEXT
  8
0
  6
CONTINUOUS
 62
     2
 10
1717.32
 20
1043.28
 30
1.44
 40
14.4
  1
１４５
 50
0.0
 41
0.9
 51
0.0
  7
KANJI46
  0
LINE
  8
0
  6
CONTINUOUS
 62
     1
 10
289.2199996
 20
729.4999852
 30
0.0
 11
289.2199996
 21
659.4999852
 31
0.0
  0
TEXT
  8
0
  6
CONTINUOUS
 62
     2
 10
294.2199996
 20
718.4999852
 30
5.0
 40
20.0
  1
銘板
 50
270.0
 41
0.925
 51
0.0
  7
KANJI52
  0
LINE
  8
0
  6
CONTINUOUS
 62
     1
 10
332.2199996
 20
729.4999852
 30
0.0
 11
289.2199996
 21
729.4999852
 31
0.0
  0
LINE
  8
0
  6
CONTINUOUS
 62
     1
 10
332.2199996
 20
659.4999852
 30
0.0
 11
289.2199996
 21
659.4999852
 31
0.0
  0
LINE
  8
0
  6
CONTINUOUS
 62
     1
 10
332.2199996
 20
729.4999852
 30
0.0
 11
332.2199996
 21
659.4999852
 31
0.0
  0
ARC
  8
0
  6
CONTINUOUS
 62
     2
 10
178.7199996
 20
837.0999852
 30
0.0
 40
20.0
 50
231.952957468
 51
156.801409486
  0
LINE
  8
0
  6
CONTINUOUS
 62
     2
 10
160.337099
 20
844.978371172
 30
0.0
 11
162.63179171
 21
854.815809949
 31
0.0
  0
TEXT
  8
0
  6
CONTINUOUS
 62
     2
 10
98.337099
 20
827.978371172
 30
0.0
 40
15.0
  1
前進方向
 50
0.0
 41
0.9
 51
0.0
  7
KANJI27
  0
LINE
  8
0
  6
CONTINUOUS
 62
     2
 10
160.337099
 20
844.978371172
 30
0.0
 11
168.605260378
 21
849.885707707
 31
0.0
  0
LINE
  8
7
  6
CONTINUOUS
 62
     2
 10
212.5199996
 20
945.9999852
 30
0.0
 11
106.3199996
 21
945.9999852
 31
0.0
  0
TEXT
  8
7
  6
CONTINUOUS
 62
     2
 10
106.3199996
 20
951.9999852
 30
1.8
 40
18.0
  1
手動軸カバー
 50
0.0
 41
0.9
 51
0.0
  7
KANJI53
  0
TEXT
  8
7
  6
CONTINUOUS
 62
     2
 10
106.3199996
 20
921.9999852
 30
1.8
 40
18.0
  1
手動軸□１０
 50
0.0
 41
0.9
 51
0.0
  7
KANJI53
  0
LINE
  8
7
  6
CONTINUOUS
 62
     2
 10
227.5199996
 20
852.7999852
 30
0.0
 11
212.5199996
 21
945.9999852
 31
0.0
  0
LINE
  8
7
  6
CONTINUOUS
 62
     2
 10
227.5199996
 20
852.7999852
 30
0.0
 11
229.050684844
 21
867.721680904
 31
0.0
  0
LINE
  8
7
  6
CONTINUOUS
 62
     2
 10
227.5199996
 20
852.7999852
 30
0.0
 11
221.384764054
 21
866.487895369
 31
0.0
  0
LINE
  8
0
  6
CONTINUOUS
 62
     2
 10
712.1199996
 20
1215.9499852
 30
0.0
 11
712.1199996
 21
1162.0999852
 31
0.0
  0
LINE
  8
0
  6
CONTINUOUS
 62
     2
 10
552.9199996
 20
1204.0999852
 30
0.0
 11
712.1199996
 21
1204.0999852
 31
0.0
  0
LINE
  8
0
  6
CONTINUOUS
 62
     2
 10
712.1199996
 20
1204.0999852
 30
0.0
 11
704.39259299
 21
1206.170537561
 31
0.0
  0
LINE
  8
0
  6
CONTINUOUS
 62
     2
 10
712.1199996
 20
1204.0999852
 30
0.0
 11
704.39259299
 21
1202.029432839
 31
0.0
  0
TEXT
  8
0
  6
CONTINUOUS
 62
     3
 10
589.0899996
 20
1206.0999852
 30
0.0
 40
15.0
  1
常用ストローク
 50
0.0
 41
0.9
 51
0.0
  7
KANJI27
  0
LINE
  8
0
  6
CONTINUOUS
 62
     1
 10
1395.151962168
 20
774.708138002
 30
0.0
 11
1423.436233416
 21
746.423866754
 31
0.0
  0
ARC
  8
0
  6
CONTINUOUS
 62
     1
 10
1461.6199996
 20
837.4999852
 30
0.0
 40
71.0
 50
262.758527796
 51
0.0
  0
ARC
  8
0
  6
CONTINUOUS
 62
     1
 10
1374.398378141
 20
642.726657293
 30
0.0
 40
2.0
 50
135.0
 51
225.0
  0
LINE
  8
0
  6
CONTINUOUS
 62
     1
 10
1372.984164578
 20
644.140870856
 30
0.0
 11
1385.71208664
 21
656.868792917
 31
0.0
  0
LINE
  8
0
  6
CONTINUOUS
 62
     1
 10
1365.913096766
 20
679.496209915
 30
0.0
 11
1385.71208664
 21
659.697220042
 31
0.0
  0
ARC
  8
0
  6
CONTINUOUS
 62
     1
 10
1384.297873077
 20
658.283006479
 30
0.0
 40
2.0
 50
315.0
 51
45.0
  0
LINE
  8
0
  6
CONTINUOUS
 62
     1
 10
1365.913096766
 20
679.496209915
 30
0.0
 11
1374.949281376
 21
688.532394525
 31
0.0
  0
LINE
  8
0
  6
CONTINUOUS
 62
     1
 10
1471.979113944
 20
743.135820222
 30
0.0
 11
1459.251191883
 21
730.40789816
 31
0.0
  0
LINE
  8
0
  6
CONTINUOUS
 62
     1
 10
1436.623774885
 20
750.206888034
 30
0.0
 11
1456.422764758
 21
730.40789816
 31
0.0
  0
ARC
  8
0
  6
CONTINUOUS
 62
     1
 10
1457.836978321
 20
731.822111723
 30
0.0
 40
2.0
 50
225.0
 51
315.0
  0
LINE
  8
0
  6
CONTINUOUS
 62
     1
 10
1436.623774885
 20
750.206888034
 30
0.0
 11
1427.587590275
 21
741.170703424
 31
0.0
  0
ARC
  8
0
  6
CONTINUOUS
 62
     1
 10
1473.393327507
 20
741.721606659
 30
0.0
 40
2.0
 50
45.0
 51
135.0
  0
LINE
  8
0
  6
CONTINUOUS
 62
     1
 10
1474.807541069
 20
743.135820222
 30
0.0
 11
1493.19231738
 21
724.751043911
 31
0.0
  0
ARC
  8
0
  6
CONTINUOUS
 62
     1
 10
1461.6199996
 20
837.4999852
 30
0.0
 40
100.0
 50
279.969989864
 51
63.896118863
  0
LINE
  8
0
  6
CONTINUOUS
 62
     1
 10
1463.343278923
 20
734.4999852
 30
0.0
 11
1452.330677719
 21
734.4999852
 31
0.0
  0
LINE
  8
0
  6
CONTINUOUS
 62
     1
 10
1533.6199996
 20
734.4999852
 30
0.0
 11
1483.443376091
 21
734.4999852
 31
0.0
  0
ARC
  8
0
  6
CONTINUOUS
 62
     1
 10
1461.6199996
 20
837.4999852
 30
0.0
 40
100.0
 50
262.438585238
 51
272.774486522
  0
LINE
  8
0
  6
CONTINUOUS
 62
     1
 10
1366.6199996
 20
765.975165306
 30
0.0
 11
1366.6199996
 21
806.274995208
 31
0.0
  0
LINE
  8
0
  6
CONTINUOUS
 62
     1
 10
1366.6199996
 20
695.75986983
 30
0.0
 11
1366.6199996
 21
706.494179036
 31
0.0
  0
LINE
  8
0
  6
CONTINUOUS
 62
     2
 10
1349.5749924
 20
766.5449924
 30
0.0
 11
1349.593669044
 21
778.544977866
 31
0.0
  0
LINE
  8
0
  6
CONTINUOUS
 62
     2
 10
1349.5749924
 20
766.5449924
 30
0.0
 11
1343.591174115
 21
776.946622981
 31
0.0
  0
LINE
  8
0
  6
CONTINUOUS
 62
     2
 10
1349.5749924
 20
766.5449924
 30
0.0
 11
1303.4549924
 21
939.7449924
 31
0.0
  0
LINE
  8
0
  6
CONTINUOUS
 62
     2
 10
1303.4549924
 20
939.7449924
 30
0.0
 11
1173.8549924
 21
939.7449924
 31
0.0
  0
TEXT
  8
0
  6
CONTINUOUS
 62
     3
 10
1173.8549924
 20
948.7449924
 30
0.0
 40
18.0
  1
外部ＬＳ組付位置
 50
0.0
 41
0.9
 51
0.0
  7
KANJI24
  0
LINE
  8
0
  6
CONTINUOUS
 62
     2
 10
1432.37
 20
779.7
 30
0.0
 11
1444.340299935
 21
778.856246797
 31
0.0
  0
LINE
  8
0
  6
CONTINUOUS
 62
     2
 10
1432.37
 20
779.7
 30
0.0
 11
1443.158460436
 21
784.954438259
 31
0.0
  0
LINE
  8
0
  6
CONTINUOUS
 62
     2
 10
1724.06
 20
836.23
 30
0.0
 11
1837.46
 21
836.23
 31
0.0
  0
TEXT
  8
0
  6
CONTINUOUS
 62
     3
 10
1724.06
 20
845.23
 30
0.0
 40
18.0
  1
２－ＰＦ１／２
 50
0.0
 41
0.9
 51
0.0
  7
KANJI24
  0
LINE
  8
0
  6
CONTINUOUS
 62
     2
 10
1676.08
 20
826.931397374
 30
0.0
 11
1724.06
 21
836.23
 31
0.0
  0
LINE
  8
0
  6
CONTINUOUS
 62
     2
 10
1432.37
 20
779.7
 30
0.0
 11
1641.81
 21
820.289815215
 31
0.0
  0
LINE
  8
0
  6
CONTINUOUS
 62
     2
 10
930.244891696
 20
505.4999852
 30
0.0
 11
1215.1399996
 21
505.4999852
 31
0.0
  0
LINE
  8
0
  6
CONTINUOUS
 62
     2
 10
1209.1399996
 20
505.4999852
 30
0.0
 11
1212.245828141
 21
517.091095115
 31
0.0
  0
LINE
  8
0
  6
CONTINUOUS
 62
     2
 10
1209.1399996
 20
505.4999852
 30
0.0
 11
1206.034171059
 21
517.091095115
 31
0.0
  0
LINE
  8
0
  6
CONTINUOUS
 62
     2
 10
1209.1399996
 20
505.4999852
 30
0.0
 11
1209.1399996
 21
654.4999852
 31
0.0
  0
LINE
  8
0
  6
CONTINUOUS
 62
     2
 10
1209.1399996
 20
654.4999852
 30
0.0
 11
1206.034171059
 21
642.908875285
 31
0.0
  0
LINE
  8
0
  6
CONTINUOUS
 62
     2
 10
1209.1399996
 20
654.4999852
 30
0.0
 11
1212.245828141
 21
642.908875285
 31
0.0
  0
TEXT
  8
0
  6
CONTINUOUS
 62
     3
 10
1200.1399996
 20
555.6999852
 30
0.0
 40
18.0
  1
１４９
 50
90.0
 41
0.9
 51
0.0
  7
KANJI24
  0
LINE
  8
0
  6
CONTINUOUS
 62
     2
 10
1180.1199996
 20
654.4999852
 30
0.0
 11
1215.1399996
 21
654.4999852
 31
0.0
  0
LINE
  8
0
  6
LTYPE2
 62
     2
 10
445.87277302
 20
521.4999852
 30
0.0
 11
1051.3099996
 21
521.4999852
 31
0.0
  0
TEXT
  8
0
  6
CONTINUOUS
 62
     2
 10
1055.133
 20
1533.99
 30
1.617
 40
16.17
  1
注意：サーマルリレー等の選定は、上記の値で選定して下さい。
 50
0.0
 41
0.9
 51
0.0
  7
KANJI54
  0
LINE
  8
0
  6
CONTINUOUS
 62
     2
 10
1045.893
 20
1529.37
 30
0.0
 11
1520.28
 21
1529.37
 31
0.0
  0
LINE
  8
0
  6
CONTINUOUS
 62
     1
 10
873.6199996
 20
210.233959796
 30
0.0
 11
873.6199996
 21
192.733959796
 31
0.0
  0
TEXT
  8
0
  6
CONTINUOUS
 62
     2
 10
1648.5200334
 20
126.899994
 30
1.8
 40
21.0
  1
０７．１０．０５
 50
0.0
 41
0.571428571
 51
0.0
  7
KANJI55
  0
LINE
  8
0
  6
CONTINUOUS
 62
     2
 10
1873.92
 20
896.7
 30
0.0
 11
2398.92
 21
896.7
 31
0.0
  0
LINE
  8
0
  6
CONTINUOUS
 62
     2
 10
1873.92
 20
854.7
 30
0.0
 11
2398.92
 21
854.7
 31
0.0
  0
LINE
  8
0
  6
CONTINUOUS
 62
     2
 10
1921.92
 20
1232.7
 30
0.0
 11
1921.92
 21
896.7
 31
0.0
  0
TEXT
  8
0
  6
CONTINUOUS
 62
     2
 10
1906.92
 20
865.5
 30
79.962857143
 40
22.8
  1
付属品
 50
0.0
 41
0.9
 51
0.0
  7
KANJI56
  0
TEXT
  8
0
  6
CONTINUOUS
 62
     2
 10
1906.92
 20
823.5
 30
180.445714286
 40
22.8
  1
台数
 50
0.0
 41
0.9
 51
0.0
  7
KANJI57
  0
LINE
  8
0
  6
CONTINUOUS
 62
     1
 10
1873.92
 20
1628.7
 30
0.0
 11
2398.92
 21
1628.7
 31
0.0
  0
TEXT
  8
0
  6
CONTINUOUS
 62
     2
 10
1948.92
 20
1584.9
 30
17.09964
 40
27.0
  1
マイティシリンダ仕様
 50
0.0
 41
0.9
 51
0.0
  7
KANJI58
  0
LINE
  8
0
  6
CONTINUOUS
 62
     2
 10
1921.92
 20
938.7
 30
0.0
 11
2398.92
 21
938.7
 31
0.0
  0
LINE
  8
0
  6
CONTINUOUS
 62
     2
 10
1921.92
 20
1064.7
 30
0.0
 11
2398.92
 21
1064.7
 31
0.0
  0
LINE
  8
0
  6
CONTINUOUS
 62
     2
 10
1921.92
 20
1106.7
 30
0.0
 11
2398.92
 21
1106.7
 31
0.0
  0
LINE
  8
0
  6
CONTINUOUS
 62
     2
 10
1873.92
 20
1316.7
 30
0.0
 11
2398.92
 21
1316.7
 31
0.0
  0
LINE
  8
0
  6
CONTINUOUS
 62
     2
 10
1873.92
 20
1274.7
 30
0.0
 11
2398.92
 21
1274.7
 31
0.0
  0
LINE
  8
0
  6
CONTINUOUS
 62
     2
 10
1873.92
 20
1232.7
 30
0.0
 11
2398.92
 21
1232.7
 31
0.0
  0
LINE
  8
0
  6
CONTINUOUS
 62
     2
 10
1921.92
 20
1148.7
 30
0.0
 11
2398.92
 21
1148.7
 31
0.0
  0
LINE
  8
0
  6
CONTINUOUS
 62
     2
 10
1921.92
 20
1190.7
 30
0.0
 11
2398.92
 21
1190.7
 31
0.0
  0
LINE
  8
0
  6
CONTINUOUS
 62
     2
 10
1873.92
 20
1526.7
 30
0.0
 11
2398.92
 21
1526.7
 31
0.0
  0
LINE
  8
0
  6
CONTINUOUS
 62
     2
 10
1873.92
 20
1484.7
 30
0.0
 11
2398.92
 21
1484.7
 31
0.0
  0
LINE
  8
0
  6
CONTINUOUS
 62
     2
 10
1873.92
 20
1442.7
 30
0.0
 11
2398.92
 21
1442.7
 31
0.0
  0
LINE
  8
0
  6
CONTINUOUS
 62
     2
 10
1873.92
 20
1400.7
 30
0.0
 11
2398.92
 21
1400.7
 31
0.0
  0
LINE
  8
0
  6
CONTINUOUS
 62
     2
 10
1873.92
 20
1358.7
 30
0.0
 11
2398.92
 21
1358.7
 31
0.0
  0
LINE
  8
0
  6
CONTINUOUS
 62
     2
 10
1873.92
 20
1568.7
 30
0.0
 11
2398.92
 21
1568.7
 31
0.0
  0
TEXT
  8
0
  6
CONTINUOUS
 62
     2
 10
1948.92
 20
1159.5
 30
33.439782857
 40
22.8
  1
電源電圧
 50
0.0
 41
0.9
 51
0.0
  7
KANJI59
  0
TEXT
  8
0
  6
CONTINUOUS
 62
     2
 10
1948.92
 20
1117.5
 30
60.42
 40
22.8
  1
周波数
 50
0.0
 41
0.9
 51
0.0
  7
KANJI60
  0
TEXT
  8
0
  6
CONTINUOUS
 62
     2
 10
1948.92
 20
1075.5
 30
141.36
 40
22.8
  1
電流
 50
0.0
 41
0.9
 51
0.0
  7
KANJI61
  0
TEXT
  8
0
  6
CONTINUOUS
 62
     2
 10
1948.92
 20
1033.5
 30
60.42
 40
22.8
  1
絶縁級
 50
0.0
 41
0.9
 51
0.0
  7
KANJI60
  0
TEXT
  8
0
  6
CONTINUOUS
 62
     2
 10
1906.92
 20
1537.5
 30
180.445714286
 40
22.8
  1
形式
 50
0.0
 41
0.9
 51
0.0
  7
KANJI57
  0
TEXT
  8
0
  6
CONTINUOUS
 62
     2
 10
1906.92
 20
1495.5
 30
180.445714286
 40
22.8
  1
推力
 50
0.0
 41
0.9
 51
0.0
  7
KANJI57
  0
TEXT
  8
0
  6
CONTINUOUS
 62
     2
 10
1906.92
 20
1453.5
 30
29.721428571
 40
22.8
  1
ストローク
 50
0.0
 41
0.9
 51
0.0
  7
KANJI62
  0
TEXT
  8
0
  6
CONTINUOUS
 62
     2
 10
1906.92
 20
1327.5
 30
180.445714286
 40
22.8
  1
構造
 50
0.0
 41
0.9
 51
0.0
  7
KANJI57
  0
TEXT
  8
0
  6
CONTINUOUS
 62
     2
 10
1906.92
 20
1285.5
 30
12.973851429
 40
22.8
  1
過負荷安全装置
 50
0.0
 41
0.9
 51
0.0
  7
KANJI63
  0
TEXT
  8
0
  6
CONTINUOUS
 62
     2
 10
1906.92
 20
1243.5
 30
79.962857143
 40
22.8
  1
塗装色
 50
0.0
 41
0.9
 51
0.0
  7
KANJI56
  0
TEXT
  8
0
  6
CONTINUOUS
 62
     2
 10
1882.92
 20
1369.5
 30
1.954285714
 40
22.8
  1
ピストンロッド回転トルク
 50
0.0
 41
0.9
 51
0.0
  7
KANJI64
  0
LINE
  8
0
  6
CONTINUOUS
 62
     2
 10
1873.92
 20
1022.7
 30
0.0
 11
2398.92
 21
1022.7
 31
0.0
  0
LINE
  8
0
  6
CONTINUOUS
 62
     2
 10
1921.92
 20
980.7
 30
0.0
 11
2398.92
 21
980.7
 31
0.0
  0
TEXT
  8
0
  6
CONTINUOUS
 62
     2
 10
1898.37
 20
1226.7
 30
13.2
 40
21.0
  1
モ　トル仕様
 50
0.0
 41
0.9
 51
0.0
  7
KANJI65
  0
TEXT
  8
0
  6
CONTINUOUS
 62
     2
 10
1898.37
 20
1004.7
 30
1.2
 40
21.0
  1
ブレ　キ
 50
0.0
 41
0.9
 51
0.0
  7
KANJI66
  0
LINE
  8
0
  6
CONTINUOUS
 62
     2
 10
1896.72
 20
954.9
 30
0.0
 11
1896.72
 21
942.3
 31
0.0
  0
TEXT
  8
0
  6
CONTINUOUS
 62
     2
 10
2208.42
 20
1286.7
 30
9.0
 40
21.0
  1
推力リミッタ
 50
0.0
 41
0.9
 51
0.0
  7
KANJI67
  0
TEXT
  8
0
  6
CONTINUOUS
 62
     2
 10
2265.42
 20
1034.7
 30
1.8
 40
18.0
  1
Ｅ
 50
0.0
 41
0.9
 51
0.0
  7
KANJI68
  0
TEXT
  8
0
  6
CONTINUOUS
 62
     2
 10
2221.92
 20
949.5
 30
12.0
 40
21.0
  1
同時切り
 50
0.0
 41
0.9
 51
0.0
  7
KANJI69
  0
TEXT
  8
0
  6
CONTINUOUS
 62
     2
 10
1948.92
 20
991.5
 30
141.36
 40
22.8
  1
形式
 50
0.0
 41
0.9
 51
0.0
  7
KANJI61
  0
TEXT
  8
0
  6
CONTINUOUS
 62
     2
 10
1948.92
 20
949.5
 30
33.439782857
 40
22.8
  1
操作方式
 50
0.0
 41
0.9
 51
0.0
  7
KANJI59
  0
LINE
  8
0
  6
CONTINUOUS
 62
     2
 10
1896.72
 20
1190.1
 30
0.0
 11
1896.72
 21
1176.3
 31
0.0
  0
TEXT
  8
0
  6
CONTINUOUS
 62
     2
 10
1948.92
 20
1201.5
 30
3.0
 40
22.8
  1
出力　相数　極数
 50
0.0
 41
0.9
 51
0.0
  7
KANJI70
  0
TEXT
  8
0
  6
CONTINUOUS
 62
     2
 10
1906.92
 20
1411.5
 30
12.0
 40
22.8
  1
公称速度
 50
0.0
 41
0.9
 51
0.0
  7
KANJI71
  0
TEXT
  8
0
  6
CONTINUOUS
 62
     2
 10
2030.82
 20
1410.3
 30
0.0
 40
21.0
  1
（５０／６０Ｈｚ）
 50
0.0
 41
0.628571429
 51
0.0
  7
KANJI72
  0
TEXT
  8
0
  6
CONTINUOUS
 62
     2
 10
2151.42
 20
991.95
 30
3.3
 40
20.4
  1
スプリング制動式電磁ブレーキ
 50
0.0
 41
0.705882353
 51
0.0
  7
KANJI73
  0
TEXT
  8
0
  6
CONTINUOUS
 62
     2
 10
2370.42
 20
1159.5
 30
0.216
 40
18.0
  1
Ｖ
 50
0.0
 41
0.8
 51
0.0
  7
KANJI74
  0
TEXT
  8
0
  6
CONTINUOUS
 62
     2
 10
2359.62
 20
1117.5
 30
0.216
 40
18.0
  1
Ｈｚ
 50
0.0
 41
0.8
 51
0.0
  7
KANJI74
  0
TEXT
  8
0
  6
CONTINUOUS
 62
     2
 10
2370.42
 20
1075.5
 30
0.216
 40
18.0
  1
Ａ
 50
0.0
 41
0.8
 51
0.0
  7
KANJI74
  0
TEXT
  8
0
  6
CONTINUOUS
 62
     2
 10
2291.52
 20
1202.7
 30
1.8
 40
18.0
  1
３φ
 50
0.0
 41
0.9
 51
0.0
  7
KANJI68
  0
TEXT
  8
0
  6
CONTINUOUS
 62
     2
 10
2351.52
 20
1202.7
 30
1.8
 40
18.0
  1
４Ｐ
 50
0.0
 41
0.9
 51
0.0
  7
KANJI68
  0
TEXT
  8
0
  6
CONTINUOUS
 62
     2
 10
2149.92
 20
1244.7
 30
1.2
 40
19.2
  1
マンセル　７．５ＧＹ　５／４．５
 50
0.0
 41
0.71875
 51
0.0
  7
KANJI75
  0
TEXT
  8
0
  6
CONTINUOUS
 62
     2
 10
2149.92
 20
1160.7
 30
1.8
 40
18.0
  1
　　　　　　　／　　　
 50
0.0
 41
0.9
 51
0.0
  7
KANJI68
  0
TEXT
  8
0
  6
CONTINUOUS
 62
     2
 10
2149.92
 20
1118.7
 30
1.8
 40
18.0
  1
　　　　５０／　６０
 50
0.0
 41
0.9
 51
0.0
  7
KANJI68
  0
TEXT
  8
0
  6
CONTINUOUS
 62
     2
 10
2149.92
 20
1076.7
 30
1.8
 40
18.0
  1
　　　　　　　／　　　
 50
0.0
 41
0.9
 51
0.0
  7
KANJI68
  0
TEXT
  8
0
  6
CONTINUOUS
 62
     2
 10
2354.52
 20
1455.9
 30
0.1536
 40
19.2
  1
ｍｍ
 50
0.0
 41
0.8
 51
0.0
  7
KANJI76
  0
TEXT
  8
0
  6
CONTINUOUS
 62
     2
 10
2315.52
 20
1412.7
 30
0.0
 40
21.0
  1
ｍｍ／ｓｅｃ
 50
0.0
 41
0.571428571
 51
0.0
  7
KANJI77
  0
TEXT
  8
0
  6
CONTINUOUS
 62
     2
 10
2155.92
 20
1202.7
 30
1.8
 40
18.0
  1
　１．１ＫＷ
 50
0.0
 41
0.9
 51
0.0
  7
KANJI68
  0
TEXT
  8
0
  6
CONTINUOUS
 62
     2
 10
2193.72
 20
1496.7
 30
1.8
 40
18.0
  1
３９．２ＫＮ（４ｔｏｎ）
 50
0.0
 41
0.9
 51
0.0
  7
KANJI68
  0
TEXT
  8
0
  6
CONTINUOUS
 62
     2
 10
2152.92
 20
1412.7
 30
1.8
 40
18.0
  1
　１２．５／１５
 50
0.0
 41
0.9
 51
0.0
  7
KANJI68
  0
TEXT
  8
0
  6
CONTINUOUS
 62
     2
 10
2163.42
 20
1536.6
 30
1.2
 40
18.0
  1
ＭＣＬＤ４－　ＪＬ
 50
0.0
 41
0.833333333
 51
0.0
  7
KANJI78
  0
TEXT
  8
0
  6
CONTINUOUS
 62
     2
 10
2208.42
 20
1328.7
 30
9.0
 40
21.0
  1
全閉屋外形
 50
0.0
 41
0.9
 51
0.0
  7
KANJI67
  0
LINE
  8
0
  6
CONTINUOUS
 62
     1
 10
1873.92
 20
770.7
 30
0.0
 11
2398.92
 21
770.7
 31
0.0
  0
LINE
  8
0
  6
CONTINUOUS
 62
     2
 10
1873.92
 20
812.7
 30
0.0
 11
2398.92
 21
812.7
 31
0.0
  0
TEXT
  8
0
  6
CONTINUOUS
 62
     2
 10
2343.72
 20
782.88
 30
0.0
 40
21.0
  1
ｋｇ
 50
0.0
 41
0.9
 51
0.0
  7
KANJI79
  0
TEXT
  8
0
  6
CONTINUOUS
 62
     2
 10
1905.72
 20
781.5
 30
6.0
 40
21.0
  1
概算重量（１台当り）
 50
0.0
 41
0.857142857
 51
0.0
  7
KANJI80
  0
TEXT
  8
0
  6
CONTINUOUS
 62
     2
 10
2182.92
 20
1370.7
 30
0.0
 40
18.0
  1
７８Ｎ・ｍ（８ｋｇ・ｍ）
 50
0.0
 41
0.833333333
 51
0.0
  7
KANJI81
  0
LINE
  8
0
  6
CONTINUOUS
 62
     1
 10
1873.92
 20
1628.7
 30
0.0
 11
1873.92
 21
770.7
 31
0.0
  0
LINE
  8
0
  6
CONTINUOUS
 62
     2
 10
2149.92
 20
1568.7
 30
0.0
 11
2149.92
 21
770.7
 31
0.0
  0
LINE
  8
0
  6
CONTINUOUS
 62
     1
 10
2398.92
 20
1628.7
 30
0.0
 11
2398.92
 21
770.7
 31
0.0
  0
ENDSEC
  0
EOF
