  0
SECTION
  2
HEADER
  9
$ACADVER
  1
AC1009
  9
$DWGCODEPAGE
  3
dos932
  9
$EXTMIN
 10
0.0
 20
0.0
 30
0.0
  9
$EXTMAX
 10
2520.0
 20
1782.0
 30
0.0
  9
$LIMMIN
 10
0.0
 20
0.0
  9
$LIMMAX
 10
2520.0
 20
1782.0
  9
$LTSCALE
 40
1.0
  9
$PDMODE
 70
     0
  0
ENDSEC
  0
SECTION
  2
TABLES
  0
TABLE
  2
VPORT
 70
     1
  0
VPORT
  2
*ACTIVE
 70
     0
 10
0.0
 20
0.0
 11
1.0
 21
1.0
 12
1260.0
 22
891.0
 13
0.0
 23
0.0
 14
10.0
 24
10.0
 15
10.0
 25
10.0
 16
0.0
 26
0.0
 36
1.0
 17
0.0
 27
0.0
 37
0.0
 40
2520.0
 41
1.414141414
 42
50.0
 43
0.0
 44
0.0
 50
0.0
 51
0.0
 71
     0
 72
  1000
 73
     1
 74
     3
 75
     0
 76
     0
 77
     0
 78
     0
  0
ENDTAB
  0
TABLE
  2
LTYPE
 70
     6
  0
LTYPE
  2
CONTINUOUS
 70
    64
  3
Solid line
 72
    65
 73
     0
 40
0.0
  0
LTYPE
  2
LTYPE1
 70
    64
  3
HIDDEN
 72
    65
 73
     2
 40
18.0
 49
10.8
 49
-7.2
  0
LTYPE
  2
LTYPE2
 70
    64
  3
CENTER
 72
    65
 73
     4
 40
60.0
 49
42.0
 49
-6.0
 49
6.0
 49
-6.0
  0
LTYPE
  2
LTYPE3
 70
    64
  3
CENTER
 72
    65
 73
     4
 40
120.0
 49
84.0
 49
-12.0
 49
12.0
 49
-12.0
  0
LTYPE
  2
LTYPE4
 70
    64
  3
CENTER
 72
    65
 73
     4
 40
90.0
 49
63.0
 49
-9.0
 49
9.0
 49
-9.0
  0
LTYPE
  2
LTYPE5
 70
    64
  3
CENTER
 72
    65
 73
     4
 40
54.0
 49
37.8
 49
-5.4
 49
5.4
 49
-5.4
  0
ENDTAB
  0
TABLE
  2
LAYER
 70
   128
  0
LAYER
  2
0
 70
     0
 62
     7
  6
CONTINUOUS
  0
LAYER
  2
2
 70
     0
 62
     7
  6
CONTINUOUS
  0
LAYER
  2
3
 70
     0
 62
     7
  6
CONTINUOUS
  0
LAYER
  2
4
 70
     0
 62
     7
  6
CONTINUOUS
  0
LAYER
  2
5
 70
     0
 62
     7
  6
CONTINUOUS
  0
LAYER
  2
6
 70
     0
 62
     7
  6
CONTINUOUS
  0
LAYER
  2
7
 70
     0
 62
     7
  6
CONTINUOUS
  0
LAYER
  2
8
 70
     0
 62
     7
  6
CONTINUOUS
  0
LAYER
  2
9
 70
     0
 62
     7
  6
CONTINUOUS
  0
LAYER
  2
10
 70
     0
 62
     7
  6
CONTINUOUS
  0
LAYER
  2
11
 70
     0
 62
     7
  6
CONTINUOUS
  0
LAYER
  2
12
 70
     0
 62
     7
  6
CONTINUOUS
  0
LAYER
  2
13
 70
     0
 62
     7
  6
CONTINUOUS
  0
LAYER
  2
14
 70
     0
 62
     7
  6
CONTINUOUS
  0
LAYER
  2
15
 70
     0
 62
     7
  6
CONTINUOUS
  0
LAYER
  2
16
 70
     0
 62
     7
  6
CONTINUOUS
  0
LAYER
  2
17
 70
     0
 62
     7
  6
CONTINUOUS
  0
LAYER
  2
18
 70
     0
 62
     7
  6
CONTINUOUS
  0
LAYER
  2
19
 70
     0
 62
     7
  6
CONTINUOUS
  0
LAYER
  2
20
 70
     0
 62
     7
  6
CONTINUOUS
  0
LAYER
  2
21
 70
     0
 62
     7
  6
CONTINUOUS
  0
LAYER
  2
22
 70
     0
 62
     7
  6
CONTINUOUS
  0
LAYER
  2
23
 70
     0
 62
     7
  6
CONTINUOUS
  0
LAYER
  2
24
 70
     0
 62
     7
  6
CONTINUOUS
  0
LAYER
  2
25
 70
     0
 62
     7
  6
CONTINUOUS
  0
LAYER
  2
26
 70
     0
 62
     7
  6
CONTINUOUS
  0
LAYER
  2
27
 70
     0
 62
     7
  6
CONTINUOUS
  0
LAYER
  2
28
 70
     0
 62
     7
  6
CONTINUOUS
  0
LAYER
  2
29
 70
     0
 62
     7
  6
CONTINUOUS
  0
LAYER
  2
30
 70
     0
 62
     7
  6
CONTINUOUS
  0
LAYER
  2
31
 70
     0
 62
     7
  6
CONTINUOUS
  0
LAYER
  2
32
 70
     0
 62
     7
  6
CONTINUOUS
  0
LAYER
  2
33
 70
     0
 62
     7
  6
CONTINUOUS
  0
LAYER
  2
34
 70
     0
 62
     7
  6
CONTINUOUS
  0
LAYER
  2
35
 70
     0
 62
     7
  6
CONTINUOUS
  0
LAYER
  2
36
 70
     0
 62
     7
  6
CONTINUOUS
  0
LAYER
  2
37
 70
     0
 62
     7
  6
CONTINUOUS
  0
LAYER
  2
38
 70
     0
 62
     7
  6
CONTINUOUS
  0
LAYER
  2
39
 70
     0
 62
     7
  6
CONTINUOUS
  0
LAYER
  2
40
 70
     0
 62
     7
  6
CONTINUOUS
  0
LAYER
  2
41
 70
     0
 62
     7
  6
CONTINUOUS
  0
LAYER
  2
42
 70
     0
 62
     7
  6
CONTINUOUS
  0
LAYER
  2
43
 70
     0
 62
     7
  6
CONTINUOUS
  0
LAYER
  2
44
 70
     0
 62
     7
  6
CONTINUOUS
  0
LAYER
  2
45
 70
     0
 62
     7
  6
CONTINUOUS
  0
LAYER
  2
46
 70
     0
 62
     7
  6
CONTINUOUS
  0
LAYER
  2
47
 70
     0
 62
     7
  6
CONTINUOUS
  0
LAYER
  2
48
 70
     0
 62
     7
  6
CONTINUOUS
  0
LAYER
  2
49
 70
     0
 62
     7
  6
CONTINUOUS
  0
LAYER
  2
50
 70
     0
 62
     7
  6
CONTINUOUS
  0
LAYER
  2
51
 70
     0
 62
     7
  6
CONTINUOUS
  0
LAYER
  2
52
 70
     0
 62
     7
  6
CONTINUOUS
  0
LAYER
  2
53
 70
     0
 62
     7
  6
CONTINUOUS
  0
LAYER
  2
54
 70
     0
 62
     7
  6
CONTINUOUS
  0
LAYER
  2
55
 70
     0
 62
     7
  6
CONTINUOUS
  0
LAYER
  2
56
 70
     0
 62
     7
  6
CONTINUOUS
  0
LAYER
  2
57
 70
     0
 62
     7
  6
CONTINUOUS
  0
LAYER
  2
58
 70
     0
 62
     7
  6
CONTINUOUS
  0
LAYER
  2
59
 70
     0
 62
     7
  6
CONTINUOUS
  0
LAYER
  2
60
 70
     0
 62
     7
  6
CONTINUOUS
  0
LAYER
  2
61
 70
     0
 62
     7
  6
CONTINUOUS
  0
LAYER
  2
62
 70
     0
 62
     7
  6
CONTINUOUS
  0
LAYER
  2
63
 70
     0
 62
     7
  6
CONTINUOUS
  0
LAYER
  2
64
 70
     0
 62
     7
  6
CONTINUOUS
  0
LAYER
  2
65
 70
     0
 62
     7
  6
CONTINUOUS
  0
LAYER
  2
66
 70
     0
 62
     7
  6
CONTINUOUS
  0
LAYER
  2
67
 70
     0
 62
     7
  6
CONTINUOUS
  0
LAYER
  2
68
 70
     0
 62
     7
  6
CONTINUOUS
  0
LAYER
  2
69
 70
     0
 62
     7
  6
CONTINUOUS
  0
LAYER
  2
70
 70
     0
 62
     7
  6
CONTINUOUS
  0
LAYER
  2
71
 70
     0
 62
     7
  6
CONTINUOUS
  0
LAYER
  2
72
 70
     0
 62
     7
  6
CONTINUOUS
  0
LAYER
  2
73
 70
     0
 62
     7
  6
CONTINUOUS
  0
LAYER
  2
74
 70
     0
 62
     7
  6
CONTINUOUS
  0
LAYER
  2
75
 70
     0
 62
     7
  6
CONTINUOUS
  0
LAYER
  2
76
 70
     0
 62
     7
  6
CONTINUOUS
  0
LAYER
  2
77
 70
     0
 62
     7
  6
CONTINUOUS
  0
LAYER
  2
78
 70
     0
 62
     7
  6
CONTINUOUS
  0
LAYER
  2
79
 70
     0
 62
     7
  6
CONTINUOUS
  0
LAYER
  2
80
 70
     0
 62
     7
  6
CONTINUOUS
  0
LAYER
  2
81
 70
     0
 62
     7
  6
CONTINUOUS
  0
LAYER
  2
82
 70
     0
 62
     7
  6
CONTINUOUS
  0
LAYER
  2
83
 70
     0
 62
     7
  6
CONTINUOUS
  0
LAYER
  2
84
 70
     0
 62
     7
  6
CONTINUOUS
  0
LAYER
  2
85
 70
     0
 62
     7
  6
CONTINUOUS
  0
LAYER
  2
86
 70
     0
 62
     7
  6
CONTINUOUS
  0
LAYER
  2
87
 70
     0
 62
     7
  6
CONTINUOUS
  0
LAYER
  2
88
 70
     0
 62
     7
  6
CONTINUOUS
  0
LAYER
  2
89
 70
     0
 62
     7
  6
CONTINUOUS
  0
LAYER
  2
90
 70
     0
 62
     7
  6
CONTINUOUS
  0
LAYER
  2
91
 70
     0
 62
     7
  6
CONTINUOUS
  0
LAYER
  2
92
 70
     0
 62
     7
  6
CONTINUOUS
  0
LAYER
  2
93
 70
     0
 62
     7
  6
CONTINUOUS
  0
LAYER
  2
94
 70
     0
 62
     7
  6
CONTINUOUS
  0
LAYER
  2
95
 70
     0
 62
     7
  6
CONTINUOUS
  0
LAYER
  2
96
 70
     0
 62
     7
  6
CONTINUOUS
  0
LAYER
  2
97
 70
     0
 62
     7
  6
CONTINUOUS
  0
LAYER
  2
98
 70
     0
 62
     7
  6
CONTINUOUS
  0
LAYER
  2
99
 70
     0
 62
     7
  6
CONTINUOUS
  0
LAYER
  2
100
 70
     0
 62
     7
  6
CONTINUOUS
  0
LAYER
  2
101
 70
     0
 62
     7
  6
CONTINUOUS
  0
LAYER
  2
102
 70
     0
 62
     7
  6
CONTINUOUS
  0
LAYER
  2
103
 70
     0
 62
     7
  6
CONTINUOUS
  0
LAYER
  2
104
 70
     0
 62
     7
  6
CONTINUOUS
  0
LAYER
  2
105
 70
     0
 62
     7
  6
CONTINUOUS
  0
LAYER
  2
106
 70
     0
 62
     7
  6
CONTINUOUS
  0
LAYER
  2
107
 70
     0
 62
     7
  6
CONTINUOUS
  0
LAYER
  2
108
 70
     0
 62
     7
  6
CONTINUOUS
  0
LAYER
  2
109
 70
     0
 62
     7
  6
CONTINUOUS
  0
LAYER
  2
110
 70
     0
 62
     7
  6
CONTINUOUS
  0
LAYER
  2
111
 70
     0
 62
     7
  6
CONTINUOUS
  0
LAYER
  2
112
 70
     0
 62
     7
  6
CONTINUOUS
  0
LAYER
  2
113
 70
     0
 62
     7
  6
CONTINUOUS
  0
LAYER
  2
114
 70
     0
 62
     7
  6
CONTINUOUS
  0
LAYER
  2
115
 70
     0
 62
     7
  6
CONTINUOUS
  0
LAYER
  2
116
 70
     0
 62
     7
  6
CONTINUOUS
  0
LAYER
  2
117
 70
     0
 62
     7
  6
CONTINUOUS
  0
LAYER
  2
118
 70
     0
 62
     7
  6
CONTINUOUS
  0
LAYER
  2
119
 70
     0
 62
     7
  6
CONTINUOUS
  0
LAYER
  2
120
 70
     0
 62
     7
  6
CONTINUOUS
  0
LAYER
  2
121
 70
     0
 62
     7
  6
CONTINUOUS
  0
LAYER
  2
122
 70
     0
 62
     7
  6
CONTINUOUS
  0
LAYER
  2
123
 70
     0
 62
     7
  6
CONTINUOUS
  0
LAYER
  2
124
 70
     0
 62
     7
  6
CONTINUOUS
  0
LAYER
  2
125
 70
     0
 62
     7
  6
CONTINUOUS
  0
LAYER
  2
126
 70
     0
 62
     7
  6
CONTINUOUS
  0
LAYER
  2
127
 70
     0
 62
     7
  6
CONTINUOUS
  0
LAYER
  2
128
 70
     0
 62
     7
  6
CONTINUOUS
  0
ENDTAB
  0
TABLE
  2
STYLE
 70
    79
  0
STYLE
  2
STANDARD
 70
     0
 40
0.0
 41
1.0
 50
0.0
 71
     0
 42
0.2
  3
txt.shx
  4
extfont.shx
  0
STYLE
  2
KANJI0
 70
     0
 40
15.5999988
 41
0.75
 50
0.0
 71
     0
 42
15.5999988
  3
txt.shx
  4
extfont.shx
  0
STYLE
  2
KANJI1
 70
     0
 40
11.999997477
 41
0.6
 50
0.0
 71
     0
 42
11.999997477
  3
txt.shx
  4
extfont.shx
  0
STYLE
  2
KANJI2
 70
     0
 40
14.399996972
 41
0.9
 50
0.0
 71
     0
 42
14.399996972
  3
txt.shx
  4
extfont.shx
  0
STYLE
  2
KANJI3
 70
     0
 40
17.999996215
 41
0.9
 50
0.0
 71
     0
 42
17.999996215
  3
txt.shx
  4
extfont.shx
  0
STYLE
  2
KANJI4
 70
     0
 40
10.3999992
 41
0.6
 50
0.0
 71
     0
 42
10.3999992
  3
txt.shx
  4
extfont.shx
  0
STYLE
  2
KANJI5
 70
     0
 40
12.47999904
 41
0.6
 50
0.0
 71
     0
 42
12.47999904
  3
txt.shx
  4
extfont.shx
  0
STYLE
  2
KANJI6
 70
     0
 40
18.1999986
 41
0.42031746
 50
0.0
 71
     0
 42
18.1999986
  3
txt.shx
  4
extfont.shx
  0
STYLE
  2
KANJI7
 70
     0
 40
31.1999976
 41
0.9
 50
0.0
 71
     0
 42
31.1999976
  3
txt.shx
  4
extfont.shx
  0
STYLE
  2
KANJI8
 70
     0
 40
21.6
 41
1.111111111
 50
0.0
 71
     0
 42
21.6
  3
txt.shx
  4
extfont.shx
  0
STYLE
  2
KANJI9
 70
     0
 40
10.3999992
 41
0.8
 50
0.0
 71
     0
 42
10.3999992
  3
txt.shx
  4
extfont.shx
  0
STYLE
  2
KANJI10
 70
     0
 40
12.47999904
 41
0.8
 50
0.0
 71
     0
 42
12.47999904
  3
txt.shx
  4
extfont.shx
  0
STYLE
  2
KANJI11
 70
     0
 40
30.0
 41
1.0
 50
0.0
 71
     0
 42
30.0
  3
txt.shx
  4
extfont.shx
  0
STYLE
  2
KANJI12
 70
     0
 40
30.0
 41
1.0
 50
0.0
 71
     0
 42
30.0
  3
txt.shx
  4
extfont.shx
  0
STYLE
  2
KANJI13
 70
     0
 40
30.0
 41
0.8
 50
0.0
 71
     0
 42
30.0
  3
txt.shx
  4
extfont.shx
  0
STYLE
  2
KANJI14
 70
     0
 40
24.0
 41
1.0
 50
0.0
 71
     0
 42
24.0
  3
txt.shx
  4
extfont.shx
  0
STYLE
  2
KANJI15
 70
     0
 40
21.0
 41
0.857142857
 50
0.0
 71
     0
 42
21.0
  3
txt.shx
  4
extfont.shx
  0
STYLE
  2
KANJI16
 70
     0
 40
27.0
 41
0.666666667
 50
0.0
 71
     0
 42
27.0
  3
txt.shx
  4
extfont.shx
  0
STYLE
  2
KANJI17
 70
     0
 40
13.86
 41
0.9
 50
0.0
 71
     0
 42
13.86
  3
txt.shx
  4
extfont.shx
  0
STYLE
  2
KANJI18
 70
     0
 40
16.17
 41
0.9
 50
0.0
 71
     0
 42
16.17
  3
txt.shx
  4
extfont.shx
  0
STYLE
  2
KANJI19
 70
     0
 40
21.0
 41
0.793650794
 50
0.0
 71
     0
 42
21.0
  3
txt.shx
  4
extfont.shx
  0
STYLE
  2
KANJI20
 70
     0
 40
30.0
 41
0.8
 50
0.0
 71
     0
 42
30.0
  3
txt.shx
  4
extfont.shx
  0
STYLE
  2
KANJI21
 70
     0
 40
18.0
 41
0.9
 50
0.0
 71
     0
 42
18.0
  3
txt.shx
  4
extfont.shx
  0
STYLE
  2
KANJI22
 70
     0
 40
15.36
 41
0.9
 50
0.0
 71
     0
 42
15.36
  3
txt.shx
  4
extfont.shx
  0
STYLE
  2
KANJI23
 70
     0
 40
14.4
 41
0.9
 50
0.0
 71
     0
 42
14.4
  3
txt.shx
  4
extfont.shx
  0
STYLE
  2
KANJI24
 70
     0
 40
14.4
 41
0.9
 50
0.0
 71
     0
 42
14.4
  3
txt.shx
  4
extfont.shx
  0
STYLE
  2
KANJI25
 70
     0
 40
16.8
 41
0.9
 50
0.0
 71
     0
 42
16.8
  3
txt.shx
  4
extfont.shx
  0
STYLE
  2
KANJI26
 70
     0
 40
12.96
 41
0.740740741
 50
0.0
 71
     0
 42
12.96
  3
txt.shx
  4
extfont.shx
  0
STYLE
  2
KANJI27
 70
     0
 40
16.8
 41
0.857142857
 50
0.0
 71
     0
 42
16.8
  3
txt.shx
  4
extfont.shx
  0
STYLE
  2
KANJI28
 70
     0
 40
21.6
 41
0.857142857
 50
0.0
 71
     0
 42
21.6
  3
txt.shx
  4
extfont.shx
  0
STYLE
  2
KANJI29
 70
     0
 40
21.6
 41
0.857222222
 50
0.0
 71
     0
 42
21.6
  3
txt.shx
  4
extfont.shx
  0
STYLE
  2
KANJI30
 70
     0
 40
24.0
 41
0.9
 50
0.0
 71
     0
 42
24.0
  3
txt.shx
  4
extfont.shx
  0
STYLE
  2
KANJI31
 70
     0
 40
18.0
 41
0.9
 50
0.0
 71
     0
 42
18.0
  3
txt.shx
  4
extfont.shx
  0
STYLE
  2
KANJI32
 70
     0
 40
20.0
 41
0.925
 50
0.0
 71
     0
 42
20.0
  3
txt.shx
  4
extfont.shx
  0
STYLE
  2
KANJI33
 70
     0
 40
18.0
 41
0.833333333
 50
0.0
 71
     0
 42
18.0
  3
txt.shx
  4
extfont.shx
  0
STYLE
  2
KANJI34
 70
     0
 40
18.0
 41
0.833333333
 50
0.0
 71
     0
 42
18.0
  3
txt.shx
  4
extfont.shx
  0
STYLE
  2
KANJI35
 70
     0
 40
10.933904043
 41
0.9
 50
0.0
 71
     0
 42
10.933904043
  3
txt.shx
  4
extfont.shx
  0
STYLE
  2
KANJI36
 70
     0
 40
15.185977837
 41
0.66671875
 50
0.0
 71
     0
 42
15.185977837
  3
txt.shx
  4
extfont.shx
  0
STYLE
  2
KANJI37
 70
     0
 40
18.223173404
 41
0.9
 50
0.0
 71
     0
 42
18.223173404
  3
txt.shx
  4
extfont.shx
  0
STYLE
  2
KANJI38
 70
     0
 40
14.578538724
 41
0.9
 50
0.0
 71
     0
 42
14.578538724
  3
txt.shx
  4
extfont.shx
  0
STYLE
  2
KANJI39
 70
     0
 40
15.6
 41
0.925
 50
0.0
 71
     0
 42
15.6
  3
txt.shx
  4
extfont.shx
  0
STYLE
  2
KANJI40
 70
     0
 40
20.0
 41
0.925
 50
0.0
 71
     0
 42
20.0
  3
txt.shx
  4
extfont.shx
  0
STYLE
  2
KANJI41
 70
     0
 40
15.0
 41
0.9
 50
0.0
 71
     0
 42
15.0
  3
txt.shx
  4
extfont.shx
  0
STYLE
  2
KANJI42
 70
     0
 40
15.0
 41
0.9
 50
0.0
 71
     0
 42
15.0
  3
txt.shx
  4
extfont.shx
  0
STYLE
  2
KANJI43
 70
     0
 40
13.182
 41
0.85
 50
0.0
 71
     0
 42
13.182
  3
txt.shx
  4
extfont.shx
  0
STYLE
  2
KANJI44
 70
     0
 40
11.661
 41
0.822608696
 50
0.0
 71
     0
 42
11.661
  3
txt.shx
  4
extfont.shx
  0
STYLE
  2
KANJI45
 70
     0
 40
11.8638
 41
0.726495726
 50
0.0
 71
     0
 42
11.8638
  3
txt.shx
  4
extfont.shx
  0
STYLE
  2
KANJI46
 70
     4
 40
45.0
 41
0.538166667
 50
0.0
 71
     0
 42
45.0
  3
txt.shx
  4
extfont.shx
  0
STYLE
  2
KANJI47
 70
     0
 40
17.740702234
 41
0.880962996
 50
0.0
 71
     0
 42
17.740702234
  3
txt.shx
  4
extfont.shx
  0
STYLE
  2
KANJI48
 70
     0
 40
11.7
 41
0.8
 50
0.0
 71
     0
 42
11.7
  3
txt.shx
  4
extfont.shx
  0
STYLE
  2
KANJI49
 70
     0
 40
15.0
 41
0.911
 50
0.0
 71
     0
 42
15.0
  3
txt.shx
  4
extfont.shx
  0
STYLE
  2
KANJI50
 70
     0
 40
14.4
 41
0.833333333
 50
0.0
 71
     0
 42
14.4
  3
txt.shx
  4
extfont.shx
  0
STYLE
  2
KANJI51
 70
     0
 40
21.0
 41
0.571428571
 50
0.0
 71
     0
 42
21.0
  3
txt.shx
  4
extfont.shx
  0
STYLE
  2
KANJI52
 70
     0
 40
22.8
 41
0.9
 50
0.0
 71
     0
 42
22.8
  3
txt.shx
  4
extfont.shx
  0
STYLE
  2
KANJI53
 70
     0
 40
22.8
 41
0.9
 50
0.0
 71
     0
 42
22.8
  3
txt.shx
  4
extfont.shx
  0
STYLE
  2
KANJI54
 70
     0
 40
27.0
 41
0.9
 50
0.0
 71
     0
 42
27.0
  3
txt.shx
  4
extfont.shx
  0
STYLE
  2
KANJI55
 70
     0
 40
22.8
 41
0.9
 50
0.0
 71
     0
 42
22.8
  3
txt.shx
  4
extfont.shx
  0
STYLE
  2
KANJI56
 70
     0
 40
22.8
 41
0.9
 50
0.0
 71
     0
 42
22.8
  3
txt.shx
  4
extfont.shx
  0
STYLE
  2
KANJI57
 70
     0
 40
22.8
 41
0.9
 50
0.0
 71
     0
 42
22.8
  3
txt.shx
  4
extfont.shx
  0
STYLE
  2
KANJI58
 70
     0
 40
22.8
 41
0.9
 50
0.0
 71
     0
 42
22.8
  3
txt.shx
  4
extfont.shx
  0
STYLE
  2
KANJI59
 70
     0
 40
22.8
 41
0.9
 50
0.0
 71
     0
 42
22.8
  3
txt.shx
  4
extfont.shx
  0
STYLE
  2
KANJI60
 70
     0
 40
22.8
 41
0.9
 50
0.0
 71
     0
 42
22.8
  3
txt.shx
  4
extfont.shx
  0
STYLE
  2
KANJI61
 70
     4
 40
21.0
 41
0.9
 50
0.0
 71
     0
 42
21.0
  3
txt.shx
  4
extfont.shx
  0
STYLE
  2
KANJI62
 70
     4
 40
21.0
 41
0.9
 50
0.0
 71
     0
 42
21.0
  3
txt.shx
  4
extfont.shx
  0
STYLE
  2
KANJI63
 70
     0
 40
21.0
 41
0.9
 50
0.0
 71
     0
 42
21.0
  3
txt.shx
  4
extfont.shx
  0
STYLE
  2
KANJI64
 70
     0
 40
18.0
 41
0.9
 50
0.0
 71
     0
 42
18.0
  3
txt.shx
  4
extfont.shx
  0
STYLE
  2
KANJI65
 70
     0
 40
21.0
 41
0.9
 50
0.0
 71
     0
 42
21.0
  3
txt.shx
  4
extfont.shx
  0
STYLE
  2
KANJI66
 70
     0
 40
22.8
 41
0.9
 50
0.0
 71
     0
 42
22.8
  3
txt.shx
  4
extfont.shx
  0
STYLE
  2
KANJI67
 70
     0
 40
22.8
 41
0.9
 50
0.0
 71
     0
 42
22.8
  3
txt.shx
  4
extfont.shx
  0
STYLE
  2
KANJI68
 70
     0
 40
21.0
 41
0.628571429
 50
0.0
 71
     0
 42
21.0
  3
txt.shx
  4
extfont.shx
  0
STYLE
  2
KANJI69
 70
     0
 40
20.4
 41
0.705882353
 50
0.0
 71
     0
 42
20.4
  3
txt.shx
  4
extfont.shx
  0
STYLE
  2
KANJI70
 70
     0
 40
18.0
 41
0.8
 50
0.0
 71
     0
 42
18.0
  3
txt.shx
  4
extfont.shx
  0
STYLE
  2
KANJI71
 70
     0
 40
19.2
 41
0.71875
 50
0.0
 71
     0
 42
19.2
  3
txt.shx
  4
extfont.shx
  0
STYLE
  2
KANJI72
 70
     0
 40
19.2
 41
0.8
 50
0.0
 71
     0
 42
19.2
  3
txt.shx
  4
extfont.shx
  0
STYLE
  2
KANJI73
 70
     0
 40
21.0
 41
0.571428571
 50
0.0
 71
     0
 42
21.0
  3
txt.shx
  4
extfont.shx
  0
STYLE
  2
KANJI74
 70
     0
 40
18.0
 41
0.833333333
 50
0.0
 71
     0
 42
18.0
  3
txt.shx
  4
extfont.shx
  0
STYLE
  2
KANJI75
 70
     0
 40
21.0
 41
0.9
 50
0.0
 71
     0
 42
21.0
  3
txt.shx
  4
extfont.shx
  0
STYLE
  2
KANJI76
 70
     0
 40
21.0
 41
0.857142857
 50
0.0
 71
     0
 42
21.0
  3
txt.shx
  4
extfont.shx
  0
STYLE
  2
KANJI77
 70
     0
 40
18.0
 41
0.833333333
 50
0.0
 71
     0
 42
18.0
  3
txt.shx
  4
extfont.shx
  0
ENDTAB
  0
TABLE
  2
VIEW
 70
     0
  0
ENDTAB
  0
ENDSEC
  0
SECTION
  2
BLOCKS
  0
ENDSEC
  0
SECTION
  2
ENTITIES
  0
POLYLINE
  8
0
  6
CONTINUOUS
 62
     6
 66
     1
  0
VERTEX
  8
0
  6
CONTINUOUS
 62
     6
 10
82.92
 20
71.7
 30
0.0
  0
VERTEX
  8
0
  6
CONTINUOUS
 62
     6
 10
82.92
 20
1685.7
 30
0.0
  0
VERTEX
  8
0
  6
CONTINUOUS
 62
     6
 10
2404.92
 20
1685.7
 30
0.0
  0
SEQEND
  0
LINE
  8
0
  6
CONTINUOUS
 62
     6
 10
88.919998738
 20
161.699981077
 30
0.0
 11
478.919916738
 21
161.699981077
 31
0.0
  0
LINE
  8
0
  6
CONTINUOUS
 62
     6
 10
88.919998738
 20
77.699998738
 30
0.0
 11
478.919916738
 21
77.699998738
 31
0.0
  0
LINE
  8
0
  6
CONTINUOUS
 62
     6
 10
88.919998738
 20
77.699998738
 30
0.0
 11
88.919998738
 21
161.699981077
 31
0.0
  0
LINE
  8
0
  6
CONTINUOUS
 62
     6
 10
88.919998738
 20
119.699989908
 30
0.0
 11
478.919916738
 21
119.699989908
 31
0.0
  0
LINE
  8
0
  6
CONTINUOUS
 62
     4
 10
14.6199996
 20
76.8999996
 30
0.0
 11
77.0199948
 21
76.8999996
 31
0.0
  0
LINE
  8
0
  6
CONTINUOUS
 62
     4
 10
14.6199996
 20
108.0999972
 30
0.0
 11
77.0199948
 21
108.0999972
 31
0.0
  0
LINE
  8
0
  6
CONTINUOUS
 62
     4
 10
14.6199996
 20
139.2999948
 30
0.0
 11
77.0199948
 21
139.2999948
 31
0.0
  0
LINE
  8
0
  6
CONTINUOUS
 62
     4
 10
14.6199996
 20
170.4999924
 30
0.0
 11
77.0199948
 21
170.4999924
 31
0.0
  0
LINE
  8
0
  6
CONTINUOUS
 62
     4
 10
14.6199996
 20
201.69999
 30
0.0
 11
77.0199948
 21
201.69999
 31
0.0
  0
LINE
  8
0
  6
CONTINUOUS
 62
     4
 10
14.6199996
 20
232.8999876
 30
0.0
 11
77.0199948
 21
232.8999876
 31
0.0
  0
LINE
  8
0
  6
CONTINUOUS
 62
     4
 10
14.6199996
 20
264.0999852
 30
0.0
 11
77.0199948
 21
264.0999852
 31
0.0
  0
LINE
  8
0
  6
CONTINUOUS
 62
     4
 10
14.6199996
 20
295.2999828
 30
0.0
 11
77.0199948
 21
295.2999828
 31
0.0
  0
LINE
  8
0
  6
CONTINUOUS
 62
     4
 10
14.6199996
 20
326.4999804
 30
0.0
 11
77.0199948
 21
326.4999804
 31
0.0
  0
LINE
  8
0
  6
CONTINUOUS
 62
     4
 10
14.6199996
 20
357.699978
 30
0.0
 11
77.0199948
 21
357.699978
 31
0.0
  0
LINE
  8
0
  6
CONTINUOUS
 62
     4
 10
77.0199948
 20
76.8999996
 30
0.0
 11
77.0199948
 21
357.699978
 31
0.0
  0
LINE
  8
0
  6
CONTINUOUS
 62
     4
 10
45.8199972
 20
76.8999996
 30
0.0
 11
45.8199972
 21
326.4999804
 31
0.0
  0
TEXT
  8
0
  6
CONTINUOUS
 62
     4
 10
25.27999878
 20
85.9999989
 30
1.55999988
 40
15.5999988
  1
計
 50
0.0
 41
0.75
 51
0.0
  7
KANJI0
  0
TEXT
  8
0
  6
CONTINUOUS
 62
     4
 10
25.27999878
 20
148.91999406
 30
1.55999988
 40
15.5999988
  1
設
 50
0.0
 41
0.75
 51
0.0
  7
KANJI0
  0
TEXT
  8
0
  6
CONTINUOUS
 62
     4
 10
25.27999878
 20
179.5999917
 30
1.55999988
 40
15.5999988
  1
管
 50
0.0
 41
0.75
 51
0.0
  7
KANJI0
  0
TEXT
  8
0
  6
CONTINUOUS
 62
     4
 10
25.27999878
 20
210.7999893
 30
1.55999988
 40
15.5999988
  1
製
 50
0.0
 41
0.75
 51
0.0
  7
KANJI0
  0
TEXT
  8
0
  6
CONTINUOUS
 62
     4
 10
25.27999878
 20
241.9999869
 30
1.55999988
 40
15.5999988
  1
資
 50
0.0
 41
0.75
 51
0.0
  7
KANJI0
  0
TEXT
  8
0
  6
CONTINUOUS
 62
     4
 10
25.27999878
 20
273.1999845
 30
1.55999988
 40
15.5999988
  1
営
 50
0.0
 41
0.75
 51
0.0
  7
KANJI0
  0
TEXT
  8
0
  6
CONTINUOUS
 62
     4
 10
25.27999878
 20
304.3999821
 30
1.55999988
 40
15.5999988
  1
客
 50
0.0
 41
0.75
 51
0.0
  7
KANJI0
  0
TEXT
  8
0
  6
CONTINUOUS
 62
     4
 10
25.0199988
 20
336.8999796
 30
1.55999988
 40
15.5999988
  1
出　図
 50
0.0
 41
0.75
 51
0.0
  7
KANJI0
  0
LINE
  8
0
  6
CONTINUOUS
 62
     4
 10
14.6199996
 20
76.8999996
 30
0.0
 11
14.6199996
 21
357.699978
 31
0.0
  0
LINE
  8
0
  6
CONTINUOUS
 62
     6
 10
2404.92
 20
71.7
 30
0.0
 11
82.92
 21
71.7
 31
0.0
  0
TEXT
  8
0
  6
CONTINUOUS
 62
     4
 10
100.919996215
 20
101.699993692
 30
1.199999748
 40
11.999997477
  1
ＰＡＲＴＳ　ＬＩＳＴ
 50
0.0
 41
0.6
 51
0.0
  7
KANJI1
  0
TEXT
  8
0
  6
CONTINUOUS
 62
     4
 10
100.919996215
 20
83.699997477
 30
1.439999697
 40
14.399996972
  1
部品表
 50
0.0
 41
0.9
 51
0.0
  7
KANJI2
  0
TEXT
  8
0
  6
CONTINUOUS
 62
     3
 10
100.919996215
 20
131.699987385
 30
1.799999622
 40
17.999996215
  1
ＰＬ
 50
0.0
 41
0.9
 51
0.0
  7
KANJI3
  0
TEXT
  8
0
  6
CONTINUOUS
 62
     4
 10
370.919939446
 20
101.699993692
 30
1.199999748
 40
11.999997477
  1
Ｎ０．
 50
0.0
 41
0.6
 51
0.0
  7
KANJI1
  0
TEXT
  8
0
  6
CONTINUOUS
 62
     4
 10
370.919939446
 20
83.699997477
 30
1.439999697
 40
14.399996972
  1
項番
 50
0.0
 41
0.9
 51
0.0
  7
KANJI2
  0
LINE
  8
0
  6
CONTINUOUS
 62
     6
 10
478.919916738
 20
77.699998738
 30
0.0
 11
478.919916738
 21
161.699981077
 31
0.0
  0
LINE
  8
0
  6
CONTINUOUS
 62
     6
 10
358.919941969
 20
77.699998738
 30
0.0
 11
358.919941969
 21
161.699981077
 31
0.0
  0
LINE
  8
0
  6
CONTINUOUS
 62
     6
 10
2404.92
 20
1685.7
 30
0.0
 11
2404.92
 21
71.7
 31
0.0
  0
LINE
  8
0
  6
CONTINUOUS
 62
     6
 10
1598.920062
 20
76.8999996
 30
0.0
 11
1598.920062
 21
409.699974
 31
0.0
  0
LINE
  8
0
  6
CONTINUOUS
 62
     6
 10
2399.7200004
 20
76.8999996
 30
0.0
 11
2399.7200004
 21
409.699974
 31
0.0
  0
LINE
  8
0
  6
CONTINUOUS
 62
     4
 10
1788.7200474
 20
76.8999996
 30
0.0
 11
1788.7200474
 21
409.699974
 31
0.0
  0
LINE
  8
0
  6
CONTINUOUS
 62
     4
 10
1598.920062
 20
118.4999964
 30
0.0
 11
1788.7200474
 21
118.4999964
 31
0.0
  0
TEXT
  8
0
  6
CONTINUOUS
 62
     4
 10
1609.3200612
 20
100.2999978
 30
1.03999992
 40
10.3999992
  1
ＳＣＡＬＥ
 50
0.0
 41
0.6
 51
0.0
  7
KANJI4
  0
TEXT
  8
0
  6
CONTINUOUS
 62
     4
 10
1609.3200612
 20
84.699999
 30
1.247999904
 40
12.47999904
  1
尺度
 50
0.0
 41
0.6
 51
0.0
  7
KANJI5
  0
LINE
  8
0
  6
CONTINUOUS
 62
     6
 10
1188.1200936
 20
118.4999964
 30
0.0
 11
1598.920062
 21
118.4999964
 31
0.0
  0
LINE
  8
0
  6
CONTINUOUS
 62
     6
 10
1188.1200936
 20
76.8999996
 30
0.0
 11
2399.7200004
 21
76.8999996
 31
0.0
  0
TEXT
  8
0
  6
CONTINUOUS
 62
     6
 10
1793.920047
 20
100.2999978
 30
0.0
 40
18.1999986
  1
ＵＮＩＴＥＣ　ＩＮＤＵＳＴＲＹ　ＣＯ．，ＬＴＤ．
 50
0.0
 41
0.42031746
 51
0.0
  7
KANJI6
  0
TEXT
  8
0
  6
CONTINUOUS
 62
     6
 10
2049.175027365
 20
93.53999832
 30
3.11999976
 40
31.1999976
  1
ユニテック工業株式会社
 50
0.0
 41
0.9
 51
0.0
  7
KANJI7
  0
LINE
  8
0
  6
CONTINUOUS
 62
     6
 10
2007.575030565
 20
104.45999748
 30
0.0
 11
1993.847031621
 21
104.45999748
 31
0.0
  0
LINE
  8
0
  6
CONTINUOUS
 62
     6
 10
2007.575030565
 20
106.955997288
 30
0.0
 11
1993.847031621
 21
106.955997288
 31
0.0
  0
LINE
  8
0
  6
CONTINUOUS
 62
     6
 10
2007.575030565
 20
104.45999748
 30
0.0
 11
2021.303029509
 21
104.45999748
 31
0.0
  0
LINE
  8
0
  6
CONTINUOUS
 62
     6
 10
2007.575030565
 20
106.955997288
 30
0.0
 11
2021.303029509
 21
106.955997288
 31
0.0
  0
LINE
  8
0
  6
CONTINUOUS
 62
     6
 10
2021.303029509
 20
106.955997288
 30
0.0
 11
2021.303029509
 21
104.45999748
 31
0.0
  0
ARC
  8
0
  6
CONTINUOUS
 62
     6
 10
2024.423029269
 20
105.707997384
 30
0.0
 40
12.47999904
 50
185.739170477
 51
90.0
  0
ARC
  8
0
  6
CONTINUOUS
 62
     6
 10
2024.423029269
 20
105.707997384
 30
0.0
 40
14.975998848
 50
184.780191847
 51
90.0
  0
LINE
  8
0
  6
CONTINUOUS
 62
     6
 10
1993.847031621
 20
104.45999748
 30
0.0
 11
1993.847031621
 21
106.955997288
 31
0.0
  0
ARC
  8
0
  6
CONTINUOUS
 62
     6
 10
1990.727031861
 20
105.707997384
 30
0.0
 40
12.47999904
 50
90.0
 51
354.260829523
  0
ARC
  8
0
  6
CONTINUOUS
 62
     6
 10
1990.727031861
 20
105.707997384
 30
0.0
 40
14.975998848
 50
90.0
 51
355.219808153
  0
LINE
  8
0
  6
CONTINUOUS
 62
     6
 10
2005.703030709
 20
120.683996232
 30
0.0
 11
2005.703030709
 21
118.187996424
 31
0.0
  0
LINE
  8
0
  6
CONTINUOUS
 62
     6
 10
1990.727031861
 20
118.187996424
 30
0.0
 11
2005.703030709
 21
118.187996424
 31
0.0
  0
LINE
  8
0
  6
CONTINUOUS
 62
     6
 10
2009.447030421
 20
120.683996232
 30
0.0
 11
2009.447030421
 21
118.187996424
 31
0.0
  0
LINE
  8
0
  6
CONTINUOUS
 62
     6
 10
2024.423029269
 20
118.187996424
 30
0.0
 11
2009.447030421
 21
118.187996424
 31
0.0
  0
TEXT
  8
0
  6
CONTINUOUS
 62
     4
 10
1320.7200834
 20
100.2999978
 30
1.03999992
 40
10.3999992
  1
ＢＹ
 50
0.0
 41
0.6
 51
0.0
  7
KANJI4
  0
TEXT
  8
0
  6
CONTINUOUS
 62
     4
 10
1435.1200746
 20
100.2999978
 30
1.03999992
 40
10.3999992
  1
ＤＥＳＣＲＩＰＴＩＯＮ
 50
0.0
 41
0.6
 51
0.0
  7
KANJI4
  0
TEXT
  8
0
  6
CONTINUOUS
 62
     4
 10
1320.7200834
 20
84.699999
 30
1.247999904
 40
12.47999904
  1
担当
 50
0.0
 41
0.6
 51
0.0
  7
KANJI5
  0
TEXT
  8
0
  6
CONTINUOUS
 62
     4
 10
1450.7200734
 20
84.699999
 30
1.247999904
 40
12.47999904
  1
記　　　　事
 50
0.0
 41
0.6
 51
0.0
  7
KANJI5
  0
LINE
  8
0
  6
CONTINUOUS
 62
     4
 10
1210.2200919
 20
110.699997
 30
0.0
 11
1193.3200932
 21
84.699999
 31
0.0
  0
TEXT
  8
0
  6
CONTINUOUS
 62
     4
 10
1253.1200886
 20
100.2999978
 30
1.03999992
 40
10.3999992
  1
ＤＡＴＥ
 50
0.0
 41
0.6
 51
0.0
  7
KANJI4
  0
TEXT
  8
0
  6
CONTINUOUS
 62
     4
 10
1260.920088
 20
84.699999
 30
1.247999904
 40
12.47999904
  1
日付
 50
0.0
 41
0.6
 51
0.0
  7
KANJI5
  0
LINE
  8
0
  6
CONTINUOUS
 62
     4
 10
1193.3200932
 20
84.699999
 30
0.0
 11
1227.1200906
 21
84.699999
 31
0.0
  0
LINE
  8
0
  6
CONTINUOUS
 62
     4
 10
1210.2200919
 20
110.699997
 30
0.0
 11
1227.1200906
 21
84.699999
 31
0.0
  0
LINE
  8
0
  6
CONTINUOUS
 62
     6
 10
1188.1200936
 20
76.8999996
 30
0.0
 11
1188.1200936
 21
118.4999964
 31
0.0
  0
LINE
  8
0
  6
CONTINUOUS
 62
     4
 10
1232.3200902
 20
76.8999996
 30
0.0
 11
1232.3200902
 21
118.4999964
 31
0.0
  0
LINE
  8
0
  6
CONTINUOUS
 62
     4
 10
1305.1200846
 20
76.8999996
 30
0.0
 11
1305.1200846
 21
118.4999964
 31
0.0
  0
LINE
  8
0
  6
CONTINUOUS
 62
     4
 10
1351.920081
 20
76.8999996
 30
0.0
 11
1351.920081
 21
118.4999964
 31
0.0
  0
TEXT
  8
0
  6
CONTINUOUS
 62
     4
 10
1609.3200612
 20
308.2999818
 30
1.03999992
 40
10.3999992
  1
ＣＯＤＥ
 50
0.0
 41
0.6
 51
0.0
  7
KANJI4
  0
LINE
  8
0
  6
CONTINUOUS
 62
     4
 10
1598.920062
 20
326.4999804
 30
0.0
 11
2399.7200004
 21
326.4999804
 31
0.0
  0
TEXT
  8
0
  6
CONTINUOUS
 62
     4
 10
1609.3200612
 20
292.699983
 30
1.247999904
 40
12.47999904
  1
分類
 50
0.0
 41
0.6
 51
0.0
  7
KANJI5
  0
TEXT
  8
0
  6
CONTINUOUS
 62
     4
 10
1617.42
 20
332.7
 30
6.0
 40
21.6
  1
ご注文主
 50
0.0
 41
1.111111111
 51
0.0
  7
KANJI8
  0
TEXT
  8
0
  6
CONTINUOUS
 62
     4
 10
1609.3200612
 20
183.4999914
 30
1.03999992
 40
10.3999992
  1
ＤＲＡＷＮ
 50
0.0
 41
0.6
 51
0.0
  7
KANJI4
  0
TEXT
  8
0
  6
CONTINUOUS
 62
     4
 10
1609.3200612
 20
225.0999882
 30
1.03999992
 40
10.3999992
  1
ＤＥＳＩＧＮ
 50
0.0
 41
0.6
 51
0.0
  7
KANJI4
  0
TEXT
  8
0
  6
CONTINUOUS
 62
     4
 10
1609.3200612
 20
266.699985
 30
1.03999992
 40
10.3999992
  1
ＣＨＥＣＫ
 50
0.0
 41
0.6
 51
0.0
  7
KANJI4
  0
LINE
  8
0
  6
CONTINUOUS
 62
     4
 10
1598.920062
 20
243.2999868
 30
0.0
 11
1788.7200474
 21
243.2999868
 31
0.0
  0
LINE
  8
0
  6
CONTINUOUS
 62
     4
 10
1598.920062
 20
201.69999
 30
0.0
 11
1788.7200474
 21
201.69999
 31
0.0
  0
LINE
  8
0
  6
CONTINUOUS
 62
     4
 10
1598.920062
 20
284.8999836
 30
0.0
 11
1788.7200474
 21
284.8999836
 31
0.0
  0
TEXT
  8
0
  6
CONTINUOUS
 62
     4
 10
1609.3200612
 20
209.4999894
 30
1.247999904
 40
12.47999904
  1
設計
 50
0.0
 41
0.6
 51
0.0
  7
KANJI5
  0
TEXT
  8
0
  6
CONTINUOUS
 62
     4
 10
1609.3200612
 20
251.0999862
 30
1.247999904
 40
12.47999904
  1
検図
 50
0.0
 41
0.6
 51
0.0
  7
KANJI5
  0
LINE
  8
0
  6
CONTINUOUS
 62
     4
 10
1804.06004622
 20
284.8999836
 30
0.0
 11
2399.7200004
 21
284.8999836
 31
0.0
  0
LINE
  8
0
  6
CONTINUOUS
 62
     4
 10
1788.7200474
 20
201.69999
 30
0.0
 11
2399.7200004
 21
201.69999
 31
0.0
  0
TEXT
  8
0
  6
CONTINUOUS
 62
     4
 10
1799.1200466
 20
183.4999914
 30
1.03999992
 40
10.3999992
  1
ＤＲＡＷＩＮＧ　ＮＯ．
 50
0.0
 41
0.8
 51
0.0
  7
KANJI9
  0
TEXT
  8
0
  6
CONTINUOUS
 62
     4
 10
1799.1200466
 20
225.0999882
 30
1.03999992
 40
10.3999992
  1
ＭＦＧ　ＮＯ．
 50
0.0
 41
0.8
 51
0.0
  7
KANJI9
  0
TEXT
  8
0
  6
CONTINUOUS
 62
     4
 10
1799.1200466
 20
266.699985
 30
1.03999992
 40
10.3999992
  1
ＴＹＰＥ
 50
0.0
 41
0.8
 51
0.0
  7
KANJI9
  0
LINE
  8
0
  6
CONTINUOUS
 62
     4
 10
1804.3200462
 20
243.2999868
 30
0.0
 11
2043.5200278
 21
243.2999868
 31
0.0
  0
TEXT
  8
0
  6
CONTINUOUS
 62
     4
 10
1799.1200466
 20
165.2999928
 30
1.247999904
 40
12.47999904
  1
図　面　番　号
 50
0.0
 41
0.8
 51
0.0
  7
KANJI10
  0
TEXT
  8
0
  6
CONTINUOUS
 62
     4
 10
1799.1200466
 20
206.8999896
 30
1.247999904
 40
12.47999904
  1
製番
 50
0.0
 41
0.8
 51
0.0
  7
KANJI10
  0
TEXT
  8
0
  6
CONTINUOUS
 62
     4
 10
1799.1200466
 20
248.4999864
 30
1.247999904
 40
12.47999904
  1
機種
 50
0.0
 41
0.8
 51
0.0
  7
KANJI10
  0
LINE
  8
0
  6
CONTINUOUS
 62
     4
 10
1598.920062
 20
160.0999932
 30
0.0
 11
1788.7200474
 21
160.0999932
 31
0.0
  0
TEXT
  8
0
  6
CONTINUOUS
 62
     4
 10
1609.3200612
 20
141.8999946
 30
1.03999992
 40
10.3999992
  1
ＤＡＴＥ
 50
0.0
 41
0.6
 51
0.0
  7
KANJI4
  0
TEXT
  8
0
  6
CONTINUOUS
 62
     4
 10
1609.3200612
 20
126.2999958
 30
1.247999904
 40
12.47999904
  1
日付
 50
0.0
 41
0.6
 51
0.0
  7
KANJI5
  0
TEXT
  8
0
  6
CONTINUOUS
 62
     4
 10
1609.3200612
 20
167.8999926
 30
1.247999904
 40
12.47999904
  1
作図
 50
0.0
 41
0.6
 51
0.0
  7
KANJI5
  0
LINE
  8
0
  6
CONTINUOUS
 62
     4
 10
1788.7200474
 20
141.8999946
 30
0.0
 11
2399.7200004
 21
141.8999946
 31
0.0
  0
LINE
  8
0
  6
LTYPE1
 62
     4
 10
2225.5200138
 20
149.699994
 30
0.0
 11
2225.5200138
 21
191.2999908
 31
0.0
  0
LINE
  8
0
  6
LTYPE1
 62
     4
 10
2189.1200166
 20
149.699994
 30
0.0
 11
2189.1200166
 21
191.2999908
 31
0.0
  0
LINE
  8
0
  6
LTYPE1
 62
     4
 10
2152.7200194
 20
149.699994
 30
0.0
 11
2152.7200194
 21
191.2999908
 31
0.0
  0
LINE
  8
0
  6
LTYPE1
 62
     4
 10
2116.3200222
 20
149.699994
 30
0.0
 11
2116.3200222
 21
191.2999908
 31
0.0
  0
LINE
  8
0
  6
LTYPE1
 62
     4
 10
2079.920025
 20
149.699994
 30
0.0
 11
2079.920025
 21
191.2999908
 31
0.0
  0
LINE
  8
0
  6
LTYPE1
 62
     4
 10
2043.5200278
 20
149.699994
 30
0.0
 11
2043.5200278
 21
191.2999908
 31
0.0
  0
LINE
  8
0
  6
LTYPE1
 62
     4
 10
2007.1200306
 20
149.699994
 30
0.0
 11
2007.1200306
 21
191.2999908
 31
0.0
  0
LINE
  8
0
  6
LTYPE1
 62
     4
 10
1970.7200334
 20
149.699994
 30
0.0
 11
1970.7200334
 21
191.2999908
 31
0.0
  0
LINE
  8
0
  6
LTYPE1
 62
     4
 10
1970.7200334
 20
191.2999908
 30
0.0
 11
2225.5200138
 21
191.2999908
 31
0.0
  0
LINE
  8
0
  6
LTYPE1
 62
     4
 10
1970.7200334
 20
149.699994
 30
0.0
 11
2225.5200138
 21
149.699994
 31
0.0
  0
LINE
  8
0
  6
CONTINUOUS
 62
     4
 10
2246.3200122
 20
171.7999923
 30
0.0
 11
2256.7200114
 21
171.7999923
 31
0.0
  0
LINE
  8
0
  6
CONTINUOUS
 62
     4
 10
2311.3200072
 20
156.1999935
 30
0.0
 11
2274.92001
 21
156.1999935
 31
0.0
  0
LINE
  8
0
  6
CONTINUOUS
 62
     4
 10
2274.92001
 20
156.1999935
 30
0.0
 11
2293.1200086
 21
187.3999911
 31
0.0
  0
LINE
  8
0
  6
CONTINUOUS
 62
     4
 10
2293.1200086
 20
187.3999911
 30
0.0
 11
2311.3200072
 21
156.1999935
 31
0.0
  0
TEXT
  8
0
  6
CONTINUOUS
 62
     4
 10
2059.1200266
 20
266.699985
 30
1.03999992
 40
10.3999992
  1
ＴＩＴＬＥ
 50
0.0
 41
0.8
 51
0.0
  7
KANJI9
  0
TEXT
  8
0
  6
CONTINUOUS
 62
     4
 10
2059.1200266
 20
248.4999864
 30
1.247999904
 40
12.47999904
  1
名称
 50
0.0
 41
0.8
 51
0.0
  7
KANJI10
  0
TEXT
  8
0
  6
CONTINUOUS
 62
     2
 10
2143.92
 20
209.7
 30
15.0
 40
30.0
  1
外形寸法図
 50
0.0
 41
1.0
 51
0.0
  7
KANJI11
  0
TEXT
  8
0
  6
CONTINUOUS
 62
     2
 10
2107.92
 20
245.7
 30
4.285714286
 40
30.0
  1
マイティシリンダ
 50
0.0
 41
1.0
 51
0.0
  7
KANJI12
  0
TEXT
  8
0
  6
CONTINUOUS
 62
     2
 10
1939.2200334
 20
155.699994
 30
1.8
 40
30.0
  1
Ａ
 50
0.0
 41
0.8
 51
0.0
  7
KANJI13
  0
CIRCLE
  8
0
  6
CONTINUOUS
 62
     2
 10
1900.2200334
 20
220.199994
 30
0.0
 40
15.0
  0
TEXT
  8
0
  6
CONTINUOUS
 62
     2
 10
1888.9700334
 20
208.949994
 30
1.8
 40
24.0
  1
Ｓ
 50
0.0
 41
1.0
 51
0.0
  7
KANJI14
  0
LINE
  8
0
  6
CONTINUOUS
 62
     6
 10
2005.703030709
 20
120.683996232
 30
0.0
 11
1990.727031861
 21
120.683996232
 31
0.0
  0
LINE
  8
0
  6
CONTINUOUS
 62
     6
 10
2009.447030421
 20
120.683996232
 30
0.0
 11
2024.423029269
 21
120.683996232
 31
0.0
  0
TEXT
  8
0
  6
CONTINUOUS
 62
     2
 10
1665.9200334
 20
170.699994
 30
6.0
 40
21.0
  1
岡田
 50
0.0
 41
0.857142857
 51
0.0
  7
KANJI15
  0
LINE
  8
0
  6
CONTINUOUS
 62
     4
 10
2399.7200004
 20
368.0999772
 30
0.0
 11
2399.7200004
 21
409.699974
 31
0.0
  0
LINE
  8
0
  6
CONTINUOUS
 62
     6
 10
1599.670062
 20
368.0999772
 30
0.0
 11
2400.4700004
 21
368.0999772
 31
0.0
  0
LINE
  8
0
  6
CONTINUOUS
 62
     6
 10
1598.920062
 20
409.699974
 30
0.0
 11
2399.7200004
 21
409.699974
 31
0.0
  0
TEXT
  8
0
  6
CONTINUOUS
 62
     4
 10
1617.42
 20
374.2999968
 30
6.0
 40
21.6
  1
ご用途
 50
0.0
 41
1.111111111
 51
0.0
  7
KANJI8
  0
TEXT
  8
0
  6
CONTINUOUS
 62
     2
 10
1708.92
 20
83.7
 30
1.8
 40
27.0
  1
１／６
 50
0.0
 41
0.666666667
 51
0.0
  7
KANJI16
  0
LINE
  8
0
  6
CONTINUOUS
 62
     1
 10
1523.37
 20
1674.9
 30
0.0
 11
1523.37
 21
1554.78
 31
0.0
  0
LINE
  8
0
  6
CONTINUOUS
 62
     2
 10
1454.07
 20
1674.9
 30
0.0
 11
1454.07
 21
1554.78
 31
0.0
  0
LINE
  8
0
  6
CONTINUOUS
 62
     2
 10
1384.77
 20
1674.9
 30
0.0
 11
1384.77
 21
1554.78
 31
0.0
  0
LINE
  8
0
  6
CONTINUOUS
 62
     1
 10
1292.37
 20
1674.9
 30
0.0
 11
1292.37
 21
1554.78
 31
0.0
  0
LINE
  8
0
  6
CONTINUOUS
 62
     1
 10
1292.37
 20
1674.9
 30
0.0
 11
1523.37
 21
1674.9
 31
0.0
  0
LINE
  8
0
  6
CONTINUOUS
 62
     1
 10
1292.37
 20
1637.94
 30
0.0
 11
1523.37
 21
1637.94
 31
0.0
  0
LINE
  8
0
  6
CONTINUOUS
 62
     2
 10
1292.37
 20
1610.22
 30
0.0
 11
1523.37
 21
1610.22
 31
0.0
  0
LINE
  8
0
  6
CONTINUOUS
 62
     2
 10
1292.37
 20
1582.5
 30
0.0
 11
1523.37
 21
1582.5
 31
0.0
  0
LINE
  8
0
  6
CONTINUOUS
 62
     1
 10
1292.37
 20
1554.78
 30
0.0
 11
1523.37
 21
1554.78
 31
0.0
  0
TEXT
  8
0
  6
CONTINUOUS
 62
     2
 10
1463.31
 20
1658.73
 30
1.386
 40
13.86
  1
起動電流
 50
0.0
 41
0.9
 51
0.0
  7
KANJI17
  0
TEXT
  8
0
  6
CONTINUOUS
 62
     2
 10
1463.31
 20
1642.56
 30
1.386
 40
13.86
  1
　　　Ａ
 50
0.0
 41
0.9
 51
0.0
  7
KANJI17
  0
TEXT
  8
0
  6
CONTINUOUS
 62
     2
 10
1394.01
 20
1658.73
 30
1.386
 40
13.86
  1
定格電流
 50
0.0
 41
0.9
 51
0.0
  7
KANJI17
  0
TEXT
  8
0
  6
CONTINUOUS
 62
     2
 10
1394.01
 20
1642.56
 30
1.386
 40
13.86
  1
　　　Ａ
 50
0.0
 41
0.9
 51
0.0
  7
KANJI17
  0
TEXT
  8
0
  6
CONTINUOUS
 62
     2
 10
1300.224
 20
1589.43
 30
1.386
 40
13.86
  1
２００／６０
 50
0.0
 41
0.9
 51
0.0
  7
KANJI17
  0
TEXT
  8
0
  6
CONTINUOUS
 62
     2
 10
1300.224
 20
1658.73
 30
1.386
 40
13.86
  1
電圧／周波数
 50
0.0
 41
0.9
 51
0.0
  7
KANJI17
  0
TEXT
  8
0
  6
CONTINUOUS
 62
     2
 10
1300.224
 20
1642.56
 30
1.386
 40
13.86
  1
　Ｖ／Ｈｚ
 50
0.0
 41
0.9
 51
0.0
  7
KANJI17
  0
TEXT
  8
0
  6
CONTINUOUS
 62
     2
 10
1300.224
 20
1617.15
 30
1.386
 40
13.86
  1
２００／５０
 50
0.0
 41
0.9
 51
0.0
  7
KANJI17
  0
TEXT
  8
0
  6
CONTINUOUS
 62
     2
 10
1300.224
 20
1561.71
 30
1.386
 40
13.86
  1
２２０／６０
 50
0.0
 41
0.9
 51
0.0
  7
KANJI17
  0
LINE
  8
0
  6
CONTINUOUS
 62
     1
 10
1246.17
 20
1674.9
 30
0.0
 11
1246.17
 21
1554.78
 31
0.0
  0
LINE
  8
0
  6
CONTINUOUS
 62
     2
 10
1176.87
 20
1674.9
 30
0.0
 11
1176.87
 21
1554.78
 31
0.0
  0
LINE
  8
0
  6
CONTINUOUS
 62
     2
 10
1107.57
 20
1674.9
 30
0.0
 11
1107.57
 21
1554.78
 31
0.0
  0
LINE
  8
0
  6
CONTINUOUS
 62
     1
 10
1015.17
 20
1674.9
 30
0.0
 11
1015.17
 21
1554.78
 31
0.0
  0
LINE
  8
0
  6
CONTINUOUS
 62
     1
 10
1015.17
 20
1674.9
 30
0.0
 11
1246.17
 21
1674.9
 31
0.0
  0
LINE
  8
0
  6
CONTINUOUS
 62
     1
 10
1015.17
 20
1637.94
 30
0.0
 11
1246.17
 21
1637.94
 31
0.0
  0
LINE
  8
0
  6
CONTINUOUS
 62
     2
 10
1015.17
 20
1610.22
 30
0.0
 11
1246.17
 21
1610.22
 31
0.0
  0
LINE
  8
0
  6
CONTINUOUS
 62
     2
 10
1015.17
 20
1582.5
 30
0.0
 11
1246.17
 21
1582.5
 31
0.0
  0
LINE
  8
0
  6
CONTINUOUS
 62
     1
 10
1015.17
 20
1554.78
 30
0.0
 11
1246.17
 21
1554.78
 31
0.0
  0
TEXT
  8
0
  6
CONTINUOUS
 62
     2
 10
1186.11
 20
1658.73
 30
1.386
 40
13.86
  1
起動電流
 50
0.0
 41
0.9
 51
0.0
  7
KANJI17
  0
TEXT
  8
0
  6
CONTINUOUS
 62
     2
 10
1186.11
 20
1642.56
 30
1.386
 40
13.86
  1
　　　Ａ
 50
0.0
 41
0.9
 51
0.0
  7
KANJI17
  0
TEXT
  8
0
  6
CONTINUOUS
 62
     2
 10
1116.81
 20
1658.73
 30
1.386
 40
13.86
  1
定格電流
 50
0.0
 41
0.9
 51
0.0
  7
KANJI17
  0
TEXT
  8
0
  6
CONTINUOUS
 62
     2
 10
1116.81
 20
1642.56
 30
1.386
 40
13.86
  1
　　　Ａ
 50
0.0
 41
0.9
 51
0.0
  7
KANJI17
  0
TEXT
  8
0
  6
CONTINUOUS
 62
     2
 10
1023.024
 20
1658.73
 30
1.386
 40
13.86
  1
電圧／周波数
 50
0.0
 41
0.9
 51
0.0
  7
KANJI17
  0
TEXT
  8
0
  6
CONTINUOUS
 62
     2
 10
1023.024
 20
1642.56
 30
1.386
 40
13.86
  1
　Ｖ／Ｈｚ
 50
0.0
 41
0.9
 51
0.0
  7
KANJI17
  0
TEXT
  8
0
  6
CONTINUOUS
 62
     2
 10
1023.024
 20
1617.15
 30
1.386
 40
13.86
  1
４００／５０
 50
0.0
 41
0.9
 51
0.0
  7
KANJI17
  0
TEXT
  8
0
  6
CONTINUOUS
 62
     2
 10
1023.024
 20
1589.43
 30
1.386
 40
13.86
  1
４００／６０
 50
0.0
 41
0.9
 51
0.0
  7
KANJI17
  0
TEXT
  8
0
  6
CONTINUOUS
 62
     2
 10
1023.024
 20
1561.71
 30
1.386
 40
13.86
  1
４４０／６０
 50
0.0
 41
0.9
 51
0.0
  7
KANJI17
  0
TEXT
  8
0
  6
CONTINUOUS
 62
     2
 10
1055.133
 20
1533.99
 30
1.617
 40
16.17
  1
注意：サーマルリレー等の選定は、上記の値を参照下さい。
 50
0.0
 41
0.9
 51
0.0
  7
KANJI18
  0
LINE
  8
0
  6
CONTINUOUS
 62
     2
 10
1045.893
 20
1529.37
 30
0.0
 11
1480.173
 21
1529.37
 31
0.0
  0
TEXT
  8
0
  6
CONTINUOUS
 62
     2
 10
1119.267493476
 20
1615.15
 30
1.386
 40
13.86
  1
　３．２
 50
0.0
 41
0.9
 51
0.0
  7
KANJI17
  0
TEXT
  8
0
  6
CONTINUOUS
 62
     2
 10
1119.267493476
 20
1587.43
 30
1.386
 40
13.86
  1
　２．８
 50
0.0
 41
0.9
 51
0.0
  7
KANJI17
  0
TEXT
  8
0
  6
CONTINUOUS
 62
     2
 10
1119.267493476
 20
1559.71
 30
1.386
 40
13.86
  1
　２．７
 50
0.0
 41
0.9
 51
0.0
  7
KANJI17
  0
TEXT
  8
0
  6
CONTINUOUS
 62
     2
 10
1396.467493476
 20
1559.71
 30
1.386
 40
13.86
  1
　５．３
 50
0.0
 41
0.9
 51
0.0
  7
KANJI17
  0
TEXT
  8
0
  6
CONTINUOUS
 62
     2
 10
1396.467493476
 20
1587.43
 30
1.386
 40
13.86
  1
　５．２
 50
0.0
 41
0.9
 51
0.0
  7
KANJI17
  0
TEXT
  8
0
  6
CONTINUOUS
 62
     2
 10
1396.467493476
 20
1615.15
 30
1.386
 40
13.86
  1
　６．１
 50
0.0
 41
0.9
 51
0.0
  7
KANJI17
  0
TEXT
  8
0
  6
CONTINUOUS
 62
     2
 10
1465.767493476
 20
1615.15
 30
1.386
 40
13.86
  1
２５．１
 50
0.0
 41
0.9
 51
0.0
  7
KANJI17
  0
TEXT
  8
0
  6
CONTINUOUS
 62
     2
 10
1465.767493476
 20
1587.43
 30
1.386
 40
13.86
  1
２２．５
 50
0.0
 41
0.9
 51
0.0
  7
KANJI17
  0
TEXT
  8
0
  6
CONTINUOUS
 62
     2
 10
1465.767493476
 20
1559.71
 30
1.386
 40
13.86
  1
２４．８
 50
0.0
 41
0.9
 51
0.0
  7
KANJI17
  0
TEXT
  8
0
  6
CONTINUOUS
 62
     2
 10
1188.567493476
 20
1615.15
 30
1.386
 40
13.86
  1
１２．５
 50
0.0
 41
0.9
 51
0.0
  7
KANJI17
  0
TEXT
  8
0
  6
CONTINUOUS
 62
     2
 10
1188.567493476
 20
1587.43
 30
1.386
 40
13.86
  1
１１．３
 50
0.0
 41
0.9
 51
0.0
  7
KANJI17
  0
TEXT
  8
0
  6
CONTINUOUS
 62
     2
 10
1188.567493476
 20
1559.71
 30
1.386
 40
13.86
  1
１２．４
 50
0.0
 41
0.9
 51
0.0
  7
KANJI17
  0
TEXT
  8
0
  6
CONTINUOUS
 62
     2
 10
1861.92
 20
251.7
 30
0.0
 40
21.0
  1
ＭＤ２－
 50
0.0
 41
0.793650794
 51
0.0
  7
KANJI19
  0
TEXT
  8
0
  6
CONTINUOUS
 62
     2
 10
1976.7200334
 20
155.699994
 30
13.0
 40
30.0
  1
３００２４８８
 50
0.0
 41
0.8
 51
0.0
  7
KANJI20
  0
TEXT
  8
0
  6
CONTINUOUS
 62
     2
 10
176.4
 20
26.4
 30
0.0
 40
18.0
  1
ＦＤ　Ｎｏ．ＭＣ１９７
 50
0.0
 41
0.9
 51
0.0
  7
KANJI21
  0
LINE
  8
0
  6
CONTINUOUS
 62
     1
 10
1014.12
 20
1491.24
 30
0.0
 11
1791.72
 21
1491.24
 31
0.0
  0
LINE
  8
0
  6
CONTINUOUS
 62
     1
 10
1014.12
 20
1457.64
 30
0.0
 11
1791.72
 21
1457.64
 31
0.0
  0
TEXT
  8
0
  6
CONTINUOUS
 62
     2
 10
1062.12
 20
1467.24
 30
1.536
 40
15.36
  1
形
 50
0.0
 41
0.9
 51
0.0
  7
KANJI22
  0
TEXT
  8
0
  6
CONTINUOUS
 62
     2
 10
1155.72
 20
1467.24
 30
1.536
 40
15.36
  1
式
 50
0.0
 41
0.9
 51
0.0
  7
KANJI22
  0
TEXT
  8
0
  6
CONTINUOUS
 62
     2
 10
1228.2
 20
1466.28
 30
1.44
 40
14.4
  1
ストローク
 50
0.0
 41
0.9
 51
0.0
  7
KANJI23
  0
TEXT
  8
0
  6
CONTINUOUS
 62
     2
 10
1320.36
 20
1465.32
 30
0.0
 40
14.4
  1
ｍｉｎ　
 50
0.0
 41
0.9
 51
0.0
  7
KANJI24
  0
TEXT
  8
0
  6
CONTINUOUS
 62
     2
 10
1416.36
 20
1465.32
 30
0.0
 40
14.4
  1
ｍｉｎ　
 50
0.0
 41
0.9
 51
0.0
  7
KANJI24
  0
TEXT
  8
0
  6
CONTINUOUS
 62
     2
 10
1608.36
 20
1465.32
 30
0.0
 40
14.4
  1
ｍｉｎ　
 50
0.0
 41
0.9
 51
0.0
  7
KANJI24
  0
TEXT
  8
0
  6
CONTINUOUS
 62
     2
 10
1369.32
 20
1466.28
 30
1.68
 40
16.8
  1
ＡＬ
 50
0.0
 41
0.9
 51
0.0
  7
KANJI25
  0
TEXT
  8
0
  6
CONTINUOUS
 62
     2
 10
1465.32
 20
1466.28
 30
1.68
 40
16.8
  1
Ｌ
 50
0.0
 41
0.9
 51
0.0
  7
KANJI25
  0
TEXT
  8
0
  6
CONTINUOUS
 62
     2
 10
1546.92
 20
1466.28
 30
1.68
 40
16.8
  1
Ｃ
 50
0.0
 41
0.9
 51
0.0
  7
KANJI25
  0
TEXT
  8
0
  6
CONTINUOUS
 62
     2
 10
1657.32
 20
1466.28
 30
1.68
 40
16.8
  1
Ｐ
 50
0.0
 41
0.9
 51
0.0
  7
KANJI25
  0
TEXT
  8
0
  6
CONTINUOUS
 62
     2
 10
1756.08
 20
1465.92
 30
0.0
 40
12.96
  1
（ｋｇ）
 50
0.0
 41
0.740740741
 51
0.0
  7
KANJI26
  0
TEXT
  8
0
  6
CONTINUOUS
 62
     2
 10
1698.48
 20
1465.68
 30
1.44
 40
16.8
  1
概算重量
 50
0.0
 41
0.857142857
 51
0.0
  7
KANJI27
  0
TEXT
  8
0
  6
CONTINUOUS
 62
     2
 10
1237.32
 20
1432.08
 30
1.44
 40
14.4
  1
　２００
 50
0.0
 41
0.9
 51
0.0
  7
KANJI23
  0
TEXT
  8
0
  6
CONTINUOUS
 62
     2
 10
1237.32
 20
1398.48
 30
1.44
 40
14.4
  1
　３００
 50
0.0
 41
0.9
 51
0.0
  7
KANJI23
  0
TEXT
  8
0
  6
CONTINUOUS
 62
     2
 10
1237.32
 20
1264.08
 30
1.44
 40
14.4
  1
　７００
 50
0.0
 41
0.9
 51
0.0
  7
KANJI23
  0
TEXT
  8
0
  6
CONTINUOUS
 62
     2
 10
1237.32
 20
1331.28
 30
1.44
 40
14.4
  1
　５００
 50
0.0
 41
0.9
 51
0.0
  7
KANJI23
  0
TEXT
  8
0
  6
CONTINUOUS
 62
     2
 10
1237.32
 20
1364.88
 30
1.44
 40
14.4
  1
　４００
 50
0.0
 41
0.9
 51
0.0
  7
KANJI23
  0
TEXT
  8
0
  6
CONTINUOUS
 62
     2
 10
1237.32
 20
1297.68
 30
1.44
 40
14.4
  1
　６００
 50
0.0
 41
0.9
 51
0.0
  7
KANJI23
  0
TEXT
  8
0
  6
CONTINUOUS
 62
     2
 10
1237.32
 20
1230.48
 30
1.44
 40
14.4
  1
　８００
 50
0.0
 41
0.9
 51
0.0
  7
KANJI23
  0
TEXT
  8
0
  6
CONTINUOUS
 62
     2
 10
1621.32
 20
1432.08
 30
1.44
 40
14.4
  1
　　４５
 50
0.0
 41
0.9
 51
0.0
  7
KANJI23
  0
TEXT
  8
0
  6
CONTINUOUS
 62
     2
 10
1621.32
 20
1398.48
 30
1.44
 40
14.4
  1
　　４５
 50
0.0
 41
0.9
 51
0.0
  7
KANJI23
  0
TEXT
  8
0
  6
CONTINUOUS
 62
     2
 10
1621.32
 20
1364.88
 30
1.44
 40
14.4
  1
　　４５
 50
0.0
 41
0.9
 51
0.0
  7
KANJI23
  0
TEXT
  8
0
  6
CONTINUOUS
 62
     2
 10
1621.32
 20
1331.28
 30
1.44
 40
14.4
  1
　　４５
 50
0.0
 41
0.9
 51
0.0
  7
KANJI23
  0
TEXT
  8
0
  6
CONTINUOUS
 62
     2
 10
1621.32
 20
1297.68
 30
1.44
 40
14.4
  1
　　４５
 50
0.0
 41
0.9
 51
0.0
  7
KANJI23
  0
TEXT
  8
0
  6
CONTINUOUS
 62
     2
 10
1621.32
 20
1264.08
 30
1.44
 40
14.4
  1
　　４５
 50
0.0
 41
0.9
 51
0.0
  7
KANJI23
  0
TEXT
  8
0
  6
CONTINUOUS
 62
     2
 10
1621.32
 20
1230.48
 30
1.44
 40
14.4
  1
　　４５
 50
0.0
 41
0.9
 51
0.0
  7
KANJI23
  0
TEXT
  8
0
  6
CONTINUOUS
 62
     2
 10
1525.32
 20
1432.08
 30
1.44
 40
14.4
  1
　４１２
 50
0.0
 41
0.9
 51
0.0
  7
KANJI23
  0
TEXT
  8
0
  6
CONTINUOUS
 62
     2
 10
1525.32
 20
1398.48
 30
1.44
 40
14.4
  1
　５１２
 50
0.0
 41
0.9
 51
0.0
  7
KANJI23
  0
TEXT
  8
0
  6
CONTINUOUS
 62
     2
 10
1525.32
 20
1364.88
 30
1.44
 40
14.4
  1
　６１２
 50
0.0
 41
0.9
 51
0.0
  7
KANJI23
  0
TEXT
  8
0
  6
CONTINUOUS
 62
     2
 10
1525.32
 20
1331.28
 30
1.44
 40
14.4
  1
　７１２
 50
0.0
 41
0.9
 51
0.0
  7
KANJI23
  0
TEXT
  8
0
  6
CONTINUOUS
 62
     2
 10
1525.32
 20
1297.68
 30
1.44
 40
14.4
  1
　８５２
 50
0.0
 41
0.9
 51
0.0
  7
KANJI23
  0
TEXT
  8
0
  6
CONTINUOUS
 62
     2
 10
1525.32
 20
1264.08
 30
1.44
 40
14.4
  1
　９５２
 50
0.0
 41
0.9
 51
0.0
  7
KANJI23
  0
TEXT
  8
0
  6
CONTINUOUS
 62
     2
 10
1525.32
 20
1230.48
 30
1.44
 40
14.4
  1
１０５２
 50
0.0
 41
0.9
 51
0.0
  7
KANJI23
  0
TEXT
  8
0
  6
CONTINUOUS
 62
     2
 10
1429.32
 20
1432.08
 30
1.44
 40
14.4
  1
　５０７
 50
0.0
 41
0.9
 51
0.0
  7
KANJI23
  0
TEXT
  8
0
  6
CONTINUOUS
 62
     2
 10
1429.32
 20
1398.48
 30
1.44
 40
14.4
  1
　６０７
 50
0.0
 41
0.9
 51
0.0
  7
KANJI23
  0
TEXT
  8
0
  6
CONTINUOUS
 62
     2
 10
1429.32
 20
1364.88
 30
1.44
 40
14.4
  1
　７０７
 50
0.0
 41
0.9
 51
0.0
  7
KANJI23
  0
TEXT
  8
0
  6
CONTINUOUS
 62
     2
 10
1429.32
 20
1331.28
 30
1.44
 40
14.4
  1
　８０７
 50
0.0
 41
0.9
 51
0.0
  7
KANJI23
  0
TEXT
  8
0
  6
CONTINUOUS
 62
     2
 10
1429.32
 20
1297.68
 30
1.44
 40
14.4
  1
　９４７
 50
0.0
 41
0.9
 51
0.0
  7
KANJI23
  0
TEXT
  8
0
  6
CONTINUOUS
 62
     2
 10
1429.32
 20
1264.08
 30
1.44
 40
14.4
  1
１０４７
 50
0.0
 41
0.9
 51
0.0
  7
KANJI23
  0
TEXT
  8
0
  6
CONTINUOUS
 62
     2
 10
1429.32
 20
1230.48
 30
1.44
 40
14.4
  1
１１４７
 50
0.0
 41
0.9
 51
0.0
  7
KANJI23
  0
TEXT
  8
0
  6
CONTINUOUS
 62
     2
 10
1333.32
 20
1432.08
 30
1.44
 40
14.4
  1
　７０４
 50
0.0
 41
0.9
 51
0.0
  7
KANJI23
  0
TEXT
  8
0
  6
CONTINUOUS
 62
     2
 10
1333.32
 20
1398.48
 30
1.44
 40
14.4
  1
　８０４
 50
0.0
 41
0.9
 51
0.0
  7
KANJI23
  0
TEXT
  8
0
  6
CONTINUOUS
 62
     2
 10
1333.32
 20
1364.88
 30
1.44
 40
14.4
  1
　９０７
 50
0.0
 41
0.9
 51
0.0
  7
KANJI23
  0
TEXT
  8
0
  6
CONTINUOUS
 62
     2
 10
1333.32
 20
1331.28
 30
1.44
 40
14.4
  1
１００４
 50
0.0
 41
0.9
 51
0.0
  7
KANJI23
  0
TEXT
  8
0
  6
CONTINUOUS
 62
     2
 10
1333.32
 20
1297.68
 30
1.44
 40
14.4
  1
１１４４
 50
0.0
 41
0.9
 51
0.0
  7
KANJI23
  0
TEXT
  8
0
  6
CONTINUOUS
 62
     2
 10
1333.32
 20
1264.08
 30
1.44
 40
14.4
  1
１２４４
 50
0.0
 41
0.9
 51
0.0
  7
KANJI23
  0
TEXT
  8
0
  6
CONTINUOUS
 62
     2
 10
1333.32
 20
1230.48
 30
1.44
 40
14.4
  1
１３４４
 50
0.0
 41
0.9
 51
0.0
  7
KANJI23
  0
LINE
  8
0
  6
CONTINUOUS
 62
     2
 10
1014.12
 20
1424.04
 30
0.0
 11
1791.72
 21
1424.04
 31
0.0
  0
LINE
  8
0
  6
CONTINUOUS
 62
     2
 10
1014.12
 20
1390.44
 30
0.0
 11
1791.72
 21
1390.44
 31
0.0
  0
LINE
  8
0
  6
CONTINUOUS
 62
     2
 10
1014.12
 20
1222.44
 30
0.0
 11
1791.72
 21
1222.44
 31
0.0
  0
LINE
  8
0
  6
CONTINUOUS
 62
     2
 10
1014.12
 20
1323.24
 30
0.0
 11
1791.72
 21
1323.24
 31
0.0
  0
LINE
  8
0
  6
CONTINUOUS
 62
     2
 10
1014.12
 20
1356.84
 30
0.0
 11
1791.72
 21
1356.84
 31
0.0
  0
LINE
  8
0
  6
CONTINUOUS
 62
     2
 10
1014.12
 20
1256.04
 30
0.0
 11
1791.72
 21
1256.04
 31
0.0
  0
LINE
  8
0
  6
CONTINUOUS
 62
     2
 10
1014.12
 20
1289.64
 30
0.0
 11
1791.72
 21
1289.64
 31
0.0
  0
TEXT
  8
0
  6
CONTINUOUS
 62
     2
 10
1717.32
 20
1432.08
 30
1.44
 40
14.4
  1
　７０
 50
0.0
 41
0.9
 51
0.0
  7
KANJI23
  0
TEXT
  8
0
  6
CONTINUOUS
 62
     2
 10
1717.32
 20
1398.48
 30
1.44
 40
14.4
  1
　７２
 50
0.0
 41
0.9
 51
0.0
  7
KANJI23
  0
TEXT
  8
0
  6
CONTINUOUS
 62
     2
 10
1717.32
 20
1331.28
 30
1.44
 40
14.4
  1
　７７
 50
0.0
 41
0.9
 51
0.0
  7
KANJI23
  0
TEXT
  8
0
  6
CONTINUOUS
 62
     2
 10
1717.32
 20
1364.88
 30
1.44
 40
14.4
  1
　７５
 50
0.0
 41
0.9
 51
0.0
  7
KANJI23
  0
TEXT
  8
0
  6
CONTINUOUS
 62
     2
 10
1717.32
 20
1297.68
 30
1.44
 40
14.4
  1
　７８
 50
0.0
 41
0.9
 51
0.0
  7
KANJI23
  0
TEXT
  8
0
  6
CONTINUOUS
 62
     2
 10
1717.32
 20
1264.08
 30
1.44
 40
14.4
  1
　８０
 50
0.0
 41
0.9
 51
0.0
  7
KANJI23
  0
TEXT
  8
0
  6
CONTINUOUS
 62
     2
 10
1717.32
 20
1230.48
 30
1.44
 40
14.4
  1
　８２
 50
0.0
 41
0.9
 51
0.0
  7
KANJI23
  0
LINE
  8
0
  6
CONTINUOUS
 62
     2
 10
1014.12
 20
1188.84
 30
0.0
 11
1791.72
 21
1188.84
 31
0.0
  0
LINE
  8
0
  6
CONTINUOUS
 62
     2
 10
1014.12
 20
1155.24
 30
0.0
 11
1791.72
 21
1155.24
 31
0.0
  0
TEXT
  8
0
  6
CONTINUOUS
 62
     2
 10
1237.32
 20
1196.88
 30
1.44
 40
14.4
  1
　９００
 50
0.0
 41
0.9
 51
0.0
  7
KANJI23
  0
TEXT
  8
0
  6
CONTINUOUS
 62
     2
 10
1237.32
 20
1163.28
 30
1.44
 40
14.4
  1
１０００
 50
0.0
 41
0.9
 51
0.0
  7
KANJI23
  0
TEXT
  8
0
  6
CONTINUOUS
 62
     2
 10
1333.32
 20
1196.88
 30
1.44
 40
14.4
  1
１４４４
 50
0.0
 41
0.9
 51
0.0
  7
KANJI23
  0
TEXT
  8
0
  6
CONTINUOUS
 62
     2
 10
1333.32
 20
1163.28
 30
1.44
 40
14.4
  1
１５４４
 50
0.0
 41
0.9
 51
0.0
  7
KANJI23
  0
TEXT
  8
0
  6
CONTINUOUS
 62
     2
 10
1429.32
 20
1196.88
 30
1.44
 40
14.4
  1
１２４７
 50
0.0
 41
0.9
 51
0.0
  7
KANJI23
  0
TEXT
  8
0
  6
CONTINUOUS
 62
     2
 10
1429.32
 20
1163.28
 30
1.44
 40
14.4
  1
１３４７
 50
0.0
 41
0.9
 51
0.0
  7
KANJI23
  0
TEXT
  8
0
  6
CONTINUOUS
 62
     2
 10
1525.32
 20
1196.88
 30
1.44
 40
14.4
  1
１１５２
 50
0.0
 41
0.9
 51
0.0
  7
KANJI23
  0
TEXT
  8
0
  6
CONTINUOUS
 62
     2
 10
1525.32
 20
1163.28
 30
1.44
 40
14.4
  1
１２５２
 50
0.0
 41
0.9
 51
0.0
  7
KANJI23
  0
TEXT
  8
0
  6
CONTINUOUS
 62
     2
 10
1621.32
 20
1196.88
 30
1.44
 40
14.4
  1
　　４５
 50
0.0
 41
0.9
 51
0.0
  7
KANJI23
  0
TEXT
  8
0
  6
CONTINUOUS
 62
     2
 10
1621.32
 20
1163.28
 30
1.44
 40
14.4
  1
　　４５
 50
0.0
 41
0.9
 51
0.0
  7
KANJI23
  0
TEXT
  8
0
  6
CONTINUOUS
 62
     2
 10
1717.32
 20
1196.88
 30
1.44
 40
14.4
  1
　８４
 50
0.0
 41
0.9
 51
0.0
  7
KANJI23
  0
TEXT
  8
0
  6
CONTINUOUS
 62
     2
 10
1717.32
 20
1163.28
 30
1.44
 40
14.4
  1
　８６
 50
0.0
 41
0.9
 51
0.0
  7
KANJI23
  0
LINE
  8
0
  6
CONTINUOUS
 62
     1
 10
1014.12
 20
1121.64
 30
0.0
 11
1791.72
 21
1121.64
 31
0.0
  0
LINE
  8
0
  6
CONTINUOUS
 62
     1
 10
1791.72
 20
1491.24
 30
0.0
 11
1791.72
 21
1121.64
 31
0.0
  0
LINE
  8
0
  6
CONTINUOUS
 62
     2
 10
1695.72
 20
1491.24
 30
0.0
 11
1695.72
 21
1121.64
 31
0.0
  0
LINE
  8
0
  6
CONTINUOUS
 62
     2
 10
1599.72
 20
1491.24
 30
0.0
 11
1599.72
 21
1121.64
 31
0.0
  0
LINE
  8
0
  6
CONTINUOUS
 62
     2
 10
1503.72
 20
1491.24
 30
0.0
 11
1503.72
 21
1121.64
 31
0.0
  0
LINE
  8
0
  6
CONTINUOUS
 62
     2
 10
1407.72
 20
1491.24
 30
0.0
 11
1407.72
 21
1121.64
 31
0.0
  0
LINE
  8
0
  6
CONTINUOUS
 62
     2
 10
1311.72
 20
1491.24
 30
0.0
 11
1311.72
 21
1121.64
 31
0.0
  0
LINE
  8
0
  6
CONTINUOUS
 62
     1
 10
1215.72
 20
1491.24
 30
0.0
 11
1215.72
 21
1121.64
 31
0.0
  0
LINE
  8
0
  6
CONTINUOUS
 62
     1
 10
1014.12
 20
1491.24
 30
0.0
 11
1014.12
 21
1121.64
 31
0.0
  0
TEXT
  8
0
  6
CONTINUOUS
 62
     2
 10
1702.92
 20
627.9
 30
6.171428571
 40
21.6
  1
１。運転時は必ずピストンロッドの回転防止を行って下さい。
 50
0.0
 41
0.857142857
 51
0.0
  7
KANJI28
  0
TEXT
  8
0
  6
CONTINUOUS
 62
     2
 10
1702.92
 20
587.1
 30
6.156
 40
21.6
  1
２。モートル：全閉自冷かご形３０分定格
 50
0.0
 41
0.857222222
 51
0.0
  7
KANJI29
  0
TEXT
  8
0
  6
CONTINUOUS
 62
     2
 10
1702.5199098
 20
546.3000036
 30
6.156
 40
21.6
  1
３。呼称ストロークは、機械的ストロークです。
 50
0.0
 41
0.857222222
 51
0.0
  7
KANJI29
  0
TEXT
  8
0
  6
CONTINUOUS
 62
     2
 10
1702.5199098
 20
511.8000036
 30
6.156
 40
21.6
  1
　　必ず、常用はストローク両端に余裕を取って下さい。
 50
0.0
 41
0.857222222
 51
0.0
  7
KANJI29
  0
LINE
  8
0
  6
CONTINUOUS
 62
     2
 10
1770.12
 20
669.3
 30
0.0
 11
1916.52
 21
669.3
 31
0.0
  0
TEXT
  8
0
  6
CONTINUOUS
 62
     2
 10
1786.92
 20
675.9
 30
12.0
 40
24.0
  1
特記事項
 50
0.0
 41
0.9
 51
0.0
  7
KANJI30
  0
LINE
  8
0
  6
CONTINUOUS
 62
     2
 10
1316.222218677
 20
545.133974596
 30
0.0
 11
1316.222218677
 21
408.133974596
 31
0.0
  0
LINE
  8
0
  6
CONTINUOUS
 62
     2
 10
1501.222218677
 20
545.133974596
 30
0.0
 11
1501.222218677
 21
408.133974596
 31
0.0
  0
LINE
  8
0
  6
CONTINUOUS
 62
     2
 10
1313.722218677
 20
606.133974596
 30
0.0
 11
1313.722218677
 21
358.133974596
 31
0.0
  0
LINE
  8
0
  6
CONTINUOUS
 62
     2
 10
1503.722218677
 20
606.133974596
 30
0.0
 11
1503.722218677
 21
358.133974596
 31
0.0
  0
LINE
  8
0
  6
CONTINUOUS
 62
     2
 10
1462.222218677
 20
510.133974596
 30
0.0
 11
1591.722218677
 21
510.133974596
 31
0.0
  0
ARC
  8
0
  6
CONTINUOUS
 62
     1
 10
1458.722218677
 20
512.133974596
 30
0.0
 40
1.0
 50
270.0
 51
0.0
  0
LINE
  8
0
  6
CONTINUOUS
 62
     1
 10
1501.222218677
 20
652.327210886
 30
0.0
 11
1501.222218677
 21
770.171474596
 31
0.0
  0
LINE
  8
0
  6
CONTINUOUS
 62
     1
 10
1316.222218677
 20
652.327210886
 30
0.0
 11
1316.222218677
 21
770.171474596
 31
0.0
  0
ARC
  8
0
  6
CONTINUOUS
 62
     1
 10
1326.222218677
 20
545.133974596
 30
0.0
 40
10.0
 50
180.0
 51
270.0
  0
ARC
  8
0
  6
CONTINUOUS
 62
     1
 10
1491.222218677
 20
545.133974596
 30
0.0
 40
10.0
 50
270.0
 51
0.0
  0
LINE
  8
0
  6
CONTINUOUS
 62
     1
 10
1363.722218677
 20
563.133974596
 30
0.0
 11
1453.722218677
 21
563.133974596
 31
0.0
  0
LINE
  8
0
  6
CONTINUOUS
 62
     1
 10
1341.722218677
 20
570.133974596
 30
0.0
 11
1341.722218677
 21
602.456200733
 31
0.0
  0
ARC
  8
0
  6
CONTINUOUS
 62
     1
 10
1349.722218677
 20
570.133974596
 30
0.0
 40
8.0
 50
180.0
 51
270.0
  0
LINE
  8
0
  6
CONTINUOUS
 62
     1
 10
1341.722218677
 20
654.456200733
 30
0.0
 11
1341.722218677
 21
688.133974596
 31
0.0
  0
ARC
  8
0
  6
CONTINUOUS
 62
     1
 10
1349.722218677
 20
688.133974596
 30
0.0
 40
8.0
 50
90.0
 51
180.0
  0
LINE
  8
0
  6
CONTINUOUS
 62
     1
 10
1475.722218677
 20
654.956200733
 30
0.0
 11
1475.722218677
 21
688.133974596
 31
0.0
  0
ARC
  8
0
  6
CONTINUOUS
 62
     1
 10
1467.722218677
 20
688.133974596
 30
0.0
 40
8.0
 50
0.0
 51
90.0
  0
LINE
  8
0
  6
CONTINUOUS
 62
     1
 10
1475.722218677
 20
570.133974596
 30
0.0
 11
1475.722218677
 21
603.31174846
 31
0.0
  0
ARC
  8
0
  6
CONTINUOUS
 62
     1
 10
1467.722218677
 20
570.133974596
 30
0.0
 40
8.0
 50
270.0
 51
0.0
  0
LINE
  8
0
  6
CONTINUOUS
 62
     1
 10
1457.722218677
 20
562.133974596
 30
0.0
 11
1467.722218677
 21
562.133974596
 31
0.0
  0
LINE
  8
0
  6
CONTINUOUS
 62
     1
 10
1349.722218677
 20
562.133974596
 30
0.0
 11
1360.722218677
 21
562.133974596
 31
0.0
  0
CIRCLE
  8
0
  6
CONTINUOUS
 62
     1
 10
1461.722218677
 20
682.133974596
 30
0.0
 40
9.0
  0
CIRCLE
  8
0
  6
CONTINUOUS
 62
     1
 10
1355.722218677
 20
682.133974596
 30
0.0
 40
9.0
  0
LINE
  8
0
  6
CONTINUOUS
 62
     1
 10
1367.722218677
 20
563.133974596
 30
0.0
 11
1454.722218677
 21
563.133974596
 31
0.0
  0
ARC
  8
0
  6
CONTINUOUS
 62
     1
 10
1360.722218677
 20
558.633974596
 30
0.0
 40
3.0
 50
90.0
 51
180.0
  0
LINE
  8
0
  6
CONTINUOUS
 62
     1
 10
1357.722218677
 20
512.133974596
 30
0.0
 11
1357.722218677
 21
558.633974596
 31
0.0
  0
ARC
  8
0
  6
CONTINUOUS
 62
     1
 10
1358.722218677
 20
512.133974596
 30
0.0
 40
1.0
 50
180.0
 51
270.0
  0
ARC
  8
0
  6
CONTINUOUS
 62
     1
 10
1361.722218677
 20
511.133974596
 30
0.0
 40
1.0
 50
180.0
 51
270.0
  0
ARC
  8
0
  6
CONTINUOUS
 62
     1
 10
1456.722218677
 20
558.633974596
 30
0.0
 40
3.0
 50
0.0
 51
90.0
  0
LINE
  8
0
  6
CONTINUOUS
 62
     1
 10
1459.722218677
 20
512.133974596
 30
0.0
 11
1459.722218677
 21
558.633974596
 31
0.0
  0
ARC
  8
0
  6
CONTINUOUS
 62
     1
 10
1458.722218677
 20
512.133974596
 30
0.0
 40
1.0
 50
270.0
 51
0.0
  0
ARC
  8
0
  6
CONTINUOUS
 62
     1
 10
1455.722218677
 20
511.133974596
 30
0.0
 40
1.0
 50
270.0
 51
0.0
  0
LINE
  8
0
  6
CONTINUOUS
 62
     1
 10
1459.722218677
 20
517.133974596
 30
0.0
 11
1357.722218677
 21
517.133974596
 31
0.0
  0
LINE
  8
0
  6
CONTINUOUS
 62
     1
 10
1459.722218677
 20
518.633974596
 30
0.0
 11
1357.722218677
 21
518.633974596
 31
0.0
  0
LINE
  8
0
  6
CONTINUOUS
 62
     1
 10
1360.722218677
 20
561.633974596
 30
0.0
 11
1456.722218677
 21
561.633974596
 31
0.0
  0
LINE
  8
0
  6
CONTINUOUS
 62
     1
 10
1455.722218677
 20
510.133974596
 30
0.0
 11
1361.722218677
 21
510.133974596
 31
0.0
  0
LINE
  8
0
  6
CONTINUOUS
 62
     1
 10
1458.722218677
 20
511.133974596
 30
0.0
 11
1358.722218677
 21
511.133974596
 31
0.0
  0
LINE
  8
0
  6
CONTINUOUS
 62
     1
 10
1349.722218677
 20
696.133974596
 30
0.0
 11
1371.026065027
 21
696.133974596
 31
0.0
  0
LINE
  8
0
  6
CONTINUOUS
 62
     1
 10
1446.418372326
 20
696.133974596
 30
0.0
 11
1467.722218677
 21
696.133974596
 31
0.0
  0
ARC
  8
0
  6
CONTINUOUS
 62
     1
 10
1408.722218677
 20
794.133974596
 30
0.0
 40
105.0
 50
248.960530219
 51
291.039469781
  0
LINE
  8
0
  6
CONTINUOUS
 62
     1
 10
1459.722218677
 20
535.133974596
 30
0.0
 11
1491.222218677
 21
535.133974596
 31
0.0
  0
LINE
  8
0
  6
CONTINUOUS
 62
     1
 10
1326.222218677
 20
535.133974596
 30
0.0
 11
1357.722218677
 21
535.133974596
 31
0.0
  0
LINE
  8
0
  6
CONTINUOUS
 62
     1
 10
1436.222218677
 20
654.133974596
 30
0.0
 11
1421.222218677
 21
654.133974596
 31
0.0
  0
LINE
  8
0
  6
CONTINUOUS
 62
     1
 10
1440.722218677
 20
607.133974596
 30
0.0
 11
1440.722218677
 21
651.133974596
 31
0.0
  0
LINE
  8
0
  6
CONTINUOUS
 62
     1
 10
1446.722218677
 20
616.633974596
 30
0.0
 11
1446.722218677
 21
641.633974596
 31
0.0
  0
LINE
  8
0
  6
CONTINUOUS
 62
     1
 10
1446.722218677
 20
641.633974596
 30
0.0
 11
1440.722218677
 21
641.633974596
 31
0.0
  0
LINE
  8
0
  6
CONTINUOUS
 62
     1
 10
1446.722218677
 20
616.633974596
 30
0.0
 11
1440.722218677
 21
616.633974596
 31
0.0
  0
LINE
  8
0
  6
CONTINUOUS
 62
     1
 10
1440.722218677
 20
651.133974596
 30
0.0
 11
1436.222218677
 21
651.133974596
 31
0.0
  0
LINE
  8
0
  6
CONTINUOUS
 62
     1
 10
1440.722218677
 20
607.133974596
 30
0.0
 11
1436.222218677
 21
607.133974596
 31
0.0
  0
CIRCLE
  8
0
  6
CONTINUOUS
 62
     1
 10
1442.722218677
 20
629.133974596
 30
0.0
 40
2.0
  0
LINE
  8
0
  6
CONTINUOUS
 62
     1
 10
1376.722218677
 20
607.133974596
 30
0.0
 11
1376.722218677
 21
651.133974596
 31
0.0
  0
LINE
  8
0
  6
CONTINUOUS
 62
     1
 10
1370.722218677
 20
616.633974596
 30
0.0
 11
1370.722218677
 21
641.633974596
 31
0.0
  0
LINE
  8
0
  6
CONTINUOUS
 62
     1
 10
1370.722218677
 20
641.633974596
 30
0.0
 11
1376.722218677
 21
641.633974596
 31
0.0
  0
LINE
  8
0
  6
CONTINUOUS
 62
     1
 10
1370.722218677
 20
616.633974596
 30
0.0
 11
1376.722218677
 21
616.633974596
 31
0.0
  0
LINE
  8
0
  6
CONTINUOUS
 62
     1
 10
1376.722218677
 20
651.133974596
 30
0.0
 11
1381.222218677
 21
651.133974596
 31
0.0
  0
LINE
  8
0
  6
CONTINUOUS
 62
     1
 10
1376.722218677
 20
607.133974596
 30
0.0
 11
1381.222218677
 21
607.133974596
 31
0.0
  0
CIRCLE
  8
0
  6
CONTINUOUS
 62
     1
 10
1374.722218677
 20
629.133974596
 30
0.0
 40
2.0
  0
LINE
  8
0
  6
CONTINUOUS
 62
     1
 10
1421.222218677
 20
616.633974596
 30
0.0
 11
1396.222218677
 21
616.633974596
 31
0.0
  0
LINE
  8
0
  6
CONTINUOUS
 62
     1
 10
1421.222218677
 20
641.633974596
 30
0.0
 11
1396.222218677
 21
641.633974596
 31
0.0
  0
LINE
  8
0
  6
CONTINUOUS
 62
     1
 10
1396.222218677
 20
616.633974596
 30
0.0
 11
1421.222218677
 21
616.633974596
 31
0.0
  0
LINE
  8
0
  6
CONTINUOUS
 62
     1
 10
1396.222218677
 20
641.633974596
 30
0.0
 11
1421.222218677
 21
641.633974596
 31
0.0
  0
LINE
  8
0
  6
CONTINUOUS
 62
     1
 10
1381.222218677
 20
654.133974596
 30
0.0
 11
1421.222218677
 21
654.133974596
 31
0.0
  0
LINE
  8
0
  6
CONTINUOUS
 62
     1
 10
1436.222218677
 20
604.133974596
 30
0.0
 11
1436.222218677
 21
654.133974596
 31
0.0
  0
LINE
  8
0
  6
CONTINUOUS
 62
     1
 10
1381.222218677
 20
604.133974596
 30
0.0
 11
1436.222218677
 21
604.133974596
 31
0.0
  0
LINE
  8
0
  6
CONTINUOUS
 62
     1
 10
1421.222218677
 20
604.133974596
 30
0.0
 11
1421.222218677
 21
654.133974596
 31
0.0
  0
LINE
  8
0
  6
CONTINUOUS
 62
     1
 10
1396.222218677
 20
604.133974596
 30
0.0
 11
1396.222218677
 21
654.133974596
 31
0.0
  0
LINE
  8
0
  6
CONTINUOUS
 62
     1
 10
1381.222218677
 20
604.133974596
 30
0.0
 11
1381.222218677
 21
654.133974596
 31
0.0
  0
LINE
  8
0
  6
CONTINUOUS
 62
     1
 10
1503.722218677
 20
606.133974596
 30
0.0
 11
1503.722218677
 21
652.133974596
 31
0.0
  0
LINE
  8
0
  6
CONTINUOUS
 62
     1
 10
1313.722218677
 20
606.133974596
 30
0.0
 11
1313.722218677
 21
652.133974596
 31
0.0
  0
LINE
  8
0
  6
CONTINUOUS
 62
     1
 10
1316.222218677
 20
545.133974596
 30
0.0
 11
1316.222218677
 21
605.827210886
 31
0.0
  0
LINE
  8
0
  6
CONTINUOUS
 62
     1
 10
1501.222218677
 20
545.133974596
 30
0.0
 11
1501.222218677
 21
605.827210886
 31
0.0
  0
LINE
  8
0
  6
CONTINUOUS
 62
     1
 10
1313.722218677
 20
606.133974596
 30
0.0
 11
1353.222218677
 21
601.28710797
 31
0.0
  0
LINE
  8
0
  6
CONTINUOUS
 62
     1
 10
1503.722218677
 20
606.133974596
 30
0.0
 11
1463.722218677
 21
601.225755228
 31
0.0
  0
LINE
  8
0
  6
CONTINUOUS
 62
     1
 10
1503.722218677
 20
652.133974596
 30
0.0
 11
1464.222218677
 21
656.980841222
 31
0.0
  0
LINE
  8
0
  6
CONTINUOUS
 62
     1
 10
1313.722218677
 20
652.133974596
 30
0.0
 11
1353.722218677
 21
657.042193964
 31
0.0
  0
LINE
  8
0
  6
CONTINUOUS
 62
     1
 10
1453.722218677
 20
563.133974596
 30
0.0
 11
1453.722218677
 21
585.940738307
 31
0.0
  0
LINE
  8
0
  6
CONTINUOUS
 62
     1
 10
1363.722218677
 20
563.133974596
 30
0.0
 11
1363.722218677
 21
585.760595664
 31
0.0
  0
ARC
  8
0
  6
CONTINUOUS
 62
     1
 10
1355.722218677
 20
576.133974596
 30
0.0
 40
9.0
 50
24.386100197
 51
334.165016937
  0
ARC
  8
0
  6
CONTINUOUS
 62
     1
 10
1461.722218677
 20
576.133974596
 30
0.0
 40
9.0
 50
202.863808572
 51
155.613899803
  0
LINE
  8
0
  6
LTYPE2
 62
     2
 10
1447.722218677
 20
682.133974596
 30
0.0
 11
1474.222218677
 21
682.133974596
 31
0.0
  0
LINE
  8
0
  6
LTYPE2
 62
     2
 10
1461.722218677
 20
667.633974596
 30
0.0
 11
1461.722218677
 21
694.633974596
 31
0.0
  0
LINE
  8
0
  6
LTYPE2
 62
     2
 10
1355.722218677
 20
668.133974596
 30
0.0
 11
1355.722218677
 21
694.633974596
 31
0.0
  0
LINE
  8
0
  6
LTYPE2
 62
     2
 10
1370.222218677
 20
682.133974596
 30
0.0
 11
1343.222218677
 21
682.133974596
 31
0.0
  0
LINE
  8
0
  6
LTYPE2
 62
     2
 10
1369.722218677
 20
576.133974596
 30
0.0
 11
1343.222218677
 21
576.133974596
 31
0.0
  0
LINE
  8
0
  6
LTYPE2
 62
     2
 10
1355.722218677
 20
590.633974596
 30
0.0
 11
1355.722218677
 21
563.633974596
 31
0.0
  0
LINE
  8
0
  6
LTYPE2
 62
     2
 10
1461.722218677
 20
590.133974596
 30
0.0
 11
1461.722218677
 21
563.633974596
 31
0.0
  0
LINE
  8
0
  6
LTYPE2
 62
     2
 10
1447.222218677
 20
576.133974596
 30
0.0
 11
1474.222218677
 21
576.133974596
 31
0.0
  0
LINE
  8
0
  6
LTYPE2
 62
     2
 10
1453.722218677
 20
506.433974596
 30
0.0
 11
1453.722218677
 21
525.133974596
 31
0.0
  0
LINE
  8
0
  6
LTYPE2
 62
     2
 10
1363.722218677
 20
506.433974596
 30
0.0
 11
1363.722218677
 21
525.133974596
 31
0.0
  0
LINE
  8
0
  6
LTYPE3
 62
     2
 10
1442.622218677
 20
625.133974596
 30
0.0
 11
1442.622218677
 21
633.333974596
 31
0.0
  0
LINE
  8
0
  6
LTYPE1
 62
     2
 10
1440.722218677
 20
641.633974596
 30
0.0
 11
1421.222218677
 21
641.633974596
 31
0.0
  0
LINE
  8
0
  6
LTYPE1
 62
     2
 10
1440.722218677
 20
616.633974596
 30
0.0
 11
1421.222218677
 21
616.633974596
 31
0.0
  0
LINE
  8
0
  6
LTYPE3
 62
     2
 10
1374.822218677
 20
625.133974596
 30
0.0
 11
1374.822218677
 21
633.333974596
 31
0.0
  0
LINE
  8
0
  6
LTYPE1
 62
     2
 10
1376.722218677
 20
641.633974596
 30
0.0
 11
1396.222218677
 21
641.633974596
 31
0.0
  0
LINE
  8
0
  6
LTYPE1
 62
     2
 10
1376.722218677
 20
616.633974596
 30
0.0
 11
1396.222218677
 21
616.633974596
 31
0.0
  0
LINE
  8
0
  6
LTYPE1
 62
     2
 10
1473.722218677
 20
616.633974596
 30
0.0
 11
1503.722218677
 21
616.633974596
 31
0.0
  0
LINE
  8
0
  6
LTYPE1
 62
     2
 10
1473.722218677
 20
641.633974596
 30
0.0
 11
1503.722218677
 21
641.633974596
 31
0.0
  0
LINE
  8
0
  6
LTYPE1
 62
     2
 10
1473.722218677
 20
616.633974596
 30
0.0
 11
1473.722218677
 21
641.633974596
 31
0.0
  0
LINE
  8
0
  6
LTYPE1
 62
     2
 10
1343.722218677
 20
616.633974596
 30
0.0
 11
1313.722218677
 21
616.633974596
 31
0.0
  0
LINE
  8
0
  6
LTYPE1
 62
     2
 10
1343.722218677
 20
641.633974596
 30
0.0
 11
1313.722218677
 21
641.633974596
 31
0.0
  0
LINE
  8
0
  6
LTYPE1
 62
     2
 10
1343.722218677
 20
616.633974596
 30
0.0
 11
1343.722218677
 21
641.633974596
 31
0.0
  0
CIRCLE
  8
0
  6
CONTINUOUS
 62
     2
 10
1408.722218677
 20
535.633974596
 30
0.0
 40
10.4775
  0
CIRCLE
  8
0
  6
CONTINUOUS
 62
     2
 10
1408.722218677
 20
535.633974596
 30
0.0
 40
9.3155
  0
LINE
  8
0
  6
LTYPE4
 62
     2
 10
1428.622218677
 20
535.633974596
 30
0.0
 11
1387.922218677
 21
535.633974596
 31
0.0
  0
LINE
  8
0
  6
CONTINUOUS
 62
     1
 10
1316.222218677
 20
841.633974596
 30
0.0
 11
1316.222218677
 21
864.663379095
 31
0.0
  0
LINE
  8
0
  6
CONTINUOUS
 62
     1
 10
1501.222218677
 20
840.133974596
 30
0.0
 11
1501.222218677
 21
864.663379095
 31
0.0
  0
ARC
  8
0
  6
CONTINUOUS
 62
     1
 10
1423.710213873
 20
850.733974596
 30
0.0
 40
8.0
 50
200.487315115
 51
251.805127661
  0
ARC
  8
0
  6
CONTINUOUS
 62
     1
 10
1393.73422348
 20
850.733974596
 30
0.0
 40
8.0
 50
288.194872339
 51
339.512684885
  0
ARC
  8
0
  6
CONTINUOUS
 62
     1
 10
1408.722218677
 20
845.133974596
 30
0.0
 40
8.0
 50
20.487315115
 51
159.512540111
  0
ARC
  8
0
  6
CONTINUOUS
 62
     1
 10
1423.710213873
 20
759.533974596
 30
0.0
 40
8.0
 50
108.194872339
 51
159.512684885
  0
ARC
  8
0
  6
CONTINUOUS
 62
     1
 10
1393.73422348
 20
759.533974596
 30
0.0
 40
8.0
 50
20.487315115
 51
71.805127661
  0
ARC
  8
0
  6
CONTINUOUS
 62
     1
 10
1408.722218677
 20
765.133974596
 30
0.0
 40
8.0
 50
200.487459889
 51
339.512684885
  0
ARC
  8
0
  6
CONTINUOUS
 62
     1
 10
1408.722218677
 20
805.133974596
 30
0.0
 40
40.0
 50
108.194872339
 51
251.805127661
  0
ARC
  8
0
  6
CONTINUOUS
 62
     1
 10
1454.722218677
 20
805.133974596
 30
0.0
 40
9.0
 50
278.674045508
 51
81.325934821
  0
CIRCLE
  8
0
  6
CONTINUOUS
 62
     1
 10
1408.722218677
 20
805.133974596
 30
0.0
 40
23.0
  0
ARC
  8
0
  6
CONTINUOUS
 62
     1
 10
1408.722218677
 20
805.133974596
 30
0.0
 40
40.0
 50
25.554707728
 51
71.805142343
  0
ARC
  8
0
  6
CONTINUOUS
 62
     1
 10
1408.722218677
 20
805.133974596
 30
0.0
 40
40.0
 50
288.194857657
 51
334.445306215
  0
LINE
  8
0
  6
CONTINUOUS
 62
     2
 10
1451.722218677
 20
822.133974596
 30
0.0
 11
1451.722218677
 21
786.133974596
 31
0.0
  0
LINE
  8
0
  6
CONTINUOUS
 62
     1
 10
1452.722218677
 20
821.233974596
 30
0.0
 11
1450.722218677
 21
821.233974596
 31
0.0
  0
LINE
  8
0
  6
CONTINUOUS
 62
     1
 10
1450.722218677
 20
821.233974596
 30
0.0
 11
1448.722218677
 21
809.633974596
 31
0.0
  0
LINE
  8
0
  6
CONTINUOUS
 62
     1
 10
1452.722218677
 20
821.233974596
 30
0.0
 11
1454.722218677
 21
809.633974596
 31
0.0
  0
LINE
  8
0
  6
CONTINUOUS
 62
     1
 10
1452.722218677
 20
789.033974596
 30
0.0
 11
1450.722218677
 21
789.033974596
 31
0.0
  0
LINE
  8
0
  6
CONTINUOUS
 62
     1
 10
1450.722218677
 20
789.033974596
 30
0.0
 11
1448.722218677
 21
800.633974596
 31
0.0
  0
LINE
  8
0
  6
CONTINUOUS
 62
     1
 10
1452.722218677
 20
789.033974596
 30
0.0
 11
1454.722218677
 21
800.633974596
 31
0.0
  0
ARC
  8
0
  6
CONTINUOUS
 62
     1
 10
1458.341783894
 20
828.859461897
 30
0.0
 40
15.0
 50
205.554693785
 51
235.747997449
  0
ARC
  8
0
  6
CONTINUOUS
 62
     1
 10
1458.341783894
 20
828.859461897
 30
0.0
 40
15.0
 50
252.681090544
 51
261.325827457
  0
ARC
  8
0
  6
CONTINUOUS
 62
     1
 10
1458.341783894
 20
781.408487296
 30
0.0
 40
15.0
 50
124.468179449
 51
154.445306215
  0
ARC
  8
0
  6
CONTINUOUS
 62
     1
 10
1458.341783894
 20
781.408487296
 30
0.0
 40
15.0
 50
98.674172543
 51
107.318909456
  0
CIRCLE
  8
0
  6
CONTINUOUS
 62
     1
 10
1451.722218677
 20
805.133974596
 30
0.0
 40
3.0
  0
LINE
  8
0
  6
CONTINUOUS
 62
     1
 10
1448.743523379
 20
809.757541869
 30
0.0
 11
1448.700913975
 21
800.510407324
 31
0.0
  0
LINE
  8
0
  6
CONTINUOUS
 62
     1
 10
1454.743523378
 20
800.510407324
 30
0.0
 11
1454.700913974
 21
809.757541869
 31
0.0
  0
ARC
  8
0
  6
CONTINUOUS
 62
     1
 10
1451.722218677
 20
805.133974596
 30
0.0
 40
5.5
 50
304.570397879
 51
57.208673154
  0
ARC
  8
0
  6
CONTINUOUS
 62
     1
 10
1451.722218677
 20
805.133974596
 30
0.0
 40
5.5
 50
122.791326846
 51
235.429602121
  0
LINE
  8
0
  6
CONTINUOUS
 62
     1
 10
1411.072218677
 20
852.204293994
 30
0.0
 11
1406.372218677
 21
852.204293994
 31
0.0
  0
LINE
  8
0
  6
CONTINUOUS
 62
     1
 10
1406.372218677
 20
852.204293994
 30
0.0
 11
1404.022218677
 21
848.133974596
 31
0.0
  0
LINE
  8
0
  6
CONTINUOUS
 62
     1
 10
1404.022218677
 20
848.133974596
 30
0.0
 11
1406.372218677
 21
844.063655198
 31
0.0
  0
LINE
  8
0
  6
CONTINUOUS
 62
     1
 10
1406.372218677
 20
844.063655198
 30
0.0
 11
1411.072218677
 21
844.063655198
 31
0.0
  0
LINE
  8
0
  6
CONTINUOUS
 62
     1
 10
1411.072218677
 20
844.063655198
 30
0.0
 11
1413.422218677
 21
848.133974596
 31
0.0
  0
LINE
  8
0
  6
CONTINUOUS
 62
     1
 10
1413.422218677
 20
848.133974596
 30
0.0
 11
1411.072218677
 21
852.204293994
 31
0.0
  0
LINE
  8
0
  6
CONTINUOUS
 62
     2
 10
1414.722218677
 20
848.133974596
 30
0.0
 11
1402.722218677
 21
848.133974596
 31
0.0
  0
LINE
  8
0
  6
CONTINUOUS
 62
     1
 10
1411.072218677
 20
758.063655198
 30
0.0
 11
1406.372218677
 21
758.063655198
 31
0.0
  0
LINE
  8
0
  6
CONTINUOUS
 62
     1
 10
1406.372218677
 20
758.063655198
 30
0.0
 11
1404.022218677
 21
762.133974596
 31
0.0
  0
LINE
  8
0
  6
CONTINUOUS
 62
     1
 10
1404.022218677
 20
762.133974596
 30
0.0
 11
1406.372218677
 21
766.204293994
 31
0.0
  0
LINE
  8
0
  6
CONTINUOUS
 62
     1
 10
1406.372218677
 20
766.204293994
 30
0.0
 11
1411.072218677
 21
766.204293994
 31
0.0
  0
LINE
  8
0
  6
CONTINUOUS
 62
     1
 10
1411.072218677
 20
766.204293994
 30
0.0
 11
1413.422218677
 21
762.133974596
 31
0.0
  0
LINE
  8
0
  6
CONTINUOUS
 62
     1
 10
1413.422218677
 20
762.133974596
 30
0.0
 11
1411.072218677
 21
758.063655198
 31
0.0
  0
LINE
  8
0
  6
CONTINUOUS
 62
     2
 10
1414.722218677
 20
762.133974596
 30
0.0
 11
1402.722218677
 21
762.133974596
 31
0.0
  0
LINE
  8
0
  6
CONTINUOUS
 62
     1
 10
1403.785873875
 20
807.983974596
 30
0.0
 11
1403.785873875
 21
802.283974596
 31
0.0
  0
LINE
  8
0
  6
CONTINUOUS
 62
     1
 10
1403.785873875
 20
802.283974596
 30
0.0
 11
1408.722218677
 21
799.433974596
 31
0.0
  0
LINE
  8
0
  6
CONTINUOUS
 62
     1
 10
1408.722218677
 20
799.433974596
 30
0.0
 11
1413.658563478
 21
802.283974596
 31
0.0
  0
LINE
  8
0
  6
CONTINUOUS
 62
     1
 10
1413.658563478
 20
802.283974596
 30
0.0
 11
1413.658563478
 21
807.983974596
 31
0.0
  0
LINE
  8
0
  6
CONTINUOUS
 62
     1
 10
1413.658563478
 20
807.983974596
 30
0.0
 11
1408.722218677
 21
810.833974596
 31
0.0
  0
LINE
  8
0
  6
CONTINUOUS
 62
     1
 10
1408.722218677
 20
810.833974596
 30
0.0
 11
1403.785873875
 21
807.983974596
 31
0.0
  0
CIRCLE
  8
0
  6
CONTINUOUS
 62
     1
 10
1408.722218677
 20
805.133974596
 30
0.0
 40
6.5
  0
LINE
  8
0
  6
CONTINUOUS
 62
     1
 10
1438.722218677
 20
887.133974596
 30
0.0
 11
1438.722218677
 21
890.133974596
 31
0.0
  0
ARC
  8
0
  6
CONTINUOUS
 62
     1
 10
1434.722218677
 20
884.133974596
 30
0.0
 40
3.0
 50
90.0
 51
180.0
  0
LINE
  8
0
  6
CONTINUOUS
 62
     1
 10
1431.722218677
 20
873.287593838
 30
0.0
 11
1431.722218677
 21
884.133974596
 31
0.0
  0
ARC
  8
0
  6
CONTINUOUS
 62
     1
 10
1427.722218677
 20
873.287593838
 30
0.0
 40
4.0
 50
304.936144888
 51
0.0
  0
ARC
  8
0
  6
CONTINUOUS
 62
     1
 10
1382.722218677
 20
884.133974596
 30
0.0
 40
3.0
 50
0.0
 51
90.0
  0
LINE
  8
0
  6
CONTINUOUS
 62
     1
 10
1385.722218677
 20
873.287593838
 30
0.0
 11
1385.722218677
 21
884.133974596
 31
0.0
  0
ARC
  8
0
  6
CONTINUOUS
 62
     1
 10
1389.722218677
 20
873.287593838
 30
0.0
 40
4.0
 50
180.0
 51
235.063855112
  0
CIRCLE
  8
0
  6
CONTINUOUS
 62
     1
 10
1408.722218677
 20
912.133974596
 30
0.0
 40
17.0
  0
LINE
  8
0
  6
LTYPE4
 62
     2
 10
1385.722218677
 20
912.133974596
 30
0.0
 11
1431.722218677
 21
912.133974596
 31
0.0
  0
ARC
  8
0
  6
CONTINUOUS
 62
     1
 10
1366.722218677
 20
934.154020484
 30
0.0
 40
2.0
 50
90.0
 51
180.0
  0
ARC
  8
0
  6
CONTINUOUS
 62
     1
 10
1374.722218677
 20
940.133974596
 30
0.0
 40
2.0
 50
90.0
 51
180.0
  0
LINE
  8
0
  6
CONTINUOUS
 62
     1
 10
1374.722218677
 20
942.133974596
 30
0.0
 11
1442.722218677
 21
942.133974596
 31
0.0
  0
ARC
  8
0
  6
CONTINUOUS
 62
     1
 10
1442.722218677
 20
940.133974596
 30
0.0
 40
2.0
 50
0.0
 51
90.0
  0
LINE
  8
0
  6
CONTINUOUS
 62
     1
 10
1450.722218677
 20
936.154020484
 30
0.0
 11
1366.722218677
 21
936.154020484
 31
0.0
  0
ARC
  8
0
  6
CONTINUOUS
 62
     1
 10
1450.722218677
 20
934.154020484
 30
0.0
 40
2.0
 50
0.0
 51
90.0
  0
ARC
  8
0
  6
CONTINUOUS
 62
     1
 10
1366.722218677
 20
938.154020484
 30
0.0
 40
2.0
 50
90.0
 51
180.0
  0
ARC
  8
0
  6
CONTINUOUS
 62
     1
 10
1374.722218677
 20
931.133974596
 30
0.0
 40
2.0
 50
90.0
 51
180.0
  0
LINE
  8
0
  6
CONTINUOUS
 62
     1
 10
1374.722218677
 20
933.133974596
 30
0.0
 11
1442.722218677
 21
933.133974596
 31
0.0
  0
ARC
  8
0
  6
CONTINUOUS
 62
     1
 10
1442.722218677
 20
931.133974596
 30
0.0
 40
2.0
 50
0.0
 51
90.0
  0
LINE
  8
0
  6
CONTINUOUS
 62
     1
 10
1450.722218677
 20
940.154020484
 30
0.0
 11
1366.722218677
 21
940.154020484
 31
0.0
  0
ARC
  8
0
  6
CONTINUOUS
 62
     1
 10
1450.722218677
 20
938.154020484
 30
0.0
 40
2.0
 50
0.0
 51
90.0
  0
LINE
  8
0
  6
CONTINUOUS
 62
     1
 10
1378.722218677
 20
887.133974596
 30
0.0
 11
1438.722218677
 21
887.133974596
 31
0.0
  0
LINE
  8
0
  6
CONTINUOUS
 62
     1
 10
1378.722218677
 20
887.133974596
 30
0.0
 11
1378.722218677
 21
890.133974596
 31
0.0
  0
LINE
  8
0
  6
CONTINUOUS
 62
     1
 10
1444.722218677
 20
892.133974596
 30
0.0
 11
1450.722218677
 21
892.133974596
 31
0.0
  0
LINE
  8
0
  6
CONTINUOUS
 62
     1
 10
1452.722218677
 20
894.133974596
 30
0.0
 11
1452.722218677
 21
938.154020484
 31
0.0
  0
ARC
  8
0
  6
CONTINUOUS
 62
     1
 10
1450.722218677
 20
894.133974596
 30
0.0
 40
2.0
 50
270.0
 51
0.0
  0
LINE
  8
0
  6
CONTINUOUS
 62
     1
 10
1444.722218677
 20
892.133974596
 30
0.0
 11
1444.722218677
 21
931.133974596
 31
0.0
  0
ARC
  8
0
  6
CONTINUOUS
 62
     1
 10
1442.722218677
 20
892.133974596
 30
0.0
 40
2.0
 50
270.0
 51
0.0
  0
LINE
  8
0
  6
CONTINUOUS
 62
     1
 10
1372.722218677
 20
892.133974596
 30
0.0
 11
1372.722218677
 21
931.133974596
 31
0.0
  0
LINE
  8
0
  6
CONTINUOUS
 62
     1
 10
1374.722218677
 20
890.133974596
 30
0.0
 11
1442.722218677
 21
890.133974596
 31
0.0
  0
ARC
  8
0
  6
CONTINUOUS
 62
     1
 10
1374.722218677
 20
892.133974596
 30
0.0
 40
2.0
 50
180.0
 51
270.0
  0
LINE
  8
0
  6
CONTINUOUS
 62
     1
 10
1372.722218677
 20
892.133974596
 30
0.0
 11
1366.722218677
 21
892.133974596
 31
0.0
  0
LINE
  8
0
  6
CONTINUOUS
 62
     1
 10
1364.722218677
 20
894.133974596
 30
0.0
 11
1364.722218677
 21
938.154020484
 31
0.0
  0
ARC
  8
0
  6
CONTINUOUS
 62
     1
 10
1366.722218677
 20
894.133974596
 30
0.0
 40
2.0
 50
180.0
 51
270.0
  0
CIRCLE
  8
0
  6
CONTINUOUS
 62
     2
 10
1408.722218677
 20
912.133974596
 30
0.0
 40
15.0
  0
CIRCLE
  8
0
  6
CONTINUOUS
 62
     1
 10
1408.722218677
 20
805.133974596
 30
0.0
 40
71.0
  0
ARC
  8
0
  6
CONTINUOUS
 62
     1
 10
1408.722218677
 20
805.133974596
 30
0.0
 40
100.0
 50
116.103881137
 51
63.896118863
  0
LINE
  8
0
  6
LTYPE4
 62
     2
 10
1358.722218677
 20
855.133974596
 30
0.0
 11
1342.722218677
 21
871.133974596
 31
0.0
  0
LINE
  8
0
  6
CONTINUOUS
 62
     1
 10
1355.385909229
 20
872.130538082
 30
0.0
 11
1345.385909229
 21
872.130538082
 31
0.0
  0
LINE
  8
0
  6
CONTINUOUS
 62
     1
 10
1345.385909229
 20
872.130538082
 30
0.0
 11
1340.385909229
 21
863.470284044
 31
0.0
  0
LINE
  8
0
  6
CONTINUOUS
 62
     1
 10
1340.385909229
 20
863.470284044
 30
0.0
 11
1345.385909229
 21
854.810030006
 31
0.0
  0
LINE
  8
0
  6
CONTINUOUS
 62
     1
 10
1345.385909229
 20
854.810030006
 30
0.0
 11
1355.385909229
 21
854.810030006
 31
0.0
  0
LINE
  8
0
  6
CONTINUOUS
 62
     1
 10
1355.385909229
 20
854.810030006
 30
0.0
 11
1360.385909229
 21
863.470284044
 31
0.0
  0
LINE
  8
0
  6
CONTINUOUS
 62
     1
 10
1360.385909229
 20
863.470284044
 30
0.0
 11
1355.385909229
 21
872.130538082
 31
0.0
  0
LINE
  8
0
  6
LTYPE4
 62
     2
 10
1458.722218677
 20
855.133974596
 30
0.0
 11
1474.722218677
 21
871.133974596
 31
0.0
  0
LINE
  8
0
  6
CONTINUOUS
 62
     1
 10
1462.058528124
 20
872.130538082
 30
0.0
 11
1472.058528124
 21
872.130538082
 31
0.0
  0
LINE
  8
0
  6
CONTINUOUS
 62
     1
 10
1472.058528124
 20
872.130538082
 30
0.0
 11
1477.058528124
 21
863.470284044
 31
0.0
  0
LINE
  8
0
  6
CONTINUOUS
 62
     1
 10
1477.058528124
 20
863.470284044
 30
0.0
 11
1472.058528124
 21
854.810030006
 31
0.0
  0
LINE
  8
0
  6
CONTINUOUS
 62
     1
 10
1472.058528124
 20
854.810030006
 30
0.0
 11
1462.058528124
 21
854.810030006
 31
0.0
  0
LINE
  8
0
  6
CONTINUOUS
 62
     1
 10
1462.058528124
 20
854.810030006
 30
0.0
 11
1457.058528124
 21
863.470284044
 31
0.0
  0
LINE
  8
0
  6
CONTINUOUS
 62
     1
 10
1457.058528124
 20
863.470284044
 30
0.0
 11
1462.058528124
 21
872.130538082
 31
0.0
  0
LINE
  8
0
  6
LTYPE4
 62
     2
 10
1358.722218677
 20
755.133974596
 30
0.0
 11
1342.722218677
 21
739.133974596
 31
0.0
  0
LINE
  8
0
  6
CONTINUOUS
 62
     1
 10
1355.385909229
 20
738.13741111
 30
0.0
 11
1345.385909229
 21
738.13741111
 31
0.0
  0
LINE
  8
0
  6
CONTINUOUS
 62
     1
 10
1345.385909229
 20
738.13741111
 30
0.0
 11
1340.385909229
 21
746.797665148
 31
0.0
  0
LINE
  8
0
  6
CONTINUOUS
 62
     1
 10
1340.385909229
 20
746.797665148
 30
0.0
 11
1345.385909229
 21
755.457919186
 31
0.0
  0
LINE
  8
0
  6
CONTINUOUS
 62
     1
 10
1345.385909229
 20
755.457919186
 30
0.0
 11
1355.385909229
 21
755.457919186
 31
0.0
  0
LINE
  8
0
  6
CONTINUOUS
 62
     1
 10
1355.385909229
 20
755.457919186
 30
0.0
 11
1360.385909229
 21
746.797665148
 31
0.0
  0
LINE
  8
0
  6
CONTINUOUS
 62
     1
 10
1360.385909229
 20
746.797665148
 30
0.0
 11
1355.385909229
 21
738.13741111
 31
0.0
  0
LINE
  8
0
  6
LTYPE4
 62
     2
 10
1458.722218677
 20
755.133974596
 30
0.0
 11
1474.722218677
 21
739.133974596
 31
0.0
  0
LINE
  8
0
  6
CONTINUOUS
 62
     1
 10
1462.058528124
 20
738.13741111
 30
0.0
 11
1472.058528124
 21
738.13741111
 31
0.0
  0
LINE
  8
0
  6
CONTINUOUS
 62
     1
 10
1472.058528124
 20
738.13741111
 30
0.0
 11
1477.058528124
 21
746.797665148
 31
0.0
  0
LINE
  8
0
  6
CONTINUOUS
 62
     1
 10
1477.058528124
 20
746.797665148
 30
0.0
 11
1472.058528124
 21
755.457919186
 31
0.0
  0
LINE
  8
0
  6
CONTINUOUS
 62
     1
 10
1472.058528124
 20
755.457919186
 30
0.0
 11
1462.058528124
 21
755.457919186
 31
0.0
  0
LINE
  8
0
  6
CONTINUOUS
 62
     1
 10
1462.058528124
 20
755.457919186
 30
0.0
 11
1457.058528124
 21
746.797665148
 31
0.0
  0
LINE
  8
0
  6
CONTINUOUS
 62
     1
 10
1457.058528124
 20
746.797665148
 30
0.0
 11
1462.058528124
 21
738.13741111
 31
0.0
  0
ARC
  8
0
  6
LTYPE4
 62
     2
 10
1408.722218677
 20
805.133974596
 30
0.0
 40
82.5
 50
213.899731785
 51
235.960335446
  0
ARC
  8
0
  6
LTYPE4
 62
     2
 10
1408.722218677
 20
805.133974596
 30
0.0
 40
82.5
 50
300.927939213
 51
327.087998905
  0
ARC
  8
0
  6
LTYPE4
 62
     2
 10
1408.722218677
 20
805.133974596
 30
0.0
 40
82.5
 50
122.095648245
 51
145.904134413
  0
ARC
  8
0
  6
LTYPE4
 62
     2
 10
1408.722218677
 20
805.133974596
 30
0.0
 40
82.5
 50
35.204140887
 51
56.44447448
  0
ARC
  8
0
  6
CONTINUOUS
 62
     1
 10
1408.722218677
 20
805.133974596
 30
0.0
 40
110.0
 50
113.578178478
 51
147.236242241
  0
ARC
  8
0
  6
CONTINUOUS
 62
     1
 10
1408.722218677
 20
805.133974596
 30
0.0
 40
110.0
 50
32.763757759
 51
66.421821522
  0
LINE
  8
0
  6
CONTINUOUS
 62
     2
 10
1446.222218677
 20
942.133974596
 30
0.0
 11
1623.214451633
 21
942.133974596
 31
0.0
  0
LINE
  8
0
  6
LTYPE4
 62
     2
 10
1408.722218677
 20
517.833974596
 30
0.0
 11
1408.722218677
 21
948.4
 31
0.0
  0
LINE
  8
0
  6
LTYPE3
 62
     2
 10
1307.722218677
 20
629.133974596
 30
0.0
 11
1521.022218677
 21
629.133974596
 31
0.0
  0
CIRCLE
  8
0
  6
CONTINUOUS
 62
     1
 10
1408.722218677
 20
629.133974596
 30
0.0
 40
44.5
  0
LINE
  8
0
  6
CONTINUOUS
 62
     1
 10
1403.722218677
 20
686.133974596
 30
0.0
 11
1413.722218677
 21
686.133974596
 31
0.0
  0
LINE
  8
0
  6
CONTINUOUS
 62
     1
 10
1403.722218677
 20
686.133974596
 30
0.0
 11
1403.722218677
 21
689.92871121
 31
0.0
  0
LINE
  8
0
  6
CONTINUOUS
 62
     1
 10
1413.722218677
 20
686.133974596
 30
0.0
 11
1413.722218677
 21
689.92871121
 31
0.0
  0
ARC
  8
0
  6
CONTINUOUS
 62
     1
 10
1408.722218677
 20
629.133974596
 30
0.0
 40
61.0
 50
94.701650197
 51
205.298349803
  0
ARC
  8
0
  6
CONTINUOUS
 62
     1
 10
1408.722218677
 20
629.133974596
 30
0.0
 40
61.0
 50
334.701650197
 51
85.298349803
  0
LINE
  8
0
  6
CONTINUOUS
 62
     1
 10
1361.858770661
 20
596.303847577
 30
0.0
 11
1356.858770661
 21
604.964101615
 31
0.0
  0
LINE
  8
0
  6
CONTINUOUS
 62
     1
 10
1356.858770661
 20
604.964101615
 30
0.0
 11
1353.572432352
 21
603.066733308
 31
0.0
  0
LINE
  8
0
  6
CONTINUOUS
 62
     1
 10
1361.858770661
 20
596.303847577
 30
0.0
 11
1358.572432352
 21
594.40647927
 31
0.0
  0
ARC
  8
0
  6
CONTINUOUS
 62
     1
 10
1408.722218677
 20
629.133974596
 30
0.0
 40
61.0
 50
214.701650197
 51
325.298349803
  0
LINE
  8
0
  6
CONTINUOUS
 62
     1
 10
1460.585666692
 20
604.964101615
 30
0.0
 11
1455.585666692
 21
596.303847577
 31
0.0
  0
LINE
  8
0
  6
CONTINUOUS
 62
     1
 10
1460.585666692
 20
604.964101615
 30
0.0
 11
1463.872005001
 21
603.066733308
 31
0.0
  0
LINE
  8
0
  6
CONTINUOUS
 62
     1
 10
1455.585666692
 20
596.303847577
 30
0.0
 11
1458.872005001
 21
594.40647927
 31
0.0
  0
LINE
  8
0
  6
CONTINUOUS
 62
     2
 10
1586.722218677
 20
510.133974596
 30
0.0
 11
1589.95745674
 21
522.208047425
 31
0.0
  0
LINE
  8
0
  6
CONTINUOUS
 62
     2
 10
1586.722218677
 20
510.133974596
 30
0.0
 11
1583.486980613
 21
522.208047425
 31
0.0
  0
LINE
  8
0
  6
CONTINUOUS
 62
     2
 10
1591.722218677
 20
510.133974596
 30
0.0
 11
1624.472218677
 21
510.133974596
 31
0.0
  0
LINE
  8
0
  6
CONTINUOUS
 62
     2
 10
1586.722218677
 20
629.133974596
 30
0.0
 11
1583.486980613
 21
617.059901768
 31
0.0
  0
LINE
  8
0
  6
CONTINUOUS
 62
     2
 10
1586.722218677
 20
629.133974596
 30
0.0
 11
1589.95745674
 21
617.059901768
 31
0.0
  0
LINE
  8
0
  6
CONTINUOUS
 62
     2
 10
1586.722218677
 20
629.133974596
 30
0.0
 11
1586.722218677
 21
510.133974596
 31
0.0
  0
LINE
  8
0
  6
CONTINUOUS
 62
     2
 10
1586.722218677
 20
629.133974596
 30
0.0
 11
1589.95745674
 21
641.208047425
 31
0.0
  0
LINE
  8
0
  6
CONTINUOUS
 62
     2
 10
1586.722218677
 20
629.133974596
 30
0.0
 11
1583.486980613
 21
641.208047425
 31
0.0
  0
LINE
  8
0
  6
CONTINUOUS
 62
     2
 10
1586.722218677
 20
629.133974596
 30
0.0
 11
1586.722218677
 21
805.133974596
 31
0.0
  0
LINE
  8
7
  6
CONTINUOUS
 62
     2
 10
1618.422218677
 20
510.133974596
 30
0.0
 11
1621.65745674
 21
522.208047425
 31
0.0
  0
LINE
  8
7
  6
CONTINUOUS
 62
     2
 10
1618.422218677
 20
510.133974596
 30
0.0
 11
1615.186980613
 21
522.208047425
 31
0.0
  0
LINE
  8
0
  6
CONTINUOUS
 62
     2
 10
1552.222218677
 20
641.633974596
 30
0.0
 11
1555.45745674
 21
653.708047425
 31
0.0
  0
LINE
  8
0
  6
CONTINUOUS
 62
     2
 10
1552.222218677
 20
641.633974596
 30
0.0
 11
1548.986980613
 21
653.708047425
 31
0.0
  0
LINE
  8
0
  6
CONTINUOUS
 62
     2
 10
1552.222218677
 20
616.633974596
 30
0.0
 11
1548.986980613
 21
604.559901768
 31
0.0
  0
LINE
  8
0
  6
CONTINUOUS
 62
     2
 10
1552.222218677
 20
616.633974596
 30
0.0
 11
1555.45745674
 21
604.559901768
 31
0.0
  0
LINE
  8
0
  6
CONTINUOUS
 62
     2
 10
1552.222218677
 20
816.333974596
 30
0.0
 11
1552.222218677
 21
591.633974596
 31
0.0
  0
LINE
  8
0
  6
CONTINUOUS
 62
     2
 10
1559.922218677
 20
641.633974596
 30
0.0
 11
1507.122218677
 21
641.633974596
 31
0.0
  0
LINE
  8
0
  6
CONTINUOUS
 62
     2
 10
1561.922218677
 20
616.633974596
 30
0.0
 11
1508.122218677
 21
616.633974596
 31
0.0
  0
LINE
  8
0
  6
CONTINUOUS
 62
     2
 10
1530.022218677
 20
629.133974596
 30
0.0
 11
1591.722218677
 21
629.133974596
 31
0.0
  0
LINE
  8
7
  6
CONTINUOUS
 62
     2
 10
1618.422218677
 20
510.133974596
 30
0.0
 11
1618.422218677
 21
942.133974596
 31
0.0
  0
LINE
  8
0
  6
CONTINUOUS
 62
     2
 10
1586.722218677
 20
805.133974596
 30
0.0
 11
1583.486980613
 21
793.059901768
 31
0.0
  0
LINE
  8
0
  6
CONTINUOUS
 62
     2
 10
1586.722218677
 20
805.133974596
 30
0.0
 11
1589.95745674
 21
793.059901768
 31
0.0
  0
LINE
  8
7
  6
CONTINUOUS
 62
     2
 10
1586.722218677
 20
805.133974596
 30
0.0
 11
1589.95745674
 21
817.208047425
 31
0.0
  0
LINE
  8
7
  6
CONTINUOUS
 62
     2
 10
1586.722218677
 20
805.133974596
 30
0.0
 11
1583.486980613
 21
817.208047425
 31
0.0
  0
LINE
  8
7
  6
CONTINUOUS
 62
     2
 10
1586.722218677
 20
805.133974596
 30
0.0
 11
1586.722218677
 21
942.133974596
 31
0.0
  0
LINE
  8
7
  6
CONTINUOUS
 62
     2
 10
1586.722218677
 20
942.133974596
 30
0.0
 11
1583.486980613
 21
930.059901768
 31
0.0
  0
LINE
  8
7
  6
CONTINUOUS
 62
     2
 10
1586.722218677
 20
942.133974596
 30
0.0
 11
1589.95745674
 21
930.059901768
 31
0.0
  0
LINE
  8
7
  6
CONTINUOUS
 62
     2
 10
1618.422218677
 20
942.133974596
 30
0.0
 11
1615.186980613
 21
930.059901768
 31
0.0
  0
LINE
  8
7
  6
CONTINUOUS
 62
     2
 10
1618.422218677
 20
942.133974596
 30
0.0
 11
1621.65745674
 21
930.059901768
 31
0.0
  0
TEXT
  8
0
  6
CONTINUOUS
 62
     2
 10
1581.722218677
 20
547.133974596
 30
0.0
 40
18.0
  1
１１９
 50
90.0
 41
0.9
 51
0.0
  7
KANJI31
  0
TEXT
  8
0
  6
CONTINUOUS
 62
     2
 10
1581.722218677
 20
694.633974596
 30
0.0
 40
18.0
  1
１７６
 50
90.0
 41
0.9
 51
0.0
  7
KANJI31
  0
TEXT
  8
0
  6
CONTINUOUS
 62
     2
 10
1547.222218677
 20
649.633974596
 30
0.0
 40
18.0
  1
φ２５Ｈ１０深さ３０
 50
90.0
 41
0.9
 51
0.0
  7
KANJI31
  0
TEXT
  8
7
  6
CONTINUOUS
 62
     2
 10
1613.422218677
 20
713.383974596
 30
0.0
 40
18.0
  1
４３２
 50
90.0
 41
0.9
 51
0.0
  7
KANJI31
  0
TEXT
  8
7
  6
CONTINUOUS
 62
     2
 10
1581.722218677
 20
860.883974596
 30
0.0
 40
18.0
  1
１３７
 50
90.0
 41
0.9
 51
0.0
  7
KANJI31
  0
LINE
  8
0
  6
CONTINUOUS
 62
     1
 10
1369.022218677
 20
510.133974596
 30
0.0
 11
1358.422218677
 21
510.133974596
 31
0.0
  0
ARC
  8
0
  6
CONTINUOUS
 62
     1
 10
1364.122218677
 20
511.133974596
 30
0.0
 40
5.0
 50
272.3
 51
348.5
  0
ARC
  8
0
  6
CONTINUOUS
 62
     1
 10
1363.322218677
 20
511.133974596
 30
0.0
 40
5.0
 50
191.5
 51
267.7
  0
LINE
  8
0
  6
CONTINUOUS
 62
     1
 10
1364.322218677
 20
506.133974596
 30
0.0
 11
1363.122218677
 21
506.133974596
 31
0.0
  0
LINE
  8
0
  6
LTYPE5
 62
     2
 10
1363.722218677
 20
502.733974596
 30
0.0
 11
1363.722218677
 21
516.133974596
 31
0.0
  0
LINE
  8
0
  6
CONTINUOUS
 62
     1
 10
1459.022218677
 20
510.133974596
 30
0.0
 11
1448.422218677
 21
510.133974596
 31
0.0
  0
ARC
  8
0
  6
CONTINUOUS
 62
     1
 10
1454.122218677
 20
511.133974596
 30
0.0
 40
5.0
 50
272.3
 51
348.5
  0
ARC
  8
0
  6
CONTINUOUS
 62
     1
 10
1453.322218677
 20
511.133974596
 30
0.0
 40
5.0
 50
191.5
 51
267.7
  0
LINE
  8
0
  6
CONTINUOUS
 62
     1
 10
1454.322218677
 20
506.133974596
 30
0.0
 11
1453.122218677
 21
506.133974596
 31
0.0
  0
LINE
  8
0
  6
LTYPE5
 62
     2
 10
1453.722218677
 20
502.733974596
 30
0.0
 11
1453.722218677
 21
516.133974596
 31
0.0
  0
LINE
  8
0
  6
CONTINUOUS
 62
     2
 10
1501.222218677
 20
413.133974596
 30
0.0
 11
1489.148145848
 21
416.36921266
 31
0.0
  0
LINE
  8
0
  6
CONTINUOUS
 62
     2
 10
1501.222218677
 20
413.133974596
 30
0.0
 11
1489.148145848
 21
409.898736532
 31
0.0
  0
LINE
  8
0
  6
CONTINUOUS
 62
     2
 10
1503.722218677
 20
363.133974596
 30
0.0
 11
1491.648145848
 21
366.36921266
 31
0.0
  0
LINE
  8
0
  6
CONTINUOUS
 62
     2
 10
1503.722218677
 20
363.133974596
 30
0.0
 11
1491.648145848
 21
359.898736532
 31
0.0
  0
LINE
  8
0
  6
CONTINUOUS
 62
     2
 10
1316.222218677
 20
413.133974596
 30
0.0
 11
1501.222218677
 21
413.133974596
 31
0.0
  0
LINE
  8
0
  6
CONTINUOUS
 62
     2
 10
1313.722218677
 20
363.133974596
 30
0.0
 11
1503.722218677
 21
363.133974596
 31
0.0
  0
TEXT
  8
0
  6
CONTINUOUS
 62
     2
 10
1386.222218677
 20
368.133974596
 30
0.0
 40
18.0
  1
１９０
 50
0.0
 41
0.9
 51
0.0
  7
KANJI31
  0
LINE
  8
7
  6
CONTINUOUS
 62
     2
 10
316.922218677
 20
381.433974596
 30
0.0
 11
1096.522218677
 21
381.433974596
 31
0.0
  0
LINE
  8
7
  6
CONTINUOUS
 62
     2
 10
513.422218677
 20
417.008974596
 30
0.0
 11
1096.522218677
 21
417.008974596
 31
0.0
  0
LINE
  8
7
  6
CONTINUOUS
 62
     2
 10
1096.522218677
 20
381.433974596
 30
0.0
 11
1084.448145848
 21
384.66921266
 31
0.0
  0
LINE
  8
7
  6
CONTINUOUS
 62
     2
 10
1096.522218677
 20
381.433974596
 30
0.0
 11
1084.448145848
 21
378.198736532
 31
0.0
  0
LINE
  8
7
  6
CONTINUOUS
 62
     2
 10
1096.522218677
 20
596.633974596
 30
0.0
 11
1096.522218677
 21
373.933974596
 31
0.0
  0
LINE
  8
7
  6
CONTINUOUS
 62
     2
 10
1096.522218677
 20
423.908974596
 30
0.0
 11
1096.522218677
 21
424.508974596
 31
0.0
  0
LINE
  8
7
  6
CONTINUOUS
 62
     2
 10
1096.522218677
 20
417.008974596
 30
0.0
 11
1084.448145848
 21
420.24421266
 31
0.0
  0
LINE
  8
7
  6
CONTINUOUS
 62
     2
 10
1096.522218677
 20
417.008974596
 30
0.0
 11
1084.448145848
 21
413.773736532
 31
0.0
  0
LINE
  8
7
  6
CONTINUOUS
 62
     2
 10
1096.522218677
 20
410.508974596
 30
0.0
 11
1096.522218677
 21
409.508974596
 31
0.0
  0
LINE
  8
7
  6
CONTINUOUS
 62
     2
 10
1046.522218677
 20
452.008974596
 30
0.0
 11
1096.522218677
 21
452.008974596
 31
0.0
  0
LINE
  8
7
  6
CONTINUOUS
 62
     2
 10
1096.522218677
 20
452.008974596
 30
0.0
 11
1084.448145848
 21
455.24421266
 31
0.0
  0
LINE
  8
7
  6
CONTINUOUS
 62
     2
 10
1096.522218677
 20
452.008974596
 30
0.0
 11
1084.448145848
 21
448.773736532
 31
0.0
  0
LINE
  8
7
  6
CONTINUOUS
 62
     2
 10
1096.522218677
 20
458.608974596
 30
0.0
 11
1096.522218677
 21
459.508974596
 31
0.0
  0
TEXT
  8
0
  6
CONTINUOUS
 62
     2
 10
1187.922218677
 20
476.983974596
 30
0.0
 40
18.0
  1
ｄ９
 50
0.0
 41
0.9
 51
0.0
  7
KANJI31
  0
TEXT
  8
7
  6
CONTINUOUS
 62
     2
 10
1057.522218677
 20
457.008974596
 30
0.0
 40
18.0
  1
５０
 50
0.0
 41
0.9
 51
0.0
  7
KANJI31
  0
LINE
  8
0
  6
CONTINUOUS
 62
     2
 10
1316.222218677
 20
413.133974596
 30
0.0
 11
1328.296291505
 21
409.898736532
 31
0.0
  0
LINE
  8
0
  6
CONTINUOUS
 62
     2
 10
1316.222218677
 20
413.133974596
 30
0.0
 11
1328.296291505
 21
416.36921266
 31
0.0
  0
LINE
  8
0
  6
CONTINUOUS
 62
     2
 10
1313.722218677
 20
363.133974596
 30
0.0
 11
1325.796291505
 21
359.898736532
 31
0.0
  0
LINE
  8
0
  6
CONTINUOUS
 62
     2
 10
1313.722218677
 20
363.133974596
 30
0.0
 11
1325.796291505
 21
366.36921266
 31
0.0
  0
TEXT
  8
0
  6
CONTINUOUS
 62
     2
 10
1386.222218677
 20
418.133974596
 30
0.0
 40
18.0
  1
１８５
 50
0.0
 41
0.9
 51
0.0
  7
KANJI31
  0
LINE
  8
7
  6
CONTINUOUS
 62
     2
 10
513.922218677
 20
452.008974596
 30
0.0
 11
981.322218677
 21
452.008974596
 31
0.0
  0
LINE
  8
0
  6
LTYPE2
 62
     2
 10
1133.254927903
 20
629.133974596
 30
0.0
 11
737.522218677
 21
629.133974596
 31
0.0
  0
LINE
  8
0
  6
CONTINUOUS
 62
     1
 10
1001.522218677
 20
673.683974596
 30
0.0
 11
642.922218677
 21
673.683974596
 31
0.0
  0
LINE
  8
0
  6
CONTINUOUS
 62
     1
 10
1001.522218677
 20
584.583974596
 30
0.0
 11
642.922218677
 21
584.583974596
 31
0.0
  0
LINE
  8
0
  6
CONTINUOUS
 62
     2
 10
575.792674524
 20
302.971526374
 30
0.0
 11
1008.080083262
 21
302.971526374
 31
0.0
  0
TEXT
  8
0
  6
CONTINUOUS
 62
     2
 10
577.792674524
 20
310.971526374
 30
0.0
 40
20.0
  1
推力リミッタの作動値は、約２３００ｋｇ（設計値）
 50
0.0
 41
0.925
 51
0.0
  7
KANJI32
  0
LINE
  8
0
  6
CONTINUOUS
 62
     1
 10
1046.522218677
 20
604.133974596
 30
0.0
 11
1113.522218677
 21
604.133974596
 31
0.0
  0
ARC
  8
0
  6
CONTINUOUS
 62
     1
 10
1113.522218677
 20
612.133974596
 30
0.0
 40
8.0
 50
270.0
 51
0.0
  0
LINE
  8
0
  6
CONTINUOUS
 62
     1
 10
1121.522218677
 20
612.133974596
 30
0.0
 11
1121.522218677
 21
646.133974596
 31
0.0
  0
ARC
  8
0
  6
CONTINUOUS
 62
     1
 10
1113.522218677
 20
646.133974596
 30
0.0
 40
8.0
 50
0.0
 51
90.0
  0
CIRCLE
  8
0
  6
CONTINUOUS
 62
     1
 10
1096.522218677
 20
629.133974596
 30
0.0
 40
12.5
  0
CIRCLE
  8
0
  6
CONTINUOUS
 62
     1
 10
1096.522218677
 20
629.133974596
 30
0.0
 40
22.0
  0
CIRCLE
  8
0
  6
CONTINUOUS
 62
     1
 10
1096.522218677
 20
644.633974596
 30
0.0
 40
3.0
  0
LINE
  8
0
  6
CONTINUOUS
 62
     1
 10
1092.322218677
 20
612.333974596
 30
0.0
 11
1094.322218677
 21
612.033974596
 31
0.0
  0
LINE
  8
0
  6
CONTINUOUS
 62
     1
 10
1094.822218677
 20
616.733974596
 30
0.0
 11
1094.586834061
 21
615.164743827
 31
0.0
  0
LINE
  8
0
  6
CONTINUOUS
 62
     1
 10
1094.586834061
 20
615.164743827
 30
0.0
 11
1092.322218677
 21
612.333974596
 31
0.0
  0
LINE
  8
0
  6
CONTINUOUS
 62
     1
 10
1096.522218677
 20
614.733974596
 30
0.0
 11
1094.322218677
 21
612.033974596
 31
0.0
  0
LINE
  8
0
  6
CONTINUOUS
 62
     1
 10
1100.722218677
 20
612.333974596
 30
0.0
 11
1098.722218677
 21
612.033974596
 31
0.0
  0
LINE
  8
0
  6
CONTINUOUS
 62
     1
 10
1098.222218677
 20
616.733974596
 30
0.0
 11
1098.457603292
 21
615.164743827
 31
0.0
  0
LINE
  8
0
  6
CONTINUOUS
 62
     1
 10
1098.457603292
 20
615.164743827
 30
0.0
 11
1100.722218677
 21
612.333974596
 31
0.0
  0
LINE
  8
0
  6
CONTINUOUS
 62
     1
 10
1096.522218677
 20
614.733974596
 30
0.0
 11
1098.722218677
 21
612.033974596
 31
0.0
  0
LINE
  8
0
  6
CONTINUOUS
 62
     1
 10
1061.522218677
 20
821.633974596
 30
0.0
 11
1121.522218677
 21
821.633974596
 31
0.0
  0
LINE
  8
0
  6
CONTINUOUS
 62
     1
 10
1121.522218677
 20
806.633974596
 30
0.0
 11
1121.522218677
 21
821.633974596
 31
0.0
  0
LINE
  8
0
  6
CONTINUOUS
 62
     1
 10
1046.522218677
 20
806.633974596
 30
0.0
 11
1121.522218677
 21
806.633974596
 31
0.0
  0
LINE
  8
0
  6
CONTINUOUS
 62
     1
 10
1074.522218677
 20
802.133974596
 30
0.0
 11
1118.522218677
 21
802.133974596
 31
0.0
  0
LINE
  8
0
  6
CONTINUOUS
 62
     1
 10
1084.022218677
 20
796.133974596
 30
0.0
 11
1109.022218677
 21
796.133974596
 31
0.0
  0
LINE
  8
0
  6
CONTINUOUS
 62
     1
 10
1109.022218677
 20
796.133974596
 30
0.0
 11
1109.022218677
 21
802.133974596
 31
0.0
  0
LINE
  8
0
  6
CONTINUOUS
 62
     1
 10
1084.022218677
 20
796.133974596
 30
0.0
 11
1084.022218677
 21
802.133974596
 31
0.0
  0
LINE
  8
0
  6
CONTINUOUS
 62
     1
 10
1118.522218677
 20
802.133974596
 30
0.0
 11
1118.522218677
 21
806.633974596
 31
0.0
  0
LINE
  8
0
  6
CONTINUOUS
 62
     1
 10
1074.522218677
 20
802.133974596
 30
0.0
 11
1074.522218677
 21
806.633974596
 31
0.0
  0
CIRCLE
  8
0
  6
CONTINUOUS
 62
     1
 10
1096.522218677
 20
800.133974596
 30
0.0
 40
2.0
  0
LINE
  8
0
  6
CONTINUOUS
 62
     1
 10
1061.522218677
 20
846.633974596
 30
0.0
 11
1121.522218677
 21
846.633974596
 31
0.0
  0
LINE
  8
0
  6
CONTINUOUS
 62
     1
 10
1121.522218677
 20
861.633974596
 30
0.0
 11
1121.522218677
 21
846.633974596
 31
0.0
  0
LINE
  8
0
  6
CONTINUOUS
 62
     1
 10
1046.522218677
 20
861.633974596
 30
0.0
 11
1121.522218677
 21
861.633974596
 31
0.0
  0
LINE
  8
0
  6
CONTINUOUS
 62
     1
 10
1074.522218677
 20
866.133974596
 30
0.0
 11
1118.522218677
 21
866.133974596
 31
0.0
  0
LINE
  8
0
  6
CONTINUOUS
 62
     1
 10
1084.022218677
 20
872.133974596
 30
0.0
 11
1109.022218677
 21
872.133974596
 31
0.0
  0
LINE
  8
0
  6
CONTINUOUS
 62
     1
 10
1109.022218677
 20
872.133974596
 30
0.0
 11
1109.022218677
 21
866.133974596
 31
0.0
  0
LINE
  8
0
  6
CONTINUOUS
 62
     1
 10
1084.022218677
 20
872.133974596
 30
0.0
 11
1084.022218677
 21
866.133974596
 31
0.0
  0
LINE
  8
0
  6
CONTINUOUS
 62
     1
 10
1118.522218677
 20
866.133974596
 30
0.0
 11
1118.522218677
 21
861.633974596
 31
0.0
  0
LINE
  8
0
  6
CONTINUOUS
 62
     1
 10
1074.522218677
 20
866.133974596
 30
0.0
 11
1074.522218677
 21
861.633974596
 31
0.0
  0
CIRCLE
  8
0
  6
CONTINUOUS
 62
     1
 10
1096.522218677
 20
868.133974596
 30
0.0
 40
2.0
  0
LINE
  8
0
  6
CONTINUOUS
 62
     1
 10
1061.522218677
 20
821.633974596
 30
0.0
 11
1061.522218677
 21
846.633974596
 31
0.0
  0
LINE
  8
0
  6
CONTINUOUS
 62
     1
 10
1046.522218677
 20
806.633974596
 30
0.0
 11
1046.522218677
 21
861.633974596
 31
0.0
  0
LINE
  8
0
  6
CONTINUOUS
 62
     1
 10
1084.022218677
 20
821.633974596
 30
0.0
 11
1084.022218677
 21
846.633974596
 31
0.0
  0
LINE
  8
0
  6
CONTINUOUS
 62
     1
 10
1109.022218677
 20
821.633974596
 30
0.0
 11
1109.022218677
 21
846.633974596
 31
0.0
  0
LINE
  8
0
  6
CONTINUOUS
 62
     1
 10
1084.022218677
 20
846.633974596
 30
0.0
 11
1084.022218677
 21
821.633974596
 31
0.0
  0
LINE
  8
0
  6
CONTINUOUS
 62
     1
 10
1109.022218677
 20
846.633974596
 30
0.0
 11
1109.022218677
 21
821.633974596
 31
0.0
  0
LINE
  8
0
  6
LTYPE1
 62
     2
 10
1061.522218677
 20
604.133974596
 30
0.0
 11
1061.522218677
 21
654.133974596
 31
0.0
  0
LINE
  8
0
  6
LTYPE3
 62
     2
 10
1092.522218677
 20
800.233974596
 30
0.0
 11
1100.722218677
 21
800.233974596
 31
0.0
  0
LINE
  8
0
  6
LTYPE1
 62
     2
 10
1109.022218677
 20
802.133974596
 30
0.0
 11
1109.022218677
 21
821.633974596
 31
0.0
  0
LINE
  8
0
  6
LTYPE1
 62
     2
 10
1084.022218677
 20
802.133974596
 30
0.0
 11
1084.022218677
 21
821.633974596
 31
0.0
  0
LINE
  8
0
  6
LTYPE3
 62
     2
 10
1092.522218677
 20
868.033974596
 30
0.0
 11
1100.722218677
 21
868.033974596
 31
0.0
  0
LINE
  8
0
  6
LTYPE1
 62
     2
 10
1109.022218677
 20
866.133974596
 30
0.0
 11
1109.022218677
 21
846.633974596
 31
0.0
  0
LINE
  8
0
  6
LTYPE1
 62
     2
 10
1084.022218677
 20
866.133974596
 30
0.0
 11
1084.022218677
 21
846.633974596
 31
0.0
  0
LINE
  8
0
  6
LTYPE3
 62
     2
 10
1096.522218677
 20
791.133974596
 30
0.0
 11
1096.522218677
 21
872.133974596
 31
0.0
  0
LINE
  8
0
  6
LTYPE3
 62
     2
 10
1096.522218677
 20
877.133974596
 30
0.0
 11
1096.522218677
 21
796.133974596
 31
0.0
  0
LINE
  8
0
  6
LTYPE2
 62
     2
 10
1127.572218677
 20
833.883974596
 30
0.0
 11
1019.572218677
 21
833.883974596
 31
0.0
  0
LINE
  8
0
  6
CONTINUOUS
 62
     2
 10
1113.522218677
 20
604.133974596
 30
0.0
 11
1175.51968984
 21
604.133974596
 31
0.0
  0
LINE
  8
0
  6
CONTINUOUS
 62
     2
 10
1170.51968984
 20
604.133974596
 30
0.0
 11
1173.754927903
 21
616.208047425
 31
0.0
  0
LINE
  8
0
  6
CONTINUOUS
 62
     2
 10
1170.51968984
 20
604.133974596
 30
0.0
 11
1167.284451776
 21
616.208047425
 31
0.0
  0
LINE
  8
0
  6
CONTINUOUS
 62
     2
 10
1170.51968984
 20
604.133974596
 30
0.0
 11
1170.51968984
 21
654.133974596
 31
0.0
  0
LINE
  8
0
  6
CONTINUOUS
 62
     2
 10
1170.51968984
 20
654.133974596
 30
0.0
 11
1167.284451776
 21
642.059901768
 31
0.0
  0
LINE
  8
0
  6
CONTINUOUS
 62
     2
 10
1170.51968984
 20
654.133974596
 30
0.0
 11
1173.754927903
 21
642.059901768
 31
0.0
  0
LINE
  8
0
  6
CONTINUOUS
 62
     2
 10
1113.522218677
 20
654.133974596
 30
0.0
 11
1175.51968984
 21
654.133974596
 31
0.0
  0
LINE
  8
0
  6
CONTINUOUS
 62
     2
 10
1151.022218677
 20
846.633974596
 30
0.0
 11
1154.25745674
 21
858.708047425
 31
0.0
  0
LINE
  8
0
  6
CONTINUOUS
 62
     2
 10
1151.022218677
 20
846.633974596
 30
0.0
 11
1147.786980613
 21
858.708047425
 31
0.0
  0
LINE
  8
0
  6
CONTINUOUS
 62
     2
 10
1121.522218677
 20
846.633974596
 30
0.0
 11
1156.022218677
 21
846.633974596
 31
0.0
  0
LINE
  8
0
  6
CONTINUOUS
 62
     2
 10
1121.522218677
 20
806.633974596
 30
0.0
 11
1185.022218677
 21
806.633974596
 31
0.0
  0
LINE
  8
0
  6
CONTINUOUS
 62
     2
 10
1180.022218677
 20
806.633974596
 30
0.0
 11
1183.25745674
 21
818.708047425
 31
0.0
  0
LINE
  8
0
  6
CONTINUOUS
 62
     2
 10
1180.022218677
 20
806.633974596
 30
0.0
 11
1176.786980613
 21
818.708047425
 31
0.0
  0
LINE
  8
0
  6
CONTINUOUS
 62
     2
 10
1180.022218677
 20
806.633974596
 30
0.0
 11
1180.022218677
 21
861.633974596
 31
0.0
  0
LINE
  8
0
  6
CONTINUOUS
 62
     2
 10
1180.022218677
 20
861.633974596
 30
0.0
 11
1176.786980613
 21
849.559901768
 31
0.0
  0
LINE
  8
0
  6
CONTINUOUS
 62
     2
 10
1180.022218677
 20
861.633974596
 30
0.0
 11
1183.25745674
 21
849.559901768
 31
0.0
  0
LINE
  8
0
  6
CONTINUOUS
 62
     2
 10
1121.522218677
 20
861.633974596
 30
0.0
 11
1185.022218677
 21
861.633974596
 31
0.0
  0
LINE
  8
0
  6
CONTINUOUS
 62
     2
 10
1096.522218677
 20
766.083974596
 30
0.0
 11
1084.448145848
 21
769.31921266
 31
0.0
  0
LINE
  8
0
  6
CONTINUOUS
 62
     2
 10
1096.522218677
 20
766.083974596
 30
0.0
 11
1084.448145848
 21
762.848736532
 31
0.0
  0
LINE
  8
0
  6
CONTINUOUS
 62
     2
 10
1096.522218677
 20
766.083974596
 30
0.0
 11
1061.522218677
 21
766.083974596
 31
0.0
  0
LINE
  8
0
  6
CONTINUOUS
 62
     2
 10
1061.522218677
 20
766.083974596
 30
0.0
 11
1073.596291505
 21
762.848736532
 31
0.0
  0
LINE
  8
0
  6
CONTINUOUS
 62
     2
 10
1061.522218677
 20
766.083974596
 30
0.0
 11
1073.596291505
 21
769.31921266
 31
0.0
  0
LINE
  8
0
  6
CONTINUOUS
 62
     2
 10
1061.522218677
 20
821.633974596
 30
0.0
 11
1061.522218677
 21
761.083974596
 31
0.0
  0
LINE
  8
0
  6
CONTINUOUS
 62
     2
 10
1046.522218677
 20
806.633974596
 30
0.0
 11
1046.522218677
 21
761.083974596
 31
0.0
  0
LINE
  8
0
  6
CONTINUOUS
 62
     2
 10
1046.522218677
 20
766.083974596
 30
0.0
 11
1034.448145848
 21
762.848736532
 31
0.0
  0
LINE
  8
0
  6
CONTINUOUS
 62
     2
 10
1046.522218677
 20
766.083974596
 30
0.0
 11
1034.448145848
 21
769.31921266
 31
0.0
  0
LINE
  8
0
  6
CONTINUOUS
 62
     2
 10
1061.522218677
 20
766.083974596
 30
0.0
 11
1019.522218677
 21
766.083974596
 31
0.0
  0
LINE
  8
0
  6
CONTINUOUS
 62
     2
 10
1121.522218677
 20
821.633974596
 30
0.0
 11
1156.022218677
 21
821.633974596
 31
0.0
  0
LINE
  8
0
  6
CONTINUOUS
 62
     2
 10
1151.022218677
 20
821.633974596
 30
0.0
 11
1147.786980613
 21
809.559901768
 31
0.0
  0
LINE
  8
0
  6
CONTINUOUS
 62
     2
 10
1151.022218677
 20
821.633974596
 30
0.0
 11
1154.25745674
 21
809.559901768
 31
0.0
  0
LINE
  8
0
  6
CONTINUOUS
 62
     2
 10
1096.522218677
 20
791.133974596
 30
0.0
 11
1096.522218677
 21
761.083974596
 31
0.0
  0
LINE
  8
0
  6
LTYPE3
 62
     2
 10
1096.522218677
 20
604.133974596
 30
0.0
 11
1096.522218677
 21
658.933974596
 31
0.0
  0
LINE
  8
7
  6
CONTINUOUS
 62
     2
 10
1102.822218677
 20
619.183974596
 30
0.0
 11
1103.543340482
 21
606.704792598
 31
0.0
  0
LINE
  8
7
  6
CONTINUOUS
 62
     2
 10
1102.822218677
 20
619.183974596
 30
0.0
 11
1109.686319478
 21
608.73724687
 31
0.0
  0
LINE
  8
7
  6
CONTINUOUS
 62
     2
 10
1102.822218677
 20
619.183974596
 30
0.0
 11
1142.922218677
 21
497.983974596
 31
0.0
  0
LINE
  8
7
  6
CONTINUOUS
 62
     2
 10
1142.922218677
 20
497.983974596
 30
0.0
 11
1231.422218677
 21
497.983974596
 31
0.0
  0
LINE
  8
7
  6
CONTINUOUS
 62
     2
 10
981.322218677
 20
452.008974596
 30
0.0
 11
1046.522218677
 21
452.008974596
 31
0.0
  0
LINE
  8
7
  6
CONTINUOUS
 62
     2
 10
1046.522218677
 20
452.008974596
 30
0.0
 11
1034.448145848
 21
455.24421266
 31
0.0
  0
LINE
  8
7
  6
CONTINUOUS
 62
     2
 10
1046.522218677
 20
452.008974596
 30
0.0
 11
1034.448145848
 21
448.773736532
 31
0.0
  0
LINE
  8
7
  6
CONTINUOUS
 62
     2
 10
1046.522218677
 20
574.133974596
 30
0.0
 11
1046.522218677
 21
444.508974596
 31
0.0
  0
LINE
  8
7
  6
CONTINUOUS
 62
     2
 10
1046.522218677
 20
452.008974596
 30
0.0
 11
1058.596291505
 21
448.773736532
 31
0.0
  0
LINE
  8
7
  6
CONTINUOUS
 62
     2
 10
1046.522218677
 20
452.008974596
 30
0.0
 11
1058.596291505
 21
455.24421266
 31
0.0
  0
LINE
  8
0
  6
CONTINUOUS
 62
     1
 10
1046.522218677
 20
654.133974596
 30
0.0
 11
1046.522218677
 21
604.133974596
 31
0.0
  0
LINE
  8
0
  6
CONTINUOUS
 62
     1
 10
1046.522218677
 20
654.133974596
 30
0.0
 11
1113.522218677
 21
654.133974596
 31
0.0
  0
LINE
  8
0
  6
CONTINUOUS
 62
     1
 10
971.522218677
 20
584.583974596
 30
0.0
 11
971.522218677
 21
673.683974596
 31
0.0
  0
LINE
  8
7
  6
CONTINUOUS
 62
     2
 10
1001.522218677
 20
452.008974596
 30
0.0
 11
989.448145848
 21
455.24421266
 31
0.0
  0
LINE
  8
7
  6
CONTINUOUS
 62
     2
 10
1001.522218677
 20
577.083974596
 30
0.0
 11
1001.522218677
 21
444.508974596
 31
0.0
  0
LINE
  8
7
  6
CONTINUOUS
 62
     2
 10
1001.522218677
 20
452.008974596
 30
0.0
 11
1013.596291505
 21
455.24421266
 31
0.0
  0
LINE
  8
7
  6
CONTINUOUS
 62
     2
 10
1001.522218677
 20
452.008974596
 30
0.0
 11
989.448145848
 21
448.773736532
 31
0.0
  0
LINE
  8
7
  6
CONTINUOUS
 62
     2
 10
1001.522218677
 20
452.008974596
 30
0.0
 11
1013.596291505
 21
448.773736532
 31
0.0
  0
LINE
  8
0
  6
CONTINUOUS
 62
     1
 10
1046.522218677
 20
654.133974596
 30
0.0
 11
1001.522218677
 21
654.133974596
 31
0.0
  0
LINE
  8
0
  6
CONTINUOUS
 62
     1
 10
1046.522218677
 20
604.133974596
 30
0.0
 11
1001.522218677
 21
604.133974596
 31
0.0
  0
LINE
  8
0
  6
CONTINUOUS
 62
     1
 10
1001.522218677
 20
584.583974596
 30
0.0
 11
1001.522218677
 21
673.683974596
 31
0.0
  0
TEXT
  8
0
  6
CONTINUOUS
 62
     2
 10
1175.022218677
 20
819.383974596
 30
0.0
 40
18.0
  1
５５
 50
90.0
 41
0.9
 51
0.0
  7
KANJI31
  0
TEXT
  8
0
  6
CONTINUOUS
 62
     2
 10
1064.272218677
 20
771.083974596
 30
0.0
 40
18.0
  1
３５
 50
0.0
 41
0.9
 51
0.0
  7
KANJI31
  0
TEXT
  8
0
  6
CONTINUOUS
 62
     2
 10
1013.272218677
 20
771.583974596
 30
0.0
 40
18.0
  1
１５
 50
0.0
 41
0.9
 51
0.0
  7
KANJI31
  0
TEXT
  8
0
  6
CONTINUOUS
 62
     2
 10
1165.51968984
 20
614.383974596
 30
0.0
 40
18.0
  1
５０
 50
90.0
 41
0.9
 51
0.0
  7
KANJI31
  0
TEXT
  8
7
  6
CONTINUOUS
 62
     2
 10
1142.922218677
 20
502.983974596
 30
0.0
 40
18.0
  1
φ２５Ｈ１０
 50
0.0
 41
0.9
 51
0.0
  7
KANJI31
  0
TEXT
  8
7
  6
CONTINUOUS
 62
     2
 10
1018.072218677
 20
454.408974596
 30
0.0
 40
18.0
  1
Ｐ
 50
0.0
 41
0.9
 51
0.0
  7
KANJI31
  0
TEXT
  8
7
  6
CONTINUOUS
 62
     2
 10
1002.672218677
 20
472.608974596
 30
0.0
 40
18.0
  1
ｍｉｎ
 50
0.0
 41
0.833333333
 51
0.0
  7
KANJI33
  0
LINE
  8
2
  6
CONTINUOUS
 62
     2
 10
1096.522218677
 20
764.083974596
 30
0.0
 11
1096.522218677
 21
760.083974596
 31
0.0
  0
LINE
  8
2
  6
CONTINUOUS
 62
     2
 10
1096.522218677
 20
766.083974596
 30
0.0
 11
1082.033331282
 21
769.966260273
 31
0.0
  0
LINE
  8
2
  6
CONTINUOUS
 62
     2
 10
1096.522218677
 20
766.083974596
 30
0.0
 11
1082.033331282
 21
762.20168892
 31
0.0
  0
LINE
  8
2
  6
CONTINUOUS
 62
     2
 10
1074.022218677
 20
766.083974596
 30
0.0
 11
1096.522218677
 21
766.083974596
 31
0.0
  0
LINE
  8
2
  6
CONTINUOUS
 62
     2
 10
1096.522218677
 20
766.083974596
 30
0.0
 11
1121.522218677
 21
766.083974596
 31
0.0
  0
LINE
  8
2
  6
CONTINUOUS
 62
     2
 10
1121.522218677
 20
766.083974596
 30
0.0
 11
1176.422218677
 21
766.083974596
 31
0.0
  0
LINE
  8
2
  6
CONTINUOUS
 62
     2
 10
1121.522218677
 20
766.083974596
 30
0.0
 11
1136.011106071
 21
762.20168892
 31
0.0
  0
LINE
  8
2
  6
CONTINUOUS
 62
     2
 10
1121.522218677
 20
766.083974596
 30
0.0
 11
1136.011106071
 21
769.966260273
 31
0.0
  0
LINE
  8
2
  6
CONTINUOUS
 62
     2
 10
1121.522218677
 20
800.633974596
 30
0.0
 11
1121.522218677
 21
760.083974596
 31
0.0
  0
TEXT
  8
2
  6
CONTINUOUS
 62
     3
 10
1144.022218677
 20
769.083974596
 30
0.0
 40
18.0
  1
２５
 50
0.0
 41
0.9
 51
0.0
  7
KANJI31
  0
LINE
  8
0
  6
CONTINUOUS
 62
     2
 10
1094.413333
 20
962.633317
 30
0.0
 11
1082.339260171
 21
965.868555064
 31
0.0
  0
LINE
  8
0
  6
CONTINUOUS
 62
     2
 10
1094.413333
 20
962.633317
 30
0.0
 11
1082.339260171
 21
959.398078936
 31
0.0
  0
LINE
  8
0
  6
CONTINUOUS
 62
     2
 10
1094.413333
 20
962.633317
 30
0.0
 11
1053.413333
 21
962.633317
 31
0.0
  0
TEXT
  8
0
  6
CONTINUOUS
 62
     3
 10
1060.413333
 20
972.633317
 30
0.0
 40
20.0
  1
前進
 50
0.0
 41
0.925
 51
0.0
  7
KANJI32
  0
LINE
  8
0
  6
CONTINUOUS
 62
     1
 10
1046.522218677
 20
808.883974596
 30
0.0
 11
1001.522218677
 21
808.883974596
 31
0.0
  0
LINE
  8
0
  6
CONTINUOUS
 62
     1
 10
1046.522218677
 20
858.883974596
 30
0.0
 11
1001.522218677
 21
858.883974596
 31
0.0
  0
TEXT
  8
0
  6
CONTINUOUS
 62
     2
 10
1146.322218677
 20
866.583974596
 30
-1.8
 40
18.0
  1
２５
 50
90.0
 41
0.833333333
 51
0.0
  7
KANJI34
  0
LINE
  8
0
  6
CONTINUOUS
 62
     2
 10
1151.022218677
 20
796.633974596
 30
0.0
 11
1151.022218677
 21
895.633974596
 31
0.0
  0
LINE
  8
0
  6
LTYPE2
 62
     2
 10
287.472218677
 20
805.133974596
 30
0.0
 11
738.222218677
 21
805.133974596
 31
0.0
  0
LINE
  8
0
  6
LTYPE2
 62
     2
 10
513.922218677
 20
586.133974596
 30
0.0
 11
513.922218677
 21
676.133974596
 31
0.0
  0
LINE
  8
0
  6
CONTINUOUS
 62
     2
 10
513.922218677
 20
586.133974596
 30
0.0
 11
513.922218677
 21
410.133974596
 31
0.0
  0
LINE
  8
0
  6
LTYPE2
 62
     2
 10
513.922218677
 20
586.133974596
 30
0.0
 11
513.922218677
 21
676.133974596
 31
0.0
  0
CIRCLE
  8
0
  6
CONTINUOUS
 62
     1
 10
513.922218677
 20
629.133974596
 30
0.0
 40
12.5
  0
CIRCLE
  8
0
  6
CONTINUOUS
 62
     1
 10
513.922218677
 20
629.133974596
 30
0.0
 40
23.0
  0
CIRCLE
  8
0
  6
CONTINUOUS
 62
     1
 10
513.922218677
 20
629.133974596
 30
0.0
 40
27.5
  0
LINE
  8
0
  6
CONTINUOUS
 62
     1
 10
443.922218677
 20
689.133974596
 30
0.0
 11
633.922218677
 21
689.133974596
 31
0.0
  0
LINE
  8
0
  6
CONTINUOUS
 62
     1
 10
443.922218677
 20
569.133974596
 30
0.0
 11
551.922218677
 21
569.133974596
 31
0.0
  0
LINE
  8
7
  6
CONTINUOUS
 62
     2
 10
513.422218677
 20
417.008974596
 30
0.0
 11
525.496291505
 21
413.773736532
 31
0.0
  0
LINE
  8
7
  6
CONTINUOUS
 62
     2
 10
513.422218677
 20
417.008974596
 30
0.0
 11
525.496291505
 21
420.24421266
 31
0.0
  0
LINE
  8
7
  6
CONTINUOUS
 62
     2
 10
513.922218677
 20
452.008974596
 30
0.0
 11
525.996291505
 21
448.773736532
 31
0.0
  0
LINE
  8
7
  6
CONTINUOUS
 62
     2
 10
513.922218677
 20
452.008974596
 30
0.0
 11
525.996291505
 21
455.24421266
 31
0.0
  0
LINE
  8
7
  6
CONTINUOUS
 62
     2
 10
513.922218677
 20
416.875
 30
0.0
 11
501.848145848
 21
420.110238064
 31
0.0
  0
LINE
  8
7
  6
CONTINUOUS
 62
     2
 10
513.922218677
 20
416.875
 30
0.0
 11
501.848145848
 21
413.639761936
 31
0.0
  0
LINE
  8
7
  6
CONTINUOUS
 62
     2
 10
513.922218677
 20
416.875
 30
0.0
 11
316.922218677
 21
416.875
 31
0.0
  0
LINE
  8
0
  6
CONTINUOUS
 62
     1
 10
476.422218677
 20
733.233974596
 30
0.0
 11
476.422218677
 21
875.133974596
 31
0.0
  0
LINE
  8
0
  6
CONTINUOUS
 62
     1
 10
483.972218677
 20
886.233974596
 30
0.0
 11
483.972218677
 21
889.233974596
 31
0.0
  0
ARC
  8
0
  6
CONTINUOUS
 62
     1
 10
487.972218677
 20
883.233974596
 30
0.0
 40
3.0
 50
0.0
 51
90.0
  0
LINE
  8
0
  6
CONTINUOUS
 62
     1
 10
543.972218677
 20
886.233974596
 30
0.0
 11
483.972218677
 21
886.233974596
 31
0.0
  0
LINE
  8
0
  6
CONTINUOUS
 62
     1
 10
468.884306589
 20
891.233974596
 30
0.0
 11
560.972218677
 21
935.254020484
 31
0.0
  0
LINE
  8
0
  6
CONTINUOUS
 62
     1
 10
466.972218677
 20
895.233974596
 30
0.0
 11
468.884306589
 21
891.233974596
 31
0.0
  0
LINE
  8
0
  6
CONTINUOUS
 62
     1
 10
466.972218677
 20
895.233974596
 30
0.0
 11
559.060130764
 21
939.254020484
 31
0.0
  0
LINE
  8
0
  6
CONTINUOUS
 62
     1
 10
473.972218677
 20
898.580128442
 30
0.0
 11
473.972218677
 21
938.233974596
 31
0.0
  0
ARC
  8
0
  6
CONTINUOUS
 62
     1
 10
476.972218677
 20
938.233974596
 30
0.0
 40
3.0
 50
90.0
 51
180.0
  0
LINE
  8
0
  6
CONTINUOUS
 62
     1
 10
473.972218677
 20
892.233974596
 30
0.0
 11
473.972218677
 21
893.666108396
 31
0.0
  0
ARC
  8
0
  6
CONTINUOUS
 62
     1
 10
476.972218677
 20
892.233974596
 30
0.0
 40
3.0
 50
180.0
 51
270.0
  0
LINE
  8
0
  6
CONTINUOUS
 62
     1
 10
550.972218677
 20
889.233974596
 30
0.0
 11
476.972218677
 21
889.233974596
 31
0.0
  0
LINE
  8
0
  6
CONTINUOUS
 62
     1
 10
550.972218677
 20
941.233974596
 30
0.0
 11
476.972218677
 21
941.233974596
 31
0.0
  0
ARC
  8
0
  6
CONTINUOUS
 62
     1
 10
493.972218677
 20
877.733974596
 30
0.0
 40
3.0
 50
180.0
 51
270.0
  0
LINE
  8
0
  6
CONTINUOUS
 62
     1
 10
490.972218677
 20
877.733979991
 30
0.0
 11
490.972218677
 21
883.233974596
 31
0.0
  0
LINE
  8
0
  6
LTYPE4
 62
     2
 10
513.922218677
 20
868.233974596
 30
0.0
 11
513.922218677
 21
943.233974596
 31
0.0
  0
LINE
  8
0
  6
CONTINUOUS
 62
     1
 10
443.422218677
 20
875.233974596
 30
0.0
 11
676.422218677
 21
875.233974596
 31
0.0
  0
LINE
  8
0
  6
CONTINUOUS
 62
     1
 10
443.422218677
 20
733.233974596
 30
0.0
 11
676.422218677
 21
733.233974596
 31
0.0
  0
LINE
  8
0
  6
LTYPE2
 62
     2
 10
701.022218677
 20
629.133974596
 30
0.0
 11
313.322218677
 21
629.133974596
 31
0.0
  0
LINE
  8
2
  6
CONTINUOUS
 62
     2
 10
513.922218677
 20
452.008974596
 30
0.0
 11
501.848145848
 21
455.24421266
 31
0.0
  0
LINE
  8
2
  6
CONTINUOUS
 62
     2
 10
513.922218677
 20
452.008974596
 30
0.0
 11
501.848145848
 21
448.773736532
 31
0.0
  0
LINE
  8
2
  6
CONTINUOUS
 62
     2
 10
513.922218677
 20
452.008974596
 30
0.0
 11
428.922218677
 21
452.008974596
 31
0.0
  0
TEXT
  8
2
  6
CONTINUOUS
 62
     2
 10
454.672218677
 20
457.008974596
 30
0.0
 40
18.0
  1
８５
 50
0.0
 41
0.9
 51
0.0
  7
KANJI31
  0
TEXT
  8
0
  6
CONTINUOUS
 62
     2
 10
503.962228132
 20
781.233974596
 30
0.0
 40
18.0
  1
日本電産
 50
0.0
 41
0.9
 51
0.0
  7
KANJI31
  0
TEXT
  8
0
  6
CONTINUOUS
 62
     2
 10
503.962228132
 20
758.633974596
 30
0.0
 40
18.0
  1
エコノストップモータ
 50
0.0
 41
0.9
 51
0.0
  7
KANJI31
  0
LINE
  8
0
  6
CONTINUOUS
 62
     2
 10
590.422218677
 20
513.133974596
 30
0.0
 11
593.071272784
 21
500.917898617
 31
0.0
  0
LINE
  8
0
  6
CONTINUOUS
 62
     2
 10
590.422218677
 20
513.133974596
 30
0.0
 11
598.824404819
 21
503.879069517
 31
0.0
  0
LINE
  8
0
  6
CONTINUOUS
 62
     2
 10
590.422218677
 20
513.133974596
 30
0.0
 11
613.583983382
 21
468.133974596
 31
0.0
  0
LINE
  8
0
  6
CONTINUOUS
 62
     2
 10
613.583983382
 20
468.133974596
 30
0.0
 11
693.922218677
 21
468.133974596
 31
0.0
  0
LINE
  8
0
  6
CONTINUOUS
 62
     1
 10
551.922218677
 20
563.133974596
 30
0.0
 11
625.922218677
 21
563.133974596
 31
0.0
  0
LINE
  8
0
  6
CONTINUOUS
 62
     1
 10
633.922218677
 20
569.133974596
 30
0.0
 11
633.922218677
 21
689.133974596
 31
0.0
  0
LINE
  8
0
  6
CONTINUOUS
 62
     1
 10
625.922218677
 20
569.133974596
 30
0.0
 11
633.922218677
 21
569.133974596
 31
0.0
  0
LINE
  8
0
  6
LTYPE2
 62
     2
 10
588.922218677
 20
547.633974596
 30
0.0
 11
588.922218677
 21
574.133974596
 31
0.0
  0
LINE
  8
0
  6
CONTINUOUS
 62
     1
 10
634.922218677
 20
561.633974596
 30
0.0
 11
634.922218677
 21
560.633974596
 31
0.0
  0
ARC
  8
0
  6
CONTINUOUS
 62
     1
 10
547.922218677
 20
558.633974596
 30
0.0
 40
3.0
 50
90.0
 51
180.0
  0
LINE
  8
0
  6
CONTINUOUS
 62
     1
 10
673.922218677
 20
518.633974596
 30
0.0
 11
544.922218677
 21
518.633974596
 31
0.0
  0
LINE
  8
0
  6
CONTINUOUS
 62
     1
 10
634.922218677
 20
560.633974596
 30
0.0
 11
670.922218677
 21
560.633974596
 31
0.0
  0
ARC
  8
0
  6
CONTINUOUS
 62
     1
 10
670.922218677
 20
557.633974596
 30
0.0
 40
3.0
 50
0.0
 51
90.0
  0
LINE
  8
0
  6
CONTINUOUS
 62
     1
 10
673.922218677
 20
517.133974596
 30
0.0
 11
544.922218677
 21
517.133974596
 31
0.0
  0
LINE
  8
0
  6
CONTINUOUS
 62
     1
 10
673.922218677
 20
512.133974596
 30
0.0
 11
673.922218677
 21
557.633974596
 31
0.0
  0
ARC
  8
0
  6
CONTINUOUS
 62
     1
 10
672.922218677
 20
512.133974596
 30
0.0
 40
1.0
 50
270.0
 51
0.0
  0
LINE
  8
0
  6
CONTINUOUS
 62
     1
 10
670.922218677
 20
511.133974596
 30
0.0
 11
670.922218677
 21
511.133974596
 31
0.0
  0
ARC
  8
0
  6
CONTINUOUS
 62
     1
 10
669.922218677
 20
511.133974596
 30
0.0
 40
1.0
 50
270.0
 51
0.0
  0
LINE
  8
0
  6
CONTINUOUS
 62
     1
 10
544.922218677
 20
512.133974596
 30
0.0
 11
544.922218677
 21
558.633974596
 31
0.0
  0
LINE
  8
0
  6
CONTINUOUS
 62
     1
 10
672.922218677
 20
511.133974596
 30
0.0
 11
545.922218677
 21
511.133974596
 31
0.0
  0
ARC
  8
0
  6
CONTINUOUS
 62
     1
 10
545.922218677
 20
512.133974596
 30
0.0
 40
1.0
 50
180.0
 51
270.0
  0
ARC
  8
0
  6
CONTINUOUS
 62
     1
 10
548.922218677
 20
511.133974596
 30
0.0
 40
1.0
 50
180.0
 51
270.0
  0
LINE
  8
0
  6
CONTINUOUS
 62
     1
 10
669.922218677
 20
510.133974596
 30
0.0
 11
549.022218677
 21
510.133974596
 31
0.0
  0
LINE
  8
0
  6
CONTINUOUS
 62
     1
 10
547.922218677
 20
561.633974596
 30
0.0
 11
634.922218677
 21
561.633974596
 31
0.0
  0
LINE
  8
0
  6
CONTINUOUS
 62
     1
 10
551.922218677
 20
561.633974596
 30
0.0
 11
551.922218677
 21
603.633974596
 31
0.0
  0
LINE
  8
0
  6
CONTINUOUS
 62
     1
 10
625.922218677
 20
561.633974596
 30
0.0
 11
625.922218677
 21
603.633974596
 31
0.0
  0
LINE
  8
0
  6
CONTINUOUS
 62
     1
 10
633.922218677
 20
687.133974596
 30
0.0
 11
642.922218677
 21
687.133974596
 31
0.0
  0
LINE
  8
0
  6
CONTINUOUS
 62
     1
 10
633.922218677
 20
690.133974596
 30
0.0
 11
642.922218677
 21
690.133974596
 31
0.0
  0
LINE
  8
0
  6
CONTINUOUS
 62
     1
 10
633.922218677
 20
634.133974596
 30
0.0
 11
642.922218677
 21
634.133974596
 31
0.0
  0
LINE
  8
0
  6
CONTINUOUS
 62
     1
 10
633.922218677
 20
624.133974596
 30
0.0
 11
642.922218677
 21
624.133974596
 31
0.0
  0
LINE
  8
0
  6
CONTINUOUS
 62
     1
 10
633.922218677
 20
571.133974596
 30
0.0
 11
642.922218677
 21
571.133974596
 31
0.0
  0
LINE
  8
0
  6
CONTINUOUS
 62
     1
 10
633.922218677
 20
568.133974596
 30
0.0
 11
642.922218677
 21
568.133974596
 31
0.0
  0
LINE
  8
0
  6
CONTINUOUS
 62
     1
 10
642.922218677
 20
569.133974596
 30
0.0
 11
642.922218677
 21
689.133974596
 31
0.0
  0
LINE
  8
0
  6
LTYPE1
 62
     2
 10
673.922218677
 20
544.933974596
 30
0.0
 11
663.922218677
 21
544.933974596
 31
0.0
  0
LINE
  8
0
  6
LTYPE1
 62
     2
 10
673.922218677
 20
546.133974596
 30
0.0
 11
663.922218677
 21
546.133974596
 31
0.0
  0
LINE
  8
0
  6
LTYPE1
 62
     2
 10
673.922218677
 20
526.333974596
 30
0.0
 11
663.922218677
 21
526.333974596
 31
0.0
  0
LINE
  8
0
  6
LTYPE1
 62
     2
 10
673.922218677
 20
525.133974596
 30
0.0
 11
663.922218677
 21
525.133974596
 31
0.0
  0
LINE
  8
0
  6
CONTINUOUS
 62
     2
 10
673.922218677
 20
535.633974596
 30
0.0
 11
678.916676769
 21
524.175118268
 31
0.0
  0
LINE
  8
0
  6
CONTINUOUS
 62
     2
 10
673.922218677
 20
535.633974596
 30
0.0
 11
683.976974427
 21
528.207542964
 31
0.0
  0
LINE
  8
0
  6
CONTINUOUS
 62
     2
 10
673.922218677
 20
535.633974596
 30
0.0
 11
699.422218677
 21
503.633974596
 31
0.0
  0
LINE
  8
0
  6
CONTINUOUS
 62
     2
 10
699.422218677
 20
503.633974596
 30
0.0
 11
772.922218677
 21
503.633974596
 31
0.0
  0
CIRCLE
  8
0
  6
CONTINUOUS
 62
     1
 10
789.84722658
 20
629.133974596
 30
0.0
 40
19.5
  0
LINE
  8
0
  6
CONTINUOUS
 62
     1
 10
769.84722658
 20
649.133974596
 30
0.0
 11
809.84722658
 21
649.133974596
 31
0.0
  0
LINE
  8
0
  6
CONTINUOUS
 62
     1
 10
809.84722658
 20
609.133974596
 30
0.0
 11
809.84722658
 21
649.133974596
 31
0.0
  0
LINE
  8
0
  6
CONTINUOUS
 62
     1
 10
769.84722658
 20
609.133974596
 30
0.0
 11
809.84722658
 21
609.133974596
 31
0.0
  0
LINE
  8
0
  6
CONTINUOUS
 62
     1
 10
769.84722658
 20
609.133974596
 30
0.0
 11
769.84722658
 21
649.133974596
 31
0.0
  0
LINE
  8
0
  6
CONTINUOUS
 62
     2
 10
797.922218677
 20
638.133974596
 30
0.0
 11
805.410259882
 21
648.142932529
 31
0.0
  0
LINE
  8
0
  6
CONTINUOUS
 62
     2
 10
797.922218677
 20
638.133974596
 30
0.0
 11
799.402573619
 21
650.546007034
 31
0.0
  0
LINE
  8
0
  6
CONTINUOUS
 62
     2
 10
797.922218677
 20
638.133974596
 30
0.0
 11
847.922218677
 21
763.133974596
 31
0.0
  0
LINE
  8
0
  6
LTYPE2
 62
     2
 10
789.84722658
 20
604.033974596
 30
0.0
 11
789.84722658
 21
653.933974596
 31
0.0
  0
LINE
  8
0
  6
CONTINUOUS
 62
     2
 10
730.822218677
 20
584.583974596
 30
0.0
 11
734.05745674
 21
596.658047425
 31
0.0
  0
LINE
  8
0
  6
CONTINUOUS
 62
     2
 10
730.822218677
 20
584.583974596
 30
0.0
 11
727.586980613
 21
596.658047425
 31
0.0
  0
LINE
  8
0
  6
CONTINUOUS
 62
     2
 10
730.822218677
 20
584.583974596
 30
0.0
 11
730.822218677
 21
673.683974596
 31
0.0
  0
LINE
  8
0
  6
CONTINUOUS
 62
     2
 10
730.822218677
 20
673.683974596
 30
0.0
 11
727.586980613
 21
661.609901768
 31
0.0
  0
LINE
  8
0
  6
CONTINUOUS
 62
     2
 10
730.822218677
 20
673.683974596
 30
0.0
 11
734.05745674
 21
661.609901768
 31
0.0
  0
LINE
  8
0
  6
CONTINUOUS
 62
     2
 10
847.922218677
 20
763.133974596
 30
0.0
 11
896.622218677
 21
763.133974596
 31
0.0
  0
LINE
  8
0
  6
LTYPE4
 62
     2
 10
680.122218677
 20
535.633974596
 30
0.0
 11
660.422218677
 21
535.633974596
 31
0.0
  0
LINE
  8
0
  6
CONTINUOUS
 62
     1
 10
579.972218677
 20
894.233974596
 30
0.0
 11
579.972218677
 21
928.233974596
 31
0.0
  0
LINE
  8
0
  6
CONTINUOUS
 62
     1
 10
579.972218677
 20
894.233974596
 30
0.0
 11
553.972218677
 21
894.233974596
 31
0.0
  0
LINE
  8
0
  6
CONTINUOUS
 62
     1
 10
579.972218677
 20
928.233974596
 30
0.0
 11
553.972218677
 21
928.233974596
 31
0.0
  0
LINE
  8
0
  6
LTYPE4
 62
     2
 10
586.901694522
 20
911.233974596
 30
0.0
 11
546.901694522
 21
911.233974596
 31
0.0
  0
LINE
  8
0
  6
CONTINUOUS
 62
     1
 10
543.972218677
 20
886.233974596
 30
0.0
 11
543.972218677
 21
889.233974596
 31
0.0
  0
ARC
  8
0
  6
CONTINUOUS
 62
     1
 10
539.972218677
 20
883.233974596
 30
0.0
 40
3.0
 50
90.0
 51
180.0
  0
LINE
  8
0
  6
CONTINUOUS
 62
     1
 10
559.060130764
 20
939.254020484
 30
0.0
 11
560.972218677
 21
935.254020484
 31
0.0
  0
LINE
  8
0
  6
CONTINUOUS
 62
     1
 10
553.972218677
 20
892.233974596
 30
0.0
 11
553.972218677
 21
931.907866638
 31
0.0
  0
ARC
  8
0
  6
CONTINUOUS
 62
     1
 10
550.972218677
 20
892.233974596
 30
0.0
 40
3.0
 50
270.0
 51
0.0
  0
LINE
  8
0
  6
CONTINUOUS
 62
     1
 10
553.972218677
 20
936.821886684
 30
0.0
 11
553.972218677
 21
938.233974596
 31
0.0
  0
ARC
  8
0
  6
CONTINUOUS
 62
     1
 10
550.972218677
 20
938.233974596
 30
0.0
 40
3.0
 50
0.0
 51
90.0
  0
ARC
  8
0
  6
CONTINUOUS
 62
     1
 10
533.972218677
 20
877.733974596
 30
0.0
 40
3.0
 50
270.0
 51
0.0
  0
LINE
  8
0
  6
CONTINUOUS
 62
     1
 10
536.972218677
 20
877.733979991
 30
0.0
 11
536.972218677
 21
883.233974596
 31
0.0
  0
LINE
  8
0
  6
CONTINUOUS
 62
     1
 10
681.232600491
 20
846.061557281
 30
0.0
 11
698.611836862
 21
844.406391912
 31
0.0
  0
ARC
  8
0
  6
CONTINUOUS
 62
     1
 10
681.422218677
 20
848.052548226
 30
0.0
 40
2.0
 50
180.0
 51
264.559667969
  0
LINE
  8
0
  6
CONTINUOUS
 62
     1
 10
681.232600491
 20
856.061557281
 30
0.0
 11
698.611836862
 21
854.406391912
 31
0.0
  0
ARC
  8
0
  6
CONTINUOUS
 62
     1
 10
681.422218677
 20
858.052548226
 30
0.0
 40
2.0
 50
180.0
 51
264.559667969
  0
LINE
  8
0
  6
CONTINUOUS
 62
     1
 10
681.232600491
 20
762.406391912
 30
0.0
 11
698.611836862
 21
764.061557281
 31
0.0
  0
ARC
  8
0
  6
CONTINUOUS
 62
     1
 10
681.422218677
 20
760.415400967
 30
0.0
 40
2.0
 50
95.440332031
 51
180.0
  0
ARC
  8
0
  6
CONTINUOUS
 62
     1
 10
702.422218677
 20
829.233974596
 30
0.0
 40
2.0
 50
180.0
 51
270.0
  0
LINE
  8
0
  6
CONTINUOUS
 62
     1
 10
711.422218677
 20
827.233974596
 30
0.0
 11
702.422218677
 21
827.233974596
 31
0.0
  0
ARC
  8
0
  6
CONTINUOUS
 62
     1
 10
711.422218677
 20
825.233974596
 30
0.0
 40
2.0
 50
0.0
 51
90.0
  0
LINE
  8
0
  6
CONTINUOUS
 62
     1
 10
713.422218677
 20
825.233974596
 30
0.0
 11
713.422218677
 21
783.233974596
 31
0.0
  0
ARC
  8
0
  6
CONTINUOUS
 62
     1
 10
711.422218677
 20
783.233974596
 30
0.0
 40
2.0
 50
270.0
 51
0.0
  0
ARC
  8
0
  6
CONTINUOUS
 62
     1
 10
702.422218677
 20
779.233974596
 30
0.0
 40
2.0
 50
90.0
 51
180.0
  0
LINE
  8
0
  6
CONTINUOUS
 62
     1
 10
711.422218677
 20
781.233974596
 30
0.0
 11
702.422218677
 21
781.233974596
 31
0.0
  0
LINE
  8
0
  6
CONTINUOUS
 62
     1
 10
716.422218677
 20
815.733974596
 30
0.0
 11
713.422218677
 21
815.733974596
 31
0.0
  0
LINE
  8
0
  6
CONTINUOUS
 62
     1
 10
716.422218677
 20
792.733974596
 30
0.0
 11
713.422218677
 21
792.733974596
 31
0.0
  0
LINE
  8
0
  6
CONTINUOUS
 62
     1
 10
716.422218677
 20
815.733974596
 30
0.0
 11
716.422218677
 21
792.733974596
 31
0.0
  0
ARC
  8
0
  6
CONTINUOUS
 62
     1
 10
698.422218677
 20
797.052548226
 30
0.0
 40
2.0
 50
275.440332031
 51
0.0
  0
LINE
  8
0
  6
CONTINUOUS
 62
     1
 10
698.611836862
 20
795.061557281
 30
0.0
 11
681.232600491
 21
793.406391912
 31
0.0
  0
ARC
  8
0
  6
CONTINUOUS
 62
     1
 10
681.422218677
 20
791.415400967
 30
0.0
 40
2.0
 50
95.440332031
 51
180.0
  0
ARC
  8
0
  6
CONTINUOUS
 62
     1
 10
698.422218677
 20
811.415400967
 30
0.0
 40
2.0
 50
0.0
 51
84.559667969
  0
LINE
  8
0
  6
CONTINUOUS
 62
     1
 10
698.611836862
 20
813.406391912
 30
0.0
 11
681.232600491
 21
815.061557281
 31
0.0
  0
ARC
  8
0
  6
CONTINUOUS
 62
     1
 10
681.422218677
 20
817.052548226
 30
0.0
 40
2.0
 50
180.0
 51
264.559667969
  0
LINE
  8
0
  6
LTYPE4
 62
     2
 10
692.922218677
 20
847.233974596
 30
0.0
 11
706.122218677
 21
847.233974596
 31
0.0
  0
LINE
  8
0
  6
CONTINUOUS
 62
     1
 10
681.232600491
 20
752.406391912
 30
0.0
 11
698.611836862
 21
754.061557281
 31
0.0
  0
LINE
  8
0
  6
LTYPE4
 62
     2
 10
692.922218677
 20
761.233974596
 30
0.0
 11
706.122218677
 21
761.233974596
 31
0.0
  0
ARC
  8
0
  6
CONTINUOUS
 62
     1
 10
681.422218677
 20
750.415400967
 30
0.0
 40
2.0
 50
95.440332031
 51
180.0
  0
LINE
  8
0
  6
CONTINUOUS
 62
     1
 10
700.422218677
 20
852.415400967
 30
0.0
 11
700.422218677
 21
756.622094596
 31
0.0
  0
ARC
  8
0
  6
CONTINUOUS
 62
     1
 10
698.422218677
 20
842.415400967
 30
0.0
 40
2.0
 50
0.0
 51
84.559667969
  0
ARC
  8
0
  6
CONTINUOUS
 62
     1
 10
698.422218677
 20
852.415400967
 30
0.0
 40
2.0
 50
0.0
 51
84.559667969
  0
LINE
  8
0
  6
CONTINUOUS
 62
     1
 10
703.922418677
 20
850.716414596
 30
0.0
 11
703.270336188
 21
851.845854596
 31
0.0
  0
LINE
  8
0
  6
CONTINUOUS
 62
     1
 10
703.922418677
 20
843.751534596
 30
0.0
 11
703.270336188
 21
842.622094596
 31
0.0
  0
ARC
  8
0
  6
CONTINUOUS
 62
     1
 10
699.519163751
 20
847.233974596
 30
0.0
 40
4.403254926
 50
328.419912243
 51
31.580087757
  0
ARC
  8
0
  6
CONTINUOUS
 62
     1
 10
702.577498545
 20
850.692884596
 30
0.0
 40
1.34512595
 50
301.002313915
 51
2.989498403
  0
LINE
  8
0
  6
CONTINUOUS
 62
     1
 10
703.922418677
 20
843.751534596
 30
0.0
 11
703.270336188
 21
842.622094596
 31
0.0
  0
ARC
  8
0
  6
CONTINUOUS
 62
     1
 10
702.577498545
 20
843.775064596
 30
0.0
 40
1.34512595
 50
357.010501597
 51
58.997686085
  0
LINE
  8
0
  6
CONTINUOUS
 62
     1
 10
700.422218677
 20
851.845854596
 30
0.0
 11
703.270336188
 21
851.845854596
 31
0.0
  0
LINE
  8
0
  6
CONTINUOUS
 62
     1
 10
700.422218677
 20
849.539914596
 30
0.0
 11
703.270336188
 21
849.539914596
 31
0.0
  0
LINE
  8
0
  6
CONTINUOUS
 62
     1
 10
700.422218677
 20
844.928034596
 30
0.0
 11
703.270336188
 21
844.928034596
 31
0.0
  0
LINE
  8
0
  6
CONTINUOUS
 62
     1
 10
700.422218677
 20
842.622094596
 30
0.0
 11
703.270336188
 21
842.622094596
 31
0.0
  0
LINE
  8
0
  6
CONTINUOUS
 62
     1
 10
703.922418677
 20
850.716414596
 30
0.0
 11
703.922418677
 21
843.751534596
 31
0.0
  0
LINE
  8
0
  6
CONTINUOUS
 62
     1
 10
721.422218677
 20
808.586876596
 30
0.0
 11
720.607143279
 21
809.998628596
 31
0.0
  0
LINE
  8
0
  6
CONTINUOUS
 62
     1
 10
721.422218677
 20
799.881072596
 30
0.0
 11
720.607143279
 21
798.469320596
 31
0.0
  0
ARC
  8
0
  6
CONTINUOUS
 62
     1
 10
715.918337153
 20
804.233974596
 30
0.0
 40
5.503881523
 50
328.419912243
 51
31.580087757
  0
ARC
  8
0
  6
CONTINUOUS
 62
     1
 10
719.74112567
 20
808.557465096
 30
0.0
 40
1.681350271
 50
301.002313915
 51
2.989498403
  0
LINE
  8
0
  6
CONTINUOUS
 62
     1
 10
721.422218677
 20
799.881072596
 30
0.0
 11
720.607143279
 21
798.469320596
 31
0.0
  0
ARC
  8
0
  6
CONTINUOUS
 62
     1
 10
719.74112567
 20
799.910484096
 30
0.0
 40
1.681350271
 50
357.010501597
 51
58.997686085
  0
LINE
  8
0
  6
CONTINUOUS
 62
     1
 10
717.422608677
 20
807.116301596
 30
0.0
 11
720.607143279
 21
807.116301596
 31
0.0
  0
LINE
  8
0
  6
CONTINUOUS
 62
     1
 10
717.422608677
 20
809.998628596
 30
0.0
 11
720.607143279
 21
809.998628596
 31
0.0
  0
LINE
  8
0
  6
CONTINUOUS
 62
     1
 10
717.422608677
 20
801.351647596
 30
0.0
 11
720.607143279
 21
801.351647596
 31
0.0
  0
LINE
  8
0
  6
CONTINUOUS
 62
     1
 10
717.422608677
 20
798.469320596
 30
0.0
 11
720.607143279
 21
798.469320596
 31
0.0
  0
LINE
  8
0
  6
CONTINUOUS
 62
     1
 10
721.422218677
 20
799.881072596
 30
0.0
 11
721.422218677
 21
808.586876596
 31
0.0
  0
LINE
  8
0
  6
CONTINUOUS
 62
     1
 10
717.422608677
 20
810.733974596
 30
0.0
 11
716.422218677
 21
810.733974596
 31
0.0
  0
LINE
  8
0
  6
CONTINUOUS
 62
     1
 10
717.422608677
 20
810.733974596
 30
0.0
 11
717.422608677
 21
797.733974596
 31
0.0
  0
LINE
  8
0
  6
CONTINUOUS
 62
     1
 10
717.422608677
 20
797.733974596
 30
0.0
 11
716.422218677
 21
797.733974596
 31
0.0
  0
ARC
  8
0
  6
CONTINUOUS
 62
     1
 10
698.422218677
 20
766.052548226
 30
0.0
 40
2.0
 50
275.440332031
 51
0.0
  0
LINE
  8
0
  6
CONTINUOUS
 62
     1
 10
703.922418677
 20
757.751534596
 30
0.0
 11
703.270336188
 21
756.622094596
 31
0.0
  0
LINE
  8
0
  6
CONTINUOUS
 62
     1
 10
703.922418677
 20
764.716414596
 30
0.0
 11
703.270336188
 21
765.845854596
 31
0.0
  0
ARC
  8
0
  6
CONTINUOUS
 62
     1
 10
699.519163751
 20
761.233974596
 30
0.0
 40
4.403254926
 50
328.419912243
 51
31.580087757
  0
ARC
  8
0
  6
CONTINUOUS
 62
     1
 10
702.577498545
 20
757.775064596
 30
0.0
 40
1.34512595
 50
357.010501597
 51
58.997686085
  0
LINE
  8
0
  6
CONTINUOUS
 62
     1
 10
703.922418677
 20
764.716414596
 30
0.0
 11
703.270336188
 21
765.845854596
 31
0.0
  0
ARC
  8
0
  6
CONTINUOUS
 62
     1
 10
702.577498545
 20
764.692884596
 30
0.0
 40
1.34512595
 50
301.002313915
 51
2.989498403
  0
LINE
  8
0
  6
CONTINUOUS
 62
     1
 10
700.422218677
 20
756.622094596
 30
0.0
 11
703.270336188
 21
756.622094596
 31
0.0
  0
LINE
  8
0
  6
CONTINUOUS
 62
     1
 10
700.422218677
 20
758.928034596
 30
0.0
 11
703.270336188
 21
758.928034596
 31
0.0
  0
LINE
  8
0
  6
CONTINUOUS
 62
     1
 10
700.422218677
 20
763.539914596
 30
0.0
 11
703.270336188
 21
763.539914596
 31
0.0
  0
LINE
  8
0
  6
CONTINUOUS
 62
     1
 10
700.422218677
 20
765.845854596
 30
0.0
 11
703.270336188
 21
765.845854596
 31
0.0
  0
LINE
  8
0
  6
CONTINUOUS
 62
     1
 10
703.922418677
 20
757.751534596
 30
0.0
 11
703.922418677
 21
764.716414596
 31
0.0
  0
ARC
  8
0
  6
CONTINUOUS
 62
     1
 10
698.422218677
 20
756.052548226
 30
0.0
 40
2.0
 50
275.440332031
 51
0.0
  0
LINE
  8
0
  6
LTYPE1
 62
     1
 10
708.522218677
 20
818.733974596
 30
0.0
 11
700.422218677
 21
809.533974596
 31
0.0
  0
ARC
  8
0
  6
LTYPE1
 62
     1
 10
711.922218677
 20
815.733974596
 30
0.0
 40
4.5
 50
290.9
 51
137.7
  0
LINE
  8
0
  6
LTYPE1
 62
     1
 10
706.422218677
 20
808.733974596
 30
0.0
 11
700.422218677
 21
809.533974596
 31
0.0
  0
LINE
  8
0
  6
LTYPE1
 62
     1
 10
713.522218677
 20
811.533974596
 30
0.0
 11
706.422218677
 21
808.733974596
 31
0.0
  0
LINE
  8
0
  6
LTYPE1
 62
     1
 10
706.422218677
 20
799.733974596
 30
0.0
 11
700.422218677
 21
798.933974596
 31
0.0
  0
ARC
  8
0
  6
LTYPE1
 62
     1
 10
711.922218677
 20
792.733974596
 30
0.0
 40
4.5
 50
222.3
 51
69.1
  0
LINE
  8
0
  6
LTYPE1
 62
     1
 10
708.522218677
 20
789.733974596
 30
0.0
 11
700.422218677
 21
798.933974596
 31
0.0
  0
LINE
  8
0
  6
LTYPE1
 62
     1
 10
713.522218677
 20
796.933974596
 30
0.0
 11
706.422218677
 21
799.733974596
 31
0.0
  0
LINE
  8
0
  6
LTYPE1
 62
     1
 10
706.422218677
 20
808.733974596
 30
0.0
 11
706.422218677
 21
799.733974596
 31
0.0
  0
LINE
  8
0
  6
CONTINUOUS
 62
     1
 10
671.422218677
 20
733.233974596
 30
0.0
 11
671.422218677
 21
875.233974596
 31
0.0
  0
ARC
  8
0
  6
CONTINUOUS
 62
     1
 10
676.422218677
 20
872.233974596
 30
0.0
 40
3.0
 50
0.0
 51
90.0
  0
LINE
  8
0
  6
CONTINUOUS
 62
     1
 10
679.422218677
 20
872.233974596
 30
0.0
 11
679.422218677
 21
736.233974596
 31
0.0
  0
ARC
  8
0
  6
CONTINUOUS
 62
     1
 10
676.422218677
 20
736.233974596
 30
0.0
 40
3.0
 50
270.0
 51
0.0
  0
LINE
  8
0
  6
CONTINUOUS
 62
     2
 10
716.222218677
 20
821.733974596
 30
0.0
 11
724.515593092
 21
831.086511193
 31
0.0
  0
LINE
  8
0
  6
CONTINUOUS
 62
     2
 10
716.222218677
 20
821.733974596
 30
0.0
 11
718.728223305
 21
833.980196087
 31
0.0
  0
LINE
  8
0
  6
CONTINUOUS
 62
     2
 10
716.222218677
 20
821.733974596
 30
0.0
 11
789.222218677
 21
967.733974596
 31
0.0
  0
LINE
  8
0
  6
CONTINUOUS
 62
     2
 10
579.972218677
 20
911.233974596
 30
0.0
 11
588.265593092
 21
920.586511193
 31
0.0
  0
LINE
  8
0
  6
CONTINUOUS
 62
     2
 10
579.972218677
 20
911.233974596
 30
0.0
 11
582.478223305
 21
923.480196087
 31
0.0
  0
LINE
  8
2
  6
CONTINUOUS
 62
     2
 10
677.422218677
 20
875.233974596
 30
0.0
 11
773.422218677
 21
875.233974596
 31
0.0
  0
LINE
  8
2
  6
CONTINUOUS
 62
     2
 10
767.422218677
 20
875.233974596
 30
0.0
 11
763.539933
 21
860.745087202
 31
0.0
  0
LINE
  8
2
  6
CONTINUOUS
 62
     2
 10
767.422218677
 20
875.233974596
 30
0.0
 11
771.304504353
 21
860.745087202
 31
0.0
  0
LINE
  8
2
  6
CONTINUOUS
 62
     2
 10
767.422218677
 20
875.233974596
 30
0.0
 11
767.422218677
 21
733.233974596
 31
0.0
  0
LINE
  8
2
  6
CONTINUOUS
 62
     2
 10
767.422218677
 20
733.233974596
 30
0.0
 11
771.304504353
 21
747.722861991
 31
0.0
  0
LINE
  8
2
  6
CONTINUOUS
 62
     2
 10
767.422218677
 20
733.233974596
 30
0.0
 11
763.539933
 21
747.722861991
 31
0.0
  0
LINE
  8
2
  6
CONTINUOUS
 62
     2
 10
677.422218677
 20
733.233974596
 30
0.0
 11
773.422218677
 21
733.233974596
 31
0.0
  0
LINE
  8
0
  6
CONTINUOUS
 62
     2
 10
789.222218677
 20
967.733974596
 30
0.0
 11
889.822218677
 21
967.733974596
 31
0.0
  0
LINE
  8
0
  6
CONTINUOUS
 62
     2
 10
579.972218677
 20
911.233974596
 30
0.0
 11
603.602218677
 21
958.493974596
 31
0.0
  0
LINE
  8
0
  6
CONTINUOUS
 62
     2
 10
603.602218677
 20
958.493974596
 30
0.0
 11
687.002218677
 21
958.493974596
 31
0.0
  0
TEXT
  8
0
  6
CONTINUOUS
 62
     2
 10
612.922218677
 20
473.133974596
 30
0.0
 40
18.0
  1
推力リミッタ
 50
0.0
 41
0.9
 51
0.0
  7
KANJI31
  0
TEXT
  8
0
  6
CONTINUOUS
 62
     2
 10
738.572218677
 20
461.633974596
 30
0.0
 40
18.0
  1
Ｃ
 50
0.0
 41
0.9
 51
0.0
  7
KANJI31
  0
TEXT
  8
0
  6
CONTINUOUS
 62
     2
 10
765.172218677
 20
422.008974596
 30
0.0
 40
18.0
  1
ｍｉｎ．Ｌ
 50
0.0
 41
0.9
 51
0.0
  7
KANJI31
  0
TEXT
  8
0
  6
CONTINUOUS
 62
     2
 10
659.172218677
 20
386.508974596
 30
0.0
 40
18.0
  1
ｍｉｎ．ＡＬ
 50
0.0
 41
0.9
 51
0.0
  7
KANJI31
  0
TEXT
  8
0
  6
CONTINUOUS
 62
     2
 10
699.422218677
 20
508.633974596
 30
0.0
 40
18.0
  1
ＰＦ１／２
 50
0.0
 41
0.9
 51
0.0
  7
KANJI31
  0
TEXT
  8
0
  6
CONTINUOUS
 62
     2
 10
725.822218677
 20
606.633974596
 30
0.0
 40
18.0
  1
φ８９
 50
90.0
 41
0.9
 51
0.0
  7
KANJI31
  0
TEXT
  8
0
  6
CONTINUOUS
 62
     2
 10
847.922218677
 20
768.133974596
 30
0.0
 40
18.0
  1
給脂口
 50
0.0
 41
0.9
 51
0.0
  7
KANJI31
  0
TEXT
  8
0
  6
CONTINUOUS
 62
     2
 10
790.722218677
 20
972.733974596
 30
0.0
 40
18.0
  1
手動開放装置
 50
0.0
 41
0.9
 51
0.0
  7
KANJI31
  0
TEXT
  8
0
  6
CONTINUOUS
 62
     2
 10
603.602218677
 20
963.493974596
 30
0.0
 40
18.0
  1
ＰＦ３／４
 50
0.0
 41
0.9
 51
0.0
  7
KANJI31
  0
TEXT
  8
2
  6
CONTINUOUS
 62
     2
 10
761.422218677
 20
765.533974596
 30
0.0
 40
18.0
  1
φ１４２
 50
90.0
 41
0.9
 51
0.0
  7
KANJI31
  0
LINE
  8
0
  6
CONTINUOUS
 62
     1
 10
559.3
 20
510.133974596
 30
0.0
 11
548.7
 21
510.133974596
 31
0.0
  0
ARC
  8
0
  6
CONTINUOUS
 62
     1
 10
554.4
 20
511.133974596
 30
0.0
 40
5.0
 50
272.3
 51
348.5
  0
ARC
  8
0
  6
CONTINUOUS
 62
     1
 10
553.6
 20
511.133974596
 30
0.0
 40
5.0
 50
191.5
 51
267.7
  0
LINE
  8
0
  6
CONTINUOUS
 62
     1
 10
554.6
 20
506.133974596
 30
0.0
 11
553.4
 21
506.133974596
 31
0.0
  0
LINE
  8
0
  6
LTYPE5
 62
     2
 10
554.0
 20
502.733974596
 30
0.0
 11
554.0
 21
516.133974596
 31
0.0
  0
LINE
  8
0
  6
CONTINUOUS
 62
     1
 10
670.3
 20
510.133974596
 30
0.0
 11
659.7
 21
510.133974596
 31
0.0
  0
ARC
  8
0
  6
CONTINUOUS
 62
     1
 10
665.4
 20
511.133974596
 30
0.0
 40
5.0
 50
272.3
 51
348.5
  0
ARC
  8
0
  6
CONTINUOUS
 62
     1
 10
664.6
 20
511.133974596
 30
0.0
 40
5.0
 50
191.5
 51
267.7
  0
LINE
  8
0
  6
CONTINUOUS
 62
     1
 10
665.6
 20
506.133974596
 30
0.0
 11
664.4
 21
506.133974596
 31
0.0
  0
LINE
  8
0
  6
LTYPE5
 62
     2
 10
665.0
 20
502.733974596
 30
0.0
 11
665.0
 21
516.133974596
 31
0.0
  0
LINE
  8
0
  6
CONTINUOUS
 62
     2
 10
428.922218677
 20
1024.0
 30
0.0
 11
720.922218677
 21
1024.0
 31
0.0
  0
LINE
  8
0
  6
CONTINUOUS
 62
     2
 10
720.922218677
 20
1024.0
 30
0.0
 11
709.331108761
 21
1027.105828541
 31
0.0
  0
LINE
  8
0
  6
CONTINUOUS
 62
     2
 10
720.922218677
 20
1024.0
 30
0.0
 11
709.331108761
 21
1020.894171459
 31
0.0
  0
TEXT
  8
0
  6
CONTINUOUS
 62
     3
 10
550.622218677
 20
1033.0
 30
0.0
 40
18.0
  1
２９２
 50
0.0
 41
0.9
 51
0.0
  7
KANJI31
  0
LINE
  8
0
  6
CONTINUOUS
 62
     2
 10
720.922218677
 20
813.133974596
 30
0.0
 11
720.922218677
 21
1030.0
 31
0.0
  0
LINE
  8
0
  6
CONTINUOUS
 62
     1
 10
428.922218677
 20
544.133974596
 30
0.0
 11
428.922218677
 21
884.133974596
 31
0.0
  0
LINE
  8
0
  6
CONTINUOUS
 62
     1
 10
428.922218677
 20
694.033974596
 30
0.0
 11
428.922218677
 21
894.033974596
 31
0.0
  0
LINE
  8
0
  6
CONTINUOUS
 62
     1
 10
428.922218677
 20
535.133974596
 30
0.0
 11
428.922218677
 21
910.133974596
 31
0.0
  0
LINE
  8
0
  6
CONTINUOUS
 62
     1
 10
428.922218677
 20
910.133974596
 30
0.0
 11
388.922218677
 21
910.133974596
 31
0.0
  0
ARC
  8
0
  6
CONTINUOUS
 62
     1
 10
410.922218677
 20
777.133974596
 30
0.0
 40
4.0
 50
270.0
 51
0.0
  0
LINE
  8
0
  6
CONTINUOUS
 62
     1
 10
388.922218677
 20
910.133974596
 30
0.0
 11
388.922218677
 21
873.133974596
 31
0.0
  0
ARC
  8
0
  6
CONTINUOUS
 62
     1
 10
385.922218677
 20
873.133974596
 30
0.0
 40
3.0
 50
270.0
 51
0.0
  0
ARC
  8
0
  6
CONTINUOUS
 62
     1
 10
411.922218677
 20
873.133974596
 30
0.0
 40
3.0
 50
270.0
 51
0.0
  0
LINE
  8
0
  6
CONTINUOUS
 62
     1
 10
414.922218677
 20
777.133974596
 30
0.0
 11
414.922218677
 21
910.133974596
 31
0.0
  0
LINE
  8
0
  6
CONTINUOUS
 62
     1
 10
333.922218677
 20
535.133974596
 30
0.0
 11
333.922218677
 21
870.133974596
 31
0.0
  0
LINE
  8
0
  6
CONTINUOUS
 62
     1
 10
333.922218677
 20
870.133974596
 30
0.0
 11
411.922218677
 21
870.133974596
 31
0.0
  0
CIRCLE
  8
0
  6
CONTINUOUS
 62
     1
 10
408.922218677
 20
935.133974596
 30
0.0
 40
15.0
  0
LINE
  8
0
  6
CONTINUOUS
 62
     1
 10
420.32348764
 20
918.135505015
 30
0.0
 11
408.922218677
 21
920.133974596
 31
0.0
  0
LINE
  8
0
  6
CONTINUOUS
 62
     1
 10
408.922218677
 20
918.133974596
 30
0.0
 11
420.323674444
 21
918.133974596
 31
0.0
  0
ARC
  8
0
  6
CONTINUOUS
 62
     1
 10
408.922218677
 20
935.133974596
 30
0.0
 40
25.0
 50
300.714883545
 51
0.0
  0
LINE
  8
0
  6
CONTINUOUS
 62
     1
 10
421.039313823
 20
912.270984085
 30
0.0
 11
420.323674444
 21
918.133974596
 31
0.0
  0
ARC
  8
0
  6
CONTINUOUS
 62
     1
 10
422.427841391
 20
912.450100256
 30
0.0
 40
1.4
 50
121.733468281
 51
187.57738995
  0
LINE
  8
0
  6
CONTINUOUS
 62
     1
 10
397.520949713
 20
918.135505015
 30
0.0
 11
408.922218677
 21
920.133974596
 31
0.0
  0
LINE
  8
0
  6
CONTINUOUS
 62
     1
 10
408.922218677
 20
918.133974596
 30
0.0
 11
397.520762909
 21
918.133974596
 31
0.0
  0
LINE
  8
0
  6
CONTINUOUS
 62
     1
 10
396.80512353
 20
912.270984085
 30
0.0
 11
397.520762909
 21
918.133974596
 31
0.0
  0
ARC
  8
0
  6
CONTINUOUS
 62
     1
 10
395.416595962
 20
912.450100256
 30
0.0
 40
1.4
 50
352.42261005
 51
58.266531719
  0
ARC
  8
0
  6
CONTINUOUS
 62
     1
 10
408.922218677
 20
935.133974596
 30
0.0
 40
25.0
 50
0.0
 51
239.342761175
  0
LINE
  8
0
  6
CONTINUOUS
 62
     1
 10
421.300158206
 20
910.133974596
 30
0.0
 11
421.039313823
 21
912.270984085
 31
0.0
  0
LINE
  8
0
  6
CONTINUOUS
 62
     1
 10
396.544279147
 20
910.133974596
 30
0.0
 11
396.80512353
 21
912.270984085
 31
0.0
  0
LINE
  8
0
  6
CONTINUOUS
 62
     1
 10
428.922218677
 20
535.133974596
 30
0.0
 11
316.922218677
 21
535.133974596
 31
0.0
  0
LINE
  8
0
  6
CONTINUOUS
 62
     1
 10
316.922218677
 20
535.133974596
 30
0.0
 11
316.922218677
 21
783.133974596
 31
0.0
  0
LINE
  8
0
  6
CONTINUOUS
 62
     1
 10
410.922218677
 20
773.133974596
 30
0.0
 11
333.922218677
 21
773.133974596
 31
0.0
  0
LINE
  8
0
  6
CONTINUOUS
 62
     1
 10
333.922218677
 20
783.133974596
 30
0.0
 11
316.922218677
 21
783.133974596
 31
0.0
  0
LINE
  8
0
  6
CONTINUOUS
 62
     1
 10
316.922218677
 20
704.133974596
 30
0.0
 11
316.922218677
 21
693.184434596
 31
0.0
  0
LINE
  8
0
  6
CONTINUOUS
 62
     1
 10
316.922218677
 20
704.133974596
 30
0.0
 11
316.922218677
 21
715.083514596
 31
0.0
  0
LINE
  8
0
  6
CONTINUOUS
 62
     1
 10
308.901118677
 20
695.865954596
 30
0.0
 11
310.44929497
 21
693.184434596
 31
0.0
  0
LINE
  8
0
  6
CONTINUOUS
 62
     1
 10
308.901118677
 20
704.133974596
 30
0.0
 11
308.901118677
 21
695.865954596
 31
0.0
  0
LINE
  8
0
  6
CONTINUOUS
 62
     1
 10
308.901118677
 20
712.401994596
 30
0.0
 11
310.44929497
 21
715.083514596
 31
0.0
  0
LINE
  8
0
  6
CONTINUOUS
 62
     1
 10
308.901118677
 20
704.133974596
 30
0.0
 11
308.901118677
 21
712.401994596
 31
0.0
  0
ARC
  8
0
  6
CONTINUOUS
 62
     1
 10
319.355340369
 20
704.133974596
 30
0.0
 40
10.454221693
 50
148.419912243
 51
211.580087757
  0
ARC
  8
0
  6
CONTINUOUS
 62
     1
 10
312.094232283
 20
695.921819596
 30
0.0
 40
3.193602261
 50
121.002313915
 51
182.989498403
  0
LINE
  8
0
  6
CONTINUOUS
 62
     1
 10
308.901118677
 20
712.401994596
 30
0.0
 11
310.44929497
 21
715.083514596
 31
0.0
  0
ARC
  8
0
  6
CONTINUOUS
 62
     1
 10
312.094232283
 20
712.346129596
 30
0.0
 40
3.193602261
 50
177.010501597
 51
238.997686085
  0
LINE
  8
0
  6
CONTINUOUS
 62
     1
 10
316.922218677
 20
693.184434596
 30
0.0
 11
310.44929497
 21
693.184434596
 31
0.0
  0
LINE
  8
0
  6
CONTINUOUS
 62
     1
 10
316.922218677
 20
698.659204596
 30
0.0
 11
310.44929497
 21
698.659204596
 31
0.0
  0
LINE
  8
0
  6
CONTINUOUS
 62
     1
 10
316.922218677
 20
709.608744596
 30
0.0
 11
310.44929497
 21
709.608744596
 31
0.0
  0
LINE
  8
0
  6
CONTINUOUS
 62
     1
 10
316.922218677
 20
715.083514596
 30
0.0
 11
310.44929497
 21
715.083514596
 31
0.0
  0
LINE
  8
0
  6
CONTINUOUS
 62
     1
 10
316.922218677
 20
554.133974596
 30
0.0
 11
316.922218677
 21
543.184434596
 31
0.0
  0
LINE
  8
0
  6
CONTINUOUS
 62
     1
 10
316.922218677
 20
554.133974596
 30
0.0
 11
316.922218677
 21
565.083514596
 31
0.0
  0
LINE
  8
0
  6
CONTINUOUS
 62
     1
 10
308.901118677
 20
545.865954596
 30
0.0
 11
310.44929497
 21
543.184434596
 31
0.0
  0
LINE
  8
0
  6
CONTINUOUS
 62
     1
 10
308.901118677
 20
554.133974596
 30
0.0
 11
308.901118677
 21
545.865954596
 31
0.0
  0
LINE
  8
0
  6
CONTINUOUS
 62
     1
 10
308.901118677
 20
562.401994596
 30
0.0
 11
310.44929497
 21
565.083514596
 31
0.0
  0
LINE
  8
0
  6
CONTINUOUS
 62
     1
 10
308.901118677
 20
554.133974596
 30
0.0
 11
308.901118677
 21
562.401994596
 31
0.0
  0
ARC
  8
0
  6
CONTINUOUS
 62
     1
 10
319.355340369
 20
554.133974596
 30
0.0
 40
10.454221693
 50
148.419912243
 51
211.580087757
  0
ARC
  8
0
  6
CONTINUOUS
 62
     1
 10
312.094232283
 20
545.921819596
 30
0.0
 40
3.193602261
 50
121.002313915
 51
182.989498403
  0
LINE
  8
0
  6
CONTINUOUS
 62
     1
 10
308.901118677
 20
562.401994596
 30
0.0
 11
310.44929497
 21
565.083514596
 31
0.0
  0
ARC
  8
0
  6
CONTINUOUS
 62
     1
 10
312.094232283
 20
562.346129596
 30
0.0
 40
3.193602261
 50
177.010501597
 51
238.997686085
  0
LINE
  8
0
  6
CONTINUOUS
 62
     1
 10
316.922218677
 20
543.184434596
 30
0.0
 11
310.44929497
 21
543.184434596
 31
0.0
  0
LINE
  8
0
  6
CONTINUOUS
 62
     1
 10
316.922218677
 20
548.659204596
 30
0.0
 11
310.44929497
 21
548.659204596
 31
0.0
  0
LINE
  8
0
  6
CONTINUOUS
 62
     1
 10
316.922218677
 20
559.608744596
 30
0.0
 11
310.44929497
 21
559.608744596
 31
0.0
  0
LINE
  8
0
  6
CONTINUOUS
 62
     1
 10
316.922218677
 20
565.083514596
 30
0.0
 11
310.44929497
 21
565.083514596
 31
0.0
  0
LINE
  8
0
  6
CONTINUOUS
 62
     1
 10
316.922218677
 20
772.133974596
 30
0.0
 11
316.922218677
 21
764.639914596
 31
0.0
  0
LINE
  8
0
  6
CONTINUOUS
 62
     1
 10
316.922218677
 20
772.133974596
 30
0.0
 11
316.922218677
 21
779.628034596
 31
0.0
  0
LINE
  8
0
  6
CONTINUOUS
 62
     1
 10
311.422318677
 20
766.475194596
 30
0.0
 11
312.481918079
 21
764.639914596
 31
0.0
  0
LINE
  8
0
  6
CONTINUOUS
 62
     1
 10
311.422318677
 20
772.133974596
 30
0.0
 11
311.422318677
 21
766.475194596
 31
0.0
  0
LINE
  8
0
  6
CONTINUOUS
 62
     1
 10
311.422318677
 20
777.792754596
 30
0.0
 11
312.481918079
 21
779.628034596
 31
0.0
  0
LINE
  8
0
  6
CONTINUOUS
 62
     1
 10
311.422318677
 20
772.133974596
 30
0.0
 11
311.422318677
 21
777.792754596
 31
0.0
  0
ARC
  8
0
  6
CONTINUOUS
 62
     1
 10
318.577374014
 20
772.133974596
 30
0.0
 40
7.155055337
 50
148.419912243
 51
211.580087757
  0
ARC
  8
0
  6
CONTINUOUS
 62
     1
 10
313.607742443
 20
766.513429596
 30
0.0
 40
2.185758211
 50
121.002313915
 51
182.989498403
  0
LINE
  8
0
  6
CONTINUOUS
 62
     1
 10
311.422318677
 20
777.792754596
 30
0.0
 11
312.481918079
 21
779.628034596
 31
0.0
  0
ARC
  8
0
  6
CONTINUOUS
 62
     1
 10
313.607742443
 20
777.754519596
 30
0.0
 40
2.185758211
 50
177.010501597
 51
238.997686085
  0
LINE
  8
0
  6
CONTINUOUS
 62
     1
 10
316.922218677
 20
764.639914596
 30
0.0
 11
312.481918079
 21
764.639914596
 31
0.0
  0
LINE
  8
0
  6
CONTINUOUS
 62
     1
 10
316.922218677
 20
768.386944596
 30
0.0
 11
312.481918079
 21
768.386944596
 31
0.0
  0
LINE
  8
0
  6
CONTINUOUS
 62
     1
 10
316.922218677
 20
775.881004596
 30
0.0
 11
312.481918079
 21
775.881004596
 31
0.0
  0
LINE
  8
0
  6
CONTINUOUS
 62
     1
 10
316.922218677
 20
779.628034596
 30
0.0
 11
312.481918079
 21
779.628034596
 31
0.0
  0
LINE
  8
0
  6
CONTINUOUS
 62
     1
 10
428.922218677
 20
705.033974596
 30
0.0
 11
428.922218677
 21
905.033974596
 31
0.0
  0
LINE
  8
0
  6
CONTINUOUS
 62
     1
 10
428.922218677
 20
704.333974596
 30
0.0
 11
428.922218677
 21
904.333974596
 31
0.0
  0
LINE
  8
0
  6
LTYPE2
 62
     2
 10
375.997218677
 20
935.133974596
 30
0.0
 11
440.997218677
 21
935.133974596
 31
0.0
  0
LINE
  8
0
  6
LTYPE2
 62
     2
 10
408.922218677
 20
888.133974596
 30
0.0
 11
408.922218677
 21
967.833974596
 31
0.0
  0
LINE
  8
0
  6
LTYPE2
 62
     2
 10
303.322218677
 20
554.133974596
 30
0.0
 11
352.022218677
 21
554.133974596
 31
0.0
  0
LINE
  8
0
  6
LTYPE2
 62
     2
 10
303.922218677
 20
704.133974596
 30
0.0
 11
352.022218677
 21
704.133974596
 31
0.0
  0
LINE
  8
0
  6
LTYPE2
 62
     2
 10
305.822218677
 20
772.133974596
 30
0.0
 11
330.422218677
 21
772.133974596
 31
0.0
  0
LINE
  8
0
  6
CONTINUOUS
 62
     2
 10
309.422218677
 20
821.533974596
 30
0.0
 11
307.941863734
 21
833.946007034
 31
0.0
  0
LINE
  8
0
  6
CONTINUOUS
 62
     2
 10
309.422218677
 20
821.533974596
 30
0.0
 11
301.934177471
 21
831.542932529
 31
0.0
  0
LINE
  8
0
  6
CONTINUOUS
 62
     2
 10
309.422218677
 20
821.533974596
 30
0.0
 11
259.422218677
 21
946.533974596
 31
0.0
  0
LINE
  8
0
  6
CONTINUOUS
 62
     2
 10
259.422218677
 20
946.533974596
 30
0.0
 11
178.422218677
 21
946.533974596
 31
0.0
  0
LINE
  8
0
  6
CONTINUOUS
 62
     2
 10
316.922218677
 20
535.133974596
 30
0.0
 11
316.922218677
 21
410.133974596
 31
0.0
  0
LINE
  8
0
  6
CONTINUOUS
 62
     2
 10
316.922218677
 20
415.133974596
 30
0.0
 11
316.922218677
 21
368.633974596
 31
0.0
  0
LINE
  8
0
  6
CONTINUOUS
 62
     1
 10
443.922218677
 20
562.133974596
 30
0.0
 11
443.922218677
 21
696.133974596
 31
0.0
  0
LINE
  8
0
  6
CONTINUOUS
 62
     1
 10
428.922218677
 20
562.133974596
 30
0.0
 11
443.922218677
 21
562.133974596
 31
0.0
  0
LINE
  8
0
  6
CONTINUOUS
 62
     1
 10
428.922218677
 20
696.133974596
 30
0.0
 11
443.922218677
 21
696.133974596
 31
0.0
  0
LINE
  8
0
  6
CONTINUOUS
 62
     1
 10
428.922218677
 20
704.333974596
 30
0.0
 11
428.922218677
 21
904.333974596
 31
0.0
  0
LINE
  8
7
  6
CONTINUOUS
 62
     2
 10
316.922218677
 20
381.433974596
 30
0.0
 11
328.996291505
 21
378.198736532
 31
0.0
  0
LINE
  8
7
  6
CONTINUOUS
 62
     2
 10
316.922218677
 20
381.433974596
 30
0.0
 11
328.996291505
 21
384.66921266
 31
0.0
  0
LINE
  8
7
  6
CONTINUOUS
 62
     2
 10
316.922218677
 20
416.875
 30
0.0
 11
328.996291505
 21
413.639761936
 31
0.0
  0
LINE
  8
7
  6
CONTINUOUS
 62
     2
 10
316.922218677
 20
416.875
 30
0.0
 11
328.996291505
 21
420.110238064
 31
0.0
  0
LINE
  8
7
  6
CONTINUOUS
 62
     2
 10
316.922218677
 20
423.575
 30
0.0
 11
316.922218677
 21
424.375
 31
0.0
  0
LINE
  8
0
  6
CONTINUOUS
 62
     1
 10
428.922218677
 20
725.133974596
 30
0.0
 11
428.922218677
 21
885.133974596
 31
0.0
  0
LINE
  8
0
  6
CONTINUOUS
 62
     1
 10
428.922218677
 20
904.333974596
 30
0.0
 11
438.922218677
 21
904.333974596
 31
0.0
  0
LINE
  8
0
  6
CONTINUOUS
 62
     1
 10
428.922218677
 20
704.333974596
 30
0.0
 11
428.922218677
 21
904.333974596
 31
0.0
  0
LINE
  8
0
  6
CONTINUOUS
 62
     1
 10
428.922218677
 20
704.333974596
 30
0.0
 11
438.922218677
 21
704.333974596
 31
0.0
  0
LINE
  8
0
  6
CONTINUOUS
 62
     1
 10
429.422218677
 20
704.233974596
 30
0.0
 11
438.422218677
 21
704.233974596
 31
0.0
  0
ARC
  8
0
  6
CONTINUOUS
 62
     1
 10
438.422218677
 20
707.233974596
 30
0.0
 40
3.0
 50
270.0
 51
0.0
  0
LINE
  8
0
  6
CONTINUOUS
 62
     1
 10
429.422218677
 20
904.233974596
 30
0.0
 11
438.422218677
 21
904.233974596
 31
0.0
  0
ARC
  8
0
  6
CONTINUOUS
 62
     1
 10
438.422218677
 20
901.233974596
 30
0.0
 40
3.0
 50
0.0
 51
90.0
  0
LINE
  8
0
  6
CONTINUOUS
 62
     1
 10
441.422218677
 20
875.233974596
 30
0.0
 11
441.422218677
 21
901.233974596
 31
0.0
  0
LINE
  8
0
  6
CONTINUOUS
 62
     1
 10
441.422218677
 20
707.233974596
 30
0.0
 11
441.422218677
 21
875.233974596
 31
0.0
  0
ARC
  8
0
  6
CONTINUOUS
 62
     1
 10
443.422218677
 20
877.233974596
 30
0.0
 40
2.0
 50
180.0
 51
270.0
  0
ARC
  8
0
  6
CONTINUOUS
 62
     1
 10
443.422218677
 20
731.233974596
 30
0.0
 40
2.0
 50
90.0
 51
180.0
  0
LINE
  8
0
  6
CONTINUOUS
 62
     2
 10
426.422218677
 20
862.570284044
 30
0.0
 11
456.422218677
 21
862.570284044
 31
0.0
  0
LINE
  8
0
  6
CONTINUOUS
 62
     1
 10
448.422218677
 20
852.570284044
 30
0.0
 11
448.422218677
 21
872.570284044
 31
0.0
  0
LINE
  8
0
  6
CONTINUOUS
 62
     1
 10
441.422218677
 20
872.570284044
 30
0.0
 11
448.422218677
 21
872.570284044
 31
0.0
  0
LINE
  8
0
  6
CONTINUOUS
 62
     1
 10
441.422218677
 20
852.570284044
 30
0.0
 11
448.422218677
 21
852.570284044
 31
0.0
  0
LINE
  8
0
  6
CONTINUOUS
 62
     1
 10
441.422218677
 20
867.570284044
 30
0.0
 11
448.422218677
 21
867.570284044
 31
0.0
  0
LINE
  8
0
  6
CONTINUOUS
 62
     1
 10
441.422218677
 20
857.570284044
 30
0.0
 11
448.422218677
 21
857.570284044
 31
0.0
  0
LINE
  8
0
  6
CONTINUOUS
 62
     2
 10
426.422218677
 20
745.897665148
 30
0.0
 11
456.422218677
 21
745.897665148
 31
0.0
  0
LINE
  8
0
  6
CONTINUOUS
 62
     1
 10
448.422218677
 20
755.897665148
 30
0.0
 11
448.422218677
 21
735.897665148
 31
0.0
  0
LINE
  8
0
  6
CONTINUOUS
 62
     1
 10
441.422218677
 20
735.897665148
 30
0.0
 11
448.422218677
 21
735.897665148
 31
0.0
  0
LINE
  8
0
  6
CONTINUOUS
 62
     1
 10
441.422218677
 20
755.897665148
 30
0.0
 11
448.422218677
 21
755.897665148
 31
0.0
  0
LINE
  8
0
  6
CONTINUOUS
 62
     1
 10
441.422218677
 20
740.897665148
 30
0.0
 11
448.422218677
 21
740.897665148
 31
0.0
  0
LINE
  8
0
  6
CONTINUOUS
 62
     1
 10
441.422218677
 20
750.897665148
 30
0.0
 11
448.422218677
 21
750.897665148
 31
0.0
  0
LINE
  8
2
  6
CONTINUOUS
 62
     2
 10
428.922218677
 20
452.008974596
 30
0.0
 11
440.996291505
 21
448.773736532
 31
0.0
  0
LINE
  8
2
  6
CONTINUOUS
 62
     2
 10
428.922218677
 20
452.008974596
 30
0.0
 11
440.996291505
 21
455.24421266
 31
0.0
  0
LINE
  8
2
  6
CONTINUOUS
 62
     2
 10
428.922218677
 20
530.133974596
 30
0.0
 11
428.922218677
 21
447.008974596
 31
0.0
  0
LINE
  8
2
  6
CONTINUOUS
 62
     2
 10
428.922218677
 20
452.008974596
 30
0.0
 11
416.848145848
 21
455.24421266
 31
0.0
  0
LINE
  8
2
  6
CONTINUOUS
 62
     2
 10
428.922218677
 20
452.008974596
 30
0.0
 11
416.848145848
 21
448.773736532
 31
0.0
  0
LINE
  8
2
  6
CONTINUOUS
 62
     2
 10
428.922218677
 20
452.008974596
 30
0.0
 11
316.922218677
 21
452.008974596
 31
0.0
  0
LINE
  8
2
  6
CONTINUOUS
 62
     2
 10
316.922218677
 20
452.008974596
 30
0.0
 11
328.996291505
 21
448.773736532
 31
0.0
  0
LINE
  8
2
  6
CONTINUOUS
 62
     2
 10
316.922218677
 20
452.008974596
 30
0.0
 11
328.996291505
 21
455.24421266
 31
0.0
  0
TEXT
  8
0
  6
CONTINUOUS
 62
     2
 10
178.422218677
 20
951.533974596
 30
0.0
 40
18.0
  1
手動軸カバー
 50
0.0
 41
0.9
 51
0.0
  7
KANJI31
  0
TEXT
  8
7
  6
CONTINUOUS
 62
     2
 10
394.172218677
 20
421.875
 30
0.0
 40
18.0
  1
１９７
 50
0.0
 41
0.9
 51
0.0
  7
KANJI31
  0
TEXT
  8
2
  6
CONTINUOUS
 62
     2
 10
347.422218677
 20
457.008974596
 30
0.0
 40
18.0
  1
１１２
 50
0.0
 41
0.9
 51
0.0
  7
KANJI31
  0
LINE
  8
0
  6
LTYPE4
 62
     6
 10
148.708333
 20
1243.133317
 30
0.0
 11
148.708333
 21
1226.732460936
 31
0.0
  0
LINE
  8
0
  6
LTYPE4
 62
     6
 10
279.105262694
 20
1243.133317
 30
0.0
 11
148.708333
 21
1243.133317
 31
0.0
  0
TEXT
  8
0
  6
CONTINUOUS
 62
     6
 10
131.173590591
 20
1229.648168681
 30
1.093390404
 40
10.933904043
  1
Ｕ
 50
0.0
 41
0.9
 51
0.0
  7
KANJI35
  0
CIRCLE
  8
0
  6
CONTINUOUS
 62
     6
 10
148.708333
 20
1223.452289723
 30
0.0
 40
4.373561617
  0
LINE
  8
0
  6
CONTINUOUS
 62
     6
 10
143.68354931
 20
1218.427506033
 30
0.0
 11
153.888526417
 21
1228.63248314
 31
0.0
  0
TEXT
  8
0
  6
CONTINUOUS
 62
     6
 10
158.953806047
 20
1251.799448352
 30
1.518597784
 40
15.185977837
  1
エコノストップモータ
 50
0.0
 41
0.66671875
 51
0.0
  7
KANJI36
  0
CIRCLE
  8
0
  6
CONTINUOUS
 62
     6
 10
193.537339575
 20
1197.939846957
 30
0.0
 40
18.223173404
  0
TEXT
  8
0
  6
CONTINUOUS
 62
     6
 10
185.883606745
 20
1189.192723723
 30
1.82231734
 40
18.223173404
  1
Ｍ
 50
0.0
 41
0.9
 51
0.0
  7
KANJI37
  0
LINE
  8
0
  6
CONTINUOUS
 62
     6
 10
169.482750681
 20
1172.427404191
 30
0.0
 11
180.781118192
 21
1185.548089042
 31
0.0
  0
LINE
  8
0
  6
CONTINUOUS
 62
     6
 10
169.482750681
 20
1223.452289723
 30
0.0
 11
180.781118192
 21
1210.331604872
 31
0.0
  0
LINE
  8
0
  6
CONTINUOUS
 62
     6
 10
169.482750681
 20
1223.452289723
 30
0.0
 11
153.081894617
 21
1223.452289723
 31
0.0
  0
LINE
  8
0
  6
CONTINUOUS
 62
     6
 10
175.678629639
 20
1197.939846957
 30
0.0
 11
153.081894617
 21
1197.939846957
 31
0.0
  0
LINE
  8
0
  6
CONTINUOUS
 62
     6
 10
169.482750681
 20
1172.427404191
 30
0.0
 11
153.081894617
 21
1172.427404191
 31
0.0
  0
TEXT
  8
0
  6
CONTINUOUS
 62
     6
 10
132.266980995
 20
1203.771262446
 30
1.093390404
 40
10.933904043
  1
Ｖ
 50
0.0
 41
0.9
 51
0.0
  7
KANJI35
  0
TEXT
  8
0
  6
CONTINUOUS
 62
     6
 10
133.360371399
 20
1177.894356212
 30
1.093390404
 40
10.933904043
  1
Ｗ
 50
0.0
 41
0.9
 51
0.0
  7
KANJI35
  0
CIRCLE
  8
0
  6
CONTINUOUS
 62
     6
 10
148.708333
 20
1197.939846957
 30
0.0
 40
4.373561617
  0
LINE
  8
0
  6
CONTINUOUS
 62
     6
 10
143.68354931
 20
1192.915063267
 30
0.0
 11
153.888526417
 21
1203.120040374
 31
0.0
  0
LINE
  8
0
  6
LTYPE4
 62
     6
 10
148.708333
 20
1219.443191574
 30
0.0
 11
148.708333
 21
1201.22001817
 31
0.0
  0
CIRCLE
  8
0
  6
CONTINUOUS
 62
     6
 10
148.708333
 20
1172.427404191
 30
0.0
 40
4.373561617
  0
LINE
  8
0
  6
CONTINUOUS
 62
     6
 10
143.68354931
 20
1167.402620501
 30
0.0
 11
153.888526417
 21
1177.607597607
 31
0.0
  0
LINE
  8
0
  6
LTYPE4
 62
     6
 10
148.708333
 20
1193.930748808
 30
0.0
 11
148.708333
 21
1176.800965808
 31
0.0
  0
LINE
  8
0
  6
LTYPE4
 62
     6
 10
148.708333
 20
1168.053842574
 30
0.0
 11
148.708333
 21
1147.721584891
 31
0.0
  0
TEXT
  8
0
  6
CONTINUOUS
 62
     6
 10
219.778709277
 20
1189.684749405
 30
1.457853872
 40
14.578538724
  1
Ｂ
 50
0.0
 41
0.9
 51
0.0
  7
KANJI38
  0
CIRCLE
  8
0
  6
CONTINUOUS
 62
     6
 10
226.339051703
 20
1197.939846957
 30
0.0
 40
14.578538724
  0
LINE
  8
0
  6
LTYPE4
 62
     6
 10
279.105262694
 20
1147.721584891
 30
0.0
 11
148.708333
 21
1147.721584891
 31
0.0
  0
LINE
  8
0
  6
LTYPE4
 62
     6
 10
279.105262694
 20
1147.721584891
 30
0.0
 11
279.105262694
 21
1243.133317
 31
0.0
  0
TEXT
  8
0
  6
CONTINUOUS
 62
     2
 10
153.803726364
 20
1122.512221811
 30
0.0
 40
15.6
  1
モーター結線図
 50
0.0
 41
0.925
 51
0.0
  7
KANJI39
  0
LINE
  8
0
  6
CONTINUOUS
 62
     1
 10
378.422218677
 20
704.133974596
 30
0.0
 11
378.422218677
 21
634.133974596
 31
0.0
  0
TEXT
  8
0
  6
CONTINUOUS
 62
     2
 10
383.422218677
 20
693.133974596
 30
5.0
 40
20.0
  1
銘板
 50
270.0
 41
0.925
 51
0.0
  7
KANJI40
  0
LINE
  8
0
  6
CONTINUOUS
 62
     1
 10
421.422218677
 20
704.133974596
 30
0.0
 11
378.422218677
 21
704.133974596
 31
0.0
  0
LINE
  8
0
  6
CONTINUOUS
 62
     1
 10
421.422218677
 20
634.133974596
 30
0.0
 11
378.422218677
 21
634.133974596
 31
0.0
  0
LINE
  8
0
  6
CONTINUOUS
 62
     1
 10
421.422218677
 20
704.133974596
 30
0.0
 11
421.422218677
 21
634.133974596
 31
0.0
  0
ARC
  8
0
  6
CONTINUOUS
 62
     2
 10
249.922218677
 20
804.633974596
 30
0.0
 40
20.0
 50
231.952957468
 51
156.801409486
  0
LINE
  8
0
  6
CONTINUOUS
 62
     2
 10
231.539318076
 20
812.512360568
 30
0.0
 11
233.834010787
 21
822.349799345
 31
0.0
  0
TEXT
  8
0
  6
CONTINUOUS
 62
     2
 10
169.539318076
 20
795.512360568
 30
0.0
 40
15.0
  1
前進方向
 50
0.0
 41
0.9
 51
0.0
  7
KANJI41
  0
LINE
  8
0
  6
CONTINUOUS
 62
     2
 10
231.539318076
 20
812.512360568
 30
0.0
 11
239.807479454
 21
817.419697103
 31
0.0
  0
TEXT
  8
0
  6
CONTINUOUS
 62
     3
 10
172.388885677
 20
924.400657596
 30
1.5
 40
15.0
  1
手動軸□１０
 50
0.0
 41
0.9
 51
0.0
  7
KANJI42
  0
LINE
  8
0
  6
CONTINUOUS
 62
     2
 10
428.922218677
 20
916.133974596
 30
0.0
 11
428.922218677
 21
1030.0
 31
0.0
  0
LINE
  8
0
  6
CONTINUOUS
 62
     2
 10
428.922218677
 20
1024.0
 30
0.0
 11
440.513328592
 21
1020.894171459
 31
0.0
  0
LINE
  8
0
  6
CONTINUOUS
 62
     2
 10
428.922218677
 20
1024.0
 30
0.0
 11
440.513328592
 21
1027.105828541
 31
0.0
  0
LINE
  8
0
  6
CONTINUOUS
 62
     1
 10
291.922218677
 20
791.133974596
 30
0.0
 11
291.922218677
 21
819.133974596
 31
0.0
  0
LINE
  8
0
  6
CONTINUOUS
 62
     1
 10
291.922218677
 20
819.133974596
 30
0.0
 11
333.922218677
 21
819.133974596
 31
0.0
  0
LINE
  8
0
  6
CONTINUOUS
 62
     1
 10
291.922218677
 20
791.133974596
 30
0.0
 11
333.922218677
 21
791.133974596
 31
0.0
  0
LINE
  8
0
  6
CONTINUOUS
 62
     1
 10
329.922218677
 20
791.133974596
 30
0.0
 11
329.922218677
 21
819.133974596
 31
0.0
  0
LINE
  8
0
  6
CONTINUOUS
 62
     2
 10
428.922218677
 20
1014.0
 30
0.0
 11
428.922218677
 21
1030.0
 31
0.0
  0
LINE
  8
0
  6
CONTINUOUS
 62
     2
 10
428.922218677
 20
1024.0
 30
0.0
 11
417.331108761
 21
1027.105828541
 31
0.0
  0
LINE
  8
0
  6
CONTINUOUS
 62
     2
 10
428.922218677
 20
1024.0
 30
0.0
 11
417.331108761
 21
1020.894171459
 31
0.0
  0
LINE
  8
0
  6
CONTINUOUS
 62
     2
 10
428.922218677
 20
1024.0
 30
0.0
 11
291.922218677
 21
1024.0
 31
0.0
  0
LINE
  8
0
  6
CONTINUOUS
 62
     2
 10
291.922218677
 20
1024.0
 30
0.0
 11
303.513328592
 21
1020.894171459
 31
0.0
  0
LINE
  8
0
  6
CONTINUOUS
 62
     2
 10
291.922218677
 20
1024.0
 30
0.0
 11
303.513328592
 21
1027.105828541
 31
0.0
  0
LINE
  8
0
  6
CONTINUOUS
 62
     2
 10
291.922218677
 20
825.133974596
 30
0.0
 11
291.922218677
 21
1030.0
 31
0.0
  0
TEXT
  8
0
  6
CONTINUOUS
 62
     3
 10
336.122218677
 20
1033.0
 30
0.0
 40
18.0
  1
１３７
 50
0.0
 41
0.9
 51
0.0
  7
KANJI31
  0
LINE
  8
0
  6
CONTINUOUS
 62
     2
 10
561.083402385
 20
191.133330769
 30
0.0
 11
568.810808995
 21
189.062778408
 31
0.0
  0
LINE
  8
0
  6
CONTINUOUS
 62
     2
 10
561.083402385
 20
191.133330769
 30
0.0
 11
568.810808995
 21
193.20388313
 31
0.0
  0
LINE
  8
0
  6
CONTINUOUS
 62
     2
 10
561.083402385
 20
191.133330769
 30
0.0
 11
698.683402385
 21
191.133330769
 31
0.0
  0
LINE
  8
0
  6
CONTINUOUS
 62
     2
 10
698.683402385
 20
191.133330769
 30
0.0
 11
690.955995774
 21
193.20388313
 31
0.0
  0
LINE
  8
0
  6
CONTINUOUS
 62
     2
 10
698.683402385
 20
191.133330769
 30
0.0
 11
690.955995774
 21
189.062778408
 31
0.0
  0
LINE
  8
0
  6
CONTINUOUS
 62
     2
 10
698.683402385
 20
189.933330769
 30
0.0
 11
698.683402385
 21
187.133330769
 31
0.0
  0
LINE
  8
0
  6
CONTINUOUS
 62
     2
 10
698.683402385
 20
191.133330769
 30
0.0
 11
706.410808995
 21
189.062778408
 31
0.0
  0
LINE
  8
0
  6
CONTINUOUS
 62
     2
 10
698.683402385
 20
191.133330769
 30
0.0
 11
706.410808995
 21
193.20388313
 31
0.0
  0
LINE
  8
0
  6
CONTINUOUS
 62
     2
 10
698.683402385
 20
191.133330769
 30
0.0
 11
901.083402385
 21
191.133330769
 31
0.0
  0
LINE
  8
0
  6
CONTINUOUS
 62
     2
 10
901.083402385
 20
191.133330769
 30
0.0
 11
893.355995774
 21
193.20388313
 31
0.0
  0
LINE
  8
0
  6
CONTINUOUS
 62
     2
 10
901.083402385
 20
191.133330769
 30
0.0
 11
893.355995774
 21
189.062778408
 31
0.0
  0
LINE
  8
0
  6
CONTINUOUS
 62
     2
 10
698.683402385
 20
164.80388313
 30
0.0
 11
690.955995774
 21
166.874435491
 31
0.0
  0
LINE
  8
0
  6
CONTINUOUS
 62
     2
 10
698.683402385
 20
164.80388313
 30
0.0
 11
690.955995774
 21
162.733330769
 31
0.0
  0
LINE
  8
0
  6
CONTINUOUS
 62
     2
 10
686.683402385
 20
164.80388313
 30
0.0
 11
698.683402385
 21
164.80388313
 31
0.0
  0
LINE
  8
0
  6
CONTINUOUS
 62
     2
 10
698.683402385
 20
164.80388313
 30
0.0
 11
719.483402385
 21
164.80388313
 31
0.0
  0
LINE
  8
0
  6
CONTINUOUS
 62
     2
 10
719.483402385
 20
164.80388313
 30
0.0
 11
727.210808995
 21
162.733330769
 31
0.0
  0
LINE
  8
0
  6
CONTINUOUS
 62
     2
 10
719.483402385
 20
164.80388313
 30
0.0
 11
727.210808995
 21
166.874435491
 31
0.0
  0
LINE
  8
0
  6
CONTINUOUS
 62
     2
 10
561.083402385
 20
139.533330769
 30
0.0
 11
561.083402385
 21
133.533330769
 31
0.0
  0
LINE
  8
0
  6
CONTINUOUS
 62
     2
 10
561.083402385
 20
137.533330769
 30
0.0
 11
568.810808995
 21
135.462778408
 31
0.0
  0
LINE
  8
0
  6
CONTINUOUS
 62
     2
 10
561.083402385
 20
137.533330769
 30
0.0
 11
568.810808995
 21
139.60388313
 31
0.0
  0
LINE
  8
0
  6
CONTINUOUS
 62
     2
 10
561.083402385
 20
137.533330769
 30
0.0
 11
719.483402385
 21
137.533330769
 31
0.0
  0
LINE
  8
0
  6
CONTINUOUS
 62
     2
 10
719.483402385
 20
137.533330769
 30
0.0
 11
711.755995774
 21
139.60388313
 31
0.0
  0
LINE
  8
0
  6
CONTINUOUS
 62
     2
 10
719.483402385
 20
137.533330769
 30
0.0
 11
711.755995774
 21
135.462778408
 31
0.0
  0
LINE
  8
0
  6
CONTINUOUS
 62
     2
 10
719.483402385
 20
138.733330769
 30
0.0
 11
719.483402385
 21
133.533330769
 31
0.0
  0
LINE
  8
0
  6
CONTINUOUS
 62
     2
 10
719.483402385
 20
137.533330769
 30
0.0
 11
727.210808995
 21
135.462778408
 31
0.0
  0
LINE
  8
0
  6
CONTINUOUS
 62
     2
 10
719.483402385
 20
137.533330769
 30
0.0
 11
727.210808995
 21
139.60388313
 31
0.0
  0
LINE
  8
0
  6
CONTINUOUS
 62
     2
 10
901.083402385
 20
133.933330769
 30
0.0
 11
901.083402385
 21
133.533330769
 31
0.0
  0
LINE
  8
0
  6
CONTINUOUS
 62
     2
 10
561.083402385
 20
108.333330769
 30
0.0
 11
568.810808995
 21
106.262778408
 31
0.0
  0
LINE
  8
0
  6
CONTINUOUS
 62
     2
 10
561.083402385
 20
108.333330769
 30
0.0
 11
568.810808995
 21
110.40388313
 31
0.0
  0
LINE
  8
0
  6
CONTINUOUS
 62
     2
 10
561.083402385
 20
108.333330769
 30
0.0
 11
878.683402385
 21
108.333330769
 31
0.0
  0
LINE
  8
0
  6
CONTINUOUS
 62
     2
 10
878.683402385
 20
108.333330769
 30
0.0
 11
870.955995774
 21
110.40388313
 31
0.0
  0
LINE
  8
0
  6
CONTINUOUS
 62
     2
 10
878.683402385
 20
108.333330769
 30
0.0
 11
870.955995774
 21
106.262778408
 31
0.0
  0
LINE
  8
0
  6
CONTINUOUS
 62
     2
 10
878.683402385
 20
109.133330769
 30
0.0
 11
878.683402385
 21
104.333330769
 31
0.0
  0
LINE
  8
0
  6
CONTINUOUS
 62
     2
 10
878.683402385
 20
108.333330769
 30
0.0
 11
870.955995774
 21
110.40388313
 31
0.0
  0
LINE
  8
0
  6
CONTINUOUS
 62
     2
 10
878.683402385
 20
108.333330769
 30
0.0
 11
870.955995774
 21
106.262778408
 31
0.0
  0
LINE
  8
0
  6
CONTINUOUS
 62
     2
 10
866.683402385
 20
108.333330769
 30
0.0
 11
878.683402385
 21
108.333330769
 31
0.0
  0
LINE
  8
0
  6
CONTINUOUS
 62
     2
 10
878.683402385
 20
108.333330769
 30
0.0
 11
901.083402385
 21
108.333330769
 31
0.0
  0
LINE
  8
0
  6
CONTINUOUS
 62
     2
 10
901.083402385
 20
108.333330769
 30
0.0
 11
908.810808995
 21
106.262778408
 31
0.0
  0
LINE
  8
0
  6
CONTINUOUS
 62
     2
 10
901.083402385
 20
108.333330769
 30
0.0
 11
908.810808995
 21
110.40388313
 31
0.0
  0
LINE
  8
0
  6
CONTINUOUS
 62
     2
 10
561.083402385
 20
201.933330769
 30
0.0
 11
561.083402385
 21
187.133330769
 31
0.0
  0
LINE
  8
0
  6
CONTINUOUS
 62
     2
 10
901.083402385
 20
201.933330769
 30
0.0
 11
901.083402385
 21
187.133330769
 31
0.0
  0
LINE
  8
0
  6
CONTINUOUS
 62
     2
 10
698.683402385
 20
190.733330769
 30
0.0
 11
698.683402385
 21
201.933330769
 31
0.0
  0
LINE
  8
0
  6
CONTINUOUS
 62
     2
 10
719.483402385
 20
177.60388313
 30
0.0
 11
719.483402385
 21
160.80388313
 31
0.0
  0
LINE
  8
0
  6
CONTINUOUS
 62
     2
 10
561.083402385
 20
187.133330769
 30
0.0
 11
561.083402385
 21
95.133330769
 31
0.0
  0
LINE
  8
0
  6
CONTINUOUS
 62
     2
 10
901.083402385
 20
191.133330769
 30
0.0
 11
901.083402385
 21
96.333330769
 31
0.0
  0
LINE
  8
0
  6
CONTINUOUS
 62
     2
 10
719.483402385
 20
164.80388313
 30
0.0
 11
719.483402385
 21
128.333330769
 31
0.0
  0
LINE
  8
0
  6
CONTINUOUS
 62
     2
 10
698.683402385
 20
191.133330769
 30
0.0
 11
698.683402385
 21
155.533330769
 31
0.0
  0
TEXT
  8
0
  6
CONTINUOUS
 62
     3
 10
602.883402385
 20
193.133330769
 30
0.0
 40
15.0
  1
ｍｉｎ．Ｌ
 50
0.0
 41
0.9
 51
0.0
  7
KANJI41
  0
TEXT
  8
0
  6
CONTINUOUS
 62
     3
 10
756.683402385
 20
193.133330769
 30
0.0
 40
15.0
  1
機械的ストローク
 50
0.0
 41
0.9
 51
0.0
  7
KANJI41
  0
TEXT
  8
0
  6
CONTINUOUS
 62
     3
 10
731.483402385
 20
166.80388313
 30
0.0
 40
15.0
  1
余裕
 50
0.0
 41
0.9
 51
0.0
  7
KANJI41
  0
TEXT
  8
0
  6
CONTINUOUS
 62
     3
 10
613.283402385
 20
139.533330769
 30
0.0
 40
15.0
  1
常用ｍｉｎ
 50
0.0
 41
0.9
 51
0.0
  7
KANJI41
  0
TEXT
  8
0
  6
CONTINUOUS
 62
     3
 10
692.883402385
 20
110.333330769
 30
0.0
 40
15.0
  1
常用ｍａｘ
 50
0.0
 41
0.9
 51
0.0
  7
KANJI41
  0
TEXT
  8
0
  6
CONTINUOUS
 62
     3
 10
913.083402385
 20
110.333330769
 30
0.0
 40
15.0
  1
余裕
 50
0.0
 41
0.9
 51
0.0
  7
KANJI41
  0
LINE
  8
0
  6
CONTINUOUS
 62
     2
 10
719.483402385
 20
164.80388313
 30
0.0
 11
759.583402385
 21
164.80388313
 31
0.0
  0
LINE
  8
0
  6
CONTINUOUS
 62
     2
 10
901.083402385
 20
108.333330769
 30
0.0
 11
943.583402385
 21
108.333330769
 31
0.0
  0
LINE
  8
0
  6
CONTINUOUS
 62
     6
 10
356.629425053
 20
1631.447759827
 30
0.0
 11
124.584646507
 21
1631.447759827
 31
0.0
  0
LINE
  8
0
  6
CONTINUOUS
 62
     3
 10
356.629425053
 20
1603.985259827
 30
0.0
 11
124.584646507
 21
1603.985259827
 31
0.0
  0
LINE
  8
0
  6
CONTINUOUS
 62
     6
 10
356.629425053
 20
1603.985259827
 30
0.0
 11
124.584646507
 21
1603.985259827
 31
0.0
  0
TEXT
  8
0
  6
CONTINUOUS
 62
     6
 10
382.212228
 20
1628.900410728
 30
1.232517
 40
13.182
  1
電気定格　　　
 50
0.0
 41
0.85
 51
0.0
  7
KANJI43
  0
TEXT
  8
0
  6
CONTINUOUS
 62
     6
 10
128.493517202
 20
1634.64592676
 30
1.0647
 40
11.661
  1
ＬＳ０１　　　：推力リミッタ（前進時過負荷用）
 50
0.0
 41
0.822608696
 51
0.0
  7
KANJI44
  0
TEXT
  8
0
  6
CONTINUOUS
 62
     6
 10
128.493517202
 20
1607.18342676
 30
1.0647
 40
11.661
  1
ＬＳ０２　　　：推力リミッタ（後進時過負荷用）
 50
0.0
 41
0.822608696
 51
0.0
  7
KANJI44
  0
TEXT
  8
0
  6
CONTINUOUS
 62
     6
 10
395.013715102
 20
1598.326958599
 30
0.0
 40
11.8638
  1
ＤＣ１２５Ｖ　０．６Ａ　，ＤＣ２５０Ｖ　０．３Ａ　
 50
0.0
 41
0.726495726
 51
0.0
  7
KANJI45
  0
LINE
  8
0
  6
LTYPE4
 62
     6
 10
655.02
 20
1658.9
 30
0.0
 11
106.62
 21
1658.9
 31
0.0
  0
TEXT
  8
0
  6
CONTINUOUS
 62
     6
 10
389.757132178
 20
1646.661726126
 30
0.0
 40
45.0
  1
｝
 50
0.0
 41
0.538166667
 51
0.0
  7
KANJI46
  0
TEXT
  8
0
  6
CONTINUOUS
 62
     6
 10
319.632791539
 20
1417.92382165
 30
0.0
 40
17.740702234
  1
端子台　接続図
 50
0.0
 41
0.880962996
 51
0.0
  7
KANJI47
  0
LINE
  8
0
  6
LTYPE4
 62
     6
 10
655.02
 20
1399.9
 30
0.0
 11
655.02
 21
1658.9
 31
0.0
  0
LINE
  8
0
  6
LTYPE4
 62
     6
 10
106.62
 20
1399.9
 30
0.0
 11
655.02
 21
1399.9
 31
0.0
  0
LINE
  8
0
  6
LTYPE4
 62
     6
 10
106.62
 20
1658.9
 30
0.0
 11
106.62
 21
1399.9
 31
0.0
  0
LINE
  8
0
  6
CONTINUOUS
 62
     2
 10
354.597373465
 20
1468.928121884
 30
0.0
 11
354.597373465
 21
1446.149155128
 31
0.0
  0
LINE
  8
0
  6
CONTINUOUS
 62
     2
 10
381.17283468
 20
1468.928121884
 30
0.0
 11
381.17283468
 21
1446.149155128
 31
0.0
  0
LINE
  8
0
  6
CONTINUOUS
 62
     2
 10
407.748295894
 20
1468.928121884
 30
0.0
 11
407.748295894
 21
1446.149155128
 31
0.0
  0
LINE
  8
0
  6
CONTINUOUS
 62
     2
 10
434.323757109
 20
1468.928121884
 30
0.0
 11
434.323757109
 21
1446.149155128
 31
0.0
  0
CIRCLE
  8
0
  6
CONTINUOUS
 62
     6
 10
426.404269667
 20
1492.407921517
 30
0.0
 40
4.100214016
  0
LINE
  8
0
  6
CONTINUOUS
 62
     6
 10
422.304055651
 20
1492.407921517
 30
0.0
 11
421.036026502
 21
1492.407921517
 31
0.0
  0
LINE
  8
0
  6
CONTINUOUS
 62
     6
 10
447.358027433
 20
1506.094562742
 30
0.0
 11
443.443558096
 21
1483.759507138
 31
0.0
  0
LINE
  8
0
  6
CONTINUOUS
 62
     6
 10
442.631699663
 20
1506.882284037
 30
0.0
 11
438.716922494
 21
1484.547279739
 31
0.0
  0
LINE
  8
0
  6
CONTINUOUS
 62
     6
 10
443.443558096
 20
1483.759507138
 30
0.0
 11
438.716922494
 21
1484.547279739
 31
0.0
  0
CIRCLE
  8
0
  6
CONTINUOUS
 62
     6
 10
447.611487717
 20
1482.939464335
 30
0.0
 40
4.100214016
  0
LINE
  8
0
  6
CONTINUOUS
 62
     6
 10
447.611487717
 20
1478.839250319
 30
0.0
 11
447.611487717
 21
1468.928121884
 31
0.0
  0
LINE
  8
0
  6
CONTINUOUS
 62
     6
 10
421.036026502
 20
1492.407921517
 30
0.0
 11
421.036026502
 21
1468.928121884
 31
0.0
  0
LINE
  8
0
  6
CONTINUOUS
 62
     6
 10
394.460565287
 20
1468.928121884
 30
0.0
 11
394.460565287
 21
1522.633332504
 31
0.0
  0
LINE
  8
0
  6
CONTINUOUS
 62
     6
 10
314.987641926
 20
1506.094562742
 30
0.0
 11
318.902111263
 21
1483.759507138
 31
0.0
  0
LINE
  8
0
  6
CONTINUOUS
 62
     6
 10
319.713969696
 20
1506.882284037
 30
0.0
 11
323.628746865
 21
1484.547279739
 31
0.0
  0
LINE
  8
0
  6
CONTINUOUS
 62
     6
 10
318.902111263
 20
1483.759507138
 30
0.0
 11
323.628746865
 21
1484.547279739
 31
0.0
  0
CIRCLE
  8
0
  6
CONTINUOUS
 62
     6
 10
314.734181642
 20
1482.939464335
 30
0.0
 40
4.100214016
  0
CIRCLE
  8
0
  6
CONTINUOUS
 62
     6
 10
335.941399692
 20
1492.407921517
 30
0.0
 40
4.100214016
  0
LINE
  8
0
  6
CONTINUOUS
 62
     6
 10
340.041613708
 20
1492.407921517
 30
0.0
 11
341.309642857
 21
1492.407921517
 31
0.0
  0
LINE
  8
0
  6
CONTINUOUS
 62
     6
 10
314.734181642
 20
1478.839250319
 30
0.0
 11
314.734181642
 21
1468.928121884
 31
0.0
  0
LINE
  8
0
  6
CONTINUOUS
 62
     6
 10
341.309642857
 20
1492.407921517
 30
0.0
 11
341.309642857
 21
1468.928121884
 31
0.0
  0
LINE
  8
0
  6
CONTINUOUS
 62
     6
 10
367.885104072
 20
1468.928121884
 30
0.0
 11
367.885104072
 21
1522.633332504
 31
0.0
  0
LINE
  8
0
  6
CONTINUOUS
 62
     2
 10
460.899218324
 20
1468.928121884
 30
0.0
 11
460.899218324
 21
1446.149155128
 31
0.0
  0
LINE
  8
0
  6
CONTINUOUS
 62
     2
 10
301.446451035
 20
1468.928121884
 30
0.0
 11
301.446451035
 21
1446.149155128
 31
0.0
  0
LINE
  8
0
  6
CONTINUOUS
 62
     2
 10
328.02191225
 20
1468.928121884
 30
0.0
 11
328.02191225
 21
1446.149155128
 31
0.0
  0
LINE
  8
0
  6
CONTINUOUS
 62
     6
 10
447.611487717
 20
1522.633332504
 30
0.0
 11
394.460565287
 21
1522.633332504
 31
0.0
  0
CIRCLE
  8
0
  6
CONTINUOUS
 62
     6
 10
447.611487717
 20
1510.28941042
 30
0.0
 40
4.100214016
  0
LINE
  8
0
  6
CONTINUOUS
 62
     6
 10
447.358027433
 20
1506.094562742
 30
0.0
 11
442.631699663
 21
1506.882284037
 31
0.0
  0
LINE
  8
0
  6
CONTINUOUS
 62
     6
 10
447.611487717
 20
1514.389624436
 30
0.0
 11
447.611487717
 21
1522.633332504
 31
0.0
  0
CIRCLE
  8
0
  6
CONTINUOUS
 62
     6
 10
314.734181642
 20
1510.28941042
 30
0.0
 40
4.100214016
  0
LINE
  8
0
  6
CONTINUOUS
 62
     6
 10
314.987641926
 20
1506.094562742
 30
0.0
 11
319.713969696
 21
1506.882284037
 31
0.0
  0
LINE
  8
0
  6
CONTINUOUS
 62
     6
 10
314.734181642
 20
1514.389624436
 30
0.0
 11
314.734181642
 21
1522.633332504
 31
0.0
  0
LINE
  8
0
  6
CONTINUOUS
 62
     6
 10
367.885104072
 20
1522.633332504
 30
0.0
 11
314.734181642
 21
1522.633332504
 31
0.0
  0
TEXT
  8
0
  6
CONTINUOUS
 62
     6
 10
319.4972152
 20
1527.152473273
 30
0.819
 40
11.7
  1
ＬＳ０１
 50
0.0
 41
0.8
 51
0.0
  7
KANJI48
  0
TEXT
  8
0
  6
CONTINUOUS
 62
     6
 10
402.117398844
 20
1527.152473273
 30
0.819
 40
11.7
  1
ＬＳ０２
 50
0.0
 41
0.8
 51
0.0
  7
KANJI48
  0
TEXT
  8
0
  6
CONTINUOUS
 62
     3
 10
147.308775989
 20
1449.945649587
 30
0.0
 40
15.0
  1
　　　　　　　　　　　　　　　　　　１　　２　　　３　　　４　　　５　　　６
 50
0.0
 41
0.911
 51
0.0
  7
KANJI49
  0
LINE
  8
0
  6
CONTINUOUS
 62
     2
 10
301.446451035
 20
1468.928121884
 30
0.0
 11
460.899218324
 21
1468.928121884
 31
0.0
  0
LINE
  8
0
  6
CONTINUOUS
 62
     2
 10
301.446451035
 20
1446.149155128
 30
0.0
 11
460.899218324
 21
1446.149155128
 31
0.0
  0
TEXT
  8
0
  6
CONTINUOUS
 62
     6
 10
293.132791539
 20
1556.92382165
 30
0.0
 40
17.740702234
  1
推力リミッタ端子台配列
 50
0.0
 41
0.880962996
 51
0.0
  7
KANJI47
  0
TEXT
  8
0
  6
CONTINUOUS
 62
     6
 10
395.013715102
 20
1614.071931782
 30
0.0
 40
11.8638
  1
ＡＣ１００Ｖ　１２５Ｖ　２５０Ｖ　－１０Ａ
 50
0.0
 41
0.726495726
 51
0.0
  7
KANJI45
  0
TEXT
  8
0
  6
CONTINUOUS
 62
     2
 10
1029.72
 20
1431.72
 30
0.96
 40
14.4
  1
ＭＤ２－　　２
 50
0.0
 41
0.833333333
 51
0.0
  7
KANJI50
  0
TEXT
  8
0
  6
CONTINUOUS
 62
     2
 10
1029.72
 20
1398.12
 30
0.96
 40
14.4
  1
ＭＤ２－　　３
 50
0.0
 41
0.833333333
 51
0.0
  7
KANJI50
  0
TEXT
  8
0
  6
CONTINUOUS
 62
     2
 10
1029.72
 20
1364.52
 30
0.96
 40
14.4
  1
ＭＤ２－　　４
 50
0.0
 41
0.833333333
 51
0.0
  7
KANJI50
  0
TEXT
  8
0
  6
CONTINUOUS
 62
     2
 10
1029.72
 20
1330.92
 30
0.96
 40
14.4
  1
ＭＤ２－　　５
 50
0.0
 41
0.833333333
 51
0.0
  7
KANJI50
  0
TEXT
  8
0
  6
CONTINUOUS
 62
     2
 10
1029.72
 20
1297.32
 30
0.96
 40
14.4
  1
ＭＤ２－　　６
 50
0.0
 41
0.833333333
 51
0.0
  7
KANJI50
  0
TEXT
  8
0
  6
CONTINUOUS
 62
     2
 10
1029.72
 20
1263.72
 30
0.96
 40
14.4
  1
ＭＤ２－　　７
 50
0.0
 41
0.833333333
 51
0.0
  7
KANJI50
  0
TEXT
  8
0
  6
CONTINUOUS
 62
     2
 10
1029.72
 20
1230.12
 30
0.96
 40
14.4
  1
ＭＤ２－　　８
 50
0.0
 41
0.833333333
 51
0.0
  7
KANJI50
  0
TEXT
  8
0
  6
CONTINUOUS
 62
     2
 10
1029.72
 20
1196.52
 30
0.96
 40
14.4
  1
ＭＤ２－　　９
 50
0.0
 41
0.833333333
 51
0.0
  7
KANJI50
  0
TEXT
  8
0
  6
CONTINUOUS
 62
     2
 10
1029.72
 20
1162.92
 30
0.96
 40
14.4
  1
ＭＤ２－　１０
 50
0.0
 41
0.833333333
 51
0.0
  7
KANJI50
  0
TEXT
  8
0
  6
CONTINUOUS
 62
     2
 10
1029.72
 20
1129.32
 30
0.96
 40
14.4
  1
ＭＤ２－　　
 50
0.0
 41
0.833333333
 51
0.0
  7
KANJI50
  0
TEXT
  8
0
  6
CONTINUOUS
 62
     2
 10
1703.4319098
 20
472.1520036
 30
6.156
 40
21.6
  1
　　前後の推奨余裕寸法は、各々１０ｍｍです。
 50
0.0
 41
0.857222222
 51
0.0
  7
KANJI29
  0
LINE
  8
0
  6
CONTINUOUS
 62
     2
 10
878.683402385
 20
149.333330769
 30
0.0
 11
878.683402385
 21
95.533330769
 31
0.0
  0
LINE
  8
0
  6
CONTINUOUS
 62
     2
 10
719.483402385
 20
137.533330769
 30
0.0
 11
878.683402385
 21
137.533330769
 31
0.0
  0
LINE
  8
0
  6
CONTINUOUS
 62
     2
 10
878.683402385
 20
137.533330769
 30
0.0
 11
870.955995774
 21
139.60388313
 31
0.0
  0
LINE
  8
0
  6
CONTINUOUS
 62
     2
 10
878.683402385
 20
137.533330769
 30
0.0
 11
870.955995774
 21
135.462778408
 31
0.0
  0
TEXT
  8
0
  6
CONTINUOUS
 62
     3
 10
762.483402385
 20
139.533330769
 30
0.0
 40
15.0
  1
常用ストローク
 50
0.0
 41
0.9
 51
0.0
  7
KANJI41
  0
LINE
  8
0
  6
LTYPE3
 62
     2
 10
1289.222218677
 20
805.133974596
 30
0.0
 11
1526.0
 21
805.133974596
 31
0.0
  0
LINE
  8
0
  6
CONTINUOUS
 62
     2
 10
1550.0
 20
805.133974596
 30
0.0
 11
1591.722218677
 21
805.133974596
 31
0.0
  0
TEXT
  8
0
  6
CONTINUOUS
 62
     2
 10
1648.5200334
 20
126.899994
 30
1.8
 40
21.0
  1
０７．１０．０４
 50
0.0
 41
0.571428571
 51
0.0
  7
KANJI51
  0
LINE
  8
0
  6
CONTINUOUS
 62
     2
 10
1873.92
 20
896.7
 30
0.0
 11
2398.92
 21
896.7
 31
0.0
  0
LINE
  8
0
  6
CONTINUOUS
 62
     2
 10
1873.92
 20
854.7
 30
0.0
 11
2398.92
 21
854.7
 31
0.0
  0
LINE
  8
0
  6
CONTINUOUS
 62
     2
 10
1921.92
 20
1232.7
 30
0.0
 11
1921.92
 21
896.7
 31
0.0
  0
TEXT
  8
0
  6
CONTINUOUS
 62
     2
 10
1906.92
 20
865.5
 30
79.962857143
 40
22.8
  1
付属品
 50
0.0
 41
0.9
 51
0.0
  7
KANJI52
  0
TEXT
  8
0
  6
CONTINUOUS
 62
     2
 10
1906.92
 20
823.5
 30
180.445714286
 40
22.8
  1
台数
 50
0.0
 41
0.9
 51
0.0
  7
KANJI53
  0
LINE
  8
0
  6
CONTINUOUS
 62
     1
 10
1873.92
 20
1628.7
 30
0.0
 11
2398.92
 21
1628.7
 31
0.0
  0
TEXT
  8
0
  6
CONTINUOUS
 62
     2
 10
1948.92
 20
1584.9
 30
17.09964
 40
27.0
  1
マイティシリンダ仕様
 50
0.0
 41
0.9
 51
0.0
  7
KANJI54
  0
LINE
  8
0
  6
CONTINUOUS
 62
     2
 10
1921.92
 20
938.7
 30
0.0
 11
2398.92
 21
938.7
 31
0.0
  0
LINE
  8
0
  6
CONTINUOUS
 62
     2
 10
1921.92
 20
1064.7
 30
0.0
 11
2398.92
 21
1064.7
 31
0.0
  0
LINE
  8
0
  6
CONTINUOUS
 62
     2
 10
1921.92
 20
1106.7
 30
0.0
 11
2398.92
 21
1106.7
 31
0.0
  0
LINE
  8
0
  6
CONTINUOUS
 62
     2
 10
1873.92
 20
1316.7
 30
0.0
 11
2398.92
 21
1316.7
 31
0.0
  0
LINE
  8
0
  6
CONTINUOUS
 62
     2
 10
1873.92
 20
1274.7
 30
0.0
 11
2398.92
 21
1274.7
 31
0.0
  0
LINE
  8
0
  6
CONTINUOUS
 62
     2
 10
1873.92
 20
1232.7
 30
0.0
 11
2398.92
 21
1232.7
 31
0.0
  0
LINE
  8
0
  6
CONTINUOUS
 62
     2
 10
1921.92
 20
1148.7
 30
0.0
 11
2398.92
 21
1148.7
 31
0.0
  0
LINE
  8
0
  6
CONTINUOUS
 62
     2
 10
1921.92
 20
1190.7
 30
0.0
 11
2398.92
 21
1190.7
 31
0.0
  0
LINE
  8
0
  6
CONTINUOUS
 62
     2
 10
1873.92
 20
1526.7
 30
0.0
 11
2398.92
 21
1526.7
 31
0.0
  0
LINE
  8
0
  6
CONTINUOUS
 62
     2
 10
1873.92
 20
1484.7
 30
0.0
 11
2398.92
 21
1484.7
 31
0.0
  0
LINE
  8
0
  6
CONTINUOUS
 62
     2
 10
1873.92
 20
1442.7
 30
0.0
 11
2398.92
 21
1442.7
 31
0.0
  0
LINE
  8
0
  6
CONTINUOUS
 62
     2
 10
1873.92
 20
1400.7
 30
0.0
 11
2398.92
 21
1400.7
 31
0.0
  0
LINE
  8
0
  6
CONTINUOUS
 62
     2
 10
1873.92
 20
1358.7
 30
0.0
 11
2398.92
 21
1358.7
 31
0.0
  0
LINE
  8
0
  6
CONTINUOUS
 62
     2
 10
1873.92
 20
1568.7
 30
0.0
 11
2398.92
 21
1568.7
 31
0.0
  0
TEXT
  8
0
  6
CONTINUOUS
 62
     2
 10
1948.92
 20
1159.5
 30
33.439782857
 40
22.8
  1
電源電圧
 50
0.0
 41
0.9
 51
0.0
  7
KANJI55
  0
TEXT
  8
0
  6
CONTINUOUS
 62
     2
 10
1948.92
 20
1117.5
 30
60.42
 40
22.8
  1
周波数
 50
0.0
 41
0.9
 51
0.0
  7
KANJI56
  0
TEXT
  8
0
  6
CONTINUOUS
 62
     2
 10
1948.92
 20
1075.5
 30
141.36
 40
22.8
  1
電流
 50
0.0
 41
0.9
 51
0.0
  7
KANJI57
  0
TEXT
  8
0
  6
CONTINUOUS
 62
     2
 10
1948.92
 20
1033.5
 30
60.42
 40
22.8
  1
絶縁級
 50
0.0
 41
0.9
 51
0.0
  7
KANJI56
  0
TEXT
  8
0
  6
CONTINUOUS
 62
     2
 10
1906.92
 20
1537.5
 30
180.445714286
 40
22.8
  1
形式
 50
0.0
 41
0.9
 51
0.0
  7
KANJI53
  0
TEXT
  8
0
  6
CONTINUOUS
 62
     2
 10
1906.92
 20
1495.5
 30
180.445714286
 40
22.8
  1
推力
 50
0.0
 41
0.9
 51
0.0
  7
KANJI53
  0
TEXT
  8
0
  6
CONTINUOUS
 62
     2
 10
1906.92
 20
1453.5
 30
29.721428571
 40
22.8
  1
ストローク
 50
0.0
 41
0.9
 51
0.0
  7
KANJI58
  0
TEXT
  8
0
  6
CONTINUOUS
 62
     2
 10
1906.92
 20
1327.5
 30
180.445714286
 40
22.8
  1
構造
 50
0.0
 41
0.9
 51
0.0
  7
KANJI53
  0
TEXT
  8
0
  6
CONTINUOUS
 62
     2
 10
1906.92
 20
1285.5
 30
12.973851429
 40
22.8
  1
過負荷安全装置
 50
0.0
 41
0.9
 51
0.0
  7
KANJI59
  0
TEXT
  8
0
  6
CONTINUOUS
 62
     2
 10
1906.92
 20
1243.5
 30
79.962857143
 40
22.8
  1
塗装色
 50
0.0
 41
0.9
 51
0.0
  7
KANJI52
  0
TEXT
  8
0
  6
CONTINUOUS
 62
     2
 10
1882.92
 20
1369.5
 30
1.954285714
 40
22.8
  1
ピストンロッド回転トルク
 50
0.0
 41
0.9
 51
0.0
  7
KANJI60
  0
LINE
  8
0
  6
CONTINUOUS
 62
     2
 10
1873.92
 20
1022.7
 30
0.0
 11
2398.92
 21
1022.7
 31
0.0
  0
LINE
  8
0
  6
CONTINUOUS
 62
     2
 10
1921.92
 20
980.7
 30
0.0
 11
2398.92
 21
980.7
 31
0.0
  0
TEXT
  8
0
  6
CONTINUOUS
 62
     2
 10
1898.37
 20
1226.7
 30
13.2
 40
21.0
  1
モ　トル仕様
 50
0.0
 41
0.9
 51
0.0
  7
KANJI61
  0
TEXT
  8
0
  6
CONTINUOUS
 62
     2
 10
1898.37
 20
1004.7
 30
1.2
 40
21.0
  1
ブレ　キ
 50
0.0
 41
0.9
 51
0.0
  7
KANJI62
  0
LINE
  8
0
  6
CONTINUOUS
 62
     2
 10
1896.72
 20
954.9
 30
0.0
 11
1896.72
 21
942.3
 31
0.0
  0
TEXT
  8
0
  6
CONTINUOUS
 62
     2
 10
2208.42
 20
1286.7
 30
9.0
 40
21.0
  1
推力リミッタ
 50
0.0
 41
0.9
 51
0.0
  7
KANJI63
  0
TEXT
  8
0
  6
CONTINUOUS
 62
     2
 10
2265.42
 20
1034.7
 30
1.8
 40
18.0
  1
Ｅ
 50
0.0
 41
0.9
 51
0.0
  7
KANJI64
  0
TEXT
  8
0
  6
CONTINUOUS
 62
     2
 10
2221.92
 20
949.5
 30
12.0
 40
21.0
  1
同時切り
 50
0.0
 41
0.9
 51
0.0
  7
KANJI65
  0
TEXT
  8
0
  6
CONTINUOUS
 62
     2
 10
1948.92
 20
991.5
 30
141.36
 40
22.8
  1
形式
 50
0.0
 41
0.9
 51
0.0
  7
KANJI57
  0
TEXT
  8
0
  6
CONTINUOUS
 62
     2
 10
1948.92
 20
949.5
 30
33.439782857
 40
22.8
  1
操作方式
 50
0.0
 41
0.9
 51
0.0
  7
KANJI55
  0
LINE
  8
0
  6
CONTINUOUS
 62
     2
 10
1896.72
 20
1190.1
 30
0.0
 11
1896.72
 21
1176.3
 31
0.0
  0
TEXT
  8
0
  6
CONTINUOUS
 62
     2
 10
1948.92
 20
1201.5
 30
3.0
 40
22.8
  1
出力　相数　極数
 50
0.0
 41
0.9
 51
0.0
  7
KANJI66
  0
TEXT
  8
0
  6
CONTINUOUS
 62
     2
 10
1906.92
 20
1411.5
 30
12.0
 40
22.8
  1
公称速度
 50
0.0
 41
0.9
 51
0.0
  7
KANJI67
  0
TEXT
  8
0
  6
CONTINUOUS
 62
     2
 10
2030.82
 20
1410.3
 30
0.0
 40
21.0
  1
（５０／６０Ｈｚ）
 50
0.0
 41
0.628571429
 51
0.0
  7
KANJI68
  0
TEXT
  8
0
  6
CONTINUOUS
 62
     2
 10
2151.42
 20
991.95
 30
3.3
 40
20.4
  1
スプリング制動式電磁ブレーキ
 50
0.0
 41
0.705882353
 51
0.0
  7
KANJI69
  0
TEXT
  8
0
  6
CONTINUOUS
 62
     2
 10
2370.42
 20
1159.5
 30
0.216
 40
18.0
  1
Ｖ
 50
0.0
 41
0.8
 51
0.0
  7
KANJI70
  0
TEXT
  8
0
  6
CONTINUOUS
 62
     2
 10
2359.62
 20
1117.5
 30
0.216
 40
18.0
  1
Ｈｚ
 50
0.0
 41
0.8
 51
0.0
  7
KANJI70
  0
TEXT
  8
0
  6
CONTINUOUS
 62
     2
 10
2370.42
 20
1075.5
 30
0.216
 40
18.0
  1
Ａ
 50
0.0
 41
0.8
 51
0.0
  7
KANJI70
  0
TEXT
  8
0
  6
CONTINUOUS
 62
     2
 10
2291.52
 20
1202.7
 30
1.8
 40
18.0
  1
３φ
 50
0.0
 41
0.9
 51
0.0
  7
KANJI64
  0
TEXT
  8
0
  6
CONTINUOUS
 62
     2
 10
2351.52
 20
1202.7
 30
1.8
 40
18.0
  1
４Ｐ
 50
0.0
 41
0.9
 51
0.0
  7
KANJI64
  0
TEXT
  8
0
  6
CONTINUOUS
 62
     2
 10
2149.92
 20
1244.7
 30
1.2
 40
19.2
  1
マンセル　７．５ＧＹ　５／４．５
 50
0.0
 41
0.71875
 51
0.0
  7
KANJI71
  0
TEXT
  8
0
  6
CONTINUOUS
 62
     2
 10
2149.92
 20
1160.7
 30
1.8
 40
18.0
  1
　　　　　　　／　　　
 50
0.0
 41
0.9
 51
0.0
  7
KANJI64
  0
TEXT
  8
0
  6
CONTINUOUS
 62
     2
 10
2149.92
 20
1118.7
 30
1.8
 40
18.0
  1
　　　　５０／　６０
 50
0.0
 41
0.9
 51
0.0
  7
KANJI64
  0
TEXT
  8
0
  6
CONTINUOUS
 62
     2
 10
2149.92
 20
1076.7
 30
1.8
 40
18.0
  1
　　　　　　　／　　　
 50
0.0
 41
0.9
 51
0.0
  7
KANJI64
  0
TEXT
  8
0
  6
CONTINUOUS
 62
     2
 10
2354.52
 20
1455.9
 30
0.1536
 40
19.2
  1
ｍｍ
 50
0.0
 41
0.8
 51
0.0
  7
KANJI72
  0
TEXT
  8
0
  6
CONTINUOUS
 62
     2
 10
2208.42
 20
1328.7
 30
9.0
 40
21.0
  1
全閉屋内形
 50
0.0
 41
0.9
 51
0.0
  7
KANJI63
  0
TEXT
  8
0
  6
CONTINUOUS
 62
     2
 10
2315.52
 20
1412.7
 30
0.0
 40
21.0
  1
ｍｍ／ｓｅｃ
 50
0.0
 41
0.571428571
 51
0.0
  7
KANJI73
  0
TEXT
  8
0
  6
CONTINUOUS
 62
     2
 10
2155.92
 20
1202.7
 30
1.8
 40
18.0
  1
　１．１ＫＷ
 50
0.0
 41
0.9
 51
0.0
  7
KANJI64
  0
TEXT
  8
0
  6
CONTINUOUS
 62
     2
 10
2193.72
 20
1496.7
 30
1.8
 40
18.0
  1
１９．６ＫＮ（２ｔｏｎ）
 50
0.0
 41
0.9
 51
0.0
  7
KANJI64
  0
TEXT
  8
0
  6
CONTINUOUS
 62
     2
 10
2163.42
 20
1536.6
 30
1.2
 40
18.0
  1
ＭＤ２－　
 50
0.0
 41
0.833333333
 51
0.0
  7
KANJI74
  0
TEXT
  8
0
  6
CONTINUOUS
 62
     2
 10
2152.92
 20
1412.7
 30
1.8
 40
18.0
  1
　９／１０．９
 50
0.0
 41
0.9
 51
0.0
  7
KANJI64
  0
LINE
  8
0
  6
CONTINUOUS
 62
     1
 10
1873.92
 20
1628.7
 30
0.0
 11
1873.92
 21
770.7
 31
0.0
  0
LINE
  8
0
  6
CONTINUOUS
 62
     2
 10
2149.92
 20
1568.7
 30
0.0
 11
2149.92
 21
770.7
 31
0.0
  0
LINE
  8
0
  6
CONTINUOUS
 62
     1
 10
2398.92
 20
1628.7
 30
0.0
 11
2398.92
 21
770.7
 31
0.0
  0
LINE
  8
0
  6
CONTINUOUS
 62
     1
 10
1873.92
 20
770.7
 30
0.0
 11
2398.92
 21
770.7
 31
0.0
  0
LINE
  8
0
  6
CONTINUOUS
 62
     2
 10
1873.92
 20
812.7
 30
0.0
 11
2398.92
 21
812.7
 31
0.0
  0
TEXT
  8
0
  6
CONTINUOUS
 62
     2
 10
2343.72
 20
782.88
 30
0.0
 40
21.0
  1
ｋｇ
 50
0.0
 41
0.9
 51
0.0
  7
KANJI75
  0
TEXT
  8
0
  6
CONTINUOUS
 62
     2
 10
1905.72
 20
781.5
 30
6.0
 40
21.0
  1
概算重量（１台当り）
 50
0.0
 41
0.857142857
 51
0.0
  7
KANJI76
  0
TEXT
  8
0
  6
CONTINUOUS
 62
     2
 10
2182.92
 20
1370.7
 30
0.0
 40
18.0
  1
６７Ｎ・ｍ（６．８ｋｇ・ｍ）
 50
0.0
 41
0.833333333
 51
0.0
  7
KANJI77
  0
ENDSEC
  0
EOF
