  0
SECTION
  2
HEADER
  9
$ACADVER
  1
AC1009
  9
$DWGCODEPAGE
  3
dos932
  9
$EXTMIN
 10
0.0
 20
0.0
 30
0.0
  9
$EXTMAX
 10
2520.0
 20
1782.0
 30
0.0
  9
$LIMMIN
 10
0.0
 20
0.0
  9
$LIMMAX
 10
2520.0
 20
1782.0
  9
$LTSCALE
 40
1.0
  9
$PDMODE
 70
     0
  0
ENDSEC
  0
SECTION
  2
TABLES
  0
TABLE
  2
VPORT
 70
     1
  0
VPORT
  2
*ACTIVE
 70
     0
 10
0.0
 20
0.0
 11
1.0
 21
1.0
 12
1260.0
 22
891.0
 13
0.0
 23
0.0
 14
10.0
 24
10.0
 15
10.0
 25
10.0
 16
0.0
 26
0.0
 36
1.0
 17
0.0
 27
0.0
 37
0.0
 40
2520.0
 41
1.414141414
 42
50.0
 43
0.0
 44
0.0
 50
0.0
 51
0.0
 71
     0
 72
  1000
 73
     1
 74
     3
 75
     0
 76
     0
 77
     0
 78
     0
  0
ENDTAB
  0
TABLE
  2
LTYPE
 70
     5
  0
LTYPE
  2
CONTINUOUS
 70
    64
  3
Solid line
 72
    65
 73
     0
 40
0.0
  0
LTYPE
  2
LTYPE1
 70
    64
  3
HIDDEN
 72
    65
 73
     2
 40
18.0
 49
10.8
 49
-7.2
  0
LTYPE
  2
LTYPE2
 70
    64
  3
CENTER
 72
    65
 73
     4
 40
90.0
 49
63.0
 49
-9.0
 49
9.0
 49
-9.0
  0
LTYPE
  2
LTYPE3
 70
    64
  3
CENTER
 72
    65
 73
     4
 40
60.0
 49
42.0
 49
-6.0
 49
6.0
 49
-6.0
  0
LTYPE
  2
LTYPE4
 70
    64
  3
CENTER
 72
    65
 73
     4
 40
120.0
 49
84.0
 49
-12.0
 49
12.0
 49
-12.0
  0
ENDTAB
  0
TABLE
  2
LAYER
 70
   128
  0
LAYER
  2
0
 70
     0
 62
     7
  6
CONTINUOUS
  0
LAYER
  2
2
 70
     0
 62
     7
  6
CONTINUOUS
  0
LAYER
  2
3
 70
     0
 62
     7
  6
CONTINUOUS
  0
LAYER
  2
4
 70
     0
 62
     7
  6
CONTINUOUS
  0
LAYER
  2
5
 70
     0
 62
     7
  6
CONTINUOUS
  0
LAYER
  2
6
 70
     0
 62
     7
  6
CONTINUOUS
  0
LAYER
  2
7
 70
     0
 62
     7
  6
CONTINUOUS
  0
LAYER
  2
8
 70
     0
 62
     7
  6
CONTINUOUS
  0
LAYER
  2
9
 70
     0
 62
     7
  6
CONTINUOUS
  0
LAYER
  2
10
 70
     0
 62
     7
  6
CONTINUOUS
  0
LAYER
  2
11
 70
     0
 62
     7
  6
CONTINUOUS
  0
LAYER
  2
12
 70
     0
 62
     7
  6
CONTINUOUS
  0
LAYER
  2
13
 70
     0
 62
     7
  6
CONTINUOUS
  0
LAYER
  2
14
 70
     0
 62
     7
  6
CONTINUOUS
  0
LAYER
  2
15
 70
     0
 62
     7
  6
CONTINUOUS
  0
LAYER
  2
16
 70
     0
 62
     7
  6
CONTINUOUS
  0
LAYER
  2
17
 70
     0
 62
     7
  6
CONTINUOUS
  0
LAYER
  2
18
 70
     0
 62
     7
  6
CONTINUOUS
  0
LAYER
  2
19
 70
     0
 62
     7
  6
CONTINUOUS
  0
LAYER
  2
20
 70
     0
 62
     7
  6
CONTINUOUS
  0
LAYER
  2
21
 70
     0
 62
     7
  6
CONTINUOUS
  0
LAYER
  2
22
 70
     0
 62
     7
  6
CONTINUOUS
  0
LAYER
  2
23
 70
     0
 62
     7
  6
CONTINUOUS
  0
LAYER
  2
24
 70
     0
 62
     7
  6
CONTINUOUS
  0
LAYER
  2
25
 70
     0
 62
     7
  6
CONTINUOUS
  0
LAYER
  2
26
 70
     0
 62
     7
  6
CONTINUOUS
  0
LAYER
  2
27
 70
     0
 62
     7
  6
CONTINUOUS
  0
LAYER
  2
28
 70
     0
 62
     7
  6
CONTINUOUS
  0
LAYER
  2
29
 70
     0
 62
     7
  6
CONTINUOUS
  0
LAYER
  2
30
 70
     0
 62
     7
  6
CONTINUOUS
  0
LAYER
  2
31
 70
     0
 62
     7
  6
CONTINUOUS
  0
LAYER
  2
32
 70
     0
 62
     7
  6
CONTINUOUS
  0
LAYER
  2
33
 70
     0
 62
     7
  6
CONTINUOUS
  0
LAYER
  2
34
 70
     0
 62
     7
  6
CONTINUOUS
  0
LAYER
  2
35
 70
     0
 62
     7
  6
CONTINUOUS
  0
LAYER
  2
36
 70
     0
 62
     7
  6
CONTINUOUS
  0
LAYER
  2
37
 70
     0
 62
     7
  6
CONTINUOUS
  0
LAYER
  2
38
 70
     0
 62
     7
  6
CONTINUOUS
  0
LAYER
  2
39
 70
     0
 62
     7
  6
CONTINUOUS
  0
LAYER
  2
40
 70
     0
 62
     7
  6
CONTINUOUS
  0
LAYER
  2
41
 70
     0
 62
     7
  6
CONTINUOUS
  0
LAYER
  2
42
 70
     0
 62
     7
  6
CONTINUOUS
  0
LAYER
  2
43
 70
     0
 62
     7
  6
CONTINUOUS
  0
LAYER
  2
44
 70
     0
 62
     7
  6
CONTINUOUS
  0
LAYER
  2
45
 70
     0
 62
     7
  6
CONTINUOUS
  0
LAYER
  2
46
 70
     0
 62
     7
  6
CONTINUOUS
  0
LAYER
  2
47
 70
     0
 62
     7
  6
CONTINUOUS
  0
LAYER
  2
48
 70
     0
 62
     7
  6
CONTINUOUS
  0
LAYER
  2
49
 70
     0
 62
     7
  6
CONTINUOUS
  0
LAYER
  2
50
 70
     0
 62
     7
  6
CONTINUOUS
  0
LAYER
  2
51
 70
     0
 62
     7
  6
CONTINUOUS
  0
LAYER
  2
52
 70
     0
 62
     7
  6
CONTINUOUS
  0
LAYER
  2
53
 70
     0
 62
     7
  6
CONTINUOUS
  0
LAYER
  2
54
 70
     0
 62
     7
  6
CONTINUOUS
  0
LAYER
  2
55
 70
     0
 62
     7
  6
CONTINUOUS
  0
LAYER
  2
56
 70
     0
 62
     7
  6
CONTINUOUS
  0
LAYER
  2
57
 70
     0
 62
     7
  6
CONTINUOUS
  0
LAYER
  2
58
 70
     0
 62
     7
  6
CONTINUOUS
  0
LAYER
  2
59
 70
     0
 62
     7
  6
CONTINUOUS
  0
LAYER
  2
60
 70
     0
 62
     7
  6
CONTINUOUS
  0
LAYER
  2
61
 70
     0
 62
     7
  6
CONTINUOUS
  0
LAYER
  2
62
 70
     0
 62
     7
  6
CONTINUOUS
  0
LAYER
  2
63
 70
     0
 62
     7
  6
CONTINUOUS
  0
LAYER
  2
64
 70
     0
 62
     7
  6
CONTINUOUS
  0
LAYER
  2
65
 70
     0
 62
     7
  6
CONTINUOUS
  0
LAYER
  2
66
 70
     0
 62
     7
  6
CONTINUOUS
  0
LAYER
  2
67
 70
     0
 62
     7
  6
CONTINUOUS
  0
LAYER
  2
68
 70
     0
 62
     7
  6
CONTINUOUS
  0
LAYER
  2
69
 70
     0
 62
     7
  6
CONTINUOUS
  0
LAYER
  2
70
 70
     0
 62
     7
  6
CONTINUOUS
  0
LAYER
  2
71
 70
     0
 62
     7
  6
CONTINUOUS
  0
LAYER
  2
72
 70
     0
 62
     7
  6
CONTINUOUS
  0
LAYER
  2
73
 70
     0
 62
     7
  6
CONTINUOUS
  0
LAYER
  2
74
 70
     0
 62
     7
  6
CONTINUOUS
  0
LAYER
  2
75
 70
     0
 62
     7
  6
CONTINUOUS
  0
LAYER
  2
76
 70
     0
 62
     7
  6
CONTINUOUS
  0
LAYER
  2
77
 70
     0
 62
     7
  6
CONTINUOUS
  0
LAYER
  2
78
 70
     0
 62
     7
  6
CONTINUOUS
  0
LAYER
  2
79
 70
     0
 62
     7
  6
CONTINUOUS
  0
LAYER
  2
80
 70
     0
 62
     7
  6
CONTINUOUS
  0
LAYER
  2
81
 70
     0
 62
     7
  6
CONTINUOUS
  0
LAYER
  2
82
 70
     0
 62
     7
  6
CONTINUOUS
  0
LAYER
  2
83
 70
     0
 62
     7
  6
CONTINUOUS
  0
LAYER
  2
84
 70
     0
 62
     7
  6
CONTINUOUS
  0
LAYER
  2
85
 70
     0
 62
     7
  6
CONTINUOUS
  0
LAYER
  2
86
 70
     0
 62
     7
  6
CONTINUOUS
  0
LAYER
  2
87
 70
     0
 62
     7
  6
CONTINUOUS
  0
LAYER
  2
88
 70
     0
 62
     7
  6
CONTINUOUS
  0
LAYER
  2
89
 70
     0
 62
     7
  6
CONTINUOUS
  0
LAYER
  2
90
 70
     0
 62
     7
  6
CONTINUOUS
  0
LAYER
  2
91
 70
     0
 62
     7
  6
CONTINUOUS
  0
LAYER
  2
92
 70
     0
 62
     7
  6
CONTINUOUS
  0
LAYER
  2
93
 70
     0
 62
     7
  6
CONTINUOUS
  0
LAYER
  2
94
 70
     0
 62
     7
  6
CONTINUOUS
  0
LAYER
  2
95
 70
     0
 62
     7
  6
CONTINUOUS
  0
LAYER
  2
96
 70
     0
 62
     7
  6
CONTINUOUS
  0
LAYER
  2
97
 70
     0
 62
     7
  6
CONTINUOUS
  0
LAYER
  2
98
 70
     0
 62
     7
  6
CONTINUOUS
  0
LAYER
  2
99
 70
     0
 62
     7
  6
CONTINUOUS
  0
LAYER
  2
100
 70
     0
 62
     7
  6
CONTINUOUS
  0
LAYER
  2
101
 70
     0
 62
     7
  6
CONTINUOUS
  0
LAYER
  2
102
 70
     0
 62
     7
  6
CONTINUOUS
  0
LAYER
  2
103
 70
     0
 62
     7
  6
CONTINUOUS
  0
LAYER
  2
104
 70
     0
 62
     7
  6
CONTINUOUS
  0
LAYER
  2
105
 70
     0
 62
     7
  6
CONTINUOUS
  0
LAYER
  2
106
 70
     0
 62
     7
  6
CONTINUOUS
  0
LAYER
  2
107
 70
     0
 62
     7
  6
CONTINUOUS
  0
LAYER
  2
108
 70
     0
 62
     7
  6
CONTINUOUS
  0
LAYER
  2
109
 70
     0
 62
     7
  6
CONTINUOUS
  0
LAYER
  2
110
 70
     0
 62
     7
  6
CONTINUOUS
  0
LAYER
  2
111
 70
     0
 62
     7
  6
CONTINUOUS
  0
LAYER
  2
112
 70
     0
 62
     7
  6
CONTINUOUS
  0
LAYER
  2
113
 70
     0
 62
     7
  6
CONTINUOUS
  0
LAYER
  2
114
 70
     0
 62
     7
  6
CONTINUOUS
  0
LAYER
  2
115
 70
     0
 62
     7
  6
CONTINUOUS
  0
LAYER
  2
116
 70
     0
 62
     7
  6
CONTINUOUS
  0
LAYER
  2
117
 70
     0
 62
     7
  6
CONTINUOUS
  0
LAYER
  2
118
 70
     0
 62
     7
  6
CONTINUOUS
  0
LAYER
  2
119
 70
     0
 62
     7
  6
CONTINUOUS
  0
LAYER
  2
120
 70
     0
 62
     7
  6
CONTINUOUS
  0
LAYER
  2
121
 70
     0
 62
     7
  6
CONTINUOUS
  0
LAYER
  2
122
 70
     0
 62
     7
  6
CONTINUOUS
  0
LAYER
  2
123
 70
     0
 62
     7
  6
CONTINUOUS
  0
LAYER
  2
124
 70
     0
 62
     7
  6
CONTINUOUS
  0
LAYER
  2
125
 70
     0
 62
     7
  6
CONTINUOUS
  0
LAYER
  2
126
 70
     0
 62
     7
  6
CONTINUOUS
  0
LAYER
  2
127
 70
     0
 62
     7
  6
CONTINUOUS
  0
LAYER
  2
128
 70
     0
 62
     7
  6
CONTINUOUS
  0
ENDTAB
  0
TABLE
  2
STYLE
 70
    79
  0
STYLE
  2
STANDARD
 70
     0
 40
0.0
 41
1.0
 50
0.0
 71
     0
 42
0.2
  3
txt.shx
  4
extfont.shx
  0
STYLE
  2
KANJI0
 70
     0
 40
15.5999988
 41
0.75
 50
0.0
 71
     0
 42
15.5999988
  3
txt.shx
  4
extfont.shx
  0
STYLE
  2
KANJI1
 70
     0
 40
11.999997477
 41
0.6
 50
0.0
 71
     0
 42
11.999997477
  3
txt.shx
  4
extfont.shx
  0
STYLE
  2
KANJI2
 70
     0
 40
14.399996972
 41
0.9
 50
0.0
 71
     0
 42
14.399996972
  3
txt.shx
  4
extfont.shx
  0
STYLE
  2
KANJI3
 70
     0
 40
17.999996215
 41
0.9
 50
0.0
 71
     0
 42
17.999996215
  3
txt.shx
  4
extfont.shx
  0
STYLE
  2
KANJI4
 70
     0
 40
10.3999992
 41
0.6
 50
0.0
 71
     0
 42
10.3999992
  3
txt.shx
  4
extfont.shx
  0
STYLE
  2
KANJI5
 70
     0
 40
12.47999904
 41
0.6
 50
0.0
 71
     0
 42
12.47999904
  3
txt.shx
  4
extfont.shx
  0
STYLE
  2
KANJI6
 70
     0
 40
18.1999986
 41
0.42031746
 50
0.0
 71
     0
 42
18.1999986
  3
txt.shx
  4
extfont.shx
  0
STYLE
  2
KANJI7
 70
     0
 40
31.1999976
 41
0.9
 50
0.0
 71
     0
 42
31.1999976
  3
txt.shx
  4
extfont.shx
  0
STYLE
  2
KANJI8
 70
     0
 40
21.6
 41
1.111111111
 50
0.0
 71
     0
 42
21.6
  3
txt.shx
  4
extfont.shx
  0
STYLE
  2
KANJI9
 70
     0
 40
10.3999992
 41
0.8
 50
0.0
 71
     0
 42
10.3999992
  3
txt.shx
  4
extfont.shx
  0
STYLE
  2
KANJI10
 70
     0
 40
12.47999904
 41
0.8
 50
0.0
 71
     0
 42
12.47999904
  3
txt.shx
  4
extfont.shx
  0
STYLE
  2
KANJI11
 70
     0
 40
30.0
 41
1.0
 50
0.0
 71
     0
 42
30.0
  3
txt.shx
  4
extfont.shx
  0
STYLE
  2
KANJI12
 70
     0
 40
30.0
 41
1.0
 50
0.0
 71
     0
 42
30.0
  3
txt.shx
  4
extfont.shx
  0
STYLE
  2
KANJI13
 70
     0
 40
30.0
 41
0.8
 50
0.0
 71
     0
 42
30.0
  3
txt.shx
  4
extfont.shx
  0
STYLE
  2
KANJI14
 70
     0
 40
24.0
 41
1.0
 50
0.0
 71
     0
 42
24.0
  3
txt.shx
  4
extfont.shx
  0
STYLE
  2
KANJI15
 70
     0
 40
21.0
 41
0.857142857
 50
0.0
 71
     0
 42
21.0
  3
txt.shx
  4
extfont.shx
  0
STYLE
  2
KANJI16
 70
     0
 40
22.8
 41
0.9
 50
0.0
 71
     0
 42
22.8
  3
txt.shx
  4
extfont.shx
  0
STYLE
  2
KANJI17
 70
     0
 40
22.8
 41
0.9
 50
0.0
 71
     0
 42
22.8
  3
txt.shx
  4
extfont.shx
  0
STYLE
  2
KANJI18
 70
     0
 40
27.0
 41
0.9
 50
0.0
 71
     0
 42
27.0
  3
txt.shx
  4
extfont.shx
  0
STYLE
  2
KANJI19
 70
     0
 40
22.8
 41
0.9
 50
0.0
 71
     0
 42
22.8
  3
txt.shx
  4
extfont.shx
  0
STYLE
  2
KANJI20
 70
     0
 40
22.8
 41
0.9
 50
0.0
 71
     0
 42
22.8
  3
txt.shx
  4
extfont.shx
  0
STYLE
  2
KANJI21
 70
     0
 40
22.8
 41
0.9
 50
0.0
 71
     0
 42
22.8
  3
txt.shx
  4
extfont.shx
  0
STYLE
  2
KANJI22
 70
     0
 40
22.8
 41
0.9
 50
0.0
 71
     0
 42
22.8
  3
txt.shx
  4
extfont.shx
  0
STYLE
  2
KANJI23
 70
     0
 40
22.8
 41
0.9
 50
0.0
 71
     0
 42
22.8
  3
txt.shx
  4
extfont.shx
  0
STYLE
  2
KANJI24
 70
     0
 40
22.8
 41
0.9
 50
0.0
 71
     0
 42
22.8
  3
txt.shx
  4
extfont.shx
  0
STYLE
  2
KANJI25
 70
     4
 40
21.0
 41
0.9
 50
0.0
 71
     0
 42
21.0
  3
txt.shx
  4
extfont.shx
  0
STYLE
  2
KANJI26
 70
     4
 40
21.0
 41
0.9
 50
0.0
 71
     0
 42
21.0
  3
txt.shx
  4
extfont.shx
  0
STYLE
  2
KANJI27
 70
     0
 40
21.0
 41
0.9
 50
0.0
 71
     0
 42
21.0
  3
txt.shx
  4
extfont.shx
  0
STYLE
  2
KANJI28
 70
     0
 40
18.0
 41
0.9
 50
0.0
 71
     0
 42
18.0
  3
txt.shx
  4
extfont.shx
  0
STYLE
  2
KANJI29
 70
     0
 40
22.8
 41
0.9
 50
0.0
 71
     0
 42
22.8
  3
txt.shx
  4
extfont.shx
  0
STYLE
  2
KANJI30
 70
     0
 40
22.8
 41
0.9
 50
0.0
 71
     0
 42
22.8
  3
txt.shx
  4
extfont.shx
  0
STYLE
  2
KANJI31
 70
     0
 40
21.0
 41
0.628571429
 50
0.0
 71
     0
 42
21.0
  3
txt.shx
  4
extfont.shx
  0
STYLE
  2
KANJI32
 70
     0
 40
20.4
 41
0.705882353
 50
0.0
 71
     0
 42
20.4
  3
txt.shx
  4
extfont.shx
  0
STYLE
  2
KANJI33
 70
     0
 40
18.0
 41
0.8
 50
0.0
 71
     0
 42
18.0
  3
txt.shx
  4
extfont.shx
  0
STYLE
  2
KANJI34
 70
     0
 40
19.2
 41
0.71875
 50
0.0
 71
     0
 42
19.2
  3
txt.shx
  4
extfont.shx
  0
STYLE
  2
KANJI35
 70
     0
 40
19.2
 41
0.8
 50
0.0
 71
     0
 42
19.2
  3
txt.shx
  4
extfont.shx
  0
STYLE
  2
KANJI36
 70
     0
 40
21.0
 41
0.571428571
 50
0.0
 71
     0
 42
21.0
  3
txt.shx
  4
extfont.shx
  0
STYLE
  2
KANJI37
 70
     0
 40
27.0
 41
0.666666667
 50
0.0
 71
     0
 42
27.0
  3
txt.shx
  4
extfont.shx
  0
STYLE
  2
KANJI38
 70
     0
 40
21.0
 41
0.9
 50
0.0
 71
     0
 42
21.0
  3
txt.shx
  4
extfont.shx
  0
STYLE
  2
KANJI39
 70
     0
 40
18.0
 41
0.833333333
 50
0.0
 71
     0
 42
18.0
  3
txt.shx
  4
extfont.shx
  0
STYLE
  2
KANJI40
 70
     0
 40
18.0
 41
0.833333333
 50
0.0
 71
     0
 42
18.0
  3
txt.shx
  4
extfont.shx
  0
STYLE
  2
KANJI41
 70
     0
 40
30.0
 41
0.8
 50
0.0
 71
     0
 42
30.0
  3
txt.shx
  4
extfont.shx
  0
STYLE
  2
KANJI42
 70
     0
 40
18.0
 41
0.9
 50
0.0
 71
     0
 42
18.0
  3
txt.shx
  4
extfont.shx
  0
STYLE
  2
KANJI43
 70
     0
 40
14.99994
 41
0.9
 50
0.0
 71
     0
 42
14.99994
  3
txt.shx
  4
extfont.shx
  0
STYLE
  2
KANJI44
 70
     0
 40
17.49993
 41
0.9
 50
0.0
 71
     0
 42
17.49993
  3
txt.shx
  4
extfont.shx
  0
STYLE
  2
KANJI45
 70
     0
 40
13.182
 41
0.85
 50
0.0
 71
     0
 42
13.182
  3
txt.shx
  4
extfont.shx
  0
STYLE
  2
KANJI46
 70
     0
 40
11.661
 41
0.822608696
 50
0.0
 71
     0
 42
11.661
  3
txt.shx
  4
extfont.shx
  0
STYLE
  2
KANJI47
 70
     0
 40
11.8638
 41
0.726495726
 50
0.0
 71
     0
 42
11.8638
  3
txt.shx
  4
extfont.shx
  0
STYLE
  2
KANJI48
 70
     4
 40
45.0
 41
0.538166667
 50
0.0
 71
     0
 42
45.0
  3
txt.shx
  4
extfont.shx
  0
STYLE
  2
KANJI49
 70
     0
 40
17.740702234
 41
0.880962996
 50
0.0
 71
     0
 42
17.740702234
  3
txt.shx
  4
extfont.shx
  0
STYLE
  2
KANJI50
 70
     0
 40
11.7
 41
0.8
 50
0.0
 71
     0
 42
11.7
  3
txt.shx
  4
extfont.shx
  0
STYLE
  2
KANJI51
 70
     0
 40
15.0
 41
0.911
 50
0.0
 71
     0
 42
15.0
  3
txt.shx
  4
extfont.shx
  0
STYLE
  2
KANJI52
 70
     0
 40
18.223173404
 41
0.66671875
 50
0.0
 71
     0
 42
18.223173404
  3
txt.shx
  4
extfont.shx
  0
STYLE
  2
KANJI53
 70
     0
 40
21.6
 41
0.9
 50
0.0
 71
     0
 42
21.6
  3
txt.shx
  4
extfont.shx
  0
STYLE
  2
KANJI54
 70
     0
 40
12.96
 41
0.9
 50
0.0
 71
     0
 42
12.96
  3
txt.shx
  4
extfont.shx
  0
STYLE
  2
KANJI55
 70
     0
 40
17.28
 41
0.9
 50
0.0
 71
     0
 42
17.28
  3
txt.shx
  4
extfont.shx
  0
STYLE
  2
KANJI56
 70
     0
 40
18.72
 41
0.925
 50
0.0
 71
     0
 42
18.72
  3
txt.shx
  4
extfont.shx
  0
STYLE
  2
KANJI57
 70
     0
 40
24.0
 41
0.9
 50
0.0
 71
     0
 42
24.0
  3
txt.shx
  4
extfont.shx
  0
STYLE
  2
KANJI58
 70
     0
 40
21.6
 41
0.857142857
 50
0.0
 71
     0
 42
21.6
  3
txt.shx
  4
extfont.shx
  0
STYLE
  2
KANJI59
 70
     0
 40
21.6
 41
0.857222222
 50
0.0
 71
     0
 42
21.6
  3
txt.shx
  4
extfont.shx
  0
STYLE
  2
KANJI60
 70
     0
 40
21.0
 41
0.793650794
 50
0.0
 71
     0
 42
21.0
  3
txt.shx
  4
extfont.shx
  0
STYLE
  2
KANJI61
 70
     0
 40
21.0
 41
0.571428571
 50
0.0
 71
     0
 42
21.0
  3
txt.shx
  4
extfont.shx
  0
STYLE
  2
KANJI62
 70
     0
 40
18.0
 41
0.45
 50
0.0
 71
     0
 42
18.0
  3
txt.shx
  4
extfont.shx
  0
STYLE
  2
KANJI63
 70
     0
 40
18.0
 41
0.9
 50
0.0
 71
     0
 42
18.0
  3
txt.shx
  4
extfont.shx
  0
STYLE
  2
KANJI64
 70
     0
 40
20.0
 41
0.925
 50
0.0
 71
     0
 42
20.0
  3
txt.shx
  4
extfont.shx
  0
STYLE
  2
KANJI65
 70
     0
 40
15.36
 41
0.9
 50
0.0
 71
     0
 42
15.36
  3
txt.shx
  4
extfont.shx
  0
STYLE
  2
KANJI66
 70
     0
 40
14.4
 41
0.9
 50
0.0
 71
     0
 42
14.4
  3
txt.shx
  4
extfont.shx
  0
STYLE
  2
KANJI67
 70
     0
 40
14.4
 41
0.9
 50
0.0
 71
     0
 42
14.4
  3
txt.shx
  4
extfont.shx
  0
STYLE
  2
KANJI68
 70
     0
 40
16.8
 41
0.9
 50
0.0
 71
     0
 42
16.8
  3
txt.shx
  4
extfont.shx
  0
STYLE
  2
KANJI69
 70
     0
 40
12.96
 41
0.740740741
 50
0.0
 71
     0
 42
12.96
  3
txt.shx
  4
extfont.shx
  0
STYLE
  2
KANJI70
 70
     0
 40
16.8
 41
0.857142857
 50
0.0
 71
     0
 42
16.8
  3
txt.shx
  4
extfont.shx
  0
STYLE
  2
KANJI71
 70
     0
 40
15.0
 41
0.9
 50
0.0
 71
     0
 42
15.0
  3
txt.shx
  4
extfont.shx
  0
STYLE
  2
KANJI72
 70
     0
 40
15.0
 41
0.9
 50
0.0
 71
     0
 42
15.0
  3
txt.shx
  4
extfont.shx
  0
STYLE
  2
KANJI73
 70
     0
 40
16.8
 41
0.964285714
 50
0.0
 71
     0
 42
16.8
  3
txt.shx
  4
extfont.shx
  0
STYLE
  2
KANJI74
 70
     0
 40
16.8
 41
0.821428571
 50
0.0
 71
     0
 42
16.8
  3
txt.shx
  4
extfont.shx
  0
STYLE
  2
KANJI75
 70
     0
 40
14.4
 41
0.833333333
 50
0.0
 71
     0
 42
14.4
  3
txt.shx
  4
extfont.shx
  0
STYLE
  2
KANJI76
 70
     0
 40
20.0
 41
0.925
 50
0.0
 71
     0
 42
20.0
  3
txt.shx
  4
extfont.shx
  0
STYLE
  2
KANJI77
 70
     0
 40
18.0
 41
0.9
 50
0.0
 71
     0
 42
18.0
  3
txt.shx
  4
extfont.shx
  0
ENDTAB
  0
TABLE
  2
VIEW
 70
     0
  0
ENDTAB
  0
ENDSEC
  0
SECTION
  2
BLOCKS
  0
ENDSEC
  0
SECTION
  2
ENTITIES
  0
POLYLINE
  8
0
  6
CONTINUOUS
 62
     6
 66
     1
  0
VERTEX
  8
0
  6
CONTINUOUS
 62
     6
 10
82.92
 20
71.7
 30
0.0
  0
VERTEX
  8
0
  6
CONTINUOUS
 62
     6
 10
82.92
 20
1685.7
 30
0.0
  0
VERTEX
  8
0
  6
CONTINUOUS
 62
     6
 10
2404.92
 20
1685.7
 30
0.0
  0
SEQEND
  0
LINE
  8
0
  6
CONTINUOUS
 62
     6
 10
88.919998738
 20
161.699981077
 30
0.0
 11
478.919916738
 21
161.699981077
 31
0.0
  0
LINE
  8
0
  6
CONTINUOUS
 62
     6
 10
88.919998738
 20
77.699998738
 30
0.0
 11
478.919916738
 21
77.699998738
 31
0.0
  0
LINE
  8
0
  6
CONTINUOUS
 62
     6
 10
88.919998738
 20
77.699998738
 30
0.0
 11
88.919998738
 21
161.699981077
 31
0.0
  0
LINE
  8
0
  6
CONTINUOUS
 62
     6
 10
88.919998738
 20
119.699989908
 30
0.0
 11
478.919916738
 21
119.699989908
 31
0.0
  0
LINE
  8
0
  6
CONTINUOUS
 62
     4
 10
14.6199996
 20
76.8999996
 30
0.0
 11
77.0199948
 21
76.8999996
 31
0.0
  0
LINE
  8
0
  6
CONTINUOUS
 62
     4
 10
14.6199996
 20
108.0999972
 30
0.0
 11
77.0199948
 21
108.0999972
 31
0.0
  0
LINE
  8
0
  6
CONTINUOUS
 62
     4
 10
14.6199996
 20
139.2999948
 30
0.0
 11
77.0199948
 21
139.2999948
 31
0.0
  0
LINE
  8
0
  6
CONTINUOUS
 62
     4
 10
14.6199996
 20
170.4999924
 30
0.0
 11
77.0199948
 21
170.4999924
 31
0.0
  0
LINE
  8
0
  6
CONTINUOUS
 62
     4
 10
14.6199996
 20
201.69999
 30
0.0
 11
77.0199948
 21
201.69999
 31
0.0
  0
LINE
  8
0
  6
CONTINUOUS
 62
     4
 10
14.6199996
 20
232.8999876
 30
0.0
 11
77.0199948
 21
232.8999876
 31
0.0
  0
LINE
  8
0
  6
CONTINUOUS
 62
     4
 10
14.6199996
 20
264.0999852
 30
0.0
 11
77.0199948
 21
264.0999852
 31
0.0
  0
LINE
  8
0
  6
CONTINUOUS
 62
     4
 10
14.6199996
 20
295.2999828
 30
0.0
 11
77.0199948
 21
295.2999828
 31
0.0
  0
LINE
  8
0
  6
CONTINUOUS
 62
     4
 10
14.6199996
 20
326.4999804
 30
0.0
 11
77.0199948
 21
326.4999804
 31
0.0
  0
LINE
  8
0
  6
CONTINUOUS
 62
     4
 10
14.6199996
 20
357.699978
 30
0.0
 11
77.0199948
 21
357.699978
 31
0.0
  0
LINE
  8
0
  6
CONTINUOUS
 62
     4
 10
77.0199948
 20
76.8999996
 30
0.0
 11
77.0199948
 21
357.699978
 31
0.0
  0
LINE
  8
0
  6
CONTINUOUS
 62
     4
 10
45.8199972
 20
76.8999996
 30
0.0
 11
45.8199972
 21
326.4999804
 31
0.0
  0
TEXT
  8
0
  6
CONTINUOUS
 62
     4
 10
25.27999878
 20
85.9999989
 30
1.55999988
 40
15.5999988
  1
計
 50
0.0
 41
0.75
 51
0.0
  7
KANJI0
  0
TEXT
  8
0
  6
CONTINUOUS
 62
     4
 10
25.27999878
 20
148.91999406
 30
1.55999988
 40
15.5999988
  1
設
 50
0.0
 41
0.75
 51
0.0
  7
KANJI0
  0
TEXT
  8
0
  6
CONTINUOUS
 62
     4
 10
25.27999878
 20
179.5999917
 30
1.55999988
 40
15.5999988
  1
管
 50
0.0
 41
0.75
 51
0.0
  7
KANJI0
  0
TEXT
  8
0
  6
CONTINUOUS
 62
     4
 10
25.27999878
 20
210.7999893
 30
1.55999988
 40
15.5999988
  1
製
 50
0.0
 41
0.75
 51
0.0
  7
KANJI0
  0
TEXT
  8
0
  6
CONTINUOUS
 62
     4
 10
25.27999878
 20
241.9999869
 30
1.55999988
 40
15.5999988
  1
資
 50
0.0
 41
0.75
 51
0.0
  7
KANJI0
  0
TEXT
  8
0
  6
CONTINUOUS
 62
     4
 10
25.27999878
 20
273.1999845
 30
1.55999988
 40
15.5999988
  1
営
 50
0.0
 41
0.75
 51
0.0
  7
KANJI0
  0
TEXT
  8
0
  6
CONTINUOUS
 62
     4
 10
25.27999878
 20
304.3999821
 30
1.55999988
 40
15.5999988
  1
客
 50
0.0
 41
0.75
 51
0.0
  7
KANJI0
  0
TEXT
  8
0
  6
CONTINUOUS
 62
     4
 10
25.0199988
 20
336.8999796
 30
1.55999988
 40
15.5999988
  1
出　図
 50
0.0
 41
0.75
 51
0.0
  7
KANJI0
  0
LINE
  8
0
  6
CONTINUOUS
 62
     4
 10
14.6199996
 20
76.8999996
 30
0.0
 11
14.6199996
 21
357.699978
 31
0.0
  0
LINE
  8
0
  6
CONTINUOUS
 62
     6
 10
2404.92
 20
71.7
 30
0.0
 11
82.92
 21
71.7
 31
0.0
  0
TEXT
  8
0
  6
CONTINUOUS
 62
     4
 10
100.919996215
 20
101.699993692
 30
1.199999748
 40
11.999997477
  1
ＰＡＲＴＳ　ＬＩＳＴ
 50
0.0
 41
0.6
 51
0.0
  7
KANJI1
  0
TEXT
  8
0
  6
CONTINUOUS
 62
     4
 10
100.919996215
 20
83.699997477
 30
1.439999697
 40
14.399996972
  1
部品表
 50
0.0
 41
0.9
 51
0.0
  7
KANJI2
  0
TEXT
  8
0
  6
CONTINUOUS
 62
     3
 10
100.919996215
 20
131.699987385
 30
1.799999622
 40
17.999996215
  1
ＰＬ
 50
0.0
 41
0.9
 51
0.0
  7
KANJI3
  0
TEXT
  8
0
  6
CONTINUOUS
 62
     4
 10
370.919939446
 20
101.699993692
 30
1.199999748
 40
11.999997477
  1
Ｎ０．
 50
0.0
 41
0.6
 51
0.0
  7
KANJI1
  0
TEXT
  8
0
  6
CONTINUOUS
 62
     4
 10
370.919939446
 20
83.699997477
 30
1.439999697
 40
14.399996972
  1
項番
 50
0.0
 41
0.9
 51
0.0
  7
KANJI2
  0
LINE
  8
0
  6
CONTINUOUS
 62
     6
 10
478.919916738
 20
77.699998738
 30
0.0
 11
478.919916738
 21
161.699981077
 31
0.0
  0
LINE
  8
0
  6
CONTINUOUS
 62
     6
 10
358.919941969
 20
77.699998738
 30
0.0
 11
358.919941969
 21
161.699981077
 31
0.0
  0
LINE
  8
0
  6
CONTINUOUS
 62
     6
 10
2404.92
 20
1685.7
 30
0.0
 11
2404.92
 21
71.7
 31
0.0
  0
LINE
  8
0
  6
CONTINUOUS
 62
     6
 10
1598.920062
 20
76.8999996
 30
0.0
 11
1598.920062
 21
409.699974
 31
0.0
  0
LINE
  8
0
  6
CONTINUOUS
 62
     6
 10
2399.7200004
 20
76.8999996
 30
0.0
 11
2399.7200004
 21
409.699974
 31
0.0
  0
LINE
  8
0
  6
CONTINUOUS
 62
     4
 10
1788.7200474
 20
76.8999996
 30
0.0
 11
1788.7200474
 21
409.699974
 31
0.0
  0
LINE
  8
0
  6
CONTINUOUS
 62
     4
 10
1598.920062
 20
118.4999964
 30
0.0
 11
1788.7200474
 21
118.4999964
 31
0.0
  0
TEXT
  8
0
  6
CONTINUOUS
 62
     4
 10
1609.3200612
 20
100.2999978
 30
1.03999992
 40
10.3999992
  1
ＳＣＡＬＥ
 50
0.0
 41
0.6
 51
0.0
  7
KANJI4
  0
TEXT
  8
0
  6
CONTINUOUS
 62
     4
 10
1609.3200612
 20
84.699999
 30
1.247999904
 40
12.47999904
  1
尺度
 50
0.0
 41
0.6
 51
0.0
  7
KANJI5
  0
LINE
  8
0
  6
CONTINUOUS
 62
     6
 10
1188.1200936
 20
118.4999964
 30
0.0
 11
1598.920062
 21
118.4999964
 31
0.0
  0
LINE
  8
0
  6
CONTINUOUS
 62
     6
 10
1188.1200936
 20
76.8999996
 30
0.0
 11
2399.7200004
 21
76.8999996
 31
0.0
  0
TEXT
  8
0
  6
CONTINUOUS
 62
     6
 10
1793.920047
 20
100.2999978
 30
0.0
 40
18.1999986
  1
ＵＮＩＴＥＣ　ＩＮＤＵＳＴＲＹ　ＣＯ．，ＬＴＤ．
 50
0.0
 41
0.42031746
 51
0.0
  7
KANJI6
  0
TEXT
  8
0
  6
CONTINUOUS
 62
     6
 10
2049.175027365
 20
93.53999832
 30
3.11999976
 40
31.1999976
  1
ユニテック工業株式会社
 50
0.0
 41
0.9
 51
0.0
  7
KANJI7
  0
LINE
  8
0
  6
CONTINUOUS
 62
     6
 10
2007.575030565
 20
104.45999748
 30
0.0
 11
1993.847031621
 21
104.45999748
 31
0.0
  0
LINE
  8
0
  6
CONTINUOUS
 62
     6
 10
2007.575030565
 20
106.955997288
 30
0.0
 11
1993.847031621
 21
106.955997288
 31
0.0
  0
LINE
  8
0
  6
CONTINUOUS
 62
     6
 10
2007.575030565
 20
104.45999748
 30
0.0
 11
2021.303029509
 21
104.45999748
 31
0.0
  0
LINE
  8
0
  6
CONTINUOUS
 62
     6
 10
2007.575030565
 20
106.955997288
 30
0.0
 11
2021.303029509
 21
106.955997288
 31
0.0
  0
LINE
  8
0
  6
CONTINUOUS
 62
     6
 10
2021.303029509
 20
106.955997288
 30
0.0
 11
2021.303029509
 21
104.45999748
 31
0.0
  0
ARC
  8
0
  6
CONTINUOUS
 62
     6
 10
2024.423029269
 20
105.707997384
 30
0.0
 40
12.47999904
 50
185.739170477
 51
90.0
  0
ARC
  8
0
  6
CONTINUOUS
 62
     6
 10
2024.423029269
 20
105.707997384
 30
0.0
 40
14.975998848
 50
184.780191847
 51
90.0
  0
LINE
  8
0
  6
CONTINUOUS
 62
     6
 10
1993.847031621
 20
104.45999748
 30
0.0
 11
1993.847031621
 21
106.955997288
 31
0.0
  0
ARC
  8
0
  6
CONTINUOUS
 62
     6
 10
1990.727031861
 20
105.707997384
 30
0.0
 40
12.47999904
 50
90.0
 51
354.260829523
  0
ARC
  8
0
  6
CONTINUOUS
 62
     6
 10
1990.727031861
 20
105.707997384
 30
0.0
 40
14.975998848
 50
90.0
 51
355.219808153
  0
LINE
  8
0
  6
CONTINUOUS
 62
     6
 10
2005.703030709
 20
120.683996232
 30
0.0
 11
2005.703030709
 21
118.187996424
 31
0.0
  0
LINE
  8
0
  6
CONTINUOUS
 62
     6
 10
1990.727031861
 20
118.187996424
 30
0.0
 11
2005.703030709
 21
118.187996424
 31
0.0
  0
LINE
  8
0
  6
CONTINUOUS
 62
     6
 10
2009.447030421
 20
120.683996232
 30
0.0
 11
2009.447030421
 21
118.187996424
 31
0.0
  0
LINE
  8
0
  6
CONTINUOUS
 62
     6
 10
2024.423029269
 20
118.187996424
 30
0.0
 11
2009.447030421
 21
118.187996424
 31
0.0
  0
TEXT
  8
0
  6
CONTINUOUS
 62
     4
 10
1320.7200834
 20
100.2999978
 30
1.03999992
 40
10.3999992
  1
ＢＹ
 50
0.0
 41
0.6
 51
0.0
  7
KANJI4
  0
TEXT
  8
0
  6
CONTINUOUS
 62
     4
 10
1435.1200746
 20
100.2999978
 30
1.03999992
 40
10.3999992
  1
ＤＥＳＣＲＩＰＴＩＯＮ
 50
0.0
 41
0.6
 51
0.0
  7
KANJI4
  0
TEXT
  8
0
  6
CONTINUOUS
 62
     4
 10
1320.7200834
 20
84.699999
 30
1.247999904
 40
12.47999904
  1
担当
 50
0.0
 41
0.6
 51
0.0
  7
KANJI5
  0
TEXT
  8
0
  6
CONTINUOUS
 62
     4
 10
1450.7200734
 20
84.699999
 30
1.247999904
 40
12.47999904
  1
記　　　　事
 50
0.0
 41
0.6
 51
0.0
  7
KANJI5
  0
LINE
  8
0
  6
CONTINUOUS
 62
     4
 10
1210.2200919
 20
110.699997
 30
0.0
 11
1193.3200932
 21
84.699999
 31
0.0
  0
TEXT
  8
0
  6
CONTINUOUS
 62
     4
 10
1253.1200886
 20
100.2999978
 30
1.03999992
 40
10.3999992
  1
ＤＡＴＥ
 50
0.0
 41
0.6
 51
0.0
  7
KANJI4
  0
TEXT
  8
0
  6
CONTINUOUS
 62
     4
 10
1260.920088
 20
84.699999
 30
1.247999904
 40
12.47999904
  1
日付
 50
0.0
 41
0.6
 51
0.0
  7
KANJI5
  0
LINE
  8
0
  6
CONTINUOUS
 62
     4
 10
1193.3200932
 20
84.699999
 30
0.0
 11
1227.1200906
 21
84.699999
 31
0.0
  0
LINE
  8
0
  6
CONTINUOUS
 62
     4
 10
1210.2200919
 20
110.699997
 30
0.0
 11
1227.1200906
 21
84.699999
 31
0.0
  0
LINE
  8
0
  6
CONTINUOUS
 62
     6
 10
1188.1200936
 20
76.8999996
 30
0.0
 11
1188.1200936
 21
118.4999964
 31
0.0
  0
LINE
  8
0
  6
CONTINUOUS
 62
     4
 10
1232.3200902
 20
76.8999996
 30
0.0
 11
1232.3200902
 21
118.4999964
 31
0.0
  0
LINE
  8
0
  6
CONTINUOUS
 62
     4
 10
1305.1200846
 20
76.8999996
 30
0.0
 11
1305.1200846
 21
118.4999964
 31
0.0
  0
LINE
  8
0
  6
CONTINUOUS
 62
     4
 10
1351.920081
 20
76.8999996
 30
0.0
 11
1351.920081
 21
118.4999964
 31
0.0
  0
TEXT
  8
0
  6
CONTINUOUS
 62
     4
 10
1609.3200612
 20
308.2999818
 30
1.03999992
 40
10.3999992
  1
ＣＯＤＥ
 50
0.0
 41
0.6
 51
0.0
  7
KANJI4
  0
LINE
  8
0
  6
CONTINUOUS
 62
     4
 10
1598.920062
 20
326.4999804
 30
0.0
 11
2399.7200004
 21
326.4999804
 31
0.0
  0
TEXT
  8
0
  6
CONTINUOUS
 62
     4
 10
1609.3200612
 20
292.699983
 30
1.247999904
 40
12.47999904
  1
分類
 50
0.0
 41
0.6
 51
0.0
  7
KANJI5
  0
TEXT
  8
0
  6
CONTINUOUS
 62
     4
 10
1617.42
 20
332.7
 30
6.0
 40
21.6
  1
ご注文主
 50
0.0
 41
1.111111111
 51
0.0
  7
KANJI8
  0
TEXT
  8
0
  6
CONTINUOUS
 62
     4
 10
1609.3200612
 20
183.4999914
 30
1.03999992
 40
10.3999992
  1
ＤＲＡＷＮ
 50
0.0
 41
0.6
 51
0.0
  7
KANJI4
  0
TEXT
  8
0
  6
CONTINUOUS
 62
     4
 10
1609.3200612
 20
225.0999882
 30
1.03999992
 40
10.3999992
  1
ＤＥＳＩＧＮ
 50
0.0
 41
0.6
 51
0.0
  7
KANJI4
  0
TEXT
  8
0
  6
CONTINUOUS
 62
     4
 10
1609.3200612
 20
266.699985
 30
1.03999992
 40
10.3999992
  1
ＣＨＥＣＫ
 50
0.0
 41
0.6
 51
0.0
  7
KANJI4
  0
LINE
  8
0
  6
CONTINUOUS
 62
     4
 10
1598.920062
 20
243.2999868
 30
0.0
 11
1788.7200474
 21
243.2999868
 31
0.0
  0
LINE
  8
0
  6
CONTINUOUS
 62
     4
 10
1598.920062
 20
201.69999
 30
0.0
 11
1788.7200474
 21
201.69999
 31
0.0
  0
LINE
  8
0
  6
CONTINUOUS
 62
     4
 10
1598.920062
 20
284.8999836
 30
0.0
 11
1788.7200474
 21
284.8999836
 31
0.0
  0
TEXT
  8
0
  6
CONTINUOUS
 62
     4
 10
1609.3200612
 20
209.4999894
 30
1.247999904
 40
12.47999904
  1
設計
 50
0.0
 41
0.6
 51
0.0
  7
KANJI5
  0
TEXT
  8
0
  6
CONTINUOUS
 62
     4
 10
1609.3200612
 20
251.0999862
 30
1.247999904
 40
12.47999904
  1
検図
 50
0.0
 41
0.6
 51
0.0
  7
KANJI5
  0
LINE
  8
0
  6
CONTINUOUS
 62
     4
 10
1804.06004622
 20
284.8999836
 30
0.0
 11
2399.7200004
 21
284.8999836
 31
0.0
  0
LINE
  8
0
  6
CONTINUOUS
 62
     4
 10
1788.7200474
 20
201.69999
 30
0.0
 11
2399.7200004
 21
201.69999
 31
0.0
  0
TEXT
  8
0
  6
CONTINUOUS
 62
     4
 10
1799.1200466
 20
183.4999914
 30
1.03999992
 40
10.3999992
  1
ＤＲＡＷＩＮＧ　ＮＯ．
 50
0.0
 41
0.8
 51
0.0
  7
KANJI9
  0
TEXT
  8
0
  6
CONTINUOUS
 62
     4
 10
1799.1200466
 20
225.0999882
 30
1.03999992
 40
10.3999992
  1
ＭＦＧ　ＮＯ．
 50
0.0
 41
0.8
 51
0.0
  7
KANJI9
  0
TEXT
  8
0
  6
CONTINUOUS
 62
     4
 10
1799.1200466
 20
266.699985
 30
1.03999992
 40
10.3999992
  1
ＴＹＰＥ
 50
0.0
 41
0.8
 51
0.0
  7
KANJI9
  0
LINE
  8
0
  6
CONTINUOUS
 62
     4
 10
1804.3200462
 20
243.2999868
 30
0.0
 11
2043.5200278
 21
243.2999868
 31
0.0
  0
TEXT
  8
0
  6
CONTINUOUS
 62
     4
 10
1799.1200466
 20
165.2999928
 30
1.247999904
 40
12.47999904
  1
図　面　番　号
 50
0.0
 41
0.8
 51
0.0
  7
KANJI10
  0
TEXT
  8
0
  6
CONTINUOUS
 62
     4
 10
1799.1200466
 20
206.8999896
 30
1.247999904
 40
12.47999904
  1
製番
 50
0.0
 41
0.8
 51
0.0
  7
KANJI10
  0
TEXT
  8
0
  6
CONTINUOUS
 62
     4
 10
1799.1200466
 20
248.4999864
 30
1.247999904
 40
12.47999904
  1
機種
 50
0.0
 41
0.8
 51
0.0
  7
KANJI10
  0
LINE
  8
0
  6
CONTINUOUS
 62
     4
 10
1598.920062
 20
160.0999932
 30
0.0
 11
1788.7200474
 21
160.0999932
 31
0.0
  0
TEXT
  8
0
  6
CONTINUOUS
 62
     4
 10
1609.3200612
 20
141.8999946
 30
1.03999992
 40
10.3999992
  1
ＤＡＴＥ
 50
0.0
 41
0.6
 51
0.0
  7
KANJI4
  0
TEXT
  8
0
  6
CONTINUOUS
 62
     4
 10
1609.3200612
 20
126.2999958
 30
1.247999904
 40
12.47999904
  1
日付
 50
0.0
 41
0.6
 51
0.0
  7
KANJI5
  0
TEXT
  8
0
  6
CONTINUOUS
 62
     4
 10
1609.3200612
 20
167.8999926
 30
1.247999904
 40
12.47999904
  1
作図
 50
0.0
 41
0.6
 51
0.0
  7
KANJI5
  0
LINE
  8
0
  6
CONTINUOUS
 62
     4
 10
1788.7200474
 20
141.8999946
 30
0.0
 11
2399.7200004
 21
141.8999946
 31
0.0
  0
LINE
  8
0
  6
LTYPE1
 62
     4
 10
2225.5200138
 20
149.699994
 30
0.0
 11
2225.5200138
 21
191.2999908
 31
0.0
  0
LINE
  8
0
  6
LTYPE1
 62
     4
 10
2189.1200166
 20
149.699994
 30
0.0
 11
2189.1200166
 21
191.2999908
 31
0.0
  0
LINE
  8
0
  6
LTYPE1
 62
     4
 10
2152.7200194
 20
149.699994
 30
0.0
 11
2152.7200194
 21
191.2999908
 31
0.0
  0
LINE
  8
0
  6
LTYPE1
 62
     4
 10
2116.3200222
 20
149.699994
 30
0.0
 11
2116.3200222
 21
191.2999908
 31
0.0
  0
LINE
  8
0
  6
LTYPE1
 62
     4
 10
2079.920025
 20
149.699994
 30
0.0
 11
2079.920025
 21
191.2999908
 31
0.0
  0
LINE
  8
0
  6
LTYPE1
 62
     4
 10
2043.5200278
 20
149.699994
 30
0.0
 11
2043.5200278
 21
191.2999908
 31
0.0
  0
LINE
  8
0
  6
LTYPE1
 62
     4
 10
2007.1200306
 20
149.699994
 30
0.0
 11
2007.1200306
 21
191.2999908
 31
0.0
  0
LINE
  8
0
  6
LTYPE1
 62
     4
 10
1970.7200334
 20
149.699994
 30
0.0
 11
1970.7200334
 21
191.2999908
 31
0.0
  0
LINE
  8
0
  6
LTYPE1
 62
     4
 10
1970.7200334
 20
191.2999908
 30
0.0
 11
2225.5200138
 21
191.2999908
 31
0.0
  0
LINE
  8
0
  6
LTYPE1
 62
     4
 10
1970.7200334
 20
149.699994
 30
0.0
 11
2225.5200138
 21
149.699994
 31
0.0
  0
LINE
  8
0
  6
CONTINUOUS
 62
     4
 10
2246.3200122
 20
171.7999923
 30
0.0
 11
2256.7200114
 21
171.7999923
 31
0.0
  0
LINE
  8
0
  6
CONTINUOUS
 62
     4
 10
2311.3200072
 20
156.1999935
 30
0.0
 11
2274.92001
 21
156.1999935
 31
0.0
  0
LINE
  8
0
  6
CONTINUOUS
 62
     4
 10
2274.92001
 20
156.1999935
 30
0.0
 11
2293.1200086
 21
187.3999911
 31
0.0
  0
LINE
  8
0
  6
CONTINUOUS
 62
     4
 10
2293.1200086
 20
187.3999911
 30
0.0
 11
2311.3200072
 21
156.1999935
 31
0.0
  0
TEXT
  8
0
  6
CONTINUOUS
 62
     4
 10
2059.1200266
 20
266.699985
 30
1.03999992
 40
10.3999992
  1
ＴＩＴＬＥ
 50
0.0
 41
0.8
 51
0.0
  7
KANJI9
  0
TEXT
  8
0
  6
CONTINUOUS
 62
     4
 10
2059.1200266
 20
248.4999864
 30
1.247999904
 40
12.47999904
  1
名称
 50
0.0
 41
0.8
 51
0.0
  7
KANJI10
  0
TEXT
  8
0
  6
CONTINUOUS
 62
     2
 10
2143.92
 20
209.7
 30
15.0
 40
30.0
  1
外形寸法図
 50
0.0
 41
1.0
 51
0.0
  7
KANJI11
  0
TEXT
  8
0
  6
CONTINUOUS
 62
     2
 10
2107.92
 20
245.7
 30
4.285714286
 40
30.0
  1
マイティシリンダ
 50
0.0
 41
1.0
 51
0.0
  7
KANJI12
  0
TEXT
  8
0
  6
CONTINUOUS
 62
     2
 10
1939.2200334
 20
155.699994
 30
1.8
 40
30.0
  1
Ａ
 50
0.0
 41
0.8
 51
0.0
  7
KANJI13
  0
CIRCLE
  8
0
  6
CONTINUOUS
 62
     2
 10
1900.2200334
 20
220.199994
 30
0.0
 40
15.0
  0
TEXT
  8
0
  6
CONTINUOUS
 62
     2
 10
1888.9700334
 20
208.949994
 30
1.8
 40
24.0
  1
Ｓ
 50
0.0
 41
1.0
 51
0.0
  7
KANJI14
  0
LINE
  8
0
  6
CONTINUOUS
 62
     6
 10
2005.703030709
 20
120.683996232
 30
0.0
 11
1990.727031861
 21
120.683996232
 31
0.0
  0
LINE
  8
0
  6
CONTINUOUS
 62
     6
 10
2009.447030421
 20
120.683996232
 30
0.0
 11
2024.423029269
 21
120.683996232
 31
0.0
  0
TEXT
  8
0
  6
CONTINUOUS
 62
     2
 10
1665.9200334
 20
170.699994
 30
6.0
 40
21.0
  1
岡田
 50
0.0
 41
0.857142857
 51
0.0
  7
KANJI15
  0
LINE
  8
0
  6
CONTINUOUS
 62
     4
 10
2399.7200004
 20
368.0999772
 30
0.0
 11
2399.7200004
 21
409.699974
 31
0.0
  0
LINE
  8
0
  6
CONTINUOUS
 62
     6
 10
1599.670062
 20
368.0999772
 30
0.0
 11
2400.4700004
 21
368.0999772
 31
0.0
  0
LINE
  8
0
  6
CONTINUOUS
 62
     6
 10
1598.920062
 20
409.699974
 30
0.0
 11
2399.7200004
 21
409.699974
 31
0.0
  0
TEXT
  8
0
  6
CONTINUOUS
 62
     4
 10
1617.42
 20
374.2999968
 30
6.0
 40
21.6
  1
ご用途
 50
0.0
 41
1.111111111
 51
0.0
  7
KANJI8
  0
LINE
  8
0
  6
CONTINUOUS
 62
     1
 10
1873.92
 20
770.7
 30
0.0
 11
2398.92
 21
770.7
 31
0.0
  0
LINE
  8
0
  6
CONTINUOUS
 62
     2
 10
1873.92
 20
854.7
 30
0.0
 11
2398.92
 21
854.7
 31
0.0
  0
LINE
  8
0
  6
CONTINUOUS
 62
     2
 10
1873.92
 20
812.7
 30
0.0
 11
2398.92
 21
812.7
 31
0.0
  0
LINE
  8
0
  6
CONTINUOUS
 62
     2
 10
1921.92
 20
1190.7
 30
0.0
 11
1921.92
 21
854.7
 31
0.0
  0
TEXT
  8
0
  6
CONTINUOUS
 62
     2
 10
1906.92
 20
823.5
 30
79.962857143
 40
22.8
  1
付属品
 50
0.0
 41
0.9
 51
0.0
  7
KANJI16
  0
TEXT
  8
0
  6
CONTINUOUS
 62
     2
 10
1906.92
 20
781.5
 30
180.445714286
 40
22.8
  1
台数
 50
0.0
 41
0.9
 51
0.0
  7
KANJI17
  0
LINE
  8
0
  6
CONTINUOUS
 62
     1
 10
1873.92
 20
1586.7
 30
0.0
 11
1873.92
 21
770.7
 31
0.0
  0
LINE
  8
0
  6
CONTINUOUS
 62
     1
 10
1873.92
 20
1586.7
 30
0.0
 11
2398.92
 21
1586.7
 31
0.0
  0
TEXT
  8
0
  6
CONTINUOUS
 62
     2
 10
1948.92
 20
1542.9
 30
17.09964
 40
27.0
  1
マイティシリンダ仕様
 50
0.0
 41
0.9
 51
0.0
  7
KANJI18
  0
LINE
  8
0
  6
CONTINUOUS
 62
     2
 10
1921.92
 20
896.7
 30
0.0
 11
2398.92
 21
896.7
 31
0.0
  0
LINE
  8
0
  6
CONTINUOUS
 62
     2
 10
1921.92
 20
1022.7
 30
0.0
 11
2398.92
 21
1022.7
 31
0.0
  0
LINE
  8
0
  6
CONTINUOUS
 62
     2
 10
1921.92
 20
1064.7
 30
0.0
 11
2398.92
 21
1064.7
 31
0.0
  0
LINE
  8
0
  6
CONTINUOUS
 62
     2
 10
1873.92
 20
1274.7
 30
0.0
 11
2398.92
 21
1274.7
 31
0.0
  0
LINE
  8
0
  6
CONTINUOUS
 62
     2
 10
1873.92
 20
1232.7
 30
0.0
 11
2398.92
 21
1232.7
 31
0.0
  0
LINE
  8
0
  6
CONTINUOUS
 62
     2
 10
1873.92
 20
1190.7
 30
0.0
 11
2398.92
 21
1190.7
 31
0.0
  0
LINE
  8
0
  6
CONTINUOUS
 62
     2
 10
1921.92
 20
1106.7
 30
0.0
 11
2398.92
 21
1106.7
 31
0.0
  0
LINE
  8
0
  6
CONTINUOUS
 62
     2
 10
1921.92
 20
1148.7
 30
0.0
 11
2398.92
 21
1148.7
 31
0.0
  0
LINE
  8
0
  6
CONTINUOUS
 62
     2
 10
1873.92
 20
1484.7
 30
0.0
 11
2398.92
 21
1484.7
 31
0.0
  0
LINE
  8
0
  6
CONTINUOUS
 62
     2
 10
1873.92
 20
1442.7
 30
0.0
 11
2398.92
 21
1442.7
 31
0.0
  0
LINE
  8
0
  6
CONTINUOUS
 62
     2
 10
1873.92
 20
1400.7
 30
0.0
 11
2398.92
 21
1400.7
 31
0.0
  0
LINE
  8
0
  6
CONTINUOUS
 62
     2
 10
1873.92
 20
1358.7
 30
0.0
 11
2398.92
 21
1358.7
 31
0.0
  0
LINE
  8
0
  6
CONTINUOUS
 62
     2
 10
1873.92
 20
1316.7
 30
0.0
 11
2398.92
 21
1316.7
 31
0.0
  0
LINE
  8
0
  6
CONTINUOUS
 62
     2
 10
1873.92
 20
1526.7
 30
0.0
 11
2398.92
 21
1526.7
 31
0.0
  0
TEXT
  8
0
  6
CONTINUOUS
 62
     2
 10
1948.92
 20
1117.5
 30
33.439782857
 40
22.8
  1
電源電圧
 50
0.0
 41
0.9
 51
0.0
  7
KANJI19
  0
TEXT
  8
0
  6
CONTINUOUS
 62
     2
 10
1948.92
 20
1075.5
 30
60.42
 40
22.8
  1
周波数
 50
0.0
 41
0.9
 51
0.0
  7
KANJI20
  0
TEXT
  8
0
  6
CONTINUOUS
 62
     2
 10
1948.92
 20
1033.5
 30
141.36
 40
22.8
  1
電流
 50
0.0
 41
0.9
 51
0.0
  7
KANJI21
  0
TEXT
  8
0
  6
CONTINUOUS
 62
     2
 10
1948.92
 20
991.5
 30
60.42
 40
22.8
  1
絶縁級
 50
0.0
 41
0.9
 51
0.0
  7
KANJI20
  0
LINE
  8
0
  6
CONTINUOUS
 62
     2
 10
2149.92
 20
1526.7
 30
0.0
 11
2149.92
 21
770.7
 31
0.0
  0
TEXT
  8
0
  6
CONTINUOUS
 62
     2
 10
1906.92
 20
1495.5
 30
180.445714286
 40
22.8
  1
形式
 50
0.0
 41
0.9
 51
0.0
  7
KANJI17
  0
TEXT
  8
0
  6
CONTINUOUS
 62
     2
 10
1906.92
 20
1453.5
 30
180.445714286
 40
22.8
  1
推力
 50
0.0
 41
0.9
 51
0.0
  7
KANJI17
  0
TEXT
  8
0
  6
CONTINUOUS
 62
     2
 10
1906.92
 20
1411.5
 30
29.721428571
 40
22.8
  1
ストローク
 50
0.0
 41
0.9
 51
0.0
  7
KANJI22
  0
TEXT
  8
0
  6
CONTINUOUS
 62
     2
 10
1906.92
 20
1285.5
 30
180.445714286
 40
22.8
  1
構造
 50
0.0
 41
0.9
 51
0.0
  7
KANJI17
  0
TEXT
  8
0
  6
CONTINUOUS
 62
     2
 10
1906.92
 20
1243.5
 30
12.973851429
 40
22.8
  1
過負荷安全装置
 50
0.0
 41
0.9
 51
0.0
  7
KANJI23
  0
TEXT
  8
0
  6
CONTINUOUS
 62
     2
 10
1906.92
 20
1201.5
 30
79.962857143
 40
22.8
  1
塗装色
 50
0.0
 41
0.9
 51
0.0
  7
KANJI16
  0
TEXT
  8
0
  6
CONTINUOUS
 62
     2
 10
1882.92
 20
1327.5
 30
1.954285714
 40
22.8
  1
ピストンロッド回転トルク
 50
0.0
 41
0.9
 51
0.0
  7
KANJI24
  0
LINE
  8
0
  6
CONTINUOUS
 62
     2
 10
1873.92
 20
980.7
 30
0.0
 11
2398.92
 21
980.7
 31
0.0
  0
LINE
  8
0
  6
CONTINUOUS
 62
     2
 10
1921.92
 20
938.7
 30
0.0
 11
2398.92
 21
938.7
 31
0.0
  0
TEXT
  8
0
  6
CONTINUOUS
 62
     2
 10
1898.37
 20
1184.7
 30
13.2
 40
21.0
  1
モ　トル仕様
 50
0.0
 41
0.9
 51
0.0
  7
KANJI25
  0
TEXT
  8
0
  6
CONTINUOUS
 62
     2
 10
1898.37
 20
962.7
 30
1.2
 40
21.0
  1
ブレ　キ
 50
0.0
 41
0.9
 51
0.0
  7
KANJI26
  0
LINE
  8
0
  6
CONTINUOUS
 62
     2
 10
1896.72
 20
912.9
 30
0.0
 11
1896.72
 21
900.3
 31
0.0
  0
TEXT
  8
0
  6
CONTINUOUS
 62
     2
 10
2208.42
 20
1244.7
 30
9.0
 40
21.0
  1
推力リミッタ
 50
0.0
 41
0.9
 51
0.0
  7
KANJI27
  0
TEXT
  8
0
  6
CONTINUOUS
 62
     2
 10
2265.42
 20
992.7
 30
1.8
 40
18.0
  1
Ｅ
 50
0.0
 41
0.9
 51
0.0
  7
KANJI28
  0
TEXT
  8
0
  6
CONTINUOUS
 62
     2
 10
1948.92
 20
949.5
 30
141.36
 40
22.8
  1
形式
 50
0.0
 41
0.9
 51
0.0
  7
KANJI21
  0
TEXT
  8
0
  6
CONTINUOUS
 62
     2
 10
1948.92
 20
907.5
 30
33.439782857
 40
22.8
  1
操作方式
 50
0.0
 41
0.9
 51
0.0
  7
KANJI19
  0
LINE
  8
0
  6
CONTINUOUS
 62
     2
 10
1896.72
 20
1148.1
 30
0.0
 11
1896.72
 21
1134.3
 31
0.0
  0
LINE
  8
0
  6
CONTINUOUS
 62
     1
 10
2398.92
 20
1586.7
 30
0.0
 11
2398.92
 21
770.7
 31
0.0
  0
TEXT
  8
0
  6
CONTINUOUS
 62
     2
 10
1948.92
 20
1159.5
 30
3.0
 40
22.8
  1
出力　相数　極数
 50
0.0
 41
0.9
 51
0.0
  7
KANJI29
  0
TEXT
  8
0
  6
CONTINUOUS
 62
     2
 10
1906.92
 20
1369.5
 30
12.0
 40
22.8
  1
公称速度
 50
0.0
 41
0.9
 51
0.0
  7
KANJI30
  0
TEXT
  8
0
  6
CONTINUOUS
 62
     2
 10
2030.82
 20
1368.3
 30
0.0
 40
21.0
  1
（５０／６０Ｈｚ）
 50
0.0
 41
0.628571429
 51
0.0
  7
KANJI31
  0
TEXT
  8
0
  6
CONTINUOUS
 62
     2
 10
2151.42
 20
949.95
 30
3.3
 40
20.4
  1
スプリング制動式電磁ブレーキ
 50
0.0
 41
0.705882353
 51
0.0
  7
KANJI32
  0
TEXT
  8
0
  6
CONTINUOUS
 62
     2
 10
2370.42
 20
1117.5
 30
0.216
 40
18.0
  1
Ｖ
 50
0.0
 41
0.8
 51
0.0
  7
KANJI33
  0
TEXT
  8
0
  6
CONTINUOUS
 62
     2
 10
2359.62
 20
1075.5
 30
0.216
 40
18.0
  1
Ｈｚ
 50
0.0
 41
0.8
 51
0.0
  7
KANJI33
  0
TEXT
  8
0
  6
CONTINUOUS
 62
     2
 10
2370.42
 20
1033.5
 30
0.216
 40
18.0
  1
Ａ
 50
0.0
 41
0.8
 51
0.0
  7
KANJI33
  0
TEXT
  8
0
  6
CONTINUOUS
 62
     2
 10
2291.52
 20
1160.7
 30
1.8
 40
18.0
  1
３φ
 50
0.0
 41
0.9
 51
0.0
  7
KANJI28
  0
TEXT
  8
0
  6
CONTINUOUS
 62
     2
 10
2351.52
 20
1160.7
 30
1.8
 40
18.0
  1
４Ｐ
 50
0.0
 41
0.9
 51
0.0
  7
KANJI28
  0
TEXT
  8
0
  6
CONTINUOUS
 62
     2
 10
2149.92
 20
1202.7
 30
1.2
 40
19.2
  1
マンセル　７．５ＧＹ　５／４．５
 50
0.0
 41
0.71875
 51
0.0
  7
KANJI34
  0
TEXT
  8
0
  6
CONTINUOUS
 62
     2
 10
2149.92
 20
1118.7
 30
1.8
 40
18.0
  1
　　　　　　　／　　　
 50
0.0
 41
0.9
 51
0.0
  7
KANJI28
  0
TEXT
  8
0
  6
CONTINUOUS
 62
     2
 10
2149.92
 20
1076.7
 30
1.8
 40
18.0
  1
　　　　５０／　６０
 50
0.0
 41
0.9
 51
0.0
  7
KANJI28
  0
TEXT
  8
0
  6
CONTINUOUS
 62
     2
 10
2149.92
 20
1034.7
 30
1.8
 40
18.0
  1
　　　　　　　／　　　
 50
0.0
 41
0.9
 51
0.0
  7
KANJI28
  0
TEXT
  8
0
  6
CONTINUOUS
 62
     2
 10
2354.52
 20
1413.9
 30
0.1536
 40
19.2
  1
ｍｍ
 50
0.0
 41
0.8
 51
0.0
  7
KANJI35
  0
TEXT
  8
0
  6
CONTINUOUS
 62
     2
 10
2208.42
 20
1286.7
 30
9.0
 40
21.0
  1
全閉屋内形
 50
0.0
 41
0.9
 51
0.0
  7
KANJI27
  0
TEXT
  8
0
  6
CONTINUOUS
 62
     2
 10
2315.52
 20
1370.7
 30
0.0
 40
21.0
  1
ｍｍ／ｓｅｃ
 50
0.0
 41
0.571428571
 51
0.0
  7
KANJI36
  0
TEXT
  8
0
  6
CONTINUOUS
 62
     2
 10
1708.92
 20
83.7
 30
1.8
 40
27.0
  1
１／６
 50
0.0
 41
0.666666667
 51
0.0
  7
KANJI37
  0
TEXT
  8
0
  6
CONTINUOUS
 62
     2
 10
2193.72
 20
1454.7
 30
1.8
 40
18.0
  1
１９．６ＫＮ（２ｔｏｎ）
 50
0.0
 41
0.9
 51
0.0
  7
KANJI28
  0
TEXT
  8
0
  6
CONTINUOUS
 62
     2
 10
2221.92
 20
907.5
 30
12.0
 40
21.0
  1
別切り
 50
0.0
 41
0.9
 51
0.0
  7
KANJI38
  0
TEXT
  8
0
  6
CONTINUOUS
 62
     2
 10
2163.42
 20
1494.6
 30
1.2
 40
18.0
  1
ＭＣＬＥ２Ｃ－　
 50
0.0
 41
0.833333333
 51
0.0
  7
KANJI39
  0
TEXT
  8
0
  6
CONTINUOUS
 62
     2
 10
2152.92
 20
1370.7
 30
1.8
 40
18.0
  1
　５０／６０
 50
0.0
 41
0.9
 51
0.0
  7
KANJI28
  0
TEXT
  8
0
  6
CONTINUOUS
 62
     2
 10
2164.92
 20
1328.7
 30
0.0
 40
18.0
  1
　３９Ｎ．ｍ（４ｋｇ．ｍ）
 50
0.0
 41
0.833333333
 51
0.0
  7
KANJI40
  0
TEXT
  8
0
  6
CONTINUOUS
 62
     2
 10
2155.92
 20
1160.7
 30
1.8
 40
18.0
  1
　１．５ＫＷ
 50
0.0
 41
0.9
 51
0.0
  7
KANJI28
  0
TEXT
  8
0
  6
CONTINUOUS
 62
     2
 10
1976.7200334
 20
155.699994
 30
13.0
 40
30.0
  1
３００１４２９
 50
0.0
 41
0.8
 51
0.0
  7
KANJI41
  0
TEXT
  8
0
  6
CONTINUOUS
 62
     2
 10
2285.3200122
 20
158.7999923
 30
0.0
 40
18.0
  1
１
 50
0.0
 41
0.9
 51
0.0
  7
KANJI42
  0
POLYLINE
  8
0
  6
CONTINUOUS
 62
     4
 66
     1
  0
VERTEX
  8
0
  6
CONTINUOUS
 62
     4
 10
1210.2200919
 20
152.2999938
 30
0.0
  0
VERTEX
  8
0
  6
CONTINUOUS
 62
     4
 10
1193.3200932
 20
126.2999958
 30
0.0
  0
VERTEX
  8
0
  6
CONTINUOUS
 62
     4
 10
1227.1200906
 20
126.2999958
 30
0.0
  0
SEQEND
  0
LINE
  8
0
  6
CONTINUOUS
 62
     4
 10
1210.2200919
 20
152.2999938
 30
0.0
 11
1227.1200906
 21
126.2999958
 31
0.0
  0
TEXT
  8
0
  6
CONTINUOUS
 62
     2
 10
1204.3200902
 20
127.4999964
 30
0.0
 40
18.0
  1
１
 50
0.0
 41
0.9
 51
0.0
  7
KANJI42
  0
LINE
  8
0
  6
CONTINUOUS
 62
     1
 10
1604.0178
 20
1669.79972
 30
0.0
 11
1604.0178
 21
1539.80024
 31
0.0
  0
LINE
  8
0
  6
CONTINUOUS
 62
     2
 10
1529.0181
 20
1669.79972
 30
0.0
 11
1529.0181
 21
1539.80024
 31
0.0
  0
LINE
  8
0
  6
CONTINUOUS
 62
     2
 10
1454.0184
 20
1669.79972
 30
0.0
 11
1454.0184
 21
1539.80024
 31
0.0
  0
LINE
  8
0
  6
CONTINUOUS
 62
     1
 10
1354.0188
 20
1669.79972
 30
0.0
 11
1354.0188
 21
1539.80024
 31
0.0
  0
LINE
  8
0
  6
CONTINUOUS
 62
     1
 10
1354.0188
 20
1669.79972
 30
0.0
 11
1604.0178
 21
1669.79972
 31
0.0
  0
LINE
  8
0
  6
CONTINUOUS
 62
     1
 10
1354.0188
 20
1629.79988
 30
0.0
 11
1604.0178
 21
1629.79988
 31
0.0
  0
LINE
  8
0
  6
CONTINUOUS
 62
     2
 10
1354.0188
 20
1599.8
 30
0.0
 11
1604.0178
 21
1599.8
 31
0.0
  0
LINE
  8
0
  6
CONTINUOUS
 62
     2
 10
1354.0188
 20
1569.80012
 30
0.0
 11
1604.0178
 21
1569.80012
 31
0.0
  0
LINE
  8
0
  6
CONTINUOUS
 62
     1
 10
1354.0188
 20
1539.80024
 30
0.0
 11
1604.0178
 21
1539.80024
 31
0.0
  0
TEXT
  8
0
  6
CONTINUOUS
 62
     2
 10
1539.01806
 20
1652.29979
 30
1.499994
 40
14.99994
  1
起動電流
 50
0.0
 41
0.9
 51
0.0
  7
KANJI43
  0
TEXT
  8
0
  6
CONTINUOUS
 62
     2
 10
1539.01806
 20
1634.79986
 30
1.499994
 40
14.99994
  1
　　　Ａ
 50
0.0
 41
0.9
 51
0.0
  7
KANJI43
  0
TEXT
  8
0
  6
CONTINUOUS
 62
     2
 10
1464.01836
 20
1652.29979
 30
1.499994
 40
14.99994
  1
定格電流
 50
0.0
 41
0.9
 51
0.0
  7
KANJI43
  0
TEXT
  8
0
  6
CONTINUOUS
 62
     2
 10
1464.01836
 20
1634.79986
 30
1.499994
 40
14.99994
  1
　　　Ａ
 50
0.0
 41
0.9
 51
0.0
  7
KANJI43
  0
TEXT
  8
0
  6
CONTINUOUS
 62
     2
 10
1362.518766
 20
1577.30009
 30
1.499994
 40
14.99994
  1
２００／６０
 50
0.0
 41
0.9
 51
0.0
  7
KANJI43
  0
TEXT
  8
0
  6
CONTINUOUS
 62
     2
 10
1362.518766
 20
1652.29979
 30
1.499994
 40
14.99994
  1
電圧／周波数
 50
0.0
 41
0.9
 51
0.0
  7
KANJI43
  0
TEXT
  8
0
  6
CONTINUOUS
 62
     2
 10
1362.518766
 20
1634.79986
 30
1.499994
 40
14.99994
  1
　Ｖ／Ｈｚ
 50
0.0
 41
0.9
 51
0.0
  7
KANJI43
  0
TEXT
  8
0
  6
CONTINUOUS
 62
     2
 10
1362.518766
 20
1607.29997
 30
1.499994
 40
14.99994
  1
２００／５０
 50
0.0
 41
0.9
 51
0.0
  7
KANJI43
  0
TEXT
  8
0
  6
CONTINUOUS
 62
     2
 10
1362.518766
 20
1547.30021
 30
1.499994
 40
14.99994
  1
２２０／６０
 50
0.0
 41
0.9
 51
0.0
  7
KANJI43
  0
LINE
  8
0
  6
CONTINUOUS
 62
     1
 10
1304.019
 20
1669.79972
 30
0.0
 11
1304.019
 21
1539.80024
 31
0.0
  0
LINE
  8
0
  6
CONTINUOUS
 62
     2
 10
1229.0193
 20
1669.79972
 30
0.0
 11
1229.0193
 21
1539.80024
 31
0.0
  0
LINE
  8
0
  6
CONTINUOUS
 62
     2
 10
1154.0196
 20
1669.79972
 30
0.0
 11
1154.0196
 21
1539.80024
 31
0.0
  0
LINE
  8
0
  6
CONTINUOUS
 62
     1
 10
1054.02
 20
1669.79972
 30
0.0
 11
1304.019
 21
1669.79972
 31
0.0
  0
LINE
  8
0
  6
CONTINUOUS
 62
     1
 10
1054.02
 20
1629.79988
 30
0.0
 11
1304.019
 21
1629.79988
 31
0.0
  0
LINE
  8
0
  6
CONTINUOUS
 62
     2
 10
1054.02
 20
1599.8
 30
0.0
 11
1304.019
 21
1599.8
 31
0.0
  0
LINE
  8
0
  6
CONTINUOUS
 62
     2
 10
1054.02
 20
1569.80012
 30
0.0
 11
1304.019
 21
1569.80012
 31
0.0
  0
LINE
  8
0
  6
CONTINUOUS
 62
     1
 10
1054.02
 20
1539.80024
 30
0.0
 11
1304.019
 21
1539.80024
 31
0.0
  0
TEXT
  8
0
  6
CONTINUOUS
 62
     2
 10
1239.01926
 20
1652.29979
 30
1.499994
 40
14.99994
  1
起動電流
 50
0.0
 41
0.9
 51
0.0
  7
KANJI43
  0
TEXT
  8
0
  6
CONTINUOUS
 62
     2
 10
1239.01926
 20
1634.79986
 30
1.499994
 40
14.99994
  1
　　　Ａ
 50
0.0
 41
0.9
 51
0.0
  7
KANJI43
  0
TEXT
  8
0
  6
CONTINUOUS
 62
     2
 10
1164.01956
 20
1652.29979
 30
1.499994
 40
14.99994
  1
定格電流
 50
0.0
 41
0.9
 51
0.0
  7
KANJI43
  0
TEXT
  8
0
  6
CONTINUOUS
 62
     2
 10
1164.01956
 20
1634.79986
 30
1.499994
 40
14.99994
  1
　　　Ａ
 50
0.0
 41
0.9
 51
0.0
  7
KANJI43
  0
TEXT
  8
0
  6
CONTINUOUS
 62
     2
 10
1062.519966
 20
1652.29979
 30
1.499994
 40
14.99994
  1
電圧／周波数
 50
0.0
 41
0.9
 51
0.0
  7
KANJI43
  0
TEXT
  8
0
  6
CONTINUOUS
 62
     2
 10
1062.519966
 20
1634.79986
 30
1.499994
 40
14.99994
  1
　Ｖ／Ｈｚ
 50
0.0
 41
0.9
 51
0.0
  7
KANJI43
  0
TEXT
  8
0
  6
CONTINUOUS
 62
     2
 10
1062.519966
 20
1607.29997
 30
1.499994
 40
14.99994
  1
４００／５０
 50
0.0
 41
0.9
 51
0.0
  7
KANJI43
  0
TEXT
  8
0
  6
CONTINUOUS
 62
     2
 10
1062.519966
 20
1577.30009
 30
1.499994
 40
14.99994
  1
４００／６０
 50
0.0
 41
0.9
 51
0.0
  7
KANJI43
  0
TEXT
  8
0
  6
CONTINUOUS
 62
     2
 10
1062.519966
 20
1547.30021
 30
1.499994
 40
14.99994
  1
４４０／６０
 50
0.0
 41
0.9
 51
0.0
  7
KANJI43
  0
TEXT
  8
0
  6
CONTINUOUS
 62
     2
 10
1097.269827
 20
1513.13368
 30
1.749993
 40
17.49993
  1
注意：サーマルリレー等の選定は、上記の値を参照下さい。
 50
0.0
 41
0.9
 51
0.0
  7
KANJI44
  0
LINE
  8
0
  6
CONTINUOUS
 62
     2
 10
1089.269867
 20
1508.1337
 30
0.0
 11
1559.267987
 21
1508.1337
 31
0.0
  0
TEXT
  8
0
  6
CONTINUOUS
 62
     2
 10
1164.01956
 20
1607.29997
 30
1.499994
 40
14.99994
  1
　　３．４
 50
0.0
 41
0.9
 51
0.0
  7
KANJI43
  0
TEXT
  8
0
  6
CONTINUOUS
 62
     2
 10
1164.01956
 20
1547.30021
 30
1.499994
 40
14.99994
  1
　　３．０
 50
0.0
 41
0.9
 51
0.0
  7
KANJI43
  0
TEXT
  8
0
  6
CONTINUOUS
 62
     2
 10
1464.01836
 20
1607.29997
 30
1.499994
 40
14.99994
  1
　　６．８
 50
0.0
 41
0.9
 51
0.0
  7
KANJI43
  0
TEXT
  8
0
  6
CONTINUOUS
 62
     2
 10
1464.01836
 20
1547.30021
 30
1.499994
 40
14.99994
  1
　　６．０
 50
0.0
 41
0.9
 51
0.0
  7
KANJI43
  0
TEXT
  8
0
  6
CONTINUOUS
 62
     2
 10
1539.01806
 20
1607.29997
 30
1.499994
 40
14.99994
  1
４４．０
 50
0.0
 41
0.9
 51
0.0
  7
KANJI43
  0
LINE
  8
0
  6
CONTINUOUS
 62
     1
 10
1054.02
 20
1669.79972
 30
0.0
 11
1054.02
 21
1539.80024
 31
0.0
  0
TEXT
  8
0
  6
CONTINUOUS
 62
     2
 10
1164.01956
 20
1577.30009
 30
1.499994
 40
14.99994
  1
　　３．１
 50
0.0
 41
0.9
 51
0.0
  7
KANJI43
  0
TEXT
  8
0
  6
CONTINUOUS
 62
     2
 10
1464.01836
 20
1577.30009
 30
1.499994
 40
14.99994
  1
　　６．２
 50
0.0
 41
0.9
 51
0.0
  7
KANJI43
  0
LINE
  8
0
  6
CONTINUOUS
 62
     6
 10
356.629425053
 20
1631.447759827
 30
0.0
 11
124.584646507
 21
1631.447759827
 31
0.0
  0
LINE
  8
0
  6
CONTINUOUS
 62
     3
 10
356.629425053
 20
1603.985259827
 30
0.0
 11
124.584646507
 21
1603.985259827
 31
0.0
  0
LINE
  8
0
  6
CONTINUOUS
 62
     6
 10
356.629425053
 20
1603.985259827
 30
0.0
 11
124.584646507
 21
1603.985259827
 31
0.0
  0
TEXT
  8
0
  6
CONTINUOUS
 62
     6
 10
382.212228
 20
1628.900410728
 30
1.232517
 40
13.182
  1
電気定格　　　
 50
0.0
 41
0.85
 51
0.0
  7
KANJI45
  0
TEXT
  8
0
  6
CONTINUOUS
 62
     6
 10
128.493517202
 20
1634.64592676
 30
1.0647
 40
11.661
  1
ＬＳ０１　　　：推力リミッタ（前進時過負荷用）
 50
0.0
 41
0.822608696
 51
0.0
  7
KANJI46
  0
TEXT
  8
0
  6
CONTINUOUS
 62
     6
 10
128.493517202
 20
1607.18342676
 30
1.0647
 40
11.661
  1
ＬＳ０２　　　：推力リミッタ（後進時過負荷用）
 50
0.0
 41
0.822608696
 51
0.0
  7
KANJI46
  0
TEXT
  8
0
  6
CONTINUOUS
 62
     6
 10
395.013715102
 20
1598.326958599
 30
0.0
 40
11.8638
  1
ＤＣ１２５Ｖ　０．６Ａ　，ＤＣ２５０Ｖ　０．３Ａ　
 50
0.0
 41
0.726495726
 51
0.0
  7
KANJI47
  0
LINE
  8
0
  6
LTYPE2
 62
     6
 10
655.02
 20
1658.9
 30
0.0
 11
106.62
 21
1658.9
 31
0.0
  0
TEXT
  8
0
  6
CONTINUOUS
 62
     6
 10
389.757132178
 20
1646.661726126
 30
0.0
 40
45.0
  1
｝
 50
0.0
 41
0.538166667
 51
0.0
  7
KANJI48
  0
TEXT
  8
0
  6
CONTINUOUS
 62
     6
 10
319.632791539
 20
1417.92382165
 30
0.0
 40
17.740702234
  1
端子台　接続図
 50
0.0
 41
0.880962996
 51
0.0
  7
KANJI49
  0
LINE
  8
0
  6
LTYPE2
 62
     6
 10
655.02
 20
1399.9
 30
0.0
 11
655.02
 21
1658.9
 31
0.0
  0
LINE
  8
0
  6
LTYPE2
 62
     6
 10
106.62
 20
1399.9
 30
0.0
 11
655.02
 21
1399.9
 31
0.0
  0
LINE
  8
0
  6
LTYPE2
 62
     6
 10
106.62
 20
1658.9
 30
0.0
 11
106.62
 21
1399.9
 31
0.0
  0
LINE
  8
0
  6
CONTINUOUS
 62
     2
 10
354.597373465
 20
1468.928121884
 30
0.0
 11
354.597373465
 21
1446.149155128
 31
0.0
  0
LINE
  8
0
  6
CONTINUOUS
 62
     2
 10
381.17283468
 20
1468.928121884
 30
0.0
 11
381.17283468
 21
1446.149155128
 31
0.0
  0
LINE
  8
0
  6
CONTINUOUS
 62
     2
 10
407.748295894
 20
1468.928121884
 30
0.0
 11
407.748295894
 21
1446.149155128
 31
0.0
  0
LINE
  8
0
  6
CONTINUOUS
 62
     2
 10
434.323757109
 20
1468.928121884
 30
0.0
 11
434.323757109
 21
1446.149155128
 31
0.0
  0
CIRCLE
  8
0
  6
CONTINUOUS
 62
     6
 10
426.404269667
 20
1492.407921517
 30
0.0
 40
4.100214016
  0
LINE
  8
0
  6
CONTINUOUS
 62
     6
 10
422.304055651
 20
1492.407921517
 30
0.0
 11
421.036026502
 21
1492.407921517
 31
0.0
  0
LINE
  8
0
  6
CONTINUOUS
 62
     6
 10
447.358027433
 20
1506.094562742
 30
0.0
 11
443.443558096
 21
1483.759507138
 31
0.0
  0
LINE
  8
0
  6
CONTINUOUS
 62
     6
 10
442.631699663
 20
1506.882284037
 30
0.0
 11
438.716922494
 21
1484.547279739
 31
0.0
  0
LINE
  8
0
  6
CONTINUOUS
 62
     6
 10
443.443558096
 20
1483.759507138
 30
0.0
 11
438.716922494
 21
1484.547279739
 31
0.0
  0
CIRCLE
  8
0
  6
CONTINUOUS
 62
     6
 10
447.611487717
 20
1482.939464335
 30
0.0
 40
4.100214016
  0
LINE
  8
0
  6
CONTINUOUS
 62
     6
 10
447.611487717
 20
1478.839250319
 30
0.0
 11
447.611487717
 21
1468.928121884
 31
0.0
  0
LINE
  8
0
  6
CONTINUOUS
 62
     6
 10
421.036026502
 20
1492.407921517
 30
0.0
 11
421.036026502
 21
1468.928121884
 31
0.0
  0
LINE
  8
0
  6
CONTINUOUS
 62
     6
 10
394.460565287
 20
1468.928121884
 30
0.0
 11
394.460565287
 21
1522.633332504
 31
0.0
  0
LINE
  8
0
  6
CONTINUOUS
 62
     6
 10
314.987641926
 20
1506.094562742
 30
0.0
 11
318.902111263
 21
1483.759507138
 31
0.0
  0
LINE
  8
0
  6
CONTINUOUS
 62
     6
 10
319.713969696
 20
1506.882284037
 30
0.0
 11
323.628746865
 21
1484.547279739
 31
0.0
  0
LINE
  8
0
  6
CONTINUOUS
 62
     6
 10
318.902111263
 20
1483.759507138
 30
0.0
 11
323.628746865
 21
1484.547279739
 31
0.0
  0
CIRCLE
  8
0
  6
CONTINUOUS
 62
     6
 10
314.734181642
 20
1482.939464335
 30
0.0
 40
4.100214016
  0
CIRCLE
  8
0
  6
CONTINUOUS
 62
     6
 10
335.941399692
 20
1492.407921517
 30
0.0
 40
4.100214016
  0
LINE
  8
0
  6
CONTINUOUS
 62
     6
 10
340.041613708
 20
1492.407921517
 30
0.0
 11
341.309642857
 21
1492.407921517
 31
0.0
  0
LINE
  8
0
  6
CONTINUOUS
 62
     6
 10
314.734181642
 20
1478.839250319
 30
0.0
 11
314.734181642
 21
1468.928121884
 31
0.0
  0
LINE
  8
0
  6
CONTINUOUS
 62
     6
 10
341.309642857
 20
1492.407921517
 30
0.0
 11
341.309642857
 21
1468.928121884
 31
0.0
  0
LINE
  8
0
  6
CONTINUOUS
 62
     6
 10
367.885104072
 20
1468.928121884
 30
0.0
 11
367.885104072
 21
1522.633332504
 31
0.0
  0
LINE
  8
0
  6
CONTINUOUS
 62
     2
 10
460.899218324
 20
1468.928121884
 30
0.0
 11
460.899218324
 21
1446.149155128
 31
0.0
  0
LINE
  8
0
  6
CONTINUOUS
 62
     2
 10
301.446451035
 20
1468.928121884
 30
0.0
 11
301.446451035
 21
1446.149155128
 31
0.0
  0
LINE
  8
0
  6
CONTINUOUS
 62
     2
 10
328.02191225
 20
1468.928121884
 30
0.0
 11
328.02191225
 21
1446.149155128
 31
0.0
  0
LINE
  8
0
  6
CONTINUOUS
 62
     6
 10
447.611487717
 20
1522.633332504
 30
0.0
 11
394.460565287
 21
1522.633332504
 31
0.0
  0
CIRCLE
  8
0
  6
CONTINUOUS
 62
     6
 10
447.611487717
 20
1510.28941042
 30
0.0
 40
4.100214016
  0
LINE
  8
0
  6
CONTINUOUS
 62
     6
 10
447.358027433
 20
1506.094562742
 30
0.0
 11
442.631699663
 21
1506.882284037
 31
0.0
  0
LINE
  8
0
  6
CONTINUOUS
 62
     6
 10
447.611487717
 20
1514.389624436
 30
0.0
 11
447.611487717
 21
1522.633332504
 31
0.0
  0
CIRCLE
  8
0
  6
CONTINUOUS
 62
     6
 10
314.734181642
 20
1510.28941042
 30
0.0
 40
4.100214016
  0
LINE
  8
0
  6
CONTINUOUS
 62
     6
 10
314.987641926
 20
1506.094562742
 30
0.0
 11
319.713969696
 21
1506.882284037
 31
0.0
  0
LINE
  8
0
  6
CONTINUOUS
 62
     6
 10
314.734181642
 20
1514.389624436
 30
0.0
 11
314.734181642
 21
1522.633332504
 31
0.0
  0
LINE
  8
0
  6
CONTINUOUS
 62
     6
 10
367.885104072
 20
1522.633332504
 30
0.0
 11
314.734181642
 21
1522.633332504
 31
0.0
  0
TEXT
  8
0
  6
CONTINUOUS
 62
     6
 10
319.4972152
 20
1527.152473273
 30
0.819
 40
11.7
  1
ＬＳ０１
 50
0.0
 41
0.8
 51
0.0
  7
KANJI50
  0
TEXT
  8
0
  6
CONTINUOUS
 62
     6
 10
402.117398844
 20
1527.152473273
 30
0.819
 40
11.7
  1
ＬＳ０２
 50
0.0
 41
0.8
 51
0.0
  7
KANJI50
  0
TEXT
  8
0
  6
CONTINUOUS
 62
     3
 10
147.308775989
 20
1449.945649587
 30
0.0
 40
15.0
  1
　　　　　　　　　　　　　　　　　　１　　２　　　３　　　４　　　５　　　６
 50
0.0
 41
0.911
 51
0.0
  7
KANJI51
  0
LINE
  8
0
  6
CONTINUOUS
 62
     2
 10
301.446451035
 20
1468.928121884
 30
0.0
 11
460.899218324
 21
1468.928121884
 31
0.0
  0
LINE
  8
0
  6
CONTINUOUS
 62
     2
 10
301.446451035
 20
1446.149155128
 30
0.0
 11
460.899218324
 21
1446.149155128
 31
0.0
  0
TEXT
  8
0
  6
CONTINUOUS
 62
     6
 10
293.132791539
 20
1556.92382165
 30
0.0
 40
17.740702234
  1
推力リミッタ端子台配列
 50
0.0
 41
0.880962996
 51
0.0
  7
KANJI49
  0
TEXT
  8
0
  6
CONTINUOUS
 62
     6
 10
395.013715102
 20
1614.071931782
 30
0.0
 40
11.8638
  1
ＡＣ１００Ｖ　１２５Ｖ　２５０Ｖ　－１０Ａ
 50
0.0
 41
0.726495726
 51
0.0
  7
KANJI47
  0
TEXT
  8
0
  6
CONTINUOUS
 62
     6
 10
120.294567657
 20
1352.399357623
 30
1.82231734
 40
18.223173404
  1
クイックブレーキモータ
 50
0.0
 41
0.66671875
 51
0.0
  7
KANJI52
  0
CIRCLE
  8
0
  6
CONTINUOUS
 62
     6
 10
164.736
 20
1290.432
 30
0.0
 40
21.6
  0
TEXT
  8
0
  6
CONTINUOUS
 62
     6
 10
155.664
 20
1280.064
 30
2.16
 40
21.6
  1
Ｍ
 50
0.0
 41
0.9
 51
0.0
  7
KANJI53
  0
LINE
  8
0
  6
CONTINUOUS
 62
     6
 10
136.224
 20
1260.192
 30
0.0
 11
149.616
 21
1275.744
 31
0.0
  0
LINE
  8
0
  6
CONTINUOUS
 62
     6
 10
136.224
 20
1320.672
 30
0.0
 11
149.616
 21
1305.12
 31
0.0
  0
CIRCLE
  8
0
  6
CONTINUOUS
 62
     6
 10
111.6
 20
1320.672
 30
0.0
 40
5.184
  0
LINE
  8
0
  6
CONTINUOUS
 62
     6
 10
105.644103884
 20
1314.716103884
 30
0.0
 11
117.740103884
 21
1326.812103884
 31
0.0
  0
CIRCLE
  8
0
  6
CONTINUOUS
 62
     6
 10
111.6
 20
1290.432
 30
0.0
 40
5.184
  0
LINE
  8
0
  6
CONTINUOUS
 62
     6
 10
105.644103884
 20
1284.476103884
 30
0.0
 11
117.740103884
 21
1296.572103884
 31
0.0
  0
CIRCLE
  8
0
  6
CONTINUOUS
 62
     6
 10
111.6
 20
1260.192
 30
0.0
 40
5.184
  0
LINE
  8
0
  6
CONTINUOUS
 62
     6
 10
105.644103884
 20
1254.236103884
 30
0.0
 11
117.740103884
 21
1266.332103884
 31
0.0
  0
LINE
  8
0
  6
CONTINUOUS
 62
     6
 10
136.224
 20
1320.672
 30
0.0
 11
116.784
 21
1320.672
 31
0.0
  0
LINE
  8
0
  6
CONTINUOUS
 62
     6
 10
143.568
 20
1290.432
 30
0.0
 11
116.784
 21
1290.432
 31
0.0
  0
LINE
  8
0
  6
CONTINUOUS
 62
     6
 10
136.224
 20
1260.192
 30
0.0
 11
116.784
 21
1260.192
 31
0.0
  0
LINE
  8
0
  6
LTYPE2
 62
     6
 10
111.6
 20
1344.0
 30
0.0
 11
111.6
 21
1324.56
 31
0.0
  0
LINE
  8
0
  6
LTYPE2
 62
     6
 10
111.6
 20
1315.92
 30
0.0
 11
111.6
 21
1294.32
 31
0.0
  0
LINE
  8
0
  6
LTYPE2
 62
     6
 10
111.6
 20
1285.68
 30
0.0
 11
111.6
 21
1264.512
 31
0.0
  0
TEXT
  8
0
  6
CONTINUOUS
 62
     6
 10
90.816
 20
1328.016
 30
1.296
 40
12.96
  1
Ｕ
 50
0.0
 41
0.9
 51
0.0
  7
KANJI54
  0
TEXT
  8
0
  6
CONTINUOUS
 62
     6
 10
92.112
 20
1297.344
 30
1.296
 40
12.96
  1
Ｖ
 50
0.0
 41
0.9
 51
0.0
  7
KANJI54
  0
TEXT
  8
0
  6
CONTINUOUS
 62
     6
 10
93.408
 20
1266.672
 30
1.296
 40
12.96
  1
Ｗ
 50
0.0
 41
0.9
 51
0.0
  7
KANJI54
  0
LINE
  8
0
  6
LTYPE2
 62
     6
 10
266.16
 20
1344.0
 30
0.0
 11
111.6
 21
1344.0
 31
0.0
  0
TEXT
  8
0
  6
CONTINUOUS
 62
     6
 10
195.84
 20
1280.6472
 30
1.728
 40
17.28
  1
Ｂ
 50
0.0
 41
0.9
 51
0.0
  7
KANJI55
  0
CIRCLE
  8
0
  6
CONTINUOUS
 62
     6
 10
203.616
 20
1290.432
 30
0.0
 40
17.28
  0
LINE
  8
0
  6
CONTINUOUS
 62
     6
 10
231.216
 20
1260.0192
 30
0.0
 11
212.23698443
 21
1275.456118475
 31
0.0
  0
LINE
  8
0
  6
CONTINUOUS
 62
     6
 10
194.631325074
 20
1275.671443897
 30
0.0
 11
175.536
 21
1260.0192
 31
0.0
  0
CIRCLE
  8
0
  6
CONTINUOUS
 62
     6
 10
175.536
 20
1210.9872
 30
0.0
 40
5.184
  0
LINE
  8
0
  6
CONTINUOUS
 62
     6
 10
169.580103884
 20
1205.031303884
 30
0.0
 11
181.676103884
 21
1217.127303884
 31
0.0
  0
CIRCLE
  8
0
  6
CONTINUOUS
 62
     6
 10
203.376
 20
1210.9872
 30
0.0
 40
5.184
  0
LINE
  8
0
  6
CONTINUOUS
 62
     6
 10
197.420103884
 20
1205.031303884
 30
0.0
 11
209.516103884
 21
1217.127303884
 31
0.0
  0
LINE
  8
0
  6
LTYPE2
 62
     6
 10
180.72
 20
1210.9872
 30
0.0
 11
198.096
 21
1210.9872
 31
0.0
  0
CIRCLE
  8
0
  6
CONTINUOUS
 62
     6
 10
231.216
 20
1210.9872
 30
0.0
 40
5.184
  0
LINE
  8
0
  6
CONTINUOUS
 62
     6
 10
225.260103884
 20
1205.031303884
 30
0.0
 11
237.356103884
 21
1217.127303884
 31
0.0
  0
LINE
  8
0
  6
LTYPE2
 62
     6
 10
208.176
 20
1210.9872
 30
0.0
 11
226.416
 21
1210.9872
 31
0.0
  0
TEXT
  8
0
  6
CONTINUOUS
 62
     6
 10
188.64
 20
1213.8192
 30
1.296
 40
12.96
  1
ｖ
 50
0.0
 41
0.9
 51
0.0
  7
KANJI54
  0
TEXT
  8
0
  6
CONTINUOUS
 62
     6
 10
216.48
 20
1213.8192
 30
1.296
 40
12.96
  1
ｗ
 50
0.0
 41
0.9
 51
0.0
  7
KANJI54
  0
TEXT
  8
0
  6
CONTINUOUS
 62
     6
 10
161.616
 20
1214.6832
 30
1.296
 40
12.96
  1
ｕ
 50
0.0
 41
0.9
 51
0.0
  7
KANJI54
  0
LINE
  8
0
  6
CONTINUOUS
 62
     6
 10
175.536
 20
1216.1712
 30
0.0
 11
175.536
 21
1260.0192
 31
0.0
  0
LINE
  8
0
  6
CONTINUOUS
 62
     6
 10
203.376
 20
1216.1712
 30
0.0
 11
203.376
 21
1273.44
 31
0.0
  0
LINE
  8
0
  6
CONTINUOUS
 62
     6
 10
231.216
 20
1216.1712
 30
0.0
 11
231.216
 21
1260.0192
 31
0.0
  0
LINE
  8
0
  6
LTYPE2
 62
     6
 10
236.976
 20
1210.9872
 30
0.0
 11
266.16
 21
1210.9872
 31
0.0
  0
LINE
  8
0
  6
LTYPE2
 62
     6
 10
266.16
 20
1210.9872
 30
0.0
 11
266.16
 21
1344.0
 31
0.0
  0
LINE
  8
0
  6
LTYPE2
 62
     6
 10
111.6
 20
1210.9872
 30
0.0
 11
170.352
 21
1210.9872
 31
0.0
  0
LINE
  8
0
  6
LTYPE2
 62
     6
 10
111.6
 20
1255.008
 30
0.0
 11
111.6
 21
1210.9872
 31
0.0
  0
TEXT
  8
0
  6
CONTINUOUS
 62
     2
 10
128.014472037
 20
1175.954685773
 30
0.0
 40
18.72
  1
モーター結線図
 50
0.0
 41
0.925
 51
0.0
  7
KANJI56
  0
TEXT
  8
0
  6
CONTINUOUS
 62
     2
 10
1789.92
 20
715.9
 30
12.0
 40
24.0
  1
特記事項
 50
0.0
 41
0.9
 51
0.0
  7
KANJI57
  0
TEXT
  8
0
  6
CONTINUOUS
 62
     2
 10
1705.92
 20
667.9
 30
6.171428571
 40
21.6
  1
１。運転時は必ずピストンロッドの回転防止を行って下さい。
 50
0.0
 41
0.857142857
 51
0.0
  7
KANJI58
  0
TEXT
  8
0
  6
CONTINUOUS
 62
     2
 10
1705.92
 20
627.1
 30
6.156
 40
21.6
  1
２。モートル：全閉自冷かご形３０分定格
 50
0.0
 41
0.857222222
 51
0.0
  7
KANJI59
  0
TEXT
  8
0
  6
CONTINUOUS
 62
     2
 10
1705.5199098
 20
586.3000036
 30
6.156
 40
21.6
  1
３。呼称ストロークは、機械的ストロークです。
 50
0.0
 41
0.857222222
 51
0.0
  7
KANJI59
  0
TEXT
  8
0
  6
CONTINUOUS
 62
     2
 10
1705.5199098
 20
551.8000036
 30
6.156
 40
21.6
  1
　　必ず、常用はストローク両端に余裕を取って下さい。
 50
0.0
 41
0.857222222
 51
0.0
  7
KANJI59
  0
LINE
  8
0
  6
CONTINUOUS
 62
     2
 10
1773.12
 20
709.3
 30
0.0
 11
1919.52
 21
709.3
 31
0.0
  0
TEXT
  8
0
  6
CONTINUOUS
 62
     2
 10
1706.4319098
 20
512.1520036
 30
6.156
 40
21.6
  1
　　前後の推奨余裕寸法は、各々３０ｍｍです。
 50
0.0
 41
0.857222222
 51
0.0
  7
KANJI59
  0
TEXT
  8
0
  6
CONTINUOUS
 62
     2
 10
1706.4319098
 20
471.1520036
 30
6.156
 40
21.6
  1
４。ボールネジ使用　３６１０
 50
0.0
 41
0.857222222
 51
0.0
  7
KANJI59
  0
TEXT
  8
0
  6
CONTINUOUS
 62
     2
 10
1861.92
 20
251.7
 30
0.0
 40
21.0
  1
ＭＣＬＥ２Ｃ
 50
0.0
 41
0.793650794
 51
0.0
  7
KANJI60
  0
TEXT
  8
0
  6
CONTINUOUS
 62
     2
 10
1648.5200334
 20
126.899994
 30
1.8
 40
21.0
  1
２０００．１２．１３
 50
0.0
 41
0.571428571
 51
0.0
  7
KANJI61
  0
TEXT
  8
0
  6
CONTINUOUS
 62
     2
 10
1665.9200334
 20
253.8999876
 30
6.0
 40
21.0
  1
田口
 50
0.0
 41
0.857142857
 51
0.0
  7
KANJI15
  0
TEXT
  8
0
  6
CONTINUOUS
 62
     2
 10
1724.11
 20
251.04
 30
0.0
 40
18.0
  1
１／１１
 50
0.0
 41
0.45
 51
0.0
  7
KANJI62
  0
LINE
  8
0
  6
CONTINUOUS
 62
     1
 10
463.6199996
 20
512.2999996
 30
0.0
 11
463.6199996
 21
852.2999996
 31
0.0
  0
LINE
  8
0
  6
CONTINUOUS
 62
     1
 10
463.6199996
 20
662.1999996
 30
0.0
 11
463.6199996
 21
862.1999996
 31
0.0
  0
LINE
  8
0
  6
CONTINUOUS
 62
     1
 10
463.6199996
 20
503.2999996
 30
0.0
 11
463.6199996
 21
878.2999996
 31
0.0
  0
LINE
  8
0
  6
CONTINUOUS
 62
     1
 10
463.6199996
 20
878.2999996
 30
0.0
 11
423.6199996
 21
878.2999996
 31
0.0
  0
ARC
  8
0
  6
CONTINUOUS
 62
     1
 10
445.6199996
 20
745.2999996
 30
0.0
 40
4.0
 50
270.0
 51
0.0
  0
LINE
  8
0
  6
CONTINUOUS
 62
     1
 10
423.6199996
 20
878.2999996
 30
0.0
 11
423.6199996
 21
841.2999996
 31
0.0
  0
ARC
  8
0
  6
CONTINUOUS
 62
     1
 10
420.6199996
 20
841.2999996
 30
0.0
 40
3.0
 50
270.0
 51
0.0
  0
ARC
  8
0
  6
CONTINUOUS
 62
     1
 10
446.6199996
 20
841.2999996
 30
0.0
 40
3.0
 50
270.0
 51
0.0
  0
LINE
  8
0
  6
CONTINUOUS
 62
     1
 10
449.6199996
 20
745.2999996
 30
0.0
 11
449.6199996
 21
878.2999996
 31
0.0
  0
LINE
  8
0
  6
CONTINUOUS
 62
     1
 10
368.6199996
 20
503.2999996
 30
0.0
 11
368.6199996
 21
838.2999996
 31
0.0
  0
LINE
  8
0
  6
CONTINUOUS
 62
     1
 10
368.6199996
 20
838.2999996
 30
0.0
 11
446.6199996
 21
838.2999996
 31
0.0
  0
CIRCLE
  8
0
  6
CONTINUOUS
 62
     1
 10
443.6199996
 20
903.2999996
 30
0.0
 40
15.0
  0
LINE
  8
0
  6
CONTINUOUS
 62
     1
 10
455.021268563
 20
886.301530018
 30
0.0
 11
443.6199996
 21
888.2999996
 31
0.0
  0
LINE
  8
0
  6
CONTINUOUS
 62
     1
 10
443.6199996
 20
886.2999996
 30
0.0
 11
455.021455367
 21
886.2999996
 31
0.0
  0
ARC
  8
0
  6
CONTINUOUS
 62
     1
 10
443.6199996
 20
903.2999996
 30
0.0
 40
25.0
 50
300.714883545
 51
0.0
  0
LINE
  8
0
  6
CONTINUOUS
 62
     1
 10
455.737094746
 20
880.437009089
 30
0.0
 11
455.021455367
 21
886.2999996
 31
0.0
  0
ARC
  8
0
  6
CONTINUOUS
 62
     1
 10
457.125622315
 20
880.61612526
 30
0.0
 40
1.4
 50
121.733468281
 51
187.57738995
  0
LINE
  8
0
  6
CONTINUOUS
 62
     1
 10
432.218730637
 20
886.301530018
 30
0.0
 11
443.6199996
 21
888.2999996
 31
0.0
  0
LINE
  8
0
  6
CONTINUOUS
 62
     1
 10
443.6199996
 20
886.2999996
 30
0.0
 11
432.218543833
 21
886.2999996
 31
0.0
  0
LINE
  8
0
  6
CONTINUOUS
 62
     1
 10
431.502904454
 20
880.437009089
 30
0.0
 11
432.218543833
 21
886.2999996
 31
0.0
  0
ARC
  8
0
  6
CONTINUOUS
 62
     1
 10
430.114376885
 20
880.61612526
 30
0.0
 40
1.4
 50
352.42261005
 51
58.266531719
  0
ARC
  8
0
  6
CONTINUOUS
 62
     1
 10
443.6199996
 20
903.2999996
 30
0.0
 40
25.0
 50
0.0
 51
239.342761175
  0
LINE
  8
0
  6
CONTINUOUS
 62
     1
 10
455.99793913
 20
878.2999996
 30
0.0
 11
455.737094746
 21
880.437009089
 31
0.0
  0
LINE
  8
0
  6
CONTINUOUS
 62
     1
 10
431.24206007
 20
878.2999996
 30
0.0
 11
431.502904454
 21
880.437009089
 31
0.0
  0
LINE
  8
0
  6
CONTINUOUS
 62
     1
 10
463.6199996
 20
503.2999996
 30
0.0
 11
351.6199996
 21
503.2999996
 31
0.0
  0
LINE
  8
0
  6
CONTINUOUS
 62
     1
 10
351.6199996
 20
503.2999996
 30
0.0
 11
351.6199996
 21
751.2999996
 31
0.0
  0
LINE
  8
0
  6
CONTINUOUS
 62
     1
 10
445.6199996
 20
741.2999996
 30
0.0
 11
368.6199996
 21
741.2999996
 31
0.0
  0
LINE
  8
0
  6
CONTINUOUS
 62
     1
 10
368.6199996
 20
751.2999996
 30
0.0
 11
351.6199996
 21
751.2999996
 31
0.0
  0
LINE
  8
0
  6
CONTINUOUS
 62
     1
 10
351.6199996
 20
672.2999996
 30
0.0
 11
351.6199996
 21
661.3504596
 31
0.0
  0
LINE
  8
0
  6
CONTINUOUS
 62
     1
 10
351.6199996
 20
672.2999996
 30
0.0
 11
351.6199996
 21
683.2495396
 31
0.0
  0
LINE
  8
0
  6
CONTINUOUS
 62
     1
 10
343.5988996
 20
664.0319796
 30
0.0
 11
345.147075894
 21
661.3504596
 31
0.0
  0
LINE
  8
0
  6
CONTINUOUS
 62
     1
 10
343.5988996
 20
672.2999996
 30
0.0
 11
343.5988996
 21
664.0319796
 31
0.0
  0
LINE
  8
0
  6
CONTINUOUS
 62
     1
 10
343.5988996
 20
680.5680196
 30
0.0
 11
345.147075894
 21
683.2495396
 31
0.0
  0
LINE
  8
0
  6
CONTINUOUS
 62
     1
 10
343.5988996
 20
672.2999996
 30
0.0
 11
343.5988996
 21
680.5680196
 31
0.0
  0
ARC
  8
0
  6
CONTINUOUS
 62
     1
 10
354.053121293
 20
672.2999996
 30
0.0
 40
10.454221693
 50
148.419912243
 51
211.580087757
  0
ARC
  8
0
  6
CONTINUOUS
 62
     1
 10
346.792013206
 20
664.0878446
 30
0.0
 40
3.193602261
 50
121.002313915
 51
182.989498403
  0
LINE
  8
0
  6
CONTINUOUS
 62
     1
 10
343.5988996
 20
680.5680196
 30
0.0
 11
345.147075894
 21
683.2495396
 31
0.0
  0
ARC
  8
0
  6
CONTINUOUS
 62
     1
 10
346.792013206
 20
680.5121546
 30
0.0
 40
3.193602261
 50
177.010501597
 51
238.997686085
  0
LINE
  8
0
  6
CONTINUOUS
 62
     1
 10
351.6199996
 20
661.3504596
 30
0.0
 11
345.147075894
 21
661.3504596
 31
0.0
  0
LINE
  8
0
  6
CONTINUOUS
 62
     1
 10
351.6199996
 20
666.8252296
 30
0.0
 11
345.147075894
 21
666.8252296
 31
0.0
  0
LINE
  8
0
  6
CONTINUOUS
 62
     1
 10
351.6199996
 20
677.7747696
 30
0.0
 11
345.147075894
 21
677.7747696
 31
0.0
  0
LINE
  8
0
  6
CONTINUOUS
 62
     1
 10
351.6199996
 20
683.2495396
 30
0.0
 11
345.147075894
 21
683.2495396
 31
0.0
  0
LINE
  8
0
  6
CONTINUOUS
 62
     1
 10
351.6199996
 20
522.2999996
 30
0.0
 11
351.6199996
 21
511.3504596
 31
0.0
  0
LINE
  8
0
  6
CONTINUOUS
 62
     1
 10
351.6199996
 20
522.2999996
 30
0.0
 11
351.6199996
 21
533.2495396
 31
0.0
  0
LINE
  8
0
  6
CONTINUOUS
 62
     1
 10
343.5988996
 20
514.0319796
 30
0.0
 11
345.147075894
 21
511.3504596
 31
0.0
  0
LINE
  8
0
  6
CONTINUOUS
 62
     1
 10
343.5988996
 20
522.2999996
 30
0.0
 11
343.5988996
 21
514.0319796
 31
0.0
  0
LINE
  8
0
  6
CONTINUOUS
 62
     1
 10
343.5988996
 20
530.5680196
 30
0.0
 11
345.147075894
 21
533.2495396
 31
0.0
  0
LINE
  8
0
  6
CONTINUOUS
 62
     1
 10
343.5988996
 20
522.2999996
 30
0.0
 11
343.5988996
 21
530.5680196
 31
0.0
  0
ARC
  8
0
  6
CONTINUOUS
 62
     1
 10
354.053121293
 20
522.2999996
 30
0.0
 40
10.454221693
 50
148.419912243
 51
211.580087757
  0
ARC
  8
0
  6
CONTINUOUS
 62
     1
 10
346.792013206
 20
514.0878446
 30
0.0
 40
3.193602261
 50
121.002313915
 51
182.989498403
  0
LINE
  8
0
  6
CONTINUOUS
 62
     1
 10
343.5988996
 20
530.5680196
 30
0.0
 11
345.147075894
 21
533.2495396
 31
0.0
  0
ARC
  8
0
  6
CONTINUOUS
 62
     1
 10
346.792013206
 20
530.5121546
 30
0.0
 40
3.193602261
 50
177.010501597
 51
238.997686085
  0
LINE
  8
0
  6
CONTINUOUS
 62
     1
 10
351.6199996
 20
511.3504596
 30
0.0
 11
345.147075894
 21
511.3504596
 31
0.0
  0
LINE
  8
0
  6
CONTINUOUS
 62
     1
 10
351.6199996
 20
516.8252296
 30
0.0
 11
345.147075894
 21
516.8252296
 31
0.0
  0
LINE
  8
0
  6
CONTINUOUS
 62
     1
 10
351.6199996
 20
527.7747696
 30
0.0
 11
345.147075894
 21
527.7747696
 31
0.0
  0
LINE
  8
0
  6
CONTINUOUS
 62
     1
 10
351.6199996
 20
533.2495396
 30
0.0
 11
345.147075894
 21
533.2495396
 31
0.0
  0
LINE
  8
0
  6
CONTINUOUS
 62
     1
 10
351.6199996
 20
740.2999996
 30
0.0
 11
351.6199996
 21
732.8059396
 31
0.0
  0
LINE
  8
0
  6
CONTINUOUS
 62
     1
 10
351.6199996
 20
740.2999996
 30
0.0
 11
351.6199996
 21
747.7940596
 31
0.0
  0
LINE
  8
0
  6
CONTINUOUS
 62
     1
 10
346.1200996
 20
734.6412196
 30
0.0
 11
347.179699002
 21
732.8059396
 31
0.0
  0
LINE
  8
0
  6
CONTINUOUS
 62
     1
 10
346.1200996
 20
740.2999996
 30
0.0
 11
346.1200996
 21
734.6412196
 31
0.0
  0
LINE
  8
0
  6
CONTINUOUS
 62
     1
 10
346.1200996
 20
745.9587796
 30
0.0
 11
347.179699002
 21
747.7940596
 31
0.0
  0
LINE
  8
0
  6
CONTINUOUS
 62
     1
 10
346.1200996
 20
740.2999996
 30
0.0
 11
346.1200996
 21
745.9587796
 31
0.0
  0
ARC
  8
0
  6
CONTINUOUS
 62
     1
 10
353.275154937
 20
740.2999996
 30
0.0
 40
7.155055337
 50
148.419912243
 51
211.580087757
  0
ARC
  8
0
  6
CONTINUOUS
 62
     1
 10
348.305523367
 20
734.6794546
 30
0.0
 40
2.185758211
 50
121.002313915
 51
182.989498403
  0
LINE
  8
0
  6
CONTINUOUS
 62
     1
 10
346.1200996
 20
745.9587796
 30
0.0
 11
347.179699002
 21
747.7940596
 31
0.0
  0
ARC
  8
0
  6
CONTINUOUS
 62
     1
 10
348.305523367
 20
745.9205446
 30
0.0
 40
2.185758211
 50
177.010501597
 51
238.997686085
  0
LINE
  8
0
  6
CONTINUOUS
 62
     1
 10
351.6199996
 20
732.8059396
 30
0.0
 11
347.179699002
 21
732.8059396
 31
0.0
  0
LINE
  8
0
  6
CONTINUOUS
 62
     1
 10
351.6199996
 20
736.5529696
 30
0.0
 11
347.179699002
 21
736.5529696
 31
0.0
  0
LINE
  8
0
  6
CONTINUOUS
 62
     1
 10
351.6199996
 20
744.0470296
 30
0.0
 11
347.179699002
 21
744.0470296
 31
0.0
  0
LINE
  8
0
  6
CONTINUOUS
 62
     1
 10
351.6199996
 20
747.7940596
 30
0.0
 11
347.179699002
 21
747.7940596
 31
0.0
  0
LINE
  8
0
  6
CONTINUOUS
 62
     1
 10
463.6199996
 20
673.1999996
 30
0.0
 11
463.6199996
 21
873.1999996
 31
0.0
  0
LINE
  8
0
  6
CONTINUOUS
 62
     1
 10
463.6199996
 20
672.4999996
 30
0.0
 11
463.6199996
 21
872.4999996
 31
0.0
  0
LINE
  8
0
  6
LTYPE3
 62
     2
 10
410.6949996
 20
903.2999996
 30
0.0
 11
475.6949996
 21
903.2999996
 31
0.0
  0
LINE
  8
0
  6
LTYPE3
 62
     2
 10
443.6199996
 20
856.2999996
 30
0.0
 11
443.6199996
 21
935.9999996
 31
0.0
  0
LINE
  8
0
  6
LTYPE3
 62
     2
 10
338.0199996
 20
522.2999996
 30
0.0
 11
386.7199996
 21
522.2999996
 31
0.0
  0
LINE
  8
0
  6
LTYPE3
 62
     2
 10
338.6199996
 20
672.2999996
 30
0.0
 11
386.7199996
 21
672.2999996
 31
0.0
  0
LINE
  8
0
  6
LTYPE3
 62
     2
 10
340.5199996
 20
740.2999996
 30
0.0
 11
365.1199996
 21
740.2999996
 31
0.0
  0
LINE
  8
0
  6
LTYPE3
 62
     2
 10
548.6199996
 20
554.2999996
 30
0.0
 11
548.6199996
 21
644.2999996
 31
0.0
  0
LINE
  8
0
  6
LTYPE3
 62
     2
 10
548.6199996
 20
554.2999996
 30
0.0
 11
548.6199996
 21
644.2999996
 31
0.0
  0
CIRCLE
  8
0
  6
CONTINUOUS
 62
     1
 10
548.6199996
 20
597.2999996
 30
0.0
 40
12.5
  0
CIRCLE
  8
0
  6
CONTINUOUS
 62
     1
 10
548.6199996
 20
597.2999996
 30
0.0
 40
23.0
  0
CIRCLE
  8
0
  6
CONTINUOUS
 62
     1
 10
548.6199996
 20
597.2999996
 30
0.0
 40
27.5
  0
LINE
  8
0
  6
CONTINUOUS
 62
     1
 10
586.6199996
 20
531.2999996
 30
0.0
 11
660.6199996
 21
531.2999996
 31
0.0
  0
LINE
  8
0
  6
CONTINUOUS
 62
     1
 10
668.6199996
 20
537.2999996
 30
0.0
 11
668.6199996
 21
657.2999996
 31
0.0
  0
LINE
  8
0
  6
CONTINUOUS
 62
     1
 10
478.6199996
 20
530.2999996
 30
0.0
 11
478.6199996
 21
664.2999996
 31
0.0
  0
LINE
  8
0
  6
CONTINUOUS
 62
     1
 10
463.6199996
 20
530.2999996
 30
0.0
 11
478.6199996
 21
530.2999996
 31
0.0
  0
LINE
  8
0
  6
CONTINUOUS
 62
     1
 10
463.6199996
 20
664.2999996
 30
0.0
 11
478.6199996
 21
664.2999996
 31
0.0
  0
LINE
  8
0
  6
CONTINUOUS
 62
     1
 10
478.6199996
 20
657.2999996
 30
0.0
 11
668.6199996
 21
657.2999996
 31
0.0
  0
LINE
  8
0
  6
CONTINUOUS
 62
     1
 10
660.6199996
 20
537.2999996
 30
0.0
 11
668.6199996
 21
537.2999996
 31
0.0
  0
LINE
  8
0
  6
CONTINUOUS
 62
     1
 10
478.6199996
 20
537.2999996
 30
0.0
 11
586.6199996
 21
537.2999996
 31
0.0
  0
LINE
  8
0
  6
LTYPE3
 62
     2
 10
623.6199996
 20
515.7999996
 30
0.0
 11
623.6199996
 21
542.2999996
 31
0.0
  0
LINE
  8
0
  6
CONTINUOUS
 62
     1
 10
669.6199996
 20
529.7999996
 30
0.0
 11
669.6199996
 21
528.7999996
 31
0.0
  0
ARC
  8
0
  6
CONTINUOUS
 62
     1
 10
582.6199996
 20
526.7999996
 30
0.0
 40
3.0
 50
90.0
 51
180.0
  0
LINE
  8
0
  6
CONTINUOUS
 62
     1
 10
708.6199996
 20
486.7999996
 30
0.0
 11
579.6199996
 21
486.7999996
 31
0.0
  0
LINE
  8
0
  6
CONTINUOUS
 62
     1
 10
669.6199996
 20
528.7999996
 30
0.0
 11
705.6199996
 21
528.7999996
 31
0.0
  0
ARC
  8
0
  6
CONTINUOUS
 62
     1
 10
705.6199996
 20
525.7999996
 30
0.0
 40
3.0
 50
0.0
 51
90.0
  0
LINE
  8
0
  6
CONTINUOUS
 62
     1
 10
708.6199996
 20
485.2999996
 30
0.0
 11
579.6199996
 21
485.2999996
 31
0.0
  0
LINE
  8
0
  6
CONTINUOUS
 62
     1
 10
708.6199996
 20
480.2999996
 30
0.0
 11
708.6199996
 21
525.7999996
 31
0.0
  0
ARC
  8
0
  6
CONTINUOUS
 62
     1
 10
707.6199996
 20
480.2999996
 30
0.0
 40
1.0
 50
270.0
 51
0.0
  0
LINE
  8
0
  6
CONTINUOUS
 62
     1
 10
705.6199996
 20
479.2999996
 30
0.0
 11
705.6199996
 21
479.2999996
 31
0.0
  0
ARC
  8
0
  6
CONTINUOUS
 62
     1
 10
704.6199996
 20
479.2999996
 30
0.0
 40
1.0
 50
270.0
 51
0.0
  0
LINE
  8
0
  6
CONTINUOUS
 62
     1
 10
579.6199996
 20
480.2999996
 30
0.0
 11
579.6199996
 21
526.7999996
 31
0.0
  0
LINE
  8
0
  6
CONTINUOUS
 62
     1
 10
707.6199996
 20
479.2999996
 30
0.0
 11
580.6199996
 21
479.2999996
 31
0.0
  0
ARC
  8
0
  6
CONTINUOUS
 62
     1
 10
580.6199996
 20
480.2999996
 30
0.0
 40
1.0
 50
180.0
 51
270.0
  0
ARC
  8
0
  6
CONTINUOUS
 62
     1
 10
583.6199996
 20
479.2999996
 30
0.0
 40
1.0
 50
180.0
 51
270.0
  0
LINE
  8
0
  6
CONTINUOUS
 62
     1
 10
704.6199996
 20
478.2999996
 30
0.0
 11
583.7199996
 21
478.2999996
 31
0.0
  0
LINE
  8
0
  6
CONTINUOUS
 62
     1
 10
582.6199996
 20
529.7999996
 30
0.0
 11
669.6199996
 21
529.7999996
 31
0.0
  0
LINE
  8
0
  6
CONTINUOUS
 62
     1
 10
586.6199996
 20
529.7999996
 30
0.0
 11
586.6199996
 21
571.7999996
 31
0.0
  0
LINE
  8
0
  6
CONTINUOUS
 62
     1
 10
660.6199996
 20
529.7999996
 30
0.0
 11
660.6199996
 21
571.7999996
 31
0.0
  0
LINE
  8
0
  6
CONTINUOUS
 62
     1
 10
668.6199996
 20
655.2999996
 30
0.0
 11
677.6199996
 21
655.2999996
 31
0.0
  0
LINE
  8
0
  6
CONTINUOUS
 62
     1
 10
668.6199996
 20
658.2999996
 30
0.0
 11
677.6199996
 21
658.2999996
 31
0.0
  0
LINE
  8
0
  6
CONTINUOUS
 62
     1
 10
668.6199996
 20
602.2999996
 30
0.0
 11
677.6199996
 21
602.2999996
 31
0.0
  0
LINE
  8
0
  6
CONTINUOUS
 62
     1
 10
668.6199996
 20
592.2999996
 30
0.0
 11
677.6199996
 21
592.2999996
 31
0.0
  0
LINE
  8
0
  6
CONTINUOUS
 62
     1
 10
668.6199996
 20
539.2999996
 30
0.0
 11
677.6199996
 21
539.2999996
 31
0.0
  0
LINE
  8
0
  6
CONTINUOUS
 62
     1
 10
668.6199996
 20
536.2999996
 30
0.0
 11
677.6199996
 21
536.2999996
 31
0.0
  0
LINE
  8
0
  6
CONTINUOUS
 62
     1
 10
677.6199996
 20
537.2999996
 30
0.0
 11
677.6199996
 21
657.2999996
 31
0.0
  0
LINE
  8
0
  6
LTYPE1
 62
     2
 10
708.6199996
 20
513.0999996
 30
0.0
 11
698.6199996
 21
513.0999996
 31
0.0
  0
LINE
  8
0
  6
LTYPE1
 62
     2
 10
708.6199996
 20
514.2999996
 30
0.0
 11
698.6199996
 21
514.2999996
 31
0.0
  0
LINE
  8
0
  6
LTYPE1
 62
     2
 10
708.6199996
 20
494.4999996
 30
0.0
 11
698.6199996
 21
494.4999996
 31
0.0
  0
LINE
  8
0
  6
LTYPE1
 62
     2
 10
708.6199996
 20
493.2999996
 30
0.0
 11
698.6199996
 21
493.2999996
 31
0.0
  0
LINE
  8
0
  6
CONTINUOUS
 62
     1
 10
463.6199996
 20
672.4999996
 30
0.0
 11
463.6199996
 21
872.4999996
 31
0.0
  0
LINE
  8
7
  6
CONTINUOUS
 62
     2
 10
594.1199996
 20
478.2999996
 30
0.0
 11
588.233911325
 21
467.272580826
 31
0.0
  0
LINE
  8
7
  6
CONTINUOUS
 62
     2
 10
594.1199996
 20
478.2999996
 30
0.0
 11
594.536207012
 21
465.806930666
 31
0.0
  0
LINE
  8
7
  6
CONTINUOUS
 62
     2
 10
594.1199996
 20
478.2999996
 30
0.0
 11
573.407790298
 21
389.2374996
 31
0.0
  0
LINE
  8
0
  6
CONTINUOUS
 62
     2
 10
573.407790298
 20
389.2374996
 30
0.0
 11
663.6199996
 21
389.2374996
 31
0.0
  0
LINE
  8
7
  6
CONTINUOUS
 62
     2
 10
548.6199996
 20
546.7999996
 30
0.0
 11
548.6199996
 21
307.7999996
 31
0.0
  0
LINE
  8
7
  6
CONTINUOUS
 62
     2
 10
351.6199996
 20
328.7999996
 30
0.0
 11
351.6199996
 21
307.7999996
 31
0.0
  0
LINE
  8
7
  6
CONTINUOUS
 62
     2
 10
548.6199996
 20
369.7999996
 30
0.0
 11
548.6199996
 21
370.7999996
 31
0.0
  0
LINE
  8
0
  6
LTYPE2
 62
     2
 10
714.8199996
 20
503.7999996
 30
0.0
 11
695.1199996
 21
503.7999996
 31
0.0
  0
LINE
  8
0
  6
CONTINUOUS
 62
     1
 10
463.6199996
 20
673.0359996
 30
0.0
 11
463.6199996
 21
697.4359996
 31
0.0
  0
LINE
  8
0
  6
CONTINUOUS
 62
     1
 10
463.6199996
 20
697.4359996
 30
0.0
 11
463.6199996
 21
868.8359996
 31
0.0
  0
LINE
  8
0
  6
CONTINUOUS
 62
     1
 10
463.6199996
 20
697.4359996
 30
0.0
 11
463.6199996
 21
873.0359996
 31
0.0
  0
LINE
  8
0
  6
CONTINUOUS
 62
     1
 10
475.6199996
 20
855.81172769
 30
0.0
 11
528.292135555
 21
855.81172769
 31
0.0
  0
LINE
  8
0
  6
CONTINUOUS
 62
     1
 10
475.6199996
 20
690.46027151
 30
0.0
 11
528.292135555
 21
690.46027151
 31
0.0
  0
LINE
  8
0
  6
CONTINUOUS
 62
     1
 10
478.1199996
 20
831.4719996
 30
0.0
 11
478.1199996
 21
841.2719996
 31
0.0
  0
LINE
  8
0
  6
CONTINUOUS
 62
     1
 10
478.1199996
 20
841.2719996
 30
0.0
 11
483.734358954
 21
841.2719996
 31
0.0
  0
LINE
  8
0
  6
CONTINUOUS
 62
     1
 10
485.1199996
 20
838.8719996
 30
0.0
 11
483.734358954
 21
841.2719996
 31
0.0
  0
LINE
  8
0
  6
CONTINUOUS
 62
     1
 10
485.1199996
 20
831.4719996
 30
0.0
 11
485.1199996
 21
838.8719996
 31
0.0
  0
LINE
  8
0
  6
CONTINUOUS
 62
     1
 10
478.1199996
 20
836.3719996
 30
0.0
 11
483.734358954
 21
836.3719996
 31
0.0
  0
LINE
  8
0
  6
CONTINUOUS
 62
     1
 10
478.1199996
 20
831.4719996
 30
0.0
 11
478.1199996
 21
821.6719996
 31
0.0
  0
LINE
  8
0
  6
CONTINUOUS
 62
     1
 10
478.1199996
 20
821.6719996
 30
0.0
 11
483.734358954
 21
821.6719996
 31
0.0
  0
LINE
  8
0
  6
CONTINUOUS
 62
     1
 10
485.1199996
 20
824.0719996
 30
0.0
 11
483.734358954
 21
821.6719996
 31
0.0
  0
LINE
  8
0
  6
CONTINUOUS
 62
     1
 10
485.1199996
 20
831.4719996
 30
0.0
 11
485.1199996
 21
824.0719996
 31
0.0
  0
LINE
  8
0
  6
CONTINUOUS
 62
     1
 10
478.1199996
 20
826.5719996
 30
0.0
 11
483.734358954
 21
826.5719996
 31
0.0
  0
ARC
  8
0
  6
CONTINUOUS
 62
     1
 10
475.7633168
 20
831.4719996
 30
0.0
 40
9.3566828
 50
328.419912243
 51
31.580087757
  0
ARC
  8
0
  6
CONTINUOUS
 62
     1
 10
482.262115768
 20
838.8219996
 30
0.0
 40
2.858321186
 50
301.002313915
 51
2.989498403
  0
LINE
  8
0
  6
CONTINUOUS
 62
     1
 10
485.1199996
 20
824.0719996
 30
0.0
 11
483.734358954
 21
821.6719996
 31
0.0
  0
ARC
  8
0
  6
CONTINUOUS
 62
     1
 10
482.262115768
 20
824.1219996
 30
0.0
 40
2.858321186
 50
357.010501597
 51
58.997686085
  0
LINE
  8
0
  6
CONTINUOUS
 62
     1
 10
475.6199996
 20
840.6719996
 30
0.0
 11
478.1199996
 21
840.6719996
 31
0.0
  0
LINE
  8
0
  6
CONTINUOUS
 62
     1
 10
475.6199996
 20
831.4719996
 30
0.0
 11
478.119999596
 21
833.971999596
 31
0.0
  0
LINE
  8
0
  6
CONTINUOUS
 62
     1
 10
478.119999596
 20
831.4719996
 30
0.0
 11
475.6199996
 21
828.971999604
 31
0.0
  0
LINE
  8
0
  6
CONTINUOUS
 62
     1
 10
475.6199996
 20
822.2719996
 30
0.0
 11
478.1199996
 21
822.2719996
 31
0.0
  0
LINE
  8
0
  6
CONTINUOUS
 62
     1
 10
478.1199996
 20
714.7999996
 30
0.0
 11
478.1199996
 21
704.9999996
 31
0.0
  0
LINE
  8
0
  6
CONTINUOUS
 62
     1
 10
478.1199996
 20
704.9999996
 30
0.0
 11
483.734358954
 21
704.9999996
 31
0.0
  0
LINE
  8
0
  6
CONTINUOUS
 62
     1
 10
485.1199996
 20
707.3999996
 30
0.0
 11
483.734358954
 21
704.9999996
 31
0.0
  0
LINE
  8
0
  6
CONTINUOUS
 62
     1
 10
485.1199996
 20
714.7999996
 30
0.0
 11
485.1199996
 21
707.3999996
 31
0.0
  0
LINE
  8
0
  6
CONTINUOUS
 62
     1
 10
478.1199996
 20
709.8999996
 30
0.0
 11
483.734358954
 21
709.8999996
 31
0.0
  0
LINE
  8
0
  6
CONTINUOUS
 62
     1
 10
478.1199996
 20
714.7999996
 30
0.0
 11
478.1199996
 21
724.5999996
 31
0.0
  0
LINE
  8
0
  6
CONTINUOUS
 62
     1
 10
478.1199996
 20
724.5999996
 30
0.0
 11
483.734358954
 21
724.5999996
 31
0.0
  0
LINE
  8
0
  6
CONTINUOUS
 62
     1
 10
485.1199996
 20
722.1999996
 30
0.0
 11
483.734358954
 21
724.5999996
 31
0.0
  0
LINE
  8
0
  6
CONTINUOUS
 62
     1
 10
485.1199996
 20
714.7999996
 30
0.0
 11
485.1199996
 21
722.1999996
 31
0.0
  0
LINE
  8
0
  6
CONTINUOUS
 62
     1
 10
478.1199996
 20
719.6999996
 30
0.0
 11
483.734358954
 21
719.6999996
 31
0.0
  0
ARC
  8
0
  6
CONTINUOUS
 62
     1
 10
475.7633168
 20
714.7999996
 30
0.0
 40
9.3566828
 50
328.419912243
 51
31.580087757
  0
ARC
  8
0
  6
CONTINUOUS
 62
     1
 10
482.262115768
 20
707.4499996
 30
0.0
 40
2.858321186
 50
357.010501597
 51
58.997686085
  0
LINE
  8
0
  6
CONTINUOUS
 62
     1
 10
485.1199996
 20
722.1999996
 30
0.0
 11
483.734358954
 21
724.5999996
 31
0.0
  0
ARC
  8
0
  6
CONTINUOUS
 62
     1
 10
482.262115768
 20
722.1499996
 30
0.0
 40
2.858321186
 50
301.002313915
 51
2.989498403
  0
LINE
  8
0
  6
CONTINUOUS
 62
     1
 10
475.6199996
 20
705.5999996
 30
0.0
 11
478.1199996
 21
705.5999996
 31
0.0
  0
LINE
  8
0
  6
CONTINUOUS
 62
     1
 10
475.6199996
 20
714.7999996
 30
0.0
 11
478.119999596
 21
712.299999604
 31
0.0
  0
LINE
  8
0
  6
CONTINUOUS
 62
     1
 10
478.119999596
 20
714.7999996
 30
0.0
 11
475.6199996
 21
717.299999596
 31
0.0
  0
LINE
  8
0
  6
CONTINUOUS
 62
     1
 10
475.6199996
 20
723.9999996
 30
0.0
 11
478.1199996
 21
723.9999996
 31
0.0
  0
LINE
  8
0
  6
CONTINUOUS
 62
     1
 10
685.6199996
 20
833.1359996
 30
0.0
 11
538.6199996
 21
833.1359996
 31
0.0
  0
LINE
  8
0
  6
CONTINUOUS
 62
     1
 10
685.6199996
 20
813.1359996
 30
0.0
 11
538.6199996
 21
813.1359996
 31
0.0
  0
LINE
  8
0
  6
CONTINUOUS
 62
     1
 10
685.6199996
 20
793.1359996
 30
0.0
 11
538.6199996
 21
793.1359996
 31
0.0
  0
LINE
  8
0
  6
CONTINUOUS
 62
     1
 10
685.6199996
 20
753.1359996
 30
0.0
 11
538.6199996
 21
753.1359996
 31
0.0
  0
LINE
  8
0
  6
CONTINUOUS
 62
     1
 10
685.6199996
 20
733.1359996
 30
0.0
 11
538.6199996
 21
733.1359996
 31
0.0
  0
LINE
  8
0
  6
CONTINUOUS
 62
     1
 10
685.6199996
 20
713.1359996
 30
0.0
 11
538.6199996
 21
713.1359996
 31
0.0
  0
LINE
  8
0
  6
CONTINUOUS
 62
     1
 10
685.6199996
 20
693.1359996
 30
0.0
 11
538.6199996
 21
693.1359996
 31
0.0
  0
LINE
  8
0
  6
CONTINUOUS
 62
     1
 10
475.6199996
 20
673.1359996
 30
0.0
 11
475.6199996
 21
873.1359996
 31
0.0
  0
LINE
  8
0
  6
CONTINUOUS
 62
     1
 10
820.361516874
 20
789.084100866
 30
0.0
 11
820.361516874
 21
720.084100866
 31
0.0
  0
POINT
  8
0
  6
CONTINUOUS
 62
     1
 10
820.361516874
 20
720.084100866
 30
0.0
  0
LINE
  8
0
  6
CONTINUOUS
 62
     1
 10
820.361516874
 20
720.084100866
 30
0.0
 11
825.361516874
 21
720.084100866
 31
0.0
  0
POINT
  8
0
  6
CONTINUOUS
 62
     1
 10
825.361516874
 20
720.084100866
 30
0.0
  0
LINE
  8
0
  6
CONTINUOUS
 62
     1
 10
825.361516874
 20
720.084100866
 30
0.0
 11
825.361516874
 21
789.084100866
 31
0.0
  0
LINE
  8
0
  6
CONTINUOUS
 62
     1
 10
820.361516874
 20
789.084100866
 30
0.0
 11
830.161516874
 21
789.084100866
 31
0.0
  0
LINE
  8
0
  6
CONTINUOUS
 62
     1
 10
830.161516874
 20
757.187898334
 30
0.0
 11
830.161516874
 21
789.084100866
 31
0.0
  0
LINE
  8
0
  6
CONTINUOUS
 62
     1
 10
825.361516874
 20
757.187898334
 30
0.0
 11
830.161516874
 21
757.187898334
 31
0.0
  0
LINE
  8
0
  6
CONTINUOUS
 62
     1
 10
820.361516874
 20
777.3359996
 30
0.0
 11
813.661516874
 21
777.3359996
 31
0.0
  0
LINE
  8
0
  6
CONTINUOUS
 62
     1
 10
820.361516874
 20
768.9359996
 30
0.0
 11
813.661516874
 21
768.9359996
 31
0.0
  0
LINE
  8
0
  6
CONTINUOUS
 62
     1
 10
825.361516874
 20
732.8859996
 30
0.0
 11
830.761516874
 21
732.8859996
 31
0.0
  0
POINT
  8
0
  6
CONTINUOUS
 62
     1
 10
830.761516874
 20
732.8859996
 30
0.0
  0
LINE
  8
0
  6
CONTINUOUS
 62
     1
 10
830.761516874
 20
732.8859996
 30
0.0
 11
830.761516874
 21
724.0859996
 31
0.0
  0
POINT
  8
0
  6
CONTINUOUS
 62
     1
 10
830.761516874
 20
724.0859996
 30
0.0
  0
LINE
  8
0
  6
CONTINUOUS
 62
     1
 10
830.761516874
 20
724.0859996
 30
0.0
 11
825.461516874
 21
724.0859996
 31
0.0
  0
LINE
  8
0
  6
CONTINUOUS
 62
     1
 10
820.361516874
 20
730.0859996
 30
0.0
 11
811.461516874
 21
730.0859996
 31
0.0
  0
LINE
  8
0
  6
CONTINUOUS
 62
     1
 10
820.361516874
 20
726.9859996
 30
0.0
 11
811.161516874
 21
726.9859996
 31
0.0
  0
LINE
  8
0
  6
CONTINUOUS
 62
     1
 10
830.161516874
 20
786.5359996
 30
0.0
 11
833.6199996
 21
786.5359996
 31
0.0
  0
LINE
  8
0
  6
CONTINUOUS
 62
     1
 10
833.6199996
 20
786.5359996
 30
0.0
 11
833.6199996
 21
781.9359996
 31
0.0
  0
LINE
  8
0
  6
CONTINUOUS
 62
     1
 10
830.161516874
 20
781.9359996
 30
0.0
 11
833.6199996
 21
781.9359996
 31
0.0
  0
LINE
  8
0
  6
CONTINUOUS
 62
     1
 10
830.161516874
 20
759.7359996
 30
0.0
 11
833.6199996
 21
759.7359996
 31
0.0
  0
LINE
  8
0
  6
CONTINUOUS
 62
     1
 10
833.6199996
 20
759.7359996
 30
0.0
 11
833.6199996
 21
764.3359996
 31
0.0
  0
LINE
  8
0
  6
CONTINUOUS
 62
     1
 10
830.161516874
 20
764.3359996
 30
0.0
 11
833.6199996
 21
764.3359996
 31
0.0
  0
LINE
  8
0
  6
CONTINUOUS
 62
     1
 10
830.161516874
 20
770.8359996
 30
0.0
 11
833.6199996
 21
770.8359996
 31
0.0
  0
LINE
  8
0
  6
CONTINUOUS
 62
     1
 10
833.6199996
 20
770.8359996
 30
0.0
 11
833.6199996
 21
775.4359996
 31
0.0
  0
LINE
  8
0
  6
CONTINUOUS
 62
     1
 10
830.161516874
 20
775.4359996
 30
0.0
 11
833.6199996
 21
775.4359996
 31
0.0
  0
LINE
  8
0
  6
LTYPE2
 62
     2
 10
806.461516874
 20
728.5859996
 30
0.0
 11
836.461516874
 21
728.5859996
 31
0.0
  0
LINE
  8
0
  6
CONTINUOUS
 62
     1
 10
685.6199996
 20
853.1359996
 30
0.0
 11
538.6199996
 21
853.1359996
 31
0.0
  0
LINE
  8
0
  6
CONTINUOUS
 62
     1
 10
702.1199996
 20
886.1359996
 30
0.0
 11
702.1199996
 21
926.1359996
 31
0.0
  0
LINE
  8
0
  6
CONTINUOUS
 62
     1
 10
683.1199996
 20
961.1359996
 30
0.0
 11
535.1199996
 21
887.1359996
 31
0.0
  0
LINE
  8
0
  6
CONTINUOUS
 62
     1
 10
687.592135555
 20
952.19172769
 30
0.0
 11
539.592135555
 21
878.19172769
 31
0.0
  0
ARC
  8
0
  6
CONTINUOUS
 62
     1
 10
657.1199996
 20
885.1359996
 30
0.0
 40
10.0
 50
270.0
 51
0.0
  0
ARC
  8
0
  6
CONTINUOUS
 62
     1
 10
657.1199996
 20
951.1359996
 30
0.0
 40
10.0
 50
0.0
 51
90.0
  0
LINE
  8
0
  6
CONTINUOUS
 62
     1
 10
657.1199996
 20
961.1359996
 30
0.0
 11
567.1199996
 21
961.1359996
 31
0.0
  0
ARC
  8
0
  6
CONTINUOUS
 62
     1
 10
567.1199996
 20
951.1359996
 30
0.0
 40
10.0
 50
90.0
 51
180.0
  0
LINE
  8
0
  6
CONTINUOUS
 62
     1
 10
657.1199996
 20
875.1359996
 30
0.0
 11
567.1199996
 21
875.1359996
 31
0.0
  0
ARC
  8
0
  6
CONTINUOUS
 62
     1
 10
567.1199996
 20
885.1359996
 30
0.0
 40
10.0
 50
180.0
 51
270.0
  0
LINE
  8
0
  6
CONTINUOUS
 62
     1
 10
535.1199996
 20
887.1359996
 30
0.0
 11
539.592135555
 21
878.19172769
 31
0.0
  0
LINE
  8
0
  6
CONTINUOUS
 62
     1
 10
557.1199996
 20
898.05172769
 30
0.0
 11
557.1199996
 21
951.1359996
 31
0.0
  0
LINE
  8
0
  6
CONTINUOUS
 62
     1
 10
557.1199996
 20
885.1359996
 30
0.0
 11
557.1199996
 21
887.05172769
 31
0.0
  0
LINE
  8
0
  6
CONTINUOUS
 62
     1
 10
667.1199996
 20
885.1359996
 30
0.0
 11
667.1199996
 21
941.05172769
 31
0.0
  0
LINE
  8
0
  6
CONTINUOUS
 62
     1
 10
683.332135555
 20
961.93172769
 30
0.0
 11
688.132135555
 21
952.73172769
 31
0.0
  0
LINE
  8
0
  6
CONTINUOUS
 62
     1
 10
702.1199996
 20
926.1359996
 30
0.0
 11
667.1199996
 21
926.1359996
 31
0.0
  0
LINE
  8
0
  6
CONTINUOUS
 62
     1
 10
702.1199996
 20
886.1359996
 30
0.0
 11
667.1199996
 21
886.1359996
 31
0.0
  0
LINE
  8
0
  6
LTYPE2
 62
     2
 10
708.272135555
 20
906.1359996
 30
0.0
 11
657.172135555
 21
906.1359996
 31
0.0
  0
LINE
  8
0
  6
LTYPE2
 62
     2
 10
612.1199996
 20
861.8859996
 30
0.0
 11
612.1199996
 21
970.9359996
 31
0.0
  0
LINE
  8
0
  6
CONTINUOUS
 62
     1
 10
695.6199996
 20
873.1359996
 30
0.0
 11
791.434388193
 21
873.1359996
 31
0.0
  0
ARC
  8
0
  6
CONTINUOUS
 62
     1
 10
789.434388193
 20
858.1359996
 30
0.0
 40
15.0
 50
10.945397096
 51
90.0
  0
ARC
  8
0
  6
CONTINUOUS
 62
     1
 10
789.543513517
 20
860.829939971
 30
0.0
 40
15.0
 50
10.945397096
 51
90.0
  0
LINE
  8
0
  6
CONTINUOUS
 62
     1
 10
695.6199996
 20
875.6359996
 30
0.0
 11
791.434388193
 21
875.6359996
 31
0.0
  0
ARC
  8
0
  6
CONTINUOUS
 62
     1
 10
789.434388193
 20
688.1359996
 30
0.0
 40
15.0
 50
270.0
 51
349.054602904
  0
ARC
  8
0
  6
CONTINUOUS
 62
     1
 10
403.6199996
 20
773.1359996
 30
0.0
 40
410.0
 50
347.629566941
 51
12.370433059
  0
LINE
  8
0
  6
CONTINUOUS
 62
     1
 10
695.6199996
 20
863.8359996
 30
0.0
 11
528.6199996
 21
863.8359996
 31
0.0
  0
LINE
  8
0
  6
CONTINUOUS
 62
     1
 10
528.6199996
 20
682.4359996
 30
0.0
 11
528.6199996
 21
863.8359996
 31
0.0
  0
LINE
  8
0
  6
CONTINUOUS
 62
     1
 10
647.0199996
 20
875.1359996
 30
0.0
 11
647.0199996
 21
863.8359996
 31
0.0
  0
LINE
  8
0
  6
CONTINUOUS
 62
     1
 10
577.2199996
 20
875.1359996
 30
0.0
 11
577.2199996
 21
863.8359996
 31
0.0
  0
ARC
  8
0
  6
CONTINUOUS
 62
     1
 10
803.494980063
 20
783.1359996
 30
0.0
 40
10.0
 50
1.432543738
 51
90.0
  0
ARC
  8
0
  6
CONTINUOUS
 62
     1
 10
803.494980063
 20
763.1359996
 30
0.0
 40
10.0
 50
270.0
 51
358.567456262
  0
LINE
  8
0
  6
CONTINUOUS
 62
     1
 10
803.494998751
 20
793.1359996
 30
0.0
 11
695.6199996
 21
793.1359996
 31
0.0
  0
LINE
  8
0
  6
CONTINUOUS
 62
     1
 10
695.6199996
 20
753.1359996
 30
0.0
 11
803.994998751
 21
753.1359996
 31
0.0
  0
LINE
  8
0
  6
CONTINUOUS
 62
     1
 10
475.6199996
 20
873.1359996
 30
0.0
 11
463.6199996
 21
873.1359996
 31
0.0
  0
LINE
  8
0
  6
CONTINUOUS
 62
     1
 10
475.6199996
 20
673.1359996
 30
0.0
 11
463.6199996
 21
673.1359996
 31
0.0
  0
LINE
  8
0
  6
CONTINUOUS
 62
     1
 10
695.6199996
 20
682.4359996
 30
0.0
 11
528.6199996
 21
682.4359996
 31
0.0
  0
ARC
  8
0
  6
CONTINUOUS
 62
     1
 10
789.543513517
 20
685.442059229
 30
0.0
 40
15.0
 50
270.0
 51
349.054602904
  0
LINE
  8
0
  6
CONTINUOUS
 62
     1
 10
695.6199996
 20
673.1359996
 30
0.0
 11
791.434388193
 21
673.1359996
 31
0.0
  0
LINE
  8
0
  6
CONTINUOUS
 62
     1
 10
695.6199996
 20
670.6359996
 30
0.0
 11
791.434388193
 21
670.6359996
 31
0.0
  0
LINE
  8
0
  6
CONTINUOUS
 62
     1
 10
695.6199996
 20
670.6359996
 30
0.0
 11
695.6199996
 21
875.6359996
 31
0.0
  0
LINE
  8
2
  6
CONTINUOUS
 62
     2
 10
703.1199996
 20
912.5359996
 30
0.0
 11
711.866652482
 21
930.521995913
 31
0.0
  0
LINE
  8
2
  6
CONTINUOUS
 62
     2
 10
703.1199996
 20
912.5359996
 30
0.0
 11
701.701825037
 21
932.48565576
 31
0.0
  0
LINE
  8
2
  6
CONTINUOUS
 62
     2
 10
703.1199996
 20
912.5359996
 30
0.0
 11
711.6199996
 21
956.5359996
 31
0.0
  0
LINE
  8
0
  6
LTYPE2
 62
     2
 10
468.1199996
 20
831.4719996
 30
0.0
 11
493.734358954
 21
831.4719996
 31
0.0
  0
LINE
  8
0
  6
LTYPE2
 62
     2
 10
468.1199996
 20
714.7999996
 30
0.0
 11
493.734358954
 21
714.7999996
 31
0.0
  0
LINE
  8
0
  6
CONTINUOUS
 62
     2
 10
884.0199996
 20
954.3359996
 30
0.0
 11
984.6199996
 21
954.3359996
 31
0.0
  0
LINE
  8
2
  6
CONTINUOUS
 62
     2
 10
826.295627635
 20
789.990967549
 30
0.0
 11
833.349299094
 21
800.310643849
 31
0.0
  0
LINE
  8
2
  6
CONTINUOUS
 62
     2
 10
826.295627635
 20
789.990967549
 30
0.0
 11
827.244448159
 21
802.454905113
 31
0.0
  0
LINE
  8
2
  6
CONTINUOUS
 62
     2
 10
826.295627635
 20
789.990967549
 30
0.0
 11
884.0199996
 21
954.3359996
 31
0.0
  0
LINE
  8
2
  6
CONTINUOUS
 62
     2
 10
895.647800995
 20
875.6359996
 30
0.0
 11
892.412562931
 21
863.561926771
 31
0.0
  0
LINE
  8
2
  6
CONTINUOUS
 62
     2
 10
895.647800995
 20
875.6359996
 30
0.0
 11
898.883039059
 21
863.561926771
 31
0.0
  0
LINE
  8
2
  6
CONTINUOUS
 62
     2
 10
895.647800995
 20
875.6359996
 30
0.0
 11
895.647800995
 21
670.6359996
 31
0.0
  0
LINE
  8
2
  6
CONTINUOUS
 62
     2
 10
895.647800995
 20
670.6359996
 30
0.0
 11
898.883039059
 21
682.710072429
 31
0.0
  0
LINE
  8
2
  6
CONTINUOUS
 62
     2
 10
895.647800995
 20
670.6359996
 30
0.0
 11
892.412562931
 21
682.710072429
 31
0.0
  0
LINE
  8
2
  6
CONTINUOUS
 62
     2
 10
796.947800995
 20
670.6359996
 30
0.0
 11
905.647800995
 21
670.6359996
 31
0.0
  0
LINE
  8
0
  6
LTYPE3
 62
     2
 10
322.1699996
 20
773.2999996
 30
0.0
 11
844.6199996
 21
773.2999996
 31
0.0
  0
LINE
  8
0
  6
CONTINUOUS
 62
     1
 10
668.6199996
 20
537.2999996
 30
0.0
 11
668.6199996
 21
657.2999996
 31
0.0
  0
LINE
  8
0
  6
CONTINUOUS
 62
     1
 10
478.6199996
 20
657.2999996
 30
0.0
 11
668.6199996
 21
657.2999996
 31
0.0
  0
LINE
  8
0
  6
CONTINUOUS
 62
     1
 10
660.6199996
 20
537.2999996
 30
0.0
 11
668.6199996
 21
537.2999996
 31
0.0
  0
LINE
  8
0
  6
CONTINUOUS
 62
     1
 10
478.6199996
 20
537.2999996
 30
0.0
 11
586.6199996
 21
537.2999996
 31
0.0
  0
LINE
  8
0
  6
CONTINUOUS
 62
     1
 10
586.6199996
 20
529.7999996
 30
0.0
 11
586.6199996
 21
571.7999996
 31
0.0
  0
LINE
  8
0
  6
CONTINUOUS
 62
     1
 10
668.6199996
 20
655.2999996
 30
0.0
 11
677.6199996
 21
655.2999996
 31
0.0
  0
LINE
  8
0
  6
CONTINUOUS
 62
     1
 10
668.6199996
 20
658.2999996
 30
0.0
 11
677.6199996
 21
658.2999996
 31
0.0
  0
LINE
  8
0
  6
CONTINUOUS
 62
     1
 10
668.6199996
 20
602.2999996
 30
0.0
 11
677.6199996
 21
602.2999996
 31
0.0
  0
LINE
  8
0
  6
CONTINUOUS
 62
     1
 10
668.6199996
 20
592.2999996
 30
0.0
 11
677.6199996
 21
592.2999996
 31
0.0
  0
LINE
  8
0
  6
CONTINUOUS
 62
     1
 10
668.6199996
 20
539.2999996
 30
0.0
 11
677.6199996
 21
539.2999996
 31
0.0
  0
LINE
  8
0
  6
CONTINUOUS
 62
     1
 10
668.6199996
 20
536.2999996
 30
0.0
 11
677.6199996
 21
536.2999996
 31
0.0
  0
LINE
  8
0
  6
CONTINUOUS
 62
     1
 10
677.6199996
 20
537.2999996
 30
0.0
 11
677.6199996
 21
657.2999996
 31
0.0
  0
CIRCLE
  8
0
  6
CONTINUOUS
 62
     1
 10
824.545007504
 20
597.2999996
 30
0.0
 40
19.5
  0
LINE
  8
0
  6
CONTINUOUS
 62
     1
 10
804.545007504
 20
617.2999996
 30
0.0
 11
844.545007504
 21
617.2999996
 31
0.0
  0
LINE
  8
0
  6
CONTINUOUS
 62
     1
 10
844.545007504
 20
577.2999996
 30
0.0
 11
844.545007504
 21
617.2999996
 31
0.0
  0
LINE
  8
0
  6
CONTINUOUS
 62
     1
 10
804.545007504
 20
577.2999996
 30
0.0
 11
844.545007504
 21
577.2999996
 31
0.0
  0
LINE
  8
0
  6
CONTINUOUS
 62
     1
 10
804.545007504
 20
577.2999996
 30
0.0
 11
804.545007504
 21
617.2999996
 31
0.0
  0
LINE
  8
0
  6
LTYPE3
 62
     2
 10
824.545007504
 20
572.1999996
 30
0.0
 11
824.545007504
 21
622.0999996
 31
0.0
  0
LINE
  8
2
  6
CONTINUOUS
 62
     2
 10
767.6199996
 20
652.2999996
 30
0.0
 11
764.384761536
 21
640.225926771
 31
0.0
  0
LINE
  8
2
  6
CONTINUOUS
 62
     2
 10
767.6199996
 20
652.2999996
 30
0.0
 11
770.855237664
 21
640.225926771
 31
0.0
  0
LINE
  8
2
  6
CONTINUOUS
 62
     2
 10
767.6199996
 20
652.2999996
 30
0.0
 11
767.6199996
 21
542.2999996
 31
0.0
  0
LINE
  8
2
  6
CONTINUOUS
 62
     2
 10
767.6199996
 20
542.2999996
 30
0.0
 11
770.855237664
 21
554.374072429
 31
0.0
  0
LINE
  8
2
  6
CONTINUOUS
 62
     2
 10
767.6199996
 20
542.2999996
 30
0.0
 11
764.384761536
 21
554.374072429
 31
0.0
  0
LINE
  8
0
  6
LTYPE3
 62
     2
 10
1180.503471875
 20
597.2999996
 30
0.0
 11
932.4199996
 21
597.2999996
 31
0.0
  0
LINE
  8
2
  6
CONTINUOUS
 62
     2
 10
548.6199996
 20
362.2999996
 30
0.0
 11
548.6199996
 21
337.2999996
 31
0.0
  0
LINE
  8
2
  6
CONTINUOUS
 62
     2
 10
548.6199996
 20
347.2999996
 30
0.0
 11
560.694072429
 21
344.064761536
 31
0.0
  0
LINE
  8
2
  6
CONTINUOUS
 62
     2
 10
548.6199996
 20
347.2999996
 30
0.0
 11
560.694072429
 21
350.535237664
 31
0.0
  0
LINE
  8
2
  6
CONTINUOUS
 62
     2
 10
548.6199996
 20
317.2999996
 30
0.0
 11
548.6199996
 21
305.2999996
 31
0.0
  0
LINE
  8
2
  6
CONTINUOUS
 62
     2
 10
548.6199996
 20
315.2999996
 30
0.0
 11
560.694072429
 21
312.064761536
 31
0.0
  0
LINE
  8
2
  6
CONTINUOUS
 62
     2
 10
548.6199996
 20
315.2999996
 30
0.0
 11
560.694072429
 21
318.535237664
 31
0.0
  0
LINE
  8
2
  6
CONTINUOUS
 62
     2
 10
351.6199996
 20
498.2999996
 30
0.0
 11
351.6199996
 21
263.2999996
 31
0.0
  0
LINE
  8
2
  6
CONTINUOUS
 62
     2
 10
351.6199996
 20
273.2999996
 30
0.0
 11
363.694072429
 21
270.064761536
 31
0.0
  0
LINE
  8
2
  6
CONTINUOUS
 62
     2
 10
351.6199996
 20
273.2999996
 30
0.0
 11
363.694072429
 21
276.535237664
 31
0.0
  0
LINE
  8
2
  6
CONTINUOUS
 62
     2
 10
711.6199996
 20
956.5359996
 30
0.0
 11
829.2199996
 21
956.5359996
 31
0.0
  0
LINE
  8
2
  6
CONTINUOUS
 62
     2
 10
796.947800995
 20
875.6359996
 30
0.0
 11
905.647800995
 21
875.6359996
 31
0.0
  0
LINE
  8
2
  6
CONTINUOUS
 62
     2
 10
548.6199996
 20
315.2999996
 30
0.0
 11
1156.2199996
 21
315.2999996
 31
0.0
  0
LINE
  8
2
  6
CONTINUOUS
 62
     2
 10
351.6199996
 20
273.2999996
 30
0.0
 11
1156.2199996
 21
273.2999996
 31
0.0
  0
LINE
  8
2
  6
CONTINUOUS
 62
     2
 10
463.6199996
 20
992.2999996
 30
0.0
 11
475.694072429
 21
989.064761536
 31
0.0
  0
LINE
  8
2
  6
CONTINUOUS
 62
     2
 10
463.6199996
 20
992.2999996
 30
0.0
 11
475.694072429
 21
995.535237664
 31
0.0
  0
LINE
  8
2
  6
CONTINUOUS
 62
     2
 10
463.6199996
 20
992.2999996
 30
0.0
 11
833.6199996
 21
992.2999996
 31
0.0
  0
LINE
  8
2
  6
CONTINUOUS
 62
     2
 10
833.6199996
 20
992.2999996
 30
0.0
 11
821.545926771
 21
995.535237664
 31
0.0
  0
LINE
  8
2
  6
CONTINUOUS
 62
     2
 10
833.6199996
 20
992.2999996
 30
0.0
 11
821.545926771
 21
989.064761536
 31
0.0
  0
LINE
  8
2
  6
CONTINUOUS
 62
     2
 10
833.6199996
 20
791.5359996
 30
0.0
 11
833.6199996
 21
1002.2999996
 31
0.0
  0
LINE
  8
2
  6
CONTINUOUS
 62
     2
 10
463.6199996
 20
883.2999996
 30
0.0
 11
463.6199996
 21
1002.2999996
 31
0.0
  0
LINE
  8
2
  6
CONTINUOUS
 62
     2
 10
463.6199996
 20
972.2999996
 30
0.0
 11
463.6199996
 21
1002.2999996
 31
0.0
  0
LINE
  8
2
  6
CONTINUOUS
 62
     2
 10
708.1199996
 20
504.2999996
 30
0.0
 11
713.087963082
 21
492.82963174
 31
0.0
  0
LINE
  8
2
  6
CONTINUOUS
 62
     2
 10
708.1199996
 20
504.2999996
 30
0.0
 11
718.15756611
 21
496.850351383
 31
0.0
  0
LINE
  8
2
  6
CONTINUOUS
 62
     2
 10
708.1199996
 20
504.2999996
 30
0.0
 11
731.1199996
 21
475.2999996
 31
0.0
  0
LINE
  8
2
  6
CONTINUOUS
 62
     2
 10
731.1199996
 20
475.2999996
 30
0.0
 11
804.6199996
 21
475.2999996
 31
0.0
  0
LINE
  8
2
  6
CONTINUOUS
 62
     2
 10
827.1199996
 20
579.2999996
 30
0.0
 11
827.045114758
 21
566.800223912
 31
0.0
  0
LINE
  8
2
  6
CONTINUOUS
 62
     2
 10
827.1199996
 20
579.2999996
 30
0.0
 11
833.305035269
 21
568.437433891
 31
0.0
  0
LINE
  8
2
  6
CONTINUOUS
 62
     2
 10
827.1199996
 20
579.2999996
 30
0.0
 11
844.1199996
 21
514.2999996
 31
0.0
  0
LINE
  8
2
  6
CONTINUOUS
 62
     2
 10
844.1199996
 20
514.2999996
 30
0.0
 11
887.6199996
 21
514.2999996
 31
0.0
  0
CIRCLE
  8
0
  6
CONTINUOUS
 62
     1
 10
1156.2199996
 20
597.2999996
 30
0.0
 40
12.5
  0
CIRCLE
  8
0
  6
CONTINUOUS
 62
     1
 10
1156.2199996
 20
597.2999996
 30
0.0
 40
22.0
  0
CIRCLE
  8
0
  6
CONTINUOUS
 62
     1
 10
1156.2199996
 20
612.7999996
 30
0.0
 40
3.0
  0
LINE
  8
0
  6
CONTINUOUS
 62
     1
 10
1152.0199996
 20
580.4999996
 30
0.0
 11
1154.0199996
 21
580.1999996
 31
0.0
  0
LINE
  8
0
  6
CONTINUOUS
 62
     1
 10
1154.5199996
 20
584.8999996
 30
0.0
 11
1154.284614985
 21
583.330768831
 31
0.0
  0
LINE
  8
0
  6
CONTINUOUS
 62
     1
 10
1154.284614985
 20
583.330768831
 30
0.0
 11
1152.0199996
 21
580.4999996
 31
0.0
  0
LINE
  8
0
  6
CONTINUOUS
 62
     1
 10
1156.2199996
 20
582.8999996
 30
0.0
 11
1154.0199996
 21
580.1999996
 31
0.0
  0
LINE
  8
0
  6
CONTINUOUS
 62
     1
 10
1160.4199996
 20
580.4999996
 30
0.0
 11
1158.4199996
 21
580.1999996
 31
0.0
  0
LINE
  8
0
  6
CONTINUOUS
 62
     1
 10
1157.9199996
 20
584.8999996
 30
0.0
 11
1158.155384215
 21
583.330768831
 31
0.0
  0
LINE
  8
0
  6
CONTINUOUS
 62
     1
 10
1158.155384215
 20
583.330768831
 30
0.0
 11
1160.4199996
 21
580.4999996
 31
0.0
  0
LINE
  8
0
  6
CONTINUOUS
 62
     1
 10
1156.2199996
 20
582.8999996
 30
0.0
 11
1158.4199996
 21
580.1999996
 31
0.0
  0
ARC
  8
0
  6
CONTINUOUS
 62
     1
 10
1178.2199996
 20
619.2999996
 30
0.0
 40
8.0
 50
0.0
 51
90.0
  0
LINE
  8
0
  6
CONTINUOUS
 62
     1
 10
1186.2199996
 20
575.2999996
 30
0.0
 11
1186.2199996
 21
619.2999996
 31
0.0
  0
ARC
  8
0
  6
CONTINUOUS
 62
     1
 10
1178.2199996
 20
575.2999996
 30
0.0
 40
8.0
 50
270.0
 51
0.0
  0
LINE
  8
0
  6
LTYPE1
 62
     2
 10
1111.2199996
 20
567.2999996
 30
0.0
 11
1111.2199996
 21
627.2999996
 31
0.0
  0
LINE
  8
2
  6
CONTINUOUS
 62
     2
 10
1163.3199996
 20
607.7999996
 30
0.0
 11
1169.643251501
 21
618.582693392
 31
0.0
  0
LINE
  8
2
  6
CONTINUOUS
 62
     2
 10
1163.3199996
 20
607.7999996
 30
0.0
 11
1163.404749485
 21
620.299712295
 31
0.0
  0
LINE
  8
7
  6
CONTINUOUS
 62
     2
 10
1175.471375747
 20
651.9499996
 30
0.0
 11
1265.7199996
 21
651.9499996
 31
0.0
  0
LINE
  8
2
  6
CONTINUOUS
 62
     2
 10
1163.3199996
 20
607.7999996
 30
0.0
 11
1175.471375747
 21
651.9499996
 31
0.0
  0
LINE
  8
2
  6
CONTINUOUS
 62
     2
 10
1097.2199996
 20
347.2999996
 30
0.0
 11
1085.145926771
 21
350.535237664
 31
0.0
  0
LINE
  8
2
  6
CONTINUOUS
 62
     2
 10
1097.2199996
 20
347.2999996
 30
0.0
 11
1085.145926771
 21
344.064761536
 31
0.0
  0
LINE
  8
2
  6
CONTINUOUS
 62
     2
 10
1097.2199996
 20
362.2999996
 30
0.0
 11
1097.2199996
 21
337.2999996
 31
0.0
  0
LINE
  8
2
  6
CONTINUOUS
 62
     2
 10
1097.2199996
 20
347.2999996
 30
0.0
 11
1109.294072429
 21
344.064761536
 31
0.0
  0
LINE
  8
2
  6
CONTINUOUS
 62
     2
 10
1097.2199996
 20
347.2999996
 30
0.0
 11
1109.294072429
 21
350.535237664
 31
0.0
  0
LINE
  8
2
  6
CONTINUOUS
 62
     2
 10
1097.2199996
 20
347.2999996
 30
0.0
 11
1156.2199996
 21
347.2999996
 31
0.0
  0
LINE
  8
2
  6
CONTINUOUS
 62
     2
 10
1156.2199996
 20
347.2999996
 30
0.0
 11
1144.145926771
 21
350.535237664
 31
0.0
  0
LINE
  8
2
  6
CONTINUOUS
 62
     2
 10
1156.2199996
 20
347.2999996
 30
0.0
 11
1144.145926771
 21
344.064761536
 31
0.0
  0
LINE
  8
2
  6
CONTINUOUS
 62
     2
 10
1156.2199996
 20
592.2999996
 30
0.0
 11
1156.2199996
 21
337.2999996
 31
0.0
  0
LINE
  8
2
  6
CONTINUOUS
 62
     2
 10
1156.2199996
 20
315.2999996
 30
0.0
 11
1144.145926771
 21
318.535237664
 31
0.0
  0
LINE
  8
2
  6
CONTINUOUS
 62
     2
 10
1156.2199996
 20
315.2999996
 30
0.0
 11
1144.145926771
 21
312.064761536
 31
0.0
  0
LINE
  8
2
  6
CONTINUOUS
 62
     2
 10
1156.2199996
 20
351.2999996
 30
0.0
 11
1156.2199996
 21
305.2999996
 31
0.0
  0
LINE
  8
2
  6
CONTINUOUS
 62
     2
 10
1156.2199996
 20
273.2999996
 30
0.0
 11
1144.145926771
 21
276.535237664
 31
0.0
  0
LINE
  8
2
  6
CONTINUOUS
 62
     2
 10
1156.2199996
 20
273.2999996
 30
0.0
 11
1144.145926771
 21
270.064761536
 31
0.0
  0
LINE
  8
2
  6
CONTINUOUS
 62
     2
 10
1156.2199996
 20
321.2999996
 30
0.0
 11
1156.2199996
 21
263.2999996
 31
0.0
  0
LINE
  8
2
  6
CONTINUOUS
 62
     2
 10
1156.2199996
 20
297.2999996
 30
0.0
 11
1156.2199996
 21
263.2999996
 31
0.0
  0
LINE
  8
2
  6
CONTINUOUS
 62
     2
 10
1156.2199996
 20
273.2999996
 30
0.0
 11
1168.294072429
 21
270.064761536
 31
0.0
  0
LINE
  8
2
  6
CONTINUOUS
 62
     2
 10
1156.2199996
 20
273.2999996
 30
0.0
 11
1168.294072429
 21
276.535237664
 31
0.0
  0
LINE
  8
2
  6
CONTINUOUS
 62
     2
 10
1156.2199996
 20
273.2999996
 30
0.0
 11
1186.2199996
 21
273.2999996
 31
0.0
  0
LINE
  8
2
  6
CONTINUOUS
 62
     2
 10
1186.2199996
 20
273.2999996
 30
0.0
 11
1174.145926771
 21
276.535237664
 31
0.0
  0
LINE
  8
2
  6
CONTINUOUS
 62
     2
 10
1186.2199996
 20
273.2999996
 30
0.0
 11
1174.145926771
 21
270.064761536
 31
0.0
  0
LINE
  8
2
  6
CONTINUOUS
 62
     2
 10
1186.2199996
 20
570.2999996
 30
0.0
 11
1186.2199996
 21
263.2999996
 31
0.0
  0
LINE
  8
2
  6
CONTINUOUS
 62
     2
 10
1183.2199996
 20
627.2999996
 30
0.0
 11
1238.2199996
 21
627.2999996
 31
0.0
  0
LINE
  8
2
  6
CONTINUOUS
 62
     2
 10
1228.2199996
 20
627.2999996
 30
0.0
 11
1224.984761536
 21
615.225926771
 31
0.0
  0
LINE
  8
2
  6
CONTINUOUS
 62
     2
 10
1228.2199996
 20
627.2999996
 30
0.0
 11
1231.455237664
 21
615.225926771
 31
0.0
  0
LINE
  8
2
  6
CONTINUOUS
 62
     2
 10
1228.2199996
 20
627.2999996
 30
0.0
 11
1228.2199996
 21
567.2999996
 31
0.0
  0
LINE
  8
2
  6
CONTINUOUS
 62
     2
 10
1228.2199996
 20
567.2999996
 30
0.0
 11
1231.455237664
 21
579.374072429
 31
0.0
  0
LINE
  8
2
  6
CONTINUOUS
 62
     2
 10
1228.2199996
 20
567.2999996
 30
0.0
 11
1224.984761536
 21
579.374072429
 31
0.0
  0
LINE
  8
2
  6
CONTINUOUS
 62
     2
 10
1183.2199996
 20
567.2999996
 30
0.0
 11
1238.2199996
 21
567.2999996
 31
0.0
  0
LINE
  8
0
  6
LTYPE4
 62
     2
 10
1156.2199996
 20
572.2999996
 30
0.0
 11
1156.2199996
 21
633.7999996
 31
0.0
  0
LINE
  8
0
  6
CONTINUOUS
 62
     1
 10
1096.2199996
 20
567.2999996
 30
0.0
 11
1096.2199996
 21
627.2999996
 31
0.0
  0
LINE
  8
2
  6
CONTINUOUS
 62
     2
 10
1097.2199996
 20
565.7999996
 30
0.0
 11
1097.2199996
 21
337.2999996
 31
0.0
  0
LINE
  8
0
  6
LTYPE4
 62
     2
 10
1323.6389911
 20
773.298336697
 30
0.0
 11
1323.891854918
 21
772.354636082
 31
0.0
  0
TEXT
  8
2
  6
CONTINUOUS
 62
     2
 10
623.1199996
 20
997.2999996
 30
0.0
 40
18.0
  1
３７０
 50
0.0
 41
0.9
 51
0.0
  7
KANJI42
  0
TEXT
  8
0
  6
CONTINUOUS
 62
     2
 10
885.5199996
 20
959.3359996
 30
0.0
 40
18.0
  1
手動開放装置
 50
0.0
 41
0.9
 51
0.0
  7
KANJI42
  0
TEXT
  8
2
  6
CONTINUOUS
 62
     2
 10
711.6199996
 20
964.5359996
 30
0.0
 40
18.0
  1
ＰＦ３／４
 50
0.0
 41
0.9
 51
0.0
  7
KANJI42
  0
TEXT
  8
0
  6
CONTINUOUS
 62
     2
 10
582.6199996
 20
394.2374996
 30
0.0
 40
18.0
  1
推力リミッタ
 50
0.0
 41
0.9
 51
0.0
  7
KANJI42
  0
TEXT
  8
2
  6
CONTINUOUS
 62
     2
 10
774.3199996
 20
352.2999996
 30
0.0
 40
18.0
  1
Ｃ
 50
0.0
 41
0.9
 51
0.0
  7
KANJI42
  0
TEXT
  8
2
  6
CONTINUOUS
 62
     2
 10
809.4199996
 20
320.2999996
 30
0.0
 40
18.0
  1
ｍｉｎ．Ｌ
 50
0.0
 41
0.9
 51
0.0
  7
KANJI42
  0
TEXT
  8
2
  6
CONTINUOUS
 62
     2
 10
702.1699996
 20
278.2999996
 30
0.0
 40
18.0
  1
ｍｉｎ．ＡＬ
 50
0.0
 41
0.9
 51
0.0
  7
KANJI42
  0
TEXT
  8
2
  6
CONTINUOUS
 62
     3
 10
731.1199996
 20
480.2999996
 30
0.0
 40
18.0
  1
ＰＦ１／２
 50
0.0
 41
0.9
 51
0.0
  7
KANJI42
  0
TEXT
  8
2
  6
CONTINUOUS
 62
     3
 10
844.1199996
 20
519.2999996
 30
0.0
 40
18.0
  1
給脂口
 50
0.0
 41
0.9
 51
0.0
  7
KANJI42
  0
TEXT
  8
7
  6
CONTINUOUS
 62
     2
 10
1177.2199996
 20
656.9499996
 30
0.0
 40
18.0
  1
φ２５Ｈ１０
 50
0.0
 41
0.9
 51
0.0
  7
KANJI42
  0
TEXT
  8
2
  6
CONTINUOUS
 62
     2
 10
1109.9699996
 20
352.2999996
 30
0.0
 40
18.0
  1
６０
 50
0.0
 41
0.9
 51
0.0
  7
KANJI42
  0
TEXT
  8
2
  6
CONTINUOUS
 62
     2
 10
1154.4699996
 20
278.2999996
 30
0.0
 40
18.0
  1
３０
 50
0.0
 41
0.9
 51
0.0
  7
KANJI42
  0
TEXT
  8
2
  6
CONTINUOUS
 62
     2
 10
1223.2199996
 20
580.5499996
 30
0.0
 40
18.0
  1
６０
 50
90.0
 41
0.9
 51
0.0
  7
KANJI42
  0
TEXT
  8
2
  6
CONTINUOUS
 62
     2
 10
762.6199996
 20
560.8999996
 30
0.0
 40
18.0
  1
φ１１０
 50
90.0
 41
0.9
 51
0.0
  7
KANJI42
  0
TEXT
  8
2
  6
CONTINUOUS
 62
     2
 10
890.647800995
 20
738.8859996
 30
0.0
 40
18.0
  1
φ２０５
 50
90.0
 41
0.9
 51
0.0
  7
KANJI42
  0
TEXT
  8
0
  6
CONTINUOUS
 62
     2
 10
1243.9199996
 20
675.70082217
 30
0.0
 40
18.0
  1
ｄ９
 50
0.0
 41
0.9
 51
0.0
  7
KANJI42
  0
LINE
  8
0
  6
CONTINUOUS
 62
     1
 10
1021.2199996
 20
542.2999996
 30
0.0
 11
1021.2199996
 21
652.2999996
 31
0.0
  0
LINE
  8
2
  6
CONTINUOUS
 62
     2
 10
1051.2199996
 20
537.2999996
 30
0.0
 11
1051.2199996
 21
337.2999996
 31
0.0
  0
LINE
  8
2
  6
CONTINUOUS
 62
     2
 10
1051.2199996
 20
359.2999996
 30
0.0
 11
1051.2199996
 21
337.2999996
 31
0.0
  0
LINE
  8
2
  6
CONTINUOUS
 62
     2
 10
1051.2199996
 20
347.2999996
 30
0.0
 11
1063.294072429
 21
344.064761536
 31
0.0
  0
LINE
  8
2
  6
CONTINUOUS
 62
     2
 10
1051.2199996
 20
347.2999996
 30
0.0
 11
1039.145926771
 21
344.064761536
 31
0.0
  0
LINE
  8
2
  6
CONTINUOUS
 62
     2
 10
1051.2199996
 20
347.2999996
 30
0.0
 11
1039.145926771
 21
350.535237664
 31
0.0
  0
LINE
  8
2
  6
CONTINUOUS
 62
     2
 10
1051.2199996
 20
347.2999996
 30
0.0
 11
1063.294072429
 21
350.535237664
 31
0.0
  0
LINE
  8
0
  6
CONTINUOUS
 62
     1
 10
1051.2199996
 20
627.2999996
 30
0.0
 11
1178.2199996
 21
627.2999996
 31
0.0
  0
LINE
  8
0
  6
CONTINUOUS
 62
     1
 10
1081.2199996
 20
567.2999996
 30
0.0
 11
1051.2199996
 21
567.2999996
 31
0.0
  0
LINE
  8
0
  6
CONTINUOUS
 62
     1
 10
1051.2199996
 20
567.2999996
 30
0.0
 11
1178.2199996
 21
567.2999996
 31
0.0
  0
LINE
  8
0
  6
CONTINUOUS
 62
     1
 10
1051.2199996
 20
652.2999996
 30
0.0
 11
677.6199996
 21
652.2999996
 31
0.0
  0
LINE
  8
0
  6
CONTINUOUS
 62
     1
 10
1051.2199996
 20
542.2999996
 30
0.0
 11
1051.2199996
 21
652.2999996
 31
0.0
  0
LINE
  8
0
  6
CONTINUOUS
 62
     1
 10
1051.2199996
 20
542.2999996
 30
0.0
 11
677.6199996
 21
542.2999996
 31
0.0
  0
LINE
  8
2
  6
CONTINUOUS
 62
     2
 10
1051.2199996
 20
347.2999996
 30
0.0
 11
1097.2199996
 21
347.2999996
 31
0.0
  0
LINE
  8
2
  6
CONTINUOUS
 62
     2
 10
548.6199996
 20
347.2999996
 30
0.0
 11
1051.2199996
 21
347.2999996
 31
0.0
  0
TEXT
  8
2
  6
CONTINUOUS
 62
     2
 10
1080.8699996
 20
352.2999996
 30
0.0
 40
18.0
  1
Ｐ
 50
0.0
 41
0.9
 51
0.0
  7
KANJI42
  0
TEXT
  8
2
  6
CONTINUOUS
 62
     2
 10
1052.8699996
 20
368.7999996
 30
-3.0
 40
18.0
  1
ｍｉｎ
 50
0.0
 41
0.9
 51
0.0
  7
KANJI63
  0
LINE
  8
0
  6
CONTINUOUS
 62
     1
 10
583.0
 20
478.2999996
 30
0.0
 11
593.0
 21
478.2999996
 31
0.0
  0
LINE
  8
0
  6
LTYPE3
 62
     2
 10
588.0
 20
483.2999996
 30
0.0
 11
588.0
 21
472.5999996
 31
0.0
  0
ARC
  8
0
  6
CONTINUOUS
 62
     1
 10
588.0
 20
479.1999996
 30
0.0
 40
5.1
 50
189.9
 51
350.1
  0
LINE
  8
0
  6
CONTINUOUS
 62
     1
 10
696.0
 20
478.2999996
 30
0.0
 11
706.0
 21
478.2999996
 31
0.0
  0
LINE
  8
0
  6
LTYPE3
 62
     2
 10
701.0
 20
483.2999996
 30
0.0
 11
701.0
 21
472.5999996
 31
0.0
  0
ARC
  8
0
  6
CONTINUOUS
 62
     1
 10
701.0
 20
479.1999996
 30
0.0
 40
5.1
 50
189.9
 51
350.1
  0
LINE
  8
0
  6
CONTINUOUS
 62
     2
 10
463.6199996
 20
975.7799996
 30
0.0
 11
463.6199996
 21
998.2999996
 31
0.0
  0
LINE
  8
0
  6
CONTINUOUS
 62
     2
 10
548.6199996
 20
351.3699996
 30
0.0
 11
548.6199996
 21
341.2999996
 31
0.0
  0
LINE
  8
0
  6
CONTINUOUS
 62
     2
 10
548.6199996
 20
347.2999996
 30
0.0
 11
537.028889685
 21
350.405828141
 31
0.0
  0
LINE
  8
0
  6
CONTINUOUS
 62
     2
 10
548.6199996
 20
347.2999996
 30
0.0
 11
537.028889685
 21
344.194171059
 31
0.0
  0
LINE
  8
0
  6
CONTINUOUS
 62
     2
 10
548.6199996
 20
347.2999996
 30
0.0
 11
463.6199996
 21
347.2999996
 31
0.0
  0
LINE
  8
0
  6
CONTINUOUS
 62
     2
 10
463.6199996
 20
347.2999996
 30
0.0
 11
475.211109515
 21
344.194171059
 31
0.0
  0
LINE
  8
0
  6
CONTINUOUS
 62
     2
 10
463.6199996
 20
347.2999996
 30
0.0
 11
475.211109515
 21
350.405828141
 31
0.0
  0
LINE
  8
0
  6
CONTINUOUS
 62
     2
 10
463.6199996
 20
497.2999996
 30
0.0
 11
463.6199996
 21
341.2999996
 31
0.0
  0
TEXT
  8
0
  6
CONTINUOUS
 62
     3
 10
489.9199996
 20
353.2999996
 30
0.0
 40
18.0
  1
８５
 50
0.0
 41
0.9
 51
0.0
  7
KANJI42
  0
LINE
  8
0
  6
CONTINUOUS
 62
     2
 10
463.6199996
 20
352.0099996
 30
0.0
 11
463.6199996
 21
341.2999996
 31
0.0
  0
LINE
  8
0
  6
CONTINUOUS
 62
     2
 10
463.6199996
 20
347.2999996
 30
0.0
 11
452.028889685
 21
350.405828141
 31
0.0
  0
LINE
  8
0
  6
CONTINUOUS
 62
     2
 10
463.6199996
 20
347.2999996
 30
0.0
 11
452.028889685
 21
344.194171059
 31
0.0
  0
LINE
  8
0
  6
CONTINUOUS
 62
     2
 10
463.6199996
 20
347.2999996
 30
0.0
 11
351.6199996
 21
347.2999996
 31
0.0
  0
LINE
  8
0
  6
CONTINUOUS
 62
     2
 10
351.6199996
 20
347.2999996
 30
0.0
 11
363.211109515
 21
344.194171059
 31
0.0
  0
LINE
  8
0
  6
CONTINUOUS
 62
     2
 10
351.6199996
 20
347.2999996
 30
0.0
 11
363.211109515
 21
350.405828141
 31
0.0
  0
LINE
  8
0
  6
CONTINUOUS
 62
     2
 10
351.6199996
 20
345.5499996
 30
0.0
 11
351.6199996
 21
341.2999996
 31
0.0
  0
TEXT
  8
0
  6
CONTINUOUS
 62
     3
 10
383.3199996
 20
353.2999996
 30
0.0
 40
18.0
  1
１１２
 50
0.0
 41
0.9
 51
0.0
  7
KANJI42
  0
LINE
  8
0
  6
CONTINUOUS
 62
     2
 10
548.6199996
 20
324.8699996
 30
0.0
 11
548.6199996
 21
309.2999996
 31
0.0
  0
LINE
  8
0
  6
CONTINUOUS
 62
     2
 10
548.6199996
 20
315.2999996
 30
0.0
 11
537.028889685
 21
318.405828141
 31
0.0
  0
LINE
  8
0
  6
CONTINUOUS
 62
     2
 10
548.6199996
 20
315.2999996
 30
0.0
 11
537.028889685
 21
312.194171059
 31
0.0
  0
LINE
  8
0
  6
CONTINUOUS
 62
     2
 10
548.6199996
 20
315.2999996
 30
0.0
 11
351.6199996
 21
315.2999996
 31
0.0
  0
LINE
  8
0
  6
CONTINUOUS
 62
     2
 10
351.6199996
 20
315.2999996
 30
0.0
 11
363.211109515
 21
312.194171059
 31
0.0
  0
LINE
  8
0
  6
CONTINUOUS
 62
     2
 10
351.6199996
 20
315.2999996
 30
0.0
 11
363.211109515
 21
318.405828141
 31
0.0
  0
LINE
  8
0
  6
CONTINUOUS
 62
     2
 10
351.6199996
 20
310.0099996
 30
0.0
 11
351.6199996
 21
309.2999996
 31
0.0
  0
TEXT
  8
0
  6
CONTINUOUS
 62
     3
 10
425.8199996
 20
321.2999996
 30
0.0
 40
18.0
  1
１９７
 50
0.0
 41
0.9
 51
0.0
  7
KANJI42
  0
LINE
  8
0
  6
LTYPE3
 62
     2
 10
906.4199996
 20
597.2999996
 30
0.0
 11
767.6199996
 21
597.2999996
 31
0.0
  0
LINE
  8
0
  6
LTYPE3
 62
     2
 10
342.6199996
 20
597.2999996
 30
0.0
 11
738.1999996
 21
597.2999996
 31
0.0
  0
LINE
  8
0
  6
CONTINUOUS
 62
     2
 10
1172.9299996
 20
918.6199996
 30
0.0
 11
1160.855926771
 21
921.855237664
 31
0.0
  0
LINE
  8
0
  6
CONTINUOUS
 62
     2
 10
1172.9299996
 20
918.6199996
 30
0.0
 11
1160.855926771
 21
915.384761536
 31
0.0
  0
LINE
  8
0
  6
CONTINUOUS
 62
     2
 10
1172.9299996
 20
918.6199996
 30
0.0
 11
1131.9299996
 21
918.6199996
 31
0.0
  0
TEXT
  8
0
  6
CONTINUOUS
 62
     3
 10
1138.9299996
 20
928.6199996
 30
0.0
 40
20.0
  1
前進
 50
0.0
 41
0.925
 51
0.0
  7
KANJI64
  0
LINE
  8
0
  6
LTYPE4
 62
     2
 10
1323.9199996
 20
773.2999996
 30
0.0
 11
1557.0799996
 21
773.2999996
 31
0.0
  0
ARC
  8
0
  6
CONTINUOUS
 62
     1
 10
1360.9199996
 20
513.2999996
 30
0.0
 40
10.0
 50
180.0
 51
270.0
  0
ARC
  8
0
  6
CONTINUOUS
 62
     1
 10
1525.9199996
 20
513.2999996
 30
0.0
 40
10.0
 50
270.0
 51
0.0
  0
LINE
  8
0
  6
CONTINUOUS
 62
     1
 10
1535.9199996
 20
513.2999996
 30
0.0
 11
1535.9199996
 21
573.993235889
 31
0.0
  0
LINE
  8
0
  6
CONTINUOUS
 62
     2
 10
1350.9199996
 20
513.2999996
 30
0.0
 11
1350.9199996
 21
376.2999996
 31
0.0
  0
LINE
  8
0
  6
CONTINUOUS
 62
     2
 10
1535.9199996
 20
513.2999996
 30
0.0
 11
1535.9199996
 21
376.2999996
 31
0.0
  0
LINE
  8
0
  6
CONTINUOUS
 62
     2
 10
1538.4199996
 20
574.2999996
 30
0.0
 11
1538.4199996
 21
326.2999996
 31
0.0
  0
LINE
  8
0
  6
CONTINUOUS
 62
     2
 10
1594.6199996
 20
609.7999996
 30
0.0
 11
1541.8199996
 21
609.7999996
 31
0.0
  0
LINE
  8
0
  6
CONTINUOUS
 62
     2
 10
1596.6199996
 20
584.7999996
 30
0.0
 11
1542.8199996
 21
584.7999996
 31
0.0
  0
LINE
  8
0
  6
LTYPE3
 62
     2
 10
1547.4199996
 20
597.2999996
 30
0.0
 11
1341.1199996
 21
597.2999996
 31
0.0
  0
LINE
  8
0
  6
CONTINUOUS
 62
     1
 10
1350.9199996
 20
513.2999996
 30
0.0
 11
1350.9199996
 21
573.7999996
 31
0.0
  0
LINE
  8
0
  6
CONTINUOUS
 62
     2
 10
1348.4199996
 20
574.2999996
 30
0.0
 11
1348.4199996
 21
326.2999996
 31
0.0
  0
LINE
  8
0
  6
CONTINUOUS
 62
     2
 10
1552.1199996
 20
597.2999996
 30
0.0
 11
1626.4199996
 21
597.2999996
 31
0.0
  0
ARC
  8
0
  6
CONTINUOUS
 62
     1
 10
1384.4199996
 20
538.2999996
 30
0.0
 40
8.0
 50
180.0
 51
270.0
  0
ARC
  8
0
  6
CONTINUOUS
 62
     1
 10
1384.4199996
 20
656.2999996
 30
0.0
 40
8.0
 50
90.0
 51
180.0
  0
ARC
  8
0
  6
CONTINUOUS
 62
     1
 10
1502.4199996
 20
656.2999996
 30
0.0
 40
8.0
 50
0.0
 51
90.0
  0
ARC
  8
0
  6
CONTINUOUS
 62
     1
 10
1502.4199996
 20
538.2999996
 30
0.0
 40
8.0
 50
270.0
 51
0.0
  0
LINE
  8
0
  6
CONTINUOUS
 62
     1
 10
1492.4199996
 20
530.2999996
 30
0.0
 11
1502.4199996
 21
530.2999996
 31
0.0
  0
LINE
  8
0
  6
CONTINUOUS
 62
     1
 10
1384.4199996
 20
530.2999996
 30
0.0
 11
1395.4199996
 21
530.2999996
 31
0.0
  0
LINE
  8
0
  6
LTYPE3
 62
     2
 10
1482.4199996
 20
650.2999996
 30
0.0
 11
1508.9199996
 21
650.2999996
 31
0.0
  0
LINE
  8
0
  6
LTYPE3
 62
     2
 10
1496.4199996
 20
635.7999996
 30
0.0
 11
1496.4199996
 21
662.7999996
 31
0.0
  0
LINE
  8
0
  6
LTYPE3
 62
     2
 10
1390.4199996
 20
636.2999996
 30
0.0
 11
1390.4199996
 21
662.7999996
 31
0.0
  0
LINE
  8
0
  6
LTYPE3
 62
     2
 10
1404.9199996
 20
650.2999996
 30
0.0
 11
1377.9199996
 21
650.2999996
 31
0.0
  0
LINE
  8
0
  6
LTYPE3
 62
     2
 10
1404.4199996
 20
544.2999996
 30
0.0
 11
1377.9199996
 21
544.2999996
 31
0.0
  0
LINE
  8
0
  6
LTYPE3
 62
     2
 10
1390.4199996
 20
558.7999996
 30
0.0
 11
1390.4199996
 21
531.7999996
 31
0.0
  0
LINE
  8
0
  6
LTYPE3
 62
     2
 10
1496.4199996
 20
558.2999996
 30
0.0
 11
1496.4199996
 21
531.7999996
 31
0.0
  0
LINE
  8
0
  6
LTYPE3
 62
     2
 10
1481.9199996
 20
544.2999996
 30
0.0
 11
1508.9199996
 21
544.2999996
 31
0.0
  0
LINE
  8
0
  6
CONTINUOUS
 62
     1
 10
1402.4199996
 20
531.2999996
 30
0.0
 11
1489.4199996
 21
531.2999996
 31
0.0
  0
CIRCLE
  8
0
  6
CONTINUOUS
 62
     1
 10
1443.4199996
 20
503.7999996
 30
0.0
 40
10.4775
  0
CIRCLE
  8
0
  6
CONTINUOUS
 62
     1
 10
1443.4199996
 20
503.7999996
 30
0.0
 40
9.3155
  0
ARC
  8
0
  6
CONTINUOUS
 62
     1
 10
1395.4199996
 20
526.7999996
 30
0.0
 40
3.0
 50
90.0
 51
180.0
  0
LINE
  8
0
  6
CONTINUOUS
 62
     1
 10
1392.4199996
 20
480.2999996
 30
0.0
 11
1392.4199996
 21
526.7999996
 31
0.0
  0
ARC
  8
0
  6
CONTINUOUS
 62
     1
 10
1393.4199996
 20
480.2999996
 30
0.0
 40
1.0
 50
180.0
 51
270.0
  0
ARC
  8
0
  6
CONTINUOUS
 62
     1
 10
1396.4199996
 20
479.2999996
 30
0.0
 40
1.0
 50
180.0
 51
270.0
  0
ARC
  8
0
  6
CONTINUOUS
 62
     1
 10
1491.4199996
 20
526.7999996
 30
0.0
 40
3.0
 50
0.0
 51
90.0
  0
LINE
  8
0
  6
CONTINUOUS
 62
     1
 10
1494.4199996
 20
480.2999996
 30
0.0
 11
1494.4199996
 21
526.7999996
 31
0.0
  0
ARC
  8
0
  6
CONTINUOUS
 62
     1
 10
1493.4199996
 20
480.2999996
 30
0.0
 40
1.0
 50
270.0
 51
0.0
  0
ARC
  8
0
  6
CONTINUOUS
 62
     1
 10
1490.4199996
 20
479.2999996
 30
0.0
 40
1.0
 50
270.0
 51
0.0
  0
LINE
  8
0
  6
CONTINUOUS
 62
     1
 10
1494.4199996
 20
485.2999996
 30
0.0
 11
1392.4199996
 21
485.2999996
 31
0.0
  0
LINE
  8
0
  6
CONTINUOUS
 62
     1
 10
1494.4199996
 20
486.7999996
 30
0.0
 11
1392.4199996
 21
486.7999996
 31
0.0
  0
LINE
  8
0
  6
CONTINUOUS
 62
     1
 10
1490.4199996
 20
478.2999996
 30
0.0
 11
1396.4199996
 21
478.2999996
 31
0.0
  0
LINE
  8
0
  6
CONTINUOUS
 62
     1
 10
1493.4199996
 20
479.2999996
 30
0.0
 11
1393.4199996
 21
479.2999996
 31
0.0
  0
LINE
  8
0
  6
LTYPE3
 62
     2
 10
1488.4199996
 20
474.5999996
 30
0.0
 11
1488.4199996
 21
493.2999996
 31
0.0
  0
LINE
  8
0
  6
LTYPE3
 62
     2
 10
1398.4199996
 20
474.5999996
 30
0.0
 11
1398.4199996
 21
493.2999996
 31
0.0
  0
LINE
  8
0
  6
CONTINUOUS
 62
     1
 10
1348.4199996
 20
574.2999996
 30
0.0
 11
1348.4199996
 21
620.2999996
 31
0.0
  0
LINE
  8
0
  6
LTYPE1
 62
     2
 10
1378.4199996
 20
584.7999996
 30
0.0
 11
1348.4199996
 21
584.7999996
 31
0.0
  0
LINE
  8
0
  6
LTYPE1
 62
     2
 10
1378.4199996
 20
609.7999996
 30
0.0
 11
1348.4199996
 21
609.7999996
 31
0.0
  0
LINE
  8
0
  6
LTYPE1
 62
     2
 10
1378.4199996
 20
584.7999996
 30
0.0
 11
1378.4199996
 21
609.7999996
 31
0.0
  0
LINE
  8
0
  6
CONTINUOUS
 62
     1
 10
1538.4199996
 20
574.2999996
 30
0.0
 11
1538.4199996
 21
620.2999996
 31
0.0
  0
LINE
  8
0
  6
LTYPE1
 62
     2
 10
1508.4199996
 20
584.7999996
 30
0.0
 11
1538.4199996
 21
584.7999996
 31
0.0
  0
LINE
  8
0
  6
LTYPE1
 62
     2
 10
1508.4199996
 20
609.7999996
 30
0.0
 11
1538.4199996
 21
609.7999996
 31
0.0
  0
LINE
  8
0
  6
LTYPE1
 62
     2
 10
1508.4199996
 20
584.7999996
 30
0.0
 11
1508.4199996
 21
609.7999996
 31
0.0
  0
LINE
  8
0
  6
CONTINUOUS
 62
     1
 10
1360.9199996
 20
503.2999996
 30
0.0
 11
1392.4199996
 21
503.2999996
 31
0.0
  0
LINE
  8
0
  6
CONTINUOUS
 62
     1
 10
1494.4199996
 20
503.2999996
 30
0.0
 11
1525.9199996
 21
503.2999996
 31
0.0
  0
LINE
  8
0
  6
LTYPE2
 62
     2
 10
1463.3199996
 20
503.7999996
 30
0.0
 11
1422.6199996
 21
503.7999996
 31
0.0
  0
LINE
  8
0
  6
LTYPE2
 62
     2
 10
1405.8199996
 20
590.2999996
 30
0.0
 11
1405.8199996
 21
606.2999996
 31
0.0
  0
CIRCLE
  8
0
  6
CONTINUOUS
 62
     1
 10
1405.8199996
 20
597.2999996
 30
0.0
 40
3.0
  0
LINE
  8
0
  6
CONTINUOUS
 62
     1
 10
1409.4199996
 20
622.7999996
 30
0.0
 11
1413.4199996
 21
622.7999996
 31
0.0
  0
LINE
  8
0
  6
CONTINUOUS
 62
     1
 10
1399.4199996
 20
609.7999996
 30
0.0
 11
1409.4199996
 21
609.7999996
 31
0.0
  0
LINE
  8
0
  6
LTYPE1
 62
     2
 10
1428.4199996
 20
609.7999996
 30
0.0
 11
1413.4199996
 21
609.7999996
 31
0.0
  0
LINE
  8
0
  6
CONTINUOUS
 62
     1
 10
1443.4199996
 20
609.7999996
 30
0.0
 11
1428.4199996
 21
609.7999996
 31
0.0
  0
LINE
  8
0
  6
CONTINUOUS
 62
     1
 10
1409.4199996
 20
571.7999996
 30
0.0
 11
1413.4199996
 21
571.7999996
 31
0.0
  0
LINE
  8
0
  6
LTYPE1
 62
     2
 10
1428.4199996
 20
584.7999996
 30
0.0
 11
1413.4199996
 21
584.7999996
 31
0.0
  0
LINE
  8
0
  6
CONTINUOUS
 62
     1
 10
1443.4199996
 20
584.7999996
 30
0.0
 11
1428.4199996
 21
584.7999996
 31
0.0
  0
LINE
  8
0
  6
CONTINUOUS
 62
     1
 10
1399.4199996
 20
584.7999996
 30
0.0
 11
1409.4199996
 21
584.7999996
 31
0.0
  0
LINE
  8
0
  6
CONTINUOUS
 62
     1
 10
1399.4199996
 20
584.7999996
 30
0.0
 11
1399.4199996
 21
609.7999996
 31
0.0
  0
LINE
  8
0
  6
CONTINUOUS
 62
     1
 10
1409.4199996
 20
571.7999996
 30
0.0
 11
1409.4199996
 21
622.7999996
 31
0.0
  0
LINE
  8
0
  6
LTYPE2
 62
     2
 10
1481.0199996
 20
590.2999996
 30
0.0
 11
1481.0199996
 21
606.2999996
 31
0.0
  0
CIRCLE
  8
0
  6
CONTINUOUS
 62
     1
 10
1481.0199996
 20
597.2999996
 30
0.0
 40
3.0
  0
LINE
  8
0
  6
CONTINUOUS
 62
     1
 10
1473.4199996
 20
627.2999996
 30
0.0
 11
1458.4199996
 21
627.2999996
 31
0.0
  0
LINE
  8
0
  6
CONTINUOUS
 62
     1
 10
1477.4199996
 20
622.7999996
 30
0.0
 11
1473.4199996
 21
622.7999996
 31
0.0
  0
LINE
  8
0
  6
CONTINUOUS
 62
     1
 10
1487.4199996
 20
609.7999996
 30
0.0
 11
1477.4199996
 21
609.7999996
 31
0.0
  0
LINE
  8
0
  6
LTYPE1
 62
     2
 10
1458.4199996
 20
609.7999996
 30
0.0
 11
1473.4199996
 21
609.7999996
 31
0.0
  0
LINE
  8
0
  6
CONTINUOUS
 62
     1
 10
1443.4199996
 20
609.7999996
 30
0.0
 11
1458.4199996
 21
609.7999996
 31
0.0
  0
LINE
  8
0
  6
CONTINUOUS
 62
     1
 10
1477.4199996
 20
571.7999996
 30
0.0
 11
1473.4199996
 21
571.7999996
 31
0.0
  0
LINE
  8
0
  6
LTYPE1
 62
     2
 10
1458.4199996
 20
584.7999996
 30
0.0
 11
1473.4199996
 21
584.7999996
 31
0.0
  0
LINE
  8
0
  6
CONTINUOUS
 62
     1
 10
1443.4199996
 20
584.7999996
 30
0.0
 11
1458.4199996
 21
584.7999996
 31
0.0
  0
LINE
  8
0
  6
CONTINUOUS
 62
     1
 10
1487.4199996
 20
584.7999996
 30
0.0
 11
1477.4199996
 21
584.7999996
 31
0.0
  0
LINE
  8
0
  6
CONTINUOUS
 62
     1
 10
1487.4199996
 20
584.7999996
 30
0.0
 11
1487.4199996
 21
609.7999996
 31
0.0
  0
LINE
  8
0
  6
CONTINUOUS
 62
     1
 10
1477.4199996
 20
571.7999996
 30
0.0
 11
1477.4199996
 21
622.7999996
 31
0.0
  0
LINE
  8
0
  6
CONTINUOUS
 62
     1
 10
1428.4199996
 20
567.2999996
 30
0.0
 11
1428.4199996
 21
627.2999996
 31
0.0
  0
LINE
  8
0
  6
CONTINUOUS
 62
     1
 10
1413.4199996
 20
567.2999996
 30
0.0
 11
1413.4199996
 21
627.2999996
 31
0.0
  0
LINE
  8
0
  6
CONTINUOUS
 62
     1
 10
1473.4199996
 20
567.2999996
 30
0.0
 11
1413.4199996
 21
567.2999996
 31
0.0
  0
LINE
  8
0
  6
CONTINUOUS
 62
     1
 10
1473.4199996
 20
567.2999996
 30
0.0
 11
1473.4199996
 21
627.2999996
 31
0.0
  0
LINE
  8
0
  6
CONTINUOUS
 62
     1
 10
1413.4199996
 20
627.2999996
 30
0.0
 11
1458.4199996
 21
627.2999996
 31
0.0
  0
LINE
  8
0
  6
CONTINUOUS
 62
     1
 10
1458.4199996
 20
567.2999996
 30
0.0
 11
1458.4199996
 21
627.2999996
 31
0.0
  0
LINE
  8
0
  6
CONTINUOUS
 62
     1
 10
1398.4199996
 20
531.2999996
 30
0.0
 11
1398.4199996
 21
537.7999996
 31
0.0
  0
LINE
  8
0
  6
CONTINUOUS
 62
     1
 10
1488.4199996
 20
531.2999996
 30
0.0
 11
1488.4199996
 21
537.5999996
 31
0.0
  0
LINE
  8
0
  6
CONTINUOUS
 62
     1
 10
1478.2199996
 20
531.2999996
 30
0.0
 11
1488.4199996
 21
531.2999996
 31
0.0
  0
LINE
  8
0
  6
CONTINUOUS
 62
     1
 10
1398.4199996
 20
531.2999996
 30
0.0
 11
1409.0199996
 21
531.2999996
 31
0.0
  0
LINE
  8
0
  6
CONTINUOUS
 62
     1
 10
1475.2199996
 20
529.7999996
 30
0.0
 11
1491.4199996
 21
529.7999996
 31
0.0
  0
LINE
  8
0
  6
CONTINUOUS
 62
     1
 10
1395.4199996
 20
529.7999996
 30
0.0
 11
1411.6199996
 21
529.7999996
 31
0.0
  0
LINE
  8
0
  6
CONTINUOUS
 62
     1
 10
1499.9199996
 20
664.2999996
 30
0.0
 11
1502.4199996
 21
664.2999996
 31
0.0
  0
LINE
  8
0
  6
CONTINUOUS
 62
     1
 10
1384.4199996
 20
664.2999996
 30
0.0
 11
1386.9199996
 21
664.2999996
 31
0.0
  0
LINE
  8
0
  6
LTYPE2
 62
     2
 10
1443.4199996
 20
469.7999996
 30
0.0
 11
1443.4199996
 21
988.72750118
 31
0.0
  0
ARC
  8
0
  6
CONTINUOUS
 62
     1
 10
1396.4199996
 20
664.2999996
 30
0.0
 40
9.0
 50
0.0
 51
4.497151615
  0
LINE
  8
0
  6
LTYPE2
 62
     2
 10
1443.4199996
 20
679.2999996
 30
0.0
 11
1443.4199996
 21
906.253571029
 31
0.0
  0
ARC
  8
0
  6
LTYPE1
 62
     2
 10
1443.4199996
 20
773.2999996
 30
0.0
 40
100.0
 50
246.958903749
 51
293.041096251
  0
CIRCLE
  8
0
  6
CONTINUOUS
 62
     1
 10
1443.4199996
 20
911.7999996
 30
0.0
 40
12.055
  0
CIRCLE
  8
0
  6
CONTINUOUS
 62
     1
 10
1443.4199996
 20
911.7999996
 30
0.0
 40
20.0
  0
CIRCLE
  8
0
  6
CONTINUOUS
 62
     1
 10
1443.4199996
 20
911.7999996
 30
0.0
 40
25.0
  0
CIRCLE
  8
0
  6
CONTINUOUS
 62
     2
 10
1443.4199996
 20
911.7999996
 30
0.0
 40
13.221
  0
LINE
  8
0
  6
LTYPE2
 62
     2
 10
1406.9199996
 20
911.7999996
 30
0.0
 11
1478.9199996
 21
911.7999996
 31
0.0
  0
ARC
  8
0
  6
CONTINUOUS
 62
     1
 10
1473.4199996
 20
887.2999996
 30
0.0
 40
10.0
 50
270.0
 51
0.0
  0
LINE
  8
0
  6
CONTINUOUS
 62
     1
 10
1443.4199996
 20
956.2999996
 30
0.0
 11
1473.4199996
 21
956.2999996
 31
0.0
  0
LINE
  8
0
  6
CONTINUOUS
 62
     1
 10
1483.4199996
 20
887.2999996
 30
0.0
 11
1483.4199996
 21
946.2999996
 31
0.0
  0
ARC
  8
0
  6
CONTINUOUS
 62
     1
 10
1473.4199996
 20
946.2999996
 30
0.0
 40
10.0
 50
0.0
 51
90.0
  0
LINE
  8
0
  6
CONTINUOUS
 62
     1
 10
1443.4199996
 20
961.2999996
 30
0.0
 11
1483.4199996
 21
961.2999996
 31
0.0
  0
ARC
  8
0
  6
CONTINUOUS
 62
     1
 10
1483.4199996
 20
951.2999996
 30
0.0
 40
10.0
 50
0.0
 51
90.0
  0
LINE
  8
0
  6
CONTINUOUS
 62
     1
 10
1443.4199996
 20
877.2999996
 30
0.0
 11
1483.4199996
 21
877.2999996
 31
0.0
  0
LINE
  8
0
  6
CONTINUOUS
 62
     1
 10
1493.4199996
 20
887.2999996
 30
0.0
 11
1493.4199996
 21
951.2999996
 31
0.0
  0
ARC
  8
0
  6
CONTINUOUS
 62
     1
 10
1483.4199996
 20
887.2999996
 30
0.0
 40
10.0
 50
270.0
 51
0.0
  0
LINE
  8
0
  6
CONTINUOUS
 62
     1
 10
1473.780126207
 20
877.306486262
 30
0.0
 11
1473.780126207
 21
871.806486262
 31
0.0
  0
LINE
  8
0
  6
CONTINUOUS
 62
     1
 10
1443.4199996
 20
956.2999996
 30
0.0
 11
1413.4199996
 21
956.2999996
 31
0.0
  0
LINE
  8
0
  6
CONTINUOUS
 62
     1
 10
1403.4199996
 20
887.2999996
 30
0.0
 11
1403.4199996
 21
946.2999996
 31
0.0
  0
ARC
  8
0
  6
CONTINUOUS
 62
     1
 10
1413.4199996
 20
946.2999996
 30
0.0
 40
10.0
 50
90.0
 51
180.0
  0
LINE
  8
0
  6
CONTINUOUS
 62
     1
 10
1443.4199996
 20
961.2999996
 30
0.0
 11
1403.4199996
 21
961.2999996
 31
0.0
  0
ARC
  8
0
  6
CONTINUOUS
 62
     1
 10
1403.4199996
 20
951.2999996
 30
0.0
 40
10.0
 50
90.0
 51
180.0
  0
LINE
  8
0
  6
CONTINUOUS
 62
     1
 10
1393.4199996
 20
887.2999996
 30
0.0
 11
1393.4199996
 21
951.2999996
 31
0.0
  0
ARC
  8
0
  6
CONTINUOUS
 62
     1
 10
1413.4199996
 20
887.2999996
 30
0.0
 40
10.0
 50
180.0
 51
270.0
  0
ARC
  8
0
  6
CONTINUOUS
 62
     1
 10
1403.4199996
 20
887.2999996
 30
0.0
 40
10.0
 50
180.0
 51
270.0
  0
LINE
  8
0
  6
CONTINUOUS
 62
     1
 10
1413.059872993
 20
877.306486262
 30
0.0
 11
1413.059872993
 21
871.806486262
 31
0.0
  0
ARC
  8
0
  6
CONTINUOUS
 62
     1
 10
1360.9199996
 20
773.2999996
 30
0.0
 40
20.0
 50
90.0
 51
180.0
  0
ARC
  8
0
  6
CONTINUOUS
 62
     1
 10
1360.9199996
 20
773.2999996
 30
0.0
 40
20.0
 50
180.0
 51
270.0
  0
ARC
  8
0
  6
CONTINUOUS
 62
     1
 10
1484.6699996
 20
701.852903788
 30
0.0
 40
20.0
 50
210.0
 51
300.0
  0
ARC
  8
0
  6
CONTINUOUS
 62
     1
 10
1484.6699996
 20
701.852903788
 30
0.0
 40
20.0
 50
300.0
 51
30.0
  0
LINE
  8
0
  6
CONTINUOUS
 62
     1
 10
1360.9199996
 20
753.2999996
 30
0.0
 11
1431.872994216
 21
753.2999996
 31
0.0
  0
LINE
  8
0
  6
CONTINUOUS
 62
     1
 10
1467.349491524
 20
691.852903788
 30
0.0
 11
1431.872994216
 21
753.2999996
 31
0.0
  0
ARC
  8
0
  6
CONTINUOUS
 62
     1
 10
1484.6699996
 20
844.747095412
 30
0.0
 40
20.0
 50
330.0
 51
60.0
  0
ARC
  8
0
  6
CONTINUOUS
 62
     1
 10
1484.6699996
 20
844.747095412
 30
0.0
 40
20.0
 50
60.0
 51
150.0
  0
LINE
  8
0
  6
CONTINUOUS
 62
     1
 10
1467.349491524
 20
854.747095412
 30
0.0
 11
1431.872994216
 21
793.2999996
 31
0.0
  0
LINE
  8
0
  6
CONTINUOUS
 62
     1
 10
1360.9199996
 20
793.2999996
 30
0.0
 11
1431.872994216
 21
793.2999996
 31
0.0
  0
LINE
  8
0
  6
CONTINUOUS
 62
     1
 10
1446.753332933
 20
793.020265544
 30
0.0
 11
1505.086666267
 21
783.160132572
 31
0.0
  0
LINE
  8
0
  6
CONTINUOUS
 62
     1
 10
1446.753332933
 20
753.579733656
 30
0.0
 11
1505.086666267
 21
763.439866628
 31
0.0
  0
LINE
  8
0
  6
LTYPE2
 62
     2
 10
1503.4199996
 20
758.2999996
 30
0.0
 11
1503.4199996
 21
793.2999996
 31
0.0
  0
ARC
  8
0
  6
CONTINUOUS
 62
     1
 10
1443.4199996
 20
773.2999996
 30
0.0
 40
20.0
 50
80.405931773
 51
279.594068227
  0
ARC
  8
0
  6
CONTINUOUS
 62
     1
 10
1503.4199996
 20
773.2999996
 30
0.0
 40
10.0
 50
279.594068227
 51
80.405931773
  0
CIRCLE
  8
0
  6
CONTINUOUS
 62
     1
 10
1503.4199996
 20
773.2999996
 30
0.0
 40
9.0
  0
CIRCLE
  8
0
  6
CONTINUOUS
 62
     1
 10
1443.4199996
 20
773.2999996
 30
0.0
 40
19.0
  0
CIRCLE
  8
0
  6
CONTINUOUS
 62
     1
 10
1430.3199996
 20
773.2999996
 30
0.0
 40
4.0
  0
CIRCLE
  8
0
  6
CONTINUOUS
 62
     1
 10
1443.4199996
 20
760.1999996
 30
0.0
 40
4.0
  0
CIRCLE
  8
0
  6
CONTINUOUS
 62
     1
 10
1456.5199996
 20
773.2999996
 30
0.0
 40
4.0
  0
CIRCLE
  8
0
  6
CONTINUOUS
 62
     1
 10
1443.4199996
 20
786.3999996
 30
0.0
 40
4.0
  0
CIRCLE
  8
0
  6
CONTINUOUS
 62
     1
 10
1443.4199996
 20
773.2999996
 30
0.0
 40
4.0
  0
LINE
  8
0
  6
CONTINUOUS
 62
     1
 10
1501.990507676
 20
834.747095412
 30
0.0
 11
1475.130211438
 21
788.223697623
 31
0.0
  0
LINE
  8
0
  6
CONTINUOUS
 62
     1
 10
1501.990507676
 20
711.852903788
 30
0.0
 11
1475.130211438
 21
758.376301577
 31
0.0
  0
ARC
  8
0
  6
LTYPE1
 62
     2
 10
1443.4199996
 20
773.2999996
 30
0.0
 40
100.0
 50
66.110646249
 51
173.889353751
  0
ARC
  8
0
  6
LTYPE1
 62
     2
 10
1443.4199996
 20
773.2999996
 30
0.0
 40
100.0
 50
186.110646249
 51
293.889353751
  0
ARC
  8
0
  6
LTYPE1
 62
     2
 10
1443.4199996
 20
773.2999996
 30
0.0
 40
100.0
 50
306.110646249
 51
53.889353751
  0
ARC
  8
0
  6
CONTINUOUS
 62
     1
 10
1443.4199996
 20
773.2999996
 30
0.0
 40
102.5
 50
0.0
 51
246.009103205
  0
ARC
  8
0
  6
CONTINUOUS
 62
     1
 10
1384.4199996
 20
656.2999996
 30
0.0
 40
8.0
 50
90.0
 51
180.0
  0
LINE
  8
0
  6
CONTINUOUS
 62
     1
 10
1384.4199996
 20
664.2999996
 30
0.0
 11
1405.72384595
 21
664.2999996
 31
0.0
  0
LINE
  8
0
  6
CONTINUOUS
 62
     1
 10
1481.11615325
 20
664.2999996
 30
0.0
 11
1502.4199996
 21
664.2999996
 31
0.0
  0
LINE
  8
0
  6
LTYPE1
 62
     2
 10
1363.4199996
 20
576.2999996
 30
0.0
 11
1363.4199996
 21
618.2999996
 31
0.0
  0
LINE
  8
0
  6
CONTINUOUS
 62
     1
 10
1341.295016806
 20
576.721178219
 30
0.0
 11
1341.393497582
 21
576.703813401
 31
0.0
  0
LINE
  8
0
  6
CONTINUOUS
 62
     1
 10
1348.4199996
 20
574.2999996
 30
0.0
 11
1348.4199996
 21
584.1999996
 31
0.0
  0
LINE
  8
0
  6
CONTINUOUS
 62
     1
 10
1443.4199996
 20
877.2999996
 30
0.0
 11
1403.4199996
 21
877.2999996
 31
0.0
  0
LINE
  8
0
  6
CONTINUOUS
 62
     1
 10
1403.4199996
 20
877.2999996
 30
0.0
 11
1483.4199996
 21
877.2999996
 31
0.0
  0
LINE
  8
0
  6
CONTINUOUS
 62
     1
 10
1350.9199996
 20
817.458803932
 30
0.0
 11
1350.9199996
 21
832.829404099
 31
0.0
  0
LINE
  8
0
  6
CONTINUOUS
 62
     1
 10
1535.9199996
 20
817.458803932
 30
0.0
 11
1535.9199996
 21
832.829404099
 31
0.0
  0
ARC
  8
0
  6
CONTINUOUS
 62
     1
 10
1443.4199996
 20
773.2999996
 30
0.0
 40
110.0
 50
107.84092038
 51
147.236242241
  0
ARC
  8
0
  6
CONTINUOUS
 62
     1
 10
1443.4199996
 20
773.2999996
 30
0.0
 40
110.0
 50
32.763757759
 51
72.15907962
  0
LINE
  8
2
  6
CONTINUOUS
 62
     2
 10
1488.4199996
 20
961.2999996
 30
0.0
 11
1631.4199996
 21
961.2999996
 31
0.0
  0
LINE
  8
2
  6
CONTINUOUS
 62
     2
 10
1495.420014859
 20
478.2999996
 30
0.0
 11
1666.4199996
 21
478.2999996
 31
0.0
  0
LINE
  8
0
  6
CONTINUOUS
 62
     1
 10
1535.9199996
 20
620.493235889
 30
0.0
 11
1535.9199996
 21
731.2999996
 31
0.0
  0
ARC
  8
0
  6
CONTINUOUS
 62
     1
 10
1443.4199996
 20
762.2999996
 30
0.0
 40
105.0
 50
253.300755766
 51
291.039469781
  0
ARC
  8
0
  6
CONTINUOUS
 62
     1
 10
1443.4199996
 20
762.2999996
 30
0.0
 40
105.0
 50
248.960530219
 51
253.222332903
  0
ARC
  8
0
  6
CONTINUOUS
 62
     1
 10
1443.4199996
 20
597.2999996
 30
0.0
 40
55.0
 50
220.925660958
 51
117.800128687
  0
ARC
  8
0
  6
CONTINUOUS
 62
     1
 10
1443.4199996
 20
773.2999996
 30
0.0
 40
102.5
 50
245.418514755
 51
0.0
  0
ARC
  8
0
  6
CONTINUOUS
 62
     1
 10
1496.4199996
 20
650.2999996
 30
0.0
 40
9.0
 50
305.537677792
 51
302.560437981
  0
ARC
  8
0
  6
CONTINUOUS
 62
     1
 10
1496.4199996
 20
544.2999996
 30
0.0
 40
9.0
 50
220.236358309
 51
208.886581767
  0
ARC
  8
0
  6
CONTINUOUS
 62
     1
 10
1390.4199996
 20
544.2999996
 30
0.0
 40
9.0
 50
128.659808254
 51
117.121303404
  0
LINE
  8
0
  6
CONTINUOUS
 62
     1
 10
1350.9199996
 20
620.606763311
 30
0.0
 11
1350.9199996
 21
728.7999996
 31
0.0
  0
ARC
  8
0
  6
CONTINUOUS
 62
     1
 10
1443.4199996
 20
597.2999996
 30
0.0
 40
55.0
 50
119.074339042
 51
220.838647689
  0
ARC
  8
0
  6
CONTINUOUS
 62
     1
 10
1390.4199996
 20
650.2999996
 30
0.0
 40
9.0
 50
238.438188159
 51
231.842773412
  0
LINE
  8
0
  6
CONTINUOUS
 62
     1
 10
1348.4199996
 20
620.2999996
 30
0.0
 11
1396.9199996
 21
626.251215584
 31
0.0
  0
LINE
  8
0
  6
CONTINUOUS
 62
     1
 10
1348.4199996
 20
574.2999996
 30
0.0
 11
1396.4199996
 21
568.410136358
 31
0.0
  0
LINE
  8
0
  6
CONTINUOUS
 62
     1
 10
1538.4199996
 20
620.2999996
 30
0.0
 11
1489.4199996
 21
626.312568326
 31
0.0
  0
LINE
  8
0
  6
CONTINUOUS
 62
     1
 10
1538.4199996
 20
574.2999996
 30
0.0
 11
1488.205167913
 21
568.138364364
 31
0.0
  0
LINE
  8
0
  6
CONTINUOUS
 62
     1
 10
1376.4199996
 20
623.735753158
 30
0.0
 11
1376.4199996
 21
656.2999996
 31
0.0
  0
LINE
  8
0
  6
CONTINUOUS
 62
     1
 10
1376.4199996
 20
538.2999996
 30
0.0
 11
1376.4199996
 21
570.864246042
 31
0.0
  0
LINE
  8
0
  6
CONTINUOUS
 62
     1
 10
1510.4199996
 20
538.2999996
 30
0.0
 11
1510.4199996
 21
570.864246042
 31
0.0
  0
LINE
  8
0
  6
CONTINUOUS
 62
     1
 10
1510.4199996
 20
623.735753158
 30
0.0
 11
1510.4199996
 21
656.2999996
 31
0.0
  0
LINE
  8
0
  6
CONTINUOUS
 62
     2
 10
1350.9199996
 20
381.2999996
 30
0.0
 11
1362.994072429
 21
378.064761536
 31
0.0
  0
LINE
  8
0
  6
CONTINUOUS
 62
     2
 10
1350.9199996
 20
381.2999996
 30
0.0
 11
1362.994072429
 21
384.535237664
 31
0.0
  0
LINE
  8
0
  6
CONTINUOUS
 62
     2
 10
1535.9199996
 20
381.2999996
 30
0.0
 11
1523.845926771
 21
384.535237664
 31
0.0
  0
LINE
  8
0
  6
CONTINUOUS
 62
     2
 10
1535.9199996
 20
381.2999996
 30
0.0
 11
1523.845926771
 21
378.064761536
 31
0.0
  0
LINE
  8
0
  6
CONTINUOUS
 62
     2
 10
1348.4199996
 20
331.2999996
 30
0.0
 11
1360.494072429
 21
328.064761536
 31
0.0
  0
LINE
  8
0
  6
CONTINUOUS
 62
     2
 10
1348.4199996
 20
331.2999996
 30
0.0
 11
1360.494072429
 21
334.535237664
 31
0.0
  0
LINE
  8
0
  6
CONTINUOUS
 62
     2
 10
1538.4199996
 20
331.2999996
 30
0.0
 11
1526.345926771
 21
334.535237664
 31
0.0
  0
LINE
  8
0
  6
CONTINUOUS
 62
     2
 10
1538.4199996
 20
331.2999996
 30
0.0
 11
1526.345926771
 21
328.064761536
 31
0.0
  0
LINE
  8
0
  6
CONTINUOUS
 62
     2
 10
1350.9199996
 20
381.2999996
 30
0.0
 11
1535.9199996
 21
381.2999996
 31
0.0
  0
LINE
  8
0
  6
CONTINUOUS
 62
     2
 10
1348.4199996
 20
331.2999996
 30
0.0
 11
1538.4199996
 21
331.2999996
 31
0.0
  0
TEXT
  8
0
  6
CONTINUOUS
 62
     2
 10
1420.9199996
 20
386.2999996
 30
0.0
 40
18.0
  1
１８５
 50
0.0
 41
0.9
 51
0.0
  7
KANJI42
  0
TEXT
  8
0
  6
CONTINUOUS
 62
     2
 10
1420.9199996
 20
336.2999996
 30
0.0
 40
18.0
  1
１９０
 50
0.0
 41
0.9
 51
0.0
  7
KANJI42
  0
TEXT
  8
0
  6
CONTINUOUS
 62
     2
 10
1581.9199996
 20
617.7999996
 30
0.0
 40
18.0
  1
φ２５Ｈ１０深さ３０
 50
90.0
 41
0.9
 51
0.0
  7
KANJI42
  0
LINE
  8
0
  6
CONTINUOUS
 62
     1
 10
1393.4199996
 20
478.2999996
 30
0.0
 11
1403.4199996
 21
478.2999996
 31
0.0
  0
LINE
  8
0
  6
LTYPE3
 62
     2
 10
1398.4199996
 20
483.2999996
 30
0.0
 11
1398.4199996
 21
472.5999996
 31
0.0
  0
ARC
  8
0
  6
CONTINUOUS
 62
     1
 10
1398.4199996
 20
479.1999996
 30
0.0
 40
5.1
 50
189.9
 51
350.1
  0
LINE
  8
0
  6
CONTINUOUS
 62
     1
 10
1483.4199996
 20
478.2999996
 30
0.0
 11
1493.4199996
 21
478.2999996
 31
0.0
  0
LINE
  8
0
  6
LTYPE3
 62
     2
 10
1488.4199996
 20
483.2999996
 30
0.0
 11
1488.4199996
 21
472.5999996
 31
0.0
  0
ARC
  8
0
  6
CONTINUOUS
 62
     1
 10
1488.4199996
 20
479.1999996
 30
0.0
 40
5.1
 50
189.9
 51
350.1
  0
LINE
  8
0
  6
CONTINUOUS
 62
     2
 10
1621.4199996
 20
597.2999996
 30
0.0
 11
1624.655237664
 21
609.374072429
 31
0.0
  0
LINE
  8
0
  6
CONTINUOUS
 62
     2
 10
1621.4199996
 20
597.2999996
 30
0.0
 11
1618.184761536
 21
609.374072429
 31
0.0
  0
LINE
  8
0
  6
CONTINUOUS
 62
     2
 10
1586.9199996
 20
609.7999996
 30
0.0
 11
1590.155237664
 21
621.874072429
 31
0.0
  0
LINE
  8
0
  6
CONTINUOUS
 62
     2
 10
1586.9199996
 20
609.7999996
 30
0.0
 11
1583.684761536
 21
621.874072429
 31
0.0
  0
LINE
  8
0
  6
CONTINUOUS
 62
     2
 10
1586.9199996
 20
584.7999996
 30
0.0
 11
1583.684761536
 21
572.725926771
 31
0.0
  0
LINE
  8
0
  6
CONTINUOUS
 62
     2
 10
1586.9199996
 20
584.7999996
 30
0.0
 11
1590.155237664
 21
572.725926771
 31
0.0
  0
LINE
  8
0
  6
CONTINUOUS
 62
     2
 10
1586.9199996
 20
770.2999996
 30
0.0
 11
1586.9199996
 21
559.7999996
 31
0.0
  0
LINE
  8
7
  6
CONTINUOUS
 62
     2
 10
1621.4199996
 20
597.2999996
 30
0.0
 11
1618.184761536
 21
585.225926771
 31
0.0
  0
LINE
  8
7
  6
CONTINUOUS
 62
     2
 10
1621.4199996
 20
597.2999996
 30
0.0
 11
1624.655237664
 21
585.225926771
 31
0.0
  0
LINE
  8
7
  6
CONTINUOUS
 62
     2
 10
1621.4199996
 20
597.2999996
 30
0.0
 11
1621.4199996
 21
478.2999996
 31
0.0
  0
LINE
  8
7
  6
CONTINUOUS
 62
     2
 10
1621.4199996
 20
478.2999996
 30
0.0
 11
1624.655237664
 21
490.374072429
 31
0.0
  0
LINE
  8
7
  6
CONTINUOUS
 62
     2
 10
1621.4199996
 20
478.2999996
 30
0.0
 11
1618.184761536
 21
490.374072429
 31
0.0
  0
LINE
  8
2
  6
CONTINUOUS
 62
     2
 10
1621.4199996
 20
961.2999996
 30
0.0
 11
1618.184761536
 21
949.225926771
 31
0.0
  0
LINE
  8
2
  6
CONTINUOUS
 62
     2
 10
1621.4199996
 20
961.2999996
 30
0.0
 11
1624.655237664
 21
949.225926771
 31
0.0
  0
LINE
  8
2
  6
CONTINUOUS
 62
     2
 10
1604.4199996
 20
961.2999996
 30
0.0
 11
1666.4199996
 21
961.2999996
 31
0.0
  0
LINE
  8
2
  6
CONTINUOUS
 62
     2
 10
1656.4199996
 20
961.2999996
 30
0.0
 11
1653.184761536
 21
949.225926771
 31
0.0
  0
LINE
  8
2
  6
CONTINUOUS
 62
     2
 10
1656.4199996
 20
961.2999996
 30
0.0
 11
1659.655237664
 21
949.225926771
 31
0.0
  0
LINE
  8
2
  6
CONTINUOUS
 62
     2
 10
1656.4199996
 20
478.2999996
 30
0.0
 11
1659.655237664
 21
490.374072429
 31
0.0
  0
LINE
  8
2
  6
CONTINUOUS
 62
     2
 10
1656.4199996
 20
478.2999996
 30
0.0
 11
1653.184761536
 21
490.374072429
 31
0.0
  0
LINE
  8
0
  6
CONTINUOUS
 62
     2
 10
1621.4199996
 20
597.2999996
 30
0.0
 11
1621.4199996
 21
773.2999996
 31
0.0
  0
LINE
  8
0
  6
CONTINUOUS
 62
     2
 10
1621.4199996
 20
773.2999996
 30
0.0
 11
1618.184761536
 21
761.225926771
 31
0.0
  0
LINE
  8
0
  6
CONTINUOUS
 62
     2
 10
1621.4199996
 20
773.2999996
 30
0.0
 11
1624.655237664
 21
761.225926771
 31
0.0
  0
LINE
  8
2
  6
CONTINUOUS
 62
     2
 10
1607.4199996
 20
773.2999996
 30
0.0
 11
1631.4199996
 21
773.2999996
 31
0.0
  0
LINE
  8
2
  6
CONTINUOUS
 62
     2
 10
1621.4199996
 20
773.2999996
 30
0.0
 11
1624.655237664
 21
785.374072429
 31
0.0
  0
LINE
  8
2
  6
CONTINUOUS
 62
     2
 10
1621.4199996
 20
773.2999996
 30
0.0
 11
1618.184761536
 21
785.374072429
 31
0.0
  0
LINE
  8
2
  6
CONTINUOUS
 62
     2
 10
1621.4199996
 20
773.2999996
 30
0.0
 11
1621.4199996
 21
961.2999996
 31
0.0
  0
LINE
  8
2
  6
CONTINUOUS
 62
     2
 10
1656.4199996
 20
961.2999996
 30
0.0
 11
1656.4199996
 21
478.2999996
 31
0.0
  0
TEXT
  8
7
  6
CONTINUOUS
 62
     2
 10
1616.4199996
 20
516.5499996
 30
0.0
 40
18.0
  1
１１９
 50
90.0
 41
0.9
 51
0.0
  7
KANJI42
  0
TEXT
  8
0
  6
CONTINUOUS
 62
     2
 10
1616.4199996
 20
662.7999996
 30
0.0
 40
18.0
  1
１７６
 50
90.0
 41
0.9
 51
0.0
  7
KANJI42
  0
TEXT
  8
2
  6
CONTINUOUS
 62
     2
 10
1651.4199996
 20
694.2999996
 30
0.0
 40
18.0
  1
４８３
 50
90.0
 41
0.9
 51
0.0
  7
KANJI42
  0
TEXT
  8
2
  6
CONTINUOUS
 62
     2
 10
1616.4199996
 20
841.7999996
 30
0.0
 40
18.0
  1
１８８
 50
90.0
 41
0.9
 51
0.0
  7
KANJI42
  0
LINE
  8
0
  6
CONTINUOUS
 62
     2
 10
1587.1599996
 20
773.2999996
 30
0.0
 11
1626.4199996
 21
773.2999996
 31
0.0
  0
LINE
  8
0
  6
CONTINUOUS
 62
     1
 10
1052.97
 20
1506.26024
 30
0.0
 11
1830.57
 21
1506.26024
 31
0.0
  0
LINE
  8
0
  6
CONTINUOUS
 62
     1
 10
1052.97
 20
1472.66024
 30
0.0
 11
1830.57
 21
1472.66024
 31
0.0
  0
TEXT
  8
0
  6
CONTINUOUS
 62
     2
 10
1100.97
 20
1482.26024
 30
1.536
 40
15.36
  1
形
 50
0.0
 41
0.9
 51
0.0
  7
KANJI65
  0
TEXT
  8
0
  6
CONTINUOUS
 62
     2
 10
1194.57
 20
1482.26024
 30
1.536
 40
15.36
  1
式
 50
0.0
 41
0.9
 51
0.0
  7
KANJI65
  0
TEXT
  8
0
  6
CONTINUOUS
 62
     2
 10
1267.05
 20
1481.30024
 30
1.44
 40
14.4
  1
ストローク
 50
0.0
 41
0.9
 51
0.0
  7
KANJI66
  0
TEXT
  8
0
  6
CONTINUOUS
 62
     2
 10
1359.21
 20
1480.34024
 30
0.0
 40
14.4
  1
ｍｉｎ　
 50
0.0
 41
0.9
 51
0.0
  7
KANJI67
  0
TEXT
  8
0
  6
CONTINUOUS
 62
     2
 10
1455.21
 20
1480.34024
 30
0.0
 40
14.4
  1
ｍｉｎ　
 50
0.0
 41
0.9
 51
0.0
  7
KANJI67
  0
TEXT
  8
0
  6
CONTINUOUS
 62
     2
 10
1647.21
 20
1480.34024
 30
0.0
 40
14.4
  1
ｍｉｎ　
 50
0.0
 41
0.9
 51
0.0
  7
KANJI67
  0
TEXT
  8
0
  6
CONTINUOUS
 62
     2
 10
1408.17
 20
1481.30024
 30
1.68
 40
16.8
  1
ＡＬ
 50
0.0
 41
0.9
 51
0.0
  7
KANJI68
  0
TEXT
  8
0
  6
CONTINUOUS
 62
     2
 10
1504.17
 20
1481.30024
 30
1.68
 40
16.8
  1
Ｌ
 50
0.0
 41
0.9
 51
0.0
  7
KANJI68
  0
TEXT
  8
0
  6
CONTINUOUS
 62
     2
 10
1585.77
 20
1481.30024
 30
1.68
 40
16.8
  1
Ｃ
 50
0.0
 41
0.9
 51
0.0
  7
KANJI68
  0
TEXT
  8
0
  6
CONTINUOUS
 62
     2
 10
1696.17
 20
1481.30024
 30
1.68
 40
16.8
  1
Ｐ
 50
0.0
 41
0.9
 51
0.0
  7
KANJI68
  0
TEXT
  8
0
  6
CONTINUOUS
 62
     2
 10
1794.93
 20
1480.94024
 30
0.0
 40
12.96
  1
（ｋｇ）
 50
0.0
 41
0.740740741
 51
0.0
  7
KANJI69
  0
TEXT
  8
0
  6
CONTINUOUS
 62
     2
 10
1737.33
 20
1480.70024
 30
1.44
 40
16.8
  1
概算重量
 50
0.0
 41
0.857142857
 51
0.0
  7
KANJI70
  0
TEXT
  8
0
  6
CONTINUOUS
 62
     2
 10
1276.17
 20
1449.10024
 30
1.44
 40
14.4
  1
　２００
 50
0.0
 41
0.9
 51
0.0
  7
KANJI66
  0
TEXT
  8
0
  6
CONTINUOUS
 62
     2
 10
1660.17
 20
1449.10024
 30
1.44
 40
14.4
  1
　　４５
 50
0.0
 41
0.9
 51
0.0
  7
KANJI66
  0
LINE
  8
0
  6
CONTINUOUS
 62
     2
 10
1052.97
 20
1441.06024
 30
0.0
 11
1830.57
 21
1441.06024
 31
0.0
  0
TEXT
  8
0
  6
CONTINUOUS
 62
     2
 10
1564.17
 20
1449.10024
 30
1.44
 40
14.4
  1
　４６２
 50
0.0
 41
0.9
 51
0.0
  7
KANJI66
  0
TEXT
  8
0
  6
CONTINUOUS
 62
     2
 10
1468.17
 20
1449.10024
 30
1.44
 40
14.4
  1
　５６７
 50
0.0
 41
0.9
 51
0.0
  7
KANJI66
  0
TEXT
  8
0
  6
CONTINUOUS
 62
     2
 10
1372.17
 20
1449.10024
 30
1.44
 40
14.4
  1
　７６４
 50
0.0
 41
0.9
 51
0.0
  7
KANJI66
  0
TEXT
  8
0
  6
CONTINUOUS
 62
     2
 10
1276.17
 20
1417.50024
 30
1.44
 40
14.4
  1
　３００
 50
0.0
 41
0.9
 51
0.0
  7
KANJI66
  0
TEXT
  8
0
  6
CONTINUOUS
 62
     2
 10
1660.17
 20
1417.50024
 30
1.44
 40
14.4
  1
　　４５
 50
0.0
 41
0.9
 51
0.0
  7
KANJI66
  0
LINE
  8
0
  6
CONTINUOUS
 62
     2
 10
1052.97
 20
1409.46024
 30
0.0
 11
1830.57
 21
1409.46024
 31
0.0
  0
TEXT
  8
0
  6
CONTINUOUS
 62
     2
 10
1564.17
 20
1417.50024
 30
1.44
 40
14.4
  1
　５６２
 50
0.0
 41
0.9
 51
0.0
  7
KANJI66
  0
TEXT
  8
0
  6
CONTINUOUS
 62
     2
 10
1468.17
 20
1417.50024
 30
1.44
 40
14.4
  1
　６６７
 50
0.0
 41
0.9
 51
0.0
  7
KANJI66
  0
TEXT
  8
0
  6
CONTINUOUS
 62
     2
 10
1372.17
 20
1417.50024
 30
1.44
 40
14.4
  1
　８６４
 50
0.0
 41
0.9
 51
0.0
  7
KANJI66
  0
TEXT
  8
0
  6
CONTINUOUS
 62
     2
 10
1276.17
 20
1385.90024
 30
1.44
 40
14.4
  1
　４００
 50
0.0
 41
0.9
 51
0.0
  7
KANJI66
  0
TEXT
  8
0
  6
CONTINUOUS
 62
     2
 10
1660.17
 20
1385.90024
 30
1.44
 40
14.4
  1
　　４５
 50
0.0
 41
0.9
 51
0.0
  7
KANJI66
  0
LINE
  8
0
  6
CONTINUOUS
 62
     2
 10
1052.97
 20
1377.86024
 30
0.0
 11
1830.57
 21
1377.86024
 31
0.0
  0
TEXT
  8
0
  6
CONTINUOUS
 62
     2
 10
1564.17
 20
1385.90024
 30
1.44
 40
14.4
  1
　６６２
 50
0.0
 41
0.9
 51
0.0
  7
KANJI66
  0
TEXT
  8
0
  6
CONTINUOUS
 62
     2
 10
1468.17
 20
1385.90024
 30
1.44
 40
14.4
  1
　７６７
 50
0.0
 41
0.9
 51
0.0
  7
KANJI66
  0
TEXT
  8
0
  6
CONTINUOUS
 62
     2
 10
1372.17
 20
1385.90024
 30
1.44
 40
14.4
  1
　９６４
 50
0.0
 41
0.9
 51
0.0
  7
KANJI66
  0
TEXT
  8
0
  6
CONTINUOUS
 62
     2
 10
1276.17
 20
1354.30024
 30
1.44
 40
14.4
  1
　５００
 50
0.0
 41
0.9
 51
0.0
  7
KANJI66
  0
TEXT
  8
0
  6
CONTINUOUS
 62
     2
 10
1660.17
 20
1354.30024
 30
1.44
 40
14.4
  1
　　４５
 50
0.0
 41
0.9
 51
0.0
  7
KANJI66
  0
LINE
  8
0
  6
CONTINUOUS
 62
     2
 10
1052.97
 20
1346.26024
 30
0.0
 11
1830.57
 21
1346.26024
 31
0.0
  0
TEXT
  8
0
  6
CONTINUOUS
 62
     2
 10
1564.17
 20
1354.30024
 30
1.44
 40
14.4
  1
　７６２
 50
0.0
 41
0.9
 51
0.0
  7
KANJI66
  0
TEXT
  8
0
  6
CONTINUOUS
 62
     2
 10
1468.17
 20
1354.30024
 30
1.44
 40
14.4
  1
　８６７
 50
0.0
 41
0.9
 51
0.0
  7
KANJI66
  0
TEXT
  8
0
  6
CONTINUOUS
 62
     2
 10
1372.17
 20
1354.30024
 30
1.44
 40
14.4
  1
１０６４
 50
0.0
 41
0.9
 51
0.0
  7
KANJI66
  0
LINE
  8
0
  6
CONTINUOUS
 62
     2
 10
1052.97
 20
1314.66024
 30
0.0
 11
1830.57
 21
1314.66024
 31
0.0
  0
TEXT
  8
0
  6
CONTINUOUS
 62
     2
 10
1276.17
 20
1322.70024
 30
1.44
 40
14.4
  1
　６００
 50
0.0
 41
0.9
 51
0.0
  7
KANJI66
  0
TEXT
  8
0
  6
CONTINUOUS
 62
     2
 10
1372.17
 20
1322.70024
 30
1.44
 40
14.4
  1
１２０４
 50
0.0
 41
0.9
 51
0.0
  7
KANJI66
  0
TEXT
  8
0
  6
CONTINUOUS
 62
     2
 10
1468.17
 20
1322.70024
 30
1.44
 40
14.4
  1
１００７
 50
0.0
 41
0.9
 51
0.0
  7
KANJI66
  0
TEXT
  8
0
  6
CONTINUOUS
 62
     2
 10
1564.17
 20
1322.70024
 30
1.44
 40
14.4
  1
　９０２
 50
0.0
 41
0.9
 51
0.0
  7
KANJI66
  0
TEXT
  8
0
  6
CONTINUOUS
 62
     2
 10
1660.17
 20
1322.70024
 30
1.44
 40
14.4
  1
　　４５
 50
0.0
 41
0.9
 51
0.0
  7
KANJI66
  0
LINE
  8
0
  6
CONTINUOUS
 62
     2
 10
1052.97
 20
1283.06024
 30
0.0
 11
1830.57
 21
1283.06024
 31
0.0
  0
TEXT
  8
0
  6
CONTINUOUS
 62
     2
 10
1276.17
 20
1291.10024
 30
1.44
 40
14.4
  1
　７００
 50
0.0
 41
0.9
 51
0.0
  7
KANJI66
  0
TEXT
  8
0
  6
CONTINUOUS
 62
     2
 10
1372.17
 20
1291.10024
 30
1.44
 40
14.4
  1
１３０４
 50
0.0
 41
0.9
 51
0.0
  7
KANJI66
  0
TEXT
  8
0
  6
CONTINUOUS
 62
     2
 10
1468.17
 20
1291.10024
 30
1.44
 40
14.4
  1
１１０７
 50
0.0
 41
0.9
 51
0.0
  7
KANJI66
  0
TEXT
  8
0
  6
CONTINUOUS
 62
     2
 10
1564.17
 20
1291.10024
 30
1.44
 40
14.4
  1
１００２
 50
0.0
 41
0.9
 51
0.0
  7
KANJI66
  0
TEXT
  8
0
  6
CONTINUOUS
 62
     2
 10
1660.17
 20
1291.10024
 30
1.44
 40
14.4
  1
　　４５
 50
0.0
 41
0.9
 51
0.0
  7
KANJI66
  0
LINE
  8
0
  6
CONTINUOUS
 62
     2
 10
1052.97
 20
1251.46024
 30
0.0
 11
1830.57
 21
1251.46024
 31
0.0
  0
TEXT
  8
0
  6
CONTINUOUS
 62
     2
 10
1276.17
 20
1259.50024
 30
1.44
 40
14.4
  1
　８００
 50
0.0
 41
0.9
 51
0.0
  7
KANJI66
  0
TEXT
  8
0
  6
CONTINUOUS
 62
     2
 10
1372.17
 20
1259.50024
 30
1.44
 40
14.4
  1
１４０４
 50
0.0
 41
0.9
 51
0.0
  7
KANJI66
  0
TEXT
  8
0
  6
CONTINUOUS
 62
     2
 10
1468.17
 20
1259.50024
 30
1.44
 40
14.4
  1
１２０７
 50
0.0
 41
0.9
 51
0.0
  7
KANJI66
  0
TEXT
  8
0
  6
CONTINUOUS
 62
     2
 10
1564.17
 20
1259.50024
 30
1.44
 40
14.4
  1
１１０２
 50
0.0
 41
0.9
 51
0.0
  7
KANJI66
  0
TEXT
  8
0
  6
CONTINUOUS
 62
     2
 10
1660.17
 20
1259.50024
 30
1.44
 40
14.4
  1
　　４５
 50
0.0
 41
0.9
 51
0.0
  7
KANJI66
  0
LINE
  8
0
  6
CONTINUOUS
 62
     2
 10
1052.97
 20
1219.86024
 30
0.0
 11
1830.57
 21
1219.86024
 31
0.0
  0
TEXT
  8
0
  6
CONTINUOUS
 62
     2
 10
1276.17
 20
1227.90024
 30
1.44
 40
14.4
  1
　９００
 50
0.0
 41
0.9
 51
0.0
  7
KANJI66
  0
TEXT
  8
0
  6
CONTINUOUS
 62
     2
 10
1372.17
 20
1227.90024
 30
1.44
 40
14.4
  1
１５０４
 50
0.0
 41
0.9
 51
0.0
  7
KANJI66
  0
TEXT
  8
0
  6
CONTINUOUS
 62
     2
 10
1468.17
 20
1227.90024
 30
1.44
 40
14.4
  1
１３０７
 50
0.0
 41
0.9
 51
0.0
  7
KANJI66
  0
TEXT
  8
0
  6
CONTINUOUS
 62
     2
 10
1564.17
 20
1227.90024
 30
1.44
 40
14.4
  1
１２０２
 50
0.0
 41
0.9
 51
0.0
  7
KANJI66
  0
TEXT
  8
0
  6
CONTINUOUS
 62
     2
 10
1660.17
 20
1227.90024
 30
1.44
 40
14.4
  1
　　４５
 50
0.0
 41
0.9
 51
0.0
  7
KANJI66
  0
LINE
  8
0
  6
CONTINUOUS
 62
     2
 10
1052.97
 20
1188.26024
 30
0.0
 11
1830.57
 21
1188.26024
 31
0.0
  0
TEXT
  8
0
  6
CONTINUOUS
 62
     2
 10
1276.17
 20
1196.30024
 30
1.44
 40
14.4
  1
１０００
 50
0.0
 41
0.9
 51
0.0
  7
KANJI66
  0
TEXT
  8
0
  6
CONTINUOUS
 62
     2
 10
1372.17
 20
1196.30024
 30
1.44
 40
14.4
  1
１６０４
 50
0.0
 41
0.9
 51
0.0
  7
KANJI66
  0
TEXT
  8
0
  6
CONTINUOUS
 62
     2
 10
1468.17
 20
1196.30024
 30
1.44
 40
14.4
  1
１４０７
 50
0.0
 41
0.9
 51
0.0
  7
KANJI66
  0
TEXT
  8
0
  6
CONTINUOUS
 62
     2
 10
1564.17
 20
1196.30024
 30
1.44
 40
14.4
  1
１３０２
 50
0.0
 41
0.9
 51
0.0
  7
KANJI66
  0
TEXT
  8
0
  6
CONTINUOUS
 62
     2
 10
1660.17
 20
1196.30024
 30
1.44
 40
14.4
  1
　　４５
 50
0.0
 41
0.9
 51
0.0
  7
KANJI66
  0
LINE
  8
0
  6
CONTINUOUS
 62
     2
 10
1052.97
 20
1156.66024
 30
0.0
 11
1830.57
 21
1156.66024
 31
0.0
  0
TEXT
  8
0
  6
CONTINUOUS
 62
     2
 10
1660.17
 20
1164.70024
 30
1.44
 40
14.4
  1
　　４５
 50
0.0
 41
0.9
 51
0.0
  7
KANJI66
  0
TEXT
  8
0
  6
CONTINUOUS
 62
     2
 10
1276.17
 20
1164.70024
 30
1.44
 40
14.4
  1
１１００
 50
0.0
 41
0.9
 51
0.0
  7
KANJI66
  0
TEXT
  8
0
  6
CONTINUOUS
 62
     2
 10
1564.17
 20
1164.70024
 30
1.44
 40
14.4
  1
１４０２
 50
0.0
 41
0.9
 51
0.0
  7
KANJI66
  0
TEXT
  8
0
  6
CONTINUOUS
 62
     2
 10
1468.17
 20
1164.70024
 30
1.44
 40
14.4
  1
１５０７
 50
0.0
 41
0.9
 51
0.0
  7
KANJI66
  0
TEXT
  8
0
  6
CONTINUOUS
 62
     2
 10
1372.17
 20
1164.70024
 30
1.44
 40
14.4
  1
１７０４
 50
0.0
 41
0.9
 51
0.0
  7
KANJI66
  0
LINE
  8
0
  6
CONTINUOUS
 62
     2
 10
1052.97
 20
1125.06024
 30
0.0
 11
1830.57
 21
1125.06024
 31
0.0
  0
TEXT
  8
0
  6
CONTINUOUS
 62
     2
 10
1660.17
 20
1133.10024
 30
1.44
 40
14.4
  1
　　４５
 50
0.0
 41
0.9
 51
0.0
  7
KANJI66
  0
TEXT
  8
0
  6
CONTINUOUS
 62
     2
 10
1276.17
 20
1133.10024
 30
1.44
 40
14.4
  1
１２００
 50
0.0
 41
0.9
 51
0.0
  7
KANJI66
  0
TEXT
  8
0
  6
CONTINUOUS
 62
     2
 10
1564.17
 20
1133.10024
 30
1.44
 40
14.4
  1
１５０２
 50
0.0
 41
0.9
 51
0.0
  7
KANJI66
  0
TEXT
  8
0
  6
CONTINUOUS
 62
     2
 10
1468.17
 20
1133.10024
 30
1.44
 40
14.4
  1
１６０７
 50
0.0
 41
0.9
 51
0.0
  7
KANJI66
  0
TEXT
  8
0
  6
CONTINUOUS
 62
     2
 10
1372.17
 20
1133.10024
 30
1.44
 40
14.4
  1
１８０４
 50
0.0
 41
0.9
 51
0.0
  7
KANJI66
  0
LINE
  8
0
  6
CONTINUOUS
 62
     2
 10
1052.97
 20
1093.46024
 30
0.0
 11
1830.57
 21
1093.46024
 31
0.0
  0
TEXT
  8
0
  6
CONTINUOUS
 62
     2
 10
1660.17
 20
1101.50024
 30
1.44
 40
14.4
  1
　　４５
 50
0.0
 41
0.9
 51
0.0
  7
KANJI66
  0
TEXT
  8
0
  6
CONTINUOUS
 62
     2
 10
1276.17
 20
1101.50024
 30
1.44
 40
14.4
  1
１３００
 50
0.0
 41
0.9
 51
0.0
  7
KANJI66
  0
TEXT
  8
0
  6
CONTINUOUS
 62
     2
 10
1564.17
 20
1101.50024
 30
1.44
 40
14.4
  1
１６０２
 50
0.0
 41
0.9
 51
0.0
  7
KANJI66
  0
TEXT
  8
0
  6
CONTINUOUS
 62
     2
 10
1468.17
 20
1101.50024
 30
1.44
 40
14.4
  1
１７０７
 50
0.0
 41
0.9
 51
0.0
  7
KANJI66
  0
TEXT
  8
0
  6
CONTINUOUS
 62
     2
 10
1372.17
 20
1101.50024
 30
1.44
 40
14.4
  1
１９０４
 50
0.0
 41
0.9
 51
0.0
  7
KANJI66
  0
LINE
  8
0
  6
CONTINUOUS
 62
     2
 10
1052.97
 20
1061.86024
 30
0.0
 11
1830.57
 21
1061.86024
 31
0.0
  0
TEXT
  8
0
  6
CONTINUOUS
 62
     2
 10
1660.17
 20
1069.90024
 30
1.44
 40
14.4
  1
　　４５
 50
0.0
 41
0.9
 51
0.0
  7
KANJI66
  0
TEXT
  8
0
  6
CONTINUOUS
 62
     2
 10
1276.17
 20
1069.90024
 30
1.44
 40
14.4
  1
１４００
 50
0.0
 41
0.9
 51
0.0
  7
KANJI66
  0
TEXT
  8
0
  6
CONTINUOUS
 62
     2
 10
1564.17
 20
1069.90024
 30
1.44
 40
14.4
  1
１７０２
 50
0.0
 41
0.9
 51
0.0
  7
KANJI66
  0
TEXT
  8
0
  6
CONTINUOUS
 62
     2
 10
1468.17
 20
1069.90024
 30
1.44
 40
14.4
  1
１８０７
 50
0.0
 41
0.9
 51
0.0
  7
KANJI66
  0
TEXT
  8
0
  6
CONTINUOUS
 62
     2
 10
1372.17
 20
1069.90024
 30
1.44
 40
14.4
  1
２００４
 50
0.0
 41
0.9
 51
0.0
  7
KANJI66
  0
LINE
  8
0
  6
CONTINUOUS
 62
     2
 10
1052.97
 20
1030.26024
 30
0.0
 11
1830.57
 21
1030.26024
 31
0.0
  0
TEXT
  8
0
  6
CONTINUOUS
 62
     2
 10
1660.17
 20
1038.30024
 30
1.44
 40
14.4
  1
　　４５
 50
0.0
 41
0.9
 51
0.0
  7
KANJI66
  0
TEXT
  8
0
  6
CONTINUOUS
 62
     2
 10
1276.17
 20
1038.30024
 30
1.44
 40
14.4
  1
１５００
 50
0.0
 41
0.9
 51
0.0
  7
KANJI66
  0
TEXT
  8
0
  6
CONTINUOUS
 62
     2
 10
1564.17
 20
1038.30024
 30
1.44
 40
14.4
  1
１８０２
 50
0.0
 41
0.9
 51
0.0
  7
KANJI66
  0
TEXT
  8
0
  6
CONTINUOUS
 62
     2
 10
1468.17
 20
1038.30024
 30
1.44
 40
14.4
  1
１９０７
 50
0.0
 41
0.9
 51
0.0
  7
KANJI66
  0
TEXT
  8
0
  6
CONTINUOUS
 62
     2
 10
1372.17
 20
1038.30024
 30
1.44
 40
14.4
  1
２１０４
 50
0.0
 41
0.9
 51
0.0
  7
KANJI66
  0
LINE
  8
0
  6
CONTINUOUS
 62
     1
 10
1830.57
 20
1506.26024
 30
0.0
 11
1830.57
 21
998.66024
 31
0.0
  0
LINE
  8
0
  6
CONTINUOUS
 62
     1
 10
1052.97
 20
998.66024
 30
0.0
 11
1830.57
 21
998.66024
 31
0.0
  0
LINE
  8
0
  6
CONTINUOUS
 62
     1
 10
1052.97
 20
1506.26024
 30
0.0
 11
1052.97
 21
998.66024
 31
0.0
  0
LINE
  8
0
  6
CONTINUOUS
 62
     1
 10
1254.57
 20
1506.26024
 30
0.0
 11
1254.57
 21
998.66024
 31
0.0
  0
LINE
  8
0
  6
CONTINUOUS
 62
     2
 10
1350.57
 20
1506.26024
 30
0.0
 11
1350.57
 21
998.66024
 31
0.0
  0
LINE
  8
0
  6
CONTINUOUS
 62
     2
 10
1446.57
 20
1506.26024
 30
0.0
 11
1446.57
 21
998.66024
 31
0.0
  0
LINE
  8
0
  6
CONTINUOUS
 62
     2
 10
1542.57
 20
1506.26024
 30
0.0
 11
1542.57
 21
998.66024
 31
0.0
  0
LINE
  8
0
  6
CONTINUOUS
 62
     2
 10
1638.57
 20
1506.26024
 30
0.0
 11
1638.57
 21
998.66024
 31
0.0
  0
LINE
  8
0
  6
CONTINUOUS
 62
     2
 10
1734.57
 20
1506.26024
 30
0.0
 11
1734.57
 21
998.66024
 31
0.0
  0
LINE
  8
0
  6
CONTINUOUS
 62
     2
 10
473.083402385
 20
1270.133330769
 30
0.0
 11
480.810808995
 21
1268.062778408
 31
0.0
  0
LINE
  8
0
  6
CONTINUOUS
 62
     2
 10
473.083402385
 20
1270.133330769
 30
0.0
 11
480.810808995
 21
1272.20388313
 31
0.0
  0
LINE
  8
0
  6
CONTINUOUS
 62
     2
 10
473.083402385
 20
1270.133330769
 30
0.0
 11
610.683402385
 21
1270.133330769
 31
0.0
  0
LINE
  8
0
  6
CONTINUOUS
 62
     2
 10
610.683402385
 20
1270.133330769
 30
0.0
 11
602.955995774
 21
1272.20388313
 31
0.0
  0
LINE
  8
0
  6
CONTINUOUS
 62
     2
 10
610.683402385
 20
1270.133330769
 30
0.0
 11
602.955995774
 21
1268.062778408
 31
0.0
  0
LINE
  8
0
  6
CONTINUOUS
 62
     2
 10
610.683402385
 20
1268.933330769
 30
0.0
 11
610.683402385
 21
1266.133330769
 31
0.0
  0
LINE
  8
0
  6
CONTINUOUS
 62
     2
 10
610.683402385
 20
1270.133330769
 30
0.0
 11
618.410808995
 21
1268.062778408
 31
0.0
  0
LINE
  8
0
  6
CONTINUOUS
 62
     2
 10
610.683402385
 20
1270.133330769
 30
0.0
 11
618.410808995
 21
1272.20388313
 31
0.0
  0
LINE
  8
0
  6
CONTINUOUS
 62
     2
 10
610.683402385
 20
1270.133330769
 30
0.0
 11
813.083402385
 21
1270.133330769
 31
0.0
  0
LINE
  8
0
  6
CONTINUOUS
 62
     2
 10
813.083402385
 20
1270.133330769
 30
0.0
 11
805.355995774
 21
1272.20388313
 31
0.0
  0
LINE
  8
0
  6
CONTINUOUS
 62
     2
 10
813.083402385
 20
1270.133330769
 30
0.0
 11
805.355995774
 21
1268.062778408
 31
0.0
  0
LINE
  8
0
  6
CONTINUOUS
 62
     2
 10
610.683402385
 20
1243.80388313
 30
0.0
 11
602.955995774
 21
1245.874435491
 31
0.0
  0
LINE
  8
0
  6
CONTINUOUS
 62
     2
 10
610.683402385
 20
1243.80388313
 30
0.0
 11
602.955995774
 21
1241.733330769
 31
0.0
  0
LINE
  8
0
  6
CONTINUOUS
 62
     2
 10
598.683402385
 20
1243.80388313
 30
0.0
 11
610.683402385
 21
1243.80388313
 31
0.0
  0
LINE
  8
0
  6
CONTINUOUS
 62
     2
 10
610.683402385
 20
1243.80388313
 30
0.0
 11
631.483402385
 21
1243.80388313
 31
0.0
  0
LINE
  8
0
  6
CONTINUOUS
 62
     2
 10
631.483402385
 20
1243.80388313
 30
0.0
 11
639.210808995
 21
1241.733330769
 31
0.0
  0
LINE
  8
0
  6
CONTINUOUS
 62
     2
 10
631.483402385
 20
1243.80388313
 30
0.0
 11
639.210808995
 21
1245.874435491
 31
0.0
  0
LINE
  8
0
  6
CONTINUOUS
 62
     2
 10
473.083402385
 20
1218.533330769
 30
0.0
 11
473.083402385
 21
1212.533330769
 31
0.0
  0
LINE
  8
0
  6
CONTINUOUS
 62
     2
 10
473.083402385
 20
1216.533330769
 30
0.0
 11
480.810808995
 21
1214.462778408
 31
0.0
  0
LINE
  8
0
  6
CONTINUOUS
 62
     2
 10
473.083402385
 20
1216.533330769
 30
0.0
 11
480.810808995
 21
1218.60388313
 31
0.0
  0
LINE
  8
0
  6
CONTINUOUS
 62
     2
 10
473.083402385
 20
1216.533330769
 30
0.0
 11
631.483402385
 21
1216.533330769
 31
0.0
  0
LINE
  8
0
  6
CONTINUOUS
 62
     2
 10
631.483402385
 20
1216.533330769
 30
0.0
 11
623.755995774
 21
1218.60388313
 31
0.0
  0
LINE
  8
0
  6
CONTINUOUS
 62
     2
 10
631.483402385
 20
1216.533330769
 30
0.0
 11
623.755995774
 21
1214.462778408
 31
0.0
  0
LINE
  8
0
  6
CONTINUOUS
 62
     2
 10
631.483402385
 20
1217.733330769
 30
0.0
 11
631.483402385
 21
1212.533330769
 31
0.0
  0
LINE
  8
0
  6
CONTINUOUS
 62
     2
 10
631.483402385
 20
1216.533330769
 30
0.0
 11
639.210808995
 21
1214.462778408
 31
0.0
  0
LINE
  8
0
  6
CONTINUOUS
 62
     2
 10
631.483402385
 20
1216.533330769
 30
0.0
 11
639.210808995
 21
1218.60388313
 31
0.0
  0
LINE
  8
0
  6
CONTINUOUS
 62
     2
 10
813.083402385
 20
1212.933330769
 30
0.0
 11
813.083402385
 21
1212.533330769
 31
0.0
  0
LINE
  8
0
  6
CONTINUOUS
 62
     2
 10
473.083402385
 20
1187.333330769
 30
0.0
 11
480.810808995
 21
1185.262778408
 31
0.0
  0
LINE
  8
0
  6
CONTINUOUS
 62
     2
 10
473.083402385
 20
1187.333330769
 30
0.0
 11
480.810808995
 21
1189.40388313
 31
0.0
  0
LINE
  8
0
  6
CONTINUOUS
 62
     2
 10
473.083402385
 20
1187.333330769
 30
0.0
 11
790.683402385
 21
1187.333330769
 31
0.0
  0
LINE
  8
0
  6
CONTINUOUS
 62
     2
 10
790.683402385
 20
1187.333330769
 30
0.0
 11
782.955995774
 21
1189.40388313
 31
0.0
  0
LINE
  8
0
  6
CONTINUOUS
 62
     2
 10
790.683402385
 20
1187.333330769
 30
0.0
 11
782.955995774
 21
1185.262778408
 31
0.0
  0
LINE
  8
0
  6
CONTINUOUS
 62
     2
 10
790.683402385
 20
1188.133330769
 30
0.0
 11
790.683402385
 21
1183.333330769
 31
0.0
  0
LINE
  8
0
  6
CONTINUOUS
 62
     2
 10
790.683402385
 20
1187.333330769
 30
0.0
 11
782.955995774
 21
1189.40388313
 31
0.0
  0
LINE
  8
0
  6
CONTINUOUS
 62
     2
 10
790.683402385
 20
1187.333330769
 30
0.0
 11
782.955995774
 21
1185.262778408
 31
0.0
  0
LINE
  8
0
  6
CONTINUOUS
 62
     2
 10
778.683402385
 20
1187.333330769
 30
0.0
 11
790.683402385
 21
1187.333330769
 31
0.0
  0
LINE
  8
0
  6
CONTINUOUS
 62
     2
 10
790.683402385
 20
1187.333330769
 30
0.0
 11
813.083402385
 21
1187.333330769
 31
0.0
  0
LINE
  8
0
  6
CONTINUOUS
 62
     2
 10
813.083402385
 20
1187.333330769
 30
0.0
 11
820.810808995
 21
1185.262778408
 31
0.0
  0
LINE
  8
0
  6
CONTINUOUS
 62
     2
 10
813.083402385
 20
1187.333330769
 30
0.0
 11
820.810808995
 21
1189.40388313
 31
0.0
  0
LINE
  8
0
  6
CONTINUOUS
 62
     2
 10
473.083402385
 20
1280.933330769
 30
0.0
 11
473.083402385
 21
1266.133330769
 31
0.0
  0
LINE
  8
0
  6
CONTINUOUS
 62
     2
 10
813.083402385
 20
1280.933330769
 30
0.0
 11
813.083402385
 21
1266.133330769
 31
0.0
  0
LINE
  8
0
  6
CONTINUOUS
 62
     2
 10
610.683402385
 20
1269.733330769
 30
0.0
 11
610.683402385
 21
1280.933330769
 31
0.0
  0
LINE
  8
0
  6
CONTINUOUS
 62
     2
 10
631.483402385
 20
1256.60388313
 30
0.0
 11
631.483402385
 21
1239.80388313
 31
0.0
  0
LINE
  8
0
  6
CONTINUOUS
 62
     2
 10
473.083402385
 20
1266.133330769
 30
0.0
 11
473.083402385
 21
1174.133330769
 31
0.0
  0
LINE
  8
0
  6
CONTINUOUS
 62
     2
 10
813.083402385
 20
1270.133330769
 30
0.0
 11
813.083402385
 21
1175.333330769
 31
0.0
  0
LINE
  8
0
  6
CONTINUOUS
 62
     2
 10
631.483402385
 20
1243.80388313
 30
0.0
 11
631.483402385
 21
1207.333330769
 31
0.0
  0
LINE
  8
0
  6
CONTINUOUS
 62
     2
 10
610.683402385
 20
1270.133330769
 30
0.0
 11
610.683402385
 21
1234.533330769
 31
0.0
  0
TEXT
  8
0
  6
CONTINUOUS
 62
     3
 10
514.883402385
 20
1272.133330769
 30
0.0
 40
15.0
  1
ｍｉｎ．Ｌ
 50
0.0
 41
0.9
 51
0.0
  7
KANJI71
  0
TEXT
  8
0
  6
CONTINUOUS
 62
     3
 10
668.683402385
 20
1272.133330769
 30
0.0
 40
15.0
  1
機械的ストローク
 50
0.0
 41
0.9
 51
0.0
  7
KANJI71
  0
TEXT
  8
0
  6
CONTINUOUS
 62
     3
 10
643.483402385
 20
1245.80388313
 30
0.0
 40
15.0
  1
余裕
 50
0.0
 41
0.9
 51
0.0
  7
KANJI71
  0
TEXT
  8
0
  6
CONTINUOUS
 62
     3
 10
525.283402385
 20
1218.533330769
 30
0.0
 40
15.0
  1
常用ｍｉｎ
 50
0.0
 41
0.9
 51
0.0
  7
KANJI71
  0
TEXT
  8
0
  6
CONTINUOUS
 62
     3
 10
604.883402385
 20
1189.333330769
 30
0.0
 40
15.0
  1
常用ｍａｘ
 50
0.0
 41
0.9
 51
0.0
  7
KANJI71
  0
TEXT
  8
0
  6
CONTINUOUS
 62
     3
 10
825.083402385
 20
1189.333330769
 30
0.0
 40
15.0
  1
余裕
 50
0.0
 41
0.9
 51
0.0
  7
KANJI71
  0
LINE
  8
0
  6
CONTINUOUS
 62
     2
 10
631.483402385
 20
1243.80388313
 30
0.0
 11
671.583402385
 21
1243.80388313
 31
0.0
  0
LINE
  8
0
  6
CONTINUOUS
 62
     2
 10
813.083402385
 20
1187.333330769
 30
0.0
 11
855.583402385
 21
1187.333330769
 31
0.0
  0
LINE
  8
0
  6
CONTINUOUS
 62
     2
 10
790.683402385
 20
1228.933330769
 30
0.0
 11
790.683402385
 21
1174.533330769
 31
0.0
  0
LINE
  8
0
  6
CONTINUOUS
 62
     2
 10
631.483402385
 20
1216.533330769
 30
0.0
 11
790.683402385
 21
1216.533330769
 31
0.0
  0
LINE
  8
0
  6
CONTINUOUS
 62
     2
 10
790.683402385
 20
1216.533330769
 30
0.0
 11
782.955995774
 21
1218.60388313
 31
0.0
  0
LINE
  8
0
  6
CONTINUOUS
 62
     2
 10
790.683402385
 20
1216.533330769
 30
0.0
 11
782.955995774
 21
1214.462778408
 31
0.0
  0
TEXT
  8
0
  6
CONTINUOUS
 62
     3
 10
669.433402385
 20
1218.533330769
 30
0.0
 40
15.0
  1
常用ストローク
 50
0.0
 41
0.9
 51
0.0
  7
KANJI71
  0
TEXT
  8
0
  6
CONTINUOUS
 62
     2
 10
503.502674524
 20
223.541526374
 30
0.0
 40
20.0
  1
推力リミッタの作動値は、約２３００ｋｇ（設計値）
 50
0.0
 41
0.925
 51
0.0
  7
KANJI64
  0
LINE
  8
0
  6
CONTINUOUS
 62
     2
 10
501.502674524
 20
215.541526374
 30
0.0
 11
933.790083262
 21
215.541526374
 31
0.0
  0
TEXT
  8
0
  6
CONTINUOUS
 62
     2
 10
1756.17
 20
1449.10024
 30
1.44
 40
14.4
  1
　８７
 50
0.0
 41
0.9
 51
0.0
  7
KANJI66
  0
TEXT
  8
0
  6
CONTINUOUS
 62
     2
 10
1756.17
 20
1417.50024
 30
1.44
 40
14.4
  1
　９０
 50
0.0
 41
0.9
 51
0.0
  7
KANJI66
  0
TEXT
  8
0
  6
CONTINUOUS
 62
     2
 10
1756.17
 20
1385.90024
 30
1.44
 40
14.4
  1
　９４
 50
0.0
 41
0.9
 51
0.0
  7
KANJI66
  0
TEXT
  8
0
  6
CONTINUOUS
 62
     2
 10
1756.17
 20
1354.30024
 30
1.44
 40
14.4
  1
　９９
 50
0.0
 41
0.9
 51
0.0
  7
KANJI66
  0
TEXT
  8
0
  6
CONTINUOUS
 62
     2
 10
1756.17
 20
1322.70024
 30
1.44
 40
14.4
  1
１０２
 50
0.0
 41
0.9
 51
0.0
  7
KANJI66
  0
TEXT
  8
0
  6
CONTINUOUS
 62
     2
 10
1756.17
 20
1290.10024
 30
1.44
 40
14.4
  1
１０６
 50
0.0
 41
0.9
 51
0.0
  7
KANJI66
  0
TEXT
  8
0
  6
CONTINUOUS
 62
     2
 10
1756.17
 20
1259.50024
 30
1.44
 40
14.4
  1
１１０
 50
0.0
 41
0.9
 51
0.0
  7
KANJI66
  0
TEXT
  8
0
  6
CONTINUOUS
 62
     2
 10
1756.17
 20
1227.90024
 30
1.44
 40
14.4
  1
１１３
 50
0.0
 41
0.9
 51
0.0
  7
KANJI66
  0
TEXT
  8
0
  6
CONTINUOUS
 62
     2
 10
1756.17
 20
1196.30024
 30
1.44
 40
14.4
  1
１１６
 50
0.0
 41
0.9
 51
0.0
  7
KANJI66
  0
TEXT
  8
0
  6
CONTINUOUS
 62
     2
 10
1756.17
 20
1164.70024
 30
1.44
 40
14.4
  1
１１８
 50
0.0
 41
0.9
 51
0.0
  7
KANJI66
  0
TEXT
  8
0
  6
CONTINUOUS
 62
     2
 10
1756.17
 20
1133.10024
 30
1.44
 40
14.4
  1
１２０
 50
0.0
 41
0.9
 51
0.0
  7
KANJI66
  0
TEXT
  8
0
  6
CONTINUOUS
 62
     2
 10
1756.17
 20
1101.50024
 30
1.44
 40
14.4
  1
１２２
 50
0.0
 41
0.9
 51
0.0
  7
KANJI66
  0
TEXT
  8
0
  6
CONTINUOUS
 62
     2
 10
1756.17
 20
1069.90024
 30
1.44
 40
14.4
  1
１２４
 50
0.0
 41
0.9
 51
0.0
  7
KANJI66
  0
TEXT
  8
0
  6
CONTINUOUS
 62
     2
 10
1756.17
 20
1038.30024
 30
1.44
 40
14.4
  1
１２６
 50
0.0
 41
0.9
 51
0.0
  7
KANJI66
  0
LINE
  8
0
  6
LTYPE2
 62
     2
 10
1149.2199996
 20
872.5999996
 30
0.0
 11
1165.2199996
 21
872.5999996
 31
0.0
  0
CIRCLE
  8
0
  6
CONTINUOUS
 62
     1
 10
1156.2199996
 20
872.5999996
 30
0.0
 40
3.0
  0
LINE
  8
0
  6
CONTINUOUS
 62
     1
 10
1111.2199996
 20
849.9999996
 30
0.0
 11
1186.2199996
 21
849.9999996
 31
0.0
  0
LINE
  8
0
  6
CONTINUOUS
 62
     1
 10
1186.2199996
 20
864.9999996
 30
0.0
 11
1186.2199996
 21
849.9999996
 31
0.0
  0
LINE
  8
0
  6
CONTINUOUS
 62
     1
 10
1111.2199996
 20
834.9999996
 30
0.0
 11
1111.2199996
 21
849.9999996
 31
0.0
  0
LINE
  8
0
  6
CONTINUOUS
 62
     1
 10
1181.7199996
 20
868.9999996
 30
0.0
 11
1181.7199996
 21
864.9999996
 31
0.0
  0
LINE
  8
0
  6
CONTINUOUS
 62
     1
 10
1168.7199996
 20
878.9999996
 30
0.0
 11
1168.7199996
 21
868.9999996
 31
0.0
  0
LINE
  8
0
  6
LTYPE1
 62
     2
 10
1168.7199996
 20
849.9999996
 30
0.0
 11
1168.7199996
 21
864.9999996
 31
0.0
  0
LINE
  8
0
  6
CONTINUOUS
 62
     1
 10
1168.7199996
 20
834.9999996
 30
0.0
 11
1168.7199996
 21
849.9999996
 31
0.0
  0
LINE
  8
0
  6
CONTINUOUS
 62
     1
 10
1130.7199996
 20
868.9999996
 30
0.0
 11
1130.7199996
 21
864.9999996
 31
0.0
  0
LINE
  8
0
  6
LTYPE1
 62
     2
 10
1143.7199996
 20
849.9999996
 30
0.0
 11
1143.7199996
 21
864.9999996
 31
0.0
  0
LINE
  8
0
  6
CONTINUOUS
 62
     1
 10
1143.7199996
 20
834.9999996
 30
0.0
 11
1143.7199996
 21
849.9999996
 31
0.0
  0
LINE
  8
0
  6
CONTINUOUS
 62
     1
 10
1143.7199996
 20
878.9999996
 30
0.0
 11
1143.7199996
 21
868.9999996
 31
0.0
  0
LINE
  8
0
  6
CONTINUOUS
 62
     1
 10
1143.7199996
 20
878.9999996
 30
0.0
 11
1168.7199996
 21
878.9999996
 31
0.0
  0
LINE
  8
0
  6
CONTINUOUS
 62
     1
 10
1130.7199996
 20
868.9999996
 30
0.0
 11
1181.7199996
 21
868.9999996
 31
0.0
  0
LINE
  8
0
  6
LTYPE2
 62
     2
 10
1149.2199996
 20
797.3999996
 30
0.0
 11
1165.2199996
 21
797.3999996
 31
0.0
  0
CIRCLE
  8
0
  6
CONTINUOUS
 62
     1
 10
1156.2199996
 20
797.3999996
 30
0.0
 40
3.0
  0
LINE
  8
0
  6
CONTINUOUS
 62
     1
 10
1111.2199996
 20
819.9999996
 30
0.0
 11
1186.2199996
 21
819.9999996
 31
0.0
  0
LINE
  8
0
  6
CONTINUOUS
 62
     1
 10
1186.2199996
 20
804.9999996
 30
0.0
 11
1186.2199996
 21
819.9999996
 31
0.0
  0
LINE
  8
0
  6
CONTINUOUS
 62
     1
 10
1111.2199996
 20
834.9999996
 30
0.0
 11
1111.2199996
 21
819.9999996
 31
0.0
  0
LINE
  8
0
  6
CONTINUOUS
 62
     1
 10
1181.7199996
 20
800.9999996
 30
0.0
 11
1181.7199996
 21
804.9999996
 31
0.0
  0
LINE
  8
0
  6
CONTINUOUS
 62
     1
 10
1168.7199996
 20
790.9999996
 30
0.0
 11
1168.7199996
 21
800.9999996
 31
0.0
  0
LINE
  8
0
  6
LTYPE1
 62
     2
 10
1168.7199996
 20
819.9999996
 30
0.0
 11
1168.7199996
 21
804.9999996
 31
0.0
  0
LINE
  8
0
  6
CONTINUOUS
 62
     1
 10
1168.7199996
 20
834.9999996
 30
0.0
 11
1168.7199996
 21
819.9999996
 31
0.0
  0
LINE
  8
0
  6
CONTINUOUS
 62
     1
 10
1130.7199996
 20
800.9999996
 30
0.0
 11
1130.7199996
 21
804.9999996
 31
0.0
  0
LINE
  8
0
  6
LTYPE1
 62
     2
 10
1143.7199996
 20
819.9999996
 30
0.0
 11
1143.7199996
 21
804.9999996
 31
0.0
  0
LINE
  8
0
  6
CONTINUOUS
 62
     1
 10
1143.7199996
 20
834.9999996
 30
0.0
 11
1143.7199996
 21
819.9999996
 31
0.0
  0
LINE
  8
0
  6
CONTINUOUS
 62
     1
 10
1143.7199996
 20
790.9999996
 30
0.0
 11
1143.7199996
 21
800.9999996
 31
0.0
  0
LINE
  8
0
  6
CONTINUOUS
 62
     1
 10
1143.7199996
 20
790.9999996
 30
0.0
 11
1168.7199996
 21
790.9999996
 31
0.0
  0
LINE
  8
0
  6
CONTINUOUS
 62
     1
 10
1130.7199996
 20
800.9999996
 30
0.0
 11
1181.7199996
 21
800.9999996
 31
0.0
  0
LINE
  8
0
  6
LTYPE2
 62
     2
 10
1156.2199996
 20
781.9999996
 30
0.0
 11
1156.2199996
 21
884.9999996
 31
0.0
  0
LINE
  8
7
  6
CONTINUOUS
 62
     2
 10
1193.7199996
 20
849.9999996
 30
0.0
 11
1231.6199996
 21
849.9999996
 31
0.0
  0
LINE
  8
7
  6
CONTINUOUS
 62
     2
 10
1224.1199996
 20
849.9999996
 30
0.0
 11
1220.884761536
 21
837.925926771
 31
0.0
  0
LINE
  8
7
  6
CONTINUOUS
 62
     2
 10
1224.1199996
 20
849.9999996
 30
0.0
 11
1227.355237664
 21
837.925926771
 31
0.0
  0
LINE
  8
7
  6
CONTINUOUS
 62
     2
 10
1224.1199996
 20
849.9999996
 30
0.0
 11
1224.1199996
 21
819.9999996
 31
0.0
  0
LINE
  8
7
  6
CONTINUOUS
 62
     2
 10
1224.1199996
 20
819.9999996
 30
0.0
 11
1227.355237664
 21
832.074072429
 31
0.0
  0
LINE
  8
7
  6
CONTINUOUS
 62
     2
 10
1224.1199996
 20
819.9999996
 30
0.0
 11
1220.884761536
 21
832.074072429
 31
0.0
  0
LINE
  8
7
  6
CONTINUOUS
 62
     2
 10
1193.7199996
 20
819.9999996
 30
0.0
 11
1231.6199996
 21
819.9999996
 31
0.0
  0
LINE
  8
7
  6
CONTINUOUS
 62
     2
 10
1193.7199996
 20
864.9999996
 30
0.0
 11
1268.6199996
 21
864.9999996
 31
0.0
  0
LINE
  8
7
  6
CONTINUOUS
 62
     2
 10
1261.1199996
 20
864.9999996
 30
0.0
 11
1257.884761536
 21
852.925926771
 31
0.0
  0
LINE
  8
7
  6
CONTINUOUS
 62
     2
 10
1261.1199996
 20
864.9999996
 30
0.0
 11
1264.355237664
 21
852.925926771
 31
0.0
  0
LINE
  8
7
  6
CONTINUOUS
 62
     2
 10
1261.1199996
 20
864.9999996
 30
0.0
 11
1261.1199996
 21
804.9999996
 31
0.0
  0
LINE
  8
7
  6
CONTINUOUS
 62
     2
 10
1261.1199996
 20
804.9999996
 30
0.0
 11
1264.355237664
 21
817.074072429
 31
0.0
  0
LINE
  8
7
  6
CONTINUOUS
 62
     2
 10
1261.1199996
 20
804.9999996
 30
0.0
 11
1257.884761536
 21
817.074072429
 31
0.0
  0
LINE
  8
7
  6
CONTINUOUS
 62
     2
 10
1193.7199996
 20
804.9999996
 30
0.0
 11
1268.6199996
 21
804.9999996
 31
0.0
  0
LINE
  8
7
  6
CONTINUOUS
 62
     2
 10
1096.2199996
 20
731.9999996
 30
0.0
 11
1084.145926771
 21
735.235237664
 31
0.0
  0
LINE
  8
7
  6
CONTINUOUS
 62
     2
 10
1096.2199996
 20
731.9999996
 30
0.0
 11
1084.145926771
 21
728.764761536
 31
0.0
  0
LINE
  8
7
  6
CONTINUOUS
 62
     2
 10
1111.2199996
 20
812.4999996
 30
0.0
 11
1111.2199996
 21
724.4999996
 31
0.0
  0
LINE
  8
7
  6
CONTINUOUS
 62
     2
 10
1048.9699996
 20
731.9999996
 30
0.0
 11
1111.2199996
 21
731.9999996
 31
0.0
  0
POINT
  8
7
  6
CONTINUOUS
 62
     2
 10
1111.2199996
 20
739.4999996
 30
0.0
  0
LINE
  8
7
  6
CONTINUOUS
 62
     2
 10
1111.2199996
 20
731.9999996
 30
0.0
 11
1123.294072429
 21
728.764761536
 31
0.0
  0
LINE
  8
7
  6
CONTINUOUS
 62
     2
 10
1111.2199996
 20
731.9999996
 30
0.0
 11
1123.294072429
 21
735.235237664
 31
0.0
  0
LINE
  8
7
  6
CONTINUOUS
 62
     2
 10
1111.2199996
 20
731.9999996
 30
0.0
 11
1156.2199996
 21
731.9999996
 31
0.0
  0
LINE
  8
7
  6
CONTINUOUS
 62
     2
 10
1156.2199996
 20
731.9999996
 30
0.0
 11
1144.145926771
 21
735.235237664
 31
0.0
  0
LINE
  8
7
  6
CONTINUOUS
 62
     2
 10
1156.2199996
 20
731.9999996
 30
0.0
 11
1144.145926771
 21
728.764761536
 31
0.0
  0
LINE
  8
7
  6
CONTINUOUS
 62
     2
 10
1156.2199996
 20
774.4999996
 30
0.0
 11
1156.2199996
 21
724.4999996
 31
0.0
  0
LINE
  8
7
  6
CONTINUOUS
 62
     2
 10
1096.2199996
 20
802.8999996
 30
0.0
 11
1096.2199996
 21
724.4999996
 31
0.0
  0
LINE
  8
0
  6
CONTINUOUS
 62
     1
 10
1096.2199996
 20
804.9999996
 30
0.0
 11
1186.2199996
 21
804.9999996
 31
0.0
  0
LINE
  8
0
  6
CONTINUOUS
 62
     1
 10
1096.2199996
 20
834.9999996
 30
0.0
 11
1096.2199996
 21
804.9999996
 31
0.0
  0
LINE
  8
0
  6
CONTINUOUS
 62
     1
 10
1096.2199996
 20
834.9999996
 30
0.0
 11
1096.2199996
 21
864.9999996
 31
0.0
  0
LINE
  8
0
  6
CONTINUOUS
 62
     1
 10
1096.2199996
 20
864.9999996
 30
0.0
 11
1186.2199996
 21
864.9999996
 31
0.0
  0
LINE
  8
2
  6
CONTINUOUS
 62
     2
 10
1156.2199996
 20
744.9999996
 30
0.0
 11
1156.2199996
 21
721.9999996
 31
0.0
  0
LINE
  8
2
  6
CONTINUOUS
 62
     2
 10
1156.2199996
 20
731.9999996
 30
0.0
 11
1168.294072429
 21
728.764761536
 31
0.0
  0
LINE
  8
2
  6
CONTINUOUS
 62
     2
 10
1156.2199996
 20
731.9999996
 30
0.0
 11
1168.294072429
 21
735.235237664
 31
0.0
  0
LINE
  8
2
  6
CONTINUOUS
 62
     2
 10
1156.2199996
 20
731.9999996
 30
0.0
 11
1186.2199996
 21
731.9999996
 31
0.0
  0
LINE
  8
2
  6
CONTINUOUS
 62
     2
 10
1186.2199996
 20
731.9999996
 30
0.0
 11
1174.145926771
 21
735.235237664
 31
0.0
  0
LINE
  8
2
  6
CONTINUOUS
 62
     2
 10
1186.2199996
 20
731.9999996
 30
0.0
 11
1174.145926771
 21
728.764761536
 31
0.0
  0
LINE
  8
2
  6
CONTINUOUS
 62
     2
 10
1186.2199996
 20
795.9999996
 30
0.0
 11
1186.2199996
 21
721.9999996
 31
0.0
  0
TEXT
  8
7
  6
CONTINUOUS
 62
     2
 10
1256.1199996
 20
820.7499996
 30
0.0
 40
18.0
  1
６０
 50
90.0
 41
0.9
 51
0.0
  7
KANJI42
  0
TEXT
  8
7
  6
CONTINUOUS
 62
     2
 10
1048.9699996
 20
736.9999996
 30
0.0
 40
18.0
  1
１５
 50
0.0
 41
0.9
 51
0.0
  7
KANJI42
  0
TEXT
  8
7
  6
CONTINUOUS
 62
     2
 10
1119.4699996
 20
736.9999996
 30
0.0
 40
18.0
  1
４５
 50
0.0
 41
0.9
 51
0.0
  7
KANJI42
  0
TEXT
  8
7
  6
CONTINUOUS
 62
     2
 10
1219.1199996
 20
820.7499996
 30
-3.0
 40
18.0
  1
３０
 50
90.0
 41
0.9
 51
0.0
  7
KANJI63
  0
TEXT
  8
2
  6
CONTINUOUS
 62
     2
 10
1157.9699996
 20
736.9999996
 30
-3.0
 40
18.0
  1
３０
 50
0.0
 41
0.9
 51
0.0
  7
KANJI63
  0
LINE
  8
0
  6
CONTINUOUS
 62
     1
 10
1051.2199996
 20
804.9999996
 30
0.0
 11
1096.2199996
 21
804.9999996
 31
0.0
  0
LINE
  8
0
  6
CONTINUOUS
 62
     1
 10
1051.2199996
 20
864.9999996
 30
0.0
 11
1096.2199996
 21
864.9999996
 31
0.0
  0
LINE
  8
0
  6
LTYPE2
 62
     2
 10
1029.2199996
 20
834.9999996
 30
0.0
 11
1194.1199996
 21
834.9999996
 31
0.0
  0
LINE
  8
0
  6
CONTINUOUS
 62
     2
 10
463.6199996
 20
992.2999996
 30
0.0
 11
452.028889685
 21
995.405828141
 31
0.0
  0
LINE
  8
0
  6
CONTINUOUS
 62
     2
 10
463.6199996
 20
992.2999996
 30
0.0
 11
452.028889685
 21
989.194171059
 31
0.0
  0
LINE
  8
0
  6
CONTINUOUS
 62
     2
 10
463.6199996
 20
992.2999996
 30
0.0
 11
326.6199996
 21
992.2999996
 31
0.0
  0
LINE
  8
0
  6
CONTINUOUS
 62
     2
 10
326.6199996
 20
992.2999996
 30
0.0
 11
338.211109515
 21
989.194171059
 31
0.0
  0
LINE
  8
0
  6
CONTINUOUS
 62
     2
 10
326.6199996
 20
992.2999996
 30
0.0
 11
338.211109515
 21
995.405828141
 31
0.0
  0
LINE
  8
0
  6
CONTINUOUS
 62
     2
 10
326.6199996
 20
793.2999996
 30
0.0
 11
326.6199996
 21
998.2999996
 31
0.0
  0
TEXT
  8
0
  6
CONTINUOUS
 62
     3
 10
370.8199996
 20
998.2999996
 30
0.0
 40
18.0
  1
１３７
 50
0.0
 41
0.9
 51
0.0
  7
KANJI42
  0
LINE
  8
0
  6
CONTINUOUS
 62
     2
 10
344.1199996
 20
789.6999996
 30
0.0
 11
294.1199996
 21
914.6999996
 31
0.0
  0
LINE
  8
0
  6
CONTINUOUS
 62
     2
 10
294.1199996
 20
914.6999996
 30
0.0
 11
213.1199996
 21
914.6999996
 31
0.0
  0
TEXT
  8
0
  6
CONTINUOUS
 62
     2
 10
213.1199996
 20
919.6999996
 30
0.0
 40
15.0
  1
手動軸カバー
 50
0.0
 41
0.9
 51
0.0
  7
KANJI71
  0
TEXT
  8
0
  6
CONTINUOUS
 62
     3
 10
207.0866666
 20
892.5666826
 30
1.5
 40
15.0
  1
手動軸□１０
 50
0.0
 41
0.9
 51
0.0
  7
KANJI72
  0
ARC
  8
0
  6
CONTINUOUS
 62
     2
 10
295.1199996
 20
772.6999996
 30
0.0
 40
20.0
 50
231.952957468
 51
156.801409486
  0
LINE
  8
0
  6
CONTINUOUS
 62
     2
 10
276.737099
 20
780.578385572
 30
0.0
 11
279.03179171
 21
790.415824349
 31
0.0
  0
LINE
  8
0
  6
CONTINUOUS
 62
     2
 10
276.737099
 20
780.578385572
 30
0.0
 11
285.005260378
 21
785.485722107
 31
0.0
  0
TEXT
  8
0
  6
CONTINUOUS
 62
     2
 10
214.737099
 20
763.578385572
 30
0.0
 40
15.0
  1
前進方向
 50
0.0
 41
0.9
 51
0.0
  7
KANJI71
  0
LINE
  8
0
  6
CONTINUOUS
 62
     2
 10
344.1199996
 20
789.6999996
 30
0.0
 11
342.639644658
 21
802.112032038
 31
0.0
  0
LINE
  8
0
  6
CONTINUOUS
 62
     2
 10
344.1199996
 20
789.6999996
 30
0.0
 11
336.631958394
 21
799.708957533
 31
0.0
  0
LINE
  8
0
  6
CONTINUOUS
 62
     1
 10
326.6199996
 20
759.2999996
 30
0.0
 11
326.6199996
 21
787.2999996
 31
0.0
  0
LINE
  8
0
  6
CONTINUOUS
 62
     1
 10
364.6199996
 20
759.2999996
 30
0.0
 11
364.6199996
 21
787.2999996
 31
0.0
  0
LINE
  8
0
  6
CONTINUOUS
 62
     1
 10
326.6199996
 20
787.2999996
 30
0.0
 11
368.6199996
 21
787.2999996
 31
0.0
  0
LINE
  8
0
  6
CONTINUOUS
 62
     1
 10
326.6199996
 20
759.2999996
 30
0.0
 11
368.6199996
 21
759.2999996
 31
0.0
  0
TEXT
  8
0
  6
CONTINUOUS
 62
     2
 10
539.810009055
 20
755.1499996
 30
0.0
 40
16.8
  1
日本電産
 50
0.0
 41
0.964285714
 51
0.0
  7
KANJI73
  0
TEXT
  8
0
  6
CONTINUOUS
 62
     2
 10
539.810009055
 20
733.1499996
 30
0.0
 40
16.8
  1
クイックブレーキモータ
 50
0.0
 41
0.821428571
 51
0.0
  7
KANJI74
  0
TEXT
  8
0
  6
CONTINUOUS
 62
     2
 10
1068.57
 20
1448.74024
 30
0.96
 40
14.4
  1
ＭＣＬＥ２Ｃ－　　２
 50
0.0
 41
0.833333333
 51
0.0
  7
KANJI75
  0
TEXT
  8
0
  6
CONTINUOUS
 62
     2
 10
1068.57
 20
1417.14024
 30
0.96
 40
14.4
  1
ＭＣＬＥ２Ｃ－　　３
 50
0.0
 41
0.833333333
 51
0.0
  7
KANJI75
  0
TEXT
  8
0
  6
CONTINUOUS
 62
     2
 10
1068.57
 20
1385.54024
 30
0.96
 40
14.4
  1
ＭＣＬＥ２Ｃ－　　４
 50
0.0
 41
0.833333333
 51
0.0
  7
KANJI75
  0
TEXT
  8
0
  6
CONTINUOUS
 62
     2
 10
1068.57
 20
1353.94024
 30
0.96
 40
14.4
  1
ＭＣＬＥ２Ｃ－　　５
 50
0.0
 41
0.833333333
 51
0.0
  7
KANJI75
  0
TEXT
  8
0
  6
CONTINUOUS
 62
     2
 10
1068.57
 20
1322.34024
 30
0.96
 40
14.4
  1
ＭＣＬＥ２Ｃ－　　６
 50
0.0
 41
0.833333333
 51
0.0
  7
KANJI75
  0
TEXT
  8
0
  6
CONTINUOUS
 62
     2
 10
1068.57
 20
1290.74024
 30
0.96
 40
14.4
  1
ＭＣＬＥ２Ｃ－　　７
 50
0.0
 41
0.833333333
 51
0.0
  7
KANJI75
  0
TEXT
  8
0
  6
CONTINUOUS
 62
     2
 10
1068.57
 20
1259.14024
 30
0.96
 40
14.4
  1
ＭＣＬＥ２Ｃ－　　８
 50
0.0
 41
0.833333333
 51
0.0
  7
KANJI75
  0
TEXT
  8
0
  6
CONTINUOUS
 62
     2
 10
1068.57
 20
1227.54024
 30
0.96
 40
14.4
  1
ＭＣＬＥ２Ｃ－　　９
 50
0.0
 41
0.833333333
 51
0.0
  7
KANJI75
  0
TEXT
  8
0
  6
CONTINUOUS
 62
     2
 10
1068.57
 20
1195.94024
 30
0.96
 40
14.4
  1
ＭＣＬＥ２Ｃ－　１０
 50
0.0
 41
0.833333333
 51
0.0
  7
KANJI75
  0
TEXT
  8
0
  6
CONTINUOUS
 62
     2
 10
1068.57
 20
1164.34024
 30
0.96
 40
14.4
  1
ＭＣＬＥ２Ｃ－　１１
 50
0.0
 41
0.833333333
 51
0.0
  7
KANJI75
  0
TEXT
  8
0
  6
CONTINUOUS
 62
     2
 10
1068.57
 20
1132.74024
 30
0.96
 40
14.4
  1
ＭＣＬＥ２Ｃ－　１２
 50
0.0
 41
0.833333333
 51
0.0
  7
KANJI75
  0
TEXT
  8
0
  6
CONTINUOUS
 62
     2
 10
1068.57
 20
1101.14024
 30
0.96
 40
14.4
  1
ＭＣＬＥ２Ｃ－　１３
 50
0.0
 41
0.833333333
 51
0.0
  7
KANJI75
  0
TEXT
  8
0
  6
CONTINUOUS
 62
     2
 10
1068.57
 20
1069.54024
 30
0.96
 40
14.4
  1
ＭＣＬＥ２Ｃ－　１４
 50
0.0
 41
0.833333333
 51
0.0
  7
KANJI75
  0
TEXT
  8
0
  6
CONTINUOUS
 62
     2
 10
1068.57
 20
1037.94024
 30
0.96
 40
14.4
  1
ＭＣＬＥ２Ｃ－　１５
 50
0.0
 41
0.833333333
 51
0.0
  7
KANJI75
  0
TEXT
  8
0
  6
CONTINUOUS
 62
     2
 10
1068.57
 20
1005.34024
 30
0.96
 40
14.4
  1
ＭＣＬＥ２Ｃ－　　
 50
0.0
 41
0.833333333
 51
0.0
  7
KANJI75
  0
LINE
  8
0
  6
CONTINUOUS
 62
     1
 10
413.1199996
 20
672.2999996
 30
0.0
 11
413.1199996
 21
602.2999996
 31
0.0
  0
TEXT
  8
0
  6
CONTINUOUS
 62
     2
 10
418.1199996
 20
661.2999996
 30
5.0
 40
20.0
  1
銘板
 50
270.0
 41
0.925
 51
0.0
  7
KANJI76
  0
LINE
  8
0
  6
CONTINUOUS
 62
     1
 10
456.1199996
 20
672.2999996
 30
0.0
 11
413.1199996
 21
672.2999996
 31
0.0
  0
LINE
  8
0
  6
CONTINUOUS
 62
     1
 10
456.1199996
 20
602.2999996
 30
0.0
 11
413.1199996
 21
602.2999996
 31
0.0
  0
LINE
  8
0
  6
CONTINUOUS
 62
     1
 10
456.1199996
 20
672.2999996
 30
0.0
 11
456.1199996
 21
602.2999996
 31
0.0
  0
TEXT
  8
0
  6
CONTINUOUS
 62
     2
 10
1239.01926
 20
1607.29997
 30
1.499994
 40
14.99994
  1
２２．１
 50
0.0
 41
0.9
 51
0.0
  7
KANJI43
  0
TEXT
  8
0
  6
CONTINUOUS
 62
     2
 10
1239.01926
 20
1577.30009
 30
1.499994
 40
14.99994
  1
１９．２
 50
0.0
 41
0.9
 51
0.0
  7
KANJI43
  0
TEXT
  8
0
  6
CONTINUOUS
 62
     2
 10
1239.01926
 20
1547.30021
 30
1.499994
 40
14.99994
  1
２１．１
 50
0.0
 41
0.9
 51
0.0
  7
KANJI43
  0
TEXT
  8
0
  6
CONTINUOUS
 62
     2
 10
1538.476423333
 20
1575.0084275
 30
1.499994
 40
14.99994
  1
３８．２
 50
0.0
 41
0.9
 51
0.0
  7
KANJI43
  0
TEXT
  8
0
  6
CONTINUOUS
 62
     2
 10
1539.726418333
 20
1546.6752075
 30
1.499994
 40
14.99994
  1
４２．１
 50
0.0
 41
0.9
 51
0.0
  7
KANJI43
  0
TEXT
  8
0
  6
CONTINUOUS
 62
     2
 10
1239.3200902
 20
123.4999964
 30
0.0
 40
18.0
  1
０８．０４．０１　岡田　追記
 50
0.0
 41
0.9
 51
0.0
  7
KANJI42
  0
TEXT
  8
0
  6
CONTINUOUS
 62
     2
 10
176.4
 20
26.4
 30
0.0
 40
18.0
  1
ＦＤ　Ｎｏ．ＭＣ２２９
 50
0.0
 41
0.9
 51
0.0
  7
KANJI77
  0
ENDSEC
  0
EOF
