  0
SECTION
  2
HEADER
  9
$ACADVER
  1
AC1009
  9
$DWGCODEPAGE
  3
dos932
  9
$EXTMIN
 10
0.0
 20
0.0
 30
0.0
  9
$EXTMAX
 10
2520.0
 20
1782.0
 30
0.0
  9
$LIMMIN
 10
0.0
 20
0.0
  9
$LIMMAX
 10
2520.0
 20
1782.0
  9
$LTSCALE
 40
1.0
  9
$PDMODE
 70
     0
  0
ENDSEC
  0
SECTION
  2
TABLES
  0
TABLE
  2
VPORT
 70
     1
  0
VPORT
  2
*ACTIVE
 70
     0
 10
0.0
 20
0.0
 11
1.0
 21
1.0
 12
1260.0
 22
891.0
 13
0.0
 23
0.0
 14
10.0
 24
10.0
 15
10.0
 25
10.0
 16
0.0
 26
0.0
 36
1.0
 17
0.0
 27
0.0
 37
0.0
 40
2520.0
 41
1.414141414
 42
50.0
 43
0.0
 44
0.0
 50
0.0
 51
0.0
 71
     0
 72
  1000
 73
     1
 74
     3
 75
     0
 76
     0
 77
     0
 78
     0
  0
ENDTAB
  0
TABLE
  2
LTYPE
 70
     6
  0
LTYPE
  2
CONTINUOUS
 70
    64
  3
Solid line
 72
    65
 73
     0
 40
0.0
  0
LTYPE
  2
LTYPE1
 70
    64
  3
HIDDEN
 72
    65
 73
     2
 40
18.0
 49
10.8
 49
-7.2
  0
LTYPE
  2
LTYPE2
 70
    64
  3
CENTER
 72
    65
 73
     4
 40
60.0
 49
42.0
 49
-6.0
 49
6.0
 49
-6.0
  0
LTYPE
  2
LTYPE3
 70
    64
  3
CENTER
 72
    65
 73
     4
 40
120.0
 49
84.0
 49
-12.0
 49
12.0
 49
-12.0
  0
LTYPE
  2
LTYPE4
 70
    64
  3
CENTER
 72
    65
 73
     4
 40
90.0
 49
63.0
 49
-9.0
 49
9.0
 49
-9.0
  0
LTYPE
  2
LTYPE5
 70
    64
  3
PHANTOM
 72
    65
 73
     6
 40
60.0
 49
45.0
 49
-3.0
 49
3.0
 49
-3.0
 49
3.0
 49
-3.0
  0
ENDTAB
  0
TABLE
  2
LAYER
 70
   128
  0
LAYER
  2
0
 70
     0
 62
     7
  6
CONTINUOUS
  0
LAYER
  2
2
 70
     0
 62
     7
  6
CONTINUOUS
  0
LAYER
  2
3
 70
     0
 62
     7
  6
CONTINUOUS
  0
LAYER
  2
4
 70
     0
 62
     7
  6
CONTINUOUS
  0
LAYER
  2
5
 70
     0
 62
     7
  6
CONTINUOUS
  0
LAYER
  2
6
 70
     0
 62
     7
  6
CONTINUOUS
  0
LAYER
  2
7
 70
     0
 62
     7
  6
CONTINUOUS
  0
LAYER
  2
8
 70
     0
 62
     7
  6
CONTINUOUS
  0
LAYER
  2
9
 70
     0
 62
     7
  6
CONTINUOUS
  0
LAYER
  2
10
 70
     0
 62
     7
  6
CONTINUOUS
  0
LAYER
  2
11
 70
     0
 62
     7
  6
CONTINUOUS
  0
LAYER
  2
12
 70
     0
 62
     7
  6
CONTINUOUS
  0
LAYER
  2
13
 70
     0
 62
     7
  6
CONTINUOUS
  0
LAYER
  2
14
 70
     0
 62
     7
  6
CONTINUOUS
  0
LAYER
  2
15
 70
     0
 62
     7
  6
CONTINUOUS
  0
LAYER
  2
16
 70
     0
 62
     7
  6
CONTINUOUS
  0
LAYER
  2
17
 70
     0
 62
     7
  6
CONTINUOUS
  0
LAYER
  2
18
 70
     0
 62
     7
  6
CONTINUOUS
  0
LAYER
  2
19
 70
     0
 62
     7
  6
CONTINUOUS
  0
LAYER
  2
20
 70
     0
 62
     7
  6
CONTINUOUS
  0
LAYER
  2
21
 70
     0
 62
     7
  6
CONTINUOUS
  0
LAYER
  2
22
 70
     0
 62
     7
  6
CONTINUOUS
  0
LAYER
  2
23
 70
     0
 62
     7
  6
CONTINUOUS
  0
LAYER
  2
24
 70
     0
 62
     7
  6
CONTINUOUS
  0
LAYER
  2
25
 70
     0
 62
     7
  6
CONTINUOUS
  0
LAYER
  2
26
 70
     0
 62
     7
  6
CONTINUOUS
  0
LAYER
  2
27
 70
     0
 62
     7
  6
CONTINUOUS
  0
LAYER
  2
28
 70
     0
 62
     7
  6
CONTINUOUS
  0
LAYER
  2
29
 70
     0
 62
     7
  6
CONTINUOUS
  0
LAYER
  2
30
 70
     0
 62
     7
  6
CONTINUOUS
  0
LAYER
  2
31
 70
     0
 62
     7
  6
CONTINUOUS
  0
LAYER
  2
32
 70
     0
 62
     7
  6
CONTINUOUS
  0
LAYER
  2
33
 70
     0
 62
     7
  6
CONTINUOUS
  0
LAYER
  2
34
 70
     0
 62
     7
  6
CONTINUOUS
  0
LAYER
  2
35
 70
     0
 62
     7
  6
CONTINUOUS
  0
LAYER
  2
36
 70
     0
 62
     7
  6
CONTINUOUS
  0
LAYER
  2
37
 70
     0
 62
     7
  6
CONTINUOUS
  0
LAYER
  2
38
 70
     0
 62
     7
  6
CONTINUOUS
  0
LAYER
  2
39
 70
     0
 62
     7
  6
CONTINUOUS
  0
LAYER
  2
40
 70
     0
 62
     7
  6
CONTINUOUS
  0
LAYER
  2
41
 70
     0
 62
     7
  6
CONTINUOUS
  0
LAYER
  2
42
 70
     0
 62
     7
  6
CONTINUOUS
  0
LAYER
  2
43
 70
     0
 62
     7
  6
CONTINUOUS
  0
LAYER
  2
44
 70
     0
 62
     7
  6
CONTINUOUS
  0
LAYER
  2
45
 70
     0
 62
     7
  6
CONTINUOUS
  0
LAYER
  2
46
 70
     0
 62
     7
  6
CONTINUOUS
  0
LAYER
  2
47
 70
     0
 62
     7
  6
CONTINUOUS
  0
LAYER
  2
48
 70
     0
 62
     7
  6
CONTINUOUS
  0
LAYER
  2
49
 70
     0
 62
     7
  6
CONTINUOUS
  0
LAYER
  2
50
 70
     0
 62
     7
  6
CONTINUOUS
  0
LAYER
  2
51
 70
     0
 62
     7
  6
CONTINUOUS
  0
LAYER
  2
52
 70
     0
 62
     7
  6
CONTINUOUS
  0
LAYER
  2
53
 70
     0
 62
     7
  6
CONTINUOUS
  0
LAYER
  2
54
 70
     0
 62
     7
  6
CONTINUOUS
  0
LAYER
  2
55
 70
     0
 62
     7
  6
CONTINUOUS
  0
LAYER
  2
56
 70
     0
 62
     7
  6
CONTINUOUS
  0
LAYER
  2
57
 70
     0
 62
     7
  6
CONTINUOUS
  0
LAYER
  2
58
 70
     0
 62
     7
  6
CONTINUOUS
  0
LAYER
  2
59
 70
     0
 62
     7
  6
CONTINUOUS
  0
LAYER
  2
60
 70
     0
 62
     7
  6
CONTINUOUS
  0
LAYER
  2
61
 70
     0
 62
     7
  6
CONTINUOUS
  0
LAYER
  2
62
 70
     0
 62
     7
  6
CONTINUOUS
  0
LAYER
  2
63
 70
     0
 62
     7
  6
CONTINUOUS
  0
LAYER
  2
64
 70
     0
 62
     7
  6
CONTINUOUS
  0
LAYER
  2
65
 70
     0
 62
     7
  6
CONTINUOUS
  0
LAYER
  2
66
 70
     0
 62
     7
  6
CONTINUOUS
  0
LAYER
  2
67
 70
     0
 62
     7
  6
CONTINUOUS
  0
LAYER
  2
68
 70
     0
 62
     7
  6
CONTINUOUS
  0
LAYER
  2
69
 70
     0
 62
     7
  6
CONTINUOUS
  0
LAYER
  2
70
 70
     0
 62
     7
  6
CONTINUOUS
  0
LAYER
  2
71
 70
     0
 62
     7
  6
CONTINUOUS
  0
LAYER
  2
72
 70
     0
 62
     7
  6
CONTINUOUS
  0
LAYER
  2
73
 70
     0
 62
     7
  6
CONTINUOUS
  0
LAYER
  2
74
 70
     0
 62
     7
  6
CONTINUOUS
  0
LAYER
  2
75
 70
     0
 62
     7
  6
CONTINUOUS
  0
LAYER
  2
76
 70
     0
 62
     7
  6
CONTINUOUS
  0
LAYER
  2
77
 70
     0
 62
     7
  6
CONTINUOUS
  0
LAYER
  2
78
 70
     0
 62
     7
  6
CONTINUOUS
  0
LAYER
  2
79
 70
     0
 62
     7
  6
CONTINUOUS
  0
LAYER
  2
80
 70
     0
 62
     7
  6
CONTINUOUS
  0
LAYER
  2
81
 70
     0
 62
     7
  6
CONTINUOUS
  0
LAYER
  2
82
 70
     0
 62
     7
  6
CONTINUOUS
  0
LAYER
  2
83
 70
     0
 62
     7
  6
CONTINUOUS
  0
LAYER
  2
84
 70
     0
 62
     7
  6
CONTINUOUS
  0
LAYER
  2
85
 70
     0
 62
     7
  6
CONTINUOUS
  0
LAYER
  2
86
 70
     0
 62
     7
  6
CONTINUOUS
  0
LAYER
  2
87
 70
     0
 62
     7
  6
CONTINUOUS
  0
LAYER
  2
88
 70
     0
 62
     7
  6
CONTINUOUS
  0
LAYER
  2
89
 70
     0
 62
     7
  6
CONTINUOUS
  0
LAYER
  2
90
 70
     0
 62
     7
  6
CONTINUOUS
  0
LAYER
  2
91
 70
     0
 62
     7
  6
CONTINUOUS
  0
LAYER
  2
92
 70
     0
 62
     7
  6
CONTINUOUS
  0
LAYER
  2
93
 70
     0
 62
     7
  6
CONTINUOUS
  0
LAYER
  2
94
 70
     0
 62
     7
  6
CONTINUOUS
  0
LAYER
  2
95
 70
     0
 62
     7
  6
CONTINUOUS
  0
LAYER
  2
96
 70
     0
 62
     7
  6
CONTINUOUS
  0
LAYER
  2
97
 70
     0
 62
     7
  6
CONTINUOUS
  0
LAYER
  2
98
 70
     0
 62
     7
  6
CONTINUOUS
  0
LAYER
  2
99
 70
     0
 62
     7
  6
CONTINUOUS
  0
LAYER
  2
100
 70
     0
 62
     7
  6
CONTINUOUS
  0
LAYER
  2
101
 70
     0
 62
     7
  6
CONTINUOUS
  0
LAYER
  2
102
 70
     0
 62
     7
  6
CONTINUOUS
  0
LAYER
  2
103
 70
     0
 62
     7
  6
CONTINUOUS
  0
LAYER
  2
104
 70
     0
 62
     7
  6
CONTINUOUS
  0
LAYER
  2
105
 70
     0
 62
     7
  6
CONTINUOUS
  0
LAYER
  2
106
 70
     0
 62
     7
  6
CONTINUOUS
  0
LAYER
  2
107
 70
     0
 62
     7
  6
CONTINUOUS
  0
LAYER
  2
108
 70
     0
 62
     7
  6
CONTINUOUS
  0
LAYER
  2
109
 70
     0
 62
     7
  6
CONTINUOUS
  0
LAYER
  2
110
 70
     0
 62
     7
  6
CONTINUOUS
  0
LAYER
  2
111
 70
     0
 62
     7
  6
CONTINUOUS
  0
LAYER
  2
112
 70
     0
 62
     7
  6
CONTINUOUS
  0
LAYER
  2
113
 70
     0
 62
     7
  6
CONTINUOUS
  0
LAYER
  2
114
 70
     0
 62
     7
  6
CONTINUOUS
  0
LAYER
  2
115
 70
     0
 62
     7
  6
CONTINUOUS
  0
LAYER
  2
116
 70
     0
 62
     7
  6
CONTINUOUS
  0
LAYER
  2
117
 70
     0
 62
     7
  6
CONTINUOUS
  0
LAYER
  2
118
 70
     0
 62
     7
  6
CONTINUOUS
  0
LAYER
  2
119
 70
     0
 62
     7
  6
CONTINUOUS
  0
LAYER
  2
120
 70
     0
 62
     7
  6
CONTINUOUS
  0
LAYER
  2
121
 70
     0
 62
     7
  6
CONTINUOUS
  0
LAYER
  2
122
 70
     0
 62
     7
  6
CONTINUOUS
  0
LAYER
  2
123
 70
     0
 62
     7
  6
CONTINUOUS
  0
LAYER
  2
124
 70
     0
 62
     7
  6
CONTINUOUS
  0
LAYER
  2
125
 70
     0
 62
     7
  6
CONTINUOUS
  0
LAYER
  2
126
 70
     0
 62
     7
  6
CONTINUOUS
  0
LAYER
  2
127
 70
     0
 62
     7
  6
CONTINUOUS
  0
LAYER
  2
128
 70
     0
 62
     7
  6
CONTINUOUS
  0
ENDTAB
  0
TABLE
  2
STYLE
 70
    87
  0
STYLE
  2
STANDARD
 70
     0
 40
0.0
 41
1.0
 50
0.0
 71
     0
 42
0.2
  3
txt.shx
  4
extfont.shx
  0
STYLE
  2
KANJI0
 70
     0
 40
15.5999988
 41
0.75
 50
0.0
 71
     0
 42
15.5999988
  3
txt.shx
  4
extfont.shx
  0
STYLE
  2
KANJI1
 70
     0
 40
11.999997477
 41
0.6
 50
0.0
 71
     0
 42
11.999997477
  3
txt.shx
  4
extfont.shx
  0
STYLE
  2
KANJI2
 70
     0
 40
14.399996972
 41
0.9
 50
0.0
 71
     0
 42
14.399996972
  3
txt.shx
  4
extfont.shx
  0
STYLE
  2
KANJI3
 70
     0
 40
17.999996215
 41
0.9
 50
0.0
 71
     0
 42
17.999996215
  3
txt.shx
  4
extfont.shx
  0
STYLE
  2
KANJI4
 70
     0
 40
10.3999992
 41
0.6
 50
0.0
 71
     0
 42
10.3999992
  3
txt.shx
  4
extfont.shx
  0
STYLE
  2
KANJI5
 70
     0
 40
12.47999904
 41
0.6
 50
0.0
 71
     0
 42
12.47999904
  3
txt.shx
  4
extfont.shx
  0
STYLE
  2
KANJI6
 70
     0
 40
18.1999986
 41
0.42031746
 50
0.0
 71
     0
 42
18.1999986
  3
txt.shx
  4
extfont.shx
  0
STYLE
  2
KANJI7
 70
     0
 40
31.1999976
 41
0.9
 50
0.0
 71
     0
 42
31.1999976
  3
txt.shx
  4
extfont.shx
  0
STYLE
  2
KANJI8
 70
     0
 40
21.6
 41
1.111111111
 50
0.0
 71
     0
 42
21.6
  3
txt.shx
  4
extfont.shx
  0
STYLE
  2
KANJI9
 70
     0
 40
10.3999992
 41
0.8
 50
0.0
 71
     0
 42
10.3999992
  3
txt.shx
  4
extfont.shx
  0
STYLE
  2
KANJI10
 70
     0
 40
12.47999904
 41
0.8
 50
0.0
 71
     0
 42
12.47999904
  3
txt.shx
  4
extfont.shx
  0
STYLE
  2
KANJI11
 70
     0
 40
30.0
 41
1.0
 50
0.0
 71
     0
 42
30.0
  3
txt.shx
  4
extfont.shx
  0
STYLE
  2
KANJI12
 70
     0
 40
30.0
 41
1.0
 50
0.0
 71
     0
 42
30.0
  3
txt.shx
  4
extfont.shx
  0
STYLE
  2
KANJI13
 70
     0
 40
30.0
 41
0.8
 50
0.0
 71
     0
 42
30.0
  3
txt.shx
  4
extfont.shx
  0
STYLE
  2
KANJI14
 70
     0
 40
24.0
 41
1.0
 50
0.0
 71
     0
 42
24.0
  3
txt.shx
  4
extfont.shx
  0
STYLE
  2
KANJI15
 70
     0
 40
21.0
 41
0.857142857
 50
0.0
 71
     0
 42
21.0
  3
txt.shx
  4
extfont.shx
  0
STYLE
  2
KANJI16
 70
     0
 40
22.8
 41
0.9
 50
0.0
 71
     0
 42
22.8
  3
txt.shx
  4
extfont.shx
  0
STYLE
  2
KANJI17
 70
     0
 40
22.8
 41
0.9
 50
0.0
 71
     0
 42
22.8
  3
txt.shx
  4
extfont.shx
  0
STYLE
  2
KANJI18
 70
     0
 40
27.0
 41
0.9
 50
0.0
 71
     0
 42
27.0
  3
txt.shx
  4
extfont.shx
  0
STYLE
  2
KANJI19
 70
     0
 40
22.8
 41
0.9
 50
0.0
 71
     0
 42
22.8
  3
txt.shx
  4
extfont.shx
  0
STYLE
  2
KANJI20
 70
     0
 40
22.8
 41
0.9
 50
0.0
 71
     0
 42
22.8
  3
txt.shx
  4
extfont.shx
  0
STYLE
  2
KANJI21
 70
     0
 40
22.8
 41
0.9
 50
0.0
 71
     0
 42
22.8
  3
txt.shx
  4
extfont.shx
  0
STYLE
  2
KANJI22
 70
     0
 40
22.8
 41
0.9
 50
0.0
 71
     0
 42
22.8
  3
txt.shx
  4
extfont.shx
  0
STYLE
  2
KANJI23
 70
     0
 40
22.8
 41
0.9
 50
0.0
 71
     0
 42
22.8
  3
txt.shx
  4
extfont.shx
  0
STYLE
  2
KANJI24
 70
     0
 40
22.8
 41
0.9
 50
0.0
 71
     0
 42
22.8
  3
txt.shx
  4
extfont.shx
  0
STYLE
  2
KANJI25
 70
     4
 40
21.0
 41
0.9
 50
0.0
 71
     0
 42
21.0
  3
txt.shx
  4
extfont.shx
  0
STYLE
  2
KANJI26
 70
     4
 40
21.0
 41
0.9
 50
0.0
 71
     0
 42
21.0
  3
txt.shx
  4
extfont.shx
  0
STYLE
  2
KANJI27
 70
     0
 40
21.0
 41
0.9
 50
0.0
 71
     0
 42
21.0
  3
txt.shx
  4
extfont.shx
  0
STYLE
  2
KANJI28
 70
     0
 40
18.0
 41
0.9
 50
0.0
 71
     0
 42
18.0
  3
txt.shx
  4
extfont.shx
  0
STYLE
  2
KANJI29
 70
     0
 40
22.8
 41
0.9
 50
0.0
 71
     0
 42
22.8
  3
txt.shx
  4
extfont.shx
  0
STYLE
  2
KANJI30
 70
     0
 40
22.8
 41
0.9
 50
0.0
 71
     0
 42
22.8
  3
txt.shx
  4
extfont.shx
  0
STYLE
  2
KANJI31
 70
     0
 40
21.0
 41
0.628571429
 50
0.0
 71
     0
 42
21.0
  3
txt.shx
  4
extfont.shx
  0
STYLE
  2
KANJI32
 70
     0
 40
20.4
 41
0.705882353
 50
0.0
 71
     0
 42
20.4
  3
txt.shx
  4
extfont.shx
  0
STYLE
  2
KANJI33
 70
     0
 40
18.0
 41
0.8
 50
0.0
 71
     0
 42
18.0
  3
txt.shx
  4
extfont.shx
  0
STYLE
  2
KANJI34
 70
     0
 40
19.2
 41
0.71875
 50
0.0
 71
     0
 42
19.2
  3
txt.shx
  4
extfont.shx
  0
STYLE
  2
KANJI35
 70
     0
 40
19.2
 41
0.8
 50
0.0
 71
     0
 42
19.2
  3
txt.shx
  4
extfont.shx
  0
STYLE
  2
KANJI36
 70
     0
 40
21.0
 41
0.571428571
 50
0.0
 71
     0
 42
21.0
  3
txt.shx
  4
extfont.shx
  0
STYLE
  2
KANJI37
 70
     0
 40
27.0
 41
0.666666667
 50
0.0
 71
     0
 42
27.0
  3
txt.shx
  4
extfont.shx
  0
STYLE
  2
KANJI38
 70
     0
 40
18.0
 41
0.933333333
 50
0.0
 71
     0
 42
18.0
  3
txt.shx
  4
extfont.shx
  0
STYLE
  2
KANJI39
 70
     0
 40
18.0
 41
0.9
 50
0.0
 71
     0
 42
18.0
  3
txt.shx
  4
extfont.shx
  0
STYLE
  2
KANJI40
 70
     0
 40
21.0
 41
0.857142857
 50
0.0
 71
     0
 42
21.0
  3
txt.shx
  4
extfont.shx
  0
STYLE
  2
KANJI41
 70
     0
 40
18.0
 41
0.9
 50
0.0
 71
     0
 42
18.0
  3
txt.shx
  4
extfont.shx
  0
STYLE
  2
KANJI42
 70
     0
 40
21.0
 41
0.9
 50
0.0
 71
     0
 42
21.0
  3
txt.shx
  4
extfont.shx
  0
STYLE
  2
KANJI43
 70
     0
 40
18.0
 41
0.833333333
 50
0.0
 71
     0
 42
18.0
  3
txt.shx
  4
extfont.shx
  0
STYLE
  2
KANJI44
 70
     0
 40
14.99994
 41
0.9
 50
0.0
 71
     0
 42
14.99994
  3
txt.shx
  4
extfont.shx
  0
STYLE
  2
KANJI45
 70
     0
 40
18.0
 41
0.9
 50
0.0
 71
     0
 42
18.0
  3
txt.shx
  4
extfont.shx
  0
STYLE
  2
KANJI46
 70
     0
 40
27.0
 41
0.666666667
 50
0.0
 71
     0
 42
27.0
  3
txt.shx
  4
extfont.shx
  0
STYLE
  2
KANJI47
 70
     0
 40
17.5
 41
0.914285714
 50
0.0
 71
     0
 42
17.5
  3
txt.shx
  4
extfont.shx
  0
STYLE
  2
KANJI48
 70
     0
 40
18.0
 41
0.833333333
 50
0.0
 71
     0
 42
18.0
  3
txt.shx
  4
extfont.shx
  0
STYLE
  2
KANJI49
 70
     0
 40
18.0
 41
0.833333333
 50
0.0
 71
     0
 42
18.0
  3
txt.shx
  4
extfont.shx
  0
STYLE
  2
KANJI50
 70
     0
 40
21.0
 41
0.793650794
 50
0.0
 71
     0
 42
21.0
  3
txt.shx
  4
extfont.shx
  0
STYLE
  2
KANJI51
 70
     0
 40
30.0
 41
0.8
 50
0.0
 71
     0
 42
30.0
  3
txt.shx
  4
extfont.shx
  0
STYLE
  2
KANJI52
 70
     0
 40
17.031074144
 41
0.880962996
 50
0.0
 71
     0
 42
17.031074144
  3
txt.shx
  4
extfont.shx
  0
STYLE
  2
KANJI53
 70
     0
 40
11.232
 41
0.8
 50
0.0
 71
     0
 42
11.232
  3
txt.shx
  4
extfont.shx
  0
STYLE
  2
KANJI54
 70
     0
 40
14.37696
 41
0.9125
 50
0.0
 71
     0
 42
14.37696
  3
txt.shx
  4
extfont.shx
  0
STYLE
  2
KANJI55
 70
     0
 40
14.4
 41
0.911
 50
0.0
 71
     0
 42
14.4
  3
txt.shx
  4
extfont.shx
  0
STYLE
  2
KANJI56
 70
     0
 40
13.9932
 41
0.943315325
 50
0.0
 71
     0
 42
13.9932
  3
txt.shx
  4
extfont.shx
  0
STYLE
  2
KANJI57
 70
     0
 40
18.98208
 41
0.85
 50
0.0
 71
     0
 42
18.98208
  3
txt.shx
  4
extfont.shx
  0
STYLE
  2
KANJI58
 70
     4
 40
104.40144
 41
0.334045455
 50
0.0
 71
     0
 42
104.40144
  3
txt.shx
  4
extfont.shx
  0
STYLE
  2
KANJI59
 70
     0
 40
16.8
 41
0.714285714
 50
0.0
 71
     0
 42
16.8
  3
txt.shx
  4
extfont.shx
  0
STYLE
  2
KANJI60
 70
     4
 40
72.0
 41
0.484166667
 50
0.0
 71
     0
 42
72.0
  3
txt.shx
  4
extfont.shx
  0
STYLE
  2
KANJI61
 70
     0
 40
15.0
 41
0.9
 50
0.0
 71
     0
 42
15.0
  3
txt.shx
  4
extfont.shx
  0
STYLE
  2
KANJI62
 70
     0
 40
20.0
 41
0.925
 50
0.0
 71
     0
 42
20.0
  3
txt.shx
  4
extfont.shx
  0
STYLE
  2
KANJI63
 70
     0
 40
15.36
 41
0.9
 50
0.0
 71
     0
 42
15.36
  3
txt.shx
  4
extfont.shx
  0
STYLE
  2
KANJI64
 70
     0
 40
14.4
 41
0.9
 50
0.0
 71
     0
 42
14.4
  3
txt.shx
  4
extfont.shx
  0
STYLE
  2
KANJI65
 70
     0
 40
14.4
 41
0.9
 50
0.0
 71
     0
 42
14.4
  3
txt.shx
  4
extfont.shx
  0
STYLE
  2
KANJI66
 70
     0
 40
16.8
 41
0.9
 50
0.0
 71
     0
 42
16.8
  3
txt.shx
  4
extfont.shx
  0
STYLE
  2
KANJI67
 70
     0
 40
12.96
 41
0.740740741
 50
0.0
 71
     0
 42
12.96
  3
txt.shx
  4
extfont.shx
  0
STYLE
  2
KANJI68
 70
     0
 40
16.8
 41
0.857142857
 50
0.0
 71
     0
 42
16.8
  3
txt.shx
  4
extfont.shx
  0
STYLE
  2
KANJI69
 70
     0
 40
17.49993
 41
0.9
 50
0.0
 71
     0
 42
17.49993
  3
txt.shx
  4
extfont.shx
  0
STYLE
  2
KANJI70
 70
     0
 40
14.4
 41
0.833333333
 50
0.0
 71
     0
 42
14.4
  3
txt.shx
  4
extfont.shx
  0
STYLE
  2
KANJI71
 70
     0
 40
16.8
 41
0.964285714
 50
0.0
 71
     0
 42
16.8
  3
txt.shx
  4
extfont.shx
  0
STYLE
  2
KANJI72
 70
     0
 40
16.8
 41
0.821428571
 50
0.0
 71
     0
 42
16.8
  3
txt.shx
  4
extfont.shx
  0
STYLE
  2
KANJI73
 70
     0
 40
21.0
 41
0.857222222
 50
0.0
 71
     0
 42
21.0
  3
txt.shx
  4
extfont.shx
  0
STYLE
  2
KANJI74
 70
     0
 40
21.0
 41
0.857142857
 50
0.0
 71
     0
 42
21.0
  3
txt.shx
  4
extfont.shx
  0
STYLE
  2
KANJI75
 70
     0
 40
24.0
 41
0.9
 50
0.0
 71
     0
 42
24.0
  3
txt.shx
  4
extfont.shx
  0
STYLE
  2
KANJI76
 70
     0
 40
18.223173404
 41
0.66671875
 50
0.0
 71
     0
 42
18.223173404
  3
txt.shx
  4
extfont.shx
  0
STYLE
  2
KANJI77
 70
     0
 40
21.6
 41
0.9
 50
0.0
 71
     0
 42
21.6
  3
txt.shx
  4
extfont.shx
  0
STYLE
  2
KANJI78
 70
     0
 40
12.96
 41
0.9
 50
0.0
 71
     0
 42
12.96
  3
txt.shx
  4
extfont.shx
  0
STYLE
  2
KANJI79
 70
     0
 40
17.28
 41
0.9
 50
0.0
 71
     0
 42
17.28
  3
txt.shx
  4
extfont.shx
  0
STYLE
  2
KANJI80
 70
     0
 40
18.72
 41
0.925
 50
0.0
 71
     0
 42
18.72
  3
txt.shx
  4
extfont.shx
  0
STYLE
  2
KANJI81
 70
     0
 40
15.0
 41
0.9
 50
0.0
 71
     0
 42
15.0
  3
txt.shx
  4
extfont.shx
  0
STYLE
  2
KANJI82
 70
     0
 40
20.0
 41
0.925
 50
0.0
 71
     0
 42
20.0
  3
txt.shx
  4
extfont.shx
  0
STYLE
  2
KANJI83
 70
     0
 40
24.0
 41
0.875
 50
0.0
 71
     0
 42
24.0
  3
txt.shx
  4
extfont.shx
  0
STYLE
  2
KANJI84
 70
     0
 40
18.0
 41
0.9
 50
0.0
 71
     0
 42
18.0
  3
txt.shx
  4
extfont.shx
  0
STYLE
  2
KANJI85
 70
     0
 40
21.0
 41
0.571428571
 50
0.0
 71
     0
 42
21.0
  3
txt.shx
  4
extfont.shx
  0
ENDTAB
  0
TABLE
  2
VIEW
 70
     0
  0
ENDTAB
  0
ENDSEC
  0
SECTION
  2
BLOCKS
  0
ENDSEC
  0
SECTION
  2
ENTITIES
  0
POLYLINE
  8
0
  6
CONTINUOUS
 62
     6
 66
     1
  0
VERTEX
  8
0
  6
CONTINUOUS
 62
     6
 10
82.92
 20
71.7
 30
0.0
  0
VERTEX
  8
0
  6
CONTINUOUS
 62
     6
 10
82.92
 20
1685.7
 30
0.0
  0
VERTEX
  8
0
  6
CONTINUOUS
 62
     6
 10
2404.92
 20
1685.7
 30
0.0
  0
SEQEND
  0
LINE
  8
0
  6
CONTINUOUS
 62
     6
 10
88.919998738
 20
161.699981077
 30
0.0
 11
478.919916738
 21
161.699981077
 31
0.0
  0
LINE
  8
0
  6
CONTINUOUS
 62
     6
 10
88.919998738
 20
77.699998738
 30
0.0
 11
478.919916738
 21
77.699998738
 31
0.0
  0
LINE
  8
0
  6
CONTINUOUS
 62
     6
 10
88.919998738
 20
77.699998738
 30
0.0
 11
88.919998738
 21
161.699981077
 31
0.0
  0
LINE
  8
0
  6
CONTINUOUS
 62
     6
 10
88.919998738
 20
119.699989908
 30
0.0
 11
478.919916738
 21
119.699989908
 31
0.0
  0
LINE
  8
0
  6
CONTINUOUS
 62
     4
 10
14.6199996
 20
76.8999996
 30
0.0
 11
77.0199948
 21
76.8999996
 31
0.0
  0
LINE
  8
0
  6
CONTINUOUS
 62
     4
 10
14.6199996
 20
108.0999972
 30
0.0
 11
77.0199948
 21
108.0999972
 31
0.0
  0
LINE
  8
0
  6
CONTINUOUS
 62
     4
 10
14.6199996
 20
139.2999948
 30
0.0
 11
77.0199948
 21
139.2999948
 31
0.0
  0
LINE
  8
0
  6
CONTINUOUS
 62
     4
 10
14.6199996
 20
170.4999924
 30
0.0
 11
77.0199948
 21
170.4999924
 31
0.0
  0
LINE
  8
0
  6
CONTINUOUS
 62
     4
 10
14.6199996
 20
201.69999
 30
0.0
 11
77.0199948
 21
201.69999
 31
0.0
  0
LINE
  8
0
  6
CONTINUOUS
 62
     4
 10
14.6199996
 20
232.8999876
 30
0.0
 11
77.0199948
 21
232.8999876
 31
0.0
  0
LINE
  8
0
  6
CONTINUOUS
 62
     4
 10
14.6199996
 20
264.0999852
 30
0.0
 11
77.0199948
 21
264.0999852
 31
0.0
  0
LINE
  8
0
  6
CONTINUOUS
 62
     4
 10
14.6199996
 20
295.2999828
 30
0.0
 11
77.0199948
 21
295.2999828
 31
0.0
  0
LINE
  8
0
  6
CONTINUOUS
 62
     4
 10
14.6199996
 20
326.4999804
 30
0.0
 11
77.0199948
 21
326.4999804
 31
0.0
  0
LINE
  8
0
  6
CONTINUOUS
 62
     4
 10
14.6199996
 20
357.699978
 30
0.0
 11
77.0199948
 21
357.699978
 31
0.0
  0
LINE
  8
0
  6
CONTINUOUS
 62
     4
 10
77.0199948
 20
76.8999996
 30
0.0
 11
77.0199948
 21
357.699978
 31
0.0
  0
LINE
  8
0
  6
CONTINUOUS
 62
     4
 10
45.8199972
 20
76.8999996
 30
0.0
 11
45.8199972
 21
326.4999804
 31
0.0
  0
TEXT
  8
0
  6
CONTINUOUS
 62
     4
 10
25.27999878
 20
85.9999989
 30
1.55999988
 40
15.5999988
  1
計
 50
0.0
 41
0.75
 51
0.0
  7
KANJI0
  0
TEXT
  8
0
  6
CONTINUOUS
 62
     4
 10
25.27999878
 20
148.91999406
 30
1.55999988
 40
15.5999988
  1
設
 50
0.0
 41
0.75
 51
0.0
  7
KANJI0
  0
TEXT
  8
0
  6
CONTINUOUS
 62
     4
 10
25.27999878
 20
179.5999917
 30
1.55999988
 40
15.5999988
  1
管
 50
0.0
 41
0.75
 51
0.0
  7
KANJI0
  0
TEXT
  8
0
  6
CONTINUOUS
 62
     4
 10
25.27999878
 20
210.7999893
 30
1.55999988
 40
15.5999988
  1
製
 50
0.0
 41
0.75
 51
0.0
  7
KANJI0
  0
TEXT
  8
0
  6
CONTINUOUS
 62
     4
 10
25.27999878
 20
241.9999869
 30
1.55999988
 40
15.5999988
  1
資
 50
0.0
 41
0.75
 51
0.0
  7
KANJI0
  0
TEXT
  8
0
  6
CONTINUOUS
 62
     4
 10
25.27999878
 20
273.1999845
 30
1.55999988
 40
15.5999988
  1
営
 50
0.0
 41
0.75
 51
0.0
  7
KANJI0
  0
TEXT
  8
0
  6
CONTINUOUS
 62
     4
 10
25.27999878
 20
304.3999821
 30
1.55999988
 40
15.5999988
  1
客
 50
0.0
 41
0.75
 51
0.0
  7
KANJI0
  0
TEXT
  8
0
  6
CONTINUOUS
 62
     4
 10
25.0199988
 20
336.8999796
 30
1.55999988
 40
15.5999988
  1
出　図
 50
0.0
 41
0.75
 51
0.0
  7
KANJI0
  0
LINE
  8
0
  6
CONTINUOUS
 62
     4
 10
14.6199996
 20
76.8999996
 30
0.0
 11
14.6199996
 21
357.699978
 31
0.0
  0
LINE
  8
0
  6
CONTINUOUS
 62
     6
 10
2404.92
 20
71.7
 30
0.0
 11
82.92
 21
71.7
 31
0.0
  0
TEXT
  8
0
  6
CONTINUOUS
 62
     4
 10
100.919996215
 20
101.699993692
 30
1.199999748
 40
11.999997477
  1
ＰＡＲＴＳ　ＬＩＳＴ
 50
0.0
 41
0.6
 51
0.0
  7
KANJI1
  0
TEXT
  8
0
  6
CONTINUOUS
 62
     4
 10
100.919996215
 20
83.699997477
 30
1.439999697
 40
14.399996972
  1
部品表
 50
0.0
 41
0.9
 51
0.0
  7
KANJI2
  0
TEXT
  8
0
  6
CONTINUOUS
 62
     3
 10
100.919996215
 20
131.699987385
 30
1.799999622
 40
17.999996215
  1
ＰＬ
 50
0.0
 41
0.9
 51
0.0
  7
KANJI3
  0
TEXT
  8
0
  6
CONTINUOUS
 62
     4
 10
370.919939446
 20
101.699993692
 30
1.199999748
 40
11.999997477
  1
Ｎ０．
 50
0.0
 41
0.6
 51
0.0
  7
KANJI1
  0
TEXT
  8
0
  6
CONTINUOUS
 62
     4
 10
370.919939446
 20
83.699997477
 30
1.439999697
 40
14.399996972
  1
項番
 50
0.0
 41
0.9
 51
0.0
  7
KANJI2
  0
LINE
  8
0
  6
CONTINUOUS
 62
     6
 10
478.919916738
 20
77.699998738
 30
0.0
 11
478.919916738
 21
161.699981077
 31
0.0
  0
LINE
  8
0
  6
CONTINUOUS
 62
     6
 10
358.919941969
 20
77.699998738
 30
0.0
 11
358.919941969
 21
161.699981077
 31
0.0
  0
LINE
  8
0
  6
CONTINUOUS
 62
     6
 10
2404.92
 20
1685.7
 30
0.0
 11
2404.92
 21
71.7
 31
0.0
  0
LINE
  8
0
  6
CONTINUOUS
 62
     6
 10
1598.920062
 20
76.8999996
 30
0.0
 11
1598.920062
 21
409.699974
 31
0.0
  0
LINE
  8
0
  6
CONTINUOUS
 62
     6
 10
2399.7200004
 20
76.8999996
 30
0.0
 11
2399.7200004
 21
409.699974
 31
0.0
  0
LINE
  8
0
  6
CONTINUOUS
 62
     4
 10
1788.7200474
 20
76.8999996
 30
0.0
 11
1788.7200474
 21
409.699974
 31
0.0
  0
LINE
  8
0
  6
CONTINUOUS
 62
     4
 10
1598.920062
 20
118.4999964
 30
0.0
 11
1788.7200474
 21
118.4999964
 31
0.0
  0
TEXT
  8
0
  6
CONTINUOUS
 62
     4
 10
1609.3200612
 20
100.2999978
 30
1.03999992
 40
10.3999992
  1
ＳＣＡＬＥ
 50
0.0
 41
0.6
 51
0.0
  7
KANJI4
  0
TEXT
  8
0
  6
CONTINUOUS
 62
     4
 10
1609.3200612
 20
84.699999
 30
1.247999904
 40
12.47999904
  1
尺度
 50
0.0
 41
0.6
 51
0.0
  7
KANJI5
  0
LINE
  8
0
  6
CONTINUOUS
 62
     6
 10
1188.1200936
 20
118.4999964
 30
0.0
 11
1598.920062
 21
118.4999964
 31
0.0
  0
LINE
  8
0
  6
CONTINUOUS
 62
     6
 10
1188.1200936
 20
76.8999996
 30
0.0
 11
2399.7200004
 21
76.8999996
 31
0.0
  0
TEXT
  8
0
  6
CONTINUOUS
 62
     6
 10
1793.920047
 20
100.2999978
 30
0.0
 40
18.1999986
  1
ＵＮＩＴＥＣ　ＩＮＤＵＳＴＲＹ　ＣＯ．，ＬＴＤ．
 50
0.0
 41
0.42031746
 51
0.0
  7
KANJI6
  0
TEXT
  8
0
  6
CONTINUOUS
 62
     6
 10
2049.175027365
 20
93.53999832
 30
3.11999976
 40
31.1999976
  1
ユニテック工業株式会社
 50
0.0
 41
0.9
 51
0.0
  7
KANJI7
  0
LINE
  8
0
  6
CONTINUOUS
 62
     6
 10
2007.575030565
 20
104.45999748
 30
0.0
 11
1993.847031621
 21
104.45999748
 31
0.0
  0
LINE
  8
0
  6
CONTINUOUS
 62
     6
 10
2007.575030565
 20
106.955997288
 30
0.0
 11
1993.847031621
 21
106.955997288
 31
0.0
  0
LINE
  8
0
  6
CONTINUOUS
 62
     6
 10
2007.575030565
 20
104.45999748
 30
0.0
 11
2021.303029509
 21
104.45999748
 31
0.0
  0
LINE
  8
0
  6
CONTINUOUS
 62
     6
 10
2007.575030565
 20
106.955997288
 30
0.0
 11
2021.303029509
 21
106.955997288
 31
0.0
  0
LINE
  8
0
  6
CONTINUOUS
 62
     6
 10
2021.303029509
 20
106.955997288
 30
0.0
 11
2021.303029509
 21
104.45999748
 31
0.0
  0
ARC
  8
0
  6
CONTINUOUS
 62
     6
 10
2024.423029269
 20
105.707997384
 30
0.0
 40
12.47999904
 50
185.739170477
 51
90.0
  0
ARC
  8
0
  6
CONTINUOUS
 62
     6
 10
2024.423029269
 20
105.707997384
 30
0.0
 40
14.975998848
 50
184.780191847
 51
90.0
  0
LINE
  8
0
  6
CONTINUOUS
 62
     6
 10
1993.847031621
 20
104.45999748
 30
0.0
 11
1993.847031621
 21
106.955997288
 31
0.0
  0
ARC
  8
0
  6
CONTINUOUS
 62
     6
 10
1990.727031861
 20
105.707997384
 30
0.0
 40
12.47999904
 50
90.0
 51
354.260829523
  0
ARC
  8
0
  6
CONTINUOUS
 62
     6
 10
1990.727031861
 20
105.707997384
 30
0.0
 40
14.975998848
 50
90.0
 51
355.219808153
  0
LINE
  8
0
  6
CONTINUOUS
 62
     6
 10
2005.703030709
 20
120.683996232
 30
0.0
 11
2005.703030709
 21
118.187996424
 31
0.0
  0
LINE
  8
0
  6
CONTINUOUS
 62
     6
 10
1990.727031861
 20
118.187996424
 30
0.0
 11
2005.703030709
 21
118.187996424
 31
0.0
  0
LINE
  8
0
  6
CONTINUOUS
 62
     6
 10
2009.447030421
 20
120.683996232
 30
0.0
 11
2009.447030421
 21
118.187996424
 31
0.0
  0
LINE
  8
0
  6
CONTINUOUS
 62
     6
 10
2024.423029269
 20
118.187996424
 30
0.0
 11
2009.447030421
 21
118.187996424
 31
0.0
  0
TEXT
  8
0
  6
CONTINUOUS
 62
     4
 10
1320.7200834
 20
100.2999978
 30
1.03999992
 40
10.3999992
  1
ＢＹ
 50
0.0
 41
0.6
 51
0.0
  7
KANJI4
  0
TEXT
  8
0
  6
CONTINUOUS
 62
     4
 10
1435.1200746
 20
100.2999978
 30
1.03999992
 40
10.3999992
  1
ＤＥＳＣＲＩＰＴＩＯＮ
 50
0.0
 41
0.6
 51
0.0
  7
KANJI4
  0
TEXT
  8
0
  6
CONTINUOUS
 62
     4
 10
1320.7200834
 20
84.699999
 30
1.247999904
 40
12.47999904
  1
担当
 50
0.0
 41
0.6
 51
0.0
  7
KANJI5
  0
TEXT
  8
0
  6
CONTINUOUS
 62
     4
 10
1450.7200734
 20
84.699999
 30
1.247999904
 40
12.47999904
  1
記　　　　事
 50
0.0
 41
0.6
 51
0.0
  7
KANJI5
  0
LINE
  8
0
  6
CONTINUOUS
 62
     4
 10
1210.2200919
 20
110.699997
 30
0.0
 11
1193.3200932
 21
84.699999
 31
0.0
  0
TEXT
  8
0
  6
CONTINUOUS
 62
     4
 10
1253.1200886
 20
100.2999978
 30
1.03999992
 40
10.3999992
  1
ＤＡＴＥ
 50
0.0
 41
0.6
 51
0.0
  7
KANJI4
  0
TEXT
  8
0
  6
CONTINUOUS
 62
     4
 10
1260.920088
 20
84.699999
 30
1.247999904
 40
12.47999904
  1
日付
 50
0.0
 41
0.6
 51
0.0
  7
KANJI5
  0
LINE
  8
0
  6
CONTINUOUS
 62
     4
 10
1193.3200932
 20
84.699999
 30
0.0
 11
1227.1200906
 21
84.699999
 31
0.0
  0
LINE
  8
0
  6
CONTINUOUS
 62
     4
 10
1210.2200919
 20
110.699997
 30
0.0
 11
1227.1200906
 21
84.699999
 31
0.0
  0
LINE
  8
0
  6
CONTINUOUS
 62
     6
 10
1188.1200936
 20
76.8999996
 30
0.0
 11
1188.1200936
 21
118.4999964
 31
0.0
  0
LINE
  8
0
  6
CONTINUOUS
 62
     4
 10
1232.3200902
 20
76.8999996
 30
0.0
 11
1232.3200902
 21
118.4999964
 31
0.0
  0
LINE
  8
0
  6
CONTINUOUS
 62
     4
 10
1305.1200846
 20
76.8999996
 30
0.0
 11
1305.1200846
 21
118.4999964
 31
0.0
  0
LINE
  8
0
  6
CONTINUOUS
 62
     4
 10
1351.920081
 20
76.8999996
 30
0.0
 11
1351.920081
 21
118.4999964
 31
0.0
  0
TEXT
  8
0
  6
CONTINUOUS
 62
     4
 10
1609.3200612
 20
308.2999818
 30
1.03999992
 40
10.3999992
  1
ＣＯＤＥ
 50
0.0
 41
0.6
 51
0.0
  7
KANJI4
  0
LINE
  8
0
  6
CONTINUOUS
 62
     4
 10
1598.920062
 20
326.4999804
 30
0.0
 11
2399.7200004
 21
326.4999804
 31
0.0
  0
TEXT
  8
0
  6
CONTINUOUS
 62
     4
 10
1609.3200612
 20
292.699983
 30
1.247999904
 40
12.47999904
  1
分類
 50
0.0
 41
0.6
 51
0.0
  7
KANJI5
  0
TEXT
  8
0
  6
CONTINUOUS
 62
     4
 10
1617.42
 20
332.7
 30
6.0
 40
21.6
  1
ご注文主
 50
0.0
 41
1.111111111
 51
0.0
  7
KANJI8
  0
TEXT
  8
0
  6
CONTINUOUS
 62
     4
 10
1609.3200612
 20
183.4999914
 30
1.03999992
 40
10.3999992
  1
ＤＲＡＷＮ
 50
0.0
 41
0.6
 51
0.0
  7
KANJI4
  0
TEXT
  8
0
  6
CONTINUOUS
 62
     4
 10
1609.3200612
 20
225.0999882
 30
1.03999992
 40
10.3999992
  1
ＤＥＳＩＧＮ
 50
0.0
 41
0.6
 51
0.0
  7
KANJI4
  0
TEXT
  8
0
  6
CONTINUOUS
 62
     4
 10
1609.3200612
 20
266.699985
 30
1.03999992
 40
10.3999992
  1
ＣＨＥＣＫ
 50
0.0
 41
0.6
 51
0.0
  7
KANJI4
  0
LINE
  8
0
  6
CONTINUOUS
 62
     4
 10
1598.920062
 20
243.2999868
 30
0.0
 11
1788.7200474
 21
243.2999868
 31
0.0
  0
LINE
  8
0
  6
CONTINUOUS
 62
     4
 10
1598.920062
 20
201.69999
 30
0.0
 11
1788.7200474
 21
201.69999
 31
0.0
  0
LINE
  8
0
  6
CONTINUOUS
 62
     4
 10
1598.920062
 20
284.8999836
 30
0.0
 11
1788.7200474
 21
284.8999836
 31
0.0
  0
TEXT
  8
0
  6
CONTINUOUS
 62
     4
 10
1609.3200612
 20
209.4999894
 30
1.247999904
 40
12.47999904
  1
設計
 50
0.0
 41
0.6
 51
0.0
  7
KANJI5
  0
TEXT
  8
0
  6
CONTINUOUS
 62
     4
 10
1609.3200612
 20
251.0999862
 30
1.247999904
 40
12.47999904
  1
検図
 50
0.0
 41
0.6
 51
0.0
  7
KANJI5
  0
LINE
  8
0
  6
CONTINUOUS
 62
     4
 10
1804.06004622
 20
284.8999836
 30
0.0
 11
2399.7200004
 21
284.8999836
 31
0.0
  0
LINE
  8
0
  6
CONTINUOUS
 62
     4
 10
1788.7200474
 20
201.69999
 30
0.0
 11
2399.7200004
 21
201.69999
 31
0.0
  0
TEXT
  8
0
  6
CONTINUOUS
 62
     4
 10
1799.1200466
 20
183.4999914
 30
1.03999992
 40
10.3999992
  1
ＤＲＡＷＩＮＧ　ＮＯ．
 50
0.0
 41
0.8
 51
0.0
  7
KANJI9
  0
TEXT
  8
0
  6
CONTINUOUS
 62
     4
 10
1799.1200466
 20
225.0999882
 30
1.03999992
 40
10.3999992
  1
ＭＦＧ　ＮＯ．
 50
0.0
 41
0.8
 51
0.0
  7
KANJI9
  0
TEXT
  8
0
  6
CONTINUOUS
 62
     4
 10
1799.1200466
 20
266.699985
 30
1.03999992
 40
10.3999992
  1
ＴＹＰＥ
 50
0.0
 41
0.8
 51
0.0
  7
KANJI9
  0
LINE
  8
0
  6
CONTINUOUS
 62
     4
 10
1804.3200462
 20
243.2999868
 30
0.0
 11
2043.5200278
 21
243.2999868
 31
0.0
  0
TEXT
  8
0
  6
CONTINUOUS
 62
     4
 10
1799.1200466
 20
165.2999928
 30
1.247999904
 40
12.47999904
  1
図　面　番　号
 50
0.0
 41
0.8
 51
0.0
  7
KANJI10
  0
TEXT
  8
0
  6
CONTINUOUS
 62
     4
 10
1799.1200466
 20
206.8999896
 30
1.247999904
 40
12.47999904
  1
製番
 50
0.0
 41
0.8
 51
0.0
  7
KANJI10
  0
TEXT
  8
0
  6
CONTINUOUS
 62
     4
 10
1799.1200466
 20
248.4999864
 30
1.247999904
 40
12.47999904
  1
機種
 50
0.0
 41
0.8
 51
0.0
  7
KANJI10
  0
LINE
  8
0
  6
CONTINUOUS
 62
     4
 10
1598.920062
 20
160.0999932
 30
0.0
 11
1788.7200474
 21
160.0999932
 31
0.0
  0
TEXT
  8
0
  6
CONTINUOUS
 62
     4
 10
1609.3200612
 20
141.8999946
 30
1.03999992
 40
10.3999992
  1
ＤＡＴＥ
 50
0.0
 41
0.6
 51
0.0
  7
KANJI4
  0
TEXT
  8
0
  6
CONTINUOUS
 62
     4
 10
1609.3200612
 20
126.2999958
 30
1.247999904
 40
12.47999904
  1
日付
 50
0.0
 41
0.6
 51
0.0
  7
KANJI5
  0
TEXT
  8
0
  6
CONTINUOUS
 62
     4
 10
1609.3200612
 20
167.8999926
 30
1.247999904
 40
12.47999904
  1
作図
 50
0.0
 41
0.6
 51
0.0
  7
KANJI5
  0
LINE
  8
0
  6
CONTINUOUS
 62
     4
 10
1788.7200474
 20
141.8999946
 30
0.0
 11
2399.7200004
 21
141.8999946
 31
0.0
  0
LINE
  8
0
  6
LTYPE1
 62
     4
 10
2225.5200138
 20
149.699994
 30
0.0
 11
2225.5200138
 21
191.2999908
 31
0.0
  0
LINE
  8
0
  6
LTYPE1
 62
     4
 10
2189.1200166
 20
149.699994
 30
0.0
 11
2189.1200166
 21
191.2999908
 31
0.0
  0
LINE
  8
0
  6
LTYPE1
 62
     4
 10
2152.7200194
 20
149.699994
 30
0.0
 11
2152.7200194
 21
191.2999908
 31
0.0
  0
LINE
  8
0
  6
LTYPE1
 62
     4
 10
2116.3200222
 20
149.699994
 30
0.0
 11
2116.3200222
 21
191.2999908
 31
0.0
  0
LINE
  8
0
  6
LTYPE1
 62
     4
 10
2079.920025
 20
149.699994
 30
0.0
 11
2079.920025
 21
191.2999908
 31
0.0
  0
LINE
  8
0
  6
LTYPE1
 62
     4
 10
2043.5200278
 20
149.699994
 30
0.0
 11
2043.5200278
 21
191.2999908
 31
0.0
  0
LINE
  8
0
  6
LTYPE1
 62
     4
 10
2007.1200306
 20
149.699994
 30
0.0
 11
2007.1200306
 21
191.2999908
 31
0.0
  0
LINE
  8
0
  6
LTYPE1
 62
     4
 10
1970.7200334
 20
149.699994
 30
0.0
 11
1970.7200334
 21
191.2999908
 31
0.0
  0
LINE
  8
0
  6
LTYPE1
 62
     4
 10
1970.7200334
 20
191.2999908
 30
0.0
 11
2225.5200138
 21
191.2999908
 31
0.0
  0
LINE
  8
0
  6
LTYPE1
 62
     4
 10
1970.7200334
 20
149.699994
 30
0.0
 11
2225.5200138
 21
149.699994
 31
0.0
  0
LINE
  8
0
  6
CONTINUOUS
 62
     4
 10
2246.3200122
 20
171.7999923
 30
0.0
 11
2256.7200114
 21
171.7999923
 31
0.0
  0
LINE
  8
0
  6
CONTINUOUS
 62
     4
 10
2311.3200072
 20
156.1999935
 30
0.0
 11
2274.92001
 21
156.1999935
 31
0.0
  0
LINE
  8
0
  6
CONTINUOUS
 62
     4
 10
2274.92001
 20
156.1999935
 30
0.0
 11
2293.1200086
 21
187.3999911
 31
0.0
  0
LINE
  8
0
  6
CONTINUOUS
 62
     4
 10
2293.1200086
 20
187.3999911
 30
0.0
 11
2311.3200072
 21
156.1999935
 31
0.0
  0
TEXT
  8
0
  6
CONTINUOUS
 62
     4
 10
2059.1200266
 20
266.699985
 30
1.03999992
 40
10.3999992
  1
ＴＩＴＬＥ
 50
0.0
 41
0.8
 51
0.0
  7
KANJI9
  0
TEXT
  8
0
  6
CONTINUOUS
 62
     4
 10
2059.1200266
 20
248.4999864
 30
1.247999904
 40
12.47999904
  1
名称
 50
0.0
 41
0.8
 51
0.0
  7
KANJI10
  0
TEXT
  8
0
  6
CONTINUOUS
 62
     2
 10
2143.92
 20
209.7
 30
15.0
 40
30.0
  1
外形寸法図
 50
0.0
 41
1.0
 51
0.0
  7
KANJI11
  0
TEXT
  8
0
  6
CONTINUOUS
 62
     2
 10
2107.92
 20
245.7
 30
4.285714286
 40
30.0
  1
マイティシリンダ
 50
0.0
 41
1.0
 51
0.0
  7
KANJI12
  0
TEXT
  8
0
  6
CONTINUOUS
 62
     2
 10
1939.2200334
 20
155.699994
 30
1.8
 40
30.0
  1
Ａ
 50
0.0
 41
0.8
 51
0.0
  7
KANJI13
  0
CIRCLE
  8
0
  6
CONTINUOUS
 62
     2
 10
1900.2200334
 20
220.199994
 30
0.0
 40
15.0
  0
TEXT
  8
0
  6
CONTINUOUS
 62
     2
 10
1888.9700334
 20
208.949994
 30
1.8
 40
24.0
  1
Ｓ
 50
0.0
 41
1.0
 51
0.0
  7
KANJI14
  0
LINE
  8
0
  6
CONTINUOUS
 62
     6
 10
2005.703030709
 20
120.683996232
 30
0.0
 11
1990.727031861
 21
120.683996232
 31
0.0
  0
LINE
  8
0
  6
CONTINUOUS
 62
     6
 10
2009.447030421
 20
120.683996232
 30
0.0
 11
2024.423029269
 21
120.683996232
 31
0.0
  0
TEXT
  8
0
  6
CONTINUOUS
 62
     2
 10
1665.9200334
 20
170.699994
 30
6.0
 40
21.0
  1
岡田
 50
0.0
 41
0.857142857
 51
0.0
  7
KANJI15
  0
LINE
  8
0
  6
CONTINUOUS
 62
     4
 10
2399.7200004
 20
368.0999772
 30
0.0
 11
2399.7200004
 21
409.699974
 31
0.0
  0
LINE
  8
0
  6
CONTINUOUS
 62
     6
 10
1599.670062
 20
368.0999772
 30
0.0
 11
2400.4700004
 21
368.0999772
 31
0.0
  0
LINE
  8
0
  6
CONTINUOUS
 62
     6
 10
1598.920062
 20
409.699974
 30
0.0
 11
2399.7200004
 21
409.699974
 31
0.0
  0
TEXT
  8
0
  6
CONTINUOUS
 62
     4
 10
1617.42
 20
374.2999968
 30
6.0
 40
21.6
  1
ご用途
 50
0.0
 41
1.111111111
 51
0.0
  7
KANJI8
  0
LINE
  8
0
  6
CONTINUOUS
 62
     1
 10
1873.92
 20
770.7
 30
0.0
 11
2398.92
 21
770.7
 31
0.0
  0
LINE
  8
0
  6
CONTINUOUS
 62
     2
 10
1873.92
 20
854.7
 30
0.0
 11
2398.92
 21
854.7
 31
0.0
  0
LINE
  8
0
  6
CONTINUOUS
 62
     2
 10
1873.92
 20
812.7
 30
0.0
 11
2398.92
 21
812.7
 31
0.0
  0
LINE
  8
0
  6
CONTINUOUS
 62
     2
 10
1921.92
 20
1190.7
 30
0.0
 11
1921.92
 21
854.7
 31
0.0
  0
TEXT
  8
0
  6
CONTINUOUS
 62
     2
 10
1906.92
 20
823.5
 30
79.962857143
 40
22.8
  1
付属品
 50
0.0
 41
0.9
 51
0.0
  7
KANJI16
  0
TEXT
  8
0
  6
CONTINUOUS
 62
     2
 10
1906.92
 20
781.5
 30
180.445714286
 40
22.8
  1
台数
 50
0.0
 41
0.9
 51
0.0
  7
KANJI17
  0
LINE
  8
0
  6
CONTINUOUS
 62
     1
 10
1873.92
 20
1586.7
 30
0.0
 11
1873.92
 21
770.7
 31
0.0
  0
LINE
  8
0
  6
CONTINUOUS
 62
     1
 10
1873.92
 20
1586.7
 30
0.0
 11
2398.92
 21
1586.7
 31
0.0
  0
TEXT
  8
0
  6
CONTINUOUS
 62
     2
 10
1948.92
 20
1542.9
 30
17.09964
 40
27.0
  1
マイティシリンダ仕様
 50
0.0
 41
0.9
 51
0.0
  7
KANJI18
  0
LINE
  8
0
  6
CONTINUOUS
 62
     2
 10
1921.92
 20
896.7
 30
0.0
 11
2398.92
 21
896.7
 31
0.0
  0
LINE
  8
0
  6
CONTINUOUS
 62
     2
 10
1921.92
 20
1022.7
 30
0.0
 11
2398.92
 21
1022.7
 31
0.0
  0
LINE
  8
0
  6
CONTINUOUS
 62
     2
 10
1921.92
 20
1064.7
 30
0.0
 11
2398.92
 21
1064.7
 31
0.0
  0
LINE
  8
0
  6
CONTINUOUS
 62
     2
 10
1873.92
 20
1274.7
 30
0.0
 11
2398.92
 21
1274.7
 31
0.0
  0
LINE
  8
0
  6
CONTINUOUS
 62
     2
 10
1873.92
 20
1232.7
 30
0.0
 11
2398.92
 21
1232.7
 31
0.0
  0
LINE
  8
0
  6
CONTINUOUS
 62
     2
 10
1873.92
 20
1190.7
 30
0.0
 11
2398.92
 21
1190.7
 31
0.0
  0
LINE
  8
0
  6
CONTINUOUS
 62
     2
 10
1921.92
 20
1106.7
 30
0.0
 11
2398.92
 21
1106.7
 31
0.0
  0
LINE
  8
0
  6
CONTINUOUS
 62
     2
 10
1921.92
 20
1148.7
 30
0.0
 11
2398.92
 21
1148.7
 31
0.0
  0
LINE
  8
0
  6
CONTINUOUS
 62
     2
 10
1873.92
 20
1484.7
 30
0.0
 11
2398.92
 21
1484.7
 31
0.0
  0
LINE
  8
0
  6
CONTINUOUS
 62
     2
 10
1873.92
 20
1442.7
 30
0.0
 11
2398.92
 21
1442.7
 31
0.0
  0
LINE
  8
0
  6
CONTINUOUS
 62
     2
 10
1873.92
 20
1400.7
 30
0.0
 11
2398.92
 21
1400.7
 31
0.0
  0
LINE
  8
0
  6
CONTINUOUS
 62
     2
 10
1873.92
 20
1358.7
 30
0.0
 11
2398.92
 21
1358.7
 31
0.0
  0
LINE
  8
0
  6
CONTINUOUS
 62
     2
 10
1873.92
 20
1316.7
 30
0.0
 11
2398.92
 21
1316.7
 31
0.0
  0
LINE
  8
0
  6
CONTINUOUS
 62
     2
 10
1873.92
 20
1526.7
 30
0.0
 11
2398.92
 21
1526.7
 31
0.0
  0
TEXT
  8
0
  6
CONTINUOUS
 62
     2
 10
1948.92
 20
1117.5
 30
33.439782857
 40
22.8
  1
電源電圧
 50
0.0
 41
0.9
 51
0.0
  7
KANJI19
  0
TEXT
  8
0
  6
CONTINUOUS
 62
     2
 10
1948.92
 20
1075.5
 30
60.42
 40
22.8
  1
周波数
 50
0.0
 41
0.9
 51
0.0
  7
KANJI20
  0
TEXT
  8
0
  6
CONTINUOUS
 62
     2
 10
1948.92
 20
1033.5
 30
141.36
 40
22.8
  1
電流
 50
0.0
 41
0.9
 51
0.0
  7
KANJI21
  0
TEXT
  8
0
  6
CONTINUOUS
 62
     2
 10
1948.92
 20
991.5
 30
60.42
 40
22.8
  1
絶縁級
 50
0.0
 41
0.9
 51
0.0
  7
KANJI20
  0
LINE
  8
0
  6
CONTINUOUS
 62
     2
 10
2149.92
 20
1526.7
 30
0.0
 11
2149.92
 21
770.7
 31
0.0
  0
TEXT
  8
0
  6
CONTINUOUS
 62
     2
 10
1906.92
 20
1495.5
 30
180.445714286
 40
22.8
  1
形式
 50
0.0
 41
0.9
 51
0.0
  7
KANJI17
  0
TEXT
  8
0
  6
CONTINUOUS
 62
     2
 10
1906.92
 20
1453.5
 30
180.445714286
 40
22.8
  1
推力
 50
0.0
 41
0.9
 51
0.0
  7
KANJI17
  0
TEXT
  8
0
  6
CONTINUOUS
 62
     2
 10
1906.92
 20
1411.5
 30
29.721428571
 40
22.8
  1
ストローク
 50
0.0
 41
0.9
 51
0.0
  7
KANJI22
  0
TEXT
  8
0
  6
CONTINUOUS
 62
     2
 10
1906.92
 20
1285.5
 30
180.445714286
 40
22.8
  1
構造
 50
0.0
 41
0.9
 51
0.0
  7
KANJI17
  0
TEXT
  8
0
  6
CONTINUOUS
 62
     2
 10
1906.92
 20
1243.5
 30
12.973851429
 40
22.8
  1
過負荷安全装置
 50
0.0
 41
0.9
 51
0.0
  7
KANJI23
  0
TEXT
  8
0
  6
CONTINUOUS
 62
     2
 10
1906.92
 20
1201.5
 30
79.962857143
 40
22.8
  1
塗装色
 50
0.0
 41
0.9
 51
0.0
  7
KANJI16
  0
TEXT
  8
0
  6
CONTINUOUS
 62
     2
 10
1882.92
 20
1327.5
 30
1.954285714
 40
22.8
  1
ピストンロッド回転トルク
 50
0.0
 41
0.9
 51
0.0
  7
KANJI24
  0
LINE
  8
0
  6
CONTINUOUS
 62
     2
 10
1873.92
 20
980.7
 30
0.0
 11
2398.92
 21
980.7
 31
0.0
  0
LINE
  8
0
  6
CONTINUOUS
 62
     2
 10
1921.92
 20
938.7
 30
0.0
 11
2398.92
 21
938.7
 31
0.0
  0
TEXT
  8
0
  6
CONTINUOUS
 62
     2
 10
1898.37
 20
1184.7
 30
13.2
 40
21.0
  1
モ　トル仕様
 50
0.0
 41
0.9
 51
0.0
  7
KANJI25
  0
TEXT
  8
0
  6
CONTINUOUS
 62
     2
 10
1898.37
 20
962.7
 30
1.2
 40
21.0
  1
ブレ　キ
 50
0.0
 41
0.9
 51
0.0
  7
KANJI26
  0
LINE
  8
0
  6
CONTINUOUS
 62
     2
 10
1896.72
 20
912.9
 30
0.0
 11
1896.72
 21
900.3
 31
0.0
  0
TEXT
  8
0
  6
CONTINUOUS
 62
     2
 10
2208.42
 20
1244.7
 30
9.0
 40
21.0
  1
推力リミッタ
 50
0.0
 41
0.9
 51
0.0
  7
KANJI27
  0
TEXT
  8
0
  6
CONTINUOUS
 62
     2
 10
2265.42
 20
992.7
 30
1.8
 40
18.0
  1
Ｅ
 50
0.0
 41
0.9
 51
0.0
  7
KANJI28
  0
TEXT
  8
0
  6
CONTINUOUS
 62
     2
 10
1948.92
 20
949.5
 30
141.36
 40
22.8
  1
形式
 50
0.0
 41
0.9
 51
0.0
  7
KANJI21
  0
TEXT
  8
0
  6
CONTINUOUS
 62
     2
 10
1948.92
 20
907.5
 30
33.439782857
 40
22.8
  1
操作方式
 50
0.0
 41
0.9
 51
0.0
  7
KANJI19
  0
LINE
  8
0
  6
CONTINUOUS
 62
     2
 10
1896.72
 20
1148.1
 30
0.0
 11
1896.72
 21
1134.3
 31
0.0
  0
LINE
  8
0
  6
CONTINUOUS
 62
     1
 10
2398.92
 20
1586.7
 30
0.0
 11
2398.92
 21
770.7
 31
0.0
  0
TEXT
  8
0
  6
CONTINUOUS
 62
     2
 10
1948.92
 20
1159.5
 30
3.0
 40
22.8
  1
出力　相数　極数
 50
0.0
 41
0.9
 51
0.0
  7
KANJI29
  0
TEXT
  8
0
  6
CONTINUOUS
 62
     2
 10
1906.92
 20
1369.5
 30
12.0
 40
22.8
  1
公称速度
 50
0.0
 41
0.9
 51
0.0
  7
KANJI30
  0
TEXT
  8
0
  6
CONTINUOUS
 62
     2
 10
2030.82
 20
1368.3
 30
0.0
 40
21.0
  1
（５０／６０Ｈｚ）
 50
0.0
 41
0.628571429
 51
0.0
  7
KANJI31
  0
TEXT
  8
0
  6
CONTINUOUS
 62
     2
 10
2151.42
 20
949.95
 30
3.3
 40
20.4
  1
スプリング制動式電磁ブレーキ
 50
0.0
 41
0.705882353
 51
0.0
  7
KANJI32
  0
TEXT
  8
0
  6
CONTINUOUS
 62
     2
 10
2370.42
 20
1117.5
 30
0.216
 40
18.0
  1
Ｖ
 50
0.0
 41
0.8
 51
0.0
  7
KANJI33
  0
TEXT
  8
0
  6
CONTINUOUS
 62
     2
 10
2359.62
 20
1075.5
 30
0.216
 40
18.0
  1
Ｈｚ
 50
0.0
 41
0.8
 51
0.0
  7
KANJI33
  0
TEXT
  8
0
  6
CONTINUOUS
 62
     2
 10
2370.42
 20
1033.5
 30
0.216
 40
18.0
  1
Ａ
 50
0.0
 41
0.8
 51
0.0
  7
KANJI33
  0
TEXT
  8
0
  6
CONTINUOUS
 62
     2
 10
2291.52
 20
1160.7
 30
1.8
 40
18.0
  1
３φ
 50
0.0
 41
0.9
 51
0.0
  7
KANJI28
  0
TEXT
  8
0
  6
CONTINUOUS
 62
     2
 10
2351.52
 20
1160.7
 30
1.8
 40
18.0
  1
４Ｐ
 50
0.0
 41
0.9
 51
0.0
  7
KANJI28
  0
TEXT
  8
0
  6
CONTINUOUS
 62
     2
 10
2149.92
 20
1202.7
 30
1.2
 40
19.2
  1
マンセル　７．５ＧＹ　５／４．５
 50
0.0
 41
0.71875
 51
0.0
  7
KANJI34
  0
TEXT
  8
0
  6
CONTINUOUS
 62
     2
 10
2149.92
 20
1118.7
 30
1.8
 40
18.0
  1
　　　　　　　／　　　
 50
0.0
 41
0.9
 51
0.0
  7
KANJI28
  0
TEXT
  8
0
  6
CONTINUOUS
 62
     2
 10
2149.92
 20
1076.7
 30
1.8
 40
18.0
  1
　　　　５０／　６０
 50
0.0
 41
0.9
 51
0.0
  7
KANJI28
  0
TEXT
  8
0
  6
CONTINUOUS
 62
     2
 10
2149.92
 20
1034.7
 30
1.8
 40
18.0
  1
　　　　　　　／　　　
 50
0.0
 41
0.9
 51
0.0
  7
KANJI28
  0
TEXT
  8
0
  6
CONTINUOUS
 62
     2
 10
2354.52
 20
1413.9
 30
0.1536
 40
19.2
  1
ｍｍ
 50
0.0
 41
0.8
 51
0.0
  7
KANJI35
  0
TEXT
  8
0
  6
CONTINUOUS
 62
     2
 10
2315.52
 20
1370.7
 30
0.0
 40
21.0
  1
ｍｍ／ｓｅｃ
 50
0.0
 41
0.571428571
 51
0.0
  7
KANJI36
  0
TEXT
  8
0
  6
CONTINUOUS
 62
     2
 10
1708.92
 20
83.7
 30
1.8
 40
27.0
  1
１／６
 50
0.0
 41
0.666666667
 51
0.0
  7
KANJI37
  0
TEXT
  8
0
  6
CONTINUOUS
 62
     2
 10
2193.72
 20
1454.7
 30
1.8
 40
18.0
  1
１９．６ＫＮ（２ｔｏｎ）
 50
0.0
 41
0.9
 51
0.0
  7
KANJI28
  0
TEXT
  8
0
  6
CONTINUOUS
 62
     2
 10
2208.42
 20
1286.7
 30
9.0
 40
21.0
  1
全閉屋外形
 50
0.0
 41
0.9
 51
0.0
  7
KANJI27
  0
ARC
  8
0
  6
CONTINUOUS
 62
     1
 10
1400.262218677
 20
513.143086418
 30
0.0
 40
10.0
 50
180.0
 51
270.0
  0
ARC
  8
0
  6
CONTINUOUS
 62
     1
 10
1565.262218677
 20
513.143086418
 30
0.0
 40
10.0
 50
270.0
 51
0.0
  0
LINE
  8
0
  6
CONTINUOUS
 62
     1
 10
1437.762218677
 20
531.143086418
 30
0.0
 11
1527.762218677
 21
531.143086418
 31
0.0
  0
LINE
  8
0
  6
CONTINUOUS
 62
     1
 10
1415.762218677
 20
538.143086418
 30
0.0
 11
1415.762218677
 21
570.465312555
 31
0.0
  0
ARC
  8
0
  6
CONTINUOUS
 62
     1
 10
1423.762218677
 20
538.143086418
 30
0.0
 40
8.0
 50
180.0
 51
270.0
  0
LINE
  8
0
  6
CONTINUOUS
 62
     1
 10
1415.762218677
 20
622.465312555
 30
0.0
 11
1415.762218677
 21
656.143086418
 31
0.0
  0
ARC
  8
0
  6
CONTINUOUS
 62
     1
 10
1423.762218677
 20
656.143086418
 30
0.0
 40
8.0
 50
90.0
 51
180.0
  0
LINE
  8
0
  6
CONTINUOUS
 62
     1
 10
1549.762218677
 20
622.965312555
 30
0.0
 11
1549.762218677
 21
656.143086418
 31
0.0
  0
ARC
  8
0
  6
CONTINUOUS
 62
     1
 10
1541.762218677
 20
656.143086418
 30
0.0
 40
8.0
 50
0.0
 51
90.0
  0
LINE
  8
0
  6
CONTINUOUS
 62
     1
 10
1549.762218677
 20
538.143086418
 30
0.0
 11
1549.762218677
 21
571.320860282
 31
0.0
  0
ARC
  8
0
  6
CONTINUOUS
 62
     1
 10
1541.762218677
 20
538.143086418
 30
0.0
 40
8.0
 50
270.0
 51
0.0
  0
LINE
  8
0
  6
CONTINUOUS
 62
     1
 10
1531.762218677
 20
530.143086418
 30
0.0
 11
1541.762218677
 21
530.143086418
 31
0.0
  0
LINE
  8
0
  6
CONTINUOUS
 62
     1
 10
1423.762218677
 20
530.143086418
 30
0.0
 11
1434.762218677
 21
530.143086418
 31
0.0
  0
CIRCLE
  8
0
  6
CONTINUOUS
 62
     1
 10
1535.762218677
 20
650.143086418
 30
0.0
 40
9.0
  0
CIRCLE
  8
0
  6
CONTINUOUS
 62
     1
 10
1429.762218677
 20
650.143086418
 30
0.0
 40
9.0
  0
LINE
  8
0
  6
CONTINUOUS
 62
     1
 10
1441.762218677
 20
531.143086418
 30
0.0
 11
1528.762218677
 21
531.143086418
 31
0.0
  0
ARC
  8
0
  6
CONTINUOUS
 62
     1
 10
1434.762218677
 20
526.643086418
 30
0.0
 40
3.0
 50
90.0
 51
180.0
  0
LINE
  8
0
  6
CONTINUOUS
 62
     1
 10
1431.762218677
 20
480.143086418
 30
0.0
 11
1431.762218677
 21
526.643086418
 31
0.0
  0
ARC
  8
0
  6
CONTINUOUS
 62
     1
 10
1432.762218677
 20
480.143086418
 30
0.0
 40
1.0
 50
180.0
 51
270.0
  0
ARC
  8
0
  6
CONTINUOUS
 62
     1
 10
1435.762218677
 20
479.143086418
 30
0.0
 40
1.0
 50
180.0
 51
270.0
  0
ARC
  8
0
  6
CONTINUOUS
 62
     1
 10
1530.762218677
 20
526.643086418
 30
0.0
 40
3.0
 50
0.0
 51
90.0
  0
LINE
  8
0
  6
CONTINUOUS
 62
     1
 10
1533.762218677
 20
480.143086418
 30
0.0
 11
1533.762218677
 21
526.643086418
 31
0.0
  0
ARC
  8
0
  6
CONTINUOUS
 62
     1
 10
1532.762218677
 20
480.143086418
 30
0.0
 40
1.0
 50
270.0
 51
0.0
  0
ARC
  8
0
  6
CONTINUOUS
 62
     1
 10
1529.762218677
 20
479.143086418
 30
0.0
 40
1.0
 50
270.0
 51
0.0
  0
LINE
  8
0
  6
CONTINUOUS
 62
     1
 10
1533.762218677
 20
485.143086418
 30
0.0
 11
1431.762218677
 21
485.143086418
 31
0.0
  0
LINE
  8
0
  6
CONTINUOUS
 62
     1
 10
1533.762218677
 20
486.643086418
 30
0.0
 11
1431.762218677
 21
486.643086418
 31
0.0
  0
LINE
  8
0
  6
CONTINUOUS
 62
     1
 10
1434.762218677
 20
529.643086418
 30
0.0
 11
1530.762218677
 21
529.643086418
 31
0.0
  0
LINE
  8
0
  6
CONTINUOUS
 62
     1
 10
1529.762218677
 20
478.143086418
 30
0.0
 11
1435.762218677
 21
478.143086418
 31
0.0
  0
LINE
  8
0
  6
CONTINUOUS
 62
     1
 10
1532.762218677
 20
479.143086418
 30
0.0
 11
1432.762218677
 21
479.143086418
 31
0.0
  0
LINE
  8
0
  6
CONTINUOUS
 62
     1
 10
1423.762218677
 20
664.143086418
 30
0.0
 11
1445.066065027
 21
664.143086418
 31
0.0
  0
LINE
  8
0
  6
CONTINUOUS
 62
     1
 10
1520.458372326
 20
664.143086418
 30
0.0
 11
1541.762218677
 21
664.143086418
 31
0.0
  0
LINE
  8
0
  6
CONTINUOUS
 62
     1
 10
1533.762218677
 20
503.143086418
 30
0.0
 11
1565.262218677
 21
503.143086418
 31
0.0
  0
LINE
  8
0
  6
CONTINUOUS
 62
     1
 10
1400.262218677
 20
503.143086418
 30
0.0
 11
1431.762218677
 21
503.143086418
 31
0.0
  0
CIRCLE
  8
0
  6
CONTINUOUS
 62
     1
 10
1482.762218677
 20
597.143086418
 30
0.0
 40
62.5
  0
LINE
  8
0
  6
CONTINUOUS
 62
     1
 10
1510.262218677
 20
622.143086418
 30
0.0
 11
1495.262218677
 21
622.143086418
 31
0.0
  0
LINE
  8
0
  6
CONTINUOUS
 62
     1
 10
1514.762218677
 20
575.143086418
 30
0.0
 11
1514.762218677
 21
619.143086418
 31
0.0
  0
LINE
  8
0
  6
CONTINUOUS
 62
     1
 10
1520.762218677
 20
584.643086418
 30
0.0
 11
1520.762218677
 21
609.643086418
 31
0.0
  0
LINE
  8
0
  6
CONTINUOUS
 62
     1
 10
1520.762218677
 20
609.643086418
 30
0.0
 11
1514.762218677
 21
609.643086418
 31
0.0
  0
LINE
  8
0
  6
CONTINUOUS
 62
     1
 10
1520.762218677
 20
584.643086418
 30
0.0
 11
1514.762218677
 21
584.643086418
 31
0.0
  0
LINE
  8
0
  6
CONTINUOUS
 62
     1
 10
1514.762218677
 20
619.143086418
 30
0.0
 11
1510.262218677
 21
619.143086418
 31
0.0
  0
LINE
  8
0
  6
CONTINUOUS
 62
     1
 10
1514.762218677
 20
575.143086418
 30
0.0
 11
1510.262218677
 21
575.143086418
 31
0.0
  0
CIRCLE
  8
0
  6
CONTINUOUS
 62
     1
 10
1516.762218677
 20
597.143086418
 30
0.0
 40
2.0
  0
LINE
  8
0
  6
CONTINUOUS
 62
     1
 10
1450.762218677
 20
575.143086418
 30
0.0
 11
1450.762218677
 21
619.143086418
 31
0.0
  0
LINE
  8
0
  6
CONTINUOUS
 62
     1
 10
1444.762218677
 20
584.643086418
 30
0.0
 11
1444.762218677
 21
609.643086418
 31
0.0
  0
LINE
  8
0
  6
CONTINUOUS
 62
     1
 10
1444.762218677
 20
609.643086418
 30
0.0
 11
1450.762218677
 21
609.643086418
 31
0.0
  0
LINE
  8
0
  6
CONTINUOUS
 62
     1
 10
1444.762218677
 20
584.643086418
 30
0.0
 11
1450.762218677
 21
584.643086418
 31
0.0
  0
LINE
  8
0
  6
CONTINUOUS
 62
     1
 10
1450.762218677
 20
619.143086418
 30
0.0
 11
1455.262218677
 21
619.143086418
 31
0.0
  0
LINE
  8
0
  6
CONTINUOUS
 62
     1
 10
1450.762218677
 20
575.143086418
 30
0.0
 11
1455.262218677
 21
575.143086418
 31
0.0
  0
CIRCLE
  8
0
  6
CONTINUOUS
 62
     1
 10
1448.762218677
 20
597.143086418
 30
0.0
 40
2.0
  0
LINE
  8
0
  6
CONTINUOUS
 62
     1
 10
1495.262218677
 20
584.643086418
 30
0.0
 11
1470.262218677
 21
584.643086418
 31
0.0
  0
LINE
  8
0
  6
CONTINUOUS
 62
     1
 10
1495.262218677
 20
609.643086418
 30
0.0
 11
1470.262218677
 21
609.643086418
 31
0.0
  0
LINE
  8
0
  6
CONTINUOUS
 62
     1
 10
1470.262218677
 20
584.643086418
 30
0.0
 11
1495.262218677
 21
584.643086418
 31
0.0
  0
LINE
  8
0
  6
CONTINUOUS
 62
     1
 10
1470.262218677
 20
609.643086418
 30
0.0
 11
1495.262218677
 21
609.643086418
 31
0.0
  0
LINE
  8
0
  6
CONTINUOUS
 62
     1
 10
1455.262218677
 20
622.143086418
 30
0.0
 11
1495.262218677
 21
622.143086418
 31
0.0
  0
LINE
  8
0
  6
CONTINUOUS
 62
     1
 10
1510.262218677
 20
572.143086418
 30
0.0
 11
1510.262218677
 21
622.143086418
 31
0.0
  0
LINE
  8
0
  6
CONTINUOUS
 62
     1
 10
1455.262218677
 20
572.143086418
 30
0.0
 11
1510.262218677
 21
572.143086418
 31
0.0
  0
LINE
  8
0
  6
CONTINUOUS
 62
     1
 10
1495.262218677
 20
572.143086418
 30
0.0
 11
1495.262218677
 21
622.143086418
 31
0.0
  0
LINE
  8
0
  6
CONTINUOUS
 62
     1
 10
1470.262218677
 20
572.143086418
 30
0.0
 11
1470.262218677
 21
622.143086418
 31
0.0
  0
LINE
  8
0
  6
CONTINUOUS
 62
     1
 10
1455.262218677
 20
572.143086418
 30
0.0
 11
1455.262218677
 21
622.143086418
 31
0.0
  0
LINE
  8
0
  6
CONTINUOUS
 62
     1
 10
1387.762218677
 20
574.143086418
 30
0.0
 11
1387.762218677
 21
620.143086418
 31
0.0
  0
LINE
  8
0
  6
CONTINUOUS
 62
     1
 10
1390.262218677
 20
513.143086418
 30
0.0
 11
1390.262218677
 21
573.836322708
 31
0.0
  0
LINE
  8
0
  6
CONTINUOUS
 62
     1
 10
1387.762218677
 20
574.143086418
 30
0.0
 11
1427.262218677
 21
569.296219792
 31
0.0
  0
LINE
  8
0
  6
CONTINUOUS
 62
     1
 10
1577.762218677
 20
574.143086418
 30
0.0
 11
1537.762218677
 21
569.23486705
 31
0.0
  0
LINE
  8
0
  6
CONTINUOUS
 62
     1
 10
1577.762218677
 20
620.143086418
 30
0.0
 11
1538.262218677
 21
624.989953044
 31
0.0
  0
LINE
  8
0
  6
CONTINUOUS
 62
     1
 10
1387.762218677
 20
620.143086418
 30
0.0
 11
1427.762218677
 21
625.051305787
 31
0.0
  0
LINE
  8
0
  6
CONTINUOUS
 62
     1
 10
1527.762218677
 20
531.143086418
 30
0.0
 11
1527.762218677
 21
553.949850129
 31
0.0
  0
LINE
  8
0
  6
CONTINUOUS
 62
     1
 10
1437.762218677
 20
531.143086418
 30
0.0
 11
1437.762218677
 21
553.769707486
 31
0.0
  0
ARC
  8
0
  6
CONTINUOUS
 62
     1
 10
1429.762218677
 20
544.143086418
 30
0.0
 40
9.0
 50
24.386100197
 51
334.165016937
  0
ARC
  8
0
  6
CONTINUOUS
 62
     1
 10
1535.762218677
 20
544.143086418
 30
0.0
 40
9.0
 50
202.863808572
 51
155.613899803
  0
LINE
  8
0
  6
LTYPE2
 62
     2
 10
1521.762218677
 20
650.143086418
 30
0.0
 11
1548.262218677
 21
650.143086418
 31
0.0
  0
LINE
  8
0
  6
LTYPE2
 62
     2
 10
1535.762218677
 20
635.643086418
 30
0.0
 11
1535.762218677
 21
662.643086418
 31
0.0
  0
LINE
  8
0
  6
LTYPE2
 62
     2
 10
1429.762218677
 20
636.143086418
 30
0.0
 11
1429.762218677
 21
662.643086418
 31
0.0
  0
LINE
  8
0
  6
LTYPE2
 62
     2
 10
1444.262218677
 20
650.143086418
 30
0.0
 11
1417.262218677
 21
650.143086418
 31
0.0
  0
LINE
  8
0
  6
LTYPE2
 62
     2
 10
1443.762218677
 20
544.143086418
 30
0.0
 11
1417.262218677
 21
544.143086418
 31
0.0
  0
LINE
  8
0
  6
LTYPE2
 62
     2
 10
1429.762218677
 20
558.643086418
 30
0.0
 11
1429.762218677
 21
531.643086418
 31
0.0
  0
LINE
  8
0
  6
LTYPE2
 62
     2
 10
1535.762218677
 20
558.143086418
 30
0.0
 11
1535.762218677
 21
531.643086418
 31
0.0
  0
LINE
  8
0
  6
LTYPE2
 62
     2
 10
1521.262218677
 20
544.143086418
 30
0.0
 11
1548.262218677
 21
544.143086418
 31
0.0
  0
LINE
  8
0
  6
LTYPE2
 62
     2
 10
1527.762218677
 20
474.443086418
 30
0.0
 11
1527.762218677
 21
493.143086418
 31
0.0
  0
LINE
  8
0
  6
LTYPE2
 62
     2
 10
1437.762218677
 20
474.443086418
 30
0.0
 11
1437.762218677
 21
493.143086418
 31
0.0
  0
LINE
  8
0
  6
CONTINUOUS
 62
     2
 10
1390.262218677
 20
513.143101677
 30
0.0
 11
1390.262218677
 21
398.143086418
 31
0.0
  0
LINE
  8
0
  6
CONTINUOUS
 62
     2
 10
1390.262218677
 20
403.143086418
 30
0.0
 11
1402.336291505
 21
399.907848355
 31
0.0
  0
LINE
  8
0
  6
CONTINUOUS
 62
     2
 10
1390.262218677
 20
403.143086418
 30
0.0
 11
1402.336291505
 21
406.378324482
 31
0.0
  0
LINE
  8
0
  6
CONTINUOUS
 62
     2
 10
1575.262218677
 20
403.143086418
 30
0.0
 11
1563.188145848
 21
406.378324482
 31
0.0
  0
LINE
  8
0
  6
CONTINUOUS
 62
     2
 10
1575.262218677
 20
403.143086418
 30
0.0
 11
1563.188145848
 21
399.907848355
 31
0.0
  0
LINE
  8
0
  6
LTYPE3
 62
     2
 10
1516.662218677
 20
593.143086418
 30
0.0
 11
1516.662218677
 21
601.343086418
 31
0.0
  0
LINE
  8
0
  6
LTYPE1
 62
     2
 10
1514.762218677
 20
609.643086418
 30
0.0
 11
1495.262218677
 21
609.643086418
 31
0.0
  0
LINE
  8
0
  6
LTYPE1
 62
     2
 10
1514.762218677
 20
584.643086418
 30
0.0
 11
1495.262218677
 21
584.643086418
 31
0.0
  0
LINE
  8
0
  6
LTYPE3
 62
     2
 10
1448.862218677
 20
593.143086418
 30
0.0
 11
1448.862218677
 21
601.343086418
 31
0.0
  0
LINE
  8
0
  6
LTYPE1
 62
     2
 10
1450.762218677
 20
609.643086418
 30
0.0
 11
1470.262218677
 21
609.643086418
 31
0.0
  0
LINE
  8
0
  6
LTYPE1
 62
     2
 10
1450.762218677
 20
584.643086418
 30
0.0
 11
1470.262218677
 21
584.643086418
 31
0.0
  0
LINE
  8
0
  6
LTYPE1
 62
     2
 10
1547.762218677
 20
584.643086418
 30
0.0
 11
1577.762218677
 21
584.643086418
 31
0.0
  0
LINE
  8
0
  6
LTYPE1
 62
     2
 10
1547.762218677
 20
609.643086418
 30
0.0
 11
1577.762218677
 21
609.643086418
 31
0.0
  0
LINE
  8
0
  6
LTYPE1
 62
     2
 10
1547.762218677
 20
584.643086418
 30
0.0
 11
1547.762218677
 21
609.643086418
 31
0.0
  0
LINE
  8
0
  6
LTYPE1
 62
     2
 10
1417.762218677
 20
584.643086418
 30
0.0
 11
1387.762218677
 21
584.643086418
 31
0.0
  0
LINE
  8
0
  6
LTYPE1
 62
     2
 10
1417.762218677
 20
609.643086418
 30
0.0
 11
1387.762218677
 21
609.643086418
 31
0.0
  0
LINE
  8
0
  6
LTYPE1
 62
     2
 10
1417.762218677
 20
584.643086418
 30
0.0
 11
1417.762218677
 21
609.643086418
 31
0.0
  0
LINE
  8
0
  6
CONTINUOUS
 62
     2
 10
1387.762218677
 20
574.143086418
 30
0.0
 11
1387.762218677
 21
347.269707486
 31
0.0
  0
LINE
  8
0
  6
CONTINUOUS
 62
     2
 10
1387.762218677
 20
352.269707486
 30
0.0
 11
1399.836291505
 21
349.034469422
 31
0.0
  0
LINE
  8
0
  6
CONTINUOUS
 62
     2
 10
1387.762218677
 20
352.269707486
 30
0.0
 11
1399.836291505
 21
355.50494555
 31
0.0
  0
LINE
  8
0
  6
CONTINUOUS
 62
     2
 10
1577.762218677
 20
352.269707486
 30
0.0
 11
1565.688145848
 21
355.50494555
 31
0.0
  0
LINE
  8
0
  6
CONTINUOUS
 62
     2
 10
1577.762218677
 20
352.269707486
 30
0.0
 11
1565.688145848
 21
349.034469422
 31
0.0
  0
LINE
  8
0
  6
CONTINUOUS
 62
     2
 10
1529.762218677
 20
478.143086418
 30
0.0
 11
1628.95968984
 21
478.143086418
 31
0.0
  0
LINE
  8
0
  6
CONTINUOUS
 62
     2
 10
1387.762218677
 20
584.643086418
 30
0.0
 11
1332.80968984
 21
584.643086418
 31
0.0
  0
LINE
  8
0
  6
CONTINUOUS
 62
     2
 10
1337.80968984
 20
584.643086418
 30
0.0
 11
1334.574451776
 21
572.56901359
 31
0.0
  0
LINE
  8
0
  6
CONTINUOUS
 62
     2
 10
1337.80968984
 20
584.643086418
 30
0.0
 11
1341.044927903
 21
572.56901359
 31
0.0
  0
LINE
  8
0
  6
CONTINUOUS
 62
     2
 10
1337.80968984
 20
609.643086418
 30
0.0
 11
1341.044927903
 21
621.717159247
 31
0.0
  0
LINE
  8
0
  6
CONTINUOUS
 62
     2
 10
1337.80968984
 20
609.643086418
 30
0.0
 11
1334.574451776
 21
621.717159247
 31
0.0
  0
LINE
  8
0
  6
CONTINUOUS
 62
     2
 10
1387.762218677
 20
609.643086418
 30
0.0
 11
1332.80968984
 21
609.643086418
 31
0.0
  0
LINE
  8
0
  6
CONTINUOUS
 62
     2
 10
1390.262218677
 20
403.143086418
 30
0.0
 11
1575.262218677
 21
403.143086418
 31
0.0
  0
LINE
  8
0
  6
CONTINUOUS
 62
     2
 10
1387.762218677
 20
352.269707486
 30
0.0
 11
1577.762218677
 21
352.269707486
 31
0.0
  0
ARC
  8
0
  6
CONTINUOUS
 62
     1
 10
147.962218677
 20
480.143086418
 30
0.0
 40
1.0
 50
270.0
 51
0.0
  0
ARC
  8
0
  6
CONTINUOUS
 62
     1
 10
144.962218677
 20
479.143086418
 30
0.0
 40
1.0
 50
270.0
 51
0.0
  0
LINE
  8
0
  6
LTYPE2
 62
     2
 10
142.962218677
 20
474.443086418
 30
0.0
 11
142.962218677
 21
493.143086418
 31
0.0
  0
LINE
  8
0
  6
LTYPE3
 62
     2
 10
110.270180864
 20
773.143086418
 30
0.0
 11
105.419151341
 21
773.143086418
 31
0.0
  0
LINE
  8
0
  6
CONTINUOUS
 62
     1
 10
148.962218677
 20
480.143086418
 30
0.0
 11
148.962218677
 21
494.143086418
 31
0.0
  0
LINE
  8
0
  6
CONTINUOUS
 62
     1
 10
190.462218677
 20
746.143086418
 30
0.0
 11
190.462218677
 21
832.672490917
 31
0.0
  0
ARC
  8
0
  6
CONTINUOUS
 62
     1
 10
125.962218677
 20
810.143086418
 30
0.0
 40
3.0
 50
0.0
 51
90.0
  0
ARC
  8
0
  6
CONTINUOUS
 62
     1
 10
156.962218677
 20
807.143086418
 30
0.0
 40
6.0
 50
0.0
 51
90.0
  0
LINE
  8
0
  6
CONTINUOUS
 62
     1
 10
128.962218677
 20
751.143086418
 30
0.0
 11
128.962218677
 21
810.143086418
 31
0.0
  0
LINE
  8
0
  6
CONTINUOUS
 62
     1
 10
162.962218677
 20
746.143086418
 30
0.0
 11
162.962218677
 21
807.143086418
 31
0.0
  0
ARC
  8
0
  6
CONTINUOUS
 62
     1
 10
98.272801531
 20
774.30219741
 30
0.0
 40
100.0
 50
343.504241957
 51
22.795413147
  0
ARC
  8
0
  6
CONTINUOUS
 62
     1
 10
199.962218677
 20
738.143086418
 30
0.0
 40
8.0
 50
0.0
 51
90.0
  0
LINE
  8
0
  6
CONTINUOUS
 62
     1
 10
207.962218677
 20
502.143086418
 30
0.0
 11
207.962218677
 21
738.143086418
 31
0.0
  0
ARC
  8
0
  6
CONTINUOUS
 62
     1
 10
199.962218677
 20
502.143086418
 30
0.0
 40
8.0
 50
270.0
 51
0.0
  0
ARC
  8
0
  6
CONTINUOUS
 62
     1
 10
97.962218677
 20
773.143086418
 30
0.0
 40
110.0
 50
32.763757759
 51
72.658557197
  0
LINE
  8
0
  6
CONTINUOUS
 62
     1
 10
97.962218677
 20
878.143086418
 30
0.0
 11
130.749411298
 21
878.143086418
 31
0.0
  0
LINE
  8
0
  6
CONTINUOUS
 62
     2
 10
207.962218677
 20
406.143086418
 30
0.0
 11
193.473331282
 21
410.025372095
 31
0.0
  0
LINE
  8
0
  6
CONTINUOUS
 62
     2
 10
207.962218677
 20
406.143086418
 30
0.0
 11
193.473331282
 21
402.260800742
 31
0.0
  0
LINE
  8
0
  6
CONTINUOUS
 62
     2
 10
207.962218677
 20
493.143086418
 30
0.0
 11
207.962218677
 21
397.143086418
 31
0.0
  0
ARC
  8
0
  6
CONTINUOUS
 62
     1
 10
189.962218677
 20
512.143086418
 30
0.0
 40
15.0
 50
90.0
 51
180.0
  0
LINE
  8
0
  6
LTYPE4
 62
     2
 10
177.962218677
 20
512.143086418
 30
0.0
 11
205.762218677
 21
512.143086418
 31
0.0
  0
LINE
  8
0
  6
CONTINUOUS
 62
     1
 10
174.962218677
 20
512.143086418
 30
0.0
 11
174.962218677
 21
507.143086418
 31
0.0
  0
ARC
  8
0
  6
CONTINUOUS
 62
     1
 10
168.962218677
 20
507.143086418
 30
0.0
 40
6.0
 50
270.0
 51
0.0
  0
LINE
  8
0
  6
CONTINUOUS
 62
     1
 10
189.962218677
 20
527.143086418
 30
0.0
 11
194.962218677
 21
527.143086418
 31
0.0
  0
ARC
  8
0
  6
CONTINUOUS
 62
     1
 10
194.962218677
 20
533.143086418
 30
0.0
 40
6.0
 50
270.0
 51
0.0
  0
CIRCLE
  8
0
  6
CONTINUOUS
 62
     1
 10
189.962218677
 20
512.143086418
 30
0.0
 40
8.5
  0
LINE
  8
0
  6
CONTINUOUS
 62
     1
 10
198.462218677
 20
517.043086418
 30
0.0
 11
198.462218677
 21
507.243086418
 31
0.0
  0
LINE
  8
0
  6
CONTINUOUS
 62
     1
 10
198.462218677
 20
507.243086418
 30
0.0
 11
189.962218677
 21
502.343086418
 31
0.0
  0
LINE
  8
0
  6
CONTINUOUS
 62
     1
 10
181.462218677
 20
517.043086418
 30
0.0
 11
181.462218677
 21
507.243086418
 31
0.0
  0
LINE
  8
0
  6
CONTINUOUS
 62
     1
 10
181.462218677
 20
507.243086418
 30
0.0
 11
189.962218677
 21
502.343086418
 31
0.0
  0
LINE
  8
0
  6
CONTINUOUS
 62
     1
 10
198.462218677
 20
517.043086418
 30
0.0
 11
189.962218677
 21
521.943086418
 31
0.0
  0
LINE
  8
0
  6
CONTINUOUS
 62
     1
 10
181.462218677
 20
517.043086418
 30
0.0
 11
189.962218677
 21
521.943086418
 31
0.0
  0
LINE
  8
0
  6
LTYPE4
 62
     2
 10
189.962218677
 20
496.643086418
 30
0.0
 11
189.962218677
 21
525.143086418
 31
0.0
  0
ARC
  8
0
  6
CONTINUOUS
 62
     1
 10
189.962218677
 20
728.143086418
 30
0.0
 40
15.0
 50
180.0
 51
270.0
  0
LINE
  8
0
  6
LTYPE4
 62
     2
 10
177.962218677
 20
728.143086418
 30
0.0
 11
205.762218677
 21
728.143086418
 31
0.0
  0
LINE
  8
0
  6
CONTINUOUS
 62
     1
 10
174.962218677
 20
728.143086418
 30
0.0
 11
174.962218677
 21
733.143086418
 31
0.0
  0
ARC
  8
0
  6
CONTINUOUS
 62
     1
 10
168.962218677
 20
733.143086418
 30
0.0
 40
6.0
 50
0.0
 51
90.0
  0
LINE
  8
0
  6
CONTINUOUS
 62
     1
 10
189.962218677
 20
713.143086418
 30
0.0
 11
194.962218677
 21
713.143086418
 31
0.0
  0
ARC
  8
0
  6
CONTINUOUS
 62
     1
 10
194.962218677
 20
707.143086418
 30
0.0
 40
6.0
 50
0.0
 51
90.0
  0
CIRCLE
  8
0
  6
CONTINUOUS
 62
     1
 10
189.962218677
 20
728.143086418
 30
0.0
 40
8.5
  0
LINE
  8
0
  6
CONTINUOUS
 62
     1
 10
198.462218677
 20
723.243086418
 30
0.0
 11
198.462218677
 21
733.043086418
 31
0.0
  0
LINE
  8
0
  6
CONTINUOUS
 62
     1
 10
198.462218677
 20
733.043086418
 30
0.0
 11
189.962218677
 21
737.943086418
 31
0.0
  0
LINE
  8
0
  6
CONTINUOUS
 62
     1
 10
181.462218677
 20
723.243086418
 30
0.0
 11
181.462218677
 21
733.043086418
 31
0.0
  0
LINE
  8
0
  6
CONTINUOUS
 62
     1
 10
181.462218677
 20
733.043086418
 30
0.0
 11
189.962218677
 21
737.943086418
 31
0.0
  0
LINE
  8
0
  6
CONTINUOUS
 62
     1
 10
198.462218677
 20
723.243086418
 30
0.0
 11
189.962218677
 21
718.343086418
 31
0.0
  0
LINE
  8
0
  6
CONTINUOUS
 62
     1
 10
181.462218677
 20
723.243086418
 30
0.0
 11
189.962218677
 21
718.343086418
 31
0.0
  0
LINE
  8
0
  6
LTYPE4
 62
     2
 10
189.962218677
 20
743.643086418
 30
0.0
 11
189.962218677
 21
715.143086418
 31
0.0
  0
LINE
  8
0
  6
CONTINUOUS
 62
     1
 10
200.962218677
 20
533.143086418
 30
0.0
 11
200.962218677
 21
707.143086418
 31
0.0
  0
LINE
  8
0
  6
CONTINUOUS
 62
     1
 10
112.962218677
 20
835.643086418
 30
0.0
 11
112.962218677
 21
878.143086418
 31
0.0
  0
LINE
  8
0
  6
CONTINUOUS
 62
     1
 10
1386.962218677
 20
746.143086418
 30
0.0
 11
1380.762218677
 21
746.143086418
 31
0.0
  0
ARC
  8
0
  6
CONTINUOUS
 62
     1
 10
1380.762218677
 20
738.143086418
 30
0.0
 40
8.0
 50
90.0
 51
180.0
  0
LINE
  8
0
  6
CONTINUOUS
 62
     1
 10
1372.762218677
 20
502.143086418
 30
0.0
 11
1372.762218677
 21
738.143086418
 31
0.0
  0
ARC
  8
0
  6
CONTINUOUS
 62
     1
 10
1380.762218677
 20
502.143086418
 30
0.0
 40
8.0
 50
180.0
 51
270.0
  0
LINE
  8
0
  6
CONTINUOUS
 62
     1
 10
1431.462218677
 20
494.143086418
 30
0.0
 11
1380.762218677
 21
494.143086418
 31
0.0
  0
LINE
  8
0
  6
CONTINUOUS
 62
     1
 10
1584.762218677
 20
494.143086418
 30
0.0
 11
1533.762218677
 21
494.143086418
 31
0.0
  0
TEXT
  8
0
  6
CONTINUOUS
 62
     2
 10
1460.262218677
 20
408.143086418
 30
1.8
 40
18.0
  1
１８５
 50
0.0
 41
0.933333333
 51
0.0
  7
KANJI38
  0
TEXT
  8
0
  6
CONTINUOUS
 62
     2
 10
1460.262218677
 20
357.269707486
 30
1.8
 40
18.0
  1
１９０
 50
0.0
 41
0.933333333
 51
0.0
  7
KANJI38
  0
LINE
  8
0
  6
CONTINUOUS
 62
     1
 10
97.962218677
 20
928.143086418
 30
0.0
 11
97.962218677
 21
928.143086418
 31
0.0
  0
ARC
  8
0
  6
CONTINUOUS
 62
     1
 10
97.962218677
 20
923.143086418
 30
0.0
 40
5.0
 50
0.0
 51
90.0
  0
LINE
  8
0
  6
CONTINUOUS
 62
     1
 10
102.962218677
 20
885.443086418
 30
0.0
 11
102.962218677
 21
923.143086418
 31
0.0
  0
LINE
  8
0
  6
CONTINUOUS
 62
     1
 10
110.462218677
 20
878.143086418
 30
0.0
 11
108.873983382
 21
887.143086418
 31
0.0
  0
LINE
  8
0
  6
CONTINUOUS
 62
     1
 10
108.873983382
 20
887.143086418
 30
0.0
 11
103.373983382
 21
888.643086418
 31
0.0
  0
LINE
  8
0
  6
CONTINUOUS
 62
     1
 10
102.962218677
 20
887.143086418
 30
0.0
 11
108.873983382
 21
887.143086418
 31
0.0
  0
CIRCLE
  8
0
  6
LTYPE1
 62
     2
 10
1482.762218677
 20
503.643086418
 30
0.0
 40
10.4775
  0
CIRCLE
  8
0
  6
LTYPE1
 62
     2
 10
1482.762218677
 20
503.643086418
 30
0.0
 40
9.3155
  0
LINE
  8
0
  6
CONTINUOUS
 62
     1
 10
212.762218677
 20
509.193086418
 30
0.0
 11
212.762218677
 21
536.893086418
 31
0.0
  0
LINE
  8
0
  6
CONTINUOUS
 62
     1
 10
207.962218677
 20
516.143086418
 30
0.0
 11
212.762218677
 21
516.143086418
 31
0.0
  0
LINE
  8
0
  6
CONTINUOUS
 62
     1
 10
207.962218677
 20
529.943086418
 30
0.0
 11
212.762218677
 21
529.943086418
 31
0.0
  0
LINE
  8
0
  6
CONTINUOUS
 62
     1
 10
207.962218677
 20
536.893086418
 30
0.0
 11
212.762218677
 21
536.893086418
 31
0.0
  0
LINE
  8
0
  6
CONTINUOUS
 62
     1
 10
207.962218677
 20
509.193086418
 30
0.0
 11
207.962218677
 21
536.893086418
 31
0.0
  0
LINE
  8
0
  6
CONTINUOUS
 62
     1
 10
207.962218677
 20
509.193086418
 30
0.0
 11
212.762218677
 21
509.193086418
 31
0.0
  0
LINE
  8
0
  6
CONTINUOUS
 62
     1
 10
217.962218677
 20
508.393086418
 30
0.0
 11
217.962218677
 21
537.693086418
 31
0.0
  0
LINE
  8
0
  6
CONTINUOUS
 62
     1
 10
217.962218677
 20
508.393086418
 30
0.0
 11
230.962218677
 21
508.393086418
 31
0.0
  0
ARC
  8
0
  6
CONTINUOUS
 62
     1
 10
230.962218677
 20
510.393086418
 30
0.0
 40
2.0
 50
270.0
 51
0.0
  0
LINE
  8
0
  6
CONTINUOUS
 62
     1
 10
217.962218677
 20
537.693086418
 30
0.0
 11
230.962218677
 21
537.693086418
 31
0.0
  0
LINE
  8
0
  6
CONTINUOUS
 62
     1
 10
232.962218677
 20
510.393086418
 30
0.0
 11
232.962218677
 21
535.693086418
 31
0.0
  0
ARC
  8
0
  6
CONTINUOUS
 62
     1
 10
230.962218677
 20
535.693086418
 30
0.0
 40
2.0
 50
0.0
 51
90.0
  0
LINE
  8
0
  6
CONTINUOUS
 62
     1
 10
228.962218677
 20
535.693086418
 30
0.0
 11
217.962218677
 21
535.693086418
 31
0.0
  0
LINE
  8
0
  6
CONTINUOUS
 62
     1
 10
228.962218677
 20
526.793086418
 30
0.0
 11
217.962218677
 21
526.793086418
 31
0.0
  0
LINE
  8
0
  6
CONTINUOUS
 62
     1
 10
228.962218677
 20
530.893086418
 30
0.0
 11
217.962218677
 21
530.893086418
 31
0.0
  0
LINE
  8
0
  6
CONTINUOUS
 62
     1
 10
228.962218677
 20
530.893086418
 30
0.0
 11
228.962218677
 21
535.693086418
 31
0.0
  0
LINE
  8
0
  6
CONTINUOUS
 62
     1
 10
228.962218677
 20
523.043086418
 30
0.0
 11
228.962218677
 21
526.793086418
 31
0.0
  0
LINE
  8
0
  6
CONTINUOUS
 62
     1
 10
228.962218677
 20
510.393086418
 30
0.0
 11
217.962218677
 21
510.393086418
 31
0.0
  0
LINE
  8
0
  6
CONTINUOUS
 62
     1
 10
228.962218677
 20
519.293086418
 30
0.0
 11
217.962218677
 21
519.293086418
 31
0.0
  0
LINE
  8
0
  6
CONTINUOUS
 62
     1
 10
228.962218677
 20
515.193086418
 30
0.0
 11
217.962218677
 21
515.193086418
 31
0.0
  0
LINE
  8
0
  6
CONTINUOUS
 62
     1
 10
228.962218677
 20
515.193086418
 30
0.0
 11
228.962218677
 21
510.393086418
 31
0.0
  0
LINE
  8
0
  6
CONTINUOUS
 62
     1
 10
228.962218677
 20
523.043086418
 30
0.0
 11
228.962218677
 21
519.293086418
 31
0.0
  0
LINE
  8
0
  6
CONTINUOUS
 62
     1
 10
212.662218677
 20
535.743086418
 30
0.0
 11
217.962218677
 21
535.743086418
 31
0.0
  0
LINE
  8
0
  6
CONTINUOUS
 62
     1
 10
212.662218677
 20
534.943086418
 30
0.0
 11
217.962218677
 21
534.943086418
 31
0.0
  0
LINE
  8
0
  6
CONTINUOUS
 62
     1
 10
212.662218677
 20
510.343086418
 30
0.0
 11
217.962218677
 21
510.343086418
 31
0.0
  0
LINE
  8
0
  6
CONTINUOUS
 62
     1
 10
212.662218677
 20
511.143086418
 30
0.0
 11
217.962218677
 21
511.143086418
 31
0.0
  0
LINE
  8
0
  6
CONTINUOUS
 62
     1
 10
1367.962218677
 20
536.893086418
 30
0.0
 11
1367.962218677
 21
509.193086418
 31
0.0
  0
LINE
  8
0
  6
CONTINUOUS
 62
     1
 10
1372.762218677
 20
529.943086418
 30
0.0
 11
1367.962218677
 21
529.943086418
 31
0.0
  0
LINE
  8
0
  6
CONTINUOUS
 62
     1
 10
1372.762218677
 20
516.143086418
 30
0.0
 11
1367.962218677
 21
516.143086418
 31
0.0
  0
LINE
  8
0
  6
CONTINUOUS
 62
     1
 10
1372.762218677
 20
509.193086418
 30
0.0
 11
1367.962218677
 21
509.193086418
 31
0.0
  0
LINE
  8
0
  6
CONTINUOUS
 62
     1
 10
1372.762218677
 20
536.893086418
 30
0.0
 11
1372.762218677
 21
509.193086418
 31
0.0
  0
LINE
  8
0
  6
CONTINUOUS
 62
     1
 10
1372.762218677
 20
536.893086418
 30
0.0
 11
1367.962218677
 21
536.893086418
 31
0.0
  0
LINE
  8
0
  6
CONTINUOUS
 62
     1
 10
1362.762218677
 20
537.693086418
 30
0.0
 11
1362.762218677
 21
508.393086418
 31
0.0
  0
LINE
  8
0
  6
CONTINUOUS
 62
     1
 10
1362.762218677
 20
537.693086418
 30
0.0
 11
1349.762218677
 21
537.693086418
 31
0.0
  0
ARC
  8
0
  6
CONTINUOUS
 62
     1
 10
1349.762218677
 20
535.693086418
 30
0.0
 40
2.0
 50
90.0
 51
180.0
  0
LINE
  8
0
  6
CONTINUOUS
 62
     1
 10
1362.762218677
 20
508.393086418
 30
0.0
 11
1349.762218677
 21
508.393086418
 31
0.0
  0
LINE
  8
0
  6
CONTINUOUS
 62
     1
 10
1347.762218677
 20
535.693086418
 30
0.0
 11
1347.762218677
 21
510.393086418
 31
0.0
  0
ARC
  8
0
  6
CONTINUOUS
 62
     1
 10
1349.762218677
 20
510.393086418
 30
0.0
 40
2.0
 50
180.0
 51
270.0
  0
LINE
  8
0
  6
CONTINUOUS
 62
     1
 10
1351.762218677
 20
510.393086418
 30
0.0
 11
1362.762218677
 21
510.393086418
 31
0.0
  0
LINE
  8
0
  6
CONTINUOUS
 62
     1
 10
1351.762218677
 20
519.293086418
 30
0.0
 11
1362.762218677
 21
519.293086418
 31
0.0
  0
LINE
  8
0
  6
CONTINUOUS
 62
     1
 10
1351.762218677
 20
515.193086418
 30
0.0
 11
1362.762218677
 21
515.193086418
 31
0.0
  0
LINE
  8
0
  6
CONTINUOUS
 62
     1
 10
1351.762218677
 20
515.193086418
 30
0.0
 11
1351.762218677
 21
510.393086418
 31
0.0
  0
LINE
  8
0
  6
CONTINUOUS
 62
     1
 10
1351.762218677
 20
523.043086418
 30
0.0
 11
1351.762218677
 21
519.293086418
 31
0.0
  0
LINE
  8
0
  6
CONTINUOUS
 62
     1
 10
1351.762218677
 20
535.693086418
 30
0.0
 11
1362.762218677
 21
535.693086418
 31
0.0
  0
LINE
  8
0
  6
CONTINUOUS
 62
     1
 10
1351.762218677
 20
526.793086418
 30
0.0
 11
1362.762218677
 21
526.793086418
 31
0.0
  0
LINE
  8
0
  6
CONTINUOUS
 62
     1
 10
1351.762218677
 20
530.893086418
 30
0.0
 11
1362.762218677
 21
530.893086418
 31
0.0
  0
LINE
  8
0
  6
CONTINUOUS
 62
     1
 10
1351.762218677
 20
530.893086418
 30
0.0
 11
1351.762218677
 21
535.693086418
 31
0.0
  0
LINE
  8
0
  6
CONTINUOUS
 62
     1
 10
1351.762218677
 20
523.043086418
 30
0.0
 11
1351.762218677
 21
526.793086418
 31
0.0
  0
LINE
  8
0
  6
CONTINUOUS
 62
     1
 10
1368.062218677
 20
510.343086418
 30
0.0
 11
1362.762218677
 21
510.343086418
 31
0.0
  0
LINE
  8
0
  6
CONTINUOUS
 62
     1
 10
1368.062218677
 20
511.143086418
 30
0.0
 11
1362.762218677
 21
511.143086418
 31
0.0
  0
LINE
  8
0
  6
CONTINUOUS
 62
     1
 10
1368.062218677
 20
535.743086418
 30
0.0
 11
1362.762218677
 21
535.743086418
 31
0.0
  0
LINE
  8
0
  6
CONTINUOUS
 62
     1
 10
1368.062218677
 20
534.943086418
 30
0.0
 11
1362.762218677
 21
534.943086418
 31
0.0
  0
LINE
  8
0
  6
LTYPE4
 62
     2
 10
1385.862218677
 20
523.043086418
 30
0.0
 11
1325.762218677
 21
523.043086418
 31
0.0
  0
LINE
  8
0
  6
CONTINUOUS
 62
     2
 10
97.962218677
 20
442.343086418
 30
0.0
 11
97.962218677
 21
427.743086418
 31
0.0
  0
LINE
  8
0
  6
CONTINUOUS
 62
     2
 10
97.962218677
 20
436.743086418
 30
0.0
 11
112.451106071
 21
432.860800742
 31
0.0
  0
LINE
  8
0
  6
CONTINUOUS
 62
     2
 10
97.962218677
 20
436.743086418
 30
0.0
 11
112.451106071
 21
440.625372095
 31
0.0
  0
TEXT
  8
0
  6
CONTINUOUS
 62
     2
 10
1328.80968984
 20
612.143086418
 30
1.8
 40
18.0
  1
φ２５Ｈ１０深さ３０
 50
90.0
 41
0.933333333
 51
0.0
  7
KANJI38
  0
LINE
  8
0
  6
CONTINUOUS
 62
     2
 10
1337.80968984
 20
559.643086418
 30
0.0
 11
1337.80968984
 21
785.143086418
 31
0.0
  0
LINE
  8
0
  6
LTYPE2
 62
     2
 10
97.962218677
 20
450.343086418
 30
0.0
 11
97.962218677
 21
932.243086418
 31
0.0
  0
LINE
  8
0
  6
LTYPE4
 62
     2
 10
1502.662218677
 20
503.643086418
 30
0.0
 11
1461.962218677
 21
503.643086418
 31
0.0
  0
LINE
  8
0
  6
LTYPE4
 62
     2
 10
1393.062218677
 20
773.143086418
 30
0.0
 11
1578.162218677
 21
773.143086418
 31
0.0
  0
LINE
  8
0
  6
CONTINUOUS
 62
     2
 10
276.962218677
 20
494.143086418
 30
0.0
 11
280.844504353
 21
508.631973813
 31
0.0
  0
LINE
  8
0
  6
CONTINUOUS
 62
     2
 10
276.962218677
 20
494.143086418
 30
0.0
 11
273.079933
 21
508.631973813
 31
0.0
  0
LINE
  8
0
  6
CONTINUOUS
 62
     2
 10
276.962218677
 20
494.143086418
 30
0.0
 11
276.962218677
 21
597.143086418
 31
0.0
  0
LINE
  8
0
  6
CONTINUOUS
 62
     2
 10
276.962218677
 20
597.143086418
 30
0.0
 11
273.079933
 21
582.654199024
 31
0.0
  0
LINE
  8
0
  6
CONTINUOUS
 62
     2
 10
276.962218677
 20
597.143086418
 30
0.0
 11
280.844504353
 21
582.654199024
 31
0.0
  0
TEXT
  8
0
  6
CONTINUOUS
 62
     2
 10
269.962218677
 20
538.543086418
 30
1.8
 40
18.0
  1
１０３
 50
90.0
 41
0.9
 51
0.0
  7
KANJI39
  0
LINE
  8
0
  6
CONTINUOUS
 62
     2
 10
226.962218677
 20
597.143086418
 30
0.0
 11
280.962218677
 21
597.143086418
 31
0.0
  0
LINE
  8
0
  6
LTYPE4
 62
     2
 10
207.962218677
 20
523.043086418
 30
0.0
 11
274.962218677
 21
523.043086418
 31
0.0
  0
LINE
  8
0
  6
CONTINUOUS
 62
     2
 10
266.062218677
 20
436.743086418
 30
0.0
 11
251.573331282
 21
440.625372095
 31
0.0
  0
LINE
  8
0
  6
CONTINUOUS
 62
     2
 10
266.062218677
 20
436.743086418
 30
0.0
 11
251.573331282
 21
432.860800742
 31
0.0
  0
LINE
  8
0
  6
CONTINUOUS
 62
     2
 10
266.062218677
 20
514.043086418
 30
0.0
 11
266.062218677
 21
427.743086418
 31
0.0
  0
ARC
  8
0
  6
CONTINUOUS
 62
     1
 10
261.062218677
 20
523.043086418
 30
0.0
 40
5.0
 50
270.0
 51
90.0
  0
LINE
  8
0
  6
CONTINUOUS
 62
     1
 10
232.962218677
 20
527.543086418
 30
0.0
 11
261.062218677
 21
527.543086418
 31
0.0
  0
LINE
  8
0
  6
CONTINUOUS
 62
     1
 10
232.962218677
 20
518.543086418
 30
0.0
 11
261.062218677
 21
518.543086418
 31
0.0
  0
LINE
  8
0
  6
CONTINUOUS
 62
     2
 10
97.962218677
 20
436.743086418
 30
0.0
 11
266.062218677
 21
436.743086418
 31
0.0
  0
TEXT
  8
0
  6
CONTINUOUS
 62
     2
 10
153.412218677
 20
442.743086418
 30
1.8
 40
18.0
  1
１７０
 50
0.0
 41
0.9
 51
0.0
  7
KANJI39
  0
ARC
  8
0
  6
CONTINUOUS
 62
     1
 10
1317.762218677
 20
523.043086418
 30
0.0
 40
5.0
 50
90.0
 51
270.0
  0
LINE
  8
0
  6
CONTINUOUS
 62
     1
 10
1347.762218677
 20
527.543086418
 30
0.0
 11
1318.262218677
 21
527.543086418
 31
0.0
  0
LINE
  8
0
  6
CONTINUOUS
 62
     1
 10
1347.762218677
 20
518.543086418
 30
0.0
 11
1317.762218677
 21
518.543086418
 31
0.0
  0
LINE
  8
2
  6
CONTINUOUS
 62
     2
 10
1312.762218677
 20
378.043086418
 30
0.0
 11
1327.251106071
 21
374.160800742
 31
0.0
  0
LINE
  8
2
  6
CONTINUOUS
 62
     2
 10
1312.762218677
 20
378.043086418
 30
0.0
 11
1327.251106071
 21
381.925372095
 31
0.0
  0
LINE
  8
2
  6
CONTINUOUS
 62
     2
 10
1312.762218677
 20
378.043086418
 30
0.0
 11
1372.762218677
 21
378.043086418
 31
0.0
  0
LINE
  8
2
  6
CONTINUOUS
 62
     2
 10
1372.762218677
 20
378.043086418
 30
0.0
 11
1358.273331282
 21
381.925372095
 31
0.0
  0
LINE
  8
2
  6
CONTINUOUS
 62
     2
 10
1372.762218677
 20
378.043086418
 30
0.0
 11
1358.273331282
 21
374.160800742
 31
0.0
  0
LINE
  8
2
  6
CONTINUOUS
 62
     2
 10
1372.762218677
 20
496.143097208
 30
0.0
 11
1372.762218677
 21
372.043086418
 31
0.0
  0
TEXT
  8
2
  6
CONTINUOUS
 62
     2
 10
1323.862218677
 20
384.043086418
 30
1.8
 40
21.0
  1
６０
 50
0.0
 41
0.857142857
 51
0.0
  7
KANJI40
  0
LINE
  8
2
  6
CONTINUOUS
 62
     2
 10
1312.762218677
 20
428.143097208
 30
0.0
 11
1312.762218677
 21
372.043086418
 31
0.0
  0
LINE
  8
0
  6
CONTINUOUS
 62
     1
 10
1577.762218677
 20
574.143086418
 30
0.0
 11
1577.762218677
 21
620.143086418
 31
0.0
  0
LINE
  8
0
  6
CONTINUOUS
 62
     1
 10
1575.262218677
 20
513.143086418
 30
0.0
 11
1575.262218677
 21
573.836322708
 31
0.0
  0
LINE
  8
0
  6
CONTINUOUS
 62
     2
 10
1575.262218677
 20
513.143086418
 30
0.0
 11
1575.262218677
 21
398.143086418
 31
0.0
  0
LINE
  8
0
  6
CONTINUOUS
 62
     2
 10
1577.762218677
 20
574.143086418
 30
0.0
 11
1577.762218677
 21
347.269707486
 31
0.0
  0
LINE
  8
0
  6
CONTINUOUS
 62
     2
 10
1623.95968984
 20
478.143086418
 30
0.0
 11
1627.194927903
 21
490.217159247
 31
0.0
  0
LINE
  8
0
  6
CONTINUOUS
 62
     2
 10
1623.95968984
 20
478.143086418
 30
0.0
 11
1620.724451776
 21
490.217159247
 31
0.0
  0
LINE
  8
0
  6
CONTINUOUS
 62
     2
 10
1623.95968984
 20
478.143086418
 30
0.0
 11
1623.95968984
 21
597.143086418
 31
0.0
  0
LINE
  8
0
  6
CONTINUOUS
 62
     2
 10
1623.95968984
 20
597.143086418
 30
0.0
 11
1620.724451776
 21
585.06901359
 31
0.0
  0
LINE
  8
0
  6
CONTINUOUS
 62
     2
 10
1623.95968984
 20
597.143086418
 30
0.0
 11
1627.194927903
 21
585.06901359
 31
0.0
  0
LINE
  8
0
  6
CONTINUOUS
 62
     2
 10
1603.862218677
 20
597.143086418
 30
0.0
 11
1628.95968984
 21
597.143086418
 31
0.0
  0
LINE
  8
0
  6
CONTINUOUS
 62
     2
 10
1623.95968984
 20
597.143086418
 30
0.0
 11
1627.194927903
 21
609.217159247
 31
0.0
  0
LINE
  8
0
  6
CONTINUOUS
 62
     2
 10
1623.95968984
 20
597.143086418
 30
0.0
 11
1620.724451776
 21
609.217159247
 31
0.0
  0
LINE
  8
0
  6
CONTINUOUS
 62
     2
 10
1623.95968984
 20
597.143086418
 30
0.0
 11
1623.95968984
 21
773.143086418
 31
0.0
  0
LINE
  8
0
  6
CONTINUOUS
 62
     2
 10
1623.95968984
 20
773.143086418
 30
0.0
 11
1620.724451776
 21
761.06901359
 31
0.0
  0
LINE
  8
0
  6
CONTINUOUS
 62
     2
 10
1623.95968984
 20
773.143086418
 30
0.0
 11
1627.194927903
 21
761.06901359
 31
0.0
  0
LINE
  8
0
  6
CONTINUOUS
 62
     2
 10
1603.262218677
 20
773.143086418
 30
0.0
 11
1628.95968984
 21
773.143086418
 31
0.0
  0
ARC
  8
0
  6
CONTINUOUS
 62
     1
 10
1584.762218677
 20
738.143086418
 30
0.0
 40
8.0
 50
0.0
 51
90.0
  0
LINE
  8
0
  6
CONTINUOUS
 62
     1
 10
1584.762218677
 20
746.143086418
 30
0.0
 11
1577.962218677
 21
746.143086418
 31
0.0
  0
LINE
  8
0
  6
CONTINUOUS
 62
     1
 10
1592.762218677
 20
502.143086418
 30
0.0
 11
1592.762218677
 21
738.143086418
 31
0.0
  0
ARC
  8
0
  6
CONTINUOUS
 62
     1
 10
1584.762218677
 20
502.143086418
 30
0.0
 40
8.0
 50
270.0
 51
0.0
  0
TEXT
  8
0
  6
CONTINUOUS
 62
     2
 10
1618.95968984
 20
515.143086418
 30
1.8
 40
18.0
  1
１１９
 50
90.0
 41
0.933333333
 51
0.0
  7
KANJI38
  0
TEXT
  8
0
  6
CONTINUOUS
 62
     2
 10
1618.95968984
 20
662.643086418
 30
1.8
 40
18.0
  1
１７６
 50
90.0
 41
0.933333333
 51
0.0
  7
KANJI38
  0
LINE
  8
0
  6
CONTINUOUS
 62
     1
 10
95.0
 20
485.143086418
 30
0.0
 11
148.962218677
 21
485.143086418
 31
0.0
  0
LINE
  8
0
  6
CONTINUOUS
 62
     1
 10
95.0
 20
486.643086418
 30
0.0
 11
148.962218677
 21
486.643086418
 31
0.0
  0
LINE
  8
0
  6
CONTINUOUS
 62
     1
 10
95.0
 20
479.143086418
 30
0.0
 11
147.962218677
 21
479.143086418
 31
0.0
  0
LINE
  8
0
  6
LTYPE3
 62
     2
 10
95.0
 20
597.143086418
 30
0.0
 11
135.962218677
 21
597.143086418
 31
0.0
  0
LINE
  8
0
  6
LTYPE3
 62
     2
 10
140.962218677
 20
597.143086418
 30
0.0
 11
95.0
 21
597.143086418
 31
0.0
  0
LINE
  8
0
  6
LTYPE4
 62
     2
 10
217.462218677
 20
773.143086418
 30
0.0
 11
95.0
 21
773.143086418
 31
0.0
  0
LINE
  8
0
  6
LTYPE4
 62
     2
 10
95.0
 20
597.143086418
 30
0.0
 11
217.962218677
 21
597.143086418
 31
0.0
  0
LINE
  8
0
  6
CONTINUOUS
 62
     1
 10
97.962218677
 20
878.143086418
 30
0.0
 11
95.0
 21
878.143086418
 31
0.0
  0
LINE
  8
0
  6
CONTINUOUS
 62
     1
 10
156.962218677
 20
813.143086418
 30
0.0
 11
95.0
 21
813.143086418
 31
0.0
  0
LINE
  8
0
  6
CONTINUOUS
 62
     1
 10
95.0
 20
751.143086418
 30
0.0
 11
128.962218677
 21
751.143086418
 31
0.0
  0
ARC
  8
0
  6
CONTINUOUS
 62
     1
 10
97.962218677
 20
773.143086418
 30
0.0
 40
15.0
 50
0.0
 51
101.38970761
  0
ARC
  8
0
  6
CONTINUOUS
 62
     1
 10
97.962218677
 20
773.143086418
 30
0.0
 40
15.0
 50
258.61029239
 51
0.0
  0
LINE
  8
0
  6
CONTINUOUS
 62
     1
 10
95.0
 20
746.143086418
 30
0.0
 11
199.962218677
 21
746.143086418
 31
0.0
  0
LINE
  8
0
  6
CONTINUOUS
 62
     1
 10
95.0
 20
494.143086418
 30
0.0
 11
199.962218677
 21
494.143086418
 31
0.0
  0
LINE
  8
0
  6
CONTINUOUS
 62
     1
 10
95.0
 20
501.143086418
 30
0.0
 11
168.962218677
 21
501.143086418
 31
0.0
  0
LINE
  8
0
  6
CONTINUOUS
 62
     1
 10
95.0
 20
739.143086418
 30
0.0
 11
168.962218677
 21
739.143086418
 31
0.0
  0
ARC
  8
0
  6
CONTINUOUS
 62
     1
 10
97.962218677
 20
788.143086418
 30
0.0
 40
50.0
 50
30.0
 51
93.396441402
  0
TEXT
  8
0
  6
CONTINUOUS
 62
     2
 10
122.862218677
 20
412.143086418
 30
1.8
 40
18.0
  1
２２０
 50
0.0
 41
0.9
 51
0.0
  7
KANJI39
  0
LINE
  8
0
  6
CONTINUOUS
 62
     2
 10
95.0
 20
406.143086418
 30
0.0
 11
207.962218677
 21
406.143086418
 31
0.0
  0
LINE
  8
0
  6
CONTINUOUS
 62
     1
 10
95.0
 20
478.143086418
 30
0.0
 11
144.962218677
 21
478.143086418
 31
0.0
  0
LINE
  8
0
  6
LTYPE3
 62
     2
 10
1586.762218677
 20
597.143086418
 30
0.0
 11
1377.762218677
 21
597.143086418
 31
0.0
  0
ARC
  8
0
  6
CONTINUOUS
 62
     1
 10
1482.762218677
 20
762.143086418
 30
0.0
 40
105.0
 50
277.623325275
 51
291.039469781
  0
ARC
  8
0
  6
CONTINUOUS
 62
     1
 10
1482.762218677
 20
762.143086418
 30
0.0
 40
105.0
 50
248.960530219
 51
262.376674725
  0
CIRCLE
  8
0
  6
CONTINUOUS
 62
     1
 10
1482.762218677
 20
911.643086418
 30
0.0
 40
12.055
  0
CIRCLE
  8
0
  6
CONTINUOUS
 62
     1
 10
1482.762218677
 20
911.643086418
 30
0.0
 40
20.0
  0
CIRCLE
  8
0
  6
CONTINUOUS
 62
     1
 10
1482.762218677
 20
911.643086418
 30
0.0
 40
25.0
  0
CIRCLE
  8
0
  6
CONTINUOUS
 62
     2
 10
1482.762218677
 20
911.643086418
 30
0.0
 40
13.221
  0
LINE
  8
0
  6
LTYPE4
 62
     2
 10
1446.262218677
 20
911.643086418
 30
0.0
 11
1518.262218677
 21
911.643086418
 31
0.0
  0
ARC
  8
0
  6
CONTINUOUS
 62
     1
 10
1512.762218677
 20
887.143086418
 30
0.0
 40
10.0
 50
270.0
 51
0.0
  0
LINE
  8
0
  6
CONTINUOUS
 62
     1
 10
1482.762218677
 20
956.143086418
 30
0.0
 11
1512.762218677
 21
956.143086418
 31
0.0
  0
ARC
  8
0
  6
CONTINUOUS
 62
     1
 10
1512.762218677
 20
946.143086418
 30
0.0
 40
10.0
 50
0.0
 51
90.0
  0
LINE
  8
0
  6
CONTINUOUS
 62
     1
 10
1482.762218677
 20
961.143086418
 30
0.0
 11
1522.762218677
 21
961.143086418
 31
0.0
  0
LINE
  8
0
  6
CONTINUOUS
 62
     1
 10
1482.762218677
 20
877.143086418
 30
0.0
 11
1522.762218677
 21
877.143086418
 31
0.0
  0
LINE
  8
0
  6
CONTINUOUS
 62
     1
 10
1513.122345283
 20
877.149573081
 30
0.0
 11
1513.122345283
 21
871.649573081
 31
0.0
  0
CIRCLE
  8
0
  6
CONTINUOUS
 62
     1
 10
1482.762218677
 20
773.143086418
 30
0.0
 40
102.5
  0
CIRCLE
  8
0
  6
LTYPE1
 62
     2
 10
1482.762218677
 20
773.143086418
 30
0.0
 40
100.0
  0
LINE
  8
0
  6
CONTINUOUS
 62
     1
 10
1522.762218677
 20
887.143086418
 30
0.0
 11
1522.762218677
 21
946.143086418
 31
0.0
  0
ARC
  8
0
  6
CONTINUOUS
 62
     1
 10
1522.762218677
 20
951.143086418
 30
0.0
 40
10.0
 50
0.0
 51
90.0
  0
LINE
  8
0
  6
CONTINUOUS
 62
     1
 10
1532.762218677
 20
887.143086418
 30
0.0
 11
1532.762218677
 21
951.143086418
 31
0.0
  0
ARC
  8
0
  6
CONTINUOUS
 62
     1
 10
1522.762218677
 20
887.143086418
 30
0.0
 40
10.0
 50
270.0
 51
0.0
  0
LINE
  8
0
  6
CONTINUOUS
 62
     1
 10
1482.762218677
 20
956.143086418
 30
0.0
 11
1452.762218677
 21
956.143086418
 31
0.0
  0
LINE
  8
0
  6
CONTINUOUS
 62
     1
 10
1442.762218677
 20
887.143086418
 30
0.0
 11
1442.762218677
 21
946.143086418
 31
0.0
  0
ARC
  8
0
  6
CONTINUOUS
 62
     1
 10
1452.762218677
 20
946.143086418
 30
0.0
 40
10.0
 50
90.0
 51
180.0
  0
LINE
  8
0
  6
CONTINUOUS
 62
     1
 10
1482.762218677
 20
961.143086418
 30
0.0
 11
1442.762218677
 21
961.143086418
 31
0.0
  0
ARC
  8
0
  6
CONTINUOUS
 62
     1
 10
1442.762218677
 20
951.143086418
 30
0.0
 40
10.0
 50
90.0
 51
180.0
  0
LINE
  8
0
  6
CONTINUOUS
 62
     1
 10
1432.762218677
 20
887.143086418
 30
0.0
 11
1432.762218677
 21
951.143086418
 31
0.0
  0
ARC
  8
0
  6
CONTINUOUS
 62
     1
 10
1452.762218677
 20
887.143086418
 30
0.0
 40
10.0
 50
180.0
 51
270.0
  0
LINE
  8
0
  6
CONTINUOUS
 62
     1
 10
1482.762218677
 20
877.143086418
 30
0.0
 11
1442.762218677
 21
877.143086418
 31
0.0
  0
ARC
  8
0
  6
CONTINUOUS
 62
     1
 10
1442.762218677
 20
887.143086418
 30
0.0
 40
10.0
 50
180.0
 51
270.0
  0
LINE
  8
0
  6
CONTINUOUS
 62
     1
 10
1452.40209207
 20
877.149573081
 30
0.0
 11
1452.40209207
 21
871.649573081
 31
0.0
  0
ARC
  8
0
  6
CONTINUOUS
 62
     1
 10
1524.012218677
 20
844.590182231
 30
0.0
 40
20.0
 50
330.0
 51
60.0
  0
ARC
  8
0
  6
CONTINUOUS
 62
     1
 10
1524.012218677
 20
844.590182231
 30
0.0
 40
20.0
 50
60.0
 51
150.0
  0
LINE
  8
0
  6
CONTINUOUS
 62
     1
 10
1506.691710601
 20
854.590182231
 30
0.0
 11
1471.215213293
 21
793.143086418
 31
0.0
  0
LINE
  8
0
  6
CONTINUOUS
 62
     1
 10
1486.09555201
 20
792.863352362
 30
0.0
 11
1544.428885343
 21
783.00321939
 31
0.0
  0
LINE
  8
0
  6
LTYPE4
 62
     2
 10
1542.762218677
 20
758.143086418
 30
0.0
 11
1542.762218677
 21
793.143086418
 31
0.0
  0
ARC
  8
0
  6
CONTINUOUS
 62
     1
 10
1542.762218677
 20
773.143086418
 30
0.0
 40
10.0
 50
279.594068227
 51
80.405931773
  0
CIRCLE
  8
0
  6
CONTINUOUS
 62
     1
 10
1542.762218677
 20
773.143086418
 30
0.0
 40
9.0
  0
CIRCLE
  8
0
  6
CONTINUOUS
 62
     1
 10
1482.762218677
 20
773.143086418
 30
0.0
 40
19.0
  0
LINE
  8
0
  6
CONTINUOUS
 62
     1
 10
1541.332726752
 20
834.590182231
 30
0.0
 11
1514.472430515
 21
788.066784441
 31
0.0
  0
LINE
  8
0
  6
CONTINUOUS
 62
     1
 10
1400.262218677
 20
793.143086418
 30
0.0
 11
1471.215213293
 21
793.143086418
 31
0.0
  0
ARC
  8
0
  6
CONTINUOUS
 62
     1
 10
1400.262218677
 20
773.143086418
 30
0.0
 40
20.0
 50
90.0
 51
180.0
  0
ARC
  8
0
  6
CONTINUOUS
 62
     1
 10
1400.262218677
 20
773.143086418
 30
0.0
 40
20.0
 50
180.0
 51
270.0
  0
LINE
  8
0
  6
CONTINUOUS
 62
     1
 10
1400.262218677
 20
753.143086418
 30
0.0
 11
1471.215213293
 21
753.143086418
 31
0.0
  0
LINE
  8
0
  6
CONTINUOUS
 62
     1
 10
1506.691710601
 20
691.695990606
 30
0.0
 11
1471.215213293
 21
753.143086418
 31
0.0
  0
LINE
  8
0
  6
CONTINUOUS
 62
     1
 10
1486.09555201
 20
753.422820475
 30
0.0
 11
1544.428885343
 21
763.282953447
 31
0.0
  0
ARC
  8
0
  6
CONTINUOUS
 62
     1
 10
1482.762218677
 20
773.143086418
 30
0.0
 40
20.0
 50
80.405931773
 51
279.594068227
  0
CIRCLE
  8
0
  6
CONTINUOUS
 62
     1
 10
1469.662218677
 20
773.143086418
 30
0.0
 40
4.0
  0
CIRCLE
  8
0
  6
CONTINUOUS
 62
     1
 10
1482.762218677
 20
760.043086418
 30
0.0
 40
4.0
  0
CIRCLE
  8
0
  6
CONTINUOUS
 62
     1
 10
1495.862218677
 20
773.143086418
 30
0.0
 40
4.0
  0
CIRCLE
  8
0
  6
CONTINUOUS
 62
     1
 10
1482.762218677
 20
786.243086418
 30
0.0
 40
4.0
  0
CIRCLE
  8
0
  6
CONTINUOUS
 62
     1
 10
1482.762218677
 20
773.143086418
 30
0.0
 40
4.0
  0
LINE
  8
0
  6
CONTINUOUS
 62
     1
 10
1541.332726752
 20
711.695990606
 30
0.0
 11
1514.472430515
 21
758.219388396
 31
0.0
  0
ARC
  8
0
  6
CONTINUOUS
 62
     1
 10
1524.012218677
 20
701.695990606
 30
0.0
 40
20.0
 50
300.0
 51
30.0
  0
ARC
  8
0
  6
CONTINUOUS
 62
     1
 10
1524.012218677
 20
701.695990606
 30
0.0
 40
20.0
 50
210.0
 51
300.0
  0
LINE
  8
0
  6
CONTINUOUS
 62
     1
 10
1390.262218677
 20
620.336322708
 30
0.0
 11
1390.262218677
 21
728.984282087
 31
0.0
  0
LINE
  8
0
  6
CONTINUOUS
 62
     1
 10
1575.262218677
 20
620.336322708
 30
0.0
 11
1575.262218677
 21
728.984282087
 31
0.0
  0
LINE
  8
2
  6
CONTINUOUS
 62
     2
 10
1616.40968984
 20
773.143086418
 30
0.0
 11
1629.95968984
 21
773.143086418
 31
0.0
  0
LINE
  8
2
  6
CONTINUOUS
 62
     2
 10
1623.95968984
 20
773.143086418
 30
0.0
 11
1627.841975516
 21
787.631973813
 31
0.0
  0
LINE
  8
2
  6
CONTINUOUS
 62
     2
 10
1623.95968984
 20
773.143086418
 30
0.0
 11
1620.077404163
 21
787.631973813
 31
0.0
  0
LINE
  8
2
  6
CONTINUOUS
 62
     2
 10
1623.95968984
 20
773.143086418
 30
0.0
 11
1623.95968984
 21
961.143086418
 31
0.0
  0
LINE
  8
2
  6
CONTINUOUS
 62
     2
 10
1623.95968984
 20
961.143086418
 30
0.0
 11
1620.077404163
 21
946.654199024
 31
0.0
  0
LINE
  8
2
  6
CONTINUOUS
 62
     2
 10
1623.95968984
 20
961.143086418
 30
0.0
 11
1627.841975516
 21
946.654199024
 31
0.0
  0
LINE
  8
2
  6
CONTINUOUS
 62
     2
 10
1528.762218677
 20
961.143086418
 30
0.0
 11
1629.95968984
 21
961.143086418
 31
0.0
  0
TEXT
  8
2
  6
CONTINUOUS
 62
     3
 10
1620.95968984
 20
842.843086418
 30
0.0
 40
18.0
  1
１８８
 50
90.0
 41
0.9
 51
0.0
  7
KANJI41
  0
LINE
  8
0
  6
LTYPE4
 62
     2
 10
1482.762218677
 20
470.343086418
 30
0.0
 11
1482.762218677
 21
968.943086418
 31
0.0
  0
LINE
  8
2
  6
CONTINUOUS
 62
     2
 10
1609.262218677
 20
961.143086418
 30
0.0
 11
1663.412218677
 21
961.143086418
 31
0.0
  0
LINE
  8
2
  6
CONTINUOUS
 62
     2
 10
1657.412218677
 20
961.143086418
 30
0.0
 11
1653.529933
 21
946.654199024
 31
0.0
  0
LINE
  8
2
  6
CONTINUOUS
 62
     2
 10
1657.412218677
 20
961.143086418
 30
0.0
 11
1661.294504353
 21
946.654199024
 31
0.0
  0
LINE
  8
2
  6
CONTINUOUS
 62
     2
 10
1657.412218677
 20
961.143086418
 30
0.0
 11
1657.412218677
 21
478.143086418
 31
0.0
  0
LINE
  8
2
  6
CONTINUOUS
 62
     2
 10
1657.412218677
 20
478.143086418
 30
0.0
 11
1661.294504353
 21
492.631973813
 31
0.0
  0
LINE
  8
2
  6
CONTINUOUS
 62
     2
 10
1657.412218677
 20
478.143086418
 30
0.0
 11
1653.529933
 21
492.631973813
 31
0.0
  0
LINE
  8
2
  6
CONTINUOUS
 62
     2
 10
1612.112218677
 20
478.143086418
 30
0.0
 11
1663.412218677
 21
478.143086418
 31
0.0
  0
TEXT
  8
2
  6
CONTINUOUS
 62
     3
 10
1654.412218677
 20
695.343086418
 30
0.0
 40
18.0
  1
４８３
 50
90.0
 41
0.9
 51
0.0
  7
KANJI41
  0
TEXT
  8
0
  6
CONTINUOUS
 62
     2
 10
2221.92
 20
907.5
 30
12.0
 40
21.0
  1
別切り
 50
0.0
 41
0.9
 51
0.0
  7
KANJI42
  0
TEXT
  8
0
  6
CONTINUOUS
 62
     2
 10
2164.92
 20
1328.7
 30
0.0
 40
18.0
  1
　３９Ｎ．ｍ（４ｋｇ．ｍ）
 50
0.0
 41
0.833333333
 51
0.0
  7
KANJI43
  0
TEXT
  8
0
  6
CONTINUOUS
 62
     2
 10
2155.92
 20
1160.7
 30
1.8
 40
18.0
  1
　１．５ＫＷ
 50
0.0
 41
0.9
 51
0.0
  7
KANJI28
  0
LINE
  8
0
  6
CONTINUOUS
 62
     1
 10
1604.0178
 20
1669.79972
 30
0.0
 11
1604.0178
 21
1539.80024
 31
0.0
  0
LINE
  8
0
  6
CONTINUOUS
 62
     2
 10
1529.0181
 20
1669.79972
 30
0.0
 11
1529.0181
 21
1539.80024
 31
0.0
  0
LINE
  8
0
  6
CONTINUOUS
 62
     2
 10
1454.0184
 20
1669.79972
 30
0.0
 11
1454.0184
 21
1539.80024
 31
0.0
  0
LINE
  8
0
  6
CONTINUOUS
 62
     1
 10
1354.0188
 20
1669.79972
 30
0.0
 11
1354.0188
 21
1539.80024
 31
0.0
  0
LINE
  8
0
  6
CONTINUOUS
 62
     1
 10
1354.0188
 20
1669.79972
 30
0.0
 11
1604.0178
 21
1669.79972
 31
0.0
  0
LINE
  8
0
  6
CONTINUOUS
 62
     1
 10
1354.0188
 20
1629.79988
 30
0.0
 11
1604.0178
 21
1629.79988
 31
0.0
  0
LINE
  8
0
  6
CONTINUOUS
 62
     2
 10
1354.0188
 20
1599.8
 30
0.0
 11
1604.0178
 21
1599.8
 31
0.0
  0
LINE
  8
0
  6
CONTINUOUS
 62
     2
 10
1354.0188
 20
1569.80012
 30
0.0
 11
1604.0178
 21
1569.80012
 31
0.0
  0
LINE
  8
0
  6
CONTINUOUS
 62
     1
 10
1354.0188
 20
1539.80024
 30
0.0
 11
1604.0178
 21
1539.80024
 31
0.0
  0
TEXT
  8
0
  6
CONTINUOUS
 62
     2
 10
1539.01806
 20
1652.29979
 30
1.499994
 40
14.99994
  1
起動電流
 50
0.0
 41
0.9
 51
0.0
  7
KANJI44
  0
TEXT
  8
0
  6
CONTINUOUS
 62
     2
 10
1539.01806
 20
1634.79986
 30
1.499994
 40
14.99994
  1
　　　Ａ
 50
0.0
 41
0.9
 51
0.0
  7
KANJI44
  0
TEXT
  8
0
  6
CONTINUOUS
 62
     2
 10
1464.01836
 20
1652.29979
 30
1.499994
 40
14.99994
  1
定格電流
 50
0.0
 41
0.9
 51
0.0
  7
KANJI44
  0
TEXT
  8
0
  6
CONTINUOUS
 62
     2
 10
1464.01836
 20
1634.79986
 30
1.499994
 40
14.99994
  1
　　　Ａ
 50
0.0
 41
0.9
 51
0.0
  7
KANJI44
  0
TEXT
  8
0
  6
CONTINUOUS
 62
     2
 10
1362.518766
 20
1577.30009
 30
1.499994
 40
14.99994
  1
２００／６０
 50
0.0
 41
0.9
 51
0.0
  7
KANJI44
  0
TEXT
  8
0
  6
CONTINUOUS
 62
     2
 10
1362.518766
 20
1652.29979
 30
1.499994
 40
14.99994
  1
電圧／周波数
 50
0.0
 41
0.9
 51
0.0
  7
KANJI44
  0
TEXT
  8
0
  6
CONTINUOUS
 62
     2
 10
1362.518766
 20
1634.79986
 30
1.499994
 40
14.99994
  1
　Ｖ／Ｈｚ
 50
0.0
 41
0.9
 51
0.0
  7
KANJI44
  0
TEXT
  8
0
  6
CONTINUOUS
 62
     2
 10
1362.518766
 20
1607.29997
 30
1.499994
 40
14.99994
  1
２００／５０
 50
0.0
 41
0.9
 51
0.0
  7
KANJI44
  0
TEXT
  8
0
  6
CONTINUOUS
 62
     2
 10
1362.518766
 20
1547.30021
 30
1.499994
 40
14.99994
  1
２２０／６０
 50
0.0
 41
0.9
 51
0.0
  7
KANJI44
  0
LINE
  8
0
  6
CONTINUOUS
 62
     1
 10
1304.019
 20
1669.79972
 30
0.0
 11
1304.019
 21
1539.80024
 31
0.0
  0
LINE
  8
0
  6
CONTINUOUS
 62
     2
 10
1229.0193
 20
1669.79972
 30
0.0
 11
1229.0193
 21
1539.80024
 31
0.0
  0
LINE
  8
0
  6
CONTINUOUS
 62
     2
 10
1154.0196
 20
1669.79972
 30
0.0
 11
1154.0196
 21
1539.80024
 31
0.0
  0
LINE
  8
0
  6
CONTINUOUS
 62
     1
 10
1054.02
 20
1669.79972
 30
0.0
 11
1304.019
 21
1669.79972
 31
0.0
  0
LINE
  8
0
  6
CONTINUOUS
 62
     1
 10
1054.02
 20
1629.79988
 30
0.0
 11
1304.019
 21
1629.79988
 31
0.0
  0
LINE
  8
0
  6
CONTINUOUS
 62
     2
 10
1054.02
 20
1599.8
 30
0.0
 11
1304.019
 21
1599.8
 31
0.0
  0
LINE
  8
0
  6
CONTINUOUS
 62
     2
 10
1054.02
 20
1569.80012
 30
0.0
 11
1304.019
 21
1569.80012
 31
0.0
  0
LINE
  8
0
  6
CONTINUOUS
 62
     1
 10
1054.02
 20
1539.80024
 30
0.0
 11
1304.019
 21
1539.80024
 31
0.0
  0
TEXT
  8
0
  6
CONTINUOUS
 62
     2
 10
1239.01926
 20
1652.29979
 30
1.499994
 40
14.99994
  1
起動電流
 50
0.0
 41
0.9
 51
0.0
  7
KANJI44
  0
TEXT
  8
0
  6
CONTINUOUS
 62
     2
 10
1239.01926
 20
1634.79986
 30
1.499994
 40
14.99994
  1
　　　Ａ
 50
0.0
 41
0.9
 51
0.0
  7
KANJI44
  0
TEXT
  8
0
  6
CONTINUOUS
 62
     2
 10
1164.01956
 20
1652.29979
 30
1.499994
 40
14.99994
  1
定格電流
 50
0.0
 41
0.9
 51
0.0
  7
KANJI44
  0
TEXT
  8
0
  6
CONTINUOUS
 62
     2
 10
1164.01956
 20
1634.79986
 30
1.499994
 40
14.99994
  1
　　　Ａ
 50
0.0
 41
0.9
 51
0.0
  7
KANJI44
  0
TEXT
  8
0
  6
CONTINUOUS
 62
     2
 10
1062.519966
 20
1652.29979
 30
1.499994
 40
14.99994
  1
電圧／周波数
 50
0.0
 41
0.9
 51
0.0
  7
KANJI44
  0
TEXT
  8
0
  6
CONTINUOUS
 62
     2
 10
1062.519966
 20
1634.79986
 30
1.499994
 40
14.99994
  1
　Ｖ／Ｈｚ
 50
0.0
 41
0.9
 51
0.0
  7
KANJI44
  0
TEXT
  8
0
  6
CONTINUOUS
 62
     2
 10
1062.519966
 20
1607.29997
 30
1.499994
 40
14.99994
  1
４００／５０
 50
0.0
 41
0.9
 51
0.0
  7
KANJI44
  0
TEXT
  8
0
  6
CONTINUOUS
 62
     2
 10
1062.519966
 20
1577.30009
 30
1.499994
 40
14.99994
  1
４００／６０
 50
0.0
 41
0.9
 51
0.0
  7
KANJI44
  0
TEXT
  8
0
  6
CONTINUOUS
 62
     2
 10
1062.519966
 20
1547.30021
 30
1.499994
 40
14.99994
  1
４４０／６０
 50
0.0
 41
0.9
 51
0.0
  7
KANJI44
  0
TEXT
  8
0
  6
CONTINUOUS
 62
     2
 10
1164.01956
 20
1607.29997
 30
1.499994
 40
14.99994
  1
　　３．４
 50
0.0
 41
0.9
 51
0.0
  7
KANJI44
  0
TEXT
  8
0
  6
CONTINUOUS
 62
     2
 10
1164.01956
 20
1547.30021
 30
1.499994
 40
14.99994
  1
　　３．０
 50
0.0
 41
0.9
 51
0.0
  7
KANJI44
  0
TEXT
  8
0
  6
CONTINUOUS
 62
     2
 10
1464.01836
 20
1607.29997
 30
1.499994
 40
14.99994
  1
　　６．８
 50
0.0
 41
0.9
 51
0.0
  7
KANJI44
  0
TEXT
  8
0
  6
CONTINUOUS
 62
     2
 10
1464.01836
 20
1547.30021
 30
1.499994
 40
14.99994
  1
　　６．０
 50
0.0
 41
0.9
 51
0.0
  7
KANJI44
  0
TEXT
  8
0
  6
CONTINUOUS
 62
     2
 10
1539.01806
 20
1607.29997
 30
1.499994
 40
14.99994
  1
４４．０
 50
0.0
 41
0.9
 51
0.0
  7
KANJI44
  0
LINE
  8
0
  6
CONTINUOUS
 62
     1
 10
1054.02
 20
1669.79972
 30
0.0
 11
1054.02
 21
1539.80024
 31
0.0
  0
TEXT
  8
0
  6
CONTINUOUS
 62
     2
 10
1164.01956
 20
1577.30009
 30
1.499994
 40
14.99994
  1
　　３．１
 50
0.0
 41
0.9
 51
0.0
  7
KANJI44
  0
TEXT
  8
0
  6
CONTINUOUS
 62
     2
 10
1464.01836
 20
1577.30009
 30
1.499994
 40
14.99994
  1
　　６．２
 50
0.0
 41
0.9
 51
0.0
  7
KANJI44
  0
LINE
  8
0
  6
CONTINUOUS
 62
     1
 10
1087.171366776
 20
657.143086418
 30
0.0
 11
1087.171366776
 21
597.143086418
 31
0.0
  0
LINE
  8
0
  6
CONTINUOUS
 62
     1
 10
1081.617474913
 20
672.143086418
 30
0.0
 11
1081.617474913
 21
597.143086418
 31
0.0
  0
LINE
  8
0
  6
CONTINUOUS
 62
     1
 10
1076.063582376
 20
657.143086418
 30
0.0
 11
1076.063582376
 21
597.143086418
 31
0.0
  0
LINE
  8
0
  6
CONTINUOUS
 62
     1
 10
1070.50968984
 20
672.143086418
 30
0.0
 11
1070.50968984
 21
597.143086418
 31
0.0
  0
LINE
  8
0
  6
CONTINUOUS
 62
     1
 10
1065.18722658
 20
597.143086418
 30
0.0
 11
1065.18722658
 21
655.143086418
 31
0.0
  0
LINE
  8
0
  6
CONTINUOUS
 62
     1
 10
1060.18722658
 20
597.143086418
 30
0.0
 11
1060.18722658
 21
657.143086418
 31
0.0
  0
LINE
  8
0
  6
CONTINUOUS
 62
     1
 10
1050.18722658
 20
597.143086418
 30
0.0
 11
1050.18722658
 21
657.143086418
 31
0.0
  0
LINE
  8
0
  6
CONTINUOUS
 62
     1
 10
1045.18722658
 20
597.143086418
 30
0.0
 11
1045.18722658
 21
655.143086418
 31
0.0
  0
LINE
  8
0
  6
CONTINUOUS
 62
     1
 10
1161.962218677
 20
597.143086418
 30
0.0
 11
1161.962218677
 21
642.643086418
 31
0.0
  0
LINE
  8
0
  6
CONTINUOUS
 62
     1
 10
1161.962218677
 20
551.643086418
 30
0.0
 11
1161.962218677
 21
622.143086418
 31
0.0
  0
LINE
  8
0
  6
CONTINUOUS
 62
     1
 10
1146.962218677
 20
597.143086418
 30
0.0
 11
1146.962218677
 21
644.643086418
 31
0.0
  0
LINE
  8
0
  6
CONTINUOUS
 62
     1
 10
1156.962218677
 20
597.143086418
 30
0.0
 11
1156.962218677
 21
644.643086418
 31
0.0
  0
LINE
  8
0
  6
CONTINUOUS
 62
     1
 10
1141.962218677
 20
597.143086418
 30
0.0
 11
1141.962218677
 21
655.143086418
 31
0.0
  0
LINE
  8
0
  6
CONTINUOUS
 62
     1
 10
1136.639754069
 20
672.143086418
 30
0.0
 11
1136.639754069
 21
597.143086418
 31
0.0
  0
LINE
  8
0
  6
CONTINUOUS
 62
     1
 10
1131.085862206
 20
657.143086418
 30
0.0
 11
1131.085862206
 21
597.143086418
 31
0.0
  0
LINE
  8
0
  6
CONTINUOUS
 62
     1
 10
1125.531970344
 20
672.143086418
 30
0.0
 11
1125.531970344
 21
597.143086418
 31
0.0
  0
LINE
  8
0
  6
CONTINUOUS
 62
     1
 10
1119.978078481
 20
657.143086418
 30
0.0
 11
1119.978078481
 21
597.143086418
 31
0.0
  0
LINE
  8
0
  6
CONTINUOUS
 62
     1
 10
1161.962218677
 20
564.143086418
 30
0.0
 11
1161.962218677
 21
635.143086418
 31
0.0
  0
LINE
  8
0
  6
CONTINUOUS
 62
     1
 10
1161.962218677
 20
597.143086418
 30
0.0
 11
1161.962218677
 21
630.143086418
 31
0.0
  0
LINE
  8
0
  6
LTYPE1
 62
     2
 10
1191.962218677
 20
567.143086418
 30
0.0
 11
1191.962218677
 21
627.143086418
 31
0.0
  0
CIRCLE
  8
0
  6
CONTINUOUS
 62
     1
 10
1221.962218677
 20
597.143086418
 30
0.0
 40
22.0
  0
CIRCLE
  8
0
  6
CONTINUOUS
 62
     1
 10
1221.962218677
 20
612.643086418
 30
0.0
 40
3.0
  0
LINE
  8
0
  6
LTYPE3
 62
     2
 10
1221.962218677
 20
572.143086418
 30
0.0
 11
1221.962218677
 21
626.943086418
 31
0.0
  0
ARC
  8
0
  6
CONTINUOUS
 62
     1
 10
1243.962218677
 20
619.143086418
 30
0.0
 40
8.0
 50
0.0
 51
90.0
  0
LINE
  8
0
  6
CONTINUOUS
 62
     1
 10
1251.962218677
 20
575.143086418
 30
0.0
 11
1251.962218677
 21
619.143086418
 31
0.0
  0
LINE
  8
2
  6
CONTINUOUS
 62
     2
 10
1293.962218677
 20
627.143086418
 30
0.0
 11
1290.726980613
 21
615.06901359
 31
0.0
  0
LINE
  8
2
  6
CONTINUOUS
 62
     2
 10
1293.962218677
 20
627.143086418
 30
0.0
 11
1297.19745674
 21
615.06901359
 31
0.0
  0
LINE
  8
2
  6
CONTINUOUS
 62
     2
 10
1293.962218677
 20
627.143086418
 30
0.0
 11
1293.962218677
 21
567.143086418
 31
0.0
  0
LINE
  8
0
  6
CONTINUOUS
 62
     1
 10
1162.962218677
 20
627.143086418
 30
0.0
 11
1243.962218677
 21
627.143086418
 31
0.0
  0
CIRCLE
  8
0
  6
CONTINUOUS
 62
     1
 10
1221.962218677
 20
597.143086418
 30
0.0
 40
12.5
  0
LINE
  8
2
  6
CONTINUOUS
 62
     2
 10
1248.962218677
 20
627.143086418
 30
0.0
 11
1303.962218677
 21
627.143086418
 31
0.0
  0
TEXT
  8
2
  6
CONTINUOUS
 62
     2
 10
1288.962218677
 20
580.393086418
 30
0.0
 40
18.0
  1
６０
 50
90.0
 41
0.9
 51
0.0
  7
KANJI41
  0
ARC
  8
0
  6
CONTINUOUS
 62
     1
 10
1243.962218677
 20
575.143086418
 30
0.0
 40
8.0
 50
270.0
 51
0.0
  0
LINE
  8
2
  6
CONTINUOUS
 62
     2
 10
1248.962218677
 20
567.143086418
 30
0.0
 11
1303.962218677
 21
567.143086418
 31
0.0
  0
LINE
  8
0
  6
CONTINUOUS
 62
     1
 10
1096.762218677
 20
567.143086418
 30
0.0
 11
1243.962218677
 21
567.143086418
 31
0.0
  0
LINE
  8
2
  6
CONTINUOUS
 62
     2
 10
1293.962218677
 20
567.143086418
 30
0.0
 11
1297.19745674
 21
579.217159247
 31
0.0
  0
LINE
  8
2
  6
CONTINUOUS
 62
     2
 10
1293.962218677
 20
567.143086418
 30
0.0
 11
1290.726980613
 21
579.217159247
 31
0.0
  0
LINE
  8
0
  6
CONTINUOUS
 62
     1
 10
1217.762218677
 20
580.343086418
 30
0.0
 11
1219.762218677
 21
580.043086418
 31
0.0
  0
LINE
  8
0
  6
CONTINUOUS
 62
     1
 10
1220.262218677
 20
584.743086418
 30
0.0
 11
1220.026834061
 21
583.173855649
 31
0.0
  0
LINE
  8
0
  6
CONTINUOUS
 62
     1
 10
1220.026834061
 20
583.173855649
 30
0.0
 11
1217.762218677
 21
580.343086418
 31
0.0
  0
LINE
  8
0
  6
CONTINUOUS
 62
     1
 10
1221.962218677
 20
582.743086418
 30
0.0
 11
1219.762218677
 21
580.043086418
 31
0.0
  0
LINE
  8
0
  6
CONTINUOUS
 62
     1
 10
1226.162218677
 20
580.343086418
 30
0.0
 11
1224.162218677
 21
580.043086418
 31
0.0
  0
LINE
  8
0
  6
CONTINUOUS
 62
     1
 10
1223.662218677
 20
584.743086418
 30
0.0
 11
1223.897603292
 21
583.173855649
 31
0.0
  0
LINE
  8
0
  6
CONTINUOUS
 62
     1
 10
1223.897603292
 20
583.173855649
 30
0.0
 11
1226.162218677
 21
580.343086418
 31
0.0
  0
LINE
  8
0
  6
CONTINUOUS
 62
     1
 10
1221.962218677
 20
582.743086418
 30
0.0
 11
1224.162218677
 21
580.043086418
 31
0.0
  0
LINE
  8
0
  6
LTYPE5
 62
     2
 10
1087.171366776
 20
537.143086418
 30
0.0
 11
1119.978078481
 21
537.143086418
 31
0.0
  0
LINE
  8
0
  6
LTYPE5
 62
     2
 10
1081.617474913
 20
522.143086418
 30
0.0
 11
1125.531970344
 21
522.143086418
 31
0.0
  0
ARC
  8
0
  6
CONTINUOUS
 62
     1
 10
1131.085862206
 20
536.143086418
 30
0.0
 40
1.0
 50
15.0
 51
90.0
  0
ARC
  8
0
  6
CONTINUOUS
 62
     1
 10
1131.085862206
 20
536.143086418
 30
0.0
 40
1.0
 50
90.0
 51
165.0
  0
LINE
  8
0
  6
CONTINUOUS
 62
     1
 10
1130.11993638
 20
536.401905464
 30
0.0
 11
1126.49789617
 21
522.884267373
 31
0.0
  0
ARC
  8
0
  6
CONTINUOUS
 62
     1
 10
1125.531970344
 20
523.143086418
 30
0.0
 40
1.0
 50
270.0
 51
345.0
  0
ARC
  8
0
  6
CONTINUOUS
 62
     1
 10
1125.531970344
 20
523.143086418
 30
0.0
 40
1.0
 50
195.0
 51
270.0
  0
LINE
  8
0
  6
CONTINUOUS
 62
     1
 10
1120.944004308
 20
536.401905464
 30
0.0
 11
1124.566044517
 21
522.884267373
 31
0.0
  0
ARC
  8
0
  6
CONTINUOUS
 62
     1
 10
1119.978078481
 20
536.143086418
 30
0.0
 40
1.0
 50
15.0
 51
90.0
  0
ARC
  8
0
  6
CONTINUOUS
 62
     1
 10
1136.639754069
 20
523.143086418
 30
0.0
 40
1.0
 50
270.0
 51
345.0
  0
ARC
  8
0
  6
CONTINUOUS
 62
     1
 10
1136.639754069
 20
523.143086418
 30
0.0
 40
1.0
 50
195.0
 51
270.0
  0
LINE
  8
0
  6
CONTINUOUS
 62
     1
 10
1132.051788032
 20
536.401905464
 30
0.0
 11
1135.673828242
 21
522.884267373
 31
0.0
  0
LINE
  8
0
  6
CONTINUOUS
 62
     1
 10
1141.962217328
 20
539.143086418
 30
0.0
 11
1137.605679895
 21
522.884267373
 31
0.0
  0
LINE
  8
0
  6
CONTINUOUS
 62
     1
 10
1156.962218677
 20
549.643086418
 30
0.0
 11
1146.962218677
 21
549.643086418
 31
0.0
  0
LINE
  8
0
  6
CONTINUOUS
 62
     1
 10
1161.962218677
 20
551.643086418
 30
0.0
 11
1141.962217328
 21
551.643086418
 31
0.0
  0
LINE
  8
0
  6
CONTINUOUS
 62
     1
 10
1141.962217328
 20
539.143086418
 30
0.0
 11
1141.962217328
 21
567.143086418
 31
0.0
  0
LINE
  8
0
  6
CONTINUOUS
 62
     1
 10
1065.18722658
 20
539.143086418
 30
0.0
 11
1069.543764013
 21
522.884267373
 31
0.0
  0
ARC
  8
0
  6
CONTINUOUS
 62
     1
 10
1070.50968984
 20
523.143086418
 30
0.0
 40
1.0
 50
195.0
 51
270.0
  0
ARC
  8
0
  6
CONTINUOUS
 62
     1
 10
1070.509690514
 20
523.143086418
 30
0.0
 40
1.0
 50
270.0
 51
345.0
  0
LINE
  8
0
  6
CONTINUOUS
 62
     1
 10
1075.09765655
 20
536.401905464
 30
0.0
 11
1071.47561634
 21
522.884267373
 31
0.0
  0
LINE
  8
0
  6
CONTINUOUS
 62
     1
 10
1077.029508877
 20
536.401905464
 30
0.0
 11
1080.651549087
 21
522.884267373
 31
0.0
  0
ARC
  8
0
  6
CONTINUOUS
 62
     1
 10
1081.617474913
 20
523.143086418
 30
0.0
 40
1.0
 50
195.0
 51
270.0
  0
ARC
  8
0
  6
CONTINUOUS
 62
     1
 10
1081.617474913
 20
523.143086418
 30
0.0
 40
1.0
 50
270.0
 51
345.0
  0
LINE
  8
0
  6
CONTINUOUS
 62
     1
 10
1086.205440949
 20
536.401905464
 30
0.0
 11
1082.583400739
 21
522.884267373
 31
0.0
  0
ARC
  8
0
  6
CONTINUOUS
 62
     1
 10
1076.063582376
 20
536.143086418
 30
0.0
 40
1.0
 50
90.0
 51
165.0
  0
ARC
  8
0
  6
CONTINUOUS
 62
     1
 10
1076.063583051
 20
536.143086418
 30
0.0
 40
1.0
 50
15.0
 51
90.0
  0
LINE
  8
0
  6
CONTINUOUS
 62
     1
 10
1050.18722658
 20
537.143086418
 30
0.0
 11
1060.18722658
 21
537.143086418
 31
0.0
  0
LINE
  8
0
  6
CONTINUOUS
 62
     1
 10
1060.131970344
 20
539.143086418
 30
0.0
 11
1065.18722658
 21
539.143086418
 31
0.0
  0
LINE
  8
0
  6
CONTINUOUS
 62
     1
 10
1045.18722658
 20
539.143086418
 30
0.0
 11
1060.18722658
 21
539.143086418
 31
0.0
  0
LINE
  8
0
  6
CONTINUOUS
 62
     1
 10
1060.18722658
 20
537.143086418
 30
0.0
 11
1060.18722658
 21
539.443086418
 31
0.0
  0
LINE
  8
0
  6
CONTINUOUS
 62
     1
 10
1066.762218677
 20
542.143086418
 30
0.0
 11
1066.762218677
 21
597.143086418
 31
0.0
  0
LINE
  8
0
  6
CONTINUOUS
 62
     1
 10
1096.762218677
 20
542.143086418
 30
0.0
 11
1096.762218677
 21
597.143086418
 31
0.0
  0
LINE
  8
0
  6
LTYPE5
 62
     2
 10
1087.171366776
 20
657.143086418
 30
0.0
 11
1119.978078481
 21
657.143086418
 31
0.0
  0
LINE
  8
0
  6
LTYPE5
 62
     2
 10
1081.617474913
 20
672.143086418
 30
0.0
 11
1125.531970344
 21
672.143086418
 31
0.0
  0
ARC
  8
0
  6
CONTINUOUS
 62
     1
 10
1125.531970344
 20
671.143086418
 30
0.0
 40
1.0
 50
90.0
 51
165.0
  0
LINE
  8
0
  6
CONTINUOUS
 62
     1
 10
1120.944004308
 20
657.884267373
 30
0.0
 11
1124.566044517
 21
671.401905464
 31
0.0
  0
ARC
  8
0
  6
CONTINUOUS
 62
     1
 10
1119.978078481
 20
658.143086418
 30
0.0
 40
1.0
 50
270.0
 51
345.0
  0
ARC
  8
0
  6
CONTINUOUS
 62
     1
 10
1136.639754069
 20
671.143086418
 30
0.0
 40
1.0
 50
15.0
 51
90.0
  0
ARC
  8
0
  6
CONTINUOUS
 62
     1
 10
1136.639754069
 20
671.143086418
 30
0.0
 40
1.0
 50
90.0
 51
165.0
  0
LINE
  8
0
  6
CONTINUOUS
 62
     1
 10
1132.051788032
 20
657.884267373
 30
0.0
 11
1135.673828242
 21
671.401905464
 31
0.0
  0
ARC
  8
0
  6
CONTINUOUS
 62
     1
 10
1131.085862206
 20
658.143086418
 30
0.0
 40
1.0
 50
270.0
 51
345.0
  0
ARC
  8
0
  6
CONTINUOUS
 62
     1
 10
1131.085862206
 20
658.143086418
 30
0.0
 40
1.0
 50
195.0
 51
270.0
  0
LINE
  8
0
  6
CONTINUOUS
 62
     1
 10
1130.11993638
 20
657.884267373
 30
0.0
 11
1126.49789617
 21
671.401905464
 31
0.0
  0
ARC
  8
0
  6
CONTINUOUS
 62
     1
 10
1125.531970344
 20
671.143086418
 30
0.0
 40
1.0
 50
15.0
 51
90.0
  0
LINE
  8
0
  6
CONTINUOUS
 62
     1
 10
1141.962217328
 20
655.143086418
 30
0.0
 11
1137.605679895
 21
671.401905464
 31
0.0
  0
LINE
  8
0
  6
CONTINUOUS
 62
     1
 10
1156.962218677
 20
644.643086418
 30
0.0
 11
1146.962218677
 21
644.643086418
 31
0.0
  0
LINE
  8
0
  6
CONTINUOUS
 62
     1
 10
1161.962218677
 20
642.643086418
 30
0.0
 11
1157.017474913
 21
642.643086418
 31
0.0
  0
LINE
  8
0
  6
CONTINUOUS
 62
     1
 10
1147.017474913
 20
642.643086418
 30
0.0
 11
1141.962217328
 21
642.643086418
 31
0.0
  0
LINE
  8
0
  6
CONTINUOUS
 62
     1
 10
1065.18722658
 20
655.143086418
 30
0.0
 11
1069.543764013
 21
671.401905464
 31
0.0
  0
LINE
  8
0
  6
CONTINUOUS
 62
     1
 10
1075.09765655
 20
657.884267373
 30
0.0
 11
1071.47561634
 21
671.401905464
 31
0.0
  0
ARC
  8
0
  6
CONTINUOUS
 62
     1
 10
1076.063582376
 20
658.143086418
 30
0.0
 40
1.0
 50
195.0
 51
270.0
  0
ARC
  8
0
  6
CONTINUOUS
 62
     1
 10
1076.063583051
 20
658.143086418
 30
0.0
 40
1.0
 50
270.0
 51
345.0
  0
LINE
  8
0
  6
CONTINUOUS
 62
     1
 10
1077.029508877
 20
657.884267373
 30
0.0
 11
1080.651549087
 21
671.401905464
 31
0.0
  0
LINE
  8
0
  6
CONTINUOUS
 62
     1
 10
1086.205440949
 20
657.884267373
 30
0.0
 11
1082.583400739
 21
671.401905464
 31
0.0
  0
ARC
  8
0
  6
CONTINUOUS
 62
     1
 10
1087.171366776
 20
658.143086418
 30
0.0
 40
1.0
 50
195.0
 51
270.0
  0
LINE
  8
0
  6
CONTINUOUS
 62
     1
 10
1050.18722658
 20
657.143086418
 30
0.0
 11
1060.18722658
 21
657.143086418
 31
0.0
  0
LINE
  8
0
  6
CONTINUOUS
 62
     1
 10
1060.131970344
 20
655.143086418
 30
0.0
 11
1065.18722658
 21
655.143086418
 31
0.0
  0
LINE
  8
0
  6
CONTINUOUS
 62
     1
 10
1045.18722658
 20
655.143086418
 30
0.0
 11
1050.131970344
 21
655.143086418
 31
0.0
  0
ARC
  8
0
  6
CONTINUOUS
 62
     1
 10
1070.50968984
 20
671.143086418
 30
0.0
 40
1.0
 50
90.0
 51
165.0
  0
ARC
  8
0
  6
CONTINUOUS
 62
     1
 10
1070.509690514
 20
671.143086418
 30
0.0
 40
1.0
 50
15.0
 51
90.0
  0
ARC
  8
0
  6
CONTINUOUS
 62
     1
 10
1081.617474913
 20
671.143086418
 30
0.0
 40
1.0
 50
90.0
 51
165.0
  0
ARC
  8
0
  6
CONTINUOUS
 62
     1
 10
1081.617474913
 20
671.143086418
 30
0.0
 40
1.0
 50
15.0
 51
90.0
  0
LINE
  8
0
  6
LTYPE2
 62
     2
 10
984.45968984
 20
597.143086418
 30
0.0
 11
893.45968984
 21
597.143086418
 31
0.0
  0
LINE
  8
0
  6
LTYPE2
 62
     2
 10
1254.962218677
 20
597.143086418
 30
0.0
 11
1007.762218677
 21
597.143086418
 31
0.0
  0
LINE
  8
0
  6
LTYPE4
 62
     2
 10
1222.962218677
 20
891.443086418
 30
0.0
 11
1238.962218677
 21
891.443086418
 31
0.0
  0
CIRCLE
  8
0
  6
CONTINUOUS
 62
     1
 10
1229.962218677
 20
891.443086418
 30
0.0
 40
3.0
  0
LINE
  8
0
  6
CONTINUOUS
 62
     1
 10
1184.962218677
 20
868.843086418
 30
0.0
 11
1259.962218677
 21
868.843086418
 31
0.0
  0
LINE
  8
0
  6
CONTINUOUS
 62
     1
 10
1259.962218677
 20
883.843086418
 30
0.0
 11
1259.962218677
 21
868.843086418
 31
0.0
  0
LINE
  8
0
  6
CONTINUOUS
 62
     1
 10
1184.962218677
 20
853.843086418
 30
0.0
 11
1184.962218677
 21
868.843086418
 31
0.0
  0
LINE
  8
0
  6
CONTINUOUS
 62
     1
 10
1255.462218677
 20
887.843086418
 30
0.0
 11
1255.462218677
 21
883.843086418
 31
0.0
  0
LINE
  8
0
  6
CONTINUOUS
 62
     1
 10
1242.462218677
 20
897.843086418
 30
0.0
 11
1242.462218677
 21
887.843086418
 31
0.0
  0
LINE
  8
0
  6
LTYPE1
 62
     2
 10
1242.462218677
 20
868.843086418
 30
0.0
 11
1242.462218677
 21
883.843086418
 31
0.0
  0
LINE
  8
0
  6
CONTINUOUS
 62
     1
 10
1242.462218677
 20
853.843086418
 30
0.0
 11
1242.462218677
 21
868.843086418
 31
0.0
  0
LINE
  8
0
  6
CONTINUOUS
 62
     1
 10
1204.462218677
 20
887.843086418
 30
0.0
 11
1204.462218677
 21
883.843086418
 31
0.0
  0
LINE
  8
0
  6
LTYPE1
 62
     2
 10
1217.462218677
 20
868.843086418
 30
0.0
 11
1217.462218677
 21
883.843086418
 31
0.0
  0
LINE
  8
0
  6
CONTINUOUS
 62
     1
 10
1217.462218677
 20
853.843086418
 30
0.0
 11
1217.462218677
 21
868.843086418
 31
0.0
  0
LINE
  8
0
  6
CONTINUOUS
 62
     1
 10
1217.462218677
 20
897.843086418
 30
0.0
 11
1217.462218677
 21
887.843086418
 31
0.0
  0
LINE
  8
0
  6
CONTINUOUS
 62
     1
 10
1217.462218677
 20
897.843086418
 30
0.0
 11
1242.462218677
 21
897.843086418
 31
0.0
  0
LINE
  8
0
  6
CONTINUOUS
 62
     1
 10
1204.462218677
 20
887.843086418
 30
0.0
 11
1255.462218677
 21
887.843086418
 31
0.0
  0
LINE
  8
0
  6
LTYPE4
 62
     2
 10
1222.962218677
 20
816.243086418
 30
0.0
 11
1238.962218677
 21
816.243086418
 31
0.0
  0
CIRCLE
  8
0
  6
CONTINUOUS
 62
     1
 10
1229.962218677
 20
816.243086418
 30
0.0
 40
3.0
  0
LINE
  8
0
  6
CONTINUOUS
 62
     1
 10
1184.962218677
 20
838.843086418
 30
0.0
 11
1259.962218677
 21
838.843086418
 31
0.0
  0
LINE
  8
0
  6
CONTINUOUS
 62
     1
 10
1259.962218677
 20
823.843086418
 30
0.0
 11
1259.962218677
 21
838.843086418
 31
0.0
  0
LINE
  8
0
  6
CONTINUOUS
 62
     1
 10
1184.962218677
 20
853.843086418
 30
0.0
 11
1184.962218677
 21
838.843086418
 31
0.0
  0
LINE
  8
0
  6
CONTINUOUS
 62
     1
 10
1255.462218677
 20
819.843086418
 30
0.0
 11
1255.462218677
 21
823.843086418
 31
0.0
  0
LINE
  8
0
  6
CONTINUOUS
 62
     1
 10
1242.462218677
 20
809.843086418
 30
0.0
 11
1242.462218677
 21
819.843086418
 31
0.0
  0
LINE
  8
0
  6
LTYPE1
 62
     2
 10
1242.462218677
 20
838.843086418
 30
0.0
 11
1242.462218677
 21
823.843086418
 31
0.0
  0
LINE
  8
0
  6
CONTINUOUS
 62
     1
 10
1242.462218677
 20
853.843086418
 30
0.0
 11
1242.462218677
 21
838.843086418
 31
0.0
  0
LINE
  8
0
  6
CONTINUOUS
 62
     1
 10
1204.462218677
 20
819.843086418
 30
0.0
 11
1204.462218677
 21
823.843086418
 31
0.0
  0
LINE
  8
0
  6
LTYPE1
 62
     2
 10
1217.462218677
 20
838.843086418
 30
0.0
 11
1217.462218677
 21
823.843086418
 31
0.0
  0
LINE
  8
0
  6
CONTINUOUS
 62
     1
 10
1217.462218677
 20
853.843086418
 30
0.0
 11
1217.462218677
 21
838.843086418
 31
0.0
  0
LINE
  8
0
  6
CONTINUOUS
 62
     1
 10
1217.462218677
 20
809.843086418
 30
0.0
 11
1217.462218677
 21
819.843086418
 31
0.0
  0
LINE
  8
0
  6
CONTINUOUS
 62
     1
 10
1217.462218677
 20
809.843086418
 30
0.0
 11
1242.462218677
 21
809.843086418
 31
0.0
  0
LINE
  8
0
  6
CONTINUOUS
 62
     1
 10
1204.462218677
 20
819.843086418
 30
0.0
 11
1255.462218677
 21
819.843086418
 31
0.0
  0
LINE
  8
0
  6
LTYPE4
 62
     2
 10
1229.962218677
 20
800.843086418
 30
0.0
 11
1229.962218677
 21
903.843086418
 31
0.0
  0
LINE
  8
7
  6
CONTINUOUS
 62
     2
 10
1267.462218677
 20
868.843086418
 30
0.0
 11
1305.362218677
 21
868.843086418
 31
0.0
  0
LINE
  8
7
  6
CONTINUOUS
 62
     2
 10
1297.862218677
 20
868.843086418
 30
0.0
 11
1294.626980613
 21
856.76901359
 31
0.0
  0
LINE
  8
7
  6
CONTINUOUS
 62
     2
 10
1297.862218677
 20
868.843086418
 30
0.0
 11
1301.09745674
 21
856.76901359
 31
0.0
  0
LINE
  8
7
  6
CONTINUOUS
 62
     2
 10
1297.862218677
 20
868.843086418
 30
0.0
 11
1297.862218677
 21
838.843086418
 31
0.0
  0
LINE
  8
7
  6
CONTINUOUS
 62
     2
 10
1297.862218677
 20
838.843086418
 30
0.0
 11
1301.09745674
 21
850.917159247
 31
0.0
  0
LINE
  8
7
  6
CONTINUOUS
 62
     2
 10
1297.862218677
 20
838.843086418
 30
0.0
 11
1294.626980613
 21
850.917159247
 31
0.0
  0
LINE
  8
7
  6
CONTINUOUS
 62
     2
 10
1267.462218677
 20
838.843086418
 30
0.0
 11
1305.362218677
 21
838.843086418
 31
0.0
  0
LINE
  8
7
  6
CONTINUOUS
 62
     2
 10
1267.462218677
 20
883.843086418
 30
0.0
 11
1342.362218677
 21
883.843086418
 31
0.0
  0
LINE
  8
7
  6
CONTINUOUS
 62
     2
 10
1334.862218677
 20
883.843086418
 30
0.0
 11
1331.626980613
 21
871.76901359
 31
0.0
  0
LINE
  8
7
  6
CONTINUOUS
 62
     2
 10
1334.862218677
 20
883.843086418
 30
0.0
 11
1338.09745674
 21
871.76901359
 31
0.0
  0
LINE
  8
7
  6
CONTINUOUS
 62
     2
 10
1334.862218677
 20
883.843086418
 30
0.0
 11
1334.862218677
 21
823.843086418
 31
0.0
  0
LINE
  8
7
  6
CONTINUOUS
 62
     2
 10
1334.862218677
 20
823.843086418
 30
0.0
 11
1338.09745674
 21
835.917159247
 31
0.0
  0
LINE
  8
7
  6
CONTINUOUS
 62
     2
 10
1334.862218677
 20
823.843086418
 30
0.0
 11
1331.626980613
 21
835.917159247
 31
0.0
  0
LINE
  8
7
  6
CONTINUOUS
 62
     2
 10
1267.462218677
 20
823.843086418
 30
0.0
 11
1342.362218677
 21
823.843086418
 31
0.0
  0
LINE
  8
0
  6
CONTINUOUS
 62
     1
 10
1169.962218677
 20
853.843086418
 30
0.0
 11
1169.962218677
 21
883.843086418
 31
0.0
  0
LINE
  8
0
  6
CONTINUOUS
 62
     1
 10
1169.962218677
 20
883.843086418
 30
0.0
 11
1259.962218677
 21
883.843086418
 31
0.0
  0
LINE
  8
0
  6
CONTINUOUS
 62
     1
 10
1169.962218677
 20
823.843086418
 30
0.0
 11
1259.962218677
 21
823.843086418
 31
0.0
  0
LINE
  8
0
  6
CONTINUOUS
 62
     1
 10
1169.962218677
 20
853.843086418
 30
0.0
 11
1169.962218677
 21
823.843086418
 31
0.0
  0
LINE
  8
0
  6
LTYPE4
 62
     2
 10
1106.862218677
 20
853.843086418
 30
0.0
 11
1267.862218677
 21
853.843086418
 31
0.0
  0
LINE
  8
0
  6
CONTINUOUS
 62
     1
 10
1128.718996404
 20
914.584267373
 30
0.0
 11
1132.341036614
 21
928.101905464
 31
0.0
  0
ARC
  8
0
  6
CONTINUOUS
 62
     1
 10
1127.753070578
 20
914.843086418
 30
0.0
 40
1.0
 50
270.0
 51
345.0
  0
LINE
  8
0
  6
CONTINUOUS
 62
     1
 10
1157.462218677
 20
894.343086418
 30
0.0
 11
1167.462218677
 21
894.343086418
 31
0.0
  0
LINE
  8
0
  6
CONTINUOUS
 62
     1
 10
1167.40696244
 20
892.343086418
 30
0.0
 11
1169.962218677
 21
892.343086418
 31
0.0
  0
LINE
  8
0
  6
CONTINUOUS
 62
     1
 10
1154.962218677
 20
892.343086418
 30
0.0
 11
1157.40696244
 21
892.343086418
 31
0.0
  0
LINE
  8
0
  6
CONTINUOUS
 62
     1
 10
1167.462218677
 20
894.343086418
 30
0.0
 11
1167.462218677
 21
853.843086418
 31
0.0
  0
LINE
  8
0
  6
CONTINUOUS
 62
     1
 10
1154.962218677
 20
892.343086418
 30
0.0
 11
1154.962218677
 21
853.843086418
 31
0.0
  0
LINE
  8
0
  6
CONTINUOUS
 62
     1
 10
1157.462218677
 20
894.343086418
 30
0.0
 11
1157.462218677
 21
853.843086418
 31
0.0
  0
LINE
  8
0
  6
CONTINUOUS
 62
     1
 10
1154.962218677
 20
892.343086418
 30
0.0
 11
1145.380671991
 21
928.101905464
 31
0.0
  0
LINE
  8
0
  6
CONTINUOUS
 62
     1
 10
1139.826780129
 20
914.584267373
 30
0.0
 11
1143.448820339
 21
928.101905464
 31
0.0
  0
ARC
  8
0
  6
CONTINUOUS
 62
     1
 10
1138.860854302
 20
914.843086418
 30
0.0
 40
1.0
 50
270.0
 51
345.0
  0
ARC
  8
0
  6
CONTINUOUS
 62
     1
 10
1138.860854302
 20
914.843086418
 30
0.0
 40
1.0
 50
195.0
 51
270.0
  0
LINE
  8
0
  6
CONTINUOUS
 62
     1
 10
1137.894928476
 20
914.584267373
 30
0.0
 11
1134.272888266
 21
928.101905464
 31
0.0
  0
LINE
  8
0
  6
CONTINUOUS
 62
     1
 10
1127.753070578
 20
913.843086418
 30
0.0
 11
1127.753070578
 21
853.843086418
 31
0.0
  0
LINE
  8
0
  6
CONTINUOUS
 62
     1
 10
1133.30696244
 20
928.843086418
 30
0.0
 11
1133.30696244
 21
853.843086418
 31
0.0
  0
LINE
  8
0
  6
CONTINUOUS
 62
     1
 10
1144.414746165
 20
928.843086418
 30
0.0
 11
1144.414746165
 21
853.843086418
 31
0.0
  0
LINE
  8
0
  6
CONTINUOUS
 62
     1
 10
1138.860854302
 20
913.843086418
 30
0.0
 11
1138.860854302
 21
853.843086418
 31
0.0
  0
LINE
  8
0
  6
LTYPE5
 62
     2
 10
1107.962218677
 20
913.843086418
 30
0.0
 11
1127.612218677
 21
913.843086418
 31
0.0
  0
ARC
  8
0
  6
CONTINUOUS
 62
     1
 10
1133.30696244
 20
779.843086418
 30
0.0
 40
1.0
 50
195.0
 51
270.0
  0
LINE
  8
0
  6
CONTINUOUS
 62
     1
 10
1128.718996404
 20
793.101905464
 30
0.0
 11
1132.341036614
 21
779.584267373
 31
0.0
  0
ARC
  8
0
  6
CONTINUOUS
 62
     1
 10
1127.753070578
 20
792.843086418
 30
0.0
 40
1.0
 50
15.0
 51
90.0
  0
LINE
  8
0
  6
CONTINUOUS
 62
     1
 10
1157.462218677
 20
813.343086418
 30
0.0
 11
1167.462218677
 21
813.343086418
 31
0.0
  0
LINE
  8
0
  6
CONTINUOUS
 62
     1
 10
1167.40696244
 20
815.343086418
 30
0.0
 11
1169.962218677
 21
815.343086418
 31
0.0
  0
LINE
  8
0
  6
CONTINUOUS
 62
     1
 10
1154.962218677
 20
815.343086418
 30
0.0
 11
1157.40696244
 21
815.343086418
 31
0.0
  0
LINE
  8
0
  6
CONTINUOUS
 62
     1
 10
1167.462218677
 20
813.343086418
 30
0.0
 11
1167.462218677
 21
853.843086418
 31
0.0
  0
LINE
  8
0
  6
CONTINUOUS
 62
     1
 10
1154.962218677
 20
815.343086418
 30
0.0
 11
1154.962218677
 21
853.843086418
 31
0.0
  0
LINE
  8
0
  6
CONTINUOUS
 62
     1
 10
1157.462218677
 20
813.343086418
 30
0.0
 11
1157.462218677
 21
853.843086418
 31
0.0
  0
LINE
  8
0
  6
CONTINUOUS
 62
     1
 10
1154.962218677
 20
815.343086418
 30
0.0
 11
1145.380671991
 21
779.584267373
 31
0.0
  0
ARC
  8
0
  6
CONTINUOUS
 62
     1
 10
1144.414746165
 20
779.843086418
 30
0.0
 40
1.0
 50
270.0
 51
345.0
  0
ARC
  8
0
  6
CONTINUOUS
 62
     1
 10
1144.414746165
 20
779.843086418
 30
0.0
 40
1.0
 50
195.0
 51
270.0
  0
LINE
  8
0
  6
CONTINUOUS
 62
     1
 10
1139.826780129
 20
793.101905464
 30
0.0
 11
1143.448820339
 21
779.584267373
 31
0.0
  0
ARC
  8
0
  6
CONTINUOUS
 62
     1
 10
1138.860854302
 20
792.843086418
 30
0.0
 40
1.0
 50
15.0
 51
90.0
  0
ARC
  8
0
  6
CONTINUOUS
 62
     1
 10
1138.860854302
 20
792.843086418
 30
0.0
 40
1.0
 50
90.0
 51
165.0
  0
LINE
  8
0
  6
CONTINUOUS
 62
     1
 10
1137.894928476
 20
793.101905464
 30
0.0
 11
1134.272888266
 21
779.584267373
 31
0.0
  0
ARC
  8
0
  6
CONTINUOUS
 62
     1
 10
1133.30696244
 20
779.843086418
 30
0.0
 40
1.0
 50
270.0
 51
345.0
  0
LINE
  8
0
  6
CONTINUOUS
 62
     1
 10
1127.753070578
 20
793.843086418
 30
0.0
 11
1127.753070578
 21
853.843086418
 31
0.0
  0
LINE
  8
0
  6
CONTINUOUS
 62
     1
 10
1133.30696244
 20
778.843086418
 30
0.0
 11
1133.30696244
 21
853.843086418
 31
0.0
  0
LINE
  8
0
  6
CONTINUOUS
 62
     1
 10
1144.414746165
 20
778.843086418
 30
0.0
 11
1144.414746165
 21
853.843086418
 31
0.0
  0
LINE
  8
0
  6
CONTINUOUS
 62
     1
 10
1138.860854302
 20
793.843086418
 30
0.0
 11
1138.860854302
 21
853.843086418
 31
0.0
  0
LINE
  8
0
  6
LTYPE5
 62
     2
 10
1110.962218677
 20
778.843086418
 30
0.0
 11
1133.212218677
 21
778.843086418
 31
0.0
  0
LINE
  8
0
  6
LTYPE5
 62
     2
 10
1107.962218677
 20
793.843086418
 30
0.0
 11
1127.612218677
 21
793.843086418
 31
0.0
  0
LINE
  8
0
  6
CONTINUOUS
 62
     1
 10
1169.962218677
 20
853.843086418
 30
0.0
 11
1169.962218677
 21
813.843086418
 31
0.0
  0
LINE
  8
0
  6
CONTINUOUS
 62
     1
 10
1169.962218677
 20
853.843086418
 30
0.0
 11
1169.962218677
 21
893.843086418
 31
0.0
  0
LINE
  8
2
  6
CONTINUOUS
 62
     2
 10
1080.30696244
 20
928.843086418
 30
0.0
 11
1077.071724376
 21
916.76901359
 31
0.0
  0
LINE
  8
2
  6
CONTINUOUS
 62
     2
 10
1080.30696244
 20
928.843086418
 30
0.0
 11
1083.542200504
 21
916.76901359
 31
0.0
  0
LINE
  8
2
  6
CONTINUOUS
 62
     2
 10
1119.30696244
 20
778.843086418
 30
0.0
 11
1070.30696244
 21
778.843086418
 31
0.0
  0
LINE
  8
2
  6
CONTINUOUS
 62
     2
 10
1080.30696244
 20
778.843086418
 30
0.0
 11
1083.542200504
 21
790.917159247
 31
0.0
  0
LINE
  8
2
  6
CONTINUOUS
 62
     2
 10
1080.30696244
 20
778.843086418
 30
0.0
 11
1077.071724376
 21
790.917159247
 31
0.0
  0
LINE
  8
2
  6
CONTINUOUS
 62
     2
 10
1080.30696244
 20
778.843086418
 30
0.0
 11
1080.30696244
 21
928.843086418
 31
0.0
  0
LINE
  8
7
  6
CONTINUOUS
 62
     2
 10
1169.962218677
 20
750.843086418
 30
0.0
 11
1157.888145848
 21
754.078324482
 31
0.0
  0
LINE
  8
7
  6
CONTINUOUS
 62
     2
 10
1169.962218677
 20
750.843086418
 30
0.0
 11
1157.888145848
 21
747.607848355
 31
0.0
  0
LINE
  8
7
  6
CONTINUOUS
 62
     2
 10
1184.962218677
 20
831.343086418
 30
0.0
 11
1184.962218677
 21
743.343086418
 31
0.0
  0
LINE
  8
7
  6
CONTINUOUS
 62
     2
 10
1122.712218677
 20
750.843086418
 30
0.0
 11
1184.962218677
 21
750.843086418
 31
0.0
  0
POINT
  8
7
  6
CONTINUOUS
 62
     2
 10
1184.962218677
 20
758.343086418
 30
0.0
  0
LINE
  8
7
  6
CONTINUOUS
 62
     2
 10
1184.962218677
 20
750.843086418
 30
0.0
 11
1197.036291505
 21
747.607848355
 31
0.0
  0
LINE
  8
7
  6
CONTINUOUS
 62
     2
 10
1184.962218677
 20
750.843086418
 30
0.0
 11
1197.036291505
 21
754.078324482
 31
0.0
  0
LINE
  8
7
  6
CONTINUOUS
 62
     2
 10
1184.962218677
 20
750.843086418
 30
0.0
 11
1229.962218677
 21
750.843086418
 31
0.0
  0
LINE
  8
7
  6
CONTINUOUS
 62
     2
 10
1229.962218677
 20
750.843086418
 30
0.0
 11
1217.888145848
 21
754.078324482
 31
0.0
  0
LINE
  8
7
  6
CONTINUOUS
 62
     2
 10
1229.962218677
 20
750.843086418
 30
0.0
 11
1217.888145848
 21
747.607848355
 31
0.0
  0
LINE
  8
7
  6
CONTINUOUS
 62
     2
 10
1229.962218677
 20
793.343086418
 30
0.0
 11
1229.962218677
 21
743.343086418
 31
0.0
  0
LINE
  8
7
  6
CONTINUOUS
 62
     2
 10
1169.962218677
 20
821.743086418
 30
0.0
 11
1169.962218677
 21
743.343086418
 31
0.0
  0
LINE
  8
2
  6
CONTINUOUS
 62
     2
 10
1229.962218677
 20
771.843086418
 30
0.0
 11
1229.962218677
 21
740.843086418
 31
0.0
  0
LINE
  8
2
  6
CONTINUOUS
 62
     2
 10
1229.962218677
 20
750.843086418
 30
0.0
 11
1242.036291505
 21
747.607848355
 31
0.0
  0
LINE
  8
2
  6
CONTINUOUS
 62
     2
 10
1229.962218677
 20
750.843086418
 30
0.0
 11
1242.036291505
 21
754.078324482
 31
0.0
  0
LINE
  8
2
  6
CONTINUOUS
 62
     2
 10
1229.962218677
 20
750.843086418
 30
0.0
 11
1259.962218677
 21
750.843086418
 31
0.0
  0
LINE
  8
2
  6
CONTINUOUS
 62
     2
 10
1259.962218677
 20
750.843086418
 30
0.0
 11
1247.888145848
 21
754.078324482
 31
0.0
  0
LINE
  8
2
  6
CONTINUOUS
 62
     2
 10
1259.962218677
 20
750.843086418
 30
0.0
 11
1247.888145848
 21
747.607848355
 31
0.0
  0
LINE
  8
2
  6
CONTINUOUS
 62
     2
 10
1259.962218677
 20
814.843086418
 30
0.0
 11
1259.962218677
 21
740.843086418
 31
0.0
  0
ARC
  8
0
  6
CONTINUOUS
 62
     1
 10
1133.30696244
 20
927.843086418
 30
0.0
 40
1.0
 50
90.0
 51
165.0
  0
ARC
  8
0
  6
CONTINUOUS
 62
     1
 10
1144.414746165
 20
927.843086418
 30
0.0
 40
1.0
 50
15.0
 51
90.0
  0
ARC
  8
0
  6
CONTINUOUS
 62
     1
 10
1144.414746165
 20
927.843086418
 30
0.0
 40
1.0
 50
90.0
 51
165.0
  0
ARC
  8
0
  6
CONTINUOUS
 62
     1
 10
1133.30696244
 20
927.843086418
 30
0.0
 40
1.0
 50
15.0
 51
90.0
  0
LINE
  8
0
  6
LTYPE5
 62
     2
 10
1110.962218677
 20
928.843086418
 30
0.0
 11
1133.212218677
 21
928.843086418
 31
0.0
  0
LINE
  8
0
  6
CONTINUOUS
 62
     2
 10
1120.462218677
 20
928.843086418
 30
0.0
 11
1120.962218677
 21
928.843086418
 31
0.0
  0
LINE
  8
2
  6
CONTINUOUS
 62
     2
 10
1117.30696244
 20
928.843086418
 30
0.0
 11
1070.30696244
 21
928.843086418
 31
0.0
  0
TEXT
  8
7
  6
CONTINUOUS
 62
     2
 10
1329.862218677
 20
839.593086418
 30
0.0
 40
18.0
  1
６０
 50
90.0
 41
0.9
 51
0.0
  7
KANJI41
  0
TEXT
  8
2
  6
CONTINUOUS
 62
     2
 10
1075.30696244
 20
819.593086418
 30
0.0
 40
18.0
  1
φ１５０
 50
90.0
 41
0.9
 51
0.0
  7
KANJI41
  0
TEXT
  8
7
  6
CONTINUOUS
 62
     2
 10
1122.712218677
 20
755.843086418
 30
0.0
 40
18.0
  1
１５
 50
0.0
 41
0.9
 51
0.0
  7
KANJI41
  0
TEXT
  8
7
  6
CONTINUOUS
 62
     2
 10
1193.212218677
 20
755.843086418
 30
0.0
 40
18.0
  1
４５
 50
0.0
 41
0.9
 51
0.0
  7
KANJI41
  0
TEXT
  8
2
  6
CONTINUOUS
 62
     2
 10
1228.212218677
 20
755.843086418
 30
0.0
 40
18.0
  1
３０
 50
0.0
 41
0.9
 51
0.0
  7
KANJI41
  0
TEXT
  8
7
  6
CONTINUOUS
 62
     2
 10
1292.862218677
 20
839.593086418
 30
-3.0
 40
18.0
  1
３０
 50
90.0
 41
0.9
 51
0.0
  7
KANJI45
  0
LINE
  8
0
  6
CONTINUOUS
 62
     2
 10
313.962218677
 20
746.143086418
 30
0.0
 11
310.079933
 21
731.654199024
 31
0.0
  0
LINE
  8
0
  6
CONTINUOUS
 62
     2
 10
313.962218677
 20
746.143086418
 30
0.0
 11
317.844504353
 21
731.654199024
 31
0.0
  0
LINE
  8
0
  6
CONTINUOUS
 62
     2
 10
313.962218677
 20
746.143086418
 30
0.0
 11
313.962218677
 21
494.143086418
 31
0.0
  0
LINE
  8
0
  6
CONTINUOUS
 62
     2
 10
313.962218677
 20
494.143086418
 30
0.0
 11
317.844504353
 21
508.631973813
 31
0.0
  0
LINE
  8
0
  6
CONTINUOUS
 62
     2
 10
313.962218677
 20
494.143086418
 30
0.0
 11
310.079933
 21
508.631973813
 31
0.0
  0
TEXT
  8
0
  6
CONTINUOUS
 62
     2
 10
307.962218677
 20
594.043086418
 30
1.8
 40
18.0
  1
２５２
 50
90.0
 41
0.9
 51
0.0
  7
KANJI39
  0
LINE
  8
0
  6
CONTINUOUS
 62
     2
 10
208.962218677
 20
746.143086418
 30
0.0
 11
325.0
 21
746.143086418
 31
0.0
  0
LINE
  8
0
  6
CONTINUOUS
 62
     2
 10
208.962218677
 20
494.143086418
 30
0.0
 11
325.0
 21
494.143086418
 31
0.0
  0
LINE
  8
0
  6
CONTINUOUS
 62
     1
 10
624.362218677
 20
878.143086418
 30
0.0
 11
584.362218677
 21
878.143086418
 31
0.0
  0
ARC
  8
0
  6
CONTINUOUS
 62
     1
 10
606.362218677
 20
745.143086418
 30
0.0
 40
4.0
 50
270.0
 51
0.0
  0
LINE
  8
0
  6
CONTINUOUS
 62
     1
 10
584.362218677
 20
878.143086418
 30
0.0
 11
584.362218677
 21
841.143086418
 31
0.0
  0
ARC
  8
0
  6
CONTINUOUS
 62
     1
 10
581.362218677
 20
841.143086418
 30
0.0
 40
3.0
 50
270.0
 51
0.0
  0
ARC
  8
0
  6
CONTINUOUS
 62
     1
 10
607.362218677
 20
841.143086418
 30
0.0
 40
3.0
 50
270.0
 51
0.0
  0
LINE
  8
0
  6
CONTINUOUS
 62
     1
 10
610.362218677
 20
745.143086418
 30
0.0
 11
610.362218677
 21
878.143086418
 31
0.0
  0
CIRCLE
  8
0
  6
CONTINUOUS
 62
     1
 10
604.362218677
 20
903.143086418
 30
0.0
 40
15.0
  0
LINE
  8
0
  6
CONTINUOUS
 62
     1
 10
615.76348764
 20
886.144616837
 30
0.0
 11
604.362218677
 21
888.143086418
 31
0.0
  0
LINE
  8
0
  6
CONTINUOUS
 62
     1
 10
604.362218677
 20
886.143086418
 30
0.0
 11
615.763674444
 21
886.143086418
 31
0.0
  0
ARC
  8
0
  6
CONTINUOUS
 62
     1
 10
604.362218677
 20
903.143086418
 30
0.0
 40
25.0
 50
300.714883545
 51
0.0
  0
LINE
  8
0
  6
CONTINUOUS
 62
     1
 10
616.479313823
 20
880.280095907
 30
0.0
 11
615.763674444
 21
886.143086418
 31
0.0
  0
ARC
  8
0
  6
CONTINUOUS
 62
     1
 10
617.867841391
 20
880.459212078
 30
0.0
 40
1.4
 50
121.733468281
 51
187.57738995
  0
LINE
  8
0
  6
CONTINUOUS
 62
     1
 10
592.960949713
 20
886.144616837
 30
0.0
 11
604.362218677
 21
888.143086418
 31
0.0
  0
LINE
  8
0
  6
CONTINUOUS
 62
     1
 10
604.362218677
 20
886.143086418
 30
0.0
 11
592.960762909
 21
886.143086418
 31
0.0
  0
LINE
  8
0
  6
CONTINUOUS
 62
     1
 10
592.24512353
 20
880.280095907
 30
0.0
 11
592.960762909
 21
886.143086418
 31
0.0
  0
ARC
  8
0
  6
CONTINUOUS
 62
     1
 10
590.856595962
 20
880.459212078
 30
0.0
 40
1.4
 50
352.42261005
 51
58.266531719
  0
ARC
  8
0
  6
CONTINUOUS
 62
     1
 10
604.362218677
 20
903.143086418
 30
0.0
 40
25.0
 50
0.0
 51
239.342761175
  0
LINE
  8
0
  6
CONTINUOUS
 62
     1
 10
616.740158206
 20
878.143086418
 30
0.0
 11
616.479313823
 21
880.280095907
 31
0.0
  0
LINE
  8
0
  6
CONTINUOUS
 62
     1
 10
591.984279147
 20
878.143086418
 30
0.0
 11
592.24512353
 21
880.280095907
 31
0.0
  0
LINE
  8
0
  6
CONTINUOUS
 62
     1
 10
606.362218677
 20
741.143086418
 30
0.0
 11
529.362218677
 21
741.143086418
 31
0.0
  0
CIRCLE
  8
0
  6
CONTINUOUS
 62
     1
 10
709.362218677
 20
597.143086418
 30
0.0
 40
12.5
  0
CIRCLE
  8
0
  6
CONTINUOUS
 62
     1
 10
709.362218677
 20
597.143086418
 30
0.0
 40
23.0
  0
CIRCLE
  8
0
  6
CONTINUOUS
 62
     1
 10
709.362218677
 20
597.143086418
 30
0.0
 40
27.5
  0
LINE
  8
0
  6
CONTINUOUS
 62
     1
 10
639.362218677
 20
530.143086418
 30
0.0
 11
639.362218677
 21
664.143086418
 31
0.0
  0
LINE
  8
0
  6
CONTINUOUS
 62
     1
 10
624.362218677
 20
530.143086418
 30
0.0
 11
639.362218677
 21
530.143086418
 31
0.0
  0
LINE
  8
0
  6
CONTINUOUS
 62
     1
 10
624.362218677
 20
530.143086418
 30
0.0
 11
624.362218677
 21
664.143086418
 31
0.0
  0
LINE
  8
0
  6
CONTINUOUS
 62
     1
 10
624.362218677
 20
664.143086418
 30
0.0
 11
639.362218677
 21
664.143086418
 31
0.0
  0
LINE
  8
0
  6
CONTINUOUS
 62
     1
 10
639.362218677
 20
657.143086418
 30
0.0
 11
829.362218677
 21
657.143086418
 31
0.0
  0
LINE
  8
0
  6
CONTINUOUS
 62
     1
 10
821.362218677
 20
537.143086418
 30
0.0
 11
829.362218677
 21
537.143086418
 31
0.0
  0
LINE
  8
0
  6
CONTINUOUS
 62
     1
 10
639.362218677
 20
537.143086418
 30
0.0
 11
747.362218677
 21
537.143086418
 31
0.0
  0
LINE
  8
0
  6
CONTINUOUS
 62
     1
 10
747.362218677
 20
529.643086418
 30
0.0
 11
747.362218677
 21
571.643086418
 31
0.0
  0
LINE
  8
0
  6
CONTINUOUS
 62
     1
 10
821.362218677
 20
529.643086418
 30
0.0
 11
821.362218677
 21
571.643086418
 31
0.0
  0
LINE
  8
0
  6
CONTINUOUS
 62
     1
 10
838.362218677
 20
658.143086418
 30
0.0
 11
829.362218677
 21
658.143086418
 31
0.0
  0
LINE
  8
0
  6
CONTINUOUS
 62
     1
 10
838.362218677
 20
654.143086418
 30
0.0
 11
829.362218677
 21
654.143086418
 31
0.0
  0
LINE
  8
0
  6
CONTINUOUS
 62
     1
 10
838.362218677
 20
593.143086418
 30
0.0
 11
829.362218677
 21
593.143086418
 31
0.0
  0
LINE
  8
0
  6
CONTINUOUS
 62
     1
 10
838.362218677
 20
601.143086418
 30
0.0
 11
829.362218677
 21
601.143086418
 31
0.0
  0
LINE
  8
0
  6
CONTINUOUS
 62
     1
 10
829.362218677
 20
536.143086418
 30
0.0
 11
829.362218677
 21
658.143086418
 31
0.0
  0
LINE
  8
0
  6
CONTINUOUS
 62
     1
 10
838.362218677
 20
536.143086418
 30
0.0
 11
829.362218677
 21
536.143086418
 31
0.0
  0
LINE
  8
0
  6
CONTINUOUS
 62
     1
 10
838.362218677
 20
536.143086418
 30
0.0
 11
838.362218677
 21
658.143086418
 31
0.0
  0
LINE
  8
0
  6
CONTINUOUS
 62
     1
 10
838.362218677
 20
540.143086418
 30
0.0
 11
829.362218677
 21
540.143086418
 31
0.0
  0
LINE
  8
0
  6
LTYPE2
 62
     2
 10
571.437218677
 20
903.143086418
 30
0.0
 11
636.437218677
 21
903.143086418
 31
0.0
  0
LINE
  8
0
  6
LTYPE2
 62
     2
 10
604.362218677
 20
856.143086418
 30
0.0
 11
604.362218677
 21
935.843086418
 31
0.0
  0
LINE
  8
0
  6
LTYPE2
 62
     2
 10
709.362218677
 20
554.143086418
 30
0.0
 11
709.362218677
 21
644.143086418
 31
0.0
  0
LINE
  8
0
  6
LTYPE2
 62
     2
 10
784.362218677
 20
515.643086418
 30
0.0
 11
784.362218677
 21
542.143086418
 31
0.0
  0
LINE
  8
0
  6
CONTINUOUS
 62
     2
 10
624.362218677
 20
885.643086418
 30
0.0
 11
624.362218677
 21
979.943086418
 31
0.0
  0
CIRCLE
  8
0
  6
CONTINUOUS
 62
     1
 10
908.28722658
 20
597.143086418
 30
0.0
 40
19.5
  0
LINE
  8
0
  6
CONTINUOUS
 62
     1
 10
888.28722658
 20
617.143086418
 30
0.0
 11
928.28722658
 21
617.143086418
 31
0.0
  0
LINE
  8
0
  6
CONTINUOUS
 62
     1
 10
928.28722658
 20
577.143086418
 30
0.0
 11
928.28722658
 21
617.143086418
 31
0.0
  0
LINE
  8
0
  6
CONTINUOUS
 62
     1
 10
888.28722658
 20
577.143086418
 30
0.0
 11
928.28722658
 21
577.143086418
 31
0.0
  0
LINE
  8
0
  6
CONTINUOUS
 62
     1
 10
888.28722658
 20
577.143086418
 30
0.0
 11
888.28722658
 21
617.143086418
 31
0.0
  0
LINE
  8
0
  6
LTYPE2
 62
     2
 10
908.28722658
 20
572.043086418
 30
0.0
 11
908.28722658
 21
621.943086418
 31
0.0
  0
LINE
  8
0
  6
CONTINUOUS
 62
     1
 10
529.362218677
 20
494.143086418
 30
0.0
 11
454.362218677
 21
494.143086418
 31
0.0
  0
LINE
  8
0
  6
CONTINUOUS
 62
     1
 10
624.362218677
 20
503.143086418
 30
0.0
 11
529.362218677
 21
503.143086418
 31
0.0
  0
LINE
  8
0
  6
CONTINUOUS
 62
     1
 10
454.362218677
 20
494.143086418
 30
0.0
 11
454.362218677
 21
746.143086418
 31
0.0
  0
LINE
  8
0
  6
CONTINUOUS
 62
     1
 10
454.362218677
 20
672.143086418
 30
0.0
 11
454.362218677
 21
661.193546418
 31
0.0
  0
LINE
  8
0
  6
CONTINUOUS
 62
     1
 10
454.362218677
 20
672.143086418
 30
0.0
 11
454.362218677
 21
683.092626418
 31
0.0
  0
LINE
  8
0
  6
CONTINUOUS
 62
     1
 10
454.862218677
 20
501.193086418
 30
0.0
 11
349.580266712
 21
511.533278129
 31
0.0
  0
ARC
  8
0
  6
CONTINUOUS
 62
     1
 10
350.362218677
 20
519.494970859
 30
0.0
 40
8.0
 50
180.0
 51
264.390725554
  0
LINE
  8
0
  6
CONTINUOUS
 62
     1
 10
454.862218677
 20
739.093086418
 30
0.0
 11
349.580266712
 21
728.752894708
 31
0.0
  0
ARC
  8
0
  6
CONTINUOUS
 62
     1
 10
350.362218677
 20
720.791201978
 30
0.0
 40
8.0
 50
95.609274446
 51
180.0
  0
LINE
  8
0
  6
CONTINUOUS
 62
     1
 10
342.362218677
 20
519.494970859
 30
0.0
 11
342.362218677
 21
720.791201978
 31
0.0
  0
LINE
  8
0
  6
CONTINUOUS
 62
     1
 10
454.862218677
 20
714.093086418
 30
0.0
 11
349.580266712
 21
703.752894708
 31
0.0
  0
ARC
  8
0
  6
CONTINUOUS
 62
     1
 10
350.362218677
 20
695.791201978
 30
0.0
 40
8.0
 50
95.609274446
 51
180.0
  0
LINE
  8
0
  6
CONTINUOUS
 62
     1
 10
454.862218677
 20
526.193086418
 30
0.0
 11
349.580266712
 21
536.533278129
 31
0.0
  0
ARC
  8
0
  6
CONTINUOUS
 62
     1
 10
350.362218677
 20
544.494970859
 30
0.0
 40
8.0
 50
180.0
 51
264.390725554
  0
LINE
  8
0
  6
CONTINUOUS
 62
     1
 10
446.341118677
 20
503.875066418
 30
0.0
 11
447.88929497
 21
501.193546418
 31
0.0
  0
LINE
  8
0
  6
CONTINUOUS
 62
     1
 10
446.341118677
 20
512.143086418
 30
0.0
 11
446.341118677
 21
503.875066418
 31
0.0
  0
LINE
  8
0
  6
CONTINUOUS
 62
     1
 10
446.341118677
 20
520.411106418
 30
0.0
 11
447.88929497
 21
523.092626418
 31
0.0
  0
LINE
  8
0
  6
CONTINUOUS
 62
     1
 10
446.341118677
 20
512.143086418
 30
0.0
 11
446.341118677
 21
520.411106418
 31
0.0
  0
ARC
  8
0
  6
CONTINUOUS
 62
     1
 10
456.795340369
 20
512.143086418
 30
0.0
 40
10.454221693
 50
148.419912243
 51
211.580087757
  0
ARC
  8
0
  6
CONTINUOUS
 62
     1
 10
449.534232283
 20
503.930931418
 30
0.0
 40
3.193602261
 50
121.002313915
 51
182.989498403
  0
LINE
  8
0
  6
CONTINUOUS
 62
     1
 10
446.341118677
 20
520.411106418
 30
0.0
 11
447.88929497
 21
523.092626418
 31
0.0
  0
ARC
  8
0
  6
CONTINUOUS
 62
     1
 10
449.534232283
 20
520.355241418
 30
0.0
 40
3.193602261
 50
177.010501597
 51
238.997686085
  0
LINE
  8
0
  6
CONTINUOUS
 62
     1
 10
454.362218677
 20
501.193546418
 30
0.0
 11
447.88929497
 21
501.193546418
 31
0.0
  0
LINE
  8
0
  6
CONTINUOUS
 62
     1
 10
454.362218677
 20
506.668316418
 30
0.0
 11
447.88929497
 21
506.668316418
 31
0.0
  0
LINE
  8
0
  6
CONTINUOUS
 62
     1
 10
454.362218677
 20
517.617856418
 30
0.0
 11
447.88929497
 21
517.617856418
 31
0.0
  0
LINE
  8
0
  6
CONTINUOUS
 62
     1
 10
454.362218677
 20
523.092626418
 30
0.0
 11
447.88929497
 21
523.092626418
 31
0.0
  0
LINE
  8
0
  6
LTYPE2
 62
     2
 10
440.762218677
 20
512.143086418
 30
0.0
 11
489.462218677
 21
512.143086418
 31
0.0
  0
LINE
  8
0
  6
CONTINUOUS
 62
     1
 10
446.341118677
 20
736.411106418
 30
0.0
 11
447.88929497
 21
739.092626418
 31
0.0
  0
LINE
  8
0
  6
CONTINUOUS
 62
     1
 10
446.341118677
 20
728.143086418
 30
0.0
 11
446.341118677
 21
736.411106418
 31
0.0
  0
LINE
  8
0
  6
CONTINUOUS
 62
     1
 10
446.341118677
 20
719.875066418
 30
0.0
 11
447.88929497
 21
717.193546418
 31
0.0
  0
LINE
  8
0
  6
CONTINUOUS
 62
     1
 10
446.341118677
 20
728.143086418
 30
0.0
 11
446.341118677
 21
719.875066418
 31
0.0
  0
ARC
  8
0
  6
CONTINUOUS
 62
     1
 10
456.795340369
 20
728.143086418
 30
0.0
 40
10.454221693
 50
148.419912243
 51
211.580087757
  0
ARC
  8
0
  6
CONTINUOUS
 62
     1
 10
449.534232283
 20
736.355241418
 30
0.0
 40
3.193602261
 50
177.010501597
 51
238.997686085
  0
LINE
  8
0
  6
CONTINUOUS
 62
     1
 10
446.341118677
 20
719.875066418
 30
0.0
 11
447.88929497
 21
717.193546418
 31
0.0
  0
ARC
  8
0
  6
CONTINUOUS
 62
     1
 10
449.534232283
 20
719.930931418
 30
0.0
 40
3.193602261
 50
121.002313915
 51
182.989498403
  0
LINE
  8
0
  6
CONTINUOUS
 62
     1
 10
454.362218677
 20
739.092626418
 30
0.0
 11
447.88929497
 21
739.092626418
 31
0.0
  0
LINE
  8
0
  6
CONTINUOUS
 62
     1
 10
454.362218677
 20
733.617856418
 30
0.0
 11
447.88929497
 21
733.617856418
 31
0.0
  0
LINE
  8
0
  6
CONTINUOUS
 62
     1
 10
454.362218677
 20
722.668316418
 30
0.0
 11
447.88929497
 21
722.668316418
 31
0.0
  0
LINE
  8
0
  6
CONTINUOUS
 62
     1
 10
454.362218677
 20
717.193546418
 30
0.0
 11
447.88929497
 21
717.193546418
 31
0.0
  0
LINE
  8
0
  6
LTYPE2
 62
     2
 10
440.762218677
 20
728.143086418
 30
0.0
 11
489.462218677
 21
728.143086418
 31
0.0
  0
LINE
  8
0
  6
CONTINUOUS
 62
     1
 10
464.362218677
 20
494.143086418
 30
0.0
 11
464.362218677
 21
751.143086418
 31
0.0
  0
LINE
  8
0
  6
CONTINUOUS
 62
     1
 10
529.362218677
 20
838.143086418
 30
0.0
 11
607.362218677
 21
838.143086418
 31
0.0
  0
LINE
  8
0
  6
CONTINUOUS
 62
     1
 10
529.362218677
 20
746.143086418
 30
0.0
 11
454.362218677
 21
746.143086418
 31
0.0
  0
LINE
  8
0
  6
CONTINUOUS
 62
     1
 10
821.362218677
 20
531.143086418
 30
0.0
 11
747.362218677
 21
531.143086418
 31
0.0
  0
LINE
  8
0
  6
CONTINUOUS
 62
     1
 10
738.362218677
 20
529.643086418
 30
0.0
 11
738.362218677
 21
528.643086418
 31
0.0
  0
ARC
  8
0
  6
CONTINUOUS
 62
     1
 10
825.362218677
 20
526.643086418
 30
0.0
 40
3.0
 50
0.0
 51
90.0
  0
LINE
  8
0
  6
CONTINUOUS
 62
     1
 10
699.362218677
 20
486.643086418
 30
0.0
 11
828.362218677
 21
486.643086418
 31
0.0
  0
LINE
  8
0
  6
CONTINUOUS
 62
     1
 10
738.362218677
 20
528.643086418
 30
0.0
 11
702.362218677
 21
528.643086418
 31
0.0
  0
ARC
  8
0
  6
CONTINUOUS
 62
     1
 10
702.362218677
 20
525.643086418
 30
0.0
 40
3.0
 50
90.0
 51
180.0
  0
LINE
  8
0
  6
CONTINUOUS
 62
     1
 10
699.362218677
 20
485.143086418
 30
0.0
 11
828.362218677
 21
485.143086418
 31
0.0
  0
LINE
  8
0
  6
CONTINUOUS
 62
     1
 10
699.362218677
 20
480.143086418
 30
0.0
 11
699.362218677
 21
525.643086418
 31
0.0
  0
ARC
  8
0
  6
CONTINUOUS
 62
     1
 10
700.362218677
 20
480.143086418
 30
0.0
 40
1.0
 50
180.0
 51
270.0
  0
LINE
  8
0
  6
CONTINUOUS
 62
     1
 10
702.362218677
 20
479.143086418
 30
0.0
 11
702.362218677
 21
479.143086418
 31
0.0
  0
ARC
  8
0
  6
CONTINUOUS
 62
     1
 10
703.362218677
 20
479.143086418
 30
0.0
 40
1.0
 50
180.0
 51
270.0
  0
LINE
  8
0
  6
CONTINUOUS
 62
     1
 10
828.362218677
 20
480.143086418
 30
0.0
 11
828.362218677
 21
526.643086418
 31
0.0
  0
LINE
  8
0
  6
CONTINUOUS
 62
     1
 10
700.362218677
 20
479.143086418
 30
0.0
 11
827.362218677
 21
479.143086418
 31
0.0
  0
ARC
  8
0
  6
CONTINUOUS
 62
     1
 10
827.362218677
 20
480.143086418
 30
0.0
 40
1.0
 50
270.0
 51
0.0
  0
ARC
  8
0
  6
CONTINUOUS
 62
     1
 10
824.362218677
 20
479.143086418
 30
0.0
 40
1.0
 50
270.0
 51
0.0
  0
LINE
  8
0
  6
CONTINUOUS
 62
     1
 10
703.362218677
 20
478.143086418
 30
0.0
 11
824.262218677
 21
478.143086418
 31
0.0
  0
LINE
  8
0
  6
LTYPE1
 62
     1
 10
699.362218677
 20
494.343086418
 30
0.0
 11
709.362218677
 21
494.343086418
 31
0.0
  0
LINE
  8
0
  6
LTYPE1
 62
     1
 10
699.362218677
 20
493.143086418
 30
0.0
 11
709.362218677
 21
493.143086418
 31
0.0
  0
LINE
  8
0
  6
LTYPE1
 62
     1
 10
699.362218677
 20
512.943086418
 30
0.0
 11
709.362218677
 21
512.943086418
 31
0.0
  0
LINE
  8
0
  6
LTYPE1
 62
     1
 10
699.362218677
 20
514.143086418
 30
0.0
 11
709.362218677
 21
514.143086418
 31
0.0
  0
LINE
  8
0
  6
CONTINUOUS
 62
     1
 10
825.362218677
 20
529.643086418
 30
0.0
 11
738.362218677
 21
529.643086418
 31
0.0
  0
CIRCLE
  8
0
  6
LTYPE4
 62
     2
 10
494.362218677
 20
569.143086418
 30
0.0
 40
16.6
  0
LINE
  8
0
  6
LTYPE4
 62
     2
 10
520.362218677
 20
569.143086418
 30
0.0
 11
470.862218677
 21
569.143086418
 31
0.0
  0
LINE
  8
0
  6
LTYPE4
 62
     2
 10
494.362218677
 20
541.643086418
 30
0.0
 11
494.362218677
 21
594.143086418
 31
0.0
  0
CIRCLE
  8
0
  6
CONTINUOUS
 62
     1
 10
494.362218677
 20
569.143086418
 30
0.0
 40
15.15
  0
CIRCLE
  8
0
  6
CONTINUOUS
 62
     1
 10
493.662218677
 20
523.043086418
 30
0.0
 40
14.65
  0
LINE
  8
0
  6
CONTINUOUS
 62
     1
 10
694.562218677
 20
517.493086418
 30
0.0
 11
694.562218677
 21
489.793086418
 31
0.0
  0
LINE
  8
0
  6
CONTINUOUS
 62
     1
 10
699.362218677
 20
510.543086418
 30
0.0
 11
694.562218677
 21
510.543086418
 31
0.0
  0
LINE
  8
0
  6
CONTINUOUS
 62
     1
 10
699.362218677
 20
496.743086418
 30
0.0
 11
694.562218677
 21
496.743086418
 31
0.0
  0
LINE
  8
0
  6
CONTINUOUS
 62
     1
 10
699.362218677
 20
489.793086418
 30
0.0
 11
694.562218677
 21
489.793086418
 31
0.0
  0
LINE
  8
0
  6
CONTINUOUS
 62
     1
 10
699.362218677
 20
517.493086418
 30
0.0
 11
699.362218677
 21
489.793086418
 31
0.0
  0
LINE
  8
0
  6
CONTINUOUS
 62
     1
 10
699.362218677
 20
517.493086418
 30
0.0
 11
694.562218677
 21
517.493086418
 31
0.0
  0
LINE
  8
0
  6
CONTINUOUS
 62
     1
 10
689.362218677
 20
518.293086418
 30
0.0
 11
689.362218677
 21
488.993086418
 31
0.0
  0
LINE
  8
0
  6
CONTINUOUS
 62
     1
 10
689.362218677
 20
518.293086418
 30
0.0
 11
676.362218677
 21
518.293086418
 31
0.0
  0
ARC
  8
0
  6
CONTINUOUS
 62
     1
 10
676.362218677
 20
516.293086418
 30
0.0
 40
2.0
 50
90.0
 51
180.0
  0
LINE
  8
0
  6
CONTINUOUS
 62
     1
 10
689.362218677
 20
488.993086418
 30
0.0
 11
676.362218677
 21
488.993086418
 31
0.0
  0
LINE
  8
0
  6
CONTINUOUS
 62
     1
 10
674.362218677
 20
516.293086418
 30
0.0
 11
674.362218677
 21
490.993086418
 31
0.0
  0
ARC
  8
0
  6
CONTINUOUS
 62
     1
 10
676.362218677
 20
490.993086418
 30
0.0
 40
2.0
 50
180.0
 51
270.0
  0
LINE
  8
0
  6
CONTINUOUS
 62
     1
 10
678.362218677
 20
490.993086418
 30
0.0
 11
689.362218677
 21
490.993086418
 31
0.0
  0
LINE
  8
0
  6
CONTINUOUS
 62
     1
 10
678.362218677
 20
499.893086418
 30
0.0
 11
689.362218677
 21
499.893086418
 31
0.0
  0
LINE
  8
0
  6
CONTINUOUS
 62
     1
 10
678.362218677
 20
495.793086418
 30
0.0
 11
689.362218677
 21
495.793086418
 31
0.0
  0
LINE
  8
0
  6
CONTINUOUS
 62
     1
 10
678.362218677
 20
495.793086418
 30
0.0
 11
678.362218677
 21
490.993086418
 31
0.0
  0
LINE
  8
0
  6
CONTINUOUS
 62
     1
 10
678.362218677
 20
503.643086418
 30
0.0
 11
678.362218677
 21
499.893086418
 31
0.0
  0
LINE
  8
0
  6
CONTINUOUS
 62
     1
 10
678.362218677
 20
516.293086418
 30
0.0
 11
689.362218677
 21
516.293086418
 31
0.0
  0
LINE
  8
0
  6
CONTINUOUS
 62
     1
 10
678.362218677
 20
507.393086418
 30
0.0
 11
689.362218677
 21
507.393086418
 31
0.0
  0
LINE
  8
0
  6
CONTINUOUS
 62
     1
 10
678.362218677
 20
511.493086418
 30
0.0
 11
689.362218677
 21
511.493086418
 31
0.0
  0
LINE
  8
0
  6
CONTINUOUS
 62
     1
 10
678.362218677
 20
511.493086418
 30
0.0
 11
678.362218677
 21
516.293086418
 31
0.0
  0
LINE
  8
0
  6
CONTINUOUS
 62
     1
 10
678.362218677
 20
503.643086418
 30
0.0
 11
678.362218677
 21
507.393086418
 31
0.0
  0
LINE
  8
0
  6
CONTINUOUS
 62
     1
 10
694.662218677
 20
490.943086418
 30
0.0
 11
689.362218677
 21
490.943086418
 31
0.0
  0
LINE
  8
0
  6
CONTINUOUS
 62
     1
 10
694.662218677
 20
491.743086418
 30
0.0
 11
689.362218677
 21
491.743086418
 31
0.0
  0
LINE
  8
0
  6
CONTINUOUS
 62
     1
 10
694.662218677
 20
516.343086418
 30
0.0
 11
689.362218677
 21
516.343086418
 31
0.0
  0
LINE
  8
0
  6
CONTINUOUS
 62
     1
 10
694.662218677
 20
515.543086418
 30
0.0
 11
689.362218677
 21
515.543086418
 31
0.0
  0
LINE
  8
0
  6
LTYPE4
 62
     2
 10
493.212218677
 20
504.643086418
 30
0.0
 11
493.212218677
 21
539.943086418
 31
0.0
  0
ARC
  8
0
  6
CONTINUOUS
 62
     1
 10
493.662218677
 20
523.043086418
 30
0.0
 40
5.0
 50
97.512144102
 51
264.345579179
  0
LINE
  8
0
  6
CONTINUOUS
 62
     1
 10
529.362218677
 20
527.843086418
 30
0.0
 11
529.362218677
 21
838.143086418
 31
0.0
  0
LINE
  8
0
  6
CONTINUOUS
 62
     1
 10
529.362218677
 20
494.143086418
 30
0.0
 11
529.362218677
 21
518.443086418
 31
0.0
  0
LINE
  8
0
  6
CONTINUOUS
 62
     1
 10
624.362218677
 20
527.843086418
 30
0.0
 11
624.362218677
 21
878.143086418
 31
0.0
  0
LINE
  8
0
  6
CONTINUOUS
 62
     1
 10
624.362218677
 20
503.143086418
 30
0.0
 11
624.362218677
 21
518.043086418
 31
0.0
  0
LINE
  8
0
  6
CONTINUOUS
 62
     1
 10
493.212218677
 20
518.043086418
 30
0.0
 11
630.841352425
 21
518.043086418
 31
0.0
  0
ARC
  8
0
  6
CONTINUOUS
 62
     1
 10
630.841352425
 20
513.043086418
 30
0.0
 40
5.0
 50
59.620873989
 51
90.0
  0
LINE
  8
0
  6
CONTINUOUS
 62
     1
 10
493.212218677
 20
528.043086418
 30
0.0
 11
630.841352425
 21
528.043086418
 31
0.0
  0
ARC
  8
0
  6
CONTINUOUS
 62
     1
 10
630.841352425
 20
513.043086418
 30
0.0
 40
15.0
 50
59.620873989
 51
90.0
  0
LINE
  8
0
  6
CONTINUOUS
 62
     1
 10
674.362218677
 20
499.143086418
 30
0.0
 11
668.512496693
 21
499.143086418
 31
0.0
  0
LINE
  8
0
  6
CONTINUOUS
 62
     1
 10
633.369949923
 20
517.356576269
 30
0.0
 11
660.926704197
 21
501.202616867
 31
0.0
  0
ARC
  8
0
  6
CONTINUOUS
 62
     1
 10
668.512496693
 20
514.143086418
 30
0.0
 40
15.0
 50
239.620873989
 51
270.0
  0
LINE
  8
0
  6
CONTINUOUS
 62
     1
 10
674.362218677
 20
508.143086418
 30
0.0
 11
670.218379046
 21
508.143086418
 31
0.0
  0
LINE
  8
0
  6
CONTINUOUS
 62
     1
 10
638.42714492
 20
525.98355597
 30
0.0
 11
667.689781547
 21
508.829596568
 31
0.0
  0
ARC
  8
0
  6
CONTINUOUS
 62
     1
 10
670.218379046
 20
513.143086418
 30
0.0
 40
5.0
 50
239.620873989
 51
270.0
  0
LINE
  8
0
  6
LTYPE4
 62
     2
 10
666.650453971
 20
503.643086418
 30
0.0
 11
712.862218677
 21
503.643086418
 31
0.0
  0
LINE
  8
0
  6
LTYPE4
 62
     2
 10
479.012218677
 20
523.043086418
 30
0.0
 11
633.556336324
 21
523.043086418
 31
0.0
  0
LINE
  8
0
  6
LTYPE4
 62
     2
 10
633.556336324
 20
523.043086418
 30
0.0
 11
666.650453971
 21
503.643086418
 31
0.0
  0
LINE
  8
0
  6
LTYPE2
 62
     2
 10
843.45968984
 20
597.143086418
 30
0.0
 11
332.862218677
 21
597.143086418
 31
0.0
  0
TEXT
  8
0
  6
CONTINUOUS
 62
     2
 10
352.162218677
 20
623.249147334
 30
2.7
 40
27.0
  1
ポジショナ
 50
0.0
 41
0.666666667
 51
0.0
  7
KANJI46
  0
LINE
  8
0
  6
CONTINUOUS
 62
     1
 10
624.362218677
 20
673.143086418
 30
0.0
 11
624.362218677
 21
873.143086418
 31
0.0
  0
LINE
  8
0
  6
LTYPE4
 62
     2
 10
406.762218677
 20
773.143086418
 30
0.0
 11
911.762218677
 21
773.143086418
 31
0.0
  0
LINE
  8
0
  6
CONTINUOUS
 62
     1
 10
636.362218677
 20
855.118814508
 30
0.0
 11
689.034354632
 21
855.118814508
 31
0.0
  0
LINE
  8
0
  6
CONTINUOUS
 62
     1
 10
638.862218677
 20
830.779086418
 30
0.0
 11
638.862218677
 21
840.579086418
 31
0.0
  0
LINE
  8
0
  6
CONTINUOUS
 62
     1
 10
638.862218677
 20
840.579086418
 30
0.0
 11
644.47657803
 21
840.579086418
 31
0.0
  0
LINE
  8
0
  6
CONTINUOUS
 62
     1
 10
645.862218677
 20
838.179086418
 30
0.0
 11
644.47657803
 21
840.579086418
 31
0.0
  0
LINE
  8
0
  6
CONTINUOUS
 62
     1
 10
645.862218677
 20
830.779086418
 30
0.0
 11
645.862218677
 21
838.179086418
 31
0.0
  0
LINE
  8
0
  6
CONTINUOUS
 62
     1
 10
638.862218677
 20
835.679086418
 30
0.0
 11
644.47657803
 21
835.679086418
 31
0.0
  0
LINE
  8
0
  6
CONTINUOUS
 62
     1
 10
638.862218677
 20
830.779086418
 30
0.0
 11
638.862218677
 21
820.979086418
 31
0.0
  0
LINE
  8
0
  6
CONTINUOUS
 62
     1
 10
638.862218677
 20
820.979086418
 30
0.0
 11
644.47657803
 21
820.979086418
 31
0.0
  0
LINE
  8
0
  6
CONTINUOUS
 62
     1
 10
645.862218677
 20
823.379086418
 30
0.0
 11
644.47657803
 21
820.979086418
 31
0.0
  0
LINE
  8
0
  6
CONTINUOUS
 62
     1
 10
645.862218677
 20
830.779086418
 30
0.0
 11
645.862218677
 21
823.379086418
 31
0.0
  0
LINE
  8
0
  6
CONTINUOUS
 62
     1
 10
638.862218677
 20
825.879086418
 30
0.0
 11
644.47657803
 21
825.879086418
 31
0.0
  0
ARC
  8
0
  6
CONTINUOUS
 62
     1
 10
636.505535876
 20
830.779086418
 30
0.0
 40
9.3566828
 50
328.419912243
 51
31.580087757
  0
ARC
  8
0
  6
CONTINUOUS
 62
     1
 10
643.004334844
 20
838.129086418
 30
0.0
 40
2.858321186
 50
301.002313915
 51
2.989498403
  0
LINE
  8
0
  6
CONTINUOUS
 62
     1
 10
645.862218677
 20
823.379086418
 30
0.0
 11
644.47657803
 21
820.979086418
 31
0.0
  0
ARC
  8
0
  6
CONTINUOUS
 62
     1
 10
643.004334844
 20
823.429086418
 30
0.0
 40
2.858321186
 50
357.010501597
 51
58.997686085
  0
LINE
  8
0
  6
CONTINUOUS
 62
     1
 10
636.362218677
 20
839.979086418
 30
0.0
 11
638.862218677
 21
839.979086418
 31
0.0
  0
LINE
  8
0
  6
CONTINUOUS
 62
     1
 10
636.362218677
 20
830.779086418
 30
0.0
 11
638.862218672
 21
833.279086414
 31
0.0
  0
LINE
  8
0
  6
CONTINUOUS
 62
     1
 10
638.862218672
 20
830.779086418
 30
0.0
 11
636.362218677
 21
828.279086423
 31
0.0
  0
LINE
  8
0
  6
CONTINUOUS
 62
     1
 10
636.362218677
 20
821.579086418
 30
0.0
 11
638.862218677
 21
821.579086418
 31
0.0
  0
LINE
  8
0
  6
CONTINUOUS
 62
     1
 10
846.362218677
 20
832.443086418
 30
0.0
 11
699.362218677
 21
832.443086418
 31
0.0
  0
LINE
  8
0
  6
CONTINUOUS
 62
     1
 10
846.362218677
 20
812.443086418
 30
0.0
 11
699.362218677
 21
812.443086418
 31
0.0
  0
LINE
  8
0
  6
CONTINUOUS
 62
     1
 10
636.362218677
 20
672.443086418
 30
0.0
 11
636.362218677
 21
872.443086418
 31
0.0
  0
LINE
  8
0
  6
CONTINUOUS
 62
     1
 10
846.362218677
 20
852.443086418
 30
0.0
 11
699.362218677
 21
852.443086418
 31
0.0
  0
LINE
  8
0
  6
CONTINUOUS
 62
     1
 10
817.862218677
 20
874.443086418
 30
0.0
 11
727.862218677
 21
874.443086418
 31
0.0
  0
LINE
  8
0
  6
CONTINUOUS
 62
     1
 10
856.362218677
 20
863.143086418
 30
0.0
 11
689.362218677
 21
863.143086418
 31
0.0
  0
LINE
  8
0
  6
CONTINUOUS
 62
     1
 10
689.362218677
 20
681.743086418
 30
0.0
 11
689.362218677
 21
863.143086418
 31
0.0
  0
LINE
  8
0
  6
LTYPE4
 62
     2
 10
628.862218677
 20
830.779086418
 30
0.0
 11
654.47657803
 21
830.779086418
 31
0.0
  0
LINE
  8
0
  6
CONTINUOUS
 62
     1
 10
636.362218677
 20
872.443086418
 30
0.0
 11
624.362218677
 21
872.443086418
 31
0.0
  0
LINE
  8
0
  6
CONTINUOUS
 62
     1
 10
636.362218677
 20
689.767358328
 30
0.0
 11
689.034354632
 21
689.767358328
 31
0.0
  0
LINE
  8
0
  6
CONTINUOUS
 62
     1
 10
638.862218677
 20
714.107086418
 30
0.0
 11
638.862218677
 21
704.307086418
 31
0.0
  0
LINE
  8
0
  6
CONTINUOUS
 62
     1
 10
638.862218677
 20
704.307086418
 30
0.0
 11
644.47657803
 21
704.307086418
 31
0.0
  0
LINE
  8
0
  6
CONTINUOUS
 62
     1
 10
645.862218677
 20
706.707086418
 30
0.0
 11
644.47657803
 21
704.307086418
 31
0.0
  0
LINE
  8
0
  6
CONTINUOUS
 62
     1
 10
645.862218677
 20
714.107086418
 30
0.0
 11
645.862218677
 21
706.707086418
 31
0.0
  0
LINE
  8
0
  6
CONTINUOUS
 62
     1
 10
638.862218677
 20
709.207086418
 30
0.0
 11
644.47657803
 21
709.207086418
 31
0.0
  0
LINE
  8
0
  6
CONTINUOUS
 62
     1
 10
638.862218677
 20
714.107086418
 30
0.0
 11
638.862218677
 21
723.907086418
 31
0.0
  0
LINE
  8
0
  6
CONTINUOUS
 62
     1
 10
638.862218677
 20
723.907086418
 30
0.0
 11
644.47657803
 21
723.907086418
 31
0.0
  0
LINE
  8
0
  6
CONTINUOUS
 62
     1
 10
645.862218677
 20
721.507086418
 30
0.0
 11
644.47657803
 21
723.907086418
 31
0.0
  0
LINE
  8
0
  6
CONTINUOUS
 62
     1
 10
645.862218677
 20
714.107086418
 30
0.0
 11
645.862218677
 21
721.507086418
 31
0.0
  0
LINE
  8
0
  6
CONTINUOUS
 62
     1
 10
638.862218677
 20
719.007086418
 30
0.0
 11
644.47657803
 21
719.007086418
 31
0.0
  0
ARC
  8
0
  6
CONTINUOUS
 62
     1
 10
636.505535876
 20
714.107086418
 30
0.0
 40
9.3566828
 50
328.419912243
 51
31.580087757
  0
ARC
  8
0
  6
CONTINUOUS
 62
     1
 10
643.004334844
 20
706.757086418
 30
0.0
 40
2.858321186
 50
357.010501597
 51
58.997686085
  0
LINE
  8
0
  6
CONTINUOUS
 62
     1
 10
645.862218677
 20
721.507086418
 30
0.0
 11
644.47657803
 21
723.907086418
 31
0.0
  0
ARC
  8
0
  6
CONTINUOUS
 62
     1
 10
643.004334844
 20
721.457086418
 30
0.0
 40
2.858321186
 50
301.002313915
 51
2.989498403
  0
LINE
  8
0
  6
CONTINUOUS
 62
     1
 10
636.362218677
 20
704.907086418
 30
0.0
 11
638.862218677
 21
704.907086418
 31
0.0
  0
LINE
  8
0
  6
CONTINUOUS
 62
     1
 10
636.362218677
 20
714.107086418
 30
0.0
 11
638.862218672
 21
711.607086423
 31
0.0
  0
LINE
  8
0
  6
CONTINUOUS
 62
     1
 10
638.862218672
 20
714.107086418
 30
0.0
 11
636.362218677
 21
716.607086414
 31
0.0
  0
LINE
  8
0
  6
CONTINUOUS
 62
     1
 10
636.362218677
 20
723.307086418
 30
0.0
 11
638.862218677
 21
723.307086418
 31
0.0
  0
LINE
  8
0
  6
CONTINUOUS
 62
     1
 10
846.362218677
 20
752.443086418
 30
0.0
 11
699.362218677
 21
752.443086418
 31
0.0
  0
LINE
  8
0
  6
CONTINUOUS
 62
     1
 10
846.362218677
 20
732.443086418
 30
0.0
 11
699.362218677
 21
732.443086418
 31
0.0
  0
LINE
  8
0
  6
CONTINUOUS
 62
     1
 10
846.362218677
 20
712.443086418
 30
0.0
 11
699.362218677
 21
712.443086418
 31
0.0
  0
LINE
  8
0
  6
CONTINUOUS
 62
     1
 10
846.362218677
 20
692.443086418
 30
0.0
 11
699.362218677
 21
692.443086418
 31
0.0
  0
LINE
  8
0
  6
CONTINUOUS
 62
     1
 10
856.362218677
 20
752.443086418
 30
0.0
 11
964.737217827
 21
752.443086418
 31
0.0
  0
LINE
  8
0
  6
CONTINUOUS
 62
     1
 10
856.362218677
 20
681.743086418
 30
0.0
 11
689.362218677
 21
681.743086418
 31
0.0
  0
LINE
  8
0
  6
CONTINUOUS
 62
     1
 10
856.362218677
 20
672.443086418
 30
0.0
 11
952.17660727
 21
672.443086418
 31
0.0
  0
LINE
  8
0
  6
CONTINUOUS
 62
     1
 10
856.362218677
 20
669.943086418
 30
0.0
 11
856.362218677
 21
874.943086418
 31
0.0
  0
LINE
  8
0
  6
LTYPE4
 62
     2
 10
628.862218677
 20
714.107086418
 30
0.0
 11
654.47657803
 21
714.107086418
 31
0.0
  0
LINE
  8
0
  6
CONTINUOUS
 62
     1
 10
636.362218677
 20
672.443086418
 30
0.0
 11
624.362218677
 21
672.443086418
 31
0.0
  0
LINE
  8
0
  6
CONTINUOUS
 62
     1
 10
981.103735951
 20
788.391187684
 30
0.0
 11
981.103735951
 21
719.391187684
 31
0.0
  0
POINT
  8
0
  6
CONTINUOUS
 62
     1
 10
981.103735951
 20
719.391187684
 30
0.0
  0
LINE
  8
0
  6
CONTINUOUS
 62
     1
 10
981.103735951
 20
719.391187684
 30
0.0
 11
986.103735951
 21
719.391187684
 31
0.0
  0
POINT
  8
0
  6
CONTINUOUS
 62
     1
 10
986.103735951
 20
719.391187684
 30
0.0
  0
LINE
  8
0
  6
CONTINUOUS
 62
     1
 10
986.103735951
 20
719.391187684
 30
0.0
 11
986.103735951
 21
788.391187684
 31
0.0
  0
LINE
  8
0
  6
CONTINUOUS
 62
     1
 10
991.503735951
 20
732.193086418
 30
0.0
 11
991.503735951
 21
723.393086418
 31
0.0
  0
POINT
  8
0
  6
CONTINUOUS
 62
     1
 10
991.503735951
 20
723.393086418
 30
0.0
  0
LINE
  8
0
  6
CONTINUOUS
 62
     1
 10
991.503735951
 20
723.393086418
 30
0.0
 11
986.203735951
 21
723.393086418
 31
0.0
  0
LINE
  8
0
  6
CONTINUOUS
 62
     1
 10
981.103735951
 20
729.393086418
 30
0.0
 11
972.203735951
 21
729.393086418
 31
0.0
  0
LINE
  8
0
  6
CONTINUOUS
 62
     1
 10
981.103735951
 20
726.293086418
 30
0.0
 11
971.903735951
 21
726.293086418
 31
0.0
  0
LINE
  8
0
  6
LTYPE4
 62
     2
 10
967.203735951
 20
727.893086418
 30
0.0
 11
997.203735951
 21
727.893086418
 31
0.0
  0
ARC
  8
0
  6
CONTINUOUS
 62
     1
 10
950.17660727
 20
687.443086418
 30
0.0
 40
15.0
 50
270.0
 51
349.054602904
  0
ARC
  8
0
  6
CONTINUOUS
 62
     1
 10
564.362218677
 20
772.443086418
 30
0.0
 40
410.0
 50
347.629566941
 51
12.370433059
  0
ARC
  8
0
  6
CONTINUOUS
 62
     1
 10
950.285732594
 20
684.749146047
 30
0.0
 40
15.0
 50
270.0
 51
349.054602904
  0
LINE
  8
0
  6
CONTINUOUS
 62
     1
 10
856.362218677
 20
669.943086418
 30
0.0
 11
952.17660727
 21
669.943086418
 31
0.0
  0
LINE
  8
2
  6
CONTINUOUS
 62
     2
 10
949.881445116
 20
669.943086418
 30
0.0
 11
1039.881445116
 21
669.943086418
 31
0.0
  0
LINE
  8
2
  6
CONTINUOUS
 62
     2
 10
1029.881445116
 20
669.943086418
 30
0.0
 11
1033.11668318
 21
682.017159247
 31
0.0
  0
LINE
  8
2
  6
CONTINUOUS
 62
     2
 10
1029.881445116
 20
669.943086418
 30
0.0
 11
1026.646207052
 21
682.017159247
 31
0.0
  0
LINE
  8
2
  6
CONTINUOUS
 62
     2
 10
1029.881445116
 20
669.943086418
 30
0.0
 11
1029.881445116
 21
874.943086418
 31
0.0
  0
LINE
  8
0
  6
CONTINUOUS
 62
     1
 10
990.903735951
 20
756.494985153
 30
0.0
 11
990.903735951
 21
788.391187684
 31
0.0
  0
LINE
  8
0
  6
CONTINUOUS
 62
     1
 10
986.103735951
 20
756.494985153
 30
0.0
 11
990.903735951
 21
756.494985153
 31
0.0
  0
LINE
  8
0
  6
CONTINUOUS
 62
     1
 10
981.103735951
 20
768.243086418
 30
0.0
 11
974.403735951
 21
768.243086418
 31
0.0
  0
LINE
  8
0
  6
CONTINUOUS
 62
     1
 10
986.103735951
 20
732.193086418
 30
0.0
 11
991.503735951
 21
732.193086418
 31
0.0
  0
POINT
  8
0
  6
CONTINUOUS
 62
     1
 10
991.503735951
 20
732.193086418
 30
0.0
  0
LINE
  8
0
  6
CONTINUOUS
 62
     1
 10
990.903735951
 20
759.043086418
 30
0.0
 11
994.362218677
 21
759.043086418
 31
0.0
  0
LINE
  8
0
  6
CONTINUOUS
 62
     1
 10
994.362218677
 20
759.043086418
 30
0.0
 11
994.362218677
 21
763.643086418
 31
0.0
  0
LINE
  8
0
  6
CONTINUOUS
 62
     1
 10
990.903735951
 20
763.643086418
 30
0.0
 11
994.362218677
 21
763.643086418
 31
0.0
  0
LINE
  8
0
  6
CONTINUOUS
 62
     1
 10
990.903735951
 20
770.143086418
 30
0.0
 11
994.362218677
 21
770.143086418
 31
0.0
  0
LINE
  8
0
  6
CONTINUOUS
 62
     1
 10
994.362218677
 20
770.143086418
 30
0.0
 11
994.362218677
 21
774.743086418
 31
0.0
  0
ARC
  8
0
  6
CONTINUOUS
 62
     1
 10
964.237199139
 20
762.443086418
 30
0.0
 40
10.0
 50
270.0
 51
358.567456262
  0
TEXT
  8
2
  6
CONTINUOUS
 62
     3
 10
1024.881445116
 20
738.193086418
 30
1.5
 40
17.5
  1
φ２０５
 50
90.0
 41
0.914285714
 51
0.0
  7
KANJI47
  0
LINE
  8
0
  6
CONTINUOUS
 62
     1
 10
981.103735951
 20
788.391187684
 30
0.0
 11
990.903735951
 21
788.391187684
 31
0.0
  0
LINE
  8
0
  6
CONTINUOUS
 62
     1
 10
990.903735951
 20
785.843086418
 30
0.0
 11
994.362218677
 21
785.843086418
 31
0.0
  0
LINE
  8
0
  6
CONTINUOUS
 62
     1
 10
994.362218677
 20
785.843086418
 30
0.0
 11
994.362218677
 21
781.243086418
 31
0.0
  0
LINE
  8
0
  6
CONTINUOUS
 62
     1
 10
990.903735951
 20
781.243086418
 30
0.0
 11
994.362218677
 21
781.243086418
 31
0.0
  0
ARC
  8
0
  6
CONTINUOUS
 62
     1
 10
964.237199139
 20
782.443086418
 30
0.0
 40
10.0
 50
1.432543738
 51
90.0
  0
LINE
  8
0
  6
CONTINUOUS
 62
     1
 10
964.237217827
 20
792.443086418
 30
0.0
 11
856.362218677
 21
792.443086418
 31
0.0
  0
LINE
  8
2
  6
CONTINUOUS
 62
     2
 10
994.362218677
 20
790.843086418
 30
0.0
 11
994.362218677
 21
992.283086418
 31
0.0
  0
TEXT
  8
2
  6
CONTINUOUS
 62
     3
 10
783.862218677
 20
1017.843086418
 30
1.5
 40
17.5
  1
３７０
 50
0.0
 41
0.914285714
 51
0.0
  7
KANJI47
  0
LINE
  8
0
  6
CONTINUOUS
 62
     1
 10
846.362218677
 20
792.443086418
 30
0.0
 11
699.362218677
 21
792.443086418
 31
0.0
  0
LINE
  8
0
  6
CONTINUOUS
 62
     1
 10
981.103735951
 20
776.643086418
 30
0.0
 11
974.403735951
 21
776.643086418
 31
0.0
  0
LINE
  8
0
  6
CONTINUOUS
 62
     1
 10
990.903735951
 20
774.743086418
 30
0.0
 11
994.362218677
 21
774.743086418
 31
0.0
  0
LINE
  8
0
  6
CONTINUOUS
 62
     1
 10
862.862218677
 20
885.443086418
 30
0.0
 11
862.862218677
 21
925.443086418
 31
0.0
  0
LINE
  8
0
  6
CONTINUOUS
 62
     1
 10
843.862218677
 20
960.443086418
 30
0.0
 11
695.862218677
 21
886.443086418
 31
0.0
  0
LINE
  8
0
  6
CONTINUOUS
 62
     1
 10
848.334354632
 20
951.498814508
 30
0.0
 11
700.334354632
 21
877.498814508
 31
0.0
  0
ARC
  8
0
  6
CONTINUOUS
 62
     1
 10
817.862218677
 20
884.443086418
 30
0.0
 40
10.0
 50
270.0
 51
0.0
  0
ARC
  8
0
  6
CONTINUOUS
 62
     1
 10
817.862218677
 20
950.443086418
 30
0.0
 40
10.0
 50
0.0
 51
90.0
  0
LINE
  8
0
  6
CONTINUOUS
 62
     1
 10
817.862218677
 20
960.443086418
 30
0.0
 11
727.862218677
 21
960.443086418
 31
0.0
  0
ARC
  8
0
  6
CONTINUOUS
 62
     1
 10
727.862218677
 20
950.443086418
 30
0.0
 40
10.0
 50
90.0
 51
180.0
  0
ARC
  8
0
  6
CONTINUOUS
 62
     1
 10
727.862218677
 20
884.443086418
 30
0.0
 40
10.0
 50
180.0
 51
270.0
  0
LINE
  8
0
  6
CONTINUOUS
 62
     1
 10
695.862218677
 20
886.443086418
 30
0.0
 11
700.334354632
 21
877.498814508
 31
0.0
  0
LINE
  8
0
  6
CONTINUOUS
 62
     1
 10
717.862218677
 20
897.358814508
 30
0.0
 11
717.862218677
 21
950.443086418
 31
0.0
  0
LINE
  8
0
  6
CONTINUOUS
 62
     1
 10
717.862218677
 20
884.443086418
 30
0.0
 11
717.862218677
 21
886.358814508
 31
0.0
  0
LINE
  8
0
  6
CONTINUOUS
 62
     1
 10
827.862218677
 20
884.443086418
 30
0.0
 11
827.862218677
 21
940.358814508
 31
0.0
  0
LINE
  8
0
  6
CONTINUOUS
 62
     1
 10
844.074354632
 20
961.238814508
 30
0.0
 11
848.874354632
 21
952.038814508
 31
0.0
  0
LINE
  8
0
  6
CONTINUOUS
 62
     1
 10
862.862218677
 20
925.443086418
 30
0.0
 11
827.862218677
 21
925.443086418
 31
0.0
  0
LINE
  8
0
  6
CONTINUOUS
 62
     1
 10
862.862218677
 20
885.443086418
 30
0.0
 11
827.862218677
 21
885.443086418
 31
0.0
  0
LINE
  8
0
  6
CONTINUOUS
 62
     1
 10
856.362218677
 20
872.443086418
 30
0.0
 11
952.17660727
 21
872.443086418
 31
0.0
  0
ARC
  8
0
  6
CONTINUOUS
 62
     1
 10
950.17660727
 20
857.443086418
 30
0.0
 40
15.0
 50
10.945397096
 51
90.0
  0
ARC
  8
0
  6
CONTINUOUS
 62
     1
 10
950.285732594
 20
860.13702679
 30
0.0
 40
15.0
 50
10.945397096
 51
90.0
  0
LINE
  8
0
  6
CONTINUOUS
 62
     1
 10
856.362218677
 20
874.943086418
 30
0.0
 11
952.17660727
 21
874.943086418
 31
0.0
  0
LINE
  8
0
  6
CONTINUOUS
 62
     1
 10
807.762218677
 20
874.443086418
 30
0.0
 11
807.762218677
 21
863.143086418
 31
0.0
  0
LINE
  8
0
  6
CONTINUOUS
 62
     1
 10
737.962218677
 20
874.443086418
 30
0.0
 11
737.962218677
 21
863.143086418
 31
0.0
  0
TEXT
  8
2
  6
CONTINUOUS
 62
     3
 10
872.362218677
 20
963.843086418
 30
1.5
 40
17.5
  1
ＰＦ３／４
 50
0.0
 41
0.914285714
 51
0.0
  7
KANJI47
  0
LINE
  8
2
  6
CONTINUOUS
 62
     2
 10
872.362218677
 20
955.843086418
 30
0.0
 11
989.962218677
 21
955.843086418
 31
0.0
  0
LINE
  8
2
  6
CONTINUOUS
 62
     2
 10
1029.881445116
 20
874.943086418
 30
0.0
 11
1026.646207052
 21
862.86901359
 31
0.0
  0
LINE
  8
2
  6
CONTINUOUS
 62
     2
 10
1029.881445116
 20
874.943086418
 30
0.0
 11
1033.11668318
 21
862.86901359
 31
0.0
  0
LINE
  8
2
  6
CONTINUOUS
 62
     2
 10
950.881445116
 20
874.943086418
 30
0.0
 11
1039.881445116
 21
874.943086418
 31
0.0
  0
LINE
  8
2
  6
CONTINUOUS
 62
     2
 10
624.362218677
 20
1012.843086418
 30
0.0
 11
994.362218677
 21
1012.843086418
 31
0.0
  0
LINE
  8
2
  6
CONTINUOUS
 62
     2
 10
994.362218677
 20
1012.843086418
 30
0.0
 11
982.288145848
 21
1016.078324482
 31
0.0
  0
LINE
  8
2
  6
CONTINUOUS
 62
     2
 10
994.362218677
 20
1012.843086418
 30
0.0
 11
982.288145848
 21
1009.607848355
 31
0.0
  0
LINE
  8
0
  6
LTYPE4
 62
     2
 10
869.014354632
 20
905.443086418
 30
0.0
 11
817.914354632
 21
905.443086418
 31
0.0
  0
LINE
  8
0
  6
LTYPE4
 62
     2
 10
772.862218677
 20
861.193086418
 30
0.0
 11
772.862218677
 21
970.243086418
 31
0.0
  0
LINE
  8
2
  6
CONTINUOUS
 62
     2
 10
863.862218677
 20
911.843086418
 30
0.0
 11
872.608871558
 21
929.829082731
 31
0.0
  0
LINE
  8
2
  6
CONTINUOUS
 62
     2
 10
863.862218677
 20
911.843086418
 30
0.0
 11
862.444044114
 21
931.792742579
 31
0.0
  0
LINE
  8
2
  6
CONTINUOUS
 62
     2
 10
863.862218677
 20
911.843086418
 30
0.0
 11
872.362218677
 21
955.843086418
 31
0.0
  0
LINE
  8
2
  6
CONTINUOUS
 62
     2
 10
624.362218677
 20
1012.843086418
 30
0.0
 11
636.436291505
 21
1009.607848355
 31
0.0
  0
LINE
  8
2
  6
CONTINUOUS
 62
     2
 10
624.362218677
 20
1012.843086418
 30
0.0
 11
636.436291505
 21
1016.078324482
 31
0.0
  0
LINE
  8
2
  6
CONTINUOUS
 62
     2
 10
624.362218677
 20
884.143086418
 30
0.0
 11
624.362218677
 21
1018.843086418
 31
0.0
  0
LINE
  8
2
  6
CONTINUOUS
 62
     2
 10
624.362218677
 20
1005.593086418
 30
0.0
 11
624.362218677
 21
1018.843086418
 31
0.0
  0
LINE
  8
0
  6
CONTINUOUS
 62
     2
 10
865.0
 20
652.143086418
 30
0.0
 11
855.0
 21
652.143086418
 31
0.0
  0
LINE
  8
0
  6
CONTINUOUS
 62
     2
 10
867.0
 20
652.143086418
 30
0.0
 11
863.117714323
 21
637.654199024
 31
0.0
  0
LINE
  8
0
  6
CONTINUOUS
 62
     2
 10
867.0
 20
652.143086418
 30
0.0
 11
870.882285677
 21
637.654199024
 31
0.0
  0
LINE
  8
0
  6
CONTINUOUS
 62
     2
 10
867.0
 20
652.143086418
 30
0.0
 11
867.0
 21
542.143086418
 31
0.0
  0
LINE
  8
0
  6
CONTINUOUS
 62
     2
 10
867.0
 20
542.143086418
 30
0.0
 11
870.882285677
 21
556.631973813
 31
0.0
  0
LINE
  8
0
  6
CONTINUOUS
 62
     2
 10
867.0
 20
542.143086418
 30
0.0
 11
863.117714323
 21
556.631973813
 31
0.0
  0
LINE
  8
0
  6
CONTINUOUS
 62
     2
 10
861.0
 20
542.143086418
 30
0.0
 11
855.0
 21
542.143086418
 31
0.0
  0
TEXT
  8
0
  6
CONTINUOUS
 62
     3
 10
861.0
 20
564.743086418
 30
0.0
 40
18.0
  1
φ１１０
 50
90.0
 41
0.9
 51
0.0
  7
KANJI41
  0
LINE
  8
0
  6
CONTINUOUS
 62
     2
 10
486.339634217
 20
556.760825051
 30
0.0
 11
478.411912788
 21
544.026963384
 31
0.0
  0
LINE
  8
0
  6
CONTINUOUS
 62
     2
 10
486.339634217
 20
556.760825051
 30
0.0
 11
485.840956899
 21
541.769116645
 31
0.0
  0
LINE
  8
0
  6
CONTINUOUS
 62
     2
 10
486.339634217
 20
556.760825051
 30
0.0
 11
455.339634217
 21
454.760825051
 31
0.0
  0
LINE
  8
0
  6
CONTINUOUS
 62
     2
 10
914.762218677
 20
579.143086418
 30
0.0
 11
929.762218677
 21
476.143086418
 31
0.0
  0
LINE
  8
0
  6
CONTINUOUS
 62
     2
 10
929.762218677
 20
476.143086418
 30
0.0
 11
978.362218677
 21
476.143086418
 31
0.0
  0
TEXT
  8
0
  6
CONTINUOUS
 62
     3
 10
929.762218677
 20
482.143086418
 30
0.0
 40
18.0
  1
給脂口
 50
0.0
 41
0.9
 51
0.0
  7
KANJI41
  0
LINE
  8
0
  6
CONTINUOUS
 62
     2
 10
914.762218677
 20
579.143086418
 30
0.0
 11
913.008464737
 21
564.245960953
 31
0.0
  0
LINE
  8
0
  6
CONTINUOUS
 62
     2
 10
914.762218677
 20
579.143086418
 30
0.0
 11
920.691985946
 21
565.364920353
 31
0.0
  0
LINE
  8
0
  6
CONTINUOUS
 62
     1
 10
1045.18722658
 20
652.143086418
 30
0.0
 11
838.362218677
 21
652.143086418
 31
0.0
  0
LINE
  8
0
  6
CONTINUOUS
 62
     1
 10
1096.762218677
 20
542.143086418
 30
0.0
 11
838.362218677
 21
542.143086418
 31
0.0
  0
LINE
  8
0
  6
CONTINUOUS
 62
     2
 10
709.362218677
 20
550.393086418
 30
0.0
 11
709.362218677
 21
343.393086418
 31
0.0
  0
LINE
  8
0
  6
CONTINUOUS
 62
     2
 10
709.362218677
 20
370.393086418
 30
0.0
 11
709.362218677
 21
343.393086418
 31
0.0
  0
LINE
  8
0
  6
CONTINUOUS
 62
     2
 10
1221.962218677
 20
599.143086418
 30
0.0
 11
1221.962218677
 21
373.393086418
 31
0.0
  0
LINE
  8
0
  6
CONTINUOUS
 62
     2
 10
709.362218677
 20
364.393086418
 30
0.0
 11
709.362218677
 21
343.393086418
 31
0.0
  0
LINE
  8
0
  6
CONTINUOUS
 62
     2
 10
709.362218677
 20
355.393086418
 30
0.0
 11
723.851106071
 21
351.510800742
 31
0.0
  0
LINE
  8
0
  6
CONTINUOUS
 62
     2
 10
709.362218677
 20
355.393086418
 30
0.0
 11
723.851106071
 21
359.275372095
 31
0.0
  0
LINE
  8
0
  6
CONTINUOUS
 62
     2
 10
709.362218677
 20
355.393086418
 30
0.0
 11
1221.962218677
 21
355.393086418
 31
0.0
  0
LINE
  8
0
  6
CONTINUOUS
 62
     2
 10
1221.962218677
 20
355.393086418
 30
0.0
 11
1207.473331282
 21
359.275372095
 31
0.0
  0
LINE
  8
0
  6
CONTINUOUS
 62
     2
 10
1221.962218677
 20
355.393086418
 30
0.0
 11
1207.473331282
 21
351.510800742
 31
0.0
  0
LINE
  8
0
  6
CONTINUOUS
 62
     2
 10
1221.962218677
 20
395.393086418
 30
0.0
 11
1221.962218677
 21
343.393086418
 31
0.0
  0
LINE
  8
0
  6
CONTINUOUS
 62
     2
 10
709.362218677
 20
405.393086418
 30
0.0
 11
723.851106071
 21
401.510800742
 31
0.0
  0
LINE
  8
0
  6
CONTINUOUS
 62
     2
 10
709.362218677
 20
405.393086418
 30
0.0
 11
723.851106071
 21
409.275372095
 31
0.0
  0
LINE
  8
0
  6
CONTINUOUS
 62
     2
 10
709.362218677
 20
405.393086418
 30
0.0
 11
1096.762218677
 21
405.393086418
 31
0.0
  0
LINE
  8
0
  6
CONTINUOUS
 62
     2
 10
1096.762218677
 20
405.393086418
 30
0.0
 11
1082.273331282
 21
409.275372095
 31
0.0
  0
LINE
  8
0
  6
CONTINUOUS
 62
     2
 10
1096.762218677
 20
405.393086418
 30
0.0
 11
1082.273331282
 21
401.510800742
 31
0.0
  0
LINE
  8
0
  6
CONTINUOUS
 62
     2
 10
1096.762218677
 20
586.143086418
 30
0.0
 11
1096.762218677
 21
393.393086418
 31
0.0
  0
TEXT
  8
0
  6
CONTINUOUS
 62
     3
 10
894.962218677
 20
411.393086418
 30
0.0
 40
18.0
  1
Ｃ
 50
0.0
 41
0.9
 51
0.0
  7
KANJI41
  0
LINE
  8
0
  6
CONTINUOUS
 62
     2
 10
1096.762218677
 20
418.393086418
 30
0.0
 11
1096.762218677
 21
393.393086418
 31
0.0
  0
LINE
  8
0
  6
CONTINUOUS
 62
     2
 10
1096.762218677
 20
405.393086418
 30
0.0
 11
1111.251106071
 21
401.510800742
 31
0.0
  0
LINE
  8
0
  6
CONTINUOUS
 62
     2
 10
1096.762218677
 20
405.393086418
 30
0.0
 11
1111.251106071
 21
409.275372095
 31
0.0
  0
LINE
  8
0
  6
CONTINUOUS
 62
     2
 10
1096.762218677
 20
405.393086418
 30
0.0
 11
1161.962218677
 21
405.393086418
 31
0.0
  0
LINE
  8
0
  6
CONTINUOUS
 62
     2
 10
1161.962218677
 20
405.393086418
 30
0.0
 11
1147.473331282
 21
409.275372095
 31
0.0
  0
LINE
  8
0
  6
CONTINUOUS
 62
     2
 10
1161.962218677
 20
405.393086418
 30
0.0
 11
1147.473331282
 21
401.510800742
 31
0.0
  0
LINE
  8
0
  6
CONTINUOUS
 62
     2
 10
1161.962218677
 20
593.643086418
 30
0.0
 11
1161.962218677
 21
393.393086418
 31
0.0
  0
LINE
  8
0
  6
CONTINUOUS
 62
     2
 10
1161.962218677
 20
437.393086418
 30
0.0
 11
1161.962218677
 21
393.393086418
 31
0.0
  0
LINE
  8
0
  6
CONTINUOUS
 62
     2
 10
1161.962218677
 20
405.393086418
 30
0.0
 11
1176.451106071
 21
401.510800742
 31
0.0
  0
LINE
  8
0
  6
CONTINUOUS
 62
     2
 10
1161.962218677
 20
405.393086418
 30
0.0
 11
1176.451106071
 21
409.275372095
 31
0.0
  0
LINE
  8
0
  6
CONTINUOUS
 62
     2
 10
1161.962218677
 20
405.393086418
 30
0.0
 11
1221.962218677
 21
405.393086418
 31
0.0
  0
LINE
  8
0
  6
CONTINUOUS
 62
     2
 10
1221.962218677
 20
405.393086418
 30
0.0
 11
1207.473331282
 21
409.275372095
 31
0.0
  0
LINE
  8
0
  6
CONTINUOUS
 62
     2
 10
1221.962218677
 20
405.393086418
 30
0.0
 11
1207.473331282
 21
401.510800742
 31
0.0
  0
TEXT
  8
0
  6
CONTINUOUS
 62
     3
 10
1175.762218677
 20
411.393086418
 30
0.0
 40
18.0
  1
６０
 50
0.0
 41
0.9
 51
0.0
  7
KANJI41
  0
LINE
  8
0
  6
CONTINUOUS
 62
     2
 10
1221.962218677
 20
363.393086418
 30
0.0
 11
1221.962218677
 21
293.393086418
 31
0.0
  0
LINE
  8
0
  6
CONTINUOUS
 62
     2
 10
1221.962218677
 20
305.393086418
 30
0.0
 11
1207.473331282
 21
309.275372095
 31
0.0
  0
LINE
  8
0
  6
CONTINUOUS
 62
     2
 10
1221.962218677
 20
305.393086418
 30
0.0
 11
1207.473331282
 21
301.510800742
 31
0.0
  0
LINE
  8
0
  6
CONTINUOUS
 62
     2
 10
1221.962218677
 20
305.393086418
 30
0.0
 11
342.362218677
 21
305.393086418
 31
0.0
  0
LINE
  8
0
  6
CONTINUOUS
 62
     2
 10
342.362218677
 20
305.393086418
 30
0.0
 11
356.851106071
 21
301.510800742
 31
0.0
  0
LINE
  8
0
  6
CONTINUOUS
 62
     2
 10
342.362218677
 20
305.393086418
 30
0.0
 11
356.851106071
 21
309.275372095
 31
0.0
  0
LINE
  8
0
  6
CONTINUOUS
 62
     2
 10
342.362218677
 20
513.494970859
 30
0.0
 11
342.362218677
 21
293.393086418
 31
0.0
  0
TEXT
  8
0
  6
CONTINUOUS
 62
     3
 10
733.562218677
 20
311.393086418
 30
0.0
 40
18.0
  1
ｍｉｎ．ＡＬ
 50
0.0
 41
0.9
 51
0.0
  7
KANJI41
  0
TEXT
  8
0
  6
CONTINUOUS
 62
     3
 10
927.562218677
 20
361.393086418
 30
0.0
 40
18.0
  1
ｍｉｎ．Ｌ
 50
0.0
 41
0.9
 51
0.0
  7
KANJI41
  0
TEXT
  8
0
  6
CONTINUOUS
 62
     3
 10
1097.862218677
 20
411.393086418
 30
-3.0
 40
18.0
  1
ｍｉｎ．Ｐ
 50
0.0
 41
0.833333333
 51
0.0
  7
KANJI48
  0
TEXT
  8
0
  6
CONTINUOUS
 62
     2
 10
2152.92
 20
1370.7
 30
1.8
 40
18.0
  1
　５０／６０
 50
0.0
 41
0.9
 51
0.0
  7
KANJI28
  0
LINE
  8
0
  6
CONTINUOUS
 62
     2
 10
1230.0
 20
587.0
 30
0.0
 11
1229.845569751
 21
572.000794978
 31
0.0
  0
LINE
  8
0
  6
CONTINUOUS
 62
     2
 10
1230.0
 20
587.0
 30
0.0
 11
1237.365861993
 21
573.93309229
 31
0.0
  0
TEXT
  8
0
  6
CONTINUOUS
 62
     3
 10
1269.0
 20
440.0
 30
0.0
 40
18.0
  1
φ２５Ｈ１０
 50
0.0
 41
0.9
 51
0.0
  7
KANJI41
  0
LINE
  8
0
  6
CONTINUOUS
 62
     2
 10
1269.3125
 20
434.0
 30
0.0
 11
1366.2
 21
434.0
 31
0.0
  0
LINE
  8
0
  6
CONTINUOUS
 62
     2
 10
1230.0
 20
587.0
 30
0.0
 11
1269.3125
 21
434.0
 31
0.0
  0
TEXT
  8
0
  6
CONTINUOUS
 62
     3
 10
1331.0
 20
462.0
 30
0.0
 40
18.0
  1
ｄ９
 50
0.0
 41
0.9
 51
0.0
  7
KANJI41
  0
LINE
  8
2
  6
CONTINUOUS
 62
     2
 10
1312.762218677
 20
517.043086418
 30
0.0
 11
1312.762218677
 21
470.143086418
 31
0.0
  0
TEXT
  8
0
  6
CONTINUOUS
 62
     2
 10
2163.42
 20
1494.6
 30
1.2
 40
18.0
  1
ＭＣＬＥ２Ｃ－　　ＪＮ
 50
0.0
 41
0.833333333
 51
0.0
  7
KANJI49
  0
TEXT
  8
0
  6
CONTINUOUS
 62
     2
 10
1861.92
 20
251.7
 30
0.0
 40
21.0
  1
ＭＣＬＥ２Ｃ－ＪＮ
 50
0.0
 41
0.793650794
 51
0.0
  7
KANJI50
  0
TEXT
  8
0
  6
CONTINUOUS
 62
     2
 10
1976.7200334
 20
155.699994
 30
13.0
 40
30.0
  1
３００２５４４
 50
0.0
 41
0.8
 51
0.0
  7
KANJI51
  0
LINE
  8
0
  6
LTYPE4
 62
     6
 10
117.36
 20
1653.54
 30
0.0
 11
117.36
 21
1147.14
 31
0.0
  0
LINE
  8
0
  6
LTYPE4
 62
     6
 10
117.36
 20
1147.14
 30
0.0
 11
872.64
 21
1147.14
 31
0.0
  0
TEXT
  8
0
  6
CONTINUOUS
 62
     6
 10
244.661963977
 20
1155.209618036
 30
0.0
 40
17.031074144
  1
２カム端子台　接続図
 50
0.0
 41
0.880962996
 51
0.0
  7
KANJI52
  0
LINE
  8
0
  6
LTYPE4
 62
     6
 10
872.64
 20
1653.54
 30
0.0
 11
117.36
 21
1653.54
 31
0.0
  0
CIRCLE
  8
0
  6
CONTINUOUS
 62
     6
 10
263.814412943
 20
1246.642753509
 30
0.0
 40
3.936205455
  0
LINE
  8
0
  6
CONTINUOUS
 62
     6
 10
264.057734816
 20
1242.615699739
 30
0.0
 11
267.815625379
 21
1221.174046359
 31
0.0
  0
LINE
  8
0
  6
CONTINUOUS
 62
     6
 10
264.057734816
 20
1242.615699739
 30
0.0
 11
268.595009475
 21
1243.371912182
 31
0.0
  0
LINE
  8
0
  6
CONTINUOUS
 62
     6
 10
268.595009475
 20
1243.371912182
 30
0.0
 11
272.353195556
 21
1221.930308055
 31
0.0
  0
LINE
  8
0
  6
CONTINUOUS
 62
     6
 10
263.814412943
 20
1250.578958964
 30
0.0
 11
263.814412943
 21
1258.492918711
 31
0.0
  0
LINE
  8
0
  6
CONTINUOUS
 62
     6
 10
314.839298476
 20
1258.492918711
 30
0.0
 11
263.814412943
 21
1258.492918711
 31
0.0
  0
LINE
  8
0
  6
CONTINUOUS
 62
     6
 10
314.839298476
 20
1206.935916515
 30
0.0
 11
314.839298476
 21
1258.492918711
 31
0.0
  0
CIRCLE
  8
0
  6
CONTINUOUS
 62
     6
 10
391.376626774
 20
1246.642753509
 30
0.0
 40
3.936205455
  0
LINE
  8
0
  6
CONTINUOUS
 62
     6
 10
391.133304902
 20
1242.615699739
 30
0.0
 11
387.375414339
 21
1221.174046359
 31
0.0
  0
LINE
  8
0
  6
CONTINUOUS
 62
     6
 10
391.133304902
 20
1242.615699739
 30
0.0
 11
386.596030243
 21
1243.371912182
 31
0.0
  0
LINE
  8
0
  6
CONTINUOUS
 62
     6
 10
386.596030243
 20
1243.371912182
 30
0.0
 11
382.837844161
 21
1221.930308055
 31
0.0
  0
LINE
  8
0
  6
CONTINUOUS
 62
     6
 10
391.376626774
 20
1250.578958964
 30
0.0
 11
391.376626774
 21
1258.492918711
 31
0.0
  0
LINE
  8
0
  6
CONTINUOUS
 62
     6
 10
340.351741242
 20
1258.492918711
 30
0.0
 11
391.376626774
 21
1258.492918711
 31
0.0
  0
LINE
  8
0
  6
CONTINUOUS
 62
     6
 10
340.351741242
 20
1206.935916515
 30
0.0
 11
340.351741242
 21
1258.492918711
 31
0.0
  0
LINE
  8
0
  6
CONTINUOUS
 62
     2
 10
353.107962625
 20
1307.373746261
 30
0.0
 11
353.107962625
 21
1285.505938175
 31
0.0
  0
LINE
  8
0
  6
CONTINUOUS
 62
     2
 10
378.620405391
 20
1307.373746261
 30
0.0
 11
378.620405391
 21
1285.505938175
 31
0.0
  0
LINE
  8
0
  6
CONTINUOUS
 62
     2
 10
404.132848158
 20
1307.373746261
 30
0.0
 11
404.132848158
 21
1285.505938175
 31
0.0
  0
LINE
  8
0
  6
CONTINUOUS
 62
     2
 10
429.645290924
 20
1307.373746261
 30
0.0
 11
429.645290924
 21
1285.505938175
 31
0.0
  0
CIRCLE
  8
0
  6
CONTINUOUS
 62
     6
 10
289.326855709
 20
1320.824635014
 30
0.0
 40
3.936205455
  0
LINE
  8
0
  6
CONTINUOUS
 62
     6
 10
289.083533837
 20
1343.053529485
 30
0.0
 11
285.325643274
 21
1321.611876105
 31
0.0
  0
LINE
  8
0
  6
CONTINUOUS
 62
     6
 10
284.546259178
 20
1343.809741928
 30
0.0
 11
280.788073096
 21
1322.368137801
 31
0.0
  0
LINE
  8
0
  6
CONTINUOUS
 62
     6
 10
285.325643274
 20
1321.611876105
 30
0.0
 11
280.788073096
 21
1322.368137801
 31
0.0
  0
CIRCLE
  8
0
  6
CONTINUOUS
 62
     6
 10
422.042582979
 20
1329.914353908
 30
0.0
 40
3.936205455
  0
LINE
  8
0
  6
CONTINUOUS
 62
     6
 10
418.106377524
 20
1329.914353908
 30
0.0
 11
416.889069541
 21
1329.914353908
 31
0.0
  0
LINE
  8
0
  6
CONTINUOUS
 62
     6
 10
442.158190434
 20
1343.053529485
 30
0.0
 11
438.400299871
 21
1321.611876105
 31
0.0
  0
LINE
  8
0
  6
CONTINUOUS
 62
     6
 10
437.620915776
 20
1343.809741928
 30
0.0
 11
433.862729694
 21
1322.368137801
 31
0.0
  0
LINE
  8
0
  6
CONTINUOUS
 62
     6
 10
438.400299871
 20
1321.611876105
 30
0.0
 11
433.862729694
 21
1322.368137801
 31
0.0
  0
CIRCLE
  8
0
  6
CONTINUOUS
 62
     6
 10
442.401512307
 20
1320.824635014
 30
0.0
 40
3.936205455
  0
LINE
  8
0
  6
CONTINUOUS
 62
     6
 10
289.326855709
 20
1316.888429558
 30
0.0
 11
289.326855709
 21
1307.373746261
 31
0.0
  0
LINE
  8
0
  6
CONTINUOUS
 62
     6
 10
263.814412943
 20
1358.930748456
 30
0.0
 11
263.814412943
 21
1307.373746261
 31
0.0
  0
LINE
  8
0
  6
CONTINUOUS
 62
     6
 10
442.401512307
 20
1316.888429558
 30
0.0
 11
442.401512307
 21
1307.373746261
 31
0.0
  0
LINE
  8
0
  6
CONTINUOUS
 62
     6
 10
416.889069541
 20
1329.914353908
 30
0.0
 11
416.889069541
 21
1307.373746261
 31
0.0
  0
LINE
  8
0
  6
CONTINUOUS
 62
     6
 10
391.376626774
 20
1307.373746261
 30
0.0
 11
391.376626774
 21
1358.930748456
 31
0.0
  0
LINE
  8
0
  6
CONTINUOUS
 62
     6
 10
315.082620348
 20
1343.053529485
 30
0.0
 11
318.840510911
 21
1321.611876105
 31
0.0
  0
LINE
  8
0
  6
CONTINUOUS
 62
     6
 10
319.619895007
 20
1343.809741928
 30
0.0
 11
323.378081089
 21
1322.368137801
 31
0.0
  0
LINE
  8
0
  6
CONTINUOUS
 62
     6
 10
318.840510911
 20
1321.611876105
 30
0.0
 11
323.378081089
 21
1322.368137801
 31
0.0
  0
CIRCLE
  8
0
  6
CONTINUOUS
 62
     6
 10
314.839298476
 20
1320.824635014
 30
0.0
 40
3.936205455
  0
CIRCLE
  8
0
  6
CONTINUOUS
 62
     6
 10
335.198227803
 20
1329.914353908
 30
0.0
 40
3.936205455
  0
LINE
  8
0
  6
CONTINUOUS
 62
     6
 10
339.134433259
 20
1329.914353908
 30
0.0
 11
340.351741242
 21
1329.914353908
 31
0.0
  0
LINE
  8
0
  6
CONTINUOUS
 62
     6
 10
314.839298476
 20
1316.888429558
 30
0.0
 11
314.839298476
 21
1307.373746261
 31
0.0
  0
LINE
  8
0
  6
CONTINUOUS
 62
     6
 10
340.351741242
 20
1329.914353908
 30
0.0
 11
340.351741242
 21
1307.373746261
 31
0.0
  0
LINE
  8
0
  6
CONTINUOUS
 62
     6
 10
365.864184008
 20
1307.373746261
 30
0.0
 11
365.864184008
 21
1358.930748456
 31
0.0
  0
LINE
  8
0
  6
CONTINUOUS
 62
     2
 10
455.15773369
 20
1307.373746261
 30
0.0
 11
455.15773369
 21
1285.505938175
 31
0.0
  0
LINE
  8
0
  6
CONTINUOUS
 62
     2
 10
251.05819156
 20
1307.373746261
 30
0.0
 11
251.05819156
 21
1285.505938175
 31
0.0
  0
LINE
  8
0
  6
CONTINUOUS
 62
     2
 10
276.570634326
 20
1307.373746261
 30
0.0
 11
276.570634326
 21
1285.505938175
 31
0.0
  0
LINE
  8
0
  6
CONTINUOUS
 62
     2
 10
302.083077093
 20
1307.373746261
 30
0.0
 11
302.083077093
 21
1285.505938175
 31
0.0
  0
LINE
  8
0
  6
CONTINUOUS
 62
     2
 10
327.595519859
 20
1307.373746261
 30
0.0
 11
327.595519859
 21
1285.505938175
 31
0.0
  0
LINE
  8
0
  6
CONTINUOUS
 62
     2
 10
200.033306028
 20
1307.373746261
 30
0.0
 11
200.033306028
 21
1285.505938175
 31
0.0
  0
LINE
  8
0
  6
CONTINUOUS
 62
     2
 10
225.545748794
 20
1307.373746261
 30
0.0
 11
225.545748794
 21
1285.505938175
 31
0.0
  0
LINE
  8
0
  6
CONTINUOUS
 62
     2
 10
149.008420495
 20
1307.373746261
 30
0.0
 11
455.15773369
 21
1307.373746261
 31
0.0
  0
LINE
  8
0
  6
CONTINUOUS
 62
     2
 10
149.008420495
 20
1285.505938175
 30
0.0
 11
455.15773369
 21
1285.505938175
 31
0.0
  0
CIRCLE
  8
0
  6
CONTINUOUS
 62
     6
 10
289.326855709
 20
1347.080583255
 30
0.0
 40
3.936205455
  0
LINE
  8
0
  6
CONTINUOUS
 62
     6
 10
289.083533837
 20
1343.053529485
 30
0.0
 11
284.546259178
 21
1343.809741928
 31
0.0
  0
LINE
  8
0
  6
CONTINUOUS
 62
     6
 10
289.326855709
 20
1351.01678871
 30
0.0
 11
289.326855709
 21
1358.930748456
 31
0.0
  0
LINE
  8
0
  6
CONTINUOUS
 62
     6
 10
289.326855709
 20
1358.930748456
 30
0.0
 11
263.814412943
 21
1358.930748456
 31
0.0
  0
LINE
  8
0
  6
CONTINUOUS
 62
     6
 10
442.401512307
 20
1358.930748456
 30
0.0
 11
391.376626774
 21
1358.930748456
 31
0.0
  0
CIRCLE
  8
0
  6
CONTINUOUS
 62
     6
 10
442.401512307
 20
1347.080583255
 30
0.0
 40
3.936205455
  0
LINE
  8
0
  6
CONTINUOUS
 62
     6
 10
442.158190434
 20
1343.053529485
 30
0.0
 11
437.620915776
 21
1343.809741928
 31
0.0
  0
LINE
  8
0
  6
CONTINUOUS
 62
     6
 10
442.401512307
 20
1351.01678871
 30
0.0
 11
442.401512307
 21
1358.930748456
 31
0.0
  0
CIRCLE
  8
0
  6
CONTINUOUS
 62
     6
 10
314.839298476
 20
1347.080583255
 30
0.0
 40
3.936205455
  0
LINE
  8
0
  6
CONTINUOUS
 62
     6
 10
315.082620348
 20
1343.053529485
 30
0.0
 11
319.619895007
 21
1343.809741928
 31
0.0
  0
LINE
  8
0
  6
CONTINUOUS
 62
     6
 10
314.839298476
 20
1351.01678871
 30
0.0
 11
314.839298476
 21
1358.930748456
 31
0.0
  0
LINE
  8
0
  6
CONTINUOUS
 62
     6
 10
365.864184008
 20
1358.930748456
 30
0.0
 11
314.839298476
 21
1358.930748456
 31
0.0
  0
TEXT
  8
0
  6
CONTINUOUS
 62
     6
 10
261.561199775
 20
1363.269123594
 30
0.78624
 40
11.232
  1
ＬＳＡ
 50
0.0
 41
0.8
 51
0.0
  7
KANJI53
  0
TEXT
  8
0
  6
CONTINUOUS
 62
     6
 10
319.411810691
 20
1363.269123594
 30
0.78624
 40
11.232
  1
ＬＳ０１
 50
0.0
 41
0.8
 51
0.0
  7
KANJI53
  0
TEXT
  8
0
  6
CONTINUOUS
 62
     6
 10
398.72718699
 20
1363.269123594
 30
0.78624
 40
11.232
  1
ＬＳ０２
 50
0.0
 41
0.8
 51
0.0
  7
KANJI53
  0
TEXT
  8
0
  6
CONTINUOUS
 62
     6
 10
348.338781457
 20
1262.486688026
 30
0.78624
 40
11.232
  1
ＬＳ１２
 50
0.0
 41
0.8
 51
0.0
  7
KANJI53
  0
TEXT
  8
0
  6
CONTINUOUS
 62
     6
 10
269.023405158
 20
1262.486688026
 30
0.78624
 40
11.232
  1
ＬＳ１１
 50
0.0
 41
0.8
 51
0.0
  7
KANJI53
  0
LINE
  8
0
  6
CONTINUOUS
 62
     2
 10
251.05819156
 20
1206.935916515
 30
0.0
 11
251.05819156
 21
1185.068108429
 31
0.0
  0
LINE
  8
0
  6
CONTINUOUS
 62
     2
 10
225.545748794
 20
1206.935916515
 30
0.0
 11
225.545748794
 21
1185.068108429
 31
0.0
  0
LINE
  8
0
  6
CONTINUOUS
 62
     2
 10
200.033306028
 20
1206.935916515
 30
0.0
 11
200.033306028
 21
1185.068108429
 31
0.0
  0
LINE
  8
0
  6
CONTINUOUS
 62
     2
 10
276.570634326
 20
1206.935916515
 30
0.0
 11
276.570634326
 21
1185.068108429
 31
0.0
  0
LINE
  8
0
  6
CONTINUOUS
 62
     2
 10
302.083077093
 20
1206.935916515
 30
0.0
 11
302.083077093
 21
1185.068108429
 31
0.0
  0
LINE
  8
0
  6
CONTINUOUS
 62
     2
 10
327.595519859
 20
1206.935916515
 30
0.0
 11
327.595519859
 21
1185.068108429
 31
0.0
  0
LINE
  8
0
  6
CONTINUOUS
 62
     2
 10
353.107962625
 20
1206.935916515
 30
0.0
 11
353.107962625
 21
1185.068108429
 31
0.0
  0
LINE
  8
0
  6
CONTINUOUS
 62
     2
 10
378.620405391
 20
1206.935916515
 30
0.0
 11
378.620405391
 21
1185.068108429
 31
0.0
  0
LINE
  8
0
  6
CONTINUOUS
 62
     6
 10
267.815625379
 20
1221.174046359
 30
0.0
 11
272.353195556
 21
1221.930308055
 31
0.0
  0
CIRCLE
  8
0
  6
CONTINUOUS
 62
     6
 10
263.814412943
 20
1220.386805268
 30
0.0
 40
3.936205455
  0
CIRCLE
  8
0
  6
CONTINUOUS
 62
     6
 10
284.173342271
 20
1229.476524162
 30
0.0
 40
3.936205455
  0
LINE
  8
0
  6
CONTINUOUS
 62
     6
 10
288.109547726
 20
1229.476524162
 30
0.0
 11
289.326855709
 21
1229.476524162
 31
0.0
  0
LINE
  8
0
  6
CONTINUOUS
 62
     6
 10
263.814412943
 20
1216.450599813
 30
0.0
 11
263.814412943
 21
1206.935916515
 31
0.0
  0
LINE
  8
0
  6
CONTINUOUS
 62
     6
 10
289.326855709
 20
1229.476524162
 30
0.0
 11
289.326855709
 21
1206.935916515
 31
0.0
  0
LINE
  8
0
  6
CONTINUOUS
 62
     6
 10
387.375414339
 20
1221.174046359
 30
0.0
 11
382.837844161
 21
1221.930308055
 31
0.0
  0
CIRCLE
  8
0
  6
CONTINUOUS
 62
     6
 10
391.376626774
 20
1220.386805268
 30
0.0
 40
3.936205455
  0
CIRCLE
  8
0
  6
CONTINUOUS
 62
     6
 10
371.017697447
 20
1229.476524162
 30
0.0
 40
3.936205455
  0
LINE
  8
0
  6
CONTINUOUS
 62
     6
 10
367.081491992
 20
1229.476524162
 30
0.0
 11
365.864184008
 21
1229.476524162
 31
0.0
  0
LINE
  8
0
  6
CONTINUOUS
 62
     6
 10
391.376626774
 20
1216.450599813
 30
0.0
 11
391.376626774
 21
1206.935916515
 31
0.0
  0
LINE
  8
0
  6
CONTINUOUS
 62
     6
 10
365.864184008
 20
1229.476524162
 30
0.0
 11
365.864184008
 21
1206.935916515
 31
0.0
  0
LINE
  8
0
  6
CONTINUOUS
 62
     2
 10
404.132848158
 20
1206.935916515
 30
0.0
 11
404.132848158
 21
1185.068108429
 31
0.0
  0
LINE
  8
0
  6
CONTINUOUS
 62
     2
 10
200.033306028
 20
1206.935916515
 30
0.0
 11
404.132848158
 21
1206.935916515
 31
0.0
  0
LINE
  8
0
  6
CONTINUOUS
 62
     2
 10
200.033306028
 20
1185.068108429
 30
0.0
 11
404.132848158
 21
1185.068108429
 31
0.0
  0
TEXT
  8
0
  6
CONTINUOUS
 62
     3
 10
257.997767516
 20
1188.02384711
 30
0.0
 40
14.37696
  1
２１　２２　２３　２４　　２５　　２６　　
 50
0.0
 41
0.9125
 51
0.0
  7
KANJI54
  0
LINE
  8
0
  6
CONTINUOUS
 62
     2
 10
149.008420495
 20
1307.373746261
 30
0.0
 11
149.008420495
 21
1285.505938175
 31
0.0
  0
LINE
  8
0
  6
CONTINUOUS
 62
     2
 10
174.520863261
 20
1307.373746261
 30
0.0
 11
174.520863261
 21
1285.505938175
 31
0.0
  0
TEXT
  8
0
  6
CONTINUOUS
 62
     3
 10
154.110909048
 20
1289.150572856
 30
0.0
 40
14.4
  1
　　　　　　　　　　　　４０　４１　１　　２　　　３　　　４　　　５　　　６
 50
0.0
 41
0.911
 51
0.0
  7
KANJI55
  0
TEXT
  8
0
  6
CONTINUOUS
 62
     6
 10
136.408220643
 20
1624.435112111
 30
0.0
 40
13.9932
  1
ＬＳ０１　　　：推力リミッタ（前進時過負荷用）
 50
0.0
 41
0.943315325
 51
0.0
  7
KANJI56
  0
TEXT
  8
0
  6
CONTINUOUS
 62
     6
 10
136.408220643
 20
1591.480112111
 30
0.0
 40
13.9932
  1
ＬＳ０２　　　：推力リミッタ（後進時過負荷用）
 50
0.0
 41
0.943315325
 51
0.0
  7
KANJI56
  0
TEXT
  8
0
  6
CONTINUOUS
 62
     6
 10
136.408220643
 20
1558.525112111
 30
0.0
 40
13.9932
  1
ＬＳＡ　　　　：安全リミットスイッチ
 50
0.0
 41
0.943315325
 51
0.0
  7
KANJI56
  0
TEXT
  8
0
  6
CONTINUOUS
 62
     6
 10
136.408220643
 20
1525.570112111
 30
0.0
 40
13.9932
  1
ＬＳ１１，１２：位置リミットスイッチ　［２カム用］
 50
0.0
 41
0.943315325
 51
0.0
  7
KANJI56
  0
TEXT
  8
0
  6
CONTINUOUS
 62
     6
 10
136.408220643
 20
1492.615112111
 30
0.0
 40
13.9932
  1
ＬＳ１１～１４：位置リミットスイッチ　［４カム用］
 50
0.0
 41
0.943315325
 51
0.0
  7
KANJI56
  0
LINE
  8
0
  6
CONTINUOUS
 62
     6
 10
471.259958074
 20
1620.597311792
 30
0.0
 11
131.717575809
 21
1620.597311792
 31
0.0
  0
LINE
  8
0
  6
CONTINUOUS
 62
     6
 10
471.259958074
 20
1587.642311792
 30
0.0
 11
131.717575809
 21
1587.642311792
 31
0.0
  0
LINE
  8
0
  6
CONTINUOUS
 62
     6
 10
471.259958074
 20
1554.687311792
 30
0.0
 11
131.717575809
 21
1554.687311792
 31
0.0
  0
LINE
  8
0
  6
CONTINUOUS
 62
     6
 10
471.259958074
 20
1521.732311792
 30
0.0
 11
131.717575809
 21
1521.732311792
 31
0.0
  0
LINE
  8
0
  6
CONTINUOUS
 62
     6
 10
471.259958074
 20
1488.777311792
 30
0.0
 11
131.717575809
 21
1488.777311792
 31
0.0
  0
TEXT
  8
0
  6
CONTINUOUS
 62
     6
 10
401.244011737
 20
1412.308448882
 30
0.0
 40
18.0
  1
ポジショナ内端子台配列
 50
0.0
 41
0.9
 51
0.0
  7
KANJI41
  0
TEXT
  8
0
  6
CONTINUOUS
 62
     6
 10
613.061963977
 20
1155.209618036
 30
0.0
 40
17.031074144
  1
４カム端子台　接続図
 50
0.0
 41
0.880962996
 51
0.0
  7
KANJI52
  0
LINE
  8
0
  6
LTYPE4
 62
     6
 10
872.64
 20
1147.14
 30
0.0
 11
872.64
 21
1653.54
 31
0.0
  0
LINE
  8
0
  6
CONTINUOUS
 62
     2
 10
721.507962625
 20
1307.373746261
 30
0.0
 11
721.507962625
 21
1285.505938175
 31
0.0
  0
LINE
  8
0
  6
CONTINUOUS
 62
     2
 10
747.020405391
 20
1307.373746261
 30
0.0
 11
747.020405391
 21
1285.505938175
 31
0.0
  0
LINE
  8
0
  6
CONTINUOUS
 62
     2
 10
772.532848158
 20
1307.373746261
 30
0.0
 11
772.532848158
 21
1285.505938175
 31
0.0
  0
LINE
  8
0
  6
CONTINUOUS
 62
     2
 10
798.045290924
 20
1307.373746261
 30
0.0
 11
798.045290924
 21
1285.505938175
 31
0.0
  0
LINE
  8
0
  6
CONTINUOUS
 62
     6
 10
657.726855709
 20
1316.888429558
 30
0.0
 11
657.726855709
 21
1307.373746261
 31
0.0
  0
LINE
  8
0
  6
CONTINUOUS
 62
     6
 10
632.214412943
 20
1358.930748456
 30
0.0
 11
632.214412943
 21
1307.373746261
 31
0.0
  0
LINE
  8
0
  6
CONTINUOUS
 62
     6
 10
810.801512307
 20
1316.888429558
 30
0.0
 11
810.801512307
 21
1307.373746261
 31
0.0
  0
LINE
  8
0
  6
CONTINUOUS
 62
     6
 10
785.289069541
 20
1329.914353908
 30
0.0
 11
785.289069541
 21
1307.373746261
 31
0.0
  0
LINE
  8
0
  6
CONTINUOUS
 62
     6
 10
759.776626774
 20
1307.373746261
 30
0.0
 11
759.776626774
 21
1358.930748456
 31
0.0
  0
LINE
  8
0
  6
CONTINUOUS
 62
     6
 10
683.239298476
 20
1316.888429558
 30
0.0
 11
683.239298476
 21
1307.373746261
 31
0.0
  0
LINE
  8
0
  6
CONTINUOUS
 62
     6
 10
708.751741242
 20
1329.914353908
 30
0.0
 11
708.751741242
 21
1307.373746261
 31
0.0
  0
LINE
  8
0
  6
CONTINUOUS
 62
     6
 10
734.264184008
 20
1307.373746261
 30
0.0
 11
734.264184008
 21
1358.930748456
 31
0.0
  0
LINE
  8
0
  6
CONTINUOUS
 62
     2
 10
823.55773369
 20
1307.373746261
 30
0.0
 11
823.55773369
 21
1285.505938175
 31
0.0
  0
LINE
  8
0
  6
CONTINUOUS
 62
     2
 10
619.45819156
 20
1307.373746261
 30
0.0
 11
619.45819156
 21
1285.505938175
 31
0.0
  0
LINE
  8
0
  6
CONTINUOUS
 62
     2
 10
644.970634326
 20
1307.373746261
 30
0.0
 11
644.970634326
 21
1285.505938175
 31
0.0
  0
LINE
  8
0
  6
CONTINUOUS
 62
     2
 10
670.483077093
 20
1307.373746261
 30
0.0
 11
670.483077093
 21
1285.505938175
 31
0.0
  0
LINE
  8
0
  6
CONTINUOUS
 62
     2
 10
695.995519859
 20
1307.373746261
 30
0.0
 11
695.995519859
 21
1285.505938175
 31
0.0
  0
LINE
  8
0
  6
CONTINUOUS
 62
     2
 10
568.433306028
 20
1307.373746261
 30
0.0
 11
568.433306028
 21
1285.505938175
 31
0.0
  0
LINE
  8
0
  6
CONTINUOUS
 62
     2
 10
593.945748794
 20
1307.373746261
 30
0.0
 11
593.945748794
 21
1285.505938175
 31
0.0
  0
LINE
  8
0
  6
CONTINUOUS
 62
     2
 10
517.408420495
 20
1307.373746261
 30
0.0
 11
823.55773369
 21
1307.373746261
 31
0.0
  0
LINE
  8
0
  6
CONTINUOUS
 62
     2
 10
517.408420495
 20
1285.505938175
 30
0.0
 11
823.55773369
 21
1285.505938175
 31
0.0
  0
LINE
  8
0
  6
CONTINUOUS
 62
     2
 10
517.408420495
 20
1307.373746261
 30
0.0
 11
517.408420495
 21
1285.505938175
 31
0.0
  0
LINE
  8
0
  6
CONTINUOUS
 62
     2
 10
542.920863261
 20
1307.373746261
 30
0.0
 11
542.920863261
 21
1285.505938175
 31
0.0
  0
CIRCLE
  8
0
  6
CONTINUOUS
 62
     6
 10
657.726855709
 20
1320.824635014
 30
0.0
 40
3.936205455
  0
LINE
  8
0
  6
CONTINUOUS
 62
     6
 10
657.483533837
 20
1343.053529485
 30
0.0
 11
653.725643274
 21
1321.611876105
 31
0.0
  0
LINE
  8
0
  6
CONTINUOUS
 62
     6
 10
652.946259178
 20
1343.809741928
 30
0.0
 11
649.188073096
 21
1322.368137801
 31
0.0
  0
LINE
  8
0
  6
CONTINUOUS
 62
     6
 10
653.725643274
 20
1321.611876105
 30
0.0
 11
649.188073096
 21
1322.368137801
 31
0.0
  0
CIRCLE
  8
0
  6
CONTINUOUS
 62
     6
 10
790.442582979
 20
1329.914353908
 30
0.0
 40
3.936205455
  0
LINE
  8
0
  6
CONTINUOUS
 62
     6
 10
786.506377524
 20
1329.914353908
 30
0.0
 11
785.289069541
 21
1329.914353908
 31
0.0
  0
LINE
  8
0
  6
CONTINUOUS
 62
     6
 10
810.558190434
 20
1343.053529485
 30
0.0
 11
806.800299871
 21
1321.611876105
 31
0.0
  0
LINE
  8
0
  6
CONTINUOUS
 62
     6
 10
806.020915776
 20
1343.809741928
 30
0.0
 11
802.262729694
 21
1322.368137801
 31
0.0
  0
LINE
  8
0
  6
CONTINUOUS
 62
     6
 10
806.800299871
 20
1321.611876105
 30
0.0
 11
802.262729694
 21
1322.368137801
 31
0.0
  0
CIRCLE
  8
0
  6
CONTINUOUS
 62
     6
 10
810.801512307
 20
1320.824635014
 30
0.0
 40
3.936205455
  0
LINE
  8
0
  6
CONTINUOUS
 62
     6
 10
683.482620348
 20
1343.053529485
 30
0.0
 11
687.240510911
 21
1321.611876105
 31
0.0
  0
LINE
  8
0
  6
CONTINUOUS
 62
     6
 10
688.019895007
 20
1343.809741928
 30
0.0
 11
691.778081089
 21
1322.368137801
 31
0.0
  0
LINE
  8
0
  6
CONTINUOUS
 62
     6
 10
687.240510911
 20
1321.611876105
 30
0.0
 11
691.778081089
 21
1322.368137801
 31
0.0
  0
CIRCLE
  8
0
  6
CONTINUOUS
 62
     6
 10
683.239298476
 20
1320.824635014
 30
0.0
 40
3.936205455
  0
CIRCLE
  8
0
  6
CONTINUOUS
 62
     6
 10
703.598227803
 20
1329.914353908
 30
0.0
 40
3.936205455
  0
LINE
  8
0
  6
CONTINUOUS
 62
     6
 10
707.534433259
 20
1329.914353908
 30
0.0
 11
708.751741242
 21
1329.914353908
 31
0.0
  0
CIRCLE
  8
0
  6
CONTINUOUS
 62
     6
 10
657.726855709
 20
1347.080583255
 30
0.0
 40
3.936205455
  0
LINE
  8
0
  6
CONTINUOUS
 62
     6
 10
657.483533837
 20
1343.053529485
 30
0.0
 11
652.946259178
 21
1343.809741928
 31
0.0
  0
LINE
  8
0
  6
CONTINUOUS
 62
     6
 10
657.726855709
 20
1351.01678871
 30
0.0
 11
657.726855709
 21
1358.930748456
 31
0.0
  0
LINE
  8
0
  6
CONTINUOUS
 62
     6
 10
657.726855709
 20
1358.930748456
 30
0.0
 11
632.214412943
 21
1358.930748456
 31
0.0
  0
LINE
  8
0
  6
CONTINUOUS
 62
     6
 10
810.801512307
 20
1358.930748456
 30
0.0
 11
759.776626774
 21
1358.930748456
 31
0.0
  0
CIRCLE
  8
0
  6
CONTINUOUS
 62
     6
 10
810.801512307
 20
1347.080583255
 30
0.0
 40
3.936205455
  0
LINE
  8
0
  6
CONTINUOUS
 62
     6
 10
810.558190434
 20
1343.053529485
 30
0.0
 11
806.020915776
 21
1343.809741928
 31
0.0
  0
LINE
  8
0
  6
CONTINUOUS
 62
     6
 10
810.801512307
 20
1351.01678871
 30
0.0
 11
810.801512307
 21
1358.930748456
 31
0.0
  0
CIRCLE
  8
0
  6
CONTINUOUS
 62
     6
 10
683.239298476
 20
1347.080583255
 30
0.0
 40
3.936205455
  0
LINE
  8
0
  6
CONTINUOUS
 62
     6
 10
683.482620348
 20
1343.053529485
 30
0.0
 11
688.019895007
 21
1343.809741928
 31
0.0
  0
LINE
  8
0
  6
CONTINUOUS
 62
     6
 10
683.239298476
 20
1351.01678871
 30
0.0
 11
683.239298476
 21
1358.930748456
 31
0.0
  0
LINE
  8
0
  6
CONTINUOUS
 62
     6
 10
734.264184008
 20
1358.930748456
 30
0.0
 11
683.239298476
 21
1358.930748456
 31
0.0
  0
TEXT
  8
0
  6
CONTINUOUS
 62
     6
 10
629.961199775
 20
1363.269123594
 30
0.78624
 40
11.232
  1
ＬＳＡ
 50
0.0
 41
0.8
 51
0.0
  7
KANJI53
  0
TEXT
  8
0
  6
CONTINUOUS
 62
     6
 10
687.811810691
 20
1363.269123594
 30
0.78624
 40
11.232
  1
ＬＳ０１
 50
0.0
 41
0.8
 51
0.0
  7
KANJI53
  0
TEXT
  8
0
  6
CONTINUOUS
 62
     6
 10
767.12718699
 20
1363.269123594
 30
0.78624
 40
11.232
  1
ＬＳ０２
 50
0.0
 41
0.8
 51
0.0
  7
KANJI53
  0
CIRCLE
  8
0
  6
CONTINUOUS
 62
     6
 10
530.164641878
 20
1246.642753509
 30
0.0
 40
3.936205455
  0
LINE
  8
0
  6
CONTINUOUS
 62
     6
 10
530.407963751
 20
1242.615699739
 30
0.0
 11
534.165854314
 21
1221.174046359
 31
0.0
  0
LINE
  8
0
  6
CONTINUOUS
 62
     6
 10
530.407963751
 20
1242.615699739
 30
0.0
 11
534.94523841
 21
1243.371912182
 31
0.0
  0
LINE
  8
0
  6
CONTINUOUS
 62
     6
 10
534.94523841
 20
1243.371912182
 30
0.0
 11
538.703424491
 21
1221.930308055
 31
0.0
  0
LINE
  8
0
  6
CONTINUOUS
 62
     6
 10
530.164641878
 20
1250.578958964
 30
0.0
 11
530.164641878
 21
1258.492918711
 31
0.0
  0
LINE
  8
0
  6
CONTINUOUS
 62
     6
 10
581.189527411
 20
1258.492918711
 30
0.0
 11
530.164641878
 21
1258.492918711
 31
0.0
  0
LINE
  8
0
  6
CONTINUOUS
 62
     6
 10
581.189527411
 20
1206.935916515
 30
0.0
 11
581.189527411
 21
1258.492918711
 31
0.0
  0
CIRCLE
  8
0
  6
CONTINUOUS
 62
     6
 10
657.726855709
 20
1246.642753509
 30
0.0
 40
3.936205455
  0
LINE
  8
0
  6
CONTINUOUS
 62
     6
 10
657.483533837
 20
1242.615699739
 30
0.0
 11
653.725643274
 21
1221.174046359
 31
0.0
  0
LINE
  8
0
  6
CONTINUOUS
 62
     6
 10
657.483533837
 20
1242.615699739
 30
0.0
 11
652.946259178
 21
1243.371912182
 31
0.0
  0
LINE
  8
0
  6
CONTINUOUS
 62
     6
 10
652.946259178
 20
1243.371912182
 30
0.0
 11
649.188073096
 21
1221.930308055
 31
0.0
  0
LINE
  8
0
  6
CONTINUOUS
 62
     6
 10
657.726855709
 20
1250.578958964
 30
0.0
 11
657.726855709
 21
1258.492918711
 31
0.0
  0
LINE
  8
0
  6
CONTINUOUS
 62
     6
 10
606.701970177
 20
1258.492918711
 30
0.0
 11
657.726855709
 21
1258.492918711
 31
0.0
  0
LINE
  8
0
  6
CONTINUOUS
 62
     6
 10
606.701970177
 20
1206.935916515
 30
0.0
 11
606.701970177
 21
1258.492918711
 31
0.0
  0
TEXT
  8
0
  6
CONTINUOUS
 62
     6
 10
614.689010392
 20
1262.486688026
 30
0.78624
 40
11.232
  1
ＬＳ１２
 50
0.0
 41
0.8
 51
0.0
  7
KANJI53
  0
TEXT
  8
0
  6
CONTINUOUS
 62
     6
 10
535.373634093
 20
1262.486688026
 30
0.78624
 40
11.232
  1
ＬＳ１１
 50
0.0
 41
0.8
 51
0.0
  7
KANJI53
  0
LINE
  8
0
  6
CONTINUOUS
 62
     2
 10
517.408420495
 20
1206.935916515
 30
0.0
 11
517.408420495
 21
1185.068108429
 31
0.0
  0
LINE
  8
0
  6
CONTINUOUS
 62
     2
 10
542.920863261
 20
1206.935916515
 30
0.0
 11
542.920863261
 21
1185.068108429
 31
0.0
  0
LINE
  8
0
  6
CONTINUOUS
 62
     2
 10
568.433306028
 20
1206.935916515
 30
0.0
 11
568.433306028
 21
1185.068108429
 31
0.0
  0
LINE
  8
0
  6
CONTINUOUS
 62
     2
 10
593.945748794
 20
1206.935916515
 30
0.0
 11
593.945748794
 21
1185.068108429
 31
0.0
  0
LINE
  8
0
  6
CONTINUOUS
 62
     2
 10
619.45819156
 20
1206.935916515
 30
0.0
 11
619.45819156
 21
1185.068108429
 31
0.0
  0
LINE
  8
0
  6
CONTINUOUS
 62
     2
 10
644.970634326
 20
1206.935916515
 30
0.0
 11
644.970634326
 21
1185.068108429
 31
0.0
  0
LINE
  8
0
  6
CONTINUOUS
 62
     6
 10
534.165854314
 20
1221.174046359
 30
0.0
 11
538.703424491
 21
1221.930308055
 31
0.0
  0
CIRCLE
  8
0
  6
CONTINUOUS
 62
     6
 10
530.164641878
 20
1220.386805268
 30
0.0
 40
3.936205455
  0
CIRCLE
  8
0
  6
CONTINUOUS
 62
     6
 10
550.523571206
 20
1229.476524162
 30
0.0
 40
3.936205455
  0
LINE
  8
0
  6
CONTINUOUS
 62
     6
 10
554.459776661
 20
1229.476524162
 30
0.0
 11
555.677084644
 21
1229.476524162
 31
0.0
  0
LINE
  8
0
  6
CONTINUOUS
 62
     6
 10
530.164641878
 20
1216.450599813
 30
0.0
 11
530.164641878
 21
1206.935916515
 31
0.0
  0
LINE
  8
0
  6
CONTINUOUS
 62
     6
 10
555.677084644
 20
1229.476524162
 30
0.0
 11
555.677084644
 21
1206.935916515
 31
0.0
  0
LINE
  8
0
  6
CONTINUOUS
 62
     6
 10
653.725643274
 20
1221.174046359
 30
0.0
 11
649.188073096
 21
1221.930308055
 31
0.0
  0
CIRCLE
  8
0
  6
CONTINUOUS
 62
     6
 10
657.726855709
 20
1220.386805268
 30
0.0
 40
3.936205455
  0
CIRCLE
  8
0
  6
CONTINUOUS
 62
     6
 10
637.367926382
 20
1229.476524162
 30
0.0
 40
3.936205455
  0
LINE
  8
0
  6
CONTINUOUS
 62
     6
 10
633.431720927
 20
1229.476524162
 30
0.0
 11
632.214412943
 21
1229.476524162
 31
0.0
  0
LINE
  8
0
  6
CONTINUOUS
 62
     6
 10
657.726855709
 20
1216.450599813
 30
0.0
 11
657.726855709
 21
1206.935916515
 31
0.0
  0
LINE
  8
0
  6
CONTINUOUS
 62
     6
 10
632.214412943
 20
1229.476524162
 30
0.0
 11
632.214412943
 21
1206.935916515
 31
0.0
  0
LINE
  8
0
  6
CONTINUOUS
 62
     2
 10
670.483077093
 20
1206.935916515
 30
0.0
 11
670.483077093
 21
1185.068108429
 31
0.0
  0
TEXT
  8
0
  6
CONTINUOUS
 62
     3
 10
524.347996451
 20
1188.02384711
 30
0.0
 40
14.37696
  1
２１　２２　２３　２４　　２５　　２６　　
 50
0.0
 41
0.9125
 51
0.0
  7
KANJI54
  0
LINE
  8
0
  6
CONTINUOUS
 62
     2
 10
517.408420495
 20
1185.068108429
 30
0.0
 11
670.483077093
 21
1185.068108429
 31
0.0
  0
LINE
  8
0
  6
CONTINUOUS
 62
     2
 10
517.408420495
 20
1206.935916515
 30
0.0
 11
670.483077093
 21
1206.935916515
 31
0.0
  0
CIRCLE
  8
0
  6
CONTINUOUS
 62
     6
 10
683.239298476
 20
1246.642753509
 30
0.0
 40
3.936205455
  0
LINE
  8
0
  6
CONTINUOUS
 62
     6
 10
683.482620348
 20
1242.615699739
 30
0.0
 11
687.240510911
 21
1221.174046359
 31
0.0
  0
LINE
  8
0
  6
CONTINUOUS
 62
     6
 10
683.482620348
 20
1242.615699739
 30
0.0
 11
688.019895007
 21
1243.371912182
 31
0.0
  0
LINE
  8
0
  6
CONTINUOUS
 62
     6
 10
688.019895007
 20
1243.371912182
 30
0.0
 11
691.778081089
 21
1221.930308055
 31
0.0
  0
LINE
  8
0
  6
CONTINUOUS
 62
     6
 10
683.239298476
 20
1250.578958964
 30
0.0
 11
683.239298476
 21
1258.492918711
 31
0.0
  0
LINE
  8
0
  6
CONTINUOUS
 62
     6
 10
734.264184008
 20
1258.492918711
 30
0.0
 11
683.239298476
 21
1258.492918711
 31
0.0
  0
LINE
  8
0
  6
CONTINUOUS
 62
     6
 10
734.264184008
 20
1206.935916515
 30
0.0
 11
734.264184008
 21
1258.492918711
 31
0.0
  0
CIRCLE
  8
0
  6
CONTINUOUS
 62
     6
 10
810.801512307
 20
1246.642753509
 30
0.0
 40
3.936205455
  0
LINE
  8
0
  6
CONTINUOUS
 62
     6
 10
810.558190434
 20
1242.615699739
 30
0.0
 11
806.800299871
 21
1221.174046359
 31
0.0
  0
LINE
  8
0
  6
CONTINUOUS
 62
     6
 10
810.558190434
 20
1242.615699739
 30
0.0
 11
806.020915776
 21
1243.371912182
 31
0.0
  0
LINE
  8
0
  6
CONTINUOUS
 62
     6
 10
806.020915776
 20
1243.371912182
 30
0.0
 11
802.262729694
 21
1221.930308055
 31
0.0
  0
LINE
  8
0
  6
CONTINUOUS
 62
     6
 10
810.801512307
 20
1250.578958964
 30
0.0
 11
810.801512307
 21
1258.492918711
 31
0.0
  0
LINE
  8
0
  6
CONTINUOUS
 62
     6
 10
759.776626774
 20
1258.492918711
 30
0.0
 11
810.801512307
 21
1258.492918711
 31
0.0
  0
LINE
  8
0
  6
CONTINUOUS
 62
     6
 10
759.776626774
 20
1206.935916515
 30
0.0
 11
759.776626774
 21
1258.492918711
 31
0.0
  0
LINE
  8
0
  6
CONTINUOUS
 62
     2
 10
695.995519859
 20
1206.935916515
 30
0.0
 11
695.995519859
 21
1185.068108429
 31
0.0
  0
LINE
  8
0
  6
CONTINUOUS
 62
     2
 10
721.507962625
 20
1206.935916515
 30
0.0
 11
721.507962625
 21
1185.068108429
 31
0.0
  0
LINE
  8
0
  6
CONTINUOUS
 62
     2
 10
747.020405391
 20
1206.935916515
 30
0.0
 11
747.020405391
 21
1185.068108429
 31
0.0
  0
LINE
  8
0
  6
CONTINUOUS
 62
     2
 10
772.532848158
 20
1206.935916515
 30
0.0
 11
772.532848158
 21
1185.068108429
 31
0.0
  0
LINE
  8
0
  6
CONTINUOUS
 62
     2
 10
798.045290924
 20
1206.935916515
 30
0.0
 11
798.045290924
 21
1185.068108429
 31
0.0
  0
LINE
  8
0
  6
CONTINUOUS
 62
     6
 10
687.240510911
 20
1221.174046359
 30
0.0
 11
691.778081089
 21
1221.930308055
 31
0.0
  0
CIRCLE
  8
0
  6
CONTINUOUS
 62
     6
 10
683.239298476
 20
1220.386805268
 30
0.0
 40
3.936205455
  0
CIRCLE
  8
0
  6
CONTINUOUS
 62
     6
 10
703.598227803
 20
1229.476524162
 30
0.0
 40
3.936205455
  0
LINE
  8
0
  6
CONTINUOUS
 62
     6
 10
707.534433259
 20
1229.476524162
 30
0.0
 11
708.751741242
 21
1229.476524162
 31
0.0
  0
LINE
  8
0
  6
CONTINUOUS
 62
     6
 10
683.239298476
 20
1216.450599813
 30
0.0
 11
683.239298476
 21
1206.935916515
 31
0.0
  0
LINE
  8
0
  6
CONTINUOUS
 62
     6
 10
708.751741242
 20
1229.476524162
 30
0.0
 11
708.751741242
 21
1206.935916515
 31
0.0
  0
LINE
  8
0
  6
CONTINUOUS
 62
     6
 10
806.800299871
 20
1221.174046359
 30
0.0
 11
802.262729694
 21
1221.930308055
 31
0.0
  0
CIRCLE
  8
0
  6
CONTINUOUS
 62
     6
 10
810.801512307
 20
1220.386805268
 30
0.0
 40
3.936205455
  0
CIRCLE
  8
0
  6
CONTINUOUS
 62
     6
 10
790.44258298
 20
1229.476524162
 30
0.0
 40
3.936205455
  0
LINE
  8
0
  6
CONTINUOUS
 62
     6
 10
786.506377524
 20
1229.476524162
 30
0.0
 11
785.289069541
 21
1229.476524162
 31
0.0
  0
LINE
  8
0
  6
CONTINUOUS
 62
     6
 10
810.801512307
 20
1216.450599813
 30
0.0
 11
810.801512307
 21
1206.935916515
 31
0.0
  0
LINE
  8
0
  6
CONTINUOUS
 62
     6
 10
785.289069541
 20
1229.476524162
 30
0.0
 11
785.289069541
 21
1206.935916515
 31
0.0
  0
LINE
  8
0
  6
CONTINUOUS
 62
     2
 10
823.55773369
 20
1206.935916515
 30
0.0
 11
823.55773369
 21
1185.068108429
 31
0.0
  0
LINE
  8
0
  6
CONTINUOUS
 62
     2
 10
670.483077093
 20
1185.068108429
 30
0.0
 11
823.55773369
 21
1185.068108429
 31
0.0
  0
LINE
  8
0
  6
CONTINUOUS
 62
     2
 10
670.483077093
 20
1206.935916515
 30
0.0
 11
823.55773369
 21
1206.935916515
 31
0.0
  0
TEXT
  8
0
  6
CONTINUOUS
 62
     3
 10
677.422653048
 20
1188.02384711
 30
0.0
 40
14.37696
  1
２７　２８　２９　３０　　３１　　３２　　
 50
0.0
 41
0.9125
 51
0.0
  7
KANJI54
  0
TEXT
  8
0
  6
CONTINUOUS
 62
     6
 10
688.448290691
 20
1262.486688026
 30
0.78624
 40
11.232
  1
ＬＳ１３
 50
0.0
 41
0.8
 51
0.0
  7
KANJI53
  0
TEXT
  8
0
  6
CONTINUOUS
 62
     6
 10
767.76366699
 20
1262.486688026
 30
0.78624
 40
11.232
  1
ＬＳ１４
 50
0.0
 41
0.8
 51
0.0
  7
KANJI53
  0
TEXT
  8
0
  6
CONTINUOUS
 62
     6
 10
522.128537984
 20
1620.523705827
 30
1.77482448
 40
18.98208
  1
電気定格　　　
 50
0.0
 41
0.85
 51
0.0
  7
KANJI57
  0
TEXT
  8
0
  6
CONTINUOUS
 62
     6
 10
520.459958074
 20
1524.088493201
 30
1.77482448
 40
18.98208
  1
電気定格　　　
 50
0.0
 41
0.85
 51
0.0
  7
KANJI57
  0
TEXT
  8
0
  6
CONTINUOUS
 62
     6
 10
532.99482648
 20
1653.9
 30
0.0
 40
104.40144
  1
｝
 50
0.0
 41
0.334045455
 51
0.0
  7
KANJI58
  0
TEXT
  8
0
  6
CONTINUOUS
 62
     6
 10
540.562679411
 20
1576.497934761
 30
0.0
 40
16.8
  1
ＤＣ１２５Ｖ　０．６Ａ　，ＤＣ２５０Ｖ　０．３Ａ　
 50
0.0
 41
0.714285714
 51
0.0
  7
KANJI59
  0
TEXT
  8
0
  6
CONTINUOUS
 62
     6
 10
531.081792
 20
1547.666519204
 30
0.0
 40
72.0
  1
｝
 50
0.0
 41
0.484166667
 51
0.0
  7
KANJI60
  0
LINE
  8
0
  6
LTYPE4
 62
     2
 10
484.92
 20
1371.3
 30
0.0
 11
484.92
 21
1155.3
 31
0.0
  0
TEXT
  8
0
  6
CONTINUOUS
 62
     3
 10
522.510909048
 20
1289.150572856
 30
0.0
 40
14.4
  1
　　　　　　　　４０　４１　１　　２　　　３　　　４　　　５　　　６
 50
0.0
 41
0.911
 51
0.0
  7
KANJI55
  0
TEXT
  8
0
  6
CONTINUOUS
 62
     6
 10
540.562679411
 20
1599.170696145
 30
0.0
 40
16.8
  1
ＡＣ１００Ｖ　１２５Ｖ　２５０Ｖ　－１０Ａ
 50
0.0
 41
0.714285714
 51
0.0
  7
KANJI59
  0
TEXT
  8
0
  6
CONTINUOUS
 62
     6
 10
542.594776698
 20
1478.40733214
 30
0.0
 40
16.8
  1
ＤＣ１２５Ｖ　　０．５Ａ　，ＤＣ２５０Ｖ　０．２５Ａ
 50
0.0
 41
0.714285714
 51
0.0
  7
KANJI59
  0
LINE
  8
0
  6
CONTINUOUS
 62
     2
 10
624.362218677
 20
999.843086418
 30
0.0
 11
624.362218677
 21
1018.843086418
 31
0.0
  0
LINE
  8
0
  6
CONTINUOUS
 62
     2
 10
709.362218677
 20
417.393086418
 30
0.0
 11
709.362218677
 21
399.393086418
 31
0.0
  0
LINE
  8
0
  6
CONTINUOUS
 62
     2
 10
709.362218677
 20
405.393086418
 30
0.0
 11
697.771108761
 21
408.49891496
 31
0.0
  0
LINE
  8
0
  6
CONTINUOUS
 62
     2
 10
709.362218677
 20
405.393086418
 30
0.0
 11
697.771108761
 21
402.287257877
 31
0.0
  0
LINE
  8
0
  6
CONTINUOUS
 62
     2
 10
709.362218677
 20
405.393086418
 30
0.0
 11
529.362218677
 21
405.393086418
 31
0.0
  0
LINE
  8
0
  6
CONTINUOUS
 62
     2
 10
529.362218677
 20
405.393086418
 30
0.0
 11
540.953328592
 21
402.287257877
 31
0.0
  0
LINE
  8
0
  6
CONTINUOUS
 62
     2
 10
529.362218677
 20
405.393086418
 30
0.0
 11
540.953328592
 21
408.49891496
 31
0.0
  0
LINE
  8
0
  6
CONTINUOUS
 62
     2
 10
529.362218677
 20
488.143086418
 30
0.0
 11
529.362218677
 21
399.393086418
 31
0.0
  0
TEXT
  8
0
  6
CONTINUOUS
 62
     3
 10
595.062218677
 20
411.393086418
 30
0.0
 40
18.0
  1
１８０
 50
0.0
 41
0.9
 51
0.0
  7
KANJI41
  0
LINE
  8
0
  6
CONTINUOUS
 62
     2
 10
529.362218677
 20
429.393086418
 30
0.0
 11
529.362218677
 21
399.393086418
 31
0.0
  0
LINE
  8
0
  6
CONTINUOUS
 62
     2
 10
529.362218677
 20
405.393086418
 30
0.0
 11
517.771108761
 21
408.49891496
 31
0.0
  0
LINE
  8
0
  6
CONTINUOUS
 62
     2
 10
529.362218677
 20
405.393086418
 30
0.0
 11
517.771108761
 21
402.287257877
 31
0.0
  0
LINE
  8
0
  6
CONTINUOUS
 62
     2
 10
529.362218677
 20
405.393086418
 30
0.0
 11
342.362218677
 21
405.393086418
 31
0.0
  0
LINE
  8
0
  6
CONTINUOUS
 62
     2
 10
342.362218677
 20
405.393086418
 30
0.0
 11
353.953328592
 21
402.287257877
 31
0.0
  0
LINE
  8
0
  6
CONTINUOUS
 62
     2
 10
342.362218677
 20
405.393086418
 30
0.0
 11
353.953328592
 21
408.49891496
 31
0.0
  0
LINE
  8
0
  6
CONTINUOUS
 62
     2
 10
342.362218677
 20
402.393086418
 30
0.0
 11
342.362218677
 21
411.393086418
 31
0.0
  0
TEXT
  8
0
  6
CONTINUOUS
 62
     3
 10
411.562218677
 20
411.393086418
 30
0.0
 40
18.0
  1
１８７
 50
0.0
 41
0.9
 51
0.0
  7
KANJI41
  0
LINE
  8
0
  6
CONTINUOUS
 62
     2
 10
709.362218677
 20
364.393086418
 30
0.0
 11
709.362218677
 21
349.393086418
 31
0.0
  0
LINE
  8
0
  6
CONTINUOUS
 62
     2
 10
709.362218677
 20
355.393086418
 30
0.0
 11
697.771108761
 21
358.49891496
 31
0.0
  0
LINE
  8
0
  6
CONTINUOUS
 62
     2
 10
709.362218677
 20
355.393086418
 30
0.0
 11
697.771108761
 21
352.287257877
 31
0.0
  0
LINE
  8
0
  6
CONTINUOUS
 62
     2
 10
709.362218677
 20
355.393086418
 30
0.0
 11
342.362218677
 21
355.393086418
 31
0.0
  0
LINE
  8
0
  6
CONTINUOUS
 62
     2
 10
342.362218677
 20
355.393086418
 30
0.0
 11
353.953328592
 21
352.287257877
 31
0.0
  0
LINE
  8
0
  6
CONTINUOUS
 62
     2
 10
342.362218677
 20
355.393086418
 30
0.0
 11
353.953328592
 21
358.49891496
 31
0.0
  0
LINE
  8
0
  6
CONTINUOUS
 62
     2
 10
342.362218677
 20
354.393086418
 30
0.0
 11
342.362218677
 21
361.393086418
 31
0.0
  0
TEXT
  8
0
  6
CONTINUOUS
 62
     3
 10
501.562218677
 20
361.393086418
 30
0.0
 40
18.0
  1
３６７
 50
0.0
 41
0.9
 51
0.0
  7
KANJI41
  0
LINE
  8
0
  6
CONTINUOUS
 62
     1
 10
703.0
 20
478.143086418
 30
0.0
 11
713.0
 21
478.143086418
 31
0.0
  0
LINE
  8
0
  6
LTYPE2
 62
     2
 10
708.0
 20
483.143086418
 30
0.0
 11
708.0
 21
472.443086418
 31
0.0
  0
ARC
  8
0
  6
CONTINUOUS
 62
     1
 10
708.0
 20
479.043086418
 30
0.0
 40
5.1
 50
189.9
 51
350.1
  0
LINE
  8
0
  6
CONTINUOUS
 62
     1
 10
814.0
 20
478.143086418
 30
0.0
 11
824.0
 21
478.143086418
 31
0.0
  0
LINE
  8
0
  6
LTYPE2
 62
     2
 10
819.0
 20
483.143086418
 30
0.0
 11
819.0
 21
472.443086418
 31
0.0
  0
ARC
  8
0
  6
CONTINUOUS
 62
     1
 10
819.0
 20
479.043086418
 30
0.0
 40
5.1
 50
189.9
 51
350.1
  0
LINE
  8
0
  6
CONTINUOUS
 62
     2
 10
772.100056514
 20
478.143086418
 30
0.0
 11
776.994948418
 21
463.964227746
 31
0.0
  0
LINE
  8
0
  6
CONTINUOUS
 62
     2
 10
772.100056514
 20
478.143086418
 30
0.0
 11
797.100056514
 21
441.143086418
 31
0.0
  0
LINE
  8
0
  6
LTYPE4
 62
     2
 10
772.100056514
 20
478.143086418
 30
0.0
 11
783.500056514
 21
468.443086418
 31
0.0
  0
TEXT
  8
0
  6
CONTINUOUS
 62
     2
 10
797.100056514
 20
447.143086418
 30
1.8
 40
18.0
  1
推力リミッター
 50
0.0
 41
0.9
 51
0.0
  7
KANJI39
  0
LINE
  8
0
  6
CONTINUOUS
 62
     2
 10
797.100056514
 20
441.143086418
 30
0.0
 11
924.300056514
 21
441.143086418
 31
0.0
  0
LINE
  8
0
  6
CONTINUOUS
 62
     2
 10
582.862218677
 20
178.143086418
 30
0.0
 11
590.589625287
 21
176.072534058
 31
0.0
  0
LINE
  8
0
  6
CONTINUOUS
 62
     2
 10
582.862218677
 20
178.143086418
 30
0.0
 11
590.589625287
 21
180.213638779
 31
0.0
  0
LINE
  8
0
  6
CONTINUOUS
 62
     2
 10
582.862218677
 20
178.143086418
 30
0.0
 11
720.462218677
 21
178.143086418
 31
0.0
  0
LINE
  8
0
  6
CONTINUOUS
 62
     2
 10
720.462218677
 20
178.143086418
 30
0.0
 11
712.734812066
 21
180.213638779
 31
0.0
  0
LINE
  8
0
  6
CONTINUOUS
 62
     2
 10
720.462218677
 20
178.143086418
 30
0.0
 11
712.734812066
 21
176.072534058
 31
0.0
  0
LINE
  8
0
  6
CONTINUOUS
 62
     2
 10
720.462218677
 20
176.943086418
 30
0.0
 11
720.462218677
 21
174.143086418
 31
0.0
  0
LINE
  8
0
  6
CONTINUOUS
 62
     2
 10
720.462218677
 20
178.143086418
 30
0.0
 11
728.189625287
 21
176.072534058
 31
0.0
  0
LINE
  8
0
  6
CONTINUOUS
 62
     2
 10
720.462218677
 20
178.143086418
 30
0.0
 11
728.189625287
 21
180.213638779
 31
0.0
  0
LINE
  8
0
  6
CONTINUOUS
 62
     2
 10
720.462218677
 20
178.143086418
 30
0.0
 11
922.862218677
 21
178.143086418
 31
0.0
  0
LINE
  8
0
  6
CONTINUOUS
 62
     2
 10
922.862218677
 20
178.143086418
 30
0.0
 11
915.134812066
 21
180.213638779
 31
0.0
  0
LINE
  8
0
  6
CONTINUOUS
 62
     2
 10
922.862218677
 20
178.143086418
 30
0.0
 11
915.134812066
 21
176.072534058
 31
0.0
  0
LINE
  8
0
  6
CONTINUOUS
 62
     2
 10
720.462218677
 20
151.813638779
 30
0.0
 11
712.734812066
 21
153.88419114
 31
0.0
  0
LINE
  8
0
  6
CONTINUOUS
 62
     2
 10
720.462218677
 20
151.813638779
 30
0.0
 11
712.734812066
 21
149.743086418
 31
0.0
  0
LINE
  8
0
  6
CONTINUOUS
 62
     2
 10
708.462218677
 20
151.813638779
 30
0.0
 11
720.462218677
 21
151.813638779
 31
0.0
  0
LINE
  8
0
  6
CONTINUOUS
 62
     2
 10
720.462218677
 20
151.813638779
 30
0.0
 11
741.262218677
 21
151.813638779
 31
0.0
  0
LINE
  8
0
  6
CONTINUOUS
 62
     2
 10
741.262218677
 20
151.813638779
 30
0.0
 11
748.989625287
 21
149.743086418
 31
0.0
  0
LINE
  8
0
  6
CONTINUOUS
 62
     2
 10
741.262218677
 20
151.813638779
 30
0.0
 11
748.989625287
 21
153.88419114
 31
0.0
  0
LINE
  8
0
  6
CONTINUOUS
 62
     2
 10
582.862218677
 20
126.543086418
 30
0.0
 11
582.862218677
 21
120.543086418
 31
0.0
  0
LINE
  8
0
  6
CONTINUOUS
 62
     2
 10
582.862218677
 20
124.543086418
 30
0.0
 11
590.589625287
 21
122.472534058
 31
0.0
  0
LINE
  8
0
  6
CONTINUOUS
 62
     2
 10
582.862218677
 20
124.543086418
 30
0.0
 11
590.589625287
 21
126.613638779
 31
0.0
  0
LINE
  8
0
  6
CONTINUOUS
 62
     2
 10
582.862218677
 20
124.543086418
 30
0.0
 11
741.262218677
 21
124.543086418
 31
0.0
  0
LINE
  8
0
  6
CONTINUOUS
 62
     2
 10
741.262218677
 20
124.543086418
 30
0.0
 11
733.534812066
 21
126.613638779
 31
0.0
  0
LINE
  8
0
  6
CONTINUOUS
 62
     2
 10
741.262218677
 20
124.543086418
 30
0.0
 11
733.534812066
 21
122.472534058
 31
0.0
  0
LINE
  8
0
  6
CONTINUOUS
 62
     2
 10
741.262218677
 20
125.743086418
 30
0.0
 11
741.262218677
 21
120.543086418
 31
0.0
  0
LINE
  8
0
  6
CONTINUOUS
 62
     2
 10
741.262218677
 20
124.543086418
 30
0.0
 11
748.989625287
 21
122.472534058
 31
0.0
  0
LINE
  8
0
  6
CONTINUOUS
 62
     2
 10
741.262218677
 20
124.543086418
 30
0.0
 11
748.989625287
 21
126.613638779
 31
0.0
  0
LINE
  8
0
  6
CONTINUOUS
 62
     2
 10
922.862218677
 20
120.943086418
 30
0.0
 11
922.862218677
 21
120.543086418
 31
0.0
  0
LINE
  8
0
  6
CONTINUOUS
 62
     2
 10
582.862218677
 20
95.343086418
 30
0.0
 11
590.589625287
 21
93.272534058
 31
0.0
  0
LINE
  8
0
  6
CONTINUOUS
 62
     2
 10
582.862218677
 20
95.343086418
 30
0.0
 11
590.589625287
 21
97.413638779
 31
0.0
  0
LINE
  8
0
  6
CONTINUOUS
 62
     2
 10
582.862218677
 20
95.343086418
 30
0.0
 11
900.462218677
 21
95.343086418
 31
0.0
  0
LINE
  8
0
  6
CONTINUOUS
 62
     2
 10
900.462218677
 20
95.343086418
 30
0.0
 11
892.734812066
 21
97.413638779
 31
0.0
  0
LINE
  8
0
  6
CONTINUOUS
 62
     2
 10
900.462218677
 20
95.343086418
 30
0.0
 11
892.734812066
 21
93.272534058
 31
0.0
  0
LINE
  8
0
  6
CONTINUOUS
 62
     2
 10
900.462218677
 20
96.143086418
 30
0.0
 11
900.462218677
 21
91.343086418
 31
0.0
  0
LINE
  8
0
  6
CONTINUOUS
 62
     2
 10
900.462218677
 20
95.343086418
 30
0.0
 11
892.734812066
 21
97.413638779
 31
0.0
  0
LINE
  8
0
  6
CONTINUOUS
 62
     2
 10
900.462218677
 20
95.343086418
 30
0.0
 11
892.734812066
 21
93.272534058
 31
0.0
  0
LINE
  8
0
  6
CONTINUOUS
 62
     2
 10
888.462218677
 20
95.343086418
 30
0.0
 11
900.462218677
 21
95.343086418
 31
0.0
  0
LINE
  8
0
  6
CONTINUOUS
 62
     2
 10
900.462218677
 20
95.343086418
 30
0.0
 11
922.862218677
 21
95.343086418
 31
0.0
  0
LINE
  8
0
  6
CONTINUOUS
 62
     2
 10
922.862218677
 20
95.343086418
 30
0.0
 11
930.589625287
 21
93.272534058
 31
0.0
  0
LINE
  8
0
  6
CONTINUOUS
 62
     2
 10
922.862218677
 20
95.343086418
 30
0.0
 11
930.589625287
 21
97.413638779
 31
0.0
  0
LINE
  8
0
  6
CONTINUOUS
 62
     2
 10
582.862218677
 20
188.943086418
 30
0.0
 11
582.862218677
 21
174.143086418
 31
0.0
  0
LINE
  8
0
  6
CONTINUOUS
 62
     2
 10
922.862218677
 20
188.943086418
 30
0.0
 11
922.862218677
 21
174.143086418
 31
0.0
  0
LINE
  8
0
  6
CONTINUOUS
 62
     2
 10
720.462218677
 20
177.743086418
 30
0.0
 11
720.462218677
 21
188.943086418
 31
0.0
  0
LINE
  8
0
  6
CONTINUOUS
 62
     2
 10
741.262218677
 20
164.613638779
 30
0.0
 11
741.262218677
 21
147.813638779
 31
0.0
  0
LINE
  8
0
  6
CONTINUOUS
 62
     2
 10
582.862218677
 20
174.143086418
 30
0.0
 11
582.862218677
 21
82.143086418
 31
0.0
  0
LINE
  8
0
  6
CONTINUOUS
 62
     2
 10
922.862218677
 20
178.143086418
 30
0.0
 11
922.862218677
 21
83.343086418
 31
0.0
  0
LINE
  8
0
  6
CONTINUOUS
 62
     2
 10
741.262218677
 20
151.813638779
 30
0.0
 11
741.262218677
 21
115.343086418
 31
0.0
  0
LINE
  8
0
  6
CONTINUOUS
 62
     2
 10
720.462218677
 20
178.143086418
 30
0.0
 11
720.462218677
 21
142.543086418
 31
0.0
  0
TEXT
  8
0
  6
CONTINUOUS
 62
     3
 10
624.662218677
 20
180.143086418
 30
0.0
 40
15.0
  1
ｍｉｎ．Ｌ
 50
0.0
 41
0.9
 51
0.0
  7
KANJI61
  0
TEXT
  8
0
  6
CONTINUOUS
 62
     3
 10
778.462218677
 20
180.143086418
 30
0.0
 40
15.0
  1
機械的ストローク
 50
0.0
 41
0.9
 51
0.0
  7
KANJI61
  0
TEXT
  8
0
  6
CONTINUOUS
 62
     3
 10
753.262218677
 20
153.813638779
 30
0.0
 40
15.0
  1
余裕
 50
0.0
 41
0.9
 51
0.0
  7
KANJI61
  0
TEXT
  8
0
  6
CONTINUOUS
 62
     3
 10
635.062218677
 20
126.543086418
 30
0.0
 40
15.0
  1
常用ｍｉｎ
 50
0.0
 41
0.9
 51
0.0
  7
KANJI61
  0
TEXT
  8
0
  6
CONTINUOUS
 62
     3
 10
714.662218677
 20
97.343086418
 30
0.0
 40
15.0
  1
常用ｍａｘ
 50
0.0
 41
0.9
 51
0.0
  7
KANJI61
  0
TEXT
  8
0
  6
CONTINUOUS
 62
     3
 10
934.862218677
 20
97.343086418
 30
0.0
 40
15.0
  1
余裕
 50
0.0
 41
0.9
 51
0.0
  7
KANJI61
  0
LINE
  8
0
  6
CONTINUOUS
 62
     2
 10
741.262218677
 20
151.813638779
 30
0.0
 11
781.362218677
 21
151.813638779
 31
0.0
  0
LINE
  8
0
  6
CONTINUOUS
 62
     2
 10
922.862218677
 20
95.343086418
 30
0.0
 11
965.362218677
 21
95.343086418
 31
0.0
  0
LINE
  8
0
  6
CONTINUOUS
 62
     2
 10
900.462218677
 20
136.493086418
 30
0.0
 11
900.462218677
 21
82.543086418
 31
0.0
  0
LINE
  8
0
  6
CONTINUOUS
 62
     2
 10
741.262218677
 20
124.543086418
 30
0.0
 11
900.462218677
 21
124.543086418
 31
0.0
  0
LINE
  8
0
  6
CONTINUOUS
 62
     2
 10
900.462218677
 20
124.543086418
 30
0.0
 11
892.734812066
 21
126.613638779
 31
0.0
  0
LINE
  8
0
  6
CONTINUOUS
 62
     2
 10
900.462218677
 20
124.543086418
 30
0.0
 11
892.734812066
 21
122.472534058
 31
0.0
  0
TEXT
  8
0
  6
CONTINUOUS
 62
     3
 10
782.312218677
 20
126.543086418
 30
0.0
 40
15.0
  1
常用ストローク
 50
0.0
 41
0.9
 51
0.0
  7
KANJI61
  0
LINE
  8
0
  6
CONTINUOUS
 62
     2
 10
527.919916738
 20
248.699981077
 30
0.0
 11
967.207325476
 21
248.699981077
 31
0.0
  0
TEXT
  8
0
  6
CONTINUOUS
 62
     2
 10
529.919916738
 20
256.699981077
 30
0.0
 40
20.0
  1
推力リミッタの作動値は、約２３００ｋｇ（設計値）
 50
0.0
 41
0.925
 51
0.0
  7
KANJI62
  0
TEXT
  8
0
  6
CONTINUOUS
 62
     2
 10
1048.262218677
 20
957.643086418
 30
0.0
 40
18.0
  1
手動開放装置
 50
0.0
 41
0.9
 51
0.0
  7
KANJI41
  0
LINE
  8
0
  6
CONTINUOUS
 62
     2
 10
1046.762218677
 20
952.643086418
 30
0.0
 11
1147.362218677
 21
952.643086418
 31
0.0
  0
LINE
  8
2
  6
CONTINUOUS
 62
     2
 10
989.037846712
 20
788.298054367
 30
0.0
 11
996.091518171
 21
798.617730667
 31
0.0
  0
LINE
  8
2
  6
CONTINUOUS
 62
     2
 10
989.037846712
 20
788.298054367
 30
0.0
 11
989.986667235
 21
800.761991932
 31
0.0
  0
LINE
  8
2
  6
CONTINUOUS
 62
     2
 10
989.037846712
 20
788.298054367
 30
0.0
 11
1046.762218677
 21
952.643086418
 31
0.0
  0
LINE
  8
2
  6
CONTINUOUS
 62
     2
 10
994.362218677
 20
787.298054367
 30
0.0
 11
994.362218677
 21
1022.843086418
 31
0.0
  0
LINE
  8
0
  6
CONTINUOUS
 62
     2
 10
1220.037846712
 20
938.298054367
 30
0.0
 11
1207.963773883
 21
941.533292431
 31
0.0
  0
LINE
  8
0
  6
CONTINUOUS
 62
     2
 10
1220.037846712
 20
938.298054367
 30
0.0
 11
1207.963773883
 21
935.062816303
 31
0.0
  0
LINE
  8
0
  6
CONTINUOUS
 62
     2
 10
1220.037846712
 20
938.298054367
 30
0.0
 11
1179.037846712
 21
938.298054367
 31
0.0
  0
TEXT
  8
0
  6
CONTINUOUS
 62
     3
 10
1186.037846712
 20
948.298054367
 30
0.0
 40
20.0
  1
前進
 50
0.0
 41
0.925
 51
0.0
  7
KANJI62
  0
LINE
  8
0
  6
CONTINUOUS
 62
     1
 10
1052.97
 20
1496.26024
 30
0.0
 11
1830.57
 21
1496.26024
 31
0.0
  0
LINE
  8
0
  6
CONTINUOUS
 62
     1
 10
1052.97
 20
1462.66024
 30
0.0
 11
1830.57
 21
1462.66024
 31
0.0
  0
TEXT
  8
0
  6
CONTINUOUS
 62
     2
 10
1100.97
 20
1472.26024
 30
1.536
 40
15.36
  1
形
 50
0.0
 41
0.9
 51
0.0
  7
KANJI63
  0
TEXT
  8
0
  6
CONTINUOUS
 62
     2
 10
1194.57
 20
1472.26024
 30
1.536
 40
15.36
  1
式
 50
0.0
 41
0.9
 51
0.0
  7
KANJI63
  0
TEXT
  8
0
  6
CONTINUOUS
 62
     2
 10
1267.05
 20
1471.30024
 30
1.44
 40
14.4
  1
ストローク
 50
0.0
 41
0.9
 51
0.0
  7
KANJI64
  0
TEXT
  8
0
  6
CONTINUOUS
 62
     2
 10
1359.21
 20
1470.34024
 30
0.0
 40
14.4
  1
ｍｉｎ　
 50
0.0
 41
0.9
 51
0.0
  7
KANJI65
  0
TEXT
  8
0
  6
CONTINUOUS
 62
     2
 10
1455.21
 20
1470.34024
 30
0.0
 40
14.4
  1
ｍｉｎ　
 50
0.0
 41
0.9
 51
0.0
  7
KANJI65
  0
TEXT
  8
0
  6
CONTINUOUS
 62
     2
 10
1647.21
 20
1470.34024
 30
0.0
 40
14.4
  1
ｍｉｎ　
 50
0.0
 41
0.9
 51
0.0
  7
KANJI65
  0
TEXT
  8
0
  6
CONTINUOUS
 62
     2
 10
1408.17
 20
1471.30024
 30
1.68
 40
16.8
  1
ＡＬ
 50
0.0
 41
0.9
 51
0.0
  7
KANJI66
  0
TEXT
  8
0
  6
CONTINUOUS
 62
     2
 10
1504.17
 20
1471.30024
 30
1.68
 40
16.8
  1
Ｌ
 50
0.0
 41
0.9
 51
0.0
  7
KANJI66
  0
TEXT
  8
0
  6
CONTINUOUS
 62
     2
 10
1585.77
 20
1471.30024
 30
1.68
 40
16.8
  1
Ｃ
 50
0.0
 41
0.9
 51
0.0
  7
KANJI66
  0
TEXT
  8
0
  6
CONTINUOUS
 62
     2
 10
1696.17
 20
1471.30024
 30
1.68
 40
16.8
  1
Ｐ
 50
0.0
 41
0.9
 51
0.0
  7
KANJI66
  0
TEXT
  8
0
  6
CONTINUOUS
 62
     2
 10
1794.93
 20
1470.94024
 30
0.0
 40
12.96
  1
（ｋｇ）
 50
0.0
 41
0.740740741
 51
0.0
  7
KANJI67
  0
TEXT
  8
0
  6
CONTINUOUS
 62
     2
 10
1737.33
 20
1470.70024
 30
1.44
 40
16.8
  1
概算重量
 50
0.0
 41
0.857142857
 51
0.0
  7
KANJI68
  0
TEXT
  8
0
  6
CONTINUOUS
 62
     2
 10
1276.17
 20
1439.10024
 30
1.44
 40
14.4
  1
　２００
 50
0.0
 41
0.9
 51
0.0
  7
KANJI64
  0
TEXT
  8
0
  6
CONTINUOUS
 62
     2
 10
1660.17
 20
1439.10024
 30
1.44
 40
14.4
  1
　　４５
 50
0.0
 41
0.9
 51
0.0
  7
KANJI64
  0
TEXT
  8
0
  6
CONTINUOUS
 62
     2
 10
1564.17
 20
1439.10024
 30
1.44
 40
14.4
  1
　４６２
 50
0.0
 41
0.9
 51
0.0
  7
KANJI64
  0
LINE
  8
0
  6
CONTINUOUS
 62
     2
 10
1052.97
 20
1431.06024
 30
0.0
 11
1830.57
 21
1431.06024
 31
0.0
  0
TEXT
  8
0
  6
CONTINUOUS
 62
     2
 10
1468.17
 20
1439.10024
 30
1.44
 40
14.4
  1
　５６７
 50
0.0
 41
0.9
 51
0.0
  7
KANJI64
  0
TEXT
  8
0
  6
CONTINUOUS
 62
     2
 10
1276.17
 20
1407.50024
 30
1.44
 40
14.4
  1
　３００
 50
0.0
 41
0.9
 51
0.0
  7
KANJI64
  0
TEXT
  8
0
  6
CONTINUOUS
 62
     2
 10
1660.17
 20
1407.50024
 30
1.44
 40
14.4
  1
　　４５
 50
0.0
 41
0.9
 51
0.0
  7
KANJI64
  0
TEXT
  8
0
  6
CONTINUOUS
 62
     2
 10
1564.17
 20
1407.50024
 30
1.44
 40
14.4
  1
　５６２
 50
0.0
 41
0.9
 51
0.0
  7
KANJI64
  0
LINE
  8
0
  6
CONTINUOUS
 62
     2
 10
1052.97
 20
1399.46024
 30
0.0
 11
1830.57
 21
1399.46024
 31
0.0
  0
TEXT
  8
0
  6
CONTINUOUS
 62
     2
 10
1468.17
 20
1407.50024
 30
1.44
 40
14.4
  1
　６６７
 50
0.0
 41
0.9
 51
0.0
  7
KANJI64
  0
TEXT
  8
0
  6
CONTINUOUS
 62
     2
 10
1276.17
 20
1375.90024
 30
1.44
 40
14.4
  1
　４００
 50
0.0
 41
0.9
 51
0.0
  7
KANJI64
  0
TEXT
  8
0
  6
CONTINUOUS
 62
     2
 10
1660.17
 20
1375.90024
 30
1.44
 40
14.4
  1
　　８５
 50
0.0
 41
0.9
 51
0.0
  7
KANJI64
  0
TEXT
  8
0
  6
CONTINUOUS
 62
     2
 10
1564.17
 20
1375.90024
 30
1.44
 40
14.4
  1
　６６２
 50
0.0
 41
0.9
 51
0.0
  7
KANJI64
  0
LINE
  8
0
  6
CONTINUOUS
 62
     2
 10
1052.97
 20
1367.86024
 30
0.0
 11
1830.57
 21
1367.86024
 31
0.0
  0
TEXT
  8
0
  6
CONTINUOUS
 62
     2
 10
1468.17
 20
1375.90024
 30
1.44
 40
14.4
  1
　８０７
 50
0.0
 41
0.9
 51
0.0
  7
KANJI64
  0
TEXT
  8
0
  6
CONTINUOUS
 62
     2
 10
1276.17
 20
1344.30024
 30
1.44
 40
14.4
  1
　５００
 50
0.0
 41
0.9
 51
0.0
  7
KANJI64
  0
TEXT
  8
0
  6
CONTINUOUS
 62
     2
 10
1660.17
 20
1344.30024
 30
1.44
 40
14.4
  1
　１１２
 50
0.0
 41
0.9
 51
0.0
  7
KANJI64
  0
TEXT
  8
0
  6
CONTINUOUS
 62
     2
 10
1564.17
 20
1344.30024
 30
1.44
 40
14.4
  1
　７６２
 50
0.0
 41
0.9
 51
0.0
  7
KANJI64
  0
LINE
  8
0
  6
CONTINUOUS
 62
     2
 10
1052.97
 20
1336.26024
 30
0.0
 11
1830.57
 21
1336.26024
 31
0.0
  0
TEXT
  8
0
  6
CONTINUOUS
 62
     2
 10
1468.17
 20
1344.30024
 30
1.44
 40
14.4
  1
　９３４
 50
0.0
 41
0.9
 51
0.0
  7
KANJI64
  0
LINE
  8
0
  6
CONTINUOUS
 62
     2
 10
1052.97
 20
1304.66024
 30
0.0
 11
1830.57
 21
1304.66024
 31
0.0
  0
TEXT
  8
0
  6
CONTINUOUS
 62
     2
 10
1276.17
 20
1312.70024
 30
1.44
 40
14.4
  1
　６００
 50
0.0
 41
0.9
 51
0.0
  7
KANJI64
  0
TEXT
  8
0
  6
CONTINUOUS
 62
     2
 10
1468.17
 20
1312.70024
 30
1.44
 40
14.4
  1
１０９０
 50
0.0
 41
0.9
 51
0.0
  7
KANJI64
  0
TEXT
  8
0
  6
CONTINUOUS
 62
     2
 10
1564.17
 20
1312.70024
 30
1.44
 40
14.4
  1
　９０２
 50
0.0
 41
0.9
 51
0.0
  7
KANJI64
  0
TEXT
  8
0
  6
CONTINUOUS
 62
     2
 10
1660.17
 20
1312.70024
 30
1.44
 40
14.4
  1
　１２８
 50
0.0
 41
0.9
 51
0.0
  7
KANJI64
  0
LINE
  8
0
  6
CONTINUOUS
 62
     2
 10
1052.97
 20
1273.06024
 30
0.0
 11
1830.57
 21
1273.06024
 31
0.0
  0
TEXT
  8
0
  6
CONTINUOUS
 62
     2
 10
1276.17
 20
1281.10024
 30
1.44
 40
14.4
  1
　７００
 50
0.0
 41
0.9
 51
0.0
  7
KANJI64
  0
TEXT
  8
0
  6
CONTINUOUS
 62
     2
 10
1468.17
 20
1281.10024
 30
1.44
 40
14.4
  1
１２１０
 50
0.0
 41
0.9
 51
0.0
  7
KANJI64
  0
TEXT
  8
0
  6
CONTINUOUS
 62
     2
 10
1564.17
 20
1281.10024
 30
1.44
 40
14.4
  1
１００２
 50
0.0
 41
0.9
 51
0.0
  7
KANJI64
  0
TEXT
  8
0
  6
CONTINUOUS
 62
     2
 10
1660.17
 20
1281.10024
 30
1.44
 40
14.4
  1
　１４８
 50
0.0
 41
0.9
 51
0.0
  7
KANJI64
  0
LINE
  8
0
  6
CONTINUOUS
 62
     2
 10
1052.97
 20
1241.46024
 30
0.0
 11
1830.57
 21
1241.46024
 31
0.0
  0
TEXT
  8
0
  6
CONTINUOUS
 62
     2
 10
1276.17
 20
1249.50024
 30
1.44
 40
14.4
  1
　８００
 50
0.0
 41
0.9
 51
0.0
  7
KANJI64
  0
TEXT
  8
0
  6
CONTINUOUS
 62
     2
 10
1468.17
 20
1249.50024
 30
1.44
 40
14.4
  1
１３３０
 50
0.0
 41
0.9
 51
0.0
  7
KANJI64
  0
TEXT
  8
0
  6
CONTINUOUS
 62
     2
 10
1564.17
 20
1249.50024
 30
1.44
 40
14.4
  1
１１０２
 50
0.0
 41
0.9
 51
0.0
  7
KANJI64
  0
TEXT
  8
0
  6
CONTINUOUS
 62
     2
 10
1660.17
 20
1249.50024
 30
1.44
 40
14.4
  1
　１６８
 50
0.0
 41
0.9
 51
0.0
  7
KANJI64
  0
LINE
  8
0
  6
CONTINUOUS
 62
     2
 10
1052.97
 20
1209.86024
 30
0.0
 11
1830.57
 21
1209.86024
 31
0.0
  0
TEXT
  8
0
  6
CONTINUOUS
 62
     2
 10
1276.17
 20
1217.90024
 30
1.44
 40
14.4
  1
　９００
 50
0.0
 41
0.9
 51
0.0
  7
KANJI64
  0
TEXT
  8
0
  6
CONTINUOUS
 62
     2
 10
1468.17
 20
1217.90024
 30
1.44
 40
14.4
  1
１４６０
 50
0.0
 41
0.9
 51
0.0
  7
KANJI64
  0
TEXT
  8
0
  6
CONTINUOUS
 62
     2
 10
1564.17
 20
1217.90024
 30
1.44
 40
14.4
  1
１２０２
 50
0.0
 41
0.9
 51
0.0
  7
KANJI64
  0
TEXT
  8
0
  6
CONTINUOUS
 62
     2
 10
1660.17
 20
1217.90024
 30
1.44
 40
14.4
  1
　１９８
 50
0.0
 41
0.9
 51
0.0
  7
KANJI64
  0
LINE
  8
0
  6
CONTINUOUS
 62
     2
 10
1052.97
 20
1178.26024
 30
0.0
 11
1830.57
 21
1178.26024
 31
0.0
  0
TEXT
  8
0
  6
CONTINUOUS
 62
     2
 10
1276.17
 20
1186.30024
 30
1.44
 40
14.4
  1
１０００
 50
0.0
 41
0.9
 51
0.0
  7
KANJI64
  0
TEXT
  8
0
  6
CONTINUOUS
 62
     2
 10
1468.17
 20
1186.30024
 30
1.44
 40
14.4
  1
１５９３
 50
0.0
 41
0.9
 51
0.0
  7
KANJI64
  0
TEXT
  8
0
  6
CONTINUOUS
 62
     2
 10
1564.17
 20
1186.30024
 30
1.44
 40
14.4
  1
１３０２
 50
0.0
 41
0.9
 51
0.0
  7
KANJI64
  0
TEXT
  8
0
  6
CONTINUOUS
 62
     2
 10
1660.17
 20
1186.30024
 30
1.44
 40
14.4
  1
　２３１
 50
0.0
 41
0.9
 51
0.0
  7
KANJI64
  0
LINE
  8
0
  6
CONTINUOUS
 62
     2
 10
1052.97
 20
1146.66024
 30
0.0
 11
1830.57
 21
1146.66024
 31
0.0
  0
TEXT
  8
0
  6
CONTINUOUS
 62
     2
 10
1276.17
 20
1154.70024
 30
1.44
 40
14.4
  1
１１００
 50
0.0
 41
0.9
 51
0.0
  7
KANJI64
  0
TEXT
  8
0
  6
CONTINUOUS
 62
     2
 10
1660.17
 20
1154.70024
 30
1.44
 40
14.4
  1
　２４５
 50
0.0
 41
0.9
 51
0.0
  7
KANJI64
  0
TEXT
  8
0
  6
CONTINUOUS
 62
     2
 10
1564.17
 20
1154.70024
 30
1.44
 40
14.4
  1
１４０２
 50
0.0
 41
0.9
 51
0.0
  7
KANJI64
  0
LINE
  8
0
  6
CONTINUOUS
 62
     2
 10
1052.97
 20
1115.06024
 30
0.0
 11
1830.57
 21
1115.06024
 31
0.0
  0
TEXT
  8
0
  6
CONTINUOUS
 62
     2
 10
1276.17
 20
1123.10024
 30
1.44
 40
14.4
  1
１２００
 50
0.0
 41
0.9
 51
0.0
  7
KANJI64
  0
TEXT
  8
0
  6
CONTINUOUS
 62
     2
 10
1660.17
 20
1123.10024
 30
1.44
 40
14.4
  1
　２６８
 50
0.0
 41
0.9
 51
0.0
  7
KANJI64
  0
TEXT
  8
0
  6
CONTINUOUS
 62
     2
 10
1564.17
 20
1123.10024
 30
1.44
 40
14.4
  1
１５０２
 50
0.0
 41
0.9
 51
0.0
  7
KANJI64
  0
LINE
  8
0
  6
CONTINUOUS
 62
     2
 10
1052.97
 20
1083.46024
 30
0.0
 11
1830.57
 21
1083.46024
 31
0.0
  0
TEXT
  8
0
  6
CONTINUOUS
 62
     2
 10
1276.17
 20
1091.50024
 30
1.44
 40
14.4
  1
１３００
 50
0.0
 41
0.9
 51
0.0
  7
KANJI64
  0
TEXT
  8
0
  6
CONTINUOUS
 62
     2
 10
1660.17
 20
1091.50024
 30
1.44
 40
14.4
  1
　２８８
 50
0.0
 41
0.9
 51
0.0
  7
KANJI64
  0
TEXT
  8
0
  6
CONTINUOUS
 62
     2
 10
1564.17
 20
1091.50024
 30
1.44
 40
14.4
  1
１６０２
 50
0.0
 41
0.9
 51
0.0
  7
KANJI64
  0
LINE
  8
0
  6
CONTINUOUS
 62
     2
 10
1052.97
 20
1051.86024
 30
0.0
 11
1830.57
 21
1051.86024
 31
0.0
  0
TEXT
  8
0
  6
CONTINUOUS
 62
     2
 10
1276.17
 20
1059.90024
 30
1.44
 40
14.4
  1
１４００
 50
0.0
 41
0.9
 51
0.0
  7
KANJI64
  0
TEXT
  8
0
  6
CONTINUOUS
 62
     2
 10
1660.17
 20
1059.90024
 30
1.44
 40
14.4
  1
　３１０
 50
0.0
 41
0.9
 51
0.0
  7
KANJI64
  0
TEXT
  8
0
  6
CONTINUOUS
 62
     2
 10
1564.17
 20
1059.90024
 30
1.44
 40
14.4
  1
１７０２
 50
0.0
 41
0.9
 51
0.0
  7
KANJI64
  0
LINE
  8
0
  6
CONTINUOUS
 62
     2
 10
1052.97
 20
1020.26024
 30
0.0
 11
1830.57
 21
1020.26024
 31
0.0
  0
TEXT
  8
0
  6
CONTINUOUS
 62
     2
 10
1276.17
 20
1028.30024
 30
1.44
 40
14.4
  1
１５００
 50
0.0
 41
0.9
 51
0.0
  7
KANJI64
  0
TEXT
  8
0
  6
CONTINUOUS
 62
     2
 10
1660.17
 20
1028.30024
 30
1.44
 40
14.4
  1
　３５０
 50
0.0
 41
0.9
 51
0.0
  7
KANJI64
  0
TEXT
  8
0
  6
CONTINUOUS
 62
     2
 10
1564.17
 20
1028.30024
 30
1.44
 40
14.4
  1
１８０２
 50
0.0
 41
0.9
 51
0.0
  7
KANJI64
  0
LINE
  8
0
  6
CONTINUOUS
 62
     1
 10
1052.97
 20
988.66024
 30
0.0
 11
1830.57
 21
988.66024
 31
0.0
  0
LINE
  8
0
  6
CONTINUOUS
 62
     1
 10
1052.97
 20
1496.26024
 30
0.0
 11
1052.97
 21
988.66024
 31
0.0
  0
LINE
  8
0
  6
CONTINUOUS
 62
     1
 10
1254.57
 20
1496.26024
 30
0.0
 11
1254.57
 21
988.66024
 31
0.0
  0
LINE
  8
0
  6
CONTINUOUS
 62
     2
 10
1350.57
 20
1496.26024
 30
0.0
 11
1350.57
 21
988.66024
 31
0.0
  0
LINE
  8
0
  6
CONTINUOUS
 62
     2
 10
1446.57
 20
1496.26024
 30
0.0
 11
1446.57
 21
988.66024
 31
0.0
  0
LINE
  8
0
  6
CONTINUOUS
 62
     2
 10
1542.57
 20
1496.26024
 30
0.0
 11
1542.57
 21
988.66024
 31
0.0
  0
LINE
  8
0
  6
CONTINUOUS
 62
     2
 10
1638.57
 20
1496.26024
 30
0.0
 11
1638.57
 21
988.66024
 31
0.0
  0
LINE
  8
0
  6
CONTINUOUS
 62
     2
 10
1734.57
 20
1496.26024
 30
0.0
 11
1734.57
 21
988.66024
 31
0.0
  0
LINE
  8
0
  6
CONTINUOUS
 62
     1
 10
1830.57
 20
1496.26024
 30
0.0
 11
1830.57
 21
988.66024
 31
0.0
  0
TEXT
  8
0
  6
CONTINUOUS
 62
     2
 10
1372.17
 20
1439.10024
 30
1.44
 40
14.4
  1
　９３４
 50
0.0
 41
0.9
 51
0.0
  7
KANJI64
  0
TEXT
  8
0
  6
CONTINUOUS
 62
     2
 10
1372.17
 20
1407.50024
 30
1.44
 40
14.4
  1
１０３４
 50
0.0
 41
0.9
 51
0.0
  7
KANJI64
  0
TEXT
  8
0
  6
CONTINUOUS
 62
     2
 10
1372.17
 20
1375.90024
 30
1.44
 40
14.4
  1
１１７４
 50
0.0
 41
0.9
 51
0.0
  7
KANJI64
  0
TEXT
  8
0
  6
CONTINUOUS
 62
     2
 10
1372.17
 20
1344.30024
 30
1.44
 40
14.4
  1
１３０１
 50
0.0
 41
0.9
 51
0.0
  7
KANJI64
  0
TEXT
  8
0
  6
CONTINUOUS
 62
     2
 10
1372.17
 20
1312.70024
 30
1.44
 40
14.4
  1
１４５７
 50
0.0
 41
0.9
 51
0.0
  7
KANJI64
  0
TEXT
  8
0
  6
CONTINUOUS
 62
     2
 10
1372.17
 20
1281.10024
 30
1.44
 40
14.4
  1
１５７７
 50
0.0
 41
0.9
 51
0.0
  7
KANJI64
  0
TEXT
  8
0
  6
CONTINUOUS
 62
     2
 10
1372.17
 20
1249.50024
 30
1.44
 40
14.4
  1
１６９７
 50
0.0
 41
0.9
 51
0.0
  7
KANJI64
  0
TEXT
  8
0
  6
CONTINUOUS
 62
     2
 10
1372.17
 20
1217.90024
 30
1.44
 40
14.4
  1
１８２７
 50
0.0
 41
0.9
 51
0.0
  7
KANJI64
  0
TEXT
  8
0
  6
CONTINUOUS
 62
     2
 10
1372.17
 20
1186.30024
 30
1.44
 40
14.4
  1
１９６０
 50
0.0
 41
0.9
 51
0.0
  7
KANJI64
  0
TEXT
  8
0
  6
CONTINUOUS
 62
     2
 10
1468.17
 20
1028.30024
 30
1.44
 40
14.4
  1
２２１２
 50
0.0
 41
0.9
 51
0.0
  7
KANJI64
  0
TEXT
  8
0
  6
CONTINUOUS
 62
     2
 10
1468.17
 20
1059.90024
 30
1.44
 40
14.4
  1
２０７２
 50
0.0
 41
0.9
 51
0.0
  7
KANJI64
  0
TEXT
  8
0
  6
CONTINUOUS
 62
     2
 10
1468.17
 20
1091.50024
 30
1.44
 40
14.4
  1
１９５０
 50
0.0
 41
0.9
 51
0.0
  7
KANJI64
  0
TEXT
  8
0
  6
CONTINUOUS
 62
     2
 10
1468.17
 20
1123.10024
 30
1.44
 40
14.4
  1
１８３０
 50
0.0
 41
0.9
 51
0.0
  7
KANJI64
  0
TEXT
  8
0
  6
CONTINUOUS
 62
     2
 10
1468.17
 20
1154.70024
 30
1.44
 40
14.4
  1
１７０７
 50
0.0
 41
0.9
 51
0.0
  7
KANJI64
  0
TEXT
  8
0
  6
CONTINUOUS
 62
     2
 10
1372.17
 20
1154.70024
 30
1.44
 40
14.4
  1
２０７４
 50
0.0
 41
0.9
 51
0.0
  7
KANJI64
  0
TEXT
  8
0
  6
CONTINUOUS
 62
     2
 10
1372.17
 20
1123.10024
 30
1.44
 40
14.4
  1
２１９７
 50
0.0
 41
0.9
 51
0.0
  7
KANJI64
  0
TEXT
  8
0
  6
CONTINUOUS
 62
     2
 10
1372.17
 20
1091.50024
 30
1.44
 40
14.4
  1
２３１７
 50
0.0
 41
0.9
 51
0.0
  7
KANJI64
  0
TEXT
  8
0
  6
CONTINUOUS
 62
     2
 10
1372.17
 20
1059.90024
 30
1.44
 40
14.4
  1
２４３９
 50
0.0
 41
0.9
 51
0.0
  7
KANJI64
  0
TEXT
  8
0
  6
CONTINUOUS
 62
     2
 10
1372.17
 20
1028.30024
 30
1.44
 40
14.4
  1
２５７９
 50
0.0
 41
0.9
 51
0.0
  7
KANJI64
  0
TEXT
  8
0
  6
CONTINUOUS
 62
     2
 10
1097.269827
 20
1513.13368
 30
1.749993
 40
17.49993
  1
注意：サーマルリレー等の選定は、上記の値で選定して下さい。
 50
0.0
 41
0.9
 51
0.0
  7
KANJI69
  0
LINE
  8
0
  6
CONTINUOUS
 62
     2
 10
1089.269867
 20
1508.1337
 30
0.0
 11
1590.02
 21
1508.1337
 31
0.0
  0
TEXT
  8
0
  6
CONTINUOUS
 62
     2
 10
1068.57
 20
1407.14024
 30
0.96
 40
14.4
  1
ＭＣＬＥ２Ｃ－　　３ＪＮ
 50
0.0
 41
0.833333333
 51
0.0
  7
KANJI70
  0
TEXT
  8
0
  6
CONTINUOUS
 62
     2
 10
1068.57
 20
1438.74024
 30
0.96
 40
14.4
  1
ＭＣＬＥ２Ｃ－　　２ＪＮ
 50
0.0
 41
0.833333333
 51
0.0
  7
KANJI70
  0
TEXT
  8
0
  6
CONTINUOUS
 62
     2
 10
1068.57
 20
1375.54024
 30
0.96
 40
14.4
  1
ＭＣＬＥ２Ｃ－　　４ＪＮ
 50
0.0
 41
0.833333333
 51
0.0
  7
KANJI70
  0
TEXT
  8
0
  6
CONTINUOUS
 62
     2
 10
1068.57
 20
1343.94024
 30
0.96
 40
14.4
  1
ＭＣＬＥ２Ｃ－　　５ＪＮ
 50
0.0
 41
0.833333333
 51
0.0
  7
KANJI70
  0
TEXT
  8
0
  6
CONTINUOUS
 62
     2
 10
1068.57
 20
1312.34024
 30
0.96
 40
14.4
  1
ＭＣＬＥ２Ｃ－　　６ＪＮ
 50
0.0
 41
0.833333333
 51
0.0
  7
KANJI70
  0
TEXT
  8
0
  6
CONTINUOUS
 62
     2
 10
1068.57
 20
1280.74024
 30
0.96
 40
14.4
  1
ＭＣＬＥ２Ｃ－　　７ＪＮ
 50
0.0
 41
0.833333333
 51
0.0
  7
KANJI70
  0
TEXT
  8
0
  6
CONTINUOUS
 62
     2
 10
1068.57
 20
1249.14024
 30
0.96
 40
14.4
  1
ＭＣＬＥ２Ｃ－　　８ＪＮ
 50
0.0
 41
0.833333333
 51
0.0
  7
KANJI70
  0
TEXT
  8
0
  6
CONTINUOUS
 62
     2
 10
1068.57
 20
1217.54024
 30
0.96
 40
14.4
  1
ＭＣＬＥ２Ｃ－　　９ＪＮ
 50
0.0
 41
0.833333333
 51
0.0
  7
KANJI70
  0
TEXT
  8
0
  6
CONTINUOUS
 62
     2
 10
1068.57
 20
1185.94024
 30
0.96
 40
14.4
  1
ＭＣＬＥ２Ｃ－　１０ＪＮ
 50
0.0
 41
0.833333333
 51
0.0
  7
KANJI70
  0
TEXT
  8
0
  6
CONTINUOUS
 62
     2
 10
1068.57
 20
1154.34024
 30
0.96
 40
14.4
  1
ＭＣＬＥ２Ｃ－　１１ＪＮ
 50
0.0
 41
0.833333333
 51
0.0
  7
KANJI70
  0
TEXT
  8
0
  6
CONTINUOUS
 62
     2
 10
1068.57
 20
1122.74024
 30
0.96
 40
14.4
  1
ＭＣＬＥ２Ｃ－　１２ＪＮ
 50
0.0
 41
0.833333333
 51
0.0
  7
KANJI70
  0
TEXT
  8
0
  6
CONTINUOUS
 62
     2
 10
1068.57
 20
1091.14024
 30
0.96
 40
14.4
  1
ＭＣＬＥ２Ｃ－　１３ＪＮ
 50
0.0
 41
0.833333333
 51
0.0
  7
KANJI70
  0
TEXT
  8
0
  6
CONTINUOUS
 62
     2
 10
1068.57
 20
1059.54024
 30
0.96
 40
14.4
  1
ＭＣＬＥ２Ｃ－　１４ＪＮ
 50
0.0
 41
0.833333333
 51
0.0
  7
KANJI70
  0
TEXT
  8
0
  6
CONTINUOUS
 62
     2
 10
1068.57
 20
1027.94024
 30
0.96
 40
14.4
  1
ＭＣＬＥ２Ｃ－　１５ＪＮ
 50
0.0
 41
0.833333333
 51
0.0
  7
KANJI70
  0
TEXT
  8
0
  6
CONTINUOUS
 62
     2
 10
1068.57
 20
996.34024
 30
0.96
 40
14.4
  1
ＭＣＬＥ２Ｃ－　　　ＪＮ　　
 50
0.0
 41
0.833333333
 51
0.0
  7
KANJI70
  0
TEXT
  8
0
  6
CONTINUOUS
 62
     2
 10
700.552228132
 20
754.993086418
 30
0.0
 40
16.8
  1
日本電産
 50
0.0
 41
0.964285714
 51
0.0
  7
KANJI71
  0
TEXT
  8
0
  6
CONTINUOUS
 62
     2
 10
700.552228132
 20
732.993086418
 30
0.0
 40
16.8
  1
クイックブレーキモータ
 50
0.0
 41
0.821428571
 51
0.0
  7
KANJI72
  0
LINE
  8
0
  6
CONTINUOUS
 62
     2
 10
1705.32
 20
709.0
 30
0.0
 11
1849.32
 21
709.0
 31
0.0
  0
TEXT
  8
0
  6
CONTINUOUS
 62
     2
 10
1711.92
 20
575.2
 30
5.985
 40
21.0
  1
　　カム式位置リミットスイッチ：　４点　　　２点
 50
0.0
 41
0.857222222
 51
0.0
  7
KANJI73
  0
TEXT
  8
0
  6
CONTINUOUS
 62
     2
 10
1711.92
 20
680.2
 30
6.0
 40
21.0
  1
１．運転時は必ずピストンロッドの回転防止を行って下さい。
 50
0.0
 41
0.857142857
 51
0.0
  7
KANJI74
  0
TEXT
  8
0
  6
CONTINUOUS
 62
     2
 10
1711.92
 20
605.2
 30
5.985
 40
21.0
  1
３．ポジショナ
 50
0.0
 41
0.857222222
 51
0.0
  7
KANJI73
  0
TEXT
  8
0
  6
CONTINUOUS
 62
     2
 10
1711.92
 20
642.7
 30
5.985
 40
21.0
  1
２．モートル：全閉自冷かご形３０分定格
 50
0.0
 41
0.857222222
 51
0.0
  7
KANJI73
  0
TEXT
  8
0
  6
CONTINUOUS
 62
     2
 10
1711.92
 20
543.4
 30
5.985
 40
21.0
  1
４．呼称ストロークは、機械的ストロークです。
 50
0.0
 41
0.857222222
 51
0.0
  7
KANJI73
  0
TEXT
  8
0
  6
CONTINUOUS
 62
     2
 10
1711.92
 20
509.2
 30
5.985
 40
21.0
  1
　　必ず、常用はストローク両端に余裕を取って器下さい。
 50
0.0
 41
0.857222222
 51
0.0
  7
KANJI73
  0
TEXT
  8
0
  6
CONTINUOUS
 62
     2
 10
1717.92
 20
717.4
 30
12.0
 40
24.0
  1
特記事項
 50
0.0
 41
0.9
 51
0.0
  7
KANJI75
  0
TEXT
  8
0
  6
CONTINUOUS
 62
     2
 10
1711.92
 20
477.4
 30
5.985
 40
21.0
  1
　　前後の推奨余裕寸法は、各々３０ｍｍです。
 50
0.0
 41
0.857222222
 51
0.0
  7
KANJI73
  0
TEXT
  8
0
  6
CONTINUOUS
 62
     2
 10
1711.92
 20
442.4
 30
5.985
 40
21.0
  1
５．ボールネジ使用　３６１０
 50
0.0
 41
0.857222222
 51
0.0
  7
KANJI73
  0
TEXT
  8
0
  6
CONTINUOUS
 62
     2
 10
1756.17
 20
1439.10024
 30
1.44
 40
14.4
  1
　９４
 50
0.0
 41
0.9
 51
0.0
  7
KANJI64
  0
TEXT
  8
0
  6
CONTINUOUS
 62
     2
 10
1756.17
 20
1407.50024
 30
1.44
 40
14.4
  1
　９７
 50
0.0
 41
0.9
 51
0.0
  7
KANJI64
  0
TEXT
  8
0
  6
CONTINUOUS
 62
     2
 10
1756.17
 20
1375.90024
 30
1.44
 40
14.4
  1
１０１
 50
0.0
 41
0.9
 51
0.0
  7
KANJI64
  0
TEXT
  8
0
  6
CONTINUOUS
 62
     2
 10
1756.17
 20
1344.30024
 30
1.44
 40
14.4
  1
１０６
 50
0.0
 41
0.9
 51
0.0
  7
KANJI64
  0
TEXT
  8
0
  6
CONTINUOUS
 62
     2
 10
1756.17
 20
1312.70024
 30
1.44
 40
14.4
  1
１１０
 50
0.0
 41
0.9
 51
0.0
  7
KANJI64
  0
TEXT
  8
0
  6
CONTINUOUS
 62
     2
 10
1756.17
 20
1281.10024
 30
1.44
 40
14.4
  1
１１４
 50
0.0
 41
0.9
 51
0.0
  7
KANJI64
  0
TEXT
  8
0
  6
CONTINUOUS
 62
     2
 10
1756.17
 20
1249.50024
 30
1.44
 40
14.4
  1
１１８
 50
0.0
 41
0.9
 51
0.0
  7
KANJI64
  0
TEXT
  8
0
  6
CONTINUOUS
 62
     2
 10
1756.17
 20
1217.90024
 30
1.44
 40
14.4
  1
１２１
 50
0.0
 41
0.9
 51
0.0
  7
KANJI64
  0
TEXT
  8
0
  6
CONTINUOUS
 62
     2
 10
1756.17
 20
1186.30024
 30
1.44
 40
14.4
  1
１２４
 50
0.0
 41
0.9
 51
0.0
  7
KANJI64
  0
TEXT
  8
0
  6
CONTINUOUS
 62
     2
 10
1756.17
 20
1154.70024
 30
1.44
 40
14.4
  1
１２６
 50
0.0
 41
0.9
 51
0.0
  7
KANJI64
  0
TEXT
  8
0
  6
CONTINUOUS
 62
     2
 10
1756.17
 20
1123.10024
 30
1.44
 40
14.4
  1
１２８
 50
0.0
 41
0.9
 51
0.0
  7
KANJI64
  0
TEXT
  8
0
  6
CONTINUOUS
 62
     2
 10
1756.17
 20
1091.50024
 30
1.44
 40
14.4
  1
１３０
 50
0.0
 41
0.9
 51
0.0
  7
KANJI64
  0
TEXT
  8
0
  6
CONTINUOUS
 62
     2
 10
1756.17
 20
1059.90024
 30
1.44
 40
14.4
  1
１３２
 50
0.0
 41
0.9
 51
0.0
  7
KANJI64
  0
TEXT
  8
0
  6
CONTINUOUS
 62
     2
 10
1756.17
 20
1028.30024
 30
1.44
 40
14.4
  1
１３４
 50
0.0
 41
0.9
 51
0.0
  7
KANJI64
  0
TEXT
  8
0
  6
CONTINUOUS
 62
     6
 10
131.034567657
 20
1099.639357623
 30
1.82231734
 40
18.223173404
  1
クイックブレーキモータ
 50
0.0
 41
0.66671875
 51
0.0
  7
KANJI76
  0
CIRCLE
  8
0
  6
CONTINUOUS
 62
     6
 10
175.476
 20
1037.672
 30
0.0
 40
21.6
  0
TEXT
  8
0
  6
CONTINUOUS
 62
     6
 10
166.404
 20
1027.304
 30
2.16
 40
21.6
  1
Ｍ
 50
0.0
 41
0.9
 51
0.0
  7
KANJI77
  0
LINE
  8
0
  6
CONTINUOUS
 62
     6
 10
146.964
 20
1007.432
 30
0.0
 11
160.356
 21
1022.984
 31
0.0
  0
LINE
  8
0
  6
CONTINUOUS
 62
     6
 10
146.964
 20
1067.912
 30
0.0
 11
160.356
 21
1052.36
 31
0.0
  0
CIRCLE
  8
0
  6
CONTINUOUS
 62
     6
 10
122.34
 20
1067.912
 30
0.0
 40
5.184
  0
LINE
  8
0
  6
CONTINUOUS
 62
     6
 10
116.384103884
 20
1061.956103884
 30
0.0
 11
128.480103884
 21
1074.052103884
 31
0.0
  0
CIRCLE
  8
0
  6
CONTINUOUS
 62
     6
 10
122.34
 20
1037.672
 30
0.0
 40
5.184
  0
LINE
  8
0
  6
CONTINUOUS
 62
     6
 10
116.384103884
 20
1031.716103884
 30
0.0
 11
128.480103884
 21
1043.812103884
 31
0.0
  0
CIRCLE
  8
0
  6
CONTINUOUS
 62
     6
 10
122.34
 20
1007.432
 30
0.0
 40
5.184
  0
LINE
  8
0
  6
CONTINUOUS
 62
     6
 10
116.384103884
 20
1001.476103884
 30
0.0
 11
128.480103884
 21
1013.572103884
 31
0.0
  0
LINE
  8
0
  6
CONTINUOUS
 62
     6
 10
146.964
 20
1067.912
 30
0.0
 11
127.524
 21
1067.912
 31
0.0
  0
LINE
  8
0
  6
CONTINUOUS
 62
     6
 10
154.308
 20
1037.672
 30
0.0
 11
127.524
 21
1037.672
 31
0.0
  0
LINE
  8
0
  6
CONTINUOUS
 62
     6
 10
146.964
 20
1007.432
 30
0.0
 11
127.524
 21
1007.432
 31
0.0
  0
LINE
  8
0
  6
LTYPE4
 62
     6
 10
122.34
 20
1091.24
 30
0.0
 11
122.34
 21
1071.8
 31
0.0
  0
LINE
  8
0
  6
LTYPE4
 62
     6
 10
122.34
 20
1063.16
 30
0.0
 11
122.34
 21
1041.56
 31
0.0
  0
LINE
  8
0
  6
LTYPE4
 62
     6
 10
122.34
 20
1032.92
 30
0.0
 11
122.34
 21
1011.752
 31
0.0
  0
TEXT
  8
0
  6
CONTINUOUS
 62
     6
 10
101.556
 20
1075.256
 30
1.296
 40
12.96
  1
Ｕ
 50
0.0
 41
0.9
 51
0.0
  7
KANJI78
  0
TEXT
  8
0
  6
CONTINUOUS
 62
     6
 10
102.852
 20
1044.584
 30
1.296
 40
12.96
  1
Ｖ
 50
0.0
 41
0.9
 51
0.0
  7
KANJI78
  0
TEXT
  8
0
  6
CONTINUOUS
 62
     6
 10
104.148
 20
1013.912
 30
1.296
 40
12.96
  1
Ｗ
 50
0.0
 41
0.9
 51
0.0
  7
KANJI78
  0
LINE
  8
0
  6
LTYPE4
 62
     6
 10
276.9
 20
1091.24
 30
0.0
 11
122.34
 21
1091.24
 31
0.0
  0
TEXT
  8
0
  6
CONTINUOUS
 62
     6
 10
206.58
 20
1027.8872
 30
1.728
 40
17.28
  1
Ｂ
 50
0.0
 41
0.9
 51
0.0
  7
KANJI79
  0
CIRCLE
  8
0
  6
CONTINUOUS
 62
     6
 10
214.356
 20
1037.672
 30
0.0
 40
17.28
  0
LINE
  8
0
  6
CONTINUOUS
 62
     6
 10
241.956
 20
1007.2592
 30
0.0
 11
222.97698443
 21
1022.696118475
 31
0.0
  0
LINE
  8
0
  6
CONTINUOUS
 62
     6
 10
205.371325074
 20
1022.911443897
 30
0.0
 11
186.276
 21
1007.2592
 31
0.0
  0
CIRCLE
  8
0
  6
CONTINUOUS
 62
     6
 10
186.276
 20
958.2272
 30
0.0
 40
5.184
  0
LINE
  8
0
  6
CONTINUOUS
 62
     6
 10
180.320103884
 20
952.271303884
 30
0.0
 11
192.416103884
 21
964.367303884
 31
0.0
  0
CIRCLE
  8
0
  6
CONTINUOUS
 62
     6
 10
214.116
 20
958.2272
 30
0.0
 40
5.184
  0
LINE
  8
0
  6
CONTINUOUS
 62
     6
 10
208.160103884
 20
952.271303884
 30
0.0
 11
220.256103884
 21
964.367303884
 31
0.0
  0
LINE
  8
0
  6
LTYPE4
 62
     6
 10
191.46
 20
958.2272
 30
0.0
 11
208.836
 21
958.2272
 31
0.0
  0
CIRCLE
  8
0
  6
CONTINUOUS
 62
     6
 10
241.956
 20
958.2272
 30
0.0
 40
5.184
  0
LINE
  8
0
  6
CONTINUOUS
 62
     6
 10
236.000103884
 20
952.271303884
 30
0.0
 11
248.096103884
 21
964.367303884
 31
0.0
  0
LINE
  8
0
  6
LTYPE4
 62
     6
 10
218.916
 20
958.2272
 30
0.0
 11
237.156
 21
958.2272
 31
0.0
  0
TEXT
  8
0
  6
CONTINUOUS
 62
     6
 10
199.38
 20
961.0592
 30
1.296
 40
12.96
  1
ｖ
 50
0.0
 41
0.9
 51
0.0
  7
KANJI78
  0
TEXT
  8
0
  6
CONTINUOUS
 62
     6
 10
227.22
 20
961.0592
 30
1.296
 40
12.96
  1
ｗ
 50
0.0
 41
0.9
 51
0.0
  7
KANJI78
  0
TEXT
  8
0
  6
CONTINUOUS
 62
     6
 10
172.356
 20
961.9232
 30
1.296
 40
12.96
  1
ｕ
 50
0.0
 41
0.9
 51
0.0
  7
KANJI78
  0
LINE
  8
0
  6
CONTINUOUS
 62
     6
 10
186.276
 20
963.4112
 30
0.0
 11
186.276
 21
1007.2592
 31
0.0
  0
LINE
  8
0
  6
CONTINUOUS
 62
     6
 10
214.116
 20
963.4112
 30
0.0
 11
214.116
 21
1020.68
 31
0.0
  0
LINE
  8
0
  6
CONTINUOUS
 62
     6
 10
241.956
 20
963.4112
 30
0.0
 11
241.956
 21
1007.2592
 31
0.0
  0
LINE
  8
0
  6
LTYPE4
 62
     6
 10
247.716
 20
958.2272
 30
0.0
 11
276.9
 21
958.2272
 31
0.0
  0
LINE
  8
0
  6
LTYPE4
 62
     6
 10
276.9
 20
958.2272
 30
0.0
 11
276.9
 21
1091.24
 31
0.0
  0
LINE
  8
0
  6
LTYPE4
 62
     6
 10
122.34
 20
958.2272
 30
0.0
 11
181.092
 21
958.2272
 31
0.0
  0
LINE
  8
0
  6
LTYPE4
 62
     6
 10
122.34
 20
1002.248
 30
0.0
 11
122.34
 21
958.2272
 31
0.0
  0
TEXT
  8
0
  6
CONTINUOUS
 62
     2
 10
138.754472037
 20
923.194685773
 30
0.0
 40
18.72
  1
モーター結線図
 50
0.0
 41
0.925
 51
0.0
  7
KANJI80
  0
LINE
  8
0
  6
CONTINUOUS
 62
     2
 10
428.262218677
 20
788.343086418
 30
0.0
 11
377.762218677
 21
894.843086418
 31
0.0
  0
TEXT
  8
0
  6
CONTINUOUS
 62
     2
 10
273.962218677
 20
900.843086418
 30
1.8
 40
18.0
  1
手動軸カバー
 50
0.0
 41
0.9
 51
0.0
  7
KANJI39
  0
LINE
  8
0
  6
CONTINUOUS
 62
     2
 10
377.762218677
 20
894.843086418
 30
0.0
 11
271.462218677
 21
894.843086418
 31
0.0
  0
TEXT
  8
0
  6
CONTINUOUS
 62
     3
 10
291.648885677
 20
873.509769418
 30
1.5
 40
15.0
  1
手動軸□８
 50
0.0
 41
0.9
 51
0.0
  7
KANJI81
  0
LINE
  8
0
  6
CONTINUOUS
 62
     2
 10
411.362218677
 20
793.143086418
 30
0.0
 11
411.362218677
 21
1018.843086418
 31
0.0
  0
LINE
  8
0
  6
CONTINUOUS
 62
     2
 10
624.362218677
 20
1012.843086418
 30
0.0
 11
411.362218677
 21
1012.843086418
 31
0.0
  0
LINE
  8
0
  6
CONTINUOUS
 62
     2
 10
411.362218677
 20
1012.843086418
 30
0.0
 11
422.953328592
 21
1009.737257877
 31
0.0
  0
LINE
  8
0
  6
CONTINUOUS
 62
     2
 10
411.362218677
 20
1012.843086418
 30
0.0
 11
422.953328592
 21
1015.94891496
 31
0.0
  0
TEXT
  8
0
  6
CONTINUOUS
 62
     3
 10
493.562218677
 20
1018.843086418
 30
0.0
 40
18.0
  1
２１３
 50
0.0
 41
0.9
 51
0.0
  7
KANJI41
  0
LINE
  8
0
  6
CONTINUOUS
 62
     2
 10
624.362218677
 20
1012.843086418
 30
0.0
 11
612.771108761
 21
1015.94891496
 31
0.0
  0
LINE
  8
0
  6
CONTINUOUS
 62
     2
 10
624.362218677
 20
1012.843086418
 30
0.0
 11
612.771108761
 21
1009.737257877
 31
0.0
  0
LINE
  8
0
  6
CONTINUOUS
 62
     2
 10
428.262218677
 20
788.343086418
 30
0.0
 11
425.562337673
 21
803.098107346
 31
0.0
  0
LINE
  8
0
  6
CONTINUOUS
 62
     2
 10
428.262218677
 20
788.343086418
 30
0.0
 11
418.546542677
 21
799.771368873
 31
0.0
  0
ARC
  8
0
  6
CONTINUOUS
 62
     2
 10
365.762218677
 20
773.843086418
 30
0.0
 40
20.0
 50
231.952957468
 51
156.801409486
  0
LINE
  8
0
  6
CONTINUOUS
 62
     2
 10
347.379318076
 20
781.72147239
 30
0.0
 11
349.674010787
 21
791.558911167
 31
0.0
  0
LINE
  8
0
  6
CONTINUOUS
 62
     2
 10
347.379318076
 20
781.72147239
 30
0.0
 11
355.647479454
 21
786.628808925
 31
0.0
  0
LINE
  8
0
  6
CONTINUOUS
 62
     1
 10
411.362218677
 20
759.143086418
 30
0.0
 11
411.362218677
 21
787.143086418
 31
0.0
  0
LINE
  8
0
  6
CONTINUOUS
 62
     1
 10
411.362218677
 20
787.143086418
 30
0.0
 11
453.362218677
 21
787.143086418
 31
0.0
  0
LINE
  8
0
  6
CONTINUOUS
 62
     1
 10
449.362218677
 20
759.143086418
 30
0.0
 11
449.362218677
 21
787.143086418
 31
0.0
  0
LINE
  8
0
  6
CONTINUOUS
 62
     1
 10
453.362218677
 20
813.143086418
 30
0.0
 11
529.362218677
 21
813.143086418
 31
0.0
  0
LINE
  8
0
  6
CONTINUOUS
 62
     1
 10
453.362218677
 20
751.143086418
 30
0.0
 11
453.362218677
 21
813.143086418
 31
0.0
  0
TEXT
  8
0
  6
CONTINUOUS
 62
     2
 10
285.379318076
 20
764.72147239
 30
0.0
 40
15.0
  1
前進方向
 50
0.0
 41
0.9
 51
0.0
  7
KANJI61
  0
LINE
  8
0
  6
CONTINUOUS
 62
     1
 10
411.362218677
 20
759.143086418
 30
0.0
 11
453.362218677
 21
759.143086418
 31
0.0
  0
LINE
  8
0
  6
CONTINUOUS
 62
     1
 10
464.362218677
 20
751.143086418
 30
0.0
 11
453.362218677
 21
751.143086418
 31
0.0
  0
LINE
  8
0
  6
CONTINUOUS
 62
     2
 10
455.339634217
 20
454.760825051
 30
0.0
 11
351.339634217
 21
454.760825051
 31
0.0
  0
LINE
  8
0
  6
CONTINUOUS
 62
     1
 10
616.862218677
 20
672.143086418
 30
0.0
 11
573.862218677
 21
672.143086418
 31
0.0
  0
TEXT
  8
0
  6
CONTINUOUS
 62
     2
 10
578.862218677
 20
661.143086418
 30
5.0
 40
20.0
  1
銘板
 50
270.0
 41
0.925
 51
0.0
  7
KANJI82
  0
LINE
  8
0
  6
CONTINUOUS
 62
     1
 10
573.862218677
 20
672.143086418
 30
0.0
 11
573.862218677
 21
602.143086418
 31
0.0
  0
LINE
  8
0
  6
CONTINUOUS
 62
     1
 10
616.862218677
 20
602.143086418
 30
0.0
 11
573.862218677
 21
602.143086418
 31
0.0
  0
LINE
  8
0
  6
CONTINUOUS
 62
     1
 10
616.862218677
 20
672.143086418
 30
0.0
 11
616.862218677
 21
602.143086418
 31
0.0
  0
TEXT
  8
0
  6
CONTINUOUS
 62
     2
 10
2183.0
 20
821.0
 30
0.0
 40
18.0
  1
手動ハンドル
 50
0.0
 41
0.9
 51
0.0
  7
KANJI41
  0
TEXT
  8
0
  6
CONTINUOUS
 62
     3
 10
364.717049758
 20
459.378563683
 30
1.8
 40
24.0
  1
ＰＦ１
 50
0.0
 41
0.875
 51
0.0
  7
KANJI83
  0
TEXT
  8
0
  6
CONTINUOUS
 62
     6
 10
540.777995159
 20
1501.908967457
 30
0.0
 40
16.8
  1
ＡＣ１００Ｖ　１２５Ｖ　２５０Ｖ　－１０Ａ
 50
0.0
 41
0.714285714
 51
0.0
  7
KANJI59
  0
TEXT
  8
0
  6
CONTINUOUS
 62
     2
 10
176.4
 20
26.4
 30
0.0
 40
18.0
  1
ＦＤ　Ｎｏ．ＭＣ２２９
 50
0.0
 41
0.9
 51
0.0
  7
KANJI84
  0
TEXT
  8
0
  6
CONTINUOUS
 62
     2
 10
1648.5200334
 20
126.899994
 30
1.8
 40
21.0
  1
０８．０４．０１
 50
0.0
 41
0.571428571
 51
0.0
  7
KANJI85
  0
TEXT
  8
0
  6
CONTINUOUS
 62
     2
 10
1239.01926
 20
1607.29997
 30
1.499994
 40
14.99994
  1
２２．１
 50
0.0
 41
0.9
 51
0.0
  7
KANJI44
  0
TEXT
  8
0
  6
CONTINUOUS
 62
     2
 10
1239.01926
 20
1577.30009
 30
1.499994
 40
14.99994
  1
１９．２
 50
0.0
 41
0.9
 51
0.0
  7
KANJI44
  0
TEXT
  8
0
  6
CONTINUOUS
 62
     2
 10
1239.01926
 20
1547.30021
 30
1.499994
 40
14.99994
  1
４１．１
 50
0.0
 41
0.9
 51
0.0
  7
KANJI44
  0
TEXT
  8
0
  6
CONTINUOUS
 62
     2
 10
1538.476423333
 20
1575.0084275
 30
1.499994
 40
14.99994
  1
３９．２
 50
0.0
 41
0.9
 51
0.0
  7
KANJI44
  0
TEXT
  8
0
  6
CONTINUOUS
 62
     2
 10
1539.726418333
 20
1546.6752075
 30
1.499994
 40
14.99994
  1
４２．１
 50
0.0
 41
0.9
 51
0.0
  7
KANJI44
  0
ENDSEC
  0
EOF
