  0
SECTION
  2
HEADER
  9
$ACADVER
  1
AC1009
  9
$DWGCODEPAGE
  3
dos932
  9
$EXTMIN
 10
0.0
 20
0.0
 30
0.0
  9
$EXTMAX
 10
2520.0
 20
1782.0
 30
0.0
  9
$LIMMIN
 10
0.0
 20
0.0
  9
$LIMMAX
 10
2520.0
 20
1782.0
  9
$LTSCALE
 40
1.0
  9
$PDMODE
 70
     0
  0
ENDSEC
  0
SECTION
  2
TABLES
  0
TABLE
  2
VPORT
 70
     1
  0
VPORT
  2
*ACTIVE
 70
     0
 10
0.0
 20
0.0
 11
1.0
 21
1.0
 12
1260.0
 22
891.0
 13
0.0
 23
0.0
 14
10.0
 24
10.0
 15
10.0
 25
10.0
 16
0.0
 26
0.0
 36
1.0
 17
0.0
 27
0.0
 37
0.0
 40
2520.0
 41
1.414141414
 42
50.0
 43
0.0
 44
0.0
 50
0.0
 51
0.0
 71
     0
 72
  1000
 73
     1
 74
     3
 75
     0
 76
     0
 77
     0
 78
     0
  0
ENDTAB
  0
TABLE
  2
LTYPE
 70
     6
  0
LTYPE
  2
CONTINUOUS
 70
    64
  3
Solid line
 72
    65
 73
     0
 40
0.0
  0
LTYPE
  2
LTYPE1
 70
    64
  3
HIDDEN
 72
    65
 73
     2
 40
18.0
 49
10.8
 49
-7.2
  0
LTYPE
  2
LTYPE2
 70
    64
  3
CENTER
 72
    65
 73
     4
 40
90.0
 49
63.0
 49
-9.0
 49
9.0
 49
-9.0
  0
LTYPE
  2
LTYPE3
 70
    64
  3
CENTER
 72
    65
 73
     4
 40
60.0
 49
42.0
 49
-6.0
 49
6.0
 49
-6.0
  0
LTYPE
  2
LTYPE4
 70
    64
  3
PHANTOM
 72
    65
 73
     6
 40
60.0
 49
45.0
 49
-3.0
 49
3.0
 49
-3.0
 49
3.0
 49
-3.0
  0
LTYPE
  2
LTYPE5
 70
    64
  3
CENTER
 72
    65
 73
     4
 40
120.0
 49
84.0
 49
-12.0
 49
12.0
 49
-12.0
  0
ENDTAB
  0
TABLE
  2
LAYER
 70
   128
  0
LAYER
  2
0
 70
     0
 62
     7
  6
CONTINUOUS
  0
LAYER
  2
2
 70
     0
 62
     7
  6
CONTINUOUS
  0
LAYER
  2
3
 70
     0
 62
     7
  6
CONTINUOUS
  0
LAYER
  2
4
 70
     0
 62
     7
  6
CONTINUOUS
  0
LAYER
  2
5
 70
     0
 62
     7
  6
CONTINUOUS
  0
LAYER
  2
6
 70
     0
 62
     7
  6
CONTINUOUS
  0
LAYER
  2
7
 70
     0
 62
     7
  6
CONTINUOUS
  0
LAYER
  2
8
 70
     0
 62
     7
  6
CONTINUOUS
  0
LAYER
  2
9
 70
     0
 62
     7
  6
CONTINUOUS
  0
LAYER
  2
10
 70
     0
 62
     7
  6
CONTINUOUS
  0
LAYER
  2
11
 70
     0
 62
     7
  6
CONTINUOUS
  0
LAYER
  2
12
 70
     0
 62
     7
  6
CONTINUOUS
  0
LAYER
  2
13
 70
     0
 62
     7
  6
CONTINUOUS
  0
LAYER
  2
14
 70
     0
 62
     7
  6
CONTINUOUS
  0
LAYER
  2
15
 70
     0
 62
     7
  6
CONTINUOUS
  0
LAYER
  2
16
 70
     0
 62
     7
  6
CONTINUOUS
  0
LAYER
  2
17
 70
     0
 62
     7
  6
CONTINUOUS
  0
LAYER
  2
18
 70
     0
 62
     7
  6
CONTINUOUS
  0
LAYER
  2
19
 70
     0
 62
     7
  6
CONTINUOUS
  0
LAYER
  2
20
 70
     0
 62
     7
  6
CONTINUOUS
  0
LAYER
  2
21
 70
     0
 62
     7
  6
CONTINUOUS
  0
LAYER
  2
22
 70
     0
 62
     7
  6
CONTINUOUS
  0
LAYER
  2
23
 70
     0
 62
     7
  6
CONTINUOUS
  0
LAYER
  2
24
 70
     0
 62
     7
  6
CONTINUOUS
  0
LAYER
  2
25
 70
     0
 62
     7
  6
CONTINUOUS
  0
LAYER
  2
26
 70
     0
 62
     7
  6
CONTINUOUS
  0
LAYER
  2
27
 70
     0
 62
     7
  6
CONTINUOUS
  0
LAYER
  2
28
 70
     0
 62
     7
  6
CONTINUOUS
  0
LAYER
  2
29
 70
     0
 62
     7
  6
CONTINUOUS
  0
LAYER
  2
30
 70
     0
 62
     7
  6
CONTINUOUS
  0
LAYER
  2
31
 70
     0
 62
     7
  6
CONTINUOUS
  0
LAYER
  2
32
 70
     0
 62
     7
  6
CONTINUOUS
  0
LAYER
  2
33
 70
     0
 62
     7
  6
CONTINUOUS
  0
LAYER
  2
34
 70
     0
 62
     7
  6
CONTINUOUS
  0
LAYER
  2
35
 70
     0
 62
     7
  6
CONTINUOUS
  0
LAYER
  2
36
 70
     0
 62
     7
  6
CONTINUOUS
  0
LAYER
  2
37
 70
     0
 62
     7
  6
CONTINUOUS
  0
LAYER
  2
38
 70
     0
 62
     7
  6
CONTINUOUS
  0
LAYER
  2
39
 70
     0
 62
     7
  6
CONTINUOUS
  0
LAYER
  2
40
 70
     0
 62
     7
  6
CONTINUOUS
  0
LAYER
  2
41
 70
     0
 62
     7
  6
CONTINUOUS
  0
LAYER
  2
42
 70
     0
 62
     7
  6
CONTINUOUS
  0
LAYER
  2
43
 70
     0
 62
     7
  6
CONTINUOUS
  0
LAYER
  2
44
 70
     0
 62
     7
  6
CONTINUOUS
  0
LAYER
  2
45
 70
     0
 62
     7
  6
CONTINUOUS
  0
LAYER
  2
46
 70
     0
 62
     7
  6
CONTINUOUS
  0
LAYER
  2
47
 70
     0
 62
     7
  6
CONTINUOUS
  0
LAYER
  2
48
 70
     0
 62
     7
  6
CONTINUOUS
  0
LAYER
  2
49
 70
     0
 62
     7
  6
CONTINUOUS
  0
LAYER
  2
50
 70
     0
 62
     7
  6
CONTINUOUS
  0
LAYER
  2
51
 70
     0
 62
     7
  6
CONTINUOUS
  0
LAYER
  2
52
 70
     0
 62
     7
  6
CONTINUOUS
  0
LAYER
  2
53
 70
     0
 62
     7
  6
CONTINUOUS
  0
LAYER
  2
54
 70
     0
 62
     7
  6
CONTINUOUS
  0
LAYER
  2
55
 70
     0
 62
     7
  6
CONTINUOUS
  0
LAYER
  2
56
 70
     0
 62
     7
  6
CONTINUOUS
  0
LAYER
  2
57
 70
     0
 62
     7
  6
CONTINUOUS
  0
LAYER
  2
58
 70
     0
 62
     7
  6
CONTINUOUS
  0
LAYER
  2
59
 70
     0
 62
     7
  6
CONTINUOUS
  0
LAYER
  2
60
 70
     0
 62
     7
  6
CONTINUOUS
  0
LAYER
  2
61
 70
     0
 62
     7
  6
CONTINUOUS
  0
LAYER
  2
62
 70
     0
 62
     7
  6
CONTINUOUS
  0
LAYER
  2
63
 70
     0
 62
     7
  6
CONTINUOUS
  0
LAYER
  2
64
 70
     0
 62
     7
  6
CONTINUOUS
  0
LAYER
  2
65
 70
     0
 62
     7
  6
CONTINUOUS
  0
LAYER
  2
66
 70
     0
 62
     7
  6
CONTINUOUS
  0
LAYER
  2
67
 70
     0
 62
     7
  6
CONTINUOUS
  0
LAYER
  2
68
 70
     0
 62
     7
  6
CONTINUOUS
  0
LAYER
  2
69
 70
     0
 62
     7
  6
CONTINUOUS
  0
LAYER
  2
70
 70
     0
 62
     7
  6
CONTINUOUS
  0
LAYER
  2
71
 70
     0
 62
     7
  6
CONTINUOUS
  0
LAYER
  2
72
 70
     0
 62
     7
  6
CONTINUOUS
  0
LAYER
  2
73
 70
     0
 62
     7
  6
CONTINUOUS
  0
LAYER
  2
74
 70
     0
 62
     7
  6
CONTINUOUS
  0
LAYER
  2
75
 70
     0
 62
     7
  6
CONTINUOUS
  0
LAYER
  2
76
 70
     0
 62
     7
  6
CONTINUOUS
  0
LAYER
  2
77
 70
     0
 62
     7
  6
CONTINUOUS
  0
LAYER
  2
78
 70
     0
 62
     7
  6
CONTINUOUS
  0
LAYER
  2
79
 70
     0
 62
     7
  6
CONTINUOUS
  0
LAYER
  2
80
 70
     0
 62
     7
  6
CONTINUOUS
  0
LAYER
  2
81
 70
     0
 62
     7
  6
CONTINUOUS
  0
LAYER
  2
82
 70
     0
 62
     7
  6
CONTINUOUS
  0
LAYER
  2
83
 70
     0
 62
     7
  6
CONTINUOUS
  0
LAYER
  2
84
 70
     0
 62
     7
  6
CONTINUOUS
  0
LAYER
  2
85
 70
     0
 62
     7
  6
CONTINUOUS
  0
LAYER
  2
86
 70
     0
 62
     7
  6
CONTINUOUS
  0
LAYER
  2
87
 70
     0
 62
     7
  6
CONTINUOUS
  0
LAYER
  2
88
 70
     0
 62
     7
  6
CONTINUOUS
  0
LAYER
  2
89
 70
     0
 62
     7
  6
CONTINUOUS
  0
LAYER
  2
90
 70
     0
 62
     7
  6
CONTINUOUS
  0
LAYER
  2
91
 70
     0
 62
     7
  6
CONTINUOUS
  0
LAYER
  2
92
 70
     0
 62
     7
  6
CONTINUOUS
  0
LAYER
  2
93
 70
     0
 62
     7
  6
CONTINUOUS
  0
LAYER
  2
94
 70
     0
 62
     7
  6
CONTINUOUS
  0
LAYER
  2
95
 70
     0
 62
     7
  6
CONTINUOUS
  0
LAYER
  2
96
 70
     0
 62
     7
  6
CONTINUOUS
  0
LAYER
  2
97
 70
     0
 62
     7
  6
CONTINUOUS
  0
LAYER
  2
98
 70
     0
 62
     7
  6
CONTINUOUS
  0
LAYER
  2
99
 70
     0
 62
     7
  6
CONTINUOUS
  0
LAYER
  2
100
 70
     0
 62
     7
  6
CONTINUOUS
  0
LAYER
  2
101
 70
     0
 62
     7
  6
CONTINUOUS
  0
LAYER
  2
102
 70
     0
 62
     7
  6
CONTINUOUS
  0
LAYER
  2
103
 70
     0
 62
     7
  6
CONTINUOUS
  0
LAYER
  2
104
 70
     0
 62
     7
  6
CONTINUOUS
  0
LAYER
  2
105
 70
     0
 62
     7
  6
CONTINUOUS
  0
LAYER
  2
106
 70
     0
 62
     7
  6
CONTINUOUS
  0
LAYER
  2
107
 70
     0
 62
     7
  6
CONTINUOUS
  0
LAYER
  2
108
 70
     0
 62
     7
  6
CONTINUOUS
  0
LAYER
  2
109
 70
     0
 62
     7
  6
CONTINUOUS
  0
LAYER
  2
110
 70
     0
 62
     7
  6
CONTINUOUS
  0
LAYER
  2
111
 70
     0
 62
     7
  6
CONTINUOUS
  0
LAYER
  2
112
 70
     0
 62
     7
  6
CONTINUOUS
  0
LAYER
  2
113
 70
     0
 62
     7
  6
CONTINUOUS
  0
LAYER
  2
114
 70
     0
 62
     7
  6
CONTINUOUS
  0
LAYER
  2
115
 70
     0
 62
     7
  6
CONTINUOUS
  0
LAYER
  2
116
 70
     0
 62
     7
  6
CONTINUOUS
  0
LAYER
  2
117
 70
     0
 62
     7
  6
CONTINUOUS
  0
LAYER
  2
118
 70
     0
 62
     7
  6
CONTINUOUS
  0
LAYER
  2
119
 70
     0
 62
     7
  6
CONTINUOUS
  0
LAYER
  2
120
 70
     0
 62
     7
  6
CONTINUOUS
  0
LAYER
  2
121
 70
     0
 62
     7
  6
CONTINUOUS
  0
LAYER
  2
122
 70
     0
 62
     7
  6
CONTINUOUS
  0
LAYER
  2
123
 70
     0
 62
     7
  6
CONTINUOUS
  0
LAYER
  2
124
 70
     0
 62
     7
  6
CONTINUOUS
  0
LAYER
  2
125
 70
     0
 62
     7
  6
CONTINUOUS
  0
LAYER
  2
126
 70
     0
 62
     7
  6
CONTINUOUS
  0
LAYER
  2
127
 70
     0
 62
     7
  6
CONTINUOUS
  0
LAYER
  2
128
 70
     0
 62
     7
  6
CONTINUOUS
  0
ENDTAB
  0
TABLE
  2
STYLE
 70
    79
  0
STYLE
  2
STANDARD
 70
     0
 40
0.0
 41
1.0
 50
0.0
 71
     0
 42
0.2
  3
txt.shx
  4
extfont.shx
  0
STYLE
  2
KANJI0
 70
     0
 40
15.5999988
 41
0.75
 50
0.0
 71
     0
 42
15.5999988
  3
txt.shx
  4
extfont.shx
  0
STYLE
  2
KANJI1
 70
     0
 40
11.999997477
 41
0.6
 50
0.0
 71
     0
 42
11.999997477
  3
txt.shx
  4
extfont.shx
  0
STYLE
  2
KANJI2
 70
     0
 40
14.399996972
 41
0.9
 50
0.0
 71
     0
 42
14.399996972
  3
txt.shx
  4
extfont.shx
  0
STYLE
  2
KANJI3
 70
     0
 40
17.999996215
 41
0.9
 50
0.0
 71
     0
 42
17.999996215
  3
txt.shx
  4
extfont.shx
  0
STYLE
  2
KANJI4
 70
     0
 40
10.3999992
 41
0.6
 50
0.0
 71
     0
 42
10.3999992
  3
txt.shx
  4
extfont.shx
  0
STYLE
  2
KANJI5
 70
     0
 40
12.47999904
 41
0.6
 50
0.0
 71
     0
 42
12.47999904
  3
txt.shx
  4
extfont.shx
  0
STYLE
  2
KANJI6
 70
     0
 40
18.1999986
 41
0.42031746
 50
0.0
 71
     0
 42
18.1999986
  3
txt.shx
  4
extfont.shx
  0
STYLE
  2
KANJI7
 70
     0
 40
31.1999976
 41
0.9
 50
0.0
 71
     0
 42
31.1999976
  3
txt.shx
  4
extfont.shx
  0
STYLE
  2
KANJI8
 70
     0
 40
21.6
 41
1.111111111
 50
0.0
 71
     0
 42
21.6
  3
txt.shx
  4
extfont.shx
  0
STYLE
  2
KANJI9
 70
     0
 40
10.3999992
 41
0.8
 50
0.0
 71
     0
 42
10.3999992
  3
txt.shx
  4
extfont.shx
  0
STYLE
  2
KANJI10
 70
     0
 40
12.47999904
 41
0.8
 50
0.0
 71
     0
 42
12.47999904
  3
txt.shx
  4
extfont.shx
  0
STYLE
  2
KANJI11
 70
     0
 40
30.0
 41
1.0
 50
0.0
 71
     0
 42
30.0
  3
txt.shx
  4
extfont.shx
  0
STYLE
  2
KANJI12
 70
     0
 40
30.0
 41
1.0
 50
0.0
 71
     0
 42
30.0
  3
txt.shx
  4
extfont.shx
  0
STYLE
  2
KANJI13
 70
     0
 40
30.0
 41
0.8
 50
0.0
 71
     0
 42
30.0
  3
txt.shx
  4
extfont.shx
  0
STYLE
  2
KANJI14
 70
     0
 40
24.0
 41
1.0
 50
0.0
 71
     0
 42
24.0
  3
txt.shx
  4
extfont.shx
  0
STYLE
  2
KANJI15
 70
     0
 40
21.0
 41
0.857142857
 50
0.0
 71
     0
 42
21.0
  3
txt.shx
  4
extfont.shx
  0
STYLE
  2
KANJI16
 70
     0
 40
22.8
 41
0.9
 50
0.0
 71
     0
 42
22.8
  3
txt.shx
  4
extfont.shx
  0
STYLE
  2
KANJI17
 70
     0
 40
22.8
 41
0.9
 50
0.0
 71
     0
 42
22.8
  3
txt.shx
  4
extfont.shx
  0
STYLE
  2
KANJI18
 70
     0
 40
27.0
 41
0.9
 50
0.0
 71
     0
 42
27.0
  3
txt.shx
  4
extfont.shx
  0
STYLE
  2
KANJI19
 70
     0
 40
22.8
 41
0.9
 50
0.0
 71
     0
 42
22.8
  3
txt.shx
  4
extfont.shx
  0
STYLE
  2
KANJI20
 70
     0
 40
22.8
 41
0.9
 50
0.0
 71
     0
 42
22.8
  3
txt.shx
  4
extfont.shx
  0
STYLE
  2
KANJI21
 70
     0
 40
22.8
 41
0.9
 50
0.0
 71
     0
 42
22.8
  3
txt.shx
  4
extfont.shx
  0
STYLE
  2
KANJI22
 70
     0
 40
22.8
 41
0.9
 50
0.0
 71
     0
 42
22.8
  3
txt.shx
  4
extfont.shx
  0
STYLE
  2
KANJI23
 70
     0
 40
22.8
 41
0.9
 50
0.0
 71
     0
 42
22.8
  3
txt.shx
  4
extfont.shx
  0
STYLE
  2
KANJI24
 70
     0
 40
22.8
 41
0.9
 50
0.0
 71
     0
 42
22.8
  3
txt.shx
  4
extfont.shx
  0
STYLE
  2
KANJI25
 70
     4
 40
21.0
 41
0.9
 50
0.0
 71
     0
 42
21.0
  3
txt.shx
  4
extfont.shx
  0
STYLE
  2
KANJI26
 70
     4
 40
21.0
 41
0.9
 50
0.0
 71
     0
 42
21.0
  3
txt.shx
  4
extfont.shx
  0
STYLE
  2
KANJI27
 70
     0
 40
21.0
 41
0.9
 50
0.0
 71
     0
 42
21.0
  3
txt.shx
  4
extfont.shx
  0
STYLE
  2
KANJI28
 70
     0
 40
18.0
 41
0.9
 50
0.0
 71
     0
 42
18.0
  3
txt.shx
  4
extfont.shx
  0
STYLE
  2
KANJI29
 70
     0
 40
22.8
 41
0.9
 50
0.0
 71
     0
 42
22.8
  3
txt.shx
  4
extfont.shx
  0
STYLE
  2
KANJI30
 70
     0
 40
22.8
 41
0.9
 50
0.0
 71
     0
 42
22.8
  3
txt.shx
  4
extfont.shx
  0
STYLE
  2
KANJI31
 70
     0
 40
21.0
 41
0.628571429
 50
0.0
 71
     0
 42
21.0
  3
txt.shx
  4
extfont.shx
  0
STYLE
  2
KANJI32
 70
     0
 40
20.4
 41
0.705882353
 50
0.0
 71
     0
 42
20.4
  3
txt.shx
  4
extfont.shx
  0
STYLE
  2
KANJI33
 70
     0
 40
18.0
 41
0.8
 50
0.0
 71
     0
 42
18.0
  3
txt.shx
  4
extfont.shx
  0
STYLE
  2
KANJI34
 70
     0
 40
19.2
 41
0.71875
 50
0.0
 71
     0
 42
19.2
  3
txt.shx
  4
extfont.shx
  0
STYLE
  2
KANJI35
 70
     0
 40
19.2
 41
0.8
 50
0.0
 71
     0
 42
19.2
  3
txt.shx
  4
extfont.shx
  0
STYLE
  2
KANJI36
 70
     0
 40
21.0
 41
0.571428571
 50
0.0
 71
     0
 42
21.0
  3
txt.shx
  4
extfont.shx
  0
STYLE
  2
KANJI37
 70
     0
 40
27.0
 41
0.666666667
 50
0.0
 71
     0
 42
27.0
  3
txt.shx
  4
extfont.shx
  0
STYLE
  2
KANJI38
 70
     0
 40
21.0
 41
0.9
 50
0.0
 71
     0
 42
21.0
  3
txt.shx
  4
extfont.shx
  0
STYLE
  2
KANJI39
 70
     0
 40
18.0
 41
0.833333333
 50
0.0
 71
     0
 42
18.0
  3
txt.shx
  4
extfont.shx
  0
STYLE
  2
KANJI40
 70
     0
 40
18.0
 41
0.9
 50
0.0
 71
     0
 42
18.0
  3
txt.shx
  4
extfont.shx
  0
STYLE
  2
KANJI41
 70
     0
 40
14.99994
 41
0.9
 50
0.0
 71
     0
 42
14.99994
  3
txt.shx
  4
extfont.shx
  0
STYLE
  2
KANJI42
 70
     0
 40
18.0
 41
0.833333333
 50
0.0
 71
     0
 42
18.0
  3
txt.shx
  4
extfont.shx
  0
STYLE
  2
KANJI43
 70
     0
 40
21.0
 41
0.793650794
 50
0.0
 71
     0
 42
21.0
  3
txt.shx
  4
extfont.shx
  0
STYLE
  2
KANJI44
 70
     0
 40
30.0
 41
0.8
 50
0.0
 71
     0
 42
30.0
  3
txt.shx
  4
extfont.shx
  0
STYLE
  2
KANJI45
 70
     0
 40
21.0
 41
0.571428571
 50
0.0
 71
     0
 42
21.0
  3
txt.shx
  4
extfont.shx
  0
STYLE
  2
KANJI46
 70
     0
 40
18.223173404
 41
0.66671875
 50
0.0
 71
     0
 42
18.223173404
  3
txt.shx
  4
extfont.shx
  0
STYLE
  2
KANJI47
 70
     0
 40
21.6
 41
0.9
 50
0.0
 71
     0
 42
21.6
  3
txt.shx
  4
extfont.shx
  0
STYLE
  2
KANJI48
 70
     0
 40
17.28
 41
0.9
 50
0.0
 71
     0
 42
17.28
  3
txt.shx
  4
extfont.shx
  0
STYLE
  2
KANJI49
 70
     0
 40
12.96
 41
0.9
 50
0.0
 71
     0
 42
12.96
  3
txt.shx
  4
extfont.shx
  0
STYLE
  2
KANJI50
 70
     0
 40
18.72
 41
0.925
 50
0.0
 71
     0
 42
18.72
  3
txt.shx
  4
extfont.shx
  0
STYLE
  2
KANJI51
 70
     0
 40
13.182
 41
0.85
 50
0.0
 71
     0
 42
13.182
  3
txt.shx
  4
extfont.shx
  0
STYLE
  2
KANJI52
 70
     0
 40
11.661
 41
0.822608696
 50
0.0
 71
     0
 42
11.661
  3
txt.shx
  4
extfont.shx
  0
STYLE
  2
KANJI53
 70
     0
 40
11.8638
 41
0.726495726
 50
0.0
 71
     0
 42
11.8638
  3
txt.shx
  4
extfont.shx
  0
STYLE
  2
KANJI54
 70
     4
 40
45.0
 41
0.538166667
 50
0.0
 71
     0
 42
45.0
  3
txt.shx
  4
extfont.shx
  0
STYLE
  2
KANJI55
 70
     0
 40
17.740702234
 41
0.880962996
 50
0.0
 71
     0
 42
17.740702234
  3
txt.shx
  4
extfont.shx
  0
STYLE
  2
KANJI56
 70
     0
 40
11.7
 41
0.8
 50
0.0
 71
     0
 42
11.7
  3
txt.shx
  4
extfont.shx
  0
STYLE
  2
KANJI57
 70
     0
 40
15.0
 41
0.911
 50
0.0
 71
     0
 42
15.0
  3
txt.shx
  4
extfont.shx
  0
STYLE
  2
KANJI58
 70
     0
 40
15.0
 41
0.9
 50
0.0
 71
     0
 42
15.0
  3
txt.shx
  4
extfont.shx
  0
STYLE
  2
KANJI59
 70
     0
 40
24.0
 41
0.9
 50
0.0
 71
     0
 42
24.0
  3
txt.shx
  4
extfont.shx
  0
STYLE
  2
KANJI60
 70
     0
 40
21.0
 41
0.857142857
 50
0.0
 71
     0
 42
21.0
  3
txt.shx
  4
extfont.shx
  0
STYLE
  2
KANJI61
 70
     0
 40
20.0
 41
0.925
 50
0.0
 71
     0
 42
20.0
  3
txt.shx
  4
extfont.shx
  0
STYLE
  2
KANJI62
 70
     0
 40
12.0
 41
0.9
 50
0.0
 71
     0
 42
12.0
  3
txt.shx
  4
extfont.shx
  0
STYLE
  2
KANJI63
 70
     0
 40
18.0
 41
0.9
 50
0.0
 71
     0
 42
18.0
  3
txt.shx
  4
extfont.shx
  0
STYLE
  2
KANJI64
 70
     0
 40
15.36
 41
0.9
 50
0.0
 71
     0
 42
15.36
  3
txt.shx
  4
extfont.shx
  0
STYLE
  2
KANJI65
 70
     0
 40
14.4
 41
0.9
 50
0.0
 71
     0
 42
14.4
  3
txt.shx
  4
extfont.shx
  0
STYLE
  2
KANJI66
 70
     0
 40
14.4
 41
0.9
 50
0.0
 71
     0
 42
14.4
  3
txt.shx
  4
extfont.shx
  0
STYLE
  2
KANJI67
 70
     0
 40
16.8
 41
0.9
 50
0.0
 71
     0
 42
16.8
  3
txt.shx
  4
extfont.shx
  0
STYLE
  2
KANJI68
 70
     0
 40
12.96
 41
0.740740741
 50
0.0
 71
     0
 42
12.96
  3
txt.shx
  4
extfont.shx
  0
STYLE
  2
KANJI69
 70
     0
 40
16.8
 41
0.857142857
 50
0.0
 71
     0
 42
16.8
  3
txt.shx
  4
extfont.shx
  0
STYLE
  2
KANJI70
 70
     0
 40
14.4
 41
0.833333333
 50
0.0
 71
     0
 42
14.4
  3
txt.shx
  4
extfont.shx
  0
STYLE
  2
KANJI71
 70
     0
 40
17.49993
 41
0.9
 50
0.0
 71
     0
 42
17.49993
  3
txt.shx
  4
extfont.shx
  0
STYLE
  2
KANJI72
 70
     0
 40
20.0
 41
0.925
 50
0.0
 71
     0
 42
20.0
  3
txt.shx
  4
extfont.shx
  0
STYLE
  2
KANJI73
 70
     0
 40
10.0
 41
0.85
 50
0.0
 71
     0
 42
10.0
  3
txt.shx
  4
extfont.shx
  0
STYLE
  2
KANJI74
 70
     0
 40
10.0
 41
0.75
 50
0.0
 71
     0
 42
10.0
  3
txt.shx
  4
extfont.shx
  0
STYLE
  2
KANJI75
 70
     0
 40
18.0
 41
0.45
 50
0.0
 71
     0
 42
18.0
  3
txt.shx
  4
extfont.shx
  0
STYLE
  2
KANJI76
 70
     0
 40
18.0
 41
0.9
 50
0.0
 71
     0
 42
18.0
  3
txt.shx
  4
extfont.shx
  0
STYLE
  2
KANJI77
 70
     0
 40
24.0
 41
0.925
 50
0.0
 71
     0
 42
24.0
  3
txt.shx
  4
extfont.shx
  0
ENDTAB
  0
TABLE
  2
VIEW
 70
     0
  0
ENDTAB
  0
ENDSEC
  0
SECTION
  2
BLOCKS
  0
ENDSEC
  0
SECTION
  2
ENTITIES
  0
POLYLINE
  8
0
  6
CONTINUOUS
 62
     6
 66
     1
  0
VERTEX
  8
0
  6
CONTINUOUS
 62
     6
 10
82.92
 20
71.7
 30
0.0
  0
VERTEX
  8
0
  6
CONTINUOUS
 62
     6
 10
82.92
 20
1685.7
 30
0.0
  0
VERTEX
  8
0
  6
CONTINUOUS
 62
     6
 10
2404.92
 20
1685.7
 30
0.0
  0
SEQEND
  0
LINE
  8
0
  6
CONTINUOUS
 62
     6
 10
88.919998738
 20
161.699981077
 30
0.0
 11
478.919916738
 21
161.699981077
 31
0.0
  0
LINE
  8
0
  6
CONTINUOUS
 62
     6
 10
88.919998738
 20
77.699998738
 30
0.0
 11
478.919916738
 21
77.699998738
 31
0.0
  0
LINE
  8
0
  6
CONTINUOUS
 62
     6
 10
88.919998738
 20
77.699998738
 30
0.0
 11
88.919998738
 21
161.699981077
 31
0.0
  0
LINE
  8
0
  6
CONTINUOUS
 62
     6
 10
88.919998738
 20
119.699989908
 30
0.0
 11
478.919916738
 21
119.699989908
 31
0.0
  0
LINE
  8
0
  6
CONTINUOUS
 62
     4
 10
14.6199996
 20
76.8999996
 30
0.0
 11
77.0199948
 21
76.8999996
 31
0.0
  0
LINE
  8
0
  6
CONTINUOUS
 62
     4
 10
14.6199996
 20
108.0999972
 30
0.0
 11
77.0199948
 21
108.0999972
 31
0.0
  0
LINE
  8
0
  6
CONTINUOUS
 62
     4
 10
14.6199996
 20
139.2999948
 30
0.0
 11
77.0199948
 21
139.2999948
 31
0.0
  0
LINE
  8
0
  6
CONTINUOUS
 62
     4
 10
14.6199996
 20
170.4999924
 30
0.0
 11
77.0199948
 21
170.4999924
 31
0.0
  0
LINE
  8
0
  6
CONTINUOUS
 62
     4
 10
14.6199996
 20
201.69999
 30
0.0
 11
77.0199948
 21
201.69999
 31
0.0
  0
LINE
  8
0
  6
CONTINUOUS
 62
     4
 10
14.6199996
 20
232.8999876
 30
0.0
 11
77.0199948
 21
232.8999876
 31
0.0
  0
LINE
  8
0
  6
CONTINUOUS
 62
     4
 10
14.6199996
 20
264.0999852
 30
0.0
 11
77.0199948
 21
264.0999852
 31
0.0
  0
LINE
  8
0
  6
CONTINUOUS
 62
     4
 10
14.6199996
 20
295.2999828
 30
0.0
 11
77.0199948
 21
295.2999828
 31
0.0
  0
LINE
  8
0
  6
CONTINUOUS
 62
     4
 10
14.6199996
 20
326.4999804
 30
0.0
 11
77.0199948
 21
326.4999804
 31
0.0
  0
LINE
  8
0
  6
CONTINUOUS
 62
     4
 10
14.6199996
 20
357.699978
 30
0.0
 11
77.0199948
 21
357.699978
 31
0.0
  0
LINE
  8
0
  6
CONTINUOUS
 62
     4
 10
77.0199948
 20
76.8999996
 30
0.0
 11
77.0199948
 21
357.699978
 31
0.0
  0
LINE
  8
0
  6
CONTINUOUS
 62
     4
 10
45.8199972
 20
76.8999996
 30
0.0
 11
45.8199972
 21
326.4999804
 31
0.0
  0
TEXT
  8
0
  6
CONTINUOUS
 62
     4
 10
25.27999878
 20
85.9999989
 30
1.55999988
 40
15.5999988
  1
計
 50
0.0
 41
0.75
 51
0.0
  7
KANJI0
  0
TEXT
  8
0
  6
CONTINUOUS
 62
     4
 10
25.27999878
 20
148.91999406
 30
1.55999988
 40
15.5999988
  1
設
 50
0.0
 41
0.75
 51
0.0
  7
KANJI0
  0
TEXT
  8
0
  6
CONTINUOUS
 62
     4
 10
25.27999878
 20
179.5999917
 30
1.55999988
 40
15.5999988
  1
管
 50
0.0
 41
0.75
 51
0.0
  7
KANJI0
  0
TEXT
  8
0
  6
CONTINUOUS
 62
     4
 10
25.27999878
 20
210.7999893
 30
1.55999988
 40
15.5999988
  1
製
 50
0.0
 41
0.75
 51
0.0
  7
KANJI0
  0
TEXT
  8
0
  6
CONTINUOUS
 62
     4
 10
25.27999878
 20
241.9999869
 30
1.55999988
 40
15.5999988
  1
資
 50
0.0
 41
0.75
 51
0.0
  7
KANJI0
  0
TEXT
  8
0
  6
CONTINUOUS
 62
     4
 10
25.27999878
 20
273.1999845
 30
1.55999988
 40
15.5999988
  1
営
 50
0.0
 41
0.75
 51
0.0
  7
KANJI0
  0
TEXT
  8
0
  6
CONTINUOUS
 62
     4
 10
25.27999878
 20
304.3999821
 30
1.55999988
 40
15.5999988
  1
客
 50
0.0
 41
0.75
 51
0.0
  7
KANJI0
  0
TEXT
  8
0
  6
CONTINUOUS
 62
     4
 10
25.0199988
 20
336.8999796
 30
1.55999988
 40
15.5999988
  1
出　図
 50
0.0
 41
0.75
 51
0.0
  7
KANJI0
  0
LINE
  8
0
  6
CONTINUOUS
 62
     4
 10
14.6199996
 20
76.8999996
 30
0.0
 11
14.6199996
 21
357.699978
 31
0.0
  0
LINE
  8
0
  6
CONTINUOUS
 62
     6
 10
2404.92
 20
71.7
 30
0.0
 11
82.92
 21
71.7
 31
0.0
  0
TEXT
  8
0
  6
CONTINUOUS
 62
     4
 10
100.919996215
 20
101.699993692
 30
1.199999748
 40
11.999997477
  1
ＰＡＲＴＳ　ＬＩＳＴ
 50
0.0
 41
0.6
 51
0.0
  7
KANJI1
  0
TEXT
  8
0
  6
CONTINUOUS
 62
     4
 10
100.919996215
 20
83.699997477
 30
1.439999697
 40
14.399996972
  1
部品表
 50
0.0
 41
0.9
 51
0.0
  7
KANJI2
  0
TEXT
  8
0
  6
CONTINUOUS
 62
     3
 10
100.919996215
 20
131.699987385
 30
1.799999622
 40
17.999996215
  1
ＰＬ
 50
0.0
 41
0.9
 51
0.0
  7
KANJI3
  0
TEXT
  8
0
  6
CONTINUOUS
 62
     4
 10
370.919939446
 20
101.699993692
 30
1.199999748
 40
11.999997477
  1
Ｎ０．
 50
0.0
 41
0.6
 51
0.0
  7
KANJI1
  0
TEXT
  8
0
  6
CONTINUOUS
 62
     4
 10
370.919939446
 20
83.699997477
 30
1.439999697
 40
14.399996972
  1
項番
 50
0.0
 41
0.9
 51
0.0
  7
KANJI2
  0
LINE
  8
0
  6
CONTINUOUS
 62
     6
 10
478.919916738
 20
77.699998738
 30
0.0
 11
478.919916738
 21
161.699981077
 31
0.0
  0
LINE
  8
0
  6
CONTINUOUS
 62
     6
 10
358.919941969
 20
77.699998738
 30
0.0
 11
358.919941969
 21
161.699981077
 31
0.0
  0
LINE
  8
0
  6
CONTINUOUS
 62
     6
 10
2404.92
 20
1685.7
 30
0.0
 11
2404.92
 21
71.7
 31
0.0
  0
LINE
  8
0
  6
CONTINUOUS
 62
     6
 10
1598.920062
 20
76.8999996
 30
0.0
 11
1598.920062
 21
409.699974
 31
0.0
  0
LINE
  8
0
  6
CONTINUOUS
 62
     6
 10
2399.7200004
 20
76.8999996
 30
0.0
 11
2399.7200004
 21
409.699974
 31
0.0
  0
LINE
  8
0
  6
CONTINUOUS
 62
     4
 10
1788.7200474
 20
76.8999996
 30
0.0
 11
1788.7200474
 21
409.699974
 31
0.0
  0
LINE
  8
0
  6
CONTINUOUS
 62
     4
 10
1598.920062
 20
118.4999964
 30
0.0
 11
1788.7200474
 21
118.4999964
 31
0.0
  0
TEXT
  8
0
  6
CONTINUOUS
 62
     4
 10
1609.3200612
 20
100.2999978
 30
1.03999992
 40
10.3999992
  1
ＳＣＡＬＥ
 50
0.0
 41
0.6
 51
0.0
  7
KANJI4
  0
TEXT
  8
0
  6
CONTINUOUS
 62
     4
 10
1609.3200612
 20
84.699999
 30
1.247999904
 40
12.47999904
  1
尺度
 50
0.0
 41
0.6
 51
0.0
  7
KANJI5
  0
LINE
  8
0
  6
CONTINUOUS
 62
     6
 10
1188.1200936
 20
118.4999964
 30
0.0
 11
1598.920062
 21
118.4999964
 31
0.0
  0
LINE
  8
0
  6
CONTINUOUS
 62
     6
 10
1188.1200936
 20
76.8999996
 30
0.0
 11
2399.7200004
 21
76.8999996
 31
0.0
  0
TEXT
  8
0
  6
CONTINUOUS
 62
     6
 10
1793.920047
 20
100.2999978
 30
0.0
 40
18.1999986
  1
ＵＮＩＴＥＣ　ＩＮＤＵＳＴＲＹ　ＣＯ．，ＬＴＤ．
 50
0.0
 41
0.42031746
 51
0.0
  7
KANJI6
  0
TEXT
  8
0
  6
CONTINUOUS
 62
     6
 10
2049.175027365
 20
93.53999832
 30
3.11999976
 40
31.1999976
  1
ユニテック工業株式会社
 50
0.0
 41
0.9
 51
0.0
  7
KANJI7
  0
LINE
  8
0
  6
CONTINUOUS
 62
     6
 10
2007.575030565
 20
104.45999748
 30
0.0
 11
1993.847031621
 21
104.45999748
 31
0.0
  0
LINE
  8
0
  6
CONTINUOUS
 62
     6
 10
2007.575030565
 20
106.955997288
 30
0.0
 11
1993.847031621
 21
106.955997288
 31
0.0
  0
LINE
  8
0
  6
CONTINUOUS
 62
     6
 10
2007.575030565
 20
104.45999748
 30
0.0
 11
2021.303029509
 21
104.45999748
 31
0.0
  0
LINE
  8
0
  6
CONTINUOUS
 62
     6
 10
2007.575030565
 20
106.955997288
 30
0.0
 11
2021.303029509
 21
106.955997288
 31
0.0
  0
LINE
  8
0
  6
CONTINUOUS
 62
     6
 10
2021.303029509
 20
106.955997288
 30
0.0
 11
2021.303029509
 21
104.45999748
 31
0.0
  0
ARC
  8
0
  6
CONTINUOUS
 62
     6
 10
2024.423029269
 20
105.707997384
 30
0.0
 40
12.47999904
 50
185.739170477
 51
90.0
  0
ARC
  8
0
  6
CONTINUOUS
 62
     6
 10
2024.423029269
 20
105.707997384
 30
0.0
 40
14.975998848
 50
184.780191847
 51
90.0
  0
LINE
  8
0
  6
CONTINUOUS
 62
     6
 10
1993.847031621
 20
104.45999748
 30
0.0
 11
1993.847031621
 21
106.955997288
 31
0.0
  0
ARC
  8
0
  6
CONTINUOUS
 62
     6
 10
1990.727031861
 20
105.707997384
 30
0.0
 40
12.47999904
 50
90.0
 51
354.260829523
  0
ARC
  8
0
  6
CONTINUOUS
 62
     6
 10
1990.727031861
 20
105.707997384
 30
0.0
 40
14.975998848
 50
90.0
 51
355.219808153
  0
LINE
  8
0
  6
CONTINUOUS
 62
     6
 10
2005.703030709
 20
120.683996232
 30
0.0
 11
2005.703030709
 21
118.187996424
 31
0.0
  0
LINE
  8
0
  6
CONTINUOUS
 62
     6
 10
1990.727031861
 20
118.187996424
 30
0.0
 11
2005.703030709
 21
118.187996424
 31
0.0
  0
LINE
  8
0
  6
CONTINUOUS
 62
     6
 10
2009.447030421
 20
120.683996232
 30
0.0
 11
2009.447030421
 21
118.187996424
 31
0.0
  0
LINE
  8
0
  6
CONTINUOUS
 62
     6
 10
2024.423029269
 20
118.187996424
 30
0.0
 11
2009.447030421
 21
118.187996424
 31
0.0
  0
TEXT
  8
0
  6
CONTINUOUS
 62
     4
 10
1320.7200834
 20
100.2999978
 30
1.03999992
 40
10.3999992
  1
ＢＹ
 50
0.0
 41
0.6
 51
0.0
  7
KANJI4
  0
TEXT
  8
0
  6
CONTINUOUS
 62
     4
 10
1435.1200746
 20
100.2999978
 30
1.03999992
 40
10.3999992
  1
ＤＥＳＣＲＩＰＴＩＯＮ
 50
0.0
 41
0.6
 51
0.0
  7
KANJI4
  0
TEXT
  8
0
  6
CONTINUOUS
 62
     4
 10
1320.7200834
 20
84.699999
 30
1.247999904
 40
12.47999904
  1
担当
 50
0.0
 41
0.6
 51
0.0
  7
KANJI5
  0
TEXT
  8
0
  6
CONTINUOUS
 62
     4
 10
1450.7200734
 20
84.699999
 30
1.247999904
 40
12.47999904
  1
記　　　　事
 50
0.0
 41
0.6
 51
0.0
  7
KANJI5
  0
LINE
  8
0
  6
CONTINUOUS
 62
     4
 10
1210.2200919
 20
110.699997
 30
0.0
 11
1193.3200932
 21
84.699999
 31
0.0
  0
TEXT
  8
0
  6
CONTINUOUS
 62
     4
 10
1253.1200886
 20
100.2999978
 30
1.03999992
 40
10.3999992
  1
ＤＡＴＥ
 50
0.0
 41
0.6
 51
0.0
  7
KANJI4
  0
TEXT
  8
0
  6
CONTINUOUS
 62
     4
 10
1260.920088
 20
84.699999
 30
1.247999904
 40
12.47999904
  1
日付
 50
0.0
 41
0.6
 51
0.0
  7
KANJI5
  0
LINE
  8
0
  6
CONTINUOUS
 62
     4
 10
1193.3200932
 20
84.699999
 30
0.0
 11
1227.1200906
 21
84.699999
 31
0.0
  0
LINE
  8
0
  6
CONTINUOUS
 62
     4
 10
1210.2200919
 20
110.699997
 30
0.0
 11
1227.1200906
 21
84.699999
 31
0.0
  0
LINE
  8
0
  6
CONTINUOUS
 62
     6
 10
1188.1200936
 20
76.8999996
 30
0.0
 11
1188.1200936
 21
118.4999964
 31
0.0
  0
LINE
  8
0
  6
CONTINUOUS
 62
     4
 10
1232.3200902
 20
76.8999996
 30
0.0
 11
1232.3200902
 21
118.4999964
 31
0.0
  0
LINE
  8
0
  6
CONTINUOUS
 62
     4
 10
1305.1200846
 20
76.8999996
 30
0.0
 11
1305.1200846
 21
118.4999964
 31
0.0
  0
LINE
  8
0
  6
CONTINUOUS
 62
     4
 10
1351.920081
 20
76.8999996
 30
0.0
 11
1351.920081
 21
118.4999964
 31
0.0
  0
TEXT
  8
0
  6
CONTINUOUS
 62
     4
 10
1609.3200612
 20
308.2999818
 30
1.03999992
 40
10.3999992
  1
ＣＯＤＥ
 50
0.0
 41
0.6
 51
0.0
  7
KANJI4
  0
LINE
  8
0
  6
CONTINUOUS
 62
     4
 10
1598.920062
 20
326.4999804
 30
0.0
 11
2399.7200004
 21
326.4999804
 31
0.0
  0
TEXT
  8
0
  6
CONTINUOUS
 62
     4
 10
1609.3200612
 20
292.699983
 30
1.247999904
 40
12.47999904
  1
分類
 50
0.0
 41
0.6
 51
0.0
  7
KANJI5
  0
TEXT
  8
0
  6
CONTINUOUS
 62
     4
 10
1617.42
 20
332.7
 30
6.0
 40
21.6
  1
ご注文主
 50
0.0
 41
1.111111111
 51
0.0
  7
KANJI8
  0
TEXT
  8
0
  6
CONTINUOUS
 62
     4
 10
1609.3200612
 20
183.4999914
 30
1.03999992
 40
10.3999992
  1
ＤＲＡＷＮ
 50
0.0
 41
0.6
 51
0.0
  7
KANJI4
  0
TEXT
  8
0
  6
CONTINUOUS
 62
     4
 10
1609.3200612
 20
225.0999882
 30
1.03999992
 40
10.3999992
  1
ＤＥＳＩＧＮ
 50
0.0
 41
0.6
 51
0.0
  7
KANJI4
  0
TEXT
  8
0
  6
CONTINUOUS
 62
     4
 10
1609.3200612
 20
266.699985
 30
1.03999992
 40
10.3999992
  1
ＣＨＥＣＫ
 50
0.0
 41
0.6
 51
0.0
  7
KANJI4
  0
LINE
  8
0
  6
CONTINUOUS
 62
     4
 10
1598.920062
 20
243.2999868
 30
0.0
 11
1788.7200474
 21
243.2999868
 31
0.0
  0
LINE
  8
0
  6
CONTINUOUS
 62
     4
 10
1598.920062
 20
201.69999
 30
0.0
 11
1788.7200474
 21
201.69999
 31
0.0
  0
LINE
  8
0
  6
CONTINUOUS
 62
     4
 10
1598.920062
 20
284.8999836
 30
0.0
 11
1788.7200474
 21
284.8999836
 31
0.0
  0
TEXT
  8
0
  6
CONTINUOUS
 62
     4
 10
1609.3200612
 20
209.4999894
 30
1.247999904
 40
12.47999904
  1
設計
 50
0.0
 41
0.6
 51
0.0
  7
KANJI5
  0
TEXT
  8
0
  6
CONTINUOUS
 62
     4
 10
1609.3200612
 20
251.0999862
 30
1.247999904
 40
12.47999904
  1
検図
 50
0.0
 41
0.6
 51
0.0
  7
KANJI5
  0
LINE
  8
0
  6
CONTINUOUS
 62
     4
 10
1804.06004622
 20
284.8999836
 30
0.0
 11
2399.7200004
 21
284.8999836
 31
0.0
  0
LINE
  8
0
  6
CONTINUOUS
 62
     4
 10
1788.7200474
 20
201.69999
 30
0.0
 11
2399.7200004
 21
201.69999
 31
0.0
  0
TEXT
  8
0
  6
CONTINUOUS
 62
     4
 10
1799.1200466
 20
183.4999914
 30
1.03999992
 40
10.3999992
  1
ＤＲＡＷＩＮＧ　ＮＯ．
 50
0.0
 41
0.8
 51
0.0
  7
KANJI9
  0
TEXT
  8
0
  6
CONTINUOUS
 62
     4
 10
1799.1200466
 20
225.0999882
 30
1.03999992
 40
10.3999992
  1
ＭＦＧ　ＮＯ．
 50
0.0
 41
0.8
 51
0.0
  7
KANJI9
  0
TEXT
  8
0
  6
CONTINUOUS
 62
     4
 10
1799.1200466
 20
266.699985
 30
1.03999992
 40
10.3999992
  1
ＴＹＰＥ
 50
0.0
 41
0.8
 51
0.0
  7
KANJI9
  0
LINE
  8
0
  6
CONTINUOUS
 62
     4
 10
1804.3200462
 20
243.2999868
 30
0.0
 11
2043.5200278
 21
243.2999868
 31
0.0
  0
TEXT
  8
0
  6
CONTINUOUS
 62
     4
 10
1799.1200466
 20
165.2999928
 30
1.247999904
 40
12.47999904
  1
図　面　番　号
 50
0.0
 41
0.8
 51
0.0
  7
KANJI10
  0
TEXT
  8
0
  6
CONTINUOUS
 62
     4
 10
1799.1200466
 20
206.8999896
 30
1.247999904
 40
12.47999904
  1
製番
 50
0.0
 41
0.8
 51
0.0
  7
KANJI10
  0
TEXT
  8
0
  6
CONTINUOUS
 62
     4
 10
1799.1200466
 20
248.4999864
 30
1.247999904
 40
12.47999904
  1
機種
 50
0.0
 41
0.8
 51
0.0
  7
KANJI10
  0
LINE
  8
0
  6
CONTINUOUS
 62
     4
 10
1598.920062
 20
160.0999932
 30
0.0
 11
1788.7200474
 21
160.0999932
 31
0.0
  0
TEXT
  8
0
  6
CONTINUOUS
 62
     4
 10
1609.3200612
 20
141.8999946
 30
1.03999992
 40
10.3999992
  1
ＤＡＴＥ
 50
0.0
 41
0.6
 51
0.0
  7
KANJI4
  0
TEXT
  8
0
  6
CONTINUOUS
 62
     4
 10
1609.3200612
 20
126.2999958
 30
1.247999904
 40
12.47999904
  1
日付
 50
0.0
 41
0.6
 51
0.0
  7
KANJI5
  0
TEXT
  8
0
  6
CONTINUOUS
 62
     4
 10
1609.3200612
 20
167.8999926
 30
1.247999904
 40
12.47999904
  1
作図
 50
0.0
 41
0.6
 51
0.0
  7
KANJI5
  0
LINE
  8
0
  6
CONTINUOUS
 62
     4
 10
1788.7200474
 20
141.8999946
 30
0.0
 11
2399.7200004
 21
141.8999946
 31
0.0
  0
LINE
  8
0
  6
LTYPE1
 62
     4
 10
2225.5200138
 20
149.699994
 30
0.0
 11
2225.5200138
 21
191.2999908
 31
0.0
  0
LINE
  8
0
  6
LTYPE1
 62
     4
 10
2189.1200166
 20
149.699994
 30
0.0
 11
2189.1200166
 21
191.2999908
 31
0.0
  0
LINE
  8
0
  6
LTYPE1
 62
     4
 10
2152.7200194
 20
149.699994
 30
0.0
 11
2152.7200194
 21
191.2999908
 31
0.0
  0
LINE
  8
0
  6
LTYPE1
 62
     4
 10
2116.3200222
 20
149.699994
 30
0.0
 11
2116.3200222
 21
191.2999908
 31
0.0
  0
LINE
  8
0
  6
LTYPE1
 62
     4
 10
2079.920025
 20
149.699994
 30
0.0
 11
2079.920025
 21
191.2999908
 31
0.0
  0
LINE
  8
0
  6
LTYPE1
 62
     4
 10
2043.5200278
 20
149.699994
 30
0.0
 11
2043.5200278
 21
191.2999908
 31
0.0
  0
LINE
  8
0
  6
LTYPE1
 62
     4
 10
2007.1200306
 20
149.699994
 30
0.0
 11
2007.1200306
 21
191.2999908
 31
0.0
  0
LINE
  8
0
  6
LTYPE1
 62
     4
 10
1970.7200334
 20
149.699994
 30
0.0
 11
1970.7200334
 21
191.2999908
 31
0.0
  0
LINE
  8
0
  6
LTYPE1
 62
     4
 10
1970.7200334
 20
191.2999908
 30
0.0
 11
2225.5200138
 21
191.2999908
 31
0.0
  0
LINE
  8
0
  6
LTYPE1
 62
     4
 10
1970.7200334
 20
149.699994
 30
0.0
 11
2225.5200138
 21
149.699994
 31
0.0
  0
LINE
  8
0
  6
CONTINUOUS
 62
     4
 10
2246.3200122
 20
171.7999923
 30
0.0
 11
2256.7200114
 21
171.7999923
 31
0.0
  0
LINE
  8
0
  6
CONTINUOUS
 62
     4
 10
2311.3200072
 20
156.1999935
 30
0.0
 11
2274.92001
 21
156.1999935
 31
0.0
  0
LINE
  8
0
  6
CONTINUOUS
 62
     4
 10
2274.92001
 20
156.1999935
 30
0.0
 11
2293.1200086
 21
187.3999911
 31
0.0
  0
LINE
  8
0
  6
CONTINUOUS
 62
     4
 10
2293.1200086
 20
187.3999911
 30
0.0
 11
2311.3200072
 21
156.1999935
 31
0.0
  0
TEXT
  8
0
  6
CONTINUOUS
 62
     4
 10
2059.1200266
 20
266.699985
 30
1.03999992
 40
10.3999992
  1
ＴＩＴＬＥ
 50
0.0
 41
0.8
 51
0.0
  7
KANJI9
  0
TEXT
  8
0
  6
CONTINUOUS
 62
     4
 10
2059.1200266
 20
248.4999864
 30
1.247999904
 40
12.47999904
  1
名称
 50
0.0
 41
0.8
 51
0.0
  7
KANJI10
  0
TEXT
  8
0
  6
CONTINUOUS
 62
     2
 10
2143.92
 20
209.7
 30
15.0
 40
30.0
  1
外形寸法図
 50
0.0
 41
1.0
 51
0.0
  7
KANJI11
  0
TEXT
  8
0
  6
CONTINUOUS
 62
     2
 10
2107.92
 20
245.7
 30
4.285714286
 40
30.0
  1
マイティシリンダ
 50
0.0
 41
1.0
 51
0.0
  7
KANJI12
  0
TEXT
  8
0
  6
CONTINUOUS
 62
     2
 10
1939.2200334
 20
155.699994
 30
1.8
 40
30.0
  1
Ａ
 50
0.0
 41
0.8
 51
0.0
  7
KANJI13
  0
CIRCLE
  8
0
  6
CONTINUOUS
 62
     2
 10
1900.2200334
 20
220.199994
 30
0.0
 40
15.0
  0
TEXT
  8
0
  6
CONTINUOUS
 62
     2
 10
1888.9700334
 20
208.949994
 30
1.8
 40
24.0
  1
Ｓ
 50
0.0
 41
1.0
 51
0.0
  7
KANJI14
  0
LINE
  8
0
  6
CONTINUOUS
 62
     6
 10
2005.703030709
 20
120.683996232
 30
0.0
 11
1990.727031861
 21
120.683996232
 31
0.0
  0
LINE
  8
0
  6
CONTINUOUS
 62
     6
 10
2009.447030421
 20
120.683996232
 30
0.0
 11
2024.423029269
 21
120.683996232
 31
0.0
  0
TEXT
  8
0
  6
CONTINUOUS
 62
     2
 10
1665.9200334
 20
170.699994
 30
6.0
 40
21.0
  1
岡田
 50
0.0
 41
0.857142857
 51
0.0
  7
KANJI15
  0
LINE
  8
0
  6
CONTINUOUS
 62
     4
 10
2399.7200004
 20
368.0999772
 30
0.0
 11
2399.7200004
 21
409.699974
 31
0.0
  0
LINE
  8
0
  6
CONTINUOUS
 62
     6
 10
1599.670062
 20
368.0999772
 30
0.0
 11
2400.4700004
 21
368.0999772
 31
0.0
  0
LINE
  8
0
  6
CONTINUOUS
 62
     6
 10
1598.920062
 20
409.699974
 30
0.0
 11
2399.7200004
 21
409.699974
 31
0.0
  0
TEXT
  8
0
  6
CONTINUOUS
 62
     4
 10
1617.42
 20
374.2999968
 30
6.0
 40
21.6
  1
ご用途
 50
0.0
 41
1.111111111
 51
0.0
  7
KANJI8
  0
LINE
  8
0
  6
CONTINUOUS
 62
     1
 10
1873.92
 20
770.7
 30
0.0
 11
2398.92
 21
770.7
 31
0.0
  0
LINE
  8
0
  6
CONTINUOUS
 62
     2
 10
1873.92
 20
854.7
 30
0.0
 11
2398.92
 21
854.7
 31
0.0
  0
LINE
  8
0
  6
CONTINUOUS
 62
     2
 10
1873.92
 20
812.7
 30
0.0
 11
2398.92
 21
812.7
 31
0.0
  0
LINE
  8
0
  6
CONTINUOUS
 62
     2
 10
1921.92
 20
1190.7
 30
0.0
 11
1921.92
 21
854.7
 31
0.0
  0
TEXT
  8
0
  6
CONTINUOUS
 62
     2
 10
1906.92
 20
823.5
 30
79.962857143
 40
22.8
  1
付属品
 50
0.0
 41
0.9
 51
0.0
  7
KANJI16
  0
TEXT
  8
0
  6
CONTINUOUS
 62
     2
 10
1906.92
 20
781.5
 30
180.445714286
 40
22.8
  1
台数
 50
0.0
 41
0.9
 51
0.0
  7
KANJI17
  0
LINE
  8
0
  6
CONTINUOUS
 62
     1
 10
1873.92
 20
1586.7
 30
0.0
 11
1873.92
 21
770.7
 31
0.0
  0
LINE
  8
0
  6
CONTINUOUS
 62
     1
 10
1873.92
 20
1586.7
 30
0.0
 11
2398.92
 21
1586.7
 31
0.0
  0
TEXT
  8
0
  6
CONTINUOUS
 62
     2
 10
1948.92
 20
1542.9
 30
17.09964
 40
27.0
  1
マイティシリンダ仕様
 50
0.0
 41
0.9
 51
0.0
  7
KANJI18
  0
LINE
  8
0
  6
CONTINUOUS
 62
     2
 10
1921.92
 20
896.7
 30
0.0
 11
2398.92
 21
896.7
 31
0.0
  0
LINE
  8
0
  6
CONTINUOUS
 62
     2
 10
1921.92
 20
1022.7
 30
0.0
 11
2398.92
 21
1022.7
 31
0.0
  0
LINE
  8
0
  6
CONTINUOUS
 62
     2
 10
1921.92
 20
1064.7
 30
0.0
 11
2398.92
 21
1064.7
 31
0.0
  0
LINE
  8
0
  6
CONTINUOUS
 62
     2
 10
1873.92
 20
1274.7
 30
0.0
 11
2398.92
 21
1274.7
 31
0.0
  0
LINE
  8
0
  6
CONTINUOUS
 62
     2
 10
1873.92
 20
1232.7
 30
0.0
 11
2398.92
 21
1232.7
 31
0.0
  0
LINE
  8
0
  6
CONTINUOUS
 62
     2
 10
1873.92
 20
1190.7
 30
0.0
 11
2398.92
 21
1190.7
 31
0.0
  0
LINE
  8
0
  6
CONTINUOUS
 62
     2
 10
1921.92
 20
1106.7
 30
0.0
 11
2398.92
 21
1106.7
 31
0.0
  0
LINE
  8
0
  6
CONTINUOUS
 62
     2
 10
1921.92
 20
1148.7
 30
0.0
 11
2398.92
 21
1148.7
 31
0.0
  0
LINE
  8
0
  6
CONTINUOUS
 62
     2
 10
1873.92
 20
1484.7
 30
0.0
 11
2398.92
 21
1484.7
 31
0.0
  0
LINE
  8
0
  6
CONTINUOUS
 62
     2
 10
1873.92
 20
1442.7
 30
0.0
 11
2398.92
 21
1442.7
 31
0.0
  0
LINE
  8
0
  6
CONTINUOUS
 62
     2
 10
1873.92
 20
1400.7
 30
0.0
 11
2398.92
 21
1400.7
 31
0.0
  0
LINE
  8
0
  6
CONTINUOUS
 62
     2
 10
1873.92
 20
1358.7
 30
0.0
 11
2398.92
 21
1358.7
 31
0.0
  0
LINE
  8
0
  6
CONTINUOUS
 62
     2
 10
1873.92
 20
1316.7
 30
0.0
 11
2398.92
 21
1316.7
 31
0.0
  0
LINE
  8
0
  6
CONTINUOUS
 62
     2
 10
1873.92
 20
1526.7
 30
0.0
 11
2398.92
 21
1526.7
 31
0.0
  0
TEXT
  8
0
  6
CONTINUOUS
 62
     2
 10
1948.92
 20
1117.5
 30
33.439782857
 40
22.8
  1
電源電圧
 50
0.0
 41
0.9
 51
0.0
  7
KANJI19
  0
TEXT
  8
0
  6
CONTINUOUS
 62
     2
 10
1948.92
 20
1075.5
 30
60.42
 40
22.8
  1
周波数
 50
0.0
 41
0.9
 51
0.0
  7
KANJI20
  0
TEXT
  8
0
  6
CONTINUOUS
 62
     2
 10
1948.92
 20
1033.5
 30
141.36
 40
22.8
  1
電流
 50
0.0
 41
0.9
 51
0.0
  7
KANJI21
  0
TEXT
  8
0
  6
CONTINUOUS
 62
     2
 10
1948.92
 20
991.5
 30
60.42
 40
22.8
  1
絶縁級
 50
0.0
 41
0.9
 51
0.0
  7
KANJI20
  0
LINE
  8
0
  6
CONTINUOUS
 62
     2
 10
2149.92
 20
1526.7
 30
0.0
 11
2149.92
 21
770.7
 31
0.0
  0
TEXT
  8
0
  6
CONTINUOUS
 62
     2
 10
1906.92
 20
1495.5
 30
180.445714286
 40
22.8
  1
形式
 50
0.0
 41
0.9
 51
0.0
  7
KANJI17
  0
TEXT
  8
0
  6
CONTINUOUS
 62
     2
 10
1906.92
 20
1453.5
 30
180.445714286
 40
22.8
  1
推力
 50
0.0
 41
0.9
 51
0.0
  7
KANJI17
  0
TEXT
  8
0
  6
CONTINUOUS
 62
     2
 10
1906.92
 20
1411.5
 30
29.721428571
 40
22.8
  1
ストローク
 50
0.0
 41
0.9
 51
0.0
  7
KANJI22
  0
TEXT
  8
0
  6
CONTINUOUS
 62
     2
 10
1906.92
 20
1285.5
 30
180.445714286
 40
22.8
  1
構造
 50
0.0
 41
0.9
 51
0.0
  7
KANJI17
  0
TEXT
  8
0
  6
CONTINUOUS
 62
     2
 10
1906.92
 20
1243.5
 30
12.973851429
 40
22.8
  1
過負荷安全装置
 50
0.0
 41
0.9
 51
0.0
  7
KANJI23
  0
TEXT
  8
0
  6
CONTINUOUS
 62
     2
 10
1906.92
 20
1201.5
 30
79.962857143
 40
22.8
  1
塗装色
 50
0.0
 41
0.9
 51
0.0
  7
KANJI16
  0
TEXT
  8
0
  6
CONTINUOUS
 62
     2
 10
1882.92
 20
1327.5
 30
1.954285714
 40
22.8
  1
ピストンロッド回転トルク
 50
0.0
 41
0.9
 51
0.0
  7
KANJI24
  0
LINE
  8
0
  6
CONTINUOUS
 62
     2
 10
1873.92
 20
980.7
 30
0.0
 11
2398.92
 21
980.7
 31
0.0
  0
LINE
  8
0
  6
CONTINUOUS
 62
     2
 10
1921.92
 20
938.7
 30
0.0
 11
2398.92
 21
938.7
 31
0.0
  0
TEXT
  8
0
  6
CONTINUOUS
 62
     2
 10
1898.37
 20
1184.7
 30
13.2
 40
21.0
  1
モ　トル仕様
 50
0.0
 41
0.9
 51
0.0
  7
KANJI25
  0
TEXT
  8
0
  6
CONTINUOUS
 62
     2
 10
1898.37
 20
962.7
 30
1.2
 40
21.0
  1
ブレ　キ
 50
0.0
 41
0.9
 51
0.0
  7
KANJI26
  0
LINE
  8
0
  6
CONTINUOUS
 62
     2
 10
1896.72
 20
912.9
 30
0.0
 11
1896.72
 21
900.3
 31
0.0
  0
TEXT
  8
0
  6
CONTINUOUS
 62
     2
 10
2208.42
 20
1244.7
 30
9.0
 40
21.0
  1
推力リミッタ
 50
0.0
 41
0.9
 51
0.0
  7
KANJI27
  0
TEXT
  8
0
  6
CONTINUOUS
 62
     2
 10
2265.42
 20
992.7
 30
1.8
 40
18.0
  1
Ｅ
 50
0.0
 41
0.9
 51
0.0
  7
KANJI28
  0
TEXT
  8
0
  6
CONTINUOUS
 62
     2
 10
1948.92
 20
949.5
 30
141.36
 40
22.8
  1
形式
 50
0.0
 41
0.9
 51
0.0
  7
KANJI21
  0
TEXT
  8
0
  6
CONTINUOUS
 62
     2
 10
1948.92
 20
907.5
 30
33.439782857
 40
22.8
  1
操作方式
 50
0.0
 41
0.9
 51
0.0
  7
KANJI19
  0
LINE
  8
0
  6
CONTINUOUS
 62
     2
 10
1896.72
 20
1148.1
 30
0.0
 11
1896.72
 21
1134.3
 31
0.0
  0
LINE
  8
0
  6
CONTINUOUS
 62
     1
 10
2398.92
 20
1586.7
 30
0.0
 11
2398.92
 21
770.7
 31
0.0
  0
TEXT
  8
0
  6
CONTINUOUS
 62
     2
 10
1948.92
 20
1159.5
 30
3.0
 40
22.8
  1
出力　相数　極数
 50
0.0
 41
0.9
 51
0.0
  7
KANJI29
  0
TEXT
  8
0
  6
CONTINUOUS
 62
     2
 10
1906.92
 20
1369.5
 30
12.0
 40
22.8
  1
公称速度
 50
0.0
 41
0.9
 51
0.0
  7
KANJI30
  0
TEXT
  8
0
  6
CONTINUOUS
 62
     2
 10
2030.82
 20
1368.3
 30
0.0
 40
21.0
  1
（５０／６０Ｈｚ）
 50
0.0
 41
0.628571429
 51
0.0
  7
KANJI31
  0
TEXT
  8
0
  6
CONTINUOUS
 62
     2
 10
2151.42
 20
949.95
 30
3.3
 40
20.4
  1
スプリング制動式電磁ブレーキ
 50
0.0
 41
0.705882353
 51
0.0
  7
KANJI32
  0
TEXT
  8
0
  6
CONTINUOUS
 62
     2
 10
2370.42
 20
1117.5
 30
0.216
 40
18.0
  1
Ｖ
 50
0.0
 41
0.8
 51
0.0
  7
KANJI33
  0
TEXT
  8
0
  6
CONTINUOUS
 62
     2
 10
2359.62
 20
1075.5
 30
0.216
 40
18.0
  1
Ｈｚ
 50
0.0
 41
0.8
 51
0.0
  7
KANJI33
  0
TEXT
  8
0
  6
CONTINUOUS
 62
     2
 10
2370.42
 20
1033.5
 30
0.216
 40
18.0
  1
Ａ
 50
0.0
 41
0.8
 51
0.0
  7
KANJI33
  0
TEXT
  8
0
  6
CONTINUOUS
 62
     2
 10
2291.52
 20
1160.7
 30
1.8
 40
18.0
  1
３φ
 50
0.0
 41
0.9
 51
0.0
  7
KANJI28
  0
TEXT
  8
0
  6
CONTINUOUS
 62
     2
 10
2351.52
 20
1160.7
 30
1.8
 40
18.0
  1
４Ｐ
 50
0.0
 41
0.9
 51
0.0
  7
KANJI28
  0
TEXT
  8
0
  6
CONTINUOUS
 62
     2
 10
2149.92
 20
1202.7
 30
1.2
 40
19.2
  1
マンセル　７．５ＧＹ　５／４．５
 50
0.0
 41
0.71875
 51
0.0
  7
KANJI34
  0
TEXT
  8
0
  6
CONTINUOUS
 62
     2
 10
2149.92
 20
1118.7
 30
1.8
 40
18.0
  1
　　　　　　　／　　　
 50
0.0
 41
0.9
 51
0.0
  7
KANJI28
  0
TEXT
  8
0
  6
CONTINUOUS
 62
     2
 10
2149.92
 20
1076.7
 30
1.8
 40
18.0
  1
　　　　５０／　６０
 50
0.0
 41
0.9
 51
0.0
  7
KANJI28
  0
TEXT
  8
0
  6
CONTINUOUS
 62
     2
 10
2149.92
 20
1034.7
 30
1.8
 40
18.0
  1
　　　　　　　／　　　
 50
0.0
 41
0.9
 51
0.0
  7
KANJI28
  0
TEXT
  8
0
  6
CONTINUOUS
 62
     2
 10
2354.52
 20
1413.9
 30
0.1536
 40
19.2
  1
ｍｍ
 50
0.0
 41
0.8
 51
0.0
  7
KANJI35
  0
TEXT
  8
0
  6
CONTINUOUS
 62
     2
 10
2315.52
 20
1370.7
 30
0.0
 40
21.0
  1
ｍｍ／ｓｅｃ
 50
0.0
 41
0.571428571
 51
0.0
  7
KANJI36
  0
TEXT
  8
0
  6
CONTINUOUS
 62
     2
 10
1708.92
 20
83.7
 30
1.8
 40
27.0
  1
１／６
 50
0.0
 41
0.666666667
 51
0.0
  7
KANJI37
  0
TEXT
  8
0
  6
CONTINUOUS
 62
     2
 10
2193.72
 20
1454.7
 30
1.8
 40
18.0
  1
１９．６ＫＮ（２ｔｏｎ）
 50
0.0
 41
0.9
 51
0.0
  7
KANJI28
  0
TEXT
  8
0
  6
CONTINUOUS
 62
     2
 10
2208.42
 20
1286.7
 30
9.0
 40
21.0
  1
全閉屋外形
 50
0.0
 41
0.9
 51
0.0
  7
KANJI27
  0
TEXT
  8
0
  6
CONTINUOUS
 62
     2
 10
2221.92
 20
907.5
 30
12.0
 40
21.0
  1
別切り
 50
0.0
 41
0.9
 51
0.0
  7
KANJI38
  0
TEXT
  8
0
  6
CONTINUOUS
 62
     2
 10
2164.92
 20
1328.7
 30
0.0
 40
18.0
  1
　３９Ｎ．ｍ（４ｋｇ．ｍ）
 50
0.0
 41
0.833333333
 51
0.0
  7
KANJI39
  0
TEXT
  8
0
  6
CONTINUOUS
 62
     2
 10
2155.92
 20
1160.7
 30
1.8
 40
18.0
  1
　１．５ＫＷ
 50
0.0
 41
0.9
 51
0.0
  7
KANJI28
  0
TEXT
  8
0
  6
CONTINUOUS
 62
     2
 10
2286.32001
 20
158.1999935
 30
0.0
 40
18.0
  1
１
 50
0.0
 41
0.9
 51
0.0
  7
KANJI40
  0
POLYLINE
  8
0
  6
CONTINUOUS
 62
     4
 66
     1
  0
VERTEX
  8
0
  6
CONTINUOUS
 62
     4
 10
1210.2200919
 20
152.2999938
 30
0.0
  0
VERTEX
  8
0
  6
CONTINUOUS
 62
     4
 10
1193.3200932
 20
126.2999958
 30
0.0
  0
VERTEX
  8
0
  6
CONTINUOUS
 62
     4
 10
1227.1200906
 20
126.2999958
 30
0.0
  0
SEQEND
  0
LINE
  8
0
  6
CONTINUOUS
 62
     4
 10
1210.2200919
 20
152.2999938
 30
0.0
 11
1227.1200906
 21
126.2999958
 31
0.0
  0
TEXT
  8
0
  6
CONTINUOUS
 62
     2
 10
1202.1200902
 20
127.2999964
 30
0.0
 40
18.0
  1
１
 50
0.0
 41
0.9
 51
0.0
  7
KANJI40
  0
LINE
  8
0
  6
CONTINUOUS
 62
     1
 10
1604.0178
 20
1669.79972
 30
0.0
 11
1604.0178
 21
1539.80024
 31
0.0
  0
LINE
  8
0
  6
CONTINUOUS
 62
     2
 10
1529.0181
 20
1669.79972
 30
0.0
 11
1529.0181
 21
1539.80024
 31
0.0
  0
LINE
  8
0
  6
CONTINUOUS
 62
     2
 10
1454.0184
 20
1669.79972
 30
0.0
 11
1454.0184
 21
1539.80024
 31
0.0
  0
LINE
  8
0
  6
CONTINUOUS
 62
     1
 10
1354.0188
 20
1669.79972
 30
0.0
 11
1354.0188
 21
1539.80024
 31
0.0
  0
LINE
  8
0
  6
CONTINUOUS
 62
     1
 10
1354.0188
 20
1669.79972
 30
0.0
 11
1604.0178
 21
1669.79972
 31
0.0
  0
LINE
  8
0
  6
CONTINUOUS
 62
     1
 10
1354.0188
 20
1629.79988
 30
0.0
 11
1604.0178
 21
1629.79988
 31
0.0
  0
LINE
  8
0
  6
CONTINUOUS
 62
     2
 10
1354.0188
 20
1599.8
 30
0.0
 11
1604.0178
 21
1599.8
 31
0.0
  0
LINE
  8
0
  6
CONTINUOUS
 62
     2
 10
1354.0188
 20
1569.80012
 30
0.0
 11
1604.0178
 21
1569.80012
 31
0.0
  0
LINE
  8
0
  6
CONTINUOUS
 62
     1
 10
1354.0188
 20
1539.80024
 30
0.0
 11
1604.0178
 21
1539.80024
 31
0.0
  0
TEXT
  8
0
  6
CONTINUOUS
 62
     2
 10
1539.01806
 20
1652.29979
 30
1.499994
 40
14.99994
  1
起動電流
 50
0.0
 41
0.9
 51
0.0
  7
KANJI41
  0
TEXT
  8
0
  6
CONTINUOUS
 62
     2
 10
1539.01806
 20
1634.79986
 30
1.499994
 40
14.99994
  1
　　　Ａ
 50
0.0
 41
0.9
 51
0.0
  7
KANJI41
  0
TEXT
  8
0
  6
CONTINUOUS
 62
     2
 10
1464.01836
 20
1652.29979
 30
1.499994
 40
14.99994
  1
定格電流
 50
0.0
 41
0.9
 51
0.0
  7
KANJI41
  0
TEXT
  8
0
  6
CONTINUOUS
 62
     2
 10
1464.01836
 20
1634.79986
 30
1.499994
 40
14.99994
  1
　　　Ａ
 50
0.0
 41
0.9
 51
0.0
  7
KANJI41
  0
TEXT
  8
0
  6
CONTINUOUS
 62
     2
 10
1362.518766
 20
1577.30009
 30
1.499994
 40
14.99994
  1
２００／６０
 50
0.0
 41
0.9
 51
0.0
  7
KANJI41
  0
TEXT
  8
0
  6
CONTINUOUS
 62
     2
 10
1362.518766
 20
1652.29979
 30
1.499994
 40
14.99994
  1
電圧／周波数
 50
0.0
 41
0.9
 51
0.0
  7
KANJI41
  0
TEXT
  8
0
  6
CONTINUOUS
 62
     2
 10
1362.518766
 20
1634.79986
 30
1.499994
 40
14.99994
  1
　Ｖ／Ｈｚ
 50
0.0
 41
0.9
 51
0.0
  7
KANJI41
  0
TEXT
  8
0
  6
CONTINUOUS
 62
     2
 10
1362.518766
 20
1607.29997
 30
1.499994
 40
14.99994
  1
２００／５０
 50
0.0
 41
0.9
 51
0.0
  7
KANJI41
  0
TEXT
  8
0
  6
CONTINUOUS
 62
     2
 10
1362.518766
 20
1547.30021
 30
1.499994
 40
14.99994
  1
２２０／６０
 50
0.0
 41
0.9
 51
0.0
  7
KANJI41
  0
LINE
  8
0
  6
CONTINUOUS
 62
     1
 10
1304.019
 20
1669.79972
 30
0.0
 11
1304.019
 21
1539.80024
 31
0.0
  0
LINE
  8
0
  6
CONTINUOUS
 62
     2
 10
1229.0193
 20
1669.79972
 30
0.0
 11
1229.0193
 21
1539.80024
 31
0.0
  0
LINE
  8
0
  6
CONTINUOUS
 62
     2
 10
1154.0196
 20
1669.79972
 30
0.0
 11
1154.0196
 21
1539.80024
 31
0.0
  0
LINE
  8
0
  6
CONTINUOUS
 62
     1
 10
1054.02
 20
1669.79972
 30
0.0
 11
1304.019
 21
1669.79972
 31
0.0
  0
LINE
  8
0
  6
CONTINUOUS
 62
     1
 10
1054.02
 20
1629.79988
 30
0.0
 11
1304.019
 21
1629.79988
 31
0.0
  0
LINE
  8
0
  6
CONTINUOUS
 62
     2
 10
1054.02
 20
1599.8
 30
0.0
 11
1304.019
 21
1599.8
 31
0.0
  0
LINE
  8
0
  6
CONTINUOUS
 62
     2
 10
1054.02
 20
1569.80012
 30
0.0
 11
1304.019
 21
1569.80012
 31
0.0
  0
LINE
  8
0
  6
CONTINUOUS
 62
     1
 10
1054.02
 20
1539.80024
 30
0.0
 11
1304.019
 21
1539.80024
 31
0.0
  0
TEXT
  8
0
  6
CONTINUOUS
 62
     2
 10
1239.01926
 20
1652.29979
 30
1.499994
 40
14.99994
  1
起動電流
 50
0.0
 41
0.9
 51
0.0
  7
KANJI41
  0
TEXT
  8
0
  6
CONTINUOUS
 62
     2
 10
1239.01926
 20
1634.79986
 30
1.499994
 40
14.99994
  1
　　　Ａ
 50
0.0
 41
0.9
 51
0.0
  7
KANJI41
  0
TEXT
  8
0
  6
CONTINUOUS
 62
     2
 10
1164.01956
 20
1652.29979
 30
1.499994
 40
14.99994
  1
定格電流
 50
0.0
 41
0.9
 51
0.0
  7
KANJI41
  0
TEXT
  8
0
  6
CONTINUOUS
 62
     2
 10
1164.01956
 20
1634.79986
 30
1.499994
 40
14.99994
  1
　　　Ａ
 50
0.0
 41
0.9
 51
0.0
  7
KANJI41
  0
TEXT
  8
0
  6
CONTINUOUS
 62
     2
 10
1062.519966
 20
1652.29979
 30
1.499994
 40
14.99994
  1
電圧／周波数
 50
0.0
 41
0.9
 51
0.0
  7
KANJI41
  0
TEXT
  8
0
  6
CONTINUOUS
 62
     2
 10
1062.519966
 20
1634.79986
 30
1.499994
 40
14.99994
  1
　Ｖ／Ｈｚ
 50
0.0
 41
0.9
 51
0.0
  7
KANJI41
  0
TEXT
  8
0
  6
CONTINUOUS
 62
     2
 10
1062.519966
 20
1607.29997
 30
1.499994
 40
14.99994
  1
４００／５０
 50
0.0
 41
0.9
 51
0.0
  7
KANJI41
  0
TEXT
  8
0
  6
CONTINUOUS
 62
     2
 10
1062.519966
 20
1577.30009
 30
1.499994
 40
14.99994
  1
４００／６０
 50
0.0
 41
0.9
 51
0.0
  7
KANJI41
  0
TEXT
  8
0
  6
CONTINUOUS
 62
     2
 10
1062.519966
 20
1547.30021
 30
1.499994
 40
14.99994
  1
４４０／６０
 50
0.0
 41
0.9
 51
0.0
  7
KANJI41
  0
TEXT
  8
0
  6
CONTINUOUS
 62
     2
 10
1164.01956
 20
1607.29997
 30
1.499994
 40
14.99994
  1
　　３．４
 50
0.0
 41
0.9
 51
0.0
  7
KANJI41
  0
TEXT
  8
0
  6
CONTINUOUS
 62
     2
 10
1164.01956
 20
1547.30021
 30
1.499994
 40
14.99994
  1
　　３．０
 50
0.0
 41
0.9
 51
0.0
  7
KANJI41
  0
TEXT
  8
0
  6
CONTINUOUS
 62
     2
 10
1464.01836
 20
1607.29997
 30
1.499994
 40
14.99994
  1
　　６．８
 50
0.0
 41
0.9
 51
0.0
  7
KANJI41
  0
TEXT
  8
0
  6
CONTINUOUS
 62
     2
 10
1464.01836
 20
1547.30021
 30
1.499994
 40
14.99994
  1
　　６．０
 50
0.0
 41
0.9
 51
0.0
  7
KANJI41
  0
LINE
  8
0
  6
CONTINUOUS
 62
     1
 10
1054.02
 20
1669.79972
 30
0.0
 11
1054.02
 21
1539.80024
 31
0.0
  0
TEXT
  8
0
  6
CONTINUOUS
 62
     2
 10
1164.01956
 20
1577.30009
 30
1.499994
 40
14.99994
  1
　　３．１
 50
0.0
 41
0.9
 51
0.0
  7
KANJI41
  0
TEXT
  8
0
  6
CONTINUOUS
 62
     2
 10
1464.01836
 20
1577.30009
 30
1.499994
 40
14.99994
  1
　　６．２
 50
0.0
 41
0.9
 51
0.0
  7
KANJI41
  0
TEXT
  8
0
  6
CONTINUOUS
 62
     2
 10
2163.42
 20
1494.6
 30
1.2
 40
18.0
  1
ＭＣＬＥ２Ｃ－　　ＪＬ
 50
0.0
 41
0.833333333
 51
0.0
  7
KANJI42
  0
TEXT
  8
0
  6
CONTINUOUS
 62
     2
 10
2152.92
 20
1370.7
 30
1.8
 40
18.0
  1
　５０／６０
 50
0.0
 41
0.9
 51
0.0
  7
KANJI28
  0
TEXT
  8
0
  6
CONTINUOUS
 62
     2
 10
1861.92
 20
251.7
 30
0.0
 40
21.0
  1
ＭＣＬＥ２Ｃ－ＪＬ
 50
0.0
 41
0.793650794
 51
0.0
  7
KANJI43
  0
TEXT
  8
0
  6
CONTINUOUS
 62
     2
 10
1976.7200334
 20
155.699994
 30
13.0
 40
30.0
  1
３０００９８４
 50
0.0
 41
0.8
 51
0.0
  7
KANJI44
  0
TEXT
  8
0
  6
CONTINUOUS
 62
     2
 10
1274.92001
 20
36.7999935
 30
0.0
 40
18.0
  1
変更書替え　２０００．１２．１３　岡田
 50
0.0
 41
0.9
 51
0.0
  7
KANJI40
  0
TEXT
  8
0
  6
CONTINUOUS
 62
     2
 10
1648.5200334
 20
126.899994
 30
1.8
 40
21.0
  1
２０００．１２．１３
 50
0.0
 41
0.571428571
 51
0.0
  7
KANJI45
  0
TEXT
  8
0
  6
CONTINUOUS
 62
     6
 10
120.294567657
 20
1352.399357623
 30
1.82231734
 40
18.223173404
  1
クイックブレーキモータ
 50
0.0
 41
0.66671875
 51
0.0
  7
KANJI46
  0
CIRCLE
  8
0
  6
CONTINUOUS
 62
     6
 10
164.736
 20
1290.432
 30
0.0
 40
21.6
  0
TEXT
  8
0
  6
CONTINUOUS
 62
     6
 10
155.664
 20
1280.064
 30
2.16
 40
21.6
  1
Ｍ
 50
0.0
 41
0.9
 51
0.0
  7
KANJI47
  0
LINE
  8
0
  6
CONTINUOUS
 62
     6
 10
136.224
 20
1260.192
 30
0.0
 11
149.616
 21
1275.744
 31
0.0
  0
LINE
  8
0
  6
CONTINUOUS
 62
     6
 10
136.224
 20
1320.672
 30
0.0
 11
149.616
 21
1305.12
 31
0.0
  0
CIRCLE
  8
0
  6
CONTINUOUS
 62
     6
 10
111.6
 20
1320.672
 30
0.0
 40
5.184
  0
LINE
  8
0
  6
CONTINUOUS
 62
     6
 10
105.644103884
 20
1314.716103884
 30
0.0
 11
117.740103884
 21
1326.812103884
 31
0.0
  0
CIRCLE
  8
0
  6
CONTINUOUS
 62
     6
 10
111.6
 20
1290.432
 30
0.0
 40
5.184
  0
LINE
  8
0
  6
CONTINUOUS
 62
     6
 10
105.644103884
 20
1284.476103884
 30
0.0
 11
117.740103884
 21
1296.572103884
 31
0.0
  0
CIRCLE
  8
0
  6
CONTINUOUS
 62
     6
 10
111.6
 20
1260.192
 30
0.0
 40
5.184
  0
LINE
  8
0
  6
CONTINUOUS
 62
     6
 10
105.644103884
 20
1254.236103884
 30
0.0
 11
117.740103884
 21
1266.332103884
 31
0.0
  0
LINE
  8
0
  6
CONTINUOUS
 62
     6
 10
136.224
 20
1320.672
 30
0.0
 11
116.784
 21
1320.672
 31
0.0
  0
LINE
  8
0
  6
CONTINUOUS
 62
     6
 10
143.568
 20
1290.432
 30
0.0
 11
116.784
 21
1290.432
 31
0.0
  0
LINE
  8
0
  6
CONTINUOUS
 62
     6
 10
136.224
 20
1260.192
 30
0.0
 11
116.784
 21
1260.192
 31
0.0
  0
LINE
  8
0
  6
LTYPE2
 62
     6
 10
111.6
 20
1344.0
 30
0.0
 11
111.6
 21
1324.56
 31
0.0
  0
LINE
  8
0
  6
LTYPE2
 62
     6
 10
111.6
 20
1315.92
 30
0.0
 11
111.6
 21
1294.32
 31
0.0
  0
LINE
  8
0
  6
LTYPE2
 62
     6
 10
111.6
 20
1285.68
 30
0.0
 11
111.6
 21
1264.512
 31
0.0
  0
LINE
  8
0
  6
LTYPE2
 62
     6
 10
266.16
 20
1344.0
 30
0.0
 11
111.6
 21
1344.0
 31
0.0
  0
TEXT
  8
0
  6
CONTINUOUS
 62
     6
 10
195.84
 20
1280.6472
 30
1.728
 40
17.28
  1
Ｂ
 50
0.0
 41
0.9
 51
0.0
  7
KANJI48
  0
CIRCLE
  8
0
  6
CONTINUOUS
 62
     6
 10
203.616
 20
1290.432
 30
0.0
 40
17.28
  0
LINE
  8
0
  6
CONTINUOUS
 62
     6
 10
231.216
 20
1260.0192
 30
0.0
 11
212.23698443
 21
1275.456118475
 31
0.0
  0
LINE
  8
0
  6
CONTINUOUS
 62
     6
 10
194.631325074
 20
1275.671443897
 30
0.0
 11
175.536
 21
1260.0192
 31
0.0
  0
CIRCLE
  8
0
  6
CONTINUOUS
 62
     6
 10
175.536
 20
1210.9872
 30
0.0
 40
5.184
  0
LINE
  8
0
  6
CONTINUOUS
 62
     6
 10
169.580103884
 20
1205.031303884
 30
0.0
 11
181.676103884
 21
1217.127303884
 31
0.0
  0
CIRCLE
  8
0
  6
CONTINUOUS
 62
     6
 10
203.376
 20
1210.9872
 30
0.0
 40
5.184
  0
LINE
  8
0
  6
CONTINUOUS
 62
     6
 10
197.420103884
 20
1205.031303884
 30
0.0
 11
209.516103884
 21
1217.127303884
 31
0.0
  0
LINE
  8
0
  6
LTYPE2
 62
     6
 10
180.72
 20
1210.9872
 30
0.0
 11
198.096
 21
1210.9872
 31
0.0
  0
CIRCLE
  8
0
  6
CONTINUOUS
 62
     6
 10
231.216
 20
1210.9872
 30
0.0
 40
5.184
  0
LINE
  8
0
  6
CONTINUOUS
 62
     6
 10
225.260103884
 20
1205.031303884
 30
0.0
 11
237.356103884
 21
1217.127303884
 31
0.0
  0
LINE
  8
0
  6
LTYPE2
 62
     6
 10
208.176
 20
1210.9872
 30
0.0
 11
226.416
 21
1210.9872
 31
0.0
  0
TEXT
  8
0
  6
CONTINUOUS
 62
     6
 10
188.64
 20
1213.8192
 30
1.296
 40
12.96
  1
ｖ
 50
0.0
 41
0.9
 51
0.0
  7
KANJI49
  0
TEXT
  8
0
  6
CONTINUOUS
 62
     6
 10
216.48
 20
1213.8192
 30
1.296
 40
12.96
  1
ｗ
 50
0.0
 41
0.9
 51
0.0
  7
KANJI49
  0
TEXT
  8
0
  6
CONTINUOUS
 62
     6
 10
161.616
 20
1214.6832
 30
1.296
 40
12.96
  1
ｕ
 50
0.0
 41
0.9
 51
0.0
  7
KANJI49
  0
LINE
  8
0
  6
CONTINUOUS
 62
     6
 10
175.536
 20
1216.1712
 30
0.0
 11
175.536
 21
1260.0192
 31
0.0
  0
LINE
  8
0
  6
CONTINUOUS
 62
     6
 10
203.376
 20
1216.1712
 30
0.0
 11
203.376
 21
1273.44
 31
0.0
  0
LINE
  8
0
  6
CONTINUOUS
 62
     6
 10
231.216
 20
1216.1712
 30
0.0
 11
231.216
 21
1260.0192
 31
0.0
  0
LINE
  8
0
  6
LTYPE2
 62
     6
 10
236.976
 20
1210.9872
 30
0.0
 11
266.16
 21
1210.9872
 31
0.0
  0
LINE
  8
0
  6
LTYPE2
 62
     6
 10
266.16
 20
1210.9872
 30
0.0
 11
266.16
 21
1344.0
 31
0.0
  0
LINE
  8
0
  6
LTYPE2
 62
     6
 10
111.6
 20
1210.9872
 30
0.0
 11
170.352
 21
1210.9872
 31
0.0
  0
LINE
  8
0
  6
LTYPE2
 62
     6
 10
111.6
 20
1255.008
 30
0.0
 11
111.6
 21
1210.9872
 31
0.0
  0
TEXT
  8
0
  6
CONTINUOUS
 62
     2
 10
128.014472037
 20
1175.954685773
 30
0.0
 40
18.72
  1
モーター結線図
 50
0.0
 41
0.925
 51
0.0
  7
KANJI50
  0
LINE
  8
0
  6
CONTINUOUS
 62
     6
 10
356.629425053
 20
1631.447759827
 30
0.0
 11
124.584646507
 21
1631.447759827
 31
0.0
  0
LINE
  8
0
  6
CONTINUOUS
 62
     3
 10
356.629425053
 20
1603.985259827
 30
0.0
 11
124.584646507
 21
1603.985259827
 31
0.0
  0
LINE
  8
0
  6
CONTINUOUS
 62
     6
 10
356.629425053
 20
1603.985259827
 30
0.0
 11
124.584646507
 21
1603.985259827
 31
0.0
  0
TEXT
  8
0
  6
CONTINUOUS
 62
     6
 10
382.212228
 20
1628.900410728
 30
1.232517
 40
13.182
  1
電気定格　　　
 50
0.0
 41
0.85
 51
0.0
  7
KANJI51
  0
TEXT
  8
0
  6
CONTINUOUS
 62
     6
 10
128.493517202
 20
1634.64592676
 30
1.0647
 40
11.661
  1
ＬＳ０１　　　：推力リミッタ（前進時過負荷用）
 50
0.0
 41
0.822608696
 51
0.0
  7
KANJI52
  0
TEXT
  8
0
  6
CONTINUOUS
 62
     6
 10
128.493517202
 20
1607.18342676
 30
1.0647
 40
11.661
  1
ＬＳ０２　　　：推力リミッタ（後進時過負荷用）
 50
0.0
 41
0.822608696
 51
0.0
  7
KANJI52
  0
TEXT
  8
0
  6
CONTINUOUS
 62
     6
 10
395.013715102
 20
1598.326958599
 30
0.0
 40
11.8638
  1
ＤＣ１２５Ｖ　０．６Ａ　，ＤＣ２５０Ｖ　０．３Ａ　
 50
0.0
 41
0.726495726
 51
0.0
  7
KANJI53
  0
LINE
  8
0
  6
LTYPE2
 62
     6
 10
655.02
 20
1658.9
 30
0.0
 11
106.62
 21
1658.9
 31
0.0
  0
TEXT
  8
0
  6
CONTINUOUS
 62
     6
 10
389.757132178
 20
1646.661726126
 30
0.0
 40
45.0
  1
｝
 50
0.0
 41
0.538166667
 51
0.0
  7
KANJI54
  0
TEXT
  8
0
  6
CONTINUOUS
 62
     6
 10
319.632791539
 20
1417.92382165
 30
0.0
 40
17.740702234
  1
端子台　接続図
 50
0.0
 41
0.880962996
 51
0.0
  7
KANJI55
  0
LINE
  8
0
  6
LTYPE2
 62
     6
 10
106.62
 20
1399.9
 30
0.0
 11
655.02
 21
1399.9
 31
0.0
  0
LINE
  8
0
  6
LTYPE2
 62
     6
 10
106.62
 20
1658.9
 30
0.0
 11
106.62
 21
1399.9
 31
0.0
  0
LINE
  8
0
  6
CONTINUOUS
 62
     2
 10
354.597373465
 20
1468.928121884
 30
0.0
 11
354.597373465
 21
1446.149155128
 31
0.0
  0
LINE
  8
0
  6
CONTINUOUS
 62
     2
 10
381.17283468
 20
1468.928121884
 30
0.0
 11
381.17283468
 21
1446.149155128
 31
0.0
  0
LINE
  8
0
  6
CONTINUOUS
 62
     2
 10
407.748295894
 20
1468.928121884
 30
0.0
 11
407.748295894
 21
1446.149155128
 31
0.0
  0
LINE
  8
0
  6
CONTINUOUS
 62
     2
 10
434.323757109
 20
1468.928121884
 30
0.0
 11
434.323757109
 21
1446.149155128
 31
0.0
  0
CIRCLE
  8
0
  6
CONTINUOUS
 62
     6
 10
426.404269667
 20
1492.407921517
 30
0.0
 40
4.100214016
  0
LINE
  8
0
  6
CONTINUOUS
 62
     6
 10
422.304055651
 20
1492.407921517
 30
0.0
 11
421.036026502
 21
1492.407921517
 31
0.0
  0
LINE
  8
0
  6
CONTINUOUS
 62
     6
 10
447.358027433
 20
1506.094562742
 30
0.0
 11
443.443558096
 21
1483.759507138
 31
0.0
  0
LINE
  8
0
  6
CONTINUOUS
 62
     6
 10
442.631699663
 20
1506.882284037
 30
0.0
 11
438.716922494
 21
1484.547279739
 31
0.0
  0
LINE
  8
0
  6
CONTINUOUS
 62
     6
 10
443.443558096
 20
1483.759507138
 30
0.0
 11
438.716922494
 21
1484.547279739
 31
0.0
  0
CIRCLE
  8
0
  6
CONTINUOUS
 62
     6
 10
447.611487717
 20
1482.939464335
 30
0.0
 40
4.100214016
  0
LINE
  8
0
  6
CONTINUOUS
 62
     6
 10
447.611487717
 20
1478.839250319
 30
0.0
 11
447.611487717
 21
1468.928121884
 31
0.0
  0
LINE
  8
0
  6
CONTINUOUS
 62
     6
 10
421.036026502
 20
1492.407921517
 30
0.0
 11
421.036026502
 21
1468.928121884
 31
0.0
  0
LINE
  8
0
  6
CONTINUOUS
 62
     6
 10
394.460565287
 20
1468.928121884
 30
0.0
 11
394.460565287
 21
1522.633332504
 31
0.0
  0
LINE
  8
0
  6
CONTINUOUS
 62
     6
 10
314.987641926
 20
1506.094562742
 30
0.0
 11
318.902111263
 21
1483.759507138
 31
0.0
  0
LINE
  8
0
  6
CONTINUOUS
 62
     6
 10
319.713969696
 20
1506.882284037
 30
0.0
 11
323.628746865
 21
1484.547279739
 31
0.0
  0
LINE
  8
0
  6
CONTINUOUS
 62
     6
 10
318.902111263
 20
1483.759507138
 30
0.0
 11
323.628746865
 21
1484.547279739
 31
0.0
  0
CIRCLE
  8
0
  6
CONTINUOUS
 62
     6
 10
314.734181642
 20
1482.939464335
 30
0.0
 40
4.100214016
  0
CIRCLE
  8
0
  6
CONTINUOUS
 62
     6
 10
335.941399692
 20
1492.407921517
 30
0.0
 40
4.100214016
  0
LINE
  8
0
  6
CONTINUOUS
 62
     6
 10
340.041613708
 20
1492.407921517
 30
0.0
 11
341.309642857
 21
1492.407921517
 31
0.0
  0
LINE
  8
0
  6
CONTINUOUS
 62
     6
 10
314.734181642
 20
1478.839250319
 30
0.0
 11
314.734181642
 21
1468.928121884
 31
0.0
  0
LINE
  8
0
  6
CONTINUOUS
 62
     6
 10
341.309642857
 20
1492.407921517
 30
0.0
 11
341.309642857
 21
1468.928121884
 31
0.0
  0
LINE
  8
0
  6
CONTINUOUS
 62
     6
 10
367.885104072
 20
1468.928121884
 30
0.0
 11
367.885104072
 21
1522.633332504
 31
0.0
  0
LINE
  8
0
  6
CONTINUOUS
 62
     2
 10
460.899218324
 20
1468.928121884
 30
0.0
 11
460.899218324
 21
1446.149155128
 31
0.0
  0
LINE
  8
0
  6
CONTINUOUS
 62
     2
 10
301.446451035
 20
1468.928121884
 30
0.0
 11
301.446451035
 21
1446.149155128
 31
0.0
  0
LINE
  8
0
  6
CONTINUOUS
 62
     2
 10
328.02191225
 20
1468.928121884
 30
0.0
 11
328.02191225
 21
1446.149155128
 31
0.0
  0
LINE
  8
0
  6
CONTINUOUS
 62
     6
 10
447.611487717
 20
1522.633332504
 30
0.0
 11
394.460565287
 21
1522.633332504
 31
0.0
  0
CIRCLE
  8
0
  6
CONTINUOUS
 62
     6
 10
447.611487717
 20
1510.28941042
 30
0.0
 40
4.100214016
  0
LINE
  8
0
  6
CONTINUOUS
 62
     6
 10
447.358027433
 20
1506.094562742
 30
0.0
 11
442.631699663
 21
1506.882284037
 31
0.0
  0
LINE
  8
0
  6
CONTINUOUS
 62
     6
 10
447.611487717
 20
1514.389624436
 30
0.0
 11
447.611487717
 21
1522.633332504
 31
0.0
  0
CIRCLE
  8
0
  6
CONTINUOUS
 62
     6
 10
314.734181642
 20
1510.28941042
 30
0.0
 40
4.100214016
  0
LINE
  8
0
  6
CONTINUOUS
 62
     6
 10
314.987641926
 20
1506.094562742
 30
0.0
 11
319.713969696
 21
1506.882284037
 31
0.0
  0
LINE
  8
0
  6
CONTINUOUS
 62
     6
 10
314.734181642
 20
1514.389624436
 30
0.0
 11
314.734181642
 21
1522.633332504
 31
0.0
  0
LINE
  8
0
  6
CONTINUOUS
 62
     6
 10
367.885104072
 20
1522.633332504
 30
0.0
 11
314.734181642
 21
1522.633332504
 31
0.0
  0
TEXT
  8
0
  6
CONTINUOUS
 62
     6
 10
319.4972152
 20
1527.152473273
 30
0.819
 40
11.7
  1
ＬＳ０１
 50
0.0
 41
0.8
 51
0.0
  7
KANJI56
  0
TEXT
  8
0
  6
CONTINUOUS
 62
     6
 10
402.117398844
 20
1527.152473273
 30
0.819
 40
11.7
  1
ＬＳ０２
 50
0.0
 41
0.8
 51
0.0
  7
KANJI56
  0
TEXT
  8
0
  6
CONTINUOUS
 62
     3
 10
147.308775989
 20
1449.945649587
 30
0.0
 40
15.0
  1
　　　　　　　　　　　　　　　　　　１　　２　　　３　　　４　　　５　　　６
 50
0.0
 41
0.911
 51
0.0
  7
KANJI57
  0
LINE
  8
0
  6
CONTINUOUS
 62
     2
 10
301.446451035
 20
1468.928121884
 30
0.0
 11
460.899218324
 21
1468.928121884
 31
0.0
  0
LINE
  8
0
  6
CONTINUOUS
 62
     2
 10
301.446451035
 20
1446.149155128
 30
0.0
 11
460.899218324
 21
1446.149155128
 31
0.0
  0
TEXT
  8
0
  6
CONTINUOUS
 62
     6
 10
293.132791539
 20
1556.92382165
 30
0.0
 40
17.740702234
  1
推力リミッタ端子台配列
 50
0.0
 41
0.880962996
 51
0.0
  7
KANJI55
  0
TEXT
  8
0
  6
CONTINUOUS
 62
     6
 10
395.013715102
 20
1614.071931782
 30
0.0
 40
11.8638
  1
ＡＣ１００Ｖ　１２５Ｖ　２５０Ｖ　－１０Ａ
 50
0.0
 41
0.726495726
 51
0.0
  7
KANJI53
  0
LINE
  8
0
  6
LTYPE2
 62
     6
 10
655.02
 20
1399.9
 30
0.0
 11
655.02
 21
1658.9
 31
0.0
  0
LINE
  8
0
  6
CONTINUOUS
 62
     2
 10
443.083402385
 20
1327.133330769
 30
0.0
 11
450.810808995
 21
1325.062778408
 31
0.0
  0
LINE
  8
0
  6
CONTINUOUS
 62
     2
 10
443.083402385
 20
1327.133330769
 30
0.0
 11
450.810808995
 21
1329.20388313
 31
0.0
  0
LINE
  8
0
  6
CONTINUOUS
 62
     2
 10
443.083402385
 20
1327.133330769
 30
0.0
 11
580.683402385
 21
1327.133330769
 31
0.0
  0
LINE
  8
0
  6
CONTINUOUS
 62
     2
 10
580.683402385
 20
1327.133330769
 30
0.0
 11
572.955995774
 21
1329.20388313
 31
0.0
  0
LINE
  8
0
  6
CONTINUOUS
 62
     2
 10
580.683402385
 20
1327.133330769
 30
0.0
 11
572.955995774
 21
1325.062778408
 31
0.0
  0
LINE
  8
0
  6
CONTINUOUS
 62
     2
 10
580.683402385
 20
1325.933330769
 30
0.0
 11
580.683402385
 21
1323.133330769
 31
0.0
  0
LINE
  8
0
  6
CONTINUOUS
 62
     2
 10
580.683402385
 20
1327.133330769
 30
0.0
 11
588.410808995
 21
1325.062778408
 31
0.0
  0
LINE
  8
0
  6
CONTINUOUS
 62
     2
 10
580.683402385
 20
1327.133330769
 30
0.0
 11
588.410808995
 21
1329.20388313
 31
0.0
  0
LINE
  8
0
  6
CONTINUOUS
 62
     2
 10
580.683402385
 20
1327.133330769
 30
0.0
 11
783.083402385
 21
1327.133330769
 31
0.0
  0
LINE
  8
0
  6
CONTINUOUS
 62
     2
 10
783.083402385
 20
1327.133330769
 30
0.0
 11
775.355995774
 21
1329.20388313
 31
0.0
  0
LINE
  8
0
  6
CONTINUOUS
 62
     2
 10
783.083402385
 20
1327.133330769
 30
0.0
 11
775.355995774
 21
1325.062778408
 31
0.0
  0
LINE
  8
0
  6
CONTINUOUS
 62
     2
 10
580.683402385
 20
1300.80388313
 30
0.0
 11
572.955995774
 21
1302.874435491
 31
0.0
  0
LINE
  8
0
  6
CONTINUOUS
 62
     2
 10
580.683402385
 20
1300.80388313
 30
0.0
 11
572.955995774
 21
1298.733330769
 31
0.0
  0
LINE
  8
0
  6
CONTINUOUS
 62
     2
 10
568.683402385
 20
1300.80388313
 30
0.0
 11
580.683402385
 21
1300.80388313
 31
0.0
  0
LINE
  8
0
  6
CONTINUOUS
 62
     2
 10
580.683402385
 20
1300.80388313
 30
0.0
 11
601.483402385
 21
1300.80388313
 31
0.0
  0
LINE
  8
0
  6
CONTINUOUS
 62
     2
 10
601.483402385
 20
1300.80388313
 30
0.0
 11
609.210808995
 21
1298.733330769
 31
0.0
  0
LINE
  8
0
  6
CONTINUOUS
 62
     2
 10
601.483402385
 20
1300.80388313
 30
0.0
 11
609.210808995
 21
1302.874435491
 31
0.0
  0
LINE
  8
0
  6
CONTINUOUS
 62
     2
 10
443.083402385
 20
1275.533330769
 30
0.0
 11
443.083402385
 21
1269.533330769
 31
0.0
  0
LINE
  8
0
  6
CONTINUOUS
 62
     2
 10
443.083402385
 20
1273.533330769
 30
0.0
 11
450.810808995
 21
1271.462778408
 31
0.0
  0
LINE
  8
0
  6
CONTINUOUS
 62
     2
 10
443.083402385
 20
1273.533330769
 30
0.0
 11
450.810808995
 21
1275.60388313
 31
0.0
  0
LINE
  8
0
  6
CONTINUOUS
 62
     2
 10
443.083402385
 20
1273.533330769
 30
0.0
 11
601.483402385
 21
1273.533330769
 31
0.0
  0
LINE
  8
0
  6
CONTINUOUS
 62
     2
 10
601.483402385
 20
1273.533330769
 30
0.0
 11
593.755995774
 21
1275.60388313
 31
0.0
  0
LINE
  8
0
  6
CONTINUOUS
 62
     2
 10
601.483402385
 20
1273.533330769
 30
0.0
 11
593.755995774
 21
1271.462778408
 31
0.0
  0
LINE
  8
0
  6
CONTINUOUS
 62
     2
 10
601.483402385
 20
1274.733330769
 30
0.0
 11
601.483402385
 21
1269.533330769
 31
0.0
  0
LINE
  8
0
  6
CONTINUOUS
 62
     2
 10
601.483402385
 20
1273.533330769
 30
0.0
 11
609.210808995
 21
1271.462778408
 31
0.0
  0
LINE
  8
0
  6
CONTINUOUS
 62
     2
 10
601.483402385
 20
1273.533330769
 30
0.0
 11
609.210808995
 21
1275.60388313
 31
0.0
  0
LINE
  8
0
  6
CONTINUOUS
 62
     2
 10
783.083402385
 20
1269.933330769
 30
0.0
 11
783.083402385
 21
1269.533330769
 31
0.0
  0
LINE
  8
0
  6
CONTINUOUS
 62
     2
 10
443.083402385
 20
1244.333330769
 30
0.0
 11
450.810808995
 21
1242.262778408
 31
0.0
  0
LINE
  8
0
  6
CONTINUOUS
 62
     2
 10
443.083402385
 20
1244.333330769
 30
0.0
 11
450.810808995
 21
1246.40388313
 31
0.0
  0
LINE
  8
0
  6
CONTINUOUS
 62
     2
 10
443.083402385
 20
1244.333330769
 30
0.0
 11
760.683402385
 21
1244.333330769
 31
0.0
  0
LINE
  8
0
  6
CONTINUOUS
 62
     2
 10
760.683402385
 20
1244.333330769
 30
0.0
 11
752.955995774
 21
1246.40388313
 31
0.0
  0
LINE
  8
0
  6
CONTINUOUS
 62
     2
 10
760.683402385
 20
1244.333330769
 30
0.0
 11
752.955995774
 21
1242.262778408
 31
0.0
  0
LINE
  8
0
  6
CONTINUOUS
 62
     2
 10
760.683402385
 20
1245.133330769
 30
0.0
 11
760.683402385
 21
1240.333330769
 31
0.0
  0
LINE
  8
0
  6
CONTINUOUS
 62
     2
 10
760.683402385
 20
1244.333330769
 30
0.0
 11
752.955995774
 21
1246.40388313
 31
0.0
  0
LINE
  8
0
  6
CONTINUOUS
 62
     2
 10
760.683402385
 20
1244.333330769
 30
0.0
 11
752.955995774
 21
1242.262778408
 31
0.0
  0
LINE
  8
0
  6
CONTINUOUS
 62
     2
 10
748.683402385
 20
1244.333330769
 30
0.0
 11
760.683402385
 21
1244.333330769
 31
0.0
  0
LINE
  8
0
  6
CONTINUOUS
 62
     2
 10
760.683402385
 20
1244.333330769
 30
0.0
 11
783.083402385
 21
1244.333330769
 31
0.0
  0
LINE
  8
0
  6
CONTINUOUS
 62
     2
 10
783.083402385
 20
1244.333330769
 30
0.0
 11
790.810808995
 21
1242.262778408
 31
0.0
  0
LINE
  8
0
  6
CONTINUOUS
 62
     2
 10
783.083402385
 20
1244.333330769
 30
0.0
 11
790.810808995
 21
1246.40388313
 31
0.0
  0
LINE
  8
0
  6
CONTINUOUS
 62
     2
 10
443.083402385
 20
1337.933330769
 30
0.0
 11
443.083402385
 21
1323.133330769
 31
0.0
  0
LINE
  8
0
  6
CONTINUOUS
 62
     2
 10
783.083402385
 20
1337.933330769
 30
0.0
 11
783.083402385
 21
1323.133330769
 31
0.0
  0
LINE
  8
0
  6
CONTINUOUS
 62
     2
 10
580.683402385
 20
1326.733330769
 30
0.0
 11
580.683402385
 21
1337.933330769
 31
0.0
  0
LINE
  8
0
  6
CONTINUOUS
 62
     2
 10
601.483402385
 20
1313.60388313
 30
0.0
 11
601.483402385
 21
1296.80388313
 31
0.0
  0
LINE
  8
0
  6
CONTINUOUS
 62
     2
 10
443.083402385
 20
1323.133330769
 30
0.0
 11
443.083402385
 21
1231.133330769
 31
0.0
  0
LINE
  8
0
  6
CONTINUOUS
 62
     2
 10
783.083402385
 20
1327.133330769
 30
0.0
 11
783.083402385
 21
1232.333330769
 31
0.0
  0
LINE
  8
0
  6
CONTINUOUS
 62
     2
 10
601.483402385
 20
1300.80388313
 30
0.0
 11
601.483402385
 21
1264.333330769
 31
0.0
  0
LINE
  8
0
  6
CONTINUOUS
 62
     2
 10
580.683402385
 20
1327.133330769
 30
0.0
 11
580.683402385
 21
1291.533330769
 31
0.0
  0
TEXT
  8
0
  6
CONTINUOUS
 62
     3
 10
484.883402385
 20
1329.133330769
 30
0.0
 40
15.0
  1
ｍｉｎ．Ｌ
 50
0.0
 41
0.9
 51
0.0
  7
KANJI58
  0
TEXT
  8
0
  6
CONTINUOUS
 62
     3
 10
638.683402385
 20
1329.133330769
 30
0.0
 40
15.0
  1
機械的ストローク
 50
0.0
 41
0.9
 51
0.0
  7
KANJI58
  0
TEXT
  8
0
  6
CONTINUOUS
 62
     3
 10
613.483402385
 20
1302.80388313
 30
0.0
 40
15.0
  1
余裕
 50
0.0
 41
0.9
 51
0.0
  7
KANJI58
  0
TEXT
  8
0
  6
CONTINUOUS
 62
     3
 10
495.283402385
 20
1275.533330769
 30
0.0
 40
15.0
  1
常用ｍｉｎ
 50
0.0
 41
0.9
 51
0.0
  7
KANJI58
  0
TEXT
  8
0
  6
CONTINUOUS
 62
     3
 10
574.883402385
 20
1246.333330769
 30
0.0
 40
15.0
  1
常用ｍａｘ
 50
0.0
 41
0.9
 51
0.0
  7
KANJI58
  0
TEXT
  8
0
  6
CONTINUOUS
 62
     3
 10
795.083402385
 20
1246.333330769
 30
0.0
 40
15.0
  1
余裕
 50
0.0
 41
0.9
 51
0.0
  7
KANJI58
  0
LINE
  8
0
  6
CONTINUOUS
 62
     2
 10
601.483402385
 20
1300.80388313
 30
0.0
 11
641.583402385
 21
1300.80388313
 31
0.0
  0
LINE
  8
0
  6
CONTINUOUS
 62
     2
 10
783.083402385
 20
1244.333330769
 30
0.0
 11
825.583402385
 21
1244.333330769
 31
0.0
  0
LINE
  8
0
  6
CONTINUOUS
 62
     2
 10
760.683402385
 20
1285.933330769
 30
0.0
 11
760.683402385
 21
1231.533330769
 31
0.0
  0
LINE
  8
0
  6
CONTINUOUS
 62
     2
 10
601.483402385
 20
1273.533330769
 30
0.0
 11
760.683402385
 21
1273.533330769
 31
0.0
  0
LINE
  8
0
  6
CONTINUOUS
 62
     2
 10
760.683402385
 20
1273.533330769
 30
0.0
 11
752.955995774
 21
1275.60388313
 31
0.0
  0
LINE
  8
0
  6
CONTINUOUS
 62
     2
 10
760.683402385
 20
1273.533330769
 30
0.0
 11
752.955995774
 21
1271.462778408
 31
0.0
  0
TEXT
  8
0
  6
CONTINUOUS
 62
     3
 10
639.433402385
 20
1275.533330769
 30
0.0
 40
15.0
  1
常用ストローク
 50
0.0
 41
0.9
 51
0.0
  7
KANJI58
  0
TEXT
  8
0
  6
CONTINUOUS
 62
     6
 10
90.816
 20
1328.016
 30
1.296
 40
12.96
  1
Ｕ
 50
0.0
 41
0.9
 51
0.0
  7
KANJI49
  0
TEXT
  8
0
  6
CONTINUOUS
 62
     6
 10
92.112
 20
1297.344
 30
1.296
 40
12.96
  1
Ｖ
 50
0.0
 41
0.9
 51
0.0
  7
KANJI49
  0
TEXT
  8
0
  6
CONTINUOUS
 62
     6
 10
93.408
 20
1266.672
 30
1.296
 40
12.96
  1
Ｗ
 50
0.0
 41
0.9
 51
0.0
  7
KANJI49
  0
LINE
  8
0
  6
CONTINUOUS
 62
     2
 10
1729.32
 20
706.5
 30
0.0
 11
1873.32
 21
706.5
 31
0.0
  0
TEXT
  8
0
  6
CONTINUOUS
 62
     2
 10
1741.92
 20
714.9
 30
12.0
 40
24.0
  1
特記事項
 50
0.0
 41
0.9
 51
0.0
  7
KANJI59
  0
TEXT
  8
0
  6
CONTINUOUS
 62
     2
 10
1735.92
 20
670.2
 30
1.8
 40
21.0
  1
１．運転時は必ずピストンロッドの回転防止を行って下さい。
 50
0.0
 41
0.857142857
 51
0.0
  7
KANJI60
  0
TEXT
  8
0
  6
CONTINUOUS
 62
     2
 10
1735.92
 20
637.7
 30
1.8
 40
21.0
  1
２．モートル：全閉自冷かご形３０分定格
 50
0.0
 41
0.857142857
 51
0.0
  7
KANJI60
  0
TEXT
  8
0
  6
CONTINUOUS
 62
     2
 10
1735.92
 20
605.2
 30
1.8
 40
21.0
  1
３．ＬＳユニット
 50
0.0
 41
0.857142857
 51
0.0
  7
KANJI60
  0
TEXT
  8
0
  6
CONTINUOUS
 62
     2
 10
1735.92
 20
580.2
 30
1.8
 40
21.0
  1
　　リミットスイッチ：１ＬＳ１－Ｊｘ２ケ（山武）
 50
0.0
 41
0.857142857
 51
0.0
  7
KANJI60
  0
TEXT
  8
0
  6
CONTINUOUS
 62
     2
 10
1735.92
 20
555.2
 30
1.8
 40
21.0
  1
　　ストローク７００ｍｍ以上の場合２ロッド方式となります。
 50
0.0
 41
0.857142857
 51
0.0
  7
KANJI60
  0
TEXT
  8
0
  6
CONTINUOUS
 62
     2
 10
1735.92
 20
527.2
 30
1.8
 40
21.0
  1
４．呼称ストロークは、機械的ストロークです。
 50
0.0
 41
0.857142857
 51
0.0
  7
KANJI60
  0
TEXT
  8
0
  6
CONTINUOUS
 62
     2
 10
1735.92
 20
495.24
 30
1.8
 40
21.0
  1
　　必ず、常用はストローク両端に必ず余裕を取って下さい。
 50
0.0
 41
0.857142857
 51
0.0
  7
KANJI60
  0
TEXT
  8
0
  6
CONTINUOUS
 62
     2
 10
1735.92
 20
462.464
 30
1.8
 40
21.0
  1
　　前後の推奨余裕寸法は、各々３０ｍｍです。
 50
0.0
 41
0.857142857
 51
0.0
  7
KANJI60
  0
TEXT
  8
0
  6
CONTINUOUS
 62
     2
 10
1735.92
 20
425.964
 30
1.8
 40
21.0
  1
５．ボールネジ使用　３６１０
 50
0.0
 41
0.857142857
 51
0.0
  7
KANJI60
  0
LINE
  8
0
  6
CONTINUOUS
 62
     1
 10
400.964725201
 20
529.633974596
 30
0.0
 11
400.964725201
 21
869.633974596
 31
0.0
  0
LINE
  8
0
  6
CONTINUOUS
 62
     1
 10
400.964725201
 20
679.533974596
 30
0.0
 11
400.964725201
 21
879.533974596
 31
0.0
  0
LINE
  8
0
  6
CONTINUOUS
 62
     1
 10
400.964725201
 20
520.633974596
 30
0.0
 11
400.964725201
 21
895.633974596
 31
0.0
  0
LINE
  8
0
  6
CONTINUOUS
 62
     1
 10
400.964725201
 20
895.633974596
 30
0.0
 11
360.964725201
 21
895.633974596
 31
0.0
  0
ARC
  8
0
  6
CONTINUOUS
 62
     1
 10
382.964725201
 20
762.633974596
 30
0.0
 40
4.0
 50
270.0
 51
0.0
  0
LINE
  8
0
  6
CONTINUOUS
 62
     1
 10
360.964725201
 20
895.633974596
 30
0.0
 11
360.964725201
 21
858.633974596
 31
0.0
  0
ARC
  8
0
  6
CONTINUOUS
 62
     1
 10
357.964725201
 20
858.633974596
 30
0.0
 40
3.0
 50
270.0
 51
0.0
  0
ARC
  8
0
  6
CONTINUOUS
 62
     1
 10
383.964725201
 20
858.633974596
 30
0.0
 40
3.0
 50
270.0
 51
0.0
  0
LINE
  8
0
  6
CONTINUOUS
 62
     1
 10
386.964725201
 20
762.633974596
 30
0.0
 11
386.964725201
 21
895.633974596
 31
0.0
  0
LINE
  8
0
  6
CONTINUOUS
 62
     1
 10
305.964725201
 20
520.633974596
 30
0.0
 11
305.964725201
 21
855.633974596
 31
0.0
  0
LINE
  8
0
  6
CONTINUOUS
 62
     1
 10
305.964725201
 20
855.633974596
 30
0.0
 11
383.964725201
 21
855.633974596
 31
0.0
  0
CIRCLE
  8
0
  6
CONTINUOUS
 62
     1
 10
380.964725201
 20
920.633974596
 30
0.0
 40
15.0
  0
LINE
  8
0
  6
CONTINUOUS
 62
     1
 10
392.365994164
 20
903.635505015
 30
0.0
 11
380.964725201
 21
905.633974596
 31
0.0
  0
LINE
  8
0
  6
CONTINUOUS
 62
     1
 10
380.964725201
 20
903.633974596
 30
0.0
 11
392.366180968
 21
903.633974596
 31
0.0
  0
ARC
  8
0
  6
CONTINUOUS
 62
     1
 10
380.964725201
 20
920.633974596
 30
0.0
 40
25.0
 50
300.714883545
 51
0.0
  0
LINE
  8
0
  6
CONTINUOUS
 62
     1
 10
393.081820347
 20
897.770984085
 30
0.0
 11
392.366180968
 21
903.633974596
 31
0.0
  0
ARC
  8
0
  6
CONTINUOUS
 62
     1
 10
394.470347916
 20
897.950100256
 30
0.0
 40
1.4
 50
121.733468281
 51
187.57738995
  0
LINE
  8
0
  6
CONTINUOUS
 62
     1
 10
369.563456237
 20
903.635505015
 30
0.0
 11
380.964725201
 21
905.633974596
 31
0.0
  0
LINE
  8
0
  6
CONTINUOUS
 62
     1
 10
380.964725201
 20
903.633974596
 30
0.0
 11
369.563269434
 21
903.633974596
 31
0.0
  0
LINE
  8
0
  6
CONTINUOUS
 62
     1
 10
368.847630054
 20
897.770984085
 30
0.0
 11
369.563269434
 21
903.633974596
 31
0.0
  0
ARC
  8
0
  6
CONTINUOUS
 62
     1
 10
367.459102486
 20
897.950100256
 30
0.0
 40
1.4
 50
352.42261005
 51
58.266531719
  0
ARC
  8
0
  6
CONTINUOUS
 62
     1
 10
380.964725201
 20
920.633974596
 30
0.0
 40
25.0
 50
0.0
 51
239.342761175
  0
LINE
  8
0
  6
CONTINUOUS
 62
     1
 10
393.342664731
 20
895.633974596
 30
0.0
 11
393.081820347
 21
897.770984085
 31
0.0
  0
LINE
  8
0
  6
CONTINUOUS
 62
     1
 10
368.586785671
 20
895.633974596
 30
0.0
 11
368.847630054
 21
897.770984085
 31
0.0
  0
LINE
  8
0
  6
CONTINUOUS
 62
     1
 10
400.964725201
 20
520.633974596
 30
0.0
 11
288.964725201
 21
520.633974596
 31
0.0
  0
LINE
  8
0
  6
CONTINUOUS
 62
     1
 10
288.964725201
 20
520.633974596
 30
0.0
 11
288.964725201
 21
768.633974596
 31
0.0
  0
LINE
  8
0
  6
CONTINUOUS
 62
     1
 10
382.964725201
 20
758.633974596
 30
0.0
 11
305.964725201
 21
758.633974596
 31
0.0
  0
LINE
  8
0
  6
CONTINUOUS
 62
     1
 10
305.964725201
 20
768.633974596
 30
0.0
 11
288.964725201
 21
768.633974596
 31
0.0
  0
LINE
  8
0
  6
CONTINUOUS
 62
     1
 10
288.964725201
 20
689.633974596
 30
0.0
 11
288.964725201
 21
678.684434596
 31
0.0
  0
LINE
  8
0
  6
CONTINUOUS
 62
     1
 10
288.964725201
 20
689.633974596
 30
0.0
 11
288.964725201
 21
700.583514596
 31
0.0
  0
LINE
  8
0
  6
CONTINUOUS
 62
     1
 10
280.943625201
 20
681.365954596
 30
0.0
 11
282.491801495
 21
678.684434596
 31
0.0
  0
LINE
  8
0
  6
CONTINUOUS
 62
     1
 10
280.943625201
 20
689.633974596
 30
0.0
 11
280.943625201
 21
681.365954596
 31
0.0
  0
LINE
  8
0
  6
CONTINUOUS
 62
     1
 10
280.943625201
 20
697.901994596
 30
0.0
 11
282.491801495
 21
700.583514596
 31
0.0
  0
LINE
  8
0
  6
CONTINUOUS
 62
     1
 10
280.943625201
 20
689.633974596
 30
0.0
 11
280.943625201
 21
697.901994596
 31
0.0
  0
ARC
  8
0
  6
CONTINUOUS
 62
     1
 10
291.397846893
 20
689.633974596
 30
0.0
 40
10.454221693
 50
148.419912243
 51
211.580087757
  0
ARC
  8
0
  6
CONTINUOUS
 62
     1
 10
284.136738807
 20
681.421819596
 30
0.0
 40
3.193602261
 50
121.002313915
 51
182.989498403
  0
LINE
  8
0
  6
CONTINUOUS
 62
     1
 10
280.943625201
 20
697.901994596
 30
0.0
 11
282.491801495
 21
700.583514596
 31
0.0
  0
ARC
  8
0
  6
CONTINUOUS
 62
     1
 10
284.136738807
 20
697.846129596
 30
0.0
 40
3.193602261
 50
177.010501597
 51
238.997686085
  0
LINE
  8
0
  6
CONTINUOUS
 62
     1
 10
288.964725201
 20
678.684434596
 30
0.0
 11
282.491801495
 21
678.684434596
 31
0.0
  0
LINE
  8
0
  6
CONTINUOUS
 62
     1
 10
288.964725201
 20
684.159204596
 30
0.0
 11
282.491801495
 21
684.159204596
 31
0.0
  0
LINE
  8
0
  6
CONTINUOUS
 62
     1
 10
288.964725201
 20
695.108744596
 30
0.0
 11
282.491801495
 21
695.108744596
 31
0.0
  0
LINE
  8
0
  6
CONTINUOUS
 62
     1
 10
288.964725201
 20
700.583514596
 30
0.0
 11
282.491801495
 21
700.583514596
 31
0.0
  0
LINE
  8
0
  6
CONTINUOUS
 62
     1
 10
288.964725201
 20
539.633974596
 30
0.0
 11
288.964725201
 21
528.684434596
 31
0.0
  0
LINE
  8
0
  6
CONTINUOUS
 62
     1
 10
288.964725201
 20
539.633974596
 30
0.0
 11
288.964725201
 21
550.583514596
 31
0.0
  0
LINE
  8
0
  6
CONTINUOUS
 62
     1
 10
280.943625201
 20
531.365954596
 30
0.0
 11
282.491801495
 21
528.684434596
 31
0.0
  0
LINE
  8
0
  6
CONTINUOUS
 62
     1
 10
280.943625201
 20
539.633974596
 30
0.0
 11
280.943625201
 21
531.365954596
 31
0.0
  0
LINE
  8
0
  6
CONTINUOUS
 62
     1
 10
280.943625201
 20
547.901994596
 30
0.0
 11
282.491801495
 21
550.583514596
 31
0.0
  0
LINE
  8
0
  6
CONTINUOUS
 62
     1
 10
280.943625201
 20
539.633974596
 30
0.0
 11
280.943625201
 21
547.901994596
 31
0.0
  0
ARC
  8
0
  6
CONTINUOUS
 62
     1
 10
291.397846893
 20
539.633974596
 30
0.0
 40
10.454221693
 50
148.419912243
 51
211.580087757
  0
ARC
  8
0
  6
CONTINUOUS
 62
     1
 10
284.136738807
 20
531.421819596
 30
0.0
 40
3.193602261
 50
121.002313915
 51
182.989498403
  0
LINE
  8
0
  6
CONTINUOUS
 62
     1
 10
280.943625201
 20
547.901994596
 30
0.0
 11
282.491801495
 21
550.583514596
 31
0.0
  0
ARC
  8
0
  6
CONTINUOUS
 62
     1
 10
284.136738807
 20
547.846129596
 30
0.0
 40
3.193602261
 50
177.010501597
 51
238.997686085
  0
LINE
  8
0
  6
CONTINUOUS
 62
     1
 10
288.964725201
 20
528.684434596
 30
0.0
 11
282.491801495
 21
528.684434596
 31
0.0
  0
LINE
  8
0
  6
CONTINUOUS
 62
     1
 10
288.964725201
 20
534.159204596
 30
0.0
 11
282.491801495
 21
534.159204596
 31
0.0
  0
LINE
  8
0
  6
CONTINUOUS
 62
     1
 10
288.964725201
 20
545.108744596
 30
0.0
 11
282.491801495
 21
545.108744596
 31
0.0
  0
LINE
  8
0
  6
CONTINUOUS
 62
     1
 10
288.964725201
 20
550.583514596
 30
0.0
 11
282.491801495
 21
550.583514596
 31
0.0
  0
LINE
  8
0
  6
CONTINUOUS
 62
     1
 10
288.964725201
 20
757.633974596
 30
0.0
 11
288.964725201
 21
750.139914596
 31
0.0
  0
LINE
  8
0
  6
CONTINUOUS
 62
     1
 10
288.964725201
 20
757.633974596
 30
0.0
 11
288.964725201
 21
765.128034596
 31
0.0
  0
LINE
  8
0
  6
CONTINUOUS
 62
     1
 10
283.464825201
 20
751.975194596
 30
0.0
 11
284.524424603
 21
750.139914596
 31
0.0
  0
LINE
  8
0
  6
CONTINUOUS
 62
     1
 10
283.464825201
 20
757.633974596
 30
0.0
 11
283.464825201
 21
751.975194596
 31
0.0
  0
LINE
  8
0
  6
CONTINUOUS
 62
     1
 10
283.464825201
 20
763.292754596
 30
0.0
 11
284.524424603
 21
765.128034596
 31
0.0
  0
LINE
  8
0
  6
CONTINUOUS
 62
     1
 10
283.464825201
 20
757.633974596
 30
0.0
 11
283.464825201
 21
763.292754596
 31
0.0
  0
ARC
  8
0
  6
CONTINUOUS
 62
     1
 10
290.619880538
 20
757.633974596
 30
0.0
 40
7.155055337
 50
148.419912243
 51
211.580087757
  0
ARC
  8
0
  6
CONTINUOUS
 62
     1
 10
285.650248968
 20
752.013429596
 30
0.0
 40
2.185758211
 50
121.002313915
 51
182.989498403
  0
LINE
  8
0
  6
CONTINUOUS
 62
     1
 10
283.464825201
 20
763.292754596
 30
0.0
 11
284.524424603
 21
765.128034596
 31
0.0
  0
ARC
  8
0
  6
CONTINUOUS
 62
     1
 10
285.650248968
 20
763.254519596
 30
0.0
 40
2.185758211
 50
177.010501597
 51
238.997686085
  0
LINE
  8
0
  6
CONTINUOUS
 62
     1
 10
288.964725201
 20
750.139914596
 30
0.0
 11
284.524424603
 21
750.139914596
 31
0.0
  0
LINE
  8
0
  6
CONTINUOUS
 62
     1
 10
288.964725201
 20
753.886944596
 30
0.0
 11
284.524424603
 21
753.886944596
 31
0.0
  0
LINE
  8
0
  6
CONTINUOUS
 62
     1
 10
288.964725201
 20
761.381004596
 30
0.0
 11
284.524424603
 21
761.381004596
 31
0.0
  0
LINE
  8
0
  6
CONTINUOUS
 62
     1
 10
288.964725201
 20
765.128034596
 30
0.0
 11
284.524424603
 21
765.128034596
 31
0.0
  0
LINE
  8
0
  6
CONTINUOUS
 62
     1
 10
400.964725201
 20
690.533974596
 30
0.0
 11
400.964725201
 21
890.533974596
 31
0.0
  0
LINE
  8
0
  6
CONTINUOUS
 62
     1
 10
400.964725201
 20
689.833974596
 30
0.0
 11
400.964725201
 21
889.833974596
 31
0.0
  0
LINE
  8
0
  6
LTYPE3
 62
     2
 10
348.039725201
 20
920.633974596
 30
0.0
 11
413.039725201
 21
920.633974596
 31
0.0
  0
LINE
  8
0
  6
LTYPE3
 62
     2
 10
380.964725201
 20
873.633974596
 30
0.0
 11
380.964725201
 21
953.333974596
 31
0.0
  0
LINE
  8
0
  6
LTYPE3
 62
     2
 10
275.364725201
 20
539.633974596
 30
0.0
 11
324.064725201
 21
539.633974596
 31
0.0
  0
LINE
  8
0
  6
LTYPE3
 62
     2
 10
275.964725201
 20
689.633974596
 30
0.0
 11
324.064725201
 21
689.633974596
 31
0.0
  0
LINE
  8
0
  6
LTYPE3
 62
     2
 10
277.864725201
 20
757.633974596
 30
0.0
 11
302.464725201
 21
757.633974596
 31
0.0
  0
LINE
  8
0
  6
CONTINUOUS
 62
     2
 10
281.464725201
 20
807.033974596
 30
0.0
 11
279.984370258
 21
819.446007034
 31
0.0
  0
LINE
  8
0
  6
CONTINUOUS
 62
     2
 10
281.464725201
 20
807.033974596
 30
0.0
 11
273.976683995
 21
817.042932529
 31
0.0
  0
LINE
  8
0
  6
CONTINUOUS
 62
     2
 10
281.464725201
 20
807.033974596
 30
0.0
 11
231.464725201
 21
932.033974596
 31
0.0
  0
LINE
  8
0
  6
LTYPE3
 62
     2
 10
485.964725201
 20
571.633974596
 30
0.0
 11
485.964725201
 21
661.633974596
 31
0.0
  0
LINE
  8
0
  6
LTYPE3
 62
     2
 10
485.964725201
 20
571.633974596
 30
0.0
 11
485.964725201
 21
661.633974596
 31
0.0
  0
CIRCLE
  8
0
  6
CONTINUOUS
 62
     1
 10
485.964725201
 20
614.633974596
 30
0.0
 40
12.5
  0
CIRCLE
  8
0
  6
CONTINUOUS
 62
     1
 10
485.964725201
 20
614.633974596
 30
0.0
 40
23.0
  0
CIRCLE
  8
0
  6
CONTINUOUS
 62
     1
 10
485.964725201
 20
614.633974596
 30
0.0
 40
27.5
  0
LINE
  8
0
  6
CONTINUOUS
 62
     1
 10
523.964725201
 20
548.633974596
 30
0.0
 11
597.964725201
 21
548.633974596
 31
0.0
  0
LINE
  8
0
  6
CONTINUOUS
 62
     1
 10
605.964725201
 20
554.633974596
 30
0.0
 11
605.964725201
 21
674.633974596
 31
0.0
  0
LINE
  8
0
  6
CONTINUOUS
 62
     1
 10
415.964725201
 20
547.633974596
 30
0.0
 11
415.964725201
 21
681.633974596
 31
0.0
  0
LINE
  8
0
  6
CONTINUOUS
 62
     1
 10
400.964725201
 20
547.633974596
 30
0.0
 11
415.964725201
 21
547.633974596
 31
0.0
  0
LINE
  8
0
  6
CONTINUOUS
 62
     1
 10
400.964725201
 20
681.633974596
 30
0.0
 11
415.964725201
 21
681.633974596
 31
0.0
  0
LINE
  8
0
  6
CONTINUOUS
 62
     1
 10
415.964725201
 20
674.633974596
 30
0.0
 11
605.964725201
 21
674.633974596
 31
0.0
  0
LINE
  8
0
  6
CONTINUOUS
 62
     1
 10
597.964725201
 20
554.633974596
 30
0.0
 11
605.964725201
 21
554.633974596
 31
0.0
  0
LINE
  8
0
  6
CONTINUOUS
 62
     1
 10
415.964725201
 20
554.633974596
 30
0.0
 11
523.964725201
 21
554.633974596
 31
0.0
  0
LINE
  8
0
  6
LTYPE3
 62
     2
 10
560.964725201
 20
533.133974596
 30
0.0
 11
560.964725201
 21
559.633974596
 31
0.0
  0
LINE
  8
0
  6
CONTINUOUS
 62
     1
 10
606.964725201
 20
547.133974596
 30
0.0
 11
606.964725201
 21
546.133974596
 31
0.0
  0
ARC
  8
0
  6
CONTINUOUS
 62
     1
 10
519.964725201
 20
544.133974596
 30
0.0
 40
3.0
 50
90.0
 51
180.0
  0
LINE
  8
0
  6
CONTINUOUS
 62
     1
 10
645.964725201
 20
504.133974596
 30
0.0
 11
516.964725201
 21
504.133974596
 31
0.0
  0
LINE
  8
0
  6
CONTINUOUS
 62
     1
 10
606.964725201
 20
546.133974596
 30
0.0
 11
642.964725201
 21
546.133974596
 31
0.0
  0
ARC
  8
0
  6
CONTINUOUS
 62
     1
 10
642.964725201
 20
543.133974596
 30
0.0
 40
3.0
 50
0.0
 51
90.0
  0
LINE
  8
0
  6
CONTINUOUS
 62
     1
 10
645.964725201
 20
502.633974596
 30
0.0
 11
516.964725201
 21
502.633974596
 31
0.0
  0
LINE
  8
0
  6
CONTINUOUS
 62
     1
 10
645.964725201
 20
497.633974596
 30
0.0
 11
645.964725201
 21
543.133974596
 31
0.0
  0
ARC
  8
0
  6
CONTINUOUS
 62
     1
 10
644.964725201
 20
497.633974596
 30
0.0
 40
1.0
 50
270.0
 51
0.0
  0
LINE
  8
0
  6
CONTINUOUS
 62
     1
 10
642.964725201
 20
496.633974596
 30
0.0
 11
642.964725201
 21
496.633974596
 31
0.0
  0
ARC
  8
0
  6
CONTINUOUS
 62
     1
 10
641.964725201
 20
496.633974596
 30
0.0
 40
1.0
 50
270.0
 51
0.0
  0
LINE
  8
0
  6
CONTINUOUS
 62
     1
 10
516.964725201
 20
497.633974596
 30
0.0
 11
516.964725201
 21
544.133974596
 31
0.0
  0
LINE
  8
0
  6
CONTINUOUS
 62
     1
 10
644.964725201
 20
496.633974596
 30
0.0
 11
517.964725201
 21
496.633974596
 31
0.0
  0
ARC
  8
0
  6
CONTINUOUS
 62
     1
 10
517.964725201
 20
497.633974596
 30
0.0
 40
1.0
 50
180.0
 51
270.0
  0
ARC
  8
0
  6
CONTINUOUS
 62
     1
 10
520.964725201
 20
496.633974596
 30
0.0
 40
1.0
 50
180.0
 51
270.0
  0
LINE
  8
0
  6
CONTINUOUS
 62
     1
 10
641.964725201
 20
495.633974596
 30
0.0
 11
521.064725201
 21
495.633974596
 31
0.0
  0
LINE
  8
0
  6
CONTINUOUS
 62
     1
 10
519.964725201
 20
547.133974596
 30
0.0
 11
606.964725201
 21
547.133974596
 31
0.0
  0
LINE
  8
0
  6
CONTINUOUS
 62
     1
 10
523.964725201
 20
547.133974596
 30
0.0
 11
523.964725201
 21
589.133974596
 31
0.0
  0
LINE
  8
0
  6
CONTINUOUS
 62
     1
 10
597.964725201
 20
547.133974596
 30
0.0
 11
597.964725201
 21
589.133974596
 31
0.0
  0
LINE
  8
0
  6
CONTINUOUS
 62
     1
 10
605.964725201
 20
672.633974596
 30
0.0
 11
614.964725201
 21
672.633974596
 31
0.0
  0
LINE
  8
0
  6
CONTINUOUS
 62
     1
 10
605.964725201
 20
675.633974596
 30
0.0
 11
614.964725201
 21
675.633974596
 31
0.0
  0
LINE
  8
0
  6
CONTINUOUS
 62
     1
 10
605.964725201
 20
619.633974596
 30
0.0
 11
614.964725201
 21
619.633974596
 31
0.0
  0
LINE
  8
0
  6
CONTINUOUS
 62
     1
 10
605.964725201
 20
609.633974596
 30
0.0
 11
614.964725201
 21
609.633974596
 31
0.0
  0
LINE
  8
0
  6
CONTINUOUS
 62
     1
 10
605.964725201
 20
556.633974596
 30
0.0
 11
614.964725201
 21
556.633974596
 31
0.0
  0
LINE
  8
0
  6
CONTINUOUS
 62
     1
 10
605.964725201
 20
553.633974596
 30
0.0
 11
614.964725201
 21
553.633974596
 31
0.0
  0
LINE
  8
0
  6
CONTINUOUS
 62
     1
 10
614.964725201
 20
554.633974596
 30
0.0
 11
614.964725201
 21
674.633974596
 31
0.0
  0
LINE
  8
0
  6
LTYPE1
 62
     2
 10
645.964725201
 20
530.433974596
 30
0.0
 11
635.964725201
 21
530.433974596
 31
0.0
  0
LINE
  8
0
  6
LTYPE1
 62
     2
 10
645.964725201
 20
531.633974596
 30
0.0
 11
635.964725201
 21
531.633974596
 31
0.0
  0
LINE
  8
0
  6
LTYPE1
 62
     2
 10
645.964725201
 20
511.833974596
 30
0.0
 11
635.964725201
 21
511.833974596
 31
0.0
  0
LINE
  8
0
  6
LTYPE1
 62
     2
 10
645.964725201
 20
510.633974596
 30
0.0
 11
635.964725201
 21
510.633974596
 31
0.0
  0
LINE
  8
0
  6
CONTINUOUS
 62
     1
 10
400.964725201
 20
689.833974596
 30
0.0
 11
400.964725201
 21
889.833974596
 31
0.0
  0
LINE
  8
7
  6
CONTINUOUS
 62
     2
 10
485.964725201
 20
387.133974596
 30
0.0
 11
485.964725201
 21
388.133974596
 31
0.0
  0
LINE
  8
0
  6
LTYPE2
 62
     2
 10
652.164725201
 20
521.133974596
 30
0.0
 11
632.464725201
 21
521.133974596
 31
0.0
  0
LINE
  8
0
  6
CONTINUOUS
 62
     1
 10
400.964725201
 20
690.369974596
 30
0.0
 11
400.964725201
 21
714.769974596
 31
0.0
  0
LINE
  8
0
  6
CONTINUOUS
 62
     1
 10
400.964725201
 20
714.769974596
 30
0.0
 11
400.964725201
 21
886.169974596
 31
0.0
  0
LINE
  8
0
  6
CONTINUOUS
 62
     1
 10
400.964725201
 20
714.769974596
 30
0.0
 11
400.964725201
 21
890.369974596
 31
0.0
  0
LINE
  8
0
  6
CONTINUOUS
 62
     1
 10
412.964725201
 20
873.145702686
 30
0.0
 11
465.636861156
 21
873.145702686
 31
0.0
  0
LINE
  8
0
  6
CONTINUOUS
 62
     1
 10
412.964725201
 20
707.794246506
 30
0.0
 11
465.636861156
 21
707.794246506
 31
0.0
  0
LINE
  8
0
  6
CONTINUOUS
 62
     1
 10
415.464725201
 20
848.805974596
 30
0.0
 11
415.464725201
 21
858.605974596
 31
0.0
  0
LINE
  8
0
  6
CONTINUOUS
 62
     1
 10
415.464725201
 20
858.605974596
 30
0.0
 11
421.079084555
 21
858.605974596
 31
0.0
  0
LINE
  8
0
  6
CONTINUOUS
 62
     1
 10
422.464725201
 20
856.205974596
 30
0.0
 11
421.079084555
 21
858.605974596
 31
0.0
  0
LINE
  8
0
  6
CONTINUOUS
 62
     1
 10
422.464725201
 20
848.805974596
 30
0.0
 11
422.464725201
 21
856.205974596
 31
0.0
  0
LINE
  8
0
  6
CONTINUOUS
 62
     1
 10
415.464725201
 20
853.705974596
 30
0.0
 11
421.079084555
 21
853.705974596
 31
0.0
  0
LINE
  8
0
  6
CONTINUOUS
 62
     1
 10
415.464725201
 20
848.805974596
 30
0.0
 11
415.464725201
 21
839.005974596
 31
0.0
  0
LINE
  8
0
  6
CONTINUOUS
 62
     1
 10
415.464725201
 20
839.005974596
 30
0.0
 11
421.079084555
 21
839.005974596
 31
0.0
  0
LINE
  8
0
  6
CONTINUOUS
 62
     1
 10
422.464725201
 20
841.405974596
 30
0.0
 11
421.079084555
 21
839.005974596
 31
0.0
  0
LINE
  8
0
  6
CONTINUOUS
 62
     1
 10
422.464725201
 20
848.805974596
 30
0.0
 11
422.464725201
 21
841.405974596
 31
0.0
  0
LINE
  8
0
  6
CONTINUOUS
 62
     1
 10
415.464725201
 20
843.905974596
 30
0.0
 11
421.079084555
 21
843.905974596
 31
0.0
  0
ARC
  8
0
  6
CONTINUOUS
 62
     1
 10
413.108042401
 20
848.805974596
 30
0.0
 40
9.3566828
 50
328.419912243
 51
31.580087757
  0
ARC
  8
0
  6
CONTINUOUS
 62
     1
 10
419.606841368
 20
856.155974596
 30
0.0
 40
2.858321186
 50
301.002313915
 51
2.989498403
  0
LINE
  8
0
  6
CONTINUOUS
 62
     1
 10
422.464725201
 20
841.405974596
 30
0.0
 11
421.079084555
 21
839.005974596
 31
0.0
  0
ARC
  8
0
  6
CONTINUOUS
 62
     1
 10
419.606841368
 20
841.455974596
 30
0.0
 40
2.858321186
 50
357.010501597
 51
58.997686085
  0
LINE
  8
0
  6
CONTINUOUS
 62
     1
 10
412.964725201
 20
858.005974596
 30
0.0
 11
415.464725201
 21
858.005974596
 31
0.0
  0
LINE
  8
0
  6
CONTINUOUS
 62
     1
 10
412.964725201
 20
848.805974596
 30
0.0
 11
415.464725197
 21
851.305974592
 31
0.0
  0
LINE
  8
0
  6
CONTINUOUS
 62
     1
 10
415.464725197
 20
848.805974596
 30
0.0
 11
412.964725201
 21
846.3059746
 31
0.0
  0
LINE
  8
0
  6
CONTINUOUS
 62
     1
 10
412.964725201
 20
839.605974596
 30
0.0
 11
415.464725201
 21
839.605974596
 31
0.0
  0
LINE
  8
0
  6
CONTINUOUS
 62
     1
 10
415.464725201
 20
732.133974596
 30
0.0
 11
415.464725201
 21
722.333974596
 31
0.0
  0
LINE
  8
0
  6
CONTINUOUS
 62
     1
 10
415.464725201
 20
722.333974596
 30
0.0
 11
421.079084555
 21
722.333974596
 31
0.0
  0
LINE
  8
0
  6
CONTINUOUS
 62
     1
 10
422.464725201
 20
724.733974596
 30
0.0
 11
421.079084555
 21
722.333974596
 31
0.0
  0
LINE
  8
0
  6
CONTINUOUS
 62
     1
 10
422.464725201
 20
732.133974596
 30
0.0
 11
422.464725201
 21
724.733974596
 31
0.0
  0
LINE
  8
0
  6
CONTINUOUS
 62
     1
 10
415.464725201
 20
727.233974596
 30
0.0
 11
421.079084555
 21
727.233974596
 31
0.0
  0
LINE
  8
0
  6
CONTINUOUS
 62
     1
 10
415.464725201
 20
732.133974596
 30
0.0
 11
415.464725201
 21
741.933974596
 31
0.0
  0
LINE
  8
0
  6
CONTINUOUS
 62
     1
 10
415.464725201
 20
741.933974596
 30
0.0
 11
421.079084555
 21
741.933974596
 31
0.0
  0
LINE
  8
0
  6
CONTINUOUS
 62
     1
 10
422.464725201
 20
739.533974596
 30
0.0
 11
421.079084555
 21
741.933974596
 31
0.0
  0
LINE
  8
0
  6
CONTINUOUS
 62
     1
 10
422.464725201
 20
732.133974596
 30
0.0
 11
422.464725201
 21
739.533974596
 31
0.0
  0
LINE
  8
0
  6
CONTINUOUS
 62
     1
 10
415.464725201
 20
737.033974596
 30
0.0
 11
421.079084555
 21
737.033974596
 31
0.0
  0
ARC
  8
0
  6
CONTINUOUS
 62
     1
 10
413.108042401
 20
732.133974596
 30
0.0
 40
9.3566828
 50
328.419912243
 51
31.580087757
  0
ARC
  8
0
  6
CONTINUOUS
 62
     1
 10
419.606841368
 20
724.783974596
 30
0.0
 40
2.858321186
 50
357.010501597
 51
58.997686085
  0
LINE
  8
0
  6
CONTINUOUS
 62
     1
 10
422.464725201
 20
739.533974596
 30
0.0
 11
421.079084555
 21
741.933974596
 31
0.0
  0
ARC
  8
0
  6
CONTINUOUS
 62
     1
 10
419.606841368
 20
739.483974596
 30
0.0
 40
2.858321186
 50
301.002313915
 51
2.989498403
  0
LINE
  8
0
  6
CONTINUOUS
 62
     1
 10
412.964725201
 20
722.933974596
 30
0.0
 11
415.464725201
 21
722.933974596
 31
0.0
  0
LINE
  8
0
  6
CONTINUOUS
 62
     1
 10
412.964725201
 20
732.133974596
 30
0.0
 11
415.464725197
 21
729.6339746
 31
0.0
  0
LINE
  8
0
  6
CONTINUOUS
 62
     1
 10
415.464725197
 20
732.133974596
 30
0.0
 11
412.964725201
 21
734.633974592
 31
0.0
  0
LINE
  8
0
  6
CONTINUOUS
 62
     1
 10
412.964725201
 20
741.333974596
 30
0.0
 11
415.464725201
 21
741.333974596
 31
0.0
  0
LINE
  8
0
  6
CONTINUOUS
 62
     1
 10
622.964725201
 20
850.469974596
 30
0.0
 11
475.964725201
 21
850.469974596
 31
0.0
  0
LINE
  8
0
  6
CONTINUOUS
 62
     1
 10
622.964725201
 20
830.469974596
 30
0.0
 11
475.964725201
 21
830.469974596
 31
0.0
  0
LINE
  8
0
  6
CONTINUOUS
 62
     1
 10
622.964725201
 20
810.469974596
 30
0.0
 11
475.964725201
 21
810.469974596
 31
0.0
  0
LINE
  8
0
  6
CONTINUOUS
 62
     1
 10
622.964725201
 20
770.469974596
 30
0.0
 11
475.964725201
 21
770.469974596
 31
0.0
  0
LINE
  8
0
  6
CONTINUOUS
 62
     1
 10
622.964725201
 20
750.469974596
 30
0.0
 11
475.964725201
 21
750.469974596
 31
0.0
  0
LINE
  8
0
  6
CONTINUOUS
 62
     1
 10
622.964725201
 20
730.469974596
 30
0.0
 11
475.964725201
 21
730.469974596
 31
0.0
  0
LINE
  8
0
  6
CONTINUOUS
 62
     1
 10
622.964725201
 20
710.469974596
 30
0.0
 11
475.964725201
 21
710.469974596
 31
0.0
  0
LINE
  8
0
  6
CONTINUOUS
 62
     1
 10
412.964725201
 20
690.469974596
 30
0.0
 11
412.964725201
 21
890.469974596
 31
0.0
  0
LINE
  8
0
  6
CONTINUOUS
 62
     1
 10
757.706242475
 20
806.418075862
 30
0.0
 11
757.706242475
 21
737.418075862
 31
0.0
  0
POINT
  8
0
  6
CONTINUOUS
 62
     1
 10
757.706242475
 20
737.418075862
 30
0.0
  0
LINE
  8
0
  6
CONTINUOUS
 62
     1
 10
757.706242475
 20
737.418075862
 30
0.0
 11
762.706242475
 21
737.418075862
 31
0.0
  0
POINT
  8
0
  6
CONTINUOUS
 62
     1
 10
762.706242475
 20
737.418075862
 30
0.0
  0
LINE
  8
0
  6
CONTINUOUS
 62
     1
 10
762.706242475
 20
737.418075862
 30
0.0
 11
762.706242475
 21
806.418075862
 31
0.0
  0
LINE
  8
0
  6
CONTINUOUS
 62
     1
 10
757.706242475
 20
806.418075862
 30
0.0
 11
767.506242475
 21
806.418075862
 31
0.0
  0
LINE
  8
0
  6
CONTINUOUS
 62
     1
 10
767.506242475
 20
774.52187333
 30
0.0
 11
767.506242475
 21
806.418075862
 31
0.0
  0
LINE
  8
0
  6
CONTINUOUS
 62
     1
 10
762.706242475
 20
774.52187333
 30
0.0
 11
767.506242475
 21
774.52187333
 31
0.0
  0
LINE
  8
0
  6
CONTINUOUS
 62
     1
 10
757.706242475
 20
794.669974596
 30
0.0
 11
751.006242475
 21
794.669974596
 31
0.0
  0
LINE
  8
0
  6
CONTINUOUS
 62
     1
 10
757.706242475
 20
786.269974596
 30
0.0
 11
751.006242475
 21
786.269974596
 31
0.0
  0
LINE
  8
0
  6
CONTINUOUS
 62
     1
 10
762.706242475
 20
750.219974596
 30
0.0
 11
768.106242475
 21
750.219974596
 31
0.0
  0
POINT
  8
0
  6
CONTINUOUS
 62
     1
 10
768.106242475
 20
750.219974596
 30
0.0
  0
LINE
  8
0
  6
CONTINUOUS
 62
     1
 10
768.106242475
 20
750.219974596
 30
0.0
 11
768.106242475
 21
741.419974596
 31
0.0
  0
POINT
  8
0
  6
CONTINUOUS
 62
     1
 10
768.106242475
 20
741.419974596
 30
0.0
  0
LINE
  8
0
  6
CONTINUOUS
 62
     1
 10
768.106242475
 20
741.419974596
 30
0.0
 11
762.806242475
 21
741.419974596
 31
0.0
  0
LINE
  8
0
  6
CONTINUOUS
 62
     1
 10
757.706242475
 20
747.419974596
 30
0.0
 11
748.806242475
 21
747.419974596
 31
0.0
  0
LINE
  8
0
  6
CONTINUOUS
 62
     1
 10
757.706242475
 20
744.319974596
 30
0.0
 11
748.506242475
 21
744.319974596
 31
0.0
  0
LINE
  8
0
  6
CONTINUOUS
 62
     1
 10
767.506242475
 20
803.869974596
 30
0.0
 11
770.964725201
 21
803.869974596
 31
0.0
  0
LINE
  8
0
  6
CONTINUOUS
 62
     1
 10
770.964725201
 20
803.869974596
 30
0.0
 11
770.964725201
 21
799.269974596
 31
0.0
  0
LINE
  8
0
  6
CONTINUOUS
 62
     1
 10
767.506242475
 20
799.269974596
 30
0.0
 11
770.964725201
 21
799.269974596
 31
0.0
  0
LINE
  8
0
  6
CONTINUOUS
 62
     1
 10
767.506242475
 20
777.069974596
 30
0.0
 11
770.964725201
 21
777.069974596
 31
0.0
  0
LINE
  8
0
  6
CONTINUOUS
 62
     1
 10
770.964725201
 20
777.069974596
 30
0.0
 11
770.964725201
 21
781.669974596
 31
0.0
  0
LINE
  8
0
  6
CONTINUOUS
 62
     1
 10
767.506242475
 20
781.669974596
 30
0.0
 11
770.964725201
 21
781.669974596
 31
0.0
  0
LINE
  8
0
  6
CONTINUOUS
 62
     1
 10
767.506242475
 20
788.169974596
 30
0.0
 11
770.964725201
 21
788.169974596
 31
0.0
  0
LINE
  8
0
  6
CONTINUOUS
 62
     1
 10
770.964725201
 20
788.169974596
 30
0.0
 11
770.964725201
 21
792.769974596
 31
0.0
  0
LINE
  8
0
  6
CONTINUOUS
 62
     1
 10
767.506242475
 20
792.769974596
 30
0.0
 11
770.964725201
 21
792.769974596
 31
0.0
  0
LINE
  8
0
  6
LTYPE2
 62
     2
 10
743.806242475
 20
745.919974596
 30
0.0
 11
773.806242475
 21
745.919974596
 31
0.0
  0
LINE
  8
0
  6
CONTINUOUS
 62
     1
 10
622.964725201
 20
870.469974596
 30
0.0
 11
475.964725201
 21
870.469974596
 31
0.0
  0
LINE
  8
0
  6
CONTINUOUS
 62
     1
 10
639.464725201
 20
903.469974596
 30
0.0
 11
639.464725201
 21
943.469974596
 31
0.0
  0
LINE
  8
0
  6
CONTINUOUS
 62
     1
 10
620.464725201
 20
978.469974596
 30
0.0
 11
472.464725201
 21
904.469974596
 31
0.0
  0
LINE
  8
0
  6
CONTINUOUS
 62
     1
 10
624.936861156
 20
969.525702686
 30
0.0
 11
476.936861156
 21
895.525702686
 31
0.0
  0
ARC
  8
0
  6
CONTINUOUS
 62
     1
 10
594.464725201
 20
902.469974596
 30
0.0
 40
10.0
 50
270.0
 51
0.0
  0
ARC
  8
0
  6
CONTINUOUS
 62
     1
 10
594.464725201
 20
968.469974596
 30
0.0
 40
10.0
 50
0.0
 51
90.0
  0
LINE
  8
0
  6
CONTINUOUS
 62
     1
 10
594.464725201
 20
978.469974596
 30
0.0
 11
504.464725201
 21
978.469974596
 31
0.0
  0
ARC
  8
0
  6
CONTINUOUS
 62
     1
 10
504.464725201
 20
968.469974596
 30
0.0
 40
10.0
 50
90.0
 51
180.0
  0
LINE
  8
0
  6
CONTINUOUS
 62
     1
 10
594.464725201
 20
892.469974596
 30
0.0
 11
504.464725201
 21
892.469974596
 31
0.0
  0
ARC
  8
0
  6
CONTINUOUS
 62
     1
 10
504.464725201
 20
902.469974596
 30
0.0
 40
10.0
 50
180.0
 51
270.0
  0
LINE
  8
0
  6
CONTINUOUS
 62
     1
 10
472.464725201
 20
904.469974596
 30
0.0
 11
476.936861156
 21
895.525702686
 31
0.0
  0
LINE
  8
0
  6
CONTINUOUS
 62
     1
 10
494.464725201
 20
915.385702686
 30
0.0
 11
494.464725201
 21
968.469974596
 31
0.0
  0
LINE
  8
0
  6
CONTINUOUS
 62
     1
 10
494.464725201
 20
902.469974596
 30
0.0
 11
494.464725201
 21
904.385702686
 31
0.0
  0
LINE
  8
0
  6
CONTINUOUS
 62
     1
 10
604.464725201
 20
902.469974596
 30
0.0
 11
604.464725201
 21
958.385702686
 31
0.0
  0
LINE
  8
0
  6
CONTINUOUS
 62
     1
 10
620.676861156
 20
979.265702686
 30
0.0
 11
625.476861156
 21
970.065702686
 31
0.0
  0
LINE
  8
0
  6
CONTINUOUS
 62
     1
 10
639.464725201
 20
943.469974596
 30
0.0
 11
604.464725201
 21
943.469974596
 31
0.0
  0
LINE
  8
0
  6
CONTINUOUS
 62
     1
 10
639.464725201
 20
903.469974596
 30
0.0
 11
604.464725201
 21
903.469974596
 31
0.0
  0
LINE
  8
0
  6
LTYPE2
 62
     2
 10
645.616861156
 20
923.469974596
 30
0.0
 11
594.516861156
 21
923.469974596
 31
0.0
  0
LINE
  8
0
  6
LTYPE2
 62
     2
 10
549.464725201
 20
879.219974596
 30
0.0
 11
549.464725201
 21
988.269974596
 31
0.0
  0
LINE
  8
0
  6
CONTINUOUS
 62
     1
 10
632.964725201
 20
890.469974596
 30
0.0
 11
728.779113794
 21
890.469974596
 31
0.0
  0
ARC
  8
0
  6
CONTINUOUS
 62
     1
 10
726.779113794
 20
875.469974596
 30
0.0
 40
15.0
 50
10.945397096
 51
90.0
  0
ARC
  8
0
  6
CONTINUOUS
 62
     1
 10
726.888239118
 20
878.163914968
 30
0.0
 40
15.0
 50
10.945397096
 51
90.0
  0
LINE
  8
0
  6
CONTINUOUS
 62
     1
 10
632.964725201
 20
892.969974596
 30
0.0
 11
728.779113794
 21
892.969974596
 31
0.0
  0
ARC
  8
0
  6
CONTINUOUS
 62
     1
 10
726.779113794
 20
705.469974596
 30
0.0
 40
15.0
 50
270.0
 51
349.054602904
  0
ARC
  8
0
  6
CONTINUOUS
 62
     1
 10
340.964725201
 20
790.469974596
 30
0.0
 40
410.0
 50
347.629566941
 51
12.370433059
  0
LINE
  8
0
  6
CONTINUOUS
 62
     1
 10
632.964725201
 20
881.169974596
 30
0.0
 11
465.964725201
 21
881.169974596
 31
0.0
  0
LINE
  8
0
  6
CONTINUOUS
 62
     1
 10
465.964725201
 20
699.769974596
 30
0.0
 11
465.964725201
 21
881.169974596
 31
0.0
  0
LINE
  8
0
  6
CONTINUOUS
 62
     1
 10
584.364725201
 20
892.469974596
 30
0.0
 11
584.364725201
 21
881.169974596
 31
0.0
  0
LINE
  8
0
  6
CONTINUOUS
 62
     1
 10
514.564725201
 20
892.469974596
 30
0.0
 11
514.564725201
 21
881.169974596
 31
0.0
  0
ARC
  8
0
  6
CONTINUOUS
 62
     1
 10
740.839705664
 20
800.469974596
 30
0.0
 40
10.0
 50
1.432543738
 51
90.0
  0
ARC
  8
0
  6
CONTINUOUS
 62
     1
 10
740.839705664
 20
780.469974596
 30
0.0
 40
10.0
 50
270.0
 51
358.567456262
  0
LINE
  8
0
  6
CONTINUOUS
 62
     1
 10
740.839724352
 20
810.469974596
 30
0.0
 11
632.964725201
 21
810.469974596
 31
0.0
  0
LINE
  8
0
  6
CONTINUOUS
 62
     1
 10
632.964725201
 20
770.469974596
 30
0.0
 11
741.339724352
 21
770.469974596
 31
0.0
  0
LINE
  8
0
  6
CONTINUOUS
 62
     1
 10
412.964725201
 20
890.469974596
 30
0.0
 11
400.964725201
 21
890.469974596
 31
0.0
  0
LINE
  8
0
  6
CONTINUOUS
 62
     1
 10
412.964725201
 20
690.469974596
 30
0.0
 11
400.964725201
 21
690.469974596
 31
0.0
  0
LINE
  8
0
  6
CONTINUOUS
 62
     1
 10
632.964725201
 20
699.769974596
 30
0.0
 11
465.964725201
 21
699.769974596
 31
0.0
  0
ARC
  8
0
  6
CONTINUOUS
 62
     1
 10
726.888239118
 20
702.776034225
 30
0.0
 40
15.0
 50
270.0
 51
349.054602904
  0
LINE
  8
0
  6
CONTINUOUS
 62
     1
 10
632.964725201
 20
690.469974596
 30
0.0
 11
728.779113794
 21
690.469974596
 31
0.0
  0
LINE
  8
0
  6
CONTINUOUS
 62
     1
 10
632.964725201
 20
687.969974596
 30
0.0
 11
728.779113794
 21
687.969974596
 31
0.0
  0
LINE
  8
0
  6
CONTINUOUS
 62
     1
 10
632.964725201
 20
687.969974596
 30
0.0
 11
632.964725201
 21
892.969974596
 31
0.0
  0
LINE
  8
2
  6
CONTINUOUS
 62
     2
 10
640.464725201
 20
929.869974596
 30
0.0
 11
649.211378082
 21
947.855970909
 31
0.0
  0
LINE
  8
2
  6
CONTINUOUS
 62
     2
 10
640.464725201
 20
929.869974596
 30
0.0
 11
639.046550638
 21
949.819630756
 31
0.0
  0
LINE
  8
2
  6
CONTINUOUS
 62
     2
 10
640.464725201
 20
929.869974596
 30
0.0
 11
648.964725201
 21
973.869974596
 31
0.0
  0
LINE
  8
0
  6
LTYPE2
 62
     2
 10
405.464725201
 20
848.805974596
 30
0.0
 11
431.079084555
 21
848.805974596
 31
0.0
  0
LINE
  8
0
  6
LTYPE2
 62
     2
 10
405.464725201
 20
732.133974596
 30
0.0
 11
431.079084555
 21
732.133974596
 31
0.0
  0
LINE
  8
2
  6
CONTINUOUS
 62
     2
 10
763.640353236
 20
807.324942545
 30
0.0
 11
770.694024695
 21
817.644618845
 31
0.0
  0
LINE
  8
2
  6
CONTINUOUS
 62
     2
 10
763.640353236
 20
807.324942545
 30
0.0
 11
764.58917376
 21
819.78888011
 31
0.0
  0
LINE
  8
2
  6
CONTINUOUS
 62
     2
 10
763.640353236
 20
807.324942545
 30
0.0
 11
821.364725201
 21
971.669974596
 31
0.0
  0
LINE
  8
0
  6
LTYPE3
 62
     2
 10
259.514725201
 20
790.633974596
 30
0.0
 11
781.964725201
 21
790.633974596
 31
0.0
  0
LINE
  8
0
  6
CONTINUOUS
 62
     1
 10
605.964725201
 20
554.633974596
 30
0.0
 11
605.964725201
 21
674.633974596
 31
0.0
  0
LINE
  8
0
  6
CONTINUOUS
 62
     1
 10
415.964725201
 20
674.633974596
 30
0.0
 11
605.964725201
 21
674.633974596
 31
0.0
  0
LINE
  8
0
  6
CONTINUOUS
 62
     1
 10
597.964725201
 20
554.633974596
 30
0.0
 11
605.964725201
 21
554.633974596
 31
0.0
  0
LINE
  8
0
  6
CONTINUOUS
 62
     1
 10
415.964725201
 20
554.633974596
 30
0.0
 11
523.964725201
 21
554.633974596
 31
0.0
  0
LINE
  8
0
  6
CONTINUOUS
 62
     1
 10
523.964725201
 20
547.133974596
 30
0.0
 11
523.964725201
 21
589.133974596
 31
0.0
  0
LINE
  8
0
  6
CONTINUOUS
 62
     1
 10
605.964725201
 20
672.633974596
 30
0.0
 11
614.964725201
 21
672.633974596
 31
0.0
  0
LINE
  8
0
  6
CONTINUOUS
 62
     1
 10
605.964725201
 20
675.633974596
 30
0.0
 11
614.964725201
 21
675.633974596
 31
0.0
  0
LINE
  8
0
  6
CONTINUOUS
 62
     1
 10
605.964725201
 20
619.633974596
 30
0.0
 11
614.964725201
 21
619.633974596
 31
0.0
  0
LINE
  8
0
  6
CONTINUOUS
 62
     1
 10
605.964725201
 20
609.633974596
 30
0.0
 11
614.964725201
 21
609.633974596
 31
0.0
  0
LINE
  8
0
  6
CONTINUOUS
 62
     1
 10
605.964725201
 20
556.633974596
 30
0.0
 11
614.964725201
 21
556.633974596
 31
0.0
  0
LINE
  8
0
  6
CONTINUOUS
 62
     1
 10
605.964725201
 20
553.633974596
 30
0.0
 11
614.964725201
 21
553.633974596
 31
0.0
  0
LINE
  8
0
  6
CONTINUOUS
 62
     1
 10
614.964725201
 20
554.633974596
 30
0.0
 11
614.964725201
 21
674.633974596
 31
0.0
  0
CIRCLE
  8
0
  6
CONTINUOUS
 62
     1
 10
761.889733105
 20
614.633974596
 30
0.0
 40
19.5
  0
LINE
  8
0
  6
CONTINUOUS
 62
     1
 10
741.889733105
 20
634.633974596
 30
0.0
 11
781.889733105
 21
634.633974596
 31
0.0
  0
LINE
  8
0
  6
CONTINUOUS
 62
     1
 10
741.889733105
 20
594.633974596
 30
0.0
 11
781.889733105
 21
594.633974596
 31
0.0
  0
LINE
  8
0
  6
CONTINUOUS
 62
     1
 10
741.889733105
 20
594.633974596
 30
0.0
 11
741.889733105
 21
634.633974596
 31
0.0
  0
LINE
  8
0
  6
LTYPE3
 62
     2
 10
761.889733105
 20
589.533974596
 30
0.0
 11
761.889733105
 21
639.433974596
 31
0.0
  0
LINE
  8
0
  6
CONTINUOUS
 62
     1
 10
820.74722658
 20
669.633974596
 30
0.0
 11
614.964725201
 21
669.633974596
 31
0.0
  0
LINE
  8
2
  6
CONTINUOUS
 62
     2
 10
648.964725201
 20
973.869974596
 30
0.0
 11
766.564725201
 21
973.869974596
 31
0.0
  0
LINE
  8
2
  6
CONTINUOUS
 62
     2
 10
750.564725201
 20
625.633974596
 30
0.0
 11
755.643477015
 21
637.055720523
 31
0.0
  0
LINE
  8
2
  6
CONTINUOUS
 62
     2
 10
750.564725201
 20
625.633974596
 30
0.0
 11
749.252180328
 21
638.064872631
 31
0.0
  0
LINE
  8
2
  6
CONTINUOUS
 62
     2
 10
750.564725201
 20
625.633974596
 30
0.0
 11
753.564725201
 21
644.633974596
 31
0.0
  0
LINE
  8
2
  6
CONTINUOUS
 62
     2
 10
753.564725201
 20
644.633974596
 30
0.0
 11
797.064725201
 21
644.633974596
 31
0.0
  0
LINE
  8
2
  6
CONTINUOUS
 62
     2
 10
400.964725201
 20
1010.133974596
 30
0.0
 11
413.038798029
 21
1006.898736532
 31
0.0
  0
LINE
  8
2
  6
CONTINUOUS
 62
     2
 10
400.964725201
 20
1010.133974596
 30
0.0
 11
413.038798029
 21
1013.36921266
 31
0.0
  0
LINE
  8
2
  6
CONTINUOUS
 62
     2
 10
400.964725201
 20
1010.133974596
 30
0.0
 11
770.964725201
 21
1010.133974596
 31
0.0
  0
LINE
  8
2
  6
CONTINUOUS
 62
     2
 10
770.964725201
 20
1010.133974596
 30
0.0
 11
758.890652372
 21
1013.36921266
 31
0.0
  0
LINE
  8
2
  6
CONTINUOUS
 62
     2
 10
770.964725201
 20
1010.133974596
 30
0.0
 11
758.890652372
 21
1006.898736532
 31
0.0
  0
LINE
  8
2
  6
CONTINUOUS
 62
     2
 10
770.964725201
 20
808.869974596
 30
0.0
 11
770.964725201
 21
1020.133974596
 31
0.0
  0
LINE
  8
2
  6
CONTINUOUS
 62
     2
 10
400.964725201
 20
900.633974596
 30
0.0
 11
400.964725201
 21
1020.133974596
 31
0.0
  0
LINE
  8
2
  6
CONTINUOUS
 62
     2
 10
400.964725201
 20
992.133974596
 30
0.0
 11
400.964725201
 21
1020.133974596
 31
0.0
  0
LINE
  8
0
  6
CONTINUOUS
 62
     2
 10
821.364725201
 20
971.669974596
 30
0.0
 11
921.964725201
 21
971.669974596
 31
0.0
  0
LINE
  8
0
  6
CONTINUOUS
 62
     1
 10
1018.564725201
 20
614.633974596
 30
0.0
 11
1018.564725201
 21
589.633974596
 31
0.0
  0
LINE
  8
0
  6
CONTINUOUS
 62
     1
 10
781.889733105
 20
594.633974596
 30
0.0
 11
781.889733105
 21
634.633974596
 31
0.0
  0
ARC
  8
0
  6
CONTINUOUS
 62
     1
 10
982.134476868
 20
688.633974596
 30
0.0
 40
1.0
 50
90.0
 51
165.0
  0
LINE
  8
0
  6
CONTINUOUS
 62
     1
 10
977.546510832
 20
675.375155551
 30
0.0
 11
981.168551042
 21
688.892793641
 31
0.0
  0
ARC
  8
0
  6
CONTINUOUS
 62
     1
 10
976.580585006
 20
675.633974596
 30
0.0
 40
1.0
 50
270.0
 51
345.0
  0
ARC
  8
0
  6
CONTINUOUS
 62
     1
 10
993.242260593
 20
688.633974596
 30
0.0
 40
1.0
 50
15.0
 51
90.0
  0
ARC
  8
0
  6
CONTINUOUS
 62
     1
 10
993.242260593
 20
688.633974596
 30
0.0
 40
1.0
 50
90.0
 51
165.0
  0
LINE
  8
0
  6
CONTINUOUS
 62
     1
 10
988.654294557
 20
675.375155551
 30
0.0
 11
992.276334767
 21
688.892793641
 31
0.0
  0
ARC
  8
0
  6
CONTINUOUS
 62
     1
 10
987.68836873
 20
675.633974596
 30
0.0
 40
1.0
 50
270.0
 51
345.0
  0
ARC
  8
0
  6
CONTINUOUS
 62
     1
 10
987.68836873
 20
675.633974596
 30
0.0
 40
1.0
 50
195.0
 51
270.0
  0
LINE
  8
0
  6
CONTINUOUS
 62
     1
 10
986.722442904
 20
675.375155551
 30
0.0
 11
983.100402694
 21
688.892793641
 31
0.0
  0
ARC
  8
0
  6
CONTINUOUS
 62
     1
 10
982.134476868
 20
688.633974596
 30
0.0
 40
1.0
 50
15.0
 51
90.0
  0
LINE
  8
0
  6
CONTINUOUS
 62
     1
 10
998.564723852
 20
672.633974596
 30
0.0
 11
994.208186419
 21
688.892793641
 31
0.0
  0
LINE
  8
0
  6
CONTINUOUS
 62
     1
 10
921.789733105
 20
672.633974596
 30
0.0
 11
926.146270538
 21
688.892793641
 31
0.0
  0
ARC
  8
0
  6
CONTINUOUS
 62
     1
 10
927.112196364
 20
688.633974596
 30
0.0
 40
1.0
 50
90.0
 51
165.0
  0
ARC
  8
0
  6
CONTINUOUS
 62
     1
 10
927.112197038
 20
688.633974596
 30
0.0
 40
1.0
 50
15.0
 51
90.0
  0
LINE
  8
0
  6
CONTINUOUS
 62
     1
 10
931.700163074
 20
675.375155551
 30
0.0
 11
928.078122865
 21
688.892793641
 31
0.0
  0
ARC
  8
0
  6
CONTINUOUS
 62
     1
 10
932.666088901
 20
675.633974596
 30
0.0
 40
1.0
 50
195.0
 51
270.0
  0
ARC
  8
0
  6
CONTINUOUS
 62
     1
 10
932.666089575
 20
675.633974596
 30
0.0
 40
1.0
 50
270.0
 51
345.0
  0
LINE
  8
0
  6
CONTINUOUS
 62
     1
 10
933.632015401
 20
675.375155551
 30
0.0
 11
937.254055611
 21
688.892793641
 31
0.0
  0
ARC
  8
0
  6
CONTINUOUS
 62
     1
 10
938.219981437
 20
688.633974596
 30
0.0
 40
1.0
 50
90.0
 51
165.0
  0
ARC
  8
0
  6
CONTINUOUS
 62
     1
 10
938.219981437
 20
688.633974596
 30
0.0
 40
1.0
 50
15.0
 51
90.0
  0
LINE
  8
0
  6
CONTINUOUS
 62
     1
 10
942.807947474
 20
675.375155551
 30
0.0
 11
939.185907264
 21
688.892793641
 31
0.0
  0
ARC
  8
0
  6
CONTINUOUS
 62
     1
 10
943.7738733
 20
675.633974596
 30
0.0
 40
1.0
 50
195.0
 51
270.0
  0
LINE
  8
0
  6
CONTINUOUS
 62
     1
 10
906.789733105
 20
674.633974596
 30
0.0
 11
916.789733105
 21
674.633974596
 31
0.0
  0
LINE
  8
0
  6
CONTINUOUS
 62
     1
 10
916.734476868
 20
672.633974596
 30
0.0
 11
921.789733105
 21
672.633974596
 31
0.0
  0
LINE
  8
0
  6
CONTINUOUS
 62
     1
 10
901.789733105
 20
672.633974596
 30
0.0
 11
906.734476868
 21
672.633974596
 31
0.0
  0
LINE
  8
0
  6
LTYPE4
 62
     2
 10
943.7738733
 20
674.633974596
 30
0.0
 11
976.580585006
 21
674.633974596
 31
0.0
  0
LINE
  8
0
  6
LTYPE4
 62
     2
 10
938.219981437
 20
689.633974596
 30
0.0
 11
982.134476868
 21
689.633974596
 31
0.0
  0
ARC
  8
0
  6
CONTINUOUS
 62
     1
 10
987.68836873
 20
553.633974596
 30
0.0
 40
1.0
 50
15.0
 51
90.0
  0
ARC
  8
0
  6
CONTINUOUS
 62
     1
 10
987.68836873
 20
553.633974596
 30
0.0
 40
1.0
 50
90.0
 51
165.0
  0
LINE
  8
0
  6
CONTINUOUS
 62
     1
 10
986.722442904
 20
553.892793641
 30
0.0
 11
983.100402694
 21
540.375155551
 31
0.0
  0
ARC
  8
0
  6
CONTINUOUS
 62
     1
 10
982.134476868
 20
540.633974596
 30
0.0
 40
1.0
 50
270.0
 51
345.0
  0
ARC
  8
0
  6
CONTINUOUS
 62
     1
 10
982.134476868
 20
540.633974596
 30
0.0
 40
1.0
 50
195.0
 51
270.0
  0
LINE
  8
0
  6
CONTINUOUS
 62
     1
 10
977.546510832
 20
553.892793641
 30
0.0
 11
981.168551042
 21
540.375155551
 31
0.0
  0
ARC
  8
0
  6
CONTINUOUS
 62
     1
 10
976.580585006
 20
553.633974596
 30
0.0
 40
1.0
 50
15.0
 51
90.0
  0
ARC
  8
0
  6
CONTINUOUS
 62
     1
 10
993.242260593
 20
540.633974596
 30
0.0
 40
1.0
 50
270.0
 51
345.0
  0
ARC
  8
0
  6
CONTINUOUS
 62
     1
 10
993.242260593
 20
540.633974596
 30
0.0
 40
1.0
 50
195.0
 51
270.0
  0
LINE
  8
0
  6
CONTINUOUS
 62
     1
 10
988.654294557
 20
553.892793641
 30
0.0
 11
992.276334767
 21
540.375155551
 31
0.0
  0
LINE
  8
0
  6
CONTINUOUS
 62
     1
 10
998.564723852
 20
556.633974596
 30
0.0
 11
994.208186419
 21
540.375155551
 31
0.0
  0
LINE
  8
0
  6
CONTINUOUS
 62
     1
 10
921.789733105
 20
556.633974596
 30
0.0
 11
926.146270538
 21
540.375155551
 31
0.0
  0
ARC
  8
0
  6
CONTINUOUS
 62
     1
 10
927.112196364
 20
540.633974596
 30
0.0
 40
1.0
 50
195.0
 51
270.0
  0
ARC
  8
0
  6
CONTINUOUS
 62
     1
 10
927.112197038
 20
540.633974596
 30
0.0
 40
1.0
 50
270.0
 51
345.0
  0
LINE
  8
0
  6
CONTINUOUS
 62
     1
 10
931.700163074
 20
553.892793641
 30
0.0
 11
928.078122865
 21
540.375155551
 31
0.0
  0
ARC
  8
0
  6
CONTINUOUS
 62
     1
 10
932.666088901
 20
553.633974596
 30
0.0
 40
1.0
 50
90.0
 51
165.0
  0
ARC
  8
0
  6
CONTINUOUS
 62
     1
 10
932.666089575
 20
553.633974596
 30
0.0
 40
1.0
 50
15.0
 51
90.0
  0
LINE
  8
0
  6
CONTINUOUS
 62
     1
 10
933.632015401
 20
553.892793641
 30
0.0
 11
937.254055611
 21
540.375155551
 31
0.0
  0
ARC
  8
0
  6
CONTINUOUS
 62
     1
 10
938.219981437
 20
540.633974596
 30
0.0
 40
1.0
 50
195.0
 51
270.0
  0
ARC
  8
0
  6
CONTINUOUS
 62
     1
 10
938.219981437
 20
540.633974596
 30
0.0
 40
1.0
 50
270.0
 51
345.0
  0
LINE
  8
0
  6
CONTINUOUS
 62
     1
 10
942.807947474
 20
553.892793641
 30
0.0
 11
939.185907264
 21
540.375155551
 31
0.0
  0
ARC
  8
0
  6
CONTINUOUS
 62
     1
 10
943.7738733
 20
553.633974596
 30
0.0
 40
1.0
 50
90.0
 51
165.0
  0
LINE
  8
0
  6
CONTINUOUS
 62
     1
 10
906.789733105
 20
554.633974596
 30
0.0
 11
916.789733105
 21
554.633974596
 31
0.0
  0
LINE
  8
0
  6
CONTINUOUS
 62
     1
 10
916.734476868
 20
556.633974596
 30
0.0
 11
921.789733105
 21
556.633974596
 31
0.0
  0
LINE
  8
0
  6
CONTINUOUS
 62
     1
 10
901.789733105
 20
556.633974596
 30
0.0
 11
916.789733105
 21
556.633974596
 31
0.0
  0
LINE
  8
0
  6
LTYPE4
 62
     2
 10
943.7738733
 20
554.633974596
 30
0.0
 11
976.580585006
 21
554.633974596
 31
0.0
  0
LINE
  8
0
  6
LTYPE4
 62
     2
 10
938.219981437
 20
539.633974596
 30
0.0
 11
982.134476868
 21
539.633974596
 31
0.0
  0
LINE
  8
0
  6
CONTINUOUS
 62
     1
 10
901.789733105
 20
556.633974596
 30
0.0
 11
901.789733105
 21
559.033974596
 31
0.0
  0
LINE
  8
0
  6
CONTINUOUS
 62
     1
 10
906.789733105
 20
554.633974596
 30
0.0
 11
906.789733105
 21
555.933974596
 31
0.0
  0
LINE
  8
0
  6
CONTINUOUS
 62
     1
 10
916.789733105
 20
554.633974596
 30
0.0
 11
916.789733105
 21
556.933974596
 31
0.0
  0
LINE
  8
0
  6
CONTINUOUS
 62
     1
 10
1013.564725201
 20
662.133974596
 30
0.0
 11
1003.564725201
 21
662.133974596
 31
0.0
  0
LINE
  8
0
  6
CONTINUOUS
 62
     1
 10
1018.564725201
 20
660.133974596
 30
0.0
 11
1013.619981437
 21
660.133974596
 31
0.0
  0
LINE
  8
0
  6
CONTINUOUS
 62
     1
 10
1018.564725201
 20
614.633974596
 30
0.0
 11
1018.564725201
 21
660.133974596
 31
0.0
  0
LINE
  8
0
  6
CONTINUOUS
 62
     1
 10
1003.619981437
 20
660.133974596
 30
0.0
 11
998.564723852
 21
660.133974596
 31
0.0
  0
LINE
  8
0
  6
CONTINUOUS
 62
     1
 10
1013.564725201
 20
567.133974596
 30
0.0
 11
1003.564725201
 21
567.133974596
 31
0.0
  0
LINE
  8
0
  6
CONTINUOUS
 62
     1
 10
1018.564725201
 20
569.133974596
 30
0.0
 11
998.564723852
 21
569.133974596
 31
0.0
  0
LINE
  8
0
  6
CONTINUOUS
 62
     1
 10
1018.564725201
 20
569.133974596
 30
0.0
 11
1018.564725201
 21
639.633974596
 31
0.0
  0
LINE
  8
0
  6
CONTINUOUS
 62
     1
 10
1003.564725201
 20
614.633974596
 30
0.0
 11
1003.564725201
 21
662.133974596
 31
0.0
  0
LINE
  8
0
  6
CONTINUOUS
 62
     1
 10
1013.564725201
 20
614.633974596
 30
0.0
 11
1013.564725201
 21
662.133974596
 31
0.0
  0
LINE
  8
0
  6
CONTINUOUS
 62
     1
 10
998.564725201
 20
614.633974596
 30
0.0
 11
998.564725201
 21
672.633974596
 31
0.0
  0
LINE
  8
0
  6
CONTINUOUS
 62
     1
 10
993.242260593
 20
689.633974596
 30
0.0
 11
993.242260593
 21
614.633974596
 31
0.0
  0
LINE
  8
0
  6
CONTINUOUS
 62
     1
 10
987.68836873
 20
674.633974596
 30
0.0
 11
987.68836873
 21
614.633974596
 31
0.0
  0
LINE
  8
0
  6
CONTINUOUS
 62
     1
 10
982.134476868
 20
689.633974596
 30
0.0
 11
982.134476868
 21
614.633974596
 31
0.0
  0
LINE
  8
0
  6
CONTINUOUS
 62
     1
 10
976.580585006
 20
674.633974596
 30
0.0
 11
976.580585006
 21
614.633974596
 31
0.0
  0
LINE
  8
0
  6
CONTINUOUS
 62
     1
 10
943.7738733
 20
674.633974596
 30
0.0
 11
943.7738733
 21
614.633974596
 31
0.0
  0
LINE
  8
0
  6
CONTINUOUS
 62
     1
 10
938.219981437
 20
689.633974596
 30
0.0
 11
938.219981437
 21
614.633974596
 31
0.0
  0
LINE
  8
0
  6
CONTINUOUS
 62
     1
 10
932.666088901
 20
674.633974596
 30
0.0
 11
932.666088901
 21
614.633974596
 31
0.0
  0
LINE
  8
0
  6
CONTINUOUS
 62
     1
 10
927.112196364
 20
689.633974596
 30
0.0
 11
927.112196364
 21
614.633974596
 31
0.0
  0
LINE
  8
0
  6
CONTINUOUS
 62
     1
 10
921.789733105
 20
614.633974596
 30
0.0
 11
921.789733105
 21
672.633974596
 31
0.0
  0
LINE
  8
0
  6
CONTINUOUS
 62
     1
 10
916.789733105
 20
614.633974596
 30
0.0
 11
916.789733105
 21
674.633974596
 31
0.0
  0
LINE
  8
0
  6
CONTINUOUS
 62
     1
 10
906.789733105
 20
614.633974596
 30
0.0
 11
906.789733105
 21
674.633974596
 31
0.0
  0
LINE
  8
0
  6
CONTINUOUS
 62
     1
 10
901.789733105
 20
614.633974596
 30
0.0
 11
901.789733105
 21
672.633974596
 31
0.0
  0
LINE
  8
0
  6
CONTINUOUS
 62
     1
 10
923.364725201
 20
559.633974596
 30
0.0
 11
923.364725201
 21
614.633974596
 31
0.0
  0
LINE
  8
0
  6
CONTINUOUS
 62
     1
 10
953.364725201
 20
559.633974596
 30
0.0
 11
953.364725201
 21
614.633974596
 31
0.0
  0
LINE
  8
2
  6
CONTINUOUS
 62
     2
 10
922.112196701
 20
689.633974596
 30
0.0
 11
857.464725201
 21
689.633974596
 31
0.0
  0
LINE
  8
2
  6
CONTINUOUS
 62
     2
 10
867.464725201
 20
689.633974596
 30
0.0
 11
864.229487137
 21
677.559901768
 31
0.0
  0
LINE
  8
2
  6
CONTINUOUS
 62
     2
 10
867.464725201
 20
689.633974596
 30
0.0
 11
870.699963265
 21
677.559901768
 31
0.0
  0
LINE
  8
2
  6
CONTINUOUS
 62
     2
 10
867.464725201
 20
689.633974596
 30
0.0
 11
867.464725201
 21
539.633974596
 31
0.0
  0
LINE
  8
2
  6
CONTINUOUS
 62
     2
 10
867.464725201
 20
539.633974596
 30
0.0
 11
870.699963265
 21
551.708047425
 31
0.0
  0
LINE
  8
2
  6
CONTINUOUS
 62
     2
 10
867.464725201
 20
539.633974596
 30
0.0
 11
864.229487137
 21
551.708047425
 31
0.0
  0
LINE
  8
2
  6
CONTINUOUS
 62
     2
 10
922.112196701
 20
539.633974596
 30
0.0
 11
857.464725201
 21
539.633974596
 31
0.0
  0
LINE
  8
0
  6
CONTINUOUS
 62
     1
 10
1018.564725201
 20
584.633974596
 30
0.0
 11
953.364725201
 21
584.633974596
 31
0.0
  0
LINE
  8
0
  6
CONTINUOUS
 62
     1
 10
998.564723852
 20
556.633974596
 30
0.0
 11
998.564723852
 21
584.633974596
 31
0.0
  0
LINE
  8
0
  6
CONTINUOUS
 62
     1
 10
1034.564725201
 20
614.133974596
 30
0.0
 11
1034.564725201
 21
589.133974596
 31
0.0
  0
LINE
  8
0
  6
CONTINUOUS
 62
     1
 10
1034.564725201
 20
581.633974596
 30
0.0
 11
1034.564725201
 21
639.133974596
 31
0.0
  0
LINE
  8
0
  6
CONTINUOUS
 62
     1
 10
1034.564725201
 20
601.633974596
 30
0.0
 11
1034.564725201
 21
631.633974596
 31
0.0
  0
LINE
  8
0
  6
CONTINUOUS
 62
     1
 10
1018.564725201
 20
581.633974596
 30
0.0
 11
1018.564725201
 21
652.633974596
 31
0.0
  0
LINE
  8
0
  6
CONTINUOUS
 62
     1
 10
1034.564725201
 20
614.633974596
 30
0.0
 11
1034.564725201
 21
652.633974596
 31
0.0
  0
LINE
  8
0
  6
CONTINUOUS
 62
     1
 10
896.747734656
 20
614.633974596
 30
0.0
 11
896.747734656
 21
647.633974596
 31
0.0
  0
LINE
  8
0
  6
CONTINUOUS
 62
     1
 10
1018.564725201
 20
614.633974596
 30
0.0
 11
1018.564725201
 21
647.633974596
 31
0.0
  0
CIRCLE
  8
0
  6
CONTINUOUS
 62
     1
 10
1093.564725201
 20
614.633974596
 30
0.0
 40
12.5
  0
CIRCLE
  8
0
  6
CONTINUOUS
 62
     1
 10
1093.564725201
 20
614.633974596
 30
0.0
 40
22.0
  0
CIRCLE
  8
0
  6
CONTINUOUS
 62
     1
 10
1093.564725201
 20
630.133974596
 30
0.0
 40
3.0
  0
LINE
  8
0
  6
CONTINUOUS
 62
     1
 10
1089.364725201
 20
597.833974596
 30
0.0
 11
1091.364725201
 21
597.533974596
 31
0.0
  0
LINE
  8
0
  6
CONTINUOUS
 62
     1
 10
1091.864725201
 20
602.233974596
 30
0.0
 11
1091.629340585
 21
600.664743827
 31
0.0
  0
LINE
  8
0
  6
CONTINUOUS
 62
     1
 10
1091.629340585
 20
600.664743827
 30
0.0
 11
1089.364725201
 21
597.833974596
 31
0.0
  0
LINE
  8
0
  6
CONTINUOUS
 62
     1
 10
1093.564725201
 20
600.233974596
 30
0.0
 11
1091.364725201
 21
597.533974596
 31
0.0
  0
LINE
  8
0
  6
CONTINUOUS
 62
     1
 10
1097.764725201
 20
597.833974596
 30
0.0
 11
1095.764725201
 21
597.533974596
 31
0.0
  0
LINE
  8
0
  6
CONTINUOUS
 62
     1
 10
1095.264725201
 20
602.233974596
 30
0.0
 11
1095.500109816
 21
600.664743827
 31
0.0
  0
LINE
  8
0
  6
CONTINUOUS
 62
     1
 10
1095.500109816
 20
600.664743827
 30
0.0
 11
1097.764725201
 21
597.833974596
 31
0.0
  0
LINE
  8
0
  6
CONTINUOUS
 62
     1
 10
1093.564725201
 20
600.233974596
 30
0.0
 11
1095.764725201
 21
597.533974596
 31
0.0
  0
LINE
  8
0
  6
LTYPE5
 62
     2
 10
1093.564725201
 20
589.633974596
 30
0.0
 11
1093.564725201
 21
644.433974596
 31
0.0
  0
ARC
  8
0
  6
CONTINUOUS
 62
     1
 10
1115.564725201
 20
636.633974596
 30
0.0
 40
8.0
 50
0.0
 51
90.0
  0
LINE
  8
0
  6
CONTINUOUS
 62
     1
 10
1123.564725201
 20
592.633974596
 30
0.0
 11
1123.564725201
 21
636.633974596
 31
0.0
  0
ARC
  8
0
  6
CONTINUOUS
 62
     1
 10
1115.564725201
 20
592.633974596
 30
0.0
 40
8.0
 50
270.0
 51
0.0
  0
LINE
  8
0
  6
LTYPE1
 62
     2
 10
1048.564725201
 20
584.633974596
 30
0.0
 11
1048.564725201
 21
644.633974596
 31
0.0
  0
LINE
  8
2
  6
CONTINUOUS
 62
     2
 10
1100.664725201
 20
625.133974596
 30
0.0
 11
1106.987977101
 21
635.916668388
 31
0.0
  0
LINE
  8
2
  6
CONTINUOUS
 62
     2
 10
1100.664725201
 20
625.133974596
 30
0.0
 11
1100.749475086
 21
637.633687291
 31
0.0
  0
LINE
  8
7
  6
CONTINUOUS
 62
     2
 10
1112.816101348
 20
669.283974596
 30
0.0
 11
1203.064725201
 21
669.283974596
 31
0.0
  0
LINE
  8
2
  6
CONTINUOUS
 62
     2
 10
1100.664725201
 20
625.133974596
 30
0.0
 11
1112.816101348
 21
669.283974596
 31
0.0
  0
LINE
  8
0
  6
CONTINUOUS
 62
     1
 10
1034.564725201
 20
644.633974596
 30
0.0
 11
1115.564725201
 21
644.633974596
 31
0.0
  0
LINE
  8
0
  6
CONTINUOUS
 62
     1
 10
1034.564725201
 20
584.633974596
 30
0.0
 11
1115.564725201
 21
584.633974596
 31
0.0
  0
LINE
  8
2
  6
CONTINUOUS
 62
     2
 10
1120.564725201
 20
644.633974596
 30
0.0
 11
1175.564725201
 21
644.633974596
 31
0.0
  0
LINE
  8
2
  6
CONTINUOUS
 62
     2
 10
1165.564725201
 20
644.633974596
 30
0.0
 11
1162.329487137
 21
632.559901768
 31
0.0
  0
LINE
  8
2
  6
CONTINUOUS
 62
     2
 10
1165.564725201
 20
644.633974596
 30
0.0
 11
1168.799963265
 21
632.559901768
 31
0.0
  0
LINE
  8
2
  6
CONTINUOUS
 62
     2
 10
1165.564725201
 20
644.633974596
 30
0.0
 11
1165.564725201
 21
584.633974596
 31
0.0
  0
LINE
  8
2
  6
CONTINUOUS
 62
     2
 10
1165.564725201
 20
584.633974596
 30
0.0
 11
1168.799963265
 21
596.708047425
 31
0.0
  0
LINE
  8
2
  6
CONTINUOUS
 62
     2
 10
1165.564725201
 20
584.633974596
 30
0.0
 11
1162.329487137
 21
596.708047425
 31
0.0
  0
LINE
  8
2
  6
CONTINUOUS
 62
     2
 10
1120.564725201
 20
584.633974596
 30
0.0
 11
1175.564725201
 21
584.633974596
 31
0.0
  0
LINE
  8
0
  6
CONTINUOUS
 62
     1
 10
953.364725201
 20
559.633974596
 30
0.0
 11
896.74722658
 21
559.633974596
 31
0.0
  0
LINE
  8
0
  6
LTYPE3
 62
     2
 10
1129.764725201
 20
614.633974596
 30
0.0
 11
874.764725201
 21
614.633974596
 31
0.0
  0
TEXT
  8
2
  6
CONTINUOUS
 62
     2
 10
648.964725201
 20
981.869974596
 30
0.0
 40
18.0
  1
ＰＦ３／４
 50
0.0
 41
0.9
 51
0.0
  7
KANJI40
  0
TEXT
  8
2
  6
CONTINUOUS
 62
     2
 10
560.464725201
 20
1015.133974596
 30
0.0
 40
18.0
  1
３７０
 50
0.0
 41
0.9
 51
0.0
  7
KANJI40
  0
TEXT
  8
2
  6
CONTINUOUS
 62
     2
 10
753.564725201
 20
649.633974596
 30
0.0
 40
18.0
  1
給脂口
 50
0.0
 41
0.9
 51
0.0
  7
KANJI40
  0
TEXT
  8
7
  6
CONTINUOUS
 62
     2
 10
1114.564725201
 20
674.283974596
 30
0.0
 40
18.0
  1
φ２５Ｈ１０
 50
0.0
 41
0.9
 51
0.0
  7
KANJI40
  0
TEXT
  8
2
  6
CONTINUOUS
 62
     2
 10
862.464725201
 20
580.383974596
 30
0.0
 40
18.0
  1
φ１５０
 50
90.0
 41
0.9
 51
0.0
  7
KANJI40
  0
TEXT
  8
2
  6
CONTINUOUS
 62
     2
 10
1160.564725201
 20
597.883974596
 30
0.0
 40
18.0
  1
６０
 50
90.0
 41
0.9
 51
0.0
  7
KANJI40
  0
TEXT
  8
0
  6
CONTINUOUS
 62
     2
 10
822.864725201
 20
976.669974596
 30
0.0
 40
18.0
  1
手動開放装置
 50
0.0
 41
0.9
 51
0.0
  7
KANJI40
  0
TEXT
  8
0
  6
CONTINUOUS
 62
     2
 10
1181.264725201
 20
692.034797166
 30
0.0
 40
18.0
  1
ｄ９
 50
0.0
 41
0.9
 51
0.0
  7
KANJI40
  0
LINE
  8
2
  6
CONTINUOUS
 62
     2
 10
812.992526596
 20
892.969974596
 30
0.0
 11
809.757288532
 21
880.895901768
 31
0.0
  0
LINE
  8
2
  6
CONTINUOUS
 62
     2
 10
812.992526596
 20
892.969974596
 30
0.0
 11
816.22776466
 21
880.895901768
 31
0.0
  0
LINE
  8
2
  6
CONTINUOUS
 62
     2
 10
812.992526596
 20
892.969974596
 30
0.0
 11
812.992526596
 21
687.969974596
 31
0.0
  0
LINE
  8
2
  6
CONTINUOUS
 62
     2
 10
812.992526596
 20
687.969974596
 30
0.0
 11
816.22776466
 21
700.044047425
 31
0.0
  0
LINE
  8
2
  6
CONTINUOUS
 62
     2
 10
812.992526596
 20
687.969974596
 30
0.0
 11
809.757288532
 21
700.044047425
 31
0.0
  0
TEXT
  8
2
  6
CONTINUOUS
 62
     2
 10
807.992526596
 20
756.219974596
 30
0.0
 40
18.0
  1
φ２０５
 50
90.0
 41
0.9
 51
0.0
  7
KANJI40
  0
LINE
  8
2
  6
CONTINUOUS
 62
     2
 10
734.292526596
 20
892.969974596
 30
0.0
 11
820.0
 21
892.969974596
 31
0.0
  0
LINE
  8
2
  6
CONTINUOUS
 62
     2
 10
734.292526596
 20
687.969974596
 30
0.0
 11
820.0
 21
687.969974596
 31
0.0
  0
LINE
  8
0
  6
CONTINUOUS
 62
     1
 10
350.464725201
 20
689.633974596
 30
0.0
 11
350.464725201
 21
619.633974596
 31
0.0
  0
TEXT
  8
0
  6
CONTINUOUS
 62
     2
 10
355.464725201
 20
678.633974596
 30
5.0
 40
20.0
  1
銘板
 50
270.0
 41
0.925
 51
0.0
  7
KANJI61
  0
LINE
  8
0
  6
CONTINUOUS
 62
     1
 10
393.464725201
 20
689.633974596
 30
0.0
 11
350.464725201
 21
689.633974596
 31
0.0
  0
LINE
  8
0
  6
CONTINUOUS
 62
     1
 10
393.464725201
 20
619.633974596
 30
0.0
 11
350.464725201
 21
619.633974596
 31
0.0
  0
LINE
  8
0
  6
CONTINUOUS
 62
     1
 10
393.464725201
 20
689.633974596
 30
0.0
 11
393.464725201
 21
619.633974596
 31
0.0
  0
LINE
  8
0
  6
CONTINUOUS
 62
     1
 10
263.964725201
 20
805.633974596
 30
0.0
 11
305.964725201
 21
805.633974596
 31
0.0
  0
LINE
  8
0
  6
CONTINUOUS
 62
     1
 10
301.964725201
 20
775.633974596
 30
0.0
 11
301.964725201
 21
805.633974596
 31
0.0
  0
LINE
  8
0
  6
CONTINUOUS
 62
     1
 10
263.964725201
 20
775.633974596
 30
0.0
 11
263.964725201
 21
805.633974596
 31
0.0
  0
LINE
  8
0
  6
CONTINUOUS
 62
     1
 10
263.964725201
 20
775.633974596
 30
0.0
 11
305.964725201
 21
775.633974596
 31
0.0
  0
ARC
  8
0
  6
CONTINUOUS
 62
     2
 10
233.964725201
 20
791.133974596
 30
0.0
 40
20.0
 50
231.952957468
 51
156.801409486
  0
TEXT
  8
0
  6
CONTINUOUS
 62
     2
 10
142.0818246
 20
782.012360568
 30
0.0
 40
18.0
  1
前進方向
 50
0.0
 41
0.9
 51
0.0
  7
KANJI40
  0
LINE
  8
0
  6
CONTINUOUS
 62
     2
 10
215.5818246
 20
799.012360568
 30
0.0
 11
217.876517311
 21
808.849799345
 31
0.0
  0
LINE
  8
0
  6
CONTINUOUS
 62
     2
 10
215.5818246
 20
799.012360568
 30
0.0
 11
223.849985978
 21
803.919697103
 31
0.0
  0
TEXT
  8
0
  6
CONTINUOUS
 62
     2
 10
133.964725201
 20
937.033974596
 30
0.0
 40
18.0
  1
手動軸カバー
 50
0.0
 41
0.9
 51
0.0
  7
KANJI40
  0
TEXT
  8
0
  6
CONTINUOUS
 62
     2
 10
136.464725201
 20
909.033974596
 30
0.0
 40
18.0
  1
手動軸□１０
 50
0.0
 41
0.9
 51
0.0
  7
KANJI40
  0
LINE
  8
0
  6
CONTINUOUS
 62
     2
 10
231.464725201
 20
932.033974596
 30
0.0
 11
131.464725201
 21
932.033974596
 31
0.0
  0
LINE
  8
0
  6
CONTINUOUS
 62
     2
 10
400.964725201
 20
1009.633974596
 30
0.0
 11
263.964725201
 21
1009.633974596
 31
0.0
  0
LINE
  8
0
  6
CONTINUOUS
 62
     2
 10
263.964725201
 20
1009.633974596
 30
0.0
 11
275.555835116
 21
1006.528146055
 31
0.0
  0
LINE
  8
0
  6
CONTINUOUS
 62
     2
 10
263.964725201
 20
1009.633974596
 30
0.0
 11
275.555835116
 21
1012.739803137
 31
0.0
  0
LINE
  8
0
  6
CONTINUOUS
 62
     2
 10
263.964725201
 20
811.633974596
 30
0.0
 11
263.964725201
 21
1015.633974596
 31
0.0
  0
TEXT
  8
0
  6
CONTINUOUS
 62
     3
 10
308.164725201
 20
1015.633974596
 30
0.0
 40
18.0
  1
１３７
 50
0.0
 41
0.9
 51
0.0
  7
KANJI40
  0
LINE
  8
0
  6
CONTINUOUS
 62
     2
 10
400.964725201
 20
1009.633974596
 30
0.0
 11
389.373615285
 21
1012.739803137
 31
0.0
  0
LINE
  8
0
  6
CONTINUOUS
 62
     2
 10
400.964725201
 20
1009.633974596
 30
0.0
 11
389.373615285
 21
1006.528146055
 31
0.0
  0
LINE
  8
0
  6
LTYPE5
 62
     2
 10
1300.983716701
 20
790.632311693
 30
0.0
 11
1301.236580519
 21
789.688611078
 31
0.0
  0
ARC
  8
0
  6
CONTINUOUS
 62
     1
 10
1338.264725201
 20
530.633974596
 30
0.0
 40
10.0
 50
180.0
 51
270.0
  0
ARC
  8
0
  6
CONTINUOUS
 62
     1
 10
1503.264725201
 20
530.633974596
 30
0.0
 40
10.0
 50
270.0
 51
0.0
  0
LINE
  8
0
  6
CONTINUOUS
 62
     1
 10
1513.264725201
 20
530.633974596
 30
0.0
 11
1513.264725201
 21
591.327210886
 31
0.0
  0
LINE
  8
0
  6
CONTINUOUS
 62
     2
 10
1328.264725201
 20
530.633974596
 30
0.0
 11
1328.264725201
 21
393.633974596
 31
0.0
  0
LINE
  8
0
  6
CONTINUOUS
 62
     2
 10
1328.264725201
 20
398.633974596
 30
0.0
 11
1340.338798029
 21
395.398736532
 31
0.0
  0
LINE
  8
0
  6
CONTINUOUS
 62
     2
 10
1328.264725201
 20
398.633974596
 30
0.0
 11
1340.338798029
 21
401.86921266
 31
0.0
  0
LINE
  8
0
  6
CONTINUOUS
 62
     2
 10
1513.264725201
 20
398.633974596
 30
0.0
 11
1501.190652372
 21
401.86921266
 31
0.0
  0
LINE
  8
0
  6
CONTINUOUS
 62
     2
 10
1513.264725201
 20
398.633974596
 30
0.0
 11
1501.190652372
 21
395.398736532
 31
0.0
  0
LINE
  8
0
  6
CONTINUOUS
 62
     2
 10
1513.264725201
 20
530.633974596
 30
0.0
 11
1513.264725201
 21
393.633974596
 31
0.0
  0
LINE
  8
0
  6
CONTINUOUS
 62
     2
 10
1325.764725201
 20
348.633974596
 30
0.0
 11
1337.838798029
 21
345.398736532
 31
0.0
  0
LINE
  8
0
  6
CONTINUOUS
 62
     2
 10
1325.764725201
 20
348.633974596
 30
0.0
 11
1337.838798029
 21
351.86921266
 31
0.0
  0
LINE
  8
0
  6
CONTINUOUS
 62
     2
 10
1515.764725201
 20
348.633974596
 30
0.0
 11
1503.690652372
 21
351.86921266
 31
0.0
  0
LINE
  8
0
  6
CONTINUOUS
 62
     2
 10
1515.764725201
 20
348.633974596
 30
0.0
 11
1503.690652372
 21
345.398736532
 31
0.0
  0
LINE
  8
0
  6
CONTINUOUS
 62
     2
 10
1515.764725201
 20
591.633974596
 30
0.0
 11
1515.764725201
 21
343.633974596
 31
0.0
  0
LINE
  8
0
  6
CONTINUOUS
 62
     2
 10
1328.264725201
 20
398.633974596
 30
0.0
 11
1513.264725201
 21
398.633974596
 31
0.0
  0
LINE
  8
0
  6
CONTINUOUS
 62
     2
 10
1325.764725201
 20
348.633974596
 30
0.0
 11
1515.764725201
 21
348.633974596
 31
0.0
  0
LINE
  8
0
  6
CONTINUOUS
 62
     2
 10
1571.964725201
 20
627.133974596
 30
0.0
 11
1519.164725201
 21
627.133974596
 31
0.0
  0
LINE
  8
0
  6
CONTINUOUS
 62
     2
 10
1573.964725201
 20
602.133974596
 30
0.0
 11
1520.164725201
 21
602.133974596
 31
0.0
  0
LINE
  8
0
  6
LTYPE3
 62
     2
 10
1524.764725201
 20
614.633974596
 30
0.0
 11
1318.464725201
 21
614.633974596
 31
0.0
  0
LINE
  8
0
  6
CONTINUOUS
 62
     1
 10
1328.264725201
 20
530.633974596
 30
0.0
 11
1328.264725201
 21
591.133974596
 31
0.0
  0
LINE
  8
0
  6
CONTINUOUS
 62
     2
 10
1325.764725201
 20
591.633974596
 30
0.0
 11
1325.764725201
 21
343.633974596
 31
0.0
  0
LINE
  8
0
  6
CONTINUOUS
 62
     2
 10
1529.464725201
 20
614.633974596
 30
0.0
 11
1603.764725201
 21
614.633974596
 31
0.0
  0
CIRCLE
  8
0
  6
CONTINUOUS
 62
     1
 10
1420.764725201
 20
521.133974596
 30
0.0
 40
10.4775
  0
CIRCLE
  8
0
  6
CONTINUOUS
 62
     1
 10
1420.764725201
 20
521.133974596
 30
0.0
 40
9.3155
  0
ARC
  8
0
  6
CONTINUOUS
 62
     1
 10
1370.764725201
 20
497.633974596
 30
0.0
 40
1.0
 50
180.0
 51
270.0
  0
ARC
  8
0
  6
CONTINUOUS
 62
     1
 10
1373.764725201
 20
496.633974596
 30
0.0
 40
1.0
 50
180.0
 51
270.0
  0
ARC
  8
0
  6
CONTINUOUS
 62
     1
 10
1470.764725201
 20
497.633974596
 30
0.0
 40
1.0
 50
270.0
 51
0.0
  0
ARC
  8
0
  6
CONTINUOUS
 62
     1
 10
1467.764725201
 20
496.633974596
 30
0.0
 40
1.0
 50
270.0
 51
0.0
  0
LINE
  8
0
  6
CONTINUOUS
 62
     1
 10
1471.764725201
 20
502.633974596
 30
0.0
 11
1369.764725201
 21
502.633974596
 31
0.0
  0
LINE
  8
0
  6
CONTINUOUS
 62
     1
 10
1471.764725201
 20
504.133974596
 30
0.0
 11
1369.764725201
 21
504.133974596
 31
0.0
  0
LINE
  8
0
  6
CONTINUOUS
 62
     1
 10
1467.764725201
 20
495.633974596
 30
0.0
 11
1373.764725201
 21
495.633974596
 31
0.0
  0
LINE
  8
0
  6
CONTINUOUS
 62
     1
 10
1470.764725201
 20
496.633974596
 30
0.0
 11
1370.764725201
 21
496.633974596
 31
0.0
  0
LINE
  8
0
  6
LTYPE3
 62
     2
 10
1465.764725201
 20
491.933974596
 30
0.0
 11
1465.764725201
 21
510.633974596
 31
0.0
  0
LINE
  8
0
  6
LTYPE3
 62
     2
 10
1375.764725201
 20
491.933974596
 30
0.0
 11
1375.764725201
 21
510.633974596
 31
0.0
  0
LINE
  8
0
  6
CONTINUOUS
 62
     1
 10
1338.264725201
 20
520.633974596
 30
0.0
 11
1369.764725201
 21
520.633974596
 31
0.0
  0
LINE
  8
0
  6
CONTINUOUS
 62
     1
 10
1471.764725201
 20
520.633974596
 30
0.0
 11
1503.264725201
 21
520.633974596
 31
0.0
  0
LINE
  8
0
  6
LTYPE2
 62
     2
 10
1440.664725201
 20
521.133974596
 30
0.0
 11
1399.964725201
 21
521.133974596
 31
0.0
  0
ARC
  8
0
  6
LTYPE1
 62
     2
 10
1420.764725201
 20
790.633974596
 30
0.0
 40
100.0
 50
246.958903749
 51
293.041096251
  0
CIRCLE
  8
0
  6
CONTINUOUS
 62
     1
 10
1420.764725201
 20
929.133974596
 30
0.0
 40
12.055
  0
CIRCLE
  8
0
  6
CONTINUOUS
 62
     1
 10
1420.764725201
 20
929.133974596
 30
0.0
 40
20.0
  0
CIRCLE
  8
0
  6
CONTINUOUS
 62
     1
 10
1420.764725201
 20
929.133974596
 30
0.0
 40
25.0
  0
CIRCLE
  8
0
  6
CONTINUOUS
 62
     2
 10
1420.764725201
 20
929.133974596
 30
0.0
 40
13.221
  0
LINE
  8
0
  6
LTYPE2
 62
     2
 10
1384.264725201
 20
929.133974596
 30
0.0
 11
1456.264725201
 21
929.133974596
 31
0.0
  0
ARC
  8
0
  6
CONTINUOUS
 62
     1
 10
1450.764725201
 20
904.633974596
 30
0.0
 40
10.0
 50
270.0
 51
0.0
  0
LINE
  8
0
  6
CONTINUOUS
 62
     1
 10
1420.764725201
 20
973.633974596
 30
0.0
 11
1450.764725201
 21
973.633974596
 31
0.0
  0
LINE
  8
0
  6
CONTINUOUS
 62
     1
 10
1460.764725201
 20
904.633974596
 30
0.0
 11
1460.764725201
 21
963.633974596
 31
0.0
  0
ARC
  8
0
  6
CONTINUOUS
 62
     1
 10
1450.764725201
 20
963.633974596
 30
0.0
 40
10.0
 50
0.0
 51
90.0
  0
LINE
  8
0
  6
CONTINUOUS
 62
     1
 10
1420.764725201
 20
978.633974596
 30
0.0
 11
1460.764725201
 21
978.633974596
 31
0.0
  0
ARC
  8
0
  6
CONTINUOUS
 62
     1
 10
1460.764725201
 20
968.633974596
 30
0.0
 40
10.0
 50
0.0
 51
90.0
  0
LINE
  8
0
  6
CONTINUOUS
 62
     1
 10
1420.764725201
 20
894.633974596
 30
0.0
 11
1460.764725201
 21
894.633974596
 31
0.0
  0
LINE
  8
0
  6
CONTINUOUS
 62
     1
 10
1470.764725201
 20
904.633974596
 30
0.0
 11
1470.764725201
 21
968.633974596
 31
0.0
  0
ARC
  8
0
  6
CONTINUOUS
 62
     1
 10
1460.764725201
 20
904.633974596
 30
0.0
 40
10.0
 50
270.0
 51
0.0
  0
LINE
  8
0
  6
CONTINUOUS
 62
     1
 10
1451.124851808
 20
894.640461259
 30
0.0
 11
1451.124851808
 21
889.140461259
 31
0.0
  0
LINE
  8
0
  6
CONTINUOUS
 62
     1
 10
1420.764725201
 20
973.633974596
 30
0.0
 11
1390.764725201
 21
973.633974596
 31
0.0
  0
LINE
  8
0
  6
CONTINUOUS
 62
     1
 10
1380.764725201
 20
904.633974596
 30
0.0
 11
1380.764725201
 21
963.633974596
 31
0.0
  0
ARC
  8
0
  6
CONTINUOUS
 62
     1
 10
1390.764725201
 20
963.633974596
 30
0.0
 40
10.0
 50
90.0
 51
180.0
  0
LINE
  8
0
  6
CONTINUOUS
 62
     1
 10
1420.764725201
 20
978.633974596
 30
0.0
 11
1380.764725201
 21
978.633974596
 31
0.0
  0
ARC
  8
0
  6
CONTINUOUS
 62
     1
 10
1380.764725201
 20
968.633974596
 30
0.0
 40
10.0
 50
90.0
 51
180.0
  0
LINE
  8
0
  6
CONTINUOUS
 62
     1
 10
1370.764725201
 20
904.633974596
 30
0.0
 11
1370.764725201
 21
968.633974596
 31
0.0
  0
ARC
  8
0
  6
CONTINUOUS
 62
     1
 10
1390.764725201
 20
904.633974596
 30
0.0
 40
10.0
 50
180.0
 51
270.0
  0
ARC
  8
0
  6
CONTINUOUS
 62
     1
 10
1380.764725201
 20
904.633974596
 30
0.0
 40
10.0
 50
180.0
 51
270.0
  0
LINE
  8
0
  6
CONTINUOUS
 62
     1
 10
1390.404598594
 20
894.640461259
 30
0.0
 11
1390.404598594
 21
889.140461259
 31
0.0
  0
ARC
  8
0
  6
CONTINUOUS
 62
     1
 10
1338.264725201
 20
790.633974596
 30
0.0
 40
20.0
 50
90.0
 51
180.0
  0
ARC
  8
0
  6
CONTINUOUS
 62
     1
 10
1338.264725201
 20
790.633974596
 30
0.0
 40
20.0
 50
180.0
 51
270.0
  0
ARC
  8
0
  6
CONTINUOUS
 62
     1
 10
1462.014725201
 20
719.186878784
 30
0.0
 40
20.0
 50
210.0
 51
300.0
  0
ARC
  8
0
  6
CONTINUOUS
 62
     1
 10
1462.014725201
 20
719.186878784
 30
0.0
 40
20.0
 50
300.0
 51
30.0
  0
LINE
  8
0
  6
CONTINUOUS
 62
     1
 10
1338.264725201
 20
770.633974596
 30
0.0
 11
1409.217719817
 21
770.633974596
 31
0.0
  0
LINE
  8
0
  6
CONTINUOUS
 62
     1
 10
1444.694217125
 20
709.186878784
 30
0.0
 11
1409.217719817
 21
770.633974596
 31
0.0
  0
ARC
  8
0
  6
CONTINUOUS
 62
     1
 10
1462.014725201
 20
862.081070408
 30
0.0
 40
20.0
 50
330.0
 51
60.0
  0
ARC
  8
0
  6
CONTINUOUS
 62
     1
 10
1462.014725201
 20
862.081070408
 30
0.0
 40
20.0
 50
60.0
 51
150.0
  0
LINE
  8
0
  6
CONTINUOUS
 62
     1
 10
1444.694217125
 20
872.081070408
 30
0.0
 11
1409.217719817
 21
810.633974596
 31
0.0
  0
LINE
  8
0
  6
CONTINUOUS
 62
     1
 10
1338.264725201
 20
810.633974596
 30
0.0
 11
1409.217719817
 21
810.633974596
 31
0.0
  0
LINE
  8
0
  6
CONTINUOUS
 62
     1
 10
1424.098058534
 20
810.35424054
 30
0.0
 11
1482.431391868
 21
800.494107568
 31
0.0
  0
LINE
  8
0
  6
CONTINUOUS
 62
     1
 10
1424.098058534
 20
770.913708653
 30
0.0
 11
1482.431391868
 21
780.773841624
 31
0.0
  0
LINE
  8
0
  6
LTYPE2
 62
     2
 10
1480.764725201
 20
775.633974596
 30
0.0
 11
1480.764725201
 21
810.633974596
 31
0.0
  0
ARC
  8
0
  6
CONTINUOUS
 62
     1
 10
1420.764725201
 20
790.633974596
 30
0.0
 40
20.0
 50
80.405931773
 51
279.594068227
  0
ARC
  8
0
  6
CONTINUOUS
 62
     1
 10
1480.764725201
 20
790.633974596
 30
0.0
 40
10.0
 50
279.594068227
 51
80.405931773
  0
CIRCLE
  8
0
  6
CONTINUOUS
 62
     1
 10
1480.764725201
 20
790.633974596
 30
0.0
 40
9.0
  0
CIRCLE
  8
0
  6
CONTINUOUS
 62
     1
 10
1420.764725201
 20
790.633974596
 30
0.0
 40
19.0
  0
CIRCLE
  8
0
  6
CONTINUOUS
 62
     1
 10
1407.664725201
 20
790.633974596
 30
0.0
 40
4.0
  0
CIRCLE
  8
0
  6
CONTINUOUS
 62
     1
 10
1420.764725201
 20
777.533974596
 30
0.0
 40
4.0
  0
CIRCLE
  8
0
  6
CONTINUOUS
 62
     1
 10
1433.864725201
 20
790.633974596
 30
0.0
 40
4.0
  0
CIRCLE
  8
0
  6
CONTINUOUS
 62
     1
 10
1420.764725201
 20
803.733974596
 30
0.0
 40
4.0
  0
CIRCLE
  8
0
  6
CONTINUOUS
 62
     1
 10
1420.764725201
 20
790.633974596
 30
0.0
 40
4.0
  0
LINE
  8
0
  6
CONTINUOUS
 62
     1
 10
1479.335233277
 20
852.081070408
 30
0.0
 11
1452.474937039
 21
805.557672619
 31
0.0
  0
LINE
  8
0
  6
CONTINUOUS
 62
     1
 10
1479.335233277
 20
729.186878784
 30
0.0
 11
1452.474937039
 21
775.710276573
 31
0.0
  0
ARC
  8
0
  6
LTYPE1
 62
     2
 10
1420.764725201
 20
790.633974596
 30
0.0
 40
100.0
 50
66.110646249
 51
173.889353751
  0
ARC
  8
0
  6
LTYPE1
 62
     2
 10
1420.764725201
 20
790.633974596
 30
0.0
 40
100.0
 50
186.110646249
 51
293.889353751
  0
ARC
  8
0
  6
LTYPE1
 62
     2
 10
1420.764725201
 20
790.633974596
 30
0.0
 40
100.0
 50
306.110646249
 51
53.889353751
  0
LINE
  8
0
  6
CONTINUOUS
 62
     1
 10
1420.764725201
 20
894.633974596
 30
0.0
 11
1380.764725201
 21
894.633974596
 31
0.0
  0
LINE
  8
0
  6
CONTINUOUS
 62
     1
 10
1380.764725201
 20
894.633974596
 30
0.0
 11
1460.764725201
 21
894.633974596
 31
0.0
  0
LINE
  8
0
  6
CONTINUOUS
 62
     1
 10
1328.264725201
 20
834.792778928
 30
0.0
 11
1328.264725201
 21
850.163379095
 31
0.0
  0
LINE
  8
0
  6
CONTINUOUS
 62
     1
 10
1513.264725201
 20
834.792778928
 30
0.0
 11
1513.264725201
 21
850.163379095
 31
0.0
  0
ARC
  8
0
  6
CONTINUOUS
 62
     1
 10
1420.764725201
 20
790.633974596
 30
0.0
 40
110.0
 50
107.84092038
 51
147.236242241
  0
ARC
  8
0
  6
CONTINUOUS
 62
     1
 10
1420.764725201
 20
790.633974596
 30
0.0
 40
110.0
 50
32.763757759
 51
72.15907962
  0
LINE
  8
2
  6
CONTINUOUS
 62
     2
 10
1465.764725201
 20
978.633974596
 30
0.0
 11
1608.764725201
 21
978.633974596
 31
0.0
  0
LINE
  8
2
  6
CONTINUOUS
 62
     2
 10
1472.76474046
 20
495.633974596
 30
0.0
 11
1643.764725201
 21
495.633974596
 31
0.0
  0
TEXT
  8
0
  6
CONTINUOUS
 62
     2
 10
1398.264725201
 20
403.633974596
 30
0.0
 40
18.0
  1
１８５
 50
0.0
 41
0.9
 51
0.0
  7
KANJI40
  0
TEXT
  8
0
  6
CONTINUOUS
 62
     2
 10
1398.264725201
 20
353.633974596
 30
0.0
 40
18.0
  1
１９０
 50
0.0
 41
0.9
 51
0.0
  7
KANJI40
  0
LINE
  8
0
  6
CONTINUOUS
 62
     2
 10
1598.764725201
 20
614.633974596
 30
0.0
 11
1601.999963265
 21
626.708047425
 31
0.0
  0
LINE
  8
0
  6
CONTINUOUS
 62
     2
 10
1598.764725201
 20
614.633974596
 30
0.0
 11
1595.529487137
 21
626.708047425
 31
0.0
  0
LINE
  8
0
  6
CONTINUOUS
 62
     2
 10
1564.264725201
 20
627.133974596
 30
0.0
 11
1567.499963265
 21
639.208047425
 31
0.0
  0
LINE
  8
0
  6
CONTINUOUS
 62
     2
 10
1564.264725201
 20
627.133974596
 30
0.0
 11
1561.029487137
 21
639.208047425
 31
0.0
  0
LINE
  8
0
  6
CONTINUOUS
 62
     2
 10
1564.264725201
 20
602.133974596
 30
0.0
 11
1561.029487137
 21
590.059901768
 31
0.0
  0
LINE
  8
0
  6
CONTINUOUS
 62
     2
 10
1564.264725201
 20
602.133974596
 30
0.0
 11
1567.499963265
 21
590.059901768
 31
0.0
  0
LINE
  8
0
  6
CONTINUOUS
 62
     2
 10
1564.264725201
 20
787.633974596
 30
0.0
 11
1564.264725201
 21
577.133974596
 31
0.0
  0
LINE
  8
7
  6
CONTINUOUS
 62
     2
 10
1598.764725201
 20
614.633974596
 30
0.0
 11
1595.529487137
 21
602.559901768
 31
0.0
  0
LINE
  8
7
  6
CONTINUOUS
 62
     2
 10
1598.764725201
 20
614.633974596
 30
0.0
 11
1601.999963265
 21
602.559901768
 31
0.0
  0
LINE
  8
7
  6
CONTINUOUS
 62
     2
 10
1598.764725201
 20
614.633974596
 30
0.0
 11
1598.764725201
 21
495.633974596
 31
0.0
  0
LINE
  8
7
  6
CONTINUOUS
 62
     2
 10
1598.764725201
 20
495.633974596
 30
0.0
 11
1601.999963265
 21
507.708047425
 31
0.0
  0
LINE
  8
7
  6
CONTINUOUS
 62
     2
 10
1598.764725201
 20
495.633974596
 30
0.0
 11
1595.529487137
 21
507.708047425
 31
0.0
  0
LINE
  8
2
  6
CONTINUOUS
 62
     2
 10
1598.764725201
 20
978.633974596
 30
0.0
 11
1595.529487137
 21
966.559901768
 31
0.0
  0
LINE
  8
2
  6
CONTINUOUS
 62
     2
 10
1598.764725201
 20
978.633974596
 30
0.0
 11
1601.999963265
 21
966.559901768
 31
0.0
  0
LINE
  8
2
  6
CONTINUOUS
 62
     2
 10
1581.764725201
 20
978.633974596
 30
0.0
 11
1643.764725201
 21
978.633974596
 31
0.0
  0
LINE
  8
0
  6
CONTINUOUS
 62
     2
 10
1598.764725201
 20
614.633974596
 30
0.0
 11
1598.764725201
 21
790.633974596
 31
0.0
  0
LINE
  8
0
  6
CONTINUOUS
 62
     2
 10
1598.764725201
 20
790.633974596
 30
0.0
 11
1595.529487137
 21
778.559901768
 31
0.0
  0
LINE
  8
0
  6
CONTINUOUS
 62
     2
 10
1598.764725201
 20
790.633974596
 30
0.0
 11
1601.999963265
 21
778.559901768
 31
0.0
  0
LINE
  8
2
  6
CONTINUOUS
 62
     2
 10
1584.764725201
 20
790.633974596
 30
0.0
 11
1608.764725201
 21
790.633974596
 31
0.0
  0
LINE
  8
2
  6
CONTINUOUS
 62
     2
 10
1598.764725201
 20
790.633974596
 30
0.0
 11
1601.999963265
 21
802.708047425
 31
0.0
  0
LINE
  8
2
  6
CONTINUOUS
 62
     2
 10
1598.764725201
 20
790.633974596
 30
0.0
 11
1595.529487137
 21
802.708047425
 31
0.0
  0
LINE
  8
2
  6
CONTINUOUS
 62
     2
 10
1598.764725201
 20
790.633974596
 30
0.0
 11
1598.764725201
 21
978.633974596
 31
0.0
  0
LINE
  8
2
  6
CONTINUOUS
 62
     2
 10
1633.764725201
 20
978.633974596
 30
0.0
 11
1630.529487137
 21
966.559901768
 31
0.0
  0
LINE
  8
2
  6
CONTINUOUS
 62
     2
 10
1633.764725201
 20
495.633974596
 30
0.0
 11
1630.529487137
 21
507.708047425
 31
0.0
  0
LINE
  8
2
  6
CONTINUOUS
 62
     2
 10
1633.764725201
 20
978.633974596
 30
0.0
 11
1636.999963265
 21
966.559901768
 31
0.0
  0
LINE
  8
2
  6
CONTINUOUS
 62
     2
 10
1633.764725201
 20
495.633974596
 30
0.0
 11
1636.999963265
 21
507.708047425
 31
0.0
  0
LINE
  8
2
  6
CONTINUOUS
 62
     2
 10
1633.764725201
 20
978.633974596
 30
0.0
 11
1633.764725201
 21
495.633974596
 31
0.0
  0
TEXT
  8
0
  6
CONTINUOUS
 62
     2
 10
1559.264725201
 20
635.133974596
 30
0.0
 40
18.0
  1
φ２５Ｈ１０深さ３０
 50
90.0
 41
0.9
 51
0.0
  7
KANJI40
  0
TEXT
  8
7
  6
CONTINUOUS
 62
     2
 10
1593.764725201
 20
533.883974596
 30
0.0
 40
18.0
  1
１１９
 50
90.0
 41
0.9
 51
0.0
  7
KANJI40
  0
TEXT
  8
0
  6
CONTINUOUS
 62
     2
 10
1593.764725201
 20
680.133974596
 30
0.0
 40
18.0
  1
１７６
 50
90.0
 41
0.9
 51
0.0
  7
KANJI40
  0
TEXT
  8
2
  6
CONTINUOUS
 62
     2
 10
1593.764725201
 20
859.133974596
 30
0.0
 40
18.0
  1
１８８
 50
90.0
 41
0.9
 51
0.0
  7
KANJI40
  0
TEXT
  8
2
  6
CONTINUOUS
 62
     2
 10
1628.764725201
 20
711.633974596
 30
0.0
 40
18.0
  1
４８３
 50
90.0
 41
0.9
 51
0.0
  7
KANJI40
  0
LINE
  8
0
  6
CONTINUOUS
 62
     1
 10
896.748197475
 20
614.633974596
 30
0.0
 11
896.748197475
 21
669.633974596
 31
0.0
  0
LINE
  8
0
  6
CONTINUOUS
 62
     1
 10
901.789733105
 20
669.633974596
 30
0.0
 11
896.748197475
 21
669.633974596
 31
0.0
  0
LINE
  8
0
  6
CONTINUOUS
 62
     1
 10
820.74722658
 20
518.633974596
 30
0.0
 11
820.74722658
 21
684.633974596
 31
0.0
  0
LINE
  8
0
  6
CONTINUOUS
 62
     1
 10
836.74722658
 20
518.633974596
 30
0.0
 11
836.74722658
 21
684.633974596
 31
0.0
  0
LINE
  8
0
  6
CONTINUOUS
 62
     1
 10
836.74722658
 20
684.633974596
 30
0.0
 11
820.74722658
 21
684.633974596
 31
0.0
  0
LINE
  8
0
  6
CONTINUOUS
 62
     1
 10
880.74722658
 20
669.633974596
 30
0.0
 11
836.74722658
 21
669.633974596
 31
0.0
  0
LINE
  8
0
  6
CONTINUOUS
 62
     1
 10
880.74722658
 20
518.633974596
 30
0.0
 11
880.74722658
 21
684.633974596
 31
0.0
  0
LINE
  8
0
  6
CONTINUOUS
 62
     1
 10
896.74722658
 20
684.633974596
 30
0.0
 11
880.74722658
 21
684.633974596
 31
0.0
  0
LINE
  8
0
  6
CONTINUOUS
 62
     1
 10
896.74722658
 20
518.633974596
 30
0.0
 11
896.74722658
 21
684.633974596
 31
0.0
  0
LINE
  8
0
  6
CONTINUOUS
 62
     1
 10
793.74722658
 20
518.633974596
 30
0.0
 11
923.74722658
 21
518.633974596
 31
0.0
  0
LINE
  8
0
  6
CONTINUOUS
 62
     1
 10
793.74722658
 20
512.633974596
 30
0.0
 11
793.74722658
 21
518.633974596
 31
0.0
  0
LINE
  8
0
  6
CONTINUOUS
 62
     1
 10
793.74722658
 20
512.633974596
 30
0.0
 11
923.74722658
 21
512.633974596
 31
0.0
  0
LINE
  8
0
  6
CONTINUOUS
 62
     1
 10
786.04722658
 20
511.633974596
 30
0.0
 11
786.04722658
 21
486.233974596
 31
0.0
  0
LINE
  8
0
  6
CONTINUOUS
 62
     1
 10
811.44722658
 20
511.633974596
 30
0.0
 11
786.04722658
 21
511.633974596
 31
0.0
  0
LINE
  8
0
  6
CONTINUOUS
 62
     1
 10
811.44722658
 20
512.633974596
 30
0.0
 11
811.44722658
 21
472.633974596
 31
0.0
  0
LINE
  8
0
  6
CONTINUOUS
 62
     1
 10
837.34722658
 20
512.633974596
 30
0.0
 11
837.34722658
 21
472.633974596
 31
0.0
  0
LINE
  8
0
  6
CONTINUOUS
 62
     1
 10
906.04722658
 20
511.633974596
 30
0.0
 11
931.44722658
 21
511.633974596
 31
0.0
  0
LINE
  8
0
  6
CONTINUOUS
 62
     1
 10
923.74722658
 20
512.633974596
 30
0.0
 11
923.74722658
 21
518.633974596
 31
0.0
  0
LINE
  8
0
  6
CONTINUOUS
 62
     1
 10
906.04722658
 20
512.633974596
 30
0.0
 11
906.04722658
 21
472.633974596
 31
0.0
  0
LINE
  8
0
  6
CONTINUOUS
 62
     1
 10
931.44722658
 20
511.633974596
 30
0.0
 11
931.44722658
 21
486.233974596
 31
0.0
  0
LINE
  8
0
  6
CONTINUOUS
 62
     1
 10
811.44722658
 20
486.233974596
 30
0.0
 11
786.04722658
 21
486.233974596
 31
0.0
  0
LINE
  8
0
  6
CONTINUOUS
 62
     1
 10
811.44722658
 20
478.633974596
 30
0.0
 11
906.04722658
 21
478.633974596
 31
0.0
  0
LINE
  8
0
  6
LTYPE1
 62
     2
 10
842.44722658
 20
481.863974596
 30
0.0
 11
837.44722658
 21
481.863974596
 31
0.0
  0
LINE
  8
0
  6
LTYPE1
 62
     2
 10
842.44722658
 20
483.018974596
 30
0.0
 11
837.44722658
 21
483.018974596
 31
0.0
  0
LINE
  8
0
  6
LTYPE1
 62
     2
 10
842.44722658
 20
502.803974596
 30
0.0
 11
837.44722658
 21
502.803974596
 31
0.0
  0
LINE
  8
0
  6
LTYPE1
 62
     2
 10
842.44722658
 20
501.648974596
 30
0.0
 11
837.44722658
 21
501.648974596
 31
0.0
  0
LINE
  8
0
  6
LTYPE1
 62
     2
 10
842.44722658
 20
502.803974596
 30
0.0
 11
837.44722658
 21
502.803974596
 31
0.0
  0
LINE
  8
0
  6
LTYPE5
 62
     2
 10
842.44722658
 20
491.333974596
 30
0.0
 11
833.34722658
 21
491.333974596
 31
0.0
  0
LINE
  8
0
  6
CONTINUOUS
 62
     1
 10
811.44722658
 20
472.633974596
 30
0.0
 11
906.04722658
 21
472.633974596
 31
0.0
  0
LINE
  8
0
  6
CONTINUOUS
 62
     1
 10
842.74722658
 20
457.633974596
 30
0.0
 11
874.74722658
 21
457.633974596
 31
0.0
  0
LINE
  8
0
  6
CONTINUOUS
 62
     2
 10
850.564725201
 20
460.508974596
 30
0.0
 11
841.023485932
 21
452.433409402
 31
0.0
  0
LINE
  8
0
  6
LTYPE1
 62
     2
 10
842.74722658
 20
462.633974596
 30
0.0
 11
874.74722658
 21
462.633974596
 31
0.0
  0
LINE
  8
0
  6
LTYPE5
 62
     2
 10
520.34722658
 20
470.633974596
 30
0.0
 11
1057.84722658
 21
470.633974596
 31
0.0
  0
LINE
  8
0
  6
CONTINUOUS
 62
     2
 10
850.564725201
 20
460.508974596
 30
0.0
 11
846.339552207
 21
448.744710353
 31
0.0
  0
LINE
  8
0
  6
CONTINUOUS
 62
     2
 10
850.564725201
 20
460.508974596
 30
0.0
 11
833.564725201
 21
436.008974596
 31
0.0
  0
TEXT
  8
0
  6
CONTINUOUS
 62
     2
 10
745.064725201
 20
441.008974596
 30
0.0
 40
18.0
  1
ＬＳユニット
 50
0.0
 41
0.9
 51
0.0
  7
KANJI40
  0
LINE
  8
0
  6
CONTINUOUS
 62
     2
 10
833.564725201
 20
436.008974596
 30
0.0
 11
745.064725201
 21
436.008974596
 31
0.0
  0
LINE
  8
0
  6
CONTINUOUS
 62
     1
 10
842.74722658
 20
457.633974596
 30
0.0
 11
842.74722658
 21
472.633974596
 31
0.0
  0
LINE
  8
0
  6
CONTINUOUS
 62
     1
 10
874.74722658
 20
457.633974596
 30
0.0
 11
874.74722658
 21
472.633974596
 31
0.0
  0
LINE
  8
0
  6
CONTINUOUS
 62
     1
 10
906.04722658
 20
486.233974596
 30
0.0
 11
931.44722658
 21
486.233974596
 31
0.0
  0
LINE
  8
0
  6
LTYPE3
 62
     2
 10
915.74722658
 20
497.821474596
 30
0.0
 11
915.74722658
 21
457.833974596
 31
0.0
  0
LINE
  8
0
  6
LTYPE1
 62
     2
 10
961.064625201
 20
478.633974596
 30
0.0
 11
1003.064625201
 21
478.633974596
 31
0.0
  0
LINE
  8
0
  6
LTYPE1
 62
     2
 10
961.064625201
 20
462.633974596
 30
0.0
 11
1003.064625201
 21
462.633974596
 31
0.0
  0
CIRCLE
  8
0
  6
CONTINUOUS
 62
     2
 10
982.064625201
 20
470.633974596
 30
0.0
 40
5.0
  0
LINE
  8
0
  6
CONTINUOUS
 62
     1
 10
961.064625201
 20
481.633974596
 30
0.0
 11
969.724879239
 21
486.633974596
 31
0.0
  0
LINE
  8
0
  6
CONTINUOUS
 62
     1
 10
961.064625201
 20
459.633974596
 30
0.0
 11
961.064625201
 21
481.633974596
 31
0.0
  0
LINE
  8
0
  6
CONTINUOUS
 62
     1
 10
969.714625201
 20
454.633974596
 30
0.0
 11
969.714625201
 21
486.633974596
 31
0.0
  0
LINE
  8
0
  6
CONTINUOUS
 62
     1
 10
969.714625201
 20
486.633974596
 30
0.0
 11
994.414625201
 21
486.633974596
 31
0.0
  0
LINE
  8
0
  6
CONTINUOUS
 62
     1
 10
961.064625201
 20
459.633974596
 30
0.0
 11
969.724879239
 21
454.633974596
 31
0.0
  0
LINE
  8
0
  6
CONTINUOUS
 62
     1
 10
969.714625201
 20
454.633974596
 30
0.0
 11
994.414625201
 21
454.633974596
 31
0.0
  0
CIRCLE
  8
0
  6
CONTINUOUS
 62
     2
 10
982.064625201
 20
470.633974596
 30
0.0
 40
4.0
  0
LINE
  8
0
  6
LTYPE3
 62
     2
 10
982.064625201
 20
460.633974596
 30
0.0
 11
982.064625201
 21
480.633974596
 31
0.0
  0
LINE
  8
0
  6
CONTINUOUS
 62
     1
 10
1003.064625201
 20
481.633974596
 30
0.0
 11
994.404371163
 21
486.633974596
 31
0.0
  0
LINE
  8
0
  6
CONTINUOUS
 62
     1
 10
994.414625201
 20
454.633974596
 30
0.0
 11
994.414625201
 21
486.633974596
 31
0.0
  0
LINE
  8
0
  6
CONTINUOUS
 62
     1
 10
1003.064625201
 20
478.633974596
 30
0.0
 11
1018.564725201
 21
478.633974596
 31
0.0
  0
LINE
  8
0
  6
CONTINUOUS
 62
     1
 10
1003.064625201
 20
462.633974596
 30
0.0
 11
1018.564725201
 21
462.633974596
 31
0.0
  0
LINE
  8
0
  6
CONTINUOUS
 62
     1
 10
1018.564725201
 20
457.633974596
 30
0.0
 11
1018.564725201
 21
634.633974596
 31
0.0
  0
LINE
  8
0
  6
CONTINUOUS
 62
     1
 10
1003.064625201
 20
459.633974596
 30
0.0
 11
1003.064625201
 21
481.633974596
 31
0.0
  0
LINE
  8
0
  6
CONTINUOUS
 62
     1
 10
1003.064625201
 20
459.633974596
 30
0.0
 11
994.404371163
 21
454.633974596
 31
0.0
  0
LINE
  8
0
  6
CONTINUOUS
 62
     2
 10
1040.064625201
 20
467.833974596
 30
0.0
 11
1045.064625201
 21
467.833974596
 31
0.0
  0
LINE
  8
0
  6
CONTINUOUS
 62
     1
 10
1034.564725201
 20
464.633974596
 30
0.0
 11
1034.564725201
 21
472.128034596
 31
0.0
  0
LINE
  8
0
  6
CONTINUOUS
 62
     1
 10
1040.064625201
 20
476.292754596
 30
0.0
 11
1039.005025799
 21
478.128034596
 31
0.0
  0
LINE
  8
0
  6
CONTINUOUS
 62
     1
 10
1040.064625201
 20
470.633974596
 30
0.0
 11
1040.064625201
 21
476.292754596
 31
0.0
  0
LINE
  8
0
  6
CONTINUOUS
 62
     1
 10
1040.064625201
 20
464.975194596
 30
0.0
 11
1039.005025799
 21
463.139914596
 31
0.0
  0
LINE
  8
0
  6
CONTINUOUS
 62
     1
 10
1040.064625201
 20
470.633974596
 30
0.0
 11
1040.064625201
 21
464.975194596
 31
0.0
  0
ARC
  8
0
  6
CONTINUOUS
 62
     1
 10
1032.909569864
 20
470.633974596
 30
0.0
 40
7.155055337
 50
328.419912243
 51
31.580087757
  0
ARC
  8
0
  6
CONTINUOUS
 62
     1
 10
1037.879201434
 20
476.254519596
 30
0.0
 40
2.185758211
 50
301.002313915
 51
2.989498403
  0
LINE
  8
0
  6
CONTINUOUS
 62
     1
 10
1040.064625201
 20
464.975194596
 30
0.0
 11
1039.005025799
 21
463.139914596
 31
0.0
  0
ARC
  8
0
  6
CONTINUOUS
 62
     1
 10
1037.879201434
 20
465.013429596
 30
0.0
 40
2.185758211
 50
357.010501597
 51
58.997686085
  0
LINE
  8
0
  6
CONTINUOUS
 62
     1
 10
1034.564725201
 20
478.128034596
 30
0.0
 11
1039.005025799
 21
478.128034596
 31
0.0
  0
LINE
  8
0
  6
CONTINUOUS
 62
     1
 10
1034.564725201
 20
474.381004596
 30
0.0
 11
1039.005025799
 21
474.381004596
 31
0.0
  0
LINE
  8
0
  6
CONTINUOUS
 62
     1
 10
1034.564725201
 20
466.886944596
 30
0.0
 11
1039.005025799
 21
466.886944596
 31
0.0
  0
LINE
  8
0
  6
CONTINUOUS
 62
     1
 10
1034.564725201
 20
463.139914596
 30
0.0
 11
1039.005025799
 21
463.139914596
 31
0.0
  0
LINE
  8
0
  6
CONTINUOUS
 62
     1
 10
1040.064625201
 20
466.633974596
 30
0.0
 11
1045.064625201
 21
466.633974596
 31
0.0
  0
LINE
  8
0
  6
CONTINUOUS
 62
     1
 10
1040.064625201
 20
474.633974596
 30
0.0
 11
1045.064625201
 21
474.633974596
 31
0.0
  0
LINE
  8
0
  6
CONTINUOUS
 62
     1
 10
1045.064625201
 20
466.633974596
 30
0.0
 11
1045.064625201
 21
474.633974596
 31
0.0
  0
LINE
  8
0
  6
CONTINUOUS
 62
     2
 10
1040.064625201
 20
467.433974596
 30
0.0
 11
1045.064625201
 21
467.433974596
 31
0.0
  0
LINE
  8
0
  6
CONTINUOUS
 62
     1
 10
1034.564725201
 20
457.633974596
 30
0.0
 11
1034.564725201
 21
621.633974596
 31
0.0
  0
LINE
  8
0
  6
CONTINUOUS
 62
     1
 10
1018.564725201
 20
457.633974596
 30
0.0
 11
1034.564725201
 21
457.633974596
 31
0.0
  0
LINE
  8
0
  6
CONTINUOUS
 62
     2
 10
1040.064625201
 20
473.433974596
 30
0.0
 11
1045.064625201
 21
473.433974596
 31
0.0
  0
LINE
  8
0
  6
CONTINUOUS
 62
     2
 10
1040.064625201
 20
473.833974596
 30
0.0
 11
1045.064625201
 21
473.833974596
 31
0.0
  0
LINE
  8
0
  6
CONTINUOUS
 62
     1
 10
1034.564725201
 20
614.633974596
 30
0.0
 11
1034.564725201
 21
652.633974596
 31
0.0
  0
LINE
  8
0
  6
CONTINUOUS
 62
     1
 10
1034.564725201
 20
654.633974596
 30
0.0
 11
1018.564725201
 21
654.633974596
 31
0.0
  0
LINE
  8
0
  6
CONTINUOUS
 62
     1
 10
1034.564725201
 20
581.633974596
 30
0.0
 11
1034.564725201
 21
654.633974596
 31
0.0
  0
LINE
  8
0
  6
CONTINUOUS
 62
     1
 10
874.74722658
 20
462.633974596
 30
0.0
 11
961.064625201
 21
462.633974596
 31
0.0
  0
LINE
  8
0
  6
CONTINUOUS
 62
     1
 10
906.04722658
 20
478.633974596
 30
0.0
 11
961.064625201
 21
478.633974596
 31
0.0
  0
LINE
  8
0
  6
LTYPE2
 62
     2
 10
451.139733105
 20
498.633974596
 30
0.0
 11
838.399733105
 21
498.633974596
 31
0.0
  0
LINE
  8
0
  6
LTYPE1
 62
     2
 10
705.639733105
 20
512.633974596
 30
0.0
 11
470.639733105
 21
512.633974596
 31
0.0
  0
LINE
  8
0
  6
LTYPE1
 62
     2
 10
705.639733105
 20
518.633974596
 30
0.0
 11
470.639733105
 21
518.633974596
 31
0.0
  0
LINE
  8
0
  6
LTYPE1
 62
     2
 10
470.639733105
 20
485.633974596
 30
0.0
 11
486.639733105
 21
485.633974596
 31
0.0
  0
LINE
  8
0
  6
LTYPE1
 62
     2
 10
482.386763105
 20
518.633974596
 30
0.0
 11
482.386763105
 21
523.074275194
 31
0.0
  0
ARC
  8
0
  6
LTYPE1
 62
     2
 10
478.639733105
 20
516.978819259
 30
0.0
 40
7.155055337
 50
58.419912243
 51
121.580087757
  0
LINE
  8
0
  6
LTYPE1
 62
     2
 10
484.298513105
 20
524.133874596
 30
0.0
 11
486.133793105
 21
523.074275194
 31
0.0
  0
LINE
  8
0
  6
LTYPE1
 62
     2
 10
478.639733105
 20
524.133874596
 30
0.0
 11
484.298513105
 21
524.133874596
 31
0.0
  0
LINE
  8
0
  6
LTYPE1
 62
     2
 10
484.298513105
 20
524.133874596
 30
0.0
 11
486.133793105
 21
523.074275194
 31
0.0
  0
ARC
  8
0
  6
LTYPE1
 62
     2
 10
484.260278105
 20
521.94845083
 30
0.0
 40
2.185758211
 50
87.010501597
 51
148.997686085
  0
LINE
  8
0
  6
LTYPE1
 62
     2
 10
478.639733105
 20
508.633974596
 30
0.0
 11
478.639733105
 21
524.633974596
 31
0.0
  0
LINE
  8
0
  6
LTYPE1
 62
     2
 10
478.639733105
 20
524.133874596
 30
0.0
 11
472.980953105
 21
524.133874596
 31
0.0
  0
ARC
  8
0
  6
LTYPE1
 62
     2
 10
473.019188105
 20
521.94845083
 30
0.0
 40
2.185758211
 50
31.002313915
 51
92.989498403
  0
LINE
  8
0
  6
LTYPE1
 62
     2
 10
474.892703105
 20
518.633974596
 30
0.0
 11
474.892703105
 21
523.074275194
 31
0.0
  0
LINE
  8
0
  6
LTYPE1
 62
     2
 10
468.139733105
 20
508.433974596
 30
0.0
 11
462.525373751
 21
508.433974596
 31
0.0
  0
LINE
  8
0
  6
LTYPE1
 62
     2
 10
468.139733105
 20
503.533974596
 30
0.0
 11
462.525373751
 21
503.533974596
 31
0.0
  0
LINE
  8
0
  6
LTYPE1
 62
     2
 10
468.139733105
 20
498.633974596
 30
0.0
 11
468.139733105
 21
508.433974596
 31
0.0
  0
LINE
  8
0
  6
LTYPE1
 62
     2
 10
470.639733105
 20
507.833974596
 30
0.0
 11
468.139733105
 21
507.833974596
 31
0.0
  0
LINE
  8
0
  6
LTYPE1
 62
     2
 10
468.139733109
 20
498.633974596
 30
0.0
 11
470.639733105
 21
501.133974592
 31
0.0
  0
LINE
  8
0
  6
LTYPE1
 62
     2
 10
468.139733105
 20
488.833974596
 30
0.0
 11
462.525373751
 21
488.833974596
 31
0.0
  0
LINE
  8
0
  6
LTYPE1
 62
     2
 10
468.139733105
 20
493.733974596
 30
0.0
 11
462.525373751
 21
493.733974596
 31
0.0
  0
LINE
  8
0
  6
LTYPE1
 62
     2
 10
468.139733105
 20
498.633974596
 30
0.0
 11
468.139733105
 21
488.833974596
 31
0.0
  0
LINE
  8
0
  6
LTYPE1
 62
     2
 10
470.639733105
 20
498.633974596
 30
0.0
 11
468.139733109
 21
496.1339746
 31
0.0
  0
LINE
  8
0
  6
LTYPE1
 62
     2
 10
470.639733105
 20
489.433974596
 30
0.0
 11
468.139733105
 21
489.433974596
 31
0.0
  0
LINE
  8
0
  6
LTYPE1
 62
     2
 10
461.139733105
 20
498.633974596
 30
0.0
 11
461.139733105
 21
506.033974596
 31
0.0
  0
LINE
  8
0
  6
LTYPE1
 62
     2
 10
461.139733105
 20
506.033974596
 30
0.0
 11
462.525373751
 21
508.433974596
 31
0.0
  0
LINE
  8
0
  6
LTYPE1
 62
     2
 10
461.139733105
 20
506.033974596
 30
0.0
 11
462.525373751
 21
508.433974596
 31
0.0
  0
ARC
  8
0
  6
LTYPE1
 62
     2
 10
463.997616937
 20
505.983974596
 30
0.0
 40
2.858321186
 50
177.010501597
 51
238.997686085
  0
LINE
  8
0
  6
LTYPE1
 62
     2
 10
456.639733105
 20
502.633974596
 30
0.0
 11
461.139733105
 21
502.633974596
 31
0.0
  0
LINE
  8
0
  6
LTYPE1
 62
     2
 10
456.639733105
 20
501.633974596
 30
0.0
 11
461.139733105
 21
501.633974596
 31
0.0
  0
LINE
  8
0
  6
LTYPE1
 62
     2
 10
461.139733105
 20
491.233974596
 30
0.0
 11
462.525373751
 21
488.833974596
 31
0.0
  0
LINE
  8
0
  6
LTYPE1
 62
     2
 10
461.139733105
 20
498.633974596
 30
0.0
 11
461.139733105
 21
491.233974596
 31
0.0
  0
ARC
  8
0
  6
LTYPE1
 62
     2
 10
463.997616937
 20
491.283974596
 30
0.0
 40
2.858321186
 50
121.002313915
 51
182.989498403
  0
LINE
  8
0
  6
LTYPE1
 62
     2
 10
456.639733105
 20
494.633974596
 30
0.0
 11
461.139733105
 21
494.633974596
 31
0.0
  0
LINE
  8
0
  6
LTYPE1
 62
     2
 10
456.639733105
 20
495.633974596
 30
0.0
 11
461.139733105
 21
495.633974596
 31
0.0
  0
ARC
  8
0
  6
LTYPE1
 62
     2
 10
470.496415905
 20
498.633974596
 30
0.0
 40
9.3566828
 50
148.419912243
 51
211.580087757
  0
LINE
  8
0
  6
LTYPE1
 62
     2
 10
456.639733105
 20
494.633974596
 30
0.0
 11
456.639733105
 21
502.633974596
 31
0.0
  0
LINE
  8
0
  6
LTYPE1
 62
     2
 10
470.639733105
 20
485.633974596
 30
0.0
 11
470.639733105
 21
518.633974596
 31
0.0
  0
LINE
  8
0
  6
LTYPE1
 62
     2
 10
472.980953105
 20
524.133874596
 30
0.0
 11
471.145673105
 21
523.074275194
 31
0.0
  0
LINE
  8
0
  6
LTYPE1
 62
     2
 10
471.145673105
 20
518.633974596
 30
0.0
 11
471.145673105
 21
523.074275194
 31
0.0
  0
LINE
  8
0
  6
LTYPE1
 62
     2
 10
483.639733105
 20
474.633974596
 30
0.0
 11
492.139733105
 21
474.633974596
 31
0.0
  0
LINE
  8
0
  6
LTYPE1
 62
     2
 10
483.639733105
 20
466.633974596
 30
0.0
 11
483.639733105
 21
474.633974596
 31
0.0
  0
LINE
  8
0
  6
LTYPE1
 62
     2
 10
483.639733105
 20
466.633974596
 30
0.0
 11
492.139733105
 21
466.633974596
 31
0.0
  0
LINE
  8
0
  6
LTYPE1
 62
     2
 10
483.639733105
 20
467.633974596
 30
0.0
 11
492.139733105
 21
467.633974596
 31
0.0
  0
LINE
  8
0
  6
LTYPE1
 62
     2
 10
483.639733105
 20
473.633974596
 30
0.0
 11
492.139733105
 21
473.633974596
 31
0.0
  0
LINE
  8
0
  6
LTYPE3
 62
     2
 10
489.639733105
 20
498.633974596
 30
0.0
 11
501.139733105
 21
498.633974596
 31
0.0
  0
LINE
  8
0
  6
LTYPE1
 62
     2
 10
494.139733105
 20
502.633974596
 30
0.0
 11
501.639733105
 21
502.633974596
 31
0.0
  0
LINE
  8
0
  6
LTYPE1
 62
     2
 10
494.139733105
 20
501.633974596
 30
0.0
 11
501.639733105
 21
501.633974596
 31
0.0
  0
LINE
  8
0
  6
LTYPE1
 62
     2
 10
486.639733105
 20
488.233974596
 30
0.0
 11
493.139733105
 21
488.233974596
 31
0.0
  0
ARC
  8
0
  6
LTYPE1
 62
     2
 10
490.239733105
 20
490.833974596
 30
0.0
 40
3.9
 50
317.9
 51
42.1
  0
LINE
  8
0
  6
LTYPE1
 62
     2
 10
486.639733105
 20
493.433974596
 30
0.0
 11
493.139733105
 21
493.433974596
 31
0.0
  0
LINE
  8
0
  6
LTYPE1
 62
     2
 10
494.139733105
 20
495.633974596
 30
0.0
 11
501.639733105
 21
495.633974596
 31
0.0
  0
LINE
  8
0
  6
LTYPE1
 62
     2
 10
494.139733105
 20
494.633974596
 30
0.0
 11
501.639733105
 21
494.633974596
 31
0.0
  0
LINE
  8
0
  6
LTYPE1
 62
     2
 10
486.639733105
 20
485.633974596
 30
0.0
 11
486.639733105
 21
512.633974596
 31
0.0
  0
LINE
  8
0
  6
LTYPE1
 62
     2
 10
486.639733105
 20
509.033974596
 30
0.0
 11
486.639733105
 21
488.233974596
 31
0.0
  0
ARC
  8
0
  6
LTYPE1
 62
     2
 10
480.139733105
 20
498.633974596
 30
0.0
 40
14.0
 50
338.2
 51
21.8
  0
LINE
  8
0
  6
LTYPE1
 62
     2
 10
494.139733105
 20
490.833974596
 30
0.0
 11
494.139733105
 21
506.433974596
 31
0.0
  0
LINE
  8
0
  6
LTYPE1
 62
     2
 10
486.639733105
 20
509.033974596
 30
0.0
 11
493.139733105
 21
509.033974596
 31
0.0
  0
ARC
  8
0
  6
LTYPE1
 62
     2
 10
490.239733105
 20
506.433974596
 30
0.0
 40
3.9
 50
317.9
 51
42.1
  0
LINE
  8
0
  6
LTYPE1
 62
     2
 10
493.139733105
 20
503.833974596
 30
0.0
 11
486.639733105
 21
503.833974596
 31
0.0
  0
LINE
  8
0
  6
LTYPE1
 62
     2
 10
486.133793105
 20
518.633974596
 30
0.0
 11
486.133793105
 21
523.074275194
 31
0.0
  0
LINE
  8
0
  6
LTYPE1
 62
     2
 10
501.639733105
 20
457.633974596
 30
0.0
 11
501.639733105
 21
510.633974596
 31
0.0
  0
LINE
  8
0
  6
LTYPE1
 62
     2
 10
501.639733105
 20
492.633974596
 30
0.0
 11
533.639733105
 21
492.633974596
 31
0.0
  0
LINE
  8
0
  6
LTYPE1
 62
     2
 10
533.639733105
 20
510.633974596
 30
0.0
 11
501.639733105
 21
510.633974596
 31
0.0
  0
LINE
  8
0
  6
LTYPE1
 62
     2
 10
533.639733105
 20
504.633974596
 30
0.0
 11
501.639733105
 21
504.633974596
 31
0.0
  0
LINE
  8
0
  6
LTYPE1
 62
     2
 10
501.639733105
 20
502.633974596
 30
0.0
 11
506.639733105
 21
502.633974596
 31
0.0
  0
LINE
  8
0
  6
LTYPE1
 62
     2
 10
501.639733105
 20
501.633974596
 30
0.0
 11
506.639733105
 21
501.633974596
 31
0.0
  0
LINE
  8
0
  6
LTYPE1
 62
     2
 10
501.639733105
 20
494.633974596
 30
0.0
 11
506.639733105
 21
494.633974596
 31
0.0
  0
LINE
  8
0
  6
LTYPE1
 62
     2
 10
501.639733105
 20
495.633974596
 30
0.0
 11
506.639733105
 21
495.633974596
 31
0.0
  0
LINE
  8
0
  6
LTYPE1
 62
     2
 10
506.639733105
 20
492.633974596
 30
0.0
 11
506.639733105
 21
504.633974596
 31
0.0
  0
ARC
  8
0
  6
LTYPE1
 62
     2
 10
501.496415905
 20
470.633974596
 30
0.0
 40
9.3566828
 50
148.419912243
 51
211.580087757
  0
LINE
  8
0
  6
LTYPE1
 62
     2
 10
499.139733105
 20
480.433974596
 30
0.0
 11
493.525373751
 21
480.433974596
 31
0.0
  0
LINE
  8
0
  6
LTYPE1
 62
     2
 10
492.139733105
 20
478.033974596
 30
0.0
 11
493.525373751
 21
480.433974596
 31
0.0
  0
LINE
  8
0
  6
LTYPE1
 62
     2
 10
492.139733105
 20
478.033974596
 30
0.0
 11
493.525373751
 21
480.433974596
 31
0.0
  0
LINE
  8
0
  6
LTYPE1
 62
     2
 10
492.139733105
 20
470.633974596
 30
0.0
 11
492.139733105
 21
478.033974596
 31
0.0
  0
LINE
  8
0
  6
LTYPE1
 62
     2
 10
499.139733105
 20
475.533974596
 30
0.0
 11
493.525373751
 21
475.533974596
 31
0.0
  0
ARC
  8
0
  6
LTYPE1
 62
     2
 10
494.997616937
 20
477.983974596
 30
0.0
 40
2.858321186
 50
177.010501597
 51
238.997686085
  0
LINE
  8
0
  6
LTYPE1
 62
     2
 10
501.639733105
 20
479.833974596
 30
0.0
 11
499.139733105
 21
479.833974596
 31
0.0
  0
LINE
  8
0
  6
LTYPE1
 62
     2
 10
499.139733105
 20
470.633974596
 30
0.0
 11
499.139733105
 21
480.433974596
 31
0.0
  0
LINE
  8
0
  6
LTYPE1
 62
     2
 10
499.139733109
 20
470.633974596
 30
0.0
 11
501.639733105
 21
473.133974592
 31
0.0
  0
LINE
  8
0
  6
LTYPE1
 62
     2
 10
492.139733105
 20
463.233974596
 30
0.0
 11
493.525373751
 21
460.833974596
 31
0.0
  0
LINE
  8
0
  6
LTYPE1
 62
     2
 10
499.139733105
 20
465.733974596
 30
0.0
 11
493.525373751
 21
465.733974596
 31
0.0
  0
ARC
  8
0
  6
LTYPE1
 62
     2
 10
494.997616937
 20
463.283974596
 30
0.0
 40
2.858321186
 50
121.002313915
 51
182.989498403
  0
LINE
  8
0
  6
LTYPE1
 62
     2
 10
499.139733105
 20
470.633974596
 30
0.0
 11
499.139733105
 21
460.833974596
 31
0.0
  0
LINE
  8
0
  6
LTYPE1
 62
     2
 10
492.139733105
 20
470.633974596
 30
0.0
 11
492.139733105
 21
463.233974596
 31
0.0
  0
LINE
  8
0
  6
LTYPE1
 62
     2
 10
501.639733105
 20
470.633974596
 30
0.0
 11
499.139733109
 21
468.1339746
 31
0.0
  0
LINE
  8
0
  6
LTYPE1
 62
     2
 10
499.139733105
 20
460.833974596
 30
0.0
 11
493.525373751
 21
460.833974596
 31
0.0
  0
LINE
  8
0
  6
LTYPE1
 62
     2
 10
501.639733105
 20
461.433974596
 30
0.0
 11
499.139733105
 21
461.433974596
 31
0.0
  0
LINE
  8
0
  6
LTYPE1
 62
     2
 10
501.639733105
 20
457.633974596
 30
0.0
 11
533.639733105
 21
457.633974596
 31
0.0
  0
LINE
  8
0
  6
CONTINUOUS
 62
     1
 10
520.139733105
 20
479.183974596
 30
0.0
 11
520.139733105
 21
463.183974596
 31
0.0
  0
LINE
  8
0
  6
CONTINUOUS
 62
     1
 10
520.139733105
 20
463.183974596
 30
0.0
 11
533.639733105
 21
463.183974596
 31
0.0
  0
LINE
  8
0
  6
LTYPE1
 62
     2
 10
533.639733105
 20
457.633974596
 30
0.0
 11
533.639733105
 21
510.633974596
 31
0.0
  0
LINE
  8
0
  6
CONTINUOUS
 62
     1
 10
542.289733105
 20
454.633974596
 30
0.0
 11
542.289733105
 21
486.633974596
 31
0.0
  0
LINE
  8
0
  6
CONTINUOUS
 62
     1
 10
533.639733105
 20
459.633974596
 30
0.0
 11
533.639733105
 21
481.633974596
 31
0.0
  0
LINE
  8
0
  6
CONTINUOUS
 62
     1
 10
533.639733105
 20
459.633974596
 30
0.0
 11
542.299987142
 21
454.633974596
 31
0.0
  0
LINE
  8
0
  6
CONTINUOUS
 62
     1
 10
542.289733105
 20
454.633974596
 30
0.0
 11
566.989733105
 21
454.633974596
 31
0.0
  0
LINE
  8
0
  6
CONTINUOUS
 62
     1
 10
566.989733105
 20
454.633974596
 30
0.0
 11
566.989733105
 21
486.633974596
 31
0.0
  0
LINE
  8
0
  6
LTYPE2
 62
     2
 10
554.639733105
 20
460.633974596
 30
0.0
 11
554.639733105
 21
480.633974596
 31
0.0
  0
CIRCLE
  8
0
  6
CONTINUOUS
 62
     2
 10
554.639733105
 20
470.633974596
 30
0.0
 40
5.0
  0
LINE
  8
0
  6
CONTINUOUS
 62
     1
 10
575.639733105
 20
459.633974596
 30
0.0
 11
575.639733105
 21
481.633974596
 31
0.0
  0
LINE
  8
0
  6
CONTINUOUS
 62
     1
 10
575.639733105
 20
459.633974596
 30
0.0
 11
566.979479067
 21
454.633974596
 31
0.0
  0
CIRCLE
  8
0
  6
CONTINUOUS
 62
     2
 10
554.639733105
 20
470.633974596
 30
0.0
 40
4.0
  0
LINE
  8
0
  6
CONTINUOUS
 62
     1
 10
520.139733105
 20
479.183974596
 30
0.0
 11
533.639733105
 21
479.183974596
 31
0.0
  0
LINE
  8
0
  6
CONTINUOUS
 62
     1
 10
533.639733105
 20
481.633974596
 30
0.0
 11
542.299987142
 21
486.633974596
 31
0.0
  0
LINE
  8
0
  6
CONTINUOUS
 62
     1
 10
575.639733105
 20
481.633974596
 30
0.0
 11
566.979479067
 21
486.633974596
 31
0.0
  0
LINE
  8
0
  6
LTYPE1
 62
     2
 10
697.639733105
 20
510.5
 30
0.0
 11
697.639733105
 21
643.5
 31
0.0
  0
LINE
  8
0
  6
LTYPE1
 62
     2
 10
705.639733105
 20
510.5
 30
0.0
 11
705.639733105
 21
684.633974596
 31
0.0
  0
LINE
  8
0
  6
LTYPE1
 62
     2
 10
689.639733105
 20
510.5
 30
0.0
 11
689.639733105
 21
684.633974596
 31
0.0
  0
LINE
  8
0
  6
LTYPE1
 62
     2
 10
705.139733105
 20
512.633974596
 30
0.0
 11
705.139733105
 21
508.033974596
 31
0.0
  0
LINE
  8
0
  6
LTYPE1
 62
     2
 10
690.139733105
 20
512.633974596
 30
0.0
 11
690.139733105
 21
508.033974596
 31
0.0
  0
LINE
  8
0
  6
LTYPE1
 62
     2
 10
693.839733105
 20
512.633974596
 30
0.0
 11
693.839733105
 21
508.033974596
 31
0.0
  0
LINE
  8
0
  6
LTYPE1
 62
     2
 10
701.439733105
 20
512.633974596
 30
0.0
 11
701.439733105
 21
508.033974596
 31
0.0
  0
ARC
  8
0
  6
LTYPE1
 62
     2
 10
691.939733105
 20
510.133974596
 30
0.0
 40
2.8
 50
228.5
 51
311.5
  0
ARC
  8
0
  6
LTYPE1
 62
     2
 10
697.639733105
 20
518.033974596
 30
0.0
 40
10.7
 50
249.1
 51
290.9
  0
ARC
  8
0
  6
LTYPE1
 62
     2
 10
703.339733105
 20
510.133974596
 30
0.0
 40
2.8
 50
228.5
 51
311.5
  0
LINE
  8
0
  6
LTYPE1
 62
     2
 10
697.639733105
 20
503.833974596
 30
0.0
 11
697.639733105
 21
515.633974596
 31
0.0
  0
LINE
  8
0
  6
LTYPE2
 62
     2
 10
697.639733105
 20
499.983974596
 30
0.0
 11
697.639733105
 21
524.283974596
 31
0.0
  0
LINE
  8
0
  6
LTYPE1
 62
     2
 10
703.339733105
 20
507.333974596
 30
0.0
 11
691.939733105
 21
507.333974596
 31
0.0
  0
LINE
  8
0
  6
LTYPE1
 62
     2
 10
705.639733105
 20
684.633974596
 30
0.0
 11
689.639733105
 21
684.633974596
 31
0.0
  0
LINE
  8
0
  6
LTYPE1
 62
     2
 10
533.639733105
 20
506.633974596
 30
0.0
 11
786.04722658
 21
506.633974596
 31
0.0
  0
LINE
  8
0
  6
LTYPE1
 62
     2
 10
533.639733105
 20
490.633974596
 30
0.0
 11
786.04722658
 21
490.633974596
 31
0.0
  0
LINE
  8
0
  6
CONTINUOUS
 62
     1
 10
575.639733105
 20
478.633974596
 30
0.0
 11
811.44722658
 21
478.633974596
 31
0.0
  0
LINE
  8
0
  6
CONTINUOUS
 62
     1
 10
575.639733105
 20
462.633974596
 30
0.0
 11
842.74722658
 21
462.633974596
 31
0.0
  0
POINT
  8
0
  6
CONTINUOUS
 62
     2
 10
717.964725201
 20
534.133974596
 30
0.0
  0
LINE
  8
2
  6
CONTINUOUS
 62
     2
 10
674.964725201
 20
669.633974596
 30
0.0
 11
671.729487137
 21
657.559901768
 31
0.0
  0
LINE
  8
2
  6
CONTINUOUS
 62
     2
 10
674.964725201
 20
669.633974596
 30
0.0
 11
674.964725201
 21
559.633974596
 31
0.0
  0
LINE
  8
2
  6
CONTINUOUS
 62
     2
 10
674.964725201
 20
669.633974596
 30
0.0
 11
678.199963265
 21
657.559901768
 31
0.0
  0
TEXT
  8
2
  6
CONTINUOUS
 62
     2
 10
669.964725201
 20
578.233974596
 30
0.0
 40
18.0
  1
φ１１０
 50
90.0
 41
0.9
 51
0.0
  7
KANJI40
  0
LINE
  8
2
  6
CONTINUOUS
 62
     2
 10
674.964725201
 20
559.633974596
 30
0.0
 11
671.729487137
 21
571.708047425
 31
0.0
  0
LINE
  8
2
  6
CONTINUOUS
 62
     2
 10
674.964725201
 20
559.633974596
 30
0.0
 11
678.199963265
 21
571.708047425
 31
0.0
  0
LINE
  8
0
  6
LTYPE3
 62
     2
 10
279.964725201
 20
614.633974596
 30
0.0
 11
651.199963265
 21
614.633974596
 31
0.0
  0
LINE
  8
0
  6
LTYPE3
 62
     2
 10
841.764725201
 20
614.633974596
 30
0.0
 11
672.199963265
 21
614.633974596
 31
0.0
  0
LINE
  8
0
  6
CONTINUOUS
 62
     1
 10
820.74722658
 20
559.633974596
 30
0.0
 11
614.964725201
 21
559.633974596
 31
0.0
  0
LINE
  8
0
  6
CONTINUOUS
 62
     1
 10
880.74722658
 20
559.633974596
 30
0.0
 11
836.74722658
 21
559.633974596
 31
0.0
  0
LINE
  8
0
  6
LTYPE2
 62
     2
 10
858.74722658
 20
179.133974596
 30
0.0
 11
858.74722658
 21
506.133974596
 31
0.0
  0
ARC
  8
0
  6
CONTINUOUS
 62
     1
 10
803.74722658
 20
285.733974596
 30
0.0
 40
10.0
 50
90.0
 51
180.0
  0
LINE
  8
0
  6
LTYPE3
 62
     2
 10
925.008247797
 20
271.233974596
 30
0.0
 11
833.74722658
 21
271.233974596
 31
0.0
  0
LINE
  8
7
  6
CONTINUOUS
 62
     2
 10
837.34722658
 20
271.233974596
 30
0.0
 11
829.038748691
 21
265.668977277
 31
0.0
  0
LINE
  8
7
  6
CONTINUOUS
 62
     2
 10
837.34722658
 20
271.233974596
 30
0.0
 11
832.93437232
 21
262.260306601
 31
0.0
  0
LINE
  8
7
  6
CONTINUOUS
 62
     2
 10
837.34722658
 20
271.233974596
 30
0.0
 11
826.14722658
 21
258.433974596
 31
0.0
  0
LINE
  8
7
  6
CONTINUOUS
 62
     2
 10
826.14722658
 20
258.433974596
 30
0.0
 11
767.34722658
 21
258.433974596
 31
0.0
  0
TEXT
  8
7
  6
CONTINUOUS
 62
     2
 10
767.34722658
 20
262.433974596
 30
1.2
 40
12.0
  1
ＰＦ１／２
 50
0.0
 41
0.9
 51
0.0
  7
KANJI62
  0
LINE
  8
0
  6
CONTINUOUS
 62
     1
 10
793.74722658
 20
275.433974596
 30
0.0
 11
793.74722658
 21
285.733974596
 31
0.0
  0
LINE
  8
0
  6
CONTINUOUS
 62
     1
 10
793.74722658
 20
221.233974596
 30
0.0
 11
793.74722658
 21
255.433974596
 31
0.0
  0
LINE
  8
0
  6
LTYPE3
 62
     2
 10
848.78722658
 20
286.333974596
 30
0.0
 11
837.34722658
 21
286.333974596
 31
0.0
  0
LINE
  8
0
  6
LTYPE3
 62
     2
 10
842.34722658
 20
290.233974596
 30
0.0
 11
842.34722658
 21
281.253974596
 31
0.0
  0
LINE
  8
0
  6
CONTINUOUS
 62
     1
 10
837.34722658
 20
289.233974596
 30
0.0
 11
837.34722658
 21
253.233974596
 31
0.0
  0
LINE
  8
0
  6
LTYPE3
 62
     2
 10
848.24722658
 20
256.133974596
 30
0.0
 11
837.34722658
 21
256.133974596
 31
0.0
  0
LINE
  8
0
  6
LTYPE3
 62
     2
 10
842.34722658
 20
262.153974596
 30
0.0
 11
842.34722658
 21
252.233974596
 31
0.0
  0
LINE
  8
0
  6
CONTINUOUS
 62
     1
 10
904.04722658
 20
251.233974596
 30
0.0
 11
839.34722658
 21
251.233974596
 31
0.0
  0
ARC
  8
0
  6
CONTINUOUS
 62
     1
 10
839.34722658
 20
253.233974596
 30
0.0
 40
2.0
 50
180.0
 51
270.0
  0
LINE
  8
0
  6
CONTINUOUS
 62
     1
 10
923.74722658
 20
283.933974596
 30
0.0
 11
923.74722658
 21
285.733974596
 31
0.0
  0
ARC
  8
0
  6
CONTINUOUS
 62
     1
 10
913.74722658
 20
285.733974596
 30
0.0
 40
10.0
 50
0.0
 51
90.0
  0
LINE
  8
0
  6
CONTINUOUS
 62
     1
 10
923.74722658
 20
236.778336316
 30
0.0
 11
923.74722658
 21
258.583974596
 31
0.0
  0
LINE
  8
0
  6
LTYPE3
 62
     2
 10
906.04722658
 20
286.333974596
 30
0.0
 11
896.08722658
 21
286.333974596
 31
0.0
  0
LINE
  8
0
  6
LTYPE3
 62
     2
 10
901.04722658
 20
290.233974596
 30
0.0
 11
901.04722658
 21
282.353974596
 31
0.0
  0
LINE
  8
0
  6
CONTINUOUS
 62
     1
 10
929.44722658
 20
283.933974596
 30
0.0
 11
906.04722658
 21
283.933974596
 31
0.0
  0
LINE
  8
0
  6
CONTINUOUS
 62
     1
 10
906.04722658
 20
289.233974596
 30
0.0
 11
906.04722658
 21
253.233974596
 31
0.0
  0
LINE
  8
0
  6
LTYPE3
 62
     2
 10
906.04722658
 20
256.133974596
 30
0.0
 11
896.24722658
 21
256.133974596
 31
0.0
  0
LINE
  8
0
  6
LTYPE3
 62
     2
 10
901.04722658
 20
262.253974596
 30
0.0
 11
901.04722658
 21
252.233974596
 31
0.0
  0
ARC
  8
0
  6
CONTINUOUS
 62
     1
 10
904.04722658
 20
253.233974596
 30
0.0
 40
2.0
 50
270.0
 51
0.0
  0
LINE
  8
0
  6
CONTINUOUS
 62
     1
 10
910.408247797
 20
258.533974596
 30
0.0
 11
906.04722658
 21
258.533974596
 31
0.0
  0
ARC
  8
0
  6
CONTINUOUS
 62
     1
 10
929.44722658
 20
281.933974596
 30
0.0
 40
2.0
 50
0.0
 51
90.0
  0
LINE
  8
0
  6
CONTINUOUS
 62
     1
 10
931.44722658
 20
281.933974596
 30
0.0
 11
931.44722658
 21
260.533974596
 31
0.0
  0
ARC
  8
0
  6
CONTINUOUS
 62
     1
 10
915.74722658
 20
271.233974596
 30
0.0
 40
6.0
 50
356.983045121
 51
183.016954879
  0
LINE
  8
0
  6
LTYPE3
 62
     2
 10
915.74722658
 20
280.333974596
 30
0.0
 11
915.74722658
 21
222.833974596
 31
0.0
  0
LINE
  8
0
  6
CONTINUOUS
 62
     1
 10
921.738910568
 20
270.918185123
 30
0.0
 11
919.741682572
 21
233.02344828
 31
0.0
  0
LINE
  8
0
  6
CONTINUOUS
 62
     1
 10
909.755542593
 20
270.918185123
 30
0.0
 11
911.752770588
 21
233.02344828
 31
0.0
  0
ARC
  8
0
  6
CONTINUOUS
 62
     1
 10
929.44722658
 20
260.533974596
 30
0.0
 40
2.0
 50
270.0
 51
0.0
  0
LINE
  8
0
  6
CONTINUOUS
 62
     1
 10
929.44722658
 20
258.533974596
 30
0.0
 11
921.086205363
 21
258.533974596
 31
0.0
  0
LINE
  8
0
  6
CONTINUOUS
 62
     1
 10
803.74722658
 20
295.733974596
 30
0.0
 11
913.74722658
 21
295.733974596
 31
0.0
  0
LINE
  8
0
  6
CONTINUOUS
 62
     1
 10
904.04722658
 20
291.233974596
 30
0.0
 11
839.34722658
 21
291.233974596
 31
0.0
  0
ARC
  8
0
  6
CONTINUOUS
 62
     1
 10
839.34722658
 20
289.233974596
 30
0.0
 40
2.0
 50
90.0
 51
180.0
  0
ARC
  8
0
  6
CONTINUOUS
 62
     1
 10
904.04722658
 20
289.233974596
 30
0.0
 40
2.0
 50
0.0
 51
90.0
  0
LINE
  8
0
  6
CONTINUOUS
 62
     2
 10
797.74722658
 20
295.733974596
 30
0.0
 11
740.1
 21
295.733974596
 31
0.0
  0
LINE
  8
0
  6
CONTINUOUS
 62
     2
 10
746.1
 20
295.733974596
 30
0.0
 11
742.994171459
 21
284.142864681
 31
0.0
  0
LINE
  8
0
  6
CONTINUOUS
 62
     2
 10
746.1
 20
295.733974596
 30
0.0
 11
749.205828541
 21
284.142864681
 31
0.0
  0
LINE
  8
0
  6
CONTINUOUS
 62
     2
 10
746.1
 20
295.733974596
 30
0.0
 11
746.1
 21
130.733974596
 31
0.0
  0
LINE
  8
0
  6
CONTINUOUS
 62
     1
 10
842.74722658
 20
229.233974596
 30
0.0
 11
874.74722658
 21
229.233974596
 31
0.0
  0
LINE
  8
0
  6
CONTINUOUS
 62
     1
 10
842.74722658
 20
197.233974596
 30
0.0
 11
842.74722658
 21
229.233974596
 31
0.0
  0
LINE
  8
0
  6
CONTINUOUS
 62
     1
 10
874.74722658
 20
197.233974596
 30
0.0
 11
842.74722658
 21
197.233974596
 31
0.0
  0
LINE
  8
0
  6
LTYPE3
 62
     2
 10
811.44722658
 20
140.133974596
 30
0.0
 11
821.40722658
 21
140.133974596
 31
0.0
  0
LINE
  8
0
  6
LTYPE3
 62
     2
 10
816.44722658
 20
136.233974596
 30
0.0
 11
816.44722658
 21
144.113974596
 31
0.0
  0
LINE
  8
0
  6
LTYPE3
 62
     2
 10
811.44722658
 20
170.333974596
 30
0.0
 11
821.24722658
 21
170.333974596
 31
0.0
  0
LINE
  8
0
  6
LTYPE3
 62
     2
 10
816.44722658
 20
164.213974596
 30
0.0
 11
816.44722658
 21
174.233974596
 31
0.0
  0
LINE
  8
0
  6
LTYPE3
 62
     2
 10
812.74722658
 20
193.233974596
 30
0.0
 11
789.74722658
 21
193.233974596
 31
0.0
  0
ARC
  8
0
  6
CONTINUOUS
 62
     1
 10
813.44722658
 20
137.233974596
 30
0.0
 40
2.0
 50
180.0
 51
270.0
  0
LINE
  8
0
  6
CONTINUOUS
 62
     1
 10
788.04722658
 20
142.533974596
 30
0.0
 11
811.44722658
 21
142.533974596
 31
0.0
  0
ARC
  8
0
  6
CONTINUOUS
 62
     1
 10
788.04722658
 20
144.533974596
 30
0.0
 40
2.0
 50
180.0
 51
270.0
  0
LINE
  8
0
  6
CONTINUOUS
 62
     1
 10
786.04722658
 20
144.533974596
 30
0.0
 11
786.04722658
 21
165.933974596
 31
0.0
  0
ARC
  8
0
  6
CONTINUOUS
 62
     1
 10
788.04722658
 20
165.933974596
 30
0.0
 40
2.0
 50
90.0
 51
180.0
  0
LINE
  8
0
  6
CONTINUOUS
 62
     1
 10
811.44722658
 20
137.233974596
 30
0.0
 11
811.44722658
 21
173.233974596
 31
0.0
  0
ARC
  8
0
  6
CONTINUOUS
 62
     1
 10
813.44722658
 20
173.233974596
 30
0.0
 40
2.0
 50
90.0
 51
180.0
  0
LINE
  8
0
  6
CONTINUOUS
 62
     1
 10
813.44722658
 20
175.233974596
 30
0.0
 11
878.14722658
 21
175.233974596
 31
0.0
  0
LINE
  8
0
  6
CONTINUOUS
 62
     1
 10
813.44722658
 20
135.233974596
 30
0.0
 11
878.14722658
 21
135.233974596
 31
0.0
  0
LINE
  8
0
  6
CONTINUOUS
 62
     1
 10
793.74722658
 20
142.533974596
 30
0.0
 11
793.74722658
 21
140.733974596
 31
0.0
  0
ARC
  8
0
  6
CONTINUOUS
 62
     1
 10
803.74722658
 20
140.733974596
 30
0.0
 40
10.0
 50
180.0
 51
270.0
  0
LINE
  8
0
  6
CONTINUOUS
 62
     1
 10
795.755542593
 20
155.54976407
 30
0.0
 11
797.752770588
 21
193.444500912
 31
0.0
  0
LINE
  8
0
  6
CONTINUOUS
 62
     1
 10
807.738910568
 20
155.54976407
 30
0.0
 11
805.741682572
 21
193.444500912
 31
0.0
  0
ARC
  8
0
  6
CONTINUOUS
 62
     1
 10
801.74722658
 20
193.233974596
 30
0.0
 40
4.0
 50
356.983042101
 51
183.016952287
  0
ARC
  8
0
  6
CONTINUOUS
 62
     1
 10
801.74722658
 20
193.233974596
 30
0.0
 40
8.75
 50
300.219855722
 51
239.780144278
  0
ARC
  8
0
  6
CONTINUOUS
 62
     1
 10
801.74722658
 20
155.233974596
 30
0.0
 40
6.0
 50
176.983045121
 51
3.016954879
  0
LINE
  8
0
  6
CONTINUOUS
 62
     1
 10
807.086205363
 20
167.933974596
 30
0.0
 11
811.44722658
 21
167.933974596
 31
0.0
  0
LINE
  8
0
  6
CONTINUOUS
 62
     1
 10
788.04722658
 20
167.933974596
 30
0.0
 11
796.408247797
 21
167.933974596
 31
0.0
  0
LINE
  8
0
  6
LTYPE3
 62
     2
 10
801.74722658
 20
146.133974596
 30
0.0
 11
801.74722658
 21
203.633974596
 31
0.0
  0
LINE
  8
0
  6
LTYPE3
 62
     2
 10
792.486205363
 20
155.233974596
 30
0.0
 11
883.74722658
 21
155.233974596
 31
0.0
  0
LINE
  8
0
  6
CONTINUOUS
 62
     1
 10
793.74722658
 20
189.689612877
 30
0.0
 11
793.74722658
 21
167.883974596
 31
0.0
  0
LINE
  8
0
  6
CONTINUOUS
 62
     1
 10
793.74722658
 20
205.233974596
 30
0.0
 11
793.74722658
 21
196.778336316
 31
0.0
  0
LINE
  8
0
  6
CONTINUOUS
 62
     1
 10
777.368169564
 20
205.233974596
 30
0.0
 11
842.74722658
 21
205.233974596
 31
0.0
  0
LINE
  8
0
  6
CONTINUOUS
 62
     1
 10
842.74722658
 20
221.233974596
 30
0.0
 11
777.437804543
 21
221.233974596
 31
0.0
  0
ARC
  8
0
  6
CONTINUOUS
 62
     1
 10
782.992695158
 20
217.233974596
 30
0.0
 40
6.845203412
 50
144.242860688
 51
215.757139312
  0
ARC
  8
0
  6
CONTINUOUS
 62
     1
 10
771.882913928
 20
217.233974596
 30
0.0
 40
6.845203412
 50
324.242860688
 51
35.757139312
  0
ARC
  8
0
  6
CONTINUOUS
 62
     1
 10
771.882913928
 20
209.233974596
 30
0.0
 40
6.845203412
 50
324.242860688
 51
35.757139312
  0
LINE
  8
0
  6
LTYPE2
 62
     2
 10
1007.24722658
 20
213.233974596
 30
0.0
 11
772.402987053
 21
213.233974596
 31
0.0
  0
LINE
  8
0
  6
LTYPE3
 62
     2
 10
869.24722658
 20
170.333974596
 30
0.0
 11
880.14722658
 21
170.333974596
 31
0.0
  0
LINE
  8
0
  6
LTYPE3
 62
     2
 10
875.14722658
 20
164.313974596
 30
0.0
 11
875.14722658
 21
174.233974596
 31
0.0
  0
LINE
  8
0
  6
LTYPE3
 62
     2
 10
868.70722658
 20
140.133974596
 30
0.0
 11
880.14722658
 21
140.133974596
 31
0.0
  0
LINE
  8
0
  6
LTYPE3
 62
     2
 10
875.14722658
 20
136.233974596
 30
0.0
 11
875.14722658
 21
145.213974596
 31
0.0
  0
LINE
  8
0
  6
CONTINUOUS
 62
     1
 10
874.74722658
 20
197.233974596
 30
0.0
 11
874.74722658
 21
229.233974596
 31
0.0
  0
ARC
  8
0
  6
CONTINUOUS
 62
     1
 10
913.74722658
 20
140.733974596
 30
0.0
 40
10.0
 50
270.0
 51
0.0
  0
LINE
  8
0
  6
CONTINUOUS
 62
     1
 10
923.74722658
 20
221.233974596
 30
0.0
 11
923.74722658
 21
229.689612877
 31
0.0
  0
LINE
  8
0
  6
LTYPE2
 62
     2
 10
955.24722658
 20
203.233974596
 30
0.0
 11
955.24722658
 21
223.233974596
 31
0.0
  0
CIRCLE
  8
0
  6
CONTINUOUS
 62
     2
 10
955.24722658
 20
213.233974596
 30
0.0
 40
5.0
  0
CIRCLE
  8
0
  6
CONTINUOUS
 62
     2
 10
955.24722658
 20
213.233974596
 30
0.0
 40
4.0
  0
LINE
  8
7
  6
CONTINUOUS
 62
     2
 10
892.79722658
 20
169.383974596
 30
0.0
 11
951.59722658
 21
169.383974596
 31
0.0
  0
TEXT
  8
7
  6
CONTINUOUS
 62
     2
 10
892.79722658
 20
173.383974596
 30
1.2
 40
12.0
  1
ＰＦ１／２
 50
0.0
 41
0.9
 51
0.0
  7
KANJI62
  0
LINE
  8
0
  6
CONTINUOUS
 62
     1
 10
923.74722658
 20
166.433974596
 30
0.0
 11
923.74722658
 21
140.733974596
 31
0.0
  0
LINE
  8
0
  6
CONTINUOUS
 62
     1
 10
923.74722658
 20
205.233974596
 30
0.0
 11
923.74722658
 21
184.433974596
 31
0.0
  0
LINE
  8
0
  6
LTYPE3
 62
     2
 10
904.74722658
 20
233.233974596
 30
0.0
 11
927.74722658
 21
233.233974596
 31
0.0
  0
ARC
  8
0
  6
CONTINUOUS
 62
     1
 10
915.74722658
 20
233.233974596
 30
0.0
 40
8.75
 50
120.219855722
 51
59.780144278
  0
ARC
  8
0
  6
CONTINUOUS
 62
     1
 10
915.74722658
 20
233.233974596
 30
0.0
 40
4.0
 50
176.983042101
 51
3.016952287
  0
ARC
  8
0
  6
CONTINUOUS
 62
     1
 10
878.14722658
 20
173.233974596
 30
0.0
 40
2.0
 50
0.0
 51
90.0
  0
LINE
  8
0
  6
CONTINUOUS
 62
     1
 10
880.14722658
 20
137.233974596
 30
0.0
 11
880.14722658
 21
173.233974596
 31
0.0
  0
ARC
  8
0
  6
CONTINUOUS
 62
     1
 10
878.14722658
 20
137.233974596
 30
0.0
 40
2.0
 50
270.0
 51
0.0
  0
LINE
  8
7
  6
CONTINUOUS
 62
     2
 10
880.14722658
 20
155.233974596
 30
0.0
 11
888.514534165
 21
160.710119571
 31
0.0
  0
LINE
  8
7
  6
CONTINUOUS
 62
     2
 10
880.14722658
 20
155.233974596
 30
0.0
 11
884.655455023
 21
164.160109051
 31
0.0
  0
LINE
  8
7
  6
CONTINUOUS
 62
     2
 10
880.14722658
 20
155.233974596
 30
0.0
 11
892.79722658
 21
169.383974596
 31
0.0
  0
LINE
  8
0
  6
CONTINUOUS
 62
     2
 10
746.1
 20
130.733974596
 30
0.0
 11
749.205828541
 21
142.325084512
 31
0.0
  0
LINE
  8
0
  6
CONTINUOUS
 62
     2
 10
746.1
 20
130.733974596
 30
0.0
 11
742.994171459
 21
142.325084512
 31
0.0
  0
TEXT
  8
0
  6
CONTINUOUS
 62
     3
 10
743.1
 20
188.933974596
 30
0.0
 40
18.0
  1
１６５
 50
90.0
 41
0.9
 51
0.0
  7
KANJI40
  0
LINE
  8
0
  6
CONTINUOUS
 62
     2
 10
793.74722658
 20
136.533974596
 30
0.0
 11
793.74722658
 21
77.533974596
 31
0.0
  0
LINE
  8
0
  6
CONTINUOUS
 62
     2
 10
923.74722658
 20
134.73398835
 30
0.0
 11
923.74722658
 21
77.533974596
 31
0.0
  0
LINE
  8
0
  6
CONTINUOUS
 62
     1
 10
934.24722658
 20
224.233974596
 30
0.0
 11
942.907480618
 21
229.233974596
 31
0.0
  0
LINE
  8
0
  6
CONTINUOUS
 62
     1
 10
934.24722658
 20
202.233974596
 30
0.0
 11
934.24722658
 21
224.233974596
 31
0.0
  0
LINE
  8
0
  6
CONTINUOUS
 62
     1
 10
942.89722658
 20
197.233974596
 30
0.0
 11
942.89722658
 21
229.233974596
 31
0.0
  0
LINE
  8
0
  6
CONTINUOUS
 62
     1
 10
942.89722658
 20
229.233974596
 30
0.0
 11
967.59722658
 21
229.233974596
 31
0.0
  0
LINE
  8
0
  6
CONTINUOUS
 62
     1
 10
934.24722658
 20
202.233974596
 30
0.0
 11
942.907480618
 21
197.233974596
 31
0.0
  0
LINE
  8
0
  6
CONTINUOUS
 62
     1
 10
942.89722658
 20
197.233974596
 30
0.0
 11
967.59722658
 21
197.233974596
 31
0.0
  0
LINE
  8
0
  6
CONTINUOUS
 62
     1
 10
874.74722658
 20
221.233974596
 30
0.0
 11
934.24722658
 21
221.233974596
 31
0.0
  0
LINE
  8
0
  6
CONTINUOUS
 62
     1
 10
934.24722658
 20
205.233974596
 30
0.0
 11
874.74722658
 21
205.233974596
 31
0.0
  0
LINE
  8
0
  6
CONTINUOUS
 62
     1
 10
913.74722658
 20
130.733974596
 30
0.0
 11
803.74722658
 21
130.733974596
 31
0.0
  0
LINE
  8
0
  6
CONTINUOUS
 62
     2
 10
797.74722658
 20
130.733974596
 30
0.0
 11
740.1
 21
130.733974596
 31
0.0
  0
ARC
  8
0
  6
CONTINUOUS
 62
     1
 10
997.001758002
 20
217.233974596
 30
0.0
 40
6.845203412
 50
324.242860688
 51
35.757139312
  0
ARC
  8
0
  6
CONTINUOUS
 62
     1
 10
1008.111539233
 20
217.233974596
 30
0.0
 40
6.845203412
 50
144.242860688
 51
215.757139312
  0
ARC
  8
0
  6
CONTINUOUS
 62
     1
 10
1008.111539233
 20
209.233974596
 30
0.0
 40
6.845203412
 50
144.242860688
 51
215.757139312
  0
LINE
  8
0
  6
CONTINUOUS
 62
     1
 10
976.24722658
 20
224.233974596
 30
0.0
 11
967.586972542
 21
229.233974596
 31
0.0
  0
LINE
  8
0
  6
CONTINUOUS
 62
     1
 10
967.59722658
 20
197.233974596
 30
0.0
 11
967.59722658
 21
229.233974596
 31
0.0
  0
LINE
  8
0
  6
CONTINUOUS
 62
     1
 10
976.24722658
 20
202.233974596
 30
0.0
 11
976.24722658
 21
224.233974596
 31
0.0
  0
LINE
  8
0
  6
CONTINUOUS
 62
     1
 10
976.24722658
 20
202.233974596
 30
0.0
 11
967.586972542
 21
197.233974596
 31
0.0
  0
LINE
  8
0
  6
CONTINUOUS
 62
     1
 10
976.24722658
 20
221.233974596
 30
0.0
 11
1002.556648618
 21
221.233974596
 31
0.0
  0
LINE
  8
0
  6
CONTINUOUS
 62
     1
 10
1002.556648618
 20
205.233974596
 30
0.0
 11
976.24722658
 21
205.233974596
 31
0.0
  0
LINE
  8
0
  6
CONTINUOUS
 62
     2
 10
793.74722658
 20
83.533974596
 30
0.0
 11
805.338336496
 21
80.428146055
 31
0.0
  0
LINE
  8
0
  6
CONTINUOUS
 62
     2
 10
793.74722658
 20
83.533974596
 30
0.0
 11
805.338336496
 21
86.639803137
 31
0.0
  0
LINE
  8
0
  6
CONTINUOUS
 62
     2
 10
793.74722658
 20
83.533974596
 30
0.0
 11
923.74722658
 21
83.533974596
 31
0.0
  0
LINE
  8
0
  6
CONTINUOUS
 62
     2
 10
923.74722658
 20
83.533974596
 30
0.0
 11
912.156116665
 21
86.639803137
 31
0.0
  0
LINE
  8
0
  6
CONTINUOUS
 62
     2
 10
923.74722658
 20
83.533974596
 30
0.0
 11
912.156116665
 21
80.428146055
 31
0.0
  0
TEXT
  8
0
  6
CONTINUOUS
 62
     3
 10
834.44722658
 20
86.533974596
 30
0.0
 40
18.0
  1
１３０
 50
0.0
 41
0.9
 51
0.0
  7
KANJI40
  0
LINE
  8
7
  6
CONTINUOUS
 62
     2
 10
288.964725201
 20
376.133974596
 30
0.0
 11
288.964725201
 21
355.133974596
 31
0.0
  0
LINE
  8
2
  6
CONTINUOUS
 62
     2
 10
288.964725201
 20
320.633974596
 30
0.0
 11
301.038798029
 21
317.398736532
 31
0.0
  0
LINE
  8
2
  6
CONTINUOUS
 62
     2
 10
288.964725201
 20
320.633974596
 30
0.0
 11
301.038798029
 21
323.86921266
 31
0.0
  0
LINE
  8
2
  6
CONTINUOUS
 62
     2
 10
288.964725201
 20
320.633974596
 30
0.0
 11
1093.564725201
 21
320.633974596
 31
0.0
  0
LINE
  8
2
  6
CONTINUOUS
 62
     2
 10
485.964725201
 20
394.633974596
 30
0.0
 11
953.364725201
 21
394.633974596
 31
0.0
  0
LINE
  8
2
  6
CONTINUOUS
 62
     2
 10
485.964725201
 20
362.633974596
 30
0.0
 11
1093.564725201
 21
362.633974596
 31
0.0
  0
TEXT
  8
2
  6
CONTINUOUS
 62
     2
 10
639.514725201
 20
325.633974596
 30
0.0
 40
18.0
  1
ｍｉｎ．ＡＬ
 50
0.0
 41
0.9
 51
0.0
  7
KANJI40
  0
LINE
  8
2
  6
CONTINUOUS
 62
     2
 10
485.964725201
 20
409.633974596
 30
0.0
 11
485.964725201
 21
384.633974596
 31
0.0
  0
LINE
  8
2
  6
CONTINUOUS
 62
     2
 10
485.964725201
 20
394.633974596
 30
0.0
 11
498.038798029
 21
391.398736532
 31
0.0
  0
LINE
  8
2
  6
CONTINUOUS
 62
     2
 10
485.964725201
 20
394.633974596
 30
0.0
 11
498.038798029
 21
397.86921266
 31
0.0
  0
LINE
  8
2
  6
CONTINUOUS
 62
     2
 10
485.964725201
 20
364.633974596
 30
0.0
 11
485.964725201
 21
352.633974596
 31
0.0
  0
LINE
  8
2
  6
CONTINUOUS
 62
     2
 10
485.964725201
 20
362.633974596
 30
0.0
 11
498.038798029
 21
359.398736532
 31
0.0
  0
LINE
  8
2
  6
CONTINUOUS
 62
     2
 10
485.964725201
 20
362.633974596
 30
0.0
 11
498.038798029
 21
365.86921266
 31
0.0
  0
TEXT
  8
2
  6
CONTINUOUS
 62
     2
 10
746.764725201
 20
367.633974596
 30
0.0
 40
18.0
  1
ｍｉｎ．Ｌ
 50
0.0
 41
0.9
 51
0.0
  7
KANJI40
  0
TEXT
  8
2
  6
CONTINUOUS
 62
     2
 10
711.664725201
 20
399.633974596
 30
0.0
 40
18.0
  1
Ｃ
 50
0.0
 41
0.9
 51
0.0
  7
KANJI40
  0
LINE
  8
2
  6
CONTINUOUS
 62
     2
 10
953.364725201
 20
394.633974596
 30
0.0
 11
941.290652372
 21
397.86921266
 31
0.0
  0
LINE
  8
2
  6
CONTINUOUS
 62
     2
 10
953.364725201
 20
394.633974596
 30
0.0
 11
941.290652372
 21
391.398736532
 31
0.0
  0
LINE
  8
2
  6
CONTINUOUS
 62
     2
 10
953.364725201
 20
406.633974596
 30
0.0
 11
953.364725201
 21
384.633974596
 31
0.0
  0
LINE
  8
2
  6
CONTINUOUS
 62
     2
 10
953.364725201
 20
394.633974596
 30
0.0
 11
965.438798029
 21
391.398736532
 31
0.0
  0
LINE
  8
2
  6
CONTINUOUS
 62
     2
 10
953.364725201
 20
394.633974596
 30
0.0
 11
965.438798029
 21
397.86921266
 31
0.0
  0
LINE
  8
2
  6
CONTINUOUS
 62
     2
 10
953.364725201
 20
394.633974596
 30
0.0
 11
1034.564725201
 21
394.633974596
 31
0.0
  0
LINE
  8
2
  6
CONTINUOUS
 62
     2
 10
1034.564725201
 20
394.633974596
 30
0.0
 11
1022.490652372
 21
397.86921266
 31
0.0
  0
LINE
  8
2
  6
CONTINUOUS
 62
     2
 10
1034.564725201
 20
394.633974596
 30
0.0
 11
1022.490652372
 21
391.398736532
 31
0.0
  0
LINE
  8
2
  6
CONTINUOUS
 62
     2
 10
1034.564725201
 20
409.633974596
 30
0.0
 11
1034.564725201
 21
384.633974596
 31
0.0
  0
LINE
  8
2
  6
CONTINUOUS
 62
     2
 10
1034.564725201
 20
394.633974596
 30
0.0
 11
1046.638798029
 21
391.398736532
 31
0.0
  0
LINE
  8
2
  6
CONTINUOUS
 62
     2
 10
1034.564725201
 20
394.633974596
 30
0.0
 11
1046.638798029
 21
397.86921266
 31
0.0
  0
LINE
  8
2
  6
CONTINUOUS
 62
     2
 10
1034.564725201
 20
394.633974596
 30
0.0
 11
1093.564725201
 21
394.633974596
 31
0.0
  0
LINE
  8
2
  6
CONTINUOUS
 62
     2
 10
1093.564725201
 20
394.633974596
 30
0.0
 11
1081.490652372
 21
397.86921266
 31
0.0
  0
LINE
  8
2
  6
CONTINUOUS
 62
     2
 10
1093.564725201
 20
394.633974596
 30
0.0
 11
1081.490652372
 21
391.398736532
 31
0.0
  0
LINE
  8
2
  6
CONTINUOUS
 62
     2
 10
1093.564725201
 20
362.633974596
 30
0.0
 11
1081.490652372
 21
365.86921266
 31
0.0
  0
LINE
  8
2
  6
CONTINUOUS
 62
     2
 10
1093.564725201
 20
362.633974596
 30
0.0
 11
1081.490652372
 21
359.398736532
 31
0.0
  0
LINE
  8
2
  6
CONTINUOUS
 62
     2
 10
1093.564725201
 20
398.633974596
 30
0.0
 11
1093.564725201
 21
352.633974596
 31
0.0
  0
LINE
  8
2
  6
CONTINUOUS
 62
     2
 10
1093.564725201
 20
368.633974596
 30
0.0
 11
1093.564725201
 21
310.633974596
 31
0.0
  0
LINE
  8
2
  6
CONTINUOUS
 62
     2
 10
1093.564725201
 20
344.633974596
 30
0.0
 11
1093.564725201
 21
310.633974596
 31
0.0
  0
TEXT
  8
2
  6
CONTINUOUS
 62
     2
 10
1047.314725201
 20
399.633974596
 30
0.0
 40
18.0
  1
６０
 50
0.0
 41
0.9
 51
0.0
  7
KANJI40
  0
TEXT
  8
2
  6
CONTINUOUS
 62
     2
 10
959.714725201
 20
399.633974596
 30
-3.0
 40
18.0
  1
ｍｉｎ．Ｐ
 50
0.0
 41
0.9
 51
0.0
  7
KANJI63
  0
LINE
  8
2
  6
CONTINUOUS
 62
     2
 10
1093.564725201
 20
320.633974596
 30
0.0
 11
1081.490652372
 21
323.86921266
 31
0.0
  0
LINE
  8
2
  6
CONTINUOUS
 62
     2
 10
1093.564725201
 20
320.633974596
 30
0.0
 11
1081.490652372
 21
317.398736532
 31
0.0
  0
LINE
  8
2
  6
CONTINUOUS
 62
     2
 10
1093.564725201
 20
320.633974596
 30
0.0
 11
1105.638798029
 21
317.398736532
 31
0.0
  0
LINE
  8
2
  6
CONTINUOUS
 62
     2
 10
1093.564725201
 20
320.633974596
 30
0.0
 11
1105.638798029
 21
323.86921266
 31
0.0
  0
LINE
  8
2
  6
CONTINUOUS
 62
     2
 10
1093.564725201
 20
320.633974596
 30
0.0
 11
1123.564725201
 21
320.633974596
 31
0.0
  0
LINE
  8
2
  6
CONTINUOUS
 62
     2
 10
1123.564725201
 20
320.633974596
 30
0.0
 11
1111.490652372
 21
323.86921266
 31
0.0
  0
LINE
  8
2
  6
CONTINUOUS
 62
     2
 10
1123.564725201
 20
320.633974596
 30
0.0
 11
1111.490652372
 21
317.398736532
 31
0.0
  0
TEXT
  8
2
  6
CONTINUOUS
 62
     2
 10
1091.814725201
 20
325.633974596
 30
0.0
 40
18.0
  1
３０
 50
0.0
 41
0.9
 51
0.0
  7
KANJI40
  0
LINE
  8
2
  6
CONTINUOUS
 62
     2
 10
288.964725201
 20
513.133974596
 30
0.0
 11
288.964725201
 21
310.633974596
 31
0.0
  0
LINE
  8
7
  6
CONTINUOUS
 62
     2
 10
485.964725201
 20
546.133974596
 30
0.0
 11
485.964725201
 21
355.133974596
 31
0.0
  0
LINE
  8
2
  6
CONTINUOUS
 62
     2
 10
953.364725201
 20
556.633974596
 30
0.0
 11
953.364725201
 21
384.633974596
 31
0.0
  0
LINE
  8
2
  6
CONTINUOUS
 62
     2
 10
1034.564725201
 20
457.633974596
 30
0.0
 11
1034.564725201
 21
384.633974596
 31
0.0
  0
LINE
  8
2
  6
CONTINUOUS
 62
     2
 10
1123.564725201
 20
582.633974596
 30
0.0
 11
1123.564725201
 21
310.633974596
 31
0.0
  0
LINE
  8
2
  6
CONTINUOUS
 62
     2
 10
1093.564725201
 20
578.633974596
 30
0.0
 11
1093.564725201
 21
384.633974596
 31
0.0
  0
LINE
  8
0
  6
CONTINUOUS
 62
     2
 10
485.964725201
 20
372.633974596
 30
0.0
 11
485.964725201
 21
356.633974596
 31
0.0
  0
LINE
  8
0
  6
CONTINUOUS
 62
     2
 10
485.964725201
 20
362.633974596
 30
0.0
 11
474.373615285
 21
365.739803137
 31
0.0
  0
LINE
  8
0
  6
CONTINUOUS
 62
     2
 10
485.964725201
 20
362.633974596
 30
0.0
 11
474.373615285
 21
359.528146055
 31
0.0
  0
LINE
  8
0
  6
CONTINUOUS
 62
     2
 10
485.964725201
 20
362.633974596
 30
0.0
 11
288.964725201
 21
362.633974596
 31
0.0
  0
LINE
  8
0
  6
CONTINUOUS
 62
     2
 10
288.964725201
 20
362.633974596
 30
0.0
 11
300.555835116
 21
359.528146055
 31
0.0
  0
LINE
  8
0
  6
CONTINUOUS
 62
     2
 10
288.964725201
 20
362.633974596
 30
0.0
 11
300.555835116
 21
365.739803137
 31
0.0
  0
LINE
  8
0
  6
CONTINUOUS
 62
     2
 10
288.964725201
 20
364.633974596
 30
0.0
 11
288.964725201
 21
368.633974596
 31
0.0
  0
TEXT
  8
0
  6
CONTINUOUS
 62
     3
 10
363.164725201
 20
368.633974596
 30
0.0
 40
18.0
  1
１９７
 50
0.0
 41
0.9
 51
0.0
  7
KANJI40
  0
LINE
  8
0
  6
CONTINUOUS
 62
     2
 10
485.964725201
 20
405.633974596
 30
0.0
 11
485.964725201
 21
388.633974596
 31
0.0
  0
LINE
  8
0
  6
CONTINUOUS
 62
     2
 10
485.964725201
 20
394.633974596
 30
0.0
 11
474.373615285
 21
397.739803137
 31
0.0
  0
LINE
  8
0
  6
CONTINUOUS
 62
     2
 10
485.964725201
 20
394.633974596
 30
0.0
 11
474.373615285
 21
391.528146055
 31
0.0
  0
LINE
  8
0
  6
CONTINUOUS
 62
     2
 10
485.964725201
 20
394.633974596
 30
0.0
 11
400.964725201
 21
394.633974596
 31
0.0
  0
LINE
  8
0
  6
CONTINUOUS
 62
     2
 10
400.964725201
 20
394.633974596
 30
0.0
 11
412.555835116
 21
391.528146055
 31
0.0
  0
LINE
  8
0
  6
CONTINUOUS
 62
     2
 10
400.964725201
 20
394.633974596
 30
0.0
 11
412.555835116
 21
397.739803137
 31
0.0
  0
LINE
  8
0
  6
CONTINUOUS
 62
     2
 10
400.964725201
 20
514.633974596
 30
0.0
 11
400.964725201
 21
388.633974596
 31
0.0
  0
TEXT
  8
0
  6
CONTINUOUS
 62
     3
 10
427.264725201
 20
400.633974596
 30
0.0
 40
18.0
  1
８５
 50
0.0
 41
0.9
 51
0.0
  7
KANJI40
  0
LINE
  8
0
  6
CONTINUOUS
 62
     2
 10
400.964725201
 20
419.633974596
 30
0.0
 11
400.964725201
 21
388.633974596
 31
0.0
  0
LINE
  8
0
  6
CONTINUOUS
 62
     2
 10
400.964725201
 20
394.633974596
 30
0.0
 11
389.373615285
 21
397.739803137
 31
0.0
  0
LINE
  8
0
  6
CONTINUOUS
 62
     2
 10
400.964725201
 20
394.633974596
 30
0.0
 11
389.373615285
 21
391.528146055
 31
0.0
  0
LINE
  8
0
  6
CONTINUOUS
 62
     2
 10
400.964725201
 20
394.633974596
 30
0.0
 11
288.964725201
 21
394.633974596
 31
0.0
  0
LINE
  8
0
  6
CONTINUOUS
 62
     2
 10
288.964725201
 20
394.633974596
 30
0.0
 11
300.555835116
 21
391.528146055
 31
0.0
  0
LINE
  8
0
  6
CONTINUOUS
 62
     2
 10
288.964725201
 20
394.633974596
 30
0.0
 11
300.555835116
 21
397.739803137
 31
0.0
  0
LINE
  8
0
  6
CONTINUOUS
 62
     2
 10
288.964725201
 20
395.633974596
 30
0.0
 11
288.964725201
 21
388.633974596
 31
0.0
  0
TEXT
  8
0
  6
CONTINUOUS
 62
     3
 10
320.664725201
 20
400.633974596
 30
0.0
 40
18.0
  1
１１２
 50
0.0
 41
0.9
 51
0.0
  7
KANJI40
  0
LINE
  8
0
  6
CONTINUOUS
 62
     1
 10
1369.764725201
 20
497.633974596
 30
0.0
 11
1369.764725201
 21
544.133974596
 31
0.0
  0
LINE
  8
0
  6
CONTINUOUS
 62
     1
 10
1367.024609831
 20
558.772538882
 30
0.0
 11
1401.319288718
 21
524.477859995
 31
0.0
  0
LINE
  8
0
  6
CONTINUOUS
 62
     1
 10
1401.319288718
 20
524.477859995
 30
0.0
 11
1416.591593508
 21
539.750164785
 31
0.0
  0
LINE
  8
0
  6
LTYPE1
 62
     2
 10
1355.764725201
 20
602.133974596
 30
0.0
 11
1325.764725201
 21
602.133974596
 31
0.0
  0
ARC
  8
0
  6
CONTINUOUS
 62
     1
 10
1361.764725201
 20
555.633974596
 30
0.0
 40
8.0
 50
180.0
 51
270.0
  0
LINE
  8
0
  6
CONTINUOUS
 62
     1
 10
1361.764725201
 20
547.633974596
 30
0.0
 11
1372.764725201
 21
547.633974596
 31
0.0
  0
ARC
  8
0
  6
CONTINUOUS
 62
     1
 10
1372.764725201
 20
544.133974596
 30
0.0
 40
3.0
 50
90.0
 51
180.0
  0
LINE
  8
0
  6
LTYPE3
 62
     2
 10
1381.764725201
 20
561.633974596
 30
0.0
 11
1355.264725201
 21
561.633974596
 31
0.0
  0
LINE
  8
0
  6
LTYPE3
 62
     2
 10
1367.764725201
 20
576.133974596
 30
0.0
 11
1367.764725201
 21
549.133974596
 31
0.0
  0
LINE
  8
0
  6
LTYPE1
 62
     2
 10
1355.764725201
 20
602.133974596
 30
0.0
 11
1355.764725201
 21
627.133974596
 31
0.0
  0
CIRCLE
  8
0
  6
CONTINUOUS
 62
     1
 10
1384.264725201
 20
614.633974596
 30
0.0
 40
2.0
  0
LINE
  8
0
  6
LTYPE5
 62
     2
 10
1384.364725201
 20
610.633974596
 30
0.0
 11
1384.364725201
 21
618.833974596
 31
0.0
  0
LINE
  8
0
  6
CONTINUOUS
 62
     1
 10
1380.264725201
 20
602.133974596
 30
0.0
 11
1386.264725201
 21
602.133974596
 31
0.0
  0
LINE
  8
0
  6
LTYPE1
 62
     2
 10
1386.264725201
 20
602.133974596
 30
0.0
 11
1405.764725201
 21
602.133974596
 31
0.0
  0
LINE
  8
0
  6
CONTINUOUS
 62
     1
 10
1386.264725201
 20
592.633974596
 30
0.0
 11
1390.764725201
 21
592.633974596
 31
0.0
  0
LINE
  8
0
  6
CONTINUOUS
 62
     1
 10
1405.764725201
 20
584.633974596
 30
0.0
 11
1405.764725201
 21
644.633974596
 31
0.0
  0
LINE
  8
0
  6
CONTINUOUS
 62
     1
 10
1390.764725201
 20
584.633974596
 30
0.0
 11
1390.764725201
 21
644.633974596
 31
0.0
  0
LINE
  8
0
  6
CONTINUOUS
 62
     1
 10
1386.264725201
 20
592.633974596
 30
0.0
 11
1386.264725201
 21
636.633974596
 31
0.0
  0
LINE
  8
0
  6
CONTINUOUS
 62
     1
 10
1380.264725201
 20
602.133974596
 30
0.0
 11
1380.264725201
 21
627.133974596
 31
0.0
  0
LINE
  8
0
  6
CONTINUOUS
 62
     1
 10
1405.764725201
 20
602.133974596
 30
0.0
 11
1420.764725201
 21
602.133974596
 31
0.0
  0
LINE
  8
0
  6
CONTINUOUS
 62
     1
 10
1390.764725201
 20
584.633974596
 30
0.0
 11
1420.764725201
 21
584.633974596
 31
0.0
  0
LINE
  8
0
  6
CONTINUOUS
 62
     1
 10
1386.470046313
 20
578.217975365
 30
0.0
 11
1413.693657389
 21
550.994364289
 31
0.0
  0
LINE
  8
0
  6
LTYPE2
 62
     2
 10
1385.260261034
 20
579.129510429
 30
0.0
 11
1458.531097344
 21
652.40034674
 31
0.0
  0
LINE
  8
0
  6
CONTINUOUS
 62
     1
 10
1367.731716612
 20
596.956305067
 30
0.0
 11
1384.34872597
 21
580.339295709
 31
0.0
  0
LINE
  8
0
  6
CONTINUOUS
 62
     1
 10
1299.142358837
 20
715.043137525
 30
0.0
 11
1367.731716612
 21
596.956305067
 31
0.0
  0
LINE
  8
0
  6
CONTINUOUS
 62
     1
 10
1298.081698665
 20
627.715450048
 30
0.0
 11
1364.903289487
 21
560.893859226
 31
0.0
  0
LINE
  8
0
  6
CONTINUOUS
 62
     1
 10
1364.903289487
 20
560.893859226
 30
0.0
 11
1366.681664103
 21
562.672233842
 31
0.0
  0
LINE
  8
0
  6
CONTINUOUS
 62
     1
 10
1367.024609831
 20
558.772538882
 30
0.0
 11
1368.802984446
 21
560.550913498
 31
0.0
  0
ARC
  8
0
  6
CONTINUOUS
 62
     1
 10
1420.764725201
 20
614.633974596
 30
0.0
 40
75.0
 50
167.021869028
 51
102.978130972
  0
LINE
  8
0
  6
CONTINUOUS
 62
     1
 10
1384.34872597
 20
580.339295709
 30
0.0
 11
1390.764725201
 21
586.75529494
 31
0.0
  0
LINE
  8
0
  6
CONTINUOUS
 62
     1
 10
1386.470046313
 20
578.217975365
 30
0.0
 11
1392.886045544
 21
584.633974596
 31
0.0
  0
ARC
  8
0
  6
CONTINUOUS
 62
     1
 10
1367.764725201
 20
561.633974596
 30
0.0
 40
9.0
 50
151.437219909
 51
298.562780091
  0
LINE
  8
0
  6
LTYPE1
 62
     2
 10
1377.163174117
 20
548.633974596
 30
0.0
 11
1453.759674567
 21
548.633974596
 31
0.0
  0
LINE
  8
0
  6
LTYPE1
 62
     2
 10
1378.663174117
 20
547.133974596
 30
0.0
 11
1452.159674567
 21
547.133974596
 31
0.0
  0
ARC
  8
0
  6
LTYPE1
 62
     2
 10
1367.764725201
 20
561.633974596
 30
0.0
 40
9.0
 50
298.562780092
 51
25.806365577
  0
LINE
  8
0
  6
LTYPE1
 62
     2
 10
1375.764725201
 20
550.032423512
 30
0.0
 11
1375.764725201
 21
567.729816998
 31
0.0
  0
LINE
  8
0
  6
CONTINUOUS
 62
     1
 10
1375.764725201
 20
548.633974596
 30
0.0
 11
1375.764725201
 21
550.032423512
 31
0.0
  0
LINE
  8
0
  6
CONTINUOUS
 62
     1
 10
1375.764725201
 20
548.633974596
 30
0.0
 11
1377.163174117
 21
548.633974596
 31
0.0
  0
ARC
  8
0
  6
LTYPE1
 62
     2
 10
1367.764725201
 20
561.633974596
 30
0.0
 40
9.0
 50
58.93430791
 51
151.437219909
  0
LINE
  8
0
  6
CONTINUOUS
 62
     1
 10
1353.764725201
 20
555.633974596
 30
0.0
 11
1353.764725201
 21
571.932423512
 31
0.0
  0
LINE
  8
0
  6
LTYPE1
 62
     2
 10
1353.764725201
 20
572.032423512
 30
0.0
 11
1353.764725201
 21
580.929375504
 31
0.0
  0
LINE
  8
0
  6
LTYPE1
 62
     2
 10
1335.437848895
 20
590.44702927
 30
0.0
 11
1374.564725201
 21
585.645946967
 31
0.0
  0
LINE
  8
0
  6
CONTINUOUS
 62
     1
 10
1435.764725201
 20
602.133974596
 30
0.0
 11
1420.764725201
 21
602.133974596
 31
0.0
  0
LINE
  8
0
  6
CONTINUOUS
 62
     1
 10
1450.764725201
 20
584.633974596
 30
0.0
 11
1420.764725201
 21
584.633974596
 31
0.0
  0
ARC
  8
0
  6
CONTINUOUS
 62
     1
 10
1479.764725201
 20
555.633974596
 30
0.0
 40
8.0
 50
270.0
 51
0.0
  0
LINE
  8
0
  6
CONTINUOUS
 62
     1
 10
1469.764725201
 20
547.633974596
 30
0.0
 11
1479.764725201
 21
547.633974596
 31
0.0
  0
ARC
  8
0
  6
CONTINUOUS
 62
     1
 10
1468.764725201
 20
544.133974596
 30
0.0
 40
3.0
 50
0.0
 51
90.0
  0
LINE
  8
0
  6
CONTINUOUS
 62
     1
 10
1471.764725201
 20
497.633974596
 30
0.0
 11
1471.764725201
 21
544.133974596
 31
0.0
  0
LINE
  8
0
  6
LTYPE3
 62
     2
 10
1473.764725201
 20
575.633974596
 30
0.0
 11
1473.764725201
 21
549.133974596
 31
0.0
  0
LINE
  8
0
  6
LTYPE3
 62
     2
 10
1459.264725201
 20
561.633974596
 30
0.0
 11
1486.264725201
 21
561.633974596
 31
0.0
  0
LINE
  8
0
  6
LTYPE1
 62
     2
 10
1485.764725201
 20
602.133974596
 30
0.0
 11
1515.764725201
 21
602.133974596
 31
0.0
  0
LINE
  8
0
  6
LTYPE1
 62
     2
 10
1485.764725201
 20
602.133974596
 30
0.0
 11
1485.764725201
 21
627.133974596
 31
0.0
  0
CIRCLE
  8
0
  6
CONTINUOUS
 62
     1
 10
1457.264725201
 20
614.633974596
 30
0.0
 40
2.0
  0
LINE
  8
0
  6
LTYPE5
 62
     2
 10
1457.164725201
 20
610.633974596
 30
0.0
 11
1457.164725201
 21
618.833974596
 31
0.0
  0
LINE
  8
0
  6
CONTINUOUS
 62
     1
 10
1461.264725201
 20
602.133974596
 30
0.0
 11
1455.264725201
 21
602.133974596
 31
0.0
  0
LINE
  8
0
  6
LTYPE1
 62
     2
 10
1455.264725201
 20
602.133974596
 30
0.0
 11
1435.764725201
 21
602.133974596
 31
0.0
  0
LINE
  8
0
  6
CONTINUOUS
 62
     1
 10
1455.264725201
 20
592.633974596
 30
0.0
 11
1450.764725201
 21
592.633974596
 31
0.0
  0
LINE
  8
0
  6
CONTINUOUS
 62
     1
 10
1435.764725201
 20
584.633974596
 30
0.0
 11
1435.764725201
 21
644.633974596
 31
0.0
  0
LINE
  8
0
  6
CONTINUOUS
 62
     1
 10
1450.764725201
 20
584.633974596
 30
0.0
 11
1450.764725201
 21
644.633974596
 31
0.0
  0
LINE
  8
0
  6
CONTINUOUS
 62
     1
 10
1455.264725201
 20
592.633974596
 30
0.0
 11
1455.264725201
 21
636.633974596
 31
0.0
  0
LINE
  8
0
  6
CONTINUOUS
 62
     1
 10
1461.264725201
 20
602.133974596
 30
0.0
 11
1461.264725201
 21
627.133974596
 31
0.0
  0
LINE
  8
0
  6
CONTINUOUS
 62
     1
 10
1453.456467277
 20
547.133974596
 30
0.0
 11
1468.764725201
 21
547.133974596
 31
0.0
  0
LINE
  8
0
  6
CONTINUOUS
 62
     1
 10
1465.764725201
 20
548.633974596
 30
0.0
 11
1465.764725201
 21
554.633974596
 31
0.0
  0
ARC
  8
0
  6
CONTINUOUS
 62
     1
 10
1473.764725201
 20
561.633974596
 30
0.0
 40
9.0
 50
221.855808596
 51
48.144191404
  0
LINE
  8
0
  6
CONTINUOUS
 62
     1
 10
1487.764725201
 20
555.633974596
 30
0.0
 11
1487.764725201
 21
580.929375504
 31
0.0
  0
LINE
  8
0
  6
CONTINUOUS
 62
     1
 10
1456.387751462
 20
548.633974596
 30
0.0
 11
1465.764725201
 21
548.633974596
 31
0.0
  0
LINE
  8
0
  6
CONTINUOUS
 62
     1
 10
1428.218290993
 20
540.005264591
 30
0.0
 11
1436.674627778
 21
531.548927807
 31
0.0
  0
LINE
  8
0
  6
CONTINUOUS
 62
     1
 10
1495.393435206
 20
607.180408804
 30
0.0
 11
1503.84977199
 21
598.72407202
 31
0.0
  0
LINE
  8
0
  6
CONTINUOUS
 62
     1
 10
1489.301632649
 20
584.175932678
 30
0.0
 11
1503.84977199
 21
598.72407202
 31
0.0
  0
LINE
  8
0
  6
CONTINUOUS
 62
     1
 10
1436.674627778
 20
531.548927807
 30
0.0
 11
1451.222767119
 21
546.097067148
 31
0.0
  0
LINE
  8
0
  6
CONTINUOUS
 62
     1
 10
1450.764725201
 20
588.065432101
 30
0.0
 11
1484.404335508
 21
621.705042408
 31
0.0
  0
LINE
  8
0
  6
CONTINUOUS
 62
     1
 10
1413.693657389
 20
550.994364289
 30
0.0
 11
1447.333267696
 21
584.633974596
 31
0.0
  0
ARC
  8
0
  6
LTYPE1
 62
     2
 10
1473.764725201
 20
561.633974596
 30
0.0
 40
9.0
 50
90.000097237
 51
204.410967115
  0
LINE
  8
0
  6
LTYPE1
 62
     2
 10
1465.764725201
 20
554.633974596
 30
0.0
 11
1465.764725201
 21
567.729816998
 31
0.0
  0
LINE
  8
0
  6
CONTINUOUS
 62
     1
 10
1515.764725201
 20
591.633974596
 30
0.0
 11
1494.301474956
 21
589.000316082
 31
0.0
  0
LINE
  8
0
  6
LTYPE1
 62
     2
 10
1494.101474956
 20
588.975774986
 30
0.0
 11
1468.864725201
 21
585.879087387
 31
0.0
  0
LINE
  8
0
  6
LTYPE1
 62
     2
 10
1487.764725201
 20
582.63902523
 30
0.0
 11
1487.764725201
 21
588.198221039
 31
0.0
  0
LINE
  8
0
  6
CONTINUOUS
 62
     1
 10
1515.764725201
 20
591.633974596
 30
0.0
 11
1515.764725201
 21
637.633974596
 31
0.0
  0
LINE
  8
0
  6
LTYPE1
 62
     2
 10
1485.764725201
 20
627.133974596
 30
0.0
 11
1515.764725201
 21
627.133974596
 31
0.0
  0
LINE
  8
0
  6
CONTINUOUS
 62
     1
 10
1457.180724432
 20
648.928653484
 30
0.0
 11
1484.404335508
 21
621.705042408
 31
0.0
  0
LINE
  8
0
  6
CONTINUOUS
 62
     1
 10
1476.626160915
 20
668.374089966
 30
0.0
 11
1510.920839802
 21
634.079411079
 31
0.0
  0
LINE
  8
0
  6
CONTINUOUS
 62
     1
 10
1495.648535012
 20
618.807106289
 30
0.0
 11
1510.920839802
 21
634.079411079
 31
0.0
  0
LINE
  8
0
  6
CONTINUOUS
 62
     1
 10
1515.764725201
 20
637.633974596
 30
0.0
 11
1506.291601507
 21
638.796378826
 31
0.0
  0
LINE
  8
0
  6
LTYPE1
 62
     2
 10
1506.191601507
 20
638.808649374
 30
0.0
 11
1468.464725201
 21
643.437943999
 31
0.0
  0
LINE
  8
0
  6
LTYPE1
 62
     2
 10
1487.764725201
 20
641.069728154
 30
0.0
 11
1487.764725201
 21
657.13552568
 31
0.0
  0
LINE
  8
0
  6
CONTINUOUS
 62
     1
 10
1450.764725201
 20
644.633974596
 30
0.0
 11
1420.764725201
 21
644.633974596
 31
0.0
  0
LINE
  8
0
  6
CONTINUOUS
 62
     1
 10
1435.764725201
 20
627.133974596
 30
0.0
 11
1420.764725201
 21
627.133974596
 31
0.0
  0
LINE
  8
0
  6
CONTINUOUS
 62
     1
 10
1461.264725201
 20
627.133974596
 30
0.0
 11
1455.264725201
 21
627.133974596
 31
0.0
  0
LINE
  8
0
  6
LTYPE1
 62
     2
 10
1455.264725201
 20
627.133974596
 30
0.0
 11
1435.764725201
 21
627.133974596
 31
0.0
  0
LINE
  8
0
  6
CONTINUOUS
 62
     1
 10
1455.264725201
 20
636.633974596
 30
0.0
 11
1450.764725201
 21
636.633974596
 31
0.0
  0
LINE
  8
0
  6
CONTINUOUS
 62
     1
 10
1438.442394731
 20
667.666983185
 30
0.0
 11
1455.059404088
 21
651.049973827
 31
0.0
  0
LINE
  8
0
  6
CONTINUOUS
 62
     1
 10
1448.643404857
 20
644.633974596
 30
0.0
 11
1455.059404088
 21
651.049973827
 31
0.0
  0
LINE
  8
0
  6
CONTINUOUS
 62
     1
 10
1450.764725201
 20
642.512654253
 30
0.0
 11
1457.180724432
 21
648.928653484
 31
0.0
  0
LINE
  8
0
  6
CONTINUOUS
 62
     1
 10
1380.264725201
 20
627.133974596
 30
0.0
 11
1386.264725201
 21
627.133974596
 31
0.0
  0
LINE
  8
0
  6
LTYPE1
 62
     2
 10
1386.264725201
 20
627.133974596
 30
0.0
 11
1405.764725201
 21
627.133974596
 31
0.0
  0
LINE
  8
0
  6
CONTINUOUS
 62
     1
 10
1386.264725201
 20
636.633974596
 30
0.0
 11
1390.764725201
 21
636.633974596
 31
0.0
  0
LINE
  8
0
  6
CONTINUOUS
 62
     1
 10
1390.764725201
 20
644.633974596
 30
0.0
 11
1420.764725201
 21
644.633974596
 31
0.0
  0
LINE
  8
0
  6
CONTINUOUS
 62
     1
 10
1405.764725201
 20
627.133974596
 30
0.0
 11
1420.764725201
 21
627.133974596
 31
0.0
  0
LINE
  8
0
  6
LTYPE1
 62
     2
 10
1325.764725201
 20
637.633974596
 30
0.0
 11
1374.625201536
 21
643.629423003
 31
0.0
  0
LINE
  8
0
  6
LTYPE1
 62
     2
 10
1340.764725201
 20
593.633974596
 30
0.0
 11
1340.764725201
 21
635.633974596
 31
0.0
  0
LINE
  8
0
  6
CONTINUOUS
 62
     1
 10
1325.764725201
 20
591.633974596
 30
0.0
 11
1325.764725201
 21
600.032423512
 31
0.0
  0
LINE
  8
0
  6
LTYPE1
 62
     2
 10
1325.764725201
 20
637.633974596
 30
0.0
 11
1325.764725201
 21
600.032423512
 31
0.0
  0
LINE
  8
0
  6
CONTINUOUS
 62
     1
 10
1325.764725201
 20
591.633974596
 30
0.0
 11
1335.337848895
 21
590.459299818
 31
0.0
  0
LINE
  8
0
  6
LTYPE1
 62
     2
 10
1355.764725201
 20
627.133974596
 30
0.0
 11
1325.764725201
 21
627.133974596
 31
0.0
  0
LINE
  8
0
  6
LTYPE3
 62
     2
 10
1367.764725201
 20
653.633974596
 30
0.0
 11
1367.764725201
 21
680.133974596
 31
0.0
  0
LINE
  8
0
  6
LTYPE3
 62
     2
 10
1382.264725201
 20
667.633974596
 30
0.0
 11
1355.264725201
 21
667.633974596
 31
0.0
  0
CIRCLE
  8
0
  6
LTYPE1
 62
     2
 10
1367.764725201
 20
667.633974596
 30
0.0
 40
9.0
  0
LINE
  8
0
  6
LTYPE1
 62
     2
 10
1353.764725201
 20
641.069728154
 30
0.0
 11
1353.764725201
 21
673.633974596
 31
0.0
  0
ARC
  8
0
  6
LTYPE1
 62
     2
 10
1361.764725201
 20
673.633974596
 30
0.0
 40
8.0
 50
90.0
 51
180.0
  0
ARC
  8
0
  6
LTYPE1
 62
     2
 10
1420.764725201
 20
779.633974596
 30
0.0
 40
105.0
 50
248.960530219
 51
250.314945175
  0
LINE
  8
0
  6
LTYPE1
 62
     2
 10
1361.764725201
 20
681.633974596
 30
0.0
 11
1383.068571551
 21
681.633974596
 31
0.0
  0
ARC
  8
0
  6
LTYPE1
 62
     2
 10
1420.764725201
 20
779.633974596
 30
0.0
 40
105.0
 50
250.314945175
 51
289.685054825
  0
ARC
  8
0
  6
CONTINUOUS
 62
     1
 10
1479.764725201
 20
673.633974596
 30
0.0
 40
8.0
 50
0.0
 51
90.0
  0
LINE
  8
0
  6
LTYPE3
 62
     2
 10
1459.764725201
 20
667.633974596
 30
0.0
 11
1486.264725201
 21
667.633974596
 31
0.0
  0
LINE
  8
0
  6
LTYPE3
 62
     2
 10
1473.764725201
 20
653.133974596
 30
0.0
 11
1473.764725201
 21
680.133974596
 31
0.0
  0
LINE
  8
0
  6
CONTINUOUS
 62
     1
 10
1474.847786299
 20
666.595715351
 30
0.0
 11
1476.626160915
 21
668.374089966
 31
0.0
  0
LINE
  8
0
  6
CONTINUOUS
 62
     1
 10
1472.726465955
 20
668.717035694
 30
0.0
 11
1474.504840571
 21
670.49541031
 31
0.0
  0
LINE
  8
0
  6
CONTINUOUS
 62
     1
 10
1463.366276285
 20
681.633974596
 30
0.0
 11
1479.764725201
 21
681.633974596
 31
0.0
  0
ARC
  8
0
  6
LTYPE1
 62
     2
 10
1420.764725201
 20
779.633974596
 30
0.0
 40
105.0
 50
289.685054825
 51
291.039469781
  0
LINE
  8
0
  6
LTYPE1
 62
     2
 10
1458.460878851
 20
681.633974596
 30
0.0
 11
1463.366276285
 21
681.633974596
 31
0.0
  0
ARC
  8
0
  6
LTYPE1
 62
     2
 10
1473.764725201
 20
667.633974596
 30
0.0
 40
9.0
 50
118.562780091
 51
331.437219909
  0
ARC
  8
0
  6
CONTINUOUS
 62
     1
 10
1473.764725201
 20
667.633974596
 30
0.0
 40
9.0
 50
334.434147778
 51
115.565852222
  0
LINE
  8
0
  6
CONTINUOUS
 62
     1
 10
1487.764725201
 20
657.23552568
 30
0.0
 11
1487.764725201
 21
673.633974596
 31
0.0
  0
LINE
  8
0
  6
CONTINUOUS
 62
     1
 10
1407.683249749
 20
737.317001132
 30
0.0
 11
1474.504840571
 21
670.49541031
 31
0.0
  0
LINE
  8
0
  6
CONTINUOUS
 62
     1
 10
1320.355562272
 20
736.25634096
 30
0.0
 11
1438.442394731
 21
667.666983185
 31
0.0
  0
LINE
  8
0
  6
LTYPE3
 62
     2
 10
1266.898289615
 20
686.476023565
 30
0.0
 11
1307.910482923
 21
645.463830256
 31
0.0
  0
LINE
  8
0
  6
LTYPE3
 62
     2
 10
1298.64738409
 20
633.372304298
 30
0.0
 11
1265.413365374
 21
666.606323013
 31
0.0
  0
LINE
  8
0
  6
LTYPE3
 62
     2
 10
1287.475096947
 20
687.253841024
 30
0.0
 11
1320.709115663
 21
654.019822308
 31
0.0
  0
LINE
  8
0
  6
CONTINUOUS
 62
     1
 10
1264.494126559
 20
660.595915373
 30
0.0
 11
1292.778397806
 21
632.311644126
 31
0.0
  0
LINE
  8
0
  6
CONTINUOUS
 62
     1
 10
1321.062669054
 20
660.595915373
 30
0.0
 11
1292.778397806
 21
688.880186621
 31
0.0
  0
LINE
  8
0
  6
CONTINUOUS
 62
     1
 10
1321.062669054
 20
660.595915373
 30
0.0
 11
1292.778397806
 21
632.311644126
 31
0.0
  0
LINE
  8
0
  6
CONTINUOUS
 62
     1
 10
1296.243221034
 20
672.263177263
 30
0.0
 11
1281.111135917
 21
657.131092146
 31
0.0
  0
LINE
  8
0
  6
LTYPE3
 62
     2
 10
1287.687228982
 20
645.746672968
 30
0.0
 11
1307.769061567
 21
665.828505554
 31
0.0
  0
LINE
  8
0
  6
CONTINUOUS
 62
     1
 10
1292.778397806
 20
632.311644126
 30
0.0
 11
1292.849108484
 21
632.240933448
 31
0.0
  0
LINE
  8
0
  6
CONTINUOUS
 62
     1
 10
1281.111135917
 20
654.302665021
 30
0.0
 11
1296.243221034
 21
639.170579903
 31
0.0
  0
ARC
  8
0
  6
CONTINUOUS
 62
     1
 10
1297.657434596
 20
640.584793466
 30
0.0
 40
2.0
 50
225.0
 51
315.0
  0
LINE
  8
0
  6
CONTINUOUS
 62
     1
 10
1264.140573168
 20
678.627138294
 30
0.0
 11
1283.373877616
 21
659.393833845
 31
0.0
  0
LINE
  8
0
  6
CONTINUOUS
 62
     1
 10
1289.596417291
 20
629.129663611
 30
0.0
 11
1293.839057978
 21
624.887022923
 31
0.0
  0
LINE
  8
0
  6
CONTINUOUS
 62
     1
 10
1299.071648159
 20
672.263177263
 30
0.0
 11
1314.203733276
 21
657.131092146
 31
0.0
  0
LINE
  8
0
  6
CONTINUOUS
 62
     1
 10
1314.203733276
 20
654.302665021
 30
0.0
 11
1299.071648159
 21
639.170579903
 31
0.0
  0
ARC
  8
0
  6
CONTINUOUS
 62
     1
 10
1312.789519714
 20
655.716878583
 30
0.0
 40
2.0
 50
315.0
 51
45.0
  0
LINE
  8
0
  6
CONTINUOUS
 62
     1
 10
1330.319339644
 20
661.367304589
 30
0.0
 11
1293.839057978
 21
624.887022923
 31
0.0
  0
LINE
  8
0
  6
CONTINUOUS
 62
     1
 10
1289.596417291
 20
629.129663611
 30
0.0
 11
1327.201641563
 21
666.734887883
 31
0.0
  0
LINE
  8
0
  6
CONTINUOUS
 62
     1
 10
1298.081698665
 20
627.715450048
 30
0.0
 11
1330.83895599
 21
660.472707374
 31
0.0
  0
LINE
  8
0
  6
CONTINUOUS
 62
     1
 10
1274.747174886
 20
689.233740011
 30
0.0
 11
1293.980479334
 21
670.000435563
 31
0.0
  0
ARC
  8
0
  6
CONTINUOUS
 62
     1
 10
1297.657434596
 20
670.848963701
 30
0.0
 40
2.0
 50
45.0
 51
135.0
  0
LINE
  8
0
  6
CONTINUOUS
 62
     1
 10
1298.987679228
 20
713.474244354
 30
0.0
 11
1264.140573168
 21
678.627138294
 31
0.0
  0
LINE
  8
0
  6
CONTINUOUS
 62
     1
 10
1290.657077463
 20
691.001506964
 30
0.0
 11
1281.818242698
 21
682.1626722
 31
0.0
  0
LINE
  8
0
  6
CONTINUOUS
 62
     1
 10
1296.313931712
 20
685.344652715
 30
0.0
 11
1287.404386269
 21
676.435107272
 31
0.0
  0
LINE
  8
0
  6
CONTINUOUS
 62
     1
 10
1292.778397806
 20
688.880186621
 30
0.0
 11
1283.939563041
 21
680.041351856
 31
0.0
  0
LINE
  8
0
  6
CONTINUOUS
 62
     1
 10
1281.818242698
 20
682.1626722
 30
0.0
 11
1271.21164098
 21
671.556070482
 31
0.0
  0
LINE
  8
0
  6
CONTINUOUS
 62
     1
 10
1276.868495229
 20
665.899216232
 30
0.0
 11
1268.029660465
 21
657.060381467
 31
0.0
  0
LINE
  8
0
  6
CONTINUOUS
 62
     1
 10
1273.262250645
 20
669.36403946
 30
0.0
 11
1264.494126559
 21
660.595915373
 31
0.0
  0
ARC
  8
0
  6
CONTINUOUS
 62
     1
 10
1282.525349479
 20
655.716878583
 30
0.0
 40
2.0
 50
135.0
 51
225.0
  0
LINE
  8
0
  6
CONTINUOUS
 62
     1
 10
1303.407096611
 20
706.579953237
 30
0.0
 11
1295.783601626
 21
698.956458253
 31
0.0
  0
LINE
  8
0
  6
CONTINUOUS
 62
     1
 10
1306.24032745
 20
708.706077295
 30
0.0
 11
1296.137155017
 21
698.602904862
 31
0.0
  0
LINE
  8
0
  6
CONTINUOUS
 62
     1
 10
1295.712890948
 20
699.027168931
 30
0.0
 11
1290.657077463
 21
691.001506964
 31
0.0
  0
LINE
  8
0
  6
CONTINUOUS
 62
     1
 10
1296.137155017
 20
698.602904862
 30
0.0
 11
1301.086902485
 21
693.653157394
 31
0.0
  0
LINE
  8
0
  6
LTYPE5
 62
     2
 10
1300.697993755
 20
698.213996132
 30
0.0
 11
1336.053332815
 21
733.569335192
 31
0.0
  0
ARC
  8
0
  6
LTYPE1
 62
     1
 10
1318.94134871
 20
716.457351087
 30
0.0
 40
16.0
 50
225.0
 51
99.340912304
  0
ARC
  8
0
  6
CONTINUOUS
 62
     1
 10
1318.94134871
 20
716.457351087
 30
0.0
 40
16.0
 50
99.340912304
 51
170.659087696
  0
LINE
  8
0
  6
LTYPE3
 62
     2
 10
1295.465403575
 20
711.649024975
 30
0.0
 11
1309.041853773
 21
698.072574776
 31
0.0
  0
LINE
  8
0
  6
LTYPE1
 62
     2
 10
1308.511523687
 20
710.977273533
 30
0.0
 11
1313.461271156
 21
706.027526065
 31
0.0
  0
ARC
  8
0
  6
LTYPE1
 62
     1
 10
1318.94134871
 20
716.457351087
 30
0.0
 40
16.0
 50
170.659087696
 51
225.0
  0
LINE
  8
0
  6
LTYPE1
 62
     1
 10
1299.849465618
 20
714.336030744
 30
0.0
 11
1298.987679228
 21
713.474244354
 31
0.0
  0
LINE
  8
0
  6
LTYPE1
 62
     1
 10
1305.506319867
 20
708.679176494
 30
0.0
 11
1303.407096611
 21
706.579953237
 31
0.0
  0
CIRCLE
  8
0
  6
CONTINUOUS
 62
     1
 10
1318.94134871
 20
716.457351087
 30
0.0
 40
6.49995
  0
LINE
  8
0
  6
CONTINUOUS
 62
     1
 10
1316.99474031
 20
709.211642042
 30
0.0
 11
1311.695639665
 21
714.510742687
 31
0.0
  0
LINE
  8
0
  6
CONTINUOUS
 62
     1
 10
1311.695639665
 20
714.510742687
 30
0.0
 11
1313.642248065
 21
721.756451732
 31
0.0
  0
LINE
  8
0
  6
CONTINUOUS
 62
     1
 10
1308.13587321
 20
700.702128119
 30
0.0
 11
1301.086902485
 21
693.653157394
 31
0.0
  0
LINE
  8
0
  6
LTYPE1
 62
     2
 10
1308.511523687
 20
710.977273533
 30
0.0
 11
1306.24032745
 21
708.706077295
 31
0.0
  0
LINE
  8
0
  6
CONTINUOUS
 62
     1
 10
1316.99474031
 20
709.211642042
 30
0.0
 11
1324.240449355
 21
711.158250442
 31
0.0
  0
LINE
  8
0
  6
CONTINUOUS
 62
     1
 10
1299.142358837
 20
715.043137525
 30
0.0
 11
1320.355562272
 21
736.25634096
 31
0.0
  0
LINE
  8
0
  6
LTYPE1
 62
     1
 10
1299.142358837
 20
715.043137525
 30
0.0
 11
1306.861607865
 21
707.323888497
 31
0.0
  0
CIRCLE
  8
0
  6
CONTINUOUS
 62
     1
 10
1318.94134871
 20
716.457351087
 30
0.0
 40
4.0
  0
LINE
  8
0
  6
CONTINUOUS
 62
     1
 10
1320.88795711
 20
723.703060132
 30
0.0
 11
1313.642248065
 21
721.756451732
 31
0.0
  0
LINE
  8
0
  6
CONTINUOUS
 62
     1
 10
1326.187057755
 20
718.403959487
 30
0.0
 11
1324.240449355
 21
711.158250442
 31
0.0
  0
LINE
  8
0
  6
LTYPE3
 62
     2
 10
1322.052618547
 20
741.630352497
 30
0.0
 11
1337.326125021
 21
726.356846024
 31
0.0
  0
LINE
  8
0
  6
CONTINUOUS
 62
     1
 10
1326.187057755
 20
718.403959487
 30
0.0
 11
1320.88795711
 21
723.703060132
 31
0.0
  0
LINE
  8
0
  6
LTYPE1
 62
     2
 10
1324.421426264
 20
726.88717611
 30
0.0
 11
1329.371173732
 21
721.937428641
 31
0.0
  0
LINE
  8
0
  6
LTYPE1
 62
     2
 10
1334.696571678
 20
727.262826587
 30
0.0
 11
1329.371173732
 21
721.937428641
 31
0.0
  0
LINE
  8
0
  6
CONTINUOUS
 62
     1
 10
1341.745542403
 20
734.311797312
 30
0.0
 11
1332.746124228
 21
725.312379137
 31
0.0
  0
LINE
  8
0
  6
LTYPE1
 62
     1
 10
1330.255057209
 20
726.356846024
 30
0.0
 11
1331.116843599
 21
727.218632413
 31
0.0
  0
CIRCLE
  8
0
  6
CONTINUOUS
 62
     2
 10
1318.94134871
 20
716.457351087
 30
0.0
 40
3.2
  0
LINE
  8
0
  6
LTYPE1
 62
     2
 10
1313.461271156
 20
706.027526065
 30
0.0
 11
1308.026604129
 21
700.592859038
 31
0.0
  0
LINE
  8
0
  6
CONTINUOUS
 62
     1
 10
1321.924455443
 20
736.411020569
 30
0.0
 11
1356.771561503
 21
771.258126629
 31
0.0
  0
LINE
  8
0
  6
CONTINUOUS
 62
     1
 10
1328.81874656
 20
731.991603186
 30
0.0
 11
1336.442241544
 21
739.615098171
 31
0.0
  0
LINE
  8
0
  6
LTYPE1
 62
     1
 10
1326.719523303
 20
729.89237993
 30
0.0
 11
1328.81874656
 21
731.991603186
 31
0.0
  0
LINE
  8
0
  6
LTYPE1
 62
     2
 10
1328.612507082
 20
731.078256927
 30
0.0
 11
1327.073076694
 21
729.538826539
 31
0.0
  0
LINE
  8
0
  6
CONTINUOUS
 62
     1
 10
1336.795794935
 20
739.26154478
 30
0.0
 11
1326.692622502
 21
729.158372347
 31
0.0
  0
LINE
  8
0
  6
LTYPE1
 62
     1
 10
1320.355562272
 20
736.25634096
 30
0.0
 11
1328.0748113
 21
728.537091932
 31
0.0
  0
LINE
  8
0
  6
CONTINUOUS
 62
     1
 10
1336.795794935
 20
739.26154478
 30
0.0
 11
1341.745542403
 21
734.311797312
 31
0.0
  0
LINE
  8
0
  6
CONTINUOUS
 62
     1
 10
1336.371530866
 20
739.685808849
 30
0.0
 11
1344.397192833
 21
744.741622335
 31
0.0
  0
LINE
  8
0
  6
CONTINUOUS
 62
     1
 10
1344.397192833
 20
744.741622335
 30
0.0
 11
1353.236027598
 21
753.580457099
 31
0.0
  0
LINE
  8
0
  6
CONTINUOUS
 62
     1
 10
1374.802784424
 20
770.904573238
 30
0.0
 11
1346.518513176
 21
742.620301991
 31
0.0
  0
LINE
  8
0
  6
CONTINUOUS
 62
     1
 10
1378.33831833
 20
767.369039333
 30
0.0
 11
1350.054047082
 21
739.084768085
 31
0.0
  0
LINE
  8
0
  6
CONTINUOUS
 62
     1
 10
1374.752916316
 20
763.783637319
 30
0.0
 11
1350.054047082
 21
739.084768085
 31
0.0
  0
LINE
  8
0
  6
LTYPE3
 62
     2
 10
1380.671770708
 20
715.396690915
 30
0.0
 11
1347.437751992
 21
748.630709631
 31
0.0
  0
LINE
  8
0
  6
CONTINUOUS
 62
     1
 10
1346.518513176
 20
742.620301991
 30
0.0
 11
1374.802784424
 21
714.336030744
 31
0.0
  0
LINE
  8
0
  6
LTYPE2
 62
     2
 10
1370.764725201
 20
740.633974596
 30
0.0
 11
1354.764725201
 21
724.633974596
 31
0.0
  0
LINE
  8
0
  6
CONTINUOUS
 62
     1
 10
1346.164959786
 20
760.651524911
 30
0.0
 11
1355.357347941
 21
751.459136756
 31
0.0
  0
LINE
  8
0
  6
LTYPE3
 62
     2
 10
1347.50846267
 20
769.914623745
 30
0.0
 11
1388.520655979
 21
728.902430436
 31
0.0
  0
LINE
  8
0
  6
LTYPE3
 62
     2
 10
1369.499483565
 20
769.278227642
 30
0.0
 11
1402.733502281
 21
736.044208926
 31
0.0
  0
LINE
  8
0
  6
CONTINUOUS
 62
     1
 10
1403.087055671
 20
742.620301991
 30
0.0
 11
1374.802784424
 21
770.904573238
 31
0.0
  0
LINE
  8
0
  6
CONTINUOUS
 62
     1
 10
1356.771561503
 20
771.258126629
 30
0.0
 11
1365.963949659
 21
762.065738474
 31
0.0
  0
CIRCLE
  8
0
  6
CONTINUOUS
 62
     1
 10
1373.671413574
 20
743.751672841
 30
0.0
 40
9.36
  0
LINE
  8
0
  6
LTYPE3
 62
     2
 10
1382.863801729
 20
752.944060996
 30
0.0
 11
1364.479025418
 21
734.559284685
 31
0.0
  0
CIRCLE
  8
0
  6
CONTINUOUS
 62
     2
 10
1373.671413574
 20
743.751672841
 30
0.0
 40
10.47
  0
LINE
  8
0
  6
CONTINUOUS
 62
     1
 10
1382.227405626
 20
745.802282506
 30
0.0
 11
1391.419793782
 21
736.609894351
 31
0.0
  0
LINE
  8
0
  6
CONTINUOUS
 62
     1
 10
1371.620803908
 20
735.195680789
 30
0.0
 11
1380.813192064
 21
726.003292633
 31
0.0
  0
LINE
  8
0
  6
CONTINUOUS
 62
     1
 10
1369.853036955
 20
719.285778212
 30
0.0
 11
1378.69187172
 21
728.124612977
 31
0.0
  0
LINE
  8
0
  6
CONTINUOUS
 62
     1
 10
1400.258628546
 20
745.448729116
 30
0.0
 11
1371.974357299
 21
717.164457868
 31
0.0
  0
LINE
  8
0
  6
CONTINUOUS
 62
     1
 10
1410.511676874
 20
741.559641819
 30
0.0
 11
1374.031395208
 21
705.079360153
 31
0.0
  0
LINE
  8
0
  6
CONTINUOUS
 62
     1
 10
1368.663811914
 20
708.197058234
 30
0.0
 11
1406.269036187
 21
745.802282506
 31
0.0
  0
LINE
  8
0
  6
CONTINUOUS
 62
     1
 10
1374.925992423
 20
704.559743807
 30
0.0
 11
1407.683249749
 21
737.317001132
 31
0.0
  0
LINE
  8
0
  6
CONTINUOUS
 62
     2
 10
1383.702720397
 20
746.983974596
 30
0.0
 11
1395.558734719
 21
748.837329501
 31
0.0
  0
LINE
  8
0
  6
CONTINUOUS
 62
     2
 10
1383.702720397
 20
746.983974596
 30
0.0
 11
1393.043652535
 21
754.517034187
 31
0.0
  0
LINE
  8
0
  6
CONTINUOUS
 62
     2
 10
1383.702720397
 20
746.983974596
 30
0.0
 11
1663.65
 21
870.95
 31
0.0
  0
LINE
  8
0
  6
CONTINUOUS
 62
     2
 10
1420.764725201
 20
451.812826587
 30
0.0
 11
1260.764725201
 21
451.812826587
 31
0.0
  0
LINE
  8
0
  6
CONTINUOUS
 62
     2
 10
1260.764725201
 20
451.812826587
 30
0.0
 11
1272.355835116
 21
448.706998046
 31
0.0
  0
LINE
  8
0
  6
CONTINUOUS
 62
     2
 10
1260.764725201
 20
451.812826587
 30
0.0
 11
1272.355835116
 21
454.918655128
 31
0.0
  0
LINE
  8
0
  6
CONTINUOUS
 62
     2
 10
1260.764725201
 20
648.084851116
 30
0.0
 11
1260.764725201
 21
445.812826587
 31
0.0
  0
TEXT
  8
0
  6
CONTINUOUS
 62
     3
 10
1331.414725201
 20
460.812826587
 30
0.0
 40
18.0
  1
１６０
 50
0.0
 41
0.9
 51
0.0
  7
KANJI40
  0
LINE
  8
0
  6
CONTINUOUS
 62
     2
 10
1420.764725201
 20
481.312826587
 30
0.0
 11
1420.764725201
 21
445.812826587
 31
0.0
  0
LINE
  8
0
  6
CONTINUOUS
 62
     2
 10
1420.764725201
 20
451.812826587
 30
0.0
 11
1409.173615285
 21
454.918655128
 31
0.0
  0
LINE
  8
0
  6
CONTINUOUS
 62
     2
 10
1420.764725201
 20
451.812826587
 30
0.0
 11
1409.173615285
 21
448.706998046
 31
0.0
  0
LINE
  8
0
  6
CONTINUOUS
 62
     1
 10
1406.269036187
 20
745.802282506
 30
0.0
 11
1410.511676874
 21
741.559641819
 31
0.0
  0
LINE
  8
0
  6
CONTINUOUS
 62
     2
 10
1299.499349899
 20
735.899349899
 30
0.0
 11
1244.499349899
 21
903.999349899
 31
0.0
  0
LINE
  8
0
  6
CONTINUOUS
 62
     2
 10
1339.299349899
 20
903.999349899
 30
0.0
 11
1177.299349899
 21
903.999349899
 31
0.0
  0
TEXT
  8
0
  6
CONTINUOUS
 62
     3
 10
1177.299349899
 20
906.999349899
 30
0.0
 40
18.0
  1
ＬＳユニット組付位置
 50
0.0
 41
0.9
 51
0.0
  7
KANJI40
  0
LINE
  8
0
  6
CONTINUOUS
 62
     2
 10
1299.499349899
 20
735.899349899
 30
0.0
 11
1298.846769012
 21
747.881592518
 31
0.0
  0
LINE
  8
0
  6
CONTINUOUS
 62
     2
 10
1299.499349899
 20
735.899349899
 30
0.0
 11
1292.943076964
 21
745.949985958
 31
0.0
  0
LINE
  8
0
  6
CONTINUOUS
 62
     2
 10
1663.65
 20
870.95
 30
0.0
 11
1777.05
 21
870.95
 31
0.0
  0
TEXT
  8
0
  6
CONTINUOUS
 62
     3
 10
1663.65
 20
873.95
 30
0.0
 40
18.0
  1
２－ＰＦ１／２
 50
0.0
 41
0.9
 51
0.0
  7
KANJI40
  0
LINE
  8
0
  6
LTYPE5
 62
     2
 10
1289.764725201
 20
745.633974596
 30
0.0
 11
1449.402549839
 21
585.996149958
 31
0.0
  0
LINE
  8
0
  6
CONTINUOUS
 62
     2
 10
1564.764725201
 20
790.633974596
 30
0.0
 11
1603.764725201
 21
790.633974596
 31
0.0
  0
LINE
  8
0
  6
LTYPE5
 62
     2
 10
1301.264725201
 20
790.633974596
 30
0.0
 11
1539.764725201
 21
790.633974596
 31
0.0
  0
LINE
  8
0
  6
CONTINUOUS
 62
     1
 10
1513.264725201
 20
637.827210886
 30
0.0
 11
1513.264725201
 21
746.475170265
 31
0.0
  0
LINE
  8
0
  6
CONTINUOUS
 62
     1
 10
1328.264725201
 20
742.751290326
 30
0.0
 11
1328.264725201
 21
746.475170265
 31
0.0
  0
ARC
  8
0
  6
CONTINUOUS
 62
     1
 10
1420.764725201
 20
790.633974596
 30
0.0
 40
102.5
 50
215.991695227
 51
221.795226667
  0
ARC
  8
0
  6
CONTINUOUS
 62
     1
 10
1420.764725201
 20
790.633974596
 30
0.0
 40
102.5
 50
0.0
 51
207.073474243
  0
ARC
  8
0
  6
LTYPE1
 62
     2
 10
1420.764725201
 20
790.633974596
 30
0.0
 40
102.5
 50
246.009103205
 51
287.738230656
  0
ARC
  8
0
  6
CONTINUOUS
 62
     1
 10
1420.764725201
 20
790.633974596
 30
0.0
 40
102.5
 50
288.269045901
 51
0.0
  0
LINE
  8
0
  6
CONTINUOUS
 62
     1
 10
1052.97
 20
1496.26024
 30
0.0
 11
1830.57
 21
1496.26024
 31
0.0
  0
LINE
  8
0
  6
CONTINUOUS
 62
     1
 10
1052.97
 20
1462.66024
 30
0.0
 11
1830.57
 21
1462.66024
 31
0.0
  0
TEXT
  8
0
  6
CONTINUOUS
 62
     2
 10
1100.97
 20
1472.26024
 30
1.536
 40
15.36
  1
形
 50
0.0
 41
0.9
 51
0.0
  7
KANJI64
  0
TEXT
  8
0
  6
CONTINUOUS
 62
     2
 10
1194.57
 20
1472.26024
 30
1.536
 40
15.36
  1
式
 50
0.0
 41
0.9
 51
0.0
  7
KANJI64
  0
TEXT
  8
0
  6
CONTINUOUS
 62
     2
 10
1267.05
 20
1471.30024
 30
1.44
 40
14.4
  1
ストローク
 50
0.0
 41
0.9
 51
0.0
  7
KANJI65
  0
TEXT
  8
0
  6
CONTINUOUS
 62
     2
 10
1359.21
 20
1470.34024
 30
0.0
 40
14.4
  1
ｍｉｎ　
 50
0.0
 41
0.9
 51
0.0
  7
KANJI66
  0
TEXT
  8
0
  6
CONTINUOUS
 62
     2
 10
1455.21
 20
1470.34024
 30
0.0
 40
14.4
  1
ｍｉｎ　
 50
0.0
 41
0.9
 51
0.0
  7
KANJI66
  0
TEXT
  8
0
  6
CONTINUOUS
 62
     2
 10
1647.21
 20
1470.34024
 30
0.0
 40
14.4
  1
ｍｉｎ　
 50
0.0
 41
0.9
 51
0.0
  7
KANJI66
  0
TEXT
  8
0
  6
CONTINUOUS
 62
     2
 10
1408.17
 20
1471.30024
 30
1.68
 40
16.8
  1
ＡＬ
 50
0.0
 41
0.9
 51
0.0
  7
KANJI67
  0
TEXT
  8
0
  6
CONTINUOUS
 62
     2
 10
1504.17
 20
1471.30024
 30
1.68
 40
16.8
  1
Ｌ
 50
0.0
 41
0.9
 51
0.0
  7
KANJI67
  0
TEXT
  8
0
  6
CONTINUOUS
 62
     2
 10
1585.77
 20
1471.30024
 30
1.68
 40
16.8
  1
Ｃ
 50
0.0
 41
0.9
 51
0.0
  7
KANJI67
  0
TEXT
  8
0
  6
CONTINUOUS
 62
     2
 10
1696.17
 20
1471.30024
 30
1.68
 40
16.8
  1
Ｐ
 50
0.0
 41
0.9
 51
0.0
  7
KANJI67
  0
TEXT
  8
0
  6
CONTINUOUS
 62
     2
 10
1794.93
 20
1470.94024
 30
0.0
 40
12.96
  1
（ｋｇ）
 50
0.0
 41
0.740740741
 51
0.0
  7
KANJI68
  0
TEXT
  8
0
  6
CONTINUOUS
 62
     2
 10
1737.33
 20
1470.70024
 30
1.44
 40
16.8
  1
概算重量
 50
0.0
 41
0.857142857
 51
0.0
  7
KANJI69
  0
TEXT
  8
0
  6
CONTINUOUS
 62
     2
 10
1276.17
 20
1439.10024
 30
1.44
 40
14.4
  1
　２００
 50
0.0
 41
0.9
 51
0.0
  7
KANJI65
  0
TEXT
  8
0
  6
CONTINUOUS
 62
     2
 10
1660.17
 20
1439.10024
 30
1.44
 40
14.4
  1
　　４５
 50
0.0
 41
0.9
 51
0.0
  7
KANJI65
  0
TEXT
  8
0
  6
CONTINUOUS
 62
     2
 10
1564.17
 20
1439.10024
 30
1.44
 40
14.4
  1
　４６２
 50
0.0
 41
0.9
 51
0.0
  7
KANJI65
  0
LINE
  8
0
  6
CONTINUOUS
 62
     2
 10
1052.97
 20
1431.06024
 30
0.0
 11
1830.57
 21
1431.06024
 31
0.0
  0
TEXT
  8
0
  6
CONTINUOUS
 62
     2
 10
1468.17
 20
1439.10024
 30
1.44
 40
14.4
  1
　５６７
 50
0.0
 41
0.9
 51
0.0
  7
KANJI65
  0
TEXT
  8
0
  6
CONTINUOUS
 62
     2
 10
1372.17
 20
1439.10024
 30
1.44
 40
14.4
  1
　７６４
 50
0.0
 41
0.9
 51
0.0
  7
KANJI65
  0
TEXT
  8
0
  6
CONTINUOUS
 62
     2
 10
1276.17
 20
1407.50024
 30
1.44
 40
14.4
  1
　３００
 50
0.0
 41
0.9
 51
0.0
  7
KANJI65
  0
TEXT
  8
0
  6
CONTINUOUS
 62
     2
 10
1660.17
 20
1407.50024
 30
1.44
 40
14.4
  1
　　４５
 50
0.0
 41
0.9
 51
0.0
  7
KANJI65
  0
TEXT
  8
0
  6
CONTINUOUS
 62
     2
 10
1564.17
 20
1407.50024
 30
1.44
 40
14.4
  1
　５６２
 50
0.0
 41
0.9
 51
0.0
  7
KANJI65
  0
LINE
  8
0
  6
CONTINUOUS
 62
     2
 10
1052.97
 20
1399.46024
 30
0.0
 11
1830.57
 21
1399.46024
 31
0.0
  0
TEXT
  8
0
  6
CONTINUOUS
 62
     2
 10
1468.17
 20
1407.50024
 30
1.44
 40
14.4
  1
　６６７
 50
0.0
 41
0.9
 51
0.0
  7
KANJI65
  0
TEXT
  8
0
  6
CONTINUOUS
 62
     2
 10
1372.17
 20
1407.50024
 30
1.44
 40
14.4
  1
　８６４
 50
0.0
 41
0.9
 51
0.0
  7
KANJI65
  0
TEXT
  8
0
  6
CONTINUOUS
 62
     2
 10
1276.17
 20
1375.90024
 30
1.44
 40
14.4
  1
　４００
 50
0.0
 41
0.9
 51
0.0
  7
KANJI65
  0
TEXT
  8
0
  6
CONTINUOUS
 62
     2
 10
1660.17
 20
1375.90024
 30
1.44
 40
14.4
  1
　　８５
 50
0.0
 41
0.9
 51
0.0
  7
KANJI65
  0
TEXT
  8
0
  6
CONTINUOUS
 62
     2
 10
1564.17
 20
1375.90024
 30
1.44
 40
14.4
  1
　６６２
 50
0.0
 41
0.9
 51
0.0
  7
KANJI65
  0
LINE
  8
0
  6
CONTINUOUS
 62
     2
 10
1052.97
 20
1367.86024
 30
0.0
 11
1830.57
 21
1367.86024
 31
0.0
  0
TEXT
  8
0
  6
CONTINUOUS
 62
     2
 10
1468.17
 20
1375.90024
 30
1.44
 40
14.4
  1
　８０７
 50
0.0
 41
0.9
 51
0.0
  7
KANJI65
  0
TEXT
  8
0
  6
CONTINUOUS
 62
     2
 10
1372.17
 20
1375.90024
 30
1.44
 40
14.4
  1
１００４
 50
0.0
 41
0.9
 51
0.0
  7
KANJI65
  0
TEXT
  8
0
  6
CONTINUOUS
 62
     2
 10
1276.17
 20
1344.30024
 30
1.44
 40
14.4
  1
　５００
 50
0.0
 41
0.9
 51
0.0
  7
KANJI65
  0
TEXT
  8
0
  6
CONTINUOUS
 62
     2
 10
1660.17
 20
1344.30024
 30
1.44
 40
14.4
  1
　１１２
 50
0.0
 41
0.9
 51
0.0
  7
KANJI65
  0
TEXT
  8
0
  6
CONTINUOUS
 62
     2
 10
1564.17
 20
1344.30024
 30
1.44
 40
14.4
  1
　７６２
 50
0.0
 41
0.9
 51
0.0
  7
KANJI65
  0
LINE
  8
0
  6
CONTINUOUS
 62
     2
 10
1052.97
 20
1336.26024
 30
0.0
 11
1830.57
 21
1336.26024
 31
0.0
  0
TEXT
  8
0
  6
CONTINUOUS
 62
     2
 10
1468.17
 20
1344.30024
 30
1.44
 40
14.4
  1
　９３４
 50
0.0
 41
0.9
 51
0.0
  7
KANJI65
  0
TEXT
  8
0
  6
CONTINUOUS
 62
     2
 10
1372.17
 20
1344.30024
 30
1.44
 40
14.4
  1
１１３１
 50
0.0
 41
0.9
 51
0.0
  7
KANJI65
  0
LINE
  8
0
  6
CONTINUOUS
 62
     2
 10
1052.97
 20
1304.66024
 30
0.0
 11
1830.57
 21
1304.66024
 31
0.0
  0
TEXT
  8
0
  6
CONTINUOUS
 62
     2
 10
1276.17
 20
1312.70024
 30
1.44
 40
14.4
  1
　６００
 50
0.0
 41
0.9
 51
0.0
  7
KANJI65
  0
TEXT
  8
0
  6
CONTINUOUS
 62
     2
 10
1372.17
 20
1312.70024
 30
1.44
 40
14.4
  1
１２８７
 50
0.0
 41
0.9
 51
0.0
  7
KANJI65
  0
TEXT
  8
0
  6
CONTINUOUS
 62
     2
 10
1468.17
 20
1312.70024
 30
1.44
 40
14.4
  1
１０９０
 50
0.0
 41
0.9
 51
0.0
  7
KANJI65
  0
TEXT
  8
0
  6
CONTINUOUS
 62
     2
 10
1564.17
 20
1312.70024
 30
1.44
 40
14.4
  1
　９０２
 50
0.0
 41
0.9
 51
0.0
  7
KANJI65
  0
TEXT
  8
0
  6
CONTINUOUS
 62
     2
 10
1660.17
 20
1312.70024
 30
1.44
 40
14.4
  1
　１２８
 50
0.0
 41
0.9
 51
0.0
  7
KANJI65
  0
LINE
  8
0
  6
CONTINUOUS
 62
     2
 10
1052.97
 20
1273.06024
 30
0.0
 11
1830.57
 21
1273.06024
 31
0.0
  0
TEXT
  8
0
  6
CONTINUOUS
 62
     2
 10
1276.17
 20
1281.10024
 30
1.44
 40
14.4
  1
　７００
 50
0.0
 41
0.9
 51
0.0
  7
KANJI65
  0
TEXT
  8
0
  6
CONTINUOUS
 62
     2
 10
1372.17
 20
1281.10024
 30
1.44
 40
14.4
  1
１４０７
 50
0.0
 41
0.9
 51
0.0
  7
KANJI65
  0
TEXT
  8
0
  6
CONTINUOUS
 62
     2
 10
1468.17
 20
1281.10024
 30
1.44
 40
14.4
  1
１２１０
 50
0.0
 41
0.9
 51
0.0
  7
KANJI65
  0
TEXT
  8
0
  6
CONTINUOUS
 62
     2
 10
1564.17
 20
1281.10024
 30
1.44
 40
14.4
  1
１００２
 50
0.0
 41
0.9
 51
0.0
  7
KANJI65
  0
TEXT
  8
0
  6
CONTINUOUS
 62
     2
 10
1660.17
 20
1281.10024
 30
1.44
 40
14.4
  1
　１４８
 50
0.0
 41
0.9
 51
0.0
  7
KANJI65
  0
LINE
  8
0
  6
CONTINUOUS
 62
     2
 10
1052.97
 20
1241.46024
 30
0.0
 11
1830.57
 21
1241.46024
 31
0.0
  0
TEXT
  8
0
  6
CONTINUOUS
 62
     2
 10
1276.17
 20
1249.50024
 30
1.44
 40
14.4
  1
　８００
 50
0.0
 41
0.9
 51
0.0
  7
KANJI65
  0
TEXT
  8
0
  6
CONTINUOUS
 62
     2
 10
1372.17
 20
1249.50024
 30
1.44
 40
14.4
  1
１５２７
 50
0.0
 41
0.9
 51
0.0
  7
KANJI65
  0
TEXT
  8
0
  6
CONTINUOUS
 62
     2
 10
1468.17
 20
1249.50024
 30
1.44
 40
14.4
  1
１３３０
 50
0.0
 41
0.9
 51
0.0
  7
KANJI65
  0
TEXT
  8
0
  6
CONTINUOUS
 62
     2
 10
1564.17
 20
1249.50024
 30
1.44
 40
14.4
  1
１１０２
 50
0.0
 41
0.9
 51
0.0
  7
KANJI65
  0
TEXT
  8
0
  6
CONTINUOUS
 62
     2
 10
1660.17
 20
1249.50024
 30
1.44
 40
14.4
  1
　１６８
 50
0.0
 41
0.9
 51
0.0
  7
KANJI65
  0
LINE
  8
0
  6
CONTINUOUS
 62
     2
 10
1052.97
 20
1209.86024
 30
0.0
 11
1830.57
 21
1209.86024
 31
0.0
  0
TEXT
  8
0
  6
CONTINUOUS
 62
     2
 10
1276.17
 20
1217.90024
 30
1.44
 40
14.4
  1
　９００
 50
0.0
 41
0.9
 51
0.0
  7
KANJI65
  0
TEXT
  8
0
  6
CONTINUOUS
 62
     2
 10
1372.17
 20
1217.90024
 30
1.44
 40
14.4
  1
１６５７
 50
0.0
 41
0.9
 51
0.0
  7
KANJI65
  0
TEXT
  8
0
  6
CONTINUOUS
 62
     2
 10
1468.17
 20
1217.90024
 30
1.44
 40
14.4
  1
１４６０
 50
0.0
 41
0.9
 51
0.0
  7
KANJI65
  0
TEXT
  8
0
  6
CONTINUOUS
 62
     2
 10
1564.17
 20
1217.90024
 30
1.44
 40
14.4
  1
１２０２
 50
0.0
 41
0.9
 51
0.0
  7
KANJI65
  0
TEXT
  8
0
  6
CONTINUOUS
 62
     2
 10
1660.17
 20
1217.90024
 30
1.44
 40
14.4
  1
　１９８
 50
0.0
 41
0.9
 51
0.0
  7
KANJI65
  0
LINE
  8
0
  6
CONTINUOUS
 62
     2
 10
1052.97
 20
1178.26024
 30
0.0
 11
1830.57
 21
1178.26024
 31
0.0
  0
TEXT
  8
0
  6
CONTINUOUS
 62
     2
 10
1276.17
 20
1186.30024
 30
1.44
 40
14.4
  1
１０００
 50
0.0
 41
0.9
 51
0.0
  7
KANJI65
  0
TEXT
  8
0
  6
CONTINUOUS
 62
     2
 10
1372.17
 20
1186.30024
 30
1.44
 40
14.4
  1
１７９０
 50
0.0
 41
0.9
 51
0.0
  7
KANJI65
  0
TEXT
  8
0
  6
CONTINUOUS
 62
     2
 10
1468.17
 20
1186.30024
 30
1.44
 40
14.4
  1
１５９３
 50
0.0
 41
0.9
 51
0.0
  7
KANJI65
  0
TEXT
  8
0
  6
CONTINUOUS
 62
     2
 10
1564.17
 20
1186.30024
 30
1.44
 40
14.4
  1
１３０２
 50
0.0
 41
0.9
 51
0.0
  7
KANJI65
  0
TEXT
  8
0
  6
CONTINUOUS
 62
     2
 10
1660.17
 20
1186.30024
 30
1.44
 40
14.4
  1
　２３１
 50
0.0
 41
0.9
 51
0.0
  7
KANJI65
  0
LINE
  8
0
  6
CONTINUOUS
 62
     2
 10
1052.97
 20
1146.66024
 30
0.0
 11
1830.57
 21
1146.66024
 31
0.0
  0
TEXT
  8
0
  6
CONTINUOUS
 62
     2
 10
1276.17
 20
1154.70024
 30
1.44
 40
14.4
  1
１１００
 50
0.0
 41
0.9
 51
0.0
  7
KANJI65
  0
TEXT
  8
0
  6
CONTINUOUS
 62
     2
 10
1660.17
 20
1154.70024
 30
1.44
 40
14.4
  1
　２４５
 50
0.0
 41
0.9
 51
0.0
  7
KANJI65
  0
TEXT
  8
0
  6
CONTINUOUS
 62
     2
 10
1564.17
 20
1154.70024
 30
1.44
 40
14.4
  1
１４０２
 50
0.0
 41
0.9
 51
0.0
  7
KANJI65
  0
LINE
  8
0
  6
CONTINUOUS
 62
     2
 10
1052.97
 20
1115.06024
 30
0.0
 11
1830.57
 21
1115.06024
 31
0.0
  0
TEXT
  8
0
  6
CONTINUOUS
 62
     2
 10
1276.17
 20
1123.10024
 30
1.44
 40
14.4
  1
１２００
 50
0.0
 41
0.9
 51
0.0
  7
KANJI65
  0
TEXT
  8
0
  6
CONTINUOUS
 62
     2
 10
1660.17
 20
1123.10024
 30
1.44
 40
14.4
  1
　２６８
 50
0.0
 41
0.9
 51
0.0
  7
KANJI65
  0
TEXT
  8
0
  6
CONTINUOUS
 62
     2
 10
1564.17
 20
1123.10024
 30
1.44
 40
14.4
  1
１５０２
 50
0.0
 41
0.9
 51
0.0
  7
KANJI65
  0
LINE
  8
0
  6
CONTINUOUS
 62
     2
 10
1052.97
 20
1083.46024
 30
0.0
 11
1830.57
 21
1083.46024
 31
0.0
  0
TEXT
  8
0
  6
CONTINUOUS
 62
     2
 10
1276.17
 20
1091.50024
 30
1.44
 40
14.4
  1
１３００
 50
0.0
 41
0.9
 51
0.0
  7
KANJI65
  0
TEXT
  8
0
  6
CONTINUOUS
 62
     2
 10
1660.17
 20
1091.50024
 30
1.44
 40
14.4
  1
　２８８
 50
0.0
 41
0.9
 51
0.0
  7
KANJI65
  0
TEXT
  8
0
  6
CONTINUOUS
 62
     2
 10
1564.17
 20
1091.50024
 30
1.44
 40
14.4
  1
１６０２
 50
0.0
 41
0.9
 51
0.0
  7
KANJI65
  0
LINE
  8
0
  6
CONTINUOUS
 62
     2
 10
1052.97
 20
1051.86024
 30
0.0
 11
1830.57
 21
1051.86024
 31
0.0
  0
TEXT
  8
0
  6
CONTINUOUS
 62
     2
 10
1276.17
 20
1059.90024
 30
1.44
 40
14.4
  1
１４００
 50
0.0
 41
0.9
 51
0.0
  7
KANJI65
  0
TEXT
  8
0
  6
CONTINUOUS
 62
     2
 10
1660.17
 20
1059.90024
 30
1.44
 40
14.4
  1
　３１０
 50
0.0
 41
0.9
 51
0.0
  7
KANJI65
  0
TEXT
  8
0
  6
CONTINUOUS
 62
     2
 10
1564.17
 20
1059.90024
 30
1.44
 40
14.4
  1
１７０２
 50
0.0
 41
0.9
 51
0.0
  7
KANJI65
  0
LINE
  8
0
  6
CONTINUOUS
 62
     2
 10
1052.97
 20
1020.26024
 30
0.0
 11
1830.57
 21
1020.26024
 31
0.0
  0
TEXT
  8
0
  6
CONTINUOUS
 62
     2
 10
1276.17
 20
1028.30024
 30
1.44
 40
14.4
  1
１５００
 50
0.0
 41
0.9
 51
0.0
  7
KANJI65
  0
TEXT
  8
0
  6
CONTINUOUS
 62
     2
 10
1660.17
 20
1028.30024
 30
1.44
 40
14.4
  1
　３５０
 50
0.0
 41
0.9
 51
0.0
  7
KANJI65
  0
TEXT
  8
0
  6
CONTINUOUS
 62
     2
 10
1564.17
 20
1028.30024
 30
1.44
 40
14.4
  1
１８０２
 50
0.0
 41
0.9
 51
0.0
  7
KANJI65
  0
LINE
  8
0
  6
CONTINUOUS
 62
     1
 10
1052.97
 20
988.66024
 30
0.0
 11
1830.57
 21
988.66024
 31
0.0
  0
LINE
  8
0
  6
CONTINUOUS
 62
     1
 10
1052.97
 20
1496.26024
 30
0.0
 11
1052.97
 21
988.66024
 31
0.0
  0
LINE
  8
0
  6
CONTINUOUS
 62
     1
 10
1254.57
 20
1496.26024
 30
0.0
 11
1254.57
 21
988.66024
 31
0.0
  0
LINE
  8
0
  6
CONTINUOUS
 62
     2
 10
1350.57
 20
1496.26024
 30
0.0
 11
1350.57
 21
988.66024
 31
0.0
  0
LINE
  8
0
  6
CONTINUOUS
 62
     2
 10
1446.57
 20
1496.26024
 30
0.0
 11
1446.57
 21
988.66024
 31
0.0
  0
LINE
  8
0
  6
CONTINUOUS
 62
     2
 10
1542.57
 20
1496.26024
 30
0.0
 11
1542.57
 21
988.66024
 31
0.0
  0
LINE
  8
0
  6
CONTINUOUS
 62
     2
 10
1638.57
 20
1496.26024
 30
0.0
 11
1638.57
 21
988.66024
 31
0.0
  0
LINE
  8
0
  6
CONTINUOUS
 62
     2
 10
1734.57
 20
1496.26024
 30
0.0
 11
1734.57
 21
988.66024
 31
0.0
  0
LINE
  8
0
  6
CONTINUOUS
 62
     1
 10
1830.57
 20
1496.26024
 30
0.0
 11
1830.57
 21
988.66024
 31
0.0
  0
TEXT
  8
0
  6
CONTINUOUS
 62
     2
 10
1372.17
 20
1154.70024
 30
1.44
 40
14.4
  1
１９０４
 50
0.0
 41
0.9
 51
0.0
  7
KANJI65
  0
TEXT
  8
0
  6
CONTINUOUS
 62
     2
 10
1372.17
 20
1123.10024
 30
1.44
 40
14.4
  1
２０２７
 50
0.0
 41
0.9
 51
0.0
  7
KANJI65
  0
TEXT
  8
0
  6
CONTINUOUS
 62
     2
 10
1372.17
 20
1091.50024
 30
1.44
 40
14.4
  1
２１４７
 50
0.0
 41
0.9
 51
0.0
  7
KANJI65
  0
TEXT
  8
0
  6
CONTINUOUS
 62
     2
 10
1372.17
 20
1059.90024
 30
1.44
 40
14.4
  1
２２６９
 50
0.0
 41
0.9
 51
0.0
  7
KANJI65
  0
TEXT
  8
0
  6
CONTINUOUS
 62
     2
 10
1372.17
 20
1028.30024
 30
1.44
 40
14.4
  1
２４０９
 50
0.0
 41
0.9
 51
0.0
  7
KANJI65
  0
TEXT
  8
0
  6
CONTINUOUS
 62
     2
 10
1468.17
 20
1028.30024
 30
1.44
 40
14.4
  1
２２１２
 50
0.0
 41
0.9
 51
0.0
  7
KANJI65
  0
TEXT
  8
0
  6
CONTINUOUS
 62
     2
 10
1468.17
 20
1059.90024
 30
1.44
 40
14.4
  1
２０７２
 50
0.0
 41
0.9
 51
0.0
  7
KANJI65
  0
TEXT
  8
0
  6
CONTINUOUS
 62
     2
 10
1468.17
 20
1091.50024
 30
1.44
 40
14.4
  1
１９５０
 50
0.0
 41
0.9
 51
0.0
  7
KANJI65
  0
TEXT
  8
0
  6
CONTINUOUS
 62
     2
 10
1468.17
 20
1123.10024
 30
1.44
 40
14.4
  1
１８３０
 50
0.0
 41
0.9
 51
0.0
  7
KANJI65
  0
TEXT
  8
0
  6
CONTINUOUS
 62
     2
 10
1468.17
 20
1154.70024
 30
1.44
 40
14.4
  1
１７０７
 50
0.0
 41
0.9
 51
0.0
  7
KANJI65
  0
TEXT
  8
0
  6
CONTINUOUS
 62
     2
 10
1068.57
 20
1438.74024
 30
0.96
 40
14.4
  1
ＭＣＬＥ２Ｃ－　　２ＪＬ
 50
0.0
 41
0.833333333
 51
0.0
  7
KANJI70
  0
TEXT
  8
0
  6
CONTINUOUS
 62
     2
 10
1068.57
 20
1407.14024
 30
0.96
 40
14.4
  1
ＭＣＬＥ２Ｃ－　　３ＪＬ
 50
0.0
 41
0.833333333
 51
0.0
  7
KANJI70
  0
TEXT
  8
0
  6
CONTINUOUS
 62
     2
 10
1068.57
 20
1375.54024
 30
0.96
 40
14.4
  1
ＭＣＬＥ２Ｃ－　　４ＪＬ
 50
0.0
 41
0.833333333
 51
0.0
  7
KANJI70
  0
TEXT
  8
0
  6
CONTINUOUS
 62
     2
 10
1068.57
 20
1343.94024
 30
0.96
 40
14.4
  1
ＭＣＬＥ２Ｃ－　　５ＪＬ
 50
0.0
 41
0.833333333
 51
0.0
  7
KANJI70
  0
TEXT
  8
0
  6
CONTINUOUS
 62
     2
 10
1068.57
 20
1312.34024
 30
0.96
 40
14.4
  1
ＭＣＬＥ２Ｃ－　　６ＪＬ
 50
0.0
 41
0.833333333
 51
0.0
  7
KANJI70
  0
TEXT
  8
0
  6
CONTINUOUS
 62
     2
 10
1068.57
 20
1280.74024
 30
0.96
 40
14.4
  1
ＭＣＬＥ２Ｃ－　　７ＪＬ
 50
0.0
 41
0.833333333
 51
0.0
  7
KANJI70
  0
TEXT
  8
0
  6
CONTINUOUS
 62
     2
 10
1068.57
 20
1249.14024
 30
0.96
 40
14.4
  1
ＭＣＬＥ２Ｃ－　　８ＪＬ
 50
0.0
 41
0.833333333
 51
0.0
  7
KANJI70
  0
TEXT
  8
0
  6
CONTINUOUS
 62
     2
 10
1068.57
 20
1217.54024
 30
0.96
 40
14.4
  1
ＭＣＬＥ２Ｃ－　　９ＪＬ
 50
0.0
 41
0.833333333
 51
0.0
  7
KANJI70
  0
TEXT
  8
0
  6
CONTINUOUS
 62
     2
 10
1068.57
 20
1185.94024
 30
0.96
 40
14.4
  1
ＭＣＬＥ２Ｃ－　１０ＪＬ
 50
0.0
 41
0.833333333
 51
0.0
  7
KANJI70
  0
TEXT
  8
0
  6
CONTINUOUS
 62
     2
 10
1068.57
 20
1154.34024
 30
0.96
 40
14.4
  1
ＭＣＬＥ２Ｃ－　１１ＪＬ
 50
0.0
 41
0.833333333
 51
0.0
  7
KANJI70
  0
TEXT
  8
0
  6
CONTINUOUS
 62
     2
 10
1068.57
 20
1122.74024
 30
0.96
 40
14.4
  1
ＭＣＬＥ２Ｃ－　１２ＪＬ
 50
0.0
 41
0.833333333
 51
0.0
  7
KANJI70
  0
TEXT
  8
0
  6
CONTINUOUS
 62
     2
 10
1068.57
 20
1091.14024
 30
0.96
 40
14.4
  1
ＭＣＬＥ２Ｃ－　１３ＪＬ
 50
0.0
 41
0.833333333
 51
0.0
  7
KANJI70
  0
TEXT
  8
0
  6
CONTINUOUS
 62
     2
 10
1068.57
 20
1059.54024
 30
0.96
 40
14.4
  1
ＭＣＬＥ２Ｃ－　１４ＪＬ
 50
0.0
 41
0.833333333
 51
0.0
  7
KANJI70
  0
TEXT
  8
0
  6
CONTINUOUS
 62
     2
 10
1068.57
 20
1027.94024
 30
0.96
 40
14.4
  1
ＭＣＬＥ２Ｃ－　１５ＪＬ
 50
0.0
 41
0.833333333
 51
0.0
  7
KANJI70
  0
TEXT
  8
0
  6
CONTINUOUS
 62
     2
 10
1068.57
 20
996.34024
 30
0.96
 40
14.4
  1
ＭＣＬＥ２Ｃ－　　　ＪＬ　　
 50
0.0
 41
0.833333333
 51
0.0
  7
KANJI70
  0
TEXT
  8
0
  6
CONTINUOUS
 62
     2
 10
1756.17
 20
1439.10024
 30
1.44
 40
14.4
  1
　９０
 50
0.0
 41
0.9
 51
0.0
  7
KANJI65
  0
TEXT
  8
0
  6
CONTINUOUS
 62
     2
 10
1756.17
 20
1407.50024
 30
1.44
 40
14.4
  1
　９３
 50
0.0
 41
0.9
 51
0.0
  7
KANJI65
  0
TEXT
  8
0
  6
CONTINUOUS
 62
     2
 10
1756.17
 20
1375.90024
 30
1.44
 40
14.4
  1
　９７
 50
0.0
 41
0.9
 51
0.0
  7
KANJI65
  0
TEXT
  8
0
  6
CONTINUOUS
 62
     2
 10
1756.17
 20
1344.30024
 30
1.44
 40
14.4
  1
１０２
 50
0.0
 41
0.9
 51
0.0
  7
KANJI65
  0
TEXT
  8
0
  6
CONTINUOUS
 62
     2
 10
1756.17
 20
1312.70024
 30
1.44
 40
14.4
  1
１０６
 50
0.0
 41
0.9
 51
0.0
  7
KANJI65
  0
TEXT
  8
0
  6
CONTINUOUS
 62
     2
 10
1756.17
 20
1281.10024
 30
1.44
 40
14.4
  1
１１０
 50
0.0
 41
0.9
 51
0.0
  7
KANJI65
  0
TEXT
  8
0
  6
CONTINUOUS
 62
     2
 10
1756.17
 20
1249.50024
 30
1.44
 40
14.4
  1
１１４
 50
0.0
 41
0.9
 51
0.0
  7
KANJI65
  0
TEXT
  8
0
  6
CONTINUOUS
 62
     2
 10
1756.17
 20
1217.90024
 30
1.44
 40
14.4
  1
１１７
 50
0.0
 41
0.9
 51
0.0
  7
KANJI65
  0
TEXT
  8
0
  6
CONTINUOUS
 62
     2
 10
1756.17
 20
1186.30024
 30
1.44
 40
14.4
  1
１２０
 50
0.0
 41
0.9
 51
0.0
  7
KANJI65
  0
TEXT
  8
0
  6
CONTINUOUS
 62
     2
 10
1756.17
 20
1154.70024
 30
1.44
 40
14.4
  1
１２２
 50
0.0
 41
0.9
 51
0.0
  7
KANJI65
  0
TEXT
  8
0
  6
CONTINUOUS
 62
     2
 10
1756.17
 20
1123.10024
 30
1.44
 40
14.4
  1
１２４
 50
0.0
 41
0.9
 51
0.0
  7
KANJI65
  0
TEXT
  8
0
  6
CONTINUOUS
 62
     2
 10
1756.17
 20
1091.50024
 30
1.44
 40
14.4
  1
１２６
 50
0.0
 41
0.9
 51
0.0
  7
KANJI65
  0
TEXT
  8
0
  6
CONTINUOUS
 62
     2
 10
1756.17
 20
1059.90024
 30
1.44
 40
14.4
  1
１２８
 50
0.0
 41
0.9
 51
0.0
  7
KANJI65
  0
TEXT
  8
0
  6
CONTINUOUS
 62
     2
 10
1756.17
 20
1028.30024
 30
1.44
 40
14.4
  1
１３０
 50
0.0
 41
0.9
 51
0.0
  7
KANJI65
  0
TEXT
  8
0
  6
CONTINUOUS
 62
     2
 10
1097.269827
 20
1513.13368
 30
1.749993
 40
17.49993
  1
注意：サーマルリレー等の選定は、上記の値で選定して下さい。
 50
0.0
 41
0.9
 51
0.0
  7
KANJI71
  0
LINE
  8
0
  6
CONTINUOUS
 62
     2
 10
1089.269867
 20
1508.1337
 30
0.0
 11
1589.267987
 21
1508.1337
 31
0.0
  0
LINE
  8
0
  6
LTYPE2
 62
     2
 10
1085.564725201
 20
848.933974596
 30
0.0
 11
1101.564725201
 21
848.933974596
 31
0.0
  0
CIRCLE
  8
0
  6
CONTINUOUS
 62
     1
 10
1092.564725201
 20
848.933974596
 30
0.0
 40
3.0
  0
LINE
  8
0
  6
CONTINUOUS
 62
     1
 10
1047.564725201
 20
826.333974596
 30
0.0
 11
1122.564725201
 21
826.333974596
 31
0.0
  0
LINE
  8
0
  6
CONTINUOUS
 62
     1
 10
1122.564725201
 20
841.333974596
 30
0.0
 11
1122.564725201
 21
826.333974596
 31
0.0
  0
LINE
  8
0
  6
CONTINUOUS
 62
     1
 10
1047.564725201
 20
811.333974596
 30
0.0
 11
1047.564725201
 21
826.333974596
 31
0.0
  0
LINE
  8
0
  6
CONTINUOUS
 62
     1
 10
1118.064725201
 20
845.333974596
 30
0.0
 11
1118.064725201
 21
841.333974596
 31
0.0
  0
LINE
  8
0
  6
CONTINUOUS
 62
     1
 10
1105.064725201
 20
855.333974596
 30
0.0
 11
1105.064725201
 21
845.333974596
 31
0.0
  0
LINE
  8
0
  6
LTYPE1
 62
     2
 10
1105.064725201
 20
826.333974596
 30
0.0
 11
1105.064725201
 21
841.333974596
 31
0.0
  0
LINE
  8
0
  6
CONTINUOUS
 62
     1
 10
1105.064725201
 20
811.333974596
 30
0.0
 11
1105.064725201
 21
826.333974596
 31
0.0
  0
LINE
  8
0
  6
CONTINUOUS
 62
     1
 10
1067.064725201
 20
845.333974596
 30
0.0
 11
1067.064725201
 21
841.333974596
 31
0.0
  0
LINE
  8
0
  6
LTYPE1
 62
     2
 10
1080.064725201
 20
826.333974596
 30
0.0
 11
1080.064725201
 21
841.333974596
 31
0.0
  0
LINE
  8
0
  6
CONTINUOUS
 62
     1
 10
1080.064725201
 20
811.333974596
 30
0.0
 11
1080.064725201
 21
826.333974596
 31
0.0
  0
LINE
  8
0
  6
CONTINUOUS
 62
     1
 10
1080.064725201
 20
855.333974596
 30
0.0
 11
1080.064725201
 21
845.333974596
 31
0.0
  0
LINE
  8
0
  6
CONTINUOUS
 62
     1
 10
1080.064725201
 20
855.333974596
 30
0.0
 11
1105.064725201
 21
855.333974596
 31
0.0
  0
LINE
  8
0
  6
CONTINUOUS
 62
     1
 10
1067.064725201
 20
845.333974596
 30
0.0
 11
1118.064725201
 21
845.333974596
 31
0.0
  0
LINE
  8
0
  6
LTYPE2
 62
     2
 10
1085.564725201
 20
773.733974596
 30
0.0
 11
1101.564725201
 21
773.733974596
 31
0.0
  0
CIRCLE
  8
0
  6
CONTINUOUS
 62
     1
 10
1092.564725201
 20
773.733974596
 30
0.0
 40
3.0
  0
LINE
  8
0
  6
CONTINUOUS
 62
     1
 10
1047.564725201
 20
796.333974596
 30
0.0
 11
1122.564725201
 21
796.333974596
 31
0.0
  0
LINE
  8
0
  6
CONTINUOUS
 62
     1
 10
1122.564725201
 20
781.333974596
 30
0.0
 11
1122.564725201
 21
796.333974596
 31
0.0
  0
LINE
  8
0
  6
CONTINUOUS
 62
     1
 10
1047.564725201
 20
811.333974596
 30
0.0
 11
1047.564725201
 21
796.333974596
 31
0.0
  0
LINE
  8
0
  6
CONTINUOUS
 62
     1
 10
1118.064725201
 20
777.333974596
 30
0.0
 11
1118.064725201
 21
781.333974596
 31
0.0
  0
LINE
  8
0
  6
CONTINUOUS
 62
     1
 10
1105.064725201
 20
767.333974596
 30
0.0
 11
1105.064725201
 21
777.333974596
 31
0.0
  0
LINE
  8
0
  6
LTYPE1
 62
     2
 10
1105.064725201
 20
796.333974596
 30
0.0
 11
1105.064725201
 21
781.333974596
 31
0.0
  0
LINE
  8
0
  6
CONTINUOUS
 62
     1
 10
1105.064725201
 20
811.333974596
 30
0.0
 11
1105.064725201
 21
796.333974596
 31
0.0
  0
LINE
  8
0
  6
CONTINUOUS
 62
     1
 10
1067.064725201
 20
777.333974596
 30
0.0
 11
1067.064725201
 21
781.333974596
 31
0.0
  0
LINE
  8
0
  6
LTYPE1
 62
     2
 10
1080.064725201
 20
796.333974596
 30
0.0
 11
1080.064725201
 21
781.333974596
 31
0.0
  0
LINE
  8
0
  6
CONTINUOUS
 62
     1
 10
1080.064725201
 20
811.333974596
 30
0.0
 11
1080.064725201
 21
796.333974596
 31
0.0
  0
LINE
  8
0
  6
CONTINUOUS
 62
     1
 10
1080.064725201
 20
767.333974596
 30
0.0
 11
1080.064725201
 21
777.333974596
 31
0.0
  0
LINE
  8
0
  6
CONTINUOUS
 62
     1
 10
1080.064725201
 20
767.333974596
 30
0.0
 11
1105.064725201
 21
767.333974596
 31
0.0
  0
LINE
  8
0
  6
CONTINUOUS
 62
     1
 10
1067.064725201
 20
777.333974596
 30
0.0
 11
1118.064725201
 21
777.333974596
 31
0.0
  0
LINE
  8
0
  6
LTYPE2
 62
     2
 10
1092.564725201
 20
758.333974596
 30
0.0
 11
1092.564725201
 21
861.333974596
 31
0.0
  0
LINE
  8
0
  6
CONTINUOUS
 62
     1
 10
1032.564725201
 20
811.333974596
 30
0.0
 11
1032.564725201
 21
841.333974596
 31
0.0
  0
LINE
  8
0
  6
CONTINUOUS
 62
     1
 10
1032.564725201
 20
841.333974596
 30
0.0
 11
1122.564725201
 21
841.333974596
 31
0.0
  0
LINE
  8
0
  6
CONTINUOUS
 62
     1
 10
1032.564725201
 20
781.333974596
 30
0.0
 11
1122.564725201
 21
781.333974596
 31
0.0
  0
LINE
  8
0
  6
CONTINUOUS
 62
     1
 10
1032.564725201
 20
811.333974596
 30
0.0
 11
1032.564725201
 21
781.333974596
 31
0.0
  0
LINE
  8
0
  6
LTYPE2
 62
     2
 10
969.464725201
 20
811.333974596
 30
0.0
 11
1130.464725201
 21
811.333974596
 31
0.0
  0
ARC
  8
0
  6
CONTINUOUS
 62
     1
 10
995.909468964
 20
885.333974596
 30
0.0
 40
1.0
 50
90.0
 51
165.0
  0
LINE
  8
0
  6
CONTINUOUS
 62
     1
 10
991.321502928
 20
872.075155551
 30
0.0
 11
994.943543138
 21
885.592793641
 31
0.0
  0
ARC
  8
0
  6
CONTINUOUS
 62
     1
 10
990.355577102
 20
872.333974596
 30
0.0
 40
1.0
 50
270.0
 51
345.0
  0
LINE
  8
0
  6
CONTINUOUS
 62
     1
 10
1020.064725201
 20
851.833974596
 30
0.0
 11
1030.064725201
 21
851.833974596
 31
0.0
  0
LINE
  8
0
  6
CONTINUOUS
 62
     1
 10
1030.009468964
 20
849.833974596
 30
0.0
 11
1032.564725201
 21
849.833974596
 31
0.0
  0
LINE
  8
0
  6
CONTINUOUS
 62
     1
 10
1017.564725201
 20
849.833974596
 30
0.0
 11
1020.009468964
 21
849.833974596
 31
0.0
  0
LINE
  8
0
  6
CONTINUOUS
 62
     1
 10
1030.064725201
 20
851.833974596
 30
0.0
 11
1030.064725201
 21
811.333974596
 31
0.0
  0
LINE
  8
0
  6
CONTINUOUS
 62
     1
 10
1017.564725201
 20
849.833974596
 30
0.0
 11
1017.564725201
 21
811.333974596
 31
0.0
  0
LINE
  8
0
  6
CONTINUOUS
 62
     1
 10
1020.064725201
 20
851.833974596
 30
0.0
 11
1020.064725201
 21
811.333974596
 31
0.0
  0
LINE
  8
0
  6
CONTINUOUS
 62
     1
 10
1017.564725201
 20
849.833974596
 30
0.0
 11
1007.983178515
 21
885.592793641
 31
0.0
  0
ARC
  8
0
  6
CONTINUOUS
 62
     1
 10
1007.017252689
 20
885.333974596
 30
0.0
 40
1.0
 50
15.0
 51
90.0
  0
ARC
  8
0
  6
CONTINUOUS
 62
     1
 10
1007.017252689
 20
885.333974596
 30
0.0
 40
1.0
 50
90.0
 51
165.0
  0
LINE
  8
0
  6
CONTINUOUS
 62
     1
 10
1002.429286653
 20
872.075155551
 30
0.0
 11
1006.051326863
 21
885.592793641
 31
0.0
  0
ARC
  8
0
  6
CONTINUOUS
 62
     1
 10
1001.463360827
 20
872.333974596
 30
0.0
 40
1.0
 50
270.0
 51
345.0
  0
ARC
  8
0
  6
CONTINUOUS
 62
     1
 10
1001.463360827
 20
872.333974596
 30
0.0
 40
1.0
 50
195.0
 51
270.0
  0
LINE
  8
0
  6
CONTINUOUS
 62
     1
 10
1000.497435
 20
872.075155551
 30
0.0
 11
996.875394791
 21
885.592793641
 31
0.0
  0
ARC
  8
0
  6
CONTINUOUS
 62
     1
 10
995.909468964
 20
885.333974596
 30
0.0
 40
1.0
 50
15.0
 51
90.0
  0
LINE
  8
0
  6
CONTINUOUS
 62
     1
 10
990.355577102
 20
871.333974596
 30
0.0
 11
990.355577102
 21
811.333974596
 31
0.0
  0
LINE
  8
0
  6
CONTINUOUS
 62
     1
 10
995.909468964
 20
886.333974596
 30
0.0
 11
995.909468964
 21
811.333974596
 31
0.0
  0
LINE
  8
0
  6
CONTINUOUS
 62
     1
 10
1007.017252689
 20
886.333974596
 30
0.0
 11
1007.017252689
 21
811.333974596
 31
0.0
  0
LINE
  8
0
  6
CONTINUOUS
 62
     1
 10
1001.463360827
 20
871.333974596
 30
0.0
 11
1001.463360827
 21
811.333974596
 31
0.0
  0
LINE
  8
0
  6
LTYPE4
 62
     2
 10
973.564725201
 20
886.333974596
 30
0.0
 11
995.814725201
 21
886.333974596
 31
0.0
  0
LINE
  8
0
  6
LTYPE4
 62
     2
 10
970.564725201
 20
871.333974596
 30
0.0
 11
990.214725201
 21
871.333974596
 31
0.0
  0
ARC
  8
0
  6
CONTINUOUS
 62
     1
 10
995.909468964
 20
737.333974596
 30
0.0
 40
1.0
 50
195.0
 51
270.0
  0
LINE
  8
0
  6
CONTINUOUS
 62
     1
 10
991.321502928
 20
750.592793641
 30
0.0
 11
994.943543138
 21
737.075155551
 31
0.0
  0
ARC
  8
0
  6
CONTINUOUS
 62
     1
 10
990.355577102
 20
750.333974596
 30
0.0
 40
1.0
 50
15.0
 51
90.0
  0
LINE
  8
0
  6
CONTINUOUS
 62
     1
 10
1020.064725201
 20
770.833974596
 30
0.0
 11
1030.064725201
 21
770.833974596
 31
0.0
  0
LINE
  8
0
  6
CONTINUOUS
 62
     1
 10
1030.009468964
 20
772.833974596
 30
0.0
 11
1032.564725201
 21
772.833974596
 31
0.0
  0
LINE
  8
0
  6
CONTINUOUS
 62
     1
 10
1017.564725201
 20
772.833974596
 30
0.0
 11
1020.009468964
 21
772.833974596
 31
0.0
  0
LINE
  8
0
  6
CONTINUOUS
 62
     1
 10
1030.064725201
 20
770.833974596
 30
0.0
 11
1030.064725201
 21
811.333974596
 31
0.0
  0
LINE
  8
0
  6
CONTINUOUS
 62
     1
 10
1017.564725201
 20
772.833974596
 30
0.0
 11
1017.564725201
 21
811.333974596
 31
0.0
  0
LINE
  8
0
  6
CONTINUOUS
 62
     1
 10
1020.064725201
 20
770.833974596
 30
0.0
 11
1020.064725201
 21
811.333974596
 31
0.0
  0
LINE
  8
0
  6
CONTINUOUS
 62
     1
 10
1017.564725201
 20
772.833974596
 30
0.0
 11
1007.983178515
 21
737.075155551
 31
0.0
  0
ARC
  8
0
  6
CONTINUOUS
 62
     1
 10
1007.017252689
 20
737.333974596
 30
0.0
 40
1.0
 50
270.0
 51
345.0
  0
ARC
  8
0
  6
CONTINUOUS
 62
     1
 10
1007.017252689
 20
737.333974596
 30
0.0
 40
1.0
 50
195.0
 51
270.0
  0
LINE
  8
0
  6
CONTINUOUS
 62
     1
 10
1002.429286653
 20
750.592793641
 30
0.0
 11
1006.051326863
 21
737.075155551
 31
0.0
  0
ARC
  8
0
  6
CONTINUOUS
 62
     1
 10
1001.463360827
 20
750.333974596
 30
0.0
 40
1.0
 50
15.0
 51
90.0
  0
ARC
  8
0
  6
CONTINUOUS
 62
     1
 10
1001.463360827
 20
750.333974596
 30
0.0
 40
1.0
 50
90.0
 51
165.0
  0
LINE
  8
0
  6
CONTINUOUS
 62
     1
 10
1000.497435
 20
750.592793641
 30
0.0
 11
996.875394791
 21
737.075155551
 31
0.0
  0
ARC
  8
0
  6
CONTINUOUS
 62
     1
 10
995.909468964
 20
737.333974596
 30
0.0
 40
1.0
 50
270.0
 51
345.0
  0
LINE
  8
0
  6
CONTINUOUS
 62
     1
 10
990.355577102
 20
751.333974596
 30
0.0
 11
990.355577102
 21
811.333974596
 31
0.0
  0
LINE
  8
0
  6
CONTINUOUS
 62
     1
 10
995.909468964
 20
736.333974596
 30
0.0
 11
995.909468964
 21
811.333974596
 31
0.0
  0
LINE
  8
0
  6
CONTINUOUS
 62
     1
 10
1007.017252689
 20
736.333974596
 30
0.0
 11
1007.017252689
 21
811.333974596
 31
0.0
  0
LINE
  8
0
  6
CONTINUOUS
 62
     1
 10
1001.463360827
 20
751.333974596
 30
0.0
 11
1001.463360827
 21
811.333974596
 31
0.0
  0
LINE
  8
0
  6
LTYPE4
 62
     2
 10
973.564725201
 20
736.333974596
 30
0.0
 11
995.814725201
 21
736.333974596
 31
0.0
  0
LINE
  8
0
  6
LTYPE4
 62
     2
 10
970.564725201
 20
751.333974596
 30
0.0
 11
990.214725201
 21
751.333974596
 31
0.0
  0
LINE
  8
0
  6
CONTINUOUS
 62
     2
 10
983.064725201
 20
886.333974596
 30
0.0
 11
983.564725201
 21
886.333974596
 31
0.0
  0
LINE
  8
0
  6
CONTINUOUS
 62
     1
 10
1032.564725201
 20
811.333974596
 30
0.0
 11
1032.564725201
 21
771.333974596
 31
0.0
  0
LINE
  8
0
  6
CONTINUOUS
 62
     1
 10
1032.564725201
 20
811.333974596
 30
0.0
 11
1032.564725201
 21
851.333974596
 31
0.0
  0
LINE
  8
2
  6
CONTINUOUS
 62
     2
 10
942.909468964
 20
886.333974596
 30
0.0
 11
939.674230901
 21
874.259901768
 31
0.0
  0
LINE
  8
2
  6
CONTINUOUS
 62
     2
 10
942.909468964
 20
886.333974596
 30
0.0
 11
946.144707028
 21
874.259901768
 31
0.0
  0
LINE
  8
2
  6
CONTINUOUS
 62
     2
 10
979.909468964
 20
886.333974596
 30
0.0
 11
932.909468964
 21
886.333974596
 31
0.0
  0
LINE
  8
2
  6
CONTINUOUS
 62
     2
 10
981.909468964
 20
736.333974596
 30
0.0
 11
932.909468964
 21
736.333974596
 31
0.0
  0
LINE
  8
2
  6
CONTINUOUS
 62
     2
 10
942.909468964
 20
736.333974596
 30
0.0
 11
946.144707028
 21
748.408047425
 31
0.0
  0
LINE
  8
2
  6
CONTINUOUS
 62
     2
 10
942.909468964
 20
736.333974596
 30
0.0
 11
939.674230901
 21
748.408047425
 31
0.0
  0
LINE
  8
2
  6
CONTINUOUS
 62
     2
 10
942.909468964
 20
736.333974596
 30
0.0
 11
942.909468964
 21
886.333974596
 31
0.0
  0
LINE
  8
7
  6
CONTINUOUS
 62
     2
 10
1032.564725201
 20
708.333974596
 30
0.0
 11
1020.490652372
 21
711.56921266
 31
0.0
  0
LINE
  8
7
  6
CONTINUOUS
 62
     2
 10
1032.564725201
 20
708.333974596
 30
0.0
 11
1020.490652372
 21
705.098736532
 31
0.0
  0
LINE
  8
7
  6
CONTINUOUS
 62
     2
 10
1047.564725201
 20
788.833974596
 30
0.0
 11
1047.564725201
 21
700.833974596
 31
0.0
  0
LINE
  8
7
  6
CONTINUOUS
 62
     2
 10
985.314725201
 20
708.333974596
 30
0.0
 11
1047.564725201
 21
708.333974596
 31
0.0
  0
POINT
  8
7
  6
CONTINUOUS
 62
     2
 10
1047.564725201
 20
715.833974596
 30
0.0
  0
LINE
  8
7
  6
CONTINUOUS
 62
     2
 10
1047.564725201
 20
708.333974596
 30
0.0
 11
1059.638798029
 21
705.098736532
 31
0.0
  0
LINE
  8
7
  6
CONTINUOUS
 62
     2
 10
1047.564725201
 20
708.333974596
 30
0.0
 11
1059.638798029
 21
711.56921266
 31
0.0
  0
LINE
  8
7
  6
CONTINUOUS
 62
     2
 10
1047.564725201
 20
708.333974596
 30
0.0
 11
1092.564725201
 21
708.333974596
 31
0.0
  0
LINE
  8
7
  6
CONTINUOUS
 62
     2
 10
1092.564725201
 20
708.333974596
 30
0.0
 11
1080.490652372
 21
711.56921266
 31
0.0
  0
LINE
  8
7
  6
CONTINUOUS
 62
     2
 10
1092.564725201
 20
708.333974596
 30
0.0
 11
1080.490652372
 21
705.098736532
 31
0.0
  0
LINE
  8
7
  6
CONTINUOUS
 62
     2
 10
1092.564725201
 20
750.833974596
 30
0.0
 11
1092.564725201
 21
700.833974596
 31
0.0
  0
LINE
  8
7
  6
CONTINUOUS
 62
     2
 10
1032.564725201
 20
779.233974596
 30
0.0
 11
1032.564725201
 21
700.833974596
 31
0.0
  0
LINE
  8
2
  6
CONTINUOUS
 62
     2
 10
1092.564725201
 20
729.333974596
 30
0.0
 11
1092.564725201
 21
698.333974596
 31
0.0
  0
LINE
  8
2
  6
CONTINUOUS
 62
     2
 10
1092.564725201
 20
708.333974596
 30
0.0
 11
1104.638798029
 21
705.098736532
 31
0.0
  0
LINE
  8
2
  6
CONTINUOUS
 62
     2
 10
1092.564725201
 20
708.333974596
 30
0.0
 11
1104.638798029
 21
711.56921266
 31
0.0
  0
LINE
  8
2
  6
CONTINUOUS
 62
     2
 10
1092.564725201
 20
708.333974596
 30
0.0
 11
1122.564725201
 21
708.333974596
 31
0.0
  0
LINE
  8
2
  6
CONTINUOUS
 62
     2
 10
1122.564725201
 20
708.333974596
 30
0.0
 11
1110.490652372
 21
711.56921266
 31
0.0
  0
LINE
  8
2
  6
CONTINUOUS
 62
     2
 10
1122.564725201
 20
708.333974596
 30
0.0
 11
1110.490652372
 21
705.098736532
 31
0.0
  0
LINE
  8
2
  6
CONTINUOUS
 62
     2
 10
1122.564725201
 20
772.333974596
 30
0.0
 11
1122.564725201
 21
698.333974596
 31
0.0
  0
TEXT
  8
2
  6
CONTINUOUS
 62
     2
 10
937.909468964
 20
777.083974596
 30
0.0
 40
18.0
  1
φ１５０
 50
90.0
 41
0.9
 51
0.0
  7
KANJI40
  0
TEXT
  8
7
  6
CONTINUOUS
 62
     2
 10
985.314725201
 20
713.333974596
 30
0.0
 40
18.0
  1
１５
 50
0.0
 41
0.9
 51
0.0
  7
KANJI40
  0
TEXT
  8
7
  6
CONTINUOUS
 62
     2
 10
1055.814725201
 20
713.333974596
 30
0.0
 40
18.0
  1
４５
 50
0.0
 41
0.9
 51
0.0
  7
KANJI40
  0
TEXT
  8
2
  6
CONTINUOUS
 62
     2
 10
1090.814725201
 20
713.333974596
 30
0.0
 40
18.0
  1
３０
 50
0.0
 41
0.9
 51
0.0
  7
KANJI40
  0
LINE
  8
7
  6
CONTINUOUS
 62
     2
 10
1130.064725201
 20
826.333974596
 30
0.0
 11
1167.964725201
 21
826.333974596
 31
0.0
  0
LINE
  8
7
  6
CONTINUOUS
 62
     2
 10
1160.464725201
 20
826.333974596
 30
0.0
 11
1157.229487137
 21
814.259901768
 31
0.0
  0
LINE
  8
7
  6
CONTINUOUS
 62
     2
 10
1160.464725201
 20
826.333974596
 30
0.0
 11
1163.699963265
 21
814.259901768
 31
0.0
  0
LINE
  8
7
  6
CONTINUOUS
 62
     2
 10
1160.464725201
 20
826.333974596
 30
0.0
 11
1160.464725201
 21
796.333974596
 31
0.0
  0
LINE
  8
7
  6
CONTINUOUS
 62
     2
 10
1160.464725201
 20
796.333974596
 30
0.0
 11
1163.699963265
 21
808.408047425
 31
0.0
  0
LINE
  8
7
  6
CONTINUOUS
 62
     2
 10
1160.464725201
 20
796.333974596
 30
0.0
 11
1157.229487137
 21
808.408047425
 31
0.0
  0
LINE
  8
7
  6
CONTINUOUS
 62
     2
 10
1130.064725201
 20
796.333974596
 30
0.0
 11
1167.964725201
 21
796.333974596
 31
0.0
  0
LINE
  8
7
  6
CONTINUOUS
 62
     2
 10
1130.064725201
 20
841.333974596
 30
0.0
 11
1204.964725201
 21
841.333974596
 31
0.0
  0
LINE
  8
7
  6
CONTINUOUS
 62
     2
 10
1197.464725201
 20
841.333974596
 30
0.0
 11
1194.229487137
 21
829.259901768
 31
0.0
  0
LINE
  8
7
  6
CONTINUOUS
 62
     2
 10
1197.464725201
 20
841.333974596
 30
0.0
 11
1200.699963265
 21
829.259901768
 31
0.0
  0
LINE
  8
7
  6
CONTINUOUS
 62
     2
 10
1197.464725201
 20
841.333974596
 30
0.0
 11
1197.464725201
 21
781.333974596
 31
0.0
  0
LINE
  8
7
  6
CONTINUOUS
 62
     2
 10
1197.464725201
 20
781.333974596
 30
0.0
 11
1200.699963265
 21
793.408047425
 31
0.0
  0
LINE
  8
7
  6
CONTINUOUS
 62
     2
 10
1197.464725201
 20
781.333974596
 30
0.0
 11
1194.229487137
 21
793.408047425
 31
0.0
  0
LINE
  8
7
  6
CONTINUOUS
 62
     2
 10
1130.064725201
 20
781.333974596
 30
0.0
 11
1204.964725201
 21
781.333974596
 31
0.0
  0
TEXT
  8
7
  6
CONTINUOUS
 62
     2
 10
1192.464725201
 20
797.083974596
 30
0.0
 40
18.0
  1
６０
 50
90.0
 41
0.9
 51
0.0
  7
KANJI40
  0
TEXT
  8
7
  6
CONTINUOUS
 62
     2
 10
1155.464725201
 20
797.083974596
 30
-3.0
 40
18.0
  1
３０
 50
90.0
 41
0.9
 51
0.0
  7
KANJI63
  0
TEXT
  8
0
  6
CONTINUOUS
 62
     3
 10
1060.57
 20
914.56024
 30
0.0
 40
20.0
  1
前進
 50
0.0
 41
0.925
 51
0.0
  7
KANJI72
  0
LINE
  8
0
  6
CONTINUOUS
 62
     2
 10
1094.57
 20
904.56024
 30
0.0
 11
1053.57
 21
904.56024
 31
0.0
  0
LINE
  8
0
  6
CONTINUOUS
 62
     2
 10
1094.57
 20
904.56024
 30
0.0
 11
1082.495927171
 21
907.795478064
 31
0.0
  0
LINE
  8
0
  6
CONTINUOUS
 62
     2
 10
1094.57
 20
904.56024
 30
0.0
 11
1082.495927171
 21
901.325001936
 31
0.0
  0
LINE
  8
0
  6
LTYPE3
 62
     2
 10
624.512554871
 20
214.999302887
 30
0.0
 11
665.17119479
 21
255.657942806
 31
0.0
  0
LINE
  8
0
  6
CONTINUOUS
 62
     1
 10
626.93376308
 20
225.894031853
 30
0.0
 11
655.141641932
 21
251.277403786
 31
0.0
  0
LINE
  8
0
  6
LTYPE3
 62
     2
 10
665.595458858
 20
240.525857688
 30
0.0
 11
649.332002891
 21
256.789313656
 31
0.0
  0
ARC
  8
0
  6
CONTINUOUS
 62
     1
 10
657.817284265
 20
248.304032281
 30
0.0
 40
8.75
 50
255.219855722
 51
194.780144278
  0
LINE
  8
0
  6
CONTINUOUS
 62
     2
 10
708.57222658
 20
270.983974596
 30
0.0
 11
555.32222658
 21
270.983974596
 31
0.0
  0
LINE
  8
0
  6
CONTINUOUS
 62
     2
 10
555.32222658
 20
270.983974596
 30
0.0
 11
555.32222658
 21
101.233974596
 31
0.0
  0
ARC
  8
0
  6
CONTINUOUS
 62
     1
 10
657.817284265
 20
248.304032281
 30
0.0
 40
4.0
 50
311.983042101
 51
138.016952287
  0
LINE
  8
0
  6
CONTINUOUS
 62
     2
 10
708.57222658
 20
101.233974596
 30
0.0
 11
708.57222658
 21
270.983974596
 31
0.0
  0
LINE
  8
0
  6
CONTINUOUS
 62
     1
 10
610.94722658
 20
209.733974596
 30
0.0
 11
610.94722658
 21
145.033974596
 31
0.0
  0
ARC
  8
0
  6
CONTINUOUS
 62
     1
 10
612.94722658
 20
209.733974596
 30
0.0
 40
2.0
 50
90.0
 51
180.0
  0
LINE
  8
0
  6
CONTINUOUS
 62
     1
 10
618.24722658
 20
235.133974596
 30
0.0
 11
618.24722658
 21
211.733974596
 31
0.0
  0
LINE
  8
0
  6
CONTINUOUS
 62
     1
 10
612.94722658
 20
211.733974596
 30
0.0
 11
648.94722658
 21
211.733974596
 31
0.0
  0
ARC
  8
0
  6
CONTINUOUS
 62
     1
 10
648.94722658
 20
209.733974596
 30
0.0
 40
2.0
 50
0.0
 51
90.0
  0
ARC
  8
0
  6
CONTINUOUS
 62
     1
 10
620.24722658
 20
235.133974596
 30
0.0
 40
2.0
 50
90.0
 51
180.0
  0
ARC
  8
0
  6
CONTINUOUS
 62
     1
 10
630.94722658
 20
221.433974596
 30
0.0
 40
6.0
 50
131.983045121
 51
318.016954879
  0
LINE
  8
0
  6
CONTINUOUS
 62
     1
 10
635.407283837
 20
217.420511096
 30
0.0
 11
660.79065577
 21
245.628389948
 31
0.0
  0
LINE
  8
0
  6
CONTINUOUS
 62
     1
 10
643.64722658
 20
226.577344446
 30
0.0
 11
643.64722658
 21
211.733974596
 31
0.0
  0
TEXT
  8
0
  6
CONTINUOUS
 62
     2
 10
614.84722658
 20
201.033974596
 30
0.0
 40
10.0
  1
４
 50
0.0
 41
0.85
 51
0.0
  7
KANJI73
  0
TEXT
  8
0
  6
CONTINUOUS
 62
     2
 10
639.84722658
 20
201.033974596
 30
0.0
 40
10.0
  1
３
 50
0.0
 41
0.85
 51
0.0
  7
KANJI73
  0
POLYLINE
  8
0
  6
CONTINUOUS
 62
     2
 66
     1
 70
     1
  0
VERTEX
  8
0
  6
CONTINUOUS
 62
     2
 10
625.84722658
 20
200.283974596
 30
0.0
 42
0.021820078
  0
VERTEX
  8
0
  6
CONTINUOUS
 62
     2
 10
625.838664651
 20
200.480075017
 30
0.0
 42
0.021820078
  0
VERTEX
  8
0
  6
CONTINUOUS
 62
     2
 10
625.813044024
 20
200.674682996
 30
0.0
 42
0.021820078
  0
VERTEX
  8
0
  6
CONTINUOUS
 62
     2
 10
625.770559689
 20
200.866317448
 30
0.0
 42
0.021820078
  0
VERTEX
  8
0
  6
CONTINUOUS
 62
     2
 10
625.711534977
 20
201.053519919
 30
0.0
 42
0.021820078
  0
VERTEX
  8
0
  6
CONTINUOUS
 62
     2
 10
625.636419101
 20
201.234865685
 30
0.0
 42
0.021820078
  0
VERTEX
  8
0
  6
CONTINUOUS
 62
     2
 10
625.545783739
 20
201.408974596
 30
0.0
 42
0.021820078
  0
VERTEX
  8
0
  6
CONTINUOUS
 62
     2
 10
625.44031868
 20
201.574521578
 30
0.0
 42
0.021820078
  0
VERTEX
  8
0
  6
CONTINUOUS
 62
     2
 10
625.320826577
 20
201.730246718
 30
0.0
 42
0.021820078
  0
VERTEX
  8
0
  6
CONTINUOUS
 62
     2
 10
625.188216838
 20
201.874964854
 30
0.0
 42
0.021820078
  0
VERTEX
  8
0
  6
CONTINUOUS
 62
     2
 10
625.043498702
 20
202.007574593
 30
0.0
 42
0.021820078
  0
VERTEX
  8
0
  6
CONTINUOUS
 62
     2
 10
624.887773562
 20
202.127066696
 30
0.0
 42
0.021820078
  0
VERTEX
  8
0
  6
CONTINUOUS
 62
     2
 10
624.72222658
 20
202.232531755
 30
0.0
 42
0.021820078
  0
VERTEX
  8
0
  6
CONTINUOUS
 62
     2
 10
624.548117669
 20
202.323167117
 30
0.0
 42
0.021820078
  0
VERTEX
  8
0
  6
CONTINUOUS
 62
     2
 10
624.366771903
 20
202.398282993
 30
0.0
 42
0.021820078
  0
VERTEX
  8
0
  6
CONTINUOUS
 62
     2
 10
624.179569432
 20
202.457307705
 30
0.0
 42
0.021820078
  0
VERTEX
  8
0
  6
CONTINUOUS
 62
     2
 10
623.98793498
 20
202.499792041
 30
0.0
 42
0.021820078
  0
VERTEX
  8
0
  6
CONTINUOUS
 62
     2
 10
623.793327001
 20
202.525412667
 30
0.0
 42
0.021820078
  0
VERTEX
  8
0
  6
CONTINUOUS
 62
     2
 10
623.59722658
 20
202.533974596
 30
0.0
 42
0.021820078
  0
VERTEX
  8
0
  6
CONTINUOUS
 62
     2
 10
623.401126159
 20
202.525412667
 30
0.0
 42
0.021820078
  0
VERTEX
  8
0
  6
CONTINUOUS
 62
     2
 10
623.20651818
 20
202.499792041
 30
0.0
 42
0.021820078
  0
VERTEX
  8
0
  6
CONTINUOUS
 62
     2
 10
623.014883729
 20
202.457307705
 30
0.0
 42
0.021820078
  0
VERTEX
  8
0
  6
CONTINUOUS
 62
     2
 10
622.827681258
 20
202.398282993
 30
0.0
 42
0.021820078
  0
VERTEX
  8
0
  6
CONTINUOUS
 62
     2
 10
622.646335491
 20
202.323167117
 30
0.0
 42
0.021820078
  0
VERTEX
  8
0
  6
CONTINUOUS
 62
     2
 10
622.47222658
 20
202.232531755
 30
0.0
 42
0.021820078
  0
VERTEX
  8
0
  6
CONTINUOUS
 62
     2
 10
622.306679598
 20
202.127066696
 30
0.0
 42
0.021820078
  0
VERTEX
  8
0
  6
CONTINUOUS
 62
     2
 10
622.150954458
 20
202.007574593
 30
0.0
 42
0.021820078
  0
VERTEX
  8
0
  6
CONTINUOUS
 62
     2
 10
622.006236323
 20
201.874964854
 30
0.0
 42
0.021820078
  0
VERTEX
  8
0
  6
CONTINUOUS
 62
     2
 10
621.873626583
 20
201.730246718
 30
0.0
 42
0.021820078
  0
VERTEX
  8
0
  6
CONTINUOUS
 62
     2
 10
621.754134481
 20
201.574521578
 30
0.0
 42
0.021820078
  0
VERTEX
  8
0
  6
CONTINUOUS
 62
     2
 10
621.648669422
 20
201.408974596
 30
0.0
 42
0.021820078
  0
VERTEX
  8
0
  6
CONTINUOUS
 62
     2
 10
621.558034059
 20
201.234865685
 30
0.0
 42
0.021820078
  0
VERTEX
  8
0
  6
CONTINUOUS
 62
     2
 10
621.482918183
 20
201.053519919
 30
0.0
 42
0.021820078
  0
VERTEX
  8
0
  6
CONTINUOUS
 62
     2
 10
621.423893471
 20
200.866317448
 30
0.0
 42
0.021820078
  0
VERTEX
  8
0
  6
CONTINUOUS
 62
     2
 10
621.381409136
 20
200.674682996
 30
0.0
 42
0.021820078
  0
VERTEX
  8
0
  6
CONTINUOUS
 62
     2
 10
621.35578851
 20
200.480075017
 30
0.0
 42
0.021820078
  0
VERTEX
  8
0
  6
CONTINUOUS
 62
     2
 10
621.34722658
 20
200.283974596
 30
0.0
 42
0.021820078
  0
VERTEX
  8
0
  6
CONTINUOUS
 62
     2
 10
621.35578851
 20
200.087874175
 30
0.0
 42
0.021820078
  0
VERTEX
  8
0
  6
CONTINUOUS
 62
     2
 10
621.381409136
 20
199.893266196
 30
0.0
 42
0.021820078
  0
VERTEX
  8
0
  6
CONTINUOUS
 62
     2
 10
621.423893471
 20
199.701631745
 30
0.0
 42
0.021820078
  0
VERTEX
  8
0
  6
CONTINUOUS
 62
     2
 10
621.482918183
 20
199.514429274
 30
0.0
 42
0.021820078
  0
VERTEX
  8
0
  6
CONTINUOUS
 62
     2
 10
621.558034059
 20
199.333083507
 30
0.0
 42
0.021820078
  0
VERTEX
  8
0
  6
CONTINUOUS
 62
     2
 10
621.648669422
 20
199.158974596
 30
0.0
 42
0.021820078
  0
VERTEX
  8
0
  6
CONTINUOUS
 62
     2
 10
621.754134481
 20
198.993427614
 30
0.0
 42
0.021820078
  0
VERTEX
  8
0
  6
CONTINUOUS
 62
     2
 10
621.873626583
 20
198.837702474
 30
0.0
 42
0.021820078
  0
VERTEX
  8
0
  6
CONTINUOUS
 62
     2
 10
622.006236323
 20
198.692984339
 30
0.0
 42
0.021820078
  0
VERTEX
  8
0
  6
CONTINUOUS
 62
     2
 10
622.150954458
 20
198.560374599
 30
0.0
 42
0.021820078
  0
VERTEX
  8
0
  6
CONTINUOUS
 62
     2
 10
622.306679598
 20
198.440882497
 30
0.0
 42
0.021820078
  0
VERTEX
  8
0
  6
CONTINUOUS
 62
     2
 10
622.47222658
 20
198.335417438
 30
0.0
 42
0.021820078
  0
VERTEX
  8
0
  6
CONTINUOUS
 62
     2
 10
622.646335491
 20
198.244782075
 30
0.0
 42
0.021820078
  0
VERTEX
  8
0
  6
CONTINUOUS
 62
     2
 10
622.827681258
 20
198.169666199
 30
0.0
 42
0.021820078
  0
VERTEX
  8
0
  6
CONTINUOUS
 62
     2
 10
623.014883729
 20
198.110641487
 30
0.0
 42
0.021820078
  0
VERTEX
  8
0
  6
CONTINUOUS
 62
     2
 10
623.20651818
 20
198.068157152
 30
0.0
 42
0.021820078
  0
VERTEX
  8
0
  6
CONTINUOUS
 62
     2
 10
623.401126159
 20
198.042536526
 30
0.0
 42
0.021820078
  0
VERTEX
  8
0
  6
CONTINUOUS
 62
     2
 10
623.59722658
 20
198.033974596
 30
0.0
 42
0.021820078
  0
VERTEX
  8
0
  6
CONTINUOUS
 62
     2
 10
623.793327001
 20
198.042536526
 30
0.0
 42
0.021820078
  0
VERTEX
  8
0
  6
CONTINUOUS
 62
     2
 10
623.98793498
 20
198.068157152
 30
0.0
 42
0.021820078
  0
VERTEX
  8
0
  6
CONTINUOUS
 62
     2
 10
624.179569432
 20
198.110641487
 30
0.0
 42
0.021820078
  0
VERTEX
  8
0
  6
CONTINUOUS
 62
     2
 10
624.366771903
 20
198.169666199
 30
0.0
 42
0.021820078
  0
VERTEX
  8
0
  6
CONTINUOUS
 62
     2
 10
624.548117669
 20
198.244782075
 30
0.0
 42
0.021820078
  0
VERTEX
  8
0
  6
CONTINUOUS
 62
     2
 10
624.72222658
 20
198.335417438
 30
0.0
 42
0.021820078
  0
VERTEX
  8
0
  6
CONTINUOUS
 62
     2
 10
624.887773562
 20
198.440882497
 30
0.0
 42
0.021820078
  0
VERTEX
  8
0
  6
CONTINUOUS
 62
     2
 10
625.043498702
 20
198.560374599
 30
0.0
 42
0.021820078
  0
VERTEX
  8
0
  6
CONTINUOUS
 62
     2
 10
625.188216838
 20
198.692984339
 30
0.0
 42
0.021820078
  0
VERTEX
  8
0
  6
CONTINUOUS
 62
     2
 10
625.320826577
 20
198.837702474
 30
0.0
 42
0.021820078
  0
VERTEX
  8
0
  6
CONTINUOUS
 62
     2
 10
625.44031868
 20
198.993427614
 30
0.0
 42
0.021820078
  0
VERTEX
  8
0
  6
CONTINUOUS
 62
     2
 10
625.545783739
 20
199.158974596
 30
0.0
 42
0.021820078
  0
VERTEX
  8
0
  6
CONTINUOUS
 62
     2
 10
625.636419101
 20
199.333083507
 30
0.0
 42
0.021820078
  0
VERTEX
  8
0
  6
CONTINUOUS
 62
     2
 10
625.711534977
 20
199.514429274
 30
0.0
 42
0.021820078
  0
VERTEX
  8
0
  6
CONTINUOUS
 62
     2
 10
625.770559689
 20
199.701631745
 30
0.0
 42
0.021820078
  0
VERTEX
  8
0
  6
CONTINUOUS
 62
     2
 10
625.813044024
 20
199.893266196
 30
0.0
 42
0.021820078
  0
VERTEX
  8
0
  6
CONTINUOUS
 62
     2
 10
625.838664651
 20
200.087874175
 30
0.0
 42
0.021820078
  0
SEQEND
  8
0
  6
CONTINUOUS
 62
     2
  0
POLYLINE
  8
0
  6
CONTINUOUS
 62
     2
 66
     1
 70
     1
  0
VERTEX
  8
0
  6
CONTINUOUS
 62
     2
 10
640.84722658
 20
200.283974596
 30
0.0
 42
0.021820078
  0
VERTEX
  8
0
  6
CONTINUOUS
 62
     2
 10
640.838664651
 20
200.480075017
 30
0.0
 42
0.021820078
  0
VERTEX
  8
0
  6
CONTINUOUS
 62
     2
 10
640.813044024
 20
200.674682996
 30
0.0
 42
0.021820078
  0
VERTEX
  8
0
  6
CONTINUOUS
 62
     2
 10
640.770559689
 20
200.866317448
 30
0.0
 42
0.021820078
  0
VERTEX
  8
0
  6
CONTINUOUS
 62
     2
 10
640.711534977
 20
201.053519919
 30
0.0
 42
0.021820078
  0
VERTEX
  8
0
  6
CONTINUOUS
 62
     2
 10
640.636419101
 20
201.234865685
 30
0.0
 42
0.021820078
  0
VERTEX
  8
0
  6
CONTINUOUS
 62
     2
 10
640.545783739
 20
201.408974596
 30
0.0
 42
0.021820078
  0
VERTEX
  8
0
  6
CONTINUOUS
 62
     2
 10
640.44031868
 20
201.574521578
 30
0.0
 42
0.021820078
  0
VERTEX
  8
0
  6
CONTINUOUS
 62
     2
 10
640.320826577
 20
201.730246718
 30
0.0
 42
0.021820078
  0
VERTEX
  8
0
  6
CONTINUOUS
 62
     2
 10
640.188216838
 20
201.874964854
 30
0.0
 42
0.021820078
  0
VERTEX
  8
0
  6
CONTINUOUS
 62
     2
 10
640.043498702
 20
202.007574593
 30
0.0
 42
0.021820078
  0
VERTEX
  8
0
  6
CONTINUOUS
 62
     2
 10
639.887773562
 20
202.127066696
 30
0.0
 42
0.021820078
  0
VERTEX
  8
0
  6
CONTINUOUS
 62
     2
 10
639.72222658
 20
202.232531755
 30
0.0
 42
0.021820078
  0
VERTEX
  8
0
  6
CONTINUOUS
 62
     2
 10
639.548117669
 20
202.323167117
 30
0.0
 42
0.021820078
  0
VERTEX
  8
0
  6
CONTINUOUS
 62
     2
 10
639.366771903
 20
202.398282993
 30
0.0
 42
0.021820078
  0
VERTEX
  8
0
  6
CONTINUOUS
 62
     2
 10
639.179569432
 20
202.457307705
 30
0.0
 42
0.021820078
  0
VERTEX
  8
0
  6
CONTINUOUS
 62
     2
 10
638.98793498
 20
202.499792041
 30
0.0
 42
0.021820078
  0
VERTEX
  8
0
  6
CONTINUOUS
 62
     2
 10
638.793327001
 20
202.525412667
 30
0.0
 42
0.021820078
  0
VERTEX
  8
0
  6
CONTINUOUS
 62
     2
 10
638.59722658
 20
202.533974596
 30
0.0
 42
0.021820078
  0
VERTEX
  8
0
  6
CONTINUOUS
 62
     2
 10
638.401126159
 20
202.525412667
 30
0.0
 42
0.021820078
  0
VERTEX
  8
0
  6
CONTINUOUS
 62
     2
 10
638.20651818
 20
202.499792041
 30
0.0
 42
0.021820078
  0
VERTEX
  8
0
  6
CONTINUOUS
 62
     2
 10
638.014883729
 20
202.457307705
 30
0.0
 42
0.021820078
  0
VERTEX
  8
0
  6
CONTINUOUS
 62
     2
 10
637.827681258
 20
202.398282993
 30
0.0
 42
0.021820078
  0
VERTEX
  8
0
  6
CONTINUOUS
 62
     2
 10
637.646335491
 20
202.323167117
 30
0.0
 42
0.021820078
  0
VERTEX
  8
0
  6
CONTINUOUS
 62
     2
 10
637.47222658
 20
202.232531755
 30
0.0
 42
0.021820078
  0
VERTEX
  8
0
  6
CONTINUOUS
 62
     2
 10
637.306679598
 20
202.127066696
 30
0.0
 42
0.021820078
  0
VERTEX
  8
0
  6
CONTINUOUS
 62
     2
 10
637.150954458
 20
202.007574593
 30
0.0
 42
0.021820078
  0
VERTEX
  8
0
  6
CONTINUOUS
 62
     2
 10
637.006236323
 20
201.874964854
 30
0.0
 42
0.021820078
  0
VERTEX
  8
0
  6
CONTINUOUS
 62
     2
 10
636.873626583
 20
201.730246718
 30
0.0
 42
0.021820078
  0
VERTEX
  8
0
  6
CONTINUOUS
 62
     2
 10
636.754134481
 20
201.574521578
 30
0.0
 42
0.021820078
  0
VERTEX
  8
0
  6
CONTINUOUS
 62
     2
 10
636.648669422
 20
201.408974596
 30
0.0
 42
0.021820078
  0
VERTEX
  8
0
  6
CONTINUOUS
 62
     2
 10
636.558034059
 20
201.234865685
 30
0.0
 42
0.021820078
  0
VERTEX
  8
0
  6
CONTINUOUS
 62
     2
 10
636.482918183
 20
201.053519919
 30
0.0
 42
0.021820078
  0
VERTEX
  8
0
  6
CONTINUOUS
 62
     2
 10
636.423893471
 20
200.866317448
 30
0.0
 42
0.021820078
  0
VERTEX
  8
0
  6
CONTINUOUS
 62
     2
 10
636.381409136
 20
200.674682996
 30
0.0
 42
0.021820078
  0
VERTEX
  8
0
  6
CONTINUOUS
 62
     2
 10
636.35578851
 20
200.480075017
 30
0.0
 42
0.021820078
  0
VERTEX
  8
0
  6
CONTINUOUS
 62
     2
 10
636.34722658
 20
200.283974596
 30
0.0
 42
0.021820078
  0
VERTEX
  8
0
  6
CONTINUOUS
 62
     2
 10
636.35578851
 20
200.087874175
 30
0.0
 42
0.021820078
  0
VERTEX
  8
0
  6
CONTINUOUS
 62
     2
 10
636.381409136
 20
199.893266196
 30
0.0
 42
0.021820078
  0
VERTEX
  8
0
  6
CONTINUOUS
 62
     2
 10
636.423893471
 20
199.701631745
 30
0.0
 42
0.021820078
  0
VERTEX
  8
0
  6
CONTINUOUS
 62
     2
 10
636.482918183
 20
199.514429274
 30
0.0
 42
0.021820078
  0
VERTEX
  8
0
  6
CONTINUOUS
 62
     2
 10
636.558034059
 20
199.333083507
 30
0.0
 42
0.021820078
  0
VERTEX
  8
0
  6
CONTINUOUS
 62
     2
 10
636.648669422
 20
199.158974596
 30
0.0
 42
0.021820078
  0
VERTEX
  8
0
  6
CONTINUOUS
 62
     2
 10
636.754134481
 20
198.993427614
 30
0.0
 42
0.021820078
  0
VERTEX
  8
0
  6
CONTINUOUS
 62
     2
 10
636.873626583
 20
198.837702474
 30
0.0
 42
0.021820078
  0
VERTEX
  8
0
  6
CONTINUOUS
 62
     2
 10
637.006236323
 20
198.692984339
 30
0.0
 42
0.021820078
  0
VERTEX
  8
0
  6
CONTINUOUS
 62
     2
 10
637.150954458
 20
198.560374599
 30
0.0
 42
0.021820078
  0
VERTEX
  8
0
  6
CONTINUOUS
 62
     2
 10
637.306679598
 20
198.440882497
 30
0.0
 42
0.021820078
  0
VERTEX
  8
0
  6
CONTINUOUS
 62
     2
 10
637.47222658
 20
198.335417438
 30
0.0
 42
0.021820078
  0
VERTEX
  8
0
  6
CONTINUOUS
 62
     2
 10
637.646335491
 20
198.244782075
 30
0.0
 42
0.021820078
  0
VERTEX
  8
0
  6
CONTINUOUS
 62
     2
 10
637.827681258
 20
198.169666199
 30
0.0
 42
0.021820078
  0
VERTEX
  8
0
  6
CONTINUOUS
 62
     2
 10
638.014883729
 20
198.110641487
 30
0.0
 42
0.021820078
  0
VERTEX
  8
0
  6
CONTINUOUS
 62
     2
 10
638.20651818
 20
198.068157152
 30
0.0
 42
0.021820078
  0
VERTEX
  8
0
  6
CONTINUOUS
 62
     2
 10
638.401126159
 20
198.042536526
 30
0.0
 42
0.021820078
  0
VERTEX
  8
0
  6
CONTINUOUS
 62
     2
 10
638.59722658
 20
198.033974596
 30
0.0
 42
0.021820078
  0
VERTEX
  8
0
  6
CONTINUOUS
 62
     2
 10
638.793327001
 20
198.042536526
 30
0.0
 42
0.021820078
  0
VERTEX
  8
0
  6
CONTINUOUS
 62
     2
 10
638.98793498
 20
198.068157152
 30
0.0
 42
0.021820078
  0
VERTEX
  8
0
  6
CONTINUOUS
 62
     2
 10
639.179569432
 20
198.110641487
 30
0.0
 42
0.021820078
  0
VERTEX
  8
0
  6
CONTINUOUS
 62
     2
 10
639.366771903
 20
198.169666199
 30
0.0
 42
0.021820078
  0
VERTEX
  8
0
  6
CONTINUOUS
 62
     2
 10
639.548117669
 20
198.244782075
 30
0.0
 42
0.021820078
  0
VERTEX
  8
0
  6
CONTINUOUS
 62
     2
 10
639.72222658
 20
198.335417438
 30
0.0
 42
0.021820078
  0
VERTEX
  8
0
  6
CONTINUOUS
 62
     2
 10
639.887773562
 20
198.440882497
 30
0.0
 42
0.021820078
  0
VERTEX
  8
0
  6
CONTINUOUS
 62
     2
 10
640.043498702
 20
198.560374599
 30
0.0
 42
0.021820078
  0
VERTEX
  8
0
  6
CONTINUOUS
 62
     2
 10
640.188216838
 20
198.692984339
 30
0.0
 42
0.021820078
  0
VERTEX
  8
0
  6
CONTINUOUS
 62
     2
 10
640.320826577
 20
198.837702474
 30
0.0
 42
0.021820078
  0
VERTEX
  8
0
  6
CONTINUOUS
 62
     2
 10
640.44031868
 20
198.993427614
 30
0.0
 42
0.021820078
  0
VERTEX
  8
0
  6
CONTINUOUS
 62
     2
 10
640.545783739
 20
199.158974596
 30
0.0
 42
0.021820078
  0
VERTEX
  8
0
  6
CONTINUOUS
 62
     2
 10
640.636419101
 20
199.333083507
 30
0.0
 42
0.021820078
  0
VERTEX
  8
0
  6
CONTINUOUS
 62
     2
 10
640.711534977
 20
199.514429274
 30
0.0
 42
0.021820078
  0
VERTEX
  8
0
  6
CONTINUOUS
 62
     2
 10
640.770559689
 20
199.701631745
 30
0.0
 42
0.021820078
  0
VERTEX
  8
0
  6
CONTINUOUS
 62
     2
 10
640.813044024
 20
199.893266196
 30
0.0
 42
0.021820078
  0
VERTEX
  8
0
  6
CONTINUOUS
 62
     2
 10
640.838664651
 20
200.087874175
 30
0.0
 42
0.021820078
  0
SEQEND
  8
0
  6
CONTINUOUS
 62
     2
  0
TEXT
  8
0
  6
CONTINUOUS
 62
     2
 10
582.94722658
 20
200.233974596
 30
0.0
 40
10.0
  1
（ＮＯ）
 50
0.0
 41
0.75
 51
0.0
  7
KANJI74
  0
LINE
  8
0
  6
CONTINUOUS
 62
     1
 10
612.94722658
 20
143.033974596
 30
0.0
 11
648.94722658
 21
143.033974596
 31
0.0
  0
ARC
  8
0
  6
CONTINUOUS
 62
     1
 10
612.94722658
 20
145.033974596
 30
0.0
 40
2.0
 50
180.0
 51
270.0
  0
ARC
  8
0
  6
CONTINUOUS
 62
     1
 10
648.94722658
 20
145.033974596
 30
0.0
 40
2.0
 50
270.0
 51
0.0
  0
LINE
  8
0
  6
LTYPE2
 62
     2
 10
616.07222658
 20
188.233974596
 30
0.0
 11
646.07222658
 21
188.233974596
 31
0.0
  0
LINE
  8
0
  6
LTYPE2
 62
     2
 10
646.07222658
 20
188.233974596
 30
0.0
 11
646.07222658
 21
197.733974596
 31
0.0
  0
LINE
  8
0
  6
LTYPE2
 62
     2
 10
646.07222658
 20
197.733974596
 30
0.0
 11
616.07222658
 21
197.733974596
 31
0.0
  0
LINE
  8
0
  6
LTYPE2
 62
     2
 10
616.07222658
 20
197.733974596
 30
0.0
 11
616.07222658
 21
188.233974596
 31
0.0
  0
LINE
  8
0
  6
CONTINUOUS
 62
     1
 10
616.07222658
 20
158.233974596
 30
0.0
 11
646.07222658
 21
158.233974596
 31
0.0
  0
LINE
  8
0
  6
CONTINUOUS
 62
     1
 10
646.07222658
 20
158.233974596
 30
0.0
 11
646.07222658
 21
167.733974596
 31
0.0
  0
LINE
  8
0
  6
CONTINUOUS
 62
     1
 10
646.07222658
 20
167.733974596
 30
0.0
 11
616.07222658
 21
167.733974596
 31
0.0
  0
LINE
  8
0
  6
CONTINUOUS
 62
     1
 10
616.07222658
 20
167.733974596
 30
0.0
 11
616.07222658
 21
158.233974596
 31
0.0
  0
POLYLINE
  8
0
  6
CONTINUOUS
 62
     2
 66
     1
 70
     1
  0
VERTEX
  8
0
  6
CONTINUOUS
 62
     2
 10
625.84722658
 20
155.933974596
 30
0.0
 42
-0.021820078
  0
VERTEX
  8
0
  6
CONTINUOUS
 62
     2
 10
625.838664651
 20
155.737874175
 30
0.0
 42
-0.021820078
  0
VERTEX
  8
0
  6
CONTINUOUS
 62
     2
 10
625.813044024
 20
155.543266196
 30
0.0
 42
-0.021820078
  0
VERTEX
  8
0
  6
CONTINUOUS
 62
     2
 10
625.770559689
 20
155.351631745
 30
0.0
 42
-0.021820078
  0
VERTEX
  8
0
  6
CONTINUOUS
 62
     2
 10
625.711534977
 20
155.164429274
 30
0.0
 42
-0.021820078
  0
VERTEX
  8
0
  6
CONTINUOUS
 62
     2
 10
625.636419101
 20
154.983083507
 30
0.0
 42
-0.021820078
  0
VERTEX
  8
0
  6
CONTINUOUS
 62
     2
 10
625.545783739
 20
154.808974596
 30
0.0
 42
-0.021820078
  0
VERTEX
  8
0
  6
CONTINUOUS
 62
     2
 10
625.44031868
 20
154.643427614
 30
0.0
 42
-0.021820078
  0
VERTEX
  8
0
  6
CONTINUOUS
 62
     2
 10
625.320826577
 20
154.487702474
 30
0.0
 42
-0.021820078
  0
VERTEX
  8
0
  6
CONTINUOUS
 62
     2
 10
625.188216838
 20
154.342984339
 30
0.0
 42
-0.021820078
  0
VERTEX
  8
0
  6
CONTINUOUS
 62
     2
 10
625.043498702
 20
154.210374599
 30
0.0
 42
-0.021820078
  0
VERTEX
  8
0
  6
CONTINUOUS
 62
     2
 10
624.887773562
 20
154.090882497
 30
0.0
 42
-0.021820078
  0
VERTEX
  8
0
  6
CONTINUOUS
 62
     2
 10
624.72222658
 20
153.985417438
 30
0.0
 42
-0.021820078
  0
VERTEX
  8
0
  6
CONTINUOUS
 62
     2
 10
624.548117669
 20
153.894782075
 30
0.0
 42
-0.021820078
  0
VERTEX
  8
0
  6
CONTINUOUS
 62
     2
 10
624.366771903
 20
153.819666199
 30
0.0
 42
-0.021820078
  0
VERTEX
  8
0
  6
CONTINUOUS
 62
     2
 10
624.179569432
 20
153.760641487
 30
0.0
 42
-0.021820078
  0
VERTEX
  8
0
  6
CONTINUOUS
 62
     2
 10
623.98793498
 20
153.718157152
 30
0.0
 42
-0.021820078
  0
VERTEX
  8
0
  6
CONTINUOUS
 62
     2
 10
623.793327001
 20
153.692536526
 30
0.0
 42
-0.021820078
  0
VERTEX
  8
0
  6
CONTINUOUS
 62
     2
 10
623.59722658
 20
153.683974596
 30
0.0
 42
-0.021820078
  0
VERTEX
  8
0
  6
CONTINUOUS
 62
     2
 10
623.401126159
 20
153.692536526
 30
0.0
 42
-0.021820078
  0
VERTEX
  8
0
  6
CONTINUOUS
 62
     2
 10
623.20651818
 20
153.718157152
 30
0.0
 42
-0.021820078
  0
VERTEX
  8
0
  6
CONTINUOUS
 62
     2
 10
623.014883729
 20
153.760641487
 30
0.0
 42
-0.021820078
  0
VERTEX
  8
0
  6
CONTINUOUS
 62
     2
 10
622.827681258
 20
153.819666199
 30
0.0
 42
-0.021820078
  0
VERTEX
  8
0
  6
CONTINUOUS
 62
     2
 10
622.646335491
 20
153.894782075
 30
0.0
 42
-0.021820078
  0
VERTEX
  8
0
  6
CONTINUOUS
 62
     2
 10
622.47222658
 20
153.985417438
 30
0.0
 42
-0.021820078
  0
VERTEX
  8
0
  6
CONTINUOUS
 62
     2
 10
622.306679598
 20
154.090882497
 30
0.0
 42
-0.021820078
  0
VERTEX
  8
0
  6
CONTINUOUS
 62
     2
 10
622.150954458
 20
154.210374599
 30
0.0
 42
-0.021820078
  0
VERTEX
  8
0
  6
CONTINUOUS
 62
     2
 10
622.006236323
 20
154.342984339
 30
0.0
 42
-0.021820078
  0
VERTEX
  8
0
  6
CONTINUOUS
 62
     2
 10
621.873626583
 20
154.487702474
 30
0.0
 42
-0.021820078
  0
VERTEX
  8
0
  6
CONTINUOUS
 62
     2
 10
621.754134481
 20
154.643427614
 30
0.0
 42
-0.021820078
  0
VERTEX
  8
0
  6
CONTINUOUS
 62
     2
 10
621.648669422
 20
154.808974596
 30
0.0
 42
-0.021820078
  0
VERTEX
  8
0
  6
CONTINUOUS
 62
     2
 10
621.558034059
 20
154.983083507
 30
0.0
 42
-0.021820078
  0
VERTEX
  8
0
  6
CONTINUOUS
 62
     2
 10
621.482918183
 20
155.164429274
 30
0.0
 42
-0.021820078
  0
VERTEX
  8
0
  6
CONTINUOUS
 62
     2
 10
621.423893471
 20
155.351631745
 30
0.0
 42
-0.021820078
  0
VERTEX
  8
0
  6
CONTINUOUS
 62
     2
 10
621.381409136
 20
155.543266196
 30
0.0
 42
-0.021820078
  0
VERTEX
  8
0
  6
CONTINUOUS
 62
     2
 10
621.35578851
 20
155.737874175
 30
0.0
 42
-0.021820078
  0
VERTEX
  8
0
  6
CONTINUOUS
 62
     2
 10
621.34722658
 20
155.933974596
 30
0.0
 42
-0.021820078
  0
VERTEX
  8
0
  6
CONTINUOUS
 62
     2
 10
621.35578851
 20
156.130075017
 30
0.0
 42
-0.021820078
  0
VERTEX
  8
0
  6
CONTINUOUS
 62
     2
 10
621.381409136
 20
156.324682996
 30
0.0
 42
-0.021820078
  0
VERTEX
  8
0
  6
CONTINUOUS
 62
     2
 10
621.423893471
 20
156.516317448
 30
0.0
 42
-0.021820078
  0
VERTEX
  8
0
  6
CONTINUOUS
 62
     2
 10
621.482918183
 20
156.703519919
 30
0.0
 42
-0.021820078
  0
VERTEX
  8
0
  6
CONTINUOUS
 62
     2
 10
621.558034059
 20
156.884865685
 30
0.0
 42
-0.021820078
  0
VERTEX
  8
0
  6
CONTINUOUS
 62
     2
 10
621.648669422
 20
157.058974596
 30
0.0
 42
-0.021820078
  0
VERTEX
  8
0
  6
CONTINUOUS
 62
     2
 10
621.754134481
 20
157.224521578
 30
0.0
 42
-0.021820078
  0
VERTEX
  8
0
  6
CONTINUOUS
 62
     2
 10
621.873626583
 20
157.380246718
 30
0.0
 42
-0.021820078
  0
VERTEX
  8
0
  6
CONTINUOUS
 62
     2
 10
622.006236323
 20
157.524964854
 30
0.0
 42
-0.021820078
  0
VERTEX
  8
0
  6
CONTINUOUS
 62
     2
 10
622.150954458
 20
157.657574593
 30
0.0
 42
-0.021820078
  0
VERTEX
  8
0
  6
CONTINUOUS
 62
     2
 10
622.306679598
 20
157.777066696
 30
0.0
 42
-0.021820078
  0
VERTEX
  8
0
  6
CONTINUOUS
 62
     2
 10
622.47222658
 20
157.882531755
 30
0.0
 42
-0.021820078
  0
VERTEX
  8
0
  6
CONTINUOUS
 62
     2
 10
622.646335491
 20
157.973167117
 30
0.0
 42
-0.021820078
  0
VERTEX
  8
0
  6
CONTINUOUS
 62
     2
 10
622.827681258
 20
158.048282993
 30
0.0
 42
-0.021820078
  0
VERTEX
  8
0
  6
CONTINUOUS
 62
     2
 10
623.014883729
 20
158.107307705
 30
0.0
 42
-0.021820078
  0
VERTEX
  8
0
  6
CONTINUOUS
 62
     2
 10
623.20651818
 20
158.14979204
 30
0.0
 42
-0.021820078
  0
VERTEX
  8
0
  6
CONTINUOUS
 62
     2
 10
623.401126159
 20
158.175412667
 30
0.0
 42
-0.021820078
  0
VERTEX
  8
0
  6
CONTINUOUS
 62
     2
 10
623.59722658
 20
158.183974596
 30
0.0
 42
-0.021820078
  0
VERTEX
  8
0
  6
CONTINUOUS
 62
     2
 10
623.793327001
 20
158.175412667
 30
0.0
 42
-0.021820078
  0
VERTEX
  8
0
  6
CONTINUOUS
 62
     2
 10
623.98793498
 20
158.14979204
 30
0.0
 42
-0.021820078
  0
VERTEX
  8
0
  6
CONTINUOUS
 62
     2
 10
624.179569432
 20
158.107307705
 30
0.0
 42
-0.021820078
  0
VERTEX
  8
0
  6
CONTINUOUS
 62
     2
 10
624.366771903
 20
158.048282993
 30
0.0
 42
-0.021820078
  0
VERTEX
  8
0
  6
CONTINUOUS
 62
     2
 10
624.548117669
 20
157.973167117
 30
0.0
 42
-0.021820078
  0
VERTEX
  8
0
  6
CONTINUOUS
 62
     2
 10
624.72222658
 20
157.882531755
 30
0.0
 42
-0.021820078
  0
VERTEX
  8
0
  6
CONTINUOUS
 62
     2
 10
624.887773562
 20
157.777066696
 30
0.0
 42
-0.021820078
  0
VERTEX
  8
0
  6
CONTINUOUS
 62
     2
 10
625.043498702
 20
157.657574593
 30
0.0
 42
-0.021820078
  0
VERTEX
  8
0
  6
CONTINUOUS
 62
     2
 10
625.188216838
 20
157.524964854
 30
0.0
 42
-0.021820078
  0
VERTEX
  8
0
  6
CONTINUOUS
 62
     2
 10
625.320826577
 20
157.380246718
 30
0.0
 42
-0.021820078
  0
VERTEX
  8
0
  6
CONTINUOUS
 62
     2
 10
625.44031868
 20
157.224521578
 30
0.0
 42
-0.021820078
  0
VERTEX
  8
0
  6
CONTINUOUS
 62
     2
 10
625.545783739
 20
157.058974596
 30
0.0
 42
-0.021820078
  0
VERTEX
  8
0
  6
CONTINUOUS
 62
     2
 10
625.636419101
 20
156.884865685
 30
0.0
 42
-0.021820078
  0
VERTEX
  8
0
  6
CONTINUOUS
 62
     2
 10
625.711534977
 20
156.703519919
 30
0.0
 42
-0.021820078
  0
VERTEX
  8
0
  6
CONTINUOUS
 62
     2
 10
625.770559689
 20
156.516317448
 30
0.0
 42
-0.021820078
  0
VERTEX
  8
0
  6
CONTINUOUS
 62
     2
 10
625.813044024
 20
156.324682996
 30
0.0
 42
-0.021820078
  0
VERTEX
  8
0
  6
CONTINUOUS
 62
     2
 10
625.838664651
 20
156.130075017
 30
0.0
 42
-0.021820078
  0
SEQEND
  8
0
  6
CONTINUOUS
 62
     2
  0
POLYLINE
  8
0
  6
CONTINUOUS
 62
     2
 66
     1
 70
     1
  0
VERTEX
  8
0
  6
CONTINUOUS
 62
     2
 10
640.84722658
 20
155.933974596
 30
0.0
 42
-0.021820078
  0
VERTEX
  8
0
  6
CONTINUOUS
 62
     2
 10
640.838664651
 20
155.737874175
 30
0.0
 42
-0.021820078
  0
VERTEX
  8
0
  6
CONTINUOUS
 62
     2
 10
640.813044024
 20
155.543266196
 30
0.0
 42
-0.021820078
  0
VERTEX
  8
0
  6
CONTINUOUS
 62
     2
 10
640.770559689
 20
155.351631745
 30
0.0
 42
-0.021820078
  0
VERTEX
  8
0
  6
CONTINUOUS
 62
     2
 10
640.711534977
 20
155.164429274
 30
0.0
 42
-0.021820078
  0
VERTEX
  8
0
  6
CONTINUOUS
 62
     2
 10
640.636419101
 20
154.983083507
 30
0.0
 42
-0.021820078
  0
VERTEX
  8
0
  6
CONTINUOUS
 62
     2
 10
640.545783739
 20
154.808974596
 30
0.0
 42
-0.021820078
  0
VERTEX
  8
0
  6
CONTINUOUS
 62
     2
 10
640.44031868
 20
154.643427614
 30
0.0
 42
-0.021820078
  0
VERTEX
  8
0
  6
CONTINUOUS
 62
     2
 10
640.320826577
 20
154.487702474
 30
0.0
 42
-0.021820078
  0
VERTEX
  8
0
  6
CONTINUOUS
 62
     2
 10
640.188216838
 20
154.342984339
 30
0.0
 42
-0.021820078
  0
VERTEX
  8
0
  6
CONTINUOUS
 62
     2
 10
640.043498702
 20
154.210374599
 30
0.0
 42
-0.021820078
  0
VERTEX
  8
0
  6
CONTINUOUS
 62
     2
 10
639.887773562
 20
154.090882497
 30
0.0
 42
-0.021820078
  0
VERTEX
  8
0
  6
CONTINUOUS
 62
     2
 10
639.72222658
 20
153.985417438
 30
0.0
 42
-0.021820078
  0
VERTEX
  8
0
  6
CONTINUOUS
 62
     2
 10
639.548117669
 20
153.894782075
 30
0.0
 42
-0.021820078
  0
VERTEX
  8
0
  6
CONTINUOUS
 62
     2
 10
639.366771903
 20
153.819666199
 30
0.0
 42
-0.021820078
  0
VERTEX
  8
0
  6
CONTINUOUS
 62
     2
 10
639.179569432
 20
153.760641487
 30
0.0
 42
-0.021820078
  0
VERTEX
  8
0
  6
CONTINUOUS
 62
     2
 10
638.98793498
 20
153.718157152
 30
0.0
 42
-0.021820078
  0
VERTEX
  8
0
  6
CONTINUOUS
 62
     2
 10
638.793327001
 20
153.692536526
 30
0.0
 42
-0.021820078
  0
VERTEX
  8
0
  6
CONTINUOUS
 62
     2
 10
638.59722658
 20
153.683974596
 30
0.0
 42
-0.021820078
  0
VERTEX
  8
0
  6
CONTINUOUS
 62
     2
 10
638.401126159
 20
153.692536526
 30
0.0
 42
-0.021820078
  0
VERTEX
  8
0
  6
CONTINUOUS
 62
     2
 10
638.20651818
 20
153.718157152
 30
0.0
 42
-0.021820078
  0
VERTEX
  8
0
  6
CONTINUOUS
 62
     2
 10
638.014883729
 20
153.760641487
 30
0.0
 42
-0.021820078
  0
VERTEX
  8
0
  6
CONTINUOUS
 62
     2
 10
637.827681258
 20
153.819666199
 30
0.0
 42
-0.021820078
  0
VERTEX
  8
0
  6
CONTINUOUS
 62
     2
 10
637.646335491
 20
153.894782075
 30
0.0
 42
-0.021820078
  0
VERTEX
  8
0
  6
CONTINUOUS
 62
     2
 10
637.47222658
 20
153.985417438
 30
0.0
 42
-0.021820078
  0
VERTEX
  8
0
  6
CONTINUOUS
 62
     2
 10
637.306679598
 20
154.090882497
 30
0.0
 42
-0.021820078
  0
VERTEX
  8
0
  6
CONTINUOUS
 62
     2
 10
637.150954458
 20
154.210374599
 30
0.0
 42
-0.021820078
  0
VERTEX
  8
0
  6
CONTINUOUS
 62
     2
 10
637.006236323
 20
154.342984339
 30
0.0
 42
-0.021820078
  0
VERTEX
  8
0
  6
CONTINUOUS
 62
     2
 10
636.873626583
 20
154.487702474
 30
0.0
 42
-0.021820078
  0
VERTEX
  8
0
  6
CONTINUOUS
 62
     2
 10
636.754134481
 20
154.643427614
 30
0.0
 42
-0.021820078
  0
VERTEX
  8
0
  6
CONTINUOUS
 62
     2
 10
636.648669422
 20
154.808974596
 30
0.0
 42
-0.021820078
  0
VERTEX
  8
0
  6
CONTINUOUS
 62
     2
 10
636.558034059
 20
154.983083507
 30
0.0
 42
-0.021820078
  0
VERTEX
  8
0
  6
CONTINUOUS
 62
     2
 10
636.482918183
 20
155.164429274
 30
0.0
 42
-0.021820078
  0
VERTEX
  8
0
  6
CONTINUOUS
 62
     2
 10
636.423893471
 20
155.351631745
 30
0.0
 42
-0.021820078
  0
VERTEX
  8
0
  6
CONTINUOUS
 62
     2
 10
636.381409136
 20
155.543266196
 30
0.0
 42
-0.021820078
  0
VERTEX
  8
0
  6
CONTINUOUS
 62
     2
 10
636.35578851
 20
155.737874175
 30
0.0
 42
-0.021820078
  0
VERTEX
  8
0
  6
CONTINUOUS
 62
     2
 10
636.34722658
 20
155.933974596
 30
0.0
 42
-0.021820078
  0
VERTEX
  8
0
  6
CONTINUOUS
 62
     2
 10
636.35578851
 20
156.130075017
 30
0.0
 42
-0.021820078
  0
VERTEX
  8
0
  6
CONTINUOUS
 62
     2
 10
636.381409136
 20
156.324682996
 30
0.0
 42
-0.021820078
  0
VERTEX
  8
0
  6
CONTINUOUS
 62
     2
 10
636.423893471
 20
156.516317448
 30
0.0
 42
-0.021820078
  0
VERTEX
  8
0
  6
CONTINUOUS
 62
     2
 10
636.482918183
 20
156.703519919
 30
0.0
 42
-0.021820078
  0
VERTEX
  8
0
  6
CONTINUOUS
 62
     2
 10
636.558034059
 20
156.884865685
 30
0.0
 42
-0.021820078
  0
VERTEX
  8
0
  6
CONTINUOUS
 62
     2
 10
636.648669422
 20
157.058974596
 30
0.0
 42
-0.021820078
  0
VERTEX
  8
0
  6
CONTINUOUS
 62
     2
 10
636.754134481
 20
157.224521578
 30
0.0
 42
-0.021820078
  0
VERTEX
  8
0
  6
CONTINUOUS
 62
     2
 10
636.873626583
 20
157.380246718
 30
0.0
 42
-0.021820078
  0
VERTEX
  8
0
  6
CONTINUOUS
 62
     2
 10
637.006236323
 20
157.524964854
 30
0.0
 42
-0.021820078
  0
VERTEX
  8
0
  6
CONTINUOUS
 62
     2
 10
637.150954458
 20
157.657574593
 30
0.0
 42
-0.021820078
  0
VERTEX
  8
0
  6
CONTINUOUS
 62
     2
 10
637.306679598
 20
157.777066696
 30
0.0
 42
-0.021820078
  0
VERTEX
  8
0
  6
CONTINUOUS
 62
     2
 10
637.47222658
 20
157.882531755
 30
0.0
 42
-0.021820078
  0
VERTEX
  8
0
  6
CONTINUOUS
 62
     2
 10
637.646335491
 20
157.973167117
 30
0.0
 42
-0.021820078
  0
VERTEX
  8
0
  6
CONTINUOUS
 62
     2
 10
637.827681258
 20
158.048282993
 30
0.0
 42
-0.021820078
  0
VERTEX
  8
0
  6
CONTINUOUS
 62
     2
 10
638.014883729
 20
158.107307705
 30
0.0
 42
-0.021820078
  0
VERTEX
  8
0
  6
CONTINUOUS
 62
     2
 10
638.20651818
 20
158.14979204
 30
0.0
 42
-0.021820078
  0
VERTEX
  8
0
  6
CONTINUOUS
 62
     2
 10
638.401126159
 20
158.175412667
 30
0.0
 42
-0.021820078
  0
VERTEX
  8
0
  6
CONTINUOUS
 62
     2
 10
638.59722658
 20
158.183974596
 30
0.0
 42
-0.021820078
  0
VERTEX
  8
0
  6
CONTINUOUS
 62
     2
 10
638.793327001
 20
158.175412667
 30
0.0
 42
-0.021820078
  0
VERTEX
  8
0
  6
CONTINUOUS
 62
     2
 10
638.98793498
 20
158.14979204
 30
0.0
 42
-0.021820078
  0
VERTEX
  8
0
  6
CONTINUOUS
 62
     2
 10
639.179569432
 20
158.107307705
 30
0.0
 42
-0.021820078
  0
VERTEX
  8
0
  6
CONTINUOUS
 62
     2
 10
639.366771903
 20
158.048282993
 30
0.0
 42
-0.021820078
  0
VERTEX
  8
0
  6
CONTINUOUS
 62
     2
 10
639.548117669
 20
157.973167117
 30
0.0
 42
-0.021820078
  0
VERTEX
  8
0
  6
CONTINUOUS
 62
     2
 10
639.72222658
 20
157.882531755
 30
0.0
 42
-0.021820078
  0
VERTEX
  8
0
  6
CONTINUOUS
 62
     2
 10
639.887773562
 20
157.777066696
 30
0.0
 42
-0.021820078
  0
VERTEX
  8
0
  6
CONTINUOUS
 62
     2
 10
640.043498702
 20
157.657574593
 30
0.0
 42
-0.021820078
  0
VERTEX
  8
0
  6
CONTINUOUS
 62
     2
 10
640.188216838
 20
157.524964854
 30
0.0
 42
-0.021820078
  0
VERTEX
  8
0
  6
CONTINUOUS
 62
     2
 10
640.320826577
 20
157.380246718
 30
0.0
 42
-0.021820078
  0
VERTEX
  8
0
  6
CONTINUOUS
 62
     2
 10
640.44031868
 20
157.224521578
 30
0.0
 42
-0.021820078
  0
VERTEX
  8
0
  6
CONTINUOUS
 62
     2
 10
640.545783739
 20
157.058974596
 30
0.0
 42
-0.021820078
  0
VERTEX
  8
0
  6
CONTINUOUS
 62
     2
 10
640.636419101
 20
156.884865685
 30
0.0
 42
-0.021820078
  0
VERTEX
  8
0
  6
CONTINUOUS
 62
     2
 10
640.711534977
 20
156.703519919
 30
0.0
 42
-0.021820078
  0
VERTEX
  8
0
  6
CONTINUOUS
 62
     2
 10
640.770559689
 20
156.516317448
 30
0.0
 42
-0.021820078
  0
VERTEX
  8
0
  6
CONTINUOUS
 62
     2
 10
640.813044024
 20
156.324682996
 30
0.0
 42
-0.021820078
  0
VERTEX
  8
0
  6
CONTINUOUS
 62
     2
 10
640.838664651
 20
156.130075017
 30
0.0
 42
-0.021820078
  0
SEQEND
  8
0
  6
CONTINUOUS
 62
     2
  0
TEXT
  8
0
  6
CONTINUOUS
 62
     2
 10
614.84722658
 20
145.533974596
 30
0.0
 40
10.0
  1
１
 50
0.0
 41
0.85
 51
0.0
  7
KANJI73
  0
TEXT
  8
0
  6
CONTINUOUS
 62
     2
 10
639.84722658
 20
145.533974596
 30
0.0
 40
10.0
  1
２
 50
0.0
 41
0.85
 51
0.0
  7
KANJI73
  0
TEXT
  8
0
  6
CONTINUOUS
 62
     2
 10
582.94722658
 20
142.733974596
 30
0.0
 40
10.0
  1
（ＮＣ）
 50
0.0
 41
0.75
 51
0.0
  7
KANJI74
  0
TEXT
  8
0
  6
CONTINUOUS
 62
     2
 10
566.82222658
 20
113.733974596
 30
0.0
 40
15.0
  1
外部ＬＳリミットＳＷ
 50
0.0
 41
0.9
 51
0.0
  7
KANJI58
  0
TEXT
  8
0
  6
CONTINUOUS
 62
     2
 10
604.07222658
 20
94.733974596
 30
0.0
 40
15.0
  1
端子符号
 50
0.0
 41
0.9
 51
0.0
  7
KANJI58
  0
LINE
  8
0
  6
CONTINUOUS
 62
     2
 10
555.32222658
 20
101.233974596
 30
0.0
 11
594.32222658
 21
101.233974596
 31
0.0
  0
LINE
  8
0
  6
CONTINUOUS
 62
     1
 10
650.94722658
 20
209.733974596
 30
0.0
 11
650.94722658
 21
145.033974596
 31
0.0
  0
TEXT
  8
0
  6
CONTINUOUS
 62
     2
 10
648.94722658
 20
200.233974596
 30
0.0
 40
10.0
  1
（ＮＯ）
 50
0.0
 41
0.75
 51
0.0
  7
KANJI74
  0
TEXT
  8
0
  6
CONTINUOUS
 62
     2
 10
648.94722658
 20
142.733974596
 30
0.0
 40
10.0
  1
（ＮＣ）
 50
0.0
 41
0.75
 51
0.0
  7
KANJI74
  0
LINE
  8
0
  6
CONTINUOUS
 62
     2
 10
663.57222658
 20
101.233974596
 30
0.0
 11
708.57222658
 21
101.233974596
 31
0.0
  0
LINE
  8
0
  6
CONTINUOUS
 62
     1
 10
620.24722658
 20
237.133974596
 30
0.0
 11
639.424418145
 21
237.133974596
 31
0.0
  0
LINE
  8
0
  6
CONTINUOUS
 62
     2
 10
107.734870888
 20
273.72550097
 30
0.0
 11
540.022279625
 21
273.72550097
 31
0.0
  0
TEXT
  8
0
  6
CONTINUOUS
 62
     2
 10
109.734870888
 20
281.72550097
 30
0.0
 40
20.0
  1
推力リミッタの作動値は、約２３００ｋｇ（設計値）
 50
0.0
 41
0.925
 51
0.0
  7
KANJI72
  0
TEXT
  8
0
  6
CONTINUOUS
 62
     2
 10
1665.9200334
 20
253.8999876
 30
6.0
 40
21.0
  1
田口
 50
0.0
 41
0.857142857
 51
0.0
  7
KANJI15
  0
TEXT
  8
0
  6
CONTINUOUS
 62
     2
 10
1734.7200474
 20
249.1999836
 30
0.0
 40
18.0
  1
１／１１
 50
0.0
 41
0.45
 51
0.0
  7
KANJI75
  0
TEXT
  8
0
  6
CONTINUOUS
 62
     2
 10
1239.01926
 20
1607.29997
 30
1.499994
 40
14.99994
  1
２２．１
 50
0.0
 41
0.9
 51
0.0
  7
KANJI41
  0
TEXT
  8
0
  6
CONTINUOUS
 62
     2
 10
1239.01926
 20
1577.30009
 30
1.499994
 40
14.99994
  1
１９．２
 50
0.0
 41
0.9
 51
0.0
  7
KANJI41
  0
TEXT
  8
0
  6
CONTINUOUS
 62
     2
 10
1239.01926
 20
1547.30021
 30
1.499994
 40
14.99994
  1
２１．１
 50
0.0
 41
0.9
 51
0.0
  7
KANJI41
  0
TEXT
  8
0
  6
CONTINUOUS
 62
     2
 10
1539.01806
 20
1607.29997
 30
1.499994
 40
14.99994
  1
４４．０
 50
0.0
 41
0.9
 51
0.0
  7
KANJI41
  0
TEXT
  8
0
  6
CONTINUOUS
 62
     2
 10
1538.476423333
 20
1575.0084275
 30
1.499994
 40
14.99994
  1
３８．２
 50
0.0
 41
0.9
 51
0.0
  7
KANJI41
  0
TEXT
  8
0
  6
CONTINUOUS
 62
     2
 10
1539.726418333
 20
1546.6752075
 30
1.499994
 40
14.99994
  1
４２．１
 50
0.0
 41
0.9
 51
0.0
  7
KANJI41
  0
LINE
  8
0
  6
LTYPE2
 62
     2
 10
1420.764725201
 20
481.133974596
 30
0.0
 11
1420.764725201
 21
980.633974596
 31
0.0
  0
TEXT
  8
0
  6
CONTINUOUS
 62
     2
 10
176.4
 20
26.4
 30
0.0
 40
18.0
  1
ＦＤ　Ｎｏ．ＭＣ２２９
 50
0.0
 41
0.9
 51
0.0
  7
KANJI76
  0
TEXT
  8
0
  6
CONTINUOUS
 62
     2
 10
1239.5200902
 20
125.4999964
 30
0.0
 40
18.0
  1
０８．０４．０１　岡田　追加
 50
0.0
 41
0.9
 51
0.0
  7
KANJI40
  0
LINE
  8
0
  6
CONTINUOUS
 62
     2
 10
1428.639733105
 20
513.019739912
 30
0.0
 11
1437.064581295
 21
500.609182593
 31
0.0
  0
LINE
  8
0
  6
CONTINUOUS
 62
     2
 10
1428.639733105
 20
513.019739912
 30
0.0
 11
1442.14114432
 21
506.484306094
 31
0.0
  0
LINE
  8
0
  6
CONTINUOUS
 62
     2
 10
1428.639733105
 20
513.019739912
 30
0.0
 11
1531.639733105
 21
424.019739912
 31
0.0
  0
LINE
  8
0
  6
CONTINUOUS
 62
     2
 10
1531.639733105
 20
424.019739912
 30
0.0
 11
1642.639733105
 21
424.019739912
 31
0.0
  0
TEXT
  8
0
  6
CONTINUOUS
 62
     3
 10
1531.639733105
 20
427.019739912
 30
0.0
 40
24.0
  1
ＰＦ１／２
 50
0.0
 41
0.925
 51
0.0
  7
KANJI77
  0
LINE
  8
0
  6
CONTINUOUS
 62
     1
 10
1370.764725201
 20
495.633974596
 30
0.0
 11
1380.764725201
 21
495.633974596
 31
0.0
  0
ARC
  8
0
  6
CONTINUOUS
 62
     1
 10
1375.764725201
 20
496.533974596
 30
0.0
 40
5.1
 50
189.9
 51
350.1
  0
LINE
  8
0
  6
CONTINUOUS
 62
     1
 10
1460.764725201
 20
495.633974596
 30
0.0
 11
1470.764725201
 21
495.633974596
 31
0.0
  0
ARC
  8
0
  6
CONTINUOUS
 62
     1
 10
1465.764725201
 20
496.533974596
 30
0.0
 40
5.1
 50
189.9
 51
350.1
  0
ENDSEC
  0
EOF
