  0
SECTION
  2
HEADER
  9
$ACADVER
  1
AC1009
  9
$DWGCODEPAGE
  3
dos932
  9
$EXTMIN
 10
0.0
 20
0.0
 30
0.0
  9
$EXTMAX
 10
2520.0
 20
1782.0
 30
0.0
  9
$LIMMIN
 10
0.0
 20
0.0
  9
$LIMMAX
 10
2520.0
 20
1782.0
  9
$LTSCALE
 40
1.0
  9
$PDMODE
 70
     0
  0
ENDSEC
  0
SECTION
  2
TABLES
  0
TABLE
  2
VPORT
 70
     1
  0
VPORT
  2
*ACTIVE
 70
     0
 10
0.0
 20
0.0
 11
1.0
 21
1.0
 12
1260.0
 22
891.0
 13
0.0
 23
0.0
 14
10.0
 24
10.0
 15
10.0
 25
10.0
 16
0.0
 26
0.0
 36
1.0
 17
0.0
 27
0.0
 37
0.0
 40
2520.0
 41
1.414141414
 42
50.0
 43
0.0
 44
0.0
 50
0.0
 51
0.0
 71
     0
 72
  1000
 73
     1
 74
     3
 75
     0
 76
     0
 77
     0
 78
     0
  0
ENDTAB
  0
TABLE
  2
LTYPE
 70
     6
  0
LTYPE
  2
CONTINUOUS
 70
    64
  3
Solid line
 72
    65
 73
     0
 40
0.0
  0
LTYPE
  2
LTYPE1
 70
    64
  3
HIDDEN
 72
    65
 73
     2
 40
18.0
 49
10.8
 49
-7.2
  0
LTYPE
  2
LTYPE2
 70
    64
  3
CENTER
 72
    65
 73
     4
 40
90.0
 49
63.0
 49
-9.0
 49
9.0
 49
-9.0
  0
LTYPE
  2
LTYPE3
 70
    64
  3
CENTER
 72
    65
 73
     4
 40
60.0
 49
42.0
 49
-6.0
 49
6.0
 49
-6.0
  0
LTYPE
  2
LTYPE4
 70
    64
  3
PHANTOM
 72
    65
 73
     6
 40
60.0
 49
45.0
 49
-3.0
 49
3.0
 49
-3.0
 49
3.0
 49
-3.0
  0
LTYPE
  2
LTYPE5
 70
    64
  3
CENTER
 72
    65
 73
     4
 40
120.0
 49
84.0
 49
-12.0
 49
12.0
 49
-12.0
  0
ENDTAB
  0
TABLE
  2
LAYER
 70
   128
  0
LAYER
  2
0
 70
     0
 62
     7
  6
CONTINUOUS
  0
LAYER
  2
2
 70
     0
 62
     7
  6
CONTINUOUS
  0
LAYER
  2
3
 70
     0
 62
     7
  6
CONTINUOUS
  0
LAYER
  2
4
 70
     0
 62
     7
  6
CONTINUOUS
  0
LAYER
  2
5
 70
     0
 62
     7
  6
CONTINUOUS
  0
LAYER
  2
6
 70
     0
 62
     7
  6
CONTINUOUS
  0
LAYER
  2
7
 70
     0
 62
     7
  6
CONTINUOUS
  0
LAYER
  2
8
 70
     0
 62
     7
  6
CONTINUOUS
  0
LAYER
  2
9
 70
     0
 62
     7
  6
CONTINUOUS
  0
LAYER
  2
10
 70
     0
 62
     7
  6
CONTINUOUS
  0
LAYER
  2
11
 70
     0
 62
     7
  6
CONTINUOUS
  0
LAYER
  2
12
 70
     0
 62
     7
  6
CONTINUOUS
  0
LAYER
  2
13
 70
     0
 62
     7
  6
CONTINUOUS
  0
LAYER
  2
14
 70
     0
 62
     7
  6
CONTINUOUS
  0
LAYER
  2
15
 70
     0
 62
     7
  6
CONTINUOUS
  0
LAYER
  2
16
 70
     0
 62
     7
  6
CONTINUOUS
  0
LAYER
  2
17
 70
     0
 62
     7
  6
CONTINUOUS
  0
LAYER
  2
18
 70
     0
 62
     7
  6
CONTINUOUS
  0
LAYER
  2
19
 70
     0
 62
     7
  6
CONTINUOUS
  0
LAYER
  2
20
 70
     0
 62
     7
  6
CONTINUOUS
  0
LAYER
  2
21
 70
     0
 62
     7
  6
CONTINUOUS
  0
LAYER
  2
22
 70
     0
 62
     7
  6
CONTINUOUS
  0
LAYER
  2
23
 70
     0
 62
     7
  6
CONTINUOUS
  0
LAYER
  2
24
 70
     0
 62
     7
  6
CONTINUOUS
  0
LAYER
  2
25
 70
     0
 62
     7
  6
CONTINUOUS
  0
LAYER
  2
26
 70
     0
 62
     7
  6
CONTINUOUS
  0
LAYER
  2
27
 70
     0
 62
     7
  6
CONTINUOUS
  0
LAYER
  2
28
 70
     0
 62
     7
  6
CONTINUOUS
  0
LAYER
  2
29
 70
     0
 62
     7
  6
CONTINUOUS
  0
LAYER
  2
30
 70
     0
 62
     7
  6
CONTINUOUS
  0
LAYER
  2
31
 70
     0
 62
     7
  6
CONTINUOUS
  0
LAYER
  2
32
 70
     0
 62
     7
  6
CONTINUOUS
  0
LAYER
  2
33
 70
     0
 62
     7
  6
CONTINUOUS
  0
LAYER
  2
34
 70
     0
 62
     7
  6
CONTINUOUS
  0
LAYER
  2
35
 70
     0
 62
     7
  6
CONTINUOUS
  0
LAYER
  2
36
 70
     0
 62
     7
  6
CONTINUOUS
  0
LAYER
  2
37
 70
     0
 62
     7
  6
CONTINUOUS
  0
LAYER
  2
38
 70
     0
 62
     7
  6
CONTINUOUS
  0
LAYER
  2
39
 70
     0
 62
     7
  6
CONTINUOUS
  0
LAYER
  2
40
 70
     0
 62
     7
  6
CONTINUOUS
  0
LAYER
  2
41
 70
     0
 62
     7
  6
CONTINUOUS
  0
LAYER
  2
42
 70
     0
 62
     7
  6
CONTINUOUS
  0
LAYER
  2
43
 70
     0
 62
     7
  6
CONTINUOUS
  0
LAYER
  2
44
 70
     0
 62
     7
  6
CONTINUOUS
  0
LAYER
  2
45
 70
     0
 62
     7
  6
CONTINUOUS
  0
LAYER
  2
46
 70
     0
 62
     7
  6
CONTINUOUS
  0
LAYER
  2
47
 70
     0
 62
     7
  6
CONTINUOUS
  0
LAYER
  2
48
 70
     0
 62
     7
  6
CONTINUOUS
  0
LAYER
  2
49
 70
     0
 62
     7
  6
CONTINUOUS
  0
LAYER
  2
50
 70
     0
 62
     7
  6
CONTINUOUS
  0
LAYER
  2
51
 70
     0
 62
     7
  6
CONTINUOUS
  0
LAYER
  2
52
 70
     0
 62
     7
  6
CONTINUOUS
  0
LAYER
  2
53
 70
     0
 62
     7
  6
CONTINUOUS
  0
LAYER
  2
54
 70
     0
 62
     7
  6
CONTINUOUS
  0
LAYER
  2
55
 70
     0
 62
     7
  6
CONTINUOUS
  0
LAYER
  2
56
 70
     0
 62
     7
  6
CONTINUOUS
  0
LAYER
  2
57
 70
     0
 62
     7
  6
CONTINUOUS
  0
LAYER
  2
58
 70
     0
 62
     7
  6
CONTINUOUS
  0
LAYER
  2
59
 70
     0
 62
     7
  6
CONTINUOUS
  0
LAYER
  2
60
 70
     0
 62
     7
  6
CONTINUOUS
  0
LAYER
  2
61
 70
     0
 62
     7
  6
CONTINUOUS
  0
LAYER
  2
62
 70
     0
 62
     7
  6
CONTINUOUS
  0
LAYER
  2
63
 70
     0
 62
     7
  6
CONTINUOUS
  0
LAYER
  2
64
 70
     0
 62
     7
  6
CONTINUOUS
  0
LAYER
  2
65
 70
     0
 62
     7
  6
CONTINUOUS
  0
LAYER
  2
66
 70
     0
 62
     7
  6
CONTINUOUS
  0
LAYER
  2
67
 70
     0
 62
     7
  6
CONTINUOUS
  0
LAYER
  2
68
 70
     0
 62
     7
  6
CONTINUOUS
  0
LAYER
  2
69
 70
     0
 62
     7
  6
CONTINUOUS
  0
LAYER
  2
70
 70
     0
 62
     7
  6
CONTINUOUS
  0
LAYER
  2
71
 70
     0
 62
     7
  6
CONTINUOUS
  0
LAYER
  2
72
 70
     0
 62
     7
  6
CONTINUOUS
  0
LAYER
  2
73
 70
     0
 62
     7
  6
CONTINUOUS
  0
LAYER
  2
74
 70
     0
 62
     7
  6
CONTINUOUS
  0
LAYER
  2
75
 70
     0
 62
     7
  6
CONTINUOUS
  0
LAYER
  2
76
 70
     0
 62
     7
  6
CONTINUOUS
  0
LAYER
  2
77
 70
     0
 62
     7
  6
CONTINUOUS
  0
LAYER
  2
78
 70
     0
 62
     7
  6
CONTINUOUS
  0
LAYER
  2
79
 70
     0
 62
     7
  6
CONTINUOUS
  0
LAYER
  2
80
 70
     0
 62
     7
  6
CONTINUOUS
  0
LAYER
  2
81
 70
     0
 62
     7
  6
CONTINUOUS
  0
LAYER
  2
82
 70
     0
 62
     7
  6
CONTINUOUS
  0
LAYER
  2
83
 70
     0
 62
     7
  6
CONTINUOUS
  0
LAYER
  2
84
 70
     0
 62
     7
  6
CONTINUOUS
  0
LAYER
  2
85
 70
     0
 62
     7
  6
CONTINUOUS
  0
LAYER
  2
86
 70
     0
 62
     7
  6
CONTINUOUS
  0
LAYER
  2
87
 70
     0
 62
     7
  6
CONTINUOUS
  0
LAYER
  2
88
 70
     0
 62
     7
  6
CONTINUOUS
  0
LAYER
  2
89
 70
     0
 62
     7
  6
CONTINUOUS
  0
LAYER
  2
90
 70
     0
 62
     7
  6
CONTINUOUS
  0
LAYER
  2
91
 70
     0
 62
     7
  6
CONTINUOUS
  0
LAYER
  2
92
 70
     0
 62
     7
  6
CONTINUOUS
  0
LAYER
  2
93
 70
     0
 62
     7
  6
CONTINUOUS
  0
LAYER
  2
94
 70
     0
 62
     7
  6
CONTINUOUS
  0
LAYER
  2
95
 70
     0
 62
     7
  6
CONTINUOUS
  0
LAYER
  2
96
 70
     0
 62
     7
  6
CONTINUOUS
  0
LAYER
  2
97
 70
     0
 62
     7
  6
CONTINUOUS
  0
LAYER
  2
98
 70
     0
 62
     7
  6
CONTINUOUS
  0
LAYER
  2
99
 70
     0
 62
     7
  6
CONTINUOUS
  0
LAYER
  2
100
 70
     0
 62
     7
  6
CONTINUOUS
  0
LAYER
  2
101
 70
     0
 62
     7
  6
CONTINUOUS
  0
LAYER
  2
102
 70
     0
 62
     7
  6
CONTINUOUS
  0
LAYER
  2
103
 70
     0
 62
     7
  6
CONTINUOUS
  0
LAYER
  2
104
 70
     0
 62
     7
  6
CONTINUOUS
  0
LAYER
  2
105
 70
     0
 62
     7
  6
CONTINUOUS
  0
LAYER
  2
106
 70
     0
 62
     7
  6
CONTINUOUS
  0
LAYER
  2
107
 70
     0
 62
     7
  6
CONTINUOUS
  0
LAYER
  2
108
 70
     0
 62
     7
  6
CONTINUOUS
  0
LAYER
  2
109
 70
     0
 62
     7
  6
CONTINUOUS
  0
LAYER
  2
110
 70
     0
 62
     7
  6
CONTINUOUS
  0
LAYER
  2
111
 70
     0
 62
     7
  6
CONTINUOUS
  0
LAYER
  2
112
 70
     0
 62
     7
  6
CONTINUOUS
  0
LAYER
  2
113
 70
     0
 62
     7
  6
CONTINUOUS
  0
LAYER
  2
114
 70
     0
 62
     7
  6
CONTINUOUS
  0
LAYER
  2
115
 70
     0
 62
     7
  6
CONTINUOUS
  0
LAYER
  2
116
 70
     0
 62
     7
  6
CONTINUOUS
  0
LAYER
  2
117
 70
     0
 62
     7
  6
CONTINUOUS
  0
LAYER
  2
118
 70
     0
 62
     7
  6
CONTINUOUS
  0
LAYER
  2
119
 70
     0
 62
     7
  6
CONTINUOUS
  0
LAYER
  2
120
 70
     0
 62
     7
  6
CONTINUOUS
  0
LAYER
  2
121
 70
     0
 62
     7
  6
CONTINUOUS
  0
LAYER
  2
122
 70
     0
 62
     7
  6
CONTINUOUS
  0
LAYER
  2
123
 70
     0
 62
     7
  6
CONTINUOUS
  0
LAYER
  2
124
 70
     0
 62
     7
  6
CONTINUOUS
  0
LAYER
  2
125
 70
     0
 62
     7
  6
CONTINUOUS
  0
LAYER
  2
126
 70
     0
 62
     7
  6
CONTINUOUS
  0
LAYER
  2
127
 70
     0
 62
     7
  6
CONTINUOUS
  0
LAYER
  2
128
 70
     0
 62
     7
  6
CONTINUOUS
  0
ENDTAB
  0
TABLE
  2
STYLE
 70
    79
  0
STYLE
  2
STANDARD
 70
     0
 40
0.0
 41
1.0
 50
0.0
 71
     0
 42
0.2
  3
txt.shx
  4
extfont.shx
  0
STYLE
  2
KANJI0
 70
     0
 40
15.5999988
 41
0.75
 50
0.0
 71
     0
 42
15.5999988
  3
txt.shx
  4
extfont.shx
  0
STYLE
  2
KANJI1
 70
     0
 40
11.999997477
 41
0.6
 50
0.0
 71
     0
 42
11.999997477
  3
txt.shx
  4
extfont.shx
  0
STYLE
  2
KANJI2
 70
     0
 40
14.399996972
 41
0.9
 50
0.0
 71
     0
 42
14.399996972
  3
txt.shx
  4
extfont.shx
  0
STYLE
  2
KANJI3
 70
     0
 40
17.999996215
 41
0.9
 50
0.0
 71
     0
 42
17.999996215
  3
txt.shx
  4
extfont.shx
  0
STYLE
  2
KANJI4
 70
     0
 40
10.3999992
 41
0.6
 50
0.0
 71
     0
 42
10.3999992
  3
txt.shx
  4
extfont.shx
  0
STYLE
  2
KANJI5
 70
     0
 40
12.47999904
 41
0.6
 50
0.0
 71
     0
 42
12.47999904
  3
txt.shx
  4
extfont.shx
  0
STYLE
  2
KANJI6
 70
     0
 40
18.1999986
 41
0.42031746
 50
0.0
 71
     0
 42
18.1999986
  3
txt.shx
  4
extfont.shx
  0
STYLE
  2
KANJI7
 70
     0
 40
31.1999976
 41
0.9
 50
0.0
 71
     0
 42
31.1999976
  3
txt.shx
  4
extfont.shx
  0
STYLE
  2
KANJI8
 70
     0
 40
21.6
 41
1.111111111
 50
0.0
 71
     0
 42
21.6
  3
txt.shx
  4
extfont.shx
  0
STYLE
  2
KANJI9
 70
     0
 40
10.3999992
 41
0.8
 50
0.0
 71
     0
 42
10.3999992
  3
txt.shx
  4
extfont.shx
  0
STYLE
  2
KANJI10
 70
     0
 40
12.47999904
 41
0.8
 50
0.0
 71
     0
 42
12.47999904
  3
txt.shx
  4
extfont.shx
  0
STYLE
  2
KANJI11
 70
     0
 40
30.0
 41
1.0
 50
0.0
 71
     0
 42
30.0
  3
txt.shx
  4
extfont.shx
  0
STYLE
  2
KANJI12
 70
     0
 40
30.0
 41
1.0
 50
0.0
 71
     0
 42
30.0
  3
txt.shx
  4
extfont.shx
  0
STYLE
  2
KANJI13
 70
     0
 40
30.0
 41
0.8
 50
0.0
 71
     0
 42
30.0
  3
txt.shx
  4
extfont.shx
  0
STYLE
  2
KANJI14
 70
     0
 40
24.0
 41
1.0
 50
0.0
 71
     0
 42
24.0
  3
txt.shx
  4
extfont.shx
  0
STYLE
  2
KANJI15
 70
     0
 40
21.0
 41
0.857142857
 50
0.0
 71
     0
 42
21.0
  3
txt.shx
  4
extfont.shx
  0
STYLE
  2
KANJI16
 70
     0
 40
22.8
 41
0.9
 50
0.0
 71
     0
 42
22.8
  3
txt.shx
  4
extfont.shx
  0
STYLE
  2
KANJI17
 70
     0
 40
22.8
 41
0.9
 50
0.0
 71
     0
 42
22.8
  3
txt.shx
  4
extfont.shx
  0
STYLE
  2
KANJI18
 70
     0
 40
27.0
 41
0.9
 50
0.0
 71
     0
 42
27.0
  3
txt.shx
  4
extfont.shx
  0
STYLE
  2
KANJI19
 70
     0
 40
22.8
 41
0.9
 50
0.0
 71
     0
 42
22.8
  3
txt.shx
  4
extfont.shx
  0
STYLE
  2
KANJI20
 70
     0
 40
22.8
 41
0.9
 50
0.0
 71
     0
 42
22.8
  3
txt.shx
  4
extfont.shx
  0
STYLE
  2
KANJI21
 70
     0
 40
22.8
 41
0.9
 50
0.0
 71
     0
 42
22.8
  3
txt.shx
  4
extfont.shx
  0
STYLE
  2
KANJI22
 70
     0
 40
22.8
 41
0.9
 50
0.0
 71
     0
 42
22.8
  3
txt.shx
  4
extfont.shx
  0
STYLE
  2
KANJI23
 70
     0
 40
22.8
 41
0.9
 50
0.0
 71
     0
 42
22.8
  3
txt.shx
  4
extfont.shx
  0
STYLE
  2
KANJI24
 70
     0
 40
22.8
 41
0.9
 50
0.0
 71
     0
 42
22.8
  3
txt.shx
  4
extfont.shx
  0
STYLE
  2
KANJI25
 70
     4
 40
21.0
 41
0.9
 50
0.0
 71
     0
 42
21.0
  3
txt.shx
  4
extfont.shx
  0
STYLE
  2
KANJI26
 70
     4
 40
21.0
 41
0.9
 50
0.0
 71
     0
 42
21.0
  3
txt.shx
  4
extfont.shx
  0
STYLE
  2
KANJI27
 70
     0
 40
21.0
 41
0.9
 50
0.0
 71
     0
 42
21.0
  3
txt.shx
  4
extfont.shx
  0
STYLE
  2
KANJI28
 70
     0
 40
18.0
 41
0.9
 50
0.0
 71
     0
 42
18.0
  3
txt.shx
  4
extfont.shx
  0
STYLE
  2
KANJI29
 70
     0
 40
22.8
 41
0.9
 50
0.0
 71
     0
 42
22.8
  3
txt.shx
  4
extfont.shx
  0
STYLE
  2
KANJI30
 70
     0
 40
22.8
 41
0.9
 50
0.0
 71
     0
 42
22.8
  3
txt.shx
  4
extfont.shx
  0
STYLE
  2
KANJI31
 70
     0
 40
21.0
 41
0.628571429
 50
0.0
 71
     0
 42
21.0
  3
txt.shx
  4
extfont.shx
  0
STYLE
  2
KANJI32
 70
     0
 40
20.4
 41
0.705882353
 50
0.0
 71
     0
 42
20.4
  3
txt.shx
  4
extfont.shx
  0
STYLE
  2
KANJI33
 70
     0
 40
18.0
 41
0.8
 50
0.0
 71
     0
 42
18.0
  3
txt.shx
  4
extfont.shx
  0
STYLE
  2
KANJI34
 70
     0
 40
19.2
 41
0.71875
 50
0.0
 71
     0
 42
19.2
  3
txt.shx
  4
extfont.shx
  0
STYLE
  2
KANJI35
 70
     0
 40
19.2
 41
0.8
 50
0.0
 71
     0
 42
19.2
  3
txt.shx
  4
extfont.shx
  0
STYLE
  2
KANJI36
 70
     0
 40
21.0
 41
0.571428571
 50
0.0
 71
     0
 42
21.0
  3
txt.shx
  4
extfont.shx
  0
STYLE
  2
KANJI37
 70
     0
 40
27.0
 41
0.666666667
 50
0.0
 71
     0
 42
27.0
  3
txt.shx
  4
extfont.shx
  0
STYLE
  2
KANJI38
 70
     0
 40
21.0
 41
0.9
 50
0.0
 71
     0
 42
21.0
  3
txt.shx
  4
extfont.shx
  0
STYLE
  2
KANJI39
 70
     0
 40
18.0
 41
0.9
 50
0.0
 71
     0
 42
18.0
  3
txt.shx
  4
extfont.shx
  0
STYLE
  2
KANJI40
 70
     0
 40
18.0
 41
0.833333333
 50
0.0
 71
     0
 42
18.0
  3
txt.shx
  4
extfont.shx
  0
STYLE
  2
KANJI41
 70
     0
 40
14.99994
 41
0.9
 50
0.0
 71
     0
 42
14.99994
  3
txt.shx
  4
extfont.shx
  0
STYLE
  2
KANJI42
 70
     0
 40
21.0
 41
0.571428571
 50
0.0
 71
     0
 42
21.0
  3
txt.shx
  4
extfont.shx
  0
STYLE
  2
KANJI43
 70
     0
 40
21.0
 41
0.793650794
 50
0.0
 71
     0
 42
21.0
  3
txt.shx
  4
extfont.shx
  0
STYLE
  2
KANJI44
 70
     0
 40
30.0
 41
0.8
 50
0.0
 71
     0
 42
30.0
  3
txt.shx
  4
extfont.shx
  0
STYLE
  2
KANJI45
 70
     0
 40
18.0
 41
0.833333333
 50
0.0
 71
     0
 42
18.0
  3
txt.shx
  4
extfont.shx
  0
STYLE
  2
KANJI46
 70
     0
 40
13.182
 41
0.85
 50
0.0
 71
     0
 42
13.182
  3
txt.shx
  4
extfont.shx
  0
STYLE
  2
KANJI47
 70
     0
 40
11.661
 41
0.822608696
 50
0.0
 71
     0
 42
11.661
  3
txt.shx
  4
extfont.shx
  0
STYLE
  2
KANJI48
 70
     0
 40
11.8638
 41
0.726495726
 50
0.0
 71
     0
 42
11.8638
  3
txt.shx
  4
extfont.shx
  0
STYLE
  2
KANJI49
 70
     4
 40
45.0
 41
0.538166667
 50
0.0
 71
     0
 42
45.0
  3
txt.shx
  4
extfont.shx
  0
STYLE
  2
KANJI50
 70
     0
 40
17.740702234
 41
0.880962996
 50
0.0
 71
     0
 42
17.740702234
  3
txt.shx
  4
extfont.shx
  0
STYLE
  2
KANJI51
 70
     0
 40
11.7
 41
0.8
 50
0.0
 71
     0
 42
11.7
  3
txt.shx
  4
extfont.shx
  0
STYLE
  2
KANJI52
 70
     0
 40
15.0
 41
0.911
 50
0.0
 71
     0
 42
15.0
  3
txt.shx
  4
extfont.shx
  0
STYLE
  2
KANJI53
 70
     0
 40
18.223173404
 41
0.66671875
 50
0.0
 71
     0
 42
18.223173404
  3
txt.shx
  4
extfont.shx
  0
STYLE
  2
KANJI54
 70
     0
 40
21.6
 41
0.9
 50
0.0
 71
     0
 42
21.6
  3
txt.shx
  4
extfont.shx
  0
STYLE
  2
KANJI55
 70
     0
 40
12.96
 41
0.9
 50
0.0
 71
     0
 42
12.96
  3
txt.shx
  4
extfont.shx
  0
STYLE
  2
KANJI56
 70
     0
 40
17.28
 41
0.9
 50
0.0
 71
     0
 42
17.28
  3
txt.shx
  4
extfont.shx
  0
STYLE
  2
KANJI57
 70
     0
 40
18.72
 41
0.925
 50
0.0
 71
     0
 42
18.72
  3
txt.shx
  4
extfont.shx
  0
STYLE
  2
KANJI58
 70
     0
 40
15.0
 41
0.9
 50
0.0
 71
     0
 42
15.0
  3
txt.shx
  4
extfont.shx
  0
STYLE
  2
KANJI59
 70
     0
 40
24.0
 41
0.9
 50
0.0
 71
     0
 42
24.0
  3
txt.shx
  4
extfont.shx
  0
STYLE
  2
KANJI60
 70
     0
 40
21.6
 41
0.857142857
 50
0.0
 71
     0
 42
21.6
  3
txt.shx
  4
extfont.shx
  0
STYLE
  2
KANJI61
 70
     0
 40
21.6
 41
0.857222222
 50
0.0
 71
     0
 42
21.6
  3
txt.shx
  4
extfont.shx
  0
STYLE
  2
KANJI62
 70
     0
 40
18.0
 41
0.45
 50
0.0
 71
     0
 42
18.0
  3
txt.shx
  4
extfont.shx
  0
STYLE
  2
KANJI63
 70
     0
 40
20.0
 41
0.925
 50
0.0
 71
     0
 42
20.0
  3
txt.shx
  4
extfont.shx
  0
STYLE
  2
KANJI64
 70
     0
 40
18.0
 41
0.9
 50
0.0
 71
     0
 42
18.0
  3
txt.shx
  4
extfont.shx
  0
STYLE
  2
KANJI65
 70
     0
 40
15.0
 41
0.9
 50
0.0
 71
     0
 42
15.0
  3
txt.shx
  4
extfont.shx
  0
STYLE
  2
KANJI66
 70
     0
 40
16.8
 41
0.964285714
 50
0.0
 71
     0
 42
16.8
  3
txt.shx
  4
extfont.shx
  0
STYLE
  2
KANJI67
 70
     0
 40
16.8
 41
0.821428571
 50
0.0
 71
     0
 42
16.8
  3
txt.shx
  4
extfont.shx
  0
STYLE
  2
KANJI68
 70
     0
 40
17.49993
 41
0.9
 50
0.0
 71
     0
 42
17.49993
  3
txt.shx
  4
extfont.shx
  0
STYLE
  2
KANJI69
 70
     0
 40
15.36
 41
0.9
 50
0.0
 71
     0
 42
15.36
  3
txt.shx
  4
extfont.shx
  0
STYLE
  2
KANJI70
 70
     0
 40
14.4
 41
0.9
 50
0.0
 71
     0
 42
14.4
  3
txt.shx
  4
extfont.shx
  0
STYLE
  2
KANJI71
 70
     0
 40
14.4
 41
0.9
 50
0.0
 71
     0
 42
14.4
  3
txt.shx
  4
extfont.shx
  0
STYLE
  2
KANJI72
 70
     0
 40
16.8
 41
0.9
 50
0.0
 71
     0
 42
16.8
  3
txt.shx
  4
extfont.shx
  0
STYLE
  2
KANJI73
 70
     0
 40
12.96
 41
0.740740741
 50
0.0
 71
     0
 42
12.96
  3
txt.shx
  4
extfont.shx
  0
STYLE
  2
KANJI74
 70
     0
 40
16.8
 41
0.857142857
 50
0.0
 71
     0
 42
16.8
  3
txt.shx
  4
extfont.shx
  0
STYLE
  2
KANJI75
 70
     0
 40
14.4
 41
0.833333333
 50
0.0
 71
     0
 42
14.4
  3
txt.shx
  4
extfont.shx
  0
STYLE
  2
KANJI76
 70
     0
 40
20.0
 41
0.925
 50
0.0
 71
     0
 42
20.0
  3
txt.shx
  4
extfont.shx
  0
STYLE
  2
KANJI77
 70
     0
 40
18.0
 41
0.9
 50
0.0
 71
     0
 42
18.0
  3
txt.shx
  4
extfont.shx
  0
ENDTAB
  0
TABLE
  2
VIEW
 70
     0
  0
ENDTAB
  0
ENDSEC
  0
SECTION
  2
BLOCKS
  0
ENDSEC
  0
SECTION
  2
ENTITIES
  0
POLYLINE
  8
0
  6
CONTINUOUS
 62
     6
 66
     1
  0
VERTEX
  8
0
  6
CONTINUOUS
 62
     6
 10
82.92
 20
71.7
 30
0.0
  0
VERTEX
  8
0
  6
CONTINUOUS
 62
     6
 10
82.92
 20
1685.7
 30
0.0
  0
VERTEX
  8
0
  6
CONTINUOUS
 62
     6
 10
2404.92
 20
1685.7
 30
0.0
  0
SEQEND
  0
LINE
  8
0
  6
CONTINUOUS
 62
     6
 10
88.919998738
 20
161.699981077
 30
0.0
 11
478.919916738
 21
161.699981077
 31
0.0
  0
LINE
  8
0
  6
CONTINUOUS
 62
     6
 10
88.919998738
 20
77.699998738
 30
0.0
 11
478.919916738
 21
77.699998738
 31
0.0
  0
LINE
  8
0
  6
CONTINUOUS
 62
     6
 10
88.919998738
 20
77.699998738
 30
0.0
 11
88.919998738
 21
161.699981077
 31
0.0
  0
LINE
  8
0
  6
CONTINUOUS
 62
     6
 10
88.919998738
 20
119.699989908
 30
0.0
 11
478.919916738
 21
119.699989908
 31
0.0
  0
LINE
  8
0
  6
CONTINUOUS
 62
     4
 10
14.6199996
 20
76.8999996
 30
0.0
 11
77.0199948
 21
76.8999996
 31
0.0
  0
LINE
  8
0
  6
CONTINUOUS
 62
     4
 10
14.6199996
 20
108.0999972
 30
0.0
 11
77.0199948
 21
108.0999972
 31
0.0
  0
LINE
  8
0
  6
CONTINUOUS
 62
     4
 10
14.6199996
 20
139.2999948
 30
0.0
 11
77.0199948
 21
139.2999948
 31
0.0
  0
LINE
  8
0
  6
CONTINUOUS
 62
     4
 10
14.6199996
 20
170.4999924
 30
0.0
 11
77.0199948
 21
170.4999924
 31
0.0
  0
LINE
  8
0
  6
CONTINUOUS
 62
     4
 10
14.6199996
 20
201.69999
 30
0.0
 11
77.0199948
 21
201.69999
 31
0.0
  0
LINE
  8
0
  6
CONTINUOUS
 62
     4
 10
14.6199996
 20
232.8999876
 30
0.0
 11
77.0199948
 21
232.8999876
 31
0.0
  0
LINE
  8
0
  6
CONTINUOUS
 62
     4
 10
14.6199996
 20
264.0999852
 30
0.0
 11
77.0199948
 21
264.0999852
 31
0.0
  0
LINE
  8
0
  6
CONTINUOUS
 62
     4
 10
14.6199996
 20
295.2999828
 30
0.0
 11
77.0199948
 21
295.2999828
 31
0.0
  0
LINE
  8
0
  6
CONTINUOUS
 62
     4
 10
14.6199996
 20
326.4999804
 30
0.0
 11
77.0199948
 21
326.4999804
 31
0.0
  0
LINE
  8
0
  6
CONTINUOUS
 62
     4
 10
14.6199996
 20
357.699978
 30
0.0
 11
77.0199948
 21
357.699978
 31
0.0
  0
LINE
  8
0
  6
CONTINUOUS
 62
     4
 10
77.0199948
 20
76.8999996
 30
0.0
 11
77.0199948
 21
357.699978
 31
0.0
  0
LINE
  8
0
  6
CONTINUOUS
 62
     4
 10
45.8199972
 20
76.8999996
 30
0.0
 11
45.8199972
 21
326.4999804
 31
0.0
  0
TEXT
  8
0
  6
CONTINUOUS
 62
     4
 10
25.27999878
 20
85.9999989
 30
1.55999988
 40
15.5999988
  1
計
 50
0.0
 41
0.75
 51
0.0
  7
KANJI0
  0
TEXT
  8
0
  6
CONTINUOUS
 62
     4
 10
25.27999878
 20
148.91999406
 30
1.55999988
 40
15.5999988
  1
設
 50
0.0
 41
0.75
 51
0.0
  7
KANJI0
  0
TEXT
  8
0
  6
CONTINUOUS
 62
     4
 10
25.27999878
 20
179.5999917
 30
1.55999988
 40
15.5999988
  1
管
 50
0.0
 41
0.75
 51
0.0
  7
KANJI0
  0
TEXT
  8
0
  6
CONTINUOUS
 62
     4
 10
25.27999878
 20
210.7999893
 30
1.55999988
 40
15.5999988
  1
製
 50
0.0
 41
0.75
 51
0.0
  7
KANJI0
  0
TEXT
  8
0
  6
CONTINUOUS
 62
     4
 10
25.27999878
 20
241.9999869
 30
1.55999988
 40
15.5999988
  1
資
 50
0.0
 41
0.75
 51
0.0
  7
KANJI0
  0
TEXT
  8
0
  6
CONTINUOUS
 62
     4
 10
25.27999878
 20
273.1999845
 30
1.55999988
 40
15.5999988
  1
営
 50
0.0
 41
0.75
 51
0.0
  7
KANJI0
  0
TEXT
  8
0
  6
CONTINUOUS
 62
     4
 10
25.27999878
 20
304.3999821
 30
1.55999988
 40
15.5999988
  1
客
 50
0.0
 41
0.75
 51
0.0
  7
KANJI0
  0
TEXT
  8
0
  6
CONTINUOUS
 62
     4
 10
25.0199988
 20
336.8999796
 30
1.55999988
 40
15.5999988
  1
出　図
 50
0.0
 41
0.75
 51
0.0
  7
KANJI0
  0
LINE
  8
0
  6
CONTINUOUS
 62
     4
 10
14.6199996
 20
76.8999996
 30
0.0
 11
14.6199996
 21
357.699978
 31
0.0
  0
LINE
  8
0
  6
CONTINUOUS
 62
     6
 10
2404.92
 20
71.7
 30
0.0
 11
82.92
 21
71.7
 31
0.0
  0
TEXT
  8
0
  6
CONTINUOUS
 62
     4
 10
100.919996215
 20
101.699993692
 30
1.199999748
 40
11.999997477
  1
ＰＡＲＴＳ　ＬＩＳＴ
 50
0.0
 41
0.6
 51
0.0
  7
KANJI1
  0
TEXT
  8
0
  6
CONTINUOUS
 62
     4
 10
100.919996215
 20
83.699997477
 30
1.439999697
 40
14.399996972
  1
部品表
 50
0.0
 41
0.9
 51
0.0
  7
KANJI2
  0
TEXT
  8
0
  6
CONTINUOUS
 62
     3
 10
100.919996215
 20
131.699987385
 30
1.799999622
 40
17.999996215
  1
ＰＬ
 50
0.0
 41
0.9
 51
0.0
  7
KANJI3
  0
TEXT
  8
0
  6
CONTINUOUS
 62
     4
 10
370.919939446
 20
101.699993692
 30
1.199999748
 40
11.999997477
  1
Ｎ０．
 50
0.0
 41
0.6
 51
0.0
  7
KANJI1
  0
TEXT
  8
0
  6
CONTINUOUS
 62
     4
 10
370.919939446
 20
83.699997477
 30
1.439999697
 40
14.399996972
  1
項番
 50
0.0
 41
0.9
 51
0.0
  7
KANJI2
  0
LINE
  8
0
  6
CONTINUOUS
 62
     6
 10
478.919916738
 20
77.699998738
 30
0.0
 11
478.919916738
 21
161.699981077
 31
0.0
  0
LINE
  8
0
  6
CONTINUOUS
 62
     6
 10
358.919941969
 20
77.699998738
 30
0.0
 11
358.919941969
 21
161.699981077
 31
0.0
  0
LINE
  8
0
  6
CONTINUOUS
 62
     6
 10
2404.92
 20
1685.7
 30
0.0
 11
2404.92
 21
71.7
 31
0.0
  0
LINE
  8
0
  6
CONTINUOUS
 62
     6
 10
1598.920062
 20
76.8999996
 30
0.0
 11
1598.920062
 21
409.699974
 31
0.0
  0
LINE
  8
0
  6
CONTINUOUS
 62
     6
 10
2399.7200004
 20
76.8999996
 30
0.0
 11
2399.7200004
 21
409.699974
 31
0.0
  0
LINE
  8
0
  6
CONTINUOUS
 62
     4
 10
1788.7200474
 20
76.8999996
 30
0.0
 11
1788.7200474
 21
409.699974
 31
0.0
  0
LINE
  8
0
  6
CONTINUOUS
 62
     4
 10
1598.920062
 20
118.4999964
 30
0.0
 11
1788.7200474
 21
118.4999964
 31
0.0
  0
TEXT
  8
0
  6
CONTINUOUS
 62
     4
 10
1609.3200612
 20
100.2999978
 30
1.03999992
 40
10.3999992
  1
ＳＣＡＬＥ
 50
0.0
 41
0.6
 51
0.0
  7
KANJI4
  0
TEXT
  8
0
  6
CONTINUOUS
 62
     4
 10
1609.3200612
 20
84.699999
 30
1.247999904
 40
12.47999904
  1
尺度
 50
0.0
 41
0.6
 51
0.0
  7
KANJI5
  0
LINE
  8
0
  6
CONTINUOUS
 62
     6
 10
1188.1200936
 20
118.4999964
 30
0.0
 11
1598.920062
 21
118.4999964
 31
0.0
  0
LINE
  8
0
  6
CONTINUOUS
 62
     6
 10
1188.1200936
 20
76.8999996
 30
0.0
 11
2399.7200004
 21
76.8999996
 31
0.0
  0
TEXT
  8
0
  6
CONTINUOUS
 62
     6
 10
1793.920047
 20
100.2999978
 30
0.0
 40
18.1999986
  1
ＵＮＩＴＥＣ　ＩＮＤＵＳＴＲＹ　ＣＯ．，ＬＴＤ．
 50
0.0
 41
0.42031746
 51
0.0
  7
KANJI6
  0
TEXT
  8
0
  6
CONTINUOUS
 62
     6
 10
2049.175027365
 20
93.53999832
 30
3.11999976
 40
31.1999976
  1
ユニテック工業株式会社
 50
0.0
 41
0.9
 51
0.0
  7
KANJI7
  0
LINE
  8
0
  6
CONTINUOUS
 62
     6
 10
2007.575030565
 20
104.45999748
 30
0.0
 11
1993.847031621
 21
104.45999748
 31
0.0
  0
LINE
  8
0
  6
CONTINUOUS
 62
     6
 10
2007.575030565
 20
106.955997288
 30
0.0
 11
1993.847031621
 21
106.955997288
 31
0.0
  0
LINE
  8
0
  6
CONTINUOUS
 62
     6
 10
2007.575030565
 20
104.45999748
 30
0.0
 11
2021.303029509
 21
104.45999748
 31
0.0
  0
LINE
  8
0
  6
CONTINUOUS
 62
     6
 10
2007.575030565
 20
106.955997288
 30
0.0
 11
2021.303029509
 21
106.955997288
 31
0.0
  0
LINE
  8
0
  6
CONTINUOUS
 62
     6
 10
2021.303029509
 20
106.955997288
 30
0.0
 11
2021.303029509
 21
104.45999748
 31
0.0
  0
ARC
  8
0
  6
CONTINUOUS
 62
     6
 10
2024.423029269
 20
105.707997384
 30
0.0
 40
12.47999904
 50
185.739170477
 51
90.0
  0
ARC
  8
0
  6
CONTINUOUS
 62
     6
 10
2024.423029269
 20
105.707997384
 30
0.0
 40
14.975998848
 50
184.780191847
 51
90.0
  0
LINE
  8
0
  6
CONTINUOUS
 62
     6
 10
1993.847031621
 20
104.45999748
 30
0.0
 11
1993.847031621
 21
106.955997288
 31
0.0
  0
ARC
  8
0
  6
CONTINUOUS
 62
     6
 10
1990.727031861
 20
105.707997384
 30
0.0
 40
12.47999904
 50
90.0
 51
354.260829523
  0
ARC
  8
0
  6
CONTINUOUS
 62
     6
 10
1990.727031861
 20
105.707997384
 30
0.0
 40
14.975998848
 50
90.0
 51
355.219808153
  0
LINE
  8
0
  6
CONTINUOUS
 62
     6
 10
2005.703030709
 20
120.683996232
 30
0.0
 11
2005.703030709
 21
118.187996424
 31
0.0
  0
LINE
  8
0
  6
CONTINUOUS
 62
     6
 10
1990.727031861
 20
118.187996424
 30
0.0
 11
2005.703030709
 21
118.187996424
 31
0.0
  0
LINE
  8
0
  6
CONTINUOUS
 62
     6
 10
2009.447030421
 20
120.683996232
 30
0.0
 11
2009.447030421
 21
118.187996424
 31
0.0
  0
LINE
  8
0
  6
CONTINUOUS
 62
     6
 10
2024.423029269
 20
118.187996424
 30
0.0
 11
2009.447030421
 21
118.187996424
 31
0.0
  0
TEXT
  8
0
  6
CONTINUOUS
 62
     4
 10
1320.7200834
 20
100.2999978
 30
1.03999992
 40
10.3999992
  1
ＢＹ
 50
0.0
 41
0.6
 51
0.0
  7
KANJI4
  0
TEXT
  8
0
  6
CONTINUOUS
 62
     4
 10
1435.1200746
 20
100.2999978
 30
1.03999992
 40
10.3999992
  1
ＤＥＳＣＲＩＰＴＩＯＮ
 50
0.0
 41
0.6
 51
0.0
  7
KANJI4
  0
TEXT
  8
0
  6
CONTINUOUS
 62
     4
 10
1320.7200834
 20
84.699999
 30
1.247999904
 40
12.47999904
  1
担当
 50
0.0
 41
0.6
 51
0.0
  7
KANJI5
  0
TEXT
  8
0
  6
CONTINUOUS
 62
     4
 10
1450.7200734
 20
84.699999
 30
1.247999904
 40
12.47999904
  1
記　　　　事
 50
0.0
 41
0.6
 51
0.0
  7
KANJI5
  0
LINE
  8
0
  6
CONTINUOUS
 62
     4
 10
1210.2200919
 20
110.699997
 30
0.0
 11
1193.3200932
 21
84.699999
 31
0.0
  0
TEXT
  8
0
  6
CONTINUOUS
 62
     4
 10
1253.1200886
 20
100.2999978
 30
1.03999992
 40
10.3999992
  1
ＤＡＴＥ
 50
0.0
 41
0.6
 51
0.0
  7
KANJI4
  0
TEXT
  8
0
  6
CONTINUOUS
 62
     4
 10
1260.920088
 20
84.699999
 30
1.247999904
 40
12.47999904
  1
日付
 50
0.0
 41
0.6
 51
0.0
  7
KANJI5
  0
LINE
  8
0
  6
CONTINUOUS
 62
     4
 10
1193.3200932
 20
84.699999
 30
0.0
 11
1227.1200906
 21
84.699999
 31
0.0
  0
LINE
  8
0
  6
CONTINUOUS
 62
     4
 10
1210.2200919
 20
110.699997
 30
0.0
 11
1227.1200906
 21
84.699999
 31
0.0
  0
LINE
  8
0
  6
CONTINUOUS
 62
     6
 10
1188.1200936
 20
76.8999996
 30
0.0
 11
1188.1200936
 21
118.4999964
 31
0.0
  0
LINE
  8
0
  6
CONTINUOUS
 62
     4
 10
1232.3200902
 20
76.8999996
 30
0.0
 11
1232.3200902
 21
118.4999964
 31
0.0
  0
LINE
  8
0
  6
CONTINUOUS
 62
     4
 10
1305.1200846
 20
76.8999996
 30
0.0
 11
1305.1200846
 21
118.4999964
 31
0.0
  0
LINE
  8
0
  6
CONTINUOUS
 62
     4
 10
1351.920081
 20
76.8999996
 30
0.0
 11
1351.920081
 21
118.4999964
 31
0.0
  0
TEXT
  8
0
  6
CONTINUOUS
 62
     4
 10
1609.3200612
 20
308.2999818
 30
1.03999992
 40
10.3999992
  1
ＣＯＤＥ
 50
0.0
 41
0.6
 51
0.0
  7
KANJI4
  0
LINE
  8
0
  6
CONTINUOUS
 62
     4
 10
1598.920062
 20
326.4999804
 30
0.0
 11
2399.7200004
 21
326.4999804
 31
0.0
  0
TEXT
  8
0
  6
CONTINUOUS
 62
     4
 10
1609.3200612
 20
292.699983
 30
1.247999904
 40
12.47999904
  1
分類
 50
0.0
 41
0.6
 51
0.0
  7
KANJI5
  0
TEXT
  8
0
  6
CONTINUOUS
 62
     4
 10
1617.42
 20
332.7
 30
6.0
 40
21.6
  1
ご注文主
 50
0.0
 41
1.111111111
 51
0.0
  7
KANJI8
  0
TEXT
  8
0
  6
CONTINUOUS
 62
     4
 10
1609.3200612
 20
183.4999914
 30
1.03999992
 40
10.3999992
  1
ＤＲＡＷＮ
 50
0.0
 41
0.6
 51
0.0
  7
KANJI4
  0
TEXT
  8
0
  6
CONTINUOUS
 62
     4
 10
1609.3200612
 20
225.0999882
 30
1.03999992
 40
10.3999992
  1
ＤＥＳＩＧＮ
 50
0.0
 41
0.6
 51
0.0
  7
KANJI4
  0
TEXT
  8
0
  6
CONTINUOUS
 62
     4
 10
1609.3200612
 20
266.699985
 30
1.03999992
 40
10.3999992
  1
ＣＨＥＣＫ
 50
0.0
 41
0.6
 51
0.0
  7
KANJI4
  0
LINE
  8
0
  6
CONTINUOUS
 62
     4
 10
1598.920062
 20
243.2999868
 30
0.0
 11
1788.7200474
 21
243.2999868
 31
0.0
  0
LINE
  8
0
  6
CONTINUOUS
 62
     4
 10
1598.920062
 20
201.69999
 30
0.0
 11
1788.7200474
 21
201.69999
 31
0.0
  0
LINE
  8
0
  6
CONTINUOUS
 62
     4
 10
1598.920062
 20
284.8999836
 30
0.0
 11
1788.7200474
 21
284.8999836
 31
0.0
  0
TEXT
  8
0
  6
CONTINUOUS
 62
     4
 10
1609.3200612
 20
209.4999894
 30
1.247999904
 40
12.47999904
  1
設計
 50
0.0
 41
0.6
 51
0.0
  7
KANJI5
  0
TEXT
  8
0
  6
CONTINUOUS
 62
     4
 10
1609.3200612
 20
251.0999862
 30
1.247999904
 40
12.47999904
  1
検図
 50
0.0
 41
0.6
 51
0.0
  7
KANJI5
  0
LINE
  8
0
  6
CONTINUOUS
 62
     4
 10
1804.06004622
 20
284.8999836
 30
0.0
 11
2399.7200004
 21
284.8999836
 31
0.0
  0
LINE
  8
0
  6
CONTINUOUS
 62
     4
 10
1788.7200474
 20
201.69999
 30
0.0
 11
2399.7200004
 21
201.69999
 31
0.0
  0
TEXT
  8
0
  6
CONTINUOUS
 62
     4
 10
1799.1200466
 20
183.4999914
 30
1.03999992
 40
10.3999992
  1
ＤＲＡＷＩＮＧ　ＮＯ．
 50
0.0
 41
0.8
 51
0.0
  7
KANJI9
  0
TEXT
  8
0
  6
CONTINUOUS
 62
     4
 10
1799.1200466
 20
225.0999882
 30
1.03999992
 40
10.3999992
  1
ＭＦＧ　ＮＯ．
 50
0.0
 41
0.8
 51
0.0
  7
KANJI9
  0
TEXT
  8
0
  6
CONTINUOUS
 62
     4
 10
1799.1200466
 20
266.699985
 30
1.03999992
 40
10.3999992
  1
ＴＹＰＥ
 50
0.0
 41
0.8
 51
0.0
  7
KANJI9
  0
LINE
  8
0
  6
CONTINUOUS
 62
     4
 10
1804.3200462
 20
243.2999868
 30
0.0
 11
2043.5200278
 21
243.2999868
 31
0.0
  0
TEXT
  8
0
  6
CONTINUOUS
 62
     4
 10
1799.1200466
 20
165.2999928
 30
1.247999904
 40
12.47999904
  1
図　面　番　号
 50
0.0
 41
0.8
 51
0.0
  7
KANJI10
  0
TEXT
  8
0
  6
CONTINUOUS
 62
     4
 10
1799.1200466
 20
206.8999896
 30
1.247999904
 40
12.47999904
  1
製番
 50
0.0
 41
0.8
 51
0.0
  7
KANJI10
  0
TEXT
  8
0
  6
CONTINUOUS
 62
     4
 10
1799.1200466
 20
248.4999864
 30
1.247999904
 40
12.47999904
  1
機種
 50
0.0
 41
0.8
 51
0.0
  7
KANJI10
  0
LINE
  8
0
  6
CONTINUOUS
 62
     4
 10
1598.920062
 20
160.0999932
 30
0.0
 11
1788.7200474
 21
160.0999932
 31
0.0
  0
TEXT
  8
0
  6
CONTINUOUS
 62
     4
 10
1609.3200612
 20
141.8999946
 30
1.03999992
 40
10.3999992
  1
ＤＡＴＥ
 50
0.0
 41
0.6
 51
0.0
  7
KANJI4
  0
TEXT
  8
0
  6
CONTINUOUS
 62
     4
 10
1609.3200612
 20
126.2999958
 30
1.247999904
 40
12.47999904
  1
日付
 50
0.0
 41
0.6
 51
0.0
  7
KANJI5
  0
TEXT
  8
0
  6
CONTINUOUS
 62
     4
 10
1609.3200612
 20
167.8999926
 30
1.247999904
 40
12.47999904
  1
作図
 50
0.0
 41
0.6
 51
0.0
  7
KANJI5
  0
LINE
  8
0
  6
CONTINUOUS
 62
     4
 10
1788.7200474
 20
141.8999946
 30
0.0
 11
2399.7200004
 21
141.8999946
 31
0.0
  0
LINE
  8
0
  6
LTYPE1
 62
     4
 10
2225.5200138
 20
149.699994
 30
0.0
 11
2225.5200138
 21
191.2999908
 31
0.0
  0
LINE
  8
0
  6
LTYPE1
 62
     4
 10
2189.1200166
 20
149.699994
 30
0.0
 11
2189.1200166
 21
191.2999908
 31
0.0
  0
LINE
  8
0
  6
LTYPE1
 62
     4
 10
2152.7200194
 20
149.699994
 30
0.0
 11
2152.7200194
 21
191.2999908
 31
0.0
  0
LINE
  8
0
  6
LTYPE1
 62
     4
 10
2116.3200222
 20
149.699994
 30
0.0
 11
2116.3200222
 21
191.2999908
 31
0.0
  0
LINE
  8
0
  6
LTYPE1
 62
     4
 10
2079.920025
 20
149.699994
 30
0.0
 11
2079.920025
 21
191.2999908
 31
0.0
  0
LINE
  8
0
  6
LTYPE1
 62
     4
 10
2043.5200278
 20
149.699994
 30
0.0
 11
2043.5200278
 21
191.2999908
 31
0.0
  0
LINE
  8
0
  6
LTYPE1
 62
     4
 10
2007.1200306
 20
149.699994
 30
0.0
 11
2007.1200306
 21
191.2999908
 31
0.0
  0
LINE
  8
0
  6
LTYPE1
 62
     4
 10
1970.7200334
 20
149.699994
 30
0.0
 11
1970.7200334
 21
191.2999908
 31
0.0
  0
LINE
  8
0
  6
LTYPE1
 62
     4
 10
1970.7200334
 20
191.2999908
 30
0.0
 11
2225.5200138
 21
191.2999908
 31
0.0
  0
LINE
  8
0
  6
LTYPE1
 62
     4
 10
1970.7200334
 20
149.699994
 30
0.0
 11
2225.5200138
 21
149.699994
 31
0.0
  0
LINE
  8
0
  6
CONTINUOUS
 62
     4
 10
2246.3200122
 20
171.7999923
 30
0.0
 11
2256.7200114
 21
171.7999923
 31
0.0
  0
LINE
  8
0
  6
CONTINUOUS
 62
     4
 10
2311.3200072
 20
156.1999935
 30
0.0
 11
2274.92001
 21
156.1999935
 31
0.0
  0
LINE
  8
0
  6
CONTINUOUS
 62
     4
 10
2274.92001
 20
156.1999935
 30
0.0
 11
2293.1200086
 21
187.3999911
 31
0.0
  0
LINE
  8
0
  6
CONTINUOUS
 62
     4
 10
2293.1200086
 20
187.3999911
 30
0.0
 11
2311.3200072
 21
156.1999935
 31
0.0
  0
TEXT
  8
0
  6
CONTINUOUS
 62
     4
 10
2059.1200266
 20
266.699985
 30
1.03999992
 40
10.3999992
  1
ＴＩＴＬＥ
 50
0.0
 41
0.8
 51
0.0
  7
KANJI9
  0
TEXT
  8
0
  6
CONTINUOUS
 62
     4
 10
2059.1200266
 20
248.4999864
 30
1.247999904
 40
12.47999904
  1
名称
 50
0.0
 41
0.8
 51
0.0
  7
KANJI10
  0
TEXT
  8
0
  6
CONTINUOUS
 62
     2
 10
2143.92
 20
209.7
 30
15.0
 40
30.0
  1
外形寸法図
 50
0.0
 41
1.0
 51
0.0
  7
KANJI11
  0
TEXT
  8
0
  6
CONTINUOUS
 62
     2
 10
2107.92
 20
245.7
 30
4.285714286
 40
30.0
  1
マイティシリンダ
 50
0.0
 41
1.0
 51
0.0
  7
KANJI12
  0
TEXT
  8
0
  6
CONTINUOUS
 62
     2
 10
1939.2200334
 20
155.699994
 30
1.8
 40
30.0
  1
Ａ
 50
0.0
 41
0.8
 51
0.0
  7
KANJI13
  0
CIRCLE
  8
0
  6
CONTINUOUS
 62
     2
 10
1900.2200334
 20
220.199994
 30
0.0
 40
15.0
  0
TEXT
  8
0
  6
CONTINUOUS
 62
     2
 10
1888.9700334
 20
208.949994
 30
1.8
 40
24.0
  1
Ｓ
 50
0.0
 41
1.0
 51
0.0
  7
KANJI14
  0
LINE
  8
0
  6
CONTINUOUS
 62
     6
 10
2005.703030709
 20
120.683996232
 30
0.0
 11
1990.727031861
 21
120.683996232
 31
0.0
  0
LINE
  8
0
  6
CONTINUOUS
 62
     6
 10
2009.447030421
 20
120.683996232
 30
0.0
 11
2024.423029269
 21
120.683996232
 31
0.0
  0
TEXT
  8
0
  6
CONTINUOUS
 62
     2
 10
1665.9200334
 20
170.699994
 30
6.0
 40
21.0
  1
岡田
 50
0.0
 41
0.857142857
 51
0.0
  7
KANJI15
  0
LINE
  8
0
  6
CONTINUOUS
 62
     4
 10
2399.7200004
 20
368.0999772
 30
0.0
 11
2399.7200004
 21
409.699974
 31
0.0
  0
LINE
  8
0
  6
CONTINUOUS
 62
     6
 10
1599.670062
 20
368.0999772
 30
0.0
 11
2400.4700004
 21
368.0999772
 31
0.0
  0
LINE
  8
0
  6
CONTINUOUS
 62
     6
 10
1598.920062
 20
409.699974
 30
0.0
 11
2399.7200004
 21
409.699974
 31
0.0
  0
TEXT
  8
0
  6
CONTINUOUS
 62
     4
 10
1617.42
 20
374.2999968
 30
6.0
 40
21.6
  1
ご用途
 50
0.0
 41
1.111111111
 51
0.0
  7
KANJI8
  0
LINE
  8
0
  6
CONTINUOUS
 62
     1
 10
1873.92
 20
770.7
 30
0.0
 11
2398.92
 21
770.7
 31
0.0
  0
LINE
  8
0
  6
CONTINUOUS
 62
     2
 10
1873.92
 20
854.7
 30
0.0
 11
2398.92
 21
854.7
 31
0.0
  0
LINE
  8
0
  6
CONTINUOUS
 62
     2
 10
1873.92
 20
812.7
 30
0.0
 11
2398.92
 21
812.7
 31
0.0
  0
LINE
  8
0
  6
CONTINUOUS
 62
     2
 10
1921.92
 20
1190.7
 30
0.0
 11
1921.92
 21
854.7
 31
0.0
  0
TEXT
  8
0
  6
CONTINUOUS
 62
     2
 10
1906.92
 20
823.5
 30
79.962857143
 40
22.8
  1
付属品
 50
0.0
 41
0.9
 51
0.0
  7
KANJI16
  0
TEXT
  8
0
  6
CONTINUOUS
 62
     2
 10
1906.92
 20
781.5
 30
180.445714286
 40
22.8
  1
台数
 50
0.0
 41
0.9
 51
0.0
  7
KANJI17
  0
LINE
  8
0
  6
CONTINUOUS
 62
     1
 10
1873.92
 20
1586.7
 30
0.0
 11
1873.92
 21
770.7
 31
0.0
  0
LINE
  8
0
  6
CONTINUOUS
 62
     1
 10
1873.92
 20
1586.7
 30
0.0
 11
2398.92
 21
1586.7
 31
0.0
  0
TEXT
  8
0
  6
CONTINUOUS
 62
     2
 10
1948.92
 20
1542.9
 30
17.09964
 40
27.0
  1
マイティシリンダ仕様
 50
0.0
 41
0.9
 51
0.0
  7
KANJI18
  0
LINE
  8
0
  6
CONTINUOUS
 62
     2
 10
1921.92
 20
896.7
 30
0.0
 11
2398.92
 21
896.7
 31
0.0
  0
LINE
  8
0
  6
CONTINUOUS
 62
     2
 10
1921.92
 20
1022.7
 30
0.0
 11
2398.92
 21
1022.7
 31
0.0
  0
LINE
  8
0
  6
CONTINUOUS
 62
     2
 10
1921.92
 20
1064.7
 30
0.0
 11
2398.92
 21
1064.7
 31
0.0
  0
LINE
  8
0
  6
CONTINUOUS
 62
     2
 10
1873.92
 20
1274.7
 30
0.0
 11
2398.92
 21
1274.7
 31
0.0
  0
LINE
  8
0
  6
CONTINUOUS
 62
     2
 10
1873.92
 20
1232.7
 30
0.0
 11
2398.92
 21
1232.7
 31
0.0
  0
LINE
  8
0
  6
CONTINUOUS
 62
     2
 10
1873.92
 20
1190.7
 30
0.0
 11
2398.92
 21
1190.7
 31
0.0
  0
LINE
  8
0
  6
CONTINUOUS
 62
     2
 10
1921.92
 20
1106.7
 30
0.0
 11
2398.92
 21
1106.7
 31
0.0
  0
LINE
  8
0
  6
CONTINUOUS
 62
     2
 10
1921.92
 20
1148.7
 30
0.0
 11
2398.92
 21
1148.7
 31
0.0
  0
LINE
  8
0
  6
CONTINUOUS
 62
     2
 10
1873.92
 20
1484.7
 30
0.0
 11
2398.92
 21
1484.7
 31
0.0
  0
LINE
  8
0
  6
CONTINUOUS
 62
     2
 10
1873.92
 20
1442.7
 30
0.0
 11
2398.92
 21
1442.7
 31
0.0
  0
LINE
  8
0
  6
CONTINUOUS
 62
     2
 10
1873.92
 20
1400.7
 30
0.0
 11
2398.92
 21
1400.7
 31
0.0
  0
LINE
  8
0
  6
CONTINUOUS
 62
     2
 10
1873.92
 20
1358.7
 30
0.0
 11
2398.92
 21
1358.7
 31
0.0
  0
LINE
  8
0
  6
CONTINUOUS
 62
     2
 10
1873.92
 20
1316.7
 30
0.0
 11
2398.92
 21
1316.7
 31
0.0
  0
LINE
  8
0
  6
CONTINUOUS
 62
     2
 10
1873.92
 20
1526.7
 30
0.0
 11
2398.92
 21
1526.7
 31
0.0
  0
TEXT
  8
0
  6
CONTINUOUS
 62
     2
 10
1948.92
 20
1117.5
 30
33.439782857
 40
22.8
  1
電源電圧
 50
0.0
 41
0.9
 51
0.0
  7
KANJI19
  0
TEXT
  8
0
  6
CONTINUOUS
 62
     2
 10
1948.92
 20
1075.5
 30
60.42
 40
22.8
  1
周波数
 50
0.0
 41
0.9
 51
0.0
  7
KANJI20
  0
TEXT
  8
0
  6
CONTINUOUS
 62
     2
 10
1948.92
 20
1033.5
 30
141.36
 40
22.8
  1
電流
 50
0.0
 41
0.9
 51
0.0
  7
KANJI21
  0
TEXT
  8
0
  6
CONTINUOUS
 62
     2
 10
1948.92
 20
991.5
 30
60.42
 40
22.8
  1
絶縁級
 50
0.0
 41
0.9
 51
0.0
  7
KANJI20
  0
LINE
  8
0
  6
CONTINUOUS
 62
     2
 10
2149.92
 20
1526.7
 30
0.0
 11
2149.92
 21
770.7
 31
0.0
  0
TEXT
  8
0
  6
CONTINUOUS
 62
     2
 10
1906.92
 20
1495.5
 30
180.445714286
 40
22.8
  1
形式
 50
0.0
 41
0.9
 51
0.0
  7
KANJI17
  0
TEXT
  8
0
  6
CONTINUOUS
 62
     2
 10
1906.92
 20
1453.5
 30
180.445714286
 40
22.8
  1
推力
 50
0.0
 41
0.9
 51
0.0
  7
KANJI17
  0
TEXT
  8
0
  6
CONTINUOUS
 62
     2
 10
1906.92
 20
1411.5
 30
29.721428571
 40
22.8
  1
ストローク
 50
0.0
 41
0.9
 51
0.0
  7
KANJI22
  0
TEXT
  8
0
  6
CONTINUOUS
 62
     2
 10
1906.92
 20
1285.5
 30
180.445714286
 40
22.8
  1
構造
 50
0.0
 41
0.9
 51
0.0
  7
KANJI17
  0
TEXT
  8
0
  6
CONTINUOUS
 62
     2
 10
1906.92
 20
1243.5
 30
12.973851429
 40
22.8
  1
過負荷安全装置
 50
0.0
 41
0.9
 51
0.0
  7
KANJI23
  0
TEXT
  8
0
  6
CONTINUOUS
 62
     2
 10
1906.92
 20
1201.5
 30
79.962857143
 40
22.8
  1
塗装色
 50
0.0
 41
0.9
 51
0.0
  7
KANJI16
  0
TEXT
  8
0
  6
CONTINUOUS
 62
     2
 10
1882.92
 20
1327.5
 30
1.954285714
 40
22.8
  1
ピストンロッド回転トルク
 50
0.0
 41
0.9
 51
0.0
  7
KANJI24
  0
LINE
  8
0
  6
CONTINUOUS
 62
     2
 10
1873.92
 20
980.7
 30
0.0
 11
2398.92
 21
980.7
 31
0.0
  0
LINE
  8
0
  6
CONTINUOUS
 62
     2
 10
1921.92
 20
938.7
 30
0.0
 11
2398.92
 21
938.7
 31
0.0
  0
TEXT
  8
0
  6
CONTINUOUS
 62
     2
 10
1898.37
 20
1184.7
 30
13.2
 40
21.0
  1
モ　トル仕様
 50
0.0
 41
0.9
 51
0.0
  7
KANJI25
  0
TEXT
  8
0
  6
CONTINUOUS
 62
     2
 10
1898.37
 20
962.7
 30
1.2
 40
21.0
  1
ブレ　キ
 50
0.0
 41
0.9
 51
0.0
  7
KANJI26
  0
LINE
  8
0
  6
CONTINUOUS
 62
     2
 10
1896.72
 20
912.9
 30
0.0
 11
1896.72
 21
900.3
 31
0.0
  0
TEXT
  8
0
  6
CONTINUOUS
 62
     2
 10
2208.42
 20
1244.7
 30
9.0
 40
21.0
  1
推力リミッタ
 50
0.0
 41
0.9
 51
0.0
  7
KANJI27
  0
TEXT
  8
0
  6
CONTINUOUS
 62
     2
 10
2265.42
 20
992.7
 30
1.8
 40
18.0
  1
Ｅ
 50
0.0
 41
0.9
 51
0.0
  7
KANJI28
  0
TEXT
  8
0
  6
CONTINUOUS
 62
     2
 10
1948.92
 20
949.5
 30
141.36
 40
22.8
  1
形式
 50
0.0
 41
0.9
 51
0.0
  7
KANJI21
  0
TEXT
  8
0
  6
CONTINUOUS
 62
     2
 10
1948.92
 20
907.5
 30
33.439782857
 40
22.8
  1
操作方式
 50
0.0
 41
0.9
 51
0.0
  7
KANJI19
  0
LINE
  8
0
  6
CONTINUOUS
 62
     2
 10
1896.72
 20
1148.1
 30
0.0
 11
1896.72
 21
1134.3
 31
0.0
  0
LINE
  8
0
  6
CONTINUOUS
 62
     1
 10
2398.92
 20
1586.7
 30
0.0
 11
2398.92
 21
770.7
 31
0.0
  0
TEXT
  8
0
  6
CONTINUOUS
 62
     2
 10
1948.92
 20
1159.5
 30
3.0
 40
22.8
  1
出力　相数　極数
 50
0.0
 41
0.9
 51
0.0
  7
KANJI29
  0
TEXT
  8
0
  6
CONTINUOUS
 62
     2
 10
1906.92
 20
1369.5
 30
12.0
 40
22.8
  1
公称速度
 50
0.0
 41
0.9
 51
0.0
  7
KANJI30
  0
TEXT
  8
0
  6
CONTINUOUS
 62
     2
 10
2030.82
 20
1368.3
 30
0.0
 40
21.0
  1
（５０／６０Ｈｚ）
 50
0.0
 41
0.628571429
 51
0.0
  7
KANJI31
  0
TEXT
  8
0
  6
CONTINUOUS
 62
     2
 10
2151.42
 20
949.95
 30
3.3
 40
20.4
  1
スプリング制動式電磁ブレーキ
 50
0.0
 41
0.705882353
 51
0.0
  7
KANJI32
  0
TEXT
  8
0
  6
CONTINUOUS
 62
     2
 10
2370.42
 20
1117.5
 30
0.216
 40
18.0
  1
Ｖ
 50
0.0
 41
0.8
 51
0.0
  7
KANJI33
  0
TEXT
  8
0
  6
CONTINUOUS
 62
     2
 10
2359.62
 20
1075.5
 30
0.216
 40
18.0
  1
Ｈｚ
 50
0.0
 41
0.8
 51
0.0
  7
KANJI33
  0
TEXT
  8
0
  6
CONTINUOUS
 62
     2
 10
2370.42
 20
1033.5
 30
0.216
 40
18.0
  1
Ａ
 50
0.0
 41
0.8
 51
0.0
  7
KANJI33
  0
TEXT
  8
0
  6
CONTINUOUS
 62
     2
 10
2291.52
 20
1160.7
 30
1.8
 40
18.0
  1
３φ
 50
0.0
 41
0.9
 51
0.0
  7
KANJI28
  0
TEXT
  8
0
  6
CONTINUOUS
 62
     2
 10
2351.52
 20
1160.7
 30
1.8
 40
18.0
  1
４Ｐ
 50
0.0
 41
0.9
 51
0.0
  7
KANJI28
  0
TEXT
  8
0
  6
CONTINUOUS
 62
     2
 10
2149.92
 20
1202.7
 30
1.2
 40
19.2
  1
マンセル　７．５ＧＹ　５／４．５
 50
0.0
 41
0.71875
 51
0.0
  7
KANJI34
  0
TEXT
  8
0
  6
CONTINUOUS
 62
     2
 10
2149.92
 20
1118.7
 30
1.8
 40
18.0
  1
　　　　　　　／　　　
 50
0.0
 41
0.9
 51
0.0
  7
KANJI28
  0
TEXT
  8
0
  6
CONTINUOUS
 62
     2
 10
2149.92
 20
1076.7
 30
1.8
 40
18.0
  1
　　　　５０／　６０
 50
0.0
 41
0.9
 51
0.0
  7
KANJI28
  0
TEXT
  8
0
  6
CONTINUOUS
 62
     2
 10
2149.92
 20
1034.7
 30
1.8
 40
18.0
  1
　　　　　　　／　　　
 50
0.0
 41
0.9
 51
0.0
  7
KANJI28
  0
TEXT
  8
0
  6
CONTINUOUS
 62
     2
 10
2354.52
 20
1413.9
 30
0.1536
 40
19.2
  1
ｍｍ
 50
0.0
 41
0.8
 51
0.0
  7
KANJI35
  0
TEXT
  8
0
  6
CONTINUOUS
 62
     2
 10
2315.52
 20
1370.7
 30
0.0
 40
21.0
  1
ｍｍ／ｓｅｃ
 50
0.0
 41
0.571428571
 51
0.0
  7
KANJI36
  0
TEXT
  8
0
  6
CONTINUOUS
 62
     2
 10
1708.92
 20
83.7
 30
1.8
 40
27.0
  1
１／６
 50
0.0
 41
0.666666667
 51
0.0
  7
KANJI37
  0
TEXT
  8
0
  6
CONTINUOUS
 62
     2
 10
2193.72
 20
1454.7
 30
1.8
 40
18.0
  1
１９．６ＫＮ（２ｔｏｎ）
 50
0.0
 41
0.9
 51
0.0
  7
KANJI28
  0
TEXT
  8
0
  6
CONTINUOUS
 62
     2
 10
2208.42
 20
1286.7
 30
9.0
 40
21.0
  1
全閉屋外形
 50
0.0
 41
0.9
 51
0.0
  7
KANJI27
  0
TEXT
  8
0
  6
CONTINUOUS
 62
     2
 10
2221.92
 20
907.5
 30
12.0
 40
21.0
  1
別切り
 50
0.0
 41
0.9
 51
0.0
  7
KANJI38
  0
TEXT
  8
0
  6
CONTINUOUS
 62
     2
 10
2286.2
 20
158.4
 30
0.0
 40
18.0
  1
１
 50
0.0
 41
0.9
 51
0.0
  7
KANJI39
  0
TEXT
  8
0
  6
CONTINUOUS
 62
     2
 10
2164.92
 20
1328.7
 30
0.0
 40
18.0
  1
　３９Ｎ．ｍ（４ｋｇ．ｍ）
 50
0.0
 41
0.833333333
 51
0.0
  7
KANJI40
  0
TEXT
  8
0
  6
CONTINUOUS
 62
     2
 10
2155.92
 20
1160.7
 30
1.8
 40
18.0
  1
　１．５ＫＷ
 50
0.0
 41
0.9
 51
0.0
  7
KANJI28
  0
LINE
  8
0
  6
CONTINUOUS
 62
     1
 10
1604.0178
 20
1669.79972
 30
0.0
 11
1604.0178
 21
1539.80024
 31
0.0
  0
LINE
  8
0
  6
CONTINUOUS
 62
     2
 10
1529.0181
 20
1669.79972
 30
0.0
 11
1529.0181
 21
1539.80024
 31
0.0
  0
LINE
  8
0
  6
CONTINUOUS
 62
     2
 10
1454.0184
 20
1669.79972
 30
0.0
 11
1454.0184
 21
1539.80024
 31
0.0
  0
LINE
  8
0
  6
CONTINUOUS
 62
     1
 10
1354.0188
 20
1669.79972
 30
0.0
 11
1354.0188
 21
1539.80024
 31
0.0
  0
LINE
  8
0
  6
CONTINUOUS
 62
     1
 10
1354.0188
 20
1669.79972
 30
0.0
 11
1604.0178
 21
1669.79972
 31
0.0
  0
LINE
  8
0
  6
CONTINUOUS
 62
     1
 10
1354.0188
 20
1629.79988
 30
0.0
 11
1604.0178
 21
1629.79988
 31
0.0
  0
LINE
  8
0
  6
CONTINUOUS
 62
     2
 10
1354.0188
 20
1599.8
 30
0.0
 11
1604.0178
 21
1599.8
 31
0.0
  0
LINE
  8
0
  6
CONTINUOUS
 62
     2
 10
1354.0188
 20
1569.80012
 30
0.0
 11
1604.0178
 21
1569.80012
 31
0.0
  0
LINE
  8
0
  6
CONTINUOUS
 62
     1
 10
1354.0188
 20
1539.80024
 30
0.0
 11
1604.0178
 21
1539.80024
 31
0.0
  0
TEXT
  8
0
  6
CONTINUOUS
 62
     2
 10
1539.01806
 20
1652.29979
 30
1.499994
 40
14.99994
  1
起動電流
 50
0.0
 41
0.9
 51
0.0
  7
KANJI41
  0
TEXT
  8
0
  6
CONTINUOUS
 62
     2
 10
1539.01806
 20
1634.79986
 30
1.499994
 40
14.99994
  1
　　　Ａ
 50
0.0
 41
0.9
 51
0.0
  7
KANJI41
  0
TEXT
  8
0
  6
CONTINUOUS
 62
     2
 10
1464.01836
 20
1652.29979
 30
1.499994
 40
14.99994
  1
定格電流
 50
0.0
 41
0.9
 51
0.0
  7
KANJI41
  0
TEXT
  8
0
  6
CONTINUOUS
 62
     2
 10
1464.01836
 20
1634.79986
 30
1.499994
 40
14.99994
  1
　　　Ａ
 50
0.0
 41
0.9
 51
0.0
  7
KANJI41
  0
TEXT
  8
0
  6
CONTINUOUS
 62
     2
 10
1362.518766
 20
1577.30009
 30
1.499994
 40
14.99994
  1
２００／６０
 50
0.0
 41
0.9
 51
0.0
  7
KANJI41
  0
TEXT
  8
0
  6
CONTINUOUS
 62
     2
 10
1362.518766
 20
1652.29979
 30
1.499994
 40
14.99994
  1
電圧／周波数
 50
0.0
 41
0.9
 51
0.0
  7
KANJI41
  0
TEXT
  8
0
  6
CONTINUOUS
 62
     2
 10
1362.518766
 20
1634.79986
 30
1.499994
 40
14.99994
  1
　Ｖ／Ｈｚ
 50
0.0
 41
0.9
 51
0.0
  7
KANJI41
  0
TEXT
  8
0
  6
CONTINUOUS
 62
     2
 10
1362.518766
 20
1607.29997
 30
1.499994
 40
14.99994
  1
２００／５０
 50
0.0
 41
0.9
 51
0.0
  7
KANJI41
  0
TEXT
  8
0
  6
CONTINUOUS
 62
     2
 10
1362.518766
 20
1547.30021
 30
1.499994
 40
14.99994
  1
２２０／６０
 50
0.0
 41
0.9
 51
0.0
  7
KANJI41
  0
LINE
  8
0
  6
CONTINUOUS
 62
     1
 10
1304.019
 20
1669.79972
 30
0.0
 11
1304.019
 21
1539.80024
 31
0.0
  0
LINE
  8
0
  6
CONTINUOUS
 62
     2
 10
1229.0193
 20
1669.79972
 30
0.0
 11
1229.0193
 21
1539.80024
 31
0.0
  0
LINE
  8
0
  6
CONTINUOUS
 62
     2
 10
1154.0196
 20
1669.79972
 30
0.0
 11
1154.0196
 21
1539.80024
 31
0.0
  0
LINE
  8
0
  6
CONTINUOUS
 62
     1
 10
1054.02
 20
1669.79972
 30
0.0
 11
1304.019
 21
1669.79972
 31
0.0
  0
LINE
  8
0
  6
CONTINUOUS
 62
     1
 10
1054.02
 20
1629.79988
 30
0.0
 11
1304.019
 21
1629.79988
 31
0.0
  0
LINE
  8
0
  6
CONTINUOUS
 62
     2
 10
1054.02
 20
1599.8
 30
0.0
 11
1304.019
 21
1599.8
 31
0.0
  0
LINE
  8
0
  6
CONTINUOUS
 62
     2
 10
1054.02
 20
1569.80012
 30
0.0
 11
1304.019
 21
1569.80012
 31
0.0
  0
LINE
  8
0
  6
CONTINUOUS
 62
     1
 10
1054.02
 20
1539.80024
 30
0.0
 11
1304.019
 21
1539.80024
 31
0.0
  0
TEXT
  8
0
  6
CONTINUOUS
 62
     2
 10
1239.01926
 20
1652.29979
 30
1.499994
 40
14.99994
  1
起動電流
 50
0.0
 41
0.9
 51
0.0
  7
KANJI41
  0
TEXT
  8
0
  6
CONTINUOUS
 62
     2
 10
1239.01926
 20
1634.79986
 30
1.499994
 40
14.99994
  1
　　　Ａ
 50
0.0
 41
0.9
 51
0.0
  7
KANJI41
  0
TEXT
  8
0
  6
CONTINUOUS
 62
     2
 10
1164.01956
 20
1652.29979
 30
1.499994
 40
14.99994
  1
定格電流
 50
0.0
 41
0.9
 51
0.0
  7
KANJI41
  0
TEXT
  8
0
  6
CONTINUOUS
 62
     2
 10
1164.01956
 20
1634.79986
 30
1.499994
 40
14.99994
  1
　　　Ａ
 50
0.0
 41
0.9
 51
0.0
  7
KANJI41
  0
TEXT
  8
0
  6
CONTINUOUS
 62
     2
 10
1062.519966
 20
1652.29979
 30
1.499994
 40
14.99994
  1
電圧／周波数
 50
0.0
 41
0.9
 51
0.0
  7
KANJI41
  0
TEXT
  8
0
  6
CONTINUOUS
 62
     2
 10
1062.519966
 20
1634.79986
 30
1.499994
 40
14.99994
  1
　Ｖ／Ｈｚ
 50
0.0
 41
0.9
 51
0.0
  7
KANJI41
  0
TEXT
  8
0
  6
CONTINUOUS
 62
     2
 10
1062.519966
 20
1607.29997
 30
1.499994
 40
14.99994
  1
４００／５０
 50
0.0
 41
0.9
 51
0.0
  7
KANJI41
  0
TEXT
  8
0
  6
CONTINUOUS
 62
     2
 10
1062.519966
 20
1577.30009
 30
1.499994
 40
14.99994
  1
４００／６０
 50
0.0
 41
0.9
 51
0.0
  7
KANJI41
  0
TEXT
  8
0
  6
CONTINUOUS
 62
     2
 10
1062.519966
 20
1547.30021
 30
1.499994
 40
14.99994
  1
４４０／６０
 50
0.0
 41
0.9
 51
0.0
  7
KANJI41
  0
TEXT
  8
0
  6
CONTINUOUS
 62
     2
 10
1164.01956
 20
1607.29997
 30
1.499994
 40
14.99994
  1
　　３．４
 50
0.0
 41
0.9
 51
0.0
  7
KANJI41
  0
TEXT
  8
0
  6
CONTINUOUS
 62
     2
 10
1164.01956
 20
1547.30021
 30
1.499994
 40
14.99994
  1
　　３．０
 50
0.0
 41
0.9
 51
0.0
  7
KANJI41
  0
TEXT
  8
0
  6
CONTINUOUS
 62
     2
 10
1464.01836
 20
1607.29997
 30
1.499994
 40
14.99994
  1
　　６．８
 50
0.0
 41
0.9
 51
0.0
  7
KANJI41
  0
TEXT
  8
0
  6
CONTINUOUS
 62
     2
 10
1464.01836
 20
1547.30021
 30
1.499994
 40
14.99994
  1
　　６．０
 50
0.0
 41
0.9
 51
0.0
  7
KANJI41
  0
TEXT
  8
0
  6
CONTINUOUS
 62
     2
 10
1539.01806
 20
1607.29997
 30
1.499994
 40
14.99994
  1
４４．０
 50
0.0
 41
0.9
 51
0.0
  7
KANJI41
  0
LINE
  8
0
  6
CONTINUOUS
 62
     1
 10
1054.02
 20
1669.79972
 30
0.0
 11
1054.02
 21
1539.80024
 31
0.0
  0
POLYLINE
  8
0
  6
CONTINUOUS
 62
     4
 66
     1
  0
VERTEX
  8
0
  6
CONTINUOUS
 62
     4
 10
1210.2200919
 20
152.2999938
 30
0.0
  0
VERTEX
  8
0
  6
CONTINUOUS
 62
     4
 10
1193.3200932
 20
126.2999958
 30
0.0
  0
VERTEX
  8
0
  6
CONTINUOUS
 62
     4
 10
1227.1200906
 20
126.2999958
 30
0.0
  0
SEQEND
  0
LINE
  8
0
  6
CONTINUOUS
 62
     4
 10
1210.2200919
 20
152.2999938
 30
0.0
 11
1227.1200906
 21
126.2999958
 31
0.0
  0
TEXT
  8
0
  6
CONTINUOUS
 62
     2
 10
1200.8200902
 20
127.1999964
 30
0.0
 40
18.0
  1
１
 50
0.0
 41
0.9
 51
0.0
  7
KANJI39
  0
TEXT
  8
0
  6
CONTINUOUS
 62
     2
 10
1464.01836
 20
1577.30009
 30
1.499994
 40
14.99994
  1
　　６．２
 50
0.0
 41
0.9
 51
0.0
  7
KANJI41
  0
TEXT
  8
0
  6
CONTINUOUS
 62
     2
 10
1164.01956
 20
1577.30009
 30
1.499994
 40
14.99994
  1
　　３．１
 50
0.0
 41
0.9
 51
0.0
  7
KANJI41
  0
TEXT
  8
0
  6
CONTINUOUS
 62
     2
 10
1235.0
 20
38.0
 30
0.0
 40
18.0
  1
変更書替え　２０００．１２．１３　岡田
 50
0.0
 41
0.9
 51
0.0
  7
KANJI39
  0
TEXT
  8
0
  6
CONTINUOUS
 62
     2
 10
1648.5200334
 20
126.899994
 30
1.8
 40
21.0
  1
２０００．１２．１３
 50
0.0
 41
0.571428571
 51
0.0
  7
KANJI42
  0
TEXT
  8
0
  6
CONTINUOUS
 62
     2
 10
1861.92
 20
251.7
 30
0.0
 40
21.0
  1
ＭＣＬＥ２Ｃ－Ｊ
 50
0.0
 41
0.793650794
 51
0.0
  7
KANJI43
  0
TEXT
  8
0
  6
CONTINUOUS
 62
     2
 10
1976.7200334
 20
155.699994
 30
13.0
 40
30.0
  1
３００１４３０
 50
0.0
 41
0.8
 51
0.0
  7
KANJI44
  0
TEXT
  8
0
  6
CONTINUOUS
 62
     2
 10
2152.92
 20
1370.7
 30
1.8
 40
18.0
  1
　５０／６０
 50
0.0
 41
0.9
 51
0.0
  7
KANJI28
  0
TEXT
  8
0
  6
CONTINUOUS
 62
     2
 10
2163.42
 20
1494.6
 30
1.2
 40
18.0
  1
ＭＣＬＥ２Ｃ－　　Ｊ
 50
0.0
 41
0.833333333
 51
0.0
  7
KANJI45
  0
LINE
  8
0
  6
CONTINUOUS
 62
     6
 10
356.629425053
 20
1631.447759827
 30
0.0
 11
124.584646507
 21
1631.447759827
 31
0.0
  0
LINE
  8
0
  6
CONTINUOUS
 62
     3
 10
356.629425053
 20
1603.985259827
 30
0.0
 11
124.584646507
 21
1603.985259827
 31
0.0
  0
LINE
  8
0
  6
CONTINUOUS
 62
     6
 10
356.629425053
 20
1603.985259827
 30
0.0
 11
124.584646507
 21
1603.985259827
 31
0.0
  0
TEXT
  8
0
  6
CONTINUOUS
 62
     6
 10
382.212228
 20
1628.900410728
 30
1.232517
 40
13.182
  1
電気定格　　　
 50
0.0
 41
0.85
 51
0.0
  7
KANJI46
  0
TEXT
  8
0
  6
CONTINUOUS
 62
     6
 10
128.493517202
 20
1634.64592676
 30
1.0647
 40
11.661
  1
ＬＳ０１　　　：推力リミッタ（前進時過負荷用）
 50
0.0
 41
0.822608696
 51
0.0
  7
KANJI47
  0
TEXT
  8
0
  6
CONTINUOUS
 62
     6
 10
128.493517202
 20
1607.18342676
 30
1.0647
 40
11.661
  1
ＬＳ０２　　　：推力リミッタ（後進時過負荷用）
 50
0.0
 41
0.822608696
 51
0.0
  7
KANJI47
  0
TEXT
  8
0
  6
CONTINUOUS
 62
     6
 10
395.013715102
 20
1598.326958599
 30
0.0
 40
11.8638
  1
ＤＣ１２５Ｖ　０．６Ａ　，ＤＣ２５０Ｖ　０．３Ａ　
 50
0.0
 41
0.726495726
 51
0.0
  7
KANJI48
  0
LINE
  8
0
  6
LTYPE2
 62
     6
 10
655.02
 20
1658.9
 30
0.0
 11
106.62
 21
1658.9
 31
0.0
  0
TEXT
  8
0
  6
CONTINUOUS
 62
     6
 10
389.757132178
 20
1646.661726126
 30
0.0
 40
45.0
  1
｝
 50
0.0
 41
0.538166667
 51
0.0
  7
KANJI49
  0
TEXT
  8
0
  6
CONTINUOUS
 62
     6
 10
319.632791539
 20
1417.92382165
 30
0.0
 40
17.740702234
  1
端子台　接続図
 50
0.0
 41
0.880962996
 51
0.0
  7
KANJI50
  0
LINE
  8
0
  6
LTYPE2
 62
     6
 10
655.02
 20
1399.9
 30
0.0
 11
655.02
 21
1658.9
 31
0.0
  0
LINE
  8
0
  6
LTYPE2
 62
     6
 10
106.62
 20
1399.9
 30
0.0
 11
655.02
 21
1399.9
 31
0.0
  0
LINE
  8
0
  6
LTYPE2
 62
     6
 10
106.62
 20
1658.9
 30
0.0
 11
106.62
 21
1399.9
 31
0.0
  0
LINE
  8
0
  6
CONTINUOUS
 62
     2
 10
354.597373465
 20
1468.928121884
 30
0.0
 11
354.597373465
 21
1446.149155128
 31
0.0
  0
LINE
  8
0
  6
CONTINUOUS
 62
     2
 10
381.17283468
 20
1468.928121884
 30
0.0
 11
381.17283468
 21
1446.149155128
 31
0.0
  0
LINE
  8
0
  6
CONTINUOUS
 62
     2
 10
407.748295894
 20
1468.928121884
 30
0.0
 11
407.748295894
 21
1446.149155128
 31
0.0
  0
LINE
  8
0
  6
CONTINUOUS
 62
     2
 10
434.323757109
 20
1468.928121884
 30
0.0
 11
434.323757109
 21
1446.149155128
 31
0.0
  0
CIRCLE
  8
0
  6
CONTINUOUS
 62
     6
 10
426.404269667
 20
1492.407921517
 30
0.0
 40
4.100214016
  0
LINE
  8
0
  6
CONTINUOUS
 62
     6
 10
422.304055651
 20
1492.407921517
 30
0.0
 11
421.036026502
 21
1492.407921517
 31
0.0
  0
LINE
  8
0
  6
CONTINUOUS
 62
     6
 10
447.358027433
 20
1506.094562742
 30
0.0
 11
443.443558096
 21
1483.759507138
 31
0.0
  0
LINE
  8
0
  6
CONTINUOUS
 62
     6
 10
442.631699663
 20
1506.882284037
 30
0.0
 11
438.716922494
 21
1484.547279739
 31
0.0
  0
LINE
  8
0
  6
CONTINUOUS
 62
     6
 10
443.443558096
 20
1483.759507138
 30
0.0
 11
438.716922494
 21
1484.547279739
 31
0.0
  0
CIRCLE
  8
0
  6
CONTINUOUS
 62
     6
 10
447.611487717
 20
1482.939464335
 30
0.0
 40
4.100214016
  0
LINE
  8
0
  6
CONTINUOUS
 62
     6
 10
447.611487717
 20
1478.839250319
 30
0.0
 11
447.611487717
 21
1468.928121884
 31
0.0
  0
LINE
  8
0
  6
CONTINUOUS
 62
     6
 10
421.036026502
 20
1492.407921517
 30
0.0
 11
421.036026502
 21
1468.928121884
 31
0.0
  0
LINE
  8
0
  6
CONTINUOUS
 62
     6
 10
394.460565287
 20
1468.928121884
 30
0.0
 11
394.460565287
 21
1522.633332504
 31
0.0
  0
LINE
  8
0
  6
CONTINUOUS
 62
     6
 10
314.987641926
 20
1506.094562742
 30
0.0
 11
318.902111263
 21
1483.759507138
 31
0.0
  0
LINE
  8
0
  6
CONTINUOUS
 62
     6
 10
319.713969696
 20
1506.882284037
 30
0.0
 11
323.628746865
 21
1484.547279739
 31
0.0
  0
LINE
  8
0
  6
CONTINUOUS
 62
     6
 10
318.902111263
 20
1483.759507138
 30
0.0
 11
323.628746865
 21
1484.547279739
 31
0.0
  0
CIRCLE
  8
0
  6
CONTINUOUS
 62
     6
 10
314.734181642
 20
1482.939464335
 30
0.0
 40
4.100214016
  0
CIRCLE
  8
0
  6
CONTINUOUS
 62
     6
 10
335.941399692
 20
1492.407921517
 30
0.0
 40
4.100214016
  0
LINE
  8
0
  6
CONTINUOUS
 62
     6
 10
340.041613708
 20
1492.407921517
 30
0.0
 11
341.309642857
 21
1492.407921517
 31
0.0
  0
LINE
  8
0
  6
CONTINUOUS
 62
     6
 10
314.734181642
 20
1478.839250319
 30
0.0
 11
314.734181642
 21
1468.928121884
 31
0.0
  0
LINE
  8
0
  6
CONTINUOUS
 62
     6
 10
341.309642857
 20
1492.407921517
 30
0.0
 11
341.309642857
 21
1468.928121884
 31
0.0
  0
LINE
  8
0
  6
CONTINUOUS
 62
     6
 10
367.885104072
 20
1468.928121884
 30
0.0
 11
367.885104072
 21
1522.633332504
 31
0.0
  0
LINE
  8
0
  6
CONTINUOUS
 62
     2
 10
460.899218324
 20
1468.928121884
 30
0.0
 11
460.899218324
 21
1446.149155128
 31
0.0
  0
LINE
  8
0
  6
CONTINUOUS
 62
     2
 10
301.446451035
 20
1468.928121884
 30
0.0
 11
301.446451035
 21
1446.149155128
 31
0.0
  0
LINE
  8
0
  6
CONTINUOUS
 62
     2
 10
328.02191225
 20
1468.928121884
 30
0.0
 11
328.02191225
 21
1446.149155128
 31
0.0
  0
LINE
  8
0
  6
CONTINUOUS
 62
     6
 10
447.611487717
 20
1522.633332504
 30
0.0
 11
394.460565287
 21
1522.633332504
 31
0.0
  0
CIRCLE
  8
0
  6
CONTINUOUS
 62
     6
 10
447.611487717
 20
1510.28941042
 30
0.0
 40
4.100214016
  0
LINE
  8
0
  6
CONTINUOUS
 62
     6
 10
447.358027433
 20
1506.094562742
 30
0.0
 11
442.631699663
 21
1506.882284037
 31
0.0
  0
LINE
  8
0
  6
CONTINUOUS
 62
     6
 10
447.611487717
 20
1514.389624436
 30
0.0
 11
447.611487717
 21
1522.633332504
 31
0.0
  0
CIRCLE
  8
0
  6
CONTINUOUS
 62
     6
 10
314.734181642
 20
1510.28941042
 30
0.0
 40
4.100214016
  0
LINE
  8
0
  6
CONTINUOUS
 62
     6
 10
314.987641926
 20
1506.094562742
 30
0.0
 11
319.713969696
 21
1506.882284037
 31
0.0
  0
LINE
  8
0
  6
CONTINUOUS
 62
     6
 10
314.734181642
 20
1514.389624436
 30
0.0
 11
314.734181642
 21
1522.633332504
 31
0.0
  0
LINE
  8
0
  6
CONTINUOUS
 62
     6
 10
367.885104072
 20
1522.633332504
 30
0.0
 11
314.734181642
 21
1522.633332504
 31
0.0
  0
TEXT
  8
0
  6
CONTINUOUS
 62
     6
 10
319.4972152
 20
1527.152473273
 30
0.819
 40
11.7
  1
ＬＳ０１
 50
0.0
 41
0.8
 51
0.0
  7
KANJI51
  0
TEXT
  8
0
  6
CONTINUOUS
 62
     6
 10
402.117398844
 20
1527.152473273
 30
0.819
 40
11.7
  1
ＬＳ０２
 50
0.0
 41
0.8
 51
0.0
  7
KANJI51
  0
TEXT
  8
0
  6
CONTINUOUS
 62
     3
 10
147.308775989
 20
1449.945649587
 30
0.0
 40
15.0
  1
　　　　　　　　　　　　　　　　　　１　　２　　　３　　　４　　　５　　　６
 50
0.0
 41
0.911
 51
0.0
  7
KANJI52
  0
LINE
  8
0
  6
CONTINUOUS
 62
     2
 10
301.446451035
 20
1468.928121884
 30
0.0
 11
460.899218324
 21
1468.928121884
 31
0.0
  0
LINE
  8
0
  6
CONTINUOUS
 62
     2
 10
301.446451035
 20
1446.149155128
 30
0.0
 11
460.899218324
 21
1446.149155128
 31
0.0
  0
TEXT
  8
0
  6
CONTINUOUS
 62
     6
 10
293.132791539
 20
1556.92382165
 30
0.0
 40
17.740702234
  1
推力リミッタ端子台配列
 50
0.0
 41
0.880962996
 51
0.0
  7
KANJI50
  0
TEXT
  8
0
  6
CONTINUOUS
 62
     6
 10
395.013715102
 20
1614.071931782
 30
0.0
 40
11.8638
  1
ＡＣ１００Ｖ　１２５Ｖ　２５０Ｖ　－１０Ａ
 50
0.0
 41
0.726495726
 51
0.0
  7
KANJI48
  0
TEXT
  8
0
  6
CONTINUOUS
 62
     6
 10
120.294567657
 20
1352.399357623
 30
1.82231734
 40
18.223173404
  1
クイックブレーキモータ
 50
0.0
 41
0.66671875
 51
0.0
  7
KANJI53
  0
CIRCLE
  8
0
  6
CONTINUOUS
 62
     6
 10
164.736
 20
1290.432
 30
0.0
 40
21.6
  0
TEXT
  8
0
  6
CONTINUOUS
 62
     6
 10
155.664
 20
1280.064
 30
2.16
 40
21.6
  1
Ｍ
 50
0.0
 41
0.9
 51
0.0
  7
KANJI54
  0
LINE
  8
0
  6
CONTINUOUS
 62
     6
 10
136.224
 20
1260.192
 30
0.0
 11
149.616
 21
1275.744
 31
0.0
  0
LINE
  8
0
  6
CONTINUOUS
 62
     6
 10
136.224
 20
1320.672
 30
0.0
 11
149.616
 21
1305.12
 31
0.0
  0
CIRCLE
  8
0
  6
CONTINUOUS
 62
     6
 10
111.6
 20
1320.672
 30
0.0
 40
5.184
  0
LINE
  8
0
  6
CONTINUOUS
 62
     6
 10
105.644103884
 20
1314.716103884
 30
0.0
 11
117.740103884
 21
1326.812103884
 31
0.0
  0
CIRCLE
  8
0
  6
CONTINUOUS
 62
     6
 10
111.6
 20
1290.432
 30
0.0
 40
5.184
  0
LINE
  8
0
  6
CONTINUOUS
 62
     6
 10
105.644103884
 20
1284.476103884
 30
0.0
 11
117.740103884
 21
1296.572103884
 31
0.0
  0
CIRCLE
  8
0
  6
CONTINUOUS
 62
     6
 10
111.6
 20
1260.192
 30
0.0
 40
5.184
  0
LINE
  8
0
  6
CONTINUOUS
 62
     6
 10
105.644103884
 20
1254.236103884
 30
0.0
 11
117.740103884
 21
1266.332103884
 31
0.0
  0
LINE
  8
0
  6
CONTINUOUS
 62
     6
 10
136.224
 20
1320.672
 30
0.0
 11
116.784
 21
1320.672
 31
0.0
  0
LINE
  8
0
  6
CONTINUOUS
 62
     6
 10
143.568
 20
1290.432
 30
0.0
 11
116.784
 21
1290.432
 31
0.0
  0
LINE
  8
0
  6
CONTINUOUS
 62
     6
 10
136.224
 20
1260.192
 30
0.0
 11
116.784
 21
1260.192
 31
0.0
  0
LINE
  8
0
  6
LTYPE2
 62
     6
 10
111.6
 20
1344.0
 30
0.0
 11
111.6
 21
1324.56
 31
0.0
  0
LINE
  8
0
  6
LTYPE2
 62
     6
 10
111.6
 20
1315.92
 30
0.0
 11
111.6
 21
1294.32
 31
0.0
  0
LINE
  8
0
  6
LTYPE2
 62
     6
 10
111.6
 20
1285.68
 30
0.0
 11
111.6
 21
1264.512
 31
0.0
  0
TEXT
  8
0
  6
CONTINUOUS
 62
     6
 10
90.816
 20
1328.016
 30
1.296
 40
12.96
  1
Ｕ
 50
0.0
 41
0.9
 51
0.0
  7
KANJI55
  0
TEXT
  8
0
  6
CONTINUOUS
 62
     6
 10
92.112
 20
1297.344
 30
1.296
 40
12.96
  1
Ｖ
 50
0.0
 41
0.9
 51
0.0
  7
KANJI55
  0
TEXT
  8
0
  6
CONTINUOUS
 62
     6
 10
93.408
 20
1266.672
 30
1.296
 40
12.96
  1
Ｗ
 50
0.0
 41
0.9
 51
0.0
  7
KANJI55
  0
LINE
  8
0
  6
LTYPE2
 62
     6
 10
266.16
 20
1344.0
 30
0.0
 11
111.6
 21
1344.0
 31
0.0
  0
TEXT
  8
0
  6
CONTINUOUS
 62
     6
 10
195.84
 20
1280.6472
 30
1.728
 40
17.28
  1
Ｂ
 50
0.0
 41
0.9
 51
0.0
  7
KANJI56
  0
CIRCLE
  8
0
  6
CONTINUOUS
 62
     6
 10
203.616
 20
1290.432
 30
0.0
 40
17.28
  0
LINE
  8
0
  6
CONTINUOUS
 62
     6
 10
231.216
 20
1260.0192
 30
0.0
 11
212.23698443
 21
1275.456118475
 31
0.0
  0
LINE
  8
0
  6
CONTINUOUS
 62
     6
 10
194.631325074
 20
1275.671443897
 30
0.0
 11
175.536
 21
1260.0192
 31
0.0
  0
CIRCLE
  8
0
  6
CONTINUOUS
 62
     6
 10
175.536
 20
1210.9872
 30
0.0
 40
5.184
  0
LINE
  8
0
  6
CONTINUOUS
 62
     6
 10
169.580103884
 20
1205.031303884
 30
0.0
 11
181.676103884
 21
1217.127303884
 31
0.0
  0
CIRCLE
  8
0
  6
CONTINUOUS
 62
     6
 10
203.376
 20
1210.9872
 30
0.0
 40
5.184
  0
LINE
  8
0
  6
CONTINUOUS
 62
     6
 10
197.420103884
 20
1205.031303884
 30
0.0
 11
209.516103884
 21
1217.127303884
 31
0.0
  0
LINE
  8
0
  6
LTYPE2
 62
     6
 10
180.72
 20
1210.9872
 30
0.0
 11
198.096
 21
1210.9872
 31
0.0
  0
CIRCLE
  8
0
  6
CONTINUOUS
 62
     6
 10
231.216
 20
1210.9872
 30
0.0
 40
5.184
  0
LINE
  8
0
  6
CONTINUOUS
 62
     6
 10
225.260103884
 20
1205.031303884
 30
0.0
 11
237.356103884
 21
1217.127303884
 31
0.0
  0
LINE
  8
0
  6
LTYPE2
 62
     6
 10
208.176
 20
1210.9872
 30
0.0
 11
226.416
 21
1210.9872
 31
0.0
  0
TEXT
  8
0
  6
CONTINUOUS
 62
     6
 10
188.64
 20
1213.8192
 30
1.296
 40
12.96
  1
ｖ
 50
0.0
 41
0.9
 51
0.0
  7
KANJI55
  0
TEXT
  8
0
  6
CONTINUOUS
 62
     6
 10
216.48
 20
1213.8192
 30
1.296
 40
12.96
  1
ｗ
 50
0.0
 41
0.9
 51
0.0
  7
KANJI55
  0
TEXT
  8
0
  6
CONTINUOUS
 62
     6
 10
161.616
 20
1214.6832
 30
1.296
 40
12.96
  1
ｕ
 50
0.0
 41
0.9
 51
0.0
  7
KANJI55
  0
LINE
  8
0
  6
CONTINUOUS
 62
     6
 10
175.536
 20
1216.1712
 30
0.0
 11
175.536
 21
1260.0192
 31
0.0
  0
LINE
  8
0
  6
CONTINUOUS
 62
     6
 10
203.376
 20
1216.1712
 30
0.0
 11
203.376
 21
1273.44
 31
0.0
  0
LINE
  8
0
  6
CONTINUOUS
 62
     6
 10
231.216
 20
1216.1712
 30
0.0
 11
231.216
 21
1260.0192
 31
0.0
  0
LINE
  8
0
  6
LTYPE2
 62
     6
 10
236.976
 20
1210.9872
 30
0.0
 11
266.16
 21
1210.9872
 31
0.0
  0
LINE
  8
0
  6
LTYPE2
 62
     6
 10
266.16
 20
1210.9872
 30
0.0
 11
266.16
 21
1344.0
 31
0.0
  0
LINE
  8
0
  6
LTYPE2
 62
     6
 10
111.6
 20
1210.9872
 30
0.0
 11
170.352
 21
1210.9872
 31
0.0
  0
LINE
  8
0
  6
LTYPE2
 62
     6
 10
111.6
 20
1255.008
 30
0.0
 11
111.6
 21
1210.9872
 31
0.0
  0
TEXT
  8
0
  6
CONTINUOUS
 62
     2
 10
128.014472037
 20
1175.954685773
 30
0.0
 40
18.72
  1
モーター結線図
 50
0.0
 41
0.925
 51
0.0
  7
KANJI57
  0
LINE
  8
0
  6
CONTINUOUS
 62
     2
 10
473.083402385
 20
1270.133330769
 30
0.0
 11
480.810808995
 21
1268.062778408
 31
0.0
  0
LINE
  8
0
  6
CONTINUOUS
 62
     2
 10
473.083402385
 20
1270.133330769
 30
0.0
 11
480.810808995
 21
1272.20388313
 31
0.0
  0
LINE
  8
0
  6
CONTINUOUS
 62
     2
 10
473.083402385
 20
1270.133330769
 30
0.0
 11
610.683402385
 21
1270.133330769
 31
0.0
  0
LINE
  8
0
  6
CONTINUOUS
 62
     2
 10
610.683402385
 20
1270.133330769
 30
0.0
 11
602.955995774
 21
1272.20388313
 31
0.0
  0
LINE
  8
0
  6
CONTINUOUS
 62
     2
 10
610.683402385
 20
1270.133330769
 30
0.0
 11
602.955995774
 21
1268.062778408
 31
0.0
  0
LINE
  8
0
  6
CONTINUOUS
 62
     2
 10
610.683402385
 20
1268.933330769
 30
0.0
 11
610.683402385
 21
1266.133330769
 31
0.0
  0
LINE
  8
0
  6
CONTINUOUS
 62
     2
 10
610.683402385
 20
1270.133330769
 30
0.0
 11
618.410808995
 21
1268.062778408
 31
0.0
  0
LINE
  8
0
  6
CONTINUOUS
 62
     2
 10
610.683402385
 20
1270.133330769
 30
0.0
 11
618.410808995
 21
1272.20388313
 31
0.0
  0
LINE
  8
0
  6
CONTINUOUS
 62
     2
 10
610.683402385
 20
1270.133330769
 30
0.0
 11
813.083402385
 21
1270.133330769
 31
0.0
  0
LINE
  8
0
  6
CONTINUOUS
 62
     2
 10
813.083402385
 20
1270.133330769
 30
0.0
 11
805.355995774
 21
1272.20388313
 31
0.0
  0
LINE
  8
0
  6
CONTINUOUS
 62
     2
 10
813.083402385
 20
1270.133330769
 30
0.0
 11
805.355995774
 21
1268.062778408
 31
0.0
  0
LINE
  8
0
  6
CONTINUOUS
 62
     2
 10
610.683402385
 20
1243.80388313
 30
0.0
 11
602.955995774
 21
1245.874435491
 31
0.0
  0
LINE
  8
0
  6
CONTINUOUS
 62
     2
 10
610.683402385
 20
1243.80388313
 30
0.0
 11
602.955995774
 21
1241.733330769
 31
0.0
  0
LINE
  8
0
  6
CONTINUOUS
 62
     2
 10
598.683402385
 20
1243.80388313
 30
0.0
 11
610.683402385
 21
1243.80388313
 31
0.0
  0
LINE
  8
0
  6
CONTINUOUS
 62
     2
 10
610.683402385
 20
1243.80388313
 30
0.0
 11
631.483402385
 21
1243.80388313
 31
0.0
  0
LINE
  8
0
  6
CONTINUOUS
 62
     2
 10
631.483402385
 20
1243.80388313
 30
0.0
 11
639.210808995
 21
1241.733330769
 31
0.0
  0
LINE
  8
0
  6
CONTINUOUS
 62
     2
 10
631.483402385
 20
1243.80388313
 30
0.0
 11
639.210808995
 21
1245.874435491
 31
0.0
  0
LINE
  8
0
  6
CONTINUOUS
 62
     2
 10
473.083402385
 20
1218.533330769
 30
0.0
 11
473.083402385
 21
1212.533330769
 31
0.0
  0
LINE
  8
0
  6
CONTINUOUS
 62
     2
 10
473.083402385
 20
1216.533330769
 30
0.0
 11
480.810808995
 21
1214.462778408
 31
0.0
  0
LINE
  8
0
  6
CONTINUOUS
 62
     2
 10
473.083402385
 20
1216.533330769
 30
0.0
 11
480.810808995
 21
1218.60388313
 31
0.0
  0
LINE
  8
0
  6
CONTINUOUS
 62
     2
 10
473.083402385
 20
1216.533330769
 30
0.0
 11
631.483402385
 21
1216.533330769
 31
0.0
  0
LINE
  8
0
  6
CONTINUOUS
 62
     2
 10
631.483402385
 20
1216.533330769
 30
0.0
 11
623.755995774
 21
1218.60388313
 31
0.0
  0
LINE
  8
0
  6
CONTINUOUS
 62
     2
 10
631.483402385
 20
1216.533330769
 30
0.0
 11
623.755995774
 21
1214.462778408
 31
0.0
  0
LINE
  8
0
  6
CONTINUOUS
 62
     2
 10
631.483402385
 20
1217.733330769
 30
0.0
 11
631.483402385
 21
1212.533330769
 31
0.0
  0
LINE
  8
0
  6
CONTINUOUS
 62
     2
 10
631.483402385
 20
1216.533330769
 30
0.0
 11
639.210808995
 21
1214.462778408
 31
0.0
  0
LINE
  8
0
  6
CONTINUOUS
 62
     2
 10
631.483402385
 20
1216.533330769
 30
0.0
 11
639.210808995
 21
1218.60388313
 31
0.0
  0
LINE
  8
0
  6
CONTINUOUS
 62
     2
 10
813.083402385
 20
1212.933330769
 30
0.0
 11
813.083402385
 21
1212.533330769
 31
0.0
  0
LINE
  8
0
  6
CONTINUOUS
 62
     2
 10
473.083402385
 20
1187.333330769
 30
0.0
 11
480.810808995
 21
1185.262778408
 31
0.0
  0
LINE
  8
0
  6
CONTINUOUS
 62
     2
 10
473.083402385
 20
1187.333330769
 30
0.0
 11
480.810808995
 21
1189.40388313
 31
0.0
  0
LINE
  8
0
  6
CONTINUOUS
 62
     2
 10
473.083402385
 20
1187.333330769
 30
0.0
 11
790.683402385
 21
1187.333330769
 31
0.0
  0
LINE
  8
0
  6
CONTINUOUS
 62
     2
 10
790.683402385
 20
1187.333330769
 30
0.0
 11
782.955995774
 21
1189.40388313
 31
0.0
  0
LINE
  8
0
  6
CONTINUOUS
 62
     2
 10
790.683402385
 20
1187.333330769
 30
0.0
 11
782.955995774
 21
1185.262778408
 31
0.0
  0
LINE
  8
0
  6
CONTINUOUS
 62
     2
 10
790.683402385
 20
1188.133330769
 30
0.0
 11
790.683402385
 21
1183.333330769
 31
0.0
  0
LINE
  8
0
  6
CONTINUOUS
 62
     2
 10
790.683402385
 20
1187.333330769
 30
0.0
 11
782.955995774
 21
1189.40388313
 31
0.0
  0
LINE
  8
0
  6
CONTINUOUS
 62
     2
 10
790.683402385
 20
1187.333330769
 30
0.0
 11
782.955995774
 21
1185.262778408
 31
0.0
  0
LINE
  8
0
  6
CONTINUOUS
 62
     2
 10
778.683402385
 20
1187.333330769
 30
0.0
 11
790.683402385
 21
1187.333330769
 31
0.0
  0
LINE
  8
0
  6
CONTINUOUS
 62
     2
 10
790.683402385
 20
1187.333330769
 30
0.0
 11
813.083402385
 21
1187.333330769
 31
0.0
  0
LINE
  8
0
  6
CONTINUOUS
 62
     2
 10
813.083402385
 20
1187.333330769
 30
0.0
 11
820.810808995
 21
1185.262778408
 31
0.0
  0
LINE
  8
0
  6
CONTINUOUS
 62
     2
 10
813.083402385
 20
1187.333330769
 30
0.0
 11
820.810808995
 21
1189.40388313
 31
0.0
  0
LINE
  8
0
  6
CONTINUOUS
 62
     2
 10
473.083402385
 20
1280.933330769
 30
0.0
 11
473.083402385
 21
1266.133330769
 31
0.0
  0
LINE
  8
0
  6
CONTINUOUS
 62
     2
 10
813.083402385
 20
1280.933330769
 30
0.0
 11
813.083402385
 21
1266.133330769
 31
0.0
  0
LINE
  8
0
  6
CONTINUOUS
 62
     2
 10
610.683402385
 20
1269.733330769
 30
0.0
 11
610.683402385
 21
1280.933330769
 31
0.0
  0
LINE
  8
0
  6
CONTINUOUS
 62
     2
 10
631.483402385
 20
1256.60388313
 30
0.0
 11
631.483402385
 21
1239.80388313
 31
0.0
  0
LINE
  8
0
  6
CONTINUOUS
 62
     2
 10
473.083402385
 20
1266.133330769
 30
0.0
 11
473.083402385
 21
1174.133330769
 31
0.0
  0
LINE
  8
0
  6
CONTINUOUS
 62
     2
 10
813.083402385
 20
1270.133330769
 30
0.0
 11
813.083402385
 21
1175.333330769
 31
0.0
  0
LINE
  8
0
  6
CONTINUOUS
 62
     2
 10
631.483402385
 20
1243.80388313
 30
0.0
 11
631.483402385
 21
1207.333330769
 31
0.0
  0
LINE
  8
0
  6
CONTINUOUS
 62
     2
 10
610.683402385
 20
1270.133330769
 30
0.0
 11
610.683402385
 21
1234.533330769
 31
0.0
  0
TEXT
  8
0
  6
CONTINUOUS
 62
     3
 10
514.883402385
 20
1272.133330769
 30
0.0
 40
15.0
  1
ｍｉｎ．Ｌ
 50
0.0
 41
0.9
 51
0.0
  7
KANJI58
  0
TEXT
  8
0
  6
CONTINUOUS
 62
     3
 10
668.683402385
 20
1272.133330769
 30
0.0
 40
15.0
  1
機械的ストローク
 50
0.0
 41
0.9
 51
0.0
  7
KANJI58
  0
TEXT
  8
0
  6
CONTINUOUS
 62
     3
 10
643.483402385
 20
1245.80388313
 30
0.0
 40
15.0
  1
余裕
 50
0.0
 41
0.9
 51
0.0
  7
KANJI58
  0
TEXT
  8
0
  6
CONTINUOUS
 62
     3
 10
525.283402385
 20
1218.533330769
 30
0.0
 40
15.0
  1
常用ｍｉｎ
 50
0.0
 41
0.9
 51
0.0
  7
KANJI58
  0
TEXT
  8
0
  6
CONTINUOUS
 62
     3
 10
604.883402385
 20
1189.333330769
 30
0.0
 40
15.0
  1
常用ｍａｘ
 50
0.0
 41
0.9
 51
0.0
  7
KANJI58
  0
TEXT
  8
0
  6
CONTINUOUS
 62
     3
 10
825.083402385
 20
1189.333330769
 30
0.0
 40
15.0
  1
余裕
 50
0.0
 41
0.9
 51
0.0
  7
KANJI58
  0
LINE
  8
0
  6
CONTINUOUS
 62
     2
 10
631.483402385
 20
1243.80388313
 30
0.0
 11
671.583402385
 21
1243.80388313
 31
0.0
  0
LINE
  8
0
  6
CONTINUOUS
 62
     2
 10
813.083402385
 20
1187.333330769
 30
0.0
 11
855.583402385
 21
1187.333330769
 31
0.0
  0
LINE
  8
0
  6
CONTINUOUS
 62
     2
 10
790.683402385
 20
1228.933330769
 30
0.0
 11
790.683402385
 21
1174.533330769
 31
0.0
  0
LINE
  8
0
  6
CONTINUOUS
 62
     2
 10
631.483402385
 20
1216.533330769
 30
0.0
 11
790.683402385
 21
1216.533330769
 31
0.0
  0
LINE
  8
0
  6
CONTINUOUS
 62
     2
 10
790.683402385
 20
1216.533330769
 30
0.0
 11
782.955995774
 21
1218.60388313
 31
0.0
  0
LINE
  8
0
  6
CONTINUOUS
 62
     2
 10
790.683402385
 20
1216.533330769
 30
0.0
 11
782.955995774
 21
1214.462778408
 31
0.0
  0
TEXT
  8
0
  6
CONTINUOUS
 62
     3
 10
669.433402385
 20
1218.533330769
 30
0.0
 40
15.0
  1
常用ストローク
 50
0.0
 41
0.9
 51
0.0
  7
KANJI58
  0
TEXT
  8
0
  6
CONTINUOUS
 62
     2
 10
1789.92
 20
715.9
 30
12.0
 40
24.0
  1
特記事項
 50
0.0
 41
0.9
 51
0.0
  7
KANJI59
  0
TEXT
  8
0
  6
CONTINUOUS
 62
     2
 10
1705.92
 20
667.9
 30
6.171428571
 40
21.6
  1
１。運転時は必ずピストンロッドの回転防止を行って下さい。
 50
0.0
 41
0.857142857
 51
0.0
  7
KANJI60
  0
TEXT
  8
0
  6
CONTINUOUS
 62
     2
 10
1705.92
 20
627.1
 30
6.156
 40
21.6
  1
２。モートル：全閉自冷かご形３０分定格
 50
0.0
 41
0.857222222
 51
0.0
  7
KANJI61
  0
TEXT
  8
0
  6
CONTINUOUS
 62
     2
 10
1705.5199098
 20
586.3000036
 30
6.156
 40
21.6
  1
３。呼称ストロークは、機械的ストロークです。
 50
0.0
 41
0.857222222
 51
0.0
  7
KANJI61
  0
TEXT
  8
0
  6
CONTINUOUS
 62
     2
 10
1705.5199098
 20
551.8000036
 30
6.156
 40
21.6
  1
　　必ず、常用はストローク両端に余裕を取って下さい。
 50
0.0
 41
0.857222222
 51
0.0
  7
KANJI61
  0
LINE
  8
0
  6
CONTINUOUS
 62
     2
 10
1773.12
 20
709.3
 30
0.0
 11
1919.52
 21
709.3
 31
0.0
  0
TEXT
  8
0
  6
CONTINUOUS
 62
     2
 10
1706.4319098
 20
512.1520036
 30
6.156
 40
21.6
  1
　　前後の推奨余裕寸法は、各々３０ｍｍです。
 50
0.0
 41
0.857222222
 51
0.0
  7
KANJI61
  0
TEXT
  8
0
  6
CONTINUOUS
 62
     2
 10
1706.4319098
 20
471.1520036
 30
6.156
 40
21.6
  1
４。ボールネジ使用　３６１０
 50
0.0
 41
0.857222222
 51
0.0
  7
KANJI61
  0
TEXT
  8
0
  6
CONTINUOUS
 62
     2
 10
1665.9200334
 20
253.8999876
 30
6.0
 40
21.0
  1
田口
 50
0.0
 41
0.857142857
 51
0.0
  7
KANJI15
  0
TEXT
  8
0
  6
CONTINUOUS
 62
     2
 10
1736.7200474
 20
253.8999836
 30
0.0
 40
18.0
  1
１／１１
 50
0.0
 41
0.45
 51
0.0
  7
KANJI62
  0
TEXT
  8
0
  6
CONTINUOUS
 62
     2
 10
491.502674524
 20
196.541526374
 30
0.0
 40
20.0
  1
推力リミッタの作動値は、約２３００ｋｇ（設計値）
 50
0.0
 41
0.925
 51
0.0
  7
KANJI63
  0
LINE
  8
0
  6
CONTINUOUS
 62
     2
 10
489.502674524
 20
188.541526374
 30
0.0
 11
921.790083262
 21
188.541526374
 31
0.0
  0
LINE
  8
0
  6
CONTINUOUS
 62
     1
 10
448.122218677
 20
480.833974596
 30
0.0
 11
448.122218677
 21
820.833974596
 31
0.0
  0
LINE
  8
0
  6
CONTINUOUS
 62
     1
 10
448.122218677
 20
630.733974596
 30
0.0
 11
448.122218677
 21
830.733974596
 31
0.0
  0
LINE
  8
0
  6
CONTINUOUS
 62
     1
 10
448.122218677
 20
471.833974596
 30
0.0
 11
448.122218677
 21
846.833974596
 31
0.0
  0
LINE
  8
0
  6
CONTINUOUS
 62
     1
 10
448.122218677
 20
846.833974596
 30
0.0
 11
408.122218677
 21
846.833974596
 31
0.0
  0
ARC
  8
0
  6
CONTINUOUS
 62
     1
 10
430.122218677
 20
713.833974596
 30
0.0
 40
4.0
 50
270.0
 51
0.0
  0
LINE
  8
0
  6
CONTINUOUS
 62
     1
 10
408.122218677
 20
846.833974596
 30
0.0
 11
408.122218677
 21
809.833974596
 31
0.0
  0
ARC
  8
0
  6
CONTINUOUS
 62
     1
 10
405.122218677
 20
809.833974596
 30
0.0
 40
3.0
 50
270.0
 51
0.0
  0
ARC
  8
0
  6
CONTINUOUS
 62
     1
 10
431.122218677
 20
809.833974596
 30
0.0
 40
3.0
 50
270.0
 51
0.0
  0
LINE
  8
0
  6
CONTINUOUS
 62
     1
 10
434.122218677
 20
713.833974596
 30
0.0
 11
434.122218677
 21
846.833974596
 31
0.0
  0
LINE
  8
0
  6
CONTINUOUS
 62
     1
 10
353.122218677
 20
471.833974596
 30
0.0
 11
353.122218677
 21
806.833974596
 31
0.0
  0
LINE
  8
0
  6
CONTINUOUS
 62
     1
 10
353.122218677
 20
806.833974596
 30
0.0
 11
431.122218677
 21
806.833974596
 31
0.0
  0
CIRCLE
  8
0
  6
CONTINUOUS
 62
     1
 10
428.122218677
 20
871.833974596
 30
0.0
 40
15.0
  0
LINE
  8
0
  6
CONTINUOUS
 62
     1
 10
439.52348764
 20
854.835505015
 30
0.0
 11
428.122218677
 21
856.833974596
 31
0.0
  0
LINE
  8
0
  6
CONTINUOUS
 62
     1
 10
428.122218677
 20
854.833974596
 30
0.0
 11
439.523674444
 21
854.833974596
 31
0.0
  0
ARC
  8
0
  6
CONTINUOUS
 62
     1
 10
428.122218677
 20
871.833974596
 30
0.0
 40
25.0
 50
300.714883545
 51
0.0
  0
LINE
  8
0
  6
CONTINUOUS
 62
     1
 10
440.239313823
 20
848.970984085
 30
0.0
 11
439.523674444
 21
854.833974596
 31
0.0
  0
ARC
  8
0
  6
CONTINUOUS
 62
     1
 10
441.627841391
 20
849.150100256
 30
0.0
 40
1.4
 50
121.733468281
 51
187.57738995
  0
LINE
  8
0
  6
CONTINUOUS
 62
     1
 10
416.720949713
 20
854.835505015
 30
0.0
 11
428.122218677
 21
856.833974596
 31
0.0
  0
LINE
  8
0
  6
CONTINUOUS
 62
     1
 10
428.122218677
 20
854.833974596
 30
0.0
 11
416.720762909
 21
854.833974596
 31
0.0
  0
LINE
  8
0
  6
CONTINUOUS
 62
     1
 10
416.00512353
 20
848.970984085
 30
0.0
 11
416.720762909
 21
854.833974596
 31
0.0
  0
ARC
  8
0
  6
CONTINUOUS
 62
     1
 10
414.616595962
 20
849.150100256
 30
0.0
 40
1.4
 50
352.42261005
 51
58.266531719
  0
ARC
  8
0
  6
CONTINUOUS
 62
     1
 10
428.122218677
 20
871.833974596
 30
0.0
 40
25.0
 50
0.0
 51
239.342761175
  0
LINE
  8
0
  6
CONTINUOUS
 62
     1
 10
440.500158206
 20
846.833974596
 30
0.0
 11
440.239313823
 21
848.970984085
 31
0.0
  0
LINE
  8
0
  6
CONTINUOUS
 62
     1
 10
415.744279147
 20
846.833974596
 30
0.0
 11
416.00512353
 21
848.970984085
 31
0.0
  0
LINE
  8
0
  6
CONTINUOUS
 62
     1
 10
448.122218677
 20
471.833974596
 30
0.0
 11
336.122218677
 21
471.833974596
 31
0.0
  0
LINE
  8
0
  6
CONTINUOUS
 62
     1
 10
336.122218677
 20
471.833974596
 30
0.0
 11
336.122218677
 21
719.833974596
 31
0.0
  0
LINE
  8
0
  6
CONTINUOUS
 62
     1
 10
430.122218677
 20
709.833974596
 30
0.0
 11
353.122218677
 21
709.833974596
 31
0.0
  0
LINE
  8
0
  6
CONTINUOUS
 62
     1
 10
353.122218677
 20
719.833974596
 30
0.0
 11
336.122218677
 21
719.833974596
 31
0.0
  0
LINE
  8
0
  6
CONTINUOUS
 62
     1
 10
336.122218677
 20
640.833974596
 30
0.0
 11
336.122218677
 21
629.884434596
 31
0.0
  0
LINE
  8
0
  6
CONTINUOUS
 62
     1
 10
336.122218677
 20
640.833974596
 30
0.0
 11
336.122218677
 21
651.783514596
 31
0.0
  0
LINE
  8
0
  6
CONTINUOUS
 62
     1
 10
328.101118677
 20
632.565954596
 30
0.0
 11
329.64929497
 21
629.884434596
 31
0.0
  0
LINE
  8
0
  6
CONTINUOUS
 62
     1
 10
328.101118677
 20
640.833974596
 30
0.0
 11
328.101118677
 21
632.565954596
 31
0.0
  0
LINE
  8
0
  6
CONTINUOUS
 62
     1
 10
328.101118677
 20
649.101994596
 30
0.0
 11
329.64929497
 21
651.783514596
 31
0.0
  0
LINE
  8
0
  6
CONTINUOUS
 62
     1
 10
328.101118677
 20
640.833974596
 30
0.0
 11
328.101118677
 21
649.101994596
 31
0.0
  0
ARC
  8
0
  6
CONTINUOUS
 62
     1
 10
338.555340369
 20
640.833974596
 30
0.0
 40
10.454221693
 50
148.419912243
 51
211.580087757
  0
ARC
  8
0
  6
CONTINUOUS
 62
     1
 10
331.294232283
 20
632.621819596
 30
0.0
 40
3.193602261
 50
121.002313915
 51
182.989498403
  0
LINE
  8
0
  6
CONTINUOUS
 62
     1
 10
328.101118677
 20
649.101994596
 30
0.0
 11
329.64929497
 21
651.783514596
 31
0.0
  0
ARC
  8
0
  6
CONTINUOUS
 62
     1
 10
331.294232283
 20
649.046129596
 30
0.0
 40
3.193602261
 50
177.010501597
 51
238.997686085
  0
LINE
  8
0
  6
CONTINUOUS
 62
     1
 10
336.122218677
 20
629.884434596
 30
0.0
 11
329.64929497
 21
629.884434596
 31
0.0
  0
LINE
  8
0
  6
CONTINUOUS
 62
     1
 10
336.122218677
 20
635.359204596
 30
0.0
 11
329.64929497
 21
635.359204596
 31
0.0
  0
LINE
  8
0
  6
CONTINUOUS
 62
     1
 10
336.122218677
 20
646.308744596
 30
0.0
 11
329.64929497
 21
646.308744596
 31
0.0
  0
LINE
  8
0
  6
CONTINUOUS
 62
     1
 10
336.122218677
 20
651.783514596
 30
0.0
 11
329.64929497
 21
651.783514596
 31
0.0
  0
LINE
  8
0
  6
CONTINUOUS
 62
     1
 10
336.122218677
 20
490.833974596
 30
0.0
 11
336.122218677
 21
479.884434596
 31
0.0
  0
LINE
  8
0
  6
CONTINUOUS
 62
     1
 10
336.122218677
 20
490.833974596
 30
0.0
 11
336.122218677
 21
501.783514596
 31
0.0
  0
LINE
  8
0
  6
CONTINUOUS
 62
     1
 10
328.101118677
 20
482.565954596
 30
0.0
 11
329.64929497
 21
479.884434596
 31
0.0
  0
LINE
  8
0
  6
CONTINUOUS
 62
     1
 10
328.101118677
 20
490.833974596
 30
0.0
 11
328.101118677
 21
482.565954596
 31
0.0
  0
LINE
  8
0
  6
CONTINUOUS
 62
     1
 10
328.101118677
 20
499.101994596
 30
0.0
 11
329.64929497
 21
501.783514596
 31
0.0
  0
LINE
  8
0
  6
CONTINUOUS
 62
     1
 10
328.101118677
 20
490.833974596
 30
0.0
 11
328.101118677
 21
499.101994596
 31
0.0
  0
ARC
  8
0
  6
CONTINUOUS
 62
     1
 10
338.555340369
 20
490.833974596
 30
0.0
 40
10.454221693
 50
148.419912243
 51
211.580087757
  0
ARC
  8
0
  6
CONTINUOUS
 62
     1
 10
331.294232283
 20
482.621819596
 30
0.0
 40
3.193602261
 50
121.002313915
 51
182.989498403
  0
LINE
  8
0
  6
CONTINUOUS
 62
     1
 10
328.101118677
 20
499.101994596
 30
0.0
 11
329.64929497
 21
501.783514596
 31
0.0
  0
ARC
  8
0
  6
CONTINUOUS
 62
     1
 10
331.294232283
 20
499.046129596
 30
0.0
 40
3.193602261
 50
177.010501597
 51
238.997686085
  0
LINE
  8
0
  6
CONTINUOUS
 62
     1
 10
336.122218677
 20
479.884434596
 30
0.0
 11
329.64929497
 21
479.884434596
 31
0.0
  0
LINE
  8
0
  6
CONTINUOUS
 62
     1
 10
336.122218677
 20
485.359204596
 30
0.0
 11
329.64929497
 21
485.359204596
 31
0.0
  0
LINE
  8
0
  6
CONTINUOUS
 62
     1
 10
336.122218677
 20
496.308744596
 30
0.0
 11
329.64929497
 21
496.308744596
 31
0.0
  0
LINE
  8
0
  6
CONTINUOUS
 62
     1
 10
336.122218677
 20
501.783514596
 30
0.0
 11
329.64929497
 21
501.783514596
 31
0.0
  0
LINE
  8
0
  6
CONTINUOUS
 62
     1
 10
336.122218677
 20
708.833974596
 30
0.0
 11
336.122218677
 21
701.339914596
 31
0.0
  0
LINE
  8
0
  6
CONTINUOUS
 62
     1
 10
336.122218677
 20
708.833974596
 30
0.0
 11
336.122218677
 21
716.328034596
 31
0.0
  0
LINE
  8
0
  6
CONTINUOUS
 62
     1
 10
330.622318677
 20
703.175194596
 30
0.0
 11
331.681918079
 21
701.339914596
 31
0.0
  0
LINE
  8
0
  6
CONTINUOUS
 62
     1
 10
330.622318677
 20
708.833974596
 30
0.0
 11
330.622318677
 21
703.175194596
 31
0.0
  0
LINE
  8
0
  6
CONTINUOUS
 62
     1
 10
330.622318677
 20
714.492754596
 30
0.0
 11
331.681918079
 21
716.328034596
 31
0.0
  0
LINE
  8
0
  6
CONTINUOUS
 62
     1
 10
330.622318677
 20
708.833974596
 30
0.0
 11
330.622318677
 21
714.492754596
 31
0.0
  0
ARC
  8
0
  6
CONTINUOUS
 62
     1
 10
337.777374014
 20
708.833974596
 30
0.0
 40
7.155055337
 50
148.419912243
 51
211.580087757
  0
ARC
  8
0
  6
CONTINUOUS
 62
     1
 10
332.807742443
 20
703.213429596
 30
0.0
 40
2.185758211
 50
121.002313915
 51
182.989498403
  0
LINE
  8
0
  6
CONTINUOUS
 62
     1
 10
330.622318677
 20
714.492754596
 30
0.0
 11
331.681918079
 21
716.328034596
 31
0.0
  0
ARC
  8
0
  6
CONTINUOUS
 62
     1
 10
332.807742443
 20
714.454519596
 30
0.0
 40
2.185758211
 50
177.010501597
 51
238.997686085
  0
LINE
  8
0
  6
CONTINUOUS
 62
     1
 10
336.122218677
 20
701.339914596
 30
0.0
 11
331.681918079
 21
701.339914596
 31
0.0
  0
LINE
  8
0
  6
CONTINUOUS
 62
     1
 10
336.122218677
 20
705.086944596
 30
0.0
 11
331.681918079
 21
705.086944596
 31
0.0
  0
LINE
  8
0
  6
CONTINUOUS
 62
     1
 10
336.122218677
 20
712.581004596
 30
0.0
 11
331.681918079
 21
712.581004596
 31
0.0
  0
LINE
  8
0
  6
CONTINUOUS
 62
     1
 10
336.122218677
 20
716.328034596
 30
0.0
 11
331.681918079
 21
716.328034596
 31
0.0
  0
LINE
  8
0
  6
CONTINUOUS
 62
     1
 10
448.122218677
 20
641.733974596
 30
0.0
 11
448.122218677
 21
841.733974596
 31
0.0
  0
LINE
  8
0
  6
CONTINUOUS
 62
     1
 10
448.122218677
 20
641.033974596
 30
0.0
 11
448.122218677
 21
841.033974596
 31
0.0
  0
LINE
  8
0
  6
LTYPE3
 62
     2
 10
395.197218677
 20
871.833974596
 30
0.0
 11
460.197218677
 21
871.833974596
 31
0.0
  0
LINE
  8
0
  6
LTYPE3
 62
     2
 10
428.122218677
 20
824.833974596
 30
0.0
 11
428.122218677
 21
904.533974596
 31
0.0
  0
LINE
  8
0
  6
LTYPE3
 62
     2
 10
322.522218677
 20
490.833974596
 30
0.0
 11
371.222218677
 21
490.833974596
 31
0.0
  0
LINE
  8
0
  6
LTYPE3
 62
     2
 10
323.122218677
 20
640.833974596
 30
0.0
 11
371.222218677
 21
640.833974596
 31
0.0
  0
LINE
  8
0
  6
LTYPE3
 62
     2
 10
325.022218677
 20
708.833974596
 30
0.0
 11
349.622218677
 21
708.833974596
 31
0.0
  0
LINE
  8
0
  6
LTYPE3
 62
     2
 10
533.122218677
 20
522.833974596
 30
0.0
 11
533.122218677
 21
612.833974596
 31
0.0
  0
LINE
  8
0
  6
LTYPE3
 62
     2
 10
533.122218677
 20
522.833974596
 30
0.0
 11
533.122218677
 21
612.833974596
 31
0.0
  0
CIRCLE
  8
0
  6
CONTINUOUS
 62
     1
 10
533.122218677
 20
565.833974596
 30
0.0
 40
12.5
  0
CIRCLE
  8
0
  6
CONTINUOUS
 62
     1
 10
533.122218677
 20
565.833974596
 30
0.0
 40
23.0
  0
CIRCLE
  8
0
  6
CONTINUOUS
 62
     1
 10
533.122218677
 20
565.833974596
 30
0.0
 40
27.5
  0
LINE
  8
0
  6
CONTINUOUS
 62
     1
 10
571.122218677
 20
499.833974596
 30
0.0
 11
645.122218677
 21
499.833974596
 31
0.0
  0
LINE
  8
0
  6
CONTINUOUS
 62
     1
 10
653.122218677
 20
505.833974596
 30
0.0
 11
653.122218677
 21
625.833974596
 31
0.0
  0
LINE
  8
0
  6
CONTINUOUS
 62
     1
 10
463.122218677
 20
498.833974596
 30
0.0
 11
463.122218677
 21
632.833974596
 31
0.0
  0
LINE
  8
0
  6
CONTINUOUS
 62
     1
 10
448.122218677
 20
498.833974596
 30
0.0
 11
463.122218677
 21
498.833974596
 31
0.0
  0
LINE
  8
0
  6
CONTINUOUS
 62
     1
 10
448.122218677
 20
632.833974596
 30
0.0
 11
463.122218677
 21
632.833974596
 31
0.0
  0
LINE
  8
0
  6
CONTINUOUS
 62
     1
 10
463.122218677
 20
625.833974596
 30
0.0
 11
653.122218677
 21
625.833974596
 31
0.0
  0
LINE
  8
0
  6
CONTINUOUS
 62
     1
 10
645.122218677
 20
505.833974596
 30
0.0
 11
653.122218677
 21
505.833974596
 31
0.0
  0
LINE
  8
0
  6
CONTINUOUS
 62
     1
 10
463.122218677
 20
505.833974596
 30
0.0
 11
571.122218677
 21
505.833974596
 31
0.0
  0
LINE
  8
0
  6
LTYPE3
 62
     2
 10
608.122218677
 20
484.333974596
 30
0.0
 11
608.122218677
 21
510.833974596
 31
0.0
  0
LINE
  8
0
  6
CONTINUOUS
 62
     1
 10
654.122218677
 20
498.333974596
 30
0.0
 11
654.122218677
 21
497.333974596
 31
0.0
  0
ARC
  8
0
  6
CONTINUOUS
 62
     1
 10
567.122218677
 20
495.333974596
 30
0.0
 40
3.0
 50
90.0
 51
180.0
  0
LINE
  8
0
  6
CONTINUOUS
 62
     1
 10
693.122218677
 20
455.333974596
 30
0.0
 11
564.122218677
 21
455.333974596
 31
0.0
  0
LINE
  8
0
  6
CONTINUOUS
 62
     1
 10
654.122218677
 20
497.333974596
 30
0.0
 11
690.122218677
 21
497.333974596
 31
0.0
  0
ARC
  8
0
  6
CONTINUOUS
 62
     1
 10
690.122218677
 20
494.333974596
 30
0.0
 40
3.0
 50
0.0
 51
90.0
  0
LINE
  8
0
  6
CONTINUOUS
 62
     1
 10
693.122218677
 20
453.833974596
 30
0.0
 11
564.122218677
 21
453.833974596
 31
0.0
  0
LINE
  8
0
  6
CONTINUOUS
 62
     1
 10
693.122218677
 20
448.833974596
 30
0.0
 11
693.122218677
 21
494.333974596
 31
0.0
  0
ARC
  8
0
  6
CONTINUOUS
 62
     1
 10
692.122218677
 20
448.833974596
 30
0.0
 40
1.0
 50
270.0
 51
0.0
  0
LINE
  8
0
  6
CONTINUOUS
 62
     1
 10
690.122218677
 20
447.833974596
 30
0.0
 11
690.122218677
 21
447.833974596
 31
0.0
  0
ARC
  8
0
  6
CONTINUOUS
 62
     1
 10
689.122218677
 20
447.833974596
 30
0.0
 40
1.0
 50
270.0
 51
0.0
  0
LINE
  8
0
  6
CONTINUOUS
 62
     1
 10
564.122218677
 20
448.833974596
 30
0.0
 11
564.122218677
 21
495.333974596
 31
0.0
  0
LINE
  8
0
  6
CONTINUOUS
 62
     1
 10
692.122218677
 20
447.833974596
 30
0.0
 11
565.122218677
 21
447.833974596
 31
0.0
  0
ARC
  8
0
  6
CONTINUOUS
 62
     1
 10
565.122218677
 20
448.833974596
 30
0.0
 40
1.0
 50
180.0
 51
270.0
  0
ARC
  8
0
  6
CONTINUOUS
 62
     1
 10
568.122218677
 20
447.833974596
 30
0.0
 40
1.0
 50
180.0
 51
270.0
  0
LINE
  8
0
  6
CONTINUOUS
 62
     1
 10
689.122218677
 20
446.833974596
 30
0.0
 11
568.222218677
 21
446.833974596
 31
0.0
  0
LINE
  8
0
  6
CONTINUOUS
 62
     1
 10
567.122218677
 20
498.333974596
 30
0.0
 11
654.122218677
 21
498.333974596
 31
0.0
  0
LINE
  8
0
  6
CONTINUOUS
 62
     1
 10
571.122218677
 20
498.333974596
 30
0.0
 11
571.122218677
 21
540.333974596
 31
0.0
  0
LINE
  8
0
  6
CONTINUOUS
 62
     1
 10
645.122218677
 20
498.333974596
 30
0.0
 11
645.122218677
 21
540.333974596
 31
0.0
  0
LINE
  8
0
  6
CONTINUOUS
 62
     1
 10
653.122218677
 20
623.833974596
 30
0.0
 11
662.122218677
 21
623.833974596
 31
0.0
  0
LINE
  8
0
  6
CONTINUOUS
 62
     1
 10
653.122218677
 20
626.833974596
 30
0.0
 11
662.122218677
 21
626.833974596
 31
0.0
  0
LINE
  8
0
  6
CONTINUOUS
 62
     1
 10
653.122218677
 20
570.833974596
 30
0.0
 11
662.122218677
 21
570.833974596
 31
0.0
  0
LINE
  8
0
  6
CONTINUOUS
 62
     1
 10
653.122218677
 20
560.833974596
 30
0.0
 11
662.122218677
 21
560.833974596
 31
0.0
  0
LINE
  8
0
  6
CONTINUOUS
 62
     1
 10
653.122218677
 20
507.833974596
 30
0.0
 11
662.122218677
 21
507.833974596
 31
0.0
  0
LINE
  8
0
  6
CONTINUOUS
 62
     1
 10
653.122218677
 20
504.833974596
 30
0.0
 11
662.122218677
 21
504.833974596
 31
0.0
  0
LINE
  8
0
  6
CONTINUOUS
 62
     1
 10
662.122218677
 20
505.833974596
 30
0.0
 11
662.122218677
 21
625.833974596
 31
0.0
  0
LINE
  8
0
  6
LTYPE1
 62
     2
 10
693.122218677
 20
481.633974596
 30
0.0
 11
683.122218677
 21
481.633974596
 31
0.0
  0
LINE
  8
0
  6
LTYPE1
 62
     2
 10
693.122218677
 20
482.833974596
 30
0.0
 11
683.122218677
 21
482.833974596
 31
0.0
  0
LINE
  8
0
  6
LTYPE1
 62
     2
 10
693.122218677
 20
463.033974596
 30
0.0
 11
683.122218677
 21
463.033974596
 31
0.0
  0
LINE
  8
0
  6
LTYPE1
 62
     2
 10
693.122218677
 20
461.833974596
 30
0.0
 11
683.122218677
 21
461.833974596
 31
0.0
  0
LINE
  8
0
  6
CONTINUOUS
 62
     1
 10
448.122218677
 20
641.033974596
 30
0.0
 11
448.122218677
 21
841.033974596
 31
0.0
  0
LINE
  8
0
  6
LTYPE3
 62
     2
 10
327.122218677
 20
565.833974596
 30
0.0
 11
715.622218677
 21
565.833974596
 31
0.0
  0
LINE
  8
7
  6
CONTINUOUS
 62
     2
 10
578.622218677
 20
446.833974596
 30
0.0
 11
572.736130402
 21
435.806555822
 31
0.0
  0
LINE
  8
7
  6
CONTINUOUS
 62
     2
 10
578.622218677
 20
446.833974596
 30
0.0
 11
579.038426089
 21
434.340905662
 31
0.0
  0
LINE
  8
7
  6
CONTINUOUS
 62
     2
 10
578.622218677
 20
446.833974596
 30
0.0
 11
557.910009374
 21
357.771474596
 31
0.0
  0
LINE
  8
0
  6
CONTINUOUS
 62
     2
 10
557.910009374
 20
357.771474596
 30
0.0
 11
648.122218677
 21
357.771474596
 31
0.0
  0
LINE
  8
7
  6
CONTINUOUS
 62
     2
 10
693.122218677
 20
472.333974596
 30
0.0
 11
705.469600491
 21
474.281322109
 31
0.0
  0
LINE
  8
7
  6
CONTINUOUS
 62
     2
 10
693.122218677
 20
472.333974596
 30
0.0
 11
702.841691242
 21
480.194117919
 31
0.0
  0
LINE
  8
0
  6
CONTINUOUS
 62
     2
 10
717.872218677
 20
483.333974596
 30
0.0
 11
800.122218677
 21
483.333974596
 31
0.0
  0
LINE
  8
7
  6
CONTINUOUS
 62
     2
 10
693.122218677
 20
472.333974596
 30
0.0
 11
717.872218677
 21
483.333974596
 31
0.0
  0
LINE
  8
7
  6
CONTINUOUS
 62
     2
 10
533.122218677
 20
515.333974596
 30
0.0
 11
533.122218677
 21
276.333974596
 31
0.0
  0
LINE
  8
7
  6
CONTINUOUS
 62
     2
 10
336.122218677
 20
297.333974596
 30
0.0
 11
336.122218677
 21
276.333974596
 31
0.0
  0
LINE
  8
7
  6
CONTINUOUS
 62
     2
 10
533.122218677
 20
338.333974596
 30
0.0
 11
533.122218677
 21
339.333974596
 31
0.0
  0
LINE
  8
0
  6
LTYPE2
 62
     2
 10
699.322218677
 20
472.333974596
 30
0.0
 11
679.622218677
 21
472.333974596
 31
0.0
  0
LINE
  8
0
  6
CONTINUOUS
 62
     1
 10
448.122218677
 20
641.569974596
 30
0.0
 11
448.122218677
 21
665.969974596
 31
0.0
  0
LINE
  8
0
  6
CONTINUOUS
 62
     1
 10
448.122218677
 20
665.969974596
 30
0.0
 11
448.122218677
 21
837.369974596
 31
0.0
  0
LINE
  8
0
  6
CONTINUOUS
 62
     1
 10
448.122218677
 20
665.969974596
 30
0.0
 11
448.122218677
 21
841.569974596
 31
0.0
  0
LINE
  8
0
  6
CONTINUOUS
 62
     1
 10
460.122218677
 20
824.345702686
 30
0.0
 11
512.794354632
 21
824.345702686
 31
0.0
  0
LINE
  8
0
  6
CONTINUOUS
 62
     1
 10
460.122218677
 20
658.994246506
 30
0.0
 11
512.794354632
 21
658.994246506
 31
0.0
  0
LINE
  8
0
  6
CONTINUOUS
 62
     1
 10
462.622218677
 20
800.005974596
 30
0.0
 11
462.622218677
 21
809.805974596
 31
0.0
  0
LINE
  8
0
  6
CONTINUOUS
 62
     1
 10
462.622218677
 20
809.805974596
 30
0.0
 11
468.23657803
 21
809.805974596
 31
0.0
  0
LINE
  8
0
  6
CONTINUOUS
 62
     1
 10
469.622218677
 20
807.405974596
 30
0.0
 11
468.23657803
 21
809.805974596
 31
0.0
  0
LINE
  8
0
  6
CONTINUOUS
 62
     1
 10
469.622218677
 20
800.005974596
 30
0.0
 11
469.622218677
 21
807.405974596
 31
0.0
  0
LINE
  8
0
  6
CONTINUOUS
 62
     1
 10
462.622218677
 20
804.905974596
 30
0.0
 11
468.23657803
 21
804.905974596
 31
0.0
  0
LINE
  8
0
  6
CONTINUOUS
 62
     1
 10
462.622218677
 20
800.005974596
 30
0.0
 11
462.622218677
 21
790.205974596
 31
0.0
  0
LINE
  8
0
  6
CONTINUOUS
 62
     1
 10
462.622218677
 20
790.205974596
 30
0.0
 11
468.23657803
 21
790.205974596
 31
0.0
  0
LINE
  8
0
  6
CONTINUOUS
 62
     1
 10
469.622218677
 20
792.605974596
 30
0.0
 11
468.23657803
 21
790.205974596
 31
0.0
  0
LINE
  8
0
  6
CONTINUOUS
 62
     1
 10
469.622218677
 20
800.005974596
 30
0.0
 11
469.622218677
 21
792.605974596
 31
0.0
  0
LINE
  8
0
  6
CONTINUOUS
 62
     1
 10
462.622218677
 20
795.105974596
 30
0.0
 11
468.23657803
 21
795.105974596
 31
0.0
  0
ARC
  8
0
  6
CONTINUOUS
 62
     1
 10
460.265535876
 20
800.005974596
 30
0.0
 40
9.3566828
 50
328.419912243
 51
31.580087757
  0
ARC
  8
0
  6
CONTINUOUS
 62
     1
 10
466.764334844
 20
807.355974596
 30
0.0
 40
2.858321186
 50
301.002313915
 51
2.989498403
  0
LINE
  8
0
  6
CONTINUOUS
 62
     1
 10
469.622218677
 20
792.605974596
 30
0.0
 11
468.23657803
 21
790.205974596
 31
0.0
  0
ARC
  8
0
  6
CONTINUOUS
 62
     1
 10
466.764334844
 20
792.655974596
 30
0.0
 40
2.858321186
 50
357.010501597
 51
58.997686085
  0
LINE
  8
0
  6
CONTINUOUS
 62
     1
 10
460.122218677
 20
809.205974596
 30
0.0
 11
462.622218677
 21
809.205974596
 31
0.0
  0
LINE
  8
0
  6
CONTINUOUS
 62
     1
 10
460.122218677
 20
800.005974596
 30
0.0
 11
462.622218672
 21
802.505974592
 31
0.0
  0
LINE
  8
0
  6
CONTINUOUS
 62
     1
 10
462.622218672
 20
800.005974596
 30
0.0
 11
460.122218677
 21
797.5059746
 31
0.0
  0
LINE
  8
0
  6
CONTINUOUS
 62
     1
 10
460.122218677
 20
790.805974596
 30
0.0
 11
462.622218677
 21
790.805974596
 31
0.0
  0
LINE
  8
0
  6
CONTINUOUS
 62
     1
 10
462.622218677
 20
683.333974596
 30
0.0
 11
462.622218677
 21
673.533974596
 31
0.0
  0
LINE
  8
0
  6
CONTINUOUS
 62
     1
 10
462.622218677
 20
673.533974596
 30
0.0
 11
468.23657803
 21
673.533974596
 31
0.0
  0
LINE
  8
0
  6
CONTINUOUS
 62
     1
 10
469.622218677
 20
675.933974596
 30
0.0
 11
468.23657803
 21
673.533974596
 31
0.0
  0
LINE
  8
0
  6
CONTINUOUS
 62
     1
 10
469.622218677
 20
683.333974596
 30
0.0
 11
469.622218677
 21
675.933974596
 31
0.0
  0
LINE
  8
0
  6
CONTINUOUS
 62
     1
 10
462.622218677
 20
678.433974596
 30
0.0
 11
468.23657803
 21
678.433974596
 31
0.0
  0
LINE
  8
0
  6
CONTINUOUS
 62
     1
 10
462.622218677
 20
683.333974596
 30
0.0
 11
462.622218677
 21
693.133974596
 31
0.0
  0
LINE
  8
0
  6
CONTINUOUS
 62
     1
 10
462.622218677
 20
693.133974596
 30
0.0
 11
468.23657803
 21
693.133974596
 31
0.0
  0
LINE
  8
0
  6
CONTINUOUS
 62
     1
 10
469.622218677
 20
690.733974596
 30
0.0
 11
468.23657803
 21
693.133974596
 31
0.0
  0
LINE
  8
0
  6
CONTINUOUS
 62
     1
 10
469.622218677
 20
683.333974596
 30
0.0
 11
469.622218677
 21
690.733974596
 31
0.0
  0
LINE
  8
0
  6
CONTINUOUS
 62
     1
 10
462.622218677
 20
688.233974596
 30
0.0
 11
468.23657803
 21
688.233974596
 31
0.0
  0
ARC
  8
0
  6
CONTINUOUS
 62
     1
 10
460.265535876
 20
683.333974596
 30
0.0
 40
9.3566828
 50
328.419912243
 51
31.580087757
  0
ARC
  8
0
  6
CONTINUOUS
 62
     1
 10
466.764334844
 20
675.983974596
 30
0.0
 40
2.858321186
 50
357.010501597
 51
58.997686085
  0
LINE
  8
0
  6
CONTINUOUS
 62
     1
 10
469.622218677
 20
690.733974596
 30
0.0
 11
468.23657803
 21
693.133974596
 31
0.0
  0
ARC
  8
0
  6
CONTINUOUS
 62
     1
 10
466.764334844
 20
690.683974596
 30
0.0
 40
2.858321186
 50
301.002313915
 51
2.989498403
  0
LINE
  8
0
  6
CONTINUOUS
 62
     1
 10
460.122218677
 20
674.133974596
 30
0.0
 11
462.622218677
 21
674.133974596
 31
0.0
  0
LINE
  8
0
  6
CONTINUOUS
 62
     1
 10
460.122218677
 20
683.333974596
 30
0.0
 11
462.622218672
 21
680.8339746
 31
0.0
  0
LINE
  8
0
  6
CONTINUOUS
 62
     1
 10
462.622218672
 20
683.333974596
 30
0.0
 11
460.122218677
 21
685.833974592
 31
0.0
  0
LINE
  8
0
  6
CONTINUOUS
 62
     1
 10
460.122218677
 20
692.533974596
 30
0.0
 11
462.622218677
 21
692.533974596
 31
0.0
  0
LINE
  8
0
  6
CONTINUOUS
 62
     1
 10
670.122218677
 20
801.669974596
 30
0.0
 11
523.122218677
 21
801.669974596
 31
0.0
  0
LINE
  8
0
  6
CONTINUOUS
 62
     1
 10
670.122218677
 20
781.669974596
 30
0.0
 11
523.122218677
 21
781.669974596
 31
0.0
  0
LINE
  8
0
  6
CONTINUOUS
 62
     1
 10
670.122218677
 20
761.669974596
 30
0.0
 11
523.122218677
 21
761.669974596
 31
0.0
  0
LINE
  8
0
  6
CONTINUOUS
 62
     1
 10
670.122218677
 20
721.669974596
 30
0.0
 11
523.122218677
 21
721.669974596
 31
0.0
  0
LINE
  8
0
  6
CONTINUOUS
 62
     1
 10
670.122218677
 20
701.669974596
 30
0.0
 11
523.122218677
 21
701.669974596
 31
0.0
  0
LINE
  8
0
  6
CONTINUOUS
 62
     1
 10
670.122218677
 20
681.669974596
 30
0.0
 11
523.122218677
 21
681.669974596
 31
0.0
  0
LINE
  8
0
  6
CONTINUOUS
 62
     1
 10
670.122218677
 20
661.669974596
 30
0.0
 11
523.122218677
 21
661.669974596
 31
0.0
  0
LINE
  8
0
  6
CONTINUOUS
 62
     1
 10
460.122218677
 20
641.669974596
 30
0.0
 11
460.122218677
 21
841.669974596
 31
0.0
  0
LINE
  8
0
  6
CONTINUOUS
 62
     1
 10
804.863735951
 20
757.618075862
 30
0.0
 11
804.863735951
 21
688.618075862
 31
0.0
  0
POINT
  8
0
  6
CONTINUOUS
 62
     1
 10
804.863735951
 20
688.618075862
 30
0.0
  0
LINE
  8
0
  6
CONTINUOUS
 62
     1
 10
804.863735951
 20
688.618075862
 30
0.0
 11
809.863735951
 21
688.618075862
 31
0.0
  0
POINT
  8
0
  6
CONTINUOUS
 62
     1
 10
809.863735951
 20
688.618075862
 30
0.0
  0
LINE
  8
0
  6
CONTINUOUS
 62
     1
 10
809.863735951
 20
688.618075862
 30
0.0
 11
809.863735951
 21
757.618075862
 31
0.0
  0
LINE
  8
0
  6
CONTINUOUS
 62
     1
 10
804.863735951
 20
757.618075862
 30
0.0
 11
814.663735951
 21
757.618075862
 31
0.0
  0
LINE
  8
0
  6
CONTINUOUS
 62
     1
 10
814.663735951
 20
725.72187333
 30
0.0
 11
814.663735951
 21
757.618075862
 31
0.0
  0
LINE
  8
0
  6
CONTINUOUS
 62
     1
 10
809.863735951
 20
725.72187333
 30
0.0
 11
814.663735951
 21
725.72187333
 31
0.0
  0
LINE
  8
0
  6
CONTINUOUS
 62
     1
 10
804.863735951
 20
745.869974596
 30
0.0
 11
798.163735951
 21
745.869974596
 31
0.0
  0
LINE
  8
0
  6
CONTINUOUS
 62
     1
 10
804.863735951
 20
737.469974596
 30
0.0
 11
798.163735951
 21
737.469974596
 31
0.0
  0
LINE
  8
0
  6
CONTINUOUS
 62
     1
 10
809.863735951
 20
701.419974596
 30
0.0
 11
815.263735951
 21
701.419974596
 31
0.0
  0
POINT
  8
0
  6
CONTINUOUS
 62
     1
 10
815.263735951
 20
701.419974596
 30
0.0
  0
LINE
  8
0
  6
CONTINUOUS
 62
     1
 10
815.263735951
 20
701.419974596
 30
0.0
 11
815.263735951
 21
692.619974596
 31
0.0
  0
POINT
  8
0
  6
CONTINUOUS
 62
     1
 10
815.263735951
 20
692.619974596
 30
0.0
  0
LINE
  8
0
  6
CONTINUOUS
 62
     1
 10
815.263735951
 20
692.619974596
 30
0.0
 11
809.963735951
 21
692.619974596
 31
0.0
  0
LINE
  8
0
  6
CONTINUOUS
 62
     1
 10
804.863735951
 20
698.619974596
 30
0.0
 11
795.963735951
 21
698.619974596
 31
0.0
  0
LINE
  8
0
  6
CONTINUOUS
 62
     1
 10
804.863735951
 20
695.519974596
 30
0.0
 11
795.663735951
 21
695.519974596
 31
0.0
  0
LINE
  8
0
  6
CONTINUOUS
 62
     1
 10
814.663735951
 20
755.069974596
 30
0.0
 11
818.122218677
 21
755.069974596
 31
0.0
  0
LINE
  8
0
  6
CONTINUOUS
 62
     1
 10
818.122218677
 20
755.069974596
 30
0.0
 11
818.122218677
 21
750.469974596
 31
0.0
  0
LINE
  8
0
  6
CONTINUOUS
 62
     1
 10
814.663735951
 20
750.469974596
 30
0.0
 11
818.122218677
 21
750.469974596
 31
0.0
  0
LINE
  8
0
  6
CONTINUOUS
 62
     1
 10
814.663735951
 20
728.269974596
 30
0.0
 11
818.122218677
 21
728.269974596
 31
0.0
  0
LINE
  8
0
  6
CONTINUOUS
 62
     1
 10
818.122218677
 20
728.269974596
 30
0.0
 11
818.122218677
 21
732.869974596
 31
0.0
  0
LINE
  8
0
  6
CONTINUOUS
 62
     1
 10
814.663735951
 20
732.869974596
 30
0.0
 11
818.122218677
 21
732.869974596
 31
0.0
  0
LINE
  8
0
  6
CONTINUOUS
 62
     1
 10
814.663735951
 20
739.369974596
 30
0.0
 11
818.122218677
 21
739.369974596
 31
0.0
  0
LINE
  8
0
  6
CONTINUOUS
 62
     1
 10
818.122218677
 20
739.369974596
 30
0.0
 11
818.122218677
 21
743.969974596
 31
0.0
  0
LINE
  8
0
  6
CONTINUOUS
 62
     1
 10
814.663735951
 20
743.969974596
 30
0.0
 11
818.122218677
 21
743.969974596
 31
0.0
  0
LINE
  8
0
  6
LTYPE2
 62
     2
 10
790.963735951
 20
697.119974596
 30
0.0
 11
820.963735951
 21
697.119974596
 31
0.0
  0
LINE
  8
0
  6
CONTINUOUS
 62
     1
 10
670.122218677
 20
821.669974596
 30
0.0
 11
523.122218677
 21
821.669974596
 31
0.0
  0
LINE
  8
0
  6
CONTINUOUS
 62
     1
 10
686.622218677
 20
854.669974596
 30
0.0
 11
686.622218677
 21
894.669974596
 31
0.0
  0
LINE
  8
0
  6
CONTINUOUS
 62
     1
 10
667.622218677
 20
929.669974596
 30
0.0
 11
519.622218677
 21
855.669974596
 31
0.0
  0
LINE
  8
0
  6
CONTINUOUS
 62
     1
 10
672.094354632
 20
920.725702686
 30
0.0
 11
524.094354632
 21
846.725702686
 31
0.0
  0
ARC
  8
0
  6
CONTINUOUS
 62
     1
 10
641.622218677
 20
853.669974596
 30
0.0
 40
10.0
 50
270.0
 51
0.0
  0
ARC
  8
0
  6
CONTINUOUS
 62
     1
 10
641.622218677
 20
919.669974596
 30
0.0
 40
10.0
 50
0.0
 51
90.0
  0
LINE
  8
0
  6
CONTINUOUS
 62
     1
 10
641.622218677
 20
929.669974596
 30
0.0
 11
551.622218677
 21
929.669974596
 31
0.0
  0
ARC
  8
0
  6
CONTINUOUS
 62
     1
 10
551.622218677
 20
919.669974596
 30
0.0
 40
10.0
 50
90.0
 51
180.0
  0
LINE
  8
0
  6
CONTINUOUS
 62
     1
 10
641.622218677
 20
843.669974596
 30
0.0
 11
551.622218677
 21
843.669974596
 31
0.0
  0
ARC
  8
0
  6
CONTINUOUS
 62
     1
 10
551.622218677
 20
853.669974596
 30
0.0
 40
10.0
 50
180.0
 51
270.0
  0
LINE
  8
0
  6
CONTINUOUS
 62
     1
 10
519.622218677
 20
855.669974596
 30
0.0
 11
524.094354632
 21
846.725702686
 31
0.0
  0
LINE
  8
0
  6
CONTINUOUS
 62
     1
 10
541.622218677
 20
866.585702686
 30
0.0
 11
541.622218677
 21
919.669974596
 31
0.0
  0
LINE
  8
0
  6
CONTINUOUS
 62
     1
 10
541.622218677
 20
853.669974596
 30
0.0
 11
541.622218677
 21
855.585702686
 31
0.0
  0
LINE
  8
0
  6
CONTINUOUS
 62
     1
 10
651.622218677
 20
853.669974596
 30
0.0
 11
651.622218677
 21
909.585702686
 31
0.0
  0
LINE
  8
0
  6
CONTINUOUS
 62
     1
 10
667.834354632
 20
930.465702686
 30
0.0
 11
672.634354632
 21
921.265702686
 31
0.0
  0
LINE
  8
0
  6
CONTINUOUS
 62
     1
 10
686.622218677
 20
894.669974596
 30
0.0
 11
651.622218677
 21
894.669974596
 31
0.0
  0
LINE
  8
0
  6
CONTINUOUS
 62
     1
 10
686.622218677
 20
854.669974596
 30
0.0
 11
651.622218677
 21
854.669974596
 31
0.0
  0
LINE
  8
0
  6
LTYPE2
 62
     2
 10
692.774354632
 20
874.669974596
 30
0.0
 11
641.674354632
 21
874.669974596
 31
0.0
  0
LINE
  8
0
  6
LTYPE2
 62
     2
 10
596.622218677
 20
830.419974596
 30
0.0
 11
596.622218677
 21
939.469974596
 31
0.0
  0
LINE
  8
0
  6
CONTINUOUS
 62
     1
 10
680.122218677
 20
841.669974596
 30
0.0
 11
775.93660727
 21
841.669974596
 31
0.0
  0
ARC
  8
0
  6
CONTINUOUS
 62
     1
 10
773.93660727
 20
826.669974596
 30
0.0
 40
15.0
 50
10.945397096
 51
90.0
  0
ARC
  8
0
  6
CONTINUOUS
 62
     1
 10
774.045732594
 20
829.363914968
 30
0.0
 40
15.0
 50
10.945397096
 51
90.0
  0
LINE
  8
0
  6
CONTINUOUS
 62
     1
 10
680.122218677
 20
844.169974596
 30
0.0
 11
775.93660727
 21
844.169974596
 31
0.0
  0
ARC
  8
0
  6
CONTINUOUS
 62
     1
 10
773.93660727
 20
656.669974596
 30
0.0
 40
15.0
 50
270.0
 51
349.054602904
  0
ARC
  8
0
  6
CONTINUOUS
 62
     1
 10
388.122218677
 20
741.669974596
 30
0.0
 40
410.0
 50
347.629566941
 51
12.370433059
  0
LINE
  8
0
  6
CONTINUOUS
 62
     1
 10
680.122218677
 20
832.369974596
 30
0.0
 11
513.122218677
 21
832.369974596
 31
0.0
  0
LINE
  8
0
  6
CONTINUOUS
 62
     1
 10
513.122218677
 20
650.969974596
 30
0.0
 11
513.122218677
 21
832.369974596
 31
0.0
  0
LINE
  8
0
  6
CONTINUOUS
 62
     1
 10
631.522218677
 20
843.669974596
 30
0.0
 11
631.522218677
 21
832.369974596
 31
0.0
  0
LINE
  8
0
  6
CONTINUOUS
 62
     1
 10
561.722218677
 20
843.669974596
 30
0.0
 11
561.722218677
 21
832.369974596
 31
0.0
  0
ARC
  8
0
  6
CONTINUOUS
 62
     1
 10
787.997199139
 20
751.669974596
 30
0.0
 40
10.0
 50
1.432543738
 51
90.0
  0
ARC
  8
0
  6
CONTINUOUS
 62
     1
 10
787.997199139
 20
731.669974596
 30
0.0
 40
10.0
 50
270.0
 51
358.567456262
  0
LINE
  8
0
  6
CONTINUOUS
 62
     1
 10
787.997217827
 20
761.669974596
 30
0.0
 11
680.122218677
 21
761.669974596
 31
0.0
  0
LINE
  8
0
  6
CONTINUOUS
 62
     1
 10
680.122218677
 20
721.669974596
 30
0.0
 11
788.497217827
 21
721.669974596
 31
0.0
  0
LINE
  8
0
  6
CONTINUOUS
 62
     1
 10
460.122218677
 20
841.669974596
 30
0.0
 11
448.122218677
 21
841.669974596
 31
0.0
  0
LINE
  8
0
  6
CONTINUOUS
 62
     1
 10
460.122218677
 20
641.669974596
 30
0.0
 11
448.122218677
 21
641.669974596
 31
0.0
  0
LINE
  8
0
  6
CONTINUOUS
 62
     1
 10
680.122218677
 20
650.969974596
 30
0.0
 11
513.122218677
 21
650.969974596
 31
0.0
  0
ARC
  8
0
  6
CONTINUOUS
 62
     1
 10
774.045732594
 20
653.976034225
 30
0.0
 40
15.0
 50
270.0
 51
349.054602904
  0
LINE
  8
0
  6
CONTINUOUS
 62
     1
 10
680.122218677
 20
641.669974596
 30
0.0
 11
775.93660727
 21
641.669974596
 31
0.0
  0
LINE
  8
0
  6
CONTINUOUS
 62
     1
 10
680.122218677
 20
639.169974596
 30
0.0
 11
775.93660727
 21
639.169974596
 31
0.0
  0
LINE
  8
0
  6
CONTINUOUS
 62
     1
 10
680.122218677
 20
639.169974596
 30
0.0
 11
680.122218677
 21
844.169974596
 31
0.0
  0
LINE
  8
2
  6
CONTINUOUS
 62
     2
 10
687.622218677
 20
881.069974596
 30
0.0
 11
696.368871558
 21
899.055970909
 31
0.0
  0
LINE
  8
2
  6
CONTINUOUS
 62
     2
 10
687.622218677
 20
881.069974596
 30
0.0
 11
686.204044114
 21
901.019630756
 31
0.0
  0
LINE
  8
2
  6
CONTINUOUS
 62
     2
 10
687.622218677
 20
881.069974596
 30
0.0
 11
696.122218677
 21
925.069974596
 31
0.0
  0
LINE
  8
0
  6
LTYPE2
 62
     2
 10
452.622218677
 20
800.005974596
 30
0.0
 11
478.23657803
 21
800.005974596
 31
0.0
  0
LINE
  8
0
  6
LTYPE2
 62
     2
 10
452.622218677
 20
683.333974596
 30
0.0
 11
478.23657803
 21
683.333974596
 31
0.0
  0
LINE
  8
0
  6
CONTINUOUS
 62
     2
 10
868.522218677
 20
922.869974596
 30
0.0
 11
969.122218677
 21
922.869974596
 31
0.0
  0
LINE
  8
2
  6
CONTINUOUS
 62
     2
 10
810.797846712
 20
758.524942545
 30
0.0
 11
817.851518171
 21
768.844618845
 31
0.0
  0
LINE
  8
2
  6
CONTINUOUS
 62
     2
 10
810.797846712
 20
758.524942545
 30
0.0
 11
811.746667235
 21
770.98888011
 31
0.0
  0
LINE
  8
2
  6
CONTINUOUS
 62
     2
 10
810.797846712
 20
758.524942545
 30
0.0
 11
868.522218677
 21
922.869974596
 31
0.0
  0
LINE
  8
2
  6
CONTINUOUS
 62
     2
 10
880.150020072
 20
844.169974596
 30
0.0
 11
876.914782008
 21
832.095901768
 31
0.0
  0
LINE
  8
2
  6
CONTINUOUS
 62
     2
 10
880.150020072
 20
844.169974596
 30
0.0
 11
883.385258136
 21
832.095901768
 31
0.0
  0
LINE
  8
2
  6
CONTINUOUS
 62
     2
 10
880.150020072
 20
844.169974596
 30
0.0
 11
880.150020072
 21
639.169974596
 31
0.0
  0
LINE
  8
2
  6
CONTINUOUS
 62
     2
 10
880.150020072
 20
639.169974596
 30
0.0
 11
883.385258136
 21
651.244047425
 31
0.0
  0
LINE
  8
2
  6
CONTINUOUS
 62
     2
 10
880.150020072
 20
639.169974596
 30
0.0
 11
876.914782008
 21
651.244047425
 31
0.0
  0
LINE
  8
2
  6
CONTINUOUS
 62
     2
 10
781.450020072
 20
639.169974596
 30
0.0
 11
890.150020072
 21
639.169974596
 31
0.0
  0
LINE
  8
0
  6
LTYPE3
 62
     2
 10
306.672218677
 20
741.833974596
 30
0.0
 11
829.122218677
 21
741.833974596
 31
0.0
  0
LINE
  8
0
  6
CONTINUOUS
 62
     1
 10
653.122218677
 20
505.833974596
 30
0.0
 11
653.122218677
 21
625.833974596
 31
0.0
  0
LINE
  8
0
  6
CONTINUOUS
 62
     1
 10
463.122218677
 20
625.833974596
 30
0.0
 11
653.122218677
 21
625.833974596
 31
0.0
  0
LINE
  8
0
  6
CONTINUOUS
 62
     1
 10
645.122218677
 20
505.833974596
 30
0.0
 11
653.122218677
 21
505.833974596
 31
0.0
  0
LINE
  8
0
  6
CONTINUOUS
 62
     1
 10
463.122218677
 20
505.833974596
 30
0.0
 11
571.122218677
 21
505.833974596
 31
0.0
  0
LINE
  8
0
  6
CONTINUOUS
 62
     1
 10
571.122218677
 20
498.333974596
 30
0.0
 11
571.122218677
 21
540.333974596
 31
0.0
  0
LINE
  8
0
  6
CONTINUOUS
 62
     1
 10
653.122218677
 20
623.833974596
 30
0.0
 11
662.122218677
 21
623.833974596
 31
0.0
  0
LINE
  8
0
  6
CONTINUOUS
 62
     1
 10
653.122218677
 20
626.833974596
 30
0.0
 11
662.122218677
 21
626.833974596
 31
0.0
  0
LINE
  8
0
  6
CONTINUOUS
 62
     1
 10
653.122218677
 20
570.833974596
 30
0.0
 11
662.122218677
 21
570.833974596
 31
0.0
  0
LINE
  8
0
  6
CONTINUOUS
 62
     1
 10
653.122218677
 20
560.833974596
 30
0.0
 11
662.122218677
 21
560.833974596
 31
0.0
  0
LINE
  8
0
  6
CONTINUOUS
 62
     1
 10
653.122218677
 20
507.833974596
 30
0.0
 11
662.122218677
 21
507.833974596
 31
0.0
  0
LINE
  8
0
  6
CONTINUOUS
 62
     1
 10
653.122218677
 20
504.833974596
 30
0.0
 11
662.122218677
 21
504.833974596
 31
0.0
  0
LINE
  8
0
  6
CONTINUOUS
 62
     1
 10
662.122218677
 20
505.833974596
 30
0.0
 11
662.122218677
 21
625.833974596
 31
0.0
  0
CIRCLE
  8
0
  6
CONTINUOUS
 62
     1
 10
809.04722658
 20
565.833974596
 30
0.0
 40
19.5
  0
LINE
  8
0
  6
CONTINUOUS
 62
     1
 10
789.04722658
 20
585.833974596
 30
0.0
 11
829.04722658
 21
585.833974596
 31
0.0
  0
LINE
  8
0
  6
CONTINUOUS
 62
     1
 10
829.04722658
 20
545.833974596
 30
0.0
 11
829.04722658
 21
585.833974596
 31
0.0
  0
LINE
  8
0
  6
CONTINUOUS
 62
     1
 10
789.04722658
 20
545.833974596
 30
0.0
 11
829.04722658
 21
545.833974596
 31
0.0
  0
LINE
  8
0
  6
CONTINUOUS
 62
     1
 10
789.04722658
 20
545.833974596
 30
0.0
 11
789.04722658
 21
585.833974596
 31
0.0
  0
LINE
  8
0
  6
LTYPE3
 62
     2
 10
809.04722658
 20
540.733974596
 30
0.0
 11
809.04722658
 21
590.633974596
 31
0.0
  0
LINE
  8
0
  6
CONTINUOUS
 62
     1
 10
1000.522218677
 20
510.833974596
 30
0.0
 11
662.122218677
 21
510.833974596
 31
0.0
  0
LINE
  8
2
  6
CONTINUOUS
 62
     2
 10
752.122218677
 20
620.833974596
 30
0.0
 11
748.886980613
 21
608.759901768
 31
0.0
  0
LINE
  8
2
  6
CONTINUOUS
 62
     2
 10
752.122218677
 20
620.833974596
 30
0.0
 11
755.35745674
 21
608.759901768
 31
0.0
  0
LINE
  8
2
  6
CONTINUOUS
 62
     2
 10
752.122218677
 20
620.833974596
 30
0.0
 11
752.122218677
 21
510.833974596
 31
0.0
  0
LINE
  8
2
  6
CONTINUOUS
 62
     2
 10
752.122218677
 20
510.833974596
 30
0.0
 11
755.35745674
 21
522.908047425
 31
0.0
  0
LINE
  8
2
  6
CONTINUOUS
 62
     2
 10
752.122218677
 20
510.833974596
 30
0.0
 11
748.886980613
 21
522.908047425
 31
0.0
  0
LINE
  8
2
  6
CONTINUOUS
 62
     2
 10
969.269690177
 20
640.833974596
 30
0.0
 11
904.622218677
 21
640.833974596
 31
0.0
  0
LINE
  8
2
  6
CONTINUOUS
 62
     2
 10
914.622218677
 20
640.833974596
 30
0.0
 11
911.386980613
 21
628.759901768
 31
0.0
  0
LINE
  8
2
  6
CONTINUOUS
 62
     2
 10
914.622218677
 20
640.833974596
 30
0.0
 11
917.85745674
 21
628.759901768
 31
0.0
  0
LINE
  8
2
  6
CONTINUOUS
 62
     2
 10
914.622218677
 20
640.833974596
 30
0.0
 11
914.622218677
 21
490.833974596
 31
0.0
  0
LINE
  8
2
  6
CONTINUOUS
 62
     2
 10
914.622218677
 20
490.833974596
 30
0.0
 11
917.85745674
 21
502.908047425
 31
0.0
  0
LINE
  8
2
  6
CONTINUOUS
 62
     2
 10
914.622218677
 20
490.833974596
 30
0.0
 11
911.386980613
 21
502.908047425
 31
0.0
  0
LINE
  8
2
  6
CONTINUOUS
 62
     2
 10
969.269690177
 20
490.833974596
 30
0.0
 11
904.622218677
 21
490.833974596
 31
0.0
  0
LINE
  8
2
  6
CONTINUOUS
 62
     2
 10
533.122218677
 20
330.833974596
 30
0.0
 11
533.122218677
 21
305.833974596
 31
0.0
  0
LINE
  8
2
  6
CONTINUOUS
 62
     2
 10
533.122218677
 20
315.833974596
 30
0.0
 11
545.196291505
 21
312.598736532
 31
0.0
  0
LINE
  8
2
  6
CONTINUOUS
 62
     2
 10
533.122218677
 20
315.833974596
 30
0.0
 11
545.196291505
 21
319.06921266
 31
0.0
  0
LINE
  8
2
  6
CONTINUOUS
 62
     2
 10
533.122218677
 20
285.833974596
 30
0.0
 11
533.122218677
 21
273.833974596
 31
0.0
  0
LINE
  8
2
  6
CONTINUOUS
 62
     2
 10
696.122218677
 20
925.069974596
 30
0.0
 11
813.722218677
 21
925.069974596
 31
0.0
  0
LINE
  8
2
  6
CONTINUOUS
 62
     2
 10
781.450020072
 20
844.169974596
 30
0.0
 11
890.150020072
 21
844.169974596
 31
0.0
  0
LINE
  8
2
  6
CONTINUOUS
 62
     2
 10
797.722218677
 20
576.833974596
 30
0.0
 11
802.800970491
 21
588.255720523
 31
0.0
  0
LINE
  8
2
  6
CONTINUOUS
 62
     2
 10
797.722218677
 20
576.833974596
 30
0.0
 11
796.409673804
 21
589.264872631
 31
0.0
  0
LINE
  8
2
  6
CONTINUOUS
 62
     2
 10
797.722218677
 20
576.833974596
 30
0.0
 11
800.722218677
 21
595.833974596
 31
0.0
  0
LINE
  8
2
  6
CONTINUOUS
 62
     2
 10
800.722218677
 20
595.833974596
 30
0.0
 11
844.222218677
 21
595.833974596
 31
0.0
  0
LINE
  8
2
  6
CONTINUOUS
 62
     2
 10
448.122218677
 20
961.333974596
 30
0.0
 11
460.196291505
 21
958.098736532
 31
0.0
  0
LINE
  8
2
  6
CONTINUOUS
 62
     2
 10
448.122218677
 20
961.333974596
 30
0.0
 11
460.196291505
 21
964.56921266
 31
0.0
  0
LINE
  8
2
  6
CONTINUOUS
 62
     2
 10
448.122218677
 20
961.333974596
 30
0.0
 11
818.122218677
 21
961.333974596
 31
0.0
  0
LINE
  8
2
  6
CONTINUOUS
 62
     2
 10
818.122218677
 20
961.333974596
 30
0.0
 11
806.048145848
 21
964.56921266
 31
0.0
  0
LINE
  8
2
  6
CONTINUOUS
 62
     2
 10
818.122218677
 20
961.333974596
 30
0.0
 11
806.048145848
 21
958.098736532
 31
0.0
  0
LINE
  8
2
  6
CONTINUOUS
 62
     2
 10
818.122218677
 20
760.069974596
 30
0.0
 11
818.122218677
 21
971.333974596
 31
0.0
  0
LINE
  8
2
  6
CONTINUOUS
 62
     2
 10
448.122218677
 20
851.833974596
 30
0.0
 11
448.122218677
 21
971.333974596
 31
0.0
  0
LINE
  8
2
  6
CONTINUOUS
 62
     2
 10
448.122218677
 20
943.333974596
 30
0.0
 11
448.122218677
 21
971.333974596
 31
0.0
  0
LINE
  8
0
  6
CONTINUOUS
 62
     1
 10
948.94722658
 20
620.833974596
 30
0.0
 11
662.122218677
 21
620.833974596
 31
0.0
  0
LINE
  8
2
  6
CONTINUOUS
 62
     2
 10
533.122218677
 20
297.833974596
 30
0.0
 11
533.122218677
 21
273.833974596
 31
0.0
  0
LINE
  8
2
  6
CONTINUOUS
 62
     2
 10
533.122218677
 20
283.833974596
 30
0.0
 11
545.196291505
 21
280.598736532
 31
0.0
  0
LINE
  8
2
  6
CONTINUOUS
 62
     2
 10
533.122218677
 20
283.833974596
 30
0.0
 11
545.196291505
 21
287.06921266
 31
0.0
  0
LINE
  8
2
  6
CONTINUOUS
 62
     2
 10
336.122218677
 20
466.833974596
 30
0.0
 11
336.122218677
 21
233.833974596
 31
0.0
  0
LINE
  8
2
  6
CONTINUOUS
 62
     2
 10
336.122218677
 20
243.833974596
 30
0.0
 11
348.196291505
 21
240.598736532
 31
0.0
  0
LINE
  8
2
  6
CONTINUOUS
 62
     2
 10
336.122218677
 20
243.833974596
 30
0.0
 11
348.196291505
 21
247.06921266
 31
0.0
  0
LINE
  8
2
  6
CONTINUOUS
 62
     2
 10
533.122218677
 20
315.833974596
 30
0.0
 11
1000.522218677
 21
315.833974596
 31
0.0
  0
LINE
  8
2
  6
CONTINUOUS
 62
     2
 10
336.122218677
 20
243.833974596
 30
0.0
 11
1125.694467556
 21
243.833974596
 31
0.0
  0
LINE
  8
2
  6
CONTINUOUS
 62
     2
 10
533.122218677
 20
283.833974596
 30
0.0
 11
1125.694467556
 21
283.833974596
 31
0.0
  0
LINE
  8
0
  6
LTYPE3
 62
     2
 10
1150.005690951
 20
565.833974596
 30
0.0
 11
922.622218677
 21
565.833974596
 31
0.0
  0
LINE
  8
0
  6
LTYPE3
 62
     2
 10
888.622218677
 20
565.833974596
 30
0.0
 11
757.622218677
 21
565.833974596
 31
0.0
  0
LINE
  8
0
  6
LTYPE2
 62
     2
 10
1126.722218677
 20
860.133974596
 30
0.0
 11
1142.722218677
 21
860.133974596
 31
0.0
  0
CIRCLE
  8
0
  6
CONTINUOUS
 62
     1
 10
1133.722218677
 20
860.133974596
 30
0.0
 40
3.0
  0
LINE
  8
0
  6
CONTINUOUS
 62
     1
 10
1088.722218677
 20
837.533974596
 30
0.0
 11
1163.722218677
 21
837.533974596
 31
0.0
  0
LINE
  8
0
  6
CONTINUOUS
 62
     1
 10
1163.722218677
 20
852.533974596
 30
0.0
 11
1163.722218677
 21
837.533974596
 31
0.0
  0
LINE
  8
0
  6
CONTINUOUS
 62
     1
 10
1088.722218677
 20
822.533974596
 30
0.0
 11
1088.722218677
 21
837.533974596
 31
0.0
  0
LINE
  8
0
  6
CONTINUOUS
 62
     1
 10
1159.222218677
 20
856.533974596
 30
0.0
 11
1159.222218677
 21
852.533974596
 31
0.0
  0
LINE
  8
0
  6
CONTINUOUS
 62
     1
 10
1146.222218677
 20
866.533974596
 30
0.0
 11
1146.222218677
 21
856.533974596
 31
0.0
  0
LINE
  8
0
  6
LTYPE1
 62
     2
 10
1146.222218677
 20
837.533974596
 30
0.0
 11
1146.222218677
 21
852.533974596
 31
0.0
  0
LINE
  8
0
  6
CONTINUOUS
 62
     1
 10
1146.222218677
 20
822.533974596
 30
0.0
 11
1146.222218677
 21
837.533974596
 31
0.0
  0
LINE
  8
0
  6
CONTINUOUS
 62
     1
 10
1108.222218677
 20
856.533974596
 30
0.0
 11
1108.222218677
 21
852.533974596
 31
0.0
  0
LINE
  8
0
  6
LTYPE1
 62
     2
 10
1121.222218677
 20
837.533974596
 30
0.0
 11
1121.222218677
 21
852.533974596
 31
0.0
  0
LINE
  8
0
  6
CONTINUOUS
 62
     1
 10
1121.222218677
 20
822.533974596
 30
0.0
 11
1121.222218677
 21
837.533974596
 31
0.0
  0
LINE
  8
0
  6
CONTINUOUS
 62
     1
 10
1121.222218677
 20
866.533974596
 30
0.0
 11
1121.222218677
 21
856.533974596
 31
0.0
  0
LINE
  8
0
  6
CONTINUOUS
 62
     1
 10
1121.222218677
 20
866.533974596
 30
0.0
 11
1146.222218677
 21
866.533974596
 31
0.0
  0
LINE
  8
0
  6
CONTINUOUS
 62
     1
 10
1108.222218677
 20
856.533974596
 30
0.0
 11
1159.222218677
 21
856.533974596
 31
0.0
  0
LINE
  8
0
  6
LTYPE2
 62
     2
 10
1126.722218677
 20
784.933974596
 30
0.0
 11
1142.722218677
 21
784.933974596
 31
0.0
  0
CIRCLE
  8
0
  6
CONTINUOUS
 62
     1
 10
1133.722218677
 20
784.933974596
 30
0.0
 40
3.0
  0
LINE
  8
0
  6
CONTINUOUS
 62
     1
 10
1088.722218677
 20
807.533974596
 30
0.0
 11
1163.722218677
 21
807.533974596
 31
0.0
  0
LINE
  8
0
  6
CONTINUOUS
 62
     1
 10
1163.722218677
 20
792.533974596
 30
0.0
 11
1163.722218677
 21
807.533974596
 31
0.0
  0
LINE
  8
0
  6
CONTINUOUS
 62
     1
 10
1088.722218677
 20
822.533974596
 30
0.0
 11
1088.722218677
 21
807.533974596
 31
0.0
  0
LINE
  8
0
  6
CONTINUOUS
 62
     1
 10
1159.222218677
 20
788.533974596
 30
0.0
 11
1159.222218677
 21
792.533974596
 31
0.0
  0
LINE
  8
0
  6
CONTINUOUS
 62
     1
 10
1146.222218677
 20
778.533974596
 30
0.0
 11
1146.222218677
 21
788.533974596
 31
0.0
  0
LINE
  8
0
  6
LTYPE1
 62
     2
 10
1146.222218677
 20
807.533974596
 30
0.0
 11
1146.222218677
 21
792.533974596
 31
0.0
  0
LINE
  8
0
  6
CONTINUOUS
 62
     1
 10
1146.222218677
 20
822.533974596
 30
0.0
 11
1146.222218677
 21
807.533974596
 31
0.0
  0
LINE
  8
0
  6
CONTINUOUS
 62
     1
 10
1108.222218677
 20
788.533974596
 30
0.0
 11
1108.222218677
 21
792.533974596
 31
0.0
  0
LINE
  8
0
  6
LTYPE1
 62
     2
 10
1121.222218677
 20
807.533974596
 30
0.0
 11
1121.222218677
 21
792.533974596
 31
0.0
  0
LINE
  8
0
  6
CONTINUOUS
 62
     1
 10
1121.222218677
 20
822.533974596
 30
0.0
 11
1121.222218677
 21
807.533974596
 31
0.0
  0
LINE
  8
0
  6
CONTINUOUS
 62
     1
 10
1121.222218677
 20
778.533974596
 30
0.0
 11
1121.222218677
 21
788.533974596
 31
0.0
  0
LINE
  8
0
  6
CONTINUOUS
 62
     1
 10
1121.222218677
 20
778.533974596
 30
0.0
 11
1146.222218677
 21
778.533974596
 31
0.0
  0
LINE
  8
0
  6
CONTINUOUS
 62
     1
 10
1108.222218677
 20
788.533974596
 30
0.0
 11
1159.222218677
 21
788.533974596
 31
0.0
  0
LINE
  8
0
  6
LTYPE2
 62
     2
 10
1133.722218677
 20
769.533974596
 30
0.0
 11
1133.722218677
 21
872.533974596
 31
0.0
  0
LINE
  8
7
  6
CONTINUOUS
 62
     2
 10
1171.222218677
 20
837.533974596
 30
0.0
 11
1209.122218677
 21
837.533974596
 31
0.0
  0
LINE
  8
7
  6
CONTINUOUS
 62
     2
 10
1201.622218677
 20
837.533974596
 30
0.0
 11
1198.386980613
 21
825.459901768
 31
0.0
  0
LINE
  8
7
  6
CONTINUOUS
 62
     2
 10
1201.622218677
 20
837.533974596
 30
0.0
 11
1204.85745674
 21
825.459901768
 31
0.0
  0
LINE
  8
7
  6
CONTINUOUS
 62
     2
 10
1201.622218677
 20
837.533974596
 30
0.0
 11
1201.622218677
 21
807.533974596
 31
0.0
  0
LINE
  8
7
  6
CONTINUOUS
 62
     2
 10
1201.622218677
 20
807.533974596
 30
0.0
 11
1204.85745674
 21
819.608047425
 31
0.0
  0
LINE
  8
7
  6
CONTINUOUS
 62
     2
 10
1201.622218677
 20
807.533974596
 30
0.0
 11
1198.386980613
 21
819.608047425
 31
0.0
  0
LINE
  8
7
  6
CONTINUOUS
 62
     2
 10
1171.222218677
 20
807.533974596
 30
0.0
 11
1209.122218677
 21
807.533974596
 31
0.0
  0
LINE
  8
7
  6
CONTINUOUS
 62
     2
 10
1171.222218677
 20
852.533974596
 30
0.0
 11
1246.122218677
 21
852.533974596
 31
0.0
  0
LINE
  8
7
  6
CONTINUOUS
 62
     2
 10
1238.622218677
 20
852.533974596
 30
0.0
 11
1235.386980613
 21
840.459901768
 31
0.0
  0
LINE
  8
7
  6
CONTINUOUS
 62
     2
 10
1238.622218677
 20
852.533974596
 30
0.0
 11
1241.85745674
 21
840.459901768
 31
0.0
  0
LINE
  8
7
  6
CONTINUOUS
 62
     2
 10
1238.622218677
 20
852.533974596
 30
0.0
 11
1238.622218677
 21
792.533974596
 31
0.0
  0
LINE
  8
7
  6
CONTINUOUS
 62
     2
 10
1238.622218677
 20
792.533974596
 30
0.0
 11
1241.85745674
 21
804.608047425
 31
0.0
  0
LINE
  8
7
  6
CONTINUOUS
 62
     2
 10
1238.622218677
 20
792.533974596
 30
0.0
 11
1235.386980613
 21
804.608047425
 31
0.0
  0
LINE
  8
7
  6
CONTINUOUS
 62
     2
 10
1171.222218677
 20
792.533974596
 30
0.0
 11
1246.122218677
 21
792.533974596
 31
0.0
  0
LINE
  8
0
  6
CONTINUOUS
 62
     1
 10
1073.722218677
 20
822.533974596
 30
0.0
 11
1073.722218677
 21
852.533974596
 31
0.0
  0
LINE
  8
0
  6
CONTINUOUS
 62
     1
 10
1073.722218677
 20
852.533974596
 30
0.0
 11
1163.722218677
 21
852.533974596
 31
0.0
  0
LINE
  8
0
  6
CONTINUOUS
 62
     1
 10
1073.722218677
 20
792.533974596
 30
0.0
 11
1163.722218677
 21
792.533974596
 31
0.0
  0
LINE
  8
0
  6
CONTINUOUS
 62
     1
 10
1073.722218677
 20
822.533974596
 30
0.0
 11
1073.722218677
 21
792.533974596
 31
0.0
  0
LINE
  8
0
  6
LTYPE2
 62
     2
 10
1010.622218677
 20
822.533974596
 30
0.0
 11
1171.622218677
 21
822.533974596
 31
0.0
  0
LINE
  8
0
  6
CONTINUOUS
 62
     1
 10
1032.478996404
 20
883.275155551
 30
0.0
 11
1036.101036614
 21
896.792793641
 31
0.0
  0
ARC
  8
0
  6
CONTINUOUS
 62
     1
 10
1031.513070578
 20
883.533974596
 30
0.0
 40
1.0
 50
270.0
 51
345.0
  0
LINE
  8
0
  6
CONTINUOUS
 62
     1
 10
1061.222218677
 20
863.033974596
 30
0.0
 11
1071.222218677
 21
863.033974596
 31
0.0
  0
LINE
  8
0
  6
CONTINUOUS
 62
     1
 10
1071.16696244
 20
861.033974596
 30
0.0
 11
1073.722218677
 21
861.033974596
 31
0.0
  0
LINE
  8
0
  6
CONTINUOUS
 62
     1
 10
1058.722218677
 20
861.033974596
 30
0.0
 11
1061.16696244
 21
861.033974596
 31
0.0
  0
LINE
  8
0
  6
CONTINUOUS
 62
     1
 10
1071.222218677
 20
863.033974596
 30
0.0
 11
1071.222218677
 21
822.533974596
 31
0.0
  0
LINE
  8
0
  6
CONTINUOUS
 62
     1
 10
1058.722218677
 20
861.033974596
 30
0.0
 11
1058.722218677
 21
822.533974596
 31
0.0
  0
LINE
  8
0
  6
CONTINUOUS
 62
     1
 10
1061.222218677
 20
863.033974596
 30
0.0
 11
1061.222218677
 21
822.533974596
 31
0.0
  0
LINE
  8
0
  6
CONTINUOUS
 62
     1
 10
1058.722218677
 20
861.033974596
 30
0.0
 11
1049.140671991
 21
896.792793641
 31
0.0
  0
LINE
  8
0
  6
CONTINUOUS
 62
     1
 10
1043.586780129
 20
883.275155551
 30
0.0
 11
1047.208820339
 21
896.792793641
 31
0.0
  0
ARC
  8
0
  6
CONTINUOUS
 62
     1
 10
1042.620854302
 20
883.533974596
 30
0.0
 40
1.0
 50
270.0
 51
345.0
  0
ARC
  8
0
  6
CONTINUOUS
 62
     1
 10
1042.620854302
 20
883.533974596
 30
0.0
 40
1.0
 50
195.0
 51
270.0
  0
LINE
  8
0
  6
CONTINUOUS
 62
     1
 10
1041.654928476
 20
883.275155551
 30
0.0
 11
1038.032888266
 21
896.792793641
 31
0.0
  0
LINE
  8
0
  6
CONTINUOUS
 62
     1
 10
1031.513070578
 20
882.533974596
 30
0.0
 11
1031.513070578
 21
822.533974596
 31
0.0
  0
LINE
  8
0
  6
CONTINUOUS
 62
     1
 10
1037.06696244
 20
897.533974596
 30
0.0
 11
1037.06696244
 21
822.533974596
 31
0.0
  0
LINE
  8
0
  6
CONTINUOUS
 62
     1
 10
1048.174746165
 20
897.533974596
 30
0.0
 11
1048.174746165
 21
822.533974596
 31
0.0
  0
LINE
  8
0
  6
CONTINUOUS
 62
     1
 10
1042.620854302
 20
882.533974596
 30
0.0
 11
1042.620854302
 21
822.533974596
 31
0.0
  0
LINE
  8
0
  6
LTYPE4
 62
     2
 10
1011.722218677
 20
882.533974596
 30
0.0
 11
1031.372218677
 21
882.533974596
 31
0.0
  0
ARC
  8
0
  6
CONTINUOUS
 62
     1
 10
1037.06696244
 20
748.533974596
 30
0.0
 40
1.0
 50
195.0
 51
270.0
  0
LINE
  8
0
  6
CONTINUOUS
 62
     1
 10
1032.478996404
 20
761.792793641
 30
0.0
 11
1036.101036614
 21
748.275155551
 31
0.0
  0
ARC
  8
0
  6
CONTINUOUS
 62
     1
 10
1031.513070578
 20
761.533974596
 30
0.0
 40
1.0
 50
15.0
 51
90.0
  0
LINE
  8
0
  6
CONTINUOUS
 62
     1
 10
1061.222218677
 20
782.033974596
 30
0.0
 11
1071.222218677
 21
782.033974596
 31
0.0
  0
LINE
  8
0
  6
CONTINUOUS
 62
     1
 10
1071.16696244
 20
784.033974596
 30
0.0
 11
1073.722218677
 21
784.033974596
 31
0.0
  0
LINE
  8
0
  6
CONTINUOUS
 62
     1
 10
1058.722218677
 20
784.033974596
 30
0.0
 11
1061.16696244
 21
784.033974596
 31
0.0
  0
LINE
  8
0
  6
CONTINUOUS
 62
     1
 10
1071.222218677
 20
782.033974596
 30
0.0
 11
1071.222218677
 21
822.533974596
 31
0.0
  0
LINE
  8
0
  6
CONTINUOUS
 62
     1
 10
1058.722218677
 20
784.033974596
 30
0.0
 11
1058.722218677
 21
822.533974596
 31
0.0
  0
LINE
  8
0
  6
CONTINUOUS
 62
     1
 10
1061.222218677
 20
782.033974596
 30
0.0
 11
1061.222218677
 21
822.533974596
 31
0.0
  0
LINE
  8
0
  6
CONTINUOUS
 62
     1
 10
1058.722218677
 20
784.033974596
 30
0.0
 11
1049.140671991
 21
748.275155551
 31
0.0
  0
ARC
  8
0
  6
CONTINUOUS
 62
     1
 10
1048.174746165
 20
748.533974596
 30
0.0
 40
1.0
 50
270.0
 51
345.0
  0
ARC
  8
0
  6
CONTINUOUS
 62
     1
 10
1048.174746165
 20
748.533974596
 30
0.0
 40
1.0
 50
195.0
 51
270.0
  0
LINE
  8
0
  6
CONTINUOUS
 62
     1
 10
1043.586780129
 20
761.792793641
 30
0.0
 11
1047.208820339
 21
748.275155551
 31
0.0
  0
ARC
  8
0
  6
CONTINUOUS
 62
     1
 10
1042.620854302
 20
761.533974596
 30
0.0
 40
1.0
 50
15.0
 51
90.0
  0
ARC
  8
0
  6
CONTINUOUS
 62
     1
 10
1042.620854302
 20
761.533974596
 30
0.0
 40
1.0
 50
90.0
 51
165.0
  0
LINE
  8
0
  6
CONTINUOUS
 62
     1
 10
1041.654928476
 20
761.792793641
 30
0.0
 11
1038.032888266
 21
748.275155551
 31
0.0
  0
ARC
  8
0
  6
CONTINUOUS
 62
     1
 10
1037.06696244
 20
748.533974596
 30
0.0
 40
1.0
 50
270.0
 51
345.0
  0
LINE
  8
0
  6
CONTINUOUS
 62
     1
 10
1031.513070578
 20
762.533974596
 30
0.0
 11
1031.513070578
 21
822.533974596
 31
0.0
  0
LINE
  8
0
  6
CONTINUOUS
 62
     1
 10
1037.06696244
 20
747.533974596
 30
0.0
 11
1037.06696244
 21
822.533974596
 31
0.0
  0
LINE
  8
0
  6
CONTINUOUS
 62
     1
 10
1048.174746165
 20
747.533974596
 30
0.0
 11
1048.174746165
 21
822.533974596
 31
0.0
  0
LINE
  8
0
  6
CONTINUOUS
 62
     1
 10
1042.620854302
 20
762.533974596
 30
0.0
 11
1042.620854302
 21
822.533974596
 31
0.0
  0
LINE
  8
0
  6
LTYPE4
 62
     2
 10
1014.722218677
 20
747.533974596
 30
0.0
 11
1036.972218677
 21
747.533974596
 31
0.0
  0
LINE
  8
0
  6
LTYPE4
 62
     2
 10
1011.722218677
 20
762.533974596
 30
0.0
 11
1031.372218677
 21
762.533974596
 31
0.0
  0
LINE
  8
0
  6
CONTINUOUS
 62
     1
 10
1073.722218677
 20
822.533974596
 30
0.0
 11
1073.722218677
 21
782.533974596
 31
0.0
  0
LINE
  8
0
  6
CONTINUOUS
 62
     1
 10
1073.722218677
 20
822.533974596
 30
0.0
 11
1073.722218677
 21
862.533974596
 31
0.0
  0
LINE
  8
2
  6
CONTINUOUS
 62
     2
 10
984.06696244
 20
897.533974596
 30
0.0
 11
980.831724376
 21
885.459901768
 31
0.0
  0
LINE
  8
2
  6
CONTINUOUS
 62
     2
 10
984.06696244
 20
897.533974596
 30
0.0
 11
987.302200504
 21
885.459901768
 31
0.0
  0
LINE
  8
0
  6
CONTINUOUS
 62
     1
 10
1065.722218677
 20
565.833974596
 30
0.0
 11
1065.722218677
 21
540.833974596
 31
0.0
  0
ARC
  8
0
  6
CONTINUOUS
 62
     1
 10
1029.291970344
 20
639.833974596
 30
0.0
 40
1.0
 50
90.0
 51
165.0
  0
LINE
  8
0
  6
CONTINUOUS
 62
     1
 10
1024.704004308
 20
626.575155551
 30
0.0
 11
1028.326044517
 21
640.092793641
 31
0.0
  0
ARC
  8
0
  6
CONTINUOUS
 62
     1
 10
1023.738078481
 20
626.833974596
 30
0.0
 40
1.0
 50
270.0
 51
345.0
  0
ARC
  8
0
  6
CONTINUOUS
 62
     1
 10
1040.399754069
 20
639.833974596
 30
0.0
 40
1.0
 50
15.0
 51
90.0
  0
ARC
  8
0
  6
CONTINUOUS
 62
     1
 10
1040.399754069
 20
639.833974596
 30
0.0
 40
1.0
 50
90.0
 51
165.0
  0
LINE
  8
0
  6
CONTINUOUS
 62
     1
 10
1035.811788032
 20
626.575155551
 30
0.0
 11
1039.433828242
 21
640.092793641
 31
0.0
  0
ARC
  8
0
  6
CONTINUOUS
 62
     1
 10
1034.845862206
 20
626.833974596
 30
0.0
 40
1.0
 50
270.0
 51
345.0
  0
ARC
  8
0
  6
CONTINUOUS
 62
     1
 10
1034.845862206
 20
626.833974596
 30
0.0
 40
1.0
 50
195.0
 51
270.0
  0
LINE
  8
0
  6
CONTINUOUS
 62
     1
 10
1033.87993638
 20
626.575155551
 30
0.0
 11
1030.25789617
 21
640.092793641
 31
0.0
  0
ARC
  8
0
  6
CONTINUOUS
 62
     1
 10
1029.291970344
 20
639.833974596
 30
0.0
 40
1.0
 50
15.0
 51
90.0
  0
LINE
  8
0
  6
CONTINUOUS
 62
     1
 10
1045.722217328
 20
623.833974596
 30
0.0
 11
1041.365679895
 21
640.092793641
 31
0.0
  0
LINE
  8
0
  6
CONTINUOUS
 62
     1
 10
968.94722658
 20
623.833974596
 30
0.0
 11
973.303764013
 21
640.092793641
 31
0.0
  0
ARC
  8
0
  6
CONTINUOUS
 62
     1
 10
974.26968984
 20
639.833974596
 30
0.0
 40
1.0
 50
90.0
 51
165.0
  0
ARC
  8
0
  6
CONTINUOUS
 62
     1
 10
974.269690514
 20
639.833974596
 30
0.0
 40
1.0
 50
15.0
 51
90.0
  0
LINE
  8
0
  6
CONTINUOUS
 62
     1
 10
978.85765655
 20
626.575155551
 30
0.0
 11
975.23561634
 21
640.092793641
 31
0.0
  0
ARC
  8
0
  6
CONTINUOUS
 62
     1
 10
979.823582376
 20
626.833974596
 30
0.0
 40
1.0
 50
195.0
 51
270.0
  0
ARC
  8
0
  6
CONTINUOUS
 62
     1
 10
979.823583051
 20
626.833974596
 30
0.0
 40
1.0
 50
270.0
 51
345.0
  0
LINE
  8
0
  6
CONTINUOUS
 62
     1
 10
980.789508877
 20
626.575155551
 30
0.0
 11
984.411549087
 21
640.092793641
 31
0.0
  0
ARC
  8
0
  6
CONTINUOUS
 62
     1
 10
985.377474913
 20
639.833974596
 30
0.0
 40
1.0
 50
90.0
 51
165.0
  0
ARC
  8
0
  6
CONTINUOUS
 62
     1
 10
985.377474913
 20
639.833974596
 30
0.0
 40
1.0
 50
15.0
 51
90.0
  0
LINE
  8
0
  6
CONTINUOUS
 62
     1
 10
989.965440949
 20
626.575155551
 30
0.0
 11
986.343400739
 21
640.092793641
 31
0.0
  0
ARC
  8
0
  6
CONTINUOUS
 62
     1
 10
990.931366776
 20
626.833974596
 30
0.0
 40
1.0
 50
195.0
 51
270.0
  0
LINE
  8
0
  6
CONTINUOUS
 62
     1
 10
953.94722658
 20
625.833974596
 30
0.0
 11
963.94722658
 21
625.833974596
 31
0.0
  0
LINE
  8
0
  6
CONTINUOUS
 62
     1
 10
963.891970344
 20
623.833974596
 30
0.0
 11
968.94722658
 21
623.833974596
 31
0.0
  0
LINE
  8
0
  6
LTYPE4
 62
     2
 10
990.931366776
 20
625.833974596
 30
0.0
 11
1023.738078481
 21
625.833974596
 31
0.0
  0
LINE
  8
0
  6
LTYPE4
 62
     2
 10
985.377474913
 20
640.833974596
 30
0.0
 11
1029.291970344
 21
640.833974596
 31
0.0
  0
ARC
  8
0
  6
CONTINUOUS
 62
     1
 10
1034.845862206
 20
504.833974596
 30
0.0
 40
1.0
 50
15.0
 51
90.0
  0
ARC
  8
0
  6
CONTINUOUS
 62
     1
 10
1034.845862206
 20
504.833974596
 30
0.0
 40
1.0
 50
90.0
 51
165.0
  0
LINE
  8
0
  6
CONTINUOUS
 62
     1
 10
1033.87993638
 20
505.092793641
 30
0.0
 11
1030.25789617
 21
491.575155551
 31
0.0
  0
ARC
  8
0
  6
CONTINUOUS
 62
     1
 10
1029.291970344
 20
491.833974596
 30
0.0
 40
1.0
 50
270.0
 51
345.0
  0
ARC
  8
0
  6
CONTINUOUS
 62
     1
 10
1029.291970344
 20
491.833974596
 30
0.0
 40
1.0
 50
195.0
 51
270.0
  0
LINE
  8
0
  6
CONTINUOUS
 62
     1
 10
1024.704004308
 20
505.092793641
 30
0.0
 11
1028.326044517
 21
491.575155551
 31
0.0
  0
ARC
  8
0
  6
CONTINUOUS
 62
     1
 10
1023.738078481
 20
504.833974596
 30
0.0
 40
1.0
 50
15.0
 51
90.0
  0
ARC
  8
0
  6
CONTINUOUS
 62
     1
 10
1040.399754069
 20
491.833974596
 30
0.0
 40
1.0
 50
270.0
 51
345.0
  0
ARC
  8
0
  6
CONTINUOUS
 62
     1
 10
1040.399754069
 20
491.833974596
 30
0.0
 40
1.0
 50
195.0
 51
270.0
  0
LINE
  8
0
  6
CONTINUOUS
 62
     1
 10
1035.811788032
 20
505.092793641
 30
0.0
 11
1039.433828242
 21
491.575155551
 31
0.0
  0
LINE
  8
0
  6
CONTINUOUS
 62
     1
 10
1045.722217328
 20
507.833974596
 30
0.0
 11
1041.365679895
 21
491.575155551
 31
0.0
  0
LINE
  8
0
  6
CONTINUOUS
 62
     1
 10
968.94722658
 20
507.833974596
 30
0.0
 11
973.303764013
 21
491.575155551
 31
0.0
  0
ARC
  8
0
  6
CONTINUOUS
 62
     1
 10
974.26968984
 20
491.833974596
 30
0.0
 40
1.0
 50
195.0
 51
270.0
  0
ARC
  8
0
  6
CONTINUOUS
 62
     1
 10
974.269690514
 20
491.833974596
 30
0.0
 40
1.0
 50
270.0
 51
345.0
  0
LINE
  8
0
  6
CONTINUOUS
 62
     1
 10
978.85765655
 20
505.092793641
 30
0.0
 11
975.23561634
 21
491.575155551
 31
0.0
  0
ARC
  8
0
  6
CONTINUOUS
 62
     1
 10
979.823582376
 20
504.833974596
 30
0.0
 40
1.0
 50
90.0
 51
165.0
  0
ARC
  8
0
  6
CONTINUOUS
 62
     1
 10
979.823583051
 20
504.833974596
 30
0.0
 40
1.0
 50
15.0
 51
90.0
  0
LINE
  8
0
  6
CONTINUOUS
 62
     1
 10
980.789508877
 20
505.092793641
 30
0.0
 11
984.411549087
 21
491.575155551
 31
0.0
  0
ARC
  8
0
  6
CONTINUOUS
 62
     1
 10
985.377474913
 20
491.833974596
 30
0.0
 40
1.0
 50
195.0
 51
270.0
  0
ARC
  8
0
  6
CONTINUOUS
 62
     1
 10
985.377474913
 20
491.833974596
 30
0.0
 40
1.0
 50
270.0
 51
345.0
  0
LINE
  8
0
  6
CONTINUOUS
 62
     1
 10
989.965440949
 20
505.092793641
 30
0.0
 11
986.343400739
 21
491.575155551
 31
0.0
  0
ARC
  8
0
  6
CONTINUOUS
 62
     1
 10
990.931366776
 20
504.833974596
 30
0.0
 40
1.0
 50
90.0
 51
165.0
  0
LINE
  8
0
  6
CONTINUOUS
 62
     1
 10
953.94722658
 20
505.833974596
 30
0.0
 11
963.94722658
 21
505.833974596
 31
0.0
  0
LINE
  8
0
  6
CONTINUOUS
 62
     1
 10
963.891970344
 20
507.833974596
 30
0.0
 11
968.94722658
 21
507.833974596
 31
0.0
  0
LINE
  8
0
  6
CONTINUOUS
 62
     1
 10
948.94722658
 20
507.833974596
 30
0.0
 11
963.94722658
 21
507.833974596
 31
0.0
  0
LINE
  8
0
  6
LTYPE4
 62
     2
 10
990.931366776
 20
505.833974596
 30
0.0
 11
1023.738078481
 21
505.833974596
 31
0.0
  0
LINE
  8
0
  6
LTYPE4
 62
     2
 10
985.377474913
 20
490.833974596
 30
0.0
 11
1029.291970344
 21
490.833974596
 31
0.0
  0
LINE
  8
0
  6
CONTINUOUS
 62
     1
 10
963.94722658
 20
505.833974596
 30
0.0
 11
963.94722658
 21
508.133974596
 31
0.0
  0
LINE
  8
0
  6
CONTINUOUS
 62
     1
 10
1060.722218677
 20
613.333974596
 30
0.0
 11
1050.722218677
 21
613.333974596
 31
0.0
  0
LINE
  8
0
  6
CONTINUOUS
 62
     1
 10
1065.722218677
 20
611.333974596
 30
0.0
 11
1060.777474913
 21
611.333974596
 31
0.0
  0
LINE
  8
0
  6
CONTINUOUS
 62
     1
 10
1065.722218677
 20
565.833974596
 30
0.0
 11
1065.722218677
 21
611.333974596
 31
0.0
  0
LINE
  8
0
  6
CONTINUOUS
 62
     1
 10
1050.777474913
 20
611.333974596
 30
0.0
 11
1045.722217328
 21
611.333974596
 31
0.0
  0
LINE
  8
0
  6
CONTINUOUS
 62
     1
 10
1060.722218677
 20
518.333974596
 30
0.0
 11
1050.722218677
 21
518.333974596
 31
0.0
  0
LINE
  8
0
  6
CONTINUOUS
 62
     1
 10
1065.722218677
 20
520.333974596
 30
0.0
 11
1045.722217328
 21
520.333974596
 31
0.0
  0
LINE
  8
0
  6
CONTINUOUS
 62
     1
 10
1065.722218677
 20
520.333974596
 30
0.0
 11
1065.722218677
 21
590.833974596
 31
0.0
  0
LINE
  8
0
  6
CONTINUOUS
 62
     1
 10
1050.722218677
 20
565.833974596
 30
0.0
 11
1050.722218677
 21
613.333974596
 31
0.0
  0
LINE
  8
0
  6
CONTINUOUS
 62
     1
 10
1060.722218677
 20
565.833974596
 30
0.0
 11
1060.722218677
 21
613.333974596
 31
0.0
  0
LINE
  8
0
  6
CONTINUOUS
 62
     1
 10
1045.722218677
 20
565.833974596
 30
0.0
 11
1045.722218677
 21
623.833974596
 31
0.0
  0
LINE
  8
0
  6
CONTINUOUS
 62
     1
 10
1040.399754069
 20
640.833974596
 30
0.0
 11
1040.399754069
 21
565.833974596
 31
0.0
  0
LINE
  8
0
  6
CONTINUOUS
 62
     1
 10
1034.845862206
 20
625.833974596
 30
0.0
 11
1034.845862206
 21
565.833974596
 31
0.0
  0
LINE
  8
0
  6
CONTINUOUS
 62
     1
 10
1029.291970344
 20
640.833974596
 30
0.0
 11
1029.291970344
 21
565.833974596
 31
0.0
  0
LINE
  8
0
  6
CONTINUOUS
 62
     1
 10
1023.738078481
 20
625.833974596
 30
0.0
 11
1023.738078481
 21
565.833974596
 31
0.0
  0
LINE
  8
0
  6
CONTINUOUS
 62
     1
 10
990.931366776
 20
625.833974596
 30
0.0
 11
990.931366776
 21
565.833974596
 31
0.0
  0
LINE
  8
0
  6
CONTINUOUS
 62
     1
 10
985.377474913
 20
640.833974596
 30
0.0
 11
985.377474913
 21
565.833974596
 31
0.0
  0
LINE
  8
0
  6
CONTINUOUS
 62
     1
 10
979.823582376
 20
625.833974596
 30
0.0
 11
979.823582376
 21
565.833974596
 31
0.0
  0
LINE
  8
0
  6
CONTINUOUS
 62
     1
 10
974.26968984
 20
640.833974596
 30
0.0
 11
974.26968984
 21
565.833974596
 31
0.0
  0
LINE
  8
0
  6
CONTINUOUS
 62
     1
 10
968.94722658
 20
565.833974596
 30
0.0
 11
968.94722658
 21
623.833974596
 31
0.0
  0
LINE
  8
0
  6
CONTINUOUS
 62
     1
 10
963.94722658
 20
565.833974596
 30
0.0
 11
963.94722658
 21
625.833974596
 31
0.0
  0
LINE
  8
0
  6
CONTINUOUS
 62
     1
 10
970.522218677
 20
510.833974596
 30
0.0
 11
970.522218677
 21
565.833974596
 31
0.0
  0
LINE
  8
0
  6
CONTINUOUS
 62
     1
 10
1000.522218677
 20
510.833974596
 30
0.0
 11
1000.522218677
 21
565.833974596
 31
0.0
  0
LINE
  8
0
  6
CONTINUOUS
 62
     1
 10
1045.722217328
 20
507.833974596
 30
0.0
 11
1045.722217328
 21
535.833974596
 31
0.0
  0
LINE
  8
0
  6
CONTINUOUS
 62
     1
 10
1065.722218677
 20
532.833974596
 30
0.0
 11
1065.722218677
 21
603.833974596
 31
0.0
  0
LINE
  8
0
  6
CONTINUOUS
 62
     1
 10
1065.722218677
 20
565.833974596
 30
0.0
 11
1065.722218677
 21
598.833974596
 31
0.0
  0
LINE
  8
0
  6
LTYPE1
 62
     2
 10
1095.722218677
 20
535.833974596
 30
0.0
 11
1095.722218677
 21
595.833974596
 31
0.0
  0
LINE
  8
2
  6
CONTINUOUS
 62
     2
 10
1023.06696244
 20
747.533974596
 30
0.0
 11
974.06696244
 21
747.533974596
 31
0.0
  0
LINE
  8
2
  6
CONTINUOUS
 62
     2
 10
984.06696244
 20
747.533974596
 30
0.0
 11
987.302200504
 21
759.608047425
 31
0.0
  0
LINE
  8
2
  6
CONTINUOUS
 62
     2
 10
984.06696244
 20
747.533974596
 30
0.0
 11
980.831724376
 21
759.608047425
 31
0.0
  0
LINE
  8
2
  6
CONTINUOUS
 62
     2
 10
984.06696244
 20
747.533974596
 30
0.0
 11
984.06696244
 21
897.533974596
 31
0.0
  0
LINE
  8
7
  6
CONTINUOUS
 62
     2
 10
1073.722218677
 20
719.533974596
 30
0.0
 11
1061.648145848
 21
722.76921266
 31
0.0
  0
LINE
  8
7
  6
CONTINUOUS
 62
     2
 10
1073.722218677
 20
719.533974596
 30
0.0
 11
1061.648145848
 21
716.298736532
 31
0.0
  0
LINE
  8
7
  6
CONTINUOUS
 62
     2
 10
1088.722218677
 20
800.033974596
 30
0.0
 11
1088.722218677
 21
712.033974596
 31
0.0
  0
LINE
  8
7
  6
CONTINUOUS
 62
     2
 10
1026.472218677
 20
719.533974596
 30
0.0
 11
1088.722218677
 21
719.533974596
 31
0.0
  0
POINT
  8
7
  6
CONTINUOUS
 62
     2
 10
1088.722218677
 20
727.033974596
 30
0.0
  0
LINE
  8
7
  6
CONTINUOUS
 62
     2
 10
1088.722218677
 20
719.533974596
 30
0.0
 11
1100.796291505
 21
716.298736532
 31
0.0
  0
LINE
  8
7
  6
CONTINUOUS
 62
     2
 10
1088.722218677
 20
719.533974596
 30
0.0
 11
1100.796291505
 21
722.76921266
 31
0.0
  0
LINE
  8
7
  6
CONTINUOUS
 62
     2
 10
1088.722218677
 20
719.533974596
 30
0.0
 11
1133.722218677
 21
719.533974596
 31
0.0
  0
LINE
  8
7
  6
CONTINUOUS
 62
     2
 10
1133.722218677
 20
719.533974596
 30
0.0
 11
1121.648145848
 21
722.76921266
 31
0.0
  0
LINE
  8
7
  6
CONTINUOUS
 62
     2
 10
1133.722218677
 20
719.533974596
 30
0.0
 11
1121.648145848
 21
716.298736532
 31
0.0
  0
LINE
  8
7
  6
CONTINUOUS
 62
     2
 10
1133.722218677
 20
762.033974596
 30
0.0
 11
1133.722218677
 21
712.033974596
 31
0.0
  0
LINE
  8
7
  6
CONTINUOUS
 62
     2
 10
1073.722218677
 20
790.433974596
 30
0.0
 11
1073.722218677
 21
712.033974596
 31
0.0
  0
LINE
  8
2
  6
CONTINUOUS
 62
     2
 10
1133.722218677
 20
740.533974596
 30
0.0
 11
1133.722218677
 21
709.533974596
 31
0.0
  0
LINE
  8
2
  6
CONTINUOUS
 62
     2
 10
1133.722218677
 20
719.533974596
 30
0.0
 11
1145.796291505
 21
716.298736532
 31
0.0
  0
LINE
  8
2
  6
CONTINUOUS
 62
     2
 10
1133.722218677
 20
719.533974596
 30
0.0
 11
1145.796291505
 21
722.76921266
 31
0.0
  0
LINE
  8
2
  6
CONTINUOUS
 62
     2
 10
1133.722218677
 20
719.533974596
 30
0.0
 11
1163.722218677
 21
719.533974596
 31
0.0
  0
LINE
  8
2
  6
CONTINUOUS
 62
     2
 10
1163.722218677
 20
719.533974596
 30
0.0
 11
1151.648145848
 21
722.76921266
 31
0.0
  0
LINE
  8
2
  6
CONTINUOUS
 62
     2
 10
1163.722218677
 20
719.533974596
 30
0.0
 11
1151.648145848
 21
716.298736532
 31
0.0
  0
LINE
  8
2
  6
CONTINUOUS
 62
     2
 10
1163.722218677
 20
783.533974596
 30
0.0
 11
1163.722218677
 21
709.533974596
 31
0.0
  0
CIRCLE
  8
0
  6
CONTINUOUS
 62
     1
 10
1125.722218677
 20
565.833974596
 30
0.0
 40
12.5
  0
CIRCLE
  8
0
  6
CONTINUOUS
 62
     1
 10
1125.722218677
 20
565.833974596
 30
0.0
 40
22.0
  0
CIRCLE
  8
0
  6
CONTINUOUS
 62
     1
 10
1125.722218677
 20
581.333974596
 30
0.0
 40
3.0
  0
LINE
  8
0
  6
CONTINUOUS
 62
     1
 10
1121.522218677
 20
549.033974596
 30
0.0
 11
1123.522218677
 21
548.733974596
 31
0.0
  0
LINE
  8
0
  6
CONTINUOUS
 62
     1
 10
1124.022218677
 20
553.433974596
 30
0.0
 11
1123.786834061
 21
551.864743827
 31
0.0
  0
LINE
  8
0
  6
CONTINUOUS
 62
     1
 10
1123.786834061
 20
551.864743827
 30
0.0
 11
1121.522218677
 21
549.033974596
 31
0.0
  0
LINE
  8
0
  6
CONTINUOUS
 62
     1
 10
1125.722218677
 20
551.433974596
 30
0.0
 11
1123.522218677
 21
548.733974596
 31
0.0
  0
LINE
  8
0
  6
CONTINUOUS
 62
     1
 10
1129.922218677
 20
549.033974596
 30
0.0
 11
1127.922218677
 21
548.733974596
 31
0.0
  0
LINE
  8
0
  6
CONTINUOUS
 62
     1
 10
1127.422218677
 20
553.433974596
 30
0.0
 11
1127.657603292
 21
551.864743827
 31
0.0
  0
LINE
  8
0
  6
CONTINUOUS
 62
     1
 10
1127.657603292
 20
551.864743827
 30
0.0
 11
1129.922218677
 21
549.033974596
 31
0.0
  0
LINE
  8
0
  6
CONTINUOUS
 62
     1
 10
1125.722218677
 20
551.433974596
 30
0.0
 11
1127.922218677
 21
548.733974596
 31
0.0
  0
LINE
  8
0
  6
LTYPE5
 62
     2
 10
1125.722218677
 20
540.833974596
 30
0.0
 11
1125.722218677
 21
595.633974596
 31
0.0
  0
ARC
  8
0
  6
CONTINUOUS
 62
     1
 10
1147.722218677
 20
587.833974596
 30
0.0
 40
8.0
 50
0.0
 51
90.0
  0
LINE
  8
0
  6
CONTINUOUS
 62
     1
 10
1155.722218677
 20
543.833974596
 30
0.0
 11
1155.722218677
 21
587.833974596
 31
0.0
  0
ARC
  8
0
  6
CONTINUOUS
 62
     1
 10
1147.722218677
 20
543.833974596
 30
0.0
 40
8.0
 50
270.0
 51
0.0
  0
LINE
  8
2
  6
CONTINUOUS
 62
     2
 10
1132.822218677
 20
576.333974596
 30
0.0
 11
1139.145470577
 21
587.116668388
 31
0.0
  0
LINE
  8
2
  6
CONTINUOUS
 62
     2
 10
1132.822218677
 20
576.333974596
 30
0.0
 11
1132.906968561
 21
588.833687291
 31
0.0
  0
LINE
  8
7
  6
CONTINUOUS
 62
     2
 10
1144.973594823
 20
620.483974596
 30
0.0
 11
1235.222218677
 21
620.483974596
 31
0.0
  0
LINE
  8
2
  6
CONTINUOUS
 62
     2
 10
1132.822218677
 20
576.333974596
 30
0.0
 11
1144.973594823
 21
620.483974596
 31
0.0
  0
LINE
  8
0
  6
CONTINUOUS
 62
     1
 10
1066.722218677
 20
595.833974596
 30
0.0
 11
1147.722218677
 21
595.833974596
 31
0.0
  0
LINE
  8
2
  6
CONTINUOUS
 62
     2
 10
1152.722218677
 20
595.833974596
 30
0.0
 11
1207.722218677
 21
595.833974596
 31
0.0
  0
LINE
  8
2
  6
CONTINUOUS
 62
     2
 10
1197.722218677
 20
595.833974596
 30
0.0
 11
1194.486980613
 21
583.759901768
 31
0.0
  0
LINE
  8
2
  6
CONTINUOUS
 62
     2
 10
1197.722218677
 20
595.833974596
 30
0.0
 11
1200.95745674
 21
583.759901768
 31
0.0
  0
LINE
  8
2
  6
CONTINUOUS
 62
     2
 10
1197.722218677
 20
595.833974596
 30
0.0
 11
1197.722218677
 21
535.833974596
 31
0.0
  0
LINE
  8
2
  6
CONTINUOUS
 62
     2
 10
1197.722218677
 20
535.833974596
 30
0.0
 11
1200.95745674
 21
547.908047425
 31
0.0
  0
LINE
  8
2
  6
CONTINUOUS
 62
     2
 10
1197.722218677
 20
535.833974596
 30
0.0
 11
1194.486980613
 21
547.908047425
 31
0.0
  0
LINE
  8
2
  6
CONTINUOUS
 62
     2
 10
1152.722218677
 20
535.833974596
 30
0.0
 11
1207.722218677
 21
535.833974596
 31
0.0
  0
LINE
  8
0
  6
CONTINUOUS
 62
     1
 10
1000.522218677
 20
535.833974596
 30
0.0
 11
1147.722218677
 21
535.833974596
 31
0.0
  0
LINE
  8
2
  6
CONTINUOUS
 62
     2
 10
1000.522218677
 20
315.833974596
 30
0.0
 11
988.448145848
 21
319.06921266
 31
0.0
  0
LINE
  8
2
  6
CONTINUOUS
 62
     2
 10
1000.522218677
 20
315.833974596
 30
0.0
 11
988.448145848
 21
312.598736532
 31
0.0
  0
LINE
  8
2
  6
CONTINUOUS
 62
     2
 10
1000.522218677
 20
505.833974596
 30
0.0
 11
1000.522218677
 21
305.833974596
 31
0.0
  0
LINE
  8
2
  6
CONTINUOUS
 62
     2
 10
1000.522218677
 20
327.833974596
 30
0.0
 11
1000.522218677
 21
305.833974596
 31
0.0
  0
LINE
  8
2
  6
CONTINUOUS
 62
     2
 10
1000.522218677
 20
337.833974596
 30
0.0
 11
1000.522218677
 21
305.833974596
 31
0.0
  0
LINE
  8
2
  6
CONTINUOUS
 62
     2
 10
1000.522218677
 20
315.833974596
 30
0.0
 11
1012.596291505
 21
312.598736532
 31
0.0
  0
LINE
  8
2
  6
CONTINUOUS
 62
     2
 10
1000.522218677
 20
315.833974596
 30
0.0
 11
1012.596291505
 21
319.06921266
 31
0.0
  0
LINE
  8
2
  6
CONTINUOUS
 62
     2
 10
1000.522218677
 20
315.833974596
 30
0.0
 11
1065.722218677
 21
315.833974596
 31
0.0
  0
LINE
  8
2
  6
CONTINUOUS
 62
     2
 10
1065.722218677
 20
315.833974596
 30
0.0
 11
1053.648145848
 21
319.06921266
 31
0.0
  0
LINE
  8
2
  6
CONTINUOUS
 62
     2
 10
1065.722218677
 20
315.833974596
 30
0.0
 11
1053.648145848
 21
312.598736532
 31
0.0
  0
LINE
  8
2
  6
CONTINUOUS
 62
     2
 10
1065.722218677
 20
513.333974596
 30
0.0
 11
1065.722218677
 21
305.833974596
 31
0.0
  0
LINE
  8
2
  6
CONTINUOUS
 62
     2
 10
1065.722218677
 20
346.833974596
 30
0.0
 11
1065.722218677
 21
305.833974596
 31
0.0
  0
LINE
  8
2
  6
CONTINUOUS
 62
     2
 10
1065.722218677
 20
315.833974596
 30
0.0
 11
1077.796291505
 21
312.598736532
 31
0.0
  0
LINE
  8
2
  6
CONTINUOUS
 62
     2
 10
1065.722218677
 20
315.833974596
 30
0.0
 11
1077.796291505
 21
319.06921266
 31
0.0
  0
LINE
  8
2
  6
CONTINUOUS
 62
     2
 10
1065.722218677
 20
315.833974596
 30
0.0
 11
1125.694467556
 21
315.833974596
 31
0.0
  0
LINE
  8
2
  6
CONTINUOUS
 62
     2
 10
1125.694467556
 20
315.833974596
 30
0.0
 11
1113.620394728
 21
319.06921266
 31
0.0
  0
LINE
  8
2
  6
CONTINUOUS
 62
     2
 10
1125.694467556
 20
315.833974596
 30
0.0
 11
1113.620394728
 21
312.598736532
 31
0.0
  0
LINE
  8
2
  6
CONTINUOUS
 62
     2
 10
1125.694467556
 20
538.833992099
 30
0.0
 11
1125.694467556
 21
305.833974596
 31
0.0
  0
LINE
  8
2
  6
CONTINUOUS
 62
     2
 10
1125.694467556
 20
283.833974596
 30
0.0
 11
1113.620394728
 21
287.06921266
 31
0.0
  0
LINE
  8
2
  6
CONTINUOUS
 62
     2
 10
1125.694467556
 20
283.833974596
 30
0.0
 11
1113.620394728
 21
280.598736532
 31
0.0
  0
LINE
  8
2
  6
CONTINUOUS
 62
     2
 10
1125.694467556
 20
326.833974596
 30
0.0
 11
1125.694467556
 21
273.833974596
 31
0.0
  0
LINE
  8
2
  6
CONTINUOUS
 62
     2
 10
1125.694467556
 20
243.833974596
 30
0.0
 11
1113.620394728
 21
247.06921266
 31
0.0
  0
LINE
  8
2
  6
CONTINUOUS
 62
     2
 10
1125.694467556
 20
243.833974596
 30
0.0
 11
1113.620394728
 21
240.598736532
 31
0.0
  0
LINE
  8
2
  6
CONTINUOUS
 62
     2
 10
1125.694467556
 20
293.833974596
 30
0.0
 11
1125.694467556
 21
233.833974596
 31
0.0
  0
LINE
  8
2
  6
CONTINUOUS
 62
     2
 10
1155.722218677
 20
538.833974596
 30
0.0
 11
1155.722218677
 21
233.833974596
 31
0.0
  0
LINE
  8
2
  6
CONTINUOUS
 62
     2
 10
1155.722218677
 20
243.833974596
 30
0.0
 11
1143.648145848
 21
247.06921266
 31
0.0
  0
LINE
  8
2
  6
CONTINUOUS
 62
     2
 10
1155.722218677
 20
243.833974596
 30
0.0
 11
1143.648145848
 21
240.598736532
 31
0.0
  0
LINE
  8
2
  6
CONTINUOUS
 62
     2
 10
1155.722218677
 20
243.833974596
 30
0.0
 11
1125.694467556
 21
243.833974596
 31
0.0
  0
LINE
  8
2
  6
CONTINUOUS
 62
     2
 10
1125.694467556
 20
243.833974596
 30
0.0
 11
1137.768540385
 21
240.598736532
 31
0.0
  0
LINE
  8
2
  6
CONTINUOUS
 62
     2
 10
1125.694467556
 20
243.833974596
 30
0.0
 11
1137.768540385
 21
247.06921266
 31
0.0
  0
LINE
  8
2
  6
CONTINUOUS
 62
     2
 10
1125.694467556
 20
259.563897095
 30
0.0
 11
1125.694467556
 21
233.833974596
 31
0.0
  0
ARC
  8
0
  6
CONTINUOUS
 62
     1
 10
1037.06696244
 20
896.533974596
 30
0.0
 40
1.0
 50
90.0
 51
165.0
  0
ARC
  8
0
  6
CONTINUOUS
 62
     1
 10
1048.174746165
 20
896.533974596
 30
0.0
 40
1.0
 50
15.0
 51
90.0
  0
ARC
  8
0
  6
CONTINUOUS
 62
     1
 10
1048.174746165
 20
896.533974596
 30
0.0
 40
1.0
 50
90.0
 51
165.0
  0
ARC
  8
0
  6
CONTINUOUS
 62
     1
 10
1037.06696244
 20
896.533974596
 30
0.0
 40
1.0
 50
15.0
 51
90.0
  0
LINE
  8
0
  6
LTYPE4
 62
     2
 10
1014.722218677
 20
897.533974596
 30
0.0
 11
1036.972218677
 21
897.533974596
 31
0.0
  0
LINE
  8
0
  6
CONTINUOUS
 62
     2
 10
1024.222218677
 20
897.533974596
 30
0.0
 11
1024.722218677
 21
897.533974596
 31
0.0
  0
LINE
  8
2
  6
CONTINUOUS
 62
     2
 10
1021.06696244
 20
897.533974596
 30
0.0
 11
974.06696244
 21
897.533974596
 31
0.0
  0
LINE
  8
0
  6
CONTINUOUS
 62
     1
 10
948.94722658
 20
623.833974596
 30
0.0
 11
953.891970344
 21
623.833974596
 31
0.0
  0
LINE
  8
0
  6
CONTINUOUS
 62
     1
 10
953.94722658
 20
565.833974596
 30
0.0
 11
953.94722658
 21
625.833974596
 31
0.0
  0
LINE
  8
0
  6
CONTINUOUS
 62
     1
 10
948.94722658
 20
565.833974596
 30
0.0
 11
948.94722658
 21
623.833974596
 31
0.0
  0
ARC
  8
0
  6
CONTINUOUS
 62
     1
 10
1345.422218677
 20
481.833974596
 30
0.0
 40
10.0
 50
180.0
 51
270.0
  0
ARC
  8
0
  6
CONTINUOUS
 62
     1
 10
1510.422218677
 20
481.833974596
 30
0.0
 40
10.0
 50
270.0
 51
0.0
  0
LINE
  8
0
  6
CONTINUOUS
 62
     1
 10
1520.422218677
 20
481.833974596
 30
0.0
 11
1520.422218677
 21
542.527210886
 31
0.0
  0
LINE
  8
0
  6
CONTINUOUS
 62
     2
 10
1335.422218677
 20
481.833974596
 30
0.0
 11
1335.422218677
 21
344.833974596
 31
0.0
  0
LINE
  8
0
  6
CONTINUOUS
 62
     2
 10
1335.422218677
 20
349.833974596
 30
0.0
 11
1347.496291505
 21
346.598736532
 31
0.0
  0
LINE
  8
0
  6
CONTINUOUS
 62
     2
 10
1335.422218677
 20
349.833974596
 30
0.0
 11
1347.496291505
 21
353.06921266
 31
0.0
  0
LINE
  8
0
  6
CONTINUOUS
 62
     2
 10
1520.422218677
 20
349.833974596
 30
0.0
 11
1508.348145848
 21
353.06921266
 31
0.0
  0
LINE
  8
0
  6
CONTINUOUS
 62
     2
 10
1520.422218677
 20
349.833974596
 30
0.0
 11
1508.348145848
 21
346.598736532
 31
0.0
  0
LINE
  8
0
  6
CONTINUOUS
 62
     2
 10
1520.422218677
 20
481.833974596
 30
0.0
 11
1520.422218677
 21
344.833974596
 31
0.0
  0
LINE
  8
0
  6
CONTINUOUS
 62
     2
 10
1522.922218677
 20
542.833974596
 30
0.0
 11
1522.922218677
 21
294.833974596
 31
0.0
  0
LINE
  8
0
  6
CONTINUOUS
 62
     2
 10
1335.422218677
 20
349.833974596
 30
0.0
 11
1520.422218677
 21
349.833974596
 31
0.0
  0
LINE
  8
0
  6
LTYPE5
 62
     2
 10
1308.141210177
 20
741.832311693
 30
0.0
 11
1308.394073994
 21
740.888611078
 31
0.0
  0
LINE
  8
0
  6
CONTINUOUS
 62
     2
 10
1579.122218677
 20
578.333974596
 30
0.0
 11
1526.322218677
 21
578.333974596
 31
0.0
  0
LINE
  8
0
  6
CONTINUOUS
 62
     2
 10
1581.122218677
 20
553.333974596
 30
0.0
 11
1527.322218677
 21
553.333974596
 31
0.0
  0
LINE
  8
0
  6
LTYPE3
 62
     2
 10
1531.922218677
 20
565.833974596
 30
0.0
 11
1325.622218677
 21
565.833974596
 31
0.0
  0
LINE
  8
0
  6
CONTINUOUS
 62
     1
 10
1335.422218677
 20
481.833974596
 30
0.0
 11
1335.422218677
 21
542.333974596
 31
0.0
  0
LINE
  8
0
  6
CONTINUOUS
 62
     2
 10
1332.922218677
 20
542.833974596
 30
0.0
 11
1332.922218677
 21
294.833974596
 31
0.0
  0
LINE
  8
0
  6
CONTINUOUS
 62
     2
 10
1536.622218677
 20
565.833974596
 30
0.0
 11
1610.922218677
 21
565.833974596
 31
0.0
  0
ARC
  8
0
  6
CONTINUOUS
 62
     1
 10
1368.922218677
 20
506.833974596
 30
0.0
 40
8.0
 50
180.0
 51
270.0
  0
ARC
  8
0
  6
CONTINUOUS
 62
     1
 10
1368.922218677
 20
624.833974596
 30
0.0
 40
8.0
 50
90.0
 51
180.0
  0
ARC
  8
0
  6
CONTINUOUS
 62
     1
 10
1486.922218677
 20
624.833974596
 30
0.0
 40
8.0
 50
0.0
 51
90.0
  0
ARC
  8
0
  6
CONTINUOUS
 62
     1
 10
1486.922218677
 20
506.833974596
 30
0.0
 40
8.0
 50
270.0
 51
0.0
  0
LINE
  8
0
  6
CONTINUOUS
 62
     1
 10
1476.922218677
 20
498.833974596
 30
0.0
 11
1486.922218677
 21
498.833974596
 31
0.0
  0
LINE
  8
0
  6
CONTINUOUS
 62
     1
 10
1368.922218677
 20
498.833974596
 30
0.0
 11
1379.922218677
 21
498.833974596
 31
0.0
  0
LINE
  8
0
  6
LTYPE3
 62
     2
 10
1466.922218677
 20
618.833974596
 30
0.0
 11
1493.422218677
 21
618.833974596
 31
0.0
  0
LINE
  8
0
  6
LTYPE3
 62
     2
 10
1480.922218677
 20
604.333974596
 30
0.0
 11
1480.922218677
 21
631.333974596
 31
0.0
  0
LINE
  8
0
  6
LTYPE3
 62
     2
 10
1374.922218677
 20
604.833974596
 30
0.0
 11
1374.922218677
 21
631.333974596
 31
0.0
  0
LINE
  8
0
  6
LTYPE3
 62
     2
 10
1389.422218677
 20
618.833974596
 30
0.0
 11
1362.422218677
 21
618.833974596
 31
0.0
  0
LINE
  8
0
  6
LTYPE3
 62
     2
 10
1388.922218677
 20
512.833974596
 30
0.0
 11
1362.422218677
 21
512.833974596
 31
0.0
  0
LINE
  8
0
  6
LTYPE3
 62
     2
 10
1374.922218677
 20
527.333974596
 30
0.0
 11
1374.922218677
 21
500.333974596
 31
0.0
  0
LINE
  8
0
  6
LTYPE3
 62
     2
 10
1480.922218677
 20
526.833974596
 30
0.0
 11
1480.922218677
 21
500.333974596
 31
0.0
  0
LINE
  8
0
  6
LTYPE3
 62
     2
 10
1466.422218677
 20
512.833974596
 30
0.0
 11
1493.422218677
 21
512.833974596
 31
0.0
  0
LINE
  8
0
  6
CONTINUOUS
 62
     1
 10
1386.922218677
 20
499.833974596
 30
0.0
 11
1473.922218677
 21
499.833974596
 31
0.0
  0
CIRCLE
  8
0
  6
CONTINUOUS
 62
     1
 10
1427.922218677
 20
472.333974596
 30
0.0
 40
10.4775
  0
CIRCLE
  8
0
  6
CONTINUOUS
 62
     1
 10
1427.922218677
 20
472.333974596
 30
0.0
 40
9.3155
  0
ARC
  8
0
  6
CONTINUOUS
 62
     1
 10
1379.922218677
 20
495.333974596
 30
0.0
 40
3.0
 50
90.0
 51
180.0
  0
LINE
  8
0
  6
CONTINUOUS
 62
     1
 10
1376.922218677
 20
448.833974596
 30
0.0
 11
1376.922218677
 21
495.333974596
 31
0.0
  0
ARC
  8
0
  6
CONTINUOUS
 62
     1
 10
1377.922218677
 20
448.833974596
 30
0.0
 40
1.0
 50
180.0
 51
270.0
  0
ARC
  8
0
  6
CONTINUOUS
 62
     1
 10
1380.922218677
 20
447.833974596
 30
0.0
 40
1.0
 50
180.0
 51
270.0
  0
ARC
  8
0
  6
CONTINUOUS
 62
     1
 10
1475.922218677
 20
495.333974596
 30
0.0
 40
3.0
 50
0.0
 51
90.0
  0
LINE
  8
0
  6
CONTINUOUS
 62
     1
 10
1478.922218677
 20
448.833974596
 30
0.0
 11
1478.922218677
 21
495.333974596
 31
0.0
  0
ARC
  8
0
  6
CONTINUOUS
 62
     1
 10
1477.922218677
 20
448.833974596
 30
0.0
 40
1.0
 50
270.0
 51
0.0
  0
ARC
  8
0
  6
CONTINUOUS
 62
     1
 10
1474.922218677
 20
447.833974596
 30
0.0
 40
1.0
 50
270.0
 51
0.0
  0
LINE
  8
0
  6
CONTINUOUS
 62
     1
 10
1478.922218677
 20
453.833974596
 30
0.0
 11
1376.922218677
 21
453.833974596
 31
0.0
  0
LINE
  8
0
  6
CONTINUOUS
 62
     1
 10
1478.922218677
 20
455.333974596
 30
0.0
 11
1376.922218677
 21
455.333974596
 31
0.0
  0
LINE
  8
0
  6
CONTINUOUS
 62
     1
 10
1474.922218677
 20
446.833974596
 30
0.0
 11
1380.922218677
 21
446.833974596
 31
0.0
  0
LINE
  8
0
  6
CONTINUOUS
 62
     1
 10
1477.922218677
 20
447.833974596
 30
0.0
 11
1377.922218677
 21
447.833974596
 31
0.0
  0
LINE
  8
0
  6
LTYPE3
 62
     2
 10
1472.922218677
 20
443.133974596
 30
0.0
 11
1472.922218677
 21
461.833974596
 31
0.0
  0
LINE
  8
0
  6
LTYPE3
 62
     2
 10
1382.922218677
 20
443.133974596
 30
0.0
 11
1382.922218677
 21
461.833974596
 31
0.0
  0
LINE
  8
0
  6
CONTINUOUS
 62
     1
 10
1332.922218677
 20
542.833974596
 30
0.0
 11
1332.922218677
 21
588.833974596
 31
0.0
  0
LINE
  8
0
  6
LTYPE1
 62
     2
 10
1362.922218677
 20
553.333974596
 30
0.0
 11
1332.922218677
 21
553.333974596
 31
0.0
  0
LINE
  8
0
  6
LTYPE1
 62
     2
 10
1362.922218677
 20
578.333974596
 30
0.0
 11
1332.922218677
 21
578.333974596
 31
0.0
  0
LINE
  8
0
  6
LTYPE1
 62
     2
 10
1362.922218677
 20
553.333974596
 30
0.0
 11
1362.922218677
 21
578.333974596
 31
0.0
  0
LINE
  8
0
  6
CONTINUOUS
 62
     1
 10
1522.922218677
 20
542.833974596
 30
0.0
 11
1522.922218677
 21
588.833974596
 31
0.0
  0
LINE
  8
0
  6
LTYPE1
 62
     2
 10
1492.922218677
 20
553.333974596
 30
0.0
 11
1522.922218677
 21
553.333974596
 31
0.0
  0
LINE
  8
0
  6
LTYPE1
 62
     2
 10
1492.922218677
 20
578.333974596
 30
0.0
 11
1522.922218677
 21
578.333974596
 31
0.0
  0
LINE
  8
0
  6
LTYPE1
 62
     2
 10
1492.922218677
 20
553.333974596
 30
0.0
 11
1492.922218677
 21
578.333974596
 31
0.0
  0
LINE
  8
0
  6
CONTINUOUS
 62
     1
 10
1345.422218677
 20
471.833974596
 30
0.0
 11
1376.922218677
 21
471.833974596
 31
0.0
  0
LINE
  8
0
  6
CONTINUOUS
 62
     1
 10
1478.922218677
 20
471.833974596
 30
0.0
 11
1510.422218677
 21
471.833974596
 31
0.0
  0
LINE
  8
0
  6
LTYPE2
 62
     2
 10
1447.822218677
 20
472.333974596
 30
0.0
 11
1407.122218677
 21
472.333974596
 31
0.0
  0
LINE
  8
0
  6
LTYPE2
 62
     2
 10
1390.322218677
 20
558.833974596
 30
0.0
 11
1390.322218677
 21
574.833974596
 31
0.0
  0
CIRCLE
  8
0
  6
CONTINUOUS
 62
     1
 10
1390.322218677
 20
565.833974596
 30
0.0
 40
3.0
  0
LINE
  8
0
  6
CONTINUOUS
 62
     1
 10
1393.922218677
 20
591.333974596
 30
0.0
 11
1397.922218677
 21
591.333974596
 31
0.0
  0
LINE
  8
0
  6
CONTINUOUS
 62
     1
 10
1383.922218677
 20
578.333974596
 30
0.0
 11
1393.922218677
 21
578.333974596
 31
0.0
  0
LINE
  8
0
  6
LTYPE1
 62
     2
 10
1412.922218677
 20
578.333974596
 30
0.0
 11
1397.922218677
 21
578.333974596
 31
0.0
  0
LINE
  8
0
  6
CONTINUOUS
 62
     1
 10
1427.922218677
 20
578.333974596
 30
0.0
 11
1412.922218677
 21
578.333974596
 31
0.0
  0
LINE
  8
0
  6
CONTINUOUS
 62
     1
 10
1393.922218677
 20
540.333974596
 30
0.0
 11
1397.922218677
 21
540.333974596
 31
0.0
  0
LINE
  8
0
  6
LTYPE1
 62
     2
 10
1412.922218677
 20
553.333974596
 30
0.0
 11
1397.922218677
 21
553.333974596
 31
0.0
  0
LINE
  8
0
  6
CONTINUOUS
 62
     1
 10
1427.922218677
 20
553.333974596
 30
0.0
 11
1412.922218677
 21
553.333974596
 31
0.0
  0
LINE
  8
0
  6
CONTINUOUS
 62
     1
 10
1383.922218677
 20
553.333974596
 30
0.0
 11
1393.922218677
 21
553.333974596
 31
0.0
  0
LINE
  8
0
  6
CONTINUOUS
 62
     1
 10
1383.922218677
 20
553.333974596
 30
0.0
 11
1383.922218677
 21
578.333974596
 31
0.0
  0
LINE
  8
0
  6
CONTINUOUS
 62
     1
 10
1393.922218677
 20
540.333974596
 30
0.0
 11
1393.922218677
 21
591.333974596
 31
0.0
  0
LINE
  8
0
  6
LTYPE2
 62
     2
 10
1465.522218677
 20
558.833974596
 30
0.0
 11
1465.522218677
 21
574.833974596
 31
0.0
  0
CIRCLE
  8
0
  6
CONTINUOUS
 62
     1
 10
1465.522218677
 20
565.833974596
 30
0.0
 40
3.0
  0
LINE
  8
0
  6
CONTINUOUS
 62
     1
 10
1457.922218677
 20
595.833974596
 30
0.0
 11
1442.922218677
 21
595.833974596
 31
0.0
  0
LINE
  8
0
  6
CONTINUOUS
 62
     1
 10
1461.922218677
 20
591.333974596
 30
0.0
 11
1457.922218677
 21
591.333974596
 31
0.0
  0
LINE
  8
0
  6
CONTINUOUS
 62
     1
 10
1471.922218677
 20
578.333974596
 30
0.0
 11
1461.922218677
 21
578.333974596
 31
0.0
  0
LINE
  8
0
  6
LTYPE1
 62
     2
 10
1442.922218677
 20
578.333974596
 30
0.0
 11
1457.922218677
 21
578.333974596
 31
0.0
  0
LINE
  8
0
  6
CONTINUOUS
 62
     1
 10
1427.922218677
 20
578.333974596
 30
0.0
 11
1442.922218677
 21
578.333974596
 31
0.0
  0
LINE
  8
0
  6
CONTINUOUS
 62
     1
 10
1461.922218677
 20
540.333974596
 30
0.0
 11
1457.922218677
 21
540.333974596
 31
0.0
  0
LINE
  8
0
  6
LTYPE1
 62
     2
 10
1442.922218677
 20
553.333974596
 30
0.0
 11
1457.922218677
 21
553.333974596
 31
0.0
  0
LINE
  8
0
  6
CONTINUOUS
 62
     1
 10
1427.922218677
 20
553.333974596
 30
0.0
 11
1442.922218677
 21
553.333974596
 31
0.0
  0
LINE
  8
0
  6
CONTINUOUS
 62
     1
 10
1471.922218677
 20
553.333974596
 30
0.0
 11
1461.922218677
 21
553.333974596
 31
0.0
  0
LINE
  8
0
  6
CONTINUOUS
 62
     1
 10
1471.922218677
 20
553.333974596
 30
0.0
 11
1471.922218677
 21
578.333974596
 31
0.0
  0
LINE
  8
0
  6
CONTINUOUS
 62
     1
 10
1461.922218677
 20
540.333974596
 30
0.0
 11
1461.922218677
 21
591.333974596
 31
0.0
  0
LINE
  8
0
  6
CONTINUOUS
 62
     1
 10
1412.922218677
 20
535.833974596
 30
0.0
 11
1412.922218677
 21
595.833974596
 31
0.0
  0
LINE
  8
0
  6
CONTINUOUS
 62
     1
 10
1397.922218677
 20
535.833974596
 30
0.0
 11
1397.922218677
 21
595.833974596
 31
0.0
  0
LINE
  8
0
  6
CONTINUOUS
 62
     1
 10
1457.922218677
 20
535.833974596
 30
0.0
 11
1397.922218677
 21
535.833974596
 31
0.0
  0
LINE
  8
0
  6
CONTINUOUS
 62
     1
 10
1457.922218677
 20
535.833974596
 30
0.0
 11
1457.922218677
 21
595.833974596
 31
0.0
  0
LINE
  8
0
  6
CONTINUOUS
 62
     1
 10
1397.922218677
 20
595.833974596
 30
0.0
 11
1442.922218677
 21
595.833974596
 31
0.0
  0
LINE
  8
0
  6
CONTINUOUS
 62
     1
 10
1442.922218677
 20
535.833974596
 30
0.0
 11
1442.922218677
 21
595.833974596
 31
0.0
  0
LINE
  8
0
  6
CONTINUOUS
 62
     1
 10
1382.922218677
 20
499.833974596
 30
0.0
 11
1382.922218677
 21
506.333974596
 31
0.0
  0
LINE
  8
0
  6
CONTINUOUS
 62
     1
 10
1472.922218677
 20
499.833974596
 30
0.0
 11
1472.922218677
 21
506.133974596
 31
0.0
  0
LINE
  8
0
  6
CONTINUOUS
 62
     1
 10
1462.722218677
 20
499.833974596
 30
0.0
 11
1472.922218677
 21
499.833974596
 31
0.0
  0
LINE
  8
0
  6
CONTINUOUS
 62
     1
 10
1382.922218677
 20
499.833974596
 30
0.0
 11
1393.522218677
 21
499.833974596
 31
0.0
  0
LINE
  8
0
  6
CONTINUOUS
 62
     1
 10
1459.722218677
 20
498.333974596
 30
0.0
 11
1475.922218677
 21
498.333974596
 31
0.0
  0
LINE
  8
0
  6
CONTINUOUS
 62
     1
 10
1379.922218677
 20
498.333974596
 30
0.0
 11
1396.122218677
 21
498.333974596
 31
0.0
  0
LINE
  8
0
  6
CONTINUOUS
 62
     1
 10
1484.422218677
 20
632.833974596
 30
0.0
 11
1486.922218677
 21
632.833974596
 31
0.0
  0
LINE
  8
0
  6
CONTINUOUS
 62
     1
 10
1368.922218677
 20
632.833974596
 30
0.0
 11
1371.422218677
 21
632.833974596
 31
0.0
  0
CIRCLE
  8
0
  6
CONTINUOUS
 62
     1
 10
1427.922218677
 20
565.833974596
 30
0.0
 40
75.0
  0
ARC
  8
0
  6
CONTINUOUS
 62
     1
 10
1374.922218677
 20
618.833974596
 30
0.0
 40
9.0
 50
40.601294645
 51
231.842773412
  0
ARC
  8
0
  6
CONTINUOUS
 62
     1
 10
1480.922218677
 20
618.833974596
 30
0.0
 40
9.0
 50
305.537677792
 51
144.462322208
  0
ARC
  8
0
  6
CONTINUOUS
 62
     1
 10
1480.922218677
 20
512.833974596
 30
0.0
 40
9.0
 50
220.236358309
 51
50.194428908
  0
ARC
  8
0
  6
CONTINUOUS
 62
     1
 10
1374.922218677
 20
512.833974596
 30
0.0
 40
9.0
 50
128.659808254
 51
319.763641691
  0
LINE
  8
0
  6
CONTINUOUS
 62
     1
 10
1332.922218677
 20
542.833974596
 30
0.0
 11
1357.922218677
 21
539.766337491
 31
0.0
  0
LINE
  8
0
  6
CONTINUOUS
 62
     1
 10
1332.922218677
 20
588.833974596
 30
0.0
 11
1357.922218677
 21
591.901611701
 31
0.0
  0
LINE
  8
0
  6
CONTINUOUS
 62
     1
 10
1360.922218677
 20
597.833974596
 30
0.0
 11
1360.922218677
 21
624.833974596
 31
0.0
  0
LINE
  8
0
  6
CONTINUOUS
 62
     1
 10
1360.922218677
 20
506.833974596
 30
0.0
 11
1360.922218677
 21
532.333974596
 31
0.0
  0
LINE
  8
0
  6
CONTINUOUS
 62
     1
 10
1494.922218677
 20
506.833974596
 30
0.0
 11
1494.922218677
 21
533.833974596
 31
0.0
  0
LINE
  8
0
  6
CONTINUOUS
 62
     1
 10
1522.922218677
 20
542.833974596
 30
0.0
 11
1498.422218677
 21
539.827690233
 31
0.0
  0
LINE
  8
0
  6
CONTINUOUS
 62
     1
 10
1522.922218677
 20
588.833974596
 30
0.0
 11
1497.922218677
 21
591.901611701
 31
0.0
  0
LINE
  8
0
  6
CONTINUOUS
 62
     1
 10
1494.922218677
 20
597.333974596
 30
0.0
 11
1494.922218677
 21
624.833974596
 31
0.0
  0
ARC
  8
0
  6
CONTINUOUS
 62
     1
 10
1380.922218677
 20
632.833974596
 30
0.0
 40
9.0
 50
0.0
 51
4.497151615
  0
CIRCLE
  8
0
  6
CONTINUOUS
 62
     1
 10
1427.922218677
 20
880.333974596
 30
0.0
 40
12.055
  0
CIRCLE
  8
0
  6
CONTINUOUS
 62
     1
 10
1427.922218677
 20
880.333974596
 30
0.0
 40
20.0
  0
CIRCLE
  8
0
  6
CONTINUOUS
 62
     1
 10
1427.922218677
 20
880.333974596
 30
0.0
 40
25.0
  0
CIRCLE
  8
0
  6
CONTINUOUS
 62
     2
 10
1427.922218677
 20
880.333974596
 30
0.0
 40
13.221
  0
LINE
  8
0
  6
LTYPE2
 62
     2
 10
1391.422218677
 20
880.333974596
 30
0.0
 11
1463.422218677
 21
880.333974596
 31
0.0
  0
ARC
  8
0
  6
CONTINUOUS
 62
     1
 10
1457.922218677
 20
855.833974596
 30
0.0
 40
10.0
 50
270.0
 51
0.0
  0
LINE
  8
0
  6
CONTINUOUS
 62
     1
 10
1427.922218677
 20
924.833974596
 30
0.0
 11
1457.922218677
 21
924.833974596
 31
0.0
  0
LINE
  8
0
  6
CONTINUOUS
 62
     1
 10
1467.922218677
 20
855.833974596
 30
0.0
 11
1467.922218677
 21
914.833974596
 31
0.0
  0
ARC
  8
0
  6
CONTINUOUS
 62
     1
 10
1457.922218677
 20
914.833974596
 30
0.0
 40
10.0
 50
0.0
 51
90.0
  0
LINE
  8
0
  6
CONTINUOUS
 62
     1
 10
1427.922218677
 20
929.833974596
 30
0.0
 11
1467.922218677
 21
929.833974596
 31
0.0
  0
ARC
  8
0
  6
CONTINUOUS
 62
     1
 10
1467.922218677
 20
919.833974596
 30
0.0
 40
10.0
 50
0.0
 51
90.0
  0
LINE
  8
0
  6
CONTINUOUS
 62
     1
 10
1427.922218677
 20
845.833974596
 30
0.0
 11
1467.922218677
 21
845.833974596
 31
0.0
  0
LINE
  8
0
  6
CONTINUOUS
 62
     1
 10
1477.922218677
 20
855.833974596
 30
0.0
 11
1477.922218677
 21
919.833974596
 31
0.0
  0
ARC
  8
0
  6
CONTINUOUS
 62
     1
 10
1467.922218677
 20
855.833974596
 30
0.0
 40
10.0
 50
270.0
 51
0.0
  0
LINE
  8
0
  6
CONTINUOUS
 62
     1
 10
1458.282345283
 20
845.840461259
 30
0.0
 11
1458.282345283
 21
840.340461259
 31
0.0
  0
LINE
  8
0
  6
CONTINUOUS
 62
     1
 10
1427.922218677
 20
924.833974596
 30
0.0
 11
1397.922218677
 21
924.833974596
 31
0.0
  0
LINE
  8
0
  6
CONTINUOUS
 62
     1
 10
1387.922218677
 20
855.833974596
 30
0.0
 11
1387.922218677
 21
914.833974596
 31
0.0
  0
ARC
  8
0
  6
CONTINUOUS
 62
     1
 10
1397.922218677
 20
914.833974596
 30
0.0
 40
10.0
 50
90.0
 51
180.0
  0
LINE
  8
0
  6
CONTINUOUS
 62
     1
 10
1427.922218677
 20
929.833974596
 30
0.0
 11
1387.922218677
 21
929.833974596
 31
0.0
  0
ARC
  8
0
  6
CONTINUOUS
 62
     1
 10
1387.922218677
 20
919.833974596
 30
0.0
 40
10.0
 50
90.0
 51
180.0
  0
LINE
  8
0
  6
CONTINUOUS
 62
     1
 10
1377.922218677
 20
855.833974596
 30
0.0
 11
1377.922218677
 21
919.833974596
 31
0.0
  0
ARC
  8
0
  6
CONTINUOUS
 62
     1
 10
1397.922218677
 20
855.833974596
 30
0.0
 40
10.0
 50
180.0
 51
270.0
  0
ARC
  8
0
  6
CONTINUOUS
 62
     1
 10
1387.922218677
 20
855.833974596
 30
0.0
 40
10.0
 50
180.0
 51
270.0
  0
LINE
  8
0
  6
CONTINUOUS
 62
     1
 10
1397.56209207
 20
845.840461259
 30
0.0
 11
1397.56209207
 21
840.340461259
 31
0.0
  0
ARC
  8
0
  6
CONTINUOUS
 62
     1
 10
1345.422218677
 20
741.833974596
 30
0.0
 40
20.0
 50
90.0
 51
180.0
  0
ARC
  8
0
  6
CONTINUOUS
 62
     1
 10
1345.422218677
 20
741.833974596
 30
0.0
 40
20.0
 50
180.0
 51
270.0
  0
ARC
  8
0
  6
CONTINUOUS
 62
     1
 10
1469.172218677
 20
670.386878784
 30
0.0
 40
20.0
 50
210.0
 51
300.0
  0
ARC
  8
0
  6
CONTINUOUS
 62
     1
 10
1469.172218677
 20
670.386878784
 30
0.0
 40
20.0
 50
300.0
 51
30.0
  0
LINE
  8
0
  6
CONTINUOUS
 62
     1
 10
1345.422218677
 20
721.833974596
 30
0.0
 11
1416.375213293
 21
721.833974596
 31
0.0
  0
LINE
  8
0
  6
CONTINUOUS
 62
     1
 10
1451.851710601
 20
660.386878784
 30
0.0
 11
1416.375213293
 21
721.833974596
 31
0.0
  0
ARC
  8
0
  6
CONTINUOUS
 62
     1
 10
1469.172218677
 20
813.281070408
 30
0.0
 40
20.0
 50
330.0
 51
60.0
  0
ARC
  8
0
  6
CONTINUOUS
 62
     1
 10
1469.172218677
 20
813.281070408
 30
0.0
 40
20.0
 50
60.0
 51
150.0
  0
LINE
  8
0
  6
CONTINUOUS
 62
     1
 10
1451.851710601
 20
823.281070408
 30
0.0
 11
1416.375213293
 21
761.833974596
 31
0.0
  0
LINE
  8
0
  6
CONTINUOUS
 62
     1
 10
1345.422218677
 20
761.833974596
 30
0.0
 11
1416.375213293
 21
761.833974596
 31
0.0
  0
LINE
  8
0
  6
CONTINUOUS
 62
     1
 10
1431.25555201
 20
761.55424054
 30
0.0
 11
1489.588885343
 21
751.694107568
 31
0.0
  0
LINE
  8
0
  6
CONTINUOUS
 62
     1
 10
1431.25555201
 20
722.113708653
 30
0.0
 11
1489.588885343
 21
731.973841624
 31
0.0
  0
LINE
  8
0
  6
LTYPE2
 62
     2
 10
1487.922218677
 20
726.833974596
 30
0.0
 11
1487.922218677
 21
761.833974596
 31
0.0
  0
ARC
  8
0
  6
CONTINUOUS
 62
     1
 10
1427.922218677
 20
741.833974596
 30
0.0
 40
20.0
 50
80.405931773
 51
279.594068227
  0
ARC
  8
0
  6
CONTINUOUS
 62
     1
 10
1487.922218677
 20
741.833974596
 30
0.0
 40
10.0
 50
279.594068227
 51
80.405931773
  0
CIRCLE
  8
0
  6
CONTINUOUS
 62
     1
 10
1487.922218677
 20
741.833974596
 30
0.0
 40
9.0
  0
CIRCLE
  8
0
  6
CONTINUOUS
 62
     1
 10
1427.922218677
 20
741.833974596
 30
0.0
 40
19.0
  0
CIRCLE
  8
0
  6
CONTINUOUS
 62
     1
 10
1414.822218677
 20
741.833974596
 30
0.0
 40
4.0
  0
CIRCLE
  8
0
  6
CONTINUOUS
 62
     1
 10
1427.922218677
 20
728.733974596
 30
0.0
 40
4.0
  0
CIRCLE
  8
0
  6
CONTINUOUS
 62
     1
 10
1441.022218677
 20
741.833974596
 30
0.0
 40
4.0
  0
CIRCLE
  8
0
  6
CONTINUOUS
 62
     1
 10
1427.922218677
 20
754.933974596
 30
0.0
 40
4.0
  0
CIRCLE
  8
0
  6
CONTINUOUS
 62
     1
 10
1427.922218677
 20
741.833974596
 30
0.0
 40
4.0
  0
LINE
  8
0
  6
CONTINUOUS
 62
     1
 10
1486.492726752
 20
803.281070408
 30
0.0
 11
1459.632430515
 21
756.757672619
 31
0.0
  0
LINE
  8
0
  6
CONTINUOUS
 62
     1
 10
1486.492726752
 20
680.386878784
 30
0.0
 11
1459.632430515
 21
726.910276573
 31
0.0
  0
ARC
  8
0
  6
LTYPE1
 62
     2
 10
1427.922218677
 20
741.833974596
 30
0.0
 40
100.0
 50
66.110646249
 51
173.889353751
  0
ARC
  8
0
  6
LTYPE1
 62
     2
 10
1427.922218677
 20
741.833974596
 30
0.0
 40
100.0
 50
186.110646249
 51
293.889353751
  0
ARC
  8
0
  6
LTYPE1
 62
     2
 10
1427.922218677
 20
741.833974596
 30
0.0
 40
100.0
 50
306.110646249
 51
53.889353751
  0
LINE
  8
0
  6
LTYPE5
 62
     2
 10
1308.422218677
 20
741.833974596
 30
0.0
 11
1532.922218677
 21
741.833974596
 31
0.0
  0
ARC
  8
0
  6
CONTINUOUS
 62
     1
 10
1368.922218677
 20
624.833974596
 30
0.0
 40
8.0
 50
90.0
 51
180.0
  0
LINE
  8
0
  6
CONTINUOUS
 62
     1
 10
1368.922218677
 20
632.833974596
 30
0.0
 11
1390.226065027
 21
632.833974596
 31
0.0
  0
LINE
  8
0
  6
CONTINUOUS
 62
     1
 10
1465.618372326
 20
632.833974596
 30
0.0
 11
1486.922218677
 21
632.833974596
 31
0.0
  0
ARC
  8
0
  6
CONTINUOUS
 62
     1
 10
1427.922218677
 20
730.833974596
 30
0.0
 40
105.0
 50
248.960530219
 51
250.314945175
  0
ARC
  8
0
  6
CONTINUOUS
 62
     1
 10
1427.922218677
 20
730.833974596
 30
0.0
 40
105.0
 50
289.685054825
 51
291.039469781
  0
LINE
  8
0
  6
LTYPE1
 62
     2
 10
1347.922218677
 20
544.833974596
 30
0.0
 11
1347.922218677
 21
586.833974596
 31
0.0
  0
LINE
  8
0
  6
CONTINUOUS
 62
     1
 10
1325.797235883
 20
545.255153215
 30
0.0
 11
1325.895716658
 21
545.237788398
 31
0.0
  0
LINE
  8
0
  6
CONTINUOUS
 62
     1
 10
1332.922218677
 20
542.833974596
 30
0.0
 11
1332.922218677
 21
552.733974596
 31
0.0
  0
LINE
  8
0
  6
CONTINUOUS
 62
     1
 10
1427.922218677
 20
845.833974596
 30
0.0
 11
1387.922218677
 21
845.833974596
 31
0.0
  0
LINE
  8
0
  6
CONTINUOUS
 62
     1
 10
1387.922218677
 20
845.833974596
 30
0.0
 11
1467.922218677
 21
845.833974596
 31
0.0
  0
LINE
  8
0
  6
CONTINUOUS
 62
     1
 10
1335.422218677
 20
785.992778928
 30
0.0
 11
1335.422218677
 21
801.363379095
 31
0.0
  0
LINE
  8
0
  6
CONTINUOUS
 62
     1
 10
1520.422218677
 20
785.992778928
 30
0.0
 11
1520.422218677
 21
801.363379095
 31
0.0
  0
ARC
  8
0
  6
CONTINUOUS
 62
     1
 10
1427.922218677
 20
741.833974596
 30
0.0
 40
110.0
 50
107.84092038
 51
147.236242241
  0
ARC
  8
0
  6
CONTINUOUS
 62
     1
 10
1427.922218677
 20
741.833974596
 30
0.0
 40
110.0
 50
32.763757759
 51
72.15907962
  0
LINE
  8
2
  6
CONTINUOUS
 62
     2
 10
1472.922218677
 20
929.833974596
 30
0.0
 11
1615.922218677
 21
929.833974596
 31
0.0
  0
LINE
  8
2
  6
CONTINUOUS
 62
     2
 10
1479.922233935
 20
446.833974596
 30
0.0
 11
1650.922218677
 21
446.833974596
 31
0.0
  0
LINE
  8
0
  6
CONTINUOUS
 62
     1
 10
1520.422218677
 20
589.027210886
 30
0.0
 11
1520.422218677
 21
699.833974596
 31
0.0
  0
LINE
  8
0
  6
CONTINUOUS
 62
     1
 10
1335.422218677
 20
588.833974596
 30
0.0
 11
1335.422218677
 21
699.833974596
 31
0.0
  0
CIRCLE
  8
0
  6
CONTINUOUS
 62
     1
 10
1427.922218677
 20
565.833974596
 30
0.0
 40
55.0
  0
LINE
  8
0
  6
CONTINUOUS
 62
     2
 10
1332.922218677
 20
299.833974596
 30
0.0
 11
1344.996291505
 21
296.598736532
 31
0.0
  0
LINE
  8
0
  6
CONTINUOUS
 62
     2
 10
1332.922218677
 20
299.833974596
 30
0.0
 11
1344.996291505
 21
303.06921266
 31
0.0
  0
LINE
  8
0
  6
CONTINUOUS
 62
     2
 10
1522.922218677
 20
299.833974596
 30
0.0
 11
1510.848145848
 21
303.06921266
 31
0.0
  0
LINE
  8
0
  6
CONTINUOUS
 62
     2
 10
1522.922218677
 20
299.833974596
 30
0.0
 11
1510.848145848
 21
296.598736532
 31
0.0
  0
LINE
  8
0
  6
CONTINUOUS
 62
     2
 10
1332.922218677
 20
299.833974596
 30
0.0
 11
1522.922218677
 21
299.833974596
 31
0.0
  0
TEXT
  8
0
  6
CONTINUOUS
 62
     2
 10
870.022218677
 20
927.869974596
 30
0.0
 40
18.0
  1
手動開放装置
 50
0.0
 41
0.9
 51
0.0
  7
KANJI39
  0
TEXT
  8
2
  6
CONTINUOUS
 62
     2
 10
696.122218677
 20
933.069974596
 30
0.0
 40
18.0
  1
ＰＦ３／４
 50
0.0
 41
0.9
 51
0.0
  7
KANJI39
  0
TEXT
  8
2
  6
CONTINUOUS
 62
     2
 10
607.622218677
 20
966.333974596
 30
0.0
 40
18.0
  1
３７０
 50
0.0
 41
0.9
 51
0.0
  7
KANJI39
  0
TEXT
  8
0
  6
CONTINUOUS
 62
     2
 10
567.122218677
 20
362.771474596
 30
0.0
 40
18.0
  1
推力リミッタ
 50
0.0
 41
0.9
 51
0.0
  7
KANJI39
  0
TEXT
  8
0
  6
CONTINUOUS
 62
     2
 10
726.622218677
 20
488.333974596
 30
0.0
 40
18.0
  1
ＰＦ１／２
 50
0.0
 41
0.9
 51
0.0
  7
KANJI39
  0
TEXT
  8
2
  6
CONTINUOUS
 62
     2
 10
758.822218677
 20
320.833974596
 30
0.0
 40
18.0
  1
Ｃ
 50
0.0
 41
0.9
 51
0.0
  7
KANJI39
  0
TEXT
  8
2
  6
CONTINUOUS
 62
     2
 10
786.408343116
 20
288.833974596
 30
0.0
 40
18.0
  1
ｍｉｎ．Ｌ
 50
0.0
 41
0.9
 51
0.0
  7
KANJI39
  0
TEXT
  8
2
  6
CONTINUOUS
 62
     2
 10
679.158343116
 20
248.833974596
 30
0.0
 40
18.0
  1
ｍｉｎ．ＡＬ
 50
0.0
 41
0.9
 51
0.0
  7
KANJI39
  0
TEXT
  8
7
  6
CONTINUOUS
 62
     2
 10
1233.622218677
 20
808.283974596
 30
0.0
 40
18.0
  1
６０
 50
90.0
 41
0.9
 51
0.0
  7
KANJI39
  0
TEXT
  8
2
  6
CONTINUOUS
 62
     2
 10
979.06696244
 20
788.283974596
 30
0.0
 40
18.0
  1
φ１５０
 50
90.0
 41
0.9
 51
0.0
  7
KANJI39
  0
TEXT
  8
7
  6
CONTINUOUS
 62
     2
 10
1026.472218677
 20
724.533974596
 30
0.0
 40
18.0
  1
１５
 50
0.0
 41
0.9
 51
0.0
  7
KANJI39
  0
TEXT
  8
7
  6
CONTINUOUS
 62
     2
 10
1096.972218677
 20
724.533974596
 30
0.0
 40
18.0
  1
４５
 50
0.0
 41
0.9
 51
0.0
  7
KANJI39
  0
TEXT
  8
2
  6
CONTINUOUS
 62
     2
 10
1131.972218677
 20
724.533974596
 30
0.0
 40
18.0
  1
３０
 50
0.0
 41
0.9
 51
0.0
  7
KANJI39
  0
TEXT
  8
7
  6
CONTINUOUS
 62
     2
 10
1146.722218677
 20
625.483974596
 30
0.0
 40
18.0
  1
φ２５Ｈ１０
 50
0.0
 41
0.9
 51
0.0
  7
KANJI39
  0
TEXT
  8
2
  6
CONTINUOUS
 62
     2
 10
1192.722218677
 20
549.083974596
 30
0.0
 40
18.0
  1
６０
 50
90.0
 41
0.9
 51
0.0
  7
KANJI39
  0
TEXT
  8
2
  6
CONTINUOUS
 62
     2
 10
1078.958343116
 20
320.833974596
 30
0.0
 40
18.0
  1
６０
 50
0.0
 41
0.9
 51
0.0
  7
KANJI39
  0
TEXT
  8
2
  6
CONTINUOUS
 62
     2
 10
1123.958343116
 20
248.833974596
 30
0.0
 40
18.0
  1
３０
 50
0.0
 41
0.9
 51
0.0
  7
KANJI39
  0
TEXT
  8
2
  6
CONTINUOUS
 62
     2
 10
1009.122218677
 20
339.833974596
 30
0.0
 40
18.0
  1
ｍｉｎ．
 50
0.0
 41
0.9
 51
0.0
  7
KANJI39
  0
TEXT
  8
2
  6
CONTINUOUS
 62
     2
 10
1048.122218677
 20
320.833974596
 30
0.0
 40
18.0
  1
Ｐ
 50
0.0
 41
0.9
 51
0.0
  7
KANJI39
  0
TEXT
  8
2
  6
CONTINUOUS
 62
     2
 10
875.150020072
 20
707.419974596
 30
0.0
 40
18.0
  1
φ２０５
 50
90.0
 41
0.9
 51
0.0
  7
KANJI39
  0
TEXT
  8
2
  6
CONTINUOUS
 62
     2
 10
909.622218677
 20
531.583974596
 30
0.0
 40
18.0
  1
φ１５０
 50
90.0
 41
0.9
 51
0.0
  7
KANJI39
  0
TEXT
  8
2
  6
CONTINUOUS
 62
     2
 10
747.122218677
 20
529.433974596
 30
0.0
 40
18.0
  1
φ１１０
 50
90.0
 41
0.9
 51
0.0
  7
KANJI39
  0
TEXT
  8
2
  6
CONTINUOUS
 62
     2
 10
800.722218677
 20
600.833974596
 30
0.0
 40
18.0
  1
給脂口
 50
0.0
 41
0.9
 51
0.0
  7
KANJI39
  0
TEXT
  8
0
  6
CONTINUOUS
 62
     2
 10
1405.422218677
 20
354.833974596
 30
0.0
 40
18.0
  1
１８５
 50
0.0
 41
0.9
 51
0.0
  7
KANJI39
  0
TEXT
  8
0
  6
CONTINUOUS
 62
     2
 10
1405.422218677
 20
304.833974596
 30
0.0
 40
18.0
  1
１９０
 50
0.0
 41
0.9
 51
0.0
  7
KANJI39
  0
TEXT
  8
0
  6
CONTINUOUS
 62
     2
 10
1211.422218677
 20
643.234797166
 30
0.0
 40
18.0
  1
ｄ９
 50
0.0
 41
0.9
 51
0.0
  7
KANJI39
  0
TEXT
  8
7
  6
CONTINUOUS
 62
     2
 10
1196.622218677
 20
808.283974596
 30
-3.0
 40
18.0
  1
３０
 50
90.0
 41
0.9
 51
0.0
  7
KANJI64
  0
LINE
  8
0
  6
LTYPE2
 62
     2
 10
1427.922218677
 20
430.0
 30
0.0
 11
1427.922218677
 21
942.0
 31
0.0
  0
LINE
  8
0
  6
CONTINUOUS
 62
     2
 10
448.122218677
 20
960.833974596
 30
0.0
 11
436.531108761
 21
963.939803137
 31
0.0
  0
LINE
  8
0
  6
CONTINUOUS
 62
     2
 10
448.122218677
 20
960.833974596
 30
0.0
 11
436.531108761
 21
957.728146055
 31
0.0
  0
LINE
  8
0
  6
CONTINUOUS
 62
     2
 10
448.122218677
 20
960.833974596
 30
0.0
 11
311.122218677
 21
960.833974596
 31
0.0
  0
LINE
  8
0
  6
CONTINUOUS
 62
     2
 10
311.122218677
 20
960.833974596
 30
0.0
 11
322.713328592
 21
957.728146055
 31
0.0
  0
LINE
  8
0
  6
CONTINUOUS
 62
     2
 10
311.122218677
 20
960.833974596
 30
0.0
 11
322.713328592
 21
963.939803137
 31
0.0
  0
LINE
  8
0
  6
CONTINUOUS
 62
     2
 10
311.122218677
 20
761.833974596
 30
0.0
 11
311.122218677
 21
966.833974596
 31
0.0
  0
TEXT
  8
0
  6
CONTINUOUS
 62
     3
 10
355.322218677
 20
966.833974596
 30
0.0
 40
18.0
  1
１３７
 50
0.0
 41
0.9
 51
0.0
  7
KANJI39
  0
LINE
  8
0
  6
CONTINUOUS
 62
     2
 10
328.622218677
 20
758.233974596
 30
0.0
 11
278.622218677
 21
883.233974596
 31
0.0
  0
LINE
  8
0
  6
CONTINUOUS
 62
     2
 10
278.622218677
 20
883.233974596
 30
0.0
 11
197.622218677
 21
883.233974596
 31
0.0
  0
TEXT
  8
0
  6
CONTINUOUS
 62
     2
 10
197.622218677
 20
888.233974596
 30
0.0
 40
15.0
  1
手動軸カバー
 50
0.0
 41
0.9
 51
0.0
  7
KANJI58
  0
TEXT
  8
0
  6
CONTINUOUS
 62
     3
 10
191.588885677
 20
861.100657596
 30
1.5
 40
15.0
  1
手動軸□１０
 50
0.0
 41
0.9
 51
0.0
  7
KANJI65
  0
ARC
  8
0
  6
CONTINUOUS
 62
     2
 10
279.622218677
 20
741.233974596
 30
0.0
 40
20.0
 50
231.952957468
 51
156.801409486
  0
LINE
  8
0
  6
CONTINUOUS
 62
     2
 10
261.239318076
 20
749.112360568
 30
0.0
 11
263.534010787
 21
758.949799345
 31
0.0
  0
LINE
  8
0
  6
CONTINUOUS
 62
     2
 10
261.239318076
 20
749.112360568
 30
0.0
 11
269.507479454
 21
754.019697103
 31
0.0
  0
TEXT
  8
0
  6
CONTINUOUS
 62
     2
 10
199.239318076
 20
732.112360568
 30
0.0
 40
15.0
  1
前進方向
 50
0.0
 41
0.9
 51
0.0
  7
KANJI58
  0
LINE
  8
0
  6
CONTINUOUS
 62
     2
 10
328.622218677
 20
758.233974596
 30
0.0
 11
327.141863734
 21
770.646007034
 31
0.0
  0
LINE
  8
0
  6
CONTINUOUS
 62
     2
 10
328.622218677
 20
758.233974596
 30
0.0
 11
321.134177471
 21
768.242932529
 31
0.0
  0
LINE
  8
0
  6
CONTINUOUS
 62
     1
 10
311.122218677
 20
727.833974596
 30
0.0
 11
311.122218677
 21
755.833974596
 31
0.0
  0
LINE
  8
0
  6
CONTINUOUS
 62
     1
 10
349.122218677
 20
727.833974596
 30
0.0
 11
349.122218677
 21
755.833974596
 31
0.0
  0
LINE
  8
0
  6
CONTINUOUS
 62
     1
 10
311.122218677
 20
755.833974596
 30
0.0
 11
353.122218677
 21
755.833974596
 31
0.0
  0
LINE
  8
0
  6
CONTINUOUS
 62
     1
 10
311.122218677
 20
727.833974596
 30
0.0
 11
353.122218677
 21
727.833974596
 31
0.0
  0
LINE
  8
0
  6
CONTINUOUS
 62
     2
 10
533.122218677
 20
291.833974596
 30
0.0
 11
533.122218677
 21
277.833974596
 31
0.0
  0
LINE
  8
0
  6
CONTINUOUS
 62
     2
 10
533.122218677
 20
283.833974596
 30
0.0
 11
521.531108761
 21
286.939803137
 31
0.0
  0
LINE
  8
0
  6
CONTINUOUS
 62
     2
 10
533.122218677
 20
283.833974596
 30
0.0
 11
521.531108761
 21
280.728146055
 31
0.0
  0
LINE
  8
0
  6
CONTINUOUS
 62
     2
 10
533.122218677
 20
283.833974596
 30
0.0
 11
336.122218677
 21
283.833974596
 31
0.0
  0
LINE
  8
0
  6
CONTINUOUS
 62
     2
 10
336.122218677
 20
283.833974596
 30
0.0
 11
347.713328592
 21
280.728146055
 31
0.0
  0
LINE
  8
0
  6
CONTINUOUS
 62
     2
 10
336.122218677
 20
283.833974596
 30
0.0
 11
347.713328592
 21
286.939803137
 31
0.0
  0
LINE
  8
0
  6
CONTINUOUS
 62
     2
 10
336.122218677
 20
282.833974596
 30
0.0
 11
336.122218677
 21
289.833974596
 31
0.0
  0
TEXT
  8
0
  6
CONTINUOUS
 62
     3
 10
410.322218677
 20
289.833974596
 30
0.0
 40
18.0
  1
１９７
 50
0.0
 41
0.9
 51
0.0
  7
KANJI39
  0
LINE
  8
0
  6
CONTINUOUS
 62
     2
 10
533.122218677
 20
325.833974596
 30
0.0
 11
533.122218677
 21
309.833974596
 31
0.0
  0
LINE
  8
0
  6
CONTINUOUS
 62
     2
 10
533.122218677
 20
315.833974596
 30
0.0
 11
521.531108761
 21
318.939803137
 31
0.0
  0
LINE
  8
0
  6
CONTINUOUS
 62
     2
 10
533.122218677
 20
315.833974596
 30
0.0
 11
521.531108761
 21
312.728146055
 31
0.0
  0
LINE
  8
0
  6
CONTINUOUS
 62
     2
 10
533.122218677
 20
315.833974596
 30
0.0
 11
448.122218677
 21
315.833974596
 31
0.0
  0
LINE
  8
0
  6
CONTINUOUS
 62
     2
 10
448.122218677
 20
315.833974596
 30
0.0
 11
459.713328592
 21
312.728146055
 31
0.0
  0
LINE
  8
0
  6
CONTINUOUS
 62
     2
 10
448.122218677
 20
315.833974596
 30
0.0
 11
459.713328592
 21
318.939803137
 31
0.0
  0
LINE
  8
0
  6
CONTINUOUS
 62
     2
 10
448.122218677
 20
465.833974596
 30
0.0
 11
448.122218677
 21
309.833974596
 31
0.0
  0
TEXT
  8
0
  6
CONTINUOUS
 62
     3
 10
474.422218677
 20
321.833974596
 30
0.0
 40
18.0
  1
８５
 50
0.0
 41
0.9
 51
0.0
  7
KANJI39
  0
LINE
  8
0
  6
CONTINUOUS
 62
     2
 10
448.122218677
 20
325.833974596
 30
0.0
 11
448.122218677
 21
309.833974596
 31
0.0
  0
LINE
  8
0
  6
CONTINUOUS
 62
     2
 10
448.122218677
 20
315.833974596
 30
0.0
 11
436.531108761
 21
318.939803137
 31
0.0
  0
LINE
  8
0
  6
CONTINUOUS
 62
     2
 10
448.122218677
 20
315.833974596
 30
0.0
 11
436.531108761
 21
312.728146055
 31
0.0
  0
LINE
  8
0
  6
CONTINUOUS
 62
     2
 10
448.122218677
 20
315.833974596
 30
0.0
 11
336.122218677
 21
315.833974596
 31
0.0
  0
LINE
  8
0
  6
CONTINUOUS
 62
     2
 10
336.122218677
 20
315.833974596
 30
0.0
 11
347.713328592
 21
312.728146055
 31
0.0
  0
LINE
  8
0
  6
CONTINUOUS
 62
     2
 10
336.122218677
 20
315.833974596
 30
0.0
 11
347.713328592
 21
318.939803137
 31
0.0
  0
LINE
  8
0
  6
CONTINUOUS
 62
     2
 10
336.122218677
 20
319.833974596
 30
0.0
 11
336.122218677
 21
309.833974596
 31
0.0
  0
TEXT
  8
0
  6
CONTINUOUS
 62
     3
 10
367.822218677
 20
321.833974596
 30
0.0
 40
18.0
  1
１１２
 50
0.0
 41
0.9
 51
0.0
  7
KANJI39
  0
LINE
  8
0
  6
CONTINUOUS
 62
     1
 10
568.0
 20
446.833974596
 30
0.0
 11
578.0
 21
446.833974596
 31
0.0
  0
LINE
  8
0
  6
LTYPE3
 62
     2
 10
573.0
 20
451.833974596
 30
0.0
 11
573.0
 21
441.133974596
 31
0.0
  0
ARC
  8
0
  6
CONTINUOUS
 62
     1
 10
573.0
 20
447.733974596
 30
0.0
 40
5.1
 50
189.9
 51
350.1
  0
LINE
  8
0
  6
CONTINUOUS
 62
     1
 10
679.0
 20
446.833974596
 30
0.0
 11
689.0
 21
446.833974596
 31
0.0
  0
LINE
  8
0
  6
LTYPE3
 62
     2
 10
684.0
 20
451.833974596
 30
0.0
 11
684.0
 21
441.133974596
 31
0.0
  0
ARC
  8
0
  6
CONTINUOUS
 62
     1
 10
684.0
 20
447.733974596
 30
0.0
 40
5.1
 50
189.9
 51
350.1
  0
LINE
  8
0
  6
CONTINUOUS
 62
     1
 10
1377.922218677
 20
446.833974596
 30
0.0
 11
1387.922218677
 21
446.833974596
 31
0.0
  0
LINE
  8
0
  6
LTYPE3
 62
     2
 10
1382.922218677
 20
451.833974596
 30
0.0
 11
1382.922218677
 21
441.133974596
 31
0.0
  0
ARC
  8
0
  6
CONTINUOUS
 62
     1
 10
1382.922218677
 20
447.733974596
 30
0.0
 40
5.1
 50
189.9
 51
350.1
  0
LINE
  8
0
  6
CONTINUOUS
 62
     1
 10
1467.922218677
 20
446.833974596
 30
0.0
 11
1477.922218677
 21
446.833974596
 31
0.0
  0
LINE
  8
0
  6
LTYPE3
 62
     2
 10
1472.922218677
 20
451.833974596
 30
0.0
 11
1472.922218677
 21
441.133974596
 31
0.0
  0
ARC
  8
0
  6
CONTINUOUS
 62
     1
 10
1472.922218677
 20
447.733974596
 30
0.0
 40
5.1
 50
189.9
 51
350.1
  0
TEXT
  8
0
  6
CONTINUOUS
 62
     2
 10
524.312228132
 20
723.683974596
 30
0.0
 40
16.8
  1
日本電産
 50
0.0
 41
0.964285714
 51
0.0
  7
KANJI66
  0
TEXT
  8
0
  6
CONTINUOUS
 62
     2
 10
524.312228132
 20
701.683974596
 30
0.0
 40
16.8
  1
クイックブレーキモータ
 50
0.0
 41
0.821428571
 51
0.0
  7
KANJI67
  0
LINE
  8
0
  6
CONTINUOUS
 62
     2
 10
1148.122218677
 20
900.833974596
 30
0.0
 11
1136.048145848
 21
904.06921266
 31
0.0
  0
LINE
  8
0
  6
CONTINUOUS
 62
     2
 10
1148.122218677
 20
900.833974596
 30
0.0
 11
1136.048145848
 21
897.598736532
 31
0.0
  0
LINE
  8
0
  6
CONTINUOUS
 62
     2
 10
1148.122218677
 20
900.833974596
 30
0.0
 11
1107.122218677
 21
900.833974596
 31
0.0
  0
TEXT
  8
0
  6
CONTINUOUS
 62
     3
 10
1114.122218677
 20
910.833974596
 30
0.0
 40
20.0
  1
前進
 50
0.0
 41
0.925
 51
0.0
  7
KANJI63
  0
ARC
  8
0
  6
CONTINUOUS
 62
     1
 10
1427.922218677
 20
741.833974596
 30
0.0
 40
102.5
 50
276.369963034
 51
265.51539399
  0
LINE
  8
0
  6
CONTINUOUS
 62
     2
 10
1605.922218677
 20
565.833974596
 30
0.0
 11
1609.15745674
 21
577.908047425
 31
0.0
  0
LINE
  8
0
  6
CONTINUOUS
 62
     2
 10
1605.922218677
 20
565.833974596
 30
0.0
 11
1602.686980613
 21
577.908047425
 31
0.0
  0
LINE
  8
0
  6
CONTINUOUS
 62
     2
 10
1571.422218677
 20
578.333974596
 30
0.0
 11
1574.65745674
 21
590.408047425
 31
0.0
  0
LINE
  8
0
  6
CONTINUOUS
 62
     2
 10
1571.422218677
 20
578.333974596
 30
0.0
 11
1568.186980613
 21
590.408047425
 31
0.0
  0
LINE
  8
0
  6
CONTINUOUS
 62
     2
 10
1571.422218677
 20
553.333974596
 30
0.0
 11
1568.186980613
 21
541.259901768
 31
0.0
  0
LINE
  8
0
  6
CONTINUOUS
 62
     2
 10
1571.422218677
 20
553.333974596
 30
0.0
 11
1574.65745674
 21
541.259901768
 31
0.0
  0
LINE
  8
0
  6
CONTINUOUS
 62
     2
 10
1571.422218677
 20
738.833974596
 30
0.0
 11
1571.422218677
 21
528.333974596
 31
0.0
  0
LINE
  8
7
  6
CONTINUOUS
 62
     2
 10
1605.922218677
 20
565.833974596
 30
0.0
 11
1602.686980613
 21
553.759901768
 31
0.0
  0
LINE
  8
7
  6
CONTINUOUS
 62
     2
 10
1605.922218677
 20
565.833974596
 30
0.0
 11
1609.15745674
 21
553.759901768
 31
0.0
  0
LINE
  8
7
  6
CONTINUOUS
 62
     2
 10
1605.922218677
 20
565.833974596
 30
0.0
 11
1605.922218677
 21
446.833974596
 31
0.0
  0
LINE
  8
7
  6
CONTINUOUS
 62
     2
 10
1605.922218677
 20
446.833974596
 30
0.0
 11
1609.15745674
 21
458.908047425
 31
0.0
  0
LINE
  8
7
  6
CONTINUOUS
 62
     2
 10
1605.922218677
 20
446.833974596
 30
0.0
 11
1602.686980613
 21
458.908047425
 31
0.0
  0
LINE
  8
2
  6
CONTINUOUS
 62
     2
 10
1605.922218677
 20
929.833974596
 30
0.0
 11
1602.686980613
 21
917.759901768
 31
0.0
  0
LINE
  8
2
  6
CONTINUOUS
 62
     2
 10
1605.922218677
 20
929.833974596
 30
0.0
 11
1609.15745674
 21
917.759901768
 31
0.0
  0
LINE
  8
2
  6
CONTINUOUS
 62
     2
 10
1588.922218677
 20
929.833974596
 30
0.0
 11
1650.922218677
 21
929.833974596
 31
0.0
  0
LINE
  8
0
  6
CONTINUOUS
 62
     2
 10
1605.922218677
 20
565.833974596
 30
0.0
 11
1605.922218677
 21
741.833974596
 31
0.0
  0
LINE
  8
0
  6
CONTINUOUS
 62
     2
 10
1605.922218677
 20
741.833974596
 30
0.0
 11
1602.686980613
 21
729.759901768
 31
0.0
  0
LINE
  8
0
  6
CONTINUOUS
 62
     2
 10
1605.922218677
 20
741.833974596
 30
0.0
 11
1609.15745674
 21
729.759901768
 31
0.0
  0
LINE
  8
0
  6
CONTINUOUS
 62
     2
 10
1551.022218677
 20
741.833974596
 30
0.0
 11
1610.922218677
 21
741.833974596
 31
0.0
  0
LINE
  8
2
  6
CONTINUOUS
 62
     2
 10
1591.922218677
 20
741.833974596
 30
0.0
 11
1615.922218677
 21
741.833974596
 31
0.0
  0
LINE
  8
2
  6
CONTINUOUS
 62
     2
 10
1605.922218677
 20
741.833974596
 30
0.0
 11
1609.15745674
 21
753.908047425
 31
0.0
  0
LINE
  8
2
  6
CONTINUOUS
 62
     2
 10
1605.922218677
 20
741.833974596
 30
0.0
 11
1602.686980613
 21
753.908047425
 31
0.0
  0
LINE
  8
2
  6
CONTINUOUS
 62
     2
 10
1605.922218677
 20
741.833974596
 30
0.0
 11
1605.922218677
 21
929.833974596
 31
0.0
  0
LINE
  8
2
  6
CONTINUOUS
 62
     2
 10
1640.922218677
 20
446.833974596
 30
0.0
 11
1644.15745674
 21
458.908047425
 31
0.0
  0
LINE
  8
2
  6
CONTINUOUS
 62
     2
 10
1640.922218677
 20
446.833974596
 30
0.0
 11
1637.686980613
 21
458.908047425
 31
0.0
  0
LINE
  8
2
  6
CONTINUOUS
 62
     2
 10
1640.922218677
 20
929.833974596
 30
0.0
 11
1640.922218677
 21
446.833974596
 31
0.0
  0
LINE
  8
2
  6
CONTINUOUS
 62
     2
 10
1640.922218677
 20
929.833974596
 30
0.0
 11
1637.686980613
 21
917.759901768
 31
0.0
  0
LINE
  8
2
  6
CONTINUOUS
 62
     2
 10
1640.922218677
 20
929.833974596
 30
0.0
 11
1644.15745674
 21
917.759901768
 31
0.0
  0
TEXT
  8
0
  6
CONTINUOUS
 62
     2
 10
1566.422218677
 20
586.333974596
 30
0.0
 40
18.0
  1
φ２５Ｈ１０深さ３０
 50
90.0
 41
0.9
 51
0.0
  7
KANJI39
  0
TEXT
  8
7
  6
CONTINUOUS
 62
     2
 10
1600.922218677
 20
485.083974596
 30
0.0
 40
18.0
  1
１１９
 50
90.0
 41
0.9
 51
0.0
  7
KANJI39
  0
TEXT
  8
0
  6
CONTINUOUS
 62
     2
 10
1600.922218677
 20
631.333974596
 30
0.0
 40
18.0
  1
１７６
 50
90.0
 41
0.9
 51
0.0
  7
KANJI39
  0
TEXT
  8
2
  6
CONTINUOUS
 62
     2
 10
1600.922218677
 20
810.333974596
 30
0.0
 40
18.0
  1
１８８
 50
90.0
 41
0.9
 51
0.0
  7
KANJI39
  0
TEXT
  8
2
  6
CONTINUOUS
 62
     2
 10
1635.922218677
 20
662.833974596
 30
0.0
 40
18.0
  1
４８３
 50
90.0
 41
0.9
 51
0.0
  7
KANJI39
  0
TEXT
  8
0
  6
CONTINUOUS
 62
     2
 10
1097.269827
 20
1513.13368
 30
1.749993
 40
17.49993
  1
注意：サーマルリレー等の選定は、上記の値で選定して下さい。
 50
0.0
 41
0.9
 51
0.0
  7
KANJI68
  0
LINE
  8
0
  6
CONTINUOUS
 62
     2
 10
1089.269867
 20
1508.1337
 30
0.0
 11
1586.12
 21
1508.1337
 31
0.0
  0
LINE
  8
0
  6
CONTINUOUS
 62
     1
 10
1052.97
 20
1496.26024
 30
0.0
 11
1830.57
 21
1496.26024
 31
0.0
  0
LINE
  8
0
  6
CONTINUOUS
 62
     1
 10
1052.97
 20
1462.66024
 30
0.0
 11
1830.57
 21
1462.66024
 31
0.0
  0
TEXT
  8
0
  6
CONTINUOUS
 62
     2
 10
1100.97
 20
1472.26024
 30
1.536
 40
15.36
  1
形
 50
0.0
 41
0.9
 51
0.0
  7
KANJI69
  0
TEXT
  8
0
  6
CONTINUOUS
 62
     2
 10
1194.57
 20
1472.26024
 30
1.536
 40
15.36
  1
式
 50
0.0
 41
0.9
 51
0.0
  7
KANJI69
  0
TEXT
  8
0
  6
CONTINUOUS
 62
     2
 10
1267.05
 20
1471.30024
 30
1.44
 40
14.4
  1
ストローク
 50
0.0
 41
0.9
 51
0.0
  7
KANJI70
  0
TEXT
  8
0
  6
CONTINUOUS
 62
     2
 10
1359.21
 20
1470.34024
 30
0.0
 40
14.4
  1
ｍｉｎ　
 50
0.0
 41
0.9
 51
0.0
  7
KANJI71
  0
TEXT
  8
0
  6
CONTINUOUS
 62
     2
 10
1455.21
 20
1470.34024
 30
0.0
 40
14.4
  1
ｍｉｎ　
 50
0.0
 41
0.9
 51
0.0
  7
KANJI71
  0
TEXT
  8
0
  6
CONTINUOUS
 62
     2
 10
1647.21
 20
1470.34024
 30
0.0
 40
14.4
  1
ｍｉｎ　
 50
0.0
 41
0.9
 51
0.0
  7
KANJI71
  0
TEXT
  8
0
  6
CONTINUOUS
 62
     2
 10
1408.17
 20
1471.30024
 30
1.68
 40
16.8
  1
ＡＬ
 50
0.0
 41
0.9
 51
0.0
  7
KANJI72
  0
TEXT
  8
0
  6
CONTINUOUS
 62
     2
 10
1504.17
 20
1471.30024
 30
1.68
 40
16.8
  1
Ｌ
 50
0.0
 41
0.9
 51
0.0
  7
KANJI72
  0
TEXT
  8
0
  6
CONTINUOUS
 62
     2
 10
1585.77
 20
1471.30024
 30
1.68
 40
16.8
  1
Ｃ
 50
0.0
 41
0.9
 51
0.0
  7
KANJI72
  0
TEXT
  8
0
  6
CONTINUOUS
 62
     2
 10
1696.17
 20
1471.30024
 30
1.68
 40
16.8
  1
Ｐ
 50
0.0
 41
0.9
 51
0.0
  7
KANJI72
  0
TEXT
  8
0
  6
CONTINUOUS
 62
     2
 10
1794.93
 20
1470.94024
 30
0.0
 40
12.96
  1
（ｋｇ）
 50
0.0
 41
0.740740741
 51
0.0
  7
KANJI73
  0
TEXT
  8
0
  6
CONTINUOUS
 62
     2
 10
1737.33
 20
1470.70024
 30
1.44
 40
16.8
  1
概算重量
 50
0.0
 41
0.857142857
 51
0.0
  7
KANJI74
  0
TEXT
  8
0
  6
CONTINUOUS
 62
     2
 10
1276.17
 20
1439.10024
 30
1.44
 40
14.4
  1
　２００
 50
0.0
 41
0.9
 51
0.0
  7
KANJI70
  0
TEXT
  8
0
  6
CONTINUOUS
 62
     2
 10
1660.17
 20
1439.10024
 30
1.44
 40
14.4
  1
　　４５
 50
0.0
 41
0.9
 51
0.0
  7
KANJI70
  0
TEXT
  8
0
  6
CONTINUOUS
 62
     2
 10
1564.17
 20
1439.10024
 30
1.44
 40
14.4
  1
　４６２
 50
0.0
 41
0.9
 51
0.0
  7
KANJI70
  0
LINE
  8
0
  6
CONTINUOUS
 62
     2
 10
1052.97
 20
1431.06024
 30
0.0
 11
1830.57
 21
1431.06024
 31
0.0
  0
TEXT
  8
0
  6
CONTINUOUS
 62
     2
 10
1468.17
 20
1439.10024
 30
1.44
 40
14.4
  1
　５６７
 50
0.0
 41
0.9
 51
0.0
  7
KANJI70
  0
TEXT
  8
0
  6
CONTINUOUS
 62
     2
 10
1372.17
 20
1439.10024
 30
1.44
 40
14.4
  1
　７６４
 50
0.0
 41
0.9
 51
0.0
  7
KANJI70
  0
TEXT
  8
0
  6
CONTINUOUS
 62
     2
 10
1276.17
 20
1407.50024
 30
1.44
 40
14.4
  1
　３００
 50
0.0
 41
0.9
 51
0.0
  7
KANJI70
  0
TEXT
  8
0
  6
CONTINUOUS
 62
     2
 10
1660.17
 20
1407.50024
 30
1.44
 40
14.4
  1
　　４５
 50
0.0
 41
0.9
 51
0.0
  7
KANJI70
  0
TEXT
  8
0
  6
CONTINUOUS
 62
     2
 10
1564.17
 20
1407.50024
 30
1.44
 40
14.4
  1
　５６２
 50
0.0
 41
0.9
 51
0.0
  7
KANJI70
  0
LINE
  8
0
  6
CONTINUOUS
 62
     2
 10
1052.97
 20
1399.46024
 30
0.0
 11
1830.57
 21
1399.46024
 31
0.0
  0
TEXT
  8
0
  6
CONTINUOUS
 62
     2
 10
1468.17
 20
1407.50024
 30
1.44
 40
14.4
  1
　６６７
 50
0.0
 41
0.9
 51
0.0
  7
KANJI70
  0
TEXT
  8
0
  6
CONTINUOUS
 62
     2
 10
1372.17
 20
1407.50024
 30
1.44
 40
14.4
  1
　８６４
 50
0.0
 41
0.9
 51
0.0
  7
KANJI70
  0
TEXT
  8
0
  6
CONTINUOUS
 62
     2
 10
1276.17
 20
1375.90024
 30
1.44
 40
14.4
  1
　４００
 50
0.0
 41
0.9
 51
0.0
  7
KANJI70
  0
TEXT
  8
0
  6
CONTINUOUS
 62
     2
 10
1660.17
 20
1375.90024
 30
1.44
 40
14.4
  1
　　８５
 50
0.0
 41
0.9
 51
0.0
  7
KANJI70
  0
TEXT
  8
0
  6
CONTINUOUS
 62
     2
 10
1564.17
 20
1375.90024
 30
1.44
 40
14.4
  1
　６６２
 50
0.0
 41
0.9
 51
0.0
  7
KANJI70
  0
LINE
  8
0
  6
CONTINUOUS
 62
     2
 10
1052.97
 20
1367.86024
 30
0.0
 11
1830.57
 21
1367.86024
 31
0.0
  0
TEXT
  8
0
  6
CONTINUOUS
 62
     2
 10
1468.17
 20
1375.90024
 30
1.44
 40
14.4
  1
　８０７
 50
0.0
 41
0.9
 51
0.0
  7
KANJI70
  0
TEXT
  8
0
  6
CONTINUOUS
 62
     2
 10
1372.17
 20
1375.90024
 30
1.44
 40
14.4
  1
１００４
 50
0.0
 41
0.9
 51
0.0
  7
KANJI70
  0
TEXT
  8
0
  6
CONTINUOUS
 62
     2
 10
1276.17
 20
1344.30024
 30
1.44
 40
14.4
  1
　５００
 50
0.0
 41
0.9
 51
0.0
  7
KANJI70
  0
TEXT
  8
0
  6
CONTINUOUS
 62
     2
 10
1660.17
 20
1344.30024
 30
1.44
 40
14.4
  1
　１１２
 50
0.0
 41
0.9
 51
0.0
  7
KANJI70
  0
TEXT
  8
0
  6
CONTINUOUS
 62
     2
 10
1564.17
 20
1344.30024
 30
1.44
 40
14.4
  1
　７６２
 50
0.0
 41
0.9
 51
0.0
  7
KANJI70
  0
LINE
  8
0
  6
CONTINUOUS
 62
     2
 10
1052.97
 20
1336.26024
 30
0.0
 11
1830.57
 21
1336.26024
 31
0.0
  0
TEXT
  8
0
  6
CONTINUOUS
 62
     2
 10
1468.17
 20
1344.30024
 30
1.44
 40
14.4
  1
　９３４
 50
0.0
 41
0.9
 51
0.0
  7
KANJI70
  0
TEXT
  8
0
  6
CONTINUOUS
 62
     2
 10
1372.17
 20
1344.30024
 30
1.44
 40
14.4
  1
１１３１
 50
0.0
 41
0.9
 51
0.0
  7
KANJI70
  0
LINE
  8
0
  6
CONTINUOUS
 62
     2
 10
1052.97
 20
1304.66024
 30
0.0
 11
1830.57
 21
1304.66024
 31
0.0
  0
TEXT
  8
0
  6
CONTINUOUS
 62
     2
 10
1276.17
 20
1312.70024
 30
1.44
 40
14.4
  1
　６００
 50
0.0
 41
0.9
 51
0.0
  7
KANJI70
  0
TEXT
  8
0
  6
CONTINUOUS
 62
     2
 10
1372.17
 20
1312.70024
 30
1.44
 40
14.4
  1
１２８７
 50
0.0
 41
0.9
 51
0.0
  7
KANJI70
  0
TEXT
  8
0
  6
CONTINUOUS
 62
     2
 10
1468.17
 20
1312.70024
 30
1.44
 40
14.4
  1
１０９０
 50
0.0
 41
0.9
 51
0.0
  7
KANJI70
  0
TEXT
  8
0
  6
CONTINUOUS
 62
     2
 10
1564.17
 20
1312.70024
 30
1.44
 40
14.4
  1
　９０２
 50
0.0
 41
0.9
 51
0.0
  7
KANJI70
  0
TEXT
  8
0
  6
CONTINUOUS
 62
     2
 10
1660.17
 20
1312.70024
 30
1.44
 40
14.4
  1
　１２８
 50
0.0
 41
0.9
 51
0.0
  7
KANJI70
  0
LINE
  8
0
  6
CONTINUOUS
 62
     2
 10
1052.97
 20
1273.06024
 30
0.0
 11
1830.57
 21
1273.06024
 31
0.0
  0
TEXT
  8
0
  6
CONTINUOUS
 62
     2
 10
1276.17
 20
1281.10024
 30
1.44
 40
14.4
  1
　７００
 50
0.0
 41
0.9
 51
0.0
  7
KANJI70
  0
TEXT
  8
0
  6
CONTINUOUS
 62
     2
 10
1372.17
 20
1281.10024
 30
1.44
 40
14.4
  1
１４０７
 50
0.0
 41
0.9
 51
0.0
  7
KANJI70
  0
TEXT
  8
0
  6
CONTINUOUS
 62
     2
 10
1468.17
 20
1281.10024
 30
1.44
 40
14.4
  1
１２１０
 50
0.0
 41
0.9
 51
0.0
  7
KANJI70
  0
TEXT
  8
0
  6
CONTINUOUS
 62
     2
 10
1564.17
 20
1281.10024
 30
1.44
 40
14.4
  1
１００２
 50
0.0
 41
0.9
 51
0.0
  7
KANJI70
  0
TEXT
  8
0
  6
CONTINUOUS
 62
     2
 10
1660.17
 20
1281.10024
 30
1.44
 40
14.4
  1
　１４８
 50
0.0
 41
0.9
 51
0.0
  7
KANJI70
  0
LINE
  8
0
  6
CONTINUOUS
 62
     2
 10
1052.97
 20
1241.46024
 30
0.0
 11
1830.57
 21
1241.46024
 31
0.0
  0
TEXT
  8
0
  6
CONTINUOUS
 62
     2
 10
1276.17
 20
1249.50024
 30
1.44
 40
14.4
  1
　８００
 50
0.0
 41
0.9
 51
0.0
  7
KANJI70
  0
TEXT
  8
0
  6
CONTINUOUS
 62
     2
 10
1372.17
 20
1249.50024
 30
1.44
 40
14.4
  1
１５２７
 50
0.0
 41
0.9
 51
0.0
  7
KANJI70
  0
TEXT
  8
0
  6
CONTINUOUS
 62
     2
 10
1468.17
 20
1249.50024
 30
1.44
 40
14.4
  1
１３３０
 50
0.0
 41
0.9
 51
0.0
  7
KANJI70
  0
TEXT
  8
0
  6
CONTINUOUS
 62
     2
 10
1564.17
 20
1249.50024
 30
1.44
 40
14.4
  1
１１０２
 50
0.0
 41
0.9
 51
0.0
  7
KANJI70
  0
TEXT
  8
0
  6
CONTINUOUS
 62
     2
 10
1660.17
 20
1249.50024
 30
1.44
 40
14.4
  1
　１６８
 50
0.0
 41
0.9
 51
0.0
  7
KANJI70
  0
LINE
  8
0
  6
CONTINUOUS
 62
     2
 10
1052.97
 20
1209.86024
 30
0.0
 11
1830.57
 21
1209.86024
 31
0.0
  0
TEXT
  8
0
  6
CONTINUOUS
 62
     2
 10
1276.17
 20
1217.90024
 30
1.44
 40
14.4
  1
　９００
 50
0.0
 41
0.9
 51
0.0
  7
KANJI70
  0
TEXT
  8
0
  6
CONTINUOUS
 62
     2
 10
1372.17
 20
1217.90024
 30
1.44
 40
14.4
  1
１６５７
 50
0.0
 41
0.9
 51
0.0
  7
KANJI70
  0
TEXT
  8
0
  6
CONTINUOUS
 62
     2
 10
1468.17
 20
1217.90024
 30
1.44
 40
14.4
  1
１４６０
 50
0.0
 41
0.9
 51
0.0
  7
KANJI70
  0
TEXT
  8
0
  6
CONTINUOUS
 62
     2
 10
1564.17
 20
1217.90024
 30
1.44
 40
14.4
  1
１２０２
 50
0.0
 41
0.9
 51
0.0
  7
KANJI70
  0
TEXT
  8
0
  6
CONTINUOUS
 62
     2
 10
1660.17
 20
1217.90024
 30
1.44
 40
14.4
  1
　１９８
 50
0.0
 41
0.9
 51
0.0
  7
KANJI70
  0
LINE
  8
0
  6
CONTINUOUS
 62
     2
 10
1052.97
 20
1178.26024
 30
0.0
 11
1830.57
 21
1178.26024
 31
0.0
  0
TEXT
  8
0
  6
CONTINUOUS
 62
     2
 10
1276.17
 20
1186.30024
 30
1.44
 40
14.4
  1
１０００
 50
0.0
 41
0.9
 51
0.0
  7
KANJI70
  0
TEXT
  8
0
  6
CONTINUOUS
 62
     2
 10
1372.17
 20
1186.30024
 30
1.44
 40
14.4
  1
１７９０
 50
0.0
 41
0.9
 51
0.0
  7
KANJI70
  0
TEXT
  8
0
  6
CONTINUOUS
 62
     2
 10
1468.17
 20
1186.30024
 30
1.44
 40
14.4
  1
１５９３
 50
0.0
 41
0.9
 51
0.0
  7
KANJI70
  0
TEXT
  8
0
  6
CONTINUOUS
 62
     2
 10
1564.17
 20
1186.30024
 30
1.44
 40
14.4
  1
１３０２
 50
0.0
 41
0.9
 51
0.0
  7
KANJI70
  0
TEXT
  8
0
  6
CONTINUOUS
 62
     2
 10
1660.17
 20
1186.30024
 30
1.44
 40
14.4
  1
　２３１
 50
0.0
 41
0.9
 51
0.0
  7
KANJI70
  0
LINE
  8
0
  6
CONTINUOUS
 62
     2
 10
1052.97
 20
1146.66024
 30
0.0
 11
1830.57
 21
1146.66024
 31
0.0
  0
TEXT
  8
0
  6
CONTINUOUS
 62
     2
 10
1276.17
 20
1154.70024
 30
1.44
 40
14.4
  1
１１００
 50
0.0
 41
0.9
 51
0.0
  7
KANJI70
  0
TEXT
  8
0
  6
CONTINUOUS
 62
     2
 10
1660.17
 20
1154.70024
 30
1.44
 40
14.4
  1
　２４５
 50
0.0
 41
0.9
 51
0.0
  7
KANJI70
  0
TEXT
  8
0
  6
CONTINUOUS
 62
     2
 10
1564.17
 20
1154.70024
 30
1.44
 40
14.4
  1
１４０２
 50
0.0
 41
0.9
 51
0.0
  7
KANJI70
  0
LINE
  8
0
  6
CONTINUOUS
 62
     2
 10
1052.97
 20
1115.06024
 30
0.0
 11
1830.57
 21
1115.06024
 31
0.0
  0
TEXT
  8
0
  6
CONTINUOUS
 62
     2
 10
1276.17
 20
1123.10024
 30
1.44
 40
14.4
  1
１２００
 50
0.0
 41
0.9
 51
0.0
  7
KANJI70
  0
TEXT
  8
0
  6
CONTINUOUS
 62
     2
 10
1660.17
 20
1123.10024
 30
1.44
 40
14.4
  1
　２６８
 50
0.0
 41
0.9
 51
0.0
  7
KANJI70
  0
TEXT
  8
0
  6
CONTINUOUS
 62
     2
 10
1564.17
 20
1123.10024
 30
1.44
 40
14.4
  1
１５０２
 50
0.0
 41
0.9
 51
0.0
  7
KANJI70
  0
LINE
  8
0
  6
CONTINUOUS
 62
     2
 10
1052.97
 20
1083.46024
 30
0.0
 11
1830.57
 21
1083.46024
 31
0.0
  0
TEXT
  8
0
  6
CONTINUOUS
 62
     2
 10
1276.17
 20
1091.50024
 30
1.44
 40
14.4
  1
１３００
 50
0.0
 41
0.9
 51
0.0
  7
KANJI70
  0
TEXT
  8
0
  6
CONTINUOUS
 62
     2
 10
1660.17
 20
1091.50024
 30
1.44
 40
14.4
  1
　２８８
 50
0.0
 41
0.9
 51
0.0
  7
KANJI70
  0
TEXT
  8
0
  6
CONTINUOUS
 62
     2
 10
1564.17
 20
1091.50024
 30
1.44
 40
14.4
  1
１６０２
 50
0.0
 41
0.9
 51
0.0
  7
KANJI70
  0
LINE
  8
0
  6
CONTINUOUS
 62
     2
 10
1052.97
 20
1051.86024
 30
0.0
 11
1830.57
 21
1051.86024
 31
0.0
  0
TEXT
  8
0
  6
CONTINUOUS
 62
     2
 10
1276.17
 20
1059.90024
 30
1.44
 40
14.4
  1
１４００
 50
0.0
 41
0.9
 51
0.0
  7
KANJI70
  0
TEXT
  8
0
  6
CONTINUOUS
 62
     2
 10
1660.17
 20
1059.90024
 30
1.44
 40
14.4
  1
　３１０
 50
0.0
 41
0.9
 51
0.0
  7
KANJI70
  0
TEXT
  8
0
  6
CONTINUOUS
 62
     2
 10
1564.17
 20
1059.90024
 30
1.44
 40
14.4
  1
１７０２
 50
0.0
 41
0.9
 51
0.0
  7
KANJI70
  0
LINE
  8
0
  6
CONTINUOUS
 62
     2
 10
1052.97
 20
1020.26024
 30
0.0
 11
1830.57
 21
1020.26024
 31
0.0
  0
TEXT
  8
0
  6
CONTINUOUS
 62
     2
 10
1276.17
 20
1028.30024
 30
1.44
 40
14.4
  1
１５００
 50
0.0
 41
0.9
 51
0.0
  7
KANJI70
  0
TEXT
  8
0
  6
CONTINUOUS
 62
     2
 10
1660.17
 20
1028.30024
 30
1.44
 40
14.4
  1
　３５０
 50
0.0
 41
0.9
 51
0.0
  7
KANJI70
  0
TEXT
  8
0
  6
CONTINUOUS
 62
     2
 10
1564.17
 20
1028.30024
 30
1.44
 40
14.4
  1
１８０２
 50
0.0
 41
0.9
 51
0.0
  7
KANJI70
  0
LINE
  8
0
  6
CONTINUOUS
 62
     1
 10
1052.97
 20
988.66024
 30
0.0
 11
1830.57
 21
988.66024
 31
0.0
  0
LINE
  8
0
  6
CONTINUOUS
 62
     1
 10
1052.97
 20
1496.26024
 30
0.0
 11
1052.97
 21
988.66024
 31
0.0
  0
LINE
  8
0
  6
CONTINUOUS
 62
     1
 10
1254.57
 20
1496.26024
 30
0.0
 11
1254.57
 21
988.66024
 31
0.0
  0
LINE
  8
0
  6
CONTINUOUS
 62
     2
 10
1350.57
 20
1496.26024
 30
0.0
 11
1350.57
 21
988.66024
 31
0.0
  0
LINE
  8
0
  6
CONTINUOUS
 62
     2
 10
1446.57
 20
1496.26024
 30
0.0
 11
1446.57
 21
988.66024
 31
0.0
  0
LINE
  8
0
  6
CONTINUOUS
 62
     2
 10
1542.57
 20
1496.26024
 30
0.0
 11
1542.57
 21
988.66024
 31
0.0
  0
LINE
  8
0
  6
CONTINUOUS
 62
     2
 10
1638.57
 20
1496.26024
 30
0.0
 11
1638.57
 21
988.66024
 31
0.0
  0
LINE
  8
0
  6
CONTINUOUS
 62
     2
 10
1734.57
 20
1496.26024
 30
0.0
 11
1734.57
 21
988.66024
 31
0.0
  0
LINE
  8
0
  6
CONTINUOUS
 62
     1
 10
1830.57
 20
1496.26024
 30
0.0
 11
1830.57
 21
988.66024
 31
0.0
  0
TEXT
  8
0
  6
CONTINUOUS
 62
     2
 10
1756.17
 20
1439.10024
 30
1.44
 40
14.4
  1
　８７
 50
0.0
 41
0.9
 51
0.0
  7
KANJI70
  0
TEXT
  8
0
  6
CONTINUOUS
 62
     2
 10
1756.17
 20
1407.50024
 30
1.44
 40
14.4
  1
　９０
 50
0.0
 41
0.9
 51
0.0
  7
KANJI70
  0
TEXT
  8
0
  6
CONTINUOUS
 62
     2
 10
1756.17
 20
1375.90024
 30
1.44
 40
14.4
  1
　９４
 50
0.0
 41
0.9
 51
0.0
  7
KANJI70
  0
TEXT
  8
0
  6
CONTINUOUS
 62
     2
 10
1756.17
 20
1344.30024
 30
1.44
 40
14.4
  1
　９９
 50
0.0
 41
0.9
 51
0.0
  7
KANJI70
  0
TEXT
  8
0
  6
CONTINUOUS
 62
     2
 10
1756.17
 20
1312.70024
 30
1.44
 40
14.4
  1
１０３
 50
0.0
 41
0.9
 51
0.0
  7
KANJI70
  0
TEXT
  8
0
  6
CONTINUOUS
 62
     2
 10
1756.17
 20
1281.10024
 30
1.44
 40
14.4
  1
１０７
 50
0.0
 41
0.9
 51
0.0
  7
KANJI70
  0
TEXT
  8
0
  6
CONTINUOUS
 62
     2
 10
1756.17
 20
1249.50024
 30
1.44
 40
14.4
  1
１１１
 50
0.0
 41
0.9
 51
0.0
  7
KANJI70
  0
TEXT
  8
0
  6
CONTINUOUS
 62
     2
 10
1756.17
 20
1217.90024
 30
1.44
 40
14.4
  1
１１４
 50
0.0
 41
0.9
 51
0.0
  7
KANJI70
  0
TEXT
  8
0
  6
CONTINUOUS
 62
     2
 10
1756.17
 20
1186.30024
 30
1.44
 40
14.4
  1
１１７
 50
0.0
 41
0.9
 51
0.0
  7
KANJI70
  0
TEXT
  8
0
  6
CONTINUOUS
 62
     2
 10
1756.17
 20
1154.70024
 30
1.44
 40
14.4
  1
１１９
 50
0.0
 41
0.9
 51
0.0
  7
KANJI70
  0
TEXT
  8
0
  6
CONTINUOUS
 62
     2
 10
1756.17
 20
1123.10024
 30
1.44
 40
14.4
  1
１２１
 50
0.0
 41
0.9
 51
0.0
  7
KANJI70
  0
TEXT
  8
0
  6
CONTINUOUS
 62
     2
 10
1756.17
 20
1091.50024
 30
1.44
 40
14.4
  1
１２３
 50
0.0
 41
0.9
 51
0.0
  7
KANJI70
  0
TEXT
  8
0
  6
CONTINUOUS
 62
     2
 10
1756.17
 20
1059.90024
 30
1.44
 40
14.4
  1
１２５
 50
0.0
 41
0.9
 51
0.0
  7
KANJI70
  0
TEXT
  8
0
  6
CONTINUOUS
 62
     2
 10
1756.17
 20
1028.30024
 30
1.44
 40
14.4
  1
１２７
 50
0.0
 41
0.9
 51
0.0
  7
KANJI70
  0
TEXT
  8
0
  6
CONTINUOUS
 62
     2
 10
1068.57
 20
1438.74024
 30
0.96
 40
14.4
  1
ＭＣＬＥ２Ｃ－　　２Ｊ
 50
0.0
 41
0.833333333
 51
0.0
  7
KANJI75
  0
TEXT
  8
0
  6
CONTINUOUS
 62
     2
 10
1068.57
 20
1407.14024
 30
0.96
 40
14.4
  1
ＭＣＬＥ２Ｃ－　　３Ｊ
 50
0.0
 41
0.833333333
 51
0.0
  7
KANJI75
  0
TEXT
  8
0
  6
CONTINUOUS
 62
     2
 10
1068.57
 20
1375.54024
 30
0.96
 40
14.4
  1
ＭＣＬＥ２Ｃ－　　４Ｊ
 50
0.0
 41
0.833333333
 51
0.0
  7
KANJI75
  0
TEXT
  8
0
  6
CONTINUOUS
 62
     2
 10
1068.57
 20
1343.94024
 30
0.96
 40
14.4
  1
ＭＣＬＥ２Ｃ－　　５Ｊ
 50
0.0
 41
0.833333333
 51
0.0
  7
KANJI75
  0
TEXT
  8
0
  6
CONTINUOUS
 62
     2
 10
1068.57
 20
1312.34024
 30
0.96
 40
14.4
  1
ＭＣＬＥ２Ｃ－　　６Ｊ
 50
0.0
 41
0.833333333
 51
0.0
  7
KANJI75
  0
TEXT
  8
0
  6
CONTINUOUS
 62
     2
 10
1068.57
 20
1280.74024
 30
0.96
 40
14.4
  1
ＭＣＬＥ２Ｃ－　　７Ｊ
 50
0.0
 41
0.833333333
 51
0.0
  7
KANJI75
  0
TEXT
  8
0
  6
CONTINUOUS
 62
     2
 10
1068.57
 20
1249.14024
 30
0.96
 40
14.4
  1
ＭＣＬＥ２Ｃ－　　８Ｊ
 50
0.0
 41
0.833333333
 51
0.0
  7
KANJI75
  0
TEXT
  8
0
  6
CONTINUOUS
 62
     2
 10
1068.57
 20
1217.54024
 30
0.96
 40
14.4
  1
ＭＣＬＥ２Ｃ－　　９Ｊ
 50
0.0
 41
0.833333333
 51
0.0
  7
KANJI75
  0
TEXT
  8
0
  6
CONTINUOUS
 62
     2
 10
1068.57
 20
1185.94024
 30
0.96
 40
14.4
  1
ＭＣＬＥ２Ｃ－　１０Ｊ
 50
0.0
 41
0.833333333
 51
0.0
  7
KANJI75
  0
TEXT
  8
0
  6
CONTINUOUS
 62
     2
 10
1068.57
 20
1154.34024
 30
0.96
 40
14.4
  1
ＭＣＬＥ２Ｃ－　１１Ｊ
 50
0.0
 41
0.833333333
 51
0.0
  7
KANJI75
  0
TEXT
  8
0
  6
CONTINUOUS
 62
     2
 10
1068.57
 20
1122.74024
 30
0.96
 40
14.4
  1
ＭＣＬＥ２Ｃ－　１２Ｊ
 50
0.0
 41
0.833333333
 51
0.0
  7
KANJI75
  0
TEXT
  8
0
  6
CONTINUOUS
 62
     2
 10
1068.57
 20
1091.14024
 30
0.96
 40
14.4
  1
ＭＣＬＥ２Ｃ－　１３Ｊ
 50
0.0
 41
0.833333333
 51
0.0
  7
KANJI75
  0
TEXT
  8
0
  6
CONTINUOUS
 62
     2
 10
1068.57
 20
1059.54024
 30
0.96
 40
14.4
  1
ＭＣＬＥ２Ｃ－　１４Ｊ
 50
0.0
 41
0.833333333
 51
0.0
  7
KANJI75
  0
TEXT
  8
0
  6
CONTINUOUS
 62
     2
 10
1068.57
 20
1027.94024
 30
0.96
 40
14.4
  1
ＭＣＬＥ２Ｃ－　１５Ｊ
 50
0.0
 41
0.833333333
 51
0.0
  7
KANJI75
  0
TEXT
  8
0
  6
CONTINUOUS
 62
     2
 10
1068.57
 20
996.34024
 30
0.96
 40
14.4
  1
ＭＣＬＥ２Ｃ－　　　Ｊ　　
 50
0.0
 41
0.833333333
 51
0.0
  7
KANJI75
  0
TEXT
  8
0
  6
CONTINUOUS
 62
     2
 10
1372.17
 20
1154.70024
 30
1.44
 40
14.4
  1
１９０４
 50
0.0
 41
0.9
 51
0.0
  7
KANJI70
  0
TEXT
  8
0
  6
CONTINUOUS
 62
     2
 10
1372.17
 20
1123.10024
 30
1.44
 40
14.4
  1
２０２７
 50
0.0
 41
0.9
 51
0.0
  7
KANJI70
  0
TEXT
  8
0
  6
CONTINUOUS
 62
     2
 10
1372.17
 20
1091.50024
 30
1.44
 40
14.4
  1
２１４７
 50
0.0
 41
0.9
 51
0.0
  7
KANJI70
  0
TEXT
  8
0
  6
CONTINUOUS
 62
     2
 10
1372.17
 20
1059.90024
 30
1.44
 40
14.4
  1
２２６９
 50
0.0
 41
0.9
 51
0.0
  7
KANJI70
  0
TEXT
  8
0
  6
CONTINUOUS
 62
     2
 10
1372.17
 20
1028.30024
 30
1.44
 40
14.4
  1
２４０９
 50
0.0
 41
0.9
 51
0.0
  7
KANJI70
  0
TEXT
  8
0
  6
CONTINUOUS
 62
     2
 10
1468.17
 20
1028.30024
 30
1.44
 40
14.4
  1
２２１２
 50
0.0
 41
0.9
 51
0.0
  7
KANJI70
  0
TEXT
  8
0
  6
CONTINUOUS
 62
     2
 10
1468.17
 20
1059.90024
 30
1.44
 40
14.4
  1
２０７２
 50
0.0
 41
0.9
 51
0.0
  7
KANJI70
  0
TEXT
  8
0
  6
CONTINUOUS
 62
     2
 10
1468.17
 20
1091.50024
 30
1.44
 40
14.4
  1
１９５０
 50
0.0
 41
0.9
 51
0.0
  7
KANJI70
  0
TEXT
  8
0
  6
CONTINUOUS
 62
     2
 10
1468.17
 20
1123.10024
 30
1.44
 40
14.4
  1
１８３０
 50
0.0
 41
0.9
 51
0.0
  7
KANJI70
  0
TEXT
  8
0
  6
CONTINUOUS
 62
     2
 10
1468.17
 20
1154.70024
 30
1.44
 40
14.4
  1
１７０７
 50
0.0
 41
0.9
 51
0.0
  7
KANJI70
  0
LINE
  8
0
  6
CONTINUOUS
 62
     1
 10
397.622218677
 20
640.833974596
 30
0.0
 11
397.622218677
 21
570.833974596
 31
0.0
  0
TEXT
  8
0
  6
CONTINUOUS
 62
     2
 10
402.622218677
 20
629.833974596
 30
5.0
 40
20.0
  1
銘板
 50
270.0
 41
0.925
 51
0.0
  7
KANJI76
  0
LINE
  8
0
  6
CONTINUOUS
 62
     1
 10
440.622218677
 20
640.833974596
 30
0.0
 11
397.622218677
 21
640.833974596
 31
0.0
  0
LINE
  8
0
  6
CONTINUOUS
 62
     1
 10
440.622218677
 20
570.833974596
 30
0.0
 11
397.622218677
 21
570.833974596
 31
0.0
  0
LINE
  8
0
  6
CONTINUOUS
 62
     1
 10
440.622218677
 20
640.833974596
 30
0.0
 11
440.622218677
 21
570.833974596
 31
0.0
  0
TEXT
  8
0
  6
CONTINUOUS
 62
     2
 10
1239.01926
 20
1607.29997
 30
1.499994
 40
14.99994
  1
２２．１
 50
0.0
 41
0.9
 51
0.0
  7
KANJI41
  0
TEXT
  8
0
  6
CONTINUOUS
 62
     2
 10
1239.01926
 20
1577.30009
 30
1.499994
 40
14.99994
  1
１９．２
 50
0.0
 41
0.9
 51
0.0
  7
KANJI41
  0
TEXT
  8
0
  6
CONTINUOUS
 62
     2
 10
1239.01926
 20
1547.30021
 30
1.499994
 40
14.99994
  1
２１．１
 50
0.0
 41
0.9
 51
0.0
  7
KANJI41
  0
TEXT
  8
0
  6
CONTINUOUS
 62
     2
 10
1538.476423333
 20
1575.0084275
 30
1.499994
 40
14.99994
  1
３８．２
 50
0.0
 41
0.9
 51
0.0
  7
KANJI41
  0
TEXT
  8
0
  6
CONTINUOUS
 62
     2
 10
1539.726418333
 20
1546.6752075
 30
1.499994
 40
14.99994
  1
４２．１
 50
0.0
 41
0.9
 51
0.0
  7
KANJI41
  0
TEXT
  8
0
  6
CONTINUOUS
 62
     2
 10
176.4
 20
26.4
 30
0.0
 40
18.0
  1
ＦＤ　Ｎｏ．ＭＣ２２９
 50
0.0
 41
0.9
 51
0.0
  7
KANJI77
  0
TEXT
  8
0
  6
CONTINUOUS
 62
     2
 10
1235.1200902
 20
125.2999964
 30
0.0
 40
18.0
  1
０８．０４．０１　岡田　追記
 50
0.0
 41
0.9
 51
0.0
  7
KANJI39
  0
ENDSEC
  0
EOF
