  0
SECTION
  2
HEADER
  9
$ACADVER
  1
AC1009
  9
$DWGCODEPAGE
  3
dos932
  9
$EXTMIN
 10
0.0
 20
0.0
 30
0.0
  9
$EXTMAX
 10
2520.0
 20
1782.0
 30
0.0
  9
$LIMMIN
 10
0.0
 20
0.0
  9
$LIMMAX
 10
2520.0
 20
1782.0
  9
$LTSCALE
 40
1.0
  9
$PDMODE
 70
     0
  0
ENDSEC
  0
SECTION
  2
TABLES
  0
TABLE
  2
VPORT
 70
     1
  0
VPORT
  2
*ACTIVE
 70
     0
 10
0.0
 20
0.0
 11
1.0
 21
1.0
 12
1260.0
 22
891.0
 13
0.0
 23
0.0
 14
10.0
 24
10.0
 15
10.0
 25
10.0
 16
0.0
 26
0.0
 36
1.0
 17
0.0
 27
0.0
 37
0.0
 40
2520.0
 41
1.414141414
 42
50.0
 43
0.0
 44
0.0
 50
0.0
 51
0.0
 71
     0
 72
  1000
 73
     1
 74
     3
 75
     0
 76
     0
 77
     0
 78
     0
  0
ENDTAB
  0
TABLE
  2
LTYPE
 70
     5
  0
LTYPE
  2
CONTINUOUS
 70
    64
  3
Solid line
 72
    65
 73
     0
 40
0.0
  0
LTYPE
  2
LTYPE1
 70
    64
  3
HIDDEN
 72
    65
 73
     2
 40
18.0
 49
10.8
 49
-7.2
  0
LTYPE
  2
LTYPE2
 70
    64
  3
CENTER
 72
    65
 73
     4
 40
60.0
 49
42.0
 49
-6.0
 49
6.0
 49
-6.0
  0
LTYPE
  2
LTYPE3
 70
    64
  3
CENTER
 72
    65
 73
     4
 40
90.0
 49
63.0
 49
-9.0
 49
9.0
 49
-9.0
  0
LTYPE
  2
LTYPE4
 70
    64
  3
CENTER
 72
    65
 73
     4
 40
120.0
 49
84.0
 49
-12.0
 49
12.0
 49
-12.0
  0
ENDTAB
  0
TABLE
  2
LAYER
 70
   128
  0
LAYER
  2
0
 70
     0
 62
     7
  6
CONTINUOUS
  0
LAYER
  2
2
 70
     0
 62
     7
  6
CONTINUOUS
  0
LAYER
  2
3
 70
     0
 62
     7
  6
CONTINUOUS
  0
LAYER
  2
4
 70
     0
 62
     7
  6
CONTINUOUS
  0
LAYER
  2
5
 70
     0
 62
     7
  6
CONTINUOUS
  0
LAYER
  2
6
 70
     0
 62
     7
  6
CONTINUOUS
  0
LAYER
  2
7
 70
     0
 62
     7
  6
CONTINUOUS
  0
LAYER
  2
8
 70
     0
 62
     7
  6
CONTINUOUS
  0
LAYER
  2
9
 70
     0
 62
     7
  6
CONTINUOUS
  0
LAYER
  2
10
 70
     0
 62
     7
  6
CONTINUOUS
  0
LAYER
  2
11
 70
     0
 62
     7
  6
CONTINUOUS
  0
LAYER
  2
12
 70
     0
 62
     7
  6
CONTINUOUS
  0
LAYER
  2
13
 70
     0
 62
     7
  6
CONTINUOUS
  0
LAYER
  2
14
 70
     0
 62
     7
  6
CONTINUOUS
  0
LAYER
  2
15
 70
     0
 62
     7
  6
CONTINUOUS
  0
LAYER
  2
16
 70
     0
 62
     7
  6
CONTINUOUS
  0
LAYER
  2
17
 70
     0
 62
     7
  6
CONTINUOUS
  0
LAYER
  2
18
 70
     0
 62
     7
  6
CONTINUOUS
  0
LAYER
  2
19
 70
     0
 62
     7
  6
CONTINUOUS
  0
LAYER
  2
20
 70
     0
 62
     7
  6
CONTINUOUS
  0
LAYER
  2
21
 70
     0
 62
     7
  6
CONTINUOUS
  0
LAYER
  2
22
 70
     0
 62
     7
  6
CONTINUOUS
  0
LAYER
  2
23
 70
     0
 62
     7
  6
CONTINUOUS
  0
LAYER
  2
24
 70
     0
 62
     7
  6
CONTINUOUS
  0
LAYER
  2
25
 70
     0
 62
     7
  6
CONTINUOUS
  0
LAYER
  2
26
 70
     0
 62
     7
  6
CONTINUOUS
  0
LAYER
  2
27
 70
     0
 62
     7
  6
CONTINUOUS
  0
LAYER
  2
28
 70
     0
 62
     7
  6
CONTINUOUS
  0
LAYER
  2
29
 70
     0
 62
     7
  6
CONTINUOUS
  0
LAYER
  2
30
 70
     0
 62
     7
  6
CONTINUOUS
  0
LAYER
  2
31
 70
     0
 62
     7
  6
CONTINUOUS
  0
LAYER
  2
32
 70
     0
 62
     7
  6
CONTINUOUS
  0
LAYER
  2
33
 70
     0
 62
     7
  6
CONTINUOUS
  0
LAYER
  2
34
 70
     0
 62
     7
  6
CONTINUOUS
  0
LAYER
  2
35
 70
     0
 62
     7
  6
CONTINUOUS
  0
LAYER
  2
36
 70
     0
 62
     7
  6
CONTINUOUS
  0
LAYER
  2
37
 70
     0
 62
     7
  6
CONTINUOUS
  0
LAYER
  2
38
 70
     0
 62
     7
  6
CONTINUOUS
  0
LAYER
  2
39
 70
     0
 62
     7
  6
CONTINUOUS
  0
LAYER
  2
40
 70
     0
 62
     7
  6
CONTINUOUS
  0
LAYER
  2
41
 70
     0
 62
     7
  6
CONTINUOUS
  0
LAYER
  2
42
 70
     0
 62
     7
  6
CONTINUOUS
  0
LAYER
  2
43
 70
     0
 62
     7
  6
CONTINUOUS
  0
LAYER
  2
44
 70
     0
 62
     7
  6
CONTINUOUS
  0
LAYER
  2
45
 70
     0
 62
     7
  6
CONTINUOUS
  0
LAYER
  2
46
 70
     0
 62
     7
  6
CONTINUOUS
  0
LAYER
  2
47
 70
     0
 62
     7
  6
CONTINUOUS
  0
LAYER
  2
48
 70
     0
 62
     7
  6
CONTINUOUS
  0
LAYER
  2
49
 70
     0
 62
     7
  6
CONTINUOUS
  0
LAYER
  2
50
 70
     0
 62
     7
  6
CONTINUOUS
  0
LAYER
  2
51
 70
     0
 62
     7
  6
CONTINUOUS
  0
LAYER
  2
52
 70
     0
 62
     7
  6
CONTINUOUS
  0
LAYER
  2
53
 70
     0
 62
     7
  6
CONTINUOUS
  0
LAYER
  2
54
 70
     0
 62
     7
  6
CONTINUOUS
  0
LAYER
  2
55
 70
     0
 62
     7
  6
CONTINUOUS
  0
LAYER
  2
56
 70
     0
 62
     7
  6
CONTINUOUS
  0
LAYER
  2
57
 70
     0
 62
     7
  6
CONTINUOUS
  0
LAYER
  2
58
 70
     0
 62
     7
  6
CONTINUOUS
  0
LAYER
  2
59
 70
     0
 62
     7
  6
CONTINUOUS
  0
LAYER
  2
60
 70
     0
 62
     7
  6
CONTINUOUS
  0
LAYER
  2
61
 70
     0
 62
     7
  6
CONTINUOUS
  0
LAYER
  2
62
 70
     0
 62
     7
  6
CONTINUOUS
  0
LAYER
  2
63
 70
     0
 62
     7
  6
CONTINUOUS
  0
LAYER
  2
64
 70
     0
 62
     7
  6
CONTINUOUS
  0
LAYER
  2
65
 70
     0
 62
     7
  6
CONTINUOUS
  0
LAYER
  2
66
 70
     0
 62
     7
  6
CONTINUOUS
  0
LAYER
  2
67
 70
     0
 62
     7
  6
CONTINUOUS
  0
LAYER
  2
68
 70
     0
 62
     7
  6
CONTINUOUS
  0
LAYER
  2
69
 70
     0
 62
     7
  6
CONTINUOUS
  0
LAYER
  2
70
 70
     0
 62
     7
  6
CONTINUOUS
  0
LAYER
  2
71
 70
     0
 62
     7
  6
CONTINUOUS
  0
LAYER
  2
72
 70
     0
 62
     7
  6
CONTINUOUS
  0
LAYER
  2
73
 70
     0
 62
     7
  6
CONTINUOUS
  0
LAYER
  2
74
 70
     0
 62
     7
  6
CONTINUOUS
  0
LAYER
  2
75
 70
     0
 62
     7
  6
CONTINUOUS
  0
LAYER
  2
76
 70
     0
 62
     7
  6
CONTINUOUS
  0
LAYER
  2
77
 70
     0
 62
     7
  6
CONTINUOUS
  0
LAYER
  2
78
 70
     0
 62
     7
  6
CONTINUOUS
  0
LAYER
  2
79
 70
     0
 62
     7
  6
CONTINUOUS
  0
LAYER
  2
80
 70
     0
 62
     7
  6
CONTINUOUS
  0
LAYER
  2
81
 70
     0
 62
     7
  6
CONTINUOUS
  0
LAYER
  2
82
 70
     0
 62
     7
  6
CONTINUOUS
  0
LAYER
  2
83
 70
     0
 62
     7
  6
CONTINUOUS
  0
LAYER
  2
84
 70
     0
 62
     7
  6
CONTINUOUS
  0
LAYER
  2
85
 70
     0
 62
     7
  6
CONTINUOUS
  0
LAYER
  2
86
 70
     0
 62
     7
  6
CONTINUOUS
  0
LAYER
  2
87
 70
     0
 62
     7
  6
CONTINUOUS
  0
LAYER
  2
88
 70
     0
 62
     7
  6
CONTINUOUS
  0
LAYER
  2
89
 70
     0
 62
     7
  6
CONTINUOUS
  0
LAYER
  2
90
 70
     0
 62
     7
  6
CONTINUOUS
  0
LAYER
  2
91
 70
     0
 62
     7
  6
CONTINUOUS
  0
LAYER
  2
92
 70
     0
 62
     7
  6
CONTINUOUS
  0
LAYER
  2
93
 70
     0
 62
     7
  6
CONTINUOUS
  0
LAYER
  2
94
 70
     0
 62
     7
  6
CONTINUOUS
  0
LAYER
  2
95
 70
     0
 62
     7
  6
CONTINUOUS
  0
LAYER
  2
96
 70
     0
 62
     7
  6
CONTINUOUS
  0
LAYER
  2
97
 70
     0
 62
     7
  6
CONTINUOUS
  0
LAYER
  2
98
 70
     0
 62
     7
  6
CONTINUOUS
  0
LAYER
  2
99
 70
     0
 62
     7
  6
CONTINUOUS
  0
LAYER
  2
100
 70
     0
 62
     7
  6
CONTINUOUS
  0
LAYER
  2
101
 70
     0
 62
     7
  6
CONTINUOUS
  0
LAYER
  2
102
 70
     0
 62
     7
  6
CONTINUOUS
  0
LAYER
  2
103
 70
     0
 62
     7
  6
CONTINUOUS
  0
LAYER
  2
104
 70
     0
 62
     7
  6
CONTINUOUS
  0
LAYER
  2
105
 70
     0
 62
     7
  6
CONTINUOUS
  0
LAYER
  2
106
 70
     0
 62
     7
  6
CONTINUOUS
  0
LAYER
  2
107
 70
     0
 62
     7
  6
CONTINUOUS
  0
LAYER
  2
108
 70
     0
 62
     7
  6
CONTINUOUS
  0
LAYER
  2
109
 70
     0
 62
     7
  6
CONTINUOUS
  0
LAYER
  2
110
 70
     0
 62
     7
  6
CONTINUOUS
  0
LAYER
  2
111
 70
     0
 62
     7
  6
CONTINUOUS
  0
LAYER
  2
112
 70
     0
 62
     7
  6
CONTINUOUS
  0
LAYER
  2
113
 70
     0
 62
     7
  6
CONTINUOUS
  0
LAYER
  2
114
 70
     0
 62
     7
  6
CONTINUOUS
  0
LAYER
  2
115
 70
     0
 62
     7
  6
CONTINUOUS
  0
LAYER
  2
116
 70
     0
 62
     7
  6
CONTINUOUS
  0
LAYER
  2
117
 70
     0
 62
     7
  6
CONTINUOUS
  0
LAYER
  2
118
 70
     0
 62
     7
  6
CONTINUOUS
  0
LAYER
  2
119
 70
     0
 62
     7
  6
CONTINUOUS
  0
LAYER
  2
120
 70
     0
 62
     7
  6
CONTINUOUS
  0
LAYER
  2
121
 70
     0
 62
     7
  6
CONTINUOUS
  0
LAYER
  2
122
 70
     0
 62
     7
  6
CONTINUOUS
  0
LAYER
  2
123
 70
     0
 62
     7
  6
CONTINUOUS
  0
LAYER
  2
124
 70
     0
 62
     7
  6
CONTINUOUS
  0
LAYER
  2
125
 70
     0
 62
     7
  6
CONTINUOUS
  0
LAYER
  2
126
 70
     0
 62
     7
  6
CONTINUOUS
  0
LAYER
  2
127
 70
     0
 62
     7
  6
CONTINUOUS
  0
LAYER
  2
128
 70
     0
 62
     7
  6
CONTINUOUS
  0
ENDTAB
  0
TABLE
  2
STYLE
 70
    83
  0
STYLE
  2
STANDARD
 70
     0
 40
0.0
 41
1.0
 50
0.0
 71
     0
 42
0.2
  3
txt.shx
  4
extfont.shx
  0
STYLE
  2
KANJI0
 70
     0
 40
15.5999988
 41
0.75
 50
0.0
 71
     0
 42
15.5999988
  3
txt.shx
  4
extfont.shx
  0
STYLE
  2
KANJI1
 70
     0
 40
11.999997477
 41
0.6
 50
0.0
 71
     0
 42
11.999997477
  3
txt.shx
  4
extfont.shx
  0
STYLE
  2
KANJI2
 70
     0
 40
14.399996972
 41
0.9
 50
0.0
 71
     0
 42
14.399996972
  3
txt.shx
  4
extfont.shx
  0
STYLE
  2
KANJI3
 70
     0
 40
17.999996215
 41
0.9
 50
0.0
 71
     0
 42
17.999996215
  3
txt.shx
  4
extfont.shx
  0
STYLE
  2
KANJI4
 70
     0
 40
10.3999992
 41
0.6
 50
0.0
 71
     0
 42
10.3999992
  3
txt.shx
  4
extfont.shx
  0
STYLE
  2
KANJI5
 70
     0
 40
12.47999904
 41
0.6
 50
0.0
 71
     0
 42
12.47999904
  3
txt.shx
  4
extfont.shx
  0
STYLE
  2
KANJI6
 70
     0
 40
18.1999986
 41
0.42031746
 50
0.0
 71
     0
 42
18.1999986
  3
txt.shx
  4
extfont.shx
  0
STYLE
  2
KANJI7
 70
     0
 40
31.1999976
 41
0.9
 50
0.0
 71
     0
 42
31.1999976
  3
txt.shx
  4
extfont.shx
  0
STYLE
  2
KANJI8
 70
     0
 40
10.3999992
 41
0.8
 50
0.0
 71
     0
 42
10.3999992
  3
txt.shx
  4
extfont.shx
  0
STYLE
  2
KANJI9
 70
     0
 40
12.47999904
 41
0.8
 50
0.0
 71
     0
 42
12.47999904
  3
txt.shx
  4
extfont.shx
  0
STYLE
  2
KANJI10
 70
     0
 40
30.0
 41
0.8
 50
0.0
 71
     0
 42
30.0
  3
txt.shx
  4
extfont.shx
  0
STYLE
  2
KANJI11
 70
     0
 40
21.0
 41
0.857142857
 50
0.0
 71
     0
 42
21.0
  3
txt.shx
  4
extfont.shx
  0
STYLE
  2
KANJI12
 70
     0
 40
27.0
 41
0.666666667
 50
0.0
 71
     0
 42
27.0
  3
txt.shx
  4
extfont.shx
  0
STYLE
  2
KANJI13
 70
     0
 40
18.0
 41
0.9
 50
0.0
 71
     0
 42
18.0
  3
txt.shx
  4
extfont.shx
  0
STYLE
  2
KANJI14
 70
     0
 40
21.0
 41
0.571428571
 50
0.0
 71
     0
 42
21.0
  3
txt.shx
  4
extfont.shx
  0
STYLE
  2
KANJI15
 70
     0
 40
21.6
 41
1.111111111
 50
0.0
 71
     0
 42
21.6
  3
txt.shx
  4
extfont.shx
  0
STYLE
  2
KANJI16
 70
     0
 40
30.0
 41
1.0
 50
0.0
 71
     0
 42
30.0
  3
txt.shx
  4
extfont.shx
  0
STYLE
  2
KANJI17
 70
     0
 40
30.0
 41
1.0
 50
0.0
 71
     0
 42
30.0
  3
txt.shx
  4
extfont.shx
  0
STYLE
  2
KANJI18
 70
     0
 40
24.0
 41
1.0
 50
0.0
 71
     0
 42
24.0
  3
txt.shx
  4
extfont.shx
  0
STYLE
  2
KANJI19
 70
     0
 40
22.8
 41
0.9
 50
0.0
 71
     0
 42
22.8
  3
txt.shx
  4
extfont.shx
  0
STYLE
  2
KANJI20
 70
     0
 40
22.8
 41
0.9
 50
0.0
 71
     0
 42
22.8
  3
txt.shx
  4
extfont.shx
  0
STYLE
  2
KANJI21
 70
     0
 40
27.0
 41
0.9
 50
0.0
 71
     0
 42
27.0
  3
txt.shx
  4
extfont.shx
  0
STYLE
  2
KANJI22
 70
     0
 40
22.8
 41
0.9
 50
0.0
 71
     0
 42
22.8
  3
txt.shx
  4
extfont.shx
  0
STYLE
  2
KANJI23
 70
     0
 40
22.8
 41
0.9
 50
0.0
 71
     0
 42
22.8
  3
txt.shx
  4
extfont.shx
  0
STYLE
  2
KANJI24
 70
     0
 40
22.8
 41
0.9
 50
0.0
 71
     0
 42
22.8
  3
txt.shx
  4
extfont.shx
  0
STYLE
  2
KANJI25
 70
     0
 40
22.8
 41
0.9
 50
0.0
 71
     0
 42
22.8
  3
txt.shx
  4
extfont.shx
  0
STYLE
  2
KANJI26
 70
     0
 40
22.8
 41
0.9
 50
0.0
 71
     0
 42
22.8
  3
txt.shx
  4
extfont.shx
  0
STYLE
  2
KANJI27
 70
     0
 40
22.8
 41
0.9
 50
0.0
 71
     0
 42
22.8
  3
txt.shx
  4
extfont.shx
  0
STYLE
  2
KANJI28
 70
     4
 40
21.0
 41
0.9
 50
0.0
 71
     0
 42
21.0
  3
txt.shx
  4
extfont.shx
  0
STYLE
  2
KANJI29
 70
     4
 40
21.0
 41
0.9
 50
0.0
 71
     0
 42
21.0
  3
txt.shx
  4
extfont.shx
  0
STYLE
  2
KANJI30
 70
     0
 40
21.0
 41
0.9
 50
0.0
 71
     0
 42
21.0
  3
txt.shx
  4
extfont.shx
  0
STYLE
  2
KANJI31
 70
     0
 40
18.0
 41
0.9
 50
0.0
 71
     0
 42
18.0
  3
txt.shx
  4
extfont.shx
  0
STYLE
  2
KANJI32
 70
     0
 40
22.8
 41
0.9
 50
0.0
 71
     0
 42
22.8
  3
txt.shx
  4
extfont.shx
  0
STYLE
  2
KANJI33
 70
     0
 40
22.8
 41
0.9
 50
0.0
 71
     0
 42
22.8
  3
txt.shx
  4
extfont.shx
  0
STYLE
  2
KANJI34
 70
     0
 40
21.0
 41
0.628571429
 50
0.0
 71
     0
 42
21.0
  3
txt.shx
  4
extfont.shx
  0
STYLE
  2
KANJI35
 70
     0
 40
20.4
 41
0.705882353
 50
0.0
 71
     0
 42
20.4
  3
txt.shx
  4
extfont.shx
  0
STYLE
  2
KANJI36
 70
     0
 40
18.0
 41
0.8
 50
0.0
 71
     0
 42
18.0
  3
txt.shx
  4
extfont.shx
  0
STYLE
  2
KANJI37
 70
     0
 40
19.2
 41
0.71875
 50
0.0
 71
     0
 42
19.2
  3
txt.shx
  4
extfont.shx
  0
STYLE
  2
KANJI38
 70
     0
 40
19.2
 41
0.8
 50
0.0
 71
     0
 42
19.2
  3
txt.shx
  4
extfont.shx
  0
STYLE
  2
KANJI39
 70
     0
 40
21.0
 41
0.571428571
 50
0.0
 71
     0
 42
21.0
  3
txt.shx
  4
extfont.shx
  0
STYLE
  2
KANJI40
 70
     0
 40
18.0
 41
0.833333333
 50
0.0
 71
     0
 42
18.0
  3
txt.shx
  4
extfont.shx
  0
STYLE
  2
KANJI41
 70
     0
 40
21.0
 41
0.9
 50
0.0
 71
     0
 42
21.0
  3
txt.shx
  4
extfont.shx
  0
STYLE
  2
KANJI42
 70
     0
 40
15.36
 41
0.9
 50
0.0
 71
     0
 42
15.36
  3
txt.shx
  4
extfont.shx
  0
STYLE
  2
KANJI43
 70
     0
 40
14.4
 41
0.9
 50
0.0
 71
     0
 42
14.4
  3
txt.shx
  4
extfont.shx
  0
STYLE
  2
KANJI44
 70
     0
 40
14.4
 41
0.9
 50
0.0
 71
     0
 42
14.4
  3
txt.shx
  4
extfont.shx
  0
STYLE
  2
KANJI45
 70
     0
 40
16.8
 41
0.9
 50
0.0
 71
     0
 42
16.8
  3
txt.shx
  4
extfont.shx
  0
STYLE
  2
KANJI46
 70
     0
 40
12.96
 41
0.740740741
 50
0.0
 71
     0
 42
12.96
  3
txt.shx
  4
extfont.shx
  0
STYLE
  2
KANJI47
 70
     0
 40
16.8
 41
0.857142857
 50
0.0
 71
     0
 42
16.8
  3
txt.shx
  4
extfont.shx
  0
STYLE
  2
KANJI48
 70
     0
 40
14.99994
 41
0.9
 50
0.0
 71
     0
 42
14.99994
  3
txt.shx
  4
extfont.shx
  0
STYLE
  2
KANJI49
 70
     0
 40
17.49993
 41
0.9
 50
0.0
 71
     0
 42
17.49993
  3
txt.shx
  4
extfont.shx
  0
STYLE
  2
KANJI50
 70
     0
 40
18.0
 41
0.833333333
 50
0.0
 71
     0
 42
18.0
  3
txt.shx
  4
extfont.shx
  0
STYLE
  2
KANJI51
 70
     0
 40
17.5
 41
0.914285714
 50
0.0
 71
     0
 42
17.5
  3
txt.shx
  4
extfont.shx
  0
STYLE
  2
KANJI52
 70
     0
 40
15.0
 41
0.9
 50
0.0
 71
     0
 42
15.0
  3
txt.shx
  4
extfont.shx
  0
STYLE
  2
KANJI53
 70
     0
 40
15.0
 41
1.0
 50
0.0
 71
     0
 42
15.0
  3
txt.shx
  4
extfont.shx
  0
STYLE
  2
KANJI54
 70
     0
 40
15.0
 41
0.933333333
 50
0.0
 71
     0
 42
15.0
  3
txt.shx
  4
extfont.shx
  0
STYLE
  2
KANJI55
 70
     0
 40
20.0
 41
0.925
 50
0.0
 71
     0
 42
20.0
  3
txt.shx
  4
extfont.shx
  0
STYLE
  2
KANJI56
 70
     0
 40
24.0
 41
0.9
 50
0.0
 71
     0
 42
24.0
  3
txt.shx
  4
extfont.shx
  0
STYLE
  2
KANJI57
 70
     0
 40
21.0
 41
0.857142857
 50
0.0
 71
     0
 42
21.0
  3
txt.shx
  4
extfont.shx
  0
STYLE
  2
KANJI58
 70
     0
 40
21.0
 41
0.793650794
 50
0.0
 71
     0
 42
21.0
  3
txt.shx
  4
extfont.shx
  0
STYLE
  2
KANJI59
 70
     0
 40
15.0
 41
0.9
 50
0.0
 71
     0
 42
15.0
  3
txt.shx
  4
extfont.shx
  0
STYLE
  2
KANJI60
 70
     0
 40
17.5
 41
0.914285714
 50
0.0
 71
     0
 42
17.5
  3
txt.shx
  4
extfont.shx
  0
STYLE
  2
KANJI61
 70
     0
 40
12.0
 41
0.9
 50
0.0
 71
     0
 42
12.0
  3
txt.shx
  4
extfont.shx
  0
STYLE
  2
KANJI62
 70
     0
 40
10.0
 41
0.85
 50
0.0
 71
     0
 42
10.0
  3
txt.shx
  4
extfont.shx
  0
STYLE
  2
KANJI63
 70
     0
 40
10.0
 41
0.75
 50
0.0
 71
     0
 42
10.0
  3
txt.shx
  4
extfont.shx
  0
STYLE
  2
KANJI64
 70
     0
 40
14.4
 41
0.833333333
 50
0.0
 71
     0
 42
14.4
  3
txt.shx
  4
extfont.shx
  0
STYLE
  2
KANJI65
 70
     0
 40
15.0
 41
0.666666667
 50
0.0
 71
     0
 42
15.0
  3
txt.shx
  4
extfont.shx
  0
STYLE
  2
KANJI66
 70
     0
 40
18.0
 41
0.45
 50
0.0
 71
     0
 42
18.0
  3
txt.shx
  4
extfont.shx
  0
STYLE
  2
KANJI67
 70
     0
 40
30.0
 41
0.8
 50
0.0
 71
     0
 42
30.0
  3
txt.shx
  4
extfont.shx
  0
STYLE
  2
KANJI68
 70
     0
 40
18.223173404
 41
0.66671875
 50
0.0
 71
     0
 42
18.223173404
  3
txt.shx
  4
extfont.shx
  0
STYLE
  2
KANJI69
 70
     0
 40
21.6
 41
0.9
 50
0.0
 71
     0
 42
21.6
  3
txt.shx
  4
extfont.shx
  0
STYLE
  2
KANJI70
 70
     0
 40
17.28
 41
0.9
 50
0.0
 71
     0
 42
17.28
  3
txt.shx
  4
extfont.shx
  0
STYLE
  2
KANJI71
 70
     0
 40
12.96
 41
0.9
 50
0.0
 71
     0
 42
12.96
  3
txt.shx
  4
extfont.shx
  0
STYLE
  2
KANJI72
 70
     0
 40
18.72
 41
0.925
 50
0.0
 71
     0
 42
18.72
  3
txt.shx
  4
extfont.shx
  0
STYLE
  2
KANJI73
 70
     0
 40
13.182
 41
0.85
 50
0.0
 71
     0
 42
13.182
  3
txt.shx
  4
extfont.shx
  0
STYLE
  2
KANJI74
 70
     0
 40
11.661
 41
0.822608696
 50
0.0
 71
     0
 42
11.661
  3
txt.shx
  4
extfont.shx
  0
STYLE
  2
KANJI75
 70
     0
 40
11.8638
 41
0.726495726
 50
0.0
 71
     0
 42
11.8638
  3
txt.shx
  4
extfont.shx
  0
STYLE
  2
KANJI76
 70
     4
 40
45.0
 41
0.538166667
 50
0.0
 71
     0
 42
45.0
  3
txt.shx
  4
extfont.shx
  0
STYLE
  2
KANJI77
 70
     0
 40
17.740702234
 41
0.880962996
 50
0.0
 71
     0
 42
17.740702234
  3
txt.shx
  4
extfont.shx
  0
STYLE
  2
KANJI78
 70
     0
 40
11.7
 41
0.8
 50
0.0
 71
     0
 42
11.7
  3
txt.shx
  4
extfont.shx
  0
STYLE
  2
KANJI79
 70
     0
 40
15.0
 41
0.911
 50
0.0
 71
     0
 42
15.0
  3
txt.shx
  4
extfont.shx
  0
STYLE
  2
KANJI80
 70
     0
 40
20.0
 41
0.925
 50
0.0
 71
     0
 42
20.0
  3
txt.shx
  4
extfont.shx
  0
STYLE
  2
KANJI81
 70
     0
 40
18.0
 41
0.9
 50
0.0
 71
     0
 42
18.0
  3
txt.shx
  4
extfont.shx
  0
ENDTAB
  0
TABLE
  2
VIEW
 70
     0
  0
ENDTAB
  0
ENDSEC
  0
SECTION
  2
BLOCKS
  0
ENDSEC
  0
SECTION
  2
ENTITIES
  0
POLYLINE
  8
0
  6
CONTINUOUS
 62
     6
 66
     1
  0
VERTEX
  8
0
  6
CONTINUOUS
 62
     6
 10
85.0
 20
58.0
 30
0.0
  0
VERTEX
  8
0
  6
CONTINUOUS
 62
     6
 10
85.0
 20
1672.0
 30
0.0
  0
VERTEX
  8
0
  6
CONTINUOUS
 62
     6
 10
2407.0
 20
1672.0
 30
0.0
  0
SEQEND
  0
LINE
  8
0
  6
CONTINUOUS
 62
     6
 10
90.999998738
 20
147.999981077
 30
0.0
 11
480.999916738
 21
147.999981077
 31
0.0
  0
LINE
  8
0
  6
CONTINUOUS
 62
     6
 10
90.999998738
 20
63.999998738
 30
0.0
 11
480.999916738
 21
63.999998738
 31
0.0
  0
LINE
  8
0
  6
CONTINUOUS
 62
     6
 10
90.999998738
 20
63.999998738
 30
0.0
 11
90.999998738
 21
147.999981077
 31
0.0
  0
LINE
  8
0
  6
CONTINUOUS
 62
     6
 10
90.999998738
 20
105.999989908
 30
0.0
 11
480.999916738
 21
105.999989908
 31
0.0
  0
LINE
  8
0
  6
CONTINUOUS
 62
     4
 10
16.6999996
 20
63.1999996
 30
0.0
 11
79.0999948
 21
63.1999996
 31
0.0
  0
LINE
  8
0
  6
CONTINUOUS
 62
     4
 10
16.6999996
 20
94.3999972
 30
0.0
 11
79.0999948
 21
94.3999972
 31
0.0
  0
LINE
  8
0
  6
CONTINUOUS
 62
     4
 10
16.6999996
 20
125.5999948
 30
0.0
 11
79.0999948
 21
125.5999948
 31
0.0
  0
LINE
  8
0
  6
CONTINUOUS
 62
     4
 10
16.6999996
 20
156.7999924
 30
0.0
 11
79.0999948
 21
156.7999924
 31
0.0
  0
LINE
  8
0
  6
CONTINUOUS
 62
     4
 10
16.6999996
 20
187.99999
 30
0.0
 11
79.0999948
 21
187.99999
 31
0.0
  0
LINE
  8
0
  6
CONTINUOUS
 62
     4
 10
16.6999996
 20
219.1999876
 30
0.0
 11
79.0999948
 21
219.1999876
 31
0.0
  0
LINE
  8
0
  6
CONTINUOUS
 62
     4
 10
16.6999996
 20
250.3999852
 30
0.0
 11
79.0999948
 21
250.3999852
 31
0.0
  0
LINE
  8
0
  6
CONTINUOUS
 62
     4
 10
16.6999996
 20
281.5999828
 30
0.0
 11
79.0999948
 21
281.5999828
 31
0.0
  0
LINE
  8
0
  6
CONTINUOUS
 62
     4
 10
16.6999996
 20
312.7999804
 30
0.0
 11
79.0999948
 21
312.7999804
 31
0.0
  0
LINE
  8
0
  6
CONTINUOUS
 62
     4
 10
16.6999996
 20
343.999978
 30
0.0
 11
79.0999948
 21
343.999978
 31
0.0
  0
LINE
  8
0
  6
CONTINUOUS
 62
     4
 10
79.0999948
 20
63.1999996
 30
0.0
 11
79.0999948
 21
343.999978
 31
0.0
  0
LINE
  8
0
  6
CONTINUOUS
 62
     4
 10
47.8999972
 20
63.1999996
 30
0.0
 11
47.8999972
 21
312.7999804
 31
0.0
  0
TEXT
  8
0
  6
CONTINUOUS
 62
     4
 10
27.35999878
 20
72.2999989
 30
1.55999988
 40
15.5999988
  1
計
 50
0.0
 41
0.75
 51
0.0
  7
KANJI0
  0
TEXT
  8
0
  6
CONTINUOUS
 62
     4
 10
27.35999878
 20
135.21999406
 30
1.55999988
 40
15.5999988
  1
設
 50
0.0
 41
0.75
 51
0.0
  7
KANJI0
  0
TEXT
  8
0
  6
CONTINUOUS
 62
     4
 10
27.35999878
 20
165.8999917
 30
1.55999988
 40
15.5999988
  1
管
 50
0.0
 41
0.75
 51
0.0
  7
KANJI0
  0
TEXT
  8
0
  6
CONTINUOUS
 62
     4
 10
27.35999878
 20
197.0999893
 30
1.55999988
 40
15.5999988
  1
製
 50
0.0
 41
0.75
 51
0.0
  7
KANJI0
  0
TEXT
  8
0
  6
CONTINUOUS
 62
     4
 10
27.35999878
 20
228.2999869
 30
1.55999988
 40
15.5999988
  1
資
 50
0.0
 41
0.75
 51
0.0
  7
KANJI0
  0
TEXT
  8
0
  6
CONTINUOUS
 62
     4
 10
27.35999878
 20
259.4999845
 30
1.55999988
 40
15.5999988
  1
営
 50
0.0
 41
0.75
 51
0.0
  7
KANJI0
  0
TEXT
  8
0
  6
CONTINUOUS
 62
     4
 10
27.35999878
 20
290.6999821
 30
1.55999988
 40
15.5999988
  1
客
 50
0.0
 41
0.75
 51
0.0
  7
KANJI0
  0
TEXT
  8
0
  6
CONTINUOUS
 62
     4
 10
27.0999988
 20
323.1999796
 30
1.55999988
 40
15.5999988
  1
出　図
 50
0.0
 41
0.75
 51
0.0
  7
KANJI0
  0
LINE
  8
0
  6
CONTINUOUS
 62
     4
 10
16.6999996
 20
63.1999996
 30
0.0
 11
16.6999996
 21
343.999978
 31
0.0
  0
LINE
  8
0
  6
CONTINUOUS
 62
     6
 10
2407.0
 20
58.0
 30
0.0
 11
85.0
 21
58.0
 31
0.0
  0
TEXT
  8
0
  6
CONTINUOUS
 62
     4
 10
102.999996215
 20
87.999993692
 30
1.199999748
 40
11.999997477
  1
ＰＡＲＴＳ　ＬＩＳＴ
 50
0.0
 41
0.6
 51
0.0
  7
KANJI1
  0
TEXT
  8
0
  6
CONTINUOUS
 62
     4
 10
102.999996215
 20
69.999997477
 30
1.439999697
 40
14.399996972
  1
部品表
 50
0.0
 41
0.9
 51
0.0
  7
KANJI2
  0
TEXT
  8
0
  6
CONTINUOUS
 62
     3
 10
102.999996215
 20
117.999987385
 30
1.799999622
 40
17.999996215
  1
ＰＬ
 50
0.0
 41
0.9
 51
0.0
  7
KANJI3
  0
TEXT
  8
0
  6
CONTINUOUS
 62
     4
 10
372.999939446
 20
87.999993692
 30
1.199999748
 40
11.999997477
  1
Ｎ０．
 50
0.0
 41
0.6
 51
0.0
  7
KANJI1
  0
TEXT
  8
0
  6
CONTINUOUS
 62
     4
 10
372.999939446
 20
69.999997477
 30
1.439999697
 40
14.399996972
  1
項番
 50
0.0
 41
0.9
 51
0.0
  7
KANJI2
  0
LINE
  8
0
  6
CONTINUOUS
 62
     6
 10
480.999916738
 20
63.999998738
 30
0.0
 11
480.999916738
 21
147.999981077
 31
0.0
  0
LINE
  8
0
  6
CONTINUOUS
 62
     6
 10
360.999941969
 20
63.999998738
 30
0.0
 11
360.999941969
 21
147.999981077
 31
0.0
  0
LINE
  8
0
  6
CONTINUOUS
 62
     6
 10
2407.0
 20
1672.0
 30
0.0
 11
2407.0
 21
58.0
 31
0.0
  0
LINE
  8
0
  6
CONTINUOUS
 62
     6
 10
1601.000062
 20
63.1999996
 30
0.0
 11
1601.000062
 21
395.999974
 31
0.0
  0
LINE
  8
0
  6
CONTINUOUS
 62
     6
 10
2401.8000004
 20
63.1999996
 30
0.0
 11
2401.8000004
 21
395.999974
 31
0.0
  0
LINE
  8
0
  6
CONTINUOUS
 62
     4
 10
1790.8000474
 20
63.1999996
 30
0.0
 11
1790.8000474
 21
395.999974
 31
0.0
  0
LINE
  8
0
  6
CONTINUOUS
 62
     4
 10
1601.000062
 20
104.7999964
 30
0.0
 11
1790.8000474
 21
104.7999964
 31
0.0
  0
TEXT
  8
0
  6
CONTINUOUS
 62
     4
 10
1611.4000612
 20
86.5999978
 30
1.03999992
 40
10.3999992
  1
ＳＣＡＬＥ
 50
0.0
 41
0.6
 51
0.0
  7
KANJI4
  0
TEXT
  8
0
  6
CONTINUOUS
 62
     4
 10
1611.4000612
 20
70.999999
 30
1.247999904
 40
12.47999904
  1
尺度
 50
0.0
 41
0.6
 51
0.0
  7
KANJI5
  0
LINE
  8
0
  6
CONTINUOUS
 62
     6
 10
1190.2000936
 20
104.7999964
 30
0.0
 11
1601.000062
 21
104.7999964
 31
0.0
  0
LINE
  8
0
  6
CONTINUOUS
 62
     6
 10
1190.2000936
 20
63.1999996
 30
0.0
 11
2401.8000004
 21
63.1999996
 31
0.0
  0
TEXT
  8
0
  6
CONTINUOUS
 62
     6
 10
1796.000047
 20
86.5999978
 30
0.0
 40
18.1999986
  1
ＵＮＩＴＥＣ　ＩＮＤＵＳＴＲＹ　ＣＯ．，ＬＴＤ．
 50
0.0
 41
0.42031746
 51
0.0
  7
KANJI6
  0
TEXT
  8
0
  6
CONTINUOUS
 62
     6
 10
2051.255027365
 20
79.83999832
 30
3.11999976
 40
31.1999976
  1
ユニテック工業株式会社
 50
0.0
 41
0.9
 51
0.0
  7
KANJI7
  0
LINE
  8
0
  6
CONTINUOUS
 62
     6
 10
2009.655030565
 20
90.75999748
 30
0.0
 11
1995.927031621
 21
90.75999748
 31
0.0
  0
LINE
  8
0
  6
CONTINUOUS
 62
     6
 10
2009.655030565
 20
93.255997288
 30
0.0
 11
1995.927031621
 21
93.255997288
 31
0.0
  0
LINE
  8
0
  6
CONTINUOUS
 62
     6
 10
2009.655030565
 20
90.75999748
 30
0.0
 11
2023.383029509
 21
90.75999748
 31
0.0
  0
LINE
  8
0
  6
CONTINUOUS
 62
     6
 10
2009.655030565
 20
93.255997288
 30
0.0
 11
2023.383029509
 21
93.255997288
 31
0.0
  0
LINE
  8
0
  6
CONTINUOUS
 62
     6
 10
2023.383029509
 20
93.255997288
 30
0.0
 11
2023.383029509
 21
90.75999748
 31
0.0
  0
ARC
  8
0
  6
CONTINUOUS
 62
     6
 10
2026.503029269
 20
92.007997384
 30
0.0
 40
12.47999904
 50
185.739170477
 51
90.0
  0
ARC
  8
0
  6
CONTINUOUS
 62
     6
 10
2026.503029269
 20
92.007997384
 30
0.0
 40
14.975998848
 50
184.780191847
 51
90.0
  0
LINE
  8
0
  6
CONTINUOUS
 62
     6
 10
1995.927031621
 20
90.75999748
 30
0.0
 11
1995.927031621
 21
93.255997288
 31
0.0
  0
ARC
  8
0
  6
CONTINUOUS
 62
     6
 10
1992.807031861
 20
92.007997384
 30
0.0
 40
12.47999904
 50
90.0
 51
354.260829523
  0
ARC
  8
0
  6
CONTINUOUS
 62
     6
 10
1992.807031861
 20
92.007997384
 30
0.0
 40
14.975998848
 50
90.0
 51
355.219808153
  0
LINE
  8
0
  6
CONTINUOUS
 62
     6
 10
2007.783030709
 20
106.983996232
 30
0.0
 11
2007.783030709
 21
104.487996424
 31
0.0
  0
LINE
  8
0
  6
CONTINUOUS
 62
     6
 10
1992.807031861
 20
104.487996424
 30
0.0
 11
2007.783030709
 21
104.487996424
 31
0.0
  0
LINE
  8
0
  6
CONTINUOUS
 62
     6
 10
2011.527030421
 20
106.983996232
 30
0.0
 11
2011.527030421
 21
104.487996424
 31
0.0
  0
LINE
  8
0
  6
CONTINUOUS
 62
     6
 10
2026.503029269
 20
104.487996424
 30
0.0
 11
2011.527030421
 21
104.487996424
 31
0.0
  0
TEXT
  8
0
  6
CONTINUOUS
 62
     4
 10
1322.8000834
 20
86.5999978
 30
1.03999992
 40
10.3999992
  1
ＢＹ
 50
0.0
 41
0.6
 51
0.0
  7
KANJI4
  0
TEXT
  8
0
  6
CONTINUOUS
 62
     4
 10
1437.2000746
 20
86.5999978
 30
1.03999992
 40
10.3999992
  1
ＤＥＳＣＲＩＰＴＩＯＮ
 50
0.0
 41
0.6
 51
0.0
  7
KANJI4
  0
TEXT
  8
0
  6
CONTINUOUS
 62
     4
 10
1322.8000834
 20
70.999999
 30
1.247999904
 40
12.47999904
  1
担当
 50
0.0
 41
0.6
 51
0.0
  7
KANJI5
  0
TEXT
  8
0
  6
CONTINUOUS
 62
     4
 10
1452.8000734
 20
70.999999
 30
1.247999904
 40
12.47999904
  1
記　　　　事
 50
0.0
 41
0.6
 51
0.0
  7
KANJI5
  0
LINE
  8
0
  6
CONTINUOUS
 62
     4
 10
1212.3000919
 20
96.999997
 30
0.0
 11
1195.4000932
 21
70.999999
 31
0.0
  0
TEXT
  8
0
  6
CONTINUOUS
 62
     4
 10
1255.2000886
 20
86.5999978
 30
1.03999992
 40
10.3999992
  1
ＤＡＴＥ
 50
0.0
 41
0.6
 51
0.0
  7
KANJI4
  0
TEXT
  8
0
  6
CONTINUOUS
 62
     4
 10
1263.000088
 20
70.999999
 30
1.247999904
 40
12.47999904
  1
日付
 50
0.0
 41
0.6
 51
0.0
  7
KANJI5
  0
LINE
  8
0
  6
CONTINUOUS
 62
     4
 10
1195.4000932
 20
70.999999
 30
0.0
 11
1229.2000906
 21
70.999999
 31
0.0
  0
LINE
  8
0
  6
CONTINUOUS
 62
     4
 10
1212.3000919
 20
96.999997
 30
0.0
 11
1229.2000906
 21
70.999999
 31
0.0
  0
LINE
  8
0
  6
CONTINUOUS
 62
     6
 10
1190.2000936
 20
63.1999996
 30
0.0
 11
1190.2000936
 21
104.7999964
 31
0.0
  0
LINE
  8
0
  6
CONTINUOUS
 62
     4
 10
1234.4000902
 20
63.1999996
 30
0.0
 11
1234.4000902
 21
104.7999964
 31
0.0
  0
LINE
  8
0
  6
CONTINUOUS
 62
     4
 10
1307.2000846
 20
63.1999996
 30
0.0
 11
1307.2000846
 21
104.7999964
 31
0.0
  0
LINE
  8
0
  6
CONTINUOUS
 62
     4
 10
1354.000081
 20
63.1999996
 30
0.0
 11
1354.000081
 21
104.7999964
 31
0.0
  0
TEXT
  8
0
  6
CONTINUOUS
 62
     4
 10
1611.4000612
 20
169.7999914
 30
1.03999992
 40
10.3999992
  1
ＤＲＡＷＮ
 50
0.0
 41
0.6
 51
0.0
  7
KANJI4
  0
TEXT
  8
0
  6
CONTINUOUS
 62
     4
 10
1801.2000466
 20
169.7999914
 30
1.03999992
 40
10.3999992
  1
ＤＲＡＷＩＮＧ　ＮＯ．
 50
0.0
 41
0.8
 51
0.0
  7
KANJI8
  0
TEXT
  8
0
  6
CONTINUOUS
 62
     4
 10
1801.2000466
 20
151.5999928
 30
1.247999904
 40
12.47999904
  1
図　面　番　号
 50
0.0
 41
0.8
 51
0.0
  7
KANJI9
  0
LINE
  8
0
  6
CONTINUOUS
 62
     4
 10
1601.000062
 20
146.3999932
 30
0.0
 11
1790.8000474
 21
146.3999932
 31
0.0
  0
TEXT
  8
0
  6
CONTINUOUS
 62
     4
 10
1611.4000612
 20
128.1999946
 30
1.03999992
 40
10.3999992
  1
ＤＡＴＥ
 50
0.0
 41
0.6
 51
0.0
  7
KANJI4
  0
TEXT
  8
0
  6
CONTINUOUS
 62
     4
 10
1611.4000612
 20
112.5999958
 30
1.247999904
 40
12.47999904
  1
日付
 50
0.0
 41
0.6
 51
0.0
  7
KANJI5
  0
TEXT
  8
0
  6
CONTINUOUS
 62
     4
 10
1611.4000612
 20
154.1999926
 30
1.247999904
 40
12.47999904
  1
作図
 50
0.0
 41
0.6
 51
0.0
  7
KANJI5
  0
LINE
  8
0
  6
CONTINUOUS
 62
     4
 10
1790.8000474
 20
128.1999946
 30
0.0
 11
2401.8000004
 21
128.1999946
 31
0.0
  0
LINE
  8
0
  6
LTYPE1
 62
     4
 10
2227.6000138
 20
135.999994
 30
0.0
 11
2227.6000138
 21
177.5999908
 31
0.0
  0
LINE
  8
0
  6
LTYPE1
 62
     4
 10
2191.2000166
 20
135.999994
 30
0.0
 11
2191.2000166
 21
177.5999908
 31
0.0
  0
LINE
  8
0
  6
LTYPE1
 62
     4
 10
2154.8000194
 20
135.999994
 30
0.0
 11
2154.8000194
 21
177.5999908
 31
0.0
  0
LINE
  8
0
  6
LTYPE1
 62
     4
 10
2118.4000222
 20
135.999994
 30
0.0
 11
2118.4000222
 21
177.5999908
 31
0.0
  0
LINE
  8
0
  6
LTYPE1
 62
     4
 10
2082.000025
 20
135.999994
 30
0.0
 11
2082.000025
 21
177.5999908
 31
0.0
  0
LINE
  8
0
  6
LTYPE1
 62
     4
 10
2045.6000278
 20
135.999994
 30
0.0
 11
2045.6000278
 21
177.5999908
 31
0.0
  0
LINE
  8
0
  6
LTYPE1
 62
     4
 10
2009.2000306
 20
135.999994
 30
0.0
 11
2009.2000306
 21
177.5999908
 31
0.0
  0
LINE
  8
0
  6
LTYPE1
 62
     4
 10
1972.8000334
 20
135.999994
 30
0.0
 11
1972.8000334
 21
177.5999908
 31
0.0
  0
LINE
  8
0
  6
LTYPE1
 62
     4
 10
1972.8000334
 20
135.999994
 30
0.0
 11
2227.6000138
 21
135.999994
 31
0.0
  0
LINE
  8
0
  6
CONTINUOUS
 62
     4
 10
2248.4000122
 20
158.0999923
 30
0.0
 11
2258.8000114
 21
158.0999923
 31
0.0
  0
LINE
  8
0
  6
CONTINUOUS
 62
     4
 10
2313.4000072
 20
142.4999935
 30
0.0
 11
2277.00001
 21
142.4999935
 31
0.0
  0
LINE
  8
0
  6
CONTINUOUS
 62
     4
 10
2277.00001
 20
142.4999935
 30
0.0
 11
2295.2000086
 21
173.6999911
 31
0.0
  0
LINE
  8
0
  6
CONTINUOUS
 62
     4
 10
2295.2000086
 20
173.6999911
 30
0.0
 11
2313.4000072
 21
142.4999935
 31
0.0
  0
TEXT
  8
0
  6
CONTINUOUS
 62
     2
 10
1941.3000334
 20
141.999994
 30
1.8
 40
30.0
  1
Ａ
 50
0.0
 41
0.8
 51
0.0
  7
KANJI10
  0
LINE
  8
0
  6
CONTINUOUS
 62
     6
 10
2007.783030709
 20
106.983996232
 30
0.0
 11
1992.807031861
 21
106.983996232
 31
0.0
  0
LINE
  8
0
  6
CONTINUOUS
 62
     6
 10
2011.527030421
 20
106.983996232
 30
0.0
 11
2026.503029269
 21
106.983996232
 31
0.0
  0
TEXT
  8
0
  6
CONTINUOUS
 62
     2
 10
1668.0000334
 20
156.999994
 30
6.0
 40
21.0
  1
岡田
 50
0.0
 41
0.857142857
 51
0.0
  7
KANJI11
  0
TEXT
  8
0
  6
CONTINUOUS
 62
     2
 10
1711.0
 20
70.0
 30
1.8
 40
27.0
  1
１／６
 50
0.0
 41
0.666666667
 51
0.0
  7
KANJI12
  0
TEXT
  8
0
  6
CONTINUOUS
 62
     2
 10
2287.58
 20
143.6
 30
0.0
 40
18.0
  1
１
 50
0.0
 41
0.9
 51
0.0
  7
KANJI13
  0
TEXT
  8
0
  6
CONTINUOUS
 62
     2
 10
1650.6000334
 20
113.199994
 30
1.8
 40
21.0
  1
２０００．０８．０５
 50
0.0
 41
0.571428571
 51
0.0
  7
KANJI14
  0
LINE
  8
0
  6
CONTINUOUS
 62
     4
 10
1212.3000919
 20
138.5999938
 30
0.0
 11
1195.4000932
 21
112.5999958
 31
0.0
  0
LINE
  8
0
  6
CONTINUOUS
 62
     4
 10
1195.4000932
 20
112.5999958
 30
0.0
 11
1229.2000906
 21
112.5999958
 31
0.0
  0
LINE
  8
0
  6
CONTINUOUS
 62
     4
 10
1212.3000919
 20
138.5999938
 30
0.0
 11
1229.2000906
 21
112.5999958
 31
0.0
  0
TEXT
  8
0
  6
CONTINUOUS
 62
     2
 10
1204.0000902
 20
113.4999964
 30
0.0
 40
18.0
  1
１
 50
0.0
 41
0.9
 51
0.0
  7
KANJI13
  0
TEXT
  8
0
  6
CONTINUOUS
 62
     4
 10
1611.4000612
 20
294.5999818
 30
1.03999992
 40
10.3999992
  1
ＣＯＤＥ
 50
0.0
 41
0.6
 51
0.0
  7
KANJI4
  0
LINE
  8
0
  6
CONTINUOUS
 62
     4
 10
1601.000062
 20
312.7999804
 30
0.0
 11
2401.8000004
 21
312.7999804
 31
0.0
  0
TEXT
  8
0
  6
CONTINUOUS
 62
     4
 10
1611.4000612
 20
278.999983
 30
1.247999904
 40
12.47999904
  1
分類
 50
0.0
 41
0.6
 51
0.0
  7
KANJI5
  0
TEXT
  8
0
  6
CONTINUOUS
 62
     4
 10
1619.5
 20
319.0
 30
6.0
 40
21.6
  1
ご注文主
 50
0.0
 41
1.111111111
 51
0.0
  7
KANJI15
  0
TEXT
  8
0
  6
CONTINUOUS
 62
     4
 10
1611.4000612
 20
211.3999882
 30
1.03999992
 40
10.3999992
  1
ＤＥＳＩＧＮ
 50
0.0
 41
0.6
 51
0.0
  7
KANJI4
  0
TEXT
  8
0
  6
CONTINUOUS
 62
     4
 10
1611.4000612
 20
252.999985
 30
1.03999992
 40
10.3999992
  1
ＣＨＥＣＫ
 50
0.0
 41
0.6
 51
0.0
  7
KANJI4
  0
LINE
  8
0
  6
CONTINUOUS
 62
     4
 10
1601.000062
 20
229.5999868
 30
0.0
 11
1790.8000474
 21
229.5999868
 31
0.0
  0
LINE
  8
0
  6
CONTINUOUS
 62
     4
 10
1601.000062
 20
187.99999
 30
0.0
 11
1790.8000474
 21
187.99999
 31
0.0
  0
LINE
  8
0
  6
CONTINUOUS
 62
     4
 10
1601.000062
 20
271.1999836
 30
0.0
 11
1790.8000474
 21
271.1999836
 31
0.0
  0
TEXT
  8
0
  6
CONTINUOUS
 62
     4
 10
1611.4000612
 20
195.7999894
 30
1.247999904
 40
12.47999904
  1
設計
 50
0.0
 41
0.6
 51
0.0
  7
KANJI5
  0
TEXT
  8
0
  6
CONTINUOUS
 62
     4
 10
1611.4000612
 20
237.3999862
 30
1.247999904
 40
12.47999904
  1
検図
 50
0.0
 41
0.6
 51
0.0
  7
KANJI5
  0
LINE
  8
0
  6
CONTINUOUS
 62
     4
 10
1806.14004622
 20
271.1999836
 30
0.0
 11
2401.8000004
 21
271.1999836
 31
0.0
  0
LINE
  8
0
  6
CONTINUOUS
 62
     4
 10
1790.8000474
 20
187.99999
 30
0.0
 11
2401.8000004
 21
187.99999
 31
0.0
  0
TEXT
  8
0
  6
CONTINUOUS
 62
     4
 10
1801.2000466
 20
211.3999882
 30
1.03999992
 40
10.3999992
  1
ＭＦＧ　ＮＯ．
 50
0.0
 41
0.8
 51
0.0
  7
KANJI8
  0
TEXT
  8
0
  6
CONTINUOUS
 62
     4
 10
1801.2000466
 20
252.999985
 30
1.03999992
 40
10.3999992
  1
ＴＹＰＥ
 50
0.0
 41
0.8
 51
0.0
  7
KANJI8
  0
LINE
  8
0
  6
CONTINUOUS
 62
     4
 10
1806.4000462
 20
229.5999868
 30
0.0
 11
2045.6000278
 21
229.5999868
 31
0.0
  0
TEXT
  8
0
  6
CONTINUOUS
 62
     4
 10
1801.2000466
 20
193.1999896
 30
1.247999904
 40
12.47999904
  1
製番
 50
0.0
 41
0.8
 51
0.0
  7
KANJI9
  0
TEXT
  8
0
  6
CONTINUOUS
 62
     4
 10
1801.2000466
 20
234.7999864
 30
1.247999904
 40
12.47999904
  1
機種
 50
0.0
 41
0.8
 51
0.0
  7
KANJI9
  0
LINE
  8
0
  6
LTYPE1
 62
     4
 10
1972.8000334
 20
177.5999908
 30
0.0
 11
2227.6000138
 21
177.5999908
 31
0.0
  0
TEXT
  8
0
  6
CONTINUOUS
 62
     4
 10
2061.2000266
 20
252.999985
 30
1.03999992
 40
10.3999992
  1
ＴＩＴＬＥ
 50
0.0
 41
0.8
 51
0.0
  7
KANJI8
  0
TEXT
  8
0
  6
CONTINUOUS
 62
     4
 10
2061.2000266
 20
234.7999864
 30
1.247999904
 40
12.47999904
  1
名称
 50
0.0
 41
0.8
 51
0.0
  7
KANJI9
  0
TEXT
  8
0
  6
CONTINUOUS
 62
     2
 10
2146.0
 20
196.0
 30
15.0
 40
30.0
  1
外形寸法図
 50
0.0
 41
1.0
 51
0.0
  7
KANJI16
  0
TEXT
  8
0
  6
CONTINUOUS
 62
     2
 10
2110.0
 20
232.0
 30
4.285714286
 40
30.0
  1
マイティシリンダ
 50
0.0
 41
1.0
 51
0.0
  7
KANJI17
  0
CIRCLE
  8
0
  6
CONTINUOUS
 62
     2
 10
1902.3000334
 20
206.499994
 30
0.0
 40
15.0
  0
TEXT
  8
0
  6
CONTINUOUS
 62
     2
 10
1891.0500334
 20
195.249994
 30
1.8
 40
24.0
  1
Ｓ
 50
0.0
 41
1.0
 51
0.0
  7
KANJI18
  0
LINE
  8
0
  6
CONTINUOUS
 62
     4
 10
2401.8000004
 20
354.3999772
 30
0.0
 11
2401.8000004
 21
395.999974
 31
0.0
  0
LINE
  8
0
  6
CONTINUOUS
 62
     6
 10
1601.750062
 20
354.3999772
 30
0.0
 11
2402.5500004
 21
354.3999772
 31
0.0
  0
LINE
  8
0
  6
CONTINUOUS
 62
     6
 10
1601.000062
 20
395.999974
 30
0.0
 11
2401.8000004
 21
395.999974
 31
0.0
  0
TEXT
  8
0
  6
CONTINUOUS
 62
     4
 10
1619.5
 20
360.5999968
 30
6.0
 40
21.6
  1
ご用途
 50
0.0
 41
1.111111111
 51
0.0
  7
KANJI15
  0
LINE
  8
0
  6
CONTINUOUS
 62
     1
 10
1876.0
 20
757.0
 30
0.0
 11
2401.0
 21
757.0
 31
0.0
  0
LINE
  8
0
  6
CONTINUOUS
 62
     2
 10
1876.0
 20
841.0
 30
0.0
 11
2401.0
 21
841.0
 31
0.0
  0
LINE
  8
0
  6
CONTINUOUS
 62
     2
 10
1876.0
 20
799.0
 30
0.0
 11
2401.0
 21
799.0
 31
0.0
  0
LINE
  8
0
  6
CONTINUOUS
 62
     2
 10
1924.0
 20
1177.0
 30
0.0
 11
1924.0
 21
841.0
 31
0.0
  0
TEXT
  8
0
  6
CONTINUOUS
 62
     2
 10
1909.0
 20
809.8
 30
79.962857143
 40
22.8
  1
付属品
 50
0.0
 41
0.9
 51
0.0
  7
KANJI19
  0
TEXT
  8
0
  6
CONTINUOUS
 62
     2
 10
1909.0
 20
767.8
 30
180.445714286
 40
22.8
  1
台数
 50
0.0
 41
0.9
 51
0.0
  7
KANJI20
  0
LINE
  8
0
  6
CONTINUOUS
 62
     1
 10
1876.0
 20
1573.0
 30
0.0
 11
1876.0
 21
757.0
 31
0.0
  0
LINE
  8
0
  6
CONTINUOUS
 62
     1
 10
1876.0
 20
1573.0
 30
0.0
 11
2401.0
 21
1573.0
 31
0.0
  0
TEXT
  8
0
  6
CONTINUOUS
 62
     2
 10
1951.0
 20
1529.2
 30
17.09964
 40
27.0
  1
マイティシリンダ仕様
 50
0.0
 41
0.9
 51
0.0
  7
KANJI21
  0
LINE
  8
0
  6
CONTINUOUS
 62
     2
 10
1924.0
 20
883.0
 30
0.0
 11
2401.0
 21
883.0
 31
0.0
  0
LINE
  8
0
  6
CONTINUOUS
 62
     2
 10
1924.0
 20
1009.0
 30
0.0
 11
2401.0
 21
1009.0
 31
0.0
  0
LINE
  8
0
  6
CONTINUOUS
 62
     2
 10
1924.0
 20
1051.0
 30
0.0
 11
2401.0
 21
1051.0
 31
0.0
  0
LINE
  8
0
  6
CONTINUOUS
 62
     2
 10
1876.0
 20
1261.0
 30
0.0
 11
2401.0
 21
1261.0
 31
0.0
  0
LINE
  8
0
  6
CONTINUOUS
 62
     2
 10
1876.0
 20
1219.0
 30
0.0
 11
2401.0
 21
1219.0
 31
0.0
  0
LINE
  8
0
  6
CONTINUOUS
 62
     2
 10
1876.0
 20
1177.0
 30
0.0
 11
2401.0
 21
1177.0
 31
0.0
  0
LINE
  8
0
  6
CONTINUOUS
 62
     2
 10
1924.0
 20
1093.0
 30
0.0
 11
2401.0
 21
1093.0
 31
0.0
  0
LINE
  8
0
  6
CONTINUOUS
 62
     2
 10
1924.0
 20
1135.0
 30
0.0
 11
2401.0
 21
1135.0
 31
0.0
  0
LINE
  8
0
  6
CONTINUOUS
 62
     2
 10
1876.0
 20
1471.0
 30
0.0
 11
2401.0
 21
1471.0
 31
0.0
  0
LINE
  8
0
  6
CONTINUOUS
 62
     2
 10
1876.0
 20
1429.0
 30
0.0
 11
2401.0
 21
1429.0
 31
0.0
  0
LINE
  8
0
  6
CONTINUOUS
 62
     2
 10
1876.0
 20
1387.0
 30
0.0
 11
2401.0
 21
1387.0
 31
0.0
  0
LINE
  8
0
  6
CONTINUOUS
 62
     2
 10
1876.0
 20
1345.0
 30
0.0
 11
2401.0
 21
1345.0
 31
0.0
  0
LINE
  8
0
  6
CONTINUOUS
 62
     2
 10
1876.0
 20
1303.0
 30
0.0
 11
2401.0
 21
1303.0
 31
0.0
  0
LINE
  8
0
  6
CONTINUOUS
 62
     2
 10
1876.0
 20
1513.0
 30
0.0
 11
2401.0
 21
1513.0
 31
0.0
  0
TEXT
  8
0
  6
CONTINUOUS
 62
     2
 10
1951.0
 20
1103.8
 30
33.439782857
 40
22.8
  1
電源電圧
 50
0.0
 41
0.9
 51
0.0
  7
KANJI22
  0
TEXT
  8
0
  6
CONTINUOUS
 62
     2
 10
1951.0
 20
1061.8
 30
60.42
 40
22.8
  1
周波数
 50
0.0
 41
0.9
 51
0.0
  7
KANJI23
  0
TEXT
  8
0
  6
CONTINUOUS
 62
     2
 10
1951.0
 20
1019.8
 30
141.36
 40
22.8
  1
電流
 50
0.0
 41
0.9
 51
0.0
  7
KANJI24
  0
TEXT
  8
0
  6
CONTINUOUS
 62
     2
 10
1951.0
 20
977.8
 30
60.42
 40
22.8
  1
絶縁級
 50
0.0
 41
0.9
 51
0.0
  7
KANJI23
  0
LINE
  8
0
  6
CONTINUOUS
 62
     2
 10
2152.0
 20
1513.0
 30
0.0
 11
2152.0
 21
757.0
 31
0.0
  0
TEXT
  8
0
  6
CONTINUOUS
 62
     2
 10
1909.0
 20
1481.8
 30
180.445714286
 40
22.8
  1
形式
 50
0.0
 41
0.9
 51
0.0
  7
KANJI20
  0
TEXT
  8
0
  6
CONTINUOUS
 62
     2
 10
1909.0
 20
1439.8
 30
180.445714286
 40
22.8
  1
推力
 50
0.0
 41
0.9
 51
0.0
  7
KANJI20
  0
TEXT
  8
0
  6
CONTINUOUS
 62
     2
 10
1909.0
 20
1397.8
 30
29.721428571
 40
22.8
  1
ストローク
 50
0.0
 41
0.9
 51
0.0
  7
KANJI25
  0
TEXT
  8
0
  6
CONTINUOUS
 62
     2
 10
1909.0
 20
1271.8
 30
180.445714286
 40
22.8
  1
構造
 50
0.0
 41
0.9
 51
0.0
  7
KANJI20
  0
TEXT
  8
0
  6
CONTINUOUS
 62
     2
 10
1909.0
 20
1229.8
 30
12.973851429
 40
22.8
  1
過負荷安全装置
 50
0.0
 41
0.9
 51
0.0
  7
KANJI26
  0
TEXT
  8
0
  6
CONTINUOUS
 62
     2
 10
1909.0
 20
1187.8
 30
79.962857143
 40
22.8
  1
塗装色
 50
0.0
 41
0.9
 51
0.0
  7
KANJI19
  0
TEXT
  8
0
  6
CONTINUOUS
 62
     2
 10
1885.0
 20
1313.8
 30
1.954285714
 40
22.8
  1
ピストンロッド回転トルク
 50
0.0
 41
0.9
 51
0.0
  7
KANJI27
  0
LINE
  8
0
  6
CONTINUOUS
 62
     2
 10
1876.0
 20
967.0
 30
0.0
 11
2401.0
 21
967.0
 31
0.0
  0
LINE
  8
0
  6
CONTINUOUS
 62
     2
 10
1924.0
 20
925.0
 30
0.0
 11
2401.0
 21
925.0
 31
0.0
  0
TEXT
  8
0
  6
CONTINUOUS
 62
     2
 10
1900.45
 20
1171.0
 30
13.2
 40
21.0
  1
モ　トル仕様
 50
0.0
 41
0.9
 51
0.0
  7
KANJI28
  0
TEXT
  8
0
  6
CONTINUOUS
 62
     2
 10
1900.45
 20
949.0
 30
1.2
 40
21.0
  1
ブレ　キ
 50
0.0
 41
0.9
 51
0.0
  7
KANJI29
  0
LINE
  8
0
  6
CONTINUOUS
 62
     2
 10
1898.8
 20
899.2
 30
0.0
 11
1898.8
 21
886.6
 31
0.0
  0
TEXT
  8
0
  6
CONTINUOUS
 62
     2
 10
2210.5
 20
1231.0
 30
9.0
 40
21.0
  1
推力リミッタ
 50
0.0
 41
0.9
 51
0.0
  7
KANJI30
  0
TEXT
  8
0
  6
CONTINUOUS
 62
     2
 10
2267.5
 20
979.0
 30
1.8
 40
18.0
  1
Ｅ
 50
0.0
 41
0.9
 51
0.0
  7
KANJI31
  0
TEXT
  8
0
  6
CONTINUOUS
 62
     2
 10
1951.0
 20
935.8
 30
141.36
 40
22.8
  1
形式
 50
0.0
 41
0.9
 51
0.0
  7
KANJI24
  0
TEXT
  8
0
  6
CONTINUOUS
 62
     2
 10
1951.0
 20
893.8
 30
33.439782857
 40
22.8
  1
操作方式
 50
0.0
 41
0.9
 51
0.0
  7
KANJI22
  0
LINE
  8
0
  6
CONTINUOUS
 62
     2
 10
1898.8
 20
1134.4
 30
0.0
 11
1898.8
 21
1120.6
 31
0.0
  0
LINE
  8
0
  6
CONTINUOUS
 62
     1
 10
2401.0
 20
1573.0
 30
0.0
 11
2401.0
 21
757.0
 31
0.0
  0
TEXT
  8
0
  6
CONTINUOUS
 62
     2
 10
1951.0
 20
1145.8
 30
3.0
 40
22.8
  1
出力　相数　極数
 50
0.0
 41
0.9
 51
0.0
  7
KANJI32
  0
TEXT
  8
0
  6
CONTINUOUS
 62
     2
 10
1909.0
 20
1355.8
 30
12.0
 40
22.8
  1
公称速度
 50
0.0
 41
0.9
 51
0.0
  7
KANJI33
  0
TEXT
  8
0
  6
CONTINUOUS
 62
     2
 10
2032.9
 20
1354.6
 30
0.0
 40
21.0
  1
（５０／６０Ｈｚ）
 50
0.0
 41
0.628571429
 51
0.0
  7
KANJI34
  0
TEXT
  8
0
  6
CONTINUOUS
 62
     2
 10
2153.5
 20
936.25
 30
3.3
 40
20.4
  1
スプリング制動式電磁ブレーキ
 50
0.0
 41
0.705882353
 51
0.0
  7
KANJI35
  0
TEXT
  8
0
  6
CONTINUOUS
 62
     2
 10
2372.5
 20
1103.8
 30
0.216
 40
18.0
  1
Ｖ
 50
0.0
 41
0.8
 51
0.0
  7
KANJI36
  0
TEXT
  8
0
  6
CONTINUOUS
 62
     2
 10
2361.7
 20
1061.8
 30
0.216
 40
18.0
  1
Ｈｚ
 50
0.0
 41
0.8
 51
0.0
  7
KANJI36
  0
TEXT
  8
0
  6
CONTINUOUS
 62
     2
 10
2372.5
 20
1019.8
 30
0.216
 40
18.0
  1
Ａ
 50
0.0
 41
0.8
 51
0.0
  7
KANJI36
  0
TEXT
  8
0
  6
CONTINUOUS
 62
     2
 10
2293.6
 20
1147.0
 30
1.8
 40
18.0
  1
３φ
 50
0.0
 41
0.9
 51
0.0
  7
KANJI31
  0
TEXT
  8
0
  6
CONTINUOUS
 62
     2
 10
2353.6
 20
1147.0
 30
1.8
 40
18.0
  1
４Ｐ
 50
0.0
 41
0.9
 51
0.0
  7
KANJI31
  0
TEXT
  8
0
  6
CONTINUOUS
 62
     2
 10
2152.0
 20
1189.0
 30
1.2
 40
19.2
  1
マンセル　７．５ＧＹ　５／４．５
 50
0.0
 41
0.71875
 51
0.0
  7
KANJI37
  0
TEXT
  8
0
  6
CONTINUOUS
 62
     2
 10
2152.0
 20
1105.0
 30
1.8
 40
18.0
  1
　　　　　　　／　　　
 50
0.0
 41
0.9
 51
0.0
  7
KANJI31
  0
TEXT
  8
0
  6
CONTINUOUS
 62
     2
 10
2152.0
 20
1063.0
 30
1.8
 40
18.0
  1
　　　　５０／　６０
 50
0.0
 41
0.9
 51
0.0
  7
KANJI31
  0
TEXT
  8
0
  6
CONTINUOUS
 62
     2
 10
2152.0
 20
1021.0
 30
1.8
 40
18.0
  1
　　　　　　　／　　　
 50
0.0
 41
0.9
 51
0.0
  7
KANJI31
  0
TEXT
  8
0
  6
CONTINUOUS
 62
     2
 10
2356.6
 20
1400.2
 30
0.1536
 40
19.2
  1
ｍｍ
 50
0.0
 41
0.8
 51
0.0
  7
KANJI38
  0
TEXT
  8
0
  6
CONTINUOUS
 62
     2
 10
2210.5
 20
1273.0
 30
9.0
 40
21.0
  1
全閉屋内形
 50
0.0
 41
0.9
 51
0.0
  7
KANJI30
  0
TEXT
  8
0
  6
CONTINUOUS
 62
     2
 10
2317.6
 20
1357.0
 30
0.0
 40
21.0
  1
ｍｍ／ｓｅｃ
 50
0.0
 41
0.571428571
 51
0.0
  7
KANJI39
  0
TEXT
  8
0
  6
CONTINUOUS
 62
     2
 10
2195.8
 20
1441.0
 30
1.8
 40
18.0
  1
１９．６ＫＮ（２ｔｏｎ）
 50
0.0
 41
0.9
 51
0.0
  7
KANJI31
  0
TEXT
  8
0
  6
CONTINUOUS
 62
     2
 10
2167.0
 20
1315.0
 30
0.0
 40
18.0
  1
　３９Ｎ．ｍ（４ｋｇ．ｍ）
 50
0.0
 41
0.833333333
 51
0.0
  7
KANJI40
  0
TEXT
  8
0
  6
CONTINUOUS
 62
     2
 10
2158.0
 20
1147.0
 30
1.8
 40
18.0
  1
　１．５ＫＷ
 50
0.0
 41
0.9
 51
0.0
  7
KANJI31
  0
TEXT
  8
0
  6
CONTINUOUS
 62
     2
 10
2224.0
 20
893.8
 30
12.0
 40
21.0
  1
別切り
 50
0.0
 41
0.9
 51
0.0
  7
KANJI41
  0
TEXT
  8
0
  6
CONTINUOUS
 62
     2
 10
2155.0
 20
1357.0
 30
1.8
 40
18.0
  1
　４８．４／５８
 50
0.0
 41
0.9
 51
0.0
  7
KANJI31
  0
LINE
  8
0
  6
CONTINUOUS
 62
     1
 10
1016.2
 20
1477.54
 30
0.0
 11
1793.8
 21
1477.54
 31
0.0
  0
LINE
  8
0
  6
CONTINUOUS
 62
     1
 10
1016.2
 20
1443.94
 30
0.0
 11
1793.8
 21
1443.94
 31
0.0
  0
TEXT
  8
0
  6
CONTINUOUS
 62
     2
 10
1064.2
 20
1453.54
 30
1.536
 40
15.36
  1
形
 50
0.0
 41
0.9
 51
0.0
  7
KANJI42
  0
TEXT
  8
0
  6
CONTINUOUS
 62
     2
 10
1157.8
 20
1453.54
 30
1.536
 40
15.36
  1
式
 50
0.0
 41
0.9
 51
0.0
  7
KANJI42
  0
TEXT
  8
0
  6
CONTINUOUS
 62
     2
 10
1230.28
 20
1452.58
 30
1.44
 40
14.4
  1
ストローク
 50
0.0
 41
0.9
 51
0.0
  7
KANJI43
  0
TEXT
  8
0
  6
CONTINUOUS
 62
     2
 10
1322.44
 20
1451.62
 30
0.0
 40
14.4
  1
ｍｉｎ　
 50
0.0
 41
0.9
 51
0.0
  7
KANJI44
  0
TEXT
  8
0
  6
CONTINUOUS
 62
     2
 10
1418.44
 20
1451.62
 30
0.0
 40
14.4
  1
ｍｉｎ　
 50
0.0
 41
0.9
 51
0.0
  7
KANJI44
  0
TEXT
  8
0
  6
CONTINUOUS
 62
     2
 10
1610.44
 20
1451.62
 30
0.0
 40
14.4
  1
ｍｉｎ　
 50
0.0
 41
0.9
 51
0.0
  7
KANJI44
  0
TEXT
  8
0
  6
CONTINUOUS
 62
     2
 10
1371.4
 20
1452.58
 30
1.68
 40
16.8
  1
ＡＬ
 50
0.0
 41
0.9
 51
0.0
  7
KANJI45
  0
TEXT
  8
0
  6
CONTINUOUS
 62
     2
 10
1467.4
 20
1452.58
 30
1.68
 40
16.8
  1
Ｌ
 50
0.0
 41
0.9
 51
0.0
  7
KANJI45
  0
TEXT
  8
0
  6
CONTINUOUS
 62
     2
 10
1549.0
 20
1452.58
 30
1.68
 40
16.8
  1
Ｃ
 50
0.0
 41
0.9
 51
0.0
  7
KANJI45
  0
TEXT
  8
0
  6
CONTINUOUS
 62
     2
 10
1659.4
 20
1452.58
 30
1.68
 40
16.8
  1
Ｐ
 50
0.0
 41
0.9
 51
0.0
  7
KANJI45
  0
TEXT
  8
0
  6
CONTINUOUS
 62
     2
 10
1758.16
 20
1452.22
 30
0.0
 40
12.96
  1
（ｋｇ）
 50
0.0
 41
0.740740741
 51
0.0
  7
KANJI46
  0
TEXT
  8
0
  6
CONTINUOUS
 62
     2
 10
1700.56
 20
1451.98
 30
1.44
 40
16.8
  1
概算重量
 50
0.0
 41
0.857142857
 51
0.0
  7
KANJI47
  0
LINE
  8
0
  6
CONTINUOUS
 62
     1
 10
1606.0978
 20
1656.09972
 30
0.0
 11
1606.0978
 21
1526.10024
 31
0.0
  0
LINE
  8
0
  6
CONTINUOUS
 62
     2
 10
1531.0981
 20
1656.09972
 30
0.0
 11
1531.0981
 21
1526.10024
 31
0.0
  0
LINE
  8
0
  6
CONTINUOUS
 62
     2
 10
1456.0984
 20
1656.09972
 30
0.0
 11
1456.0984
 21
1526.10024
 31
0.0
  0
LINE
  8
0
  6
CONTINUOUS
 62
     1
 10
1356.0988
 20
1656.09972
 30
0.0
 11
1356.0988
 21
1526.10024
 31
0.0
  0
LINE
  8
0
  6
CONTINUOUS
 62
     1
 10
1356.0988
 20
1656.09972
 30
0.0
 11
1606.0978
 21
1656.09972
 31
0.0
  0
LINE
  8
0
  6
CONTINUOUS
 62
     1
 10
1356.0988
 20
1616.09988
 30
0.0
 11
1606.0978
 21
1616.09988
 31
0.0
  0
LINE
  8
0
  6
CONTINUOUS
 62
     2
 10
1356.0988
 20
1586.1
 30
0.0
 11
1606.0978
 21
1586.1
 31
0.0
  0
LINE
  8
0
  6
CONTINUOUS
 62
     2
 10
1356.0988
 20
1556.10012
 30
0.0
 11
1606.0978
 21
1556.10012
 31
0.0
  0
LINE
  8
0
  6
CONTINUOUS
 62
     1
 10
1356.0988
 20
1526.10024
 30
0.0
 11
1606.0978
 21
1526.10024
 31
0.0
  0
TEXT
  8
0
  6
CONTINUOUS
 62
     2
 10
1541.09806
 20
1638.59979
 30
1.499994
 40
14.99994
  1
起動電流
 50
0.0
 41
0.9
 51
0.0
  7
KANJI48
  0
TEXT
  8
0
  6
CONTINUOUS
 62
     2
 10
1541.09806
 20
1621.09986
 30
1.499994
 40
14.99994
  1
　　　Ａ
 50
0.0
 41
0.9
 51
0.0
  7
KANJI48
  0
TEXT
  8
0
  6
CONTINUOUS
 62
     2
 10
1466.09836
 20
1638.59979
 30
1.499994
 40
14.99994
  1
定格電流
 50
0.0
 41
0.9
 51
0.0
  7
KANJI48
  0
TEXT
  8
0
  6
CONTINUOUS
 62
     2
 10
1466.09836
 20
1621.09986
 30
1.499994
 40
14.99994
  1
　　　Ａ
 50
0.0
 41
0.9
 51
0.0
  7
KANJI48
  0
TEXT
  8
0
  6
CONTINUOUS
 62
     2
 10
1364.598766
 20
1563.60009
 30
1.499994
 40
14.99994
  1
２００／６０
 50
0.0
 41
0.9
 51
0.0
  7
KANJI48
  0
TEXT
  8
0
  6
CONTINUOUS
 62
     2
 10
1364.598766
 20
1638.59979
 30
1.499994
 40
14.99994
  1
電圧／周波数
 50
0.0
 41
0.9
 51
0.0
  7
KANJI48
  0
TEXT
  8
0
  6
CONTINUOUS
 62
     2
 10
1364.598766
 20
1621.09986
 30
1.499994
 40
14.99994
  1
　Ｖ／Ｈｚ
 50
0.0
 41
0.9
 51
0.0
  7
KANJI48
  0
TEXT
  8
0
  6
CONTINUOUS
 62
     2
 10
1364.598766
 20
1593.59997
 30
1.499994
 40
14.99994
  1
２００／５０
 50
0.0
 41
0.9
 51
0.0
  7
KANJI48
  0
TEXT
  8
0
  6
CONTINUOUS
 62
     2
 10
1364.598766
 20
1533.60021
 30
1.499994
 40
14.99994
  1
２２０／６０
 50
0.0
 41
0.9
 51
0.0
  7
KANJI48
  0
LINE
  8
0
  6
CONTINUOUS
 62
     1
 10
1306.099
 20
1656.09972
 30
0.0
 11
1306.099
 21
1526.10024
 31
0.0
  0
LINE
  8
0
  6
CONTINUOUS
 62
     2
 10
1231.0993
 20
1656.09972
 30
0.0
 11
1231.0993
 21
1526.10024
 31
0.0
  0
LINE
  8
0
  6
CONTINUOUS
 62
     2
 10
1156.0996
 20
1656.09972
 30
0.0
 11
1156.0996
 21
1526.10024
 31
0.0
  0
LINE
  8
0
  6
CONTINUOUS
 62
     1
 10
1056.1
 20
1656.09972
 30
0.0
 11
1306.099
 21
1656.09972
 31
0.0
  0
LINE
  8
0
  6
CONTINUOUS
 62
     1
 10
1056.1
 20
1616.09988
 30
0.0
 11
1306.099
 21
1616.09988
 31
0.0
  0
LINE
  8
0
  6
CONTINUOUS
 62
     2
 10
1056.1
 20
1586.1
 30
0.0
 11
1306.099
 21
1586.1
 31
0.0
  0
LINE
  8
0
  6
CONTINUOUS
 62
     2
 10
1056.1
 20
1556.10012
 30
0.0
 11
1306.099
 21
1556.10012
 31
0.0
  0
LINE
  8
0
  6
CONTINUOUS
 62
     1
 10
1056.1
 20
1526.10024
 30
0.0
 11
1306.099
 21
1526.10024
 31
0.0
  0
TEXT
  8
0
  6
CONTINUOUS
 62
     2
 10
1241.09926
 20
1638.59979
 30
1.499994
 40
14.99994
  1
起動電流
 50
0.0
 41
0.9
 51
0.0
  7
KANJI48
  0
TEXT
  8
0
  6
CONTINUOUS
 62
     2
 10
1241.09926
 20
1621.09986
 30
1.499994
 40
14.99994
  1
　　　Ａ
 50
0.0
 41
0.9
 51
0.0
  7
KANJI48
  0
TEXT
  8
0
  6
CONTINUOUS
 62
     2
 10
1166.09956
 20
1638.59979
 30
1.499994
 40
14.99994
  1
定格電流
 50
0.0
 41
0.9
 51
0.0
  7
KANJI48
  0
TEXT
  8
0
  6
CONTINUOUS
 62
     2
 10
1166.09956
 20
1621.09986
 30
1.499994
 40
14.99994
  1
　　　Ａ
 50
0.0
 41
0.9
 51
0.0
  7
KANJI48
  0
TEXT
  8
0
  6
CONTINUOUS
 62
     2
 10
1064.599966
 20
1638.59979
 30
1.499994
 40
14.99994
  1
電圧／周波数
 50
0.0
 41
0.9
 51
0.0
  7
KANJI48
  0
TEXT
  8
0
  6
CONTINUOUS
 62
     2
 10
1064.599966
 20
1621.09986
 30
1.499994
 40
14.99994
  1
　Ｖ／Ｈｚ
 50
0.0
 41
0.9
 51
0.0
  7
KANJI48
  0
TEXT
  8
0
  6
CONTINUOUS
 62
     2
 10
1064.599966
 20
1593.59997
 30
1.499994
 40
14.99994
  1
４００／５０
 50
0.0
 41
0.9
 51
0.0
  7
KANJI48
  0
TEXT
  8
0
  6
CONTINUOUS
 62
     2
 10
1064.599966
 20
1563.60009
 30
1.499994
 40
14.99994
  1
４００／６０
 50
0.0
 41
0.9
 51
0.0
  7
KANJI48
  0
TEXT
  8
0
  6
CONTINUOUS
 62
     2
 10
1064.599966
 20
1533.60021
 30
1.499994
 40
14.99994
  1
４４０／６０
 50
0.0
 41
0.9
 51
0.0
  7
KANJI48
  0
TEXT
  8
0
  6
CONTINUOUS
 62
     2
 10
1166.09956
 20
1593.59997
 30
1.499994
 40
14.99994
  1
　　３．４
 50
0.0
 41
0.9
 51
0.0
  7
KANJI48
  0
TEXT
  8
0
  6
CONTINUOUS
 62
     2
 10
1166.09956
 20
1533.60021
 30
1.499994
 40
14.99994
  1
　　３．０
 50
0.0
 41
0.9
 51
0.0
  7
KANJI48
  0
TEXT
  8
0
  6
CONTINUOUS
 62
     2
 10
1466.09836
 20
1593.59997
 30
1.499994
 40
14.99994
  1
　　６．８
 50
0.0
 41
0.9
 51
0.0
  7
KANJI48
  0
TEXT
  8
0
  6
CONTINUOUS
 62
     2
 10
1466.09836
 20
1533.60021
 30
1.499994
 40
14.99994
  1
　　６．０
 50
0.0
 41
0.9
 51
0.0
  7
KANJI48
  0
TEXT
  8
0
  6
CONTINUOUS
 62
     2
 10
1541.09806
 20
1593.59997
 30
1.499994
 40
14.99994
  1
４４．０
 50
0.0
 41
0.9
 51
0.0
  7
KANJI48
  0
LINE
  8
0
  6
CONTINUOUS
 62
     1
 10
1056.1
 20
1656.09972
 30
0.0
 11
1056.1
 21
1526.10024
 31
0.0
  0
TEXT
  8
0
  6
CONTINUOUS
 62
     2
 10
1166.09956
 20
1563.60009
 30
1.499994
 40
14.99994
  1
　　３．１
 50
0.0
 41
0.9
 51
0.0
  7
KANJI48
  0
TEXT
  8
0
  6
CONTINUOUS
 62
     2
 10
1466.09836
 20
1563.60009
 30
1.499994
 40
14.99994
  1
　　６．２
 50
0.0
 41
0.9
 51
0.0
  7
KANJI48
  0
TEXT
  8
0
  6
CONTINUOUS
 62
     2
 10
1239.4
 20
1418.38
 30
1.44
 40
14.4
  1
　２００
 50
0.0
 41
0.9
 51
0.0
  7
KANJI43
  0
TEXT
  8
0
  6
CONTINUOUS
 62
     2
 10
1239.4
 20
1384.78
 30
1.44
 40
14.4
  1
　３００
 50
0.0
 41
0.9
 51
0.0
  7
KANJI43
  0
TEXT
  8
0
  6
CONTINUOUS
 62
     2
 10
1239.4
 20
1250.38
 30
1.44
 40
14.4
  1
　７００
 50
0.0
 41
0.9
 51
0.0
  7
KANJI43
  0
LINE
  8
0
  6
CONTINUOUS
 62
     1
 10
1016.2
 20
1107.94
 30
0.0
 11
1793.8
 21
1107.94
 31
0.0
  0
TEXT
  8
0
  6
CONTINUOUS
 62
     2
 10
1239.4
 20
1317.58
 30
1.44
 40
14.4
  1
　５００
 50
0.0
 41
0.9
 51
0.0
  7
KANJI43
  0
TEXT
  8
0
  6
CONTINUOUS
 62
     2
 10
1239.4
 20
1351.18
 30
1.44
 40
14.4
  1
　４００
 50
0.0
 41
0.9
 51
0.0
  7
KANJI43
  0
TEXT
  8
0
  6
CONTINUOUS
 62
     2
 10
1239.4
 20
1283.98
 30
1.44
 40
14.4
  1
　６００
 50
0.0
 41
0.9
 51
0.0
  7
KANJI43
  0
TEXT
  8
0
  6
CONTINUOUS
 62
     2
 10
1239.4
 20
1216.78
 30
1.44
 40
14.4
  1
　８００
 50
0.0
 41
0.9
 51
0.0
  7
KANJI43
  0
TEXT
  8
0
  6
CONTINUOUS
 62
     2
 10
1239.4
 20
1183.18
 30
1.44
 40
14.4
  1
　９００
 50
0.0
 41
0.9
 51
0.0
  7
KANJI43
  0
TEXT
  8
0
  6
CONTINUOUS
 62
     2
 10
1239.4
 20
1149.58
 30
1.44
 40
14.4
  1
１０００
 50
0.0
 41
0.9
 51
0.0
  7
KANJI43
  0
TEXT
  8
0
  6
CONTINUOUS
 62
     2
 10
1623.4
 20
1418.38
 30
1.44
 40
14.4
  1
　　４５
 50
0.0
 41
0.9
 51
0.0
  7
KANJI43
  0
TEXT
  8
0
  6
CONTINUOUS
 62
     2
 10
1623.4
 20
1384.78
 30
1.44
 40
14.4
  1
　　４５
 50
0.0
 41
0.9
 51
0.0
  7
KANJI43
  0
TEXT
  8
0
  6
CONTINUOUS
 62
     2
 10
1623.4
 20
1351.18
 30
1.44
 40
14.4
  1
　　４５
 50
0.0
 41
0.9
 51
0.0
  7
KANJI43
  0
TEXT
  8
0
  6
CONTINUOUS
 62
     2
 10
1623.4
 20
1317.58
 30
1.44
 40
14.4
  1
　　４５
 50
0.0
 41
0.9
 51
0.0
  7
KANJI43
  0
TEXT
  8
0
  6
CONTINUOUS
 62
     2
 10
1623.4
 20
1283.98
 30
1.44
 40
14.4
  1
　　４５
 50
0.0
 41
0.9
 51
0.0
  7
KANJI43
  0
TEXT
  8
0
  6
CONTINUOUS
 62
     2
 10
1623.4
 20
1250.38
 30
1.44
 40
14.4
  1
　　４５
 50
0.0
 41
0.9
 51
0.0
  7
KANJI43
  0
TEXT
  8
0
  6
CONTINUOUS
 62
     2
 10
1623.4
 20
1216.78
 30
1.44
 40
14.4
  1
　　４５
 50
0.0
 41
0.9
 51
0.0
  7
KANJI43
  0
TEXT
  8
0
  6
CONTINUOUS
 62
     2
 10
1623.4
 20
1183.18
 30
1.44
 40
14.4
  1
　　４５
 50
0.0
 41
0.9
 51
0.0
  7
KANJI43
  0
TEXT
  8
0
  6
CONTINUOUS
 62
     2
 10
1623.4
 20
1149.58
 30
1.44
 40
14.4
  1
　　４５
 50
0.0
 41
0.9
 51
0.0
  7
KANJI43
  0
LINE
  8
0
  6
CONTINUOUS
 62
     2
 10
1016.2
 20
1410.34
 30
0.0
 11
1793.8
 21
1410.34
 31
0.0
  0
LINE
  8
0
  6
CONTINUOUS
 62
     2
 10
1016.2
 20
1376.74
 30
0.0
 11
1793.8
 21
1376.74
 31
0.0
  0
LINE
  8
0
  6
CONTINUOUS
 62
     2
 10
1016.2
 20
1175.14
 30
0.0
 11
1793.8
 21
1175.14
 31
0.0
  0
LINE
  8
0
  6
CONTINUOUS
 62
     2
 10
1016.2
 20
1208.74
 30
0.0
 11
1793.8
 21
1208.74
 31
0.0
  0
LINE
  8
0
  6
CONTINUOUS
 62
     2
 10
1016.2
 20
1141.54
 30
0.0
 11
1793.8
 21
1141.54
 31
0.0
  0
LINE
  8
0
  6
CONTINUOUS
 62
     2
 10
1016.2
 20
1309.54
 30
0.0
 11
1793.8
 21
1309.54
 31
0.0
  0
LINE
  8
0
  6
CONTINUOUS
 62
     2
 10
1016.2
 20
1343.14
 30
0.0
 11
1793.8
 21
1343.14
 31
0.0
  0
LINE
  8
0
  6
CONTINUOUS
 62
     2
 10
1016.2
 20
1242.34
 30
0.0
 11
1793.8
 21
1242.34
 31
0.0
  0
LINE
  8
0
  6
CONTINUOUS
 62
     2
 10
1016.2
 20
1275.94
 30
0.0
 11
1793.8
 21
1275.94
 31
0.0
  0
TEXT
  8
0
  6
CONTINUOUS
 62
     2
 10
1527.4
 20
1418.38
 30
1.44
 40
14.4
  1
　４４１
 50
0.0
 41
0.9
 51
0.0
  7
KANJI43
  0
TEXT
  8
0
  6
CONTINUOUS
 62
     2
 10
1527.4
 20
1384.78
 30
1.44
 40
14.4
  1
　５４１
 50
0.0
 41
0.9
 51
0.0
  7
KANJI43
  0
TEXT
  8
0
  6
CONTINUOUS
 62
     2
 10
1527.4
 20
1351.18
 30
1.44
 40
14.4
  1
　６４１
 50
0.0
 41
0.9
 51
0.0
  7
KANJI43
  0
TEXT
  8
0
  6
CONTINUOUS
 62
     2
 10
1527.4
 20
1317.58
 30
1.44
 40
14.4
  1
　７４１
 50
0.0
 41
0.9
 51
0.0
  7
KANJI43
  0
TEXT
  8
0
  6
CONTINUOUS
 62
     2
 10
1527.4
 20
1283.98
 30
1.44
 40
14.4
  1
　８８１
 50
0.0
 41
0.9
 51
0.0
  7
KANJI43
  0
TEXT
  8
0
  6
CONTINUOUS
 62
     2
 10
1527.4
 20
1250.38
 30
1.44
 40
14.4
  1
　９８１
 50
0.0
 41
0.9
 51
0.0
  7
KANJI43
  0
TEXT
  8
0
  6
CONTINUOUS
 62
     2
 10
1527.4
 20
1216.78
 30
1.44
 40
14.4
  1
１０８１
 50
0.0
 41
0.9
 51
0.0
  7
KANJI43
  0
TEXT
  8
0
  6
CONTINUOUS
 62
     2
 10
1527.4
 20
1183.18
 30
1.44
 40
14.4
  1
１１８１
 50
0.0
 41
0.9
 51
0.0
  7
KANJI43
  0
TEXT
  8
0
  6
CONTINUOUS
 62
     2
 10
1527.4
 20
1149.58
 30
1.44
 40
14.4
  1
１２８１
 50
0.0
 41
0.9
 51
0.0
  7
KANJI43
  0
TEXT
  8
0
  6
CONTINUOUS
 62
     2
 10
1431.4
 20
1418.38
 30
1.44
 40
14.4
  1
　５３６
 50
0.0
 41
0.9
 51
0.0
  7
KANJI43
  0
TEXT
  8
0
  6
CONTINUOUS
 62
     2
 10
1431.4
 20
1384.78
 30
1.44
 40
14.4
  1
　６３６
 50
0.0
 41
0.9
 51
0.0
  7
KANJI43
  0
TEXT
  8
0
  6
CONTINUOUS
 62
     2
 10
1431.4
 20
1351.18
 30
1.44
 40
14.4
  1
　７３６
 50
0.0
 41
0.9
 51
0.0
  7
KANJI43
  0
TEXT
  8
0
  6
CONTINUOUS
 62
     2
 10
1431.4
 20
1317.58
 30
1.44
 40
14.4
  1
　８３６
 50
0.0
 41
0.9
 51
0.0
  7
KANJI43
  0
TEXT
  8
0
  6
CONTINUOUS
 62
     2
 10
1431.4
 20
1283.98
 30
1.44
 40
14.4
  1
　９７６
 50
0.0
 41
0.9
 51
0.0
  7
KANJI43
  0
TEXT
  8
0
  6
CONTINUOUS
 62
     2
 10
1431.4
 20
1250.38
 30
1.44
 40
14.4
  1
１０７６
 50
0.0
 41
0.9
 51
0.0
  7
KANJI43
  0
TEXT
  8
0
  6
CONTINUOUS
 62
     2
 10
1431.4
 20
1216.78
 30
1.44
 40
14.4
  1
１１７６
 50
0.0
 41
0.9
 51
0.0
  7
KANJI43
  0
TEXT
  8
0
  6
CONTINUOUS
 62
     2
 10
1431.4
 20
1183.18
 30
1.44
 40
14.4
  1
１２７６
 50
0.0
 41
0.9
 51
0.0
  7
KANJI43
  0
TEXT
  8
0
  6
CONTINUOUS
 62
     2
 10
1431.4
 20
1149.58
 30
1.44
 40
14.4
  1
１３７６
 50
0.0
 41
0.9
 51
0.0
  7
KANJI43
  0
TEXT
  8
0
  6
CONTINUOUS
 62
     2
 10
1335.4
 20
1418.38
 30
1.44
 40
14.4
  1
　７３３
 50
0.0
 41
0.9
 51
0.0
  7
KANJI43
  0
TEXT
  8
0
  6
CONTINUOUS
 62
     2
 10
1335.4
 20
1384.78
 30
1.44
 40
14.4
  1
　８３３
 50
0.0
 41
0.9
 51
0.0
  7
KANJI43
  0
TEXT
  8
0
  6
CONTINUOUS
 62
     2
 10
1335.4
 20
1351.18
 30
1.44
 40
14.4
  1
　９３３
 50
0.0
 41
0.9
 51
0.0
  7
KANJI43
  0
TEXT
  8
0
  6
CONTINUOUS
 62
     2
 10
1335.4
 20
1317.58
 30
1.44
 40
14.4
  1
１０３３
 50
0.0
 41
0.9
 51
0.0
  7
KANJI43
  0
TEXT
  8
0
  6
CONTINUOUS
 62
     2
 10
1335.4
 20
1283.98
 30
1.44
 40
14.4
  1
１１７３
 50
0.0
 41
0.9
 51
0.0
  7
KANJI43
  0
TEXT
  8
0
  6
CONTINUOUS
 62
     2
 10
1335.4
 20
1250.38
 30
1.44
 40
14.4
  1
１２７３
 50
0.0
 41
0.9
 51
0.0
  7
KANJI43
  0
TEXT
  8
0
  6
CONTINUOUS
 62
     2
 10
1335.4
 20
1216.78
 30
1.44
 40
14.4
  1
１３７３
 50
0.0
 41
0.9
 51
0.0
  7
KANJI43
  0
TEXT
  8
0
  6
CONTINUOUS
 62
     2
 10
1335.4
 20
1183.18
 30
1.44
 40
14.4
  1
１４７３
 50
0.0
 41
0.9
 51
0.0
  7
KANJI43
  0
TEXT
  8
0
  6
CONTINUOUS
 62
     2
 10
1335.4
 20
1149.58
 30
1.44
 40
14.4
  1
１５７３
 50
0.0
 41
0.9
 51
0.0
  7
KANJI43
  0
LINE
  8
0
  6
CONTINUOUS
 62
     1
 10
1217.8
 20
1477.54
 30
0.0
 11
1217.8
 21
1107.94
 31
0.0
  0
LINE
  8
0
  6
CONTINUOUS
 62
     2
 10
1313.8
 20
1477.54
 30
0.0
 11
1313.8
 21
1107.94
 31
0.0
  0
LINE
  8
0
  6
CONTINUOUS
 62
     2
 10
1409.8
 20
1477.54
 30
0.0
 11
1409.8
 21
1107.94
 31
0.0
  0
LINE
  8
0
  6
CONTINUOUS
 62
     2
 10
1505.8
 20
1477.54
 30
0.0
 11
1505.8
 21
1107.94
 31
0.0
  0
LINE
  8
0
  6
CONTINUOUS
 62
     2
 10
1601.8
 20
1477.54
 30
0.0
 11
1601.8
 21
1107.94
 31
0.0
  0
LINE
  8
0
  6
CONTINUOUS
 62
     2
 10
1697.8
 20
1477.54
 30
0.0
 11
1697.8
 21
1107.94
 31
0.0
  0
LINE
  8
0
  6
CONTINUOUS
 62
     1
 10
1793.8
 20
1477.54
 30
0.0
 11
1793.8
 21
1107.94
 31
0.0
  0
LINE
  8
0
  6
CONTINUOUS
 62
     1
 10
1016.2
 20
1477.54
 30
0.0
 11
1016.2
 21
1107.94
 31
0.0
  0
TEXT
  8
0
  6
CONTINUOUS
 62
     2
 10
1099.349827
 20
1499.43368
 30
1.749993
 40
17.49993
  1
注意：サーマルリレー等の選定は、上記の値で選定して下さい。
 50
0.0
 41
0.9
 51
0.0
  7
KANJI49
  0
LINE
  8
0
  6
CONTINUOUS
 62
     2
 10
1091.349867
 20
1494.4337
 30
0.0
 11
1588.347987
 21
1494.4337
 31
0.0
  0
TEXT
  8
0
  6
CONTINUOUS
 62
     2
 10
2165.5
 20
1480.9
 30
1.2
 40
18.0
  1
ＭＣＬＥ２Ｂ－　Ｌ
 50
0.0
 41
0.833333333
 51
0.0
  7
KANJI50
  0
LINE
  8
0
  6
CONTINUOUS
 62
     1
 10
380.902528837
 20
751.58
 30
0.0
 11
380.902528837
 21
762.52954
 31
0.0
  0
LINE
  8
0
  6
CONTINUOUS
 62
     1
 10
380.902528837
 20
751.58
 30
0.0
 11
380.902528837
 21
740.63046
 31
0.0
  0
LINE
  8
0
  6
CONTINUOUS
 62
     1
 10
377.902528837
 20
762.33
 30
0.0
 11
380.902528837
 21
762.33
 31
0.0
  0
LINE
  8
0
  6
CONTINUOUS
 62
     1
 10
377.902528837
 20
751.58
 30
0.0
 11
380.90278291
 21
754.580254073
 31
0.0
  0
LINE
  8
0
  6
CONTINUOUS
 62
     1
 10
380.90278291
 20
751.58
 30
0.0
 11
377.902528837
 21
748.579745927
 31
0.0
  0
LINE
  8
0
  6
CONTINUOUS
 62
     1
 10
377.902528837
 20
740.83
 30
0.0
 11
380.902528837
 21
740.83
 31
0.0
  0
LINE
  8
0
  6
CONTINUOUS
 62
     1
 10
380.902528837
 20
762.33
 30
0.0
 11
392.202528837
 21
762.33
 31
0.0
  0
LINE
  8
0
  6
CONTINUOUS
 62
     1
 10
392.202528837
 20
751.58
 30
0.0
 11
392.202528837
 21
762.33
 31
0.0
  0
LINE
  8
0
  6
CONTINUOUS
 62
     1
 10
392.202528837
 20
762.33
 30
0.0
 11
392.902528837
 21
761.117564435
 31
0.0
  0
LINE
  8
0
  6
CONTINUOUS
 62
     1
 10
392.902528837
 20
751.58
 30
0.0
 11
392.902528837
 21
761.117564435
 31
0.0
  0
LINE
  8
0
  6
CONTINUOUS
 62
     1
 10
380.902528837
 20
740.83
 30
0.0
 11
392.202528837
 21
740.83
 31
0.0
  0
LINE
  8
0
  6
CONTINUOUS
 62
     1
 10
392.202528837
 20
751.58
 30
0.0
 11
392.202528837
 21
740.83
 31
0.0
  0
LINE
  8
0
  6
CONTINUOUS
 62
     1
 10
392.202528837
 20
740.83
 30
0.0
 11
392.902528837
 21
742.042435565
 31
0.0
  0
LINE
  8
0
  6
CONTINUOUS
 62
     1
 10
392.902528837
 20
751.58
 30
0.0
 11
392.902528837
 21
742.042435565
 31
0.0
  0
LINE
  8
0
  6
CONTINUOUS
 62
     1
 10
380.902528837
 20
661.58
 30
0.0
 11
380.902528837
 21
650.63046
 31
0.0
  0
LINE
  8
0
  6
CONTINUOUS
 62
     1
 10
380.902528837
 20
661.58
 30
0.0
 11
380.902528837
 21
672.52954
 31
0.0
  0
LINE
  8
0
  6
CONTINUOUS
 62
     1
 10
377.902528837
 20
650.83
 30
0.0
 11
380.902528837
 21
650.83
 31
0.0
  0
LINE
  8
0
  6
CONTINUOUS
 62
     1
 10
377.902528837
 20
661.58
 30
0.0
 11
380.90278291
 21
658.579745927
 31
0.0
  0
LINE
  8
0
  6
CONTINUOUS
 62
     1
 10
380.90278291
 20
661.58
 30
0.0
 11
377.902528837
 21
664.580254073
 31
0.0
  0
LINE
  8
0
  6
CONTINUOUS
 62
     1
 10
377.902528837
 20
672.33
 30
0.0
 11
380.902528837
 21
672.33
 31
0.0
  0
LINE
  8
0
  6
CONTINUOUS
 62
     1
 10
380.902528837
 20
650.83
 30
0.0
 11
392.202528837
 21
650.83
 31
0.0
  0
LINE
  8
0
  6
CONTINUOUS
 62
     1
 10
392.202528837
 20
661.58
 30
0.0
 11
392.202528837
 21
650.83
 31
0.0
  0
LINE
  8
0
  6
CONTINUOUS
 62
     1
 10
392.202528837
 20
650.83
 30
0.0
 11
392.902528837
 21
652.042435565
 31
0.0
  0
LINE
  8
0
  6
CONTINUOUS
 62
     1
 10
392.902528837
 20
661.58
 30
0.0
 11
392.902528837
 21
652.042435565
 31
0.0
  0
LINE
  8
0
  6
CONTINUOUS
 62
     1
 10
380.902528837
 20
672.33
 30
0.0
 11
392.202528837
 21
672.33
 31
0.0
  0
LINE
  8
0
  6
CONTINUOUS
 62
     1
 10
392.202528837
 20
661.58
 30
0.0
 11
392.202528837
 21
672.33
 31
0.0
  0
LINE
  8
0
  6
CONTINUOUS
 62
     1
 10
392.202528837
 20
672.33
 30
0.0
 11
392.902528837
 21
671.117564435
 31
0.0
  0
LINE
  8
0
  6
CONTINUOUS
 62
     1
 10
392.902528837
 20
661.58
 30
0.0
 11
392.902528837
 21
671.117564435
 31
0.0
  0
POINT
  8
0
  6
CONTINUOUS
 62
     1
 10
362.902528837
 20
649.58
 30
0.0
  0
LINE
  8
0
  6
CONTINUOUS
 62
     1
 10
362.902528837
 20
649.58
 30
0.0
 11
362.902528837
 21
763.58
 31
0.0
  0
LINE
  8
0
  6
LTYPE2
 62
     2
 10
341.902528837
 20
751.58
 30
0.0
 11
394.902528837
 21
751.58
 31
0.0
  0
LINE
  8
0
  6
LTYPE2
 62
     2
 10
341.902528837
 20
661.58
 30
0.0
 11
394.902528837
 21
661.58
 31
0.0
  0
LINE
  8
0
  6
CONTINUOUS
 62
     1
 10
362.902528837
 20
761.78
 30
0.0
 11
362.902528837
 21
786.18
 31
0.0
  0
LINE
  8
0
  6
CONTINUOUS
 62
     1
 10
362.902528837
 20
786.18
 30
0.0
 11
362.902528837
 21
961.78
 31
0.0
  0
LINE
  8
0
  6
LTYPE2
 62
     2
 10
250.052528837
 20
811.58
 30
0.0
 11
248.502528837
 21
811.58
 31
0.0
  0
LINE
  8
2
  6
CONTINUOUS
 62
     2
 10
362.902528837
 20
966.88
 30
0.0
 11
362.902528837
 21
1132.28
 31
0.0
  0
LINE
  8
2
  6
CONTINUOUS
 62
     2
 10
362.902528837
 20
1122.28
 30
0.0
 11
374.976601666
 21
1119.044761936
 31
0.0
  0
LINE
  8
2
  6
CONTINUOUS
 62
     2
 10
362.902528837
 20
1122.28
 30
0.0
 11
374.976601666
 21
1125.515238064
 31
0.0
  0
LINE
  8
2
  6
CONTINUOUS
 62
     2
 10
362.902528837
 20
1122.28
 30
0.0
 11
732.902528837
 21
1122.28
 31
0.0
  0
LINE
  8
2
  6
CONTINUOUS
 62
     2
 10
732.902528837
 20
1122.28
 30
0.0
 11
720.828456008
 21
1125.515238064
 31
0.0
  0
LINE
  8
2
  6
CONTINUOUS
 62
     2
 10
732.902528837
 20
1122.28
 30
0.0
 11
720.828456008
 21
1119.044761936
 31
0.0
  0
LINE
  8
0
  6
CONTINUOUS
 62
     1
 10
362.902528837
 20
987.58
 30
0.0
 11
322.902528837
 21
987.58
 31
0.0
  0
ARC
  8
0
  6
CONTINUOUS
 62
     1
 10
344.902528837
 20
854.58
 30
0.0
 40
4.0
 50
270.0
 51
0.0
  0
LINE
  8
0
  6
CONTINUOUS
 62
     1
 10
322.902528837
 20
987.58
 30
0.0
 11
322.902528837
 21
950.58
 31
0.0
  0
ARC
  8
0
  6
CONTINUOUS
 62
     1
 10
319.902528837
 20
950.58
 30
0.0
 40
3.0
 50
270.0
 51
0.0
  0
ARC
  8
0
  6
CONTINUOUS
 62
     1
 10
345.902528837
 20
950.58
 30
0.0
 40
3.0
 50
270.0
 51
0.0
  0
LINE
  8
0
  6
CONTINUOUS
 62
     1
 10
348.902528837
 20
854.58
 30
0.0
 11
348.902528837
 21
987.58
 31
0.0
  0
LINE
  8
0
  6
CONTINUOUS
 62
     1
 10
267.902528837
 20
612.58
 30
0.0
 11
267.902528837
 21
947.58
 31
0.0
  0
LINE
  8
0
  6
CONTINUOUS
 62
     1
 10
267.902528837
 20
947.58
 30
0.0
 11
345.902528837
 21
947.58
 31
0.0
  0
CIRCLE
  8
0
  6
CONTINUOUS
 62
     1
 10
342.902528837
 20
1012.58
 30
0.0
 40
15.0
  0
LINE
  8
0
  6
CONTINUOUS
 62
     1
 10
354.3037978
 20
995.581530418
 30
0.0
 11
342.902528837
 21
997.58
 31
0.0
  0
LINE
  8
0
  6
CONTINUOUS
 62
     1
 10
342.902528837
 20
995.58
 30
0.0
 11
354.303984604
 21
995.58
 31
0.0
  0
ARC
  8
0
  6
CONTINUOUS
 62
     1
 10
342.902528837
 20
1012.58
 30
0.0
 40
25.0
 50
300.714883545
 51
0.0
  0
LINE
  8
0
  6
CONTINUOUS
 62
     1
 10
355.019623983
 20
989.717009489
 30
0.0
 11
354.303984604
 21
995.58
 31
0.0
  0
ARC
  8
0
  6
CONTINUOUS
 62
     1
 10
356.408151552
 20
989.89612566
 30
0.0
 40
1.4
 50
121.733468281
 51
187.57738995
  0
LINE
  8
0
  6
CONTINUOUS
 62
     1
 10
331.501259873
 20
995.581530418
 30
0.0
 11
342.902528837
 21
997.58
 31
0.0
  0
LINE
  8
0
  6
CONTINUOUS
 62
     1
 10
342.902528837
 20
995.58
 30
0.0
 11
331.50107307
 21
995.58
 31
0.0
  0
LINE
  8
0
  6
CONTINUOUS
 62
     1
 10
330.785433691
 20
989.717009489
 30
0.0
 11
331.50107307
 21
995.58
 31
0.0
  0
ARC
  8
0
  6
CONTINUOUS
 62
     1
 10
329.396906122
 20
989.89612566
 30
0.0
 40
1.4
 50
352.42261005
 51
58.266531719
  0
ARC
  8
0
  6
CONTINUOUS
 62
     1
 10
342.902528837
 20
1012.58
 30
0.0
 40
25.0
 50
0.0
 51
239.342761175
  0
LINE
  8
0
  6
CONTINUOUS
 62
     1
 10
355.280468367
 20
987.58
 30
0.0
 11
355.019623983
 21
989.717009489
 31
0.0
  0
LINE
  8
0
  6
CONTINUOUS
 62
     1
 10
330.524589307
 20
987.58
 30
0.0
 11
330.785433691
 21
989.717009489
 31
0.0
  0
LINE
  8
0
  6
CONTINUOUS
 62
     1
 10
250.902528837
 20
612.58
 30
0.0
 11
250.902528837
 21
860.58
 31
0.0
  0
LINE
  8
0
  6
CONTINUOUS
 62
     1
 10
344.902528837
 20
850.58
 30
0.0
 11
267.902528837
 21
850.58
 31
0.0
  0
LINE
  8
0
  6
CONTINUOUS
 62
     1
 10
267.902528837
 20
860.58
 30
0.0
 11
250.902528837
 21
860.58
 31
0.0
  0
LINE
  8
0
  6
CONTINUOUS
 62
     1
 10
250.902528837
 20
781.58
 30
0.0
 11
250.902528837
 21
770.63046
 31
0.0
  0
LINE
  8
0
  6
CONTINUOUS
 62
     1
 10
250.902528837
 20
781.58
 30
0.0
 11
250.902528837
 21
792.52954
 31
0.0
  0
LINE
  8
0
  6
CONTINUOUS
 62
     1
 10
242.881428837
 20
773.31198
 30
0.0
 11
244.429605131
 21
770.63046
 31
0.0
  0
LINE
  8
0
  6
CONTINUOUS
 62
     1
 10
242.881428837
 20
781.58
 30
0.0
 11
242.881428837
 21
773.31198
 31
0.0
  0
LINE
  8
0
  6
CONTINUOUS
 62
     1
 10
242.881428837
 20
789.84802
 30
0.0
 11
244.429605131
 21
792.52954
 31
0.0
  0
LINE
  8
0
  6
CONTINUOUS
 62
     1
 10
242.881428837
 20
781.58
 30
0.0
 11
242.881428837
 21
789.84802
 31
0.0
  0
ARC
  8
0
  6
CONTINUOUS
 62
     1
 10
253.335650529
 20
781.58
 30
0.0
 40
10.454221693
 50
148.419912243
 51
211.580087757
  0
ARC
  8
0
  6
CONTINUOUS
 62
     1
 10
246.074542443
 20
773.367845
 30
0.0
 40
3.193602261
 50
121.002313915
 51
182.989498403
  0
LINE
  8
0
  6
CONTINUOUS
 62
     1
 10
242.881428837
 20
789.84802
 30
0.0
 11
244.429605131
 21
792.52954
 31
0.0
  0
ARC
  8
0
  6
CONTINUOUS
 62
     1
 10
246.074542443
 20
789.792155
 30
0.0
 40
3.193602261
 50
177.010501597
 51
238.997686085
  0
LINE
  8
0
  6
CONTINUOUS
 62
     1
 10
250.902528837
 20
770.63046
 30
0.0
 11
244.429605131
 21
770.63046
 31
0.0
  0
LINE
  8
0
  6
CONTINUOUS
 62
     1
 10
250.902528837
 20
776.10523
 30
0.0
 11
244.429605131
 21
776.10523
 31
0.0
  0
LINE
  8
0
  6
CONTINUOUS
 62
     1
 10
250.902528837
 20
787.05477
 30
0.0
 11
244.429605131
 21
787.05477
 31
0.0
  0
LINE
  8
0
  6
CONTINUOUS
 62
     1
 10
250.902528837
 20
792.52954
 30
0.0
 11
244.429605131
 21
792.52954
 31
0.0
  0
LINE
  8
0
  6
CONTINUOUS
 62
     1
 10
250.902528837
 20
631.58
 30
0.0
 11
250.902528837
 21
642.52954
 31
0.0
  0
LINE
  8
0
  6
CONTINUOUS
 62
     1
 10
242.881428837
 20
639.84802
 30
0.0
 11
244.429605131
 21
642.52954
 31
0.0
  0
LINE
  8
0
  6
CONTINUOUS
 62
     1
 10
242.881428837
 20
631.58
 30
0.0
 11
242.881428837
 21
639.84802
 31
0.0
  0
ARC
  8
0
  6
CONTINUOUS
 62
     1
 10
253.335650529
 20
631.58
 30
0.0
 40
10.454221693
 50
148.419912243
 51
211.580087757
  0
LINE
  8
0
  6
CONTINUOUS
 62
     1
 10
242.881428837
 20
639.84802
 30
0.0
 11
244.429605131
 21
642.52954
 31
0.0
  0
ARC
  8
0
  6
CONTINUOUS
 62
     1
 10
246.074542443
 20
639.792155
 30
0.0
 40
3.193602261
 50
177.010501597
 51
238.997686085
  0
LINE
  8
0
  6
CONTINUOUS
 62
     1
 10
250.902528837
 20
637.05477
 30
0.0
 11
244.429605131
 21
637.05477
 31
0.0
  0
LINE
  8
0
  6
CONTINUOUS
 62
     1
 10
250.902528837
 20
642.52954
 30
0.0
 11
244.429605131
 21
642.52954
 31
0.0
  0
LINE
  8
0
  6
CONTINUOUS
 62
     1
 10
250.902528837
 20
849.58
 30
0.0
 11
250.902528837
 21
842.08594
 31
0.0
  0
LINE
  8
0
  6
CONTINUOUS
 62
     1
 10
250.902528837
 20
849.58
 30
0.0
 11
250.902528837
 21
857.07406
 31
0.0
  0
LINE
  8
0
  6
CONTINUOUS
 62
     1
 10
245.402628837
 20
843.92122
 30
0.0
 11
246.462228239
 21
842.08594
 31
0.0
  0
LINE
  8
0
  6
CONTINUOUS
 62
     1
 10
245.402628837
 20
849.58
 30
0.0
 11
245.402628837
 21
843.92122
 31
0.0
  0
LINE
  8
0
  6
CONTINUOUS
 62
     1
 10
245.402628837
 20
855.23878
 30
0.0
 11
246.462228239
 21
857.07406
 31
0.0
  0
LINE
  8
0
  6
CONTINUOUS
 62
     1
 10
245.402628837
 20
849.58
 30
0.0
 11
245.402628837
 21
855.23878
 31
0.0
  0
ARC
  8
0
  6
CONTINUOUS
 62
     1
 10
252.557684174
 20
849.58
 30
0.0
 40
7.155055337
 50
148.419912243
 51
211.580087757
  0
ARC
  8
0
  6
CONTINUOUS
 62
     1
 10
247.588052604
 20
843.959455
 30
0.0
 40
2.185758211
 50
121.002313915
 51
182.989498403
  0
LINE
  8
0
  6
CONTINUOUS
 62
     1
 10
245.402628837
 20
855.23878
 30
0.0
 11
246.462228239
 21
857.07406
 31
0.0
  0
ARC
  8
0
  6
CONTINUOUS
 62
     1
 10
247.588052604
 20
855.200545
 30
0.0
 40
2.185758211
 50
177.010501597
 51
238.997686085
  0
LINE
  8
0
  6
CONTINUOUS
 62
     1
 10
250.902528837
 20
842.08594
 30
0.0
 11
246.462228239
 21
842.08594
 31
0.0
  0
LINE
  8
0
  6
CONTINUOUS
 62
     1
 10
250.902528837
 20
845.83297
 30
0.0
 11
246.462228239
 21
845.83297
 31
0.0
  0
LINE
  8
0
  6
CONTINUOUS
 62
     1
 10
250.902528837
 20
853.32703
 30
0.0
 11
246.462228239
 21
853.32703
 31
0.0
  0
LINE
  8
0
  6
CONTINUOUS
 62
     1
 10
250.902528837
 20
857.07406
 30
0.0
 11
246.462228239
 21
857.07406
 31
0.0
  0
LINE
  8
0
  6
LTYPE2
 62
     2
 10
309.977528837
 20
1012.58
 30
0.0
 11
374.977528837
 21
1012.58
 31
0.0
  0
LINE
  8
0
  6
LTYPE2
 62
     2
 10
342.902528837
 20
965.58
 30
0.0
 11
342.902528837
 21
1045.28
 31
0.0
  0
LINE
  8
0
  6
LTYPE2
 62
     2
 10
237.902528837
 20
781.58
 30
0.0
 11
286.002528837
 21
781.58
 31
0.0
  0
LINE
  8
0
  6
LTYPE2
 62
     2
 10
239.802528837
 20
849.58
 30
0.0
 11
264.402528837
 21
849.58
 31
0.0
  0
LINE
  8
0
  6
CONTINUOUS
 62
     1
 10
374.902528837
 20
964.55572809
 30
0.0
 11
427.574664792
 21
964.55572809
 31
0.0
  0
LINE
  8
0
  6
CONTINUOUS
 62
     1
 10
374.902528837
 20
799.20427191
 30
0.0
 11
427.574664792
 21
799.20427191
 31
0.0
  0
LINE
  8
0
  6
CONTINUOUS
 62
     1
 10
377.402528837
 20
940.216
 30
0.0
 11
377.402528837
 21
950.016
 31
0.0
  0
LINE
  8
0
  6
CONTINUOUS
 62
     1
 10
377.402528837
 20
950.016
 30
0.0
 11
383.016888191
 21
950.016
 31
0.0
  0
LINE
  8
0
  6
CONTINUOUS
 62
     1
 10
384.402528837
 20
947.616
 30
0.0
 11
383.016888191
 21
950.016
 31
0.0
  0
LINE
  8
0
  6
CONTINUOUS
 62
     1
 10
384.402528837
 20
940.216
 30
0.0
 11
384.402528837
 21
947.616
 31
0.0
  0
LINE
  8
0
  6
CONTINUOUS
 62
     1
 10
377.402528837
 20
945.116
 30
0.0
 11
383.016888191
 21
945.116
 31
0.0
  0
LINE
  8
0
  6
CONTINUOUS
 62
     1
 10
377.402528837
 20
940.216
 30
0.0
 11
377.402528837
 21
930.416
 31
0.0
  0
LINE
  8
0
  6
CONTINUOUS
 62
     1
 10
377.402528837
 20
930.416
 30
0.0
 11
383.016888191
 21
930.416
 31
0.0
  0
LINE
  8
0
  6
CONTINUOUS
 62
     1
 10
384.402528837
 20
932.816
 30
0.0
 11
383.016888191
 21
930.416
 31
0.0
  0
LINE
  8
0
  6
CONTINUOUS
 62
     1
 10
384.402528837
 20
940.216
 30
0.0
 11
384.402528837
 21
932.816
 31
0.0
  0
LINE
  8
0
  6
CONTINUOUS
 62
     1
 10
377.402528837
 20
935.316
 30
0.0
 11
383.016888191
 21
935.316
 31
0.0
  0
ARC
  8
0
  6
CONTINUOUS
 62
     1
 10
375.045846037
 20
940.216
 30
0.0
 40
9.3566828
 50
328.419912243
 51
31.580087757
  0
ARC
  8
0
  6
CONTINUOUS
 62
     1
 10
381.544645004
 20
947.566
 30
0.0
 40
2.858321186
 50
301.002313915
 51
2.989498403
  0
LINE
  8
0
  6
CONTINUOUS
 62
     1
 10
384.402528837
 20
932.816
 30
0.0
 11
383.016888191
 21
930.416
 31
0.0
  0
ARC
  8
0
  6
CONTINUOUS
 62
     1
 10
381.544645004
 20
932.866
 30
0.0
 40
2.858321186
 50
357.010501597
 51
58.997686085
  0
LINE
  8
0
  6
CONTINUOUS
 62
     1
 10
374.902528837
 20
949.416
 30
0.0
 11
377.402528837
 21
949.416
 31
0.0
  0
LINE
  8
0
  6
CONTINUOUS
 62
     1
 10
374.902528837
 20
940.216
 30
0.0
 11
377.402528833
 21
942.715999996
 31
0.0
  0
LINE
  8
0
  6
CONTINUOUS
 62
     1
 10
377.402528833
 20
940.216
 30
0.0
 11
374.902528837
 21
937.716000004
 31
0.0
  0
LINE
  8
0
  6
CONTINUOUS
 62
     1
 10
374.902528837
 20
931.016
 30
0.0
 11
377.402528837
 21
931.016
 31
0.0
  0
LINE
  8
0
  6
CONTINUOUS
 62
     1
 10
377.402528837
 20
823.544
 30
0.0
 11
377.402528837
 21
813.744
 31
0.0
  0
LINE
  8
0
  6
CONTINUOUS
 62
     1
 10
377.402528837
 20
813.744
 30
0.0
 11
383.016888191
 21
813.744
 31
0.0
  0
LINE
  8
0
  6
CONTINUOUS
 62
     1
 10
384.402528837
 20
816.144
 30
0.0
 11
383.016888191
 21
813.744
 31
0.0
  0
LINE
  8
0
  6
CONTINUOUS
 62
     1
 10
384.402528837
 20
823.544
 30
0.0
 11
384.402528837
 21
816.144
 31
0.0
  0
LINE
  8
0
  6
CONTINUOUS
 62
     1
 10
377.402528837
 20
818.644
 30
0.0
 11
383.016888191
 21
818.644
 31
0.0
  0
LINE
  8
0
  6
CONTINUOUS
 62
     1
 10
377.402528837
 20
823.544
 30
0.0
 11
377.402528837
 21
833.344
 31
0.0
  0
LINE
  8
0
  6
CONTINUOUS
 62
     1
 10
377.402528837
 20
833.344
 30
0.0
 11
383.016888191
 21
833.344
 31
0.0
  0
LINE
  8
0
  6
CONTINUOUS
 62
     1
 10
384.402528837
 20
830.944
 30
0.0
 11
383.016888191
 21
833.344
 31
0.0
  0
LINE
  8
0
  6
CONTINUOUS
 62
     1
 10
384.402528837
 20
823.544
 30
0.0
 11
384.402528837
 21
830.944
 31
0.0
  0
LINE
  8
0
  6
CONTINUOUS
 62
     1
 10
377.402528837
 20
828.444
 30
0.0
 11
383.016888191
 21
828.444
 31
0.0
  0
ARC
  8
0
  6
CONTINUOUS
 62
     1
 10
375.045846037
 20
823.544
 30
0.0
 40
9.3566828
 50
328.419912243
 51
31.580087757
  0
ARC
  8
0
  6
CONTINUOUS
 62
     1
 10
381.544645004
 20
816.194
 30
0.0
 40
2.858321186
 50
357.010501597
 51
58.997686085
  0
LINE
  8
0
  6
CONTINUOUS
 62
     1
 10
384.402528837
 20
830.944
 30
0.0
 11
383.016888191
 21
833.344
 31
0.0
  0
ARC
  8
0
  6
CONTINUOUS
 62
     1
 10
381.544645004
 20
830.894
 30
0.0
 40
2.858321186
 50
301.002313915
 51
2.989498403
  0
LINE
  8
0
  6
CONTINUOUS
 62
     1
 10
374.902528837
 20
814.344
 30
0.0
 11
377.402528837
 21
814.344
 31
0.0
  0
LINE
  8
0
  6
CONTINUOUS
 62
     1
 10
374.902528837
 20
823.544
 30
0.0
 11
377.402528833
 21
821.044000004
 31
0.0
  0
LINE
  8
0
  6
CONTINUOUS
 62
     1
 10
377.402528833
 20
823.544
 30
0.0
 11
374.902528837
 21
826.043999996
 31
0.0
  0
LINE
  8
0
  6
CONTINUOUS
 62
     1
 10
374.902528837
 20
832.744
 30
0.0
 11
377.402528837
 21
832.744
 31
0.0
  0
LINE
  8
0
  6
CONTINUOUS
 62
     1
 10
584.902528837
 20
941.88
 30
0.0
 11
437.902528837
 21
941.88
 31
0.0
  0
LINE
  8
0
  6
CONTINUOUS
 62
     1
 10
584.902528837
 20
921.88
 30
0.0
 11
437.902528837
 21
921.88
 31
0.0
  0
LINE
  8
0
  6
CONTINUOUS
 62
     1
 10
584.902528837
 20
901.88
 30
0.0
 11
437.902528837
 21
901.88
 31
0.0
  0
LINE
  8
0
  6
CONTINUOUS
 62
     1
 10
584.902528837
 20
861.88
 30
0.0
 11
437.902528837
 21
861.88
 31
0.0
  0
LINE
  8
0
  6
CONTINUOUS
 62
     1
 10
584.902528837
 20
841.88
 30
0.0
 11
437.902528837
 21
841.88
 31
0.0
  0
LINE
  8
0
  6
CONTINUOUS
 62
     1
 10
584.902528837
 20
821.88
 30
0.0
 11
437.902528837
 21
821.88
 31
0.0
  0
LINE
  8
0
  6
CONTINUOUS
 62
     1
 10
584.902528837
 20
801.88
 30
0.0
 11
437.902528837
 21
801.88
 31
0.0
  0
LINE
  8
0
  6
CONTINUOUS
 62
     1
 10
374.902528837
 20
781.88
 30
0.0
 11
374.902528837
 21
981.88
 31
0.0
  0
LINE
  8
0
  6
CONTINUOUS
 62
     1
 10
719.644046111
 20
897.828101266
 30
0.0
 11
719.644046111
 21
828.828101266
 31
0.0
  0
POINT
  8
0
  6
CONTINUOUS
 62
     1
 10
719.644046111
 20
828.828101266
 30
0.0
  0
LINE
  8
0
  6
CONTINUOUS
 62
     1
 10
719.644046111
 20
828.828101266
 30
0.0
 11
724.644046111
 21
828.828101266
 31
0.0
  0
POINT
  8
0
  6
CONTINUOUS
 62
     1
 10
724.644046111
 20
828.828101266
 30
0.0
  0
LINE
  8
0
  6
CONTINUOUS
 62
     1
 10
724.644046111
 20
828.828101266
 30
0.0
 11
724.644046111
 21
897.828101266
 31
0.0
  0
LINE
  8
0
  6
CONTINUOUS
 62
     1
 10
719.644046111
 20
897.828101266
 30
0.0
 11
729.444046111
 21
897.828101266
 31
0.0
  0
LINE
  8
0
  6
CONTINUOUS
 62
     1
 10
729.444046111
 20
865.931898734
 30
0.0
 11
729.444046111
 21
897.828101266
 31
0.0
  0
LINE
  8
0
  6
CONTINUOUS
 62
     1
 10
724.644046111
 20
865.931898734
 30
0.0
 11
729.444046111
 21
865.931898734
 31
0.0
  0
LINE
  8
0
  6
CONTINUOUS
 62
     1
 10
719.644046111
 20
886.08
 30
0.0
 11
712.944046111
 21
886.08
 31
0.0
  0
LINE
  8
0
  6
CONTINUOUS
 62
     1
 10
719.644046111
 20
877.68
 30
0.0
 11
712.944046111
 21
877.68
 31
0.0
  0
LINE
  8
0
  6
CONTINUOUS
 62
     1
 10
724.644046111
 20
841.63
 30
0.0
 11
730.044046111
 21
841.63
 31
0.0
  0
POINT
  8
0
  6
CONTINUOUS
 62
     1
 10
730.044046111
 20
841.63
 30
0.0
  0
LINE
  8
0
  6
CONTINUOUS
 62
     1
 10
730.044046111
 20
841.63
 30
0.0
 11
730.044046111
 21
832.83
 31
0.0
  0
POINT
  8
0
  6
CONTINUOUS
 62
     1
 10
730.044046111
 20
832.83
 30
0.0
  0
LINE
  8
0
  6
CONTINUOUS
 62
     1
 10
730.044046111
 20
832.83
 30
0.0
 11
724.744046111
 21
832.83
 31
0.0
  0
LINE
  8
0
  6
CONTINUOUS
 62
     1
 10
719.644046111
 20
838.83
 30
0.0
 11
710.744046111
 21
838.83
 31
0.0
  0
LINE
  8
0
  6
CONTINUOUS
 62
     1
 10
719.644046111
 20
835.73
 30
0.0
 11
710.444046111
 21
835.73
 31
0.0
  0
LINE
  8
0
  6
CONTINUOUS
 62
     1
 10
729.444046111
 20
895.28
 30
0.0
 11
732.902528837
 21
895.28
 31
0.0
  0
LINE
  8
0
  6
CONTINUOUS
 62
     1
 10
732.902528837
 20
895.28
 30
0.0
 11
732.902528837
 21
890.68
 31
0.0
  0
LINE
  8
0
  6
CONTINUOUS
 62
     1
 10
729.444046111
 20
890.68
 30
0.0
 11
732.902528837
 21
890.68
 31
0.0
  0
LINE
  8
0
  6
CONTINUOUS
 62
     1
 10
729.444046111
 20
868.48
 30
0.0
 11
732.902528837
 21
868.48
 31
0.0
  0
LINE
  8
0
  6
CONTINUOUS
 62
     1
 10
732.902528837
 20
868.48
 30
0.0
 11
732.902528837
 21
873.08
 31
0.0
  0
LINE
  8
0
  6
CONTINUOUS
 62
     1
 10
729.444046111
 20
873.08
 30
0.0
 11
732.902528837
 21
873.08
 31
0.0
  0
LINE
  8
0
  6
CONTINUOUS
 62
     1
 10
729.444046111
 20
879.58
 30
0.0
 11
732.902528837
 21
879.58
 31
0.0
  0
LINE
  8
0
  6
CONTINUOUS
 62
     1
 10
732.902528837
 20
879.58
 30
0.0
 11
732.902528837
 21
884.18
 31
0.0
  0
LINE
  8
0
  6
CONTINUOUS
 62
     1
 10
729.444046111
 20
884.18
 30
0.0
 11
732.902528837
 21
884.18
 31
0.0
  0
LINE
  8
0
  6
LTYPE3
 62
     2
 10
705.744046111
 20
837.33
 30
0.0
 11
735.744046111
 21
837.33
 31
0.0
  0
LINE
  8
0
  6
CONTINUOUS
 62
     1
 10
584.902528837
 20
961.88
 30
0.0
 11
437.902528837
 21
961.88
 31
0.0
  0
LINE
  8
0
  6
CONTINUOUS
 62
     1
 10
601.402528837
 20
994.88
 30
0.0
 11
601.402528837
 21
1034.88
 31
0.0
  0
LINE
  8
0
  6
CONTINUOUS
 62
     1
 10
582.402528837
 20
1069.88
 30
0.0
 11
434.402528837
 21
995.88
 31
0.0
  0
LINE
  8
0
  6
CONTINUOUS
 62
     1
 10
586.874664792
 20
1060.93572809
 30
0.0
 11
438.874664792
 21
986.93572809
 31
0.0
  0
ARC
  8
0
  6
CONTINUOUS
 62
     1
 10
556.402528837
 20
993.88
 30
0.0
 40
10.0
 50
270.0
 51
0.0
  0
ARC
  8
0
  6
CONTINUOUS
 62
     1
 10
556.402528837
 20
1059.88
 30
0.0
 40
10.0
 50
0.0
 51
90.0
  0
LINE
  8
0
  6
CONTINUOUS
 62
     1
 10
556.402528837
 20
1069.88
 30
0.0
 11
466.402528837
 21
1069.88
 31
0.0
  0
ARC
  8
0
  6
CONTINUOUS
 62
     1
 10
466.402528837
 20
1059.88
 30
0.0
 40
10.0
 50
90.0
 51
180.0
  0
LINE
  8
0
  6
CONTINUOUS
 62
     1
 10
556.402528837
 20
983.88
 30
0.0
 11
466.402528837
 21
983.88
 31
0.0
  0
ARC
  8
0
  6
CONTINUOUS
 62
     1
 10
466.402528837
 20
993.88
 30
0.0
 40
10.0
 50
180.0
 51
270.0
  0
LINE
  8
0
  6
CONTINUOUS
 62
     1
 10
434.402528837
 20
995.88
 30
0.0
 11
438.874664792
 21
986.93572809
 31
0.0
  0
LINE
  8
0
  6
CONTINUOUS
 62
     1
 10
456.402528837
 20
1006.79572809
 30
0.0
 11
456.402528837
 21
1059.88
 31
0.0
  0
LINE
  8
0
  6
CONTINUOUS
 62
     1
 10
456.402528837
 20
993.88
 30
0.0
 11
456.402528837
 21
995.79572809
 31
0.0
  0
LINE
  8
0
  6
CONTINUOUS
 62
     1
 10
566.402528837
 20
993.88
 30
0.0
 11
566.402528837
 21
1049.79572809
 31
0.0
  0
LINE
  8
0
  6
CONTINUOUS
 62
     1
 10
582.614664792
 20
1070.67572809
 30
0.0
 11
587.414664792
 21
1061.47572809
 31
0.0
  0
LINE
  8
0
  6
CONTINUOUS
 62
     1
 10
601.402528837
 20
1034.88
 30
0.0
 11
566.402528837
 21
1034.88
 31
0.0
  0
LINE
  8
0
  6
CONTINUOUS
 62
     1
 10
601.402528837
 20
994.88
 30
0.0
 11
566.402528837
 21
994.88
 31
0.0
  0
LINE
  8
0
  6
LTYPE3
 62
     2
 10
607.554664792
 20
1014.88
 30
0.0
 11
556.454664792
 21
1014.88
 31
0.0
  0
LINE
  8
0
  6
LTYPE3
 62
     2
 10
511.402528837
 20
970.63
 30
0.0
 11
511.402528837
 21
1079.68
 31
0.0
  0
LINE
  8
0
  6
CONTINUOUS
 62
     1
 10
594.902528837
 20
981.88
 30
0.0
 11
690.71691743
 21
981.88
 31
0.0
  0
ARC
  8
0
  6
CONTINUOUS
 62
     1
 10
688.71691743
 20
966.88
 30
0.0
 40
15.0
 50
10.945397096
 51
90.0
  0
ARC
  8
0
  6
CONTINUOUS
 62
     1
 10
688.826042754
 20
969.573940371
 30
0.0
 40
15.0
 50
10.945397096
 51
90.0
  0
LINE
  8
0
  6
CONTINUOUS
 62
     1
 10
594.902528837
 20
984.38
 30
0.0
 11
690.71691743
 21
984.38
 31
0.0
  0
ARC
  8
0
  6
CONTINUOUS
 62
     1
 10
688.71691743
 20
796.88
 30
0.0
 40
15.0
 50
270.0
 51
349.054602904
  0
ARC
  8
0
  6
CONTINUOUS
 62
     1
 10
302.902528837
 20
881.88
 30
0.0
 40
410.0
 50
347.629566941
 51
12.370433059
  0
LINE
  8
0
  6
CONTINUOUS
 62
     1
 10
594.902528837
 20
972.58
 30
0.0
 11
427.902528837
 21
972.58
 31
0.0
  0
LINE
  8
0
  6
CONTINUOUS
 62
     1
 10
427.902528837
 20
791.18
 30
0.0
 11
427.902528837
 21
972.58
 31
0.0
  0
LINE
  8
0
  6
CONTINUOUS
 62
     1
 10
546.302528837
 20
983.88
 30
0.0
 11
546.302528837
 21
972.58
 31
0.0
  0
LINE
  8
0
  6
CONTINUOUS
 62
     1
 10
476.502528837
 20
983.88
 30
0.0
 11
476.502528837
 21
972.58
 31
0.0
  0
ARC
  8
0
  6
CONTINUOUS
 62
     1
 10
702.7775093
 20
891.88
 30
0.0
 40
10.0
 50
1.432543738
 51
90.0
  0
ARC
  8
0
  6
CONTINUOUS
 62
     1
 10
702.7775093
 20
871.88
 30
0.0
 40
10.0
 50
270.0
 51
358.567456262
  0
LINE
  8
0
  6
CONTINUOUS
 62
     1
 10
702.777527988
 20
901.88
 30
0.0
 11
594.902528837
 21
901.88
 31
0.0
  0
LINE
  8
0
  6
CONTINUOUS
 62
     1
 10
594.902528837
 20
861.88
 30
0.0
 11
703.277527988
 21
861.88
 31
0.0
  0
LINE
  8
0
  6
CONTINUOUS
 62
     1
 10
594.902528837
 20
791.18
 30
0.0
 11
427.902528837
 21
791.18
 31
0.0
  0
ARC
  8
0
  6
CONTINUOUS
 62
     1
 10
688.826042754
 20
794.186059629
 30
0.0
 40
15.0
 50
270.0
 51
349.054602904
  0
LINE
  8
0
  6
CONTINUOUS
 62
     1
 10
594.902528837
 20
781.88
 30
0.0
 11
690.71691743
 21
781.88
 31
0.0
  0
LINE
  8
0
  6
CONTINUOUS
 62
     1
 10
594.902528837
 20
779.38
 30
0.0
 11
690.71691743
 21
779.38
 31
0.0
  0
LINE
  8
0
  6
CONTINUOUS
 62
     1
 10
594.902528837
 20
779.38
 30
0.0
 11
594.902528837
 21
984.38
 31
0.0
  0
LINE
  8
2
  6
CONTINUOUS
 62
     2
 10
602.402528837
 20
1021.28
 30
0.0
 11
611.149181719
 21
1039.265996313
 31
0.0
  0
LINE
  8
2
  6
CONTINUOUS
 62
     2
 10
602.402528837
 20
1021.28
 30
0.0
 11
600.984354274
 21
1041.22965616
 31
0.0
  0
LINE
  8
2
  6
CONTINUOUS
 62
     2
 10
602.402528837
 20
1021.28
 30
0.0
 11
610.902528837
 21
1065.28
 31
0.0
  0
LINE
  8
2
  6
CONTINUOUS
 62
     2
 10
610.902528837
 20
1065.28
 30
0.0
 11
728.502528837
 21
1065.28
 31
0.0
  0
LINE
  8
0
  6
LTYPE3
 62
     2
 10
367.402528837
 20
940.216
 30
0.0
 11
393.016888191
 21
940.216
 31
0.0
  0
LINE
  8
0
  6
LTYPE3
 62
     2
 10
367.402528837
 20
823.544
 30
0.0
 11
393.016888191
 21
823.544
 31
0.0
  0
LINE
  8
2
  6
CONTINUOUS
 62
     2
 10
732.902528837
 20
900.28
 30
0.0
 11
732.902528837
 21
1101.72
 31
0.0
  0
LINE
  8
0
  6
CONTINUOUS
 62
     1
 10
374.902528837
 20
781.88
 30
0.0
 11
362.902528837
 21
781.88
 31
0.0
  0
LINE
  8
0
  6
CONTINUOUS
 62
     1
 10
374.902528837
 20
981.88
 30
0.0
 11
362.902528837
 21
981.88
 31
0.0
  0
LINE
  8
0
  6
CONTINUOUS
 62
     1
 10
362.902528837
 20
786.18
 30
0.0
 11
362.902528837
 21
987.58
 31
0.0
  0
LINE
  8
0
  6
CONTINUOUS
 62
     1
 10
362.902528837
 20
612.58
 30
0.0
 11
362.902528837
 21
786.18
 31
0.0
  0
LINE
  8
2
  6
CONTINUOUS
 62
     2
 10
362.902528837
 20
1107.78
 30
0.0
 11
362.902528837
 21
1132.28
 31
0.0
  0
CIRCLE
  8
0
  6
CONTINUOUS
 62
     1
 10
447.902528837
 20
706.58
 30
0.0
 40
12.5
  0
CIRCLE
  8
0
  6
CONTINUOUS
 62
     1
 10
447.902528837
 20
706.58
 30
0.0
 40
23.0
  0
CIRCLE
  8
0
  6
CONTINUOUS
 62
     1
 10
447.902528837
 20
706.58
 30
0.0
 40
27.5
  0
LINE
  8
0
  6
CONTINUOUS
 62
     1
 10
485.902528837
 20
640.58
 30
0.0
 11
559.902528837
 21
640.58
 31
0.0
  0
LINE
  8
0
  6
CONTINUOUS
 62
     1
 10
567.902528837
 20
646.58
 30
0.0
 11
567.902528837
 21
766.58
 31
0.0
  0
LINE
  8
0
  6
CONTINUOUS
 62
     1
 10
377.902528837
 20
766.58
 30
0.0
 11
567.902528837
 21
766.58
 31
0.0
  0
LINE
  8
0
  6
CONTINUOUS
 62
     1
 10
559.902528837
 20
646.58
 30
0.0
 11
567.902528837
 21
646.58
 31
0.0
  0
LINE
  8
0
  6
CONTINUOUS
 62
     1
 10
377.902528837
 20
646.58
 30
0.0
 11
485.902528837
 21
646.58
 31
0.0
  0
LINE
  8
0
  6
CONTINUOUS
 62
     1
 10
568.902528837
 20
639.08
 30
0.0
 11
568.902528837
 21
638.08
 31
0.0
  0
ARC
  8
0
  6
CONTINUOUS
 62
     1
 10
481.902528837
 20
636.08
 30
0.0
 40
3.0
 50
90.0
 51
180.0
  0
LINE
  8
0
  6
CONTINUOUS
 62
     1
 10
568.902528837
 20
638.08
 30
0.0
 11
604.902528837
 21
638.08
 31
0.0
  0
ARC
  8
0
  6
CONTINUOUS
 62
     1
 10
604.902528837
 20
635.08
 30
0.0
 40
3.0
 50
0.0
 51
90.0
  0
LINE
  8
0
  6
CONTINUOUS
 62
     1
 10
481.902528837
 20
639.08
 30
0.0
 11
568.902528837
 21
639.08
 31
0.0
  0
LINE
  8
0
  6
CONTINUOUS
 62
     1
 10
485.902528837
 20
639.08
 30
0.0
 11
485.902528837
 21
681.08
 31
0.0
  0
LINE
  8
0
  6
CONTINUOUS
 62
     1
 10
559.902528837
 20
639.08
 30
0.0
 11
559.902528837
 21
681.08
 31
0.0
  0
LINE
  8
0
  6
CONTINUOUS
 62
     1
 10
567.902528837
 20
764.58
 30
0.0
 11
576.902528837
 21
764.58
 31
0.0
  0
LINE
  8
0
  6
CONTINUOUS
 62
     1
 10
567.902528837
 20
767.58
 30
0.0
 11
576.902528837
 21
767.58
 31
0.0
  0
LINE
  8
0
  6
CONTINUOUS
 62
     1
 10
567.902528837
 20
711.58
 30
0.0
 11
576.902528837
 21
711.58
 31
0.0
  0
LINE
  8
0
  6
CONTINUOUS
 62
     1
 10
567.902528837
 20
701.58
 30
0.0
 11
576.902528837
 21
701.58
 31
0.0
  0
LINE
  8
0
  6
CONTINUOUS
 62
     1
 10
567.902528837
 20
648.58
 30
0.0
 11
576.902528837
 21
648.58
 31
0.0
  0
LINE
  8
0
  6
CONTINUOUS
 62
     1
 10
567.902528837
 20
645.58
 30
0.0
 11
576.902528837
 21
645.58
 31
0.0
  0
LINE
  8
0
  6
CONTINUOUS
 62
     1
 10
576.902528837
 20
646.58
 30
0.0
 11
576.902528837
 21
766.58
 31
0.0
  0
CIRCLE
  8
0
  6
CONTINUOUS
 62
     1
 10
720.727536741
 20
706.58
 30
0.0
 40
19.5
  0
LINE
  8
0
  6
CONTINUOUS
 62
     1
 10
700.727536741
 20
726.58
 30
0.0
 11
740.727536741
 21
726.58
 31
0.0
  0
LINE
  8
0
  6
CONTINUOUS
 62
     1
 10
740.727536741
 20
686.58
 30
0.0
 11
740.727536741
 21
726.58
 31
0.0
  0
LINE
  8
0
  6
CONTINUOUS
 62
     1
 10
700.727536741
 20
686.58
 30
0.0
 11
740.727536741
 21
686.58
 31
0.0
  0
LINE
  8
0
  6
CONTINUOUS
 62
     1
 10
700.727536741
 20
686.58
 30
0.0
 11
700.727536741
 21
726.58
 31
0.0
  0
LINE
  8
0
  6
LTYPE2
 62
     2
 10
447.902528837
 20
663.58
 30
0.0
 11
447.902528837
 21
753.58
 31
0.0
  0
LINE
  8
0
  6
LTYPE2
 62
     2
 10
522.902528837
 20
625.08
 30
0.0
 11
522.902528837
 21
651.58
 31
0.0
  0
LINE
  8
0
  6
LTYPE2
 62
     2
 10
720.727536741
 20
681.48
 30
0.0
 11
720.727536741
 21
731.38
 31
0.0
  0
LINE
  8
0
  6
LTYPE2
 62
     3
 10
522.902528837
 20
627.38
 30
0.0
 11
522.902528837
 21
642.23
 31
0.0
  0
LINE
  8
0
  6
CONTINUOUS
 62
     1
 10
362.902528837
 20
773.58
 30
0.0
 11
377.902528837
 21
773.58
 31
0.0
  0
LINE
  8
0
  6
CONTINUOUS
 62
     1
 10
377.902528837
 20
639.58
 30
0.0
 11
377.902528837
 21
773.58
 31
0.0
  0
LINE
  8
0
  6
CONTINUOUS
 62
     1
 10
362.902528837
 20
639.58
 30
0.0
 11
377.902528837
 21
639.58
 31
0.0
  0
LINE
  8
2
  6
CONTINUOUS
 62
     2
 10
447.902528837
 20
661.13
 30
0.0
 11
447.902528837
 21
415.74
 31
0.0
  0
LINE
  8
2
  6
CONTINUOUS
 62
     2
 10
688.421755276
 20
779.38
 30
0.0
 11
778.421755276
 21
779.38
 31
0.0
  0
LINE
  8
2
  6
CONTINUOUS
 62
     2
 10
689.421755276
 20
984.38
 30
0.0
 11
778.421755276
 21
984.38
 31
0.0
  0
TEXT
  8
2
  6
CONTINUOUS
 62
     3
 10
763.421755276
 20
847.63
 30
1.5
 40
17.5
  1
φ２０５
 50
90.0
 41
0.914285714
 51
0.0
  7
KANJI51
  0
LINE
  8
2
  6
CONTINUOUS
 62
     2
 10
725.902528837
 20
718.08
 30
0.0
 11
737.002183205
 21
723.828710544
 31
0.0
  0
LINE
  8
2
  6
CONTINUOUS
 62
     2
 10
725.902528837
 20
718.08
 30
0.0
 11
732.640756221
 21
728.608356554
 31
0.0
  0
LINE
  8
2
  6
CONTINUOUS
 62
     2
 10
725.902528837
 20
718.08
 30
0.0
 11
805.902528837
 21
791.08
 31
0.0
  0
LINE
  8
0
  6
CONTINUOUS
 62
     1
 10
250.902528837
 20
631.58
 30
0.0
 11
250.902528837
 21
620.63046
 31
0.0
  0
LINE
  8
0
  6
CONTINUOUS
 62
     1
 10
242.881428837
 20
623.31198
 30
0.0
 11
244.429605131
 21
620.63046
 31
0.0
  0
LINE
  8
0
  6
CONTINUOUS
 62
     1
 10
242.881428837
 20
631.58
 30
0.0
 11
242.881428837
 21
623.31198
 31
0.0
  0
ARC
  8
0
  6
CONTINUOUS
 62
     1
 10
246.074542443
 20
623.367845
 30
0.0
 40
3.193602261
 50
121.002313915
 51
182.989498403
  0
LINE
  8
0
  6
CONTINUOUS
 62
     1
 10
250.902528837
 20
620.63046
 30
0.0
 11
244.429605131
 21
620.63046
 31
0.0
  0
LINE
  8
0
  6
CONTINUOUS
 62
     1
 10
250.902528837
 20
626.10523
 30
0.0
 11
244.429605131
 21
626.10523
 31
0.0
  0
LINE
  8
0
  6
LTYPE2
 62
     2
 10
237.302528837
 20
631.58
 30
0.0
 11
286.002528837
 21
631.58
 31
0.0
  0
LINE
  8
0
  6
CONTINUOUS
 62
     1
 10
362.902528837
 20
612.58
 30
0.0
 11
250.902528837
 21
612.58
 31
0.0
  0
LINE
  8
0
  6
CONTINUOUS
 62
     1
 10
993.402528837
 20
681.58
 30
0.0
 11
1060.402528837
 21
681.58
 31
0.0
  0
ARC
  8
0
  6
CONTINUOUS
 62
     1
 10
1060.402528837
 20
689.58
 30
0.0
 40
8.0
 50
270.0
 51
0.0
  0
LINE
  8
0
  6
CONTINUOUS
 62
     1
 10
1068.402528837
 20
689.58
 30
0.0
 11
1068.402528837
 21
723.58
 31
0.0
  0
ARC
  8
0
  6
CONTINUOUS
 62
     1
 10
1060.402528837
 20
723.58
 30
0.0
 40
8.0
 50
0.0
 51
90.0
  0
CIRCLE
  8
0
  6
CONTINUOUS
 62
     1
 10
1043.402528837
 20
706.58
 30
0.0
 40
12.5
  0
CIRCLE
  8
0
  6
CONTINUOUS
 62
     1
 10
1043.402528837
 20
706.58
 30
0.0
 40
22.0
  0
CIRCLE
  8
0
  6
CONTINUOUS
 62
     1
 10
1043.402528837
 20
722.08
 30
0.0
 40
3.0
  0
LINE
  8
0
  6
CONTINUOUS
 62
     1
 10
1039.202528837
 20
689.78
 30
0.0
 11
1041.202528837
 21
689.48
 31
0.0
  0
LINE
  8
0
  6
CONTINUOUS
 62
     1
 10
1041.702528837
 20
694.18
 30
0.0
 11
1041.467144222
 21
692.610769231
 31
0.0
  0
LINE
  8
0
  6
CONTINUOUS
 62
     1
 10
1041.467144222
 20
692.610769231
 30
0.0
 11
1039.202528837
 21
689.78
 31
0.0
  0
LINE
  8
0
  6
CONTINUOUS
 62
     1
 10
1043.402528837
 20
692.18
 30
0.0
 11
1041.202528837
 21
689.48
 31
0.0
  0
LINE
  8
0
  6
CONTINUOUS
 62
     1
 10
1047.602528837
 20
689.78
 30
0.0
 11
1045.602528837
 21
689.48
 31
0.0
  0
LINE
  8
0
  6
CONTINUOUS
 62
     1
 10
1045.102528837
 20
694.18
 30
0.0
 11
1045.337913452
 21
692.610769231
 31
0.0
  0
LINE
  8
0
  6
CONTINUOUS
 62
     1
 10
1045.337913452
 20
692.610769231
 30
0.0
 11
1047.602528837
 21
689.78
 31
0.0
  0
LINE
  8
0
  6
CONTINUOUS
 62
     1
 10
1043.402528837
 20
692.18
 30
0.0
 11
1045.602528837
 21
689.48
 31
0.0
  0
LINE
  8
0
  6
CONTINUOUS
 62
     1
 10
993.402528837
 20
681.58
 30
0.0
 11
993.402528837
 21
741.58
 31
0.0
  0
LINE
  8
0
  6
LTYPE1
 62
     2
 10
607.902528837
 20
622.38
 30
0.0
 11
597.902528837
 21
622.38
 31
0.0
  0
LINE
  8
0
  6
LTYPE1
 62
     2
 10
607.902528837
 20
623.58
 30
0.0
 11
597.902528837
 21
623.58
 31
0.0
  0
LINE
  8
0
  6
LTYPE1
 62
     2
 10
607.902528837
 20
603.78
 30
0.0
 11
597.902528837
 21
603.78
 31
0.0
  0
LINE
  8
0
  6
LTYPE1
 62
     2
 10
607.902528837
 20
602.58
 30
0.0
 11
597.902528837
 21
602.58
 31
0.0
  0
LINE
  8
0
  6
LTYPE1
 62
     2
 10
1008.402528837
 20
681.58
 30
0.0
 11
1008.402528837
 21
731.58
 31
0.0
  0
LINE
  8
0
  6
CONTINUOUS
 62
     2
 10
1060.402528837
 20
681.58
 30
0.0
 11
1122.4
 21
681.58
 31
0.0
  0
LINE
  8
0
  6
CONTINUOUS
 62
     2
 10
1117.4
 20
681.58
 30
0.0
 11
1120.635238064
 21
693.654072829
 31
0.0
  0
LINE
  8
0
  6
CONTINUOUS
 62
     2
 10
1117.4
 20
681.58
 30
0.0
 11
1114.164761936
 21
693.654072829
 31
0.0
  0
LINE
  8
0
  6
CONTINUOUS
 62
     2
 10
1117.4
 20
681.58
 30
0.0
 11
1117.4
 21
731.58
 31
0.0
  0
LINE
  8
0
  6
CONTINUOUS
 62
     2
 10
1117.4
 20
731.58
 30
0.0
 11
1114.164761936
 21
719.505927171
 31
0.0
  0
LINE
  8
0
  6
CONTINUOUS
 62
     2
 10
1117.4
 20
731.58
 30
0.0
 11
1120.635238064
 21
719.505927171
 31
0.0
  0
LINE
  8
0
  6
CONTINUOUS
 62
     2
 10
1060.402528837
 20
731.58
 30
0.0
 11
1122.4
 21
731.58
 31
0.0
  0
LINE
  8
0
  6
LTYPE2
 62
     3
 10
614.102528837
 20
613.08
 30
0.0
 11
594.402528837
 21
613.08
 31
0.0
  0
LINE
  8
2
  6
CONTINUOUS
 62
     2
 10
1050.202528837
 20
717.28
 30
0.0
 11
1057.168217927
 21
727.659266616
 31
0.0
  0
LINE
  8
2
  6
CONTINUOUS
 62
     2
 10
1050.202528837
 20
717.28
 30
0.0
 11
1051.045359236
 21
729.751553108
 31
0.0
  0
LINE
  8
2
  6
CONTINUOUS
 62
     2
 10
1050.202528837
 20
717.28
 30
0.0
 11
1069.902528837
 21
774.93
 31
0.0
  0
LINE
  8
2
  6
CONTINUOUS
 62
     2
 10
1069.902528837
 20
774.93
 30
0.0
 11
1184.902528837
 21
774.93
 31
0.0
  0
TEXT
  8
0
  6
CONTINUOUS
 62
     2
 10
1124.952528837
 20
754.68
 30
1.5
 40
15.0
  1
ｄ９
 50
0.0
 41
0.9
 51
0.0
  7
KANJI52
  0
LINE
  8
2
  6
CONTINUOUS
 62
     2
 10
447.902528837
 20
466.08
 30
0.0
 11
447.902528837
 21
451.08
 31
0.0
  0
LINE
  8
2
  6
CONTINUOUS
 62
     2
 10
447.902528837
 20
461.08
 30
0.0
 11
459.976601666
 21
457.844761936
 31
0.0
  0
LINE
  8
2
  6
CONTINUOUS
 62
     2
 10
447.902528837
 20
461.08
 30
0.0
 11
459.976601666
 21
464.315238064
 31
0.0
  0
LINE
  8
2
  6
CONTINUOUS
 62
     2
 10
993.402528837
 20
461.08
 30
0.0
 11
981.328456008
 21
464.315238064
 31
0.0
  0
LINE
  8
2
  6
CONTINUOUS
 62
     2
 10
993.402528837
 20
461.08
 30
0.0
 11
981.328456008
 21
457.844761936
 31
0.0
  0
LINE
  8
2
  6
CONTINUOUS
 62
     2
 10
993.402528837
 20
573.08
 30
0.0
 11
993.402528837
 21
451.08
 31
0.0
  0
LINE
  8
2
  6
CONTINUOUS
 62
     2
 10
993.402528837
 20
489.08
 30
0.0
 11
993.402528837
 21
451.08
 31
0.0
  0
LINE
  8
2
  6
CONTINUOUS
 62
     2
 10
993.402528837
 20
461.08
 30
0.0
 11
1005.476601666
 21
457.844761936
 31
0.0
  0
LINE
  8
2
  6
CONTINUOUS
 62
     2
 10
993.402528837
 20
461.08
 30
0.0
 11
1005.476601666
 21
464.315238064
 31
0.0
  0
LINE
  8
2
  6
CONTINUOUS
 62
     2
 10
993.402528837
 20
461.08
 30
0.0
 11
1043.402528837
 21
461.08
 31
0.0
  0
LINE
  8
2
  6
CONTINUOUS
 62
     2
 10
1043.402528837
 20
461.08
 30
0.0
 11
1031.328456008
 21
464.315238064
 31
0.0
  0
LINE
  8
2
  6
CONTINUOUS
 62
     2
 10
1043.402528837
 20
461.08
 30
0.0
 11
1031.328456008
 21
457.844761936
 31
0.0
  0
LINE
  8
2
  6
CONTINUOUS
 62
     2
 10
1043.402528837
 20
693.281626124
 30
0.0
 11
1043.402528837
 21
451.08
 31
0.0
  0
LINE
  8
2
  6
CONTINUOUS
 62
     2
 10
447.902528837
 20
439.74
 30
0.0
 11
447.902528837
 21
415.74
 31
0.0
  0
LINE
  8
2
  6
CONTINUOUS
 62
     2
 10
447.902528837
 20
425.74
 30
0.0
 11
459.976601666
 21
422.504761936
 31
0.0
  0
LINE
  8
2
  6
CONTINUOUS
 62
     2
 10
447.902528837
 20
425.74
 30
0.0
 11
459.976601666
 21
428.975238064
 31
0.0
  0
LINE
  8
2
  6
CONTINUOUS
 62
     2
 10
447.902528837
 20
425.74
 30
0.0
 11
1043.402528837
 21
425.74
 31
0.0
  0
LINE
  8
2
  6
CONTINUOUS
 62
     2
 10
1043.402528837
 20
425.74
 30
0.0
 11
1031.328456008
 21
428.975238064
 31
0.0
  0
LINE
  8
2
  6
CONTINUOUS
 62
     2
 10
1043.402528837
 20
425.74
 30
0.0
 11
1031.328456008
 21
422.504761936
 31
0.0
  0
LINE
  8
2
  6
CONTINUOUS
 62
     2
 10
1043.402528837
 20
456.08
 30
0.0
 11
1043.402528837
 21
415.74
 31
0.0
  0
LINE
  8
2
  6
CONTINUOUS
 62
     2
 10
250.902528837
 20
431.08
 30
0.0
 11
250.902528837
 21
376.08
 31
0.0
  0
LINE
  8
2
  6
CONTINUOUS
 62
     2
 10
250.902528837
 20
386.08
 30
0.0
 11
262.976601666
 21
382.844761936
 31
0.0
  0
LINE
  8
2
  6
CONTINUOUS
 62
     2
 10
250.902528837
 20
386.08
 30
0.0
 11
262.976601666
 21
389.315238064
 31
0.0
  0
LINE
  8
2
  6
CONTINUOUS
 62
     2
 10
250.902528837
 20
386.08
 30
0.0
 11
1043.402528837
 21
386.08
 31
0.0
  0
LINE
  8
2
  6
CONTINUOUS
 62
     2
 10
1043.402528837
 20
386.08
 30
0.0
 11
1031.328456008
 21
389.315238064
 31
0.0
  0
LINE
  8
2
  6
CONTINUOUS
 62
     2
 10
1043.402528837
 20
386.08
 30
0.0
 11
1031.328456008
 21
382.844761936
 31
0.0
  0
LINE
  8
2
  6
CONTINUOUS
 62
     2
 10
1043.402528837
 20
432.057648662
 30
0.0
 11
1043.402528837
 21
376.08
 31
0.0
  0
LINE
  8
2
  6
CONTINUOUS
 62
     2
 10
768.421755276
 20
779.38
 30
0.0
 11
771.65699334
 21
791.454072829
 31
0.0
  0
LINE
  8
2
  6
CONTINUOUS
 62
     2
 10
768.421755276
 20
779.38
 30
0.0
 11
765.186517212
 21
791.454072829
 31
0.0
  0
LINE
  8
2
  6
CONTINUOUS
 62
     2
 10
768.421755276
 20
779.38
 30
0.0
 11
768.421755276
 21
984.38
 31
0.0
  0
LINE
  8
2
  6
CONTINUOUS
 62
     2
 10
768.421755276
 20
984.38
 30
0.0
 11
765.186517212
 21
972.305927171
 31
0.0
  0
LINE
  8
2
  6
CONTINUOUS
 62
     2
 10
768.421755276
 20
984.38
 30
0.0
 11
771.65699334
 21
972.305927171
 31
0.0
  0
LINE
  8
2
  6
CONTINUOUS
 62
     2
 10
805.902528837
 20
791.08
 30
0.0
 11
860.902528837
 21
791.08
 31
0.0
  0
TEXT
  8
2
  6
CONTINUOUS
 62
     3
 10
805.902528837
 20
796.08
 30
5.0
 40
15.0
  1
給脂口
 50
0.0
 41
1.0
 51
0.0
  7
KANJI53
  0
LINE
  8
0
  6
CONTINUOUS
 62
     1
 10
993.402528837
 20
731.58
 30
0.0
 11
1060.402528837
 21
731.58
 31
0.0
  0
LINE
  8
0
  6
LTYPE4
 62
     2
 10
1043.402528837
 20
681.58
 30
0.0
 11
1043.402528837
 21
744.58
 31
0.0
  0
LINE
  8
0
  6
CONTINUOUS
 62
     1
 10
1008.402528837
 20
894.58
 30
0.0
 11
1068.402528837
 21
894.58
 31
0.0
  0
LINE
  8
0
  6
CONTINUOUS
 62
     1
 10
1068.402528837
 20
879.58
 30
0.0
 11
1068.402528837
 21
894.58
 31
0.0
  0
LINE
  8
0
  6
CONTINUOUS
 62
     1
 10
1021.402528837
 20
875.08
 30
0.0
 11
1065.402528837
 21
875.08
 31
0.0
  0
LINE
  8
0
  6
CONTINUOUS
 62
     1
 10
1030.902528837
 20
869.08
 30
0.0
 11
1055.902528837
 21
869.08
 31
0.0
  0
LINE
  8
0
  6
CONTINUOUS
 62
     1
 10
1055.902528837
 20
869.08
 30
0.0
 11
1055.902528837
 21
875.08
 31
0.0
  0
LINE
  8
0
  6
CONTINUOUS
 62
     1
 10
1030.902528837
 20
869.08
 30
0.0
 11
1030.902528837
 21
875.08
 31
0.0
  0
LINE
  8
0
  6
CONTINUOUS
 62
     1
 10
1065.402528837
 20
875.08
 30
0.0
 11
1065.402528837
 21
879.58
 31
0.0
  0
LINE
  8
0
  6
CONTINUOUS
 62
     1
 10
1021.402528837
 20
875.08
 30
0.0
 11
1021.402528837
 21
879.58
 31
0.0
  0
CIRCLE
  8
0
  6
CONTINUOUS
 62
     1
 10
1043.402528837
 20
873.08
 30
0.0
 40
2.0
  0
LINE
  8
0
  6
CONTINUOUS
 62
     1
 10
1008.402528837
 20
919.58
 30
0.0
 11
1068.402528837
 21
919.58
 31
0.0
  0
LINE
  8
0
  6
CONTINUOUS
 62
     1
 10
1068.402528837
 20
934.58
 30
0.0
 11
1068.402528837
 21
919.58
 31
0.0
  0
LINE
  8
0
  6
CONTINUOUS
 62
     1
 10
1021.402528837
 20
939.08
 30
0.0
 11
1065.402528837
 21
939.08
 31
0.0
  0
LINE
  8
0
  6
CONTINUOUS
 62
     1
 10
1030.902528837
 20
945.08
 30
0.0
 11
1055.902528837
 21
945.08
 31
0.0
  0
LINE
  8
0
  6
CONTINUOUS
 62
     1
 10
1055.902528837
 20
945.08
 30
0.0
 11
1055.902528837
 21
939.08
 31
0.0
  0
LINE
  8
0
  6
CONTINUOUS
 62
     1
 10
1030.902528837
 20
945.08
 30
0.0
 11
1030.902528837
 21
939.08
 31
0.0
  0
LINE
  8
0
  6
CONTINUOUS
 62
     1
 10
1065.402528837
 20
939.08
 30
0.0
 11
1065.402528837
 21
934.58
 31
0.0
  0
LINE
  8
0
  6
CONTINUOUS
 62
     1
 10
1021.402528837
 20
939.08
 30
0.0
 11
1021.402528837
 21
934.58
 31
0.0
  0
CIRCLE
  8
0
  6
CONTINUOUS
 62
     1
 10
1043.402528837
 20
941.08
 30
0.0
 40
2.0
  0
LINE
  8
0
  6
CONTINUOUS
 62
     1
 10
1008.402528837
 20
894.58
 30
0.0
 11
1008.402528837
 21
919.58
 31
0.0
  0
LINE
  8
0
  6
CONTINUOUS
 62
     1
 10
1030.902528837
 20
894.58
 30
0.0
 11
1030.902528837
 21
919.58
 31
0.0
  0
LINE
  8
0
  6
CONTINUOUS
 62
     1
 10
1055.902528837
 20
894.58
 30
0.0
 11
1055.902528837
 21
919.58
 31
0.0
  0
LINE
  8
0
  6
CONTINUOUS
 62
     1
 10
1030.902528837
 20
919.58
 30
0.0
 11
1030.902528837
 21
894.58
 31
0.0
  0
LINE
  8
0
  6
CONTINUOUS
 62
     1
 10
1055.902528837
 20
919.58
 30
0.0
 11
1055.902528837
 21
894.58
 31
0.0
  0
LINE
  8
0
  6
LTYPE4
 62
     2
 10
1039.402528837
 20
873.18
 30
0.0
 11
1047.602528837
 21
873.18
 31
0.0
  0
LINE
  8
0
  6
LTYPE1
 62
     2
 10
1055.902528837
 20
875.08
 30
0.0
 11
1055.902528837
 21
894.58
 31
0.0
  0
LINE
  8
0
  6
LTYPE1
 62
     2
 10
1030.902528837
 20
875.08
 30
0.0
 11
1030.902528837
 21
894.58
 31
0.0
  0
LINE
  8
0
  6
LTYPE4
 62
     2
 10
1039.402528837
 20
940.98
 30
0.0
 11
1047.602528837
 21
940.98
 31
0.0
  0
LINE
  8
0
  6
LTYPE1
 62
     2
 10
1055.902528837
 20
939.08
 30
0.0
 11
1055.902528837
 21
919.58
 31
0.0
  0
LINE
  8
0
  6
LTYPE1
 62
     2
 10
1030.902528837
 20
939.08
 30
0.0
 11
1030.902528837
 21
919.58
 31
0.0
  0
LINE
  8
0
  6
LTYPE4
 62
     2
 10
1043.402528837
 20
864.08
 30
0.0
 11
1043.402528837
 21
945.08
 31
0.0
  0
LINE
  8
0
  6
LTYPE4
 62
     2
 10
1043.402528837
 20
950.08
 30
0.0
 11
1043.402528837
 21
869.08
 31
0.0
  0
LINE
  8
0
  6
CONTINUOUS
 62
     2
 10
1097.902528837
 20
919.58
 30
0.0
 11
1101.137766901
 21
931.654072829
 31
0.0
  0
LINE
  8
0
  6
CONTINUOUS
 62
     2
 10
1097.902528837
 20
919.58
 30
0.0
 11
1094.667290773
 21
931.654072829
 31
0.0
  0
LINE
  8
0
  6
CONTINUOUS
 62
     2
 10
1068.402528837
 20
919.58
 30
0.0
 11
1102.902528837
 21
919.58
 31
0.0
  0
LINE
  8
0
  6
CONTINUOUS
 62
     2
 10
1068.402528837
 20
879.58
 30
0.0
 11
1131.902528837
 21
879.58
 31
0.0
  0
LINE
  8
0
  6
CONTINUOUS
 62
     2
 10
1126.902528837
 20
879.58
 30
0.0
 11
1130.137766901
 21
891.654072829
 31
0.0
  0
LINE
  8
0
  6
CONTINUOUS
 62
     2
 10
1126.902528837
 20
879.58
 30
0.0
 11
1123.667290773
 21
891.654072829
 31
0.0
  0
LINE
  8
0
  6
CONTINUOUS
 62
     2
 10
1126.902528837
 20
879.58
 30
0.0
 11
1126.902528837
 21
934.58
 31
0.0
  0
LINE
  8
0
  6
CONTINUOUS
 62
     2
 10
1126.902528837
 20
934.58
 30
0.0
 11
1123.667290773
 21
922.505927171
 31
0.0
  0
LINE
  8
0
  6
CONTINUOUS
 62
     2
 10
1126.902528837
 20
934.58
 30
0.0
 11
1130.137766901
 21
922.505927171
 31
0.0
  0
LINE
  8
0
  6
CONTINUOUS
 62
     2
 10
1068.402528837
 20
934.58
 30
0.0
 11
1131.902528837
 21
934.58
 31
0.0
  0
LINE
  8
0
  6
CONTINUOUS
 62
     2
 10
1068.402528837
 20
879.58
 30
0.0
 11
1068.402528837
 21
834.03
 31
0.0
  0
LINE
  8
0
  6
CONTINUOUS
 62
     2
 10
1068.402528837
 20
894.58
 30
0.0
 11
1102.902528837
 21
894.58
 31
0.0
  0
LINE
  8
0
  6
CONTINUOUS
 62
     2
 10
1097.902528837
 20
894.58
 30
0.0
 11
1094.667290773
 21
882.505927171
 31
0.0
  0
LINE
  8
0
  6
CONTINUOUS
 62
     2
 10
1097.902528837
 20
894.58
 30
0.0
 11
1101.137766901
 21
882.505927171
 31
0.0
  0
LINE
  8
0
  6
CONTINUOUS
 62
     2
 10
1097.902528837
 20
869.58
 30
0.0
 11
1097.902528837
 21
944.58
 31
0.0
  0
TEXT
  8
0
  6
CONTINUOUS
 62
     2
 10
1092.902528837
 20
892.33
 30
1.5
 40
15.0
  1
２５
 50
90.0
 41
0.933333333
 51
0.0
  7
KANJI54
  0
TEXT
  8
0
  6
CONTINUOUS
 62
     2
 10
1121.902528837
 20
892.33
 30
1.5
 40
15.0
  1
５５
 50
90.0
 41
0.933333333
 51
0.0
  7
KANJI54
  0
LINE
  8
0
  6
LTYPE2
 62
     2
 10
1074.452528837
 20
906.83
 30
0.0
 11
945.402528837
 21
906.83
 31
0.0
  0
LINE
  8
0
  6
CONTINUOUS
 62
     2
 10
1043.402528837
 20
862.08
 30
0.0
 11
1043.402528837
 21
832.03
 31
0.0
  0
LINE
  8
0
  6
CONTINUOUS
 62
     2
 10
1043.402528837
 20
837.03
 30
0.0
 11
1055.476601666
 21
833.794761936
 31
0.0
  0
LINE
  8
0
  6
CONTINUOUS
 62
     2
 10
1043.402528837
 20
837.03
 30
0.0
 11
1055.476601666
 21
840.265238064
 31
0.0
  0
LINE
  8
0
  6
CONTINUOUS
 62
     2
 10
1043.402528837
 20
837.03
 30
0.0
 11
1068.402528837
 21
837.03
 31
0.0
  0
LINE
  8
0
  6
CONTINUOUS
 62
     2
 10
1068.402528837
 20
837.03
 30
0.0
 11
1056.328456008
 21
840.265238064
 31
0.0
  0
LINE
  8
0
  6
CONTINUOUS
 62
     2
 10
1068.402528837
 20
837.03
 30
0.0
 11
1056.328456008
 21
833.794761936
 31
0.0
  0
LINE
  8
0
  6
CONTINUOUS
 62
     2
 10
1043.402528837
 20
837.03
 30
0.0
 11
1031.328456008
 21
840.265238064
 31
0.0
  0
LINE
  8
0
  6
CONTINUOUS
 62
     2
 10
1043.402528837
 20
837.03
 30
0.0
 11
1031.328456008
 21
833.794761936
 31
0.0
  0
LINE
  8
0
  6
CONTINUOUS
 62
     2
 10
1043.402528837
 20
837.03
 30
0.0
 11
1008.402528837
 21
837.03
 31
0.0
  0
LINE
  8
0
  6
CONTINUOUS
 62
     2
 10
1008.402528837
 20
837.03
 30
0.0
 11
1020.476601666
 21
833.794761936
 31
0.0
  0
LINE
  8
0
  6
CONTINUOUS
 62
     2
 10
1008.402528837
 20
837.03
 30
0.0
 11
1020.476601666
 21
840.265238064
 31
0.0
  0
LINE
  8
0
  6
CONTINUOUS
 62
     2
 10
1008.402528837
 20
892.58
 30
0.0
 11
1008.402528837
 21
832.03
 31
0.0
  0
LINE
  8
0
  6
CONTINUOUS
 62
     2
 10
993.402528837
 20
877.58
 30
0.0
 11
993.402528837
 21
832.03
 31
0.0
  0
LINE
  8
0
  6
CONTINUOUS
 62
     2
 10
993.402528837
 20
837.03
 30
0.0
 11
981.328456008
 21
833.794761936
 31
0.0
  0
LINE
  8
0
  6
CONTINUOUS
 62
     2
 10
993.402528837
 20
837.03
 30
0.0
 11
981.328456008
 21
840.265238064
 31
0.0
  0
LINE
  8
0
  6
CONTINUOUS
 62
     2
 10
1008.402528837
 20
837.03
 30
0.0
 11
966.402528837
 21
837.03
 31
0.0
  0
TEXT
  8
0
  6
CONTINUOUS
 62
     2
 10
1041.152528837
 20
842.03
 30
1.5
 40
15.0
  1
２５
 50
0.0
 41
0.933333333
 51
0.0
  7
KANJI54
  0
TEXT
  8
0
  6
CONTINUOUS
 62
     2
 10
1011.152528837
 20
842.03
 30
1.5
 40
15.0
  1
３５
 50
0.0
 41
0.933333333
 51
0.0
  7
KANJI54
  0
TEXT
  8
0
  6
CONTINUOUS
 62
     2
 10
960.152528837
 20
842.53
 30
1.5
 40
15.0
  1
１５
 50
0.0
 41
0.933333333
 51
0.0
  7
KANJI54
  0
LINE
  8
0
  6
CONTINUOUS
 62
     1
 10
993.402528837
 20
934.58
 30
0.0
 11
1068.402528837
 21
934.58
 31
0.0
  0
LINE
  8
0
  6
CONTINUOUS
 62
     1
 10
993.402528837
 20
879.58
 30
0.0
 11
993.402528837
 21
934.58
 31
0.0
  0
LINE
  8
0
  6
CONTINUOUS
 62
     1
 10
993.402528837
 20
879.58
 30
0.0
 11
1068.402528837
 21
879.58
 31
0.0
  0
LINE
  8
0
  6
CONTINUOUS
 62
     1
 10
993.402528837
 20
932.83
 30
0.0
 11
945.402528837
 21
932.83
 31
0.0
  0
LINE
  8
0
  6
CONTINUOUS
 62
     1
 10
993.402528837
 20
880.83
 30
0.0
 11
945.402528837
 21
880.83
 31
0.0
  0
LINE
  8
0
  6
CONTINUOUS
 62
     2
 10
262.872674524
 20
286.271526374
 30
0.0
 11
695.160083262
 21
286.271526374
 31
0.0
  0
TEXT
  8
0
  6
CONTINUOUS
 62
     2
 10
264.872674524
 20
294.271526374
 30
0.0
 40
20.0
  1
推力リミッタの作動値は、約２３００ｋｇ（設計値）
 50
0.0
 41
0.925
 51
0.0
  7
KANJI55
  0
LINE
  8
0
  6
CONTINUOUS
 62
     2
 10
1731.4
 20
692.8
 30
0.0
 11
1875.4
 21
692.8
 31
0.0
  0
TEXT
  8
0
  6
CONTINUOUS
 62
     2
 10
1744.0
 20
701.2
 30
12.0
 40
24.0
  1
特記事項
 50
0.0
 41
0.9
 51
0.0
  7
KANJI56
  0
TEXT
  8
0
  6
CONTINUOUS
 62
     2
 10
1738.0
 20
656.5
 30
1.8
 40
21.0
  1
１．運転時は必ずピストンロッドの回転防止を行って下さい。
 50
0.0
 41
0.857142857
 51
0.0
  7
KANJI57
  0
TEXT
  8
0
  6
CONTINUOUS
 62
     2
 10
1738.0
 20
624.0
 30
1.8
 40
21.0
  1
２．モートル：全閉自冷かご形３０分定格
 50
0.0
 41
0.857142857
 51
0.0
  7
KANJI57
  0
TEXT
  8
0
  6
CONTINUOUS
 62
     2
 10
1738.0
 20
591.5
 30
1.8
 40
21.0
  1
３．ＬＳユニット
 50
0.0
 41
0.857142857
 51
0.0
  7
KANJI57
  0
TEXT
  8
0
  6
CONTINUOUS
 62
     2
 10
1738.0
 20
566.5
 30
1.8
 40
21.0
  1
　　リミットスイッチ：１ＬＳ１－Ｊｘ２ケ（山武）
 50
0.0
 41
0.857142857
 51
0.0
  7
KANJI57
  0
TEXT
  8
0
  6
CONTINUOUS
 62
     2
 10
1738.0
 20
541.5
 30
1.8
 40
21.0
  1
　　ストローク７００ｍｍ以上の場合２ロッド方式となります。
 50
0.0
 41
0.857142857
 51
0.0
  7
KANJI57
  0
TEXT
  8
0
  6
CONTINUOUS
 62
     2
 10
1738.0
 20
513.5
 30
1.8
 40
21.0
  1
４．呼称ストロークは、機械的ストロークです。
 50
0.0
 41
0.857142857
 51
0.0
  7
KANJI57
  0
TEXT
  8
0
  6
CONTINUOUS
 62
     2
 10
1738.0
 20
481.54
 30
1.8
 40
21.0
  1
　　必ず、常用はストローク両端に必ず余裕を取って下さい。
 50
0.0
 41
0.857142857
 51
0.0
  7
KANJI57
  0
TEXT
  8
0
  6
CONTINUOUS
 62
     2
 10
1738.0
 20
412.264
 30
1.8
 40
21.0
  1
５．ボールネジ使用　２８０６
 50
0.0
 41
0.857142857
 51
0.0
  7
KANJI57
  0
TEXT
  8
0
  6
CONTINUOUS
 62
     2
 10
1738.0
 20
448.764
 30
1.8
 40
21.0
  1
　　前後の推奨余裕寸法は、各々３０ｍｍです。
 50
0.0
 41
0.857142857
 51
0.0
  7
KANJI57
  0
TEXT
  8
0
  6
CONTINUOUS
 62
     2
 10
1864.0
 20
238.0
 30
0.0
 40
21.0
  1
ＭＣＬＥ２Ｂ－Ｌ
 50
0.0
 41
0.793650794
 51
0.0
  7
KANJI58
  0
LINE
  8
0
  6
CONTINUOUS
 62
     2
 10
447.902528837
 20
469.08
 30
0.0
 11
447.902528837
 21
455.08
 31
0.0
  0
LINE
  8
0
  6
CONTINUOUS
 62
     2
 10
447.902528837
 20
461.08
 30
0.0
 11
436.311418922
 21
464.185828541
 31
0.0
  0
LINE
  8
0
  6
CONTINUOUS
 62
     2
 10
447.902528837
 20
461.08
 30
0.0
 11
436.311418922
 21
457.974171459
 31
0.0
  0
LINE
  8
0
  6
CONTINUOUS
 62
     2
 10
447.902528837
 20
461.08
 30
0.0
 11
362.902528837
 21
461.08
 31
0.0
  0
LINE
  8
0
  6
CONTINUOUS
 62
     2
 10
362.902528837
 20
461.08
 30
0.0
 11
374.493638752
 21
457.974171459
 31
0.0
  0
LINE
  8
0
  6
CONTINUOUS
 62
     2
 10
362.902528837
 20
461.08
 30
0.0
 11
374.493638752
 21
464.185828541
 31
0.0
  0
LINE
  8
0
  6
CONTINUOUS
 62
     2
 10
362.902528837
 20
606.58
 30
0.0
 11
362.902528837
 21
455.08
 31
0.0
  0
LINE
  8
0
  6
CONTINUOUS
 62
     2
 10
362.902528837
 20
468.58
 30
0.0
 11
362.902528837
 21
455.08
 31
0.0
  0
LINE
  8
0
  6
CONTINUOUS
 62
     2
 10
362.902528837
 20
461.08
 30
0.0
 11
351.311418922
 21
464.185828541
 31
0.0
  0
LINE
  8
0
  6
CONTINUOUS
 62
     2
 10
362.902528837
 20
461.08
 30
0.0
 11
351.311418922
 21
457.974171459
 31
0.0
  0
LINE
  8
0
  6
CONTINUOUS
 62
     2
 10
362.902528837
 20
461.08
 30
0.0
 11
250.902528837
 21
461.08
 31
0.0
  0
LINE
  8
0
  6
CONTINUOUS
 62
     2
 10
250.902528837
 20
461.08
 30
0.0
 11
262.493638752
 21
457.974171459
 31
0.0
  0
LINE
  8
0
  6
CONTINUOUS
 62
     2
 10
250.902528837
 20
461.08
 30
0.0
 11
262.493638752
 21
464.185828541
 31
0.0
  0
LINE
  8
0
  6
CONTINUOUS
 62
     2
 10
250.902528837
 20
606.58
 30
0.0
 11
250.902528837
 21
455.08
 31
0.0
  0
LINE
  8
0
  6
CONTINUOUS
 62
     2
 10
447.902528837
 20
434.24
 30
0.0
 11
447.902528837
 21
419.74
 31
0.0
  0
LINE
  8
0
  6
CONTINUOUS
 62
     2
 10
447.902528837
 20
425.74
 30
0.0
 11
436.311418922
 21
428.845828541
 31
0.0
  0
LINE
  8
0
  6
CONTINUOUS
 62
     2
 10
447.902528837
 20
425.74
 30
0.0
 11
436.311418922
 21
422.634171459
 31
0.0
  0
LINE
  8
0
  6
CONTINUOUS
 62
     2
 10
447.902528837
 20
425.74
 30
0.0
 11
250.902528837
 21
425.74
 31
0.0
  0
LINE
  8
0
  6
CONTINUOUS
 62
     2
 10
250.902528837
 20
425.74
 30
0.0
 11
262.493638752
 21
422.634171459
 31
0.0
  0
LINE
  8
0
  6
CONTINUOUS
 62
     2
 10
250.902528837
 20
425.74
 30
0.0
 11
262.493638752
 21
428.845828541
 31
0.0
  0
LINE
  8
0
  6
CONTINUOUS
 62
     2
 10
250.902528837
 20
480.74
 30
0.0
 11
250.902528837
 21
419.74
 31
0.0
  0
LINE
  8
0
  6
CONTINUOUS
 62
     1
 10
918.402528837
 20
662.03
 30
0.0
 11
918.402528837
 21
752.08
 31
0.0
  0
LINE
  8
2
  6
CONTINUOUS
 62
     2
 10
948.402528837
 20
461.08
 30
0.0
 11
936.328456008
 21
464.315238064
 31
0.0
  0
LINE
  8
2
  6
CONTINUOUS
 62
     2
 10
948.402528837
 20
657.03
 30
0.0
 11
948.402528837
 21
451.08
 31
0.0
  0
LINE
  8
2
  6
CONTINUOUS
 62
     2
 10
948.402528837
 20
483.08
 30
0.0
 11
948.402528837
 21
451.08
 31
0.0
  0
LINE
  8
2
  6
CONTINUOUS
 62
     2
 10
948.402528837
 20
461.08
 30
0.0
 11
960.476601666
 21
464.315238064
 31
0.0
  0
LINE
  8
2
  6
CONTINUOUS
 62
     2
 10
948.402528837
 20
461.08
 30
0.0
 11
936.328456008
 21
457.844761936
 31
0.0
  0
LINE
  8
2
  6
CONTINUOUS
 62
     2
 10
948.402528837
 20
461.08
 30
0.0
 11
960.476601666
 21
457.844761936
 31
0.0
  0
LINE
  8
0
  6
CONTINUOUS
 62
     1
 10
948.402528837
 20
662.03
 30
0.0
 11
948.402528837
 21
752.08
 31
0.0
  0
LINE
  8
0
  6
CONTINUOUS
 62
     1
 10
948.402528837
 20
731.58
 30
0.0
 11
977.402528837
 21
731.58
 31
0.0
  0
LINE
  8
0
  6
CONTINUOUS
 62
     1
 10
977.402528837
 20
681.58
 30
0.0
 11
948.402528837
 21
681.58
 31
0.0
  0
LINE
  8
2
  6
CONTINUOUS
 62
     2
 10
948.402528837
 20
461.08
 30
0.0
 11
993.402528837
 21
461.08
 31
0.0
  0
LINE
  8
2
  6
CONTINUOUS
 62
     2
 10
447.902528837
 20
461.08
 30
0.0
 11
948.402528837
 21
461.08
 31
0.0
  0
LINE
  8
0
  6
LTYPE1
 62
     2
 10
656.477536741
 20
628.446025404
 30
0.0
 11
656.477536741
 21
761.446025404
 31
0.0
  0
LINE
  8
0
  6
LTYPE1
 62
     2
 10
660.477536741
 20
681.08
 30
0.0
 11
660.477536741
 21
755.58001079
 31
0.0
  0
LINE
  8
0
  6
LTYPE1
 62
     2
 10
652.477536741
 20
681.08
 30
0.0
 11
652.477536741
 21
755.58001079
 31
0.0
  0
ARC
  8
0
  6
LTYPE1
 62
     2
 10
656.477536741
 20
755.58
 30
0.0
 40
4.0
 50
0.00015455
 51
179.99984545
  0
LINE
  8
0
  6
LTYPE1
 62
     2
 10
663.477536741
 20
636.58
 30
0.0
 11
663.477536741
 21
681.08
 31
0.0
  0
LINE
  8
0
  6
LTYPE1
 62
     2
 10
663.477536741
 20
681.08
 30
0.0
 11
649.477536741
 21
681.08
 31
0.0
  0
LINE
  8
0
  6
LTYPE1
 62
     2
 10
649.477536741
 20
636.58
 30
0.0
 11
649.477536741
 21
681.08
 31
0.0
  0
LINE
  8
0
  6
LTYPE1
 62
     2
 10
663.477536741
 20
659.08
 30
0.0
 11
649.477536741
 21
659.08
 31
0.0
  0
LINE
  8
0
  6
LTYPE3
 62
     2
 10
409.977536741
 20
616.58
 30
0.0
 11
797.237536741
 21
616.58
 31
0.0
  0
LINE
  8
0
  6
LTYPE1
 62
     2
 10
492.477536741
 20
608.58
 30
0.0
 11
764.927536741
 21
608.58
 31
0.0
  0
LINE
  8
0
  6
LTYPE1
 62
     2
 10
492.477536741
 20
624.58
 30
0.0
 11
764.927536741
 21
624.58
 31
0.0
  0
LINE
  8
0
  6
LTYPE1
 62
     2
 10
664.477536741
 20
630.58
 30
0.0
 11
429.477536741
 21
630.58
 31
0.0
  0
LINE
  8
0
  6
LTYPE1
 62
     2
 10
664.477536741
 20
636.58
 30
0.0
 11
429.477536741
 21
636.58
 31
0.0
  0
LINE
  8
0
  6
LTYPE1
 62
     2
 10
663.977536741
 20
630.58
 30
0.0
 11
663.977536741
 21
625.98
 31
0.0
  0
LINE
  8
0
  6
LTYPE1
 62
     2
 10
648.977536741
 20
630.58
 30
0.0
 11
648.977536741
 21
625.98
 31
0.0
  0
LINE
  8
0
  6
LTYPE1
 62
     2
 10
652.677536741
 20
630.58
 30
0.0
 11
652.677536741
 21
625.98
 31
0.0
  0
LINE
  8
0
  6
LTYPE1
 62
     2
 10
660.277536741
 20
630.58
 30
0.0
 11
660.277536741
 21
625.98
 31
0.0
  0
ARC
  8
0
  6
LTYPE1
 62
     2
 10
650.777536741
 20
628.08
 30
0.0
 40
2.8
 50
228.5
 51
311.5
  0
ARC
  8
0
  6
LTYPE1
 62
     2
 10
656.477536741
 20
635.98
 30
0.0
 40
10.7
 50
249.1
 51
290.9
  0
ARC
  8
0
  6
LTYPE1
 62
     2
 10
662.177536741
 20
628.08
 30
0.0
 40
2.8
 50
228.5
 51
311.5
  0
LINE
  8
0
  6
LTYPE1
 62
     2
 10
656.477536741
 20
621.78
 30
0.0
 11
656.477536741
 21
633.58
 31
0.0
  0
LINE
  8
0
  6
LTYPE3
 62
     2
 10
656.477536741
 20
617.93
 30
0.0
 11
656.477536741
 21
642.23
 31
0.0
  0
LINE
  8
0
  6
LTYPE1
 62
     2
 10
662.177536741
 20
625.28
 30
0.0
 11
650.777536741
 21
625.28
 31
0.0
  0
LINE
  8
0
  6
LTYPE1
 62
     2
 10
429.477536741
 20
603.58
 30
0.0
 11
445.477536741
 21
603.58
 31
0.0
  0
LINE
  8
0
  6
LTYPE2
 62
     2
 10
448.477536741
 20
616.58
 30
0.0
 11
459.977536741
 21
616.58
 31
0.0
  0
LINE
  8
0
  6
LTYPE1
 62
     2
 10
452.977536741
 20
620.58
 30
0.0
 11
460.477536741
 21
620.58
 31
0.0
  0
LINE
  8
0
  6
LTYPE1
 62
     2
 10
452.977536741
 20
619.58
 30
0.0
 11
460.477536741
 21
619.58
 31
0.0
  0
LINE
  8
0
  6
LTYPE1
 62
     2
 10
445.477536741
 20
606.18
 30
0.0
 11
451.977536741
 21
606.18
 31
0.0
  0
ARC
  8
0
  6
LTYPE1
 62
     2
 10
449.077536741
 20
608.78
 30
0.0
 40
3.9
 50
317.9
 51
42.1
  0
LINE
  8
0
  6
LTYPE1
 62
     2
 10
445.477536741
 20
611.38
 30
0.0
 11
451.977536741
 21
611.38
 31
0.0
  0
LINE
  8
0
  6
LTYPE1
 62
     2
 10
452.977536741
 20
613.58
 30
0.0
 11
460.477536741
 21
613.58
 31
0.0
  0
LINE
  8
0
  6
LTYPE1
 62
     2
 10
452.977536741
 20
612.58
 30
0.0
 11
460.477536741
 21
612.58
 31
0.0
  0
LINE
  8
0
  6
LTYPE1
 62
     2
 10
445.477536741
 20
603.58
 30
0.0
 11
445.477536741
 21
630.58
 31
0.0
  0
LINE
  8
0
  6
LTYPE1
 62
     2
 10
445.477536741
 20
626.98
 30
0.0
 11
445.477536741
 21
606.18
 31
0.0
  0
ARC
  8
0
  6
LTYPE1
 62
     2
 10
438.977536741
 20
616.58
 30
0.0
 40
14.0
 50
338.2
 51
21.8
  0
LINE
  8
0
  6
LTYPE1
 62
     2
 10
452.977536741
 20
608.78
 30
0.0
 11
452.977536741
 21
624.38
 31
0.0
  0
LINE
  8
0
  6
LTYPE1
 62
     2
 10
445.477536741
 20
626.98
 30
0.0
 11
451.977536741
 21
626.98
 31
0.0
  0
ARC
  8
0
  6
LTYPE1
 62
     2
 10
449.077536741
 20
624.38
 30
0.0
 40
3.9
 50
317.9
 51
42.1
  0
LINE
  8
0
  6
LTYPE1
 62
     2
 10
451.977536741
 20
621.78
 30
0.0
 11
445.477536741
 21
621.78
 31
0.0
  0
LINE
  8
0
  6
LTYPE1
 62
     2
 10
441.224566741
 20
636.58
 30
0.0
 11
441.224566741
 21
641.020300598
 31
0.0
  0
LINE
  8
0
  6
LTYPE1
 62
     2
 10
444.971596741
 20
636.58
 30
0.0
 11
444.971596741
 21
641.020300598
 31
0.0
  0
ARC
  8
0
  6
LTYPE1
 62
     2
 10
437.477536741
 20
634.924844663
 30
0.0
 40
7.155055337
 50
58.419912243
 51
121.580087757
  0
LINE
  8
0
  6
LTYPE1
 62
     2
 10
443.136316741
 20
642.0799
 30
0.0
 11
444.971596741
 21
641.020300598
 31
0.0
  0
LINE
  8
0
  6
LTYPE1
 62
     2
 10
437.477536741
 20
642.0799
 30
0.0
 11
443.136316741
 21
642.0799
 31
0.0
  0
LINE
  8
0
  6
LTYPE1
 62
     2
 10
443.136316741
 20
642.0799
 30
0.0
 11
444.971596741
 21
641.020300598
 31
0.0
  0
ARC
  8
0
  6
LTYPE1
 62
     2
 10
443.098081741
 20
639.894476233
 30
0.0
 40
2.185758211
 50
87.010501597
 51
148.997686085
  0
LINE
  8
0
  6
LTYPE1
 62
     2
 10
437.477536741
 20
626.58
 30
0.0
 11
437.477536741
 21
642.58
 31
0.0
  0
LINE
  8
0
  6
LTYPE1
 62
     2
 10
437.477536741
 20
642.0799
 30
0.0
 11
431.818756741
 21
642.0799
 31
0.0
  0
ARC
  8
0
  6
LTYPE1
 62
     2
 10
431.856991741
 20
639.894476233
 30
0.0
 40
2.185758211
 50
31.002313915
 51
92.989498403
  0
LINE
  8
0
  6
LTYPE1
 62
     2
 10
433.730506741
 20
636.58
 30
0.0
 11
433.730506741
 21
641.020300598
 31
0.0
  0
LINE
  8
0
  6
LTYPE1
 62
     2
 10
426.977536741
 20
626.38
 30
0.0
 11
421.363177387
 21
626.38
 31
0.0
  0
LINE
  8
0
  6
LTYPE1
 62
     2
 10
426.977536741
 20
621.48
 30
0.0
 11
421.363177387
 21
621.48
 31
0.0
  0
LINE
  8
0
  6
LTYPE1
 62
     2
 10
426.977536741
 20
616.58
 30
0.0
 11
426.977536741
 21
626.38
 31
0.0
  0
LINE
  8
0
  6
LTYPE1
 62
     2
 10
429.477536741
 20
625.78
 30
0.0
 11
426.977536741
 21
625.78
 31
0.0
  0
LINE
  8
0
  6
LTYPE1
 62
     2
 10
426.977536745
 20
616.58
 30
0.0
 11
429.477536741
 21
619.079999996
 31
0.0
  0
LINE
  8
0
  6
LTYPE1
 62
     2
 10
426.977536741
 20
606.78
 30
0.0
 11
421.363177387
 21
606.78
 31
0.0
  0
LINE
  8
0
  6
LTYPE1
 62
     2
 10
426.977536741
 20
611.68
 30
0.0
 11
421.363177387
 21
611.68
 31
0.0
  0
LINE
  8
0
  6
LTYPE1
 62
     2
 10
426.977536741
 20
616.58
 30
0.0
 11
426.977536741
 21
606.78
 31
0.0
  0
LINE
  8
0
  6
LTYPE1
 62
     2
 10
429.477536741
 20
616.58
 30
0.0
 11
426.977536745
 21
614.080000004
 31
0.0
  0
LINE
  8
0
  6
LTYPE1
 62
     2
 10
429.477536741
 20
607.38
 30
0.0
 11
426.977536741
 21
607.38
 31
0.0
  0
LINE
  8
0
  6
LTYPE1
 62
     2
 10
419.977536741
 20
616.58
 30
0.0
 11
419.977536741
 21
623.98
 31
0.0
  0
LINE
  8
0
  6
LTYPE1
 62
     2
 10
419.977536741
 20
623.98
 30
0.0
 11
421.363177387
 21
626.38
 31
0.0
  0
LINE
  8
0
  6
LTYPE1
 62
     2
 10
419.977536741
 20
623.98
 30
0.0
 11
421.363177387
 21
626.38
 31
0.0
  0
ARC
  8
0
  6
LTYPE1
 62
     2
 10
422.835420573
 20
623.93
 30
0.0
 40
2.858321186
 50
177.010501597
 51
238.997686085
  0
LINE
  8
0
  6
LTYPE1
 62
     2
 10
415.477536741
 20
620.58
 30
0.0
 11
419.977536741
 21
620.58
 31
0.0
  0
LINE
  8
0
  6
LTYPE1
 62
     2
 10
415.477536741
 20
619.58
 30
0.0
 11
419.977536741
 21
619.58
 31
0.0
  0
LINE
  8
0
  6
LTYPE1
 62
     2
 10
419.977536741
 20
609.18
 30
0.0
 11
421.363177387
 21
606.78
 31
0.0
  0
LINE
  8
0
  6
LTYPE1
 62
     2
 10
419.977536741
 20
616.58
 30
0.0
 11
419.977536741
 21
609.18
 31
0.0
  0
ARC
  8
0
  6
LTYPE1
 62
     2
 10
422.835420573
 20
609.23
 30
0.0
 40
2.858321186
 50
121.002313915
 51
182.989498403
  0
LINE
  8
0
  6
LTYPE1
 62
     2
 10
415.477536741
 20
612.58
 30
0.0
 11
419.977536741
 21
612.58
 31
0.0
  0
LINE
  8
0
  6
LTYPE1
 62
     2
 10
415.477536741
 20
613.58
 30
0.0
 11
419.977536741
 21
613.58
 31
0.0
  0
ARC
  8
0
  6
LTYPE1
 62
     2
 10
429.334219541
 20
616.58
 30
0.0
 40
9.3566828
 50
148.419912243
 51
211.580087757
  0
LINE
  8
0
  6
LTYPE1
 62
     2
 10
415.477536741
 20
612.58
 30
0.0
 11
415.477536741
 21
620.58
 31
0.0
  0
LINE
  8
0
  6
LTYPE1
 62
     2
 10
429.477536741
 20
603.58
 30
0.0
 11
429.477536741
 21
636.58
 31
0.0
  0
LINE
  8
0
  6
LTYPE1
 62
     2
 10
431.818756741
 20
642.0799
 30
0.0
 11
429.983476741
 21
641.020300598
 31
0.0
  0
LINE
  8
0
  6
LTYPE1
 62
     2
 10
429.983476741
 20
636.58
 30
0.0
 11
429.983476741
 21
641.020300598
 31
0.0
  0
LINE
  8
0
  6
LTYPE1
 62
     2
 10
460.477536741
 20
610.58
 30
0.0
 11
492.477536741
 21
610.58
 31
0.0
  0
LINE
  8
0
  6
LTYPE1
 62
     2
 10
492.477536741
 20
628.58
 30
0.0
 11
460.477536741
 21
628.58
 31
0.0
  0
LINE
  8
0
  6
LTYPE1
 62
     2
 10
492.477536741
 20
622.58
 30
0.0
 11
460.477536741
 21
622.58
 31
0.0
  0
LINE
  8
0
  6
LTYPE1
 62
     2
 10
460.477536741
 20
620.58
 30
0.0
 11
465.477536741
 21
620.58
 31
0.0
  0
LINE
  8
0
  6
LTYPE1
 62
     2
 10
460.477536741
 20
619.58
 30
0.0
 11
465.477536741
 21
619.58
 31
0.0
  0
LINE
  8
0
  6
LTYPE1
 62
     2
 10
460.477536741
 20
612.58
 30
0.0
 11
465.477536741
 21
612.58
 31
0.0
  0
LINE
  8
0
  6
LTYPE1
 62
     2
 10
460.477536741
 20
613.58
 30
0.0
 11
465.477536741
 21
613.58
 31
0.0
  0
LINE
  8
0
  6
LTYPE1
 62
     2
 10
465.477536741
 20
610.58
 30
0.0
 11
465.477536741
 21
622.58
 31
0.0
  0
LINE
  8
0
  6
LTYPE1
 62
     2
 10
492.477536741
 20
575.58
 30
0.0
 11
492.477536741
 21
628.58
 31
0.0
  0
LINE
  8
0
  6
LTYPE1
 62
     2
 10
460.477536741
 20
575.58
 30
0.0
 11
492.477536741
 21
575.58
 31
0.0
  0
LINE
  8
0
  6
LTYPE1
 62
     2
 10
460.477536741
 20
575.58
 30
0.0
 11
460.477536741
 21
628.58
 31
0.0
  0
ARC
  8
0
  6
LTYPE1
 62
     2
 10
460.334219541
 20
588.58
 30
0.0
 40
9.3566828
 50
148.419912243
 51
211.580087757
  0
LINE
  8
0
  6
LTYPE1
 62
     2
 10
457.977536741
 20
578.78
 30
0.0
 11
452.363177387
 21
578.78
 31
0.0
  0
LINE
  8
0
  6
LTYPE1
 62
     2
 10
450.977536741
 20
581.18
 30
0.0
 11
452.363177387
 21
578.78
 31
0.0
  0
LINE
  8
0
  6
LTYPE1
 62
     2
 10
457.977536741
 20
583.68
 30
0.0
 11
452.363177387
 21
583.68
 31
0.0
  0
ARC
  8
0
  6
LTYPE1
 62
     2
 10
453.835420573
 20
581.23
 30
0.0
 40
2.858321186
 50
121.002313915
 51
182.989498403
  0
LINE
  8
0
  6
LTYPE1
 62
     2
 10
457.977536741
 20
588.58
 30
0.0
 11
457.977536741
 21
578.78
 31
0.0
  0
LINE
  8
0
  6
LTYPE1
 62
     2
 10
460.477536741
 20
579.38
 30
0.0
 11
457.977536741
 21
579.38
 31
0.0
  0
LINE
  8
0
  6
LTYPE1
 62
     2
 10
450.977536741
 20
588.58
 30
0.0
 11
450.977536741
 21
581.18
 31
0.0
  0
LINE
  8
0
  6
LTYPE1
 62
     2
 10
442.477536741
 20
584.58
 30
0.0
 11
450.977536741
 21
584.58
 31
0.0
  0
LINE
  8
0
  6
LTYPE1
 62
     2
 10
442.477536741
 20
585.58
 30
0.0
 11
450.977536741
 21
585.58
 31
0.0
  0
LINE
  8
0
  6
LTYPE1
 62
     2
 10
460.477536741
 20
588.58
 30
0.0
 11
457.977536745
 21
586.080000004
 31
0.0
  0
LINE
  8
0
  6
LTYPE1
 62
     2
 10
457.977536741
 20
598.38
 30
0.0
 11
452.363177387
 21
598.38
 31
0.0
  0
LINE
  8
0
  6
LTYPE1
 62
     2
 10
450.977536741
 20
595.98
 30
0.0
 11
452.363177387
 21
598.38
 31
0.0
  0
LINE
  8
0
  6
LTYPE1
 62
     2
 10
450.977536741
 20
595.98
 30
0.0
 11
452.363177387
 21
598.38
 31
0.0
  0
LINE
  8
0
  6
LTYPE1
 62
     2
 10
450.977536741
 20
588.58
 30
0.0
 11
450.977536741
 21
595.98
 31
0.0
  0
LINE
  8
0
  6
LTYPE1
 62
     2
 10
457.977536741
 20
593.48
 30
0.0
 11
452.363177387
 21
593.48
 31
0.0
  0
ARC
  8
0
  6
LTYPE1
 62
     2
 10
453.835420573
 20
595.93
 30
0.0
 40
2.858321186
 50
177.010501597
 51
238.997686085
  0
LINE
  8
0
  6
LTYPE1
 62
     2
 10
442.477536741
 20
592.58
 30
0.0
 11
450.977536741
 21
592.58
 31
0.0
  0
LINE
  8
0
  6
LTYPE1
 62
     2
 10
442.477536741
 20
591.58
 30
0.0
 11
450.977536741
 21
591.58
 31
0.0
  0
LINE
  8
0
  6
LTYPE1
 62
     2
 10
460.477536741
 20
597.78
 30
0.0
 11
457.977536741
 21
597.78
 31
0.0
  0
LINE
  8
0
  6
LTYPE1
 62
     2
 10
457.977536741
 20
588.58
 30
0.0
 11
457.977536741
 21
598.38
 31
0.0
  0
LINE
  8
0
  6
LTYPE1
 62
     2
 10
457.977536745
 20
588.58
 30
0.0
 11
460.477536741
 21
591.079999996
 31
0.0
  0
LINE
  8
0
  6
LTYPE1
 62
     2
 10
442.477536741
 20
584.58
 30
0.0
 11
442.477536741
 21
592.58
 31
0.0
  0
LINE
  8
0
  6
LTYPE2
 62
     2
 10
474.88031016
 20
588.58
 30
0.0
 11
1032.402528837
 21
588.58
 31
0.0
  0
LINE
  8
0
  6
CONTINUOUS
 62
     1
 10
478.977536741
 20
597.13
 30
0.0
 11
478.977536741
 21
581.13
 31
0.0
  0
LINE
  8
0
  6
CONTINUOUS
 62
     1
 10
478.977536741
 20
581.13
 30
0.0
 11
492.477536741
 21
581.13
 31
0.0
  0
LINE
  8
0
  6
CONTINUOUS
 62
     1
 10
478.977536741
 20
597.13
 30
0.0
 11
492.477536741
 21
597.13
 31
0.0
  0
LINE
  8
0
  6
CONTINUOUS
 62
     1
 10
525.827536741
 20
572.58
 30
0.0
 11
525.827536741
 21
604.58
 31
0.0
  0
LINE
  8
0
  6
LTYPE3
 62
     2
 10
513.477536741
 20
578.58
 30
0.0
 11
513.477536741
 21
598.58
 31
0.0
  0
LINE
  8
0
  6
CONTINUOUS
 62
     1
 10
534.477536741
 20
577.58
 30
0.0
 11
534.477536741
 21
599.58
 31
0.0
  0
LINE
  8
0
  6
CONTINUOUS
 62
     1
 10
501.127536741
 20
572.58
 30
0.0
 11
501.127536741
 21
604.58
 31
0.0
  0
LINE
  8
0
  6
CONTINUOUS
 62
     1
 10
492.477536741
 20
577.58
 30
0.0
 11
501.137790779
 21
572.58
 31
0.0
  0
LINE
  8
0
  6
CONTINUOUS
 62
     1
 10
501.127536741
 20
572.58
 30
0.0
 11
525.827536741
 21
572.58
 31
0.0
  0
LINE
  8
0
  6
CONTINUOUS
 62
     1
 10
534.477536741
 20
577.58
 30
0.0
 11
525.817282703
 21
572.58
 31
0.0
  0
LINE
  8
0
  6
CONTINUOUS
 62
     1
 10
492.477536741
 20
577.58
 30
0.0
 11
492.477536741
 21
599.58
 31
0.0
  0
LINE
  8
0
  6
CONTINUOUS
 62
     1
 10
534.477536741
 20
580.58
 30
0.0
 11
821.627536741
 21
580.58
 31
0.0
  0
LINE
  8
0
  6
CONTINUOUS
 62
     1
 10
534.477536741
 20
596.58
 30
0.0
 11
790.327536741
 21
596.58
 31
0.0
  0
CIRCLE
  8
0
  6
CONTINUOUS
 62
     2
 10
513.477536741
 20
588.58
 30
0.0
 40
5.0
  0
CIRCLE
  8
0
  6
CONTINUOUS
 62
     2
 10
513.477536741
 20
588.58
 30
0.0
 40
4.0
  0
LINE
  8
0
  6
CONTINUOUS
 62
     1
 10
492.477536741
 20
599.58
 30
0.0
 11
501.137790779
 21
604.58
 31
0.0
  0
LINE
  8
0
  6
CONTINUOUS
 62
     1
 10
501.127536741
 20
604.58
 30
0.0
 11
525.827536741
 21
604.58
 31
0.0
  0
LINE
  8
0
  6
CONTINUOUS
 62
     1
 10
534.477536741
 20
599.58
 30
0.0
 11
525.817282703
 21
604.58
 31
0.0
  0
LINE
  8
0
  6
CONTINUOUS
 62
     1
 10
772.627536741
 20
630.58
 30
0.0
 11
902.627536741
 21
630.58
 31
0.0
  0
LINE
  8
0
  6
CONTINUOUS
 62
     1
 10
772.627536741
 20
636.58
 30
0.0
 11
902.627536741
 21
636.58
 31
0.0
  0
LINE
  8
0
  6
CONTINUOUS
 62
     1
 10
790.327536741
 20
590.58
 30
0.0
 11
884.927536741
 21
590.58
 31
0.0
  0
LINE
  8
0
  6
CONTINUOUS
 62
     1
 10
790.327536741
 20
596.58
 30
0.0
 11
884.927536741
 21
596.58
 31
0.0
  0
LINE
  8
0
  6
LTYPE3
 62
     2
 10
805.627536741
 20
628.446025404
 30
0.0
 11
805.627536741
 21
761.446025404
 31
0.0
  0
LINE
  8
0
  6
CONTINUOUS
 62
     1
 10
798.627536741
 20
636.58
 30
0.0
 11
798.627536741
 21
681.08
 31
0.0
  0
LINE
  8
0
  6
CONTINUOUS
 62
     1
 10
812.627536741
 20
636.58
 30
0.0
 11
812.627536741
 21
681.08
 31
0.0
  0
LINE
  8
0
  6
CONTINUOUS
 62
     1
 10
816.227536741
 20
630.58
 30
0.0
 11
816.227536741
 21
590.58
 31
0.0
  0
LINE
  8
0
  6
CONTINUOUS
 62
     1
 10
790.327536741
 20
604.18
 30
0.0
 11
764.927536741
 21
604.18
 31
0.0
  0
LINE
  8
0
  6
CONTINUOUS
 62
     1
 10
790.327536741
 20
630.58
 30
0.0
 11
790.327536741
 21
590.58
 31
0.0
  0
LINE
  8
0
  6
LTYPE1
 62
     2
 10
821.327536741
 20
599.81
 30
0.0
 11
816.327536741
 21
599.81
 31
0.0
  0
LINE
  8
0
  6
LTYPE1
 62
     2
 10
821.327536741
 20
600.965
 30
0.0
 11
816.327536741
 21
600.965
 31
0.0
  0
LINE
  8
0
  6
CONTINUOUS
 62
     1
 10
772.627536741
 20
630.58
 30
0.0
 11
772.627536741
 21
636.58
 31
0.0
  0
LINE
  8
0
  6
CONTINUOUS
 62
     1
 10
790.327536741
 20
629.58
 30
0.0
 11
764.927536741
 21
629.58
 31
0.0
  0
LINE
  8
0
  6
LTYPE1
 62
     2
 10
821.327536741
 20
620.75
 30
0.0
 11
816.327536741
 21
620.75
 31
0.0
  0
LINE
  8
0
  6
LTYPE1
 62
     2
 10
821.327536741
 20
619.595
 30
0.0
 11
816.327536741
 21
619.595
 31
0.0
  0
LINE
  8
0
  6
LTYPE1
 62
     2
 10
821.327536741
 20
620.75
 30
0.0
 11
816.327536741
 21
620.75
 31
0.0
  0
LINE
  8
0
  6
LTYPE3
 62
     2
 10
812.902528837
 20
610.28
 30
0.0
 11
825.902528837
 21
610.28
 31
0.0
  0
LINE
  8
0
  6
CONTINUOUS
 62
     2
 10
804.727536741
 20
590.78
 30
0.0
 11
797.138782082
 21
580.847185559
 31
0.0
  0
LINE
  8
0
  6
CONTINUOUS
 62
     2
 10
804.727536741
 20
590.78
 30
0.0
 11
803.121889644
 21
578.383553033
 31
0.0
  0
LINE
  8
0
  6
CONTINUOUS
 62
     2
 10
804.727536741
 20
590.78
 30
0.0
 11
783.604007329
 21
539.48
 31
0.0
  0
TEXT
  8
0
  6
CONTINUOUS
 62
     2
 10
703.527536741
 20
544.48
 30
0.0
 40
15.0
  1
ＬＳユニット
 50
0.0
 41
0.9
 51
0.0
  7
KANJI59
  0
LINE
  8
0
  6
CONTINUOUS
 62
     2
 10
783.604007329
 20
539.48
 30
0.0
 11
703.527536741
 21
539.48
 31
0.0
  0
LINE
  8
0
  6
CONTINUOUS
 62
     1
 10
764.927536741
 20
629.58
 30
0.0
 11
764.927536741
 21
604.18
 31
0.0
  0
LINE
  8
0
  6
CONTINUOUS
 62
     1
 10
821.627536741
 20
575.58
 30
0.0
 11
853.627536741
 21
575.58
 31
0.0
  0
LINE
  8
0
  6
LTYPE1
 62
     2
 10
821.627536741
 20
582.58
 30
0.0
 11
853.927536741
 21
582.58
 31
0.0
  0
LINE
  8
0
  6
CONTINUOUS
 62
     1
 10
821.627536741
 20
575.58
 30
0.0
 11
821.627536741
 21
590.58
 31
0.0
  0
LINE
  8
0
  6
CONTINUOUS
 62
     1
 10
853.927536741
 20
582.58
 30
0.0
 11
919.902428837
 21
582.58
 31
0.0
  0
LINE
  8
0
  6
CONTINUOUS
 62
     1
 10
853.627536741
 20
575.58
 30
0.0
 11
853.627536741
 21
590.58
 31
0.0
  0
LINE
  8
0
  6
CONTINUOUS
 62
     1
 10
884.902528837
 20
594.58
 30
0.0
 11
919.902428837
 21
594.58
 31
0.0
  0
LINE
  8
0
  6
CONTINUOUS
 62
     1
 10
910.327536741
 20
629.58
 30
0.0
 11
910.327536741
 21
604.18
 31
0.0
  0
LINE
  8
0
  6
CONTINUOUS
 62
     1
 10
884.927536741
 20
629.58
 30
0.0
 11
910.327536741
 21
629.58
 31
0.0
  0
LINE
  8
0
  6
CONTINUOUS
 62
     1
 10
902.627536741
 20
630.58
 30
0.0
 11
902.627536741
 21
636.58
 31
0.0
  0
LINE
  8
0
  6
CONTINUOUS
 62
     1
 10
884.927536741
 20
604.18
 30
0.0
 11
910.327536741
 21
604.18
 31
0.0
  0
LINE
  8
0
  6
CONTINUOUS
 62
     1
 10
884.927536741
 20
630.58
 30
0.0
 11
884.927536741
 21
590.58
 31
0.0
  0
LINE
  8
0
  6
LTYPE2
 62
     2
 10
894.627536741
 20
615.7675
 30
0.0
 11
894.627536741
 21
575.78
 31
0.0
  0
LINE
  8
0
  6
LTYPE3
 62
     2
 10
869.627536741
 20
627.446025404
 30
0.0
 11
869.627536741
 21
762.446025404
 31
0.0
  0
LINE
  8
0
  6
CONTINUOUS
 62
     1
 10
876.627536741
 20
636.58
 30
0.0
 11
876.627536741
 21
681.08
 31
0.0
  0
LINE
  8
0
  6
CONTINUOUS
 62
     1
 10
862.627536741
 20
636.58
 30
0.0
 11
862.627536741
 21
681.08
 31
0.0
  0
LINE
  8
0
  6
CONTINUOUS
 62
     1
 10
812.627536741
 20
659.08
 30
0.0
 11
798.627536741
 21
659.08
 31
0.0
  0
LINE
  8
0
  6
CONTINUOUS
 62
     1
 10
876.627536741
 20
659.08
 30
0.0
 11
862.627536741
 21
659.08
 31
0.0
  0
LINE
  8
0
  6
LTYPE1
 62
     2
 10
919.902428837
 20
582.58
 30
0.0
 11
961.902428837
 21
582.58
 31
0.0
  0
LINE
  8
0
  6
LTYPE1
 62
     2
 10
919.902428837
 20
594.58
 30
0.0
 11
961.902428837
 21
594.58
 31
0.0
  0
CIRCLE
  8
0
  6
CONTINUOUS
 62
     2
 10
940.902428837
 20
588.58
 30
0.0
 40
5.0
  0
CIRCLE
  8
0
  6
CONTINUOUS
 62
     2
 10
940.902428837
 20
588.58
 30
0.0
 40
4.0
  0
LINE
  8
0
  6
LTYPE2
 62
     2
 10
940.902428837
 20
578.58
 30
0.0
 11
940.902428837
 21
598.58
 31
0.0
  0
LINE
  8
0
  6
CONTINUOUS
 62
     1
 10
919.902428837
 20
599.58
 30
0.0
 11
928.562682875
 21
604.58
 31
0.0
  0
LINE
  8
0
  6
CONTINUOUS
 62
     1
 10
919.902428837
 20
577.58
 30
0.0
 11
919.902428837
 21
599.58
 31
0.0
  0
LINE
  8
0
  6
CONTINUOUS
 62
     1
 10
928.552428837
 20
604.58
 30
0.0
 11
953.252428837
 21
604.58
 31
0.0
  0
LINE
  8
0
  6
CONTINUOUS
 62
     1
 10
928.552428837
 20
572.58
 30
0.0
 11
928.552428837
 21
604.58
 31
0.0
  0
LINE
  8
0
  6
CONTINUOUS
 62
     1
 10
928.552428837
 20
572.58
 30
0.0
 11
953.252428837
 21
572.58
 31
0.0
  0
LINE
  8
0
  6
CONTINUOUS
 62
     1
 10
919.902428837
 20
577.58
 30
0.0
 11
928.562682875
 21
572.58
 31
0.0
  0
LINE
  8
0
  6
CONTINUOUS
 62
     1
 10
961.902428837
 20
582.58
 30
0.0
 11
977.402528837
 21
582.58
 31
0.0
  0
LINE
  8
0
  6
CONTINUOUS
 62
     1
 10
961.902428837
 20
594.58
 30
0.0
 11
977.402528837
 21
594.58
 31
0.0
  0
LINE
  8
0
  6
CONTINUOUS
 62
     1
 10
961.902428837
 20
577.58
 30
0.0
 11
961.902428837
 21
599.58
 31
0.0
  0
LINE
  8
0
  6
CONTINUOUS
 62
     1
 10
953.252428837
 20
572.58
 30
0.0
 11
953.252428837
 21
604.58
 31
0.0
  0
LINE
  8
0
  6
CONTINUOUS
 62
     1
 10
961.902428837
 20
599.58
 30
0.0
 11
953.242174799
 21
604.58
 31
0.0
  0
LINE
  8
0
  6
CONTINUOUS
 62
     1
 10
961.902428837
 20
577.58
 30
0.0
 11
953.242174799
 21
572.58
 31
0.0
  0
LINE
  8
0
  6
CONTINUOUS
 62
     1
 10
977.402528837
 20
575.58
 30
0.0
 11
977.402528837
 21
741.58
 31
0.0
  0
LINE
  8
0
  6
CONTINUOUS
 62
     1
 10
993.402528837
 20
706.58
 30
0.0
 11
993.402528837
 21
575.58
 31
0.0
  0
LINE
  8
0
  6
CONTINUOUS
 62
     1
 10
1000.902428837
 20
594.23878
 30
0.0
 11
999.842829435
 21
596.07406
 31
0.0
  0
LINE
  8
0
  6
CONTINUOUS
 62
     1
 10
1000.902428837
 20
588.58
 30
0.0
 11
1000.902428837
 21
594.23878
 31
0.0
  0
LINE
  8
0
  6
CONTINUOUS
 62
     1
 10
1000.902428837
 20
582.92122
 30
0.0
 11
999.842829435
 21
581.08594
 31
0.0
  0
LINE
  8
0
  6
CONTINUOUS
 62
     1
 10
1000.902428837
 20
588.58
 30
0.0
 11
1000.902428837
 21
582.92122
 31
0.0
  0
ARC
  8
0
  6
CONTINUOUS
 62
     1
 10
993.7473735
 20
588.58
 30
0.0
 40
7.155055337
 50
328.419912243
 51
31.580087757
  0
ARC
  8
0
  6
CONTINUOUS
 62
     1
 10
998.71700507
 20
594.200545
 30
0.0
 40
2.185758211
 50
301.002313915
 51
2.989498403
  0
LINE
  8
0
  6
CONTINUOUS
 62
     1
 10
1000.902428837
 20
582.92122
 30
0.0
 11
999.842829435
 21
581.08594
 31
0.0
  0
ARC
  8
0
  6
CONTINUOUS
 62
     1
 10
998.71700507
 20
582.959455
 30
0.0
 40
2.185758211
 50
357.010501597
 51
58.997686085
  0
LINE
  8
0
  6
CONTINUOUS
 62
     1
 10
995.402528837
 20
596.07406
 30
0.0
 11
999.842829435
 21
596.07406
 31
0.0
  0
LINE
  8
0
  6
CONTINUOUS
 62
     1
 10
995.402528837
 20
592.32703
 30
0.0
 11
999.842829435
 21
592.32703
 31
0.0
  0
LINE
  8
0
  6
CONTINUOUS
 62
     1
 10
995.402528837
 20
584.83297
 30
0.0
 11
999.842829435
 21
584.83297
 31
0.0
  0
LINE
  8
0
  6
CONTINUOUS
 62
     1
 10
995.402528837
 20
581.08594
 30
0.0
 11
999.842829435
 21
581.08594
 31
0.0
  0
LINE
  8
0
  6
CONTINUOUS
 62
     1
 10
993.402528837
 20
588.58
 30
0.0
 11
995.402528749
 21
590.579999912
 31
0.0
  0
LINE
  8
0
  6
CONTINUOUS
 62
     1
 10
995.402528837
 20
588.58
 30
0.0
 11
993.402528925
 21
586.580000088
 31
0.0
  0
LINE
  8
0
  6
CONTINUOUS
 62
     1
 10
993.402528837
 20
596.28
 30
0.0
 11
995.402528837
 21
596.28
 31
0.0
  0
LINE
  8
0
  6
CONTINUOUS
 62
     1
 10
995.402528837
 20
588.58
 30
0.0
 11
995.402528837
 21
596.28
 31
0.0
  0
LINE
  8
0
  6
CONTINUOUS
 62
     1
 10
995.402528837
 20
588.58
 30
0.0
 11
995.402528837
 21
580.88
 31
0.0
  0
LINE
  8
0
  6
CONTINUOUS
 62
     1
 10
993.402528837
 20
580.88
 30
0.0
 11
995.402528837
 21
580.88
 31
0.0
  0
LINE
  8
0
  6
CONTINUOUS
 62
     1
 10
1005.902428837
 20
588.58
 30
0.0
 11
1005.902428837
 21
584.58
 31
0.0
  0
LINE
  8
0
  6
CONTINUOUS
 62
     1
 10
1000.902428837
 20
585.58
 30
0.0
 11
1005.902428837
 21
585.58
 31
0.0
  0
LINE
  8
0
  6
CONTINUOUS
 62
     1
 10
1000.902428837
 20
584.58
 30
0.0
 11
1005.902428837
 21
584.58
 31
0.0
  0
LINE
  8
0
  6
CONTINUOUS
 62
     1
 10
1005.902428837
 20
588.58
 30
0.0
 11
1005.902428837
 21
592.58
 31
0.0
  0
LINE
  8
0
  6
CONTINUOUS
 62
     1
 10
1000.902428837
 20
591.58
 30
0.0
 11
1005.902428837
 21
591.58
 31
0.0
  0
LINE
  8
0
  6
CONTINUOUS
 62
     1
 10
1000.902428837
 20
592.58
 30
0.0
 11
1005.902428837
 21
592.58
 31
0.0
  0
LINE
  8
0
  6
CONTINUOUS
 62
     1
 10
977.402528837
 20
575.58
 30
0.0
 11
993.402528837
 21
575.58
 31
0.0
  0
LINE
  8
0
  6
CONTINUOUS
 62
     1
 10
977.402528837
 20
741.58
 30
0.0
 11
993.402528837
 21
741.58
 31
0.0
  0
LINE
  8
0
  6
CONTINUOUS
 62
     1
 10
865.627536741
 20
681.08
 30
0.0
 11
865.627536741
 21
755.58001079
 31
0.0
  0
LINE
  8
0
  6
CONTINUOUS
 62
     1
 10
873.627536741
 20
681.08
 30
0.0
 11
873.627536741
 21
755.58001079
 31
0.0
  0
ARC
  8
0
  6
CONTINUOUS
 62
     1
 10
869.627536741
 20
755.58
 30
0.0
 40
4.0
 50
0.00015455
 51
179.99984545
  0
ARC
  8
0
  6
CONTINUOUS
 62
     1
 10
805.627536741
 20
755.58
 30
0.0
 40
4.0
 50
0.00015455
 51
179.99984545
  0
LINE
  8
0
  6
CONTINUOUS
 62
     1
 10
809.627536741
 20
681.08
 30
0.0
 11
809.627536741
 21
755.58001079
 31
0.0
  0
LINE
  8
0
  6
CONTINUOUS
 62
     1
 10
801.627536741
 20
681.08
 30
0.0
 11
801.627536741
 21
755.58001079
 31
0.0
  0
LINE
  8
0
  6
CONTINUOUS
 62
     1
 10
812.627536741
 20
681.08
 30
0.0
 11
798.627536741
 21
681.08
 31
0.0
  0
LINE
  8
0
  6
CONTINUOUS
 62
     1
 10
876.627536741
 20
681.08
 30
0.0
 11
862.627536741
 21
681.08
 31
0.0
  0
LINE
  8
0
  6
CONTINUOUS
 62
     1
 10
873.627536741
 20
752.08
 30
0.0
 11
948.402528837
 21
752.08
 31
0.0
  0
LINE
  8
0
  6
CONTINUOUS
 62
     1
 10
948.402528837
 20
662.03
 30
0.0
 11
876.627536741
 21
662.03
 31
0.0
  0
LINE
  8
0
  6
CONTINUOUS
 62
     1
 10
865.627536741
 20
751.13
 30
0.0
 11
809.627536741
 21
751.13
 31
0.0
  0
LINE
  8
0
  6
CONTINUOUS
 62
     1
 10
862.627536741
 20
662.03
 30
0.0
 11
812.627536741
 21
662.03
 31
0.0
  0
LINE
  8
0
  6
CONTINUOUS
 62
     1
 10
798.627536741
 20
662.03
 30
0.0
 11
576.902528837
 21
662.03
 31
0.0
  0
LINE
  8
0
  6
CONTINUOUS
 62
     1
 10
801.627536741
 20
751.13
 30
0.0
 11
576.902528837
 21
751.13
 31
0.0
  0
POLYLINE
  8
0
  6
CONTINUOUS
 62
     2
 66
     1
  0
VERTEX
  8
0
  6
CONTINUOUS
 62
     2
 10
626.702528837
 20
662.03
 30
0.0
  0
VERTEX
  8
0
  6
CONTINUOUS
 62
     2
 10
626.702528837
 20
751.13
 30
0.0
  0
VERTEX
  8
0
  6
CONTINUOUS
 62
     2
 10
629.937766901
 20
739.055927171
 30
0.0
  0
SEQEND
  0
LINE
  8
0
  6
CONTINUOUS
 62
     2
 10
626.702528837
 20
751.13
 30
0.0
 11
623.467290773
 21
739.055927171
 31
0.0
  0
LINE
  8
0
  6
CONTINUOUS
 62
     2
 10
626.702528837
 20
662.03
 30
0.0
 11
623.467290773
 21
674.104072829
 31
0.0
  0
LINE
  8
0
  6
CONTINUOUS
 62
     2
 10
626.702528837
 20
662.03
 30
0.0
 11
629.937766901
 21
674.104072829
 31
0.0
  0
LINE
  8
0
  6
LTYPE2
 62
     2
 10
629.702528837
 20
706.58
 30
0.0
 11
1061.202528837
 21
706.58
 31
0.0
  0
LINE
  8
0
  6
CONTINUOUS
 62
     1
 10
607.902528837
 20
596.58
 30
0.0
 11
607.902528837
 21
635.08
 31
0.0
  0
LINE
  8
0
  6
CONTINUOUS
 62
     1
 10
478.902528837
 20
596.58
 30
0.0
 11
478.902528837
 21
636.08
 31
0.0
  0
TEXT
  8
0
  6
CONTINUOUS
 62
     3
 10
973.902528837
 20
468.057648662
 30
1.5
 40
15.0
  1
Ｐ
 50
0.0
 41
0.9
 51
0.0
  7
KANJI52
  0
TEXT
  8
2
  6
CONTINUOUS
 62
     3
 10
950.552528837
 20
488.08
 30
-1.8
 40
17.5
  1
ｍｉｎ　
 50
0.0
 41
0.914285714
 51
0.0
  7
KANJI60
  0
LINE
  8
0
  6
CONTINUOUS
 62
     1
 10
821.627536741
 20
219.68
 30
0.0
 11
853.627536741
 21
219.68
 31
0.0
  0
LINE
  8
0
  6
CONTINUOUS
 62
     1
 10
821.627536741
 20
187.68
 30
0.0
 11
821.627536741
 21
219.68
 31
0.0
  0
ARC
  8
0
  6
CONTINUOUS
 62
     1
 10
782.627536741
 20
276.18
 30
0.0
 40
10.0
 50
90.0
 51
180.0
  0
LINE
  8
0
  6
CONTINUOUS
 62
     1
 10
782.627536741
 20
286.18
 30
0.0
 11
892.627536741
 21
286.18
 31
0.0
  0
LINE
  8
0
  6
LTYPE2
 62
     2
 10
903.888557958
 20
261.68
 30
0.0
 11
812.627536741
 21
261.68
 31
0.0
  0
LINE
  8
7
  6
CONTINUOUS
 62
     2
 10
816.227536741
 20
261.68
 30
0.0
 11
807.919058851
 21
256.115002681
 31
0.0
  0
LINE
  8
7
  6
CONTINUOUS
 62
     2
 10
816.227536741
 20
261.68
 30
0.0
 11
811.814682481
 21
252.706332005
 31
0.0
  0
LINE
  8
7
  6
CONTINUOUS
 62
     2
 10
816.227536741
 20
261.68
 30
0.0
 11
805.027536741
 21
248.88
 31
0.0
  0
LINE
  8
7
  6
CONTINUOUS
 62
     2
 10
805.027536741
 20
248.88
 30
0.0
 11
746.227536741
 21
248.88
 31
0.0
  0
TEXT
  8
7
  6
CONTINUOUS
 62
     2
 10
746.227536741
 20
252.88
 30
1.2
 40
12.0
  1
ＰＦ１／２
 50
0.0
 41
0.9
 51
0.0
  7
KANJI61
  0
LINE
  8
0
  6
CONTINUOUS
 62
     1
 10
772.627536741
 20
265.88
 30
0.0
 11
772.627536741
 21
276.18
 31
0.0
  0
LINE
  8
0
  6
CONTINUOUS
 62
     1
 10
772.627536741
 20
211.68
 30
0.0
 11
772.627536741
 21
245.88
 31
0.0
  0
LINE
  8
0
  6
LTYPE2
 62
     2
 10
827.667536741
 20
276.78
 30
0.0
 11
816.227536741
 21
276.78
 31
0.0
  0
LINE
  8
0
  6
LTYPE2
 62
     2
 10
821.227536741
 20
280.68
 30
0.0
 11
821.227536741
 21
271.7
 31
0.0
  0
LINE
  8
0
  6
CONTINUOUS
 62
     1
 10
882.927536741
 20
281.68
 30
0.0
 11
818.227536741
 21
281.68
 31
0.0
  0
LINE
  8
0
  6
CONTINUOUS
 62
     1
 10
816.227536741
 20
279.68
 30
0.0
 11
816.227536741
 21
243.68
 31
0.0
  0
ARC
  8
0
  6
CONTINUOUS
 62
     1
 10
818.227536741
 20
279.68
 30
0.0
 40
2.0
 50
90.0
 51
180.0
  0
LINE
  8
0
  6
LTYPE2
 62
     2
 10
827.127536741
 20
246.58
 30
0.0
 11
816.227536741
 21
246.58
 31
0.0
  0
LINE
  8
0
  6
LTYPE2
 62
     2
 10
821.227536741
 20
252.6
 30
0.0
 11
821.227536741
 21
242.68
 31
0.0
  0
LINE
  8
0
  6
CONTINUOUS
 62
     1
 10
882.927536741
 20
241.68
 30
0.0
 11
818.227536741
 21
241.68
 31
0.0
  0
ARC
  8
0
  6
CONTINUOUS
 62
     1
 10
818.227536741
 20
243.68
 30
0.0
 40
2.0
 50
180.0
 51
270.0
  0
LINE
  8
0
  6
CONTINUOUS
 62
     2
 10
776.627536741
 20
286.18
 30
0.0
 11
715.445035361
 21
286.18
 31
0.0
  0
LINE
  8
0
  6
CONTINUOUS
 62
     2
 10
721.445035361
 20
286.18
 30
0.0
 11
718.33920682
 21
274.588890085
 31
0.0
  0
LINE
  8
0
  6
CONTINUOUS
 62
     2
 10
721.445035361
 20
286.18
 30
0.0
 11
724.550863903
 21
274.588890085
 31
0.0
  0
LINE
  8
0
  6
CONTINUOUS
 62
     2
 10
721.445035361
 20
286.18
 30
0.0
 11
721.445035361
 21
121.18
 31
0.0
  0
TEXT
  8
0
  6
CONTINUOUS
 62
     3
 10
718.445035361
 20
179.38
 30
0.0
 40
18.0
  1
１６５
 50
90.0
 41
0.9
 51
0.0
  7
KANJI13
  0
LINE
  8
0
  6
CONTINUOUS
 62
     1
 10
853.627536741
 20
187.68
 30
0.0
 11
821.627536741
 21
187.68
 31
0.0
  0
ARC
  8
0
  6
CONTINUOUS
 62
     1
 10
780.627536741
 20
183.68
 30
0.0
 40
4.0
 50
356.983042101
 51
183.016952287
  0
ARC
  8
0
  6
CONTINUOUS
 62
     1
 10
780.627536741
 20
183.68
 30
0.0
 40
8.75
 50
300.219855722
 51
239.780144278
  0
LINE
  8
0
  6
LTYPE2
 62
     2
 10
780.627536741
 20
136.58
 30
0.0
 11
780.627536741
 21
194.08
 31
0.0
  0
LINE
  8
0
  6
CONTINUOUS
 62
     1
 10
772.627536741
 20
195.68
 30
0.0
 11
772.627536741
 21
187.22436172
 31
0.0
  0
LINE
  8
0
  6
CONTINUOUS
 62
     1
 10
756.248479724
 20
195.68
 30
0.0
 11
821.627536741
 21
195.68
 31
0.0
  0
LINE
  8
0
  6
CONTINUOUS
 62
     1
 10
821.627536741
 20
211.68
 30
0.0
 11
756.318114703
 21
211.68
 31
0.0
  0
ARC
  8
0
  6
CONTINUOUS
 62
     1
 10
761.873005319
 20
207.68
 30
0.0
 40
6.845203412
 50
144.242860688
 51
215.757139312
  0
ARC
  8
0
  6
CONTINUOUS
 62
     1
 10
750.763224088
 20
207.68
 30
0.0
 40
6.845203412
 50
324.242860688
 51
35.757139312
  0
ARC
  8
0
  6
CONTINUOUS
 62
     1
 10
750.763224088
 20
199.68
 30
0.0
 40
6.845203412
 50
324.242860688
 51
35.757139312
  0
LINE
  8
0
  6
LTYPE3
 62
     2
 10
986.127536741
 20
203.68
 30
0.0
 11
751.283297214
 21
203.68
 31
0.0
  0
LINE
  8
0
  6
CONTINUOUS
 62
     1
 10
902.627536741
 20
274.38
 30
0.0
 11
902.627536741
 21
276.18
 31
0.0
  0
ARC
  8
0
  6
CONTINUOUS
 62
     1
 10
892.627536741
 20
276.18
 30
0.0
 40
10.0
 50
0.0
 51
90.0
  0
LINE
  8
0
  6
CONTINUOUS
 62
     1
 10
853.627536741
 20
187.68
 30
0.0
 11
853.627536741
 21
219.68
 31
0.0
  0
LINE
  8
0
  6
CONTINUOUS
 62
     1
 10
902.627536741
 20
227.22436172
 30
0.0
 11
902.627536741
 21
249.03
 31
0.0
  0
LINE
  8
0
  6
CONTINUOUS
 62
     1
 10
902.627536741
 20
211.68
 30
0.0
 11
902.627536741
 21
220.13563828
 31
0.0
  0
LINE
  8
0
  6
CONTINUOUS
 62
     1
 10
902.627536741
 20
195.68
 30
0.0
 11
902.627536741
 21
174.88
 31
0.0
  0
LINE
  8
0
  6
LTYPE2
 62
     2
 10
884.927536741
 20
276.78
 30
0.0
 11
874.967536741
 21
276.78
 31
0.0
  0
LINE
  8
0
  6
LTYPE2
 62
     2
 10
879.927536741
 20
280.68
 30
0.0
 11
879.927536741
 21
272.8
 31
0.0
  0
ARC
  8
0
  6
CONTINUOUS
 62
     1
 10
882.927536741
 20
279.68
 30
0.0
 40
2.0
 50
0.0
 51
90.0
  0
LINE
  8
0
  6
CONTINUOUS
 62
     1
 10
908.327536741
 20
274.38
 30
0.0
 11
884.927536741
 21
274.38
 31
0.0
  0
LINE
  8
0
  6
CONTINUOUS
 62
     1
 10
884.927536741
 20
279.68
 30
0.0
 11
884.927536741
 21
243.68
 31
0.0
  0
LINE
  8
0
  6
LTYPE2
 62
     2
 10
884.927536741
 20
246.58
 30
0.0
 11
875.127536741
 21
246.58
 31
0.0
  0
LINE
  8
0
  6
LTYPE2
 62
     2
 10
879.927536741
 20
252.7
 30
0.0
 11
879.927536741
 21
242.68
 31
0.0
  0
ARC
  8
0
  6
CONTINUOUS
 62
     1
 10
882.927536741
 20
243.68
 30
0.0
 40
2.0
 50
270.0
 51
0.0
  0
LINE
  8
0
  6
CONTINUOUS
 62
     1
 10
889.288557958
 20
248.98
 30
0.0
 11
884.927536741
 21
248.98
 31
0.0
  0
ARC
  8
0
  6
CONTINUOUS
 62
     1
 10
908.327536741
 20
272.38
 30
0.0
 40
2.0
 50
0.0
 51
90.0
  0
LINE
  8
0
  6
CONTINUOUS
 62
     1
 10
910.327536741
 20
272.38
 30
0.0
 11
910.327536741
 21
250.98
 31
0.0
  0
ARC
  8
0
  6
CONTINUOUS
 62
     1
 10
894.627536741
 20
261.68
 30
0.0
 40
6.0
 50
356.983045121
 51
183.016954879
  0
LINE
  8
0
  6
LTYPE2
 62
     2
 10
894.627536741
 20
270.78
 30
0.0
 11
894.627536741
 21
213.28
 31
0.0
  0
LINE
  8
0
  6
CONTINUOUS
 62
     1
 10
900.619220728
 20
261.364210526
 30
0.0
 11
898.621992732
 21
223.469473684
 31
0.0
  0
LINE
  8
0
  6
CONTINUOUS
 62
     1
 10
888.635852753
 20
261.364210526
 30
0.0
 11
890.633080749
 21
223.469473684
 31
0.0
  0
ARC
  8
0
  6
CONTINUOUS
 62
     1
 10
908.327536741
 20
250.98
 30
0.0
 40
2.0
 50
270.0
 51
0.0
  0
LINE
  8
0
  6
CONTINUOUS
 62
     1
 10
908.327536741
 20
248.98
 30
0.0
 11
899.966515524
 21
248.98
 31
0.0
  0
LINE
  8
0
  6
LTYPE2
 62
     2
 10
883.627536741
 20
223.68
 30
0.0
 11
906.627536741
 21
223.68
 31
0.0
  0
ARC
  8
0
  6
CONTINUOUS
 62
     1
 10
894.627536741
 20
223.68
 30
0.0
 40
8.75
 50
120.219855722
 51
59.780144278
  0
ARC
  8
0
  6
CONTINUOUS
 62
     1
 10
894.627536741
 20
223.68
 30
0.0
 40
4.0
 50
176.983042101
 51
3.016952287
  0
LINE
  8
0
  6
CONTINUOUS
 62
     2
 10
992.302536741
 20
332.93
 30
0.0
 11
992.302536741
 21
163.18
 31
0.0
  0
LINE
  8
0
  6
CONTINUOUS
 62
     2
 10
992.302536741
 20
163.18
 30
0.0
 11
1031.302536741
 21
163.18
 31
0.0
  0
LINE
  8
0
  6
LTYPE2
 62
     2
 10
790.327536741
 20
130.58
 30
0.0
 11
800.287536741
 21
130.58
 31
0.0
  0
LINE
  8
0
  6
LTYPE2
 62
     2
 10
795.327536741
 20
126.68
 30
0.0
 11
795.327536741
 21
134.56
 31
0.0
  0
LINE
  8
0
  6
LTYPE2
 62
     2
 10
790.327536741
 20
160.78
 30
0.0
 11
800.127536741
 21
160.78
 31
0.0
  0
LINE
  8
0
  6
LTYPE2
 62
     2
 10
795.327536741
 20
154.66
 30
0.0
 11
795.327536741
 21
164.68
 31
0.0
  0
LINE
  8
0
  6
LTYPE2
 62
     2
 10
791.627536741
 20
183.68
 30
0.0
 11
768.627536741
 21
183.68
 31
0.0
  0
ARC
  8
0
  6
CONTINUOUS
 62
     1
 10
792.327536741
 20
127.68
 30
0.0
 40
2.0
 50
180.0
 51
270.0
  0
LINE
  8
0
  6
CONTINUOUS
 62
     1
 10
766.927536741
 20
132.98
 30
0.0
 11
790.327536741
 21
132.98
 31
0.0
  0
ARC
  8
0
  6
CONTINUOUS
 62
     1
 10
766.927536741
 20
134.98
 30
0.0
 40
2.0
 50
180.0
 51
270.0
  0
LINE
  8
0
  6
CONTINUOUS
 62
     1
 10
764.927536741
 20
134.98
 30
0.0
 11
764.927536741
 21
156.38
 31
0.0
  0
ARC
  8
0
  6
CONTINUOUS
 62
     1
 10
766.927536741
 20
156.38
 30
0.0
 40
2.0
 50
90.0
 51
180.0
  0
LINE
  8
0
  6
CONTINUOUS
 62
     1
 10
790.327536741
 20
127.68
 30
0.0
 11
790.327536741
 21
163.68
 31
0.0
  0
ARC
  8
0
  6
CONTINUOUS
 62
     1
 10
792.327536741
 20
163.68
 30
0.0
 40
2.0
 50
90.0
 51
180.0
  0
LINE
  8
0
  6
CONTINUOUS
 62
     1
 10
792.327536741
 20
165.68
 30
0.0
 11
857.027536741
 21
165.68
 31
0.0
  0
LINE
  8
0
  6
CONTINUOUS
 62
     1
 10
792.327536741
 20
125.68
 30
0.0
 11
857.027536741
 21
125.68
 31
0.0
  0
LINE
  8
0
  6
CONTINUOUS
 62
     1
 10
772.627536741
 20
132.98
 30
0.0
 11
772.627536741
 21
131.18
 31
0.0
  0
LINE
  8
0
  6
CONTINUOUS
 62
     1
 10
892.627536741
 20
121.18
 30
0.0
 11
782.627536741
 21
121.18
 31
0.0
  0
ARC
  8
0
  6
CONTINUOUS
 62
     1
 10
782.627536741
 20
131.18
 30
0.0
 40
10.0
 50
180.0
 51
270.0
  0
LINE
  8
0
  6
CONTINUOUS
 62
     1
 10
774.635852753
 20
145.995789474
 30
0.0
 11
776.633080749
 21
183.890526316
 31
0.0
  0
LINE
  8
0
  6
CONTINUOUS
 62
     1
 10
786.619220728
 20
145.995789474
 30
0.0
 11
784.621992732
 21
183.890526316
 31
0.0
  0
ARC
  8
0
  6
CONTINUOUS
 62
     1
 10
780.627536741
 20
145.68
 30
0.0
 40
6.0
 50
176.983045121
 51
3.016954879
  0
LINE
  8
0
  6
CONTINUOUS
 62
     1
 10
785.966515524
 20
158.38
 30
0.0
 11
790.327536741
 21
158.38
 31
0.0
  0
LINE
  8
0
  6
CONTINUOUS
 62
     1
 10
766.927536741
 20
158.38
 30
0.0
 11
775.288557958
 21
158.38
 31
0.0
  0
LINE
  8
0
  6
LTYPE2
 62
     2
 10
771.366515524
 20
145.68
 30
0.0
 11
862.627536741
 21
145.68
 31
0.0
  0
LINE
  8
0
  6
CONTINUOUS
 62
     1
 10
772.627536741
 20
180.13563828
 30
0.0
 11
772.627536741
 21
158.33
 31
0.0
  0
LINE
  8
0
  6
LTYPE2
 62
     2
 10
848.127536741
 20
160.78
 30
0.0
 11
859.027536741
 21
160.78
 31
0.0
  0
LINE
  8
0
  6
LTYPE2
 62
     2
 10
854.027536741
 20
154.76
 30
0.0
 11
854.027536741
 21
164.68
 31
0.0
  0
LINE
  8
0
  6
LTYPE2
 62
     2
 10
847.587536741
 20
130.58
 30
0.0
 11
859.027536741
 21
130.58
 31
0.0
  0
LINE
  8
0
  6
LTYPE2
 62
     2
 10
854.027536741
 20
126.68
 30
0.0
 11
854.027536741
 21
135.66
 31
0.0
  0
ARC
  8
0
  6
CONTINUOUS
 62
     1
 10
857.027536741
 20
163.68
 30
0.0
 40
2.0
 50
0.0
 51
90.0
  0
LINE
  8
0
  6
CONTINUOUS
 62
     1
 10
859.027536741
 20
127.68
 30
0.0
 11
859.027536741
 21
163.68
 31
0.0
  0
ARC
  8
0
  6
CONTINUOUS
 62
     1
 10
857.027536741
 20
127.68
 30
0.0
 40
2.0
 50
270.0
 51
0.0
  0
ARC
  8
0
  6
CONTINUOUS
 62
     1
 10
892.627536741
 20
131.18
 30
0.0
 40
10.0
 50
270.0
 51
0.0
  0
LINE
  8
0
  6
LTYPE3
 62
     2
 10
934.127536741
 20
193.68
 30
0.0
 11
934.127536741
 21
213.68
 31
0.0
  0
CIRCLE
  8
0
  6
CONTINUOUS
 62
     2
 10
934.127536741
 20
203.68
 30
0.0
 40
5.0
  0
CIRCLE
  8
0
  6
CONTINUOUS
 62
     2
 10
934.127536741
 20
203.68
 30
0.0
 40
4.0
  0
LINE
  8
7
  6
CONTINUOUS
 62
     2
 10
859.027536741
 20
145.68
 30
0.0
 11
867.394844325
 21
151.156144975
 31
0.0
  0
LINE
  8
7
  6
CONTINUOUS
 62
     2
 10
859.027536741
 20
145.68
 30
0.0
 11
863.535765183
 21
154.606134455
 31
0.0
  0
LINE
  8
7
  6
CONTINUOUS
 62
     2
 10
859.027536741
 20
145.68
 30
0.0
 11
871.677536741
 21
159.83
 31
0.0
  0
LINE
  8
7
  6
CONTINUOUS
 62
     2
 10
871.677536741
 20
159.83
 30
0.0
 11
930.477536741
 21
159.83
 31
0.0
  0
TEXT
  8
7
  6
CONTINUOUS
 62
     2
 10
871.677536741
 20
163.83
 30
1.2
 40
12.0
  1
ＰＦ１／２
 50
0.0
 41
0.9
 51
0.0
  7
KANJI61
  0
LINE
  8
0
  6
CONTINUOUS
 62
     1
 10
902.627536741
 20
156.88
 30
0.0
 11
902.627536741
 21
131.18
 31
0.0
  0
LINE
  8
0
  6
CONTINUOUS
 62
     2
 10
721.445035361
 20
121.18
 30
0.0
 11
724.550863903
 21
132.771109915
 31
0.0
  0
LINE
  8
0
  6
CONTINUOUS
 62
     2
 10
721.445035361
 20
121.18
 30
0.0
 11
718.33920682
 21
132.771109915
 31
0.0
  0
LINE
  8
0
  6
CONTINUOUS
 62
     2
 10
776.62754753
 20
121.18
 30
0.0
 11
715.445035361
 21
121.18
 31
0.0
  0
LINE
  8
0
  6
CONTINUOUS
 62
     2
 10
772.627536741
 20
126.98
 30
0.0
 11
772.627536741
 21
82.18
 31
0.0
  0
LINE
  8
0
  6
CONTINUOUS
 62
     2
 10
902.627536741
 20
125.180010093
 30
0.0
 11
902.627536741
 21
82.18
 31
0.0
  0
TEXT
  8
0
  6
CONTINUOUS
 62
     3
 10
813.327536741
 20
91.18
 30
0.0
 40
18.0
  1
１３０
 50
0.0
 41
0.9
 51
0.0
  7
KANJI13
  0
ARC
  8
0
  6
CONTINUOUS
 62
     1
 10
975.882068163
 20
207.68
 30
0.0
 40
6.845203412
 50
324.242860688
 51
35.757139312
  0
ARC
  8
0
  6
CONTINUOUS
 62
     1
 10
986.991849393
 20
207.68
 30
0.0
 40
6.845203412
 50
144.242860688
 51
215.757139312
  0
ARC
  8
0
  6
CONTINUOUS
 62
     1
 10
986.991849393
 20
199.68
 30
0.0
 40
6.845203412
 50
144.242860688
 51
215.757139312
  0
LINE
  8
0
  6
CONTINUOUS
 62
     2
 10
772.627536741
 20
88.18
 30
0.0
 11
784.218646656
 21
85.074171459
 31
0.0
  0
LINE
  8
0
  6
CONTINUOUS
 62
     2
 10
772.627536741
 20
88.18
 30
0.0
 11
784.218646656
 21
91.285828541
 31
0.0
  0
LINE
  8
0
  6
CONTINUOUS
 62
     2
 10
772.627536741
 20
88.18
 30
0.0
 11
902.627536741
 21
88.18
 31
0.0
  0
LINE
  8
0
  6
CONTINUOUS
 62
     2
 10
902.627536741
 20
88.18
 30
0.0
 11
891.036426825
 21
91.285828541
 31
0.0
  0
LINE
  8
0
  6
CONTINUOUS
 62
     2
 10
902.627536741
 20
88.18
 30
0.0
 11
891.036426825
 21
85.074171459
 31
0.0
  0
LINE
  8
0
  6
CONTINUOUS
 62
     1
 10
913.127536741
 20
214.68
 30
0.0
 11
921.787790779
 21
219.68
 31
0.0
  0
LINE
  8
0
  6
CONTINUOUS
 62
     1
 10
913.127536741
 20
192.68
 30
0.0
 11
913.127536741
 21
214.68
 31
0.0
  0
LINE
  8
0
  6
CONTINUOUS
 62
     1
 10
921.777536741
 20
219.68
 30
0.0
 11
946.477536741
 21
219.68
 31
0.0
  0
LINE
  8
0
  6
CONTINUOUS
 62
     1
 10
921.777536741
 20
187.68
 30
0.0
 11
921.777536741
 21
219.68
 31
0.0
  0
LINE
  8
0
  6
CONTINUOUS
 62
     1
 10
955.127536741
 20
192.68
 30
0.0
 11
955.127536741
 21
214.68
 31
0.0
  0
LINE
  8
0
  6
CONTINUOUS
 62
     1
 10
946.477536741
 20
187.68
 30
0.0
 11
946.477536741
 21
219.68
 31
0.0
  0
LINE
  8
0
  6
CONTINUOUS
 62
     1
 10
955.127536741
 20
214.68
 30
0.0
 11
946.467282703
 21
219.68
 31
0.0
  0
LINE
  8
0
  6
CONTINUOUS
 62
     1
 10
921.777536741
 20
187.68
 30
0.0
 11
946.477536741
 21
187.68
 31
0.0
  0
LINE
  8
0
  6
CONTINUOUS
 62
     1
 10
955.127536741
 20
192.68
 30
0.0
 11
946.467282703
 21
187.68
 31
0.0
  0
LINE
  8
0
  6
CONTINUOUS
 62
     1
 10
913.127536741
 20
192.68
 30
0.0
 11
921.787790779
 21
187.68
 31
0.0
  0
LINE
  8
0
  6
CONTINUOUS
 62
     1
 10
955.127536741
 20
211.68
 30
0.0
 11
981.436958778
 21
211.68
 31
0.0
  0
LINE
  8
0
  6
CONTINUOUS
 62
     1
 10
981.436958778
 20
195.68
 30
0.0
 11
955.127536741
 21
195.68
 31
0.0
  0
LINE
  8
0
  6
CONTINUOUS
 62
     1
 10
913.127536741
 20
195.68
 30
0.0
 11
853.627536741
 21
195.68
 31
0.0
  0
LINE
  8
0
  6
CONTINUOUS
 62
     1
 10
853.627536741
 20
211.68
 30
0.0
 11
913.127536741
 21
211.68
 31
0.0
  0
LINE
  8
0
  6
CONTINUOUS
 62
     1
 10
1047.927536741
 20
271.68
 30
0.0
 11
1047.927536741
 21
206.98
 31
0.0
  0
LINE
  8
0
  6
CONTINUOUS
 62
     1
 10
1049.927536741
 20
204.98
 30
0.0
 11
1085.927536741
 21
204.98
 31
0.0
  0
ARC
  8
0
  6
CONTINUOUS
 62
     1
 10
1049.927536741
 20
206.98
 30
0.0
 40
2.0
 50
180.0
 51
270.0
  0
LINE
  8
0
  6
CONTINUOUS
 62
     1
 10
1087.927536741
 20
271.68
 30
0.0
 11
1087.927536741
 21
206.98
 31
0.0
  0
ARC
  8
0
  6
CONTINUOUS
 62
     1
 10
1085.927536741
 20
206.98
 30
0.0
 40
2.0
 50
270.0
 51
0.0
  0
ARC
  8
0
  6
CONTINUOUS
 62
     1
 10
1049.927536741
 20
271.68
 30
0.0
 40
2.0
 50
90.0
 51
180.0
  0
LINE
  8
0
  6
CONTINUOUS
 62
     1
 10
1055.227536741
 20
297.08
 30
0.0
 11
1055.227536741
 21
273.68
 31
0.0
  0
LINE
  8
0
  6
CONTINUOUS
 62
     1
 10
1049.927536741
 20
273.68
 30
0.0
 11
1085.927536741
 21
273.68
 31
0.0
  0
ARC
  8
0
  6
CONTINUOUS
 62
     1
 10
1085.927536741
 20
271.68
 30
0.0
 40
2.0
 50
0.0
 51
90.0
  0
ARC
  8
0
  6
CONTINUOUS
 62
     1
 10
1057.227536741
 20
297.08
 30
0.0
 40
2.0
 50
90.0
 51
180.0
  0
ARC
  8
0
  6
CONTINUOUS
 62
     1
 10
1067.927536741
 20
283.38
 30
0.0
 40
6.0
 50
131.983045121
 51
318.016954879
  0
LINE
  8
0
  6
LTYPE2
 62
     2
 10
1061.492865032
 20
276.945328291
 30
0.0
 11
1102.15150495
 21
317.603968209
 31
0.0
  0
LINE
  8
0
  6
CONTINUOUS
 62
     1
 10
1063.914073241
 20
287.840057257
 30
0.0
 11
1092.121952092
 21
313.22342919
 31
0.0
  0
LINE
  8
0
  6
CONTINUOUS
 62
     1
 10
1072.387593997
 20
279.3665365
 30
0.0
 11
1097.77096593
 21
307.574415352
 31
0.0
  0
LINE
  8
0
  6
LTYPE2
 62
     2
 10
1102.575769019
 20
302.471883092
 30
0.0
 11
1086.312313052
 21
318.735339059
 31
0.0
  0
ARC
  8
0
  6
CONTINUOUS
 62
     1
 10
1094.797594426
 20
310.250057685
 30
0.0
 40
8.75
 50
255.219855722
 51
194.780144278
  0
ARC
  8
0
  6
CONTINUOUS
 62
     1
 10
1094.797594426
 20
310.250057685
 30
0.0
 40
4.0
 50
311.983042101
 51
138.016952287
  0
LINE
  8
0
  6
CONTINUOUS
 62
     1
 10
1080.627536741
 20
288.52336985
 30
0.0
 11
1080.627536741
 21
273.68
 31
0.0
  0
LINE
  8
0
  6
CONTINUOUS
 62
     1
 10
1057.227536741
 20
299.08
 30
0.0
 11
1076.404728306
 21
299.08
 31
0.0
  0
LINE
  8
0
  6
LTYPE3
 62
     2
 10
1053.052536741
 20
250.18
 30
0.0
 11
1083.052536741
 21
250.18
 31
0.0
  0
LINE
  8
0
  6
LTYPE3
 62
     2
 10
1083.052536741
 20
250.18
 30
0.0
 11
1083.052536741
 21
259.68
 31
0.0
  0
LINE
  8
0
  6
LTYPE3
 62
     2
 10
1083.052536741
 20
259.68
 30
0.0
 11
1053.052536741
 21
259.68
 31
0.0
  0
LINE
  8
0
  6
LTYPE3
 62
     2
 10
1053.052536741
 20
259.68
 30
0.0
 11
1053.052536741
 21
250.18
 31
0.0
  0
LINE
  8
0
  6
CONTINUOUS
 62
     1
 10
1053.052536741
 20
220.18
 30
0.0
 11
1083.052536741
 21
220.18
 31
0.0
  0
LINE
  8
0
  6
CONTINUOUS
 62
     1
 10
1083.052536741
 20
220.18
 30
0.0
 11
1083.052536741
 21
229.68
 31
0.0
  0
LINE
  8
0
  6
CONTINUOUS
 62
     1
 10
1083.052536741
 20
229.68
 30
0.0
 11
1053.052536741
 21
229.68
 31
0.0
  0
LINE
  8
0
  6
CONTINUOUS
 62
     1
 10
1053.052536741
 20
229.68
 30
0.0
 11
1053.052536741
 21
220.18
 31
0.0
  0
TEXT
  8
0
  6
CONTINUOUS
 62
     2
 10
1051.827536741
 20
262.98
 30
0.0
 40
10.0
  1
４
 50
0.0
 41
0.85
 51
0.0
  7
KANJI62
  0
TEXT
  8
0
  6
CONTINUOUS
 62
     2
 10
1076.827536741
 20
262.98
 30
0.0
 40
10.0
  1
３
 50
0.0
 41
0.85
 51
0.0
  7
KANJI62
  0
POLYLINE
  8
0
  6
CONTINUOUS
 62
     2
 66
     1
 70
     1
  0
VERTEX
  8
0
  6
CONTINUOUS
 62
     2
 10
1062.827536741
 20
262.23
 30
0.0
 42
0.021820078
  0
VERTEX
  8
0
  6
CONTINUOUS
 62
     2
 10
1062.818974811
 20
262.426100421
 30
0.0
 42
0.021820078
  0
VERTEX
  8
0
  6
CONTINUOUS
 62
     2
 10
1062.793354185
 20
262.6207084
 30
0.0
 42
0.021820078
  0
VERTEX
  8
0
  6
CONTINUOUS
 62
     2
 10
1062.75086985
 20
262.812342851
 30
0.0
 42
0.021820078
  0
VERTEX
  8
0
  6
CONTINUOUS
 62
     2
 10
1062.691845137
 20
262.999545322
 30
0.0
 42
0.021820078
  0
VERTEX
  8
0
  6
CONTINUOUS
 62
     2
 10
1062.616729262
 20
263.180891089
 30
0.0
 42
0.021820078
  0
VERTEX
  8
0
  6
CONTINUOUS
 62
     2
 10
1062.526093899
 20
263.355
 30
0.0
 42
0.021820078
  0
VERTEX
  8
0
  6
CONTINUOUS
 62
     2
 10
1062.42062884
 20
263.520546982
 30
0.0
 42
0.021820078
  0
VERTEX
  8
0
  6
CONTINUOUS
 62
     2
 10
1062.301136738
 20
263.676272122
 30
0.0
 42
0.021820078
  0
VERTEX
  8
0
  6
CONTINUOUS
 62
     2
 10
1062.168526998
 20
263.820990258
 30
0.0
 42
0.021820078
  0
VERTEX
  8
0
  6
CONTINUOUS
 62
     2
 10
1062.023808862
 20
263.953599997
 30
0.0
 42
0.021820078
  0
VERTEX
  8
0
  6
CONTINUOUS
 62
     2
 10
1061.868083722
 20
264.0730921
 30
0.0
 42
0.021820078
  0
VERTEX
  8
0
  6
CONTINUOUS
 62
     2
 10
1061.702536741
 20
264.178557159
 30
0.0
 42
0.021820078
  0
VERTEX
  8
0
  6
CONTINUOUS
 62
     2
 10
1061.52842783
 20
264.269192521
 30
0.0
 42
0.021820078
  0
VERTEX
  8
0
  6
CONTINUOUS
 62
     2
 10
1061.347082063
 20
264.344308397
 30
0.0
 42
0.021820078
  0
VERTEX
  8
0
  6
CONTINUOUS
 62
     2
 10
1061.159879592
 20
264.403333109
 30
0.0
 42
0.021820078
  0
VERTEX
  8
0
  6
CONTINUOUS
 62
     2
 10
1060.96824514
 20
264.445817444
 30
0.0
 42
0.021820078
  0
VERTEX
  8
0
  6
CONTINUOUS
 62
     2
 10
1060.773637162
 20
264.471438071
 30
0.0
 42
0.021820078
  0
VERTEX
  8
0
  6
CONTINUOUS
 62
     2
 10
1060.577536741
 20
264.48
 30
0.0
 42
0.021820078
  0
VERTEX
  8
0
  6
CONTINUOUS
 62
     2
 10
1060.38143632
 20
264.471438071
 30
0.0
 42
0.021820078
  0
VERTEX
  8
0
  6
CONTINUOUS
 62
     2
 10
1060.186828341
 20
264.445817444
 30
0.0
 42
0.021820078
  0
VERTEX
  8
0
  6
CONTINUOUS
 62
     2
 10
1059.995193889
 20
264.403333109
 30
0.0
 42
0.021820078
  0
VERTEX
  8
0
  6
CONTINUOUS
 62
     2
 10
1059.807991418
 20
264.344308397
 30
0.0
 42
0.021820078
  0
VERTEX
  8
0
  6
CONTINUOUS
 62
     2
 10
1059.626645652
 20
264.269192521
 30
0.0
 42
0.021820078
  0
VERTEX
  8
0
  6
CONTINUOUS
 62
     2
 10
1059.452536741
 20
264.178557159
 30
0.0
 42
0.021820078
  0
VERTEX
  8
0
  6
CONTINUOUS
 62
     2
 10
1059.286989759
 20
264.0730921
 30
0.0
 42
0.021820078
  0
VERTEX
  8
0
  6
CONTINUOUS
 62
     2
 10
1059.131264619
 20
263.953599997
 30
0.0
 42
0.021820078
  0
VERTEX
  8
0
  6
CONTINUOUS
 62
     2
 10
1058.986546483
 20
263.820990258
 30
0.0
 42
0.021820078
  0
VERTEX
  8
0
  6
CONTINUOUS
 62
     2
 10
1058.853936744
 20
263.676272122
 30
0.0
 42
0.021820078
  0
VERTEX
  8
0
  6
CONTINUOUS
 62
     2
 10
1058.734444641
 20
263.520546982
 30
0.0
 42
0.021820078
  0
VERTEX
  8
0
  6
CONTINUOUS
 62
     2
 10
1058.628979582
 20
263.355
 30
0.0
 42
0.021820078
  0
VERTEX
  8
0
  6
CONTINUOUS
 62
     2
 10
1058.53834422
 20
263.180891089
 30
0.0
 42
0.021820078
  0
VERTEX
  8
0
  6
CONTINUOUS
 62
     2
 10
1058.463228344
 20
262.999545322
 30
0.0
 42
0.021820078
  0
VERTEX
  8
0
  6
CONTINUOUS
 62
     2
 10
1058.404203632
 20
262.812342851
 30
0.0
 42
0.021820078
  0
VERTEX
  8
0
  6
CONTINUOUS
 62
     2
 10
1058.361719296
 20
262.6207084
 30
0.0
 42
0.021820078
  0
VERTEX
  8
0
  6
CONTINUOUS
 62
     2
 10
1058.33609867
 20
262.426100421
 30
0.0
 42
0.021820078
  0
VERTEX
  8
0
  6
CONTINUOUS
 62
     2
 10
1058.327536741
 20
262.23
 30
0.0
 42
0.021820078
  0
VERTEX
  8
0
  6
CONTINUOUS
 62
     2
 10
1058.33609867
 20
262.033899579
 30
0.0
 42
0.021820078
  0
VERTEX
  8
0
  6
CONTINUOUS
 62
     2
 10
1058.361719296
 20
261.8392916
 30
0.0
 42
0.021820078
  0
VERTEX
  8
0
  6
CONTINUOUS
 62
     2
 10
1058.404203632
 20
261.647657149
 30
0.0
 42
0.021820078
  0
VERTEX
  8
0
  6
CONTINUOUS
 62
     2
 10
1058.463228344
 20
261.460454678
 30
0.0
 42
0.021820078
  0
VERTEX
  8
0
  6
CONTINUOUS
 62
     2
 10
1058.53834422
 20
261.279108911
 30
0.0
 42
0.021820078
  0
VERTEX
  8
0
  6
CONTINUOUS
 62
     2
 10
1058.628979582
 20
261.105
 30
0.0
 42
0.021820078
  0
VERTEX
  8
0
  6
CONTINUOUS
 62
     2
 10
1058.734444641
 20
260.939453018
 30
0.0
 42
0.021820078
  0
VERTEX
  8
0
  6
CONTINUOUS
 62
     2
 10
1058.853936744
 20
260.783727878
 30
0.0
 42
0.021820078
  0
VERTEX
  8
0
  6
CONTINUOUS
 62
     2
 10
1058.986546483
 20
260.639009742
 30
0.0
 42
0.021820078
  0
VERTEX
  8
0
  6
CONTINUOUS
 62
     2
 10
1059.131264619
 20
260.506400003
 30
0.0
 42
0.021820078
  0
VERTEX
  8
0
  6
CONTINUOUS
 62
     2
 10
1059.286989759
 20
260.3869079
 30
0.0
 42
0.021820078
  0
VERTEX
  8
0
  6
CONTINUOUS
 62
     2
 10
1059.452536741
 20
260.281442841
 30
0.0
 42
0.021820078
  0
VERTEX
  8
0
  6
CONTINUOUS
 62
     2
 10
1059.626645652
 20
260.190807479
 30
0.0
 42
0.021820078
  0
VERTEX
  8
0
  6
CONTINUOUS
 62
     2
 10
1059.807991418
 20
260.115691603
 30
0.0
 42
0.021820078
  0
VERTEX
  8
0
  6
CONTINUOUS
 62
     2
 10
1059.995193889
 20
260.056666891
 30
0.0
 42
0.021820078
  0
VERTEX
  8
0
  6
CONTINUOUS
 62
     2
 10
1060.186828341
 20
260.014182556
 30
0.0
 42
0.021820078
  0
VERTEX
  8
0
  6
CONTINUOUS
 62
     2
 10
1060.38143632
 20
259.988561929
 30
0.0
 42
0.021820078
  0
VERTEX
  8
0
  6
CONTINUOUS
 62
     2
 10
1060.577536741
 20
259.98
 30
0.0
 42
0.021820078
  0
VERTEX
  8
0
  6
CONTINUOUS
 62
     2
 10
1060.773637162
 20
259.988561929
 30
0.0
 42
0.021820078
  0
VERTEX
  8
0
  6
CONTINUOUS
 62
     2
 10
1060.96824514
 20
260.014182556
 30
0.0
 42
0.021820078
  0
VERTEX
  8
0
  6
CONTINUOUS
 62
     2
 10
1061.159879592
 20
260.056666891
 30
0.0
 42
0.021820078
  0
VERTEX
  8
0
  6
CONTINUOUS
 62
     2
 10
1061.347082063
 20
260.115691603
 30
0.0
 42
0.021820078
  0
VERTEX
  8
0
  6
CONTINUOUS
 62
     2
 10
1061.52842783
 20
260.190807479
 30
0.0
 42
0.021820078
  0
VERTEX
  8
0
  6
CONTINUOUS
 62
     2
 10
1061.702536741
 20
260.281442841
 30
0.0
 42
0.021820078
  0
VERTEX
  8
0
  6
CONTINUOUS
 62
     2
 10
1061.868083722
 20
260.3869079
 30
0.0
 42
0.021820078
  0
VERTEX
  8
0
  6
CONTINUOUS
 62
     2
 10
1062.023808862
 20
260.506400003
 30
0.0
 42
0.021820078
  0
VERTEX
  8
0
  6
CONTINUOUS
 62
     2
 10
1062.168526998
 20
260.639009742
 30
0.0
 42
0.021820078
  0
VERTEX
  8
0
  6
CONTINUOUS
 62
     2
 10
1062.301136738
 20
260.783727878
 30
0.0
 42
0.021820078
  0
VERTEX
  8
0
  6
CONTINUOUS
 62
     2
 10
1062.42062884
 20
260.939453018
 30
0.0
 42
0.021820078
  0
VERTEX
  8
0
  6
CONTINUOUS
 62
     2
 10
1062.526093899
 20
261.105
 30
0.0
 42
0.021820078
  0
VERTEX
  8
0
  6
CONTINUOUS
 62
     2
 10
1062.616729262
 20
261.279108911
 30
0.0
 42
0.021820078
  0
VERTEX
  8
0
  6
CONTINUOUS
 62
     2
 10
1062.691845137
 20
261.460454678
 30
0.0
 42
0.021820078
  0
VERTEX
  8
0
  6
CONTINUOUS
 62
     2
 10
1062.75086985
 20
261.647657149
 30
0.0
 42
0.021820078
  0
VERTEX
  8
0
  6
CONTINUOUS
 62
     2
 10
1062.793354185
 20
261.8392916
 30
0.0
 42
0.021820078
  0
VERTEX
  8
0
  6
CONTINUOUS
 62
     2
 10
1062.818974811
 20
262.033899579
 30
0.0
 42
0.021820078
  0
SEQEND
  8
0
  6
CONTINUOUS
 62
     2
  0
POLYLINE
  8
0
  6
CONTINUOUS
 62
     2
 66
     1
 70
     1
  0
VERTEX
  8
0
  6
CONTINUOUS
 62
     2
 10
1077.827536741
 20
262.23
 30
0.0
 42
0.021820078
  0
VERTEX
  8
0
  6
CONTINUOUS
 62
     2
 10
1077.818974811
 20
262.426100421
 30
0.0
 42
0.021820078
  0
VERTEX
  8
0
  6
CONTINUOUS
 62
     2
 10
1077.793354185
 20
262.6207084
 30
0.0
 42
0.021820078
  0
VERTEX
  8
0
  6
CONTINUOUS
 62
     2
 10
1077.75086985
 20
262.812342851
 30
0.0
 42
0.021820078
  0
VERTEX
  8
0
  6
CONTINUOUS
 62
     2
 10
1077.691845137
 20
262.999545322
 30
0.0
 42
0.021820078
  0
VERTEX
  8
0
  6
CONTINUOUS
 62
     2
 10
1077.616729262
 20
263.180891089
 30
0.0
 42
0.021820078
  0
VERTEX
  8
0
  6
CONTINUOUS
 62
     2
 10
1077.526093899
 20
263.355
 30
0.0
 42
0.021820078
  0
VERTEX
  8
0
  6
CONTINUOUS
 62
     2
 10
1077.42062884
 20
263.520546982
 30
0.0
 42
0.021820078
  0
VERTEX
  8
0
  6
CONTINUOUS
 62
     2
 10
1077.301136738
 20
263.676272122
 30
0.0
 42
0.021820078
  0
VERTEX
  8
0
  6
CONTINUOUS
 62
     2
 10
1077.168526998
 20
263.820990258
 30
0.0
 42
0.021820078
  0
VERTEX
  8
0
  6
CONTINUOUS
 62
     2
 10
1077.023808862
 20
263.953599997
 30
0.0
 42
0.021820078
  0
VERTEX
  8
0
  6
CONTINUOUS
 62
     2
 10
1076.868083722
 20
264.0730921
 30
0.0
 42
0.021820078
  0
VERTEX
  8
0
  6
CONTINUOUS
 62
     2
 10
1076.702536741
 20
264.178557159
 30
0.0
 42
0.021820078
  0
VERTEX
  8
0
  6
CONTINUOUS
 62
     2
 10
1076.52842783
 20
264.269192521
 30
0.0
 42
0.021820078
  0
VERTEX
  8
0
  6
CONTINUOUS
 62
     2
 10
1076.347082063
 20
264.344308397
 30
0.0
 42
0.021820078
  0
VERTEX
  8
0
  6
CONTINUOUS
 62
     2
 10
1076.159879592
 20
264.403333109
 30
0.0
 42
0.021820078
  0
VERTEX
  8
0
  6
CONTINUOUS
 62
     2
 10
1075.96824514
 20
264.445817444
 30
0.0
 42
0.021820078
  0
VERTEX
  8
0
  6
CONTINUOUS
 62
     2
 10
1075.773637162
 20
264.471438071
 30
0.0
 42
0.021820078
  0
VERTEX
  8
0
  6
CONTINUOUS
 62
     2
 10
1075.577536741
 20
264.48
 30
0.0
 42
0.021820078
  0
VERTEX
  8
0
  6
CONTINUOUS
 62
     2
 10
1075.38143632
 20
264.471438071
 30
0.0
 42
0.021820078
  0
VERTEX
  8
0
  6
CONTINUOUS
 62
     2
 10
1075.186828341
 20
264.445817444
 30
0.0
 42
0.021820078
  0
VERTEX
  8
0
  6
CONTINUOUS
 62
     2
 10
1074.995193889
 20
264.403333109
 30
0.0
 42
0.021820078
  0
VERTEX
  8
0
  6
CONTINUOUS
 62
     2
 10
1074.807991418
 20
264.344308397
 30
0.0
 42
0.021820078
  0
VERTEX
  8
0
  6
CONTINUOUS
 62
     2
 10
1074.626645652
 20
264.269192521
 30
0.0
 42
0.021820078
  0
VERTEX
  8
0
  6
CONTINUOUS
 62
     2
 10
1074.452536741
 20
264.178557159
 30
0.0
 42
0.021820078
  0
VERTEX
  8
0
  6
CONTINUOUS
 62
     2
 10
1074.286989759
 20
264.0730921
 30
0.0
 42
0.021820078
  0
VERTEX
  8
0
  6
CONTINUOUS
 62
     2
 10
1074.131264619
 20
263.953599997
 30
0.0
 42
0.021820078
  0
VERTEX
  8
0
  6
CONTINUOUS
 62
     2
 10
1073.986546483
 20
263.820990258
 30
0.0
 42
0.021820078
  0
VERTEX
  8
0
  6
CONTINUOUS
 62
     2
 10
1073.853936744
 20
263.676272122
 30
0.0
 42
0.021820078
  0
VERTEX
  8
0
  6
CONTINUOUS
 62
     2
 10
1073.734444641
 20
263.520546982
 30
0.0
 42
0.021820078
  0
VERTEX
  8
0
  6
CONTINUOUS
 62
     2
 10
1073.628979582
 20
263.355
 30
0.0
 42
0.021820078
  0
VERTEX
  8
0
  6
CONTINUOUS
 62
     2
 10
1073.53834422
 20
263.180891089
 30
0.0
 42
0.021820078
  0
VERTEX
  8
0
  6
CONTINUOUS
 62
     2
 10
1073.463228344
 20
262.999545322
 30
0.0
 42
0.021820078
  0
VERTEX
  8
0
  6
CONTINUOUS
 62
     2
 10
1073.404203632
 20
262.812342851
 30
0.0
 42
0.021820078
  0
VERTEX
  8
0
  6
CONTINUOUS
 62
     2
 10
1073.361719296
 20
262.6207084
 30
0.0
 42
0.021820078
  0
VERTEX
  8
0
  6
CONTINUOUS
 62
     2
 10
1073.33609867
 20
262.426100421
 30
0.0
 42
0.021820078
  0
VERTEX
  8
0
  6
CONTINUOUS
 62
     2
 10
1073.327536741
 20
262.23
 30
0.0
 42
0.021820078
  0
VERTEX
  8
0
  6
CONTINUOUS
 62
     2
 10
1073.33609867
 20
262.033899579
 30
0.0
 42
0.021820078
  0
VERTEX
  8
0
  6
CONTINUOUS
 62
     2
 10
1073.361719296
 20
261.8392916
 30
0.0
 42
0.021820078
  0
VERTEX
  8
0
  6
CONTINUOUS
 62
     2
 10
1073.404203632
 20
261.647657149
 30
0.0
 42
0.021820078
  0
VERTEX
  8
0
  6
CONTINUOUS
 62
     2
 10
1073.463228344
 20
261.460454678
 30
0.0
 42
0.021820078
  0
VERTEX
  8
0
  6
CONTINUOUS
 62
     2
 10
1073.53834422
 20
261.279108911
 30
0.0
 42
0.021820078
  0
VERTEX
  8
0
  6
CONTINUOUS
 62
     2
 10
1073.628979582
 20
261.105
 30
0.0
 42
0.021820078
  0
VERTEX
  8
0
  6
CONTINUOUS
 62
     2
 10
1073.734444641
 20
260.939453018
 30
0.0
 42
0.021820078
  0
VERTEX
  8
0
  6
CONTINUOUS
 62
     2
 10
1073.853936744
 20
260.783727878
 30
0.0
 42
0.021820078
  0
VERTEX
  8
0
  6
CONTINUOUS
 62
     2
 10
1073.986546483
 20
260.639009742
 30
0.0
 42
0.021820078
  0
VERTEX
  8
0
  6
CONTINUOUS
 62
     2
 10
1074.131264619
 20
260.506400003
 30
0.0
 42
0.021820078
  0
VERTEX
  8
0
  6
CONTINUOUS
 62
     2
 10
1074.286989759
 20
260.3869079
 30
0.0
 42
0.021820078
  0
VERTEX
  8
0
  6
CONTINUOUS
 62
     2
 10
1074.452536741
 20
260.281442841
 30
0.0
 42
0.021820078
  0
VERTEX
  8
0
  6
CONTINUOUS
 62
     2
 10
1074.626645652
 20
260.190807479
 30
0.0
 42
0.021820078
  0
VERTEX
  8
0
  6
CONTINUOUS
 62
     2
 10
1074.807991418
 20
260.115691603
 30
0.0
 42
0.021820078
  0
VERTEX
  8
0
  6
CONTINUOUS
 62
     2
 10
1074.995193889
 20
260.056666891
 30
0.0
 42
0.021820078
  0
VERTEX
  8
0
  6
CONTINUOUS
 62
     2
 10
1075.186828341
 20
260.014182556
 30
0.0
 42
0.021820078
  0
VERTEX
  8
0
  6
CONTINUOUS
 62
     2
 10
1075.38143632
 20
259.988561929
 30
0.0
 42
0.021820078
  0
VERTEX
  8
0
  6
CONTINUOUS
 62
     2
 10
1075.577536741
 20
259.98
 30
0.0
 42
0.021820078
  0
VERTEX
  8
0
  6
CONTINUOUS
 62
     2
 10
1075.773637162
 20
259.988561929
 30
0.0
 42
0.021820078
  0
VERTEX
  8
0
  6
CONTINUOUS
 62
     2
 10
1075.96824514
 20
260.014182556
 30
0.0
 42
0.021820078
  0
VERTEX
  8
0
  6
CONTINUOUS
 62
     2
 10
1076.159879592
 20
260.056666891
 30
0.0
 42
0.021820078
  0
VERTEX
  8
0
  6
CONTINUOUS
 62
     2
 10
1076.347082063
 20
260.115691603
 30
0.0
 42
0.021820078
  0
VERTEX
  8
0
  6
CONTINUOUS
 62
     2
 10
1076.52842783
 20
260.190807479
 30
0.0
 42
0.021820078
  0
VERTEX
  8
0
  6
CONTINUOUS
 62
     2
 10
1076.702536741
 20
260.281442841
 30
0.0
 42
0.021820078
  0
VERTEX
  8
0
  6
CONTINUOUS
 62
     2
 10
1076.868083722
 20
260.3869079
 30
0.0
 42
0.021820078
  0
VERTEX
  8
0
  6
CONTINUOUS
 62
     2
 10
1077.023808862
 20
260.506400003
 30
0.0
 42
0.021820078
  0
VERTEX
  8
0
  6
CONTINUOUS
 62
     2
 10
1077.168526998
 20
260.639009742
 30
0.0
 42
0.021820078
  0
VERTEX
  8
0
  6
CONTINUOUS
 62
     2
 10
1077.301136738
 20
260.783727878
 30
0.0
 42
0.021820078
  0
VERTEX
  8
0
  6
CONTINUOUS
 62
     2
 10
1077.42062884
 20
260.939453018
 30
0.0
 42
0.021820078
  0
VERTEX
  8
0
  6
CONTINUOUS
 62
     2
 10
1077.526093899
 20
261.105
 30
0.0
 42
0.021820078
  0
VERTEX
  8
0
  6
CONTINUOUS
 62
     2
 10
1077.616729262
 20
261.279108911
 30
0.0
 42
0.021820078
  0
VERTEX
  8
0
  6
CONTINUOUS
 62
     2
 10
1077.691845137
 20
261.460454678
 30
0.0
 42
0.021820078
  0
VERTEX
  8
0
  6
CONTINUOUS
 62
     2
 10
1077.75086985
 20
261.647657149
 30
0.0
 42
0.021820078
  0
VERTEX
  8
0
  6
CONTINUOUS
 62
     2
 10
1077.793354185
 20
261.8392916
 30
0.0
 42
0.021820078
  0
VERTEX
  8
0
  6
CONTINUOUS
 62
     2
 10
1077.818974811
 20
262.033899579
 30
0.0
 42
0.021820078
  0
SEQEND
  8
0
  6
CONTINUOUS
 62
     2
  0
POLYLINE
  8
0
  6
CONTINUOUS
 62
     2
 66
     1
 70
     1
  0
VERTEX
  8
0
  6
CONTINUOUS
 62
     2
 10
1062.827536741
 20
217.88
 30
0.0
 42
-0.021820078
  0
VERTEX
  8
0
  6
CONTINUOUS
 62
     2
 10
1062.818974811
 20
217.683899579
 30
0.0
 42
-0.021820078
  0
VERTEX
  8
0
  6
CONTINUOUS
 62
     2
 10
1062.793354185
 20
217.4892916
 30
0.0
 42
-0.021820078
  0
VERTEX
  8
0
  6
CONTINUOUS
 62
     2
 10
1062.75086985
 20
217.297657149
 30
0.0
 42
-0.021820078
  0
VERTEX
  8
0
  6
CONTINUOUS
 62
     2
 10
1062.691845137
 20
217.110454678
 30
0.0
 42
-0.021820078
  0
VERTEX
  8
0
  6
CONTINUOUS
 62
     2
 10
1062.616729262
 20
216.929108911
 30
0.0
 42
-0.021820078
  0
VERTEX
  8
0
  6
CONTINUOUS
 62
     2
 10
1062.526093899
 20
216.755
 30
0.0
 42
-0.021820078
  0
VERTEX
  8
0
  6
CONTINUOUS
 62
     2
 10
1062.42062884
 20
216.589453018
 30
0.0
 42
-0.021820078
  0
VERTEX
  8
0
  6
CONTINUOUS
 62
     2
 10
1062.301136738
 20
216.433727878
 30
0.0
 42
-0.021820078
  0
VERTEX
  8
0
  6
CONTINUOUS
 62
     2
 10
1062.168526998
 20
216.289009742
 30
0.0
 42
-0.021820078
  0
VERTEX
  8
0
  6
CONTINUOUS
 62
     2
 10
1062.023808862
 20
216.156400003
 30
0.0
 42
-0.021820078
  0
VERTEX
  8
0
  6
CONTINUOUS
 62
     2
 10
1061.868083722
 20
216.0369079
 30
0.0
 42
-0.021820078
  0
VERTEX
  8
0
  6
CONTINUOUS
 62
     2
 10
1061.702536741
 20
215.931442841
 30
0.0
 42
-0.021820078
  0
VERTEX
  8
0
  6
CONTINUOUS
 62
     2
 10
1061.52842783
 20
215.840807479
 30
0.0
 42
-0.021820078
  0
VERTEX
  8
0
  6
CONTINUOUS
 62
     2
 10
1061.347082063
 20
215.765691603
 30
0.0
 42
-0.021820078
  0
VERTEX
  8
0
  6
CONTINUOUS
 62
     2
 10
1061.159879592
 20
215.706666891
 30
0.0
 42
-0.021820078
  0
VERTEX
  8
0
  6
CONTINUOUS
 62
     2
 10
1060.96824514
 20
215.664182556
 30
0.0
 42
-0.021820078
  0
VERTEX
  8
0
  6
CONTINUOUS
 62
     2
 10
1060.773637162
 20
215.638561929
 30
0.0
 42
-0.021820078
  0
VERTEX
  8
0
  6
CONTINUOUS
 62
     2
 10
1060.577536741
 20
215.63
 30
0.0
 42
-0.021820078
  0
VERTEX
  8
0
  6
CONTINUOUS
 62
     2
 10
1060.38143632
 20
215.638561929
 30
0.0
 42
-0.021820078
  0
VERTEX
  8
0
  6
CONTINUOUS
 62
     2
 10
1060.186828341
 20
215.664182556
 30
0.0
 42
-0.021820078
  0
VERTEX
  8
0
  6
CONTINUOUS
 62
     2
 10
1059.995193889
 20
215.706666891
 30
0.0
 42
-0.021820078
  0
VERTEX
  8
0
  6
CONTINUOUS
 62
     2
 10
1059.807991418
 20
215.765691603
 30
0.0
 42
-0.021820078
  0
VERTEX
  8
0
  6
CONTINUOUS
 62
     2
 10
1059.626645652
 20
215.840807479
 30
0.0
 42
-0.021820078
  0
VERTEX
  8
0
  6
CONTINUOUS
 62
     2
 10
1059.452536741
 20
215.931442841
 30
0.0
 42
-0.021820078
  0
VERTEX
  8
0
  6
CONTINUOUS
 62
     2
 10
1059.286989759
 20
216.0369079
 30
0.0
 42
-0.021820078
  0
VERTEX
  8
0
  6
CONTINUOUS
 62
     2
 10
1059.131264619
 20
216.156400003
 30
0.0
 42
-0.021820078
  0
VERTEX
  8
0
  6
CONTINUOUS
 62
     2
 10
1058.986546483
 20
216.289009742
 30
0.0
 42
-0.021820078
  0
VERTEX
  8
0
  6
CONTINUOUS
 62
     2
 10
1058.853936744
 20
216.433727878
 30
0.0
 42
-0.021820078
  0
VERTEX
  8
0
  6
CONTINUOUS
 62
     2
 10
1058.734444641
 20
216.589453018
 30
0.0
 42
-0.021820078
  0
VERTEX
  8
0
  6
CONTINUOUS
 62
     2
 10
1058.628979582
 20
216.755
 30
0.0
 42
-0.021820078
  0
VERTEX
  8
0
  6
CONTINUOUS
 62
     2
 10
1058.53834422
 20
216.929108911
 30
0.0
 42
-0.021820078
  0
VERTEX
  8
0
  6
CONTINUOUS
 62
     2
 10
1058.463228344
 20
217.110454678
 30
0.0
 42
-0.021820078
  0
VERTEX
  8
0
  6
CONTINUOUS
 62
     2
 10
1058.404203632
 20
217.297657149
 30
0.0
 42
-0.021820078
  0
VERTEX
  8
0
  6
CONTINUOUS
 62
     2
 10
1058.361719296
 20
217.4892916
 30
0.0
 42
-0.021820078
  0
VERTEX
  8
0
  6
CONTINUOUS
 62
     2
 10
1058.33609867
 20
217.683899579
 30
0.0
 42
-0.021820078
  0
VERTEX
  8
0
  6
CONTINUOUS
 62
     2
 10
1058.327536741
 20
217.88
 30
0.0
 42
-0.021820078
  0
VERTEX
  8
0
  6
CONTINUOUS
 62
     2
 10
1058.33609867
 20
218.076100421
 30
0.0
 42
-0.021820078
  0
VERTEX
  8
0
  6
CONTINUOUS
 62
     2
 10
1058.361719296
 20
218.2707084
 30
0.0
 42
-0.021820078
  0
VERTEX
  8
0
  6
CONTINUOUS
 62
     2
 10
1058.404203632
 20
218.462342851
 30
0.0
 42
-0.021820078
  0
VERTEX
  8
0
  6
CONTINUOUS
 62
     2
 10
1058.463228344
 20
218.649545322
 30
0.0
 42
-0.021820078
  0
VERTEX
  8
0
  6
CONTINUOUS
 62
     2
 10
1058.53834422
 20
218.830891089
 30
0.0
 42
-0.021820078
  0
VERTEX
  8
0
  6
CONTINUOUS
 62
     2
 10
1058.628979582
 20
219.005
 30
0.0
 42
-0.021820078
  0
VERTEX
  8
0
  6
CONTINUOUS
 62
     2
 10
1058.734444641
 20
219.170546982
 30
0.0
 42
-0.021820078
  0
VERTEX
  8
0
  6
CONTINUOUS
 62
     2
 10
1058.853936744
 20
219.326272122
 30
0.0
 42
-0.021820078
  0
VERTEX
  8
0
  6
CONTINUOUS
 62
     2
 10
1058.986546483
 20
219.470990258
 30
0.0
 42
-0.021820078
  0
VERTEX
  8
0
  6
CONTINUOUS
 62
     2
 10
1059.131264619
 20
219.603599997
 30
0.0
 42
-0.021820078
  0
VERTEX
  8
0
  6
CONTINUOUS
 62
     2
 10
1059.286989759
 20
219.7230921
 30
0.0
 42
-0.021820078
  0
VERTEX
  8
0
  6
CONTINUOUS
 62
     2
 10
1059.452536741
 20
219.828557159
 30
0.0
 42
-0.021820078
  0
VERTEX
  8
0
  6
CONTINUOUS
 62
     2
 10
1059.626645652
 20
219.919192521
 30
0.0
 42
-0.021820078
  0
VERTEX
  8
0
  6
CONTINUOUS
 62
     2
 10
1059.807991418
 20
219.994308397
 30
0.0
 42
-0.021820078
  0
VERTEX
  8
0
  6
CONTINUOUS
 62
     2
 10
1059.995193889
 20
220.053333109
 30
0.0
 42
-0.021820078
  0
VERTEX
  8
0
  6
CONTINUOUS
 62
     2
 10
1060.186828341
 20
220.095817444
 30
0.0
 42
-0.021820078
  0
VERTEX
  8
0
  6
CONTINUOUS
 62
     2
 10
1060.38143632
 20
220.121438071
 30
0.0
 42
-0.021820078
  0
VERTEX
  8
0
  6
CONTINUOUS
 62
     2
 10
1060.577536741
 20
220.13
 30
0.0
 42
-0.021820078
  0
VERTEX
  8
0
  6
CONTINUOUS
 62
     2
 10
1060.773637162
 20
220.121438071
 30
0.0
 42
-0.021820078
  0
VERTEX
  8
0
  6
CONTINUOUS
 62
     2
 10
1060.96824514
 20
220.095817444
 30
0.0
 42
-0.021820078
  0
VERTEX
  8
0
  6
CONTINUOUS
 62
     2
 10
1061.159879592
 20
220.053333109
 30
0.0
 42
-0.021820078
  0
VERTEX
  8
0
  6
CONTINUOUS
 62
     2
 10
1061.347082063
 20
219.994308397
 30
0.0
 42
-0.021820078
  0
VERTEX
  8
0
  6
CONTINUOUS
 62
     2
 10
1061.52842783
 20
219.919192521
 30
0.0
 42
-0.021820078
  0
VERTEX
  8
0
  6
CONTINUOUS
 62
     2
 10
1061.702536741
 20
219.828557159
 30
0.0
 42
-0.021820078
  0
VERTEX
  8
0
  6
CONTINUOUS
 62
     2
 10
1061.868083722
 20
219.7230921
 30
0.0
 42
-0.021820078
  0
VERTEX
  8
0
  6
CONTINUOUS
 62
     2
 10
1062.023808862
 20
219.603599997
 30
0.0
 42
-0.021820078
  0
VERTEX
  8
0
  6
CONTINUOUS
 62
     2
 10
1062.168526998
 20
219.470990258
 30
0.0
 42
-0.021820078
  0
VERTEX
  8
0
  6
CONTINUOUS
 62
     2
 10
1062.301136738
 20
219.326272122
 30
0.0
 42
-0.021820078
  0
VERTEX
  8
0
  6
CONTINUOUS
 62
     2
 10
1062.42062884
 20
219.170546982
 30
0.0
 42
-0.021820078
  0
VERTEX
  8
0
  6
CONTINUOUS
 62
     2
 10
1062.526093899
 20
219.005
 30
0.0
 42
-0.021820078
  0
VERTEX
  8
0
  6
CONTINUOUS
 62
     2
 10
1062.616729262
 20
218.830891089
 30
0.0
 42
-0.021820078
  0
VERTEX
  8
0
  6
CONTINUOUS
 62
     2
 10
1062.691845137
 20
218.649545322
 30
0.0
 42
-0.021820078
  0
VERTEX
  8
0
  6
CONTINUOUS
 62
     2
 10
1062.75086985
 20
218.462342851
 30
0.0
 42
-0.021820078
  0
VERTEX
  8
0
  6
CONTINUOUS
 62
     2
 10
1062.793354185
 20
218.2707084
 30
0.0
 42
-0.021820078
  0
VERTEX
  8
0
  6
CONTINUOUS
 62
     2
 10
1062.818974811
 20
218.076100421
 30
0.0
 42
-0.021820078
  0
SEQEND
  8
0
  6
CONTINUOUS
 62
     2
  0
POLYLINE
  8
0
  6
CONTINUOUS
 62
     2
 66
     1
 70
     1
  0
VERTEX
  8
0
  6
CONTINUOUS
 62
     2
 10
1077.827536741
 20
217.88
 30
0.0
 42
-0.021820078
  0
VERTEX
  8
0
  6
CONTINUOUS
 62
     2
 10
1077.818974811
 20
217.683899579
 30
0.0
 42
-0.021820078
  0
VERTEX
  8
0
  6
CONTINUOUS
 62
     2
 10
1077.793354185
 20
217.4892916
 30
0.0
 42
-0.021820078
  0
VERTEX
  8
0
  6
CONTINUOUS
 62
     2
 10
1077.75086985
 20
217.297657149
 30
0.0
 42
-0.021820078
  0
VERTEX
  8
0
  6
CONTINUOUS
 62
     2
 10
1077.691845137
 20
217.110454678
 30
0.0
 42
-0.021820078
  0
VERTEX
  8
0
  6
CONTINUOUS
 62
     2
 10
1077.616729262
 20
216.929108911
 30
0.0
 42
-0.021820078
  0
VERTEX
  8
0
  6
CONTINUOUS
 62
     2
 10
1077.526093899
 20
216.755
 30
0.0
 42
-0.021820078
  0
VERTEX
  8
0
  6
CONTINUOUS
 62
     2
 10
1077.42062884
 20
216.589453018
 30
0.0
 42
-0.021820078
  0
VERTEX
  8
0
  6
CONTINUOUS
 62
     2
 10
1077.301136738
 20
216.433727878
 30
0.0
 42
-0.021820078
  0
VERTEX
  8
0
  6
CONTINUOUS
 62
     2
 10
1077.168526998
 20
216.289009742
 30
0.0
 42
-0.021820078
  0
VERTEX
  8
0
  6
CONTINUOUS
 62
     2
 10
1077.023808862
 20
216.156400003
 30
0.0
 42
-0.021820078
  0
VERTEX
  8
0
  6
CONTINUOUS
 62
     2
 10
1076.868083722
 20
216.0369079
 30
0.0
 42
-0.021820078
  0
VERTEX
  8
0
  6
CONTINUOUS
 62
     2
 10
1076.702536741
 20
215.931442841
 30
0.0
 42
-0.021820078
  0
VERTEX
  8
0
  6
CONTINUOUS
 62
     2
 10
1076.52842783
 20
215.840807479
 30
0.0
 42
-0.021820078
  0
VERTEX
  8
0
  6
CONTINUOUS
 62
     2
 10
1076.347082063
 20
215.765691603
 30
0.0
 42
-0.021820078
  0
VERTEX
  8
0
  6
CONTINUOUS
 62
     2
 10
1076.159879592
 20
215.706666891
 30
0.0
 42
-0.021820078
  0
VERTEX
  8
0
  6
CONTINUOUS
 62
     2
 10
1075.96824514
 20
215.664182556
 30
0.0
 42
-0.021820078
  0
VERTEX
  8
0
  6
CONTINUOUS
 62
     2
 10
1075.773637162
 20
215.638561929
 30
0.0
 42
-0.021820078
  0
VERTEX
  8
0
  6
CONTINUOUS
 62
     2
 10
1075.577536741
 20
215.63
 30
0.0
 42
-0.021820078
  0
VERTEX
  8
0
  6
CONTINUOUS
 62
     2
 10
1075.38143632
 20
215.638561929
 30
0.0
 42
-0.021820078
  0
VERTEX
  8
0
  6
CONTINUOUS
 62
     2
 10
1075.186828341
 20
215.664182556
 30
0.0
 42
-0.021820078
  0
VERTEX
  8
0
  6
CONTINUOUS
 62
     2
 10
1074.995193889
 20
215.706666891
 30
0.0
 42
-0.021820078
  0
VERTEX
  8
0
  6
CONTINUOUS
 62
     2
 10
1074.807991418
 20
215.765691603
 30
0.0
 42
-0.021820078
  0
VERTEX
  8
0
  6
CONTINUOUS
 62
     2
 10
1074.626645652
 20
215.840807479
 30
0.0
 42
-0.021820078
  0
VERTEX
  8
0
  6
CONTINUOUS
 62
     2
 10
1074.452536741
 20
215.931442841
 30
0.0
 42
-0.021820078
  0
VERTEX
  8
0
  6
CONTINUOUS
 62
     2
 10
1074.286989759
 20
216.0369079
 30
0.0
 42
-0.021820078
  0
VERTEX
  8
0
  6
CONTINUOUS
 62
     2
 10
1074.131264619
 20
216.156400003
 30
0.0
 42
-0.021820078
  0
VERTEX
  8
0
  6
CONTINUOUS
 62
     2
 10
1073.986546483
 20
216.289009742
 30
0.0
 42
-0.021820078
  0
VERTEX
  8
0
  6
CONTINUOUS
 62
     2
 10
1073.853936744
 20
216.433727878
 30
0.0
 42
-0.021820078
  0
VERTEX
  8
0
  6
CONTINUOUS
 62
     2
 10
1073.734444641
 20
216.589453018
 30
0.0
 42
-0.021820078
  0
VERTEX
  8
0
  6
CONTINUOUS
 62
     2
 10
1073.628979582
 20
216.755
 30
0.0
 42
-0.021820078
  0
VERTEX
  8
0
  6
CONTINUOUS
 62
     2
 10
1073.53834422
 20
216.929108911
 30
0.0
 42
-0.021820078
  0
VERTEX
  8
0
  6
CONTINUOUS
 62
     2
 10
1073.463228344
 20
217.110454678
 30
0.0
 42
-0.021820078
  0
VERTEX
  8
0
  6
CONTINUOUS
 62
     2
 10
1073.404203632
 20
217.297657149
 30
0.0
 42
-0.021820078
  0
VERTEX
  8
0
  6
CONTINUOUS
 62
     2
 10
1073.361719296
 20
217.4892916
 30
0.0
 42
-0.021820078
  0
VERTEX
  8
0
  6
CONTINUOUS
 62
     2
 10
1073.33609867
 20
217.683899579
 30
0.0
 42
-0.021820078
  0
VERTEX
  8
0
  6
CONTINUOUS
 62
     2
 10
1073.327536741
 20
217.88
 30
0.0
 42
-0.021820078
  0
VERTEX
  8
0
  6
CONTINUOUS
 62
     2
 10
1073.33609867
 20
218.076100421
 30
0.0
 42
-0.021820078
  0
VERTEX
  8
0
  6
CONTINUOUS
 62
     2
 10
1073.361719296
 20
218.2707084
 30
0.0
 42
-0.021820078
  0
VERTEX
  8
0
  6
CONTINUOUS
 62
     2
 10
1073.404203632
 20
218.462342851
 30
0.0
 42
-0.021820078
  0
VERTEX
  8
0
  6
CONTINUOUS
 62
     2
 10
1073.463228344
 20
218.649545322
 30
0.0
 42
-0.021820078
  0
VERTEX
  8
0
  6
CONTINUOUS
 62
     2
 10
1073.53834422
 20
218.830891089
 30
0.0
 42
-0.021820078
  0
VERTEX
  8
0
  6
CONTINUOUS
 62
     2
 10
1073.628979582
 20
219.005
 30
0.0
 42
-0.021820078
  0
VERTEX
  8
0
  6
CONTINUOUS
 62
     2
 10
1073.734444641
 20
219.170546982
 30
0.0
 42
-0.021820078
  0
VERTEX
  8
0
  6
CONTINUOUS
 62
     2
 10
1073.853936744
 20
219.326272122
 30
0.0
 42
-0.021820078
  0
VERTEX
  8
0
  6
CONTINUOUS
 62
     2
 10
1073.986546483
 20
219.470990258
 30
0.0
 42
-0.021820078
  0
VERTEX
  8
0
  6
CONTINUOUS
 62
     2
 10
1074.131264619
 20
219.603599997
 30
0.0
 42
-0.021820078
  0
VERTEX
  8
0
  6
CONTINUOUS
 62
     2
 10
1074.286989759
 20
219.7230921
 30
0.0
 42
-0.021820078
  0
VERTEX
  8
0
  6
CONTINUOUS
 62
     2
 10
1074.452536741
 20
219.828557159
 30
0.0
 42
-0.021820078
  0
VERTEX
  8
0
  6
CONTINUOUS
 62
     2
 10
1074.626645652
 20
219.919192521
 30
0.0
 42
-0.021820078
  0
VERTEX
  8
0
  6
CONTINUOUS
 62
     2
 10
1074.807991418
 20
219.994308397
 30
0.0
 42
-0.021820078
  0
VERTEX
  8
0
  6
CONTINUOUS
 62
     2
 10
1074.995193889
 20
220.053333109
 30
0.0
 42
-0.021820078
  0
VERTEX
  8
0
  6
CONTINUOUS
 62
     2
 10
1075.186828341
 20
220.095817444
 30
0.0
 42
-0.021820078
  0
VERTEX
  8
0
  6
CONTINUOUS
 62
     2
 10
1075.38143632
 20
220.121438071
 30
0.0
 42
-0.021820078
  0
VERTEX
  8
0
  6
CONTINUOUS
 62
     2
 10
1075.577536741
 20
220.13
 30
0.0
 42
-0.021820078
  0
VERTEX
  8
0
  6
CONTINUOUS
 62
     2
 10
1075.773637162
 20
220.121438071
 30
0.0
 42
-0.021820078
  0
VERTEX
  8
0
  6
CONTINUOUS
 62
     2
 10
1075.96824514
 20
220.095817444
 30
0.0
 42
-0.021820078
  0
VERTEX
  8
0
  6
CONTINUOUS
 62
     2
 10
1076.159879592
 20
220.053333109
 30
0.0
 42
-0.021820078
  0
VERTEX
  8
0
  6
CONTINUOUS
 62
     2
 10
1076.347082063
 20
219.994308397
 30
0.0
 42
-0.021820078
  0
VERTEX
  8
0
  6
CONTINUOUS
 62
     2
 10
1076.52842783
 20
219.919192521
 30
0.0
 42
-0.021820078
  0
VERTEX
  8
0
  6
CONTINUOUS
 62
     2
 10
1076.702536741
 20
219.828557159
 30
0.0
 42
-0.021820078
  0
VERTEX
  8
0
  6
CONTINUOUS
 62
     2
 10
1076.868083722
 20
219.7230921
 30
0.0
 42
-0.021820078
  0
VERTEX
  8
0
  6
CONTINUOUS
 62
     2
 10
1077.023808862
 20
219.603599997
 30
0.0
 42
-0.021820078
  0
VERTEX
  8
0
  6
CONTINUOUS
 62
     2
 10
1077.168526998
 20
219.470990258
 30
0.0
 42
-0.021820078
  0
VERTEX
  8
0
  6
CONTINUOUS
 62
     2
 10
1077.301136738
 20
219.326272122
 30
0.0
 42
-0.021820078
  0
VERTEX
  8
0
  6
CONTINUOUS
 62
     2
 10
1077.42062884
 20
219.170546982
 30
0.0
 42
-0.021820078
  0
VERTEX
  8
0
  6
CONTINUOUS
 62
     2
 10
1077.526093899
 20
219.005
 30
0.0
 42
-0.021820078
  0
VERTEX
  8
0
  6
CONTINUOUS
 62
     2
 10
1077.616729262
 20
218.830891089
 30
0.0
 42
-0.021820078
  0
VERTEX
  8
0
  6
CONTINUOUS
 62
     2
 10
1077.691845137
 20
218.649545322
 30
0.0
 42
-0.021820078
  0
VERTEX
  8
0
  6
CONTINUOUS
 62
     2
 10
1077.75086985
 20
218.462342851
 30
0.0
 42
-0.021820078
  0
VERTEX
  8
0
  6
CONTINUOUS
 62
     2
 10
1077.793354185
 20
218.2707084
 30
0.0
 42
-0.021820078
  0
VERTEX
  8
0
  6
CONTINUOUS
 62
     2
 10
1077.818974811
 20
218.076100421
 30
0.0
 42
-0.021820078
  0
SEQEND
  8
0
  6
CONTINUOUS
 62
     2
  0
TEXT
  8
0
  6
CONTINUOUS
 62
     2
 10
1051.827536741
 20
207.48
 30
0.0
 40
10.0
  1
１
 50
0.0
 41
0.85
 51
0.0
  7
KANJI62
  0
TEXT
  8
0
  6
CONTINUOUS
 62
     2
 10
1076.827536741
 20
207.48
 30
0.0
 40
10.0
  1
２
 50
0.0
 41
0.85
 51
0.0
  7
KANJI62
  0
TEXT
  8
0
  6
CONTINUOUS
 62
     2
 10
1019.927536741
 20
262.18
 30
0.0
 40
10.0
  1
（ＮＯ）
 50
0.0
 41
0.75
 51
0.0
  7
KANJI63
  0
TEXT
  8
0
  6
CONTINUOUS
 62
     2
 10
1085.927536741
 20
262.18
 30
0.0
 40
10.0
  1
（ＮＯ）
 50
0.0
 41
0.75
 51
0.0
  7
KANJI63
  0
TEXT
  8
0
  6
CONTINUOUS
 62
     2
 10
1019.927536741
 20
204.68
 30
0.0
 40
10.0
  1
（ＮＣ）
 50
0.0
 41
0.75
 51
0.0
  7
KANJI63
  0
TEXT
  8
0
  6
CONTINUOUS
 62
     2
 10
1085.927536741
 20
204.68
 30
0.0
 40
10.0
  1
（ＮＣ）
 50
0.0
 41
0.75
 51
0.0
  7
KANJI63
  0
TEXT
  8
0
  6
CONTINUOUS
 62
     2
 10
1003.802536741
 20
175.68
 30
0.0
 40
15.0
  1
外部ＬＳリミットＳＷ
 50
0.0
 41
0.9
 51
0.0
  7
KANJI59
  0
TEXT
  8
0
  6
CONTINUOUS
 62
     2
 10
1041.052536741
 20
156.68
 30
0.0
 40
15.0
  1
端子符号
 50
0.0
 41
0.9
 51
0.0
  7
KANJI59
  0
LINE
  8
0
  6
CONTINUOUS
 62
     2
 10
1145.552536741
 20
332.93
 30
0.0
 11
992.302536741
 21
332.93
 31
0.0
  0
LINE
  8
0
  6
CONTINUOUS
 62
     2
 10
1100.552536741
 20
163.18
 30
0.0
 11
1145.552536741
 21
163.18
 31
0.0
  0
LINE
  8
0
  6
CONTINUOUS
 62
     2
 10
1145.552536741
 20
163.18
 30
0.0
 11
1145.552536741
 21
332.93
 31
0.0
  0
LINE
  8
0
  6
LTYPE3
 62
     2
 10
837.627536741
 20
175.68
 30
0.0
 11
837.627536741
 21
641.08
 31
0.0
  0
ARC
  8
0
  6
CONTINUOUS
 62
     1
 10
1344.402528837
 20
862.58
 30
0.0
 40
20.0
 50
90.0
 51
180.0
  0
ARC
  8
0
  6
CONTINUOUS
 62
     1
 10
1344.402528837
 20
862.58
 30
0.0
 40
20.0
 50
180.0
 51
270.0
  0
ARC
  8
0
  6
LTYPE1
 62
     2
 10
1426.902528837
 20
862.58
 30
0.0
 40
100.0
 50
66.110646249
 51
173.889353751
  0
LINE
  8
0
  6
CONTINUOUS
 62
     1
 10
1331.902528837
 20
663.58
 30
0.0
 11
1371.402528837
 21
658.733133374
 31
0.0
  0
ARC
  8
0
  6
CONTINUOUS
 62
     1
 10
1344.402528837
 20
602.58
 30
0.0
 40
10.0
 50
180.0
 51
270.0
  0
LINE
  8
0
  6
CONTINUOUS
 62
     1
 10
1334.402528837
 20
602.58
 30
0.0
 11
1334.402528837
 21
663.273236289
 31
0.0
  0
LINE
  8
0
  6
LTYPE1
 62
     2
 10
1361.902528837
 20
674.08
 30
0.0
 11
1331.902528837
 21
674.08
 31
0.0
  0
LINE
  8
0
  6
LTYPE1
 62
     2
 10
1361.902528837
 20
699.08
 30
0.0
 11
1331.902528837
 21
699.08
 31
0.0
  0
LINE
  8
2
  6
CONTINUOUS
 62
     2
 10
1334.402528837
 20
597.580015259
 30
0.0
 11
1334.402528837
 21
453.035844123
 31
0.0
  0
LINE
  8
2
  6
CONTINUOUS
 62
     2
 10
1334.402528837
 20
463.035844123
 30
0.0
 11
1346.476601666
 21
459.800606059
 31
0.0
  0
LINE
  8
2
  6
CONTINUOUS
 62
     2
 10
1334.402528837
 20
463.035844123
 30
0.0
 11
1346.476601666
 21
466.271082186
 31
0.0
  0
LINE
  8
2
  6
CONTINUOUS
 62
     2
 10
1334.402528837
 20
463.035844123
 30
0.0
 11
1519.402528837
 21
463.035844123
 31
0.0
  0
LINE
  8
2
  6
CONTINUOUS
 62
     2
 10
1331.902528837
 20
658.58
 30
0.0
 11
1331.902528837
 21
412.580015259
 31
0.0
  0
LINE
  8
2
  6
CONTINUOUS
 62
     2
 10
1331.902528837
 20
422.580015259
 30
0.0
 11
1343.976601666
 21
419.344777195
 31
0.0
  0
LINE
  8
2
  6
CONTINUOUS
 62
     2
 10
1331.902528837
 20
422.580015259
 30
0.0
 11
1343.976601666
 21
425.815253323
 31
0.0
  0
LINE
  8
2
  6
CONTINUOUS
 62
     2
 10
1331.902528837
 20
422.580015259
 30
0.0
 11
1521.902528837
 21
422.580015259
 31
0.0
  0
LINE
  8
0
  6
CONTINUOUS
 62
     2
 10
1426.902528837
 20
572.58
 30
0.0
 11
1426.902528837
 21
568.18
 31
0.0
  0
CIRCLE
  8
0
  6
CONTINUOUS
 62
     1
 10
1426.902528837
 20
1001.08
 30
0.0
 40
12.055
  0
CIRCLE
  8
0
  6
CONTINUOUS
 62
     1
 10
1426.902528837
 20
1001.08
 30
0.0
 40
20.0
  0
CIRCLE
  8
0
  6
CONTINUOUS
 62
     1
 10
1426.902528837
 20
1001.08
 30
0.0
 40
25.0
  0
CIRCLE
  8
0
  6
CONTINUOUS
 62
     2
 10
1426.902528837
 20
1001.08
 30
0.0
 40
13.221
  0
LINE
  8
0
  6
LTYPE3
 62
     2
 10
1390.402528837
 20
1001.08
 30
0.0
 11
1462.402528837
 21
1001.08
 31
0.0
  0
ARC
  8
0
  6
CONTINUOUS
 62
     1
 10
1456.902528837
 20
976.58
 30
0.0
 40
10.0
 50
270.0
 51
0.0
  0
LINE
  8
0
  6
CONTINUOUS
 62
     1
 10
1426.902528837
 20
1045.58
 30
0.0
 11
1456.902528837
 21
1045.58
 31
0.0
  0
LINE
  8
0
  6
CONTINUOUS
 62
     1
 10
1466.902528837
 20
976.58
 30
0.0
 11
1466.902528837
 21
1035.58
 31
0.0
  0
ARC
  8
0
  6
CONTINUOUS
 62
     1
 10
1456.902528837
 20
1035.58
 30
0.0
 40
10.0
 50
0.0
 51
90.0
  0
LINE
  8
0
  6
CONTINUOUS
 62
     1
 10
1426.902528837
 20
1050.58
 30
0.0
 11
1466.902528837
 21
1050.58
 31
0.0
  0
ARC
  8
0
  6
CONTINUOUS
 62
     1
 10
1466.902528837
 20
1040.58
 30
0.0
 40
10.0
 50
0.0
 51
90.0
  0
LINE
  8
0
  6
CONTINUOUS
 62
     1
 10
1426.902528837
 20
966.58
 30
0.0
 11
1466.902528837
 21
966.58
 31
0.0
  0
LINE
  8
0
  6
CONTINUOUS
 62
     1
 10
1476.902528837
 20
976.58
 30
0.0
 11
1476.902528837
 21
1040.58
 31
0.0
  0
ARC
  8
0
  6
CONTINUOUS
 62
     1
 10
1466.902528837
 20
976.58
 30
0.0
 40
10.0
 50
270.0
 51
0.0
  0
LINE
  8
0
  6
CONTINUOUS
 62
     1
 10
1457.262655444
 20
966.586486662
 30
0.0
 11
1457.262655444
 21
961.086486662
 31
0.0
  0
LINE
  8
0
  6
CONTINUOUS
 62
     1
 10
1426.902528837
 20
1045.58
 30
0.0
 11
1396.902528837
 21
1045.58
 31
0.0
  0
LINE
  8
0
  6
CONTINUOUS
 62
     1
 10
1386.902528837
 20
976.58
 30
0.0
 11
1386.902528837
 21
1035.58
 31
0.0
  0
ARC
  8
0
  6
CONTINUOUS
 62
     1
 10
1396.902528837
 20
1035.58
 30
0.0
 40
10.0
 50
90.0
 51
180.0
  0
LINE
  8
0
  6
CONTINUOUS
 62
     1
 10
1426.902528837
 20
1050.58
 30
0.0
 11
1386.902528837
 21
1050.58
 31
0.0
  0
ARC
  8
0
  6
CONTINUOUS
 62
     1
 10
1386.902528837
 20
1040.58
 30
0.0
 40
10.0
 50
90.0
 51
180.0
  0
LINE
  8
0
  6
CONTINUOUS
 62
     1
 10
1376.902528837
 20
976.58
 30
0.0
 11
1376.902528837
 21
1040.58
 31
0.0
  0
ARC
  8
0
  6
CONTINUOUS
 62
     1
 10
1396.902528837
 20
976.58
 30
0.0
 40
10.0
 50
180.0
 51
270.0
  0
LINE
  8
0
  6
CONTINUOUS
 62
     1
 10
1426.902528837
 20
966.58
 30
0.0
 11
1386.902528837
 21
966.58
 31
0.0
  0
ARC
  8
0
  6
CONTINUOUS
 62
     1
 10
1386.902528837
 20
976.58
 30
0.0
 40
10.0
 50
180.0
 51
270.0
  0
LINE
  8
0
  6
CONTINUOUS
 62
     1
 10
1396.54240223
 20
966.586486662
 30
0.0
 11
1396.54240223
 21
961.086486662
 31
0.0
  0
ARC
  8
0
  6
CONTINUOUS
 62
     1
 10
1468.152528837
 20
791.132904188
 30
0.0
 40
20.0
 50
210.0
 51
300.0
  0
ARC
  8
0
  6
CONTINUOUS
 62
     1
 10
1468.152528837
 20
791.132904188
 30
0.0
 40
20.0
 50
300.0
 51
30.0
  0
LINE
  8
0
  6
CONTINUOUS
 62
     1
 10
1344.402528837
 20
842.58
 30
0.0
 11
1415.355523453
 21
842.58
 31
0.0
  0
LINE
  8
0
  6
CONTINUOUS
 62
     1
 10
1450.832020761
 20
781.132904188
 30
0.0
 11
1415.355523453
 21
842.58
 31
0.0
  0
ARC
  8
0
  6
CONTINUOUS
 62
     1
 10
1468.152528837
 20
934.027095812
 30
0.0
 40
20.0
 50
330.0
 51
60.0
  0
ARC
  8
0
  6
CONTINUOUS
 62
     1
 10
1468.152528837
 20
934.027095812
 30
0.0
 40
20.0
 50
60.0
 51
150.0
  0
LINE
  8
0
  6
CONTINUOUS
 62
     1
 10
1450.832020761
 20
944.027095812
 30
0.0
 11
1415.355523453
 21
882.58
 31
0.0
  0
LINE
  8
0
  6
CONTINUOUS
 62
     1
 10
1344.402528837
 20
882.58
 30
0.0
 11
1415.355523453
 21
882.58
 31
0.0
  0
LINE
  8
0
  6
CONTINUOUS
 62
     1
 10
1430.23586217
 20
882.300265944
 30
0.0
 11
1488.569195504
 21
872.440132972
 31
0.0
  0
LINE
  8
0
  6
CONTINUOUS
 62
     1
 10
1430.23586217
 20
842.859734056
 30
0.0
 11
1488.569195504
 21
852.719867028
 31
0.0
  0
LINE
  8
0
  6
LTYPE3
 62
     2
 10
1486.902528837
 20
847.58
 30
0.0
 11
1486.902528837
 21
882.58
 31
0.0
  0
ARC
  8
0
  6
CONTINUOUS
 62
     1
 10
1426.902528837
 20
862.58
 30
0.0
 40
20.0
 50
80.405931773
 51
279.594068227
  0
ARC
  8
0
  6
CONTINUOUS
 62
     1
 10
1486.902528837
 20
862.58
 30
0.0
 40
10.0
 50
279.594068227
 51
80.405931773
  0
CIRCLE
  8
0
  6
CONTINUOUS
 62
     1
 10
1486.902528837
 20
862.58
 30
0.0
 40
9.0
  0
CIRCLE
  8
0
  6
CONTINUOUS
 62
     1
 10
1426.902528837
 20
862.58
 30
0.0
 40
19.0
  0
CIRCLE
  8
0
  6
CONTINUOUS
 62
     1
 10
1413.802528837
 20
862.58
 30
0.0
 40
4.0
  0
CIRCLE
  8
0
  6
CONTINUOUS
 62
     1
 10
1426.902528837
 20
849.48
 30
0.0
 40
4.0
  0
CIRCLE
  8
0
  6
CONTINUOUS
 62
     1
 10
1440.002528837
 20
862.58
 30
0.0
 40
4.0
  0
CIRCLE
  8
0
  6
CONTINUOUS
 62
     1
 10
1426.902528837
 20
875.68
 30
0.0
 40
4.0
  0
CIRCLE
  8
0
  6
CONTINUOUS
 62
     1
 10
1426.902528837
 20
862.58
 30
0.0
 40
4.0
  0
LINE
  8
0
  6
CONTINUOUS
 62
     1
 10
1485.473036913
 20
924.027095812
 30
0.0
 11
1458.612740675
 21
877.503698023
 31
0.0
  0
LINE
  8
0
  6
CONTINUOUS
 62
     1
 10
1485.473036913
 20
801.132904188
 30
0.0
 11
1458.612740675
 21
847.656301977
 31
0.0
  0
ARC
  8
0
  6
LTYPE1
 62
     2
 10
1426.902528837
 20
862.58
 30
0.0
 40
100.0
 50
306.110646249
 51
53.889353751
  0
LINE
  8
2
  6
CONTINUOUS
 62
     2
 10
1471.902544096
 20
1050.58
 30
0.0
 11
1645.102544096
 21
1050.58
 31
0.0
  0
LINE
  8
0
  6
CONTINUOUS
 62
     1
 10
1381.902528837
 20
620.58
 30
0.0
 11
1471.902528837
 21
620.58
 31
0.0
  0
LINE
  8
0
  6
CONTINUOUS
 62
     1
 10
1359.902528837
 20
627.58
 30
0.0
 11
1359.902528837
 21
659.902226137
 31
0.0
  0
ARC
  8
0
  6
CONTINUOUS
 62
     1
 10
1367.902528837
 20
627.58
 30
0.0
 40
8.0
 50
180.0
 51
270.0
  0
LINE
  8
0
  6
CONTINUOUS
 62
     1
 10
1493.902528837
 20
712.402226137
 30
0.0
 11
1493.902528837
 21
745.58
 31
0.0
  0
ARC
  8
0
  6
CONTINUOUS
 62
     1
 10
1485.902528837
 20
745.58
 30
0.0
 40
8.0
 50
0.0
 51
90.0
  0
LINE
  8
0
  6
CONTINUOUS
 62
     1
 10
1493.902528837
 20
627.58
 30
0.0
 11
1493.902528837
 21
660.757773863
 31
0.0
  0
ARC
  8
0
  6
CONTINUOUS
 62
     1
 10
1485.902528837
 20
627.58
 30
0.0
 40
8.0
 50
270.0
 51
0.0
  0
LINE
  8
0
  6
CONTINUOUS
 62
     1
 10
1475.902528837
 20
619.58
 30
0.0
 11
1485.902528837
 21
619.58
 31
0.0
  0
LINE
  8
0
  6
CONTINUOUS
 62
     1
 10
1367.902528837
 20
619.58
 30
0.0
 11
1378.902528837
 21
619.58
 31
0.0
  0
CIRCLE
  8
0
  6
CONTINUOUS
 62
     1
 10
1479.902528837
 20
739.58
 30
0.0
 40
9.0
  0
LINE
  8
0
  6
CONTINUOUS
 62
     1
 10
1385.902528837
 20
620.58
 30
0.0
 11
1472.902528837
 21
620.58
 31
0.0
  0
CIRCLE
  8
0
  6
CONTINUOUS
 62
     1
 10
1426.902528837
 20
593.08
 30
0.0
 40
9.3155
  0
ARC
  8
0
  6
CONTINUOUS
 62
     1
 10
1378.902528837
 20
616.08
 30
0.0
 40
3.0
 50
90.0
 51
180.0
  0
LINE
  8
0
  6
CONTINUOUS
 62
     1
 10
1375.902528837
 20
569.58
 30
0.0
 11
1375.902528837
 21
616.08
 31
0.0
  0
ARC
  8
0
  6
CONTINUOUS
 62
     1
 10
1376.902528837
 20
569.58
 30
0.0
 40
1.0
 50
180.0
 51
270.0
  0
ARC
  8
0
  6
CONTINUOUS
 62
     1
 10
1379.902528837
 20
568.58
 30
0.0
 40
1.0
 50
180.0
 51
270.0
  0
ARC
  8
0
  6
CONTINUOUS
 62
     1
 10
1474.902528837
 20
616.08
 30
0.0
 40
3.0
 50
0.0
 51
90.0
  0
LINE
  8
0
  6
CONTINUOUS
 62
     1
 10
1477.902528837
 20
569.58
 30
0.0
 11
1477.902528837
 21
616.08
 31
0.0
  0
ARC
  8
0
  6
CONTINUOUS
 62
     1
 10
1476.902528837
 20
569.58
 30
0.0
 40
1.0
 50
270.0
 51
0.0
  0
ARC
  8
0
  6
CONTINUOUS
 62
     1
 10
1473.902528837
 20
568.58
 30
0.0
 40
1.0
 50
270.0
 51
0.0
  0
LINE
  8
0
  6
CONTINUOUS
 62
     1
 10
1477.902528837
 20
574.58
 30
0.0
 11
1375.902528837
 21
574.58
 31
0.0
  0
LINE
  8
0
  6
CONTINUOUS
 62
     1
 10
1477.902528837
 20
576.08
 30
0.0
 11
1375.902528837
 21
576.08
 31
0.0
  0
LINE
  8
0
  6
CONTINUOUS
 62
     1
 10
1378.902528837
 20
619.08
 30
0.0
 11
1474.902528837
 21
619.08
 31
0.0
  0
LINE
  8
0
  6
CONTINUOUS
 62
     1
 10
1473.902528837
 20
567.58
 30
0.0
 11
1379.902528837
 21
567.58
 31
0.0
  0
LINE
  8
0
  6
CONTINUOUS
 62
     1
 10
1476.902528837
 20
568.58
 30
0.0
 11
1376.902528837
 21
568.58
 31
0.0
  0
LINE
  8
0
  6
CONTINUOUS
 62
     1
 10
1464.598682487
 20
753.58
 30
0.0
 11
1485.902528837
 21
753.58
 31
0.0
  0
LINE
  8
0
  6
CONTINUOUS
 62
     1
 10
1454.402528837
 20
711.58
 30
0.0
 11
1439.402528837
 21
711.58
 31
0.0
  0
LINE
  8
0
  6
CONTINUOUS
 62
     1
 10
1458.902528837
 20
664.58
 30
0.0
 11
1458.902528837
 21
708.58
 31
0.0
  0
LINE
  8
0
  6
CONTINUOUS
 62
     1
 10
1464.902528837
 20
674.08
 30
0.0
 11
1464.902528837
 21
699.08
 31
0.0
  0
LINE
  8
0
  6
CONTINUOUS
 62
     1
 10
1464.902528837
 20
699.08
 30
0.0
 11
1458.902528837
 21
699.08
 31
0.0
  0
LINE
  8
0
  6
CONTINUOUS
 62
     1
 10
1464.902528837
 20
674.08
 30
0.0
 11
1458.902528837
 21
674.08
 31
0.0
  0
LINE
  8
0
  6
CONTINUOUS
 62
     1
 10
1458.902528837
 20
708.58
 30
0.0
 11
1454.402528837
 21
708.58
 31
0.0
  0
LINE
  8
0
  6
CONTINUOUS
 62
     1
 10
1458.902528837
 20
664.58
 30
0.0
 11
1454.402528837
 21
664.58
 31
0.0
  0
CIRCLE
  8
0
  6
CONTINUOUS
 62
     1
 10
1460.902528837
 20
686.58
 30
0.0
 40
2.0
  0
LINE
  8
0
  6
CONTINUOUS
 62
     1
 10
1394.902528837
 20
664.58
 30
0.0
 11
1394.902528837
 21
708.58
 31
0.0
  0
LINE
  8
0
  6
CONTINUOUS
 62
     1
 10
1388.902528837
 20
674.08
 30
0.0
 11
1388.902528837
 21
699.08
 31
0.0
  0
LINE
  8
0
  6
CONTINUOUS
 62
     1
 10
1388.902528837
 20
699.08
 30
0.0
 11
1394.902528837
 21
699.08
 31
0.0
  0
LINE
  8
0
  6
CONTINUOUS
 62
     1
 10
1388.902528837
 20
674.08
 30
0.0
 11
1394.902528837
 21
674.08
 31
0.0
  0
LINE
  8
0
  6
CONTINUOUS
 62
     1
 10
1394.902528837
 20
708.58
 30
0.0
 11
1399.402528837
 21
708.58
 31
0.0
  0
LINE
  8
0
  6
CONTINUOUS
 62
     1
 10
1394.902528837
 20
664.58
 30
0.0
 11
1399.402528837
 21
664.58
 31
0.0
  0
CIRCLE
  8
0
  6
CONTINUOUS
 62
     1
 10
1392.902528837
 20
686.58
 30
0.0
 40
2.0
  0
LINE
  8
0
  6
CONTINUOUS
 62
     1
 10
1439.402528837
 20
674.08
 30
0.0
 11
1414.402528837
 21
674.08
 31
0.0
  0
LINE
  8
0
  6
CONTINUOUS
 62
     1
 10
1439.402528837
 20
699.08
 30
0.0
 11
1414.402528837
 21
699.08
 31
0.0
  0
LINE
  8
0
  6
CONTINUOUS
 62
     1
 10
1414.402528837
 20
674.08
 30
0.0
 11
1439.402528837
 21
674.08
 31
0.0
  0
LINE
  8
0
  6
CONTINUOUS
 62
     1
 10
1414.402528837
 20
699.08
 30
0.0
 11
1439.402528837
 21
699.08
 31
0.0
  0
LINE
  8
0
  6
CONTINUOUS
 62
     1
 10
1399.402528837
 20
711.58
 30
0.0
 11
1439.402528837
 21
711.58
 31
0.0
  0
LINE
  8
0
  6
CONTINUOUS
 62
     1
 10
1454.402528837
 20
661.58
 30
0.0
 11
1454.402528837
 21
711.58
 31
0.0
  0
LINE
  8
0
  6
CONTINUOUS
 62
     1
 10
1399.402528837
 20
661.58
 30
0.0
 11
1454.402528837
 21
661.58
 31
0.0
  0
LINE
  8
0
  6
CONTINUOUS
 62
     1
 10
1439.402528837
 20
661.58
 30
0.0
 11
1439.402528837
 21
711.58
 31
0.0
  0
LINE
  8
0
  6
CONTINUOUS
 62
     1
 10
1414.402528837
 20
661.58
 30
0.0
 11
1414.402528837
 21
711.58
 31
0.0
  0
LINE
  8
0
  6
CONTINUOUS
 62
     1
 10
1399.402528837
 20
661.58
 30
0.0
 11
1399.402528837
 21
711.58
 31
0.0
  0
LINE
  8
0
  6
CONTINUOUS
 62
     1
 10
1521.902528837
 20
663.58
 30
0.0
 11
1521.902528837
 21
709.58
 31
0.0
  0
LINE
  8
0
  6
CONTINUOUS
 62
     1
 10
1521.902528837
 20
663.58
 30
0.0
 11
1481.902528837
 21
658.671780632
 31
0.0
  0
LINE
  8
0
  6
CONTINUOUS
 62
     1
 10
1521.902528837
 20
709.58
 30
0.0
 11
1482.402528837
 21
714.426866626
 31
0.0
  0
LINE
  8
0
  6
CONTINUOUS
 62
     1
 10
1471.902528837
 20
620.58
 30
0.0
 11
1471.902528837
 21
643.38676371
 31
0.0
  0
LINE
  8
0
  6
CONTINUOUS
 62
     1
 10
1381.902528837
 20
620.58
 30
0.0
 11
1381.902528837
 21
643.206621068
 31
0.0
  0
ARC
  8
0
  6
CONTINUOUS
 62
     1
 10
1373.902528837
 20
633.58
 30
0.0
 40
9.0
 50
24.386100197
 51
334.165016937
  0
ARC
  8
0
  6
CONTINUOUS
 62
     1
 10
1479.902528837
 20
633.58
 30
0.0
 40
9.0
 50
202.863808572
 51
155.613899803
  0
ARC
  8
0
  6
CONTINUOUS
 62
     1
 10
1509.402528837
 20
602.58
 30
0.0
 40
10.0
 50
270.0
 51
0.0
  0
LINE
  8
0
  6
CONTINUOUS
 62
     1
 10
1519.402528837
 20
602.58
 30
0.0
 11
1519.402528837
 21
663.273236289
 31
0.0
  0
LINE
  8
0
  6
CONTINUOUS
 62
     1
 10
1477.902528837
 20
592.58
 30
0.0
 11
1509.402528837
 21
592.58
 31
0.0
  0
LINE
  8
0
  6
CONTINUOUS
 62
     1
 10
1344.402528837
 20
592.58
 30
0.0
 11
1375.902528837
 21
592.58
 31
0.0
  0
LINE
  8
0
  6
LTYPE2
 62
     2
 10
1465.902528837
 20
739.58
 30
0.0
 11
1492.402528837
 21
739.58
 31
0.0
  0
LINE
  8
0
  6
LTYPE2
 62
     2
 10
1479.902528837
 20
725.08
 30
0.0
 11
1479.902528837
 21
752.08
 31
0.0
  0
LINE
  8
0
  6
LTYPE2
 62
     2
 10
1387.902528837
 20
633.58
 30
0.0
 11
1361.402528837
 21
633.58
 31
0.0
  0
LINE
  8
0
  6
LTYPE2
 62
     2
 10
1373.902528837
 20
648.08
 30
0.0
 11
1373.902528837
 21
621.08
 31
0.0
  0
LINE
  8
0
  6
LTYPE2
 62
     2
 10
1479.902528837
 20
647.58
 30
0.0
 11
1479.902528837
 21
621.08
 31
0.0
  0
LINE
  8
0
  6
LTYPE2
 62
     2
 10
1465.402528837
 20
633.58
 30
0.0
 11
1492.402528837
 21
633.58
 31
0.0
  0
LINE
  8
0
  6
LTYPE2
 62
     2
 10
1471.902528837
 20
563.88
 30
0.0
 11
1471.902528837
 21
582.58
 31
0.0
  0
LINE
  8
0
  6
LTYPE2
 62
     2
 10
1381.902528837
 20
563.88
 30
0.0
 11
1381.902528837
 21
582.58
 31
0.0
  0
LINE
  8
0
  6
LTYPE4
 62
     2
 10
1460.802528837
 20
682.58
 30
0.0
 11
1460.802528837
 21
690.78
 31
0.0
  0
LINE
  8
0
  6
LTYPE1
 62
     2
 10
1458.902528837
 20
699.08
 30
0.0
 11
1439.402528837
 21
699.08
 31
0.0
  0
LINE
  8
0
  6
LTYPE1
 62
     2
 10
1458.902528837
 20
674.08
 30
0.0
 11
1439.402528837
 21
674.08
 31
0.0
  0
LINE
  8
0
  6
LTYPE4
 62
     2
 10
1393.002528837
 20
682.58
 30
0.0
 11
1393.002528837
 21
690.78
 31
0.0
  0
LINE
  8
0
  6
LTYPE1
 62
     2
 10
1394.902528837
 20
699.08
 30
0.0
 11
1414.402528837
 21
699.08
 31
0.0
  0
LINE
  8
0
  6
LTYPE1
 62
     2
 10
1394.902528837
 20
674.08
 30
0.0
 11
1414.402528837
 21
674.08
 31
0.0
  0
LINE
  8
0
  6
LTYPE1
 62
     2
 10
1491.902528837
 20
674.08
 30
0.0
 11
1521.902528837
 21
674.08
 31
0.0
  0
LINE
  8
0
  6
LTYPE1
 62
     2
 10
1491.902528837
 20
699.08
 30
0.0
 11
1521.902528837
 21
699.08
 31
0.0
  0
LINE
  8
0
  6
LTYPE1
 62
     2
 10
1491.902528837
 20
674.08
 30
0.0
 11
1491.902528837
 21
699.08
 31
0.0
  0
LINE
  8
0
  6
LTYPE1
 62
     2
 10
1361.902528837
 20
674.08
 30
0.0
 11
1361.902528837
 21
699.08
 31
0.0
  0
CIRCLE
  8
0
  6
CONTINUOUS
 62
     2
 10
1426.902528837
 20
593.08
 30
0.0
 40
10.4775
  0
LINE
  8
0
  6
LTYPE2
 62
     3
 10
1446.802528837
 20
593.08
 30
0.0
 11
1406.102528837
 21
593.08
 31
0.0
  0
LINE
  8
0
  6
CONTINUOUS
 62
     1
 10
1519.402528837
 20
709.773236289
 30
0.0
 11
1519.402528837
 21
819.08
 31
0.0
  0
LINE
  8
2
  6
CONTINUOUS
 62
     2
 10
1473.774747513
 20
567.58
 30
0.0
 11
1600.774747513
 21
567.58
 31
0.0
  0
LINE
  8
2
  6
CONTINUOUS
 62
     2
 10
1519.402528837
 20
463.035844123
 30
0.0
 11
1507.328456008
 21
466.271082186
 31
0.0
  0
LINE
  8
2
  6
CONTINUOUS
 62
     2
 10
1519.402528837
 20
463.035844123
 30
0.0
 11
1507.328456008
 21
459.800606059
 31
0.0
  0
LINE
  8
2
  6
CONTINUOUS
 62
     2
 10
1519.402528837
 20
597.580015259
 30
0.0
 11
1519.402528837
 21
453.035844123
 31
0.0
  0
LINE
  8
2
  6
CONTINUOUS
 62
     2
 10
1521.902528837
 20
422.580015259
 30
0.0
 11
1509.828456008
 21
425.815253323
 31
0.0
  0
LINE
  8
2
  6
CONTINUOUS
 62
     2
 10
1521.902528837
 20
422.580015259
 30
0.0
 11
1509.828456008
 21
419.344777195
 31
0.0
  0
LINE
  8
2
  6
CONTINUOUS
 62
     2
 10
1521.902528837
 20
658.58
 30
0.0
 11
1521.902528837
 21
412.580015259
 31
0.0
  0
LINE
  8
2
  6
CONTINUOUS
 62
     2
 10
1594.902544096
 20
1050.58
 30
0.0
 11
1600.774747513
 21
1050.58
 31
0.0
  0
LINE
  8
2
  6
CONTINUOUS
 62
     2
 10
1638.902528837
 20
1050.58
 30
0.0
 11
1646.902528837
 21
1050.58
 31
0.0
  0
LINE
  8
2
  6
CONTINUOUS
 62
     2
 10
1636.902528837
 20
1050.58
 30
0.0
 11
1633.667290773
 21
1038.505927171
 31
0.0
  0
LINE
  8
2
  6
CONTINUOUS
 62
     2
 10
1636.902528837
 20
1050.58
 30
0.0
 11
1640.137766901
 21
1038.505927171
 31
0.0
  0
LINE
  8
2
  6
CONTINUOUS
 62
     2
 10
1636.902528837
 20
1050.58
 30
0.0
 11
1636.902528837
 21
567.58
 31
0.0
  0
LINE
  8
2
  6
CONTINUOUS
 62
     2
 10
1636.902528837
 20
567.58
 30
0.0
 11
1640.137766901
 21
579.654072829
 31
0.0
  0
LINE
  8
2
  6
CONTINUOUS
 62
     2
 10
1636.902528837
 20
567.58
 30
0.0
 11
1633.667290773
 21
579.654072829
 31
0.0
  0
LINE
  8
2
  6
CONTINUOUS
 62
     2
 10
1587.902528837
 20
567.58
 30
0.0
 11
1646.902528837
 21
567.58
 31
0.0
  0
TEXT
  8
2
  6
CONTINUOUS
 62
     3
 10
522.402528837
 20
1127.28
 30
0.0
 40
18.0
  1
３７０
 50
0.0
 41
0.9
 51
0.0
  7
KANJI13
  0
TEXT
  8
2
  6
CONTINUOUS
 62
     3
 10
610.902528837
 20
1073.28
 30
0.0
 40
18.0
  1
ＰＦ３／４
 50
0.0
 41
0.9
 51
0.0
  7
KANJI13
  0
TEXT
  8
2
  6
CONTINUOUS
 62
     3
 10
637.052528837
 20
466.08
 30
0.0
 40
18.0
  1
Ｃ
 50
0.0
 41
0.9
 51
0.0
  7
KANJI13
  0
TEXT
  8
2
  6
CONTINUOUS
 62
     3
 10
702.652528837
 20
430.74
 30
0.0
 40
18.0
  1
ｍｉｎ．Ｌ
 50
0.0
 41
0.9
 51
0.0
  7
KANJI13
  0
TEXT
  8
2
  6
CONTINUOUS
 62
     3
 10
604.152528837
 20
391.08
 30
0.0
 40
18.0
  1
ｍｉｎ．ＡＬ
 50
0.0
 41
0.9
 51
0.0
  7
KANJI13
  0
TEXT
  8
0
  6
CONTINUOUS
 62
     3
 10
389.202528837
 20
467.08
 30
0.0
 40
18.0
  1
８５
 50
0.0
 41
0.9
 51
0.0
  7
KANJI13
  0
TEXT
  8
0
  6
CONTINUOUS
 62
     3
 10
282.602528837
 20
467.08
 30
0.0
 40
18.0
  1
１１２
 50
0.0
 41
0.9
 51
0.0
  7
KANJI13
  0
TEXT
  8
0
  6
CONTINUOUS
 62
     3
 10
325.102528837
 20
431.74
 30
0.0
 40
18.0
  1
１９７
 50
0.0
 41
0.9
 51
0.0
  7
KANJI13
  0
TEXT
  8
2
  6
CONTINUOUS
 62
     3
 10
1001.652528837
 20
466.08
 30
0.0
 40
18.0
  1
５０
 50
0.0
 41
0.9
 51
0.0
  7
KANJI13
  0
TEXT
  8
2
  6
CONTINUOUS
 62
     3
 10
1631.902528837
 20
783.58
 30
0.0
 40
18.0
  1
４８３
 50
90.0
 41
0.9
 51
0.0
  7
KANJI13
  0
TEXT
  8
2
  6
CONTINUOUS
 62
     3
 10
1401.402528837
 20
468.035844123
 30
0.0
 40
18.0
  1
１８５
 50
0.0
 41
0.9
 51
0.0
  7
KANJI13
  0
TEXT
  8
2
  6
CONTINUOUS
 62
     3
 10
1401.402528837
 20
427.580015259
 30
0.0
 40
18.0
  1
１９０
 50
0.0
 41
0.9
 51
0.0
  7
KANJI13
  0
TEXT
  8
2
  6
CONTINUOUS
 62
     3
 10
1069.502528837
 20
778.93
 30
0.0
 40
18.0
  1
φ２５Ｈ１０
 50
0.0
 41
0.9
 51
0.0
  7
KANJI13
  0
TEXT
  8
0
  6
CONTINUOUS
 62
     2
 10
1112.4
 20
691.83
 30
0.0
 40
18.0
  1
５０
 50
90.0
 41
0.9
 51
0.0
  7
KANJI13
  0
TEXT
  8
0
  6
CONTINUOUS
 62
     2
 10
621.702528837
 20
684.08
 30
0.0
 40
18.0
  1
φ８９
 50
90.0
 41
0.9
 51
0.0
  7
KANJI13
  0
LINE
  8
0
  6
LTYPE2
 62
     2
 10
601.0
 20
706.58
 30
0.0
 11
251.802528837
 21
706.58
 31
0.0
  0
ARC
  8
0
  6
LTYPE1
 62
     2
 10
1426.902528837
 20
862.58
 30
0.0
 40
100.0
 50
187.159439499
 51
293.041096251
  0
LINE
  8
0
  6
LTYPE3
 62
     2
 10
1426.902528837
 20
551.73
 30
0.0
 11
1426.902528837
 21
995.533571429
 31
0.0
  0
LINE
  8
0
  6
CONTINUOUS
 62
     1
 10
1346.44703539
 20
789.972269662
 30
0.0
 11
1381.29414145
 21
824.819375722
 31
0.0
  0
LINE
  8
0
  6
LTYPE2
 62
     2
 10
1372.031042617
 20
823.475872838
 30
0.0
 11
1413.043235926
 21
782.463679529
 31
0.0
  0
LINE
  8
0
  6
LTYPE2
 62
     2
 10
1394.022063512
 20
822.839476735
 30
0.0
 11
1427.256082228
 21
789.605458019
 31
0.0
  0
CIRCLE
  8
0
  6
CONTINUOUS
 62
     1
 10
1398.193993521
 20
797.312921934
 30
0.0
 40
9.36
  0
CIRCLE
  8
0
  6
CONTINUOUS
 62
     2
 10
1398.193993521
 20
797.312921934
 30
0.0
 40
10.47
  0
LINE
  8
0
  6
CONTINUOUS
 62
     1
 10
1402.860898277
 20
820.930288425
 30
0.0
 11
1374.576627029
 21
792.646017178
 31
0.0
  0
LINE
  8
0
  6
CONTINUOUS
 62
     1
 10
1399.275496263
 20
817.344886412
 30
0.0
 11
1374.576627029
 21
792.646017178
 31
0.0
  0
LINE
  8
0
  6
CONTINUOUS
 62
     1
 10
1399.325364371
 20
824.465822331
 30
0.0
 11
1371.041093123
 21
796.181551084
 31
0.0
  0
LINE
  8
0
  6
CONTINUOUS
 62
     1
 10
1381.29414145
 20
824.819375722
 30
0.0
 11
1390.486529606
 21
815.626987567
 31
0.0
  0
LINE
  8
0
  6
CONTINUOUS
 62
     1
 10
1427.609635618
 20
796.181551084
 30
0.0
 11
1399.325364371
 21
824.465822331
 31
0.0
  0
LINE
  8
0
  6
LTYPE2
 62
     2
 10
1407.386381676
 20
806.505310089
 30
0.0
 11
1389.001605365
 21
788.120533778
 31
0.0
  0
LINE
  8
0
  6
CONTINUOUS
 62
     1
 10
1406.749985573
 20
799.363531599
 30
0.0
 11
1415.942373729
 21
790.171143444
 31
0.0
  0
LINE
  8
0
  6
CONTINUOUS
 62
     1
 10
1424.781208493
 20
799.009978209
 30
0.0
 11
1396.496937246
 21
770.725706961
 31
0.0
  0
LINE
  8
0
  6
CONTINUOUS
 62
     2
 10
1407.702528837
 20
801.505375119
 30
0.0
 11
1419.442205028
 21
803.991336287
 31
0.0
  0
LINE
  8
0
  6
CONTINUOUS
 62
     2
 10
1407.702528837
 20
801.505375119
 30
0.0
 11
1416.626406067
 21
809.528118739
 31
0.0
  0
LINE
  8
0
  6
CONTINUOUS
 62
     2
 10
1407.702528837
 20
801.505375119
 30
0.0
 11
1658.802528837
 21
929.205375119
 31
0.0
  0
LINE
  8
0
  6
CONTINUOUS
 62
     1
 10
1392.169962723
 20
760.741878188
 30
0.0
 11
1430.791616134
 21
799.363531599
 31
0.0
  0
LINE
  8
0
  6
CONTINUOUS
 62
     1
 10
1435.034256821
 20
795.120890912
 30
0.0
 11
1397.424609445
 21
757.511243537
 31
0.0
  0
LINE
  8
0
  6
CONTINUOUS
 62
     1
 10
1430.791616134
 20
799.363531599
 30
0.0
 11
1435.034256821
 21
795.120890912
 31
0.0
  0
LINE
  8
0
  6
LTYPE2
 62
     2
 10
1405.194350655
 20
768.957940008
 30
0.0
 11
1371.960331939
 21
802.191958724
 31
0.0
  0
LINE
  8
0
  6
CONTINUOUS
 62
     1
 10
1371.041093123
 20
796.181551084
 30
0.0
 11
1399.325364371
 21
767.897279836
 31
0.0
  0
LINE
  8
0
  6
CONTINUOUS
 62
     1
 10
1396.143383855
 20
788.756929881
 30
0.0
 11
1405.335772011
 21
779.564541726
 31
0.0
  0
LINE
  8
0
  6
CONTINUOUS
 62
     1
 10
1394.375616902
 20
772.847027305
 30
0.0
 11
1403.214451667
 21
781.68586207
 31
0.0
  0
LINE
  8
0
  6
LTYPE3
 62
     2
 10
1376.902528837
 20
812.58
 30
0.0
 11
1360.902528837
 21
796.58
 31
0.0
  0
ARC
  8
0
  6
LTYPE3
 62
     2
 10
1426.902528837
 20
862.58
 30
0.0
 40
82.5
 50
213.899731785
 51
235.960335446
  0
LINE
  8
0
  6
CONTINUOUS
 62
     1
 10
1370.687539733
 20
814.212774004
 30
0.0
 11
1379.879927888
 21
805.020385849
 31
0.0
  0
LINE
  8
0
  6
CONTINUOUS
 62
     1
 10
1368.91977278
 20
798.302871427
 30
0.0
 11
1377.758607545
 21
807.141706192
 31
0.0
  0
LINE
  8
0
  6
CONTINUOUS
 62
     1
 10
1361.318374882
 20
792.822793873
 30
0.0
 11
1366.26812235
 21
787.873046405
 31
0.0
  0
LINE
  8
0
  6
CONTINUOUS
 62
     1
 10
1360.894110813
 20
793.247057942
 30
0.0
 11
1368.91977278
 21
798.302871427
 31
0.0
  0
LINE
  8
0
  6
CONTINUOUS
 62
     1
 10
1366.26812235
 20
787.873046405
 30
0.0
 11
1357.268704175
 21
778.87362823
 31
0.0
  0
LINE
  8
0
  6
CONTINUOUS
 62
     1
 10
1353.341326507
 20
785.552852279
 30
0.0
 11
1360.964821491
 21
793.176347264
 31
0.0
  0
LINE
  8
0
  6
CONTINUOUS
 62
     1
 10
1361.318374882
 20
792.822793873
 30
0.0
 11
1351.215202449
 21
782.71962144
 31
0.0
  0
LINE
  8
0
  6
LTYPE4
 62
     2
 10
1325.220573702
 20
751.775245225
 30
0.0
 11
1360.575912762
 21
787.130584285
 31
0.0
  0
ARC
  8
0
  6
LTYPE1
 62
     1
 10
1343.463928657
 20
770.01860018
 30
0.0
 40
16.0
 50
225.0
 51
99.340912304
  0
LINE
  8
0
  6
LTYPE2
 62
     2
 10
1346.575198494
 20
795.19160159
 30
0.0
 11
1361.848704968
 21
779.918095117
 31
0.0
  0
LINE
  8
0
  6
LTYPE1
 62
     2
 10
1359.219151625
 20
780.82407568
 30
0.0
 11
1353.893753679
 21
775.498677734
 31
0.0
  0
LINE
  8
0
  6
LTYPE1
 62
     1
 10
1351.24210325
 20
783.453629023
 30
0.0
 11
1353.341326507
 21
785.552852279
 31
0.0
  0
LINE
  8
0
  6
LTYPE1
 62
     2
 10
1353.135087029
 20
784.63950602
 30
0.0
 11
1351.595656641
 21
783.100075632
 31
0.0
  0
LINE
  8
0
  6
LTYPE1
 62
     1
 10
1344.878142219
 20
789.817590053
 30
0.0
 11
1352.597391247
 21
782.098341025
 31
0.0
  0
LINE
  8
0
  6
CONTINUOUS
 62
     1
 10
1344.878142219
 20
789.817590053
 30
0.0
 11
1440.33755768
 21
731.127727215
 31
0.0
  0
LINE
  8
0
  6
LTYPE1
 62
     2
 10
1348.944006211
 20
780.448425203
 30
0.0
 11
1353.893753679
 21
775.498677734
 31
0.0
  0
LINE
  8
0
  6
CONTINUOUS
 62
     1
 10
1323.664938784
 20
768.604386618
 30
0.0
 11
1344.878142219
 21
789.817590053
 31
0.0
  0
CIRCLE
  8
0
  6
CONTINUOUS
 62
     1
 10
1343.463928657
 20
770.01860018
 30
0.0
 40
6.49995
  0
LINE
  8
0
  6
CONTINUOUS
 62
     1
 10
1341.517320257
 20
762.772891135
 30
0.0
 11
1336.218219612
 21
768.07199178
 31
0.0
  0
LINE
  8
0
  6
CONTINUOUS
 62
     1
 10
1341.517320257
 20
762.772891135
 30
0.0
 11
1348.763029302
 21
764.719499535
 31
0.0
  0
CIRCLE
  8
0
  6
LTYPE1
 62
     2
 10
1343.463928657
 20
770.01860018
 30
0.0
 40
3.2
  0
CIRCLE
  8
0
  6
CONTINUOUS
 62
     1
 10
1343.463928657
 20
770.01860018
 30
0.0
 40
4.0
  0
LINE
  8
0
  6
CONTINUOUS
 62
     1
 10
1345.410537057
 20
777.264309225
 30
0.0
 11
1338.164828012
 21
775.317700825
 31
0.0
  0
LINE
  8
0
  6
CONTINUOUS
 62
     1
 10
1350.709637702
 20
771.96520858
 30
0.0
 11
1348.763029302
 21
764.719499535
 31
0.0
  0
LINE
  8
0
  6
CONTINUOUS
 62
     1
 10
1350.709637702
 20
771.96520858
 30
0.0
 11
1345.410537057
 21
777.264309225
 31
0.0
  0
LINE
  8
0
  6
LTYPE1
 62
     1
 10
1354.777637156
 20
779.918095117
 30
0.0
 11
1355.639423546
 21
780.779881506
 31
0.0
  0
LINE
  8
0
  6
LTYPE4
 62
     2
 10
1320.18031016
 20
793.302218677
 30
0.0
 11
1432.146572709
 21
681.335956128
 31
0.0
  0
ARC
  8
0
  6
CONTINUOUS
 62
     1
 10
1343.463928657
 20
770.01860018
 30
0.0
 40
16.0
 50
99.340912304
 51
170.659087696
  0
LINE
  8
0
  6
CONTINUOUS
 62
     1
 10
1336.218219612
 20
768.07199178
 30
0.0
 11
1338.164828012
 21
775.317700825
 31
0.0
  0
LINE
  8
0
  6
CONTINUOUS
 62
     1
 10
1323.510259175
 20
767.035493447
 30
0.0
 11
1288.663153115
 21
732.188387387
 31
0.0
  0
LINE
  8
0
  6
CONTINUOUS
 62
     1
 10
1327.929676558
 20
760.14120233
 30
0.0
 11
1320.306181573
 21
752.517707346
 31
0.0
  0
LINE
  8
0
  6
LTYPE2
 62
     2
 10
1319.987983522
 20
765.210274068
 30
0.0
 11
1333.56443372
 21
751.633823869
 31
0.0
  0
LINE
  8
0
  6
LTYPE1
 62
     2
 10
1333.034103634
 20
764.538522626
 30
0.0
 11
1337.983851103
 21
759.588775158
 31
0.0
  0
ARC
  8
0
  6
LTYPE1
 62
     1
 10
1343.463928657
 20
770.01860018
 30
0.0
 40
16.0
 50
170.659087696
 51
225.0
  0
LINE
  8
0
  6
LTYPE1
 62
     1
 10
1324.372045565
 20
767.897279836
 30
0.0
 11
1323.510259175
 21
767.035493447
 31
0.0
  0
LINE
  8
0
  6
LTYPE1
 62
     1
 10
1330.028899814
 20
762.240425587
 30
0.0
 11
1327.929676558
 21
760.14120233
 31
0.0
  0
LINE
  8
0
  6
CONTINUOUS
 62
     1
 10
1332.658453157
 20
754.263377212
 30
0.0
 11
1325.609482432
 21
747.214406487
 31
0.0
  0
LINE
  8
0
  6
CONTINUOUS
 62
     1
 10
1330.762907397
 20
762.267326388
 30
0.0
 11
1320.659734964
 21
752.164153955
 31
0.0
  0
LINE
  8
0
  6
LTYPE1
 62
     2
 10
1333.034103634
 20
764.538522626
 30
0.0
 11
1330.762907397
 21
762.267326388
 31
0.0
  0
LINE
  8
0
  6
LTYPE1
 62
     2
 10
1337.983851103
 20
759.588775158
 30
0.0
 11
1332.658453157
 21
754.263377212
 31
0.0
  0
LINE
  8
0
  6
LTYPE1
 62
     1
 10
1323.664938784
 20
768.604386618
 30
0.0
 11
1331.384187812
 21
760.88513759
 31
0.0
  0
LINE
  8
0
  6
CONTINUOUS
 62
     1
 10
1323.664938784
 20
768.604386618
 30
0.0
 11
1382.354801622
 21
673.144971157
 31
0.0
  0
LINE
  8
0
  6
LTYPE2
 62
     2
 10
1291.420869562
 20
740.037272658
 30
0.0
 11
1332.43306287
 21
699.025079349
 31
0.0
  0
LINE
  8
0
  6
LTYPE2
 62
     2
 10
1323.169964037
 20
686.933553391
 30
0.0
 11
1289.935945321
 21
720.167572106
 31
0.0
  0
LINE
  8
0
  6
CONTINUOUS
 62
     1
 10
1289.016706506
 20
714.157164466
 30
0.0
 11
1317.300977753
 21
685.872893219
 31
0.0
  0
LINE
  8
0
  6
CONTINUOUS
 62
     1
 10
1288.663153115
 20
732.188387387
 30
0.0
 11
1307.896457563
 21
712.955082938
 31
0.0
  0
LINE
  8
0
  6
CONTINUOUS
 62
     1
 10
1306.340822645
 20
735.723921292
 30
0.0
 11
1295.734220927
 21
725.117319575
 31
0.0
  0
LINE
  8
0
  6
CONTINUOUS
 62
     1
 10
1301.391075176
 20
719.460465325
 30
0.0
 11
1292.552240412
 21
710.62163056
 31
0.0
  0
LINE
  8
0
  6
CONTINUOUS
 62
     1
 10
1297.784830592
 20
722.925288553
 30
0.0
 11
1289.016706506
 21
714.157164466
 31
0.0
  0
LINE
  8
0
  6
CONTINUOUS
 62
     1
 10
1314.118997238
 20
682.690912703
 30
0.0
 11
1318.361637925
 21
678.448272016
 31
0.0
  0
LINE
  8
0
  6
CONTINUOUS
 62
     1
 10
1355.9712853
 20
716.057919392
 30
0.0
 11
1318.361637925
 21
678.448272016
 31
0.0
  0
LINE
  8
0
  6
CONTINUOUS
 62
     1
 10
1345.585249001
 20
714.157164466
 30
0.0
 11
1317.300977753
 21
685.872893219
 31
0.0
  0
LINE
  8
0
  6
CONTINUOUS
 62
     1
 10
1305.633715863
 20
707.863914114
 30
0.0
 11
1320.765800981
 21
692.731828996
 31
0.0
  0
ARC
  8
0
  6
CONTINUOUS
 62
     1
 10
1322.180014543
 20
694.146042559
 30
0.0
 40
2.0
 50
225.0
 51
315.0
  0
LINE
  8
0
  6
CONTINUOUS
 62
     1
 10
1314.118997238
 20
682.690912703
 30
0.0
 11
1352.740650649
 21
721.312566114
 31
0.0
  0
LINE
  8
0
  6
CONTINUOUS
 62
     1
 10
1338.726313223
 20
707.863914114
 30
0.0
 11
1323.594228106
 21
692.731828996
 31
0.0
  0
LINE
  8
0
  6
CONTINUOUS
 62
     1
 10
1299.269754833
 20
742.794989104
 30
0.0
 11
1318.503059281
 21
723.561684656
 31
0.0
  0
LINE
  8
0
  6
LTYPE2
 62
     2
 10
1311.997676894
 20
740.815090117
 30
0.0
 11
1345.23169561
 21
707.581071401
 31
0.0
  0
LINE
  8
0
  6
CONTINUOUS
 62
     1
 10
1345.585249001
 20
714.157164466
 30
0.0
 11
1317.300977753
 21
742.441435714
 31
0.0
  0
LINE
  8
0
  6
CONTINUOUS
 62
     1
 10
1320.765800981
 20
725.824426356
 30
0.0
 11
1305.633715863
 21
710.692341238
 31
0.0
  0
LINE
  8
0
  6
LTYPE2
 62
     2
 10
1312.209808929
 20
699.307922061
 30
0.0
 11
1332.291641514
 21
719.389754647
 31
0.0
  0
LINE
  8
0
  6
CONTINUOUS
 62
     1
 10
1315.17965741
 20
744.562756057
 30
0.0
 11
1306.340822645
 21
735.723921292
 31
0.0
  0
LINE
  8
0
  6
CONTINUOUS
 62
     1
 10
1320.836511659
 20
738.905901808
 30
0.0
 11
1311.926966216
 21
729.996356365
 31
0.0
  0
LINE
  8
0
  6
CONTINUOUS
 62
     1
 10
1317.300977753
 20
742.441435714
 30
0.0
 11
1308.462142988
 21
733.602600949
 31
0.0
  0
ARC
  8
0
  6
CONTINUOUS
 62
     1
 10
1307.047929426
 20
709.278127676
 30
0.0
 40
2.0
 50
135.0
 51
225.0
  0
LINE
  8
0
  6
CONTINUOUS
 62
     1
 10
1320.235470895
 20
752.588418024
 30
0.0
 11
1315.17965741
 21
744.562756057
 31
0.0
  0
LINE
  8
0
  6
CONTINUOUS
 62
     1
 10
1320.659734964
 20
752.164153955
 30
0.0
 11
1325.609482432
 21
747.214406487
 31
0.0
  0
ARC
  8
0
  6
CONTINUOUS
 62
     1
 10
1322.180014543
 20
724.410212793
 30
0.0
 40
2.0
 50
45.0
 51
135.0
  0
LINE
  8
0
  6
CONTINUOUS
 62
     1
 10
1323.594228106
 20
725.824426356
 30
0.0
 11
1338.726313223
 21
710.692341238
 31
0.0
  0
ARC
  8
0
  6
CONTINUOUS
 62
     1
 10
1337.312099661
 20
709.278127676
 30
0.0
 40
2.0
 50
315.0
 51
45.0
  0
LINE
  8
0
  6
CONTINUOUS
 62
     1
 10
1352.302763422
 20
711.682290732
 30
0.0
 11
1366.444899046
 21
697.540155108
 31
0.0
  0
LINE
  8
0
  6
CONTINUOUS
 62
     1
 10
1352.302763422
 20
711.682290732
 30
0.0
 11
1356.412416136
 21
715.791943447
 31
0.0
  0
LINE
  8
0
  6
LTYPE2
 62
     2
 10
1373.902528837
 20
725.58
 30
0.0
 11
1373.902528837
 21
752.08
 31
0.0
  0
LINE
  8
0
  6
LTYPE2
 62
     2
 10
1388.402528837
 20
739.58
 30
0.0
 11
1361.402528837
 21
739.58
 31
0.0
  0
LINE
  8
0
  6
CONTINUOUS
 62
     1
 10
1401.800238105
 20
761.179765415
 30
0.0
 11
1415.942373729
 21
747.037629791
 31
0.0
  0
LINE
  8
0
  6
CONTINUOUS
 62
     1
 10
1397.778162836
 20
757.157690146
 30
0.0
 11
1401.800238105
 21
761.179765415
 31
0.0
  0
ARC
  8
0
  6
CONTINUOUS
 62
     1
 10
1418.063694072
 20
749.158950135
 30
0.0
 40
3.0
 50
225.0
 51
315.0
  0
LINE
  8
0
  6
CONTINUOUS
 62
     1
 10
1433.620043258
 20
760.472658634
 30
0.0
 11
1420.185014416
 21
747.037629791
 31
0.0
  0
ARC
  8
0
  6
CONTINUOUS
 62
     1
 10
1435.034256821
 20
759.058445072
 30
0.0
 40
2.0
 50
44.999125736
 51
135.0
  0
LINE
  8
0
  6
CONTINUOUS
 62
     1
 10
1436.448491962
 20
760.472637055
 30
0.0
 11
1449.176392444
 21
747.744736573
 31
0.0
  0
ARC
  8
0
  6
CONTINUOUS
 62
     1
 10
1447.762178882
 20
746.33052301
 30
0.0
 40
2.0
 50
315.0
 51
45.0
  0
LINE
  8
0
  6
CONTINUOUS
 62
     1
 10
1437.272347091
 20
733.012264095
 30
0.0
 11
1449.176392444
 21
744.916309448
 31
0.0
  0
LINE
  8
0
  6
CONTINUOUS
 62
     1
 10
1440.69111107
 20
736.431028074
 30
0.0
 11
1458.722323201
 21
718.399815943
 31
0.0
  0
LINE
  8
0
  6
CONTINUOUS
 62
     1
 10
1446.34796532
 20
742.087882323
 30
0.0
 11
1464.37917745
 21
724.056670192
 31
0.0
  0
LINE
  8
0
  6
CONTINUOUS
 62
     1
 10
1440.33755768
 20
731.127727215
 30
0.0
 11
1454.833246694
 21
716.6320382
 31
0.0
  0
LINE
  8
0
  6
LTYPE3
 62
     2
 10
1391.39806467
 20
651.075535833
 30
0.0
 11
1459.365600122
 21
719.043071285
 31
0.0
  0
LINE
  8
0
  6
CONTINUOUS
 62
     1
 10
1456.954567037
 20
714.510717857
 30
0.0
 11
1479.228430645
 21
692.236854249
 31
0.0
  0
LINE
  8
0
  6
CONTINUOUS
 62
     1
 10
1449.781208493
 20
711.58
 30
0.0
 11
1454.833246694
 21
716.6320382
 31
0.0
  0
LINE
  8
0
  6
CONTINUOUS
 62
     1
 10
1454.023849181
 20
711.58
 30
0.0
 11
1456.954567037
 21
714.510717857
 31
0.0
  0
ARC
  8
0
  6
CONTINUOUS
 62
     1
 10
1426.902528837
 20
686.58
 30
0.0
 40
45.0
 50
20.659353271
 51
45.000019432
  0
ARC
  8
0
  6
CONTINUOUS
 62
     1
 10
1426.902528837
 20
686.58
 30
0.0
 40
53.0
 50
224.999983511
 51
45.0
  0
ARC
  8
0
  6
CONTINUOUS
 62
     1
 10
1426.902528837
 20
686.58
 30
0.0
 40
61.0
 50
334.701650197
 51
69.485463675
  0
ARC
  8
0
  6
CONTINUOUS
 62
     1
 10
1426.902528837
 20
686.58
 30
0.0
 40
45.0
 50
272.166571934
 51
357.833428066
  0
LINE
  8
0
  6
CONTINUOUS
 62
     1
 10
1478.765976853
 20
662.410127019
 30
0.0
 11
1473.765976853
 21
653.749872981
 31
0.0
  0
LINE
  8
0
  6
CONTINUOUS
 62
     1
 10
1478.765976853
 20
662.410127019
 30
0.0
 11
1482.052315161
 21
660.512758712
 31
0.0
  0
LINE
  8
0
  6
CONTINUOUS
 62
     1
 10
1473.765976853
 20
653.749872981
 30
0.0
 11
1477.052315161
 21
651.852504674
 31
0.0
  0
ARC
  8
0
  6
CONTINUOUS
 62
     1
 10
1426.902528837
 20
686.58
 30
0.0
 40
61.0
 50
214.701650197
 51
325.298349803
  0
LINE
  8
0
  6
CONTINUOUS
 62
     1
 10
1465.437601799
 20
678.446025404
 30
0.0
 11
1479.228430645
 21
692.236854249
 31
0.0
  0
LINE
  8
0
  6
CONTINUOUS
 62
     1
 10
1459.437601799
 20
672.446025404
 30
0.0
 11
1461.437601799
 21
674.446025404
 31
0.0
  0
LINE
  8
0
  6
CONTINUOUS
 62
     1
 10
1421.245674587
 20
634.254098192
 30
0.0
 11
1448.437601799
 21
661.446025404
 31
0.0
  0
LINE
  8
0
  6
CONTINUOUS
 62
     1
 10
1398.97181098
 20
656.5279618
 30
0.0
 11
1421.245674587
 21
634.254098192
 31
0.0
  0
ARC
  8
0
  6
CONTINUOUS
 62
     1
 10
1426.902528837
 20
686.58
 30
0.0
 40
45.0
 50
224.999980568
 51
249.340646729
  0
LINE
  8
0
  6
CONTINUOUS
 62
     1
 10
1382.354801622
 20
673.144971157
 30
0.0
 11
1397.062622671
 21
658.437150109
 31
0.0
  0
LINE
  8
0
  6
CONTINUOUS
 62
     1
 10
1377.051500763
 20
672.791417767
 30
0.0
 11
1395.082712894
 21
654.760205636
 31
0.0
  0
LINE
  8
0
  6
CONTINUOUS
 62
     1
 10
1404.023849181
 20
661.58
 30
0.0
 11
1398.97181098
 21
656.5279618
 31
0.0
  0
LINE
  8
0
  6
CONTINUOUS
 62
     1
 10
1399.781208493
 20
661.58
 30
0.0
 11
1396.850490637
 21
658.649282143
 31
0.0
  0
LINE
  8
0
  6
CONTINUOUS
 62
     1
 10
1380.039080821
 20
653.749872981
 30
0.0
 11
1375.039080821
 21
662.410127019
 31
0.0
  0
LINE
  8
0
  6
CONTINUOUS
 62
     1
 10
1380.039080821
 20
653.749872981
 30
0.0
 11
1376.752742513
 21
651.852504674
 31
0.0
  0
LINE
  8
0
  6
CONTINUOUS
 62
     1
 10
1371.394646514
 20
667.134563517
 30
0.0
 11
1389.425858645
 21
649.103351387
 31
0.0
  0
LINE
  8
0
  6
CONTINUOUS
 62
     1
 10
1368.566219389
 20
664.306136393
 30
0.0
 11
1380.470264742
 21
676.210181746
 31
0.0
  0
LINE
  8
0
  6
CONTINUOUS
 62
     1
 10
1375.039080821
 20
662.410127019
 30
0.0
 11
1371.752742513
 21
660.512758712
 31
0.0
  0
ARC
  8
0
  6
CONTINUOUS
 62
     1
 10
1426.902528837
 20
686.58
 30
0.0
 40
61.0
 50
200.434751355
 51
205.298349803
  0
LINE
  8
0
  6
CONTINUOUS
 62
     1
 10
1353.009870203
 20
677.034058454
 30
0.0
 11
1365.737792264
 21
664.306136393
 31
0.0
  0
ARC
  8
0
  6
CONTINUOUS
 62
     1
 10
1367.152005827
 20
665.720349955
 30
0.0
 40
2.0
 50
225.0
 51
315.0
  0
ARC
  8
0
  6
CONTINUOUS
 62
     1
 10
1354.424083765
 20
678.448272016
 30
0.0
 40
2.0
 50
135.0
 51
225.0
  0
LINE
  8
0
  6
CONTINUOUS
 62
     1
 10
1353.009870203
 20
679.862485579
 30
0.0
 11
1366.444899046
 21
693.297514421
 31
0.0
  0
ARC
  8
0
  6
CONTINUOUS
 62
     1
 10
1364.323578702
 20
695.418834765
 30
0.0
 40
3.0
 50
315.0
 51
45.0
  0
LINE
  8
0
  6
CONTINUOUS
 62
     2
 10
1327.18031016
 20
785.446025404
 30
0.0
 11
1326.169470539
 21
797.403374745
 31
0.0
  0
LINE
  8
0
  6
CONTINUOUS
 62
     2
 10
1327.18031016
 20
785.446025404
 30
0.0
 11
1320.326222699
 21
795.295973884
 31
0.0
  0
LINE
  8
0
  6
CONTINUOUS
 62
     2
 10
1327.18031016
 20
785.446025404
 30
0.0
 11
1261.18031016
 21
968.446025404
 31
0.0
  0
LINE
  8
0
  6
CONTINUOUS
 62
     2
 10
1261.18031016
 20
968.446025404
 30
0.0
 11
1099.18031016
 21
968.446025404
 31
0.0
  0
TEXT
  8
0
  6
CONTINUOUS
 62
     3
 10
1099.18031016
 20
971.446025404
 30
0.0
 40
18.0
  1
ＬＳユニット組付位置
 50
0.0
 41
0.9
 51
0.0
  7
KANJI13
  0
LINE
  8
0
  6
CONTINUOUS
 62
     2
 10
1658.802528837
 20
929.205375119
 30
0.0
 11
1772.202528837
 21
929.205375119
 31
0.0
  0
TEXT
  8
0
  6
CONTINUOUS
 62
     3
 10
1658.802528837
 20
932.205375119
 30
0.0
 40
18.0
  1
２－ＰＦ１／２
 50
0.0
 41
0.9
 51
0.0
  7
KANJI13
  0
LINE
  8
0
  6
CONTINUOUS
 62
     2
 10
1570.402528837
 20
699.08
 30
0.0
 11
1573.637766901
 21
711.154072829
 31
0.0
  0
LINE
  8
0
  6
CONTINUOUS
 62
     2
 10
1570.402528837
 20
699.08
 30
0.0
 11
1567.167290773
 21
711.154072829
 31
0.0
  0
LINE
  8
0
  6
CONTINUOUS
 62
     2
 10
1570.402528837
 20
873.78
 30
0.0
 11
1570.402528837
 21
649.08
 31
0.0
  0
LINE
  8
0
  6
CONTINUOUS
 62
     2
 10
1578.102528837
 20
699.08
 30
0.0
 11
1525.302528837
 21
699.08
 31
0.0
  0
TEXT
  8
0
  6
CONTINUOUS
 62
     2
 10
1565.402528837
 20
707.08
 30
0.0
 40
18.0
  1
φ２５Ｈ１０深さ３０
 50
90.0
 41
0.9
 51
0.0
  7
KANJI13
  0
LINE
  8
0
  6
CONTINUOUS
 62
     2
 10
1570.402528837
 20
674.08
 30
0.0
 11
1567.167290773
 21
662.005927171
 31
0.0
  0
LINE
  8
0
  6
CONTINUOUS
 62
     2
 10
1570.402528837
 20
674.08
 30
0.0
 11
1573.637766901
 21
662.005927171
 31
0.0
  0
LINE
  8
0
  6
CONTINUOUS
 62
     2
 10
1580.102528837
 20
674.08
 30
0.0
 11
1526.302528837
 21
674.08
 31
0.0
  0
ARC
  8
0
  6
CONTINUOUS
 62
     1
 10
1426.902528837
 20
851.58
 30
0.0
 40
105.0
 50
281.683531085
 51
291.039469781
  0
ARC
  8
0
  6
CONTINUOUS
 62
     1
 10
1426.902528837
 20
851.58
 30
0.0
 40
105.0
 50
264.015010871
 51
266.32343501
  0
ARC
  8
0
  6
CONTINUOUS
 62
     1
 10
1426.902528837
 20
862.58
 30
0.0
 40
102.5
 50
275.341027402
 51
0.0
  0
ARC
  8
0
  6
CONTINUOUS
 62
     1
 10
1426.902528837
 20
862.58
 30
0.0
 40
102.5
 50
0.0
 51
221.896569424
  0
ARC
  8
0
  6
CONTINUOUS
 62
     1
 10
1426.902528837
 20
862.58
 30
0.0
 40
102.5
 50
256.337195438
 51
273.763993617
  0
ARC
  8
0
  6
CONTINUOUS
 62
     1
 10
1426.902528837
 20
862.58
 30
0.0
 40
102.5
 50
230.584290866
 51
252.576632702
  0
LINE
  8
0
  6
CONTINUOUS
 62
     1
 10
1331.902528837
 20
663.58
 30
0.0
 11
1331.902528837
 21
691.989162928
 31
0.0
  0
LINE
  8
0
  6
CONTINUOUS
 62
     1
 10
1334.402528837
 20
783.205375119
 30
0.0
 11
1334.402528837
 21
819.08
 31
0.0
  0
LINE
  8
0
  6
CONTINUOUS
 62
     1
 10
1334.402528837
 20
725.33988463
 30
0.0
 11
1334.402528837
 21
751.633823869
 31
0.0
  0
LINE
  8
0
  6
LTYPE4
 62
     2
 10
1540.06443372
 20
686.58
 30
0.0
 11
1330.06443372
 21
686.58
 31
0.0
  0
POLYLINE
  8
2
  6
CONTINUOUS
 62
     2
 66
     1
  0
VERTEX
  8
2
  6
CONTINUOUS
 62
     2
 10
1605.774747514
 20
862.58
 30
0.0
  0
VERTEX
  8
2
  6
CONTINUOUS
 62
     2
 10
1605.774747514
 20
1050.58
 30
0.0
  0
VERTEX
  8
2
  6
CONTINUOUS
 62
     2
 10
1602.53950945
 20
1038.505927171
 30
0.0
  0
SEQEND
  0
LINE
  8
2
  6
CONTINUOUS
 62
     2
 10
1605.774747514
 20
1050.58
 30
0.0
 11
1609.009985577
 21
1038.505927171
 31
0.0
  0
TEXT
  8
2
  6
CONTINUOUS
 62
     3
 10
1600.774747514
 20
931.08
 30
0.0
 40
18.0
  1
１８８
 50
90.0
 41
0.9
 51
0.0
  7
KANJI13
  0
LINE
  8
0
  6
CONTINUOUS
 62
     2
 10
1584.902528837
 20
862.58
 30
0.0
 11
1613.274747514
 21
862.58
 31
0.0
  0
LINE
  8
2
  6
CONTINUOUS
 62
     2
 10
1605.774747514
 20
862.58
 30
0.0
 11
1609.009985577
 21
874.654072829
 31
0.0
  0
LINE
  8
2
  6
CONTINUOUS
 62
     2
 10
1605.774747514
 20
862.58
 30
0.0
 11
1602.53950945
 21
874.654072829
 31
0.0
  0
LINE
  8
2
  6
CONTINUOUS
 62
     2
 10
1604.774747513
 20
862.58
 30
0.0
 11
1615.774747513
 21
862.58
 31
0.0
  0
LINE
  8
2
  6
CONTINUOUS
 62
     2
 10
1605.774747513
 20
862.58
 30
0.0
 11
1602.53950945
 21
850.505927171
 31
0.0
  0
LINE
  8
2
  6
CONTINUOUS
 62
     2
 10
1605.774747513
 20
862.58
 30
0.0
 11
1609.009985577
 21
850.505927171
 31
0.0
  0
LINE
  8
2
  6
CONTINUOUS
 62
     2
 10
1605.774747513
 20
862.58
 30
0.0
 11
1605.774747513
 21
686.58
 31
0.0
  0
LINE
  8
2
  6
CONTINUOUS
 62
     2
 10
1605.774747513
 20
686.58
 30
0.0
 11
1609.009985577
 21
698.654072829
 31
0.0
  0
LINE
  8
2
  6
CONTINUOUS
 62
     2
 10
1605.774747513
 20
686.58
 30
0.0
 11
1602.53950945
 21
698.654072829
 31
0.0
  0
LINE
  8
2
  6
CONTINUOUS
 62
     2
 10
1600.774747513
 20
686.58
 30
0.0
 11
1615.774747513
 21
686.58
 31
0.0
  0
LINE
  8
2
  6
CONTINUOUS
 62
     2
 10
1605.774747513
 20
686.58
 30
0.0
 11
1602.53950945
 21
674.505927171
 31
0.0
  0
LINE
  8
2
  6
CONTINUOUS
 62
     2
 10
1605.774747513
 20
686.58
 30
0.0
 11
1609.009985577
 21
674.505927171
 31
0.0
  0
LINE
  8
2
  6
CONTINUOUS
 62
     2
 10
1605.774747513
 20
686.58
 30
0.0
 11
1605.774747513
 21
567.58
 31
0.0
  0
TEXT
  8
2
  6
CONTINUOUS
 62
     3
 10
1600.774747513
 20
749.08
 30
0.0
 40
18.0
  1
１７６
 50
90.0
 41
0.9
 51
0.0
  7
KANJI13
  0
TEXT
  8
2
  6
CONTINUOUS
 62
     3
 10
1600.774747513
 20
601.58
 30
0.0
 40
18.0
  1
１１９
 50
90.0
 41
0.9
 51
0.0
  7
KANJI13
  0
LINE
  8
2
  6
CONTINUOUS
 62
     2
 10
1605.774747513
 20
567.58
 30
0.0
 11
1609.009985577
 21
579.654072829
 31
0.0
  0
LINE
  8
2
  6
CONTINUOUS
 62
     2
 10
1605.774747513
 20
567.58
 30
0.0
 11
1602.53950945
 21
579.654072829
 31
0.0
  0
LINE
  8
0
  6
LTYPE4
 62
     2
 10
1571.402528837
 20
862.58
 30
0.0
 11
1581.902528837
 21
862.58
 31
0.0
  0
LINE
  8
0
  6
LTYPE4
 62
     2
 10
1309.302528837
 20
862.58
 30
0.0
 11
1546.902528837
 21
862.58
 31
0.0
  0
LINE
  8
2
  6
CONTINUOUS
 62
     2
 10
1540.06443372
 20
686.58
 30
0.0
 11
1615.774747513
 21
686.58
 31
0.0
  0
LINE
  8
0
  6
CONTINUOUS
 62
     2
 10
1426.902528837
 20
544.58
 30
0.0
 11
1426.902528837
 21
496.58
 31
0.0
  0
LINE
  8
0
  6
CONTINUOUS
 62
     2
 10
1426.902528837
 20
502.58
 30
0.0
 11
1415.311418922
 21
505.685828541
 31
0.0
  0
LINE
  8
0
  6
CONTINUOUS
 62
     2
 10
1426.902528837
 20
502.58
 30
0.0
 11
1415.311418922
 21
499.474171459
 31
0.0
  0
LINE
  8
0
  6
CONTINUOUS
 62
     2
 10
1426.902528837
 20
502.58
 30
0.0
 11
1288.902528837
 21
502.58
 31
0.0
  0
LINE
  8
0
  6
CONTINUOUS
 62
     2
 10
1288.902528837
 20
502.58
 30
0.0
 11
1300.493638752
 21
499.474171459
 31
0.0
  0
LINE
  8
0
  6
CONTINUOUS
 62
     2
 10
1288.902528837
 20
502.58
 30
0.0
 11
1300.493638752
 21
505.685828541
 31
0.0
  0
LINE
  8
0
  6
CONTINUOUS
 62
     2
 10
1288.902528837
 20
708.505927171
 30
0.0
 11
1288.902528837
 21
496.58
 31
0.0
  0
TEXT
  8
0
  6
CONTINUOUS
 62
     2
 10
1031.8
 20
1418.02
 30
0.96
 40
14.4
  1
ＭＣＬＥ２Ｂ－　　２Ｌ
 50
0.0
 41
0.833333333
 51
0.0
  7
KANJI64
  0
TEXT
  8
0
  6
CONTINUOUS
 62
     2
 10
1031.8
 20
1384.42
 30
0.96
 40
14.4
  1
ＭＣＬＥ２Ｂ－　　３Ｌ
 50
0.0
 41
0.833333333
 51
0.0
  7
KANJI64
  0
TEXT
  8
0
  6
CONTINUOUS
 62
     2
 10
1031.8
 20
1350.82
 30
0.96
 40
14.4
  1
ＭＣＬＥ２Ｂ－　　４Ｌ
 50
0.0
 41
0.833333333
 51
0.0
  7
KANJI64
  0
TEXT
  8
0
  6
CONTINUOUS
 62
     2
 10
1031.8
 20
1317.22
 30
0.96
 40
14.4
  1
ＭＣＬＥ２Ｂ－　　５Ｌ
 50
0.0
 41
0.833333333
 51
0.0
  7
KANJI64
  0
TEXT
  8
0
  6
CONTINUOUS
 62
     2
 10
1031.8
 20
1283.62
 30
0.96
 40
14.4
  1
ＭＣＬＥ２Ｂ－　　６Ｌ
 50
0.0
 41
0.833333333
 51
0.0
  7
KANJI64
  0
TEXT
  8
0
  6
CONTINUOUS
 62
     2
 10
1031.8
 20
1250.02
 30
0.96
 40
14.4
  1
ＭＣＬＥ２Ｂ－　　７Ｌ
 50
0.0
 41
0.833333333
 51
0.0
  7
KANJI64
  0
TEXT
  8
0
  6
CONTINUOUS
 62
     2
 10
1031.8
 20
1216.42
 30
0.96
 40
14.4
  1
ＭＣＬＥ２Ｂ－　　８Ｌ
 50
0.0
 41
0.833333333
 51
0.0
  7
KANJI64
  0
TEXT
  8
0
  6
CONTINUOUS
 62
     2
 10
1031.8
 20
1182.82
 30
0.96
 40
14.4
  1
ＭＣＬＥ２Ｂ－　　９Ｌ
 50
0.0
 41
0.833333333
 51
0.0
  7
KANJI64
  0
TEXT
  8
0
  6
CONTINUOUS
 62
     2
 10
1031.8
 20
1149.22
 30
0.96
 40
14.4
  1
ＭＣＬＥ２Ｂ－　１０Ｌ
 50
0.0
 41
0.833333333
 51
0.0
  7
KANJI64
  0
TEXT
  8
0
  6
CONTINUOUS
 62
     2
 10
1031.8
 20
1115.62
 30
0.96
 40
14.4
  1
ＭＣＬＥ２Ｂ－　　　Ｌ
 50
0.0
 41
0.833333333
 51
0.0
  7
KANJI64
  0
TEXT
  8
0
  6
CONTINUOUS
 62
     2
 10
1719.4
 20
1418.38
 30
1.44
 40
14.4
  1
　８３
 50
0.0
 41
0.9
 51
0.0
  7
KANJI43
  0
TEXT
  8
0
  6
CONTINUOUS
 62
     2
 10
1719.4
 20
1384.78
 30
1.44
 40
14.4
  1
　８５
 50
0.0
 41
0.9
 51
0.0
  7
KANJI43
  0
TEXT
  8
0
  6
CONTINUOUS
 62
     2
 10
1719.4
 20
1351.18
 30
1.44
 40
14.4
  1
　８８
 50
0.0
 41
0.9
 51
0.0
  7
KANJI43
  0
TEXT
  8
0
  6
CONTINUOUS
 62
     2
 10
1719.4
 20
1317.58
 30
1.44
 40
14.4
  1
　９０
 50
0.0
 41
0.9
 51
0.0
  7
KANJI43
  0
TEXT
  8
0
  6
CONTINUOUS
 62
     2
 10
1719.4
 20
1283.98
 30
1.44
 40
14.4
  1
　９１
 50
0.0
 41
0.9
 51
0.0
  7
KANJI43
  0
TEXT
  8
0
  6
CONTINUOUS
 62
     2
 10
1719.4
 20
1250.38
 30
1.44
 40
14.4
  1
　９３
 50
0.0
 41
0.9
 51
0.0
  7
KANJI43
  0
TEXT
  8
0
  6
CONTINUOUS
 62
     2
 10
1719.4
 20
1216.78
 30
1.44
 40
14.4
  1
　９５
 50
0.0
 41
0.9
 51
0.0
  7
KANJI43
  0
TEXT
  8
0
  6
CONTINUOUS
 62
     2
 10
1719.4
 20
1183.18
 30
1.44
 40
14.4
  1
　９７
 50
0.0
 41
0.9
 51
0.0
  7
KANJI43
  0
TEXT
  8
0
  6
CONTINUOUS
 62
     2
 10
1719.4
 20
1149.58
 30
1.44
 40
14.4
  1
　９９
 50
0.0
 41
0.9
 51
0.0
  7
KANJI43
  0
TEXT
  8
0
  6
CONTINUOUS
 62
     3
 10
1340.102528837
 20
508.58
 30
0.0
 40
18.0
  1
１３８
 50
0.0
 41
0.9
 51
0.0
  7
KANJI13
  0
LINE
  8
0
  6
CONTINUOUS
 62
     2
 10
1152.0
 20
706.58
 30
0.0
 11
1148.894171459
 21
694.988890085
 31
0.0
  0
LINE
  8
0
  6
CONTINUOUS
 62
     2
 10
1152.0
 20
706.58
 30
0.0
 11
1155.105828541
 21
694.988890085
 31
0.0
  0
LINE
  8
0
  6
CONTINUOUS
 62
     2
 10
1152.0
 20
706.58
 30
0.0
 11
1152.0
 21
572.58
 31
0.0
  0
LINE
  8
0
  6
CONTINUOUS
 62
     2
 10
1152.0
 20
572.58
 30
0.0
 11
1155.105828541
 21
584.171109915
 31
0.0
  0
LINE
  8
0
  6
CONTINUOUS
 62
     2
 10
1152.0
 20
572.58
 30
0.0
 11
1148.894171459
 21
584.171109915
 31
0.0
  0
LINE
  8
0
  6
CONTINUOUS
 62
     2
 10
959.252428837
 20
572.58
 30
0.0
 11
1158.0
 21
572.58
 31
0.0
  0
TEXT
  8
0
  6
CONTINUOUS
 62
     3
 10
1146.0
 20
615.28
 30
0.0
 40
18.0
  1
１３４
 50
90.0
 41
0.9
 51
0.0
  7
KANJI13
  0
LINE
  8
0
  6
CONTINUOUS
 62
     2
 10
1117.4
 20
706.58
 30
0.0
 11
1158.0
 21
706.58
 31
0.0
  0
LINE
  8
0
  6
CONTINUOUS
 62
     2
 10
1066.5
 20
706.58
 30
0.0
 11
1089.4
 21
706.58
 31
0.0
  0
TEXT
  8
0
  6
CONTINUOUS
 62
     2
 10
442.042538292
 20
865.98
 30
1.0
 40
15.0
  1
日本電産
 50
0.0
 41
0.666666667
 51
0.0
  7
KANJI65
  0
TEXT
  8
0
  6
CONTINUOUS
 62
     2
 10
442.042538292
 20
845.48
 30
1.0
 40
15.0
  1
クイックブレーキモータ
 50
0.0
 41
0.666666667
 51
0.0
  7
KANJI65
  0
LINE
  8
0
  6
LTYPE2
 62
     2
 10
738.362528837
 20
882.58
 30
0.0
 11
222.402528837
 21
882.58
 31
0.0
  0
LINE
  8
2
  6
CONTINUOUS
 62
     2
 10
724.644046111
 20
897.828101266
 30
0.0
 11
731.69771757
 21
908.147777566
 31
0.0
  0
LINE
  8
2
  6
CONTINUOUS
 62
     2
 10
724.644046111
 20
897.828101266
 30
0.0
 11
725.592866635
 21
910.29203883
 31
0.0
  0
LINE
  8
2
  6
CONTINUOUS
 62
     2
 10
724.644046111
 20
897.828101266
 30
0.0
 11
782.368418076
 21
1062.173133317
 31
0.0
  0
TEXT
  8
0
  6
CONTINUOUS
 62
     2
 10
783.868418076
 20
1067.173133317
 30
0.0
 40
18.0
  1
手動開放装置
 50
0.0
 41
0.9
 51
0.0
  7
KANJI13
  0
LINE
  8
0
  6
CONTINUOUS
 62
     2
 10
782.368418076
 20
1062.173133317
 30
0.0
 11
882.968418076
 21
1062.173133317
 31
0.0
  0
LINE
  8
2
  6
CONTINUOUS
 62
     2
 10
732.902528837
 20
897.0
 30
0.0
 11
732.902528837
 21
1132.28
 31
0.0
  0
TEXT
  8
0
  6
CONTINUOUS
 62
     2
 10
1668.0000334
 20
240.1999876
 30
6.0
 40
21.0
  1
田口
 50
0.0
 41
0.857142857
 51
0.0
  7
KANJI11
  0
TEXT
  8
0
  6
CONTINUOUS
 62
     2
 10
1743.8000474
 20
237.1999836
 30
0.0
 40
18.0
  1
８／９
 50
0.0
 41
0.45
 51
0.0
  7
KANJI66
  0
TEXT
  8
0
  6
CONTINUOUS
 62
     2
 10
1978.8000334
 20
141.999994
 30
13.0
 40
30.0
  1
３００１４０６
 50
0.0
 41
0.8
 51
0.0
  7
KANJI67
  0
LINE
  8
0
  6
CONTINUOUS
 62
     2
 10
362.902528837
 20
1122.28
 30
0.0
 11
351.311418922
 21
1125.385828541
 31
0.0
  0
LINE
  8
0
  6
CONTINUOUS
 62
     2
 10
362.902528837
 20
1122.28
 30
0.0
 11
351.311418922
 21
1119.174171459
 31
0.0
  0
LINE
  8
0
  6
CONTINUOUS
 62
     2
 10
362.902528837
 20
1122.28
 30
0.0
 11
225.902528837
 21
1122.28
 31
0.0
  0
LINE
  8
0
  6
CONTINUOUS
 62
     2
 10
225.902528837
 20
1122.28
 30
0.0
 11
237.493638752
 21
1119.174171459
 31
0.0
  0
LINE
  8
0
  6
CONTINUOUS
 62
     2
 10
225.902528837
 20
1122.28
 30
0.0
 11
237.493638752
 21
1125.385828541
 31
0.0
  0
LINE
  8
0
  6
CONTINUOUS
 62
     2
 10
225.902528837
 20
903.58
 30
0.0
 11
225.902528837
 21
1128.28
 31
0.0
  0
LINE
  8
0
  6
CONTINUOUS
 62
     2
 10
243.402528837
 20
898.98
 30
0.0
 11
241.922173895
 21
911.392032438
 31
0.0
  0
LINE
  8
0
  6
CONTINUOUS
 62
     2
 10
243.402528837
 20
898.98
 30
0.0
 11
235.914487631
 21
908.988957933
 31
0.0
  0
LINE
  8
0
  6
CONTINUOUS
 62
     2
 10
243.402528837
 20
898.98
 30
0.0
 11
193.402528837
 21
1023.98
 31
0.0
  0
TEXT
  8
0
  6
CONTINUOUS
 62
     3
 10
270.102528837
 20
1128.28
 30
0.0
 40
18.0
  1
１３７
 50
0.0
 41
0.9
 51
0.0
  7
KANJI13
  0
TEXT
  8
0
  6
CONTINUOUS
 62
     2
 10
112.402528837
 20
1028.98
 30
0.0
 40
18.0
  1
手動軸カバー
 50
0.0
 41
0.9
 51
0.0
  7
KANJI13
  0
LINE
  8
0
  6
CONTINUOUS
 62
     2
 10
193.402528837
 20
1023.98
 30
0.0
 11
95.0
 21
1023.98
 31
0.0
  0
LINE
  8
0
  6
CONTINUOUS
 62
     2
 10
1426.902528837
 20
593.08
 30
0.0
 11
1619.902528837
 21
531.08
 31
0.0
  0
LINE
  8
0
  6
CONTINUOUS
 62
     2
 10
1426.902528837
 20
593.08
 30
0.0
 11
1438.888107396
 21
592.491861753
 31
0.0
  0
LINE
  8
0
  6
CONTINUOUS
 62
     2
 10
1426.902528837
 20
593.08
 30
0.0
 11
1436.988275225
 21
586.577868057
 31
0.0
  0
LINE
  8
0
  6
CONTINUOUS
 62
     2
 10
1444.902528837
 20
567.08
 30
0.0
 11
1452.721411782
 21
557.976974706
 31
0.0
  0
LINE
  8
0
  6
CONTINUOUS
 62
     2
 10
1444.902528837
 20
567.08
 30
0.0
 11
1456.225392743
 21
563.105990317
 31
0.0
  0
LINE
  8
0
  6
CONTINUOUS
 62
     2
 10
1444.902528837
 20
567.08
 30
0.0
 11
1545.902528837
 21
498.08
 31
0.0
  0
LINE
  8
0
  6
CONTINUOUS
 62
     2
 10
1619.902528837
 20
531.08
 30
0.0
 11
1700.902528837
 21
531.08
 31
0.0
  0
TEXT
  8
0
  6
CONTINUOUS
 62
     3
 10
1619.902528837
 20
534.08
 30
0.0
 40
18.0
  1
ＰＦ１／２
 50
0.0
 41
0.9
 51
0.0
  7
KANJI13
  0
LINE
  8
0
  6
CONTINUOUS
 62
     2
 10
1545.902528837
 20
498.08
 30
0.0
 11
1643.102528837
 21
498.08
 31
0.0
  0
TEXT
  8
0
  6
CONTINUOUS
 62
     3
 10
1545.902528837
 20
501.08
 30
0.0
 40
18.0
  1
推力リミッタ
 50
0.0
 41
0.9
 51
0.0
  7
KANJI13
  0
LINE
  8
0
  6
CONTINUOUS
 62
     2
 10
1047.0
 20
999.5
 30
0.0
 11
1034.925927171
 21
1002.735238064
 31
0.0
  0
LINE
  8
0
  6
CONTINUOUS
 62
     2
 10
1047.0
 20
999.5
 30
0.0
 11
1034.925927171
 21
996.264761936
 31
0.0
  0
LINE
  8
0
  6
CONTINUOUS
 62
     2
 10
1047.0
 20
999.5
 30
0.0
 11
1006.0
 21
999.5
 31
0.0
  0
TEXT
  8
0
  6
CONTINUOUS
 62
     3
 10
1013.0
 20
1009.5
 30
0.0
 40
20.0
  1
前進
 50
0.0
 41
0.925
 51
0.0
  7
KANJI55
  0
LINE
  8
0
  6
CONTINUOUS
 62
     1
 10
1376.902528837
 20
567.58
 30
0.0
 11
1386.902528837
 21
567.58
 31
0.0
  0
LINE
  8
0
  6
LTYPE2
 62
     2
 10
1381.902528837
 20
572.58
 30
0.0
 11
1381.902528837
 21
561.88
 31
0.0
  0
ARC
  8
0
  6
CONTINUOUS
 62
     1
 10
1381.902528837
 20
568.48
 30
0.0
 40
5.1
 50
189.9
 51
350.1
  0
LINE
  8
0
  6
CONTINUOUS
 62
     1
 10
1466.902528837
 20
567.58
 30
0.0
 11
1476.902528837
 21
567.58
 31
0.0
  0
LINE
  8
0
  6
LTYPE2
 62
     2
 10
1471.902528837
 20
572.58
 30
0.0
 11
1471.902528837
 21
561.88
 31
0.0
  0
ARC
  8
0
  6
CONTINUOUS
 62
     1
 10
1471.902528837
 20
568.48
 30
0.0
 40
5.1
 50
189.9
 51
350.1
  0
TEXT
  8
0
  6
CONTINUOUS
 62
     6
 10
122.374567657
 20
1338.699357623
 30
1.82231734
 40
18.223173404
  1
クイックブレーキモータ
 50
0.0
 41
0.66671875
 51
0.0
  7
KANJI68
  0
CIRCLE
  8
0
  6
CONTINUOUS
 62
     6
 10
166.816
 20
1276.732
 30
0.0
 40
21.6
  0
TEXT
  8
0
  6
CONTINUOUS
 62
     6
 10
157.744
 20
1266.364
 30
2.16
 40
21.6
  1
Ｍ
 50
0.0
 41
0.9
 51
0.0
  7
KANJI69
  0
LINE
  8
0
  6
CONTINUOUS
 62
     6
 10
138.304
 20
1246.492
 30
0.0
 11
151.696
 21
1262.044
 31
0.0
  0
LINE
  8
0
  6
CONTINUOUS
 62
     6
 10
138.304
 20
1306.972
 30
0.0
 11
151.696
 21
1291.42
 31
0.0
  0
CIRCLE
  8
0
  6
CONTINUOUS
 62
     6
 10
113.68
 20
1306.972
 30
0.0
 40
5.184
  0
LINE
  8
0
  6
CONTINUOUS
 62
     6
 10
107.724103884
 20
1301.016103884
 30
0.0
 11
119.820103884
 21
1313.112103884
 31
0.0
  0
CIRCLE
  8
0
  6
CONTINUOUS
 62
     6
 10
113.68
 20
1276.732
 30
0.0
 40
5.184
  0
LINE
  8
0
  6
CONTINUOUS
 62
     6
 10
107.724103884
 20
1270.776103884
 30
0.0
 11
119.820103884
 21
1282.872103884
 31
0.0
  0
CIRCLE
  8
0
  6
CONTINUOUS
 62
     6
 10
113.68
 20
1246.492
 30
0.0
 40
5.184
  0
LINE
  8
0
  6
CONTINUOUS
 62
     6
 10
107.724103884
 20
1240.536103884
 30
0.0
 11
119.820103884
 21
1252.632103884
 31
0.0
  0
LINE
  8
0
  6
CONTINUOUS
 62
     6
 10
138.304
 20
1306.972
 30
0.0
 11
118.864
 21
1306.972
 31
0.0
  0
LINE
  8
0
  6
CONTINUOUS
 62
     6
 10
145.648
 20
1276.732
 30
0.0
 11
118.864
 21
1276.732
 31
0.0
  0
LINE
  8
0
  6
CONTINUOUS
 62
     6
 10
138.304
 20
1246.492
 30
0.0
 11
118.864
 21
1246.492
 31
0.0
  0
LINE
  8
0
  6
LTYPE3
 62
     6
 10
113.68
 20
1330.3
 30
0.0
 11
113.68
 21
1310.86
 31
0.0
  0
LINE
  8
0
  6
LTYPE3
 62
     6
 10
113.68
 20
1302.22
 30
0.0
 11
113.68
 21
1280.62
 31
0.0
  0
LINE
  8
0
  6
LTYPE3
 62
     6
 10
113.68
 20
1271.98
 30
0.0
 11
113.68
 21
1250.812
 31
0.0
  0
LINE
  8
0
  6
LTYPE3
 62
     6
 10
268.24
 20
1330.3
 30
0.0
 11
113.68
 21
1330.3
 31
0.0
  0
TEXT
  8
0
  6
CONTINUOUS
 62
     6
 10
197.92
 20
1266.9472
 30
1.728
 40
17.28
  1
Ｂ
 50
0.0
 41
0.9
 51
0.0
  7
KANJI70
  0
CIRCLE
  8
0
  6
CONTINUOUS
 62
     6
 10
205.696
 20
1276.732
 30
0.0
 40
17.28
  0
LINE
  8
0
  6
CONTINUOUS
 62
     6
 10
233.296
 20
1246.3192
 30
0.0
 11
214.31698443
 21
1261.756118475
 31
0.0
  0
LINE
  8
0
  6
CONTINUOUS
 62
     6
 10
196.711325074
 20
1261.971443897
 30
0.0
 11
177.616
 21
1246.3192
 31
0.0
  0
CIRCLE
  8
0
  6
CONTINUOUS
 62
     6
 10
177.616
 20
1197.2872
 30
0.0
 40
5.184
  0
LINE
  8
0
  6
CONTINUOUS
 62
     6
 10
171.660103884
 20
1191.331303884
 30
0.0
 11
183.756103884
 21
1203.427303884
 31
0.0
  0
CIRCLE
  8
0
  6
CONTINUOUS
 62
     6
 10
205.456
 20
1197.2872
 30
0.0
 40
5.184
  0
LINE
  8
0
  6
CONTINUOUS
 62
     6
 10
199.500103884
 20
1191.331303884
 30
0.0
 11
211.596103884
 21
1203.427303884
 31
0.0
  0
LINE
  8
0
  6
LTYPE3
 62
     6
 10
182.8
 20
1197.2872
 30
0.0
 11
200.176
 21
1197.2872
 31
0.0
  0
CIRCLE
  8
0
  6
CONTINUOUS
 62
     6
 10
233.296
 20
1197.2872
 30
0.0
 40
5.184
  0
LINE
  8
0
  6
CONTINUOUS
 62
     6
 10
227.340103884
 20
1191.331303884
 30
0.0
 11
239.436103884
 21
1203.427303884
 31
0.0
  0
LINE
  8
0
  6
LTYPE3
 62
     6
 10
210.256
 20
1197.2872
 30
0.0
 11
228.496
 21
1197.2872
 31
0.0
  0
TEXT
  8
0
  6
CONTINUOUS
 62
     6
 10
190.72
 20
1200.1192
 30
1.296
 40
12.96
  1
ｖ
 50
0.0
 41
0.9
 51
0.0
  7
KANJI71
  0
TEXT
  8
0
  6
CONTINUOUS
 62
     6
 10
218.56
 20
1200.1192
 30
1.296
 40
12.96
  1
ｗ
 50
0.0
 41
0.9
 51
0.0
  7
KANJI71
  0
TEXT
  8
0
  6
CONTINUOUS
 62
     6
 10
163.696
 20
1200.9832
 30
1.296
 40
12.96
  1
ｕ
 50
0.0
 41
0.9
 51
0.0
  7
KANJI71
  0
LINE
  8
0
  6
CONTINUOUS
 62
     6
 10
177.616
 20
1202.4712
 30
0.0
 11
177.616
 21
1246.3192
 31
0.0
  0
LINE
  8
0
  6
CONTINUOUS
 62
     6
 10
205.456
 20
1202.4712
 30
0.0
 11
205.456
 21
1259.74
 31
0.0
  0
LINE
  8
0
  6
CONTINUOUS
 62
     6
 10
233.296
 20
1202.4712
 30
0.0
 11
233.296
 21
1246.3192
 31
0.0
  0
LINE
  8
0
  6
LTYPE3
 62
     6
 10
239.056
 20
1197.2872
 30
0.0
 11
268.24
 21
1197.2872
 31
0.0
  0
LINE
  8
0
  6
LTYPE3
 62
     6
 10
268.24
 20
1197.2872
 30
0.0
 11
268.24
 21
1330.3
 31
0.0
  0
LINE
  8
0
  6
LTYPE3
 62
     6
 10
113.68
 20
1197.2872
 30
0.0
 11
172.432
 21
1197.2872
 31
0.0
  0
LINE
  8
0
  6
LTYPE3
 62
     6
 10
113.68
 20
1241.308
 30
0.0
 11
113.68
 21
1197.2872
 31
0.0
  0
TEXT
  8
0
  6
CONTINUOUS
 62
     2
 10
130.094472037
 20
1162.254685773
 30
0.0
 40
18.72
  1
モーター結線図
 50
0.0
 41
0.925
 51
0.0
  7
KANJI72
  0
LINE
  8
0
  6
CONTINUOUS
 62
     6
 10
358.709425053
 20
1617.747759827
 30
0.0
 11
126.664646507
 21
1617.747759827
 31
0.0
  0
LINE
  8
0
  6
CONTINUOUS
 62
     3
 10
358.709425053
 20
1590.285259827
 30
0.0
 11
126.664646507
 21
1590.285259827
 31
0.0
  0
LINE
  8
0
  6
CONTINUOUS
 62
     6
 10
358.709425053
 20
1590.285259827
 30
0.0
 11
126.664646507
 21
1590.285259827
 31
0.0
  0
TEXT
  8
0
  6
CONTINUOUS
 62
     6
 10
384.292228
 20
1615.200410728
 30
1.232517
 40
13.182
  1
電気定格　　　
 50
0.0
 41
0.85
 51
0.0
  7
KANJI73
  0
TEXT
  8
0
  6
CONTINUOUS
 62
     6
 10
130.573517202
 20
1620.94592676
 30
1.0647
 40
11.661
  1
ＬＳ０１　　　：推力リミッタ（前進時過負荷用）
 50
0.0
 41
0.822608696
 51
0.0
  7
KANJI74
  0
TEXT
  8
0
  6
CONTINUOUS
 62
     6
 10
130.573517202
 20
1593.48342676
 30
1.0647
 40
11.661
  1
ＬＳ０２　　　：推力リミッタ（後進時過負荷用）
 50
0.0
 41
0.822608696
 51
0.0
  7
KANJI74
  0
TEXT
  8
0
  6
CONTINUOUS
 62
     6
 10
397.093715102
 20
1584.626958599
 30
0.0
 40
11.8638
  1
ＤＣ１２５Ｖ　０．６Ａ　，ＤＣ２５０Ｖ　０．３Ａ　
 50
0.0
 41
0.726495726
 51
0.0
  7
KANJI75
  0
LINE
  8
0
  6
LTYPE3
 62
     6
 10
657.1
 20
1645.2
 30
0.0
 11
108.7
 21
1645.2
 31
0.0
  0
TEXT
  8
0
  6
CONTINUOUS
 62
     6
 10
391.837132178
 20
1632.961726126
 30
0.0
 40
45.0
  1
｝
 50
0.0
 41
0.538166667
 51
0.0
  7
KANJI76
  0
TEXT
  8
0
  6
CONTINUOUS
 62
     6
 10
321.712791539
 20
1404.22382165
 30
0.0
 40
17.740702234
  1
端子台　接続図
 50
0.0
 41
0.880962996
 51
0.0
  7
KANJI77
  0
LINE
  8
0
  6
LTYPE3
 62
     6
 10
108.7
 20
1386.2
 30
0.0
 11
657.1
 21
1386.2
 31
0.0
  0
LINE
  8
0
  6
LTYPE3
 62
     6
 10
108.7
 20
1645.2
 30
0.0
 11
108.7
 21
1386.2
 31
0.0
  0
LINE
  8
0
  6
CONTINUOUS
 62
     2
 10
356.677373465
 20
1455.228121884
 30
0.0
 11
356.677373465
 21
1432.449155128
 31
0.0
  0
LINE
  8
0
  6
CONTINUOUS
 62
     2
 10
383.25283468
 20
1455.228121884
 30
0.0
 11
383.25283468
 21
1432.449155128
 31
0.0
  0
LINE
  8
0
  6
CONTINUOUS
 62
     2
 10
409.828295894
 20
1455.228121884
 30
0.0
 11
409.828295894
 21
1432.449155128
 31
0.0
  0
LINE
  8
0
  6
CONTINUOUS
 62
     2
 10
436.403757109
 20
1455.228121884
 30
0.0
 11
436.403757109
 21
1432.449155128
 31
0.0
  0
CIRCLE
  8
0
  6
CONTINUOUS
 62
     6
 10
428.484269667
 20
1478.707921517
 30
0.0
 40
4.100214016
  0
LINE
  8
0
  6
CONTINUOUS
 62
     6
 10
424.384055651
 20
1478.707921517
 30
0.0
 11
423.116026502
 21
1478.707921517
 31
0.0
  0
LINE
  8
0
  6
CONTINUOUS
 62
     6
 10
449.438027433
 20
1492.394562742
 30
0.0
 11
445.523558096
 21
1470.059507138
 31
0.0
  0
LINE
  8
0
  6
CONTINUOUS
 62
     6
 10
444.711699663
 20
1493.182284037
 30
0.0
 11
440.796922494
 21
1470.847279739
 31
0.0
  0
LINE
  8
0
  6
CONTINUOUS
 62
     6
 10
445.523558096
 20
1470.059507138
 30
0.0
 11
440.796922494
 21
1470.847279739
 31
0.0
  0
CIRCLE
  8
0
  6
CONTINUOUS
 62
     6
 10
449.691487717
 20
1469.239464335
 30
0.0
 40
4.100214016
  0
LINE
  8
0
  6
CONTINUOUS
 62
     6
 10
449.691487717
 20
1465.139250319
 30
0.0
 11
449.691487717
 21
1455.228121884
 31
0.0
  0
LINE
  8
0
  6
CONTINUOUS
 62
     6
 10
423.116026502
 20
1478.707921517
 30
0.0
 11
423.116026502
 21
1455.228121884
 31
0.0
  0
LINE
  8
0
  6
CONTINUOUS
 62
     6
 10
396.540565287
 20
1455.228121884
 30
0.0
 11
396.540565287
 21
1508.933332504
 31
0.0
  0
LINE
  8
0
  6
CONTINUOUS
 62
     6
 10
317.067641926
 20
1492.394562742
 30
0.0
 11
320.982111263
 21
1470.059507138
 31
0.0
  0
LINE
  8
0
  6
CONTINUOUS
 62
     6
 10
321.793969696
 20
1493.182284037
 30
0.0
 11
325.708746865
 21
1470.847279739
 31
0.0
  0
LINE
  8
0
  6
CONTINUOUS
 62
     6
 10
320.982111263
 20
1470.059507138
 30
0.0
 11
325.708746865
 21
1470.847279739
 31
0.0
  0
CIRCLE
  8
0
  6
CONTINUOUS
 62
     6
 10
316.814181642
 20
1469.239464335
 30
0.0
 40
4.100214016
  0
CIRCLE
  8
0
  6
CONTINUOUS
 62
     6
 10
338.021399692
 20
1478.707921517
 30
0.0
 40
4.100214016
  0
LINE
  8
0
  6
CONTINUOUS
 62
     6
 10
342.121613708
 20
1478.707921517
 30
0.0
 11
343.389642857
 21
1478.707921517
 31
0.0
  0
LINE
  8
0
  6
CONTINUOUS
 62
     6
 10
316.814181642
 20
1465.139250319
 30
0.0
 11
316.814181642
 21
1455.228121884
 31
0.0
  0
LINE
  8
0
  6
CONTINUOUS
 62
     6
 10
343.389642857
 20
1478.707921517
 30
0.0
 11
343.389642857
 21
1455.228121884
 31
0.0
  0
LINE
  8
0
  6
CONTINUOUS
 62
     6
 10
369.965104072
 20
1455.228121884
 30
0.0
 11
369.965104072
 21
1508.933332504
 31
0.0
  0
LINE
  8
0
  6
CONTINUOUS
 62
     2
 10
462.979218324
 20
1455.228121884
 30
0.0
 11
462.979218324
 21
1432.449155128
 31
0.0
  0
LINE
  8
0
  6
CONTINUOUS
 62
     2
 10
303.526451035
 20
1455.228121884
 30
0.0
 11
303.526451035
 21
1432.449155128
 31
0.0
  0
LINE
  8
0
  6
CONTINUOUS
 62
     2
 10
330.10191225
 20
1455.228121884
 30
0.0
 11
330.10191225
 21
1432.449155128
 31
0.0
  0
LINE
  8
0
  6
CONTINUOUS
 62
     6
 10
449.691487717
 20
1508.933332504
 30
0.0
 11
396.540565287
 21
1508.933332504
 31
0.0
  0
CIRCLE
  8
0
  6
CONTINUOUS
 62
     6
 10
449.691487717
 20
1496.58941042
 30
0.0
 40
4.100214016
  0
LINE
  8
0
  6
CONTINUOUS
 62
     6
 10
449.438027433
 20
1492.394562742
 30
0.0
 11
444.711699663
 21
1493.182284037
 31
0.0
  0
LINE
  8
0
  6
CONTINUOUS
 62
     6
 10
449.691487717
 20
1500.689624436
 30
0.0
 11
449.691487717
 21
1508.933332504
 31
0.0
  0
CIRCLE
  8
0
  6
CONTINUOUS
 62
     6
 10
316.814181642
 20
1496.58941042
 30
0.0
 40
4.100214016
  0
LINE
  8
0
  6
CONTINUOUS
 62
     6
 10
317.067641926
 20
1492.394562742
 30
0.0
 11
321.793969696
 21
1493.182284037
 31
0.0
  0
LINE
  8
0
  6
CONTINUOUS
 62
     6
 10
316.814181642
 20
1500.689624436
 30
0.0
 11
316.814181642
 21
1508.933332504
 31
0.0
  0
LINE
  8
0
  6
CONTINUOUS
 62
     6
 10
369.965104072
 20
1508.933332504
 30
0.0
 11
316.814181642
 21
1508.933332504
 31
0.0
  0
TEXT
  8
0
  6
CONTINUOUS
 62
     6
 10
321.5772152
 20
1513.452473273
 30
0.819
 40
11.7
  1
ＬＳ０１
 50
0.0
 41
0.8
 51
0.0
  7
KANJI78
  0
TEXT
  8
0
  6
CONTINUOUS
 62
     6
 10
404.197398844
 20
1513.452473273
 30
0.819
 40
11.7
  1
ＬＳ０２
 50
0.0
 41
0.8
 51
0.0
  7
KANJI78
  0
TEXT
  8
0
  6
CONTINUOUS
 62
     3
 10
149.388775989
 20
1436.245649587
 30
0.0
 40
15.0
  1
　　　　　　　　　　　　　　　　　　１　　２　　　３　　　４　　　５　　　６
 50
0.0
 41
0.911
 51
0.0
  7
KANJI79
  0
LINE
  8
0
  6
CONTINUOUS
 62
     2
 10
303.526451035
 20
1455.228121884
 30
0.0
 11
462.979218324
 21
1455.228121884
 31
0.0
  0
LINE
  8
0
  6
CONTINUOUS
 62
     2
 10
303.526451035
 20
1432.449155128
 30
0.0
 11
462.979218324
 21
1432.449155128
 31
0.0
  0
TEXT
  8
0
  6
CONTINUOUS
 62
     6
 10
295.212791539
 20
1543.22382165
 30
0.0
 40
17.740702234
  1
推力リミッタ端子台配列
 50
0.0
 41
0.880962996
 51
0.0
  7
KANJI77
  0
TEXT
  8
0
  6
CONTINUOUS
 62
     6
 10
397.093715102
 20
1600.371931782
 30
0.0
 40
11.8638
  1
ＡＣ１００Ｖ　１２５Ｖ　２５０Ｖ　－１０Ａ
 50
0.0
 41
0.726495726
 51
0.0
  7
KANJI75
  0
LINE
  8
0
  6
LTYPE3
 62
     6
 10
657.1
 20
1386.2
 30
0.0
 11
657.1
 21
1645.2
 31
0.0
  0
LINE
  8
0
  6
CONTINUOUS
 62
     2
 10
445.163402385
 20
1313.433330769
 30
0.0
 11
452.890808995
 21
1311.362778408
 31
0.0
  0
LINE
  8
0
  6
CONTINUOUS
 62
     2
 10
445.163402385
 20
1313.433330769
 30
0.0
 11
452.890808995
 21
1315.50388313
 31
0.0
  0
LINE
  8
0
  6
CONTINUOUS
 62
     2
 10
445.163402385
 20
1313.433330769
 30
0.0
 11
582.763402385
 21
1313.433330769
 31
0.0
  0
LINE
  8
0
  6
CONTINUOUS
 62
     2
 10
582.763402385
 20
1313.433330769
 30
0.0
 11
575.035995774
 21
1315.50388313
 31
0.0
  0
LINE
  8
0
  6
CONTINUOUS
 62
     2
 10
582.763402385
 20
1313.433330769
 30
0.0
 11
575.035995774
 21
1311.362778408
 31
0.0
  0
LINE
  8
0
  6
CONTINUOUS
 62
     2
 10
582.763402385
 20
1312.233330769
 30
0.0
 11
582.763402385
 21
1309.433330769
 31
0.0
  0
LINE
  8
0
  6
CONTINUOUS
 62
     2
 10
582.763402385
 20
1313.433330769
 30
0.0
 11
590.490808995
 21
1311.362778408
 31
0.0
  0
LINE
  8
0
  6
CONTINUOUS
 62
     2
 10
582.763402385
 20
1313.433330769
 30
0.0
 11
590.490808995
 21
1315.50388313
 31
0.0
  0
LINE
  8
0
  6
CONTINUOUS
 62
     2
 10
582.763402385
 20
1313.433330769
 30
0.0
 11
785.163402385
 21
1313.433330769
 31
0.0
  0
LINE
  8
0
  6
CONTINUOUS
 62
     2
 10
785.163402385
 20
1313.433330769
 30
0.0
 11
777.435995774
 21
1315.50388313
 31
0.0
  0
LINE
  8
0
  6
CONTINUOUS
 62
     2
 10
785.163402385
 20
1313.433330769
 30
0.0
 11
777.435995774
 21
1311.362778408
 31
0.0
  0
LINE
  8
0
  6
CONTINUOUS
 62
     2
 10
582.763402385
 20
1287.10388313
 30
0.0
 11
575.035995774
 21
1289.174435491
 31
0.0
  0
LINE
  8
0
  6
CONTINUOUS
 62
     2
 10
582.763402385
 20
1287.10388313
 30
0.0
 11
575.035995774
 21
1285.033330769
 31
0.0
  0
LINE
  8
0
  6
CONTINUOUS
 62
     2
 10
570.763402385
 20
1287.10388313
 30
0.0
 11
582.763402385
 21
1287.10388313
 31
0.0
  0
LINE
  8
0
  6
CONTINUOUS
 62
     2
 10
582.763402385
 20
1287.10388313
 30
0.0
 11
603.563402385
 21
1287.10388313
 31
0.0
  0
LINE
  8
0
  6
CONTINUOUS
 62
     2
 10
603.563402385
 20
1287.10388313
 30
0.0
 11
611.290808995
 21
1285.033330769
 31
0.0
  0
LINE
  8
0
  6
CONTINUOUS
 62
     2
 10
603.563402385
 20
1287.10388313
 30
0.0
 11
611.290808995
 21
1289.174435491
 31
0.0
  0
LINE
  8
0
  6
CONTINUOUS
 62
     2
 10
445.163402385
 20
1261.833330769
 30
0.0
 11
445.163402385
 21
1255.833330769
 31
0.0
  0
LINE
  8
0
  6
CONTINUOUS
 62
     2
 10
445.163402385
 20
1259.833330769
 30
0.0
 11
452.890808995
 21
1257.762778408
 31
0.0
  0
LINE
  8
0
  6
CONTINUOUS
 62
     2
 10
445.163402385
 20
1259.833330769
 30
0.0
 11
452.890808995
 21
1261.90388313
 31
0.0
  0
LINE
  8
0
  6
CONTINUOUS
 62
     2
 10
445.163402385
 20
1259.833330769
 30
0.0
 11
603.563402385
 21
1259.833330769
 31
0.0
  0
LINE
  8
0
  6
CONTINUOUS
 62
     2
 10
603.563402385
 20
1259.833330769
 30
0.0
 11
595.835995774
 21
1261.90388313
 31
0.0
  0
LINE
  8
0
  6
CONTINUOUS
 62
     2
 10
603.563402385
 20
1259.833330769
 30
0.0
 11
595.835995774
 21
1257.762778408
 31
0.0
  0
LINE
  8
0
  6
CONTINUOUS
 62
     2
 10
603.563402385
 20
1261.033330769
 30
0.0
 11
603.563402385
 21
1255.833330769
 31
0.0
  0
LINE
  8
0
  6
CONTINUOUS
 62
     2
 10
603.563402385
 20
1259.833330769
 30
0.0
 11
611.290808995
 21
1257.762778408
 31
0.0
  0
LINE
  8
0
  6
CONTINUOUS
 62
     2
 10
603.563402385
 20
1259.833330769
 30
0.0
 11
611.290808995
 21
1261.90388313
 31
0.0
  0
LINE
  8
0
  6
CONTINUOUS
 62
     2
 10
785.163402385
 20
1256.233330769
 30
0.0
 11
785.163402385
 21
1255.833330769
 31
0.0
  0
LINE
  8
0
  6
CONTINUOUS
 62
     2
 10
445.163402385
 20
1230.633330769
 30
0.0
 11
452.890808995
 21
1228.562778408
 31
0.0
  0
LINE
  8
0
  6
CONTINUOUS
 62
     2
 10
445.163402385
 20
1230.633330769
 30
0.0
 11
452.890808995
 21
1232.70388313
 31
0.0
  0
LINE
  8
0
  6
CONTINUOUS
 62
     2
 10
445.163402385
 20
1230.633330769
 30
0.0
 11
762.763402385
 21
1230.633330769
 31
0.0
  0
LINE
  8
0
  6
CONTINUOUS
 62
     2
 10
762.763402385
 20
1230.633330769
 30
0.0
 11
755.035995774
 21
1232.70388313
 31
0.0
  0
LINE
  8
0
  6
CONTINUOUS
 62
     2
 10
762.763402385
 20
1230.633330769
 30
0.0
 11
755.035995774
 21
1228.562778408
 31
0.0
  0
LINE
  8
0
  6
CONTINUOUS
 62
     2
 10
762.763402385
 20
1231.433330769
 30
0.0
 11
762.763402385
 21
1226.633330769
 31
0.0
  0
LINE
  8
0
  6
CONTINUOUS
 62
     2
 10
762.763402385
 20
1230.633330769
 30
0.0
 11
755.035995774
 21
1232.70388313
 31
0.0
  0
LINE
  8
0
  6
CONTINUOUS
 62
     2
 10
762.763402385
 20
1230.633330769
 30
0.0
 11
755.035995774
 21
1228.562778408
 31
0.0
  0
LINE
  8
0
  6
CONTINUOUS
 62
     2
 10
750.763402385
 20
1230.633330769
 30
0.0
 11
762.763402385
 21
1230.633330769
 31
0.0
  0
LINE
  8
0
  6
CONTINUOUS
 62
     2
 10
762.763402385
 20
1230.633330769
 30
0.0
 11
785.163402385
 21
1230.633330769
 31
0.0
  0
LINE
  8
0
  6
CONTINUOUS
 62
     2
 10
785.163402385
 20
1230.633330769
 30
0.0
 11
792.890808995
 21
1228.562778408
 31
0.0
  0
LINE
  8
0
  6
CONTINUOUS
 62
     2
 10
785.163402385
 20
1230.633330769
 30
0.0
 11
792.890808995
 21
1232.70388313
 31
0.0
  0
LINE
  8
0
  6
CONTINUOUS
 62
     2
 10
445.163402385
 20
1324.233330769
 30
0.0
 11
445.163402385
 21
1309.433330769
 31
0.0
  0
LINE
  8
0
  6
CONTINUOUS
 62
     2
 10
785.163402385
 20
1324.233330769
 30
0.0
 11
785.163402385
 21
1309.433330769
 31
0.0
  0
LINE
  8
0
  6
CONTINUOUS
 62
     2
 10
582.763402385
 20
1313.033330769
 30
0.0
 11
582.763402385
 21
1324.233330769
 31
0.0
  0
LINE
  8
0
  6
CONTINUOUS
 62
     2
 10
603.563402385
 20
1299.90388313
 30
0.0
 11
603.563402385
 21
1283.10388313
 31
0.0
  0
LINE
  8
0
  6
CONTINUOUS
 62
     2
 10
445.163402385
 20
1309.433330769
 30
0.0
 11
445.163402385
 21
1217.433330769
 31
0.0
  0
LINE
  8
0
  6
CONTINUOUS
 62
     2
 10
785.163402385
 20
1313.433330769
 30
0.0
 11
785.163402385
 21
1218.633330769
 31
0.0
  0
LINE
  8
0
  6
CONTINUOUS
 62
     2
 10
603.563402385
 20
1287.10388313
 30
0.0
 11
603.563402385
 21
1250.633330769
 31
0.0
  0
LINE
  8
0
  6
CONTINUOUS
 62
     2
 10
582.763402385
 20
1313.433330769
 30
0.0
 11
582.763402385
 21
1277.833330769
 31
0.0
  0
TEXT
  8
0
  6
CONTINUOUS
 62
     3
 10
486.963402385
 20
1315.433330769
 30
0.0
 40
15.0
  1
ｍｉｎ．Ｌ
 50
0.0
 41
0.9
 51
0.0
  7
KANJI59
  0
TEXT
  8
0
  6
CONTINUOUS
 62
     3
 10
640.763402385
 20
1315.433330769
 30
0.0
 40
15.0
  1
機械的ストローク
 50
0.0
 41
0.9
 51
0.0
  7
KANJI59
  0
TEXT
  8
0
  6
CONTINUOUS
 62
     3
 10
615.563402385
 20
1289.10388313
 30
0.0
 40
15.0
  1
余裕
 50
0.0
 41
0.9
 51
0.0
  7
KANJI59
  0
TEXT
  8
0
  6
CONTINUOUS
 62
     3
 10
497.363402385
 20
1261.833330769
 30
0.0
 40
15.0
  1
常用ｍｉｎ
 50
0.0
 41
0.9
 51
0.0
  7
KANJI59
  0
TEXT
  8
0
  6
CONTINUOUS
 62
     3
 10
576.963402385
 20
1232.633330769
 30
0.0
 40
15.0
  1
常用ｍａｘ
 50
0.0
 41
0.9
 51
0.0
  7
KANJI59
  0
TEXT
  8
0
  6
CONTINUOUS
 62
     3
 10
797.163402385
 20
1232.633330769
 30
0.0
 40
15.0
  1
余裕
 50
0.0
 41
0.9
 51
0.0
  7
KANJI59
  0
LINE
  8
0
  6
CONTINUOUS
 62
     2
 10
603.563402385
 20
1287.10388313
 30
0.0
 11
643.663402385
 21
1287.10388313
 31
0.0
  0
LINE
  8
0
  6
CONTINUOUS
 62
     2
 10
785.163402385
 20
1230.633330769
 30
0.0
 11
827.663402385
 21
1230.633330769
 31
0.0
  0
LINE
  8
0
  6
CONTINUOUS
 62
     2
 10
762.763402385
 20
1272.233330769
 30
0.0
 11
762.763402385
 21
1217.833330769
 31
0.0
  0
LINE
  8
0
  6
CONTINUOUS
 62
     2
 10
603.563402385
 20
1259.833330769
 30
0.0
 11
762.763402385
 21
1259.833330769
 31
0.0
  0
LINE
  8
0
  6
CONTINUOUS
 62
     2
 10
762.763402385
 20
1259.833330769
 30
0.0
 11
755.035995774
 21
1261.90388313
 31
0.0
  0
LINE
  8
0
  6
CONTINUOUS
 62
     2
 10
762.763402385
 20
1259.833330769
 30
0.0
 11
755.035995774
 21
1257.762778408
 31
0.0
  0
TEXT
  8
0
  6
CONTINUOUS
 62
     3
 10
641.513402385
 20
1261.833330769
 30
0.0
 40
15.0
  1
常用ストローク
 50
0.0
 41
0.9
 51
0.0
  7
KANJI59
  0
TEXT
  8
0
  6
CONTINUOUS
 62
     6
 10
92.896
 20
1314.316
 30
1.296
 40
12.96
  1
Ｕ
 50
0.0
 41
0.9
 51
0.0
  7
KANJI71
  0
TEXT
  8
0
  6
CONTINUOUS
 62
     6
 10
94.192
 20
1283.644
 30
1.296
 40
12.96
  1
Ｖ
 50
0.0
 41
0.9
 51
0.0
  7
KANJI71
  0
TEXT
  8
0
  6
CONTINUOUS
 62
     6
 10
95.488
 20
1252.972
 30
1.296
 40
12.96
  1
Ｗ
 50
0.0
 41
0.9
 51
0.0
  7
KANJI71
  0
LINE
  8
0
  6
CONTINUOUS
 62
     1
 10
312.402528837
 20
781.58
 30
0.0
 11
312.402528837
 21
711.58
 31
0.0
  0
TEXT
  8
0
  6
CONTINUOUS
 62
     2
 10
317.402528837
 20
770.58
 30
5.0
 40
20.0
  1
銘板
 50
270.0
 41
0.925
 51
0.0
  7
KANJI80
  0
LINE
  8
0
  6
CONTINUOUS
 62
     1
 10
355.402528837
 20
781.58
 30
0.0
 11
312.402528837
 21
781.58
 31
0.0
  0
LINE
  8
0
  6
CONTINUOUS
 62
     1
 10
355.402528837
 20
711.58
 30
0.0
 11
312.402528837
 21
711.58
 31
0.0
  0
LINE
  8
0
  6
CONTINUOUS
 62
     1
 10
355.402528837
 20
781.58
 30
0.0
 11
355.402528837
 21
711.58
 31
0.0
  0
TEXT
  8
0
  6
CONTINUOUS
 62
     2
 10
102.402528837
 20
1000.98
 30
0.0
 40
18.0
  1
手動軸□１０
 50
0.0
 41
0.9
 51
0.0
  7
KANJI13
  0
ARC
  8
0
  6
CONTINUOUS
 62
     2
 10
195.902528837
 20
883.08
 30
0.0
 40
20.0
 50
231.952957468
 51
156.801409486
  0
LINE
  8
0
  6
CONTINUOUS
 62
     2
 10
177.519628237
 20
890.958385972
 30
0.0
 11
179.814320947
 21
900.795824749
 31
0.0
  0
LINE
  8
0
  6
CONTINUOUS
 62
     2
 10
177.519628237
 20
890.958385972
 30
0.0
 11
185.787789615
 21
895.865722507
 31
0.0
  0
TEXT
  8
0
  6
CONTINUOUS
 62
     2
 10
104.019628237
 20
873.958385972
 30
0.0
 40
18.0
  1
前進方向
 50
0.0
 41
0.9
 51
0.0
  7
KANJI13
  0
LINE
  8
0
  6
CONTINUOUS
 62
     1
 10
225.902528837
 20
867.58
 30
0.0
 11
225.902528837
 21
897.58
 31
0.0
  0
LINE
  8
0
  6
CONTINUOUS
 62
     1
 10
225.902528837
 20
897.58
 30
0.0
 11
267.902528837
 21
897.58
 31
0.0
  0
LINE
  8
0
  6
CONTINUOUS
 62
     1
 10
263.902528837
 20
867.58
 30
0.0
 11
263.902528837
 21
897.58
 31
0.0
  0
LINE
  8
0
  6
CONTINUOUS
 62
     1
 10
225.902528837
 20
867.58
 30
0.0
 11
267.902528837
 21
867.58
 31
0.0
  0
TEXT
  8
0
  6
CONTINUOUS
 62
     2
 10
1237.8000902
 20
111.8999964
 30
0.0
 40
18.0
  1
０８．０４．０１　岡田　追記
 50
0.0
 41
0.9
 51
0.0
  7
KANJI13
  0
TEXT
  8
0
  6
CONTINUOUS
 62
     2
 10
1241.09926
 20
1593.59997
 30
1.499994
 40
14.99994
  1
２２．１
 50
0.0
 41
0.9
 51
0.0
  7
KANJI48
  0
TEXT
  8
0
  6
CONTINUOUS
 62
     2
 10
1241.09926
 20
1563.60009
 30
1.499994
 40
14.99994
  1
１９．２
 50
0.0
 41
0.9
 51
0.0
  7
KANJI48
  0
TEXT
  8
0
  6
CONTINUOUS
 62
     2
 10
1241.09926
 20
1533.60021
 30
1.499994
 40
14.99994
  1
２１．１
 50
0.0
 41
0.9
 51
0.0
  7
KANJI48
  0
TEXT
  8
0
  6
CONTINUOUS
 62
     2
 10
1540.556423333
 20
1561.3084275
 30
1.499994
 40
14.99994
  1
３８．２
 50
0.0
 41
0.9
 51
0.0
  7
KANJI48
  0
TEXT
  8
0
  6
CONTINUOUS
 62
     2
 10
1541.806418333
 20
1532.9752075
 30
1.499994
 40
14.99994
  1
４２．１
 50
0.0
 41
0.9
 51
0.0
  7
KANJI48
  0
TEXT
  8
0
  6
CONTINUOUS
 62
     2
 10
178.48
 20
12.7
 30
0.0
 40
18.0
  1
ＦＤ　Ｎｏ．ＭＣ２２９
 50
0.0
 41
0.9
 51
0.0
  7
KANJI81
  0
ENDSEC
  0
EOF
