  0
SECTION
  2
HEADER
  9
$ACADVER
  1
AC1009
  9
$DWGCODEPAGE
  3
dos932
  9
$EXTMIN
 10
0.0
 20
0.0
 30
0.0
  9
$EXTMAX
 10
2520.0
 20
1782.0
 30
0.0
  9
$LIMMIN
 10
0.0
 20
0.0
  9
$LIMMAX
 10
2520.0
 20
1782.0
  9
$LTSCALE
 40
1.0
  9
$PDMODE
 70
     0
  0
ENDSEC
  0
SECTION
  2
TABLES
  0
TABLE
  2
VPORT
 70
     1
  0
VPORT
  2
*ACTIVE
 70
     0
 10
0.0
 20
0.0
 11
1.0
 21
1.0
 12
1260.0
 22
891.0
 13
0.0
 23
0.0
 14
10.0
 24
10.0
 15
10.0
 25
10.0
 16
0.0
 26
0.0
 36
1.0
 17
0.0
 27
0.0
 37
0.0
 40
2520.0
 41
1.414141414
 42
50.0
 43
0.0
 44
0.0
 50
0.0
 51
0.0
 71
     0
 72
  1000
 73
     1
 74
     3
 75
     0
 76
     0
 77
     0
 78
     0
  0
ENDTAB
  0
TABLE
  2
LTYPE
 70
     6
  0
LTYPE
  2
CONTINUOUS
 70
    64
  3
Solid line
 72
    65
 73
     0
 40
0.0
  0
LTYPE
  2
LTYPE1
 70
    64
  3
HIDDEN
 72
    65
 73
     2
 40
18.0
 49
10.8
 49
-7.2
  0
LTYPE
  2
LTYPE2
 70
    64
  3
CENTER
 72
    65
 73
     4
 40
60.0
 49
42.0
 49
-6.0
 49
6.0
 49
-6.0
  0
LTYPE
  2
LTYPE3
 70
    64
  3
CENTER
 72
    65
 73
     4
 40
120.0
 49
84.0
 49
-12.0
 49
12.0
 49
-12.0
  0
LTYPE
  2
LTYPE4
 70
    64
  3
CENTER
 72
    65
 73
     4
 40
90.0
 49
63.0
 49
-9.0
 49
9.0
 49
-9.0
  0
LTYPE
  2
LTYPE5
 70
    64
  3
CENTER
 72
    65
 73
     4
 40
54.0
 49
37.8
 49
-5.4
 49
5.4
 49
-5.4
  0
ENDTAB
  0
TABLE
  2
LAYER
 70
   128
  0
LAYER
  2
0
 70
     0
 62
     7
  6
CONTINUOUS
  0
LAYER
  2
2
 70
     0
 62
     7
  6
CONTINUOUS
  0
LAYER
  2
3
 70
     0
 62
     7
  6
CONTINUOUS
  0
LAYER
  2
4
 70
     0
 62
     7
  6
CONTINUOUS
  0
LAYER
  2
5
 70
     0
 62
     7
  6
CONTINUOUS
  0
LAYER
  2
6
 70
     0
 62
     7
  6
CONTINUOUS
  0
LAYER
  2
7
 70
     0
 62
     7
  6
CONTINUOUS
  0
LAYER
  2
8
 70
     0
 62
     7
  6
CONTINUOUS
  0
LAYER
  2
9
 70
     0
 62
     7
  6
CONTINUOUS
  0
LAYER
  2
10
 70
     0
 62
     7
  6
CONTINUOUS
  0
LAYER
  2
11
 70
     0
 62
     7
  6
CONTINUOUS
  0
LAYER
  2
12
 70
     0
 62
     7
  6
CONTINUOUS
  0
LAYER
  2
13
 70
     0
 62
     7
  6
CONTINUOUS
  0
LAYER
  2
14
 70
     0
 62
     7
  6
CONTINUOUS
  0
LAYER
  2
15
 70
     0
 62
     7
  6
CONTINUOUS
  0
LAYER
  2
16
 70
     0
 62
     7
  6
CONTINUOUS
  0
LAYER
  2
17
 70
     0
 62
     7
  6
CONTINUOUS
  0
LAYER
  2
18
 70
     0
 62
     7
  6
CONTINUOUS
  0
LAYER
  2
19
 70
     0
 62
     7
  6
CONTINUOUS
  0
LAYER
  2
20
 70
     0
 62
     7
  6
CONTINUOUS
  0
LAYER
  2
21
 70
     0
 62
     7
  6
CONTINUOUS
  0
LAYER
  2
22
 70
     0
 62
     7
  6
CONTINUOUS
  0
LAYER
  2
23
 70
     0
 62
     7
  6
CONTINUOUS
  0
LAYER
  2
24
 70
     0
 62
     7
  6
CONTINUOUS
  0
LAYER
  2
25
 70
     0
 62
     7
  6
CONTINUOUS
  0
LAYER
  2
26
 70
     0
 62
     7
  6
CONTINUOUS
  0
LAYER
  2
27
 70
     0
 62
     7
  6
CONTINUOUS
  0
LAYER
  2
28
 70
     0
 62
     7
  6
CONTINUOUS
  0
LAYER
  2
29
 70
     0
 62
     7
  6
CONTINUOUS
  0
LAYER
  2
30
 70
     0
 62
     7
  6
CONTINUOUS
  0
LAYER
  2
31
 70
     0
 62
     7
  6
CONTINUOUS
  0
LAYER
  2
32
 70
     0
 62
     7
  6
CONTINUOUS
  0
LAYER
  2
33
 70
     0
 62
     7
  6
CONTINUOUS
  0
LAYER
  2
34
 70
     0
 62
     7
  6
CONTINUOUS
  0
LAYER
  2
35
 70
     0
 62
     7
  6
CONTINUOUS
  0
LAYER
  2
36
 70
     0
 62
     7
  6
CONTINUOUS
  0
LAYER
  2
37
 70
     0
 62
     7
  6
CONTINUOUS
  0
LAYER
  2
38
 70
     0
 62
     7
  6
CONTINUOUS
  0
LAYER
  2
39
 70
     0
 62
     7
  6
CONTINUOUS
  0
LAYER
  2
40
 70
     0
 62
     7
  6
CONTINUOUS
  0
LAYER
  2
41
 70
     0
 62
     7
  6
CONTINUOUS
  0
LAYER
  2
42
 70
     0
 62
     7
  6
CONTINUOUS
  0
LAYER
  2
43
 70
     0
 62
     7
  6
CONTINUOUS
  0
LAYER
  2
44
 70
     0
 62
     7
  6
CONTINUOUS
  0
LAYER
  2
45
 70
     0
 62
     7
  6
CONTINUOUS
  0
LAYER
  2
46
 70
     0
 62
     7
  6
CONTINUOUS
  0
LAYER
  2
47
 70
     0
 62
     7
  6
CONTINUOUS
  0
LAYER
  2
48
 70
     0
 62
     7
  6
CONTINUOUS
  0
LAYER
  2
49
 70
     0
 62
     7
  6
CONTINUOUS
  0
LAYER
  2
50
 70
     0
 62
     7
  6
CONTINUOUS
  0
LAYER
  2
51
 70
     0
 62
     7
  6
CONTINUOUS
  0
LAYER
  2
52
 70
     0
 62
     7
  6
CONTINUOUS
  0
LAYER
  2
53
 70
     0
 62
     7
  6
CONTINUOUS
  0
LAYER
  2
54
 70
     0
 62
     7
  6
CONTINUOUS
  0
LAYER
  2
55
 70
     0
 62
     7
  6
CONTINUOUS
  0
LAYER
  2
56
 70
     0
 62
     7
  6
CONTINUOUS
  0
LAYER
  2
57
 70
     0
 62
     7
  6
CONTINUOUS
  0
LAYER
  2
58
 70
     0
 62
     7
  6
CONTINUOUS
  0
LAYER
  2
59
 70
     0
 62
     7
  6
CONTINUOUS
  0
LAYER
  2
60
 70
     0
 62
     7
  6
CONTINUOUS
  0
LAYER
  2
61
 70
     0
 62
     7
  6
CONTINUOUS
  0
LAYER
  2
62
 70
     0
 62
     7
  6
CONTINUOUS
  0
LAYER
  2
63
 70
     0
 62
     7
  6
CONTINUOUS
  0
LAYER
  2
64
 70
     0
 62
     7
  6
CONTINUOUS
  0
LAYER
  2
65
 70
     0
 62
     7
  6
CONTINUOUS
  0
LAYER
  2
66
 70
     0
 62
     7
  6
CONTINUOUS
  0
LAYER
  2
67
 70
     0
 62
     7
  6
CONTINUOUS
  0
LAYER
  2
68
 70
     0
 62
     7
  6
CONTINUOUS
  0
LAYER
  2
69
 70
     0
 62
     7
  6
CONTINUOUS
  0
LAYER
  2
70
 70
     0
 62
     7
  6
CONTINUOUS
  0
LAYER
  2
71
 70
     0
 62
     7
  6
CONTINUOUS
  0
LAYER
  2
72
 70
     0
 62
     7
  6
CONTINUOUS
  0
LAYER
  2
73
 70
     0
 62
     7
  6
CONTINUOUS
  0
LAYER
  2
74
 70
     0
 62
     7
  6
CONTINUOUS
  0
LAYER
  2
75
 70
     0
 62
     7
  6
CONTINUOUS
  0
LAYER
  2
76
 70
     0
 62
     7
  6
CONTINUOUS
  0
LAYER
  2
77
 70
     0
 62
     7
  6
CONTINUOUS
  0
LAYER
  2
78
 70
     0
 62
     7
  6
CONTINUOUS
  0
LAYER
  2
79
 70
     0
 62
     7
  6
CONTINUOUS
  0
LAYER
  2
80
 70
     0
 62
     7
  6
CONTINUOUS
  0
LAYER
  2
81
 70
     0
 62
     7
  6
CONTINUOUS
  0
LAYER
  2
82
 70
     0
 62
     7
  6
CONTINUOUS
  0
LAYER
  2
83
 70
     0
 62
     7
  6
CONTINUOUS
  0
LAYER
  2
84
 70
     0
 62
     7
  6
CONTINUOUS
  0
LAYER
  2
85
 70
     0
 62
     7
  6
CONTINUOUS
  0
LAYER
  2
86
 70
     0
 62
     7
  6
CONTINUOUS
  0
LAYER
  2
87
 70
     0
 62
     7
  6
CONTINUOUS
  0
LAYER
  2
88
 70
     0
 62
     7
  6
CONTINUOUS
  0
LAYER
  2
89
 70
     0
 62
     7
  6
CONTINUOUS
  0
LAYER
  2
90
 70
     0
 62
     7
  6
CONTINUOUS
  0
LAYER
  2
91
 70
     0
 62
     7
  6
CONTINUOUS
  0
LAYER
  2
92
 70
     0
 62
     7
  6
CONTINUOUS
  0
LAYER
  2
93
 70
     0
 62
     7
  6
CONTINUOUS
  0
LAYER
  2
94
 70
     0
 62
     7
  6
CONTINUOUS
  0
LAYER
  2
95
 70
     0
 62
     7
  6
CONTINUOUS
  0
LAYER
  2
96
 70
     0
 62
     7
  6
CONTINUOUS
  0
LAYER
  2
97
 70
     0
 62
     7
  6
CONTINUOUS
  0
LAYER
  2
98
 70
     0
 62
     7
  6
CONTINUOUS
  0
LAYER
  2
99
 70
     0
 62
     7
  6
CONTINUOUS
  0
LAYER
  2
100
 70
     0
 62
     7
  6
CONTINUOUS
  0
LAYER
  2
101
 70
     0
 62
     7
  6
CONTINUOUS
  0
LAYER
  2
102
 70
     0
 62
     7
  6
CONTINUOUS
  0
LAYER
  2
103
 70
     0
 62
     7
  6
CONTINUOUS
  0
LAYER
  2
104
 70
     0
 62
     7
  6
CONTINUOUS
  0
LAYER
  2
105
 70
     0
 62
     7
  6
CONTINUOUS
  0
LAYER
  2
106
 70
     0
 62
     7
  6
CONTINUOUS
  0
LAYER
  2
107
 70
     0
 62
     7
  6
CONTINUOUS
  0
LAYER
  2
108
 70
     0
 62
     7
  6
CONTINUOUS
  0
LAYER
  2
109
 70
     0
 62
     7
  6
CONTINUOUS
  0
LAYER
  2
110
 70
     0
 62
     7
  6
CONTINUOUS
  0
LAYER
  2
111
 70
     0
 62
     7
  6
CONTINUOUS
  0
LAYER
  2
112
 70
     0
 62
     7
  6
CONTINUOUS
  0
LAYER
  2
113
 70
     0
 62
     7
  6
CONTINUOUS
  0
LAYER
  2
114
 70
     0
 62
     7
  6
CONTINUOUS
  0
LAYER
  2
115
 70
     0
 62
     7
  6
CONTINUOUS
  0
LAYER
  2
116
 70
     0
 62
     7
  6
CONTINUOUS
  0
LAYER
  2
117
 70
     0
 62
     7
  6
CONTINUOUS
  0
LAYER
  2
118
 70
     0
 62
     7
  6
CONTINUOUS
  0
LAYER
  2
119
 70
     0
 62
     7
  6
CONTINUOUS
  0
LAYER
  2
120
 70
     0
 62
     7
  6
CONTINUOUS
  0
LAYER
  2
121
 70
     0
 62
     7
  6
CONTINUOUS
  0
LAYER
  2
122
 70
     0
 62
     7
  6
CONTINUOUS
  0
LAYER
  2
123
 70
     0
 62
     7
  6
CONTINUOUS
  0
LAYER
  2
124
 70
     0
 62
     7
  6
CONTINUOUS
  0
LAYER
  2
125
 70
     0
 62
     7
  6
CONTINUOUS
  0
LAYER
  2
126
 70
     0
 62
     7
  6
CONTINUOUS
  0
LAYER
  2
127
 70
     0
 62
     7
  6
CONTINUOUS
  0
LAYER
  2
128
 70
     0
 62
     7
  6
CONTINUOUS
  0
ENDTAB
  0
TABLE
  2
STYLE
 70
    84
  0
STYLE
  2
STANDARD
 70
     0
 40
0.0
 41
1.0
 50
0.0
 71
     0
 42
0.2
  3
txt.shx
  4
extfont.shx
  0
STYLE
  2
KANJI0
 70
     0
 40
15.5999988
 41
0.75
 50
0.0
 71
     0
 42
15.5999988
  3
txt.shx
  4
extfont.shx
  0
STYLE
  2
KANJI1
 70
     0
 40
11.999997477
 41
0.6
 50
0.0
 71
     0
 42
11.999997477
  3
txt.shx
  4
extfont.shx
  0
STYLE
  2
KANJI2
 70
     0
 40
14.399996972
 41
0.9
 50
0.0
 71
     0
 42
14.399996972
  3
txt.shx
  4
extfont.shx
  0
STYLE
  2
KANJI3
 70
     0
 40
17.999996215
 41
0.9
 50
0.0
 71
     0
 42
17.999996215
  3
txt.shx
  4
extfont.shx
  0
STYLE
  2
KANJI4
 70
     0
 40
10.3999992
 41
0.6
 50
0.0
 71
     0
 42
10.3999992
  3
txt.shx
  4
extfont.shx
  0
STYLE
  2
KANJI5
 70
     0
 40
12.47999904
 41
0.6
 50
0.0
 71
     0
 42
12.47999904
  3
txt.shx
  4
extfont.shx
  0
STYLE
  2
KANJI6
 70
     0
 40
18.1999986
 41
0.42031746
 50
0.0
 71
     0
 42
18.1999986
  3
txt.shx
  4
extfont.shx
  0
STYLE
  2
KANJI7
 70
     0
 40
31.1999976
 41
0.9
 50
0.0
 71
     0
 42
31.1999976
  3
txt.shx
  4
extfont.shx
  0
STYLE
  2
KANJI8
 70
     0
 40
21.6
 41
1.111111111
 50
0.0
 71
     0
 42
21.6
  3
txt.shx
  4
extfont.shx
  0
STYLE
  2
KANJI9
 70
     0
 40
10.3999992
 41
0.8
 50
0.0
 71
     0
 42
10.3999992
  3
txt.shx
  4
extfont.shx
  0
STYLE
  2
KANJI10
 70
     0
 40
12.47999904
 41
0.8
 50
0.0
 71
     0
 42
12.47999904
  3
txt.shx
  4
extfont.shx
  0
STYLE
  2
KANJI11
 70
     0
 40
30.0
 41
1.0
 50
0.0
 71
     0
 42
30.0
  3
txt.shx
  4
extfont.shx
  0
STYLE
  2
KANJI12
 70
     0
 40
30.0
 41
1.0
 50
0.0
 71
     0
 42
30.0
  3
txt.shx
  4
extfont.shx
  0
STYLE
  2
KANJI13
 70
     0
 40
30.0
 41
0.8
 50
0.0
 71
     0
 42
30.0
  3
txt.shx
  4
extfont.shx
  0
STYLE
  2
KANJI14
 70
     0
 40
24.0
 41
1.0
 50
0.0
 71
     0
 42
24.0
  3
txt.shx
  4
extfont.shx
  0
STYLE
  2
KANJI15
 70
     0
 40
21.0
 41
0.857142857
 50
0.0
 71
     0
 42
21.0
  3
txt.shx
  4
extfont.shx
  0
STYLE
  2
KANJI16
 70
     0
 40
27.0
 41
0.666666667
 50
0.0
 71
     0
 42
27.0
  3
txt.shx
  4
extfont.shx
  0
STYLE
  2
KANJI17
 70
     0
 40
18.0
 41
0.9
 50
0.0
 71
     0
 42
18.0
  3
txt.shx
  4
extfont.shx
  0
STYLE
  2
KANJI18
 70
     0
 40
18.0
 41
0.833333333
 50
0.0
 71
     0
 42
18.0
  3
txt.shx
  4
extfont.shx
  0
STYLE
  2
KANJI19
 70
     0
 40
15.36
 41
0.9
 50
0.0
 71
     0
 42
15.36
  3
txt.shx
  4
extfont.shx
  0
STYLE
  2
KANJI20
 70
     0
 40
14.4
 41
0.9
 50
0.0
 71
     0
 42
14.4
  3
txt.shx
  4
extfont.shx
  0
STYLE
  2
KANJI21
 70
     0
 40
14.4
 41
0.9
 50
0.0
 71
     0
 42
14.4
  3
txt.shx
  4
extfont.shx
  0
STYLE
  2
KANJI22
 70
     0
 40
16.8
 41
0.9
 50
0.0
 71
     0
 42
16.8
  3
txt.shx
  4
extfont.shx
  0
STYLE
  2
KANJI23
 70
     0
 40
16.8
 41
0.857142857
 50
0.0
 71
     0
 42
16.8
  3
txt.shx
  4
extfont.shx
  0
STYLE
  2
KANJI24
 70
     0
 40
12.96
 41
0.740740741
 50
0.0
 71
     0
 42
12.96
  3
txt.shx
  4
extfont.shx
  0
STYLE
  2
KANJI25
 70
     0
 40
30.0
 41
0.8
 50
0.0
 71
     0
 42
30.0
  3
txt.shx
  4
extfont.shx
  0
STYLE
  2
KANJI26
 70
     0
 40
21.0
 41
0.793650794
 50
0.0
 71
     0
 42
21.0
  3
txt.shx
  4
extfont.shx
  0
STYLE
  2
KANJI27
 70
     0
 40
18.0
 41
0.9
 50
0.0
 71
     0
 42
18.0
  3
txt.shx
  4
extfont.shx
  0
STYLE
  2
KANJI28
 70
     0
 40
17.5
 41
0.914285714
 50
0.0
 71
     0
 42
17.5
  3
txt.shx
  4
extfont.shx
  0
STYLE
  2
KANJI29
 70
     0
 40
16.8
 41
0.964285714
 50
0.0
 71
     0
 42
16.8
  3
txt.shx
  4
extfont.shx
  0
STYLE
  2
KANJI30
 70
     0
 40
13.86
 41
0.9
 50
0.0
 71
     0
 42
13.86
  3
txt.shx
  4
extfont.shx
  0
STYLE
  2
KANJI31
 70
     0
 40
18.223173404
 41
0.66671875
 50
0.0
 71
     0
 42
18.223173404
  3
txt.shx
  4
extfont.shx
  0
STYLE
  2
KANJI32
 70
     0
 40
21.6
 41
0.9
 50
0.0
 71
     0
 42
21.6
  3
txt.shx
  4
extfont.shx
  0
STYLE
  2
KANJI33
 70
     0
 40
12.96
 41
0.9
 50
0.0
 71
     0
 42
12.96
  3
txt.shx
  4
extfont.shx
  0
STYLE
  2
KANJI34
 70
     0
 40
17.28
 41
0.9
 50
0.0
 71
     0
 42
17.28
  3
txt.shx
  4
extfont.shx
  0
STYLE
  2
KANJI35
 70
     0
 40
18.72
 41
0.925
 50
0.0
 71
     0
 42
18.72
  3
txt.shx
  4
extfont.shx
  0
STYLE
  2
KANJI36
 70
     0
 40
13.182
 41
0.85
 50
0.0
 71
     0
 42
13.182
  3
txt.shx
  4
extfont.shx
  0
STYLE
  2
KANJI37
 70
     0
 40
11.661
 41
0.822608696
 50
0.0
 71
     0
 42
11.661
  3
txt.shx
  4
extfont.shx
  0
STYLE
  2
KANJI38
 70
     0
 40
11.8638
 41
0.726495726
 50
0.0
 71
     0
 42
11.8638
  3
txt.shx
  4
extfont.shx
  0
STYLE
  2
KANJI39
 70
     4
 40
45.0
 41
0.538166667
 50
0.0
 71
     0
 42
45.0
  3
txt.shx
  4
extfont.shx
  0
STYLE
  2
KANJI40
 70
     0
 40
17.740702234
 41
0.880962996
 50
0.0
 71
     0
 42
17.740702234
  3
txt.shx
  4
extfont.shx
  0
STYLE
  2
KANJI41
 70
     0
 40
11.7
 41
0.8
 50
0.0
 71
     0
 42
11.7
  3
txt.shx
  4
extfont.shx
  0
STYLE
  2
KANJI42
 70
     0
 40
15.0
 41
0.911
 50
0.0
 71
     0
 42
15.0
  3
txt.shx
  4
extfont.shx
  0
STYLE
  2
KANJI43
 70
     0
 40
15.0
 41
0.9
 50
0.0
 71
     0
 42
15.0
  3
txt.shx
  4
extfont.shx
  0
STYLE
  2
KANJI44
 70
     0
 40
20.0
 41
0.925
 50
0.0
 71
     0
 42
20.0
  3
txt.shx
  4
extfont.shx
  0
STYLE
  2
KANJI45
 70
     0
 40
16.8
 41
0.892857143
 50
0.0
 71
     0
 42
16.8
  3
txt.shx
  4
extfont.shx
  0
STYLE
  2
KANJI46
 70
     0
 40
20.0
 41
0.925
 50
0.0
 71
     0
 42
20.0
  3
txt.shx
  4
extfont.shx
  0
STYLE
  2
KANJI47
 70
     0
 40
12.0
 41
0.9
 50
0.0
 71
     0
 42
12.0
  3
txt.shx
  4
extfont.shx
  0
STYLE
  2
KANJI48
 70
     0
 40
10.0
 41
0.85
 50
0.0
 71
     0
 42
10.0
  3
txt.shx
  4
extfont.shx
  0
STYLE
  2
KANJI49
 70
     0
 40
10.0
 41
0.75
 50
0.0
 71
     0
 42
10.0
  3
txt.shx
  4
extfont.shx
  0
STYLE
  2
KANJI50
 70
     0
 40
18.0
 41
0.833333333
 50
0.0
 71
     0
 42
18.0
  3
txt.shx
  4
extfont.shx
  0
STYLE
  2
KANJI51
 70
     0
 40
24.0
 41
0.9
 50
0.0
 71
     0
 42
24.0
  3
txt.shx
  4
extfont.shx
  0
STYLE
  2
KANJI52
 70
     0
 40
21.0
 41
0.857142857
 50
0.0
 71
     0
 42
21.0
  3
txt.shx
  4
extfont.shx
  0
STYLE
  2
KANJI53
 70
     0
 40
16.17
 41
0.9
 50
0.0
 71
     0
 42
16.17
  3
txt.shx
  4
extfont.shx
  0
STYLE
  2
KANJI54
 70
     0
 40
14.4
 41
0.833333333
 50
0.0
 71
     0
 42
14.4
  3
txt.shx
  4
extfont.shx
  0
STYLE
  2
KANJI55
 70
     0
 40
15.0
 41
0.9
 50
0.0
 71
     0
 42
15.0
  3
txt.shx
  4
extfont.shx
  0
STYLE
  2
KANJI56
 70
     0
 40
21.0
 41
0.571428571
 50
0.0
 71
     0
 42
21.0
  3
txt.shx
  4
extfont.shx
  0
STYLE
  2
KANJI57
 70
     0
 40
22.8
 41
0.9
 50
0.0
 71
     0
 42
22.8
  3
txt.shx
  4
extfont.shx
  0
STYLE
  2
KANJI58
 70
     0
 40
22.8
 41
0.9
 50
0.0
 71
     0
 42
22.8
  3
txt.shx
  4
extfont.shx
  0
STYLE
  2
KANJI59
 70
     0
 40
27.0
 41
0.9
 50
0.0
 71
     0
 42
27.0
  3
txt.shx
  4
extfont.shx
  0
STYLE
  2
KANJI60
 70
     0
 40
22.8
 41
0.9
 50
0.0
 71
     0
 42
22.8
  3
txt.shx
  4
extfont.shx
  0
STYLE
  2
KANJI61
 70
     0
 40
22.8
 41
0.9
 50
0.0
 71
     0
 42
22.8
  3
txt.shx
  4
extfont.shx
  0
STYLE
  2
KANJI62
 70
     0
 40
22.8
 41
0.9
 50
0.0
 71
     0
 42
22.8
  3
txt.shx
  4
extfont.shx
  0
STYLE
  2
KANJI63
 70
     0
 40
22.8
 41
0.9
 50
0.0
 71
     0
 42
22.8
  3
txt.shx
  4
extfont.shx
  0
STYLE
  2
KANJI64
 70
     0
 40
22.8
 41
0.9
 50
0.0
 71
     0
 42
22.8
  3
txt.shx
  4
extfont.shx
  0
STYLE
  2
KANJI65
 70
     0
 40
22.8
 41
0.9
 50
0.0
 71
     0
 42
22.8
  3
txt.shx
  4
extfont.shx
  0
STYLE
  2
KANJI66
 70
     4
 40
21.0
 41
0.9
 50
0.0
 71
     0
 42
21.0
  3
txt.shx
  4
extfont.shx
  0
STYLE
  2
KANJI67
 70
     4
 40
21.0
 41
0.9
 50
0.0
 71
     0
 42
21.0
  3
txt.shx
  4
extfont.shx
  0
STYLE
  2
KANJI68
 70
     0
 40
21.0
 41
0.9
 50
0.0
 71
     0
 42
21.0
  3
txt.shx
  4
extfont.shx
  0
STYLE
  2
KANJI69
 70
     0
 40
18.0
 41
0.9
 50
0.0
 71
     0
 42
18.0
  3
txt.shx
  4
extfont.shx
  0
STYLE
  2
KANJI70
 70
     0
 40
22.8
 41
0.9
 50
0.0
 71
     0
 42
22.8
  3
txt.shx
  4
extfont.shx
  0
STYLE
  2
KANJI71
 70
     0
 40
22.8
 41
0.9
 50
0.0
 71
     0
 42
22.8
  3
txt.shx
  4
extfont.shx
  0
STYLE
  2
KANJI72
 70
     0
 40
21.0
 41
0.628571429
 50
0.0
 71
     0
 42
21.0
  3
txt.shx
  4
extfont.shx
  0
STYLE
  2
KANJI73
 70
     0
 40
20.4
 41
0.705882353
 50
0.0
 71
     0
 42
20.4
  3
txt.shx
  4
extfont.shx
  0
STYLE
  2
KANJI74
 70
     0
 40
18.0
 41
0.8
 50
0.0
 71
     0
 42
18.0
  3
txt.shx
  4
extfont.shx
  0
STYLE
  2
KANJI75
 70
     0
 40
19.2
 41
0.71875
 50
0.0
 71
     0
 42
19.2
  3
txt.shx
  4
extfont.shx
  0
STYLE
  2
KANJI76
 70
     0
 40
19.2
 41
0.8
 50
0.0
 71
     0
 42
19.2
  3
txt.shx
  4
extfont.shx
  0
STYLE
  2
KANJI77
 70
     0
 40
21.0
 41
0.571428571
 50
0.0
 71
     0
 42
21.0
  3
txt.shx
  4
extfont.shx
  0
STYLE
  2
KANJI78
 70
     0
 40
18.0
 41
0.833333333
 50
0.0
 71
     0
 42
18.0
  3
txt.shx
  4
extfont.shx
  0
STYLE
  2
KANJI79
 70
     0
 40
21.0
 41
0.9
 50
0.0
 71
     0
 42
21.0
  3
txt.shx
  4
extfont.shx
  0
STYLE
  2
KANJI80
 70
     0
 40
21.0
 41
0.9
 50
0.0
 71
     0
 42
21.0
  3
txt.shx
  4
extfont.shx
  0
STYLE
  2
KANJI81
 70
     0
 40
21.0
 41
0.857142857
 50
0.0
 71
     0
 42
21.0
  3
txt.shx
  4
extfont.shx
  0
STYLE
  2
KANJI82
 70
     0
 40
18.0
 41
0.833333333
 50
0.0
 71
     0
 42
18.0
  3
txt.shx
  4
extfont.shx
  0
ENDTAB
  0
TABLE
  2
VIEW
 70
     0
  0
ENDTAB
  0
ENDSEC
  0
SECTION
  2
BLOCKS
  0
ENDSEC
  0
SECTION
  2
ENTITIES
  0
POLYLINE
  8
0
  6
CONTINUOUS
 62
     6
 66
     1
  0
VERTEX
  8
0
  6
CONTINUOUS
 62
     6
 10
82.92
 20
71.7
 30
0.0
  0
VERTEX
  8
0
  6
CONTINUOUS
 62
     6
 10
82.92
 20
1685.7
 30
0.0
  0
VERTEX
  8
0
  6
CONTINUOUS
 62
     6
 10
2404.92
 20
1685.7
 30
0.0
  0
SEQEND
  0
LINE
  8
0
  6
CONTINUOUS
 62
     6
 10
88.919998738
 20
161.699981077
 30
0.0
 11
478.919916738
 21
161.699981077
 31
0.0
  0
LINE
  8
0
  6
CONTINUOUS
 62
     6
 10
88.919998738
 20
77.699998738
 30
0.0
 11
478.919916738
 21
77.699998738
 31
0.0
  0
LINE
  8
0
  6
CONTINUOUS
 62
     6
 10
88.919998738
 20
77.699998738
 30
0.0
 11
88.919998738
 21
161.699981077
 31
0.0
  0
LINE
  8
0
  6
CONTINUOUS
 62
     6
 10
88.919998738
 20
119.699989908
 30
0.0
 11
478.919916738
 21
119.699989908
 31
0.0
  0
LINE
  8
0
  6
CONTINUOUS
 62
     4
 10
14.6199996
 20
76.8999996
 30
0.0
 11
77.0199948
 21
76.8999996
 31
0.0
  0
LINE
  8
0
  6
CONTINUOUS
 62
     4
 10
14.6199996
 20
108.0999972
 30
0.0
 11
77.0199948
 21
108.0999972
 31
0.0
  0
LINE
  8
0
  6
CONTINUOUS
 62
     4
 10
14.6199996
 20
139.2999948
 30
0.0
 11
77.0199948
 21
139.2999948
 31
0.0
  0
LINE
  8
0
  6
CONTINUOUS
 62
     4
 10
14.6199996
 20
170.4999924
 30
0.0
 11
77.0199948
 21
170.4999924
 31
0.0
  0
LINE
  8
0
  6
CONTINUOUS
 62
     4
 10
14.6199996
 20
201.69999
 30
0.0
 11
77.0199948
 21
201.69999
 31
0.0
  0
LINE
  8
0
  6
CONTINUOUS
 62
     4
 10
14.6199996
 20
232.8999876
 30
0.0
 11
77.0199948
 21
232.8999876
 31
0.0
  0
LINE
  8
0
  6
CONTINUOUS
 62
     4
 10
14.6199996
 20
264.0999852
 30
0.0
 11
77.0199948
 21
264.0999852
 31
0.0
  0
LINE
  8
0
  6
CONTINUOUS
 62
     4
 10
14.6199996
 20
295.2999828
 30
0.0
 11
77.0199948
 21
295.2999828
 31
0.0
  0
LINE
  8
0
  6
CONTINUOUS
 62
     4
 10
14.6199996
 20
326.4999804
 30
0.0
 11
77.0199948
 21
326.4999804
 31
0.0
  0
LINE
  8
0
  6
CONTINUOUS
 62
     4
 10
14.6199996
 20
357.699978
 30
0.0
 11
77.0199948
 21
357.699978
 31
0.0
  0
LINE
  8
0
  6
CONTINUOUS
 62
     4
 10
77.0199948
 20
76.8999996
 30
0.0
 11
77.0199948
 21
357.699978
 31
0.0
  0
LINE
  8
0
  6
CONTINUOUS
 62
     4
 10
45.8199972
 20
76.8999996
 30
0.0
 11
45.8199972
 21
326.4999804
 31
0.0
  0
TEXT
  8
0
  6
CONTINUOUS
 62
     4
 10
25.27999878
 20
85.9999989
 30
1.55999988
 40
15.5999988
  1
計
 50
0.0
 41
0.75
 51
0.0
  7
KANJI0
  0
TEXT
  8
0
  6
CONTINUOUS
 62
     4
 10
25.27999878
 20
148.91999406
 30
1.55999988
 40
15.5999988
  1
設
 50
0.0
 41
0.75
 51
0.0
  7
KANJI0
  0
TEXT
  8
0
  6
CONTINUOUS
 62
     4
 10
25.27999878
 20
179.5999917
 30
1.55999988
 40
15.5999988
  1
管
 50
0.0
 41
0.75
 51
0.0
  7
KANJI0
  0
TEXT
  8
0
  6
CONTINUOUS
 62
     4
 10
25.27999878
 20
210.7999893
 30
1.55999988
 40
15.5999988
  1
製
 50
0.0
 41
0.75
 51
0.0
  7
KANJI0
  0
TEXT
  8
0
  6
CONTINUOUS
 62
     4
 10
25.27999878
 20
241.9999869
 30
1.55999988
 40
15.5999988
  1
資
 50
0.0
 41
0.75
 51
0.0
  7
KANJI0
  0
TEXT
  8
0
  6
CONTINUOUS
 62
     4
 10
25.27999878
 20
273.1999845
 30
1.55999988
 40
15.5999988
  1
営
 50
0.0
 41
0.75
 51
0.0
  7
KANJI0
  0
TEXT
  8
0
  6
CONTINUOUS
 62
     4
 10
25.27999878
 20
304.3999821
 30
1.55999988
 40
15.5999988
  1
客
 50
0.0
 41
0.75
 51
0.0
  7
KANJI0
  0
TEXT
  8
0
  6
CONTINUOUS
 62
     4
 10
25.0199988
 20
336.8999796
 30
1.55999988
 40
15.5999988
  1
出　図
 50
0.0
 41
0.75
 51
0.0
  7
KANJI0
  0
LINE
  8
0
  6
CONTINUOUS
 62
     4
 10
14.6199996
 20
76.8999996
 30
0.0
 11
14.6199996
 21
357.699978
 31
0.0
  0
LINE
  8
0
  6
CONTINUOUS
 62
     6
 10
2404.92
 20
71.7
 30
0.0
 11
82.92
 21
71.7
 31
0.0
  0
TEXT
  8
0
  6
CONTINUOUS
 62
     4
 10
100.919996215
 20
101.699993692
 30
1.199999748
 40
11.999997477
  1
ＰＡＲＴＳ　ＬＩＳＴ
 50
0.0
 41
0.6
 51
0.0
  7
KANJI1
  0
TEXT
  8
0
  6
CONTINUOUS
 62
     4
 10
100.919996215
 20
83.699997477
 30
1.439999697
 40
14.399996972
  1
部品表
 50
0.0
 41
0.9
 51
0.0
  7
KANJI2
  0
TEXT
  8
0
  6
CONTINUOUS
 62
     3
 10
100.919996215
 20
131.699987385
 30
1.799999622
 40
17.999996215
  1
ＰＬ
 50
0.0
 41
0.9
 51
0.0
  7
KANJI3
  0
TEXT
  8
0
  6
CONTINUOUS
 62
     4
 10
370.919939446
 20
101.699993692
 30
1.199999748
 40
11.999997477
  1
Ｎ０．
 50
0.0
 41
0.6
 51
0.0
  7
KANJI1
  0
TEXT
  8
0
  6
CONTINUOUS
 62
     4
 10
370.919939446
 20
83.699997477
 30
1.439999697
 40
14.399996972
  1
項番
 50
0.0
 41
0.9
 51
0.0
  7
KANJI2
  0
LINE
  8
0
  6
CONTINUOUS
 62
     6
 10
478.919916738
 20
77.699998738
 30
0.0
 11
478.919916738
 21
161.699981077
 31
0.0
  0
LINE
  8
0
  6
CONTINUOUS
 62
     6
 10
358.919941969
 20
77.699998738
 30
0.0
 11
358.919941969
 21
161.699981077
 31
0.0
  0
LINE
  8
0
  6
CONTINUOUS
 62
     6
 10
2404.92
 20
1685.7
 30
0.0
 11
2404.92
 21
71.7
 31
0.0
  0
LINE
  8
0
  6
CONTINUOUS
 62
     6
 10
1598.920062
 20
76.8999996
 30
0.0
 11
1598.920062
 21
409.699974
 31
0.0
  0
LINE
  8
0
  6
CONTINUOUS
 62
     6
 10
2399.7200004
 20
76.8999996
 30
0.0
 11
2399.7200004
 21
409.699974
 31
0.0
  0
LINE
  8
0
  6
CONTINUOUS
 62
     4
 10
1788.7200474
 20
76.8999996
 30
0.0
 11
1788.7200474
 21
409.699974
 31
0.0
  0
LINE
  8
0
  6
CONTINUOUS
 62
     4
 10
1598.920062
 20
118.4999964
 30
0.0
 11
1788.7200474
 21
118.4999964
 31
0.0
  0
TEXT
  8
0
  6
CONTINUOUS
 62
     4
 10
1609.3200612
 20
100.2999978
 30
1.03999992
 40
10.3999992
  1
ＳＣＡＬＥ
 50
0.0
 41
0.6
 51
0.0
  7
KANJI4
  0
TEXT
  8
0
  6
CONTINUOUS
 62
     4
 10
1609.3200612
 20
84.699999
 30
1.247999904
 40
12.47999904
  1
尺度
 50
0.0
 41
0.6
 51
0.0
  7
KANJI5
  0
LINE
  8
0
  6
CONTINUOUS
 62
     6
 10
1188.1200936
 20
118.4999964
 30
0.0
 11
1598.920062
 21
118.4999964
 31
0.0
  0
LINE
  8
0
  6
CONTINUOUS
 62
     6
 10
1188.1200936
 20
76.8999996
 30
0.0
 11
2399.7200004
 21
76.8999996
 31
0.0
  0
TEXT
  8
0
  6
CONTINUOUS
 62
     6
 10
1793.920047
 20
100.2999978
 30
0.0
 40
18.1999986
  1
ＵＮＩＴＥＣ　ＩＮＤＵＳＴＲＹ　ＣＯ．，ＬＴＤ．
 50
0.0
 41
0.42031746
 51
0.0
  7
KANJI6
  0
TEXT
  8
0
  6
CONTINUOUS
 62
     6
 10
2049.175027365
 20
93.53999832
 30
3.11999976
 40
31.1999976
  1
ユニテック工業株式会社
 50
0.0
 41
0.9
 51
0.0
  7
KANJI7
  0
LINE
  8
0
  6
CONTINUOUS
 62
     6
 10
2007.575030565
 20
104.45999748
 30
0.0
 11
1993.847031621
 21
104.45999748
 31
0.0
  0
LINE
  8
0
  6
CONTINUOUS
 62
     6
 10
2007.575030565
 20
106.955997288
 30
0.0
 11
1993.847031621
 21
106.955997288
 31
0.0
  0
LINE
  8
0
  6
CONTINUOUS
 62
     6
 10
2007.575030565
 20
104.45999748
 30
0.0
 11
2021.303029509
 21
104.45999748
 31
0.0
  0
LINE
  8
0
  6
CONTINUOUS
 62
     6
 10
2007.575030565
 20
106.955997288
 30
0.0
 11
2021.303029509
 21
106.955997288
 31
0.0
  0
LINE
  8
0
  6
CONTINUOUS
 62
     6
 10
2021.303029509
 20
106.955997288
 30
0.0
 11
2021.303029509
 21
104.45999748
 31
0.0
  0
ARC
  8
0
  6
CONTINUOUS
 62
     6
 10
2024.423029269
 20
105.707997384
 30
0.0
 40
12.47999904
 50
185.739170477
 51
90.0
  0
ARC
  8
0
  6
CONTINUOUS
 62
     6
 10
2024.423029269
 20
105.707997384
 30
0.0
 40
14.975998848
 50
184.780191847
 51
90.0
  0
LINE
  8
0
  6
CONTINUOUS
 62
     6
 10
1993.847031621
 20
104.45999748
 30
0.0
 11
1993.847031621
 21
106.955997288
 31
0.0
  0
ARC
  8
0
  6
CONTINUOUS
 62
     6
 10
1990.727031861
 20
105.707997384
 30
0.0
 40
12.47999904
 50
90.0
 51
354.260829523
  0
ARC
  8
0
  6
CONTINUOUS
 62
     6
 10
1990.727031861
 20
105.707997384
 30
0.0
 40
14.975998848
 50
90.0
 51
355.219808153
  0
LINE
  8
0
  6
CONTINUOUS
 62
     6
 10
2005.703030709
 20
120.683996232
 30
0.0
 11
2005.703030709
 21
118.187996424
 31
0.0
  0
LINE
  8
0
  6
CONTINUOUS
 62
     6
 10
1990.727031861
 20
118.187996424
 30
0.0
 11
2005.703030709
 21
118.187996424
 31
0.0
  0
LINE
  8
0
  6
CONTINUOUS
 62
     6
 10
2009.447030421
 20
120.683996232
 30
0.0
 11
2009.447030421
 21
118.187996424
 31
0.0
  0
LINE
  8
0
  6
CONTINUOUS
 62
     6
 10
2024.423029269
 20
118.187996424
 30
0.0
 11
2009.447030421
 21
118.187996424
 31
0.0
  0
TEXT
  8
0
  6
CONTINUOUS
 62
     4
 10
1320.7200834
 20
100.2999978
 30
1.03999992
 40
10.3999992
  1
ＢＹ
 50
0.0
 41
0.6
 51
0.0
  7
KANJI4
  0
TEXT
  8
0
  6
CONTINUOUS
 62
     4
 10
1435.1200746
 20
100.2999978
 30
1.03999992
 40
10.3999992
  1
ＤＥＳＣＲＩＰＴＩＯＮ
 50
0.0
 41
0.6
 51
0.0
  7
KANJI4
  0
TEXT
  8
0
  6
CONTINUOUS
 62
     4
 10
1320.7200834
 20
84.699999
 30
1.247999904
 40
12.47999904
  1
担当
 50
0.0
 41
0.6
 51
0.0
  7
KANJI5
  0
TEXT
  8
0
  6
CONTINUOUS
 62
     4
 10
1450.7200734
 20
84.699999
 30
1.247999904
 40
12.47999904
  1
記　　　　事
 50
0.0
 41
0.6
 51
0.0
  7
KANJI5
  0
LINE
  8
0
  6
CONTINUOUS
 62
     4
 10
1210.2200919
 20
110.699997
 30
0.0
 11
1193.3200932
 21
84.699999
 31
0.0
  0
TEXT
  8
0
  6
CONTINUOUS
 62
     4
 10
1253.1200886
 20
100.2999978
 30
1.03999992
 40
10.3999992
  1
ＤＡＴＥ
 50
0.0
 41
0.6
 51
0.0
  7
KANJI4
  0
TEXT
  8
0
  6
CONTINUOUS
 62
     4
 10
1260.920088
 20
84.699999
 30
1.247999904
 40
12.47999904
  1
日付
 50
0.0
 41
0.6
 51
0.0
  7
KANJI5
  0
LINE
  8
0
  6
CONTINUOUS
 62
     4
 10
1193.3200932
 20
84.699999
 30
0.0
 11
1227.1200906
 21
84.699999
 31
0.0
  0
LINE
  8
0
  6
CONTINUOUS
 62
     4
 10
1210.2200919
 20
110.699997
 30
0.0
 11
1227.1200906
 21
84.699999
 31
0.0
  0
LINE
  8
0
  6
CONTINUOUS
 62
     6
 10
1188.1200936
 20
76.8999996
 30
0.0
 11
1188.1200936
 21
118.4999964
 31
0.0
  0
LINE
  8
0
  6
CONTINUOUS
 62
     4
 10
1232.3200902
 20
76.8999996
 30
0.0
 11
1232.3200902
 21
118.4999964
 31
0.0
  0
LINE
  8
0
  6
CONTINUOUS
 62
     4
 10
1305.1200846
 20
76.8999996
 30
0.0
 11
1305.1200846
 21
118.4999964
 31
0.0
  0
LINE
  8
0
  6
CONTINUOUS
 62
     4
 10
1351.920081
 20
76.8999996
 30
0.0
 11
1351.920081
 21
118.4999964
 31
0.0
  0
TEXT
  8
0
  6
CONTINUOUS
 62
     4
 10
1609.3200612
 20
308.2999818
 30
1.03999992
 40
10.3999992
  1
ＣＯＤＥ
 50
0.0
 41
0.6
 51
0.0
  7
KANJI4
  0
LINE
  8
0
  6
CONTINUOUS
 62
     4
 10
1598.920062
 20
326.4999804
 30
0.0
 11
2399.7200004
 21
326.4999804
 31
0.0
  0
TEXT
  8
0
  6
CONTINUOUS
 62
     4
 10
1609.3200612
 20
292.699983
 30
1.247999904
 40
12.47999904
  1
分類
 50
0.0
 41
0.6
 51
0.0
  7
KANJI5
  0
TEXT
  8
0
  6
CONTINUOUS
 62
     4
 10
1617.42
 20
332.7
 30
6.0
 40
21.6
  1
ご注文主
 50
0.0
 41
1.111111111
 51
0.0
  7
KANJI8
  0
TEXT
  8
0
  6
CONTINUOUS
 62
     4
 10
1609.3200612
 20
183.4999914
 30
1.03999992
 40
10.3999992
  1
ＤＲＡＷＮ
 50
0.0
 41
0.6
 51
0.0
  7
KANJI4
  0
TEXT
  8
0
  6
CONTINUOUS
 62
     4
 10
1609.3200612
 20
225.0999882
 30
1.03999992
 40
10.3999992
  1
ＤＥＳＩＧＮ
 50
0.0
 41
0.6
 51
0.0
  7
KANJI4
  0
TEXT
  8
0
  6
CONTINUOUS
 62
     4
 10
1609.3200612
 20
266.699985
 30
1.03999992
 40
10.3999992
  1
ＣＨＥＣＫ
 50
0.0
 41
0.6
 51
0.0
  7
KANJI4
  0
LINE
  8
0
  6
CONTINUOUS
 62
     4
 10
1598.920062
 20
243.2999868
 30
0.0
 11
1788.7200474
 21
243.2999868
 31
0.0
  0
LINE
  8
0
  6
CONTINUOUS
 62
     4
 10
1598.920062
 20
201.69999
 30
0.0
 11
1788.7200474
 21
201.69999
 31
0.0
  0
LINE
  8
0
  6
CONTINUOUS
 62
     4
 10
1598.920062
 20
284.8999836
 30
0.0
 11
1788.7200474
 21
284.8999836
 31
0.0
  0
TEXT
  8
0
  6
CONTINUOUS
 62
     4
 10
1609.3200612
 20
209.4999894
 30
1.247999904
 40
12.47999904
  1
設計
 50
0.0
 41
0.6
 51
0.0
  7
KANJI5
  0
TEXT
  8
0
  6
CONTINUOUS
 62
     4
 10
1609.3200612
 20
251.0999862
 30
1.247999904
 40
12.47999904
  1
検図
 50
0.0
 41
0.6
 51
0.0
  7
KANJI5
  0
LINE
  8
0
  6
CONTINUOUS
 62
     4
 10
1804.06004622
 20
284.8999836
 30
0.0
 11
2399.7200004
 21
284.8999836
 31
0.0
  0
LINE
  8
0
  6
CONTINUOUS
 62
     4
 10
1788.7200474
 20
201.69999
 30
0.0
 11
2399.7200004
 21
201.69999
 31
0.0
  0
TEXT
  8
0
  6
CONTINUOUS
 62
     4
 10
1799.1200466
 20
183.4999914
 30
1.03999992
 40
10.3999992
  1
ＤＲＡＷＩＮＧ　ＮＯ．
 50
0.0
 41
0.8
 51
0.0
  7
KANJI9
  0
TEXT
  8
0
  6
CONTINUOUS
 62
     4
 10
1799.1200466
 20
225.0999882
 30
1.03999992
 40
10.3999992
  1
ＭＦＧ　ＮＯ．
 50
0.0
 41
0.8
 51
0.0
  7
KANJI9
  0
TEXT
  8
0
  6
CONTINUOUS
 62
     4
 10
1799.1200466
 20
266.699985
 30
1.03999992
 40
10.3999992
  1
ＴＹＰＥ
 50
0.0
 41
0.8
 51
0.0
  7
KANJI9
  0
LINE
  8
0
  6
CONTINUOUS
 62
     4
 10
1804.3200462
 20
243.2999868
 30
0.0
 11
2043.5200278
 21
243.2999868
 31
0.0
  0
TEXT
  8
0
  6
CONTINUOUS
 62
     4
 10
1799.1200466
 20
165.2999928
 30
1.247999904
 40
12.47999904
  1
図　面　番　号
 50
0.0
 41
0.8
 51
0.0
  7
KANJI10
  0
TEXT
  8
0
  6
CONTINUOUS
 62
     4
 10
1799.1200466
 20
206.8999896
 30
1.247999904
 40
12.47999904
  1
製番
 50
0.0
 41
0.8
 51
0.0
  7
KANJI10
  0
TEXT
  8
0
  6
CONTINUOUS
 62
     4
 10
1799.1200466
 20
248.4999864
 30
1.247999904
 40
12.47999904
  1
機種
 50
0.0
 41
0.8
 51
0.0
  7
KANJI10
  0
LINE
  8
0
  6
CONTINUOUS
 62
     4
 10
1598.920062
 20
160.0999932
 30
0.0
 11
1788.7200474
 21
160.0999932
 31
0.0
  0
TEXT
  8
0
  6
CONTINUOUS
 62
     4
 10
1609.3200612
 20
141.8999946
 30
1.03999992
 40
10.3999992
  1
ＤＡＴＥ
 50
0.0
 41
0.6
 51
0.0
  7
KANJI4
  0
TEXT
  8
0
  6
CONTINUOUS
 62
     4
 10
1609.3200612
 20
126.2999958
 30
1.247999904
 40
12.47999904
  1
日付
 50
0.0
 41
0.6
 51
0.0
  7
KANJI5
  0
TEXT
  8
0
  6
CONTINUOUS
 62
     4
 10
1609.3200612
 20
167.8999926
 30
1.247999904
 40
12.47999904
  1
作図
 50
0.0
 41
0.6
 51
0.0
  7
KANJI5
  0
LINE
  8
0
  6
CONTINUOUS
 62
     4
 10
1788.7200474
 20
141.8999946
 30
0.0
 11
2399.7200004
 21
141.8999946
 31
0.0
  0
LINE
  8
0
  6
LTYPE1
 62
     4
 10
2225.5200138
 20
149.699994
 30
0.0
 11
2225.5200138
 21
191.2999908
 31
0.0
  0
LINE
  8
0
  6
LTYPE1
 62
     4
 10
2189.1200166
 20
149.699994
 30
0.0
 11
2189.1200166
 21
191.2999908
 31
0.0
  0
LINE
  8
0
  6
LTYPE1
 62
     4
 10
2152.7200194
 20
149.699994
 30
0.0
 11
2152.7200194
 21
191.2999908
 31
0.0
  0
LINE
  8
0
  6
LTYPE1
 62
     4
 10
2116.3200222
 20
149.699994
 30
0.0
 11
2116.3200222
 21
191.2999908
 31
0.0
  0
LINE
  8
0
  6
LTYPE1
 62
     4
 10
2079.920025
 20
149.699994
 30
0.0
 11
2079.920025
 21
191.2999908
 31
0.0
  0
LINE
  8
0
  6
LTYPE1
 62
     4
 10
2043.5200278
 20
149.699994
 30
0.0
 11
2043.5200278
 21
191.2999908
 31
0.0
  0
LINE
  8
0
  6
LTYPE1
 62
     4
 10
2007.1200306
 20
149.699994
 30
0.0
 11
2007.1200306
 21
191.2999908
 31
0.0
  0
LINE
  8
0
  6
LTYPE1
 62
     4
 10
1970.7200334
 20
149.699994
 30
0.0
 11
1970.7200334
 21
191.2999908
 31
0.0
  0
LINE
  8
0
  6
LTYPE1
 62
     4
 10
1970.7200334
 20
191.2999908
 30
0.0
 11
2225.5200138
 21
191.2999908
 31
0.0
  0
LINE
  8
0
  6
LTYPE1
 62
     4
 10
1970.7200334
 20
149.699994
 30
0.0
 11
2225.5200138
 21
149.699994
 31
0.0
  0
LINE
  8
0
  6
CONTINUOUS
 62
     4
 10
2246.3200122
 20
171.7999923
 30
0.0
 11
2256.7200114
 21
171.7999923
 31
0.0
  0
LINE
  8
0
  6
CONTINUOUS
 62
     4
 10
2311.3200072
 20
156.1999935
 30
0.0
 11
2274.92001
 21
156.1999935
 31
0.0
  0
LINE
  8
0
  6
CONTINUOUS
 62
     4
 10
2274.92001
 20
156.1999935
 30
0.0
 11
2293.1200086
 21
187.3999911
 31
0.0
  0
LINE
  8
0
  6
CONTINUOUS
 62
     4
 10
2293.1200086
 20
187.3999911
 30
0.0
 11
2311.3200072
 21
156.1999935
 31
0.0
  0
TEXT
  8
0
  6
CONTINUOUS
 62
     4
 10
2059.1200266
 20
266.699985
 30
1.03999992
 40
10.3999992
  1
ＴＩＴＬＥ
 50
0.0
 41
0.8
 51
0.0
  7
KANJI9
  0
TEXT
  8
0
  6
CONTINUOUS
 62
     4
 10
2059.1200266
 20
248.4999864
 30
1.247999904
 40
12.47999904
  1
名称
 50
0.0
 41
0.8
 51
0.0
  7
KANJI10
  0
TEXT
  8
0
  6
CONTINUOUS
 62
     2
 10
2143.92
 20
209.7
 30
15.0
 40
30.0
  1
外形寸法図
 50
0.0
 41
1.0
 51
0.0
  7
KANJI11
  0
TEXT
  8
0
  6
CONTINUOUS
 62
     2
 10
2107.92
 20
245.7
 30
4.285714286
 40
30.0
  1
マイティシリンダ
 50
0.0
 41
1.0
 51
0.0
  7
KANJI12
  0
TEXT
  8
0
  6
CONTINUOUS
 62
     2
 10
1939.2200334
 20
155.699994
 30
1.8
 40
30.0
  1
Ａ
 50
0.0
 41
0.8
 51
0.0
  7
KANJI13
  0
CIRCLE
  8
0
  6
CONTINUOUS
 62
     2
 10
1900.2200334
 20
220.199994
 30
0.0
 40
15.0
  0
TEXT
  8
0
  6
CONTINUOUS
 62
     2
 10
1888.9700334
 20
208.949994
 30
1.8
 40
24.0
  1
Ｓ
 50
0.0
 41
1.0
 51
0.0
  7
KANJI14
  0
LINE
  8
0
  6
CONTINUOUS
 62
     6
 10
2005.703030709
 20
120.683996232
 30
0.0
 11
1990.727031861
 21
120.683996232
 31
0.0
  0
LINE
  8
0
  6
CONTINUOUS
 62
     6
 10
2009.447030421
 20
120.683996232
 30
0.0
 11
2024.423029269
 21
120.683996232
 31
0.0
  0
TEXT
  8
0
  6
CONTINUOUS
 62
     2
 10
1665.9200334
 20
170.699994
 30
6.0
 40
21.0
  1
岡田
 50
0.0
 41
0.857142857
 51
0.0
  7
KANJI15
  0
LINE
  8
0
  6
CONTINUOUS
 62
     4
 10
2399.7200004
 20
368.0999772
 30
0.0
 11
2399.7200004
 21
409.699974
 31
0.0
  0
LINE
  8
0
  6
CONTINUOUS
 62
     6
 10
1599.670062
 20
368.0999772
 30
0.0
 11
2400.4700004
 21
368.0999772
 31
0.0
  0
LINE
  8
0
  6
CONTINUOUS
 62
     6
 10
1598.920062
 20
409.699974
 30
0.0
 11
2399.7200004
 21
409.699974
 31
0.0
  0
TEXT
  8
0
  6
CONTINUOUS
 62
     4
 10
1617.42
 20
374.2999968
 30
6.0
 40
21.6
  1
ご用途
 50
0.0
 41
1.111111111
 51
0.0
  7
KANJI8
  0
TEXT
  8
0
  6
CONTINUOUS
 62
     2
 10
1708.92
 20
83.7
 30
1.8
 40
27.0
  1
１／６
 50
0.0
 41
0.666666667
 51
0.0
  7
KANJI16
  0
LINE
  8
0
  6
CONTINUOUS
 62
     2
 10
1462.222218677
 20
510.133974596
 30
0.0
 11
1591.722218677
 21
510.133974596
 31
0.0
  0
LINE
  8
0
  6
CONTINUOUS
 62
     2
 10
1586.722218677
 20
510.133974596
 30
0.0
 11
1589.95745674
 21
522.208047425
 31
0.0
  0
LINE
  8
0
  6
CONTINUOUS
 62
     2
 10
1586.722218677
 20
510.133974596
 30
0.0
 11
1583.486980613
 21
522.208047425
 31
0.0
  0
LINE
  8
0
  6
CONTINUOUS
 62
     2
 10
1586.722218677
 20
629.133974596
 30
0.0
 11
1583.486980613
 21
617.059901768
 31
0.0
  0
LINE
  8
0
  6
CONTINUOUS
 62
     2
 10
1586.722218677
 20
629.133974596
 30
0.0
 11
1589.95745674
 21
617.059901768
 31
0.0
  0
LINE
  8
0
  6
CONTINUOUS
 62
     2
 10
1586.722218677
 20
629.133974596
 30
0.0
 11
1586.722218677
 21
510.133974596
 31
0.0
  0
LINE
  8
0
  6
CONTINUOUS
 62
     2
 10
1586.722218677
 20
629.133974596
 30
0.0
 11
1589.95745674
 21
641.208047425
 31
0.0
  0
LINE
  8
0
  6
CONTINUOUS
 62
     2
 10
1586.722218677
 20
629.133974596
 30
0.0
 11
1583.486980613
 21
641.208047425
 31
0.0
  0
LINE
  8
0
  6
CONTINUOUS
 62
     2
 10
1586.722218677
 20
629.133974596
 30
0.0
 11
1586.722218677
 21
805.133974596
 31
0.0
  0
LINE
  8
0
  6
CONTINUOUS
 62
     2
 10
1552.222218677
 20
641.633974596
 30
0.0
 11
1555.45745674
 21
653.708047425
 31
0.0
  0
LINE
  8
0
  6
CONTINUOUS
 62
     2
 10
1552.222218677
 20
641.633974596
 30
0.0
 11
1548.986980613
 21
653.708047425
 31
0.0
  0
LINE
  8
0
  6
CONTINUOUS
 62
     2
 10
1552.222218677
 20
616.633974596
 30
0.0
 11
1548.986980613
 21
604.559901768
 31
0.0
  0
LINE
  8
0
  6
CONTINUOUS
 62
     2
 10
1552.222218677
 20
616.633974596
 30
0.0
 11
1555.45745674
 21
604.559901768
 31
0.0
  0
LINE
  8
0
  6
CONTINUOUS
 62
     2
 10
1552.222218677
 20
816.333974596
 30
0.0
 11
1552.222218677
 21
591.633974596
 31
0.0
  0
LINE
  8
0
  6
CONTINUOUS
 62
     2
 10
1559.922218677
 20
641.633974596
 30
0.0
 11
1507.122218677
 21
641.633974596
 31
0.0
  0
LINE
  8
0
  6
CONTINUOUS
 62
     2
 10
1561.922218677
 20
616.633974596
 30
0.0
 11
1508.122218677
 21
616.633974596
 31
0.0
  0
LINE
  8
0
  6
CONTINUOUS
 62
     2
 10
1530.022218677
 20
629.133974596
 30
0.0
 11
1591.722218677
 21
629.133974596
 31
0.0
  0
LINE
  8
0
  6
CONTINUOUS
 62
     2
 10
1586.722218677
 20
805.133974596
 30
0.0
 11
1583.486980613
 21
793.059901768
 31
0.0
  0
LINE
  8
0
  6
CONTINUOUS
 62
     2
 10
1586.722218677
 20
805.133974596
 30
0.0
 11
1589.95745674
 21
793.059901768
 31
0.0
  0
TEXT
  8
0
  6
CONTINUOUS
 62
     2
 10
1581.722218677
 20
547.133974596
 30
0.0
 40
18.0
  1
１１９
 50
90.0
 41
0.9
 51
0.0
  7
KANJI17
  0
TEXT
  8
0
  6
CONTINUOUS
 62
     2
 10
1581.722218677
 20
694.633974596
 30
0.0
 40
18.0
  1
１７６
 50
90.0
 41
0.9
 51
0.0
  7
KANJI17
  0
TEXT
  8
0
  6
CONTINUOUS
 62
     2
 10
1547.222218677
 20
649.633974596
 30
0.0
 40
18.0
  1
φ２５Ｈ１０深さ３０
 50
90.0
 41
0.9
 51
0.0
  7
KANJI17
  0
LINE
  8
0
  6
CONTINUOUS
 62
     1
 10
396.922218677
 20
544.133974596
 30
0.0
 11
396.922218677
 21
884.133974596
 31
0.0
  0
LINE
  8
0
  6
CONTINUOUS
 62
     1
 10
396.922218677
 20
694.033974596
 30
0.0
 11
396.922218677
 21
894.033974596
 31
0.0
  0
LINE
  8
0
  6
CONTINUOUS
 62
     1
 10
396.922218677
 20
535.133974596
 30
0.0
 11
396.922218677
 21
910.133974596
 31
0.0
  0
LINE
  8
0
  6
CONTINUOUS
 62
     1
 10
396.922218677
 20
910.133974596
 30
0.0
 11
356.922218677
 21
910.133974596
 31
0.0
  0
ARC
  8
0
  6
CONTINUOUS
 62
     1
 10
378.922218677
 20
777.133974596
 30
0.0
 40
4.0
 50
270.0
 51
0.0
  0
LINE
  8
0
  6
CONTINUOUS
 62
     1
 10
356.922218677
 20
910.133974596
 30
0.0
 11
356.922218677
 21
873.133974596
 31
0.0
  0
ARC
  8
0
  6
CONTINUOUS
 62
     1
 10
353.922218677
 20
873.133974596
 30
0.0
 40
3.0
 50
270.0
 51
0.0
  0
ARC
  8
0
  6
CONTINUOUS
 62
     1
 10
379.922218677
 20
873.133974596
 30
0.0
 40
3.0
 50
270.0
 51
0.0
  0
LINE
  8
0
  6
CONTINUOUS
 62
     1
 10
382.922218677
 20
777.133974596
 30
0.0
 11
382.922218677
 21
910.133974596
 31
0.0
  0
LINE
  8
0
  6
CONTINUOUS
 62
     1
 10
301.922218677
 20
535.133974596
 30
0.0
 11
301.922218677
 21
870.133974596
 31
0.0
  0
LINE
  8
0
  6
CONTINUOUS
 62
     1
 10
301.922218677
 20
870.133974596
 30
0.0
 11
379.922218677
 21
870.133974596
 31
0.0
  0
CIRCLE
  8
0
  6
CONTINUOUS
 62
     1
 10
376.922218677
 20
935.133974596
 30
0.0
 40
15.0
  0
LINE
  8
0
  6
CONTINUOUS
 62
     1
 10
388.32348764
 20
918.135505015
 30
0.0
 11
376.922218677
 21
920.133974596
 31
0.0
  0
LINE
  8
0
  6
CONTINUOUS
 62
     1
 10
376.922218677
 20
918.133974596
 30
0.0
 11
388.323674444
 21
918.133974596
 31
0.0
  0
ARC
  8
0
  6
CONTINUOUS
 62
     1
 10
376.922218677
 20
935.133974596
 30
0.0
 40
25.0
 50
300.714883545
 51
0.0
  0
LINE
  8
0
  6
CONTINUOUS
 62
     1
 10
389.039313823
 20
912.270984085
 30
0.0
 11
388.323674444
 21
918.133974596
 31
0.0
  0
ARC
  8
0
  6
CONTINUOUS
 62
     1
 10
390.427841391
 20
912.450100256
 30
0.0
 40
1.4
 50
121.733468281
 51
187.57738995
  0
LINE
  8
0
  6
CONTINUOUS
 62
     1
 10
365.520949713
 20
918.135505015
 30
0.0
 11
376.922218677
 21
920.133974596
 31
0.0
  0
LINE
  8
0
  6
CONTINUOUS
 62
     1
 10
376.922218677
 20
918.133974596
 30
0.0
 11
365.520762909
 21
918.133974596
 31
0.0
  0
LINE
  8
0
  6
CONTINUOUS
 62
     1
 10
364.80512353
 20
912.270984085
 30
0.0
 11
365.520762909
 21
918.133974596
 31
0.0
  0
ARC
  8
0
  6
CONTINUOUS
 62
     1
 10
363.416595962
 20
912.450100256
 30
0.0
 40
1.4
 50
352.42261005
 51
58.266531719
  0
ARC
  8
0
  6
CONTINUOUS
 62
     1
 10
376.922218677
 20
935.133974596
 30
0.0
 40
25.0
 50
0.0
 51
239.342761175
  0
LINE
  8
0
  6
CONTINUOUS
 62
     1
 10
389.300158206
 20
910.133974596
 30
0.0
 11
389.039313823
 21
912.270984085
 31
0.0
  0
LINE
  8
0
  6
CONTINUOUS
 62
     1
 10
364.544279147
 20
910.133974596
 30
0.0
 11
364.80512353
 21
912.270984085
 31
0.0
  0
LINE
  8
0
  6
CONTINUOUS
 62
     1
 10
396.922218677
 20
535.133974596
 30
0.0
 11
284.922218677
 21
535.133974596
 31
0.0
  0
LINE
  8
0
  6
CONTINUOUS
 62
     1
 10
284.922218677
 20
535.133974596
 30
0.0
 11
284.922218677
 21
783.133974596
 31
0.0
  0
LINE
  8
0
  6
CONTINUOUS
 62
     1
 10
378.922218677
 20
773.133974596
 30
0.0
 11
301.922218677
 21
773.133974596
 31
0.0
  0
LINE
  8
0
  6
CONTINUOUS
 62
     1
 10
301.922218677
 20
783.133974596
 30
0.0
 11
284.922218677
 21
783.133974596
 31
0.0
  0
LINE
  8
0
  6
CONTINUOUS
 62
     1
 10
284.922218677
 20
704.133974596
 30
0.0
 11
284.922218677
 21
693.184434596
 31
0.0
  0
LINE
  8
0
  6
CONTINUOUS
 62
     1
 10
284.922218677
 20
704.133974596
 30
0.0
 11
284.922218677
 21
715.083514596
 31
0.0
  0
LINE
  8
0
  6
CONTINUOUS
 62
     1
 10
276.901118677
 20
695.865954596
 30
0.0
 11
278.44929497
 21
693.184434596
 31
0.0
  0
LINE
  8
0
  6
CONTINUOUS
 62
     1
 10
276.901118677
 20
704.133974596
 30
0.0
 11
276.901118677
 21
695.865954596
 31
0.0
  0
LINE
  8
0
  6
CONTINUOUS
 62
     1
 10
276.901118677
 20
712.401994596
 30
0.0
 11
278.44929497
 21
715.083514596
 31
0.0
  0
LINE
  8
0
  6
CONTINUOUS
 62
     1
 10
276.901118677
 20
704.133974596
 30
0.0
 11
276.901118677
 21
712.401994596
 31
0.0
  0
ARC
  8
0
  6
CONTINUOUS
 62
     1
 10
287.355340369
 20
704.133974596
 30
0.0
 40
10.454221693
 50
148.419912243
 51
211.580087757
  0
ARC
  8
0
  6
CONTINUOUS
 62
     1
 10
280.094232283
 20
695.921819596
 30
0.0
 40
3.193602261
 50
121.002313915
 51
182.989498403
  0
LINE
  8
0
  6
CONTINUOUS
 62
     1
 10
276.901118677
 20
712.401994596
 30
0.0
 11
278.44929497
 21
715.083514596
 31
0.0
  0
ARC
  8
0
  6
CONTINUOUS
 62
     1
 10
280.094232283
 20
712.346129596
 30
0.0
 40
3.193602261
 50
177.010501597
 51
238.997686085
  0
LINE
  8
0
  6
CONTINUOUS
 62
     1
 10
284.922218677
 20
693.184434596
 30
0.0
 11
278.44929497
 21
693.184434596
 31
0.0
  0
LINE
  8
0
  6
CONTINUOUS
 62
     1
 10
284.922218677
 20
698.659204596
 30
0.0
 11
278.44929497
 21
698.659204596
 31
0.0
  0
LINE
  8
0
  6
CONTINUOUS
 62
     1
 10
284.922218677
 20
709.608744596
 30
0.0
 11
278.44929497
 21
709.608744596
 31
0.0
  0
LINE
  8
0
  6
CONTINUOUS
 62
     1
 10
284.922218677
 20
715.083514596
 30
0.0
 11
278.44929497
 21
715.083514596
 31
0.0
  0
LINE
  8
0
  6
CONTINUOUS
 62
     1
 10
284.922218677
 20
554.133974596
 30
0.0
 11
284.922218677
 21
543.184434596
 31
0.0
  0
LINE
  8
0
  6
CONTINUOUS
 62
     1
 10
284.922218677
 20
554.133974596
 30
0.0
 11
284.922218677
 21
565.083514596
 31
0.0
  0
LINE
  8
0
  6
CONTINUOUS
 62
     1
 10
276.901118677
 20
545.865954596
 30
0.0
 11
278.44929497
 21
543.184434596
 31
0.0
  0
LINE
  8
0
  6
CONTINUOUS
 62
     1
 10
276.901118677
 20
554.133974596
 30
0.0
 11
276.901118677
 21
545.865954596
 31
0.0
  0
LINE
  8
0
  6
CONTINUOUS
 62
     1
 10
276.901118677
 20
562.401994596
 30
0.0
 11
278.44929497
 21
565.083514596
 31
0.0
  0
LINE
  8
0
  6
CONTINUOUS
 62
     1
 10
276.901118677
 20
554.133974596
 30
0.0
 11
276.901118677
 21
562.401994596
 31
0.0
  0
ARC
  8
0
  6
CONTINUOUS
 62
     1
 10
287.355340369
 20
554.133974596
 30
0.0
 40
10.454221693
 50
148.419912243
 51
211.580087757
  0
ARC
  8
0
  6
CONTINUOUS
 62
     1
 10
280.094232283
 20
545.921819596
 30
0.0
 40
3.193602261
 50
121.002313915
 51
182.989498403
  0
LINE
  8
0
  6
CONTINUOUS
 62
     1
 10
276.901118677
 20
562.401994596
 30
0.0
 11
278.44929497
 21
565.083514596
 31
0.0
  0
ARC
  8
0
  6
CONTINUOUS
 62
     1
 10
280.094232283
 20
562.346129596
 30
0.0
 40
3.193602261
 50
177.010501597
 51
238.997686085
  0
LINE
  8
0
  6
CONTINUOUS
 62
     1
 10
284.922218677
 20
543.184434596
 30
0.0
 11
278.44929497
 21
543.184434596
 31
0.0
  0
LINE
  8
0
  6
CONTINUOUS
 62
     1
 10
284.922218677
 20
548.659204596
 30
0.0
 11
278.44929497
 21
548.659204596
 31
0.0
  0
LINE
  8
0
  6
CONTINUOUS
 62
     1
 10
284.922218677
 20
559.608744596
 30
0.0
 11
278.44929497
 21
559.608744596
 31
0.0
  0
LINE
  8
0
  6
CONTINUOUS
 62
     1
 10
284.922218677
 20
565.083514596
 30
0.0
 11
278.44929497
 21
565.083514596
 31
0.0
  0
LINE
  8
0
  6
CONTINUOUS
 62
     1
 10
284.922218677
 20
772.133974596
 30
0.0
 11
284.922218677
 21
764.639914596
 31
0.0
  0
LINE
  8
0
  6
CONTINUOUS
 62
     1
 10
284.922218677
 20
772.133974596
 30
0.0
 11
284.922218677
 21
779.628034596
 31
0.0
  0
LINE
  8
0
  6
CONTINUOUS
 62
     1
 10
279.422318677
 20
766.475194596
 30
0.0
 11
280.481918079
 21
764.639914596
 31
0.0
  0
LINE
  8
0
  6
CONTINUOUS
 62
     1
 10
279.422318677
 20
772.133974596
 30
0.0
 11
279.422318677
 21
766.475194596
 31
0.0
  0
LINE
  8
0
  6
CONTINUOUS
 62
     1
 10
279.422318677
 20
777.792754596
 30
0.0
 11
280.481918079
 21
779.628034596
 31
0.0
  0
LINE
  8
0
  6
CONTINUOUS
 62
     1
 10
279.422318677
 20
772.133974596
 30
0.0
 11
279.422318677
 21
777.792754596
 31
0.0
  0
ARC
  8
0
  6
CONTINUOUS
 62
     1
 10
286.577374014
 20
772.133974596
 30
0.0
 40
7.155055337
 50
148.419912243
 51
211.580087757
  0
ARC
  8
0
  6
CONTINUOUS
 62
     1
 10
281.607742443
 20
766.513429596
 30
0.0
 40
2.185758211
 50
121.002313915
 51
182.989498403
  0
LINE
  8
0
  6
CONTINUOUS
 62
     1
 10
279.422318677
 20
777.792754596
 30
0.0
 11
280.481918079
 21
779.628034596
 31
0.0
  0
ARC
  8
0
  6
CONTINUOUS
 62
     1
 10
281.607742443
 20
777.754519596
 30
0.0
 40
2.185758211
 50
177.010501597
 51
238.997686085
  0
LINE
  8
0
  6
CONTINUOUS
 62
     1
 10
284.922218677
 20
764.639914596
 30
0.0
 11
280.481918079
 21
764.639914596
 31
0.0
  0
LINE
  8
0
  6
CONTINUOUS
 62
     1
 10
284.922218677
 20
768.386944596
 30
0.0
 11
280.481918079
 21
768.386944596
 31
0.0
  0
LINE
  8
0
  6
CONTINUOUS
 62
     1
 10
284.922218677
 20
775.881004596
 30
0.0
 11
280.481918079
 21
775.881004596
 31
0.0
  0
LINE
  8
0
  6
CONTINUOUS
 62
     1
 10
284.922218677
 20
779.628034596
 30
0.0
 11
280.481918079
 21
779.628034596
 31
0.0
  0
LINE
  8
0
  6
CONTINUOUS
 62
     1
 10
396.922218677
 20
705.033974596
 30
0.0
 11
396.922218677
 21
905.033974596
 31
0.0
  0
LINE
  8
0
  6
CONTINUOUS
 62
     1
 10
396.922218677
 20
704.333974596
 30
0.0
 11
396.922218677
 21
904.333974596
 31
0.0
  0
LINE
  8
0
  6
LTYPE2
 62
     2
 10
343.997218677
 20
935.133974596
 30
0.0
 11
408.997218677
 21
935.133974596
 31
0.0
  0
LINE
  8
0
  6
LTYPE2
 62
     2
 10
376.922218677
 20
888.133974596
 30
0.0
 11
376.922218677
 21
967.833974596
 31
0.0
  0
LINE
  8
0
  6
LTYPE2
 62
     2
 10
271.322218677
 20
554.133974596
 30
0.0
 11
320.022218677
 21
554.133974596
 31
0.0
  0
LINE
  8
0
  6
LTYPE2
 62
     2
 10
271.922218677
 20
704.133974596
 30
0.0
 11
320.022218677
 21
704.133974596
 31
0.0
  0
LINE
  8
0
  6
LTYPE2
 62
     2
 10
273.822218677
 20
772.133974596
 30
0.0
 11
298.422218677
 21
772.133974596
 31
0.0
  0
LINE
  8
0
  6
CONTINUOUS
 62
     2
 10
277.422218677
 20
821.533974596
 30
0.0
 11
275.941863734
 21
833.946007034
 31
0.0
  0
LINE
  8
0
  6
CONTINUOUS
 62
     2
 10
277.422218677
 20
821.533974596
 30
0.0
 11
269.934177471
 21
831.542932529
 31
0.0
  0
LINE
  8
0
  6
CONTINUOUS
 62
     2
 10
277.422218677
 20
821.533974596
 30
0.0
 11
227.422218677
 21
946.533974596
 31
0.0
  0
LINE
  8
0
  6
CONTINUOUS
 62
     2
 10
227.422218677
 20
946.533974596
 30
0.0
 11
146.422218677
 21
946.533974596
 31
0.0
  0
LINE
  8
0
  6
CONTINUOUS
 62
     2
 10
284.922218677
 20
535.133974596
 30
0.0
 11
284.922218677
 21
410.133974596
 31
0.0
  0
LINE
  8
0
  6
CONTINUOUS
 62
     2
 10
284.922218677
 20
415.133974596
 30
0.0
 11
284.922218677
 21
368.633974596
 31
0.0
  0
LINE
  8
0
  6
LTYPE2
 62
     2
 10
255.472218677
 20
805.133974596
 30
0.0
 11
706.222218677
 21
805.133974596
 31
0.0
  0
LINE
  8
0
  6
LTYPE2
 62
     2
 10
481.922218677
 20
586.133974596
 30
0.0
 11
481.922218677
 21
676.133974596
 31
0.0
  0
LINE
  8
0
  6
LTYPE2
 62
     2
 10
481.922218677
 20
586.133974596
 30
0.0
 11
481.922218677
 21
676.133974596
 31
0.0
  0
CIRCLE
  8
0
  6
CONTINUOUS
 62
     1
 10
481.922218677
 20
629.133974596
 30
0.0
 40
12.5
  0
CIRCLE
  8
0
  6
CONTINUOUS
 62
     1
 10
481.922218677
 20
629.133974596
 30
0.0
 40
23.0
  0
CIRCLE
  8
0
  6
CONTINUOUS
 62
     1
 10
481.922218677
 20
629.133974596
 30
0.0
 40
27.5
  0
LINE
  8
0
  6
CONTINUOUS
 62
     1
 10
519.922218677
 20
563.133974596
 30
0.0
 11
593.922218677
 21
563.133974596
 31
0.0
  0
LINE
  8
0
  6
CONTINUOUS
 62
     1
 10
601.922218677
 20
569.133974596
 30
0.0
 11
601.922218677
 21
689.133974596
 31
0.0
  0
LINE
  8
0
  6
CONTINUOUS
 62
     1
 10
411.922218677
 20
562.133974596
 30
0.0
 11
411.922218677
 21
696.133974596
 31
0.0
  0
LINE
  8
0
  6
CONTINUOUS
 62
     1
 10
396.922218677
 20
562.133974596
 30
0.0
 11
411.922218677
 21
562.133974596
 31
0.0
  0
LINE
  8
0
  6
CONTINUOUS
 62
     1
 10
396.922218677
 20
696.133974596
 30
0.0
 11
411.922218677
 21
696.133974596
 31
0.0
  0
LINE
  8
0
  6
CONTINUOUS
 62
     1
 10
411.922218677
 20
689.133974596
 30
0.0
 11
601.922218677
 21
689.133974596
 31
0.0
  0
LINE
  8
0
  6
CONTINUOUS
 62
     1
 10
593.922218677
 20
569.133974596
 30
0.0
 11
601.922218677
 21
569.133974596
 31
0.0
  0
LINE
  8
0
  6
CONTINUOUS
 62
     1
 10
411.922218677
 20
569.133974596
 30
0.0
 11
519.922218677
 21
569.133974596
 31
0.0
  0
LINE
  8
0
  6
LTYPE2
 62
     2
 10
556.922218677
 20
547.633974596
 30
0.0
 11
556.922218677
 21
574.133974596
 31
0.0
  0
LINE
  8
0
  6
CONTINUOUS
 62
     1
 10
602.922218677
 20
561.633974596
 30
0.0
 11
602.922218677
 21
560.633974596
 31
0.0
  0
LINE
  8
0
  6
CONTINUOUS
 62
     1
 10
602.922218677
 20
560.633974596
 30
0.0
 11
638.922218677
 21
560.633974596
 31
0.0
  0
ARC
  8
0
  6
CONTINUOUS
 62
     1
 10
638.922218677
 20
557.633974596
 30
0.0
 40
3.0
 50
0.0
 51
90.0
  0
LINE
  8
0
  6
CONTINUOUS
 62
     1
 10
519.922218677
 20
561.633974596
 30
0.0
 11
519.922218677
 21
603.633974596
 31
0.0
  0
LINE
  8
0
  6
CONTINUOUS
 62
     1
 10
593.922218677
 20
561.633974596
 30
0.0
 11
593.922218677
 21
603.633974596
 31
0.0
  0
LINE
  8
0
  6
CONTINUOUS
 62
     1
 10
601.922218677
 20
687.133974596
 30
0.0
 11
610.922218677
 21
687.133974596
 31
0.0
  0
LINE
  8
0
  6
CONTINUOUS
 62
     1
 10
601.922218677
 20
690.133974596
 30
0.0
 11
610.922218677
 21
690.133974596
 31
0.0
  0
LINE
  8
0
  6
CONTINUOUS
 62
     1
 10
601.922218677
 20
634.133974596
 30
0.0
 11
610.922218677
 21
634.133974596
 31
0.0
  0
LINE
  8
0
  6
CONTINUOUS
 62
     1
 10
601.922218677
 20
624.133974596
 30
0.0
 11
610.922218677
 21
624.133974596
 31
0.0
  0
LINE
  8
0
  6
CONTINUOUS
 62
     1
 10
601.922218677
 20
571.133974596
 30
0.0
 11
610.922218677
 21
571.133974596
 31
0.0
  0
LINE
  8
0
  6
CONTINUOUS
 62
     1
 10
601.922218677
 20
568.133974596
 30
0.0
 11
610.922218677
 21
568.133974596
 31
0.0
  0
LINE
  8
0
  6
CONTINUOUS
 62
     1
 10
610.922218677
 20
569.133974596
 30
0.0
 11
610.922218677
 21
689.133974596
 31
0.0
  0
LINE
  8
0
  6
CONTINUOUS
 62
     1
 10
396.922218677
 20
704.333974596
 30
0.0
 11
396.922218677
 21
904.333974596
 31
0.0
  0
LINE
  8
0
  6
CONTINUOUS
 62
     1
 10
1029.522218677
 20
821.633974596
 30
0.0
 11
1089.522218677
 21
821.633974596
 31
0.0
  0
LINE
  8
0
  6
CONTINUOUS
 62
     1
 10
1089.522218677
 20
806.633974596
 30
0.0
 11
1089.522218677
 21
821.633974596
 31
0.0
  0
LINE
  8
0
  6
CONTINUOUS
 62
     1
 10
1014.522218677
 20
806.633974596
 30
0.0
 11
1089.522218677
 21
806.633974596
 31
0.0
  0
LINE
  8
0
  6
CONTINUOUS
 62
     1
 10
1042.522218677
 20
802.133974596
 30
0.0
 11
1086.522218677
 21
802.133974596
 31
0.0
  0
LINE
  8
0
  6
CONTINUOUS
 62
     1
 10
1052.022218677
 20
796.133974596
 30
0.0
 11
1077.022218677
 21
796.133974596
 31
0.0
  0
LINE
  8
0
  6
CONTINUOUS
 62
     1
 10
1077.022218677
 20
796.133974596
 30
0.0
 11
1077.022218677
 21
802.133974596
 31
0.0
  0
LINE
  8
0
  6
CONTINUOUS
 62
     1
 10
1052.022218677
 20
796.133974596
 30
0.0
 11
1052.022218677
 21
802.133974596
 31
0.0
  0
LINE
  8
0
  6
CONTINUOUS
 62
     1
 10
1086.522218677
 20
802.133974596
 30
0.0
 11
1086.522218677
 21
806.633974596
 31
0.0
  0
LINE
  8
0
  6
CONTINUOUS
 62
     1
 10
1042.522218677
 20
802.133974596
 30
0.0
 11
1042.522218677
 21
806.633974596
 31
0.0
  0
CIRCLE
  8
0
  6
CONTINUOUS
 62
     1
 10
1064.522218677
 20
800.133974596
 30
0.0
 40
2.0
  0
LINE
  8
0
  6
CONTINUOUS
 62
     1
 10
1029.522218677
 20
846.633974596
 30
0.0
 11
1089.522218677
 21
846.633974596
 31
0.0
  0
LINE
  8
0
  6
CONTINUOUS
 62
     1
 10
1089.522218677
 20
861.633974596
 30
0.0
 11
1089.522218677
 21
846.633974596
 31
0.0
  0
LINE
  8
0
  6
CONTINUOUS
 62
     1
 10
1014.522218677
 20
861.633974596
 30
0.0
 11
1089.522218677
 21
861.633974596
 31
0.0
  0
LINE
  8
0
  6
CONTINUOUS
 62
     1
 10
1042.522218677
 20
866.133974596
 30
0.0
 11
1086.522218677
 21
866.133974596
 31
0.0
  0
LINE
  8
0
  6
CONTINUOUS
 62
     1
 10
1052.022218677
 20
872.133974596
 30
0.0
 11
1077.022218677
 21
872.133974596
 31
0.0
  0
LINE
  8
0
  6
CONTINUOUS
 62
     1
 10
1077.022218677
 20
872.133974596
 30
0.0
 11
1077.022218677
 21
866.133974596
 31
0.0
  0
LINE
  8
0
  6
CONTINUOUS
 62
     1
 10
1052.022218677
 20
872.133974596
 30
0.0
 11
1052.022218677
 21
866.133974596
 31
0.0
  0
LINE
  8
0
  6
CONTINUOUS
 62
     1
 10
1086.522218677
 20
866.133974596
 30
0.0
 11
1086.522218677
 21
861.633974596
 31
0.0
  0
LINE
  8
0
  6
CONTINUOUS
 62
     1
 10
1042.522218677
 20
866.133974596
 30
0.0
 11
1042.522218677
 21
861.633974596
 31
0.0
  0
CIRCLE
  8
0
  6
CONTINUOUS
 62
     1
 10
1064.522218677
 20
868.133974596
 30
0.0
 40
2.0
  0
LINE
  8
0
  6
CONTINUOUS
 62
     1
 10
1029.522218677
 20
821.633974596
 30
0.0
 11
1029.522218677
 21
846.633974596
 31
0.0
  0
LINE
  8
0
  6
CONTINUOUS
 62
     1
 10
1014.522218677
 20
806.633974596
 30
0.0
 11
1014.522218677
 21
861.633974596
 31
0.0
  0
LINE
  8
0
  6
CONTINUOUS
 62
     1
 10
1052.022218677
 20
821.633974596
 30
0.0
 11
1052.022218677
 21
846.633974596
 31
0.0
  0
LINE
  8
0
  6
CONTINUOUS
 62
     1
 10
1077.022218677
 20
821.633974596
 30
0.0
 11
1077.022218677
 21
846.633974596
 31
0.0
  0
LINE
  8
0
  6
CONTINUOUS
 62
     1
 10
1052.022218677
 20
846.633974596
 30
0.0
 11
1052.022218677
 21
821.633974596
 31
0.0
  0
LINE
  8
0
  6
CONTINUOUS
 62
     1
 10
1077.022218677
 20
846.633974596
 30
0.0
 11
1077.022218677
 21
821.633974596
 31
0.0
  0
LINE
  8
0
  6
CONTINUOUS
 62
     1
 10
1014.522218677
 20
808.883974596
 30
0.0
 11
987.572218677
 21
808.883974596
 31
0.0
  0
LINE
  8
0
  6
CONTINUOUS
 62
     1
 10
1014.522218677
 20
858.883974596
 30
0.0
 11
987.572218677
 21
858.883974596
 31
0.0
  0
LINE
  8
0
  6
LTYPE3
 62
     2
 10
1060.522218677
 20
800.233974596
 30
0.0
 11
1068.722218677
 21
800.233974596
 31
0.0
  0
LINE
  8
0
  6
LTYPE1
 62
     2
 10
1077.022218677
 20
802.133974596
 30
0.0
 11
1077.022218677
 21
821.633974596
 31
0.0
  0
LINE
  8
0
  6
LTYPE1
 62
     2
 10
1052.022218677
 20
802.133974596
 30
0.0
 11
1052.022218677
 21
821.633974596
 31
0.0
  0
LINE
  8
0
  6
LTYPE3
 62
     2
 10
1060.522218677
 20
868.033974596
 30
0.0
 11
1068.722218677
 21
868.033974596
 31
0.0
  0
LINE
  8
0
  6
LTYPE1
 62
     2
 10
1077.022218677
 20
866.133974596
 30
0.0
 11
1077.022218677
 21
846.633974596
 31
0.0
  0
LINE
  8
0
  6
LTYPE1
 62
     2
 10
1052.022218677
 20
866.133974596
 30
0.0
 11
1052.022218677
 21
846.633974596
 31
0.0
  0
LINE
  8
0
  6
LTYPE3
 62
     2
 10
1064.522218677
 20
791.133974596
 30
0.0
 11
1064.522218677
 21
872.133974596
 31
0.0
  0
LINE
  8
0
  6
LTYPE3
 62
     2
 10
1064.522218677
 20
877.133974596
 30
0.0
 11
1064.522218677
 21
796.133974596
 31
0.0
  0
LINE
  8
0
  6
LTYPE2
 62
     2
 10
1095.572218677
 20
833.883974596
 30
0.0
 11
987.572218677
 21
833.883974596
 31
0.0
  0
LINE
  8
0
  6
CONTINUOUS
 62
     2
 10
1119.022218677
 20
846.633974596
 30
0.0
 11
1122.25745674
 21
858.708047425
 31
0.0
  0
LINE
  8
0
  6
CONTINUOUS
 62
     2
 10
1119.022218677
 20
846.633974596
 30
0.0
 11
1115.786980613
 21
858.708047425
 31
0.0
  0
LINE
  8
0
  6
CONTINUOUS
 62
     2
 10
1089.522218677
 20
846.633974596
 30
0.0
 11
1124.022218677
 21
846.633974596
 31
0.0
  0
LINE
  8
0
  6
CONTINUOUS
 62
     2
 10
1089.522218677
 20
806.633974596
 30
0.0
 11
1153.022218677
 21
806.633974596
 31
0.0
  0
LINE
  8
0
  6
CONTINUOUS
 62
     2
 10
1148.022218677
 20
806.633974596
 30
0.0
 11
1151.25745674
 21
818.708047425
 31
0.0
  0
LINE
  8
0
  6
CONTINUOUS
 62
     2
 10
1148.022218677
 20
806.633974596
 30
0.0
 11
1144.786980613
 21
818.708047425
 31
0.0
  0
LINE
  8
0
  6
CONTINUOUS
 62
     2
 10
1148.022218677
 20
806.633974596
 30
0.0
 11
1148.022218677
 21
861.633974596
 31
0.0
  0
LINE
  8
0
  6
CONTINUOUS
 62
     2
 10
1148.022218677
 20
861.633974596
 30
0.0
 11
1144.786980613
 21
849.559901768
 31
0.0
  0
LINE
  8
0
  6
CONTINUOUS
 62
     2
 10
1148.022218677
 20
861.633974596
 30
0.0
 11
1151.25745674
 21
849.559901768
 31
0.0
  0
LINE
  8
0
  6
CONTINUOUS
 62
     2
 10
1089.522218677
 20
861.633974596
 30
0.0
 11
1153.022218677
 21
861.633974596
 31
0.0
  0
LINE
  8
0
  6
CONTINUOUS
 62
     2
 10
1064.522218677
 20
766.083974596
 30
0.0
 11
1052.448145848
 21
769.31921266
 31
0.0
  0
LINE
  8
0
  6
CONTINUOUS
 62
     2
 10
1064.522218677
 20
766.083974596
 30
0.0
 11
1052.448145848
 21
762.848736532
 31
0.0
  0
LINE
  8
0
  6
CONTINUOUS
 62
     2
 10
1064.522218677
 20
766.083974596
 30
0.0
 11
1029.522218677
 21
766.083974596
 31
0.0
  0
LINE
  8
0
  6
CONTINUOUS
 62
     2
 10
1029.522218677
 20
766.083974596
 30
0.0
 11
1041.596291505
 21
762.848736532
 31
0.0
  0
LINE
  8
0
  6
CONTINUOUS
 62
     2
 10
1029.522218677
 20
766.083974596
 30
0.0
 11
1041.596291505
 21
769.31921266
 31
0.0
  0
LINE
  8
0
  6
CONTINUOUS
 62
     2
 10
1029.522218677
 20
821.633974596
 30
0.0
 11
1029.522218677
 21
761.083974596
 31
0.0
  0
LINE
  8
0
  6
CONTINUOUS
 62
     2
 10
1014.522218677
 20
806.633974596
 30
0.0
 11
1014.522218677
 21
761.083974596
 31
0.0
  0
LINE
  8
0
  6
CONTINUOUS
 62
     2
 10
1014.522218677
 20
766.083974596
 30
0.0
 11
1002.448145848
 21
762.848736532
 31
0.0
  0
LINE
  8
0
  6
CONTINUOUS
 62
     2
 10
1014.522218677
 20
766.083974596
 30
0.0
 11
1002.448145848
 21
769.31921266
 31
0.0
  0
LINE
  8
0
  6
CONTINUOUS
 62
     2
 10
1029.522218677
 20
766.083974596
 30
0.0
 11
987.522218677
 21
766.083974596
 31
0.0
  0
LINE
  8
0
  6
CONTINUOUS
 62
     2
 10
1089.522218677
 20
821.633974596
 30
0.0
 11
1124.022218677
 21
821.633974596
 31
0.0
  0
LINE
  8
0
  6
CONTINUOUS
 62
     2
 10
1119.022218677
 20
821.633974596
 30
0.0
 11
1115.786980613
 21
809.559901768
 31
0.0
  0
LINE
  8
0
  6
CONTINUOUS
 62
     2
 10
1119.022218677
 20
821.633974596
 30
0.0
 11
1122.25745674
 21
809.559901768
 31
0.0
  0
LINE
  8
0
  6
CONTINUOUS
 62
     2
 10
1119.022218677
 20
796.633974596
 30
0.0
 11
1119.022218677
 21
871.633974596
 31
0.0
  0
LINE
  8
0
  6
CONTINUOUS
 62
     2
 10
1064.522218677
 20
791.133974596
 30
0.0
 11
1064.522218677
 21
761.083974596
 31
0.0
  0
LINE
  8
7
  6
CONTINUOUS
 62
     2
 10
284.922218677
 20
381.433974596
 30
0.0
 11
296.996291505
 21
378.198736532
 31
0.0
  0
LINE
  8
7
  6
CONTINUOUS
 62
     2
 10
284.922218677
 20
381.433974596
 30
0.0
 11
296.996291505
 21
384.66921266
 31
0.0
  0
LINE
  8
7
  6
CONTINUOUS
 62
     2
 10
481.422218677
 20
417.008974596
 30
0.0
 11
493.496291505
 21
413.773736532
 31
0.0
  0
LINE
  8
7
  6
CONTINUOUS
 62
     2
 10
481.422218677
 20
417.008974596
 30
0.0
 11
493.496291505
 21
420.24421266
 31
0.0
  0
LINE
  8
7
  6
CONTINUOUS
 62
     2
 10
481.922218677
 20
452.008974596
 30
0.0
 11
493.996291505
 21
448.773736532
 31
0.0
  0
LINE
  8
7
  6
CONTINUOUS
 62
     2
 10
481.922218677
 20
452.008974596
 30
0.0
 11
493.996291505
 21
455.24421266
 31
0.0
  0
LINE
  8
7
  6
CONTINUOUS
 62
     2
 10
481.922218677
 20
416.875
 30
0.0
 11
469.848145848
 21
420.110238064
 31
0.0
  0
LINE
  8
7
  6
CONTINUOUS
 62
     2
 10
481.922218677
 20
416.875
 30
0.0
 11
469.848145848
 21
413.639761936
 31
0.0
  0
LINE
  8
7
  6
CONTINUOUS
 62
     2
 10
481.922218677
 20
416.875
 30
0.0
 11
284.922218677
 21
416.875
 31
0.0
  0
LINE
  8
7
  6
CONTINUOUS
 62
     2
 10
284.922218677
 20
416.875
 30
0.0
 11
296.996291505
 21
413.639761936
 31
0.0
  0
LINE
  8
7
  6
CONTINUOUS
 62
     2
 10
284.922218677
 20
416.875
 30
0.0
 11
296.996291505
 21
420.110238064
 31
0.0
  0
LINE
  8
7
  6
CONTINUOUS
 62
     2
 10
284.922218677
 20
423.575
 30
0.0
 11
284.922218677
 21
424.375
 31
0.0
  0
LINE
  8
0
  6
CONTINUOUS
 62
     2
 10
815.922218677
 20
763.133974596
 30
0.0
 11
864.622218677
 21
763.133974596
 31
0.0
  0
LINE
  8
0
  6
CONTINUOUS
 62
     1
 10
396.922218677
 20
725.133974596
 30
0.0
 11
396.922218677
 21
885.133974596
 31
0.0
  0
LINE
  8
0
  6
CONTINUOUS
 62
     1
 10
396.922218677
 20
704.333974596
 30
0.0
 11
396.922218677
 21
904.333974596
 31
0.0
  0
LINE
  8
2
  6
CONTINUOUS
 62
     2
 10
481.922218677
 20
452.008974596
 30
0.0
 11
469.848145848
 21
455.24421266
 31
0.0
  0
LINE
  8
2
  6
CONTINUOUS
 62
     2
 10
481.922218677
 20
452.008974596
 30
0.0
 11
469.848145848
 21
448.773736532
 31
0.0
  0
LINE
  8
2
  6
CONTINUOUS
 62
     2
 10
481.922218677
 20
452.008974596
 30
0.0
 11
396.922218677
 21
452.008974596
 31
0.0
  0
LINE
  8
2
  6
CONTINUOUS
 62
     2
 10
396.922218677
 20
452.008974596
 30
0.0
 11
408.996291505
 21
448.773736532
 31
0.0
  0
LINE
  8
2
  6
CONTINUOUS
 62
     2
 10
396.922218677
 20
452.008974596
 30
0.0
 11
408.996291505
 21
455.24421266
 31
0.0
  0
LINE
  8
2
  6
CONTINUOUS
 62
     2
 10
396.922218677
 20
530.133974596
 30
0.0
 11
396.922218677
 21
447.008974596
 31
0.0
  0
LINE
  8
2
  6
CONTINUOUS
 62
     2
 10
396.922218677
 20
452.008974596
 30
0.0
 11
384.848145848
 21
455.24421266
 31
0.0
  0
LINE
  8
2
  6
CONTINUOUS
 62
     2
 10
396.922218677
 20
452.008974596
 30
0.0
 11
384.848145848
 21
448.773736532
 31
0.0
  0
LINE
  8
2
  6
CONTINUOUS
 62
     2
 10
396.922218677
 20
452.008974596
 30
0.0
 11
284.922218677
 21
452.008974596
 31
0.0
  0
LINE
  8
2
  6
CONTINUOUS
 62
     2
 10
284.922218677
 20
452.008974596
 30
0.0
 11
296.996291505
 21
448.773736532
 31
0.0
  0
LINE
  8
2
  6
CONTINUOUS
 62
     2
 10
284.922218677
 20
452.008974596
 30
0.0
 11
296.996291505
 21
455.24421266
 31
0.0
  0
TEXT
  8
0
  6
CONTINUOUS
 62
     2
 10
146.422218677
 20
951.533974596
 30
0.0
 40
18.0
  1
手動軸カバー
 50
0.0
 41
0.9
 51
0.0
  7
KANJI17
  0
TEXT
  8
0
  6
CONTINUOUS
 62
     2
 10
1143.022218677
 20
819.383974596
 30
0.0
 40
18.0
  1
５５
 50
90.0
 41
0.9
 51
0.0
  7
KANJI17
  0
TEXT
  8
0
  6
CONTINUOUS
 62
     2
 10
1032.272218677
 20
771.083974596
 30
0.0
 40
18.0
  1
３５
 50
0.0
 41
0.9
 51
0.0
  7
KANJI17
  0
TEXT
  8
0
  6
CONTINUOUS
 62
     2
 10
981.272218677
 20
771.583974596
 30
0.0
 40
18.0
  1
１５
 50
0.0
 41
0.9
 51
0.0
  7
KANJI17
  0
TEXT
  8
7
  6
CONTINUOUS
 62
     2
 10
362.172218677
 20
421.875
 30
0.0
 40
18.0
  1
１９７
 50
0.0
 41
0.9
 51
0.0
  7
KANJI17
  0
TEXT
  8
0
  6
CONTINUOUS
 62
     2
 10
815.922218677
 20
768.133974596
 30
0.0
 40
18.0
  1
給脂口
 50
0.0
 41
0.9
 51
0.0
  7
KANJI17
  0
TEXT
  8
2
  6
CONTINUOUS
 62
     2
 10
315.422218677
 20
457.008974596
 30
0.0
 40
18.0
  1
１１２
 50
0.0
 41
0.9
 51
0.0
  7
KANJI17
  0
TEXT
  8
2
  6
CONTINUOUS
 62
     2
 10
422.672218677
 20
457.008974596
 30
0.0
 40
18.0
  1
８５
 50
0.0
 41
0.9
 51
0.0
  7
KANJI17
  0
TEXT
  8
0
  6
CONTINUOUS
 62
     2
 10
1114.322218677
 20
820.583974596
 30
-1.8
 40
18.0
  1
２５
 50
90.0
 41
0.833333333
 51
0.0
  7
KANJI18
  0
LINE
  8
2
  6
CONTINUOUS
 62
     2
 10
1064.522218677
 20
764.083974596
 30
0.0
 11
1064.522218677
 21
760.083974596
 31
0.0
  0
LINE
  8
2
  6
CONTINUOUS
 62
     2
 10
1064.522218677
 20
766.083974596
 30
0.0
 11
1050.033331282
 21
769.966260273
 31
0.0
  0
LINE
  8
2
  6
CONTINUOUS
 62
     2
 10
1064.522218677
 20
766.083974596
 30
0.0
 11
1050.033331282
 21
762.20168892
 31
0.0
  0
LINE
  8
2
  6
CONTINUOUS
 62
     2
 10
1042.022218677
 20
766.083974596
 30
0.0
 11
1064.522218677
 21
766.083974596
 31
0.0
  0
LINE
  8
2
  6
CONTINUOUS
 62
     2
 10
1064.522218677
 20
766.083974596
 30
0.0
 11
1089.522218677
 21
766.083974596
 31
0.0
  0
LINE
  8
2
  6
CONTINUOUS
 62
     2
 10
1089.522218677
 20
766.083974596
 30
0.0
 11
1144.422218677
 21
766.083974596
 31
0.0
  0
LINE
  8
2
  6
CONTINUOUS
 62
     2
 10
1089.522218677
 20
766.083974596
 30
0.0
 11
1104.011106071
 21
762.20168892
 31
0.0
  0
LINE
  8
2
  6
CONTINUOUS
 62
     2
 10
1089.522218677
 20
766.083974596
 30
0.0
 11
1104.011106071
 21
769.966260273
 31
0.0
  0
LINE
  8
2
  6
CONTINUOUS
 62
     2
 10
1089.522218677
 20
800.633974596
 30
0.0
 11
1089.522218677
 21
760.083974596
 31
0.0
  0
TEXT
  8
2
  6
CONTINUOUS
 62
     3
 10
1112.022218677
 20
769.083974596
 30
0.0
 40
18.0
  1
２５
 50
0.0
 41
0.9
 51
0.0
  7
KANJI17
  0
LINE
  8
0
  6
CONTINUOUS
 62
     2
 10
1552.222218677
 20
805.133974596
 30
0.0
 11
1591.722218677
 21
805.133974596
 31
0.0
  0
LINE
  8
0
  6
CONTINUOUS
 62
     1
 10
1014.12
 20
1491.24
 30
0.0
 11
1791.72
 21
1491.24
 31
0.0
  0
LINE
  8
0
  6
CONTINUOUS
 62
     1
 10
1014.12
 20
1457.64
 30
0.0
 11
1791.72
 21
1457.64
 31
0.0
  0
TEXT
  8
0
  6
CONTINUOUS
 62
     2
 10
1062.12
 20
1467.24
 30
1.536
 40
15.36
  1
形
 50
0.0
 41
0.9
 51
0.0
  7
KANJI19
  0
TEXT
  8
0
  6
CONTINUOUS
 62
     2
 10
1155.72
 20
1467.24
 30
1.536
 40
15.36
  1
式
 50
0.0
 41
0.9
 51
0.0
  7
KANJI19
  0
TEXT
  8
0
  6
CONTINUOUS
 62
     2
 10
1228.2
 20
1466.28
 30
1.44
 40
14.4
  1
ストローク
 50
0.0
 41
0.9
 51
0.0
  7
KANJI20
  0
TEXT
  8
0
  6
CONTINUOUS
 62
     2
 10
1320.36
 20
1465.32
 30
0.0
 40
14.4
  1
ｍｉｎ　
 50
0.0
 41
0.9
 51
0.0
  7
KANJI21
  0
TEXT
  8
0
  6
CONTINUOUS
 62
     2
 10
1416.36
 20
1465.32
 30
0.0
 40
14.4
  1
ｍｉｎ　
 50
0.0
 41
0.9
 51
0.0
  7
KANJI21
  0
TEXT
  8
0
  6
CONTINUOUS
 62
     2
 10
1608.36
 20
1465.32
 30
0.0
 40
14.4
  1
ｍｉｎ　
 50
0.0
 41
0.9
 51
0.0
  7
KANJI21
  0
TEXT
  8
0
  6
CONTINUOUS
 62
     2
 10
1369.32
 20
1466.28
 30
1.68
 40
16.8
  1
ＡＬ
 50
0.0
 41
0.9
 51
0.0
  7
KANJI22
  0
TEXT
  8
0
  6
CONTINUOUS
 62
     2
 10
1465.32
 20
1466.28
 30
1.68
 40
16.8
  1
Ｌ
 50
0.0
 41
0.9
 51
0.0
  7
KANJI22
  0
TEXT
  8
0
  6
CONTINUOUS
 62
     2
 10
1546.92
 20
1466.28
 30
1.68
 40
16.8
  1
Ｃ
 50
0.0
 41
0.9
 51
0.0
  7
KANJI22
  0
TEXT
  8
0
  6
CONTINUOUS
 62
     2
 10
1657.32
 20
1466.28
 30
1.68
 40
16.8
  1
Ｐ
 50
0.0
 41
0.9
 51
0.0
  7
KANJI22
  0
TEXT
  8
0
  6
CONTINUOUS
 62
     2
 10
1698.48
 20
1465.68
 30
1.44
 40
16.8
  1
概算重量
 50
0.0
 41
0.857142857
 51
0.0
  7
KANJI23
  0
TEXT
  8
0
  6
CONTINUOUS
 62
     2
 10
1756.08
 20
1465.92
 30
0.0
 40
12.96
  1
（ｋｇ）
 50
0.0
 41
0.740740741
 51
0.0
  7
KANJI24
  0
TEXT
  8
0
  6
CONTINUOUS
 62
     2
 10
1976.7200334
 20
155.699994
 30
13.0
 40
30.0
  1
３００２４８４
 50
0.0
 41
0.8
 51
0.0
  7
KANJI25
  0
TEXT
  8
0
  6
CONTINUOUS
 62
     2
 10
1861.92
 20
251.7
 30
0.0
 40
21.0
  1
ＭＣＬＥ２－Ｌ
 50
0.0
 41
0.793650794
 51
0.0
  7
KANJI26
  0
TEXT
  8
0
  6
CONTINUOUS
 62
     2
 10
176.4
 20
26.4
 30
0.0
 40
18.0
  1
ＦＤ　Ｎｏ．ＭＣ１９７
 50
0.0
 41
0.9
 51
0.0
  7
KANJI27
  0
LINE
  8
0
  6
CONTINUOUS
 62
     1
 10
408.922218677
 20
887.109702686
 30
0.0
 11
461.594354632
 21
887.109702686
 31
0.0
  0
LINE
  8
0
  6
CONTINUOUS
 62
     1
 10
411.422218677
 20
862.769974596
 30
0.0
 11
411.422218677
 21
872.569974596
 31
0.0
  0
LINE
  8
0
  6
CONTINUOUS
 62
     1
 10
411.422218677
 20
872.569974596
 30
0.0
 11
417.03657803
 21
872.569974596
 31
0.0
  0
LINE
  8
0
  6
CONTINUOUS
 62
     1
 10
418.422218677
 20
870.169974596
 30
0.0
 11
417.03657803
 21
872.569974596
 31
0.0
  0
LINE
  8
0
  6
CONTINUOUS
 62
     1
 10
418.422218677
 20
862.769974596
 30
0.0
 11
418.422218677
 21
870.169974596
 31
0.0
  0
LINE
  8
0
  6
CONTINUOUS
 62
     1
 10
411.422218677
 20
867.669974596
 30
0.0
 11
417.03657803
 21
867.669974596
 31
0.0
  0
LINE
  8
0
  6
CONTINUOUS
 62
     1
 10
411.422218677
 20
862.769974596
 30
0.0
 11
411.422218677
 21
852.969974596
 31
0.0
  0
LINE
  8
0
  6
CONTINUOUS
 62
     1
 10
411.422218677
 20
852.969974596
 30
0.0
 11
417.03657803
 21
852.969974596
 31
0.0
  0
LINE
  8
0
  6
CONTINUOUS
 62
     1
 10
418.422218677
 20
855.369974596
 30
0.0
 11
417.03657803
 21
852.969974596
 31
0.0
  0
LINE
  8
0
  6
CONTINUOUS
 62
     1
 10
418.422218677
 20
862.769974596
 30
0.0
 11
418.422218677
 21
855.369974596
 31
0.0
  0
LINE
  8
0
  6
CONTINUOUS
 62
     1
 10
411.422218677
 20
857.869974596
 30
0.0
 11
417.03657803
 21
857.869974596
 31
0.0
  0
ARC
  8
0
  6
CONTINUOUS
 62
     1
 10
409.065535876
 20
862.769974596
 30
0.0
 40
9.3566828
 50
328.419912243
 51
31.580087757
  0
ARC
  8
0
  6
CONTINUOUS
 62
     1
 10
415.564334844
 20
870.119974596
 30
0.0
 40
2.858321186
 50
301.002313915
 51
2.989498403
  0
LINE
  8
0
  6
CONTINUOUS
 62
     1
 10
418.422218677
 20
855.369974596
 30
0.0
 11
417.03657803
 21
852.969974596
 31
0.0
  0
ARC
  8
0
  6
CONTINUOUS
 62
     1
 10
415.564334844
 20
855.419974596
 30
0.0
 40
2.858321186
 50
357.010501597
 51
58.997686085
  0
LINE
  8
0
  6
CONTINUOUS
 62
     1
 10
408.922218677
 20
871.969974596
 30
0.0
 11
411.422218677
 21
871.969974596
 31
0.0
  0
LINE
  8
0
  6
CONTINUOUS
 62
     1
 10
408.922218677
 20
862.769974596
 30
0.0
 11
411.422218672
 21
865.269974592
 31
0.0
  0
LINE
  8
0
  6
CONTINUOUS
 62
     1
 10
411.422218672
 20
862.769974596
 30
0.0
 11
408.922218677
 21
860.2699746
 31
0.0
  0
LINE
  8
0
  6
CONTINUOUS
 62
     1
 10
408.922218677
 20
853.569974596
 30
0.0
 11
411.422218677
 21
853.569974596
 31
0.0
  0
LINE
  8
0
  6
CONTINUOUS
 62
     1
 10
618.922218677
 20
864.433974596
 30
0.0
 11
471.922218677
 21
864.433974596
 31
0.0
  0
LINE
  8
0
  6
CONTINUOUS
 62
     1
 10
618.922218677
 20
844.433974596
 30
0.0
 11
471.922218677
 21
844.433974596
 31
0.0
  0
LINE
  8
0
  6
CONTINUOUS
 62
     1
 10
408.922218677
 20
704.433974596
 30
0.0
 11
408.922218677
 21
904.433974596
 31
0.0
  0
LINE
  8
0
  6
CONTINUOUS
 62
     1
 10
618.922218677
 20
884.433974596
 30
0.0
 11
471.922218677
 21
884.433974596
 31
0.0
  0
LINE
  8
0
  6
CONTINUOUS
 62
     1
 10
590.422218677
 20
906.433974596
 30
0.0
 11
500.422218677
 21
906.433974596
 31
0.0
  0
LINE
  8
0
  6
CONTINUOUS
 62
     1
 10
628.922218677
 20
895.133974596
 30
0.0
 11
461.922218677
 21
895.133974596
 31
0.0
  0
LINE
  8
0
  6
CONTINUOUS
 62
     1
 10
461.922218677
 20
713.733974596
 30
0.0
 11
461.922218677
 21
895.133974596
 31
0.0
  0
LINE
  8
0
  6
LTYPE4
 62
     2
 10
401.422218677
 20
862.769974596
 30
0.0
 11
427.03657803
 21
862.769974596
 31
0.0
  0
LINE
  8
0
  6
CONTINUOUS
 62
     1
 10
408.922218677
 20
904.433974596
 30
0.0
 11
396.922218677
 21
904.433974596
 31
0.0
  0
LINE
  8
0
  6
CONTINUOUS
 62
     1
 10
408.922218677
 20
721.758246506
 30
0.0
 11
461.594354632
 21
721.758246506
 31
0.0
  0
LINE
  8
0
  6
CONTINUOUS
 62
     1
 10
411.422218677
 20
746.097974596
 30
0.0
 11
411.422218677
 21
736.297974596
 31
0.0
  0
LINE
  8
0
  6
CONTINUOUS
 62
     1
 10
411.422218677
 20
736.297974596
 30
0.0
 11
417.03657803
 21
736.297974596
 31
0.0
  0
LINE
  8
0
  6
CONTINUOUS
 62
     1
 10
418.422218677
 20
738.697974596
 30
0.0
 11
417.03657803
 21
736.297974596
 31
0.0
  0
LINE
  8
0
  6
CONTINUOUS
 62
     1
 10
418.422218677
 20
746.097974596
 30
0.0
 11
418.422218677
 21
738.697974596
 31
0.0
  0
LINE
  8
0
  6
CONTINUOUS
 62
     1
 10
411.422218677
 20
741.197974596
 30
0.0
 11
417.03657803
 21
741.197974596
 31
0.0
  0
LINE
  8
0
  6
CONTINUOUS
 62
     1
 10
411.422218677
 20
746.097974596
 30
0.0
 11
411.422218677
 21
755.897974596
 31
0.0
  0
LINE
  8
0
  6
CONTINUOUS
 62
     1
 10
411.422218677
 20
755.897974596
 30
0.0
 11
417.03657803
 21
755.897974596
 31
0.0
  0
LINE
  8
0
  6
CONTINUOUS
 62
     1
 10
418.422218677
 20
753.497974596
 30
0.0
 11
417.03657803
 21
755.897974596
 31
0.0
  0
LINE
  8
0
  6
CONTINUOUS
 62
     1
 10
418.422218677
 20
746.097974596
 30
0.0
 11
418.422218677
 21
753.497974596
 31
0.0
  0
LINE
  8
0
  6
CONTINUOUS
 62
     1
 10
411.422218677
 20
750.997974596
 30
0.0
 11
417.03657803
 21
750.997974596
 31
0.0
  0
ARC
  8
0
  6
CONTINUOUS
 62
     1
 10
409.065535876
 20
746.097974596
 30
0.0
 40
9.3566828
 50
328.419912243
 51
31.580087757
  0
ARC
  8
0
  6
CONTINUOUS
 62
     1
 10
415.564334844
 20
738.747974596
 30
0.0
 40
2.858321186
 50
357.010501597
 51
58.997686085
  0
LINE
  8
0
  6
CONTINUOUS
 62
     1
 10
418.422218677
 20
753.497974596
 30
0.0
 11
417.03657803
 21
755.897974596
 31
0.0
  0
ARC
  8
0
  6
CONTINUOUS
 62
     1
 10
415.564334844
 20
753.447974596
 30
0.0
 40
2.858321186
 50
301.002313915
 51
2.989498403
  0
LINE
  8
0
  6
CONTINUOUS
 62
     1
 10
408.922218677
 20
736.897974596
 30
0.0
 11
411.422218677
 21
736.897974596
 31
0.0
  0
LINE
  8
0
  6
CONTINUOUS
 62
     1
 10
408.922218677
 20
746.097974596
 30
0.0
 11
411.422218672
 21
743.5979746
 31
0.0
  0
LINE
  8
0
  6
CONTINUOUS
 62
     1
 10
411.422218672
 20
746.097974596
 30
0.0
 11
408.922218677
 21
748.597974592
 31
0.0
  0
LINE
  8
0
  6
CONTINUOUS
 62
     1
 10
408.922218677
 20
755.297974596
 30
0.0
 11
411.422218677
 21
755.297974596
 31
0.0
  0
LINE
  8
0
  6
CONTINUOUS
 62
     1
 10
618.922218677
 20
784.433974596
 30
0.0
 11
471.922218677
 21
784.433974596
 31
0.0
  0
LINE
  8
0
  6
CONTINUOUS
 62
     1
 10
618.922218677
 20
764.433974596
 30
0.0
 11
471.922218677
 21
764.433974596
 31
0.0
  0
LINE
  8
0
  6
CONTINUOUS
 62
     1
 10
618.922218677
 20
744.433974596
 30
0.0
 11
471.922218677
 21
744.433974596
 31
0.0
  0
LINE
  8
0
  6
CONTINUOUS
 62
     1
 10
618.922218677
 20
724.433974596
 30
0.0
 11
471.922218677
 21
724.433974596
 31
0.0
  0
LINE
  8
0
  6
CONTINUOUS
 62
     1
 10
628.922218677
 20
784.433974596
 30
0.0
 11
737.297217827
 21
784.433974596
 31
0.0
  0
LINE
  8
0
  6
CONTINUOUS
 62
     1
 10
628.922218677
 20
713.733974596
 30
0.0
 11
461.922218677
 21
713.733974596
 31
0.0
  0
LINE
  8
0
  6
CONTINUOUS
 62
     1
 10
628.922218677
 20
704.433974596
 30
0.0
 11
724.73660727
 21
704.433974596
 31
0.0
  0
LINE
  8
0
  6
CONTINUOUS
 62
     1
 10
628.922218677
 20
701.933974596
 30
0.0
 11
628.922218677
 21
906.933974596
 31
0.0
  0
LINE
  8
0
  6
LTYPE4
 62
     2
 10
401.422218677
 20
746.097974596
 30
0.0
 11
427.03657803
 21
746.097974596
 31
0.0
  0
LINE
  8
0
  6
CONTINUOUS
 62
     1
 10
408.922218677
 20
704.433974596
 30
0.0
 11
396.922218677
 21
704.433974596
 31
0.0
  0
LINE
  8
0
  6
CONTINUOUS
 62
     1
 10
753.663735951
 20
820.382075862
 30
0.0
 11
753.663735951
 21
751.382075862
 31
0.0
  0
POINT
  8
0
  6
CONTINUOUS
 62
     1
 10
753.663735951
 20
751.382075862
 30
0.0
  0
LINE
  8
0
  6
CONTINUOUS
 62
     1
 10
753.663735951
 20
751.382075862
 30
0.0
 11
758.663735951
 21
751.382075862
 31
0.0
  0
POINT
  8
0
  6
CONTINUOUS
 62
     1
 10
758.663735951
 20
751.382075862
 30
0.0
  0
LINE
  8
0
  6
CONTINUOUS
 62
     1
 10
758.663735951
 20
751.382075862
 30
0.0
 11
758.663735951
 21
820.382075862
 31
0.0
  0
LINE
  8
0
  6
CONTINUOUS
 62
     1
 10
764.063735951
 20
764.183974596
 30
0.0
 11
764.063735951
 21
755.383974596
 31
0.0
  0
POINT
  8
0
  6
CONTINUOUS
 62
     1
 10
764.063735951
 20
755.383974596
 30
0.0
  0
LINE
  8
0
  6
CONTINUOUS
 62
     1
 10
764.063735951
 20
755.383974596
 30
0.0
 11
758.763735951
 21
755.383974596
 31
0.0
  0
LINE
  8
0
  6
CONTINUOUS
 62
     1
 10
753.663735951
 20
761.383974596
 30
0.0
 11
744.763735951
 21
761.383974596
 31
0.0
  0
LINE
  8
0
  6
CONTINUOUS
 62
     1
 10
753.663735951
 20
758.283974596
 30
0.0
 11
744.463735951
 21
758.283974596
 31
0.0
  0
LINE
  8
0
  6
LTYPE4
 62
     2
 10
739.763735951
 20
759.883974596
 30
0.0
 11
769.763735951
 21
759.883974596
 31
0.0
  0
ARC
  8
0
  6
CONTINUOUS
 62
     1
 10
722.73660727
 20
719.433974596
 30
0.0
 40
15.0
 50
270.0
 51
349.054602904
  0
ARC
  8
0
  6
CONTINUOUS
 62
     1
 10
336.922218677
 20
804.433974596
 30
0.0
 40
410.0
 50
347.629566941
 51
12.370433059
  0
ARC
  8
0
  6
CONTINUOUS
 62
     1
 10
722.845732594
 20
716.740034225
 30
0.0
 40
15.0
 50
270.0
 51
349.054602904
  0
LINE
  8
0
  6
CONTINUOUS
 62
     1
 10
628.922218677
 20
701.933974596
 30
0.0
 11
724.73660727
 21
701.933974596
 31
0.0
  0
LINE
  8
2
  6
CONTINUOUS
 62
     2
 10
722.441445116
 20
701.933974596
 30
0.0
 11
812.441445116
 21
701.933974596
 31
0.0
  0
LINE
  8
2
  6
CONTINUOUS
 62
     2
 10
802.441445116
 20
701.933974596
 30
0.0
 11
805.67668318
 21
714.008047425
 31
0.0
  0
LINE
  8
2
  6
CONTINUOUS
 62
     2
 10
802.441445116
 20
701.933974596
 30
0.0
 11
799.206207052
 21
714.008047425
 31
0.0
  0
LINE
  8
2
  6
CONTINUOUS
 62
     2
 10
802.441445116
 20
701.933974596
 30
0.0
 11
802.441445116
 21
906.933974596
 31
0.0
  0
LINE
  8
2
  6
CONTINUOUS
 62
     2
 10
766.922218677
 20
802.833974596
 30
0.0
 11
766.922218677
 21
1054.833974596
 31
0.0
  0
LINE
  8
0
  6
CONTINUOUS
 62
     1
 10
763.463735951
 20
788.48587333
 30
0.0
 11
763.463735951
 21
820.382075862
 31
0.0
  0
LINE
  8
0
  6
CONTINUOUS
 62
     1
 10
758.663735951
 20
788.48587333
 30
0.0
 11
763.463735951
 21
788.48587333
 31
0.0
  0
LINE
  8
0
  6
CONTINUOUS
 62
     1
 10
753.663735951
 20
800.233974596
 30
0.0
 11
746.963735951
 21
800.233974596
 31
0.0
  0
LINE
  8
0
  6
CONTINUOUS
 62
     1
 10
758.663735951
 20
764.183974596
 30
0.0
 11
764.063735951
 21
764.183974596
 31
0.0
  0
POINT
  8
0
  6
CONTINUOUS
 62
     1
 10
764.063735951
 20
764.183974596
 30
0.0
  0
LINE
  8
0
  6
CONTINUOUS
 62
     1
 10
763.463735951
 20
791.033974596
 30
0.0
 11
766.922218677
 21
791.033974596
 31
0.0
  0
LINE
  8
0
  6
CONTINUOUS
 62
     1
 10
766.922218677
 20
791.033974596
 30
0.0
 11
766.922218677
 21
795.633974596
 31
0.0
  0
LINE
  8
0
  6
CONTINUOUS
 62
     1
 10
763.463735951
 20
795.633974596
 30
0.0
 11
766.922218677
 21
795.633974596
 31
0.0
  0
LINE
  8
0
  6
CONTINUOUS
 62
     1
 10
763.463735951
 20
802.133974596
 30
0.0
 11
766.922218677
 21
802.133974596
 31
0.0
  0
LINE
  8
0
  6
CONTINUOUS
 62
     1
 10
766.922218677
 20
802.133974596
 30
0.0
 11
766.922218677
 21
806.733974596
 31
0.0
  0
ARC
  8
0
  6
CONTINUOUS
 62
     1
 10
736.797199139
 20
794.433974596
 30
0.0
 40
10.0
 50
270.0
 51
358.567456262
  0
TEXT
  8
2
  6
CONTINUOUS
 62
     3
 10
797.441445116
 20
770.183974596
 30
1.5
 40
17.5
  1
φ２０５
 50
90.0
 41
0.914285714
 51
0.0
  7
KANJI28
  0
LINE
  8
0
  6
CONTINUOUS
 62
     1
 10
753.663735951
 20
820.382075862
 30
0.0
 11
763.463735951
 21
820.382075862
 31
0.0
  0
LINE
  8
0
  6
CONTINUOUS
 62
     1
 10
763.463735951
 20
817.833974596
 30
0.0
 11
766.922218677
 21
817.833974596
 31
0.0
  0
LINE
  8
0
  6
CONTINUOUS
 62
     1
 10
766.922218677
 20
817.833974596
 30
0.0
 11
766.922218677
 21
813.233974596
 31
0.0
  0
LINE
  8
0
  6
CONTINUOUS
 62
     1
 10
763.463735951
 20
813.233974596
 30
0.0
 11
766.922218677
 21
813.233974596
 31
0.0
  0
ARC
  8
0
  6
CONTINUOUS
 62
     1
 10
736.797199139
 20
814.433974596
 30
0.0
 40
10.0
 50
1.432543738
 51
90.0
  0
LINE
  8
0
  6
CONTINUOUS
 62
     1
 10
736.797217827
 20
824.433974596
 30
0.0
 11
628.922218677
 21
824.433974596
 31
0.0
  0
LINE
  8
2
  6
CONTINUOUS
 62
     2
 10
766.922218677
 20
822.833974596
 30
0.0
 11
766.922218677
 21
1024.273974596
 31
0.0
  0
TEXT
  8
2
  6
CONTINUOUS
 62
     3
 10
556.422218677
 20
1049.833974596
 30
1.5
 40
17.5
  1
３７０
 50
0.0
 41
0.914285714
 51
0.0
  7
KANJI28
  0
LINE
  8
0
  6
CONTINUOUS
 62
     1
 10
618.922218677
 20
824.433974596
 30
0.0
 11
471.922218677
 21
824.433974596
 31
0.0
  0
LINE
  8
0
  6
CONTINUOUS
 62
     1
 10
753.663735951
 20
808.633974596
 30
0.0
 11
746.963735951
 21
808.633974596
 31
0.0
  0
LINE
  8
0
  6
CONTINUOUS
 62
     1
 10
763.463735951
 20
806.733974596
 30
0.0
 11
766.922218677
 21
806.733974596
 31
0.0
  0
LINE
  8
0
  6
CONTINUOUS
 62
     1
 10
635.422218677
 20
917.433974596
 30
0.0
 11
635.422218677
 21
957.433974596
 31
0.0
  0
LINE
  8
0
  6
CONTINUOUS
 62
     1
 10
616.422218677
 20
992.433974596
 30
0.0
 11
468.422218677
 21
918.433974596
 31
0.0
  0
LINE
  8
0
  6
CONTINUOUS
 62
     1
 10
620.894354632
 20
983.489702686
 30
0.0
 11
472.894354632
 21
909.489702686
 31
0.0
  0
ARC
  8
0
  6
CONTINUOUS
 62
     1
 10
590.422218677
 20
916.433974596
 30
0.0
 40
10.0
 50
270.0
 51
0.0
  0
ARC
  8
0
  6
CONTINUOUS
 62
     1
 10
590.422218677
 20
982.433974596
 30
0.0
 40
10.0
 50
0.0
 51
90.0
  0
LINE
  8
0
  6
CONTINUOUS
 62
     1
 10
590.422218677
 20
992.433974596
 30
0.0
 11
500.422218677
 21
992.433974596
 31
0.0
  0
ARC
  8
0
  6
CONTINUOUS
 62
     1
 10
500.422218677
 20
982.433974596
 30
0.0
 40
10.0
 50
90.0
 51
180.0
  0
ARC
  8
0
  6
CONTINUOUS
 62
     1
 10
500.422218677
 20
916.433974596
 30
0.0
 40
10.0
 50
180.0
 51
270.0
  0
LINE
  8
0
  6
CONTINUOUS
 62
     1
 10
468.422218677
 20
918.433974596
 30
0.0
 11
472.894354632
 21
909.489702686
 31
0.0
  0
LINE
  8
0
  6
CONTINUOUS
 62
     1
 10
490.422218677
 20
929.349702686
 30
0.0
 11
490.422218677
 21
982.433974596
 31
0.0
  0
LINE
  8
0
  6
CONTINUOUS
 62
     1
 10
490.422218677
 20
916.433974596
 30
0.0
 11
490.422218677
 21
918.349702686
 31
0.0
  0
LINE
  8
0
  6
CONTINUOUS
 62
     1
 10
600.422218677
 20
916.433974596
 30
0.0
 11
600.422218677
 21
972.349702686
 31
0.0
  0
LINE
  8
0
  6
CONTINUOUS
 62
     1
 10
616.634354632
 20
993.229702686
 30
0.0
 11
621.434354632
 21
984.029702686
 31
0.0
  0
LINE
  8
0
  6
CONTINUOUS
 62
     1
 10
635.422218677
 20
957.433974596
 30
0.0
 11
600.422218677
 21
957.433974596
 31
0.0
  0
LINE
  8
0
  6
CONTINUOUS
 62
     1
 10
635.422218677
 20
917.433974596
 30
0.0
 11
600.422218677
 21
917.433974596
 31
0.0
  0
LINE
  8
0
  6
CONTINUOUS
 62
     1
 10
628.922218677
 20
904.433974596
 30
0.0
 11
724.73660727
 21
904.433974596
 31
0.0
  0
ARC
  8
0
  6
CONTINUOUS
 62
     1
 10
722.73660727
 20
889.433974596
 30
0.0
 40
15.0
 50
10.945397096
 51
90.0
  0
ARC
  8
0
  6
CONTINUOUS
 62
     1
 10
722.845732594
 20
892.127914968
 30
0.0
 40
15.0
 50
10.945397096
 51
90.0
  0
LINE
  8
0
  6
CONTINUOUS
 62
     1
 10
628.922218677
 20
906.933974596
 30
0.0
 11
724.73660727
 21
906.933974596
 31
0.0
  0
LINE
  8
0
  6
CONTINUOUS
 62
     1
 10
580.322218677
 20
906.433974596
 30
0.0
 11
580.322218677
 21
895.133974596
 31
0.0
  0
LINE
  8
0
  6
CONTINUOUS
 62
     1
 10
510.522218677
 20
906.433974596
 30
0.0
 11
510.522218677
 21
895.133974596
 31
0.0
  0
TEXT
  8
2
  6
CONTINUOUS
 62
     3
 10
644.922218677
 20
995.833974596
 30
1.5
 40
17.5
  1
ＰＦ３／４
 50
0.0
 41
0.914285714
 51
0.0
  7
KANJI28
  0
LINE
  8
2
  6
CONTINUOUS
 62
     2
 10
644.922218677
 20
987.833974596
 30
0.0
 11
762.522218677
 21
987.833974596
 31
0.0
  0
LINE
  8
2
  6
CONTINUOUS
 62
     2
 10
802.441445116
 20
906.933974596
 30
0.0
 11
799.206207052
 21
894.859901768
 31
0.0
  0
LINE
  8
2
  6
CONTINUOUS
 62
     2
 10
802.441445116
 20
906.933974596
 30
0.0
 11
805.67668318
 21
894.859901768
 31
0.0
  0
LINE
  8
2
  6
CONTINUOUS
 62
     2
 10
723.441445116
 20
906.933974596
 30
0.0
 11
812.441445116
 21
906.933974596
 31
0.0
  0
LINE
  8
2
  6
CONTINUOUS
 62
     2
 10
396.922218677
 20
1044.833974596
 30
0.0
 11
766.922218677
 21
1044.833974596
 31
0.0
  0
LINE
  8
2
  6
CONTINUOUS
 62
     2
 10
766.922218677
 20
1044.833974596
 30
0.0
 11
754.848145848
 21
1048.06921266
 31
0.0
  0
LINE
  8
2
  6
CONTINUOUS
 62
     2
 10
766.922218677
 20
1044.833974596
 30
0.0
 11
754.848145848
 21
1041.598736532
 31
0.0
  0
LINE
  8
0
  6
LTYPE4
 62
     2
 10
641.574354632
 20
937.433974596
 30
0.0
 11
590.474354632
 21
937.433974596
 31
0.0
  0
LINE
  8
0
  6
LTYPE4
 62
     2
 10
545.422218677
 20
893.183974596
 30
0.0
 11
545.422218677
 21
1002.233974596
 31
0.0
  0
LINE
  8
2
  6
CONTINUOUS
 62
     2
 10
636.422218677
 20
943.833974596
 30
0.0
 11
645.168871558
 21
961.819970909
 31
0.0
  0
LINE
  8
2
  6
CONTINUOUS
 62
     2
 10
636.422218677
 20
943.833974596
 30
0.0
 11
635.004044114
 21
963.783630756
 31
0.0
  0
LINE
  8
2
  6
CONTINUOUS
 62
     2
 10
636.422218677
 20
943.833974596
 30
0.0
 11
644.922218677
 21
987.833974596
 31
0.0
  0
LINE
  8
2
  6
CONTINUOUS
 62
     2
 10
396.922218677
 20
1044.833974596
 30
0.0
 11
408.996291505
 21
1041.598736532
 31
0.0
  0
LINE
  8
2
  6
CONTINUOUS
 62
     2
 10
396.922218677
 20
1044.833974596
 30
0.0
 11
408.996291505
 21
1048.06921266
 31
0.0
  0
TEXT
  8
0
  6
CONTINUOUS
 62
     2
 10
473.112228132
 20
786.983974596
 30
0.0
 40
16.8
  1
日本電産
 50
0.0
 41
0.964285714
 51
0.0
  7
KANJI29
  0
LINE
  8
2
  6
CONTINUOUS
 62
     2
 10
396.922218677
 20
916.133974596
 30
0.0
 11
396.922218677
 21
1050.833974596
 31
0.0
  0
LINE
  8
0
  6
CONTINUOUS
 62
     1
 10
1523.37
 20
1674.9
 30
0.0
 11
1523.37
 21
1554.78
 31
0.0
  0
LINE
  8
0
  6
CONTINUOUS
 62
     2
 10
1454.07
 20
1674.9
 30
0.0
 11
1454.07
 21
1554.78
 31
0.0
  0
LINE
  8
0
  6
CONTINUOUS
 62
     2
 10
1384.77
 20
1674.9
 30
0.0
 11
1384.77
 21
1554.78
 31
0.0
  0
LINE
  8
0
  6
CONTINUOUS
 62
     1
 10
1292.37
 20
1674.9
 30
0.0
 11
1292.37
 21
1554.78
 31
0.0
  0
LINE
  8
0
  6
CONTINUOUS
 62
     1
 10
1292.37
 20
1674.9
 30
0.0
 11
1523.37
 21
1674.9
 31
0.0
  0
LINE
  8
0
  6
CONTINUOUS
 62
     1
 10
1292.37
 20
1637.94
 30
0.0
 11
1523.37
 21
1637.94
 31
0.0
  0
LINE
  8
0
  6
CONTINUOUS
 62
     2
 10
1292.37
 20
1610.22
 30
0.0
 11
1523.37
 21
1610.22
 31
0.0
  0
LINE
  8
0
  6
CONTINUOUS
 62
     2
 10
1292.37
 20
1582.5
 30
0.0
 11
1523.37
 21
1582.5
 31
0.0
  0
LINE
  8
0
  6
CONTINUOUS
 62
     1
 10
1292.37
 20
1554.78
 30
0.0
 11
1523.37
 21
1554.78
 31
0.0
  0
TEXT
  8
0
  6
CONTINUOUS
 62
     2
 10
1463.31
 20
1658.73
 30
1.386
 40
13.86
  1
起動電流
 50
0.0
 41
0.9
 51
0.0
  7
KANJI30
  0
TEXT
  8
0
  6
CONTINUOUS
 62
     2
 10
1463.31
 20
1642.56
 30
1.386
 40
13.86
  1
　　　Ａ
 50
0.0
 41
0.9
 51
0.0
  7
KANJI30
  0
TEXT
  8
0
  6
CONTINUOUS
 62
     2
 10
1394.01
 20
1658.73
 30
1.386
 40
13.86
  1
定格電流
 50
0.0
 41
0.9
 51
0.0
  7
KANJI30
  0
TEXT
  8
0
  6
CONTINUOUS
 62
     2
 10
1394.01
 20
1642.56
 30
1.386
 40
13.86
  1
　　　Ａ
 50
0.0
 41
0.9
 51
0.0
  7
KANJI30
  0
TEXT
  8
0
  6
CONTINUOUS
 62
     2
 10
1300.224
 20
1589.43
 30
1.386
 40
13.86
  1
２００／６０
 50
0.0
 41
0.9
 51
0.0
  7
KANJI30
  0
TEXT
  8
0
  6
CONTINUOUS
 62
     2
 10
1300.224
 20
1658.73
 30
1.386
 40
13.86
  1
電圧／周波数
 50
0.0
 41
0.9
 51
0.0
  7
KANJI30
  0
TEXT
  8
0
  6
CONTINUOUS
 62
     2
 10
1300.224
 20
1642.56
 30
1.386
 40
13.86
  1
　Ｖ／Ｈｚ
 50
0.0
 41
0.9
 51
0.0
  7
KANJI30
  0
TEXT
  8
0
  6
CONTINUOUS
 62
     2
 10
1300.224
 20
1617.15
 30
1.386
 40
13.86
  1
２００／５０
 50
0.0
 41
0.9
 51
0.0
  7
KANJI30
  0
TEXT
  8
0
  6
CONTINUOUS
 62
     2
 10
1300.224
 20
1561.71
 30
1.386
 40
13.86
  1
２２０／６０
 50
0.0
 41
0.9
 51
0.0
  7
KANJI30
  0
LINE
  8
0
  6
CONTINUOUS
 62
     1
 10
1246.17
 20
1674.9
 30
0.0
 11
1246.17
 21
1554.78
 31
0.0
  0
LINE
  8
0
  6
CONTINUOUS
 62
     2
 10
1176.87
 20
1674.9
 30
0.0
 11
1176.87
 21
1554.78
 31
0.0
  0
LINE
  8
0
  6
CONTINUOUS
 62
     2
 10
1107.57
 20
1674.9
 30
0.0
 11
1107.57
 21
1554.78
 31
0.0
  0
LINE
  8
0
  6
CONTINUOUS
 62
     1
 10
1015.17
 20
1674.9
 30
0.0
 11
1015.17
 21
1554.78
 31
0.0
  0
LINE
  8
0
  6
CONTINUOUS
 62
     1
 10
1015.17
 20
1674.9
 30
0.0
 11
1246.17
 21
1674.9
 31
0.0
  0
LINE
  8
0
  6
CONTINUOUS
 62
     1
 10
1015.17
 20
1637.94
 30
0.0
 11
1246.17
 21
1637.94
 31
0.0
  0
LINE
  8
0
  6
CONTINUOUS
 62
     2
 10
1015.17
 20
1610.22
 30
0.0
 11
1246.17
 21
1610.22
 31
0.0
  0
LINE
  8
0
  6
CONTINUOUS
 62
     2
 10
1015.17
 20
1582.5
 30
0.0
 11
1246.17
 21
1582.5
 31
0.0
  0
LINE
  8
0
  6
CONTINUOUS
 62
     1
 10
1015.17
 20
1554.78
 30
0.0
 11
1246.17
 21
1554.78
 31
0.0
  0
TEXT
  8
0
  6
CONTINUOUS
 62
     2
 10
1186.11
 20
1658.73
 30
1.386
 40
13.86
  1
起動電流
 50
0.0
 41
0.9
 51
0.0
  7
KANJI30
  0
TEXT
  8
0
  6
CONTINUOUS
 62
     2
 10
1186.11
 20
1642.56
 30
1.386
 40
13.86
  1
　　　Ａ
 50
0.0
 41
0.9
 51
0.0
  7
KANJI30
  0
TEXT
  8
0
  6
CONTINUOUS
 62
     2
 10
1116.81
 20
1658.73
 30
1.386
 40
13.86
  1
定格電流
 50
0.0
 41
0.9
 51
0.0
  7
KANJI30
  0
TEXT
  8
0
  6
CONTINUOUS
 62
     2
 10
1116.81
 20
1642.56
 30
1.386
 40
13.86
  1
　　　Ａ
 50
0.0
 41
0.9
 51
0.0
  7
KANJI30
  0
TEXT
  8
0
  6
CONTINUOUS
 62
     2
 10
1023.024
 20
1658.73
 30
1.386
 40
13.86
  1
電圧／周波数
 50
0.0
 41
0.9
 51
0.0
  7
KANJI30
  0
TEXT
  8
0
  6
CONTINUOUS
 62
     2
 10
1023.024
 20
1642.56
 30
1.386
 40
13.86
  1
　Ｖ／Ｈｚ
 50
0.0
 41
0.9
 51
0.0
  7
KANJI30
  0
TEXT
  8
0
  6
CONTINUOUS
 62
     2
 10
1023.024
 20
1617.15
 30
1.386
 40
13.86
  1
４００／５０
 50
0.0
 41
0.9
 51
0.0
  7
KANJI30
  0
TEXT
  8
0
  6
CONTINUOUS
 62
     2
 10
1023.024
 20
1589.43
 30
1.386
 40
13.86
  1
４００／６０
 50
0.0
 41
0.9
 51
0.0
  7
KANJI30
  0
TEXT
  8
0
  6
CONTINUOUS
 62
     2
 10
1023.024
 20
1561.71
 30
1.386
 40
13.86
  1
４４０／６０
 50
0.0
 41
0.9
 51
0.0
  7
KANJI30
  0
TEXT
  8
0
  6
CONTINUOUS
 62
     2
 10
1396.467493476
 20
1615.15
 30
1.386
 40
13.86
  1
１０．０
 50
0.0
 41
0.9
 51
0.0
  7
KANJI30
  0
TEXT
  8
0
  6
CONTINUOUS
 62
     2
 10
1396.467493476
 20
1587.43
 30
1.386
 40
13.86
  1
　９．５
 50
0.0
 41
0.9
 51
0.0
  7
KANJI30
  0
TEXT
  8
0
  6
CONTINUOUS
 62
     2
 10
1396.467493476
 20
1559.71
 30
1.386
 40
13.86
  1
　９．０
 50
0.0
 41
0.9
 51
0.0
  7
KANJI30
  0
TEXT
  8
0
  6
CONTINUOUS
 62
     2
 10
1465.767493476
 20
1615.15
 30
1.386
 40
13.86
  1
４４
 50
0.0
 41
0.9
 51
0.0
  7
KANJI30
  0
TEXT
  8
0
  6
CONTINUOUS
 62
     2
 10
1465.767493476
 20
1587.43
 30
1.386
 40
13.86
  1
３８
 50
0.0
 41
0.9
 51
0.0
  7
KANJI30
  0
TEXT
  8
0
  6
CONTINUOUS
 62
     2
 10
1465.767493476
 20
1559.71
 30
1.386
 40
13.86
  1
４１．８
 50
0.0
 41
0.9
 51
0.0
  7
KANJI30
  0
TEXT
  8
0
  6
CONTINUOUS
 62
     2
 10
1119.267493476
 20
1615.15
 30
1.386
 40
13.86
  1
　５．２
 50
0.0
 41
0.9
 51
0.0
  7
KANJI30
  0
TEXT
  8
0
  6
CONTINUOUS
 62
     2
 10
1119.267493476
 20
1587.43
 30
1.386
 40
13.86
  1
　４．８
 50
0.0
 41
0.9
 51
0.0
  7
KANJI30
  0
TEXT
  8
0
  6
CONTINUOUS
 62
     2
 10
1119.267493476
 20
1559.71
 30
1.386
 40
13.86
  1
　４．５
 50
0.0
 41
0.9
 51
0.0
  7
KANJI30
  0
TEXT
  8
0
  6
CONTINUOUS
 62
     2
 10
1188.567493476
 20
1615.15
 30
1.386
 40
13.86
  1
２２
 50
0.0
 41
0.9
 51
0.0
  7
KANJI30
  0
TEXT
  8
0
  6
CONTINUOUS
 62
     2
 10
1188.567493476
 20
1587.43
 30
1.386
 40
13.86
  1
１９
 50
0.0
 41
0.9
 51
0.0
  7
KANJI30
  0
TEXT
  8
0
  6
CONTINUOUS
 62
     2
 10
1188.567493476
 20
1559.71
 30
1.386
 40
13.86
  1
２０．９
 50
0.0
 41
0.9
 51
0.0
  7
KANJI30
  0
CIRCLE
  8
0
  6
CONTINUOUS
 62
     1
 10
1408.722218677
 20
943.633974596
 30
0.0
 40
12.055
  0
CIRCLE
  8
0
  6
CONTINUOUS
 62
     1
 10
1408.722218677
 20
943.633974596
 30
0.0
 40
20.0
  0
CIRCLE
  8
0
  6
CONTINUOUS
 62
     1
 10
1408.722218677
 20
943.633974596
 30
0.0
 40
25.0
  0
CIRCLE
  8
0
  6
CONTINUOUS
 62
     2
 10
1408.722218677
 20
943.633974596
 30
0.0
 40
13.221
  0
LINE
  8
0
  6
LTYPE4
 62
     2
 10
1372.222218677
 20
943.633974596
 30
0.0
 11
1444.222218677
 21
943.633974596
 31
0.0
  0
ARC
  8
0
  6
CONTINUOUS
 62
     1
 10
1438.722218677
 20
919.133974596
 30
0.0
 40
10.0
 50
270.0
 51
0.0
  0
LINE
  8
0
  6
CONTINUOUS
 62
     1
 10
1408.722218677
 20
988.133974596
 30
0.0
 11
1438.722218677
 21
988.133974596
 31
0.0
  0
ARC
  8
0
  6
CONTINUOUS
 62
     1
 10
1438.722218677
 20
978.133974596
 30
0.0
 40
10.0
 50
0.0
 51
90.0
  0
LINE
  8
0
  6
CONTINUOUS
 62
     1
 10
1408.722218677
 20
993.133974596
 30
0.0
 11
1448.722218677
 21
993.133974596
 31
0.0
  0
LINE
  8
0
  6
CONTINUOUS
 62
     1
 10
1408.722218677
 20
909.133974596
 30
0.0
 11
1448.722218677
 21
909.133974596
 31
0.0
  0
LINE
  8
0
  6
CONTINUOUS
 62
     1
 10
1439.082345283
 20
909.140461259
 30
0.0
 11
1439.082345283
 21
903.640461259
 31
0.0
  0
CIRCLE
  8
0
  6
LTYPE1
 62
     2
 10
1408.722218677
 20
805.133974596
 30
0.0
 40
100.0
  0
LINE
  8
0
  6
CONTINUOUS
 62
     1
 10
1448.722218677
 20
919.133974596
 30
0.0
 11
1448.722218677
 21
978.133974596
 31
0.0
  0
ARC
  8
0
  6
CONTINUOUS
 62
     1
 10
1448.722218677
 20
983.133974596
 30
0.0
 40
10.0
 50
0.0
 51
90.0
  0
LINE
  8
0
  6
CONTINUOUS
 62
     1
 10
1458.722218677
 20
919.133974596
 30
0.0
 11
1458.722218677
 21
983.133974596
 31
0.0
  0
ARC
  8
0
  6
CONTINUOUS
 62
     1
 10
1448.722218677
 20
919.133974596
 30
0.0
 40
10.0
 50
270.0
 51
0.0
  0
LINE
  8
0
  6
CONTINUOUS
 62
     1
 10
1408.722218677
 20
988.133974596
 30
0.0
 11
1378.722218677
 21
988.133974596
 31
0.0
  0
LINE
  8
0
  6
CONTINUOUS
 62
     1
 10
1368.722218677
 20
919.133974596
 30
0.0
 11
1368.722218677
 21
978.133974596
 31
0.0
  0
ARC
  8
0
  6
CONTINUOUS
 62
     1
 10
1378.722218677
 20
978.133974596
 30
0.0
 40
10.0
 50
90.0
 51
180.0
  0
LINE
  8
0
  6
CONTINUOUS
 62
     1
 10
1408.722218677
 20
993.133974596
 30
0.0
 11
1368.722218677
 21
993.133974596
 31
0.0
  0
ARC
  8
0
  6
CONTINUOUS
 62
     1
 10
1368.722218677
 20
983.133974596
 30
0.0
 40
10.0
 50
90.0
 51
180.0
  0
LINE
  8
0
  6
CONTINUOUS
 62
     1
 10
1358.722218677
 20
919.133974596
 30
0.0
 11
1358.722218677
 21
983.133974596
 31
0.0
  0
ARC
  8
0
  6
CONTINUOUS
 62
     1
 10
1378.722218677
 20
919.133974596
 30
0.0
 40
10.0
 50
180.0
 51
270.0
  0
LINE
  8
0
  6
CONTINUOUS
 62
     1
 10
1408.722218677
 20
909.133974596
 30
0.0
 11
1368.722218677
 21
909.133974596
 31
0.0
  0
ARC
  8
0
  6
CONTINUOUS
 62
     1
 10
1368.722218677
 20
919.133974596
 30
0.0
 40
10.0
 50
180.0
 51
270.0
  0
LINE
  8
0
  6
CONTINUOUS
 62
     1
 10
1378.36209207
 20
909.140461259
 30
0.0
 11
1378.36209207
 21
903.640461259
 31
0.0
  0
ARC
  8
0
  6
CONTINUOUS
 62
     1
 10
1449.972218677
 20
876.581070408
 30
0.0
 40
20.0
 50
330.0
 51
60.0
  0
ARC
  8
0
  6
CONTINUOUS
 62
     1
 10
1449.972218677
 20
876.581070408
 30
0.0
 40
20.0
 50
60.0
 51
150.0
  0
LINE
  8
0
  6
CONTINUOUS
 62
     1
 10
1432.651710601
 20
886.581070408
 30
0.0
 11
1397.175213293
 21
825.133974596
 31
0.0
  0
LINE
  8
0
  6
CONTINUOUS
 62
     1
 10
1412.05555201
 20
824.85424054
 30
0.0
 11
1470.388885343
 21
814.994107568
 31
0.0
  0
LINE
  8
0
  6
LTYPE4
 62
     2
 10
1468.722218677
 20
790.133974596
 30
0.0
 11
1468.722218677
 21
825.133974596
 31
0.0
  0
ARC
  8
0
  6
CONTINUOUS
 62
     1
 10
1468.722218677
 20
805.133974596
 30
0.0
 40
10.0
 50
279.594068227
 51
80.405931773
  0
CIRCLE
  8
0
  6
CONTINUOUS
 62
     1
 10
1468.722218677
 20
805.133974596
 30
0.0
 40
9.0
  0
CIRCLE
  8
0
  6
CONTINUOUS
 62
     1
 10
1408.722218677
 20
805.133974596
 30
0.0
 40
19.0
  0
LINE
  8
0
  6
CONTINUOUS
 62
     1
 10
1467.292726752
 20
866.581070408
 30
0.0
 11
1440.432430515
 21
820.057672619
 31
0.0
  0
LINE
  8
0
  6
CONTINUOUS
 62
     1
 10
1326.222218677
 20
825.133974596
 30
0.0
 11
1397.175213293
 21
825.133974596
 31
0.0
  0
ARC
  8
0
  6
CONTINUOUS
 62
     1
 10
1326.222218677
 20
805.133974596
 30
0.0
 40
20.0
 50
90.0
 51
180.0
  0
ARC
  8
0
  6
CONTINUOUS
 62
     1
 10
1326.222218677
 20
805.133974596
 30
0.0
 40
20.0
 50
180.0
 51
270.0
  0
LINE
  8
0
  6
CONTINUOUS
 62
     1
 10
1326.222218677
 20
785.133974596
 30
0.0
 11
1397.175213293
 21
785.133974596
 31
0.0
  0
LINE
  8
0
  6
CONTINUOUS
 62
     1
 10
1432.651710601
 20
723.686878784
 30
0.0
 11
1397.175213293
 21
785.133974596
 31
0.0
  0
LINE
  8
0
  6
CONTINUOUS
 62
     1
 10
1412.05555201
 20
785.413708653
 30
0.0
 11
1470.388885343
 21
795.273841624
 31
0.0
  0
ARC
  8
0
  6
CONTINUOUS
 62
     1
 10
1408.722218677
 20
805.133974596
 30
0.0
 40
20.0
 50
80.405931773
 51
279.594068227
  0
CIRCLE
  8
0
  6
CONTINUOUS
 62
     1
 10
1395.622218677
 20
805.133974596
 30
0.0
 40
4.0
  0
CIRCLE
  8
0
  6
CONTINUOUS
 62
     1
 10
1408.722218677
 20
792.033974596
 30
0.0
 40
4.0
  0
CIRCLE
  8
0
  6
CONTINUOUS
 62
     1
 10
1421.822218677
 20
805.133974596
 30
0.0
 40
4.0
  0
CIRCLE
  8
0
  6
CONTINUOUS
 62
     1
 10
1408.722218677
 20
818.233974596
 30
0.0
 40
4.0
  0
CIRCLE
  8
0
  6
CONTINUOUS
 62
     1
 10
1408.722218677
 20
805.133974596
 30
0.0
 40
4.0
  0
LINE
  8
0
  6
CONTINUOUS
 62
     1
 10
1467.292726752
 20
743.686878784
 30
0.0
 11
1440.432430515
 21
790.210276573
 31
0.0
  0
ARC
  8
0
  6
CONTINUOUS
 62
     1
 10
1449.972218677
 20
733.686878784
 30
0.0
 40
20.0
 50
300.0
 51
30.0
  0
ARC
  8
0
  6
CONTINUOUS
 62
     1
 10
1449.972218677
 20
733.686878784
 30
0.0
 40
20.0
 50
210.0
 51
300.0
  0
LINE
  8
2
  6
CONTINUOUS
 62
     2
 10
1586.722218677
 20
805.133974596
 30
0.0
 11
1590.604504353
 21
819.622861991
 31
0.0
  0
LINE
  8
2
  6
CONTINUOUS
 62
     2
 10
1586.722218677
 20
805.133974596
 30
0.0
 11
1582.839933
 21
819.622861991
 31
0.0
  0
LINE
  8
2
  6
CONTINUOUS
 62
     2
 10
1586.722218677
 20
805.133974596
 30
0.0
 11
1586.722218677
 21
993.133974596
 31
0.0
  0
LINE
  8
2
  6
CONTINUOUS
 62
     2
 10
1586.722218677
 20
993.133974596
 30
0.0
 11
1582.839933
 21
978.645087202
 31
0.0
  0
LINE
  8
2
  6
CONTINUOUS
 62
     2
 10
1586.722218677
 20
993.133974596
 30
0.0
 11
1590.604504353
 21
978.645087202
 31
0.0
  0
LINE
  8
2
  6
CONTINUOUS
 62
     2
 10
1454.722218677
 20
993.133974596
 30
0.0
 11
1592.722218677
 21
993.133974596
 31
0.0
  0
TEXT
  8
2
  6
CONTINUOUS
 62
     3
 10
1583.722218677
 20
874.833974596
 30
0.0
 40
18.0
  1
１８８
 50
90.0
 41
0.9
 51
0.0
  7
KANJI17
  0
LINE
  8
2
  6
CONTINUOUS
 62
     2
 10
1621.722218677
 20
510.133974596
 30
0.0
 11
1621.722218677
 21
993.133974596
 31
0.0
  0
LINE
  8
2
  6
CONTINUOUS
 62
     2
 10
1621.722218677
 20
993.133974596
 30
0.0
 11
1617.839933
 21
978.645087202
 31
0.0
  0
LINE
  8
2
  6
CONTINUOUS
 62
     2
 10
1621.722218677
 20
993.133974596
 30
0.0
 11
1625.604504353
 21
978.645087202
 31
0.0
  0
LINE
  8
2
  6
CONTINUOUS
 62
     2
 10
1575.422218677
 20
993.133974596
 30
0.0
 11
1627.722218677
 21
993.133974596
 31
0.0
  0
LINE
  8
2
  6
CONTINUOUS
 62
     2
 10
1581.822218677
 20
510.133974596
 30
0.0
 11
1627.722218677
 21
510.133974596
 31
0.0
  0
LINE
  8
2
  6
CONTINUOUS
 62
     2
 10
1621.722218677
 20
510.133974596
 30
0.0
 11
1617.839933
 21
524.622861991
 31
0.0
  0
LINE
  8
2
  6
CONTINUOUS
 62
     2
 10
1621.722218677
 20
510.133974596
 30
0.0
 11
1625.604504353
 21
524.622861991
 31
0.0
  0
TEXT
  8
0
  6
CONTINUOUS
 62
     6
 10
120.294567657
 20
1352.399357623
 30
1.82231734
 40
18.223173404
  1
クイックブレーキモータ
 50
0.0
 41
0.66671875
 51
0.0
  7
KANJI31
  0
CIRCLE
  8
0
  6
CONTINUOUS
 62
     6
 10
164.736
 20
1290.432
 30
0.0
 40
21.6
  0
TEXT
  8
0
  6
CONTINUOUS
 62
     6
 10
155.664
 20
1280.064
 30
2.16
 40
21.6
  1
Ｍ
 50
0.0
 41
0.9
 51
0.0
  7
KANJI32
  0
LINE
  8
0
  6
CONTINUOUS
 62
     6
 10
136.224
 20
1260.192
 30
0.0
 11
149.616
 21
1275.744
 31
0.0
  0
LINE
  8
0
  6
CONTINUOUS
 62
     6
 10
136.224
 20
1320.672
 30
0.0
 11
149.616
 21
1305.12
 31
0.0
  0
CIRCLE
  8
0
  6
CONTINUOUS
 62
     6
 10
111.6
 20
1320.672
 30
0.0
 40
5.184
  0
LINE
  8
0
  6
CONTINUOUS
 62
     6
 10
105.644103884
 20
1314.716103884
 30
0.0
 11
117.740103884
 21
1326.812103884
 31
0.0
  0
CIRCLE
  8
0
  6
CONTINUOUS
 62
     6
 10
111.6
 20
1290.432
 30
0.0
 40
5.184
  0
LINE
  8
0
  6
CONTINUOUS
 62
     6
 10
105.644103884
 20
1284.476103884
 30
0.0
 11
117.740103884
 21
1296.572103884
 31
0.0
  0
CIRCLE
  8
0
  6
CONTINUOUS
 62
     6
 10
111.6
 20
1260.192
 30
0.0
 40
5.184
  0
LINE
  8
0
  6
CONTINUOUS
 62
     6
 10
105.644103884
 20
1254.236103884
 30
0.0
 11
117.740103884
 21
1266.332103884
 31
0.0
  0
LINE
  8
0
  6
CONTINUOUS
 62
     6
 10
136.224
 20
1320.672
 30
0.0
 11
116.784
 21
1320.672
 31
0.0
  0
LINE
  8
0
  6
CONTINUOUS
 62
     6
 10
143.568
 20
1290.432
 30
0.0
 11
116.784
 21
1290.432
 31
0.0
  0
LINE
  8
0
  6
CONTINUOUS
 62
     6
 10
136.224
 20
1260.192
 30
0.0
 11
116.784
 21
1260.192
 31
0.0
  0
LINE
  8
0
  6
LTYPE4
 62
     6
 10
111.6
 20
1344.0
 30
0.0
 11
111.6
 21
1324.56
 31
0.0
  0
LINE
  8
0
  6
LTYPE4
 62
     6
 10
111.6
 20
1315.92
 30
0.0
 11
111.6
 21
1294.32
 31
0.0
  0
LINE
  8
0
  6
LTYPE4
 62
     6
 10
111.6
 20
1285.68
 30
0.0
 11
111.6
 21
1264.512
 31
0.0
  0
TEXT
  8
0
  6
CONTINUOUS
 62
     6
 10
90.816
 20
1328.016
 30
1.296
 40
12.96
  1
Ｕ
 50
0.0
 41
0.9
 51
0.0
  7
KANJI33
  0
TEXT
  8
0
  6
CONTINUOUS
 62
     6
 10
92.112
 20
1297.344
 30
1.296
 40
12.96
  1
Ｖ
 50
0.0
 41
0.9
 51
0.0
  7
KANJI33
  0
TEXT
  8
0
  6
CONTINUOUS
 62
     6
 10
93.408
 20
1266.672
 30
1.296
 40
12.96
  1
Ｗ
 50
0.0
 41
0.9
 51
0.0
  7
KANJI33
  0
LINE
  8
0
  6
LTYPE4
 62
     6
 10
266.16
 20
1344.0
 30
0.0
 11
111.6
 21
1344.0
 31
0.0
  0
TEXT
  8
0
  6
CONTINUOUS
 62
     6
 10
195.84
 20
1280.6472
 30
1.728
 40
17.28
  1
Ｂ
 50
0.0
 41
0.9
 51
0.0
  7
KANJI34
  0
CIRCLE
  8
0
  6
CONTINUOUS
 62
     6
 10
203.616
 20
1290.432
 30
0.0
 40
17.28
  0
LINE
  8
0
  6
CONTINUOUS
 62
     6
 10
231.216
 20
1260.0192
 30
0.0
 11
212.23698443
 21
1275.456118475
 31
0.0
  0
LINE
  8
0
  6
CONTINUOUS
 62
     6
 10
194.631325074
 20
1275.671443897
 30
0.0
 11
175.536
 21
1260.0192
 31
0.0
  0
CIRCLE
  8
0
  6
CONTINUOUS
 62
     6
 10
175.536
 20
1210.9872
 30
0.0
 40
5.184
  0
LINE
  8
0
  6
CONTINUOUS
 62
     6
 10
169.580103884
 20
1205.031303884
 30
0.0
 11
181.676103884
 21
1217.127303884
 31
0.0
  0
CIRCLE
  8
0
  6
CONTINUOUS
 62
     6
 10
203.376
 20
1210.9872
 30
0.0
 40
5.184
  0
LINE
  8
0
  6
CONTINUOUS
 62
     6
 10
197.420103884
 20
1205.031303884
 30
0.0
 11
209.516103884
 21
1217.127303884
 31
0.0
  0
LINE
  8
0
  6
LTYPE4
 62
     6
 10
180.72
 20
1210.9872
 30
0.0
 11
198.096
 21
1210.9872
 31
0.0
  0
CIRCLE
  8
0
  6
CONTINUOUS
 62
     6
 10
231.216
 20
1210.9872
 30
0.0
 40
5.184
  0
LINE
  8
0
  6
CONTINUOUS
 62
     6
 10
225.260103884
 20
1205.031303884
 30
0.0
 11
237.356103884
 21
1217.127303884
 31
0.0
  0
LINE
  8
0
  6
LTYPE4
 62
     6
 10
208.176
 20
1210.9872
 30
0.0
 11
226.416
 21
1210.9872
 31
0.0
  0
TEXT
  8
0
  6
CONTINUOUS
 62
     6
 10
188.64
 20
1213.8192
 30
1.296
 40
12.96
  1
ｖ
 50
0.0
 41
0.9
 51
0.0
  7
KANJI33
  0
TEXT
  8
0
  6
CONTINUOUS
 62
     6
 10
216.48
 20
1213.8192
 30
1.296
 40
12.96
  1
ｗ
 50
0.0
 41
0.9
 51
0.0
  7
KANJI33
  0
TEXT
  8
0
  6
CONTINUOUS
 62
     6
 10
161.616
 20
1214.6832
 30
1.296
 40
12.96
  1
ｕ
 50
0.0
 41
0.9
 51
0.0
  7
KANJI33
  0
LINE
  8
0
  6
CONTINUOUS
 62
     6
 10
175.536
 20
1216.1712
 30
0.0
 11
175.536
 21
1260.0192
 31
0.0
  0
LINE
  8
0
  6
CONTINUOUS
 62
     6
 10
203.376
 20
1216.1712
 30
0.0
 11
203.376
 21
1273.44
 31
0.0
  0
LINE
  8
0
  6
CONTINUOUS
 62
     6
 10
231.216
 20
1216.1712
 30
0.0
 11
231.216
 21
1260.0192
 31
0.0
  0
LINE
  8
0
  6
LTYPE4
 62
     6
 10
236.976
 20
1210.9872
 30
0.0
 11
266.16
 21
1210.9872
 31
0.0
  0
LINE
  8
0
  6
LTYPE4
 62
     6
 10
266.16
 20
1210.9872
 30
0.0
 11
266.16
 21
1344.0
 31
0.0
  0
LINE
  8
0
  6
LTYPE4
 62
     6
 10
111.6
 20
1210.9872
 30
0.0
 11
170.352
 21
1210.9872
 31
0.0
  0
LINE
  8
0
  6
LTYPE4
 62
     6
 10
111.6
 20
1255.008
 30
0.0
 11
111.6
 21
1210.9872
 31
0.0
  0
TEXT
  8
0
  6
CONTINUOUS
 62
     2
 10
128.014472037
 20
1175.954685773
 30
0.0
 40
18.72
  1
モーター結線図
 50
0.0
 41
0.925
 51
0.0
  7
KANJI35
  0
LINE
  8
0
  6
CONTINUOUS
 62
     6
 10
356.629425053
 20
1631.447759827
 30
0.0
 11
124.584646507
 21
1631.447759827
 31
0.0
  0
LINE
  8
0
  6
CONTINUOUS
 62
     3
 10
356.629425053
 20
1603.985259827
 30
0.0
 11
124.584646507
 21
1603.985259827
 31
0.0
  0
LINE
  8
0
  6
CONTINUOUS
 62
     6
 10
356.629425053
 20
1603.985259827
 30
0.0
 11
124.584646507
 21
1603.985259827
 31
0.0
  0
TEXT
  8
0
  6
CONTINUOUS
 62
     6
 10
382.212228
 20
1628.900410728
 30
1.232517
 40
13.182
  1
電気定格　　　
 50
0.0
 41
0.85
 51
0.0
  7
KANJI36
  0
TEXT
  8
0
  6
CONTINUOUS
 62
     6
 10
128.493517202
 20
1634.64592676
 30
1.0647
 40
11.661
  1
ＬＳ０１　　　：推力リミッタ（前進時過負荷用）
 50
0.0
 41
0.822608696
 51
0.0
  7
KANJI37
  0
TEXT
  8
0
  6
CONTINUOUS
 62
     6
 10
128.493517202
 20
1607.18342676
 30
1.0647
 40
11.661
  1
ＬＳ０２　　　：推力リミッタ（後進時過負荷用）
 50
0.0
 41
0.822608696
 51
0.0
  7
KANJI37
  0
TEXT
  8
0
  6
CONTINUOUS
 62
     6
 10
395.013715102
 20
1598.326958599
 30
0.0
 40
11.8638
  1
ＤＣ１２５Ｖ　０．６Ａ　，ＤＣ２５０Ｖ　０．３Ａ　
 50
0.0
 41
0.726495726
 51
0.0
  7
KANJI38
  0
LINE
  8
0
  6
LTYPE4
 62
     6
 10
655.02
 20
1658.9
 30
0.0
 11
106.62
 21
1658.9
 31
0.0
  0
TEXT
  8
0
  6
CONTINUOUS
 62
     6
 10
389.757132178
 20
1646.661726126
 30
0.0
 40
45.0
  1
｝
 50
0.0
 41
0.538166667
 51
0.0
  7
KANJI39
  0
TEXT
  8
0
  6
CONTINUOUS
 62
     6
 10
319.632791539
 20
1417.92382165
 30
0.0
 40
17.740702234
  1
端子台　接続図
 50
0.0
 41
0.880962996
 51
0.0
  7
KANJI40
  0
LINE
  8
0
  6
LTYPE4
 62
     6
 10
655.02
 20
1399.9
 30
0.0
 11
655.02
 21
1658.9
 31
0.0
  0
LINE
  8
0
  6
LTYPE4
 62
     6
 10
106.62
 20
1399.9
 30
0.0
 11
655.02
 21
1399.9
 31
0.0
  0
LINE
  8
0
  6
LTYPE4
 62
     6
 10
106.62
 20
1658.9
 30
0.0
 11
106.62
 21
1399.9
 31
0.0
  0
LINE
  8
0
  6
CONTINUOUS
 62
     2
 10
354.597373465
 20
1468.928121884
 30
0.0
 11
354.597373465
 21
1446.149155128
 31
0.0
  0
LINE
  8
0
  6
CONTINUOUS
 62
     2
 10
381.17283468
 20
1468.928121884
 30
0.0
 11
381.17283468
 21
1446.149155128
 31
0.0
  0
LINE
  8
0
  6
CONTINUOUS
 62
     2
 10
407.748295894
 20
1468.928121884
 30
0.0
 11
407.748295894
 21
1446.149155128
 31
0.0
  0
LINE
  8
0
  6
CONTINUOUS
 62
     2
 10
434.323757109
 20
1468.928121884
 30
0.0
 11
434.323757109
 21
1446.149155128
 31
0.0
  0
CIRCLE
  8
0
  6
CONTINUOUS
 62
     6
 10
426.404269667
 20
1492.407921517
 30
0.0
 40
4.100214016
  0
LINE
  8
0
  6
CONTINUOUS
 62
     6
 10
422.304055651
 20
1492.407921517
 30
0.0
 11
421.036026502
 21
1492.407921517
 31
0.0
  0
LINE
  8
0
  6
CONTINUOUS
 62
     6
 10
447.358027433
 20
1506.094562742
 30
0.0
 11
443.443558096
 21
1483.759507138
 31
0.0
  0
LINE
  8
0
  6
CONTINUOUS
 62
     6
 10
442.631699663
 20
1506.882284037
 30
0.0
 11
438.716922494
 21
1484.547279739
 31
0.0
  0
LINE
  8
0
  6
CONTINUOUS
 62
     6
 10
443.443558096
 20
1483.759507138
 30
0.0
 11
438.716922494
 21
1484.547279739
 31
0.0
  0
CIRCLE
  8
0
  6
CONTINUOUS
 62
     6
 10
447.611487717
 20
1482.939464335
 30
0.0
 40
4.100214016
  0
LINE
  8
0
  6
CONTINUOUS
 62
     6
 10
447.611487717
 20
1478.839250319
 30
0.0
 11
447.611487717
 21
1468.928121884
 31
0.0
  0
LINE
  8
0
  6
CONTINUOUS
 62
     6
 10
421.036026502
 20
1492.407921517
 30
0.0
 11
421.036026502
 21
1468.928121884
 31
0.0
  0
LINE
  8
0
  6
CONTINUOUS
 62
     6
 10
394.460565287
 20
1468.928121884
 30
0.0
 11
394.460565287
 21
1522.633332504
 31
0.0
  0
LINE
  8
0
  6
CONTINUOUS
 62
     6
 10
314.987641926
 20
1506.094562742
 30
0.0
 11
318.902111263
 21
1483.759507138
 31
0.0
  0
LINE
  8
0
  6
CONTINUOUS
 62
     6
 10
319.713969696
 20
1506.882284037
 30
0.0
 11
323.628746865
 21
1484.547279739
 31
0.0
  0
LINE
  8
0
  6
CONTINUOUS
 62
     6
 10
318.902111263
 20
1483.759507138
 30
0.0
 11
323.628746865
 21
1484.547279739
 31
0.0
  0
CIRCLE
  8
0
  6
CONTINUOUS
 62
     6
 10
314.734181642
 20
1482.939464335
 30
0.0
 40
4.100214016
  0
CIRCLE
  8
0
  6
CONTINUOUS
 62
     6
 10
335.941399692
 20
1492.407921517
 30
0.0
 40
4.100214016
  0
LINE
  8
0
  6
CONTINUOUS
 62
     6
 10
340.041613708
 20
1492.407921517
 30
0.0
 11
341.309642857
 21
1492.407921517
 31
0.0
  0
LINE
  8
0
  6
CONTINUOUS
 62
     6
 10
314.734181642
 20
1478.839250319
 30
0.0
 11
314.734181642
 21
1468.928121884
 31
0.0
  0
LINE
  8
0
  6
CONTINUOUS
 62
     6
 10
341.309642857
 20
1492.407921517
 30
0.0
 11
341.309642857
 21
1468.928121884
 31
0.0
  0
LINE
  8
0
  6
CONTINUOUS
 62
     6
 10
367.885104072
 20
1468.928121884
 30
0.0
 11
367.885104072
 21
1522.633332504
 31
0.0
  0
LINE
  8
0
  6
CONTINUOUS
 62
     2
 10
460.899218324
 20
1468.928121884
 30
0.0
 11
460.899218324
 21
1446.149155128
 31
0.0
  0
LINE
  8
0
  6
CONTINUOUS
 62
     2
 10
301.446451035
 20
1468.928121884
 30
0.0
 11
301.446451035
 21
1446.149155128
 31
0.0
  0
LINE
  8
0
  6
CONTINUOUS
 62
     2
 10
328.02191225
 20
1468.928121884
 30
0.0
 11
328.02191225
 21
1446.149155128
 31
0.0
  0
LINE
  8
0
  6
CONTINUOUS
 62
     6
 10
447.611487717
 20
1522.633332504
 30
0.0
 11
394.460565287
 21
1522.633332504
 31
0.0
  0
CIRCLE
  8
0
  6
CONTINUOUS
 62
     6
 10
447.611487717
 20
1510.28941042
 30
0.0
 40
4.100214016
  0
LINE
  8
0
  6
CONTINUOUS
 62
     6
 10
447.358027433
 20
1506.094562742
 30
0.0
 11
442.631699663
 21
1506.882284037
 31
0.0
  0
LINE
  8
0
  6
CONTINUOUS
 62
     6
 10
447.611487717
 20
1514.389624436
 30
0.0
 11
447.611487717
 21
1522.633332504
 31
0.0
  0
CIRCLE
  8
0
  6
CONTINUOUS
 62
     6
 10
314.734181642
 20
1510.28941042
 30
0.0
 40
4.100214016
  0
LINE
  8
0
  6
CONTINUOUS
 62
     6
 10
314.987641926
 20
1506.094562742
 30
0.0
 11
319.713969696
 21
1506.882284037
 31
0.0
  0
LINE
  8
0
  6
CONTINUOUS
 62
     6
 10
314.734181642
 20
1514.389624436
 30
0.0
 11
314.734181642
 21
1522.633332504
 31
0.0
  0
LINE
  8
0
  6
CONTINUOUS
 62
     6
 10
367.885104072
 20
1522.633332504
 30
0.0
 11
314.734181642
 21
1522.633332504
 31
0.0
  0
TEXT
  8
0
  6
CONTINUOUS
 62
     6
 10
319.4972152
 20
1527.152473273
 30
0.819
 40
11.7
  1
ＬＳ０１
 50
0.0
 41
0.8
 51
0.0
  7
KANJI41
  0
TEXT
  8
0
  6
CONTINUOUS
 62
     6
 10
402.117398844
 20
1527.152473273
 30
0.819
 40
11.7
  1
ＬＳ０２
 50
0.0
 41
0.8
 51
0.0
  7
KANJI41
  0
TEXT
  8
0
  6
CONTINUOUS
 62
     3
 10
147.308775989
 20
1449.945649587
 30
0.0
 40
15.0
  1
　　　　　　　　　　　　　　　　　　１　　２　　　３　　　４　　　５　　　６
 50
0.0
 41
0.911
 51
0.0
  7
KANJI42
  0
LINE
  8
0
  6
CONTINUOUS
 62
     2
 10
301.446451035
 20
1468.928121884
 30
0.0
 11
460.899218324
 21
1468.928121884
 31
0.0
  0
LINE
  8
0
  6
CONTINUOUS
 62
     2
 10
301.446451035
 20
1446.149155128
 30
0.0
 11
460.899218324
 21
1446.149155128
 31
0.0
  0
TEXT
  8
0
  6
CONTINUOUS
 62
     6
 10
293.132791539
 20
1556.92382165
 30
0.0
 40
17.740702234
  1
推力リミッタ端子台配列
 50
0.0
 41
0.880962996
 51
0.0
  7
KANJI40
  0
TEXT
  8
0
  6
CONTINUOUS
 62
     6
 10
395.013715102
 20
1614.071931782
 30
0.0
 40
11.8638
  1
ＡＣ１００Ｖ　１２５Ｖ　２５０Ｖ　－１０Ａ
 50
0.0
 41
0.726495726
 51
0.0
  7
KANJI38
  0
ARC
  8
0
  6
CONTINUOUS
 62
     2
 10
224.322218677
 20
805.533974596
 30
0.0
 40
20.0
 50
231.952957468
 51
156.801409486
  0
LINE
  8
0
  6
CONTINUOUS
 62
     2
 10
205.939318076
 20
813.412360568
 30
0.0
 11
208.234010787
 21
823.249799345
 31
0.0
  0
TEXT
  8
0
  6
CONTINUOUS
 62
     2
 10
143.939318076
 20
796.412360568
 30
0.0
 40
15.0
  1
前進方向
 50
0.0
 41
0.9
 51
0.0
  7
KANJI43
  0
LINE
  8
0
  6
CONTINUOUS
 62
     2
 10
205.939318076
 20
813.412360568
 30
0.0
 11
214.207479454
 21
818.319697103
 31
0.0
  0
LINE
  8
0
  6
CONTINUOUS
 62
     1
 10
346.422218677
 20
704.133974596
 30
0.0
 11
346.422218677
 21
634.133974596
 31
0.0
  0
TEXT
  8
0
  6
CONTINUOUS
 62
     2
 10
351.422218677
 20
693.133974596
 30
5.0
 40
20.0
  1
銘板
 50
270.0
 41
0.925
 51
0.0
  7
KANJI44
  0
LINE
  8
0
  6
CONTINUOUS
 62
     1
 10
389.422218677
 20
704.133974596
 30
0.0
 11
346.422218677
 21
704.133974596
 31
0.0
  0
LINE
  8
0
  6
CONTINUOUS
 62
     1
 10
389.422218677
 20
634.133974596
 30
0.0
 11
346.422218677
 21
634.133974596
 31
0.0
  0
LINE
  8
0
  6
CONTINUOUS
 62
     1
 10
389.422218677
 20
704.133974596
 30
0.0
 11
389.422218677
 21
634.133974596
 31
0.0
  0
TEXT
  8
0
  6
CONTINUOUS
 62
     2
 10
464.912228132
 20
764.633974596
 30
0.0
 40
16.8
  1
クイックブレーキモータ
 50
0.0
 41
0.892857143
 51
0.0
  7
KANJI45
  0
LINE
  8
2
  6
CONTINUOUS
 62
     2
 10
758.663735951
 20
820.382075862
 30
0.0
 11
765.71740741
 21
830.701752162
 31
0.0
  0
LINE
  8
2
  6
CONTINUOUS
 62
     2
 10
758.663735951
 20
820.382075862
 30
0.0
 11
759.612556474
 21
832.846013427
 31
0.0
  0
LINE
  8
2
  6
CONTINUOUS
 62
     2
 10
758.663735951
 20
820.382075862
 30
0.0
 11
816.388107916
 21
984.727107913
 31
0.0
  0
TEXT
  8
0
  6
CONTINUOUS
 62
     2
 10
817.888107916
 20
989.727107913
 30
0.0
 40
18.0
  1
手動開放装置
 50
0.0
 41
0.9
 51
0.0
  7
KANJI17
  0
LINE
  8
0
  6
CONTINUOUS
 62
     2
 10
816.388107916
 20
984.727107913
 30
0.0
 11
916.988107916
 21
984.727107913
 31
0.0
  0
CIRCLE
  8
0
  6
CONTINUOUS
 62
     1
 10
757.84722658
 20
629.133974596
 30
0.0
 40
19.5
  0
LINE
  8
0
  6
CONTINUOUS
 62
     1
 10
737.84722658
 20
649.133974596
 30
0.0
 11
777.84722658
 21
649.133974596
 31
0.0
  0
LINE
  8
0
  6
CONTINUOUS
 62
     1
 10
777.84722658
 20
609.133974596
 30
0.0
 11
777.84722658
 21
649.133974596
 31
0.0
  0
LINE
  8
0
  6
CONTINUOUS
 62
     1
 10
737.84722658
 20
609.133974596
 30
0.0
 11
777.84722658
 21
609.133974596
 31
0.0
  0
LINE
  8
0
  6
CONTINUOUS
 62
     1
 10
737.84722658
 20
609.133974596
 30
0.0
 11
737.84722658
 21
649.133974596
 31
0.0
  0
LINE
  8
0
  6
CONTINUOUS
 62
     2
 10
765.922218677
 20
638.133974596
 30
0.0
 11
773.410259882
 21
648.142932529
 31
0.0
  0
LINE
  8
0
  6
CONTINUOUS
 62
     2
 10
765.922218677
 20
638.133974596
 30
0.0
 11
767.402573619
 21
650.546007034
 31
0.0
  0
LINE
  8
0
  6
CONTINUOUS
 62
     2
 10
765.922218677
 20
638.133974596
 30
0.0
 11
815.922218677
 21
763.133974596
 31
0.0
  0
LINE
  8
0
  6
LTYPE2
 62
     2
 10
757.84722658
 20
604.033974596
 30
0.0
 11
757.84722658
 21
653.933974596
 31
0.0
  0
LINE
  8
0
  6
CONTINUOUS
 62
     1
 10
939.522218677
 20
584.583974596
 30
0.0
 11
939.522218677
 21
673.683974596
 31
0.0
  0
LINE
  8
0
  6
CONTINUOUS
 62
     1
 10
969.522218677
 20
584.583974596
 30
0.0
 11
897.74722658
 21
584.583974596
 31
0.0
  0
LINE
  8
0
  6
CONTINUOUS
 62
     1
 10
969.522218677
 20
673.683974596
 30
0.0
 11
894.74722658
 21
673.683974596
 31
0.0
  0
LINE
  8
0
  6
CONTINUOUS
 62
     1
 10
886.74722658
 20
673.683974596
 30
0.0
 11
830.74722658
 21
673.683974596
 31
0.0
  0
LINE
  8
0
  6
CONTINUOUS
 62
     1
 10
822.74722658
 20
673.683974596
 30
0.0
 11
610.922218677
 21
673.683974596
 31
0.0
  0
LINE
  8
0
  6
CONTINUOUS
 62
     1
 10
883.74722658
 20
584.583974596
 30
0.0
 11
833.74722658
 21
584.583974596
 31
0.0
  0
LINE
  8
0
  6
CONTINUOUS
 62
     1
 10
819.74722658
 20
584.583974596
 30
0.0
 11
610.922218677
 21
584.583974596
 31
0.0
  0
LINE
  8
0
  6
LTYPE2
 62
     2
 10
1111.254927903
 20
629.133974596
 30
0.0
 11
651.0
 21
629.133974596
 31
0.0
  0
LINE
  8
0
  6
LTYPE4
 62
     2
 10
890.74722658
 20
550.0
 30
0.0
 11
890.74722658
 21
685.0
 31
0.0
  0
LINE
  8
0
  6
CONTINUOUS
 62
     1
 10
897.74722658
 20
559.133974596
 30
0.0
 11
897.74722658
 21
603.633974596
 31
0.0
  0
LINE
  8
0
  6
CONTINUOUS
 62
     1
 10
883.74722658
 20
559.133974596
 30
0.0
 11
883.74722658
 21
603.633974596
 31
0.0
  0
LINE
  8
0
  6
CONTINUOUS
 62
     1
 10
897.74722658
 20
581.633974596
 30
0.0
 11
883.74722658
 21
581.633974596
 31
0.0
  0
LINE
  8
0
  6
CONTINUOUS
 62
     1
 10
886.74722658
 20
603.633974596
 30
0.0
 11
886.74722658
 21
678.133985386
 31
0.0
  0
LINE
  8
0
  6
CONTINUOUS
 62
     1
 10
894.74722658
 20
603.633974596
 30
0.0
 11
894.74722658
 21
678.133985386
 31
0.0
  0
LINE
  8
0
  6
CONTINUOUS
 62
     1
 10
897.74722658
 20
603.633974596
 30
0.0
 11
883.74722658
 21
603.633974596
 31
0.0
  0
ARC
  8
0
  6
CONTINUOUS
 62
     1
 10
890.74722658
 20
678.133974596
 30
0.0
 40
4.0
 50
0.00015455
 51
179.99984545
  0
LINE
  8
0
  6
LTYPE4
 62
     2
 10
826.74722658
 20
551.0
 30
0.0
 11
826.74722658
 21
684.0
 31
0.0
  0
ARC
  8
0
  6
CONTINUOUS
 62
     1
 10
826.74722658
 20
678.133974596
 30
0.0
 40
4.0
 50
0.00015455
 51
179.99984545
  0
LINE
  8
0
  6
CONTINUOUS
 62
     1
 10
830.74722658
 20
603.633974596
 30
0.0
 11
830.74722658
 21
678.133985386
 31
0.0
  0
LINE
  8
0
  6
CONTINUOUS
 62
     1
 10
822.74722658
 20
603.633974596
 30
0.0
 11
822.74722658
 21
678.133985386
 31
0.0
  0
LINE
  8
0
  6
CONTINUOUS
 62
     1
 10
833.74722658
 20
603.633974596
 30
0.0
 11
819.74722658
 21
603.633974596
 31
0.0
  0
LINE
  8
0
  6
CONTINUOUS
 62
     1
 10
819.74722658
 20
559.133974596
 30
0.0
 11
819.74722658
 21
603.633974596
 31
0.0
  0
LINE
  8
0
  6
CONTINUOUS
 62
     1
 10
833.74722658
 20
559.133974596
 30
0.0
 11
833.74722658
 21
603.633974596
 31
0.0
  0
LINE
  8
0
  6
CONTINUOUS
 62
     1
 10
833.74722658
 20
581.633974596
 30
0.0
 11
819.74722658
 21
581.633974596
 31
0.0
  0
LINE
  8
0
  6
LTYPE1
 62
     2
 10
677.59722658
 20
551.0
 30
0.0
 11
677.59722658
 21
684.0
 31
0.0
  0
LINE
  8
0
  6
LTYPE1
 62
     2
 10
670.59722658
 20
559.133974596
 30
0.0
 11
670.59722658
 21
603.633974596
 31
0.0
  0
LINE
  8
0
  6
LTYPE1
 62
     2
 10
684.59722658
 20
559.133974596
 30
0.0
 11
684.59722658
 21
603.633974596
 31
0.0
  0
LINE
  8
0
  6
LTYPE1
 62
     2
 10
684.59722658
 20
581.633974596
 30
0.0
 11
670.59722658
 21
581.633974596
 31
0.0
  0
LINE
  8
0
  6
LTYPE1
 62
     2
 10
681.59722658
 20
603.633974596
 30
0.0
 11
681.59722658
 21
678.133985386
 31
0.0
  0
LINE
  8
0
  6
LTYPE1
 62
     2
 10
673.59722658
 20
603.633974596
 30
0.0
 11
673.59722658
 21
678.133985386
 31
0.0
  0
LINE
  8
0
  6
LTYPE1
 62
     2
 10
684.59722658
 20
603.633974596
 30
0.0
 11
670.59722658
 21
603.633974596
 31
0.0
  0
ARC
  8
0
  6
LTYPE1
 62
     2
 10
677.59722658
 20
678.133974596
 30
0.0
 40
4.0
 50
0.00015455
 51
179.99984545
  0
LINE
  8
0
  6
CONTINUOUS
 62
     1
 10
1014.522218677
 20
604.133974596
 30
0.0
 11
1081.522218677
 21
604.133974596
 31
0.0
  0
ARC
  8
0
  6
CONTINUOUS
 62
     1
 10
1081.522218677
 20
612.133974596
 30
0.0
 40
8.0
 50
270.0
 51
0.0
  0
LINE
  8
0
  6
CONTINUOUS
 62
     1
 10
1089.522218677
 20
612.133974596
 30
0.0
 11
1089.522218677
 21
646.133974596
 31
0.0
  0
ARC
  8
0
  6
CONTINUOUS
 62
     1
 10
1081.522218677
 20
646.133974596
 30
0.0
 40
8.0
 50
0.0
 51
90.0
  0
CIRCLE
  8
0
  6
CONTINUOUS
 62
     1
 10
1064.522218677
 20
629.133974596
 30
0.0
 40
12.5
  0
CIRCLE
  8
0
  6
CONTINUOUS
 62
     1
 10
1064.522218677
 20
629.133974596
 30
0.0
 40
22.0
  0
CIRCLE
  8
0
  6
CONTINUOUS
 62
     1
 10
1064.522218677
 20
644.633974596
 30
0.0
 40
3.0
  0
LINE
  8
0
  6
CONTINUOUS
 62
     1
 10
1060.322218677
 20
612.333974596
 30
0.0
 11
1062.322218677
 21
612.033974596
 31
0.0
  0
LINE
  8
0
  6
CONTINUOUS
 62
     1
 10
1062.822218677
 20
616.733974596
 30
0.0
 11
1062.586834061
 21
615.164743827
 31
0.0
  0
LINE
  8
0
  6
CONTINUOUS
 62
     1
 10
1062.586834061
 20
615.164743827
 30
0.0
 11
1060.322218677
 21
612.333974596
 31
0.0
  0
LINE
  8
0
  6
CONTINUOUS
 62
     1
 10
1064.522218677
 20
614.733974596
 30
0.0
 11
1062.322218677
 21
612.033974596
 31
0.0
  0
LINE
  8
0
  6
CONTINUOUS
 62
     1
 10
1068.722218677
 20
612.333974596
 30
0.0
 11
1066.722218677
 21
612.033974596
 31
0.0
  0
LINE
  8
0
  6
CONTINUOUS
 62
     1
 10
1066.222218677
 20
616.733974596
 30
0.0
 11
1066.457603292
 21
615.164743827
 31
0.0
  0
LINE
  8
0
  6
CONTINUOUS
 62
     1
 10
1066.457603292
 20
615.164743827
 30
0.0
 11
1068.722218677
 21
612.333974596
 31
0.0
  0
LINE
  8
0
  6
CONTINUOUS
 62
     1
 10
1064.522218677
 20
614.733974596
 30
0.0
 11
1066.722218677
 21
612.033974596
 31
0.0
  0
LINE
  8
0
  6
LTYPE1
 62
     2
 10
1029.522218677
 20
604.133974596
 30
0.0
 11
1029.522218677
 21
654.133974596
 31
0.0
  0
LINE
  8
0
  6
CONTINUOUS
 62
     2
 10
1081.522218677
 20
604.133974596
 30
0.0
 11
1143.51968984
 21
604.133974596
 31
0.0
  0
LINE
  8
0
  6
CONTINUOUS
 62
     2
 10
1138.51968984
 20
604.133974596
 30
0.0
 11
1141.754927903
 21
616.208047425
 31
0.0
  0
LINE
  8
0
  6
CONTINUOUS
 62
     2
 10
1138.51968984
 20
604.133974596
 30
0.0
 11
1135.284451776
 21
616.208047425
 31
0.0
  0
LINE
  8
0
  6
CONTINUOUS
 62
     2
 10
1138.51968984
 20
604.133974596
 30
0.0
 11
1138.51968984
 21
654.133974596
 31
0.0
  0
LINE
  8
0
  6
CONTINUOUS
 62
     2
 10
1138.51968984
 20
654.133974596
 30
0.0
 11
1135.284451776
 21
642.059901768
 31
0.0
  0
LINE
  8
0
  6
CONTINUOUS
 62
     2
 10
1138.51968984
 20
654.133974596
 30
0.0
 11
1141.754927903
 21
642.059901768
 31
0.0
  0
LINE
  8
0
  6
CONTINUOUS
 62
     2
 10
1081.522218677
 20
654.133974596
 30
0.0
 11
1143.51968984
 21
654.133974596
 31
0.0
  0
LINE
  8
0
  6
LTYPE3
 62
     2
 10
1064.522218677
 20
604.133974596
 30
0.0
 11
1064.522218677
 21
658.933974596
 31
0.0
  0
TEXT
  8
0
  6
CONTINUOUS
 62
     2
 10
1133.51968984
 20
614.383974596
 30
0.0
 40
18.0
  1
５０
 50
90.0
 41
0.9
 51
0.0
  7
KANJI17
  0
LINE
  8
0
  6
CONTINUOUS
 62
     1
 10
1014.522218677
 20
654.133974596
 30
0.0
 11
1081.522218677
 21
654.133974596
 31
0.0
  0
LINE
  8
0
  6
CONTINUOUS
 62
     1
 10
998.522218677
 20
583.633974596
 30
0.0
 11
998.522218677
 21
604.133974596
 31
0.0
  0
LINE
  8
0
  6
CONTINUOUS
 62
     1
 10
1014.522218677
 20
664.133974596
 30
0.0
 11
1014.522218677
 21
604.133974596
 31
0.0
  0
LINE
  8
0
  6
CONTINUOUS
 62
     1
 10
998.522218677
 20
664.133974596
 30
0.0
 11
1014.522218677
 21
664.133974596
 31
0.0
  0
LINE
  8
0
  6
CONTINUOUS
 62
     1
 10
969.522218677
 20
584.583974596
 30
0.0
 11
969.522218677
 21
673.683974596
 31
0.0
  0
LINE
  8
0
  6
CONTINUOUS
 62
     1
 10
998.522218677
 20
654.133974596
 30
0.0
 11
969.522218677
 21
654.133974596
 31
0.0
  0
LINE
  8
0
  6
CONTINUOUS
 62
     1
 10
998.522218677
 20
604.133974596
 30
0.0
 11
969.522218677
 21
604.133974596
 31
0.0
  0
LINE
  8
0
  6
CONTINUOUS
 62
     1
 10
998.522218677
 20
498.133974596
 30
0.0
 11
998.522218677
 21
664.133974596
 31
0.0
  0
LINE
  8
0
  6
CONTINUOUS
 62
     1
 10
1014.522218677
 20
629.133974596
 30
0.0
 11
1014.522218677
 21
498.133974596
 31
0.0
  0
LINE
  8
0
  6
CONTINUOUS
 62
     2
 10
1168.0
 20
629.133974596
 30
0.0
 11
1168.0
 21
495.133974596
 31
0.0
  0
TEXT
  8
0
  6
CONTINUOUS
 62
     3
 10
1165.0
 20
537.833974596
 30
0.0
 40
18.0
  1
１３４
 50
90.0
 41
0.9
 51
0.0
  7
KANJI17
  0
LINE
  8
0
  6
CONTINUOUS
 62
     2
 10
1168.0
 20
629.133974596
 30
0.0
 11
1164.894171459
 21
617.542864681
 31
0.0
  0
LINE
  8
0
  6
CONTINUOUS
 62
     2
 10
1168.0
 20
629.133974596
 30
0.0
 11
1171.105828541
 21
617.542864681
 31
0.0
  0
LINE
  8
0
  6
CONTINUOUS
 62
     2
 10
1138.51968984
 20
629.133974596
 30
0.0
 11
1174.0
 21
629.133974596
 31
0.0
  0
LINE
  8
7
  6
CONTINUOUS
 62
     2
 10
1070.822218677
 20
639.083974596
 30
0.0
 11
1071.543340482
 21
651.563156594
 31
0.0
  0
LINE
  8
7
  6
CONTINUOUS
 62
     2
 10
1070.822218677
 20
639.083974596
 30
0.0
 11
1077.686319478
 21
649.530702322
 31
0.0
  0
LINE
  8
7
  6
CONTINUOUS
 62
     2
 10
1070.822218677
 20
639.083974596
 30
0.0
 11
1093.055882043
 21
706.283974596
 31
0.0
  0
TEXT
  8
7
  6
CONTINUOUS
 62
     2
 10
1092.922218677
 20
711.283974596
 30
0.0
 40
18.0
  1
φ２５Ｈ１０
 50
0.0
 41
0.9
 51
0.0
  7
KANJI17
  0
TEXT
  8
0
  6
CONTINUOUS
 62
     2
 10
1137.922218677
 20
685.283974596
 30
0.0
 40
18.0
  1
ｄ９
 50
0.0
 41
0.9
 51
0.0
  7
KANJI17
  0
LINE
  8
7
  6
CONTINUOUS
 62
     2
 10
1093.055882043
 20
706.283974596
 30
0.0
 11
1181.422218677
 21
706.283974596
 31
0.0
  0
LINE
  8
0
  6
CONTINUOUS
 62
     2
 10
815.922218677
 20
763.133974596
 30
0.0
 11
864.622218677
 21
763.133974596
 31
0.0
  0
TEXT
  8
0
  6
CONTINUOUS
 62
     2
 10
815.922218677
 20
768.133974596
 30
0.0
 40
18.0
  1
給脂口
 50
0.0
 41
0.9
 51
0.0
  7
KANJI17
  0
LINE
  8
0
  6
LTYPE2
 62
     2
 10
496.0
 20
511.133974596
 30
0.0
 11
1053.522218677
 21
511.133974596
 31
0.0
  0
LINE
  8
0
  6
LTYPE1
 62
     2
 10
941.022118677
 20
505.133974596
 30
0.0
 11
983.022118677
 21
505.133974596
 31
0.0
  0
LINE
  8
0
  6
LTYPE1
 62
     2
 10
941.022118677
 20
517.133974596
 30
0.0
 11
983.022118677
 21
517.133974596
 31
0.0
  0
LINE
  8
0
  6
CONTINUOUS
 62
     1
 10
875.04722658
 20
505.133974596
 30
0.0
 11
941.022118677
 21
505.133974596
 31
0.0
  0
LINE
  8
0
  6
CONTINUOUS
 62
     1
 10
906.022218677
 20
517.133974596
 30
0.0
 11
941.022118677
 21
517.133974596
 31
0.0
  0
LINE
  8
0
  6
CONTINUOUS
 62
     1
 10
931.44722658
 20
552.133974596
 30
0.0
 11
931.44722658
 21
526.733974596
 31
0.0
  0
LINE
  8
0
  6
CONTINUOUS
 62
     1
 10
906.04722658
 20
526.733974596
 30
0.0
 11
931.44722658
 21
526.733974596
 31
0.0
  0
LINE
  8
0
  6
CONTINUOUS
 62
     1
 10
906.04722658
 20
553.133974596
 30
0.0
 11
906.04722658
 21
513.133974596
 31
0.0
  0
LINE
  8
0
  6
LTYPE2
 62
     2
 10
915.74722658
 20
538.321474596
 30
0.0
 11
915.74722658
 21
498.333974596
 31
0.0
  0
LINE
  8
0
  6
CONTINUOUS
 62
     1
 10
811.44722658
 20
513.133974596
 30
0.0
 11
906.04722658
 21
513.133974596
 31
0.0
  0
LINE
  8
0
  6
CONTINUOUS
 62
     1
 10
811.44722658
 20
519.133974596
 30
0.0
 11
906.04722658
 21
519.133974596
 31
0.0
  0
LINE
  8
0
  6
CONTINUOUS
 62
     1
 10
874.74722658
 20
498.133974596
 30
0.0
 11
874.74722658
 21
513.133974596
 31
0.0
  0
LINE
  8
0
  6
CONTINUOUS
 62
     1
 10
842.74722658
 20
498.133974596
 30
0.0
 11
874.74722658
 21
498.133974596
 31
0.0
  0
LINE
  8
0
  6
LTYPE2
 62
     2
 10
858.74722658
 20
497.133974596
 30
0.0
 11
858.74722658
 21
562.433974596
 31
0.0
  0
LINE
  8
0
  6
LTYPE1
 62
     2
 10
842.74722658
 20
505.133974596
 30
0.0
 11
875.04722658
 21
505.133974596
 31
0.0
  0
LINE
  8
0
  6
LTYPE4
 62
     2
 10
858.74722658
 20
174.633974596
 30
0.0
 11
858.74722658
 21
513.133974596
 31
0.0
  0
LINE
  8
0
  6
CONTINUOUS
 62
     1
 10
837.34722658
 20
553.133974596
 30
0.0
 11
837.34722658
 21
513.133974596
 31
0.0
  0
LINE
  8
0
  6
CONTINUOUS
 62
     1
 10
811.44722658
 20
526.733974596
 30
0.0
 11
786.04722658
 21
526.733974596
 31
0.0
  0
LINE
  8
0
  6
CONTINUOUS
 62
     1
 10
811.44722658
 20
553.133974596
 30
0.0
 11
811.44722658
 21
513.133974596
 31
0.0
  0
LINE
  8
0
  6
CONTINUOUS
 62
     1
 10
842.74722658
 20
498.133974596
 30
0.0
 11
842.74722658
 21
513.133974596
 31
0.0
  0
LINE
  8
0
  6
LTYPE1
 62
     2
 10
842.44722658
 20
522.363974596
 30
0.0
 11
837.44722658
 21
522.363974596
 31
0.0
  0
LINE
  8
0
  6
LTYPE1
 62
     2
 10
842.44722658
 20
523.518974596
 30
0.0
 11
837.44722658
 21
523.518974596
 31
0.0
  0
LINE
  8
0
  6
CONTINUOUS
 62
     1
 10
786.04722658
 20
552.133974596
 30
0.0
 11
786.04722658
 21
526.733974596
 31
0.0
  0
LINE
  8
0
  6
LTYPE1
 62
     2
 10
842.44722658
 20
543.303974596
 30
0.0
 11
837.44722658
 21
543.303974596
 31
0.0
  0
LINE
  8
0
  6
LTYPE1
 62
     2
 10
842.44722658
 20
542.148974596
 30
0.0
 11
837.44722658
 21
542.148974596
 31
0.0
  0
LINE
  8
0
  6
LTYPE1
 62
     2
 10
842.44722658
 20
543.303974596
 30
0.0
 11
837.44722658
 21
543.303974596
 31
0.0
  0
LINE
  8
0
  6
LTYPE4
 62
     2
 10
834.022218677
 20
532.833974596
 30
0.0
 11
847.022218677
 21
532.833974596
 31
0.0
  0
LINE
  8
0
  6
CONTINUOUS
 62
     2
 10
825.84722658
 20
513.333974596
 30
0.0
 11
818.258471921
 21
503.401160155
 31
0.0
  0
LINE
  8
0
  6
CONTINUOUS
 62
     2
 10
825.84722658
 20
513.333974596
 30
0.0
 11
824.241579483
 21
500.937527629
 31
0.0
  0
LINE
  8
0
  6
CONTINUOUS
 62
     2
 10
825.84722658
 20
513.333974596
 30
0.0
 11
804.723697168
 21
462.033974596
 31
0.0
  0
LINE
  8
0
  6
CONTINUOUS
 62
     1
 10
555.59722658
 20
503.133974596
 30
0.0
 11
842.74722658
 21
503.133974596
 31
0.0
  0
LINE
  8
0
  6
LTYPE4
 62
     2
 10
431.09722658
 20
539.133974596
 30
0.0
 11
818.35722658
 21
539.133974596
 31
0.0
  0
LINE
  8
0
  6
LTYPE1
 62
     2
 10
513.59722658
 20
531.133974596
 30
0.0
 11
786.04722658
 21
531.133974596
 31
0.0
  0
LINE
  8
0
  6
CONTINUOUS
 62
     1
 10
555.59722658
 20
519.133974596
 30
0.0
 11
811.44722658
 21
519.133974596
 31
0.0
  0
TEXT
  8
0
  6
CONTINUOUS
 62
     2
 10
724.64722658
 20
467.033974596
 30
0.0
 40
15.0
  1
ＬＳユニット
 50
0.0
 41
0.9
 51
0.0
  7
KANJI43
  0
LINE
  8
0
  6
CONTINUOUS
 62
     2
 10
804.723697168
 20
462.033974596
 30
0.0
 11
724.64722658
 21
462.033974596
 31
0.0
  0
LINE
  8
7
  6
CONTINUOUS
 62
     2
 10
1064.522218677
 20
456.108974596
 30
0.0
 11
1064.522218677
 21
457.008974596
 31
0.0
  0
LINE
  8
0
  6
CONTINUOUS
 62
     1
 10
1022.022118677
 20
516.792754596
 30
0.0
 11
1020.962519274
 21
518.628034596
 31
0.0
  0
LINE
  8
0
  6
CONTINUOUS
 62
     1
 10
1022.022118677
 20
511.133974596
 30
0.0
 11
1022.022118677
 21
516.792754596
 31
0.0
  0
LINE
  8
0
  6
CONTINUOUS
 62
     1
 10
1022.022118677
 20
505.475194596
 30
0.0
 11
1020.962519274
 21
503.639914596
 31
0.0
  0
LINE
  8
0
  6
CONTINUOUS
 62
     1
 10
1022.022118677
 20
511.133974596
 30
0.0
 11
1022.022118677
 21
505.475194596
 31
0.0
  0
ARC
  8
0
  6
CONTINUOUS
 62
     1
 10
1014.867063339
 20
511.133974596
 30
0.0
 40
7.155055337
 50
328.419912243
 51
31.580087757
  0
ARC
  8
0
  6
CONTINUOUS
 62
     1
 10
1019.83669491
 20
516.754519596
 30
0.0
 40
2.185758211
 50
301.002313915
 51
2.989498403
  0
LINE
  8
0
  6
CONTINUOUS
 62
     1
 10
1022.022118677
 20
505.475194596
 30
0.0
 11
1020.962519274
 21
503.639914596
 31
0.0
  0
ARC
  8
0
  6
CONTINUOUS
 62
     1
 10
1019.83669491
 20
505.513429596
 30
0.0
 40
2.185758211
 50
357.010501597
 51
58.997686085
  0
LINE
  8
0
  6
CONTINUOUS
 62
     1
 10
1016.522218677
 20
518.628034596
 30
0.0
 11
1020.962519274
 21
518.628034596
 31
0.0
  0
LINE
  8
0
  6
CONTINUOUS
 62
     1
 10
1016.522218677
 20
514.881004596
 30
0.0
 11
1020.962519274
 21
514.881004596
 31
0.0
  0
LINE
  8
0
  6
CONTINUOUS
 62
     1
 10
1016.522218677
 20
507.386944596
 30
0.0
 11
1020.962519274
 21
507.386944596
 31
0.0
  0
LINE
  8
0
  6
CONTINUOUS
 62
     1
 10
1016.522218677
 20
503.639914596
 30
0.0
 11
1020.962519274
 21
503.639914596
 31
0.0
  0
LINE
  8
0
  6
CONTINUOUS
 62
     1
 10
1014.522218677
 20
511.133974596
 30
0.0
 11
1016.522218588
 21
513.133974508
 31
0.0
  0
LINE
  8
0
  6
CONTINUOUS
 62
     1
 10
1016.522218677
 20
511.133974596
 30
0.0
 11
1014.522218765
 21
509.133974684
 31
0.0
  0
LINE
  8
0
  6
CONTINUOUS
 62
     1
 10
1014.522218677
 20
518.833974596
 30
0.0
 11
1016.522218677
 21
518.833974596
 31
0.0
  0
LINE
  8
0
  6
CONTINUOUS
 62
     1
 10
1016.522218677
 20
511.133974596
 30
0.0
 11
1016.522218677
 21
518.833974596
 31
0.0
  0
LINE
  8
0
  6
CONTINUOUS
 62
     1
 10
1016.522218677
 20
511.133974596
 30
0.0
 11
1016.522218677
 21
503.433974596
 31
0.0
  0
LINE
  8
0
  6
CONTINUOUS
 62
     1
 10
1014.522218677
 20
503.433974596
 30
0.0
 11
1016.522218677
 21
503.433974596
 31
0.0
  0
LINE
  8
0
  6
CONTINUOUS
 62
     1
 10
1027.022118677
 20
511.133974596
 30
0.0
 11
1027.022118677
 21
507.133974596
 31
0.0
  0
LINE
  8
0
  6
CONTINUOUS
 62
     1
 10
1022.022118677
 20
508.133974596
 30
0.0
 11
1027.022118677
 21
508.133974596
 31
0.0
  0
LINE
  8
0
  6
CONTINUOUS
 62
     1
 10
1022.022118677
 20
507.133974596
 30
0.0
 11
1027.022118677
 21
507.133974596
 31
0.0
  0
LINE
  8
0
  6
CONTINUOUS
 62
     1
 10
1027.022118677
 20
511.133974596
 30
0.0
 11
1027.022118677
 21
515.133974596
 31
0.0
  0
LINE
  8
0
  6
CONTINUOUS
 62
     1
 10
1022.022118677
 20
514.133974596
 30
0.0
 11
1027.022118677
 21
514.133974596
 31
0.0
  0
LINE
  8
0
  6
CONTINUOUS
 62
     1
 10
1022.022118677
 20
515.133974596
 30
0.0
 11
1027.022118677
 21
515.133974596
 31
0.0
  0
LINE
  8
0
  6
CONTINUOUS
 62
     1
 10
998.522218677
 20
498.133974596
 30
0.0
 11
1014.522218677
 21
498.133974596
 31
0.0
  0
LINE
  8
0
  6
CONTINUOUS
 62
     1
 10
983.022118677
 20
505.133974596
 30
0.0
 11
998.522218677
 21
505.133974596
 31
0.0
  0
LINE
  8
0
  6
CONTINUOUS
 62
     1
 10
983.022118677
 20
517.133974596
 30
0.0
 11
998.522218677
 21
517.133974596
 31
0.0
  0
CIRCLE
  8
0
  6
CONTINUOUS
 62
     2
 10
962.022118677
 20
511.133974596
 30
0.0
 40
5.0
  0
CIRCLE
  8
0
  6
CONTINUOUS
 62
     2
 10
962.022118677
 20
511.133974596
 30
0.0
 40
4.0
  0
LINE
  8
0
  6
LTYPE2
 62
     2
 10
962.022118677
 20
501.133974596
 30
0.0
 11
962.022118677
 21
521.133974596
 31
0.0
  0
LINE
  8
0
  6
CONTINUOUS
 62
     2
 10
1168.0
 20
495.133974596
 30
0.0
 11
1171.105828541
 21
506.725084512
 31
0.0
  0
LINE
  8
0
  6
CONTINUOUS
 62
     2
 10
1168.0
 20
495.133974596
 30
0.0
 11
1164.894171459
 21
506.725084512
 31
0.0
  0
LINE
  8
0
  6
CONTINUOUS
 62
     2
 10
980.372118677
 20
495.133974596
 30
0.0
 11
1174.0
 21
495.133974596
 31
0.0
  0
LINE
  8
0
  6
CONTINUOUS
 62
     1
 10
906.04722658
 20
552.133974596
 30
0.0
 11
931.44722658
 21
552.133974596
 31
0.0
  0
LINE
  8
0
  6
CONTINUOUS
 62
     1
 10
793.74722658
 20
553.133974596
 30
0.0
 11
923.74722658
 21
553.133974596
 31
0.0
  0
LINE
  8
0
  6
CONTINUOUS
 62
     1
 10
923.74722658
 20
553.133974596
 30
0.0
 11
923.74722658
 21
559.133974596
 31
0.0
  0
LINE
  8
0
  6
CONTINUOUS
 62
     1
 10
793.74722658
 20
559.133974596
 30
0.0
 11
923.74722658
 21
559.133974596
 31
0.0
  0
LINE
  8
0
  6
CONTINUOUS
 62
     1
 10
793.74722658
 20
553.133974596
 30
0.0
 11
793.74722658
 21
559.133974596
 31
0.0
  0
LINE
  8
0
  6
CONTINUOUS
 62
     1
 10
811.44722658
 20
552.133974596
 30
0.0
 11
786.04722658
 21
552.133974596
 31
0.0
  0
LINE
  8
0
  6
LTYPE1
 62
     2
 10
513.59722658
 20
547.133974596
 30
0.0
 11
786.04722658
 21
547.133974596
 31
0.0
  0
LINE
  8
0
  6
LTYPE1
 62
     2
 10
685.59722658
 20
553.133974596
 30
0.0
 11
450.59722658
 21
553.133974596
 31
0.0
  0
LINE
  8
0
  6
LTYPE1
 62
     2
 10
685.59722658
 20
559.133974596
 30
0.0
 11
450.59722658
 21
559.133974596
 31
0.0
  0
LINE
  8
0
  6
LTYPE1
 62
     2
 10
685.09722658
 20
553.133974596
 30
0.0
 11
685.09722658
 21
548.533974596
 31
0.0
  0
LINE
  8
0
  6
LTYPE1
 62
     2
 10
670.09722658
 20
553.133974596
 30
0.0
 11
670.09722658
 21
548.533974596
 31
0.0
  0
LINE
  8
0
  6
LTYPE1
 62
     2
 10
673.79722658
 20
553.133974596
 30
0.0
 11
673.79722658
 21
548.533974596
 31
0.0
  0
LINE
  8
0
  6
LTYPE1
 62
     2
 10
681.39722658
 20
553.133974596
 30
0.0
 11
681.39722658
 21
548.533974596
 31
0.0
  0
ARC
  8
0
  6
LTYPE1
 62
     2
 10
671.89722658
 20
550.633974596
 30
0.0
 40
2.8
 50
228.5
 51
311.5
  0
ARC
  8
0
  6
LTYPE1
 62
     2
 10
677.59722658
 20
558.533974596
 30
0.0
 40
10.7
 50
249.1
 51
290.9
  0
ARC
  8
0
  6
LTYPE1
 62
     2
 10
683.29722658
 20
550.633974596
 30
0.0
 40
2.8
 50
228.5
 51
311.5
  0
LINE
  8
0
  6
LTYPE1
 62
     2
 10
677.59722658
 20
544.333974596
 30
0.0
 11
677.59722658
 21
556.133974596
 31
0.0
  0
LINE
  8
0
  6
LTYPE4
 62
     2
 10
677.59722658
 20
540.483974596
 30
0.0
 11
677.59722658
 21
564.783974596
 31
0.0
  0
LINE
  8
0
  6
LTYPE1
 62
     2
 10
683.29722658
 20
547.833974596
 30
0.0
 11
671.89722658
 21
547.833974596
 31
0.0
  0
LINE
  8
0
  6
LTYPE4
 62
     2
 10
648.122218677
 20
535.633974596
 30
0.0
 11
628.422218677
 21
535.633974596
 31
0.0
  0
LINE
  8
0
  6
LTYPE1
 62
     2
 10
641.922218677
 20
544.933974596
 30
0.0
 11
631.922218677
 21
544.933974596
 31
0.0
  0
LINE
  8
0
  6
LTYPE1
 62
     2
 10
641.922218677
 20
546.133974596
 30
0.0
 11
631.922218677
 21
546.133974596
 31
0.0
  0
LINE
  8
0
  6
LTYPE1
 62
     2
 10
641.922218677
 20
526.333974596
 30
0.0
 11
631.922218677
 21
526.333974596
 31
0.0
  0
LINE
  8
0
  6
LTYPE1
 62
     2
 10
641.922218677
 20
525.133974596
 30
0.0
 11
631.922218677
 21
525.133974596
 31
0.0
  0
LINE
  8
0
  6
CONTINUOUS
 62
     1
 10
641.922218677
 20
519.133974596
 30
0.0
 11
641.922218677
 21
557.633974596
 31
0.0
  0
LINE
  8
0
  6
LTYPE1
 62
     2
 10
481.59722658
 20
498.133974596
 30
0.0
 11
513.59722658
 21
498.133974596
 31
0.0
  0
LINE
  8
0
  6
LTYPE1
 62
     2
 10
513.59722658
 20
498.133974596
 30
0.0
 11
513.59722658
 21
551.133974596
 31
0.0
  0
LINE
  8
0
  6
CONTINUOUS
 62
     1
 10
500.09722658
 20
519.683974596
 30
0.0
 11
500.09722658
 21
503.683974596
 31
0.0
  0
LINE
  8
0
  6
CONTINUOUS
 62
     1
 10
513.59722658
 20
500.133974596
 30
0.0
 11
513.59722658
 21
522.133974596
 31
0.0
  0
LINE
  8
0
  6
CONTINUOUS
 62
     1
 10
546.94722658
 20
495.133974596
 30
0.0
 11
546.94722658
 21
527.133974596
 31
0.0
  0
LINE
  8
0
  6
LTYPE4
 62
     2
 10
534.59722658
 20
501.133974596
 30
0.0
 11
534.59722658
 21
521.133974596
 31
0.0
  0
CIRCLE
  8
0
  6
CONTINUOUS
 62
     2
 10
534.59722658
 20
511.133974596
 30
0.0
 40
5.0
  0
CIRCLE
  8
0
  6
CONTINUOUS
 62
     2
 10
534.59722658
 20
511.133974596
 30
0.0
 40
4.0
  0
LINE
  8
0
  6
CONTINUOUS
 62
     1
 10
555.59722658
 20
500.133974596
 30
0.0
 11
555.59722658
 21
522.133974596
 31
0.0
  0
LINE
  8
0
  6
CONTINUOUS
 62
     1
 10
522.24722658
 20
495.133974596
 30
0.0
 11
522.24722658
 21
527.133974596
 31
0.0
  0
LINE
  8
0
  6
CONTINUOUS
 62
     1
 10
500.09722658
 20
503.683974596
 30
0.0
 11
513.59722658
 21
503.683974596
 31
0.0
  0
LINE
  8
0
  6
CONTINUOUS
 62
     1
 10
513.59722658
 20
500.133974596
 30
0.0
 11
522.257480618
 21
495.133974596
 31
0.0
  0
LINE
  8
0
  6
CONTINUOUS
 62
     1
 10
522.24722658
 20
495.133974596
 30
0.0
 11
546.94722658
 21
495.133974596
 31
0.0
  0
LINE
  8
0
  6
CONTINUOUS
 62
     1
 10
555.59722658
 20
500.133974596
 30
0.0
 11
546.936972542
 21
495.133974596
 31
0.0
  0
LINE
  8
0
  6
CONTINUOUS
 62
     1
 10
500.09722658
 20
519.683974596
 30
0.0
 11
513.59722658
 21
519.683974596
 31
0.0
  0
LINE
  8
0
  6
LTYPE1
 62
     2
 10
481.59722658
 20
533.133974596
 30
0.0
 11
513.59722658
 21
533.133974596
 31
0.0
  0
LINE
  8
0
  6
CONTINUOUS
 62
     1
 10
513.59722658
 20
522.133974596
 30
0.0
 11
522.257480618
 21
527.133974596
 31
0.0
  0
LINE
  8
0
  6
CONTINUOUS
 62
     1
 10
522.24722658
 20
527.133974596
 30
0.0
 11
546.94722658
 21
527.133974596
 31
0.0
  0
LINE
  8
0
  6
CONTINUOUS
 62
     1
 10
555.59722658
 20
522.133974596
 30
0.0
 11
546.936972542
 21
527.133974596
 31
0.0
  0
LINE
  8
0
  6
CONTINUOUS
 62
     2
 10
481.922218677
 20
583.633974596
 30
0.0
 11
481.922218677
 21
407.633974596
 31
0.0
  0
LINE
  8
0
  6
LTYPE1
 62
     2
 10
481.59722658
 20
498.133974596
 30
0.0
 11
481.59722658
 21
551.133974596
 31
0.0
  0
ARC
  8
0
  6
LTYPE1
 62
     2
 10
481.45390938
 20
511.133974596
 30
0.0
 40
9.3566828
 50
148.419912243
 51
211.580087757
  0
LINE
  8
0
  6
LTYPE1
 62
     2
 10
479.09722658
 20
501.333974596
 30
0.0
 11
473.482867226
 21
501.333974596
 31
0.0
  0
LINE
  8
0
  6
LTYPE1
 62
     2
 10
472.09722658
 20
503.733974596
 30
0.0
 11
473.482867226
 21
501.333974596
 31
0.0
  0
LINE
  8
0
  6
LTYPE1
 62
     2
 10
479.09722658
 20
506.233974596
 30
0.0
 11
473.482867226
 21
506.233974596
 31
0.0
  0
ARC
  8
0
  6
LTYPE1
 62
     2
 10
474.955110413
 20
503.783974596
 30
0.0
 40
2.858321186
 50
121.002313915
 51
182.989498403
  0
LINE
  8
0
  6
LTYPE1
 62
     2
 10
479.09722658
 20
511.133974596
 30
0.0
 11
479.09722658
 21
501.333974596
 31
0.0
  0
LINE
  8
0
  6
LTYPE1
 62
     2
 10
481.59722658
 20
501.933974596
 30
0.0
 11
479.09722658
 21
501.933974596
 31
0.0
  0
LINE
  8
0
  6
LTYPE1
 62
     2
 10
472.09722658
 20
511.133974596
 30
0.0
 11
472.09722658
 21
503.733974596
 31
0.0
  0
LINE
  8
0
  6
LTYPE1
 62
     2
 10
463.59722658
 20
507.133974596
 30
0.0
 11
472.09722658
 21
507.133974596
 31
0.0
  0
LINE
  8
0
  6
LTYPE1
 62
     2
 10
463.59722658
 20
508.133974596
 30
0.0
 11
472.09722658
 21
508.133974596
 31
0.0
  0
LINE
  8
0
  6
LTYPE1
 62
     2
 10
481.59722658
 20
511.133974596
 30
0.0
 11
479.097226584
 21
508.6339746
 31
0.0
  0
LINE
  8
0
  6
LTYPE1
 62
     2
 10
479.09722658
 20
520.933974596
 30
0.0
 11
473.482867226
 21
520.933974596
 31
0.0
  0
LINE
  8
0
  6
LTYPE1
 62
     2
 10
472.09722658
 20
518.533974596
 30
0.0
 11
473.482867226
 21
520.933974596
 31
0.0
  0
LINE
  8
0
  6
LTYPE1
 62
     2
 10
472.09722658
 20
518.533974596
 30
0.0
 11
473.482867226
 21
520.933974596
 31
0.0
  0
LINE
  8
0
  6
LTYPE1
 62
     2
 10
472.09722658
 20
511.133974596
 30
0.0
 11
472.09722658
 21
518.533974596
 31
0.0
  0
LINE
  8
0
  6
LTYPE1
 62
     2
 10
479.09722658
 20
516.033974596
 30
0.0
 11
473.482867226
 21
516.033974596
 31
0.0
  0
ARC
  8
0
  6
LTYPE1
 62
     2
 10
474.955110413
 20
518.483974596
 30
0.0
 40
2.858321186
 50
177.010501597
 51
238.997686085
  0
LINE
  8
0
  6
LTYPE1
 62
     2
 10
463.59722658
 20
515.133974596
 30
0.0
 11
472.09722658
 21
515.133974596
 31
0.0
  0
LINE
  8
0
  6
LTYPE1
 62
     2
 10
463.59722658
 20
514.133974596
 30
0.0
 11
472.09722658
 21
514.133974596
 31
0.0
  0
LINE
  8
0
  6
LTYPE1
 62
     2
 10
481.59722658
 20
520.333974596
 30
0.0
 11
479.09722658
 21
520.333974596
 31
0.0
  0
LINE
  8
0
  6
LTYPE1
 62
     2
 10
479.09722658
 20
511.133974596
 30
0.0
 11
479.09722658
 21
520.933974596
 31
0.0
  0
LINE
  8
0
  6
LTYPE1
 62
     2
 10
479.097226584
 20
511.133974596
 30
0.0
 11
481.59722658
 21
513.633974592
 31
0.0
  0
LINE
  8
0
  6
LTYPE1
 62
     2
 10
513.59722658
 20
551.133974596
 30
0.0
 11
481.59722658
 21
551.133974596
 31
0.0
  0
LINE
  8
0
  6
LTYPE1
 62
     2
 10
513.59722658
 20
545.133974596
 30
0.0
 11
481.59722658
 21
545.133974596
 31
0.0
  0
LINE
  8
0
  6
LTYPE1
 62
     2
 10
481.59722658
 20
543.133974596
 30
0.0
 11
486.59722658
 21
543.133974596
 31
0.0
  0
LINE
  8
0
  6
LTYPE1
 62
     2
 10
481.59722658
 20
542.133974596
 30
0.0
 11
486.59722658
 21
542.133974596
 31
0.0
  0
LINE
  8
0
  6
LTYPE1
 62
     2
 10
481.59722658
 20
535.133974596
 30
0.0
 11
486.59722658
 21
535.133974596
 31
0.0
  0
LINE
  8
0
  6
LTYPE1
 62
     2
 10
481.59722658
 20
536.133974596
 30
0.0
 11
486.59722658
 21
536.133974596
 31
0.0
  0
LINE
  8
0
  6
LTYPE1
 62
     2
 10
486.59722658
 20
533.133974596
 30
0.0
 11
486.59722658
 21
545.133974596
 31
0.0
  0
LINE
  8
0
  6
LTYPE1
 62
     2
 10
463.59722658
 20
507.133974596
 30
0.0
 11
463.59722658
 21
515.133974596
 31
0.0
  0
LINE
  8
0
  6
LTYPE1
 62
     2
 10
450.59722658
 20
526.133974596
 30
0.0
 11
466.59722658
 21
526.133974596
 31
0.0
  0
LINE
  8
0
  6
LTYPE2
 62
     2
 10
469.59722658
 20
539.133974596
 30
0.0
 11
481.09722658
 21
539.133974596
 31
0.0
  0
LINE
  8
0
  6
LTYPE1
 62
     2
 10
474.09722658
 20
543.133974596
 30
0.0
 11
481.59722658
 21
543.133974596
 31
0.0
  0
LINE
  8
0
  6
LTYPE1
 62
     2
 10
474.09722658
 20
542.133974596
 30
0.0
 11
481.59722658
 21
542.133974596
 31
0.0
  0
LINE
  8
0
  6
LTYPE1
 62
     2
 10
466.59722658
 20
528.733974596
 30
0.0
 11
473.09722658
 21
528.733974596
 31
0.0
  0
ARC
  8
0
  6
LTYPE1
 62
     2
 10
470.19722658
 20
531.333974596
 30
0.0
 40
3.9
 50
317.9
 51
42.1
  0
LINE
  8
0
  6
LTYPE1
 62
     2
 10
466.59722658
 20
533.933974596
 30
0.0
 11
473.09722658
 21
533.933974596
 31
0.0
  0
LINE
  8
0
  6
LTYPE1
 62
     2
 10
474.09722658
 20
536.133974596
 30
0.0
 11
481.59722658
 21
536.133974596
 31
0.0
  0
LINE
  8
0
  6
LTYPE1
 62
     2
 10
474.09722658
 20
535.133974596
 30
0.0
 11
481.59722658
 21
535.133974596
 31
0.0
  0
LINE
  8
0
  6
LTYPE1
 62
     2
 10
466.59722658
 20
526.133974596
 30
0.0
 11
466.59722658
 21
553.133974596
 31
0.0
  0
LINE
  8
0
  6
LTYPE1
 62
     2
 10
466.59722658
 20
549.533974596
 30
0.0
 11
466.59722658
 21
528.733974596
 31
0.0
  0
ARC
  8
0
  6
LTYPE1
 62
     2
 10
460.09722658
 20
539.133974596
 30
0.0
 40
14.0
 50
338.2
 51
21.8
  0
LINE
  8
0
  6
LTYPE1
 62
     2
 10
474.09722658
 20
531.333974596
 30
0.0
 11
474.09722658
 21
546.933974596
 31
0.0
  0
LINE
  8
0
  6
LTYPE1
 62
     2
 10
466.59722658
 20
549.533974596
 30
0.0
 11
473.09722658
 21
549.533974596
 31
0.0
  0
ARC
  8
0
  6
LTYPE1
 62
     2
 10
470.19722658
 20
546.933974596
 30
0.0
 40
3.9
 50
317.9
 51
42.1
  0
LINE
  8
0
  6
LTYPE1
 62
     2
 10
473.09722658
 20
544.333974596
 30
0.0
 11
466.59722658
 21
544.333974596
 31
0.0
  0
LINE
  8
0
  6
LTYPE1
 62
     2
 10
462.34425658
 20
559.133974596
 30
0.0
 11
462.34425658
 21
563.574275194
 31
0.0
  0
LINE
  8
0
  6
LTYPE1
 62
     2
 10
466.09128658
 20
559.133974596
 30
0.0
 11
466.09128658
 21
563.574275194
 31
0.0
  0
ARC
  8
0
  6
LTYPE1
 62
     2
 10
458.59722658
 20
557.478819259
 30
0.0
 40
7.155055337
 50
58.419912243
 51
121.580087757
  0
LINE
  8
0
  6
LTYPE1
 62
     2
 10
464.25600658
 20
564.633874596
 30
0.0
 11
466.09128658
 21
563.574275194
 31
0.0
  0
LINE
  8
0
  6
LTYPE1
 62
     2
 10
458.59722658
 20
564.633874596
 30
0.0
 11
464.25600658
 21
564.633874596
 31
0.0
  0
LINE
  8
0
  6
LTYPE1
 62
     2
 10
464.25600658
 20
564.633874596
 30
0.0
 11
466.09128658
 21
563.574275194
 31
0.0
  0
ARC
  8
0
  6
LTYPE1
 62
     2
 10
464.21777158
 20
562.44845083
 30
0.0
 40
2.185758211
 50
87.010501597
 51
148.997686085
  0
LINE
  8
0
  6
LTYPE1
 62
     2
 10
458.59722658
 20
549.133974596
 30
0.0
 11
458.59722658
 21
565.133974596
 31
0.0
  0
LINE
  8
0
  6
LTYPE1
 62
     2
 10
458.59722658
 20
564.633874596
 30
0.0
 11
452.93844658
 21
564.633874596
 31
0.0
  0
ARC
  8
0
  6
LTYPE1
 62
     2
 10
452.97668158
 20
562.44845083
 30
0.0
 40
2.185758211
 50
31.002313915
 51
92.989498403
  0
LINE
  8
0
  6
LTYPE1
 62
     2
 10
454.85019658
 20
559.133974596
 30
0.0
 11
454.85019658
 21
563.574275194
 31
0.0
  0
LINE
  8
0
  6
LTYPE1
 62
     2
 10
448.09722658
 20
548.933974596
 30
0.0
 11
442.482867226
 21
548.933974596
 31
0.0
  0
LINE
  8
0
  6
LTYPE1
 62
     2
 10
448.09722658
 20
544.033974596
 30
0.0
 11
442.482867226
 21
544.033974596
 31
0.0
  0
LINE
  8
0
  6
LTYPE1
 62
     2
 10
448.09722658
 20
539.133974596
 30
0.0
 11
448.09722658
 21
548.933974596
 31
0.0
  0
LINE
  8
0
  6
LTYPE1
 62
     2
 10
450.59722658
 20
548.333974596
 30
0.0
 11
448.09722658
 21
548.333974596
 31
0.0
  0
LINE
  8
0
  6
LTYPE1
 62
     2
 10
448.097226584
 20
539.133974596
 30
0.0
 11
450.59722658
 21
541.633974592
 31
0.0
  0
LINE
  8
0
  6
LTYPE1
 62
     2
 10
448.09722658
 20
529.333974596
 30
0.0
 11
442.482867226
 21
529.333974596
 31
0.0
  0
LINE
  8
0
  6
LTYPE1
 62
     2
 10
448.09722658
 20
534.233974596
 30
0.0
 11
442.482867226
 21
534.233974596
 31
0.0
  0
LINE
  8
0
  6
LTYPE1
 62
     2
 10
448.09722658
 20
539.133974596
 30
0.0
 11
448.09722658
 21
529.333974596
 31
0.0
  0
LINE
  8
0
  6
LTYPE1
 62
     2
 10
450.59722658
 20
539.133974596
 30
0.0
 11
448.097226584
 21
536.6339746
 31
0.0
  0
LINE
  8
0
  6
LTYPE1
 62
     2
 10
450.59722658
 20
529.933974596
 30
0.0
 11
448.09722658
 21
529.933974596
 31
0.0
  0
LINE
  8
0
  6
LTYPE1
 62
     2
 10
441.09722658
 20
539.133974596
 30
0.0
 11
441.09722658
 21
546.533974596
 31
0.0
  0
LINE
  8
0
  6
LTYPE1
 62
     2
 10
441.09722658
 20
546.533974596
 30
0.0
 11
442.482867226
 21
548.933974596
 31
0.0
  0
LINE
  8
0
  6
LTYPE1
 62
     2
 10
441.09722658
 20
546.533974596
 30
0.0
 11
442.482867226
 21
548.933974596
 31
0.0
  0
ARC
  8
0
  6
LTYPE1
 62
     2
 10
443.955110413
 20
546.483974596
 30
0.0
 40
2.858321186
 50
177.010501597
 51
238.997686085
  0
LINE
  8
0
  6
LTYPE1
 62
     2
 10
436.59722658
 20
543.133974596
 30
0.0
 11
441.09722658
 21
543.133974596
 31
0.0
  0
LINE
  8
0
  6
LTYPE1
 62
     2
 10
436.59722658
 20
542.133974596
 30
0.0
 11
441.09722658
 21
542.133974596
 31
0.0
  0
LINE
  8
0
  6
LTYPE1
 62
     2
 10
441.09722658
 20
531.733974596
 30
0.0
 11
442.482867226
 21
529.333974596
 31
0.0
  0
LINE
  8
0
  6
LTYPE1
 62
     2
 10
441.09722658
 20
539.133974596
 30
0.0
 11
441.09722658
 21
531.733974596
 31
0.0
  0
ARC
  8
0
  6
LTYPE1
 62
     2
 10
443.955110413
 20
531.783974596
 30
0.0
 40
2.858321186
 50
121.002313915
 51
182.989498403
  0
LINE
  8
0
  6
LTYPE1
 62
     2
 10
436.59722658
 20
535.133974596
 30
0.0
 11
441.09722658
 21
535.133974596
 31
0.0
  0
LINE
  8
0
  6
LTYPE1
 62
     2
 10
436.59722658
 20
536.133974596
 30
0.0
 11
441.09722658
 21
536.133974596
 31
0.0
  0
ARC
  8
0
  6
LTYPE1
 62
     2
 10
450.45390938
 20
539.133974596
 30
0.0
 40
9.3566828
 50
148.419912243
 51
211.580087757
  0
LINE
  8
0
  6
LTYPE1
 62
     2
 10
436.59722658
 20
535.133974596
 30
0.0
 11
436.59722658
 21
543.133974596
 31
0.0
  0
LINE
  8
0
  6
LTYPE1
 62
     2
 10
450.59722658
 20
526.133974596
 30
0.0
 11
450.59722658
 21
559.133974596
 31
0.0
  0
LINE
  8
0
  6
LTYPE1
 62
     2
 10
452.93844658
 20
564.633874596
 30
0.0
 11
451.10316658
 21
563.574275194
 31
0.0
  0
LINE
  8
0
  6
LTYPE1
 62
     2
 10
451.10316658
 20
559.133974596
 30
0.0
 11
451.10316658
 21
563.574275194
 31
0.0
  0
LINE
  8
0
  6
LTYPE5
 62
     2
 10
503.064725201
 20
542.733974596
 30
0.0
 11
503.064725201
 21
556.133974596
 31
0.0
  0
LINE
  8
0
  6
CONTINUOUS
 62
     2
 10
648.822218677
 20
584.583974596
 30
0.0
 11
648.822218677
 21
673.683974596
 31
0.0
  0
LINE
  8
0
  6
CONTINUOUS
 62
     2
 10
648.822218677
 20
673.683974596
 30
0.0
 11
645.586980613
 21
661.609901768
 31
0.0
  0
LINE
  8
0
  6
CONTINUOUS
 62
     2
 10
648.822218677
 20
673.683974596
 30
0.0
 11
652.05745674
 21
661.609901768
 31
0.0
  0
TEXT
  8
0
  6
CONTINUOUS
 62
     2
 10
643.822218677
 20
606.633974596
 30
0.0
 40
18.0
  1
φ８９
 50
90.0
 41
0.9
 51
0.0
  7
KANJI17
  0
LINE
  8
0
  6
CONTINUOUS
 62
     2
 10
648.822218677
 20
584.583974596
 30
0.0
 11
652.05745674
 21
596.658047425
 31
0.0
  0
LINE
  8
0
  6
CONTINUOUS
 62
     2
 10
648.822218677
 20
584.583974596
 30
0.0
 11
645.586980613
 21
596.658047425
 31
0.0
  0
TEXT
  8
0
  6
CONTINUOUS
 62
     2
 10
320.632591263
 20
343.371507451
 30
0.0
 40
20.0
  1
推力リミッタの作動値は、約２３００ｋｇ（設計値）
 50
0.0
 41
0.925
 51
0.0
  7
KANJI46
  0
LINE
  8
0
  6
CONTINUOUS
 62
     2
 10
318.632591263
 20
335.371507451
 30
0.0
 11
757.92
 21
335.371507451
 31
0.0
  0
LINE
  8
0
  6
CONTINUOUS
 62
     1
 10
842.74722658
 20
222.233974596
 30
0.0
 11
874.74722658
 21
222.233974596
 31
0.0
  0
LINE
  8
0
  6
CONTINUOUS
 62
     1
 10
842.74722658
 20
190.233974596
 30
0.0
 11
842.74722658
 21
222.233974596
 31
0.0
  0
ARC
  8
0
  6
CONTINUOUS
 62
     1
 10
803.74722658
 20
278.733974596
 30
0.0
 40
10.0
 50
90.0
 51
180.0
  0
LINE
  8
0
  6
CONTINUOUS
 62
     1
 10
803.74722658
 20
288.733974596
 30
0.0
 11
913.74722658
 21
288.733974596
 31
0.0
  0
LINE
  8
0
  6
LTYPE2
 62
     2
 10
925.008247797
 20
264.233974596
 30
0.0
 11
833.74722658
 21
264.233974596
 31
0.0
  0
LINE
  8
7
  6
CONTINUOUS
 62
     2
 10
837.34722658
 20
264.233974596
 30
0.0
 11
829.038748691
 21
258.668977277
 31
0.0
  0
LINE
  8
7
  6
CONTINUOUS
 62
     2
 10
837.34722658
 20
264.233974596
 30
0.0
 11
832.93437232
 21
255.260306601
 31
0.0
  0
LINE
  8
7
  6
CONTINUOUS
 62
     2
 10
837.34722658
 20
264.233974596
 30
0.0
 11
826.14722658
 21
251.433974596
 31
0.0
  0
LINE
  8
7
  6
CONTINUOUS
 62
     2
 10
826.14722658
 20
251.433974596
 30
0.0
 11
767.34722658
 21
251.433974596
 31
0.0
  0
TEXT
  8
7
  6
CONTINUOUS
 62
     2
 10
767.34722658
 20
255.433974596
 30
1.2
 40
12.0
  1
ＰＦ１／２
 50
0.0
 41
0.9
 51
0.0
  7
KANJI47
  0
LINE
  8
0
  6
CONTINUOUS
 62
     1
 10
793.74722658
 20
268.433974596
 30
0.0
 11
793.74722658
 21
278.733974596
 31
0.0
  0
LINE
  8
0
  6
CONTINUOUS
 62
     1
 10
793.74722658
 20
214.233974596
 30
0.0
 11
793.74722658
 21
248.433974596
 31
0.0
  0
LINE
  8
0
  6
LTYPE2
 62
     2
 10
848.78722658
 20
279.333974596
 30
0.0
 11
837.34722658
 21
279.333974596
 31
0.0
  0
LINE
  8
0
  6
LTYPE2
 62
     2
 10
842.34722658
 20
283.233974596
 30
0.0
 11
842.34722658
 21
274.253974596
 31
0.0
  0
LINE
  8
0
  6
CONTINUOUS
 62
     1
 10
904.04722658
 20
284.233974596
 30
0.0
 11
839.34722658
 21
284.233974596
 31
0.0
  0
LINE
  8
0
  6
CONTINUOUS
 62
     1
 10
837.34722658
 20
282.233974596
 30
0.0
 11
837.34722658
 21
246.233974596
 31
0.0
  0
ARC
  8
0
  6
CONTINUOUS
 62
     1
 10
839.34722658
 20
282.233974596
 30
0.0
 40
2.0
 50
90.0
 51
180.0
  0
LINE
  8
0
  6
LTYPE2
 62
     2
 10
848.24722658
 20
249.133974596
 30
0.0
 11
837.34722658
 21
249.133974596
 31
0.0
  0
LINE
  8
0
  6
LTYPE2
 62
     2
 10
842.34722658
 20
255.153974596
 30
0.0
 11
842.34722658
 21
245.233974596
 31
0.0
  0
LINE
  8
0
  6
CONTINUOUS
 62
     1
 10
904.04722658
 20
244.233974596
 30
0.0
 11
839.34722658
 21
244.233974596
 31
0.0
  0
ARC
  8
0
  6
CONTINUOUS
 62
     1
 10
839.34722658
 20
246.233974596
 30
0.0
 40
2.0
 50
180.0
 51
270.0
  0
LINE
  8
0
  6
CONTINUOUS
 62
     2
 10
797.74722658
 20
288.733974596
 30
0.0
 11
736.564725201
 21
288.733974596
 31
0.0
  0
LINE
  8
0
  6
CONTINUOUS
 62
     2
 10
742.564725201
 20
288.733974596
 30
0.0
 11
739.45889666
 21
277.142864681
 31
0.0
  0
LINE
  8
0
  6
CONTINUOUS
 62
     2
 10
742.564725201
 20
288.733974596
 30
0.0
 11
745.670553742
 21
277.142864681
 31
0.0
  0
LINE
  8
0
  6
CONTINUOUS
 62
     2
 10
742.564725201
 20
288.733974596
 30
0.0
 11
742.564725201
 21
123.733974596
 31
0.0
  0
TEXT
  8
0
  6
CONTINUOUS
 62
     3
 10
739.564725201
 20
181.933974596
 30
0.0
 40
18.0
  1
１６５
 50
90.0
 41
0.9
 51
0.0
  7
KANJI17
  0
LINE
  8
0
  6
CONTINUOUS
 62
     1
 10
874.74722658
 20
190.233974596
 30
0.0
 11
842.74722658
 21
190.233974596
 31
0.0
  0
ARC
  8
0
  6
CONTINUOUS
 62
     1
 10
801.74722658
 20
186.233974596
 30
0.0
 40
4.0
 50
356.983042101
 51
183.016952287
  0
ARC
  8
0
  6
CONTINUOUS
 62
     1
 10
801.74722658
 20
186.233974596
 30
0.0
 40
8.75
 50
300.219855722
 51
239.780144278
  0
LINE
  8
0
  6
LTYPE2
 62
     2
 10
801.74722658
 20
139.133974596
 30
0.0
 11
801.74722658
 21
196.633974596
 31
0.0
  0
LINE
  8
0
  6
CONTINUOUS
 62
     1
 10
793.74722658
 20
198.233974596
 30
0.0
 11
793.74722658
 21
189.778336316
 31
0.0
  0
LINE
  8
0
  6
CONTINUOUS
 62
     1
 10
777.368169564
 20
198.233974596
 30
0.0
 11
842.74722658
 21
198.233974596
 31
0.0
  0
LINE
  8
0
  6
CONTINUOUS
 62
     1
 10
842.74722658
 20
214.233974596
 30
0.0
 11
777.437804543
 21
214.233974596
 31
0.0
  0
ARC
  8
0
  6
CONTINUOUS
 62
     1
 10
782.992695158
 20
210.233974596
 30
0.0
 40
6.845203412
 50
144.242860688
 51
215.757139312
  0
ARC
  8
0
  6
CONTINUOUS
 62
     1
 10
771.882913928
 20
210.233974596
 30
0.0
 40
6.845203412
 50
324.242860688
 51
35.757139312
  0
ARC
  8
0
  6
CONTINUOUS
 62
     1
 10
771.882913928
 20
202.233974596
 30
0.0
 40
6.845203412
 50
324.242860688
 51
35.757139312
  0
LINE
  8
0
  6
LTYPE4
 62
     2
 10
1007.24722658
 20
206.233974596
 30
0.0
 11
772.402987053
 21
206.233974596
 31
0.0
  0
LINE
  8
0
  6
CONTINUOUS
 62
     1
 10
923.74722658
 20
276.933974596
 30
0.0
 11
923.74722658
 21
278.733974596
 31
0.0
  0
ARC
  8
0
  6
CONTINUOUS
 62
     1
 10
913.74722658
 20
278.733974596
 30
0.0
 40
10.0
 50
0.0
 51
90.0
  0
LINE
  8
0
  6
CONTINUOUS
 62
     1
 10
874.74722658
 20
190.233974596
 30
0.0
 11
874.74722658
 21
222.233974596
 31
0.0
  0
LINE
  8
0
  6
CONTINUOUS
 62
     1
 10
923.74722658
 20
229.778336316
 30
0.0
 11
923.74722658
 21
251.583974596
 31
0.0
  0
LINE
  8
0
  6
CONTINUOUS
 62
     1
 10
923.74722658
 20
214.233974596
 30
0.0
 11
923.74722658
 21
222.689612877
 31
0.0
  0
LINE
  8
0
  6
LTYPE2
 62
     2
 10
906.04722658
 20
279.333974596
 30
0.0
 11
896.08722658
 21
279.333974596
 31
0.0
  0
LINE
  8
0
  6
LTYPE2
 62
     2
 10
901.04722658
 20
283.233974596
 30
0.0
 11
901.04722658
 21
275.353974596
 31
0.0
  0
ARC
  8
0
  6
CONTINUOUS
 62
     1
 10
904.04722658
 20
282.233974596
 30
0.0
 40
2.0
 50
0.0
 51
90.0
  0
LINE
  8
0
  6
CONTINUOUS
 62
     1
 10
929.44722658
 20
276.933974596
 30
0.0
 11
906.04722658
 21
276.933974596
 31
0.0
  0
LINE
  8
0
  6
CONTINUOUS
 62
     1
 10
906.04722658
 20
282.233974596
 30
0.0
 11
906.04722658
 21
246.233974596
 31
0.0
  0
LINE
  8
0
  6
LTYPE2
 62
     2
 10
906.04722658
 20
249.133974596
 30
0.0
 11
896.24722658
 21
249.133974596
 31
0.0
  0
LINE
  8
0
  6
LTYPE2
 62
     2
 10
901.04722658
 20
255.253974596
 30
0.0
 11
901.04722658
 21
245.233974596
 31
0.0
  0
ARC
  8
0
  6
CONTINUOUS
 62
     1
 10
904.04722658
 20
246.233974596
 30
0.0
 40
2.0
 50
270.0
 51
0.0
  0
LINE
  8
0
  6
CONTINUOUS
 62
     1
 10
910.408247797
 20
251.533974596
 30
0.0
 11
906.04722658
 21
251.533974596
 31
0.0
  0
ARC
  8
0
  6
CONTINUOUS
 62
     1
 10
929.44722658
 20
274.933974596
 30
0.0
 40
2.0
 50
0.0
 51
90.0
  0
LINE
  8
0
  6
CONTINUOUS
 62
     1
 10
931.44722658
 20
274.933974596
 30
0.0
 11
931.44722658
 21
253.533974596
 31
0.0
  0
ARC
  8
0
  6
CONTINUOUS
 62
     1
 10
915.74722658
 20
264.233974596
 30
0.0
 40
6.0
 50
356.983045121
 51
183.016954879
  0
LINE
  8
0
  6
LTYPE2
 62
     2
 10
915.74722658
 20
273.333974596
 30
0.0
 11
915.74722658
 21
215.833974596
 31
0.0
  0
LINE
  8
0
  6
CONTINUOUS
 62
     1
 10
921.738910568
 20
263.918185123
 30
0.0
 11
919.741682572
 21
226.02344828
 31
0.0
  0
LINE
  8
0
  6
CONTINUOUS
 62
     1
 10
909.755542593
 20
263.918185123
 30
0.0
 11
911.752770588
 21
226.02344828
 31
0.0
  0
ARC
  8
0
  6
CONTINUOUS
 62
     1
 10
929.44722658
 20
253.533974596
 30
0.0
 40
2.0
 50
270.0
 51
0.0
  0
LINE
  8
0
  6
CONTINUOUS
 62
     1
 10
929.44722658
 20
251.533974596
 30
0.0
 11
921.086205363
 21
251.533974596
 31
0.0
  0
LINE
  8
0
  6
LTYPE2
 62
     2
 10
904.74722658
 20
226.233974596
 30
0.0
 11
927.74722658
 21
226.233974596
 31
0.0
  0
ARC
  8
0
  6
CONTINUOUS
 62
     1
 10
915.74722658
 20
226.233974596
 30
0.0
 40
8.75
 50
120.219855722
 51
59.780144278
  0
ARC
  8
0
  6
CONTINUOUS
 62
     1
 10
915.74722658
 20
226.233974596
 30
0.0
 40
4.0
 50
176.983042101
 51
3.016952287
  0
LINE
  8
0
  6
CONTINUOUS
 62
     2
 10
1013.42222658
 20
335.483974596
 30
0.0
 11
1013.42222658
 21
165.733974596
 31
0.0
  0
LINE
  8
0
  6
CONTINUOUS
 62
     2
 10
1013.42222658
 20
165.733974596
 30
0.0
 11
1052.42222658
 21
165.733974596
 31
0.0
  0
LINE
  8
0
  6
LTYPE2
 62
     2
 10
811.44722658
 20
133.133974596
 30
0.0
 11
821.40722658
 21
133.133974596
 31
0.0
  0
LINE
  8
0
  6
LTYPE2
 62
     2
 10
816.44722658
 20
129.233974596
 30
0.0
 11
816.44722658
 21
137.113974596
 31
0.0
  0
LINE
  8
0
  6
LTYPE2
 62
     2
 10
811.44722658
 20
163.333974596
 30
0.0
 11
821.24722658
 21
163.333974596
 31
0.0
  0
LINE
  8
0
  6
LTYPE2
 62
     2
 10
816.44722658
 20
157.213974596
 30
0.0
 11
816.44722658
 21
167.233974596
 31
0.0
  0
LINE
  8
0
  6
LTYPE2
 62
     2
 10
812.74722658
 20
186.233974596
 30
0.0
 11
789.74722658
 21
186.233974596
 31
0.0
  0
ARC
  8
0
  6
CONTINUOUS
 62
     1
 10
813.44722658
 20
130.233974596
 30
0.0
 40
2.0
 50
180.0
 51
270.0
  0
LINE
  8
0
  6
CONTINUOUS
 62
     1
 10
788.04722658
 20
135.533974596
 30
0.0
 11
811.44722658
 21
135.533974596
 31
0.0
  0
ARC
  8
0
  6
CONTINUOUS
 62
     1
 10
788.04722658
 20
137.533974596
 30
0.0
 40
2.0
 50
180.0
 51
270.0
  0
LINE
  8
0
  6
CONTINUOUS
 62
     1
 10
786.04722658
 20
137.533974596
 30
0.0
 11
786.04722658
 21
158.933974596
 31
0.0
  0
ARC
  8
0
  6
CONTINUOUS
 62
     1
 10
788.04722658
 20
158.933974596
 30
0.0
 40
2.0
 50
90.0
 51
180.0
  0
LINE
  8
0
  6
CONTINUOUS
 62
     1
 10
811.44722658
 20
130.233974596
 30
0.0
 11
811.44722658
 21
166.233974596
 31
0.0
  0
ARC
  8
0
  6
CONTINUOUS
 62
     1
 10
813.44722658
 20
166.233974596
 30
0.0
 40
2.0
 50
90.0
 51
180.0
  0
LINE
  8
0
  6
CONTINUOUS
 62
     1
 10
813.44722658
 20
168.233974596
 30
0.0
 11
878.14722658
 21
168.233974596
 31
0.0
  0
LINE
  8
0
  6
CONTINUOUS
 62
     1
 10
813.44722658
 20
128.233974596
 30
0.0
 11
878.14722658
 21
128.233974596
 31
0.0
  0
LINE
  8
0
  6
CONTINUOUS
 62
     1
 10
793.74722658
 20
135.533974596
 30
0.0
 11
793.74722658
 21
133.733974596
 31
0.0
  0
LINE
  8
0
  6
CONTINUOUS
 62
     1
 10
913.74722658
 20
123.733974596
 30
0.0
 11
803.74722658
 21
123.733974596
 31
0.0
  0
ARC
  8
0
  6
CONTINUOUS
 62
     1
 10
803.74722658
 20
133.733974596
 30
0.0
 40
10.0
 50
180.0
 51
270.0
  0
LINE
  8
0
  6
CONTINUOUS
 62
     1
 10
795.755542593
 20
148.54976407
 30
0.0
 11
797.752770588
 21
186.444500912
 31
0.0
  0
LINE
  8
0
  6
CONTINUOUS
 62
     1
 10
807.738910568
 20
148.54976407
 30
0.0
 11
805.741682572
 21
186.444500912
 31
0.0
  0
ARC
  8
0
  6
CONTINUOUS
 62
     1
 10
801.74722658
 20
148.233974596
 30
0.0
 40
6.0
 50
176.983045121
 51
3.016954879
  0
LINE
  8
0
  6
CONTINUOUS
 62
     1
 10
807.086205363
 20
160.933974596
 30
0.0
 11
811.44722658
 21
160.933974596
 31
0.0
  0
LINE
  8
0
  6
CONTINUOUS
 62
     1
 10
788.04722658
 20
160.933974596
 30
0.0
 11
796.408247797
 21
160.933974596
 31
0.0
  0
LINE
  8
0
  6
LTYPE2
 62
     2
 10
792.486205363
 20
148.233974596
 30
0.0
 11
883.74722658
 21
148.233974596
 31
0.0
  0
LINE
  8
0
  6
CONTINUOUS
 62
     1
 10
793.74722658
 20
182.689612877
 30
0.0
 11
793.74722658
 21
160.883974596
 31
0.0
  0
LINE
  8
0
  6
LTYPE2
 62
     2
 10
869.24722658
 20
163.333974596
 30
0.0
 11
880.14722658
 21
163.333974596
 31
0.0
  0
LINE
  8
0
  6
LTYPE2
 62
     2
 10
875.14722658
 20
157.313974596
 30
0.0
 11
875.14722658
 21
167.233974596
 31
0.0
  0
LINE
  8
0
  6
LTYPE2
 62
     2
 10
868.70722658
 20
133.133974596
 30
0.0
 11
880.14722658
 21
133.133974596
 31
0.0
  0
LINE
  8
0
  6
LTYPE2
 62
     2
 10
875.14722658
 20
129.233974596
 30
0.0
 11
875.14722658
 21
138.213974596
 31
0.0
  0
ARC
  8
0
  6
CONTINUOUS
 62
     1
 10
878.14722658
 20
166.233974596
 30
0.0
 40
2.0
 50
0.0
 51
90.0
  0
LINE
  8
0
  6
CONTINUOUS
 62
     1
 10
880.14722658
 20
130.233974596
 30
0.0
 11
880.14722658
 21
166.233974596
 31
0.0
  0
ARC
  8
0
  6
CONTINUOUS
 62
     1
 10
878.14722658
 20
130.233974596
 30
0.0
 40
2.0
 50
270.0
 51
0.0
  0
ARC
  8
0
  6
CONTINUOUS
 62
     1
 10
913.74722658
 20
133.733974596
 30
0.0
 40
10.0
 50
270.0
 51
0.0
  0
LINE
  8
0
  6
LTYPE4
 62
     2
 10
955.24722658
 20
196.233974596
 30
0.0
 11
955.24722658
 21
216.233974596
 31
0.0
  0
CIRCLE
  8
0
  6
CONTINUOUS
 62
     2
 10
955.24722658
 20
206.233974596
 30
0.0
 40
5.0
  0
CIRCLE
  8
0
  6
CONTINUOUS
 62
     2
 10
955.24722658
 20
206.233974596
 30
0.0
 40
4.0
  0
LINE
  8
7
  6
CONTINUOUS
 62
     2
 10
880.14722658
 20
148.233974596
 30
0.0
 11
888.514534165
 21
153.710119571
 31
0.0
  0
LINE
  8
7
  6
CONTINUOUS
 62
     2
 10
880.14722658
 20
148.233974596
 30
0.0
 11
884.655455023
 21
157.160109051
 31
0.0
  0
LINE
  8
7
  6
CONTINUOUS
 62
     2
 10
880.14722658
 20
148.233974596
 30
0.0
 11
892.79722658
 21
162.383974596
 31
0.0
  0
LINE
  8
7
  6
CONTINUOUS
 62
     2
 10
892.79722658
 20
162.383974596
 30
0.0
 11
951.59722658
 21
162.383974596
 31
0.0
  0
TEXT
  8
7
  6
CONTINUOUS
 62
     2
 10
892.79722658
 20
166.383974596
 30
1.2
 40
12.0
  1
ＰＦ１／２
 50
0.0
 41
0.9
 51
0.0
  7
KANJI47
  0
LINE
  8
0
  6
CONTINUOUS
 62
     1
 10
923.74722658
 20
159.433974596
 30
0.0
 11
923.74722658
 21
133.733974596
 31
0.0
  0
LINE
  8
0
  6
CONTINUOUS
 62
     2
 10
742.564725201
 20
123.733974596
 30
0.0
 11
745.670553742
 21
135.325084512
 31
0.0
  0
LINE
  8
0
  6
CONTINUOUS
 62
     2
 10
742.564725201
 20
123.733974596
 30
0.0
 11
739.45889666
 21
135.325084512
 31
0.0
  0
LINE
  8
0
  6
CONTINUOUS
 62
     2
 10
797.74723737
 20
123.733974596
 30
0.0
 11
736.564725201
 21
123.733974596
 31
0.0
  0
LINE
  8
0
  6
CONTINUOUS
 62
     2
 10
793.74722658
 20
129.533974596
 30
0.0
 11
793.74722658
 21
84.733974596
 31
0.0
  0
LINE
  8
0
  6
CONTINUOUS
 62
     2
 10
923.74722658
 20
127.733984689
 30
0.0
 11
923.74722658
 21
84.733974596
 31
0.0
  0
TEXT
  8
0
  6
CONTINUOUS
 62
     3
 10
834.44722658
 20
93.733974596
 30
0.0
 40
18.0
  1
１３０
 50
0.0
 41
0.9
 51
0.0
  7
KANJI17
  0
ARC
  8
0
  6
CONTINUOUS
 62
     1
 10
997.001758002
 20
210.233974596
 30
0.0
 40
6.845203412
 50
324.242860688
 51
35.757139312
  0
ARC
  8
0
  6
CONTINUOUS
 62
     1
 10
1008.111539233
 20
210.233974596
 30
0.0
 40
6.845203412
 50
144.242860688
 51
215.757139312
  0
ARC
  8
0
  6
CONTINUOUS
 62
     1
 10
1008.111539233
 20
202.233974596
 30
0.0
 40
6.845203412
 50
144.242860688
 51
215.757139312
  0
LINE
  8
0
  6
CONTINUOUS
 62
     2
 10
793.74722658
 20
90.733974596
 30
0.0
 11
805.338336496
 21
87.628146055
 31
0.0
  0
LINE
  8
0
  6
CONTINUOUS
 62
     2
 10
793.74722658
 20
90.733974596
 30
0.0
 11
805.338336496
 21
93.839803137
 31
0.0
  0
LINE
  8
0
  6
CONTINUOUS
 62
     2
 10
793.74722658
 20
90.733974596
 30
0.0
 11
923.74722658
 21
90.733974596
 31
0.0
  0
LINE
  8
0
  6
CONTINUOUS
 62
     2
 10
923.74722658
 20
90.733974596
 30
0.0
 11
912.156116665
 21
93.839803137
 31
0.0
  0
LINE
  8
0
  6
CONTINUOUS
 62
     2
 10
923.74722658
 20
90.733974596
 30
0.0
 11
912.156116665
 21
87.628146055
 31
0.0
  0
LINE
  8
0
  6
CONTINUOUS
 62
     1
 10
1069.04722658
 20
274.233974596
 30
0.0
 11
1069.04722658
 21
209.533974596
 31
0.0
  0
LINE
  8
0
  6
CONTINUOUS
 62
     1
 10
1071.04722658
 20
207.533974596
 30
0.0
 11
1107.04722658
 21
207.533974596
 31
0.0
  0
ARC
  8
0
  6
CONTINUOUS
 62
     1
 10
1071.04722658
 20
209.533974596
 30
0.0
 40
2.0
 50
180.0
 51
270.0
  0
LINE
  8
0
  6
CONTINUOUS
 62
     1
 10
1109.04722658
 20
274.233974596
 30
0.0
 11
1109.04722658
 21
209.533974596
 31
0.0
  0
ARC
  8
0
  6
CONTINUOUS
 62
     1
 10
1107.04722658
 20
209.533974596
 30
0.0
 40
2.0
 50
270.0
 51
0.0
  0
ARC
  8
0
  6
CONTINUOUS
 62
     1
 10
1071.04722658
 20
274.233974596
 30
0.0
 40
2.0
 50
90.0
 51
180.0
  0
LINE
  8
0
  6
CONTINUOUS
 62
     1
 10
1076.34722658
 20
299.633974596
 30
0.0
 11
1076.34722658
 21
276.233974596
 31
0.0
  0
LINE
  8
0
  6
CONTINUOUS
 62
     1
 10
1071.04722658
 20
276.233974596
 30
0.0
 11
1107.04722658
 21
276.233974596
 31
0.0
  0
ARC
  8
0
  6
CONTINUOUS
 62
     1
 10
1107.04722658
 20
274.233974596
 30
0.0
 40
2.0
 50
0.0
 51
90.0
  0
ARC
  8
0
  6
CONTINUOUS
 62
     1
 10
1078.34722658
 20
299.633974596
 30
0.0
 40
2.0
 50
90.0
 51
180.0
  0
ARC
  8
0
  6
CONTINUOUS
 62
     1
 10
1089.04722658
 20
285.933974596
 30
0.0
 40
6.0
 50
131.983045121
 51
318.016954879
  0
LINE
  8
0
  6
LTYPE2
 62
     2
 10
1082.612554871
 20
279.499302887
 30
0.0
 11
1123.27119479
 21
320.157942806
 31
0.0
  0
LINE
  8
0
  6
CONTINUOUS
 62
     1
 10
1085.03376308
 20
290.394031853
 30
0.0
 11
1113.241641932
 21
315.777403786
 31
0.0
  0
LINE
  8
0
  6
CONTINUOUS
 62
     1
 10
1093.507283837
 20
281.920511096
 30
0.0
 11
1118.89065577
 21
310.128389948
 31
0.0
  0
LINE
  8
0
  6
LTYPE2
 62
     2
 10
1123.695458858
 20
305.025857688
 30
0.0
 11
1107.432002891
 21
321.289313656
 31
0.0
  0
ARC
  8
0
  6
CONTINUOUS
 62
     1
 10
1115.917284265
 20
312.804032281
 30
0.0
 40
8.75
 50
255.219855722
 51
194.780144278
  0
ARC
  8
0
  6
CONTINUOUS
 62
     1
 10
1115.917284265
 20
312.804032281
 30
0.0
 40
4.0
 50
311.983042101
 51
138.016952287
  0
LINE
  8
0
  6
CONTINUOUS
 62
     1
 10
1101.74722658
 20
291.077344446
 30
0.0
 11
1101.74722658
 21
276.233974596
 31
0.0
  0
LINE
  8
0
  6
CONTINUOUS
 62
     1
 10
1078.34722658
 20
301.633974596
 30
0.0
 11
1097.524418145
 21
301.633974596
 31
0.0
  0
LINE
  8
0
  6
LTYPE4
 62
     2
 10
1074.17222658
 20
252.733974596
 30
0.0
 11
1104.17222658
 21
252.733974596
 31
0.0
  0
LINE
  8
0
  6
LTYPE4
 62
     2
 10
1104.17222658
 20
252.733974596
 30
0.0
 11
1104.17222658
 21
262.233974596
 31
0.0
  0
LINE
  8
0
  6
LTYPE4
 62
     2
 10
1104.17222658
 20
262.233974596
 30
0.0
 11
1074.17222658
 21
262.233974596
 31
0.0
  0
LINE
  8
0
  6
LTYPE4
 62
     2
 10
1074.17222658
 20
262.233974596
 30
0.0
 11
1074.17222658
 21
252.733974596
 31
0.0
  0
LINE
  8
0
  6
CONTINUOUS
 62
     1
 10
1074.17222658
 20
222.733974596
 30
0.0
 11
1104.17222658
 21
222.733974596
 31
0.0
  0
LINE
  8
0
  6
CONTINUOUS
 62
     1
 10
1104.17222658
 20
222.733974596
 30
0.0
 11
1104.17222658
 21
232.233974596
 31
0.0
  0
LINE
  8
0
  6
CONTINUOUS
 62
     1
 10
1104.17222658
 20
232.233974596
 30
0.0
 11
1074.17222658
 21
232.233974596
 31
0.0
  0
LINE
  8
0
  6
CONTINUOUS
 62
     1
 10
1074.17222658
 20
232.233974596
 30
0.0
 11
1074.17222658
 21
222.733974596
 31
0.0
  0
TEXT
  8
0
  6
CONTINUOUS
 62
     2
 10
1072.94722658
 20
265.533974596
 30
0.0
 40
10.0
  1
４
 50
0.0
 41
0.85
 51
0.0
  7
KANJI48
  0
TEXT
  8
0
  6
CONTINUOUS
 62
     2
 10
1097.94722658
 20
265.533974596
 30
0.0
 40
10.0
  1
３
 50
0.0
 41
0.85
 51
0.0
  7
KANJI48
  0
POLYLINE
  8
0
  6
CONTINUOUS
 62
     2
 66
     1
 70
     1
  0
VERTEX
  8
0
  6
CONTINUOUS
 62
     2
 10
1083.94722658
 20
264.783974596
 30
0.0
 42
0.021820078
  0
VERTEX
  8
0
  6
CONTINUOUS
 62
     2
 10
1083.938664651
 20
264.980075017
 30
0.0
 42
0.021820078
  0
VERTEX
  8
0
  6
CONTINUOUS
 62
     2
 10
1083.913044024
 20
265.174682996
 30
0.0
 42
0.021820078
  0
VERTEX
  8
0
  6
CONTINUOUS
 62
     2
 10
1083.870559689
 20
265.366317448
 30
0.0
 42
0.021820078
  0
VERTEX
  8
0
  6
CONTINUOUS
 62
     2
 10
1083.811534977
 20
265.553519919
 30
0.0
 42
0.021820078
  0
VERTEX
  8
0
  6
CONTINUOUS
 62
     2
 10
1083.736419101
 20
265.734865685
 30
0.0
 42
0.021820078
  0
VERTEX
  8
0
  6
CONTINUOUS
 62
     2
 10
1083.645783739
 20
265.908974596
 30
0.0
 42
0.021820078
  0
VERTEX
  8
0
  6
CONTINUOUS
 62
     2
 10
1083.54031868
 20
266.074521578
 30
0.0
 42
0.021820078
  0
VERTEX
  8
0
  6
CONTINUOUS
 62
     2
 10
1083.420826577
 20
266.230246718
 30
0.0
 42
0.021820078
  0
VERTEX
  8
0
  6
CONTINUOUS
 62
     2
 10
1083.288216838
 20
266.374964854
 30
0.0
 42
0.021820078
  0
VERTEX
  8
0
  6
CONTINUOUS
 62
     2
 10
1083.143498702
 20
266.507574593
 30
0.0
 42
0.021820078
  0
VERTEX
  8
0
  6
CONTINUOUS
 62
     2
 10
1082.987773562
 20
266.627066696
 30
0.0
 42
0.021820078
  0
VERTEX
  8
0
  6
CONTINUOUS
 62
     2
 10
1082.82222658
 20
266.732531755
 30
0.0
 42
0.021820078
  0
VERTEX
  8
0
  6
CONTINUOUS
 62
     2
 10
1082.648117669
 20
266.823167117
 30
0.0
 42
0.021820078
  0
VERTEX
  8
0
  6
CONTINUOUS
 62
     2
 10
1082.466771903
 20
266.898282993
 30
0.0
 42
0.021820078
  0
VERTEX
  8
0
  6
CONTINUOUS
 62
     2
 10
1082.279569432
 20
266.957307705
 30
0.0
 42
0.021820078
  0
VERTEX
  8
0
  6
CONTINUOUS
 62
     2
 10
1082.08793498
 20
266.99979204
 30
0.0
 42
0.021820078
  0
VERTEX
  8
0
  6
CONTINUOUS
 62
     2
 10
1081.893327001
 20
267.025412667
 30
0.0
 42
0.021820078
  0
VERTEX
  8
0
  6
CONTINUOUS
 62
     2
 10
1081.69722658
 20
267.033974596
 30
0.0
 42
0.021820078
  0
VERTEX
  8
0
  6
CONTINUOUS
 62
     2
 10
1081.501126159
 20
267.025412667
 30
0.0
 42
0.021820078
  0
VERTEX
  8
0
  6
CONTINUOUS
 62
     2
 10
1081.30651818
 20
266.99979204
 30
0.0
 42
0.021820078
  0
VERTEX
  8
0
  6
CONTINUOUS
 62
     2
 10
1081.114883729
 20
266.957307705
 30
0.0
 42
0.021820078
  0
VERTEX
  8
0
  6
CONTINUOUS
 62
     2
 10
1080.927681258
 20
266.898282993
 30
0.0
 42
0.021820078
  0
VERTEX
  8
0
  6
CONTINUOUS
 62
     2
 10
1080.746335491
 20
266.823167117
 30
0.0
 42
0.021820078
  0
VERTEX
  8
0
  6
CONTINUOUS
 62
     2
 10
1080.57222658
 20
266.732531755
 30
0.0
 42
0.021820078
  0
VERTEX
  8
0
  6
CONTINUOUS
 62
     2
 10
1080.406679598
 20
266.627066696
 30
0.0
 42
0.021820078
  0
VERTEX
  8
0
  6
CONTINUOUS
 62
     2
 10
1080.250954458
 20
266.507574593
 30
0.0
 42
0.021820078
  0
VERTEX
  8
0
  6
CONTINUOUS
 62
     2
 10
1080.106236323
 20
266.374964854
 30
0.0
 42
0.021820078
  0
VERTEX
  8
0
  6
CONTINUOUS
 62
     2
 10
1079.973626583
 20
266.230246718
 30
0.0
 42
0.021820078
  0
VERTEX
  8
0
  6
CONTINUOUS
 62
     2
 10
1079.854134481
 20
266.074521578
 30
0.0
 42
0.021820078
  0
VERTEX
  8
0
  6
CONTINUOUS
 62
     2
 10
1079.748669422
 20
265.908974596
 30
0.0
 42
0.021820078
  0
VERTEX
  8
0
  6
CONTINUOUS
 62
     2
 10
1079.658034059
 20
265.734865685
 30
0.0
 42
0.021820078
  0
VERTEX
  8
0
  6
CONTINUOUS
 62
     2
 10
1079.582918183
 20
265.553519919
 30
0.0
 42
0.021820078
  0
VERTEX
  8
0
  6
CONTINUOUS
 62
     2
 10
1079.523893471
 20
265.366317448
 30
0.0
 42
0.021820078
  0
VERTEX
  8
0
  6
CONTINUOUS
 62
     2
 10
1079.481409136
 20
265.174682996
 30
0.0
 42
0.021820078
  0
VERTEX
  8
0
  6
CONTINUOUS
 62
     2
 10
1079.45578851
 20
264.980075017
 30
0.0
 42
0.021820078
  0
VERTEX
  8
0
  6
CONTINUOUS
 62
     2
 10
1079.44722658
 20
264.783974596
 30
0.0
 42
0.021820078
  0
VERTEX
  8
0
  6
CONTINUOUS
 62
     2
 10
1079.45578851
 20
264.587874175
 30
0.0
 42
0.021820078
  0
VERTEX
  8
0
  6
CONTINUOUS
 62
     2
 10
1079.481409136
 20
264.393266196
 30
0.0
 42
0.021820078
  0
VERTEX
  8
0
  6
CONTINUOUS
 62
     2
 10
1079.523893471
 20
264.201631745
 30
0.0
 42
0.021820078
  0
VERTEX
  8
0
  6
CONTINUOUS
 62
     2
 10
1079.582918183
 20
264.014429274
 30
0.0
 42
0.021820078
  0
VERTEX
  8
0
  6
CONTINUOUS
 62
     2
 10
1079.658034059
 20
263.833083507
 30
0.0
 42
0.021820078
  0
VERTEX
  8
0
  6
CONTINUOUS
 62
     2
 10
1079.748669422
 20
263.658974596
 30
0.0
 42
0.021820078
  0
VERTEX
  8
0
  6
CONTINUOUS
 62
     2
 10
1079.854134481
 20
263.493427614
 30
0.0
 42
0.021820078
  0
VERTEX
  8
0
  6
CONTINUOUS
 62
     2
 10
1079.973626583
 20
263.337702474
 30
0.0
 42
0.021820078
  0
VERTEX
  8
0
  6
CONTINUOUS
 62
     2
 10
1080.106236323
 20
263.192984339
 30
0.0
 42
0.021820078
  0
VERTEX
  8
0
  6
CONTINUOUS
 62
     2
 10
1080.250954458
 20
263.060374599
 30
0.0
 42
0.021820078
  0
VERTEX
  8
0
  6
CONTINUOUS
 62
     2
 10
1080.406679598
 20
262.940882497
 30
0.0
 42
0.021820078
  0
VERTEX
  8
0
  6
CONTINUOUS
 62
     2
 10
1080.57222658
 20
262.835417438
 30
0.0
 42
0.021820078
  0
VERTEX
  8
0
  6
CONTINUOUS
 62
     2
 10
1080.746335491
 20
262.744782075
 30
0.0
 42
0.021820078
  0
VERTEX
  8
0
  6
CONTINUOUS
 62
     2
 10
1080.927681258
 20
262.669666199
 30
0.0
 42
0.021820078
  0
VERTEX
  8
0
  6
CONTINUOUS
 62
     2
 10
1081.114883729
 20
262.610641487
 30
0.0
 42
0.021820078
  0
VERTEX
  8
0
  6
CONTINUOUS
 62
     2
 10
1081.30651818
 20
262.568157152
 30
0.0
 42
0.021820078
  0
VERTEX
  8
0
  6
CONTINUOUS
 62
     2
 10
1081.501126159
 20
262.542536526
 30
0.0
 42
0.021820078
  0
VERTEX
  8
0
  6
CONTINUOUS
 62
     2
 10
1081.69722658
 20
262.533974596
 30
0.0
 42
0.021820078
  0
VERTEX
  8
0
  6
CONTINUOUS
 62
     2
 10
1081.893327001
 20
262.542536526
 30
0.0
 42
0.021820078
  0
VERTEX
  8
0
  6
CONTINUOUS
 62
     2
 10
1082.08793498
 20
262.568157152
 30
0.0
 42
0.021820078
  0
VERTEX
  8
0
  6
CONTINUOUS
 62
     2
 10
1082.279569432
 20
262.610641487
 30
0.0
 42
0.021820078
  0
VERTEX
  8
0
  6
CONTINUOUS
 62
     2
 10
1082.466771903
 20
262.669666199
 30
0.0
 42
0.021820078
  0
VERTEX
  8
0
  6
CONTINUOUS
 62
     2
 10
1082.648117669
 20
262.744782075
 30
0.0
 42
0.021820078
  0
VERTEX
  8
0
  6
CONTINUOUS
 62
     2
 10
1082.82222658
 20
262.835417438
 30
0.0
 42
0.021820078
  0
VERTEX
  8
0
  6
CONTINUOUS
 62
     2
 10
1082.987773562
 20
262.940882497
 30
0.0
 42
0.021820078
  0
VERTEX
  8
0
  6
CONTINUOUS
 62
     2
 10
1083.143498702
 20
263.060374599
 30
0.0
 42
0.021820078
  0
VERTEX
  8
0
  6
CONTINUOUS
 62
     2
 10
1083.288216838
 20
263.192984339
 30
0.0
 42
0.021820078
  0
VERTEX
  8
0
  6
CONTINUOUS
 62
     2
 10
1083.420826577
 20
263.337702474
 30
0.0
 42
0.021820078
  0
VERTEX
  8
0
  6
CONTINUOUS
 62
     2
 10
1083.54031868
 20
263.493427614
 30
0.0
 42
0.021820078
  0
VERTEX
  8
0
  6
CONTINUOUS
 62
     2
 10
1083.645783739
 20
263.658974596
 30
0.0
 42
0.021820078
  0
VERTEX
  8
0
  6
CONTINUOUS
 62
     2
 10
1083.736419101
 20
263.833083507
 30
0.0
 42
0.021820078
  0
VERTEX
  8
0
  6
CONTINUOUS
 62
     2
 10
1083.811534977
 20
264.014429274
 30
0.0
 42
0.021820078
  0
VERTEX
  8
0
  6
CONTINUOUS
 62
     2
 10
1083.870559689
 20
264.201631745
 30
0.0
 42
0.021820078
  0
VERTEX
  8
0
  6
CONTINUOUS
 62
     2
 10
1083.913044024
 20
264.393266196
 30
0.0
 42
0.021820078
  0
VERTEX
  8
0
  6
CONTINUOUS
 62
     2
 10
1083.938664651
 20
264.587874175
 30
0.0
 42
0.021820078
  0
SEQEND
  8
0
  6
CONTINUOUS
 62
     2
  0
POLYLINE
  8
0
  6
CONTINUOUS
 62
     2
 66
     1
 70
     1
  0
VERTEX
  8
0
  6
CONTINUOUS
 62
     2
 10
1098.94722658
 20
264.783974596
 30
0.0
 42
0.021820078
  0
VERTEX
  8
0
  6
CONTINUOUS
 62
     2
 10
1098.938664651
 20
264.980075017
 30
0.0
 42
0.021820078
  0
VERTEX
  8
0
  6
CONTINUOUS
 62
     2
 10
1098.913044024
 20
265.174682996
 30
0.0
 42
0.021820078
  0
VERTEX
  8
0
  6
CONTINUOUS
 62
     2
 10
1098.870559689
 20
265.366317448
 30
0.0
 42
0.021820078
  0
VERTEX
  8
0
  6
CONTINUOUS
 62
     2
 10
1098.811534977
 20
265.553519919
 30
0.0
 42
0.021820078
  0
VERTEX
  8
0
  6
CONTINUOUS
 62
     2
 10
1098.736419101
 20
265.734865685
 30
0.0
 42
0.021820078
  0
VERTEX
  8
0
  6
CONTINUOUS
 62
     2
 10
1098.645783739
 20
265.908974596
 30
0.0
 42
0.021820078
  0
VERTEX
  8
0
  6
CONTINUOUS
 62
     2
 10
1098.54031868
 20
266.074521578
 30
0.0
 42
0.021820078
  0
VERTEX
  8
0
  6
CONTINUOUS
 62
     2
 10
1098.420826577
 20
266.230246718
 30
0.0
 42
0.021820078
  0
VERTEX
  8
0
  6
CONTINUOUS
 62
     2
 10
1098.288216838
 20
266.374964854
 30
0.0
 42
0.021820078
  0
VERTEX
  8
0
  6
CONTINUOUS
 62
     2
 10
1098.143498702
 20
266.507574593
 30
0.0
 42
0.021820078
  0
VERTEX
  8
0
  6
CONTINUOUS
 62
     2
 10
1097.987773562
 20
266.627066696
 30
0.0
 42
0.021820078
  0
VERTEX
  8
0
  6
CONTINUOUS
 62
     2
 10
1097.82222658
 20
266.732531755
 30
0.0
 42
0.021820078
  0
VERTEX
  8
0
  6
CONTINUOUS
 62
     2
 10
1097.648117669
 20
266.823167117
 30
0.0
 42
0.021820078
  0
VERTEX
  8
0
  6
CONTINUOUS
 62
     2
 10
1097.466771903
 20
266.898282993
 30
0.0
 42
0.021820078
  0
VERTEX
  8
0
  6
CONTINUOUS
 62
     2
 10
1097.279569432
 20
266.957307705
 30
0.0
 42
0.021820078
  0
VERTEX
  8
0
  6
CONTINUOUS
 62
     2
 10
1097.08793498
 20
266.99979204
 30
0.0
 42
0.021820078
  0
VERTEX
  8
0
  6
CONTINUOUS
 62
     2
 10
1096.893327001
 20
267.025412667
 30
0.0
 42
0.021820078
  0
VERTEX
  8
0
  6
CONTINUOUS
 62
     2
 10
1096.69722658
 20
267.033974596
 30
0.0
 42
0.021820078
  0
VERTEX
  8
0
  6
CONTINUOUS
 62
     2
 10
1096.501126159
 20
267.025412667
 30
0.0
 42
0.021820078
  0
VERTEX
  8
0
  6
CONTINUOUS
 62
     2
 10
1096.30651818
 20
266.99979204
 30
0.0
 42
0.021820078
  0
VERTEX
  8
0
  6
CONTINUOUS
 62
     2
 10
1096.114883729
 20
266.957307705
 30
0.0
 42
0.021820078
  0
VERTEX
  8
0
  6
CONTINUOUS
 62
     2
 10
1095.927681258
 20
266.898282993
 30
0.0
 42
0.021820078
  0
VERTEX
  8
0
  6
CONTINUOUS
 62
     2
 10
1095.746335491
 20
266.823167117
 30
0.0
 42
0.021820078
  0
VERTEX
  8
0
  6
CONTINUOUS
 62
     2
 10
1095.57222658
 20
266.732531755
 30
0.0
 42
0.021820078
  0
VERTEX
  8
0
  6
CONTINUOUS
 62
     2
 10
1095.406679598
 20
266.627066696
 30
0.0
 42
0.021820078
  0
VERTEX
  8
0
  6
CONTINUOUS
 62
     2
 10
1095.250954458
 20
266.507574593
 30
0.0
 42
0.021820078
  0
VERTEX
  8
0
  6
CONTINUOUS
 62
     2
 10
1095.106236323
 20
266.374964854
 30
0.0
 42
0.021820078
  0
VERTEX
  8
0
  6
CONTINUOUS
 62
     2
 10
1094.973626583
 20
266.230246718
 30
0.0
 42
0.021820078
  0
VERTEX
  8
0
  6
CONTINUOUS
 62
     2
 10
1094.854134481
 20
266.074521578
 30
0.0
 42
0.021820078
  0
VERTEX
  8
0
  6
CONTINUOUS
 62
     2
 10
1094.748669422
 20
265.908974596
 30
0.0
 42
0.021820078
  0
VERTEX
  8
0
  6
CONTINUOUS
 62
     2
 10
1094.658034059
 20
265.734865685
 30
0.0
 42
0.021820078
  0
VERTEX
  8
0
  6
CONTINUOUS
 62
     2
 10
1094.582918183
 20
265.553519919
 30
0.0
 42
0.021820078
  0
VERTEX
  8
0
  6
CONTINUOUS
 62
     2
 10
1094.523893471
 20
265.366317448
 30
0.0
 42
0.021820078
  0
VERTEX
  8
0
  6
CONTINUOUS
 62
     2
 10
1094.481409136
 20
265.174682996
 30
0.0
 42
0.021820078
  0
VERTEX
  8
0
  6
CONTINUOUS
 62
     2
 10
1094.45578851
 20
264.980075017
 30
0.0
 42
0.021820078
  0
VERTEX
  8
0
  6
CONTINUOUS
 62
     2
 10
1094.44722658
 20
264.783974596
 30
0.0
 42
0.021820078
  0
VERTEX
  8
0
  6
CONTINUOUS
 62
     2
 10
1094.45578851
 20
264.587874175
 30
0.0
 42
0.021820078
  0
VERTEX
  8
0
  6
CONTINUOUS
 62
     2
 10
1094.481409136
 20
264.393266196
 30
0.0
 42
0.021820078
  0
VERTEX
  8
0
  6
CONTINUOUS
 62
     2
 10
1094.523893471
 20
264.201631745
 30
0.0
 42
0.021820078
  0
VERTEX
  8
0
  6
CONTINUOUS
 62
     2
 10
1094.582918183
 20
264.014429274
 30
0.0
 42
0.021820078
  0
VERTEX
  8
0
  6
CONTINUOUS
 62
     2
 10
1094.658034059
 20
263.833083507
 30
0.0
 42
0.021820078
  0
VERTEX
  8
0
  6
CONTINUOUS
 62
     2
 10
1094.748669422
 20
263.658974596
 30
0.0
 42
0.021820078
  0
VERTEX
  8
0
  6
CONTINUOUS
 62
     2
 10
1094.854134481
 20
263.493427614
 30
0.0
 42
0.021820078
  0
VERTEX
  8
0
  6
CONTINUOUS
 62
     2
 10
1094.973626583
 20
263.337702474
 30
0.0
 42
0.021820078
  0
VERTEX
  8
0
  6
CONTINUOUS
 62
     2
 10
1095.106236323
 20
263.192984339
 30
0.0
 42
0.021820078
  0
VERTEX
  8
0
  6
CONTINUOUS
 62
     2
 10
1095.250954458
 20
263.060374599
 30
0.0
 42
0.021820078
  0
VERTEX
  8
0
  6
CONTINUOUS
 62
     2
 10
1095.406679598
 20
262.940882497
 30
0.0
 42
0.021820078
  0
VERTEX
  8
0
  6
CONTINUOUS
 62
     2
 10
1095.57222658
 20
262.835417438
 30
0.0
 42
0.021820078
  0
VERTEX
  8
0
  6
CONTINUOUS
 62
     2
 10
1095.746335491
 20
262.744782075
 30
0.0
 42
0.021820078
  0
VERTEX
  8
0
  6
CONTINUOUS
 62
     2
 10
1095.927681258
 20
262.669666199
 30
0.0
 42
0.021820078
  0
VERTEX
  8
0
  6
CONTINUOUS
 62
     2
 10
1096.114883729
 20
262.610641487
 30
0.0
 42
0.021820078
  0
VERTEX
  8
0
  6
CONTINUOUS
 62
     2
 10
1096.30651818
 20
262.568157152
 30
0.0
 42
0.021820078
  0
VERTEX
  8
0
  6
CONTINUOUS
 62
     2
 10
1096.501126159
 20
262.542536526
 30
0.0
 42
0.021820078
  0
VERTEX
  8
0
  6
CONTINUOUS
 62
     2
 10
1096.69722658
 20
262.533974596
 30
0.0
 42
0.021820078
  0
VERTEX
  8
0
  6
CONTINUOUS
 62
     2
 10
1096.893327001
 20
262.542536526
 30
0.0
 42
0.021820078
  0
VERTEX
  8
0
  6
CONTINUOUS
 62
     2
 10
1097.08793498
 20
262.568157152
 30
0.0
 42
0.021820078
  0
VERTEX
  8
0
  6
CONTINUOUS
 62
     2
 10
1097.279569432
 20
262.610641487
 30
0.0
 42
0.021820078
  0
VERTEX
  8
0
  6
CONTINUOUS
 62
     2
 10
1097.466771903
 20
262.669666199
 30
0.0
 42
0.021820078
  0
VERTEX
  8
0
  6
CONTINUOUS
 62
     2
 10
1097.648117669
 20
262.744782075
 30
0.0
 42
0.021820078
  0
VERTEX
  8
0
  6
CONTINUOUS
 62
     2
 10
1097.82222658
 20
262.835417438
 30
0.0
 42
0.021820078
  0
VERTEX
  8
0
  6
CONTINUOUS
 62
     2
 10
1097.987773562
 20
262.940882497
 30
0.0
 42
0.021820078
  0
VERTEX
  8
0
  6
CONTINUOUS
 62
     2
 10
1098.143498702
 20
263.060374599
 30
0.0
 42
0.021820078
  0
VERTEX
  8
0
  6
CONTINUOUS
 62
     2
 10
1098.288216838
 20
263.192984339
 30
0.0
 42
0.021820078
  0
VERTEX
  8
0
  6
CONTINUOUS
 62
     2
 10
1098.420826577
 20
263.337702474
 30
0.0
 42
0.021820078
  0
VERTEX
  8
0
  6
CONTINUOUS
 62
     2
 10
1098.54031868
 20
263.493427614
 30
0.0
 42
0.021820078
  0
VERTEX
  8
0
  6
CONTINUOUS
 62
     2
 10
1098.645783739
 20
263.658974596
 30
0.0
 42
0.021820078
  0
VERTEX
  8
0
  6
CONTINUOUS
 62
     2
 10
1098.736419101
 20
263.833083507
 30
0.0
 42
0.021820078
  0
VERTEX
  8
0
  6
CONTINUOUS
 62
     2
 10
1098.811534977
 20
264.014429274
 30
0.0
 42
0.021820078
  0
VERTEX
  8
0
  6
CONTINUOUS
 62
     2
 10
1098.870559689
 20
264.201631745
 30
0.0
 42
0.021820078
  0
VERTEX
  8
0
  6
CONTINUOUS
 62
     2
 10
1098.913044024
 20
264.393266196
 30
0.0
 42
0.021820078
  0
VERTEX
  8
0
  6
CONTINUOUS
 62
     2
 10
1098.938664651
 20
264.587874175
 30
0.0
 42
0.021820078
  0
SEQEND
  8
0
  6
CONTINUOUS
 62
     2
  0
POLYLINE
  8
0
  6
CONTINUOUS
 62
     2
 66
     1
 70
     1
  0
VERTEX
  8
0
  6
CONTINUOUS
 62
     2
 10
1083.94722658
 20
220.433974596
 30
0.0
 42
-0.021820078
  0
VERTEX
  8
0
  6
CONTINUOUS
 62
     2
 10
1083.938664651
 20
220.237874175
 30
0.0
 42
-0.021820078
  0
VERTEX
  8
0
  6
CONTINUOUS
 62
     2
 10
1083.913044024
 20
220.043266196
 30
0.0
 42
-0.021820078
  0
VERTEX
  8
0
  6
CONTINUOUS
 62
     2
 10
1083.870559689
 20
219.851631745
 30
0.0
 42
-0.021820078
  0
VERTEX
  8
0
  6
CONTINUOUS
 62
     2
 10
1083.811534977
 20
219.664429274
 30
0.0
 42
-0.021820078
  0
VERTEX
  8
0
  6
CONTINUOUS
 62
     2
 10
1083.736419101
 20
219.483083507
 30
0.0
 42
-0.021820078
  0
VERTEX
  8
0
  6
CONTINUOUS
 62
     2
 10
1083.645783739
 20
219.308974596
 30
0.0
 42
-0.021820078
  0
VERTEX
  8
0
  6
CONTINUOUS
 62
     2
 10
1083.54031868
 20
219.143427614
 30
0.0
 42
-0.021820078
  0
VERTEX
  8
0
  6
CONTINUOUS
 62
     2
 10
1083.420826577
 20
218.987702474
 30
0.0
 42
-0.021820078
  0
VERTEX
  8
0
  6
CONTINUOUS
 62
     2
 10
1083.288216838
 20
218.842984339
 30
0.0
 42
-0.021820078
  0
VERTEX
  8
0
  6
CONTINUOUS
 62
     2
 10
1083.143498702
 20
218.710374599
 30
0.0
 42
-0.021820078
  0
VERTEX
  8
0
  6
CONTINUOUS
 62
     2
 10
1082.987773562
 20
218.590882497
 30
0.0
 42
-0.021820078
  0
VERTEX
  8
0
  6
CONTINUOUS
 62
     2
 10
1082.82222658
 20
218.485417438
 30
0.0
 42
-0.021820078
  0
VERTEX
  8
0
  6
CONTINUOUS
 62
     2
 10
1082.648117669
 20
218.394782075
 30
0.0
 42
-0.021820078
  0
VERTEX
  8
0
  6
CONTINUOUS
 62
     2
 10
1082.466771903
 20
218.319666199
 30
0.0
 42
-0.021820078
  0
VERTEX
  8
0
  6
CONTINUOUS
 62
     2
 10
1082.279569432
 20
218.260641487
 30
0.0
 42
-0.021820078
  0
VERTEX
  8
0
  6
CONTINUOUS
 62
     2
 10
1082.08793498
 20
218.218157152
 30
0.0
 42
-0.021820078
  0
VERTEX
  8
0
  6
CONTINUOUS
 62
     2
 10
1081.893327001
 20
218.192536526
 30
0.0
 42
-0.021820078
  0
VERTEX
  8
0
  6
CONTINUOUS
 62
     2
 10
1081.69722658
 20
218.183974596
 30
0.0
 42
-0.021820078
  0
VERTEX
  8
0
  6
CONTINUOUS
 62
     2
 10
1081.501126159
 20
218.192536526
 30
0.0
 42
-0.021820078
  0
VERTEX
  8
0
  6
CONTINUOUS
 62
     2
 10
1081.30651818
 20
218.218157152
 30
0.0
 42
-0.021820078
  0
VERTEX
  8
0
  6
CONTINUOUS
 62
     2
 10
1081.114883729
 20
218.260641487
 30
0.0
 42
-0.021820078
  0
VERTEX
  8
0
  6
CONTINUOUS
 62
     2
 10
1080.927681258
 20
218.319666199
 30
0.0
 42
-0.021820078
  0
VERTEX
  8
0
  6
CONTINUOUS
 62
     2
 10
1080.746335491
 20
218.394782075
 30
0.0
 42
-0.021820078
  0
VERTEX
  8
0
  6
CONTINUOUS
 62
     2
 10
1080.57222658
 20
218.485417438
 30
0.0
 42
-0.021820078
  0
VERTEX
  8
0
  6
CONTINUOUS
 62
     2
 10
1080.406679598
 20
218.590882497
 30
0.0
 42
-0.021820078
  0
VERTEX
  8
0
  6
CONTINUOUS
 62
     2
 10
1080.250954458
 20
218.710374599
 30
0.0
 42
-0.021820078
  0
VERTEX
  8
0
  6
CONTINUOUS
 62
     2
 10
1080.106236323
 20
218.842984339
 30
0.0
 42
-0.021820078
  0
VERTEX
  8
0
  6
CONTINUOUS
 62
     2
 10
1079.973626583
 20
218.987702474
 30
0.0
 42
-0.021820078
  0
VERTEX
  8
0
  6
CONTINUOUS
 62
     2
 10
1079.854134481
 20
219.143427614
 30
0.0
 42
-0.021820078
  0
VERTEX
  8
0
  6
CONTINUOUS
 62
     2
 10
1079.748669422
 20
219.308974596
 30
0.0
 42
-0.021820078
  0
VERTEX
  8
0
  6
CONTINUOUS
 62
     2
 10
1079.658034059
 20
219.483083507
 30
0.0
 42
-0.021820078
  0
VERTEX
  8
0
  6
CONTINUOUS
 62
     2
 10
1079.582918183
 20
219.664429274
 30
0.0
 42
-0.021820078
  0
VERTEX
  8
0
  6
CONTINUOUS
 62
     2
 10
1079.523893471
 20
219.851631745
 30
0.0
 42
-0.021820078
  0
VERTEX
  8
0
  6
CONTINUOUS
 62
     2
 10
1079.481409136
 20
220.043266196
 30
0.0
 42
-0.021820078
  0
VERTEX
  8
0
  6
CONTINUOUS
 62
     2
 10
1079.45578851
 20
220.237874175
 30
0.0
 42
-0.021820078
  0
VERTEX
  8
0
  6
CONTINUOUS
 62
     2
 10
1079.44722658
 20
220.433974596
 30
0.0
 42
-0.021820078
  0
VERTEX
  8
0
  6
CONTINUOUS
 62
     2
 10
1079.45578851
 20
220.630075017
 30
0.0
 42
-0.021820078
  0
VERTEX
  8
0
  6
CONTINUOUS
 62
     2
 10
1079.481409136
 20
220.824682996
 30
0.0
 42
-0.021820078
  0
VERTEX
  8
0
  6
CONTINUOUS
 62
     2
 10
1079.523893471
 20
221.016317448
 30
0.0
 42
-0.021820078
  0
VERTEX
  8
0
  6
CONTINUOUS
 62
     2
 10
1079.582918183
 20
221.203519919
 30
0.0
 42
-0.021820078
  0
VERTEX
  8
0
  6
CONTINUOUS
 62
     2
 10
1079.658034059
 20
221.384865685
 30
0.0
 42
-0.021820078
  0
VERTEX
  8
0
  6
CONTINUOUS
 62
     2
 10
1079.748669422
 20
221.558974596
 30
0.0
 42
-0.021820078
  0
VERTEX
  8
0
  6
CONTINUOUS
 62
     2
 10
1079.854134481
 20
221.724521578
 30
0.0
 42
-0.021820078
  0
VERTEX
  8
0
  6
CONTINUOUS
 62
     2
 10
1079.973626583
 20
221.880246718
 30
0.0
 42
-0.021820078
  0
VERTEX
  8
0
  6
CONTINUOUS
 62
     2
 10
1080.106236323
 20
222.024964854
 30
0.0
 42
-0.021820078
  0
VERTEX
  8
0
  6
CONTINUOUS
 62
     2
 10
1080.250954458
 20
222.157574593
 30
0.0
 42
-0.021820078
  0
VERTEX
  8
0
  6
CONTINUOUS
 62
     2
 10
1080.406679598
 20
222.277066696
 30
0.0
 42
-0.021820078
  0
VERTEX
  8
0
  6
CONTINUOUS
 62
     2
 10
1080.57222658
 20
222.382531755
 30
0.0
 42
-0.021820078
  0
VERTEX
  8
0
  6
CONTINUOUS
 62
     2
 10
1080.746335491
 20
222.473167117
 30
0.0
 42
-0.021820078
  0
VERTEX
  8
0
  6
CONTINUOUS
 62
     2
 10
1080.927681258
 20
222.548282993
 30
0.0
 42
-0.021820078
  0
VERTEX
  8
0
  6
CONTINUOUS
 62
     2
 10
1081.114883729
 20
222.607307705
 30
0.0
 42
-0.021820078
  0
VERTEX
  8
0
  6
CONTINUOUS
 62
     2
 10
1081.30651818
 20
222.64979204
 30
0.0
 42
-0.021820078
  0
VERTEX
  8
0
  6
CONTINUOUS
 62
     2
 10
1081.501126159
 20
222.675412667
 30
0.0
 42
-0.021820078
  0
VERTEX
  8
0
  6
CONTINUOUS
 62
     2
 10
1081.69722658
 20
222.683974596
 30
0.0
 42
-0.021820078
  0
VERTEX
  8
0
  6
CONTINUOUS
 62
     2
 10
1081.893327001
 20
222.675412667
 30
0.0
 42
-0.021820078
  0
VERTEX
  8
0
  6
CONTINUOUS
 62
     2
 10
1082.08793498
 20
222.64979204
 30
0.0
 42
-0.021820078
  0
VERTEX
  8
0
  6
CONTINUOUS
 62
     2
 10
1082.279569432
 20
222.607307705
 30
0.0
 42
-0.021820078
  0
VERTEX
  8
0
  6
CONTINUOUS
 62
     2
 10
1082.466771903
 20
222.548282993
 30
0.0
 42
-0.021820078
  0
VERTEX
  8
0
  6
CONTINUOUS
 62
     2
 10
1082.648117669
 20
222.473167117
 30
0.0
 42
-0.021820078
  0
VERTEX
  8
0
  6
CONTINUOUS
 62
     2
 10
1082.82222658
 20
222.382531755
 30
0.0
 42
-0.021820078
  0
VERTEX
  8
0
  6
CONTINUOUS
 62
     2
 10
1082.987773562
 20
222.277066696
 30
0.0
 42
-0.021820078
  0
VERTEX
  8
0
  6
CONTINUOUS
 62
     2
 10
1083.143498702
 20
222.157574593
 30
0.0
 42
-0.021820078
  0
VERTEX
  8
0
  6
CONTINUOUS
 62
     2
 10
1083.288216838
 20
222.024964854
 30
0.0
 42
-0.021820078
  0
VERTEX
  8
0
  6
CONTINUOUS
 62
     2
 10
1083.420826577
 20
221.880246718
 30
0.0
 42
-0.021820078
  0
VERTEX
  8
0
  6
CONTINUOUS
 62
     2
 10
1083.54031868
 20
221.724521578
 30
0.0
 42
-0.021820078
  0
VERTEX
  8
0
  6
CONTINUOUS
 62
     2
 10
1083.645783739
 20
221.558974596
 30
0.0
 42
-0.021820078
  0
VERTEX
  8
0
  6
CONTINUOUS
 62
     2
 10
1083.736419101
 20
221.384865685
 30
0.0
 42
-0.021820078
  0
VERTEX
  8
0
  6
CONTINUOUS
 62
     2
 10
1083.811534977
 20
221.203519919
 30
0.0
 42
-0.021820078
  0
VERTEX
  8
0
  6
CONTINUOUS
 62
     2
 10
1083.870559689
 20
221.016317448
 30
0.0
 42
-0.021820078
  0
VERTEX
  8
0
  6
CONTINUOUS
 62
     2
 10
1083.913044024
 20
220.824682996
 30
0.0
 42
-0.021820078
  0
VERTEX
  8
0
  6
CONTINUOUS
 62
     2
 10
1083.938664651
 20
220.630075017
 30
0.0
 42
-0.021820078
  0
SEQEND
  8
0
  6
CONTINUOUS
 62
     2
  0
POLYLINE
  8
0
  6
CONTINUOUS
 62
     2
 66
     1
 70
     1
  0
VERTEX
  8
0
  6
CONTINUOUS
 62
     2
 10
1098.94722658
 20
220.433974596
 30
0.0
 42
-0.021820078
  0
VERTEX
  8
0
  6
CONTINUOUS
 62
     2
 10
1098.938664651
 20
220.237874175
 30
0.0
 42
-0.021820078
  0
VERTEX
  8
0
  6
CONTINUOUS
 62
     2
 10
1098.913044024
 20
220.043266196
 30
0.0
 42
-0.021820078
  0
VERTEX
  8
0
  6
CONTINUOUS
 62
     2
 10
1098.870559689
 20
219.851631745
 30
0.0
 42
-0.021820078
  0
VERTEX
  8
0
  6
CONTINUOUS
 62
     2
 10
1098.811534977
 20
219.664429274
 30
0.0
 42
-0.021820078
  0
VERTEX
  8
0
  6
CONTINUOUS
 62
     2
 10
1098.736419101
 20
219.483083507
 30
0.0
 42
-0.021820078
  0
VERTEX
  8
0
  6
CONTINUOUS
 62
     2
 10
1098.645783739
 20
219.308974596
 30
0.0
 42
-0.021820078
  0
VERTEX
  8
0
  6
CONTINUOUS
 62
     2
 10
1098.54031868
 20
219.143427614
 30
0.0
 42
-0.021820078
  0
VERTEX
  8
0
  6
CONTINUOUS
 62
     2
 10
1098.420826577
 20
218.987702474
 30
0.0
 42
-0.021820078
  0
VERTEX
  8
0
  6
CONTINUOUS
 62
     2
 10
1098.288216838
 20
218.842984339
 30
0.0
 42
-0.021820078
  0
VERTEX
  8
0
  6
CONTINUOUS
 62
     2
 10
1098.143498702
 20
218.710374599
 30
0.0
 42
-0.021820078
  0
VERTEX
  8
0
  6
CONTINUOUS
 62
     2
 10
1097.987773562
 20
218.590882497
 30
0.0
 42
-0.021820078
  0
VERTEX
  8
0
  6
CONTINUOUS
 62
     2
 10
1097.82222658
 20
218.485417438
 30
0.0
 42
-0.021820078
  0
VERTEX
  8
0
  6
CONTINUOUS
 62
     2
 10
1097.648117669
 20
218.394782075
 30
0.0
 42
-0.021820078
  0
VERTEX
  8
0
  6
CONTINUOUS
 62
     2
 10
1097.466771903
 20
218.319666199
 30
0.0
 42
-0.021820078
  0
VERTEX
  8
0
  6
CONTINUOUS
 62
     2
 10
1097.279569432
 20
218.260641487
 30
0.0
 42
-0.021820078
  0
VERTEX
  8
0
  6
CONTINUOUS
 62
     2
 10
1097.08793498
 20
218.218157152
 30
0.0
 42
-0.021820078
  0
VERTEX
  8
0
  6
CONTINUOUS
 62
     2
 10
1096.893327001
 20
218.192536526
 30
0.0
 42
-0.021820078
  0
VERTEX
  8
0
  6
CONTINUOUS
 62
     2
 10
1096.69722658
 20
218.183974596
 30
0.0
 42
-0.021820078
  0
VERTEX
  8
0
  6
CONTINUOUS
 62
     2
 10
1096.501126159
 20
218.192536526
 30
0.0
 42
-0.021820078
  0
VERTEX
  8
0
  6
CONTINUOUS
 62
     2
 10
1096.30651818
 20
218.218157152
 30
0.0
 42
-0.021820078
  0
VERTEX
  8
0
  6
CONTINUOUS
 62
     2
 10
1096.114883729
 20
218.260641487
 30
0.0
 42
-0.021820078
  0
VERTEX
  8
0
  6
CONTINUOUS
 62
     2
 10
1095.927681258
 20
218.319666199
 30
0.0
 42
-0.021820078
  0
VERTEX
  8
0
  6
CONTINUOUS
 62
     2
 10
1095.746335491
 20
218.394782075
 30
0.0
 42
-0.021820078
  0
VERTEX
  8
0
  6
CONTINUOUS
 62
     2
 10
1095.57222658
 20
218.485417438
 30
0.0
 42
-0.021820078
  0
VERTEX
  8
0
  6
CONTINUOUS
 62
     2
 10
1095.406679598
 20
218.590882497
 30
0.0
 42
-0.021820078
  0
VERTEX
  8
0
  6
CONTINUOUS
 62
     2
 10
1095.250954458
 20
218.710374599
 30
0.0
 42
-0.021820078
  0
VERTEX
  8
0
  6
CONTINUOUS
 62
     2
 10
1095.106236323
 20
218.842984339
 30
0.0
 42
-0.021820078
  0
VERTEX
  8
0
  6
CONTINUOUS
 62
     2
 10
1094.973626583
 20
218.987702474
 30
0.0
 42
-0.021820078
  0
VERTEX
  8
0
  6
CONTINUOUS
 62
     2
 10
1094.854134481
 20
219.143427614
 30
0.0
 42
-0.021820078
  0
VERTEX
  8
0
  6
CONTINUOUS
 62
     2
 10
1094.748669422
 20
219.308974596
 30
0.0
 42
-0.021820078
  0
VERTEX
  8
0
  6
CONTINUOUS
 62
     2
 10
1094.658034059
 20
219.483083507
 30
0.0
 42
-0.021820078
  0
VERTEX
  8
0
  6
CONTINUOUS
 62
     2
 10
1094.582918183
 20
219.664429274
 30
0.0
 42
-0.021820078
  0
VERTEX
  8
0
  6
CONTINUOUS
 62
     2
 10
1094.523893471
 20
219.851631745
 30
0.0
 42
-0.021820078
  0
VERTEX
  8
0
  6
CONTINUOUS
 62
     2
 10
1094.481409136
 20
220.043266196
 30
0.0
 42
-0.021820078
  0
VERTEX
  8
0
  6
CONTINUOUS
 62
     2
 10
1094.45578851
 20
220.237874175
 30
0.0
 42
-0.021820078
  0
VERTEX
  8
0
  6
CONTINUOUS
 62
     2
 10
1094.44722658
 20
220.433974596
 30
0.0
 42
-0.021820078
  0
VERTEX
  8
0
  6
CONTINUOUS
 62
     2
 10
1094.45578851
 20
220.630075017
 30
0.0
 42
-0.021820078
  0
VERTEX
  8
0
  6
CONTINUOUS
 62
     2
 10
1094.481409136
 20
220.824682996
 30
0.0
 42
-0.021820078
  0
VERTEX
  8
0
  6
CONTINUOUS
 62
     2
 10
1094.523893471
 20
221.016317448
 30
0.0
 42
-0.021820078
  0
VERTEX
  8
0
  6
CONTINUOUS
 62
     2
 10
1094.582918183
 20
221.203519919
 30
0.0
 42
-0.021820078
  0
VERTEX
  8
0
  6
CONTINUOUS
 62
     2
 10
1094.658034059
 20
221.384865685
 30
0.0
 42
-0.021820078
  0
VERTEX
  8
0
  6
CONTINUOUS
 62
     2
 10
1094.748669422
 20
221.558974596
 30
0.0
 42
-0.021820078
  0
VERTEX
  8
0
  6
CONTINUOUS
 62
     2
 10
1094.854134481
 20
221.724521578
 30
0.0
 42
-0.021820078
  0
VERTEX
  8
0
  6
CONTINUOUS
 62
     2
 10
1094.973626583
 20
221.880246718
 30
0.0
 42
-0.021820078
  0
VERTEX
  8
0
  6
CONTINUOUS
 62
     2
 10
1095.106236323
 20
222.024964854
 30
0.0
 42
-0.021820078
  0
VERTEX
  8
0
  6
CONTINUOUS
 62
     2
 10
1095.250954458
 20
222.157574593
 30
0.0
 42
-0.021820078
  0
VERTEX
  8
0
  6
CONTINUOUS
 62
     2
 10
1095.406679598
 20
222.277066696
 30
0.0
 42
-0.021820078
  0
VERTEX
  8
0
  6
CONTINUOUS
 62
     2
 10
1095.57222658
 20
222.382531755
 30
0.0
 42
-0.021820078
  0
VERTEX
  8
0
  6
CONTINUOUS
 62
     2
 10
1095.746335491
 20
222.473167117
 30
0.0
 42
-0.021820078
  0
VERTEX
  8
0
  6
CONTINUOUS
 62
     2
 10
1095.927681258
 20
222.548282993
 30
0.0
 42
-0.021820078
  0
VERTEX
  8
0
  6
CONTINUOUS
 62
     2
 10
1096.114883729
 20
222.607307705
 30
0.0
 42
-0.021820078
  0
VERTEX
  8
0
  6
CONTINUOUS
 62
     2
 10
1096.30651818
 20
222.64979204
 30
0.0
 42
-0.021820078
  0
VERTEX
  8
0
  6
CONTINUOUS
 62
     2
 10
1096.501126159
 20
222.675412667
 30
0.0
 42
-0.021820078
  0
VERTEX
  8
0
  6
CONTINUOUS
 62
     2
 10
1096.69722658
 20
222.683974596
 30
0.0
 42
-0.021820078
  0
VERTEX
  8
0
  6
CONTINUOUS
 62
     2
 10
1096.893327001
 20
222.675412667
 30
0.0
 42
-0.021820078
  0
VERTEX
  8
0
  6
CONTINUOUS
 62
     2
 10
1097.08793498
 20
222.64979204
 30
0.0
 42
-0.021820078
  0
VERTEX
  8
0
  6
CONTINUOUS
 62
     2
 10
1097.279569432
 20
222.607307705
 30
0.0
 42
-0.021820078
  0
VERTEX
  8
0
  6
CONTINUOUS
 62
     2
 10
1097.466771903
 20
222.548282993
 30
0.0
 42
-0.021820078
  0
VERTEX
  8
0
  6
CONTINUOUS
 62
     2
 10
1097.648117669
 20
222.473167117
 30
0.0
 42
-0.021820078
  0
VERTEX
  8
0
  6
CONTINUOUS
 62
     2
 10
1097.82222658
 20
222.382531755
 30
0.0
 42
-0.021820078
  0
VERTEX
  8
0
  6
CONTINUOUS
 62
     2
 10
1097.987773562
 20
222.277066696
 30
0.0
 42
-0.021820078
  0
VERTEX
  8
0
  6
CONTINUOUS
 62
     2
 10
1098.143498702
 20
222.157574593
 30
0.0
 42
-0.021820078
  0
VERTEX
  8
0
  6
CONTINUOUS
 62
     2
 10
1098.288216838
 20
222.024964854
 30
0.0
 42
-0.021820078
  0
VERTEX
  8
0
  6
CONTINUOUS
 62
     2
 10
1098.420826577
 20
221.880246718
 30
0.0
 42
-0.021820078
  0
VERTEX
  8
0
  6
CONTINUOUS
 62
     2
 10
1098.54031868
 20
221.724521578
 30
0.0
 42
-0.021820078
  0
VERTEX
  8
0
  6
CONTINUOUS
 62
     2
 10
1098.645783739
 20
221.558974596
 30
0.0
 42
-0.021820078
  0
VERTEX
  8
0
  6
CONTINUOUS
 62
     2
 10
1098.736419101
 20
221.384865685
 30
0.0
 42
-0.021820078
  0
VERTEX
  8
0
  6
CONTINUOUS
 62
     2
 10
1098.811534977
 20
221.203519919
 30
0.0
 42
-0.021820078
  0
VERTEX
  8
0
  6
CONTINUOUS
 62
     2
 10
1098.870559689
 20
221.016317448
 30
0.0
 42
-0.021820078
  0
VERTEX
  8
0
  6
CONTINUOUS
 62
     2
 10
1098.913044024
 20
220.824682996
 30
0.0
 42
-0.021820078
  0
VERTEX
  8
0
  6
CONTINUOUS
 62
     2
 10
1098.938664651
 20
220.630075017
 30
0.0
 42
-0.021820078
  0
SEQEND
  8
0
  6
CONTINUOUS
 62
     2
  0
TEXT
  8
0
  6
CONTINUOUS
 62
     2
 10
1072.94722658
 20
210.033974596
 30
0.0
 40
10.0
  1
１
 50
0.0
 41
0.85
 51
0.0
  7
KANJI48
  0
TEXT
  8
0
  6
CONTINUOUS
 62
     2
 10
1097.94722658
 20
210.033974596
 30
0.0
 40
10.0
  1
２
 50
0.0
 41
0.85
 51
0.0
  7
KANJI48
  0
TEXT
  8
0
  6
CONTINUOUS
 62
     2
 10
1041.04722658
 20
264.733974596
 30
0.0
 40
10.0
  1
（ＮＯ）
 50
0.0
 41
0.75
 51
0.0
  7
KANJI49
  0
TEXT
  8
0
  6
CONTINUOUS
 62
     2
 10
1107.04722658
 20
264.733974596
 30
0.0
 40
10.0
  1
（ＮＯ）
 50
0.0
 41
0.75
 51
0.0
  7
KANJI49
  0
TEXT
  8
0
  6
CONTINUOUS
 62
     2
 10
1041.04722658
 20
207.233974596
 30
0.0
 40
10.0
  1
（ＮＣ）
 50
0.0
 41
0.75
 51
0.0
  7
KANJI49
  0
TEXT
  8
0
  6
CONTINUOUS
 62
     2
 10
1107.04722658
 20
207.233974596
 30
0.0
 40
10.0
  1
（ＮＣ）
 50
0.0
 41
0.75
 51
0.0
  7
KANJI49
  0
TEXT
  8
0
  6
CONTINUOUS
 62
     2
 10
1024.92222658
 20
178.233974596
 30
0.0
 40
15.0
  1
外部ＬＳリミットＳＷ
 50
0.0
 41
0.9
 51
0.0
  7
KANJI43
  0
TEXT
  8
0
  6
CONTINUOUS
 62
     2
 10
1062.17222658
 20
159.233974596
 30
0.0
 40
15.0
  1
端子符号
 50
0.0
 41
0.9
 51
0.0
  7
KANJI43
  0
LINE
  8
0
  6
CONTINUOUS
 62
     2
 10
1166.67222658
 20
335.483974596
 30
0.0
 11
1013.42222658
 21
335.483974596
 31
0.0
  0
LINE
  8
0
  6
CONTINUOUS
 62
     2
 10
1121.67222658
 20
165.733974596
 30
0.0
 11
1166.67222658
 21
165.733974596
 31
0.0
  0
LINE
  8
0
  6
CONTINUOUS
 62
     2
 10
1166.67222658
 20
165.733974596
 30
0.0
 11
1166.67222658
 21
335.483974596
 31
0.0
  0
LINE
  8
0
  6
CONTINUOUS
 62
     2
 10
137.6199996
 20
278.6999876
 30
0.0
 11
145.34740621
 21
276.629435239
 31
0.0
  0
LINE
  8
0
  6
CONTINUOUS
 62
     2
 10
137.6199996
 20
278.6999876
 30
0.0
 11
145.34740621
 21
280.770539961
 31
0.0
  0
LINE
  8
0
  6
CONTINUOUS
 62
     2
 10
137.6199996
 20
278.6999876
 30
0.0
 11
275.2199996
 21
278.6999876
 31
0.0
  0
LINE
  8
0
  6
CONTINUOUS
 62
     2
 10
275.2199996
 20
278.6999876
 30
0.0
 11
267.49259299
 21
280.770539961
 31
0.0
  0
LINE
  8
0
  6
CONTINUOUS
 62
     2
 10
275.2199996
 20
278.6999876
 30
0.0
 11
267.49259299
 21
276.629435239
 31
0.0
  0
LINE
  8
0
  6
CONTINUOUS
 62
     2
 10
275.2199996
 20
277.4999876
 30
0.0
 11
275.2199996
 21
274.6999876
 31
0.0
  0
LINE
  8
0
  6
CONTINUOUS
 62
     2
 10
275.2199996
 20
278.6999876
 30
0.0
 11
282.94740621
 21
276.629435239
 31
0.0
  0
LINE
  8
0
  6
CONTINUOUS
 62
     2
 10
275.2199996
 20
278.6999876
 30
0.0
 11
282.94740621
 21
280.770539961
 31
0.0
  0
LINE
  8
0
  6
CONTINUOUS
 62
     2
 10
275.2199996
 20
278.6999876
 30
0.0
 11
477.6199996
 21
278.6999876
 31
0.0
  0
LINE
  8
0
  6
CONTINUOUS
 62
     2
 10
477.6199996
 20
278.6999876
 30
0.0
 11
469.89259299
 21
280.770539961
 31
0.0
  0
LINE
  8
0
  6
CONTINUOUS
 62
     2
 10
477.6199996
 20
278.6999876
 30
0.0
 11
469.89259299
 21
276.629435239
 31
0.0
  0
LINE
  8
0
  6
CONTINUOUS
 62
     2
 10
275.2199996
 20
252.370539961
 30
0.0
 11
267.49259299
 21
254.441092322
 31
0.0
  0
LINE
  8
0
  6
CONTINUOUS
 62
     2
 10
275.2199996
 20
252.370539961
 30
0.0
 11
267.49259299
 21
250.2999876
 31
0.0
  0
LINE
  8
0
  6
CONTINUOUS
 62
     2
 10
263.2199996
 20
252.370539961
 30
0.0
 11
275.2199996
 21
252.370539961
 31
0.0
  0
LINE
  8
0
  6
CONTINUOUS
 62
     2
 10
275.2199996
 20
252.370539961
 30
0.0
 11
296.0199996
 21
252.370539961
 31
0.0
  0
LINE
  8
0
  6
CONTINUOUS
 62
     2
 10
296.0199996
 20
252.370539961
 30
0.0
 11
303.74740621
 21
250.2999876
 31
0.0
  0
LINE
  8
0
  6
CONTINUOUS
 62
     2
 10
296.0199996
 20
252.370539961
 30
0.0
 11
303.74740621
 21
254.441092322
 31
0.0
  0
LINE
  8
0
  6
CONTINUOUS
 62
     2
 10
137.6199996
 20
227.0999876
 30
0.0
 11
137.6199996
 21
221.0999876
 31
0.0
  0
LINE
  8
0
  6
CONTINUOUS
 62
     2
 10
137.6199996
 20
225.0999876
 30
0.0
 11
145.34740621
 21
223.029435239
 31
0.0
  0
LINE
  8
0
  6
CONTINUOUS
 62
     2
 10
137.6199996
 20
225.0999876
 30
0.0
 11
145.34740621
 21
227.170539961
 31
0.0
  0
LINE
  8
0
  6
CONTINUOUS
 62
     2
 10
137.6199996
 20
225.0999876
 30
0.0
 11
296.0199996
 21
225.0999876
 31
0.0
  0
LINE
  8
0
  6
CONTINUOUS
 62
     2
 10
296.0199996
 20
225.0999876
 30
0.0
 11
288.29259299
 21
227.170539961
 31
0.0
  0
LINE
  8
0
  6
CONTINUOUS
 62
     2
 10
296.0199996
 20
225.0999876
 30
0.0
 11
288.29259299
 21
223.029435239
 31
0.0
  0
LINE
  8
0
  6
CONTINUOUS
 62
     2
 10
296.0199996
 20
226.2999876
 30
0.0
 11
296.0199996
 21
221.0999876
 31
0.0
  0
LINE
  8
0
  6
CONTINUOUS
 62
     2
 10
296.0199996
 20
225.0999876
 30
0.0
 11
303.74740621
 21
223.029435239
 31
0.0
  0
LINE
  8
0
  6
CONTINUOUS
 62
     2
 10
296.0199996
 20
225.0999876
 30
0.0
 11
303.74740621
 21
227.170539961
 31
0.0
  0
LINE
  8
0
  6
CONTINUOUS
 62
     2
 10
477.6199996
 20
221.4999876
 30
0.0
 11
477.6199996
 21
221.0999876
 31
0.0
  0
LINE
  8
0
  6
CONTINUOUS
 62
     2
 10
137.6199996
 20
195.8999876
 30
0.0
 11
145.34740621
 21
193.829435239
 31
0.0
  0
LINE
  8
0
  6
CONTINUOUS
 62
     2
 10
137.6199996
 20
195.8999876
 30
0.0
 11
145.34740621
 21
197.970539961
 31
0.0
  0
LINE
  8
0
  6
CONTINUOUS
 62
     2
 10
137.6199996
 20
195.8999876
 30
0.0
 11
455.2199996
 21
195.8999876
 31
0.0
  0
LINE
  8
0
  6
CONTINUOUS
 62
     2
 10
455.2199996
 20
195.8999876
 30
0.0
 11
447.49259299
 21
197.970539961
 31
0.0
  0
LINE
  8
0
  6
CONTINUOUS
 62
     2
 10
455.2199996
 20
195.8999876
 30
0.0
 11
447.49259299
 21
193.829435239
 31
0.0
  0
LINE
  8
0
  6
CONTINUOUS
 62
     2
 10
455.2199996
 20
196.6999876
 30
0.0
 11
455.2199996
 21
191.8999876
 31
0.0
  0
LINE
  8
0
  6
CONTINUOUS
 62
     2
 10
455.2199996
 20
195.8999876
 30
0.0
 11
447.49259299
 21
197.970539961
 31
0.0
  0
LINE
  8
0
  6
CONTINUOUS
 62
     2
 10
455.2199996
 20
195.8999876
 30
0.0
 11
447.49259299
 21
193.829435239
 31
0.0
  0
LINE
  8
0
  6
CONTINUOUS
 62
     2
 10
443.2199996
 20
195.8999876
 30
0.0
 11
455.2199996
 21
195.8999876
 31
0.0
  0
LINE
  8
0
  6
CONTINUOUS
 62
     2
 10
455.2199996
 20
195.8999876
 30
0.0
 11
477.6199996
 21
195.8999876
 31
0.0
  0
LINE
  8
0
  6
CONTINUOUS
 62
     2
 10
477.6199996
 20
195.8999876
 30
0.0
 11
485.34740621
 21
193.829435239
 31
0.0
  0
LINE
  8
0
  6
CONTINUOUS
 62
     2
 10
477.6199996
 20
195.8999876
 30
0.0
 11
485.34740621
 21
197.970539961
 31
0.0
  0
LINE
  8
0
  6
CONTINUOUS
 62
     2
 10
137.6199996
 20
289.4999876
 30
0.0
 11
137.6199996
 21
274.6999876
 31
0.0
  0
LINE
  8
0
  6
CONTINUOUS
 62
     2
 10
477.6199996
 20
289.4999876
 30
0.0
 11
477.6199996
 21
274.6999876
 31
0.0
  0
LINE
  8
0
  6
CONTINUOUS
 62
     2
 10
275.2199996
 20
278.2999876
 30
0.0
 11
275.2199996
 21
289.4999876
 31
0.0
  0
LINE
  8
0
  6
CONTINUOUS
 62
     2
 10
296.0199996
 20
265.170539961
 30
0.0
 11
296.0199996
 21
248.370539961
 31
0.0
  0
LINE
  8
0
  6
CONTINUOUS
 62
     2
 10
137.6199996
 20
274.6999876
 30
0.0
 11
137.6199996
 21
182.6999876
 31
0.0
  0
LINE
  8
0
  6
CONTINUOUS
 62
     2
 10
477.6199996
 20
278.6999876
 30
0.0
 11
477.6199996
 21
183.8999876
 31
0.0
  0
LINE
  8
0
  6
CONTINUOUS
 62
     2
 10
296.0199996
 20
252.370539961
 30
0.0
 11
296.0199996
 21
215.8999876
 31
0.0
  0
LINE
  8
0
  6
CONTINUOUS
 62
     2
 10
275.2199996
 20
278.6999876
 30
0.0
 11
275.2199996
 21
243.0999876
 31
0.0
  0
TEXT
  8
0
  6
CONTINUOUS
 62
     3
 10
179.4199996
 20
280.6999876
 30
0.0
 40
15.0
  1
ｍｉｎ．Ｌ
 50
0.0
 41
0.9
 51
0.0
  7
KANJI43
  0
TEXT
  8
0
  6
CONTINUOUS
 62
     3
 10
333.2199996
 20
280.6999876
 30
0.0
 40
15.0
  1
機械的ストローク
 50
0.0
 41
0.9
 51
0.0
  7
KANJI43
  0
TEXT
  8
0
  6
CONTINUOUS
 62
     3
 10
308.0199996
 20
254.370539961
 30
0.0
 40
15.0
  1
余裕
 50
0.0
 41
0.9
 51
0.0
  7
KANJI43
  0
TEXT
  8
0
  6
CONTINUOUS
 62
     3
 10
189.8199996
 20
227.0999876
 30
0.0
 40
15.0
  1
常用ｍｉｎ
 50
0.0
 41
0.9
 51
0.0
  7
KANJI43
  0
TEXT
  8
0
  6
CONTINUOUS
 62
     3
 10
269.4199996
 20
197.8999876
 30
0.0
 40
15.0
  1
常用ｍａｘ
 50
0.0
 41
0.9
 51
0.0
  7
KANJI43
  0
TEXT
  8
0
  6
CONTINUOUS
 62
     3
 10
489.6199996
 20
197.8999876
 30
0.0
 40
15.0
  1
余裕
 50
0.0
 41
0.9
 51
0.0
  7
KANJI43
  0
LINE
  8
0
  6
CONTINUOUS
 62
     2
 10
296.0199996
 20
252.370539961
 30
0.0
 11
336.1199996
 21
252.370539961
 31
0.0
  0
LINE
  8
0
  6
CONTINUOUS
 62
     2
 10
477.6199996
 20
195.8999876
 30
0.0
 11
520.1199996
 21
195.8999876
 31
0.0
  0
LINE
  8
0
  6
LTYPE2
 62
     2
 10
623.522218677
 20
629.133974596
 30
0.0
 11
281.322218677
 21
629.133974596
 31
0.0
  0
LINE
  8
7
  6
CONTINUOUS
 62
     2
 10
284.922218677
 20
381.433974596
 30
0.0
 11
1064.522218677
 21
381.433974596
 31
0.0
  0
LINE
  8
7
  6
CONTINUOUS
 62
     2
 10
481.422218677
 20
417.008974596
 30
0.0
 11
1064.522218677
 21
417.008974596
 31
0.0
  0
LINE
  8
7
  6
CONTINUOUS
 62
     2
 10
481.922218677
 20
452.008974596
 30
0.0
 11
969.522218677
 21
452.008974596
 31
0.0
  0
TEXT
  8
0
  6
CONTINUOUS
 62
     2
 10
627.172218677
 20
386.508974596
 30
0.0
 40
18.0
  1
ｍｉｎ．ＡＬ
 50
0.0
 41
0.9
 51
0.0
  7
KANJI17
  0
TEXT
  8
0
  6
CONTINUOUS
 62
     2
 10
733.172218677
 20
422.008974596
 30
0.0
 40
18.0
  1
ｍｉｎ．Ｌ
 50
0.0
 41
0.9
 51
0.0
  7
KANJI17
  0
LINE
  8
7
  6
CONTINUOUS
 62
     2
 10
1064.522218677
 20
596.633974596
 30
0.0
 11
1064.522218677
 21
373.933974596
 31
0.0
  0
LINE
  8
7
  6
CONTINUOUS
 62
     2
 10
969.522218677
 20
577.083974596
 30
0.0
 11
969.522218677
 21
444.508974596
 31
0.0
  0
LINE
  8
7
  6
CONTINUOUS
 62
     2
 10
1064.522218677
 20
381.433974596
 30
0.0
 11
1052.448145848
 21
384.66921266
 31
0.0
  0
LINE
  8
7
  6
CONTINUOUS
 62
     2
 10
1064.522218677
 20
381.433974596
 30
0.0
 11
1052.448145848
 21
378.198736532
 31
0.0
  0
LINE
  8
7
  6
CONTINUOUS
 62
     2
 10
1064.522218677
 20
423.908974596
 30
0.0
 11
1064.522218677
 21
424.508974596
 31
0.0
  0
LINE
  8
7
  6
CONTINUOUS
 62
     2
 10
1064.522218677
 20
417.008974596
 30
0.0
 11
1052.448145848
 21
420.24421266
 31
0.0
  0
LINE
  8
7
  6
CONTINUOUS
 62
     2
 10
1064.522218677
 20
417.008974596
 30
0.0
 11
1052.448145848
 21
413.773736532
 31
0.0
  0
LINE
  8
7
  6
CONTINUOUS
 62
     2
 10
1064.522218677
 20
410.508974596
 30
0.0
 11
1064.522218677
 21
409.508974596
 31
0.0
  0
LINE
  8
7
  6
CONTINUOUS
 62
     2
 10
1014.522218677
 20
452.008974596
 30
0.0
 11
1002.448145848
 21
455.24421266
 31
0.0
  0
LINE
  8
7
  6
CONTINUOUS
 62
     2
 10
1014.522218677
 20
452.008974596
 30
0.0
 11
1002.448145848
 21
448.773736532
 31
0.0
  0
LINE
  8
7
  6
CONTINUOUS
 62
     2
 10
1014.522218677
 20
452.008974596
 30
0.0
 11
1026.596291505
 21
448.773736532
 31
0.0
  0
LINE
  8
7
  6
CONTINUOUS
 62
     2
 10
1014.522218677
 20
452.008974596
 30
0.0
 11
1026.596291505
 21
455.24421266
 31
0.0
  0
LINE
  8
7
  6
CONTINUOUS
 62
     2
 10
1014.522218677
 20
452.008974596
 30
0.0
 11
1064.522218677
 21
452.008974596
 31
0.0
  0
LINE
  8
7
  6
CONTINUOUS
 62
     2
 10
1064.522218677
 20
452.008974596
 30
0.0
 11
1052.448145848
 21
455.24421266
 31
0.0
  0
LINE
  8
7
  6
CONTINUOUS
 62
     2
 10
1064.522218677
 20
452.008974596
 30
0.0
 11
1052.448145848
 21
448.773736532
 31
0.0
  0
LINE
  8
7
  6
CONTINUOUS
 62
     2
 10
969.522218677
 20
452.008974596
 30
0.0
 11
957.448145848
 21
455.24421266
 31
0.0
  0
LINE
  8
7
  6
CONTINUOUS
 62
     2
 10
969.522218677
 20
452.008974596
 30
0.0
 11
981.596291505
 21
455.24421266
 31
0.0
  0
LINE
  8
7
  6
CONTINUOUS
 62
     2
 10
969.522218677
 20
452.008974596
 30
0.0
 11
957.448145848
 21
448.773736532
 31
0.0
  0
LINE
  8
7
  6
CONTINUOUS
 62
     2
 10
969.522218677
 20
452.008974596
 30
0.0
 11
981.596291505
 21
448.773736532
 31
0.0
  0
LINE
  8
7
  6
CONTINUOUS
 62
     2
 10
969.522218677
 20
452.008974596
 30
0.0
 11
1014.522218677
 21
452.008974596
 31
0.0
  0
LINE
  8
7
  6
CONTINUOUS
 62
     2
 10
1014.522218677
 20
497.5
 30
0.0
 11
1014.522218677
 21
444.508974596
 31
0.0
  0
TEXT
  8
7
  6
CONTINUOUS
 62
     2
 10
1025.522218677
 20
457.008974596
 30
0.0
 40
18.0
  1
５０
 50
0.0
 41
0.9
 51
0.0
  7
KANJI17
  0
TEXT
  8
7
  6
CONTINUOUS
 62
     2
 10
986.072218677
 20
454.408974596
 30
0.0
 40
18.0
  1
Ｐ
 50
0.0
 41
0.9
 51
0.0
  7
KANJI17
  0
TEXT
  8
7
  6
CONTINUOUS
 62
     2
 10
970.672218677
 20
472.608974596
 30
0.0
 40
18.0
  1
ｍｉｎ
 50
0.0
 41
0.833333333
 51
0.0
  7
KANJI50
  0
TEXT
  8
0
  6
CONTINUOUS
 62
     2
 10
669.822218677
 20
457.333974596
 30
0.0
 40
18.0
  1
Ｃ
 50
0.0
 41
0.9
 51
0.0
  7
KANJI17
  0
LINE
  8
0
  6
CONTINUOUS
 62
     1
 10
515.922218677
 20
561.633974596
 30
0.0
 11
602.922218677
 21
561.633974596
 31
0.0
  0
LINE
  8
0
  6
CONTINUOUS
 62
     1
 10
512.922218677
 20
519.683974596
 30
0.0
 11
512.922218677
 21
558.633974596
 31
0.0
  0
ARC
  8
0
  6
CONTINUOUS
 62
     1
 10
515.922218677
 20
558.633974596
 30
0.0
 40
3.0
 50
90.0
 51
180.0
  0
LINE
  8
0
  6
CONTINUOUS
 62
     2
 10
1316.222218677
 20
413.133974596
 30
0.0
 11
1328.296291505
 21
409.898736532
 31
0.0
  0
LINE
  8
0
  6
CONTINUOUS
 62
     2
 10
1316.222218677
 20
413.133974596
 30
0.0
 11
1328.296291505
 21
416.36921266
 31
0.0
  0
LINE
  8
0
  6
CONTINUOUS
 62
     2
 10
1313.722218677
 20
363.133974596
 30
0.0
 11
1325.796291505
 21
359.898736532
 31
0.0
  0
LINE
  8
0
  6
CONTINUOUS
 62
     2
 10
1313.722218677
 20
363.133974596
 30
0.0
 11
1325.796291505
 21
366.36921266
 31
0.0
  0
LINE
  8
0
  6
CONTINUOUS
 62
     2
 10
1316.222218677
 20
413.133974596
 30
0.0
 11
1501.222218677
 21
413.133974596
 31
0.0
  0
LINE
  8
0
  6
CONTINUOUS
 62
     2
 10
1313.722218677
 20
363.133974596
 30
0.0
 11
1503.722218677
 21
363.133974596
 31
0.0
  0
TEXT
  8
0
  6
CONTINUOUS
 62
     2
 10
1386.222218677
 20
368.133974596
 30
0.0
 40
18.0
  1
１９０
 50
0.0
 41
0.9
 51
0.0
  7
KANJI17
  0
TEXT
  8
0
  6
CONTINUOUS
 62
     2
 10
1386.222218677
 20
418.133974596
 30
0.0
 40
18.0
  1
１８５
 50
0.0
 41
0.9
 51
0.0
  7
KANJI17
  0
LINE
  8
0
  6
CONTINUOUS
 62
     2
 10
1501.222218677
 20
413.133974596
 30
0.0
 11
1489.148145848
 21
416.36921266
 31
0.0
  0
LINE
  8
0
  6
CONTINUOUS
 62
     2
 10
1501.222218677
 20
413.133974596
 30
0.0
 11
1489.148145848
 21
409.898736532
 31
0.0
  0
LINE
  8
0
  6
CONTINUOUS
 62
     2
 10
1503.722218677
 20
363.133974596
 30
0.0
 11
1491.648145848
 21
366.36921266
 31
0.0
  0
LINE
  8
0
  6
CONTINUOUS
 62
     2
 10
1503.722218677
 20
363.133974596
 30
0.0
 11
1491.648145848
 21
359.898736532
 31
0.0
  0
LINE
  8
0
  6
CONTINUOUS
 62
     2
 10
1408.722218677
 20
535.633974596
 30
0.0
 11
1601.722218677
 21
473.633974596
 31
0.0
  0
LINE
  8
0
  6
CONTINUOUS
 62
     2
 10
1426.722218677
 20
509.633974596
 30
0.0
 11
1527.722218677
 21
440.633974596
 31
0.0
  0
LINE
  8
0
  6
CONTINUOUS
 62
     2
 10
1527.722218677
 20
440.633974596
 30
0.0
 11
1624.922218677
 21
440.633974596
 31
0.0
  0
TEXT
  8
0
  6
CONTINUOUS
 62
     3
 10
1527.722218677
 20
443.633974596
 30
0.0
 40
18.0
  1
推力リミッタ
 50
0.0
 41
0.9
 51
0.0
  7
KANJI17
  0
LINE
  8
0
  6
CONTINUOUS
 62
     2
 10
1601.722218677
 20
473.633974596
 30
0.0
 11
1682.722218677
 21
473.633974596
 31
0.0
  0
TEXT
  8
0
  6
CONTINUOUS
 62
     3
 10
1601.722218677
 20
476.633974596
 30
0.0
 40
18.0
  1
ＰＦ１／２
 50
0.0
 41
0.9
 51
0.0
  7
KANJI17
  0
ARC
  8
0
  6
CONTINUOUS
 62
     1
 10
1326.222218677
 20
545.133974596
 30
0.0
 40
10.0
 50
180.0
 51
270.0
  0
LINE
  8
0
  6
CONTINUOUS
 62
     1
 10
1363.722218677
 20
563.133974596
 30
0.0
 11
1453.722218677
 21
563.133974596
 31
0.0
  0
LINE
  8
0
  6
CONTINUOUS
 62
     1
 10
1341.722218677
 20
570.133974596
 30
0.0
 11
1341.722218677
 21
602.456200733
 31
0.0
  0
ARC
  8
0
  6
CONTINUOUS
 62
     1
 10
1349.722218677
 20
570.133974596
 30
0.0
 40
8.0
 50
180.0
 51
270.0
  0
LINE
  8
0
  6
CONTINUOUS
 62
     1
 10
1457.722218677
 20
562.133974596
 30
0.0
 11
1467.722218677
 21
562.133974596
 31
0.0
  0
LINE
  8
0
  6
CONTINUOUS
 62
     1
 10
1349.722218677
 20
562.133974596
 30
0.0
 11
1360.722218677
 21
562.133974596
 31
0.0
  0
LINE
  8
0
  6
CONTINUOUS
 62
     1
 10
1367.722218677
 20
563.133974596
 30
0.0
 11
1454.722218677
 21
563.133974596
 31
0.0
  0
ARC
  8
0
  6
CONTINUOUS
 62
     1
 10
1360.722218677
 20
558.633974596
 30
0.0
 40
3.0
 50
90.0
 51
180.0
  0
LINE
  8
0
  6
CONTINUOUS
 62
     1
 10
1357.722218677
 20
512.133974596
 30
0.0
 11
1357.722218677
 21
558.633974596
 31
0.0
  0
ARC
  8
0
  6
CONTINUOUS
 62
     1
 10
1456.722218677
 20
558.633974596
 30
0.0
 40
3.0
 50
0.0
 51
90.0
  0
LINE
  8
0
  6
CONTINUOUS
 62
     1
 10
1459.722218677
 20
512.133974596
 30
0.0
 11
1459.722218677
 21
558.633974596
 31
0.0
  0
LINE
  8
0
  6
CONTINUOUS
 62
     1
 10
1459.722218677
 20
517.133974596
 30
0.0
 11
1357.722218677
 21
517.133974596
 31
0.0
  0
LINE
  8
0
  6
CONTINUOUS
 62
     1
 10
1459.722218677
 20
518.633974596
 30
0.0
 11
1357.722218677
 21
518.633974596
 31
0.0
  0
LINE
  8
0
  6
CONTINUOUS
 62
     1
 10
1360.722218677
 20
561.633974596
 30
0.0
 11
1456.722218677
 21
561.633974596
 31
0.0
  0
LINE
  8
0
  6
CONTINUOUS
 62
     1
 10
1459.722218677
 20
535.133974596
 30
0.0
 11
1491.222218677
 21
535.133974596
 31
0.0
  0
LINE
  8
0
  6
CONTINUOUS
 62
     1
 10
1326.222218677
 20
535.133974596
 30
0.0
 11
1357.722218677
 21
535.133974596
 31
0.0
  0
LINE
  8
0
  6
CONTINUOUS
 62
     1
 10
1436.222218677
 20
654.133974596
 30
0.0
 11
1421.222218677
 21
654.133974596
 31
0.0
  0
LINE
  8
0
  6
CONTINUOUS
 62
     1
 10
1440.722218677
 20
607.133974596
 30
0.0
 11
1440.722218677
 21
651.133974596
 31
0.0
  0
LINE
  8
0
  6
CONTINUOUS
 62
     1
 10
1446.722218677
 20
616.633974596
 30
0.0
 11
1446.722218677
 21
641.633974596
 31
0.0
  0
LINE
  8
0
  6
CONTINUOUS
 62
     1
 10
1446.722218677
 20
641.633974596
 30
0.0
 11
1440.722218677
 21
641.633974596
 31
0.0
  0
LINE
  8
0
  6
CONTINUOUS
 62
     1
 10
1446.722218677
 20
616.633974596
 30
0.0
 11
1440.722218677
 21
616.633974596
 31
0.0
  0
LINE
  8
0
  6
CONTINUOUS
 62
     1
 10
1440.722218677
 20
651.133974596
 30
0.0
 11
1436.222218677
 21
651.133974596
 31
0.0
  0
LINE
  8
0
  6
CONTINUOUS
 62
     1
 10
1440.722218677
 20
607.133974596
 30
0.0
 11
1436.222218677
 21
607.133974596
 31
0.0
  0
CIRCLE
  8
0
  6
CONTINUOUS
 62
     1
 10
1442.722218677
 20
629.133974596
 30
0.0
 40
2.0
  0
LINE
  8
0
  6
CONTINUOUS
 62
     1
 10
1376.722218677
 20
607.133974596
 30
0.0
 11
1376.722218677
 21
651.133974596
 31
0.0
  0
LINE
  8
0
  6
CONTINUOUS
 62
     1
 10
1370.722218677
 20
616.633974596
 30
0.0
 11
1370.722218677
 21
641.633974596
 31
0.0
  0
LINE
  8
0
  6
CONTINUOUS
 62
     1
 10
1370.722218677
 20
641.633974596
 30
0.0
 11
1376.722218677
 21
641.633974596
 31
0.0
  0
LINE
  8
0
  6
CONTINUOUS
 62
     1
 10
1370.722218677
 20
616.633974596
 30
0.0
 11
1376.722218677
 21
616.633974596
 31
0.0
  0
LINE
  8
0
  6
CONTINUOUS
 62
     1
 10
1376.722218677
 20
651.133974596
 30
0.0
 11
1381.222218677
 21
651.133974596
 31
0.0
  0
LINE
  8
0
  6
CONTINUOUS
 62
     1
 10
1376.722218677
 20
607.133974596
 30
0.0
 11
1381.222218677
 21
607.133974596
 31
0.0
  0
CIRCLE
  8
0
  6
CONTINUOUS
 62
     1
 10
1374.722218677
 20
629.133974596
 30
0.0
 40
2.0
  0
LINE
  8
0
  6
CONTINUOUS
 62
     1
 10
1421.222218677
 20
616.633974596
 30
0.0
 11
1396.222218677
 21
616.633974596
 31
0.0
  0
LINE
  8
0
  6
CONTINUOUS
 62
     1
 10
1421.222218677
 20
641.633974596
 30
0.0
 11
1396.222218677
 21
641.633974596
 31
0.0
  0
LINE
  8
0
  6
CONTINUOUS
 62
     1
 10
1396.222218677
 20
616.633974596
 30
0.0
 11
1421.222218677
 21
616.633974596
 31
0.0
  0
LINE
  8
0
  6
CONTINUOUS
 62
     1
 10
1396.222218677
 20
641.633974596
 30
0.0
 11
1421.222218677
 21
641.633974596
 31
0.0
  0
LINE
  8
0
  6
CONTINUOUS
 62
     1
 10
1381.222218677
 20
654.133974596
 30
0.0
 11
1421.222218677
 21
654.133974596
 31
0.0
  0
LINE
  8
0
  6
CONTINUOUS
 62
     1
 10
1436.222218677
 20
604.133974596
 30
0.0
 11
1436.222218677
 21
654.133974596
 31
0.0
  0
LINE
  8
0
  6
CONTINUOUS
 62
     1
 10
1381.222218677
 20
604.133974596
 30
0.0
 11
1436.222218677
 21
604.133974596
 31
0.0
  0
LINE
  8
0
  6
CONTINUOUS
 62
     1
 10
1421.222218677
 20
604.133974596
 30
0.0
 11
1421.222218677
 21
654.133974596
 31
0.0
  0
LINE
  8
0
  6
CONTINUOUS
 62
     1
 10
1396.222218677
 20
604.133974596
 30
0.0
 11
1396.222218677
 21
654.133974596
 31
0.0
  0
LINE
  8
0
  6
CONTINUOUS
 62
     1
 10
1381.222218677
 20
604.133974596
 30
0.0
 11
1381.222218677
 21
654.133974596
 31
0.0
  0
LINE
  8
0
  6
CONTINUOUS
 62
     1
 10
1316.222218677
 20
545.133974596
 30
0.0
 11
1316.222218677
 21
605.827210886
 31
0.0
  0
LINE
  8
0
  6
CONTINUOUS
 62
     1
 10
1313.722218677
 20
606.133974596
 30
0.0
 11
1353.222218677
 21
601.28710797
 31
0.0
  0
LINE
  8
0
  6
CONTINUOUS
 62
     1
 10
1453.722218677
 20
563.133974596
 30
0.0
 11
1453.722218677
 21
585.940738307
 31
0.0
  0
LINE
  8
0
  6
CONTINUOUS
 62
     1
 10
1363.722218677
 20
563.133974596
 30
0.0
 11
1363.722218677
 21
585.760595664
 31
0.0
  0
ARC
  8
0
  6
CONTINUOUS
 62
     1
 10
1355.722218677
 20
576.133974596
 30
0.0
 40
9.0
 50
24.386100197
 51
334.165016937
  0
ARC
  8
0
  6
CONTINUOUS
 62
     1
 10
1461.722218677
 20
576.133974596
 30
0.0
 40
9.0
 50
202.863808572
 51
155.613899803
  0
LINE
  8
0
  6
LTYPE2
 62
     2
 10
1461.722218677
 20
667.633974596
 30
0.0
 11
1461.722218677
 21
694.633974596
 31
0.0
  0
LINE
  8
0
  6
LTYPE2
 62
     2
 10
1369.722218677
 20
576.133974596
 30
0.0
 11
1343.222218677
 21
576.133974596
 31
0.0
  0
LINE
  8
0
  6
LTYPE2
 62
     2
 10
1355.722218677
 20
590.633974596
 30
0.0
 11
1355.722218677
 21
563.633974596
 31
0.0
  0
LINE
  8
0
  6
LTYPE2
 62
     2
 10
1461.722218677
 20
590.133974596
 30
0.0
 11
1461.722218677
 21
563.633974596
 31
0.0
  0
LINE
  8
0
  6
LTYPE2
 62
     2
 10
1447.222218677
 20
576.133974596
 30
0.0
 11
1474.222218677
 21
576.133974596
 31
0.0
  0
LINE
  8
0
  6
LTYPE2
 62
     2
 10
1453.722218677
 20
506.433974596
 30
0.0
 11
1453.722218677
 21
525.133974596
 31
0.0
  0
LINE
  8
0
  6
LTYPE2
 62
     2
 10
1363.722218677
 20
506.433974596
 30
0.0
 11
1363.722218677
 21
525.133974596
 31
0.0
  0
LINE
  8
0
  6
LTYPE3
 62
     2
 10
1442.622218677
 20
625.133974596
 30
0.0
 11
1442.622218677
 21
633.333974596
 31
0.0
  0
LINE
  8
0
  6
LTYPE1
 62
     2
 10
1440.722218677
 20
641.633974596
 30
0.0
 11
1421.222218677
 21
641.633974596
 31
0.0
  0
LINE
  8
0
  6
LTYPE1
 62
     2
 10
1440.722218677
 20
616.633974596
 30
0.0
 11
1421.222218677
 21
616.633974596
 31
0.0
  0
LINE
  8
0
  6
LTYPE3
 62
     2
 10
1374.822218677
 20
625.133974596
 30
0.0
 11
1374.822218677
 21
633.333974596
 31
0.0
  0
LINE
  8
0
  6
LTYPE1
 62
     2
 10
1376.722218677
 20
641.633974596
 30
0.0
 11
1396.222218677
 21
641.633974596
 31
0.0
  0
LINE
  8
0
  6
LTYPE1
 62
     2
 10
1376.722218677
 20
616.633974596
 30
0.0
 11
1396.222218677
 21
616.633974596
 31
0.0
  0
LINE
  8
0
  6
LTYPE1
 62
     2
 10
1343.722218677
 20
616.633974596
 30
0.0
 11
1313.722218677
 21
616.633974596
 31
0.0
  0
LINE
  8
0
  6
LTYPE1
 62
     2
 10
1343.722218677
 20
641.633974596
 30
0.0
 11
1313.722218677
 21
641.633974596
 31
0.0
  0
LINE
  8
0
  6
LTYPE1
 62
     2
 10
1343.722218677
 20
616.633974596
 30
0.0
 11
1343.722218677
 21
641.633974596
 31
0.0
  0
CIRCLE
  8
0
  6
CONTINUOUS
 62
     2
 10
1408.722218677
 20
535.633974596
 30
0.0
 40
10.4775
  0
CIRCLE
  8
0
  6
CONTINUOUS
 62
     2
 10
1408.722218677
 20
535.633974596
 30
0.0
 40
9.3155
  0
LINE
  8
0
  6
LTYPE4
 62
     2
 10
1428.622218677
 20
535.633974596
 30
0.0
 11
1387.922218677
 21
535.633974596
 31
0.0
  0
LINE
  8
0
  6
LTYPE3
 62
     2
 10
1307.722218677
 20
629.133974596
 30
0.0
 11
1521.022218677
 21
629.133974596
 31
0.0
  0
LINE
  8
0
  6
CONTINUOUS
 62
     1
 10
1361.858770661
 20
596.303847577
 30
0.0
 11
1356.858770661
 21
604.964101615
 31
0.0
  0
LINE
  8
0
  6
CONTINUOUS
 62
     1
 10
1356.858770661
 20
604.964101615
 30
0.0
 11
1353.572432352
 21
603.066733308
 31
0.0
  0
LINE
  8
0
  6
CONTINUOUS
 62
     1
 10
1361.858770661
 20
596.303847577
 30
0.0
 11
1358.572432352
 21
594.40647927
 31
0.0
  0
ARC
  8
0
  6
CONTINUOUS
 62
     1
 10
1408.722218677
 20
629.133974596
 30
0.0
 40
61.0
 50
214.701650197
 51
325.298349803
  0
LINE
  8
0
  6
CONTINUOUS
 62
     1
 10
1460.585666692
 20
604.964101615
 30
0.0
 11
1455.585666692
 21
596.303847577
 31
0.0
  0
LINE
  8
0
  6
CONTINUOUS
 62
     1
 10
1460.585666692
 20
604.964101615
 30
0.0
 11
1463.872005001
 21
603.066733308
 31
0.0
  0
LINE
  8
0
  6
CONTINUOUS
 62
     1
 10
1455.585666692
 20
596.303847577
 30
0.0
 11
1458.872005001
 21
594.40647927
 31
0.0
  0
LINE
  8
0
  6
CONTINUOUS
 62
     2
 10
1408.722218677
 20
535.633974596
 30
0.0
 11
1418.807965064
 21
529.131842653
 31
0.0
  0
LINE
  8
0
  6
CONTINUOUS
 62
     2
 10
1408.722218677
 20
535.633974596
 30
0.0
 11
1420.707797236
 21
535.045836349
 31
0.0
  0
LINE
  8
0
  6
LTYPE5
 62
     2
 10
1363.722218677
 20
502.733974596
 30
0.0
 11
1363.722218677
 21
516.133974596
 31
0.0
  0
LINE
  8
0
  6
LTYPE5
 62
     2
 10
1453.722218677
 20
502.733974596
 30
0.0
 11
1453.722218677
 21
516.133974596
 31
0.0
  0
LINE
  8
0
  6
LTYPE4
 62
     2
 10
1373.217754509
 20
593.629510429
 30
0.0
 11
1441.185289961
 21
661.597045881
 31
0.0
  0
LINE
  8
0
  6
LTYPE2
 62
     2
 10
1273.240559401
 20
682.591247254
 30
0.0
 11
1314.25275271
 21
641.579053945
 31
0.0
  0
LINE
  8
0
  6
LTYPE2
 62
     2
 10
1293.817366734
 20
683.369064713
 30
0.0
 11
1327.051385449
 21
650.135045997
 31
0.0
  0
LINE
  8
0
  6
CONTINUOUS
 62
     1
 10
1327.40493884
 20
656.711139062
 30
0.0
 11
1299.120667593
 21
684.99541031
 31
0.0
  0
LINE
  8
0
  6
CONTINUOUS
 62
     1
 10
1327.40493884
 20
656.711139062
 30
0.0
 11
1299.120667593
 21
628.426867815
 31
0.0
  0
LINE
  8
0
  6
LTYPE2
 62
     2
 10
1294.029498768
 20
641.861896658
 30
0.0
 11
1314.111331354
 21
661.943729243
 31
0.0
  0
LINE
  8
0
  6
CONTINUOUS
 62
     1
 10
1305.413917945
 20
668.378400952
 30
0.0
 11
1320.546003063
 21
653.246315835
 31
0.0
  0
LINE
  8
0
  6
CONTINUOUS
 62
     1
 10
1320.546003063
 20
650.41788871
 30
0.0
 11
1305.413917945
 21
635.285803593
 31
0.0
  0
ARC
  8
0
  6
CONTINUOUS
 62
     1
 10
1319.1317895
 20
651.832102272
 30
0.0
 40
2.0
 50
315.0
 51
45.0
  0
LINE
  8
0
  6
CONTINUOUS
 62
     1
 10
1438.774256877
 20
657.064692453
 30
0.0
 11
1461.048120484
 21
634.790828846
 31
0.0
  0
LINE
  8
0
  6
CONTINUOUS
 62
     1
 10
1380.79150082
 20
599.081936396
 30
0.0
 11
1403.065364427
 21
576.808072788
 31
0.0
  0
LINE
  8
0
  6
CONTINUOUS
 62
     1
 10
1422.157247519
 20
673.681701811
 30
0.0
 11
1436.652936533
 21
659.186012797
 31
0.0
  0
LINE
  8
0
  6
CONTINUOUS
 62
     1
 10
1364.174491462
 20
615.698945754
 30
0.0
 11
1378.88231251
 21
600.991124705
 31
0.0
  0
LINE
  8
0
  6
CONTINUOUS
 62
     1
 10
1305.484628623
 20
711.158361214
 30
0.0
 11
1364.174491462
 21
615.698945754
 31
0.0
  0
LINE
  8
0
  6
CONTINUOUS
 62
     1
 10
1337.79097514
 20
658.611893988
 30
0.0
 11
1300.181327764
 21
621.002246613
 31
0.0
  0
LINE
  8
0
  6
CONTINUOUS
 62
     1
 10
1295.938687077
 20
625.2448873
 30
0.0
 11
1334.560340488
 21
663.866540711
 31
0.0
  0
ARC
  8
0
  6
CONTINUOUS
 62
     1
 10
1336.243773605
 20
621.002246613
 30
0.0
 40
2.0
 50
135.0
 51
225.0
  0
LINE
  8
0
  6
CONTINUOUS
 62
     1
 10
1334.829560043
 20
619.58803305
 30
0.0
 11
1347.557482104
 21
606.860110989
 31
0.0
  0
ARC
  8
0
  6
CONTINUOUS
 62
     1
 10
1348.971695666
 20
608.274324551
 30
0.0
 40
2.0
 50
225.0
 51
315.0
  0
LINE
  8
0
  6
CONTINUOUS
 62
     1
 10
1350.385909229
 20
606.860110989
 30
0.0
 11
1362.289954582
 21
618.764156342
 31
0.0
  0
LINE
  8
0
  6
CONTINUOUS
 62
     1
 10
1334.829560043
 20
622.416460175
 30
0.0
 11
1348.264588885
 21
635.851489017
 31
0.0
  0
ARC
  8
0
  6
CONTINUOUS
 62
     1
 10
1346.143268542
 20
637.972809361
 30
0.0
 40
3.0
 50
315.0
 51
45.0
  0
LINE
  8
0
  6
CONTINUOUS
 62
     1
 10
1334.122453261
 20
654.236265328
 30
0.0
 11
1348.264588885
 21
640.094129705
 31
0.0
  0
LINE
  8
0
  6
CONTINUOUS
 62
     1
 10
1334.122453261
 20
654.236265328
 30
0.0
 11
1338.232105976
 21
658.345918043
 31
0.0
  0
ARC
  8
0
  6
CONTINUOUS
 62
     1
 10
1408.722218677
 20
629.133974596
 30
0.0
 40
61.0
 50
334.701650197
 51
69.485463675
  0
ARC
  8
0
  6
CONTINUOUS
 62
     1
 10
1408.722218677
 20
629.133974596
 30
0.0
 40
61.0
 50
200.434751355
 51
205.298349803
  0
LINE
  8
0
  6
CONTINUOUS
 62
     1
 10
1313.722218677
 20
606.133974596
 30
0.0
 11
1313.722218677
 21
634.543137525
 31
0.0
  0
LINE
  8
0
  6
CONTINUOUS
 62
     1
 10
1385.84353902
 20
604.133974596
 30
0.0
 11
1380.79150082
 21
599.081936396
 31
0.0
  0
LINE
  8
0
  6
CONTINUOUS
 62
     1
 10
1381.600898333
 20
604.133974596
 30
0.0
 11
1378.670180476
 21
601.203256739
 31
0.0
  0
LINE
  8
0
  6
CONTINUOUS
 62
     1
 10
1431.600898333
 20
654.133974596
 30
0.0
 11
1436.652936533
 21
659.186012797
 31
0.0
  0
LINE
  8
0
  6
CONTINUOUS
 62
     1
 10
1435.84353902
 20
654.133974596
 30
0.0
 11
1438.774256877
 21
657.064692453
 31
0.0
  0
LINE
  8
0
  6
CONTINUOUS
 62
     1
 10
1447.257291639
 20
621.0
 30
0.0
 11
1461.048120484
 21
634.790828846
 31
0.0
  0
LINE
  8
0
  6
CONTINUOUS
 62
     1
 10
1441.257291639
 20
615.0
 30
0.0
 11
1443.257291639
 21
617.0
 31
0.0
  0
LINE
  8
0
  6
CONTINUOUS
 62
     1
 10
1403.065364427
 20
576.808072788
 30
0.0
 11
1430.257291639
 21
604.0
 31
0.0
  0
LINE
  8
0
  6
LTYPE3
 62
     2
 10
1302.0
 20
735.856193273
 30
0.0
 11
1413.966262549
 21
623.889930724
 31
0.0
  0
LINE
  8
0
  6
CONTINUOUS
 62
     1
 10
1358.871190603
 20
615.345392363
 30
0.0
 11
1376.902402734
 21
597.314180232
 31
0.0
  0
LINE
  8
0
  6
CONTINUOUS
 62
     1
 10
1353.214336353
 20
609.688538114
 30
0.0
 11
1371.245548484
 21
591.657325983
 31
0.0
  0
ARC
  8
0
  6
CONTINUOUS
 62
     1
 10
1408.722218677
 20
629.133974596
 30
0.0
 40
53.0
 50
224.999983511
 51
45.0
  0
LINE
  8
0
  6
CONTINUOUS
 62
     1
 10
1422.51080091
 20
678.98500267
 30
0.0
 11
1440.54201304
 21
660.953790539
 31
0.0
  0
LINE
  8
0
  6
CONTINUOUS
 62
     1
 10
1428.167655159
 20
684.641856919
 30
0.0
 11
1446.19886729
 21
666.610644789
 31
0.0
  0
ARC
  8
0
  6
CONTINUOUS
 62
     1
 10
1408.722218677
 20
629.133974596
 30
0.0
 40
45.0
 50
20.659353271
 51
45.000019432
  0
ARC
  8
0
  6
CONTINUOUS
 62
     1
 10
1408.722218677
 20
629.133974596
 30
0.0
 40
45.0
 50
272.166571934
 51
357.833428066
  0
ARC
  8
0
  6
CONTINUOUS
 62
     1
 10
1408.722218677
 20
629.133974596
 30
0.0
 40
45.0
 50
224.999980568
 51
249.340646729
  0
ARC
  8
0
  6
CONTINUOUS
 62
     1
 10
1458.722218677
 20
512.133974596
 30
0.0
 40
1.0
 50
270.0
 51
0.0
  0
ARC
  8
0
  6
CONTINUOUS
 62
     1
 10
1358.722218677
 20
512.133974596
 30
0.0
 40
1.0
 50
180.0
 51
270.0
  0
ARC
  8
0
  6
CONTINUOUS
 62
     1
 10
1361.722218677
 20
511.133974596
 30
0.0
 40
1.0
 50
180.0
 51
270.0
  0
ARC
  8
0
  6
CONTINUOUS
 62
     1
 10
1458.722218677
 20
512.133974596
 30
0.0
 40
1.0
 50
270.0
 51
0.0
  0
ARC
  8
0
  6
CONTINUOUS
 62
     1
 10
1455.722218677
 20
511.133974596
 30
0.0
 40
1.0
 50
270.0
 51
0.0
  0
LINE
  8
0
  6
CONTINUOUS
 62
     1
 10
1455.722218677
 20
510.133974596
 30
0.0
 11
1361.722218677
 21
510.133974596
 31
0.0
  0
LINE
  8
0
  6
CONTINUOUS
 62
     1
 10
1458.722218677
 20
511.133974596
 30
0.0
 11
1358.722218677
 21
511.133974596
 31
0.0
  0
LINE
  8
0
  6
CONTINUOUS
 62
     2
 10
1426.722218677
 20
509.633974596
 30
0.0
 11
1434.541101621
 21
500.530949302
 31
0.0
  0
LINE
  8
0
  6
CONTINUOUS
 62
     2
 10
1426.722218677
 20
509.633974596
 30
0.0
 11
1438.045082583
 21
505.659964913
 31
0.0
  0
LINE
  8
0
  6
CONTINUOUS
 62
     1
 10
1369.022218677
 20
510.133974596
 30
0.0
 11
1358.422218677
 21
510.133974596
 31
0.0
  0
ARC
  8
0
  6
CONTINUOUS
 62
     1
 10
1364.122218677
 20
511.133974596
 30
0.0
 40
5.0
 50
272.3
 51
348.5
  0
ARC
  8
0
  6
CONTINUOUS
 62
     1
 10
1363.322218677
 20
511.133974596
 30
0.0
 40
5.0
 50
191.5
 51
267.7
  0
LINE
  8
0
  6
CONTINUOUS
 62
     1
 10
1364.322218677
 20
506.133974596
 30
0.0
 11
1363.122218677
 21
506.133974596
 31
0.0
  0
LINE
  8
0
  6
CONTINUOUS
 62
     1
 10
1459.022218677
 20
510.133974596
 30
0.0
 11
1448.422218677
 21
510.133974596
 31
0.0
  0
ARC
  8
0
  6
CONTINUOUS
 62
     1
 10
1454.122218677
 20
511.133974596
 30
0.0
 40
5.0
 50
272.3
 51
348.5
  0
ARC
  8
0
  6
CONTINUOUS
 62
     1
 10
1453.322218677
 20
511.133974596
 30
0.0
 40
5.0
 50
191.5
 51
267.7
  0
LINE
  8
0
  6
CONTINUOUS
 62
     1
 10
1454.322218677
 20
506.133974596
 30
0.0
 11
1453.122218677
 21
506.133974596
 31
0.0
  0
ARC
  8
0
  6
CONTINUOUS
 62
     1
 10
1491.222218677
 20
545.133974596
 30
0.0
 40
10.0
 50
270.0
 51
0.0
  0
LINE
  8
0
  6
CONTINUOUS
 62
     1
 10
1475.722218677
 20
570.133974596
 30
0.0
 11
1475.722218677
 21
603.31174846
 31
0.0
  0
ARC
  8
0
  6
CONTINUOUS
 62
     1
 10
1467.722218677
 20
570.133974596
 30
0.0
 40
8.0
 50
270.0
 51
0.0
  0
LINE
  8
0
  6
CONTINUOUS
 62
     1
 10
1501.222218677
 20
545.133974596
 30
0.0
 11
1501.222218677
 21
605.827210886
 31
0.0
  0
LINE
  8
0
  6
CONTINUOUS
 62
     1
 10
1475.722218677
 20
654.956200733
 30
0.0
 11
1475.722218677
 21
688.133974596
 31
0.0
  0
CIRCLE
  8
0
  6
CONTINUOUS
 62
     1
 10
1461.722218677
 20
682.133974596
 30
0.0
 40
9.0
  0
LINE
  8
0
  6
CONTINUOUS
 62
     1
 10
1503.722218677
 20
606.133974596
 30
0.0
 11
1503.722218677
 21
652.133974596
 31
0.0
  0
LINE
  8
0
  6
CONTINUOUS
 62
     1
 10
1503.722218677
 20
606.133974596
 30
0.0
 11
1463.722218677
 21
601.225755228
 31
0.0
  0
LINE
  8
0
  6
CONTINUOUS
 62
     1
 10
1503.722218677
 20
652.133974596
 30
0.0
 11
1464.222218677
 21
656.980841222
 31
0.0
  0
LINE
  8
0
  6
LTYPE1
 62
     2
 10
1473.722218677
 20
616.633974596
 30
0.0
 11
1503.722218677
 21
616.633974596
 31
0.0
  0
LINE
  8
0
  6
LTYPE1
 62
     2
 10
1473.722218677
 20
641.633974596
 30
0.0
 11
1503.722218677
 21
641.633974596
 31
0.0
  0
LINE
  8
0
  6
LTYPE1
 62
     2
 10
1473.722218677
 20
616.633974596
 30
0.0
 11
1473.722218677
 21
641.633974596
 31
0.0
  0
ARC
  8
0
  6
CONTINUOUS
 62
     1
 10
1467.722218677
 20
688.133974596
 30
0.0
 40
8.0
 50
0.0
 51
90.0
  0
LINE
  8
0
  6
CONTINUOUS
 62
     1
 10
1446.418372326
 20
696.133974596
 30
0.0
 11
1467.722218677
 21
696.133974596
 31
0.0
  0
LINE
  8
0
  6
LTYPE2
 62
     2
 10
1447.722218677
 20
682.133974596
 30
0.0
 11
1474.222218677
 21
682.133974596
 31
0.0
  0
LINE
  8
0
  6
LTYPE2
 62
     2
 10
1355.722218677
 20
668.133974596
 30
0.0
 11
1355.722218677
 21
694.633974596
 31
0.0
  0
LINE
  8
0
  6
LTYPE2
 62
     2
 10
1370.222218677
 20
682.133974596
 30
0.0
 11
1343.222218677
 21
682.133974596
 31
0.0
  0
LINE
  8
0
  6
CONTINUOUS
 62
     1
 10
1281.089444672
 20
685.348963701
 30
0.0
 11
1300.322749121
 21
666.115659252
 31
0.0
  0
LINE
  8
0
  6
LTYPE2
 62
     2
 10
1304.989653876
 20
629.487527987
 30
0.0
 11
1271.755635161
 21
662.721546703
 31
0.0
  0
LINE
  8
0
  6
CONTINUOUS
 62
     1
 10
1270.836396345
 20
656.711139062
 30
0.0
 11
1299.120667593
 21
628.426867815
 31
0.0
  0
LINE
  8
0
  6
CONTINUOUS
 62
     1
 10
1302.58549082
 20
668.378400952
 30
0.0
 11
1287.453405703
 21
653.246315835
 31
0.0
  0
ARC
  8
0
  6
CONTINUOUS
 62
     1
 10
1303.999704383
 20
666.96418739
 30
0.0
 40
2.0
 50
45.0
 51
135.0
  0
LINE
  8
0
  6
CONTINUOUS
 62
     1
 10
1299.120667593
 20
628.426867815
 30
0.0
 11
1299.191378271
 21
628.356157137
 31
0.0
  0
LINE
  8
0
  6
CONTINUOUS
 62
     1
 10
1287.453405703
 20
650.41788871
 30
0.0
 11
1302.58549082
 21
635.285803593
 31
0.0
  0
ARC
  8
0
  6
CONTINUOUS
 62
     1
 10
1303.999704383
 20
636.700017155
 30
0.0
 40
2.0
 50
225.0
 51
315.0
  0
LINE
  8
0
  6
CONTINUOUS
 62
     1
 10
1305.329949015
 20
709.589468043
 30
0.0
 11
1270.482842955
 21
674.742361983
 31
0.0
  0
LINE
  8
0
  6
CONTINUOUS
 62
     1
 10
1270.482842955
 20
674.742361983
 30
0.0
 11
1289.716147403
 21
655.509057534
 31
0.0
  0
LINE
  8
0
  6
CONTINUOUS
 62
     1
 10
1296.999347249
 20
687.116730654
 30
0.0
 11
1288.160512484
 21
678.277895889
 31
0.0
  0
LINE
  8
0
  6
CONTINUOUS
 62
     1
 10
1302.656201499
 20
681.459876404
 30
0.0
 11
1293.746656056
 21
672.550330961
 31
0.0
  0
LINE
  8
0
  6
CONTINUOUS
 62
     1
 10
1299.120667593
 20
684.99541031
 30
0.0
 11
1290.281832828
 21
676.156575545
 31
0.0
  0
LINE
  8
0
  6
CONTINUOUS
 62
     1
 10
1288.160512484
 20
678.277895889
 30
0.0
 11
1277.553910766
 21
667.671294171
 31
0.0
  0
LINE
  8
0
  6
CONTINUOUS
 62
     1
 10
1283.210765016
 20
662.014439921
 30
0.0
 11
1274.371930251
 21
653.175605157
 31
0.0
  0
LINE
  8
0
  6
CONTINUOUS
 62
     1
 10
1279.604520432
 20
665.479263149
 30
0.0
 11
1270.836396345
 21
656.711139062
 31
0.0
  0
ARC
  8
0
  6
CONTINUOUS
 62
     1
 10
1288.867619265
 20
651.832102272
 30
0.0
 40
2.0
 50
135.0
 51
225.0
  0
LINE
  8
0
  6
LTYPE3
 62
     2
 10
1307.040263542
 20
694.329219822
 30
0.0
 11
1342.395602601
 21
729.684558881
 31
0.0
  0
ARC
  8
0
  6
LTYPE1
 62
     1
 10
1325.283618497
 20
712.572574776
 30
0.0
 40
16.0
 50
225.0
 51
99.340912304
  0
LINE
  8
0
  6
CONTINUOUS
 62
     1
 10
1309.749366397
 20
702.695176927
 30
0.0
 11
1302.125871413
 21
695.071681942
 31
0.0
  0
LINE
  8
0
  6
LTYPE2
 62
     2
 10
1301.807673361
 20
707.764248664
 30
0.0
 11
1315.38412356
 21
694.187798465
 31
0.0
  0
LINE
  8
0
  6
LTYPE1
 62
     2
 10
1314.853793474
 20
707.092497222
 30
0.0
 11
1319.803540942
 21
702.142749754
 31
0.0
  0
ARC
  8
0
  6
LTYPE1
 62
     1
 10
1325.283618497
 20
712.572574776
 30
0.0
 40
16.0
 50
170.659087696
 51
225.0
  0
LINE
  8
0
  6
LTYPE1
 62
     1
 10
1311.848589654
 20
704.794400183
 30
0.0
 11
1309.749366397
 21
702.695176927
 31
0.0
  0
LINE
  8
0
  6
CONTINUOUS
 62
     1
 10
1314.478142996
 20
696.817351808
 30
0.0
 11
1307.429172272
 21
689.768381083
 31
0.0
  0
LINE
  8
0
  6
CONTINUOUS
 62
     1
 10
1312.582597237
 20
704.821300985
 30
0.0
 11
1302.479424803
 21
694.718128551
 31
0.0
  0
LINE
  8
0
  6
LTYPE1
 62
     2
 10
1314.853793474
 20
707.092497222
 30
0.0
 11
1312.582597237
 21
704.821300985
 31
0.0
  0
LINE
  8
0
  6
CONTINUOUS
 62
     1
 10
1302.055160735
 20
695.14239262
 30
0.0
 11
1296.999347249
 21
687.116730654
 31
0.0
  0
LINE
  8
0
  6
CONTINUOUS
 62
     1
 10
1302.479424803
 20
694.718128551
 30
0.0
 11
1307.429172272
 21
689.768381083
 31
0.0
  0
LINE
  8
0
  6
LTYPE1
 62
     2
 10
1319.803540942
 20
702.142749754
 30
0.0
 11
1314.478142996
 21
696.817351808
 31
0.0
  0
LINE
  8
0
  6
LTYPE1
 62
     1
 10
1305.484628623
 20
711.158361214
 30
0.0
 11
1313.203877651
 21
703.439112186
 31
0.0
  0
LINE
  8
0
  6
CONTINUOUS
 62
     1
 10
1326.697832059
 20
732.371564649
 30
0.0
 11
1422.157247519
 21
673.681701811
 31
0.0
  0
LINE
  8
0
  6
CONTINUOUS
 62
     1
 10
1295.938687077
 20
625.2448873
 30
0.0
 11
1300.181327764
 21
621.002246613
 31
0.0
  0
LINE
  8
0
  6
CONTINUOUS
 62
     1
 10
1373.989652562
 20
703.295852785
 30
0.0
 11
1412.611305973
 21
741.917506195
 31
0.0
  0
LINE
  8
0
  6
CONTINUOUS
 62
     1
 10
1416.85394666
 20
737.674865508
 30
0.0
 11
1379.244299285
 21
700.065218133
 31
0.0
  0
ARC
  8
0
  6
CONTINUOUS
 62
     1
 10
1429.581868722
 20
688.884497606
 30
0.0
 40
2.0
 50
315.0
 51
45.0
  0
LINE
  8
0
  6
CONTINUOUS
 62
     1
 10
1419.092036931
 20
675.566238691
 30
0.0
 11
1430.996082284
 21
687.470284044
 31
0.0
  0
ARC
  8
0
  6
CONTINUOUS
 62
     1
 10
1399.883383912
 20
691.712924731
 30
0.0
 40
3.0
 50
225.0
 51
315.0
  0
LINE
  8
0
  6
CONTINUOUS
 62
     1
 10
1383.619927944
 20
703.733740011
 30
0.0
 11
1397.762063568
 21
689.591604388
 31
0.0
  0
LINE
  8
0
  6
CONTINUOUS
 62
     1
 10
1379.597852675
 20
699.711664742
 30
0.0
 11
1383.619927944
 21
703.733740011
 31
0.0
  0
ARC
  8
0
  6
CONTINUOUS
 62
     1
 10
1408.722218677
 20
794.133974596
 30
0.0
 40
105.0
 50
281.65725047
 51
291.039469781
  0
LINE
  8
0
  6
CONTINUOUS
 62
     2
 10
1243.0
 20
911.0
 30
0.0
 11
1081.0
 21
911.0
 31
0.0
  0
TEXT
  8
0
  6
CONTINUOUS
 62
     3
 10
1081.0
 20
914.0
 30
0.0
 40
18.0
  1
ＬＳユニット組付位置
 50
0.0
 41
0.9
 51
0.0
  7
KANJI17
  0
LINE
  8
0
  6
CONTINUOUS
 62
     2
 10
1309.0
 20
728.0
 30
0.0
 11
1243.0
 21
911.0
 31
0.0
  0
ARC
  8
0
  6
CONTINUOUS
 62
     1
 10
1325.283618497
 20
712.572574776
 30
0.0
 40
16.0
 50
99.340912304
 51
170.659087696
  0
LINE
  8
0
  6
LTYPE1
 62
     1
 10
1306.191735404
 20
710.451254433
 30
0.0
 11
1305.329949015
 21
709.589468043
 31
0.0
  0
CIRCLE
  8
0
  6
CONTINUOUS
 62
     1
 10
1325.283618497
 20
712.572574776
 30
0.0
 40
6.49995
  0
LINE
  8
0
  6
CONTINUOUS
 62
     1
 10
1323.337010096
 20
705.326865732
 30
0.0
 11
1318.037909452
 21
710.625966376
 31
0.0
  0
LINE
  8
0
  6
CONTINUOUS
 62
     1
 10
1318.037909452
 20
710.625966376
 30
0.0
 11
1319.984517852
 21
717.871675421
 31
0.0
  0
LINE
  8
0
  6
CONTINUOUS
 62
     1
 10
1323.337010096
 20
705.326865732
 30
0.0
 11
1330.582719141
 21
707.273474132
 31
0.0
  0
CIRCLE
  8
0
  6
LTYPE1
 62
     2
 10
1325.283618497
 20
712.572574776
 30
0.0
 40
3.2
  0
CIRCLE
  8
0
  6
CONTINUOUS
 62
     1
 10
1325.283618497
 20
712.572574776
 30
0.0
 40
4.0
  0
LINE
  8
0
  6
CONTINUOUS
 62
     1
 10
1327.230226897
 20
719.818283821
 30
0.0
 11
1319.984517852
 21
717.871675421
 31
0.0
  0
LINE
  8
0
  6
CONTINUOUS
 62
     1
 10
1332.529327541
 20
714.519183176
 30
0.0
 11
1330.582719141
 21
707.273474132
 31
0.0
  0
LINE
  8
0
  6
LTYPE2
 62
     2
 10
1328.394888334
 20
737.745576186
 30
0.0
 11
1343.668394807
 21
722.472069713
 31
0.0
  0
LINE
  8
0
  6
CONTINUOUS
 62
     1
 10
1332.529327541
 20
714.519183176
 30
0.0
 11
1327.230226897
 21
719.818283821
 31
0.0
  0
LINE
  8
0
  6
LTYPE1
 62
     2
 10
1330.763696051
 20
723.002399799
 30
0.0
 11
1335.713443519
 21
718.05265233
 31
0.0
  0
LINE
  8
0
  6
LTYPE1
 62
     2
 10
1341.038841465
 20
723.378050276
 30
0.0
 11
1335.713443519
 21
718.05265233
 31
0.0
  0
LINE
  8
0
  6
CONTINUOUS
 62
     1
 10
1335.161016346
 20
728.106826875
 30
0.0
 11
1342.784511331
 21
735.73032186
 31
0.0
  0
LINE
  8
0
  6
LTYPE1
 62
     1
 10
1333.06179309
 20
726.007603619
 30
0.0
 11
1335.161016346
 21
728.106826875
 31
0.0
  0
LINE
  8
0
  6
LTYPE1
 62
     2
 10
1334.954776868
 20
727.193480616
 30
0.0
 11
1333.41534648
 21
725.654050228
 31
0.0
  0
LINE
  8
0
  6
CONTINUOUS
 62
     1
 10
1348.08781219
 20
730.427021001
 30
0.0
 11
1339.088394015
 21
721.427602826
 31
0.0
  0
LINE
  8
0
  6
LTYPE1
 62
     1
 10
1336.597326995
 20
722.472069713
 30
0.0
 11
1337.459113385
 21
723.333856102
 31
0.0
  0
LINE
  8
0
  6
CONTINUOUS
 62
     1
 10
1343.138064721
 20
735.376768469
 30
0.0
 11
1333.034892288
 21
725.273596036
 31
0.0
  0
LINE
  8
0
  6
LTYPE1
 62
     1
 10
1326.697832059
 20
732.371564649
 30
0.0
 11
1334.417081087
 21
724.652315621
 31
0.0
  0
LINE
  8
0
  6
CONTINUOUS
 62
     1
 10
1305.484628623
 20
711.158361214
 30
0.0
 11
1326.697832059
 21
732.371564649
 31
0.0
  0
LINE
  8
0
  6
CONTINUOUS
 62
     2
 10
1309.0
 20
728.0
 30
0.0
 11
1307.989160379
 21
739.957349341
 31
0.0
  0
LINE
  8
0
  6
CONTINUOUS
 62
     2
 10
1309.0
 20
728.0
 30
0.0
 11
1302.145912538
 21
737.84994848
 31
0.0
  0
CIRCLE
  8
0
  6
CONTINUOUS
 62
     1
 10
1380.01368336
 20
739.86689653
 30
0.0
 40
9.36
  0
LINE
  8
0
  6
LTYPE2
 62
     2
 10
1389.206071516
 20
749.059284685
 30
0.0
 11
1370.821295205
 21
730.674508375
 31
0.0
  0
CIRCLE
  8
0
  6
CONTINUOUS
 62
     2
 10
1380.01368336
 20
739.86689653
 30
0.0
 40
10.47
  0
LINE
  8
0
  6
CONTINUOUS
 62
     1
 10
1343.138064721
 20
735.376768469
 30
0.0
 11
1348.08781219
 21
730.427021001
 31
0.0
  0
LINE
  8
0
  6
CONTINUOUS
 62
     1
 10
1342.713800653
 20
735.801032538
 30
0.0
 11
1350.739462619
 21
740.856846024
 31
0.0
  0
LINE
  8
0
  6
CONTINUOUS
 62
     1
 10
1384.680588116
 20
763.484263022
 30
0.0
 11
1356.396316869
 21
735.199991774
 31
0.0
  0
LINE
  8
0
  6
CONTINUOUS
 62
     1
 10
1381.095186102
 20
759.898861008
 30
0.0
 11
1356.396316869
 21
735.199991774
 31
0.0
  0
LINE
  8
0
  6
CONTINUOUS
 62
     1
 10
1381.14505421
 20
767.019796928
 30
0.0
 11
1352.860782963
 21
738.73552568
 31
0.0
  0
LINE
  8
0
  6
LTYPE2
 62
     2
 10
1387.014040494
 20
711.511914604
 30
0.0
 11
1353.780021778
 21
744.74593332
 31
0.0
  0
LINE
  8
0
  6
CONTINUOUS
 62
     1
 10
1352.860782963
 20
738.73552568
 30
0.0
 11
1381.14505421
 21
710.451254433
 31
0.0
  0
LINE
  8
0
  6
CONTINUOUS
 62
     1
 10
1377.963073695
 20
731.310904478
 30
0.0
 11
1387.15546185
 21
722.118516322
 31
0.0
  0
LINE
  8
0
  6
CONTINUOUS
 62
     1
 10
1328.26672523
 20
732.526244258
 30
0.0
 11
1363.11383129
 21
767.373350318
 31
0.0
  0
LINE
  8
0
  6
CONTINUOUS
 62
     1
 10
1350.739462619
 20
740.856846024
 30
0.0
 11
1359.578297384
 21
749.695680789
 31
0.0
  0
LINE
  8
0
  6
LTYPE2
 62
     2
 10
1353.850732456
 20
766.029847434
 30
0.0
 11
1394.862925765
 21
725.017654125
 31
0.0
  0
LINE
  8
0
  6
LTYPE2
 62
     2
 10
1375.841753351
 20
765.393451331
 30
0.0
 11
1409.075772067
 21
732.159432615
 31
0.0
  0
LINE
  8
0
  6
CONTINUOUS
 62
     1
 10
1363.11383129
 20
767.373350318
 30
0.0
 11
1372.306219445
 21
758.180962163
 31
0.0
  0
LINE
  8
0
  6
CONTINUOUS
 62
     1
 10
1352.507229572
 20
756.7667486
 30
0.0
 11
1361.699617728
 21
747.574360445
 31
0.0
  0
LINE
  8
0
  6
CONTINUOUS
 62
     1
 10
1409.429325458
 20
738.73552568
 30
0.0
 11
1381.14505421
 21
767.019796928
 31
0.0
  0
LINE
  8
0
  6
CONTINUOUS
 62
     1
 10
1388.569675413
 20
741.917506195
 30
0.0
 11
1397.762063568
 21
732.72511804
 31
0.0
  0
LINE
  8
0
  6
CONTINUOUS
 62
     1
 10
1376.195306742
 20
715.401001901
 30
0.0
 11
1385.034141507
 21
724.239836666
 31
0.0
  0
LINE
  8
0
  6
CONTINUOUS
 62
     1
 10
1406.600898333
 20
741.563952805
 30
0.0
 11
1378.316627085
 21
713.279681557
 31
0.0
  0
LINE
  8
0
  6
CONTINUOUS
 62
     1
 10
1412.611305973
 20
741.917506195
 30
0.0
 11
1416.85394666
 21
737.674865508
 31
0.0
  0
LINE
  8
0
  6
CONTINUOUS
 62
     2
 10
1503.722218677
 20
601.6
 30
0.0
 11
1503.722218677
 21
358.133974596
 31
0.0
  0
LINE
  8
0
  6
CONTINUOUS
 62
     2
 10
1501.222218677
 20
537.15
 30
0.0
 11
1501.222218677
 21
408.133974596
 31
0.0
  0
LINE
  8
0
  6
CONTINUOUS
 62
     2
 10
1316.222218677
 20
536.6
 30
0.0
 11
1316.222218677
 21
408.133974596
 31
0.0
  0
LINE
  8
0
  6
CONTINUOUS
 62
     2
 10
1313.722218677
 20
601.05
 30
0.0
 11
1313.722218677
 21
358.133974596
 31
0.0
  0
LINE
  8
0
  6
CONTINUOUS
 62
     1
 10
1501.222218677
 20
652.327210886
 30
0.0
 11
1501.222218677
 21
760.975170265
 31
0.0
  0
ARC
  8
0
  6
CONTINUOUS
 62
     1
 10
1408.722218677
 20
805.133974596
 30
0.0
 40
102.5
 50
230.442016611
 51
252.576632702
  0
TEXT
  8
2
  6
CONTINUOUS
 62
     3
 10
1619.972218677
 20
714.283974596
 30
0.0
 40
18.0
  1
４８３
 50
90.0
 41
0.9
 51
0.0
  7
KANJI17
  0
LINE
  8
0
  6
CONTINUOUS
 62
     2
 10
1729.32
 20
706.5
 30
0.0
 11
1873.32
 21
706.5
 31
0.0
  0
TEXT
  8
0
  6
CONTINUOUS
 62
     2
 10
1741.92
 20
714.9
 30
12.0
 40
24.0
  1
特記事項
 50
0.0
 41
0.9
 51
0.0
  7
KANJI51
  0
TEXT
  8
0
  6
CONTINUOUS
 62
     2
 10
1735.92
 20
595.2
 30
1.8
 40
21.0
  1
３．ＬＳユニット
 50
0.0
 41
0.857142857
 51
0.0
  7
KANJI52
  0
TEXT
  8
0
  6
CONTINUOUS
 62
     2
 10
1735.92
 20
670.2
 30
1.8
 40
21.0
  1
１．運転時は必ずピストンロッドの回転防止を行って下さい。
 50
0.0
 41
0.857142857
 51
0.0
  7
KANJI52
  0
TEXT
  8
0
  6
CONTINUOUS
 62
     2
 10
1735.92
 20
632.7
 30
1.8
 40
21.0
  1
２．モートル：全閉自冷かご形３０分定格
 50
0.0
 41
0.857142857
 51
0.0
  7
KANJI52
  0
TEXT
  8
0
  6
CONTINUOUS
 62
     2
 10
1735.92
 20
502.2
 30
1.8
 40
21.0
  1
４．呼称ストロークは、機械的ストロークです。
 50
0.0
 41
0.857142857
 51
0.0
  7
KANJI52
  0
TEXT
  8
0
  6
CONTINUOUS
 62
     2
 10
1735.92
 20
535.2
 30
1.8
 40
21.0
  1
　　ストローク７００ｍｍ以上の場合２ロッド方式となります。
 50
0.0
 41
0.857142857
 51
0.0
  7
KANJI52
  0
TEXT
  8
0
  6
CONTINUOUS
 62
     2
 10
1735.92
 20
565.2
 30
1.8
 40
21.0
  1
　　リミットスイッチ：１ＬＳ１－Ｊｘ２ケ（山武）
 50
0.0
 41
0.857142857
 51
0.0
  7
KANJI52
  0
TEXT
  8
0
  6
CONTINUOUS
 62
     2
 10
1735.92
 20
465.24
 30
1.8
 40
21.0
  1
　　必ず、常用はストローク両端に必ず余裕を取って下さい。
 50
0.0
 41
0.857142857
 51
0.0
  7
KANJI52
  0
TEXT
  8
0
  6
CONTINUOUS
 62
     2
 10
1735.92
 20
427.464
 30
1.8
 40
21.0
  1
　　前後の推奨余裕寸法は、各々２５ｍｍです。
 50
0.0
 41
0.857142857
 51
0.0
  7
KANJI52
  0
TEXT
  8
0
  6
CONTINUOUS
 62
     2
 10
1055.133
 20
1533.99
 30
1.617
 40
16.17
  1
注意：サーマルリレー等の選定は、上記の値で選定して下さい。
 50
0.0
 41
0.9
 51
0.0
  7
KANJI53
  0
LINE
  8
0
  6
CONTINUOUS
 62
     2
 10
1045.893
 20
1529.37
 30
0.0
 11
1516.27
 21
1529.37
 31
0.0
  0
LINE
  8
0
  6
LTYPE4
 62
     2
 10
1408.722218677
 20
474.633974596
 30
0.0
 11
1408.722218677
 21
1002.49
 31
0.0
  0
LINE
  8
0
  6
CONTINUOUS
 62
     2
 10
1070.95
 20
983.95
 30
0.0
 11
1058.875927171
 21
987.185238064
 31
0.0
  0
LINE
  8
0
  6
CONTINUOUS
 62
     2
 10
1070.95
 20
983.95
 30
0.0
 11
1058.875927171
 21
980.714761936
 31
0.0
  0
LINE
  8
0
  6
CONTINUOUS
 62
     2
 10
1070.95
 20
983.95
 30
0.0
 11
1029.95
 21
983.95
 31
0.0
  0
TEXT
  8
0
  6
CONTINUOUS
 62
     3
 10
1036.95
 20
993.95
 30
0.0
 40
20.0
  1
前進
 50
0.0
 41
0.925
 51
0.0
  7
KANJI46
  0
LINE
  8
0
  6
CONTINUOUS
 62
     1
 10
259.922218677
 20
791.133974596
 30
0.0
 11
259.922218677
 21
819.133974596
 31
0.0
  0
LINE
  8
0
  6
CONTINUOUS
 62
     1
 10
297.922218677
 20
791.133974596
 30
0.0
 11
297.922218677
 21
819.133974596
 31
0.0
  0
LINE
  8
0
  6
CONTINUOUS
 62
     1
 10
259.922218677
 20
819.133974596
 30
0.0
 11
301.922218677
 21
819.133974596
 31
0.0
  0
LINE
  8
0
  6
CONTINUOUS
 62
     1
 10
259.922218677
 20
791.133974596
 30
0.0
 11
301.922218677
 21
791.133974596
 31
0.0
  0
LINE
  8
0
  6
CONTINUOUS
 62
     2
 10
396.922218677
 20
1031.833974596
 30
0.0
 11
396.922218677
 21
1050.833974596
 31
0.0
  0
LINE
  8
0
  6
CONTINUOUS
 62
     2
 10
396.922218677
 20
1044.833974596
 30
0.0
 11
385.331108761
 21
1047.939803137
 31
0.0
  0
LINE
  8
0
  6
CONTINUOUS
 62
     2
 10
396.922218677
 20
1044.833974596
 30
0.0
 11
385.331108761
 21
1041.728146055
 31
0.0
  0
LINE
  8
0
  6
CONTINUOUS
 62
     2
 10
396.922218677
 20
1044.833974596
 30
0.0
 11
259.922218677
 21
1044.833974596
 31
0.0
  0
LINE
  8
0
  6
CONTINUOUS
 62
     2
 10
259.922218677
 20
1044.833974596
 30
0.0
 11
271.513328592
 21
1041.728146055
 31
0.0
  0
LINE
  8
0
  6
CONTINUOUS
 62
     2
 10
259.922218677
 20
1044.833974596
 30
0.0
 11
271.513328592
 21
1047.939803137
 31
0.0
  0
LINE
  8
0
  6
CONTINUOUS
 62
     2
 10
259.922218677
 20
825.133974596
 30
0.0
 11
259.922218677
 21
1050.833974596
 31
0.0
  0
TEXT
  8
0
  6
CONTINUOUS
 62
     3
 10
304.122218677
 20
1053.833974596
 30
0.0
 40
18.0
  1
１３７
 50
0.0
 41
0.9
 51
0.0
  7
KANJI17
  0
LINE
  8
0
  6
CONTINUOUS
 62
     1
 10
941.022118677
 20
522.133974596
 30
0.0
 11
949.682372714
 21
527.133974596
 31
0.0
  0
LINE
  8
0
  6
CONTINUOUS
 62
     1
 10
941.022118677
 20
500.133974596
 30
0.0
 11
941.022118677
 21
522.133974596
 31
0.0
  0
LINE
  8
0
  6
CONTINUOUS
 62
     1
 10
949.672118677
 20
527.133974596
 30
0.0
 11
974.372118677
 21
527.133974596
 31
0.0
  0
LINE
  8
0
  6
CONTINUOUS
 62
     1
 10
949.672118677
 20
495.133974596
 30
0.0
 11
949.672118677
 21
527.133974596
 31
0.0
  0
LINE
  8
0
  6
CONTINUOUS
 62
     1
 10
983.022118677
 20
500.133974596
 30
0.0
 11
983.022118677
 21
522.133974596
 31
0.0
  0
LINE
  8
0
  6
CONTINUOUS
 62
     1
 10
974.372118677
 20
495.133974596
 30
0.0
 11
974.372118677
 21
527.133974596
 31
0.0
  0
LINE
  8
0
  6
CONTINUOUS
 62
     1
 10
983.022118677
 20
522.133974596
 30
0.0
 11
974.361864639
 21
527.133974596
 31
0.0
  0
LINE
  8
0
  6
CONTINUOUS
 62
     1
 10
949.672118677
 20
495.133974596
 30
0.0
 11
974.372118677
 21
495.133974596
 31
0.0
  0
LINE
  8
0
  6
CONTINUOUS
 62
     1
 10
983.022118677
 20
500.133974596
 30
0.0
 11
974.361864639
 21
495.133974596
 31
0.0
  0
LINE
  8
0
  6
CONTINUOUS
 62
     1
 10
941.022118677
 20
500.133974596
 30
0.0
 11
949.682372714
 21
495.133974596
 31
0.0
  0
LINE
  8
0
  6
CONTINUOUS
 62
     1
 10
934.24722658
 20
217.233974596
 30
0.0
 11
942.907480618
 21
222.233974596
 31
0.0
  0
LINE
  8
0
  6
CONTINUOUS
 62
     1
 10
934.24722658
 20
195.233974596
 30
0.0
 11
934.24722658
 21
217.233974596
 31
0.0
  0
LINE
  8
0
  6
CONTINUOUS
 62
     1
 10
942.89722658
 20
222.233974596
 30
0.0
 11
967.59722658
 21
222.233974596
 31
0.0
  0
LINE
  8
0
  6
CONTINUOUS
 62
     1
 10
942.89722658
 20
190.233974596
 30
0.0
 11
942.89722658
 21
222.233974596
 31
0.0
  0
LINE
  8
0
  6
CONTINUOUS
 62
     1
 10
976.24722658
 20
195.233974596
 30
0.0
 11
976.24722658
 21
217.233974596
 31
0.0
  0
LINE
  8
0
  6
CONTINUOUS
 62
     1
 10
967.59722658
 20
190.233974596
 30
0.0
 11
967.59722658
 21
222.233974596
 31
0.0
  0
LINE
  8
0
  6
CONTINUOUS
 62
     1
 10
976.24722658
 20
217.233974596
 30
0.0
 11
967.586972542
 21
222.233974596
 31
0.0
  0
LINE
  8
0
  6
CONTINUOUS
 62
     1
 10
942.89722658
 20
190.233974596
 30
0.0
 11
967.59722658
 21
190.233974596
 31
0.0
  0
LINE
  8
0
  6
CONTINUOUS
 62
     1
 10
976.24722658
 20
195.233974596
 30
0.0
 11
967.586972542
 21
190.233974596
 31
0.0
  0
LINE
  8
0
  6
CONTINUOUS
 62
     1
 10
934.24722658
 20
195.233974596
 30
0.0
 11
942.907480618
 21
190.233974596
 31
0.0
  0
LINE
  8
0
  6
CONTINUOUS
 62
     1
 10
976.24722658
 20
214.233974596
 30
0.0
 11
1002.556648618
 21
214.233974596
 31
0.0
  0
LINE
  8
0
  6
CONTINUOUS
 62
     1
 10
1002.556648618
 20
198.233974596
 30
0.0
 11
976.24722658
 21
198.233974596
 31
0.0
  0
LINE
  8
0
  6
CONTINUOUS
 62
     1
 10
934.24722658
 20
198.233974596
 30
0.0
 11
874.74722658
 21
198.233974596
 31
0.0
  0
LINE
  8
0
  6
CONTINUOUS
 62
     1
 10
874.74722658
 20
214.233974596
 30
0.0
 11
934.24722658
 21
214.233974596
 31
0.0
  0
TEXT
  8
0
  6
CONTINUOUS
 62
     2
 10
1237.32
 20
1432.08
 30
1.44
 40
14.4
  1
　２００
 50
0.0
 41
0.9
 51
0.0
  7
KANJI20
  0
TEXT
  8
0
  6
CONTINUOUS
 62
     2
 10
1237.32
 20
1398.48
 30
1.44
 40
14.4
  1
　３００
 50
0.0
 41
0.9
 51
0.0
  7
KANJI20
  0
TEXT
  8
0
  6
CONTINUOUS
 62
     2
 10
1237.32
 20
1264.08
 30
1.44
 40
14.4
  1
　７００
 50
0.0
 41
0.9
 51
0.0
  7
KANJI20
  0
TEXT
  8
0
  6
CONTINUOUS
 62
     2
 10
1237.32
 20
1331.28
 30
1.44
 40
14.4
  1
　５００
 50
0.0
 41
0.9
 51
0.0
  7
KANJI20
  0
TEXT
  8
0
  6
CONTINUOUS
 62
     2
 10
1237.32
 20
1364.88
 30
1.44
 40
14.4
  1
　４００
 50
0.0
 41
0.9
 51
0.0
  7
KANJI20
  0
TEXT
  8
0
  6
CONTINUOUS
 62
     2
 10
1237.32
 20
1297.68
 30
1.44
 40
14.4
  1
　６００
 50
0.0
 41
0.9
 51
0.0
  7
KANJI20
  0
TEXT
  8
0
  6
CONTINUOUS
 62
     2
 10
1237.32
 20
1230.48
 30
1.44
 40
14.4
  1
　８００
 50
0.0
 41
0.9
 51
0.0
  7
KANJI20
  0
TEXT
  8
0
  6
CONTINUOUS
 62
     2
 10
1237.32
 20
1196.88
 30
1.44
 40
14.4
  1
　９００
 50
0.0
 41
0.9
 51
0.0
  7
KANJI20
  0
TEXT
  8
0
  6
CONTINUOUS
 62
     2
 10
1237.32
 20
1163.28
 30
1.44
 40
14.4
  1
１０００
 50
0.0
 41
0.9
 51
0.0
  7
KANJI20
  0
TEXT
  8
0
  6
CONTINUOUS
 62
     2
 10
1621.32
 20
1432.08
 30
1.44
 40
14.4
  1
　　４５
 50
0.0
 41
0.9
 51
0.0
  7
KANJI20
  0
TEXT
  8
0
  6
CONTINUOUS
 62
     2
 10
1621.32
 20
1398.48
 30
1.44
 40
14.4
  1
　　４５
 50
0.0
 41
0.9
 51
0.0
  7
KANJI20
  0
TEXT
  8
0
  6
CONTINUOUS
 62
     2
 10
1621.32
 20
1364.88
 30
1.44
 40
14.4
  1
　　４５
 50
0.0
 41
0.9
 51
0.0
  7
KANJI20
  0
TEXT
  8
0
  6
CONTINUOUS
 62
     2
 10
1621.32
 20
1331.28
 30
1.44
 40
14.4
  1
　　４５
 50
0.0
 41
0.9
 51
0.0
  7
KANJI20
  0
TEXT
  8
0
  6
CONTINUOUS
 62
     2
 10
1621.32
 20
1297.68
 30
1.44
 40
14.4
  1
　　４５
 50
0.0
 41
0.9
 51
0.0
  7
KANJI20
  0
TEXT
  8
0
  6
CONTINUOUS
 62
     2
 10
1621.32
 20
1264.08
 30
1.44
 40
14.4
  1
　　４５
 50
0.0
 41
0.9
 51
0.0
  7
KANJI20
  0
TEXT
  8
0
  6
CONTINUOUS
 62
     2
 10
1621.32
 20
1230.48
 30
1.44
 40
14.4
  1
　　４５
 50
0.0
 41
0.9
 51
0.0
  7
KANJI20
  0
TEXT
  8
0
  6
CONTINUOUS
 62
     2
 10
1621.32
 20
1196.88
 30
1.44
 40
14.4
  1
　　４５
 50
0.0
 41
0.9
 51
0.0
  7
KANJI20
  0
TEXT
  8
0
  6
CONTINUOUS
 62
     2
 10
1621.32
 20
1163.28
 30
1.44
 40
14.4
  1
　　４５
 50
0.0
 41
0.9
 51
0.0
  7
KANJI20
  0
TEXT
  8
0
  6
CONTINUOUS
 62
     2
 10
1525.32
 20
1432.08
 30
1.44
 40
14.4
  1
　４１２
 50
0.0
 41
0.9
 51
0.0
  7
KANJI20
  0
TEXT
  8
0
  6
CONTINUOUS
 62
     2
 10
1525.32
 20
1398.48
 30
1.44
 40
14.4
  1
　５１２
 50
0.0
 41
0.9
 51
0.0
  7
KANJI20
  0
TEXT
  8
0
  6
CONTINUOUS
 62
     2
 10
1525.32
 20
1364.88
 30
1.44
 40
14.4
  1
　６１２
 50
0.0
 41
0.9
 51
0.0
  7
KANJI20
  0
TEXT
  8
0
  6
CONTINUOUS
 62
     2
 10
1525.32
 20
1331.28
 30
1.44
 40
14.4
  1
　７１２
 50
0.0
 41
0.9
 51
0.0
  7
KANJI20
  0
TEXT
  8
0
  6
CONTINUOUS
 62
     2
 10
1525.32
 20
1297.68
 30
1.44
 40
14.4
  1
　８５２
 50
0.0
 41
0.9
 51
0.0
  7
KANJI20
  0
TEXT
  8
0
  6
CONTINUOUS
 62
     2
 10
1525.32
 20
1264.08
 30
1.44
 40
14.4
  1
　９５２
 50
0.0
 41
0.9
 51
0.0
  7
KANJI20
  0
TEXT
  8
0
  6
CONTINUOUS
 62
     2
 10
1525.32
 20
1230.48
 30
1.44
 40
14.4
  1
１０５２
 50
0.0
 41
0.9
 51
0.0
  7
KANJI20
  0
TEXT
  8
0
  6
CONTINUOUS
 62
     2
 10
1525.32
 20
1196.88
 30
1.44
 40
14.4
  1
１１５２
 50
0.0
 41
0.9
 51
0.0
  7
KANJI20
  0
TEXT
  8
0
  6
CONTINUOUS
 62
     2
 10
1525.32
 20
1163.28
 30
1.44
 40
14.4
  1
１２５２
 50
0.0
 41
0.9
 51
0.0
  7
KANJI20
  0
TEXT
  8
0
  6
CONTINUOUS
 62
     2
 10
1429.32
 20
1432.08
 30
1.44
 40
14.4
  1
　５０７
 50
0.0
 41
0.9
 51
0.0
  7
KANJI20
  0
TEXT
  8
0
  6
CONTINUOUS
 62
     2
 10
1429.32
 20
1398.48
 30
1.44
 40
14.4
  1
　６０７
 50
0.0
 41
0.9
 51
0.0
  7
KANJI20
  0
TEXT
  8
0
  6
CONTINUOUS
 62
     2
 10
1429.32
 20
1364.88
 30
1.44
 40
14.4
  1
　７０７
 50
0.0
 41
0.9
 51
0.0
  7
KANJI20
  0
TEXT
  8
0
  6
CONTINUOUS
 62
     2
 10
1429.32
 20
1331.28
 30
1.44
 40
14.4
  1
　８０７
 50
0.0
 41
0.9
 51
0.0
  7
KANJI20
  0
TEXT
  8
0
  6
CONTINUOUS
 62
     2
 10
1429.32
 20
1297.68
 30
1.44
 40
14.4
  1
　９４７
 50
0.0
 41
0.9
 51
0.0
  7
KANJI20
  0
TEXT
  8
0
  6
CONTINUOUS
 62
     2
 10
1429.32
 20
1264.08
 30
1.44
 40
14.4
  1
１０４７
 50
0.0
 41
0.9
 51
0.0
  7
KANJI20
  0
TEXT
  8
0
  6
CONTINUOUS
 62
     2
 10
1429.32
 20
1230.48
 30
1.44
 40
14.4
  1
１１４７
 50
0.0
 41
0.9
 51
0.0
  7
KANJI20
  0
TEXT
  8
0
  6
CONTINUOUS
 62
     2
 10
1429.32
 20
1196.88
 30
1.44
 40
14.4
  1
１２４７
 50
0.0
 41
0.9
 51
0.0
  7
KANJI20
  0
TEXT
  8
0
  6
CONTINUOUS
 62
     2
 10
1429.32
 20
1163.28
 30
1.44
 40
14.4
  1
１３４７
 50
0.0
 41
0.9
 51
0.0
  7
KANJI20
  0
TEXT
  8
0
  6
CONTINUOUS
 62
     2
 10
1333.32
 20
1432.08
 30
1.44
 40
14.4
  1
　７０４
 50
0.0
 41
0.9
 51
0.0
  7
KANJI20
  0
TEXT
  8
0
  6
CONTINUOUS
 62
     2
 10
1333.32
 20
1398.48
 30
1.44
 40
14.4
  1
　８０４
 50
0.0
 41
0.9
 51
0.0
  7
KANJI20
  0
TEXT
  8
0
  6
CONTINUOUS
 62
     2
 10
1333.32
 20
1364.88
 30
1.44
 40
14.4
  1
　９０７
 50
0.0
 41
0.9
 51
0.0
  7
KANJI20
  0
TEXT
  8
0
  6
CONTINUOUS
 62
     2
 10
1333.32
 20
1331.28
 30
1.44
 40
14.4
  1
１００４
 50
0.0
 41
0.9
 51
0.0
  7
KANJI20
  0
TEXT
  8
0
  6
CONTINUOUS
 62
     2
 10
1333.32
 20
1297.68
 30
1.44
 40
14.4
  1
１１４４
 50
0.0
 41
0.9
 51
0.0
  7
KANJI20
  0
TEXT
  8
0
  6
CONTINUOUS
 62
     2
 10
1333.32
 20
1264.08
 30
1.44
 40
14.4
  1
１２４４
 50
0.0
 41
0.9
 51
0.0
  7
KANJI20
  0
TEXT
  8
0
  6
CONTINUOUS
 62
     2
 10
1333.32
 20
1230.48
 30
1.44
 40
14.4
  1
１３４４
 50
0.0
 41
0.9
 51
0.0
  7
KANJI20
  0
TEXT
  8
0
  6
CONTINUOUS
 62
     2
 10
1333.32
 20
1196.88
 30
1.44
 40
14.4
  1
１４４４
 50
0.0
 41
0.9
 51
0.0
  7
KANJI20
  0
TEXT
  8
0
  6
CONTINUOUS
 62
     2
 10
1333.32
 20
1163.28
 30
1.44
 40
14.4
  1
１５４４
 50
0.0
 41
0.9
 51
0.0
  7
KANJI20
  0
LINE
  8
0
  6
CONTINUOUS
 62
     2
 10
1014.12
 20
1424.04
 30
0.0
 11
1791.72
 21
1424.04
 31
0.0
  0
LINE
  8
0
  6
CONTINUOUS
 62
     2
 10
1014.12
 20
1390.44
 30
0.0
 11
1791.72
 21
1390.44
 31
0.0
  0
LINE
  8
0
  6
CONTINUOUS
 62
     2
 10
1014.12
 20
1188.84
 30
0.0
 11
1791.72
 21
1188.84
 31
0.0
  0
LINE
  8
0
  6
CONTINUOUS
 62
     2
 10
1014.12
 20
1222.44
 30
0.0
 11
1791.72
 21
1222.44
 31
0.0
  0
LINE
  8
0
  6
CONTINUOUS
 62
     2
 10
1014.12
 20
1155.24
 30
0.0
 11
1791.72
 21
1155.24
 31
0.0
  0
LINE
  8
0
  6
CONTINUOUS
 62
     2
 10
1014.12
 20
1323.24
 30
0.0
 11
1791.72
 21
1323.24
 31
0.0
  0
LINE
  8
0
  6
CONTINUOUS
 62
     2
 10
1014.12
 20
1356.84
 30
0.0
 11
1791.72
 21
1356.84
 31
0.0
  0
LINE
  8
0
  6
CONTINUOUS
 62
     2
 10
1014.12
 20
1256.04
 30
0.0
 11
1791.72
 21
1256.04
 31
0.0
  0
LINE
  8
0
  6
CONTINUOUS
 62
     2
 10
1014.12
 20
1289.64
 30
0.0
 11
1791.72
 21
1289.64
 31
0.0
  0
TEXT
  8
0
  6
CONTINUOUS
 62
     2
 10
1029.72
 20
1431.72
 30
0.96
 40
14.4
  1
ＭＣＬＥ２－　　２Ｌ
 50
0.0
 41
0.833333333
 51
0.0
  7
KANJI54
  0
TEXT
  8
0
  6
CONTINUOUS
 62
     2
 10
1029.72
 20
1398.12
 30
0.96
 40
14.4
  1
ＭＣＬＥ２－　　３Ｌ
 50
0.0
 41
0.833333333
 51
0.0
  7
KANJI54
  0
TEXT
  8
0
  6
CONTINUOUS
 62
     2
 10
1029.72
 20
1364.52
 30
0.96
 40
14.4
  1
ＭＣＬＥ２－　　４Ｌ
 50
0.0
 41
0.833333333
 51
0.0
  7
KANJI54
  0
TEXT
  8
0
  6
CONTINUOUS
 62
     2
 10
1029.72
 20
1330.92
 30
0.96
 40
14.4
  1
ＭＣＬＥ２－　　５Ｌ
 50
0.0
 41
0.833333333
 51
0.0
  7
KANJI54
  0
TEXT
  8
0
  6
CONTINUOUS
 62
     2
 10
1029.72
 20
1297.32
 30
0.96
 40
14.4
  1
ＭＣＬＥ２－　　６Ｌ
 50
0.0
 41
0.833333333
 51
0.0
  7
KANJI54
  0
TEXT
  8
0
  6
CONTINUOUS
 62
     2
 10
1029.72
 20
1263.72
 30
0.96
 40
14.4
  1
ＭＣＬＥ２－　　７Ｌ
 50
0.0
 41
0.833333333
 51
0.0
  7
KANJI54
  0
TEXT
  8
0
  6
CONTINUOUS
 62
     2
 10
1029.72
 20
1230.12
 30
0.96
 40
14.4
  1
ＭＣＬＥ２－　　８Ｌ
 50
0.0
 41
0.833333333
 51
0.0
  7
KANJI54
  0
TEXT
  8
0
  6
CONTINUOUS
 62
     2
 10
1029.72
 20
1196.52
 30
0.96
 40
14.4
  1
ＭＣＬＥ２－　　９Ｌ
 50
0.0
 41
0.833333333
 51
0.0
  7
KANJI54
  0
TEXT
  8
0
  6
CONTINUOUS
 62
     2
 10
1029.72
 20
1162.92
 30
0.96
 40
14.4
  1
ＭＣＬＥ２－　１０Ｌ
 50
0.0
 41
0.833333333
 51
0.0
  7
KANJI54
  0
TEXT
  8
0
  6
CONTINUOUS
 62
     2
 10
1029.72
 20
1129.32
 30
0.96
 40
14.4
  1
ＭＣＬＥ２－　　　Ｌ
 50
0.0
 41
0.833333333
 51
0.0
  7
KANJI54
  0
TEXT
  8
0
  6
CONTINUOUS
 62
     2
 10
1717.32
 20
1432.08
 30
1.44
 40
14.4
  1
　８３
 50
0.0
 41
0.9
 51
0.0
  7
KANJI20
  0
TEXT
  8
0
  6
CONTINUOUS
 62
     2
 10
1717.32
 20
1398.48
 30
1.44
 40
14.4
  1
　８５
 50
0.0
 41
0.9
 51
0.0
  7
KANJI20
  0
TEXT
  8
0
  6
CONTINUOUS
 62
     2
 10
1717.32
 20
1364.88
 30
1.44
 40
14.4
  1
　８８
 50
0.0
 41
0.9
 51
0.0
  7
KANJI20
  0
TEXT
  8
0
  6
CONTINUOUS
 62
     2
 10
1717.32
 20
1331.28
 30
1.44
 40
14.4
  1
　９０
 50
0.0
 41
0.9
 51
0.0
  7
KANJI20
  0
TEXT
  8
0
  6
CONTINUOUS
 62
     2
 10
1717.32
 20
1297.68
 30
1.44
 40
14.4
  1
　９１
 50
0.0
 41
0.9
 51
0.0
  7
KANJI20
  0
TEXT
  8
0
  6
CONTINUOUS
 62
     2
 10
1717.32
 20
1264.08
 30
1.44
 40
14.4
  1
　９３
 50
0.0
 41
0.9
 51
0.0
  7
KANJI20
  0
TEXT
  8
0
  6
CONTINUOUS
 62
     2
 10
1717.32
 20
1230.48
 30
1.44
 40
14.4
  1
　９５
 50
0.0
 41
0.9
 51
0.0
  7
KANJI20
  0
TEXT
  8
0
  6
CONTINUOUS
 62
     2
 10
1717.32
 20
1196.88
 30
1.44
 40
14.4
  1
　９７
 50
0.0
 41
0.9
 51
0.0
  7
KANJI20
  0
TEXT
  8
0
  6
CONTINUOUS
 62
     2
 10
1717.32
 20
1163.28
 30
1.44
 40
14.4
  1
　９９
 50
0.0
 41
0.9
 51
0.0
  7
KANJI20
  0
LINE
  8
0
  6
CONTINUOUS
 62
     1
 10
1215.72
 20
1491.24
 30
0.0
 11
1215.72
 21
1121.64
 31
0.0
  0
LINE
  8
0
  6
CONTINUOUS
 62
     2
 10
1311.72
 20
1491.24
 30
0.0
 11
1311.72
 21
1121.64
 31
0.0
  0
LINE
  8
0
  6
CONTINUOUS
 62
     2
 10
1407.72
 20
1491.24
 30
0.0
 11
1407.72
 21
1121.64
 31
0.0
  0
LINE
  8
0
  6
CONTINUOUS
 62
     2
 10
1503.72
 20
1491.24
 30
0.0
 11
1503.72
 21
1121.64
 31
0.0
  0
LINE
  8
0
  6
CONTINUOUS
 62
     2
 10
1599.72
 20
1491.24
 30
0.0
 11
1599.72
 21
1121.64
 31
0.0
  0
LINE
  8
0
  6
CONTINUOUS
 62
     2
 10
1695.72
 20
1491.24
 30
0.0
 11
1695.72
 21
1121.64
 31
0.0
  0
LINE
  8
0
  6
CONTINUOUS
 62
     1
 10
1791.72
 20
1491.24
 30
0.0
 11
1791.72
 21
1121.64
 31
0.0
  0
LINE
  8
0
  6
CONTINUOUS
 62
     1
 10
1014.12
 20
1121.64
 30
0.0
 11
1791.72
 21
1121.64
 31
0.0
  0
LINE
  8
0
  6
CONTINUOUS
 62
     1
 10
1014.12
 20
1491.24
 30
0.0
 11
1014.12
 21
1121.64
 31
0.0
  0
LINE
  8
0
  6
CONTINUOUS
 62
     2
 10
455.2199996
 20
237.8999876
 30
0.0
 11
455.2199996
 21
183.0999876
 31
0.0
  0
LINE
  8
0
  6
CONTINUOUS
 62
     2
 10
296.0199996
 20
225.0999876
 30
0.0
 11
455.2199996
 21
225.0999876
 31
0.0
  0
LINE
  8
0
  6
CONTINUOUS
 62
     2
 10
455.2199996
 20
225.0999876
 30
0.0
 11
447.49259299
 21
227.170539961
 31
0.0
  0
LINE
  8
0
  6
CONTINUOUS
 62
     2
 10
455.2199996
 20
225.0999876
 30
0.0
 11
447.49259299
 21
223.029435239
 31
0.0
  0
TEXT
  8
0
  6
CONTINUOUS
 62
     3
 10
334.0199996
 20
227.0999876
 30
0.0
 40
15.0
  1
常用ストローク
 50
0.0
 41
0.9
 51
0.0
  7
KANJI43
  0
LINE
  8
0
  6
CONTINUOUS
 62
     1
 10
1415.439733098
 20
703.02663323
 30
0.0
 11
1402.004704255
 21
689.591604388
 31
0.0
  0
ARC
  8
0
  6
CONTINUOUS
 62
     1
 10
1416.85394666
 20
701.612419668
 30
0.0
 40
2.0
 50
44.999125736
 51
135.0
  0
LINE
  8
0
  6
CONTINUOUS
 62
     1
 10
1418.268181802
 20
703.026611651
 30
0.0
 11
1430.996082284
 21
690.298711169
 31
0.0
  0
ARC
  8
0
  6
CONTINUOUS
 62
     1
 10
1408.722218677
 20
805.133974596
 30
0.0
 40
102.5
 50
275.341027402
 51
221.896569424
  0
ARC
  8
0
  6
CONTINUOUS
 62
     1
 10
1408.722218677
 20
805.133974596
 30
0.0
 40
102.5
 50
257.10951937
 51
273.654471872
  0
LINE
  8
0
  6
CONTINUOUS
 62
     1
 10
1316.222218677
 20
725.759349716
 30
0.0
 11
1316.222218677
 21
760.975170265
 31
0.0
  0
LINE
  8
0
  6
CONTINUOUS
 62
     1
 10
1316.222218677
 20
667.893859226
 30
0.0
 11
1316.222218677
 21
694.187798465
 31
0.0
  0
LINE
  8
0
  6
CONTINUOUS
 62
     2
 10
1378.932430515
 20
750.557672619
 30
0.0
 11
1377.138588491
 21
762.422837211
 31
0.0
  0
LINE
  8
0
  6
CONTINUOUS
 62
     2
 10
1378.932430515
 20
750.557672619
 30
0.0
 11
1371.446335456
 21
759.936285564
 31
0.0
  0
LINE
  8
0
  6
CONTINUOUS
 62
     2
 10
1378.932430515
 20
750.557672619
 30
0.0
 11
1276.932430515
 21
984.057672619
 31
0.0
  0
LINE
  8
0
  6
CONTINUOUS
 62
     2
 10
1276.932430515
 20
984.057672619
 30
0.0
 11
1163.532430515
 21
984.057672619
 31
0.0
  0
TEXT
  8
0
  6
CONTINUOUS
 62
     3
 10
1163.532430515
 20
993.057672619
 30
0.0
 40
18.0
  1
２－ＰＦ１／２
 50
0.0
 41
0.9
 51
0.0
  7
KANJI17
  0
LINE
  8
0
  6
CONTINUOUS
 62
     2
 10
1408.722218677
 20
473.633974596
 30
0.0
 11
1408.722218677
 21
448.133974596
 31
0.0
  0
LINE
  8
0
  6
CONTINUOUS
 62
     2
 10
1408.722218677
 20
454.133974596
 30
0.0
 11
1397.131108761
 21
457.239803137
 31
0.0
  0
LINE
  8
0
  6
CONTINUOUS
 62
     2
 10
1408.722218677
 20
454.133974596
 30
0.0
 11
1397.131108761
 21
451.028146055
 31
0.0
  0
LINE
  8
0
  6
CONTINUOUS
 62
     2
 10
1408.722218677
 20
454.133974596
 30
0.0
 11
1270.722218677
 21
454.133974596
 31
0.0
  0
LINE
  8
0
  6
CONTINUOUS
 62
     2
 10
1270.722218677
 20
454.133974596
 30
0.0
 11
1282.313328592
 21
451.028146055
 31
0.0
  0
LINE
  8
0
  6
CONTINUOUS
 62
     2
 10
1270.722218677
 20
454.133974596
 30
0.0
 11
1282.313328592
 21
457.239803137
 31
0.0
  0
TEXT
  8
0
  6
CONTINUOUS
 62
     3
 10
1315.422218677
 20
463.133974596
 30
0.0
 40
18.0
  1
１３８
 50
0.0
 41
0.9
 51
0.0
  7
KANJI17
  0
LINE
  8
0
  6
CONTINUOUS
 62
     2
 10
1270.722218677
 20
645.633974596
 30
0.0
 11
1270.722218677
 21
448.133974596
 31
0.0
  0
TEXT
  8
0
  6
CONTINUOUS
 62
     3
 10
139.888885677
 20
924.400657596
 30
1.5
 40
15.0
  1
手動軸□１０
 50
0.0
 41
0.9
 51
0.0
  7
KANJI55
  0
LINE
  8
0
  6
CONTINUOUS
 62
     1
 10
923.74722658
 20
198.233974596
 30
0.0
 11
923.74722658
 21
180.0
 31
0.0
  0
TEXT
  8
0
  6
CONTINUOUS
 62
     2
 10
1648.5200334
 20
126.899994
 30
1.8
 40
21.0
  1
０７．１０．０４
 50
0.0
 41
0.571428571
 51
0.0
  7
KANJI56
  0
LINE
  8
0
  6
LTYPE3
 62
     2
 10
1289.222218677
 20
805.133974596
 30
0.0
 11
1524.0
 21
805.133974596
 31
0.0
  0
LINE
  8
0
  6
CONTINUOUS
 62
     2
 10
1873.92
 20
896.7
 30
0.0
 11
2398.92
 21
896.7
 31
0.0
  0
LINE
  8
0
  6
CONTINUOUS
 62
     2
 10
1873.92
 20
854.7
 30
0.0
 11
2398.92
 21
854.7
 31
0.0
  0
LINE
  8
0
  6
CONTINUOUS
 62
     2
 10
1921.92
 20
1232.7
 30
0.0
 11
1921.92
 21
896.7
 31
0.0
  0
TEXT
  8
0
  6
CONTINUOUS
 62
     2
 10
1906.92
 20
865.5
 30
79.962857143
 40
22.8
  1
付属品
 50
0.0
 41
0.9
 51
0.0
  7
KANJI57
  0
TEXT
  8
0
  6
CONTINUOUS
 62
     2
 10
1906.92
 20
823.5
 30
180.445714286
 40
22.8
  1
台数
 50
0.0
 41
0.9
 51
0.0
  7
KANJI58
  0
LINE
  8
0
  6
CONTINUOUS
 62
     1
 10
1873.92
 20
1628.7
 30
0.0
 11
2398.92
 21
1628.7
 31
0.0
  0
TEXT
  8
0
  6
CONTINUOUS
 62
     2
 10
1948.92
 20
1584.9
 30
17.09964
 40
27.0
  1
マイティシリンダ仕様
 50
0.0
 41
0.9
 51
0.0
  7
KANJI59
  0
LINE
  8
0
  6
CONTINUOUS
 62
     2
 10
1921.92
 20
938.7
 30
0.0
 11
2398.92
 21
938.7
 31
0.0
  0
LINE
  8
0
  6
CONTINUOUS
 62
     2
 10
1921.92
 20
1064.7
 30
0.0
 11
2398.92
 21
1064.7
 31
0.0
  0
LINE
  8
0
  6
CONTINUOUS
 62
     2
 10
1921.92
 20
1106.7
 30
0.0
 11
2398.92
 21
1106.7
 31
0.0
  0
LINE
  8
0
  6
CONTINUOUS
 62
     2
 10
1873.92
 20
1316.7
 30
0.0
 11
2398.92
 21
1316.7
 31
0.0
  0
LINE
  8
0
  6
CONTINUOUS
 62
     2
 10
1873.92
 20
1274.7
 30
0.0
 11
2398.92
 21
1274.7
 31
0.0
  0
LINE
  8
0
  6
CONTINUOUS
 62
     2
 10
1873.92
 20
1232.7
 30
0.0
 11
2398.92
 21
1232.7
 31
0.0
  0
LINE
  8
0
  6
CONTINUOUS
 62
     2
 10
1921.92
 20
1148.7
 30
0.0
 11
2398.92
 21
1148.7
 31
0.0
  0
LINE
  8
0
  6
CONTINUOUS
 62
     2
 10
1921.92
 20
1190.7
 30
0.0
 11
2398.92
 21
1190.7
 31
0.0
  0
LINE
  8
0
  6
CONTINUOUS
 62
     2
 10
1873.92
 20
1526.7
 30
0.0
 11
2398.92
 21
1526.7
 31
0.0
  0
LINE
  8
0
  6
CONTINUOUS
 62
     2
 10
1873.92
 20
1484.7
 30
0.0
 11
2398.92
 21
1484.7
 31
0.0
  0
LINE
  8
0
  6
CONTINUOUS
 62
     2
 10
1873.92
 20
1442.7
 30
0.0
 11
2398.92
 21
1442.7
 31
0.0
  0
LINE
  8
0
  6
CONTINUOUS
 62
     2
 10
1873.92
 20
1400.7
 30
0.0
 11
2398.92
 21
1400.7
 31
0.0
  0
LINE
  8
0
  6
CONTINUOUS
 62
     2
 10
1873.92
 20
1358.7
 30
0.0
 11
2398.92
 21
1358.7
 31
0.0
  0
LINE
  8
0
  6
CONTINUOUS
 62
     2
 10
1873.92
 20
1568.7
 30
0.0
 11
2398.92
 21
1568.7
 31
0.0
  0
TEXT
  8
0
  6
CONTINUOUS
 62
     2
 10
1948.92
 20
1159.5
 30
33.439782857
 40
22.8
  1
電源電圧
 50
0.0
 41
0.9
 51
0.0
  7
KANJI60
  0
TEXT
  8
0
  6
CONTINUOUS
 62
     2
 10
1948.92
 20
1117.5
 30
60.42
 40
22.8
  1
周波数
 50
0.0
 41
0.9
 51
0.0
  7
KANJI61
  0
TEXT
  8
0
  6
CONTINUOUS
 62
     2
 10
1948.92
 20
1075.5
 30
141.36
 40
22.8
  1
電流
 50
0.0
 41
0.9
 51
0.0
  7
KANJI62
  0
TEXT
  8
0
  6
CONTINUOUS
 62
     2
 10
1948.92
 20
1033.5
 30
60.42
 40
22.8
  1
絶縁級
 50
0.0
 41
0.9
 51
0.0
  7
KANJI61
  0
TEXT
  8
0
  6
CONTINUOUS
 62
     2
 10
1906.92
 20
1537.5
 30
180.445714286
 40
22.8
  1
形式
 50
0.0
 41
0.9
 51
0.0
  7
KANJI58
  0
TEXT
  8
0
  6
CONTINUOUS
 62
     2
 10
1906.92
 20
1495.5
 30
180.445714286
 40
22.8
  1
推力
 50
0.0
 41
0.9
 51
0.0
  7
KANJI58
  0
TEXT
  8
0
  6
CONTINUOUS
 62
     2
 10
1906.92
 20
1453.5
 30
29.721428571
 40
22.8
  1
ストローク
 50
0.0
 41
0.9
 51
0.0
  7
KANJI63
  0
TEXT
  8
0
  6
CONTINUOUS
 62
     2
 10
1906.92
 20
1327.5
 30
180.445714286
 40
22.8
  1
構造
 50
0.0
 41
0.9
 51
0.0
  7
KANJI58
  0
TEXT
  8
0
  6
CONTINUOUS
 62
     2
 10
1906.92
 20
1285.5
 30
12.973851429
 40
22.8
  1
過負荷安全装置
 50
0.0
 41
0.9
 51
0.0
  7
KANJI64
  0
TEXT
  8
0
  6
CONTINUOUS
 62
     2
 10
1906.92
 20
1243.5
 30
79.962857143
 40
22.8
  1
塗装色
 50
0.0
 41
0.9
 51
0.0
  7
KANJI57
  0
TEXT
  8
0
  6
CONTINUOUS
 62
     2
 10
1882.92
 20
1369.5
 30
1.954285714
 40
22.8
  1
ピストンロッド回転トルク
 50
0.0
 41
0.9
 51
0.0
  7
KANJI65
  0
LINE
  8
0
  6
CONTINUOUS
 62
     2
 10
1873.92
 20
1022.7
 30
0.0
 11
2398.92
 21
1022.7
 31
0.0
  0
LINE
  8
0
  6
CONTINUOUS
 62
     2
 10
1921.92
 20
980.7
 30
0.0
 11
2398.92
 21
980.7
 31
0.0
  0
TEXT
  8
0
  6
CONTINUOUS
 62
     2
 10
1898.37
 20
1226.7
 30
13.2
 40
21.0
  1
モ　トル仕様
 50
0.0
 41
0.9
 51
0.0
  7
KANJI66
  0
TEXT
  8
0
  6
CONTINUOUS
 62
     2
 10
1898.37
 20
1004.7
 30
1.2
 40
21.0
  1
ブレ　キ
 50
0.0
 41
0.9
 51
0.0
  7
KANJI67
  0
LINE
  8
0
  6
CONTINUOUS
 62
     2
 10
1896.72
 20
954.9
 30
0.0
 11
1896.72
 21
942.3
 31
0.0
  0
TEXT
  8
0
  6
CONTINUOUS
 62
     2
 10
2208.42
 20
1286.7
 30
9.0
 40
21.0
  1
推力リミッタ
 50
0.0
 41
0.9
 51
0.0
  7
KANJI68
  0
TEXT
  8
0
  6
CONTINUOUS
 62
     2
 10
2265.42
 20
1034.7
 30
1.8
 40
18.0
  1
Ｅ
 50
0.0
 41
0.9
 51
0.0
  7
KANJI69
  0
TEXT
  8
0
  6
CONTINUOUS
 62
     2
 10
1948.92
 20
991.5
 30
141.36
 40
22.8
  1
形式
 50
0.0
 41
0.9
 51
0.0
  7
KANJI62
  0
TEXT
  8
0
  6
CONTINUOUS
 62
     2
 10
1948.92
 20
949.5
 30
33.439782857
 40
22.8
  1
操作方式
 50
0.0
 41
0.9
 51
0.0
  7
KANJI60
  0
LINE
  8
0
  6
CONTINUOUS
 62
     2
 10
1896.72
 20
1190.1
 30
0.0
 11
1896.72
 21
1176.3
 31
0.0
  0
TEXT
  8
0
  6
CONTINUOUS
 62
     2
 10
1948.92
 20
1201.5
 30
3.0
 40
22.8
  1
出力　相数　極数
 50
0.0
 41
0.9
 51
0.0
  7
KANJI70
  0
TEXT
  8
0
  6
CONTINUOUS
 62
     2
 10
1906.92
 20
1411.5
 30
12.0
 40
22.8
  1
公称速度
 50
0.0
 41
0.9
 51
0.0
  7
KANJI71
  0
TEXT
  8
0
  6
CONTINUOUS
 62
     2
 10
2030.82
 20
1410.3
 30
0.0
 40
21.0
  1
（５０／６０Ｈｚ）
 50
0.0
 41
0.628571429
 51
0.0
  7
KANJI72
  0
TEXT
  8
0
  6
CONTINUOUS
 62
     2
 10
2151.42
 20
991.95
 30
3.3
 40
20.4
  1
スプリング制動式電磁ブレーキ
 50
0.0
 41
0.705882353
 51
0.0
  7
KANJI73
  0
TEXT
  8
0
  6
CONTINUOUS
 62
     2
 10
2370.42
 20
1159.5
 30
0.216
 40
18.0
  1
Ｖ
 50
0.0
 41
0.8
 51
0.0
  7
KANJI74
  0
TEXT
  8
0
  6
CONTINUOUS
 62
     2
 10
2359.62
 20
1117.5
 30
0.216
 40
18.0
  1
Ｈｚ
 50
0.0
 41
0.8
 51
0.0
  7
KANJI74
  0
TEXT
  8
0
  6
CONTINUOUS
 62
     2
 10
2370.42
 20
1075.5
 30
0.216
 40
18.0
  1
Ａ
 50
0.0
 41
0.8
 51
0.0
  7
KANJI74
  0
TEXT
  8
0
  6
CONTINUOUS
 62
     2
 10
2291.52
 20
1202.7
 30
1.8
 40
18.0
  1
３φ
 50
0.0
 41
0.9
 51
0.0
  7
KANJI69
  0
TEXT
  8
0
  6
CONTINUOUS
 62
     2
 10
2351.52
 20
1202.7
 30
1.8
 40
18.0
  1
４Ｐ
 50
0.0
 41
0.9
 51
0.0
  7
KANJI69
  0
TEXT
  8
0
  6
CONTINUOUS
 62
     2
 10
2149.92
 20
1244.7
 30
1.2
 40
19.2
  1
マンセル　７．５ＧＹ　５／４．５
 50
0.0
 41
0.71875
 51
0.0
  7
KANJI75
  0
TEXT
  8
0
  6
CONTINUOUS
 62
     2
 10
2149.92
 20
1160.7
 30
1.8
 40
18.0
  1
　　　　　　　／　　　
 50
0.0
 41
0.9
 51
0.0
  7
KANJI69
  0
TEXT
  8
0
  6
CONTINUOUS
 62
     2
 10
2149.92
 20
1118.7
 30
1.8
 40
18.0
  1
　　　　５０／　６０
 50
0.0
 41
0.9
 51
0.0
  7
KANJI69
  0
TEXT
  8
0
  6
CONTINUOUS
 62
     2
 10
2149.92
 20
1076.7
 30
1.8
 40
18.0
  1
　　　　　　　／　　　
 50
0.0
 41
0.9
 51
0.0
  7
KANJI69
  0
TEXT
  8
0
  6
CONTINUOUS
 62
     2
 10
2354.52
 20
1455.9
 30
0.1536
 40
19.2
  1
ｍｍ
 50
0.0
 41
0.8
 51
0.0
  7
KANJI76
  0
TEXT
  8
0
  6
CONTINUOUS
 62
     2
 10
2315.52
 20
1412.7
 30
0.0
 40
21.0
  1
ｍｍ／ｓｅｃ
 50
0.0
 41
0.571428571
 51
0.0
  7
KANJI77
  0
TEXT
  8
0
  6
CONTINUOUS
 62
     2
 10
2193.72
 20
1496.7
 30
1.8
 40
18.0
  1
１９．６ＫＮ（２ｔｏｎ）
 50
0.0
 41
0.9
 51
0.0
  7
KANJI69
  0
TEXT
  8
0
  6
CONTINUOUS
 62
     2
 10
2208.42
 20
1328.7
 30
9.0
 40
21.0
  1
全閉屋内形
 50
0.0
 41
0.9
 51
0.0
  7
KANJI68
  0
TEXT
  8
0
  6
CONTINUOUS
 62
     2
 10
2163.42
 20
1536.6
 30
1.2
 40
18.0
  1
ＭＣＬＥ２－　　Ｌ
 50
0.0
 41
0.833333333
 51
0.0
  7
KANJI78
  0
TEXT
  8
0
  6
CONTINUOUS
 62
     2
 10
2152.92
 20
1412.7
 30
1.8
 40
18.0
  1
　４２／５０．５
 50
0.0
 41
0.9
 51
0.0
  7
KANJI69
  0
TEXT
  8
0
  6
CONTINUOUS
 62
     2
 10
2155.92
 20
1202.7
 30
1.8
 40
18.0
  1
　２．０ＫＷ
 50
0.0
 41
0.9
 51
0.0
  7
KANJI69
  0
TEXT
  8
0
  6
CONTINUOUS
 62
     2
 10
2221.92
 20
949.5
 30
12.0
 40
21.0
  1
別切り
 50
0.0
 41
0.9
 51
0.0
  7
KANJI79
  0
LINE
  8
0
  6
CONTINUOUS
 62
     1
 10
1873.92
 20
770.7
 30
0.0
 11
2398.92
 21
770.7
 31
0.0
  0
LINE
  8
0
  6
CONTINUOUS
 62
     2
 10
1873.92
 20
812.7
 30
0.0
 11
2398.92
 21
812.7
 31
0.0
  0
TEXT
  8
0
  6
CONTINUOUS
 62
     2
 10
2343.72
 20
782.88
 30
0.0
 40
21.0
  1
ｋｇ
 50
0.0
 41
0.9
 51
0.0
  7
KANJI80
  0
TEXT
  8
0
  6
CONTINUOUS
 62
     2
 10
1905.72
 20
781.5
 30
6.0
 40
21.0
  1
概算重量（１台当り）
 50
0.0
 41
0.857142857
 51
0.0
  7
KANJI81
  0
TEXT
  8
0
  6
CONTINUOUS
 62
     2
 10
2182.92
 20
1370.7
 30
0.0
 40
18.0
  1
７８Ｎ・ｍ（８ｋｇ・ｍ）
 50
0.0
 41
0.833333333
 51
0.0
  7
KANJI82
  0
LINE
  8
0
  6
CONTINUOUS
 62
     1
 10
1873.92
 20
1628.7
 30
0.0
 11
1873.92
 21
770.7
 31
0.0
  0
LINE
  8
0
  6
CONTINUOUS
 62
     2
 10
2149.92
 20
1568.7
 30
0.0
 11
2149.92
 21
770.7
 31
0.0
  0
LINE
  8
0
  6
CONTINUOUS
 62
     1
 10
2398.92
 20
1628.7
 30
0.0
 11
2398.92
 21
770.7
 31
0.0
  0
ENDSEC
  0
EOF
