  0
SECTION
  2
HEADER
  9
$ACADVER
  1
AC1009
  9
$DWGCODEPAGE
  3
dos932
  9
$EXTMIN
 10
0.0
 20
0.0
 30
0.0
  9
$EXTMAX
 10
2520.0
 20
1782.0
 30
0.0
  9
$LIMMIN
 10
0.0
 20
0.0
  9
$LIMMAX
 10
2520.0
 20
1782.0
  9
$LTSCALE
 40
1.0
  9
$PDMODE
 70
     0
  0
ENDSEC
  0
SECTION
  2
TABLES
  0
TABLE
  2
VPORT
 70
     1
  0
VPORT
  2
*ACTIVE
 70
     0
 10
0.0
 20
0.0
 11
1.0
 21
1.0
 12
1260.0
 22
891.0
 13
0.0
 23
0.0
 14
10.0
 24
10.0
 15
10.0
 25
10.0
 16
0.0
 26
0.0
 36
1.0
 17
0.0
 27
0.0
 37
0.0
 40
2520.0
 41
1.414141414
 42
50.0
 43
0.0
 44
0.0
 50
0.0
 51
0.0
 71
     0
 72
  1000
 73
     1
 74
     3
 75
     0
 76
     0
 77
     0
 78
     0
  0
ENDTAB
  0
TABLE
  2
LTYPE
 70
     6
  0
LTYPE
  2
CONTINUOUS
 70
    64
  3
Solid line
 72
    65
 73
     0
 40
0.0
  0
LTYPE
  2
LTYPE1
 70
    64
  3
HIDDEN
 72
    65
 73
     2
 40
18.0
 49
10.8
 49
-7.2
  0
LTYPE
  2
LTYPE2
 70
    64
  3
CENTER
 72
    65
 73
     4
 40
60.0
 49
42.0
 49
-6.0
 49
6.0
 49
-6.0
  0
LTYPE
  2
LTYPE3
 70
    64
  3
CENTER
 72
    65
 73
     4
 40
90.0
 49
63.0
 49
-9.0
 49
9.0
 49
-9.0
  0
LTYPE
  2
LTYPE4
 70
    64
  3
CENTER
 72
    65
 73
     4
 40
120.0
 49
84.0
 49
-12.0
 49
12.0
 49
-12.0
  0
LTYPE
  2
LTYPE5
 70
    64
  3
CENTER
 72
    65
 73
     4
 40
54.0
 49
37.8
 49
-5.4
 49
5.4
 49
-5.4
  0
ENDTAB
  0
TABLE
  2
LAYER
 70
   128
  0
LAYER
  2
0
 70
     0
 62
     7
  6
CONTINUOUS
  0
LAYER
  2
2
 70
     0
 62
     7
  6
CONTINUOUS
  0
LAYER
  2
3
 70
     0
 62
     7
  6
CONTINUOUS
  0
LAYER
  2
4
 70
     0
 62
     7
  6
CONTINUOUS
  0
LAYER
  2
5
 70
     0
 62
     7
  6
CONTINUOUS
  0
LAYER
  2
6
 70
     0
 62
     7
  6
CONTINUOUS
  0
LAYER
  2
7
 70
     0
 62
     7
  6
CONTINUOUS
  0
LAYER
  2
8
 70
     0
 62
     7
  6
CONTINUOUS
  0
LAYER
  2
9
 70
     0
 62
     7
  6
CONTINUOUS
  0
LAYER
  2
10
 70
     0
 62
     7
  6
CONTINUOUS
  0
LAYER
  2
11
 70
     0
 62
     7
  6
CONTINUOUS
  0
LAYER
  2
12
 70
     0
 62
     7
  6
CONTINUOUS
  0
LAYER
  2
13
 70
     0
 62
     7
  6
CONTINUOUS
  0
LAYER
  2
14
 70
     0
 62
     7
  6
CONTINUOUS
  0
LAYER
  2
15
 70
     0
 62
     7
  6
CONTINUOUS
  0
LAYER
  2
16
 70
     0
 62
     7
  6
CONTINUOUS
  0
LAYER
  2
17
 70
     0
 62
     7
  6
CONTINUOUS
  0
LAYER
  2
18
 70
     0
 62
     7
  6
CONTINUOUS
  0
LAYER
  2
19
 70
     0
 62
     7
  6
CONTINUOUS
  0
LAYER
  2
20
 70
     0
 62
     7
  6
CONTINUOUS
  0
LAYER
  2
21
 70
     0
 62
     7
  6
CONTINUOUS
  0
LAYER
  2
22
 70
     0
 62
     7
  6
CONTINUOUS
  0
LAYER
  2
23
 70
     0
 62
     7
  6
CONTINUOUS
  0
LAYER
  2
24
 70
     0
 62
     7
  6
CONTINUOUS
  0
LAYER
  2
25
 70
     0
 62
     7
  6
CONTINUOUS
  0
LAYER
  2
26
 70
     0
 62
     7
  6
CONTINUOUS
  0
LAYER
  2
27
 70
     0
 62
     7
  6
CONTINUOUS
  0
LAYER
  2
28
 70
     0
 62
     7
  6
CONTINUOUS
  0
LAYER
  2
29
 70
     0
 62
     7
  6
CONTINUOUS
  0
LAYER
  2
30
 70
     0
 62
     7
  6
CONTINUOUS
  0
LAYER
  2
31
 70
     0
 62
     7
  6
CONTINUOUS
  0
LAYER
  2
32
 70
     0
 62
     7
  6
CONTINUOUS
  0
LAYER
  2
33
 70
     0
 62
     7
  6
CONTINUOUS
  0
LAYER
  2
34
 70
     0
 62
     7
  6
CONTINUOUS
  0
LAYER
  2
35
 70
     0
 62
     7
  6
CONTINUOUS
  0
LAYER
  2
36
 70
     0
 62
     7
  6
CONTINUOUS
  0
LAYER
  2
37
 70
     0
 62
     7
  6
CONTINUOUS
  0
LAYER
  2
38
 70
     0
 62
     7
  6
CONTINUOUS
  0
LAYER
  2
39
 70
     0
 62
     7
  6
CONTINUOUS
  0
LAYER
  2
40
 70
     0
 62
     7
  6
CONTINUOUS
  0
LAYER
  2
41
 70
     0
 62
     7
  6
CONTINUOUS
  0
LAYER
  2
42
 70
     0
 62
     7
  6
CONTINUOUS
  0
LAYER
  2
43
 70
     0
 62
     7
  6
CONTINUOUS
  0
LAYER
  2
44
 70
     0
 62
     7
  6
CONTINUOUS
  0
LAYER
  2
45
 70
     0
 62
     7
  6
CONTINUOUS
  0
LAYER
  2
46
 70
     0
 62
     7
  6
CONTINUOUS
  0
LAYER
  2
47
 70
     0
 62
     7
  6
CONTINUOUS
  0
LAYER
  2
48
 70
     0
 62
     7
  6
CONTINUOUS
  0
LAYER
  2
49
 70
     0
 62
     7
  6
CONTINUOUS
  0
LAYER
  2
50
 70
     0
 62
     7
  6
CONTINUOUS
  0
LAYER
  2
51
 70
     0
 62
     7
  6
CONTINUOUS
  0
LAYER
  2
52
 70
     0
 62
     7
  6
CONTINUOUS
  0
LAYER
  2
53
 70
     0
 62
     7
  6
CONTINUOUS
  0
LAYER
  2
54
 70
     0
 62
     7
  6
CONTINUOUS
  0
LAYER
  2
55
 70
     0
 62
     7
  6
CONTINUOUS
  0
LAYER
  2
56
 70
     0
 62
     7
  6
CONTINUOUS
  0
LAYER
  2
57
 70
     0
 62
     7
  6
CONTINUOUS
  0
LAYER
  2
58
 70
     0
 62
     7
  6
CONTINUOUS
  0
LAYER
  2
59
 70
     0
 62
     7
  6
CONTINUOUS
  0
LAYER
  2
60
 70
     0
 62
     7
  6
CONTINUOUS
  0
LAYER
  2
61
 70
     0
 62
     7
  6
CONTINUOUS
  0
LAYER
  2
62
 70
     0
 62
     7
  6
CONTINUOUS
  0
LAYER
  2
63
 70
     0
 62
     7
  6
CONTINUOUS
  0
LAYER
  2
64
 70
     0
 62
     7
  6
CONTINUOUS
  0
LAYER
  2
65
 70
     0
 62
     7
  6
CONTINUOUS
  0
LAYER
  2
66
 70
     0
 62
     7
  6
CONTINUOUS
  0
LAYER
  2
67
 70
     0
 62
     7
  6
CONTINUOUS
  0
LAYER
  2
68
 70
     0
 62
     7
  6
CONTINUOUS
  0
LAYER
  2
69
 70
     0
 62
     7
  6
CONTINUOUS
  0
LAYER
  2
70
 70
     0
 62
     7
  6
CONTINUOUS
  0
LAYER
  2
71
 70
     0
 62
     7
  6
CONTINUOUS
  0
LAYER
  2
72
 70
     0
 62
     7
  6
CONTINUOUS
  0
LAYER
  2
73
 70
     0
 62
     7
  6
CONTINUOUS
  0
LAYER
  2
74
 70
     0
 62
     7
  6
CONTINUOUS
  0
LAYER
  2
75
 70
     0
 62
     7
  6
CONTINUOUS
  0
LAYER
  2
76
 70
     0
 62
     7
  6
CONTINUOUS
  0
LAYER
  2
77
 70
     0
 62
     7
  6
CONTINUOUS
  0
LAYER
  2
78
 70
     0
 62
     7
  6
CONTINUOUS
  0
LAYER
  2
79
 70
     0
 62
     7
  6
CONTINUOUS
  0
LAYER
  2
80
 70
     0
 62
     7
  6
CONTINUOUS
  0
LAYER
  2
81
 70
     0
 62
     7
  6
CONTINUOUS
  0
LAYER
  2
82
 70
     0
 62
     7
  6
CONTINUOUS
  0
LAYER
  2
83
 70
     0
 62
     7
  6
CONTINUOUS
  0
LAYER
  2
84
 70
     0
 62
     7
  6
CONTINUOUS
  0
LAYER
  2
85
 70
     0
 62
     7
  6
CONTINUOUS
  0
LAYER
  2
86
 70
     0
 62
     7
  6
CONTINUOUS
  0
LAYER
  2
87
 70
     0
 62
     7
  6
CONTINUOUS
  0
LAYER
  2
88
 70
     0
 62
     7
  6
CONTINUOUS
  0
LAYER
  2
89
 70
     0
 62
     7
  6
CONTINUOUS
  0
LAYER
  2
90
 70
     0
 62
     7
  6
CONTINUOUS
  0
LAYER
  2
91
 70
     0
 62
     7
  6
CONTINUOUS
  0
LAYER
  2
92
 70
     0
 62
     7
  6
CONTINUOUS
  0
LAYER
  2
93
 70
     0
 62
     7
  6
CONTINUOUS
  0
LAYER
  2
94
 70
     0
 62
     7
  6
CONTINUOUS
  0
LAYER
  2
95
 70
     0
 62
     7
  6
CONTINUOUS
  0
LAYER
  2
96
 70
     0
 62
     7
  6
CONTINUOUS
  0
LAYER
  2
97
 70
     0
 62
     7
  6
CONTINUOUS
  0
LAYER
  2
98
 70
     0
 62
     7
  6
CONTINUOUS
  0
LAYER
  2
99
 70
     0
 62
     7
  6
CONTINUOUS
  0
LAYER
  2
100
 70
     0
 62
     7
  6
CONTINUOUS
  0
LAYER
  2
101
 70
     0
 62
     7
  6
CONTINUOUS
  0
LAYER
  2
102
 70
     0
 62
     7
  6
CONTINUOUS
  0
LAYER
  2
103
 70
     0
 62
     7
  6
CONTINUOUS
  0
LAYER
  2
104
 70
     0
 62
     7
  6
CONTINUOUS
  0
LAYER
  2
105
 70
     0
 62
     7
  6
CONTINUOUS
  0
LAYER
  2
106
 70
     0
 62
     7
  6
CONTINUOUS
  0
LAYER
  2
107
 70
     0
 62
     7
  6
CONTINUOUS
  0
LAYER
  2
108
 70
     0
 62
     7
  6
CONTINUOUS
  0
LAYER
  2
109
 70
     0
 62
     7
  6
CONTINUOUS
  0
LAYER
  2
110
 70
     0
 62
     7
  6
CONTINUOUS
  0
LAYER
  2
111
 70
     0
 62
     7
  6
CONTINUOUS
  0
LAYER
  2
112
 70
     0
 62
     7
  6
CONTINUOUS
  0
LAYER
  2
113
 70
     0
 62
     7
  6
CONTINUOUS
  0
LAYER
  2
114
 70
     0
 62
     7
  6
CONTINUOUS
  0
LAYER
  2
115
 70
     0
 62
     7
  6
CONTINUOUS
  0
LAYER
  2
116
 70
     0
 62
     7
  6
CONTINUOUS
  0
LAYER
  2
117
 70
     0
 62
     7
  6
CONTINUOUS
  0
LAYER
  2
118
 70
     0
 62
     7
  6
CONTINUOUS
  0
LAYER
  2
119
 70
     0
 62
     7
  6
CONTINUOUS
  0
LAYER
  2
120
 70
     0
 62
     7
  6
CONTINUOUS
  0
LAYER
  2
121
 70
     0
 62
     7
  6
CONTINUOUS
  0
LAYER
  2
122
 70
     0
 62
     7
  6
CONTINUOUS
  0
LAYER
  2
123
 70
     0
 62
     7
  6
CONTINUOUS
  0
LAYER
  2
124
 70
     0
 62
     7
  6
CONTINUOUS
  0
LAYER
  2
125
 70
     0
 62
     7
  6
CONTINUOUS
  0
LAYER
  2
126
 70
     0
 62
     7
  6
CONTINUOUS
  0
LAYER
  2
127
 70
     0
 62
     7
  6
CONTINUOUS
  0
LAYER
  2
128
 70
     0
 62
     7
  6
CONTINUOUS
  0
ENDTAB
  0
TABLE
  2
STYLE
 70
    78
  0
STYLE
  2
STANDARD
 70
     0
 40
0.0
 41
1.0
 50
0.0
 71
     0
 42
0.2
  3
txt.shx
  4
extfont.shx
  0
STYLE
  2
KANJI0
 70
     0
 40
15.5999988
 41
0.75
 50
0.0
 71
     0
 42
15.5999988
  3
txt.shx
  4
extfont.shx
  0
STYLE
  2
KANJI1
 70
     0
 40
11.999997477
 41
0.6
 50
0.0
 71
     0
 42
11.999997477
  3
txt.shx
  4
extfont.shx
  0
STYLE
  2
KANJI2
 70
     0
 40
14.399996972
 41
0.9
 50
0.0
 71
     0
 42
14.399996972
  3
txt.shx
  4
extfont.shx
  0
STYLE
  2
KANJI3
 70
     0
 40
17.999996215
 41
0.9
 50
0.0
 71
     0
 42
17.999996215
  3
txt.shx
  4
extfont.shx
  0
STYLE
  2
KANJI4
 70
     0
 40
10.3999992
 41
0.6
 50
0.0
 71
     0
 42
10.3999992
  3
txt.shx
  4
extfont.shx
  0
STYLE
  2
KANJI5
 70
     0
 40
12.47999904
 41
0.6
 50
0.0
 71
     0
 42
12.47999904
  3
txt.shx
  4
extfont.shx
  0
STYLE
  2
KANJI6
 70
     0
 40
18.1999986
 41
0.42031746
 50
0.0
 71
     0
 42
18.1999986
  3
txt.shx
  4
extfont.shx
  0
STYLE
  2
KANJI7
 70
     0
 40
31.1999976
 41
0.9
 50
0.0
 71
     0
 42
31.1999976
  3
txt.shx
  4
extfont.shx
  0
STYLE
  2
KANJI8
 70
     0
 40
21.6
 41
1.111111111
 50
0.0
 71
     0
 42
21.6
  3
txt.shx
  4
extfont.shx
  0
STYLE
  2
KANJI9
 70
     0
 40
10.3999992
 41
0.8
 50
0.0
 71
     0
 42
10.3999992
  3
txt.shx
  4
extfont.shx
  0
STYLE
  2
KANJI10
 70
     0
 40
12.47999904
 41
0.8
 50
0.0
 71
     0
 42
12.47999904
  3
txt.shx
  4
extfont.shx
  0
STYLE
  2
KANJI11
 70
     0
 40
30.0
 41
1.0
 50
0.0
 71
     0
 42
30.0
  3
txt.shx
  4
extfont.shx
  0
STYLE
  2
KANJI12
 70
     0
 40
30.0
 41
1.0
 50
0.0
 71
     0
 42
30.0
  3
txt.shx
  4
extfont.shx
  0
STYLE
  2
KANJI13
 70
     0
 40
30.0
 41
0.8
 50
0.0
 71
     0
 42
30.0
  3
txt.shx
  4
extfont.shx
  0
STYLE
  2
KANJI14
 70
     0
 40
24.0
 41
1.0
 50
0.0
 71
     0
 42
24.0
  3
txt.shx
  4
extfont.shx
  0
STYLE
  2
KANJI15
 70
     0
 40
21.0
 41
0.857142857
 50
0.0
 71
     0
 42
21.0
  3
txt.shx
  4
extfont.shx
  0
STYLE
  2
KANJI16
 70
     0
 40
27.0
 41
0.666666667
 50
0.0
 71
     0
 42
27.0
  3
txt.shx
  4
extfont.shx
  0
STYLE
  2
KANJI17
 70
     0
 40
13.86
 41
0.9
 50
0.0
 71
     0
 42
13.86
  3
txt.shx
  4
extfont.shx
  0
STYLE
  2
KANJI18
 70
     0
 40
15.0
 41
0.9
 50
0.0
 71
     0
 42
15.0
  3
txt.shx
  4
extfont.shx
  0
STYLE
  2
KANJI19
 70
     0
 40
15.0
 41
0.9
 50
0.0
 71
     0
 42
15.0
  3
txt.shx
  4
extfont.shx
  0
STYLE
  2
KANJI20
 70
     0
 40
18.0
 41
0.9
 50
0.0
 71
     0
 42
18.0
  3
txt.shx
  4
extfont.shx
  0
STYLE
  2
KANJI21
 70
     0
 40
18.0
 41
0.9
 50
0.0
 71
     0
 42
18.0
  3
txt.shx
  4
extfont.shx
  0
STYLE
  2
KANJI22
 70
     0
 40
21.0
 41
0.793650794
 50
0.0
 71
     0
 42
21.0
  3
txt.shx
  4
extfont.shx
  0
STYLE
  2
KANJI23
 70
     0
 40
30.0
 41
0.8
 50
0.0
 71
     0
 42
30.0
  3
txt.shx
  4
extfont.shx
  0
STYLE
  2
KANJI24
 70
     0
 40
18.0
 41
0.9
 50
0.0
 71
     0
 42
18.0
  3
txt.shx
  4
extfont.shx
  0
STYLE
  2
KANJI25
 70
     0
 40
13.182
 41
0.85
 50
0.0
 71
     0
 42
13.182
  3
txt.shx
  4
extfont.shx
  0
STYLE
  2
KANJI26
 70
     0
 40
11.661
 41
0.822608696
 50
0.0
 71
     0
 42
11.661
  3
txt.shx
  4
extfont.shx
  0
STYLE
  2
KANJI27
 70
     0
 40
11.8638
 41
0.726495726
 50
0.0
 71
     0
 42
11.8638
  3
txt.shx
  4
extfont.shx
  0
STYLE
  2
KANJI28
 70
     4
 40
45.0
 41
0.538166667
 50
0.0
 71
     0
 42
45.0
  3
txt.shx
  4
extfont.shx
  0
STYLE
  2
KANJI29
 70
     0
 40
17.740702234
 41
0.880962996
 50
0.0
 71
     0
 42
17.740702234
  3
txt.shx
  4
extfont.shx
  0
STYLE
  2
KANJI30
 70
     0
 40
11.7
 41
0.8
 50
0.0
 71
     0
 42
11.7
  3
txt.shx
  4
extfont.shx
  0
STYLE
  2
KANJI31
 70
     0
 40
15.0
 41
0.911
 50
0.0
 71
     0
 42
15.0
  3
txt.shx
  4
extfont.shx
  0
STYLE
  2
KANJI32
 70
     0
 40
10.933904043
 41
0.9
 50
0.0
 71
     0
 42
10.933904043
  3
txt.shx
  4
extfont.shx
  0
STYLE
  2
KANJI33
 70
     0
 40
15.185977837
 41
0.66671875
 50
0.0
 71
     0
 42
15.185977837
  3
txt.shx
  4
extfont.shx
  0
STYLE
  2
KANJI34
 70
     0
 40
18.223173404
 41
0.9
 50
0.0
 71
     0
 42
18.223173404
  3
txt.shx
  4
extfont.shx
  0
STYLE
  2
KANJI35
 70
     0
 40
14.578538724
 41
0.9
 50
0.0
 71
     0
 42
14.578538724
  3
txt.shx
  4
extfont.shx
  0
STYLE
  2
KANJI36
 70
     0
 40
15.6
 41
0.925
 50
0.0
 71
     0
 42
15.6
  3
txt.shx
  4
extfont.shx
  0
STYLE
  2
KANJI37
 70
     0
 40
20.0
 41
0.925
 50
0.0
 71
     0
 42
20.0
  3
txt.shx
  4
extfont.shx
  0
STYLE
  2
KANJI38
 70
     0
 40
21.6
 41
0.857142857
 50
0.0
 71
     0
 42
21.6
  3
txt.shx
  4
extfont.shx
  0
STYLE
  2
KANJI39
 70
     0
 40
21.6
 41
0.857222222
 50
0.0
 71
     0
 42
21.6
  3
txt.shx
  4
extfont.shx
  0
STYLE
  2
KANJI40
 70
     0
 40
24.0
 41
0.9
 50
0.0
 71
     0
 42
24.0
  3
txt.shx
  4
extfont.shx
  0
STYLE
  2
KANJI41
 70
     0
 40
20.0
 41
0.925
 50
0.0
 71
     0
 42
20.0
  3
txt.shx
  4
extfont.shx
  0
STYLE
  2
KANJI42
 70
     0
 40
16.17
 41
0.9
 50
0.0
 71
     0
 42
16.17
  3
txt.shx
  4
extfont.shx
  0
STYLE
  2
KANJI43
 70
     0
 40
15.36
 41
0.9
 50
0.0
 71
     0
 42
15.36
  3
txt.shx
  4
extfont.shx
  0
STYLE
  2
KANJI44
 70
     0
 40
14.4
 41
0.9
 50
0.0
 71
     0
 42
14.4
  3
txt.shx
  4
extfont.shx
  0
STYLE
  2
KANJI45
 70
     0
 40
14.4
 41
0.9
 50
0.0
 71
     0
 42
14.4
  3
txt.shx
  4
extfont.shx
  0
STYLE
  2
KANJI46
 70
     0
 40
16.8
 41
0.9
 50
0.0
 71
     0
 42
16.8
  3
txt.shx
  4
extfont.shx
  0
STYLE
  2
KANJI47
 70
     0
 40
12.96
 41
0.740740741
 50
0.0
 71
     0
 42
12.96
  3
txt.shx
  4
extfont.shx
  0
STYLE
  2
KANJI48
 70
     0
 40
16.8
 41
0.857142857
 50
0.0
 71
     0
 42
16.8
  3
txt.shx
  4
extfont.shx
  0
STYLE
  2
KANJI49
 70
     0
 40
14.4
 41
0.833333333
 50
0.0
 71
     0
 42
14.4
  3
txt.shx
  4
extfont.shx
  0
STYLE
  2
KANJI50
 70
     0
 40
21.0
 41
0.571428571
 50
0.0
 71
     0
 42
21.0
  3
txt.shx
  4
extfont.shx
  0
STYLE
  2
KANJI51
 70
     0
 40
22.8
 41
0.9
 50
0.0
 71
     0
 42
22.8
  3
txt.shx
  4
extfont.shx
  0
STYLE
  2
KANJI52
 70
     0
 40
22.8
 41
0.9
 50
0.0
 71
     0
 42
22.8
  3
txt.shx
  4
extfont.shx
  0
STYLE
  2
KANJI53
 70
     0
 40
27.0
 41
0.9
 50
0.0
 71
     0
 42
27.0
  3
txt.shx
  4
extfont.shx
  0
STYLE
  2
KANJI54
 70
     0
 40
22.8
 41
0.9
 50
0.0
 71
     0
 42
22.8
  3
txt.shx
  4
extfont.shx
  0
STYLE
  2
KANJI55
 70
     0
 40
22.8
 41
0.9
 50
0.0
 71
     0
 42
22.8
  3
txt.shx
  4
extfont.shx
  0
STYLE
  2
KANJI56
 70
     0
 40
22.8
 41
0.9
 50
0.0
 71
     0
 42
22.8
  3
txt.shx
  4
extfont.shx
  0
STYLE
  2
KANJI57
 70
     0
 40
22.8
 41
0.9
 50
0.0
 71
     0
 42
22.8
  3
txt.shx
  4
extfont.shx
  0
STYLE
  2
KANJI58
 70
     0
 40
22.8
 41
0.9
 50
0.0
 71
     0
 42
22.8
  3
txt.shx
  4
extfont.shx
  0
STYLE
  2
KANJI59
 70
     0
 40
22.8
 41
0.9
 50
0.0
 71
     0
 42
22.8
  3
txt.shx
  4
extfont.shx
  0
STYLE
  2
KANJI60
 70
     4
 40
21.0
 41
0.9
 50
0.0
 71
     0
 42
21.0
  3
txt.shx
  4
extfont.shx
  0
STYLE
  2
KANJI61
 70
     4
 40
21.0
 41
0.9
 50
0.0
 71
     0
 42
21.0
  3
txt.shx
  4
extfont.shx
  0
STYLE
  2
KANJI62
 70
     0
 40
21.0
 41
0.9
 50
0.0
 71
     0
 42
21.0
  3
txt.shx
  4
extfont.shx
  0
STYLE
  2
KANJI63
 70
     0
 40
18.0
 41
0.9
 50
0.0
 71
     0
 42
18.0
  3
txt.shx
  4
extfont.shx
  0
STYLE
  2
KANJI64
 70
     0
 40
21.0
 41
0.9
 50
0.0
 71
     0
 42
21.0
  3
txt.shx
  4
extfont.shx
  0
STYLE
  2
KANJI65
 70
     0
 40
22.8
 41
0.9
 50
0.0
 71
     0
 42
22.8
  3
txt.shx
  4
extfont.shx
  0
STYLE
  2
KANJI66
 70
     0
 40
22.8
 41
0.9
 50
0.0
 71
     0
 42
22.8
  3
txt.shx
  4
extfont.shx
  0
STYLE
  2
KANJI67
 70
     0
 40
21.0
 41
0.628571429
 50
0.0
 71
     0
 42
21.0
  3
txt.shx
  4
extfont.shx
  0
STYLE
  2
KANJI68
 70
     0
 40
20.4
 41
0.705882353
 50
0.0
 71
     0
 42
20.4
  3
txt.shx
  4
extfont.shx
  0
STYLE
  2
KANJI69
 70
     0
 40
18.0
 41
0.8
 50
0.0
 71
     0
 42
18.0
  3
txt.shx
  4
extfont.shx
  0
STYLE
  2
KANJI70
 70
     0
 40
19.2
 41
0.71875
 50
0.0
 71
     0
 42
19.2
  3
txt.shx
  4
extfont.shx
  0
STYLE
  2
KANJI71
 70
     0
 40
19.2
 41
0.8
 50
0.0
 71
     0
 42
19.2
  3
txt.shx
  4
extfont.shx
  0
STYLE
  2
KANJI72
 70
     0
 40
21.0
 41
0.571428571
 50
0.0
 71
     0
 42
21.0
  3
txt.shx
  4
extfont.shx
  0
STYLE
  2
KANJI73
 70
     0
 40
18.0
 41
0.833333333
 50
0.0
 71
     0
 42
18.0
  3
txt.shx
  4
extfont.shx
  0
STYLE
  2
KANJI74
 70
     0
 40
21.0
 41
0.9
 50
0.0
 71
     0
 42
21.0
  3
txt.shx
  4
extfont.shx
  0
STYLE
  2
KANJI75
 70
     0
 40
21.0
 41
0.857142857
 50
0.0
 71
     0
 42
21.0
  3
txt.shx
  4
extfont.shx
  0
STYLE
  2
KANJI76
 70
     0
 40
18.0
 41
0.833333333
 50
0.0
 71
     0
 42
18.0
  3
txt.shx
  4
extfont.shx
  0
ENDTAB
  0
TABLE
  2
VIEW
 70
     0
  0
ENDTAB
  0
ENDSEC
  0
SECTION
  2
BLOCKS
  0
ENDSEC
  0
SECTION
  2
ENTITIES
  0
POLYLINE
  8
0
  6
CONTINUOUS
 62
     6
 66
     1
  0
VERTEX
  8
0
  6
CONTINUOUS
 62
     6
 10
82.92
 20
71.7
 30
0.0
  0
VERTEX
  8
0
  6
CONTINUOUS
 62
     6
 10
82.92
 20
1685.7
 30
0.0
  0
VERTEX
  8
0
  6
CONTINUOUS
 62
     6
 10
2404.92
 20
1685.7
 30
0.0
  0
SEQEND
  0
LINE
  8
0
  6
CONTINUOUS
 62
     6
 10
88.919998738
 20
161.699981077
 30
0.0
 11
478.919916738
 21
161.699981077
 31
0.0
  0
LINE
  8
0
  6
CONTINUOUS
 62
     6
 10
88.919998738
 20
77.699998738
 30
0.0
 11
478.919916738
 21
77.699998738
 31
0.0
  0
LINE
  8
0
  6
CONTINUOUS
 62
     6
 10
88.919998738
 20
77.699998738
 30
0.0
 11
88.919998738
 21
161.699981077
 31
0.0
  0
LINE
  8
0
  6
CONTINUOUS
 62
     6
 10
88.919998738
 20
119.699989908
 30
0.0
 11
478.919916738
 21
119.699989908
 31
0.0
  0
LINE
  8
0
  6
CONTINUOUS
 62
     4
 10
14.6199996
 20
76.8999996
 30
0.0
 11
77.0199948
 21
76.8999996
 31
0.0
  0
LINE
  8
0
  6
CONTINUOUS
 62
     4
 10
14.6199996
 20
108.0999972
 30
0.0
 11
77.0199948
 21
108.0999972
 31
0.0
  0
LINE
  8
0
  6
CONTINUOUS
 62
     4
 10
14.6199996
 20
139.2999948
 30
0.0
 11
77.0199948
 21
139.2999948
 31
0.0
  0
LINE
  8
0
  6
CONTINUOUS
 62
     4
 10
14.6199996
 20
170.4999924
 30
0.0
 11
77.0199948
 21
170.4999924
 31
0.0
  0
LINE
  8
0
  6
CONTINUOUS
 62
     4
 10
14.6199996
 20
201.69999
 30
0.0
 11
77.0199948
 21
201.69999
 31
0.0
  0
LINE
  8
0
  6
CONTINUOUS
 62
     4
 10
14.6199996
 20
232.8999876
 30
0.0
 11
77.0199948
 21
232.8999876
 31
0.0
  0
LINE
  8
0
  6
CONTINUOUS
 62
     4
 10
14.6199996
 20
264.0999852
 30
0.0
 11
77.0199948
 21
264.0999852
 31
0.0
  0
LINE
  8
0
  6
CONTINUOUS
 62
     4
 10
14.6199996
 20
295.2999828
 30
0.0
 11
77.0199948
 21
295.2999828
 31
0.0
  0
LINE
  8
0
  6
CONTINUOUS
 62
     4
 10
14.6199996
 20
326.4999804
 30
0.0
 11
77.0199948
 21
326.4999804
 31
0.0
  0
LINE
  8
0
  6
CONTINUOUS
 62
     4
 10
14.6199996
 20
357.699978
 30
0.0
 11
77.0199948
 21
357.699978
 31
0.0
  0
LINE
  8
0
  6
CONTINUOUS
 62
     4
 10
77.0199948
 20
76.8999996
 30
0.0
 11
77.0199948
 21
357.699978
 31
0.0
  0
LINE
  8
0
  6
CONTINUOUS
 62
     4
 10
45.8199972
 20
76.8999996
 30
0.0
 11
45.8199972
 21
326.4999804
 31
0.0
  0
TEXT
  8
0
  6
CONTINUOUS
 62
     4
 10
25.27999878
 20
85.9999989
 30
1.55999988
 40
15.5999988
  1
計
 50
0.0
 41
0.75
 51
0.0
  7
KANJI0
  0
TEXT
  8
0
  6
CONTINUOUS
 62
     4
 10
25.27999878
 20
148.91999406
 30
1.55999988
 40
15.5999988
  1
設
 50
0.0
 41
0.75
 51
0.0
  7
KANJI0
  0
TEXT
  8
0
  6
CONTINUOUS
 62
     4
 10
25.27999878
 20
179.5999917
 30
1.55999988
 40
15.5999988
  1
管
 50
0.0
 41
0.75
 51
0.0
  7
KANJI0
  0
TEXT
  8
0
  6
CONTINUOUS
 62
     4
 10
25.27999878
 20
210.7999893
 30
1.55999988
 40
15.5999988
  1
製
 50
0.0
 41
0.75
 51
0.0
  7
KANJI0
  0
TEXT
  8
0
  6
CONTINUOUS
 62
     4
 10
25.27999878
 20
241.9999869
 30
1.55999988
 40
15.5999988
  1
資
 50
0.0
 41
0.75
 51
0.0
  7
KANJI0
  0
TEXT
  8
0
  6
CONTINUOUS
 62
     4
 10
25.27999878
 20
273.1999845
 30
1.55999988
 40
15.5999988
  1
営
 50
0.0
 41
0.75
 51
0.0
  7
KANJI0
  0
TEXT
  8
0
  6
CONTINUOUS
 62
     4
 10
25.27999878
 20
304.3999821
 30
1.55999988
 40
15.5999988
  1
客
 50
0.0
 41
0.75
 51
0.0
  7
KANJI0
  0
TEXT
  8
0
  6
CONTINUOUS
 62
     4
 10
25.0199988
 20
336.8999796
 30
1.55999988
 40
15.5999988
  1
出　図
 50
0.0
 41
0.75
 51
0.0
  7
KANJI0
  0
LINE
  8
0
  6
CONTINUOUS
 62
     4
 10
14.6199996
 20
76.8999996
 30
0.0
 11
14.6199996
 21
357.699978
 31
0.0
  0
LINE
  8
0
  6
CONTINUOUS
 62
     6
 10
2404.92
 20
71.7
 30
0.0
 11
82.92
 21
71.7
 31
0.0
  0
TEXT
  8
0
  6
CONTINUOUS
 62
     4
 10
100.919996215
 20
101.699993692
 30
1.199999748
 40
11.999997477
  1
ＰＡＲＴＳ　ＬＩＳＴ
 50
0.0
 41
0.6
 51
0.0
  7
KANJI1
  0
TEXT
  8
0
  6
CONTINUOUS
 62
     4
 10
100.919996215
 20
83.699997477
 30
1.439999697
 40
14.399996972
  1
部品表
 50
0.0
 41
0.9
 51
0.0
  7
KANJI2
  0
TEXT
  8
0
  6
CONTINUOUS
 62
     3
 10
100.919996215
 20
131.699987385
 30
1.799999622
 40
17.999996215
  1
ＰＬ
 50
0.0
 41
0.9
 51
0.0
  7
KANJI3
  0
TEXT
  8
0
  6
CONTINUOUS
 62
     4
 10
370.919939446
 20
101.699993692
 30
1.199999748
 40
11.999997477
  1
Ｎ０．
 50
0.0
 41
0.6
 51
0.0
  7
KANJI1
  0
TEXT
  8
0
  6
CONTINUOUS
 62
     4
 10
370.919939446
 20
83.699997477
 30
1.439999697
 40
14.399996972
  1
項番
 50
0.0
 41
0.9
 51
0.0
  7
KANJI2
  0
LINE
  8
0
  6
CONTINUOUS
 62
     6
 10
478.919916738
 20
77.699998738
 30
0.0
 11
478.919916738
 21
161.699981077
 31
0.0
  0
LINE
  8
0
  6
CONTINUOUS
 62
     6
 10
358.919941969
 20
77.699998738
 30
0.0
 11
358.919941969
 21
161.699981077
 31
0.0
  0
LINE
  8
0
  6
CONTINUOUS
 62
     6
 10
2404.92
 20
1685.7
 30
0.0
 11
2404.92
 21
71.7
 31
0.0
  0
LINE
  8
0
  6
CONTINUOUS
 62
     6
 10
1598.920062
 20
76.8999996
 30
0.0
 11
1598.920062
 21
409.699974
 31
0.0
  0
LINE
  8
0
  6
CONTINUOUS
 62
     6
 10
2399.7200004
 20
76.8999996
 30
0.0
 11
2399.7200004
 21
409.699974
 31
0.0
  0
LINE
  8
0
  6
CONTINUOUS
 62
     4
 10
1788.7200474
 20
76.8999996
 30
0.0
 11
1788.7200474
 21
409.699974
 31
0.0
  0
LINE
  8
0
  6
CONTINUOUS
 62
     4
 10
1598.920062
 20
118.4999964
 30
0.0
 11
1788.7200474
 21
118.4999964
 31
0.0
  0
TEXT
  8
0
  6
CONTINUOUS
 62
     4
 10
1609.3200612
 20
100.2999978
 30
1.03999992
 40
10.3999992
  1
ＳＣＡＬＥ
 50
0.0
 41
0.6
 51
0.0
  7
KANJI4
  0
TEXT
  8
0
  6
CONTINUOUS
 62
     4
 10
1609.3200612
 20
84.699999
 30
1.247999904
 40
12.47999904
  1
尺度
 50
0.0
 41
0.6
 51
0.0
  7
KANJI5
  0
LINE
  8
0
  6
CONTINUOUS
 62
     6
 10
1188.1200936
 20
118.4999964
 30
0.0
 11
1598.920062
 21
118.4999964
 31
0.0
  0
LINE
  8
0
  6
CONTINUOUS
 62
     6
 10
1188.1200936
 20
76.8999996
 30
0.0
 11
2399.7200004
 21
76.8999996
 31
0.0
  0
TEXT
  8
0
  6
CONTINUOUS
 62
     6
 10
1793.920047
 20
100.2999978
 30
0.0
 40
18.1999986
  1
ＵＮＩＴＥＣ　ＩＮＤＵＳＴＲＹ　ＣＯ．，ＬＴＤ．
 50
0.0
 41
0.42031746
 51
0.0
  7
KANJI6
  0
TEXT
  8
0
  6
CONTINUOUS
 62
     6
 10
2049.175027365
 20
93.53999832
 30
3.11999976
 40
31.1999976
  1
ユニテック工業株式会社
 50
0.0
 41
0.9
 51
0.0
  7
KANJI7
  0
LINE
  8
0
  6
CONTINUOUS
 62
     6
 10
2007.575030565
 20
104.45999748
 30
0.0
 11
1993.847031621
 21
104.45999748
 31
0.0
  0
LINE
  8
0
  6
CONTINUOUS
 62
     6
 10
2007.575030565
 20
106.955997288
 30
0.0
 11
1993.847031621
 21
106.955997288
 31
0.0
  0
LINE
  8
0
  6
CONTINUOUS
 62
     6
 10
2007.575030565
 20
104.45999748
 30
0.0
 11
2021.303029509
 21
104.45999748
 31
0.0
  0
LINE
  8
0
  6
CONTINUOUS
 62
     6
 10
2007.575030565
 20
106.955997288
 30
0.0
 11
2021.303029509
 21
106.955997288
 31
0.0
  0
LINE
  8
0
  6
CONTINUOUS
 62
     6
 10
2021.303029509
 20
106.955997288
 30
0.0
 11
2021.303029509
 21
104.45999748
 31
0.0
  0
ARC
  8
0
  6
CONTINUOUS
 62
     6
 10
2024.423029269
 20
105.707997384
 30
0.0
 40
12.47999904
 50
185.739170477
 51
90.0
  0
ARC
  8
0
  6
CONTINUOUS
 62
     6
 10
2024.423029269
 20
105.707997384
 30
0.0
 40
14.975998848
 50
184.780191847
 51
90.0
  0
LINE
  8
0
  6
CONTINUOUS
 62
     6
 10
1993.847031621
 20
104.45999748
 30
0.0
 11
1993.847031621
 21
106.955997288
 31
0.0
  0
ARC
  8
0
  6
CONTINUOUS
 62
     6
 10
1990.727031861
 20
105.707997384
 30
0.0
 40
12.47999904
 50
90.0
 51
354.260829523
  0
ARC
  8
0
  6
CONTINUOUS
 62
     6
 10
1990.727031861
 20
105.707997384
 30
0.0
 40
14.975998848
 50
90.0
 51
355.219808153
  0
LINE
  8
0
  6
CONTINUOUS
 62
     6
 10
2005.703030709
 20
120.683996232
 30
0.0
 11
2005.703030709
 21
118.187996424
 31
0.0
  0
LINE
  8
0
  6
CONTINUOUS
 62
     6
 10
1990.727031861
 20
118.187996424
 30
0.0
 11
2005.703030709
 21
118.187996424
 31
0.0
  0
LINE
  8
0
  6
CONTINUOUS
 62
     6
 10
2009.447030421
 20
120.683996232
 30
0.0
 11
2009.447030421
 21
118.187996424
 31
0.0
  0
LINE
  8
0
  6
CONTINUOUS
 62
     6
 10
2024.423029269
 20
118.187996424
 30
0.0
 11
2009.447030421
 21
118.187996424
 31
0.0
  0
TEXT
  8
0
  6
CONTINUOUS
 62
     4
 10
1320.7200834
 20
100.2999978
 30
1.03999992
 40
10.3999992
  1
ＢＹ
 50
0.0
 41
0.6
 51
0.0
  7
KANJI4
  0
TEXT
  8
0
  6
CONTINUOUS
 62
     4
 10
1435.1200746
 20
100.2999978
 30
1.03999992
 40
10.3999992
  1
ＤＥＳＣＲＩＰＴＩＯＮ
 50
0.0
 41
0.6
 51
0.0
  7
KANJI4
  0
TEXT
  8
0
  6
CONTINUOUS
 62
     4
 10
1320.7200834
 20
84.699999
 30
1.247999904
 40
12.47999904
  1
担当
 50
0.0
 41
0.6
 51
0.0
  7
KANJI5
  0
TEXT
  8
0
  6
CONTINUOUS
 62
     4
 10
1450.7200734
 20
84.699999
 30
1.247999904
 40
12.47999904
  1
記　　　　事
 50
0.0
 41
0.6
 51
0.0
  7
KANJI5
  0
LINE
  8
0
  6
CONTINUOUS
 62
     4
 10
1210.2200919
 20
110.699997
 30
0.0
 11
1193.3200932
 21
84.699999
 31
0.0
  0
TEXT
  8
0
  6
CONTINUOUS
 62
     4
 10
1253.1200886
 20
100.2999978
 30
1.03999992
 40
10.3999992
  1
ＤＡＴＥ
 50
0.0
 41
0.6
 51
0.0
  7
KANJI4
  0
TEXT
  8
0
  6
CONTINUOUS
 62
     4
 10
1260.920088
 20
84.699999
 30
1.247999904
 40
12.47999904
  1
日付
 50
0.0
 41
0.6
 51
0.0
  7
KANJI5
  0
LINE
  8
0
  6
CONTINUOUS
 62
     4
 10
1193.3200932
 20
84.699999
 30
0.0
 11
1227.1200906
 21
84.699999
 31
0.0
  0
LINE
  8
0
  6
CONTINUOUS
 62
     4
 10
1210.2200919
 20
110.699997
 30
0.0
 11
1227.1200906
 21
84.699999
 31
0.0
  0
LINE
  8
0
  6
CONTINUOUS
 62
     6
 10
1188.1200936
 20
76.8999996
 30
0.0
 11
1188.1200936
 21
118.4999964
 31
0.0
  0
LINE
  8
0
  6
CONTINUOUS
 62
     4
 10
1232.3200902
 20
76.8999996
 30
0.0
 11
1232.3200902
 21
118.4999964
 31
0.0
  0
LINE
  8
0
  6
CONTINUOUS
 62
     4
 10
1305.1200846
 20
76.8999996
 30
0.0
 11
1305.1200846
 21
118.4999964
 31
0.0
  0
LINE
  8
0
  6
CONTINUOUS
 62
     4
 10
1351.920081
 20
76.8999996
 30
0.0
 11
1351.920081
 21
118.4999964
 31
0.0
  0
TEXT
  8
0
  6
CONTINUOUS
 62
     4
 10
1609.3200612
 20
308.2999818
 30
1.03999992
 40
10.3999992
  1
ＣＯＤＥ
 50
0.0
 41
0.6
 51
0.0
  7
KANJI4
  0
LINE
  8
0
  6
CONTINUOUS
 62
     4
 10
1598.920062
 20
326.4999804
 30
0.0
 11
2399.7200004
 21
326.4999804
 31
0.0
  0
TEXT
  8
0
  6
CONTINUOUS
 62
     4
 10
1609.3200612
 20
292.699983
 30
1.247999904
 40
12.47999904
  1
分類
 50
0.0
 41
0.6
 51
0.0
  7
KANJI5
  0
TEXT
  8
0
  6
CONTINUOUS
 62
     4
 10
1617.42
 20
332.7
 30
6.0
 40
21.6
  1
ご注文主
 50
0.0
 41
1.111111111
 51
0.0
  7
KANJI8
  0
TEXT
  8
0
  6
CONTINUOUS
 62
     4
 10
1609.3200612
 20
183.4999914
 30
1.03999992
 40
10.3999992
  1
ＤＲＡＷＮ
 50
0.0
 41
0.6
 51
0.0
  7
KANJI4
  0
TEXT
  8
0
  6
CONTINUOUS
 62
     4
 10
1609.3200612
 20
225.0999882
 30
1.03999992
 40
10.3999992
  1
ＤＥＳＩＧＮ
 50
0.0
 41
0.6
 51
0.0
  7
KANJI4
  0
TEXT
  8
0
  6
CONTINUOUS
 62
     4
 10
1609.3200612
 20
266.699985
 30
1.03999992
 40
10.3999992
  1
ＣＨＥＣＫ
 50
0.0
 41
0.6
 51
0.0
  7
KANJI4
  0
LINE
  8
0
  6
CONTINUOUS
 62
     4
 10
1598.920062
 20
243.2999868
 30
0.0
 11
1788.7200474
 21
243.2999868
 31
0.0
  0
LINE
  8
0
  6
CONTINUOUS
 62
     4
 10
1598.920062
 20
201.69999
 30
0.0
 11
1788.7200474
 21
201.69999
 31
0.0
  0
LINE
  8
0
  6
CONTINUOUS
 62
     4
 10
1598.920062
 20
284.8999836
 30
0.0
 11
1788.7200474
 21
284.8999836
 31
0.0
  0
TEXT
  8
0
  6
CONTINUOUS
 62
     4
 10
1609.3200612
 20
209.4999894
 30
1.247999904
 40
12.47999904
  1
設計
 50
0.0
 41
0.6
 51
0.0
  7
KANJI5
  0
TEXT
  8
0
  6
CONTINUOUS
 62
     4
 10
1609.3200612
 20
251.0999862
 30
1.247999904
 40
12.47999904
  1
検図
 50
0.0
 41
0.6
 51
0.0
  7
KANJI5
  0
LINE
  8
0
  6
CONTINUOUS
 62
     4
 10
1804.06004622
 20
284.8999836
 30
0.0
 11
2399.7200004
 21
284.8999836
 31
0.0
  0
LINE
  8
0
  6
CONTINUOUS
 62
     4
 10
1788.7200474
 20
201.69999
 30
0.0
 11
2399.7200004
 21
201.69999
 31
0.0
  0
TEXT
  8
0
  6
CONTINUOUS
 62
     4
 10
1799.1200466
 20
183.4999914
 30
1.03999992
 40
10.3999992
  1
ＤＲＡＷＩＮＧ　ＮＯ．
 50
0.0
 41
0.8
 51
0.0
  7
KANJI9
  0
TEXT
  8
0
  6
CONTINUOUS
 62
     4
 10
1799.1200466
 20
225.0999882
 30
1.03999992
 40
10.3999992
  1
ＭＦＧ　ＮＯ．
 50
0.0
 41
0.8
 51
0.0
  7
KANJI9
  0
TEXT
  8
0
  6
CONTINUOUS
 62
     4
 10
1799.1200466
 20
266.699985
 30
1.03999992
 40
10.3999992
  1
ＴＹＰＥ
 50
0.0
 41
0.8
 51
0.0
  7
KANJI9
  0
LINE
  8
0
  6
CONTINUOUS
 62
     4
 10
1804.3200462
 20
243.2999868
 30
0.0
 11
2043.5200278
 21
243.2999868
 31
0.0
  0
TEXT
  8
0
  6
CONTINUOUS
 62
     4
 10
1799.1200466
 20
165.2999928
 30
1.247999904
 40
12.47999904
  1
図　面　番　号
 50
0.0
 41
0.8
 51
0.0
  7
KANJI10
  0
TEXT
  8
0
  6
CONTINUOUS
 62
     4
 10
1799.1200466
 20
206.8999896
 30
1.247999904
 40
12.47999904
  1
製番
 50
0.0
 41
0.8
 51
0.0
  7
KANJI10
  0
TEXT
  8
0
  6
CONTINUOUS
 62
     4
 10
1799.1200466
 20
248.4999864
 30
1.247999904
 40
12.47999904
  1
機種
 50
0.0
 41
0.8
 51
0.0
  7
KANJI10
  0
LINE
  8
0
  6
CONTINUOUS
 62
     4
 10
1598.920062
 20
160.0999932
 30
0.0
 11
1788.7200474
 21
160.0999932
 31
0.0
  0
TEXT
  8
0
  6
CONTINUOUS
 62
     4
 10
1609.3200612
 20
141.8999946
 30
1.03999992
 40
10.3999992
  1
ＤＡＴＥ
 50
0.0
 41
0.6
 51
0.0
  7
KANJI4
  0
TEXT
  8
0
  6
CONTINUOUS
 62
     4
 10
1609.3200612
 20
126.2999958
 30
1.247999904
 40
12.47999904
  1
日付
 50
0.0
 41
0.6
 51
0.0
  7
KANJI5
  0
TEXT
  8
0
  6
CONTINUOUS
 62
     4
 10
1609.3200612
 20
167.8999926
 30
1.247999904
 40
12.47999904
  1
作図
 50
0.0
 41
0.6
 51
0.0
  7
KANJI5
  0
LINE
  8
0
  6
CONTINUOUS
 62
     4
 10
1788.7200474
 20
141.8999946
 30
0.0
 11
2399.7200004
 21
141.8999946
 31
0.0
  0
LINE
  8
0
  6
LTYPE1
 62
     4
 10
2225.5200138
 20
149.699994
 30
0.0
 11
2225.5200138
 21
191.2999908
 31
0.0
  0
LINE
  8
0
  6
LTYPE1
 62
     4
 10
2189.1200166
 20
149.699994
 30
0.0
 11
2189.1200166
 21
191.2999908
 31
0.0
  0
LINE
  8
0
  6
LTYPE1
 62
     4
 10
2152.7200194
 20
149.699994
 30
0.0
 11
2152.7200194
 21
191.2999908
 31
0.0
  0
LINE
  8
0
  6
LTYPE1
 62
     4
 10
2116.3200222
 20
149.699994
 30
0.0
 11
2116.3200222
 21
191.2999908
 31
0.0
  0
LINE
  8
0
  6
LTYPE1
 62
     4
 10
2079.920025
 20
149.699994
 30
0.0
 11
2079.920025
 21
191.2999908
 31
0.0
  0
LINE
  8
0
  6
LTYPE1
 62
     4
 10
2043.5200278
 20
149.699994
 30
0.0
 11
2043.5200278
 21
191.2999908
 31
0.0
  0
LINE
  8
0
  6
LTYPE1
 62
     4
 10
2007.1200306
 20
149.699994
 30
0.0
 11
2007.1200306
 21
191.2999908
 31
0.0
  0
LINE
  8
0
  6
LTYPE1
 62
     4
 10
1970.7200334
 20
149.699994
 30
0.0
 11
1970.7200334
 21
191.2999908
 31
0.0
  0
LINE
  8
0
  6
LTYPE1
 62
     4
 10
1970.7200334
 20
191.2999908
 30
0.0
 11
2225.5200138
 21
191.2999908
 31
0.0
  0
LINE
  8
0
  6
LTYPE1
 62
     4
 10
1970.7200334
 20
149.699994
 30
0.0
 11
2225.5200138
 21
149.699994
 31
0.0
  0
LINE
  8
0
  6
CONTINUOUS
 62
     4
 10
2246.3200122
 20
171.7999923
 30
0.0
 11
2256.7200114
 21
171.7999923
 31
0.0
  0
LINE
  8
0
  6
CONTINUOUS
 62
     4
 10
2311.3200072
 20
156.1999935
 30
0.0
 11
2274.92001
 21
156.1999935
 31
0.0
  0
LINE
  8
0
  6
CONTINUOUS
 62
     4
 10
2274.92001
 20
156.1999935
 30
0.0
 11
2293.1200086
 21
187.3999911
 31
0.0
  0
LINE
  8
0
  6
CONTINUOUS
 62
     4
 10
2293.1200086
 20
187.3999911
 30
0.0
 11
2311.3200072
 21
156.1999935
 31
0.0
  0
TEXT
  8
0
  6
CONTINUOUS
 62
     4
 10
2059.1200266
 20
266.699985
 30
1.03999992
 40
10.3999992
  1
ＴＩＴＬＥ
 50
0.0
 41
0.8
 51
0.0
  7
KANJI9
  0
TEXT
  8
0
  6
CONTINUOUS
 62
     4
 10
2059.1200266
 20
248.4999864
 30
1.247999904
 40
12.47999904
  1
名称
 50
0.0
 41
0.8
 51
0.0
  7
KANJI10
  0
TEXT
  8
0
  6
CONTINUOUS
 62
     2
 10
2143.92
 20
209.7
 30
15.0
 40
30.0
  1
外形寸法図
 50
0.0
 41
1.0
 51
0.0
  7
KANJI11
  0
TEXT
  8
0
  6
CONTINUOUS
 62
     2
 10
2107.92
 20
245.7
 30
4.285714286
 40
30.0
  1
マイティシリンダ
 50
0.0
 41
1.0
 51
0.0
  7
KANJI12
  0
TEXT
  8
0
  6
CONTINUOUS
 62
     2
 10
1939.2200334
 20
155.699994
 30
1.8
 40
30.0
  1
Ａ
 50
0.0
 41
0.8
 51
0.0
  7
KANJI13
  0
CIRCLE
  8
0
  6
CONTINUOUS
 62
     2
 10
1900.2200334
 20
220.199994
 30
0.0
 40
15.0
  0
TEXT
  8
0
  6
CONTINUOUS
 62
     2
 10
1888.9700334
 20
208.949994
 30
1.8
 40
24.0
  1
Ｓ
 50
0.0
 41
1.0
 51
0.0
  7
KANJI14
  0
LINE
  8
0
  6
CONTINUOUS
 62
     6
 10
2005.703030709
 20
120.683996232
 30
0.0
 11
1990.727031861
 21
120.683996232
 31
0.0
  0
LINE
  8
0
  6
CONTINUOUS
 62
     6
 10
2009.447030421
 20
120.683996232
 30
0.0
 11
2024.423029269
 21
120.683996232
 31
0.0
  0
TEXT
  8
0
  6
CONTINUOUS
 62
     2
 10
1665.9200334
 20
170.699994
 30
6.0
 40
21.0
  1
岡田
 50
0.0
 41
0.857142857
 51
0.0
  7
KANJI15
  0
LINE
  8
0
  6
CONTINUOUS
 62
     4
 10
2399.7200004
 20
368.0999772
 30
0.0
 11
2399.7200004
 21
409.699974
 31
0.0
  0
LINE
  8
0
  6
CONTINUOUS
 62
     6
 10
1599.670062
 20
368.0999772
 30
0.0
 11
2400.4700004
 21
368.0999772
 31
0.0
  0
LINE
  8
0
  6
CONTINUOUS
 62
     6
 10
1598.920062
 20
409.699974
 30
0.0
 11
2399.7200004
 21
409.699974
 31
0.0
  0
TEXT
  8
0
  6
CONTINUOUS
 62
     4
 10
1617.42
 20
374.2999968
 30
6.0
 40
21.6
  1
ご用途
 50
0.0
 41
1.111111111
 51
0.0
  7
KANJI8
  0
TEXT
  8
0
  6
CONTINUOUS
 62
     2
 10
1708.92
 20
83.7
 30
1.8
 40
27.0
  1
１／６
 50
0.0
 41
0.666666667
 51
0.0
  7
KANJI16
  0
LINE
  8
0
  6
CONTINUOUS
 62
     1
 10
1523.37
 20
1674.9
 30
0.0
 11
1523.37
 21
1554.78
 31
0.0
  0
LINE
  8
0
  6
CONTINUOUS
 62
     2
 10
1454.07
 20
1674.9
 30
0.0
 11
1454.07
 21
1554.78
 31
0.0
  0
LINE
  8
0
  6
CONTINUOUS
 62
     2
 10
1384.77
 20
1674.9
 30
0.0
 11
1384.77
 21
1554.78
 31
0.0
  0
LINE
  8
0
  6
CONTINUOUS
 62
     1
 10
1292.37
 20
1674.9
 30
0.0
 11
1292.37
 21
1554.78
 31
0.0
  0
LINE
  8
0
  6
CONTINUOUS
 62
     1
 10
1292.37
 20
1674.9
 30
0.0
 11
1523.37
 21
1674.9
 31
0.0
  0
LINE
  8
0
  6
CONTINUOUS
 62
     1
 10
1292.37
 20
1637.94
 30
0.0
 11
1523.37
 21
1637.94
 31
0.0
  0
LINE
  8
0
  6
CONTINUOUS
 62
     2
 10
1292.37
 20
1610.22
 30
0.0
 11
1523.37
 21
1610.22
 31
0.0
  0
LINE
  8
0
  6
CONTINUOUS
 62
     2
 10
1292.37
 20
1582.5
 30
0.0
 11
1523.37
 21
1582.5
 31
0.0
  0
LINE
  8
0
  6
CONTINUOUS
 62
     1
 10
1292.37
 20
1554.78
 30
0.0
 11
1523.37
 21
1554.78
 31
0.0
  0
TEXT
  8
0
  6
CONTINUOUS
 62
     2
 10
1463.31
 20
1658.73
 30
1.386
 40
13.86
  1
起動電流
 50
0.0
 41
0.9
 51
0.0
  7
KANJI17
  0
TEXT
  8
0
  6
CONTINUOUS
 62
     2
 10
1463.31
 20
1642.56
 30
1.386
 40
13.86
  1
　　　Ａ
 50
0.0
 41
0.9
 51
0.0
  7
KANJI17
  0
TEXT
  8
0
  6
CONTINUOUS
 62
     2
 10
1394.01
 20
1658.73
 30
1.386
 40
13.86
  1
定格電流
 50
0.0
 41
0.9
 51
0.0
  7
KANJI17
  0
TEXT
  8
0
  6
CONTINUOUS
 62
     2
 10
1394.01
 20
1642.56
 30
1.386
 40
13.86
  1
　　　Ａ
 50
0.0
 41
0.9
 51
0.0
  7
KANJI17
  0
TEXT
  8
0
  6
CONTINUOUS
 62
     2
 10
1300.224
 20
1589.43
 30
1.386
 40
13.86
  1
２００／６０
 50
0.0
 41
0.9
 51
0.0
  7
KANJI17
  0
TEXT
  8
0
  6
CONTINUOUS
 62
     2
 10
1300.224
 20
1658.73
 30
1.386
 40
13.86
  1
電圧／周波数
 50
0.0
 41
0.9
 51
0.0
  7
KANJI17
  0
TEXT
  8
0
  6
CONTINUOUS
 62
     2
 10
1300.224
 20
1642.56
 30
1.386
 40
13.86
  1
　Ｖ／Ｈｚ
 50
0.0
 41
0.9
 51
0.0
  7
KANJI17
  0
TEXT
  8
0
  6
CONTINUOUS
 62
     2
 10
1300.224
 20
1617.15
 30
1.386
 40
13.86
  1
２００／５０
 50
0.0
 41
0.9
 51
0.0
  7
KANJI17
  0
TEXT
  8
0
  6
CONTINUOUS
 62
     2
 10
1300.224
 20
1561.71
 30
1.386
 40
13.86
  1
２２０／６０
 50
0.0
 41
0.9
 51
0.0
  7
KANJI17
  0
LINE
  8
0
  6
CONTINUOUS
 62
     1
 10
1246.17
 20
1674.9
 30
0.0
 11
1246.17
 21
1554.78
 31
0.0
  0
LINE
  8
0
  6
CONTINUOUS
 62
     2
 10
1176.87
 20
1674.9
 30
0.0
 11
1176.87
 21
1554.78
 31
0.0
  0
LINE
  8
0
  6
CONTINUOUS
 62
     2
 10
1107.57
 20
1674.9
 30
0.0
 11
1107.57
 21
1554.78
 31
0.0
  0
LINE
  8
0
  6
CONTINUOUS
 62
     1
 10
1015.17
 20
1674.9
 30
0.0
 11
1015.17
 21
1554.78
 31
0.0
  0
LINE
  8
0
  6
CONTINUOUS
 62
     1
 10
1015.17
 20
1674.9
 30
0.0
 11
1246.17
 21
1674.9
 31
0.0
  0
LINE
  8
0
  6
CONTINUOUS
 62
     1
 10
1015.17
 20
1637.94
 30
0.0
 11
1246.17
 21
1637.94
 31
0.0
  0
LINE
  8
0
  6
CONTINUOUS
 62
     2
 10
1015.17
 20
1610.22
 30
0.0
 11
1246.17
 21
1610.22
 31
0.0
  0
LINE
  8
0
  6
CONTINUOUS
 62
     2
 10
1015.17
 20
1582.5
 30
0.0
 11
1246.17
 21
1582.5
 31
0.0
  0
LINE
  8
0
  6
CONTINUOUS
 62
     1
 10
1015.17
 20
1554.78
 30
0.0
 11
1246.17
 21
1554.78
 31
0.0
  0
TEXT
  8
0
  6
CONTINUOUS
 62
     2
 10
1186.11
 20
1658.73
 30
1.386
 40
13.86
  1
起動電流
 50
0.0
 41
0.9
 51
0.0
  7
KANJI17
  0
TEXT
  8
0
  6
CONTINUOUS
 62
     2
 10
1186.11
 20
1642.56
 30
1.386
 40
13.86
  1
　　　Ａ
 50
0.0
 41
0.9
 51
0.0
  7
KANJI17
  0
TEXT
  8
0
  6
CONTINUOUS
 62
     2
 10
1116.81
 20
1658.73
 30
1.386
 40
13.86
  1
定格電流
 50
0.0
 41
0.9
 51
0.0
  7
KANJI17
  0
TEXT
  8
0
  6
CONTINUOUS
 62
     2
 10
1116.81
 20
1642.56
 30
1.386
 40
13.86
  1
　　　Ａ
 50
0.0
 41
0.9
 51
0.0
  7
KANJI17
  0
TEXT
  8
0
  6
CONTINUOUS
 62
     2
 10
1023.024
 20
1658.73
 30
1.386
 40
13.86
  1
電圧／周波数
 50
0.0
 41
0.9
 51
0.0
  7
KANJI17
  0
TEXT
  8
0
  6
CONTINUOUS
 62
     2
 10
1023.024
 20
1642.56
 30
1.386
 40
13.86
  1
　Ｖ／Ｈｚ
 50
0.0
 41
0.9
 51
0.0
  7
KANJI17
  0
TEXT
  8
0
  6
CONTINUOUS
 62
     2
 10
1023.024
 20
1617.15
 30
1.386
 40
13.86
  1
４００／５０
 50
0.0
 41
0.9
 51
0.0
  7
KANJI17
  0
TEXT
  8
0
  6
CONTINUOUS
 62
     2
 10
1023.024
 20
1589.43
 30
1.386
 40
13.86
  1
４００／６０
 50
0.0
 41
0.9
 51
0.0
  7
KANJI17
  0
TEXT
  8
0
  6
CONTINUOUS
 62
     2
 10
1023.024
 20
1561.71
 30
1.386
 40
13.86
  1
４４０／６０
 50
0.0
 41
0.9
 51
0.0
  7
KANJI17
  0
TEXT
  8
0
  6
CONTINUOUS
 62
     2
 10
1119.267493476
 20
1615.15
 30
1.386
 40
13.86
  1
　３．２
 50
0.0
 41
0.9
 51
0.0
  7
KANJI17
  0
TEXT
  8
0
  6
CONTINUOUS
 62
     2
 10
1119.267493476
 20
1587.43
 30
1.386
 40
13.86
  1
　２．８
 50
0.0
 41
0.9
 51
0.0
  7
KANJI17
  0
TEXT
  8
0
  6
CONTINUOUS
 62
     2
 10
1119.267493476
 20
1559.71
 30
1.386
 40
13.86
  1
　２．７
 50
0.0
 41
0.9
 51
0.0
  7
KANJI17
  0
TEXT
  8
0
  6
CONTINUOUS
 62
     2
 10
1396.467493476
 20
1559.71
 30
1.386
 40
13.86
  1
　５．３
 50
0.0
 41
0.9
 51
0.0
  7
KANJI17
  0
TEXT
  8
0
  6
CONTINUOUS
 62
     2
 10
1396.467493476
 20
1587.43
 30
1.386
 40
13.86
  1
　５．２
 50
0.0
 41
0.9
 51
0.0
  7
KANJI17
  0
TEXT
  8
0
  6
CONTINUOUS
 62
     2
 10
1396.467493476
 20
1615.15
 30
1.386
 40
13.86
  1
　６．１
 50
0.0
 41
0.9
 51
0.0
  7
KANJI17
  0
TEXT
  8
0
  6
CONTINUOUS
 62
     2
 10
1465.767493476
 20
1615.15
 30
1.386
 40
13.86
  1
２５．１
 50
0.0
 41
0.9
 51
0.0
  7
KANJI17
  0
TEXT
  8
0
  6
CONTINUOUS
 62
     2
 10
1465.767493476
 20
1587.43
 30
1.386
 40
13.86
  1
２２．５
 50
0.0
 41
0.9
 51
0.0
  7
KANJI17
  0
TEXT
  8
0
  6
CONTINUOUS
 62
     2
 10
1465.767493476
 20
1559.71
 30
1.386
 40
13.86
  1
２４．８
 50
0.0
 41
0.9
 51
0.0
  7
KANJI17
  0
TEXT
  8
0
  6
CONTINUOUS
 62
     2
 10
1188.567493476
 20
1615.15
 30
1.386
 40
13.86
  1
１２．５
 50
0.0
 41
0.9
 51
0.0
  7
KANJI17
  0
TEXT
  8
0
  6
CONTINUOUS
 62
     2
 10
1188.567493476
 20
1587.43
 30
1.386
 40
13.86
  1
１１．３
 50
0.0
 41
0.9
 51
0.0
  7
KANJI17
  0
TEXT
  8
0
  6
CONTINUOUS
 62
     2
 10
1188.567493476
 20
1559.71
 30
1.386
 40
13.86
  1
１２．４
 50
0.0
 41
0.9
 51
0.0
  7
KANJI17
  0
LINE
  8
0
  6
CONTINUOUS
 62
     1
 10
361.5
 20
471.733974596
 30
0.0
 11
361.5
 21
811.733974596
 31
0.0
  0
LINE
  8
0
  6
CONTINUOUS
 62
     1
 10
361.5
 20
621.633974596
 30
0.0
 11
361.5
 21
821.633974596
 31
0.0
  0
LINE
  8
0
  6
CONTINUOUS
 62
     1
 10
361.5
 20
462.733974596
 30
0.0
 11
361.5
 21
837.733974596
 31
0.0
  0
LINE
  8
0
  6
CONTINUOUS
 62
     1
 10
361.5
 20
837.733974596
 30
0.0
 11
321.5
 21
837.733974596
 31
0.0
  0
ARC
  8
0
  6
CONTINUOUS
 62
     1
 10
343.5
 20
704.733974596
 30
0.0
 40
4.0
 50
270.0
 51
0.0
  0
LINE
  8
0
  6
CONTINUOUS
 62
     1
 10
321.5
 20
837.733974596
 30
0.0
 11
321.5
 21
800.733974596
 31
0.0
  0
ARC
  8
0
  6
CONTINUOUS
 62
     1
 10
318.5
 20
800.733974596
 30
0.0
 40
3.0
 50
270.0
 51
0.0
  0
ARC
  8
0
  6
CONTINUOUS
 62
     1
 10
344.5
 20
800.733974596
 30
0.0
 40
3.0
 50
270.0
 51
0.0
  0
LINE
  8
0
  6
CONTINUOUS
 62
     1
 10
347.5
 20
704.733974596
 30
0.0
 11
347.5
 21
837.733974596
 31
0.0
  0
LINE
  8
0
  6
CONTINUOUS
 62
     1
 10
266.5
 20
462.733974596
 30
0.0
 11
266.5
 21
797.733974596
 31
0.0
  0
LINE
  8
0
  6
CONTINUOUS
 62
     1
 10
266.5
 20
797.733974596
 30
0.0
 11
344.5
 21
797.733974596
 31
0.0
  0
CIRCLE
  8
0
  6
CONTINUOUS
 62
     1
 10
341.5
 20
862.733974596
 30
0.0
 40
15.0
  0
LINE
  8
0
  6
CONTINUOUS
 62
     1
 10
352.901268963
 20
845.735505015
 30
0.0
 11
341.5
 21
847.733974596
 31
0.0
  0
LINE
  8
0
  6
CONTINUOUS
 62
     1
 10
341.5
 20
845.733974596
 30
0.0
 11
352.901455767
 21
845.733974596
 31
0.0
  0
ARC
  8
0
  6
CONTINUOUS
 62
     1
 10
341.5
 20
862.733974596
 30
0.0
 40
25.0
 50
300.714883545
 51
0.0
  0
LINE
  8
0
  6
CONTINUOUS
 62
     1
 10
353.617095146
 20
839.870984085
 30
0.0
 11
352.901455767
 21
845.733974596
 31
0.0
  0
ARC
  8
0
  6
CONTINUOUS
 62
     1
 10
355.005622715
 20
840.050100256
 30
0.0
 40
1.4
 50
121.733468281
 51
187.57738995
  0
LINE
  8
0
  6
CONTINUOUS
 62
     1
 10
330.098731037
 20
845.735505015
 30
0.0
 11
341.5
 21
847.733974596
 31
0.0
  0
LINE
  8
0
  6
CONTINUOUS
 62
     1
 10
341.5
 20
845.733974596
 30
0.0
 11
330.098544233
 21
845.733974596
 31
0.0
  0
LINE
  8
0
  6
CONTINUOUS
 62
     1
 10
329.382904854
 20
839.870984085
 30
0.0
 11
330.098544233
 21
845.733974596
 31
0.0
  0
ARC
  8
0
  6
CONTINUOUS
 62
     1
 10
327.994377285
 20
840.050100256
 30
0.0
 40
1.4
 50
352.42261005
 51
58.266531719
  0
ARC
  8
0
  6
CONTINUOUS
 62
     1
 10
341.5
 20
862.733974596
 30
0.0
 40
25.0
 50
0.0
 51
239.342761175
  0
LINE
  8
0
  6
CONTINUOUS
 62
     1
 10
353.87793953
 20
837.733974596
 30
0.0
 11
353.617095146
 21
839.870984085
 31
0.0
  0
LINE
  8
0
  6
CONTINUOUS
 62
     1
 10
329.12206047
 20
837.733974596
 30
0.0
 11
329.382904854
 21
839.870984085
 31
0.0
  0
LINE
  8
0
  6
CONTINUOUS
 62
     1
 10
361.5
 20
462.733974596
 30
0.0
 11
249.5
 21
462.733974596
 31
0.0
  0
LINE
  8
0
  6
CONTINUOUS
 62
     1
 10
249.5
 20
462.733974596
 30
0.0
 11
249.5
 21
710.733974596
 31
0.0
  0
LINE
  8
0
  6
CONTINUOUS
 62
     1
 10
343.5
 20
700.733974596
 30
0.0
 11
266.5
 21
700.733974596
 31
0.0
  0
LINE
  8
0
  6
CONTINUOUS
 62
     1
 10
266.5
 20
710.733974596
 30
0.0
 11
249.5
 21
710.733974596
 31
0.0
  0
LINE
  8
0
  6
CONTINUOUS
 62
     1
 10
249.5
 20
631.733974596
 30
0.0
 11
249.5
 21
620.784434596
 31
0.0
  0
LINE
  8
0
  6
CONTINUOUS
 62
     1
 10
249.5
 20
631.733974596
 30
0.0
 11
249.5
 21
642.683514596
 31
0.0
  0
LINE
  8
0
  6
CONTINUOUS
 62
     1
 10
241.4789
 20
623.465954596
 30
0.0
 11
243.027076294
 21
620.784434596
 31
0.0
  0
LINE
  8
0
  6
CONTINUOUS
 62
     1
 10
241.4789
 20
631.733974596
 30
0.0
 11
241.4789
 21
623.465954596
 31
0.0
  0
LINE
  8
0
  6
CONTINUOUS
 62
     1
 10
241.4789
 20
640.001994596
 30
0.0
 11
243.027076294
 21
642.683514596
 31
0.0
  0
LINE
  8
0
  6
CONTINUOUS
 62
     1
 10
241.4789
 20
631.733974596
 30
0.0
 11
241.4789
 21
640.001994596
 31
0.0
  0
ARC
  8
0
  6
CONTINUOUS
 62
     1
 10
251.933121693
 20
631.733974596
 30
0.0
 40
10.454221693
 50
148.419912243
 51
211.580087757
  0
ARC
  8
0
  6
CONTINUOUS
 62
     1
 10
244.672013606
 20
623.521819596
 30
0.0
 40
3.193602261
 50
121.002313915
 51
182.989498403
  0
LINE
  8
0
  6
CONTINUOUS
 62
     1
 10
241.4789
 20
640.001994596
 30
0.0
 11
243.027076294
 21
642.683514596
 31
0.0
  0
ARC
  8
0
  6
CONTINUOUS
 62
     1
 10
244.672013606
 20
639.946129596
 30
0.0
 40
3.193602261
 50
177.010501597
 51
238.997686085
  0
LINE
  8
0
  6
CONTINUOUS
 62
     1
 10
249.5
 20
620.784434596
 30
0.0
 11
243.027076294
 21
620.784434596
 31
0.0
  0
LINE
  8
0
  6
CONTINUOUS
 62
     1
 10
249.5
 20
626.259204596
 30
0.0
 11
243.027076294
 21
626.259204596
 31
0.0
  0
LINE
  8
0
  6
CONTINUOUS
 62
     1
 10
249.5
 20
637.208744596
 30
0.0
 11
243.027076294
 21
637.208744596
 31
0.0
  0
LINE
  8
0
  6
CONTINUOUS
 62
     1
 10
249.5
 20
642.683514596
 30
0.0
 11
243.027076294
 21
642.683514596
 31
0.0
  0
LINE
  8
0
  6
CONTINUOUS
 62
     1
 10
249.5
 20
481.733974596
 30
0.0
 11
249.5
 21
470.784434596
 31
0.0
  0
LINE
  8
0
  6
CONTINUOUS
 62
     1
 10
249.5
 20
481.733974596
 30
0.0
 11
249.5
 21
492.683514596
 31
0.0
  0
LINE
  8
0
  6
CONTINUOUS
 62
     1
 10
241.4789
 20
473.465954596
 30
0.0
 11
243.027076294
 21
470.784434596
 31
0.0
  0
LINE
  8
0
  6
CONTINUOUS
 62
     1
 10
241.4789
 20
481.733974596
 30
0.0
 11
241.4789
 21
473.465954596
 31
0.0
  0
LINE
  8
0
  6
CONTINUOUS
 62
     1
 10
241.4789
 20
490.001994596
 30
0.0
 11
243.027076294
 21
492.683514596
 31
0.0
  0
LINE
  8
0
  6
CONTINUOUS
 62
     1
 10
241.4789
 20
481.733974596
 30
0.0
 11
241.4789
 21
490.001994596
 31
0.0
  0
ARC
  8
0
  6
CONTINUOUS
 62
     1
 10
251.933121693
 20
481.733974596
 30
0.0
 40
10.454221693
 50
148.419912243
 51
211.580087757
  0
ARC
  8
0
  6
CONTINUOUS
 62
     1
 10
244.672013606
 20
473.521819596
 30
0.0
 40
3.193602261
 50
121.002313915
 51
182.989498403
  0
LINE
  8
0
  6
CONTINUOUS
 62
     1
 10
241.4789
 20
490.001994596
 30
0.0
 11
243.027076294
 21
492.683514596
 31
0.0
  0
ARC
  8
0
  6
CONTINUOUS
 62
     1
 10
244.672013606
 20
489.946129596
 30
0.0
 40
3.193602261
 50
177.010501597
 51
238.997686085
  0
LINE
  8
0
  6
CONTINUOUS
 62
     1
 10
249.5
 20
470.784434596
 30
0.0
 11
243.027076294
 21
470.784434596
 31
0.0
  0
LINE
  8
0
  6
CONTINUOUS
 62
     1
 10
249.5
 20
476.259204596
 30
0.0
 11
243.027076294
 21
476.259204596
 31
0.0
  0
LINE
  8
0
  6
CONTINUOUS
 62
     1
 10
249.5
 20
487.208744596
 30
0.0
 11
243.027076294
 21
487.208744596
 31
0.0
  0
LINE
  8
0
  6
CONTINUOUS
 62
     1
 10
249.5
 20
492.683514596
 30
0.0
 11
243.027076294
 21
492.683514596
 31
0.0
  0
LINE
  8
0
  6
CONTINUOUS
 62
     1
 10
249.5
 20
699.733974596
 30
0.0
 11
249.5
 21
692.239914596
 31
0.0
  0
LINE
  8
0
  6
CONTINUOUS
 62
     1
 10
249.5
 20
699.733974596
 30
0.0
 11
249.5
 21
707.228034596
 31
0.0
  0
LINE
  8
0
  6
CONTINUOUS
 62
     1
 10
244.0001
 20
694.075194596
 30
0.0
 11
245.059699402
 21
692.239914596
 31
0.0
  0
LINE
  8
0
  6
CONTINUOUS
 62
     1
 10
244.0001
 20
699.733974596
 30
0.0
 11
244.0001
 21
694.075194596
 31
0.0
  0
LINE
  8
0
  6
CONTINUOUS
 62
     1
 10
244.0001
 20
705.392754596
 30
0.0
 11
245.059699402
 21
707.228034596
 31
0.0
  0
LINE
  8
0
  6
CONTINUOUS
 62
     1
 10
244.0001
 20
699.733974596
 30
0.0
 11
244.0001
 21
705.392754596
 31
0.0
  0
ARC
  8
0
  6
CONTINUOUS
 62
     1
 10
251.155155337
 20
699.733974596
 30
0.0
 40
7.155055337
 50
148.419912243
 51
211.580087757
  0
ARC
  8
0
  6
CONTINUOUS
 62
     1
 10
246.185523767
 20
694.113429596
 30
0.0
 40
2.185758211
 50
121.002313915
 51
182.989498403
  0
LINE
  8
0
  6
CONTINUOUS
 62
     1
 10
244.0001
 20
705.392754596
 30
0.0
 11
245.059699402
 21
707.228034596
 31
0.0
  0
ARC
  8
0
  6
CONTINUOUS
 62
     1
 10
246.185523767
 20
705.354519596
 30
0.0
 40
2.185758211
 50
177.010501597
 51
238.997686085
  0
LINE
  8
0
  6
CONTINUOUS
 62
     1
 10
249.5
 20
692.239914596
 30
0.0
 11
245.059699402
 21
692.239914596
 31
0.0
  0
LINE
  8
0
  6
CONTINUOUS
 62
     1
 10
249.5
 20
695.986944596
 30
0.0
 11
245.059699402
 21
695.986944596
 31
0.0
  0
LINE
  8
0
  6
CONTINUOUS
 62
     1
 10
249.5
 20
703.481004596
 30
0.0
 11
245.059699402
 21
703.481004596
 31
0.0
  0
LINE
  8
0
  6
CONTINUOUS
 62
     1
 10
249.5
 20
707.228034596
 30
0.0
 11
245.059699402
 21
707.228034596
 31
0.0
  0
LINE
  8
0
  6
CONTINUOUS
 62
     1
 10
361.5
 20
632.633974596
 30
0.0
 11
361.5
 21
832.633974596
 31
0.0
  0
LINE
  8
0
  6
CONTINUOUS
 62
     1
 10
361.5
 20
631.933974596
 30
0.0
 11
361.5
 21
831.933974596
 31
0.0
  0
LINE
  8
0
  6
CONTINUOUS
 62
     2
 10
523.0
 20
440.733974596
 30
0.0
 11
525.649054108
 21
428.517898617
 31
0.0
  0
LINE
  8
0
  6
CONTINUOUS
 62
     2
 10
523.0
 20
440.733974596
 30
0.0
 11
531.402186143
 21
431.479069517
 31
0.0
  0
LINE
  8
0
  6
CONTINUOUS
 62
     2
 10
523.0
 20
440.733974596
 30
0.0
 11
546.161764706
 21
395.733974596
 31
0.0
  0
LINE
  8
0
  6
CONTINUOUS
 62
     2
 10
546.161764706
 20
395.733974596
 30
0.0
 11
626.5
 21
395.733974596
 31
0.0
  0
LINE
  8
0
  6
LTYPE2
 62
     2
 10
308.575
 20
862.733974596
 30
0.0
 11
373.575
 21
862.733974596
 31
0.0
  0
LINE
  8
0
  6
LTYPE2
 62
     2
 10
341.5
 20
815.733974596
 30
0.0
 11
341.5
 21
895.433974596
 31
0.0
  0
LINE
  8
0
  6
LTYPE2
 62
     2
 10
235.9
 20
481.733974596
 30
0.0
 11
284.6
 21
481.733974596
 31
0.0
  0
LINE
  8
0
  6
LTYPE2
 62
     2
 10
236.5
 20
631.733974596
 30
0.0
 11
284.6
 21
631.733974596
 31
0.0
  0
LINE
  8
0
  6
LTYPE2
 62
     2
 10
238.4
 20
699.733974596
 30
0.0
 11
263.0
 21
699.733974596
 31
0.0
  0
LINE
  8
0
  6
CONTINUOUS
 62
     2
 10
242.0
 20
749.133974596
 30
0.0
 11
240.519645058
 21
761.546007034
 31
0.0
  0
LINE
  8
0
  6
CONTINUOUS
 62
     2
 10
242.0
 20
749.133974596
 30
0.0
 11
234.511958794
 21
759.142932529
 31
0.0
  0
LINE
  8
0
  6
CONTINUOUS
 62
     2
 10
242.0
 20
749.133974596
 30
0.0
 11
192.0
 21
874.133974596
 31
0.0
  0
LINE
  8
0
  6
CONTINUOUS
 62
     2
 10
192.0
 20
874.133974596
 30
0.0
 11
111.0
 21
874.133974596
 31
0.0
  0
TEXT
  8
0
  6
CONTINUOUS
 62
     2
 10
111.0
 20
879.133974596
 30
0.0
 40
15.0
  1
手動軸カバー
 50
0.0
 41
0.9
 51
0.0
  7
KANJI18
  0
LINE
  8
0
  6
CONTINUOUS
 62
     2
 10
249.5
 20
462.733974596
 30
0.0
 11
249.5
 21
337.733974596
 31
0.0
  0
LINE
  8
0
  6
LTYPE2
 62
     2
 10
220.05
 20
732.733974596
 30
0.0
 11
670.8
 21
732.733974596
 31
0.0
  0
LINE
  8
0
  6
CONTINUOUS
 62
     2
 10
1248.8
 20
472.733974596
 30
0.0
 11
1248.8
 21
335.733974596
 31
0.0
  0
LINE
  8
0
  6
CONTINUOUS
 62
     2
 10
1248.8
 20
340.733974596
 30
0.0
 11
1260.874072829
 21
337.498736532
 31
0.0
  0
LINE
  8
0
  6
CONTINUOUS
 62
     2
 10
1248.8
 20
340.733974596
 30
0.0
 11
1260.874072829
 21
343.96921266
 31
0.0
  0
LINE
  8
0
  6
CONTINUOUS
 62
     2
 10
1433.8
 20
340.733974596
 30
0.0
 11
1421.725927171
 21
343.96921266
 31
0.0
  0
LINE
  8
0
  6
CONTINUOUS
 62
     2
 10
1433.8
 20
340.733974596
 30
0.0
 11
1421.725927171
 21
337.498736532
 31
0.0
  0
LINE
  8
0
  6
CONTINUOUS
 62
     2
 10
1433.8
 20
472.733974596
 30
0.0
 11
1433.8
 21
335.733974596
 31
0.0
  0
LINE
  8
0
  6
CONTINUOUS
 62
     2
 10
1246.3
 20
533.733974596
 30
0.0
 11
1246.3
 21
285.733974596
 31
0.0
  0
LINE
  8
0
  6
CONTINUOUS
 62
     2
 10
1246.3
 20
290.733974596
 30
0.0
 11
1258.374072829
 21
287.498736532
 31
0.0
  0
LINE
  8
0
  6
CONTINUOUS
 62
     2
 10
1246.3
 20
290.733974596
 30
0.0
 11
1258.374072829
 21
293.96921266
 31
0.0
  0
LINE
  8
0
  6
CONTINUOUS
 62
     2
 10
1436.3
 20
290.733974596
 30
0.0
 11
1424.225927171
 21
293.96921266
 31
0.0
  0
LINE
  8
0
  6
CONTINUOUS
 62
     2
 10
1436.3
 20
290.733974596
 30
0.0
 11
1424.225927171
 21
287.498736532
 31
0.0
  0
LINE
  8
0
  6
CONTINUOUS
 62
     2
 10
1436.3
 20
533.733974596
 30
0.0
 11
1436.3
 21
285.733974596
 31
0.0
  0
LINE
  8
0
  6
CONTINUOUS
 62
     2
 10
1248.8
 20
340.733974596
 30
0.0
 11
1433.8
 21
340.733974596
 31
0.0
  0
LINE
  8
0
  6
CONTINUOUS
 62
     2
 10
1246.3
 20
290.733974596
 30
0.0
 11
1436.3
 21
290.733974596
 31
0.0
  0
LINE
  8
0
  6
CONTINUOUS
 62
     2
 10
1492.5
 20
569.233974596
 30
0.0
 11
1439.7
 21
569.233974596
 31
0.0
  0
LINE
  8
0
  6
CONTINUOUS
 62
     2
 10
1494.5
 20
544.233974596
 30
0.0
 11
1440.7
 21
544.233974596
 31
0.0
  0
LINE
  8
0
  6
CONTINUOUS
 62
     2
 10
1394.8
 20
437.733974596
 30
0.0
 11
1524.3
 21
437.733974596
 31
0.0
  0
ARC
  8
0
  6
CONTINUOUS
 62
     1
 10
1391.3
 20
439.733974596
 30
0.0
 40
1.0
 50
270.0
 51
0.0
  0
LINE
  8
0
  6
CONTINUOUS
 62
     1
 10
1433.8
 20
579.927210886
 30
0.0
 11
1433.8
 21
697.771474596
 31
0.0
  0
LINE
  8
0
  6
CONTINUOUS
 62
     1
 10
1248.8
 20
579.927210886
 30
0.0
 11
1248.8
 21
697.771474596
 31
0.0
  0
LINE
  8
0
  6
LTYPE2
 62
     2
 10
446.5
 20
513.733974596
 30
0.0
 11
446.5
 21
603.733974596
 31
0.0
  0
LINE
  8
0
  6
CONTINUOUS
 62
     2
 10
446.5
 20
513.733974596
 30
0.0
 11
446.5
 21
337.733974596
 31
0.0
  0
LINE
  8
0
  6
LTYPE2
 62
     2
 10
446.5
 20
513.733974596
 30
0.0
 11
446.5
 21
603.733974596
 31
0.0
  0
CIRCLE
  8
0
  6
CONTINUOUS
 62
     1
 10
446.5
 20
556.733974596
 30
0.0
 40
12.5
  0
CIRCLE
  8
0
  6
CONTINUOUS
 62
     1
 10
446.5
 20
556.733974596
 30
0.0
 40
23.0
  0
CIRCLE
  8
0
  6
CONTINUOUS
 62
     1
 10
446.5
 20
556.733974596
 30
0.0
 40
27.5
  0
LINE
  8
0
  6
CONTINUOUS
 62
     1
 10
484.5
 20
490.733974596
 30
0.0
 11
558.5
 21
490.733974596
 31
0.0
  0
LINE
  8
0
  6
CONTINUOUS
 62
     1
 10
566.5
 20
496.733974596
 30
0.0
 11
566.5
 21
616.733974596
 31
0.0
  0
LINE
  8
0
  6
CONTINUOUS
 62
     1
 10
376.5
 20
489.733974596
 30
0.0
 11
376.5
 21
623.733974596
 31
0.0
  0
LINE
  8
0
  6
CONTINUOUS
 62
     1
 10
361.5
 20
489.733974596
 30
0.0
 11
376.5
 21
489.733974596
 31
0.0
  0
LINE
  8
0
  6
CONTINUOUS
 62
     1
 10
361.5
 20
623.733974596
 30
0.0
 11
376.5
 21
623.733974596
 31
0.0
  0
LINE
  8
0
  6
CONTINUOUS
 62
     1
 10
376.5
 20
616.733974596
 30
0.0
 11
566.5
 21
616.733974596
 31
0.0
  0
LINE
  8
0
  6
CONTINUOUS
 62
     1
 10
558.5
 20
496.733974596
 30
0.0
 11
566.5
 21
496.733974596
 31
0.0
  0
LINE
  8
0
  6
CONTINUOUS
 62
     1
 10
376.5
 20
496.733974596
 30
0.0
 11
484.5
 21
496.733974596
 31
0.0
  0
LINE
  8
0
  6
LTYPE2
 62
     2
 10
521.5
 20
475.233974596
 30
0.0
 11
521.5
 21
501.733974596
 31
0.0
  0
LINE
  8
0
  6
CONTINUOUS
 62
     1
 10
567.5
 20
489.233974596
 30
0.0
 11
567.5
 21
488.233974596
 31
0.0
  0
ARC
  8
0
  6
CONTINUOUS
 62
     1
 10
480.5
 20
486.233974596
 30
0.0
 40
3.0
 50
90.0
 51
180.0
  0
LINE
  8
0
  6
CONTINUOUS
 62
     1
 10
606.5
 20
446.233974596
 30
0.0
 11
477.5
 21
446.233974596
 31
0.0
  0
LINE
  8
0
  6
CONTINUOUS
 62
     1
 10
567.5
 20
488.233974596
 30
0.0
 11
603.5
 21
488.233974596
 31
0.0
  0
ARC
  8
0
  6
CONTINUOUS
 62
     1
 10
603.5
 20
485.233974596
 30
0.0
 40
3.0
 50
0.0
 51
90.0
  0
LINE
  8
0
  6
CONTINUOUS
 62
     1
 10
606.5
 20
444.733974596
 30
0.0
 11
477.5
 21
444.733974596
 31
0.0
  0
LINE
  8
0
  6
CONTINUOUS
 62
     1
 10
606.5
 20
439.733974596
 30
0.0
 11
606.5
 21
485.233974596
 31
0.0
  0
ARC
  8
0
  6
CONTINUOUS
 62
     1
 10
605.5
 20
439.733974596
 30
0.0
 40
1.0
 50
270.0
 51
0.0
  0
LINE
  8
0
  6
CONTINUOUS
 62
     1
 10
603.5
 20
438.733974596
 30
0.0
 11
603.5
 21
438.733974596
 31
0.0
  0
ARC
  8
0
  6
CONTINUOUS
 62
     1
 10
602.5
 20
438.733974596
 30
0.0
 40
1.0
 50
270.0
 51
0.0
  0
LINE
  8
0
  6
CONTINUOUS
 62
     1
 10
477.5
 20
439.733974596
 30
0.0
 11
477.5
 21
486.233974596
 31
0.0
  0
LINE
  8
0
  6
CONTINUOUS
 62
     1
 10
605.5
 20
438.733974596
 30
0.0
 11
478.5
 21
438.733974596
 31
0.0
  0
ARC
  8
0
  6
CONTINUOUS
 62
     1
 10
478.5
 20
439.733974596
 30
0.0
 40
1.0
 50
180.0
 51
270.0
  0
ARC
  8
0
  6
CONTINUOUS
 62
     1
 10
481.5
 20
438.733974596
 30
0.0
 40
1.0
 50
180.0
 51
270.0
  0
LINE
  8
0
  6
CONTINUOUS
 62
     1
 10
602.5
 20
437.733974596
 30
0.0
 11
481.6
 21
437.733974596
 31
0.0
  0
LINE
  8
0
  6
CONTINUOUS
 62
     1
 10
480.5
 20
489.233974596
 30
0.0
 11
567.5
 21
489.233974596
 31
0.0
  0
LINE
  8
0
  6
CONTINUOUS
 62
     1
 10
484.5
 20
489.233974596
 30
0.0
 11
484.5
 21
531.233974596
 31
0.0
  0
LINE
  8
0
  6
CONTINUOUS
 62
     1
 10
558.5
 20
489.233974596
 30
0.0
 11
558.5
 21
531.233974596
 31
0.0
  0
LINE
  8
0
  6
CONTINUOUS
 62
     1
 10
566.5
 20
614.733974596
 30
0.0
 11
575.5
 21
614.733974596
 31
0.0
  0
LINE
  8
0
  6
CONTINUOUS
 62
     1
 10
566.5
 20
617.733974596
 30
0.0
 11
575.5
 21
617.733974596
 31
0.0
  0
LINE
  8
0
  6
CONTINUOUS
 62
     1
 10
566.5
 20
561.733974596
 30
0.0
 11
575.5
 21
561.733974596
 31
0.0
  0
LINE
  8
0
  6
CONTINUOUS
 62
     1
 10
566.5
 20
551.733974596
 30
0.0
 11
575.5
 21
551.733974596
 31
0.0
  0
LINE
  8
0
  6
CONTINUOUS
 62
     1
 10
566.5
 20
498.733974596
 30
0.0
 11
575.5
 21
498.733974596
 31
0.0
  0
LINE
  8
0
  6
CONTINUOUS
 62
     1
 10
566.5
 20
495.733974596
 30
0.0
 11
575.5
 21
495.733974596
 31
0.0
  0
LINE
  8
0
  6
CONTINUOUS
 62
     1
 10
575.5
 20
496.733974596
 30
0.0
 11
575.5
 21
616.733974596
 31
0.0
  0
LINE
  8
0
  6
LTYPE1
 62
     2
 10
606.5
 20
472.533974596
 30
0.0
 11
596.5
 21
472.533974596
 31
0.0
  0
LINE
  8
0
  6
LTYPE1
 62
     2
 10
606.5
 20
473.733974596
 30
0.0
 11
596.5
 21
473.733974596
 31
0.0
  0
LINE
  8
0
  6
LTYPE1
 62
     2
 10
606.5
 20
453.933974596
 30
0.0
 11
596.5
 21
453.933974596
 31
0.0
  0
LINE
  8
0
  6
LTYPE1
 62
     2
 10
606.5
 20
452.733974596
 30
0.0
 11
596.5
 21
452.733974596
 31
0.0
  0
LINE
  8
0
  6
CONTINUOUS
 62
     1
 10
361.5
 20
631.933974596
 30
0.0
 11
361.5
 21
831.933974596
 31
0.0
  0
LINE
  8
0
  6
CONTINUOUS
 62
     2
 10
606.5
 20
463.233974596
 30
0.0
 11
611.494458093
 21
451.775118268
 31
0.0
  0
LINE
  8
0
  6
CONTINUOUS
 62
     2
 10
606.5
 20
463.233974596
 30
0.0
 11
616.554755751
 21
455.807542964
 31
0.0
  0
LINE
  8
0
  6
CONTINUOUS
 62
     2
 10
606.5
 20
463.233974596
 30
0.0
 11
632.0
 21
431.233974596
 31
0.0
  0
LINE
  8
0
  6
CONTINUOUS
 62
     2
 10
632.0
 20
431.233974596
 30
0.0
 11
705.5
 21
431.233974596
 31
0.0
  0
CIRCLE
  8
0
  6
CONTINUOUS
 62
     1
 10
722.425007904
 20
556.733974596
 30
0.0
 40
19.5
  0
LINE
  8
0
  6
CONTINUOUS
 62
     1
 10
702.425007904
 20
576.733974596
 30
0.0
 11
742.425007904
 21
576.733974596
 31
0.0
  0
LINE
  8
0
  6
CONTINUOUS
 62
     1
 10
742.425007904
 20
536.733974596
 30
0.0
 11
742.425007904
 21
576.733974596
 31
0.0
  0
LINE
  8
0
  6
CONTINUOUS
 62
     1
 10
702.425007904
 20
536.733974596
 30
0.0
 11
742.425007904
 21
536.733974596
 31
0.0
  0
LINE
  8
0
  6
CONTINUOUS
 62
     1
 10
702.425007904
 20
536.733974596
 30
0.0
 11
702.425007904
 21
576.733974596
 31
0.0
  0
LINE
  8
0
  6
CONTINUOUS
 62
     2
 10
730.5
 20
565.733974596
 30
0.0
 11
737.988041206
 21
575.742932529
 31
0.0
  0
LINE
  8
0
  6
CONTINUOUS
 62
     2
 10
730.5
 20
565.733974596
 30
0.0
 11
731.980354942
 21
578.146007034
 31
0.0
  0
LINE
  8
0
  6
CONTINUOUS
 62
     2
 10
730.5
 20
565.733974596
 30
0.0
 11
780.5
 21
690.733974596
 31
0.0
  0
LINE
  8
0
  6
LTYPE2
 62
     2
 10
722.425007904
 20
531.633974596
 30
0.0
 11
722.425007904
 21
581.533974596
 31
0.0
  0
ARC
  8
0
  6
CONTINUOUS
 62
     1
 10
1258.8
 20
472.733974596
 30
0.0
 40
10.0
 50
180.0
 51
270.0
  0
ARC
  8
0
  6
CONTINUOUS
 62
     1
 10
1423.8
 20
472.733974596
 30
0.0
 40
10.0
 50
270.0
 51
0.0
  0
ARC
  8
0
  6
CONTINUOUS
 62
     1
 10
1282.3
 20
497.733974596
 30
0.0
 40
8.0
 50
180.0
 51
270.0
  0
ARC
  8
0
  6
CONTINUOUS
 62
     1
 10
1282.3
 20
615.733974596
 30
0.0
 40
8.0
 50
90.0
 51
180.0
  0
ARC
  8
0
  6
CONTINUOUS
 62
     1
 10
1400.3
 20
615.733974596
 30
0.0
 40
8.0
 50
0.0
 51
90.0
  0
ARC
  8
0
  6
CONTINUOUS
 62
     1
 10
1400.3
 20
497.733974596
 30
0.0
 40
8.0
 50
270.0
 51
0.0
  0
LINE
  8
0
  6
CONTINUOUS
 62
     1
 10
1390.3
 20
489.733974596
 30
0.0
 11
1400.3
 21
489.733974596
 31
0.0
  0
LINE
  8
0
  6
CONTINUOUS
 62
     1
 10
1282.3
 20
489.733974596
 30
0.0
 11
1293.3
 21
489.733974596
 31
0.0
  0
ARC
  8
0
  6
CONTINUOUS
 62
     1
 10
1293.3
 20
486.233974596
 30
0.0
 40
3.0
 50
90.0
 51
180.0
  0
LINE
  8
0
  6
CONTINUOUS
 62
     1
 10
1290.3
 20
439.733974596
 30
0.0
 11
1290.3
 21
486.233974596
 31
0.0
  0
ARC
  8
0
  6
CONTINUOUS
 62
     1
 10
1291.3
 20
439.733974596
 30
0.0
 40
1.0
 50
180.0
 51
270.0
  0
ARC
  8
0
  6
CONTINUOUS
 62
     1
 10
1294.3
 20
438.733974596
 30
0.0
 40
1.0
 50
180.0
 51
270.0
  0
ARC
  8
0
  6
CONTINUOUS
 62
     1
 10
1389.3
 20
486.233974596
 30
0.0
 40
3.0
 50
0.0
 51
90.0
  0
LINE
  8
0
  6
CONTINUOUS
 62
     1
 10
1392.3
 20
439.733974596
 30
0.0
 11
1392.3
 21
486.233974596
 31
0.0
  0
ARC
  8
0
  6
CONTINUOUS
 62
     1
 10
1391.3
 20
439.733974596
 30
0.0
 40
1.0
 50
270.0
 51
0.0
  0
ARC
  8
0
  6
CONTINUOUS
 62
     1
 10
1388.3
 20
438.733974596
 30
0.0
 40
1.0
 50
270.0
 51
0.0
  0
LINE
  8
0
  6
CONTINUOUS
 62
     1
 10
1392.3
 20
444.733974596
 30
0.0
 11
1290.3
 21
444.733974596
 31
0.0
  0
LINE
  8
0
  6
CONTINUOUS
 62
     1
 10
1392.3
 20
446.233974596
 30
0.0
 11
1290.3
 21
446.233974596
 31
0.0
  0
LINE
  8
0
  6
CONTINUOUS
 62
     1
 10
1388.3
 20
437.733974596
 30
0.0
 11
1294.3
 21
437.733974596
 31
0.0
  0
LINE
  8
0
  6
CONTINUOUS
 62
     1
 10
1391.3
 20
438.733974596
 30
0.0
 11
1291.3
 21
438.733974596
 31
0.0
  0
LINE
  8
0
  6
CONTINUOUS
 62
     1
 10
1282.3
 20
623.733974596
 30
0.0
 11
1303.60384635
 21
623.733974596
 31
0.0
  0
LINE
  8
0
  6
CONTINUOUS
 62
     1
 10
1378.99615365
 20
623.733974596
 30
0.0
 11
1400.3
 21
623.733974596
 31
0.0
  0
LINE
  8
0
  6
CONTINUOUS
 62
     1
 10
1392.3
 20
462.733974596
 30
0.0
 11
1423.8
 21
462.733974596
 31
0.0
  0
LINE
  8
0
  6
CONTINUOUS
 62
     1
 10
1258.8
 20
462.733974596
 30
0.0
 11
1290.3
 21
462.733974596
 31
0.0
  0
LINE
  8
0
  6
CONTINUOUS
 62
     1
 10
1436.3
 20
533.733974596
 30
0.0
 11
1436.3
 21
579.733974596
 31
0.0
  0
LINE
  8
0
  6
CONTINUOUS
 62
     1
 10
1246.3
 20
533.733974596
 30
0.0
 11
1246.3
 21
579.733974596
 31
0.0
  0
LINE
  8
0
  6
CONTINUOUS
 62
     1
 10
1248.8
 20
472.733974596
 30
0.0
 11
1248.8
 21
533.427210886
 31
0.0
  0
LINE
  8
0
  6
CONTINUOUS
 62
     1
 10
1433.8
 20
472.733974596
 30
0.0
 11
1433.8
 21
533.427210886
 31
0.0
  0
LINE
  8
0
  6
LTYPE2
 62
     2
 10
1380.3
 20
609.733974596
 30
0.0
 11
1406.8
 21
609.733974596
 31
0.0
  0
LINE
  8
0
  6
LTYPE2
 62
     2
 10
1394.3
 20
595.233974596
 30
0.0
 11
1394.3
 21
622.233974596
 31
0.0
  0
LINE
  8
0
  6
LTYPE2
 62
     2
 10
1288.3
 20
595.733974596
 30
0.0
 11
1288.3
 21
622.233974596
 31
0.0
  0
LINE
  8
0
  6
LTYPE2
 62
     2
 10
1302.8
 20
609.733974596
 30
0.0
 11
1275.8
 21
609.733974596
 31
0.0
  0
LINE
  8
0
  6
LTYPE2
 62
     2
 10
1302.3
 20
503.733974596
 30
0.0
 11
1275.8
 21
503.733974596
 31
0.0
  0
LINE
  8
0
  6
LTYPE2
 62
     2
 10
1288.3
 20
518.233974596
 30
0.0
 11
1288.3
 21
491.233974596
 31
0.0
  0
LINE
  8
0
  6
LTYPE2
 62
     2
 10
1394.3
 20
517.733974596
 30
0.0
 11
1394.3
 21
491.233974596
 31
0.0
  0
LINE
  8
0
  6
LTYPE2
 62
     2
 10
1379.8
 20
503.733974596
 30
0.0
 11
1406.8
 21
503.733974596
 31
0.0
  0
LINE
  8
0
  6
LTYPE2
 62
     2
 10
1386.3
 20
434.033974596
 30
0.0
 11
1386.3
 21
452.733974596
 31
0.0
  0
LINE
  8
0
  6
LTYPE2
 62
     2
 10
1296.3
 20
434.033974596
 30
0.0
 11
1296.3
 21
452.733974596
 31
0.0
  0
LINE
  8
0
  6
LTYPE1
 62
     2
 10
1406.3
 20
544.233974596
 30
0.0
 11
1436.3
 21
544.233974596
 31
0.0
  0
LINE
  8
0
  6
LTYPE1
 62
     2
 10
1406.3
 20
569.233974596
 30
0.0
 11
1436.3
 21
569.233974596
 31
0.0
  0
LINE
  8
0
  6
LTYPE1
 62
     2
 10
1406.3
 20
544.233974596
 30
0.0
 11
1406.3
 21
569.233974596
 31
0.0
  0
LINE
  8
0
  6
LTYPE1
 62
     2
 10
1276.3
 20
544.233974596
 30
0.0
 11
1246.3
 21
544.233974596
 31
0.0
  0
LINE
  8
0
  6
LTYPE1
 62
     2
 10
1276.3
 20
569.233974596
 30
0.0
 11
1246.3
 21
569.233974596
 31
0.0
  0
LINE
  8
0
  6
LTYPE1
 62
     2
 10
1276.3
 20
544.233974596
 30
0.0
 11
1276.3
 21
569.233974596
 31
0.0
  0
CIRCLE
  8
0
  6
CONTINUOUS
 62
     2
 10
1341.3
 20
463.233974596
 30
0.0
 40
10.4775
  0
CIRCLE
  8
0
  6
CONTINUOUS
 62
     2
 10
1341.3
 20
463.233974596
 30
0.0
 40
9.3155
  0
LINE
  8
0
  6
LTYPE3
 62
     2
 10
1361.2
 20
463.233974596
 30
0.0
 11
1320.5
 21
463.233974596
 31
0.0
  0
LINE
  8
7
  6
CONTINUOUS
 62
     2
 10
446.5
 20
379.608974596
 30
0.0
 11
458.574072829
 21
376.373736532
 31
0.0
  0
LINE
  8
7
  6
CONTINUOUS
 62
     2
 10
446.5
 20
379.608974596
 30
0.0
 11
458.574072829
 21
382.84421266
 31
0.0
  0
LINE
  8
7
  6
CONTINUOUS
 62
     2
 10
913.9
 20
379.608974596
 30
0.0
 11
901.825927171
 21
382.84421266
 31
0.0
  0
LINE
  8
7
  6
CONTINUOUS
 62
     2
 10
913.9
 20
379.608974596
 30
0.0
 11
901.825927171
 21
376.373736532
 31
0.0
  0
LINE
  8
7
  6
CONTINUOUS
 62
     2
 10
913.9
 20
379.608974596
 30
0.0
 11
925.974072829
 21
376.373736532
 31
0.0
  0
LINE
  8
7
  6
CONTINUOUS
 62
     2
 10
913.9
 20
379.608974596
 30
0.0
 11
925.974072829
 21
382.84421266
 31
0.0
  0
LINE
  8
7
  6
CONTINUOUS
 62
     2
 10
446.5
 20
344.475
 30
0.0
 11
434.425927171
 21
347.710238064
 31
0.0
  0
LINE
  8
7
  6
CONTINUOUS
 62
     2
 10
446.5
 20
344.475
 30
0.0
 11
434.425927171
 21
341.239761936
 31
0.0
  0
LINE
  8
7
  6
CONTINUOUS
 62
     2
 10
446.5
 20
344.475
 30
0.0
 11
249.5
 21
344.475
 31
0.0
  0
LINE
  8
7
  6
CONTINUOUS
 62
     2
 10
249.5
 20
344.475
 30
0.0
 11
261.574072829
 21
341.239761936
 31
0.0
  0
LINE
  8
7
  6
CONTINUOUS
 62
     2
 10
249.5
 20
344.475
 30
0.0
 11
261.574072829
 21
347.710238064
 31
0.0
  0
LINE
  8
7
  6
CONTINUOUS
 62
     2
 10
249.5
 20
351.175
 30
0.0
 11
249.5
 21
351.975
 31
0.0
  0
TEXT
  8
0
  6
CONTINUOUS
 62
     2
 10
780.5
 20
695.733974596
 30
1.5
 40
15.0
  1
給脂口
 50
0.0
 41
0.9
 51
0.0
  7
KANJI19
  0
LINE
  8
0
  6
CONTINUOUS
 62
     2
 10
780.5
 20
690.733974596
 30
0.0
 11
829.2
 21
690.733974596
 31
0.0
  0
LINE
  8
0
  6
LTYPE3
 62
     2
 10
612.7
 20
463.233974596
 30
0.0
 11
593.0
 21
463.233974596
 31
0.0
  0
LINE
  8
0
  6
CONTINUOUS
 62
     1
 10
361.5
 20
652.733974596
 30
0.0
 11
361.5
 21
812.733974596
 31
0.0
  0
LINE
  8
0
  6
CONTINUOUS
 62
     1
 10
361.5
 20
831.933974596
 30
0.0
 11
371.5
 21
831.933974596
 31
0.0
  0
LINE
  8
0
  6
CONTINUOUS
 62
     1
 10
361.5
 20
631.933974596
 30
0.0
 11
361.5
 21
831.933974596
 31
0.0
  0
LINE
  8
0
  6
CONTINUOUS
 62
     1
 10
361.5
 20
631.933974596
 30
0.0
 11
371.5
 21
631.933974596
 31
0.0
  0
LINE
  8
0
  6
CONTINUOUS
 62
     1
 10
362.0
 20
631.833974596
 30
0.0
 11
371.0
 21
631.833974596
 31
0.0
  0
ARC
  8
0
  6
CONTINUOUS
 62
     1
 10
371.0
 20
634.833974596
 30
0.0
 40
3.0
 50
270.0
 51
0.0
  0
LINE
  8
0
  6
CONTINUOUS
 62
     1
 10
362.0
 20
831.833974596
 30
0.0
 11
371.0
 21
831.833974596
 31
0.0
  0
ARC
  8
0
  6
CONTINUOUS
 62
     1
 10
371.0
 20
828.833974596
 30
0.0
 40
3.0
 50
0.0
 51
90.0
  0
LINE
  8
0
  6
CONTINUOUS
 62
     1
 10
374.0
 20
802.833974596
 30
0.0
 11
374.0
 21
828.833974596
 31
0.0
  0
LINE
  8
0
  6
CONTINUOUS
 62
     1
 10
374.0
 20
634.833974596
 30
0.0
 11
374.0
 21
802.833974596
 31
0.0
  0
ARC
  8
0
  6
CONTINUOUS
 62
     1
 10
376.0
 20
804.833974596
 30
0.0
 40
2.0
 50
180.0
 51
270.0
  0
LINE
  8
0
  6
CONTINUOUS
 62
     1
 10
409.0
 20
660.833974596
 30
0.0
 11
409.0
 21
802.733974596
 31
0.0
  0
ARC
  8
0
  6
CONTINUOUS
 62
     1
 10
376.0
 20
658.833974596
 30
0.0
 40
2.0
 50
90.0
 51
180.0
  0
LINE
  8
0
  6
CONTINUOUS
 62
     1
 10
512.55
 20
821.833974596
 30
0.0
 11
512.55
 21
855.833974596
 31
0.0
  0
LINE
  8
0
  6
CONTINUOUS
 62
     1
 10
512.55
 20
821.833974596
 30
0.0
 11
486.55
 21
821.833974596
 31
0.0
  0
LINE
  8
0
  6
CONTINUOUS
 62
     1
 10
512.55
 20
855.833974596
 30
0.0
 11
486.55
 21
855.833974596
 31
0.0
  0
LINE
  8
0
  6
LTYPE3
 62
     2
 10
519.479475845
 20
838.833974596
 30
0.0
 11
479.479475845
 21
838.833974596
 31
0.0
  0
LINE
  8
0
  6
CONTINUOUS
 62
     1
 10
416.55
 20
813.833974596
 30
0.0
 11
416.55
 21
816.833974596
 31
0.0
  0
ARC
  8
0
  6
CONTINUOUS
 62
     1
 10
420.55
 20
810.833974596
 30
0.0
 40
3.0
 50
0.0
 51
90.0
  0
LINE
  8
0
  6
CONTINUOUS
 62
     1
 10
476.55
 20
813.833974596
 30
0.0
 11
476.55
 21
816.833974596
 31
0.0
  0
ARC
  8
0
  6
CONTINUOUS
 62
     1
 10
472.55
 20
810.833974596
 30
0.0
 40
3.0
 50
90.0
 51
180.0
  0
LINE
  8
0
  6
CONTINUOUS
 62
     1
 10
476.55
 20
813.833974596
 30
0.0
 11
416.55
 21
813.833974596
 31
0.0
  0
LINE
  8
0
  6
CONTINUOUS
 62
     1
 10
401.462087912
 20
818.833974596
 30
0.0
 11
493.55
 21
862.854020484
 31
0.0
  0
LINE
  8
0
  6
CONTINUOUS
 62
     1
 10
399.55
 20
822.833974596
 30
0.0
 11
401.462087912
 21
818.833974596
 31
0.0
  0
LINE
  8
0
  6
CONTINUOUS
 62
     1
 10
399.55
 20
822.833974596
 30
0.0
 11
491.637912088
 21
866.854020484
 31
0.0
  0
LINE
  8
0
  6
CONTINUOUS
 62
     1
 10
491.637912088
 20
866.854020484
 30
0.0
 11
493.55
 21
862.854020484
 31
0.0
  0
LINE
  8
0
  6
CONTINUOUS
 62
     1
 10
406.55
 20
826.180128442
 30
0.0
 11
406.55
 21
865.833974596
 31
0.0
  0
ARC
  8
0
  6
CONTINUOUS
 62
     1
 10
409.55
 20
865.833974596
 30
0.0
 40
3.0
 50
90.0
 51
180.0
  0
LINE
  8
0
  6
CONTINUOUS
 62
     1
 10
406.55
 20
819.833974596
 30
0.0
 11
406.55
 21
821.266108396
 31
0.0
  0
ARC
  8
0
  6
CONTINUOUS
 62
     1
 10
409.55
 20
819.833974596
 30
0.0
 40
3.0
 50
180.0
 51
270.0
  0
LINE
  8
0
  6
CONTINUOUS
 62
     1
 10
486.55
 20
819.833974596
 30
0.0
 11
486.55
 21
859.507866638
 31
0.0
  0
LINE
  8
0
  6
CONTINUOUS
 62
     1
 10
483.55
 20
816.833974596
 30
0.0
 11
409.55
 21
816.833974596
 31
0.0
  0
ARC
  8
0
  6
CONTINUOUS
 62
     1
 10
483.55
 20
819.833974596
 30
0.0
 40
3.0
 50
270.0
 51
0.0
  0
LINE
  8
0
  6
CONTINUOUS
 62
     1
 10
486.55
 20
864.421886684
 30
0.0
 11
486.55
 21
865.833974596
 31
0.0
  0
LINE
  8
0
  6
CONTINUOUS
 62
     1
 10
483.55
 20
868.833974596
 30
0.0
 11
409.55
 21
868.833974596
 31
0.0
  0
ARC
  8
0
  6
CONTINUOUS
 62
     1
 10
483.55
 20
865.833974596
 30
0.0
 40
3.0
 50
0.0
 51
90.0
  0
ARC
  8
0
  6
CONTINUOUS
 62
     1
 10
426.55
 20
805.333974596
 30
0.0
 40
3.0
 50
180.0
 51
270.0
  0
ARC
  8
0
  6
CONTINUOUS
 62
     1
 10
466.55
 20
805.333974596
 30
0.0
 40
3.0
 50
270.0
 51
0.0
  0
LINE
  8
0
  6
CONTINUOUS
 62
     1
 10
469.55
 20
805.333979991
 30
0.0
 11
469.55
 21
810.833974596
 31
0.0
  0
LINE
  8
0
  6
CONTINUOUS
 62
     1
 10
423.55
 20
805.333979991
 30
0.0
 11
423.55
 21
810.833974596
 31
0.0
  0
LINE
  8
0
  6
LTYPE3
 62
     2
 10
446.5
 20
795.833974596
 30
0.0
 11
446.5
 21
870.833974596
 31
0.0
  0
LINE
  8
0
  6
CONTINUOUS
 62
     1
 10
613.810381815
 20
773.661557281
 30
0.0
 11
631.189618185
 21
772.006391912
 31
0.0
  0
ARC
  8
0
  6
CONTINUOUS
 62
     1
 10
614.0
 20
775.652548226
 30
0.0
 40
2.0
 50
180.0
 51
264.559667969
  0
LINE
  8
0
  6
CONTINUOUS
 62
     1
 10
613.810381815
 20
783.661557281
 30
0.0
 11
631.189618185
 21
782.006391912
 31
0.0
  0
ARC
  8
0
  6
CONTINUOUS
 62
     1
 10
614.0
 20
785.652548226
 30
0.0
 40
2.0
 50
180.0
 51
264.559667969
  0
LINE
  8
0
  6
CONTINUOUS
 62
     1
 10
613.810381815
 20
690.006391912
 30
0.0
 11
631.189618185
 21
691.661557281
 31
0.0
  0
ARC
  8
0
  6
CONTINUOUS
 62
     1
 10
614.0
 20
688.015400967
 30
0.0
 40
2.0
 50
95.440332031
 51
180.0
  0
ARC
  8
0
  6
CONTINUOUS
 62
     1
 10
635.0
 20
756.833974596
 30
0.0
 40
2.0
 50
180.0
 51
270.0
  0
LINE
  8
0
  6
CONTINUOUS
 62
     1
 10
644.0
 20
754.833974596
 30
0.0
 11
635.0
 21
754.833974596
 31
0.0
  0
ARC
  8
0
  6
CONTINUOUS
 62
     1
 10
644.0
 20
752.833974596
 30
0.0
 40
2.0
 50
0.0
 51
90.0
  0
LINE
  8
0
  6
CONTINUOUS
 62
     1
 10
646.0
 20
752.833974596
 30
0.0
 11
646.0
 21
710.833974596
 31
0.0
  0
ARC
  8
0
  6
CONTINUOUS
 62
     1
 10
644.0
 20
710.833974596
 30
0.0
 40
2.0
 50
270.0
 51
0.0
  0
ARC
  8
0
  6
CONTINUOUS
 62
     1
 10
635.0
 20
706.833974596
 30
0.0
 40
2.0
 50
90.0
 51
180.0
  0
LINE
  8
0
  6
CONTINUOUS
 62
     1
 10
644.0
 20
708.833974596
 30
0.0
 11
635.0
 21
708.833974596
 31
0.0
  0
LINE
  8
0
  6
CONTINUOUS
 62
     1
 10
649.0
 20
743.333974596
 30
0.0
 11
646.0
 21
743.333974596
 31
0.0
  0
LINE
  8
0
  6
CONTINUOUS
 62
     1
 10
649.0
 20
720.333974596
 30
0.0
 11
646.0
 21
720.333974596
 31
0.0
  0
LINE
  8
0
  6
CONTINUOUS
 62
     1
 10
649.0
 20
743.333974596
 30
0.0
 11
649.0
 21
720.333974596
 31
0.0
  0
ARC
  8
0
  6
CONTINUOUS
 62
     1
 10
631.0
 20
724.652548226
 30
0.0
 40
2.0
 50
275.440332031
 51
0.0
  0
LINE
  8
0
  6
CONTINUOUS
 62
     1
 10
631.189618185
 20
722.661557281
 30
0.0
 11
613.810381815
 21
721.006391912
 31
0.0
  0
ARC
  8
0
  6
CONTINUOUS
 62
     1
 10
614.0
 20
719.015400967
 30
0.0
 40
2.0
 50
95.440332031
 51
180.0
  0
ARC
  8
0
  6
CONTINUOUS
 62
     1
 10
631.0
 20
739.015400967
 30
0.0
 40
2.0
 50
0.0
 51
84.559667969
  0
LINE
  8
0
  6
CONTINUOUS
 62
     1
 10
631.189618185
 20
741.006391912
 30
0.0
 11
613.810381815
 21
742.661557281
 31
0.0
  0
ARC
  8
0
  6
CONTINUOUS
 62
     1
 10
614.0
 20
744.652548226
 30
0.0
 40
2.0
 50
180.0
 51
264.559667969
  0
LINE
  8
0
  6
LTYPE3
 62
     2
 10
625.5
 20
774.833974596
 30
0.0
 11
638.7
 21
774.833974596
 31
0.0
  0
LINE
  8
0
  6
CONTINUOUS
 62
     1
 10
613.810381815
 20
680.006391912
 30
0.0
 11
631.189618185
 21
681.661557281
 31
0.0
  0
LINE
  8
0
  6
LTYPE3
 62
     2
 10
625.5
 20
688.833974596
 30
0.0
 11
638.7
 21
688.833974596
 31
0.0
  0
ARC
  8
0
  6
CONTINUOUS
 62
     1
 10
614.0
 20
678.015400967
 30
0.0
 40
2.0
 50
95.440332031
 51
180.0
  0
LINE
  8
0
  6
CONTINUOUS
 62
     1
 10
633.0
 20
780.015400967
 30
0.0
 11
633.0
 21
684.222094596
 31
0.0
  0
ARC
  8
0
  6
CONTINUOUS
 62
     1
 10
631.0
 20
770.015400967
 30
0.0
 40
2.0
 50
0.0
 51
84.559667969
  0
ARC
  8
0
  6
CONTINUOUS
 62
     1
 10
631.0
 20
780.015400967
 30
0.0
 40
2.0
 50
0.0
 51
84.559667969
  0
LINE
  8
0
  6
CONTINUOUS
 62
     1
 10
636.5002
 20
778.316414596
 30
0.0
 11
635.848117512
 21
779.445854596
 31
0.0
  0
LINE
  8
0
  6
CONTINUOUS
 62
     1
 10
636.5002
 20
771.351534596
 30
0.0
 11
635.848117512
 21
770.222094596
 31
0.0
  0
ARC
  8
0
  6
CONTINUOUS
 62
     1
 10
632.096945074
 20
774.833974596
 30
0.0
 40
4.403254926
 50
328.419912243
 51
31.580087757
  0
ARC
  8
0
  6
CONTINUOUS
 62
     1
 10
635.155279868
 20
778.292884596
 30
0.0
 40
1.34512595
 50
301.002313915
 51
2.989498403
  0
LINE
  8
0
  6
CONTINUOUS
 62
     1
 10
636.5002
 20
771.351534596
 30
0.0
 11
635.848117512
 21
770.222094596
 31
0.0
  0
ARC
  8
0
  6
CONTINUOUS
 62
     1
 10
635.155279868
 20
771.375064596
 30
0.0
 40
1.34512595
 50
357.010501597
 51
58.997686085
  0
LINE
  8
0
  6
CONTINUOUS
 62
     1
 10
633.0
 20
779.445854596
 30
0.0
 11
635.848117512
 21
779.445854596
 31
0.0
  0
LINE
  8
0
  6
CONTINUOUS
 62
     1
 10
633.0
 20
777.139914596
 30
0.0
 11
635.848117512
 21
777.139914596
 31
0.0
  0
LINE
  8
0
  6
CONTINUOUS
 62
     1
 10
633.0
 20
772.528034596
 30
0.0
 11
635.848117512
 21
772.528034596
 31
0.0
  0
LINE
  8
0
  6
CONTINUOUS
 62
     1
 10
633.0
 20
770.222094596
 30
0.0
 11
635.848117512
 21
770.222094596
 31
0.0
  0
LINE
  8
0
  6
CONTINUOUS
 62
     1
 10
636.5002
 20
778.316414596
 30
0.0
 11
636.5002
 21
771.351534596
 31
0.0
  0
LINE
  8
0
  6
CONTINUOUS
 62
     1
 10
654.0
 20
736.186876596
 30
0.0
 11
653.184924603
 21
737.598628596
 31
0.0
  0
LINE
  8
0
  6
CONTINUOUS
 62
     1
 10
654.0
 20
727.481072596
 30
0.0
 11
653.184924603
 21
726.069320596
 31
0.0
  0
ARC
  8
0
  6
CONTINUOUS
 62
     1
 10
648.496118477
 20
731.833974596
 30
0.0
 40
5.503881523
 50
328.419912243
 51
31.580087757
  0
ARC
  8
0
  6
CONTINUOUS
 62
     1
 10
652.318906993
 20
736.157465096
 30
0.0
 40
1.681350271
 50
301.002313915
 51
2.989498403
  0
LINE
  8
0
  6
CONTINUOUS
 62
     1
 10
654.0
 20
727.481072596
 30
0.0
 11
653.184924603
 21
726.069320596
 31
0.0
  0
ARC
  8
0
  6
CONTINUOUS
 62
     1
 10
652.318906993
 20
727.510484096
 30
0.0
 40
1.681350271
 50
357.010501597
 51
58.997686085
  0
LINE
  8
0
  6
CONTINUOUS
 62
     1
 10
650.00039
 20
734.716301596
 30
0.0
 11
653.184924603
 21
734.716301596
 31
0.0
  0
LINE
  8
0
  6
CONTINUOUS
 62
     1
 10
650.00039
 20
737.598628596
 30
0.0
 11
653.184924603
 21
737.598628596
 31
0.0
  0
LINE
  8
0
  6
CONTINUOUS
 62
     1
 10
650.00039
 20
728.951647596
 30
0.0
 11
653.184924603
 21
728.951647596
 31
0.0
  0
LINE
  8
0
  6
CONTINUOUS
 62
     1
 10
650.00039
 20
726.069320596
 30
0.0
 11
653.184924603
 21
726.069320596
 31
0.0
  0
LINE
  8
0
  6
CONTINUOUS
 62
     1
 10
654.0
 20
727.481072596
 30
0.0
 11
654.0
 21
736.186876596
 31
0.0
  0
LINE
  8
0
  6
CONTINUOUS
 62
     1
 10
650.00039
 20
738.333974596
 30
0.0
 11
649.0
 21
738.333974596
 31
0.0
  0
LINE
  8
0
  6
CONTINUOUS
 62
     1
 10
650.00039
 20
738.333974596
 30
0.0
 11
650.00039
 21
725.333974596
 31
0.0
  0
LINE
  8
0
  6
CONTINUOUS
 62
     1
 10
650.00039
 20
725.333974596
 30
0.0
 11
649.0
 21
725.333974596
 31
0.0
  0
ARC
  8
0
  6
CONTINUOUS
 62
     1
 10
631.0
 20
693.652548226
 30
0.0
 40
2.0
 50
275.440332031
 51
0.0
  0
LINE
  8
0
  6
CONTINUOUS
 62
     1
 10
636.5002
 20
685.351534596
 30
0.0
 11
635.848117512
 21
684.222094596
 31
0.0
  0
LINE
  8
0
  6
CONTINUOUS
 62
     1
 10
636.5002
 20
692.316414596
 30
0.0
 11
635.848117512
 21
693.445854596
 31
0.0
  0
ARC
  8
0
  6
CONTINUOUS
 62
     1
 10
632.096945074
 20
688.833974596
 30
0.0
 40
4.403254926
 50
328.419912243
 51
31.580087757
  0
ARC
  8
0
  6
CONTINUOUS
 62
     1
 10
635.155279868
 20
685.375064596
 30
0.0
 40
1.34512595
 50
357.010501597
 51
58.997686085
  0
LINE
  8
0
  6
CONTINUOUS
 62
     1
 10
636.5002
 20
692.316414596
 30
0.0
 11
635.848117512
 21
693.445854596
 31
0.0
  0
ARC
  8
0
  6
CONTINUOUS
 62
     1
 10
635.155279868
 20
692.292884596
 30
0.0
 40
1.34512595
 50
301.002313915
 51
2.989498403
  0
LINE
  8
0
  6
CONTINUOUS
 62
     1
 10
633.0
 20
684.222094596
 30
0.0
 11
635.848117512
 21
684.222094596
 31
0.0
  0
LINE
  8
0
  6
CONTINUOUS
 62
     1
 10
633.0
 20
686.528034596
 30
0.0
 11
635.848117512
 21
686.528034596
 31
0.0
  0
LINE
  8
0
  6
CONTINUOUS
 62
     1
 10
633.0
 20
691.139914596
 30
0.0
 11
635.848117512
 21
691.139914596
 31
0.0
  0
LINE
  8
0
  6
CONTINUOUS
 62
     1
 10
633.0
 20
693.445854596
 30
0.0
 11
635.848117512
 21
693.445854596
 31
0.0
  0
LINE
  8
0
  6
CONTINUOUS
 62
     1
 10
636.5002
 20
685.351534596
 30
0.0
 11
636.5002
 21
692.316414596
 31
0.0
  0
ARC
  8
0
  6
CONTINUOUS
 62
     1
 10
631.0
 20
683.652548226
 30
0.0
 40
2.0
 50
275.440332031
 51
0.0
  0
LINE
  8
0
  6
LTYPE1
 62
     1
 10
641.1
 20
746.333974596
 30
0.0
 11
633.0
 21
737.133974596
 31
0.0
  0
ARC
  8
0
  6
LTYPE1
 62
     1
 10
644.5
 20
743.333974596
 30
0.0
 40
4.5
 50
290.9
 51
137.7
  0
LINE
  8
0
  6
LTYPE1
 62
     1
 10
639.0
 20
736.333974596
 30
0.0
 11
633.0
 21
737.133974596
 31
0.0
  0
LINE
  8
0
  6
LTYPE1
 62
     1
 10
646.1
 20
739.133974596
 30
0.0
 11
639.0
 21
736.333974596
 31
0.0
  0
LINE
  8
0
  6
LTYPE1
 62
     1
 10
639.0
 20
727.333974596
 30
0.0
 11
633.0
 21
726.533974596
 31
0.0
  0
ARC
  8
0
  6
LTYPE1
 62
     1
 10
644.5
 20
720.333974596
 30
0.0
 40
4.5
 50
222.3
 51
69.1
  0
LINE
  8
0
  6
LTYPE1
 62
     1
 10
641.1
 20
717.333974596
 30
0.0
 11
633.0
 21
726.533974596
 31
0.0
  0
LINE
  8
0
  6
LTYPE1
 62
     1
 10
646.1
 20
724.533974596
 30
0.0
 11
639.0
 21
727.333974596
 31
0.0
  0
LINE
  8
0
  6
LTYPE1
 62
     1
 10
639.0
 20
736.333974596
 30
0.0
 11
639.0
 21
727.333974596
 31
0.0
  0
LINE
  8
0
  6
CONTINUOUS
 62
     1
 10
604.0
 20
660.833974596
 30
0.0
 11
604.0
 21
802.833974596
 31
0.0
  0
LINE
  8
0
  6
CONTINUOUS
 62
     1
 10
376.0
 20
802.833974596
 30
0.0
 11
609.0
 21
802.833974596
 31
0.0
  0
ARC
  8
0
  6
CONTINUOUS
 62
     1
 10
609.0
 20
799.833974596
 30
0.0
 40
3.0
 50
0.0
 51
90.0
  0
LINE
  8
0
  6
CONTINUOUS
 62
     1
 10
376.0
 20
660.833974596
 30
0.0
 11
609.0
 21
660.833974596
 31
0.0
  0
LINE
  8
0
  6
CONTINUOUS
 62
     1
 10
612.0
 20
799.833974596
 30
0.0
 11
612.0
 21
663.833974596
 31
0.0
  0
ARC
  8
0
  6
CONTINUOUS
 62
     1
 10
609.0
 20
663.833974596
 30
0.0
 40
3.0
 50
270.0
 51
0.0
  0
LINE
  8
0
  6
CONTINUOUS
 62
     2
 10
359.0
 20
790.170284044
 30
0.0
 11
389.0
 21
790.170284044
 31
0.0
  0
LINE
  8
0
  6
CONTINUOUS
 62
     1
 10
381.0
 20
780.170284044
 30
0.0
 11
381.0
 21
800.170284044
 31
0.0
  0
LINE
  8
0
  6
CONTINUOUS
 62
     1
 10
374.0
 20
800.170284044
 30
0.0
 11
381.0
 21
800.170284044
 31
0.0
  0
LINE
  8
0
  6
CONTINUOUS
 62
     1
 10
374.0
 20
780.170284044
 30
0.0
 11
381.0
 21
780.170284044
 31
0.0
  0
LINE
  8
0
  6
CONTINUOUS
 62
     1
 10
374.0
 20
795.170284044
 30
0.0
 11
381.0
 21
795.170284044
 31
0.0
  0
LINE
  8
0
  6
CONTINUOUS
 62
     1
 10
374.0
 20
785.170284044
 30
0.0
 11
381.0
 21
785.170284044
 31
0.0
  0
LINE
  8
0
  6
CONTINUOUS
 62
     2
 10
359.0
 20
673.497665148
 30
0.0
 11
389.0
 21
673.497665148
 31
0.0
  0
LINE
  8
0
  6
CONTINUOUS
 62
     1
 10
381.0
 20
683.497665148
 30
0.0
 11
381.0
 21
663.497665148
 31
0.0
  0
LINE
  8
0
  6
CONTINUOUS
 62
     1
 10
374.0
 20
663.497665148
 30
0.0
 11
381.0
 21
663.497665148
 31
0.0
  0
LINE
  8
0
  6
CONTINUOUS
 62
     1
 10
374.0
 20
683.497665148
 30
0.0
 11
381.0
 21
683.497665148
 31
0.0
  0
LINE
  8
0
  6
CONTINUOUS
 62
     1
 10
374.0
 20
668.497665148
 30
0.0
 11
381.0
 21
668.497665148
 31
0.0
  0
LINE
  8
0
  6
CONTINUOUS
 62
     1
 10
374.0
 20
678.497665148
 30
0.0
 11
381.0
 21
678.497665148
 31
0.0
  0
LINE
  8
0
  6
CONTINUOUS
 62
     2
 10
648.8
 20
749.333974596
 30
0.0
 11
657.093374416
 21
758.686511193
 31
0.0
  0
LINE
  8
0
  6
CONTINUOUS
 62
     2
 10
648.8
 20
749.333974596
 30
0.0
 11
651.306004628
 21
761.580196087
 31
0.0
  0
LINE
  8
0
  6
CONTINUOUS
 62
     2
 10
648.8
 20
749.333974596
 30
0.0
 11
721.8
 21
895.333974596
 31
0.0
  0
LINE
  8
0
  6
CONTINUOUS
 62
     2
 10
512.55
 20
838.833974596
 30
0.0
 11
520.843374416
 21
848.186511193
 31
0.0
  0
LINE
  8
0
  6
CONTINUOUS
 62
     2
 10
512.55
 20
838.833974596
 30
0.0
 11
515.056004628
 21
851.080196087
 31
0.0
  0
LINE
  8
2
  6
CONTINUOUS
 62
     2
 10
610.0
 20
802.833974596
 30
0.0
 11
706.0
 21
802.833974596
 31
0.0
  0
LINE
  8
2
  6
CONTINUOUS
 62
     2
 10
700.0
 20
802.833974596
 30
0.0
 11
696.117714323
 21
788.345087202
 31
0.0
  0
LINE
  8
2
  6
CONTINUOUS
 62
     2
 10
700.0
 20
802.833974596
 30
0.0
 11
703.882285677
 21
788.345087202
 31
0.0
  0
LINE
  8
2
  6
CONTINUOUS
 62
     2
 10
700.0
 20
802.833974596
 30
0.0
 11
700.0
 21
660.833974596
 31
0.0
  0
LINE
  8
2
  6
CONTINUOUS
 62
     2
 10
700.0
 20
660.833974596
 30
0.0
 11
703.882285677
 21
675.322861991
 31
0.0
  0
LINE
  8
2
  6
CONTINUOUS
 62
     2
 10
700.0
 20
660.833974596
 30
0.0
 11
696.117714323
 21
675.322861991
 31
0.0
  0
LINE
  8
2
  6
CONTINUOUS
 62
     2
 10
610.0
 20
660.833974596
 30
0.0
 11
706.0
 21
660.833974596
 31
0.0
  0
TEXT
  8
0
  6
CONTINUOUS
 62
     2
 10
723.3
 20
900.333974596
 30
0.0
 40
18.0
  1
手動開放装置
 50
0.0
 41
0.9
 51
0.0
  7
KANJI20
  0
LINE
  8
0
  6
CONTINUOUS
 62
     2
 10
721.8
 20
895.333974596
 30
0.0
 11
822.4
 21
895.333974596
 31
0.0
  0
LINE
  8
0
  6
CONTINUOUS
 62
     2
 10
512.55
 20
838.833974596
 30
0.0
 11
536.18
 21
886.093974596
 31
0.0
  0
LINE
  8
0
  6
CONTINUOUS
 62
     2
 10
536.18
 20
886.093974596
 30
0.0
 11
619.58
 21
886.093974596
 31
0.0
  0
LINE
  8
0
  6
CONTINUOUS
 62
     1
 10
1248.8
 20
769.233974596
 30
0.0
 11
1248.8
 21
792.263379095
 31
0.0
  0
LINE
  8
0
  6
CONTINUOUS
 62
     1
 10
1433.8
 20
767.733974596
 30
0.0
 11
1433.8
 21
792.263379095
 31
0.0
  0
ARC
  8
0
  6
CONTINUOUS
 62
     1
 10
1356.287995196
 20
778.333974596
 30
0.0
 40
8.0
 50
200.487315115
 51
251.805127661
  0
ARC
  8
0
  6
CONTINUOUS
 62
     1
 10
1326.312004804
 20
778.333974596
 30
0.0
 40
8.0
 50
288.194872339
 51
339.512684885
  0
ARC
  8
0
  6
CONTINUOUS
 62
     1
 10
1341.3
 20
772.733974596
 30
0.0
 40
8.0
 50
20.487315115
 51
159.512540111
  0
ARC
  8
0
  6
CONTINUOUS
 62
     1
 10
1356.287995196
 20
687.133974596
 30
0.0
 40
8.0
 50
108.194872339
 51
159.512684885
  0
ARC
  8
0
  6
CONTINUOUS
 62
     1
 10
1326.312004804
 20
687.133974596
 30
0.0
 40
8.0
 50
20.487315115
 51
71.805127661
  0
ARC
  8
0
  6
CONTINUOUS
 62
     1
 10
1341.3
 20
692.733974596
 30
0.0
 40
8.0
 50
200.487459889
 51
339.512684885
  0
ARC
  8
0
  6
CONTINUOUS
 62
     1
 10
1341.3
 20
732.733974596
 30
0.0
 40
40.0
 50
108.194872339
 51
251.805127661
  0
ARC
  8
0
  6
CONTINUOUS
 62
     1
 10
1387.3
 20
732.733974596
 30
0.0
 40
9.0
 50
278.674045508
 51
81.325934821
  0
CIRCLE
  8
0
  6
CONTINUOUS
 62
     1
 10
1341.3
 20
732.733974596
 30
0.0
 40
23.0
  0
ARC
  8
0
  6
CONTINUOUS
 62
     1
 10
1341.3
 20
732.733974596
 30
0.0
 40
40.0
 50
25.554707728
 51
71.805142343
  0
ARC
  8
0
  6
CONTINUOUS
 62
     1
 10
1341.3
 20
732.733974596
 30
0.0
 40
40.0
 50
288.194857657
 51
334.445306215
  0
LINE
  8
0
  6
CONTINUOUS
 62
     2
 10
1384.3
 20
749.733974596
 30
0.0
 11
1384.3
 21
713.733974596
 31
0.0
  0
LINE
  8
0
  6
CONTINUOUS
 62
     1
 10
1385.3
 20
748.833974596
 30
0.0
 11
1383.3
 21
748.833974596
 31
0.0
  0
LINE
  8
0
  6
CONTINUOUS
 62
     1
 10
1383.3
 20
748.833974596
 30
0.0
 11
1381.3
 21
737.233974596
 31
0.0
  0
LINE
  8
0
  6
CONTINUOUS
 62
     1
 10
1385.3
 20
748.833974596
 30
0.0
 11
1387.3
 21
737.233974596
 31
0.0
  0
LINE
  8
0
  6
CONTINUOUS
 62
     1
 10
1385.3
 20
716.633974596
 30
0.0
 11
1383.3
 21
716.633974596
 31
0.0
  0
LINE
  8
0
  6
CONTINUOUS
 62
     1
 10
1383.3
 20
716.633974596
 30
0.0
 11
1381.3
 21
728.233974596
 31
0.0
  0
LINE
  8
0
  6
CONTINUOUS
 62
     1
 10
1385.3
 20
716.633974596
 30
0.0
 11
1387.3
 21
728.233974596
 31
0.0
  0
ARC
  8
0
  6
CONTINUOUS
 62
     1
 10
1390.919565217
 20
756.459461897
 30
0.0
 40
15.0
 50
205.554693785
 51
235.747997449
  0
ARC
  8
0
  6
CONTINUOUS
 62
     1
 10
1390.919565217
 20
756.459461897
 30
0.0
 40
15.0
 50
252.681090544
 51
261.325827457
  0
ARC
  8
0
  6
CONTINUOUS
 62
     1
 10
1390.919565217
 20
709.008487296
 30
0.0
 40
15.0
 50
124.468179449
 51
154.445306215
  0
ARC
  8
0
  6
CONTINUOUS
 62
     1
 10
1390.919565217
 20
709.008487296
 30
0.0
 40
15.0
 50
98.674172543
 51
107.318909456
  0
CIRCLE
  8
0
  6
CONTINUOUS
 62
     1
 10
1384.3
 20
732.733974596
 30
0.0
 40
3.0
  0
LINE
  8
0
  6
CONTINUOUS
 62
     1
 10
1381.321304702
 20
737.357541869
 30
0.0
 11
1381.278695298
 21
728.110407324
 31
0.0
  0
LINE
  8
0
  6
CONTINUOUS
 62
     1
 10
1387.321304702
 20
728.110407324
 30
0.0
 11
1387.278695298
 21
737.357541869
 31
0.0
  0
ARC
  8
0
  6
CONTINUOUS
 62
     1
 10
1384.3
 20
732.733974596
 30
0.0
 40
5.5
 50
304.570397879
 51
57.208673154
  0
ARC
  8
0
  6
CONTINUOUS
 62
     1
 10
1384.3
 20
732.733974596
 30
0.0
 40
5.5
 50
122.791326846
 51
235.429602121
  0
LINE
  8
0
  6
CONTINUOUS
 62
     1
 10
1343.65
 20
779.804293994
 30
0.0
 11
1338.95
 21
779.804293994
 31
0.0
  0
LINE
  8
0
  6
CONTINUOUS
 62
     1
 10
1338.95
 20
779.804293994
 30
0.0
 11
1336.6
 21
775.733974596
 31
0.0
  0
LINE
  8
0
  6
CONTINUOUS
 62
     1
 10
1336.6
 20
775.733974596
 30
0.0
 11
1338.95
 21
771.663655198
 31
0.0
  0
LINE
  8
0
  6
CONTINUOUS
 62
     1
 10
1338.95
 20
771.663655198
 30
0.0
 11
1343.65
 21
771.663655198
 31
0.0
  0
LINE
  8
0
  6
CONTINUOUS
 62
     1
 10
1343.65
 20
771.663655198
 30
0.0
 11
1346.0
 21
775.733974596
 31
0.0
  0
LINE
  8
0
  6
CONTINUOUS
 62
     1
 10
1346.0
 20
775.733974596
 30
0.0
 11
1343.65
 21
779.804293994
 31
0.0
  0
LINE
  8
0
  6
CONTINUOUS
 62
     2
 10
1347.3
 20
775.733974596
 30
0.0
 11
1335.3
 21
775.733974596
 31
0.0
  0
LINE
  8
0
  6
CONTINUOUS
 62
     1
 10
1343.65
 20
685.663655198
 30
0.0
 11
1338.95
 21
685.663655198
 31
0.0
  0
LINE
  8
0
  6
CONTINUOUS
 62
     1
 10
1338.95
 20
685.663655198
 30
0.0
 11
1336.6
 21
689.733974596
 31
0.0
  0
LINE
  8
0
  6
CONTINUOUS
 62
     1
 10
1336.6
 20
689.733974596
 30
0.0
 11
1338.95
 21
693.804293994
 31
0.0
  0
LINE
  8
0
  6
CONTINUOUS
 62
     1
 10
1338.95
 20
693.804293994
 30
0.0
 11
1343.65
 21
693.804293994
 31
0.0
  0
LINE
  8
0
  6
CONTINUOUS
 62
     1
 10
1343.65
 20
693.804293994
 30
0.0
 11
1346.0
 21
689.733974596
 31
0.0
  0
LINE
  8
0
  6
CONTINUOUS
 62
     1
 10
1346.0
 20
689.733974596
 30
0.0
 11
1343.65
 21
685.663655198
 31
0.0
  0
LINE
  8
0
  6
CONTINUOUS
 62
     2
 10
1347.3
 20
689.733974596
 30
0.0
 11
1335.3
 21
689.733974596
 31
0.0
  0
LINE
  8
0
  6
CONTINUOUS
 62
     1
 10
1336.363655198
 20
735.583974596
 30
0.0
 11
1336.363655198
 21
729.883974596
 31
0.0
  0
LINE
  8
0
  6
CONTINUOUS
 62
     1
 10
1336.363655198
 20
729.883974596
 30
0.0
 11
1341.3
 21
727.033974596
 31
0.0
  0
LINE
  8
0
  6
CONTINUOUS
 62
     1
 10
1341.3
 20
727.033974596
 30
0.0
 11
1346.236344802
 21
729.883974596
 31
0.0
  0
LINE
  8
0
  6
CONTINUOUS
 62
     1
 10
1346.236344802
 20
729.883974596
 30
0.0
 11
1346.236344802
 21
735.583974596
 31
0.0
  0
LINE
  8
0
  6
CONTINUOUS
 62
     1
 10
1346.236344802
 20
735.583974596
 30
0.0
 11
1341.3
 21
738.433974596
 31
0.0
  0
LINE
  8
0
  6
CONTINUOUS
 62
     1
 10
1341.3
 20
738.433974596
 30
0.0
 11
1336.363655198
 21
735.583974596
 31
0.0
  0
CIRCLE
  8
0
  6
CONTINUOUS
 62
     1
 10
1341.3
 20
732.733974596
 30
0.0
 40
6.5
  0
LINE
  8
0
  6
CONTINUOUS
 62
     1
 10
1371.3
 20
814.733974596
 30
0.0
 11
1371.3
 21
817.733974596
 31
0.0
  0
ARC
  8
0
  6
CONTINUOUS
 62
     1
 10
1367.3
 20
811.733974596
 30
0.0
 40
3.0
 50
90.0
 51
180.0
  0
LINE
  8
0
  6
CONTINUOUS
 62
     1
 10
1364.3
 20
800.887593838
 30
0.0
 11
1364.3
 21
811.733974596
 31
0.0
  0
ARC
  8
0
  6
CONTINUOUS
 62
     1
 10
1360.3
 20
800.887593838
 30
0.0
 40
4.0
 50
304.936144888
 51
0.0
  0
ARC
  8
0
  6
CONTINUOUS
 62
     1
 10
1315.3
 20
811.733974596
 30
0.0
 40
3.0
 50
0.0
 51
90.0
  0
LINE
  8
0
  6
CONTINUOUS
 62
     1
 10
1318.3
 20
800.887593838
 30
0.0
 11
1318.3
 21
811.733974596
 31
0.0
  0
ARC
  8
0
  6
CONTINUOUS
 62
     1
 10
1322.3
 20
800.887593838
 30
0.0
 40
4.0
 50
180.0
 51
235.063855112
  0
CIRCLE
  8
0
  6
CONTINUOUS
 62
     1
 10
1341.3
 20
839.733974596
 30
0.0
 40
17.0
  0
LINE
  8
0
  6
LTYPE3
 62
     2
 10
1318.3
 20
839.733974596
 30
0.0
 11
1364.3
 21
839.733974596
 31
0.0
  0
ARC
  8
0
  6
CONTINUOUS
 62
     1
 10
1299.3
 20
861.754020484
 30
0.0
 40
2.0
 50
90.0
 51
180.0
  0
ARC
  8
0
  6
CONTINUOUS
 62
     1
 10
1307.3
 20
867.733974596
 30
0.0
 40
2.0
 50
90.0
 51
180.0
  0
LINE
  8
0
  6
CONTINUOUS
 62
     1
 10
1307.3
 20
869.733974596
 30
0.0
 11
1375.3
 21
869.733974596
 31
0.0
  0
ARC
  8
0
  6
CONTINUOUS
 62
     1
 10
1375.3
 20
867.733974596
 30
0.0
 40
2.0
 50
0.0
 51
90.0
  0
LINE
  8
0
  6
CONTINUOUS
 62
     1
 10
1383.3
 20
863.754020484
 30
0.0
 11
1299.3
 21
863.754020484
 31
0.0
  0
ARC
  8
0
  6
CONTINUOUS
 62
     1
 10
1383.3
 20
861.754020484
 30
0.0
 40
2.0
 50
0.0
 51
90.0
  0
ARC
  8
0
  6
CONTINUOUS
 62
     1
 10
1299.3
 20
865.754020484
 30
0.0
 40
2.0
 50
90.0
 51
180.0
  0
ARC
  8
0
  6
CONTINUOUS
 62
     1
 10
1307.3
 20
858.733974596
 30
0.0
 40
2.0
 50
90.0
 51
180.0
  0
LINE
  8
0
  6
CONTINUOUS
 62
     1
 10
1307.3
 20
860.733974596
 30
0.0
 11
1375.3
 21
860.733974596
 31
0.0
  0
ARC
  8
0
  6
CONTINUOUS
 62
     1
 10
1375.3
 20
858.733974596
 30
0.0
 40
2.0
 50
0.0
 51
90.0
  0
LINE
  8
0
  6
CONTINUOUS
 62
     1
 10
1383.3
 20
867.754020484
 30
0.0
 11
1299.3
 21
867.754020484
 31
0.0
  0
ARC
  8
0
  6
CONTINUOUS
 62
     1
 10
1383.3
 20
865.754020484
 30
0.0
 40
2.0
 50
0.0
 51
90.0
  0
LINE
  8
0
  6
CONTINUOUS
 62
     1
 10
1311.3
 20
814.733974596
 30
0.0
 11
1371.3
 21
814.733974596
 31
0.0
  0
LINE
  8
0
  6
CONTINUOUS
 62
     1
 10
1311.3
 20
814.733974596
 30
0.0
 11
1311.3
 21
817.733974596
 31
0.0
  0
LINE
  8
0
  6
CONTINUOUS
 62
     1
 10
1377.3
 20
819.733974596
 30
0.0
 11
1383.3
 21
819.733974596
 31
0.0
  0
LINE
  8
0
  6
CONTINUOUS
 62
     1
 10
1385.3
 20
821.733974596
 30
0.0
 11
1385.3
 21
865.754020484
 31
0.0
  0
ARC
  8
0
  6
CONTINUOUS
 62
     1
 10
1383.3
 20
821.733974596
 30
0.0
 40
2.0
 50
270.0
 51
0.0
  0
LINE
  8
0
  6
CONTINUOUS
 62
     1
 10
1377.3
 20
819.733974596
 30
0.0
 11
1377.3
 21
858.733974596
 31
0.0
  0
ARC
  8
0
  6
CONTINUOUS
 62
     1
 10
1375.3
 20
819.733974596
 30
0.0
 40
2.0
 50
270.0
 51
0.0
  0
LINE
  8
0
  6
CONTINUOUS
 62
     1
 10
1305.3
 20
819.733974596
 30
0.0
 11
1305.3
 21
858.733974596
 31
0.0
  0
LINE
  8
0
  6
CONTINUOUS
 62
     1
 10
1307.3
 20
817.733974596
 30
0.0
 11
1375.3
 21
817.733974596
 31
0.0
  0
ARC
  8
0
  6
CONTINUOUS
 62
     1
 10
1307.3
 20
819.733974596
 30
0.0
 40
2.0
 50
180.0
 51
270.0
  0
LINE
  8
0
  6
CONTINUOUS
 62
     1
 10
1305.3
 20
819.733974596
 30
0.0
 11
1299.3
 21
819.733974596
 31
0.0
  0
LINE
  8
0
  6
CONTINUOUS
 62
     1
 10
1297.3
 20
821.733974596
 30
0.0
 11
1297.3
 21
865.754020484
 31
0.0
  0
ARC
  8
0
  6
CONTINUOUS
 62
     1
 10
1299.3
 20
821.733974596
 30
0.0
 40
2.0
 50
180.0
 51
270.0
  0
CIRCLE
  8
0
  6
CONTINUOUS
 62
     2
 10
1341.3
 20
839.733974596
 30
0.0
 40
15.0
  0
CIRCLE
  8
0
  6
CONTINUOUS
 62
     1
 10
1341.3
 20
732.733974596
 30
0.0
 40
71.0
  0
ARC
  8
0
  6
CONTINUOUS
 62
     1
 10
1341.3
 20
732.733974596
 30
0.0
 40
100.0
 50
116.103881137
 51
63.896118863
  0
LINE
  8
0
  6
LTYPE3
 62
     2
 10
1291.3
 20
782.733974596
 30
0.0
 11
1275.3
 21
798.733974596
 31
0.0
  0
LINE
  8
0
  6
CONTINUOUS
 62
     1
 10
1287.963690552
 20
799.730538082
 30
0.0
 11
1277.963690552
 21
799.730538082
 31
0.0
  0
LINE
  8
0
  6
CONTINUOUS
 62
     1
 10
1277.963690552
 20
799.730538082
 30
0.0
 11
1272.963690552
 21
791.070284044
 31
0.0
  0
LINE
  8
0
  6
CONTINUOUS
 62
     1
 10
1272.963690552
 20
791.070284044
 30
0.0
 11
1277.963690552
 21
782.410030006
 31
0.0
  0
LINE
  8
0
  6
CONTINUOUS
 62
     1
 10
1277.963690552
 20
782.410030006
 30
0.0
 11
1287.963690552
 21
782.410030006
 31
0.0
  0
LINE
  8
0
  6
CONTINUOUS
 62
     1
 10
1287.963690552
 20
782.410030006
 30
0.0
 11
1292.963690552
 21
791.070284044
 31
0.0
  0
LINE
  8
0
  6
CONTINUOUS
 62
     1
 10
1292.963690552
 20
791.070284044
 30
0.0
 11
1287.963690552
 21
799.730538082
 31
0.0
  0
LINE
  8
0
  6
LTYPE3
 62
     2
 10
1391.3
 20
782.733974596
 30
0.0
 11
1407.3
 21
798.733974596
 31
0.0
  0
LINE
  8
0
  6
CONTINUOUS
 62
     1
 10
1394.636309448
 20
799.730538082
 30
0.0
 11
1404.636309448
 21
799.730538082
 31
0.0
  0
LINE
  8
0
  6
CONTINUOUS
 62
     1
 10
1404.636309448
 20
799.730538082
 30
0.0
 11
1409.636309448
 21
791.070284044
 31
0.0
  0
LINE
  8
0
  6
CONTINUOUS
 62
     1
 10
1409.636309448
 20
791.070284044
 30
0.0
 11
1404.636309448
 21
782.410030006
 31
0.0
  0
LINE
  8
0
  6
CONTINUOUS
 62
     1
 10
1404.636309448
 20
782.410030006
 30
0.0
 11
1394.636309448
 21
782.410030006
 31
0.0
  0
LINE
  8
0
  6
CONTINUOUS
 62
     1
 10
1394.636309448
 20
782.410030006
 30
0.0
 11
1389.636309448
 21
791.070284044
 31
0.0
  0
LINE
  8
0
  6
CONTINUOUS
 62
     1
 10
1389.636309448
 20
791.070284044
 30
0.0
 11
1394.636309448
 21
799.730538082
 31
0.0
  0
LINE
  8
0
  6
LTYPE3
 62
     2
 10
1291.3
 20
682.733974596
 30
0.0
 11
1275.3
 21
666.733974596
 31
0.0
  0
LINE
  8
0
  6
CONTINUOUS
 62
     1
 10
1287.963690552
 20
665.73741111
 30
0.0
 11
1277.963690552
 21
665.73741111
 31
0.0
  0
LINE
  8
0
  6
CONTINUOUS
 62
     1
 10
1277.963690552
 20
665.73741111
 30
0.0
 11
1272.963690552
 21
674.397665148
 31
0.0
  0
LINE
  8
0
  6
CONTINUOUS
 62
     1
 10
1272.963690552
 20
674.397665148
 30
0.0
 11
1277.963690552
 21
683.057919186
 31
0.0
  0
LINE
  8
0
  6
CONTINUOUS
 62
     1
 10
1277.963690552
 20
683.057919186
 30
0.0
 11
1287.963690552
 21
683.057919186
 31
0.0
  0
LINE
  8
0
  6
CONTINUOUS
 62
     1
 10
1287.963690552
 20
683.057919186
 30
0.0
 11
1292.963690552
 21
674.397665148
 31
0.0
  0
LINE
  8
0
  6
CONTINUOUS
 62
     1
 10
1292.963690552
 20
674.397665148
 30
0.0
 11
1287.963690552
 21
665.73741111
 31
0.0
  0
LINE
  8
0
  6
LTYPE3
 62
     2
 10
1391.3
 20
682.733974596
 30
0.0
 11
1407.3
 21
666.733974596
 31
0.0
  0
LINE
  8
0
  6
CONTINUOUS
 62
     1
 10
1394.636309448
 20
665.73741111
 30
0.0
 11
1404.636309448
 21
665.73741111
 31
0.0
  0
LINE
  8
0
  6
CONTINUOUS
 62
     1
 10
1404.636309448
 20
665.73741111
 30
0.0
 11
1409.636309448
 21
674.397665148
 31
0.0
  0
LINE
  8
0
  6
CONTINUOUS
 62
     1
 10
1409.636309448
 20
674.397665148
 30
0.0
 11
1404.636309448
 21
683.057919186
 31
0.0
  0
LINE
  8
0
  6
CONTINUOUS
 62
     1
 10
1404.636309448
 20
683.057919186
 30
0.0
 11
1394.636309448
 21
683.057919186
 31
0.0
  0
LINE
  8
0
  6
CONTINUOUS
 62
     1
 10
1394.636309448
 20
683.057919186
 30
0.0
 11
1389.636309448
 21
674.397665148
 31
0.0
  0
LINE
  8
0
  6
CONTINUOUS
 62
     1
 10
1389.636309448
 20
674.397665148
 30
0.0
 11
1394.636309448
 21
665.73741111
 31
0.0
  0
ARC
  8
0
  6
LTYPE3
 62
     2
 10
1341.3
 20
732.733974596
 30
0.0
 40
82.5
 50
213.899731785
 51
235.960335446
  0
ARC
  8
0
  6
LTYPE3
 62
     2
 10
1341.3
 20
732.733974596
 30
0.0
 40
82.5
 50
300.927939213
 51
327.087998905
  0
ARC
  8
0
  6
LTYPE3
 62
     2
 10
1341.3
 20
732.733974596
 30
0.0
 40
82.5
 50
122.095648245
 51
145.904134413
  0
ARC
  8
0
  6
LTYPE3
 62
     2
 10
1341.3
 20
732.733974596
 30
0.0
 40
82.5
 50
35.204140887
 51
56.44447448
  0
ARC
  8
0
  6
CONTINUOUS
 62
     1
 10
1341.3
 20
732.733974596
 30
0.0
 40
110.0
 50
113.578178478
 51
147.236242241
  0
ARC
  8
0
  6
CONTINUOUS
 62
     1
 10
1341.3
 20
732.733974596
 30
0.0
 40
110.0
 50
32.763757759
 51
66.421821522
  0
LINE
  8
0
  6
LTYPE2
 62
     2
 10
633.6
 20
556.733974596
 30
0.0
 11
245.9
 21
556.733974596
 31
0.0
  0
LINE
  8
0
  6
CONTINUOUS
 62
     2
 10
1378.8
 20
869.733974596
 30
0.0
 11
1555.792232957
 21
869.733974596
 31
0.0
  0
LINE
  8
2
  6
CONTINUOUS
 62
     2
 10
446.5
 20
379.608974596
 30
0.0
 11
434.425927171
 21
382.84421266
 31
0.0
  0
LINE
  8
2
  6
CONTINUOUS
 62
     2
 10
446.5
 20
379.608974596
 30
0.0
 11
434.425927171
 21
376.373736532
 31
0.0
  0
LINE
  8
2
  6
CONTINUOUS
 62
     2
 10
446.5
 20
379.608974596
 30
0.0
 11
361.5
 21
379.608974596
 31
0.0
  0
LINE
  8
2
  6
CONTINUOUS
 62
     2
 10
361.5
 20
379.608974596
 30
0.0
 11
373.574072829
 21
376.373736532
 31
0.0
  0
LINE
  8
2
  6
CONTINUOUS
 62
     2
 10
361.5
 20
379.608974596
 30
0.0
 11
373.574072829
 21
382.84421266
 31
0.0
  0
LINE
  8
2
  6
CONTINUOUS
 62
     2
 10
361.5
 20
457.733974596
 30
0.0
 11
361.5
 21
374.608974596
 31
0.0
  0
LINE
  8
2
  6
CONTINUOUS
 62
     2
 10
361.5
 20
379.608974596
 30
0.0
 11
349.425927171
 21
382.84421266
 31
0.0
  0
LINE
  8
2
  6
CONTINUOUS
 62
     2
 10
361.5
 20
379.608974596
 30
0.0
 11
349.425927171
 21
376.373736532
 31
0.0
  0
LINE
  8
2
  6
CONTINUOUS
 62
     2
 10
361.5
 20
379.608974596
 30
0.0
 11
249.5
 21
379.608974596
 31
0.0
  0
LINE
  8
2
  6
CONTINUOUS
 62
     2
 10
249.5
 20
379.608974596
 30
0.0
 11
261.574072829
 21
376.373736532
 31
0.0
  0
LINE
  8
2
  6
CONTINUOUS
 62
     2
 10
249.5
 20
379.608974596
 30
0.0
 11
261.574072829
 21
382.84421266
 31
0.0
  0
LINE
  8
7
  6
CONTINUOUS
 62
     2
 10
913.9
 20
492.183974596
 30
0.0
 11
913.9
 21
359.608974596
 31
0.0
  0
LINE
  8
0
  6
CONTINUOUS
 62
     1
 10
913.9
 20
501.733974596
 30
0.0
 11
575.5
 21
501.733974596
 31
0.0
  0
LINE
  8
2
  6
CONTINUOUS
 62
     2
 10
665.5
 20
611.733974596
 30
0.0
 11
662.264761936
 21
599.659901768
 31
0.0
  0
LINE
  8
2
  6
CONTINUOUS
 62
     2
 10
665.5
 20
611.733974596
 30
0.0
 11
668.735238064
 21
599.659901768
 31
0.0
  0
LINE
  8
2
  6
CONTINUOUS
 62
     2
 10
665.5
 20
611.733974596
 30
0.0
 11
665.5
 21
501.733974596
 31
0.0
  0
LINE
  8
2
  6
CONTINUOUS
 62
     2
 10
665.5
 20
501.733974596
 30
0.0
 11
668.735238064
 21
513.808047425
 31
0.0
  0
LINE
  8
2
  6
CONTINUOUS
 62
     2
 10
665.5
 20
501.733974596
 30
0.0
 11
662.264761936
 21
513.808047425
 31
0.0
  0
LINE
  8
2
  6
CONTINUOUS
 62
     2
 10
446.5
 20
344.475
 30
0.0
 11
458.574072829
 21
341.239761936
 31
0.0
  0
LINE
  8
2
  6
CONTINUOUS
 62
     2
 10
446.5
 20
344.475
 30
0.0
 11
458.574072829
 21
347.710238064
 31
0.0
  0
LINE
  8
2
  6
CONTINUOUS
 62
     2
 10
249.5
 20
339.475
 30
0.0
 11
249.5
 21
298.908974596
 31
0.0
  0
LINE
  8
2
  6
CONTINUOUS
 62
     2
 10
249.5
 20
308.908974596
 30
0.0
 11
261.574072829
 21
305.673736532
 31
0.0
  0
LINE
  8
2
  6
CONTINUOUS
 62
     2
 10
249.5
 20
308.908974596
 30
0.0
 11
261.574072829
 21
312.14421266
 31
0.0
  0
LINE
  8
0
  6
LTYPE3
 62
     2
 10
1341.3
 20
427.233974596
 30
0.0
 11
1341.3
 21
876.0
 31
0.0
  0
CIRCLE
  8
0
  6
CONTINUOUS
 62
     1
 10
1377.8
 20
556.733974596
 30
0.0
 40
2.0
  0
LINE
  8
0
  6
LTYPE4
 62
     2
 10
1377.7
 20
552.733974596
 30
0.0
 11
1377.7
 21
560.933974596
 31
0.0
  0
LINE
  8
0
  6
CONTINUOUS
 62
     1
 10
1381.8
 20
569.233974596
 30
0.0
 11
1375.8
 21
569.233974596
 31
0.0
  0
LINE
  8
0
  6
LTYPE1
 62
     2
 10
1375.8
 20
569.233974596
 30
0.0
 11
1356.3
 21
569.233974596
 31
0.0
  0
LINE
  8
0
  6
CONTINUOUS
 62
     1
 10
1381.8
 20
544.233974596
 30
0.0
 11
1375.8
 21
544.233974596
 31
0.0
  0
LINE
  8
0
  6
LTYPE1
 62
     2
 10
1375.8
 20
544.233974596
 30
0.0
 11
1356.3
 21
544.233974596
 31
0.0
  0
LINE
  8
0
  6
CONTINUOUS
 62
     1
 10
1375.8
 20
534.733974596
 30
0.0
 11
1371.3
 21
534.733974596
 31
0.0
  0
LINE
  8
0
  6
CONTINUOUS
 62
     1
 10
1375.8
 20
578.733974596
 30
0.0
 11
1371.3
 21
578.733974596
 31
0.0
  0
LINE
  8
0
  6
CONTINUOUS
 62
     1
 10
1356.3
 20
526.733974596
 30
0.0
 11
1356.3
 21
586.733974596
 31
0.0
  0
LINE
  8
0
  6
CONTINUOUS
 62
     1
 10
1371.3
 20
526.733974596
 30
0.0
 11
1371.3
 21
586.733974596
 31
0.0
  0
LINE
  8
0
  6
CONTINUOUS
 62
     1
 10
1375.8
 20
534.733974596
 30
0.0
 11
1375.8
 21
578.733974596
 31
0.0
  0
LINE
  8
0
  6
CONTINUOUS
 62
     1
 10
1381.8
 20
544.233974596
 30
0.0
 11
1381.8
 21
569.233974596
 31
0.0
  0
LINE
  8
0
  6
CONTINUOUS
 62
     1
 10
1371.3
 20
586.733974596
 30
0.0
 11
1341.3
 21
586.733974596
 31
0.0
  0
LINE
  8
0
  6
CONTINUOUS
 62
     1
 10
1356.3
 20
569.233974596
 30
0.0
 11
1341.3
 21
569.233974596
 31
0.0
  0
LINE
  8
0
  6
CONTINUOUS
 62
     1
 10
1356.3
 20
544.233974596
 30
0.0
 11
1341.3
 21
544.233974596
 31
0.0
  0
LINE
  8
0
  6
CONTINUOUS
 62
     1
 10
1371.3
 20
526.733974596
 30
0.0
 11
1341.3
 21
526.733974596
 31
0.0
  0
CIRCLE
  8
0
  6
CONTINUOUS
 62
     1
 10
1304.8
 20
556.733974596
 30
0.0
 40
2.0
  0
LINE
  8
0
  6
LTYPE4
 62
     2
 10
1304.9
 20
552.733974596
 30
0.0
 11
1304.9
 21
560.933974596
 31
0.0
  0
LINE
  8
0
  6
CONTINUOUS
 62
     1
 10
1300.8
 20
569.233974596
 30
0.0
 11
1306.8
 21
569.233974596
 31
0.0
  0
LINE
  8
0
  6
LTYPE1
 62
     2
 10
1306.8
 20
569.233974596
 30
0.0
 11
1326.3
 21
569.233974596
 31
0.0
  0
LINE
  8
0
  6
CONTINUOUS
 62
     1
 10
1300.8
 20
544.233974596
 30
0.0
 11
1306.8
 21
544.233974596
 31
0.0
  0
LINE
  8
0
  6
LTYPE1
 62
     2
 10
1306.8
 20
544.233974596
 30
0.0
 11
1326.3
 21
544.233974596
 31
0.0
  0
LINE
  8
0
  6
CONTINUOUS
 62
     1
 10
1306.8
 20
534.733974596
 30
0.0
 11
1311.3
 21
534.733974596
 31
0.0
  0
LINE
  8
0
  6
CONTINUOUS
 62
     1
 10
1306.8
 20
578.733974596
 30
0.0
 11
1311.3
 21
578.733974596
 31
0.0
  0
LINE
  8
0
  6
CONTINUOUS
 62
     1
 10
1326.3
 20
526.733974596
 30
0.0
 11
1326.3
 21
586.733974596
 31
0.0
  0
LINE
  8
0
  6
CONTINUOUS
 62
     1
 10
1311.3
 20
526.733974596
 30
0.0
 11
1311.3
 21
586.733974596
 31
0.0
  0
LINE
  8
0
  6
CONTINUOUS
 62
     1
 10
1306.8
 20
534.733974596
 30
0.0
 11
1306.8
 21
578.733974596
 31
0.0
  0
LINE
  8
0
  6
CONTINUOUS
 62
     1
 10
1300.8
 20
544.233974596
 30
0.0
 11
1300.8
 21
569.233974596
 31
0.0
  0
LINE
  8
0
  6
CONTINUOUS
 62
     1
 10
1311.3
 20
586.733974596
 30
0.0
 11
1341.3
 21
586.733974596
 31
0.0
  0
LINE
  8
0
  6
CONTINUOUS
 62
     1
 10
1326.3
 20
569.233974596
 30
0.0
 11
1341.3
 21
569.233974596
 31
0.0
  0
LINE
  8
0
  6
CONTINUOUS
 62
     1
 10
1326.3
 20
544.233974596
 30
0.0
 11
1341.3
 21
544.233974596
 31
0.0
  0
LINE
  8
0
  6
CONTINUOUS
 62
     1
 10
1311.3
 20
526.733974596
 30
0.0
 11
1341.3
 21
526.733974596
 31
0.0
  0
ARC
  8
0
  6
CONTINUOUS
 62
     1
 10
1341.3
 20
721.733974596
 30
0.0
 40
105.0
 50
248.960530219
 51
250.314945175
  0
ARC
  8
0
  6
CONTINUOUS
 62
     1
 10
1341.3
 20
721.733974596
 30
0.0
 40
105.0
 50
289.685054825
 51
291.039469781
  0
ARC
  8
0
  6
CONTINUOUS
 62
     1
 10
1394.3
 20
609.733974596
 30
0.0
 40
9.0
 50
0.0
 51
138.144191404
  0
ARC
  8
0
  6
CONTINUOUS
 62
     1
 10
1394.3
 20
609.733974596
 30
0.0
 40
9.0
 50
311.855808596
 51
0.0
  0
ARC
  8
0
  6
CONTINUOUS
 62
     1
 10
1288.3
 20
609.733974596
 30
0.0
 40
9.0
 50
41.855808596
 51
228.144191404
  0
LINE
  8
0
  6
CONTINUOUS
 62
     1
 10
1246.3
 20
579.733974596
 30
0.0
 11
1270.960476335
 21
582.759950286
 31
0.0
  0
LINE
  8
0
  6
CONTINUOUS
 62
     1
 10
1274.3
 20
590.438573689
 30
0.0
 11
1274.3
 21
615.733974596
 31
0.0
  0
LINE
  8
0
  6
CONTINUOUS
 62
     1
 10
1274.3
 20
497.733974596
 30
0.0
 11
1274.3
 21
523.029375504
 31
0.0
  0
ARC
  8
0
  6
CONTINUOUS
 62
     1
 10
1288.3
 20
503.733974596
 30
0.0
 40
9.0
 50
131.855808596
 51
318.144191404
  0
LINE
  8
0
  6
CONTINUOUS
 62
     1
 10
1296.3
 20
490.733974596
 30
0.0
 11
1296.3
 21
496.733974596
 31
0.0
  0
LINE
  8
0
  6
CONTINUOUS
 62
     1
 10
1293.3
 20
489.233974596
 30
0.0
 11
1308.608257923
 21
489.233974596
 31
0.0
  0
LINE
  8
0
  6
CONTINUOUS
 62
     1
 10
1373.991742077
 20
489.233974596
 30
0.0
 11
1389.3
 21
489.233974596
 31
0.0
  0
LINE
  8
0
  6
CONTINUOUS
 62
     1
 10
1386.3
 20
490.733974596
 30
0.0
 11
1386.3
 21
496.733974596
 31
0.0
  0
LINE
  8
0
  6
CONTINUOUS
 62
     1
 10
1436.3
 20
533.733974596
 30
0.0
 11
1411.639523665
 21
530.707998907
 31
0.0
  0
LINE
  8
0
  6
CONTINUOUS
 62
     1
 10
1408.3
 20
497.733974596
 30
0.0
 11
1408.3
 21
523.029375504
 31
0.0
  0
LINE
  8
0
  6
CONTINUOUS
 62
     1
 10
1436.3
 20
579.733974596
 30
0.0
 11
1411.639523665
 21
582.759950286
 31
0.0
  0
LINE
  8
0
  6
CONTINUOUS
 62
     1
 10
1408.3
 20
590.438573689
 30
0.0
 11
1408.3
 21
615.733974596
 31
0.0
  0
ARC
  8
0
  6
LTYPE1
 62
     2
 10
1288.3
 20
609.733974596
 30
0.0
 40
9.0
 50
0.0
 51
41.855808596
  0
ARC
  8
0
  6
LTYPE1
 62
     2
 10
1288.3
 20
503.733974596
 30
0.0
 40
9.0
 50
318.144191404
 51
334.165016937
  0
LINE
  8
0
  6
CONTINUOUS
 62
     1
 10
1296.3
 20
490.733974596
 30
0.0
 11
1305.676973739
 21
490.733974596
 31
0.0
  0
LINE
  8
0
  6
CONTINUOUS
 62
     1
 10
1376.923026261
 20
490.733974596
 30
0.0
 11
1386.3
 21
490.733974596
 31
0.0
  0
LINE
  8
0
  6
CONTINUOUS
 62
     1
 10
883.9
 20
501.733974596
 30
0.0
 11
883.9
 21
611.733974596
 31
0.0
  0
LINE
  8
0
  6
CONTINUOUS
 62
     1
 10
913.9
 20
501.733974596
 30
0.0
 11
913.9
 21
611.733974596
 31
0.0
  0
LINE
  8
0
  6
CONTINUOUS
 62
     1
 10
913.9
 20
611.733974596
 30
0.0
 11
575.5
 21
611.733974596
 31
0.0
  0
LINE
  8
0
  6
LTYPE2
 62
     2
 10
1095.023026261
 20
556.733974596
 30
0.0
 11
680.1
 21
556.733974596
 31
0.0
  0
LINE
  8
0
  6
CONTINUOUS
 62
     1
 10
1274.3
 20
582.056200733
 30
0.0
 11
1274.3
 21
590.438573689
 31
0.0
  0
ARC
  8
0
  6
CONTINUOUS
 62
     1
 10
1288.3
 20
609.733974596
 30
0.0
 40
9.0
 50
228.144191404
 51
0.0
  0
ARC
  8
0
  6
CONTINUOUS
 62
     1
 10
1394.3
 20
609.733974596
 30
0.0
 40
9.0
 50
138.144191404
 51
311.855808596
  0
LINE
  8
0
  6
CONTINUOUS
 62
     1
 10
1408.3
 20
582.556200733
 30
0.0
 11
1408.3
 21
590.438573689
 31
0.0
  0
LINE
  8
0
  6
CONTINUOUS
 62
     1
 10
1246.3
 20
533.733974596
 30
0.0
 11
1270.960476335
 21
530.707998907
 31
0.0
  0
LINE
  8
0
  6
CONTINUOUS
 62
     1
 10
1274.3
 20
523.029375504
 30
0.0
 11
1274.3
 21
530.056200733
 31
0.0
  0
ARC
  8
0
  6
CONTINUOUS
 62
     1
 10
1288.3
 20
503.733974596
 30
0.0
 40
9.0
 50
24.386100197
 51
131.855808596
  0
LINE
  8
0
  6
CONTINUOUS
 62
     1
 10
1305.676973739
 20
490.733974596
 30
0.0
 11
1376.923026261
 21
490.733974596
 31
0.0
  0
LINE
  8
0
  6
CONTINUOUS
 62
     1
 10
1308.608257923
 20
489.233974596
 30
0.0
 11
1373.991742077
 21
489.233974596
 31
0.0
  0
ARC
  8
0
  6
CONTINUOUS
 62
     1
 10
1394.3
 20
503.733974596
 30
0.0
 40
9.0
 50
48.144191404
 51
155.613899803
  0
ARC
  8
0
  6
CONTINUOUS
 62
     1
 10
1394.3
 20
503.733974596
 30
0.0
 40
9.0
 50
221.855808596
 51
48.144191404
  0
ARC
  8
0
  6
CONTINUOUS
 62
     1
 10
1394.3
 20
503.733974596
 30
0.0
 40
9.0
 50
202.863808572
 51
221.855808596
  0
LINE
  8
0
  6
CONTINUOUS
 62
     1
 10
1408.3
 20
523.029375504
 30
0.0
 11
1408.3
 21
530.91174846
 31
0.0
  0
CIRCLE
  8
0
  6
CONTINUOUS
 62
     1
 10
1341.3
 20
556.733974596
 30
0.0
 40
55.0
  0
LINE
  8
0
  6
LTYPE4
 62
     2
 10
1243.7
 20
556.733974596
 30
0.0
 11
1457.7
 21
556.733974596
 31
0.0
  0
LINE
  8
0
  6
CONTINUOUS
 62
     1
 10
1336.3
 20
617.733974596
 30
0.0
 11
1346.3
 21
617.733974596
 31
0.0
  0
LINE
  8
0
  6
CONTINUOUS
 62
     1
 10
1336.3
 20
617.733974596
 30
0.0
 11
1336.3
 21
621.54138158
 31
0.0
  0
LINE
  8
0
  6
CONTINUOUS
 62
     1
 10
1346.3
 20
617.733974596
 30
0.0
 11
1346.3
 21
621.54138158
 31
0.0
  0
LINE
  8
0
  6
CONTINUOUS
 62
     1
 10
1290.972450369
 20
521.903847577
 30
0.0
 11
1285.972450369
 21
530.564101615
 31
0.0
  0
LINE
  8
0
  6
CONTINUOUS
 62
     1
 10
1396.627549631
 20
530.564101615
 30
0.0
 11
1391.627549631
 21
521.903847577
 31
0.0
  0
LINE
  8
0
  6
CONTINUOUS
 62
     1
 10
1270.960476335
 20
530.707998907
 30
0.0
 11
1282.369366983
 21
529.308065456
 31
0.0
  0
LINE
  8
0
  6
CONTINUOUS
 62
     1
 10
1296.3
 20
496.733974596
 30
0.0
 11
1296.3
 21
509.829816998
 31
0.0
  0
LINE
  8
0
  6
CONTINUOUS
 62
     1
 10
1386.3
 20
496.733974596
 30
0.0
 11
1386.3
 21
509.829816998
 31
0.0
  0
LINE
  8
0
  6
CONTINUOUS
 62
     1
 10
1411.639523665
 20
530.707998907
 30
0.0
 11
1399.924860802
 21
529.270545528
 31
0.0
  0
LINE
  8
0
  6
CONTINUOUS
 62
     1
 10
1391.627549631
 20
521.903847577
 30
0.0
 11
1394.924860802
 21
520.000144085
 31
0.0
  0
LINE
  8
0
  6
CONTINUOUS
 62
     1
 10
1396.627549631
 20
530.564101615
 30
0.0
 11
1399.924860802
 21
528.660398123
 31
0.0
  0
ARC
  8
0
  6
CONTINUOUS
 62
     1
 10
1341.3
 20
556.733974596
 30
0.0
 40
65.0
 50
334.411725786
 51
85.588274214
  0
ARC
  8
0
  6
CONTINUOUS
 62
     1
 10
1341.3
 20
556.733974596
 30
0.0
 40
65.0
 50
94.411725786
 51
205.588274214
  0
LINE
  8
0
  6
CONTINUOUS
 62
     1
 10
1285.972450369
 20
530.564101615
 30
0.0
 11
1282.675139198
 21
528.660398123
 31
0.0
  0
LINE
  8
0
  6
CONTINUOUS
 62
     1
 10
1290.972450369
 20
521.903847577
 30
0.0
 11
1287.675139198
 21
520.000144085
 31
0.0
  0
ARC
  8
0
  6
CONTINUOUS
 62
     1
 10
1341.3
 20
556.733974596
 30
0.0
 40
65.0
 50
214.411725786
 51
325.588274214
  0
LINE
  8
0
  6
CONTINUOUS
 62
     1
 10
1411.639523665
 20
582.759950286
 30
0.0
 11
1400.230633017
 21
584.159883737
 31
0.0
  0
LINE
  8
0
  6
CONTINUOUS
 62
     1
 10
1270.960476335
 20
582.759950286
 30
0.0
 11
1282.369366983
 21
584.159883737
 31
0.0
  0
LINE
  8
0
  6
CONTINUOUS
 62
     1
 10
973.9
 20
761.483974596
 30
0.0
 11
973.9
 21
776.483974596
 31
0.0
  0
LINE
  8
0
  6
CONTINUOUS
 62
     1
 10
958.9
 20
761.483974596
 30
0.0
 11
958.9
 21
791.483974596
 31
0.0
  0
LINE
  8
0
  6
CONTINUOUS
 62
     1
 10
973.9
 20
761.483974596
 30
0.0
 11
973.9
 21
746.483974596
 31
0.0
  0
LINE
  8
2
  6
CONTINUOUS
 62
     2
 10
958.9
 20
710.983974596
 30
0.0
 11
958.9
 21
639.683974596
 31
0.0
  0
LINE
  8
2
  6
CONTINUOUS
 62
     2
 10
958.9
 20
649.683974596
 30
0.0
 11
946.825927171
 21
652.91921266
 31
0.0
  0
LINE
  8
2
  6
CONTINUOUS
 62
     2
 10
958.9
 20
649.683974596
 30
0.0
 11
946.825927171
 21
646.448736532
 31
0.0
  0
LINE
  8
2
  6
CONTINUOUS
 62
     2
 10
906.65
 20
649.683974596
 30
0.0
 11
958.9
 21
649.683974596
 31
0.0
  0
LINE
  8
2
  6
CONTINUOUS
 62
     2
 10
958.9
 20
649.683974596
 30
0.0
 11
973.9
 21
649.683974596
 31
0.0
  0
LINE
  8
2
  6
CONTINUOUS
 62
     2
 10
973.9
 20
741.483974596
 30
0.0
 11
973.9
 21
639.683974596
 31
0.0
  0
LINE
  8
0
  6
CONTINUOUS
 62
     1
 10
1006.4
 20
761.483974596
 30
0.0
 11
1006.4
 21
776.483974596
 31
0.0
  0
LINE
  8
0
  6
CONTINUOUS
 62
     1
 10
1031.4
 20
761.483974596
 30
0.0
 11
1031.4
 21
776.483974596
 31
0.0
  0
LINE
  8
0
  6
CONTINUOUS
 62
     1
 10
996.9
 20
795.983974596
 30
0.0
 11
1040.9
 21
795.983974596
 31
0.0
  0
LINE
  8
0
  6
CONTINUOUS
 62
     1
 10
1006.4
 20
801.983974596
 30
0.0
 11
1031.4
 21
801.983974596
 31
0.0
  0
LINE
  8
0
  6
CONTINUOUS
 62
     1
 10
1031.4
 20
801.983974596
 30
0.0
 11
1031.4
 21
795.983974596
 31
0.0
  0
LINE
  8
0
  6
CONTINUOUS
 62
     1
 10
1006.4
 20
801.983974596
 30
0.0
 11
1006.4
 21
795.983974596
 31
0.0
  0
LINE
  8
0
  6
CONTINUOUS
 62
     1
 10
1040.9
 20
795.983974596
 30
0.0
 11
1040.9
 21
791.483974596
 31
0.0
  0
LINE
  8
0
  6
CONTINUOUS
 62
     1
 10
996.9
 20
795.983974596
 30
0.0
 11
996.9
 21
791.483974596
 31
0.0
  0
CIRCLE
  8
0
  6
CONTINUOUS
 62
     1
 10
1018.9
 20
797.983974596
 30
0.0
 40
2.0
  0
LINE
  8
0
  6
LTYPE4
 62
     2
 10
1014.9
 20
797.883974596
 30
0.0
 11
1023.1
 21
797.883974596
 31
0.0
  0
LINE
  8
0
  6
LTYPE1
 62
     2
 10
1031.4
 20
791.483974596
 30
0.0
 11
1031.4
 21
776.483974596
 31
0.0
  0
LINE
  8
0
  6
LTYPE1
 62
     2
 10
1006.4
 20
791.483974596
 30
0.0
 11
1006.4
 21
776.483974596
 31
0.0
  0
LINE
  8
0
  6
LTYPE4
 62
     2
 10
1018.9
 20
806.383974596
 30
0.0
 11
1018.9
 21
761.483974596
 31
0.0
  0
LINE
  8
0
  6
CONTINUOUS
 62
     1
 10
1006.4
 20
761.483974596
 30
0.0
 11
1006.4
 21
746.483974596
 31
0.0
  0
LINE
  8
0
  6
CONTINUOUS
 62
     1
 10
1031.4
 20
761.483974596
 30
0.0
 11
1031.4
 21
746.483974596
 31
0.0
  0
LINE
  8
0
  6
CONTINUOUS
 62
     1
 10
996.9
 20
726.983974596
 30
0.0
 11
1040.9
 21
726.983974596
 31
0.0
  0
LINE
  8
0
  6
CONTINUOUS
 62
     1
 10
1006.4
 20
720.983974596
 30
0.0
 11
1031.4
 21
720.983974596
 31
0.0
  0
LINE
  8
0
  6
CONTINUOUS
 62
     1
 10
1031.4
 20
720.983974596
 30
0.0
 11
1031.4
 21
726.983974596
 31
0.0
  0
LINE
  8
0
  6
CONTINUOUS
 62
     1
 10
1006.4
 20
720.983974596
 30
0.0
 11
1006.4
 21
726.983974596
 31
0.0
  0
LINE
  8
0
  6
CONTINUOUS
 62
     1
 10
1040.9
 20
726.983974596
 30
0.0
 11
1040.9
 21
731.483974596
 31
0.0
  0
LINE
  8
0
  6
CONTINUOUS
 62
     1
 10
996.9
 20
726.983974596
 30
0.0
 11
996.9
 21
731.483974596
 31
0.0
  0
CIRCLE
  8
0
  6
CONTINUOUS
 62
     1
 10
1018.9
 20
724.983974596
 30
0.0
 40
2.0
  0
LINE
  8
0
  6
LTYPE4
 62
     2
 10
1014.9
 20
725.083974596
 30
0.0
 11
1023.1
 21
725.083974596
 31
0.0
  0
LINE
  8
0
  6
LTYPE1
 62
     2
 10
1031.4
 20
731.483974596
 30
0.0
 11
1031.4
 21
746.483974596
 31
0.0
  0
LINE
  8
0
  6
LTYPE1
 62
     2
 10
1006.4
 20
731.483974596
 30
0.0
 11
1006.4
 21
746.483974596
 31
0.0
  0
LINE
  8
0
  6
LTYPE4
 62
     2
 10
1018.9
 20
716.583974596
 30
0.0
 11
1018.9
 21
761.483974596
 31
0.0
  0
LINE
  8
0
  6
LTYPE2
 62
     2
 10
1049.95
 20
761.483974596
 30
0.0
 11
905.3
 21
761.483974596
 31
0.0
  0
LINE
  8
2
  6
CONTINUOUS
 62
     2
 10
973.9
 20
649.683974596
 30
0.0
 11
985.974072829
 21
646.448736532
 31
0.0
  0
LINE
  8
2
  6
CONTINUOUS
 62
     2
 10
973.9
 20
649.683974596
 30
0.0
 11
985.974072829
 21
652.91921266
 31
0.0
  0
LINE
  8
2
  6
CONTINUOUS
 62
     2
 10
973.9
 20
649.683974596
 30
0.0
 11
1018.9
 21
649.683974596
 31
0.0
  0
LINE
  8
2
  6
CONTINUOUS
 62
     2
 10
1018.9
 20
649.683974596
 30
0.0
 11
1006.825927171
 21
652.91921266
 31
0.0
  0
LINE
  8
2
  6
CONTINUOUS
 62
     2
 10
1018.9
 20
649.683974596
 30
0.0
 11
1006.825927171
 21
646.448736532
 31
0.0
  0
LINE
  8
2
  6
CONTINUOUS
 62
     2
 10
1018.9
 20
711.583974596
 30
0.0
 11
1018.9
 21
639.683974596
 31
0.0
  0
LINE
  8
0
  6
CONTINUOUS
 62
     1
 10
1048.9
 20
791.483974596
 30
0.0
 11
1048.9
 21
776.483974596
 31
0.0
  0
LINE
  8
0
  6
CONTINUOUS
 62
     1
 10
1048.9
 20
731.483974596
 30
0.0
 11
1048.9
 21
746.483974596
 31
0.0
  0
LINE
  8
0
  6
CONTINUOUS
 62
     1
 10
973.9
 20
776.483974596
 30
0.0
 11
1048.9
 21
776.483974596
 31
0.0
  0
LINE
  8
0
  6
CONTINUOUS
 62
     1
 10
973.9
 20
746.483974596
 30
0.0
 11
1048.9
 21
746.483974596
 31
0.0
  0
LINE
  8
2
  6
CONTINUOUS
 62
     2
 10
1053.9
 20
776.483974596
 30
0.0
 11
1108.27
 21
776.483974596
 31
0.0
  0
LINE
  8
2
  6
CONTINUOUS
 62
     2
 10
1098.27
 20
776.483974596
 30
0.0
 11
1095.034761936
 21
764.409901768
 31
0.0
  0
LINE
  8
2
  6
CONTINUOUS
 62
     2
 10
1098.27
 20
776.483974596
 30
0.0
 11
1101.505238064
 21
764.409901768
 31
0.0
  0
LINE
  8
2
  6
CONTINUOUS
 62
     2
 10
1098.27
 20
776.483974596
 30
0.0
 11
1098.27
 21
746.483974596
 31
0.0
  0
LINE
  8
2
  6
CONTINUOUS
 62
     2
 10
1098.27
 20
746.483974596
 30
0.0
 11
1101.505238064
 21
758.558047425
 31
0.0
  0
LINE
  8
2
  6
CONTINUOUS
 62
     2
 10
1098.27
 20
746.483974596
 30
0.0
 11
1095.034761936
 21
758.558047425
 31
0.0
  0
LINE
  8
2
  6
CONTINUOUS
 62
     2
 10
1053.9
 20
746.483974596
 30
0.0
 11
1108.27
 21
746.483974596
 31
0.0
  0
LINE
  8
2
  6
CONTINUOUS
 62
     2
 10
1053.9
 20
791.483974596
 30
0.0
 11
1157.0
 21
791.483974596
 31
0.0
  0
LINE
  8
2
  6
CONTINUOUS
 62
     2
 10
1147.0
 20
791.483974596
 30
0.0
 11
1143.764761936
 21
779.409901768
 31
0.0
  0
LINE
  8
2
  6
CONTINUOUS
 62
     2
 10
1147.0
 20
791.483974596
 30
0.0
 11
1150.235238064
 21
779.409901768
 31
0.0
  0
LINE
  8
2
  6
CONTINUOUS
 62
     2
 10
1147.0
 20
791.483974596
 30
0.0
 11
1147.0
 21
731.483974596
 31
0.0
  0
LINE
  8
2
  6
CONTINUOUS
 62
     2
 10
1147.0
 20
731.483974596
 30
0.0
 11
1150.235238064
 21
743.558047425
 31
0.0
  0
LINE
  8
2
  6
CONTINUOUS
 62
     2
 10
1147.0
 20
731.483974596
 30
0.0
 11
1143.764761936
 21
743.558047425
 31
0.0
  0
LINE
  8
2
  6
CONTINUOUS
 62
     2
 10
1053.9
 20
731.483974596
 30
0.0
 11
1157.0
 21
731.483974596
 31
0.0
  0
LINE
  8
0
  6
CONTINUOUS
 62
     1
 10
958.9
 20
791.483974596
 30
0.0
 11
958.9
 21
731.483974596
 31
0.0
  0
LINE
  8
0
  6
CONTINUOUS
 62
     1
 10
958.9
 20
761.483974596
 30
0.0
 11
958.9
 21
731.483974596
 31
0.0
  0
LINE
  8
0
  6
LTYPE1
 62
     2
 10
973.9
 20
526.733974596
 30
0.0
 11
973.9
 21
586.733974596
 31
0.0
  0
CIRCLE
  8
0
  6
CONTINUOUS
 62
     1
 10
1018.9
 20
556.733974596
 30
0.0
 40
12.5
  0
CIRCLE
  8
0
  6
CONTINUOUS
 62
     1
 10
1018.9
 20
556.733974596
 30
0.0
 40
22.0
  0
CIRCLE
  8
0
  6
CONTINUOUS
 62
     1
 10
1018.9
 20
572.233974596
 30
0.0
 40
3.0
  0
LINE
  8
0
  6
LTYPE4
 62
     2
 10
1018.9
 20
531.733974596
 30
0.0
 11
1018.9
 21
586.533974596
 31
0.0
  0
ARC
  8
0
  6
CONTINUOUS
 62
     1
 10
1040.9
 20
578.733974596
 30
0.0
 40
8.0
 50
0.0
 51
90.0
  0
LINE
  8
0
  6
CONTINUOUS
 62
     1
 10
1048.9
 20
534.733974596
 30
0.0
 11
1048.9
 21
578.733974596
 31
0.0
  0
LINE
  8
0
  6
CONTINUOUS
 62
     1
 10
958.9
 20
586.733974596
 30
0.0
 11
1040.9
 21
586.733974596
 31
0.0
  0
LINE
  8
2
  6
CONTINUOUS
 62
     2
 10
1045.900015259
 20
586.733974596
 30
0.0
 11
1150.2
 21
586.733974596
 31
0.0
  0
LINE
  8
2
  6
CONTINUOUS
 62
     2
 10
1140.2
 20
586.733974596
 30
0.0
 11
1136.964761936
 21
574.659901768
 31
0.0
  0
LINE
  8
2
  6
CONTINUOUS
 62
     2
 10
1140.2
 20
586.733974596
 30
0.0
 11
1143.435238064
 21
574.659901768
 31
0.0
  0
LINE
  8
2
  6
CONTINUOUS
 62
     2
 10
1140.2
 20
586.733974596
 30
0.0
 11
1140.2
 21
526.733974596
 31
0.0
  0
LINE
  8
0
  6
CONTINUOUS
 62
     1
 10
958.9
 20
586.733974596
 30
0.0
 11
958.9
 21
526.733974596
 31
0.0
  0
LINE
  8
7
  6
CONTINUOUS
 62
     2
 10
958.9
 20
379.608974596
 30
0.0
 11
946.825927171
 21
382.84421266
 31
0.0
  0
LINE
  8
7
  6
CONTINUOUS
 62
     2
 10
958.9
 20
379.608974596
 30
0.0
 11
946.825927171
 21
376.373736532
 31
0.0
  0
LINE
  8
0
  6
CONTINUOUS
 62
     1
 10
1014.7
 20
539.933974596
 30
0.0
 11
1016.7
 21
539.633974596
 31
0.0
  0
LINE
  8
0
  6
CONTINUOUS
 62
     1
 10
1017.2
 20
544.333974596
 30
0.0
 11
1016.964615385
 21
542.764743827
 31
0.0
  0
LINE
  8
0
  6
CONTINUOUS
 62
     1
 10
1016.964615385
 20
542.764743827
 30
0.0
 11
1014.7
 21
539.933974596
 31
0.0
  0
LINE
  8
0
  6
CONTINUOUS
 62
     1
 10
1018.9
 20
542.333974596
 30
0.0
 11
1016.7
 21
539.633974596
 31
0.0
  0
LINE
  8
0
  6
CONTINUOUS
 62
     1
 10
1023.1
 20
539.933974596
 30
0.0
 11
1021.1
 21
539.633974596
 31
0.0
  0
LINE
  8
0
  6
CONTINUOUS
 62
     1
 10
1020.6
 20
544.333974596
 30
0.0
 11
1020.835384615
 21
542.764743827
 31
0.0
  0
LINE
  8
0
  6
CONTINUOUS
 62
     1
 10
1020.835384615
 20
542.764743827
 30
0.0
 11
1023.1
 21
539.933974596
 31
0.0
  0
LINE
  8
0
  6
CONTINUOUS
 62
     1
 10
1018.9
 20
542.333974596
 30
0.0
 11
1021.1
 21
539.633974596
 31
0.0
  0
LINE
  8
7
  6
CONTINUOUS
 62
     2
 10
1025.2
 20
546.783974596
 30
0.0
 11
1025.921121805
 21
534.304792598
 31
0.0
  0
LINE
  8
7
  6
CONTINUOUS
 62
     2
 10
1025.2
 20
546.783974596
 30
0.0
 11
1032.064100802
 21
536.33724687
 31
0.0
  0
LINE
  8
7
  6
CONTINUOUS
 62
     2
 10
1025.2
 20
546.783974596
 30
0.0
 11
1065.3
 21
425.583974596
 31
0.0
  0
LINE
  8
7
  6
CONTINUOUS
 62
     2
 10
1065.3
 20
425.583974596
 30
0.0
 11
1153.8
 21
425.583974596
 31
0.0
  0
ARC
  8
0
  6
CONTINUOUS
 62
     1
 10
1040.9
 20
534.733974596
 30
0.0
 40
8.0
 50
270.0
 51
0.0
  0
LINE
  8
0
  6
CONTINUOUS
 62
     1
 10
958.9
 20
526.733974596
 30
0.0
 11
1040.9
 21
526.733974596
 31
0.0
  0
LINE
  8
2
  6
CONTINUOUS
 62
     2
 10
1140.2
 20
526.733974596
 30
0.0
 11
1143.435238064
 21
538.808047425
 31
0.0
  0
LINE
  8
2
  6
CONTINUOUS
 62
     2
 10
1140.2
 20
526.733974596
 30
0.0
 11
1136.964761936
 21
538.808047425
 31
0.0
  0
LINE
  8
2
  6
CONTINUOUS
 62
     2
 10
1045.900015259
 20
526.733974596
 30
0.0
 11
1150.2
 21
526.733974596
 31
0.0
  0
LINE
  8
2
  6
CONTINUOUS
 62
     2
 10
958.9
 20
379.608974596
 30
0.0
 11
970.974072829
 21
376.373736532
 31
0.0
  0
LINE
  8
2
  6
CONTINUOUS
 62
     2
 10
958.9
 20
379.608974596
 30
0.0
 11
970.974072829
 21
382.84421266
 31
0.0
  0
LINE
  8
2
  6
CONTINUOUS
 62
     2
 10
958.9
 20
379.608974596
 30
0.0
 11
1018.9
 21
379.608974596
 31
0.0
  0
LINE
  8
2
  6
CONTINUOUS
 62
     2
 10
1018.9
 20
379.608974596
 30
0.0
 11
1006.825927171
 21
382.84421266
 31
0.0
  0
LINE
  8
2
  6
CONTINUOUS
 62
     2
 10
1018.9
 20
379.608974596
 30
0.0
 11
1006.825927171
 21
376.373736532
 31
0.0
  0
LINE
  8
2
  6
CONTINUOUS
 62
     2
 10
1018.9
 20
526.733974596
 30
0.0
 11
1018.9
 21
369.608974596
 31
0.0
  0
LINE
  8
2
  6
CONTINUOUS
 62
     2
 10
1018.9
 20
374.608974596
 30
0.0
 11
1018.9
 21
334.475
 31
0.0
  0
LINE
  8
2
  6
CONTINUOUS
 62
     2
 10
1048.9
 20
529.733985386
 30
0.0
 11
1048.9
 21
298.908974596
 31
0.0
  0
LINE
  8
7
  6
CONTINUOUS
 62
     2
 10
958.9
 20
520.233974596
 30
0.0
 11
958.9
 21
359.608974596
 31
0.0
  0
LINE
  8
2
  6
CONTINUOUS
 62
     2
 10
1018.9
 20
344.475
 30
0.0
 11
1006.825927171
 21
347.710238064
 31
0.0
  0
LINE
  8
2
  6
CONTINUOUS
 62
     2
 10
1018.9
 20
344.475
 30
0.0
 11
1006.825927171
 21
341.239761936
 31
0.0
  0
LINE
  8
2
  6
CONTINUOUS
 62
     2
 10
1018.9
 20
308.908974596
 30
0.0
 11
1006.825927171
 21
312.14421266
 31
0.0
  0
LINE
  8
2
  6
CONTINUOUS
 62
     2
 10
1018.9
 20
339.475
 30
0.0
 11
1018.9
 21
298.908974596
 31
0.0
  0
LINE
  8
2
  6
CONTINUOUS
 62
     2
 10
1018.9
 20
308.908974596
 30
0.0
 11
1030.974072829
 21
312.14421266
 31
0.0
  0
LINE
  8
2
  6
CONTINUOUS
 62
     2
 10
1048.9
 20
308.908974596
 30
0.0
 11
1036.825927171
 21
312.14421266
 31
0.0
  0
LINE
  8
2
  6
CONTINUOUS
 62
     2
 10
1018.9
 20
308.908974596
 30
0.0
 11
1006.825927171
 21
305.673736532
 31
0.0
  0
LINE
  8
2
  6
CONTINUOUS
 62
     2
 10
1018.9
 20
308.908974596
 30
0.0
 11
1030.974072829
 21
305.673736532
 31
0.0
  0
LINE
  8
2
  6
CONTINUOUS
 62
     2
 10
1048.9
 20
308.908974596
 30
0.0
 11
1036.825927171
 21
305.673736532
 31
0.0
  0
LINE
  8
0
  6
CONTINUOUS
 62
     1
 10
958.9
 20
586.733974596
 30
0.0
 11
913.9
 21
586.733974596
 31
0.0
  0
LINE
  8
0
  6
CONTINUOUS
 62
     1
 10
958.9
 20
526.733974596
 30
0.0
 11
913.9
 21
526.733974596
 31
0.0
  0
LINE
  8
0
  6
CONTINUOUS
 62
     1
 10
913.9
 20
731.483974596
 30
0.0
 11
1048.9
 21
731.483974596
 31
0.0
  0
LINE
  8
0
  6
CONTINUOUS
 62
     1
 10
913.9
 20
791.483974596
 30
0.0
 11
1048.9
 21
791.483974596
 31
0.0
  0
LINE
  8
7
  6
CONTINUOUS
 62
     2
 10
913.9
 20
379.608974596
 30
0.0
 11
958.9
 21
379.608974596
 31
0.0
  0
LINE
  8
7
  6
CONTINUOUS
 62
     2
 10
446.5
 20
379.608974596
 30
0.0
 11
913.9
 21
379.608974596
 31
0.0
  0
LINE
  8
2
  6
CONTINUOUS
 62
     2
 10
446.5
 20
344.475
 30
0.0
 11
1018.9
 21
344.475
 31
0.0
  0
LINE
  8
2
  6
CONTINUOUS
 62
     2
 10
249.5
 20
308.908974596
 30
0.0
 11
1018.9
 21
308.908974596
 31
0.0
  0
LINE
  8
2
  6
CONTINUOUS
 62
     2
 10
1018.9
 20
308.908974596
 30
0.0
 11
1048.9
 21
308.908974596
 31
0.0
  0
LINE
  8
0
  6
CONTINUOUS
 62
     2
 10
1519.3
 20
437.733974596
 30
0.0
 11
1522.535238064
 21
449.808047425
 31
0.0
  0
LINE
  8
0
  6
CONTINUOUS
 62
     2
 10
1519.3
 20
437.733974596
 30
0.0
 11
1516.064761936
 21
449.808047425
 31
0.0
  0
LINE
  8
0
  6
CONTINUOUS
 62
     2
 10
1524.3
 20
437.733974596
 30
0.0
 11
1557.05
 21
437.733974596
 31
0.0
  0
LINE
  8
0
  6
CONTINUOUS
 62
     2
 10
1519.3
 20
556.733974596
 30
0.0
 11
1516.064761936
 21
544.659901768
 31
0.0
  0
LINE
  8
0
  6
CONTINUOUS
 62
     2
 10
1519.3
 20
556.733974596
 30
0.0
 11
1522.535238064
 21
544.659901768
 31
0.0
  0
LINE
  8
0
  6
CONTINUOUS
 62
     2
 10
1519.3
 20
556.733974596
 30
0.0
 11
1519.3
 21
437.733974596
 31
0.0
  0
LINE
  8
0
  6
CONTINUOUS
 62
     2
 10
1519.3
 20
556.733974596
 30
0.0
 11
1522.535238064
 21
568.808047425
 31
0.0
  0
LINE
  8
0
  6
CONTINUOUS
 62
     2
 10
1519.3
 20
556.733974596
 30
0.0
 11
1516.064761936
 21
568.808047425
 31
0.0
  0
LINE
  8
0
  6
CONTINUOUS
 62
     2
 10
1519.3
 20
556.733974596
 30
0.0
 11
1519.3
 21
732.733974596
 31
0.0
  0
LINE
  8
0
  6
CONTINUOUS
 62
     2
 10
1519.3
 20
732.733974596
 30
0.0
 11
1516.064761936
 21
720.659901768
 31
0.0
  0
LINE
  8
0
  6
CONTINUOUS
 62
     2
 10
1519.3
 20
732.733974596
 30
0.0
 11
1522.535238064
 21
720.659901768
 31
0.0
  0
LINE
  8
7
  6
CONTINUOUS
 62
     2
 10
1519.3
 20
732.733974596
 30
0.0
 11
1522.535238064
 21
744.808047425
 31
0.0
  0
LINE
  8
7
  6
CONTINUOUS
 62
     2
 10
1519.3
 20
732.733974596
 30
0.0
 11
1516.064761936
 21
744.808047425
 31
0.0
  0
LINE
  8
7
  6
CONTINUOUS
 62
     2
 10
1551.0
 20
437.733974596
 30
0.0
 11
1554.235238064
 21
449.808047425
 31
0.0
  0
LINE
  8
7
  6
CONTINUOUS
 62
     2
 10
1551.0
 20
437.733974596
 30
0.0
 11
1547.764761936
 21
449.808047425
 31
0.0
  0
LINE
  8
0
  6
CONTINUOUS
 62
     2
 10
1484.8
 20
569.233974596
 30
0.0
 11
1488.035238064
 21
581.308047425
 31
0.0
  0
LINE
  8
0
  6
CONTINUOUS
 62
     2
 10
1484.8
 20
569.233974596
 30
0.0
 11
1481.564761936
 21
581.308047425
 31
0.0
  0
LINE
  8
0
  6
CONTINUOUS
 62
     2
 10
1484.8
 20
544.233974596
 30
0.0
 11
1481.564761936
 21
532.159901768
 31
0.0
  0
LINE
  8
0
  6
CONTINUOUS
 62
     2
 10
1484.8
 20
544.233974596
 30
0.0
 11
1488.035238064
 21
532.159901768
 31
0.0
  0
LINE
  8
0
  6
CONTINUOUS
 62
     2
 10
1484.8
 20
743.933974596
 30
0.0
 11
1484.8
 21
519.233974596
 31
0.0
  0
LINE
  8
0
  6
CONTINUOUS
 62
     2
 10
1462.6
 20
556.733974596
 30
0.0
 11
1524.3
 21
556.733974596
 31
0.0
  0
LINE
  8
7
  6
CONTINUOUS
 62
     2
 10
1519.3
 20
869.733974596
 30
0.0
 11
1516.064761936
 21
857.659901768
 31
0.0
  0
LINE
  8
7
  6
CONTINUOUS
 62
     2
 10
1519.3
 20
869.733974596
 30
0.0
 11
1522.535238064
 21
857.659901768
 31
0.0
  0
LINE
  8
7
  6
CONTINUOUS
 62
     2
 10
1551.0
 20
869.733974596
 30
0.0
 11
1547.764761936
 21
857.659901768
 31
0.0
  0
LINE
  8
7
  6
CONTINUOUS
 62
     2
 10
1551.0
 20
869.733974596
 30
0.0
 11
1554.235238064
 21
857.659901768
 31
0.0
  0
LINE
  8
7
  6
CONTINUOUS
 62
     2
 10
1519.3
 20
732.733974596
 30
0.0
 11
1519.3
 21
869.733974596
 31
0.0
  0
LINE
  8
7
  6
CONTINUOUS
 62
     2
 10
1551.0
 20
437.733974596
 30
0.0
 11
1551.0
 21
869.733974596
 31
0.0
  0
TEXT
  8
0
  6
CONTINUOUS
 62
     2
 10
536.18
 20
891.093974596
 30
0.0
 40
18.0
  1
ＰＦ３／４
 50
0.0
 41
0.9
 51
0.0
  7
KANJI20
  0
TEXT
  8
2
  6
CONTINUOUS
 62
     2
 10
694.0
 20
693.133974596
 30
0.0
 40
18.0
  1
φ１４２
 50
90.0
 41
0.9
 51
0.0
  7
KANJI20
  0
TEXT
  8
0
  6
CONTINUOUS
 62
     2
 10
545.5
 20
400.733974596
 30
0.0
 40
18.0
  1
推力リミッタ
 50
0.0
 41
0.9
 51
0.0
  7
KANJI20
  0
TEXT
  8
0
  6
CONTINUOUS
 62
     2
 10
671.15
 20
389.233974596
 30
0.0
 40
18.0
  1
Ｃ
 50
0.0
 41
0.9
 51
0.0
  7
KANJI20
  0
TEXT
  8
0
  6
CONTINUOUS
 62
     2
 10
697.75
 20
349.608974596
 30
0.0
 40
18.0
  1
ｍｉｎ．Ｌ
 50
0.0
 41
0.9
 51
0.0
  7
KANJI20
  0
TEXT
  8
0
  6
CONTINUOUS
 62
     2
 10
591.75
 20
314.108974596
 30
0.0
 40
18.0
  1
ｍｉｎ．ＡＬ
 50
0.0
 41
0.9
 51
0.0
  7
KANJI20
  0
TEXT
  8
0
  6
CONTINUOUS
 62
     2
 10
632.0
 20
436.233974596
 30
0.0
 40
18.0
  1
ＰＦ１／２
 50
0.0
 41
0.9
 51
0.0
  7
KANJI20
  0
TEXT
  8
7
  6
CONTINUOUS
 62
     2
 10
326.75
 20
349.475
 30
0.0
 40
18.0
  1
１９７
 50
0.0
 41
0.9
 51
0.0
  7
KANJI20
  0
TEXT
  8
2
  6
CONTINUOUS
 62
     2
 10
280.0
 20
384.608974596
 30
0.0
 40
18.0
  1
１１２
 50
0.0
 41
0.9
 51
0.0
  7
KANJI20
  0
TEXT
  8
2
  6
CONTINUOUS
 62
     2
 10
387.25
 20
384.608974596
 30
0.0
 40
18.0
  1
８５
 50
0.0
 41
0.9
 51
0.0
  7
KANJI20
  0
TEXT
  8
2
  6
CONTINUOUS
 62
     2
 10
660.5
 20
520.333974596
 30
0.0
 40
18.0
  1
φ１１０
 50
90.0
 41
0.9
 51
0.0
  7
KANJI20
  0
TEXT
  8
2
  6
CONTINUOUS
 62
     2
 10
979.65
 20
654.683974596
 30
0.0
 40
18.0
  1
４５
 50
0.0
 41
0.9
 51
0.0
  7
KANJI20
  0
TEXT
  8
2
  6
CONTINUOUS
 62
     2
 10
906.65
 20
654.683974596
 30
0.0
 40
18.0
  1
１５
 50
0.0
 41
0.9
 51
0.0
  7
KANJI20
  0
TEXT
  8
2
  6
CONTINUOUS
 62
     2
 10
1135.2
 20
539.983974596
 30
0.0
 40
18.0
  1
６０
 50
90.0
 41
0.9
 51
0.0
  7
KANJI20
  0
TEXT
  8
7
  6
CONTINUOUS
 62
     2
 10
1065.3
 20
430.583974596
 30
0.0
 40
18.0
  1
φ２５Ｈ１０
 50
0.0
 41
0.9
 51
0.0
  7
KANJI20
  0
TEXT
  8
0
  6
CONTINUOUS
 62
     2
 10
1110.3
 20
404.583974596
 30
0.0
 40
18.0
  1
ｄ９
 50
0.0
 41
0.9
 51
0.0
  7
KANJI20
  0
TEXT
  8
2
  6
CONTINUOUS
 62
     2
 10
972.15
 20
384.608974596
 30
0.0
 40
18.0
  1
６０
 50
0.0
 41
0.9
 51
0.0
  7
KANJI20
  0
TEXT
  8
2
  6
CONTINUOUS
 62
     2
 10
1017.15
 20
313.908974596
 30
0.0
 40
18.0
  1
３０
 50
0.0
 41
0.9
 51
0.0
  7
KANJI20
  0
TEXT
  8
7
  6
CONTINUOUS
 62
     2
 10
929.45
 20
384.008974596
 30
0.0
 40
18.0
  1
Ｐ
 50
0.0
 41
0.9
 51
0.0
  7
KANJI20
  0
TEXT
  8
2
  6
CONTINUOUS
 62
     2
 10
1142.0
 20
744.733974596
 30
0.0
 40
18.0
  1
６０
 50
90.0
 41
0.9
 51
0.0
  7
KANJI20
  0
TEXT
  8
2
  6
CONTINUOUS
 62
     2
 10
1093.27
 20
744.733974596
 30
0.0
 40
18.0
  1
３０
 50
90.0
 41
0.9
 51
0.0
  7
KANJI20
  0
TEXT
  8
0
  6
CONTINUOUS
 62
     2
 10
1318.8
 20
345.733974596
 30
0.0
 40
18.0
  1
１８５
 50
0.0
 41
0.9
 51
0.0
  7
KANJI20
  0
TEXT
  8
0
  6
CONTINUOUS
 62
     2
 10
1318.8
 20
295.733974596
 30
0.0
 40
18.0
  1
１９０
 50
0.0
 41
0.9
 51
0.0
  7
KANJI20
  0
TEXT
  8
0
  6
CONTINUOUS
 62
     2
 10
1514.3
 20
474.733974596
 30
0.0
 40
18.0
  1
１１９
 50
90.0
 41
0.9
 51
0.0
  7
KANJI20
  0
TEXT
  8
0
  6
CONTINUOUS
 62
     2
 10
1514.3
 20
622.233974596
 30
0.0
 40
18.0
  1
１７６
 50
90.0
 41
0.9
 51
0.0
  7
KANJI20
  0
TEXT
  8
0
  6
CONTINUOUS
 62
     2
 10
1479.8
 20
577.233974596
 30
0.0
 40
18.0
  1
φ２５Ｈ１０深さ３０
 50
90.0
 41
0.9
 51
0.0
  7
KANJI20
  0
TEXT
  8
7
  6
CONTINUOUS
 62
     2
 10
1514.3
 20
788.483974596
 30
0.0
 40
18.0
  1
１３７
 50
90.0
 41
0.9
 51
0.0
  7
KANJI20
  0
TEXT
  8
7
  6
CONTINUOUS
 62
     2
 10
1546.0
 20
640.983974596
 30
0.0
 40
18.0
  1
４３２
 50
90.0
 41
0.9
 51
0.0
  7
KANJI20
  0
LINE
  8
0
  6
CONTINUOUS
 62
     2
 10
1482.8
 20
732.733974596
 30
0.0
 11
1524.3
 21
732.733974596
 31
0.0
  0
TEXT
  8
7
  6
CONTINUOUS
 62
     2
 10
914.95
 20
403.408974596
 30
-1.8
 40
18.0
  1
ｍｉｎ
 50
0.0
 41
0.9
 51
0.0
  7
KANJI21
  0
TEXT
  8
0
  6
CONTINUOUS
 62
     2
 10
1861.92
 20
251.7
 30
0.0
 40
21.0
  1
ＭＣＬＤ２Ｃ－
 50
0.0
 41
0.793650794
 51
0.0
  7
KANJI22
  0
TEXT
  8
0
  6
CONTINUOUS
 62
     2
 10
1976.7200334
 20
155.699994
 30
13.0
 40
30.0
  1
３００２４７６
 50
0.0
 41
0.8
 51
0.0
  7
KANJI23
  0
TEXT
  8
0
  6
CONTINUOUS
 62
     2
 10
436.540009455
 20
708.833974596
 30
0.0
 40
18.0
  1
日本電産
 50
0.0
 41
0.9
 51
0.0
  7
KANJI20
  0
TEXT
  8
0
  6
CONTINUOUS
 62
     2
 10
436.540009455
 20
685.833974596
 30
0.0
 40
18.0
  1
エコノストップモータ
 50
0.0
 41
0.9
 51
0.0
  7
KANJI20
  0
TEXT
  8
0
  6
CONTINUOUS
 62
     2
 10
176.4
 20
26.4
 30
0.0
 40
18.0
  1
ＦＤ　Ｎｏ．ＭＣ１９６
 50
0.0
 41
0.9
 51
0.0
  7
KANJI24
  0
ARC
  8
0
  6
CONTINUOUS
 62
     1
 10
1341.3
 20
721.733974596
 30
0.0
 40
105.0
 50
280.898857856
 51
289.685054825
  0
ARC
  8
0
  6
CONTINUOUS
 62
     1
 10
1341.3
 20
721.733974596
 30
0.0
 40
105.0
 50
250.314945175
 51
259.360206993
  0
LINE
  8
0
  6
CONTINUOUS
 62
     1
 10
491.3
 20
437.733974596
 30
0.0
 11
480.7
 21
437.733974596
 31
0.0
  0
ARC
  8
0
  6
CONTINUOUS
 62
     1
 10
486.4
 20
438.733974596
 30
0.0
 40
5.0
 50
272.3
 51
348.5
  0
ARC
  8
0
  6
CONTINUOUS
 62
     1
 10
485.6
 20
438.733974596
 30
0.0
 40
5.0
 50
191.5
 51
267.7
  0
LINE
  8
0
  6
CONTINUOUS
 62
     1
 10
486.6
 20
433.733974596
 30
0.0
 11
485.4
 21
433.733974596
 31
0.0
  0
LINE
  8
0
  6
LTYPE5
 62
     2
 10
486.0
 20
430.333974596
 30
0.0
 11
486.0
 21
443.733974596
 31
0.0
  0
LINE
  8
0
  6
CONTINUOUS
 62
     1
 10
603.3
 20
437.733974596
 30
0.0
 11
592.7
 21
437.733974596
 31
0.0
  0
ARC
  8
0
  6
CONTINUOUS
 62
     1
 10
598.4
 20
438.733974596
 30
0.0
 40
5.0
 50
272.3
 51
348.5
  0
ARC
  8
0
  6
CONTINUOUS
 62
     1
 10
597.6
 20
438.733974596
 30
0.0
 40
5.0
 50
191.5
 51
267.7
  0
LINE
  8
0
  6
CONTINUOUS
 62
     1
 10
598.6
 20
433.733974596
 30
0.0
 11
597.4
 21
433.733974596
 31
0.0
  0
LINE
  8
0
  6
LTYPE5
 62
     2
 10
598.0
 20
430.333974596
 30
0.0
 11
598.0
 21
443.733974596
 31
0.0
  0
LINE
  8
0
  6
CONTINUOUS
 62
     1
 10
1301.6
 20
437.733974596
 30
0.0
 11
1291.0
 21
437.733974596
 31
0.0
  0
ARC
  8
0
  6
CONTINUOUS
 62
     1
 10
1296.7
 20
438.733974596
 30
0.0
 40
5.0
 50
272.3
 51
348.5
  0
ARC
  8
0
  6
CONTINUOUS
 62
     1
 10
1295.9
 20
438.733974596
 30
0.0
 40
5.0
 50
191.5
 51
267.7
  0
LINE
  8
0
  6
CONTINUOUS
 62
     1
 10
1296.9
 20
433.733974596
 30
0.0
 11
1295.7
 21
433.733974596
 31
0.0
  0
LINE
  8
0
  6
LTYPE5
 62
     2
 10
1296.3
 20
430.333974596
 30
0.0
 11
1296.3
 21
443.733974596
 31
0.0
  0
LINE
  8
0
  6
CONTINUOUS
 62
     1
 10
1391.6
 20
437.733974596
 30
0.0
 11
1381.0
 21
437.733974596
 31
0.0
  0
ARC
  8
0
  6
CONTINUOUS
 62
     1
 10
1386.7
 20
438.733974596
 30
0.0
 40
5.0
 50
272.3
 51
348.5
  0
ARC
  8
0
  6
CONTINUOUS
 62
     1
 10
1385.9
 20
438.733974596
 30
0.0
 40
5.0
 50
191.5
 51
267.7
  0
LINE
  8
0
  6
CONTINUOUS
 62
     1
 10
1386.9
 20
433.733974596
 30
0.0
 11
1385.7
 21
433.733974596
 31
0.0
  0
LINE
  8
0
  6
LTYPE5
 62
     2
 10
1386.3
 20
430.333974596
 30
0.0
 11
1386.3
 21
443.733974596
 31
0.0
  0
LINE
  8
0
  6
CONTINUOUS
 62
     6
 10
356.629425053
 20
1631.447759827
 30
0.0
 11
124.584646507
 21
1631.447759827
 31
0.0
  0
LINE
  8
0
  6
CONTINUOUS
 62
     3
 10
356.629425053
 20
1603.985259827
 30
0.0
 11
124.584646507
 21
1603.985259827
 31
0.0
  0
LINE
  8
0
  6
CONTINUOUS
 62
     6
 10
356.629425053
 20
1603.985259827
 30
0.0
 11
124.584646507
 21
1603.985259827
 31
0.0
  0
TEXT
  8
0
  6
CONTINUOUS
 62
     6
 10
382.212228
 20
1628.900410728
 30
1.232517
 40
13.182
  1
電気定格　　　
 50
0.0
 41
0.85
 51
0.0
  7
KANJI25
  0
TEXT
  8
0
  6
CONTINUOUS
 62
     6
 10
128.493517202
 20
1634.64592676
 30
1.0647
 40
11.661
  1
ＬＳ０１　　　：推力リミッタ（前進時過負荷用）
 50
0.0
 41
0.822608696
 51
0.0
  7
KANJI26
  0
TEXT
  8
0
  6
CONTINUOUS
 62
     6
 10
128.493517202
 20
1607.18342676
 30
1.0647
 40
11.661
  1
ＬＳ０２　　　：推力リミッタ（後進時過負荷用）
 50
0.0
 41
0.822608696
 51
0.0
  7
KANJI26
  0
TEXT
  8
0
  6
CONTINUOUS
 62
     6
 10
395.013715102
 20
1598.326958599
 30
0.0
 40
11.8638
  1
ＤＣ１２５Ｖ　０．６Ａ　，ＤＣ２５０Ｖ　０．３Ａ　
 50
0.0
 41
0.726495726
 51
0.0
  7
KANJI27
  0
LINE
  8
0
  6
LTYPE3
 62
     6
 10
655.02
 20
1658.9
 30
0.0
 11
106.62
 21
1658.9
 31
0.0
  0
TEXT
  8
0
  6
CONTINUOUS
 62
     6
 10
389.757132178
 20
1646.661726126
 30
0.0
 40
45.0
  1
｝
 50
0.0
 41
0.538166667
 51
0.0
  7
KANJI28
  0
TEXT
  8
0
  6
CONTINUOUS
 62
     6
 10
319.632791539
 20
1417.92382165
 30
0.0
 40
17.740702234
  1
端子台　接続図
 50
0.0
 41
0.880962996
 51
0.0
  7
KANJI29
  0
LINE
  8
0
  6
LTYPE3
 62
     6
 10
655.02
 20
1399.9
 30
0.0
 11
655.02
 21
1658.9
 31
0.0
  0
LINE
  8
0
  6
LTYPE3
 62
     6
 10
106.62
 20
1399.9
 30
0.0
 11
655.02
 21
1399.9
 31
0.0
  0
LINE
  8
0
  6
LTYPE3
 62
     6
 10
106.62
 20
1658.9
 30
0.0
 11
106.62
 21
1399.9
 31
0.0
  0
LINE
  8
0
  6
CONTINUOUS
 62
     2
 10
354.597373465
 20
1468.928121884
 30
0.0
 11
354.597373465
 21
1446.149155128
 31
0.0
  0
LINE
  8
0
  6
CONTINUOUS
 62
     2
 10
381.17283468
 20
1468.928121884
 30
0.0
 11
381.17283468
 21
1446.149155128
 31
0.0
  0
LINE
  8
0
  6
CONTINUOUS
 62
     2
 10
407.748295894
 20
1468.928121884
 30
0.0
 11
407.748295894
 21
1446.149155128
 31
0.0
  0
LINE
  8
0
  6
CONTINUOUS
 62
     2
 10
434.323757109
 20
1468.928121884
 30
0.0
 11
434.323757109
 21
1446.149155128
 31
0.0
  0
CIRCLE
  8
0
  6
CONTINUOUS
 62
     6
 10
426.404269667
 20
1492.407921517
 30
0.0
 40
4.100214016
  0
LINE
  8
0
  6
CONTINUOUS
 62
     6
 10
422.304055651
 20
1492.407921517
 30
0.0
 11
421.036026502
 21
1492.407921517
 31
0.0
  0
LINE
  8
0
  6
CONTINUOUS
 62
     6
 10
447.358027433
 20
1506.094562742
 30
0.0
 11
443.443558096
 21
1483.759507138
 31
0.0
  0
LINE
  8
0
  6
CONTINUOUS
 62
     6
 10
442.631699663
 20
1506.882284037
 30
0.0
 11
438.716922494
 21
1484.547279739
 31
0.0
  0
LINE
  8
0
  6
CONTINUOUS
 62
     6
 10
443.443558096
 20
1483.759507138
 30
0.0
 11
438.716922494
 21
1484.547279739
 31
0.0
  0
CIRCLE
  8
0
  6
CONTINUOUS
 62
     6
 10
447.611487717
 20
1482.939464335
 30
0.0
 40
4.100214016
  0
LINE
  8
0
  6
CONTINUOUS
 62
     6
 10
447.611487717
 20
1478.839250319
 30
0.0
 11
447.611487717
 21
1468.928121884
 31
0.0
  0
LINE
  8
0
  6
CONTINUOUS
 62
     6
 10
421.036026502
 20
1492.407921517
 30
0.0
 11
421.036026502
 21
1468.928121884
 31
0.0
  0
LINE
  8
0
  6
CONTINUOUS
 62
     6
 10
394.460565287
 20
1468.928121884
 30
0.0
 11
394.460565287
 21
1522.633332504
 31
0.0
  0
LINE
  8
0
  6
CONTINUOUS
 62
     6
 10
314.987641926
 20
1506.094562742
 30
0.0
 11
318.902111263
 21
1483.759507138
 31
0.0
  0
LINE
  8
0
  6
CONTINUOUS
 62
     6
 10
319.713969696
 20
1506.882284037
 30
0.0
 11
323.628746865
 21
1484.547279739
 31
0.0
  0
LINE
  8
0
  6
CONTINUOUS
 62
     6
 10
318.902111263
 20
1483.759507138
 30
0.0
 11
323.628746865
 21
1484.547279739
 31
0.0
  0
CIRCLE
  8
0
  6
CONTINUOUS
 62
     6
 10
314.734181642
 20
1482.939464335
 30
0.0
 40
4.100214016
  0
CIRCLE
  8
0
  6
CONTINUOUS
 62
     6
 10
335.941399692
 20
1492.407921517
 30
0.0
 40
4.100214016
  0
LINE
  8
0
  6
CONTINUOUS
 62
     6
 10
340.041613708
 20
1492.407921517
 30
0.0
 11
341.309642857
 21
1492.407921517
 31
0.0
  0
LINE
  8
0
  6
CONTINUOUS
 62
     6
 10
314.734181642
 20
1478.839250319
 30
0.0
 11
314.734181642
 21
1468.928121884
 31
0.0
  0
LINE
  8
0
  6
CONTINUOUS
 62
     6
 10
341.309642857
 20
1492.407921517
 30
0.0
 11
341.309642857
 21
1468.928121884
 31
0.0
  0
LINE
  8
0
  6
CONTINUOUS
 62
     6
 10
367.885104072
 20
1468.928121884
 30
0.0
 11
367.885104072
 21
1522.633332504
 31
0.0
  0
LINE
  8
0
  6
CONTINUOUS
 62
     2
 10
460.899218324
 20
1468.928121884
 30
0.0
 11
460.899218324
 21
1446.149155128
 31
0.0
  0
LINE
  8
0
  6
CONTINUOUS
 62
     2
 10
301.446451035
 20
1468.928121884
 30
0.0
 11
301.446451035
 21
1446.149155128
 31
0.0
  0
LINE
  8
0
  6
CONTINUOUS
 62
     2
 10
328.02191225
 20
1468.928121884
 30
0.0
 11
328.02191225
 21
1446.149155128
 31
0.0
  0
LINE
  8
0
  6
CONTINUOUS
 62
     6
 10
447.611487717
 20
1522.633332504
 30
0.0
 11
394.460565287
 21
1522.633332504
 31
0.0
  0
CIRCLE
  8
0
  6
CONTINUOUS
 62
     6
 10
447.611487717
 20
1510.28941042
 30
0.0
 40
4.100214016
  0
LINE
  8
0
  6
CONTINUOUS
 62
     6
 10
447.358027433
 20
1506.094562742
 30
0.0
 11
442.631699663
 21
1506.882284037
 31
0.0
  0
LINE
  8
0
  6
CONTINUOUS
 62
     6
 10
447.611487717
 20
1514.389624436
 30
0.0
 11
447.611487717
 21
1522.633332504
 31
0.0
  0
CIRCLE
  8
0
  6
CONTINUOUS
 62
     6
 10
314.734181642
 20
1510.28941042
 30
0.0
 40
4.100214016
  0
LINE
  8
0
  6
CONTINUOUS
 62
     6
 10
314.987641926
 20
1506.094562742
 30
0.0
 11
319.713969696
 21
1506.882284037
 31
0.0
  0
LINE
  8
0
  6
CONTINUOUS
 62
     6
 10
314.734181642
 20
1514.389624436
 30
0.0
 11
314.734181642
 21
1522.633332504
 31
0.0
  0
LINE
  8
0
  6
CONTINUOUS
 62
     6
 10
367.885104072
 20
1522.633332504
 30
0.0
 11
314.734181642
 21
1522.633332504
 31
0.0
  0
TEXT
  8
0
  6
CONTINUOUS
 62
     6
 10
319.4972152
 20
1527.152473273
 30
0.819
 40
11.7
  1
ＬＳ０１
 50
0.0
 41
0.8
 51
0.0
  7
KANJI30
  0
TEXT
  8
0
  6
CONTINUOUS
 62
     6
 10
402.117398844
 20
1527.152473273
 30
0.819
 40
11.7
  1
ＬＳ０２
 50
0.0
 41
0.8
 51
0.0
  7
KANJI30
  0
TEXT
  8
0
  6
CONTINUOUS
 62
     3
 10
147.308775989
 20
1449.945649587
 30
0.0
 40
15.0
  1
　　　　　　　　　　　　　　　　　　１　　２　　　３　　　４　　　５　　　６
 50
0.0
 41
0.911
 51
0.0
  7
KANJI31
  0
LINE
  8
0
  6
CONTINUOUS
 62
     2
 10
301.446451035
 20
1468.928121884
 30
0.0
 11
460.899218324
 21
1468.928121884
 31
0.0
  0
LINE
  8
0
  6
CONTINUOUS
 62
     2
 10
301.446451035
 20
1446.149155128
 30
0.0
 11
460.899218324
 21
1446.149155128
 31
0.0
  0
TEXT
  8
0
  6
CONTINUOUS
 62
     6
 10
293.132791539
 20
1556.92382165
 30
0.0
 40
17.740702234
  1
推力リミッタ端子台配列
 50
0.0
 41
0.880962996
 51
0.0
  7
KANJI29
  0
TEXT
  8
0
  6
CONTINUOUS
 62
     6
 10
395.013715102
 20
1614.071931782
 30
0.0
 40
11.8638
  1
ＡＣ１００Ｖ　１２５Ｖ　２５０Ｖ　－１０Ａ
 50
0.0
 41
0.726495726
 51
0.0
  7
KANJI27
  0
LINE
  8
0
  6
LTYPE3
 62
     6
 10
148.708333
 20
1243.133317
 30
0.0
 11
148.708333
 21
1226.732460936
 31
0.0
  0
LINE
  8
0
  6
LTYPE3
 62
     6
 10
279.105262694
 20
1243.133317
 30
0.0
 11
148.708333
 21
1243.133317
 31
0.0
  0
TEXT
  8
0
  6
CONTINUOUS
 62
     6
 10
131.173590591
 20
1229.648168681
 30
1.093390404
 40
10.933904043
  1
Ｕ
 50
0.0
 41
0.9
 51
0.0
  7
KANJI32
  0
CIRCLE
  8
0
  6
CONTINUOUS
 62
     6
 10
148.708333
 20
1223.452289723
 30
0.0
 40
4.373561617
  0
LINE
  8
0
  6
CONTINUOUS
 62
     6
 10
143.68354931
 20
1218.427506033
 30
0.0
 11
153.888526417
 21
1228.63248314
 31
0.0
  0
TEXT
  8
0
  6
CONTINUOUS
 62
     6
 10
158.953806047
 20
1251.799448352
 30
1.518597784
 40
15.185977837
  1
エコノストップモータ
 50
0.0
 41
0.66671875
 51
0.0
  7
KANJI33
  0
CIRCLE
  8
0
  6
CONTINUOUS
 62
     6
 10
193.537339575
 20
1197.939846957
 30
0.0
 40
18.223173404
  0
TEXT
  8
0
  6
CONTINUOUS
 62
     6
 10
185.883606745
 20
1189.192723723
 30
1.82231734
 40
18.223173404
  1
Ｍ
 50
0.0
 41
0.9
 51
0.0
  7
KANJI34
  0
LINE
  8
0
  6
CONTINUOUS
 62
     6
 10
169.482750681
 20
1172.427404191
 30
0.0
 11
180.781118192
 21
1185.548089042
 31
0.0
  0
LINE
  8
0
  6
CONTINUOUS
 62
     6
 10
169.482750681
 20
1223.452289723
 30
0.0
 11
180.781118192
 21
1210.331604872
 31
0.0
  0
LINE
  8
0
  6
CONTINUOUS
 62
     6
 10
169.482750681
 20
1223.452289723
 30
0.0
 11
153.081894617
 21
1223.452289723
 31
0.0
  0
LINE
  8
0
  6
CONTINUOUS
 62
     6
 10
175.678629639
 20
1197.939846957
 30
0.0
 11
153.081894617
 21
1197.939846957
 31
0.0
  0
LINE
  8
0
  6
CONTINUOUS
 62
     6
 10
169.482750681
 20
1172.427404191
 30
0.0
 11
153.081894617
 21
1172.427404191
 31
0.0
  0
TEXT
  8
0
  6
CONTINUOUS
 62
     6
 10
132.266980995
 20
1203.771262446
 30
1.093390404
 40
10.933904043
  1
Ｖ
 50
0.0
 41
0.9
 51
0.0
  7
KANJI32
  0
TEXT
  8
0
  6
CONTINUOUS
 62
     6
 10
133.360371399
 20
1177.894356212
 30
1.093390404
 40
10.933904043
  1
Ｗ
 50
0.0
 41
0.9
 51
0.0
  7
KANJI32
  0
CIRCLE
  8
0
  6
CONTINUOUS
 62
     6
 10
148.708333
 20
1197.939846957
 30
0.0
 40
4.373561617
  0
LINE
  8
0
  6
CONTINUOUS
 62
     6
 10
143.68354931
 20
1192.915063267
 30
0.0
 11
153.888526417
 21
1203.120040374
 31
0.0
  0
LINE
  8
0
  6
LTYPE3
 62
     6
 10
148.708333
 20
1219.443191574
 30
0.0
 11
148.708333
 21
1201.22001817
 31
0.0
  0
CIRCLE
  8
0
  6
CONTINUOUS
 62
     6
 10
148.708333
 20
1172.427404191
 30
0.0
 40
4.373561617
  0
LINE
  8
0
  6
CONTINUOUS
 62
     6
 10
143.68354931
 20
1167.402620501
 30
0.0
 11
153.888526417
 21
1177.607597607
 31
0.0
  0
LINE
  8
0
  6
LTYPE3
 62
     6
 10
148.708333
 20
1193.930748808
 30
0.0
 11
148.708333
 21
1176.800965808
 31
0.0
  0
LINE
  8
0
  6
LTYPE3
 62
     6
 10
148.708333
 20
1168.053842574
 30
0.0
 11
148.708333
 21
1147.721584891
 31
0.0
  0
TEXT
  8
0
  6
CONTINUOUS
 62
     6
 10
219.778709277
 20
1189.684749405
 30
1.457853872
 40
14.578538724
  1
Ｂ
 50
0.0
 41
0.9
 51
0.0
  7
KANJI35
  0
CIRCLE
  8
0
  6
CONTINUOUS
 62
     6
 10
226.339051703
 20
1197.939846957
 30
0.0
 40
14.578538724
  0
LINE
  8
0
  6
LTYPE3
 62
     6
 10
279.105262694
 20
1147.721584891
 30
0.0
 11
148.708333
 21
1147.721584891
 31
0.0
  0
LINE
  8
0
  6
LTYPE3
 62
     6
 10
279.105262694
 20
1147.721584891
 30
0.0
 11
279.105262694
 21
1243.133317
 31
0.0
  0
TEXT
  8
0
  6
CONTINUOUS
 62
     2
 10
153.803726364
 20
1122.512221811
 30
0.0
 40
15.6
  1
モーター結線図
 50
0.0
 41
0.925
 51
0.0
  7
KANJI36
  0
TEXT
  8
0
  6
CONTINUOUS
 62
     3
 10
104.966667
 20
852.000657596
 30
1.5
 40
15.0
  1
手動軸□１０
 50
0.0
 41
0.9
 51
0.0
  7
KANJI19
  0
ARC
  8
0
  6
CONTINUOUS
 62
     2
 10
193.0
 20
732.133974596
 30
0.0
 40
20.0
 50
231.952957468
 51
156.801409486
  0
LINE
  8
0
  6
CONTINUOUS
 62
     2
 10
174.6170994
 20
740.012360568
 30
0.0
 11
176.91179211
 21
749.849799345
 31
0.0
  0
TEXT
  8
0
  6
CONTINUOUS
 62
     2
 10
112.6170994
 20
723.012360568
 30
0.0
 40
15.0
  1
前進方向
 50
0.0
 41
0.9
 51
0.0
  7
KANJI18
  0
LINE
  8
0
  6
CONTINUOUS
 62
     2
 10
174.6170994
 20
740.012360568
 30
0.0
 11
182.885260778
 21
744.919697103
 31
0.0
  0
LINE
  8
0
  6
CONTINUOUS
 62
     1
 10
311.0
 20
631.733974596
 30
0.0
 11
311.0
 21
561.733974596
 31
0.0
  0
TEXT
  8
0
  6
CONTINUOUS
 62
     2
 10
316.0
 20
620.733974596
 30
5.0
 40
20.0
  1
銘板
 50
270.0
 41
0.925
 51
0.0
  7
KANJI37
  0
LINE
  8
0
  6
CONTINUOUS
 62
     1
 10
354.0
 20
631.733974596
 30
0.0
 11
311.0
 21
631.733974596
 31
0.0
  0
LINE
  8
0
  6
CONTINUOUS
 62
     1
 10
354.0
 20
561.733974596
 30
0.0
 11
311.0
 21
561.733974596
 31
0.0
  0
LINE
  8
0
  6
CONTINUOUS
 62
     1
 10
354.0
 20
631.733974596
 30
0.0
 11
354.0
 21
561.733974596
 31
0.0
  0
TEXT
  8
0
  6
CONTINUOUS
 62
     2
 10
1702.92
 20
627.9
 30
6.171428571
 40
21.6
  1
１。運転時は必ずピストンロッドの回転防止を行って下さい。
 50
0.0
 41
0.857142857
 51
0.0
  7
KANJI38
  0
TEXT
  8
0
  6
CONTINUOUS
 62
     2
 10
1702.92
 20
587.1
 30
6.156
 40
21.6
  1
２。モートル：全閉自冷かご形３０分定格
 50
0.0
 41
0.857222222
 51
0.0
  7
KANJI39
  0
TEXT
  8
0
  6
CONTINUOUS
 62
     2
 10
1702.5199098
 20
546.3000036
 30
6.156
 40
21.6
  1
３。呼称ストロークは、機械的ストロークです。
 50
0.0
 41
0.857222222
 51
0.0
  7
KANJI39
  0
TEXT
  8
0
  6
CONTINUOUS
 62
     2
 10
1702.5199098
 20
511.8000036
 30
6.156
 40
21.6
  1
　　必ず、常用はストローク両端に余裕を取って下さい。
 50
0.0
 41
0.857222222
 51
0.0
  7
KANJI39
  0
LINE
  8
0
  6
CONTINUOUS
 62
     2
 10
1770.12
 20
669.3
 30
0.0
 11
1916.52
 21
669.3
 31
0.0
  0
TEXT
  8
0
  6
CONTINUOUS
 62
     2
 10
1703.4319098
 20
472.1520036
 30
6.156
 40
21.6
  1
　　前後の推奨余裕寸法は、各々１５ｍｍです。
 50
0.0
 41
0.857222222
 51
0.0
  7
KANJI39
  0
TEXT
  8
0
  6
CONTINUOUS
 62
     2
 10
1786.92
 20
675.9
 30
12.0
 40
24.0
  1
特記事項
 50
0.0
 41
0.9
 51
0.0
  7
KANJI40
  0
LINE
  8
0
  6
CONTINUOUS
 62
     2
 10
561.083402385
 20
191.133330769
 30
0.0
 11
568.810808995
 21
189.062778408
 31
0.0
  0
LINE
  8
0
  6
CONTINUOUS
 62
     2
 10
561.083402385
 20
191.133330769
 30
0.0
 11
568.810808995
 21
193.20388313
 31
0.0
  0
LINE
  8
0
  6
CONTINUOUS
 62
     2
 10
561.083402385
 20
191.133330769
 30
0.0
 11
698.683402385
 21
191.133330769
 31
0.0
  0
LINE
  8
0
  6
CONTINUOUS
 62
     2
 10
698.683402385
 20
191.133330769
 30
0.0
 11
690.955995774
 21
193.20388313
 31
0.0
  0
LINE
  8
0
  6
CONTINUOUS
 62
     2
 10
698.683402385
 20
191.133330769
 30
0.0
 11
690.955995774
 21
189.062778408
 31
0.0
  0
LINE
  8
0
  6
CONTINUOUS
 62
     2
 10
698.683402385
 20
189.933330769
 30
0.0
 11
698.683402385
 21
187.133330769
 31
0.0
  0
LINE
  8
0
  6
CONTINUOUS
 62
     2
 10
698.683402385
 20
191.133330769
 30
0.0
 11
706.410808995
 21
189.062778408
 31
0.0
  0
LINE
  8
0
  6
CONTINUOUS
 62
     2
 10
698.683402385
 20
191.133330769
 30
0.0
 11
706.410808995
 21
193.20388313
 31
0.0
  0
LINE
  8
0
  6
CONTINUOUS
 62
     2
 10
698.683402385
 20
191.133330769
 30
0.0
 11
901.083402385
 21
191.133330769
 31
0.0
  0
LINE
  8
0
  6
CONTINUOUS
 62
     2
 10
901.083402385
 20
191.133330769
 30
0.0
 11
893.355995774
 21
193.20388313
 31
0.0
  0
LINE
  8
0
  6
CONTINUOUS
 62
     2
 10
901.083402385
 20
191.133330769
 30
0.0
 11
893.355995774
 21
189.062778408
 31
0.0
  0
LINE
  8
0
  6
CONTINUOUS
 62
     2
 10
698.683402385
 20
164.80388313
 30
0.0
 11
690.955995774
 21
166.874435491
 31
0.0
  0
LINE
  8
0
  6
CONTINUOUS
 62
     2
 10
698.683402385
 20
164.80388313
 30
0.0
 11
690.955995774
 21
162.733330769
 31
0.0
  0
LINE
  8
0
  6
CONTINUOUS
 62
     2
 10
686.683402385
 20
164.80388313
 30
0.0
 11
698.683402385
 21
164.80388313
 31
0.0
  0
LINE
  8
0
  6
CONTINUOUS
 62
     2
 10
698.683402385
 20
164.80388313
 30
0.0
 11
719.483402385
 21
164.80388313
 31
0.0
  0
LINE
  8
0
  6
CONTINUOUS
 62
     2
 10
719.483402385
 20
164.80388313
 30
0.0
 11
727.210808995
 21
162.733330769
 31
0.0
  0
LINE
  8
0
  6
CONTINUOUS
 62
     2
 10
719.483402385
 20
164.80388313
 30
0.0
 11
727.210808995
 21
166.874435491
 31
0.0
  0
LINE
  8
0
  6
CONTINUOUS
 62
     2
 10
561.083402385
 20
139.533330769
 30
0.0
 11
561.083402385
 21
133.533330769
 31
0.0
  0
LINE
  8
0
  6
CONTINUOUS
 62
     2
 10
561.083402385
 20
137.533330769
 30
0.0
 11
568.810808995
 21
135.462778408
 31
0.0
  0
LINE
  8
0
  6
CONTINUOUS
 62
     2
 10
561.083402385
 20
137.533330769
 30
0.0
 11
568.810808995
 21
139.60388313
 31
0.0
  0
LINE
  8
0
  6
CONTINUOUS
 62
     2
 10
561.083402385
 20
137.533330769
 30
0.0
 11
719.483402385
 21
137.533330769
 31
0.0
  0
LINE
  8
0
  6
CONTINUOUS
 62
     2
 10
719.483402385
 20
137.533330769
 30
0.0
 11
711.755995774
 21
139.60388313
 31
0.0
  0
LINE
  8
0
  6
CONTINUOUS
 62
     2
 10
719.483402385
 20
137.533330769
 30
0.0
 11
711.755995774
 21
135.462778408
 31
0.0
  0
LINE
  8
0
  6
CONTINUOUS
 62
     2
 10
719.483402385
 20
138.733330769
 30
0.0
 11
719.483402385
 21
133.533330769
 31
0.0
  0
LINE
  8
0
  6
CONTINUOUS
 62
     2
 10
719.483402385
 20
137.533330769
 30
0.0
 11
727.210808995
 21
135.462778408
 31
0.0
  0
LINE
  8
0
  6
CONTINUOUS
 62
     2
 10
719.483402385
 20
137.533330769
 30
0.0
 11
727.210808995
 21
139.60388313
 31
0.0
  0
LINE
  8
0
  6
CONTINUOUS
 62
     2
 10
901.083402385
 20
133.933330769
 30
0.0
 11
901.083402385
 21
133.533330769
 31
0.0
  0
LINE
  8
0
  6
CONTINUOUS
 62
     2
 10
561.083402385
 20
108.333330769
 30
0.0
 11
568.810808995
 21
106.262778408
 31
0.0
  0
LINE
  8
0
  6
CONTINUOUS
 62
     2
 10
561.083402385
 20
108.333330769
 30
0.0
 11
568.810808995
 21
110.40388313
 31
0.0
  0
LINE
  8
0
  6
CONTINUOUS
 62
     2
 10
561.083402385
 20
108.333330769
 30
0.0
 11
878.683402385
 21
108.333330769
 31
0.0
  0
LINE
  8
0
  6
CONTINUOUS
 62
     2
 10
878.683402385
 20
108.333330769
 30
0.0
 11
870.955995774
 21
110.40388313
 31
0.0
  0
LINE
  8
0
  6
CONTINUOUS
 62
     2
 10
878.683402385
 20
108.333330769
 30
0.0
 11
870.955995774
 21
106.262778408
 31
0.0
  0
LINE
  8
0
  6
CONTINUOUS
 62
     2
 10
878.683402385
 20
109.133330769
 30
0.0
 11
878.683402385
 21
104.333330769
 31
0.0
  0
LINE
  8
0
  6
CONTINUOUS
 62
     2
 10
878.683402385
 20
108.333330769
 30
0.0
 11
870.955995774
 21
110.40388313
 31
0.0
  0
LINE
  8
0
  6
CONTINUOUS
 62
     2
 10
878.683402385
 20
108.333330769
 30
0.0
 11
870.955995774
 21
106.262778408
 31
0.0
  0
LINE
  8
0
  6
CONTINUOUS
 62
     2
 10
866.683402385
 20
108.333330769
 30
0.0
 11
878.683402385
 21
108.333330769
 31
0.0
  0
LINE
  8
0
  6
CONTINUOUS
 62
     2
 10
878.683402385
 20
108.333330769
 30
0.0
 11
901.083402385
 21
108.333330769
 31
0.0
  0
LINE
  8
0
  6
CONTINUOUS
 62
     2
 10
901.083402385
 20
108.333330769
 30
0.0
 11
908.810808995
 21
106.262778408
 31
0.0
  0
LINE
  8
0
  6
CONTINUOUS
 62
     2
 10
901.083402385
 20
108.333330769
 30
0.0
 11
908.810808995
 21
110.40388313
 31
0.0
  0
LINE
  8
0
  6
CONTINUOUS
 62
     2
 10
561.083402385
 20
201.933330769
 30
0.0
 11
561.083402385
 21
187.133330769
 31
0.0
  0
LINE
  8
0
  6
CONTINUOUS
 62
     2
 10
901.083402385
 20
201.933330769
 30
0.0
 11
901.083402385
 21
187.133330769
 31
0.0
  0
LINE
  8
0
  6
CONTINUOUS
 62
     2
 10
698.683402385
 20
190.733330769
 30
0.0
 11
698.683402385
 21
201.933330769
 31
0.0
  0
LINE
  8
0
  6
CONTINUOUS
 62
     2
 10
719.483402385
 20
177.60388313
 30
0.0
 11
719.483402385
 21
160.80388313
 31
0.0
  0
LINE
  8
0
  6
CONTINUOUS
 62
     2
 10
561.083402385
 20
187.133330769
 30
0.0
 11
561.083402385
 21
95.133330769
 31
0.0
  0
LINE
  8
0
  6
CONTINUOUS
 62
     2
 10
901.083402385
 20
191.133330769
 30
0.0
 11
901.083402385
 21
96.333330769
 31
0.0
  0
LINE
  8
0
  6
CONTINUOUS
 62
     2
 10
719.483402385
 20
164.80388313
 30
0.0
 11
719.483402385
 21
128.333330769
 31
0.0
  0
LINE
  8
0
  6
CONTINUOUS
 62
     2
 10
698.683402385
 20
191.133330769
 30
0.0
 11
698.683402385
 21
155.533330769
 31
0.0
  0
TEXT
  8
0
  6
CONTINUOUS
 62
     3
 10
602.883402385
 20
193.133330769
 30
0.0
 40
15.0
  1
ｍｉｎ．Ｌ
 50
0.0
 41
0.9
 51
0.0
  7
KANJI18
  0
TEXT
  8
0
  6
CONTINUOUS
 62
     3
 10
756.683402385
 20
193.133330769
 30
0.0
 40
15.0
  1
機械的ストローク
 50
0.0
 41
0.9
 51
0.0
  7
KANJI18
  0
TEXT
  8
0
  6
CONTINUOUS
 62
     3
 10
731.483402385
 20
166.80388313
 30
0.0
 40
15.0
  1
余裕
 50
0.0
 41
0.9
 51
0.0
  7
KANJI18
  0
TEXT
  8
0
  6
CONTINUOUS
 62
     3
 10
613.283402385
 20
139.533330769
 30
0.0
 40
15.0
  1
常用ｍｉｎ
 50
0.0
 41
0.9
 51
0.0
  7
KANJI18
  0
TEXT
  8
0
  6
CONTINUOUS
 62
     3
 10
692.883402385
 20
110.333330769
 30
0.0
 40
15.0
  1
常用ｍａｘ
 50
0.0
 41
0.9
 51
0.0
  7
KANJI18
  0
TEXT
  8
0
  6
CONTINUOUS
 62
     3
 10
913.083402385
 20
110.333330769
 30
0.0
 40
15.0
  1
余裕
 50
0.0
 41
0.9
 51
0.0
  7
KANJI18
  0
LINE
  8
0
  6
CONTINUOUS
 62
     2
 10
719.483402385
 20
164.80388313
 30
0.0
 11
759.583402385
 21
164.80388313
 31
0.0
  0
LINE
  8
0
  6
CONTINUOUS
 62
     2
 10
901.083402385
 20
108.333330769
 30
0.0
 11
943.583402385
 21
108.333330769
 31
0.0
  0
TEXT
  8
0
  6
CONTINUOUS
 62
     2
 10
560.792674524
 20
271.971526374
 30
0.0
 40
20.0
  1
推力リミッタの作動値は、約２３００ｋｇ（設計値）
 50
0.0
 41
0.925
 51
0.0
  7
KANJI41
  0
LINE
  8
0
  6
CONTINUOUS
 62
     2
 10
558.792674524
 20
263.971526374
 30
0.0
 11
991.080083262
 21
263.971526374
 31
0.0
  0
LINE
  8
0
  6
CONTINUOUS
 62
     2
 10
1017.0
 20
897.0
 30
0.0
 11
1004.925927171
 21
900.235238064
 31
0.0
  0
LINE
  8
0
  6
CONTINUOUS
 62
     2
 10
1017.0
 20
897.0
 30
0.0
 11
1004.925927171
 21
893.764761936
 31
0.0
  0
LINE
  8
0
  6
CONTINUOUS
 62
     2
 10
1017.0
 20
897.0
 30
0.0
 11
976.0
 21
897.0
 31
0.0
  0
TEXT
  8
0
  6
CONTINUOUS
 62
     3
 10
983.0
 20
907.0
 30
0.0
 40
20.0
  1
前進
 50
0.0
 41
0.925
 51
0.0
  7
KANJI41
  0
TEXT
  8
0
  6
CONTINUOUS
 62
     2
 10
1055.133
 20
1533.99
 30
1.617
 40
16.17
  1
注意：サーマルリレー等の選定は、上記の値で選定して下さい。
 50
0.0
 41
0.9
 51
0.0
  7
KANJI42
  0
LINE
  8
0
  6
CONTINUOUS
 62
     2
 10
1045.893
 20
1529.37
 30
0.0
 11
1510.0
 21
1529.37
 31
0.0
  0
LINE
  8
0
  6
CONTINUOUS
 62
     1
 10
224.5
 20
718.733974596
 30
0.0
 11
224.5
 21
746.733974596
 31
0.0
  0
LINE
  8
0
  6
CONTINUOUS
 62
     1
 10
262.5
 20
718.733974596
 30
0.0
 11
262.5
 21
746.733974596
 31
0.0
  0
LINE
  8
0
  6
CONTINUOUS
 62
     1
 10
224.5
 20
746.733974596
 30
0.0
 11
266.5
 21
746.733974596
 31
0.0
  0
LINE
  8
0
  6
CONTINUOUS
 62
     1
 10
224.5
 20
718.733974596
 30
0.0
 11
266.5
 21
718.733974596
 31
0.0
  0
LINE
  8
0
  6
CONTINUOUS
 62
     2
 10
224.5
 20
752.733974596
 30
0.0
 11
224.5
 21
931.733974596
 31
0.0
  0
LINE
  8
0
  6
CONTINUOUS
 62
     2
 10
224.5
 20
925.733974596
 30
0.0
 11
236.091109915
 21
922.628146055
 31
0.0
  0
LINE
  8
0
  6
CONTINUOUS
 62
     2
 10
224.5
 20
925.733974596
 30
0.0
 11
236.091109915
 21
928.839803137
 31
0.0
  0
LINE
  8
0
  6
CONTINUOUS
 62
     2
 10
224.5
 20
925.733974596
 30
0.0
 11
361.5
 21
925.733974596
 31
0.0
  0
LINE
  8
0
  6
CONTINUOUS
 62
     2
 10
361.5
 20
925.733974596
 30
0.0
 11
349.908890085
 21
928.839803137
 31
0.0
  0
LINE
  8
0
  6
CONTINUOUS
 62
     2
 10
361.5
 20
925.733974596
 30
0.0
 11
349.908890085
 21
922.628146055
 31
0.0
  0
LINE
  8
0
  6
CONTINUOUS
 62
     2
 10
361.5
 20
843.733974596
 30
0.0
 11
361.5
 21
931.733974596
 31
0.0
  0
TEXT
  8
0
  6
CONTINUOUS
 62
     3
 10
268.7
 20
934.733974596
 30
0.0
 40
18.0
  1
１３７
 50
0.0
 41
0.9
 51
0.0
  7
KANJI20
  0
LINE
  8
0
  6
CONTINUOUS
 62
     2
 10
361.5
 20
917.733974596
 30
0.0
 11
361.5
 21
931.733974596
 31
0.0
  0
LINE
  8
0
  6
CONTINUOUS
 62
     2
 10
361.5
 20
925.733974596
 30
0.0
 11
373.091109915
 21
922.628146055
 31
0.0
  0
LINE
  8
0
  6
CONTINUOUS
 62
     2
 10
361.5
 20
925.733974596
 30
0.0
 11
373.091109915
 21
928.839803137
 31
0.0
  0
LINE
  8
0
  6
CONTINUOUS
 62
     2
 10
361.5
 20
925.733974596
 30
0.0
 11
653.5
 21
925.733974596
 31
0.0
  0
LINE
  8
0
  6
CONTINUOUS
 62
     2
 10
653.5
 20
925.733974596
 30
0.0
 11
641.908890085
 21
928.839803137
 31
0.0
  0
LINE
  8
0
  6
CONTINUOUS
 62
     2
 10
653.5
 20
925.733974596
 30
0.0
 11
641.908890085
 21
922.628146055
 31
0.0
  0
TEXT
  8
0
  6
CONTINUOUS
 62
     3
 10
483.2
 20
934.733974596
 30
0.0
 40
18.0
  1
２９２
 50
0.0
 41
0.9
 51
0.0
  7
KANJI20
  0
LINE
  8
0
  6
CONTINUOUS
 62
     2
 10
653.5
 20
739.733974596
 30
0.0
 11
653.5
 21
931.733974596
 31
0.0
  0
LINE
  8
0
  6
CONTINUOUS
 62
     1
 10
1014.12
 20
1521.24
 30
0.0
 11
1791.72
 21
1521.24
 31
0.0
  0
LINE
  8
0
  6
CONTINUOUS
 62
     1
 10
1014.12
 20
1487.64
 30
0.0
 11
1791.72
 21
1487.64
 31
0.0
  0
TEXT
  8
0
  6
CONTINUOUS
 62
     2
 10
1062.12
 20
1497.24
 30
1.536
 40
15.36
  1
形
 50
0.0
 41
0.9
 51
0.0
  7
KANJI43
  0
TEXT
  8
0
  6
CONTINUOUS
 62
     2
 10
1155.72
 20
1497.24
 30
1.536
 40
15.36
  1
式
 50
0.0
 41
0.9
 51
0.0
  7
KANJI43
  0
TEXT
  8
0
  6
CONTINUOUS
 62
     2
 10
1228.2
 20
1496.28
 30
1.44
 40
14.4
  1
ストローク
 50
0.0
 41
0.9
 51
0.0
  7
KANJI44
  0
TEXT
  8
0
  6
CONTINUOUS
 62
     2
 10
1320.36
 20
1495.32
 30
0.0
 40
14.4
  1
ｍｉｎ　
 50
0.0
 41
0.9
 51
0.0
  7
KANJI45
  0
TEXT
  8
0
  6
CONTINUOUS
 62
     2
 10
1416.36
 20
1495.32
 30
0.0
 40
14.4
  1
ｍｉｎ　
 50
0.0
 41
0.9
 51
0.0
  7
KANJI45
  0
TEXT
  8
0
  6
CONTINUOUS
 62
     2
 10
1608.36
 20
1495.32
 30
0.0
 40
14.4
  1
ｍｉｎ　
 50
0.0
 41
0.9
 51
0.0
  7
KANJI45
  0
TEXT
  8
0
  6
CONTINUOUS
 62
     2
 10
1369.32
 20
1496.28
 30
1.68
 40
16.8
  1
ＡＬ
 50
0.0
 41
0.9
 51
0.0
  7
KANJI46
  0
TEXT
  8
0
  6
CONTINUOUS
 62
     2
 10
1465.32
 20
1496.28
 30
1.68
 40
16.8
  1
Ｌ
 50
0.0
 41
0.9
 51
0.0
  7
KANJI46
  0
TEXT
  8
0
  6
CONTINUOUS
 62
     2
 10
1546.92
 20
1496.28
 30
1.68
 40
16.8
  1
Ｃ
 50
0.0
 41
0.9
 51
0.0
  7
KANJI46
  0
TEXT
  8
0
  6
CONTINUOUS
 62
     2
 10
1657.32
 20
1496.28
 30
1.68
 40
16.8
  1
Ｐ
 50
0.0
 41
0.9
 51
0.0
  7
KANJI46
  0
TEXT
  8
0
  6
CONTINUOUS
 62
     2
 10
1756.08
 20
1495.92
 30
0.0
 40
12.96
  1
（ｋｇ）
 50
0.0
 41
0.740740741
 51
0.0
  7
KANJI47
  0
TEXT
  8
0
  6
CONTINUOUS
 62
     2
 10
1698.48
 20
1495.68
 30
1.44
 40
16.8
  1
概算重量
 50
0.0
 41
0.857142857
 51
0.0
  7
KANJI48
  0
TEXT
  8
0
  6
CONTINUOUS
 62
     2
 10
1237.32
 20
1464.08
 30
1.44
 40
14.4
  1
　２００
 50
0.0
 41
0.9
 51
0.0
  7
KANJI44
  0
TEXT
  8
0
  6
CONTINUOUS
 62
     2
 10
1621.32
 20
1464.08
 30
1.44
 40
14.4
  1
　　４５
 50
0.0
 41
0.9
 51
0.0
  7
KANJI44
  0
LINE
  8
0
  6
CONTINUOUS
 62
     2
 10
1014.12
 20
1456.04
 30
0.0
 11
1791.72
 21
1456.04
 31
0.0
  0
TEXT
  8
0
  6
CONTINUOUS
 62
     2
 10
1029.72
 20
1463.72
 30
0.96
 40
14.4
  1
ＭＣＬＤ２Ｃ－　　２
 50
0.0
 41
0.833333333
 51
0.0
  7
KANJI49
  0
TEXT
  8
0
  6
CONTINUOUS
 62
     2
 10
1525.32
 20
1464.08
 30
1.44
 40
14.4
  1
　４６２
 50
0.0
 41
0.9
 51
0.0
  7
KANJI44
  0
TEXT
  8
0
  6
CONTINUOUS
 62
     2
 10
1429.32
 20
1464.08
 30
1.44
 40
14.4
  1
　５６７
 50
0.0
 41
0.9
 51
0.0
  7
KANJI44
  0
TEXT
  8
0
  6
CONTINUOUS
 62
     2
 10
1333.32
 20
1464.08
 30
1.44
 40
14.4
  1
　７６４
 50
0.0
 41
0.9
 51
0.0
  7
KANJI44
  0
TEXT
  8
0
  6
CONTINUOUS
 62
     2
 10
1717.32
 20
1464.08
 30
1.44
 40
14.4
  1
　７７
 50
0.0
 41
0.9
 51
0.0
  7
KANJI44
  0
TEXT
  8
0
  6
CONTINUOUS
 62
     2
 10
1237.32
 20
1432.48
 30
1.44
 40
14.4
  1
　３００
 50
0.0
 41
0.9
 51
0.0
  7
KANJI44
  0
TEXT
  8
0
  6
CONTINUOUS
 62
     2
 10
1621.32
 20
1432.48
 30
1.44
 40
14.4
  1
　　４５
 50
0.0
 41
0.9
 51
0.0
  7
KANJI44
  0
LINE
  8
0
  6
CONTINUOUS
 62
     2
 10
1014.12
 20
1424.44
 30
0.0
 11
1791.72
 21
1424.44
 31
0.0
  0
TEXT
  8
0
  6
CONTINUOUS
 62
     2
 10
1029.72
 20
1432.12
 30
0.96
 40
14.4
  1
ＭＣＬＤ２Ｃ－　　３
 50
0.0
 41
0.833333333
 51
0.0
  7
KANJI49
  0
TEXT
  8
0
  6
CONTINUOUS
 62
     2
 10
1525.32
 20
1432.48
 30
1.44
 40
14.4
  1
　５６２
 50
0.0
 41
0.9
 51
0.0
  7
KANJI44
  0
TEXT
  8
0
  6
CONTINUOUS
 62
     2
 10
1429.32
 20
1432.48
 30
1.44
 40
14.4
  1
　６６７
 50
0.0
 41
0.9
 51
0.0
  7
KANJI44
  0
TEXT
  8
0
  6
CONTINUOUS
 62
     2
 10
1333.32
 20
1432.48
 30
1.44
 40
14.4
  1
　８６４
 50
0.0
 41
0.9
 51
0.0
  7
KANJI44
  0
TEXT
  8
0
  6
CONTINUOUS
 62
     2
 10
1717.32
 20
1432.48
 30
1.44
 40
14.4
  1
　８０
 50
0.0
 41
0.9
 51
0.0
  7
KANJI44
  0
TEXT
  8
0
  6
CONTINUOUS
 62
     2
 10
1237.32
 20
1400.88
 30
1.44
 40
14.4
  1
　４００
 50
0.0
 41
0.9
 51
0.0
  7
KANJI44
  0
TEXT
  8
0
  6
CONTINUOUS
 62
     2
 10
1621.32
 20
1400.88
 30
1.44
 40
14.4
  1
　　４５
 50
0.0
 41
0.9
 51
0.0
  7
KANJI44
  0
LINE
  8
0
  6
CONTINUOUS
 62
     2
 10
1014.12
 20
1392.84
 30
0.0
 11
1791.72
 21
1392.84
 31
0.0
  0
TEXT
  8
0
  6
CONTINUOUS
 62
     2
 10
1029.72
 20
1400.52
 30
0.96
 40
14.4
  1
ＭＣＬＤ２Ｃ－　　４
 50
0.0
 41
0.833333333
 51
0.0
  7
KANJI49
  0
TEXT
  8
0
  6
CONTINUOUS
 62
     2
 10
1525.32
 20
1400.88
 30
1.44
 40
14.4
  1
　６６２
 50
0.0
 41
0.9
 51
0.0
  7
KANJI44
  0
TEXT
  8
0
  6
CONTINUOUS
 62
     2
 10
1429.32
 20
1400.88
 30
1.44
 40
14.4
  1
　７６７
 50
0.0
 41
0.9
 51
0.0
  7
KANJI44
  0
TEXT
  8
0
  6
CONTINUOUS
 62
     2
 10
1333.32
 20
1400.88
 30
1.44
 40
14.4
  1
　９６４
 50
0.0
 41
0.9
 51
0.0
  7
KANJI44
  0
TEXT
  8
0
  6
CONTINUOUS
 62
     2
 10
1717.32
 20
1400.88
 30
1.44
 40
14.4
  1
　８４
 50
0.0
 41
0.9
 51
0.0
  7
KANJI44
  0
TEXT
  8
0
  6
CONTINUOUS
 62
     2
 10
1237.32
 20
1369.28
 30
1.44
 40
14.4
  1
　５００
 50
0.0
 41
0.9
 51
0.0
  7
KANJI44
  0
TEXT
  8
0
  6
CONTINUOUS
 62
     2
 10
1621.32
 20
1369.28
 30
1.44
 40
14.4
  1
　　４５
 50
0.0
 41
0.9
 51
0.0
  7
KANJI44
  0
LINE
  8
0
  6
CONTINUOUS
 62
     2
 10
1014.12
 20
1361.24
 30
0.0
 11
1791.72
 21
1361.24
 31
0.0
  0
TEXT
  8
0
  6
CONTINUOUS
 62
     2
 10
1029.72
 20
1368.92
 30
0.96
 40
14.4
  1
ＭＣＬＤ２Ｃ－　　５
 50
0.0
 41
0.833333333
 51
0.0
  7
KANJI49
  0
TEXT
  8
0
  6
CONTINUOUS
 62
     2
 10
1525.32
 20
1369.28
 30
1.44
 40
14.4
  1
　７６２
 50
0.0
 41
0.9
 51
0.0
  7
KANJI44
  0
TEXT
  8
0
  6
CONTINUOUS
 62
     2
 10
1429.32
 20
1369.28
 30
1.44
 40
14.4
  1
　８６７
 50
0.0
 41
0.9
 51
0.0
  7
KANJI44
  0
TEXT
  8
0
  6
CONTINUOUS
 62
     2
 10
1717.32
 20
1369.28
 30
1.44
 40
14.4
  1
　８９
 50
0.0
 41
0.9
 51
0.0
  7
KANJI44
  0
TEXT
  8
0
  6
CONTINUOUS
 62
     2
 10
1333.32
 20
1369.28
 30
1.44
 40
14.4
  1
１０６４
 50
0.0
 41
0.9
 51
0.0
  7
KANJI44
  0
LINE
  8
0
  6
CONTINUOUS
 62
     2
 10
1014.12
 20
1329.64
 30
0.0
 11
1791.72
 21
1329.64
 31
0.0
  0
TEXT
  8
0
  6
CONTINUOUS
 62
     2
 10
1029.72
 20
1337.32
 30
0.96
 40
14.4
  1
ＭＣＬＤ２Ｃ－　　６
 50
0.0
 41
0.833333333
 51
0.0
  7
KANJI49
  0
TEXT
  8
0
  6
CONTINUOUS
 62
     2
 10
1237.32
 20
1337.68
 30
1.44
 40
14.4
  1
　６００
 50
0.0
 41
0.9
 51
0.0
  7
KANJI44
  0
TEXT
  8
0
  6
CONTINUOUS
 62
     2
 10
1333.32
 20
1337.68
 30
1.44
 40
14.4
  1
１２０４
 50
0.0
 41
0.9
 51
0.0
  7
KANJI44
  0
TEXT
  8
0
  6
CONTINUOUS
 62
     2
 10
1429.32
 20
1337.68
 30
1.44
 40
14.4
  1
１００７
 50
0.0
 41
0.9
 51
0.0
  7
KANJI44
  0
TEXT
  8
0
  6
CONTINUOUS
 62
     2
 10
1525.32
 20
1337.68
 30
1.44
 40
14.4
  1
　９０２
 50
0.0
 41
0.9
 51
0.0
  7
KANJI44
  0
TEXT
  8
0
  6
CONTINUOUS
 62
     2
 10
1621.32
 20
1337.68
 30
1.44
 40
14.4
  1
　　４５
 50
0.0
 41
0.9
 51
0.0
  7
KANJI44
  0
TEXT
  8
0
  6
CONTINUOUS
 62
     2
 10
1717.32
 20
1337.68
 30
1.44
 40
14.4
  1
　９２
 50
0.0
 41
0.9
 51
0.0
  7
KANJI44
  0
TEXT
  8
0
  6
CONTINUOUS
 62
     2
 10
1717.32
 20
1305.08
 30
1.44
 40
14.4
  1
　９６
 50
0.0
 41
0.9
 51
0.0
  7
KANJI44
  0
LINE
  8
0
  6
CONTINUOUS
 62
     2
 10
1014.12
 20
1298.04
 30
0.0
 11
1791.72
 21
1298.04
 31
0.0
  0
TEXT
  8
0
  6
CONTINUOUS
 62
     2
 10
1029.72
 20
1305.72
 30
0.96
 40
14.4
  1
ＭＣＬＤ２Ｃ－　　７
 50
0.0
 41
0.833333333
 51
0.0
  7
KANJI49
  0
TEXT
  8
0
  6
CONTINUOUS
 62
     2
 10
1237.32
 20
1306.08
 30
1.44
 40
14.4
  1
　７００
 50
0.0
 41
0.9
 51
0.0
  7
KANJI44
  0
TEXT
  8
0
  6
CONTINUOUS
 62
     2
 10
1333.32
 20
1306.08
 30
1.44
 40
14.4
  1
１３０４
 50
0.0
 41
0.9
 51
0.0
  7
KANJI44
  0
TEXT
  8
0
  6
CONTINUOUS
 62
     2
 10
1429.32
 20
1306.08
 30
1.44
 40
14.4
  1
１１０７
 50
0.0
 41
0.9
 51
0.0
  7
KANJI44
  0
TEXT
  8
0
  6
CONTINUOUS
 62
     2
 10
1525.32
 20
1306.08
 30
1.44
 40
14.4
  1
１００２
 50
0.0
 41
0.9
 51
0.0
  7
KANJI44
  0
TEXT
  8
0
  6
CONTINUOUS
 62
     2
 10
1621.32
 20
1306.08
 30
1.44
 40
14.4
  1
　　４５
 50
0.0
 41
0.9
 51
0.0
  7
KANJI44
  0
LINE
  8
0
  6
CONTINUOUS
 62
     2
 10
1014.12
 20
1266.44
 30
0.0
 11
1791.72
 21
1266.44
 31
0.0
  0
TEXT
  8
0
  6
CONTINUOUS
 62
     2
 10
1029.72
 20
1274.12
 30
0.96
 40
14.4
  1
ＭＣＬＤ２Ｃ－　　８
 50
0.0
 41
0.833333333
 51
0.0
  7
KANJI49
  0
TEXT
  8
0
  6
CONTINUOUS
 62
     2
 10
1237.32
 20
1274.48
 30
1.44
 40
14.4
  1
　８００
 50
0.0
 41
0.9
 51
0.0
  7
KANJI44
  0
TEXT
  8
0
  6
CONTINUOUS
 62
     2
 10
1333.32
 20
1274.48
 30
1.44
 40
14.4
  1
１４０４
 50
0.0
 41
0.9
 51
0.0
  7
KANJI44
  0
TEXT
  8
0
  6
CONTINUOUS
 62
     2
 10
1429.32
 20
1274.48
 30
1.44
 40
14.4
  1
１２０７
 50
0.0
 41
0.9
 51
0.0
  7
KANJI44
  0
TEXT
  8
0
  6
CONTINUOUS
 62
     2
 10
1525.32
 20
1274.48
 30
1.44
 40
14.4
  1
１１０２
 50
0.0
 41
0.9
 51
0.0
  7
KANJI44
  0
TEXT
  8
0
  6
CONTINUOUS
 62
     2
 10
1621.32
 20
1274.48
 30
1.44
 40
14.4
  1
　　４５
 50
0.0
 41
0.9
 51
0.0
  7
KANJI44
  0
TEXT
  8
0
  6
CONTINUOUS
 62
     2
 10
1717.32
 20
1274.48
 30
1.44
 40
14.4
  1
１００
 50
0.0
 41
0.9
 51
0.0
  7
KANJI44
  0
LINE
  8
0
  6
CONTINUOUS
 62
     2
 10
1014.12
 20
1234.84
 30
0.0
 11
1791.72
 21
1234.84
 31
0.0
  0
TEXT
  8
0
  6
CONTINUOUS
 62
     2
 10
1029.72
 20
1242.52
 30
0.96
 40
14.4
  1
ＭＣＬＤ２Ｃ－　　９
 50
0.0
 41
0.833333333
 51
0.0
  7
KANJI49
  0
TEXT
  8
0
  6
CONTINUOUS
 62
     2
 10
1237.32
 20
1242.88
 30
1.44
 40
14.4
  1
　９００
 50
0.0
 41
0.9
 51
0.0
  7
KANJI44
  0
TEXT
  8
0
  6
CONTINUOUS
 62
     2
 10
1333.32
 20
1242.88
 30
1.44
 40
14.4
  1
１５０４
 50
0.0
 41
0.9
 51
0.0
  7
KANJI44
  0
TEXT
  8
0
  6
CONTINUOUS
 62
     2
 10
1429.32
 20
1242.88
 30
1.44
 40
14.4
  1
１３０７
 50
0.0
 41
0.9
 51
0.0
  7
KANJI44
  0
TEXT
  8
0
  6
CONTINUOUS
 62
     2
 10
1525.32
 20
1242.88
 30
1.44
 40
14.4
  1
１２０２
 50
0.0
 41
0.9
 51
0.0
  7
KANJI44
  0
TEXT
  8
0
  6
CONTINUOUS
 62
     2
 10
1621.32
 20
1242.88
 30
1.44
 40
14.4
  1
　　４５
 50
0.0
 41
0.9
 51
0.0
  7
KANJI44
  0
TEXT
  8
0
  6
CONTINUOUS
 62
     2
 10
1717.32
 20
1242.88
 30
1.44
 40
14.4
  1
１０３
 50
0.0
 41
0.9
 51
0.0
  7
KANJI44
  0
LINE
  8
0
  6
CONTINUOUS
 62
     2
 10
1014.12
 20
1203.24
 30
0.0
 11
1791.72
 21
1203.24
 31
0.0
  0
TEXT
  8
0
  6
CONTINUOUS
 62
     2
 10
1029.72
 20
1210.92
 30
0.96
 40
14.4
  1
ＭＣＬＤ２Ｃ－　１０
 50
0.0
 41
0.833333333
 51
0.0
  7
KANJI49
  0
TEXT
  8
0
  6
CONTINUOUS
 62
     2
 10
1237.32
 20
1211.28
 30
1.44
 40
14.4
  1
１０００
 50
0.0
 41
0.9
 51
0.0
  7
KANJI44
  0
TEXT
  8
0
  6
CONTINUOUS
 62
     2
 10
1333.32
 20
1211.28
 30
1.44
 40
14.4
  1
１６０４
 50
0.0
 41
0.9
 51
0.0
  7
KANJI44
  0
TEXT
  8
0
  6
CONTINUOUS
 62
     2
 10
1429.32
 20
1211.28
 30
1.44
 40
14.4
  1
１４０７
 50
0.0
 41
0.9
 51
0.0
  7
KANJI44
  0
TEXT
  8
0
  6
CONTINUOUS
 62
     2
 10
1525.32
 20
1211.28
 30
1.44
 40
14.4
  1
１３０２
 50
0.0
 41
0.9
 51
0.0
  7
KANJI44
  0
TEXT
  8
0
  6
CONTINUOUS
 62
     2
 10
1621.32
 20
1211.28
 30
1.44
 40
14.4
  1
　　４５
 50
0.0
 41
0.9
 51
0.0
  7
KANJI44
  0
TEXT
  8
0
  6
CONTINUOUS
 62
     2
 10
1717.32
 20
1211.28
 30
1.44
 40
14.4
  1
１０６
 50
0.0
 41
0.9
 51
0.0
  7
KANJI44
  0
LINE
  8
0
  6
CONTINUOUS
 62
     2
 10
1014.12
 20
1171.64
 30
0.0
 11
1791.72
 21
1171.64
 31
0.0
  0
TEXT
  8
0
  6
CONTINUOUS
 62
     2
 10
1621.32
 20
1179.68
 30
1.44
 40
14.4
  1
　　４５
 50
0.0
 41
0.9
 51
0.0
  7
KANJI44
  0
TEXT
  8
0
  6
CONTINUOUS
 62
     2
 10
1029.72
 20
1179.32
 30
0.96
 40
14.4
  1
ＭＣＬＤ２Ｃ－　１１
 50
0.0
 41
0.833333333
 51
0.0
  7
KANJI49
  0
TEXT
  8
0
  6
CONTINUOUS
 62
     2
 10
1237.32
 20
1179.68
 30
1.44
 40
14.4
  1
１１００
 50
0.0
 41
0.9
 51
0.0
  7
KANJI44
  0
TEXT
  8
0
  6
CONTINUOUS
 62
     2
 10
1717.32
 20
1179.68
 30
1.44
 40
14.4
  1
１０８
 50
0.0
 41
0.9
 51
0.0
  7
KANJI44
  0
TEXT
  8
0
  6
CONTINUOUS
 62
     2
 10
1525.32
 20
1179.68
 30
1.44
 40
14.4
  1
１４０２
 50
0.0
 41
0.9
 51
0.0
  7
KANJI44
  0
TEXT
  8
0
  6
CONTINUOUS
 62
     2
 10
1429.32
 20
1179.68
 30
1.44
 40
14.4
  1
１５０７
 50
0.0
 41
0.9
 51
0.0
  7
KANJI44
  0
TEXT
  8
0
  6
CONTINUOUS
 62
     2
 10
1333.32
 20
1179.68
 30
1.44
 40
14.4
  1
１７０４
 50
0.0
 41
0.9
 51
0.0
  7
KANJI44
  0
LINE
  8
0
  6
CONTINUOUS
 62
     2
 10
1014.12
 20
1140.04
 30
0.0
 11
1791.72
 21
1140.04
 31
0.0
  0
TEXT
  8
0
  6
CONTINUOUS
 62
     2
 10
1621.32
 20
1148.08
 30
1.44
 40
14.4
  1
　　４５
 50
0.0
 41
0.9
 51
0.0
  7
KANJI44
  0
TEXT
  8
0
  6
CONTINUOUS
 62
     2
 10
1029.72
 20
1147.72
 30
0.96
 40
14.4
  1
ＭＣＬＤ２Ｃ－　１２
 50
0.0
 41
0.833333333
 51
0.0
  7
KANJI49
  0
TEXT
  8
0
  6
CONTINUOUS
 62
     2
 10
1237.32
 20
1148.08
 30
1.44
 40
14.4
  1
１２００
 50
0.0
 41
0.9
 51
0.0
  7
KANJI44
  0
TEXT
  8
0
  6
CONTINUOUS
 62
     2
 10
1717.32
 20
1148.08
 30
1.44
 40
14.4
  1
１１０
 50
0.0
 41
0.9
 51
0.0
  7
KANJI44
  0
TEXT
  8
0
  6
CONTINUOUS
 62
     2
 10
1525.32
 20
1148.08
 30
1.44
 40
14.4
  1
１５０２
 50
0.0
 41
0.9
 51
0.0
  7
KANJI44
  0
TEXT
  8
0
  6
CONTINUOUS
 62
     2
 10
1429.32
 20
1148.08
 30
1.44
 40
14.4
  1
１６０７
 50
0.0
 41
0.9
 51
0.0
  7
KANJI44
  0
TEXT
  8
0
  6
CONTINUOUS
 62
     2
 10
1333.32
 20
1148.08
 30
1.44
 40
14.4
  1
１８０４
 50
0.0
 41
0.9
 51
0.0
  7
KANJI44
  0
LINE
  8
0
  6
CONTINUOUS
 62
     2
 10
1014.12
 20
1108.44
 30
0.0
 11
1791.72
 21
1108.44
 31
0.0
  0
TEXT
  8
0
  6
CONTINUOUS
 62
     2
 10
1621.32
 20
1116.48
 30
1.44
 40
14.4
  1
　　４５
 50
0.0
 41
0.9
 51
0.0
  7
KANJI44
  0
TEXT
  8
0
  6
CONTINUOUS
 62
     2
 10
1029.72
 20
1116.12
 30
0.96
 40
14.4
  1
ＭＣＬＤ２Ｃ－　１３
 50
0.0
 41
0.833333333
 51
0.0
  7
KANJI49
  0
TEXT
  8
0
  6
CONTINUOUS
 62
     2
 10
1237.32
 20
1116.48
 30
1.44
 40
14.4
  1
１３００
 50
0.0
 41
0.9
 51
0.0
  7
KANJI44
  0
TEXT
  8
0
  6
CONTINUOUS
 62
     2
 10
1717.32
 20
1116.48
 30
1.44
 40
14.4
  1
１１２
 50
0.0
 41
0.9
 51
0.0
  7
KANJI44
  0
TEXT
  8
0
  6
CONTINUOUS
 62
     2
 10
1525.32
 20
1116.48
 30
1.44
 40
14.4
  1
１６０２
 50
0.0
 41
0.9
 51
0.0
  7
KANJI44
  0
TEXT
  8
0
  6
CONTINUOUS
 62
     2
 10
1429.32
 20
1116.48
 30
1.44
 40
14.4
  1
１７０７
 50
0.0
 41
0.9
 51
0.0
  7
KANJI44
  0
TEXT
  8
0
  6
CONTINUOUS
 62
     2
 10
1333.32
 20
1116.48
 30
1.44
 40
14.4
  1
１９０４
 50
0.0
 41
0.9
 51
0.0
  7
KANJI44
  0
LINE
  8
0
  6
CONTINUOUS
 62
     2
 10
1014.12
 20
1076.84
 30
0.0
 11
1791.72
 21
1076.84
 31
0.0
  0
TEXT
  8
0
  6
CONTINUOUS
 62
     2
 10
1621.32
 20
1084.88
 30
1.44
 40
14.4
  1
　　４５
 50
0.0
 41
0.9
 51
0.0
  7
KANJI44
  0
TEXT
  8
0
  6
CONTINUOUS
 62
     2
 10
1029.72
 20
1084.52
 30
0.96
 40
14.4
  1
ＭＣＬＤ２Ｃ－　１４
 50
0.0
 41
0.833333333
 51
0.0
  7
KANJI49
  0
TEXT
  8
0
  6
CONTINUOUS
 62
     2
 10
1237.32
 20
1084.88
 30
1.44
 40
14.4
  1
１４００
 50
0.0
 41
0.9
 51
0.0
  7
KANJI44
  0
TEXT
  8
0
  6
CONTINUOUS
 62
     2
 10
1717.32
 20
1084.88
 30
1.44
 40
14.4
  1
１１４
 50
0.0
 41
0.9
 51
0.0
  7
KANJI44
  0
TEXT
  8
0
  6
CONTINUOUS
 62
     2
 10
1525.32
 20
1084.88
 30
1.44
 40
14.4
  1
１７０２
 50
0.0
 41
0.9
 51
0.0
  7
KANJI44
  0
TEXT
  8
0
  6
CONTINUOUS
 62
     2
 10
1429.32
 20
1084.88
 30
1.44
 40
14.4
  1
１８０７
 50
0.0
 41
0.9
 51
0.0
  7
KANJI44
  0
TEXT
  8
0
  6
CONTINUOUS
 62
     2
 10
1333.32
 20
1084.88
 30
1.44
 40
14.4
  1
２００４
 50
0.0
 41
0.9
 51
0.0
  7
KANJI44
  0
LINE
  8
0
  6
CONTINUOUS
 62
     2
 10
1014.12
 20
1045.24
 30
0.0
 11
1791.72
 21
1045.24
 31
0.0
  0
TEXT
  8
0
  6
CONTINUOUS
 62
     2
 10
1621.32
 20
1053.28
 30
1.44
 40
14.4
  1
　　４５
 50
0.0
 41
0.9
 51
0.0
  7
KANJI44
  0
TEXT
  8
0
  6
CONTINUOUS
 62
     2
 10
1029.72
 20
1052.92
 30
0.96
 40
14.4
  1
ＭＣＬＤ２Ｃ－　１５
 50
0.0
 41
0.833333333
 51
0.0
  7
KANJI49
  0
TEXT
  8
0
  6
CONTINUOUS
 62
     2
 10
1237.32
 20
1053.28
 30
1.44
 40
14.4
  1
１５００
 50
0.0
 41
0.9
 51
0.0
  7
KANJI44
  0
TEXT
  8
0
  6
CONTINUOUS
 62
     2
 10
1717.32
 20
1053.28
 30
1.44
 40
14.4
  1
１１６
 50
0.0
 41
0.9
 51
0.0
  7
KANJI44
  0
TEXT
  8
0
  6
CONTINUOUS
 62
     2
 10
1525.32
 20
1053.28
 30
1.44
 40
14.4
  1
１８０２
 50
0.0
 41
0.9
 51
0.0
  7
KANJI44
  0
TEXT
  8
0
  6
CONTINUOUS
 62
     2
 10
1429.32
 20
1053.28
 30
1.44
 40
14.4
  1
１９０７
 50
0.0
 41
0.9
 51
0.0
  7
KANJI44
  0
TEXT
  8
0
  6
CONTINUOUS
 62
     2
 10
1333.32
 20
1053.28
 30
1.44
 40
14.4
  1
２１０４
 50
0.0
 41
0.9
 51
0.0
  7
KANJI44
  0
TEXT
  8
0
  6
CONTINUOUS
 62
     2
 10
1029.72
 20
1020.32
 30
0.96
 40
14.4
  1
ＭＣＬＤ２Ｃ－　　
 50
0.0
 41
0.833333333
 51
0.0
  7
KANJI49
  0
LINE
  8
0
  6
CONTINUOUS
 62
     1
 10
1791.72
 20
1521.24
 30
0.0
 11
1791.72
 21
1013.64
 31
0.0
  0
LINE
  8
0
  6
CONTINUOUS
 62
     1
 10
1014.12
 20
1013.64
 30
0.0
 11
1791.72
 21
1013.64
 31
0.0
  0
LINE
  8
0
  6
CONTINUOUS
 62
     1
 10
1014.12
 20
1521.24
 30
0.0
 11
1014.12
 21
1013.64
 31
0.0
  0
LINE
  8
0
  6
CONTINUOUS
 62
     1
 10
1215.72
 20
1521.24
 30
0.0
 11
1215.72
 21
1013.64
 31
0.0
  0
LINE
  8
0
  6
CONTINUOUS
 62
     2
 10
1311.72
 20
1521.24
 30
0.0
 11
1311.72
 21
1013.64
 31
0.0
  0
LINE
  8
0
  6
CONTINUOUS
 62
     2
 10
1407.72
 20
1521.24
 30
0.0
 11
1407.72
 21
1013.64
 31
0.0
  0
LINE
  8
0
  6
CONTINUOUS
 62
     2
 10
1503.72
 20
1521.24
 30
0.0
 11
1503.72
 21
1013.64
 31
0.0
  0
LINE
  8
0
  6
CONTINUOUS
 62
     2
 10
1599.72
 20
1521.24
 30
0.0
 11
1599.72
 21
1013.64
 31
0.0
  0
LINE
  8
0
  6
CONTINUOUS
 62
     2
 10
1695.72
 20
1521.24
 30
0.0
 11
1695.72
 21
1013.64
 31
0.0
  0
LINE
  8
0
  6
CONTINUOUS
 62
     2
 10
878.683402385
 20
150.433330769
 30
0.0
 11
878.683402385
 21
95.533330769
 31
0.0
  0
LINE
  8
0
  6
CONTINUOUS
 62
     2
 10
719.483402385
 20
137.533330769
 30
0.0
 11
878.683402385
 21
137.533330769
 31
0.0
  0
LINE
  8
0
  6
CONTINUOUS
 62
     2
 10
878.683402385
 20
137.533330769
 30
0.0
 11
870.955995774
 21
139.60388313
 31
0.0
  0
LINE
  8
0
  6
CONTINUOUS
 62
     2
 10
878.683402385
 20
137.533330769
 30
0.0
 11
870.955995774
 21
135.462778408
 31
0.0
  0
TEXT
  8
0
  6
CONTINUOUS
 62
     3
 10
758.033402385
 20
139.533330769
 30
0.0
 40
15.0
  1
常用ストローク
 50
0.0
 41
0.9
 51
0.0
  7
KANJI18
  0
LINE
  8
0
  6
LTYPE4
 62
     2
 10
1221.8
 20
732.733974596
 30
0.0
 11
1458.0
 21
732.733974596
 31
0.0
  0
TEXT
  8
0
  6
CONTINUOUS
 62
     2
 10
1648.5200334
 20
126.899994
 30
1.8
 40
21.0
  1
０７．１０．０４
 50
0.0
 41
0.571428571
 51
0.0
  7
KANJI50
  0
LINE
  8
0
  6
CONTINUOUS
 62
     2
 10
1873.92
 20
896.7
 30
0.0
 11
2398.92
 21
896.7
 31
0.0
  0
LINE
  8
0
  6
CONTINUOUS
 62
     2
 10
1873.92
 20
854.7
 30
0.0
 11
2398.92
 21
854.7
 31
0.0
  0
LINE
  8
0
  6
CONTINUOUS
 62
     2
 10
1921.92
 20
1232.7
 30
0.0
 11
1921.92
 21
896.7
 31
0.0
  0
TEXT
  8
0
  6
CONTINUOUS
 62
     2
 10
1906.92
 20
865.5
 30
79.962857143
 40
22.8
  1
付属品
 50
0.0
 41
0.9
 51
0.0
  7
KANJI51
  0
TEXT
  8
0
  6
CONTINUOUS
 62
     2
 10
1906.92
 20
823.5
 30
180.445714286
 40
22.8
  1
台数
 50
0.0
 41
0.9
 51
0.0
  7
KANJI52
  0
LINE
  8
0
  6
CONTINUOUS
 62
     1
 10
1873.92
 20
1628.7
 30
0.0
 11
2398.92
 21
1628.7
 31
0.0
  0
TEXT
  8
0
  6
CONTINUOUS
 62
     2
 10
1948.92
 20
1584.9
 30
17.09964
 40
27.0
  1
マイティシリンダ仕様
 50
0.0
 41
0.9
 51
0.0
  7
KANJI53
  0
LINE
  8
0
  6
CONTINUOUS
 62
     2
 10
1921.92
 20
938.7
 30
0.0
 11
2398.92
 21
938.7
 31
0.0
  0
LINE
  8
0
  6
CONTINUOUS
 62
     2
 10
1921.92
 20
1064.7
 30
0.0
 11
2398.92
 21
1064.7
 31
0.0
  0
LINE
  8
0
  6
CONTINUOUS
 62
     2
 10
1921.92
 20
1106.7
 30
0.0
 11
2398.92
 21
1106.7
 31
0.0
  0
LINE
  8
0
  6
CONTINUOUS
 62
     2
 10
1873.92
 20
1316.7
 30
0.0
 11
2398.92
 21
1316.7
 31
0.0
  0
LINE
  8
0
  6
CONTINUOUS
 62
     2
 10
1873.92
 20
1274.7
 30
0.0
 11
2398.92
 21
1274.7
 31
0.0
  0
LINE
  8
0
  6
CONTINUOUS
 62
     2
 10
1873.92
 20
1232.7
 30
0.0
 11
2398.92
 21
1232.7
 31
0.0
  0
LINE
  8
0
  6
CONTINUOUS
 62
     2
 10
1921.92
 20
1148.7
 30
0.0
 11
2398.92
 21
1148.7
 31
0.0
  0
LINE
  8
0
  6
CONTINUOUS
 62
     2
 10
1921.92
 20
1190.7
 30
0.0
 11
2398.92
 21
1190.7
 31
0.0
  0
LINE
  8
0
  6
CONTINUOUS
 62
     2
 10
1873.92
 20
1526.7
 30
0.0
 11
2398.92
 21
1526.7
 31
0.0
  0
LINE
  8
0
  6
CONTINUOUS
 62
     2
 10
1873.92
 20
1484.7
 30
0.0
 11
2398.92
 21
1484.7
 31
0.0
  0
LINE
  8
0
  6
CONTINUOUS
 62
     2
 10
1873.92
 20
1442.7
 30
0.0
 11
2398.92
 21
1442.7
 31
0.0
  0
LINE
  8
0
  6
CONTINUOUS
 62
     2
 10
1873.92
 20
1400.7
 30
0.0
 11
2398.92
 21
1400.7
 31
0.0
  0
LINE
  8
0
  6
CONTINUOUS
 62
     2
 10
1873.92
 20
1358.7
 30
0.0
 11
2398.92
 21
1358.7
 31
0.0
  0
LINE
  8
0
  6
CONTINUOUS
 62
     2
 10
1873.92
 20
1568.7
 30
0.0
 11
2398.92
 21
1568.7
 31
0.0
  0
TEXT
  8
0
  6
CONTINUOUS
 62
     2
 10
1948.92
 20
1159.5
 30
33.439782857
 40
22.8
  1
電源電圧
 50
0.0
 41
0.9
 51
0.0
  7
KANJI54
  0
TEXT
  8
0
  6
CONTINUOUS
 62
     2
 10
1948.92
 20
1117.5
 30
60.42
 40
22.8
  1
周波数
 50
0.0
 41
0.9
 51
0.0
  7
KANJI55
  0
TEXT
  8
0
  6
CONTINUOUS
 62
     2
 10
1948.92
 20
1075.5
 30
141.36
 40
22.8
  1
電流
 50
0.0
 41
0.9
 51
0.0
  7
KANJI56
  0
TEXT
  8
0
  6
CONTINUOUS
 62
     2
 10
1948.92
 20
1033.5
 30
60.42
 40
22.8
  1
絶縁級
 50
0.0
 41
0.9
 51
0.0
  7
KANJI55
  0
TEXT
  8
0
  6
CONTINUOUS
 62
     2
 10
1906.92
 20
1537.5
 30
180.445714286
 40
22.8
  1
形式
 50
0.0
 41
0.9
 51
0.0
  7
KANJI52
  0
TEXT
  8
0
  6
CONTINUOUS
 62
     2
 10
1906.92
 20
1495.5
 30
180.445714286
 40
22.8
  1
推力
 50
0.0
 41
0.9
 51
0.0
  7
KANJI52
  0
TEXT
  8
0
  6
CONTINUOUS
 62
     2
 10
1906.92
 20
1453.5
 30
29.721428571
 40
22.8
  1
ストローク
 50
0.0
 41
0.9
 51
0.0
  7
KANJI57
  0
TEXT
  8
0
  6
CONTINUOUS
 62
     2
 10
1906.92
 20
1327.5
 30
180.445714286
 40
22.8
  1
構造
 50
0.0
 41
0.9
 51
0.0
  7
KANJI52
  0
TEXT
  8
0
  6
CONTINUOUS
 62
     2
 10
1906.92
 20
1285.5
 30
12.973851429
 40
22.8
  1
過負荷安全装置
 50
0.0
 41
0.9
 51
0.0
  7
KANJI58
  0
TEXT
  8
0
  6
CONTINUOUS
 62
     2
 10
1906.92
 20
1243.5
 30
79.962857143
 40
22.8
  1
塗装色
 50
0.0
 41
0.9
 51
0.0
  7
KANJI51
  0
TEXT
  8
0
  6
CONTINUOUS
 62
     2
 10
1882.92
 20
1369.5
 30
1.954285714
 40
22.8
  1
ピストンロッド回転トルク
 50
0.0
 41
0.9
 51
0.0
  7
KANJI59
  0
LINE
  8
0
  6
CONTINUOUS
 62
     2
 10
1873.92
 20
1022.7
 30
0.0
 11
2398.92
 21
1022.7
 31
0.0
  0
LINE
  8
0
  6
CONTINUOUS
 62
     2
 10
1921.92
 20
980.7
 30
0.0
 11
2398.92
 21
980.7
 31
0.0
  0
TEXT
  8
0
  6
CONTINUOUS
 62
     2
 10
1898.37
 20
1226.7
 30
13.2
 40
21.0
  1
モ　トル仕様
 50
0.0
 41
0.9
 51
0.0
  7
KANJI60
  0
TEXT
  8
0
  6
CONTINUOUS
 62
     2
 10
1898.37
 20
1004.7
 30
1.2
 40
21.0
  1
ブレ　キ
 50
0.0
 41
0.9
 51
0.0
  7
KANJI61
  0
LINE
  8
0
  6
CONTINUOUS
 62
     2
 10
1896.72
 20
954.9
 30
0.0
 11
1896.72
 21
942.3
 31
0.0
  0
TEXT
  8
0
  6
CONTINUOUS
 62
     2
 10
2208.42
 20
1286.7
 30
9.0
 40
21.0
  1
推力リミッタ
 50
0.0
 41
0.9
 51
0.0
  7
KANJI62
  0
TEXT
  8
0
  6
CONTINUOUS
 62
     2
 10
2265.42
 20
1034.7
 30
1.8
 40
18.0
  1
Ｅ
 50
0.0
 41
0.9
 51
0.0
  7
KANJI63
  0
TEXT
  8
0
  6
CONTINUOUS
 62
     2
 10
2221.92
 20
949.5
 30
12.0
 40
21.0
  1
同時切り
 50
0.0
 41
0.9
 51
0.0
  7
KANJI64
  0
TEXT
  8
0
  6
CONTINUOUS
 62
     2
 10
1948.92
 20
991.5
 30
141.36
 40
22.8
  1
形式
 50
0.0
 41
0.9
 51
0.0
  7
KANJI56
  0
TEXT
  8
0
  6
CONTINUOUS
 62
     2
 10
1948.92
 20
949.5
 30
33.439782857
 40
22.8
  1
操作方式
 50
0.0
 41
0.9
 51
0.0
  7
KANJI54
  0
LINE
  8
0
  6
CONTINUOUS
 62
     2
 10
1896.72
 20
1190.1
 30
0.0
 11
1896.72
 21
1176.3
 31
0.0
  0
TEXT
  8
0
  6
CONTINUOUS
 62
     2
 10
1948.92
 20
1201.5
 30
3.0
 40
22.8
  1
出力　相数　極数
 50
0.0
 41
0.9
 51
0.0
  7
KANJI65
  0
TEXT
  8
0
  6
CONTINUOUS
 62
     2
 10
1906.92
 20
1411.5
 30
12.0
 40
22.8
  1
公称速度
 50
0.0
 41
0.9
 51
0.0
  7
KANJI66
  0
TEXT
  8
0
  6
CONTINUOUS
 62
     2
 10
2030.82
 20
1410.3
 30
0.0
 40
21.0
  1
（５０／６０Ｈｚ）
 50
0.0
 41
0.628571429
 51
0.0
  7
KANJI67
  0
TEXT
  8
0
  6
CONTINUOUS
 62
     2
 10
2151.42
 20
991.95
 30
3.3
 40
20.4
  1
スプリング制動式電磁ブレーキ
 50
0.0
 41
0.705882353
 51
0.0
  7
KANJI68
  0
TEXT
  8
0
  6
CONTINUOUS
 62
     2
 10
2370.42
 20
1159.5
 30
0.216
 40
18.0
  1
Ｖ
 50
0.0
 41
0.8
 51
0.0
  7
KANJI69
  0
TEXT
  8
0
  6
CONTINUOUS
 62
     2
 10
2359.62
 20
1117.5
 30
0.216
 40
18.0
  1
Ｈｚ
 50
0.0
 41
0.8
 51
0.0
  7
KANJI69
  0
TEXT
  8
0
  6
CONTINUOUS
 62
     2
 10
2370.42
 20
1075.5
 30
0.216
 40
18.0
  1
Ａ
 50
0.0
 41
0.8
 51
0.0
  7
KANJI69
  0
TEXT
  8
0
  6
CONTINUOUS
 62
     2
 10
2291.52
 20
1202.7
 30
1.8
 40
18.0
  1
３φ
 50
0.0
 41
0.9
 51
0.0
  7
KANJI63
  0
TEXT
  8
0
  6
CONTINUOUS
 62
     2
 10
2351.52
 20
1202.7
 30
1.8
 40
18.0
  1
４Ｐ
 50
0.0
 41
0.9
 51
0.0
  7
KANJI63
  0
TEXT
  8
0
  6
CONTINUOUS
 62
     2
 10
2149.92
 20
1244.7
 30
1.2
 40
19.2
  1
マンセル　７．５ＧＹ　５／４．５
 50
0.0
 41
0.71875
 51
0.0
  7
KANJI70
  0
TEXT
  8
0
  6
CONTINUOUS
 62
     2
 10
2149.92
 20
1160.7
 30
1.8
 40
18.0
  1
　　　　　　　／　　　
 50
0.0
 41
0.9
 51
0.0
  7
KANJI63
  0
TEXT
  8
0
  6
CONTINUOUS
 62
     2
 10
2149.92
 20
1118.7
 30
1.8
 40
18.0
  1
　　　　５０／　６０
 50
0.0
 41
0.9
 51
0.0
  7
KANJI63
  0
TEXT
  8
0
  6
CONTINUOUS
 62
     2
 10
2149.92
 20
1076.7
 30
1.8
 40
18.0
  1
　　　　　　　／　　　
 50
0.0
 41
0.9
 51
0.0
  7
KANJI63
  0
TEXT
  8
0
  6
CONTINUOUS
 62
     2
 10
2354.52
 20
1455.9
 30
0.1536
 40
19.2
  1
ｍｍ
 50
0.0
 41
0.8
 51
0.0
  7
KANJI71
  0
TEXT
  8
0
  6
CONTINUOUS
 62
     2
 10
2208.42
 20
1328.7
 30
9.0
 40
21.0
  1
全閉屋内形
 50
0.0
 41
0.9
 51
0.0
  7
KANJI62
  0
TEXT
  8
0
  6
CONTINUOUS
 62
     2
 10
2315.52
 20
1412.7
 30
0.0
 40
21.0
  1
ｍｍ／ｓｅｃ
 50
0.0
 41
0.571428571
 51
0.0
  7
KANJI72
  0
TEXT
  8
0
  6
CONTINUOUS
 62
     2
 10
2155.92
 20
1202.7
 30
1.8
 40
18.0
  1
　１．１ＫＷ
 50
0.0
 41
0.9
 51
0.0
  7
KANJI63
  0
TEXT
  8
0
  6
CONTINUOUS
 62
     2
 10
2193.72
 20
1496.7
 30
1.8
 40
18.0
  1
１９．６ＫＮ（２ｔｏｎ）
 50
0.0
 41
0.9
 51
0.0
  7
KANJI63
  0
TEXT
  8
0
  6
CONTINUOUS
 62
     2
 10
2152.92
 20
1412.7
 30
1.8
 40
18.0
  1
　２４．２／２９
 50
0.0
 41
0.9
 51
0.0
  7
KANJI63
  0
TEXT
  8
0
  6
CONTINUOUS
 62
     2
 10
2163.42
 20
1536.6
 30
1.2
 40
18.0
  1
ＭＣＬＤ２Ｃ－　
 50
0.0
 41
0.833333333
 51
0.0
  7
KANJI73
  0
LINE
  8
0
  6
CONTINUOUS
 62
     1
 10
1873.92
 20
1628.7
 30
0.0
 11
1873.92
 21
770.7
 31
0.0
  0
LINE
  8
0
  6
CONTINUOUS
 62
     2
 10
2149.92
 20
1568.7
 30
0.0
 11
2149.92
 21
770.7
 31
0.0
  0
LINE
  8
0
  6
CONTINUOUS
 62
     1
 10
2398.92
 20
1628.7
 30
0.0
 11
2398.92
 21
770.7
 31
0.0
  0
LINE
  8
0
  6
CONTINUOUS
 62
     1
 10
1873.92
 20
770.7
 30
0.0
 11
2398.92
 21
770.7
 31
0.0
  0
LINE
  8
0
  6
CONTINUOUS
 62
     2
 10
1873.92
 20
812.7
 30
0.0
 11
2398.92
 21
812.7
 31
0.0
  0
TEXT
  8
0
  6
CONTINUOUS
 62
     2
 10
2343.72
 20
782.88
 30
0.0
 40
21.0
  1
ｋｇ
 50
0.0
 41
0.9
 51
0.0
  7
KANJI74
  0
TEXT
  8
0
  6
CONTINUOUS
 62
     2
 10
1905.72
 20
781.5
 30
6.0
 40
21.0
  1
概算重量（１台当り）
 50
0.0
 41
0.857142857
 51
0.0
  7
KANJI75
  0
TEXT
  8
0
  6
CONTINUOUS
 62
     2
 10
2182.92
 20
1370.7
 30
0.0
 40
18.0
  1
３９Ｎ・ｍ（４ｋｇ・ｍ）
 50
0.0
 41
0.833333333
 51
0.0
  7
KANJI76
  0
ENDSEC
  0
EOF
