  0
SECTION
  2
HEADER
  9
$ACADVER
  1
AC1009
  9
$DWGCODEPAGE
  3
dos932
  9
$EXTMIN
 10
0.0
 20
0.0
 30
0.0
  9
$EXTMAX
 10
2520.0
 20
1782.0
 30
0.0
  9
$LIMMIN
 10
0.0
 20
0.0
  9
$LIMMAX
 10
2520.0
 20
1782.0
  9
$LTSCALE
 40
1.0
  9
$PDMODE
 70
     0
  0
ENDSEC
  0
SECTION
  2
TABLES
  0
TABLE
  2
VPORT
 70
     1
  0
VPORT
  2
*ACTIVE
 70
     0
 10
0.0
 20
0.0
 11
1.0
 21
1.0
 12
1260.0
 22
891.0
 13
0.0
 23
0.0
 14
10.0
 24
10.0
 15
10.0
 25
10.0
 16
0.0
 26
0.0
 36
1.0
 17
0.0
 27
0.0
 37
0.0
 40
2520.0
 41
1.414141414
 42
50.0
 43
0.0
 44
0.0
 50
0.0
 51
0.0
 71
     0
 72
  1000
 73
     1
 74
     3
 75
     0
 76
     0
 77
     0
 78
     0
  0
ENDTAB
  0
TABLE
  2
LTYPE
 70
     6
  0
LTYPE
  2
CONTINUOUS
 70
    64
  3
Solid line
 72
    65
 73
     0
 40
0.0
  0
LTYPE
  2
LTYPE1
 70
    64
  3
HIDDEN
 72
    65
 73
     2
 40
18.0
 49
10.8
 49
-7.2
  0
LTYPE
  2
LTYPE2
 70
    64
  3
CENTER
 72
    65
 73
     4
 40
90.0
 49
63.0
 49
-9.0
 49
9.0
 49
-9.0
  0
LTYPE
  2
LTYPE3
 70
    64
  3
CENTER
 72
    65
 73
     4
 40
60.0
 49
42.0
 49
-6.0
 49
6.0
 49
-6.0
  0
LTYPE
  2
LTYPE4
 70
    64
  3
CENTER
 72
    65
 73
     4
 40
54.0
 49
37.8
 49
-5.4
 49
5.4
 49
-5.4
  0
LTYPE
  2
LTYPE5
 70
    64
  3
CENTER
 72
    65
 73
     4
 40
120.0
 49
84.0
 49
-12.0
 49
12.0
 49
-12.0
  0
ENDTAB
  0
TABLE
  2
LAYER
 70
   128
  0
LAYER
  2
0
 70
     0
 62
     7
  6
CONTINUOUS
  0
LAYER
  2
2
 70
     0
 62
     7
  6
CONTINUOUS
  0
LAYER
  2
3
 70
     0
 62
     7
  6
CONTINUOUS
  0
LAYER
  2
4
 70
     0
 62
     7
  6
CONTINUOUS
  0
LAYER
  2
5
 70
     0
 62
     7
  6
CONTINUOUS
  0
LAYER
  2
6
 70
     0
 62
     7
  6
CONTINUOUS
  0
LAYER
  2
7
 70
     0
 62
     7
  6
CONTINUOUS
  0
LAYER
  2
8
 70
     0
 62
     7
  6
CONTINUOUS
  0
LAYER
  2
9
 70
     0
 62
     7
  6
CONTINUOUS
  0
LAYER
  2
10
 70
     0
 62
     7
  6
CONTINUOUS
  0
LAYER
  2
11
 70
     0
 62
     7
  6
CONTINUOUS
  0
LAYER
  2
12
 70
     0
 62
     7
  6
CONTINUOUS
  0
LAYER
  2
13
 70
     0
 62
     7
  6
CONTINUOUS
  0
LAYER
  2
14
 70
     0
 62
     7
  6
CONTINUOUS
  0
LAYER
  2
15
 70
     0
 62
     7
  6
CONTINUOUS
  0
LAYER
  2
16
 70
     0
 62
     7
  6
CONTINUOUS
  0
LAYER
  2
17
 70
     0
 62
     7
  6
CONTINUOUS
  0
LAYER
  2
18
 70
     0
 62
     7
  6
CONTINUOUS
  0
LAYER
  2
19
 70
     0
 62
     7
  6
CONTINUOUS
  0
LAYER
  2
20
 70
     0
 62
     7
  6
CONTINUOUS
  0
LAYER
  2
21
 70
     0
 62
     7
  6
CONTINUOUS
  0
LAYER
  2
22
 70
     0
 62
     7
  6
CONTINUOUS
  0
LAYER
  2
23
 70
     0
 62
     7
  6
CONTINUOUS
  0
LAYER
  2
24
 70
     0
 62
     7
  6
CONTINUOUS
  0
LAYER
  2
25
 70
     0
 62
     7
  6
CONTINUOUS
  0
LAYER
  2
26
 70
     0
 62
     7
  6
CONTINUOUS
  0
LAYER
  2
27
 70
     0
 62
     7
  6
CONTINUOUS
  0
LAYER
  2
28
 70
     0
 62
     7
  6
CONTINUOUS
  0
LAYER
  2
29
 70
     0
 62
     7
  6
CONTINUOUS
  0
LAYER
  2
30
 70
     0
 62
     7
  6
CONTINUOUS
  0
LAYER
  2
31
 70
     0
 62
     7
  6
CONTINUOUS
  0
LAYER
  2
32
 70
     0
 62
     7
  6
CONTINUOUS
  0
LAYER
  2
33
 70
     0
 62
     7
  6
CONTINUOUS
  0
LAYER
  2
34
 70
     0
 62
     7
  6
CONTINUOUS
  0
LAYER
  2
35
 70
     0
 62
     7
  6
CONTINUOUS
  0
LAYER
  2
36
 70
     0
 62
     7
  6
CONTINUOUS
  0
LAYER
  2
37
 70
     0
 62
     7
  6
CONTINUOUS
  0
LAYER
  2
38
 70
     0
 62
     7
  6
CONTINUOUS
  0
LAYER
  2
39
 70
     0
 62
     7
  6
CONTINUOUS
  0
LAYER
  2
40
 70
     0
 62
     7
  6
CONTINUOUS
  0
LAYER
  2
41
 70
     0
 62
     7
  6
CONTINUOUS
  0
LAYER
  2
42
 70
     0
 62
     7
  6
CONTINUOUS
  0
LAYER
  2
43
 70
     0
 62
     7
  6
CONTINUOUS
  0
LAYER
  2
44
 70
     0
 62
     7
  6
CONTINUOUS
  0
LAYER
  2
45
 70
     0
 62
     7
  6
CONTINUOUS
  0
LAYER
  2
46
 70
     0
 62
     7
  6
CONTINUOUS
  0
LAYER
  2
47
 70
     0
 62
     7
  6
CONTINUOUS
  0
LAYER
  2
48
 70
     0
 62
     7
  6
CONTINUOUS
  0
LAYER
  2
49
 70
     0
 62
     7
  6
CONTINUOUS
  0
LAYER
  2
50
 70
     0
 62
     7
  6
CONTINUOUS
  0
LAYER
  2
51
 70
     0
 62
     7
  6
CONTINUOUS
  0
LAYER
  2
52
 70
     0
 62
     7
  6
CONTINUOUS
  0
LAYER
  2
53
 70
     0
 62
     7
  6
CONTINUOUS
  0
LAYER
  2
54
 70
     0
 62
     7
  6
CONTINUOUS
  0
LAYER
  2
55
 70
     0
 62
     7
  6
CONTINUOUS
  0
LAYER
  2
56
 70
     0
 62
     7
  6
CONTINUOUS
  0
LAYER
  2
57
 70
     0
 62
     7
  6
CONTINUOUS
  0
LAYER
  2
58
 70
     0
 62
     7
  6
CONTINUOUS
  0
LAYER
  2
59
 70
     0
 62
     7
  6
CONTINUOUS
  0
LAYER
  2
60
 70
     0
 62
     7
  6
CONTINUOUS
  0
LAYER
  2
61
 70
     0
 62
     7
  6
CONTINUOUS
  0
LAYER
  2
62
 70
     0
 62
     7
  6
CONTINUOUS
  0
LAYER
  2
63
 70
     0
 62
     7
  6
CONTINUOUS
  0
LAYER
  2
64
 70
     0
 62
     7
  6
CONTINUOUS
  0
LAYER
  2
65
 70
     0
 62
     7
  6
CONTINUOUS
  0
LAYER
  2
66
 70
     0
 62
     7
  6
CONTINUOUS
  0
LAYER
  2
67
 70
     0
 62
     7
  6
CONTINUOUS
  0
LAYER
  2
68
 70
     0
 62
     7
  6
CONTINUOUS
  0
LAYER
  2
69
 70
     0
 62
     7
  6
CONTINUOUS
  0
LAYER
  2
70
 70
     0
 62
     7
  6
CONTINUOUS
  0
LAYER
  2
71
 70
     0
 62
     7
  6
CONTINUOUS
  0
LAYER
  2
72
 70
     0
 62
     7
  6
CONTINUOUS
  0
LAYER
  2
73
 70
     0
 62
     7
  6
CONTINUOUS
  0
LAYER
  2
74
 70
     0
 62
     7
  6
CONTINUOUS
  0
LAYER
  2
75
 70
     0
 62
     7
  6
CONTINUOUS
  0
LAYER
  2
76
 70
     0
 62
     7
  6
CONTINUOUS
  0
LAYER
  2
77
 70
     0
 62
     7
  6
CONTINUOUS
  0
LAYER
  2
78
 70
     0
 62
     7
  6
CONTINUOUS
  0
LAYER
  2
79
 70
     0
 62
     7
  6
CONTINUOUS
  0
LAYER
  2
80
 70
     0
 62
     7
  6
CONTINUOUS
  0
LAYER
  2
81
 70
     0
 62
     7
  6
CONTINUOUS
  0
LAYER
  2
82
 70
     0
 62
     7
  6
CONTINUOUS
  0
LAYER
  2
83
 70
     0
 62
     7
  6
CONTINUOUS
  0
LAYER
  2
84
 70
     0
 62
     7
  6
CONTINUOUS
  0
LAYER
  2
85
 70
     0
 62
     7
  6
CONTINUOUS
  0
LAYER
  2
86
 70
     0
 62
     7
  6
CONTINUOUS
  0
LAYER
  2
87
 70
     0
 62
     7
  6
CONTINUOUS
  0
LAYER
  2
88
 70
     0
 62
     7
  6
CONTINUOUS
  0
LAYER
  2
89
 70
     0
 62
     7
  6
CONTINUOUS
  0
LAYER
  2
90
 70
     0
 62
     7
  6
CONTINUOUS
  0
LAYER
  2
91
 70
     0
 62
     7
  6
CONTINUOUS
  0
LAYER
  2
92
 70
     0
 62
     7
  6
CONTINUOUS
  0
LAYER
  2
93
 70
     0
 62
     7
  6
CONTINUOUS
  0
LAYER
  2
94
 70
     0
 62
     7
  6
CONTINUOUS
  0
LAYER
  2
95
 70
     0
 62
     7
  6
CONTINUOUS
  0
LAYER
  2
96
 70
     0
 62
     7
  6
CONTINUOUS
  0
LAYER
  2
97
 70
     0
 62
     7
  6
CONTINUOUS
  0
LAYER
  2
98
 70
     0
 62
     7
  6
CONTINUOUS
  0
LAYER
  2
99
 70
     0
 62
     7
  6
CONTINUOUS
  0
LAYER
  2
100
 70
     0
 62
     7
  6
CONTINUOUS
  0
LAYER
  2
101
 70
     0
 62
     7
  6
CONTINUOUS
  0
LAYER
  2
102
 70
     0
 62
     7
  6
CONTINUOUS
  0
LAYER
  2
103
 70
     0
 62
     7
  6
CONTINUOUS
  0
LAYER
  2
104
 70
     0
 62
     7
  6
CONTINUOUS
  0
LAYER
  2
105
 70
     0
 62
     7
  6
CONTINUOUS
  0
LAYER
  2
106
 70
     0
 62
     7
  6
CONTINUOUS
  0
LAYER
  2
107
 70
     0
 62
     7
  6
CONTINUOUS
  0
LAYER
  2
108
 70
     0
 62
     7
  6
CONTINUOUS
  0
LAYER
  2
109
 70
     0
 62
     7
  6
CONTINUOUS
  0
LAYER
  2
110
 70
     0
 62
     7
  6
CONTINUOUS
  0
LAYER
  2
111
 70
     0
 62
     7
  6
CONTINUOUS
  0
LAYER
  2
112
 70
     0
 62
     7
  6
CONTINUOUS
  0
LAYER
  2
113
 70
     0
 62
     7
  6
CONTINUOUS
  0
LAYER
  2
114
 70
     0
 62
     7
  6
CONTINUOUS
  0
LAYER
  2
115
 70
     0
 62
     7
  6
CONTINUOUS
  0
LAYER
  2
116
 70
     0
 62
     7
  6
CONTINUOUS
  0
LAYER
  2
117
 70
     0
 62
     7
  6
CONTINUOUS
  0
LAYER
  2
118
 70
     0
 62
     7
  6
CONTINUOUS
  0
LAYER
  2
119
 70
     0
 62
     7
  6
CONTINUOUS
  0
LAYER
  2
120
 70
     0
 62
     7
  6
CONTINUOUS
  0
LAYER
  2
121
 70
     0
 62
     7
  6
CONTINUOUS
  0
LAYER
  2
122
 70
     0
 62
     7
  6
CONTINUOUS
  0
LAYER
  2
123
 70
     0
 62
     7
  6
CONTINUOUS
  0
LAYER
  2
124
 70
     0
 62
     7
  6
CONTINUOUS
  0
LAYER
  2
125
 70
     0
 62
     7
  6
CONTINUOUS
  0
LAYER
  2
126
 70
     0
 62
     7
  6
CONTINUOUS
  0
LAYER
  2
127
 70
     0
 62
     7
  6
CONTINUOUS
  0
LAYER
  2
128
 70
     0
 62
     7
  6
CONTINUOUS
  0
ENDTAB
  0
TABLE
  2
STYLE
 70
    81
  0
STYLE
  2
STANDARD
 70
     0
 40
0.0
 41
1.0
 50
0.0
 71
     0
 42
0.2
  3
txt.shx
  4
extfont.shx
  0
STYLE
  2
KANJI0
 70
     0
 40
15.5999988
 41
0.75
 50
0.0
 71
     0
 42
15.5999988
  3
txt.shx
  4
extfont.shx
  0
STYLE
  2
KANJI1
 70
     0
 40
11.999997477
 41
0.6
 50
0.0
 71
     0
 42
11.999997477
  3
txt.shx
  4
extfont.shx
  0
STYLE
  2
KANJI2
 70
     0
 40
14.399996972
 41
0.9
 50
0.0
 71
     0
 42
14.399996972
  3
txt.shx
  4
extfont.shx
  0
STYLE
  2
KANJI3
 70
     0
 40
17.999996215
 41
0.9
 50
0.0
 71
     0
 42
17.999996215
  3
txt.shx
  4
extfont.shx
  0
STYLE
  2
KANJI4
 70
     0
 40
10.3999992
 41
0.6
 50
0.0
 71
     0
 42
10.3999992
  3
txt.shx
  4
extfont.shx
  0
STYLE
  2
KANJI5
 70
     0
 40
12.47999904
 41
0.6
 50
0.0
 71
     0
 42
12.47999904
  3
txt.shx
  4
extfont.shx
  0
STYLE
  2
KANJI6
 70
     0
 40
18.1999986
 41
0.42031746
 50
0.0
 71
     0
 42
18.1999986
  3
txt.shx
  4
extfont.shx
  0
STYLE
  2
KANJI7
 70
     0
 40
31.1999976
 41
0.9
 50
0.0
 71
     0
 42
31.1999976
  3
txt.shx
  4
extfont.shx
  0
STYLE
  2
KANJI8
 70
     0
 40
21.6
 41
1.111111111
 50
0.0
 71
     0
 42
21.6
  3
txt.shx
  4
extfont.shx
  0
STYLE
  2
KANJI9
 70
     0
 40
10.3999992
 41
0.8
 50
0.0
 71
     0
 42
10.3999992
  3
txt.shx
  4
extfont.shx
  0
STYLE
  2
KANJI10
 70
     0
 40
12.47999904
 41
0.8
 50
0.0
 71
     0
 42
12.47999904
  3
txt.shx
  4
extfont.shx
  0
STYLE
  2
KANJI11
 70
     0
 40
30.0
 41
1.0
 50
0.0
 71
     0
 42
30.0
  3
txt.shx
  4
extfont.shx
  0
STYLE
  2
KANJI12
 70
     0
 40
30.0
 41
1.0
 50
0.0
 71
     0
 42
30.0
  3
txt.shx
  4
extfont.shx
  0
STYLE
  2
KANJI13
 70
     0
 40
30.0
 41
0.8
 50
0.0
 71
     0
 42
30.0
  3
txt.shx
  4
extfont.shx
  0
STYLE
  2
KANJI14
 70
     0
 40
24.0
 41
1.0
 50
0.0
 71
     0
 42
24.0
  3
txt.shx
  4
extfont.shx
  0
STYLE
  2
KANJI15
 70
     0
 40
21.0
 41
0.857142857
 50
0.0
 71
     0
 42
21.0
  3
txt.shx
  4
extfont.shx
  0
STYLE
  2
KANJI16
 70
     0
 40
27.0
 41
0.666666667
 50
0.0
 71
     0
 42
27.0
  3
txt.shx
  4
extfont.shx
  0
STYLE
  2
KANJI17
 70
     0
 40
13.86
 41
0.9
 50
0.0
 71
     0
 42
13.86
  3
txt.shx
  4
extfont.shx
  0
STYLE
  2
KANJI18
 70
     0
 40
21.0
 41
0.793650794
 50
0.0
 71
     0
 42
21.0
  3
txt.shx
  4
extfont.shx
  0
STYLE
  2
KANJI19
 70
     0
 40
30.0
 41
0.8
 50
0.0
 71
     0
 42
30.0
  3
txt.shx
  4
extfont.shx
  0
STYLE
  2
KANJI20
 70
     0
 40
18.0
 41
0.9
 50
0.0
 71
     0
 42
18.0
  3
txt.shx
  4
extfont.shx
  0
STYLE
  2
KANJI21
 70
     0
 40
24.0
 41
0.9
 50
0.0
 71
     0
 42
24.0
  3
txt.shx
  4
extfont.shx
  0
STYLE
  2
KANJI22
 70
     0
 40
21.0
 41
0.857142857
 50
0.0
 71
     0
 42
21.0
  3
txt.shx
  4
extfont.shx
  0
STYLE
  2
KANJI23
 70
     0
 40
11.661
 41
0.822608696
 50
0.0
 71
     0
 42
11.661
  3
txt.shx
  4
extfont.shx
  0
STYLE
  2
KANJI24
 70
     0
 40
13.182
 41
0.85
 50
0.0
 71
     0
 42
13.182
  3
txt.shx
  4
extfont.shx
  0
STYLE
  2
KANJI25
 70
     0
 40
11.8638
 41
0.726495726
 50
0.0
 71
     0
 42
11.8638
  3
txt.shx
  4
extfont.shx
  0
STYLE
  2
KANJI26
 70
     4
 40
55.0
 41
0.440318182
 50
0.0
 71
     0
 42
55.0
  3
txt.shx
  4
extfont.shx
  0
STYLE
  2
KANJI27
 70
     0
 40
17.740702234
 41
0.880962996
 50
0.0
 71
     0
 42
17.740702234
  3
txt.shx
  4
extfont.shx
  0
STYLE
  2
KANJI28
 70
     0
 40
11.7
 41
0.8
 50
0.0
 71
     0
 42
11.7
  3
txt.shx
  4
extfont.shx
  0
STYLE
  2
KANJI29
 70
     0
 40
15.0
 41
0.911
 50
0.0
 71
     0
 42
15.0
  3
txt.shx
  4
extfont.shx
  0
STYLE
  2
KANJI30
 70
     0
 40
15.6
 41
0.925
 50
0.0
 71
     0
 42
15.6
  3
txt.shx
  4
extfont.shx
  0
STYLE
  2
KANJI31
 70
     0
 40
10.933904043
 41
0.9
 50
0.0
 71
     0
 42
10.933904043
  3
txt.shx
  4
extfont.shx
  0
STYLE
  2
KANJI32
 70
     0
 40
15.185977837
 41
0.66671875
 50
0.0
 71
     0
 42
15.185977837
  3
txt.shx
  4
extfont.shx
  0
STYLE
  2
KANJI33
 70
     0
 40
18.223173404
 41
0.9
 50
0.0
 71
     0
 42
18.223173404
  3
txt.shx
  4
extfont.shx
  0
STYLE
  2
KANJI34
 70
     0
 40
14.578538724
 41
0.9
 50
0.0
 71
     0
 42
14.578538724
  3
txt.shx
  4
extfont.shx
  0
STYLE
  2
KANJI35
 70
     0
 40
16.17
 41
0.9
 50
0.0
 71
     0
 42
16.17
  3
txt.shx
  4
extfont.shx
  0
STYLE
  2
KANJI36
 70
     0
 40
15.0
 41
0.9
 50
0.0
 71
     0
 42
15.0
  3
txt.shx
  4
extfont.shx
  0
STYLE
  2
KANJI37
 70
     0
 40
18.0
 41
0.9
 50
0.0
 71
     0
 42
18.0
  3
txt.shx
  4
extfont.shx
  0
STYLE
  2
KANJI38
 70
     0
 40
15.0
 41
0.9
 50
0.0
 71
     0
 42
15.0
  3
txt.shx
  4
extfont.shx
  0
STYLE
  2
KANJI39
 70
     0
 40
20.0
 41
0.925
 50
0.0
 71
     0
 42
20.0
  3
txt.shx
  4
extfont.shx
  0
STYLE
  2
KANJI40
 70
     0
 40
10.0
 41
0.85
 50
0.0
 71
     0
 42
10.0
  3
txt.shx
  4
extfont.shx
  0
STYLE
  2
KANJI41
 70
     0
 40
10.0
 41
0.75
 50
0.0
 71
     0
 42
10.0
  3
txt.shx
  4
extfont.shx
  0
STYLE
  2
KANJI42
 70
     0
 40
18.0
 41
0.9
 50
0.0
 71
     0
 42
18.0
  3
txt.shx
  4
extfont.shx
  0
STYLE
  2
KANJI43
 70
     0
 40
20.0
 41
0.925
 50
0.0
 71
     0
 42
20.0
  3
txt.shx
  4
extfont.shx
  0
STYLE
  2
KANJI44
 70
     0
 40
12.0
 41
1.0
 50
0.0
 71
     0
 42
12.0
  3
txt.shx
  4
extfont.shx
  0
STYLE
  2
KANJI45
 70
     0
 40
12.0
 41
0.9
 50
0.0
 71
     0
 42
12.0
  3
txt.shx
  4
extfont.shx
  0
STYLE
  2
KANJI46
 70
     0
 40
15.36
 41
0.9
 50
0.0
 71
     0
 42
15.36
  3
txt.shx
  4
extfont.shx
  0
STYLE
  2
KANJI47
 70
     0
 40
14.4
 41
0.9
 50
0.0
 71
     0
 42
14.4
  3
txt.shx
  4
extfont.shx
  0
STYLE
  2
KANJI48
 70
     0
 40
14.4
 41
0.9
 50
0.0
 71
     0
 42
14.4
  3
txt.shx
  4
extfont.shx
  0
STYLE
  2
KANJI49
 70
     0
 40
16.8
 41
0.9
 50
0.0
 71
     0
 42
16.8
  3
txt.shx
  4
extfont.shx
  0
STYLE
  2
KANJI50
 70
     0
 40
12.96
 41
0.740740741
 50
0.0
 71
     0
 42
12.96
  3
txt.shx
  4
extfont.shx
  0
STYLE
  2
KANJI51
 70
     0
 40
16.8
 41
0.857142857
 50
0.0
 71
     0
 42
16.8
  3
txt.shx
  4
extfont.shx
  0
STYLE
  2
KANJI52
 70
     0
 40
14.4
 41
0.833333333
 50
0.0
 71
     0
 42
14.4
  3
txt.shx
  4
extfont.shx
  0
STYLE
  2
KANJI53
 70
     0
 40
21.0
 41
0.571428571
 50
0.0
 71
     0
 42
21.0
  3
txt.shx
  4
extfont.shx
  0
STYLE
  2
KANJI54
 70
     0
 40
22.8
 41
0.9
 50
0.0
 71
     0
 42
22.8
  3
txt.shx
  4
extfont.shx
  0
STYLE
  2
KANJI55
 70
     0
 40
22.8
 41
0.9
 50
0.0
 71
     0
 42
22.8
  3
txt.shx
  4
extfont.shx
  0
STYLE
  2
KANJI56
 70
     0
 40
27.0
 41
0.9
 50
0.0
 71
     0
 42
27.0
  3
txt.shx
  4
extfont.shx
  0
STYLE
  2
KANJI57
 70
     0
 40
22.8
 41
0.9
 50
0.0
 71
     0
 42
22.8
  3
txt.shx
  4
extfont.shx
  0
STYLE
  2
KANJI58
 70
     0
 40
22.8
 41
0.9
 50
0.0
 71
     0
 42
22.8
  3
txt.shx
  4
extfont.shx
  0
STYLE
  2
KANJI59
 70
     0
 40
22.8
 41
0.9
 50
0.0
 71
     0
 42
22.8
  3
txt.shx
  4
extfont.shx
  0
STYLE
  2
KANJI60
 70
     0
 40
22.8
 41
0.9
 50
0.0
 71
     0
 42
22.8
  3
txt.shx
  4
extfont.shx
  0
STYLE
  2
KANJI61
 70
     0
 40
22.8
 41
0.9
 50
0.0
 71
     0
 42
22.8
  3
txt.shx
  4
extfont.shx
  0
STYLE
  2
KANJI62
 70
     0
 40
22.8
 41
0.9
 50
0.0
 71
     0
 42
22.8
  3
txt.shx
  4
extfont.shx
  0
STYLE
  2
KANJI63
 70
     4
 40
21.0
 41
0.9
 50
0.0
 71
     0
 42
21.0
  3
txt.shx
  4
extfont.shx
  0
STYLE
  2
KANJI64
 70
     4
 40
21.0
 41
0.9
 50
0.0
 71
     0
 42
21.0
  3
txt.shx
  4
extfont.shx
  0
STYLE
  2
KANJI65
 70
     0
 40
21.0
 41
0.9
 50
0.0
 71
     0
 42
21.0
  3
txt.shx
  4
extfont.shx
  0
STYLE
  2
KANJI66
 70
     0
 40
18.0
 41
0.9
 50
0.0
 71
     0
 42
18.0
  3
txt.shx
  4
extfont.shx
  0
STYLE
  2
KANJI67
 70
     0
 40
21.0
 41
0.9
 50
0.0
 71
     0
 42
21.0
  3
txt.shx
  4
extfont.shx
  0
STYLE
  2
KANJI68
 70
     0
 40
22.8
 41
0.9
 50
0.0
 71
     0
 42
22.8
  3
txt.shx
  4
extfont.shx
  0
STYLE
  2
KANJI69
 70
     0
 40
22.8
 41
0.9
 50
0.0
 71
     0
 42
22.8
  3
txt.shx
  4
extfont.shx
  0
STYLE
  2
KANJI70
 70
     0
 40
21.0
 41
0.628571429
 50
0.0
 71
     0
 42
21.0
  3
txt.shx
  4
extfont.shx
  0
STYLE
  2
KANJI71
 70
     0
 40
20.4
 41
0.705882353
 50
0.0
 71
     0
 42
20.4
  3
txt.shx
  4
extfont.shx
  0
STYLE
  2
KANJI72
 70
     0
 40
18.0
 41
0.8
 50
0.0
 71
     0
 42
18.0
  3
txt.shx
  4
extfont.shx
  0
STYLE
  2
KANJI73
 70
     0
 40
19.2
 41
0.71875
 50
0.0
 71
     0
 42
19.2
  3
txt.shx
  4
extfont.shx
  0
STYLE
  2
KANJI74
 70
     0
 40
19.2
 41
0.8
 50
0.0
 71
     0
 42
19.2
  3
txt.shx
  4
extfont.shx
  0
STYLE
  2
KANJI75
 70
     0
 40
21.0
 41
0.571428571
 50
0.0
 71
     0
 42
21.0
  3
txt.shx
  4
extfont.shx
  0
STYLE
  2
KANJI76
 70
     0
 40
18.0
 41
0.833333333
 50
0.0
 71
     0
 42
18.0
  3
txt.shx
  4
extfont.shx
  0
STYLE
  2
KANJI77
 70
     0
 40
21.0
 41
0.9
 50
0.0
 71
     0
 42
21.0
  3
txt.shx
  4
extfont.shx
  0
STYLE
  2
KANJI78
 70
     0
 40
21.0
 41
0.857142857
 50
0.0
 71
     0
 42
21.0
  3
txt.shx
  4
extfont.shx
  0
STYLE
  2
KANJI79
 70
     0
 40
18.0
 41
0.833333333
 50
0.0
 71
     0
 42
18.0
  3
txt.shx
  4
extfont.shx
  0
ENDTAB
  0
TABLE
  2
VIEW
 70
     0
  0
ENDTAB
  0
ENDSEC
  0
SECTION
  2
BLOCKS
  0
ENDSEC
  0
SECTION
  2
ENTITIES
  0
POLYLINE
  8
0
  6
CONTINUOUS
 62
     6
 66
     1
  0
VERTEX
  8
0
  6
CONTINUOUS
 62
     6
 10
82.92
 20
71.7
 30
0.0
  0
VERTEX
  8
0
  6
CONTINUOUS
 62
     6
 10
82.92
 20
1685.7
 30
0.0
  0
VERTEX
  8
0
  6
CONTINUOUS
 62
     6
 10
2404.92
 20
1685.7
 30
0.0
  0
SEQEND
  0
LINE
  8
0
  6
CONTINUOUS
 62
     6
 10
88.919998738
 20
161.699981077
 30
0.0
 11
478.919916738
 21
161.699981077
 31
0.0
  0
LINE
  8
0
  6
CONTINUOUS
 62
     6
 10
88.919998738
 20
77.699998738
 30
0.0
 11
478.919916738
 21
77.699998738
 31
0.0
  0
LINE
  8
0
  6
CONTINUOUS
 62
     6
 10
88.919998738
 20
77.699998738
 30
0.0
 11
88.919998738
 21
161.699981077
 31
0.0
  0
LINE
  8
0
  6
CONTINUOUS
 62
     6
 10
88.919998738
 20
119.699989908
 30
0.0
 11
478.919916738
 21
119.699989908
 31
0.0
  0
LINE
  8
0
  6
CONTINUOUS
 62
     4
 10
14.6199996
 20
76.8999996
 30
0.0
 11
77.0199948
 21
76.8999996
 31
0.0
  0
LINE
  8
0
  6
CONTINUOUS
 62
     4
 10
14.6199996
 20
108.0999972
 30
0.0
 11
77.0199948
 21
108.0999972
 31
0.0
  0
LINE
  8
0
  6
CONTINUOUS
 62
     4
 10
14.6199996
 20
139.2999948
 30
0.0
 11
77.0199948
 21
139.2999948
 31
0.0
  0
LINE
  8
0
  6
CONTINUOUS
 62
     4
 10
14.6199996
 20
170.4999924
 30
0.0
 11
77.0199948
 21
170.4999924
 31
0.0
  0
LINE
  8
0
  6
CONTINUOUS
 62
     4
 10
14.6199996
 20
201.69999
 30
0.0
 11
77.0199948
 21
201.69999
 31
0.0
  0
LINE
  8
0
  6
CONTINUOUS
 62
     4
 10
14.6199996
 20
232.8999876
 30
0.0
 11
77.0199948
 21
232.8999876
 31
0.0
  0
LINE
  8
0
  6
CONTINUOUS
 62
     4
 10
14.6199996
 20
264.0999852
 30
0.0
 11
77.0199948
 21
264.0999852
 31
0.0
  0
LINE
  8
0
  6
CONTINUOUS
 62
     4
 10
14.6199996
 20
295.2999828
 30
0.0
 11
77.0199948
 21
295.2999828
 31
0.0
  0
LINE
  8
0
  6
CONTINUOUS
 62
     4
 10
14.6199996
 20
326.4999804
 30
0.0
 11
77.0199948
 21
326.4999804
 31
0.0
  0
LINE
  8
0
  6
CONTINUOUS
 62
     4
 10
14.6199996
 20
357.699978
 30
0.0
 11
77.0199948
 21
357.699978
 31
0.0
  0
LINE
  8
0
  6
CONTINUOUS
 62
     4
 10
77.0199948
 20
76.8999996
 30
0.0
 11
77.0199948
 21
357.699978
 31
0.0
  0
LINE
  8
0
  6
CONTINUOUS
 62
     4
 10
45.8199972
 20
76.8999996
 30
0.0
 11
45.8199972
 21
326.4999804
 31
0.0
  0
TEXT
  8
0
  6
CONTINUOUS
 62
     4
 10
25.27999878
 20
85.9999989
 30
1.55999988
 40
15.5999988
  1
計
 50
0.0
 41
0.75
 51
0.0
  7
KANJI0
  0
TEXT
  8
0
  6
CONTINUOUS
 62
     4
 10
25.27999878
 20
148.91999406
 30
1.55999988
 40
15.5999988
  1
設
 50
0.0
 41
0.75
 51
0.0
  7
KANJI0
  0
TEXT
  8
0
  6
CONTINUOUS
 62
     4
 10
25.27999878
 20
179.5999917
 30
1.55999988
 40
15.5999988
  1
管
 50
0.0
 41
0.75
 51
0.0
  7
KANJI0
  0
TEXT
  8
0
  6
CONTINUOUS
 62
     4
 10
25.27999878
 20
210.7999893
 30
1.55999988
 40
15.5999988
  1
製
 50
0.0
 41
0.75
 51
0.0
  7
KANJI0
  0
TEXT
  8
0
  6
CONTINUOUS
 62
     4
 10
25.27999878
 20
241.9999869
 30
1.55999988
 40
15.5999988
  1
資
 50
0.0
 41
0.75
 51
0.0
  7
KANJI0
  0
TEXT
  8
0
  6
CONTINUOUS
 62
     4
 10
25.27999878
 20
273.1999845
 30
1.55999988
 40
15.5999988
  1
営
 50
0.0
 41
0.75
 51
0.0
  7
KANJI0
  0
TEXT
  8
0
  6
CONTINUOUS
 62
     4
 10
25.27999878
 20
304.3999821
 30
1.55999988
 40
15.5999988
  1
客
 50
0.0
 41
0.75
 51
0.0
  7
KANJI0
  0
TEXT
  8
0
  6
CONTINUOUS
 62
     4
 10
25.0199988
 20
336.8999796
 30
1.55999988
 40
15.5999988
  1
出　図
 50
0.0
 41
0.75
 51
0.0
  7
KANJI0
  0
LINE
  8
0
  6
CONTINUOUS
 62
     4
 10
14.6199996
 20
76.8999996
 30
0.0
 11
14.6199996
 21
357.699978
 31
0.0
  0
LINE
  8
0
  6
CONTINUOUS
 62
     6
 10
2404.92
 20
71.7
 30
0.0
 11
82.92
 21
71.7
 31
0.0
  0
TEXT
  8
0
  6
CONTINUOUS
 62
     4
 10
100.919996215
 20
101.699993692
 30
1.199999748
 40
11.999997477
  1
ＰＡＲＴＳ　ＬＩＳＴ
 50
0.0
 41
0.6
 51
0.0
  7
KANJI1
  0
TEXT
  8
0
  6
CONTINUOUS
 62
     4
 10
100.919996215
 20
83.699997477
 30
1.439999697
 40
14.399996972
  1
部品表
 50
0.0
 41
0.9
 51
0.0
  7
KANJI2
  0
TEXT
  8
0
  6
CONTINUOUS
 62
     3
 10
100.919996215
 20
131.699987385
 30
1.799999622
 40
17.999996215
  1
ＰＬ
 50
0.0
 41
0.9
 51
0.0
  7
KANJI3
  0
TEXT
  8
0
  6
CONTINUOUS
 62
     4
 10
370.919939446
 20
101.699993692
 30
1.199999748
 40
11.999997477
  1
Ｎ０．
 50
0.0
 41
0.6
 51
0.0
  7
KANJI1
  0
TEXT
  8
0
  6
CONTINUOUS
 62
     4
 10
370.919939446
 20
83.699997477
 30
1.439999697
 40
14.399996972
  1
項番
 50
0.0
 41
0.9
 51
0.0
  7
KANJI2
  0
LINE
  8
0
  6
CONTINUOUS
 62
     6
 10
478.919916738
 20
77.699998738
 30
0.0
 11
478.919916738
 21
161.699981077
 31
0.0
  0
LINE
  8
0
  6
CONTINUOUS
 62
     6
 10
358.919941969
 20
77.699998738
 30
0.0
 11
358.919941969
 21
161.699981077
 31
0.0
  0
LINE
  8
0
  6
CONTINUOUS
 62
     6
 10
2404.92
 20
1685.7
 30
0.0
 11
2404.92
 21
71.7
 31
0.0
  0
LINE
  8
0
  6
CONTINUOUS
 62
     6
 10
1598.920062
 20
76.8999996
 30
0.0
 11
1598.920062
 21
409.699974
 31
0.0
  0
LINE
  8
0
  6
CONTINUOUS
 62
     6
 10
2399.7200004
 20
76.8999996
 30
0.0
 11
2399.7200004
 21
409.699974
 31
0.0
  0
LINE
  8
0
  6
CONTINUOUS
 62
     4
 10
1788.7200474
 20
76.8999996
 30
0.0
 11
1788.7200474
 21
409.699974
 31
0.0
  0
LINE
  8
0
  6
CONTINUOUS
 62
     4
 10
1598.920062
 20
118.4999964
 30
0.0
 11
1788.7200474
 21
118.4999964
 31
0.0
  0
TEXT
  8
0
  6
CONTINUOUS
 62
     4
 10
1609.3200612
 20
100.2999978
 30
1.03999992
 40
10.3999992
  1
ＳＣＡＬＥ
 50
0.0
 41
0.6
 51
0.0
  7
KANJI4
  0
TEXT
  8
0
  6
CONTINUOUS
 62
     4
 10
1609.3200612
 20
84.699999
 30
1.247999904
 40
12.47999904
  1
尺度
 50
0.0
 41
0.6
 51
0.0
  7
KANJI5
  0
LINE
  8
0
  6
CONTINUOUS
 62
     6
 10
1188.1200936
 20
118.4999964
 30
0.0
 11
1598.920062
 21
118.4999964
 31
0.0
  0
LINE
  8
0
  6
CONTINUOUS
 62
     6
 10
1188.1200936
 20
76.8999996
 30
0.0
 11
2399.7200004
 21
76.8999996
 31
0.0
  0
TEXT
  8
0
  6
CONTINUOUS
 62
     6
 10
1793.920047
 20
100.2999978
 30
0.0
 40
18.1999986
  1
ＵＮＩＴＥＣ　ＩＮＤＵＳＴＲＹ　ＣＯ．，ＬＴＤ．
 50
0.0
 41
0.42031746
 51
0.0
  7
KANJI6
  0
TEXT
  8
0
  6
CONTINUOUS
 62
     6
 10
2049.175027365
 20
93.53999832
 30
3.11999976
 40
31.1999976
  1
ユニテック工業株式会社
 50
0.0
 41
0.9
 51
0.0
  7
KANJI7
  0
LINE
  8
0
  6
CONTINUOUS
 62
     6
 10
2007.575030565
 20
104.45999748
 30
0.0
 11
1993.847031621
 21
104.45999748
 31
0.0
  0
LINE
  8
0
  6
CONTINUOUS
 62
     6
 10
2007.575030565
 20
106.955997288
 30
0.0
 11
1993.847031621
 21
106.955997288
 31
0.0
  0
LINE
  8
0
  6
CONTINUOUS
 62
     6
 10
2007.575030565
 20
104.45999748
 30
0.0
 11
2021.303029509
 21
104.45999748
 31
0.0
  0
LINE
  8
0
  6
CONTINUOUS
 62
     6
 10
2007.575030565
 20
106.955997288
 30
0.0
 11
2021.303029509
 21
106.955997288
 31
0.0
  0
LINE
  8
0
  6
CONTINUOUS
 62
     6
 10
2021.303029509
 20
106.955997288
 30
0.0
 11
2021.303029509
 21
104.45999748
 31
0.0
  0
ARC
  8
0
  6
CONTINUOUS
 62
     6
 10
2024.423029269
 20
105.707997384
 30
0.0
 40
12.47999904
 50
185.739170477
 51
90.0
  0
ARC
  8
0
  6
CONTINUOUS
 62
     6
 10
2024.423029269
 20
105.707997384
 30
0.0
 40
14.975998848
 50
184.780191847
 51
90.0
  0
LINE
  8
0
  6
CONTINUOUS
 62
     6
 10
1993.847031621
 20
104.45999748
 30
0.0
 11
1993.847031621
 21
106.955997288
 31
0.0
  0
ARC
  8
0
  6
CONTINUOUS
 62
     6
 10
1990.727031861
 20
105.707997384
 30
0.0
 40
12.47999904
 50
90.0
 51
354.260829523
  0
ARC
  8
0
  6
CONTINUOUS
 62
     6
 10
1990.727031861
 20
105.707997384
 30
0.0
 40
14.975998848
 50
90.0
 51
355.219808153
  0
LINE
  8
0
  6
CONTINUOUS
 62
     6
 10
2005.703030709
 20
120.683996232
 30
0.0
 11
2005.703030709
 21
118.187996424
 31
0.0
  0
LINE
  8
0
  6
CONTINUOUS
 62
     6
 10
1990.727031861
 20
118.187996424
 30
0.0
 11
2005.703030709
 21
118.187996424
 31
0.0
  0
LINE
  8
0
  6
CONTINUOUS
 62
     6
 10
2009.447030421
 20
120.683996232
 30
0.0
 11
2009.447030421
 21
118.187996424
 31
0.0
  0
LINE
  8
0
  6
CONTINUOUS
 62
     6
 10
2024.423029269
 20
118.187996424
 30
0.0
 11
2009.447030421
 21
118.187996424
 31
0.0
  0
TEXT
  8
0
  6
CONTINUOUS
 62
     4
 10
1320.7200834
 20
100.2999978
 30
1.03999992
 40
10.3999992
  1
ＢＹ
 50
0.0
 41
0.6
 51
0.0
  7
KANJI4
  0
TEXT
  8
0
  6
CONTINUOUS
 62
     4
 10
1435.1200746
 20
100.2999978
 30
1.03999992
 40
10.3999992
  1
ＤＥＳＣＲＩＰＴＩＯＮ
 50
0.0
 41
0.6
 51
0.0
  7
KANJI4
  0
TEXT
  8
0
  6
CONTINUOUS
 62
     4
 10
1320.7200834
 20
84.699999
 30
1.247999904
 40
12.47999904
  1
担当
 50
0.0
 41
0.6
 51
0.0
  7
KANJI5
  0
TEXT
  8
0
  6
CONTINUOUS
 62
     4
 10
1450.7200734
 20
84.699999
 30
1.247999904
 40
12.47999904
  1
記　　　　事
 50
0.0
 41
0.6
 51
0.0
  7
KANJI5
  0
LINE
  8
0
  6
CONTINUOUS
 62
     4
 10
1210.2200919
 20
110.699997
 30
0.0
 11
1193.3200932
 21
84.699999
 31
0.0
  0
TEXT
  8
0
  6
CONTINUOUS
 62
     4
 10
1253.1200886
 20
100.2999978
 30
1.03999992
 40
10.3999992
  1
ＤＡＴＥ
 50
0.0
 41
0.6
 51
0.0
  7
KANJI4
  0
TEXT
  8
0
  6
CONTINUOUS
 62
     4
 10
1260.920088
 20
84.699999
 30
1.247999904
 40
12.47999904
  1
日付
 50
0.0
 41
0.6
 51
0.0
  7
KANJI5
  0
LINE
  8
0
  6
CONTINUOUS
 62
     4
 10
1193.3200932
 20
84.699999
 30
0.0
 11
1227.1200906
 21
84.699999
 31
0.0
  0
LINE
  8
0
  6
CONTINUOUS
 62
     4
 10
1210.2200919
 20
110.699997
 30
0.0
 11
1227.1200906
 21
84.699999
 31
0.0
  0
LINE
  8
0
  6
CONTINUOUS
 62
     6
 10
1188.1200936
 20
76.8999996
 30
0.0
 11
1188.1200936
 21
118.4999964
 31
0.0
  0
LINE
  8
0
  6
CONTINUOUS
 62
     4
 10
1232.3200902
 20
76.8999996
 30
0.0
 11
1232.3200902
 21
118.4999964
 31
0.0
  0
LINE
  8
0
  6
CONTINUOUS
 62
     4
 10
1305.1200846
 20
76.8999996
 30
0.0
 11
1305.1200846
 21
118.4999964
 31
0.0
  0
LINE
  8
0
  6
CONTINUOUS
 62
     4
 10
1351.920081
 20
76.8999996
 30
0.0
 11
1351.920081
 21
118.4999964
 31
0.0
  0
TEXT
  8
0
  6
CONTINUOUS
 62
     4
 10
1609.3200612
 20
308.2999818
 30
1.03999992
 40
10.3999992
  1
ＣＯＤＥ
 50
0.0
 41
0.6
 51
0.0
  7
KANJI4
  0
LINE
  8
0
  6
CONTINUOUS
 62
     4
 10
1598.920062
 20
326.4999804
 30
0.0
 11
2399.7200004
 21
326.4999804
 31
0.0
  0
TEXT
  8
0
  6
CONTINUOUS
 62
     4
 10
1609.3200612
 20
292.699983
 30
1.247999904
 40
12.47999904
  1
分類
 50
0.0
 41
0.6
 51
0.0
  7
KANJI5
  0
TEXT
  8
0
  6
CONTINUOUS
 62
     4
 10
1617.42
 20
332.7
 30
6.0
 40
21.6
  1
ご注文主
 50
0.0
 41
1.111111111
 51
0.0
  7
KANJI8
  0
TEXT
  8
0
  6
CONTINUOUS
 62
     4
 10
1609.3200612
 20
183.4999914
 30
1.03999992
 40
10.3999992
  1
ＤＲＡＷＮ
 50
0.0
 41
0.6
 51
0.0
  7
KANJI4
  0
TEXT
  8
0
  6
CONTINUOUS
 62
     4
 10
1609.3200612
 20
225.0999882
 30
1.03999992
 40
10.3999992
  1
ＤＥＳＩＧＮ
 50
0.0
 41
0.6
 51
0.0
  7
KANJI4
  0
TEXT
  8
0
  6
CONTINUOUS
 62
     4
 10
1609.3200612
 20
266.699985
 30
1.03999992
 40
10.3999992
  1
ＣＨＥＣＫ
 50
0.0
 41
0.6
 51
0.0
  7
KANJI4
  0
LINE
  8
0
  6
CONTINUOUS
 62
     4
 10
1598.920062
 20
243.2999868
 30
0.0
 11
1788.7200474
 21
243.2999868
 31
0.0
  0
LINE
  8
0
  6
CONTINUOUS
 62
     4
 10
1598.920062
 20
201.69999
 30
0.0
 11
1788.7200474
 21
201.69999
 31
0.0
  0
LINE
  8
0
  6
CONTINUOUS
 62
     4
 10
1598.920062
 20
284.8999836
 30
0.0
 11
1788.7200474
 21
284.8999836
 31
0.0
  0
TEXT
  8
0
  6
CONTINUOUS
 62
     4
 10
1609.3200612
 20
209.4999894
 30
1.247999904
 40
12.47999904
  1
設計
 50
0.0
 41
0.6
 51
0.0
  7
KANJI5
  0
TEXT
  8
0
  6
CONTINUOUS
 62
     4
 10
1609.3200612
 20
251.0999862
 30
1.247999904
 40
12.47999904
  1
検図
 50
0.0
 41
0.6
 51
0.0
  7
KANJI5
  0
LINE
  8
0
  6
CONTINUOUS
 62
     4
 10
1804.06004622
 20
284.8999836
 30
0.0
 11
2399.7200004
 21
284.8999836
 31
0.0
  0
LINE
  8
0
  6
CONTINUOUS
 62
     4
 10
1788.7200474
 20
201.69999
 30
0.0
 11
2399.7200004
 21
201.69999
 31
0.0
  0
TEXT
  8
0
  6
CONTINUOUS
 62
     4
 10
1799.1200466
 20
183.4999914
 30
1.03999992
 40
10.3999992
  1
ＤＲＡＷＩＮＧ　ＮＯ．
 50
0.0
 41
0.8
 51
0.0
  7
KANJI9
  0
TEXT
  8
0
  6
CONTINUOUS
 62
     4
 10
1799.1200466
 20
225.0999882
 30
1.03999992
 40
10.3999992
  1
ＭＦＧ　ＮＯ．
 50
0.0
 41
0.8
 51
0.0
  7
KANJI9
  0
TEXT
  8
0
  6
CONTINUOUS
 62
     4
 10
1799.1200466
 20
266.699985
 30
1.03999992
 40
10.3999992
  1
ＴＹＰＥ
 50
0.0
 41
0.8
 51
0.0
  7
KANJI9
  0
LINE
  8
0
  6
CONTINUOUS
 62
     4
 10
1804.3200462
 20
243.2999868
 30
0.0
 11
2043.5200278
 21
243.2999868
 31
0.0
  0
TEXT
  8
0
  6
CONTINUOUS
 62
     4
 10
1799.1200466
 20
165.2999928
 30
1.247999904
 40
12.47999904
  1
図　面　番　号
 50
0.0
 41
0.8
 51
0.0
  7
KANJI10
  0
TEXT
  8
0
  6
CONTINUOUS
 62
     4
 10
1799.1200466
 20
206.8999896
 30
1.247999904
 40
12.47999904
  1
製番
 50
0.0
 41
0.8
 51
0.0
  7
KANJI10
  0
TEXT
  8
0
  6
CONTINUOUS
 62
     4
 10
1799.1200466
 20
248.4999864
 30
1.247999904
 40
12.47999904
  1
機種
 50
0.0
 41
0.8
 51
0.0
  7
KANJI10
  0
LINE
  8
0
  6
CONTINUOUS
 62
     4
 10
1598.920062
 20
160.0999932
 30
0.0
 11
1788.7200474
 21
160.0999932
 31
0.0
  0
TEXT
  8
0
  6
CONTINUOUS
 62
     4
 10
1609.3200612
 20
141.8999946
 30
1.03999992
 40
10.3999992
  1
ＤＡＴＥ
 50
0.0
 41
0.6
 51
0.0
  7
KANJI4
  0
TEXT
  8
0
  6
CONTINUOUS
 62
     4
 10
1609.3200612
 20
126.2999958
 30
1.247999904
 40
12.47999904
  1
日付
 50
0.0
 41
0.6
 51
0.0
  7
KANJI5
  0
TEXT
  8
0
  6
CONTINUOUS
 62
     4
 10
1609.3200612
 20
167.8999926
 30
1.247999904
 40
12.47999904
  1
作図
 50
0.0
 41
0.6
 51
0.0
  7
KANJI5
  0
LINE
  8
0
  6
CONTINUOUS
 62
     4
 10
1788.7200474
 20
141.8999946
 30
0.0
 11
2399.7200004
 21
141.8999946
 31
0.0
  0
LINE
  8
0
  6
LTYPE1
 62
     4
 10
2225.5200138
 20
149.699994
 30
0.0
 11
2225.5200138
 21
191.2999908
 31
0.0
  0
LINE
  8
0
  6
LTYPE1
 62
     4
 10
2189.1200166
 20
149.699994
 30
0.0
 11
2189.1200166
 21
191.2999908
 31
0.0
  0
LINE
  8
0
  6
LTYPE1
 62
     4
 10
2152.7200194
 20
149.699994
 30
0.0
 11
2152.7200194
 21
191.2999908
 31
0.0
  0
LINE
  8
0
  6
LTYPE1
 62
     4
 10
2116.3200222
 20
149.699994
 30
0.0
 11
2116.3200222
 21
191.2999908
 31
0.0
  0
LINE
  8
0
  6
LTYPE1
 62
     4
 10
2079.920025
 20
149.699994
 30
0.0
 11
2079.920025
 21
191.2999908
 31
0.0
  0
LINE
  8
0
  6
LTYPE1
 62
     4
 10
2043.5200278
 20
149.699994
 30
0.0
 11
2043.5200278
 21
191.2999908
 31
0.0
  0
LINE
  8
0
  6
LTYPE1
 62
     4
 10
2007.1200306
 20
149.699994
 30
0.0
 11
2007.1200306
 21
191.2999908
 31
0.0
  0
LINE
  8
0
  6
LTYPE1
 62
     4
 10
1970.7200334
 20
149.699994
 30
0.0
 11
1970.7200334
 21
191.2999908
 31
0.0
  0
LINE
  8
0
  6
LTYPE1
 62
     4
 10
1970.7200334
 20
191.2999908
 30
0.0
 11
2225.5200138
 21
191.2999908
 31
0.0
  0
LINE
  8
0
  6
LTYPE1
 62
     4
 10
1970.7200334
 20
149.699994
 30
0.0
 11
2225.5200138
 21
149.699994
 31
0.0
  0
LINE
  8
0
  6
CONTINUOUS
 62
     4
 10
2246.3200122
 20
171.7999923
 30
0.0
 11
2256.7200114
 21
171.7999923
 31
0.0
  0
LINE
  8
0
  6
CONTINUOUS
 62
     4
 10
2311.3200072
 20
156.1999935
 30
0.0
 11
2274.92001
 21
156.1999935
 31
0.0
  0
LINE
  8
0
  6
CONTINUOUS
 62
     4
 10
2274.92001
 20
156.1999935
 30
0.0
 11
2293.1200086
 21
187.3999911
 31
0.0
  0
LINE
  8
0
  6
CONTINUOUS
 62
     4
 10
2293.1200086
 20
187.3999911
 30
0.0
 11
2311.3200072
 21
156.1999935
 31
0.0
  0
TEXT
  8
0
  6
CONTINUOUS
 62
     4
 10
2059.1200266
 20
266.699985
 30
1.03999992
 40
10.3999992
  1
ＴＩＴＬＥ
 50
0.0
 41
0.8
 51
0.0
  7
KANJI9
  0
TEXT
  8
0
  6
CONTINUOUS
 62
     4
 10
2059.1200266
 20
248.4999864
 30
1.247999904
 40
12.47999904
  1
名称
 50
0.0
 41
0.8
 51
0.0
  7
KANJI10
  0
TEXT
  8
0
  6
CONTINUOUS
 62
     2
 10
2143.92
 20
209.7
 30
15.0
 40
30.0
  1
外形寸法図
 50
0.0
 41
1.0
 51
0.0
  7
KANJI11
  0
TEXT
  8
0
  6
CONTINUOUS
 62
     2
 10
2107.92
 20
245.7
 30
4.285714286
 40
30.0
  1
マイティシリンダ
 50
0.0
 41
1.0
 51
0.0
  7
KANJI12
  0
TEXT
  8
0
  6
CONTINUOUS
 62
     2
 10
1939.2200334
 20
155.699994
 30
1.8
 40
30.0
  1
Ａ
 50
0.0
 41
0.8
 51
0.0
  7
KANJI13
  0
CIRCLE
  8
0
  6
CONTINUOUS
 62
     2
 10
1900.2200334
 20
220.199994
 30
0.0
 40
15.0
  0
TEXT
  8
0
  6
CONTINUOUS
 62
     2
 10
1888.9700334
 20
208.949994
 30
1.8
 40
24.0
  1
Ｓ
 50
0.0
 41
1.0
 51
0.0
  7
KANJI14
  0
LINE
  8
0
  6
CONTINUOUS
 62
     6
 10
2005.703030709
 20
120.683996232
 30
0.0
 11
1990.727031861
 21
120.683996232
 31
0.0
  0
LINE
  8
0
  6
CONTINUOUS
 62
     6
 10
2009.447030421
 20
120.683996232
 30
0.0
 11
2024.423029269
 21
120.683996232
 31
0.0
  0
TEXT
  8
0
  6
CONTINUOUS
 62
     2
 10
1665.9200334
 20
170.699994
 30
6.0
 40
21.0
  1
岡田
 50
0.0
 41
0.857142857
 51
0.0
  7
KANJI15
  0
LINE
  8
0
  6
CONTINUOUS
 62
     4
 10
2399.7200004
 20
368.0999772
 30
0.0
 11
2399.7200004
 21
409.699974
 31
0.0
  0
LINE
  8
0
  6
CONTINUOUS
 62
     6
 10
1599.670062
 20
368.0999772
 30
0.0
 11
2400.4700004
 21
368.0999772
 31
0.0
  0
LINE
  8
0
  6
CONTINUOUS
 62
     6
 10
1598.920062
 20
409.699974
 30
0.0
 11
2399.7200004
 21
409.699974
 31
0.0
  0
TEXT
  8
0
  6
CONTINUOUS
 62
     4
 10
1617.42
 20
374.2999968
 30
6.0
 40
21.6
  1
ご用途
 50
0.0
 41
1.111111111
 51
0.0
  7
KANJI8
  0
TEXT
  8
0
  6
CONTINUOUS
 62
     2
 10
1708.92
 20
83.7
 30
1.8
 40
27.0
  1
１／６
 50
0.0
 41
0.666666667
 51
0.0
  7
KANJI16
  0
LINE
  8
0
  6
CONTINUOUS
 62
     1
 10
1523.37
 20
1674.9
 30
0.0
 11
1523.37
 21
1554.78
 31
0.0
  0
LINE
  8
0
  6
CONTINUOUS
 62
     2
 10
1454.07
 20
1674.9
 30
0.0
 11
1454.07
 21
1554.78
 31
0.0
  0
LINE
  8
0
  6
CONTINUOUS
 62
     2
 10
1384.77
 20
1674.9
 30
0.0
 11
1384.77
 21
1554.78
 31
0.0
  0
LINE
  8
0
  6
CONTINUOUS
 62
     1
 10
1292.37
 20
1674.9
 30
0.0
 11
1292.37
 21
1554.78
 31
0.0
  0
LINE
  8
0
  6
CONTINUOUS
 62
     1
 10
1292.37
 20
1674.9
 30
0.0
 11
1523.37
 21
1674.9
 31
0.0
  0
LINE
  8
0
  6
CONTINUOUS
 62
     1
 10
1292.37
 20
1637.94
 30
0.0
 11
1523.37
 21
1637.94
 31
0.0
  0
LINE
  8
0
  6
CONTINUOUS
 62
     2
 10
1292.37
 20
1610.22
 30
0.0
 11
1523.37
 21
1610.22
 31
0.0
  0
LINE
  8
0
  6
CONTINUOUS
 62
     2
 10
1292.37
 20
1582.5
 30
0.0
 11
1523.37
 21
1582.5
 31
0.0
  0
LINE
  8
0
  6
CONTINUOUS
 62
     1
 10
1292.37
 20
1554.78
 30
0.0
 11
1523.37
 21
1554.78
 31
0.0
  0
TEXT
  8
0
  6
CONTINUOUS
 62
     2
 10
1463.31
 20
1658.73
 30
1.386
 40
13.86
  1
起動電流
 50
0.0
 41
0.9
 51
0.0
  7
KANJI17
  0
TEXT
  8
0
  6
CONTINUOUS
 62
     2
 10
1463.31
 20
1642.56
 30
1.386
 40
13.86
  1
　　　Ａ
 50
0.0
 41
0.9
 51
0.0
  7
KANJI17
  0
TEXT
  8
0
  6
CONTINUOUS
 62
     2
 10
1394.01
 20
1658.73
 30
1.386
 40
13.86
  1
定格電流
 50
0.0
 41
0.9
 51
0.0
  7
KANJI17
  0
TEXT
  8
0
  6
CONTINUOUS
 62
     2
 10
1394.01
 20
1642.56
 30
1.386
 40
13.86
  1
　　　Ａ
 50
0.0
 41
0.9
 51
0.0
  7
KANJI17
  0
TEXT
  8
0
  6
CONTINUOUS
 62
     2
 10
1300.224
 20
1589.43
 30
1.386
 40
13.86
  1
２００／６０
 50
0.0
 41
0.9
 51
0.0
  7
KANJI17
  0
TEXT
  8
0
  6
CONTINUOUS
 62
     2
 10
1300.224
 20
1658.73
 30
1.386
 40
13.86
  1
電圧／周波数
 50
0.0
 41
0.9
 51
0.0
  7
KANJI17
  0
TEXT
  8
0
  6
CONTINUOUS
 62
     2
 10
1300.224
 20
1642.56
 30
1.386
 40
13.86
  1
　Ｖ／Ｈｚ
 50
0.0
 41
0.9
 51
0.0
  7
KANJI17
  0
TEXT
  8
0
  6
CONTINUOUS
 62
     2
 10
1300.224
 20
1617.15
 30
1.386
 40
13.86
  1
２００／５０
 50
0.0
 41
0.9
 51
0.0
  7
KANJI17
  0
TEXT
  8
0
  6
CONTINUOUS
 62
     2
 10
1300.224
 20
1561.71
 30
1.386
 40
13.86
  1
２２０／６０
 50
0.0
 41
0.9
 51
0.0
  7
KANJI17
  0
LINE
  8
0
  6
CONTINUOUS
 62
     1
 10
1246.17
 20
1674.9
 30
0.0
 11
1246.17
 21
1554.78
 31
0.0
  0
LINE
  8
0
  6
CONTINUOUS
 62
     2
 10
1176.87
 20
1674.9
 30
0.0
 11
1176.87
 21
1554.78
 31
0.0
  0
LINE
  8
0
  6
CONTINUOUS
 62
     2
 10
1107.57
 20
1674.9
 30
0.0
 11
1107.57
 21
1554.78
 31
0.0
  0
LINE
  8
0
  6
CONTINUOUS
 62
     1
 10
1015.17
 20
1674.9
 30
0.0
 11
1015.17
 21
1554.78
 31
0.0
  0
LINE
  8
0
  6
CONTINUOUS
 62
     1
 10
1015.17
 20
1674.9
 30
0.0
 11
1246.17
 21
1674.9
 31
0.0
  0
LINE
  8
0
  6
CONTINUOUS
 62
     1
 10
1015.17
 20
1637.94
 30
0.0
 11
1246.17
 21
1637.94
 31
0.0
  0
LINE
  8
0
  6
CONTINUOUS
 62
     2
 10
1015.17
 20
1610.22
 30
0.0
 11
1246.17
 21
1610.22
 31
0.0
  0
LINE
  8
0
  6
CONTINUOUS
 62
     2
 10
1015.17
 20
1582.5
 30
0.0
 11
1246.17
 21
1582.5
 31
0.0
  0
LINE
  8
0
  6
CONTINUOUS
 62
     1
 10
1015.17
 20
1554.78
 30
0.0
 11
1246.17
 21
1554.78
 31
0.0
  0
TEXT
  8
0
  6
CONTINUOUS
 62
     2
 10
1186.11
 20
1658.73
 30
1.386
 40
13.86
  1
起動電流
 50
0.0
 41
0.9
 51
0.0
  7
KANJI17
  0
TEXT
  8
0
  6
CONTINUOUS
 62
     2
 10
1186.11
 20
1642.56
 30
1.386
 40
13.86
  1
　　　Ａ
 50
0.0
 41
0.9
 51
0.0
  7
KANJI17
  0
TEXT
  8
0
  6
CONTINUOUS
 62
     2
 10
1116.81
 20
1658.73
 30
1.386
 40
13.86
  1
定格電流
 50
0.0
 41
0.9
 51
0.0
  7
KANJI17
  0
TEXT
  8
0
  6
CONTINUOUS
 62
     2
 10
1116.81
 20
1642.56
 30
1.386
 40
13.86
  1
　　　Ａ
 50
0.0
 41
0.9
 51
0.0
  7
KANJI17
  0
TEXT
  8
0
  6
CONTINUOUS
 62
     2
 10
1023.024
 20
1658.73
 30
1.386
 40
13.86
  1
電圧／周波数
 50
0.0
 41
0.9
 51
0.0
  7
KANJI17
  0
TEXT
  8
0
  6
CONTINUOUS
 62
     2
 10
1023.024
 20
1642.56
 30
1.386
 40
13.86
  1
　Ｖ／Ｈｚ
 50
0.0
 41
0.9
 51
0.0
  7
KANJI17
  0
TEXT
  8
0
  6
CONTINUOUS
 62
     2
 10
1023.024
 20
1617.15
 30
1.386
 40
13.86
  1
４００／５０
 50
0.0
 41
0.9
 51
0.0
  7
KANJI17
  0
TEXT
  8
0
  6
CONTINUOUS
 62
     2
 10
1023.024
 20
1589.43
 30
1.386
 40
13.86
  1
４００／６０
 50
0.0
 41
0.9
 51
0.0
  7
KANJI17
  0
TEXT
  8
0
  6
CONTINUOUS
 62
     2
 10
1023.024
 20
1561.71
 30
1.386
 40
13.86
  1
４４０／６０
 50
0.0
 41
0.9
 51
0.0
  7
KANJI17
  0
LINE
  8
0
  6
CONTINUOUS
 62
     2
 10
1045.893
 20
1529.37
 30
0.0
 11
1480.173
 21
1529.37
 31
0.0
  0
TEXT
  8
0
  6
CONTINUOUS
 62
     2
 10
1119.267493476
 20
1615.15
 30
1.386
 40
13.86
  1
　３．２
 50
0.0
 41
0.9
 51
0.0
  7
KANJI17
  0
TEXT
  8
0
  6
CONTINUOUS
 62
     2
 10
1119.267493476
 20
1587.43
 30
1.386
 40
13.86
  1
　２．８
 50
0.0
 41
0.9
 51
0.0
  7
KANJI17
  0
TEXT
  8
0
  6
CONTINUOUS
 62
     2
 10
1119.267493476
 20
1559.71
 30
1.386
 40
13.86
  1
　２．７
 50
0.0
 41
0.9
 51
0.0
  7
KANJI17
  0
TEXT
  8
0
  6
CONTINUOUS
 62
     2
 10
1396.467493476
 20
1559.71
 30
1.386
 40
13.86
  1
　５．３
 50
0.0
 41
0.9
 51
0.0
  7
KANJI17
  0
TEXT
  8
0
  6
CONTINUOUS
 62
     2
 10
1396.467493476
 20
1587.43
 30
1.386
 40
13.86
  1
　５．２
 50
0.0
 41
0.9
 51
0.0
  7
KANJI17
  0
TEXT
  8
0
  6
CONTINUOUS
 62
     2
 10
1396.467493476
 20
1615.15
 30
1.386
 40
13.86
  1
　６．１
 50
0.0
 41
0.9
 51
0.0
  7
KANJI17
  0
TEXT
  8
0
  6
CONTINUOUS
 62
     2
 10
1465.767493476
 20
1615.15
 30
1.386
 40
13.86
  1
２５．１
 50
0.0
 41
0.9
 51
0.0
  7
KANJI17
  0
TEXT
  8
0
  6
CONTINUOUS
 62
     2
 10
1465.767493476
 20
1587.43
 30
1.386
 40
13.86
  1
２２．５
 50
0.0
 41
0.9
 51
0.0
  7
KANJI17
  0
TEXT
  8
0
  6
CONTINUOUS
 62
     2
 10
1465.767493476
 20
1559.71
 30
1.386
 40
13.86
  1
２４．８
 50
0.0
 41
0.9
 51
0.0
  7
KANJI17
  0
TEXT
  8
0
  6
CONTINUOUS
 62
     2
 10
1188.567493476
 20
1615.15
 30
1.386
 40
13.86
  1
１２．５
 50
0.0
 41
0.9
 51
0.0
  7
KANJI17
  0
TEXT
  8
0
  6
CONTINUOUS
 62
     2
 10
1188.567493476
 20
1587.43
 30
1.386
 40
13.86
  1
１１．３
 50
0.0
 41
0.9
 51
0.0
  7
KANJI17
  0
TEXT
  8
0
  6
CONTINUOUS
 62
     2
 10
1188.567493476
 20
1559.71
 30
1.386
 40
13.86
  1
１２．４
 50
0.0
 41
0.9
 51
0.0
  7
KANJI17
  0
TEXT
  8
0
  6
CONTINUOUS
 62
     2
 10
1861.92
 20
251.7
 30
0.0
 40
21.0
  1
ＭＣＬＤ２Ｃ－Ｌ
 50
0.0
 41
0.793650794
 51
0.0
  7
KANJI18
  0
TEXT
  8
0
  6
CONTINUOUS
 62
     2
 10
1976.7200334
 20
155.699994
 30
13.0
 40
30.0
  1
３００２４７８
 50
0.0
 41
0.8
 51
0.0
  7
KANJI19
  0
TEXT
  8
0
  6
CONTINUOUS
 62
     2
 10
176.4
 20
26.4
 30
0.0
 40
18.0
  1
ＦＤ　Ｎｏ．ＭＣ１９６
 50
0.0
 41
0.9
 51
0.0
  7
KANJI20
  0
LINE
  8
0
  6
CONTINUOUS
 62
     2
 10
1729.32
 20
706.5
 30
0.0
 11
1873.32
 21
706.5
 31
0.0
  0
TEXT
  8
0
  6
CONTINUOUS
 62
     2
 10
1741.92
 20
714.9
 30
12.0
 40
24.0
  1
特記事項
 50
0.0
 41
0.9
 51
0.0
  7
KANJI21
  0
TEXT
  8
0
  6
CONTINUOUS
 62
     2
 10
1735.92
 20
595.2
 30
1.8
 40
21.0
  1
３．ＬＳユニット
 50
0.0
 41
0.857142857
 51
0.0
  7
KANJI22
  0
TEXT
  8
0
  6
CONTINUOUS
 62
     2
 10
1735.92
 20
670.2
 30
1.8
 40
21.0
  1
１．運転時は必ずピストンロッドの回転防止を行って下さい。
 50
0.0
 41
0.857142857
 51
0.0
  7
KANJI22
  0
TEXT
  8
0
  6
CONTINUOUS
 62
     2
 10
1735.92
 20
632.7
 30
1.8
 40
21.0
  1
２．モートル：全閉自冷かご形３０分定格
 50
0.0
 41
0.857142857
 51
0.0
  7
KANJI22
  0
TEXT
  8
0
  6
CONTINUOUS
 62
     2
 10
1735.92
 20
502.2
 30
1.8
 40
21.0
  1
４．呼称ストロークは、機械的ストロークです。
 50
0.0
 41
0.857142857
 51
0.0
  7
KANJI22
  0
TEXT
  8
0
  6
CONTINUOUS
 62
     2
 10
1735.92
 20
535.2
 30
1.8
 40
21.0
  1
　　ストローク７００ｍｍ以上の場合２ロッド方式となります。
 50
0.0
 41
0.857142857
 51
0.0
  7
KANJI22
  0
TEXT
  8
0
  6
CONTINUOUS
 62
     2
 10
1735.92
 20
565.2
 30
1.8
 40
21.0
  1
　　リミットスイッチ：１ＬＳ１－Ｊｘ２ケ（山武）
 50
0.0
 41
0.857142857
 51
0.0
  7
KANJI22
  0
TEXT
  8
0
  6
CONTINUOUS
 62
     2
 10
1735.92
 20
465.24
 30
1.8
 40
21.0
  1
　　必ず、常用はストローク両端に必ず余裕を取って下さい。
 50
0.0
 41
0.857142857
 51
0.0
  7
KANJI22
  0
TEXT
  8
0
  6
CONTINUOUS
 62
     2
 10
1735.92
 20
427.464
 30
1.8
 40
21.0
  1
　　前後の推奨余裕寸法は、各々１５ｍｍです。
 50
0.0
 41
0.857142857
 51
0.0
  7
KANJI22
  0
LINE
  8
0
  6
CONTINUOUS
 62
     6
 10
356.629425053
 20
1631.447759827
 30
0.0
 11
124.584646507
 21
1631.447759827
 31
0.0
  0
TEXT
  8
0
  6
CONTINUOUS
 62
     6
 10
128.493517202
 20
1634.64592676
 30
1.0647
 40
11.661
  1
ＬＳ０１　　　：推力リミッタ（前進時過負荷用）
 50
0.0
 41
0.822608696
 51
0.0
  7
KANJI23
  0
TEXT
  8
0
  6
CONTINUOUS
 62
     6
 10
128.493517202
 20
1607.18342676
 30
1.0647
 40
11.661
  1
ＬＳ０２　　　：推力リミッタ（後進時過負荷用）
 50
0.0
 41
0.822608696
 51
0.0
  7
KANJI23
  0
LINE
  8
0
  6
CONTINUOUS
 62
     3
 10
356.629425053
 20
1603.985259827
 30
0.0
 11
124.584646507
 21
1603.985259827
 31
0.0
  0
LINE
  8
0
  6
CONTINUOUS
 62
     6
 10
356.629425053
 20
1603.985259827
 30
0.0
 11
124.584646507
 21
1603.985259827
 31
0.0
  0
TEXT
  8
0
  6
CONTINUOUS
 62
     6
 10
382.212228
 20
1628.900410728
 30
1.232517
 40
13.182
  1
電気定格　　　
 50
0.0
 41
0.85
 51
0.0
  7
KANJI24
  0
TEXT
  8
0
  6
CONTINUOUS
 62
     6
 10
395.013715102
 20
1598.326958599
 30
0.0
 40
11.8638
  1
ＤＣ１２５Ｖ　０．６Ａ　，ＤＣ２５０Ｖ　０．３Ａ　
 50
0.0
 41
0.726495726
 51
0.0
  7
KANJI25
  0
TEXT
  8
0
  6
CONTINUOUS
 62
     6
 10
389.757132178
 20
1646.661726126
 30
0.0
 40
55.0
  1
｝
 50
0.0
 41
0.440318182
 51
0.0
  7
KANJI26
  0
LINE
  8
0
  6
LTYPE2
 62
     6
 10
108.42
 20
1358.3
 30
0.0
 11
629.02
 21
1358.3
 31
0.0
  0
LINE
  8
0
  6
LTYPE2
 62
     6
 10
629.02
 20
1358.3
 30
0.0
 11
629.02
 21
1661.4
 31
0.0
  0
LINE
  8
0
  6
LTYPE2
 62
     6
 10
629.02
 20
1661.4
 30
0.0
 11
108.42
 21
1661.4
 31
0.0
  0
LINE
  8
0
  6
LTYPE2
 62
     6
 10
108.42
 20
1661.4
 30
0.0
 11
108.42
 21
1358.3
 31
0.0
  0
TEXT
  8
0
  6
CONTINUOUS
 62
     6
 10
293.632791539
 20
1376.32382165
 30
0.0
 40
17.740702234
  1
端子台　接続図
 50
0.0
 41
0.880962996
 51
0.0
  7
KANJI27
  0
LINE
  8
0
  6
CONTINUOUS
 62
     2
 10
328.597373465
 20
1427.328121884
 30
0.0
 11
328.597373465
 21
1404.549155128
 31
0.0
  0
LINE
  8
0
  6
CONTINUOUS
 62
     2
 10
355.17283468
 20
1427.328121884
 30
0.0
 11
355.17283468
 21
1404.549155128
 31
0.0
  0
LINE
  8
0
  6
CONTINUOUS
 62
     2
 10
381.748295894
 20
1427.328121884
 30
0.0
 11
381.748295894
 21
1404.549155128
 31
0.0
  0
LINE
  8
0
  6
CONTINUOUS
 62
     2
 10
408.323757109
 20
1427.328121884
 30
0.0
 11
408.323757109
 21
1404.549155128
 31
0.0
  0
CIRCLE
  8
0
  6
CONTINUOUS
 62
     6
 10
400.404269667
 20
1450.807921517
 30
0.0
 40
4.100214016
  0
LINE
  8
0
  6
CONTINUOUS
 62
     6
 10
396.304055651
 20
1450.807921517
 30
0.0
 11
395.036026502
 21
1450.807921517
 31
0.0
  0
LINE
  8
0
  6
CONTINUOUS
 62
     6
 10
421.358027433
 20
1464.494562742
 30
0.0
 11
417.443558096
 21
1442.159507138
 31
0.0
  0
LINE
  8
0
  6
CONTINUOUS
 62
     6
 10
416.631699663
 20
1465.282284037
 30
0.0
 11
412.716922494
 21
1442.947279739
 31
0.0
  0
LINE
  8
0
  6
CONTINUOUS
 62
     6
 10
417.443558096
 20
1442.159507138
 30
0.0
 11
412.716922494
 21
1442.947279739
 31
0.0
  0
CIRCLE
  8
0
  6
CONTINUOUS
 62
     6
 10
421.611487717
 20
1441.339464335
 30
0.0
 40
4.100214016
  0
LINE
  8
0
  6
CONTINUOUS
 62
     6
 10
421.611487717
 20
1437.239250319
 30
0.0
 11
421.611487717
 21
1427.328121884
 31
0.0
  0
LINE
  8
0
  6
CONTINUOUS
 62
     6
 10
395.036026502
 20
1450.807921517
 30
0.0
 11
395.036026502
 21
1427.328121884
 31
0.0
  0
LINE
  8
0
  6
CONTINUOUS
 62
     6
 10
368.460565287
 20
1427.328121884
 30
0.0
 11
368.460565287
 21
1481.033332504
 31
0.0
  0
LINE
  8
0
  6
CONTINUOUS
 62
     6
 10
288.987641926
 20
1464.494562742
 30
0.0
 11
292.902111263
 21
1442.159507138
 31
0.0
  0
LINE
  8
0
  6
CONTINUOUS
 62
     6
 10
293.713969696
 20
1465.282284037
 30
0.0
 11
297.628746865
 21
1442.947279739
 31
0.0
  0
LINE
  8
0
  6
CONTINUOUS
 62
     6
 10
292.902111263
 20
1442.159507138
 30
0.0
 11
297.628746865
 21
1442.947279739
 31
0.0
  0
CIRCLE
  8
0
  6
CONTINUOUS
 62
     6
 10
288.734181642
 20
1441.339464335
 30
0.0
 40
4.100214016
  0
CIRCLE
  8
0
  6
CONTINUOUS
 62
     6
 10
309.941399692
 20
1450.807921517
 30
0.0
 40
4.100214016
  0
LINE
  8
0
  6
CONTINUOUS
 62
     6
 10
314.041613708
 20
1450.807921517
 30
0.0
 11
315.309642857
 21
1450.807921517
 31
0.0
  0
LINE
  8
0
  6
CONTINUOUS
 62
     6
 10
288.734181642
 20
1437.239250319
 30
0.0
 11
288.734181642
 21
1427.328121884
 31
0.0
  0
LINE
  8
0
  6
CONTINUOUS
 62
     6
 10
315.309642857
 20
1450.807921517
 30
0.0
 11
315.309642857
 21
1427.328121884
 31
0.0
  0
LINE
  8
0
  6
CONTINUOUS
 62
     6
 10
341.885104072
 20
1427.328121884
 30
0.0
 11
341.885104072
 21
1481.033332504
 31
0.0
  0
LINE
  8
0
  6
CONTINUOUS
 62
     2
 10
434.899218324
 20
1427.328121884
 30
0.0
 11
434.899218324
 21
1404.549155128
 31
0.0
  0
LINE
  8
0
  6
CONTINUOUS
 62
     2
 10
275.446451035
 20
1427.328121884
 30
0.0
 11
275.446451035
 21
1404.549155128
 31
0.0
  0
LINE
  8
0
  6
CONTINUOUS
 62
     2
 10
302.02191225
 20
1427.328121884
 30
0.0
 11
302.02191225
 21
1404.549155128
 31
0.0
  0
LINE
  8
0
  6
CONTINUOUS
 62
     6
 10
421.611487717
 20
1481.033332504
 30
0.0
 11
368.460565287
 21
1481.033332504
 31
0.0
  0
CIRCLE
  8
0
  6
CONTINUOUS
 62
     6
 10
421.611487717
 20
1468.68941042
 30
0.0
 40
4.100214016
  0
LINE
  8
0
  6
CONTINUOUS
 62
     6
 10
421.358027433
 20
1464.494562742
 30
0.0
 11
416.631699663
 21
1465.282284037
 31
0.0
  0
LINE
  8
0
  6
CONTINUOUS
 62
     6
 10
421.611487717
 20
1472.789624436
 30
0.0
 11
421.611487717
 21
1481.033332504
 31
0.0
  0
CIRCLE
  8
0
  6
CONTINUOUS
 62
     6
 10
288.734181642
 20
1468.68941042
 30
0.0
 40
4.100214016
  0
LINE
  8
0
  6
CONTINUOUS
 62
     6
 10
288.987641926
 20
1464.494562742
 30
0.0
 11
293.713969696
 21
1465.282284037
 31
0.0
  0
LINE
  8
0
  6
CONTINUOUS
 62
     6
 10
288.734181642
 20
1472.789624436
 30
0.0
 11
288.734181642
 21
1481.033332504
 31
0.0
  0
LINE
  8
0
  6
CONTINUOUS
 62
     6
 10
341.885104072
 20
1481.033332504
 30
0.0
 11
288.734181642
 21
1481.033332504
 31
0.0
  0
TEXT
  8
0
  6
CONTINUOUS
 62
     6
 10
293.4972152
 20
1485.552473273
 30
0.819
 40
11.7
  1
ＬＳ０１
 50
0.0
 41
0.8
 51
0.0
  7
KANJI28
  0
TEXT
  8
0
  6
CONTINUOUS
 62
     6
 10
376.117398844
 20
1485.552473273
 30
0.819
 40
11.7
  1
ＬＳ０２
 50
0.0
 41
0.8
 51
0.0
  7
KANJI28
  0
TEXT
  8
0
  6
CONTINUOUS
 62
     3
 10
121.308775989
 20
1408.345649587
 30
0.0
 40
15.0
  1
　　　　　　　　　　　　　　　　　　１　　２　　　３　　　４　　　５　　　６
 50
0.0
 41
0.911
 51
0.0
  7
KANJI29
  0
LINE
  8
0
  6
CONTINUOUS
 62
     2
 10
275.446451035
 20
1427.328121884
 30
0.0
 11
434.899218324
 21
1427.328121884
 31
0.0
  0
LINE
  8
0
  6
CONTINUOUS
 62
     2
 10
275.446451035
 20
1404.549155128
 30
0.0
 11
434.899218324
 21
1404.549155128
 31
0.0
  0
TEXT
  8
0
  6
CONTINUOUS
 62
     6
 10
267.132791539
 20
1515.32382165
 30
0.0
 40
17.740702234
  1
推力リミッタ端子台配列
 50
0.0
 41
0.880962996
 51
0.0
  7
KANJI27
  0
TEXT
  8
0
  6
CONTINUOUS
 62
     6
 10
395.013715102
 20
1614.071931782
 30
0.0
 40
11.8638
  1
ＡＣ１００Ｖ　１２５Ｖ　２５０Ｖ　－１０Ａ
 50
0.0
 41
0.726495726
 51
0.0
  7
KANJI25
  0
TEXT
  8
0
  6
CONTINUOUS
 62
     2
 10
141.978726364
 20
1152.112221811
 30
0.0
 40
15.6
  1
モーター結線図
 50
0.0
 41
0.925
 51
0.0
  7
KANJI30
  0
LINE
  8
0
  6
LTYPE2
 62
     6
 10
136.883333
 20
1272.733317
 30
0.0
 11
136.883333
 21
1256.332460936
 31
0.0
  0
LINE
  8
0
  6
LTYPE2
 62
     6
 10
267.280262694
 20
1272.733317
 30
0.0
 11
136.883333
 21
1272.733317
 31
0.0
  0
TEXT
  8
0
  6
CONTINUOUS
 62
     6
 10
119.348590591
 20
1259.248168681
 30
1.093390404
 40
10.933904043
  1
Ｕ
 50
0.0
 41
0.9
 51
0.0
  7
KANJI31
  0
CIRCLE
  8
0
  6
CONTINUOUS
 62
     6
 10
136.883333
 20
1253.052289723
 30
0.0
 40
4.373561617
  0
LINE
  8
0
  6
CONTINUOUS
 62
     6
 10
131.85854931
 20
1248.027506033
 30
0.0
 11
142.063526417
 21
1258.23248314
 31
0.0
  0
TEXT
  8
0
  6
CONTINUOUS
 62
     6
 10
147.128806047
 20
1281.399448352
 30
1.518597784
 40
15.185977837
  1
エコノストップモータ
 50
0.0
 41
0.66671875
 51
0.0
  7
KANJI32
  0
CIRCLE
  8
0
  6
CONTINUOUS
 62
     6
 10
181.712339575
 20
1227.539846957
 30
0.0
 40
18.223173404
  0
TEXT
  8
0
  6
CONTINUOUS
 62
     6
 10
174.058606745
 20
1218.792723723
 30
1.82231734
 40
18.223173404
  1
Ｍ
 50
0.0
 41
0.9
 51
0.0
  7
KANJI33
  0
LINE
  8
0
  6
CONTINUOUS
 62
     6
 10
157.657750681
 20
1202.027404191
 30
0.0
 11
168.956118192
 21
1215.148089042
 31
0.0
  0
LINE
  8
0
  6
CONTINUOUS
 62
     6
 10
157.657750681
 20
1253.052289723
 30
0.0
 11
168.956118192
 21
1239.931604872
 31
0.0
  0
LINE
  8
0
  6
CONTINUOUS
 62
     6
 10
157.657750681
 20
1253.052289723
 30
0.0
 11
141.256894617
 21
1253.052289723
 31
0.0
  0
LINE
  8
0
  6
CONTINUOUS
 62
     6
 10
163.853629639
 20
1227.539846957
 30
0.0
 11
141.256894617
 21
1227.539846957
 31
0.0
  0
LINE
  8
0
  6
CONTINUOUS
 62
     6
 10
157.657750681
 20
1202.027404191
 30
0.0
 11
141.256894617
 21
1202.027404191
 31
0.0
  0
TEXT
  8
0
  6
CONTINUOUS
 62
     6
 10
120.441980995
 20
1233.371262446
 30
1.093390404
 40
10.933904043
  1
Ｖ
 50
0.0
 41
0.9
 51
0.0
  7
KANJI31
  0
TEXT
  8
0
  6
CONTINUOUS
 62
     6
 10
121.535371399
 20
1207.494356212
 30
1.093390404
 40
10.933904043
  1
Ｗ
 50
0.0
 41
0.9
 51
0.0
  7
KANJI31
  0
CIRCLE
  8
0
  6
CONTINUOUS
 62
     6
 10
136.883333
 20
1227.539846957
 30
0.0
 40
4.373561617
  0
LINE
  8
0
  6
CONTINUOUS
 62
     6
 10
131.85854931
 20
1222.515063267
 30
0.0
 11
142.063526417
 21
1232.720040374
 31
0.0
  0
LINE
  8
0
  6
LTYPE2
 62
     6
 10
136.883333
 20
1249.043191574
 30
0.0
 11
136.883333
 21
1230.82001817
 31
0.0
  0
CIRCLE
  8
0
  6
CONTINUOUS
 62
     6
 10
136.883333
 20
1202.027404191
 30
0.0
 40
4.373561617
  0
LINE
  8
0
  6
CONTINUOUS
 62
     6
 10
131.85854931
 20
1197.002620501
 30
0.0
 11
142.063526417
 21
1207.207597607
 31
0.0
  0
LINE
  8
0
  6
LTYPE2
 62
     6
 10
136.883333
 20
1223.530748808
 30
0.0
 11
136.883333
 21
1206.400965808
 31
0.0
  0
LINE
  8
0
  6
LTYPE2
 62
     6
 10
267.280262694
 20
1177.321584891
 30
0.0
 11
136.883333
 21
1177.321584891
 31
0.0
  0
LINE
  8
0
  6
LTYPE2
 62
     6
 10
136.883333
 20
1197.653842574
 30
0.0
 11
136.883333
 21
1177.321584891
 31
0.0
  0
TEXT
  8
0
  6
CONTINUOUS
 62
     6
 10
207.953709277
 20
1219.284749405
 30
1.457853872
 40
14.578538724
  1
Ｂ
 50
0.0
 41
0.9
 51
0.0
  7
KANJI34
  0
CIRCLE
  8
0
  6
CONTINUOUS
 62
     6
 10
214.514051703
 20
1227.539846957
 30
0.0
 40
14.578538724
  0
LINE
  8
0
  6
LTYPE2
 62
     6
 10
267.280262694
 20
1177.321584891
 30
0.0
 11
267.280262694
 21
1272.733317
 31
0.0
  0
TEXT
  8
0
  6
CONTINUOUS
 62
     2
 10
1055.133
 20
1533.99
 30
1.617
 40
16.17
  1
注意：サーマルリレー等の選定は、上記の値で選定して下さい。
 50
0.0
 41
0.9
 51
0.0
  7
KANJI35
  0
LINE
  8
0
  6
CONTINUOUS
 62
     2
 10
339.6199996
 20
1287.6999876
 30
0.0
 11
347.34740621
 21
1285.629435239
 31
0.0
  0
LINE
  8
0
  6
CONTINUOUS
 62
     2
 10
339.6199996
 20
1287.6999876
 30
0.0
 11
347.34740621
 21
1289.770539961
 31
0.0
  0
LINE
  8
0
  6
CONTINUOUS
 62
     2
 10
339.6199996
 20
1287.6999876
 30
0.0
 11
477.2199996
 21
1287.6999876
 31
0.0
  0
LINE
  8
0
  6
CONTINUOUS
 62
     2
 10
477.2199996
 20
1287.6999876
 30
0.0
 11
469.49259299
 21
1289.770539961
 31
0.0
  0
LINE
  8
0
  6
CONTINUOUS
 62
     2
 10
477.2199996
 20
1287.6999876
 30
0.0
 11
469.49259299
 21
1285.629435239
 31
0.0
  0
LINE
  8
0
  6
CONTINUOUS
 62
     2
 10
477.2199996
 20
1286.4999876
 30
0.0
 11
477.2199996
 21
1283.6999876
 31
0.0
  0
LINE
  8
0
  6
CONTINUOUS
 62
     2
 10
477.2199996
 20
1287.6999876
 30
0.0
 11
484.94740621
 21
1285.629435239
 31
0.0
  0
LINE
  8
0
  6
CONTINUOUS
 62
     2
 10
477.2199996
 20
1287.6999876
 30
0.0
 11
484.94740621
 21
1289.770539961
 31
0.0
  0
LINE
  8
0
  6
CONTINUOUS
 62
     2
 10
477.2199996
 20
1287.6999876
 30
0.0
 11
679.6199996
 21
1287.6999876
 31
0.0
  0
LINE
  8
0
  6
CONTINUOUS
 62
     2
 10
679.6199996
 20
1287.6999876
 30
0.0
 11
671.89259299
 21
1289.770539961
 31
0.0
  0
LINE
  8
0
  6
CONTINUOUS
 62
     2
 10
679.6199996
 20
1287.6999876
 30
0.0
 11
671.89259299
 21
1285.629435239
 31
0.0
  0
LINE
  8
0
  6
CONTINUOUS
 62
     2
 10
477.2199996
 20
1261.370539961
 30
0.0
 11
469.49259299
 21
1263.441092322
 31
0.0
  0
LINE
  8
0
  6
CONTINUOUS
 62
     2
 10
477.2199996
 20
1261.370539961
 30
0.0
 11
469.49259299
 21
1259.2999876
 31
0.0
  0
LINE
  8
0
  6
CONTINUOUS
 62
     2
 10
465.2199996
 20
1261.370539961
 30
0.0
 11
477.2199996
 21
1261.370539961
 31
0.0
  0
LINE
  8
0
  6
CONTINUOUS
 62
     2
 10
477.2199996
 20
1261.370539961
 30
0.0
 11
498.0199996
 21
1261.370539961
 31
0.0
  0
LINE
  8
0
  6
CONTINUOUS
 62
     2
 10
498.0199996
 20
1261.370539961
 30
0.0
 11
505.74740621
 21
1259.2999876
 31
0.0
  0
LINE
  8
0
  6
CONTINUOUS
 62
     2
 10
498.0199996
 20
1261.370539961
 30
0.0
 11
505.74740621
 21
1263.441092322
 31
0.0
  0
LINE
  8
0
  6
CONTINUOUS
 62
     2
 10
339.6199996
 20
1236.0999876
 30
0.0
 11
339.6199996
 21
1230.0999876
 31
0.0
  0
LINE
  8
0
  6
CONTINUOUS
 62
     2
 10
339.6199996
 20
1234.0999876
 30
0.0
 11
347.34740621
 21
1232.029435239
 31
0.0
  0
LINE
  8
0
  6
CONTINUOUS
 62
     2
 10
339.6199996
 20
1234.0999876
 30
0.0
 11
347.34740621
 21
1236.170539961
 31
0.0
  0
LINE
  8
0
  6
CONTINUOUS
 62
     2
 10
339.6199996
 20
1234.0999876
 30
0.0
 11
498.0199996
 21
1234.0999876
 31
0.0
  0
LINE
  8
0
  6
CONTINUOUS
 62
     2
 10
498.0199996
 20
1234.0999876
 30
0.0
 11
490.29259299
 21
1236.170539961
 31
0.0
  0
LINE
  8
0
  6
CONTINUOUS
 62
     2
 10
498.0199996
 20
1234.0999876
 30
0.0
 11
490.29259299
 21
1232.029435239
 31
0.0
  0
LINE
  8
0
  6
CONTINUOUS
 62
     2
 10
498.0199996
 20
1235.2999876
 30
0.0
 11
498.0199996
 21
1230.0999876
 31
0.0
  0
LINE
  8
0
  6
CONTINUOUS
 62
     2
 10
498.0199996
 20
1234.0999876
 30
0.0
 11
505.74740621
 21
1232.029435239
 31
0.0
  0
LINE
  8
0
  6
CONTINUOUS
 62
     2
 10
498.0199996
 20
1234.0999876
 30
0.0
 11
505.74740621
 21
1236.170539961
 31
0.0
  0
LINE
  8
0
  6
CONTINUOUS
 62
     2
 10
679.6199996
 20
1230.4999876
 30
0.0
 11
679.6199996
 21
1230.0999876
 31
0.0
  0
LINE
  8
0
  6
CONTINUOUS
 62
     2
 10
339.6199996
 20
1204.8999876
 30
0.0
 11
347.34740621
 21
1202.829435239
 31
0.0
  0
LINE
  8
0
  6
CONTINUOUS
 62
     2
 10
339.6199996
 20
1204.8999876
 30
0.0
 11
347.34740621
 21
1206.970539961
 31
0.0
  0
LINE
  8
0
  6
CONTINUOUS
 62
     2
 10
339.6199996
 20
1204.8999876
 30
0.0
 11
657.2199996
 21
1204.8999876
 31
0.0
  0
LINE
  8
0
  6
CONTINUOUS
 62
     2
 10
657.2199996
 20
1204.8999876
 30
0.0
 11
649.49259299
 21
1206.970539961
 31
0.0
  0
LINE
  8
0
  6
CONTINUOUS
 62
     2
 10
657.2199996
 20
1204.8999876
 30
0.0
 11
649.49259299
 21
1202.829435239
 31
0.0
  0
LINE
  8
0
  6
CONTINUOUS
 62
     2
 10
657.2199996
 20
1205.6999876
 30
0.0
 11
657.2199996
 21
1200.8999876
 31
0.0
  0
LINE
  8
0
  6
CONTINUOUS
 62
     2
 10
657.2199996
 20
1204.8999876
 30
0.0
 11
649.49259299
 21
1206.970539961
 31
0.0
  0
LINE
  8
0
  6
CONTINUOUS
 62
     2
 10
657.2199996
 20
1204.8999876
 30
0.0
 11
649.49259299
 21
1202.829435239
 31
0.0
  0
LINE
  8
0
  6
CONTINUOUS
 62
     2
 10
645.2199996
 20
1204.8999876
 30
0.0
 11
657.2199996
 21
1204.8999876
 31
0.0
  0
LINE
  8
0
  6
CONTINUOUS
 62
     2
 10
657.2199996
 20
1204.8999876
 30
0.0
 11
679.6199996
 21
1204.8999876
 31
0.0
  0
LINE
  8
0
  6
CONTINUOUS
 62
     2
 10
679.6199996
 20
1204.8999876
 30
0.0
 11
687.34740621
 21
1202.829435239
 31
0.0
  0
LINE
  8
0
  6
CONTINUOUS
 62
     2
 10
679.6199996
 20
1204.8999876
 30
0.0
 11
687.34740621
 21
1206.970539961
 31
0.0
  0
LINE
  8
0
  6
CONTINUOUS
 62
     2
 10
339.6199996
 20
1298.4999876
 30
0.0
 11
339.6199996
 21
1283.6999876
 31
0.0
  0
LINE
  8
0
  6
CONTINUOUS
 62
     2
 10
679.6199996
 20
1298.4999876
 30
0.0
 11
679.6199996
 21
1283.6999876
 31
0.0
  0
LINE
  8
0
  6
CONTINUOUS
 62
     2
 10
477.2199996
 20
1287.2999876
 30
0.0
 11
477.2199996
 21
1298.4999876
 31
0.0
  0
LINE
  8
0
  6
CONTINUOUS
 62
     2
 10
498.0199996
 20
1274.170539961
 30
0.0
 11
498.0199996
 21
1257.370539961
 31
0.0
  0
LINE
  8
0
  6
CONTINUOUS
 62
     2
 10
339.6199996
 20
1283.6999876
 30
0.0
 11
339.6199996
 21
1191.6999876
 31
0.0
  0
LINE
  8
0
  6
CONTINUOUS
 62
     2
 10
679.6199996
 20
1287.6999876
 30
0.0
 11
679.6199996
 21
1192.8999876
 31
0.0
  0
LINE
  8
0
  6
CONTINUOUS
 62
     2
 10
498.0199996
 20
1261.370539961
 30
0.0
 11
498.0199996
 21
1224.8999876
 31
0.0
  0
LINE
  8
0
  6
CONTINUOUS
 62
     2
 10
477.2199996
 20
1287.6999876
 30
0.0
 11
477.2199996
 21
1252.0999876
 31
0.0
  0
TEXT
  8
0
  6
CONTINUOUS
 62
     3
 10
381.4199996
 20
1289.6999876
 30
0.0
 40
15.0
  1
ｍｉｎ．Ｌ
 50
0.0
 41
0.9
 51
0.0
  7
KANJI36
  0
TEXT
  8
0
  6
CONTINUOUS
 62
     3
 10
535.2199996
 20
1289.6999876
 30
0.0
 40
15.0
  1
機械的ストローク
 50
0.0
 41
0.9
 51
0.0
  7
KANJI36
  0
TEXT
  8
0
  6
CONTINUOUS
 62
     3
 10
510.0199996
 20
1263.370539961
 30
0.0
 40
15.0
  1
余裕
 50
0.0
 41
0.9
 51
0.0
  7
KANJI36
  0
TEXT
  8
0
  6
CONTINUOUS
 62
     3
 10
391.8199996
 20
1236.0999876
 30
0.0
 40
15.0
  1
常用ｍｉｎ
 50
0.0
 41
0.9
 51
0.0
  7
KANJI36
  0
TEXT
  8
0
  6
CONTINUOUS
 62
     3
 10
471.4199996
 20
1206.8999876
 30
0.0
 40
15.0
  1
常用ｍａｘ
 50
0.0
 41
0.9
 51
0.0
  7
KANJI36
  0
TEXT
  8
0
  6
CONTINUOUS
 62
     3
 10
691.6199996
 20
1206.8999876
 30
0.0
 40
15.0
  1
余裕
 50
0.0
 41
0.9
 51
0.0
  7
KANJI36
  0
LINE
  8
0
  6
CONTINUOUS
 62
     2
 10
498.0199996
 20
1261.370539961
 30
0.0
 11
538.1199996
 21
1261.370539961
 31
0.0
  0
LINE
  8
0
  6
CONTINUOUS
 62
     2
 10
679.6199996
 20
1204.8999876
 30
0.0
 11
722.1199996
 21
1204.8999876
 31
0.0
  0
LINE
  8
0
  6
CONTINUOUS
 62
     1
 10
497.864725201
 20
567.433974596
 30
0.0
 11
497.864725201
 21
907.433974596
 31
0.0
  0
LINE
  8
0
  6
CONTINUOUS
 62
     1
 10
497.864725201
 20
717.333974596
 30
0.0
 11
497.864725201
 21
917.333974596
 31
0.0
  0
LINE
  8
0
  6
CONTINUOUS
 62
     1
 10
497.864725201
 20
558.433974596
 30
0.0
 11
497.864725201
 21
933.433974596
 31
0.0
  0
LINE
  8
0
  6
CONTINUOUS
 62
     1
 10
497.864725201
 20
933.433974596
 30
0.0
 11
457.864725201
 21
933.433974596
 31
0.0
  0
ARC
  8
0
  6
CONTINUOUS
 62
     1
 10
479.864725201
 20
800.433974596
 30
0.0
 40
4.0
 50
270.0
 51
0.0
  0
LINE
  8
0
  6
CONTINUOUS
 62
     1
 10
457.864725201
 20
933.433974596
 30
0.0
 11
457.864725201
 21
896.433974596
 31
0.0
  0
ARC
  8
0
  6
CONTINUOUS
 62
     1
 10
454.864725201
 20
896.433974596
 30
0.0
 40
3.0
 50
270.0
 51
0.0
  0
ARC
  8
0
  6
CONTINUOUS
 62
     1
 10
480.864725201
 20
896.433974596
 30
0.0
 40
3.0
 50
270.0
 51
0.0
  0
LINE
  8
0
  6
CONTINUOUS
 62
     1
 10
483.864725201
 20
800.433974596
 30
0.0
 11
483.864725201
 21
933.433974596
 31
0.0
  0
LINE
  8
0
  6
CONTINUOUS
 62
     1
 10
402.864725201
 20
558.433974596
 30
0.0
 11
402.864725201
 21
893.433974596
 31
0.0
  0
LINE
  8
0
  6
CONTINUOUS
 62
     1
 10
402.864725201
 20
893.433974596
 30
0.0
 11
480.864725201
 21
893.433974596
 31
0.0
  0
CIRCLE
  8
0
  6
CONTINUOUS
 62
     1
 10
477.864725201
 20
958.433974596
 30
0.0
 40
15.0
  0
LINE
  8
0
  6
CONTINUOUS
 62
     1
 10
489.265994164
 20
941.435505015
 30
0.0
 11
477.864725201
 21
943.433974596
 31
0.0
  0
LINE
  8
0
  6
CONTINUOUS
 62
     1
 10
477.864725201
 20
941.433974596
 30
0.0
 11
489.266180968
 21
941.433974596
 31
0.0
  0
ARC
  8
0
  6
CONTINUOUS
 62
     1
 10
477.864725201
 20
958.433974596
 30
0.0
 40
25.0
 50
300.714883545
 51
0.0
  0
LINE
  8
0
  6
CONTINUOUS
 62
     1
 10
489.981820347
 20
935.570984085
 30
0.0
 11
489.266180968
 21
941.433974596
 31
0.0
  0
ARC
  8
0
  6
CONTINUOUS
 62
     1
 10
491.370347916
 20
935.750100256
 30
0.0
 40
1.4
 50
121.733468281
 51
187.57738995
  0
LINE
  8
0
  6
CONTINUOUS
 62
     1
 10
466.463456237
 20
941.435505015
 30
0.0
 11
477.864725201
 21
943.433974596
 31
0.0
  0
LINE
  8
0
  6
CONTINUOUS
 62
     1
 10
477.864725201
 20
941.433974596
 30
0.0
 11
466.463269434
 21
941.433974596
 31
0.0
  0
LINE
  8
0
  6
CONTINUOUS
 62
     1
 10
465.747630054
 20
935.570984085
 30
0.0
 11
466.463269434
 21
941.433974596
 31
0.0
  0
ARC
  8
0
  6
CONTINUOUS
 62
     1
 10
464.359102486
 20
935.750100256
 30
0.0
 40
1.4
 50
352.42261005
 51
58.266531719
  0
ARC
  8
0
  6
CONTINUOUS
 62
     1
 10
477.864725201
 20
958.433974596
 30
0.0
 40
25.0
 50
0.0
 51
239.342761175
  0
LINE
  8
0
  6
CONTINUOUS
 62
     1
 10
490.242664731
 20
933.433974596
 30
0.0
 11
489.981820347
 21
935.570984085
 31
0.0
  0
LINE
  8
0
  6
CONTINUOUS
 62
     1
 10
465.486785671
 20
933.433974596
 30
0.0
 11
465.747630054
 21
935.570984085
 31
0.0
  0
LINE
  8
0
  6
CONTINUOUS
 62
     1
 10
385.864725201
 20
558.433974596
 30
0.0
 11
385.864725201
 21
806.433974596
 31
0.0
  0
LINE
  8
0
  6
CONTINUOUS
 62
     1
 10
479.864725201
 20
796.433974596
 30
0.0
 11
402.864725201
 21
796.433974596
 31
0.0
  0
LINE
  8
0
  6
CONTINUOUS
 62
     1
 10
402.864725201
 20
806.433974596
 30
0.0
 11
385.864725201
 21
806.433974596
 31
0.0
  0
LINE
  8
0
  6
CONTINUOUS
 62
     1
 10
385.864725201
 20
727.433974596
 30
0.0
 11
385.864725201
 21
716.484434596
 31
0.0
  0
LINE
  8
0
  6
CONTINUOUS
 62
     1
 10
385.864725201
 20
727.433974596
 30
0.0
 11
385.864725201
 21
738.383514596
 31
0.0
  0
LINE
  8
0
  6
CONTINUOUS
 62
     1
 10
377.843625201
 20
719.165954596
 30
0.0
 11
379.391801495
 21
716.484434596
 31
0.0
  0
LINE
  8
0
  6
CONTINUOUS
 62
     1
 10
377.843625201
 20
727.433974596
 30
0.0
 11
377.843625201
 21
719.165954596
 31
0.0
  0
LINE
  8
0
  6
CONTINUOUS
 62
     1
 10
377.843625201
 20
735.701994596
 30
0.0
 11
379.391801495
 21
738.383514596
 31
0.0
  0
LINE
  8
0
  6
CONTINUOUS
 62
     1
 10
377.843625201
 20
727.433974596
 30
0.0
 11
377.843625201
 21
735.701994596
 31
0.0
  0
ARC
  8
0
  6
CONTINUOUS
 62
     1
 10
388.297846893
 20
727.433974596
 30
0.0
 40
10.454221693
 50
148.419912243
 51
211.580087757
  0
ARC
  8
0
  6
CONTINUOUS
 62
     1
 10
381.036738807
 20
719.221819596
 30
0.0
 40
3.193602261
 50
121.002313915
 51
182.989498403
  0
LINE
  8
0
  6
CONTINUOUS
 62
     1
 10
377.843625201
 20
735.701994596
 30
0.0
 11
379.391801495
 21
738.383514596
 31
0.0
  0
ARC
  8
0
  6
CONTINUOUS
 62
     1
 10
381.036738807
 20
735.646129596
 30
0.0
 40
3.193602261
 50
177.010501597
 51
238.997686085
  0
LINE
  8
0
  6
CONTINUOUS
 62
     1
 10
385.864725201
 20
716.484434596
 30
0.0
 11
379.391801495
 21
716.484434596
 31
0.0
  0
LINE
  8
0
  6
CONTINUOUS
 62
     1
 10
385.864725201
 20
721.959204596
 30
0.0
 11
379.391801495
 21
721.959204596
 31
0.0
  0
LINE
  8
0
  6
CONTINUOUS
 62
     1
 10
385.864725201
 20
732.908744596
 30
0.0
 11
379.391801495
 21
732.908744596
 31
0.0
  0
LINE
  8
0
  6
CONTINUOUS
 62
     1
 10
385.864725201
 20
738.383514596
 30
0.0
 11
379.391801495
 21
738.383514596
 31
0.0
  0
LINE
  8
0
  6
CONTINUOUS
 62
     1
 10
385.864725201
 20
795.433974596
 30
0.0
 11
385.864725201
 21
787.939914596
 31
0.0
  0
LINE
  8
0
  6
CONTINUOUS
 62
     1
 10
385.864725201
 20
795.433974596
 30
0.0
 11
385.864725201
 21
802.928034596
 31
0.0
  0
LINE
  8
0
  6
CONTINUOUS
 62
     1
 10
380.364825201
 20
789.775194596
 30
0.0
 11
381.424424603
 21
787.939914596
 31
0.0
  0
LINE
  8
0
  6
CONTINUOUS
 62
     1
 10
380.364825201
 20
795.433974596
 30
0.0
 11
380.364825201
 21
789.775194596
 31
0.0
  0
LINE
  8
0
  6
CONTINUOUS
 62
     1
 10
380.364825201
 20
801.092754596
 30
0.0
 11
381.424424603
 21
802.928034596
 31
0.0
  0
LINE
  8
0
  6
CONTINUOUS
 62
     1
 10
380.364825201
 20
795.433974596
 30
0.0
 11
380.364825201
 21
801.092754596
 31
0.0
  0
ARC
  8
0
  6
CONTINUOUS
 62
     1
 10
387.519880538
 20
795.433974596
 30
0.0
 40
7.155055337
 50
148.419912243
 51
211.580087757
  0
ARC
  8
0
  6
CONTINUOUS
 62
     1
 10
382.550248968
 20
789.813429596
 30
0.0
 40
2.185758211
 50
121.002313915
 51
182.989498403
  0
LINE
  8
0
  6
CONTINUOUS
 62
     1
 10
380.364825201
 20
801.092754596
 30
0.0
 11
381.424424603
 21
802.928034596
 31
0.0
  0
ARC
  8
0
  6
CONTINUOUS
 62
     1
 10
382.550248968
 20
801.054519596
 30
0.0
 40
2.185758211
 50
177.010501597
 51
238.997686085
  0
LINE
  8
0
  6
CONTINUOUS
 62
     1
 10
385.864725201
 20
787.939914596
 30
0.0
 11
381.424424603
 21
787.939914596
 31
0.0
  0
LINE
  8
0
  6
CONTINUOUS
 62
     1
 10
385.864725201
 20
791.686944596
 30
0.0
 11
381.424424603
 21
791.686944596
 31
0.0
  0
LINE
  8
0
  6
CONTINUOUS
 62
     1
 10
385.864725201
 20
799.181004596
 30
0.0
 11
381.424424603
 21
799.181004596
 31
0.0
  0
LINE
  8
0
  6
CONTINUOUS
 62
     1
 10
385.864725201
 20
802.928034596
 30
0.0
 11
381.424424603
 21
802.928034596
 31
0.0
  0
LINE
  8
0
  6
CONTINUOUS
 62
     1
 10
497.864725201
 20
728.333974596
 30
0.0
 11
497.864725201
 21
928.333974596
 31
0.0
  0
LINE
  8
0
  6
CONTINUOUS
 62
     1
 10
497.864725201
 20
727.633974596
 30
0.0
 11
497.864725201
 21
927.633974596
 31
0.0
  0
LINE
  8
0
  6
LTYPE3
 62
     2
 10
444.939725201
 20
958.433974596
 30
0.0
 11
509.939725201
 21
958.433974596
 31
0.0
  0
LINE
  8
0
  6
LTYPE3
 62
     2
 10
477.864725201
 20
911.433974596
 30
0.0
 11
477.864725201
 21
991.133974596
 31
0.0
  0
LINE
  8
0
  6
LTYPE3
 62
     2
 10
372.864725201
 20
727.433974596
 30
0.0
 11
420.964725201
 21
727.433974596
 31
0.0
  0
LINE
  8
0
  6
LTYPE3
 62
     2
 10
374.764725201
 20
795.433974596
 30
0.0
 11
399.364725201
 21
795.433974596
 31
0.0
  0
LINE
  8
0
  6
CONTINUOUS
 62
     2
 10
378.364725201
 20
844.833974596
 30
0.0
 11
376.884370258
 21
857.246007034
 31
0.0
  0
LINE
  8
0
  6
CONTINUOUS
 62
     2
 10
378.364725201
 20
844.833974596
 30
0.0
 11
370.876683995
 21
854.842932529
 31
0.0
  0
LINE
  8
0
  6
CONTINUOUS
 62
     2
 10
378.364725201
 20
844.833974596
 30
0.0
 11
328.364725201
 21
969.833974596
 31
0.0
  0
LINE
  8
0
  6
CONTINUOUS
 62
     2
 10
328.364725201
 20
969.833974596
 30
0.0
 11
247.364725201
 21
969.833974596
 31
0.0
  0
LINE
  8
0
  6
LTYPE3
 62
     2
 10
356.414725201
 20
828.433974596
 30
0.0
 11
807.164725201
 21
828.433974596
 31
0.0
  0
LINE
  8
0
  6
LTYPE3
 62
     2
 10
582.864725201
 20
609.433974596
 30
0.0
 11
582.864725201
 21
699.433974596
 31
0.0
  0
LINE
  8
0
  6
LTYPE3
 62
     2
 10
582.864725201
 20
609.433974596
 30
0.0
 11
582.864725201
 21
699.433974596
 31
0.0
  0
CIRCLE
  8
0
  6
CONTINUOUS
 62
     1
 10
582.864725201
 20
652.433974596
 30
0.0
 40
12.5
  0
CIRCLE
  8
0
  6
CONTINUOUS
 62
     1
 10
582.864725201
 20
652.433974596
 30
0.0
 40
23.0
  0
CIRCLE
  8
0
  6
CONTINUOUS
 62
     1
 10
582.864725201
 20
652.433974596
 30
0.0
 40
27.5
  0
LINE
  8
0
  6
CONTINUOUS
 62
     1
 10
702.864725201
 20
592.433974596
 30
0.0
 11
702.864725201
 21
712.433974596
 31
0.0
  0
LINE
  8
0
  6
CONTINUOUS
 62
     1
 10
512.864725201
 20
585.433974596
 30
0.0
 11
512.864725201
 21
719.433974596
 31
0.0
  0
LINE
  8
0
  6
CONTINUOUS
 62
     1
 10
497.864725201
 20
719.433974596
 30
0.0
 11
512.864725201
 21
719.433974596
 31
0.0
  0
LINE
  8
0
  6
CONTINUOUS
 62
     1
 10
512.864725201
 20
712.433974596
 30
0.0
 11
702.864725201
 21
712.433974596
 31
0.0
  0
LINE
  8
0
  6
CONTINUOUS
 62
     1
 10
620.864725201
 20
584.933974596
 30
0.0
 11
620.864725201
 21
626.933974596
 31
0.0
  0
LINE
  8
0
  6
CONTINUOUS
 62
     1
 10
694.864725201
 20
584.933974596
 30
0.0
 11
694.864725201
 21
626.933974596
 31
0.0
  0
LINE
  8
0
  6
CONTINUOUS
 62
     1
 10
702.864725201
 20
710.433974596
 30
0.0
 11
711.864725201
 21
710.433974596
 31
0.0
  0
LINE
  8
0
  6
CONTINUOUS
 62
     1
 10
702.864725201
 20
713.433974596
 30
0.0
 11
711.864725201
 21
713.433974596
 31
0.0
  0
LINE
  8
0
  6
CONTINUOUS
 62
     1
 10
702.864725201
 20
657.433974596
 30
0.0
 11
711.864725201
 21
657.433974596
 31
0.0
  0
LINE
  8
0
  6
CONTINUOUS
 62
     1
 10
702.864725201
 20
647.433974596
 30
0.0
 11
711.864725201
 21
647.433974596
 31
0.0
  0
LINE
  8
0
  6
CONTINUOUS
 62
     1
 10
711.864725201
 20
592.433974596
 30
0.0
 11
711.864725201
 21
712.433974596
 31
0.0
  0
LINE
  8
0
  6
CONTINUOUS
 62
     1
 10
497.864725201
 20
727.633974596
 30
0.0
 11
497.864725201
 21
927.633974596
 31
0.0
  0
CIRCLE
  8
0
  6
CONTINUOUS
 62
     1
 10
858.789733105
 20
652.433974596
 30
0.0
 40
19.5
  0
LINE
  8
0
  6
CONTINUOUS
 62
     1
 10
838.789733105
 20
672.433974596
 30
0.0
 11
878.789733105
 21
672.433974596
 31
0.0
  0
LINE
  8
0
  6
CONTINUOUS
 62
     1
 10
878.789733105
 20
632.433974596
 30
0.0
 11
878.789733105
 21
672.433974596
 31
0.0
  0
LINE
  8
0
  6
CONTINUOUS
 62
     1
 10
838.789733105
 20
632.433974596
 30
0.0
 11
878.789733105
 21
632.433974596
 31
0.0
  0
LINE
  8
0
  6
CONTINUOUS
 62
     1
 10
838.789733105
 20
632.433974596
 30
0.0
 11
838.789733105
 21
672.433974596
 31
0.0
  0
LINE
  8
0
  6
CONTINUOUS
 62
     2
 10
866.864725201
 20
661.433974596
 30
0.0
 11
874.352766407
 21
671.442932529
 31
0.0
  0
LINE
  8
0
  6
CONTINUOUS
 62
     2
 10
866.864725201
 20
661.433974596
 30
0.0
 11
868.345080143
 21
673.846007034
 31
0.0
  0
LINE
  8
0
  6
CONTINUOUS
 62
     2
 10
866.864725201
 20
661.433974596
 30
0.0
 11
916.864725201
 21
786.433974596
 31
0.0
  0
LINE
  8
0
  6
LTYPE3
 62
     2
 10
858.789733105
 20
627.333974596
 30
0.0
 11
858.789733105
 21
677.233974596
 31
0.0
  0
LINE
  8
0
  6
CONTINUOUS
 62
     2
 10
916.864725201
 20
786.433974596
 30
0.0
 11
965.564725201
 21
786.433974596
 31
0.0
  0
LINE
  8
0
  6
CONTINUOUS
 62
     1
 10
497.864725201
 20
748.433974596
 30
0.0
 11
497.864725201
 21
908.433974596
 31
0.0
  0
LINE
  8
0
  6
CONTINUOUS
 62
     1
 10
497.864725201
 20
927.633974596
 30
0.0
 11
507.864725201
 21
927.633974596
 31
0.0
  0
LINE
  8
0
  6
CONTINUOUS
 62
     1
 10
497.864725201
 20
727.633974596
 30
0.0
 11
497.864725201
 21
927.633974596
 31
0.0
  0
LINE
  8
0
  6
CONTINUOUS
 62
     1
 10
497.864725201
 20
727.633974596
 30
0.0
 11
507.864725201
 21
727.633974596
 31
0.0
  0
LINE
  8
0
  6
CONTINUOUS
 62
     1
 10
498.364725201
 20
727.533974596
 30
0.0
 11
507.364725201
 21
727.533974596
 31
0.0
  0
ARC
  8
0
  6
CONTINUOUS
 62
     1
 10
507.364725201
 20
730.533974596
 30
0.0
 40
3.0
 50
270.0
 51
0.0
  0
LINE
  8
0
  6
CONTINUOUS
 62
     1
 10
498.364725201
 20
927.533974596
 30
0.0
 11
507.364725201
 21
927.533974596
 31
0.0
  0
ARC
  8
0
  6
CONTINUOUS
 62
     1
 10
507.364725201
 20
924.533974596
 30
0.0
 40
3.0
 50
0.0
 51
90.0
  0
LINE
  8
0
  6
CONTINUOUS
 62
     1
 10
510.364725201
 20
898.533974596
 30
0.0
 11
510.364725201
 21
924.533974596
 31
0.0
  0
LINE
  8
0
  6
CONTINUOUS
 62
     1
 10
510.364725201
 20
730.533974596
 30
0.0
 11
510.364725201
 21
898.533974596
 31
0.0
  0
ARC
  8
0
  6
CONTINUOUS
 62
     1
 10
512.364725201
 20
900.533974596
 30
0.0
 40
2.0
 50
180.0
 51
270.0
  0
LINE
  8
0
  6
CONTINUOUS
 62
     1
 10
545.364725201
 20
756.533974596
 30
0.0
 11
545.364725201
 21
898.433974596
 31
0.0
  0
ARC
  8
0
  6
CONTINUOUS
 62
     1
 10
512.364725201
 20
754.533974596
 30
0.0
 40
2.0
 50
90.0
 51
180.0
  0
LINE
  8
0
  6
CONTINUOUS
 62
     1
 10
648.914725201
 20
917.533974596
 30
0.0
 11
648.914725201
 21
951.533974596
 31
0.0
  0
LINE
  8
0
  6
CONTINUOUS
 62
     1
 10
648.914725201
 20
917.533974596
 30
0.0
 11
622.914725201
 21
917.533974596
 31
0.0
  0
LINE
  8
0
  6
CONTINUOUS
 62
     1
 10
648.914725201
 20
951.533974596
 30
0.0
 11
622.914725201
 21
951.533974596
 31
0.0
  0
LINE
  8
0
  6
LTYPE2
 62
     2
 10
655.844201046
 20
934.533974596
 30
0.0
 11
615.844201046
 21
934.533974596
 31
0.0
  0
LINE
  8
0
  6
CONTINUOUS
 62
     1
 10
552.914725201
 20
909.533974596
 30
0.0
 11
552.914725201
 21
912.533974596
 31
0.0
  0
ARC
  8
0
  6
CONTINUOUS
 62
     1
 10
556.914725201
 20
906.533974596
 30
0.0
 40
3.0
 50
0.0
 51
90.0
  0
LINE
  8
0
  6
CONTINUOUS
 62
     1
 10
612.914725201
 20
909.533974596
 30
0.0
 11
612.914725201
 21
912.533974596
 31
0.0
  0
ARC
  8
0
  6
CONTINUOUS
 62
     1
 10
608.914725201
 20
906.533974596
 30
0.0
 40
3.0
 50
90.0
 51
180.0
  0
LINE
  8
0
  6
CONTINUOUS
 62
     1
 10
612.914725201
 20
909.533974596
 30
0.0
 11
552.914725201
 21
909.533974596
 31
0.0
  0
LINE
  8
0
  6
CONTINUOUS
 62
     1
 10
537.826813113
 20
914.533974596
 30
0.0
 11
629.914725201
 21
958.554020484
 31
0.0
  0
LINE
  8
0
  6
CONTINUOUS
 62
     1
 10
535.914725201
 20
918.533974596
 30
0.0
 11
537.826813113
 21
914.533974596
 31
0.0
  0
LINE
  8
0
  6
CONTINUOUS
 62
     1
 10
535.914725201
 20
918.533974596
 30
0.0
 11
628.002637289
 21
962.554020484
 31
0.0
  0
LINE
  8
0
  6
CONTINUOUS
 62
     1
 10
628.002637289
 20
962.554020484
 30
0.0
 11
629.914725201
 21
958.554020484
 31
0.0
  0
LINE
  8
0
  6
CONTINUOUS
 62
     1
 10
542.914725201
 20
921.880128442
 30
0.0
 11
542.914725201
 21
961.533974596
 31
0.0
  0
ARC
  8
0
  6
CONTINUOUS
 62
     1
 10
545.914725201
 20
961.533974596
 30
0.0
 40
3.0
 50
90.0
 51
180.0
  0
LINE
  8
0
  6
CONTINUOUS
 62
     1
 10
542.914725201
 20
915.533974596
 30
0.0
 11
542.914725201
 21
916.966108396
 31
0.0
  0
ARC
  8
0
  6
CONTINUOUS
 62
     1
 10
545.914725201
 20
915.533974596
 30
0.0
 40
3.0
 50
180.0
 51
270.0
  0
LINE
  8
0
  6
CONTINUOUS
 62
     1
 10
622.914725201
 20
915.533974596
 30
0.0
 11
622.914725201
 21
955.207866638
 31
0.0
  0
LINE
  8
0
  6
CONTINUOUS
 62
     1
 10
619.914725201
 20
912.533974596
 30
0.0
 11
545.914725201
 21
912.533974596
 31
0.0
  0
ARC
  8
0
  6
CONTINUOUS
 62
     1
 10
619.914725201
 20
915.533974596
 30
0.0
 40
3.0
 50
270.0
 51
0.0
  0
LINE
  8
0
  6
CONTINUOUS
 62
     1
 10
622.914725201
 20
960.121886684
 30
0.0
 11
622.914725201
 21
961.533974596
 31
0.0
  0
LINE
  8
0
  6
CONTINUOUS
 62
     1
 10
619.914725201
 20
964.533974596
 30
0.0
 11
545.914725201
 21
964.533974596
 31
0.0
  0
ARC
  8
0
  6
CONTINUOUS
 62
     1
 10
619.914725201
 20
961.533974596
 30
0.0
 40
3.0
 50
0.0
 51
90.0
  0
ARC
  8
0
  6
CONTINUOUS
 62
     1
 10
562.914725201
 20
901.033974596
 30
0.0
 40
3.0
 50
180.0
 51
270.0
  0
ARC
  8
0
  6
CONTINUOUS
 62
     1
 10
602.914725201
 20
901.033974596
 30
0.0
 40
3.0
 50
270.0
 51
0.0
  0
LINE
  8
0
  6
CONTINUOUS
 62
     1
 10
605.914725201
 20
901.033979991
 30
0.0
 11
605.914725201
 21
906.533974596
 31
0.0
  0
LINE
  8
0
  6
CONTINUOUS
 62
     1
 10
559.914725201
 20
901.033979991
 30
0.0
 11
559.914725201
 21
906.533974596
 31
0.0
  0
LINE
  8
0
  6
LTYPE2
 62
     2
 10
582.864725201
 20
891.533974596
 30
0.0
 11
582.864725201
 21
966.533974596
 31
0.0
  0
LINE
  8
0
  6
CONTINUOUS
 62
     1
 10
750.175107016
 20
869.361557281
 30
0.0
 11
767.554343386
 21
867.706391912
 31
0.0
  0
ARC
  8
0
  6
CONTINUOUS
 62
     1
 10
750.364725201
 20
871.352548226
 30
0.0
 40
2.0
 50
180.0
 51
264.559667969
  0
LINE
  8
0
  6
CONTINUOUS
 62
     1
 10
750.175107016
 20
879.361557281
 30
0.0
 11
767.554343386
 21
877.706391912
 31
0.0
  0
ARC
  8
0
  6
CONTINUOUS
 62
     1
 10
750.364725201
 20
881.352548226
 30
0.0
 40
2.0
 50
180.0
 51
264.559667969
  0
LINE
  8
0
  6
CONTINUOUS
 62
     1
 10
750.175107016
 20
785.706391912
 30
0.0
 11
767.554343386
 21
787.361557281
 31
0.0
  0
ARC
  8
0
  6
CONTINUOUS
 62
     1
 10
750.364725201
 20
783.715400967
 30
0.0
 40
2.0
 50
95.440332031
 51
180.0
  0
ARC
  8
0
  6
CONTINUOUS
 62
     1
 10
771.364725201
 20
852.533974596
 30
0.0
 40
2.0
 50
180.0
 51
270.0
  0
LINE
  8
0
  6
CONTINUOUS
 62
     1
 10
780.364725201
 20
850.533974596
 30
0.0
 11
771.364725201
 21
850.533974596
 31
0.0
  0
ARC
  8
0
  6
CONTINUOUS
 62
     1
 10
780.364725201
 20
848.533974596
 30
0.0
 40
2.0
 50
0.0
 51
90.0
  0
LINE
  8
0
  6
CONTINUOUS
 62
     1
 10
782.364725201
 20
848.533974596
 30
0.0
 11
782.364725201
 21
806.533974596
 31
0.0
  0
ARC
  8
0
  6
CONTINUOUS
 62
     1
 10
780.364725201
 20
806.533974596
 30
0.0
 40
2.0
 50
270.0
 51
0.0
  0
ARC
  8
0
  6
CONTINUOUS
 62
     1
 10
771.364725201
 20
802.533974596
 30
0.0
 40
2.0
 50
90.0
 51
180.0
  0
LINE
  8
0
  6
CONTINUOUS
 62
     1
 10
780.364725201
 20
804.533974596
 30
0.0
 11
771.364725201
 21
804.533974596
 31
0.0
  0
LINE
  8
0
  6
CONTINUOUS
 62
     1
 10
785.364725201
 20
839.033974596
 30
0.0
 11
782.364725201
 21
839.033974596
 31
0.0
  0
LINE
  8
0
  6
CONTINUOUS
 62
     1
 10
785.364725201
 20
816.033974596
 30
0.0
 11
782.364725201
 21
816.033974596
 31
0.0
  0
LINE
  8
0
  6
CONTINUOUS
 62
     1
 10
785.364725201
 20
839.033974596
 30
0.0
 11
785.364725201
 21
816.033974596
 31
0.0
  0
ARC
  8
0
  6
CONTINUOUS
 62
     1
 10
767.364725201
 20
820.352548226
 30
0.0
 40
2.0
 50
275.440332031
 51
0.0
  0
LINE
  8
0
  6
CONTINUOUS
 62
     1
 10
767.554343386
 20
818.361557281
 30
0.0
 11
750.175107016
 21
816.706391912
 31
0.0
  0
ARC
  8
0
  6
CONTINUOUS
 62
     1
 10
750.364725201
 20
814.715400967
 30
0.0
 40
2.0
 50
95.440332031
 51
180.0
  0
ARC
  8
0
  6
CONTINUOUS
 62
     1
 10
767.364725201
 20
834.715400967
 30
0.0
 40
2.0
 50
0.0
 51
84.559667969
  0
LINE
  8
0
  6
CONTINUOUS
 62
     1
 10
767.554343386
 20
836.706391912
 30
0.0
 11
750.175107016
 21
838.361557281
 31
0.0
  0
ARC
  8
0
  6
CONTINUOUS
 62
     1
 10
750.364725201
 20
840.352548226
 30
0.0
 40
2.0
 50
180.0
 51
264.559667969
  0
LINE
  8
0
  6
LTYPE2
 62
     2
 10
761.864725201
 20
870.533974596
 30
0.0
 11
775.064725201
 21
870.533974596
 31
0.0
  0
LINE
  8
0
  6
CONTINUOUS
 62
     1
 10
750.175107016
 20
775.706391912
 30
0.0
 11
767.554343386
 21
777.361557281
 31
0.0
  0
LINE
  8
0
  6
LTYPE2
 62
     2
 10
761.864725201
 20
784.533974596
 30
0.0
 11
775.064725201
 21
784.533974596
 31
0.0
  0
ARC
  8
0
  6
CONTINUOUS
 62
     1
 10
750.364725201
 20
773.715400967
 30
0.0
 40
2.0
 50
95.440332031
 51
180.0
  0
LINE
  8
0
  6
CONTINUOUS
 62
     1
 10
769.364725201
 20
875.715400967
 30
0.0
 11
769.364725201
 21
779.922094596
 31
0.0
  0
ARC
  8
0
  6
CONTINUOUS
 62
     1
 10
767.364725201
 20
865.715400967
 30
0.0
 40
2.0
 50
0.0
 51
84.559667969
  0
ARC
  8
0
  6
CONTINUOUS
 62
     1
 10
767.364725201
 20
875.715400967
 30
0.0
 40
2.0
 50
0.0
 51
84.559667969
  0
LINE
  8
0
  6
CONTINUOUS
 62
     1
 10
772.864925201
 20
874.016414596
 30
0.0
 11
772.212842713
 21
875.145854596
 31
0.0
  0
LINE
  8
0
  6
CONTINUOUS
 62
     1
 10
772.864925201
 20
867.051534596
 30
0.0
 11
772.212842713
 21
865.922094596
 31
0.0
  0
ARC
  8
0
  6
CONTINUOUS
 62
     1
 10
768.461670275
 20
870.533974596
 30
0.0
 40
4.403254926
 50
328.419912243
 51
31.580087757
  0
ARC
  8
0
  6
CONTINUOUS
 62
     1
 10
771.520005069
 20
873.992884596
 30
0.0
 40
1.34512595
 50
301.002313915
 51
2.989498403
  0
LINE
  8
0
  6
CONTINUOUS
 62
     1
 10
772.864925201
 20
867.051534596
 30
0.0
 11
772.212842713
 21
865.922094596
 31
0.0
  0
ARC
  8
0
  6
CONTINUOUS
 62
     1
 10
771.520005069
 20
867.075064596
 30
0.0
 40
1.34512595
 50
357.010501597
 51
58.997686085
  0
LINE
  8
0
  6
CONTINUOUS
 62
     1
 10
769.364725201
 20
875.145854596
 30
0.0
 11
772.212842713
 21
875.145854596
 31
0.0
  0
LINE
  8
0
  6
CONTINUOUS
 62
     1
 10
769.364725201
 20
872.839914596
 30
0.0
 11
772.212842713
 21
872.839914596
 31
0.0
  0
LINE
  8
0
  6
CONTINUOUS
 62
     1
 10
769.364725201
 20
868.228034596
 30
0.0
 11
772.212842713
 21
868.228034596
 31
0.0
  0
LINE
  8
0
  6
CONTINUOUS
 62
     1
 10
769.364725201
 20
865.922094596
 30
0.0
 11
772.212842713
 21
865.922094596
 31
0.0
  0
LINE
  8
0
  6
CONTINUOUS
 62
     1
 10
772.864925201
 20
874.016414596
 30
0.0
 11
772.864925201
 21
867.051534596
 31
0.0
  0
LINE
  8
0
  6
CONTINUOUS
 62
     1
 10
790.364725201
 20
831.886876596
 30
0.0
 11
789.549649804
 21
833.298628596
 31
0.0
  0
LINE
  8
0
  6
CONTINUOUS
 62
     1
 10
790.364725201
 20
823.181072596
 30
0.0
 11
789.549649804
 21
821.769320596
 31
0.0
  0
ARC
  8
0
  6
CONTINUOUS
 62
     1
 10
784.860843677
 20
827.533974596
 30
0.0
 40
5.503881523
 50
328.419912243
 51
31.580087757
  0
ARC
  8
0
  6
CONTINUOUS
 62
     1
 10
788.683632194
 20
831.857465096
 30
0.0
 40
1.681350271
 50
301.002313915
 51
2.989498403
  0
LINE
  8
0
  6
CONTINUOUS
 62
     1
 10
790.364725201
 20
823.181072596
 30
0.0
 11
789.549649804
 21
821.769320596
 31
0.0
  0
ARC
  8
0
  6
CONTINUOUS
 62
     1
 10
788.683632194
 20
823.210484096
 30
0.0
 40
1.681350271
 50
357.010501597
 51
58.997686085
  0
LINE
  8
0
  6
CONTINUOUS
 62
     1
 10
786.365115201
 20
830.416301596
 30
0.0
 11
789.549649804
 21
830.416301596
 31
0.0
  0
LINE
  8
0
  6
CONTINUOUS
 62
     1
 10
786.365115201
 20
833.298628596
 30
0.0
 11
789.549649804
 21
833.298628596
 31
0.0
  0
LINE
  8
0
  6
CONTINUOUS
 62
     1
 10
786.365115201
 20
824.651647596
 30
0.0
 11
789.549649804
 21
824.651647596
 31
0.0
  0
LINE
  8
0
  6
CONTINUOUS
 62
     1
 10
786.365115201
 20
821.769320596
 30
0.0
 11
789.549649804
 21
821.769320596
 31
0.0
  0
LINE
  8
0
  6
CONTINUOUS
 62
     1
 10
790.364725201
 20
823.181072596
 30
0.0
 11
790.364725201
 21
831.886876596
 31
0.0
  0
LINE
  8
0
  6
CONTINUOUS
 62
     1
 10
786.365115201
 20
834.033974596
 30
0.0
 11
785.364725201
 21
834.033974596
 31
0.0
  0
LINE
  8
0
  6
CONTINUOUS
 62
     1
 10
786.365115201
 20
834.033974596
 30
0.0
 11
786.365115201
 21
821.033974596
 31
0.0
  0
LINE
  8
0
  6
CONTINUOUS
 62
     1
 10
786.365115201
 20
821.033974596
 30
0.0
 11
785.364725201
 21
821.033974596
 31
0.0
  0
ARC
  8
0
  6
CONTINUOUS
 62
     1
 10
767.364725201
 20
789.352548226
 30
0.0
 40
2.0
 50
275.440332031
 51
0.0
  0
LINE
  8
0
  6
CONTINUOUS
 62
     1
 10
772.864925201
 20
781.051534596
 30
0.0
 11
772.212842713
 21
779.922094596
 31
0.0
  0
LINE
  8
0
  6
CONTINUOUS
 62
     1
 10
772.864925201
 20
788.016414596
 30
0.0
 11
772.212842713
 21
789.145854596
 31
0.0
  0
ARC
  8
0
  6
CONTINUOUS
 62
     1
 10
768.461670275
 20
784.533974596
 30
0.0
 40
4.403254926
 50
328.419912243
 51
31.580087757
  0
ARC
  8
0
  6
CONTINUOUS
 62
     1
 10
771.520005069
 20
781.075064596
 30
0.0
 40
1.34512595
 50
357.010501597
 51
58.997686085
  0
LINE
  8
0
  6
CONTINUOUS
 62
     1
 10
772.864925201
 20
788.016414596
 30
0.0
 11
772.212842713
 21
789.145854596
 31
0.0
  0
ARC
  8
0
  6
CONTINUOUS
 62
     1
 10
771.520005069
 20
787.992884596
 30
0.0
 40
1.34512595
 50
301.002313915
 51
2.989498403
  0
LINE
  8
0
  6
CONTINUOUS
 62
     1
 10
769.364725201
 20
779.922094596
 30
0.0
 11
772.212842713
 21
779.922094596
 31
0.0
  0
LINE
  8
0
  6
CONTINUOUS
 62
     1
 10
769.364725201
 20
782.228034596
 30
0.0
 11
772.212842713
 21
782.228034596
 31
0.0
  0
LINE
  8
0
  6
CONTINUOUS
 62
     1
 10
769.364725201
 20
786.839914596
 30
0.0
 11
772.212842713
 21
786.839914596
 31
0.0
  0
LINE
  8
0
  6
CONTINUOUS
 62
     1
 10
769.364725201
 20
789.145854596
 30
0.0
 11
772.212842713
 21
789.145854596
 31
0.0
  0
LINE
  8
0
  6
CONTINUOUS
 62
     1
 10
772.864925201
 20
781.051534596
 30
0.0
 11
772.864925201
 21
788.016414596
 31
0.0
  0
ARC
  8
0
  6
CONTINUOUS
 62
     1
 10
767.364725201
 20
779.352548226
 30
0.0
 40
2.0
 50
275.440332031
 51
0.0
  0
LINE
  8
0
  6
LTYPE1
 62
     1
 10
777.464725201
 20
842.033974596
 30
0.0
 11
769.364725201
 21
832.833974596
 31
0.0
  0
ARC
  8
0
  6
LTYPE1
 62
     1
 10
780.864725201
 20
839.033974596
 30
0.0
 40
4.5
 50
290.9
 51
137.7
  0
LINE
  8
0
  6
LTYPE1
 62
     1
 10
775.364725201
 20
832.033974596
 30
0.0
 11
769.364725201
 21
832.833974596
 31
0.0
  0
LINE
  8
0
  6
LTYPE1
 62
     1
 10
782.464725201
 20
834.833974596
 30
0.0
 11
775.364725201
 21
832.033974596
 31
0.0
  0
LINE
  8
0
  6
LTYPE1
 62
     1
 10
775.364725201
 20
823.033974596
 30
0.0
 11
769.364725201
 21
822.233974596
 31
0.0
  0
ARC
  8
0
  6
LTYPE1
 62
     1
 10
780.864725201
 20
816.033974596
 30
0.0
 40
4.5
 50
222.3
 51
69.1
  0
LINE
  8
0
  6
LTYPE1
 62
     1
 10
777.464725201
 20
813.033974596
 30
0.0
 11
769.364725201
 21
822.233974596
 31
0.0
  0
LINE
  8
0
  6
LTYPE1
 62
     1
 10
782.464725201
 20
820.233974596
 30
0.0
 11
775.364725201
 21
823.033974596
 31
0.0
  0
LINE
  8
0
  6
LTYPE1
 62
     1
 10
775.364725201
 20
832.033974596
 30
0.0
 11
775.364725201
 21
823.033974596
 31
0.0
  0
LINE
  8
0
  6
CONTINUOUS
 62
     1
 10
740.364725201
 20
756.533974596
 30
0.0
 11
740.364725201
 21
898.533974596
 31
0.0
  0
LINE
  8
0
  6
CONTINUOUS
 62
     1
 10
512.364725201
 20
898.533974596
 30
0.0
 11
745.364725201
 21
898.533974596
 31
0.0
  0
ARC
  8
0
  6
CONTINUOUS
 62
     1
 10
745.364725201
 20
895.533974596
 30
0.0
 40
3.0
 50
0.0
 51
90.0
  0
LINE
  8
0
  6
CONTINUOUS
 62
     1
 10
512.364725201
 20
756.533974596
 30
0.0
 11
745.364725201
 21
756.533974596
 31
0.0
  0
LINE
  8
0
  6
CONTINUOUS
 62
     1
 10
748.364725201
 20
895.533974596
 30
0.0
 11
748.364725201
 21
759.533974596
 31
0.0
  0
ARC
  8
0
  6
CONTINUOUS
 62
     1
 10
745.364725201
 20
759.533974596
 30
0.0
 40
3.0
 50
270.0
 51
0.0
  0
LINE
  8
0
  6
CONTINUOUS
 62
     2
 10
495.364725201
 20
885.870284044
 30
0.0
 11
525.364725201
 21
885.870284044
 31
0.0
  0
LINE
  8
0
  6
CONTINUOUS
 62
     1
 10
517.364725201
 20
875.870284044
 30
0.0
 11
517.364725201
 21
895.870284044
 31
0.0
  0
LINE
  8
0
  6
CONTINUOUS
 62
     1
 10
510.364725201
 20
895.870284044
 30
0.0
 11
517.364725201
 21
895.870284044
 31
0.0
  0
LINE
  8
0
  6
CONTINUOUS
 62
     1
 10
510.364725201
 20
875.870284044
 30
0.0
 11
517.364725201
 21
875.870284044
 31
0.0
  0
LINE
  8
0
  6
CONTINUOUS
 62
     1
 10
510.364725201
 20
890.870284044
 30
0.0
 11
517.364725201
 21
890.870284044
 31
0.0
  0
LINE
  8
0
  6
CONTINUOUS
 62
     1
 10
510.364725201
 20
880.870284044
 30
0.0
 11
517.364725201
 21
880.870284044
 31
0.0
  0
LINE
  8
0
  6
CONTINUOUS
 62
     2
 10
495.364725201
 20
769.197665148
 30
0.0
 11
525.364725201
 21
769.197665148
 31
0.0
  0
LINE
  8
0
  6
CONTINUOUS
 62
     1
 10
517.364725201
 20
779.197665148
 30
0.0
 11
517.364725201
 21
759.197665148
 31
0.0
  0
LINE
  8
0
  6
CONTINUOUS
 62
     1
 10
510.364725201
 20
759.197665148
 30
0.0
 11
517.364725201
 21
759.197665148
 31
0.0
  0
LINE
  8
0
  6
CONTINUOUS
 62
     1
 10
510.364725201
 20
779.197665148
 30
0.0
 11
517.364725201
 21
779.197665148
 31
0.0
  0
LINE
  8
0
  6
CONTINUOUS
 62
     1
 10
510.364725201
 20
764.197665148
 30
0.0
 11
517.364725201
 21
764.197665148
 31
0.0
  0
LINE
  8
0
  6
CONTINUOUS
 62
     1
 10
510.364725201
 20
774.197665148
 30
0.0
 11
517.364725201
 21
774.197665148
 31
0.0
  0
LINE
  8
0
  6
CONTINUOUS
 62
     2
 10
785.164725201
 20
845.033974596
 30
0.0
 11
793.458099616
 21
854.386511193
 31
0.0
  0
LINE
  8
0
  6
CONTINUOUS
 62
     2
 10
785.164725201
 20
845.033974596
 30
0.0
 11
787.670729829
 21
857.280196087
 31
0.0
  0
LINE
  8
0
  6
CONTINUOUS
 62
     2
 10
785.164725201
 20
845.033974596
 30
0.0
 11
858.164725201
 21
991.033974596
 31
0.0
  0
LINE
  8
0
  6
CONTINUOUS
 62
     2
 10
648.914725201
 20
934.533974596
 30
0.0
 11
657.208099616
 21
943.886511193
 31
0.0
  0
LINE
  8
0
  6
CONTINUOUS
 62
     2
 10
648.914725201
 20
934.533974596
 30
0.0
 11
651.420729829
 21
946.780196087
 31
0.0
  0
LINE
  8
2
  6
CONTINUOUS
 62
     2
 10
746.364725201
 20
898.533974596
 30
0.0
 11
842.364725201
 21
898.533974596
 31
0.0
  0
LINE
  8
2
  6
CONTINUOUS
 62
     2
 10
836.364725201
 20
898.533974596
 30
0.0
 11
832.482439524
 21
884.045087202
 31
0.0
  0
LINE
  8
2
  6
CONTINUOUS
 62
     2
 10
836.364725201
 20
898.533974596
 30
0.0
 11
840.247010877
 21
884.045087202
 31
0.0
  0
LINE
  8
2
  6
CONTINUOUS
 62
     2
 10
836.364725201
 20
898.533974596
 30
0.0
 11
836.364725201
 21
756.533974596
 31
0.0
  0
LINE
  8
2
  6
CONTINUOUS
 62
     2
 10
836.364725201
 20
756.533974596
 30
0.0
 11
840.247010877
 21
771.022861991
 31
0.0
  0
LINE
  8
2
  6
CONTINUOUS
 62
     2
 10
836.364725201
 20
756.533974596
 30
0.0
 11
832.482439524
 21
771.022861991
 31
0.0
  0
LINE
  8
2
  6
CONTINUOUS
 62
     2
 10
746.364725201
 20
756.533974596
 30
0.0
 11
842.364725201
 21
756.533974596
 31
0.0
  0
LINE
  8
0
  6
CONTINUOUS
 62
     2
 10
858.164725201
 20
991.033974596
 30
0.0
 11
958.764725201
 21
991.033974596
 31
0.0
  0
LINE
  8
0
  6
CONTINUOUS
 62
     2
 10
648.914725201
 20
934.533974596
 30
0.0
 11
672.544725201
 21
981.793974596
 31
0.0
  0
LINE
  8
0
  6
CONTINUOUS
 62
     2
 10
672.544725201
 20
981.793974596
 30
0.0
 11
755.944725201
 21
981.793974596
 31
0.0
  0
LINE
  8
2
  6
CONTINUOUS
 62
     2
 10
801.864725201
 20
707.433974596
 30
0.0
 11
798.629487137
 21
695.359901768
 31
0.0
  0
LINE
  8
2
  6
CONTINUOUS
 62
     2
 10
801.864725201
 20
707.433974596
 30
0.0
 11
805.099963265
 21
695.359901768
 31
0.0
  0
LINE
  8
2
  6
CONTINUOUS
 62
     2
 10
801.864725201
 20
707.433974596
 30
0.0
 11
801.864725201
 21
597.433974596
 31
0.0
  0
LINE
  8
2
  6
CONTINUOUS
 62
     2
 10
801.864725201
 20
597.433974596
 30
0.0
 11
805.099963265
 21
609.508047425
 31
0.0
  0
LINE
  8
2
  6
CONTINUOUS
 62
     2
 10
801.864725201
 20
597.433974596
 30
0.0
 11
798.629487137
 21
609.508047425
 31
0.0
  0
LINE
  8
0
  6
CONTINUOUS
 62
     1
 10
962.64722658
 20
707.433974596
 30
0.0
 11
918.64722658
 21
707.433974596
 31
0.0
  0
LINE
  8
0
  6
CONTINUOUS
 62
     1
 10
902.64722658
 20
707.433974596
 30
0.0
 11
711.864725201
 21
707.433974596
 31
0.0
  0
LINE
  8
2
  6
CONTINUOUS
 62
     2
 10
582.864725201
 20
608.933974596
 30
0.0
 11
582.864725201
 21
404.933974596
 31
0.0
  0
LINE
  8
0
  6
CONTINUOUS
 62
     1
 10
902.64722658
 20
597.433974596
 30
0.0
 11
711.864725201
 21
597.433974596
 31
0.0
  0
LINE
  8
0
  6
CONTINUOUS
 62
     1
 10
962.64722658
 20
597.433974596
 30
0.0
 11
918.64722658
 21
597.433974596
 31
0.0
  0
TEXT
  8
0
  6
CONTINUOUS
 62
     2
 10
247.364725201
 20
974.833974596
 30
0.0
 40
18.0
  1
手動軸カバー
 50
0.0
 41
0.9
 51
0.0
  7
KANJI37
  0
TEXT
  8
0
  6
CONTINUOUS
 62
     2
 10
859.664725201
 20
996.033974596
 30
0.0
 40
18.0
  1
手動開放装置
 50
0.0
 41
0.9
 51
0.0
  7
KANJI37
  0
TEXT
  8
0
  6
CONTINUOUS
 62
     2
 10
672.544725201
 20
986.793974596
 30
0.0
 40
18.0
  1
ＰＦ３／４
 50
0.0
 41
0.9
 51
0.0
  7
KANJI37
  0
TEXT
  8
2
  6
CONTINUOUS
 62
     2
 10
796.864725201
 20
616.033974596
 30
0.0
 40
18.0
  1
φ１１０
 50
90.0
 41
0.9
 51
0.0
  7
KANJI37
  0
TEXT
  8
0
  6
CONTINUOUS
 62
     2
 10
916.864725201
 20
791.433974596
 30
0.0
 40
18.0
  1
給脂口
 50
0.0
 41
0.9
 51
0.0
  7
KANJI37
  0
TEXT
  8
2
  6
CONTINUOUS
 62
     2
 10
830.364725201
 20
788.833974596
 30
0.0
 40
18.0
  1
φ１４２
 50
90.0
 41
0.9
 51
0.0
  7
KANJI37
  0
LINE
  8
0
  6
LTYPE3
 62
     2
 10
775.164725201
 20
652.433974596
 30
0.0
 11
364.364725201
 21
652.433974596
 31
0.0
  0
TEXT
  8
0
  6
CONTINUOUS
 62
     2
 10
572.904734656
 20
804.533974596
 30
0.0
 40
18.0
  1
日本電産
 50
0.0
 41
0.9
 51
0.0
  7
KANJI37
  0
TEXT
  8
0
  6
CONTINUOUS
 62
     2
 10
572.904734656
 20
781.533974596
 30
0.0
 40
18.0
  1
エコノストップモータ
 50
0.0
 41
0.9
 51
0.0
  7
KANJI37
  0
LINE
  8
0
  6
LTYPE3
 62
     2
 10
657.864725201
 20
577.933974596
 30
0.0
 11
657.864725201
 21
597.433974596
 31
0.0
  0
LINE
  8
0
  6
LTYPE3
 62
     2
 10
1193.09722658
 20
652.433974596
 30
0.0
 11
816.464725201
 21
652.433974596
 31
0.0
  0
TEXT
  8
0
  6
CONTINUOUS
 62
     3
 10
242.251392201
 20
948.500657596
 30
1.5
 40
15.0
  1
手動軸□１０
 50
0.0
 41
0.9
 51
0.0
  7
KANJI38
  0
ARC
  8
0
  6
CONTINUOUS
 62
     2
 10
308.784725201
 20
829.733974596
 30
0.0
 40
20.0
 50
231.952957468
 51
156.801409486
  0
LINE
  8
0
  6
CONTINUOUS
 62
     2
 10
290.4018246
 20
837.612360568
 30
0.0
 11
292.696517311
 21
847.449799345
 31
0.0
  0
TEXT
  8
0
  6
CONTINUOUS
 62
     2
 10
228.4018246
 20
820.612360568
 30
0.0
 40
15.0
  1
前進方向
 50
0.0
 41
0.9
 51
0.0
  7
KANJI36
  0
LINE
  8
0
  6
CONTINUOUS
 62
     2
 10
290.4018246
 20
837.612360568
 30
0.0
 11
298.669985978
 21
842.519697103
 31
0.0
  0
LINE
  8
0
  6
CONTINUOUS
 62
     1
 10
490.364725201
 20
727.433974596
 30
0.0
 11
447.364725201
 21
727.433974596
 31
0.0
  0
TEXT
  8
0
  6
CONTINUOUS
 62
     2
 10
452.364725201
 20
716.433974596
 30
5.0
 40
20.0
  1
銘板
 50
270.0
 41
0.925
 51
0.0
  7
KANJI39
  0
LINE
  8
0
  6
CONTINUOUS
 62
     1
 10
447.364725201
 20
727.433974596
 30
0.0
 11
447.364725201
 21
657.433974596
 31
0.0
  0
LINE
  8
0
  6
CONTINUOUS
 62
     1
 10
490.364725201
 20
657.433974596
 30
0.0
 11
447.364725201
 21
657.433974596
 31
0.0
  0
LINE
  8
0
  6
CONTINUOUS
 62
     1
 10
490.364725201
 20
727.433974596
 30
0.0
 11
490.364725201
 21
657.433974596
 31
0.0
  0
LINE
  8
0
  6
LTYPE1
 62
     2
 10
757.539733105
 20
548.3
 30
0.0
 11
757.539733105
 21
681.3
 31
0.0
  0
LINE
  8
0
  6
LTYPE1
 62
     2
 10
765.539733105
 20
548.3
 30
0.0
 11
765.539733105
 21
722.433974596
 31
0.0
  0
LINE
  8
0
  6
LTYPE1
 62
     2
 10
749.539733105
 20
548.3
 30
0.0
 11
749.539733105
 21
722.433974596
 31
0.0
  0
LINE
  8
0
  6
LTYPE1
 62
     2
 10
765.539733105
 20
722.433974596
 30
0.0
 11
749.539733105
 21
722.433974596
 31
0.0
  0
LINE
  8
0
  6
CONTINUOUS
 62
     1
 10
918.64722658
 20
556.433974596
 30
0.0
 11
918.64722658
 21
722.433974596
 31
0.0
  0
LINE
  8
0
  6
CONTINUOUS
 62
     1
 10
902.64722658
 20
556.433974596
 30
0.0
 11
902.64722658
 21
722.433974596
 31
0.0
  0
LINE
  8
0
  6
CONTINUOUS
 62
     1
 10
918.64722658
 20
722.433974596
 30
0.0
 11
902.64722658
 21
722.433974596
 31
0.0
  0
LINE
  8
0
  6
CONTINUOUS
 62
     1
 10
398.864725201
 20
814.433974596
 30
0.0
 11
398.864725201
 21
842.433974596
 31
0.0
  0
LINE
  8
0
  6
CONTINUOUS
 62
     1
 10
360.864725201
 20
814.433974596
 30
0.0
 11
360.864725201
 21
842.433974596
 31
0.0
  0
LINE
  8
0
  6
CONTINUOUS
 62
     1
 10
360.864725201
 20
842.433974596
 30
0.0
 11
402.864725201
 21
842.433974596
 31
0.0
  0
LINE
  8
0
  6
CONTINUOUS
 62
     1
 10
360.864725201
 20
814.433974596
 30
0.0
 11
402.864725201
 21
814.433974596
 31
0.0
  0
LINE
  8
0
  6
CONTINUOUS
 62
     2
 10
360.864725201
 20
848.433974596
 30
0.0
 11
360.864725201
 21
1055.433974596
 31
0.0
  0
LINE
  8
0
  6
CONTINUOUS
 62
     2
 10
360.864725201
 20
1049.433974596
 30
0.0
 11
372.455835116
 21
1046.328146055
 31
0.0
  0
LINE
  8
0
  6
CONTINUOUS
 62
     2
 10
360.864725201
 20
1049.433974596
 30
0.0
 11
372.455835116
 21
1052.539803137
 31
0.0
  0
LINE
  8
0
  6
CONTINUOUS
 62
     2
 10
360.864725201
 20
1049.433974596
 30
0.0
 11
497.864725201
 21
1049.433974596
 31
0.0
  0
LINE
  8
0
  6
CONTINUOUS
 62
     2
 10
497.864725201
 20
1049.433974596
 30
0.0
 11
486.273615285
 21
1052.539803137
 31
0.0
  0
LINE
  8
0
  6
CONTINUOUS
 62
     2
 10
497.864725201
 20
1049.433974596
 30
0.0
 11
486.273615285
 21
1046.328146055
 31
0.0
  0
LINE
  8
0
  6
CONTINUOUS
 62
     2
 10
497.864725201
 20
939.433974596
 30
0.0
 11
497.864725201
 21
1055.433974596
 31
0.0
  0
TEXT
  8
0
  6
CONTINUOUS
 62
     3
 10
405.064725201
 20
1058.433974596
 30
0.0
 40
18.0
  1
１３７
 50
0.0
 41
0.9
 51
0.0
  7
KANJI37
  0
LINE
  8
0
  6
CONTINUOUS
 62
     2
 10
497.864725201
 20
1041.433974596
 30
0.0
 11
497.864725201
 21
1055.433974596
 31
0.0
  0
LINE
  8
0
  6
CONTINUOUS
 62
     2
 10
497.864725201
 20
1049.433974596
 30
0.0
 11
509.455835116
 21
1046.328146055
 31
0.0
  0
LINE
  8
0
  6
CONTINUOUS
 62
     2
 10
497.864725201
 20
1049.433974596
 30
0.0
 11
509.455835116
 21
1052.539803137
 31
0.0
  0
LINE
  8
0
  6
CONTINUOUS
 62
     2
 10
497.864725201
 20
1049.433974596
 30
0.0
 11
789.864725201
 21
1049.433974596
 31
0.0
  0
LINE
  8
0
  6
CONTINUOUS
 62
     2
 10
789.864725201
 20
1049.433974596
 30
0.0
 11
778.273615285
 21
1052.539803137
 31
0.0
  0
LINE
  8
0
  6
CONTINUOUS
 62
     2
 10
789.864725201
 20
1049.433974596
 30
0.0
 11
778.273615285
 21
1046.328146055
 31
0.0
  0
TEXT
  8
0
  6
CONTINUOUS
 62
     3
 10
619.564725201
 20
1058.433974596
 30
0.0
 40
18.0
  1
２９２
 50
0.0
 41
0.9
 51
0.0
  7
KANJI37
  0
LINE
  8
0
  6
CONTINUOUS
 62
     2
 10
789.864725201
 20
837.433974596
 30
0.0
 11
789.864725201
 21
1055.433974596
 31
0.0
  0
LINE
  8
0
  6
CONTINUOUS
 62
     1
 10
497.864725201
 20
558.433974596
 30
0.0
 11
385.864725201
 21
558.433974596
 31
0.0
  0
LINE
  8
0
  6
CONTINUOUS
 62
     1
 10
385.864725201
 20
577.433974596
 30
0.0
 11
385.864725201
 21
566.484434596
 31
0.0
  0
LINE
  8
0
  6
CONTINUOUS
 62
     1
 10
385.864725201
 20
577.433974596
 30
0.0
 11
385.864725201
 21
588.383514596
 31
0.0
  0
LINE
  8
0
  6
CONTINUOUS
 62
     1
 10
377.843625201
 20
569.165954596
 30
0.0
 11
379.391801495
 21
566.484434596
 31
0.0
  0
LINE
  8
0
  6
CONTINUOUS
 62
     1
 10
377.843625201
 20
577.433974596
 30
0.0
 11
377.843625201
 21
569.165954596
 31
0.0
  0
LINE
  8
0
  6
CONTINUOUS
 62
     1
 10
377.843625201
 20
585.701994596
 30
0.0
 11
379.391801495
 21
588.383514596
 31
0.0
  0
LINE
  8
0
  6
CONTINUOUS
 62
     1
 10
377.843625201
 20
577.433974596
 30
0.0
 11
377.843625201
 21
585.701994596
 31
0.0
  0
ARC
  8
0
  6
CONTINUOUS
 62
     1
 10
388.297846893
 20
577.433974596
 30
0.0
 40
10.454221693
 50
148.419912243
 51
211.580087757
  0
ARC
  8
0
  6
CONTINUOUS
 62
     1
 10
381.036738807
 20
569.221819596
 30
0.0
 40
3.193602261
 50
121.002313915
 51
182.989498403
  0
LINE
  8
0
  6
CONTINUOUS
 62
     1
 10
377.843625201
 20
585.701994596
 30
0.0
 11
379.391801495
 21
588.383514596
 31
0.0
  0
ARC
  8
0
  6
CONTINUOUS
 62
     1
 10
381.036738807
 20
585.646129596
 30
0.0
 40
3.193602261
 50
177.010501597
 51
238.997686085
  0
LINE
  8
0
  6
CONTINUOUS
 62
     1
 10
385.864725201
 20
566.484434596
 30
0.0
 11
379.391801495
 21
566.484434596
 31
0.0
  0
LINE
  8
0
  6
CONTINUOUS
 62
     1
 10
385.864725201
 20
571.959204596
 30
0.0
 11
379.391801495
 21
571.959204596
 31
0.0
  0
LINE
  8
0
  6
CONTINUOUS
 62
     1
 10
385.864725201
 20
582.908744596
 30
0.0
 11
379.391801495
 21
582.908744596
 31
0.0
  0
LINE
  8
0
  6
CONTINUOUS
 62
     1
 10
385.864725201
 20
588.383514596
 30
0.0
 11
379.391801495
 21
588.383514596
 31
0.0
  0
LINE
  8
0
  6
LTYPE3
 62
     2
 10
372.264725201
 20
577.433974596
 30
0.0
 11
420.964725201
 21
577.433974596
 31
0.0
  0
LINE
  8
0
  6
CONTINUOUS
 62
     1
 10
620.864725201
 20
586.433974596
 30
0.0
 11
694.864725201
 21
586.433974596
 31
0.0
  0
LINE
  8
0
  6
CONTINUOUS
 62
     1
 10
497.864725201
 20
585.433974596
 30
0.0
 11
512.864725201
 21
585.433974596
 31
0.0
  0
LINE
  8
0
  6
CONTINUOUS
 62
     1
 10
694.864725201
 20
592.433974596
 30
0.0
 11
702.864725201
 21
592.433974596
 31
0.0
  0
LINE
  8
0
  6
CONTINUOUS
 62
     1
 10
512.864725201
 20
592.433974596
 30
0.0
 11
620.864725201
 21
592.433974596
 31
0.0
  0
LINE
  8
0
  6
CONTINUOUS
 62
     1
 10
703.864725201
 20
584.933974596
 30
0.0
 11
703.864725201
 21
583.933974596
 31
0.0
  0
ARC
  8
0
  6
CONTINUOUS
 62
     1
 10
616.864725201
 20
581.933974596
 30
0.0
 40
3.0
 50
90.0
 51
180.0
  0
LINE
  8
0
  6
CONTINUOUS
 62
     1
 10
703.864725201
 20
583.933974596
 30
0.0
 11
739.864725201
 21
583.933974596
 31
0.0
  0
ARC
  8
0
  6
CONTINUOUS
 62
     1
 10
739.864725201
 20
580.933974596
 30
0.0
 40
3.0
 50
0.0
 51
90.0
  0
LINE
  8
0
  6
CONTINUOUS
 62
     1
 10
616.864725201
 20
584.933974596
 30
0.0
 11
703.864725201
 21
584.933974596
 31
0.0
  0
LINE
  8
0
  6
CONTINUOUS
 62
     1
 10
702.864725201
 20
594.433974596
 30
0.0
 11
711.864725201
 21
594.433974596
 31
0.0
  0
LINE
  8
0
  6
CONTINUOUS
 62
     1
 10
702.864725201
 20
591.433974596
 30
0.0
 11
711.864725201
 21
591.433974596
 31
0.0
  0
LINE
  8
0
  6
LTYPE1
 62
     2
 10
742.864725201
 20
569.433974596
 30
0.0
 11
732.864725201
 21
569.433974596
 31
0.0
  0
LINE
  8
0
  6
LTYPE3
 62
     2
 10
940.64722658
 20
488.433974596
 30
0.0
 11
940.64722658
 21
553.733974596
 31
0.0
  0
LINE
  8
2
  6
CONTINUOUS
 62
     2
 10
582.864725201
 20
414.933974596
 30
0.0
 11
594.938798029
 21
411.698736532
 31
0.0
  0
LINE
  8
2
  6
CONTINUOUS
 62
     2
 10
582.864725201
 20
414.933974596
 30
0.0
 11
594.938798029
 21
418.16921266
 31
0.0
  0
LINE
  8
2
  6
CONTINUOUS
 62
     2
 10
582.864725201
 20
437.933974596
 30
0.0
 11
582.864725201
 21
404.933974596
 31
0.0
  0
LINE
  8
2
  6
CONTINUOUS
 62
     2
 10
582.864725201
 20
414.933974596
 30
0.0
 11
570.790652372
 21
418.16921266
 31
0.0
  0
LINE
  8
2
  6
CONTINUOUS
 62
     2
 10
582.864725201
 20
414.933974596
 30
0.0
 11
570.790652372
 21
411.698736532
 31
0.0
  0
LINE
  8
2
  6
CONTINUOUS
 62
     2
 10
582.864725201
 20
414.933974596
 30
0.0
 11
497.864725201
 21
414.933974596
 31
0.0
  0
LINE
  8
2
  6
CONTINUOUS
 62
     2
 10
497.864725201
 20
414.933974596
 30
0.0
 11
509.938798029
 21
411.698736532
 31
0.0
  0
LINE
  8
2
  6
CONTINUOUS
 62
     2
 10
497.864725201
 20
414.933974596
 30
0.0
 11
509.938798029
 21
418.16921266
 31
0.0
  0
LINE
  8
2
  6
CONTINUOUS
 62
     2
 10
497.864725201
 20
553.433974596
 30
0.0
 11
497.864725201
 21
404.933974596
 31
0.0
  0
LINE
  8
2
  6
CONTINUOUS
 62
     2
 10
497.864725201
 20
442.933974596
 30
0.0
 11
497.864725201
 21
404.933974596
 31
0.0
  0
LINE
  8
2
  6
CONTINUOUS
 62
     2
 10
497.864725201
 20
414.933974596
 30
0.0
 11
485.790652372
 21
418.16921266
 31
0.0
  0
LINE
  8
2
  6
CONTINUOUS
 62
     2
 10
497.864725201
 20
414.933974596
 30
0.0
 11
485.790652372
 21
411.698736532
 31
0.0
  0
LINE
  8
2
  6
CONTINUOUS
 62
     2
 10
497.864725201
 20
414.933974596
 30
0.0
 11
385.864725201
 21
414.933974596
 31
0.0
  0
LINE
  8
2
  6
CONTINUOUS
 62
     2
 10
385.864725201
 20
414.933974596
 30
0.0
 11
397.938798029
 21
411.698736532
 31
0.0
  0
LINE
  8
2
  6
CONTINUOUS
 62
     2
 10
385.864725201
 20
414.933974596
 30
0.0
 11
397.938798029
 21
418.16921266
 31
0.0
  0
LINE
  8
2
  6
CONTINUOUS
 62
     2
 10
385.864725201
 20
553.433974596
 30
0.0
 11
385.864725201
 21
404.933974596
 31
0.0
  0
LINE
  8
2
  6
CONTINUOUS
 62
     2
 10
385.864725201
 20
433.933974596
 30
0.0
 11
385.864725201
 21
362.933974596
 31
0.0
  0
LINE
  8
2
  6
CONTINUOUS
 62
     2
 10
582.864725201
 20
432.933974596
 30
0.0
 11
582.864725201
 21
362.933974596
 31
0.0
  0
LINE
  8
2
  6
CONTINUOUS
 62
     2
 10
582.864725201
 20
414.933974596
 30
0.0
 11
1049.864725201
 21
414.933974596
 31
0.0
  0
TEXT
  8
2
  6
CONTINUOUS
 62
     2
 10
523.614725201
 20
419.933974596
 30
0.0
 40
18.0
  1
８５
 50
0.0
 41
0.9
 51
0.0
  7
KANJI37
  0
TEXT
  8
2
  6
CONTINUOUS
 62
     2
 10
416.364725201
 20
419.933974596
 30
0.0
 40
18.0
  1
１１２
 50
0.0
 41
0.9
 51
0.0
  7
KANJI37
  0
TEXT
  8
2
  6
CONTINUOUS
 62
     2
 10
773.564725201
 20
419.933974596
 30
0.0
 40
18.0
  1
Ｃ
 50
0.0
 41
0.9
 51
0.0
  7
KANJI37
  0
LINE
  8
0
  6
LTYPE4
 62
     2
 10
583.007231725
 20
540.033974596
 30
0.0
 11
583.007231725
 21
553.433974596
 31
0.0
  0
LINE
  8
0
  6
CONTINUOUS
 62
     1
 10
1175.94722658
 20
248.533974596
 30
0.0
 11
1175.94722658
 21
183.833974596
 31
0.0
  0
LINE
  8
0
  6
CONTINUOUS
 62
     1
 10
1215.94722658
 20
248.533974596
 30
0.0
 11
1215.94722658
 21
183.833974596
 31
0.0
  0
ARC
  8
0
  6
CONTINUOUS
 62
     1
 10
1177.94722658
 20
248.533974596
 30
0.0
 40
2.0
 50
90.0
 51
180.0
  0
LINE
  8
0
  6
CONTINUOUS
 62
     1
 10
1183.24722658
 20
273.933974596
 30
0.0
 11
1183.24722658
 21
250.533974596
 31
0.0
  0
LINE
  8
0
  6
CONTINUOUS
 62
     1
 10
1177.94722658
 20
250.533974596
 30
0.0
 11
1213.94722658
 21
250.533974596
 31
0.0
  0
ARC
  8
0
  6
CONTINUOUS
 62
     1
 10
1213.94722658
 20
248.533974596
 30
0.0
 40
2.0
 50
0.0
 51
90.0
  0
ARC
  8
0
  6
CONTINUOUS
 62
     1
 10
1185.24722658
 20
273.933974596
 30
0.0
 40
2.0
 50
90.0
 51
180.0
  0
ARC
  8
0
  6
CONTINUOUS
 62
     1
 10
1195.94722658
 20
260.233974596
 30
0.0
 40
6.0
 50
131.983045121
 51
318.016954879
  0
LINE
  8
0
  6
LTYPE3
 62
     2
 10
1189.512554871
 20
253.799302887
 30
0.0
 11
1230.17119479
 21
294.457942806
 31
0.0
  0
LINE
  8
0
  6
CONTINUOUS
 62
     1
 10
1191.93376308
 20
264.694031853
 30
0.0
 11
1220.141641932
 21
290.077403786
 31
0.0
  0
LINE
  8
0
  6
CONTINUOUS
 62
     1
 10
1200.407283837
 20
256.220511096
 30
0.0
 11
1225.79065577
 21
284.428389948
 31
0.0
  0
LINE
  8
0
  6
LTYPE3
 62
     2
 10
1230.595458858
 20
279.325857688
 30
0.0
 11
1214.332002891
 21
295.589313656
 31
0.0
  0
ARC
  8
0
  6
CONTINUOUS
 62
     1
 10
1222.817284265
 20
287.104032281
 30
0.0
 40
8.75
 50
255.219855722
 51
194.780144278
  0
ARC
  8
0
  6
CONTINUOUS
 62
     1
 10
1222.817284265
 20
287.104032281
 30
0.0
 40
4.0
 50
311.983042101
 51
138.016952287
  0
LINE
  8
0
  6
CONTINUOUS
 62
     1
 10
1208.64722658
 20
265.377344446
 30
0.0
 11
1208.64722658
 21
250.533974596
 31
0.0
  0
LINE
  8
0
  6
CONTINUOUS
 62
     1
 10
1185.24722658
 20
275.933974596
 30
0.0
 11
1204.424418145
 21
275.933974596
 31
0.0
  0
TEXT
  8
0
  6
CONTINUOUS
 62
     2
 10
1179.84722658
 20
239.833974596
 30
0.0
 40
10.0
  1
４
 50
0.0
 41
0.85
 51
0.0
  7
KANJI40
  0
TEXT
  8
0
  6
CONTINUOUS
 62
     2
 10
1204.84722658
 20
239.833974596
 30
0.0
 40
10.0
  1
３
 50
0.0
 41
0.85
 51
0.0
  7
KANJI40
  0
POLYLINE
  8
0
  6
CONTINUOUS
 62
     2
 66
     1
 70
     1
  0
VERTEX
  8
0
  6
CONTINUOUS
 62
     2
 10
1190.84722658
 20
239.083974596
 30
0.0
 42
0.021820078
  0
VERTEX
  8
0
  6
CONTINUOUS
 62
     2
 10
1190.838664651
 20
239.280075017
 30
0.0
 42
0.021820078
  0
VERTEX
  8
0
  6
CONTINUOUS
 62
     2
 10
1190.813044024
 20
239.474682996
 30
0.0
 42
0.021820078
  0
VERTEX
  8
0
  6
CONTINUOUS
 62
     2
 10
1190.770559689
 20
239.666317448
 30
0.0
 42
0.021820078
  0
VERTEX
  8
0
  6
CONTINUOUS
 62
     2
 10
1190.711534977
 20
239.853519919
 30
0.0
 42
0.021820078
  0
VERTEX
  8
0
  6
CONTINUOUS
 62
     2
 10
1190.636419101
 20
240.034865685
 30
0.0
 42
0.021820078
  0
VERTEX
  8
0
  6
CONTINUOUS
 62
     2
 10
1190.545783739
 20
240.208974596
 30
0.0
 42
0.021820078
  0
VERTEX
  8
0
  6
CONTINUOUS
 62
     2
 10
1190.44031868
 20
240.374521578
 30
0.0
 42
0.021820078
  0
VERTEX
  8
0
  6
CONTINUOUS
 62
     2
 10
1190.320826577
 20
240.530246718
 30
0.0
 42
0.021820078
  0
VERTEX
  8
0
  6
CONTINUOUS
 62
     2
 10
1190.188216838
 20
240.674964854
 30
0.0
 42
0.021820078
  0
VERTEX
  8
0
  6
CONTINUOUS
 62
     2
 10
1190.043498702
 20
240.807574593
 30
0.0
 42
0.021820078
  0
VERTEX
  8
0
  6
CONTINUOUS
 62
     2
 10
1189.887773562
 20
240.927066696
 30
0.0
 42
0.021820078
  0
VERTEX
  8
0
  6
CONTINUOUS
 62
     2
 10
1189.72222658
 20
241.032531755
 30
0.0
 42
0.021820078
  0
VERTEX
  8
0
  6
CONTINUOUS
 62
     2
 10
1189.548117669
 20
241.123167117
 30
0.0
 42
0.021820078
  0
VERTEX
  8
0
  6
CONTINUOUS
 62
     2
 10
1189.366771903
 20
241.198282993
 30
0.0
 42
0.021820078
  0
VERTEX
  8
0
  6
CONTINUOUS
 62
     2
 10
1189.179569432
 20
241.257307705
 30
0.0
 42
0.021820078
  0
VERTEX
  8
0
  6
CONTINUOUS
 62
     2
 10
1188.98793498
 20
241.29979204
 30
0.0
 42
0.021820078
  0
VERTEX
  8
0
  6
CONTINUOUS
 62
     2
 10
1188.793327001
 20
241.325412667
 30
0.0
 42
0.021820078
  0
VERTEX
  8
0
  6
CONTINUOUS
 62
     2
 10
1188.59722658
 20
241.333974596
 30
0.0
 42
0.021820078
  0
VERTEX
  8
0
  6
CONTINUOUS
 62
     2
 10
1188.401126159
 20
241.325412667
 30
0.0
 42
0.021820078
  0
VERTEX
  8
0
  6
CONTINUOUS
 62
     2
 10
1188.20651818
 20
241.29979204
 30
0.0
 42
0.021820078
  0
VERTEX
  8
0
  6
CONTINUOUS
 62
     2
 10
1188.014883729
 20
241.257307705
 30
0.0
 42
0.021820078
  0
VERTEX
  8
0
  6
CONTINUOUS
 62
     2
 10
1187.827681258
 20
241.198282993
 30
0.0
 42
0.021820078
  0
VERTEX
  8
0
  6
CONTINUOUS
 62
     2
 10
1187.646335491
 20
241.123167117
 30
0.0
 42
0.021820078
  0
VERTEX
  8
0
  6
CONTINUOUS
 62
     2
 10
1187.47222658
 20
241.032531755
 30
0.0
 42
0.021820078
  0
VERTEX
  8
0
  6
CONTINUOUS
 62
     2
 10
1187.306679598
 20
240.927066696
 30
0.0
 42
0.021820078
  0
VERTEX
  8
0
  6
CONTINUOUS
 62
     2
 10
1187.150954458
 20
240.807574593
 30
0.0
 42
0.021820078
  0
VERTEX
  8
0
  6
CONTINUOUS
 62
     2
 10
1187.006236323
 20
240.674964854
 30
0.0
 42
0.021820078
  0
VERTEX
  8
0
  6
CONTINUOUS
 62
     2
 10
1186.873626583
 20
240.530246718
 30
0.0
 42
0.021820078
  0
VERTEX
  8
0
  6
CONTINUOUS
 62
     2
 10
1186.754134481
 20
240.374521578
 30
0.0
 42
0.021820078
  0
VERTEX
  8
0
  6
CONTINUOUS
 62
     2
 10
1186.648669422
 20
240.208974596
 30
0.0
 42
0.021820078
  0
VERTEX
  8
0
  6
CONTINUOUS
 62
     2
 10
1186.558034059
 20
240.034865685
 30
0.0
 42
0.021820078
  0
VERTEX
  8
0
  6
CONTINUOUS
 62
     2
 10
1186.482918183
 20
239.853519919
 30
0.0
 42
0.021820078
  0
VERTEX
  8
0
  6
CONTINUOUS
 62
     2
 10
1186.423893471
 20
239.666317448
 30
0.0
 42
0.021820078
  0
VERTEX
  8
0
  6
CONTINUOUS
 62
     2
 10
1186.381409136
 20
239.474682996
 30
0.0
 42
0.021820078
  0
VERTEX
  8
0
  6
CONTINUOUS
 62
     2
 10
1186.35578851
 20
239.280075017
 30
0.0
 42
0.021820078
  0
VERTEX
  8
0
  6
CONTINUOUS
 62
     2
 10
1186.34722658
 20
239.083974596
 30
0.0
 42
0.021820078
  0
VERTEX
  8
0
  6
CONTINUOUS
 62
     2
 10
1186.35578851
 20
238.887874175
 30
0.0
 42
0.021820078
  0
VERTEX
  8
0
  6
CONTINUOUS
 62
     2
 10
1186.381409136
 20
238.693266196
 30
0.0
 42
0.021820078
  0
VERTEX
  8
0
  6
CONTINUOUS
 62
     2
 10
1186.423893471
 20
238.501631745
 30
0.0
 42
0.021820078
  0
VERTEX
  8
0
  6
CONTINUOUS
 62
     2
 10
1186.482918183
 20
238.314429274
 30
0.0
 42
0.021820078
  0
VERTEX
  8
0
  6
CONTINUOUS
 62
     2
 10
1186.558034059
 20
238.133083507
 30
0.0
 42
0.021820078
  0
VERTEX
  8
0
  6
CONTINUOUS
 62
     2
 10
1186.648669422
 20
237.958974596
 30
0.0
 42
0.021820078
  0
VERTEX
  8
0
  6
CONTINUOUS
 62
     2
 10
1186.754134481
 20
237.793427614
 30
0.0
 42
0.021820078
  0
VERTEX
  8
0
  6
CONTINUOUS
 62
     2
 10
1186.873626583
 20
237.637702474
 30
0.0
 42
0.021820078
  0
VERTEX
  8
0
  6
CONTINUOUS
 62
     2
 10
1187.006236323
 20
237.492984339
 30
0.0
 42
0.021820078
  0
VERTEX
  8
0
  6
CONTINUOUS
 62
     2
 10
1187.150954458
 20
237.360374599
 30
0.0
 42
0.021820078
  0
VERTEX
  8
0
  6
CONTINUOUS
 62
     2
 10
1187.306679598
 20
237.240882497
 30
0.0
 42
0.021820078
  0
VERTEX
  8
0
  6
CONTINUOUS
 62
     2
 10
1187.47222658
 20
237.135417438
 30
0.0
 42
0.021820078
  0
VERTEX
  8
0
  6
CONTINUOUS
 62
     2
 10
1187.646335491
 20
237.044782075
 30
0.0
 42
0.021820078
  0
VERTEX
  8
0
  6
CONTINUOUS
 62
     2
 10
1187.827681258
 20
236.969666199
 30
0.0
 42
0.021820078
  0
VERTEX
  8
0
  6
CONTINUOUS
 62
     2
 10
1188.014883729
 20
236.910641487
 30
0.0
 42
0.021820078
  0
VERTEX
  8
0
  6
CONTINUOUS
 62
     2
 10
1188.20651818
 20
236.868157152
 30
0.0
 42
0.021820078
  0
VERTEX
  8
0
  6
CONTINUOUS
 62
     2
 10
1188.401126159
 20
236.842536526
 30
0.0
 42
0.021820078
  0
VERTEX
  8
0
  6
CONTINUOUS
 62
     2
 10
1188.59722658
 20
236.833974596
 30
0.0
 42
0.021820078
  0
VERTEX
  8
0
  6
CONTINUOUS
 62
     2
 10
1188.793327001
 20
236.842536526
 30
0.0
 42
0.021820078
  0
VERTEX
  8
0
  6
CONTINUOUS
 62
     2
 10
1188.98793498
 20
236.868157152
 30
0.0
 42
0.021820078
  0
VERTEX
  8
0
  6
CONTINUOUS
 62
     2
 10
1189.179569432
 20
236.910641487
 30
0.0
 42
0.021820078
  0
VERTEX
  8
0
  6
CONTINUOUS
 62
     2
 10
1189.366771903
 20
236.969666199
 30
0.0
 42
0.021820078
  0
VERTEX
  8
0
  6
CONTINUOUS
 62
     2
 10
1189.548117669
 20
237.044782075
 30
0.0
 42
0.021820078
  0
VERTEX
  8
0
  6
CONTINUOUS
 62
     2
 10
1189.72222658
 20
237.135417438
 30
0.0
 42
0.021820078
  0
VERTEX
  8
0
  6
CONTINUOUS
 62
     2
 10
1189.887773562
 20
237.240882497
 30
0.0
 42
0.021820078
  0
VERTEX
  8
0
  6
CONTINUOUS
 62
     2
 10
1190.043498702
 20
237.360374599
 30
0.0
 42
0.021820078
  0
VERTEX
  8
0
  6
CONTINUOUS
 62
     2
 10
1190.188216838
 20
237.492984339
 30
0.0
 42
0.021820078
  0
VERTEX
  8
0
  6
CONTINUOUS
 62
     2
 10
1190.320826577
 20
237.637702474
 30
0.0
 42
0.021820078
  0
VERTEX
  8
0
  6
CONTINUOUS
 62
     2
 10
1190.44031868
 20
237.793427614
 30
0.0
 42
0.021820078
  0
VERTEX
  8
0
  6
CONTINUOUS
 62
     2
 10
1190.545783739
 20
237.958974596
 30
0.0
 42
0.021820078
  0
VERTEX
  8
0
  6
CONTINUOUS
 62
     2
 10
1190.636419101
 20
238.133083507
 30
0.0
 42
0.021820078
  0
VERTEX
  8
0
  6
CONTINUOUS
 62
     2
 10
1190.711534977
 20
238.314429274
 30
0.0
 42
0.021820078
  0
VERTEX
  8
0
  6
CONTINUOUS
 62
     2
 10
1190.770559689
 20
238.501631745
 30
0.0
 42
0.021820078
  0
VERTEX
  8
0
  6
CONTINUOUS
 62
     2
 10
1190.813044024
 20
238.693266196
 30
0.0
 42
0.021820078
  0
VERTEX
  8
0
  6
CONTINUOUS
 62
     2
 10
1190.838664651
 20
238.887874175
 30
0.0
 42
0.021820078
  0
SEQEND
  8
0
  6
CONTINUOUS
 62
     2
  0
POLYLINE
  8
0
  6
CONTINUOUS
 62
     2
 66
     1
 70
     1
  0
VERTEX
  8
0
  6
CONTINUOUS
 62
     2
 10
1205.84722658
 20
239.083974596
 30
0.0
 42
0.021820078
  0
VERTEX
  8
0
  6
CONTINUOUS
 62
     2
 10
1205.838664651
 20
239.280075017
 30
0.0
 42
0.021820078
  0
VERTEX
  8
0
  6
CONTINUOUS
 62
     2
 10
1205.813044024
 20
239.474682996
 30
0.0
 42
0.021820078
  0
VERTEX
  8
0
  6
CONTINUOUS
 62
     2
 10
1205.770559689
 20
239.666317448
 30
0.0
 42
0.021820078
  0
VERTEX
  8
0
  6
CONTINUOUS
 62
     2
 10
1205.711534977
 20
239.853519919
 30
0.0
 42
0.021820078
  0
VERTEX
  8
0
  6
CONTINUOUS
 62
     2
 10
1205.636419101
 20
240.034865685
 30
0.0
 42
0.021820078
  0
VERTEX
  8
0
  6
CONTINUOUS
 62
     2
 10
1205.545783739
 20
240.208974596
 30
0.0
 42
0.021820078
  0
VERTEX
  8
0
  6
CONTINUOUS
 62
     2
 10
1205.44031868
 20
240.374521578
 30
0.0
 42
0.021820078
  0
VERTEX
  8
0
  6
CONTINUOUS
 62
     2
 10
1205.320826577
 20
240.530246718
 30
0.0
 42
0.021820078
  0
VERTEX
  8
0
  6
CONTINUOUS
 62
     2
 10
1205.188216838
 20
240.674964854
 30
0.0
 42
0.021820078
  0
VERTEX
  8
0
  6
CONTINUOUS
 62
     2
 10
1205.043498702
 20
240.807574593
 30
0.0
 42
0.021820078
  0
VERTEX
  8
0
  6
CONTINUOUS
 62
     2
 10
1204.887773562
 20
240.927066696
 30
0.0
 42
0.021820078
  0
VERTEX
  8
0
  6
CONTINUOUS
 62
     2
 10
1204.72222658
 20
241.032531755
 30
0.0
 42
0.021820078
  0
VERTEX
  8
0
  6
CONTINUOUS
 62
     2
 10
1204.548117669
 20
241.123167117
 30
0.0
 42
0.021820078
  0
VERTEX
  8
0
  6
CONTINUOUS
 62
     2
 10
1204.366771903
 20
241.198282993
 30
0.0
 42
0.021820078
  0
VERTEX
  8
0
  6
CONTINUOUS
 62
     2
 10
1204.179569432
 20
241.257307705
 30
0.0
 42
0.021820078
  0
VERTEX
  8
0
  6
CONTINUOUS
 62
     2
 10
1203.98793498
 20
241.29979204
 30
0.0
 42
0.021820078
  0
VERTEX
  8
0
  6
CONTINUOUS
 62
     2
 10
1203.793327001
 20
241.325412667
 30
0.0
 42
0.021820078
  0
VERTEX
  8
0
  6
CONTINUOUS
 62
     2
 10
1203.59722658
 20
241.333974596
 30
0.0
 42
0.021820078
  0
VERTEX
  8
0
  6
CONTINUOUS
 62
     2
 10
1203.401126159
 20
241.325412667
 30
0.0
 42
0.021820078
  0
VERTEX
  8
0
  6
CONTINUOUS
 62
     2
 10
1203.20651818
 20
241.29979204
 30
0.0
 42
0.021820078
  0
VERTEX
  8
0
  6
CONTINUOUS
 62
     2
 10
1203.014883729
 20
241.257307705
 30
0.0
 42
0.021820078
  0
VERTEX
  8
0
  6
CONTINUOUS
 62
     2
 10
1202.827681258
 20
241.198282993
 30
0.0
 42
0.021820078
  0
VERTEX
  8
0
  6
CONTINUOUS
 62
     2
 10
1202.646335491
 20
241.123167117
 30
0.0
 42
0.021820078
  0
VERTEX
  8
0
  6
CONTINUOUS
 62
     2
 10
1202.47222658
 20
241.032531755
 30
0.0
 42
0.021820078
  0
VERTEX
  8
0
  6
CONTINUOUS
 62
     2
 10
1202.306679598
 20
240.927066696
 30
0.0
 42
0.021820078
  0
VERTEX
  8
0
  6
CONTINUOUS
 62
     2
 10
1202.150954458
 20
240.807574593
 30
0.0
 42
0.021820078
  0
VERTEX
  8
0
  6
CONTINUOUS
 62
     2
 10
1202.006236323
 20
240.674964854
 30
0.0
 42
0.021820078
  0
VERTEX
  8
0
  6
CONTINUOUS
 62
     2
 10
1201.873626583
 20
240.530246718
 30
0.0
 42
0.021820078
  0
VERTEX
  8
0
  6
CONTINUOUS
 62
     2
 10
1201.754134481
 20
240.374521578
 30
0.0
 42
0.021820078
  0
VERTEX
  8
0
  6
CONTINUOUS
 62
     2
 10
1201.648669422
 20
240.208974596
 30
0.0
 42
0.021820078
  0
VERTEX
  8
0
  6
CONTINUOUS
 62
     2
 10
1201.558034059
 20
240.034865685
 30
0.0
 42
0.021820078
  0
VERTEX
  8
0
  6
CONTINUOUS
 62
     2
 10
1201.482918183
 20
239.853519919
 30
0.0
 42
0.021820078
  0
VERTEX
  8
0
  6
CONTINUOUS
 62
     2
 10
1201.423893471
 20
239.666317448
 30
0.0
 42
0.021820078
  0
VERTEX
  8
0
  6
CONTINUOUS
 62
     2
 10
1201.381409136
 20
239.474682996
 30
0.0
 42
0.021820078
  0
VERTEX
  8
0
  6
CONTINUOUS
 62
     2
 10
1201.35578851
 20
239.280075017
 30
0.0
 42
0.021820078
  0
VERTEX
  8
0
  6
CONTINUOUS
 62
     2
 10
1201.34722658
 20
239.083974596
 30
0.0
 42
0.021820078
  0
VERTEX
  8
0
  6
CONTINUOUS
 62
     2
 10
1201.35578851
 20
238.887874175
 30
0.0
 42
0.021820078
  0
VERTEX
  8
0
  6
CONTINUOUS
 62
     2
 10
1201.381409136
 20
238.693266196
 30
0.0
 42
0.021820078
  0
VERTEX
  8
0
  6
CONTINUOUS
 62
     2
 10
1201.423893471
 20
238.501631745
 30
0.0
 42
0.021820078
  0
VERTEX
  8
0
  6
CONTINUOUS
 62
     2
 10
1201.482918183
 20
238.314429274
 30
0.0
 42
0.021820078
  0
VERTEX
  8
0
  6
CONTINUOUS
 62
     2
 10
1201.558034059
 20
238.133083507
 30
0.0
 42
0.021820078
  0
VERTEX
  8
0
  6
CONTINUOUS
 62
     2
 10
1201.648669422
 20
237.958974596
 30
0.0
 42
0.021820078
  0
VERTEX
  8
0
  6
CONTINUOUS
 62
     2
 10
1201.754134481
 20
237.793427614
 30
0.0
 42
0.021820078
  0
VERTEX
  8
0
  6
CONTINUOUS
 62
     2
 10
1201.873626583
 20
237.637702474
 30
0.0
 42
0.021820078
  0
VERTEX
  8
0
  6
CONTINUOUS
 62
     2
 10
1202.006236323
 20
237.492984339
 30
0.0
 42
0.021820078
  0
VERTEX
  8
0
  6
CONTINUOUS
 62
     2
 10
1202.150954458
 20
237.360374599
 30
0.0
 42
0.021820078
  0
VERTEX
  8
0
  6
CONTINUOUS
 62
     2
 10
1202.306679598
 20
237.240882497
 30
0.0
 42
0.021820078
  0
VERTEX
  8
0
  6
CONTINUOUS
 62
     2
 10
1202.47222658
 20
237.135417438
 30
0.0
 42
0.021820078
  0
VERTEX
  8
0
  6
CONTINUOUS
 62
     2
 10
1202.646335491
 20
237.044782075
 30
0.0
 42
0.021820078
  0
VERTEX
  8
0
  6
CONTINUOUS
 62
     2
 10
1202.827681258
 20
236.969666199
 30
0.0
 42
0.021820078
  0
VERTEX
  8
0
  6
CONTINUOUS
 62
     2
 10
1203.014883729
 20
236.910641487
 30
0.0
 42
0.021820078
  0
VERTEX
  8
0
  6
CONTINUOUS
 62
     2
 10
1203.20651818
 20
236.868157152
 30
0.0
 42
0.021820078
  0
VERTEX
  8
0
  6
CONTINUOUS
 62
     2
 10
1203.401126159
 20
236.842536526
 30
0.0
 42
0.021820078
  0
VERTEX
  8
0
  6
CONTINUOUS
 62
     2
 10
1203.59722658
 20
236.833974596
 30
0.0
 42
0.021820078
  0
VERTEX
  8
0
  6
CONTINUOUS
 62
     2
 10
1203.793327001
 20
236.842536526
 30
0.0
 42
0.021820078
  0
VERTEX
  8
0
  6
CONTINUOUS
 62
     2
 10
1203.98793498
 20
236.868157152
 30
0.0
 42
0.021820078
  0
VERTEX
  8
0
  6
CONTINUOUS
 62
     2
 10
1204.179569432
 20
236.910641487
 30
0.0
 42
0.021820078
  0
VERTEX
  8
0
  6
CONTINUOUS
 62
     2
 10
1204.366771903
 20
236.969666199
 30
0.0
 42
0.021820078
  0
VERTEX
  8
0
  6
CONTINUOUS
 62
     2
 10
1204.548117669
 20
237.044782075
 30
0.0
 42
0.021820078
  0
VERTEX
  8
0
  6
CONTINUOUS
 62
     2
 10
1204.72222658
 20
237.135417438
 30
0.0
 42
0.021820078
  0
VERTEX
  8
0
  6
CONTINUOUS
 62
     2
 10
1204.887773562
 20
237.240882497
 30
0.0
 42
0.021820078
  0
VERTEX
  8
0
  6
CONTINUOUS
 62
     2
 10
1205.043498702
 20
237.360374599
 30
0.0
 42
0.021820078
  0
VERTEX
  8
0
  6
CONTINUOUS
 62
     2
 10
1205.188216838
 20
237.492984339
 30
0.0
 42
0.021820078
  0
VERTEX
  8
0
  6
CONTINUOUS
 62
     2
 10
1205.320826577
 20
237.637702474
 30
0.0
 42
0.021820078
  0
VERTEX
  8
0
  6
CONTINUOUS
 62
     2
 10
1205.44031868
 20
237.793427614
 30
0.0
 42
0.021820078
  0
VERTEX
  8
0
  6
CONTINUOUS
 62
     2
 10
1205.545783739
 20
237.958974596
 30
0.0
 42
0.021820078
  0
VERTEX
  8
0
  6
CONTINUOUS
 62
     2
 10
1205.636419101
 20
238.133083507
 30
0.0
 42
0.021820078
  0
VERTEX
  8
0
  6
CONTINUOUS
 62
     2
 10
1205.711534977
 20
238.314429274
 30
0.0
 42
0.021820078
  0
VERTEX
  8
0
  6
CONTINUOUS
 62
     2
 10
1205.770559689
 20
238.501631745
 30
0.0
 42
0.021820078
  0
VERTEX
  8
0
  6
CONTINUOUS
 62
     2
 10
1205.813044024
 20
238.693266196
 30
0.0
 42
0.021820078
  0
VERTEX
  8
0
  6
CONTINUOUS
 62
     2
 10
1205.838664651
 20
238.887874175
 30
0.0
 42
0.021820078
  0
SEQEND
  8
0
  6
CONTINUOUS
 62
     2
  0
TEXT
  8
0
  6
CONTINUOUS
 62
     2
 10
1147.94722658
 20
239.033974596
 30
0.0
 40
10.0
  1
（ＮＯ）
 50
0.0
 41
0.75
 51
0.0
  7
KANJI41
  0
TEXT
  8
0
  6
CONTINUOUS
 62
     2
 10
1213.94722658
 20
239.033974596
 30
0.0
 40
10.0
  1
（ＮＯ）
 50
0.0
 41
0.75
 51
0.0
  7
KANJI41
  0
LINE
  8
0
  6
CONTINUOUS
 62
     2
 10
1273.57222658
 20
140.033974596
 30
0.0
 11
1273.57222658
 21
309.783974596
 31
0.0
  0
LINE
  8
0
  6
CONTINUOUS
 62
     2
 10
1273.57222658
 20
309.783974596
 30
0.0
 11
1120.32222658
 21
309.783974596
 31
0.0
  0
LINE
  8
0
  6
CONTINUOUS
 62
     2
 10
1120.32222658
 20
309.783974596
 30
0.0
 11
1120.32222658
 21
140.033974596
 31
0.0
  0
LINE
  8
0
  6
CONTINUOUS
 62
     1
 10
1020.264725201
 20
597.433974596
 30
0.0
 11
1020.264725201
 21
707.433974596
 31
0.0
  0
LINE
  8
2
  6
CONTINUOUS
 62
     2
 10
1049.864725201
 20
592.433974596
 30
0.0
 11
1049.864725201
 21
404.933974596
 31
0.0
  0
LINE
  8
2
  6
CONTINUOUS
 62
     2
 10
1049.864725201
 20
414.933974596
 30
0.0
 11
1061.938798029
 21
411.698736532
 31
0.0
  0
LINE
  8
2
  6
CONTINUOUS
 62
     2
 10
1049.864725201
 20
414.933974596
 30
0.0
 11
1061.938798029
 21
418.16921266
 31
0.0
  0
LINE
  8
2
  6
CONTINUOUS
 62
     2
 10
1049.864725201
 20
414.933974596
 30
0.0
 11
1037.790652372
 21
418.16921266
 31
0.0
  0
LINE
  8
2
  6
CONTINUOUS
 62
     2
 10
1049.864725201
 20
438.933974596
 30
0.0
 11
1049.864725201
 21
404.933974596
 31
0.0
  0
LINE
  8
2
  6
CONTINUOUS
 62
     2
 10
1049.864725201
 20
414.933974596
 30
0.0
 11
1037.790652372
 21
411.698736532
 31
0.0
  0
LINE
  8
0
  6
CONTINUOUS
 62
     1
 10
1049.864725201
 20
597.433974596
 30
0.0
 11
1049.864725201
 21
707.433974596
 31
0.0
  0
LINE
  8
0
  6
CONTINUOUS
 62
     1
 10
1049.864725201
 20
707.433974596
 30
0.0
 11
978.648197475
 21
707.433974596
 31
0.0
  0
LINE
  8
0
  6
CONTINUOUS
 62
     1
 10
1108.464725201
 20
857.183974596
 30
0.0
 11
1108.464725201
 21
872.183974596
 31
0.0
  0
LINE
  8
0
  6
CONTINUOUS
 62
     1
 10
1093.464725201
 20
857.183974596
 30
0.0
 11
1093.464725201
 21
887.183974596
 31
0.0
  0
LINE
  8
0
  6
CONTINUOUS
 62
     1
 10
1108.464725201
 20
857.183974596
 30
0.0
 11
1108.464725201
 21
842.183974596
 31
0.0
  0
LINE
  8
2
  6
CONTINUOUS
 62
     2
 10
1093.464725201
 20
806.683974596
 30
0.0
 11
1093.464725201
 21
735.383974596
 31
0.0
  0
LINE
  8
2
  6
CONTINUOUS
 62
     2
 10
1093.464725201
 20
745.383974596
 30
0.0
 11
1081.390652372
 21
748.61921266
 31
0.0
  0
LINE
  8
2
  6
CONTINUOUS
 62
     2
 10
1093.464725201
 20
745.383974596
 30
0.0
 11
1081.390652372
 21
742.148736532
 31
0.0
  0
LINE
  8
2
  6
CONTINUOUS
 62
     2
 10
1041.214725201
 20
745.383974596
 30
0.0
 11
1093.464725201
 21
745.383974596
 31
0.0
  0
LINE
  8
2
  6
CONTINUOUS
 62
     2
 10
1093.464725201
 20
745.383974596
 30
0.0
 11
1108.464725201
 21
745.383974596
 31
0.0
  0
LINE
  8
2
  6
CONTINUOUS
 62
     2
 10
1108.464725201
 20
837.183974596
 30
0.0
 11
1108.464725201
 21
735.383974596
 31
0.0
  0
LINE
  8
0
  6
CONTINUOUS
 62
     1
 10
1140.964725201
 20
857.183974596
 30
0.0
 11
1140.964725201
 21
872.183974596
 31
0.0
  0
LINE
  8
0
  6
CONTINUOUS
 62
     1
 10
1165.964725201
 20
857.183974596
 30
0.0
 11
1165.964725201
 21
872.183974596
 31
0.0
  0
LINE
  8
0
  6
CONTINUOUS
 62
     1
 10
1131.464725201
 20
891.683974596
 30
0.0
 11
1175.464725201
 21
891.683974596
 31
0.0
  0
LINE
  8
0
  6
CONTINUOUS
 62
     1
 10
1140.964725201
 20
897.683974596
 30
0.0
 11
1165.964725201
 21
897.683974596
 31
0.0
  0
LINE
  8
0
  6
CONTINUOUS
 62
     1
 10
1165.964725201
 20
897.683974596
 30
0.0
 11
1165.964725201
 21
891.683974596
 31
0.0
  0
LINE
  8
0
  6
CONTINUOUS
 62
     1
 10
1140.964725201
 20
897.683974596
 30
0.0
 11
1140.964725201
 21
891.683974596
 31
0.0
  0
LINE
  8
0
  6
CONTINUOUS
 62
     1
 10
1175.464725201
 20
891.683974596
 30
0.0
 11
1175.464725201
 21
887.183974596
 31
0.0
  0
LINE
  8
0
  6
CONTINUOUS
 62
     1
 10
1131.464725201
 20
891.683974596
 30
0.0
 11
1131.464725201
 21
887.183974596
 31
0.0
  0
CIRCLE
  8
0
  6
CONTINUOUS
 62
     1
 10
1153.464725201
 20
893.683974596
 30
0.0
 40
2.0
  0
LINE
  8
0
  6
LTYPE5
 62
     2
 10
1149.464725201
 20
893.583974596
 30
0.0
 11
1157.664725201
 21
893.583974596
 31
0.0
  0
LINE
  8
0
  6
LTYPE1
 62
     2
 10
1165.964725201
 20
887.183974596
 30
0.0
 11
1165.964725201
 21
872.183974596
 31
0.0
  0
LINE
  8
0
  6
LTYPE1
 62
     2
 10
1140.964725201
 20
887.183974596
 30
0.0
 11
1140.964725201
 21
872.183974596
 31
0.0
  0
LINE
  8
0
  6
LTYPE5
 62
     2
 10
1153.464725201
 20
902.083974596
 30
0.0
 11
1153.464725201
 21
857.183974596
 31
0.0
  0
LINE
  8
0
  6
CONTINUOUS
 62
     1
 10
1140.964725201
 20
857.183974596
 30
0.0
 11
1140.964725201
 21
842.183974596
 31
0.0
  0
LINE
  8
0
  6
CONTINUOUS
 62
     1
 10
1165.964725201
 20
857.183974596
 30
0.0
 11
1165.964725201
 21
842.183974596
 31
0.0
  0
LINE
  8
0
  6
CONTINUOUS
 62
     1
 10
1131.464725201
 20
822.683974596
 30
0.0
 11
1175.464725201
 21
822.683974596
 31
0.0
  0
LINE
  8
0
  6
CONTINUOUS
 62
     1
 10
1140.964725201
 20
816.683974596
 30
0.0
 11
1165.964725201
 21
816.683974596
 31
0.0
  0
LINE
  8
0
  6
CONTINUOUS
 62
     1
 10
1165.964725201
 20
816.683974596
 30
0.0
 11
1165.964725201
 21
822.683974596
 31
0.0
  0
LINE
  8
0
  6
CONTINUOUS
 62
     1
 10
1140.964725201
 20
816.683974596
 30
0.0
 11
1140.964725201
 21
822.683974596
 31
0.0
  0
LINE
  8
0
  6
CONTINUOUS
 62
     1
 10
1175.464725201
 20
822.683974596
 30
0.0
 11
1175.464725201
 21
827.183974596
 31
0.0
  0
LINE
  8
0
  6
CONTINUOUS
 62
     1
 10
1131.464725201
 20
822.683974596
 30
0.0
 11
1131.464725201
 21
827.183974596
 31
0.0
  0
CIRCLE
  8
0
  6
CONTINUOUS
 62
     1
 10
1153.464725201
 20
820.683974596
 30
0.0
 40
2.0
  0
LINE
  8
0
  6
LTYPE5
 62
     2
 10
1149.464725201
 20
820.783974596
 30
0.0
 11
1157.664725201
 21
820.783974596
 31
0.0
  0
LINE
  8
0
  6
LTYPE1
 62
     2
 10
1165.964725201
 20
827.183974596
 30
0.0
 11
1165.964725201
 21
842.183974596
 31
0.0
  0
LINE
  8
0
  6
LTYPE1
 62
     2
 10
1140.964725201
 20
827.183974596
 30
0.0
 11
1140.964725201
 21
842.183974596
 31
0.0
  0
LINE
  8
0
  6
LTYPE5
 62
     2
 10
1153.464725201
 20
812.283974596
 30
0.0
 11
1153.464725201
 21
857.183974596
 31
0.0
  0
LINE
  8
0
  6
LTYPE3
 62
     2
 10
1184.514725201
 20
857.183974596
 30
0.0
 11
1039.864725201
 21
857.183974596
 31
0.0
  0
LINE
  8
2
  6
CONTINUOUS
 62
     2
 10
1108.464725201
 20
745.383974596
 30
0.0
 11
1120.538798029
 21
742.148736532
 31
0.0
  0
LINE
  8
2
  6
CONTINUOUS
 62
     2
 10
1108.464725201
 20
745.383974596
 30
0.0
 11
1120.538798029
 21
748.61921266
 31
0.0
  0
LINE
  8
2
  6
CONTINUOUS
 62
     2
 10
1108.464725201
 20
745.383974596
 30
0.0
 11
1153.464725201
 21
745.383974596
 31
0.0
  0
LINE
  8
2
  6
CONTINUOUS
 62
     2
 10
1153.464725201
 20
745.383974596
 30
0.0
 11
1141.390652372
 21
748.61921266
 31
0.0
  0
LINE
  8
2
  6
CONTINUOUS
 62
     2
 10
1153.464725201
 20
745.383974596
 30
0.0
 11
1141.390652372
 21
742.148736532
 31
0.0
  0
LINE
  8
2
  6
CONTINUOUS
 62
     2
 10
1153.464725201
 20
807.283974596
 30
0.0
 11
1153.464725201
 21
735.383974596
 31
0.0
  0
LINE
  8
0
  6
CONTINUOUS
 62
     1
 10
1183.464725201
 20
887.183974596
 30
0.0
 11
1183.464725201
 21
872.183974596
 31
0.0
  0
LINE
  8
0
  6
CONTINUOUS
 62
     1
 10
1183.464725201
 20
827.183974596
 30
0.0
 11
1183.464725201
 21
842.183974596
 31
0.0
  0
LINE
  8
0
  6
CONTINUOUS
 62
     1
 10
1108.464725201
 20
872.183974596
 30
0.0
 11
1183.464725201
 21
872.183974596
 31
0.0
  0
LINE
  8
0
  6
CONTINUOUS
 62
     1
 10
1108.464725201
 20
842.183974596
 30
0.0
 11
1183.464725201
 21
842.183974596
 31
0.0
  0
LINE
  8
2
  6
CONTINUOUS
 62
     2
 10
1188.464725201
 20
872.183974596
 30
0.0
 11
1242.834725201
 21
872.183974596
 31
0.0
  0
LINE
  8
2
  6
CONTINUOUS
 62
     2
 10
1232.834725201
 20
872.183974596
 30
0.0
 11
1229.599487137
 21
860.109901768
 31
0.0
  0
LINE
  8
2
  6
CONTINUOUS
 62
     2
 10
1232.834725201
 20
872.183974596
 30
0.0
 11
1236.069963265
 21
860.109901768
 31
0.0
  0
LINE
  8
2
  6
CONTINUOUS
 62
     2
 10
1232.834725201
 20
872.183974596
 30
0.0
 11
1232.834725201
 21
842.183974596
 31
0.0
  0
LINE
  8
2
  6
CONTINUOUS
 62
     2
 10
1232.834725201
 20
842.183974596
 30
0.0
 11
1236.069963265
 21
854.258047425
 31
0.0
  0
LINE
  8
2
  6
CONTINUOUS
 62
     2
 10
1232.834725201
 20
842.183974596
 30
0.0
 11
1229.599487137
 21
854.258047425
 31
0.0
  0
LINE
  8
2
  6
CONTINUOUS
 62
     2
 10
1188.464725201
 20
842.183974596
 30
0.0
 11
1242.834725201
 21
842.183974596
 31
0.0
  0
LINE
  8
2
  6
CONTINUOUS
 62
     2
 10
1188.464725201
 20
887.183974596
 30
0.0
 11
1291.564725201
 21
887.183974596
 31
0.0
  0
LINE
  8
2
  6
CONTINUOUS
 62
     2
 10
1281.564725201
 20
887.183974596
 30
0.0
 11
1278.329487137
 21
875.109901768
 31
0.0
  0
LINE
  8
2
  6
CONTINUOUS
 62
     2
 10
1281.564725201
 20
887.183974596
 30
0.0
 11
1284.799963265
 21
875.109901768
 31
0.0
  0
LINE
  8
2
  6
CONTINUOUS
 62
     2
 10
1281.564725201
 20
887.183974596
 30
0.0
 11
1281.564725201
 21
827.183974596
 31
0.0
  0
LINE
  8
2
  6
CONTINUOUS
 62
     2
 10
1281.564725201
 20
827.183974596
 30
0.0
 11
1284.799963265
 21
839.258047425
 31
0.0
  0
LINE
  8
2
  6
CONTINUOUS
 62
     2
 10
1281.564725201
 20
827.183974596
 30
0.0
 11
1278.329487137
 21
839.258047425
 31
0.0
  0
LINE
  8
2
  6
CONTINUOUS
 62
     2
 10
1188.464725201
 20
827.183974596
 30
0.0
 11
1291.564725201
 21
827.183974596
 31
0.0
  0
LINE
  8
0
  6
CONTINUOUS
 62
     1
 10
1093.464725201
 20
887.183974596
 30
0.0
 11
1093.464725201
 21
827.183974596
 31
0.0
  0
LINE
  8
0
  6
CONTINUOUS
 62
     1
 10
1093.464725201
 20
857.183974596
 30
0.0
 11
1093.464725201
 21
827.183974596
 31
0.0
  0
LINE
  8
0
  6
CONTINUOUS
 62
     1
 10
1051.387751462
 20
887.183974596
 30
0.0
 11
1183.464725201
 21
887.183974596
 31
0.0
  0
LINE
  8
0
  6
CONTINUOUS
 62
     1
 10
1051.387751462
 20
827.183974596
 30
0.0
 11
1183.464725201
 21
827.183974596
 31
0.0
  0
LINE
  8
0
  6
LTYPE1
 62
     2
 10
1108.464725201
 20
622.433974596
 30
0.0
 11
1108.464725201
 21
682.433974596
 31
0.0
  0
CIRCLE
  8
0
  6
CONTINUOUS
 62
     1
 10
1153.464725201
 20
652.433974596
 30
0.0
 40
22.0
  0
CIRCLE
  8
0
  6
CONTINUOUS
 62
     1
 10
1153.464725201
 20
667.933974596
 30
0.0
 40
3.0
  0
LINE
  8
0
  6
LTYPE5
 62
     2
 10
1153.464725201
 20
627.433974596
 30
0.0
 11
1153.464725201
 21
682.233974596
 31
0.0
  0
ARC
  8
0
  6
CONTINUOUS
 62
     1
 10
1175.464725201
 20
674.433974596
 30
0.0
 40
8.0
 50
0.0
 51
90.0
  0
LINE
  8
0
  6
CONTINUOUS
 62
     1
 10
1183.464725201
 20
630.433974596
 30
0.0
 11
1183.464725201
 21
674.433974596
 31
0.0
  0
LINE
  8
0
  6
CONTINUOUS
 62
     1
 10
1078.464725201
 20
619.433974596
 30
0.0
 11
1078.464725201
 21
690.433974596
 31
0.0
  0
LINE
  8
0
  6
CONTINUOUS
 62
     1
 10
1078.464725201
 20
652.433974596
 30
0.0
 11
1078.464725201
 21
685.433974596
 31
0.0
  0
LINE
  8
0
  6
CONTINUOUS
 62
     1
 10
1078.464725201
 20
652.433974596
 30
0.0
 11
1078.464725201
 21
690.433974596
 31
0.0
  0
LINE
  8
0
  6
CONTINUOUS
 62
     1
 10
1094.464725201
 20
682.433974596
 30
0.0
 11
1175.464725201
 21
682.433974596
 31
0.0
  0
CIRCLE
  8
0
  6
CONTINUOUS
 62
     1
 10
1153.464725201
 20
652.433974596
 30
0.0
 40
12.5
  0
ARC
  8
0
  6
CONTINUOUS
 62
     1
 10
1175.464725201
 20
630.433974596
 30
0.0
 40
8.0
 50
270.0
 51
0.0
  0
LINE
  8
0
  6
CONTINUOUS
 62
     1
 10
1093.464725201
 20
622.433974596
 30
0.0
 11
1175.464725201
 21
622.433974596
 31
0.0
  0
LINE
  8
2
  6
CONTINUOUS
 62
     2
 10
1153.464725201
 20
647.433974596
 30
0.0
 11
1153.464725201
 21
404.933974596
 31
0.0
  0
LINE
  8
2
  6
CONTINUOUS
 62
     2
 10
1183.464725201
 20
629.933974596
 30
0.0
 11
1183.464725201
 21
321.933974596
 31
0.0
  0
LINE
  8
0
  6
CONTINUOUS
 62
     1
 10
1149.264725201
 20
635.633974596
 30
0.0
 11
1151.264725201
 21
635.333974596
 31
0.0
  0
LINE
  8
0
  6
CONTINUOUS
 62
     1
 10
1151.764725201
 20
640.033974596
 30
0.0
 11
1151.529340585
 21
638.464743827
 31
0.0
  0
LINE
  8
0
  6
CONTINUOUS
 62
     1
 10
1151.529340585
 20
638.464743827
 30
0.0
 11
1149.264725201
 21
635.633974596
 31
0.0
  0
LINE
  8
0
  6
CONTINUOUS
 62
     1
 10
1153.464725201
 20
638.033974596
 30
0.0
 11
1151.264725201
 21
635.333974596
 31
0.0
  0
LINE
  8
0
  6
CONTINUOUS
 62
     1
 10
1157.664725201
 20
635.633974596
 30
0.0
 11
1155.664725201
 21
635.333974596
 31
0.0
  0
LINE
  8
0
  6
CONTINUOUS
 62
     1
 10
1155.164725201
 20
640.033974596
 30
0.0
 11
1155.400109816
 21
638.464743827
 31
0.0
  0
LINE
  8
0
  6
CONTINUOUS
 62
     1
 10
1155.400109816
 20
638.464743827
 30
0.0
 11
1157.664725201
 21
635.633974596
 31
0.0
  0
LINE
  8
0
  6
CONTINUOUS
 62
     1
 10
1153.464725201
 20
638.033974596
 30
0.0
 11
1155.664725201
 21
635.333974596
 31
0.0
  0
LINE
  8
2
  6
CONTINUOUS
 62
     2
 10
1153.464725201
 20
428.933974596
 30
0.0
 11
1153.464725201
 21
362.933974596
 31
0.0
  0
LINE
  8
2
  6
CONTINUOUS
 62
     2
 10
1094.464725201
 20
414.933974596
 30
0.0
 11
1082.390652372
 21
418.16921266
 31
0.0
  0
LINE
  8
2
  6
CONTINUOUS
 62
     2
 10
1094.464725201
 20
444.933974596
 30
0.0
 11
1094.464725201
 21
404.933974596
 31
0.0
  0
LINE
  8
2
  6
CONTINUOUS
 62
     2
 10
1094.464725201
 20
414.933974596
 30
0.0
 11
1106.538798029
 21
418.16921266
 31
0.0
  0
LINE
  8
2
  6
CONTINUOUS
 62
     2
 10
1153.464725201
 20
414.933974596
 30
0.0
 11
1141.390652372
 21
418.16921266
 31
0.0
  0
LINE
  8
2
  6
CONTINUOUS
 62
     2
 10
1094.464725201
 20
414.933974596
 30
0.0
 11
1082.390652372
 21
411.698736532
 31
0.0
  0
LINE
  8
2
  6
CONTINUOUS
 62
     2
 10
1094.464725201
 20
414.933974596
 30
0.0
 11
1106.538798029
 21
411.698736532
 31
0.0
  0
LINE
  8
2
  6
CONTINUOUS
 62
     2
 10
1153.464725201
 20
414.933974596
 30
0.0
 11
1141.390652372
 21
411.698736532
 31
0.0
  0
LINE
  8
2
  6
CONTINUOUS
 62
     2
 10
1153.464725201
 20
372.933974596
 30
0.0
 11
1141.390652372
 21
376.16921266
 31
0.0
  0
LINE
  8
2
  6
CONTINUOUS
 62
     2
 10
1153.464725201
 20
385.933974596
 30
0.0
 11
1153.464725201
 21
321.933974596
 31
0.0
  0
LINE
  8
2
  6
CONTINUOUS
 62
     2
 10
1153.464725201
 20
372.933974596
 30
0.0
 11
1141.390652372
 21
369.698736532
 31
0.0
  0
LINE
  8
2
  6
CONTINUOUS
 62
     2
 10
1153.464725201
 20
331.933974596
 30
0.0
 11
1141.390652372
 21
335.16921266
 31
0.0
  0
LINE
  8
2
  6
CONTINUOUS
 62
     2
 10
1183.464725201
 20
331.933974596
 30
0.0
 11
1171.390652372
 21
335.16921266
 31
0.0
  0
LINE
  8
2
  6
CONTINUOUS
 62
     2
 10
1153.464725201
 20
331.933974596
 30
0.0
 11
1165.538798029
 21
335.16921266
 31
0.0
  0
LINE
  8
2
  6
CONTINUOUS
 62
     2
 10
1153.464725201
 20
346.313139721
 30
0.0
 11
1153.464725201
 21
321.933974596
 31
0.0
  0
LINE
  8
2
  6
CONTINUOUS
 62
     2
 10
1153.464725201
 20
331.933974596
 30
0.0
 11
1141.390652372
 21
328.698736532
 31
0.0
  0
LINE
  8
2
  6
CONTINUOUS
 62
     2
 10
1183.464725201
 20
331.933974596
 30
0.0
 11
1171.390652372
 21
328.698736532
 31
0.0
  0
LINE
  8
2
  6
CONTINUOUS
 62
     2
 10
1153.464725201
 20
331.933974596
 30
0.0
 11
1165.538798029
 21
328.698736532
 31
0.0
  0
LINE
  8
2
  6
CONTINUOUS
 62
     2
 10
1183.464725201
 20
331.933974596
 30
0.0
 11
1153.464725201
 21
331.933974596
 31
0.0
  0
LINE
  8
0
  6
CONTINUOUS
 62
     1
 10
1078.464725201
 20
682.433974596
 30
0.0
 11
1049.864725201
 21
682.433974596
 31
0.0
  0
LINE
  8
0
  6
CONTINUOUS
 62
     1
 10
1093.464725201
 20
622.433974596
 30
0.0
 11
1049.864725201
 21
622.433974596
 31
0.0
  0
LINE
  8
2
  6
CONTINUOUS
 62
     2
 10
582.864725201
 20
372.933974596
 30
0.0
 11
1153.464725201
 21
372.933974596
 31
0.0
  0
LINE
  8
2
  6
CONTINUOUS
 62
     2
 10
385.864725201
 20
331.933974596
 30
0.0
 11
1153.464725201
 21
331.933974596
 31
0.0
  0
LINE
  8
2
  6
CONTINUOUS
 62
     2
 10
1049.864725201
 20
414.933974596
 30
0.0
 11
1094.464725201
 21
414.933974596
 31
0.0
  0
LINE
  8
2
  6
CONTINUOUS
 62
     2
 10
1094.464725201
 20
414.933974596
 30
0.0
 11
1153.464725201
 21
414.933974596
 31
0.0
  0
LINE
  8
0
  6
CONTINUOUS
 62
     1
 10
1049.864725201
 20
597.433974596
 30
0.0
 11
978.64722658
 21
597.433974596
 31
0.0
  0
TEXT
  8
2
  6
CONTINUOUS
 62
     2
 10
1276.564725201
 20
840.433974596
 30
0.0
 40
18.0
  1
６０
 50
90.0
 41
0.9
 51
0.0
  7
KANJI37
  0
TEXT
  8
2
  6
CONTINUOUS
 62
     2
 10
1227.834725201
 20
840.433974596
 30
0.0
 40
18.0
  1
３０
 50
90.0
 41
0.9
 51
0.0
  7
KANJI37
  0
TEXT
  8
2
  6
CONTINUOUS
 62
     2
 10
1114.214725201
 20
750.383974596
 30
0.0
 40
18.0
  1
４５
 50
0.0
 41
0.9
 51
0.0
  7
KANJI37
  0
TEXT
  8
2
  6
CONTINUOUS
 62
     2
 10
1041.214725201
 20
750.383974596
 30
0.0
 40
18.0
  1
１５
 50
0.0
 41
0.9
 51
0.0
  7
KANJI37
  0
TEXT
  8
2
  6
CONTINUOUS
 62
     2
 10
1107.214725201
 20
419.933974596
 30
0.0
 40
18.0
  1
６０
 50
0.0
 41
0.9
 51
0.0
  7
KANJI37
  0
TEXT
  8
2
  6
CONTINUOUS
 62
     2
 10
1074.114725201
 20
419.933974596
 30
0.0
 40
18.0
  1
Ｐ
 50
0.0
 41
0.9
 51
0.0
  7
KANJI37
  0
TEXT
  8
2
  6
CONTINUOUS
 62
     2
 10
1151.714725201
 20
336.933974596
 30
0.0
 40
18.0
  1
３０
 50
0.0
 41
0.9
 51
0.0
  7
KANJI37
  0
LINE
  8
0
  6
CONTINUOUS
 62
     1
 10
1094.464725201
 20
652.433974596
 30
0.0
 11
1094.464725201
 21
692.433974596
 31
0.0
  0
LINE
  8
0
  6
CONTINUOUS
 62
     1
 10
1078.464725201
 20
606.933974596
 30
0.0
 11
1078.464725201
 21
692.433974596
 31
0.0
  0
LINE
  8
0
  6
LTYPE3
 62
     2
 10
1323.798289615
 20
724.276023565
 30
0.0
 11
1364.810482923
 21
683.263830256
 31
0.0
  0
LINE
  8
0
  6
CONTINUOUS
 62
     1
 10
1331.647174886
 20
727.033740011
 30
0.0
 11
1350.880479334
 21
707.800435563
 31
0.0
  0
LINE
  8
0
  6
LTYPE3
 62
     2
 10
1355.54738409
 20
671.172304298
 30
0.0
 11
1322.313365374
 21
704.406323013
 31
0.0
  0
LINE
  8
0
  6
LTYPE3
 62
     2
 10
1344.375096947
 20
725.053841024
 30
0.0
 11
1377.609115663
 21
691.819822308
 31
0.0
  0
LINE
  8
0
  6
CONTINUOUS
 62
     1
 10
1321.394126559
 20
698.395915373
 30
0.0
 11
1349.678397806
 21
670.111644126
 31
0.0
  0
LINE
  8
0
  6
CONTINUOUS
 62
     1
 10
1377.962669054
 20
698.395915373
 30
0.0
 11
1349.678397806
 21
726.680186621
 31
0.0
  0
LINE
  8
0
  6
CONTINUOUS
 62
     1
 10
1377.962669054
 20
698.395915373
 30
0.0
 11
1349.678397806
 21
670.111644126
 31
0.0
  0
LINE
  8
0
  6
CONTINUOUS
 62
     1
 10
1353.143221034
 20
710.063177263
 30
0.0
 11
1338.011135917
 21
694.931092146
 31
0.0
  0
LINE
  8
0
  6
LTYPE3
 62
     2
 10
1344.587228982
 20
683.546672968
 30
0.0
 11
1364.669061567
 21
703.628505554
 31
0.0
  0
LINE
  8
0
  6
CONTINUOUS
 62
     1
 10
1349.678397806
 20
670.111644126
 30
0.0
 11
1349.749108484
 21
670.040933448
 31
0.0
  0
LINE
  8
0
  6
CONTINUOUS
 62
     1
 10
1338.011135917
 20
692.102665021
 30
0.0
 11
1353.143221034
 21
676.970579903
 31
0.0
  0
LINE
  8
0
  6
CONTINUOUS
 62
     1
 10
1355.887679228
 20
751.274244354
 30
0.0
 11
1321.040573168
 21
716.427138294
 31
0.0
  0
LINE
  8
0
  6
CONTINUOUS
 62
     1
 10
1321.040573168
 20
716.427138294
 30
0.0
 11
1340.273877616
 21
697.193833845
 31
0.0
  0
LINE
  8
0
  6
CONTINUOUS
 62
     1
 10
1347.557077463
 20
728.801506964
 30
0.0
 11
1338.718242698
 21
719.9626722
 31
0.0
  0
LINE
  8
0
  6
CONTINUOUS
 62
     1
 10
1353.213931712
 20
723.144652715
 30
0.0
 11
1344.304386269
 21
714.235107272
 31
0.0
  0
LINE
  8
0
  6
CONTINUOUS
 62
     1
 10
1349.678397806
 20
726.680186621
 30
0.0
 11
1340.839563041
 21
717.841351856
 31
0.0
  0
LINE
  8
0
  6
CONTINUOUS
 62
     1
 10
1338.718242698
 20
719.9626722
 30
0.0
 11
1328.11164098
 21
709.356070482
 31
0.0
  0
LINE
  8
0
  6
CONTINUOUS
 62
     1
 10
1333.768495229
 20
703.699216232
 30
0.0
 11
1324.929660465
 21
694.860381467
 31
0.0
  0
LINE
  8
0
  6
CONTINUOUS
 62
     1
 10
1330.162250645
 20
707.16403946
 30
0.0
 11
1321.394126559
 21
698.395915373
 31
0.0
  0
ARC
  8
0
  6
CONTINUOUS
 62
     1
 10
1339.425349479
 20
693.516878583
 30
0.0
 40
2.0
 50
135.0
 51
225.0
  0
LINE
  8
0
  6
CONTINUOUS
 62
     1
 10
1352.612890948
 20
736.827168931
 30
0.0
 11
1347.557077463
 21
728.801506964
 31
0.0
  0
LINE
  8
0
  6
CONTINUOUS
 62
     1
 10
1346.496417291
 20
666.929663611
 30
0.0
 11
1350.739057978
 21
662.687022923
 31
0.0
  0
LINE
  8
0
  6
CONTINUOUS
 62
     1
 10
1346.496417291
 20
666.929663611
 30
0.0
 11
1384.101641563
 21
704.534887883
 31
0.0
  0
LINE
  8
0
  6
CONTINUOUS
 62
     2
 10
1317.664725201
 20
486.283974596
 30
0.0
 11
1329.255835116
 21
483.178146055
 31
0.0
  0
LINE
  8
0
  6
CONTINUOUS
 62
     2
 10
1317.664725201
 20
486.283974596
 30
0.0
 11
1329.255835116
 21
489.389803137
 31
0.0
  0
LINE
  8
0
  6
CONTINUOUS
 62
     2
 10
1317.664725201
 20
486.283974596
 30
0.0
 11
1477.664725201
 21
486.283974596
 31
0.0
  0
LINE
  8
0
  6
CONTINUOUS
 62
     2
 10
1317.664725201
 20
682.383974596
 30
0.0
 11
1317.664725201
 21
480.283974596
 31
0.0
  0
LINE
  8
7
  6
CONTINUOUS
 62
     2
 10
1159.764725201
 20
662.383974596
 30
0.0
 11
1160.485847006
 21
674.863156594
 31
0.0
  0
LINE
  8
7
  6
CONTINUOUS
 62
     2
 10
1159.764725201
 20
662.383974596
 30
0.0
 11
1166.628826002
 21
672.830702322
 31
0.0
  0
LINE
  8
7
  6
CONTINUOUS
 62
     2
 10
1159.764725201
 20
662.383974596
 30
0.0
 11
1199.864725201
 21
783.583974596
 31
0.0
  0
LINE
  8
7
  6
CONTINUOUS
 62
     2
 10
1199.864725201
 20
783.583974596
 30
0.0
 11
1288.364725201
 21
783.583974596
 31
0.0
  0
TEXT
  8
7
  6
CONTINUOUS
 62
     2
 10
1199.864725201
 20
760.583974596
 30
0.0
 40
18.0
  1
φ２５Ｈ１０
 50
0.0
 41
0.9
 51
0.0
  7
KANJI37
  0
TEXT
  8
0
  6
CONTINUOUS
 62
     2
 10
1244.864725201
 20
786.583974596
 30
0.0
 40
18.0
  1
ｄ９
 50
0.0
 41
0.9
 51
0.0
  7
KANJI37
  0
TEXT
  8
2
  6
CONTINUOUS
 62
     2
 10
1050.714725201
 20
437.933974596
 30
-3.0
 40
18.0
  1
ｍｉｎ
 50
0.0
 41
0.9
 51
0.0
  7
KANJI42
  0
LINE
  8
0
  6
CONTINUOUS
 62
     2
 10
1165.14722658
 20
959.433974596
 30
0.0
 11
1153.073153752
 21
962.66921266
 31
0.0
  0
LINE
  8
0
  6
CONTINUOUS
 62
     2
 10
1165.14722658
 20
959.433974596
 30
0.0
 11
1153.073153752
 21
956.198736532
 31
0.0
  0
LINE
  8
0
  6
CONTINUOUS
 62
     2
 10
1165.14722658
 20
959.433974596
 30
0.0
 11
1124.14722658
 21
959.433974596
 31
0.0
  0
TEXT
  8
0
  6
CONTINUOUS
 62
     3
 10
1131.14722658
 20
969.433974596
 30
0.0
 40
20.0
  1
前進
 50
0.0
 41
0.925
 51
0.0
  7
KANJI43
  0
TEXT
  8
2
  6
CONTINUOUS
 62
     2
 10
836.164725201
 20
377.933974596
 30
0.0
 40
18.0
  1
ｍｉｎ．Ｌ
 50
0.0
 41
0.9
 51
0.0
  7
KANJI37
  0
LINE
  8
2
  6
CONTINUOUS
 62
     2
 10
582.864725201
 20
389.933974596
 30
0.0
 11
582.864725201
 21
362.933974596
 31
0.0
  0
LINE
  8
2
  6
CONTINUOUS
 62
     2
 10
385.864725201
 20
384.933974596
 30
0.0
 11
385.864725201
 21
321.933974596
 31
0.0
  0
TEXT
  8
2
  6
CONTINUOUS
 62
     2
 10
458.864725201
 20
377.933974596
 30
0.0
 40
18.0
  1
１９７
 50
0.0
 41
0.9
 51
0.0
  7
KANJI37
  0
LINE
  8
2
  6
CONTINUOUS
 62
     2
 10
385.864725201
 20
372.933974596
 30
0.0
 11
397.938798029
 21
369.698736532
 31
0.0
  0
LINE
  8
2
  6
CONTINUOUS
 62
     2
 10
385.864725201
 20
372.933974596
 30
0.0
 11
397.938798029
 21
376.16921266
 31
0.0
  0
LINE
  8
2
  6
CONTINUOUS
 62
     2
 10
385.864725201
 20
372.933974596
 30
0.0
 11
582.864725201
 21
372.933974596
 31
0.0
  0
LINE
  8
2
  6
CONTINUOUS
 62
     2
 10
582.864725201
 20
372.933974596
 30
0.0
 11
570.790652372
 21
376.16921266
 31
0.0
  0
LINE
  8
2
  6
CONTINUOUS
 62
     2
 10
582.864725201
 20
372.933974596
 30
0.0
 11
570.790652372
 21
369.698736532
 31
0.0
  0
LINE
  8
2
  6
CONTINUOUS
 62
     2
 10
582.864725201
 20
372.933974596
 30
0.0
 11
594.938798029
 21
369.698736532
 31
0.0
  0
LINE
  8
2
  6
CONTINUOUS
 62
     2
 10
582.864725201
 20
372.933974596
 30
0.0
 11
594.938798029
 21
376.16921266
 31
0.0
  0
LINE
  8
2
  6
CONTINUOUS
 62
     2
 10
385.864725201
 20
331.933974596
 30
0.0
 11
397.938798029
 21
328.698736532
 31
0.0
  0
LINE
  8
2
  6
CONTINUOUS
 62
     2
 10
385.864725201
 20
331.933974596
 30
0.0
 11
397.938798029
 21
335.16921266
 31
0.0
  0
TEXT
  8
2
  6
CONTINUOUS
 62
     2
 10
728.164725201
 20
339.033974596
 30
0.0
 40
18.0
  1
ｍｉｎ．ＡＬ
 50
0.0
 41
0.9
 51
0.0
  7
KANJI37
  0
LINE
  8
0
  6
CONTINUOUS
 62
     2
 10
357.732591263
 20
285.371507451
 30
0.0
 11
797.02
 21
285.371507451
 31
0.0
  0
TEXT
  8
0
  6
CONTINUOUS
 62
     2
 10
359.732591263
 20
293.371507451
 30
0.0
 40
20.0
  1
推力リミッタの作動値は、約２３００ｋｇ（設計値）
 50
0.0
 41
0.925
 51
0.0
  7
KANJI43
  0
LINE
  8
2
  6
CONTINUOUS
 62
     2
 10
1094.464725201
 20
487.8
 30
0.0
 11
1094.464725201
 21
404.933974596
 31
0.0
  0
LINE
  8
0
  6
LTYPE2
 62
     2
 10
511.039733105
 20
536.433974596
 30
0.0
 11
898.299733105
 21
536.433974596
 31
0.0
  0
ARC
  8
0
  6
LTYPE1
 62
     2
 10
561.396415905
 20
508.433974596
 30
0.0
 40
9.3566828
 50
148.419912243
 51
211.580087757
  0
LINE
  8
0
  6
LTYPE1
 62
     2
 10
559.039733105
 20
518.233974596
 30
0.0
 11
553.425373751
 21
518.233974596
 31
0.0
  0
LINE
  8
0
  6
LTYPE1
 62
     2
 10
552.039733105
 20
515.833974596
 30
0.0
 11
553.425373751
 21
518.233974596
 31
0.0
  0
LINE
  8
0
  6
LTYPE1
 62
     2
 10
552.039733105
 20
515.833974596
 30
0.0
 11
553.425373751
 21
518.233974596
 31
0.0
  0
LINE
  8
0
  6
LTYPE1
 62
     2
 10
552.039733105
 20
508.433974596
 30
0.0
 11
552.039733105
 21
515.833974596
 31
0.0
  0
LINE
  8
0
  6
LTYPE1
 62
     2
 10
559.039733105
 20
513.333974596
 30
0.0
 11
553.425373751
 21
513.333974596
 31
0.0
  0
ARC
  8
0
  6
LTYPE1
 62
     2
 10
554.897616937
 20
515.783974596
 30
0.0
 40
2.858321186
 50
177.010501597
 51
238.997686085
  0
LINE
  8
0
  6
LTYPE1
 62
     2
 10
543.539733105
 20
512.433974596
 30
0.0
 11
552.039733105
 21
512.433974596
 31
0.0
  0
LINE
  8
0
  6
LTYPE1
 62
     2
 10
765.539733105
 20
550.433974596
 30
0.0
 11
530.539733105
 21
550.433974596
 31
0.0
  0
LINE
  8
0
  6
LTYPE1
 62
     2
 10
765.539733105
 20
556.433974596
 30
0.0
 11
530.539733105
 21
556.433974596
 31
0.0
  0
LINE
  8
0
  6
LTYPE1
 62
     2
 10
543.539733105
 20
504.433974596
 30
0.0
 11
543.539733105
 21
512.433974596
 31
0.0
  0
LINE
  8
0
  6
LTYPE1
 62
     2
 10
530.539733105
 20
523.433974596
 30
0.0
 11
546.539733105
 21
523.433974596
 31
0.0
  0
LINE
  8
0
  6
LTYPE3
 62
     2
 10
549.539733105
 20
536.433974596
 30
0.0
 11
561.039733105
 21
536.433974596
 31
0.0
  0
LINE
  8
0
  6
LTYPE1
 62
     2
 10
554.039733105
 20
540.433974596
 30
0.0
 11
561.539733105
 21
540.433974596
 31
0.0
  0
LINE
  8
0
  6
LTYPE1
 62
     2
 10
554.039733105
 20
539.433974596
 30
0.0
 11
561.539733105
 21
539.433974596
 31
0.0
  0
LINE
  8
0
  6
LTYPE1
 62
     2
 10
546.539733105
 20
526.033974596
 30
0.0
 11
553.039733105
 21
526.033974596
 31
0.0
  0
ARC
  8
0
  6
LTYPE1
 62
     2
 10
550.139733105
 20
528.633974596
 30
0.0
 40
3.9
 50
317.9
 51
42.1
  0
LINE
  8
0
  6
LTYPE1
 62
     2
 10
546.539733105
 20
531.233974596
 30
0.0
 11
553.039733105
 21
531.233974596
 31
0.0
  0
LINE
  8
0
  6
LTYPE1
 62
     2
 10
554.039733105
 20
533.433974596
 30
0.0
 11
561.539733105
 21
533.433974596
 31
0.0
  0
LINE
  8
0
  6
LTYPE1
 62
     2
 10
554.039733105
 20
532.433974596
 30
0.0
 11
561.539733105
 21
532.433974596
 31
0.0
  0
LINE
  8
0
  6
LTYPE1
 62
     2
 10
546.539733105
 20
523.433974596
 30
0.0
 11
546.539733105
 21
550.433974596
 31
0.0
  0
LINE
  8
0
  6
LTYPE1
 62
     2
 10
546.539733105
 20
546.833974596
 30
0.0
 11
546.539733105
 21
526.033974596
 31
0.0
  0
ARC
  8
0
  6
LTYPE1
 62
     2
 10
540.039733105
 20
536.433974596
 30
0.0
 40
14.0
 50
338.2
 51
21.8
  0
LINE
  8
0
  6
LTYPE1
 62
     2
 10
554.039733105
 20
528.633974596
 30
0.0
 11
554.039733105
 21
544.233974596
 31
0.0
  0
LINE
  8
0
  6
LTYPE1
 62
     2
 10
546.539733105
 20
546.833974596
 30
0.0
 11
553.039733105
 21
546.833974596
 31
0.0
  0
ARC
  8
0
  6
LTYPE1
 62
     2
 10
550.139733105
 20
544.233974596
 30
0.0
 40
3.9
 50
317.9
 51
42.1
  0
LINE
  8
0
  6
LTYPE1
 62
     2
 10
553.039733105
 20
541.633974596
 30
0.0
 11
546.539733105
 21
541.633974596
 31
0.0
  0
LINE
  8
0
  6
LTYPE1
 62
     2
 10
542.286763105
 20
556.433974596
 30
0.0
 11
542.286763105
 21
560.874275194
 31
0.0
  0
LINE
  8
0
  6
LTYPE1
 62
     2
 10
546.033793105
 20
556.433974596
 30
0.0
 11
546.033793105
 21
560.874275194
 31
0.0
  0
ARC
  8
0
  6
LTYPE1
 62
     2
 10
538.539733105
 20
554.778819259
 30
0.0
 40
7.155055337
 50
58.419912243
 51
121.580087757
  0
LINE
  8
0
  6
LTYPE1
 62
     2
 10
544.198513105
 20
561.933874596
 30
0.0
 11
546.033793105
 21
560.874275194
 31
0.0
  0
LINE
  8
0
  6
LTYPE1
 62
     2
 10
538.539733105
 20
561.933874596
 30
0.0
 11
544.198513105
 21
561.933874596
 31
0.0
  0
LINE
  8
0
  6
LTYPE1
 62
     2
 10
544.198513105
 20
561.933874596
 30
0.0
 11
546.033793105
 21
560.874275194
 31
0.0
  0
ARC
  8
0
  6
LTYPE1
 62
     2
 10
544.160278105
 20
559.74845083
 30
0.0
 40
2.185758211
 50
87.010501597
 51
148.997686085
  0
LINE
  8
0
  6
LTYPE1
 62
     2
 10
538.539733105
 20
546.433974596
 30
0.0
 11
538.539733105
 21
562.433974596
 31
0.0
  0
LINE
  8
0
  6
LTYPE1
 62
     2
 10
538.539733105
 20
561.933874596
 30
0.0
 11
532.880953105
 21
561.933874596
 31
0.0
  0
ARC
  8
0
  6
LTYPE1
 62
     2
 10
532.919188105
 20
559.74845083
 30
0.0
 40
2.185758211
 50
31.002313915
 51
92.989498403
  0
LINE
  8
0
  6
LTYPE1
 62
     2
 10
534.792703105
 20
556.433974596
 30
0.0
 11
534.792703105
 21
560.874275194
 31
0.0
  0
LINE
  8
0
  6
LTYPE1
 62
     2
 10
528.039733105
 20
546.233974596
 30
0.0
 11
522.425373751
 21
546.233974596
 31
0.0
  0
LINE
  8
0
  6
LTYPE1
 62
     2
 10
528.039733105
 20
541.333974596
 30
0.0
 11
522.425373751
 21
541.333974596
 31
0.0
  0
LINE
  8
0
  6
LTYPE1
 62
     2
 10
528.039733105
 20
536.433974596
 30
0.0
 11
528.039733105
 21
546.233974596
 31
0.0
  0
LINE
  8
0
  6
LTYPE1
 62
     2
 10
530.539733105
 20
545.633974596
 30
0.0
 11
528.039733105
 21
545.633974596
 31
0.0
  0
LINE
  8
0
  6
LTYPE1
 62
     2
 10
528.039733109
 20
536.433974596
 30
0.0
 11
530.539733105
 21
538.933974592
 31
0.0
  0
LINE
  8
0
  6
LTYPE1
 62
     2
 10
528.039733105
 20
526.633974596
 30
0.0
 11
522.425373751
 21
526.633974596
 31
0.0
  0
LINE
  8
0
  6
LTYPE1
 62
     2
 10
528.039733105
 20
531.533974596
 30
0.0
 11
522.425373751
 21
531.533974596
 31
0.0
  0
LINE
  8
0
  6
LTYPE1
 62
     2
 10
528.039733105
 20
536.433974596
 30
0.0
 11
528.039733105
 21
526.633974596
 31
0.0
  0
LINE
  8
0
  6
LTYPE1
 62
     2
 10
530.539733105
 20
536.433974596
 30
0.0
 11
528.039733109
 21
533.9339746
 31
0.0
  0
LINE
  8
0
  6
LTYPE1
 62
     2
 10
530.539733105
 20
527.233974596
 30
0.0
 11
528.039733105
 21
527.233974596
 31
0.0
  0
LINE
  8
0
  6
LTYPE1
 62
     2
 10
521.039733105
 20
536.433974596
 30
0.0
 11
521.039733105
 21
543.833974596
 31
0.0
  0
LINE
  8
0
  6
LTYPE1
 62
     2
 10
521.039733105
 20
543.833974596
 30
0.0
 11
522.425373751
 21
546.233974596
 31
0.0
  0
LINE
  8
0
  6
LTYPE1
 62
     2
 10
521.039733105
 20
543.833974596
 30
0.0
 11
522.425373751
 21
546.233974596
 31
0.0
  0
ARC
  8
0
  6
LTYPE1
 62
     2
 10
523.897616937
 20
543.783974596
 30
0.0
 40
2.858321186
 50
177.010501597
 51
238.997686085
  0
LINE
  8
0
  6
LTYPE1
 62
     2
 10
516.539733105
 20
540.433974596
 30
0.0
 11
521.039733105
 21
540.433974596
 31
0.0
  0
LINE
  8
0
  6
LTYPE1
 62
     2
 10
516.539733105
 20
539.433974596
 30
0.0
 11
521.039733105
 21
539.433974596
 31
0.0
  0
LINE
  8
0
  6
LTYPE1
 62
     2
 10
521.039733105
 20
529.033974596
 30
0.0
 11
522.425373751
 21
526.633974596
 31
0.0
  0
LINE
  8
0
  6
LTYPE1
 62
     2
 10
521.039733105
 20
536.433974596
 30
0.0
 11
521.039733105
 21
529.033974596
 31
0.0
  0
ARC
  8
0
  6
LTYPE1
 62
     2
 10
523.897616937
 20
529.083974596
 30
0.0
 40
2.858321186
 50
121.002313915
 51
182.989498403
  0
LINE
  8
0
  6
LTYPE1
 62
     2
 10
516.539733105
 20
532.433974596
 30
0.0
 11
521.039733105
 21
532.433974596
 31
0.0
  0
LINE
  8
0
  6
LTYPE1
 62
     2
 10
516.539733105
 20
533.433974596
 30
0.0
 11
521.039733105
 21
533.433974596
 31
0.0
  0
ARC
  8
0
  6
LTYPE1
 62
     2
 10
530.396415905
 20
536.433974596
 30
0.0
 40
9.3566828
 50
148.419912243
 51
211.580087757
  0
LINE
  8
0
  6
LTYPE1
 62
     2
 10
516.539733105
 20
532.433974596
 30
0.0
 11
516.539733105
 21
540.433974596
 31
0.0
  0
LINE
  8
0
  6
LTYPE1
 62
     2
 10
530.539733105
 20
523.433974596
 30
0.0
 11
530.539733105
 21
556.433974596
 31
0.0
  0
LINE
  8
0
  6
LTYPE1
 62
     2
 10
532.880953105
 20
561.933874596
 30
0.0
 11
531.045673105
 21
560.874275194
 31
0.0
  0
LINE
  8
0
  6
LTYPE1
 62
     2
 10
531.045673105
 20
556.433974596
 30
0.0
 11
531.045673105
 21
560.874275194
 31
0.0
  0
LINE
  8
0
  6
LTYPE1
 62
     2
 10
559.039733105
 20
498.633974596
 30
0.0
 11
553.425373751
 21
498.633974596
 31
0.0
  0
LINE
  8
0
  6
LTYPE1
 62
     2
 10
552.039733105
 20
501.033974596
 30
0.0
 11
553.425373751
 21
498.633974596
 31
0.0
  0
LINE
  8
0
  6
LTYPE1
 62
     2
 10
559.039733105
 20
503.533974596
 30
0.0
 11
553.425373751
 21
503.533974596
 31
0.0
  0
ARC
  8
0
  6
LTYPE1
 62
     2
 10
554.897616937
 20
501.083974596
 30
0.0
 40
2.858321186
 50
121.002313915
 51
182.989498403
  0
LINE
  8
0
  6
LTYPE1
 62
     2
 10
559.039733105
 20
508.433974596
 30
0.0
 11
559.039733105
 21
498.633974596
 31
0.0
  0
LINE
  8
0
  6
LTYPE1
 62
     2
 10
561.539733105
 20
499.233974596
 30
0.0
 11
559.039733105
 21
499.233974596
 31
0.0
  0
LINE
  8
0
  6
LTYPE1
 62
     2
 10
552.039733105
 20
508.433974596
 30
0.0
 11
552.039733105
 21
501.033974596
 31
0.0
  0
LINE
  8
0
  6
LTYPE1
 62
     2
 10
543.539733105
 20
504.433974596
 30
0.0
 11
552.039733105
 21
504.433974596
 31
0.0
  0
LINE
  8
0
  6
LTYPE1
 62
     2
 10
543.539733105
 20
505.433974596
 30
0.0
 11
552.039733105
 21
505.433974596
 31
0.0
  0
LINE
  8
0
  6
LTYPE1
 62
     2
 10
561.539733105
 20
508.433974596
 30
0.0
 11
559.039733109
 21
505.9339746
 31
0.0
  0
LINE
  8
0
  6
LTYPE1
 62
     2
 10
543.539733105
 20
511.433974596
 30
0.0
 11
552.039733105
 21
511.433974596
 31
0.0
  0
LINE
  8
0
  6
LTYPE1
 62
     2
 10
561.539733105
 20
517.633974596
 30
0.0
 11
559.039733105
 21
517.633974596
 31
0.0
  0
LINE
  8
0
  6
LTYPE1
 62
     2
 10
559.039733105
 20
508.433974596
 30
0.0
 11
559.039733105
 21
518.233974596
 31
0.0
  0
LINE
  8
0
  6
LTYPE1
 62
     2
 10
559.039733109
 20
508.433974596
 30
0.0
 11
561.539733105
 21
510.933974592
 31
0.0
  0
LINE
  8
0
  6
LTYPE1
 62
     2
 10
561.539733105
 20
495.433974596
 30
0.0
 11
593.539733105
 21
495.433974596
 31
0.0
  0
LINE
  8
0
  6
LTYPE1
 62
     2
 10
561.539733105
 20
495.433974596
 30
0.0
 11
561.539733105
 21
548.433974596
 31
0.0
  0
LINE
  8
0
  6
LTYPE1
 62
     2
 10
561.539733105
 20
530.433974596
 30
0.0
 11
593.539733105
 21
530.433974596
 31
0.0
  0
LINE
  8
0
  6
LTYPE1
 62
     2
 10
593.539733105
 20
548.433974596
 30
0.0
 11
561.539733105
 21
548.433974596
 31
0.0
  0
LINE
  8
0
  6
LTYPE1
 62
     2
 10
593.539733105
 20
542.433974596
 30
0.0
 11
561.539733105
 21
542.433974596
 31
0.0
  0
LINE
  8
0
  6
LTYPE1
 62
     2
 10
561.539733105
 20
540.433974596
 30
0.0
 11
566.539733105
 21
540.433974596
 31
0.0
  0
LINE
  8
0
  6
LTYPE1
 62
     2
 10
561.539733105
 20
539.433974596
 30
0.0
 11
566.539733105
 21
539.433974596
 31
0.0
  0
LINE
  8
0
  6
LTYPE1
 62
     2
 10
561.539733105
 20
532.433974596
 30
0.0
 11
566.539733105
 21
532.433974596
 31
0.0
  0
LINE
  8
0
  6
LTYPE1
 62
     2
 10
561.539733105
 20
533.433974596
 30
0.0
 11
566.539733105
 21
533.433974596
 31
0.0
  0
LINE
  8
0
  6
LTYPE1
 62
     2
 10
566.539733105
 20
530.433974596
 30
0.0
 11
566.539733105
 21
542.433974596
 31
0.0
  0
LINE
  8
0
  6
LTYPE3
 62
     2
 10
575.942506524
 20
508.433974596
 30
0.0
 11
1133.464725201
 21
508.433974596
 31
0.0
  0
LINE
  8
0
  6
CONTINUOUS
 62
     1
 10
580.039733105
 20
500.983974596
 30
0.0
 11
593.539733105
 21
500.983974596
 31
0.0
  0
LINE
  8
0
  6
CONTINUOUS
 62
     1
 10
580.039733105
 20
516.983974596
 30
0.0
 11
593.539733105
 21
516.983974596
 31
0.0
  0
LINE
  8
0
  6
LTYPE1
 62
     2
 10
593.539733105
 20
495.433974596
 30
0.0
 11
593.539733105
 21
548.433974596
 31
0.0
  0
LINE
  8
0
  6
CONTINUOUS
 62
     1
 10
602.189733105
 20
524.433974596
 30
0.0
 11
626.889733105
 21
524.433974596
 31
0.0
  0
LINE
  8
0
  6
CONTINUOUS
 62
     1
 10
602.189733105
 20
492.433974596
 30
0.0
 11
602.189733105
 21
524.433974596
 31
0.0
  0
LINE
  8
0
  6
CONTINUOUS
 62
     1
 10
593.539733105
 20
519.433974596
 30
0.0
 11
602.199987142
 21
524.433974596
 31
0.0
  0
LINE
  8
0
  6
CONTINUOUS
 62
     1
 10
593.539733105
 20
497.433974596
 30
0.0
 11
593.539733105
 21
519.433974596
 31
0.0
  0
LINE
  8
0
  6
CONTINUOUS
 62
     1
 10
593.539733105
 20
497.433974596
 30
0.0
 11
602.199987142
 21
492.433974596
 31
0.0
  0
LINE
  8
0
  6
CONTINUOUS
 62
     1
 10
602.189733105
 20
492.433974596
 30
0.0
 11
626.889733105
 21
492.433974596
 31
0.0
  0
LINE
  8
0
  6
LTYPE1
 62
     2
 10
593.539733105
 20
544.433974596
 30
0.0
 11
867.94722658
 21
544.433974596
 31
0.0
  0
LINE
  8
0
  6
LTYPE1
 62
     2
 10
593.539733105
 20
528.433974596
 30
0.0
 11
867.94722658
 21
528.433974596
 31
0.0
  0
LINE
  8
0
  6
LTYPE5
 62
     2
 10
580.24722658
 20
508.433974596
 30
0.0
 11
924.64722658
 21
508.433974596
 31
0.0
  0
LINE
  8
0
  6
CONTINUOUS
 62
     1
 10
580.039733105
 20
516.983974596
 30
0.0
 11
580.039733105
 21
500.983974596
 31
0.0
  0
LINE
  8
0
  6
CONTINUOUS
 62
     1
 10
742.864725201
 20
541.933974596
 30
0.0
 11
613.864725201
 21
541.933974596
 31
0.0
  0
LINE
  8
0
  6
CONTINUOUS
 62
     1
 10
742.864725201
 20
540.433974596
 30
0.0
 11
613.864725201
 21
540.433974596
 31
0.0
  0
LINE
  8
0
  6
CONTINUOUS
 62
     1
 10
613.864725201
 20
535.433974596
 30
0.0
 11
613.864725201
 21
581.933974596
 31
0.0
  0
LINE
  8
0
  6
CONTINUOUS
 62
     1
 10
741.864725201
 20
534.433974596
 30
0.0
 11
614.864725201
 21
534.433974596
 31
0.0
  0
ARC
  8
0
  6
CONTINUOUS
 62
     1
 10
614.864725201
 20
535.433974596
 30
0.0
 40
1.0
 50
180.0
 51
270.0
  0
ARC
  8
0
  6
CONTINUOUS
 62
     1
 10
617.864725201
 20
534.433974596
 30
0.0
 40
1.0
 50
180.0
 51
270.0
  0
LINE
  8
0
  6
CONTINUOUS
 62
     1
 10
738.864725201
 20
533.433974596
 30
0.0
 11
617.964725201
 21
533.433974596
 31
0.0
  0
LINE
  8
0
  6
CONTINUOUS
 62
     1
 10
626.889733105
 20
492.433974596
 30
0.0
 11
626.889733105
 21
524.433974596
 31
0.0
  0
LINE
  8
0
  6
LTYPE2
 62
     2
 10
614.539733105
 20
498.433974596
 30
0.0
 11
614.539733105
 21
518.433974596
 31
0.0
  0
CIRCLE
  8
0
  6
CONTINUOUS
 62
     2
 10
614.539733105
 20
508.433974596
 30
0.0
 40
5.0
  0
LINE
  8
0
  6
CONTINUOUS
 62
     1
 10
635.539733105
 20
497.433974596
 30
0.0
 11
635.539733105
 21
519.433974596
 31
0.0
  0
LINE
  8
0
  6
CONTINUOUS
 62
     1
 10
635.539733105
 20
519.433974596
 30
0.0
 11
626.879479067
 21
524.433974596
 31
0.0
  0
LINE
  8
0
  6
CONTINUOUS
 62
     1
 10
635.539733105
 20
497.433974596
 30
0.0
 11
626.879479067
 21
492.433974596
 31
0.0
  0
CIRCLE
  8
0
  6
CONTINUOUS
 62
     2
 10
614.539733105
 20
508.433974596
 30
0.0
 40
4.0
  0
LINE
  8
0
  6
CONTINUOUS
 62
     1
 10
635.539733105
 20
500.433974596
 30
0.0
 11
924.64722658
 21
500.433974596
 31
0.0
  0
LINE
  8
0
  6
CONTINUOUS
 62
     1
 10
635.539733105
 20
516.433974596
 30
0.0
 11
893.34722658
 21
516.433974596
 31
0.0
  0
LINE
  8
0
  6
CONTINUOUS
 62
     1
 10
628.2
 20
533.3
 30
0.0
 11
617.6
 21
533.3
 31
0.0
  0
ARC
  8
0
  6
CONTINUOUS
 62
     1
 10
623.3
 20
534.3
 30
0.0
 40
5.0
 50
272.3
 51
348.5
  0
ARC
  8
0
  6
CONTINUOUS
 62
     1
 10
622.5
 20
534.3
 30
0.0
 40
5.0
 50
191.5
 51
267.7
  0
LINE
  8
0
  6
CONTINUOUS
 62
     1
 10
623.5
 20
529.3
 30
0.0
 11
622.3
 21
529.3
 31
0.0
  0
LINE
  8
0
  6
LTYPE4
 62
     2
 10
622.9
 20
525.9
 30
0.0
 11
622.9
 21
539.3
 31
0.0
  0
TEXT
  8
0
  6
CONTINUOUS
 62
     3
 10
621.9
 20
563.433974596
 30
0.0
 40
12.0
  1
推力リミッタ
 50
0.0
 41
1.0
 51
0.0
  7
KANJI44
  0
LINE
  8
0
  6
CONTINUOUS
 62
     2
 10
621.9
 20
560.433974596
 30
0.0
 11
690.9
 21
560.433974596
 31
0.0
  0
LINE
  8
0
  6
CONTINUOUS
 62
     1
 10
742.864725201
 20
535.433974596
 30
0.0
 11
742.864725201
 21
580.933974596
 31
0.0
  0
ARC
  8
0
  6
CONTINUOUS
 62
     1
 10
741.864725201
 20
535.433974596
 30
0.0
 40
1.0
 50
270.0
 51
0.0
  0
LINE
  8
0
  6
CONTINUOUS
 62
     1
 10
739.864725201
 20
534.433974596
 30
0.0
 11
739.864725201
 21
534.433974596
 31
0.0
  0
ARC
  8
0
  6
CONTINUOUS
 62
     1
 10
738.864725201
 20
534.433974596
 30
0.0
 40
1.0
 50
270.0
 51
0.0
  0
LINE
  8
0
  6
LTYPE1
 62
     2
 10
742.864725201
 20
568.233974596
 30
0.0
 11
732.864725201
 21
568.233974596
 31
0.0
  0
LINE
  8
0
  6
LTYPE1
 62
     2
 10
742.864725201
 20
549.633974596
 30
0.0
 11
732.864725201
 21
549.633974596
 31
0.0
  0
LINE
  8
0
  6
LTYPE1
 62
     2
 10
742.864725201
 20
548.433974596
 30
0.0
 11
732.864725201
 21
548.433974596
 31
0.0
  0
LINE
  8
0
  6
LTYPE2
 62
     2
 10
749.064725201
 20
558.933974596
 30
0.0
 11
729.364725201
 21
558.933974596
 31
0.0
  0
LINE
  8
0
  6
CONTINUOUS
 62
     2
 10
742.864725201
 20
558.933974596
 30
0.0
 11
754.862012066
 21
558.67881215
 31
0.0
  0
LINE
  8
0
  6
CONTINUOUS
 62
     2
 10
742.864725201
 20
558.933974596
 30
0.0
 11
753.382261626
 21
564.711640868
 31
0.0
  0
LINE
  8
0
  6
CONTINUOUS
 62
     2
 10
742.864725201
 20
558.933974596
 30
0.0
 11
795.864725201
 21
571.933974596
 31
0.0
  0
LINE
  8
0
  6
CONTINUOUS
 62
     1
 10
739.2
 20
533.433974596
 30
0.0
 11
728.6
 21
533.433974596
 31
0.0
  0
ARC
  8
0
  6
CONTINUOUS
 62
     1
 10
734.3
 20
534.433974596
 30
0.0
 40
5.0
 50
272.3
 51
348.5
  0
ARC
  8
0
  6
CONTINUOUS
 62
     1
 10
733.5
 20
534.433974596
 30
0.0
 40
5.0
 50
191.5
 51
267.7
  0
LINE
  8
0
  6
CONTINUOUS
 62
     1
 10
734.5
 20
529.433974596
 30
0.0
 11
733.3
 21
529.433974596
 31
0.0
  0
LINE
  8
0
  6
LTYPE4
 62
     2
 10
733.9
 20
526.033974596
 30
0.0
 11
733.9
 21
539.433974596
 31
0.0
  0
LINE
  8
0
  6
LTYPE1
 62
     2
 10
765.039733105
 20
550.433974596
 30
0.0
 11
765.039733105
 21
545.833974596
 31
0.0
  0
LINE
  8
0
  6
LTYPE1
 62
     2
 10
750.039733105
 20
550.433974596
 30
0.0
 11
750.039733105
 21
545.833974596
 31
0.0
  0
LINE
  8
0
  6
LTYPE1
 62
     2
 10
753.739733105
 20
550.433974596
 30
0.0
 11
753.739733105
 21
545.833974596
 31
0.0
  0
LINE
  8
0
  6
LTYPE1
 62
     2
 10
761.339733105
 20
550.433974596
 30
0.0
 11
761.339733105
 21
545.833974596
 31
0.0
  0
ARC
  8
0
  6
LTYPE1
 62
     2
 10
751.839733105
 20
547.933974596
 30
0.0
 40
2.8
 50
228.5
 51
311.5
  0
ARC
  8
0
  6
LTYPE1
 62
     2
 10
757.539733105
 20
555.833974596
 30
0.0
 40
10.7
 50
249.1
 51
290.9
  0
ARC
  8
0
  6
LTYPE1
 62
     2
 10
763.239733105
 20
547.933974596
 30
0.0
 40
2.8
 50
228.5
 51
311.5
  0
LINE
  8
0
  6
LTYPE1
 62
     2
 10
757.539733105
 20
541.633974596
 30
0.0
 11
757.539733105
 21
553.433974596
 31
0.0
  0
LINE
  8
0
  6
LTYPE2
 62
     2
 10
757.539733105
 20
537.783974596
 30
0.0
 11
757.539733105
 21
562.083974596
 31
0.0
  0
LINE
  8
0
  6
LTYPE1
 62
     2
 10
763.239733105
 20
545.133974596
 30
0.0
 11
751.839733105
 21
545.133974596
 31
0.0
  0
LINE
  8
0
  6
CONTINUOUS
 62
     2
 10
795.864725201
 20
571.933974596
 30
0.0
 11
876.864725201
 21
571.933974596
 31
0.0
  0
TEXT
  8
0
  6
CONTINUOUS
 62
     3
 10
795.864725201
 20
574.933974596
 30
0.0
 40
18.0
  1
ＰＦ１／２
 50
0.0
 41
0.9
 51
0.0
  7
KANJI37
  0
LINE
  8
0
  6
CONTINUOUS
 62
     1
 10
875.64722658
 20
556.433974596
 30
0.0
 11
1005.64722658
 21
556.433974596
 31
0.0
  0
LINE
  8
0
  6
CONTINUOUS
 62
     1
 10
875.64722658
 20
550.433974596
 30
0.0
 11
875.64722658
 21
556.433974596
 31
0.0
  0
LINE
  8
0
  6
CONTINUOUS
 62
     1
 10
875.64722658
 20
550.433974596
 30
0.0
 11
1005.64722658
 21
550.433974596
 31
0.0
  0
LINE
  8
0
  6
CONTINUOUS
 62
     1
 10
867.94722658
 20
549.433974596
 30
0.0
 11
867.94722658
 21
524.033974596
 31
0.0
  0
LINE
  8
0
  6
CONTINUOUS
 62
     1
 10
893.34722658
 20
549.433974596
 30
0.0
 11
867.94722658
 21
549.433974596
 31
0.0
  0
LINE
  8
0
  6
CONTINUOUS
 62
     1
 10
893.34722658
 20
524.033974596
 30
0.0
 11
867.94722658
 21
524.033974596
 31
0.0
  0
LINE
  8
0
  6
CONTINUOUS
 62
     1
 10
893.34722658
 20
550.433974596
 30
0.0
 11
893.34722658
 21
510.433974596
 31
0.0
  0
LINE
  8
0
  6
CONTINUOUS
 62
     1
 10
893.34722658
 20
516.433974596
 30
0.0
 11
987.94722658
 21
516.433974596
 31
0.0
  0
LINE
  8
0
  6
CONTINUOUS
 62
     1
 10
893.34722658
 20
510.433974596
 30
0.0
 11
987.94722658
 21
510.433974596
 31
0.0
  0
LINE
  8
0
  6
CONTINUOUS
 62
     1
 10
919.24722658
 20
550.433974596
 30
0.0
 11
919.24722658
 21
510.433974596
 31
0.0
  0
LINE
  8
0
  6
CONTINUOUS
 62
     1
 10
924.64722658
 20
495.433974596
 30
0.0
 11
924.64722658
 21
510.433974596
 31
0.0
  0
LINE
  8
0
  6
CONTINUOUS
 62
     1
 10
924.64722658
 20
495.433974596
 30
0.0
 11
956.64722658
 21
495.433974596
 31
0.0
  0
LINE
  8
0
  6
CONTINUOUS
 62
     2
 10
932.464725201
 20
498.308974596
 30
0.0
 11
922.923485932
 21
490.233409402
 31
0.0
  0
LINE
  8
0
  6
CONTINUOUS
 62
     2
 10
932.464725201
 20
498.308974596
 30
0.0
 11
928.239552207
 21
486.544710353
 31
0.0
  0
LINE
  8
0
  6
CONTINUOUS
 62
     2
 10
932.464725201
 20
498.308974596
 30
0.0
 11
915.464725201
 21
473.808974596
 31
0.0
  0
LINE
  8
0
  6
CONTINUOUS
 62
     2
 10
915.464725201
 20
473.808974596
 30
0.0
 11
826.964725201
 21
473.808974596
 31
0.0
  0
TEXT
  8
0
  6
CONTINUOUS
 62
     2
 10
826.964725201
 20
478.808974596
 30
0.0
 40
18.0
  1
ＬＳユニット
 50
0.0
 41
0.9
 51
0.0
  7
KANJI37
  0
LINE
  8
0
  6
LTYPE1
 62
     2
 10
924.34722658
 20
519.663974596
 30
0.0
 11
919.34722658
 21
519.663974596
 31
0.0
  0
LINE
  8
0
  6
LTYPE1
 62
     2
 10
924.34722658
 20
520.818974596
 30
0.0
 11
919.34722658
 21
520.818974596
 31
0.0
  0
LINE
  8
0
  6
LTYPE1
 62
     2
 10
924.34722658
 20
540.603974596
 30
0.0
 11
919.34722658
 21
540.603974596
 31
0.0
  0
LINE
  8
0
  6
LTYPE1
 62
     2
 10
924.34722658
 20
539.448974596
 30
0.0
 11
919.34722658
 21
539.448974596
 31
0.0
  0
LINE
  8
0
  6
LTYPE1
 62
     2
 10
924.34722658
 20
540.603974596
 30
0.0
 11
919.34722658
 21
540.603974596
 31
0.0
  0
LINE
  8
0
  6
LTYPE5
 62
     2
 10
924.34722658
 20
529.133974596
 30
0.0
 11
915.24722658
 21
529.133974596
 31
0.0
  0
LINE
  8
0
  6
LTYPE1
 62
     2
 10
924.64722658
 20
500.433974596
 30
0.0
 11
956.64722658
 21
500.433974596
 31
0.0
  0
LINE
  8
0
  6
CONTINUOUS
 62
     1
 10
1013.34722658
 20
549.433974596
 30
0.0
 11
1013.34722658
 21
524.033974596
 31
0.0
  0
LINE
  8
0
  6
CONTINUOUS
 62
     1
 10
987.94722658
 20
549.433974596
 30
0.0
 11
1013.34722658
 21
549.433974596
 31
0.0
  0
LINE
  8
0
  6
CONTINUOUS
 62
     1
 10
987.94722658
 20
524.033974596
 30
0.0
 11
1013.34722658
 21
524.033974596
 31
0.0
  0
LINE
  8
0
  6
CONTINUOUS
 62
     1
 10
1005.64722658
 20
550.433974596
 30
0.0
 11
1005.64722658
 21
556.433974596
 31
0.0
  0
CIRCLE
  8
0
  6
CONTINUOUS
 62
     2
 10
1041.964625201
 20
508.433974596
 30
0.0
 40
5.0
  0
CIRCLE
  8
0
  6
CONTINUOUS
 62
     2
 10
1041.964625201
 20
508.433974596
 30
0.0
 40
4.0
  0
LINE
  8
0
  6
LTYPE3
 62
     2
 10
1041.964625201
 20
498.433974596
 30
0.0
 11
1041.964625201
 21
518.433974596
 31
0.0
  0
LINE
  8
0
  6
CONTINUOUS
 62
     1
 10
985.989733105
 20
516.433974596
 30
0.0
 11
1020.964625201
 21
516.433974596
 31
0.0
  0
LINE
  8
0
  6
LTYPE1
 62
     2
 10
1020.964625201
 20
516.433974596
 30
0.0
 11
1062.964625201
 21
516.433974596
 31
0.0
  0
LINE
  8
0
  6
LTYPE1
 62
     2
 10
1020.964625201
 20
500.433974596
 30
0.0
 11
1062.964625201
 21
500.433974596
 31
0.0
  0
LINE
  8
0
  6
CONTINUOUS
 62
     1
 10
956.64722658
 20
500.433974596
 30
0.0
 11
1020.964625201
 21
500.433974596
 31
0.0
  0
LINE
  8
0
  6
CONTINUOUS
 62
     1
 10
987.94722658
 20
550.433974596
 30
0.0
 11
987.94722658
 21
510.433974596
 31
0.0
  0
LINE
  8
0
  6
CONTINUOUS
 62
     1
 10
956.64722658
 20
495.433974596
 30
0.0
 11
956.64722658
 21
510.433974596
 31
0.0
  0
LINE
  8
0
  6
LTYPE3
 62
     2
 10
997.64722658
 20
535.621474596
 30
0.0
 11
997.64722658
 21
495.633974596
 31
0.0
  0
LINE
  8
0
  6
CONTINUOUS
 62
     1
 10
978.64722658
 20
556.433974596
 30
0.0
 11
978.64722658
 21
722.433974596
 31
0.0
  0
LINE
  8
0
  6
CONTINUOUS
 62
     1
 10
962.64722658
 20
556.433974596
 30
0.0
 11
962.64722658
 21
722.433974596
 31
0.0
  0
LINE
  8
0
  6
CONTINUOUS
 62
     1
 10
1062.964625201
 20
516.433974596
 30
0.0
 11
1078.464725201
 21
516.433974596
 31
0.0
  0
LINE
  8
0
  6
CONTINUOUS
 62
     1
 10
1062.964625201
 20
500.433974596
 30
0.0
 11
1078.464725201
 21
500.433974596
 31
0.0
  0
LINE
  8
0
  6
CONTINUOUS
 62
     2
 10
1060.304371163
 20
492.433974596
 30
0.0
 11
1263.964725201
 21
492.433974596
 31
0.0
  0
LINE
  8
0
  6
CONTINUOUS
 62
     1
 10
1094.464725201
 20
502.433974596
 30
0.0
 11
1094.464725201
 21
509.928034596
 31
0.0
  0
LINE
  8
0
  6
CONTINUOUS
 62
     1
 10
1099.964625201
 20
514.092754596
 30
0.0
 11
1098.905025799
 21
515.928034596
 31
0.0
  0
LINE
  8
0
  6
CONTINUOUS
 62
     1
 10
1099.964625201
 20
508.433974596
 30
0.0
 11
1099.964625201
 21
514.092754596
 31
0.0
  0
LINE
  8
0
  6
CONTINUOUS
 62
     1
 10
1099.964625201
 20
502.775194596
 30
0.0
 11
1098.905025799
 21
500.939914596
 31
0.0
  0
LINE
  8
0
  6
CONTINUOUS
 62
     1
 10
1099.964625201
 20
508.433974596
 30
0.0
 11
1099.964625201
 21
502.775194596
 31
0.0
  0
ARC
  8
0
  6
CONTINUOUS
 62
     1
 10
1092.809569864
 20
508.433974596
 30
0.0
 40
7.155055337
 50
328.419912243
 51
31.580087757
  0
ARC
  8
0
  6
CONTINUOUS
 62
     1
 10
1097.779201434
 20
514.054519596
 30
0.0
 40
2.185758211
 50
301.002313915
 51
2.989498403
  0
LINE
  8
0
  6
CONTINUOUS
 62
     1
 10
1099.964625201
 20
502.775194596
 30
0.0
 11
1098.905025799
 21
500.939914596
 31
0.0
  0
ARC
  8
0
  6
CONTINUOUS
 62
     1
 10
1097.779201434
 20
502.813429596
 30
0.0
 40
2.185758211
 50
357.010501597
 51
58.997686085
  0
LINE
  8
0
  6
CONTINUOUS
 62
     1
 10
1094.464725201
 20
515.928034596
 30
0.0
 11
1098.905025799
 21
515.928034596
 31
0.0
  0
LINE
  8
0
  6
CONTINUOUS
 62
     1
 10
1094.464725201
 20
512.181004596
 30
0.0
 11
1098.905025799
 21
512.181004596
 31
0.0
  0
LINE
  8
0
  6
CONTINUOUS
 62
     1
 10
1094.464725201
 20
504.686944596
 30
0.0
 11
1098.905025799
 21
504.686944596
 31
0.0
  0
LINE
  8
0
  6
CONTINUOUS
 62
     1
 10
1094.464725201
 20
500.939914596
 30
0.0
 11
1098.905025799
 21
500.939914596
 31
0.0
  0
LINE
  8
0
  6
CONTINUOUS
 62
     1
 10
1099.964625201
 20
504.433974596
 30
0.0
 11
1104.964625201
 21
504.433974596
 31
0.0
  0
LINE
  8
0
  6
CONTINUOUS
 62
     1
 10
1099.964625201
 20
512.433974596
 30
0.0
 11
1104.964625201
 21
512.433974596
 31
0.0
  0
LINE
  8
0
  6
CONTINUOUS
 62
     1
 10
1104.964625201
 20
504.433974596
 30
0.0
 11
1104.964625201
 21
512.433974596
 31
0.0
  0
LINE
  8
0
  6
CONTINUOUS
 62
     2
 10
1099.964625201
 20
511.633974596
 30
0.0
 11
1104.964625201
 21
511.633974596
 31
0.0
  0
LINE
  8
0
  6
CONTINUOUS
 62
     2
 10
1099.964625201
 20
505.233974596
 30
0.0
 11
1104.964625201
 21
505.233974596
 31
0.0
  0
LINE
  8
0
  6
CONTINUOUS
 62
     1
 10
1094.464725201
 20
495.433974596
 30
0.0
 11
1094.464725201
 21
659.433974596
 31
0.0
  0
LINE
  8
0
  6
CONTINUOUS
 62
     1
 10
1078.464725201
 20
495.433974596
 30
0.0
 11
1078.464725201
 21
672.433974596
 31
0.0
  0
LINE
  8
0
  6
CONTINUOUS
 62
     1
 10
1078.464725201
 20
495.433974596
 30
0.0
 11
1094.464725201
 21
495.433974596
 31
0.0
  0
LINE
  8
0
  6
CONTINUOUS
 62
     2
 10
1257.964725201
 20
652.433974596
 30
0.0
 11
1254.85889666
 21
640.842864681
 31
0.0
  0
LINE
  8
0
  6
CONTINUOUS
 62
     2
 10
1257.964725201
 20
652.433974596
 30
0.0
 11
1261.070553742
 21
640.842864681
 31
0.0
  0
LINE
  8
0
  6
CONTINUOUS
 62
     2
 10
1257.964725201
 20
652.433974596
 30
0.0
 11
1257.964725201
 21
492.433974596
 31
0.0
  0
LINE
  8
0
  6
CONTINUOUS
 62
     2
 10
1257.964725201
 20
492.433974596
 30
0.0
 11
1261.070553742
 21
504.025084512
 31
0.0
  0
LINE
  8
0
  6
CONTINUOUS
 62
     2
 10
1257.964725201
 20
492.433974596
 30
0.0
 11
1254.85889666
 21
504.025084512
 31
0.0
  0
TEXT
  8
0
  6
CONTINUOUS
 62
     3
 10
1254.964725201
 20
548.133974596
 30
0.0
 40
18.0
  1
１６０
 50
90.0
 41
0.9
 51
0.0
  7
KANJI37
  0
LINE
  8
0
  6
CONTINUOUS
 62
     2
 10
1224.564725201
 20
652.433974596
 30
0.0
 11
1263.964725201
 21
652.433974596
 31
0.0
  0
LINE
  8
0
  6
CONTINUOUS
 62
     2
 10
1181.464725201
 20
682.433974596
 30
0.0
 11
1230.564725201
 21
682.433974596
 31
0.0
  0
LINE
  8
0
  6
CONTINUOUS
 62
     2
 10
1224.564725201
 20
682.433974596
 30
0.0
 11
1221.45889666
 21
670.842864681
 31
0.0
  0
LINE
  8
0
  6
CONTINUOUS
 62
     2
 10
1224.564725201
 20
682.433974596
 30
0.0
 11
1227.670553742
 21
670.842864681
 31
0.0
  0
LINE
  8
0
  6
CONTINUOUS
 62
     2
 10
1224.564725201
 20
682.433974596
 30
0.0
 11
1224.564725201
 21
622.433974596
 31
0.0
  0
LINE
  8
0
  6
CONTINUOUS
 62
     2
 10
1224.564725201
 20
622.433974596
 30
0.0
 11
1227.670553742
 21
634.025084512
 31
0.0
  0
LINE
  8
0
  6
CONTINUOUS
 62
     2
 10
1224.564725201
 20
622.433974596
 30
0.0
 11
1221.45889666
 21
634.025084512
 31
0.0
  0
LINE
  8
0
  6
CONTINUOUS
 62
     2
 10
1181.464725201
 20
622.433974596
 30
0.0
 11
1230.564725201
 21
622.433974596
 31
0.0
  0
TEXT
  8
0
  6
CONTINUOUS
 62
     3
 10
1221.564725201
 20
636.233974596
 30
0.0
 40
18.0
  1
６０
 50
90.0
 41
0.9
 51
0.0
  7
KANJI37
  0
LINE
  8
0
  6
CONTINUOUS
 62
     1
 10
1094.464725201
 20
692.433974596
 30
0.0
 11
1078.464725201
 21
692.433974596
 31
0.0
  0
LINE
  8
0
  6
CONTINUOUS
 62
     1
 10
978.64722658
 20
722.433974596
 30
0.0
 11
962.64722658
 21
722.433974596
 31
0.0
  0
LINE
  8
0
  6
CONTINUOUS
 62
     2
 10
1356.399349899
 20
773.699349899
 30
0.0
 11
1301.399349899
 21
941.799349899
 31
0.0
  0
LINE
  8
0
  6
CONTINUOUS
 62
     2
 10
1396.199349899
 20
941.799349899
 30
0.0
 11
1234.199349899
 21
941.799349899
 31
0.0
  0
TEXT
  8
0
  6
CONTINUOUS
 62
     3
 10
1234.199349899
 20
944.799349899
 30
0.0
 40
18.0
  1
ＬＳユニット組付位置
 50
0.0
 41
0.9
 51
0.0
  7
KANJI37
  0
LINE
  8
0
  6
CONTINUOUS
 62
     1
 10
1020.964625201
 20
519.433974596
 30
0.0
 11
1029.624879239
 21
524.433974596
 31
0.0
  0
LINE
  8
0
  6
CONTINUOUS
 62
     1
 10
1020.964625201
 20
497.433974596
 30
0.0
 11
1020.964625201
 21
519.433974596
 31
0.0
  0
LINE
  8
0
  6
CONTINUOUS
 62
     1
 10
1029.614625201
 20
492.433974596
 30
0.0
 11
1029.614625201
 21
524.433974596
 31
0.0
  0
LINE
  8
0
  6
CONTINUOUS
 62
     1
 10
1029.614625201
 20
524.433974596
 30
0.0
 11
1054.314625201
 21
524.433974596
 31
0.0
  0
LINE
  8
0
  6
CONTINUOUS
 62
     1
 10
1062.964625201
 20
519.433974596
 30
0.0
 11
1054.304371163
 21
524.433974596
 31
0.0
  0
LINE
  8
0
  6
CONTINUOUS
 62
     1
 10
1054.314625201
 20
492.433974596
 30
0.0
 11
1054.314625201
 21
524.433974596
 31
0.0
  0
LINE
  8
0
  6
CONTINUOUS
 62
     1
 10
1062.964625201
 20
497.433974596
 30
0.0
 11
1062.964625201
 21
519.433974596
 31
0.0
  0
LINE
  8
0
  6
CONTINUOUS
 62
     1
 10
1062.964625201
 20
497.433974596
 30
0.0
 11
1054.304371163
 21
492.433974596
 31
0.0
  0
LINE
  8
0
  6
CONTINUOUS
 62
     1
 10
1020.964625201
 20
497.433974596
 30
0.0
 11
1029.624879239
 21
492.433974596
 31
0.0
  0
LINE
  8
0
  6
CONTINUOUS
 62
     1
 10
1029.614625201
 20
492.433974596
 30
0.0
 11
1054.314625201
 21
492.433974596
 31
0.0
  0
LINE
  8
0
  6
CONTINUOUS
 62
     2
 10
1385.164725201
 20
568.433974596
 30
0.0
 11
1385.164725201
 21
431.433974596
 31
0.0
  0
LINE
  8
0
  6
CONTINUOUS
 62
     2
 10
1385.164725201
 20
436.433974596
 30
0.0
 11
1397.238798029
 21
433.198736532
 31
0.0
  0
LINE
  8
0
  6
CONTINUOUS
 62
     2
 10
1385.164725201
 20
436.433974596
 30
0.0
 11
1397.238798029
 21
439.66921266
 31
0.0
  0
LINE
  8
0
  6
CONTINUOUS
 62
     2
 10
1382.664725201
 20
629.433974596
 30
0.0
 11
1382.664725201
 21
381.433974596
 31
0.0
  0
LINE
  8
0
  6
CONTINUOUS
 62
     2
 10
1382.664725201
 20
386.433974596
 30
0.0
 11
1394.738798029
 21
383.198736532
 31
0.0
  0
LINE
  8
0
  6
CONTINUOUS
 62
     2
 10
1382.664725201
 20
386.433974596
 30
0.0
 11
1394.738798029
 21
389.66921266
 31
0.0
  0
LINE
  8
0
  6
CONTINUOUS
 62
     2
 10
1385.164725201
 20
436.433974596
 30
0.0
 11
1570.164725201
 21
436.433974596
 31
0.0
  0
LINE
  8
0
  6
CONTINUOUS
 62
     2
 10
1382.664725201
 20
386.433974596
 30
0.0
 11
1572.664725201
 21
386.433974596
 31
0.0
  0
ARC
  8
0
  6
CONTINUOUS
 62
     1
 10
1395.164725201
 20
568.433974596
 30
0.0
 40
10.0
 50
180.0
 51
270.0
  0
ARC
  8
0
  6
CONTINUOUS
 62
     1
 10
1418.664725201
 20
593.433974596
 30
0.0
 40
8.0
 50
180.0
 51
270.0
  0
LINE
  8
0
  6
CONTINUOUS
 62
     1
 10
1418.664725201
 20
585.433974596
 30
0.0
 11
1429.664725201
 21
585.433974596
 31
0.0
  0
ARC
  8
0
  6
CONTINUOUS
 62
     1
 10
1429.664725201
 20
581.933974596
 30
0.0
 40
3.0
 50
90.0
 51
180.0
  0
LINE
  8
0
  6
CONTINUOUS
 62
     1
 10
1426.664725201
 20
535.433974596
 30
0.0
 11
1426.664725201
 21
581.933974596
 31
0.0
  0
ARC
  8
0
  6
CONTINUOUS
 62
     1
 10
1427.664725201
 20
535.433974596
 30
0.0
 40
1.0
 50
180.0
 51
270.0
  0
ARC
  8
0
  6
CONTINUOUS
 62
     1
 10
1430.664725201
 20
534.433974596
 30
0.0
 40
1.0
 50
180.0
 51
270.0
  0
LINE
  8
0
  6
CONTINUOUS
 62
     1
 10
1528.664725201
 20
540.433974596
 30
0.0
 11
1426.664725201
 21
540.433974596
 31
0.0
  0
LINE
  8
0
  6
CONTINUOUS
 62
     1
 10
1528.664725201
 20
541.933974596
 30
0.0
 11
1426.664725201
 21
541.933974596
 31
0.0
  0
LINE
  8
0
  6
CONTINUOUS
 62
     1
 10
1524.664725201
 20
533.433974596
 30
0.0
 11
1430.664725201
 21
533.433974596
 31
0.0
  0
LINE
  8
0
  6
CONTINUOUS
 62
     1
 10
1527.664725201
 20
534.433974596
 30
0.0
 11
1427.664725201
 21
534.433974596
 31
0.0
  0
LINE
  8
0
  6
CONTINUOUS
 62
     1
 10
1395.164725201
 20
558.433974596
 30
0.0
 11
1426.664725201
 21
558.433974596
 31
0.0
  0
LINE
  8
0
  6
CONTINUOUS
 62
     1
 10
1385.164725201
 20
568.433974596
 30
0.0
 11
1385.164725201
 21
629.127210886
 31
0.0
  0
LINE
  8
0
  6
LTYPE3
 62
     2
 10
1424.664725201
 20
691.433974596
 30
0.0
 11
1424.664725201
 21
717.933974596
 31
0.0
  0
LINE
  8
0
  6
LTYPE3
 62
     2
 10
1438.664725201
 20
599.433974596
 30
0.0
 11
1412.164725201
 21
599.433974596
 31
0.0
  0
LINE
  8
0
  6
LTYPE3
 62
     2
 10
1424.664725201
 20
613.933974596
 30
0.0
 11
1424.664725201
 21
586.933974596
 31
0.0
  0
LINE
  8
0
  6
LTYPE3
 62
     2
 10
1432.664725201
 20
529.733974596
 30
0.0
 11
1432.664725201
 21
548.433974596
 31
0.0
  0
LINE
  8
0
  6
LTYPE1
 62
     2
 10
1412.664725201
 20
639.933974596
 30
0.0
 11
1382.664725201
 21
639.933974596
 31
0.0
  0
LINE
  8
0
  6
LTYPE1
 62
     2
 10
1412.664725201
 20
664.933974596
 30
0.0
 11
1382.664725201
 21
664.933974596
 31
0.0
  0
LINE
  8
0
  6
LTYPE1
 62
     2
 10
1412.664725201
 20
639.933974596
 30
0.0
 11
1412.664725201
 21
664.933974596
 31
0.0
  0
CIRCLE
  8
0
  6
CONTINUOUS
 62
     2
 10
1477.664725201
 20
558.933974596
 30
0.0
 40
10.4775
  0
CIRCLE
  8
0
  6
CONTINUOUS
 62
     2
 10
1477.664725201
 20
558.933974596
 30
0.0
 40
9.3155
  0
LINE
  8
0
  6
LTYPE2
 62
     2
 10
1497.564725201
 20
558.933974596
 30
0.0
 11
1456.864725201
 21
558.933974596
 31
0.0
  0
LINE
  8
0
  6
CONTINUOUS
 62
     1
 10
1385.164725201
 20
864.933974596
 30
0.0
 11
1385.164725201
 21
887.963379095
 31
0.0
  0
ARC
  8
0
  6
CONTINUOUS
 62
     1
 10
1492.652720397
 20
874.033974596
 30
0.0
 40
8.0
 50
200.487315115
 51
251.805127661
  0
ARC
  8
0
  6
CONTINUOUS
 62
     1
 10
1462.676730005
 20
874.033974596
 30
0.0
 40
8.0
 50
288.194872339
 51
339.512684885
  0
ARC
  8
0
  6
CONTINUOUS
 62
     1
 10
1477.664725201
 20
868.433974596
 30
0.0
 40
8.0
 50
20.487315115
 51
159.512540111
  0
ARC
  8
0
  6
CONTINUOUS
 62
     1
 10
1492.652720397
 20
782.833974596
 30
0.0
 40
8.0
 50
108.194872339
 51
159.512684885
  0
ARC
  8
0
  6
CONTINUOUS
 62
     1
 10
1462.676730005
 20
782.833974596
 30
0.0
 40
8.0
 50
20.487315115
 51
71.805127661
  0
ARC
  8
0
  6
CONTINUOUS
 62
     1
 10
1477.664725201
 20
788.433974596
 30
0.0
 40
8.0
 50
200.487459889
 51
339.512684885
  0
ARC
  8
0
  6
CONTINUOUS
 62
     1
 10
1477.664725201
 20
828.433974596
 30
0.0
 40
40.0
 50
108.194872339
 51
251.805127661
  0
CIRCLE
  8
0
  6
CONTINUOUS
 62
     1
 10
1477.664725201
 20
828.433974596
 30
0.0
 40
23.0
  0
ARC
  8
0
  6
CONTINUOUS
 62
     1
 10
1477.664725201
 20
828.433974596
 30
0.0
 40
40.0
 50
25.554707728
 51
71.805142343
  0
ARC
  8
0
  6
CONTINUOUS
 62
     1
 10
1477.664725201
 20
828.433974596
 30
0.0
 40
40.0
 50
288.194857657
 51
334.445306215
  0
LINE
  8
0
  6
CONTINUOUS
 62
     1
 10
1480.014725201
 20
875.504293994
 30
0.0
 11
1475.314725201
 21
875.504293994
 31
0.0
  0
LINE
  8
0
  6
CONTINUOUS
 62
     1
 10
1475.314725201
 20
875.504293994
 30
0.0
 11
1472.964725201
 21
871.433974596
 31
0.0
  0
LINE
  8
0
  6
CONTINUOUS
 62
     1
 10
1472.964725201
 20
871.433974596
 30
0.0
 11
1475.314725201
 21
867.363655198
 31
0.0
  0
LINE
  8
0
  6
CONTINUOUS
 62
     1
 10
1475.314725201
 20
867.363655198
 30
0.0
 11
1480.014725201
 21
867.363655198
 31
0.0
  0
LINE
  8
0
  6
CONTINUOUS
 62
     1
 10
1480.014725201
 20
867.363655198
 30
0.0
 11
1482.364725201
 21
871.433974596
 31
0.0
  0
LINE
  8
0
  6
CONTINUOUS
 62
     1
 10
1482.364725201
 20
871.433974596
 30
0.0
 11
1480.014725201
 21
875.504293994
 31
0.0
  0
LINE
  8
0
  6
CONTINUOUS
 62
     2
 10
1483.664725201
 20
871.433974596
 30
0.0
 11
1471.664725201
 21
871.433974596
 31
0.0
  0
LINE
  8
0
  6
CONTINUOUS
 62
     1
 10
1480.014725201
 20
781.363655198
 30
0.0
 11
1475.314725201
 21
781.363655198
 31
0.0
  0
LINE
  8
0
  6
CONTINUOUS
 62
     1
 10
1475.314725201
 20
781.363655198
 30
0.0
 11
1472.964725201
 21
785.433974596
 31
0.0
  0
LINE
  8
0
  6
CONTINUOUS
 62
     1
 10
1472.964725201
 20
785.433974596
 30
0.0
 11
1475.314725201
 21
789.504293994
 31
0.0
  0
LINE
  8
0
  6
CONTINUOUS
 62
     1
 10
1475.314725201
 20
789.504293994
 30
0.0
 11
1480.014725201
 21
789.504293994
 31
0.0
  0
LINE
  8
0
  6
CONTINUOUS
 62
     1
 10
1480.014725201
 20
789.504293994
 30
0.0
 11
1482.364725201
 21
785.433974596
 31
0.0
  0
LINE
  8
0
  6
CONTINUOUS
 62
     1
 10
1482.364725201
 20
785.433974596
 30
0.0
 11
1480.014725201
 21
781.363655198
 31
0.0
  0
LINE
  8
0
  6
CONTINUOUS
 62
     2
 10
1483.664725201
 20
785.433974596
 30
0.0
 11
1471.664725201
 21
785.433974596
 31
0.0
  0
LINE
  8
0
  6
CONTINUOUS
 62
     1
 10
1472.728380399
 20
831.283974596
 30
0.0
 11
1472.728380399
 21
825.583974596
 31
0.0
  0
LINE
  8
0
  6
CONTINUOUS
 62
     1
 10
1472.728380399
 20
825.583974596
 30
0.0
 11
1477.664725201
 21
822.733974596
 31
0.0
  0
LINE
  8
0
  6
CONTINUOUS
 62
     1
 10
1477.664725201
 20
822.733974596
 30
0.0
 11
1482.601070002
 21
825.583974596
 31
0.0
  0
LINE
  8
0
  6
CONTINUOUS
 62
     1
 10
1482.601070002
 20
825.583974596
 30
0.0
 11
1482.601070002
 21
831.283974596
 31
0.0
  0
LINE
  8
0
  6
CONTINUOUS
 62
     1
 10
1482.601070002
 20
831.283974596
 30
0.0
 11
1477.664725201
 21
834.133974596
 31
0.0
  0
LINE
  8
0
  6
CONTINUOUS
 62
     1
 10
1477.664725201
 20
834.133974596
 30
0.0
 11
1472.728380399
 21
831.283974596
 31
0.0
  0
CIRCLE
  8
0
  6
CONTINUOUS
 62
     1
 10
1477.664725201
 20
828.433974596
 30
0.0
 40
6.5
  0
ARC
  8
0
  6
CONTINUOUS
 62
     1
 10
1503.664725201
 20
907.433974596
 30
0.0
 40
3.0
 50
90.0
 51
180.0
  0
LINE
  8
0
  6
CONTINUOUS
 62
     1
 10
1500.664725201
 20
896.587593838
 30
0.0
 11
1500.664725201
 21
907.433974596
 31
0.0
  0
ARC
  8
0
  6
CONTINUOUS
 62
     1
 10
1496.664725201
 20
896.587593838
 30
0.0
 40
4.0
 50
304.936144888
 51
0.0
  0
ARC
  8
0
  6
CONTINUOUS
 62
     1
 10
1451.664725201
 20
907.433974596
 30
0.0
 40
3.0
 50
0.0
 51
90.0
  0
LINE
  8
0
  6
CONTINUOUS
 62
     1
 10
1454.664725201
 20
896.587593838
 30
0.0
 11
1454.664725201
 21
907.433974596
 31
0.0
  0
ARC
  8
0
  6
CONTINUOUS
 62
     1
 10
1458.664725201
 20
896.587593838
 30
0.0
 40
4.0
 50
180.0
 51
235.063855112
  0
CIRCLE
  8
0
  6
CONTINUOUS
 62
     1
 10
1477.664725201
 20
935.433974596
 30
0.0
 40
17.0
  0
LINE
  8
0
  6
LTYPE2
 62
     2
 10
1454.664725201
 20
935.433974596
 30
0.0
 11
1500.664725201
 21
935.433974596
 31
0.0
  0
ARC
  8
0
  6
CONTINUOUS
 62
     1
 10
1435.664725201
 20
957.454020484
 30
0.0
 40
2.0
 50
90.0
 51
180.0
  0
ARC
  8
0
  6
CONTINUOUS
 62
     1
 10
1443.664725201
 20
963.433974596
 30
0.0
 40
2.0
 50
90.0
 51
180.0
  0
LINE
  8
0
  6
CONTINUOUS
 62
     1
 10
1443.664725201
 20
965.433974596
 30
0.0
 11
1511.664725201
 21
965.433974596
 31
0.0
  0
LINE
  8
0
  6
CONTINUOUS
 62
     1
 10
1519.664725201
 20
959.454020484
 30
0.0
 11
1435.664725201
 21
959.454020484
 31
0.0
  0
ARC
  8
0
  6
CONTINUOUS
 62
     1
 10
1435.664725201
 20
961.454020484
 30
0.0
 40
2.0
 50
90.0
 51
180.0
  0
ARC
  8
0
  6
CONTINUOUS
 62
     1
 10
1443.664725201
 20
954.433974596
 30
0.0
 40
2.0
 50
90.0
 51
180.0
  0
LINE
  8
0
  6
CONTINUOUS
 62
     1
 10
1443.664725201
 20
956.433974596
 30
0.0
 11
1511.664725201
 21
956.433974596
 31
0.0
  0
LINE
  8
0
  6
CONTINUOUS
 62
     1
 10
1519.664725201
 20
963.454020484
 30
0.0
 11
1435.664725201
 21
963.454020484
 31
0.0
  0
LINE
  8
0
  6
CONTINUOUS
 62
     1
 10
1447.664725201
 20
910.433974596
 30
0.0
 11
1507.664725201
 21
910.433974596
 31
0.0
  0
LINE
  8
0
  6
CONTINUOUS
 62
     1
 10
1447.664725201
 20
910.433974596
 30
0.0
 11
1447.664725201
 21
913.433974596
 31
0.0
  0
LINE
  8
0
  6
CONTINUOUS
 62
     1
 10
1441.664725201
 20
915.433974596
 30
0.0
 11
1441.664725201
 21
954.433974596
 31
0.0
  0
LINE
  8
0
  6
CONTINUOUS
 62
     1
 10
1443.664725201
 20
913.433974596
 30
0.0
 11
1511.664725201
 21
913.433974596
 31
0.0
  0
ARC
  8
0
  6
CONTINUOUS
 62
     1
 10
1443.664725201
 20
915.433974596
 30
0.0
 40
2.0
 50
180.0
 51
270.0
  0
LINE
  8
0
  6
CONTINUOUS
 62
     1
 10
1441.664725201
 20
915.433974596
 30
0.0
 11
1435.664725201
 21
915.433974596
 31
0.0
  0
LINE
  8
0
  6
CONTINUOUS
 62
     1
 10
1433.664725201
 20
917.433974596
 30
0.0
 11
1433.664725201
 21
961.454020484
 31
0.0
  0
ARC
  8
0
  6
CONTINUOUS
 62
     1
 10
1435.664725201
 20
917.433974596
 30
0.0
 40
2.0
 50
180.0
 51
270.0
  0
CIRCLE
  8
0
  6
CONTINUOUS
 62
     2
 10
1477.664725201
 20
935.433974596
 30
0.0
 40
15.0
  0
LINE
  8
0
  6
LTYPE2
 62
     2
 10
1427.664725201
 20
878.433974596
 30
0.0
 11
1411.664725201
 21
894.433974596
 31
0.0
  0
LINE
  8
0
  6
CONTINUOUS
 62
     1
 10
1424.328415753
 20
895.430538082
 30
0.0
 11
1414.328415753
 21
895.430538082
 31
0.0
  0
LINE
  8
0
  6
CONTINUOUS
 62
     1
 10
1414.328415753
 20
895.430538082
 30
0.0
 11
1409.328415753
 21
886.770284044
 31
0.0
  0
LINE
  8
0
  6
CONTINUOUS
 62
     1
 10
1409.328415753
 20
886.770284044
 30
0.0
 11
1414.328415753
 21
878.110030006
 31
0.0
  0
LINE
  8
0
  6
CONTINUOUS
 62
     1
 10
1414.328415753
 20
878.110030006
 30
0.0
 11
1424.328415753
 21
878.110030006
 31
0.0
  0
LINE
  8
0
  6
CONTINUOUS
 62
     1
 10
1424.328415753
 20
878.110030006
 30
0.0
 11
1429.328415753
 21
886.770284044
 31
0.0
  0
LINE
  8
0
  6
CONTINUOUS
 62
     1
 10
1429.328415753
 20
886.770284044
 30
0.0
 11
1424.328415753
 21
895.430538082
 31
0.0
  0
LINE
  8
0
  6
LTYPE2
 62
     2
 10
1427.664725201
 20
778.433974596
 30
0.0
 11
1411.664725201
 21
762.433974596
 31
0.0
  0
ARC
  8
0
  6
LTYPE2
 62
     2
 10
1477.664725201
 20
828.433974596
 30
0.0
 40
82.5
 50
213.899731785
 51
235.960335446
  0
ARC
  8
0
  6
LTYPE2
 62
     2
 10
1477.664725201
 20
828.433974596
 30
0.0
 40
82.5
 50
122.095648245
 51
145.904134413
  0
ARC
  8
0
  6
CONTINUOUS
 62
     1
 10
1477.664725201
 20
828.433974596
 30
0.0
 40
110.0
 50
113.578178478
 51
147.236242241
  0
LINE
  8
0
  6
LTYPE1
 62
     2
 10
1512.164725201
 20
664.933974596
 30
0.0
 11
1492.664725201
 21
664.933974596
 31
0.0
  0
LINE
  8
0
  6
LTYPE1
 62
     2
 10
1512.164725201
 20
639.933974596
 30
0.0
 11
1492.664725201
 21
639.933974596
 31
0.0
  0
LINE
  8
0
  6
CONTINUOUS
 62
     1
 10
1492.664725201
 20
622.433974596
 30
0.0
 11
1492.664725201
 21
682.433974596
 31
0.0
  0
LINE
  8
0
  6
CONTINUOUS
 62
     1
 10
1507.664725201
 20
682.433974596
 30
0.0
 11
1477.664725201
 21
682.433974596
 31
0.0
  0
LINE
  8
0
  6
CONTINUOUS
 62
     1
 10
1492.664725201
 20
664.933974596
 30
0.0
 11
1477.664725201
 21
664.933974596
 31
0.0
  0
LINE
  8
0
  6
CONTINUOUS
 62
     1
 10
1492.664725201
 20
639.933974596
 30
0.0
 11
1477.664725201
 21
639.933974596
 31
0.0
  0
LINE
  8
0
  6
CONTINUOUS
 62
     1
 10
1507.664725201
 20
622.433974596
 30
0.0
 11
1477.664725201
 21
622.433974596
 31
0.0
  0
CIRCLE
  8
0
  6
CONTINUOUS
 62
     1
 10
1441.164725201
 20
652.433974596
 30
0.0
 40
2.0
  0
LINE
  8
0
  6
LTYPE5
 62
     2
 10
1441.264725201
 20
648.433974596
 30
0.0
 11
1441.264725201
 21
656.633974596
 31
0.0
  0
LINE
  8
0
  6
CONTINUOUS
 62
     1
 10
1437.164725201
 20
664.933974596
 30
0.0
 11
1443.164725201
 21
664.933974596
 31
0.0
  0
LINE
  8
0
  6
LTYPE1
 62
     2
 10
1443.164725201
 20
664.933974596
 30
0.0
 11
1462.664725201
 21
664.933974596
 31
0.0
  0
LINE
  8
0
  6
CONTINUOUS
 62
     1
 10
1437.164725201
 20
639.933974596
 30
0.0
 11
1443.164725201
 21
639.933974596
 31
0.0
  0
LINE
  8
0
  6
LTYPE1
 62
     2
 10
1443.164725201
 20
639.933974596
 30
0.0
 11
1462.664725201
 21
639.933974596
 31
0.0
  0
LINE
  8
0
  6
CONTINUOUS
 62
     1
 10
1443.164725201
 20
630.433974596
 30
0.0
 11
1447.664725201
 21
630.433974596
 31
0.0
  0
LINE
  8
0
  6
CONTINUOUS
 62
     1
 10
1443.164725201
 20
674.433974596
 30
0.0
 11
1447.664725201
 21
674.433974596
 31
0.0
  0
LINE
  8
0
  6
CONTINUOUS
 62
     1
 10
1462.664725201
 20
622.433974596
 30
0.0
 11
1462.664725201
 21
682.433974596
 31
0.0
  0
LINE
  8
0
  6
CONTINUOUS
 62
     1
 10
1447.664725201
 20
622.433974596
 30
0.0
 11
1447.664725201
 21
682.433974596
 31
0.0
  0
LINE
  8
0
  6
CONTINUOUS
 62
     1
 10
1443.164725201
 20
630.433974596
 30
0.0
 11
1443.164725201
 21
674.433974596
 31
0.0
  0
LINE
  8
0
  6
CONTINUOUS
 62
     1
 10
1437.164725201
 20
639.933974596
 30
0.0
 11
1437.164725201
 21
664.933974596
 31
0.0
  0
LINE
  8
0
  6
CONTINUOUS
 62
     1
 10
1447.664725201
 20
682.433974596
 30
0.0
 11
1477.664725201
 21
682.433974596
 31
0.0
  0
LINE
  8
0
  6
CONTINUOUS
 62
     1
 10
1462.664725201
 20
664.933974596
 30
0.0
 11
1477.664725201
 21
664.933974596
 31
0.0
  0
LINE
  8
0
  6
CONTINUOUS
 62
     1
 10
1462.664725201
 20
639.933974596
 30
0.0
 11
1477.664725201
 21
639.933974596
 31
0.0
  0
LINE
  8
0
  6
CONTINUOUS
 62
     1
 10
1447.664725201
 20
622.433974596
 30
0.0
 11
1477.664725201
 21
622.433974596
 31
0.0
  0
LINE
  8
0
  6
LTYPE1
 62
     2
 10
1412.664725201
 20
639.933974596
 30
0.0
 11
1382.664725201
 21
639.933974596
 31
0.0
  0
LINE
  8
0
  6
LTYPE1
 62
     2
 10
1412.664725201
 20
664.933974596
 30
0.0
 11
1382.664725201
 21
664.933974596
 31
0.0
  0
LINE
  8
0
  6
LTYPE1
 62
     2
 10
1412.664725201
 20
639.933974596
 30
0.0
 11
1412.664725201
 21
664.933974596
 31
0.0
  0
LINE
  8
0
  6
LTYPE2
 62
     2
 10
1477.664725201
 20
522.933974596
 30
0.0
 11
1477.664725201
 21
971.7
 31
0.0
  0
LINE
  8
0
  6
CONTINUOUS
 62
     1
 10
1382.664725201
 20
629.433974596
 30
0.0
 11
1382.664725201
 21
639.333974596
 31
0.0
  0
LINE
  8
0
  6
LTYPE5
 62
     2
 10
1380.268732555
 20
652.433974596
 30
0.0
 11
1586.268732555
 21
652.433974596
 31
0.0
  0
TEXT
  8
0
  6
CONTINUOUS
 62
     2
 10
1455.164725201
 20
441.433974596
 30
0.0
 40
18.0
  1
１８５
 50
0.0
 41
0.9
 51
0.0
  7
KANJI37
  0
TEXT
  8
0
  6
CONTINUOUS
 62
     2
 10
1455.164725201
 20
391.433974596
 30
0.0
 40
18.0
  1
１９０
 50
0.0
 41
0.9
 51
0.0
  7
KANJI37
  0
ARC
  8
0
  6
CONTINUOUS
 62
     1
 10
1354.557434596
 20
708.648963701
 30
0.0
 40
2.0
 50
45.0
 51
135.0
  0
ARC
  8
0
  6
CONTINUOUS
 62
     1
 10
1354.557434596
 20
678.384793466
 30
0.0
 40
2.0
 50
225.0
 51
315.0
  0
LINE
  8
0
  6
CONTINUOUS
 62
     1
 10
1360.307096611
 20
744.379953237
 30
0.0
 11
1352.683601626
 21
736.756458253
 31
0.0
  0
LINE
  8
0
  6
CONTINUOUS
 62
     1
 10
1363.14032745
 20
746.506077295
 30
0.0
 11
1353.037155017
 21
736.402904862
 31
0.0
  0
LINE
  8
0
  6
CONTINUOUS
 62
     1
 10
1353.037155017
 20
736.402904862
 30
0.0
 11
1357.986902485
 21
731.453157394
 31
0.0
  0
LINE
  8
0
  6
CONTINUOUS
 62
     1
 10
1355.971648159
 20
710.063177263
 30
0.0
 11
1371.103733276
 21
694.931092146
 31
0.0
  0
LINE
  8
0
  6
CONTINUOUS
 62
     1
 10
1371.103733276
 20
692.102665021
 30
0.0
 11
1355.971648159
 21
676.970579903
 31
0.0
  0
ARC
  8
0
  6
CONTINUOUS
 62
     1
 10
1369.689519714
 20
693.516878583
 30
0.0
 40
2.0
 50
315.0
 51
45.0
  0
LINE
  8
0
  6
LTYPE5
 62
     2
 10
1357.597993755
 20
736.013996132
 30
0.0
 11
1392.953332815
 21
771.369335192
 31
0.0
  0
ARC
  8
0
  6
LTYPE1
 62
     1
 10
1375.84134871
 20
754.257351087
 30
0.0
 40
16.0
 50
225.0
 51
99.340912304
  0
ARC
  8
0
  6
CONTINUOUS
 62
     1
 10
1375.84134871
 20
754.257351087
 30
0.0
 40
16.0
 50
99.340912304
 51
170.659087696
  0
LINE
  8
0
  6
LTYPE3
 62
     2
 10
1352.365403575
 20
749.449024975
 30
0.0
 11
1365.941853773
 21
735.872574776
 31
0.0
  0
LINE
  8
0
  6
LTYPE1
 62
     2
 10
1365.411523687
 20
748.777273533
 30
0.0
 11
1370.361271156
 21
743.827526065
 31
0.0
  0
ARC
  8
0
  6
LTYPE1
 62
     1
 10
1375.84134871
 20
754.257351087
 30
0.0
 40
16.0
 50
170.659087696
 51
225.0
  0
LINE
  8
0
  6
LTYPE1
 62
     1
 10
1356.749465618
 20
752.136030744
 30
0.0
 11
1355.887679228
 21
751.274244354
 31
0.0
  0
LINE
  8
0
  6
LTYPE1
 62
     1
 10
1362.406319867
 20
746.479176494
 30
0.0
 11
1360.307096611
 21
744.379953237
 31
0.0
  0
CIRCLE
  8
0
  6
CONTINUOUS
 62
     1
 10
1375.84134871
 20
754.257351087
 30
0.0
 40
6.49995
  0
LINE
  8
0
  6
CONTINUOUS
 62
     1
 10
1373.89474031
 20
747.011642042
 30
0.0
 11
1368.595639665
 21
752.310742687
 31
0.0
  0
LINE
  8
0
  6
CONTINUOUS
 62
     1
 10
1368.595639665
 20
752.310742687
 30
0.0
 11
1370.542248065
 21
759.556451732
 31
0.0
  0
LINE
  8
0
  6
CONTINUOUS
 62
     1
 10
1365.03587321
 20
738.502128119
 30
0.0
 11
1357.986902485
 21
731.453157394
 31
0.0
  0
LINE
  8
0
  6
LTYPE1
 62
     2
 10
1365.411523687
 20
748.777273533
 30
0.0
 11
1363.14032745
 21
746.506077295
 31
0.0
  0
LINE
  8
0
  6
CONTINUOUS
 62
     1
 10
1373.89474031
 20
747.011642042
 30
0.0
 11
1381.140449355
 21
748.958250442
 31
0.0
  0
LINE
  8
0
  6
CONTINUOUS
 62
     1
 10
1356.042358837
 20
752.843137525
 30
0.0
 11
1377.255562272
 21
774.05634096
 31
0.0
  0
LINE
  8
0
  6
LTYPE1
 62
     1
 10
1356.042358837
 20
752.843137525
 30
0.0
 11
1363.761607865
 21
745.123888497
 31
0.0
  0
CIRCLE
  8
0
  6
CONTINUOUS
 62
     1
 10
1375.84134871
 20
754.257351087
 30
0.0
 40
4.0
  0
LINE
  8
0
  6
CONTINUOUS
 62
     1
 10
1377.78795711
 20
761.503060132
 30
0.0
 11
1370.542248065
 21
759.556451732
 31
0.0
  0
LINE
  8
0
  6
CONTINUOUS
 62
     1
 10
1383.087057755
 20
756.203959487
 30
0.0
 11
1381.140449355
 21
748.958250442
 31
0.0
  0
LINE
  8
0
  6
LTYPE3
 62
     2
 10
1378.952618547
 20
779.430352497
 30
0.0
 11
1394.226125021
 21
764.156846024
 31
0.0
  0
LINE
  8
0
  6
CONTINUOUS
 62
     1
 10
1383.087057755
 20
756.203959487
 30
0.0
 11
1377.78795711
 21
761.503060132
 31
0.0
  0
LINE
  8
0
  6
LTYPE1
 62
     2
 10
1381.321426264
 20
764.68717611
 30
0.0
 11
1386.271173732
 21
759.737428641
 31
0.0
  0
LINE
  8
0
  6
LTYPE1
 62
     2
 10
1391.596571678
 20
765.062826587
 30
0.0
 11
1386.271173732
 21
759.737428641
 31
0.0
  0
LINE
  8
0
  6
CONTINUOUS
 62
     1
 10
1398.645542403
 20
772.111797312
 30
0.0
 11
1389.646124228
 21
763.112379137
 31
0.0
  0
LINE
  8
0
  6
LTYPE1
 62
     1
 10
1387.155057209
 20
764.156846024
 30
0.0
 11
1388.016843599
 21
765.018632413
 31
0.0
  0
LINE
  8
0
  6
CONTINUOUS
 62
     1
 10
1378.824455443
 20
774.211020569
 30
0.0
 11
1413.671561503
 21
809.058126629
 31
0.0
  0
LINE
  8
0
  6
CONTINUOUS
 62
     1
 10
1385.71874656
 20
769.791603186
 30
0.0
 11
1393.342241544
 21
777.415098171
 31
0.0
  0
LINE
  8
0
  6
LTYPE1
 62
     1
 10
1383.619523303
 20
767.69237993
 30
0.0
 11
1385.71874656
 21
769.791603186
 31
0.0
  0
LINE
  8
0
  6
LTYPE1
 62
     2
 10
1385.512507082
 20
768.878256927
 30
0.0
 11
1383.973076694
 21
767.338826539
 31
0.0
  0
LINE
  8
0
  6
CONTINUOUS
 62
     1
 10
1393.695794935
 20
777.06154478
 30
0.0
 11
1398.645542403
 21
772.111797312
 31
0.0
  0
LINE
  8
0
  6
CONTINUOUS
 62
     1
 10
1393.271530866
 20
777.485808849
 30
0.0
 11
1401.297192833
 21
782.541622335
 31
0.0
  0
LINE
  8
0
  6
CONTINUOUS
 62
     1
 10
1393.695794935
 20
777.06154478
 30
0.0
 11
1383.592622502
 21
766.958372347
 31
0.0
  0
LINE
  8
0
  6
LTYPE1
 62
     1
 10
1377.255562272
 20
774.05634096
 30
0.0
 11
1384.9748113
 21
766.337091932
 31
0.0
  0
LINE
  8
0
  6
CONTINUOUS
 62
     1
 10
1403.064959786
 20
798.451524911
 30
0.0
 11
1412.257347941
 21
789.259136756
 31
0.0
  0
LINE
  8
0
  6
CONTINUOUS
 62
     1
 10
1401.297192833
 20
782.541622335
 30
0.0
 11
1410.136027598
 21
791.380457099
 31
0.0
  0
LINE
  8
0
  6
CONTINUOUS
 62
     1
 10
1431.702784424
 20
808.704573238
 30
0.0
 11
1403.418513176
 21
780.420301991
 31
0.0
  0
LINE
  8
0
  6
LTYPE3
 62
     2
 10
1404.40846267
 20
807.714623745
 30
0.0
 11
1445.420655979
 21
766.702430436
 31
0.0
  0
LINE
  8
0
  6
LTYPE3
 62
     2
 10
1426.399483565
 20
807.078227642
 30
0.0
 11
1459.633502281
 21
773.844208926
 31
0.0
  0
LINE
  8
0
  6
CONTINUOUS
 62
     1
 10
1459.987055671
 20
780.420301991
 30
0.0
 11
1431.702784424
 21
808.704573238
 31
0.0
  0
LINE
  8
0
  6
CONTINUOUS
 62
     1
 10
1435.23831833
 20
805.169039333
 30
0.0
 11
1406.954047082
 21
776.884768085
 31
0.0
  0
LINE
  8
0
  6
CONTINUOUS
 62
     1
 10
1431.652916316
 20
801.583637319
 30
0.0
 11
1406.954047082
 21
776.884768085
 31
0.0
  0
LINE
  8
0
  6
CONTINUOUS
 62
     1
 10
1413.671561503
 20
809.058126629
 30
0.0
 11
1422.863949659
 21
799.865738474
 31
0.0
  0
CIRCLE
  8
0
  6
CONTINUOUS
 62
     1
 10
1430.571413574
 20
781.551672841
 30
0.0
 40
9.36
  0
LINE
  8
0
  6
LTYPE3
 62
     2
 10
1439.763801729
 20
790.744060996
 30
0.0
 11
1421.379025418
 21
772.359284685
 31
0.0
  0
CIRCLE
  8
0
  6
CONTINUOUS
 62
     2
 10
1430.571413574
 20
781.551672841
 30
0.0
 40
10.47
  0
LINE
  8
0
  6
CONTINUOUS
 62
     1
 10
1403.418513176
 20
780.420301991
 30
0.0
 11
1431.702784424
 21
752.136030744
 31
0.0
  0
LINE
  8
0
  6
CONTINUOUS
 62
     1
 10
1428.520803908
 20
772.995680789
 30
0.0
 11
1437.713192064
 21
763.803292633
 31
0.0
  0
LINE
  8
0
  6
CONTINUOUS
 62
     1
 10
1439.127405626
 20
783.602282506
 30
0.0
 11
1448.319793782
 21
774.409894351
 31
0.0
  0
LINE
  8
0
  6
CONTINUOUS
 62
     1
 10
1426.753036955
 20
757.085778212
 30
0.0
 11
1435.59187172
 21
765.924612977
 31
0.0
  0
LINE
  8
0
  6
CONTINUOUS
 62
     1
 10
1457.158628546
 20
783.248729116
 30
0.0
 11
1428.874357299
 21
754.964457868
 31
0.0
  0
LINE
  8
0
  6
CONTINUOUS
 62
     1
 10
1463.169036187
 20
783.602282506
 30
0.0
 11
1467.411676874
 21
779.359641819
 31
0.0
  0
CIRCLE
  8
0
  6
CONTINUOUS
 62
     2
 10
1375.84134871
 20
754.257351087
 30
0.0
 40
3.2
  0
LINE
  8
0
  6
LTYPE1
 62
     2
 10
1370.361271156
 20
743.827526065
 30
0.0
 11
1364.926604129
 21
738.392859038
 31
0.0
  0
LINE
  8
0
  6
CONTINUOUS
 62
     1
 10
1443.370046313
 20
616.017975365
 30
0.0
 11
1470.593657389
 21
588.794364289
 31
0.0
  0
LINE
  8
0
  6
LTYPE2
 62
     2
 10
1442.160261034
 20
616.929510429
 30
0.0
 11
1515.431097344
 21
690.20034674
 31
0.0
  0
LINE
  8
0
  6
CONTINUOUS
 62
     1
 10
1495.342394731
 20
705.466983185
 30
0.0
 11
1511.959404088
 21
688.849973827
 31
0.0
  0
LINE
  8
0
  6
CONTINUOUS
 62
     1
 10
1424.631716612
 20
634.756305067
 30
0.0
 11
1441.24872597
 21
618.139295709
 31
0.0
  0
LINE
  8
0
  6
CONTINUOUS
 62
     1
 10
1377.255562272
 20
774.05634096
 30
0.0
 11
1495.342394731
 21
705.466983185
 31
0.0
  0
LINE
  8
0
  6
CONTINUOUS
 62
     1
 10
1356.042358837
 20
752.843137525
 30
0.0
 11
1424.631716612
 21
634.756305067
 31
0.0
  0
LINE
  8
0
  6
CONTINUOUS
 62
     1
 10
1387.219339644
 20
699.167304589
 30
0.0
 11
1350.739057978
 21
662.687022923
 31
0.0
  0
LINE
  8
0
  6
CONTINUOUS
 62
     1
 10
1467.411676874
 20
779.359641819
 30
0.0
 11
1430.931395208
 21
742.879360153
 31
0.0
  0
LINE
  8
0
  6
CONTINUOUS
 62
     1
 10
1425.563811914
 20
745.997058234
 30
0.0
 11
1463.169036187
 21
783.602282506
 31
0.0
  0
LINE
  8
0
  6
CONTINUOUS
 62
     1
 10
1493.574627778
 20
569.348927807
 30
0.0
 11
1560.74977199
 21
636.52407202
 31
0.0
  0
LINE
  8
0
  6
CONTINUOUS
 62
     1
 10
1458.219288718
 20
562.277859995
 30
0.0
 11
1479.432492154
 21
583.491063431
 31
0.0
  0
LINE
  8
0
  6
CONTINUOUS
 62
     1
 10
1479.432492154
 20
583.491063431
 30
0.0
 11
1493.574627778
 21
569.348927807
 31
0.0
  0
LINE
  8
0
  6
CONTINUOUS
 62
     1
 10
1423.924609831
 20
596.572538882
 30
0.0
 11
1458.219288718
 21
562.277859995
 31
0.0
  0
LINE
  8
0
  6
CONTINUOUS
 62
     1
 10
1354.981698665
 20
665.515450048
 30
0.0
 11
1421.803289487
 21
598.693859226
 31
0.0
  0
LINE
  8
0
  6
CONTINUOUS
 62
     1
 10
1421.803289487
 20
598.693859226
 30
0.0
 11
1437.727658302
 21
614.618228041
 31
0.0
  0
LINE
  8
0
  6
CONTINUOUS
 62
     1
 10
1423.924609831
 20
596.572538882
 30
0.0
 11
1439.848978646
 21
612.496907697
 31
0.0
  0
ARC
  8
0
  6
LTYPE1
 62
     2
 10
1477.664725201
 20
652.433974596
 30
0.0
 40
65.0
 50
94.411725786
 51
205.588274214
  0
LINE
  8
0
  6
LTYPE1
 62
     2
 10
1472.664725201
 20
713.433974596
 30
0.0
 11
1482.664725201
 21
713.433974596
 31
0.0
  0
LINE
  8
0
  6
LTYPE1
 62
     2
 10
1472.664725201
 20
713.433974596
 30
0.0
 11
1472.664725201
 21
717.24138158
 31
0.0
  0
LINE
  8
0
  6
LTYPE1
 62
     2
 10
1422.33717557
 20
626.264101615
 30
0.0
 11
1427.33717557
 21
617.603847577
 31
0.0
  0
LINE
  8
0
  6
LTYPE1
 62
     2
 10
1422.33717557
 20
626.264101615
 30
0.0
 11
1419.039864399
 21
624.360398123
 31
0.0
  0
LINE
  8
0
  6
LTYPE1
 62
     2
 10
1427.33717557
 20
617.603847577
 30
0.0
 11
1424.039864399
 21
615.700144085
 31
0.0
  0
ARC
  8
0
  6
CONTINUOUS
 62
     1
 10
1477.664725201
 20
652.433974596
 30
0.0
 40
65.0
 50
223.699607245
 51
226.18693854
  0
ARC
  8
0
  6
LTYPE1
 62
     2
 10
1477.664725201
 20
652.433974596
 30
0.0
 40
65.0
 50
46.562805946
 51
85.588274214
  0
LINE
  8
0
  6
LTYPE1
 62
     2
 10
1482.664725201
 20
713.433974596
 30
0.0
 11
1482.664725201
 21
717.24138158
 31
0.0
  0
ARC
  8
0
  6
LTYPE1
 62
     2
 10
1477.664725201
 20
652.433974596
 30
0.0
 40
65.0
 50
226.562805946
 51
325.588274214
  0
ARC
  8
0
  6
LTYPE1
 62
     2
 10
1477.664725201
 20
652.433974596
 30
0.0
 40
65.0
 50
214.411725786
 51
223.57790987
  0
ARC
  8
0
  6
LTYPE1
 62
     2
 10
1424.664725201
 20
705.433974596
 30
0.0
 40
9.0
 50
322.110593671
 51
228.144191404
  0
ARC
  8
0
  6
LTYPE1
 62
     2
 10
1477.664725201
 20
817.433974596
 30
0.0
 40
105.0
 50
250.314945175
 51
259.101142144
  0
LINE
  8
0
  6
LTYPE1
 62
     2
 10
1418.664725201
 20
719.433974596
 30
0.0
 11
1439.968571551
 21
719.433974596
 31
0.0
  0
ARC
  8
0
  6
LTYPE1
 62
     2
 10
1477.664725201
 20
817.433974596
 30
0.0
 40
105.0
 50
248.960530219
 51
250.314945175
  0
ARC
  8
0
  6
LTYPE1
 62
     2
 10
1418.664725201
 20
711.433974596
 30
0.0
 40
8.0
 50
90.0
 51
180.0
  0
LINE
  8
0
  6
LTYPE1
 62
     2
 10
1439.164725201
 20
705.433974596
 30
0.0
 11
1412.164725201
 21
705.433974596
 31
0.0
  0
LINE
  8
0
  6
LTYPE1
 62
     2
 10
1382.664725201
 20
675.433974596
 30
0.0
 11
1407.325201536
 21
678.459950286
 31
0.0
  0
LINE
  8
0
  6
LTYPE1
 62
     2
 10
1407.325201536
 20
678.459950286
 30
0.0
 11
1431.464725201
 21
681.422002225
 31
0.0
  0
LINE
  8
0
  6
LTYPE1
 62
     2
 10
1382.664725201
 20
675.433974596
 30
0.0
 11
1382.664725201
 21
638.933974596
 31
0.0
  0
LINE
  8
0
  6
CONTINUOUS
 62
     1
 10
1382.664725201
 20
629.433974596
 30
0.0
 11
1392.237848895
 21
628.259299818
 31
0.0
  0
LINE
  8
0
  6
LTYPE1
 62
     2
 10
1392.237848895
 20
628.259299818
 30
0.0
 11
1415.224986171
 21
625.438652008
 31
0.0
  0
LINE
  8
0
  6
CONTINUOUS
 62
     1
 10
1410.664725201
 20
593.433974596
 30
0.0
 11
1410.664725201
 21
609.832423512
 31
0.0
  0
LINE
  8
0
  6
LTYPE1
 62
     2
 10
1410.664725201
 20
609.832423512
 30
0.0
 11
1410.664725201
 21
625.756200733
 31
0.0
  0
ARC
  8
0
  6
CONTINUOUS
 62
     1
 10
1424.664725201
 20
599.433974596
 30
0.0
 40
9.0
 50
151.437219909
 51
298.562780091
  0
ARC
  8
0
  6
CONTINUOUS
 62
     1
 10
1424.664725201
 20
599.433974596
 30
0.0
 40
9.0
 50
35.405931773
 51
54.594068227
  0
LINE
  8
0
  6
CONTINUOUS
 62
     1
 10
1429.664725201
 20
584.933974596
 30
0.0
 11
1435.563174117
 21
584.933974596
 31
0.0
  0
ARC
  8
0
  6
CONTINUOUS
 62
     1
 10
1477.664725201
 20
652.433974596
 30
0.0
 40
55.0
 50
198.434948823
 51
249.619977329
  0
ARC
  8
0
  6
CONTINUOUS
 62
     1
 10
1477.664725201
 20
652.433974596
 30
0.0
 40
55.0
 50
20.380022671
 51
69.619977329
  0
ARC
  8
0
  6
CONTINUOUS
 62
     1
 10
1477.664725201
 20
652.433974596
 30
0.0
 40
55.0
 50
269.999978844
 51
358.341758227
  0
ARC
  8
0
  6
LTYPE1
 62
     2
 10
1477.664725201
 20
817.433974596
 30
0.0
 40
105.0
 50
280.898857856
 51
289.685054825
  0
LINE
  8
0
  6
CONTINUOUS
 62
     1
 10
1505.543404857
 20
682.433974596
 30
0.0
 11
1511.959404088
 21
688.849973827
 31
0.0
  0
LINE
  8
0
  6
CONTINUOUS
 62
     1
 10
1441.24872597
 20
618.139295709
 30
0.0
 11
1447.664725201
 21
624.55529494
 31
0.0
  0
LINE
  8
0
  6
CONTINUOUS
 62
     1
 10
1443.370046313
 20
616.017975365
 30
0.0
 11
1449.786045544
 21
622.433974596
 31
0.0
  0
LINE
  8
0
  6
CONTINUOUS
 62
     1
 10
1470.593657389
 20
588.794364289
 30
0.0
 11
1504.233267696
 21
622.433974596
 31
0.0
  0
LINE
  8
0
  6
LTYPE1
 62
     2
 10
1410.664725201
 20
678.869728154
 30
0.0
 11
1410.664725201
 21
711.433974596
 31
0.0
  0
ARC
  8
0
  6
CONTINUOUS
 62
     1
 10
1477.664725201
 20
828.433974596
 30
0.0
 40
100.0
 50
286.997639734
 51
63.896118863
  0
ARC
  8
0
  6
CONTINUOUS
 62
     1
 10
1477.664725201
 20
828.433974596
 30
0.0
 40
100.0
 50
215.764541416
 51
226.890577804
  0
ARC
  8
0
  6
CONTINUOUS
 62
     1
 10
1477.664725201
 20
828.433974596
 30
0.0
 40
100.0
 50
116.103881137
 51
206.609478136
  0
LINE
  8
0
  6
CONTINUOUS
 62
     1
 10
1385.164725201
 20
780.551290326
 30
0.0
 11
1385.164725201
 21
790.437264212
 31
0.0
  0
LINE
  8
0
  6
LTYPE1
 62
     2
 10
1386.852409101
 20
789.208231473
 30
0.0
 11
1529.283520227
 21
646.777120347
 31
0.0
  0
LINE
  8
0
  6
CONTINUOUS
 62
     2
 10
1477.664725201
 20
486.283974596
 30
0.0
 11
1466.073615285
 21
489.389803137
 31
0.0
  0
LINE
  8
0
  6
CONTINUOUS
 62
     2
 10
1477.664725201
 20
486.283974596
 30
0.0
 11
1466.073615285
 21
483.178146055
 31
0.0
  0
LINE
  8
0
  6
CONTINUOUS
 62
     2
 10
1477.664725201
 20
519.983974596
 30
0.0
 11
1477.664725201
 21
480.283974596
 31
0.0
  0
TEXT
  8
0
  6
CONTINUOUS
 62
     3
 10
1387.664725201
 20
489.283974596
 30
0.0
 40
18.0
  1
１６０
 50
0.0
 41
0.9
 51
0.0
  7
KANJI37
  0
LINE
  8
0
  6
CONTINUOUS
 62
     1
 10
1437.964725201
 20
533.433974596
 30
0.0
 11
1427.364725201
 21
533.433974596
 31
0.0
  0
ARC
  8
0
  6
CONTINUOUS
 62
     1
 10
1433.064725201
 20
534.433974596
 30
0.0
 40
5.0
 50
272.3
 51
348.5
  0
ARC
  8
0
  6
CONTINUOUS
 62
     1
 10
1432.264725201
 20
534.433974596
 30
0.0
 40
5.0
 50
191.5
 51
267.7
  0
LINE
  8
0
  6
CONTINUOUS
 62
     1
 10
1433.264725201
 20
529.433974596
 30
0.0
 11
1432.064725201
 21
529.433974596
 31
0.0
  0
LINE
  8
0
  6
LTYPE4
 62
     2
 10
1432.664725201
 20
526.033974596
 30
0.0
 11
1432.664725201
 21
539.433974596
 31
0.0
  0
LINE
  8
0
  6
CONTINUOUS
 62
     2
 10
1570.164725201
 20
568.433974596
 30
0.0
 11
1570.164725201
 21
431.433974596
 31
0.0
  0
LINE
  8
0
  6
CONTINUOUS
 62
     2
 10
1572.664725201
 20
629.433974596
 30
0.0
 11
1572.664725201
 21
381.433974596
 31
0.0
  0
LINE
  8
0
  6
CONTINUOUS
 62
     2
 10
1628.864725201
 20
664.933974596
 30
0.0
 11
1576.064725201
 21
664.933974596
 31
0.0
  0
LINE
  8
0
  6
CONTINUOUS
 62
     2
 10
1630.864725201
 20
639.933974596
 30
0.0
 11
1577.064725201
 21
639.933974596
 31
0.0
  0
LINE
  8
0
  6
CONTINUOUS
 62
     2
 10
1531.164725201
 20
533.433974596
 30
0.0
 11
1660.664725201
 21
533.433974596
 31
0.0
  0
ARC
  8
0
  6
CONTINUOUS
 62
     1
 10
1527.664725201
 20
535.433974596
 30
0.0
 40
1.0
 50
270.0
 51
0.0
  0
LINE
  8
0
  6
CONTINUOUS
 62
     1
 10
1570.164725201
 20
675.627210886
 30
0.0
 11
1570.164725201
 21
793.471474596
 31
0.0
  0
ARC
  8
0
  6
CONTINUOUS
 62
     1
 10
1560.164725201
 20
568.433974596
 30
0.0
 40
10.0
 50
270.0
 51
0.0
  0
ARC
  8
0
  6
CONTINUOUS
 62
     1
 10
1536.664725201
 20
711.433974596
 30
0.0
 40
8.0
 50
0.0
 51
90.0
  0
ARC
  8
0
  6
CONTINUOUS
 62
     1
 10
1536.664725201
 20
593.433974596
 30
0.0
 40
8.0
 50
270.0
 51
0.0
  0
LINE
  8
0
  6
CONTINUOUS
 62
     1
 10
1526.664725201
 20
585.433974596
 30
0.0
 11
1536.664725201
 21
585.433974596
 31
0.0
  0
ARC
  8
0
  6
CONTINUOUS
 62
     1
 10
1525.664725201
 20
581.933974596
 30
0.0
 40
3.0
 50
0.0
 51
90.0
  0
LINE
  8
0
  6
CONTINUOUS
 62
     1
 10
1528.664725201
 20
535.433974596
 30
0.0
 11
1528.664725201
 21
581.933974596
 31
0.0
  0
ARC
  8
0
  6
CONTINUOUS
 62
     1
 10
1527.664725201
 20
535.433974596
 30
0.0
 40
1.0
 50
270.0
 51
0.0
  0
ARC
  8
0
  6
CONTINUOUS
 62
     1
 10
1524.664725201
 20
534.433974596
 30
0.0
 40
1.0
 50
270.0
 51
0.0
  0
LINE
  8
0
  6
CONTINUOUS
 62
     1
 10
1528.664725201
 20
558.433974596
 30
0.0
 11
1560.164725201
 21
558.433974596
 31
0.0
  0
LINE
  8
0
  6
CONTINUOUS
 62
     1
 10
1572.664725201
 20
629.433974596
 30
0.0
 11
1572.664725201
 21
675.433974596
 31
0.0
  0
LINE
  8
0
  6
CONTINUOUS
 62
     1
 10
1570.164725201
 20
568.433974596
 30
0.0
 11
1570.164725201
 21
629.127210886
 31
0.0
  0
LINE
  8
0
  6
LTYPE3
 62
     2
 10
1516.664725201
 20
705.433974596
 30
0.0
 11
1543.164725201
 21
705.433974596
 31
0.0
  0
LINE
  8
0
  6
LTYPE3
 62
     2
 10
1530.664725201
 20
690.933974596
 30
0.0
 11
1530.664725201
 21
717.933974596
 31
0.0
  0
LINE
  8
0
  6
LTYPE3
 62
     2
 10
1530.664725201
 20
613.433974596
 30
0.0
 11
1530.664725201
 21
586.933974596
 31
0.0
  0
LINE
  8
0
  6
LTYPE3
 62
     2
 10
1516.164725201
 20
599.433974596
 30
0.0
 11
1543.164725201
 21
599.433974596
 31
0.0
  0
LINE
  8
0
  6
LTYPE3
 62
     2
 10
1522.664725201
 20
529.733974596
 30
0.0
 11
1522.664725201
 21
548.433974596
 31
0.0
  0
LINE
  8
0
  6
LTYPE1
 62
     2
 10
1542.664725201
 20
639.933974596
 30
0.0
 11
1572.664725201
 21
639.933974596
 31
0.0
  0
LINE
  8
0
  6
LTYPE1
 62
     2
 10
1542.664725201
 20
664.933974596
 30
0.0
 11
1572.664725201
 21
664.933974596
 31
0.0
  0
LINE
  8
0
  6
LTYPE1
 62
     2
 10
1542.664725201
 20
639.933974596
 30
0.0
 11
1542.664725201
 21
664.933974596
 31
0.0
  0
LINE
  8
0
  6
CONTINUOUS
 62
     1
 10
1570.164725201
 20
863.433974596
 30
0.0
 11
1570.164725201
 21
887.963379095
 31
0.0
  0
ARC
  8
0
  6
CONTINUOUS
 62
     1
 10
1523.664725201
 20
828.433974596
 30
0.0
 40
9.0
 50
278.674045508
 51
81.325934821
  0
LINE
  8
0
  6
CONTINUOUS
 62
     2
 10
1520.664725201
 20
845.433974596
 30
0.0
 11
1520.664725201
 21
809.433974596
 31
0.0
  0
LINE
  8
0
  6
CONTINUOUS
 62
     1
 10
1521.664725201
 20
844.533974596
 30
0.0
 11
1519.664725201
 21
844.533974596
 31
0.0
  0
LINE
  8
0
  6
CONTINUOUS
 62
     1
 10
1519.664725201
 20
844.533974596
 30
0.0
 11
1517.664725201
 21
832.933974596
 31
0.0
  0
LINE
  8
0
  6
CONTINUOUS
 62
     1
 10
1521.664725201
 20
844.533974596
 30
0.0
 11
1523.664725201
 21
832.933974596
 31
0.0
  0
LINE
  8
0
  6
CONTINUOUS
 62
     1
 10
1521.664725201
 20
812.333974596
 30
0.0
 11
1519.664725201
 21
812.333974596
 31
0.0
  0
LINE
  8
0
  6
CONTINUOUS
 62
     1
 10
1519.664725201
 20
812.333974596
 30
0.0
 11
1517.664725201
 21
823.933974596
 31
0.0
  0
LINE
  8
0
  6
CONTINUOUS
 62
     1
 10
1521.664725201
 20
812.333974596
 30
0.0
 11
1523.664725201
 21
823.933974596
 31
0.0
  0
ARC
  8
0
  6
CONTINUOUS
 62
     1
 10
1527.284290418
 20
852.159461897
 30
0.0
 40
15.0
 50
205.554693785
 51
235.747997449
  0
ARC
  8
0
  6
CONTINUOUS
 62
     1
 10
1527.284290418
 20
852.159461897
 30
0.0
 40
15.0
 50
252.681090544
 51
261.325827457
  0
ARC
  8
0
  6
CONTINUOUS
 62
     1
 10
1527.284290418
 20
804.708487296
 30
0.0
 40
15.0
 50
124.468179449
 51
154.445306215
  0
ARC
  8
0
  6
CONTINUOUS
 62
     1
 10
1527.284290418
 20
804.708487296
 30
0.0
 40
15.0
 50
98.674172543
 51
107.318909456
  0
CIRCLE
  8
0
  6
CONTINUOUS
 62
     1
 10
1520.664725201
 20
828.433974596
 30
0.0
 40
3.0
  0
LINE
  8
0
  6
CONTINUOUS
 62
     1
 10
1517.686029903
 20
833.057541869
 30
0.0
 11
1517.643420499
 21
823.810407324
 31
0.0
  0
LINE
  8
0
  6
CONTINUOUS
 62
     1
 10
1523.686029903
 20
823.810407324
 30
0.0
 11
1523.643420499
 21
833.057541869
 31
0.0
  0
ARC
  8
0
  6
CONTINUOUS
 62
     1
 10
1520.664725201
 20
828.433974596
 30
0.0
 40
5.5
 50
304.570397879
 51
57.208673154
  0
ARC
  8
0
  6
CONTINUOUS
 62
     1
 10
1520.664725201
 20
828.433974596
 30
0.0
 40
5.5
 50
122.791326846
 51
235.429602121
  0
LINE
  8
0
  6
CONTINUOUS
 62
     1
 10
1507.664725201
 20
910.433974596
 30
0.0
 11
1507.664725201
 21
913.433974596
 31
0.0
  0
ARC
  8
0
  6
CONTINUOUS
 62
     1
 10
1511.664725201
 20
963.433974596
 30
0.0
 40
2.0
 50
0.0
 51
90.0
  0
ARC
  8
0
  6
CONTINUOUS
 62
     1
 10
1519.664725201
 20
957.454020484
 30
0.0
 40
2.0
 50
0.0
 51
90.0
  0
ARC
  8
0
  6
CONTINUOUS
 62
     1
 10
1511.664725201
 20
954.433974596
 30
0.0
 40
2.0
 50
0.0
 51
90.0
  0
ARC
  8
0
  6
CONTINUOUS
 62
     1
 10
1519.664725201
 20
961.454020484
 30
0.0
 40
2.0
 50
0.0
 51
90.0
  0
LINE
  8
0
  6
CONTINUOUS
 62
     1
 10
1513.664725201
 20
915.433974596
 30
0.0
 11
1519.664725201
 21
915.433974596
 31
0.0
  0
LINE
  8
0
  6
CONTINUOUS
 62
     1
 10
1521.664725201
 20
917.433974596
 30
0.0
 11
1521.664725201
 21
961.454020484
 31
0.0
  0
ARC
  8
0
  6
CONTINUOUS
 62
     1
 10
1519.664725201
 20
917.433974596
 30
0.0
 40
2.0
 50
270.0
 51
0.0
  0
LINE
  8
0
  6
CONTINUOUS
 62
     1
 10
1513.664725201
 20
915.433974596
 30
0.0
 11
1513.664725201
 21
954.433974596
 31
0.0
  0
ARC
  8
0
  6
CONTINUOUS
 62
     1
 10
1511.664725201
 20
915.433974596
 30
0.0
 40
2.0
 50
270.0
 51
0.0
  0
LINE
  8
0
  6
LTYPE2
 62
     2
 10
1527.664725201
 20
878.433974596
 30
0.0
 11
1543.664725201
 21
894.433974596
 31
0.0
  0
LINE
  8
0
  6
CONTINUOUS
 62
     1
 10
1531.001034649
 20
895.430538082
 30
0.0
 11
1541.001034649
 21
895.430538082
 31
0.0
  0
LINE
  8
0
  6
CONTINUOUS
 62
     1
 10
1541.001034649
 20
895.430538082
 30
0.0
 11
1546.001034649
 21
886.770284044
 31
0.0
  0
LINE
  8
0
  6
CONTINUOUS
 62
     1
 10
1546.001034649
 20
886.770284044
 30
0.0
 11
1541.001034649
 21
878.110030006
 31
0.0
  0
LINE
  8
0
  6
CONTINUOUS
 62
     1
 10
1541.001034649
 20
878.110030006
 30
0.0
 11
1531.001034649
 21
878.110030006
 31
0.0
  0
LINE
  8
0
  6
CONTINUOUS
 62
     1
 10
1531.001034649
 20
878.110030006
 30
0.0
 11
1526.001034649
 21
886.770284044
 31
0.0
  0
LINE
  8
0
  6
CONTINUOUS
 62
     1
 10
1526.001034649
 20
886.770284044
 30
0.0
 11
1531.001034649
 21
895.430538082
 31
0.0
  0
LINE
  8
0
  6
LTYPE2
 62
     2
 10
1527.664725201
 20
778.433974596
 30
0.0
 11
1543.664725201
 21
762.433974596
 31
0.0
  0
LINE
  8
0
  6
CONTINUOUS
 62
     1
 10
1531.001034649
 20
761.43741111
 30
0.0
 11
1541.001034649
 21
761.43741111
 31
0.0
  0
LINE
  8
0
  6
CONTINUOUS
 62
     1
 10
1541.001034649
 20
761.43741111
 30
0.0
 11
1546.001034649
 21
770.097665148
 31
0.0
  0
LINE
  8
0
  6
CONTINUOUS
 62
     1
 10
1546.001034649
 20
770.097665148
 30
0.0
 11
1541.001034649
 21
778.757919186
 31
0.0
  0
LINE
  8
0
  6
CONTINUOUS
 62
     1
 10
1541.001034649
 20
778.757919186
 30
0.0
 11
1531.001034649
 21
778.757919186
 31
0.0
  0
LINE
  8
0
  6
CONTINUOUS
 62
     1
 10
1531.001034649
 20
778.757919186
 30
0.0
 11
1526.001034649
 21
770.097665148
 31
0.0
  0
LINE
  8
0
  6
CONTINUOUS
 62
     1
 10
1526.001034649
 20
770.097665148
 30
0.0
 11
1531.001034649
 21
761.43741111
 31
0.0
  0
ARC
  8
0
  6
LTYPE2
 62
     2
 10
1477.664725201
 20
828.433974596
 30
0.0
 40
82.5
 50
300.927939213
 51
327.087998905
  0
ARC
  8
0
  6
LTYPE2
 62
     2
 10
1477.664725201
 20
828.433974596
 30
0.0
 40
82.5
 50
35.204140887
 51
56.44447448
  0
ARC
  8
0
  6
CONTINUOUS
 62
     1
 10
1477.664725201
 20
828.433974596
 30
0.0
 40
110.0
 50
32.763757759
 51
66.421821522
  0
LINE
  8
0
  6
CONTINUOUS
 62
     2
 10
1515.164725201
 20
965.433974596
 30
0.0
 11
1692.156958157
 21
965.433974596
 31
0.0
  0
CIRCLE
  8
0
  6
CONTINUOUS
 62
     1
 10
1514.164725201
 20
652.433974596
 30
0.0
 40
2.0
  0
LINE
  8
0
  6
LTYPE5
 62
     2
 10
1514.064725201
 20
648.433974596
 30
0.0
 11
1514.064725201
 21
656.633974596
 31
0.0
  0
LINE
  8
0
  6
CONTINUOUS
 62
     1
 10
1518.164725201
 20
664.933974596
 30
0.0
 11
1512.164725201
 21
664.933974596
 31
0.0
  0
LINE
  8
0
  6
CONTINUOUS
 62
     1
 10
1518.164725201
 20
639.933974596
 30
0.0
 11
1512.164725201
 21
639.933974596
 31
0.0
  0
LINE
  8
0
  6
CONTINUOUS
 62
     1
 10
1512.164725201
 20
630.433974596
 30
0.0
 11
1507.664725201
 21
630.433974596
 31
0.0
  0
LINE
  8
0
  6
CONTINUOUS
 62
     1
 10
1512.164725201
 20
674.433974596
 30
0.0
 11
1507.664725201
 21
674.433974596
 31
0.0
  0
LINE
  8
0
  6
CONTINUOUS
 62
     1
 10
1507.664725201
 20
622.433974596
 30
0.0
 11
1507.664725201
 21
682.433974596
 31
0.0
  0
LINE
  8
0
  6
CONTINUOUS
 62
     1
 10
1512.164725201
 20
630.433974596
 30
0.0
 11
1512.164725201
 21
674.433974596
 31
0.0
  0
LINE
  8
0
  6
CONTINUOUS
 62
     1
 10
1518.164725201
 20
639.933974596
 30
0.0
 11
1518.164725201
 21
664.933974596
 31
0.0
  0
LINE
  8
0
  6
CONTINUOUS
 62
     1
 10
1510.356467277
 20
584.933974596
 30
0.0
 11
1525.664725201
 21
584.933974596
 31
0.0
  0
LINE
  8
0
  6
CONTINUOUS
 62
     2
 10
1621.164725201
 20
664.933974596
 30
0.0
 11
1624.399963265
 21
677.008047425
 31
0.0
  0
LINE
  8
0
  6
CONTINUOUS
 62
     2
 10
1621.164725201
 20
664.933974596
 30
0.0
 11
1617.929487137
 21
677.008047425
 31
0.0
  0
LINE
  8
0
  6
CONTINUOUS
 62
     2
 10
1621.164725201
 20
639.933974596
 30
0.0
 11
1617.929487137
 21
627.859901768
 31
0.0
  0
LINE
  8
0
  6
CONTINUOUS
 62
     2
 10
1621.164725201
 20
639.933974596
 30
0.0
 11
1624.399963265
 21
627.859901768
 31
0.0
  0
LINE
  8
0
  6
CONTINUOUS
 62
     2
 10
1621.164725201
 20
839.633974596
 30
0.0
 11
1621.164725201
 21
614.933974596
 31
0.0
  0
LINE
  8
0
  6
CONTINUOUS
 62
     2
 10
1598.964725201
 20
652.433974596
 30
0.0
 11
1660.664725201
 21
652.433974596
 31
0.0
  0
TEXT
  8
0
  6
CONTINUOUS
 62
     2
 10
1650.664725201
 20
570.433974596
 30
0.0
 40
18.0
  1
１１９
 50
90.0
 41
0.9
 51
0.0
  7
KANJI37
  0
TEXT
  8
0
  6
CONTINUOUS
 62
     2
 10
1650.664725201
 20
717.933974596
 30
0.0
 40
18.0
  1
１７６
 50
90.0
 41
0.9
 51
0.0
  7
KANJI37
  0
TEXT
  8
0
  6
CONTINUOUS
 62
     2
 10
1616.164725201
 20
672.933974596
 30
0.0
 40
18.0
  1
φ２５Ｈ１０深さ３０
 50
90.0
 41
0.9
 51
0.0
  7
KANJI37
  0
TEXT
  8
7
  6
CONTINUOUS
 62
     2
 10
1650.664725201
 20
884.183974596
 30
0.0
 40
18.0
  1
１３７
 50
90.0
 41
0.9
 51
0.0
  7
KANJI37
  0
LINE
  8
0
  6
CONTINUOUS
 62
     2
 10
1618.164725201
 20
828.433974596
 30
0.0
 11
1660.664725201
 21
828.433974596
 31
0.0
  0
LINE
  8
0
  6
CONTINUOUS
 62
     1
 10
1514.080724432
 20
686.728653484
 30
0.0
 11
1541.304335508
 21
659.505042408
 31
0.0
  0
LINE
  8
0
  6
CONTINUOUS
 62
     1
 10
1546.607636367
 20
650.666207643
 30
0.0
 11
1567.820839802
 21
671.879411079
 31
0.0
  0
LINE
  8
0
  6
CONTINUOUS
 62
     1
 10
1546.607636367
 20
650.666207643
 30
0.0
 11
1560.74977199
 21
636.52407202
 31
0.0
  0
LINE
  8
0
  6
CONTINUOUS
 62
     1
 10
1533.526160915
 20
706.174089966
 30
0.0
 11
1567.820839802
 21
671.879411079
 31
0.0
  0
LINE
  8
0
  6
CONTINUOUS
 62
     1
 10
1517.6017921
 20
690.249721151
 30
0.0
 11
1533.526160915
 21
706.174089966
 31
0.0
  0
LINE
  8
0
  6
CONTINUOUS
 62
     1
 10
1515.480471756
 20
692.371041495
 30
0.0
 11
1531.404840571
 21
708.29541031
 31
0.0
  0
ARC
  8
0
  6
CONTINUOUS
 62
     1
 10
1477.664725201
 20
652.433974596
 30
0.0
 40
65.0
 50
43.699607245
 51
46.300392755
  0
ARC
  8
0
  6
LTYPE1
 62
     2
 10
1477.664725201
 20
652.433974596
 30
0.0
 40
65.0
 50
334.411725786
 51
43.437194054
  0
LINE
  8
0
  6
LTYPE1
 62
     2
 10
1532.992274832
 20
626.264101615
 30
0.0
 11
1527.992274832
 21
617.603847577
 31
0.0
  0
LINE
  8
0
  6
LTYPE1
 62
     2
 10
1532.992274832
 20
626.264101615
 30
0.0
 11
1536.289586002
 21
624.360398123
 31
0.0
  0
LINE
  8
0
  6
LTYPE1
 62
     2
 10
1527.992274832
 20
617.603847577
 30
0.0
 11
1531.289586002
 21
615.700144085
 31
0.0
  0
LINE
  8
0
  6
CONTINUOUS
 62
     1
 10
1510.659674567
 20
586.433974596
 30
0.0
 11
1522.664725201
 21
586.433974596
 31
0.0
  0
LINE
  8
0
  6
CONTINUOUS
 62
     1
 10
1509.159674567
 20
584.933974596
 30
0.0
 11
1510.356467277
 21
584.933974596
 31
0.0
  0
ARC
  8
0
  6
CONTINUOUS
 62
     1
 10
1530.664725201
 20
599.433974596
 30
0.0
 40
9.0
 50
207.266044451
 51
78.392314863
  0
LINE
  8
0
  6
CONTINUOUS
 62
     1
 10
1572.664725201
 20
629.433974596
 30
0.0
 11
1551.001474956
 21
626.775774986
 31
0.0
  0
LINE
  8
0
  6
CONTINUOUS
 62
     1
 10
1544.664725201
 20
593.433974596
 30
0.0
 11
1544.664725201
 21
620.43902523
 31
0.0
  0
LINE
  8
0
  6
CONTINUOUS
 62
     1
 10
1572.664725201
 20
675.433974596
 30
0.0
 11
1563.191601507
 21
676.596378826
 31
0.0
  0
LINE
  8
0
  6
CONTINUOUS
 62
     1
 10
1544.664725201
 20
695.03552568
 30
0.0
 11
1544.664725201
 21
711.433974596
 31
0.0
  0
LINE
  8
0
  6
LTYPE1
 62
     2
 10
1544.664725201
 20
678.256200733
 30
0.0
 11
1544.664725201
 21
695.03552568
 31
0.0
  0
LINE
  8
0
  6
LTYPE1
 62
     2
 10
1563.091601507
 20
676.608649374
 30
0.0
 11
1534.992274832
 21
680.05659086
 31
0.0
  0
LINE
  8
0
  6
LTYPE1
 62
     2
 10
1550.901474956
 20
626.763504437
 30
0.0
 11
1536.289586002
 21
624.970545528
 31
0.0
  0
LINE
  8
0
  6
LTYPE1
 62
     2
 10
1544.664725201
 20
620.43902523
 30
0.0
 11
1544.664725201
 21
626.61174846
 31
0.0
  0
LINE
  8
0
  6
CONTINUOUS
 62
     1
 10
1520.366276285
 20
719.433974596
 30
0.0
 11
1536.664725201
 21
719.433974596
 31
0.0
  0
ARC
  8
0
  6
CONTINUOUS
 62
     1
 10
1530.664725201
 20
705.433974596
 30
0.0
 40
9.0
 50
329.153510351
 51
114.850619232
  0
ARC
  8
0
  6
CONTINUOUS
 62
     1
 10
1530.664725201
 20
705.433974596
 30
0.0
 40
9.0
 50
216.583848886
 51
235.074753283
  0
ARC
  8
0
  6
LTYPE1
 62
     2
 10
1530.664725201
 20
705.433974596
 30
0.0
 40
9.0
 50
114.850619232
 51
214.723387263
  0
ARC
  8
0
  6
LTYPE1
 62
     2
 10
1530.664725201
 20
705.433974596
 30
0.0
 40
9.0
 50
240.878643407
 51
329.153510351
  0
ARC
  8
0
  6
LTYPE1
 62
     2
 10
1477.664725201
 20
817.433974596
 30
0.0
 40
105.0
 50
289.685054825
 51
291.039469781
  0
LINE
  8
0
  6
LTYPE1
 62
     2
 10
1515.360878851
 20
719.433974596
 30
0.0
 11
1520.266276285
 21
719.433974596
 31
0.0
  0
LINE
  8
0
  6
CONTINUOUS
 62
     1
 10
1507.664725201
 20
680.312654253
 30
0.0
 11
1514.080724432
 21
686.728653484
 31
0.0
  0
LINE
  8
0
  6
CONTINUOUS
 62
     1
 10
1507.664725201
 20
625.865432101
 30
0.0
 11
1541.304335508
 21
659.505042408
 31
0.0
  0
LINE
  8
0
  6
CONTINUOUS
 62
     1
 10
1527.964725201
 20
533.433974596
 30
0.0
 11
1517.364725201
 21
533.433974596
 31
0.0
  0
ARC
  8
0
  6
CONTINUOUS
 62
     1
 10
1523.064725201
 20
534.433974596
 30
0.0
 40
5.0
 50
272.3
 51
348.5
  0
ARC
  8
0
  6
CONTINUOUS
 62
     1
 10
1522.264725201
 20
534.433974596
 30
0.0
 40
5.0
 50
191.5
 51
267.7
  0
LINE
  8
0
  6
CONTINUOUS
 62
     1
 10
1523.264725201
 20
529.433974596
 30
0.0
 11
1522.064725201
 21
529.433974596
 31
0.0
  0
LINE
  8
0
  6
LTYPE4
 62
     2
 10
1522.664725201
 20
526.033974596
 30
0.0
 11
1522.664725201
 21
539.433974596
 31
0.0
  0
LINE
  8
0
  6
CONTINUOUS
 62
     2
 10
1570.164725201
 20
436.433974596
 30
0.0
 11
1558.090652372
 21
439.66921266
 31
0.0
  0
LINE
  8
0
  6
CONTINUOUS
 62
     2
 10
1570.164725201
 20
436.433974596
 30
0.0
 11
1558.090652372
 21
433.198736532
 31
0.0
  0
LINE
  8
0
  6
CONTINUOUS
 62
     2
 10
1572.664725201
 20
386.433974596
 30
0.0
 11
1560.590652372
 21
389.66921266
 31
0.0
  0
LINE
  8
0
  6
CONTINUOUS
 62
     2
 10
1572.664725201
 20
386.433974596
 30
0.0
 11
1560.590652372
 21
383.198736532
 31
0.0
  0
LINE
  8
0
  6
LTYPE5
 62
     2
 10
1352.1
 20
777.998699797
 30
0.0
 11
1506.302549839
 21
623.796149958
 31
0.0
  0
LINE
  8
0
  6
CONTINUOUS
 62
     2
 10
1356.399349899
 20
773.699349899
 30
0.0
 11
1355.746769012
 21
785.681592518
 31
0.0
  0
LINE
  8
0
  6
CONTINUOUS
 62
     2
 10
1356.399349899
 20
773.699349899
 30
0.0
 11
1349.843076964
 21
783.749985958
 31
0.0
  0
LINE
  8
0
  6
CONTINUOUS
 62
     1
 10
1354.981698665
 20
665.515450048
 30
0.0
 11
1387.73895599
 21
698.272707374
 31
0.0
  0
LINE
  8
0
  6
LTYPE1
 62
     2
 10
1434.063174117
 20
586.433974596
 30
0.0
 11
1510.659674567
 21
586.433974596
 31
0.0
  0
LINE
  8
0
  6
LTYPE1
 62
     2
 10
1435.563174117
 20
584.933974596
 30
0.0
 11
1509.059674567
 21
584.933974596
 31
0.0
  0
ARC
  8
0
  6
LTYPE1
 62
     2
 10
1424.664725201
 20
599.433974596
 30
0.0
 40
9.0
 50
298.562780092
 51
25.806365577
  0
LINE
  8
0
  6
LTYPE1
 62
     2
 10
1432.664725201
 20
587.832423512
 30
0.0
 11
1432.664725201
 21
605.529816998
 31
0.0
  0
LINE
  8
0
  6
CONTINUOUS
 62
     1
 10
1432.664725201
 20
586.433974596
 30
0.0
 11
1432.664725201
 21
587.832423512
 31
0.0
  0
LINE
  8
0
  6
CONTINUOUS
 62
     1
 10
1432.664725201
 20
586.433974596
 30
0.0
 11
1434.063174117
 21
586.433974596
 31
0.0
  0
ARC
  8
0
  6
LTYPE1
 62
     2
 10
1424.664725201
 20
599.433974596
 30
0.0
 40
9.0
 50
58.93430791
 51
151.437219909
  0
ARC
  8
0
  6
LTYPE1
 62
     2
 10
1530.664725201
 20
599.433974596
 30
0.0
 40
9.0
 50
90.000097237
 51
204.410967115
  0
LINE
  8
0
  6
CONTINUOUS
 62
     1
 10
1522.664725201
 20
586.433974596
 30
0.0
 11
1522.664725201
 21
598.43902523
 31
0.0
  0
LINE
  8
0
  6
LTYPE1
 62
     2
 10
1522.664725201
 20
598.43902523
 30
0.0
 11
1522.664725201
 21
605.529816998
 31
0.0
  0
LINE
  8
0
  6
CONTINUOUS
 62
     2
 10
1655.664725201
 20
652.433974596
 30
0.0
 11
1655.664725201
 21
828.433974596
 31
0.0
  0
LINE
  8
0
  6
CONTINUOUS
 62
     2
 10
1655.664725201
 20
828.433974596
 30
0.0
 11
1652.429487137
 21
816.359901768
 31
0.0
  0
LINE
  8
0
  6
CONTINUOUS
 62
     2
 10
1655.664725201
 20
828.433974596
 30
0.0
 11
1658.899963265
 21
816.359901768
 31
0.0
  0
LINE
  8
7
  6
CONTINUOUS
 62
     2
 10
1655.664725201
 20
828.433974596
 30
0.0
 11
1658.899963265
 21
840.508047425
 31
0.0
  0
LINE
  8
7
  6
CONTINUOUS
 62
     2
 10
1655.664725201
 20
828.433974596
 30
0.0
 11
1652.429487137
 21
840.508047425
 31
0.0
  0
LINE
  8
7
  6
CONTINUOUS
 62
     2
 10
1655.664725201
 20
965.433974596
 30
0.0
 11
1652.429487137
 21
953.359901768
 31
0.0
  0
LINE
  8
7
  6
CONTINUOUS
 62
     2
 10
1655.664725201
 20
965.433974596
 30
0.0
 11
1658.899963265
 21
953.359901768
 31
0.0
  0
LINE
  8
7
  6
CONTINUOUS
 62
     2
 10
1687.364725201
 20
965.433974596
 30
0.0
 11
1684.129487137
 21
953.359901768
 31
0.0
  0
LINE
  8
7
  6
CONTINUOUS
 62
     2
 10
1687.364725201
 20
965.433974596
 30
0.0
 11
1690.599963265
 21
953.359901768
 31
0.0
  0
LINE
  8
7
  6
CONTINUOUS
 62
     2
 10
1655.664725201
 20
828.433974596
 30
0.0
 11
1655.664725201
 21
965.433974596
 31
0.0
  0
LINE
  8
7
  6
CONTINUOUS
 62
     2
 10
1687.364725201
 20
533.433974596
 30
0.0
 11
1687.364725201
 21
965.433974596
 31
0.0
  0
TEXT
  8
7
  6
CONTINUOUS
 62
     2
 10
1682.364725201
 20
736.683974596
 30
0.0
 40
18.0
  1
４３２
 50
90.0
 41
0.9
 51
0.0
  7
KANJI37
  0
LINE
  8
0
  6
CONTINUOUS
 62
     2
 10
1720.55
 20
908.75
 30
0.0
 11
1833.95
 21
908.75
 31
0.0
  0
TEXT
  8
0
  6
CONTINUOUS
 62
     3
 10
1720.55
 20
911.75
 30
0.0
 40
18.0
  1
２－ＰＦ１／２
 50
0.0
 41
0.9
 51
0.0
  7
KANJI37
  0
LINE
  8
0
  6
CONTINUOUS
 62
     2
 10
1655.664725201
 20
533.433974596
 30
0.0
 11
1658.899963265
 21
545.508047425
 31
0.0
  0
LINE
  8
0
  6
CONTINUOUS
 62
     2
 10
1655.664725201
 20
533.433974596
 30
0.0
 11
1652.429487137
 21
545.508047425
 31
0.0
  0
LINE
  8
0
  6
CONTINUOUS
 62
     2
 10
1660.664725201
 20
533.433974596
 30
0.0
 11
1693.414725201
 21
533.433974596
 31
0.0
  0
LINE
  8
0
  6
CONTINUOUS
 62
     2
 10
1655.664725201
 20
652.433974596
 30
0.0
 11
1652.429487137
 21
640.359901768
 31
0.0
  0
LINE
  8
0
  6
CONTINUOUS
 62
     2
 10
1655.664725201
 20
652.433974596
 30
0.0
 11
1658.899963265
 21
640.359901768
 31
0.0
  0
LINE
  8
0
  6
CONTINUOUS
 62
     2
 10
1655.664725201
 20
652.433974596
 30
0.0
 11
1655.664725201
 21
533.433974596
 31
0.0
  0
LINE
  8
0
  6
CONTINUOUS
 62
     2
 10
1655.664725201
 20
652.433974596
 30
0.0
 11
1658.899963265
 21
664.508047425
 31
0.0
  0
LINE
  8
0
  6
CONTINUOUS
 62
     2
 10
1655.664725201
 20
652.433974596
 30
0.0
 11
1652.429487137
 21
664.508047425
 31
0.0
  0
LINE
  8
7
  6
CONTINUOUS
 62
     2
 10
1687.364725201
 20
533.433974596
 30
0.0
 11
1690.599963265
 21
545.508047425
 31
0.0
  0
LINE
  8
7
  6
CONTINUOUS
 62
     2
 10
1687.364725201
 20
533.433974596
 30
0.0
 11
1684.129487137
 21
545.508047425
 31
0.0
  0
LINE
  8
0
  6
CONTINUOUS
 62
     1
 10
1177.94722658
 20
181.833974596
 30
0.0
 11
1213.94722658
 21
181.833974596
 31
0.0
  0
ARC
  8
0
  6
CONTINUOUS
 62
     1
 10
1177.94722658
 20
183.833974596
 30
0.0
 40
2.0
 50
180.0
 51
270.0
  0
ARC
  8
0
  6
CONTINUOUS
 62
     1
 10
1213.94722658
 20
183.833974596
 30
0.0
 40
2.0
 50
270.0
 51
0.0
  0
LINE
  8
0
  6
LTYPE2
 62
     2
 10
1181.07222658
 20
227.033974596
 30
0.0
 11
1211.07222658
 21
227.033974596
 31
0.0
  0
LINE
  8
0
  6
LTYPE2
 62
     2
 10
1211.07222658
 20
227.033974596
 30
0.0
 11
1211.07222658
 21
236.533974596
 31
0.0
  0
LINE
  8
0
  6
LTYPE2
 62
     2
 10
1211.07222658
 20
236.533974596
 30
0.0
 11
1181.07222658
 21
236.533974596
 31
0.0
  0
LINE
  8
0
  6
LTYPE2
 62
     2
 10
1181.07222658
 20
236.533974596
 30
0.0
 11
1181.07222658
 21
227.033974596
 31
0.0
  0
LINE
  8
0
  6
CONTINUOUS
 62
     1
 10
1181.07222658
 20
197.033974596
 30
0.0
 11
1211.07222658
 21
197.033974596
 31
0.0
  0
LINE
  8
0
  6
CONTINUOUS
 62
     1
 10
1211.07222658
 20
197.033974596
 30
0.0
 11
1211.07222658
 21
206.533974596
 31
0.0
  0
LINE
  8
0
  6
CONTINUOUS
 62
     1
 10
1211.07222658
 20
206.533974596
 30
0.0
 11
1181.07222658
 21
206.533974596
 31
0.0
  0
LINE
  8
0
  6
CONTINUOUS
 62
     1
 10
1181.07222658
 20
206.533974596
 30
0.0
 11
1181.07222658
 21
197.033974596
 31
0.0
  0
POLYLINE
  8
0
  6
CONTINUOUS
 62
     2
 66
     1
 70
     1
  0
VERTEX
  8
0
  6
CONTINUOUS
 62
     2
 10
1190.84722658
 20
194.733974596
 30
0.0
 42
-0.021820078
  0
VERTEX
  8
0
  6
CONTINUOUS
 62
     2
 10
1190.838664651
 20
194.537874175
 30
0.0
 42
-0.021820078
  0
VERTEX
  8
0
  6
CONTINUOUS
 62
     2
 10
1190.813044024
 20
194.343266196
 30
0.0
 42
-0.021820078
  0
VERTEX
  8
0
  6
CONTINUOUS
 62
     2
 10
1190.770559689
 20
194.151631745
 30
0.0
 42
-0.021820078
  0
VERTEX
  8
0
  6
CONTINUOUS
 62
     2
 10
1190.711534977
 20
193.964429274
 30
0.0
 42
-0.021820078
  0
VERTEX
  8
0
  6
CONTINUOUS
 62
     2
 10
1190.636419101
 20
193.783083507
 30
0.0
 42
-0.021820078
  0
VERTEX
  8
0
  6
CONTINUOUS
 62
     2
 10
1190.545783739
 20
193.608974596
 30
0.0
 42
-0.021820078
  0
VERTEX
  8
0
  6
CONTINUOUS
 62
     2
 10
1190.44031868
 20
193.443427614
 30
0.0
 42
-0.021820078
  0
VERTEX
  8
0
  6
CONTINUOUS
 62
     2
 10
1190.320826577
 20
193.287702474
 30
0.0
 42
-0.021820078
  0
VERTEX
  8
0
  6
CONTINUOUS
 62
     2
 10
1190.188216838
 20
193.142984339
 30
0.0
 42
-0.021820078
  0
VERTEX
  8
0
  6
CONTINUOUS
 62
     2
 10
1190.043498702
 20
193.010374599
 30
0.0
 42
-0.021820078
  0
VERTEX
  8
0
  6
CONTINUOUS
 62
     2
 10
1189.887773562
 20
192.890882497
 30
0.0
 42
-0.021820078
  0
VERTEX
  8
0
  6
CONTINUOUS
 62
     2
 10
1189.72222658
 20
192.785417438
 30
0.0
 42
-0.021820078
  0
VERTEX
  8
0
  6
CONTINUOUS
 62
     2
 10
1189.548117669
 20
192.694782075
 30
0.0
 42
-0.021820078
  0
VERTEX
  8
0
  6
CONTINUOUS
 62
     2
 10
1189.366771903
 20
192.619666199
 30
0.0
 42
-0.021820078
  0
VERTEX
  8
0
  6
CONTINUOUS
 62
     2
 10
1189.179569432
 20
192.560641487
 30
0.0
 42
-0.021820078
  0
VERTEX
  8
0
  6
CONTINUOUS
 62
     2
 10
1188.98793498
 20
192.518157152
 30
0.0
 42
-0.021820078
  0
VERTEX
  8
0
  6
CONTINUOUS
 62
     2
 10
1188.793327001
 20
192.492536526
 30
0.0
 42
-0.021820078
  0
VERTEX
  8
0
  6
CONTINUOUS
 62
     2
 10
1188.59722658
 20
192.483974596
 30
0.0
 42
-0.021820078
  0
VERTEX
  8
0
  6
CONTINUOUS
 62
     2
 10
1188.401126159
 20
192.492536526
 30
0.0
 42
-0.021820078
  0
VERTEX
  8
0
  6
CONTINUOUS
 62
     2
 10
1188.20651818
 20
192.518157152
 30
0.0
 42
-0.021820078
  0
VERTEX
  8
0
  6
CONTINUOUS
 62
     2
 10
1188.014883729
 20
192.560641487
 30
0.0
 42
-0.021820078
  0
VERTEX
  8
0
  6
CONTINUOUS
 62
     2
 10
1187.827681258
 20
192.619666199
 30
0.0
 42
-0.021820078
  0
VERTEX
  8
0
  6
CONTINUOUS
 62
     2
 10
1187.646335491
 20
192.694782075
 30
0.0
 42
-0.021820078
  0
VERTEX
  8
0
  6
CONTINUOUS
 62
     2
 10
1187.47222658
 20
192.785417438
 30
0.0
 42
-0.021820078
  0
VERTEX
  8
0
  6
CONTINUOUS
 62
     2
 10
1187.306679598
 20
192.890882497
 30
0.0
 42
-0.021820078
  0
VERTEX
  8
0
  6
CONTINUOUS
 62
     2
 10
1187.150954458
 20
193.010374599
 30
0.0
 42
-0.021820078
  0
VERTEX
  8
0
  6
CONTINUOUS
 62
     2
 10
1187.006236323
 20
193.142984339
 30
0.0
 42
-0.021820078
  0
VERTEX
  8
0
  6
CONTINUOUS
 62
     2
 10
1186.873626583
 20
193.287702474
 30
0.0
 42
-0.021820078
  0
VERTEX
  8
0
  6
CONTINUOUS
 62
     2
 10
1186.754134481
 20
193.443427614
 30
0.0
 42
-0.021820078
  0
VERTEX
  8
0
  6
CONTINUOUS
 62
     2
 10
1186.648669422
 20
193.608974596
 30
0.0
 42
-0.021820078
  0
VERTEX
  8
0
  6
CONTINUOUS
 62
     2
 10
1186.558034059
 20
193.783083507
 30
0.0
 42
-0.021820078
  0
VERTEX
  8
0
  6
CONTINUOUS
 62
     2
 10
1186.482918183
 20
193.964429274
 30
0.0
 42
-0.021820078
  0
VERTEX
  8
0
  6
CONTINUOUS
 62
     2
 10
1186.423893471
 20
194.151631745
 30
0.0
 42
-0.021820078
  0
VERTEX
  8
0
  6
CONTINUOUS
 62
     2
 10
1186.381409136
 20
194.343266196
 30
0.0
 42
-0.021820078
  0
VERTEX
  8
0
  6
CONTINUOUS
 62
     2
 10
1186.35578851
 20
194.537874175
 30
0.0
 42
-0.021820078
  0
VERTEX
  8
0
  6
CONTINUOUS
 62
     2
 10
1186.34722658
 20
194.733974596
 30
0.0
 42
-0.021820078
  0
VERTEX
  8
0
  6
CONTINUOUS
 62
     2
 10
1186.35578851
 20
194.930075017
 30
0.0
 42
-0.021820078
  0
VERTEX
  8
0
  6
CONTINUOUS
 62
     2
 10
1186.381409136
 20
195.124682996
 30
0.0
 42
-0.021820078
  0
VERTEX
  8
0
  6
CONTINUOUS
 62
     2
 10
1186.423893471
 20
195.316317448
 30
0.0
 42
-0.021820078
  0
VERTEX
  8
0
  6
CONTINUOUS
 62
     2
 10
1186.482918183
 20
195.503519919
 30
0.0
 42
-0.021820078
  0
VERTEX
  8
0
  6
CONTINUOUS
 62
     2
 10
1186.558034059
 20
195.684865685
 30
0.0
 42
-0.021820078
  0
VERTEX
  8
0
  6
CONTINUOUS
 62
     2
 10
1186.648669422
 20
195.858974596
 30
0.0
 42
-0.021820078
  0
VERTEX
  8
0
  6
CONTINUOUS
 62
     2
 10
1186.754134481
 20
196.024521578
 30
0.0
 42
-0.021820078
  0
VERTEX
  8
0
  6
CONTINUOUS
 62
     2
 10
1186.873626583
 20
196.180246718
 30
0.0
 42
-0.021820078
  0
VERTEX
  8
0
  6
CONTINUOUS
 62
     2
 10
1187.006236323
 20
196.324964854
 30
0.0
 42
-0.021820078
  0
VERTEX
  8
0
  6
CONTINUOUS
 62
     2
 10
1187.150954458
 20
196.457574593
 30
0.0
 42
-0.021820078
  0
VERTEX
  8
0
  6
CONTINUOUS
 62
     2
 10
1187.306679598
 20
196.577066696
 30
0.0
 42
-0.021820078
  0
VERTEX
  8
0
  6
CONTINUOUS
 62
     2
 10
1187.47222658
 20
196.682531755
 30
0.0
 42
-0.021820078
  0
VERTEX
  8
0
  6
CONTINUOUS
 62
     2
 10
1187.646335491
 20
196.773167117
 30
0.0
 42
-0.021820078
  0
VERTEX
  8
0
  6
CONTINUOUS
 62
     2
 10
1187.827681258
 20
196.848282993
 30
0.0
 42
-0.021820078
  0
VERTEX
  8
0
  6
CONTINUOUS
 62
     2
 10
1188.014883729
 20
196.907307705
 30
0.0
 42
-0.021820078
  0
VERTEX
  8
0
  6
CONTINUOUS
 62
     2
 10
1188.20651818
 20
196.94979204
 30
0.0
 42
-0.021820078
  0
VERTEX
  8
0
  6
CONTINUOUS
 62
     2
 10
1188.401126159
 20
196.975412667
 30
0.0
 42
-0.021820078
  0
VERTEX
  8
0
  6
CONTINUOUS
 62
     2
 10
1188.59722658
 20
196.983974596
 30
0.0
 42
-0.021820078
  0
VERTEX
  8
0
  6
CONTINUOUS
 62
     2
 10
1188.793327001
 20
196.975412667
 30
0.0
 42
-0.021820078
  0
VERTEX
  8
0
  6
CONTINUOUS
 62
     2
 10
1188.98793498
 20
196.94979204
 30
0.0
 42
-0.021820078
  0
VERTEX
  8
0
  6
CONTINUOUS
 62
     2
 10
1189.179569432
 20
196.907307705
 30
0.0
 42
-0.021820078
  0
VERTEX
  8
0
  6
CONTINUOUS
 62
     2
 10
1189.366771903
 20
196.848282993
 30
0.0
 42
-0.021820078
  0
VERTEX
  8
0
  6
CONTINUOUS
 62
     2
 10
1189.548117669
 20
196.773167117
 30
0.0
 42
-0.021820078
  0
VERTEX
  8
0
  6
CONTINUOUS
 62
     2
 10
1189.72222658
 20
196.682531755
 30
0.0
 42
-0.021820078
  0
VERTEX
  8
0
  6
CONTINUOUS
 62
     2
 10
1189.887773562
 20
196.577066696
 30
0.0
 42
-0.021820078
  0
VERTEX
  8
0
  6
CONTINUOUS
 62
     2
 10
1190.043498702
 20
196.457574593
 30
0.0
 42
-0.021820078
  0
VERTEX
  8
0
  6
CONTINUOUS
 62
     2
 10
1190.188216838
 20
196.324964854
 30
0.0
 42
-0.021820078
  0
VERTEX
  8
0
  6
CONTINUOUS
 62
     2
 10
1190.320826577
 20
196.180246718
 30
0.0
 42
-0.021820078
  0
VERTEX
  8
0
  6
CONTINUOUS
 62
     2
 10
1190.44031868
 20
196.024521578
 30
0.0
 42
-0.021820078
  0
VERTEX
  8
0
  6
CONTINUOUS
 62
     2
 10
1190.545783739
 20
195.858974596
 30
0.0
 42
-0.021820078
  0
VERTEX
  8
0
  6
CONTINUOUS
 62
     2
 10
1190.636419101
 20
195.684865685
 30
0.0
 42
-0.021820078
  0
VERTEX
  8
0
  6
CONTINUOUS
 62
     2
 10
1190.711534977
 20
195.503519919
 30
0.0
 42
-0.021820078
  0
VERTEX
  8
0
  6
CONTINUOUS
 62
     2
 10
1190.770559689
 20
195.316317448
 30
0.0
 42
-0.021820078
  0
VERTEX
  8
0
  6
CONTINUOUS
 62
     2
 10
1190.813044024
 20
195.124682996
 30
0.0
 42
-0.021820078
  0
VERTEX
  8
0
  6
CONTINUOUS
 62
     2
 10
1190.838664651
 20
194.930075017
 30
0.0
 42
-0.021820078
  0
SEQEND
  8
0
  6
CONTINUOUS
 62
     2
  0
POLYLINE
  8
0
  6
CONTINUOUS
 62
     2
 66
     1
 70
     1
  0
VERTEX
  8
0
  6
CONTINUOUS
 62
     2
 10
1205.84722658
 20
194.733974596
 30
0.0
 42
-0.021820078
  0
VERTEX
  8
0
  6
CONTINUOUS
 62
     2
 10
1205.838664651
 20
194.537874175
 30
0.0
 42
-0.021820078
  0
VERTEX
  8
0
  6
CONTINUOUS
 62
     2
 10
1205.813044024
 20
194.343266196
 30
0.0
 42
-0.021820078
  0
VERTEX
  8
0
  6
CONTINUOUS
 62
     2
 10
1205.770559689
 20
194.151631745
 30
0.0
 42
-0.021820078
  0
VERTEX
  8
0
  6
CONTINUOUS
 62
     2
 10
1205.711534977
 20
193.964429274
 30
0.0
 42
-0.021820078
  0
VERTEX
  8
0
  6
CONTINUOUS
 62
     2
 10
1205.636419101
 20
193.783083507
 30
0.0
 42
-0.021820078
  0
VERTEX
  8
0
  6
CONTINUOUS
 62
     2
 10
1205.545783739
 20
193.608974596
 30
0.0
 42
-0.021820078
  0
VERTEX
  8
0
  6
CONTINUOUS
 62
     2
 10
1205.44031868
 20
193.443427614
 30
0.0
 42
-0.021820078
  0
VERTEX
  8
0
  6
CONTINUOUS
 62
     2
 10
1205.320826577
 20
193.287702474
 30
0.0
 42
-0.021820078
  0
VERTEX
  8
0
  6
CONTINUOUS
 62
     2
 10
1205.188216838
 20
193.142984339
 30
0.0
 42
-0.021820078
  0
VERTEX
  8
0
  6
CONTINUOUS
 62
     2
 10
1205.043498702
 20
193.010374599
 30
0.0
 42
-0.021820078
  0
VERTEX
  8
0
  6
CONTINUOUS
 62
     2
 10
1204.887773562
 20
192.890882497
 30
0.0
 42
-0.021820078
  0
VERTEX
  8
0
  6
CONTINUOUS
 62
     2
 10
1204.72222658
 20
192.785417438
 30
0.0
 42
-0.021820078
  0
VERTEX
  8
0
  6
CONTINUOUS
 62
     2
 10
1204.548117669
 20
192.694782075
 30
0.0
 42
-0.021820078
  0
VERTEX
  8
0
  6
CONTINUOUS
 62
     2
 10
1204.366771903
 20
192.619666199
 30
0.0
 42
-0.021820078
  0
VERTEX
  8
0
  6
CONTINUOUS
 62
     2
 10
1204.179569432
 20
192.560641487
 30
0.0
 42
-0.021820078
  0
VERTEX
  8
0
  6
CONTINUOUS
 62
     2
 10
1203.98793498
 20
192.518157152
 30
0.0
 42
-0.021820078
  0
VERTEX
  8
0
  6
CONTINUOUS
 62
     2
 10
1203.793327001
 20
192.492536526
 30
0.0
 42
-0.021820078
  0
VERTEX
  8
0
  6
CONTINUOUS
 62
     2
 10
1203.59722658
 20
192.483974596
 30
0.0
 42
-0.021820078
  0
VERTEX
  8
0
  6
CONTINUOUS
 62
     2
 10
1203.401126159
 20
192.492536526
 30
0.0
 42
-0.021820078
  0
VERTEX
  8
0
  6
CONTINUOUS
 62
     2
 10
1203.20651818
 20
192.518157152
 30
0.0
 42
-0.021820078
  0
VERTEX
  8
0
  6
CONTINUOUS
 62
     2
 10
1203.014883729
 20
192.560641487
 30
0.0
 42
-0.021820078
  0
VERTEX
  8
0
  6
CONTINUOUS
 62
     2
 10
1202.827681258
 20
192.619666199
 30
0.0
 42
-0.021820078
  0
VERTEX
  8
0
  6
CONTINUOUS
 62
     2
 10
1202.646335491
 20
192.694782075
 30
0.0
 42
-0.021820078
  0
VERTEX
  8
0
  6
CONTINUOUS
 62
     2
 10
1202.47222658
 20
192.785417438
 30
0.0
 42
-0.021820078
  0
VERTEX
  8
0
  6
CONTINUOUS
 62
     2
 10
1202.306679598
 20
192.890882497
 30
0.0
 42
-0.021820078
  0
VERTEX
  8
0
  6
CONTINUOUS
 62
     2
 10
1202.150954458
 20
193.010374599
 30
0.0
 42
-0.021820078
  0
VERTEX
  8
0
  6
CONTINUOUS
 62
     2
 10
1202.006236323
 20
193.142984339
 30
0.0
 42
-0.021820078
  0
VERTEX
  8
0
  6
CONTINUOUS
 62
     2
 10
1201.873626583
 20
193.287702474
 30
0.0
 42
-0.021820078
  0
VERTEX
  8
0
  6
CONTINUOUS
 62
     2
 10
1201.754134481
 20
193.443427614
 30
0.0
 42
-0.021820078
  0
VERTEX
  8
0
  6
CONTINUOUS
 62
     2
 10
1201.648669422
 20
193.608974596
 30
0.0
 42
-0.021820078
  0
VERTEX
  8
0
  6
CONTINUOUS
 62
     2
 10
1201.558034059
 20
193.783083507
 30
0.0
 42
-0.021820078
  0
VERTEX
  8
0
  6
CONTINUOUS
 62
     2
 10
1201.482918183
 20
193.964429274
 30
0.0
 42
-0.021820078
  0
VERTEX
  8
0
  6
CONTINUOUS
 62
     2
 10
1201.423893471
 20
194.151631745
 30
0.0
 42
-0.021820078
  0
VERTEX
  8
0
  6
CONTINUOUS
 62
     2
 10
1201.381409136
 20
194.343266196
 30
0.0
 42
-0.021820078
  0
VERTEX
  8
0
  6
CONTINUOUS
 62
     2
 10
1201.35578851
 20
194.537874175
 30
0.0
 42
-0.021820078
  0
VERTEX
  8
0
  6
CONTINUOUS
 62
     2
 10
1201.34722658
 20
194.733974596
 30
0.0
 42
-0.021820078
  0
VERTEX
  8
0
  6
CONTINUOUS
 62
     2
 10
1201.35578851
 20
194.930075017
 30
0.0
 42
-0.021820078
  0
VERTEX
  8
0
  6
CONTINUOUS
 62
     2
 10
1201.381409136
 20
195.124682996
 30
0.0
 42
-0.021820078
  0
VERTEX
  8
0
  6
CONTINUOUS
 62
     2
 10
1201.423893471
 20
195.316317448
 30
0.0
 42
-0.021820078
  0
VERTEX
  8
0
  6
CONTINUOUS
 62
     2
 10
1201.482918183
 20
195.503519919
 30
0.0
 42
-0.021820078
  0
VERTEX
  8
0
  6
CONTINUOUS
 62
     2
 10
1201.558034059
 20
195.684865685
 30
0.0
 42
-0.021820078
  0
VERTEX
  8
0
  6
CONTINUOUS
 62
     2
 10
1201.648669422
 20
195.858974596
 30
0.0
 42
-0.021820078
  0
VERTEX
  8
0
  6
CONTINUOUS
 62
     2
 10
1201.754134481
 20
196.024521578
 30
0.0
 42
-0.021820078
  0
VERTEX
  8
0
  6
CONTINUOUS
 62
     2
 10
1201.873626583
 20
196.180246718
 30
0.0
 42
-0.021820078
  0
VERTEX
  8
0
  6
CONTINUOUS
 62
     2
 10
1202.006236323
 20
196.324964854
 30
0.0
 42
-0.021820078
  0
VERTEX
  8
0
  6
CONTINUOUS
 62
     2
 10
1202.150954458
 20
196.457574593
 30
0.0
 42
-0.021820078
  0
VERTEX
  8
0
  6
CONTINUOUS
 62
     2
 10
1202.306679598
 20
196.577066696
 30
0.0
 42
-0.021820078
  0
VERTEX
  8
0
  6
CONTINUOUS
 62
     2
 10
1202.47222658
 20
196.682531755
 30
0.0
 42
-0.021820078
  0
VERTEX
  8
0
  6
CONTINUOUS
 62
     2
 10
1202.646335491
 20
196.773167117
 30
0.0
 42
-0.021820078
  0
VERTEX
  8
0
  6
CONTINUOUS
 62
     2
 10
1202.827681258
 20
196.848282993
 30
0.0
 42
-0.021820078
  0
VERTEX
  8
0
  6
CONTINUOUS
 62
     2
 10
1203.014883729
 20
196.907307705
 30
0.0
 42
-0.021820078
  0
VERTEX
  8
0
  6
CONTINUOUS
 62
     2
 10
1203.20651818
 20
196.94979204
 30
0.0
 42
-0.021820078
  0
VERTEX
  8
0
  6
CONTINUOUS
 62
     2
 10
1203.401126159
 20
196.975412667
 30
0.0
 42
-0.021820078
  0
VERTEX
  8
0
  6
CONTINUOUS
 62
     2
 10
1203.59722658
 20
196.983974596
 30
0.0
 42
-0.021820078
  0
VERTEX
  8
0
  6
CONTINUOUS
 62
     2
 10
1203.793327001
 20
196.975412667
 30
0.0
 42
-0.021820078
  0
VERTEX
  8
0
  6
CONTINUOUS
 62
     2
 10
1203.98793498
 20
196.94979204
 30
0.0
 42
-0.021820078
  0
VERTEX
  8
0
  6
CONTINUOUS
 62
     2
 10
1204.179569432
 20
196.907307705
 30
0.0
 42
-0.021820078
  0
VERTEX
  8
0
  6
CONTINUOUS
 62
     2
 10
1204.366771903
 20
196.848282993
 30
0.0
 42
-0.021820078
  0
VERTEX
  8
0
  6
CONTINUOUS
 62
     2
 10
1204.548117669
 20
196.773167117
 30
0.0
 42
-0.021820078
  0
VERTEX
  8
0
  6
CONTINUOUS
 62
     2
 10
1204.72222658
 20
196.682531755
 30
0.0
 42
-0.021820078
  0
VERTEX
  8
0
  6
CONTINUOUS
 62
     2
 10
1204.887773562
 20
196.577066696
 30
0.0
 42
-0.021820078
  0
VERTEX
  8
0
  6
CONTINUOUS
 62
     2
 10
1205.043498702
 20
196.457574593
 30
0.0
 42
-0.021820078
  0
VERTEX
  8
0
  6
CONTINUOUS
 62
     2
 10
1205.188216838
 20
196.324964854
 30
0.0
 42
-0.021820078
  0
VERTEX
  8
0
  6
CONTINUOUS
 62
     2
 10
1205.320826577
 20
196.180246718
 30
0.0
 42
-0.021820078
  0
VERTEX
  8
0
  6
CONTINUOUS
 62
     2
 10
1205.44031868
 20
196.024521578
 30
0.0
 42
-0.021820078
  0
VERTEX
  8
0
  6
CONTINUOUS
 62
     2
 10
1205.545783739
 20
195.858974596
 30
0.0
 42
-0.021820078
  0
VERTEX
  8
0
  6
CONTINUOUS
 62
     2
 10
1205.636419101
 20
195.684865685
 30
0.0
 42
-0.021820078
  0
VERTEX
  8
0
  6
CONTINUOUS
 62
     2
 10
1205.711534977
 20
195.503519919
 30
0.0
 42
-0.021820078
  0
VERTEX
  8
0
  6
CONTINUOUS
 62
     2
 10
1205.770559689
 20
195.316317448
 30
0.0
 42
-0.021820078
  0
VERTEX
  8
0
  6
CONTINUOUS
 62
     2
 10
1205.813044024
 20
195.124682996
 30
0.0
 42
-0.021820078
  0
VERTEX
  8
0
  6
CONTINUOUS
 62
     2
 10
1205.838664651
 20
194.930075017
 30
0.0
 42
-0.021820078
  0
SEQEND
  8
0
  6
CONTINUOUS
 62
     2
  0
TEXT
  8
0
  6
CONTINUOUS
 62
     2
 10
1179.84722658
 20
184.333974596
 30
0.0
 40
10.0
  1
１
 50
0.0
 41
0.85
 51
0.0
  7
KANJI40
  0
TEXT
  8
0
  6
CONTINUOUS
 62
     2
 10
1204.84722658
 20
184.333974596
 30
0.0
 40
10.0
  1
２
 50
0.0
 41
0.85
 51
0.0
  7
KANJI40
  0
TEXT
  8
0
  6
CONTINUOUS
 62
     2
 10
1147.94722658
 20
181.533974596
 30
0.0
 40
10.0
  1
（ＮＣ）
 50
0.0
 41
0.75
 51
0.0
  7
KANJI41
  0
TEXT
  8
0
  6
CONTINUOUS
 62
     2
 10
1213.94722658
 20
181.533974596
 30
0.0
 40
10.0
  1
（ＮＣ）
 50
0.0
 41
0.75
 51
0.0
  7
KANJI41
  0
TEXT
  8
0
  6
CONTINUOUS
 62
     2
 10
1131.82222658
 20
152.533974596
 30
0.0
 40
15.0
  1
外部ＬＳリミットＳＷ
 50
0.0
 41
0.9
 51
0.0
  7
KANJI36
  0
TEXT
  8
0
  6
CONTINUOUS
 62
     2
 10
1169.07222658
 20
133.533974596
 30
0.0
 40
15.0
  1
端子符号
 50
0.0
 41
0.9
 51
0.0
  7
KANJI36
  0
LINE
  8
0
  6
CONTINUOUS
 62
     2
 10
1228.57222658
 20
140.033974596
 30
0.0
 11
1273.57222658
 21
140.033974596
 31
0.0
  0
LINE
  8
0
  6
CONTINUOUS
 62
     2
 10
1120.32222658
 20
140.033974596
 30
0.0
 11
1159.32222658
 21
140.033974596
 31
0.0
  0
LINE
  8
0
  6
LTYPE2
 62
     2
 10
940.64722658
 20
191.933974596
 30
0.0
 11
940.64722658
 21
518.933974596
 31
0.0
  0
ARC
  8
0
  6
CONTINUOUS
 62
     1
 10
885.64722658
 20
298.533974596
 30
0.0
 40
10.0
 50
90.0
 51
180.0
  0
LINE
  8
0
  6
LTYPE3
 62
     2
 10
1006.908247797
 20
284.033974596
 30
0.0
 11
915.64722658
 21
284.033974596
 31
0.0
  0
LINE
  8
7
  6
CONTINUOUS
 62
     2
 10
919.24722658
 20
284.033974596
 30
0.0
 11
910.938748691
 21
278.468977277
 31
0.0
  0
LINE
  8
7
  6
CONTINUOUS
 62
     2
 10
919.24722658
 20
284.033974596
 30
0.0
 11
914.83437232
 21
275.060306601
 31
0.0
  0
LINE
  8
7
  6
CONTINUOUS
 62
     2
 10
919.24722658
 20
284.033974596
 30
0.0
 11
908.04722658
 21
271.233974596
 31
0.0
  0
LINE
  8
7
  6
CONTINUOUS
 62
     2
 10
908.04722658
 20
271.233974596
 30
0.0
 11
849.24722658
 21
271.233974596
 31
0.0
  0
TEXT
  8
7
  6
CONTINUOUS
 62
     2
 10
849.24722658
 20
275.233974596
 30
1.2
 40
12.0
  1
ＰＦ１／２
 50
0.0
 41
0.9
 51
0.0
  7
KANJI45
  0
LINE
  8
0
  6
CONTINUOUS
 62
     1
 10
875.64722658
 20
288.233974596
 30
0.0
 11
875.64722658
 21
298.533974596
 31
0.0
  0
LINE
  8
0
  6
CONTINUOUS
 62
     1
 10
875.64722658
 20
234.033974596
 30
0.0
 11
875.64722658
 21
268.233974596
 31
0.0
  0
LINE
  8
0
  6
LTYPE3
 62
     2
 10
930.68722658
 20
299.133974596
 30
0.0
 11
919.24722658
 21
299.133974596
 31
0.0
  0
LINE
  8
0
  6
LTYPE3
 62
     2
 10
924.24722658
 20
303.033974596
 30
0.0
 11
924.24722658
 21
294.053974596
 31
0.0
  0
LINE
  8
0
  6
CONTINUOUS
 62
     1
 10
919.24722658
 20
302.033974596
 30
0.0
 11
919.24722658
 21
266.033974596
 31
0.0
  0
LINE
  8
0
  6
LTYPE3
 62
     2
 10
930.14722658
 20
268.933974596
 30
0.0
 11
919.24722658
 21
268.933974596
 31
0.0
  0
LINE
  8
0
  6
LTYPE3
 62
     2
 10
924.24722658
 20
274.953974596
 30
0.0
 11
924.24722658
 21
265.033974596
 31
0.0
  0
LINE
  8
0
  6
CONTINUOUS
 62
     1
 10
985.94722658
 20
264.033974596
 30
0.0
 11
921.24722658
 21
264.033974596
 31
0.0
  0
ARC
  8
0
  6
CONTINUOUS
 62
     1
 10
921.24722658
 20
266.033974596
 30
0.0
 40
2.0
 50
180.0
 51
270.0
  0
LINE
  8
0
  6
CONTINUOUS
 62
     1
 10
1005.64722658
 20
296.733974596
 30
0.0
 11
1005.64722658
 21
298.533974596
 31
0.0
  0
ARC
  8
0
  6
CONTINUOUS
 62
     1
 10
995.64722658
 20
298.533974596
 30
0.0
 40
10.0
 50
0.0
 51
90.0
  0
LINE
  8
0
  6
CONTINUOUS
 62
     1
 10
1005.64722658
 20
249.578336316
 30
0.0
 11
1005.64722658
 21
271.383974596
 31
0.0
  0
LINE
  8
0
  6
LTYPE3
 62
     2
 10
987.94722658
 20
299.133974596
 30
0.0
 11
977.98722658
 21
299.133974596
 31
0.0
  0
LINE
  8
0
  6
LTYPE3
 62
     2
 10
982.94722658
 20
303.033974596
 30
0.0
 11
982.94722658
 21
295.153974596
 31
0.0
  0
LINE
  8
0
  6
CONTINUOUS
 62
     1
 10
1011.34722658
 20
296.733974596
 30
0.0
 11
987.94722658
 21
296.733974596
 31
0.0
  0
LINE
  8
0
  6
CONTINUOUS
 62
     1
 10
987.94722658
 20
302.033974596
 30
0.0
 11
987.94722658
 21
266.033974596
 31
0.0
  0
LINE
  8
0
  6
LTYPE3
 62
     2
 10
987.94722658
 20
268.933974596
 30
0.0
 11
978.14722658
 21
268.933974596
 31
0.0
  0
LINE
  8
0
  6
LTYPE3
 62
     2
 10
982.94722658
 20
275.053974596
 30
0.0
 11
982.94722658
 21
265.033974596
 31
0.0
  0
ARC
  8
0
  6
CONTINUOUS
 62
     1
 10
985.94722658
 20
266.033974596
 30
0.0
 40
2.0
 50
270.0
 51
0.0
  0
LINE
  8
0
  6
CONTINUOUS
 62
     1
 10
992.308247797
 20
271.333974596
 30
0.0
 11
987.94722658
 21
271.333974596
 31
0.0
  0
ARC
  8
0
  6
CONTINUOUS
 62
     1
 10
1011.34722658
 20
294.733974596
 30
0.0
 40
2.0
 50
0.0
 51
90.0
  0
LINE
  8
0
  6
CONTINUOUS
 62
     1
 10
1013.34722658
 20
294.733974596
 30
0.0
 11
1013.34722658
 21
273.333974596
 31
0.0
  0
ARC
  8
0
  6
CONTINUOUS
 62
     1
 10
997.64722658
 20
284.033974596
 30
0.0
 40
6.0
 50
356.983045121
 51
183.016954879
  0
LINE
  8
0
  6
LTYPE3
 62
     2
 10
997.64722658
 20
293.133974596
 30
0.0
 11
997.64722658
 21
235.633974596
 31
0.0
  0
LINE
  8
0
  6
CONTINUOUS
 62
     1
 10
1003.638910568
 20
283.718185123
 30
0.0
 11
1001.641682572
 21
245.82344828
 31
0.0
  0
LINE
  8
0
  6
CONTINUOUS
 62
     1
 10
991.655542593
 20
283.718185123
 30
0.0
 11
993.652770588
 21
245.82344828
 31
0.0
  0
ARC
  8
0
  6
CONTINUOUS
 62
     1
 10
1011.34722658
 20
273.333974596
 30
0.0
 40
2.0
 50
270.0
 51
0.0
  0
LINE
  8
0
  6
CONTINUOUS
 62
     1
 10
1011.34722658
 20
271.333974596
 30
0.0
 11
1002.986205363
 21
271.333974596
 31
0.0
  0
LINE
  8
0
  6
CONTINUOUS
 62
     1
 10
885.64722658
 20
308.533974596
 30
0.0
 11
995.64722658
 21
308.533974596
 31
0.0
  0
LINE
  8
0
  6
CONTINUOUS
 62
     1
 10
985.94722658
 20
304.033974596
 30
0.0
 11
921.24722658
 21
304.033974596
 31
0.0
  0
ARC
  8
0
  6
CONTINUOUS
 62
     1
 10
921.24722658
 20
302.033974596
 30
0.0
 40
2.0
 50
90.0
 51
180.0
  0
ARC
  8
0
  6
CONTINUOUS
 62
     1
 10
985.94722658
 20
302.033974596
 30
0.0
 40
2.0
 50
0.0
 51
90.0
  0
LINE
  8
0
  6
CONTINUOUS
 62
     2
 10
879.64722658
 20
308.533974596
 30
0.0
 11
822.0
 21
308.533974596
 31
0.0
  0
LINE
  8
0
  6
CONTINUOUS
 62
     2
 10
828.0
 20
308.533974596
 30
0.0
 11
824.894171459
 21
296.942864681
 31
0.0
  0
LINE
  8
0
  6
CONTINUOUS
 62
     2
 10
828.0
 20
308.533974596
 30
0.0
 11
831.105828541
 21
296.942864681
 31
0.0
  0
LINE
  8
0
  6
CONTINUOUS
 62
     2
 10
828.0
 20
308.533974596
 30
0.0
 11
828.0
 21
143.533974596
 31
0.0
  0
LINE
  8
0
  6
CONTINUOUS
 62
     1
 10
924.64722658
 20
242.033974596
 30
0.0
 11
956.64722658
 21
242.033974596
 31
0.0
  0
LINE
  8
0
  6
CONTINUOUS
 62
     1
 10
924.64722658
 20
210.033974596
 30
0.0
 11
924.64722658
 21
242.033974596
 31
0.0
  0
LINE
  8
0
  6
CONTINUOUS
 62
     1
 10
956.64722658
 20
210.033974596
 30
0.0
 11
924.64722658
 21
210.033974596
 31
0.0
  0
LINE
  8
0
  6
LTYPE3
 62
     2
 10
893.34722658
 20
152.933974596
 30
0.0
 11
903.30722658
 21
152.933974596
 31
0.0
  0
LINE
  8
0
  6
LTYPE3
 62
     2
 10
898.34722658
 20
149.033974596
 30
0.0
 11
898.34722658
 21
156.913974596
 31
0.0
  0
LINE
  8
0
  6
LTYPE3
 62
     2
 10
893.34722658
 20
183.133974596
 30
0.0
 11
903.14722658
 21
183.133974596
 31
0.0
  0
LINE
  8
0
  6
LTYPE3
 62
     2
 10
898.34722658
 20
177.013974596
 30
0.0
 11
898.34722658
 21
187.033974596
 31
0.0
  0
LINE
  8
0
  6
LTYPE3
 62
     2
 10
894.64722658
 20
206.033974596
 30
0.0
 11
871.64722658
 21
206.033974596
 31
0.0
  0
ARC
  8
0
  6
CONTINUOUS
 62
     1
 10
895.34722658
 20
150.033974596
 30
0.0
 40
2.0
 50
180.0
 51
270.0
  0
LINE
  8
0
  6
CONTINUOUS
 62
     1
 10
869.94722658
 20
155.333974596
 30
0.0
 11
893.34722658
 21
155.333974596
 31
0.0
  0
ARC
  8
0
  6
CONTINUOUS
 62
     1
 10
869.94722658
 20
157.333974596
 30
0.0
 40
2.0
 50
180.0
 51
270.0
  0
LINE
  8
0
  6
CONTINUOUS
 62
     1
 10
867.94722658
 20
157.333974596
 30
0.0
 11
867.94722658
 21
178.733974596
 31
0.0
  0
ARC
  8
0
  6
CONTINUOUS
 62
     1
 10
869.94722658
 20
178.733974596
 30
0.0
 40
2.0
 50
90.0
 51
180.0
  0
LINE
  8
0
  6
CONTINUOUS
 62
     1
 10
893.34722658
 20
150.033974596
 30
0.0
 11
893.34722658
 21
186.033974596
 31
0.0
  0
ARC
  8
0
  6
CONTINUOUS
 62
     1
 10
895.34722658
 20
186.033974596
 30
0.0
 40
2.0
 50
90.0
 51
180.0
  0
LINE
  8
0
  6
CONTINUOUS
 62
     1
 10
895.34722658
 20
188.033974596
 30
0.0
 11
960.04722658
 21
188.033974596
 31
0.0
  0
LINE
  8
0
  6
CONTINUOUS
 62
     1
 10
895.34722658
 20
148.033974596
 30
0.0
 11
960.04722658
 21
148.033974596
 31
0.0
  0
LINE
  8
0
  6
CONTINUOUS
 62
     1
 10
875.64722658
 20
155.333974596
 30
0.0
 11
875.64722658
 21
153.533974596
 31
0.0
  0
ARC
  8
0
  6
CONTINUOUS
 62
     1
 10
885.64722658
 20
153.533974596
 30
0.0
 40
10.0
 50
180.0
 51
270.0
  0
LINE
  8
0
  6
CONTINUOUS
 62
     1
 10
877.655542593
 20
168.34976407
 30
0.0
 11
879.652770588
 21
206.244500912
 31
0.0
  0
LINE
  8
0
  6
CONTINUOUS
 62
     1
 10
889.638910568
 20
168.34976407
 30
0.0
 11
887.641682572
 21
206.244500912
 31
0.0
  0
ARC
  8
0
  6
CONTINUOUS
 62
     1
 10
883.64722658
 20
206.033974596
 30
0.0
 40
4.0
 50
356.983042101
 51
183.016952287
  0
ARC
  8
0
  6
CONTINUOUS
 62
     1
 10
883.64722658
 20
206.033974596
 30
0.0
 40
8.75
 50
300.219855722
 51
239.780144278
  0
ARC
  8
0
  6
CONTINUOUS
 62
     1
 10
883.64722658
 20
168.033974596
 30
0.0
 40
6.0
 50
176.983045121
 51
3.016954879
  0
LINE
  8
0
  6
CONTINUOUS
 62
     1
 10
888.986205363
 20
180.733974596
 30
0.0
 11
893.34722658
 21
180.733974596
 31
0.0
  0
LINE
  8
0
  6
CONTINUOUS
 62
     1
 10
869.94722658
 20
180.733974596
 30
0.0
 11
878.308247797
 21
180.733974596
 31
0.0
  0
LINE
  8
0
  6
LTYPE3
 62
     2
 10
883.64722658
 20
158.933974596
 30
0.0
 11
883.64722658
 21
216.433974596
 31
0.0
  0
LINE
  8
0
  6
LTYPE3
 62
     2
 10
874.386205363
 20
168.033974596
 30
0.0
 11
965.64722658
 21
168.033974596
 31
0.0
  0
LINE
  8
0
  6
CONTINUOUS
 62
     1
 10
875.64722658
 20
202.489612877
 30
0.0
 11
875.64722658
 21
180.683974596
 31
0.0
  0
LINE
  8
0
  6
CONTINUOUS
 62
     1
 10
875.64722658
 20
218.033974596
 30
0.0
 11
875.64722658
 21
209.578336316
 31
0.0
  0
LINE
  8
0
  6
CONTINUOUS
 62
     1
 10
859.268169564
 20
218.033974596
 30
0.0
 11
924.64722658
 21
218.033974596
 31
0.0
  0
LINE
  8
0
  6
CONTINUOUS
 62
     1
 10
924.64722658
 20
234.033974596
 30
0.0
 11
859.337804543
 21
234.033974596
 31
0.0
  0
ARC
  8
0
  6
CONTINUOUS
 62
     1
 10
864.892695158
 20
230.033974596
 30
0.0
 40
6.845203412
 50
144.242860688
 51
215.757139312
  0
ARC
  8
0
  6
CONTINUOUS
 62
     1
 10
853.782913928
 20
230.033974596
 30
0.0
 40
6.845203412
 50
324.242860688
 51
35.757139312
  0
ARC
  8
0
  6
CONTINUOUS
 62
     1
 10
853.782913928
 20
222.033974596
 30
0.0
 40
6.845203412
 50
324.242860688
 51
35.757139312
  0
LINE
  8
0
  6
LTYPE2
 62
     2
 10
1089.14722658
 20
226.033974596
 30
0.0
 11
854.302987053
 21
226.033974596
 31
0.0
  0
LINE
  8
0
  6
LTYPE3
 62
     2
 10
951.14722658
 20
183.133974596
 30
0.0
 11
962.04722658
 21
183.133974596
 31
0.0
  0
LINE
  8
0
  6
LTYPE3
 62
     2
 10
957.04722658
 20
177.113974596
 30
0.0
 11
957.04722658
 21
187.033974596
 31
0.0
  0
LINE
  8
0
  6
LTYPE3
 62
     2
 10
950.60722658
 20
152.933974596
 30
0.0
 11
962.04722658
 21
152.933974596
 31
0.0
  0
LINE
  8
0
  6
LTYPE3
 62
     2
 10
957.04722658
 20
149.033974596
 30
0.0
 11
957.04722658
 21
158.013974596
 31
0.0
  0
LINE
  8
0
  6
CONTINUOUS
 62
     1
 10
956.64722658
 20
210.033974596
 30
0.0
 11
956.64722658
 21
242.033974596
 31
0.0
  0
ARC
  8
0
  6
CONTINUOUS
 62
     1
 10
995.64722658
 20
153.533974596
 30
0.0
 40
10.0
 50
270.0
 51
0.0
  0
LINE
  8
0
  6
CONTINUOUS
 62
     1
 10
1005.64722658
 20
234.033974596
 30
0.0
 11
1005.64722658
 21
242.489612877
 31
0.0
  0
ARC
  8
0
  6
CONTINUOUS
 62
     1
 10
1078.901758002
 20
230.033974596
 30
0.0
 40
6.845203412
 50
324.242860688
 51
35.757139312
  0
ARC
  8
0
  6
CONTINUOUS
 62
     1
 10
1090.011539233
 20
230.033974596
 30
0.0
 40
6.845203412
 50
144.242860688
 51
215.757139312
  0
ARC
  8
0
  6
CONTINUOUS
 62
     1
 10
1090.011539233
 20
222.033974596
 30
0.0
 40
6.845203412
 50
144.242860688
 51
215.757139312
  0
LINE
  8
0
  6
LTYPE2
 62
     2
 10
1037.14722658
 20
216.033974596
 30
0.0
 11
1037.14722658
 21
236.033974596
 31
0.0
  0
CIRCLE
  8
0
  6
CONTINUOUS
 62
     2
 10
1037.14722658
 20
226.033974596
 30
0.0
 40
5.0
  0
CIRCLE
  8
0
  6
CONTINUOUS
 62
     2
 10
1037.14722658
 20
226.033974596
 30
0.0
 40
4.0
  0
LINE
  8
7
  6
CONTINUOUS
 62
     2
 10
974.69722658
 20
182.183974596
 30
0.0
 11
1033.49722658
 21
182.183974596
 31
0.0
  0
TEXT
  8
7
  6
CONTINUOUS
 62
     2
 10
974.69722658
 20
186.183974596
 30
1.2
 40
12.0
  1
ＰＦ１／２
 50
0.0
 41
0.9
 51
0.0
  7
KANJI45
  0
LINE
  8
0
  6
CONTINUOUS
 62
     1
 10
1005.64722658
 20
179.233974596
 30
0.0
 11
1005.64722658
 21
153.533974596
 31
0.0
  0
LINE
  8
0
  6
LTYPE3
 62
     2
 10
986.64722658
 20
246.033974596
 30
0.0
 11
1009.64722658
 21
246.033974596
 31
0.0
  0
ARC
  8
0
  6
CONTINUOUS
 62
     1
 10
997.64722658
 20
246.033974596
 30
0.0
 40
8.75
 50
120.219855722
 51
59.780144278
  0
ARC
  8
0
  6
CONTINUOUS
 62
     1
 10
997.64722658
 20
246.033974596
 30
0.0
 40
4.0
 50
176.983042101
 51
3.016952287
  0
ARC
  8
0
  6
CONTINUOUS
 62
     1
 10
960.04722658
 20
186.033974596
 30
0.0
 40
2.0
 50
0.0
 51
90.0
  0
LINE
  8
0
  6
CONTINUOUS
 62
     1
 10
962.04722658
 20
150.033974596
 30
0.0
 11
962.04722658
 21
186.033974596
 31
0.0
  0
ARC
  8
0
  6
CONTINUOUS
 62
     1
 10
960.04722658
 20
150.033974596
 30
0.0
 40
2.0
 50
270.0
 51
0.0
  0
LINE
  8
7
  6
CONTINUOUS
 62
     2
 10
962.04722658
 20
168.033974596
 30
0.0
 11
970.414534165
 21
173.510119571
 31
0.0
  0
LINE
  8
7
  6
CONTINUOUS
 62
     2
 10
962.04722658
 20
168.033974596
 30
0.0
 11
966.555455023
 21
176.960109051
 31
0.0
  0
LINE
  8
7
  6
CONTINUOUS
 62
     2
 10
962.04722658
 20
168.033974596
 30
0.0
 11
974.69722658
 21
182.183974596
 31
0.0
  0
LINE
  8
0
  6
CONTINUOUS
 62
     2
 10
828.0
 20
143.533974596
 30
0.0
 11
831.105828541
 21
155.125084512
 31
0.0
  0
LINE
  8
0
  6
CONTINUOUS
 62
     2
 10
828.0
 20
143.533974596
 30
0.0
 11
824.894171459
 21
155.125084512
 31
0.0
  0
TEXT
  8
0
  6
CONTINUOUS
 62
     3
 10
825.0
 20
201.733974596
 30
0.0
 40
18.0
  1
１６５
 50
90.0
 41
0.9
 51
0.0
  7
KANJI37
  0
LINE
  8
0
  6
CONTINUOUS
 62
     2
 10
875.64722658
 20
149.333974596
 30
0.0
 11
875.64722658
 21
90.333974596
 31
0.0
  0
LINE
  8
0
  6
CONTINUOUS
 62
     2
 10
1005.64722658
 20
147.53398835
 30
0.0
 11
1005.64722658
 21
90.333974596
 31
0.0
  0
LINE
  8
0
  6
CONTINUOUS
 62
     1
 10
1016.14722658
 20
237.033974596
 30
0.0
 11
1024.807480618
 21
242.033974596
 31
0.0
  0
LINE
  8
0
  6
CONTINUOUS
 62
     1
 10
1016.14722658
 20
215.033974596
 30
0.0
 11
1016.14722658
 21
237.033974596
 31
0.0
  0
LINE
  8
0
  6
CONTINUOUS
 62
     1
 10
1024.79722658
 20
210.033974596
 30
0.0
 11
1024.79722658
 21
242.033974596
 31
0.0
  0
LINE
  8
0
  6
CONTINUOUS
 62
     1
 10
1024.79722658
 20
242.033974596
 30
0.0
 11
1049.49722658
 21
242.033974596
 31
0.0
  0
LINE
  8
0
  6
CONTINUOUS
 62
     1
 10
1058.14722658
 20
237.033974596
 30
0.0
 11
1049.486972542
 21
242.033974596
 31
0.0
  0
LINE
  8
0
  6
CONTINUOUS
 62
     1
 10
1049.49722658
 20
210.033974596
 30
0.0
 11
1049.49722658
 21
242.033974596
 31
0.0
  0
LINE
  8
0
  6
CONTINUOUS
 62
     1
 10
1058.14722658
 20
215.033974596
 30
0.0
 11
1058.14722658
 21
237.033974596
 31
0.0
  0
LINE
  8
0
  6
CONTINUOUS
 62
     1
 10
1058.14722658
 20
215.033974596
 30
0.0
 11
1049.486972542
 21
210.033974596
 31
0.0
  0
LINE
  8
0
  6
CONTINUOUS
 62
     1
 10
1016.14722658
 20
215.033974596
 30
0.0
 11
1024.807480618
 21
210.033974596
 31
0.0
  0
LINE
  8
0
  6
CONTINUOUS
 62
     1
 10
1024.79722658
 20
210.033974596
 30
0.0
 11
1049.49722658
 21
210.033974596
 31
0.0
  0
LINE
  8
0
  6
CONTINUOUS
 62
     1
 10
1058.14722658
 20
234.033974596
 30
0.0
 11
1084.456648618
 21
234.033974596
 31
0.0
  0
LINE
  8
0
  6
CONTINUOUS
 62
     1
 10
1084.456648618
 20
218.033974596
 30
0.0
 11
1058.14722658
 21
218.033974596
 31
0.0
  0
LINE
  8
0
  6
CONTINUOUS
 62
     1
 10
956.64722658
 20
234.033974596
 30
0.0
 11
1016.14722658
 21
234.033974596
 31
0.0
  0
LINE
  8
0
  6
CONTINUOUS
 62
     1
 10
1016.14722658
 20
218.033974596
 30
0.0
 11
956.64722658
 21
218.033974596
 31
0.0
  0
LINE
  8
0
  6
CONTINUOUS
 62
     1
 10
995.64722658
 20
143.533974596
 30
0.0
 11
885.64722658
 21
143.533974596
 31
0.0
  0
LINE
  8
0
  6
CONTINUOUS
 62
     2
 10
879.64722658
 20
143.533974596
 30
0.0
 11
822.0
 21
143.533974596
 31
0.0
  0
LINE
  8
0
  6
CONTINUOUS
 62
     2
 10
875.64722658
 20
96.333974596
 30
0.0
 11
887.238336496
 21
93.228146055
 31
0.0
  0
LINE
  8
0
  6
CONTINUOUS
 62
     2
 10
875.64722658
 20
96.333974596
 30
0.0
 11
887.238336496
 21
99.439803137
 31
0.0
  0
LINE
  8
0
  6
CONTINUOUS
 62
     2
 10
875.64722658
 20
96.333974596
 30
0.0
 11
1005.64722658
 21
96.333974596
 31
0.0
  0
LINE
  8
0
  6
CONTINUOUS
 62
     2
 10
1005.64722658
 20
96.333974596
 30
0.0
 11
994.056116665
 21
99.439803137
 31
0.0
  0
LINE
  8
0
  6
CONTINUOUS
 62
     2
 10
1005.64722658
 20
96.333974596
 30
0.0
 11
994.056116665
 21
93.228146055
 31
0.0
  0
TEXT
  8
0
  6
CONTINUOUS
 62
     3
 10
916.34722658
 20
99.333974596
 30
0.0
 40
18.0
  1
１３０
 50
0.0
 41
0.9
 51
0.0
  7
KANJI37
  0
LINE
  8
0
  6
CONTINUOUS
 62
     1
 10
1014.12
 20
1521.24
 30
0.0
 11
1791.72
 21
1521.24
 31
0.0
  0
LINE
  8
0
  6
CONTINUOUS
 62
     1
 10
1014.12
 20
1487.64
 30
0.0
 11
1791.72
 21
1487.64
 31
0.0
  0
TEXT
  8
0
  6
CONTINUOUS
 62
     2
 10
1062.12
 20
1497.24
 30
1.536
 40
15.36
  1
形
 50
0.0
 41
0.9
 51
0.0
  7
KANJI46
  0
TEXT
  8
0
  6
CONTINUOUS
 62
     2
 10
1155.72
 20
1497.24
 30
1.536
 40
15.36
  1
式
 50
0.0
 41
0.9
 51
0.0
  7
KANJI46
  0
TEXT
  8
0
  6
CONTINUOUS
 62
     2
 10
1228.2
 20
1496.28
 30
1.44
 40
14.4
  1
ストローク
 50
0.0
 41
0.9
 51
0.0
  7
KANJI47
  0
TEXT
  8
0
  6
CONTINUOUS
 62
     2
 10
1320.36
 20
1495.32
 30
0.0
 40
14.4
  1
ｍｉｎ　
 50
0.0
 41
0.9
 51
0.0
  7
KANJI48
  0
TEXT
  8
0
  6
CONTINUOUS
 62
     2
 10
1416.36
 20
1495.32
 30
0.0
 40
14.4
  1
ｍｉｎ　
 50
0.0
 41
0.9
 51
0.0
  7
KANJI48
  0
TEXT
  8
0
  6
CONTINUOUS
 62
     2
 10
1608.36
 20
1495.32
 30
0.0
 40
14.4
  1
ｍｉｎ　
 50
0.0
 41
0.9
 51
0.0
  7
KANJI48
  0
TEXT
  8
0
  6
CONTINUOUS
 62
     2
 10
1369.32
 20
1496.28
 30
1.68
 40
16.8
  1
ＡＬ
 50
0.0
 41
0.9
 51
0.0
  7
KANJI49
  0
TEXT
  8
0
  6
CONTINUOUS
 62
     2
 10
1465.32
 20
1496.28
 30
1.68
 40
16.8
  1
Ｌ
 50
0.0
 41
0.9
 51
0.0
  7
KANJI49
  0
TEXT
  8
0
  6
CONTINUOUS
 62
     2
 10
1546.92
 20
1496.28
 30
1.68
 40
16.8
  1
Ｃ
 50
0.0
 41
0.9
 51
0.0
  7
KANJI49
  0
TEXT
  8
0
  6
CONTINUOUS
 62
     2
 10
1657.32
 20
1496.28
 30
1.68
 40
16.8
  1
Ｐ
 50
0.0
 41
0.9
 51
0.0
  7
KANJI49
  0
TEXT
  8
0
  6
CONTINUOUS
 62
     2
 10
1756.08
 20
1495.92
 30
0.0
 40
12.96
  1
（ｋｇ）
 50
0.0
 41
0.740740741
 51
0.0
  7
KANJI50
  0
TEXT
  8
0
  6
CONTINUOUS
 62
     2
 10
1698.48
 20
1495.68
 30
1.44
 40
16.8
  1
概算重量
 50
0.0
 41
0.857142857
 51
0.0
  7
KANJI51
  0
TEXT
  8
0
  6
CONTINUOUS
 62
     2
 10
1237.32
 20
1464.08
 30
1.44
 40
14.4
  1
　２００
 50
0.0
 41
0.9
 51
0.0
  7
KANJI47
  0
TEXT
  8
0
  6
CONTINUOUS
 62
     2
 10
1621.32
 20
1464.08
 30
1.44
 40
14.4
  1
　　４５
 50
0.0
 41
0.9
 51
0.0
  7
KANJI47
  0
LINE
  8
0
  6
CONTINUOUS
 62
     2
 10
1014.12
 20
1456.04
 30
0.0
 11
1791.72
 21
1456.04
 31
0.0
  0
TEXT
  8
0
  6
CONTINUOUS
 62
     2
 10
1525.32
 20
1464.08
 30
1.44
 40
14.4
  1
　４６２
 50
0.0
 41
0.9
 51
0.0
  7
KANJI47
  0
TEXT
  8
0
  6
CONTINUOUS
 62
     2
 10
1429.32
 20
1464.08
 30
1.44
 40
14.4
  1
　５６７
 50
0.0
 41
0.9
 51
0.0
  7
KANJI47
  0
TEXT
  8
0
  6
CONTINUOUS
 62
     2
 10
1333.32
 20
1464.08
 30
1.44
 40
14.4
  1
　７６４
 50
0.0
 41
0.9
 51
0.0
  7
KANJI47
  0
TEXT
  8
0
  6
CONTINUOUS
 62
     2
 10
1237.32
 20
1432.48
 30
1.44
 40
14.4
  1
　３００
 50
0.0
 41
0.9
 51
0.0
  7
KANJI47
  0
TEXT
  8
0
  6
CONTINUOUS
 62
     2
 10
1621.32
 20
1432.48
 30
1.44
 40
14.4
  1
　　４５
 50
0.0
 41
0.9
 51
0.0
  7
KANJI47
  0
LINE
  8
0
  6
CONTINUOUS
 62
     2
 10
1014.12
 20
1424.44
 30
0.0
 11
1791.72
 21
1424.44
 31
0.0
  0
TEXT
  8
0
  6
CONTINUOUS
 62
     2
 10
1525.32
 20
1432.48
 30
1.44
 40
14.4
  1
　５６２
 50
0.0
 41
0.9
 51
0.0
  7
KANJI47
  0
TEXT
  8
0
  6
CONTINUOUS
 62
     2
 10
1429.32
 20
1432.48
 30
1.44
 40
14.4
  1
　６６７
 50
0.0
 41
0.9
 51
0.0
  7
KANJI47
  0
TEXT
  8
0
  6
CONTINUOUS
 62
     2
 10
1333.32
 20
1432.48
 30
1.44
 40
14.4
  1
　８６４
 50
0.0
 41
0.9
 51
0.0
  7
KANJI47
  0
TEXT
  8
0
  6
CONTINUOUS
 62
     2
 10
1237.32
 20
1400.88
 30
1.44
 40
14.4
  1
　４００
 50
0.0
 41
0.9
 51
0.0
  7
KANJI47
  0
TEXT
  8
0
  6
CONTINUOUS
 62
     2
 10
1621.32
 20
1400.88
 30
1.44
 40
14.4
  1
　　４５
 50
0.0
 41
0.9
 51
0.0
  7
KANJI47
  0
LINE
  8
0
  6
CONTINUOUS
 62
     2
 10
1014.12
 20
1392.84
 30
0.0
 11
1791.72
 21
1392.84
 31
0.0
  0
TEXT
  8
0
  6
CONTINUOUS
 62
     2
 10
1525.32
 20
1400.88
 30
1.44
 40
14.4
  1
　６６２
 50
0.0
 41
0.9
 51
0.0
  7
KANJI47
  0
TEXT
  8
0
  6
CONTINUOUS
 62
     2
 10
1429.32
 20
1400.88
 30
1.44
 40
14.4
  1
　７６７
 50
0.0
 41
0.9
 51
0.0
  7
KANJI47
  0
TEXT
  8
0
  6
CONTINUOUS
 62
     2
 10
1333.32
 20
1400.88
 30
1.44
 40
14.4
  1
　９６４
 50
0.0
 41
0.9
 51
0.0
  7
KANJI47
  0
TEXT
  8
0
  6
CONTINUOUS
 62
     2
 10
1237.32
 20
1369.28
 30
1.44
 40
14.4
  1
　５００
 50
0.0
 41
0.9
 51
0.0
  7
KANJI47
  0
TEXT
  8
0
  6
CONTINUOUS
 62
     2
 10
1621.32
 20
1369.28
 30
1.44
 40
14.4
  1
　　４５
 50
0.0
 41
0.9
 51
0.0
  7
KANJI47
  0
LINE
  8
0
  6
CONTINUOUS
 62
     2
 10
1014.12
 20
1361.24
 30
0.0
 11
1791.72
 21
1361.24
 31
0.0
  0
TEXT
  8
0
  6
CONTINUOUS
 62
     2
 10
1525.32
 20
1369.28
 30
1.44
 40
14.4
  1
　７６２
 50
0.0
 41
0.9
 51
0.0
  7
KANJI47
  0
TEXT
  8
0
  6
CONTINUOUS
 62
     2
 10
1429.32
 20
1369.28
 30
1.44
 40
14.4
  1
　８６７
 50
0.0
 41
0.9
 51
0.0
  7
KANJI47
  0
TEXT
  8
0
  6
CONTINUOUS
 62
     2
 10
1333.32
 20
1369.28
 30
1.44
 40
14.4
  1
１０６４
 50
0.0
 41
0.9
 51
0.0
  7
KANJI47
  0
LINE
  8
0
  6
CONTINUOUS
 62
     2
 10
1014.12
 20
1329.64
 30
0.0
 11
1791.72
 21
1329.64
 31
0.0
  0
TEXT
  8
0
  6
CONTINUOUS
 62
     2
 10
1237.32
 20
1337.68
 30
1.44
 40
14.4
  1
　６００
 50
0.0
 41
0.9
 51
0.0
  7
KANJI47
  0
TEXT
  8
0
  6
CONTINUOUS
 62
     2
 10
1333.32
 20
1337.68
 30
1.44
 40
14.4
  1
１２０４
 50
0.0
 41
0.9
 51
0.0
  7
KANJI47
  0
TEXT
  8
0
  6
CONTINUOUS
 62
     2
 10
1429.32
 20
1337.68
 30
1.44
 40
14.4
  1
１００７
 50
0.0
 41
0.9
 51
0.0
  7
KANJI47
  0
TEXT
  8
0
  6
CONTINUOUS
 62
     2
 10
1525.32
 20
1337.68
 30
1.44
 40
14.4
  1
　９０２
 50
0.0
 41
0.9
 51
0.0
  7
KANJI47
  0
TEXT
  8
0
  6
CONTINUOUS
 62
     2
 10
1621.32
 20
1337.68
 30
1.44
 40
14.4
  1
　　４５
 50
0.0
 41
0.9
 51
0.0
  7
KANJI47
  0
LINE
  8
0
  6
CONTINUOUS
 62
     2
 10
1014.12
 20
1298.04
 30
0.0
 11
1791.72
 21
1298.04
 31
0.0
  0
TEXT
  8
0
  6
CONTINUOUS
 62
     2
 10
1237.32
 20
1306.08
 30
1.44
 40
14.4
  1
　７００
 50
0.0
 41
0.9
 51
0.0
  7
KANJI47
  0
TEXT
  8
0
  6
CONTINUOUS
 62
     2
 10
1333.32
 20
1306.08
 30
1.44
 40
14.4
  1
１３０４
 50
0.0
 41
0.9
 51
0.0
  7
KANJI47
  0
TEXT
  8
0
  6
CONTINUOUS
 62
     2
 10
1429.32
 20
1306.08
 30
1.44
 40
14.4
  1
１１０７
 50
0.0
 41
0.9
 51
0.0
  7
KANJI47
  0
TEXT
  8
0
  6
CONTINUOUS
 62
     2
 10
1525.32
 20
1306.08
 30
1.44
 40
14.4
  1
１００２
 50
0.0
 41
0.9
 51
0.0
  7
KANJI47
  0
TEXT
  8
0
  6
CONTINUOUS
 62
     2
 10
1621.32
 20
1306.08
 30
1.44
 40
14.4
  1
　　４５
 50
0.0
 41
0.9
 51
0.0
  7
KANJI47
  0
LINE
  8
0
  6
CONTINUOUS
 62
     2
 10
1014.12
 20
1266.44
 30
0.0
 11
1791.72
 21
1266.44
 31
0.0
  0
TEXT
  8
0
  6
CONTINUOUS
 62
     2
 10
1237.32
 20
1274.48
 30
1.44
 40
14.4
  1
　８００
 50
0.0
 41
0.9
 51
0.0
  7
KANJI47
  0
TEXT
  8
0
  6
CONTINUOUS
 62
     2
 10
1333.32
 20
1274.48
 30
1.44
 40
14.4
  1
１４０４
 50
0.0
 41
0.9
 51
0.0
  7
KANJI47
  0
TEXT
  8
0
  6
CONTINUOUS
 62
     2
 10
1429.32
 20
1274.48
 30
1.44
 40
14.4
  1
１２０７
 50
0.0
 41
0.9
 51
0.0
  7
KANJI47
  0
TEXT
  8
0
  6
CONTINUOUS
 62
     2
 10
1525.32
 20
1274.48
 30
1.44
 40
14.4
  1
１１０２
 50
0.0
 41
0.9
 51
0.0
  7
KANJI47
  0
TEXT
  8
0
  6
CONTINUOUS
 62
     2
 10
1621.32
 20
1274.48
 30
1.44
 40
14.4
  1
　　４５
 50
0.0
 41
0.9
 51
0.0
  7
KANJI47
  0
LINE
  8
0
  6
CONTINUOUS
 62
     2
 10
1014.12
 20
1234.84
 30
0.0
 11
1791.72
 21
1234.84
 31
0.0
  0
TEXT
  8
0
  6
CONTINUOUS
 62
     2
 10
1237.32
 20
1242.88
 30
1.44
 40
14.4
  1
　９００
 50
0.0
 41
0.9
 51
0.0
  7
KANJI47
  0
TEXT
  8
0
  6
CONTINUOUS
 62
     2
 10
1333.32
 20
1242.88
 30
1.44
 40
14.4
  1
１５０４
 50
0.0
 41
0.9
 51
0.0
  7
KANJI47
  0
TEXT
  8
0
  6
CONTINUOUS
 62
     2
 10
1429.32
 20
1242.88
 30
1.44
 40
14.4
  1
１３０７
 50
0.0
 41
0.9
 51
0.0
  7
KANJI47
  0
TEXT
  8
0
  6
CONTINUOUS
 62
     2
 10
1525.32
 20
1242.88
 30
1.44
 40
14.4
  1
１２０２
 50
0.0
 41
0.9
 51
0.0
  7
KANJI47
  0
TEXT
  8
0
  6
CONTINUOUS
 62
     2
 10
1621.32
 20
1242.88
 30
1.44
 40
14.4
  1
　　４５
 50
0.0
 41
0.9
 51
0.0
  7
KANJI47
  0
LINE
  8
0
  6
CONTINUOUS
 62
     2
 10
1014.12
 20
1203.24
 30
0.0
 11
1791.72
 21
1203.24
 31
0.0
  0
TEXT
  8
0
  6
CONTINUOUS
 62
     2
 10
1237.32
 20
1211.28
 30
1.44
 40
14.4
  1
１０００
 50
0.0
 41
0.9
 51
0.0
  7
KANJI47
  0
TEXT
  8
0
  6
CONTINUOUS
 62
     2
 10
1333.32
 20
1211.28
 30
1.44
 40
14.4
  1
１６０４
 50
0.0
 41
0.9
 51
0.0
  7
KANJI47
  0
TEXT
  8
0
  6
CONTINUOUS
 62
     2
 10
1429.32
 20
1211.28
 30
1.44
 40
14.4
  1
１４０７
 50
0.0
 41
0.9
 51
0.0
  7
KANJI47
  0
TEXT
  8
0
  6
CONTINUOUS
 62
     2
 10
1525.32
 20
1211.28
 30
1.44
 40
14.4
  1
１３０２
 50
0.0
 41
0.9
 51
0.0
  7
KANJI47
  0
TEXT
  8
0
  6
CONTINUOUS
 62
     2
 10
1621.32
 20
1211.28
 30
1.44
 40
14.4
  1
　　４５
 50
0.0
 41
0.9
 51
0.0
  7
KANJI47
  0
LINE
  8
0
  6
CONTINUOUS
 62
     2
 10
1014.12
 20
1171.64
 30
0.0
 11
1791.72
 21
1171.64
 31
0.0
  0
TEXT
  8
0
  6
CONTINUOUS
 62
     2
 10
1621.32
 20
1179.68
 30
1.44
 40
14.4
  1
　　４５
 50
0.0
 41
0.9
 51
0.0
  7
KANJI47
  0
TEXT
  8
0
  6
CONTINUOUS
 62
     2
 10
1237.32
 20
1179.68
 30
1.44
 40
14.4
  1
１１００
 50
0.0
 41
0.9
 51
0.0
  7
KANJI47
  0
TEXT
  8
0
  6
CONTINUOUS
 62
     2
 10
1525.32
 20
1179.68
 30
1.44
 40
14.4
  1
１４０２
 50
0.0
 41
0.9
 51
0.0
  7
KANJI47
  0
TEXT
  8
0
  6
CONTINUOUS
 62
     2
 10
1429.32
 20
1179.68
 30
1.44
 40
14.4
  1
１５０７
 50
0.0
 41
0.9
 51
0.0
  7
KANJI47
  0
TEXT
  8
0
  6
CONTINUOUS
 62
     2
 10
1333.32
 20
1179.68
 30
1.44
 40
14.4
  1
１７０４
 50
0.0
 41
0.9
 51
0.0
  7
KANJI47
  0
LINE
  8
0
  6
CONTINUOUS
 62
     2
 10
1014.12
 20
1140.04
 30
0.0
 11
1791.72
 21
1140.04
 31
0.0
  0
TEXT
  8
0
  6
CONTINUOUS
 62
     2
 10
1621.32
 20
1148.08
 30
1.44
 40
14.4
  1
　　４５
 50
0.0
 41
0.9
 51
0.0
  7
KANJI47
  0
TEXT
  8
0
  6
CONTINUOUS
 62
     2
 10
1237.32
 20
1148.08
 30
1.44
 40
14.4
  1
１２００
 50
0.0
 41
0.9
 51
0.0
  7
KANJI47
  0
TEXT
  8
0
  6
CONTINUOUS
 62
     2
 10
1525.32
 20
1148.08
 30
1.44
 40
14.4
  1
１５０２
 50
0.0
 41
0.9
 51
0.0
  7
KANJI47
  0
TEXT
  8
0
  6
CONTINUOUS
 62
     2
 10
1429.32
 20
1148.08
 30
1.44
 40
14.4
  1
１６０７
 50
0.0
 41
0.9
 51
0.0
  7
KANJI47
  0
TEXT
  8
0
  6
CONTINUOUS
 62
     2
 10
1333.32
 20
1148.08
 30
1.44
 40
14.4
  1
１８０４
 50
0.0
 41
0.9
 51
0.0
  7
KANJI47
  0
LINE
  8
0
  6
CONTINUOUS
 62
     2
 10
1014.12
 20
1108.44
 30
0.0
 11
1791.72
 21
1108.44
 31
0.0
  0
TEXT
  8
0
  6
CONTINUOUS
 62
     2
 10
1621.32
 20
1116.48
 30
1.44
 40
14.4
  1
　　４５
 50
0.0
 41
0.9
 51
0.0
  7
KANJI47
  0
TEXT
  8
0
  6
CONTINUOUS
 62
     2
 10
1237.32
 20
1116.48
 30
1.44
 40
14.4
  1
１３００
 50
0.0
 41
0.9
 51
0.0
  7
KANJI47
  0
TEXT
  8
0
  6
CONTINUOUS
 62
     2
 10
1525.32
 20
1116.48
 30
1.44
 40
14.4
  1
１６０２
 50
0.0
 41
0.9
 51
0.0
  7
KANJI47
  0
TEXT
  8
0
  6
CONTINUOUS
 62
     2
 10
1429.32
 20
1116.48
 30
1.44
 40
14.4
  1
１７０７
 50
0.0
 41
0.9
 51
0.0
  7
KANJI47
  0
TEXT
  8
0
  6
CONTINUOUS
 62
     2
 10
1333.32
 20
1116.48
 30
1.44
 40
14.4
  1
１９０４
 50
0.0
 41
0.9
 51
0.0
  7
KANJI47
  0
LINE
  8
0
  6
CONTINUOUS
 62
     2
 10
1014.12
 20
1076.84
 30
0.0
 11
1791.72
 21
1076.84
 31
0.0
  0
TEXT
  8
0
  6
CONTINUOUS
 62
     2
 10
1621.32
 20
1084.88
 30
1.44
 40
14.4
  1
　　４５
 50
0.0
 41
0.9
 51
0.0
  7
KANJI47
  0
TEXT
  8
0
  6
CONTINUOUS
 62
     2
 10
1237.32
 20
1084.88
 30
1.44
 40
14.4
  1
１４００
 50
0.0
 41
0.9
 51
0.0
  7
KANJI47
  0
TEXT
  8
0
  6
CONTINUOUS
 62
     2
 10
1525.32
 20
1084.88
 30
1.44
 40
14.4
  1
１７０２
 50
0.0
 41
0.9
 51
0.0
  7
KANJI47
  0
TEXT
  8
0
  6
CONTINUOUS
 62
     2
 10
1429.32
 20
1084.88
 30
1.44
 40
14.4
  1
１８０７
 50
0.0
 41
0.9
 51
0.0
  7
KANJI47
  0
TEXT
  8
0
  6
CONTINUOUS
 62
     2
 10
1333.32
 20
1084.88
 30
1.44
 40
14.4
  1
２００４
 50
0.0
 41
0.9
 51
0.0
  7
KANJI47
  0
LINE
  8
0
  6
CONTINUOUS
 62
     2
 10
1014.12
 20
1045.24
 30
0.0
 11
1791.72
 21
1045.24
 31
0.0
  0
TEXT
  8
0
  6
CONTINUOUS
 62
     2
 10
1621.32
 20
1053.28
 30
1.44
 40
14.4
  1
　　４５
 50
0.0
 41
0.9
 51
0.0
  7
KANJI47
  0
TEXT
  8
0
  6
CONTINUOUS
 62
     2
 10
1237.32
 20
1053.28
 30
1.44
 40
14.4
  1
１５００
 50
0.0
 41
0.9
 51
0.0
  7
KANJI47
  0
TEXT
  8
0
  6
CONTINUOUS
 62
     2
 10
1525.32
 20
1053.28
 30
1.44
 40
14.4
  1
１８０２
 50
0.0
 41
0.9
 51
0.0
  7
KANJI47
  0
TEXT
  8
0
  6
CONTINUOUS
 62
     2
 10
1429.32
 20
1053.28
 30
1.44
 40
14.4
  1
１９０７
 50
0.0
 41
0.9
 51
0.0
  7
KANJI47
  0
TEXT
  8
0
  6
CONTINUOUS
 62
     2
 10
1333.32
 20
1053.28
 30
1.44
 40
14.4
  1
２１０４
 50
0.0
 41
0.9
 51
0.0
  7
KANJI47
  0
LINE
  8
0
  6
CONTINUOUS
 62
     1
 10
1791.72
 20
1521.24
 30
0.0
 11
1791.72
 21
1013.64
 31
0.0
  0
LINE
  8
0
  6
CONTINUOUS
 62
     1
 10
1014.12
 20
1013.64
 30
0.0
 11
1791.72
 21
1013.64
 31
0.0
  0
LINE
  8
0
  6
CONTINUOUS
 62
     1
 10
1014.12
 20
1521.24
 30
0.0
 11
1014.12
 21
1013.64
 31
0.0
  0
LINE
  8
0
  6
CONTINUOUS
 62
     1
 10
1215.72
 20
1521.24
 30
0.0
 11
1215.72
 21
1013.64
 31
0.0
  0
LINE
  8
0
  6
CONTINUOUS
 62
     2
 10
1311.72
 20
1521.24
 30
0.0
 11
1311.72
 21
1013.64
 31
0.0
  0
LINE
  8
0
  6
CONTINUOUS
 62
     2
 10
1407.72
 20
1521.24
 30
0.0
 11
1407.72
 21
1013.64
 31
0.0
  0
LINE
  8
0
  6
CONTINUOUS
 62
     2
 10
1503.72
 20
1521.24
 30
0.0
 11
1503.72
 21
1013.64
 31
0.0
  0
LINE
  8
0
  6
CONTINUOUS
 62
     2
 10
1599.72
 20
1521.24
 30
0.0
 11
1599.72
 21
1013.64
 31
0.0
  0
LINE
  8
0
  6
CONTINUOUS
 62
     2
 10
1695.72
 20
1521.24
 30
0.0
 11
1695.72
 21
1013.64
 31
0.0
  0
TEXT
  8
0
  6
CONTINUOUS
 62
     2
 10
1029.72
 20
1463.72
 30
0.96
 40
14.4
  1
ＭＣＬＤ２Ｃ－　　２Ｌ
 50
0.0
 41
0.833333333
 51
0.0
  7
KANJI52
  0
TEXT
  8
0
  6
CONTINUOUS
 62
     2
 10
1029.72
 20
1432.12
 30
0.96
 40
14.4
  1
ＭＣＬＤ２Ｃ－　　３Ｌ
 50
0.0
 41
0.833333333
 51
0.0
  7
KANJI52
  0
TEXT
  8
0
  6
CONTINUOUS
 62
     2
 10
1029.72
 20
1400.52
 30
0.96
 40
14.4
  1
ＭＣＬＤ２Ｃ－　　４Ｌ
 50
0.0
 41
0.833333333
 51
0.0
  7
KANJI52
  0
TEXT
  8
0
  6
CONTINUOUS
 62
     2
 10
1029.72
 20
1368.92
 30
0.96
 40
14.4
  1
ＭＣＬＤ２Ｃ－　　５Ｌ
 50
0.0
 41
0.833333333
 51
0.0
  7
KANJI52
  0
TEXT
  8
0
  6
CONTINUOUS
 62
     2
 10
1029.72
 20
1337.32
 30
0.96
 40
14.4
  1
ＭＣＬＤ２Ｃ－　　６Ｌ
 50
0.0
 41
0.833333333
 51
0.0
  7
KANJI52
  0
TEXT
  8
0
  6
CONTINUOUS
 62
     2
 10
1029.72
 20
1305.72
 30
0.96
 40
14.4
  1
ＭＣＬＤ２Ｃ－　　７Ｌ
 50
0.0
 41
0.833333333
 51
0.0
  7
KANJI52
  0
TEXT
  8
0
  6
CONTINUOUS
 62
     2
 10
1029.72
 20
1274.12
 30
0.96
 40
14.4
  1
ＭＣＬＤ２Ｃ－　　８Ｌ
 50
0.0
 41
0.833333333
 51
0.0
  7
KANJI52
  0
TEXT
  8
0
  6
CONTINUOUS
 62
     2
 10
1029.72
 20
1242.52
 30
0.96
 40
14.4
  1
ＭＣＬＤ２Ｃ－　　９Ｌ
 50
0.0
 41
0.833333333
 51
0.0
  7
KANJI52
  0
TEXT
  8
0
  6
CONTINUOUS
 62
     2
 10
1029.72
 20
1210.92
 30
0.96
 40
14.4
  1
ＭＣＬＤ２Ｃ－　１０Ｌ
 50
0.0
 41
0.833333333
 51
0.0
  7
KANJI52
  0
TEXT
  8
0
  6
CONTINUOUS
 62
     2
 10
1029.72
 20
1179.32
 30
0.96
 40
14.4
  1
ＭＣＬＤ２Ｃ－　１１Ｌ
 50
0.0
 41
0.833333333
 51
0.0
  7
KANJI52
  0
TEXT
  8
0
  6
CONTINUOUS
 62
     2
 10
1029.72
 20
1147.72
 30
0.96
 40
14.4
  1
ＭＣＬＤ２Ｃ－　１２Ｌ
 50
0.0
 41
0.833333333
 51
0.0
  7
KANJI52
  0
TEXT
  8
0
  6
CONTINUOUS
 62
     2
 10
1029.72
 20
1116.12
 30
0.96
 40
14.4
  1
ＭＣＬＤ２Ｃ－　１３Ｌ
 50
0.0
 41
0.833333333
 51
0.0
  7
KANJI52
  0
TEXT
  8
0
  6
CONTINUOUS
 62
     2
 10
1029.72
 20
1084.52
 30
0.96
 40
14.4
  1
ＭＣＬＤ２Ｃ－　１４Ｌ
 50
0.0
 41
0.833333333
 51
0.0
  7
KANJI52
  0
TEXT
  8
0
  6
CONTINUOUS
 62
     2
 10
1029.72
 20
1052.92
 30
0.96
 40
14.4
  1
ＭＣＬＤ２Ｃ－　１５Ｌ
 50
0.0
 41
0.833333333
 51
0.0
  7
KANJI52
  0
TEXT
  8
0
  6
CONTINUOUS
 62
     2
 10
1029.72
 20
1020.32
 30
0.96
 40
14.4
  1
ＭＣＬＤ２Ｃ－　　　Ｌ
 50
0.0
 41
0.833333333
 51
0.0
  7
KANJI52
  0
TEXT
  8
0
  6
CONTINUOUS
 62
     2
 10
1717.32
 20
1464.08
 30
1.44
 40
14.4
  1
　８０
 50
0.0
 41
0.9
 51
0.0
  7
KANJI47
  0
TEXT
  8
0
  6
CONTINUOUS
 62
     2
 10
1717.32
 20
1432.48
 30
1.44
 40
14.4
  1
　８３
 50
0.0
 41
0.9
 51
0.0
  7
KANJI47
  0
TEXT
  8
0
  6
CONTINUOUS
 62
     2
 10
1717.32
 20
1400.88
 30
1.44
 40
14.4
  1
　８７
 50
0.0
 41
0.9
 51
0.0
  7
KANJI47
  0
TEXT
  8
0
  6
CONTINUOUS
 62
     2
 10
1717.32
 20
1369.28
 30
1.44
 40
14.4
  1
　９２
 50
0.0
 41
0.9
 51
0.0
  7
KANJI47
  0
TEXT
  8
0
  6
CONTINUOUS
 62
     2
 10
1717.32
 20
1337.68
 30
1.44
 40
14.4
  1
　９５
 50
0.0
 41
0.9
 51
0.0
  7
KANJI47
  0
TEXT
  8
0
  6
CONTINUOUS
 62
     2
 10
1717.32
 20
1305.08
 30
1.44
 40
14.4
  1
　９９
 50
0.0
 41
0.9
 51
0.0
  7
KANJI47
  0
TEXT
  8
0
  6
CONTINUOUS
 62
     2
 10
1717.32
 20
1274.48
 30
1.44
 40
14.4
  1
１０３
 50
0.0
 41
0.9
 51
0.0
  7
KANJI47
  0
TEXT
  8
0
  6
CONTINUOUS
 62
     2
 10
1717.32
 20
1242.88
 30
1.44
 40
14.4
  1
１０６
 50
0.0
 41
0.9
 51
0.0
  7
KANJI47
  0
TEXT
  8
0
  6
CONTINUOUS
 62
     2
 10
1717.32
 20
1211.28
 30
1.44
 40
14.4
  1
１０９
 50
0.0
 41
0.9
 51
0.0
  7
KANJI47
  0
TEXT
  8
0
  6
CONTINUOUS
 62
     2
 10
1717.32
 20
1179.68
 30
1.44
 40
14.4
  1
１１１
 50
0.0
 41
0.9
 51
0.0
  7
KANJI47
  0
TEXT
  8
0
  6
CONTINUOUS
 62
     2
 10
1717.32
 20
1148.08
 30
1.44
 40
14.4
  1
１１３
 50
0.0
 41
0.9
 51
0.0
  7
KANJI47
  0
TEXT
  8
0
  6
CONTINUOUS
 62
     2
 10
1717.32
 20
1116.48
 30
1.44
 40
14.4
  1
１１５
 50
0.0
 41
0.9
 51
0.0
  7
KANJI47
  0
TEXT
  8
0
  6
CONTINUOUS
 62
     2
 10
1717.32
 20
1084.88
 30
1.44
 40
14.4
  1
１１７
 50
0.0
 41
0.9
 51
0.0
  7
KANJI47
  0
TEXT
  8
0
  6
CONTINUOUS
 62
     2
 10
1717.32
 20
1053.28
 30
1.44
 40
14.4
  1
１１９
 50
0.0
 41
0.9
 51
0.0
  7
KANJI47
  0
LINE
  8
0
  6
CONTINUOUS
 62
     2
 10
657.2199996
 20
1248.3499876
 30
0.0
 11
657.2199996
 21
1192.0999876
 31
0.0
  0
LINE
  8
0
  6
CONTINUOUS
 62
     2
 10
498.0199996
 20
1234.0999876
 30
0.0
 11
657.2199996
 21
1234.0999876
 31
0.0
  0
LINE
  8
0
  6
CONTINUOUS
 62
     2
 10
657.2199996
 20
1234.0999876
 30
0.0
 11
649.49259299
 21
1236.170539961
 31
0.0
  0
LINE
  8
0
  6
CONTINUOUS
 62
     2
 10
657.2199996
 20
1234.0999876
 30
0.0
 11
649.49259299
 21
1232.029435239
 31
0.0
  0
TEXT
  8
0
  6
CONTINUOUS
 62
     3
 10
539.6199996
 20
1236.0999876
 30
0.0
 40
15.0
  1
常用ストローク
 50
0.0
 41
0.9
 51
0.0
  7
KANJI36
  0
LINE
  8
0
  6
CONTINUOUS
 62
     1
 10
1464.583249749
 20
775.117001132
 30
0.0
 11
1531.404840571
 21
708.29541031
 31
0.0
  0
LINE
  8
0
  6
CONTINUOUS
 62
     1
 10
1431.825992423
 20
742.359743807
 30
0.0
 11
1464.583249749
 21
775.117001132
 31
0.0
  0
ARC
  8
0
  6
CONTINUOUS
 62
     1
 10
1477.664725201
 20
828.433974596
 30
0.0
 40
71.0
 50
273.602526992
 51
198.617919403
  0
LINE
  8
0
  6
CONTINUOUS
 62
     2
 10
1440.127405626
 20
786.252282506
 30
0.0
 11
1451.992567632
 21
788.046141635
 31
0.0
  0
LINE
  8
0
  6
CONTINUOUS
 62
     2
 10
1440.127405626
 20
786.252282506
 30
0.0
 11
1449.506007779
 21
793.738391086
 31
0.0
  0
LINE
  8
0
  6
CONTINUOUS
 62
     2
 10
1440.127405626
 20
786.252282506
 30
0.0
 11
1720.55
 21
908.75
 31
0.0
  0
POINT
  8
0
  6
CONTINUOUS
 62
     2
 10
1720.55
 20
908.75
 30
0.0
  0
LINE
  8
0
  6
CONTINUOUS
 62
     1
 10
1005.64722658
 20
218.033974596
 30
0.0
 11
1005.64722658
 21
200.0
 31
0.0
  0
LINE
  8
0
  6
LTYPE5
 62
     2
 10
1358.164725201
 20
828.433974596
 30
0.0
 11
1592.0
 21
828.433974596
 31
0.0
  0
TEXT
  8
0
  6
CONTINUOUS
 62
     2
 10
1648.5200334
 20
126.899994
 30
1.8
 40
21.0
  1
０７．１０．０４
 50
0.0
 41
0.571428571
 51
0.0
  7
KANJI53
  0
LINE
  8
0
  6
CONTINUOUS
 62
     2
 10
1873.92
 20
896.7
 30
0.0
 11
2398.92
 21
896.7
 31
0.0
  0
LINE
  8
0
  6
CONTINUOUS
 62
     2
 10
1873.92
 20
854.7
 30
0.0
 11
2398.92
 21
854.7
 31
0.0
  0
LINE
  8
0
  6
CONTINUOUS
 62
     2
 10
1921.92
 20
1232.7
 30
0.0
 11
1921.92
 21
896.7
 31
0.0
  0
TEXT
  8
0
  6
CONTINUOUS
 62
     2
 10
1906.92
 20
865.5
 30
79.962857143
 40
22.8
  1
付属品
 50
0.0
 41
0.9
 51
0.0
  7
KANJI54
  0
TEXT
  8
0
  6
CONTINUOUS
 62
     2
 10
1906.92
 20
823.5
 30
180.445714286
 40
22.8
  1
台数
 50
0.0
 41
0.9
 51
0.0
  7
KANJI55
  0
LINE
  8
0
  6
CONTINUOUS
 62
     1
 10
1873.92
 20
1628.7
 30
0.0
 11
2398.92
 21
1628.7
 31
0.0
  0
TEXT
  8
0
  6
CONTINUOUS
 62
     2
 10
1948.92
 20
1584.9
 30
17.09964
 40
27.0
  1
マイティシリンダ仕様
 50
0.0
 41
0.9
 51
0.0
  7
KANJI56
  0
LINE
  8
0
  6
CONTINUOUS
 62
     2
 10
1921.92
 20
938.7
 30
0.0
 11
2398.92
 21
938.7
 31
0.0
  0
LINE
  8
0
  6
CONTINUOUS
 62
     2
 10
1921.92
 20
1064.7
 30
0.0
 11
2398.92
 21
1064.7
 31
0.0
  0
LINE
  8
0
  6
CONTINUOUS
 62
     2
 10
1921.92
 20
1106.7
 30
0.0
 11
2398.92
 21
1106.7
 31
0.0
  0
LINE
  8
0
  6
CONTINUOUS
 62
     2
 10
1873.92
 20
1316.7
 30
0.0
 11
2398.92
 21
1316.7
 31
0.0
  0
LINE
  8
0
  6
CONTINUOUS
 62
     2
 10
1873.92
 20
1274.7
 30
0.0
 11
2398.92
 21
1274.7
 31
0.0
  0
LINE
  8
0
  6
CONTINUOUS
 62
     2
 10
1873.92
 20
1232.7
 30
0.0
 11
2398.92
 21
1232.7
 31
0.0
  0
LINE
  8
0
  6
CONTINUOUS
 62
     2
 10
1921.92
 20
1148.7
 30
0.0
 11
2398.92
 21
1148.7
 31
0.0
  0
LINE
  8
0
  6
CONTINUOUS
 62
     2
 10
1921.92
 20
1190.7
 30
0.0
 11
2398.92
 21
1190.7
 31
0.0
  0
LINE
  8
0
  6
CONTINUOUS
 62
     2
 10
1873.92
 20
1526.7
 30
0.0
 11
2398.92
 21
1526.7
 31
0.0
  0
LINE
  8
0
  6
CONTINUOUS
 62
     2
 10
1873.92
 20
1484.7
 30
0.0
 11
2398.92
 21
1484.7
 31
0.0
  0
LINE
  8
0
  6
CONTINUOUS
 62
     2
 10
1873.92
 20
1442.7
 30
0.0
 11
2398.92
 21
1442.7
 31
0.0
  0
LINE
  8
0
  6
CONTINUOUS
 62
     2
 10
1873.92
 20
1400.7
 30
0.0
 11
2398.92
 21
1400.7
 31
0.0
  0
LINE
  8
0
  6
CONTINUOUS
 62
     2
 10
1873.92
 20
1358.7
 30
0.0
 11
2398.92
 21
1358.7
 31
0.0
  0
LINE
  8
0
  6
CONTINUOUS
 62
     2
 10
1873.92
 20
1568.7
 30
0.0
 11
2398.92
 21
1568.7
 31
0.0
  0
TEXT
  8
0
  6
CONTINUOUS
 62
     2
 10
1948.92
 20
1159.5
 30
33.439782857
 40
22.8
  1
電源電圧
 50
0.0
 41
0.9
 51
0.0
  7
KANJI57
  0
TEXT
  8
0
  6
CONTINUOUS
 62
     2
 10
1948.92
 20
1117.5
 30
60.42
 40
22.8
  1
周波数
 50
0.0
 41
0.9
 51
0.0
  7
KANJI58
  0
TEXT
  8
0
  6
CONTINUOUS
 62
     2
 10
1948.92
 20
1075.5
 30
141.36
 40
22.8
  1
電流
 50
0.0
 41
0.9
 51
0.0
  7
KANJI59
  0
TEXT
  8
0
  6
CONTINUOUS
 62
     2
 10
1948.92
 20
1033.5
 30
60.42
 40
22.8
  1
絶縁級
 50
0.0
 41
0.9
 51
0.0
  7
KANJI58
  0
TEXT
  8
0
  6
CONTINUOUS
 62
     2
 10
1906.92
 20
1537.5
 30
180.445714286
 40
22.8
  1
形式
 50
0.0
 41
0.9
 51
0.0
  7
KANJI55
  0
TEXT
  8
0
  6
CONTINUOUS
 62
     2
 10
1906.92
 20
1495.5
 30
180.445714286
 40
22.8
  1
推力
 50
0.0
 41
0.9
 51
0.0
  7
KANJI55
  0
TEXT
  8
0
  6
CONTINUOUS
 62
     2
 10
1906.92
 20
1453.5
 30
29.721428571
 40
22.8
  1
ストローク
 50
0.0
 41
0.9
 51
0.0
  7
KANJI60
  0
TEXT
  8
0
  6
CONTINUOUS
 62
     2
 10
1906.92
 20
1327.5
 30
180.445714286
 40
22.8
  1
構造
 50
0.0
 41
0.9
 51
0.0
  7
KANJI55
  0
TEXT
  8
0
  6
CONTINUOUS
 62
     2
 10
1906.92
 20
1285.5
 30
12.973851429
 40
22.8
  1
過負荷安全装置
 50
0.0
 41
0.9
 51
0.0
  7
KANJI61
  0
TEXT
  8
0
  6
CONTINUOUS
 62
     2
 10
1906.92
 20
1243.5
 30
79.962857143
 40
22.8
  1
塗装色
 50
0.0
 41
0.9
 51
0.0
  7
KANJI54
  0
TEXT
  8
0
  6
CONTINUOUS
 62
     2
 10
1882.92
 20
1369.5
 30
1.954285714
 40
22.8
  1
ピストンロッド回転トルク
 50
0.0
 41
0.9
 51
0.0
  7
KANJI62
  0
LINE
  8
0
  6
CONTINUOUS
 62
     2
 10
1873.92
 20
1022.7
 30
0.0
 11
2398.92
 21
1022.7
 31
0.0
  0
LINE
  8
0
  6
CONTINUOUS
 62
     2
 10
1921.92
 20
980.7
 30
0.0
 11
2398.92
 21
980.7
 31
0.0
  0
TEXT
  8
0
  6
CONTINUOUS
 62
     2
 10
1898.37
 20
1226.7
 30
13.2
 40
21.0
  1
モ　トル仕様
 50
0.0
 41
0.9
 51
0.0
  7
KANJI63
  0
TEXT
  8
0
  6
CONTINUOUS
 62
     2
 10
1898.37
 20
1004.7
 30
1.2
 40
21.0
  1
ブレ　キ
 50
0.0
 41
0.9
 51
0.0
  7
KANJI64
  0
LINE
  8
0
  6
CONTINUOUS
 62
     2
 10
1896.72
 20
954.9
 30
0.0
 11
1896.72
 21
942.3
 31
0.0
  0
TEXT
  8
0
  6
CONTINUOUS
 62
     2
 10
2208.42
 20
1286.7
 30
9.0
 40
21.0
  1
推力リミッタ
 50
0.0
 41
0.9
 51
0.0
  7
KANJI65
  0
TEXT
  8
0
  6
CONTINUOUS
 62
     2
 10
2265.42
 20
1034.7
 30
1.8
 40
18.0
  1
Ｅ
 50
0.0
 41
0.9
 51
0.0
  7
KANJI66
  0
TEXT
  8
0
  6
CONTINUOUS
 62
     2
 10
2221.92
 20
949.5
 30
12.0
 40
21.0
  1
同時切り
 50
0.0
 41
0.9
 51
0.0
  7
KANJI67
  0
TEXT
  8
0
  6
CONTINUOUS
 62
     2
 10
1948.92
 20
991.5
 30
141.36
 40
22.8
  1
形式
 50
0.0
 41
0.9
 51
0.0
  7
KANJI59
  0
TEXT
  8
0
  6
CONTINUOUS
 62
     2
 10
1948.92
 20
949.5
 30
33.439782857
 40
22.8
  1
操作方式
 50
0.0
 41
0.9
 51
0.0
  7
KANJI57
  0
LINE
  8
0
  6
CONTINUOUS
 62
     2
 10
1896.72
 20
1190.1
 30
0.0
 11
1896.72
 21
1176.3
 31
0.0
  0
TEXT
  8
0
  6
CONTINUOUS
 62
     2
 10
1948.92
 20
1201.5
 30
3.0
 40
22.8
  1
出力　相数　極数
 50
0.0
 41
0.9
 51
0.0
  7
KANJI68
  0
TEXT
  8
0
  6
CONTINUOUS
 62
     2
 10
1906.92
 20
1411.5
 30
12.0
 40
22.8
  1
公称速度
 50
0.0
 41
0.9
 51
0.0
  7
KANJI69
  0
TEXT
  8
0
  6
CONTINUOUS
 62
     2
 10
2030.82
 20
1410.3
 30
0.0
 40
21.0
  1
（５０／６０Ｈｚ）
 50
0.0
 41
0.628571429
 51
0.0
  7
KANJI70
  0
TEXT
  8
0
  6
CONTINUOUS
 62
     2
 10
2151.42
 20
991.95
 30
3.3
 40
20.4
  1
スプリング制動式電磁ブレーキ
 50
0.0
 41
0.705882353
 51
0.0
  7
KANJI71
  0
TEXT
  8
0
  6
CONTINUOUS
 62
     2
 10
2370.42
 20
1159.5
 30
0.216
 40
18.0
  1
Ｖ
 50
0.0
 41
0.8
 51
0.0
  7
KANJI72
  0
TEXT
  8
0
  6
CONTINUOUS
 62
     2
 10
2359.62
 20
1117.5
 30
0.216
 40
18.0
  1
Ｈｚ
 50
0.0
 41
0.8
 51
0.0
  7
KANJI72
  0
TEXT
  8
0
  6
CONTINUOUS
 62
     2
 10
2370.42
 20
1075.5
 30
0.216
 40
18.0
  1
Ａ
 50
0.0
 41
0.8
 51
0.0
  7
KANJI72
  0
TEXT
  8
0
  6
CONTINUOUS
 62
     2
 10
2291.52
 20
1202.7
 30
1.8
 40
18.0
  1
３φ
 50
0.0
 41
0.9
 51
0.0
  7
KANJI66
  0
TEXT
  8
0
  6
CONTINUOUS
 62
     2
 10
2351.52
 20
1202.7
 30
1.8
 40
18.0
  1
４Ｐ
 50
0.0
 41
0.9
 51
0.0
  7
KANJI66
  0
TEXT
  8
0
  6
CONTINUOUS
 62
     2
 10
2149.92
 20
1244.7
 30
1.2
 40
19.2
  1
マンセル　７．５ＧＹ　５／４．５
 50
0.0
 41
0.71875
 51
0.0
  7
KANJI73
  0
TEXT
  8
0
  6
CONTINUOUS
 62
     2
 10
2149.92
 20
1160.7
 30
1.8
 40
18.0
  1
　　　　　　　／　　　
 50
0.0
 41
0.9
 51
0.0
  7
KANJI66
  0
TEXT
  8
0
  6
CONTINUOUS
 62
     2
 10
2149.92
 20
1118.7
 30
1.8
 40
18.0
  1
　　　　５０／　６０
 50
0.0
 41
0.9
 51
0.0
  7
KANJI66
  0
TEXT
  8
0
  6
CONTINUOUS
 62
     2
 10
2149.92
 20
1076.7
 30
1.8
 40
18.0
  1
　　　　　　　／　　　
 50
0.0
 41
0.9
 51
0.0
  7
KANJI66
  0
TEXT
  8
0
  6
CONTINUOUS
 62
     2
 10
2354.52
 20
1455.9
 30
0.1536
 40
19.2
  1
ｍｍ
 50
0.0
 41
0.8
 51
0.0
  7
KANJI74
  0
TEXT
  8
0
  6
CONTINUOUS
 62
     2
 10
2315.52
 20
1412.7
 30
0.0
 40
21.0
  1
ｍｍ／ｓｅｃ
 50
0.0
 41
0.571428571
 51
0.0
  7
KANJI75
  0
TEXT
  8
0
  6
CONTINUOUS
 62
     2
 10
2155.92
 20
1202.7
 30
1.8
 40
18.0
  1
　１．１ＫＷ
 50
0.0
 41
0.9
 51
0.0
  7
KANJI66
  0
TEXT
  8
0
  6
CONTINUOUS
 62
     2
 10
2193.72
 20
1496.7
 30
1.8
 40
18.0
  1
１９．６ＫＮ（２ｔｏｎ）
 50
0.0
 41
0.9
 51
0.0
  7
KANJI66
  0
TEXT
  8
0
  6
CONTINUOUS
 62
     2
 10
2152.92
 20
1412.7
 30
1.8
 40
18.0
  1
　２４．２／２９
 50
0.0
 41
0.9
 51
0.0
  7
KANJI66
  0
TEXT
  8
0
  6
CONTINUOUS
 62
     2
 10
2208.42
 20
1328.7
 30
9.0
 40
21.0
  1
全閉屋内形
 50
0.0
 41
0.9
 51
0.0
  7
KANJI65
  0
TEXT
  8
0
  6
CONTINUOUS
 62
     2
 10
2163.42
 20
1536.6
 30
1.2
 40
18.0
  1
ＭＣＬＤ２Ｃ－　　Ｌ
 50
0.0
 41
0.833333333
 51
0.0
  7
KANJI76
  0
LINE
  8
0
  6
CONTINUOUS
 62
     1
 10
1873.92
 20
770.7
 30
0.0
 11
2398.92
 21
770.7
 31
0.0
  0
LINE
  8
0
  6
CONTINUOUS
 62
     2
 10
1873.92
 20
812.7
 30
0.0
 11
2398.92
 21
812.7
 31
0.0
  0
TEXT
  8
0
  6
CONTINUOUS
 62
     2
 10
2343.72
 20
782.88
 30
0.0
 40
21.0
  1
ｋｇ
 50
0.0
 41
0.9
 51
0.0
  7
KANJI77
  0
TEXT
  8
0
  6
CONTINUOUS
 62
     2
 10
1905.72
 20
781.5
 30
6.0
 40
21.0
  1
概算重量（１台当り）
 50
0.0
 41
0.857142857
 51
0.0
  7
KANJI78
  0
TEXT
  8
0
  6
CONTINUOUS
 62
     2
 10
2182.92
 20
1370.7
 30
0.0
 40
18.0
  1
３９Ｎ・ｍ（４ｋｇ・ｍ）
 50
0.0
 41
0.833333333
 51
0.0
  7
KANJI79
  0
LINE
  8
0
  6
CONTINUOUS
 62
     1
 10
1873.92
 20
1628.7
 30
0.0
 11
1873.92
 21
770.7
 31
0.0
  0
LINE
  8
0
  6
CONTINUOUS
 62
     2
 10
2149.92
 20
1568.7
 30
0.0
 11
2149.92
 21
770.7
 31
0.0
  0
LINE
  8
0
  6
CONTINUOUS
 62
     1
 10
2398.92
 20
1628.7
 30
0.0
 11
2398.92
 21
770.7
 31
0.0
  0
ENDSEC
  0
EOF
