  0
SECTION
  2
HEADER
  9
$ACADVER
  1
AC1009
  9
$DWGCODEPAGE
  3
dos932
  9
$EXTMIN
 10
0.0
 20
0.0
 30
0.0
  9
$EXTMAX
 10
2520.0
 20
1782.0
 30
0.0
  9
$LIMMIN
 10
0.0
 20
0.0
  9
$LIMMAX
 10
2520.0
 20
1782.0
  9
$LTSCALE
 40
1.0
  9
$PDMODE
 70
     0
  0
ENDSEC
  0
SECTION
  2
TABLES
  0
TABLE
  2
VPORT
 70
     1
  0
VPORT
  2
*ACTIVE
 70
     0
 10
0.0
 20
0.0
 11
1.0
 21
1.0
 12
1260.0
 22
891.0
 13
0.0
 23
0.0
 14
10.0
 24
10.0
 15
10.0
 25
10.0
 16
0.0
 26
0.0
 36
1.0
 17
0.0
 27
0.0
 37
0.0
 40
2520.0
 41
1.414141414
 42
50.0
 43
0.0
 44
0.0
 50
0.0
 51
0.0
 71
     0
 72
  1000
 73
     1
 74
     3
 75
     0
 76
     0
 77
     0
 78
     0
  0
ENDTAB
  0
TABLE
  2
LTYPE
 70
     7
  0
LTYPE
  2
CONTINUOUS
 70
    64
  3
Solid line
 72
    65
 73
     0
 40
0.0
  0
LTYPE
  2
LTYPE1
 70
    64
  3
HIDDEN
 72
    65
 73
     2
 40
18.0
 49
10.8
 49
-7.2
  0
LTYPE
  2
LTYPE2
 70
    64
  3
CENTER
 72
    65
 73
     4
 40
90.0
 49
63.0
 49
-9.0
 49
9.0
 49
-9.0
  0
LTYPE
  2
LTYPE3
 70
    64
  3
CENTER
 72
    65
 73
     4
 40
60.0
 49
42.0
 49
-6.0
 49
6.0
 49
-6.0
  0
LTYPE
  2
LTYPE4
 70
    64
  3
PHANTOM
 72
    65
 73
     6
 40
60.0
 49
45.0
 49
-3.0
 49
3.0
 49
-3.0
 49
3.0
 49
-3.0
  0
LTYPE
  2
LTYPE5
 70
    64
  3
CENTER
 72
    65
 73
     4
 40
120.0
 49
84.0
 49
-12.0
 49
12.0
 49
-12.0
  0
LTYPE
  2
LTYPE6
 70
    64
  3
CENTER
 72
    65
 73
     4
 40
54.0
 49
37.8
 49
-5.4
 49
5.4
 49
-5.4
  0
ENDTAB
  0
TABLE
  2
LAYER
 70
   128
  0
LAYER
  2
0
 70
     0
 62
     7
  6
CONTINUOUS
  0
LAYER
  2
2
 70
     0
 62
     7
  6
CONTINUOUS
  0
LAYER
  2
3
 70
     0
 62
     7
  6
CONTINUOUS
  0
LAYER
  2
4
 70
     0
 62
     7
  6
CONTINUOUS
  0
LAYER
  2
5
 70
     0
 62
     7
  6
CONTINUOUS
  0
LAYER
  2
6
 70
     0
 62
     7
  6
CONTINUOUS
  0
LAYER
  2
7
 70
     0
 62
     7
  6
CONTINUOUS
  0
LAYER
  2
8
 70
     0
 62
     7
  6
CONTINUOUS
  0
LAYER
  2
9
 70
     0
 62
     7
  6
CONTINUOUS
  0
LAYER
  2
10
 70
     0
 62
     7
  6
CONTINUOUS
  0
LAYER
  2
11
 70
     0
 62
     7
  6
CONTINUOUS
  0
LAYER
  2
12
 70
     0
 62
     7
  6
CONTINUOUS
  0
LAYER
  2
13
 70
     0
 62
     7
  6
CONTINUOUS
  0
LAYER
  2
14
 70
     0
 62
     7
  6
CONTINUOUS
  0
LAYER
  2
15
 70
     0
 62
     7
  6
CONTINUOUS
  0
LAYER
  2
16
 70
     0
 62
     7
  6
CONTINUOUS
  0
LAYER
  2
17
 70
     0
 62
     7
  6
CONTINUOUS
  0
LAYER
  2
18
 70
     0
 62
     7
  6
CONTINUOUS
  0
LAYER
  2
19
 70
     0
 62
     7
  6
CONTINUOUS
  0
LAYER
  2
20
 70
     0
 62
     7
  6
CONTINUOUS
  0
LAYER
  2
21
 70
     0
 62
     7
  6
CONTINUOUS
  0
LAYER
  2
22
 70
     0
 62
     7
  6
CONTINUOUS
  0
LAYER
  2
23
 70
     0
 62
     7
  6
CONTINUOUS
  0
LAYER
  2
24
 70
     0
 62
     7
  6
CONTINUOUS
  0
LAYER
  2
25
 70
     0
 62
     7
  6
CONTINUOUS
  0
LAYER
  2
26
 70
     0
 62
     7
  6
CONTINUOUS
  0
LAYER
  2
27
 70
     0
 62
     7
  6
CONTINUOUS
  0
LAYER
  2
28
 70
     0
 62
     7
  6
CONTINUOUS
  0
LAYER
  2
29
 70
     0
 62
     7
  6
CONTINUOUS
  0
LAYER
  2
30
 70
     0
 62
     7
  6
CONTINUOUS
  0
LAYER
  2
31
 70
     0
 62
     7
  6
CONTINUOUS
  0
LAYER
  2
32
 70
     0
 62
     7
  6
CONTINUOUS
  0
LAYER
  2
33
 70
     0
 62
     7
  6
CONTINUOUS
  0
LAYER
  2
34
 70
     0
 62
     7
  6
CONTINUOUS
  0
LAYER
  2
35
 70
     0
 62
     7
  6
CONTINUOUS
  0
LAYER
  2
36
 70
     0
 62
     7
  6
CONTINUOUS
  0
LAYER
  2
37
 70
     0
 62
     7
  6
CONTINUOUS
  0
LAYER
  2
38
 70
     0
 62
     7
  6
CONTINUOUS
  0
LAYER
  2
39
 70
     0
 62
     7
  6
CONTINUOUS
  0
LAYER
  2
40
 70
     0
 62
     7
  6
CONTINUOUS
  0
LAYER
  2
41
 70
     0
 62
     7
  6
CONTINUOUS
  0
LAYER
  2
42
 70
     0
 62
     7
  6
CONTINUOUS
  0
LAYER
  2
43
 70
     0
 62
     7
  6
CONTINUOUS
  0
LAYER
  2
44
 70
     0
 62
     7
  6
CONTINUOUS
  0
LAYER
  2
45
 70
     0
 62
     7
  6
CONTINUOUS
  0
LAYER
  2
46
 70
     0
 62
     7
  6
CONTINUOUS
  0
LAYER
  2
47
 70
     0
 62
     7
  6
CONTINUOUS
  0
LAYER
  2
48
 70
     0
 62
     7
  6
CONTINUOUS
  0
LAYER
  2
49
 70
     0
 62
     7
  6
CONTINUOUS
  0
LAYER
  2
50
 70
     0
 62
     7
  6
CONTINUOUS
  0
LAYER
  2
51
 70
     0
 62
     7
  6
CONTINUOUS
  0
LAYER
  2
52
 70
     0
 62
     7
  6
CONTINUOUS
  0
LAYER
  2
53
 70
     0
 62
     7
  6
CONTINUOUS
  0
LAYER
  2
54
 70
     0
 62
     7
  6
CONTINUOUS
  0
LAYER
  2
55
 70
     0
 62
     7
  6
CONTINUOUS
  0
LAYER
  2
56
 70
     0
 62
     7
  6
CONTINUOUS
  0
LAYER
  2
57
 70
     0
 62
     7
  6
CONTINUOUS
  0
LAYER
  2
58
 70
     0
 62
     7
  6
CONTINUOUS
  0
LAYER
  2
59
 70
     0
 62
     7
  6
CONTINUOUS
  0
LAYER
  2
60
 70
     0
 62
     7
  6
CONTINUOUS
  0
LAYER
  2
61
 70
     0
 62
     7
  6
CONTINUOUS
  0
LAYER
  2
62
 70
     0
 62
     7
  6
CONTINUOUS
  0
LAYER
  2
63
 70
     0
 62
     7
  6
CONTINUOUS
  0
LAYER
  2
64
 70
     0
 62
     7
  6
CONTINUOUS
  0
LAYER
  2
65
 70
     0
 62
     7
  6
CONTINUOUS
  0
LAYER
  2
66
 70
     0
 62
     7
  6
CONTINUOUS
  0
LAYER
  2
67
 70
     0
 62
     7
  6
CONTINUOUS
  0
LAYER
  2
68
 70
     0
 62
     7
  6
CONTINUOUS
  0
LAYER
  2
69
 70
     0
 62
     7
  6
CONTINUOUS
  0
LAYER
  2
70
 70
     0
 62
     7
  6
CONTINUOUS
  0
LAYER
  2
71
 70
     0
 62
     7
  6
CONTINUOUS
  0
LAYER
  2
72
 70
     0
 62
     7
  6
CONTINUOUS
  0
LAYER
  2
73
 70
     0
 62
     7
  6
CONTINUOUS
  0
LAYER
  2
74
 70
     0
 62
     7
  6
CONTINUOUS
  0
LAYER
  2
75
 70
     0
 62
     7
  6
CONTINUOUS
  0
LAYER
  2
76
 70
     0
 62
     7
  6
CONTINUOUS
  0
LAYER
  2
77
 70
     0
 62
     7
  6
CONTINUOUS
  0
LAYER
  2
78
 70
     0
 62
     7
  6
CONTINUOUS
  0
LAYER
  2
79
 70
     0
 62
     7
  6
CONTINUOUS
  0
LAYER
  2
80
 70
     0
 62
     7
  6
CONTINUOUS
  0
LAYER
  2
81
 70
     0
 62
     7
  6
CONTINUOUS
  0
LAYER
  2
82
 70
     0
 62
     7
  6
CONTINUOUS
  0
LAYER
  2
83
 70
     0
 62
     7
  6
CONTINUOUS
  0
LAYER
  2
84
 70
     0
 62
     7
  6
CONTINUOUS
  0
LAYER
  2
85
 70
     0
 62
     7
  6
CONTINUOUS
  0
LAYER
  2
86
 70
     0
 62
     7
  6
CONTINUOUS
  0
LAYER
  2
87
 70
     0
 62
     7
  6
CONTINUOUS
  0
LAYER
  2
88
 70
     0
 62
     7
  6
CONTINUOUS
  0
LAYER
  2
89
 70
     0
 62
     7
  6
CONTINUOUS
  0
LAYER
  2
90
 70
     0
 62
     7
  6
CONTINUOUS
  0
LAYER
  2
91
 70
     0
 62
     7
  6
CONTINUOUS
  0
LAYER
  2
92
 70
     0
 62
     7
  6
CONTINUOUS
  0
LAYER
  2
93
 70
     0
 62
     7
  6
CONTINUOUS
  0
LAYER
  2
94
 70
     0
 62
     7
  6
CONTINUOUS
  0
LAYER
  2
95
 70
     0
 62
     7
  6
CONTINUOUS
  0
LAYER
  2
96
 70
     0
 62
     7
  6
CONTINUOUS
  0
LAYER
  2
97
 70
     0
 62
     7
  6
CONTINUOUS
  0
LAYER
  2
98
 70
     0
 62
     7
  6
CONTINUOUS
  0
LAYER
  2
99
 70
     0
 62
     7
  6
CONTINUOUS
  0
LAYER
  2
100
 70
     0
 62
     7
  6
CONTINUOUS
  0
LAYER
  2
101
 70
     0
 62
     7
  6
CONTINUOUS
  0
LAYER
  2
102
 70
     0
 62
     7
  6
CONTINUOUS
  0
LAYER
  2
103
 70
     0
 62
     7
  6
CONTINUOUS
  0
LAYER
  2
104
 70
     0
 62
     7
  6
CONTINUOUS
  0
LAYER
  2
105
 70
     0
 62
     7
  6
CONTINUOUS
  0
LAYER
  2
106
 70
     0
 62
     7
  6
CONTINUOUS
  0
LAYER
  2
107
 70
     0
 62
     7
  6
CONTINUOUS
  0
LAYER
  2
108
 70
     0
 62
     7
  6
CONTINUOUS
  0
LAYER
  2
109
 70
     0
 62
     7
  6
CONTINUOUS
  0
LAYER
  2
110
 70
     0
 62
     7
  6
CONTINUOUS
  0
LAYER
  2
111
 70
     0
 62
     7
  6
CONTINUOUS
  0
LAYER
  2
112
 70
     0
 62
     7
  6
CONTINUOUS
  0
LAYER
  2
113
 70
     0
 62
     7
  6
CONTINUOUS
  0
LAYER
  2
114
 70
     0
 62
     7
  6
CONTINUOUS
  0
LAYER
  2
115
 70
     0
 62
     7
  6
CONTINUOUS
  0
LAYER
  2
116
 70
     0
 62
     7
  6
CONTINUOUS
  0
LAYER
  2
117
 70
     0
 62
     7
  6
CONTINUOUS
  0
LAYER
  2
118
 70
     0
 62
     7
  6
CONTINUOUS
  0
LAYER
  2
119
 70
     0
 62
     7
  6
CONTINUOUS
  0
LAYER
  2
120
 70
     0
 62
     7
  6
CONTINUOUS
  0
LAYER
  2
121
 70
     0
 62
     7
  6
CONTINUOUS
  0
LAYER
  2
122
 70
     0
 62
     7
  6
CONTINUOUS
  0
LAYER
  2
123
 70
     0
 62
     7
  6
CONTINUOUS
  0
LAYER
  2
124
 70
     0
 62
     7
  6
CONTINUOUS
  0
LAYER
  2
125
 70
     0
 62
     7
  6
CONTINUOUS
  0
LAYER
  2
126
 70
     0
 62
     7
  6
CONTINUOUS
  0
LAYER
  2
127
 70
     0
 62
     7
  6
CONTINUOUS
  0
LAYER
  2
128
 70
     0
 62
     7
  6
CONTINUOUS
  0
ENDTAB
  0
TABLE
  2
STYLE
 70
    84
  0
STYLE
  2
STANDARD
 70
     0
 40
0.0
 41
1.0
 50
0.0
 71
     0
 42
0.2
  3
txt.shx
  4
extfont.shx
  0
STYLE
  2
KANJI0
 70
     0
 40
15.5999988
 41
0.75
 50
0.0
 71
     0
 42
15.5999988
  3
txt.shx
  4
extfont.shx
  0
STYLE
  2
KANJI1
 70
     0
 40
11.999997477
 41
0.6
 50
0.0
 71
     0
 42
11.999997477
  3
txt.shx
  4
extfont.shx
  0
STYLE
  2
KANJI2
 70
     0
 40
14.399996972
 41
0.9
 50
0.0
 71
     0
 42
14.399996972
  3
txt.shx
  4
extfont.shx
  0
STYLE
  2
KANJI3
 70
     0
 40
17.999996215
 41
0.9
 50
0.0
 71
     0
 42
17.999996215
  3
txt.shx
  4
extfont.shx
  0
STYLE
  2
KANJI4
 70
     0
 40
10.3999992
 41
0.6
 50
0.0
 71
     0
 42
10.3999992
  3
txt.shx
  4
extfont.shx
  0
STYLE
  2
KANJI5
 70
     0
 40
12.47999904
 41
0.6
 50
0.0
 71
     0
 42
12.47999904
  3
txt.shx
  4
extfont.shx
  0
STYLE
  2
KANJI6
 70
     0
 40
18.1999986
 41
0.42031746
 50
0.0
 71
     0
 42
18.1999986
  3
txt.shx
  4
extfont.shx
  0
STYLE
  2
KANJI7
 70
     0
 40
31.1999976
 41
0.9
 50
0.0
 71
     0
 42
31.1999976
  3
txt.shx
  4
extfont.shx
  0
STYLE
  2
KANJI8
 70
     0
 40
21.6
 41
1.111111111
 50
0.0
 71
     0
 42
21.6
  3
txt.shx
  4
extfont.shx
  0
STYLE
  2
KANJI9
 70
     0
 40
10.3999992
 41
0.8
 50
0.0
 71
     0
 42
10.3999992
  3
txt.shx
  4
extfont.shx
  0
STYLE
  2
KANJI10
 70
     0
 40
12.47999904
 41
0.8
 50
0.0
 71
     0
 42
12.47999904
  3
txt.shx
  4
extfont.shx
  0
STYLE
  2
KANJI11
 70
     0
 40
30.0
 41
1.0
 50
0.0
 71
     0
 42
30.0
  3
txt.shx
  4
extfont.shx
  0
STYLE
  2
KANJI12
 70
     0
 40
30.0
 41
1.0
 50
0.0
 71
     0
 42
30.0
  3
txt.shx
  4
extfont.shx
  0
STYLE
  2
KANJI13
 70
     0
 40
30.0
 41
0.8
 50
0.0
 71
     0
 42
30.0
  3
txt.shx
  4
extfont.shx
  0
STYLE
  2
KANJI14
 70
     0
 40
24.0
 41
1.0
 50
0.0
 71
     0
 42
24.0
  3
txt.shx
  4
extfont.shx
  0
STYLE
  2
KANJI15
 70
     0
 40
21.0
 41
0.857142857
 50
0.0
 71
     0
 42
21.0
  3
txt.shx
  4
extfont.shx
  0
STYLE
  2
KANJI16
 70
     0
 40
27.0
 41
0.666666667
 50
0.0
 71
     0
 42
27.0
  3
txt.shx
  4
extfont.shx
  0
STYLE
  2
KANJI17
 70
     0
 40
13.86
 41
0.9
 50
0.0
 71
     0
 42
13.86
  3
txt.shx
  4
extfont.shx
  0
STYLE
  2
KANJI18
 70
     0
 40
21.0
 41
0.793650794
 50
0.0
 71
     0
 42
21.0
  3
txt.shx
  4
extfont.shx
  0
STYLE
  2
KANJI19
 70
     0
 40
30.0
 41
0.8
 50
0.0
 71
     0
 42
30.0
  3
txt.shx
  4
extfont.shx
  0
STYLE
  2
KANJI20
 70
     0
 40
18.0
 41
0.9
 50
0.0
 71
     0
 42
18.0
  3
txt.shx
  4
extfont.shx
  0
STYLE
  2
KANJI21
 70
     0
 40
11.661
 41
0.822608696
 50
0.0
 71
     0
 42
11.661
  3
txt.shx
  4
extfont.shx
  0
STYLE
  2
KANJI22
 70
     0
 40
13.182
 41
0.85
 50
0.0
 71
     0
 42
13.182
  3
txt.shx
  4
extfont.shx
  0
STYLE
  2
KANJI23
 70
     0
 40
11.8638
 41
0.726495726
 50
0.0
 71
     0
 42
11.8638
  3
txt.shx
  4
extfont.shx
  0
STYLE
  2
KANJI24
 70
     4
 40
55.0
 41
0.440318182
 50
0.0
 71
     0
 42
55.0
  3
txt.shx
  4
extfont.shx
  0
STYLE
  2
KANJI25
 70
     0
 40
17.740702234
 41
0.880962996
 50
0.0
 71
     0
 42
17.740702234
  3
txt.shx
  4
extfont.shx
  0
STYLE
  2
KANJI26
 70
     0
 40
11.7
 41
0.8
 50
0.0
 71
     0
 42
11.7
  3
txt.shx
  4
extfont.shx
  0
STYLE
  2
KANJI27
 70
     0
 40
15.0
 41
0.911
 50
0.0
 71
     0
 42
15.0
  3
txt.shx
  4
extfont.shx
  0
STYLE
  2
KANJI28
 70
     0
 40
15.6
 41
0.925
 50
0.0
 71
     0
 42
15.6
  3
txt.shx
  4
extfont.shx
  0
STYLE
  2
KANJI29
 70
     0
 40
10.933904043
 41
0.9
 50
0.0
 71
     0
 42
10.933904043
  3
txt.shx
  4
extfont.shx
  0
STYLE
  2
KANJI30
 70
     0
 40
15.185977837
 41
0.66671875
 50
0.0
 71
     0
 42
15.185977837
  3
txt.shx
  4
extfont.shx
  0
STYLE
  2
KANJI31
 70
     0
 40
18.223173404
 41
0.9
 50
0.0
 71
     0
 42
18.223173404
  3
txt.shx
  4
extfont.shx
  0
STYLE
  2
KANJI32
 70
     0
 40
14.578538724
 41
0.9
 50
0.0
 71
     0
 42
14.578538724
  3
txt.shx
  4
extfont.shx
  0
STYLE
  2
KANJI33
 70
     0
 40
24.0
 41
0.9
 50
0.0
 71
     0
 42
24.0
  3
txt.shx
  4
extfont.shx
  0
STYLE
  2
KANJI34
 70
     0
 40
21.0
 41
0.857142857
 50
0.0
 71
     0
 42
21.0
  3
txt.shx
  4
extfont.shx
  0
STYLE
  2
KANJI35
 70
     0
 40
16.17
 41
0.9
 50
0.0
 71
     0
 42
16.17
  3
txt.shx
  4
extfont.shx
  0
STYLE
  2
KANJI36
 70
     0
 40
15.0
 41
0.9
 50
0.0
 71
     0
 42
15.0
  3
txt.shx
  4
extfont.shx
  0
STYLE
  2
KANJI37
 70
     0
 40
15.36
 41
0.9
 50
0.0
 71
     0
 42
15.36
  3
txt.shx
  4
extfont.shx
  0
STYLE
  2
KANJI38
 70
     0
 40
14.4
 41
0.9
 50
0.0
 71
     0
 42
14.4
  3
txt.shx
  4
extfont.shx
  0
STYLE
  2
KANJI39
 70
     0
 40
14.4
 41
0.9
 50
0.0
 71
     0
 42
14.4
  3
txt.shx
  4
extfont.shx
  0
STYLE
  2
KANJI40
 70
     0
 40
16.8
 41
0.9
 50
0.0
 71
     0
 42
16.8
  3
txt.shx
  4
extfont.shx
  0
STYLE
  2
KANJI41
 70
     0
 40
12.96
 41
0.740740741
 50
0.0
 71
     0
 42
12.96
  3
txt.shx
  4
extfont.shx
  0
STYLE
  2
KANJI42
 70
     0
 40
16.8
 41
0.857142857
 50
0.0
 71
     0
 42
16.8
  3
txt.shx
  4
extfont.shx
  0
STYLE
  2
KANJI43
 70
     0
 40
15.0
 41
0.9
 50
0.0
 71
     0
 42
15.0
  3
txt.shx
  4
extfont.shx
  0
STYLE
  2
KANJI44
 70
     0
 40
18.0
 41
0.9
 50
0.0
 71
     0
 42
18.0
  3
txt.shx
  4
extfont.shx
  0
STYLE
  2
KANJI45
 70
     0
 40
17.5
 41
0.914285714
 50
0.0
 71
     0
 42
17.5
  3
txt.shx
  4
extfont.shx
  0
STYLE
  2
KANJI46
 70
     0
 40
10.0
 41
0.75
 50
0.0
 71
     0
 42
10.0
  3
txt.shx
  4
extfont.shx
  0
STYLE
  2
KANJI47
 70
     0
 40
20.0
 41
0.925
 50
0.0
 71
     0
 42
20.0
  3
txt.shx
  4
extfont.shx
  0
STYLE
  2
KANJI48
 70
     0
 40
20.0
 41
0.925
 50
0.0
 71
     0
 42
20.0
  3
txt.shx
  4
extfont.shx
  0
STYLE
  2
KANJI49
 70
     0
 40
15.0
 41
0.9
 50
0.0
 71
     0
 42
15.0
  3
txt.shx
  4
extfont.shx
  0
STYLE
  2
KANJI50
 70
     0
 40
12.0
 41
0.9
 50
0.0
 71
     0
 42
12.0
  3
txt.shx
  4
extfont.shx
  0
STYLE
  2
KANJI51
 70
     0
 40
10.0
 41
0.85
 50
0.0
 71
     0
 42
10.0
  3
txt.shx
  4
extfont.shx
  0
STYLE
  2
KANJI52
 70
     0
 40
15.0
 41
0.933333333
 50
0.0
 71
     0
 42
15.0
  3
txt.shx
  4
extfont.shx
  0
STYLE
  2
KANJI53
 70
     0
 40
15.0
 41
0.9
 50
0.0
 71
     0
 42
15.0
  3
txt.shx
  4
extfont.shx
  0
STYLE
  2
KANJI54
 70
     0
 40
14.4
 41
0.833333333
 50
0.0
 71
     0
 42
14.4
  3
txt.shx
  4
extfont.shx
  0
STYLE
  2
KANJI55
 70
     0
 40
12.0
 41
1.0
 50
0.0
 71
     0
 42
12.0
  3
txt.shx
  4
extfont.shx
  0
STYLE
  2
KANJI56
 70
     0
 40
21.0
 41
0.571428571
 50
0.0
 71
     0
 42
21.0
  3
txt.shx
  4
extfont.shx
  0
STYLE
  2
KANJI57
 70
     0
 40
22.8
 41
0.9
 50
0.0
 71
     0
 42
22.8
  3
txt.shx
  4
extfont.shx
  0
STYLE
  2
KANJI58
 70
     0
 40
22.8
 41
0.9
 50
0.0
 71
     0
 42
22.8
  3
txt.shx
  4
extfont.shx
  0
STYLE
  2
KANJI59
 70
     0
 40
27.0
 41
0.9
 50
0.0
 71
     0
 42
27.0
  3
txt.shx
  4
extfont.shx
  0
STYLE
  2
KANJI60
 70
     0
 40
22.8
 41
0.9
 50
0.0
 71
     0
 42
22.8
  3
txt.shx
  4
extfont.shx
  0
STYLE
  2
KANJI61
 70
     0
 40
22.8
 41
0.9
 50
0.0
 71
     0
 42
22.8
  3
txt.shx
  4
extfont.shx
  0
STYLE
  2
KANJI62
 70
     0
 40
22.8
 41
0.9
 50
0.0
 71
     0
 42
22.8
  3
txt.shx
  4
extfont.shx
  0
STYLE
  2
KANJI63
 70
     0
 40
22.8
 41
0.9
 50
0.0
 71
     0
 42
22.8
  3
txt.shx
  4
extfont.shx
  0
STYLE
  2
KANJI64
 70
     0
 40
22.8
 41
0.9
 50
0.0
 71
     0
 42
22.8
  3
txt.shx
  4
extfont.shx
  0
STYLE
  2
KANJI65
 70
     0
 40
22.8
 41
0.9
 50
0.0
 71
     0
 42
22.8
  3
txt.shx
  4
extfont.shx
  0
STYLE
  2
KANJI66
 70
     4
 40
21.0
 41
0.9
 50
0.0
 71
     0
 42
21.0
  3
txt.shx
  4
extfont.shx
  0
STYLE
  2
KANJI67
 70
     4
 40
21.0
 41
0.9
 50
0.0
 71
     0
 42
21.0
  3
txt.shx
  4
extfont.shx
  0
STYLE
  2
KANJI68
 70
     0
 40
21.0
 41
0.9
 50
0.0
 71
     0
 42
21.0
  3
txt.shx
  4
extfont.shx
  0
STYLE
  2
KANJI69
 70
     0
 40
18.0
 41
0.9
 50
0.0
 71
     0
 42
18.0
  3
txt.shx
  4
extfont.shx
  0
STYLE
  2
KANJI70
 70
     0
 40
21.0
 41
0.9
 50
0.0
 71
     0
 42
21.0
  3
txt.shx
  4
extfont.shx
  0
STYLE
  2
KANJI71
 70
     0
 40
22.8
 41
0.9
 50
0.0
 71
     0
 42
22.8
  3
txt.shx
  4
extfont.shx
  0
STYLE
  2
KANJI72
 70
     0
 40
22.8
 41
0.9
 50
0.0
 71
     0
 42
22.8
  3
txt.shx
  4
extfont.shx
  0
STYLE
  2
KANJI73
 70
     0
 40
21.0
 41
0.628571429
 50
0.0
 71
     0
 42
21.0
  3
txt.shx
  4
extfont.shx
  0
STYLE
  2
KANJI74
 70
     0
 40
20.4
 41
0.705882353
 50
0.0
 71
     0
 42
20.4
  3
txt.shx
  4
extfont.shx
  0
STYLE
  2
KANJI75
 70
     0
 40
18.0
 41
0.8
 50
0.0
 71
     0
 42
18.0
  3
txt.shx
  4
extfont.shx
  0
STYLE
  2
KANJI76
 70
     0
 40
19.2
 41
0.71875
 50
0.0
 71
     0
 42
19.2
  3
txt.shx
  4
extfont.shx
  0
STYLE
  2
KANJI77
 70
     0
 40
19.2
 41
0.8
 50
0.0
 71
     0
 42
19.2
  3
txt.shx
  4
extfont.shx
  0
STYLE
  2
KANJI78
 70
     0
 40
21.0
 41
0.571428571
 50
0.0
 71
     0
 42
21.0
  3
txt.shx
  4
extfont.shx
  0
STYLE
  2
KANJI79
 70
     0
 40
18.0
 41
0.833333333
 50
0.0
 71
     0
 42
18.0
  3
txt.shx
  4
extfont.shx
  0
STYLE
  2
KANJI80
 70
     0
 40
21.0
 41
0.9
 50
0.0
 71
     0
 42
21.0
  3
txt.shx
  4
extfont.shx
  0
STYLE
  2
KANJI81
 70
     0
 40
21.0
 41
0.857142857
 50
0.0
 71
     0
 42
21.0
  3
txt.shx
  4
extfont.shx
  0
STYLE
  2
KANJI82
 70
     0
 40
18.0
 41
0.833333333
 50
0.0
 71
     0
 42
18.0
  3
txt.shx
  4
extfont.shx
  0
ENDTAB
  0
TABLE
  2
VIEW
 70
     0
  0
ENDTAB
  0
ENDSEC
  0
SECTION
  2
BLOCKS
  0
ENDSEC
  0
SECTION
  2
ENTITIES
  0
POLYLINE
  8
0
  6
CONTINUOUS
 62
     6
 66
     1
  0
VERTEX
  8
0
  6
CONTINUOUS
 62
     6
 10
82.92
 20
71.7
 30
0.0
  0
VERTEX
  8
0
  6
CONTINUOUS
 62
     6
 10
82.92
 20
1685.7
 30
0.0
  0
VERTEX
  8
0
  6
CONTINUOUS
 62
     6
 10
2404.92
 20
1685.7
 30
0.0
  0
SEQEND
  0
LINE
  8
0
  6
CONTINUOUS
 62
     6
 10
88.919998738
 20
161.699981077
 30
0.0
 11
478.919916738
 21
161.699981077
 31
0.0
  0
LINE
  8
0
  6
CONTINUOUS
 62
     6
 10
88.919998738
 20
77.699998738
 30
0.0
 11
478.919916738
 21
77.699998738
 31
0.0
  0
LINE
  8
0
  6
CONTINUOUS
 62
     6
 10
88.919998738
 20
77.699998738
 30
0.0
 11
88.919998738
 21
161.699981077
 31
0.0
  0
LINE
  8
0
  6
CONTINUOUS
 62
     6
 10
88.919998738
 20
119.699989908
 30
0.0
 11
478.919916738
 21
119.699989908
 31
0.0
  0
LINE
  8
0
  6
CONTINUOUS
 62
     4
 10
14.6199996
 20
76.8999996
 30
0.0
 11
77.0199948
 21
76.8999996
 31
0.0
  0
LINE
  8
0
  6
CONTINUOUS
 62
     4
 10
14.6199996
 20
108.0999972
 30
0.0
 11
77.0199948
 21
108.0999972
 31
0.0
  0
LINE
  8
0
  6
CONTINUOUS
 62
     4
 10
14.6199996
 20
139.2999948
 30
0.0
 11
77.0199948
 21
139.2999948
 31
0.0
  0
LINE
  8
0
  6
CONTINUOUS
 62
     4
 10
14.6199996
 20
170.4999924
 30
0.0
 11
77.0199948
 21
170.4999924
 31
0.0
  0
LINE
  8
0
  6
CONTINUOUS
 62
     4
 10
14.6199996
 20
201.69999
 30
0.0
 11
77.0199948
 21
201.69999
 31
0.0
  0
LINE
  8
0
  6
CONTINUOUS
 62
     4
 10
14.6199996
 20
232.8999876
 30
0.0
 11
77.0199948
 21
232.8999876
 31
0.0
  0
LINE
  8
0
  6
CONTINUOUS
 62
     4
 10
14.6199996
 20
264.0999852
 30
0.0
 11
77.0199948
 21
264.0999852
 31
0.0
  0
LINE
  8
0
  6
CONTINUOUS
 62
     4
 10
14.6199996
 20
295.2999828
 30
0.0
 11
77.0199948
 21
295.2999828
 31
0.0
  0
LINE
  8
0
  6
CONTINUOUS
 62
     4
 10
14.6199996
 20
326.4999804
 30
0.0
 11
77.0199948
 21
326.4999804
 31
0.0
  0
LINE
  8
0
  6
CONTINUOUS
 62
     4
 10
14.6199996
 20
357.699978
 30
0.0
 11
77.0199948
 21
357.699978
 31
0.0
  0
LINE
  8
0
  6
CONTINUOUS
 62
     4
 10
77.0199948
 20
76.8999996
 30
0.0
 11
77.0199948
 21
357.699978
 31
0.0
  0
LINE
  8
0
  6
CONTINUOUS
 62
     4
 10
45.8199972
 20
76.8999996
 30
0.0
 11
45.8199972
 21
326.4999804
 31
0.0
  0
TEXT
  8
0
  6
CONTINUOUS
 62
     4
 10
25.27999878
 20
85.9999989
 30
1.55999988
 40
15.5999988
  1
計
 50
0.0
 41
0.75
 51
0.0
  7
KANJI0
  0
TEXT
  8
0
  6
CONTINUOUS
 62
     4
 10
25.27999878
 20
148.91999406
 30
1.55999988
 40
15.5999988
  1
設
 50
0.0
 41
0.75
 51
0.0
  7
KANJI0
  0
TEXT
  8
0
  6
CONTINUOUS
 62
     4
 10
25.27999878
 20
179.5999917
 30
1.55999988
 40
15.5999988
  1
管
 50
0.0
 41
0.75
 51
0.0
  7
KANJI0
  0
TEXT
  8
0
  6
CONTINUOUS
 62
     4
 10
25.27999878
 20
210.7999893
 30
1.55999988
 40
15.5999988
  1
製
 50
0.0
 41
0.75
 51
0.0
  7
KANJI0
  0
TEXT
  8
0
  6
CONTINUOUS
 62
     4
 10
25.27999878
 20
241.9999869
 30
1.55999988
 40
15.5999988
  1
資
 50
0.0
 41
0.75
 51
0.0
  7
KANJI0
  0
TEXT
  8
0
  6
CONTINUOUS
 62
     4
 10
25.27999878
 20
273.1999845
 30
1.55999988
 40
15.5999988
  1
営
 50
0.0
 41
0.75
 51
0.0
  7
KANJI0
  0
TEXT
  8
0
  6
CONTINUOUS
 62
     4
 10
25.27999878
 20
304.3999821
 30
1.55999988
 40
15.5999988
  1
客
 50
0.0
 41
0.75
 51
0.0
  7
KANJI0
  0
TEXT
  8
0
  6
CONTINUOUS
 62
     4
 10
25.0199988
 20
336.8999796
 30
1.55999988
 40
15.5999988
  1
出　図
 50
0.0
 41
0.75
 51
0.0
  7
KANJI0
  0
LINE
  8
0
  6
CONTINUOUS
 62
     4
 10
14.6199996
 20
76.8999996
 30
0.0
 11
14.6199996
 21
357.699978
 31
0.0
  0
LINE
  8
0
  6
CONTINUOUS
 62
     6
 10
2404.92
 20
71.7
 30
0.0
 11
82.92
 21
71.7
 31
0.0
  0
TEXT
  8
0
  6
CONTINUOUS
 62
     4
 10
100.919996215
 20
101.699993692
 30
1.199999748
 40
11.999997477
  1
ＰＡＲＴＳ　ＬＩＳＴ
 50
0.0
 41
0.6
 51
0.0
  7
KANJI1
  0
TEXT
  8
0
  6
CONTINUOUS
 62
     4
 10
100.919996215
 20
83.699997477
 30
1.439999697
 40
14.399996972
  1
部品表
 50
0.0
 41
0.9
 51
0.0
  7
KANJI2
  0
TEXT
  8
0
  6
CONTINUOUS
 62
     3
 10
100.919996215
 20
131.699987385
 30
1.799999622
 40
17.999996215
  1
ＰＬ
 50
0.0
 41
0.9
 51
0.0
  7
KANJI3
  0
TEXT
  8
0
  6
CONTINUOUS
 62
     4
 10
370.919939446
 20
101.699993692
 30
1.199999748
 40
11.999997477
  1
Ｎ０．
 50
0.0
 41
0.6
 51
0.0
  7
KANJI1
  0
TEXT
  8
0
  6
CONTINUOUS
 62
     4
 10
370.919939446
 20
83.699997477
 30
1.439999697
 40
14.399996972
  1
項番
 50
0.0
 41
0.9
 51
0.0
  7
KANJI2
  0
LINE
  8
0
  6
CONTINUOUS
 62
     6
 10
478.919916738
 20
77.699998738
 30
0.0
 11
478.919916738
 21
161.699981077
 31
0.0
  0
LINE
  8
0
  6
CONTINUOUS
 62
     6
 10
358.919941969
 20
77.699998738
 30
0.0
 11
358.919941969
 21
161.699981077
 31
0.0
  0
LINE
  8
0
  6
CONTINUOUS
 62
     6
 10
2404.92
 20
1685.7
 30
0.0
 11
2404.92
 21
71.7
 31
0.0
  0
LINE
  8
0
  6
CONTINUOUS
 62
     6
 10
1598.920062
 20
76.8999996
 30
0.0
 11
1598.920062
 21
409.699974
 31
0.0
  0
LINE
  8
0
  6
CONTINUOUS
 62
     6
 10
2399.7200004
 20
76.8999996
 30
0.0
 11
2399.7200004
 21
409.699974
 31
0.0
  0
LINE
  8
0
  6
CONTINUOUS
 62
     4
 10
1788.7200474
 20
76.8999996
 30
0.0
 11
1788.7200474
 21
409.699974
 31
0.0
  0
LINE
  8
0
  6
CONTINUOUS
 62
     4
 10
1598.920062
 20
118.4999964
 30
0.0
 11
1788.7200474
 21
118.4999964
 31
0.0
  0
TEXT
  8
0
  6
CONTINUOUS
 62
     4
 10
1609.3200612
 20
100.2999978
 30
1.03999992
 40
10.3999992
  1
ＳＣＡＬＥ
 50
0.0
 41
0.6
 51
0.0
  7
KANJI4
  0
TEXT
  8
0
  6
CONTINUOUS
 62
     4
 10
1609.3200612
 20
84.699999
 30
1.247999904
 40
12.47999904
  1
尺度
 50
0.0
 41
0.6
 51
0.0
  7
KANJI5
  0
LINE
  8
0
  6
CONTINUOUS
 62
     6
 10
1188.1200936
 20
118.4999964
 30
0.0
 11
1598.920062
 21
118.4999964
 31
0.0
  0
LINE
  8
0
  6
CONTINUOUS
 62
     6
 10
1188.1200936
 20
76.8999996
 30
0.0
 11
2399.7200004
 21
76.8999996
 31
0.0
  0
TEXT
  8
0
  6
CONTINUOUS
 62
     6
 10
1793.920047
 20
100.2999978
 30
0.0
 40
18.1999986
  1
ＵＮＩＴＥＣ　ＩＮＤＵＳＴＲＹ　ＣＯ．，ＬＴＤ．
 50
0.0
 41
0.42031746
 51
0.0
  7
KANJI6
  0
TEXT
  8
0
  6
CONTINUOUS
 62
     6
 10
2049.175027365
 20
93.53999832
 30
3.11999976
 40
31.1999976
  1
ユニテック工業株式会社
 50
0.0
 41
0.9
 51
0.0
  7
KANJI7
  0
LINE
  8
0
  6
CONTINUOUS
 62
     6
 10
2007.575030565
 20
104.45999748
 30
0.0
 11
1993.847031621
 21
104.45999748
 31
0.0
  0
LINE
  8
0
  6
CONTINUOUS
 62
     6
 10
2007.575030565
 20
106.955997288
 30
0.0
 11
1993.847031621
 21
106.955997288
 31
0.0
  0
LINE
  8
0
  6
CONTINUOUS
 62
     6
 10
2007.575030565
 20
104.45999748
 30
0.0
 11
2021.303029509
 21
104.45999748
 31
0.0
  0
LINE
  8
0
  6
CONTINUOUS
 62
     6
 10
2007.575030565
 20
106.955997288
 30
0.0
 11
2021.303029509
 21
106.955997288
 31
0.0
  0
LINE
  8
0
  6
CONTINUOUS
 62
     6
 10
2021.303029509
 20
106.955997288
 30
0.0
 11
2021.303029509
 21
104.45999748
 31
0.0
  0
ARC
  8
0
  6
CONTINUOUS
 62
     6
 10
2024.423029269
 20
105.707997384
 30
0.0
 40
12.47999904
 50
185.739170477
 51
90.0
  0
ARC
  8
0
  6
CONTINUOUS
 62
     6
 10
2024.423029269
 20
105.707997384
 30
0.0
 40
14.975998848
 50
184.780191847
 51
90.0
  0
LINE
  8
0
  6
CONTINUOUS
 62
     6
 10
1993.847031621
 20
104.45999748
 30
0.0
 11
1993.847031621
 21
106.955997288
 31
0.0
  0
ARC
  8
0
  6
CONTINUOUS
 62
     6
 10
1990.727031861
 20
105.707997384
 30
0.0
 40
12.47999904
 50
90.0
 51
354.260829523
  0
ARC
  8
0
  6
CONTINUOUS
 62
     6
 10
1990.727031861
 20
105.707997384
 30
0.0
 40
14.975998848
 50
90.0
 51
355.219808153
  0
LINE
  8
0
  6
CONTINUOUS
 62
     6
 10
2005.703030709
 20
120.683996232
 30
0.0
 11
2005.703030709
 21
118.187996424
 31
0.0
  0
LINE
  8
0
  6
CONTINUOUS
 62
     6
 10
1990.727031861
 20
118.187996424
 30
0.0
 11
2005.703030709
 21
118.187996424
 31
0.0
  0
LINE
  8
0
  6
CONTINUOUS
 62
     6
 10
2009.447030421
 20
120.683996232
 30
0.0
 11
2009.447030421
 21
118.187996424
 31
0.0
  0
LINE
  8
0
  6
CONTINUOUS
 62
     6
 10
2024.423029269
 20
118.187996424
 30
0.0
 11
2009.447030421
 21
118.187996424
 31
0.0
  0
TEXT
  8
0
  6
CONTINUOUS
 62
     4
 10
1320.7200834
 20
100.2999978
 30
1.03999992
 40
10.3999992
  1
ＢＹ
 50
0.0
 41
0.6
 51
0.0
  7
KANJI4
  0
TEXT
  8
0
  6
CONTINUOUS
 62
     4
 10
1435.1200746
 20
100.2999978
 30
1.03999992
 40
10.3999992
  1
ＤＥＳＣＲＩＰＴＩＯＮ
 50
0.0
 41
0.6
 51
0.0
  7
KANJI4
  0
TEXT
  8
0
  6
CONTINUOUS
 62
     4
 10
1320.7200834
 20
84.699999
 30
1.247999904
 40
12.47999904
  1
担当
 50
0.0
 41
0.6
 51
0.0
  7
KANJI5
  0
TEXT
  8
0
  6
CONTINUOUS
 62
     4
 10
1450.7200734
 20
84.699999
 30
1.247999904
 40
12.47999904
  1
記　　　　事
 50
0.0
 41
0.6
 51
0.0
  7
KANJI5
  0
LINE
  8
0
  6
CONTINUOUS
 62
     4
 10
1210.2200919
 20
110.699997
 30
0.0
 11
1193.3200932
 21
84.699999
 31
0.0
  0
TEXT
  8
0
  6
CONTINUOUS
 62
     4
 10
1253.1200886
 20
100.2999978
 30
1.03999992
 40
10.3999992
  1
ＤＡＴＥ
 50
0.0
 41
0.6
 51
0.0
  7
KANJI4
  0
TEXT
  8
0
  6
CONTINUOUS
 62
     4
 10
1260.920088
 20
84.699999
 30
1.247999904
 40
12.47999904
  1
日付
 50
0.0
 41
0.6
 51
0.0
  7
KANJI5
  0
LINE
  8
0
  6
CONTINUOUS
 62
     4
 10
1193.3200932
 20
84.699999
 30
0.0
 11
1227.1200906
 21
84.699999
 31
0.0
  0
LINE
  8
0
  6
CONTINUOUS
 62
     4
 10
1210.2200919
 20
110.699997
 30
0.0
 11
1227.1200906
 21
84.699999
 31
0.0
  0
LINE
  8
0
  6
CONTINUOUS
 62
     6
 10
1188.1200936
 20
76.8999996
 30
0.0
 11
1188.1200936
 21
118.4999964
 31
0.0
  0
LINE
  8
0
  6
CONTINUOUS
 62
     4
 10
1232.3200902
 20
76.8999996
 30
0.0
 11
1232.3200902
 21
118.4999964
 31
0.0
  0
LINE
  8
0
  6
CONTINUOUS
 62
     4
 10
1305.1200846
 20
76.8999996
 30
0.0
 11
1305.1200846
 21
118.4999964
 31
0.0
  0
LINE
  8
0
  6
CONTINUOUS
 62
     4
 10
1351.920081
 20
76.8999996
 30
0.0
 11
1351.920081
 21
118.4999964
 31
0.0
  0
TEXT
  8
0
  6
CONTINUOUS
 62
     4
 10
1609.3200612
 20
308.2999818
 30
1.03999992
 40
10.3999992
  1
ＣＯＤＥ
 50
0.0
 41
0.6
 51
0.0
  7
KANJI4
  0
LINE
  8
0
  6
CONTINUOUS
 62
     4
 10
1598.920062
 20
326.4999804
 30
0.0
 11
2399.7200004
 21
326.4999804
 31
0.0
  0
TEXT
  8
0
  6
CONTINUOUS
 62
     4
 10
1609.3200612
 20
292.699983
 30
1.247999904
 40
12.47999904
  1
分類
 50
0.0
 41
0.6
 51
0.0
  7
KANJI5
  0
TEXT
  8
0
  6
CONTINUOUS
 62
     4
 10
1617.42
 20
332.7
 30
6.0
 40
21.6
  1
ご注文主
 50
0.0
 41
1.111111111
 51
0.0
  7
KANJI8
  0
TEXT
  8
0
  6
CONTINUOUS
 62
     4
 10
1609.3200612
 20
183.4999914
 30
1.03999992
 40
10.3999992
  1
ＤＲＡＷＮ
 50
0.0
 41
0.6
 51
0.0
  7
KANJI4
  0
TEXT
  8
0
  6
CONTINUOUS
 62
     4
 10
1609.3200612
 20
225.0999882
 30
1.03999992
 40
10.3999992
  1
ＤＥＳＩＧＮ
 50
0.0
 41
0.6
 51
0.0
  7
KANJI4
  0
TEXT
  8
0
  6
CONTINUOUS
 62
     4
 10
1609.3200612
 20
266.699985
 30
1.03999992
 40
10.3999992
  1
ＣＨＥＣＫ
 50
0.0
 41
0.6
 51
0.0
  7
KANJI4
  0
LINE
  8
0
  6
CONTINUOUS
 62
     4
 10
1598.920062
 20
243.2999868
 30
0.0
 11
1788.7200474
 21
243.2999868
 31
0.0
  0
LINE
  8
0
  6
CONTINUOUS
 62
     4
 10
1598.920062
 20
201.69999
 30
0.0
 11
1788.7200474
 21
201.69999
 31
0.0
  0
LINE
  8
0
  6
CONTINUOUS
 62
     4
 10
1598.920062
 20
284.8999836
 30
0.0
 11
1788.7200474
 21
284.8999836
 31
0.0
  0
TEXT
  8
0
  6
CONTINUOUS
 62
     4
 10
1609.3200612
 20
209.4999894
 30
1.247999904
 40
12.47999904
  1
設計
 50
0.0
 41
0.6
 51
0.0
  7
KANJI5
  0
TEXT
  8
0
  6
CONTINUOUS
 62
     4
 10
1609.3200612
 20
251.0999862
 30
1.247999904
 40
12.47999904
  1
検図
 50
0.0
 41
0.6
 51
0.0
  7
KANJI5
  0
LINE
  8
0
  6
CONTINUOUS
 62
     4
 10
1804.06004622
 20
284.8999836
 30
0.0
 11
2399.7200004
 21
284.8999836
 31
0.0
  0
LINE
  8
0
  6
CONTINUOUS
 62
     4
 10
1788.7200474
 20
201.69999
 30
0.0
 11
2399.7200004
 21
201.69999
 31
0.0
  0
TEXT
  8
0
  6
CONTINUOUS
 62
     4
 10
1799.1200466
 20
183.4999914
 30
1.03999992
 40
10.3999992
  1
ＤＲＡＷＩＮＧ　ＮＯ．
 50
0.0
 41
0.8
 51
0.0
  7
KANJI9
  0
TEXT
  8
0
  6
CONTINUOUS
 62
     4
 10
1799.1200466
 20
225.0999882
 30
1.03999992
 40
10.3999992
  1
ＭＦＧ　ＮＯ．
 50
0.0
 41
0.8
 51
0.0
  7
KANJI9
  0
TEXT
  8
0
  6
CONTINUOUS
 62
     4
 10
1799.1200466
 20
266.699985
 30
1.03999992
 40
10.3999992
  1
ＴＹＰＥ
 50
0.0
 41
0.8
 51
0.0
  7
KANJI9
  0
LINE
  8
0
  6
CONTINUOUS
 62
     4
 10
1804.3200462
 20
243.2999868
 30
0.0
 11
2043.5200278
 21
243.2999868
 31
0.0
  0
TEXT
  8
0
  6
CONTINUOUS
 62
     4
 10
1799.1200466
 20
165.2999928
 30
1.247999904
 40
12.47999904
  1
図　面　番　号
 50
0.0
 41
0.8
 51
0.0
  7
KANJI10
  0
TEXT
  8
0
  6
CONTINUOUS
 62
     4
 10
1799.1200466
 20
206.8999896
 30
1.247999904
 40
12.47999904
  1
製番
 50
0.0
 41
0.8
 51
0.0
  7
KANJI10
  0
TEXT
  8
0
  6
CONTINUOUS
 62
     4
 10
1799.1200466
 20
248.4999864
 30
1.247999904
 40
12.47999904
  1
機種
 50
0.0
 41
0.8
 51
0.0
  7
KANJI10
  0
LINE
  8
0
  6
CONTINUOUS
 62
     4
 10
1598.920062
 20
160.0999932
 30
0.0
 11
1788.7200474
 21
160.0999932
 31
0.0
  0
TEXT
  8
0
  6
CONTINUOUS
 62
     4
 10
1609.3200612
 20
141.8999946
 30
1.03999992
 40
10.3999992
  1
ＤＡＴＥ
 50
0.0
 41
0.6
 51
0.0
  7
KANJI4
  0
TEXT
  8
0
  6
CONTINUOUS
 62
     4
 10
1609.3200612
 20
126.2999958
 30
1.247999904
 40
12.47999904
  1
日付
 50
0.0
 41
0.6
 51
0.0
  7
KANJI5
  0
TEXT
  8
0
  6
CONTINUOUS
 62
     4
 10
1609.3200612
 20
167.8999926
 30
1.247999904
 40
12.47999904
  1
作図
 50
0.0
 41
0.6
 51
0.0
  7
KANJI5
  0
LINE
  8
0
  6
CONTINUOUS
 62
     4
 10
1788.7200474
 20
141.8999946
 30
0.0
 11
2399.7200004
 21
141.8999946
 31
0.0
  0
LINE
  8
0
  6
LTYPE1
 62
     4
 10
2225.5200138
 20
149.699994
 30
0.0
 11
2225.5200138
 21
191.2999908
 31
0.0
  0
LINE
  8
0
  6
LTYPE1
 62
     4
 10
2189.1200166
 20
149.699994
 30
0.0
 11
2189.1200166
 21
191.2999908
 31
0.0
  0
LINE
  8
0
  6
LTYPE1
 62
     4
 10
2152.7200194
 20
149.699994
 30
0.0
 11
2152.7200194
 21
191.2999908
 31
0.0
  0
LINE
  8
0
  6
LTYPE1
 62
     4
 10
2116.3200222
 20
149.699994
 30
0.0
 11
2116.3200222
 21
191.2999908
 31
0.0
  0
LINE
  8
0
  6
LTYPE1
 62
     4
 10
2079.920025
 20
149.699994
 30
0.0
 11
2079.920025
 21
191.2999908
 31
0.0
  0
LINE
  8
0
  6
LTYPE1
 62
     4
 10
2043.5200278
 20
149.699994
 30
0.0
 11
2043.5200278
 21
191.2999908
 31
0.0
  0
LINE
  8
0
  6
LTYPE1
 62
     4
 10
2007.1200306
 20
149.699994
 30
0.0
 11
2007.1200306
 21
191.2999908
 31
0.0
  0
LINE
  8
0
  6
LTYPE1
 62
     4
 10
1970.7200334
 20
149.699994
 30
0.0
 11
1970.7200334
 21
191.2999908
 31
0.0
  0
LINE
  8
0
  6
LTYPE1
 62
     4
 10
1970.7200334
 20
191.2999908
 30
0.0
 11
2225.5200138
 21
191.2999908
 31
0.0
  0
LINE
  8
0
  6
LTYPE1
 62
     4
 10
1970.7200334
 20
149.699994
 30
0.0
 11
2225.5200138
 21
149.699994
 31
0.0
  0
LINE
  8
0
  6
CONTINUOUS
 62
     4
 10
2246.3200122
 20
171.7999923
 30
0.0
 11
2256.7200114
 21
171.7999923
 31
0.0
  0
LINE
  8
0
  6
CONTINUOUS
 62
     4
 10
2311.3200072
 20
156.1999935
 30
0.0
 11
2274.92001
 21
156.1999935
 31
0.0
  0
LINE
  8
0
  6
CONTINUOUS
 62
     4
 10
2274.92001
 20
156.1999935
 30
0.0
 11
2293.1200086
 21
187.3999911
 31
0.0
  0
LINE
  8
0
  6
CONTINUOUS
 62
     4
 10
2293.1200086
 20
187.3999911
 30
0.0
 11
2311.3200072
 21
156.1999935
 31
0.0
  0
TEXT
  8
0
  6
CONTINUOUS
 62
     4
 10
2059.1200266
 20
266.699985
 30
1.03999992
 40
10.3999992
  1
ＴＩＴＬＥ
 50
0.0
 41
0.8
 51
0.0
  7
KANJI9
  0
TEXT
  8
0
  6
CONTINUOUS
 62
     4
 10
2059.1200266
 20
248.4999864
 30
1.247999904
 40
12.47999904
  1
名称
 50
0.0
 41
0.8
 51
0.0
  7
KANJI10
  0
TEXT
  8
0
  6
CONTINUOUS
 62
     2
 10
2143.92
 20
209.7
 30
15.0
 40
30.0
  1
外形寸法図
 50
0.0
 41
1.0
 51
0.0
  7
KANJI11
  0
TEXT
  8
0
  6
CONTINUOUS
 62
     2
 10
2107.92
 20
245.7
 30
4.285714286
 40
30.0
  1
マイティシリンダ
 50
0.0
 41
1.0
 51
0.0
  7
KANJI12
  0
TEXT
  8
0
  6
CONTINUOUS
 62
     2
 10
1939.2200334
 20
155.699994
 30
1.8
 40
30.0
  1
Ａ
 50
0.0
 41
0.8
 51
0.0
  7
KANJI13
  0
CIRCLE
  8
0
  6
CONTINUOUS
 62
     2
 10
1900.2200334
 20
220.199994
 30
0.0
 40
15.0
  0
TEXT
  8
0
  6
CONTINUOUS
 62
     2
 10
1888.9700334
 20
208.949994
 30
1.8
 40
24.0
  1
Ｓ
 50
0.0
 41
1.0
 51
0.0
  7
KANJI14
  0
LINE
  8
0
  6
CONTINUOUS
 62
     6
 10
2005.703030709
 20
120.683996232
 30
0.0
 11
1990.727031861
 21
120.683996232
 31
0.0
  0
LINE
  8
0
  6
CONTINUOUS
 62
     6
 10
2009.447030421
 20
120.683996232
 30
0.0
 11
2024.423029269
 21
120.683996232
 31
0.0
  0
TEXT
  8
0
  6
CONTINUOUS
 62
     2
 10
1665.9200334
 20
170.699994
 30
6.0
 40
21.0
  1
岡田
 50
0.0
 41
0.857142857
 51
0.0
  7
KANJI15
  0
LINE
  8
0
  6
CONTINUOUS
 62
     4
 10
2399.7200004
 20
368.0999772
 30
0.0
 11
2399.7200004
 21
409.699974
 31
0.0
  0
LINE
  8
0
  6
CONTINUOUS
 62
     6
 10
1599.670062
 20
368.0999772
 30
0.0
 11
2400.4700004
 21
368.0999772
 31
0.0
  0
LINE
  8
0
  6
CONTINUOUS
 62
     6
 10
1598.920062
 20
409.699974
 30
0.0
 11
2399.7200004
 21
409.699974
 31
0.0
  0
TEXT
  8
0
  6
CONTINUOUS
 62
     4
 10
1617.42
 20
374.2999968
 30
6.0
 40
21.6
  1
ご用途
 50
0.0
 41
1.111111111
 51
0.0
  7
KANJI8
  0
TEXT
  8
0
  6
CONTINUOUS
 62
     2
 10
1708.92
 20
83.7
 30
1.8
 40
27.0
  1
１／６
 50
0.0
 41
0.666666667
 51
0.0
  7
KANJI16
  0
LINE
  8
0
  6
CONTINUOUS
 62
     1
 10
1523.37
 20
1674.9
 30
0.0
 11
1523.37
 21
1554.78
 31
0.0
  0
LINE
  8
0
  6
CONTINUOUS
 62
     2
 10
1454.07
 20
1674.9
 30
0.0
 11
1454.07
 21
1554.78
 31
0.0
  0
LINE
  8
0
  6
CONTINUOUS
 62
     2
 10
1384.77
 20
1674.9
 30
0.0
 11
1384.77
 21
1554.78
 31
0.0
  0
LINE
  8
0
  6
CONTINUOUS
 62
     1
 10
1292.37
 20
1674.9
 30
0.0
 11
1292.37
 21
1554.78
 31
0.0
  0
LINE
  8
0
  6
CONTINUOUS
 62
     1
 10
1292.37
 20
1674.9
 30
0.0
 11
1523.37
 21
1674.9
 31
0.0
  0
LINE
  8
0
  6
CONTINUOUS
 62
     1
 10
1292.37
 20
1637.94
 30
0.0
 11
1523.37
 21
1637.94
 31
0.0
  0
LINE
  8
0
  6
CONTINUOUS
 62
     2
 10
1292.37
 20
1610.22
 30
0.0
 11
1523.37
 21
1610.22
 31
0.0
  0
LINE
  8
0
  6
CONTINUOUS
 62
     2
 10
1292.37
 20
1582.5
 30
0.0
 11
1523.37
 21
1582.5
 31
0.0
  0
LINE
  8
0
  6
CONTINUOUS
 62
     1
 10
1292.37
 20
1554.78
 30
0.0
 11
1523.37
 21
1554.78
 31
0.0
  0
TEXT
  8
0
  6
CONTINUOUS
 62
     2
 10
1463.31
 20
1658.73
 30
1.386
 40
13.86
  1
起動電流
 50
0.0
 41
0.9
 51
0.0
  7
KANJI17
  0
TEXT
  8
0
  6
CONTINUOUS
 62
     2
 10
1463.31
 20
1642.56
 30
1.386
 40
13.86
  1
　　　Ａ
 50
0.0
 41
0.9
 51
0.0
  7
KANJI17
  0
TEXT
  8
0
  6
CONTINUOUS
 62
     2
 10
1394.01
 20
1658.73
 30
1.386
 40
13.86
  1
定格電流
 50
0.0
 41
0.9
 51
0.0
  7
KANJI17
  0
TEXT
  8
0
  6
CONTINUOUS
 62
     2
 10
1394.01
 20
1642.56
 30
1.386
 40
13.86
  1
　　　Ａ
 50
0.0
 41
0.9
 51
0.0
  7
KANJI17
  0
TEXT
  8
0
  6
CONTINUOUS
 62
     2
 10
1300.224
 20
1589.43
 30
1.386
 40
13.86
  1
２００／６０
 50
0.0
 41
0.9
 51
0.0
  7
KANJI17
  0
TEXT
  8
0
  6
CONTINUOUS
 62
     2
 10
1300.224
 20
1658.73
 30
1.386
 40
13.86
  1
電圧／周波数
 50
0.0
 41
0.9
 51
0.0
  7
KANJI17
  0
TEXT
  8
0
  6
CONTINUOUS
 62
     2
 10
1300.224
 20
1642.56
 30
1.386
 40
13.86
  1
　Ｖ／Ｈｚ
 50
0.0
 41
0.9
 51
0.0
  7
KANJI17
  0
TEXT
  8
0
  6
CONTINUOUS
 62
     2
 10
1300.224
 20
1617.15
 30
1.386
 40
13.86
  1
２００／５０
 50
0.0
 41
0.9
 51
0.0
  7
KANJI17
  0
TEXT
  8
0
  6
CONTINUOUS
 62
     2
 10
1300.224
 20
1561.71
 30
1.386
 40
13.86
  1
２２０／６０
 50
0.0
 41
0.9
 51
0.0
  7
KANJI17
  0
LINE
  8
0
  6
CONTINUOUS
 62
     1
 10
1246.17
 20
1674.9
 30
0.0
 11
1246.17
 21
1554.78
 31
0.0
  0
LINE
  8
0
  6
CONTINUOUS
 62
     2
 10
1176.87
 20
1674.9
 30
0.0
 11
1176.87
 21
1554.78
 31
0.0
  0
LINE
  8
0
  6
CONTINUOUS
 62
     2
 10
1107.57
 20
1674.9
 30
0.0
 11
1107.57
 21
1554.78
 31
0.0
  0
LINE
  8
0
  6
CONTINUOUS
 62
     1
 10
1015.17
 20
1674.9
 30
0.0
 11
1015.17
 21
1554.78
 31
0.0
  0
LINE
  8
0
  6
CONTINUOUS
 62
     1
 10
1015.17
 20
1674.9
 30
0.0
 11
1246.17
 21
1674.9
 31
0.0
  0
LINE
  8
0
  6
CONTINUOUS
 62
     1
 10
1015.17
 20
1637.94
 30
0.0
 11
1246.17
 21
1637.94
 31
0.0
  0
LINE
  8
0
  6
CONTINUOUS
 62
     2
 10
1015.17
 20
1610.22
 30
0.0
 11
1246.17
 21
1610.22
 31
0.0
  0
LINE
  8
0
  6
CONTINUOUS
 62
     2
 10
1015.17
 20
1582.5
 30
0.0
 11
1246.17
 21
1582.5
 31
0.0
  0
LINE
  8
0
  6
CONTINUOUS
 62
     1
 10
1015.17
 20
1554.78
 30
0.0
 11
1246.17
 21
1554.78
 31
0.0
  0
TEXT
  8
0
  6
CONTINUOUS
 62
     2
 10
1186.11
 20
1658.73
 30
1.386
 40
13.86
  1
起動電流
 50
0.0
 41
0.9
 51
0.0
  7
KANJI17
  0
TEXT
  8
0
  6
CONTINUOUS
 62
     2
 10
1186.11
 20
1642.56
 30
1.386
 40
13.86
  1
　　　Ａ
 50
0.0
 41
0.9
 51
0.0
  7
KANJI17
  0
TEXT
  8
0
  6
CONTINUOUS
 62
     2
 10
1116.81
 20
1658.73
 30
1.386
 40
13.86
  1
定格電流
 50
0.0
 41
0.9
 51
0.0
  7
KANJI17
  0
TEXT
  8
0
  6
CONTINUOUS
 62
     2
 10
1116.81
 20
1642.56
 30
1.386
 40
13.86
  1
　　　Ａ
 50
0.0
 41
0.9
 51
0.0
  7
KANJI17
  0
TEXT
  8
0
  6
CONTINUOUS
 62
     2
 10
1023.024
 20
1658.73
 30
1.386
 40
13.86
  1
電圧／周波数
 50
0.0
 41
0.9
 51
0.0
  7
KANJI17
  0
TEXT
  8
0
  6
CONTINUOUS
 62
     2
 10
1023.024
 20
1642.56
 30
1.386
 40
13.86
  1
　Ｖ／Ｈｚ
 50
0.0
 41
0.9
 51
0.0
  7
KANJI17
  0
TEXT
  8
0
  6
CONTINUOUS
 62
     2
 10
1023.024
 20
1617.15
 30
1.386
 40
13.86
  1
４００／５０
 50
0.0
 41
0.9
 51
0.0
  7
KANJI17
  0
TEXT
  8
0
  6
CONTINUOUS
 62
     2
 10
1023.024
 20
1589.43
 30
1.386
 40
13.86
  1
４００／６０
 50
0.0
 41
0.9
 51
0.0
  7
KANJI17
  0
TEXT
  8
0
  6
CONTINUOUS
 62
     2
 10
1023.024
 20
1561.71
 30
1.386
 40
13.86
  1
４４０／６０
 50
0.0
 41
0.9
 51
0.0
  7
KANJI17
  0
TEXT
  8
0
  6
CONTINUOUS
 62
     2
 10
1119.267493476
 20
1615.15
 30
1.386
 40
13.86
  1
　３．２
 50
0.0
 41
0.9
 51
0.0
  7
KANJI17
  0
TEXT
  8
0
  6
CONTINUOUS
 62
     2
 10
1119.267493476
 20
1587.43
 30
1.386
 40
13.86
  1
　２．８
 50
0.0
 41
0.9
 51
0.0
  7
KANJI17
  0
TEXT
  8
0
  6
CONTINUOUS
 62
     2
 10
1119.267493476
 20
1559.71
 30
1.386
 40
13.86
  1
　２．７
 50
0.0
 41
0.9
 51
0.0
  7
KANJI17
  0
TEXT
  8
0
  6
CONTINUOUS
 62
     2
 10
1396.467493476
 20
1559.71
 30
1.386
 40
13.86
  1
　５．３
 50
0.0
 41
0.9
 51
0.0
  7
KANJI17
  0
TEXT
  8
0
  6
CONTINUOUS
 62
     2
 10
1396.467493476
 20
1587.43
 30
1.386
 40
13.86
  1
　５．２
 50
0.0
 41
0.9
 51
0.0
  7
KANJI17
  0
TEXT
  8
0
  6
CONTINUOUS
 62
     2
 10
1396.467493476
 20
1615.15
 30
1.386
 40
13.86
  1
　６．１
 50
0.0
 41
0.9
 51
0.0
  7
KANJI17
  0
TEXT
  8
0
  6
CONTINUOUS
 62
     2
 10
1465.767493476
 20
1615.15
 30
1.386
 40
13.86
  1
２５．１
 50
0.0
 41
0.9
 51
0.0
  7
KANJI17
  0
TEXT
  8
0
  6
CONTINUOUS
 62
     2
 10
1465.767493476
 20
1587.43
 30
1.386
 40
13.86
  1
２２．５
 50
0.0
 41
0.9
 51
0.0
  7
KANJI17
  0
TEXT
  8
0
  6
CONTINUOUS
 62
     2
 10
1465.767493476
 20
1559.71
 30
1.386
 40
13.86
  1
２４．８
 50
0.0
 41
0.9
 51
0.0
  7
KANJI17
  0
TEXT
  8
0
  6
CONTINUOUS
 62
     2
 10
1188.567493476
 20
1615.15
 30
1.386
 40
13.86
  1
１２．５
 50
0.0
 41
0.9
 51
0.0
  7
KANJI17
  0
TEXT
  8
0
  6
CONTINUOUS
 62
     2
 10
1188.567493476
 20
1587.43
 30
1.386
 40
13.86
  1
１１．３
 50
0.0
 41
0.9
 51
0.0
  7
KANJI17
  0
TEXT
  8
0
  6
CONTINUOUS
 62
     2
 10
1188.567493476
 20
1559.71
 30
1.386
 40
13.86
  1
１２．４
 50
0.0
 41
0.9
 51
0.0
  7
KANJI17
  0
TEXT
  8
0
  6
CONTINUOUS
 62
     2
 10
1861.92
 20
251.7
 30
0.0
 40
21.0
  1
ＭＣＬＤ２Ｃ－ＪＬ
 50
0.0
 41
0.793650794
 51
0.0
  7
KANJI18
  0
TEXT
  8
0
  6
CONTINUOUS
 62
     2
 10
1976.7200334
 20
155.699994
 30
13.0
 40
30.0
  1
３００２４７９
 50
0.0
 41
0.8
 51
0.0
  7
KANJI19
  0
TEXT
  8
0
  6
CONTINUOUS
 62
     2
 10
176.4
 20
26.4
 30
0.0
 40
18.0
  1
ＦＤ　Ｎｏ．ＭＣ１９６
 50
0.0
 41
0.9
 51
0.0
  7
KANJI20
  0
LINE
  8
0
  6
CONTINUOUS
 62
     6
 10
356.629425053
 20
1631.447759827
 30
0.0
 11
124.584646507
 21
1631.447759827
 31
0.0
  0
TEXT
  8
0
  6
CONTINUOUS
 62
     6
 10
128.493517202
 20
1634.64592676
 30
1.0647
 40
11.661
  1
ＬＳ０１　　　：推力リミッタ（前進時過負荷用）
 50
0.0
 41
0.822608696
 51
0.0
  7
KANJI21
  0
TEXT
  8
0
  6
CONTINUOUS
 62
     6
 10
128.493517202
 20
1607.18342676
 30
1.0647
 40
11.661
  1
ＬＳ０２　　　：推力リミッタ（後進時過負荷用）
 50
0.0
 41
0.822608696
 51
0.0
  7
KANJI21
  0
LINE
  8
0
  6
CONTINUOUS
 62
     3
 10
356.629425053
 20
1603.985259827
 30
0.0
 11
124.584646507
 21
1603.985259827
 31
0.0
  0
LINE
  8
0
  6
CONTINUOUS
 62
     6
 10
356.629425053
 20
1603.985259827
 30
0.0
 11
124.584646507
 21
1603.985259827
 31
0.0
  0
TEXT
  8
0
  6
CONTINUOUS
 62
     6
 10
382.212228
 20
1628.900410728
 30
1.232517
 40
13.182
  1
電気定格　　　
 50
0.0
 41
0.85
 51
0.0
  7
KANJI22
  0
TEXT
  8
0
  6
CONTINUOUS
 62
     6
 10
395.013715102
 20
1598.326958599
 30
0.0
 40
11.8638
  1
ＤＣ１２５Ｖ　０．６Ａ　，ＤＣ２５０Ｖ　０．３Ａ　
 50
0.0
 41
0.726495726
 51
0.0
  7
KANJI23
  0
TEXT
  8
0
  6
CONTINUOUS
 62
     6
 10
389.757132178
 20
1646.661726126
 30
0.0
 40
55.0
  1
｝
 50
0.0
 41
0.440318182
 51
0.0
  7
KANJI24
  0
LINE
  8
0
  6
LTYPE2
 62
     6
 10
108.42
 20
1358.3
 30
0.0
 11
629.02
 21
1358.3
 31
0.0
  0
LINE
  8
0
  6
LTYPE2
 62
     6
 10
629.02
 20
1358.3
 30
0.0
 11
629.02
 21
1661.4
 31
0.0
  0
LINE
  8
0
  6
LTYPE2
 62
     6
 10
629.02
 20
1661.4
 30
0.0
 11
108.42
 21
1661.4
 31
0.0
  0
LINE
  8
0
  6
LTYPE2
 62
     6
 10
108.42
 20
1661.4
 30
0.0
 11
108.42
 21
1358.3
 31
0.0
  0
TEXT
  8
0
  6
CONTINUOUS
 62
     6
 10
293.632791539
 20
1376.32382165
 30
0.0
 40
17.740702234
  1
端子台　接続図
 50
0.0
 41
0.880962996
 51
0.0
  7
KANJI25
  0
LINE
  8
0
  6
CONTINUOUS
 62
     2
 10
328.597373465
 20
1427.328121884
 30
0.0
 11
328.597373465
 21
1404.549155128
 31
0.0
  0
LINE
  8
0
  6
CONTINUOUS
 62
     2
 10
355.17283468
 20
1427.328121884
 30
0.0
 11
355.17283468
 21
1404.549155128
 31
0.0
  0
LINE
  8
0
  6
CONTINUOUS
 62
     2
 10
381.748295894
 20
1427.328121884
 30
0.0
 11
381.748295894
 21
1404.549155128
 31
0.0
  0
LINE
  8
0
  6
CONTINUOUS
 62
     2
 10
408.323757109
 20
1427.328121884
 30
0.0
 11
408.323757109
 21
1404.549155128
 31
0.0
  0
CIRCLE
  8
0
  6
CONTINUOUS
 62
     6
 10
400.404269667
 20
1450.807921517
 30
0.0
 40
4.100214016
  0
LINE
  8
0
  6
CONTINUOUS
 62
     6
 10
396.304055651
 20
1450.807921517
 30
0.0
 11
395.036026502
 21
1450.807921517
 31
0.0
  0
LINE
  8
0
  6
CONTINUOUS
 62
     6
 10
421.358027433
 20
1464.494562742
 30
0.0
 11
417.443558096
 21
1442.159507138
 31
0.0
  0
LINE
  8
0
  6
CONTINUOUS
 62
     6
 10
416.631699663
 20
1465.282284037
 30
0.0
 11
412.716922494
 21
1442.947279739
 31
0.0
  0
LINE
  8
0
  6
CONTINUOUS
 62
     6
 10
417.443558096
 20
1442.159507138
 30
0.0
 11
412.716922494
 21
1442.947279739
 31
0.0
  0
CIRCLE
  8
0
  6
CONTINUOUS
 62
     6
 10
421.611487717
 20
1441.339464335
 30
0.0
 40
4.100214016
  0
LINE
  8
0
  6
CONTINUOUS
 62
     6
 10
421.611487717
 20
1437.239250319
 30
0.0
 11
421.611487717
 21
1427.328121884
 31
0.0
  0
LINE
  8
0
  6
CONTINUOUS
 62
     6
 10
395.036026502
 20
1450.807921517
 30
0.0
 11
395.036026502
 21
1427.328121884
 31
0.0
  0
LINE
  8
0
  6
CONTINUOUS
 62
     6
 10
368.460565287
 20
1427.328121884
 30
0.0
 11
368.460565287
 21
1481.033332504
 31
0.0
  0
LINE
  8
0
  6
CONTINUOUS
 62
     6
 10
288.987641926
 20
1464.494562742
 30
0.0
 11
292.902111263
 21
1442.159507138
 31
0.0
  0
LINE
  8
0
  6
CONTINUOUS
 62
     6
 10
293.713969696
 20
1465.282284037
 30
0.0
 11
297.628746865
 21
1442.947279739
 31
0.0
  0
LINE
  8
0
  6
CONTINUOUS
 62
     6
 10
292.902111263
 20
1442.159507138
 30
0.0
 11
297.628746865
 21
1442.947279739
 31
0.0
  0
CIRCLE
  8
0
  6
CONTINUOUS
 62
     6
 10
288.734181642
 20
1441.339464335
 30
0.0
 40
4.100214016
  0
CIRCLE
  8
0
  6
CONTINUOUS
 62
     6
 10
309.941399692
 20
1450.807921517
 30
0.0
 40
4.100214016
  0
LINE
  8
0
  6
CONTINUOUS
 62
     6
 10
314.041613708
 20
1450.807921517
 30
0.0
 11
315.309642857
 21
1450.807921517
 31
0.0
  0
LINE
  8
0
  6
CONTINUOUS
 62
     6
 10
288.734181642
 20
1437.239250319
 30
0.0
 11
288.734181642
 21
1427.328121884
 31
0.0
  0
LINE
  8
0
  6
CONTINUOUS
 62
     6
 10
315.309642857
 20
1450.807921517
 30
0.0
 11
315.309642857
 21
1427.328121884
 31
0.0
  0
LINE
  8
0
  6
CONTINUOUS
 62
     6
 10
341.885104072
 20
1427.328121884
 30
0.0
 11
341.885104072
 21
1481.033332504
 31
0.0
  0
LINE
  8
0
  6
CONTINUOUS
 62
     2
 10
434.899218324
 20
1427.328121884
 30
0.0
 11
434.899218324
 21
1404.549155128
 31
0.0
  0
LINE
  8
0
  6
CONTINUOUS
 62
     2
 10
275.446451035
 20
1427.328121884
 30
0.0
 11
275.446451035
 21
1404.549155128
 31
0.0
  0
LINE
  8
0
  6
CONTINUOUS
 62
     2
 10
302.02191225
 20
1427.328121884
 30
0.0
 11
302.02191225
 21
1404.549155128
 31
0.0
  0
LINE
  8
0
  6
CONTINUOUS
 62
     6
 10
421.611487717
 20
1481.033332504
 30
0.0
 11
368.460565287
 21
1481.033332504
 31
0.0
  0
CIRCLE
  8
0
  6
CONTINUOUS
 62
     6
 10
421.611487717
 20
1468.68941042
 30
0.0
 40
4.100214016
  0
LINE
  8
0
  6
CONTINUOUS
 62
     6
 10
421.358027433
 20
1464.494562742
 30
0.0
 11
416.631699663
 21
1465.282284037
 31
0.0
  0
LINE
  8
0
  6
CONTINUOUS
 62
     6
 10
421.611487717
 20
1472.789624436
 30
0.0
 11
421.611487717
 21
1481.033332504
 31
0.0
  0
CIRCLE
  8
0
  6
CONTINUOUS
 62
     6
 10
288.734181642
 20
1468.68941042
 30
0.0
 40
4.100214016
  0
LINE
  8
0
  6
CONTINUOUS
 62
     6
 10
288.987641926
 20
1464.494562742
 30
0.0
 11
293.713969696
 21
1465.282284037
 31
0.0
  0
LINE
  8
0
  6
CONTINUOUS
 62
     6
 10
288.734181642
 20
1472.789624436
 30
0.0
 11
288.734181642
 21
1481.033332504
 31
0.0
  0
LINE
  8
0
  6
CONTINUOUS
 62
     6
 10
341.885104072
 20
1481.033332504
 30
0.0
 11
288.734181642
 21
1481.033332504
 31
0.0
  0
TEXT
  8
0
  6
CONTINUOUS
 62
     6
 10
293.4972152
 20
1485.552473273
 30
0.819
 40
11.7
  1
ＬＳ０１
 50
0.0
 41
0.8
 51
0.0
  7
KANJI26
  0
TEXT
  8
0
  6
CONTINUOUS
 62
     6
 10
376.117398844
 20
1485.552473273
 30
0.819
 40
11.7
  1
ＬＳ０２
 50
0.0
 41
0.8
 51
0.0
  7
KANJI26
  0
TEXT
  8
0
  6
CONTINUOUS
 62
     3
 10
121.308775989
 20
1408.345649587
 30
0.0
 40
15.0
  1
　　　　　　　　　　　　　　　　　　１　　２　　　３　　　４　　　５　　　６
 50
0.0
 41
0.911
 51
0.0
  7
KANJI27
  0
LINE
  8
0
  6
CONTINUOUS
 62
     2
 10
275.446451035
 20
1427.328121884
 30
0.0
 11
434.899218324
 21
1427.328121884
 31
0.0
  0
LINE
  8
0
  6
CONTINUOUS
 62
     2
 10
275.446451035
 20
1404.549155128
 30
0.0
 11
434.899218324
 21
1404.549155128
 31
0.0
  0
TEXT
  8
0
  6
CONTINUOUS
 62
     6
 10
267.132791539
 20
1515.32382165
 30
0.0
 40
17.740702234
  1
推力リミッタ端子台配列
 50
0.0
 41
0.880962996
 51
0.0
  7
KANJI25
  0
TEXT
  8
0
  6
CONTINUOUS
 62
     6
 10
395.013715102
 20
1614.071931782
 30
0.0
 40
11.8638
  1
ＡＣ１００Ｖ　１２５Ｖ　２５０Ｖ　－１０Ａ
 50
0.0
 41
0.726495726
 51
0.0
  7
KANJI23
  0
TEXT
  8
0
  6
CONTINUOUS
 62
     2
 10
141.978726364
 20
1152.112221811
 30
0.0
 40
15.6
  1
モーター結線図
 50
0.0
 41
0.925
 51
0.0
  7
KANJI28
  0
LINE
  8
0
  6
LTYPE2
 62
     6
 10
136.883333
 20
1272.733317
 30
0.0
 11
136.883333
 21
1256.332460936
 31
0.0
  0
LINE
  8
0
  6
LTYPE2
 62
     6
 10
267.280262694
 20
1272.733317
 30
0.0
 11
136.883333
 21
1272.733317
 31
0.0
  0
TEXT
  8
0
  6
CONTINUOUS
 62
     6
 10
119.348590591
 20
1259.248168681
 30
1.093390404
 40
10.933904043
  1
Ｕ
 50
0.0
 41
0.9
 51
0.0
  7
KANJI29
  0
CIRCLE
  8
0
  6
CONTINUOUS
 62
     6
 10
136.883333
 20
1253.052289723
 30
0.0
 40
4.373561617
  0
LINE
  8
0
  6
CONTINUOUS
 62
     6
 10
131.85854931
 20
1248.027506033
 30
0.0
 11
142.063526417
 21
1258.23248314
 31
0.0
  0
TEXT
  8
0
  6
CONTINUOUS
 62
     6
 10
147.128806047
 20
1281.399448352
 30
1.518597784
 40
15.185977837
  1
エコノストップモータ
 50
0.0
 41
0.66671875
 51
0.0
  7
KANJI30
  0
CIRCLE
  8
0
  6
CONTINUOUS
 62
     6
 10
181.712339575
 20
1227.539846957
 30
0.0
 40
18.223173404
  0
TEXT
  8
0
  6
CONTINUOUS
 62
     6
 10
174.058606745
 20
1218.792723723
 30
1.82231734
 40
18.223173404
  1
Ｍ
 50
0.0
 41
0.9
 51
0.0
  7
KANJI31
  0
LINE
  8
0
  6
CONTINUOUS
 62
     6
 10
157.657750681
 20
1202.027404191
 30
0.0
 11
168.956118192
 21
1215.148089042
 31
0.0
  0
LINE
  8
0
  6
CONTINUOUS
 62
     6
 10
157.657750681
 20
1253.052289723
 30
0.0
 11
168.956118192
 21
1239.931604872
 31
0.0
  0
LINE
  8
0
  6
CONTINUOUS
 62
     6
 10
157.657750681
 20
1253.052289723
 30
0.0
 11
141.256894617
 21
1253.052289723
 31
0.0
  0
LINE
  8
0
  6
CONTINUOUS
 62
     6
 10
163.853629639
 20
1227.539846957
 30
0.0
 11
141.256894617
 21
1227.539846957
 31
0.0
  0
LINE
  8
0
  6
CONTINUOUS
 62
     6
 10
157.657750681
 20
1202.027404191
 30
0.0
 11
141.256894617
 21
1202.027404191
 31
0.0
  0
TEXT
  8
0
  6
CONTINUOUS
 62
     6
 10
120.441980995
 20
1233.371262446
 30
1.093390404
 40
10.933904043
  1
Ｖ
 50
0.0
 41
0.9
 51
0.0
  7
KANJI29
  0
TEXT
  8
0
  6
CONTINUOUS
 62
     6
 10
121.535371399
 20
1207.494356212
 30
1.093390404
 40
10.933904043
  1
Ｗ
 50
0.0
 41
0.9
 51
0.0
  7
KANJI29
  0
CIRCLE
  8
0
  6
CONTINUOUS
 62
     6
 10
136.883333
 20
1227.539846957
 30
0.0
 40
4.373561617
  0
LINE
  8
0
  6
CONTINUOUS
 62
     6
 10
131.85854931
 20
1222.515063267
 30
0.0
 11
142.063526417
 21
1232.720040374
 31
0.0
  0
LINE
  8
0
  6
LTYPE2
 62
     6
 10
136.883333
 20
1249.043191574
 30
0.0
 11
136.883333
 21
1230.82001817
 31
0.0
  0
CIRCLE
  8
0
  6
CONTINUOUS
 62
     6
 10
136.883333
 20
1202.027404191
 30
0.0
 40
4.373561617
  0
LINE
  8
0
  6
CONTINUOUS
 62
     6
 10
131.85854931
 20
1197.002620501
 30
0.0
 11
142.063526417
 21
1207.207597607
 31
0.0
  0
LINE
  8
0
  6
LTYPE2
 62
     6
 10
136.883333
 20
1223.530748808
 30
0.0
 11
136.883333
 21
1206.400965808
 31
0.0
  0
LINE
  8
0
  6
LTYPE2
 62
     6
 10
267.280262694
 20
1177.321584891
 30
0.0
 11
136.883333
 21
1177.321584891
 31
0.0
  0
LINE
  8
0
  6
LTYPE2
 62
     6
 10
136.883333
 20
1197.653842574
 30
0.0
 11
136.883333
 21
1177.321584891
 31
0.0
  0
TEXT
  8
0
  6
CONTINUOUS
 62
     6
 10
207.953709277
 20
1219.284749405
 30
1.457853872
 40
14.578538724
  1
Ｂ
 50
0.0
 41
0.9
 51
0.0
  7
KANJI32
  0
CIRCLE
  8
0
  6
CONTINUOUS
 62
     6
 10
214.514051703
 20
1227.539846957
 30
0.0
 40
14.578538724
  0
LINE
  8
0
  6
LTYPE2
 62
     6
 10
267.280262694
 20
1177.321584891
 30
0.0
 11
267.280262694
 21
1272.733317
 31
0.0
  0
LINE
  8
0
  6
CONTINUOUS
 62
     2
 10
1729.32
 20
706.5
 30
0.0
 11
1873.32
 21
706.5
 31
0.0
  0
TEXT
  8
0
  6
CONTINUOUS
 62
     2
 10
1741.92
 20
714.9
 30
12.0
 40
24.0
  1
特記事項
 50
0.0
 41
0.9
 51
0.0
  7
KANJI33
  0
TEXT
  8
0
  6
CONTINUOUS
 62
     2
 10
1735.92
 20
595.2
 30
1.8
 40
21.0
  1
３．ＬＳユニット
 50
0.0
 41
0.857142857
 51
0.0
  7
KANJI34
  0
TEXT
  8
0
  6
CONTINUOUS
 62
     2
 10
1735.92
 20
670.2
 30
1.8
 40
21.0
  1
１．運転時は必ずピストンロッドの回転防止を行って下さい。
 50
0.0
 41
0.857142857
 51
0.0
  7
KANJI34
  0
TEXT
  8
0
  6
CONTINUOUS
 62
     2
 10
1735.92
 20
632.7
 30
1.8
 40
21.0
  1
２．モートル：全閉自冷かご形３０分定格
 50
0.0
 41
0.857142857
 51
0.0
  7
KANJI34
  0
TEXT
  8
0
  6
CONTINUOUS
 62
     2
 10
1735.92
 20
502.2
 30
1.8
 40
21.0
  1
４．呼称ストロークは、機械的ストロークです。
 50
0.0
 41
0.857142857
 51
0.0
  7
KANJI34
  0
TEXT
  8
0
  6
CONTINUOUS
 62
     2
 10
1735.92
 20
535.2
 30
1.8
 40
21.0
  1
　　ストローク７００ｍｍ以上の場合２ロッド方式となります。
 50
0.0
 41
0.857142857
 51
0.0
  7
KANJI34
  0
TEXT
  8
0
  6
CONTINUOUS
 62
     2
 10
1735.92
 20
565.2
 30
1.8
 40
21.0
  1
　　リミットスイッチ：１ＬＳ１－Ｊｘ２ケ（山武）
 50
0.0
 41
0.857142857
 51
0.0
  7
KANJI34
  0
TEXT
  8
0
  6
CONTINUOUS
 62
     2
 10
1735.92
 20
465.24
 30
1.8
 40
21.0
  1
　　必ず、常用はストローク両端に必ず余裕を取って下さい。
 50
0.0
 41
0.857142857
 51
0.0
  7
KANJI34
  0
TEXT
  8
0
  6
CONTINUOUS
 62
     2
 10
1735.92
 20
427.464
 30
1.8
 40
21.0
  1
　　前後の推奨余裕寸法は、各々１５ｍｍです。
 50
0.0
 41
0.857142857
 51
0.0
  7
KANJI34
  0
TEXT
  8
0
  6
CONTINUOUS
 62
     2
 10
1055.133
 20
1533.99
 30
1.617
 40
16.17
  1
注意：サーマルリレー等の選定は、上記の値で選定して下さい。
 50
0.0
 41
0.9
 51
0.0
  7
KANJI35
  0
LINE
  8
0
  6
CONTINUOUS
 62
     2
 10
1045.893
 20
1529.37
 30
0.0
 11
1513.273
 21
1529.37
 31
0.0
  0
LINE
  8
0
  6
CONTINUOUS
 62
     2
 10
340.6199996
 20
1254.6999876
 30
0.0
 11
348.34740621
 21
1252.629435239
 31
0.0
  0
LINE
  8
0
  6
CONTINUOUS
 62
     2
 10
340.6199996
 20
1254.6999876
 30
0.0
 11
348.34740621
 21
1256.770539961
 31
0.0
  0
LINE
  8
0
  6
CONTINUOUS
 62
     2
 10
340.6199996
 20
1254.6999876
 30
0.0
 11
478.2199996
 21
1254.6999876
 31
0.0
  0
LINE
  8
0
  6
CONTINUOUS
 62
     2
 10
478.2199996
 20
1254.6999876
 30
0.0
 11
470.49259299
 21
1256.770539961
 31
0.0
  0
LINE
  8
0
  6
CONTINUOUS
 62
     2
 10
478.2199996
 20
1254.6999876
 30
0.0
 11
470.49259299
 21
1252.629435239
 31
0.0
  0
LINE
  8
0
  6
CONTINUOUS
 62
     2
 10
478.2199996
 20
1253.4999876
 30
0.0
 11
478.2199996
 21
1250.6999876
 31
0.0
  0
LINE
  8
0
  6
CONTINUOUS
 62
     2
 10
478.2199996
 20
1254.6999876
 30
0.0
 11
485.94740621
 21
1252.629435239
 31
0.0
  0
LINE
  8
0
  6
CONTINUOUS
 62
     2
 10
478.2199996
 20
1254.6999876
 30
0.0
 11
485.94740621
 21
1256.770539961
 31
0.0
  0
LINE
  8
0
  6
CONTINUOUS
 62
     2
 10
478.2199996
 20
1254.6999876
 30
0.0
 11
680.6199996
 21
1254.6999876
 31
0.0
  0
LINE
  8
0
  6
CONTINUOUS
 62
     2
 10
680.6199996
 20
1254.6999876
 30
0.0
 11
672.89259299
 21
1256.770539961
 31
0.0
  0
LINE
  8
0
  6
CONTINUOUS
 62
     2
 10
680.6199996
 20
1254.6999876
 30
0.0
 11
672.89259299
 21
1252.629435239
 31
0.0
  0
LINE
  8
0
  6
CONTINUOUS
 62
     2
 10
478.2199996
 20
1228.370539961
 30
0.0
 11
470.49259299
 21
1230.441092322
 31
0.0
  0
LINE
  8
0
  6
CONTINUOUS
 62
     2
 10
478.2199996
 20
1228.370539961
 30
0.0
 11
470.49259299
 21
1226.2999876
 31
0.0
  0
LINE
  8
0
  6
CONTINUOUS
 62
     2
 10
466.2199996
 20
1228.370539961
 30
0.0
 11
478.2199996
 21
1228.370539961
 31
0.0
  0
LINE
  8
0
  6
CONTINUOUS
 62
     2
 10
478.2199996
 20
1228.370539961
 30
0.0
 11
499.0199996
 21
1228.370539961
 31
0.0
  0
LINE
  8
0
  6
CONTINUOUS
 62
     2
 10
499.0199996
 20
1228.370539961
 30
0.0
 11
506.74740621
 21
1226.2999876
 31
0.0
  0
LINE
  8
0
  6
CONTINUOUS
 62
     2
 10
499.0199996
 20
1228.370539961
 30
0.0
 11
506.74740621
 21
1230.441092322
 31
0.0
  0
LINE
  8
0
  6
CONTINUOUS
 62
     2
 10
340.6199996
 20
1203.0999876
 30
0.0
 11
340.6199996
 21
1197.0999876
 31
0.0
  0
LINE
  8
0
  6
CONTINUOUS
 62
     2
 10
340.6199996
 20
1201.0999876
 30
0.0
 11
348.34740621
 21
1199.029435239
 31
0.0
  0
LINE
  8
0
  6
CONTINUOUS
 62
     2
 10
340.6199996
 20
1201.0999876
 30
0.0
 11
348.34740621
 21
1203.170539961
 31
0.0
  0
LINE
  8
0
  6
CONTINUOUS
 62
     2
 10
340.6199996
 20
1201.0999876
 30
0.0
 11
499.0199996
 21
1201.0999876
 31
0.0
  0
LINE
  8
0
  6
CONTINUOUS
 62
     2
 10
499.0199996
 20
1201.0999876
 30
0.0
 11
491.29259299
 21
1203.170539961
 31
0.0
  0
LINE
  8
0
  6
CONTINUOUS
 62
     2
 10
499.0199996
 20
1201.0999876
 30
0.0
 11
491.29259299
 21
1199.029435239
 31
0.0
  0
LINE
  8
0
  6
CONTINUOUS
 62
     2
 10
499.0199996
 20
1202.2999876
 30
0.0
 11
499.0199996
 21
1197.0999876
 31
0.0
  0
LINE
  8
0
  6
CONTINUOUS
 62
     2
 10
499.0199996
 20
1201.0999876
 30
0.0
 11
506.74740621
 21
1199.029435239
 31
0.0
  0
LINE
  8
0
  6
CONTINUOUS
 62
     2
 10
499.0199996
 20
1201.0999876
 30
0.0
 11
506.74740621
 21
1203.170539961
 31
0.0
  0
LINE
  8
0
  6
CONTINUOUS
 62
     2
 10
680.6199996
 20
1197.4999876
 30
0.0
 11
680.6199996
 21
1197.0999876
 31
0.0
  0
LINE
  8
0
  6
CONTINUOUS
 62
     2
 10
340.6199996
 20
1171.8999876
 30
0.0
 11
348.34740621
 21
1169.829435239
 31
0.0
  0
LINE
  8
0
  6
CONTINUOUS
 62
     2
 10
340.6199996
 20
1171.8999876
 30
0.0
 11
348.34740621
 21
1173.970539961
 31
0.0
  0
LINE
  8
0
  6
CONTINUOUS
 62
     2
 10
340.6199996
 20
1171.8999876
 30
0.0
 11
658.2199996
 21
1171.8999876
 31
0.0
  0
LINE
  8
0
  6
CONTINUOUS
 62
     2
 10
658.2199996
 20
1171.8999876
 30
0.0
 11
650.49259299
 21
1173.970539961
 31
0.0
  0
LINE
  8
0
  6
CONTINUOUS
 62
     2
 10
658.2199996
 20
1171.8999876
 30
0.0
 11
650.49259299
 21
1169.829435239
 31
0.0
  0
LINE
  8
0
  6
CONTINUOUS
 62
     2
 10
658.2199996
 20
1172.6999876
 30
0.0
 11
658.2199996
 21
1167.8999876
 31
0.0
  0
LINE
  8
0
  6
CONTINUOUS
 62
     2
 10
658.2199996
 20
1171.8999876
 30
0.0
 11
650.49259299
 21
1173.970539961
 31
0.0
  0
LINE
  8
0
  6
CONTINUOUS
 62
     2
 10
658.2199996
 20
1171.8999876
 30
0.0
 11
650.49259299
 21
1169.829435239
 31
0.0
  0
LINE
  8
0
  6
CONTINUOUS
 62
     2
 10
646.2199996
 20
1171.8999876
 30
0.0
 11
658.2199996
 21
1171.8999876
 31
0.0
  0
LINE
  8
0
  6
CONTINUOUS
 62
     2
 10
658.2199996
 20
1171.8999876
 30
0.0
 11
680.6199996
 21
1171.8999876
 31
0.0
  0
LINE
  8
0
  6
CONTINUOUS
 62
     2
 10
680.6199996
 20
1171.8999876
 30
0.0
 11
688.34740621
 21
1169.829435239
 31
0.0
  0
LINE
  8
0
  6
CONTINUOUS
 62
     2
 10
680.6199996
 20
1171.8999876
 30
0.0
 11
688.34740621
 21
1173.970539961
 31
0.0
  0
LINE
  8
0
  6
CONTINUOUS
 62
     2
 10
340.6199996
 20
1265.4999876
 30
0.0
 11
340.6199996
 21
1250.6999876
 31
0.0
  0
LINE
  8
0
  6
CONTINUOUS
 62
     2
 10
680.6199996
 20
1265.4999876
 30
0.0
 11
680.6199996
 21
1250.6999876
 31
0.0
  0
LINE
  8
0
  6
CONTINUOUS
 62
     2
 10
478.2199996
 20
1254.2999876
 30
0.0
 11
478.2199996
 21
1265.4999876
 31
0.0
  0
LINE
  8
0
  6
CONTINUOUS
 62
     2
 10
499.0199996
 20
1241.170539961
 30
0.0
 11
499.0199996
 21
1224.370539961
 31
0.0
  0
LINE
  8
0
  6
CONTINUOUS
 62
     2
 10
340.6199996
 20
1250.6999876
 30
0.0
 11
340.6199996
 21
1158.6999876
 31
0.0
  0
LINE
  8
0
  6
CONTINUOUS
 62
     2
 10
680.6199996
 20
1254.6999876
 30
0.0
 11
680.6199996
 21
1159.8999876
 31
0.0
  0
LINE
  8
0
  6
CONTINUOUS
 62
     2
 10
499.0199996
 20
1228.370539961
 30
0.0
 11
499.0199996
 21
1191.8999876
 31
0.0
  0
LINE
  8
0
  6
CONTINUOUS
 62
     2
 10
478.2199996
 20
1254.6999876
 30
0.0
 11
478.2199996
 21
1219.0999876
 31
0.0
  0
TEXT
  8
0
  6
CONTINUOUS
 62
     3
 10
382.4199996
 20
1256.6999876
 30
0.0
 40
15.0
  1
ｍｉｎ．Ｌ
 50
0.0
 41
0.9
 51
0.0
  7
KANJI36
  0
TEXT
  8
0
  6
CONTINUOUS
 62
     3
 10
536.2199996
 20
1256.6999876
 30
0.0
 40
15.0
  1
機械的ストローク
 50
0.0
 41
0.9
 51
0.0
  7
KANJI36
  0
TEXT
  8
0
  6
CONTINUOUS
 62
     3
 10
511.0199996
 20
1230.370539961
 30
0.0
 40
15.0
  1
余裕
 50
0.0
 41
0.9
 51
0.0
  7
KANJI36
  0
TEXT
  8
0
  6
CONTINUOUS
 62
     3
 10
392.8199996
 20
1203.0999876
 30
0.0
 40
15.0
  1
常用ｍｉｎ
 50
0.0
 41
0.9
 51
0.0
  7
KANJI36
  0
TEXT
  8
0
  6
CONTINUOUS
 62
     3
 10
472.4199996
 20
1173.8999876
 30
0.0
 40
15.0
  1
常用ｍａｘ
 50
0.0
 41
0.9
 51
0.0
  7
KANJI36
  0
TEXT
  8
0
  6
CONTINUOUS
 62
     3
 10
692.6199996
 20
1173.8999876
 30
0.0
 40
15.0
  1
余裕
 50
0.0
 41
0.9
 51
0.0
  7
KANJI36
  0
LINE
  8
0
  6
CONTINUOUS
 62
     2
 10
499.0199996
 20
1228.370539961
 30
0.0
 11
539.1199996
 21
1228.370539961
 31
0.0
  0
LINE
  8
0
  6
CONTINUOUS
 62
     2
 10
680.6199996
 20
1171.8999876
 30
0.0
 11
723.1199996
 21
1171.8999876
 31
0.0
  0
LINE
  8
0
  6
CONTINUOUS
 62
     1
 10
1014.12
 20
1511.24
 30
0.0
 11
1791.72
 21
1511.24
 31
0.0
  0
LINE
  8
0
  6
CONTINUOUS
 62
     1
 10
1014.12
 20
1477.64
 30
0.0
 11
1791.72
 21
1477.64
 31
0.0
  0
TEXT
  8
0
  6
CONTINUOUS
 62
     2
 10
1062.12
 20
1487.24
 30
1.536
 40
15.36
  1
形
 50
0.0
 41
0.9
 51
0.0
  7
KANJI37
  0
TEXT
  8
0
  6
CONTINUOUS
 62
     2
 10
1155.72
 20
1487.24
 30
1.536
 40
15.36
  1
式
 50
0.0
 41
0.9
 51
0.0
  7
KANJI37
  0
TEXT
  8
0
  6
CONTINUOUS
 62
     2
 10
1228.2
 20
1486.28
 30
1.44
 40
14.4
  1
ストローク
 50
0.0
 41
0.9
 51
0.0
  7
KANJI38
  0
TEXT
  8
0
  6
CONTINUOUS
 62
     2
 10
1320.36
 20
1485.32
 30
0.0
 40
14.4
  1
ｍｉｎ　
 50
0.0
 41
0.9
 51
0.0
  7
KANJI39
  0
TEXT
  8
0
  6
CONTINUOUS
 62
     2
 10
1416.36
 20
1485.32
 30
0.0
 40
14.4
  1
ｍｉｎ　
 50
0.0
 41
0.9
 51
0.0
  7
KANJI39
  0
TEXT
  8
0
  6
CONTINUOUS
 62
     2
 10
1608.36
 20
1485.32
 30
0.0
 40
14.4
  1
ｍｉｎ　
 50
0.0
 41
0.9
 51
0.0
  7
KANJI39
  0
TEXT
  8
0
  6
CONTINUOUS
 62
     2
 10
1369.32
 20
1486.28
 30
1.68
 40
16.8
  1
ＡＬ
 50
0.0
 41
0.9
 51
0.0
  7
KANJI40
  0
TEXT
  8
0
  6
CONTINUOUS
 62
     2
 10
1465.32
 20
1486.28
 30
1.68
 40
16.8
  1
Ｌ
 50
0.0
 41
0.9
 51
0.0
  7
KANJI40
  0
TEXT
  8
0
  6
CONTINUOUS
 62
     2
 10
1546.92
 20
1486.28
 30
1.68
 40
16.8
  1
Ｃ
 50
0.0
 41
0.9
 51
0.0
  7
KANJI40
  0
TEXT
  8
0
  6
CONTINUOUS
 62
     2
 10
1657.32
 20
1486.28
 30
1.68
 40
16.8
  1
Ｐ
 50
0.0
 41
0.9
 51
0.0
  7
KANJI40
  0
TEXT
  8
0
  6
CONTINUOUS
 62
     2
 10
1756.08
 20
1485.92
 30
0.0
 40
12.96
  1
（ｋｇ）
 50
0.0
 41
0.740740741
 51
0.0
  7
KANJI41
  0
TEXT
  8
0
  6
CONTINUOUS
 62
     2
 10
1698.48
 20
1485.68
 30
1.44
 40
16.8
  1
概算重量
 50
0.0
 41
0.857142857
 51
0.0
  7
KANJI42
  0
TEXT
  8
0
  6
CONTINUOUS
 62
     2
 10
1237.32
 20
1454.08
 30
1.44
 40
14.4
  1
　２００
 50
0.0
 41
0.9
 51
0.0
  7
KANJI38
  0
TEXT
  8
0
  6
CONTINUOUS
 62
     2
 10
1621.32
 20
1454.08
 30
1.44
 40
14.4
  1
　　４５
 50
0.0
 41
0.9
 51
0.0
  7
KANJI38
  0
TEXT
  8
0
  6
CONTINUOUS
 62
     2
 10
1525.32
 20
1454.08
 30
1.44
 40
14.4
  1
　４６２
 50
0.0
 41
0.9
 51
0.0
  7
KANJI38
  0
LINE
  8
0
  6
CONTINUOUS
 62
     2
 10
1014.12
 20
1446.04
 30
0.0
 11
1791.72
 21
1446.04
 31
0.0
  0
TEXT
  8
0
  6
CONTINUOUS
 62
     2
 10
1429.32
 20
1454.08
 30
1.44
 40
14.4
  1
　５６７
 50
0.0
 41
0.9
 51
0.0
  7
KANJI38
  0
TEXT
  8
0
  6
CONTINUOUS
 62
     2
 10
1333.32
 20
1454.08
 30
1.44
 40
14.4
  1
　７６４
 50
0.0
 41
0.9
 51
0.0
  7
KANJI38
  0
TEXT
  8
0
  6
CONTINUOUS
 62
     2
 10
1237.32
 20
1422.48
 30
1.44
 40
14.4
  1
　３００
 50
0.0
 41
0.9
 51
0.0
  7
KANJI38
  0
TEXT
  8
0
  6
CONTINUOUS
 62
     2
 10
1621.32
 20
1422.48
 30
1.44
 40
14.4
  1
　　４５
 50
0.0
 41
0.9
 51
0.0
  7
KANJI38
  0
TEXT
  8
0
  6
CONTINUOUS
 62
     2
 10
1525.32
 20
1422.48
 30
1.44
 40
14.4
  1
　５６２
 50
0.0
 41
0.9
 51
0.0
  7
KANJI38
  0
LINE
  8
0
  6
CONTINUOUS
 62
     2
 10
1014.12
 20
1414.44
 30
0.0
 11
1791.72
 21
1414.44
 31
0.0
  0
TEXT
  8
0
  6
CONTINUOUS
 62
     2
 10
1429.32
 20
1422.48
 30
1.44
 40
14.4
  1
　６６７
 50
0.0
 41
0.9
 51
0.0
  7
KANJI38
  0
TEXT
  8
0
  6
CONTINUOUS
 62
     2
 10
1333.32
 20
1422.48
 30
1.44
 40
14.4
  1
　８６４
 50
0.0
 41
0.9
 51
0.0
  7
KANJI38
  0
TEXT
  8
0
  6
CONTINUOUS
 62
     2
 10
1237.32
 20
1390.88
 30
1.44
 40
14.4
  1
　４００
 50
0.0
 41
0.9
 51
0.0
  7
KANJI38
  0
TEXT
  8
0
  6
CONTINUOUS
 62
     2
 10
1621.32
 20
1390.88
 30
1.44
 40
14.4
  1
　　８５
 50
0.0
 41
0.9
 51
0.0
  7
KANJI38
  0
TEXT
  8
0
  6
CONTINUOUS
 62
     2
 10
1525.32
 20
1390.88
 30
1.44
 40
14.4
  1
　６６２
 50
0.0
 41
0.9
 51
0.0
  7
KANJI38
  0
LINE
  8
0
  6
CONTINUOUS
 62
     2
 10
1014.12
 20
1382.84
 30
0.0
 11
1791.72
 21
1382.84
 31
0.0
  0
TEXT
  8
0
  6
CONTINUOUS
 62
     2
 10
1429.32
 20
1390.88
 30
1.44
 40
14.4
  1
　８０７
 50
0.0
 41
0.9
 51
0.0
  7
KANJI38
  0
TEXT
  8
0
  6
CONTINUOUS
 62
     2
 10
1333.32
 20
1390.88
 30
1.44
 40
14.4
  1
１００４
 50
0.0
 41
0.9
 51
0.0
  7
KANJI38
  0
TEXT
  8
0
  6
CONTINUOUS
 62
     2
 10
1237.32
 20
1359.28
 30
1.44
 40
14.4
  1
　５００
 50
0.0
 41
0.9
 51
0.0
  7
KANJI38
  0
TEXT
  8
0
  6
CONTINUOUS
 62
     2
 10
1621.32
 20
1359.28
 30
1.44
 40
14.4
  1
　１１２
 50
0.0
 41
0.9
 51
0.0
  7
KANJI38
  0
TEXT
  8
0
  6
CONTINUOUS
 62
     2
 10
1525.32
 20
1359.28
 30
1.44
 40
14.4
  1
　７６２
 50
0.0
 41
0.9
 51
0.0
  7
KANJI38
  0
LINE
  8
0
  6
CONTINUOUS
 62
     2
 10
1014.12
 20
1351.24
 30
0.0
 11
1791.72
 21
1351.24
 31
0.0
  0
TEXT
  8
0
  6
CONTINUOUS
 62
     2
 10
1429.32
 20
1359.28
 30
1.44
 40
14.4
  1
　９３４
 50
0.0
 41
0.9
 51
0.0
  7
KANJI38
  0
TEXT
  8
0
  6
CONTINUOUS
 62
     2
 10
1333.32
 20
1359.28
 30
1.44
 40
14.4
  1
１１３１
 50
0.0
 41
0.9
 51
0.0
  7
KANJI38
  0
LINE
  8
0
  6
CONTINUOUS
 62
     2
 10
1014.12
 20
1319.64
 30
0.0
 11
1791.72
 21
1319.64
 31
0.0
  0
TEXT
  8
0
  6
CONTINUOUS
 62
     2
 10
1237.32
 20
1327.68
 30
1.44
 40
14.4
  1
　６００
 50
0.0
 41
0.9
 51
0.0
  7
KANJI38
  0
TEXT
  8
0
  6
CONTINUOUS
 62
     2
 10
1333.32
 20
1327.68
 30
1.44
 40
14.4
  1
１２８７
 50
0.0
 41
0.9
 51
0.0
  7
KANJI38
  0
TEXT
  8
0
  6
CONTINUOUS
 62
     2
 10
1429.32
 20
1327.68
 30
1.44
 40
14.4
  1
１０９０
 50
0.0
 41
0.9
 51
0.0
  7
KANJI38
  0
TEXT
  8
0
  6
CONTINUOUS
 62
     2
 10
1525.32
 20
1327.68
 30
1.44
 40
14.4
  1
　９０２
 50
0.0
 41
0.9
 51
0.0
  7
KANJI38
  0
TEXT
  8
0
  6
CONTINUOUS
 62
     2
 10
1621.32
 20
1327.68
 30
1.44
 40
14.4
  1
　１２８
 50
0.0
 41
0.9
 51
0.0
  7
KANJI38
  0
LINE
  8
0
  6
CONTINUOUS
 62
     2
 10
1014.12
 20
1288.04
 30
0.0
 11
1791.72
 21
1288.04
 31
0.0
  0
TEXT
  8
0
  6
CONTINUOUS
 62
     2
 10
1237.32
 20
1296.08
 30
1.44
 40
14.4
  1
　７００
 50
0.0
 41
0.9
 51
0.0
  7
KANJI38
  0
TEXT
  8
0
  6
CONTINUOUS
 62
     2
 10
1333.32
 20
1296.08
 30
1.44
 40
14.4
  1
１４０７
 50
0.0
 41
0.9
 51
0.0
  7
KANJI38
  0
TEXT
  8
0
  6
CONTINUOUS
 62
     2
 10
1429.32
 20
1296.08
 30
1.44
 40
14.4
  1
１２１０
 50
0.0
 41
0.9
 51
0.0
  7
KANJI38
  0
TEXT
  8
0
  6
CONTINUOUS
 62
     2
 10
1525.32
 20
1296.08
 30
1.44
 40
14.4
  1
１００２
 50
0.0
 41
0.9
 51
0.0
  7
KANJI38
  0
TEXT
  8
0
  6
CONTINUOUS
 62
     2
 10
1621.32
 20
1296.08
 30
1.44
 40
14.4
  1
　１４８
 50
0.0
 41
0.9
 51
0.0
  7
KANJI38
  0
LINE
  8
0
  6
CONTINUOUS
 62
     2
 10
1014.12
 20
1256.44
 30
0.0
 11
1791.72
 21
1256.44
 31
0.0
  0
TEXT
  8
0
  6
CONTINUOUS
 62
     2
 10
1237.32
 20
1264.48
 30
1.44
 40
14.4
  1
　８００
 50
0.0
 41
0.9
 51
0.0
  7
KANJI38
  0
TEXT
  8
0
  6
CONTINUOUS
 62
     2
 10
1333.32
 20
1264.48
 30
1.44
 40
14.4
  1
１５２７
 50
0.0
 41
0.9
 51
0.0
  7
KANJI38
  0
TEXT
  8
0
  6
CONTINUOUS
 62
     2
 10
1429.32
 20
1264.48
 30
1.44
 40
14.4
  1
１３３０
 50
0.0
 41
0.9
 51
0.0
  7
KANJI38
  0
TEXT
  8
0
  6
CONTINUOUS
 62
     2
 10
1525.32
 20
1264.48
 30
1.44
 40
14.4
  1
１１０２
 50
0.0
 41
0.9
 51
0.0
  7
KANJI38
  0
TEXT
  8
0
  6
CONTINUOUS
 62
     2
 10
1621.32
 20
1264.48
 30
1.44
 40
14.4
  1
　１６８
 50
0.0
 41
0.9
 51
0.0
  7
KANJI38
  0
LINE
  8
0
  6
CONTINUOUS
 62
     2
 10
1014.12
 20
1224.84
 30
0.0
 11
1791.72
 21
1224.84
 31
0.0
  0
TEXT
  8
0
  6
CONTINUOUS
 62
     2
 10
1237.32
 20
1232.88
 30
1.44
 40
14.4
  1
　９００
 50
0.0
 41
0.9
 51
0.0
  7
KANJI38
  0
TEXT
  8
0
  6
CONTINUOUS
 62
     2
 10
1333.32
 20
1232.88
 30
1.44
 40
14.4
  1
１６５７
 50
0.0
 41
0.9
 51
0.0
  7
KANJI38
  0
TEXT
  8
0
  6
CONTINUOUS
 62
     2
 10
1429.32
 20
1232.88
 30
1.44
 40
14.4
  1
１４６０
 50
0.0
 41
0.9
 51
0.0
  7
KANJI38
  0
TEXT
  8
0
  6
CONTINUOUS
 62
     2
 10
1525.32
 20
1232.88
 30
1.44
 40
14.4
  1
１２０２
 50
0.0
 41
0.9
 51
0.0
  7
KANJI38
  0
TEXT
  8
0
  6
CONTINUOUS
 62
     2
 10
1621.32
 20
1232.88
 30
1.44
 40
14.4
  1
　１９８
 50
0.0
 41
0.9
 51
0.0
  7
KANJI38
  0
LINE
  8
0
  6
CONTINUOUS
 62
     2
 10
1014.12
 20
1193.24
 30
0.0
 11
1791.72
 21
1193.24
 31
0.0
  0
TEXT
  8
0
  6
CONTINUOUS
 62
     2
 10
1237.32
 20
1201.28
 30
1.44
 40
14.4
  1
１０００
 50
0.0
 41
0.9
 51
0.0
  7
KANJI38
  0
TEXT
  8
0
  6
CONTINUOUS
 62
     2
 10
1333.32
 20
1201.28
 30
1.44
 40
14.4
  1
１７９０
 50
0.0
 41
0.9
 51
0.0
  7
KANJI38
  0
TEXT
  8
0
  6
CONTINUOUS
 62
     2
 10
1429.32
 20
1201.28
 30
1.44
 40
14.4
  1
１５９３
 50
0.0
 41
0.9
 51
0.0
  7
KANJI38
  0
TEXT
  8
0
  6
CONTINUOUS
 62
     2
 10
1525.32
 20
1201.28
 30
1.44
 40
14.4
  1
１３０２
 50
0.0
 41
0.9
 51
0.0
  7
KANJI38
  0
TEXT
  8
0
  6
CONTINUOUS
 62
     2
 10
1621.32
 20
1201.28
 30
1.44
 40
14.4
  1
　２３１
 50
0.0
 41
0.9
 51
0.0
  7
KANJI38
  0
LINE
  8
0
  6
CONTINUOUS
 62
     2
 10
1014.12
 20
1161.64
 30
0.0
 11
1791.72
 21
1161.64
 31
0.0
  0
TEXT
  8
0
  6
CONTINUOUS
 62
     2
 10
1237.32
 20
1169.68
 30
1.44
 40
14.4
  1
１１００
 50
0.0
 41
0.9
 51
0.0
  7
KANJI38
  0
TEXT
  8
0
  6
CONTINUOUS
 62
     2
 10
1621.32
 20
1169.68
 30
1.44
 40
14.4
  1
　２４５
 50
0.0
 41
0.9
 51
0.0
  7
KANJI38
  0
TEXT
  8
0
  6
CONTINUOUS
 62
     2
 10
1525.32
 20
1169.68
 30
1.44
 40
14.4
  1
１４０２
 50
0.0
 41
0.9
 51
0.0
  7
KANJI38
  0
LINE
  8
0
  6
CONTINUOUS
 62
     2
 10
1014.12
 20
1130.04
 30
0.0
 11
1791.72
 21
1130.04
 31
0.0
  0
TEXT
  8
0
  6
CONTINUOUS
 62
     2
 10
1237.32
 20
1138.08
 30
1.44
 40
14.4
  1
１２００
 50
0.0
 41
0.9
 51
0.0
  7
KANJI38
  0
TEXT
  8
0
  6
CONTINUOUS
 62
     2
 10
1621.32
 20
1138.08
 30
1.44
 40
14.4
  1
　２６８
 50
0.0
 41
0.9
 51
0.0
  7
KANJI38
  0
TEXT
  8
0
  6
CONTINUOUS
 62
     2
 10
1525.32
 20
1138.08
 30
1.44
 40
14.4
  1
１５０２
 50
0.0
 41
0.9
 51
0.0
  7
KANJI38
  0
LINE
  8
0
  6
CONTINUOUS
 62
     2
 10
1014.12
 20
1098.44
 30
0.0
 11
1791.72
 21
1098.44
 31
0.0
  0
TEXT
  8
0
  6
CONTINUOUS
 62
     2
 10
1237.32
 20
1106.48
 30
1.44
 40
14.4
  1
１３００
 50
0.0
 41
0.9
 51
0.0
  7
KANJI38
  0
TEXT
  8
0
  6
CONTINUOUS
 62
     2
 10
1621.32
 20
1106.48
 30
1.44
 40
14.4
  1
　２８８
 50
0.0
 41
0.9
 51
0.0
  7
KANJI38
  0
TEXT
  8
0
  6
CONTINUOUS
 62
     2
 10
1525.32
 20
1106.48
 30
1.44
 40
14.4
  1
１６０２
 50
0.0
 41
0.9
 51
0.0
  7
KANJI38
  0
LINE
  8
0
  6
CONTINUOUS
 62
     2
 10
1014.12
 20
1066.84
 30
0.0
 11
1791.72
 21
1066.84
 31
0.0
  0
TEXT
  8
0
  6
CONTINUOUS
 62
     2
 10
1237.32
 20
1074.88
 30
1.44
 40
14.4
  1
１４００
 50
0.0
 41
0.9
 51
0.0
  7
KANJI38
  0
TEXT
  8
0
  6
CONTINUOUS
 62
     2
 10
1621.32
 20
1074.88
 30
1.44
 40
14.4
  1
　３１０
 50
0.0
 41
0.9
 51
0.0
  7
KANJI38
  0
TEXT
  8
0
  6
CONTINUOUS
 62
     2
 10
1525.32
 20
1074.88
 30
1.44
 40
14.4
  1
１７０２
 50
0.0
 41
0.9
 51
0.0
  7
KANJI38
  0
LINE
  8
0
  6
CONTINUOUS
 62
     2
 10
1014.12
 20
1035.24
 30
0.0
 11
1791.72
 21
1035.24
 31
0.0
  0
TEXT
  8
0
  6
CONTINUOUS
 62
     2
 10
1237.32
 20
1043.28
 30
1.44
 40
14.4
  1
１５００
 50
0.0
 41
0.9
 51
0.0
  7
KANJI38
  0
TEXT
  8
0
  6
CONTINUOUS
 62
     2
 10
1621.32
 20
1043.28
 30
1.44
 40
14.4
  1
　３５０
 50
0.0
 41
0.9
 51
0.0
  7
KANJI38
  0
TEXT
  8
0
  6
CONTINUOUS
 62
     2
 10
1525.32
 20
1043.28
 30
1.44
 40
14.4
  1
１８０２
 50
0.0
 41
0.9
 51
0.0
  7
KANJI38
  0
LINE
  8
0
  6
CONTINUOUS
 62
     1
 10
1014.12
 20
1003.64
 30
0.0
 11
1791.72
 21
1003.64
 31
0.0
  0
LINE
  8
0
  6
CONTINUOUS
 62
     1
 10
1014.12
 20
1511.24
 30
0.0
 11
1014.12
 21
1003.64
 31
0.0
  0
LINE
  8
0
  6
CONTINUOUS
 62
     1
 10
1215.72
 20
1511.24
 30
0.0
 11
1215.72
 21
1003.64
 31
0.0
  0
LINE
  8
0
  6
CONTINUOUS
 62
     2
 10
1311.72
 20
1511.24
 30
0.0
 11
1311.72
 21
1003.64
 31
0.0
  0
LINE
  8
0
  6
CONTINUOUS
 62
     2
 10
1407.72
 20
1511.24
 30
0.0
 11
1407.72
 21
1003.64
 31
0.0
  0
LINE
  8
0
  6
CONTINUOUS
 62
     2
 10
1503.72
 20
1511.24
 30
0.0
 11
1503.72
 21
1003.64
 31
0.0
  0
LINE
  8
0
  6
CONTINUOUS
 62
     2
 10
1599.72
 20
1511.24
 30
0.0
 11
1599.72
 21
1003.64
 31
0.0
  0
LINE
  8
0
  6
CONTINUOUS
 62
     2
 10
1695.72
 20
1511.24
 30
0.0
 11
1695.72
 21
1003.64
 31
0.0
  0
LINE
  8
0
  6
CONTINUOUS
 62
     1
 10
1791.72
 20
1511.24
 30
0.0
 11
1791.72
 21
1003.64
 31
0.0
  0
LINE
  8
0
  6
CONTINUOUS
 62
     1
 10
451.564725201
 20
577.033974596
 30
0.0
 11
451.564725201
 21
917.033974596
 31
0.0
  0
LINE
  8
0
  6
CONTINUOUS
 62
     1
 10
451.564725201
 20
726.933974596
 30
0.0
 11
451.564725201
 21
926.933974596
 31
0.0
  0
LINE
  8
0
  6
CONTINUOUS
 62
     1
 10
451.564725201
 20
568.033974596
 30
0.0
 11
451.564725201
 21
943.033974596
 31
0.0
  0
LINE
  8
0
  6
CONTINUOUS
 62
     1
 10
451.564725201
 20
943.033974596
 30
0.0
 11
411.564725201
 21
943.033974596
 31
0.0
  0
ARC
  8
0
  6
CONTINUOUS
 62
     1
 10
433.564725201
 20
810.033974596
 30
0.0
 40
4.0
 50
270.0
 51
0.0
  0
LINE
  8
0
  6
CONTINUOUS
 62
     1
 10
411.564725201
 20
943.033974596
 30
0.0
 11
411.564725201
 21
906.033974596
 31
0.0
  0
ARC
  8
0
  6
CONTINUOUS
 62
     1
 10
408.564725201
 20
906.033974596
 30
0.0
 40
3.0
 50
270.0
 51
0.0
  0
ARC
  8
0
  6
CONTINUOUS
 62
     1
 10
434.564725201
 20
906.033974596
 30
0.0
 40
3.0
 50
270.0
 51
0.0
  0
LINE
  8
0
  6
CONTINUOUS
 62
     1
 10
437.564725201
 20
810.033974596
 30
0.0
 11
437.564725201
 21
943.033974596
 31
0.0
  0
LINE
  8
0
  6
CONTINUOUS
 62
     1
 10
356.564725201
 20
568.033974596
 30
0.0
 11
356.564725201
 21
903.033974596
 31
0.0
  0
LINE
  8
0
  6
CONTINUOUS
 62
     1
 10
356.564725201
 20
903.033974596
 30
0.0
 11
434.564725201
 21
903.033974596
 31
0.0
  0
CIRCLE
  8
0
  6
CONTINUOUS
 62
     1
 10
431.564725201
 20
968.033974596
 30
0.0
 40
15.0
  0
LINE
  8
0
  6
CONTINUOUS
 62
     1
 10
442.965994164
 20
951.035505015
 30
0.0
 11
431.564725201
 21
953.033974596
 31
0.0
  0
LINE
  8
0
  6
CONTINUOUS
 62
     1
 10
431.564725201
 20
951.033974596
 30
0.0
 11
442.966180968
 21
951.033974596
 31
0.0
  0
ARC
  8
0
  6
CONTINUOUS
 62
     1
 10
431.564725201
 20
968.033974596
 30
0.0
 40
25.0
 50
300.714883545
 51
0.0
  0
LINE
  8
0
  6
CONTINUOUS
 62
     1
 10
443.681820347
 20
945.170984085
 30
0.0
 11
442.966180968
 21
951.033974596
 31
0.0
  0
ARC
  8
0
  6
CONTINUOUS
 62
     1
 10
445.070347916
 20
945.350100256
 30
0.0
 40
1.4
 50
121.733468281
 51
187.57738995
  0
LINE
  8
0
  6
CONTINUOUS
 62
     1
 10
420.163456237
 20
951.035505015
 30
0.0
 11
431.564725201
 21
953.033974596
 31
0.0
  0
LINE
  8
0
  6
CONTINUOUS
 62
     1
 10
431.564725201
 20
951.033974596
 30
0.0
 11
420.163269434
 21
951.033974596
 31
0.0
  0
LINE
  8
0
  6
CONTINUOUS
 62
     1
 10
419.447630054
 20
945.170984085
 30
0.0
 11
420.163269434
 21
951.033974596
 31
0.0
  0
ARC
  8
0
  6
CONTINUOUS
 62
     1
 10
418.059102486
 20
945.350100256
 30
0.0
 40
1.4
 50
352.42261005
 51
58.266531719
  0
ARC
  8
0
  6
CONTINUOUS
 62
     1
 10
431.564725201
 20
968.033974596
 30
0.0
 40
25.0
 50
0.0
 51
239.342761175
  0
LINE
  8
0
  6
CONTINUOUS
 62
     1
 10
443.942664731
 20
943.033974596
 30
0.0
 11
443.681820347
 21
945.170984085
 31
0.0
  0
LINE
  8
0
  6
CONTINUOUS
 62
     1
 10
419.186785671
 20
943.033974596
 30
0.0
 11
419.447630054
 21
945.170984085
 31
0.0
  0
LINE
  8
0
  6
CONTINUOUS
 62
     1
 10
451.564725201
 20
568.033974596
 30
0.0
 11
339.564725201
 21
568.033974596
 31
0.0
  0
LINE
  8
0
  6
CONTINUOUS
 62
     1
 10
339.564725201
 20
568.033974596
 30
0.0
 11
339.564725201
 21
816.033974596
 31
0.0
  0
LINE
  8
0
  6
CONTINUOUS
 62
     1
 10
433.564725201
 20
806.033974596
 30
0.0
 11
356.564725201
 21
806.033974596
 31
0.0
  0
LINE
  8
0
  6
CONTINUOUS
 62
     1
 10
356.564725201
 20
816.033974596
 30
0.0
 11
339.564725201
 21
816.033974596
 31
0.0
  0
LINE
  8
0
  6
CONTINUOUS
 62
     1
 10
339.564725201
 20
737.033974596
 30
0.0
 11
339.564725201
 21
726.084434596
 31
0.0
  0
LINE
  8
0
  6
CONTINUOUS
 62
     1
 10
339.564725201
 20
737.033974596
 30
0.0
 11
339.564725201
 21
747.983514596
 31
0.0
  0
LINE
  8
0
  6
CONTINUOUS
 62
     1
 10
331.543625201
 20
728.765954596
 30
0.0
 11
333.091801495
 21
726.084434596
 31
0.0
  0
LINE
  8
0
  6
CONTINUOUS
 62
     1
 10
331.543625201
 20
737.033974596
 30
0.0
 11
331.543625201
 21
728.765954596
 31
0.0
  0
LINE
  8
0
  6
CONTINUOUS
 62
     1
 10
331.543625201
 20
745.301994596
 30
0.0
 11
333.091801495
 21
747.983514596
 31
0.0
  0
LINE
  8
0
  6
CONTINUOUS
 62
     1
 10
331.543625201
 20
737.033974596
 30
0.0
 11
331.543625201
 21
745.301994596
 31
0.0
  0
ARC
  8
0
  6
CONTINUOUS
 62
     1
 10
341.997846893
 20
737.033974596
 30
0.0
 40
10.454221693
 50
148.419912243
 51
211.580087757
  0
ARC
  8
0
  6
CONTINUOUS
 62
     1
 10
334.736738807
 20
728.821819596
 30
0.0
 40
3.193602261
 50
121.002313915
 51
182.989498403
  0
LINE
  8
0
  6
CONTINUOUS
 62
     1
 10
331.543625201
 20
745.301994596
 30
0.0
 11
333.091801495
 21
747.983514596
 31
0.0
  0
ARC
  8
0
  6
CONTINUOUS
 62
     1
 10
334.736738807
 20
745.246129596
 30
0.0
 40
3.193602261
 50
177.010501597
 51
238.997686085
  0
LINE
  8
0
  6
CONTINUOUS
 62
     1
 10
339.564725201
 20
726.084434596
 30
0.0
 11
333.091801495
 21
726.084434596
 31
0.0
  0
LINE
  8
0
  6
CONTINUOUS
 62
     1
 10
339.564725201
 20
731.559204596
 30
0.0
 11
333.091801495
 21
731.559204596
 31
0.0
  0
LINE
  8
0
  6
CONTINUOUS
 62
     1
 10
339.564725201
 20
742.508744596
 30
0.0
 11
333.091801495
 21
742.508744596
 31
0.0
  0
LINE
  8
0
  6
CONTINUOUS
 62
     1
 10
339.564725201
 20
747.983514596
 30
0.0
 11
333.091801495
 21
747.983514596
 31
0.0
  0
LINE
  8
0
  6
CONTINUOUS
 62
     1
 10
339.564725201
 20
587.033974596
 30
0.0
 11
339.564725201
 21
576.084434596
 31
0.0
  0
LINE
  8
0
  6
CONTINUOUS
 62
     1
 10
339.564725201
 20
587.033974596
 30
0.0
 11
339.564725201
 21
597.983514596
 31
0.0
  0
LINE
  8
0
  6
CONTINUOUS
 62
     1
 10
331.543625201
 20
578.765954596
 30
0.0
 11
333.091801495
 21
576.084434596
 31
0.0
  0
LINE
  8
0
  6
CONTINUOUS
 62
     1
 10
331.543625201
 20
587.033974596
 30
0.0
 11
331.543625201
 21
578.765954596
 31
0.0
  0
LINE
  8
0
  6
CONTINUOUS
 62
     1
 10
331.543625201
 20
595.301994596
 30
0.0
 11
333.091801495
 21
597.983514596
 31
0.0
  0
LINE
  8
0
  6
CONTINUOUS
 62
     1
 10
331.543625201
 20
587.033974596
 30
0.0
 11
331.543625201
 21
595.301994596
 31
0.0
  0
ARC
  8
0
  6
CONTINUOUS
 62
     1
 10
341.997846893
 20
587.033974596
 30
0.0
 40
10.454221693
 50
148.419912243
 51
211.580087757
  0
ARC
  8
0
  6
CONTINUOUS
 62
     1
 10
334.736738807
 20
578.821819596
 30
0.0
 40
3.193602261
 50
121.002313915
 51
182.989498403
  0
LINE
  8
0
  6
CONTINUOUS
 62
     1
 10
331.543625201
 20
595.301994596
 30
0.0
 11
333.091801495
 21
597.983514596
 31
0.0
  0
ARC
  8
0
  6
CONTINUOUS
 62
     1
 10
334.736738807
 20
595.246129596
 30
0.0
 40
3.193602261
 50
177.010501597
 51
238.997686085
  0
LINE
  8
0
  6
CONTINUOUS
 62
     1
 10
339.564725201
 20
576.084434596
 30
0.0
 11
333.091801495
 21
576.084434596
 31
0.0
  0
LINE
  8
0
  6
CONTINUOUS
 62
     1
 10
339.564725201
 20
581.559204596
 30
0.0
 11
333.091801495
 21
581.559204596
 31
0.0
  0
LINE
  8
0
  6
CONTINUOUS
 62
     1
 10
339.564725201
 20
592.508744596
 30
0.0
 11
333.091801495
 21
592.508744596
 31
0.0
  0
LINE
  8
0
  6
CONTINUOUS
 62
     1
 10
339.564725201
 20
597.983514596
 30
0.0
 11
333.091801495
 21
597.983514596
 31
0.0
  0
LINE
  8
0
  6
CONTINUOUS
 62
     1
 10
339.564725201
 20
805.033974596
 30
0.0
 11
339.564725201
 21
797.539914596
 31
0.0
  0
LINE
  8
0
  6
CONTINUOUS
 62
     1
 10
339.564725201
 20
805.033974596
 30
0.0
 11
339.564725201
 21
812.528034596
 31
0.0
  0
LINE
  8
0
  6
CONTINUOUS
 62
     1
 10
334.064825201
 20
799.375194596
 30
0.0
 11
335.124424603
 21
797.539914596
 31
0.0
  0
LINE
  8
0
  6
CONTINUOUS
 62
     1
 10
334.064825201
 20
805.033974596
 30
0.0
 11
334.064825201
 21
799.375194596
 31
0.0
  0
LINE
  8
0
  6
CONTINUOUS
 62
     1
 10
334.064825201
 20
810.692754596
 30
0.0
 11
335.124424603
 21
812.528034596
 31
0.0
  0
LINE
  8
0
  6
CONTINUOUS
 62
     1
 10
334.064825201
 20
805.033974596
 30
0.0
 11
334.064825201
 21
810.692754596
 31
0.0
  0
ARC
  8
0
  6
CONTINUOUS
 62
     1
 10
341.219880538
 20
805.033974596
 30
0.0
 40
7.155055337
 50
148.419912243
 51
211.580087757
  0
ARC
  8
0
  6
CONTINUOUS
 62
     1
 10
336.250248968
 20
799.413429596
 30
0.0
 40
2.185758211
 50
121.002313915
 51
182.989498403
  0
LINE
  8
0
  6
CONTINUOUS
 62
     1
 10
334.064825201
 20
810.692754596
 30
0.0
 11
335.124424603
 21
812.528034596
 31
0.0
  0
ARC
  8
0
  6
CONTINUOUS
 62
     1
 10
336.250248968
 20
810.654519596
 30
0.0
 40
2.185758211
 50
177.010501597
 51
238.997686085
  0
LINE
  8
0
  6
CONTINUOUS
 62
     1
 10
339.564725201
 20
797.539914596
 30
0.0
 11
335.124424603
 21
797.539914596
 31
0.0
  0
LINE
  8
0
  6
CONTINUOUS
 62
     1
 10
339.564725201
 20
801.286944596
 30
0.0
 11
335.124424603
 21
801.286944596
 31
0.0
  0
LINE
  8
0
  6
CONTINUOUS
 62
     1
 10
339.564725201
 20
808.781004596
 30
0.0
 11
335.124424603
 21
808.781004596
 31
0.0
  0
LINE
  8
0
  6
CONTINUOUS
 62
     1
 10
339.564725201
 20
812.528034596
 30
0.0
 11
335.124424603
 21
812.528034596
 31
0.0
  0
LINE
  8
0
  6
CONTINUOUS
 62
     1
 10
451.564725201
 20
737.933974596
 30
0.0
 11
451.564725201
 21
937.933974596
 31
0.0
  0
LINE
  8
0
  6
CONTINUOUS
 62
     1
 10
451.564725201
 20
737.233974596
 30
0.0
 11
451.564725201
 21
937.233974596
 31
0.0
  0
LINE
  8
0
  6
LTYPE3
 62
     2
 10
398.639725201
 20
968.033974596
 30
0.0
 11
463.639725201
 21
968.033974596
 31
0.0
  0
LINE
  8
0
  6
LTYPE3
 62
     2
 10
431.564725201
 20
921.033974596
 30
0.0
 11
431.564725201
 21
1000.733974596
 31
0.0
  0
LINE
  8
0
  6
LTYPE3
 62
     2
 10
325.964725201
 20
587.033974596
 30
0.0
 11
374.664725201
 21
587.033974596
 31
0.0
  0
LINE
  8
0
  6
LTYPE3
 62
     2
 10
326.564725201
 20
737.033974596
 30
0.0
 11
374.664725201
 21
737.033974596
 31
0.0
  0
LINE
  8
0
  6
LTYPE3
 62
     2
 10
328.464725201
 20
805.033974596
 30
0.0
 11
353.064725201
 21
805.033974596
 31
0.0
  0
LINE
  8
0
  6
CONTINUOUS
 62
     2
 10
332.064725201
 20
854.433974596
 30
0.0
 11
330.584370258
 21
866.846007034
 31
0.0
  0
LINE
  8
0
  6
CONTINUOUS
 62
     2
 10
332.064725201
 20
854.433974596
 30
0.0
 11
324.576683995
 21
864.442932529
 31
0.0
  0
LINE
  8
0
  6
CONTINUOUS
 62
     2
 10
332.064725201
 20
854.433974596
 30
0.0
 11
282.064725201
 21
979.433974596
 31
0.0
  0
LINE
  8
0
  6
CONTINUOUS
 62
     2
 10
282.064725201
 20
979.433974596
 30
0.0
 11
201.064725201
 21
979.433974596
 31
0.0
  0
TEXT
  8
0
  6
CONTINUOUS
 62
     2
 10
201.064725201
 20
984.433974596
 30
0.0
 40
15.0
  1
手動軸カバー
 50
0.0
 41
0.9
 51
0.0
  7
KANJI36
  0
LINE
  8
0
  6
LTYPE3
 62
     2
 10
310.114725201
 20
838.033974596
 30
0.0
 11
760.864725201
 21
838.033974596
 31
0.0
  0
LINE
  8
0
  6
LTYPE3
 62
     2
 10
536.564725201
 20
619.033974596
 30
0.0
 11
536.564725201
 21
709.033974596
 31
0.0
  0
LINE
  8
0
  6
LTYPE3
 62
     2
 10
536.564725201
 20
619.033974596
 30
0.0
 11
536.564725201
 21
709.033974596
 31
0.0
  0
CIRCLE
  8
0
  6
CONTINUOUS
 62
     1
 10
536.564725201
 20
662.033974596
 30
0.0
 40
12.5
  0
CIRCLE
  8
0
  6
CONTINUOUS
 62
     1
 10
536.564725201
 20
662.033974596
 30
0.0
 40
23.0
  0
CIRCLE
  8
0
  6
CONTINUOUS
 62
     1
 10
536.564725201
 20
662.033974596
 30
0.0
 40
27.5
  0
LINE
  8
0
  6
CONTINUOUS
 62
     1
 10
574.564725201
 20
596.033974596
 30
0.0
 11
648.564725201
 21
596.033974596
 31
0.0
  0
LINE
  8
0
  6
CONTINUOUS
 62
     1
 10
656.564725201
 20
602.033974596
 30
0.0
 11
656.564725201
 21
722.033974596
 31
0.0
  0
LINE
  8
0
  6
CONTINUOUS
 62
     1
 10
466.564725201
 20
595.033974596
 30
0.0
 11
466.564725201
 21
729.033974596
 31
0.0
  0
LINE
  8
0
  6
CONTINUOUS
 62
     1
 10
451.564725201
 20
595.033974596
 30
0.0
 11
466.564725201
 21
595.033974596
 31
0.0
  0
LINE
  8
0
  6
CONTINUOUS
 62
     1
 10
451.564725201
 20
729.033974596
 30
0.0
 11
466.564725201
 21
729.033974596
 31
0.0
  0
LINE
  8
0
  6
CONTINUOUS
 62
     1
 10
466.564725201
 20
722.033974596
 30
0.0
 11
656.564725201
 21
722.033974596
 31
0.0
  0
LINE
  8
0
  6
CONTINUOUS
 62
     1
 10
648.564725201
 20
602.033974596
 30
0.0
 11
656.564725201
 21
602.033974596
 31
0.0
  0
LINE
  8
0
  6
CONTINUOUS
 62
     1
 10
466.564725201
 20
602.033974596
 30
0.0
 11
574.564725201
 21
602.033974596
 31
0.0
  0
LINE
  8
0
  6
LTYPE3
 62
     2
 10
611.564725201
 20
580.533974596
 30
0.0
 11
611.564725201
 21
607.033974596
 31
0.0
  0
LINE
  8
0
  6
CONTINUOUS
 62
     1
 10
657.564725201
 20
594.533974596
 30
0.0
 11
657.564725201
 21
593.533974596
 31
0.0
  0
ARC
  8
0
  6
CONTINUOUS
 62
     1
 10
570.564725201
 20
591.533974596
 30
0.0
 40
3.0
 50
90.0
 51
180.0
  0
LINE
  8
0
  6
CONTINUOUS
 62
     1
 10
657.564725201
 20
593.533974596
 30
0.0
 11
693.564725201
 21
593.533974596
 31
0.0
  0
ARC
  8
0
  6
CONTINUOUS
 62
     1
 10
693.564725201
 20
590.533974596
 30
0.0
 40
3.0
 50
0.0
 51
90.0
  0
LINE
  8
0
  6
CONTINUOUS
 62
     1
 10
570.564725201
 20
594.533974596
 30
0.0
 11
657.564725201
 21
594.533974596
 31
0.0
  0
LINE
  8
0
  6
CONTINUOUS
 62
     1
 10
574.564725201
 20
594.533974596
 30
0.0
 11
574.564725201
 21
636.533974596
 31
0.0
  0
LINE
  8
0
  6
CONTINUOUS
 62
     1
 10
648.564725201
 20
594.533974596
 30
0.0
 11
648.564725201
 21
636.533974596
 31
0.0
  0
LINE
  8
0
  6
CONTINUOUS
 62
     1
 10
656.564725201
 20
720.033974596
 30
0.0
 11
665.564725201
 21
720.033974596
 31
0.0
  0
LINE
  8
0
  6
CONTINUOUS
 62
     1
 10
656.564725201
 20
723.033974596
 30
0.0
 11
665.564725201
 21
723.033974596
 31
0.0
  0
LINE
  8
0
  6
CONTINUOUS
 62
     1
 10
656.564725201
 20
667.033974596
 30
0.0
 11
665.564725201
 21
667.033974596
 31
0.0
  0
LINE
  8
0
  6
CONTINUOUS
 62
     1
 10
656.564725201
 20
657.033974596
 30
0.0
 11
665.564725201
 21
657.033974596
 31
0.0
  0
LINE
  8
0
  6
CONTINUOUS
 62
     1
 10
656.564725201
 20
604.033974596
 30
0.0
 11
665.564725201
 21
604.033974596
 31
0.0
  0
LINE
  8
0
  6
CONTINUOUS
 62
     1
 10
656.564725201
 20
601.033974596
 30
0.0
 11
665.564725201
 21
601.033974596
 31
0.0
  0
LINE
  8
0
  6
CONTINUOUS
 62
     1
 10
665.564725201
 20
602.033974596
 30
0.0
 11
665.564725201
 21
722.033974596
 31
0.0
  0
LINE
  8
0
  6
CONTINUOUS
 62
     1
 10
451.564725201
 20
737.233974596
 30
0.0
 11
451.564725201
 21
937.233974596
 31
0.0
  0
CIRCLE
  8
0
  6
CONTINUOUS
 62
     1
 10
812.489733105
 20
662.033974596
 30
0.0
 40
19.5
  0
LINE
  8
0
  6
CONTINUOUS
 62
     1
 10
792.489733105
 20
682.033974596
 30
0.0
 11
832.489733105
 21
682.033974596
 31
0.0
  0
LINE
  8
0
  6
CONTINUOUS
 62
     1
 10
832.489733105
 20
642.033974596
 30
0.0
 11
832.489733105
 21
682.033974596
 31
0.0
  0
LINE
  8
0
  6
CONTINUOUS
 62
     1
 10
792.489733105
 20
642.033974596
 30
0.0
 11
832.489733105
 21
642.033974596
 31
0.0
  0
LINE
  8
0
  6
CONTINUOUS
 62
     1
 10
792.489733105
 20
642.033974596
 30
0.0
 11
792.489733105
 21
682.033974596
 31
0.0
  0
LINE
  8
0
  6
CONTINUOUS
 62
     2
 10
820.564725201
 20
671.033974596
 30
0.0
 11
828.052766407
 21
681.042932529
 31
0.0
  0
LINE
  8
0
  6
CONTINUOUS
 62
     2
 10
820.564725201
 20
671.033974596
 30
0.0
 11
822.045080143
 21
683.446007034
 31
0.0
  0
LINE
  8
0
  6
CONTINUOUS
 62
     2
 10
820.564725201
 20
671.033974596
 30
0.0
 11
870.564725201
 21
796.033974596
 31
0.0
  0
LINE
  8
0
  6
LTYPE3
 62
     2
 10
812.489733105
 20
636.933974596
 30
0.0
 11
812.489733105
 21
686.833974596
 31
0.0
  0
TEXT
  8
0
  6
CONTINUOUS
 62
     2
 10
870.564725201
 20
801.033974596
 30
1.5
 40
15.0
  1
給脂口
 50
0.0
 41
0.9
 51
0.0
  7
KANJI43
  0
LINE
  8
0
  6
CONTINUOUS
 62
     2
 10
870.564725201
 20
796.033974596
 30
0.0
 11
919.264725201
 21
796.033974596
 31
0.0
  0
LINE
  8
0
  6
CONTINUOUS
 62
     1
 10
451.564725201
 20
758.033974596
 30
0.0
 11
451.564725201
 21
918.033974596
 31
0.0
  0
LINE
  8
0
  6
CONTINUOUS
 62
     1
 10
451.564725201
 20
937.233974596
 30
0.0
 11
461.564725201
 21
937.233974596
 31
0.0
  0
LINE
  8
0
  6
CONTINUOUS
 62
     1
 10
451.564725201
 20
737.233974596
 30
0.0
 11
451.564725201
 21
937.233974596
 31
0.0
  0
LINE
  8
0
  6
CONTINUOUS
 62
     1
 10
451.564725201
 20
737.233974596
 30
0.0
 11
461.564725201
 21
737.233974596
 31
0.0
  0
LINE
  8
0
  6
CONTINUOUS
 62
     1
 10
452.064725201
 20
737.133974596
 30
0.0
 11
461.064725201
 21
737.133974596
 31
0.0
  0
ARC
  8
0
  6
CONTINUOUS
 62
     1
 10
461.064725201
 20
740.133974596
 30
0.0
 40
3.0
 50
270.0
 51
0.0
  0
LINE
  8
0
  6
CONTINUOUS
 62
     1
 10
452.064725201
 20
937.133974596
 30
0.0
 11
461.064725201
 21
937.133974596
 31
0.0
  0
ARC
  8
0
  6
CONTINUOUS
 62
     1
 10
461.064725201
 20
934.133974596
 30
0.0
 40
3.0
 50
0.0
 51
90.0
  0
LINE
  8
0
  6
CONTINUOUS
 62
     1
 10
464.064725201
 20
908.133974596
 30
0.0
 11
464.064725201
 21
934.133974596
 31
0.0
  0
LINE
  8
0
  6
CONTINUOUS
 62
     1
 10
464.064725201
 20
740.133974596
 30
0.0
 11
464.064725201
 21
908.133974596
 31
0.0
  0
ARC
  8
0
  6
CONTINUOUS
 62
     1
 10
466.064725201
 20
910.133974596
 30
0.0
 40
2.0
 50
180.0
 51
270.0
  0
LINE
  8
0
  6
CONTINUOUS
 62
     1
 10
499.064725201
 20
766.133974596
 30
0.0
 11
499.064725201
 21
908.033974596
 31
0.0
  0
ARC
  8
0
  6
CONTINUOUS
 62
     1
 10
466.064725201
 20
764.133974596
 30
0.0
 40
2.0
 50
90.0
 51
180.0
  0
LINE
  8
0
  6
CONTINUOUS
 62
     1
 10
602.614725201
 20
927.133974596
 30
0.0
 11
602.614725201
 21
961.133974596
 31
0.0
  0
LINE
  8
0
  6
CONTINUOUS
 62
     1
 10
602.614725201
 20
927.133974596
 30
0.0
 11
576.614725201
 21
927.133974596
 31
0.0
  0
LINE
  8
0
  6
CONTINUOUS
 62
     1
 10
602.614725201
 20
961.133974596
 30
0.0
 11
576.614725201
 21
961.133974596
 31
0.0
  0
LINE
  8
0
  6
LTYPE2
 62
     2
 10
609.544201046
 20
944.133974596
 30
0.0
 11
569.544201046
 21
944.133974596
 31
0.0
  0
LINE
  8
0
  6
CONTINUOUS
 62
     1
 10
506.614725201
 20
919.133974596
 30
0.0
 11
506.614725201
 21
922.133974596
 31
0.0
  0
ARC
  8
0
  6
CONTINUOUS
 62
     1
 10
510.614725201
 20
916.133974596
 30
0.0
 40
3.0
 50
0.0
 51
90.0
  0
LINE
  8
0
  6
CONTINUOUS
 62
     1
 10
566.614725201
 20
919.133974596
 30
0.0
 11
566.614725201
 21
922.133974596
 31
0.0
  0
ARC
  8
0
  6
CONTINUOUS
 62
     1
 10
562.614725201
 20
916.133974596
 30
0.0
 40
3.0
 50
90.0
 51
180.0
  0
LINE
  8
0
  6
CONTINUOUS
 62
     1
 10
566.614725201
 20
919.133974596
 30
0.0
 11
506.614725201
 21
919.133974596
 31
0.0
  0
LINE
  8
0
  6
CONTINUOUS
 62
     1
 10
491.526813113
 20
924.133974596
 30
0.0
 11
583.614725201
 21
968.154020484
 31
0.0
  0
LINE
  8
0
  6
CONTINUOUS
 62
     1
 10
489.614725201
 20
928.133974596
 30
0.0
 11
491.526813113
 21
924.133974596
 31
0.0
  0
LINE
  8
0
  6
CONTINUOUS
 62
     1
 10
489.614725201
 20
928.133974596
 30
0.0
 11
581.702637289
 21
972.154020484
 31
0.0
  0
LINE
  8
0
  6
CONTINUOUS
 62
     1
 10
581.702637289
 20
972.154020484
 30
0.0
 11
583.614725201
 21
968.154020484
 31
0.0
  0
LINE
  8
0
  6
CONTINUOUS
 62
     1
 10
496.614725201
 20
931.480128442
 30
0.0
 11
496.614725201
 21
971.133974596
 31
0.0
  0
ARC
  8
0
  6
CONTINUOUS
 62
     1
 10
499.614725201
 20
971.133974596
 30
0.0
 40
3.0
 50
90.0
 51
180.0
  0
LINE
  8
0
  6
CONTINUOUS
 62
     1
 10
496.614725201
 20
925.133974596
 30
0.0
 11
496.614725201
 21
926.566108396
 31
0.0
  0
ARC
  8
0
  6
CONTINUOUS
 62
     1
 10
499.614725201
 20
925.133974596
 30
0.0
 40
3.0
 50
180.0
 51
270.0
  0
LINE
  8
0
  6
CONTINUOUS
 62
     1
 10
576.614725201
 20
925.133974596
 30
0.0
 11
576.614725201
 21
964.807866638
 31
0.0
  0
LINE
  8
0
  6
CONTINUOUS
 62
     1
 10
573.614725201
 20
922.133974596
 30
0.0
 11
499.614725201
 21
922.133974596
 31
0.0
  0
ARC
  8
0
  6
CONTINUOUS
 62
     1
 10
573.614725201
 20
925.133974596
 30
0.0
 40
3.0
 50
270.0
 51
0.0
  0
LINE
  8
0
  6
CONTINUOUS
 62
     1
 10
576.614725201
 20
969.721886684
 30
0.0
 11
576.614725201
 21
971.133974596
 31
0.0
  0
LINE
  8
0
  6
CONTINUOUS
 62
     1
 10
573.614725201
 20
974.133974596
 30
0.0
 11
499.614725201
 21
974.133974596
 31
0.0
  0
ARC
  8
0
  6
CONTINUOUS
 62
     1
 10
573.614725201
 20
971.133974596
 30
0.0
 40
3.0
 50
0.0
 51
90.0
  0
ARC
  8
0
  6
CONTINUOUS
 62
     1
 10
516.614725201
 20
910.633974596
 30
0.0
 40
3.0
 50
180.0
 51
270.0
  0
ARC
  8
0
  6
CONTINUOUS
 62
     1
 10
556.614725201
 20
910.633974596
 30
0.0
 40
3.0
 50
270.0
 51
0.0
  0
LINE
  8
0
  6
CONTINUOUS
 62
     1
 10
559.614725201
 20
910.633979991
 30
0.0
 11
559.614725201
 21
916.133974596
 31
0.0
  0
LINE
  8
0
  6
CONTINUOUS
 62
     1
 10
513.614725201
 20
910.633979991
 30
0.0
 11
513.614725201
 21
916.133974596
 31
0.0
  0
LINE
  8
0
  6
LTYPE2
 62
     2
 10
536.564725201
 20
901.133974596
 30
0.0
 11
536.564725201
 21
976.133974596
 31
0.0
  0
LINE
  8
0
  6
CONTINUOUS
 62
     1
 10
703.875107016
 20
878.961557281
 30
0.0
 11
721.254343386
 21
877.306391912
 31
0.0
  0
ARC
  8
0
  6
CONTINUOUS
 62
     1
 10
704.064725201
 20
880.952548226
 30
0.0
 40
2.0
 50
180.0
 51
264.559667969
  0
LINE
  8
0
  6
CONTINUOUS
 62
     1
 10
703.875107016
 20
888.961557281
 30
0.0
 11
721.254343386
 21
887.306391912
 31
0.0
  0
ARC
  8
0
  6
CONTINUOUS
 62
     1
 10
704.064725201
 20
890.952548226
 30
0.0
 40
2.0
 50
180.0
 51
264.559667969
  0
LINE
  8
0
  6
CONTINUOUS
 62
     1
 10
703.875107016
 20
795.306391912
 30
0.0
 11
721.254343386
 21
796.961557281
 31
0.0
  0
ARC
  8
0
  6
CONTINUOUS
 62
     1
 10
704.064725201
 20
793.315400967
 30
0.0
 40
2.0
 50
95.440332031
 51
180.0
  0
ARC
  8
0
  6
CONTINUOUS
 62
     1
 10
725.064725201
 20
862.133974596
 30
0.0
 40
2.0
 50
180.0
 51
270.0
  0
LINE
  8
0
  6
CONTINUOUS
 62
     1
 10
734.064725201
 20
860.133974596
 30
0.0
 11
725.064725201
 21
860.133974596
 31
0.0
  0
ARC
  8
0
  6
CONTINUOUS
 62
     1
 10
734.064725201
 20
858.133974596
 30
0.0
 40
2.0
 50
0.0
 51
90.0
  0
LINE
  8
0
  6
CONTINUOUS
 62
     1
 10
736.064725201
 20
858.133974596
 30
0.0
 11
736.064725201
 21
816.133974596
 31
0.0
  0
ARC
  8
0
  6
CONTINUOUS
 62
     1
 10
734.064725201
 20
816.133974596
 30
0.0
 40
2.0
 50
270.0
 51
0.0
  0
ARC
  8
0
  6
CONTINUOUS
 62
     1
 10
725.064725201
 20
812.133974596
 30
0.0
 40
2.0
 50
90.0
 51
180.0
  0
LINE
  8
0
  6
CONTINUOUS
 62
     1
 10
734.064725201
 20
814.133974596
 30
0.0
 11
725.064725201
 21
814.133974596
 31
0.0
  0
LINE
  8
0
  6
CONTINUOUS
 62
     1
 10
739.064725201
 20
848.633974596
 30
0.0
 11
736.064725201
 21
848.633974596
 31
0.0
  0
LINE
  8
0
  6
CONTINUOUS
 62
     1
 10
739.064725201
 20
825.633974596
 30
0.0
 11
736.064725201
 21
825.633974596
 31
0.0
  0
LINE
  8
0
  6
CONTINUOUS
 62
     1
 10
739.064725201
 20
848.633974596
 30
0.0
 11
739.064725201
 21
825.633974596
 31
0.0
  0
ARC
  8
0
  6
CONTINUOUS
 62
     1
 10
721.064725201
 20
829.952548226
 30
0.0
 40
2.0
 50
275.440332031
 51
0.0
  0
LINE
  8
0
  6
CONTINUOUS
 62
     1
 10
721.254343386
 20
827.961557281
 30
0.0
 11
703.875107016
 21
826.306391912
 31
0.0
  0
ARC
  8
0
  6
CONTINUOUS
 62
     1
 10
704.064725201
 20
824.315400967
 30
0.0
 40
2.0
 50
95.440332031
 51
180.0
  0
ARC
  8
0
  6
CONTINUOUS
 62
     1
 10
721.064725201
 20
844.315400967
 30
0.0
 40
2.0
 50
0.0
 51
84.559667969
  0
LINE
  8
0
  6
CONTINUOUS
 62
     1
 10
721.254343386
 20
846.306391912
 30
0.0
 11
703.875107016
 21
847.961557281
 31
0.0
  0
ARC
  8
0
  6
CONTINUOUS
 62
     1
 10
704.064725201
 20
849.952548226
 30
0.0
 40
2.0
 50
180.0
 51
264.559667969
  0
LINE
  8
0
  6
LTYPE2
 62
     2
 10
715.564725201
 20
880.133974596
 30
0.0
 11
728.764725201
 21
880.133974596
 31
0.0
  0
LINE
  8
0
  6
CONTINUOUS
 62
     1
 10
703.875107016
 20
785.306391912
 30
0.0
 11
721.254343386
 21
786.961557281
 31
0.0
  0
LINE
  8
0
  6
LTYPE2
 62
     2
 10
715.564725201
 20
794.133974596
 30
0.0
 11
728.764725201
 21
794.133974596
 31
0.0
  0
ARC
  8
0
  6
CONTINUOUS
 62
     1
 10
704.064725201
 20
783.315400967
 30
0.0
 40
2.0
 50
95.440332031
 51
180.0
  0
LINE
  8
0
  6
CONTINUOUS
 62
     1
 10
723.064725201
 20
885.315400967
 30
0.0
 11
723.064725201
 21
789.522094596
 31
0.0
  0
ARC
  8
0
  6
CONTINUOUS
 62
     1
 10
721.064725201
 20
875.315400967
 30
0.0
 40
2.0
 50
0.0
 51
84.559667969
  0
ARC
  8
0
  6
CONTINUOUS
 62
     1
 10
721.064725201
 20
885.315400967
 30
0.0
 40
2.0
 50
0.0
 51
84.559667969
  0
LINE
  8
0
  6
CONTINUOUS
 62
     1
 10
726.564925201
 20
883.616414596
 30
0.0
 11
725.912842713
 21
884.745854596
 31
0.0
  0
LINE
  8
0
  6
CONTINUOUS
 62
     1
 10
726.564925201
 20
876.651534596
 30
0.0
 11
725.912842713
 21
875.522094596
 31
0.0
  0
ARC
  8
0
  6
CONTINUOUS
 62
     1
 10
722.161670275
 20
880.133974596
 30
0.0
 40
4.403254926
 50
328.419912243
 51
31.580087757
  0
ARC
  8
0
  6
CONTINUOUS
 62
     1
 10
725.220005069
 20
883.592884596
 30
0.0
 40
1.34512595
 50
301.002313915
 51
2.989498403
  0
LINE
  8
0
  6
CONTINUOUS
 62
     1
 10
726.564925201
 20
876.651534596
 30
0.0
 11
725.912842713
 21
875.522094596
 31
0.0
  0
ARC
  8
0
  6
CONTINUOUS
 62
     1
 10
725.220005069
 20
876.675064596
 30
0.0
 40
1.34512595
 50
357.010501597
 51
58.997686085
  0
LINE
  8
0
  6
CONTINUOUS
 62
     1
 10
723.064725201
 20
884.745854596
 30
0.0
 11
725.912842713
 21
884.745854596
 31
0.0
  0
LINE
  8
0
  6
CONTINUOUS
 62
     1
 10
723.064725201
 20
882.439914596
 30
0.0
 11
725.912842713
 21
882.439914596
 31
0.0
  0
LINE
  8
0
  6
CONTINUOUS
 62
     1
 10
723.064725201
 20
877.828034596
 30
0.0
 11
725.912842713
 21
877.828034596
 31
0.0
  0
LINE
  8
0
  6
CONTINUOUS
 62
     1
 10
723.064725201
 20
875.522094596
 30
0.0
 11
725.912842713
 21
875.522094596
 31
0.0
  0
LINE
  8
0
  6
CONTINUOUS
 62
     1
 10
726.564925201
 20
883.616414596
 30
0.0
 11
726.564925201
 21
876.651534596
 31
0.0
  0
LINE
  8
0
  6
CONTINUOUS
 62
     1
 10
744.064725201
 20
841.486876596
 30
0.0
 11
743.249649804
 21
842.898628596
 31
0.0
  0
LINE
  8
0
  6
CONTINUOUS
 62
     1
 10
744.064725201
 20
832.781072596
 30
0.0
 11
743.249649804
 21
831.369320596
 31
0.0
  0
ARC
  8
0
  6
CONTINUOUS
 62
     1
 10
738.560843677
 20
837.133974596
 30
0.0
 40
5.503881523
 50
328.419912243
 51
31.580087757
  0
ARC
  8
0
  6
CONTINUOUS
 62
     1
 10
742.383632194
 20
841.457465096
 30
0.0
 40
1.681350271
 50
301.002313915
 51
2.989498403
  0
LINE
  8
0
  6
CONTINUOUS
 62
     1
 10
744.064725201
 20
832.781072596
 30
0.0
 11
743.249649804
 21
831.369320596
 31
0.0
  0
ARC
  8
0
  6
CONTINUOUS
 62
     1
 10
742.383632194
 20
832.810484096
 30
0.0
 40
1.681350271
 50
357.010501597
 51
58.997686085
  0
LINE
  8
0
  6
CONTINUOUS
 62
     1
 10
740.065115201
 20
840.016301596
 30
0.0
 11
743.249649804
 21
840.016301596
 31
0.0
  0
LINE
  8
0
  6
CONTINUOUS
 62
     1
 10
740.065115201
 20
842.898628596
 30
0.0
 11
743.249649804
 21
842.898628596
 31
0.0
  0
LINE
  8
0
  6
CONTINUOUS
 62
     1
 10
740.065115201
 20
834.251647596
 30
0.0
 11
743.249649804
 21
834.251647596
 31
0.0
  0
LINE
  8
0
  6
CONTINUOUS
 62
     1
 10
740.065115201
 20
831.369320596
 30
0.0
 11
743.249649804
 21
831.369320596
 31
0.0
  0
LINE
  8
0
  6
CONTINUOUS
 62
     1
 10
744.064725201
 20
832.781072596
 30
0.0
 11
744.064725201
 21
841.486876596
 31
0.0
  0
LINE
  8
0
  6
CONTINUOUS
 62
     1
 10
740.065115201
 20
843.633974596
 30
0.0
 11
739.064725201
 21
843.633974596
 31
0.0
  0
LINE
  8
0
  6
CONTINUOUS
 62
     1
 10
740.065115201
 20
843.633974596
 30
0.0
 11
740.065115201
 21
830.633974596
 31
0.0
  0
LINE
  8
0
  6
CONTINUOUS
 62
     1
 10
740.065115201
 20
830.633974596
 30
0.0
 11
739.064725201
 21
830.633974596
 31
0.0
  0
ARC
  8
0
  6
CONTINUOUS
 62
     1
 10
721.064725201
 20
798.952548226
 30
0.0
 40
2.0
 50
275.440332031
 51
0.0
  0
LINE
  8
0
  6
CONTINUOUS
 62
     1
 10
726.564925201
 20
790.651534596
 30
0.0
 11
725.912842713
 21
789.522094596
 31
0.0
  0
LINE
  8
0
  6
CONTINUOUS
 62
     1
 10
726.564925201
 20
797.616414596
 30
0.0
 11
725.912842713
 21
798.745854596
 31
0.0
  0
ARC
  8
0
  6
CONTINUOUS
 62
     1
 10
722.161670275
 20
794.133974596
 30
0.0
 40
4.403254926
 50
328.419912243
 51
31.580087757
  0
ARC
  8
0
  6
CONTINUOUS
 62
     1
 10
725.220005069
 20
790.675064596
 30
0.0
 40
1.34512595
 50
357.010501597
 51
58.997686085
  0
LINE
  8
0
  6
CONTINUOUS
 62
     1
 10
726.564925201
 20
797.616414596
 30
0.0
 11
725.912842713
 21
798.745854596
 31
0.0
  0
ARC
  8
0
  6
CONTINUOUS
 62
     1
 10
725.220005069
 20
797.592884596
 30
0.0
 40
1.34512595
 50
301.002313915
 51
2.989498403
  0
LINE
  8
0
  6
CONTINUOUS
 62
     1
 10
723.064725201
 20
789.522094596
 30
0.0
 11
725.912842713
 21
789.522094596
 31
0.0
  0
LINE
  8
0
  6
CONTINUOUS
 62
     1
 10
723.064725201
 20
791.828034596
 30
0.0
 11
725.912842713
 21
791.828034596
 31
0.0
  0
LINE
  8
0
  6
CONTINUOUS
 62
     1
 10
723.064725201
 20
796.439914596
 30
0.0
 11
725.912842713
 21
796.439914596
 31
0.0
  0
LINE
  8
0
  6
CONTINUOUS
 62
     1
 10
723.064725201
 20
798.745854596
 30
0.0
 11
725.912842713
 21
798.745854596
 31
0.0
  0
LINE
  8
0
  6
CONTINUOUS
 62
     1
 10
726.564925201
 20
790.651534596
 30
0.0
 11
726.564925201
 21
797.616414596
 31
0.0
  0
ARC
  8
0
  6
CONTINUOUS
 62
     1
 10
721.064725201
 20
788.952548226
 30
0.0
 40
2.0
 50
275.440332031
 51
0.0
  0
LINE
  8
0
  6
LTYPE1
 62
     1
 10
731.164725201
 20
851.633974596
 30
0.0
 11
723.064725201
 21
842.433974596
 31
0.0
  0
ARC
  8
0
  6
LTYPE1
 62
     1
 10
734.564725201
 20
848.633974596
 30
0.0
 40
4.5
 50
290.9
 51
137.7
  0
LINE
  8
0
  6
LTYPE1
 62
     1
 10
729.064725201
 20
841.633974596
 30
0.0
 11
723.064725201
 21
842.433974596
 31
0.0
  0
LINE
  8
0
  6
LTYPE1
 62
     1
 10
736.164725201
 20
844.433974596
 30
0.0
 11
729.064725201
 21
841.633974596
 31
0.0
  0
LINE
  8
0
  6
LTYPE1
 62
     1
 10
729.064725201
 20
832.633974596
 30
0.0
 11
723.064725201
 21
831.833974596
 31
0.0
  0
ARC
  8
0
  6
LTYPE1
 62
     1
 10
734.564725201
 20
825.633974596
 30
0.0
 40
4.5
 50
222.3
 51
69.1
  0
LINE
  8
0
  6
LTYPE1
 62
     1
 10
731.164725201
 20
822.633974596
 30
0.0
 11
723.064725201
 21
831.833974596
 31
0.0
  0
LINE
  8
0
  6
LTYPE1
 62
     1
 10
736.164725201
 20
829.833974596
 30
0.0
 11
729.064725201
 21
832.633974596
 31
0.0
  0
LINE
  8
0
  6
LTYPE1
 62
     1
 10
729.064725201
 20
841.633974596
 30
0.0
 11
729.064725201
 21
832.633974596
 31
0.0
  0
LINE
  8
0
  6
CONTINUOUS
 62
     1
 10
694.064725201
 20
766.133974596
 30
0.0
 11
694.064725201
 21
908.133974596
 31
0.0
  0
LINE
  8
0
  6
CONTINUOUS
 62
     1
 10
466.064725201
 20
908.133974596
 30
0.0
 11
699.064725201
 21
908.133974596
 31
0.0
  0
ARC
  8
0
  6
CONTINUOUS
 62
     1
 10
699.064725201
 20
905.133974596
 30
0.0
 40
3.0
 50
0.0
 51
90.0
  0
LINE
  8
0
  6
CONTINUOUS
 62
     1
 10
466.064725201
 20
766.133974596
 30
0.0
 11
699.064725201
 21
766.133974596
 31
0.0
  0
LINE
  8
0
  6
CONTINUOUS
 62
     1
 10
702.064725201
 20
905.133974596
 30
0.0
 11
702.064725201
 21
769.133974596
 31
0.0
  0
ARC
  8
0
  6
CONTINUOUS
 62
     1
 10
699.064725201
 20
769.133974596
 30
0.0
 40
3.0
 50
270.0
 51
0.0
  0
LINE
  8
0
  6
CONTINUOUS
 62
     2
 10
449.064725201
 20
895.470284044
 30
0.0
 11
479.064725201
 21
895.470284044
 31
0.0
  0
LINE
  8
0
  6
CONTINUOUS
 62
     1
 10
471.064725201
 20
885.470284044
 30
0.0
 11
471.064725201
 21
905.470284044
 31
0.0
  0
LINE
  8
0
  6
CONTINUOUS
 62
     1
 10
464.064725201
 20
905.470284044
 30
0.0
 11
471.064725201
 21
905.470284044
 31
0.0
  0
LINE
  8
0
  6
CONTINUOUS
 62
     1
 10
464.064725201
 20
885.470284044
 30
0.0
 11
471.064725201
 21
885.470284044
 31
0.0
  0
LINE
  8
0
  6
CONTINUOUS
 62
     1
 10
464.064725201
 20
900.470284044
 30
0.0
 11
471.064725201
 21
900.470284044
 31
0.0
  0
LINE
  8
0
  6
CONTINUOUS
 62
     1
 10
464.064725201
 20
890.470284044
 30
0.0
 11
471.064725201
 21
890.470284044
 31
0.0
  0
LINE
  8
0
  6
CONTINUOUS
 62
     2
 10
449.064725201
 20
778.797665148
 30
0.0
 11
479.064725201
 21
778.797665148
 31
0.0
  0
LINE
  8
0
  6
CONTINUOUS
 62
     1
 10
471.064725201
 20
788.797665148
 30
0.0
 11
471.064725201
 21
768.797665148
 31
0.0
  0
LINE
  8
0
  6
CONTINUOUS
 62
     1
 10
464.064725201
 20
768.797665148
 30
0.0
 11
471.064725201
 21
768.797665148
 31
0.0
  0
LINE
  8
0
  6
CONTINUOUS
 62
     1
 10
464.064725201
 20
788.797665148
 30
0.0
 11
471.064725201
 21
788.797665148
 31
0.0
  0
LINE
  8
0
  6
CONTINUOUS
 62
     1
 10
464.064725201
 20
773.797665148
 30
0.0
 11
471.064725201
 21
773.797665148
 31
0.0
  0
LINE
  8
0
  6
CONTINUOUS
 62
     1
 10
464.064725201
 20
783.797665148
 30
0.0
 11
471.064725201
 21
783.797665148
 31
0.0
  0
LINE
  8
0
  6
CONTINUOUS
 62
     2
 10
738.864725201
 20
854.633974596
 30
0.0
 11
747.158099616
 21
863.986511193
 31
0.0
  0
LINE
  8
0
  6
CONTINUOUS
 62
     2
 10
738.864725201
 20
854.633974596
 30
0.0
 11
741.370729829
 21
866.880196087
 31
0.0
  0
LINE
  8
0
  6
CONTINUOUS
 62
     2
 10
738.864725201
 20
854.633974596
 30
0.0
 11
811.864725201
 21
1000.633974596
 31
0.0
  0
LINE
  8
0
  6
CONTINUOUS
 62
     2
 10
602.614725201
 20
944.133974596
 30
0.0
 11
610.908099616
 21
953.486511193
 31
0.0
  0
LINE
  8
0
  6
CONTINUOUS
 62
     2
 10
602.614725201
 20
944.133974596
 30
0.0
 11
605.120729829
 21
956.380196087
 31
0.0
  0
LINE
  8
2
  6
CONTINUOUS
 62
     2
 10
700.064725201
 20
908.133974596
 30
0.0
 11
796.064725201
 21
908.133974596
 31
0.0
  0
LINE
  8
2
  6
CONTINUOUS
 62
     2
 10
790.064725201
 20
908.133974596
 30
0.0
 11
786.182439524
 21
893.645087202
 31
0.0
  0
LINE
  8
2
  6
CONTINUOUS
 62
     2
 10
790.064725201
 20
908.133974596
 30
0.0
 11
793.947010877
 21
893.645087202
 31
0.0
  0
LINE
  8
2
  6
CONTINUOUS
 62
     2
 10
790.064725201
 20
908.133974596
 30
0.0
 11
790.064725201
 21
766.133974596
 31
0.0
  0
LINE
  8
2
  6
CONTINUOUS
 62
     2
 10
790.064725201
 20
766.133974596
 30
0.0
 11
793.947010877
 21
780.622861991
 31
0.0
  0
LINE
  8
2
  6
CONTINUOUS
 62
     2
 10
790.064725201
 20
766.133974596
 30
0.0
 11
786.182439524
 21
780.622861991
 31
0.0
  0
LINE
  8
2
  6
CONTINUOUS
 62
     2
 10
700.064725201
 20
766.133974596
 30
0.0
 11
796.064725201
 21
766.133974596
 31
0.0
  0
TEXT
  8
0
  6
CONTINUOUS
 62
     2
 10
813.364725201
 20
1005.633974596
 30
0.0
 40
18.0
  1
手動開放装置
 50
0.0
 41
0.9
 51
0.0
  7
KANJI44
  0
LINE
  8
0
  6
CONTINUOUS
 62
     2
 10
811.864725201
 20
1000.633974596
 30
0.0
 11
912.464725201
 21
1000.633974596
 31
0.0
  0
LINE
  8
0
  6
CONTINUOUS
 62
     2
 10
602.614725201
 20
944.133974596
 30
0.0
 11
626.244725201
 21
991.393974596
 31
0.0
  0
LINE
  8
0
  6
CONTINUOUS
 62
     2
 10
626.244725201
 20
991.393974596
 30
0.0
 11
709.644725201
 21
991.393974596
 31
0.0
  0
TEXT
  8
0
  6
CONTINUOUS
 62
     2
 10
626.244725201
 20
996.393974596
 30
1.5
 40
15.0
  1
ＰＦ３／４
 50
0.0
 41
0.9
 51
0.0
  7
KANJI43
  0
TEXT
  8
2
  6
CONTINUOUS
 62
     2
 10
784.064725201
 20
798.433974596
 30
1.5
 40
15.0
  1
φ１４２
 50
90.0
 41
0.9
 51
0.0
  7
KANJI43
  0
LINE
  8
0
  6
CONTINUOUS
 62
     1
 10
972.389733105
 20
720.033974596
 30
0.0
 11
976.746270538
 21
736.292793641
 31
0.0
  0
ARC
  8
0
  6
CONTINUOUS
 62
     1
 10
977.712196364
 20
736.033974596
 30
0.0
 40
1.0
 50
90.0
 51
165.0
  0
ARC
  8
0
  6
CONTINUOUS
 62
     1
 10
977.712197038
 20
736.033974596
 30
0.0
 40
1.0
 50
15.0
 51
90.0
  0
LINE
  8
0
  6
CONTINUOUS
 62
     1
 10
982.300163074
 20
722.775155551
 30
0.0
 11
978.678122865
 21
736.292793641
 31
0.0
  0
ARC
  8
0
  6
CONTINUOUS
 62
     1
 10
983.266088901
 20
723.033974596
 30
0.0
 40
1.0
 50
195.0
 51
270.0
  0
ARC
  8
0
  6
CONTINUOUS
 62
     1
 10
983.266089575
 20
723.033974596
 30
0.0
 40
1.0
 50
270.0
 51
345.0
  0
LINE
  8
0
  6
CONTINUOUS
 62
     1
 10
984.232015401
 20
722.775155551
 30
0.0
 11
987.854055611
 21
736.292793641
 31
0.0
  0
ARC
  8
0
  6
CONTINUOUS
 62
     1
 10
988.819981437
 20
736.033974596
 30
0.0
 40
1.0
 50
90.0
 51
165.0
  0
ARC
  8
0
  6
CONTINUOUS
 62
     1
 10
988.819981437
 20
736.033974596
 30
0.0
 40
1.0
 50
15.0
 51
90.0
  0
LINE
  8
0
  6
CONTINUOUS
 62
     1
 10
993.407947474
 20
722.775155551
 30
0.0
 11
989.785907264
 21
736.292793641
 31
0.0
  0
ARC
  8
0
  6
CONTINUOUS
 62
     1
 10
994.3738733
 20
723.033974596
 30
0.0
 40
1.0
 50
195.0
 51
270.0
  0
LINE
  8
0
  6
CONTINUOUS
 62
     1
 10
957.389733105
 20
722.033974596
 30
0.0
 11
967.389733105
 21
722.033974596
 31
0.0
  0
LINE
  8
0
  6
CONTINUOUS
 62
     1
 10
967.334476868
 20
720.033974596
 30
0.0
 11
972.389733105
 21
720.033974596
 31
0.0
  0
LINE
  8
0
  6
CONTINUOUS
 62
     1
 10
952.389733105
 20
720.033974596
 30
0.0
 11
957.334476868
 21
720.033974596
 31
0.0
  0
LINE
  8
0
  6
LTYPE4
 62
     2
 10
994.3738733
 20
722.033974596
 30
0.0
 11
1027.180585006
 21
722.033974596
 31
0.0
  0
LINE
  8
0
  6
LTYPE4
 62
     2
 10
988.819981437
 20
737.033974596
 30
0.0
 11
1032.734476868
 21
737.033974596
 31
0.0
  0
LINE
  8
0
  6
CONTINUOUS
 62
     1
 10
972.389733105
 20
604.033974596
 30
0.0
 11
976.746270538
 21
587.775155551
 31
0.0
  0
ARC
  8
0
  6
CONTINUOUS
 62
     1
 10
977.712196364
 20
588.033974596
 30
0.0
 40
1.0
 50
195.0
 51
270.0
  0
ARC
  8
0
  6
CONTINUOUS
 62
     1
 10
977.712197038
 20
588.033974596
 30
0.0
 40
1.0
 50
270.0
 51
345.0
  0
LINE
  8
0
  6
CONTINUOUS
 62
     1
 10
982.300163074
 20
601.292793641
 30
0.0
 11
978.678122865
 21
587.775155551
 31
0.0
  0
ARC
  8
0
  6
CONTINUOUS
 62
     1
 10
983.266088901
 20
601.033974596
 30
0.0
 40
1.0
 50
90.0
 51
165.0
  0
ARC
  8
0
  6
CONTINUOUS
 62
     1
 10
983.266089575
 20
601.033974596
 30
0.0
 40
1.0
 50
15.0
 51
90.0
  0
LINE
  8
0
  6
CONTINUOUS
 62
     1
 10
984.232015401
 20
601.292793641
 30
0.0
 11
987.854055611
 21
587.775155551
 31
0.0
  0
ARC
  8
0
  6
CONTINUOUS
 62
     1
 10
988.819981437
 20
588.033974596
 30
0.0
 40
1.0
 50
195.0
 51
270.0
  0
ARC
  8
0
  6
CONTINUOUS
 62
     1
 10
988.819981437
 20
588.033974596
 30
0.0
 40
1.0
 50
270.0
 51
345.0
  0
LINE
  8
0
  6
CONTINUOUS
 62
     1
 10
993.407947474
 20
601.292793641
 30
0.0
 11
989.785907264
 21
587.775155551
 31
0.0
  0
ARC
  8
0
  6
CONTINUOUS
 62
     1
 10
994.3738733
 20
601.033974596
 30
0.0
 40
1.0
 50
90.0
 51
165.0
  0
LINE
  8
0
  6
CONTINUOUS
 62
     1
 10
957.389733105
 20
602.033974596
 30
0.0
 11
967.389733105
 21
602.033974596
 31
0.0
  0
LINE
  8
0
  6
CONTINUOUS
 62
     1
 10
967.334476868
 20
604.033974596
 30
0.0
 11
972.389733105
 21
604.033974596
 31
0.0
  0
LINE
  8
0
  6
CONTINUOUS
 62
     1
 10
952.389733105
 20
604.033974596
 30
0.0
 11
967.389733105
 21
604.033974596
 31
0.0
  0
LINE
  8
0
  6
LTYPE4
 62
     2
 10
994.3738733
 20
602.033974596
 30
0.0
 11
1027.180585006
 21
602.033974596
 31
0.0
  0
LINE
  8
0
  6
LTYPE4
 62
     2
 10
988.819981437
 20
587.033974596
 30
0.0
 11
1032.734476868
 21
587.033974596
 31
0.0
  0
LINE
  8
0
  6
CONTINUOUS
 62
     1
 10
952.389733105
 20
604.033974596
 30
0.0
 11
952.389733105
 21
606.433974596
 31
0.0
  0
LINE
  8
0
  6
CONTINUOUS
 62
     1
 10
957.389733105
 20
602.033974596
 30
0.0
 11
957.389733105
 21
603.333974596
 31
0.0
  0
LINE
  8
0
  6
CONTINUOUS
 62
     1
 10
967.389733105
 20
602.033974596
 30
0.0
 11
967.389733105
 21
604.333974596
 31
0.0
  0
LINE
  8
0
  6
CONTINUOUS
 62
     1
 10
994.3738733
 20
722.033974596
 30
0.0
 11
994.3738733
 21
662.033974596
 31
0.0
  0
LINE
  8
0
  6
CONTINUOUS
 62
     1
 10
988.819981437
 20
737.033974596
 30
0.0
 11
988.819981437
 21
662.033974596
 31
0.0
  0
LINE
  8
0
  6
CONTINUOUS
 62
     1
 10
983.266088901
 20
722.033974596
 30
0.0
 11
983.266088901
 21
662.033974596
 31
0.0
  0
LINE
  8
0
  6
CONTINUOUS
 62
     1
 10
977.712196364
 20
737.033974596
 30
0.0
 11
977.712196364
 21
662.033974596
 31
0.0
  0
LINE
  8
0
  6
CONTINUOUS
 62
     1
 10
972.389733105
 20
662.033974596
 30
0.0
 11
972.389733105
 21
720.033974596
 31
0.0
  0
LINE
  8
0
  6
CONTINUOUS
 62
     1
 10
967.389733105
 20
662.033974596
 30
0.0
 11
967.389733105
 21
722.033974596
 31
0.0
  0
LINE
  8
0
  6
CONTINUOUS
 62
     1
 10
957.389733105
 20
662.033974596
 30
0.0
 11
957.389733105
 21
722.033974596
 31
0.0
  0
LINE
  8
0
  6
CONTINUOUS
 62
     1
 10
952.389733105
 20
662.033974596
 30
0.0
 11
952.389733105
 21
720.033974596
 31
0.0
  0
LINE
  8
0
  6
CONTINUOUS
 62
     1
 10
973.964725201
 20
607.033974596
 30
0.0
 11
973.964725201
 21
662.033974596
 31
0.0
  0
LINE
  8
0
  6
CONTINUOUS
 62
     1
 10
1003.964725201
 20
607.033974596
 30
0.0
 11
1003.964725201
 21
662.033974596
 31
0.0
  0
LINE
  8
0
  6
LTYPE2
 62
     2
 10
1043.842260593
 20
941.783974596
 30
0.0
 11
1008.842260593
 21
941.783974596
 31
0.0
  0
LINE
  8
0
  6
LTYPE2
 62
     2
 10
1038.442260593
 20
926.733974596
 30
0.0
 11
1009.442260593
 21
926.733974596
 31
0.0
  0
LINE
  8
0
  6
LTYPE2
 62
     2
 10
1038.28836873
 20
806.783974596
 30
0.0
 11
1011.78836873
 21
806.783974596
 31
0.0
  0
LINE
  8
0
  6
LTYPE2
 62
     2
 10
1043.842260593
 20
791.783974596
 30
0.0
 11
1011.292260593
 21
791.783974596
 31
0.0
  0
LINE
  8
2
  6
CONTINUOUS
 62
     2
 10
972.712196701
 20
737.033974596
 30
0.0
 11
908.064725201
 21
737.033974596
 31
0.0
  0
LINE
  8
2
  6
CONTINUOUS
 62
     2
 10
918.064725201
 20
737.033974596
 30
0.0
 11
914.829487137
 21
724.959901768
 31
0.0
  0
LINE
  8
2
  6
CONTINUOUS
 62
     2
 10
918.064725201
 20
737.033974596
 30
0.0
 11
921.299963265
 21
724.959901768
 31
0.0
  0
LINE
  8
2
  6
CONTINUOUS
 62
     2
 10
918.064725201
 20
737.033974596
 30
0.0
 11
918.064725201
 21
587.033974596
 31
0.0
  0
LINE
  8
2
  6
CONTINUOUS
 62
     2
 10
918.064725201
 20
587.033974596
 30
0.0
 11
921.299963265
 21
599.108047425
 31
0.0
  0
LINE
  8
2
  6
CONTINUOUS
 62
     2
 10
918.064725201
 20
587.033974596
 30
0.0
 11
914.829487137
 21
599.108047425
 31
0.0
  0
LINE
  8
2
  6
CONTINUOUS
 62
     2
 10
972.712196701
 20
587.033974596
 30
0.0
 11
908.064725201
 21
587.033974596
 31
0.0
  0
TEXT
  8
2
  6
CONTINUOUS
 62
     2
 10
913.064725201
 20
627.783974596
 30
1.5
 40
17.5
  1
φ１５０
 50
90.0
 41
0.914285714
 51
0.0
  7
KANJI45
  0
LINE
  8
0
  6
CONTINUOUS
 62
     1
 10
1069.164725201
 20
632.033974596
 30
0.0
 11
1003.964725201
 21
632.033974596
 31
0.0
  0
LINE
  8
0
  6
CONTINUOUS
 62
     1
 10
947.348197475
 20
662.033974596
 30
0.0
 11
947.348197475
 21
709.033974596
 31
0.0
  0
LINE
  8
0
  6
CONTINUOUS
 62
     1
 10
947.347734656
 20
662.033974596
 30
0.0
 11
947.347734656
 21
695.033974596
 31
0.0
  0
LINE
  8
2
  6
CONTINUOUS
 62
     2
 10
536.564725201
 20
619.333974596
 30
0.0
 11
536.564725201
 21
421.933974596
 31
0.0
  0
LINE
  8
0
  6
CONTINUOUS
 62
     1
 10
952.389733105
 20
717.033974596
 30
0.0
 11
947.348197475
 21
717.033974596
 31
0.0
  0
LINE
  8
0
  6
CONTINUOUS
 62
     1
 10
871.34722658
 20
717.033974596
 30
0.0
 11
665.564725201
 21
717.033974596
 31
0.0
  0
LINE
  8
2
  6
CONTINUOUS
 62
     2
 10
1003.964725201
 20
602.033974596
 30
0.0
 11
1003.964725201
 21
421.933974596
 31
0.0
  0
LINE
  8
0
  6
LTYPE3
 62
     2
 10
1168.448197475
 20
662.033974596
 30
0.0
 11
920.364725201
 21
662.033974596
 31
0.0
  0
LINE
  8
2
  6
CONTINUOUS
 62
     2
 10
339.564725201
 20
563.033974596
 30
0.0
 11
339.564725201
 21
421.933974596
 31
0.0
  0
LINE
  8
2
  6
CONTINUOUS
 62
     2
 10
451.564725201
 20
563.033974596
 30
0.0
 11
451.564725201
 21
421.933974596
 31
0.0
  0
TEXT
  8
0
  6
CONTINUOUS
 62
     2
 10
526.604734656
 20
814.133974596
 30
0.0
 40
18.0
  1
日本電産
 50
0.0
 41
0.9
 51
0.0
  7
KANJI44
  0
TEXT
  8
0
  6
CONTINUOUS
 62
     2
 10
526.604734656
 20
791.133974596
 30
0.0
 40
18.0
  1
エコノストップモータ
 50
0.0
 41
0.9
 51
0.0
  7
KANJI44
  0
LINE
  8
0
  6
CONTINUOUS
 62
     1
 10
1003.964725201
 20
607.033974596
 30
0.0
 11
947.34722658
 21
607.033974596
 31
0.0
  0
LINE
  8
0
  6
CONTINUOUS
 62
     1
 10
871.34722658
 20
607.033974596
 30
0.0
 11
665.564725201
 21
607.033974596
 31
0.0
  0
LINE
  8
0
  6
CONTINUOUS
 62
     1
 10
931.34722658
 20
607.033974596
 30
0.0
 11
887.34722658
 21
607.033974596
 31
0.0
  0
LINE
  8
0
  6
LTYPE1
 62
     2
 10
534.239733105
 20
514.033974596
 30
0.0
 11
534.239733105
 21
522.033974596
 31
0.0
  0
LINE
  8
0
  6
CONTINUOUS
 62
     1
 10
604.239733105
 20
510.033974596
 30
0.0
 11
893.34722658
 21
510.033974596
 31
0.0
  0
LINE
  8
0
  6
LTYPE2
 62
     2
 10
479.739733105
 20
546.033974596
 30
0.0
 11
866.999733105
 21
546.033974596
 31
0.0
  0
LINE
  8
0
  6
LTYPE1
 62
     2
 10
562.239733105
 20
554.033974596
 30
0.0
 11
836.64722658
 21
554.033974596
 31
0.0
  0
LINE
  8
0
  6
LTYPE1
 62
     2
 10
562.239733105
 20
538.033974596
 30
0.0
 11
836.64722658
 21
538.033974596
 31
0.0
  0
LINE
  8
0
  6
CONTINUOUS
 62
     1
 10
604.239733105
 20
526.033974596
 30
0.0
 11
862.04722658
 21
526.033974596
 31
0.0
  0
LINE
  8
0
  6
LTYPE1
 62
     2
 10
734.239733105
 20
557.9
 30
0.0
 11
734.239733105
 21
732.033974596
 31
0.0
  0
LINE
  8
0
  6
LTYPE1
 62
     2
 10
718.239733105
 20
557.9
 30
0.0
 11
718.239733105
 21
732.033974596
 31
0.0
  0
LINE
  8
0
  6
LTYPE1
 62
     2
 10
734.239733105
 20
732.033974596
 30
0.0
 11
718.239733105
 21
732.033974596
 31
0.0
  0
LINE
  8
0
  6
LTYPE1
 62
     2
 10
734.239733105
 20
560.033974596
 30
0.0
 11
499.239733105
 21
560.033974596
 31
0.0
  0
LINE
  8
0
  6
LTYPE1
 62
     2
 10
734.239733105
 20
566.033974596
 30
0.0
 11
499.239733105
 21
566.033974596
 31
0.0
  0
LINE
  8
0
  6
LTYPE1
 62
     2
 10
711.564725201
 20
559.233974596
 30
0.0
 11
701.564725201
 21
559.233974596
 31
0.0
  0
LINE
  8
0
  6
LTYPE1
 62
     2
 10
711.564725201
 20
558.033974596
 30
0.0
 11
701.564725201
 21
558.033974596
 31
0.0
  0
LINE
  8
0
  6
LTYPE1
 62
     2
 10
733.739733105
 20
560.033974596
 30
0.0
 11
733.739733105
 21
555.433974596
 31
0.0
  0
LINE
  8
0
  6
LTYPE1
 62
     2
 10
718.739733105
 20
560.033974596
 30
0.0
 11
718.739733105
 21
555.433974596
 31
0.0
  0
LINE
  8
0
  6
LTYPE1
 62
     2
 10
722.439733105
 20
560.033974596
 30
0.0
 11
722.439733105
 21
555.433974596
 31
0.0
  0
LINE
  8
0
  6
LTYPE1
 62
     2
 10
730.039733105
 20
560.033974596
 30
0.0
 11
730.039733105
 21
555.433974596
 31
0.0
  0
ARC
  8
0
  6
LTYPE1
 62
     2
 10
720.539733105
 20
557.533974596
 30
0.0
 40
2.8
 50
228.5
 51
311.5
  0
ARC
  8
0
  6
LTYPE1
 62
     2
 10
726.239733105
 20
565.433974596
 30
0.0
 40
10.7
 50
249.1
 51
290.9
  0
ARC
  8
0
  6
LTYPE1
 62
     2
 10
731.939733105
 20
557.533974596
 30
0.0
 40
2.8
 50
228.5
 51
311.5
  0
LINE
  8
0
  6
LTYPE1
 62
     2
 10
726.239733105
 20
551.233974596
 30
0.0
 11
726.239733105
 21
563.033974596
 31
0.0
  0
LINE
  8
0
  6
LTYPE2
 62
     2
 10
726.239733105
 20
547.383974596
 30
0.0
 11
726.239733105
 21
571.683974596
 31
0.0
  0
LINE
  8
0
  6
LTYPE1
 62
     2
 10
731.939733105
 20
554.733974596
 30
0.0
 11
720.539733105
 21
554.733974596
 31
0.0
  0
LINE
  8
0
  6
LTYPE1
 62
     2
 10
726.239733105
 20
557.9
 30
0.0
 11
726.239733105
 21
690.9
 31
0.0
  0
LINE
  8
0
  6
LTYPE1
 62
     2
 10
530.239733105
 20
540.033974596
 30
0.0
 11
562.239733105
 21
540.033974596
 31
0.0
  0
LINE
  8
0
  6
LTYPE1
 62
     2
 10
562.239733105
 20
558.033974596
 30
0.0
 11
530.239733105
 21
558.033974596
 31
0.0
  0
LINE
  8
0
  6
LTYPE1
 62
     2
 10
562.239733105
 20
552.033974596
 30
0.0
 11
530.239733105
 21
552.033974596
 31
0.0
  0
LINE
  8
0
  6
LTYPE1
 62
     2
 10
562.239733105
 20
505.033974596
 30
0.0
 11
562.239733105
 21
558.033974596
 31
0.0
  0
LINE
  8
0
  6
CONTINUOUS
 62
     1
 10
570.889733105
 20
534.033974596
 30
0.0
 11
595.589733105
 21
534.033974596
 31
0.0
  0
LINE
  8
0
  6
CONTINUOUS
 62
     1
 10
570.889733105
 20
502.033974596
 30
0.0
 11
570.889733105
 21
534.033974596
 31
0.0
  0
LINE
  8
0
  6
CONTINUOUS
 62
     1
 10
562.239733105
 20
529.033974596
 30
0.0
 11
570.899987142
 21
534.033974596
 31
0.0
  0
LINE
  8
0
  6
CONTINUOUS
 62
     1
 10
595.589733105
 20
502.033974596
 30
0.0
 11
595.589733105
 21
534.033974596
 31
0.0
  0
LINE
  8
0
  6
CONTINUOUS
 62
     1
 10
604.239733105
 20
529.033974596
 30
0.0
 11
595.579479067
 21
534.033974596
 31
0.0
  0
LINE
  8
0
  6
CONTINUOUS
 62
     1
 10
592.2
 20
538.9
 30
0.0
 11
591.0
 21
538.9
 31
0.0
  0
ARC
  8
0
  6
LTYPE1
 62
     2
 10
530.096415905
 20
518.033974596
 30
0.0
 40
9.3566828
 50
148.419912243
 51
211.580087757
  0
LINE
  8
0
  6
LTYPE1
 62
     2
 10
527.739733105
 20
527.833974596
 30
0.0
 11
522.125373751
 21
527.833974596
 31
0.0
  0
LINE
  8
0
  6
LTYPE1
 62
     2
 10
520.739733105
 20
525.433974596
 30
0.0
 11
522.125373751
 21
527.833974596
 31
0.0
  0
LINE
  8
0
  6
LTYPE1
 62
     2
 10
520.739733105
 20
525.433974596
 30
0.0
 11
522.125373751
 21
527.833974596
 31
0.0
  0
LINE
  8
0
  6
LTYPE1
 62
     2
 10
520.739733105
 20
518.033974596
 30
0.0
 11
520.739733105
 21
525.433974596
 31
0.0
  0
LINE
  8
0
  6
LTYPE1
 62
     2
 10
527.739733105
 20
522.933974596
 30
0.0
 11
522.125373751
 21
522.933974596
 31
0.0
  0
ARC
  8
0
  6
LTYPE1
 62
     2
 10
523.597616937
 20
525.383974596
 30
0.0
 40
2.858321186
 50
177.010501597
 51
238.997686085
  0
LINE
  8
0
  6
LTYPE1
 62
     2
 10
512.239733105
 20
522.033974596
 30
0.0
 11
520.739733105
 21
522.033974596
 31
0.0
  0
LINE
  8
0
  6
LTYPE3
 62
     2
 10
518.239733105
 20
546.033974596
 30
0.0
 11
529.739733105
 21
546.033974596
 31
0.0
  0
LINE
  8
0
  6
LTYPE1
 62
     2
 10
522.739733105
 20
550.033974596
 30
0.0
 11
530.239733105
 21
550.033974596
 31
0.0
  0
LINE
  8
0
  6
LTYPE1
 62
     2
 10
522.739733105
 20
549.033974596
 30
0.0
 11
530.239733105
 21
549.033974596
 31
0.0
  0
LINE
  8
0
  6
LTYPE1
 62
     2
 10
515.239733105
 20
535.633974596
 30
0.0
 11
521.739733105
 21
535.633974596
 31
0.0
  0
ARC
  8
0
  6
LTYPE1
 62
     2
 10
518.839733105
 20
538.233974596
 30
0.0
 40
3.9
 50
317.9
 51
42.1
  0
LINE
  8
0
  6
LTYPE1
 62
     2
 10
515.239733105
 20
540.833974596
 30
0.0
 11
521.739733105
 21
540.833974596
 31
0.0
  0
LINE
  8
0
  6
LTYPE1
 62
     2
 10
522.739733105
 20
543.033974596
 30
0.0
 11
530.239733105
 21
543.033974596
 31
0.0
  0
LINE
  8
0
  6
LTYPE1
 62
     2
 10
522.739733105
 20
542.033974596
 30
0.0
 11
530.239733105
 21
542.033974596
 31
0.0
  0
ARC
  8
0
  6
LTYPE1
 62
     2
 10
508.739733105
 20
546.033974596
 30
0.0
 40
14.0
 50
338.2
 51
21.8
  0
LINE
  8
0
  6
LTYPE1
 62
     2
 10
522.739733105
 20
538.233974596
 30
0.0
 11
522.739733105
 21
553.833974596
 31
0.0
  0
LINE
  8
0
  6
LTYPE1
 62
     2
 10
515.239733105
 20
556.433974596
 30
0.0
 11
521.739733105
 21
556.433974596
 31
0.0
  0
ARC
  8
0
  6
LTYPE1
 62
     2
 10
518.839733105
 20
553.833974596
 30
0.0
 40
3.9
 50
317.9
 51
42.1
  0
LINE
  8
0
  6
LTYPE1
 62
     2
 10
521.739733105
 20
551.233974596
 30
0.0
 11
515.239733105
 21
551.233974596
 31
0.0
  0
LINE
  8
0
  6
LTYPE1
 62
     2
 10
527.739733105
 20
508.233974596
 30
0.0
 11
522.125373751
 21
508.233974596
 31
0.0
  0
LINE
  8
0
  6
LTYPE1
 62
     2
 10
520.739733105
 20
510.633974596
 30
0.0
 11
522.125373751
 21
508.233974596
 31
0.0
  0
LINE
  8
0
  6
LTYPE1
 62
     2
 10
527.739733105
 20
513.133974596
 30
0.0
 11
522.125373751
 21
513.133974596
 31
0.0
  0
ARC
  8
0
  6
LTYPE1
 62
     2
 10
523.597616937
 20
510.683974596
 30
0.0
 40
2.858321186
 50
121.002313915
 51
182.989498403
  0
LINE
  8
0
  6
LTYPE1
 62
     2
 10
527.739733105
 20
518.033974596
 30
0.0
 11
527.739733105
 21
508.233974596
 31
0.0
  0
LINE
  8
0
  6
LTYPE1
 62
     2
 10
530.239733105
 20
508.833974596
 30
0.0
 11
527.739733105
 21
508.833974596
 31
0.0
  0
LINE
  8
0
  6
LTYPE1
 62
     2
 10
520.739733105
 20
518.033974596
 30
0.0
 11
520.739733105
 21
510.633974596
 31
0.0
  0
LINE
  8
0
  6
LTYPE1
 62
     2
 10
512.239733105
 20
514.033974596
 30
0.0
 11
520.739733105
 21
514.033974596
 31
0.0
  0
LINE
  8
0
  6
LTYPE1
 62
     2
 10
512.239733105
 20
515.033974596
 30
0.0
 11
520.739733105
 21
515.033974596
 31
0.0
  0
LINE
  8
0
  6
LTYPE1
 62
     2
 10
530.239733105
 20
518.033974596
 30
0.0
 11
527.739733109
 21
515.5339746
 31
0.0
  0
LINE
  8
0
  6
LTYPE1
 62
     2
 10
512.239733105
 20
521.033974596
 30
0.0
 11
520.739733105
 21
521.033974596
 31
0.0
  0
LINE
  8
0
  6
LTYPE1
 62
     2
 10
530.239733105
 20
527.233974596
 30
0.0
 11
527.739733105
 21
527.233974596
 31
0.0
  0
LINE
  8
0
  6
LTYPE1
 62
     2
 10
527.739733105
 20
518.033974596
 30
0.0
 11
527.739733105
 21
527.833974596
 31
0.0
  0
LINE
  8
0
  6
LTYPE1
 62
     2
 10
527.739733109
 20
518.033974596
 30
0.0
 11
530.239733105
 21
520.533974592
 31
0.0
  0
LINE
  8
0
  6
LTYPE1
 62
     2
 10
530.239733105
 20
505.033974596
 30
0.0
 11
562.239733105
 21
505.033974596
 31
0.0
  0
LINE
  8
0
  6
LTYPE1
 62
     2
 10
530.239733105
 20
505.033974596
 30
0.0
 11
530.239733105
 21
558.033974596
 31
0.0
  0
LINE
  8
0
  6
LTYPE1
 62
     2
 10
530.239733105
 20
550.033974596
 30
0.0
 11
535.239733105
 21
550.033974596
 31
0.0
  0
LINE
  8
0
  6
LTYPE1
 62
     2
 10
530.239733105
 20
549.033974596
 30
0.0
 11
535.239733105
 21
549.033974596
 31
0.0
  0
LINE
  8
0
  6
LTYPE1
 62
     2
 10
530.239733105
 20
542.033974596
 30
0.0
 11
535.239733105
 21
542.033974596
 31
0.0
  0
LINE
  8
0
  6
LTYPE1
 62
     2
 10
530.239733105
 20
543.033974596
 30
0.0
 11
535.239733105
 21
543.033974596
 31
0.0
  0
LINE
  8
0
  6
LTYPE1
 62
     2
 10
535.239733105
 20
540.033974596
 30
0.0
 11
535.239733105
 21
552.033974596
 31
0.0
  0
LINE
  8
0
  6
LTYPE1
 62
     2
 10
499.239733105
 20
533.033974596
 30
0.0
 11
515.239733105
 21
533.033974596
 31
0.0
  0
LINE
  8
0
  6
LTYPE1
 62
     2
 10
510.986763105
 20
566.033974596
 30
0.0
 11
510.986763105
 21
570.474275194
 31
0.0
  0
ARC
  8
0
  6
LTYPE1
 62
     2
 10
507.239733105
 20
564.378819259
 30
0.0
 40
7.155055337
 50
58.419912243
 51
121.580087757
  0
LINE
  8
0
  6
LTYPE1
 62
     2
 10
507.239733105
 20
571.533874596
 30
0.0
 11
512.898513105
 21
571.533874596
 31
0.0
  0
ARC
  8
0
  6
LTYPE1
 62
     2
 10
512.860278105
 20
569.34845083
 30
0.0
 40
2.185758211
 50
87.010501597
 51
148.997686085
  0
LINE
  8
0
  6
LTYPE1
 62
     2
 10
507.239733105
 20
556.033974596
 30
0.0
 11
507.239733105
 21
572.033974596
 31
0.0
  0
LINE
  8
0
  6
LTYPE1
 62
     2
 10
507.239733105
 20
571.533874596
 30
0.0
 11
501.580953105
 21
571.533874596
 31
0.0
  0
ARC
  8
0
  6
LTYPE1
 62
     2
 10
501.619188105
 20
569.34845083
 30
0.0
 40
2.185758211
 50
31.002313915
 51
92.989498403
  0
LINE
  8
0
  6
LTYPE1
 62
     2
 10
503.492703105
 20
566.033974596
 30
0.0
 11
503.492703105
 21
570.474275194
 31
0.0
  0
LINE
  8
0
  6
LTYPE1
 62
     2
 10
496.739733105
 20
555.833974596
 30
0.0
 11
491.125373751
 21
555.833974596
 31
0.0
  0
LINE
  8
0
  6
LTYPE1
 62
     2
 10
496.739733105
 20
550.933974596
 30
0.0
 11
491.125373751
 21
550.933974596
 31
0.0
  0
LINE
  8
0
  6
LTYPE1
 62
     2
 10
496.739733105
 20
546.033974596
 30
0.0
 11
496.739733105
 21
555.833974596
 31
0.0
  0
LINE
  8
0
  6
LTYPE1
 62
     2
 10
499.239733105
 20
555.233974596
 30
0.0
 11
496.739733105
 21
555.233974596
 31
0.0
  0
LINE
  8
0
  6
LTYPE1
 62
     2
 10
496.739733109
 20
546.033974596
 30
0.0
 11
499.239733105
 21
548.533974592
 31
0.0
  0
LINE
  8
0
  6
LTYPE1
 62
     2
 10
496.739733105
 20
536.233974596
 30
0.0
 11
491.125373751
 21
536.233974596
 31
0.0
  0
LINE
  8
0
  6
LTYPE1
 62
     2
 10
496.739733105
 20
541.133974596
 30
0.0
 11
491.125373751
 21
541.133974596
 31
0.0
  0
LINE
  8
0
  6
LTYPE1
 62
     2
 10
496.739733105
 20
546.033974596
 30
0.0
 11
496.739733105
 21
536.233974596
 31
0.0
  0
LINE
  8
0
  6
LTYPE1
 62
     2
 10
499.239733105
 20
546.033974596
 30
0.0
 11
496.739733109
 21
543.5339746
 31
0.0
  0
LINE
  8
0
  6
LTYPE1
 62
     2
 10
499.239733105
 20
536.833974596
 30
0.0
 11
496.739733105
 21
536.833974596
 31
0.0
  0
LINE
  8
0
  6
LTYPE1
 62
     2
 10
489.739733105
 20
546.033974596
 30
0.0
 11
489.739733105
 21
553.433974596
 31
0.0
  0
LINE
  8
0
  6
LTYPE1
 62
     2
 10
489.739733105
 20
553.433974596
 30
0.0
 11
491.125373751
 21
555.833974596
 31
0.0
  0
LINE
  8
0
  6
LTYPE1
 62
     2
 10
489.739733105
 20
553.433974596
 30
0.0
 11
491.125373751
 21
555.833974596
 31
0.0
  0
ARC
  8
0
  6
LTYPE1
 62
     2
 10
492.597616937
 20
553.383974596
 30
0.0
 40
2.858321186
 50
177.010501597
 51
238.997686085
  0
LINE
  8
0
  6
LTYPE1
 62
     2
 10
485.239733105
 20
550.033974596
 30
0.0
 11
489.739733105
 21
550.033974596
 31
0.0
  0
LINE
  8
0
  6
LTYPE1
 62
     2
 10
485.239733105
 20
549.033974596
 30
0.0
 11
489.739733105
 21
549.033974596
 31
0.0
  0
LINE
  8
0
  6
LTYPE1
 62
     2
 10
489.739733105
 20
538.633974596
 30
0.0
 11
491.125373751
 21
536.233974596
 31
0.0
  0
LINE
  8
0
  6
LTYPE1
 62
     2
 10
489.739733105
 20
546.033974596
 30
0.0
 11
489.739733105
 21
538.633974596
 31
0.0
  0
ARC
  8
0
  6
LTYPE1
 62
     2
 10
492.597616937
 20
538.683974596
 30
0.0
 40
2.858321186
 50
121.002313915
 51
182.989498403
  0
LINE
  8
0
  6
LTYPE1
 62
     2
 10
485.239733105
 20
542.033974596
 30
0.0
 11
489.739733105
 21
542.033974596
 31
0.0
  0
LINE
  8
0
  6
LTYPE1
 62
     2
 10
485.239733105
 20
543.033974596
 30
0.0
 11
489.739733105
 21
543.033974596
 31
0.0
  0
ARC
  8
0
  6
LTYPE1
 62
     2
 10
499.096415905
 20
546.033974596
 30
0.0
 40
9.3566828
 50
148.419912243
 51
211.580087757
  0
LINE
  8
0
  6
LTYPE1
 62
     2
 10
485.239733105
 20
542.033974596
 30
0.0
 11
485.239733105
 21
550.033974596
 31
0.0
  0
LINE
  8
0
  6
LTYPE1
 62
     2
 10
499.239733105
 20
533.033974596
 30
0.0
 11
499.239733105
 21
566.033974596
 31
0.0
  0
LINE
  8
0
  6
LTYPE1
 62
     2
 10
501.580953105
 20
571.533874596
 30
0.0
 11
499.745673105
 21
570.474275194
 31
0.0
  0
LINE
  8
0
  6
LTYPE1
 62
     2
 10
499.745673105
 20
566.033974596
 30
0.0
 11
499.745673105
 21
570.474275194
 31
0.0
  0
LINE
  8
0
  6
CONTINUOUS
 62
     1
 10
548.739733105
 20
526.583974596
 30
0.0
 11
562.239733105
 21
526.583974596
 31
0.0
  0
LINE
  8
0
  6
CONTINUOUS
 62
     1
 10
562.239733105
 20
507.033974596
 30
0.0
 11
562.239733105
 21
529.033974596
 31
0.0
  0
LINE
  8
0
  6
CONTINUOUS
 62
     1
 10
548.739733105
 20
526.583974596
 30
0.0
 11
548.739733105
 21
510.583974596
 31
0.0
  0
LINE
  8
0
  6
CONTINUOUS
 62
     1
 10
548.739733105
 20
510.583974596
 30
0.0
 11
562.239733105
 21
510.583974596
 31
0.0
  0
LINE
  8
0
  6
CONTINUOUS
 62
     1
 10
562.239733105
 20
507.033974596
 30
0.0
 11
570.899987142
 21
502.033974596
 31
0.0
  0
LINE
  8
0
  6
CONTINUOUS
 62
     1
 10
570.889733105
 20
502.033974596
 30
0.0
 11
595.589733105
 21
502.033974596
 31
0.0
  0
LINE
  8
0
  6
LTYPE2
 62
     2
 10
583.239733105
 20
508.033974596
 30
0.0
 11
583.239733105
 21
528.033974596
 31
0.0
  0
LINE
  8
0
  6
CONTINUOUS
 62
     1
 10
604.239733105
 20
507.033974596
 30
0.0
 11
604.239733105
 21
529.033974596
 31
0.0
  0
LINE
  8
0
  6
CONTINUOUS
 62
     1
 10
604.239733105
 20
507.033974596
 30
0.0
 11
595.579479067
 21
502.033974596
 31
0.0
  0
CIRCLE
  8
0
  6
CONTINUOUS
 62
     2
 10
583.239733105
 20
518.033974596
 30
0.0
 40
5.0
  0
CIRCLE
  8
0
  6
CONTINUOUS
 62
     2
 10
583.239733105
 20
518.033974596
 30
0.0
 40
4.0
  0
LINE
  8
0
  6
LTYPE1
 62
     2
 10
515.239733105
 20
533.033974596
 30
0.0
 11
515.239733105
 21
560.033974596
 31
0.0
  0
LINE
  8
0
  6
LTYPE1
 62
     2
 10
515.239733105
 20
556.433974596
 30
0.0
 11
515.239733105
 21
535.633974596
 31
0.0
  0
LINE
  8
0
  6
LTYPE1
 62
     2
 10
512.898513105
 20
571.533874596
 30
0.0
 11
514.733793105
 21
570.474275194
 31
0.0
  0
LINE
  8
0
  6
LTYPE1
 62
     2
 10
512.898513105
 20
571.533874596
 30
0.0
 11
514.733793105
 21
570.474275194
 31
0.0
  0
LINE
  8
0
  6
LTYPE1
 62
     2
 10
514.733793105
 20
566.033974596
 30
0.0
 11
514.733793105
 21
570.474275194
 31
0.0
  0
LINE
  8
0
  6
CONTINUOUS
 62
     1
 10
1069.164725201
 20
662.033974596
 30
0.0
 11
1069.164725201
 21
637.033974596
 31
0.0
  0
ARC
  8
0
  6
CONTINUOUS
 62
     1
 10
1032.734476868
 20
736.033974596
 30
0.0
 40
1.0
 50
90.0
 51
165.0
  0
LINE
  8
0
  6
CONTINUOUS
 62
     1
 10
1028.146510832
 20
722.775155551
 30
0.0
 11
1031.768551042
 21
736.292793641
 31
0.0
  0
ARC
  8
0
  6
CONTINUOUS
 62
     1
 10
1027.180585006
 20
723.033974596
 30
0.0
 40
1.0
 50
270.0
 51
345.0
  0
ARC
  8
0
  6
CONTINUOUS
 62
     1
 10
1043.842260593
 20
736.033974596
 30
0.0
 40
1.0
 50
15.0
 51
90.0
  0
ARC
  8
0
  6
CONTINUOUS
 62
     1
 10
1043.842260593
 20
736.033974596
 30
0.0
 40
1.0
 50
90.0
 51
165.0
  0
LINE
  8
0
  6
CONTINUOUS
 62
     1
 10
1039.254294557
 20
722.775155551
 30
0.0
 11
1042.876334767
 21
736.292793641
 31
0.0
  0
ARC
  8
0
  6
CONTINUOUS
 62
     1
 10
1038.28836873
 20
723.033974596
 30
0.0
 40
1.0
 50
270.0
 51
345.0
  0
ARC
  8
0
  6
CONTINUOUS
 62
     1
 10
1038.28836873
 20
723.033974596
 30
0.0
 40
1.0
 50
195.0
 51
270.0
  0
LINE
  8
0
  6
CONTINUOUS
 62
     1
 10
1037.322442904
 20
722.775155551
 30
0.0
 11
1033.700402694
 21
736.292793641
 31
0.0
  0
ARC
  8
0
  6
CONTINUOUS
 62
     1
 10
1032.734476868
 20
736.033974596
 30
0.0
 40
1.0
 50
15.0
 51
90.0
  0
LINE
  8
0
  6
CONTINUOUS
 62
     1
 10
1049.164723852
 20
720.033974596
 30
0.0
 11
1044.808186419
 21
736.292793641
 31
0.0
  0
ARC
  8
0
  6
CONTINUOUS
 62
     1
 10
1038.28836873
 20
601.033974596
 30
0.0
 40
1.0
 50
15.0
 51
90.0
  0
ARC
  8
0
  6
CONTINUOUS
 62
     1
 10
1038.28836873
 20
601.033974596
 30
0.0
 40
1.0
 50
90.0
 51
165.0
  0
LINE
  8
0
  6
CONTINUOUS
 62
     1
 10
1037.322442904
 20
601.292793641
 30
0.0
 11
1033.700402694
 21
587.775155551
 31
0.0
  0
ARC
  8
0
  6
CONTINUOUS
 62
     1
 10
1032.734476868
 20
588.033974596
 30
0.0
 40
1.0
 50
270.0
 51
345.0
  0
ARC
  8
0
  6
CONTINUOUS
 62
     1
 10
1032.734476868
 20
588.033974596
 30
0.0
 40
1.0
 50
195.0
 51
270.0
  0
LINE
  8
0
  6
CONTINUOUS
 62
     1
 10
1028.146510832
 20
601.292793641
 30
0.0
 11
1031.768551042
 21
587.775155551
 31
0.0
  0
ARC
  8
0
  6
CONTINUOUS
 62
     1
 10
1027.180585006
 20
601.033974596
 30
0.0
 40
1.0
 50
15.0
 51
90.0
  0
ARC
  8
0
  6
CONTINUOUS
 62
     1
 10
1043.842260593
 20
588.033974596
 30
0.0
 40
1.0
 50
270.0
 51
345.0
  0
ARC
  8
0
  6
CONTINUOUS
 62
     1
 10
1043.842260593
 20
588.033974596
 30
0.0
 40
1.0
 50
195.0
 51
270.0
  0
LINE
  8
0
  6
CONTINUOUS
 62
     1
 10
1039.254294557
 20
601.292793641
 30
0.0
 11
1042.876334767
 21
587.775155551
 31
0.0
  0
LINE
  8
0
  6
CONTINUOUS
 62
     1
 10
1049.164723852
 20
604.033974596
 30
0.0
 11
1044.808186419
 21
587.775155551
 31
0.0
  0
LINE
  8
0
  6
CONTINUOUS
 62
     1
 10
1064.164725201
 20
709.533974596
 30
0.0
 11
1054.164725201
 21
709.533974596
 31
0.0
  0
LINE
  8
0
  6
CONTINUOUS
 62
     1
 10
1069.164725201
 20
707.533974596
 30
0.0
 11
1064.219981437
 21
707.533974596
 31
0.0
  0
LINE
  8
0
  6
CONTINUOUS
 62
     1
 10
1069.164725201
 20
662.033974596
 30
0.0
 11
1069.164725201
 21
707.533974596
 31
0.0
  0
LINE
  8
0
  6
CONTINUOUS
 62
     1
 10
1054.219981437
 20
707.533974596
 30
0.0
 11
1049.164723852
 21
707.533974596
 31
0.0
  0
LINE
  8
0
  6
CONTINUOUS
 62
     1
 10
1064.164725201
 20
614.533974596
 30
0.0
 11
1054.164725201
 21
614.533974596
 31
0.0
  0
LINE
  8
0
  6
CONTINUOUS
 62
     1
 10
1069.164725201
 20
616.533974596
 30
0.0
 11
1049.164723852
 21
616.533974596
 31
0.0
  0
LINE
  8
0
  6
CONTINUOUS
 62
     1
 10
1069.164725201
 20
616.533974596
 30
0.0
 11
1069.164725201
 21
687.033974596
 31
0.0
  0
LINE
  8
0
  6
CONTINUOUS
 62
     1
 10
1054.164725201
 20
662.033974596
 30
0.0
 11
1054.164725201
 21
709.533974596
 31
0.0
  0
LINE
  8
0
  6
CONTINUOUS
 62
     1
 10
1064.164725201
 20
662.033974596
 30
0.0
 11
1064.164725201
 21
709.533974596
 31
0.0
  0
LINE
  8
0
  6
CONTINUOUS
 62
     1
 10
1049.164725201
 20
662.033974596
 30
0.0
 11
1049.164725201
 21
720.033974596
 31
0.0
  0
LINE
  8
0
  6
CONTINUOUS
 62
     1
 10
1043.842260593
 20
737.033974596
 30
0.0
 11
1043.842260593
 21
662.033974596
 31
0.0
  0
LINE
  8
0
  6
CONTINUOUS
 62
     1
 10
1038.28836873
 20
722.033974596
 30
0.0
 11
1038.28836873
 21
662.033974596
 31
0.0
  0
LINE
  8
0
  6
CONTINUOUS
 62
     1
 10
1032.734476868
 20
737.033974596
 30
0.0
 11
1032.734476868
 21
662.033974596
 31
0.0
  0
LINE
  8
0
  6
CONTINUOUS
 62
     1
 10
1027.180585006
 20
722.033974596
 30
0.0
 11
1027.180585006
 21
662.033974596
 31
0.0
  0
LINE
  8
0
  6
CONTINUOUS
 62
     1
 10
1069.164725201
 20
866.783974596
 30
0.0
 11
1069.164725201
 21
841.783974596
 31
0.0
  0
ARC
  8
0
  6
CONTINUOUS
 62
     1
 10
1032.734476868
 20
940.783974596
 30
0.0
 40
1.0
 50
90.0
 51
165.0
  0
LINE
  8
0
  6
CONTINUOUS
 62
     1
 10
1028.146510832
 20
927.525155551
 30
0.0
 11
1031.768551042
 21
941.042793641
 31
0.0
  0
ARC
  8
0
  6
CONTINUOUS
 62
     1
 10
1027.180585006
 20
927.783974596
 30
0.0
 40
1.0
 50
270.0
 51
345.0
  0
ARC
  8
0
  6
CONTINUOUS
 62
     1
 10
1043.842260593
 20
940.783974596
 30
0.0
 40
1.0
 50
15.0
 51
90.0
  0
ARC
  8
0
  6
CONTINUOUS
 62
     1
 10
1043.842260593
 20
940.783974596
 30
0.0
 40
1.0
 50
90.0
 51
165.0
  0
LINE
  8
0
  6
CONTINUOUS
 62
     1
 10
1039.254294557
 20
927.525155551
 30
0.0
 11
1042.876334767
 21
941.042793641
 31
0.0
  0
ARC
  8
0
  6
CONTINUOUS
 62
     1
 10
1038.28836873
 20
927.783974596
 30
0.0
 40
1.0
 50
270.0
 51
345.0
  0
ARC
  8
0
  6
CONTINUOUS
 62
     1
 10
1038.28836873
 20
927.783974596
 30
0.0
 40
1.0
 50
195.0
 51
270.0
  0
LINE
  8
0
  6
CONTINUOUS
 62
     1
 10
1037.322442904
 20
927.525155551
 30
0.0
 11
1033.700402694
 21
941.042793641
 31
0.0
  0
ARC
  8
0
  6
CONTINUOUS
 62
     1
 10
1032.734476868
 20
940.783974596
 30
0.0
 40
1.0
 50
15.0
 51
90.0
  0
LINE
  8
0
  6
CONTINUOUS
 62
     1
 10
1049.164723852
 20
924.783974596
 30
0.0
 11
1044.808186419
 21
941.042793641
 31
0.0
  0
LINE
  8
0
  6
CONTINUOUS
 62
     1
 10
1064.164725201
 20
914.283974596
 30
0.0
 11
1054.164725201
 21
914.283974596
 31
0.0
  0
LINE
  8
0
  6
CONTINUOUS
 62
     1
 10
1069.164725201
 20
912.283974596
 30
0.0
 11
1064.219981437
 21
912.283974596
 31
0.0
  0
LINE
  8
0
  6
CONTINUOUS
 62
     1
 10
1069.164725201
 20
866.783974596
 30
0.0
 11
1069.164725201
 21
912.283974596
 31
0.0
  0
LINE
  8
0
  6
CONTINUOUS
 62
     1
 10
1054.219981437
 20
912.283974596
 30
0.0
 11
1049.164723852
 21
912.283974596
 31
0.0
  0
LINE
  8
0
  6
CONTINUOUS
 62
     1
 10
1054.164725201
 20
866.783974596
 30
0.0
 11
1054.164725201
 21
914.283974596
 31
0.0
  0
LINE
  8
0
  6
CONTINUOUS
 62
     1
 10
1064.164725201
 20
866.783974596
 30
0.0
 11
1064.164725201
 21
914.283974596
 31
0.0
  0
LINE
  8
0
  6
CONTINUOUS
 62
     1
 10
1049.164725201
 20
866.783974596
 30
0.0
 11
1049.164725201
 21
924.783974596
 31
0.0
  0
LINE
  8
0
  6
CONTINUOUS
 62
     1
 10
1043.842260593
 20
941.783974596
 30
0.0
 11
1043.842260593
 21
866.783974596
 31
0.0
  0
LINE
  8
0
  6
CONTINUOUS
 62
     1
 10
1038.28836873
 20
926.783974596
 30
0.0
 11
1038.28836873
 21
866.783974596
 31
0.0
  0
LINE
  8
0
  6
CONTINUOUS
 62
     1
 10
1032.734476868
 20
941.783974596
 30
0.0
 11
1032.734476868
 21
866.783974596
 31
0.0
  0
LINE
  8
0
  6
CONTINUOUS
 62
     1
 10
1027.180585006
 20
926.783974596
 30
0.0
 11
1027.180585006
 21
866.783974596
 31
0.0
  0
ARC
  8
0
  6
CONTINUOUS
 62
     1
 10
1032.734476868
 20
792.783974596
 30
0.0
 40
1.0
 50
195.0
 51
270.0
  0
LINE
  8
0
  6
CONTINUOUS
 62
     1
 10
1028.146510832
 20
806.042793641
 30
0.0
 11
1031.768551042
 21
792.525155551
 31
0.0
  0
ARC
  8
0
  6
CONTINUOUS
 62
     1
 10
1027.180585006
 20
805.783974596
 30
0.0
 40
1.0
 50
15.0
 51
90.0
  0
ARC
  8
0
  6
CONTINUOUS
 62
     1
 10
1043.842260593
 20
792.783974596
 30
0.0
 40
1.0
 50
270.0
 51
345.0
  0
ARC
  8
0
  6
CONTINUOUS
 62
     1
 10
1043.842260593
 20
792.783974596
 30
0.0
 40
1.0
 50
195.0
 51
270.0
  0
LINE
  8
0
  6
CONTINUOUS
 62
     1
 10
1039.254294557
 20
806.042793641
 30
0.0
 11
1042.876334767
 21
792.525155551
 31
0.0
  0
ARC
  8
0
  6
CONTINUOUS
 62
     1
 10
1038.28836873
 20
805.783974596
 30
0.0
 40
1.0
 50
15.0
 51
90.0
  0
ARC
  8
0
  6
CONTINUOUS
 62
     1
 10
1038.28836873
 20
805.783974596
 30
0.0
 40
1.0
 50
90.0
 51
165.0
  0
LINE
  8
0
  6
CONTINUOUS
 62
     1
 10
1037.322442904
 20
806.042793641
 30
0.0
 11
1033.700402694
 21
792.525155551
 31
0.0
  0
ARC
  8
0
  6
CONTINUOUS
 62
     1
 10
1032.734476868
 20
792.783974596
 30
0.0
 40
1.0
 50
270.0
 51
345.0
  0
LINE
  8
0
  6
CONTINUOUS
 62
     1
 10
1049.164723852
 20
808.783974596
 30
0.0
 11
1044.808186419
 21
792.525155551
 31
0.0
  0
LINE
  8
0
  6
CONTINUOUS
 62
     1
 10
1064.164725201
 20
819.283974596
 30
0.0
 11
1054.164725201
 21
819.283974596
 31
0.0
  0
LINE
  8
0
  6
CONTINUOUS
 62
     1
 10
1069.164725201
 20
821.283974596
 30
0.0
 11
1064.219981437
 21
821.283974596
 31
0.0
  0
LINE
  8
0
  6
CONTINUOUS
 62
     1
 10
1069.164725201
 20
866.783974596
 30
0.0
 11
1069.164725201
 21
821.283974596
 31
0.0
  0
LINE
  8
0
  6
CONTINUOUS
 62
     1
 10
1054.219981437
 20
821.283974596
 30
0.0
 11
1049.164723852
 21
821.283974596
 31
0.0
  0
LINE
  8
0
  6
CONTINUOUS
 62
     1
 10
1054.164725201
 20
866.783974596
 30
0.0
 11
1054.164725201
 21
819.283974596
 31
0.0
  0
LINE
  8
0
  6
CONTINUOUS
 62
     1
 10
1064.164725201
 20
866.783974596
 30
0.0
 11
1064.164725201
 21
819.283974596
 31
0.0
  0
LINE
  8
0
  6
CONTINUOUS
 62
     1
 10
1049.164725201
 20
866.783974596
 30
0.0
 11
1049.164725201
 21
808.783974596
 31
0.0
  0
LINE
  8
0
  6
CONTINUOUS
 62
     1
 10
1043.842260593
 20
791.783974596
 30
0.0
 11
1043.842260593
 21
866.783974596
 31
0.0
  0
LINE
  8
0
  6
CONTINUOUS
 62
     1
 10
1038.28836873
 20
806.783974596
 30
0.0
 11
1038.28836873
 21
866.783974596
 31
0.0
  0
LINE
  8
0
  6
CONTINUOUS
 62
     1
 10
1032.734476868
 20
791.783974596
 30
0.0
 11
1032.734476868
 21
866.783974596
 31
0.0
  0
LINE
  8
0
  6
CONTINUOUS
 62
     1
 10
1027.180585006
 20
806.783974596
 30
0.0
 11
1027.180585006
 21
866.783974596
 31
0.0
  0
LINE
  8
0
  6
CONTINUOUS
 62
     1
 10
1049.164723852
 20
604.033974596
 30
0.0
 11
1049.164723852
 21
632.033974596
 31
0.0
  0
LINE
  8
0
  6
CONTINUOUS
 62
     1
 10
1085.164725201
 20
661.533974596
 30
0.0
 11
1085.164725201
 21
636.533974596
 31
0.0
  0
LINE
  8
0
  6
CONTINUOUS
 62
     1
 10
1085.164725201
 20
649.033974596
 30
0.0
 11
1085.164725201
 21
679.033974596
 31
0.0
  0
LINE
  8
0
  6
CONTINUOUS
 62
     1
 10
1069.164725201
 20
629.033974596
 30
0.0
 11
1069.164725201
 21
700.033974596
 31
0.0
  0
LINE
  8
0
  6
CONTINUOUS
 62
     1
 10
1069.164725201
 20
662.033974596
 30
0.0
 11
1069.164725201
 21
695.033974596
 31
0.0
  0
CIRCLE
  8
0
  6
CONTINUOUS
 62
     1
 10
1144.164725201
 20
662.033974596
 30
0.0
 40
12.5
  0
CIRCLE
  8
0
  6
CONTINUOUS
 62
     1
 10
1144.164725201
 20
662.033974596
 30
0.0
 40
22.0
  0
LINE
  8
0
  6
LTYPE1
 62
     2
 10
1099.164725201
 20
632.033974596
 30
0.0
 11
1099.164725201
 21
692.033974596
 31
0.0
  0
LINE
  8
0
  6
CONTINUOUS
 62
     1
 10
1085.164725201
 20
692.033974596
 30
0.0
 11
1166.164725201
 21
692.033974596
 31
0.0
  0
LINE
  8
0
  6
CONTINUOUS
 62
     1
 10
1085.164725201
 20
632.033974596
 30
0.0
 11
1166.164725201
 21
632.033974596
 31
0.0
  0
LINE
  8
2
  6
CONTINUOUS
 62
     2
 10
1085.164725201
 20
494.033974596
 30
0.0
 11
1085.164725201
 21
421.933974596
 31
0.0
  0
LINE
  8
0
  6
CONTINUOUS
 62
     2
 10
1051.004371163
 20
502.033974596
 30
0.0
 11
1254.664725201
 21
502.033974596
 31
0.0
  0
LINE
  8
0
  6
CONTINUOUS
 62
     1
 10
1100.164725201
 20
866.783974596
 30
0.0
 11
1100.164725201
 21
881.783974596
 31
0.0
  0
LINE
  8
0
  6
CONTINUOUS
 62
     1
 10
1100.164725201
 20
866.783974596
 30
0.0
 11
1100.164725201
 21
851.783974596
 31
0.0
  0
LINE
  8
2
  6
CONTINUOUS
 62
     2
 10
1100.164725201
 20
846.783974596
 30
0.0
 11
1100.164725201
 21
744.983974596
 31
0.0
  0
LINE
  8
0
  6
CONTINUOUS
 62
     1
 10
1132.664725201
 20
866.783974596
 30
0.0
 11
1132.664725201
 21
881.783974596
 31
0.0
  0
LINE
  8
0
  6
CONTINUOUS
 62
     1
 10
1123.164725201
 20
901.283974596
 30
0.0
 11
1167.164725201
 21
901.283974596
 31
0.0
  0
LINE
  8
0
  6
CONTINUOUS
 62
     1
 10
1132.664725201
 20
907.283974596
 30
0.0
 11
1157.664725201
 21
907.283974596
 31
0.0
  0
LINE
  8
0
  6
CONTINUOUS
 62
     1
 10
1132.664725201
 20
907.283974596
 30
0.0
 11
1132.664725201
 21
901.283974596
 31
0.0
  0
LINE
  8
0
  6
CONTINUOUS
 62
     1
 10
1123.164725201
 20
901.283974596
 30
0.0
 11
1123.164725201
 21
896.783974596
 31
0.0
  0
LINE
  8
0
  6
LTYPE1
 62
     2
 10
1132.664725201
 20
896.783974596
 30
0.0
 11
1132.664725201
 21
881.783974596
 31
0.0
  0
LINE
  8
0
  6
CONTINUOUS
 62
     1
 10
1132.664725201
 20
866.783974596
 30
0.0
 11
1132.664725201
 21
851.783974596
 31
0.0
  0
LINE
  8
0
  6
CONTINUOUS
 62
     1
 10
1123.164725201
 20
832.283974596
 30
0.0
 11
1167.164725201
 21
832.283974596
 31
0.0
  0
LINE
  8
0
  6
CONTINUOUS
 62
     1
 10
1132.664725201
 20
826.283974596
 30
0.0
 11
1157.664725201
 21
826.283974596
 31
0.0
  0
LINE
  8
0
  6
CONTINUOUS
 62
     1
 10
1132.664725201
 20
826.283974596
 30
0.0
 11
1132.664725201
 21
832.283974596
 31
0.0
  0
LINE
  8
0
  6
CONTINUOUS
 62
     1
 10
1123.164725201
 20
832.283974596
 30
0.0
 11
1123.164725201
 21
836.783974596
 31
0.0
  0
LINE
  8
0
  6
LTYPE1
 62
     2
 10
1132.664725201
 20
836.783974596
 30
0.0
 11
1132.664725201
 21
851.783974596
 31
0.0
  0
LINE
  8
0
  6
LTYPE3
 62
     2
 10
1176.214725201
 20
866.783974596
 30
0.0
 11
1031.564725201
 21
866.783974596
 31
0.0
  0
LINE
  8
0
  6
CONTINUOUS
 62
     1
 10
1085.164725201
 20
896.783974596
 30
0.0
 11
1175.164725201
 21
896.783974596
 31
0.0
  0
LINE
  8
0
  6
CONTINUOUS
 62
     1
 10
1100.164725201
 20
881.783974596
 30
0.0
 11
1175.164725201
 21
881.783974596
 31
0.0
  0
LINE
  8
0
  6
CONTINUOUS
 62
     1
 10
1100.164725201
 20
851.783974596
 30
0.0
 11
1175.164725201
 21
851.783974596
 31
0.0
  0
LINE
  8
0
  6
CONTINUOUS
 62
     1
 10
1085.164725201
 20
836.783974596
 30
0.0
 11
1175.164725201
 21
836.783974596
 31
0.0
  0
LINE
  8
2
  6
CONTINUOUS
 62
     2
 10
1100.164725201
 20
754.983974596
 30
0.0
 11
1112.238798029
 21
751.748736532
 31
0.0
  0
LINE
  8
2
  6
CONTINUOUS
 62
     2
 10
1100.164725201
 20
754.983974596
 30
0.0
 11
1112.238798029
 21
758.21921266
 31
0.0
  0
LINE
  8
2
  6
CONTINUOUS
 62
     2
 10
1100.164725201
 20
754.983974596
 30
0.0
 11
1145.164725201
 21
754.983974596
 31
0.0
  0
LINE
  8
2
  6
CONTINUOUS
 62
     2
 10
1145.164725201
 20
754.983974596
 30
0.0
 11
1133.090652372
 21
758.21921266
 31
0.0
  0
LINE
  8
2
  6
CONTINUOUS
 62
     2
 10
1145.164725201
 20
754.983974596
 30
0.0
 11
1133.090652372
 21
751.748736532
 31
0.0
  0
TEXT
  8
2
  6
CONTINUOUS
 62
     2
 10
1105.914725201
 20
759.983974596
 30
1.5
 40
17.5
  1
４５
 50
0.0
 41
0.914285714
 51
0.0
  7
KANJI45
  0
LINE
  8
2
  6
CONTINUOUS
 62
     2
 10
1085.164725201
 20
816.283974596
 30
0.0
 11
1085.164725201
 21
744.983974596
 31
0.0
  0
LINE
  8
2
  6
CONTINUOUS
 62
     2
 10
1085.164725201
 20
754.983974596
 30
0.0
 11
1073.090652372
 21
758.21921266
 31
0.0
  0
LINE
  8
2
  6
CONTINUOUS
 62
     2
 10
1085.164725201
 20
754.983974596
 30
0.0
 11
1073.090652372
 21
751.748736532
 31
0.0
  0
LINE
  8
2
  6
CONTINUOUS
 62
     2
 10
1032.914725201
 20
754.983974596
 30
0.0
 11
1085.164725201
 21
754.983974596
 31
0.0
  0
LINE
  8
2
  6
CONTINUOUS
 62
     2
 10
1085.164725201
 20
754.983974596
 30
0.0
 11
1100.164725201
 21
754.983974596
 31
0.0
  0
TEXT
  8
2
  6
CONTINUOUS
 62
     2
 10
1032.914725201
 20
759.983974596
 30
1.5
 40
17.5
  1
１５
 50
0.0
 41
0.914285714
 51
0.0
  7
KANJI45
  0
LINE
  8
0
  6
CONTINUOUS
 62
     1
 10
1085.164725201
 20
816.783974596
 30
0.0
 11
1085.164725201
 21
916.783974596
 31
0.0
  0
LINE
  8
0
  6
CONTINUOUS
 62
     1
 10
1085.164725201
 20
816.783974596
 30
0.0
 11
1069.164725201
 21
816.783974596
 31
0.0
  0
LINE
  8
0
  6
CONTINUOUS
 62
     1
 10
1069.164725201
 20
866.783974596
 30
0.0
 11
1069.164725201
 21
816.783974596
 31
0.0
  0
LINE
  8
0
  6
CONTINUOUS
 62
     1
 10
1085.164725201
 20
916.783974596
 30
0.0
 11
1069.164725201
 21
916.783974596
 31
0.0
  0
LINE
  8
0
  6
CONTINUOUS
 62
     1
 10
1069.164725201
 20
866.783974596
 30
0.0
 11
1069.164725201
 21
916.783974596
 31
0.0
  0
LINE
  8
2
  6
CONTINUOUS
 62
     2
 10
339.564725201
 20
412.233974596
 30
0.0
 11
339.564725201
 21
326.533974596
 31
0.0
  0
LINE
  8
2
  6
CONTINUOUS
 62
     2
 10
339.564725201
 20
336.533974596
 30
0.0
 11
351.638798029
 21
333.298736532
 31
0.0
  0
LINE
  8
2
  6
CONTINUOUS
 62
     2
 10
339.564725201
 20
336.533974596
 30
0.0
 11
351.638798029
 21
339.76921266
 31
0.0
  0
LINE
  8
2
  6
CONTINUOUS
 62
     2
 10
339.564725201
 20
336.533974596
 30
0.0
 11
1144.164725201
 21
336.533974596
 31
0.0
  0
LINE
  8
2
  6
CONTINUOUS
 62
     2
 10
536.564725201
 20
384.333974596
 30
0.0
 11
339.564725201
 21
384.333974596
 31
0.0
  0
LINE
  8
2
  6
CONTINUOUS
 62
     2
 10
339.564725201
 20
384.333974596
 30
0.0
 11
351.638798029
 21
381.098736532
 31
0.0
  0
LINE
  8
2
  6
CONTINUOUS
 62
     2
 10
339.564725201
 20
448.333974596
 30
0.0
 11
339.564725201
 21
374.333974596
 31
0.0
  0
LINE
  8
2
  6
CONTINUOUS
 62
     2
 10
451.564725201
 20
431.933974596
 30
0.0
 11
339.564725201
 21
431.933974596
 31
0.0
  0
LINE
  8
2
  6
CONTINUOUS
 62
     2
 10
339.564725201
 20
431.933974596
 30
0.0
 11
351.638798029
 21
428.698736532
 31
0.0
  0
LINE
  8
2
  6
CONTINUOUS
 62
     2
 10
339.564725201
 20
431.933974596
 30
0.0
 11
351.638798029
 21
435.16921266
 31
0.0
  0
LINE
  8
2
  6
CONTINUOUS
 62
     2
 10
339.564725201
 20
384.333974596
 30
0.0
 11
351.638798029
 21
387.56921266
 31
0.0
  0
TEXT
  8
2
  6
CONTINUOUS
 62
     2
 10
370.064725201
 20
436.933974596
 30
1.5
 40
15.0
  1
１１２
 50
0.0
 41
0.9
 51
0.0
  7
KANJI43
  0
LINE
  8
2
  6
CONTINUOUS
 62
     2
 10
536.564725201
 20
431.933974596
 30
0.0
 11
548.638798029
 21
428.698736532
 31
0.0
  0
LINE
  8
2
  6
CONTINUOUS
 62
     2
 10
536.564725201
 20
431.933974596
 30
0.0
 11
548.638798029
 21
435.16921266
 31
0.0
  0
LINE
  8
2
  6
CONTINUOUS
 62
     2
 10
536.564725201
 20
469.633974596
 30
0.0
 11
536.564725201
 21
421.933974596
 31
0.0
  0
LINE
  8
2
  6
CONTINUOUS
 62
     2
 10
1144.164725201
 20
384.333974596
 30
0.0
 11
1132.090652372
 21
387.56921266
 31
0.0
  0
LINE
  8
2
  6
CONTINUOUS
 62
     2
 10
1144.164725201
 20
384.333974596
 30
0.0
 11
1132.090652372
 21
381.098736532
 31
0.0
  0
LINE
  8
2
  6
CONTINUOUS
 62
     2
 10
536.564725201
 20
441.933974596
 30
0.0
 11
536.564725201
 21
374.333974596
 31
0.0
  0
LINE
  8
2
  6
CONTINUOUS
 62
     2
 10
536.564725201
 20
384.333974596
 30
0.0
 11
548.638798029
 21
381.098736532
 31
0.0
  0
LINE
  8
2
  6
CONTINUOUS
 62
     2
 10
536.564725201
 20
384.333974596
 30
0.0
 11
548.638798029
 21
387.56921266
 31
0.0
  0
LINE
  8
2
  6
CONTINUOUS
 62
     2
 10
536.564725201
 20
384.333974596
 30
0.0
 11
1144.164725201
 21
384.333974596
 31
0.0
  0
LINE
  8
2
  6
CONTINUOUS
 62
     2
 10
536.564725201
 20
406.933974596
 30
0.0
 11
536.564725201
 21
374.333974596
 31
0.0
  0
TEXT
  8
2
  6
CONTINUOUS
 62
     2
 10
797.364725201
 20
389.333974596
 30
1.5
 40
15.0
  1
ｍｉｎ．Ｌ
 50
0.0
 41
0.9
 51
0.0
  7
KANJI43
  0
LINE
  8
2
  6
CONTINUOUS
 62
     2
 10
1085.164725201
 20
431.933974596
 30
0.0
 11
1097.238798029
 21
428.698736532
 31
0.0
  0
LINE
  8
2
  6
CONTINUOUS
 62
     2
 10
1085.164725201
 20
431.933974596
 30
0.0
 11
1097.238798029
 21
435.16921266
 31
0.0
  0
LINE
  8
2
  6
CONTINUOUS
 62
     2
 10
1085.164725201
 20
431.933974596
 30
0.0
 11
1144.164725201
 21
431.933974596
 31
0.0
  0
LINE
  8
2
  6
CONTINUOUS
 62
     2
 10
1144.164725201
 20
431.933974596
 30
0.0
 11
1132.090652372
 21
435.16921266
 31
0.0
  0
LINE
  8
2
  6
CONTINUOUS
 62
     2
 10
1144.164725201
 20
431.933974596
 30
0.0
 11
1132.090652372
 21
428.698736532
 31
0.0
  0
LINE
  8
2
  6
CONTINUOUS
 62
     2
 10
1003.964725201
 20
431.933974596
 30
0.0
 11
1016.038798029
 21
428.698736532
 31
0.0
  0
LINE
  8
2
  6
CONTINUOUS
 62
     2
 10
1003.964725201
 20
431.933974596
 30
0.0
 11
1016.038798029
 21
435.16921266
 31
0.0
  0
LINE
  8
2
  6
CONTINUOUS
 62
     2
 10
1003.964725201
 20
431.933974596
 30
0.0
 11
1085.164725201
 21
431.933974596
 31
0.0
  0
LINE
  8
2
  6
CONTINUOUS
 62
     2
 10
1085.164725201
 20
431.933974596
 30
0.0
 11
1073.090652372
 21
435.16921266
 31
0.0
  0
LINE
  8
2
  6
CONTINUOUS
 62
     2
 10
1085.164725201
 20
431.933974596
 30
0.0
 11
1073.090652372
 21
428.698736532
 31
0.0
  0
LINE
  8
2
  6
CONTINUOUS
 62
     2
 10
1085.164725201
 20
447.233974596
 30
0.0
 11
1085.164725201
 21
421.933974596
 31
0.0
  0
LINE
  8
2
  6
CONTINUOUS
 62
     2
 10
1003.964725201
 20
470.633974596
 30
0.0
 11
1003.964725201
 21
421.933974596
 31
0.0
  0
LINE
  8
2
  6
CONTINUOUS
 62
     2
 10
1003.964725201
 20
431.933974596
 30
0.0
 11
991.890652372
 21
435.16921266
 31
0.0
  0
LINE
  8
2
  6
CONTINUOUS
 62
     2
 10
1003.964725201
 20
431.933974596
 30
0.0
 11
991.890652372
 21
428.698736532
 31
0.0
  0
LINE
  8
2
  6
CONTINUOUS
 62
     2
 10
1003.964725201
 20
431.933974596
 30
0.0
 11
536.564725201
 21
431.933974596
 31
0.0
  0
TEXT
  8
2
  6
CONTINUOUS
 62
     2
 10
727.264725201
 20
436.933974596
 30
1.5
 40
15.0
  1
Ｃ
 50
0.0
 41
0.9
 51
0.0
  7
KANJI43
  0
TEXT
  8
2
  6
CONTINUOUS
 62
     2
 10
1097.914725201
 20
436.933974596
 30
1.5
 40
15.0
  1
６０
 50
0.0
 41
0.9
 51
0.0
  7
KANJI43
  0
LINE
  8
2
  6
CONTINUOUS
 62
     2
 10
536.564725201
 20
450.933974596
 30
0.0
 11
536.564725201
 21
421.933974596
 31
0.0
  0
LINE
  8
2
  6
CONTINUOUS
 62
     2
 10
536.564725201
 20
431.933974596
 30
0.0
 11
524.490652372
 21
435.16921266
 31
0.0
  0
LINE
  8
2
  6
CONTINUOUS
 62
     2
 10
536.564725201
 20
431.933974596
 30
0.0
 11
524.490652372
 21
428.698736532
 31
0.0
  0
LINE
  8
2
  6
CONTINUOUS
 62
     2
 10
536.564725201
 20
397.333974596
 30
0.0
 11
536.564725201
 21
374.333974596
 31
0.0
  0
LINE
  8
2
  6
CONTINUOUS
 62
     2
 10
536.564725201
 20
384.333974596
 30
0.0
 11
524.490652372
 21
387.56921266
 31
0.0
  0
LINE
  8
2
  6
CONTINUOUS
 62
     2
 10
536.564725201
 20
384.333974596
 30
0.0
 11
524.490652372
 21
381.098736532
 31
0.0
  0
LINE
  8
2
  6
CONTINUOUS
 62
     2
 10
536.564725201
 20
431.933974596
 30
0.0
 11
451.564725201
 21
431.933974596
 31
0.0
  0
LINE
  8
2
  6
CONTINUOUS
 62
     2
 10
451.564725201
 20
431.933974596
 30
0.0
 11
463.638798029
 21
428.698736532
 31
0.0
  0
LINE
  8
2
  6
CONTINUOUS
 62
     2
 10
451.564725201
 20
431.933974596
 30
0.0
 11
463.638798029
 21
435.16921266
 31
0.0
  0
LINE
  8
2
  6
CONTINUOUS
 62
     2
 10
451.564725201
 20
440.933974596
 30
0.0
 11
451.564725201
 21
421.933974596
 31
0.0
  0
LINE
  8
2
  6
CONTINUOUS
 62
     2
 10
451.564725201
 20
431.933974596
 30
0.0
 11
439.490652372
 21
435.16921266
 31
0.0
  0
LINE
  8
2
  6
CONTINUOUS
 62
     2
 10
451.564725201
 20
431.933974596
 30
0.0
 11
439.490652372
 21
428.698736532
 31
0.0
  0
TEXT
  8
2
  6
CONTINUOUS
 62
     2
 10
477.314725201
 20
436.933974596
 30
1.5
 40
15.0
  1
８５
 50
0.0
 41
0.9
 51
0.0
  7
KANJI43
  0
TEXT
  8
2
  6
CONTINUOUS
 62
     2
 10
412.564725201
 20
389.333974596
 30
1.5
 40
15.0
  1
１９７
 50
0.0
 41
0.9
 51
0.0
  7
KANJI43
  0
TEXT
  8
2
  6
CONTINUOUS
 62
     2
 10
1010.064725201
 20
439.133974596
 30
1.5
 40
15.0
  1
ｍｉｎ．Ｐ
 50
0.0
 41
0.9
 51
0.0
  7
KANJI43
  0
TEXT
  8
2
  6
CONTINUOUS
 62
     2
 10
698.864725201
 20
341.533974596
 30
1.5
 40
15.0
  1
ｍｉｎ．ＡＬ
 50
0.0
 41
0.9
 51
0.0
  7
KANJI43
  0
LINE
  8
0
  6
CONTINUOUS
 62
     2
 10
1089.02222658
 20
312.883974596
 30
0.0
 11
1089.02222658
 21
143.133974596
 31
0.0
  0
LINE
  8
0
  6
CONTINUOUS
 62
     2
 10
1089.02222658
 20
143.133974596
 30
0.0
 11
1128.02222658
 21
143.133974596
 31
0.0
  0
TEXT
  8
0
  6
CONTINUOUS
 62
     2
 10
1116.64722658
 20
242.133974596
 30
0.0
 40
10.0
  1
（ＮＯ）
 50
0.0
 41
0.75
 51
0.0
  7
KANJI46
  0
TEXT
  8
0
  6
CONTINUOUS
 62
     2
 10
1116.64722658
 20
184.633974596
 30
0.0
 40
10.0
  1
（ＮＣ）
 50
0.0
 41
0.75
 51
0.0
  7
KANJI46
  0
TEXT
  8
0
  6
CONTINUOUS
 62
     2
 10
1100.52222658
 20
155.633974596
 30
0.0
 40
15.0
  1
外部ＬＳリミットＳＷ
 50
0.0
 41
0.9
 51
0.0
  7
KANJI36
  0
LINE
  8
0
  6
CONTINUOUS
 62
     2
 10
1242.27222658
 20
312.883974596
 30
0.0
 11
1089.02222658
 21
312.883974596
 31
0.0
  0
LINE
  8
2
  6
CONTINUOUS
 62
     2
 10
1144.164725201
 20
336.533974596
 30
0.0
 11
1132.090652372
 21
339.76921266
 31
0.0
  0
LINE
  8
2
  6
CONTINUOUS
 62
     2
 10
1144.164725201
 20
336.533974596
 30
0.0
 11
1132.090652372
 21
333.298736532
 31
0.0
  0
LINE
  8
0
  6
CONTINUOUS
 62
     2
 10
329.432591263
 20
295.271507451
 30
0.0
 11
768.72
 21
295.271507451
 31
0.0
  0
TEXT
  8
0
  6
CONTINUOUS
 62
     2
 10
331.432591263
 20
303.271507451
 30
0.0
 40
20.0
  1
推力リミッタの作動値は、約２３００ｋｇ（設計値）
 50
0.0
 41
0.925
 51
0.0
  7
KANJI47
  0
LINE
  8
2
  6
CONTINUOUS
 62
     2
 10
766.564725201
 20
717.033974596
 30
0.0
 11
763.329487137
 21
704.959901768
 31
0.0
  0
LINE
  8
2
  6
CONTINUOUS
 62
     2
 10
766.564725201
 20
717.033974596
 30
0.0
 11
769.799963265
 21
704.959901768
 31
0.0
  0
LINE
  8
2
  6
CONTINUOUS
 62
     2
 10
766.564725201
 20
717.033974596
 30
0.0
 11
766.564725201
 21
607.033974596
 31
0.0
  0
TEXT
  8
2
  6
CONTINUOUS
 62
     2
 10
761.564725201
 20
625.633974596
 30
1.5
 40
17.5
  1
φ１１０
 50
90.0
 41
0.914285714
 51
0.0
  7
KANJI45
  0
LINE
  8
2
  6
CONTINUOUS
 62
     2
 10
766.564725201
 20
607.033974596
 30
0.0
 11
769.799963265
 21
619.108047425
 31
0.0
  0
LINE
  8
2
  6
CONTINUOUS
 62
     2
 10
766.564725201
 20
607.033974596
 30
0.0
 11
763.329487137
 21
619.108047425
 31
0.0
  0
LINE
  8
0
  6
LTYPE3
 62
     2
 10
894.364725201
 20
662.033974596
 30
0.0
 11
765.164725201
 21
662.033974596
 31
0.0
  0
LINE
  8
0
  6
LTYPE3
 62
     2
 10
741.764725201
 20
662.033974596
 30
0.0
 11
333.064725201
 21
662.033974596
 31
0.0
  0
LINE
  8
0
  6
CONTINUOUS
 62
     1
 10
444.064725201
 20
737.033974596
 30
0.0
 11
401.064725201
 21
737.033974596
 31
0.0
  0
TEXT
  8
0
  6
CONTINUOUS
 62
     2
 10
406.064725201
 20
726.033974596
 30
5.0
 40
20.0
  1
銘板
 50
270.0
 41
0.925
 51
0.0
  7
KANJI48
  0
LINE
  8
0
  6
CONTINUOUS
 62
     1
 10
401.064725201
 20
737.033974596
 30
0.0
 11
401.064725201
 21
667.033974596
 31
0.0
  0
LINE
  8
0
  6
CONTINUOUS
 62
     1
 10
444.064725201
 20
667.033974596
 30
0.0
 11
401.064725201
 21
667.033974596
 31
0.0
  0
LINE
  8
0
  6
CONTINUOUS
 62
     1
 10
444.064725201
 20
737.033974596
 30
0.0
 11
444.064725201
 21
667.033974596
 31
0.0
  0
ARC
  8
0
  6
CONTINUOUS
 62
     2
 10
262.484725201
 20
839.333974596
 30
0.0
 40
20.0
 50
231.952957468
 51
156.801409486
  0
LINE
  8
0
  6
CONTINUOUS
 62
     2
 10
244.1018246
 20
847.212360568
 30
0.0
 11
246.396517311
 21
857.049799345
 31
0.0
  0
TEXT
  8
0
  6
CONTINUOUS
 62
     2
 10
182.1018246
 20
830.212360568
 30
0.0
 40
15.0
  1
前進方向
 50
0.0
 41
0.9
 51
0.0
  7
KANJI36
  0
LINE
  8
0
  6
CONTINUOUS
 62
     2
 10
244.1018246
 20
847.212360568
 30
0.0
 11
252.369985978
 21
852.119697103
 31
0.0
  0
TEXT
  8
0
  6
CONTINUOUS
 62
     3
 10
195.951392201
 20
958.100657596
 30
1.5
 40
15.0
  1
手動軸□１０
 50
0.0
 41
0.9
 51
0.0
  7
KANJI49
  0
LINE
  8
0
  6
CONTINUOUS
 62
     1
 10
314.564725201
 20
824.033974596
 30
0.0
 11
314.564725201
 21
852.033974596
 31
0.0
  0
LINE
  8
0
  6
CONTINUOUS
 62
     1
 10
352.564725201
 20
824.033974596
 30
0.0
 11
352.564725201
 21
852.033974596
 31
0.0
  0
LINE
  8
0
  6
CONTINUOUS
 62
     1
 10
314.564725201
 20
852.033974596
 30
0.0
 11
356.564725201
 21
852.033974596
 31
0.0
  0
LINE
  8
0
  6
CONTINUOUS
 62
     1
 10
314.564725201
 20
824.033974596
 30
0.0
 11
356.564725201
 21
824.033974596
 31
0.0
  0
LINE
  8
0
  6
CONTINUOUS
 62
     2
 10
314.564725201
 20
858.033974596
 30
0.0
 11
314.564725201
 21
1064.033974596
 31
0.0
  0
LINE
  8
0
  6
CONTINUOUS
 62
     2
 10
314.564725201
 20
1058.033974596
 30
0.0
 11
326.155835116
 21
1054.928146055
 31
0.0
  0
LINE
  8
0
  6
CONTINUOUS
 62
     2
 10
314.564725201
 20
1058.033974596
 30
0.0
 11
326.155835116
 21
1061.139803137
 31
0.0
  0
LINE
  8
0
  6
CONTINUOUS
 62
     2
 10
314.564725201
 20
1058.033974596
 30
0.0
 11
451.564725201
 21
1058.033974596
 31
0.0
  0
LINE
  8
0
  6
CONTINUOUS
 62
     2
 10
451.564725201
 20
1058.033974596
 30
0.0
 11
439.973615285
 21
1061.139803137
 31
0.0
  0
LINE
  8
0
  6
CONTINUOUS
 62
     2
 10
451.564725201
 20
1058.033974596
 30
0.0
 11
439.973615285
 21
1054.928146055
 31
0.0
  0
LINE
  8
0
  6
CONTINUOUS
 62
     2
 10
451.564725201
 20
949.033974596
 30
0.0
 11
451.564725201
 21
1064.033974596
 31
0.0
  0
TEXT
  8
0
  6
CONTINUOUS
 62
     3
 10
358.764725201
 20
1067.033974596
 30
0.0
 40
18.0
  1
１３７
 50
0.0
 41
0.9
 51
0.0
  7
KANJI44
  0
LINE
  8
0
  6
CONTINUOUS
 62
     2
 10
451.564725201
 20
1047.033974596
 30
0.0
 11
451.564725201
 21
1064.033974596
 31
0.0
  0
LINE
  8
0
  6
CONTINUOUS
 62
     2
 10
451.564725201
 20
1058.033974596
 30
0.0
 11
463.155835116
 21
1054.928146055
 31
0.0
  0
LINE
  8
0
  6
CONTINUOUS
 62
     2
 10
451.564725201
 20
1058.033974596
 30
0.0
 11
463.155835116
 21
1061.139803137
 31
0.0
  0
LINE
  8
0
  6
CONTINUOUS
 62
     2
 10
451.564725201
 20
1058.033974596
 30
0.0
 11
743.564725201
 21
1058.033974596
 31
0.0
  0
LINE
  8
0
  6
CONTINUOUS
 62
     2
 10
743.564725201
 20
1058.033974596
 30
0.0
 11
731.973615285
 21
1061.139803137
 31
0.0
  0
LINE
  8
0
  6
CONTINUOUS
 62
     2
 10
743.564725201
 20
1058.033974596
 30
0.0
 11
731.973615285
 21
1054.928146055
 31
0.0
  0
TEXT
  8
0
  6
CONTINUOUS
 62
     3
 10
573.264725201
 20
1067.033974596
 30
0.0
 40
18.0
  1
２９２
 50
0.0
 41
0.9
 51
0.0
  7
KANJI44
  0
LINE
  8
0
  6
CONTINUOUS
 62
     2
 10
743.564725201
 20
847.033974596
 30
0.0
 11
743.564725201
 21
1064.033974596
 31
0.0
  0
LINE
  8
0
  6
CONTINUOUS
 62
     1
 10
893.34722658
 20
235.133974596
 30
0.0
 11
925.34722658
 21
235.133974596
 31
0.0
  0
LINE
  8
0
  6
CONTINUOUS
 62
     1
 10
893.34722658
 20
203.133974596
 30
0.0
 11
893.34722658
 21
235.133974596
 31
0.0
  0
ARC
  8
0
  6
CONTINUOUS
 62
     1
 10
854.34722658
 20
291.633974596
 30
0.0
 40
10.0
 50
90.0
 51
180.0
  0
LINE
  8
0
  6
CONTINUOUS
 62
     1
 10
854.34722658
 20
301.633974596
 30
0.0
 11
964.34722658
 21
301.633974596
 31
0.0
  0
LINE
  8
0
  6
LTYPE3
 62
     2
 10
975.608247797
 20
277.133974596
 30
0.0
 11
884.34722658
 21
277.133974596
 31
0.0
  0
LINE
  8
0
  6
CONTINUOUS
 62
     1
 10
925.34722658
 20
203.133974596
 30
0.0
 11
893.34722658
 21
203.133974596
 31
0.0
  0
LINE
  8
0
  6
LTYPE3
 62
     2
 10
919.84722658
 20
176.233974596
 30
0.0
 11
930.74722658
 21
176.233974596
 31
0.0
  0
LINE
  8
0
  6
LTYPE3
 62
     2
 10
925.74722658
 20
170.213974596
 30
0.0
 11
925.74722658
 21
180.133974596
 31
0.0
  0
LINE
  8
0
  6
LTYPE3
 62
     2
 10
919.30722658
 20
146.033974596
 30
0.0
 11
930.74722658
 21
146.033974596
 31
0.0
  0
LINE
  8
0
  6
LTYPE3
 62
     2
 10
925.74722658
 20
142.133974596
 30
0.0
 11
925.74722658
 21
151.113974596
 31
0.0
  0
LINE
  8
0
  6
LTYPE3
 62
     2
 10
862.04722658
 20
146.033974596
 30
0.0
 11
872.00722658
 21
146.033974596
 31
0.0
  0
LINE
  8
0
  6
LTYPE3
 62
     2
 10
867.04722658
 20
142.133974596
 30
0.0
 11
867.04722658
 21
150.013974596
 31
0.0
  0
LINE
  8
0
  6
LTYPE3
 62
     2
 10
862.04722658
 20
176.233974596
 30
0.0
 11
871.84722658
 21
176.233974596
 31
0.0
  0
LINE
  8
0
  6
LTYPE3
 62
     2
 10
867.04722658
 20
170.113974596
 30
0.0
 11
867.04722658
 21
180.133974596
 31
0.0
  0
LINE
  8
0
  6
LTYPE3
 62
     2
 10
863.34722658
 20
199.133974596
 30
0.0
 11
840.34722658
 21
199.133974596
 31
0.0
  0
ARC
  8
0
  6
CONTINUOUS
 62
     1
 10
864.04722658
 20
143.133974596
 30
0.0
 40
2.0
 50
180.0
 51
270.0
  0
LINE
  8
0
  6
CONTINUOUS
 62
     1
 10
838.64722658
 20
148.433974596
 30
0.0
 11
862.04722658
 21
148.433974596
 31
0.0
  0
ARC
  8
0
  6
CONTINUOUS
 62
     1
 10
838.64722658
 20
150.433974596
 30
0.0
 40
2.0
 50
180.0
 51
270.0
  0
LINE
  8
0
  6
CONTINUOUS
 62
     1
 10
836.64722658
 20
150.433974596
 30
0.0
 11
836.64722658
 21
171.833974596
 31
0.0
  0
ARC
  8
0
  6
CONTINUOUS
 62
     1
 10
838.64722658
 20
171.833974596
 30
0.0
 40
2.0
 50
90.0
 51
180.0
  0
LINE
  8
0
  6
CONTINUOUS
 62
     1
 10
862.04722658
 20
143.133974596
 30
0.0
 11
862.04722658
 21
179.133974596
 31
0.0
  0
ARC
  8
0
  6
CONTINUOUS
 62
     1
 10
864.04722658
 20
179.133974596
 30
0.0
 40
2.0
 50
90.0
 51
180.0
  0
LINE
  8
0
  6
CONTINUOUS
 62
     1
 10
864.04722658
 20
181.133974596
 30
0.0
 11
928.74722658
 21
181.133974596
 31
0.0
  0
ARC
  8
0
  6
CONTINUOUS
 62
     1
 10
928.74722658
 20
179.133974596
 30
0.0
 40
2.0
 50
0.0
 51
90.0
  0
LINE
  8
0
  6
CONTINUOUS
 62
     1
 10
864.04722658
 20
141.133974596
 30
0.0
 11
928.74722658
 21
141.133974596
 31
0.0
  0
ARC
  8
0
  6
CONTINUOUS
 62
     1
 10
928.74722658
 20
143.133974596
 30
0.0
 40
2.0
 50
270.0
 51
0.0
  0
LINE
  8
0
  6
CONTINUOUS
 62
     1
 10
844.34722658
 20
148.433974596
 30
0.0
 11
844.34722658
 21
146.633974596
 31
0.0
  0
LINE
  8
0
  6
CONTINUOUS
 62
     1
 10
964.34722658
 20
136.633974596
 30
0.0
 11
854.34722658
 21
136.633974596
 31
0.0
  0
ARC
  8
0
  6
CONTINUOUS
 62
     1
 10
854.34722658
 20
146.633974596
 30
0.0
 40
10.0
 50
180.0
 51
270.0
  0
LINE
  8
0
  6
CONTINUOUS
 62
     1
 10
846.355542593
 20
161.44976407
 30
0.0
 11
848.352770588
 21
199.344500912
 31
0.0
  0
LINE
  8
0
  6
CONTINUOUS
 62
     1
 10
858.338910568
 20
161.44976407
 30
0.0
 11
856.341682572
 21
199.344500912
 31
0.0
  0
ARC
  8
0
  6
CONTINUOUS
 62
     1
 10
852.34722658
 20
199.133974596
 30
0.0
 40
4.0
 50
356.983042101
 51
183.016952287
  0
ARC
  8
0
  6
CONTINUOUS
 62
     1
 10
852.34722658
 20
199.133974596
 30
0.0
 40
8.75
 50
300.219855722
 51
239.780144278
  0
ARC
  8
0
  6
CONTINUOUS
 62
     1
 10
852.34722658
 20
161.133974596
 30
0.0
 40
6.0
 50
176.983045121
 51
3.016954879
  0
LINE
  8
0
  6
CONTINUOUS
 62
     1
 10
857.686205363
 20
173.833974596
 30
0.0
 11
862.04722658
 21
173.833974596
 31
0.0
  0
LINE
  8
0
  6
CONTINUOUS
 62
     1
 10
838.64722658
 20
173.833974596
 30
0.0
 11
847.008247797
 21
173.833974596
 31
0.0
  0
LINE
  8
0
  6
LTYPE3
 62
     2
 10
852.34722658
 20
152.033974596
 30
0.0
 11
852.34722658
 21
209.533974596
 31
0.0
  0
LINE
  8
0
  6
LTYPE3
 62
     2
 10
843.086205363
 20
161.133974596
 30
0.0
 11
934.34722658
 21
161.133974596
 31
0.0
  0
LINE
  8
0
  6
CONTINUOUS
 62
     1
 10
925.34722658
 20
203.133974596
 30
0.0
 11
925.34722658
 21
235.133974596
 31
0.0
  0
LINE
  8
0
  6
CONTINUOUS
 62
     1
 10
844.34722658
 20
195.589612877
 30
0.0
 11
844.34722658
 21
173.783974596
 31
0.0
  0
LINE
  8
0
  6
CONTINUOUS
 62
     1
 10
844.34722658
 20
211.133974596
 30
0.0
 11
844.34722658
 21
202.678336316
 31
0.0
  0
LINE
  8
0
  6
CONTINUOUS
 62
     1
 10
827.968169564
 20
211.133974596
 30
0.0
 11
893.34722658
 21
211.133974596
 31
0.0
  0
LINE
  8
0
  6
CONTINUOUS
 62
     1
 10
893.34722658
 20
227.133974596
 30
0.0
 11
828.037804543
 21
227.133974596
 31
0.0
  0
ARC
  8
0
  6
CONTINUOUS
 62
     1
 10
833.592695158
 20
223.133974596
 30
0.0
 40
6.845203412
 50
144.242860688
 51
215.757139312
  0
ARC
  8
0
  6
CONTINUOUS
 62
     1
 10
822.482913928
 20
223.133974596
 30
0.0
 40
6.845203412
 50
324.242860688
 51
35.757139312
  0
ARC
  8
0
  6
CONTINUOUS
 62
     1
 10
822.482913928
 20
215.133974596
 30
0.0
 40
6.845203412
 50
324.242860688
 51
35.757139312
  0
LINE
  8
0
  6
LTYPE2
 62
     2
 10
1057.84722658
 20
219.133974596
 30
0.0
 11
823.002987053
 21
219.133974596
 31
0.0
  0
LINE
  8
7
  6
CONTINUOUS
 62
     2
 10
887.94722658
 20
277.133974596
 30
0.0
 11
879.638748691
 21
271.568977277
 31
0.0
  0
LINE
  8
7
  6
CONTINUOUS
 62
     2
 10
887.94722658
 20
277.133974596
 30
0.0
 11
883.53437232
 21
268.160306601
 31
0.0
  0
LINE
  8
7
  6
CONTINUOUS
 62
     2
 10
887.94722658
 20
277.133974596
 30
0.0
 11
876.74722658
 21
264.333974596
 31
0.0
  0
LINE
  8
7
  6
CONTINUOUS
 62
     2
 10
876.74722658
 20
264.333974596
 30
0.0
 11
817.94722658
 21
264.333974596
 31
0.0
  0
TEXT
  8
7
  6
CONTINUOUS
 62
     2
 10
817.94722658
 20
268.333974596
 30
1.2
 40
12.0
  1
ＰＦ１／２
 50
0.0
 41
0.9
 51
0.0
  7
KANJI50
  0
LINE
  8
0
  6
CONTINUOUS
 62
     1
 10
844.34722658
 20
281.333974596
 30
0.0
 11
844.34722658
 21
291.633974596
 31
0.0
  0
LINE
  8
0
  6
CONTINUOUS
 62
     1
 10
844.34722658
 20
227.133974596
 30
0.0
 11
844.34722658
 21
261.333974596
 31
0.0
  0
LINE
  8
0
  6
LTYPE3
 62
     2
 10
899.38722658
 20
292.233974596
 30
0.0
 11
887.94722658
 21
292.233974596
 31
0.0
  0
LINE
  8
0
  6
LTYPE3
 62
     2
 10
892.94722658
 20
296.133974596
 30
0.0
 11
892.94722658
 21
287.153974596
 31
0.0
  0
LINE
  8
0
  6
CONTINUOUS
 62
     1
 10
954.64722658
 20
297.133974596
 30
0.0
 11
889.94722658
 21
297.133974596
 31
0.0
  0
LINE
  8
0
  6
CONTINUOUS
 62
     1
 10
887.94722658
 20
295.133974596
 30
0.0
 11
887.94722658
 21
259.133974596
 31
0.0
  0
ARC
  8
0
  6
CONTINUOUS
 62
     1
 10
889.94722658
 20
295.133974596
 30
0.0
 40
2.0
 50
90.0
 51
180.0
  0
LINE
  8
0
  6
LTYPE3
 62
     2
 10
898.84722658
 20
262.033974596
 30
0.0
 11
887.94722658
 21
262.033974596
 31
0.0
  0
LINE
  8
0
  6
LTYPE3
 62
     2
 10
892.94722658
 20
268.053974596
 30
0.0
 11
892.94722658
 21
258.133974596
 31
0.0
  0
LINE
  8
0
  6
CONTINUOUS
 62
     1
 10
954.64722658
 20
257.133974596
 30
0.0
 11
889.94722658
 21
257.133974596
 31
0.0
  0
ARC
  8
0
  6
CONTINUOUS
 62
     1
 10
889.94722658
 20
259.133974596
 30
0.0
 40
2.0
 50
180.0
 51
270.0
  0
LINE
  8
0
  6
CONTINUOUS
 62
     1
 10
930.74722658
 20
143.133974596
 30
0.0
 11
930.74722658
 21
179.133974596
 31
0.0
  0
ARC
  8
0
  6
CONTINUOUS
 62
     1
 10
964.34722658
 20
146.633974596
 30
0.0
 40
10.0
 50
270.0
 51
0.0
  0
LINE
  8
7
  6
CONTINUOUS
 62
     2
 10
930.74722658
 20
161.133974596
 30
0.0
 11
939.114534165
 21
166.610119571
 31
0.0
  0
LINE
  8
7
  6
CONTINUOUS
 62
     2
 10
930.74722658
 20
161.133974596
 30
0.0
 11
935.255455023
 21
170.060109051
 31
0.0
  0
LINE
  8
7
  6
CONTINUOUS
 62
     2
 10
930.74722658
 20
161.133974596
 30
0.0
 11
943.39722658
 21
175.283974596
 31
0.0
  0
LINE
  8
7
  6
CONTINUOUS
 62
     2
 10
943.39722658
 20
175.283974596
 30
0.0
 11
1002.19722658
 21
175.283974596
 31
0.0
  0
TEXT
  8
7
  6
CONTINUOUS
 62
     2
 10
943.39722658
 20
179.283974596
 30
1.2
 40
12.0
  1
ＰＦ１／２
 50
0.0
 41
0.9
 51
0.0
  7
KANJI50
  0
LINE
  8
0
  6
CONTINUOUS
 62
     1
 10
974.34722658
 20
172.333974596
 30
0.0
 11
974.34722658
 21
146.633974596
 31
0.0
  0
LINE
  8
0
  6
CONTINUOUS
 62
     1
 10
974.34722658
 20
289.833974596
 30
0.0
 11
974.34722658
 21
291.633974596
 31
0.0
  0
ARC
  8
0
  6
CONTINUOUS
 62
     1
 10
964.34722658
 20
291.633974596
 30
0.0
 40
10.0
 50
0.0
 51
90.0
  0
LINE
  8
0
  6
CONTINUOUS
 62
     1
 10
974.34722658
 20
242.678336316
 30
0.0
 11
974.34722658
 21
264.483974596
 31
0.0
  0
LINE
  8
0
  6
CONTINUOUS
 62
     1
 10
974.34722658
 20
227.133974596
 30
0.0
 11
974.34722658
 21
235.589612877
 31
0.0
  0
ARC
  8
0
  6
CONTINUOUS
 62
     1
 10
1047.601758002
 20
223.133974596
 30
0.0
 40
6.845203412
 50
324.242860688
 51
35.757139312
  0
ARC
  8
0
  6
CONTINUOUS
 62
     1
 10
1058.711539233
 20
223.133974596
 30
0.0
 40
6.845203412
 50
144.242860688
 51
215.757139312
  0
ARC
  8
0
  6
CONTINUOUS
 62
     1
 10
1058.711539233
 20
215.133974596
 30
0.0
 40
6.845203412
 50
144.242860688
 51
215.757139312
  0
LINE
  8
0
  6
LTYPE2
 62
     2
 10
1005.84722658
 20
209.133974596
 30
0.0
 11
1005.84722658
 21
229.133974596
 31
0.0
  0
CIRCLE
  8
0
  6
CONTINUOUS
 62
     2
 10
1005.84722658
 20
219.133974596
 30
0.0
 40
5.0
  0
CIRCLE
  8
0
  6
CONTINUOUS
 62
     2
 10
1005.84722658
 20
219.133974596
 30
0.0
 40
4.0
  0
LINE
  8
0
  6
LTYPE3
 62
     2
 10
956.64722658
 20
292.233974596
 30
0.0
 11
946.68722658
 21
292.233974596
 31
0.0
  0
LINE
  8
0
  6
LTYPE3
 62
     2
 10
951.64722658
 20
296.133974596
 30
0.0
 11
951.64722658
 21
288.253974596
 31
0.0
  0
ARC
  8
0
  6
CONTINUOUS
 62
     1
 10
954.64722658
 20
295.133974596
 30
0.0
 40
2.0
 50
0.0
 51
90.0
  0
LINE
  8
0
  6
CONTINUOUS
 62
     1
 10
980.04722658
 20
289.833974596
 30
0.0
 11
956.64722658
 21
289.833974596
 31
0.0
  0
LINE
  8
0
  6
CONTINUOUS
 62
     1
 10
956.64722658
 20
295.133974596
 30
0.0
 11
956.64722658
 21
259.133974596
 31
0.0
  0
LINE
  8
0
  6
LTYPE3
 62
     2
 10
956.64722658
 20
262.033974596
 30
0.0
 11
946.84722658
 21
262.033974596
 31
0.0
  0
LINE
  8
0
  6
LTYPE3
 62
     2
 10
951.64722658
 20
268.153974596
 30
0.0
 11
951.64722658
 21
258.133974596
 31
0.0
  0
ARC
  8
0
  6
CONTINUOUS
 62
     1
 10
954.64722658
 20
259.133974596
 30
0.0
 40
2.0
 50
270.0
 51
0.0
  0
LINE
  8
0
  6
CONTINUOUS
 62
     1
 10
961.008247797
 20
264.433974596
 30
0.0
 11
956.64722658
 21
264.433974596
 31
0.0
  0
ARC
  8
0
  6
CONTINUOUS
 62
     1
 10
980.04722658
 20
287.833974596
 30
0.0
 40
2.0
 50
0.0
 51
90.0
  0
LINE
  8
0
  6
CONTINUOUS
 62
     1
 10
982.04722658
 20
287.833974596
 30
0.0
 11
982.04722658
 21
266.433974596
 31
0.0
  0
ARC
  8
0
  6
CONTINUOUS
 62
     1
 10
966.34722658
 20
277.133974596
 30
0.0
 40
6.0
 50
356.983045121
 51
183.016954879
  0
LINE
  8
0
  6
LTYPE3
 62
     2
 10
966.34722658
 20
286.233974596
 30
0.0
 11
966.34722658
 21
228.733974596
 31
0.0
  0
LINE
  8
0
  6
CONTINUOUS
 62
     1
 10
972.338910568
 20
276.818185123
 30
0.0
 11
970.341682572
 21
238.92344828
 31
0.0
  0
LINE
  8
0
  6
CONTINUOUS
 62
     1
 10
960.355542593
 20
276.818185123
 30
0.0
 11
962.352770588
 21
238.92344828
 31
0.0
  0
ARC
  8
0
  6
CONTINUOUS
 62
     1
 10
980.04722658
 20
266.433974596
 30
0.0
 40
2.0
 50
270.0
 51
0.0
  0
LINE
  8
0
  6
CONTINUOUS
 62
     1
 10
980.04722658
 20
264.433974596
 30
0.0
 11
971.686205363
 21
264.433974596
 31
0.0
  0
LINE
  8
0
  6
LTYPE3
 62
     2
 10
955.34722658
 20
239.133974596
 30
0.0
 11
978.34722658
 21
239.133974596
 31
0.0
  0
ARC
  8
0
  6
CONTINUOUS
 62
     1
 10
966.34722658
 20
239.133974596
 30
0.0
 40
8.75
 50
120.219855722
 51
59.780144278
  0
ARC
  8
0
  6
CONTINUOUS
 62
     1
 10
966.34722658
 20
239.133974596
 30
0.0
 40
4.0
 50
176.983042101
 51
3.016952287
  0
LINE
  8
0
  6
CONTINUOUS
 62
     2
 10
848.34723737
 20
301.633974596
 30
0.0
 11
796.02
 21
301.633974596
 31
0.0
  0
LINE
  8
0
  6
CONTINUOUS
 62
     2
 10
802.02
 20
301.633974596
 30
0.0
 11
798.914171459
 21
290.042864681
 31
0.0
  0
LINE
  8
0
  6
CONTINUOUS
 62
     2
 10
802.02
 20
301.633974596
 30
0.0
 11
805.125828541
 21
290.042864681
 31
0.0
  0
LINE
  8
0
  6
CONTINUOUS
 62
     2
 10
802.02
 20
301.633974596
 30
0.0
 11
802.02
 21
136.633974596
 31
0.0
  0
LINE
  8
0
  6
CONTINUOUS
 62
     2
 10
802.02
 20
136.633974596
 30
0.0
 11
805.125828541
 21
148.225084512
 31
0.0
  0
LINE
  8
0
  6
CONTINUOUS
 62
     2
 10
802.02
 20
136.633974596
 30
0.0
 11
798.914171459
 21
148.225084512
 31
0.0
  0
LINE
  8
0
  6
CONTINUOUS
 62
     2
 10
848.34722658
 20
136.633974596
 30
0.0
 11
796.02
 21
136.633974596
 31
0.0
  0
TEXT
  8
0
  6
CONTINUOUS
 62
     3
 10
799.02
 20
194.833974596
 30
0.0
 40
18.0
  1
１６５
 50
90.0
 41
0.9
 51
0.0
  7
KANJI44
  0
LINE
  8
0
  6
CONTINUOUS
 62
     2
 10
844.34722658
 20
142.433974596
 30
0.0
 11
844.34722658
 21
90.133974596
 31
0.0
  0
LINE
  8
0
  6
CONTINUOUS
 62
     2
 10
974.34722658
 20
140.633974596
 30
0.0
 11
974.34722658
 21
90.133974596
 31
0.0
  0
LINE
  8
0
  6
CONTINUOUS
 62
     1
 10
984.84722658
 20
230.133974596
 30
0.0
 11
993.507480618
 21
235.133974596
 31
0.0
  0
LINE
  8
0
  6
CONTINUOUS
 62
     1
 10
984.84722658
 20
208.133974596
 30
0.0
 11
984.84722658
 21
230.133974596
 31
0.0
  0
LINE
  8
0
  6
CONTINUOUS
 62
     1
 10
993.49722658
 20
203.133974596
 30
0.0
 11
993.49722658
 21
235.133974596
 31
0.0
  0
LINE
  8
0
  6
CONTINUOUS
 62
     1
 10
993.49722658
 20
235.133974596
 30
0.0
 11
1018.19722658
 21
235.133974596
 31
0.0
  0
LINE
  8
0
  6
CONTINUOUS
 62
     1
 10
1026.84722658
 20
230.133974596
 30
0.0
 11
1018.186972542
 21
235.133974596
 31
0.0
  0
LINE
  8
0
  6
CONTINUOUS
 62
     1
 10
1018.19722658
 20
203.133974596
 30
0.0
 11
1018.19722658
 21
235.133974596
 31
0.0
  0
LINE
  8
0
  6
CONTINUOUS
 62
     1
 10
1026.84722658
 20
208.133974596
 30
0.0
 11
1026.84722658
 21
230.133974596
 31
0.0
  0
LINE
  8
0
  6
CONTINUOUS
 62
     1
 10
1026.84722658
 20
208.133974596
 30
0.0
 11
1018.186972542
 21
203.133974596
 31
0.0
  0
LINE
  8
0
  6
CONTINUOUS
 62
     1
 10
984.84722658
 20
208.133974596
 30
0.0
 11
993.507480618
 21
203.133974596
 31
0.0
  0
LINE
  8
0
  6
CONTINUOUS
 62
     1
 10
993.49722658
 20
203.133974596
 30
0.0
 11
1018.19722658
 21
203.133974596
 31
0.0
  0
LINE
  8
0
  6
CONTINUOUS
 62
     1
 10
1026.84722658
 20
227.133974596
 30
0.0
 11
1053.156648618
 21
227.133974596
 31
0.0
  0
LINE
  8
0
  6
CONTINUOUS
 62
     1
 10
1053.156648618
 20
211.133974596
 30
0.0
 11
1026.84722658
 21
211.133974596
 31
0.0
  0
LINE
  8
0
  6
CONTINUOUS
 62
     1
 10
925.34722658
 20
227.133974596
 30
0.0
 11
984.84722658
 21
227.133974596
 31
0.0
  0
LINE
  8
0
  6
CONTINUOUS
 62
     1
 10
984.84722658
 20
211.133974596
 30
0.0
 11
925.34722658
 21
211.133974596
 31
0.0
  0
LINE
  8
0
  6
CONTINUOUS
 62
     2
 10
844.34722658
 20
96.133974596
 30
0.0
 11
855.938336496
 21
93.028146055
 31
0.0
  0
LINE
  8
0
  6
CONTINUOUS
 62
     2
 10
844.34722658
 20
96.133974596
 30
0.0
 11
855.938336496
 21
99.239803137
 31
0.0
  0
LINE
  8
0
  6
CONTINUOUS
 62
     2
 10
844.34722658
 20
96.133974596
 30
0.0
 11
974.34722658
 21
96.133974596
 31
0.0
  0
LINE
  8
0
  6
CONTINUOUS
 62
     2
 10
974.34722658
 20
96.133974596
 30
0.0
 11
962.756116665
 21
99.239803137
 31
0.0
  0
LINE
  8
0
  6
CONTINUOUS
 62
     2
 10
974.34722658
 20
96.133974596
 30
0.0
 11
962.756116665
 21
93.028146055
 31
0.0
  0
TEXT
  8
0
  6
CONTINUOUS
 62
     3
 10
885.04722658
 20
99.133974596
 30
0.0
 40
18.0
  1
１３０
 50
0.0
 41
0.9
 51
0.0
  7
KANJI44
  0
CIRCLE
  8
0
  6
CONTINUOUS
 62
     1
 10
1144.164725201
 20
677.533974596
 30
0.0
 40
3.0
  0
LINE
  8
0
  6
CONTINUOUS
 62
     1
 10
1139.964725201
 20
645.233974596
 30
0.0
 11
1141.964725201
 21
644.933974596
 31
0.0
  0
LINE
  8
0
  6
CONTINUOUS
 62
     1
 10
1142.464725201
 20
649.633974596
 30
0.0
 11
1142.229340585
 21
648.064743827
 31
0.0
  0
LINE
  8
0
  6
CONTINUOUS
 62
     1
 10
1142.229340585
 20
648.064743827
 30
0.0
 11
1139.964725201
 21
645.233974596
 31
0.0
  0
LINE
  8
0
  6
CONTINUOUS
 62
     1
 10
1144.164725201
 20
647.633974596
 30
0.0
 11
1141.964725201
 21
644.933974596
 31
0.0
  0
LINE
  8
0
  6
CONTINUOUS
 62
     1
 10
1148.364725201
 20
645.233974596
 30
0.0
 11
1146.364725201
 21
644.933974596
 31
0.0
  0
LINE
  8
0
  6
CONTINUOUS
 62
     1
 10
1145.864725201
 20
649.633974596
 30
0.0
 11
1146.100109816
 21
648.064743827
 31
0.0
  0
LINE
  8
0
  6
CONTINUOUS
 62
     1
 10
1146.100109816
 20
648.064743827
 30
0.0
 11
1148.364725201
 21
645.233974596
 31
0.0
  0
LINE
  8
0
  6
CONTINUOUS
 62
     1
 10
1144.164725201
 20
647.633974596
 30
0.0
 11
1146.364725201
 21
644.933974596
 31
0.0
  0
LINE
  8
0
  6
LTYPE5
 62
     2
 10
1144.164725201
 20
637.033974596
 30
0.0
 11
1144.164725201
 21
691.833974596
 31
0.0
  0
ARC
  8
0
  6
CONTINUOUS
 62
     1
 10
1166.164725201
 20
684.033974596
 30
0.0
 40
8.0
 50
0.0
 51
90.0
  0
LINE
  8
0
  6
CONTINUOUS
 62
     1
 10
1174.164725201
 20
640.033974596
 30
0.0
 11
1174.164725201
 21
684.033974596
 31
0.0
  0
ARC
  8
0
  6
CONTINUOUS
 62
     1
 10
1166.164725201
 20
640.033974596
 30
0.0
 40
8.0
 50
270.0
 51
0.0
  0
LINE
  8
2
  6
CONTINUOUS
 62
     2
 10
1151.264725201
 20
672.533974596
 30
0.0
 11
1157.587977101
 21
683.316668388
 31
0.0
  0
LINE
  8
2
  6
CONTINUOUS
 62
     2
 10
1151.264725201
 20
672.533974596
 30
0.0
 11
1151.349475086
 21
685.033687291
 31
0.0
  0
LINE
  8
2
  6
CONTINUOUS
 62
     2
 10
1144.164725201
 20
657.033974596
 30
0.0
 11
1144.164725201
 21
421.933974596
 31
0.0
  0
LINE
  8
2
  6
CONTINUOUS
 62
     2
 10
1174.164725201
 20
635.033974596
 30
0.0
 11
1174.164725201
 21
326.533974596
 31
0.0
  0
TEXT
  8
7
  6
CONTINUOUS
 62
     2
 10
1172.164725201
 20
749.183974596
 30
1.5
 40
15.0
  1
φ２５Ｈ１０
 50
0.0
 41
0.9
 51
0.0
  7
KANJI43
  0
TEXT
  8
0
  6
CONTINUOUS
 62
     2
 10
1217.164725201
 20
723.183974596
 30
1.5
 40
15.0
  1
ｄ９
 50
0.0
 41
0.9
 51
0.0
  7
KANJI43
  0
LINE
  8
7
  6
CONTINUOUS
 62
     2
 10
1170.984908687
 20
744.183974596
 30
0.0
 11
1260.664725201
 21
744.183974596
 31
0.0
  0
LINE
  8
2
  6
CONTINUOUS
 62
     2
 10
1151.264725201
 20
672.533974596
 30
0.0
 11
1170.984908687
 21
744.183974596
 31
0.0
  0
LINE
  8
0
  6
CONTINUOUS
 62
     2
 10
1248.664725201
 20
662.033974596
 30
0.0
 11
1245.55889666
 21
650.442864681
 31
0.0
  0
LINE
  8
0
  6
CONTINUOUS
 62
     2
 10
1248.664725201
 20
662.033974596
 30
0.0
 11
1251.770553742
 21
650.442864681
 31
0.0
  0
LINE
  8
0
  6
CONTINUOUS
 62
     2
 10
1248.664725201
 20
662.033974596
 30
0.0
 11
1248.664725201
 21
502.033974596
 31
0.0
  0
LINE
  8
0
  6
CONTINUOUS
 62
     2
 10
1248.664725201
 20
502.033974596
 30
0.0
 11
1251.770553742
 21
513.625084512
 31
0.0
  0
LINE
  8
0
  6
CONTINUOUS
 62
     2
 10
1248.664725201
 20
502.033974596
 30
0.0
 11
1245.55889666
 21
513.625084512
 31
0.0
  0
TEXT
  8
0
  6
CONTINUOUS
 62
     3
 10
1245.664725201
 20
557.733974596
 30
0.0
 40
18.0
  1
１６０
 50
90.0
 41
0.9
 51
0.0
  7
KANJI44
  0
LINE
  8
0
  6
CONTINUOUS
 62
     2
 10
1215.264725201
 20
662.033974596
 30
0.0
 11
1254.664725201
 21
662.033974596
 31
0.0
  0
LINE
  8
0
  6
CONTINUOUS
 62
     2
 10
1172.164725201
 20
692.033974596
 30
0.0
 11
1221.264725201
 21
692.033974596
 31
0.0
  0
LINE
  8
0
  6
CONTINUOUS
 62
     2
 10
1215.264725201
 20
692.033974596
 30
0.0
 11
1212.15889666
 21
680.442864681
 31
0.0
  0
LINE
  8
0
  6
CONTINUOUS
 62
     2
 10
1215.264725201
 20
692.033974596
 30
0.0
 11
1218.370553742
 21
680.442864681
 31
0.0
  0
LINE
  8
0
  6
CONTINUOUS
 62
     2
 10
1215.264725201
 20
692.033974596
 30
0.0
 11
1215.264725201
 21
632.033974596
 31
0.0
  0
LINE
  8
0
  6
CONTINUOUS
 62
     2
 10
1215.264725201
 20
632.033974596
 30
0.0
 11
1218.370553742
 21
643.625084512
 31
0.0
  0
LINE
  8
0
  6
CONTINUOUS
 62
     2
 10
1215.264725201
 20
632.033974596
 30
0.0
 11
1212.15889666
 21
643.625084512
 31
0.0
  0
LINE
  8
0
  6
CONTINUOUS
 62
     2
 10
1172.164725201
 20
632.033974596
 30
0.0
 11
1221.264725201
 21
632.033974596
 31
0.0
  0
TEXT
  8
0
  6
CONTINUOUS
 62
     3
 10
1212.264725201
 20
645.833974596
 30
0.0
 40
18.0
  1
６０
 50
90.0
 41
0.9
 51
0.0
  7
KANJI44
  0
LINE
  8
0
  6
CONTINUOUS
 62
     1
 10
1157.664725201
 20
866.783974596
 30
0.0
 11
1157.664725201
 21
881.783974596
 31
0.0
  0
LINE
  8
0
  6
CONTINUOUS
 62
     1
 10
1157.664725201
 20
907.283974596
 30
0.0
 11
1157.664725201
 21
901.283974596
 31
0.0
  0
LINE
  8
0
  6
CONTINUOUS
 62
     1
 10
1167.164725201
 20
901.283974596
 30
0.0
 11
1167.164725201
 21
896.783974596
 31
0.0
  0
CIRCLE
  8
0
  6
CONTINUOUS
 62
     1
 10
1145.164725201
 20
903.283974596
 30
0.0
 40
2.0
  0
LINE
  8
0
  6
LTYPE5
 62
     2
 10
1141.164725201
 20
903.183974596
 30
0.0
 11
1149.364725201
 21
903.183974596
 31
0.0
  0
LINE
  8
0
  6
LTYPE1
 62
     2
 10
1157.664725201
 20
896.783974596
 30
0.0
 11
1157.664725201
 21
881.783974596
 31
0.0
  0
LINE
  8
0
  6
LTYPE5
 62
     2
 10
1145.164725201
 20
911.683974596
 30
0.0
 11
1145.164725201
 21
866.783974596
 31
0.0
  0
LINE
  8
0
  6
CONTINUOUS
 62
     1
 10
1157.664725201
 20
866.783974596
 30
0.0
 11
1157.664725201
 21
851.783974596
 31
0.0
  0
LINE
  8
0
  6
CONTINUOUS
 62
     1
 10
1157.664725201
 20
826.283974596
 30
0.0
 11
1157.664725201
 21
832.283974596
 31
0.0
  0
LINE
  8
0
  6
CONTINUOUS
 62
     1
 10
1167.164725201
 20
832.283974596
 30
0.0
 11
1167.164725201
 21
836.783974596
 31
0.0
  0
CIRCLE
  8
0
  6
CONTINUOUS
 62
     1
 10
1145.164725201
 20
830.283974596
 30
0.0
 40
2.0
  0
LINE
  8
0
  6
LTYPE5
 62
     2
 10
1141.164725201
 20
830.383974596
 30
0.0
 11
1149.364725201
 21
830.383974596
 31
0.0
  0
LINE
  8
0
  6
LTYPE1
 62
     2
 10
1157.664725201
 20
836.783974596
 30
0.0
 11
1157.664725201
 21
851.783974596
 31
0.0
  0
LINE
  8
0
  6
LTYPE5
 62
     2
 10
1145.164725201
 20
821.883974596
 30
0.0
 11
1145.164725201
 21
866.783974596
 31
0.0
  0
LINE
  8
2
  6
CONTINUOUS
 62
     2
 10
1145.164725201
 20
816.883974596
 30
0.0
 11
1145.164725201
 21
744.983974596
 31
0.0
  0
LINE
  8
0
  6
CONTINUOUS
 62
     1
 10
1175.164725201
 20
896.783974596
 30
0.0
 11
1175.164725201
 21
881.783974596
 31
0.0
  0
LINE
  8
0
  6
CONTINUOUS
 62
     1
 10
1175.164725201
 20
836.783974596
 30
0.0
 11
1175.164725201
 21
851.783974596
 31
0.0
  0
LINE
  8
2
  6
CONTINUOUS
 62
     2
 10
1180.164725201
 20
881.783974596
 30
0.0
 11
1234.534725201
 21
881.783974596
 31
0.0
  0
LINE
  8
2
  6
CONTINUOUS
 62
     2
 10
1224.534725201
 20
881.783974596
 30
0.0
 11
1221.299487137
 21
869.709901768
 31
0.0
  0
LINE
  8
2
  6
CONTINUOUS
 62
     2
 10
1224.534725201
 20
881.783974596
 30
0.0
 11
1227.769963265
 21
869.709901768
 31
0.0
  0
LINE
  8
2
  6
CONTINUOUS
 62
     2
 10
1224.534725201
 20
881.783974596
 30
0.0
 11
1224.534725201
 21
851.783974596
 31
0.0
  0
LINE
  8
2
  6
CONTINUOUS
 62
     2
 10
1224.534725201
 20
851.783974596
 30
0.0
 11
1227.769963265
 21
863.858047425
 31
0.0
  0
LINE
  8
2
  6
CONTINUOUS
 62
     2
 10
1224.534725201
 20
851.783974596
 30
0.0
 11
1221.299487137
 21
863.858047425
 31
0.0
  0
LINE
  8
2
  6
CONTINUOUS
 62
     2
 10
1180.164725201
 20
851.783974596
 30
0.0
 11
1234.534725201
 21
851.783974596
 31
0.0
  0
LINE
  8
2
  6
CONTINUOUS
 62
     2
 10
1180.164725201
 20
896.783974596
 30
0.0
 11
1283.264725201
 21
896.783974596
 31
0.0
  0
LINE
  8
2
  6
CONTINUOUS
 62
     2
 10
1273.264725201
 20
896.783974596
 30
0.0
 11
1270.029487137
 21
884.709901768
 31
0.0
  0
LINE
  8
2
  6
CONTINUOUS
 62
     2
 10
1273.264725201
 20
896.783974596
 30
0.0
 11
1276.499963265
 21
884.709901768
 31
0.0
  0
LINE
  8
2
  6
CONTINUOUS
 62
     2
 10
1273.264725201
 20
896.783974596
 30
0.0
 11
1273.264725201
 21
836.783974596
 31
0.0
  0
LINE
  8
2
  6
CONTINUOUS
 62
     2
 10
1273.264725201
 20
836.783974596
 30
0.0
 11
1276.499963265
 21
848.858047425
 31
0.0
  0
LINE
  8
2
  6
CONTINUOUS
 62
     2
 10
1273.264725201
 20
836.783974596
 30
0.0
 11
1270.029487137
 21
848.858047425
 31
0.0
  0
LINE
  8
2
  6
CONTINUOUS
 62
     2
 10
1180.164725201
 20
836.783974596
 30
0.0
 11
1283.264725201
 21
836.783974596
 31
0.0
  0
TEXT
  8
2
  6
CONTINUOUS
 62
     2
 10
1268.264725201
 20
850.033974596
 30
1.5
 40
17.5
  1
６０
 50
90.0
 41
0.914285714
 51
0.0
  7
KANJI45
  0
TEXT
  8
2
  6
CONTINUOUS
 62
     2
 10
1219.534725201
 20
850.033974596
 30
1.5
 40
17.5
  1
３０
 50
90.0
 41
0.914285714
 51
0.0
  7
KANJI45
  0
LINE
  8
2
  6
CONTINUOUS
 62
     2
 10
1144.164725201
 20
397.333974596
 30
0.0
 11
1144.164725201
 21
326.533974596
 31
0.0
  0
LINE
  8
2
  6
CONTINUOUS
 62
     2
 10
1144.164725201
 20
448.333974596
 30
0.0
 11
1144.164725201
 21
374.333974596
 31
0.0
  0
LINE
  8
0
  6
CONTINUOUS
 62
     1
 10
1144.64722658
 20
251.633974596
 30
0.0
 11
1144.64722658
 21
186.933974596
 31
0.0
  0
LINE
  8
0
  6
CONTINUOUS
 62
     1
 10
1146.64722658
 20
184.933974596
 30
0.0
 11
1182.64722658
 21
184.933974596
 31
0.0
  0
ARC
  8
0
  6
CONTINUOUS
 62
     1
 10
1146.64722658
 20
186.933974596
 30
0.0
 40
2.0
 50
180.0
 51
270.0
  0
LINE
  8
0
  6
CONTINUOUS
 62
     1
 10
1184.64722658
 20
251.633974596
 30
0.0
 11
1184.64722658
 21
186.933974596
 31
0.0
  0
ARC
  8
0
  6
CONTINUOUS
 62
     1
 10
1182.64722658
 20
186.933974596
 30
0.0
 40
2.0
 50
270.0
 51
0.0
  0
ARC
  8
0
  6
CONTINUOUS
 62
     1
 10
1146.64722658
 20
251.633974596
 30
0.0
 40
2.0
 50
90.0
 51
180.0
  0
LINE
  8
0
  6
CONTINUOUS
 62
     1
 10
1151.94722658
 20
277.033974596
 30
0.0
 11
1151.94722658
 21
253.633974596
 31
0.0
  0
LINE
  8
0
  6
CONTINUOUS
 62
     1
 10
1146.64722658
 20
253.633974596
 30
0.0
 11
1182.64722658
 21
253.633974596
 31
0.0
  0
ARC
  8
0
  6
CONTINUOUS
 62
     1
 10
1182.64722658
 20
251.633974596
 30
0.0
 40
2.0
 50
0.0
 51
90.0
  0
ARC
  8
0
  6
CONTINUOUS
 62
     1
 10
1153.94722658
 20
277.033974596
 30
0.0
 40
2.0
 50
90.0
 51
180.0
  0
ARC
  8
0
  6
CONTINUOUS
 62
     1
 10
1164.64722658
 20
263.333974596
 30
0.0
 40
6.0
 50
131.983045121
 51
318.016954879
  0
LINE
  8
0
  6
LTYPE3
 62
     2
 10
1158.212554871
 20
256.899302887
 30
0.0
 11
1198.87119479
 21
297.557942806
 31
0.0
  0
LINE
  8
0
  6
CONTINUOUS
 62
     1
 10
1160.63376308
 20
267.794031853
 30
0.0
 11
1188.841641932
 21
293.177403786
 31
0.0
  0
LINE
  8
0
  6
CONTINUOUS
 62
     1
 10
1169.107283837
 20
259.320511096
 30
0.0
 11
1194.49065577
 21
287.528389948
 31
0.0
  0
LINE
  8
0
  6
LTYPE3
 62
     2
 10
1199.295458858
 20
282.425857688
 30
0.0
 11
1183.032002891
 21
298.689313656
 31
0.0
  0
ARC
  8
0
  6
CONTINUOUS
 62
     1
 10
1191.517284265
 20
290.204032281
 30
0.0
 40
8.75
 50
255.219855722
 51
194.780144278
  0
ARC
  8
0
  6
CONTINUOUS
 62
     1
 10
1191.517284265
 20
290.204032281
 30
0.0
 40
4.0
 50
311.983042101
 51
138.016952287
  0
LINE
  8
0
  6
CONTINUOUS
 62
     1
 10
1177.34722658
 20
268.477344446
 30
0.0
 11
1177.34722658
 21
253.633974596
 31
0.0
  0
LINE
  8
0
  6
CONTINUOUS
 62
     1
 10
1153.94722658
 20
279.033974596
 30
0.0
 11
1173.124418145
 21
279.033974596
 31
0.0
  0
LINE
  8
0
  6
LTYPE2
 62
     2
 10
1149.77222658
 20
230.133974596
 30
0.0
 11
1179.77222658
 21
230.133974596
 31
0.0
  0
LINE
  8
0
  6
LTYPE2
 62
     2
 10
1179.77222658
 20
230.133974596
 30
0.0
 11
1179.77222658
 21
239.633974596
 31
0.0
  0
LINE
  8
0
  6
LTYPE2
 62
     2
 10
1179.77222658
 20
239.633974596
 30
0.0
 11
1149.77222658
 21
239.633974596
 31
0.0
  0
LINE
  8
0
  6
LTYPE2
 62
     2
 10
1149.77222658
 20
239.633974596
 30
0.0
 11
1149.77222658
 21
230.133974596
 31
0.0
  0
LINE
  8
0
  6
CONTINUOUS
 62
     1
 10
1149.77222658
 20
200.133974596
 30
0.0
 11
1179.77222658
 21
200.133974596
 31
0.0
  0
LINE
  8
0
  6
CONTINUOUS
 62
     1
 10
1179.77222658
 20
200.133974596
 30
0.0
 11
1179.77222658
 21
209.633974596
 31
0.0
  0
LINE
  8
0
  6
CONTINUOUS
 62
     1
 10
1179.77222658
 20
209.633974596
 30
0.0
 11
1149.77222658
 21
209.633974596
 31
0.0
  0
LINE
  8
0
  6
CONTINUOUS
 62
     1
 10
1149.77222658
 20
209.633974596
 30
0.0
 11
1149.77222658
 21
200.133974596
 31
0.0
  0
TEXT
  8
0
  6
CONTINUOUS
 62
     2
 10
1148.54722658
 20
242.933974596
 30
0.0
 40
10.0
  1
４
 50
0.0
 41
0.85
 51
0.0
  7
KANJI51
  0
TEXT
  8
0
  6
CONTINUOUS
 62
     2
 10
1173.54722658
 20
242.933974596
 30
0.0
 40
10.0
  1
３
 50
0.0
 41
0.85
 51
0.0
  7
KANJI51
  0
POLYLINE
  8
0
  6
CONTINUOUS
 62
     2
 66
     1
 70
     1
  0
VERTEX
  8
0
  6
CONTINUOUS
 62
     2
 10
1159.54722658
 20
242.183974596
 30
0.0
 42
0.021820078
  0
VERTEX
  8
0
  6
CONTINUOUS
 62
     2
 10
1159.538664651
 20
242.380075017
 30
0.0
 42
0.021820078
  0
VERTEX
  8
0
  6
CONTINUOUS
 62
     2
 10
1159.513044024
 20
242.574682996
 30
0.0
 42
0.021820078
  0
VERTEX
  8
0
  6
CONTINUOUS
 62
     2
 10
1159.470559689
 20
242.766317448
 30
0.0
 42
0.021820078
  0
VERTEX
  8
0
  6
CONTINUOUS
 62
     2
 10
1159.411534977
 20
242.953519919
 30
0.0
 42
0.021820078
  0
VERTEX
  8
0
  6
CONTINUOUS
 62
     2
 10
1159.336419101
 20
243.134865685
 30
0.0
 42
0.021820078
  0
VERTEX
  8
0
  6
CONTINUOUS
 62
     2
 10
1159.245783739
 20
243.308974596
 30
0.0
 42
0.021820078
  0
VERTEX
  8
0
  6
CONTINUOUS
 62
     2
 10
1159.14031868
 20
243.474521578
 30
0.0
 42
0.021820078
  0
VERTEX
  8
0
  6
CONTINUOUS
 62
     2
 10
1159.020826577
 20
243.630246718
 30
0.0
 42
0.021820078
  0
VERTEX
  8
0
  6
CONTINUOUS
 62
     2
 10
1158.888216838
 20
243.774964854
 30
0.0
 42
0.021820078
  0
VERTEX
  8
0
  6
CONTINUOUS
 62
     2
 10
1158.743498702
 20
243.907574593
 30
0.0
 42
0.021820078
  0
VERTEX
  8
0
  6
CONTINUOUS
 62
     2
 10
1158.587773562
 20
244.027066696
 30
0.0
 42
0.021820078
  0
VERTEX
  8
0
  6
CONTINUOUS
 62
     2
 10
1158.42222658
 20
244.132531755
 30
0.0
 42
0.021820078
  0
VERTEX
  8
0
  6
CONTINUOUS
 62
     2
 10
1158.248117669
 20
244.223167117
 30
0.0
 42
0.021820078
  0
VERTEX
  8
0
  6
CONTINUOUS
 62
     2
 10
1158.066771903
 20
244.298282993
 30
0.0
 42
0.021820078
  0
VERTEX
  8
0
  6
CONTINUOUS
 62
     2
 10
1157.879569432
 20
244.357307705
 30
0.0
 42
0.021820078
  0
VERTEX
  8
0
  6
CONTINUOUS
 62
     2
 10
1157.68793498
 20
244.39979204
 30
0.0
 42
0.021820078
  0
VERTEX
  8
0
  6
CONTINUOUS
 62
     2
 10
1157.493327001
 20
244.425412667
 30
0.0
 42
0.021820078
  0
VERTEX
  8
0
  6
CONTINUOUS
 62
     2
 10
1157.29722658
 20
244.433974596
 30
0.0
 42
0.021820078
  0
VERTEX
  8
0
  6
CONTINUOUS
 62
     2
 10
1157.101126159
 20
244.425412667
 30
0.0
 42
0.021820078
  0
VERTEX
  8
0
  6
CONTINUOUS
 62
     2
 10
1156.90651818
 20
244.39979204
 30
0.0
 42
0.021820078
  0
VERTEX
  8
0
  6
CONTINUOUS
 62
     2
 10
1156.714883729
 20
244.357307705
 30
0.0
 42
0.021820078
  0
VERTEX
  8
0
  6
CONTINUOUS
 62
     2
 10
1156.527681258
 20
244.298282993
 30
0.0
 42
0.021820078
  0
VERTEX
  8
0
  6
CONTINUOUS
 62
     2
 10
1156.346335491
 20
244.223167117
 30
0.0
 42
0.021820078
  0
VERTEX
  8
0
  6
CONTINUOUS
 62
     2
 10
1156.17222658
 20
244.132531755
 30
0.0
 42
0.021820078
  0
VERTEX
  8
0
  6
CONTINUOUS
 62
     2
 10
1156.006679598
 20
244.027066696
 30
0.0
 42
0.021820078
  0
VERTEX
  8
0
  6
CONTINUOUS
 62
     2
 10
1155.850954458
 20
243.907574593
 30
0.0
 42
0.021820078
  0
VERTEX
  8
0
  6
CONTINUOUS
 62
     2
 10
1155.706236323
 20
243.774964854
 30
0.0
 42
0.021820078
  0
VERTEX
  8
0
  6
CONTINUOUS
 62
     2
 10
1155.573626583
 20
243.630246718
 30
0.0
 42
0.021820078
  0
VERTEX
  8
0
  6
CONTINUOUS
 62
     2
 10
1155.454134481
 20
243.474521578
 30
0.0
 42
0.021820078
  0
VERTEX
  8
0
  6
CONTINUOUS
 62
     2
 10
1155.348669422
 20
243.308974596
 30
0.0
 42
0.021820078
  0
VERTEX
  8
0
  6
CONTINUOUS
 62
     2
 10
1155.258034059
 20
243.134865685
 30
0.0
 42
0.021820078
  0
VERTEX
  8
0
  6
CONTINUOUS
 62
     2
 10
1155.182918183
 20
242.953519919
 30
0.0
 42
0.021820078
  0
VERTEX
  8
0
  6
CONTINUOUS
 62
     2
 10
1155.123893471
 20
242.766317448
 30
0.0
 42
0.021820078
  0
VERTEX
  8
0
  6
CONTINUOUS
 62
     2
 10
1155.081409136
 20
242.574682996
 30
0.0
 42
0.021820078
  0
VERTEX
  8
0
  6
CONTINUOUS
 62
     2
 10
1155.05578851
 20
242.380075017
 30
0.0
 42
0.021820078
  0
VERTEX
  8
0
  6
CONTINUOUS
 62
     2
 10
1155.04722658
 20
242.183974596
 30
0.0
 42
0.021820078
  0
VERTEX
  8
0
  6
CONTINUOUS
 62
     2
 10
1155.05578851
 20
241.987874175
 30
0.0
 42
0.021820078
  0
VERTEX
  8
0
  6
CONTINUOUS
 62
     2
 10
1155.081409136
 20
241.793266196
 30
0.0
 42
0.021820078
  0
VERTEX
  8
0
  6
CONTINUOUS
 62
     2
 10
1155.123893471
 20
241.601631745
 30
0.0
 42
0.021820078
  0
VERTEX
  8
0
  6
CONTINUOUS
 62
     2
 10
1155.182918183
 20
241.414429274
 30
0.0
 42
0.021820078
  0
VERTEX
  8
0
  6
CONTINUOUS
 62
     2
 10
1155.258034059
 20
241.233083507
 30
0.0
 42
0.021820078
  0
VERTEX
  8
0
  6
CONTINUOUS
 62
     2
 10
1155.348669422
 20
241.058974596
 30
0.0
 42
0.021820078
  0
VERTEX
  8
0
  6
CONTINUOUS
 62
     2
 10
1155.454134481
 20
240.893427614
 30
0.0
 42
0.021820078
  0
VERTEX
  8
0
  6
CONTINUOUS
 62
     2
 10
1155.573626583
 20
240.737702474
 30
0.0
 42
0.021820078
  0
VERTEX
  8
0
  6
CONTINUOUS
 62
     2
 10
1155.706236323
 20
240.592984339
 30
0.0
 42
0.021820078
  0
VERTEX
  8
0
  6
CONTINUOUS
 62
     2
 10
1155.850954458
 20
240.460374599
 30
0.0
 42
0.021820078
  0
VERTEX
  8
0
  6
CONTINUOUS
 62
     2
 10
1156.006679598
 20
240.340882497
 30
0.0
 42
0.021820078
  0
VERTEX
  8
0
  6
CONTINUOUS
 62
     2
 10
1156.17222658
 20
240.235417438
 30
0.0
 42
0.021820078
  0
VERTEX
  8
0
  6
CONTINUOUS
 62
     2
 10
1156.346335491
 20
240.144782075
 30
0.0
 42
0.021820078
  0
VERTEX
  8
0
  6
CONTINUOUS
 62
     2
 10
1156.527681258
 20
240.069666199
 30
0.0
 42
0.021820078
  0
VERTEX
  8
0
  6
CONTINUOUS
 62
     2
 10
1156.714883729
 20
240.010641487
 30
0.0
 42
0.021820078
  0
VERTEX
  8
0
  6
CONTINUOUS
 62
     2
 10
1156.90651818
 20
239.968157152
 30
0.0
 42
0.021820078
  0
VERTEX
  8
0
  6
CONTINUOUS
 62
     2
 10
1157.101126159
 20
239.942536526
 30
0.0
 42
0.021820078
  0
VERTEX
  8
0
  6
CONTINUOUS
 62
     2
 10
1157.29722658
 20
239.933974596
 30
0.0
 42
0.021820078
  0
VERTEX
  8
0
  6
CONTINUOUS
 62
     2
 10
1157.493327001
 20
239.942536526
 30
0.0
 42
0.021820078
  0
VERTEX
  8
0
  6
CONTINUOUS
 62
     2
 10
1157.68793498
 20
239.968157152
 30
0.0
 42
0.021820078
  0
VERTEX
  8
0
  6
CONTINUOUS
 62
     2
 10
1157.879569432
 20
240.010641487
 30
0.0
 42
0.021820078
  0
VERTEX
  8
0
  6
CONTINUOUS
 62
     2
 10
1158.066771903
 20
240.069666199
 30
0.0
 42
0.021820078
  0
VERTEX
  8
0
  6
CONTINUOUS
 62
     2
 10
1158.248117669
 20
240.144782075
 30
0.0
 42
0.021820078
  0
VERTEX
  8
0
  6
CONTINUOUS
 62
     2
 10
1158.42222658
 20
240.235417438
 30
0.0
 42
0.021820078
  0
VERTEX
  8
0
  6
CONTINUOUS
 62
     2
 10
1158.587773562
 20
240.340882497
 30
0.0
 42
0.021820078
  0
VERTEX
  8
0
  6
CONTINUOUS
 62
     2
 10
1158.743498702
 20
240.460374599
 30
0.0
 42
0.021820078
  0
VERTEX
  8
0
  6
CONTINUOUS
 62
     2
 10
1158.888216838
 20
240.592984339
 30
0.0
 42
0.021820078
  0
VERTEX
  8
0
  6
CONTINUOUS
 62
     2
 10
1159.020826577
 20
240.737702474
 30
0.0
 42
0.021820078
  0
VERTEX
  8
0
  6
CONTINUOUS
 62
     2
 10
1159.14031868
 20
240.893427614
 30
0.0
 42
0.021820078
  0
VERTEX
  8
0
  6
CONTINUOUS
 62
     2
 10
1159.245783739
 20
241.058974596
 30
0.0
 42
0.021820078
  0
VERTEX
  8
0
  6
CONTINUOUS
 62
     2
 10
1159.336419101
 20
241.233083507
 30
0.0
 42
0.021820078
  0
VERTEX
  8
0
  6
CONTINUOUS
 62
     2
 10
1159.411534977
 20
241.414429274
 30
0.0
 42
0.021820078
  0
VERTEX
  8
0
  6
CONTINUOUS
 62
     2
 10
1159.470559689
 20
241.601631745
 30
0.0
 42
0.021820078
  0
VERTEX
  8
0
  6
CONTINUOUS
 62
     2
 10
1159.513044024
 20
241.793266196
 30
0.0
 42
0.021820078
  0
VERTEX
  8
0
  6
CONTINUOUS
 62
     2
 10
1159.538664651
 20
241.987874175
 30
0.0
 42
0.021820078
  0
SEQEND
  8
0
  6
CONTINUOUS
 62
     2
  0
POLYLINE
  8
0
  6
CONTINUOUS
 62
     2
 66
     1
 70
     1
  0
VERTEX
  8
0
  6
CONTINUOUS
 62
     2
 10
1174.54722658
 20
242.183974596
 30
0.0
 42
0.021820078
  0
VERTEX
  8
0
  6
CONTINUOUS
 62
     2
 10
1174.538664651
 20
242.380075017
 30
0.0
 42
0.021820078
  0
VERTEX
  8
0
  6
CONTINUOUS
 62
     2
 10
1174.513044024
 20
242.574682996
 30
0.0
 42
0.021820078
  0
VERTEX
  8
0
  6
CONTINUOUS
 62
     2
 10
1174.470559689
 20
242.766317448
 30
0.0
 42
0.021820078
  0
VERTEX
  8
0
  6
CONTINUOUS
 62
     2
 10
1174.411534977
 20
242.953519919
 30
0.0
 42
0.021820078
  0
VERTEX
  8
0
  6
CONTINUOUS
 62
     2
 10
1174.336419101
 20
243.134865685
 30
0.0
 42
0.021820078
  0
VERTEX
  8
0
  6
CONTINUOUS
 62
     2
 10
1174.245783739
 20
243.308974596
 30
0.0
 42
0.021820078
  0
VERTEX
  8
0
  6
CONTINUOUS
 62
     2
 10
1174.14031868
 20
243.474521578
 30
0.0
 42
0.021820078
  0
VERTEX
  8
0
  6
CONTINUOUS
 62
     2
 10
1174.020826577
 20
243.630246718
 30
0.0
 42
0.021820078
  0
VERTEX
  8
0
  6
CONTINUOUS
 62
     2
 10
1173.888216838
 20
243.774964854
 30
0.0
 42
0.021820078
  0
VERTEX
  8
0
  6
CONTINUOUS
 62
     2
 10
1173.743498702
 20
243.907574593
 30
0.0
 42
0.021820078
  0
VERTEX
  8
0
  6
CONTINUOUS
 62
     2
 10
1173.587773562
 20
244.027066696
 30
0.0
 42
0.021820078
  0
VERTEX
  8
0
  6
CONTINUOUS
 62
     2
 10
1173.42222658
 20
244.132531755
 30
0.0
 42
0.021820078
  0
VERTEX
  8
0
  6
CONTINUOUS
 62
     2
 10
1173.248117669
 20
244.223167117
 30
0.0
 42
0.021820078
  0
VERTEX
  8
0
  6
CONTINUOUS
 62
     2
 10
1173.066771903
 20
244.298282993
 30
0.0
 42
0.021820078
  0
VERTEX
  8
0
  6
CONTINUOUS
 62
     2
 10
1172.879569432
 20
244.357307705
 30
0.0
 42
0.021820078
  0
VERTEX
  8
0
  6
CONTINUOUS
 62
     2
 10
1172.68793498
 20
244.39979204
 30
0.0
 42
0.021820078
  0
VERTEX
  8
0
  6
CONTINUOUS
 62
     2
 10
1172.493327001
 20
244.425412667
 30
0.0
 42
0.021820078
  0
VERTEX
  8
0
  6
CONTINUOUS
 62
     2
 10
1172.29722658
 20
244.433974596
 30
0.0
 42
0.021820078
  0
VERTEX
  8
0
  6
CONTINUOUS
 62
     2
 10
1172.101126159
 20
244.425412667
 30
0.0
 42
0.021820078
  0
VERTEX
  8
0
  6
CONTINUOUS
 62
     2
 10
1171.90651818
 20
244.39979204
 30
0.0
 42
0.021820078
  0
VERTEX
  8
0
  6
CONTINUOUS
 62
     2
 10
1171.714883729
 20
244.357307705
 30
0.0
 42
0.021820078
  0
VERTEX
  8
0
  6
CONTINUOUS
 62
     2
 10
1171.527681258
 20
244.298282993
 30
0.0
 42
0.021820078
  0
VERTEX
  8
0
  6
CONTINUOUS
 62
     2
 10
1171.346335491
 20
244.223167117
 30
0.0
 42
0.021820078
  0
VERTEX
  8
0
  6
CONTINUOUS
 62
     2
 10
1171.17222658
 20
244.132531755
 30
0.0
 42
0.021820078
  0
VERTEX
  8
0
  6
CONTINUOUS
 62
     2
 10
1171.006679598
 20
244.027066696
 30
0.0
 42
0.021820078
  0
VERTEX
  8
0
  6
CONTINUOUS
 62
     2
 10
1170.850954458
 20
243.907574593
 30
0.0
 42
0.021820078
  0
VERTEX
  8
0
  6
CONTINUOUS
 62
     2
 10
1170.706236323
 20
243.774964854
 30
0.0
 42
0.021820078
  0
VERTEX
  8
0
  6
CONTINUOUS
 62
     2
 10
1170.573626583
 20
243.630246718
 30
0.0
 42
0.021820078
  0
VERTEX
  8
0
  6
CONTINUOUS
 62
     2
 10
1170.454134481
 20
243.474521578
 30
0.0
 42
0.021820078
  0
VERTEX
  8
0
  6
CONTINUOUS
 62
     2
 10
1170.348669422
 20
243.308974596
 30
0.0
 42
0.021820078
  0
VERTEX
  8
0
  6
CONTINUOUS
 62
     2
 10
1170.258034059
 20
243.134865685
 30
0.0
 42
0.021820078
  0
VERTEX
  8
0
  6
CONTINUOUS
 62
     2
 10
1170.182918183
 20
242.953519919
 30
0.0
 42
0.021820078
  0
VERTEX
  8
0
  6
CONTINUOUS
 62
     2
 10
1170.123893471
 20
242.766317448
 30
0.0
 42
0.021820078
  0
VERTEX
  8
0
  6
CONTINUOUS
 62
     2
 10
1170.081409136
 20
242.574682996
 30
0.0
 42
0.021820078
  0
VERTEX
  8
0
  6
CONTINUOUS
 62
     2
 10
1170.05578851
 20
242.380075017
 30
0.0
 42
0.021820078
  0
VERTEX
  8
0
  6
CONTINUOUS
 62
     2
 10
1170.04722658
 20
242.183974596
 30
0.0
 42
0.021820078
  0
VERTEX
  8
0
  6
CONTINUOUS
 62
     2
 10
1170.05578851
 20
241.987874175
 30
0.0
 42
0.021820078
  0
VERTEX
  8
0
  6
CONTINUOUS
 62
     2
 10
1170.081409136
 20
241.793266196
 30
0.0
 42
0.021820078
  0
VERTEX
  8
0
  6
CONTINUOUS
 62
     2
 10
1170.123893471
 20
241.601631745
 30
0.0
 42
0.021820078
  0
VERTEX
  8
0
  6
CONTINUOUS
 62
     2
 10
1170.182918183
 20
241.414429274
 30
0.0
 42
0.021820078
  0
VERTEX
  8
0
  6
CONTINUOUS
 62
     2
 10
1170.258034059
 20
241.233083507
 30
0.0
 42
0.021820078
  0
VERTEX
  8
0
  6
CONTINUOUS
 62
     2
 10
1170.348669422
 20
241.058974596
 30
0.0
 42
0.021820078
  0
VERTEX
  8
0
  6
CONTINUOUS
 62
     2
 10
1170.454134481
 20
240.893427614
 30
0.0
 42
0.021820078
  0
VERTEX
  8
0
  6
CONTINUOUS
 62
     2
 10
1170.573626583
 20
240.737702474
 30
0.0
 42
0.021820078
  0
VERTEX
  8
0
  6
CONTINUOUS
 62
     2
 10
1170.706236323
 20
240.592984339
 30
0.0
 42
0.021820078
  0
VERTEX
  8
0
  6
CONTINUOUS
 62
     2
 10
1170.850954458
 20
240.460374599
 30
0.0
 42
0.021820078
  0
VERTEX
  8
0
  6
CONTINUOUS
 62
     2
 10
1171.006679598
 20
240.340882497
 30
0.0
 42
0.021820078
  0
VERTEX
  8
0
  6
CONTINUOUS
 62
     2
 10
1171.17222658
 20
240.235417438
 30
0.0
 42
0.021820078
  0
VERTEX
  8
0
  6
CONTINUOUS
 62
     2
 10
1171.346335491
 20
240.144782075
 30
0.0
 42
0.021820078
  0
VERTEX
  8
0
  6
CONTINUOUS
 62
     2
 10
1171.527681258
 20
240.069666199
 30
0.0
 42
0.021820078
  0
VERTEX
  8
0
  6
CONTINUOUS
 62
     2
 10
1171.714883729
 20
240.010641487
 30
0.0
 42
0.021820078
  0
VERTEX
  8
0
  6
CONTINUOUS
 62
     2
 10
1171.90651818
 20
239.968157152
 30
0.0
 42
0.021820078
  0
VERTEX
  8
0
  6
CONTINUOUS
 62
     2
 10
1172.101126159
 20
239.942536526
 30
0.0
 42
0.021820078
  0
VERTEX
  8
0
  6
CONTINUOUS
 62
     2
 10
1172.29722658
 20
239.933974596
 30
0.0
 42
0.021820078
  0
VERTEX
  8
0
  6
CONTINUOUS
 62
     2
 10
1172.493327001
 20
239.942536526
 30
0.0
 42
0.021820078
  0
VERTEX
  8
0
  6
CONTINUOUS
 62
     2
 10
1172.68793498
 20
239.968157152
 30
0.0
 42
0.021820078
  0
VERTEX
  8
0
  6
CONTINUOUS
 62
     2
 10
1172.879569432
 20
240.010641487
 30
0.0
 42
0.021820078
  0
VERTEX
  8
0
  6
CONTINUOUS
 62
     2
 10
1173.066771903
 20
240.069666199
 30
0.0
 42
0.021820078
  0
VERTEX
  8
0
  6
CONTINUOUS
 62
     2
 10
1173.248117669
 20
240.144782075
 30
0.0
 42
0.021820078
  0
VERTEX
  8
0
  6
CONTINUOUS
 62
     2
 10
1173.42222658
 20
240.235417438
 30
0.0
 42
0.021820078
  0
VERTEX
  8
0
  6
CONTINUOUS
 62
     2
 10
1173.587773562
 20
240.340882497
 30
0.0
 42
0.021820078
  0
VERTEX
  8
0
  6
CONTINUOUS
 62
     2
 10
1173.743498702
 20
240.460374599
 30
0.0
 42
0.021820078
  0
VERTEX
  8
0
  6
CONTINUOUS
 62
     2
 10
1173.888216838
 20
240.592984339
 30
0.0
 42
0.021820078
  0
VERTEX
  8
0
  6
CONTINUOUS
 62
     2
 10
1174.020826577
 20
240.737702474
 30
0.0
 42
0.021820078
  0
VERTEX
  8
0
  6
CONTINUOUS
 62
     2
 10
1174.14031868
 20
240.893427614
 30
0.0
 42
0.021820078
  0
VERTEX
  8
0
  6
CONTINUOUS
 62
     2
 10
1174.245783739
 20
241.058974596
 30
0.0
 42
0.021820078
  0
VERTEX
  8
0
  6
CONTINUOUS
 62
     2
 10
1174.336419101
 20
241.233083507
 30
0.0
 42
0.021820078
  0
VERTEX
  8
0
  6
CONTINUOUS
 62
     2
 10
1174.411534977
 20
241.414429274
 30
0.0
 42
0.021820078
  0
VERTEX
  8
0
  6
CONTINUOUS
 62
     2
 10
1174.470559689
 20
241.601631745
 30
0.0
 42
0.021820078
  0
VERTEX
  8
0
  6
CONTINUOUS
 62
     2
 10
1174.513044024
 20
241.793266196
 30
0.0
 42
0.021820078
  0
VERTEX
  8
0
  6
CONTINUOUS
 62
     2
 10
1174.538664651
 20
241.987874175
 30
0.0
 42
0.021820078
  0
SEQEND
  8
0
  6
CONTINUOUS
 62
     2
  0
POLYLINE
  8
0
  6
CONTINUOUS
 62
     2
 66
     1
 70
     1
  0
VERTEX
  8
0
  6
CONTINUOUS
 62
     2
 10
1159.54722658
 20
197.833974596
 30
0.0
 42
-0.021820078
  0
VERTEX
  8
0
  6
CONTINUOUS
 62
     2
 10
1159.538664651
 20
197.637874175
 30
0.0
 42
-0.021820078
  0
VERTEX
  8
0
  6
CONTINUOUS
 62
     2
 10
1159.513044024
 20
197.443266196
 30
0.0
 42
-0.021820078
  0
VERTEX
  8
0
  6
CONTINUOUS
 62
     2
 10
1159.470559689
 20
197.251631745
 30
0.0
 42
-0.021820078
  0
VERTEX
  8
0
  6
CONTINUOUS
 62
     2
 10
1159.411534977
 20
197.064429274
 30
0.0
 42
-0.021820078
  0
VERTEX
  8
0
  6
CONTINUOUS
 62
     2
 10
1159.336419101
 20
196.883083507
 30
0.0
 42
-0.021820078
  0
VERTEX
  8
0
  6
CONTINUOUS
 62
     2
 10
1159.245783739
 20
196.708974596
 30
0.0
 42
-0.021820078
  0
VERTEX
  8
0
  6
CONTINUOUS
 62
     2
 10
1159.14031868
 20
196.543427614
 30
0.0
 42
-0.021820078
  0
VERTEX
  8
0
  6
CONTINUOUS
 62
     2
 10
1159.020826577
 20
196.387702474
 30
0.0
 42
-0.021820078
  0
VERTEX
  8
0
  6
CONTINUOUS
 62
     2
 10
1158.888216838
 20
196.242984339
 30
0.0
 42
-0.021820078
  0
VERTEX
  8
0
  6
CONTINUOUS
 62
     2
 10
1158.743498702
 20
196.110374599
 30
0.0
 42
-0.021820078
  0
VERTEX
  8
0
  6
CONTINUOUS
 62
     2
 10
1158.587773562
 20
195.990882497
 30
0.0
 42
-0.021820078
  0
VERTEX
  8
0
  6
CONTINUOUS
 62
     2
 10
1158.42222658
 20
195.885417438
 30
0.0
 42
-0.021820078
  0
VERTEX
  8
0
  6
CONTINUOUS
 62
     2
 10
1158.248117669
 20
195.794782075
 30
0.0
 42
-0.021820078
  0
VERTEX
  8
0
  6
CONTINUOUS
 62
     2
 10
1158.066771903
 20
195.719666199
 30
0.0
 42
-0.021820078
  0
VERTEX
  8
0
  6
CONTINUOUS
 62
     2
 10
1157.879569432
 20
195.660641487
 30
0.0
 42
-0.021820078
  0
VERTEX
  8
0
  6
CONTINUOUS
 62
     2
 10
1157.68793498
 20
195.618157152
 30
0.0
 42
-0.021820078
  0
VERTEX
  8
0
  6
CONTINUOUS
 62
     2
 10
1157.493327001
 20
195.592536526
 30
0.0
 42
-0.021820078
  0
VERTEX
  8
0
  6
CONTINUOUS
 62
     2
 10
1157.29722658
 20
195.583974596
 30
0.0
 42
-0.021820078
  0
VERTEX
  8
0
  6
CONTINUOUS
 62
     2
 10
1157.101126159
 20
195.592536526
 30
0.0
 42
-0.021820078
  0
VERTEX
  8
0
  6
CONTINUOUS
 62
     2
 10
1156.90651818
 20
195.618157152
 30
0.0
 42
-0.021820078
  0
VERTEX
  8
0
  6
CONTINUOUS
 62
     2
 10
1156.714883729
 20
195.660641487
 30
0.0
 42
-0.021820078
  0
VERTEX
  8
0
  6
CONTINUOUS
 62
     2
 10
1156.527681258
 20
195.719666199
 30
0.0
 42
-0.021820078
  0
VERTEX
  8
0
  6
CONTINUOUS
 62
     2
 10
1156.346335491
 20
195.794782075
 30
0.0
 42
-0.021820078
  0
VERTEX
  8
0
  6
CONTINUOUS
 62
     2
 10
1156.17222658
 20
195.885417438
 30
0.0
 42
-0.021820078
  0
VERTEX
  8
0
  6
CONTINUOUS
 62
     2
 10
1156.006679598
 20
195.990882497
 30
0.0
 42
-0.021820078
  0
VERTEX
  8
0
  6
CONTINUOUS
 62
     2
 10
1155.850954458
 20
196.110374599
 30
0.0
 42
-0.021820078
  0
VERTEX
  8
0
  6
CONTINUOUS
 62
     2
 10
1155.706236323
 20
196.242984339
 30
0.0
 42
-0.021820078
  0
VERTEX
  8
0
  6
CONTINUOUS
 62
     2
 10
1155.573626583
 20
196.387702474
 30
0.0
 42
-0.021820078
  0
VERTEX
  8
0
  6
CONTINUOUS
 62
     2
 10
1155.454134481
 20
196.543427614
 30
0.0
 42
-0.021820078
  0
VERTEX
  8
0
  6
CONTINUOUS
 62
     2
 10
1155.348669422
 20
196.708974596
 30
0.0
 42
-0.021820078
  0
VERTEX
  8
0
  6
CONTINUOUS
 62
     2
 10
1155.258034059
 20
196.883083507
 30
0.0
 42
-0.021820078
  0
VERTEX
  8
0
  6
CONTINUOUS
 62
     2
 10
1155.182918183
 20
197.064429274
 30
0.0
 42
-0.021820078
  0
VERTEX
  8
0
  6
CONTINUOUS
 62
     2
 10
1155.123893471
 20
197.251631745
 30
0.0
 42
-0.021820078
  0
VERTEX
  8
0
  6
CONTINUOUS
 62
     2
 10
1155.081409136
 20
197.443266196
 30
0.0
 42
-0.021820078
  0
VERTEX
  8
0
  6
CONTINUOUS
 62
     2
 10
1155.05578851
 20
197.637874175
 30
0.0
 42
-0.021820078
  0
VERTEX
  8
0
  6
CONTINUOUS
 62
     2
 10
1155.04722658
 20
197.833974596
 30
0.0
 42
-0.021820078
  0
VERTEX
  8
0
  6
CONTINUOUS
 62
     2
 10
1155.05578851
 20
198.030075017
 30
0.0
 42
-0.021820078
  0
VERTEX
  8
0
  6
CONTINUOUS
 62
     2
 10
1155.081409136
 20
198.224682996
 30
0.0
 42
-0.021820078
  0
VERTEX
  8
0
  6
CONTINUOUS
 62
     2
 10
1155.123893471
 20
198.416317448
 30
0.0
 42
-0.021820078
  0
VERTEX
  8
0
  6
CONTINUOUS
 62
     2
 10
1155.182918183
 20
198.603519919
 30
0.0
 42
-0.021820078
  0
VERTEX
  8
0
  6
CONTINUOUS
 62
     2
 10
1155.258034059
 20
198.784865685
 30
0.0
 42
-0.021820078
  0
VERTEX
  8
0
  6
CONTINUOUS
 62
     2
 10
1155.348669422
 20
198.958974596
 30
0.0
 42
-0.021820078
  0
VERTEX
  8
0
  6
CONTINUOUS
 62
     2
 10
1155.454134481
 20
199.124521578
 30
0.0
 42
-0.021820078
  0
VERTEX
  8
0
  6
CONTINUOUS
 62
     2
 10
1155.573626583
 20
199.280246718
 30
0.0
 42
-0.021820078
  0
VERTEX
  8
0
  6
CONTINUOUS
 62
     2
 10
1155.706236323
 20
199.424964854
 30
0.0
 42
-0.021820078
  0
VERTEX
  8
0
  6
CONTINUOUS
 62
     2
 10
1155.850954458
 20
199.557574593
 30
0.0
 42
-0.021820078
  0
VERTEX
  8
0
  6
CONTINUOUS
 62
     2
 10
1156.006679598
 20
199.677066696
 30
0.0
 42
-0.021820078
  0
VERTEX
  8
0
  6
CONTINUOUS
 62
     2
 10
1156.17222658
 20
199.782531755
 30
0.0
 42
-0.021820078
  0
VERTEX
  8
0
  6
CONTINUOUS
 62
     2
 10
1156.346335491
 20
199.873167117
 30
0.0
 42
-0.021820078
  0
VERTEX
  8
0
  6
CONTINUOUS
 62
     2
 10
1156.527681258
 20
199.948282993
 30
0.0
 42
-0.021820078
  0
VERTEX
  8
0
  6
CONTINUOUS
 62
     2
 10
1156.714883729
 20
200.007307705
 30
0.0
 42
-0.021820078
  0
VERTEX
  8
0
  6
CONTINUOUS
 62
     2
 10
1156.90651818
 20
200.04979204
 30
0.0
 42
-0.021820078
  0
VERTEX
  8
0
  6
CONTINUOUS
 62
     2
 10
1157.101126159
 20
200.075412667
 30
0.0
 42
-0.021820078
  0
VERTEX
  8
0
  6
CONTINUOUS
 62
     2
 10
1157.29722658
 20
200.083974596
 30
0.0
 42
-0.021820078
  0
VERTEX
  8
0
  6
CONTINUOUS
 62
     2
 10
1157.493327001
 20
200.075412667
 30
0.0
 42
-0.021820078
  0
VERTEX
  8
0
  6
CONTINUOUS
 62
     2
 10
1157.68793498
 20
200.04979204
 30
0.0
 42
-0.021820078
  0
VERTEX
  8
0
  6
CONTINUOUS
 62
     2
 10
1157.879569432
 20
200.007307705
 30
0.0
 42
-0.021820078
  0
VERTEX
  8
0
  6
CONTINUOUS
 62
     2
 10
1158.066771903
 20
199.948282993
 30
0.0
 42
-0.021820078
  0
VERTEX
  8
0
  6
CONTINUOUS
 62
     2
 10
1158.248117669
 20
199.873167117
 30
0.0
 42
-0.021820078
  0
VERTEX
  8
0
  6
CONTINUOUS
 62
     2
 10
1158.42222658
 20
199.782531755
 30
0.0
 42
-0.021820078
  0
VERTEX
  8
0
  6
CONTINUOUS
 62
     2
 10
1158.587773562
 20
199.677066696
 30
0.0
 42
-0.021820078
  0
VERTEX
  8
0
  6
CONTINUOUS
 62
     2
 10
1158.743498702
 20
199.557574593
 30
0.0
 42
-0.021820078
  0
VERTEX
  8
0
  6
CONTINUOUS
 62
     2
 10
1158.888216838
 20
199.424964854
 30
0.0
 42
-0.021820078
  0
VERTEX
  8
0
  6
CONTINUOUS
 62
     2
 10
1159.020826577
 20
199.280246718
 30
0.0
 42
-0.021820078
  0
VERTEX
  8
0
  6
CONTINUOUS
 62
     2
 10
1159.14031868
 20
199.124521578
 30
0.0
 42
-0.021820078
  0
VERTEX
  8
0
  6
CONTINUOUS
 62
     2
 10
1159.245783739
 20
198.958974596
 30
0.0
 42
-0.021820078
  0
VERTEX
  8
0
  6
CONTINUOUS
 62
     2
 10
1159.336419101
 20
198.784865685
 30
0.0
 42
-0.021820078
  0
VERTEX
  8
0
  6
CONTINUOUS
 62
     2
 10
1159.411534977
 20
198.603519919
 30
0.0
 42
-0.021820078
  0
VERTEX
  8
0
  6
CONTINUOUS
 62
     2
 10
1159.470559689
 20
198.416317448
 30
0.0
 42
-0.021820078
  0
VERTEX
  8
0
  6
CONTINUOUS
 62
     2
 10
1159.513044024
 20
198.224682996
 30
0.0
 42
-0.021820078
  0
VERTEX
  8
0
  6
CONTINUOUS
 62
     2
 10
1159.538664651
 20
198.030075017
 30
0.0
 42
-0.021820078
  0
SEQEND
  8
0
  6
CONTINUOUS
 62
     2
  0
POLYLINE
  8
0
  6
CONTINUOUS
 62
     2
 66
     1
 70
     1
  0
VERTEX
  8
0
  6
CONTINUOUS
 62
     2
 10
1174.54722658
 20
197.833974596
 30
0.0
 42
-0.021820078
  0
VERTEX
  8
0
  6
CONTINUOUS
 62
     2
 10
1174.538664651
 20
197.637874175
 30
0.0
 42
-0.021820078
  0
VERTEX
  8
0
  6
CONTINUOUS
 62
     2
 10
1174.513044024
 20
197.443266196
 30
0.0
 42
-0.021820078
  0
VERTEX
  8
0
  6
CONTINUOUS
 62
     2
 10
1174.470559689
 20
197.251631745
 30
0.0
 42
-0.021820078
  0
VERTEX
  8
0
  6
CONTINUOUS
 62
     2
 10
1174.411534977
 20
197.064429274
 30
0.0
 42
-0.021820078
  0
VERTEX
  8
0
  6
CONTINUOUS
 62
     2
 10
1174.336419101
 20
196.883083507
 30
0.0
 42
-0.021820078
  0
VERTEX
  8
0
  6
CONTINUOUS
 62
     2
 10
1174.245783739
 20
196.708974596
 30
0.0
 42
-0.021820078
  0
VERTEX
  8
0
  6
CONTINUOUS
 62
     2
 10
1174.14031868
 20
196.543427614
 30
0.0
 42
-0.021820078
  0
VERTEX
  8
0
  6
CONTINUOUS
 62
     2
 10
1174.020826577
 20
196.387702474
 30
0.0
 42
-0.021820078
  0
VERTEX
  8
0
  6
CONTINUOUS
 62
     2
 10
1173.888216838
 20
196.242984339
 30
0.0
 42
-0.021820078
  0
VERTEX
  8
0
  6
CONTINUOUS
 62
     2
 10
1173.743498702
 20
196.110374599
 30
0.0
 42
-0.021820078
  0
VERTEX
  8
0
  6
CONTINUOUS
 62
     2
 10
1173.587773562
 20
195.990882497
 30
0.0
 42
-0.021820078
  0
VERTEX
  8
0
  6
CONTINUOUS
 62
     2
 10
1173.42222658
 20
195.885417438
 30
0.0
 42
-0.021820078
  0
VERTEX
  8
0
  6
CONTINUOUS
 62
     2
 10
1173.248117669
 20
195.794782075
 30
0.0
 42
-0.021820078
  0
VERTEX
  8
0
  6
CONTINUOUS
 62
     2
 10
1173.066771903
 20
195.719666199
 30
0.0
 42
-0.021820078
  0
VERTEX
  8
0
  6
CONTINUOUS
 62
     2
 10
1172.879569432
 20
195.660641487
 30
0.0
 42
-0.021820078
  0
VERTEX
  8
0
  6
CONTINUOUS
 62
     2
 10
1172.68793498
 20
195.618157152
 30
0.0
 42
-0.021820078
  0
VERTEX
  8
0
  6
CONTINUOUS
 62
     2
 10
1172.493327001
 20
195.592536526
 30
0.0
 42
-0.021820078
  0
VERTEX
  8
0
  6
CONTINUOUS
 62
     2
 10
1172.29722658
 20
195.583974596
 30
0.0
 42
-0.021820078
  0
VERTEX
  8
0
  6
CONTINUOUS
 62
     2
 10
1172.101126159
 20
195.592536526
 30
0.0
 42
-0.021820078
  0
VERTEX
  8
0
  6
CONTINUOUS
 62
     2
 10
1171.90651818
 20
195.618157152
 30
0.0
 42
-0.021820078
  0
VERTEX
  8
0
  6
CONTINUOUS
 62
     2
 10
1171.714883729
 20
195.660641487
 30
0.0
 42
-0.021820078
  0
VERTEX
  8
0
  6
CONTINUOUS
 62
     2
 10
1171.527681258
 20
195.719666199
 30
0.0
 42
-0.021820078
  0
VERTEX
  8
0
  6
CONTINUOUS
 62
     2
 10
1171.346335491
 20
195.794782075
 30
0.0
 42
-0.021820078
  0
VERTEX
  8
0
  6
CONTINUOUS
 62
     2
 10
1171.17222658
 20
195.885417438
 30
0.0
 42
-0.021820078
  0
VERTEX
  8
0
  6
CONTINUOUS
 62
     2
 10
1171.006679598
 20
195.990882497
 30
0.0
 42
-0.021820078
  0
VERTEX
  8
0
  6
CONTINUOUS
 62
     2
 10
1170.850954458
 20
196.110374599
 30
0.0
 42
-0.021820078
  0
VERTEX
  8
0
  6
CONTINUOUS
 62
     2
 10
1170.706236323
 20
196.242984339
 30
0.0
 42
-0.021820078
  0
VERTEX
  8
0
  6
CONTINUOUS
 62
     2
 10
1170.573626583
 20
196.387702474
 30
0.0
 42
-0.021820078
  0
VERTEX
  8
0
  6
CONTINUOUS
 62
     2
 10
1170.454134481
 20
196.543427614
 30
0.0
 42
-0.021820078
  0
VERTEX
  8
0
  6
CONTINUOUS
 62
     2
 10
1170.348669422
 20
196.708974596
 30
0.0
 42
-0.021820078
  0
VERTEX
  8
0
  6
CONTINUOUS
 62
     2
 10
1170.258034059
 20
196.883083507
 30
0.0
 42
-0.021820078
  0
VERTEX
  8
0
  6
CONTINUOUS
 62
     2
 10
1170.182918183
 20
197.064429274
 30
0.0
 42
-0.021820078
  0
VERTEX
  8
0
  6
CONTINUOUS
 62
     2
 10
1170.123893471
 20
197.251631745
 30
0.0
 42
-0.021820078
  0
VERTEX
  8
0
  6
CONTINUOUS
 62
     2
 10
1170.081409136
 20
197.443266196
 30
0.0
 42
-0.021820078
  0
VERTEX
  8
0
  6
CONTINUOUS
 62
     2
 10
1170.05578851
 20
197.637874175
 30
0.0
 42
-0.021820078
  0
VERTEX
  8
0
  6
CONTINUOUS
 62
     2
 10
1170.04722658
 20
197.833974596
 30
0.0
 42
-0.021820078
  0
VERTEX
  8
0
  6
CONTINUOUS
 62
     2
 10
1170.05578851
 20
198.030075017
 30
0.0
 42
-0.021820078
  0
VERTEX
  8
0
  6
CONTINUOUS
 62
     2
 10
1170.081409136
 20
198.224682996
 30
0.0
 42
-0.021820078
  0
VERTEX
  8
0
  6
CONTINUOUS
 62
     2
 10
1170.123893471
 20
198.416317448
 30
0.0
 42
-0.021820078
  0
VERTEX
  8
0
  6
CONTINUOUS
 62
     2
 10
1170.182918183
 20
198.603519919
 30
0.0
 42
-0.021820078
  0
VERTEX
  8
0
  6
CONTINUOUS
 62
     2
 10
1170.258034059
 20
198.784865685
 30
0.0
 42
-0.021820078
  0
VERTEX
  8
0
  6
CONTINUOUS
 62
     2
 10
1170.348669422
 20
198.958974596
 30
0.0
 42
-0.021820078
  0
VERTEX
  8
0
  6
CONTINUOUS
 62
     2
 10
1170.454134481
 20
199.124521578
 30
0.0
 42
-0.021820078
  0
VERTEX
  8
0
  6
CONTINUOUS
 62
     2
 10
1170.573626583
 20
199.280246718
 30
0.0
 42
-0.021820078
  0
VERTEX
  8
0
  6
CONTINUOUS
 62
     2
 10
1170.706236323
 20
199.424964854
 30
0.0
 42
-0.021820078
  0
VERTEX
  8
0
  6
CONTINUOUS
 62
     2
 10
1170.850954458
 20
199.557574593
 30
0.0
 42
-0.021820078
  0
VERTEX
  8
0
  6
CONTINUOUS
 62
     2
 10
1171.006679598
 20
199.677066696
 30
0.0
 42
-0.021820078
  0
VERTEX
  8
0
  6
CONTINUOUS
 62
     2
 10
1171.17222658
 20
199.782531755
 30
0.0
 42
-0.021820078
  0
VERTEX
  8
0
  6
CONTINUOUS
 62
     2
 10
1171.346335491
 20
199.873167117
 30
0.0
 42
-0.021820078
  0
VERTEX
  8
0
  6
CONTINUOUS
 62
     2
 10
1171.527681258
 20
199.948282993
 30
0.0
 42
-0.021820078
  0
VERTEX
  8
0
  6
CONTINUOUS
 62
     2
 10
1171.714883729
 20
200.007307705
 30
0.0
 42
-0.021820078
  0
VERTEX
  8
0
  6
CONTINUOUS
 62
     2
 10
1171.90651818
 20
200.04979204
 30
0.0
 42
-0.021820078
  0
VERTEX
  8
0
  6
CONTINUOUS
 62
     2
 10
1172.101126159
 20
200.075412667
 30
0.0
 42
-0.021820078
  0
VERTEX
  8
0
  6
CONTINUOUS
 62
     2
 10
1172.29722658
 20
200.083974596
 30
0.0
 42
-0.021820078
  0
VERTEX
  8
0
  6
CONTINUOUS
 62
     2
 10
1172.493327001
 20
200.075412667
 30
0.0
 42
-0.021820078
  0
VERTEX
  8
0
  6
CONTINUOUS
 62
     2
 10
1172.68793498
 20
200.04979204
 30
0.0
 42
-0.021820078
  0
VERTEX
  8
0
  6
CONTINUOUS
 62
     2
 10
1172.879569432
 20
200.007307705
 30
0.0
 42
-0.021820078
  0
VERTEX
  8
0
  6
CONTINUOUS
 62
     2
 10
1173.066771903
 20
199.948282993
 30
0.0
 42
-0.021820078
  0
VERTEX
  8
0
  6
CONTINUOUS
 62
     2
 10
1173.248117669
 20
199.873167117
 30
0.0
 42
-0.021820078
  0
VERTEX
  8
0
  6
CONTINUOUS
 62
     2
 10
1173.42222658
 20
199.782531755
 30
0.0
 42
-0.021820078
  0
VERTEX
  8
0
  6
CONTINUOUS
 62
     2
 10
1173.587773562
 20
199.677066696
 30
0.0
 42
-0.021820078
  0
VERTEX
  8
0
  6
CONTINUOUS
 62
     2
 10
1173.743498702
 20
199.557574593
 30
0.0
 42
-0.021820078
  0
VERTEX
  8
0
  6
CONTINUOUS
 62
     2
 10
1173.888216838
 20
199.424964854
 30
0.0
 42
-0.021820078
  0
VERTEX
  8
0
  6
CONTINUOUS
 62
     2
 10
1174.020826577
 20
199.280246718
 30
0.0
 42
-0.021820078
  0
VERTEX
  8
0
  6
CONTINUOUS
 62
     2
 10
1174.14031868
 20
199.124521578
 30
0.0
 42
-0.021820078
  0
VERTEX
  8
0
  6
CONTINUOUS
 62
     2
 10
1174.245783739
 20
198.958974596
 30
0.0
 42
-0.021820078
  0
VERTEX
  8
0
  6
CONTINUOUS
 62
     2
 10
1174.336419101
 20
198.784865685
 30
0.0
 42
-0.021820078
  0
VERTEX
  8
0
  6
CONTINUOUS
 62
     2
 10
1174.411534977
 20
198.603519919
 30
0.0
 42
-0.021820078
  0
VERTEX
  8
0
  6
CONTINUOUS
 62
     2
 10
1174.470559689
 20
198.416317448
 30
0.0
 42
-0.021820078
  0
VERTEX
  8
0
  6
CONTINUOUS
 62
     2
 10
1174.513044024
 20
198.224682996
 30
0.0
 42
-0.021820078
  0
VERTEX
  8
0
  6
CONTINUOUS
 62
     2
 10
1174.538664651
 20
198.030075017
 30
0.0
 42
-0.021820078
  0
SEQEND
  8
0
  6
CONTINUOUS
 62
     2
  0
TEXT
  8
0
  6
CONTINUOUS
 62
     2
 10
1148.54722658
 20
187.433974596
 30
0.0
 40
10.0
  1
１
 50
0.0
 41
0.85
 51
0.0
  7
KANJI51
  0
TEXT
  8
0
  6
CONTINUOUS
 62
     2
 10
1173.54722658
 20
187.433974596
 30
0.0
 40
10.0
  1
２
 50
0.0
 41
0.85
 51
0.0
  7
KANJI51
  0
TEXT
  8
0
  6
CONTINUOUS
 62
     2
 10
1182.64722658
 20
242.133974596
 30
0.0
 40
10.0
  1
（ＮＯ）
 50
0.0
 41
0.75
 51
0.0
  7
KANJI46
  0
TEXT
  8
0
  6
CONTINUOUS
 62
     2
 10
1182.64722658
 20
184.633974596
 30
0.0
 40
10.0
  1
（ＮＣ）
 50
0.0
 41
0.75
 51
0.0
  7
KANJI46
  0
TEXT
  8
0
  6
CONTINUOUS
 62
     2
 10
1137.77222658
 20
136.633974596
 30
0.0
 40
15.0
  1
端子符号
 50
0.0
 41
0.9
 51
0.0
  7
KANJI36
  0
LINE
  8
0
  6
CONTINUOUS
 62
     2
 10
1242.27222658
 20
143.133974596
 30
0.0
 11
1242.27222658
 21
312.883974596
 31
0.0
  0
LINE
  8
0
  6
CONTINUOUS
 62
     2
 10
1197.27222658
 20
143.133974596
 30
0.0
 11
1242.27222658
 21
143.133974596
 31
0.0
  0
LINE
  8
2
  6
CONTINUOUS
 62
     2
 10
1144.164725201
 20
347.533974596
 30
0.0
 11
1144.164725201
 21
326.533974596
 31
0.0
  0
LINE
  8
2
  6
CONTINUOUS
 62
     2
 10
1144.164725201
 20
336.533974596
 30
0.0
 11
1156.238798029
 21
333.298736532
 31
0.0
  0
LINE
  8
2
  6
CONTINUOUS
 62
     2
 10
1144.164725201
 20
336.533974596
 30
0.0
 11
1156.238798029
 21
339.76921266
 31
0.0
  0
LINE
  8
2
  6
CONTINUOUS
 62
     2
 10
1144.164725201
 20
336.533974596
 30
0.0
 11
1174.164725201
 21
336.533974596
 31
0.0
  0
LINE
  8
2
  6
CONTINUOUS
 62
     2
 10
1174.164725201
 20
336.533974596
 30
0.0
 11
1162.090652372
 21
339.76921266
 31
0.0
  0
LINE
  8
2
  6
CONTINUOUS
 62
     2
 10
1174.164725201
 20
336.533974596
 30
0.0
 11
1162.090652372
 21
333.298736532
 31
0.0
  0
TEXT
  8
2
  6
CONTINUOUS
 62
     2
 10
1146.414725201
 20
341.533974596
 30
1.5
 40
15.0
  1
３０
 50
0.0
 41
0.9
 51
0.0
  7
KANJI43
  0
LINE
  8
0
  6
CONTINUOUS
 62
     2
 10
1330.099349899
 20
783.299349899
 30
0.0
 11
1275.099349899
 21
951.399349899
 31
0.0
  0
LINE
  8
0
  6
CONTINUOUS
 62
     2
 10
1369.899349899
 20
951.399349899
 30
0.0
 11
1207.899349899
 21
951.399349899
 31
0.0
  0
TEXT
  8
0
  6
CONTINUOUS
 62
     3
 10
1207.899349899
 20
954.399349899
 30
0.0
 40
18.0
  1
ＬＳユニット組付位置
 50
0.0
 41
0.9
 51
0.0
  7
KANJI44
  0
LINE
  8
0
  6
CONTINUOUS
 62
     2
 10
1356.364725201
 20
639.033974596
 30
0.0
 11
1356.364725201
 21
391.033974596
 31
0.0
  0
LINE
  8
0
  6
LTYPE5
 62
     2
 10
1331.864725201
 20
838.033974596
 30
0.0
 11
1571.864725201
 21
838.033974596
 31
0.0
  0
LINE
  8
0
  6
LTYPE1
 62
     2
 10
1386.364725201
 20
649.533974596
 30
0.0
 11
1356.364725201
 21
649.533974596
 31
0.0
  0
LINE
  8
0
  6
LTYPE1
 62
     2
 10
1386.364725201
 20
674.533974596
 30
0.0
 11
1356.364725201
 21
674.533974596
 31
0.0
  0
LINE
  8
0
  6
LTYPE5
 62
     2
 10
1347.364725201
 20
662.033974596
 30
0.0
 11
1554.864725201
 21
662.033974596
 31
0.0
  0
LINE
  8
0
  6
CONTINUOUS
 62
     2
 10
1358.864725201
 20
578.033974596
 30
0.0
 11
1358.864725201
 21
441.033974596
 31
0.0
  0
LINE
  8
0
  6
CONTINUOUS
 62
     2
 10
1358.864725201
 20
446.033974596
 30
0.0
 11
1370.938798029
 21
442.798736532
 31
0.0
  0
LINE
  8
0
  6
CONTINUOUS
 62
     2
 10
1358.864725201
 20
446.033974596
 30
0.0
 11
1370.938798029
 21
449.26921266
 31
0.0
  0
LINE
  8
0
  6
CONTINUOUS
 62
     2
 10
1356.364725201
 20
396.033974596
 30
0.0
 11
1368.438798029
 21
392.798736532
 31
0.0
  0
LINE
  8
0
  6
CONTINUOUS
 62
     2
 10
1356.364725201
 20
396.033974596
 30
0.0
 11
1368.438798029
 21
399.26921266
 31
0.0
  0
LINE
  8
0
  6
CONTINUOUS
 62
     2
 10
1358.864725201
 20
446.033974596
 30
0.0
 11
1543.864725201
 21
446.033974596
 31
0.0
  0
TEXT
  8
0
  6
CONTINUOUS
 62
     2
 10
1428.864725201
 20
451.033974596
 30
1.5
 40
15.0
  1
１８５
 50
0.0
 41
0.933333333
 51
0.0
  7
KANJI52
  0
LINE
  8
0
  6
CONTINUOUS
 62
     2
 10
1356.364725201
 20
396.033974596
 30
0.0
 11
1546.364725201
 21
396.033974596
 31
0.0
  0
TEXT
  8
0
  6
CONTINUOUS
 62
     2
 10
1428.864725201
 20
401.033974596
 30
1.5
 40
15.0
  1
１９０
 50
0.0
 41
0.933333333
 51
0.0
  7
KANJI52
  0
ARC
  8
0
  6
CONTINUOUS
 62
     1
 10
1368.864725201
 20
578.033974596
 30
0.0
 40
10.0
 50
180.0
 51
270.0
  0
ARC
  8
0
  6
CONTINUOUS
 62
     1
 10
1392.364725201
 20
603.033974596
 30
0.0
 40
8.0
 50
180.0
 51
270.0
  0
LINE
  8
0
  6
CONTINUOUS
 62
     1
 10
1392.364725201
 20
595.033974596
 30
0.0
 11
1403.364725201
 21
595.033974596
 31
0.0
  0
ARC
  8
0
  6
CONTINUOUS
 62
     1
 10
1403.364725201
 20
591.533974596
 30
0.0
 40
3.0
 50
90.0
 51
180.0
  0
LINE
  8
0
  6
CONTINUOUS
 62
     1
 10
1400.364725201
 20
545.033974596
 30
0.0
 11
1400.364725201
 21
591.533974596
 31
0.0
  0
ARC
  8
0
  6
CONTINUOUS
 62
     1
 10
1401.364725201
 20
545.033974596
 30
0.0
 40
1.0
 50
180.0
 51
270.0
  0
ARC
  8
0
  6
CONTINUOUS
 62
     1
 10
1404.364725201
 20
544.033974596
 30
0.0
 40
1.0
 50
180.0
 51
270.0
  0
LINE
  8
0
  6
CONTINUOUS
 62
     1
 10
1502.364725201
 20
550.033974596
 30
0.0
 11
1400.364725201
 21
550.033974596
 31
0.0
  0
LINE
  8
0
  6
CONTINUOUS
 62
     1
 10
1502.364725201
 20
551.533974596
 30
0.0
 11
1400.364725201
 21
551.533974596
 31
0.0
  0
LINE
  8
0
  6
CONTINUOUS
 62
     1
 10
1498.364725201
 20
543.033974596
 30
0.0
 11
1404.364725201
 21
543.033974596
 31
0.0
  0
LINE
  8
0
  6
CONTINUOUS
 62
     1
 10
1501.364725201
 20
544.033974596
 30
0.0
 11
1401.364725201
 21
544.033974596
 31
0.0
  0
LINE
  8
0
  6
CONTINUOUS
 62
     1
 10
1368.864725201
 20
568.033974596
 30
0.0
 11
1400.364725201
 21
568.033974596
 31
0.0
  0
LINE
  8
0
  6
CONTINUOUS
 62
     1
 10
1358.864725201
 20
578.033974596
 30
0.0
 11
1358.864725201
 21
638.727210886
 31
0.0
  0
LINE
  8
0
  6
LTYPE3
 62
     2
 10
1398.364725201
 20
701.033974596
 30
0.0
 11
1398.364725201
 21
727.533974596
 31
0.0
  0
LINE
  8
0
  6
LTYPE3
 62
     2
 10
1412.864725201
 20
715.033974596
 30
0.0
 11
1385.864725201
 21
715.033974596
 31
0.0
  0
LINE
  8
0
  6
LTYPE3
 62
     2
 10
1412.364725201
 20
609.033974596
 30
0.0
 11
1385.864725201
 21
609.033974596
 31
0.0
  0
LINE
  8
0
  6
LTYPE3
 62
     2
 10
1398.364725201
 20
623.533974596
 30
0.0
 11
1398.364725201
 21
596.533974596
 31
0.0
  0
LINE
  8
0
  6
LTYPE3
 62
     2
 10
1406.364725201
 20
539.333974596
 30
0.0
 11
1406.364725201
 21
558.033974596
 31
0.0
  0
LINE
  8
0
  6
LTYPE1
 62
     2
 10
1386.364725201
 20
649.533974596
 30
0.0
 11
1386.364725201
 21
674.533974596
 31
0.0
  0
CIRCLE
  8
0
  6
CONTINUOUS
 62
     2
 10
1451.364725201
 20
568.533974596
 30
0.0
 40
10.4775
  0
CIRCLE
  8
0
  6
CONTINUOUS
 62
     2
 10
1451.364725201
 20
568.533974596
 30
0.0
 40
9.3155
  0
LINE
  8
0
  6
LTYPE2
 62
     2
 10
1471.264725201
 20
568.533974596
 30
0.0
 11
1430.564725201
 21
568.533974596
 31
0.0
  0
ARC
  8
0
  6
CONTINUOUS
 62
     1
 10
1466.352720397
 20
792.433974596
 30
0.0
 40
8.0
 50
108.194872339
 51
159.512684885
  0
ARC
  8
0
  6
CONTINUOUS
 62
     1
 10
1436.376730005
 20
792.433974596
 30
0.0
 40
8.0
 50
20.487315115
 51
71.805127661
  0
ARC
  8
0
  6
CONTINUOUS
 62
     1
 10
1451.364725201
 20
798.033974596
 30
0.0
 40
8.0
 50
200.487459889
 51
339.512684885
  0
ARC
  8
0
  6
CONTINUOUS
 62
     1
 10
1451.364725201
 20
838.033974596
 30
0.0
 40
40.0
 50
108.194872339
 51
251.805127661
  0
CIRCLE
  8
0
  6
CONTINUOUS
 62
     1
 10
1451.364725201
 20
838.033974596
 30
0.0
 40
23.0
  0
ARC
  8
0
  6
CONTINUOUS
 62
     1
 10
1451.364725201
 20
838.033974596
 30
0.0
 40
40.0
 50
25.554707728
 51
71.805142343
  0
ARC
  8
0
  6
CONTINUOUS
 62
     1
 10
1451.364725201
 20
838.033974596
 30
0.0
 40
40.0
 50
288.194857657
 51
334.445306215
  0
LINE
  8
0
  6
CONTINUOUS
 62
     1
 10
1453.714725201
 20
790.963655198
 30
0.0
 11
1449.014725201
 21
790.963655198
 31
0.0
  0
LINE
  8
0
  6
CONTINUOUS
 62
     1
 10
1449.014725201
 20
790.963655198
 30
0.0
 11
1446.664725201
 21
795.033974596
 31
0.0
  0
LINE
  8
0
  6
CONTINUOUS
 62
     1
 10
1446.664725201
 20
795.033974596
 30
0.0
 11
1449.014725201
 21
799.104293994
 31
0.0
  0
LINE
  8
0
  6
CONTINUOUS
 62
     1
 10
1449.014725201
 20
799.104293994
 30
0.0
 11
1453.714725201
 21
799.104293994
 31
0.0
  0
LINE
  8
0
  6
CONTINUOUS
 62
     1
 10
1453.714725201
 20
799.104293994
 30
0.0
 11
1456.064725201
 21
795.033974596
 31
0.0
  0
LINE
  8
0
  6
CONTINUOUS
 62
     1
 10
1456.064725201
 20
795.033974596
 30
0.0
 11
1453.714725201
 21
790.963655198
 31
0.0
  0
LINE
  8
0
  6
CONTINUOUS
 62
     2
 10
1457.364725201
 20
795.033974596
 30
0.0
 11
1445.364725201
 21
795.033974596
 31
0.0
  0
LINE
  8
0
  6
CONTINUOUS
 62
     1
 10
1446.428380399
 20
840.883974596
 30
0.0
 11
1446.428380399
 21
835.183974596
 31
0.0
  0
LINE
  8
0
  6
CONTINUOUS
 62
     1
 10
1446.428380399
 20
835.183974596
 30
0.0
 11
1451.364725201
 21
832.333974596
 31
0.0
  0
LINE
  8
0
  6
CONTINUOUS
 62
     1
 10
1451.364725201
 20
832.333974596
 30
0.0
 11
1456.301070002
 21
835.183974596
 31
0.0
  0
LINE
  8
0
  6
CONTINUOUS
 62
     1
 10
1456.301070002
 20
835.183974596
 30
0.0
 11
1456.301070002
 21
840.883974596
 31
0.0
  0
LINE
  8
0
  6
CONTINUOUS
 62
     1
 10
1456.301070002
 20
840.883974596
 30
0.0
 11
1451.364725201
 21
843.733974596
 31
0.0
  0
LINE
  8
0
  6
CONTINUOUS
 62
     1
 10
1451.364725201
 20
843.733974596
 30
0.0
 11
1446.428380399
 21
840.883974596
 31
0.0
  0
CIRCLE
  8
0
  6
CONTINUOUS
 62
     1
 10
1451.364725201
 20
838.033974596
 30
0.0
 40
6.5
  0
LINE
  8
0
  6
LTYPE2
 62
     2
 10
1401.364725201
 20
788.033974596
 30
0.0
 11
1385.364725201
 21
772.033974596
 31
0.0
  0
LINE
  8
0
  6
LTYPE2
 62
     2
 10
1451.364725201
 20
532.533974596
 30
0.0
 11
1451.364725201
 21
981.3
 31
0.0
  0
LINE
  8
0
  6
CONTINUOUS
 62
     1
 10
1481.364725201
 20
692.033974596
 30
0.0
 11
1451.364725201
 21
692.033974596
 31
0.0
  0
LINE
  8
0
  6
CONTINUOUS
 62
     1
 10
1466.364725201
 20
674.533974596
 30
0.0
 11
1451.364725201
 21
674.533974596
 31
0.0
  0
LINE
  8
0
  6
CONTINUOUS
 62
     1
 10
1466.364725201
 20
649.533974596
 30
0.0
 11
1451.364725201
 21
649.533974596
 31
0.0
  0
LINE
  8
0
  6
CONTINUOUS
 62
     1
 10
1481.364725201
 20
632.033974596
 30
0.0
 11
1451.364725201
 21
632.033974596
 31
0.0
  0
CIRCLE
  8
0
  6
CONTINUOUS
 62
     1
 10
1414.864725201
 20
662.033974596
 30
0.0
 40
2.0
  0
LINE
  8
0
  6
LTYPE5
 62
     2
 10
1414.964725201
 20
658.033974596
 30
0.0
 11
1414.964725201
 21
666.233974596
 31
0.0
  0
LINE
  8
0
  6
CONTINUOUS
 62
     1
 10
1410.864725201
 20
674.533974596
 30
0.0
 11
1416.864725201
 21
674.533974596
 31
0.0
  0
LINE
  8
0
  6
LTYPE1
 62
     2
 10
1416.864725201
 20
674.533974596
 30
0.0
 11
1436.364725201
 21
674.533974596
 31
0.0
  0
LINE
  8
0
  6
CONTINUOUS
 62
     1
 10
1410.864725201
 20
649.533974596
 30
0.0
 11
1416.864725201
 21
649.533974596
 31
0.0
  0
LINE
  8
0
  6
LTYPE1
 62
     2
 10
1416.864725201
 20
649.533974596
 30
0.0
 11
1436.364725201
 21
649.533974596
 31
0.0
  0
LINE
  8
0
  6
CONTINUOUS
 62
     1
 10
1416.864725201
 20
640.033974596
 30
0.0
 11
1421.364725201
 21
640.033974596
 31
0.0
  0
LINE
  8
0
  6
CONTINUOUS
 62
     1
 10
1416.864725201
 20
684.033974596
 30
0.0
 11
1421.364725201
 21
684.033974596
 31
0.0
  0
LINE
  8
0
  6
CONTINUOUS
 62
     1
 10
1436.364725201
 20
632.033974596
 30
0.0
 11
1436.364725201
 21
692.033974596
 31
0.0
  0
LINE
  8
0
  6
CONTINUOUS
 62
     1
 10
1421.364725201
 20
632.033974596
 30
0.0
 11
1421.364725201
 21
692.033974596
 31
0.0
  0
LINE
  8
0
  6
CONTINUOUS
 62
     1
 10
1416.864725201
 20
640.033974596
 30
0.0
 11
1416.864725201
 21
684.033974596
 31
0.0
  0
LINE
  8
0
  6
CONTINUOUS
 62
     1
 10
1410.864725201
 20
649.533974596
 30
0.0
 11
1410.864725201
 21
674.533974596
 31
0.0
  0
LINE
  8
0
  6
CONTINUOUS
 62
     1
 10
1421.364725201
 20
692.033974596
 30
0.0
 11
1451.364725201
 21
692.033974596
 31
0.0
  0
LINE
  8
0
  6
CONTINUOUS
 62
     1
 10
1436.364725201
 20
674.533974596
 30
0.0
 11
1451.364725201
 21
674.533974596
 31
0.0
  0
LINE
  8
0
  6
CONTINUOUS
 62
     1
 10
1436.364725201
 20
649.533974596
 30
0.0
 11
1451.364725201
 21
649.533974596
 31
0.0
  0
LINE
  8
0
  6
CONTINUOUS
 62
     1
 10
1421.364725201
 20
632.033974596
 30
0.0
 11
1451.364725201
 21
632.033974596
 31
0.0
  0
LINE
  8
0
  6
LTYPE1
 62
     2
 10
1371.364725201
 20
641.033974596
 30
0.0
 11
1371.364725201
 21
683.033974596
 31
0.0
  0
LINE
  8
0
  6
CONTINUOUS
 62
     2
 10
1543.864725201
 20
446.033974596
 30
0.0
 11
1531.790652372
 21
449.26921266
 31
0.0
  0
LINE
  8
0
  6
CONTINUOUS
 62
     2
 10
1543.864725201
 20
446.033974596
 30
0.0
 11
1531.790652372
 21
442.798736532
 31
0.0
  0
LINE
  8
0
  6
CONTINUOUS
 62
     2
 10
1543.864725201
 20
578.033974596
 30
0.0
 11
1543.864725201
 21
441.033974596
 31
0.0
  0
LINE
  8
0
  6
CONTINUOUS
 62
     2
 10
1546.364725201
 20
396.033974596
 30
0.0
 11
1534.290652372
 21
399.26921266
 31
0.0
  0
LINE
  8
0
  6
CONTINUOUS
 62
     2
 10
1546.364725201
 20
396.033974596
 30
0.0
 11
1534.290652372
 21
392.798736532
 31
0.0
  0
LINE
  8
0
  6
CONTINUOUS
 62
     2
 10
1546.364725201
 20
639.033974596
 30
0.0
 11
1546.364725201
 21
391.033974596
 31
0.0
  0
LINE
  8
0
  6
CONTINUOUS
 62
     2
 10
1504.864725201
 20
543.033974596
 30
0.0
 11
1634.364725201
 21
543.033974596
 31
0.0
  0
ARC
  8
0
  6
CONTINUOUS
 62
     1
 10
1501.364725201
 20
545.033974596
 30
0.0
 40
1.0
 50
270.0
 51
0.0
  0
LINE
  8
0
  6
CONTINUOUS
 62
     1
 10
1543.864725201
 20
685.227210886
 30
0.0
 11
1543.864725201
 21
803.071474596
 31
0.0
  0
ARC
  8
0
  6
CONTINUOUS
 62
     1
 10
1533.864725201
 20
578.033974596
 30
0.0
 40
10.0
 50
270.0
 51
0.0
  0
ARC
  8
0
  6
CONTINUOUS
 62
     1
 10
1510.364725201
 20
721.033974596
 30
0.0
 40
8.0
 50
0.0
 51
90.0
  0
ARC
  8
0
  6
CONTINUOUS
 62
     1
 10
1510.364725201
 20
603.033974596
 30
0.0
 40
8.0
 50
270.0
 51
0.0
  0
LINE
  8
0
  6
CONTINUOUS
 62
     1
 10
1500.364725201
 20
595.033974596
 30
0.0
 11
1510.364725201
 21
595.033974596
 31
0.0
  0
ARC
  8
0
  6
CONTINUOUS
 62
     1
 10
1499.364725201
 20
591.533974596
 30
0.0
 40
3.0
 50
0.0
 51
90.0
  0
LINE
  8
0
  6
CONTINUOUS
 62
     1
 10
1502.364725201
 20
545.033974596
 30
0.0
 11
1502.364725201
 21
591.533974596
 31
0.0
  0
ARC
  8
0
  6
CONTINUOUS
 62
     1
 10
1501.364725201
 20
545.033974596
 30
0.0
 40
1.0
 50
270.0
 51
0.0
  0
ARC
  8
0
  6
CONTINUOUS
 62
     1
 10
1498.364725201
 20
544.033974596
 30
0.0
 40
1.0
 50
270.0
 51
0.0
  0
LINE
  8
0
  6
CONTINUOUS
 62
     1
 10
1502.364725201
 20
568.033974596
 30
0.0
 11
1533.864725201
 21
568.033974596
 31
0.0
  0
LINE
  8
0
  6
CONTINUOUS
 62
     1
 10
1546.364725201
 20
639.033974596
 30
0.0
 11
1546.364725201
 21
685.033974596
 31
0.0
  0
LINE
  8
0
  6
CONTINUOUS
 62
     1
 10
1543.864725201
 20
578.033974596
 30
0.0
 11
1543.864725201
 21
638.727210886
 31
0.0
  0
LINE
  8
0
  6
LTYPE3
 62
     2
 10
1490.364725201
 20
715.033974596
 30
0.0
 11
1516.864725201
 21
715.033974596
 31
0.0
  0
LINE
  8
0
  6
LTYPE3
 62
     2
 10
1504.364725201
 20
700.533974596
 30
0.0
 11
1504.364725201
 21
727.533974596
 31
0.0
  0
LINE
  8
0
  6
LTYPE3
 62
     2
 10
1504.364725201
 20
623.033974596
 30
0.0
 11
1504.364725201
 21
596.533974596
 31
0.0
  0
LINE
  8
0
  6
LTYPE3
 62
     2
 10
1489.864725201
 20
609.033974596
 30
0.0
 11
1516.864725201
 21
609.033974596
 31
0.0
  0
LINE
  8
0
  6
LTYPE3
 62
     2
 10
1496.364725201
 20
539.333974596
 30
0.0
 11
1496.364725201
 21
558.033974596
 31
0.0
  0
LINE
  8
0
  6
LTYPE1
 62
     2
 10
1516.364725201
 20
649.533974596
 30
0.0
 11
1546.364725201
 21
649.533974596
 31
0.0
  0
LINE
  8
0
  6
LTYPE1
 62
     2
 10
1516.364725201
 20
674.533974596
 30
0.0
 11
1546.364725201
 21
674.533974596
 31
0.0
  0
LINE
  8
0
  6
LTYPE1
 62
     2
 10
1516.364725201
 20
649.533974596
 30
0.0
 11
1516.364725201
 21
674.533974596
 31
0.0
  0
ARC
  8
0
  6
CONTINUOUS
 62
     1
 10
1497.364725201
 20
838.033974596
 30
0.0
 40
9.0
 50
278.674045508
 51
81.325934821
  0
LINE
  8
0
  6
CONTINUOUS
 62
     2
 10
1494.364725201
 20
855.033974596
 30
0.0
 11
1494.364725201
 21
819.033974596
 31
0.0
  0
LINE
  8
0
  6
CONTINUOUS
 62
     1
 10
1495.364725201
 20
854.133974596
 30
0.0
 11
1493.364725201
 21
854.133974596
 31
0.0
  0
LINE
  8
0
  6
CONTINUOUS
 62
     1
 10
1493.364725201
 20
854.133974596
 30
0.0
 11
1491.364725201
 21
842.533974596
 31
0.0
  0
LINE
  8
0
  6
CONTINUOUS
 62
     1
 10
1495.364725201
 20
854.133974596
 30
0.0
 11
1497.364725201
 21
842.533974596
 31
0.0
  0
LINE
  8
0
  6
CONTINUOUS
 62
     1
 10
1495.364725201
 20
821.933974596
 30
0.0
 11
1493.364725201
 21
821.933974596
 31
0.0
  0
LINE
  8
0
  6
CONTINUOUS
 62
     1
 10
1493.364725201
 20
821.933974596
 30
0.0
 11
1491.364725201
 21
833.533974596
 31
0.0
  0
LINE
  8
0
  6
CONTINUOUS
 62
     1
 10
1495.364725201
 20
821.933974596
 30
0.0
 11
1497.364725201
 21
833.533974596
 31
0.0
  0
ARC
  8
0
  6
CONTINUOUS
 62
     1
 10
1500.984290418
 20
861.759461897
 30
0.0
 40
15.0
 50
205.554693785
 51
235.747997449
  0
ARC
  8
0
  6
CONTINUOUS
 62
     1
 10
1500.984290418
 20
861.759461897
 30
0.0
 40
15.0
 50
252.681090544
 51
261.325827457
  0
ARC
  8
0
  6
CONTINUOUS
 62
     1
 10
1500.984290418
 20
814.308487296
 30
0.0
 40
15.0
 50
124.468179449
 51
154.445306215
  0
ARC
  8
0
  6
CONTINUOUS
 62
     1
 10
1500.984290418
 20
814.308487296
 30
0.0
 40
15.0
 50
98.674172543
 51
107.318909456
  0
CIRCLE
  8
0
  6
CONTINUOUS
 62
     1
 10
1494.364725201
 20
838.033974596
 30
0.0
 40
3.0
  0
LINE
  8
0
  6
CONTINUOUS
 62
     1
 10
1491.386029903
 20
842.657541869
 30
0.0
 11
1491.343420499
 21
833.410407324
 31
0.0
  0
LINE
  8
0
  6
CONTINUOUS
 62
     1
 10
1497.386029903
 20
833.410407324
 30
0.0
 11
1497.343420499
 21
842.657541869
 31
0.0
  0
ARC
  8
0
  6
CONTINUOUS
 62
     1
 10
1494.364725201
 20
838.033974596
 30
0.0
 40
5.5
 50
304.570397879
 51
57.208673154
  0
ARC
  8
0
  6
CONTINUOUS
 62
     1
 10
1494.364725201
 20
838.033974596
 30
0.0
 40
5.5
 50
122.791326846
 51
235.429602121
  0
LINE
  8
0
  6
LTYPE2
 62
     2
 10
1501.364725201
 20
788.033974596
 30
0.0
 11
1517.364725201
 21
772.033974596
 31
0.0
  0
LINE
  8
0
  6
CONTINUOUS
 62
     1
 10
1504.701034649
 20
771.03741111
 30
0.0
 11
1514.701034649
 21
771.03741111
 31
0.0
  0
LINE
  8
0
  6
CONTINUOUS
 62
     1
 10
1514.701034649
 20
771.03741111
 30
0.0
 11
1519.701034649
 21
779.697665148
 31
0.0
  0
LINE
  8
0
  6
CONTINUOUS
 62
     1
 10
1519.701034649
 20
779.697665148
 30
0.0
 11
1514.701034649
 21
788.357919186
 31
0.0
  0
LINE
  8
0
  6
CONTINUOUS
 62
     1
 10
1514.701034649
 20
788.357919186
 30
0.0
 11
1504.701034649
 21
788.357919186
 31
0.0
  0
LINE
  8
0
  6
CONTINUOUS
 62
     1
 10
1504.701034649
 20
788.357919186
 30
0.0
 11
1499.701034649
 21
779.697665148
 31
0.0
  0
LINE
  8
0
  6
CONTINUOUS
 62
     1
 10
1499.701034649
 20
779.697665148
 30
0.0
 11
1504.701034649
 21
771.03741111
 31
0.0
  0
ARC
  8
0
  6
LTYPE2
 62
     2
 10
1451.364725201
 20
838.033974596
 30
0.0
 40
82.5
 50
300.927939213
 51
327.087998905
  0
CIRCLE
  8
0
  6
CONTINUOUS
 62
     1
 10
1487.864725201
 20
662.033974596
 30
0.0
 40
2.0
  0
LINE
  8
0
  6
LTYPE5
 62
     2
 10
1487.764725201
 20
658.033974596
 30
0.0
 11
1487.764725201
 21
666.233974596
 31
0.0
  0
LINE
  8
0
  6
CONTINUOUS
 62
     1
 10
1491.864725201
 20
674.533974596
 30
0.0
 11
1485.864725201
 21
674.533974596
 31
0.0
  0
LINE
  8
0
  6
LTYPE1
 62
     2
 10
1485.864725201
 20
674.533974596
 30
0.0
 11
1466.364725201
 21
674.533974596
 31
0.0
  0
LINE
  8
0
  6
CONTINUOUS
 62
     1
 10
1491.864725201
 20
649.533974596
 30
0.0
 11
1485.864725201
 21
649.533974596
 31
0.0
  0
LINE
  8
0
  6
LTYPE1
 62
     2
 10
1485.864725201
 20
649.533974596
 30
0.0
 11
1466.364725201
 21
649.533974596
 31
0.0
  0
LINE
  8
0
  6
CONTINUOUS
 62
     1
 10
1485.864725201
 20
640.033974596
 30
0.0
 11
1481.364725201
 21
640.033974596
 31
0.0
  0
LINE
  8
0
  6
CONTINUOUS
 62
     1
 10
1485.864725201
 20
684.033974596
 30
0.0
 11
1481.364725201
 21
684.033974596
 31
0.0
  0
LINE
  8
0
  6
CONTINUOUS
 62
     1
 10
1466.364725201
 20
632.033974596
 30
0.0
 11
1466.364725201
 21
692.033974596
 31
0.0
  0
LINE
  8
0
  6
CONTINUOUS
 62
     1
 10
1481.364725201
 20
632.033974596
 30
0.0
 11
1481.364725201
 21
692.033974596
 31
0.0
  0
LINE
  8
0
  6
CONTINUOUS
 62
     1
 10
1485.864725201
 20
640.033974596
 30
0.0
 11
1485.864725201
 21
684.033974596
 31
0.0
  0
LINE
  8
0
  6
CONTINUOUS
 62
     1
 10
1491.864725201
 20
649.533974596
 30
0.0
 11
1491.864725201
 21
674.533974596
 31
0.0
  0
LINE
  8
0
  6
CONTINUOUS
 62
     1
 10
1484.056467277
 20
594.533974596
 30
0.0
 11
1499.364725201
 21
594.533974596
 31
0.0
  0
LINE
  8
0
  6
CONTINUOUS
 62
     1
 10
1496.364725201
 20
596.033974596
 30
0.0
 11
1496.364725201
 21
602.033974596
 31
0.0
  0
ARC
  8
0
  6
CONTINUOUS
 62
     1
 10
1504.364725201
 20
609.033974596
 30
0.0
 40
9.0
 50
221.855808596
 51
48.144191404
  0
LINE
  8
0
  6
CONTINUOUS
 62
     1
 10
1518.364725201
 20
603.033974596
 30
0.0
 11
1518.364725201
 21
628.329375504
 31
0.0
  0
LINE
  8
0
  6
CONTINUOUS
 62
     1
 10
1486.987751462
 20
596.033974596
 30
0.0
 11
1496.364725201
 21
596.033974596
 31
0.0
  0
LINE
  8
0
  6
CONTINUOUS
 62
     2
 10
1602.564725201
 20
674.533974596
 30
0.0
 11
1549.764725201
 21
674.533974596
 31
0.0
  0
LINE
  8
0
  6
CONTINUOUS
 62
     2
 10
1604.564725201
 20
649.533974596
 30
0.0
 11
1550.764725201
 21
649.533974596
 31
0.0
  0
ARC
  8
0
  6
CONTINUOUS
 62
     1
 10
1466.352720397
 20
883.633974596
 30
0.0
 40
8.0
 50
200.487315115
 51
251.805127661
  0
ARC
  8
0
  6
CONTINUOUS
 62
     1
 10
1436.376730005
 20
883.633974596
 30
0.0
 40
8.0
 50
288.194872339
 51
339.512684885
  0
ARC
  8
0
  6
CONTINUOUS
 62
     1
 10
1451.364725201
 20
878.033974596
 30
0.0
 40
8.0
 50
20.487315115
 51
159.512540111
  0
LINE
  8
0
  6
CONTINUOUS
 62
     1
 10
1449.014725201
 20
885.104293994
 30
0.0
 11
1446.664725201
 21
881.033974596
 31
0.0
  0
LINE
  8
0
  6
CONTINUOUS
 62
     1
 10
1446.664725201
 20
881.033974596
 30
0.0
 11
1449.014725201
 21
876.963655198
 31
0.0
  0
LINE
  8
0
  6
CONTINUOUS
 62
     1
 10
1449.014725201
 20
876.963655198
 30
0.0
 11
1453.714725201
 21
876.963655198
 31
0.0
  0
LINE
  8
0
  6
CONTINUOUS
 62
     1
 10
1453.714725201
 20
876.963655198
 30
0.0
 11
1456.064725201
 21
881.033974596
 31
0.0
  0
LINE
  8
0
  6
CONTINUOUS
 62
     1
 10
1456.064725201
 20
881.033974596
 30
0.0
 11
1453.714725201
 21
885.104293994
 31
0.0
  0
LINE
  8
0
  6
CONTINUOUS
 62
     2
 10
1457.364725201
 20
881.033974596
 30
0.0
 11
1445.364725201
 21
881.033974596
 31
0.0
  0
LINE
  8
0
  6
CONTINUOUS
 62
     1
 10
1543.864725201
 20
873.033974596
 30
0.0
 11
1543.864725201
 21
897.563379095
 31
0.0
  0
LINE
  8
0
  6
CONTINUOUS
 62
     1
 10
1358.864725201
 20
874.533974596
 30
0.0
 11
1358.864725201
 21
897.563379095
 31
0.0
  0
LINE
  8
0
  6
CONTINUOUS
 62
     1
 10
1453.714725201
 20
885.104293994
 30
0.0
 11
1449.014725201
 21
885.104293994
 31
0.0
  0
ARC
  8
0
  6
CONTINUOUS
 62
     1
 10
1425.364725201
 20
917.033974596
 30
0.0
 40
3.0
 50
0.0
 51
90.0
  0
LINE
  8
0
  6
CONTINUOUS
 62
     1
 10
1428.364725201
 20
906.187593838
 30
0.0
 11
1428.364725201
 21
917.033974596
 31
0.0
  0
ARC
  8
0
  6
CONTINUOUS
 62
     1
 10
1432.364725201
 20
906.187593838
 30
0.0
 40
4.0
 50
180.0
 51
235.063855112
  0
CIRCLE
  8
0
  6
CONTINUOUS
 62
     1
 10
1451.364725201
 20
945.033974596
 30
0.0
 40
17.0
  0
LINE
  8
0
  6
LTYPE2
 62
     2
 10
1428.364725201
 20
945.033974596
 30
0.0
 11
1474.364725201
 21
945.033974596
 31
0.0
  0
ARC
  8
0
  6
CONTINUOUS
 62
     1
 10
1409.364725201
 20
967.054020484
 30
0.0
 40
2.0
 50
90.0
 51
180.0
  0
ARC
  8
0
  6
CONTINUOUS
 62
     1
 10
1417.364725201
 20
973.033974596
 30
0.0
 40
2.0
 50
90.0
 51
180.0
  0
LINE
  8
0
  6
CONTINUOUS
 62
     1
 10
1417.364725201
 20
975.033974596
 30
0.0
 11
1485.364725201
 21
975.033974596
 31
0.0
  0
LINE
  8
0
  6
CONTINUOUS
 62
     1
 10
1493.364725201
 20
969.054020484
 30
0.0
 11
1409.364725201
 21
969.054020484
 31
0.0
  0
ARC
  8
0
  6
CONTINUOUS
 62
     1
 10
1409.364725201
 20
971.054020484
 30
0.0
 40
2.0
 50
90.0
 51
180.0
  0
ARC
  8
0
  6
CONTINUOUS
 62
     1
 10
1417.364725201
 20
964.033974596
 30
0.0
 40
2.0
 50
90.0
 51
180.0
  0
LINE
  8
0
  6
CONTINUOUS
 62
     1
 10
1417.364725201
 20
966.033974596
 30
0.0
 11
1485.364725201
 21
966.033974596
 31
0.0
  0
LINE
  8
0
  6
CONTINUOUS
 62
     1
 10
1493.364725201
 20
973.054020484
 30
0.0
 11
1409.364725201
 21
973.054020484
 31
0.0
  0
LINE
  8
0
  6
CONTINUOUS
 62
     1
 10
1421.364725201
 20
920.033974596
 30
0.0
 11
1481.364725201
 21
920.033974596
 31
0.0
  0
LINE
  8
0
  6
CONTINUOUS
 62
     1
 10
1421.364725201
 20
920.033974596
 30
0.0
 11
1421.364725201
 21
923.033974596
 31
0.0
  0
LINE
  8
0
  6
CONTINUOUS
 62
     1
 10
1415.364725201
 20
925.033974596
 30
0.0
 11
1415.364725201
 21
964.033974596
 31
0.0
  0
LINE
  8
0
  6
CONTINUOUS
 62
     1
 10
1417.364725201
 20
923.033974596
 30
0.0
 11
1485.364725201
 21
923.033974596
 31
0.0
  0
ARC
  8
0
  6
CONTINUOUS
 62
     1
 10
1417.364725201
 20
925.033974596
 30
0.0
 40
2.0
 50
180.0
 51
270.0
  0
LINE
  8
0
  6
CONTINUOUS
 62
     1
 10
1415.364725201
 20
925.033974596
 30
0.0
 11
1409.364725201
 21
925.033974596
 31
0.0
  0
LINE
  8
0
  6
CONTINUOUS
 62
     1
 10
1407.364725201
 20
927.033974596
 30
0.0
 11
1407.364725201
 21
971.054020484
 31
0.0
  0
ARC
  8
0
  6
CONTINUOUS
 62
     1
 10
1409.364725201
 20
927.033974596
 30
0.0
 40
2.0
 50
180.0
 51
270.0
  0
CIRCLE
  8
0
  6
CONTINUOUS
 62
     2
 10
1451.364725201
 20
945.033974596
 30
0.0
 40
15.0
  0
LINE
  8
0
  6
LTYPE2
 62
     2
 10
1401.364725201
 20
888.033974596
 30
0.0
 11
1385.364725201
 21
904.033974596
 31
0.0
  0
LINE
  8
0
  6
CONTINUOUS
 62
     1
 10
1398.028415753
 20
905.030538082
 30
0.0
 11
1388.028415753
 21
905.030538082
 31
0.0
  0
LINE
  8
0
  6
CONTINUOUS
 62
     1
 10
1388.028415753
 20
905.030538082
 30
0.0
 11
1383.028415753
 21
896.370284044
 31
0.0
  0
LINE
  8
0
  6
CONTINUOUS
 62
     1
 10
1383.028415753
 20
896.370284044
 30
0.0
 11
1388.028415753
 21
887.710030006
 31
0.0
  0
LINE
  8
0
  6
CONTINUOUS
 62
     1
 10
1388.028415753
 20
887.710030006
 30
0.0
 11
1398.028415753
 21
887.710030006
 31
0.0
  0
LINE
  8
0
  6
CONTINUOUS
 62
     1
 10
1398.028415753
 20
887.710030006
 30
0.0
 11
1403.028415753
 21
896.370284044
 31
0.0
  0
LINE
  8
0
  6
CONTINUOUS
 62
     1
 10
1403.028415753
 20
896.370284044
 30
0.0
 11
1398.028415753
 21
905.030538082
 31
0.0
  0
ARC
  8
0
  6
LTYPE2
 62
     2
 10
1451.364725201
 20
838.033974596
 30
0.0
 40
82.5
 50
122.095648245
 51
145.904134413
  0
ARC
  8
0
  6
CONTINUOUS
 62
     1
 10
1451.364725201
 20
838.033974596
 30
0.0
 40
110.0
 50
113.578178478
 51
147.236242241
  0
LINE
  8
0
  6
CONTINUOUS
 62
     1
 10
1481.364725201
 20
920.033974596
 30
0.0
 11
1481.364725201
 21
923.033974596
 31
0.0
  0
ARC
  8
0
  6
CONTINUOUS
 62
     1
 10
1477.364725201
 20
917.033974596
 30
0.0
 40
3.0
 50
90.0
 51
180.0
  0
LINE
  8
0
  6
CONTINUOUS
 62
     1
 10
1474.364725201
 20
906.187593838
 30
0.0
 11
1474.364725201
 21
917.033974596
 31
0.0
  0
ARC
  8
0
  6
CONTINUOUS
 62
     1
 10
1470.364725201
 20
906.187593838
 30
0.0
 40
4.0
 50
304.936144888
 51
0.0
  0
ARC
  8
0
  6
CONTINUOUS
 62
     1
 10
1485.364725201
 20
973.033974596
 30
0.0
 40
2.0
 50
0.0
 51
90.0
  0
ARC
  8
0
  6
CONTINUOUS
 62
     1
 10
1493.364725201
 20
967.054020484
 30
0.0
 40
2.0
 50
0.0
 51
90.0
  0
ARC
  8
0
  6
CONTINUOUS
 62
     1
 10
1485.364725201
 20
964.033974596
 30
0.0
 40
2.0
 50
0.0
 51
90.0
  0
ARC
  8
0
  6
CONTINUOUS
 62
     1
 10
1493.364725201
 20
971.054020484
 30
0.0
 40
2.0
 50
0.0
 51
90.0
  0
LINE
  8
0
  6
CONTINUOUS
 62
     1
 10
1487.364725201
 20
925.033974596
 30
0.0
 11
1493.364725201
 21
925.033974596
 31
0.0
  0
LINE
  8
0
  6
CONTINUOUS
 62
     1
 10
1495.364725201
 20
927.033974596
 30
0.0
 11
1495.364725201
 21
971.054020484
 31
0.0
  0
ARC
  8
0
  6
CONTINUOUS
 62
     1
 10
1493.364725201
 20
927.033974596
 30
0.0
 40
2.0
 50
270.0
 51
0.0
  0
LINE
  8
0
  6
CONTINUOUS
 62
     1
 10
1487.364725201
 20
925.033974596
 30
0.0
 11
1487.364725201
 21
964.033974596
 31
0.0
  0
ARC
  8
0
  6
CONTINUOUS
 62
     1
 10
1485.364725201
 20
925.033974596
 30
0.0
 40
2.0
 50
270.0
 51
0.0
  0
LINE
  8
0
  6
LTYPE2
 62
     2
 10
1501.364725201
 20
888.033974596
 30
0.0
 11
1517.364725201
 21
904.033974596
 31
0.0
  0
LINE
  8
0
  6
CONTINUOUS
 62
     1
 10
1504.701034649
 20
905.030538082
 30
0.0
 11
1514.701034649
 21
905.030538082
 31
0.0
  0
LINE
  8
0
  6
CONTINUOUS
 62
     1
 10
1514.701034649
 20
905.030538082
 30
0.0
 11
1519.701034649
 21
896.370284044
 31
0.0
  0
LINE
  8
0
  6
CONTINUOUS
 62
     1
 10
1519.701034649
 20
896.370284044
 30
0.0
 11
1514.701034649
 21
887.710030006
 31
0.0
  0
LINE
  8
0
  6
CONTINUOUS
 62
     1
 10
1514.701034649
 20
887.710030006
 30
0.0
 11
1504.701034649
 21
887.710030006
 31
0.0
  0
LINE
  8
0
  6
CONTINUOUS
 62
     1
 10
1504.701034649
 20
887.710030006
 30
0.0
 11
1499.701034649
 21
896.370284044
 31
0.0
  0
LINE
  8
0
  6
CONTINUOUS
 62
     1
 10
1499.701034649
 20
896.370284044
 30
0.0
 11
1504.701034649
 21
905.030538082
 31
0.0
  0
ARC
  8
0
  6
LTYPE2
 62
     2
 10
1451.364725201
 20
838.033974596
 30
0.0
 40
82.5
 50
35.204140887
 51
56.44447448
  0
ARC
  8
0
  6
CONTINUOUS
 62
     1
 10
1451.364725201
 20
838.033974596
 30
0.0
 40
110.0
 50
32.763757759
 51
66.421821522
  0
LINE
  8
0
  6
CONTINUOUS
 62
     2
 10
1488.864725201
 20
975.033974596
 30
0.0
 11
1665.856958157
 21
975.033974596
 31
0.0
  0
LINE
  8
0
  6
LTYPE3
 62
     2
 10
1297.498289615
 20
733.876023565
 30
0.0
 11
1338.510482923
 21
692.863830256
 31
0.0
  0
LINE
  8
0
  6
CONTINUOUS
 62
     1
 10
1305.347174886
 20
736.633740011
 30
0.0
 11
1324.580479334
 21
717.400435563
 31
0.0
  0
LINE
  8
0
  6
LTYPE3
 62
     2
 10
1329.24738409
 20
680.772304298
 30
0.0
 11
1296.013365374
 21
714.006323013
 31
0.0
  0
LINE
  8
0
  6
LTYPE3
 62
     2
 10
1318.075096947
 20
734.653841024
 30
0.0
 11
1351.309115663
 21
701.419822308
 31
0.0
  0
LINE
  8
0
  6
CONTINUOUS
 62
     1
 10
1295.094126559
 20
707.995915373
 30
0.0
 11
1323.378397806
 21
679.711644126
 31
0.0
  0
LINE
  8
0
  6
CONTINUOUS
 62
     1
 10
1351.662669054
 20
707.995915373
 30
0.0
 11
1323.378397806
 21
736.280186621
 31
0.0
  0
LINE
  8
0
  6
CONTINUOUS
 62
     1
 10
1351.662669054
 20
707.995915373
 30
0.0
 11
1323.378397806
 21
679.711644126
 31
0.0
  0
LINE
  8
0
  6
CONTINUOUS
 62
     1
 10
1326.843221034
 20
719.663177263
 30
0.0
 11
1311.711135917
 21
704.531092146
 31
0.0
  0
ARC
  8
0
  6
CONTINUOUS
 62
     1
 10
1328.257434596
 20
718.248963701
 30
0.0
 40
2.0
 50
45.0
 51
135.0
  0
LINE
  8
0
  6
LTYPE3
 62
     2
 10
1318.287228982
 20
693.146672968
 30
0.0
 11
1338.369061567
 21
713.228505554
 31
0.0
  0
LINE
  8
0
  6
CONTINUOUS
 62
     1
 10
1323.378397806
 20
679.711644126
 30
0.0
 11
1323.449108484
 21
679.640933448
 31
0.0
  0
LINE
  8
0
  6
CONTINUOUS
 62
     1
 10
1311.711135917
 20
701.702665021
 30
0.0
 11
1326.843221034
 21
686.570579903
 31
0.0
  0
ARC
  8
0
  6
CONTINUOUS
 62
     1
 10
1328.257434596
 20
687.984793466
 30
0.0
 40
2.0
 50
225.0
 51
315.0
  0
LINE
  8
0
  6
CONTINUOUS
 62
     1
 10
1329.587679228
 20
760.874244354
 30
0.0
 11
1294.740573168
 21
726.027138294
 31
0.0
  0
LINE
  8
0
  6
CONTINUOUS
 62
     1
 10
1294.740573168
 20
726.027138294
 30
0.0
 11
1313.973877616
 21
706.793833845
 31
0.0
  0
LINE
  8
0
  6
CONTINUOUS
 62
     1
 10
1321.257077463
 20
738.401506964
 30
0.0
 11
1312.418242698
 21
729.5626722
 31
0.0
  0
LINE
  8
0
  6
CONTINUOUS
 62
     1
 10
1326.913931712
 20
732.744652715
 30
0.0
 11
1318.004386269
 21
723.835107272
 31
0.0
  0
LINE
  8
0
  6
CONTINUOUS
 62
     1
 10
1323.378397806
 20
736.280186621
 30
0.0
 11
1314.539563041
 21
727.441351856
 31
0.0
  0
LINE
  8
0
  6
CONTINUOUS
 62
     1
 10
1312.418242698
 20
729.5626722
 30
0.0
 11
1301.81164098
 21
718.956070482
 31
0.0
  0
LINE
  8
0
  6
CONTINUOUS
 62
     1
 10
1307.468495229
 20
713.299216232
 30
0.0
 11
1298.629660465
 21
704.460381467
 31
0.0
  0
LINE
  8
0
  6
CONTINUOUS
 62
     1
 10
1303.862250645
 20
716.76403946
 30
0.0
 11
1295.094126559
 21
707.995915373
 31
0.0
  0
ARC
  8
0
  6
CONTINUOUS
 62
     1
 10
1313.125349479
 20
703.116878583
 30
0.0
 40
2.0
 50
135.0
 51
225.0
  0
LINE
  8
0
  6
CONTINUOUS
 62
     1
 10
1334.007096611
 20
753.979953237
 30
0.0
 11
1326.383601626
 21
746.356458253
 31
0.0
  0
LINE
  8
0
  6
CONTINUOUS
 62
     1
 10
1336.84032745
 20
756.106077295
 30
0.0
 11
1326.737155017
 21
746.002904862
 31
0.0
  0
LINE
  8
0
  6
CONTINUOUS
 62
     1
 10
1326.312890948
 20
746.427168931
 30
0.0
 11
1321.257077463
 21
738.401506964
 31
0.0
  0
LINE
  8
0
  6
CONTINUOUS
 62
     1
 10
1326.737155017
 20
746.002904862
 30
0.0
 11
1331.686902485
 21
741.053157394
 31
0.0
  0
LINE
  8
0
  6
CONTINUOUS
 62
     1
 10
1320.196417291
 20
676.529663611
 30
0.0
 11
1324.439057978
 21
672.287022923
 31
0.0
  0
LINE
  8
0
  6
CONTINUOUS
 62
     1
 10
1329.671648159
 20
719.663177263
 30
0.0
 11
1344.803733276
 21
704.531092146
 31
0.0
  0
LINE
  8
0
  6
CONTINUOUS
 62
     1
 10
1344.803733276
 20
701.702665021
 30
0.0
 11
1329.671648159
 21
686.570579903
 31
0.0
  0
ARC
  8
0
  6
CONTINUOUS
 62
     1
 10
1343.389519714
 20
703.116878583
 30
0.0
 40
2.0
 50
315.0
 51
45.0
  0
LINE
  8
0
  6
LTYPE5
 62
     2
 10
1331.297993755
 20
745.613996132
 30
0.0
 11
1366.653332815
 21
780.969335192
 31
0.0
  0
ARC
  8
0
  6
LTYPE1
 62
     1
 10
1349.54134871
 20
763.857351087
 30
0.0
 40
16.0
 50
225.0
 51
99.340912304
  0
ARC
  8
0
  6
CONTINUOUS
 62
     1
 10
1349.54134871
 20
763.857351087
 30
0.0
 40
16.0
 50
99.340912304
 51
170.659087696
  0
LINE
  8
0
  6
LTYPE3
 62
     2
 10
1326.065403575
 20
759.049024975
 30
0.0
 11
1339.641853773
 21
745.472574776
 31
0.0
  0
LINE
  8
0
  6
LTYPE1
 62
     2
 10
1339.111523687
 20
758.377273533
 30
0.0
 11
1344.061271156
 21
753.427526065
 31
0.0
  0
ARC
  8
0
  6
LTYPE1
 62
     1
 10
1349.54134871
 20
763.857351087
 30
0.0
 40
16.0
 50
170.659087696
 51
225.0
  0
LINE
  8
0
  6
LTYPE1
 62
     1
 10
1330.449465618
 20
761.736030744
 30
0.0
 11
1329.587679228
 21
760.874244354
 31
0.0
  0
LINE
  8
0
  6
LTYPE1
 62
     1
 10
1336.106319867
 20
756.079176494
 30
0.0
 11
1334.007096611
 21
753.979953237
 31
0.0
  0
CIRCLE
  8
0
  6
CONTINUOUS
 62
     1
 10
1349.54134871
 20
763.857351087
 30
0.0
 40
6.49995
  0
LINE
  8
0
  6
CONTINUOUS
 62
     1
 10
1347.59474031
 20
756.611642042
 30
0.0
 11
1342.295639665
 21
761.910742687
 31
0.0
  0
LINE
  8
0
  6
CONTINUOUS
 62
     1
 10
1342.295639665
 20
761.910742687
 30
0.0
 11
1344.242248065
 21
769.156451732
 31
0.0
  0
LINE
  8
0
  6
CONTINUOUS
 62
     1
 10
1338.73587321
 20
748.102128119
 30
0.0
 11
1331.686902485
 21
741.053157394
 31
0.0
  0
LINE
  8
0
  6
LTYPE1
 62
     2
 10
1339.111523687
 20
758.377273533
 30
0.0
 11
1336.84032745
 21
756.106077295
 31
0.0
  0
LINE
  8
0
  6
CONTINUOUS
 62
     1
 10
1347.59474031
 20
756.611642042
 30
0.0
 11
1354.840449355
 21
758.558250442
 31
0.0
  0
LINE
  8
0
  6
CONTINUOUS
 62
     1
 10
1329.742358837
 20
762.443137525
 30
0.0
 11
1350.955562272
 21
783.65634096
 31
0.0
  0
LINE
  8
0
  6
LTYPE1
 62
     1
 10
1329.742358837
 20
762.443137525
 30
0.0
 11
1337.461607865
 21
754.723888497
 31
0.0
  0
CIRCLE
  8
0
  6
CONTINUOUS
 62
     1
 10
1349.54134871
 20
763.857351087
 30
0.0
 40
4.0
  0
LINE
  8
0
  6
CONTINUOUS
 62
     1
 10
1351.48795711
 20
771.103060132
 30
0.0
 11
1344.242248065
 21
769.156451732
 31
0.0
  0
LINE
  8
0
  6
CONTINUOUS
 62
     1
 10
1356.787057755
 20
765.803959487
 30
0.0
 11
1354.840449355
 21
758.558250442
 31
0.0
  0
LINE
  8
0
  6
LTYPE3
 62
     2
 10
1352.652618547
 20
789.030352497
 30
0.0
 11
1367.926125021
 21
773.756846024
 31
0.0
  0
LINE
  8
0
  6
CONTINUOUS
 62
     1
 10
1356.787057755
 20
765.803959487
 30
0.0
 11
1351.48795711
 21
771.103060132
 31
0.0
  0
LINE
  8
0
  6
LTYPE1
 62
     2
 10
1355.021426264
 20
774.28717611
 30
0.0
 11
1359.971173732
 21
769.337428641
 31
0.0
  0
LINE
  8
0
  6
LTYPE1
 62
     2
 10
1365.296571678
 20
774.662826587
 30
0.0
 11
1359.971173732
 21
769.337428641
 31
0.0
  0
LINE
  8
0
  6
CONTINUOUS
 62
     1
 10
1372.345542403
 20
781.711797312
 30
0.0
 11
1363.346124228
 21
772.712379137
 31
0.0
  0
LINE
  8
0
  6
LTYPE1
 62
     1
 10
1360.855057209
 20
773.756846024
 30
0.0
 11
1361.716843599
 21
774.618632413
 31
0.0
  0
LINE
  8
0
  6
CONTINUOUS
 62
     1
 10
1352.524455443
 20
783.811020569
 30
0.0
 11
1387.371561503
 21
818.658126629
 31
0.0
  0
LINE
  8
0
  6
CONTINUOUS
 62
     1
 10
1359.41874656
 20
779.391603186
 30
0.0
 11
1367.042241544
 21
787.015098171
 31
0.0
  0
LINE
  8
0
  6
LTYPE1
 62
     1
 10
1357.319523303
 20
777.29237993
 30
0.0
 11
1359.41874656
 21
779.391603186
 31
0.0
  0
LINE
  8
0
  6
LTYPE1
 62
     2
 10
1359.212507082
 20
778.478256927
 30
0.0
 11
1357.673076694
 21
776.938826539
 31
0.0
  0
LINE
  8
0
  6
CONTINUOUS
 62
     1
 10
1367.395794935
 20
786.66154478
 30
0.0
 11
1372.345542403
 21
781.711797312
 31
0.0
  0
LINE
  8
0
  6
CONTINUOUS
 62
     1
 10
1366.971530866
 20
787.085808849
 30
0.0
 11
1374.997192833
 21
792.141622335
 31
0.0
  0
LINE
  8
0
  6
CONTINUOUS
 62
     1
 10
1367.395794935
 20
786.66154478
 30
0.0
 11
1357.292622502
 21
776.558372347
 31
0.0
  0
LINE
  8
0
  6
LTYPE1
 62
     1
 10
1350.955562272
 20
783.65634096
 30
0.0
 11
1358.6748113
 21
775.937091932
 31
0.0
  0
LINE
  8
0
  6
CONTINUOUS
 62
     1
 10
1376.764959786
 20
808.051524911
 30
0.0
 11
1385.957347941
 21
798.859136756
 31
0.0
  0
LINE
  8
0
  6
CONTINUOUS
 62
     1
 10
1374.997192833
 20
792.141622335
 30
0.0
 11
1383.836027598
 21
800.980457099
 31
0.0
  0
LINE
  8
0
  6
CONTINUOUS
 62
     1
 10
1405.402784424
 20
818.304573238
 30
0.0
 11
1377.118513176
 21
790.020301991
 31
0.0
  0
LINE
  8
0
  6
LTYPE3
 62
     2
 10
1378.10846267
 20
817.314623745
 30
0.0
 11
1419.120655979
 21
776.302430436
 31
0.0
  0
LINE
  8
0
  6
LTYPE3
 62
     2
 10
1400.099483565
 20
816.678227642
 30
0.0
 11
1433.333502281
 21
783.444208926
 31
0.0
  0
LINE
  8
0
  6
CONTINUOUS
 62
     1
 10
1433.687055671
 20
790.020301991
 30
0.0
 11
1405.402784424
 21
818.304573238
 31
0.0
  0
LINE
  8
0
  6
CONTINUOUS
 62
     1
 10
1408.93831833
 20
814.769039333
 30
0.0
 11
1380.654047082
 21
786.484768085
 31
0.0
  0
LINE
  8
0
  6
CONTINUOUS
 62
     1
 10
1405.352916316
 20
811.183637319
 30
0.0
 11
1380.654047082
 21
786.484768085
 31
0.0
  0
LINE
  8
0
  6
CONTINUOUS
 62
     1
 10
1387.371561503
 20
818.658126629
 30
0.0
 11
1396.563949659
 21
809.465738474
 31
0.0
  0
CIRCLE
  8
0
  6
CONTINUOUS
 62
     1
 10
1404.271413574
 20
791.151672841
 30
0.0
 40
9.36
  0
LINE
  8
0
  6
LTYPE3
 62
     2
 10
1413.463801729
 20
800.344060996
 30
0.0
 11
1395.079025418
 21
781.959284685
 31
0.0
  0
CIRCLE
  8
0
  6
CONTINUOUS
 62
     2
 10
1404.271413574
 20
791.151672841
 30
0.0
 40
10.47
  0
LINE
  8
0
  6
LTYPE3
 62
     2
 10
1411.271770708
 20
762.796690915
 30
0.0
 11
1378.037751992
 21
796.030709631
 31
0.0
  0
LINE
  8
0
  6
CONTINUOUS
 62
     1
 10
1377.118513176
 20
790.020301991
 30
0.0
 11
1405.402784424
 21
761.736030744
 31
0.0
  0
LINE
  8
0
  6
CONTINUOUS
 62
     1
 10
1402.220803908
 20
782.595680789
 30
0.0
 11
1411.413192064
 21
773.403292633
 31
0.0
  0
LINE
  8
0
  6
CONTINUOUS
 62
     1
 10
1412.827405626
 20
793.202282506
 30
0.0
 11
1422.019793782
 21
784.009894351
 31
0.0
  0
LINE
  8
0
  6
CONTINUOUS
 62
     1
 10
1400.453036955
 20
766.685778212
 30
0.0
 11
1409.29187172
 21
775.524612977
 31
0.0
  0
LINE
  8
0
  6
CONTINUOUS
 62
     1
 10
1430.858628546
 20
792.848729116
 30
0.0
 11
1402.574357299
 21
764.564457868
 31
0.0
  0
LINE
  8
0
  6
CONTINUOUS
 62
     1
 10
1436.869036187
 20
793.202282506
 30
0.0
 11
1441.111676874
 21
788.959641819
 31
0.0
  0
CIRCLE
  8
0
  6
CONTINUOUS
 62
     2
 10
1349.54134871
 20
763.857351087
 30
0.0
 40
3.2
  0
LINE
  8
0
  6
LTYPE1
 62
     2
 10
1344.061271156
 20
753.427526065
 30
0.0
 11
1338.626604129
 21
747.992859038
 31
0.0
  0
LINE
  8
0
  6
CONTINUOUS
 62
     1
 10
1487.780724432
 20
696.328653484
 30
0.0
 11
1515.004335508
 21
669.105042408
 31
0.0
  0
LINE
  8
0
  6
CONTINUOUS
 62
     1
 10
1417.070046313
 20
625.617975365
 30
0.0
 11
1444.293657389
 21
598.394364289
 31
0.0
  0
LINE
  8
0
  6
LTYPE5
 62
     2
 10
1337.571438712
 20
775.827261085
 30
0.0
 11
1480.002549839
 21
633.396149958
 31
0.0
  0
LINE
  8
0
  6
LTYPE2
 62
     2
 10
1415.860261034
 20
626.529510429
 30
0.0
 11
1489.131097344
 21
699.80034674
 31
0.0
  0
LINE
  8
0
  6
CONTINUOUS
 62
     1
 10
1469.042394731
 20
715.066983185
 30
0.0
 11
1485.659404088
 21
698.449973827
 31
0.0
  0
LINE
  8
0
  6
CONTINUOUS
 62
     1
 10
1398.331716612
 20
644.356305067
 30
0.0
 11
1414.94872597
 21
627.739295709
 31
0.0
  0
LINE
  8
0
  6
CONTINUOUS
 62
     1
 10
1350.955562272
 20
783.65634096
 30
0.0
 11
1469.042394731
 21
715.066983185
 31
0.0
  0
LINE
  8
0
  6
CONTINUOUS
 62
     1
 10
1329.742358837
 20
762.443137525
 30
0.0
 11
1398.331716612
 21
644.356305067
 31
0.0
  0
LINE
  8
0
  6
CONTINUOUS
 62
     1
 10
1360.919339644
 20
708.767304589
 30
0.0
 11
1324.439057978
 21
672.287022923
 31
0.0
  0
LINE
  8
0
  6
CONTINUOUS
 62
     1
 10
1320.196417291
 20
676.529663611
 30
0.0
 11
1357.801641563
 21
714.134887883
 31
0.0
  0
LINE
  8
0
  6
CONTINUOUS
 62
     1
 10
1441.111676874
 20
788.959641819
 30
0.0
 11
1404.631395208
 21
752.479360153
 31
0.0
  0
LINE
  8
0
  6
CONTINUOUS
 62
     1
 10
1399.263811914
 20
755.597058234
 30
0.0
 11
1436.869036187
 21
793.202282506
 31
0.0
  0
LINE
  8
0
  6
CONTINUOUS
 62
     1
 10
1507.226160915
 20
715.774089966
 30
0.0
 11
1541.520839802
 21
681.479411079
 31
0.0
  0
LINE
  8
0
  6
CONTINUOUS
 62
     1
 10
1397.624609831
 20
606.172538882
 30
0.0
 11
1431.919288718
 21
571.877859995
 31
0.0
  0
LINE
  8
0
  6
CONTINUOUS
 62
     1
 10
1328.681698665
 20
675.115450048
 30
0.0
 11
1395.503289487
 21
608.293859226
 31
0.0
  0
LINE
  8
0
  6
CONTINUOUS
 62
     1
 10
1328.681698665
 20
675.115450048
 30
0.0
 11
1361.43895599
 21
707.872707374
 31
0.0
  0
LINE
  8
0
  6
CONTINUOUS
 62
     1
 10
1395.503289487
 20
608.293859226
 30
0.0
 11
1397.281664103
 21
610.072233842
 31
0.0
  0
LINE
  8
0
  6
CONTINUOUS
 62
     1
 10
1397.624609831
 20
606.172538882
 30
0.0
 11
1399.402984446
 21
607.950913498
 31
0.0
  0
LINE
  8
0
  6
CONTINUOUS
 62
     1
 10
1458.818290993
 20
587.405264591
 30
0.0
 11
1467.274627778
 21
578.948927807
 31
0.0
  0
LINE
  8
0
  6
CONTINUOUS
 62
     1
 10
1431.919288718
 20
571.877859995
 30
0.0
 11
1447.191593508
 21
587.150164785
 31
0.0
  0
LINE
  8
0
  6
CONTINUOUS
 62
     1
 10
1525.993435206
 20
654.580408804
 30
0.0
 11
1534.44977199
 21
646.12407202
 31
0.0
  0
LINE
  8
0
  6
CONTINUOUS
 62
     1
 10
1526.248535012
 20
666.207106289
 30
0.0
 11
1541.520839802
 21
681.479411079
 31
0.0
  0
LINE
  8
0
  6
CONTINUOUS
 62
     1
 10
1519.901632649
 20
631.575932678
 30
0.0
 11
1534.44977199
 21
646.12407202
 31
0.0
  0
LINE
  8
0
  6
CONTINUOUS
 62
     1
 10
1467.274627778
 20
578.948927807
 30
0.0
 11
1481.822767119
 21
593.497067148
 31
0.0
  0
LINE
  8
0
  6
CONTINUOUS
 62
     1
 10
1505.447786299
 20
713.995715351
 30
0.0
 11
1507.226160915
 21
715.774089966
 31
0.0
  0
LINE
  8
0
  6
CONTINUOUS
 62
     1
 10
1503.326465955
 20
716.117035694
 30
0.0
 11
1505.104840571
 21
717.89541031
 31
0.0
  0
ARC
  8
0
  6
CONTINUOUS
 62
     1
 10
1451.364725201
 20
662.033974596
 30
0.0
 40
75.0
 50
167.021869028
 51
102.978130972
  0
LINE
  8
0
  6
CONTINUOUS
 62
     1
 10
1479.243404857
 20
692.033974596
 30
0.0
 11
1485.659404088
 21
698.449973827
 31
0.0
  0
LINE
  8
0
  6
CONTINUOUS
 62
     1
 10
1414.94872597
 20
627.739295709
 30
0.0
 11
1421.364725201
 21
634.15529494
 31
0.0
  0
LINE
  8
0
  6
CONTINUOUS
 62
     1
 10
1481.364725201
 20
689.912654253
 30
0.0
 11
1487.780724432
 21
696.328653484
 31
0.0
  0
LINE
  8
0
  6
CONTINUOUS
 62
     1
 10
1417.070046313
 20
625.617975365
 30
0.0
 11
1423.486045544
 21
632.033974596
 31
0.0
  0
LINE
  8
0
  6
CONTINUOUS
 62
     1
 10
1481.364725201
 20
635.465432101
 30
0.0
 11
1515.004335508
 21
669.105042408
 31
0.0
  0
LINE
  8
0
  6
CONTINUOUS
 62
     1
 10
1444.293657389
 20
598.394364289
 30
0.0
 11
1477.933267696
 21
632.033974596
 31
0.0
  0
ARC
  8
0
  6
CONTINUOUS
 62
     1
 10
1398.364725201
 20
609.033974596
 30
0.0
 40
9.0
 50
151.437219909
 51
298.562780091
  0
LINE
  8
0
  6
LTYPE1
 62
     2
 10
1407.763174117
 20
596.033974596
 30
0.0
 11
1484.359674567
 21
596.033974596
 31
0.0
  0
LINE
  8
0
  6
LTYPE1
 62
     2
 10
1409.263174117
 20
594.533974596
 30
0.0
 11
1482.759674567
 21
594.533974596
 31
0.0
  0
ARC
  8
0
  6
LTYPE1
 62
     2
 10
1398.364725201
 20
609.033974596
 30
0.0
 40
9.0
 50
298.562780092
 51
25.806365577
  0
LINE
  8
0
  6
LTYPE1
 62
     2
 10
1406.364725201
 20
597.432423512
 30
0.0
 11
1406.364725201
 21
615.129816998
 31
0.0
  0
LINE
  8
0
  6
CONTINUOUS
 62
     1
 10
1406.364725201
 20
596.033974596
 30
0.0
 11
1406.364725201
 21
597.432423512
 31
0.0
  0
LINE
  8
0
  6
CONTINUOUS
 62
     1
 10
1406.364725201
 20
596.033974596
 30
0.0
 11
1407.763174117
 21
596.033974596
 31
0.0
  0
ARC
  8
0
  6
LTYPE1
 62
     2
 10
1398.364725201
 20
609.033974596
 30
0.0
 40
9.0
 50
58.93430791
 51
151.437219909
  0
ARC
  8
0
  6
LTYPE1
 62
     2
 10
1504.364725201
 20
609.033974596
 30
0.0
 40
9.0
 50
90.000097237
 51
204.410967115
  0
LINE
  8
0
  6
LTYPE1
 62
     2
 10
1496.364725201
 20
602.033974596
 30
0.0
 11
1496.364725201
 21
615.129816998
 31
0.0
  0
LINE
  8
0
  6
CONTINUOUS
 62
     1
 10
1384.364725201
 20
603.033974596
 30
0.0
 11
1384.364725201
 21
619.332423512
 31
0.0
  0
LINE
  8
0
  6
CONTINUOUS
 62
     1
 10
1356.364725201
 20
639.033974596
 30
0.0
 11
1365.937848895
 21
637.859299818
 31
0.0
  0
LINE
  8
0
  6
CONTINUOUS
 62
     1
 10
1356.364725201
 20
639.033974596
 30
0.0
 11
1356.364725201
 21
647.432423512
 31
0.0
  0
LINE
  8
0
  6
LTYPE1
 62
     2
 10
1356.364725201
 20
685.033974596
 30
0.0
 11
1356.364725201
 21
647.432423512
 31
0.0
  0
LINE
  8
0
  6
LTYPE1
 62
     2
 10
1384.364725201
 20
619.432423512
 30
0.0
 11
1384.364725201
 21
628.329375504
 31
0.0
  0
LINE
  8
0
  6
LTYPE1
 62
     2
 10
1356.364725201
 20
685.033974596
 30
0.0
 11
1405.225201536
 21
691.029423003
 31
0.0
  0
CIRCLE
  8
0
  6
LTYPE1
 62
     2
 10
1398.364725201
 20
715.033974596
 30
0.0
 40
9.0
  0
LINE
  8
0
  6
LTYPE1
 62
     2
 10
1384.364725201
 20
688.469728154
 30
0.0
 11
1384.364725201
 21
721.033974596
 31
0.0
  0
ARC
  8
0
  6
LTYPE1
 62
     2
 10
1392.364725201
 20
721.033974596
 30
0.0
 40
8.0
 50
90.0
 51
180.0
  0
ARC
  8
0
  6
LTYPE1
 62
     2
 10
1451.364725201
 20
827.033974596
 30
0.0
 40
105.0
 50
248.960530219
 51
250.314945175
  0
LINE
  8
0
  6
LTYPE1
 62
     2
 10
1392.364725201
 20
729.033974596
 30
0.0
 11
1413.668571551
 21
729.033974596
 31
0.0
  0
ARC
  8
0
  6
LTYPE1
 62
     2
 10
1451.364725201
 20
827.033974596
 30
0.0
 40
105.0
 50
250.314945175
 51
289.685054825
  0
LINE
  8
0
  6
CONTINUOUS
 62
     1
 10
1493.966276285
 20
729.033974596
 30
0.0
 11
1510.364725201
 21
729.033974596
 31
0.0
  0
ARC
  8
0
  6
LTYPE1
 62
     2
 10
1451.364725201
 20
827.033974596
 30
0.0
 40
105.0
 50
289.685054825
 51
291.039469781
  0
LINE
  8
0
  6
LTYPE1
 62
     2
 10
1489.060878851
 20
729.033974596
 30
0.0
 11
1493.966276285
 21
729.033974596
 31
0.0
  0
ARC
  8
0
  6
LTYPE1
 62
     2
 10
1504.364725201
 20
715.033974596
 30
0.0
 40
9.0
 50
118.562780091
 51
331.437219909
  0
ARC
  8
0
  6
CONTINUOUS
 62
     1
 10
1504.364725201
 20
715.033974596
 30
0.0
 40
9.0
 50
334.434147778
 51
115.565852222
  0
LINE
  8
0
  6
LTYPE1
 62
     2
 10
1366.037848895
 20
637.84702927
 30
0.0
 11
1405.164725201
 21
633.045946967
 31
0.0
  0
LINE
  8
0
  6
CONTINUOUS
 62
     1
 10
1546.364725201
 20
685.033974596
 30
0.0
 11
1536.891601507
 21
686.196378826
 31
0.0
  0
LINE
  8
0
  6
CONTINUOUS
 62
     1
 10
1546.364725201
 20
639.033974596
 30
0.0
 11
1524.901474956
 21
636.400316082
 31
0.0
  0
LINE
  8
0
  6
LTYPE1
 62
     2
 10
1536.791601507
 20
686.208649374
 30
0.0
 11
1499.064725201
 21
690.837943999
 31
0.0
  0
LINE
  8
0
  6
LTYPE1
 62
     2
 10
1524.701474956
 20
636.375774986
 30
0.0
 11
1499.464725201
 21
633.279087387
 31
0.0
  0
LINE
  8
0
  6
CONTINUOUS
 62
     1
 10
1518.364725201
 20
704.63552568
 30
0.0
 11
1518.364725201
 21
721.033974596
 31
0.0
  0
LINE
  8
0
  6
LTYPE1
 62
     2
 10
1518.364725201
 20
688.469728154
 30
0.0
 11
1518.364725201
 21
704.53552568
 31
0.0
  0
LINE
  8
0
  6
LTYPE1
 62
     2
 10
1518.364725201
 20
630.03902523
 30
0.0
 11
1518.364725201
 21
635.598221039
 31
0.0
  0
LINE
  8
0
  6
CONTINUOUS
 62
     1
 10
1358.864725201
 20
790.151290326
 30
0.0
 11
1358.864725201
 21
800.037264212
 31
0.0
  0
ARC
  8
0
  6
CONTINUOUS
 62
     1
 10
1451.364725201
 20
838.033974596
 30
0.0
 40
100.0
 50
116.103881137
 51
206.609478136
  0
ARC
  8
0
  6
CONTINUOUS
 62
     1
 10
1451.364725201
 20
838.033974596
 30
0.0
 40
100.0
 50
286.997639734
 51
63.896118863
  0
ARC
  8
0
  6
CONTINUOUS
 62
     1
 10
1451.364725201
 20
838.033974596
 30
0.0
 40
100.0
 50
215.479975154
 51
226.890577804
  0
ARC
  8
0
  6
CONTINUOUS
 62
     1
 10
1451.364725201
 20
838.033974596
 30
0.0
 40
71.0
 50
274.138215212
 51
198.617919403
  0
LINE
  8
0
  6
CONTINUOUS
 62
     2
 10
1330.099349899
 20
783.299349899
 30
0.0
 11
1329.446769012
 21
795.281592518
 31
0.0
  0
LINE
  8
0
  6
CONTINUOUS
 62
     2
 10
1330.099349899
 20
783.299349899
 30
0.0
 11
1323.543076964
 21
793.349985958
 31
0.0
  0
LINE
  8
0
  6
CONTINUOUS
 62
     1
 10
1411.664725201
 20
543.033974596
 30
0.0
 11
1401.064725201
 21
543.033974596
 31
0.0
  0
ARC
  8
0
  6
CONTINUOUS
 62
     1
 10
1406.764725201
 20
544.033974596
 30
0.0
 40
5.0
 50
272.3
 51
348.5
  0
ARC
  8
0
  6
CONTINUOUS
 62
     1
 10
1405.964725201
 20
544.033974596
 30
0.0
 40
5.0
 50
191.5
 51
267.7
  0
LINE
  8
0
  6
CONTINUOUS
 62
     1
 10
1406.964725201
 20
539.033974596
 30
0.0
 11
1405.764725201
 21
539.033974596
 31
0.0
  0
LINE
  8
0
  6
LTYPE6
 62
     2
 10
1406.364725201
 20
535.633974596
 30
0.0
 11
1406.364725201
 21
549.033974596
 31
0.0
  0
LINE
  8
0
  6
CONTINUOUS
 62
     1
 10
1501.564725201
 20
543.033974596
 30
0.0
 11
1490.964725201
 21
543.033974596
 31
0.0
  0
ARC
  8
0
  6
CONTINUOUS
 62
     1
 10
1496.664725201
 20
544.033974596
 30
0.0
 40
5.0
 50
272.3
 51
348.5
  0
ARC
  8
0
  6
CONTINUOUS
 62
     1
 10
1495.864725201
 20
544.033974596
 30
0.0
 40
5.0
 50
191.5
 51
267.7
  0
LINE
  8
0
  6
CONTINUOUS
 62
     1
 10
1496.864725201
 20
539.033974596
 30
0.0
 11
1495.664725201
 21
539.033974596
 31
0.0
  0
LINE
  8
0
  6
LTYPE6
 62
     2
 10
1496.264725201
 20
535.633974596
 30
0.0
 11
1496.264725201
 21
549.033974596
 31
0.0
  0
LINE
  8
0
  6
CONTINUOUS
 62
     2
 10
1594.864725201
 20
849.233974596
 30
0.0
 11
1594.864725201
 21
624.533974596
 31
0.0
  0
TEXT
  8
0
  6
CONTINUOUS
 62
     2
 10
1589.864725201
 20
682.533974596
 30
1.5
 40
15.0
  1
φ２５Ｈ１０深さ３０
 50
90.0
 41
0.933333333
 51
0.0
  7
KANJI52
  0
LINE
  8
0
  6
CONTINUOUS
 62
     2
 10
1574.464725201
 20
838.033974596
 30
0.0
 11
1634.364725201
 21
838.033974596
 31
0.0
  0
LINE
  8
0
  6
CONTINUOUS
 62
     2
 10
1629.364725201
 20
662.033974596
 30
0.0
 11
1629.364725201
 21
838.033974596
 31
0.0
  0
LINE
  8
0
  6
CONTINUOUS
 62
     2
 10
1629.364725201
 20
838.033974596
 30
0.0
 11
1626.129487137
 21
825.959901768
 31
0.0
  0
LINE
  8
0
  6
CONTINUOUS
 62
     2
 10
1629.364725201
 20
838.033974596
 30
0.0
 11
1632.599963265
 21
825.959901768
 31
0.0
  0
LINE
  8
7
  6
CONTINUOUS
 62
     2
 10
1629.364725201
 20
838.033974596
 30
0.0
 11
1632.599963265
 21
850.108047425
 31
0.0
  0
LINE
  8
7
  6
CONTINUOUS
 62
     2
 10
1629.364725201
 20
838.033974596
 30
0.0
 11
1626.129487137
 21
850.108047425
 31
0.0
  0
LINE
  8
7
  6
CONTINUOUS
 62
     2
 10
1629.364725201
 20
838.033974596
 30
0.0
 11
1629.364725201
 21
975.033974596
 31
0.0
  0
LINE
  8
7
  6
CONTINUOUS
 62
     2
 10
1661.064725201
 20
543.033974596
 30
0.0
 11
1661.064725201
 21
975.033974596
 31
0.0
  0
TEXT
  8
7
  6
CONTINUOUS
 62
     2
 10
1656.064725201
 20
746.283974596
 30
1.5
 40
15.0
  1
４３２
 50
90.0
 41
0.9
 51
0.0
  7
KANJI53
  0
LINE
  8
7
  6
CONTINUOUS
 62
     2
 10
1629.364725201
 20
975.033974596
 30
0.0
 11
1626.129487137
 21
962.959901768
 31
0.0
  0
LINE
  8
7
  6
CONTINUOUS
 62
     2
 10
1629.364725201
 20
975.033974596
 30
0.0
 11
1632.599963265
 21
962.959901768
 31
0.0
  0
LINE
  8
7
  6
CONTINUOUS
 62
     2
 10
1661.064725201
 20
975.033974596
 30
0.0
 11
1657.829487137
 21
962.959901768
 31
0.0
  0
LINE
  8
7
  6
CONTINUOUS
 62
     2
 10
1661.064725201
 20
975.033974596
 30
0.0
 11
1664.299963265
 21
962.959901768
 31
0.0
  0
TEXT
  8
7
  6
CONTINUOUS
 62
     2
 10
1624.364725201
 20
893.783974596
 30
1.5
 40
15.0
  1
１３７
 50
90.0
 41
0.9
 51
0.0
  7
KANJI53
  0
LINE
  8
0
  6
CONTINUOUS
 62
     2
 10
1694.25
 20
918.35
 30
0.0
 11
1807.65
 21
918.35
 31
0.0
  0
TEXT
  8
0
  6
CONTINUOUS
 62
     3
 10
1694.25
 20
921.35
 30
0.0
 40
18.0
  1
２－ＰＦ１／２
 50
0.0
 41
0.9
 51
0.0
  7
KANJI44
  0
TEXT
  8
0
  6
CONTINUOUS
 62
     2
 10
1624.364725201
 20
580.033974596
 30
1.5
 40
15.0
  1
１１９
 50
90.0
 41
0.933333333
 51
0.0
  7
KANJI52
  0
TEXT
  8
0
  6
CONTINUOUS
 62
     2
 10
1624.364725201
 20
727.533974596
 30
1.5
 40
15.0
  1
１７６
 50
90.0
 41
0.933333333
 51
0.0
  7
KANJI52
  0
LINE
  8
0
  6
CONTINUOUS
 62
     2
 10
1594.864725201
 20
674.533974596
 30
0.0
 11
1598.099963265
 21
686.608047425
 31
0.0
  0
LINE
  8
0
  6
CONTINUOUS
 62
     2
 10
1594.864725201
 20
674.533974596
 30
0.0
 11
1591.629487137
 21
686.608047425
 31
0.0
  0
LINE
  8
0
  6
CONTINUOUS
 62
     2
 10
1594.864725201
 20
649.533974596
 30
0.0
 11
1591.629487137
 21
637.459901768
 31
0.0
  0
LINE
  8
0
  6
CONTINUOUS
 62
     2
 10
1594.864725201
 20
649.533974596
 30
0.0
 11
1598.099963265
 21
637.459901768
 31
0.0
  0
LINE
  8
0
  6
CONTINUOUS
 62
     2
 10
1572.664725201
 20
662.033974596
 30
0.0
 11
1634.364725201
 21
662.033974596
 31
0.0
  0
LINE
  8
0
  6
CONTINUOUS
 62
     2
 10
1629.364725201
 20
543.033974596
 30
0.0
 11
1632.599963265
 21
555.108047425
 31
0.0
  0
LINE
  8
0
  6
CONTINUOUS
 62
     2
 10
1629.364725201
 20
543.033974596
 30
0.0
 11
1626.129487137
 21
555.108047425
 31
0.0
  0
LINE
  8
0
  6
CONTINUOUS
 62
     2
 10
1634.364725201
 20
543.033974596
 30
0.0
 11
1667.114725201
 21
543.033974596
 31
0.0
  0
LINE
  8
0
  6
CONTINUOUS
 62
     2
 10
1629.364725201
 20
662.033974596
 30
0.0
 11
1626.129487137
 21
649.959901768
 31
0.0
  0
LINE
  8
0
  6
CONTINUOUS
 62
     2
 10
1629.364725201
 20
662.033974596
 30
0.0
 11
1632.599963265
 21
649.959901768
 31
0.0
  0
LINE
  8
0
  6
CONTINUOUS
 62
     2
 10
1629.364725201
 20
662.033974596
 30
0.0
 11
1629.364725201
 21
543.033974596
 31
0.0
  0
LINE
  8
0
  6
CONTINUOUS
 62
     2
 10
1629.364725201
 20
662.033974596
 30
0.0
 11
1632.599963265
 21
674.108047425
 31
0.0
  0
LINE
  8
0
  6
CONTINUOUS
 62
     2
 10
1629.364725201
 20
662.033974596
 30
0.0
 11
1626.129487137
 21
674.108047425
 31
0.0
  0
LINE
  8
7
  6
CONTINUOUS
 62
     2
 10
1661.064725201
 20
543.033974596
 30
0.0
 11
1664.299963265
 21
555.108047425
 31
0.0
  0
LINE
  8
7
  6
CONTINUOUS
 62
     2
 10
1661.064725201
 20
543.033974596
 30
0.0
 11
1657.829487137
 21
555.108047425
 31
0.0
  0
TEXT
  8
0
  6
CONTINUOUS
 62
     3
 10
1117.22
 20
959.94
 30
0.0
 40
20.0
  1
前進
 50
0.0
 41
0.925
 51
0.0
  7
KANJI47
  0
LINE
  8
0
  6
CONTINUOUS
 62
     2
 10
1151.22
 20
949.94
 30
0.0
 11
1110.22
 21
949.94
 31
0.0
  0
LINE
  8
0
  6
CONTINUOUS
 62
     2
 10
1151.22
 20
949.94
 30
0.0
 11
1139.145927171
 21
953.175238064
 31
0.0
  0
LINE
  8
0
  6
CONTINUOUS
 62
     2
 10
1151.22
 20
949.94
 30
0.0
 11
1139.145927171
 21
946.704761936
 31
0.0
  0
TEXT
  8
0
  6
CONTINUOUS
 62
     2
 10
1029.72
 20
1453.72
 30
0.96
 40
14.4
  1
ＭＣＬＤ２Ｃ－　　２ＪＬ
 50
0.0
 41
0.833333333
 51
0.0
  7
KANJI54
  0
TEXT
  8
0
  6
CONTINUOUS
 62
     2
 10
1029.72
 20
1422.12
 30
0.96
 40
14.4
  1
ＭＣＬＤ２Ｃ－　　３ＪＬ
 50
0.0
 41
0.833333333
 51
0.0
  7
KANJI54
  0
TEXT
  8
0
  6
CONTINUOUS
 62
     2
 10
1029.72
 20
1390.52
 30
0.96
 40
14.4
  1
ＭＣＬＤ２Ｃ－　　４ＪＬ
 50
0.0
 41
0.833333333
 51
0.0
  7
KANJI54
  0
TEXT
  8
0
  6
CONTINUOUS
 62
     2
 10
1029.72
 20
1358.92
 30
0.96
 40
14.4
  1
ＭＣＬＤ２Ｃ－　　５ＪＬ
 50
0.0
 41
0.833333333
 51
0.0
  7
KANJI54
  0
TEXT
  8
0
  6
CONTINUOUS
 62
     2
 10
1029.72
 20
1327.32
 30
0.96
 40
14.4
  1
ＭＣＬＤ２Ｃ－　　６ＪＬ
 50
0.0
 41
0.833333333
 51
0.0
  7
KANJI54
  0
TEXT
  8
0
  6
CONTINUOUS
 62
     2
 10
1029.72
 20
1295.72
 30
0.96
 40
14.4
  1
ＭＣＬＤ２Ｃ－　　７ＪＬ
 50
0.0
 41
0.833333333
 51
0.0
  7
KANJI54
  0
TEXT
  8
0
  6
CONTINUOUS
 62
     2
 10
1029.72
 20
1264.12
 30
0.96
 40
14.4
  1
ＭＣＬＤ２Ｃ－　　８ＪＬ
 50
0.0
 41
0.833333333
 51
0.0
  7
KANJI54
  0
TEXT
  8
0
  6
CONTINUOUS
 62
     2
 10
1029.72
 20
1232.52
 30
0.96
 40
14.4
  1
ＭＣＬＤ２Ｃ－　　９ＪＬ
 50
0.0
 41
0.833333333
 51
0.0
  7
KANJI54
  0
TEXT
  8
0
  6
CONTINUOUS
 62
     2
 10
1029.72
 20
1200.92
 30
0.96
 40
14.4
  1
ＭＣＬＤ２Ｃ－　１０ＪＬ
 50
0.0
 41
0.833333333
 51
0.0
  7
KANJI54
  0
TEXT
  8
0
  6
CONTINUOUS
 62
     2
 10
1029.72
 20
1169.32
 30
0.96
 40
14.4
  1
ＭＣＬＤ２Ｃ－　１１ＪＬ
 50
0.0
 41
0.833333333
 51
0.0
  7
KANJI54
  0
TEXT
  8
0
  6
CONTINUOUS
 62
     2
 10
1029.72
 20
1137.72
 30
0.96
 40
14.4
  1
ＭＣＬＤ２Ｃ－　１２ＪＬ
 50
0.0
 41
0.833333333
 51
0.0
  7
KANJI54
  0
TEXT
  8
0
  6
CONTINUOUS
 62
     2
 10
1029.72
 20
1106.12
 30
0.96
 40
14.4
  1
ＭＣＬＤ２Ｃ－　１３ＪＬ
 50
0.0
 41
0.833333333
 51
0.0
  7
KANJI54
  0
TEXT
  8
0
  6
CONTINUOUS
 62
     2
 10
1029.72
 20
1074.52
 30
0.96
 40
14.4
  1
ＭＣＬＤ２Ｃ－　１４ＪＬ
 50
0.0
 41
0.833333333
 51
0.0
  7
KANJI54
  0
TEXT
  8
0
  6
CONTINUOUS
 62
     2
 10
1029.72
 20
1042.92
 30
0.96
 40
14.4
  1
ＭＣＬＤ２Ｃ－　１５ＪＬ
 50
0.0
 41
0.833333333
 51
0.0
  7
KANJI54
  0
TEXT
  8
0
  6
CONTINUOUS
 62
     2
 10
1029.72
 20
1011.32
 30
0.96
 40
14.4
  1
ＭＣＬＤ２Ｃ－　　　ＪＬ　　
 50
0.0
 41
0.833333333
 51
0.0
  7
KANJI54
  0
TEXT
  8
0
  6
CONTINUOUS
 62
     2
 10
1717.32
 20
1454.08
 30
1.44
 40
14.4
  1
　８０
 50
0.0
 41
0.9
 51
0.0
  7
KANJI38
  0
TEXT
  8
0
  6
CONTINUOUS
 62
     2
 10
1717.32
 20
1422.48
 30
1.44
 40
14.4
  1
　８３
 50
0.0
 41
0.9
 51
0.0
  7
KANJI38
  0
TEXT
  8
0
  6
CONTINUOUS
 62
     2
 10
1717.32
 20
1390.88
 30
1.44
 40
14.4
  1
　８７
 50
0.0
 41
0.9
 51
0.0
  7
KANJI38
  0
TEXT
  8
0
  6
CONTINUOUS
 62
     2
 10
1717.32
 20
1359.28
 30
1.44
 40
14.4
  1
　９２
 50
0.0
 41
0.9
 51
0.0
  7
KANJI38
  0
TEXT
  8
0
  6
CONTINUOUS
 62
     2
 10
1717.32
 20
1327.68
 30
1.44
 40
14.4
  1
　９６
 50
0.0
 41
0.9
 51
0.0
  7
KANJI38
  0
TEXT
  8
0
  6
CONTINUOUS
 62
     2
 10
1717.32
 20
1296.08
 30
1.44
 40
14.4
  1
１００
 50
0.0
 41
0.9
 51
0.0
  7
KANJI38
  0
TEXT
  8
0
  6
CONTINUOUS
 62
     2
 10
1717.32
 20
1264.48
 30
1.44
 40
14.4
  1
１０４
 50
0.0
 41
0.9
 51
0.0
  7
KANJI38
  0
TEXT
  8
0
  6
CONTINUOUS
 62
     2
 10
1717.32
 20
1232.88
 30
1.44
 40
14.4
  1
１０７
 50
0.0
 41
0.9
 51
0.0
  7
KANJI38
  0
TEXT
  8
0
  6
CONTINUOUS
 62
     2
 10
1717.32
 20
1201.28
 30
1.44
 40
14.4
  1
１１０
 50
0.0
 41
0.9
 51
0.0
  7
KANJI38
  0
TEXT
  8
0
  6
CONTINUOUS
 62
     2
 10
1717.32
 20
1169.68
 30
1.44
 40
14.4
  1
１１２
 50
0.0
 41
0.9
 51
0.0
  7
KANJI38
  0
TEXT
  8
0
  6
CONTINUOUS
 62
     2
 10
1717.32
 20
1138.08
 30
1.44
 40
14.4
  1
１１４
 50
0.0
 41
0.9
 51
0.0
  7
KANJI38
  0
TEXT
  8
0
  6
CONTINUOUS
 62
     2
 10
1717.32
 20
1106.48
 30
1.44
 40
14.4
  1
１１６
 50
0.0
 41
0.9
 51
0.0
  7
KANJI38
  0
TEXT
  8
0
  6
CONTINUOUS
 62
     2
 10
1717.32
 20
1074.88
 30
1.44
 40
14.4
  1
１１８
 50
0.0
 41
0.9
 51
0.0
  7
KANJI38
  0
TEXT
  8
0
  6
CONTINUOUS
 62
     2
 10
1717.32
 20
1043.28
 30
1.44
 40
14.4
  1
１２０
 50
0.0
 41
0.9
 51
0.0
  7
KANJI38
  0
LINE
  8
0
  6
CONTINUOUS
 62
     2
 10
658.2199996
 20
1212.4999876
 30
0.0
 11
658.2199996
 21
1159.0999876
 31
0.0
  0
LINE
  8
0
  6
CONTINUOUS
 62
     2
 10
499.0199996
 20
1201.0999876
 30
0.0
 11
658.2199996
 21
1201.0999876
 31
0.0
  0
LINE
  8
0
  6
CONTINUOUS
 62
     2
 10
658.2199996
 20
1201.0999876
 30
0.0
 11
650.49259299
 21
1203.170539961
 31
0.0
  0
LINE
  8
0
  6
CONTINUOUS
 62
     2
 10
658.2199996
 20
1201.0999876
 30
0.0
 11
650.49259299
 21
1199.029435239
 31
0.0
  0
TEXT
  8
0
  6
CONTINUOUS
 62
     3
 10
539.6699996
 20
1203.3999876
 30
0.0
 40
15.0
  1
常用ストローク
 50
0.0
 41
0.9
 51
0.0
  7
KANJI36
  0
LINE
  8
0
  6
CONTINUOUS
 62
     1
 10
1438.283249749
 20
784.717001132
 30
0.0
 11
1505.104840571
 21
717.89541031
 31
0.0
  0
LINE
  8
0
  6
CONTINUOUS
 62
     1
 10
1405.525992423
 20
751.959743807
 30
0.0
 11
1438.283249749
 21
784.717001132
 31
0.0
  0
LINE
  8
0
  6
CONTINUOUS
 62
     2
 10
1414.302720397
 20
794.383974596
 30
0.0
 11
1426.158734719
 21
796.237329501
 31
0.0
  0
LINE
  8
0
  6
CONTINUOUS
 62
     2
 10
1414.302720397
 20
794.383974596
 30
0.0
 11
1423.643652535
 21
801.917034187
 31
0.0
  0
LINE
  8
0
  6
CONTINUOUS
 62
     2
 10
1414.302720397
 20
794.383974596
 30
0.0
 11
1694.25
 21
918.35
 31
0.0
  0
POINT
  8
0
  6
CONTINUOUS
 62
     2
 10
1694.25
 20
918.35
 30
0.0
  0
LINE
  8
0
  6
CONTINUOUS
 62
     2
 10
1451.364725201
 20
528.712826587
 30
0.0
 11
1451.364725201
 21
493.212826587
 31
0.0
  0
LINE
  8
0
  6
CONTINUOUS
 62
     2
 10
1451.364725201
 20
499.212826587
 30
0.0
 11
1439.773615285
 21
502.318655128
 31
0.0
  0
LINE
  8
0
  6
CONTINUOUS
 62
     2
 10
1451.364725201
 20
499.212826587
 30
0.0
 11
1439.773615285
 21
496.106998046
 31
0.0
  0
LINE
  8
0
  6
CONTINUOUS
 62
     2
 10
1451.364725201
 20
499.212826587
 30
0.0
 11
1291.364725201
 21
499.212826587
 31
0.0
  0
LINE
  8
0
  6
CONTINUOUS
 62
     2
 10
1291.364725201
 20
499.212826587
 30
0.0
 11
1302.955835116
 21
496.106998046
 31
0.0
  0
LINE
  8
0
  6
CONTINUOUS
 62
     2
 10
1291.364725201
 20
499.212826587
 30
0.0
 11
1302.955835116
 21
502.318655128
 31
0.0
  0
LINE
  8
0
  6
CONTINUOUS
 62
     2
 10
1291.364725201
 20
695.484851116
 30
0.0
 11
1291.364725201
 21
493.212826587
 31
0.0
  0
TEXT
  8
0
  6
CONTINUOUS
 62
     3
 10
1362.014725201
 20
508.212826587
 30
0.0
 40
18.0
  1
１６０
 50
0.0
 41
0.9
 51
0.0
  7
KANJI44
  0
TEXT
  8
0
  6
CONTINUOUS
 62
     2
 10
1333.32
 20
1169.68
 30
1.44
 40
14.4
  1
１９０４
 50
0.0
 41
0.9
 51
0.0
  7
KANJI38
  0
TEXT
  8
0
  6
CONTINUOUS
 62
     2
 10
1333.32
 20
1138.08
 30
1.44
 40
14.4
  1
２０２７
 50
0.0
 41
0.9
 51
0.0
  7
KANJI38
  0
TEXT
  8
0
  6
CONTINUOUS
 62
     2
 10
1333.32
 20
1106.48
 30
1.44
 40
14.4
  1
２１４７
 50
0.0
 41
0.9
 51
0.0
  7
KANJI38
  0
TEXT
  8
0
  6
CONTINUOUS
 62
     2
 10
1333.32
 20
1074.88
 30
1.44
 40
14.4
  1
２２６９
 50
0.0
 41
0.9
 51
0.0
  7
KANJI38
  0
TEXT
  8
0
  6
CONTINUOUS
 62
     2
 10
1333.32
 20
1043.28
 30
1.44
 40
14.4
  1
２４０９
 50
0.0
 41
0.9
 51
0.0
  7
KANJI38
  0
TEXT
  8
0
  6
CONTINUOUS
 62
     2
 10
1429.32
 20
1043.28
 30
1.44
 40
14.4
  1
２２１２
 50
0.0
 41
0.9
 51
0.0
  7
KANJI38
  0
TEXT
  8
0
  6
CONTINUOUS
 62
     2
 10
1429.32
 20
1074.88
 30
1.44
 40
14.4
  1
２０７２
 50
0.0
 41
0.9
 51
0.0
  7
KANJI38
  0
TEXT
  8
0
  6
CONTINUOUS
 62
     2
 10
1429.32
 20
1106.48
 30
1.44
 40
14.4
  1
１９５０
 50
0.0
 41
0.9
 51
0.0
  7
KANJI38
  0
TEXT
  8
0
  6
CONTINUOUS
 62
     2
 10
1429.32
 20
1138.08
 30
1.44
 40
14.4
  1
１８３０
 50
0.0
 41
0.9
 51
0.0
  7
KANJI38
  0
TEXT
  8
0
  6
CONTINUOUS
 62
     2
 10
1429.32
 20
1169.68
 30
1.44
 40
14.4
  1
１７０７
 50
0.0
 41
0.9
 51
0.0
  7
KANJI38
  0
LINE
  8
0
  6
CONTINUOUS
 62
     1
 10
871.34722658
 20
566.033974596
 30
0.0
 11
871.34722658
 21
732.033974596
 31
0.0
  0
LINE
  8
0
  6
CONTINUOUS
 62
     1
 10
887.34722658
 20
566.033974596
 30
0.0
 11
887.34722658
 21
732.033974596
 31
0.0
  0
LINE
  8
0
  6
CONTINUOUS
 62
     1
 10
887.34722658
 20
732.033974596
 30
0.0
 11
871.34722658
 21
732.033974596
 31
0.0
  0
LINE
  8
0
  6
CONTINUOUS
 62
     1
 10
931.34722658
 20
717.033974596
 30
0.0
 11
887.34722658
 21
717.033974596
 31
0.0
  0
LINE
  8
0
  6
CONTINUOUS
 62
     1
 10
931.34722658
 20
566.033974596
 30
0.0
 11
931.34722658
 21
732.033974596
 31
0.0
  0
LINE
  8
0
  6
CONTINUOUS
 62
     1
 10
947.34722658
 20
732.033974596
 30
0.0
 11
931.34722658
 21
732.033974596
 31
0.0
  0
LINE
  8
0
  6
CONTINUOUS
 62
     1
 10
947.34722658
 20
566.033974596
 30
0.0
 11
947.34722658
 21
732.033974596
 31
0.0
  0
LINE
  8
0
  6
CONTINUOUS
 62
     1
 10
844.34722658
 20
566.033974596
 30
0.0
 11
974.34722658
 21
566.033974596
 31
0.0
  0
LINE
  8
0
  6
CONTINUOUS
 62
     1
 10
844.34722658
 20
560.033974596
 30
0.0
 11
844.34722658
 21
566.033974596
 31
0.0
  0
LINE
  8
0
  6
CONTINUOUS
 62
     1
 10
844.34722658
 20
560.033974596
 30
0.0
 11
974.34722658
 21
560.033974596
 31
0.0
  0
LINE
  8
0
  6
CONTINUOUS
 62
     1
 10
836.64722658
 20
559.033974596
 30
0.0
 11
836.64722658
 21
533.633974596
 31
0.0
  0
LINE
  8
0
  6
CONTINUOUS
 62
     1
 10
862.04722658
 20
559.033974596
 30
0.0
 11
836.64722658
 21
559.033974596
 31
0.0
  0
LINE
  8
0
  6
CONTINUOUS
 62
     1
 10
862.04722658
 20
560.033974596
 30
0.0
 11
862.04722658
 21
520.033974596
 31
0.0
  0
LINE
  8
0
  6
CONTINUOUS
 62
     1
 10
887.94722658
 20
560.033974596
 30
0.0
 11
887.94722658
 21
520.033974596
 31
0.0
  0
LINE
  8
0
  6
CONTINUOUS
 62
     1
 10
956.64722658
 20
559.033974596
 30
0.0
 11
982.04722658
 21
559.033974596
 31
0.0
  0
LINE
  8
0
  6
CONTINUOUS
 62
     1
 10
974.34722658
 20
560.033974596
 30
0.0
 11
974.34722658
 21
566.033974596
 31
0.0
  0
LINE
  8
0
  6
CONTINUOUS
 62
     1
 10
956.64722658
 20
560.033974596
 30
0.0
 11
956.64722658
 21
520.033974596
 31
0.0
  0
LINE
  8
0
  6
CONTINUOUS
 62
     1
 10
982.04722658
 20
559.033974596
 30
0.0
 11
982.04722658
 21
533.633974596
 31
0.0
  0
LINE
  8
0
  6
LTYPE2
 62
     2
 10
909.34722658
 20
185.033974596
 30
0.0
 11
909.34722658
 21
566.159901768
 31
0.0
  0
LINE
  8
0
  6
CONTINUOUS
 62
     1
 10
862.04722658
 20
533.633974596
 30
0.0
 11
836.64722658
 21
533.633974596
 31
0.0
  0
LINE
  8
0
  6
CONTINUOUS
 62
     1
 10
862.04722658
 20
526.033974596
 30
0.0
 11
956.64722658
 21
526.033974596
 31
0.0
  0
LINE
  8
0
  6
LTYPE1
 62
     2
 10
893.04722658
 20
529.263974596
 30
0.0
 11
888.04722658
 21
529.263974596
 31
0.0
  0
LINE
  8
0
  6
LTYPE1
 62
     2
 10
893.04722658
 20
530.418974596
 30
0.0
 11
888.04722658
 21
530.418974596
 31
0.0
  0
LINE
  8
0
  6
LTYPE1
 62
     2
 10
893.04722658
 20
550.203974596
 30
0.0
 11
888.04722658
 21
550.203974596
 31
0.0
  0
LINE
  8
0
  6
LTYPE1
 62
     2
 10
893.04722658
 20
549.048974596
 30
0.0
 11
888.04722658
 21
549.048974596
 31
0.0
  0
LINE
  8
0
  6
LTYPE1
 62
     2
 10
893.04722658
 20
550.203974596
 30
0.0
 11
888.04722658
 21
550.203974596
 31
0.0
  0
LINE
  8
0
  6
LTYPE5
 62
     2
 10
893.04722658
 20
538.733974596
 30
0.0
 11
883.94722658
 21
538.733974596
 31
0.0
  0
LINE
  8
0
  6
CONTINUOUS
 62
     1
 10
862.04722658
 20
520.033974596
 30
0.0
 11
956.64722658
 21
520.033974596
 31
0.0
  0
LINE
  8
0
  6
CONTINUOUS
 62
     1
 10
893.34722658
 20
505.033974596
 30
0.0
 11
925.34722658
 21
505.033974596
 31
0.0
  0
LINE
  8
0
  6
CONTINUOUS
 62
     2
 10
901.164725201
 20
507.908974596
 30
0.0
 11
891.623485932
 21
499.833409402
 31
0.0
  0
LINE
  8
0
  6
LTYPE1
 62
     2
 10
893.34722658
 20
510.033974596
 30
0.0
 11
925.34722658
 21
510.033974596
 31
0.0
  0
LINE
  8
0
  6
LTYPE5
 62
     2
 10
570.94722658
 20
518.033974596
 30
0.0
 11
1108.44722658
 21
518.033974596
 31
0.0
  0
LINE
  8
0
  6
CONTINUOUS
 62
     2
 10
901.164725201
 20
507.908974596
 30
0.0
 11
896.939552207
 21
496.144710353
 31
0.0
  0
LINE
  8
0
  6
CONTINUOUS
 62
     2
 10
901.164725201
 20
507.908974596
 30
0.0
 11
884.164725201
 21
483.408974596
 31
0.0
  0
TEXT
  8
0
  6
CONTINUOUS
 62
     2
 10
795.664725201
 20
488.408974596
 30
0.0
 40
18.0
  1
ＬＳユニット
 50
0.0
 41
0.9
 51
0.0
  7
KANJI44
  0
LINE
  8
0
  6
CONTINUOUS
 62
     2
 10
884.164725201
 20
483.408974596
 30
0.0
 11
795.664725201
 21
483.408974596
 31
0.0
  0
LINE
  8
0
  6
CONTINUOUS
 62
     1
 10
893.34722658
 20
505.033974596
 30
0.0
 11
893.34722658
 21
520.033974596
 31
0.0
  0
LINE
  8
0
  6
CONTINUOUS
 62
     1
 10
925.34722658
 20
505.033974596
 30
0.0
 11
925.34722658
 21
520.033974596
 31
0.0
  0
LINE
  8
0
  6
CONTINUOUS
 62
     1
 10
956.64722658
 20
533.633974596
 30
0.0
 11
982.04722658
 21
533.633974596
 31
0.0
  0
LINE
  8
0
  6
LTYPE3
 62
     2
 10
966.34722658
 20
545.221474596
 30
0.0
 11
966.34722658
 21
505.233974596
 31
0.0
  0
LINE
  8
0
  6
LTYPE1
 62
     2
 10
1011.664625201
 20
526.033974596
 30
0.0
 11
1053.664625201
 21
526.033974596
 31
0.0
  0
LINE
  8
0
  6
LTYPE1
 62
     2
 10
1011.664625201
 20
510.033974596
 30
0.0
 11
1053.664625201
 21
510.033974596
 31
0.0
  0
CIRCLE
  8
0
  6
CONTINUOUS
 62
     2
 10
1032.664625201
 20
518.033974596
 30
0.0
 40
5.0
  0
LINE
  8
0
  6
CONTINUOUS
 62
     1
 10
1011.664625201
 20
529.033974596
 30
0.0
 11
1020.324879239
 21
534.033974596
 31
0.0
  0
LINE
  8
0
  6
CONTINUOUS
 62
     1
 10
1011.664625201
 20
507.033974596
 30
0.0
 11
1011.664625201
 21
529.033974596
 31
0.0
  0
LINE
  8
0
  6
CONTINUOUS
 62
     1
 10
1020.314625201
 20
502.033974596
 30
0.0
 11
1020.314625201
 21
534.033974596
 31
0.0
  0
LINE
  8
0
  6
CONTINUOUS
 62
     1
 10
1020.314625201
 20
534.033974596
 30
0.0
 11
1045.014625201
 21
534.033974596
 31
0.0
  0
LINE
  8
0
  6
CONTINUOUS
 62
     1
 10
1011.664625201
 20
507.033974596
 30
0.0
 11
1020.324879239
 21
502.033974596
 31
0.0
  0
LINE
  8
0
  6
CONTINUOUS
 62
     1
 10
1020.314625201
 20
502.033974596
 30
0.0
 11
1045.014625201
 21
502.033974596
 31
0.0
  0
CIRCLE
  8
0
  6
CONTINUOUS
 62
     2
 10
1032.664625201
 20
518.033974596
 30
0.0
 40
4.0
  0
LINE
  8
0
  6
LTYPE3
 62
     2
 10
1032.664625201
 20
508.033974596
 30
0.0
 11
1032.664625201
 21
528.033974596
 31
0.0
  0
LINE
  8
0
  6
CONTINUOUS
 62
     1
 10
1053.664625201
 20
529.033974596
 30
0.0
 11
1045.004371163
 21
534.033974596
 31
0.0
  0
LINE
  8
0
  6
CONTINUOUS
 62
     1
 10
1045.014625201
 20
502.033974596
 30
0.0
 11
1045.014625201
 21
534.033974596
 31
0.0
  0
LINE
  8
0
  6
CONTINUOUS
 62
     1
 10
1053.664625201
 20
526.033974596
 30
0.0
 11
1069.164725201
 21
526.033974596
 31
0.0
  0
LINE
  8
0
  6
CONTINUOUS
 62
     1
 10
1053.664625201
 20
510.033974596
 30
0.0
 11
1069.164725201
 21
510.033974596
 31
0.0
  0
LINE
  8
0
  6
CONTINUOUS
 62
     1
 10
1069.164725201
 20
505.033974596
 30
0.0
 11
1069.164725201
 21
682.033974596
 31
0.0
  0
LINE
  8
0
  6
CONTINUOUS
 62
     1
 10
1053.664625201
 20
507.033974596
 30
0.0
 11
1053.664625201
 21
529.033974596
 31
0.0
  0
LINE
  8
0
  6
CONTINUOUS
 62
     1
 10
1053.664625201
 20
507.033974596
 30
0.0
 11
1045.004371163
 21
502.033974596
 31
0.0
  0
LINE
  8
0
  6
CONTINUOUS
 62
     2
 10
1090.664625201
 20
515.233974596
 30
0.0
 11
1095.664625201
 21
515.233974596
 31
0.0
  0
LINE
  8
0
  6
CONTINUOUS
 62
     1
 10
1085.164725201
 20
512.033974596
 30
0.0
 11
1085.164725201
 21
519.528034596
 31
0.0
  0
LINE
  8
0
  6
CONTINUOUS
 62
     1
 10
1090.664625201
 20
523.692754596
 30
0.0
 11
1089.605025799
 21
525.528034596
 31
0.0
  0
LINE
  8
0
  6
CONTINUOUS
 62
     1
 10
1090.664625201
 20
518.033974596
 30
0.0
 11
1090.664625201
 21
523.692754596
 31
0.0
  0
LINE
  8
0
  6
CONTINUOUS
 62
     1
 10
1090.664625201
 20
512.375194596
 30
0.0
 11
1089.605025799
 21
510.539914596
 31
0.0
  0
LINE
  8
0
  6
CONTINUOUS
 62
     1
 10
1090.664625201
 20
518.033974596
 30
0.0
 11
1090.664625201
 21
512.375194596
 31
0.0
  0
ARC
  8
0
  6
CONTINUOUS
 62
     1
 10
1083.509569864
 20
518.033974596
 30
0.0
 40
7.155055337
 50
328.419912243
 51
31.580087757
  0
ARC
  8
0
  6
CONTINUOUS
 62
     1
 10
1088.479201434
 20
523.654519596
 30
0.0
 40
2.185758211
 50
301.002313915
 51
2.989498403
  0
LINE
  8
0
  6
CONTINUOUS
 62
     1
 10
1090.664625201
 20
512.375194596
 30
0.0
 11
1089.605025799
 21
510.539914596
 31
0.0
  0
ARC
  8
0
  6
CONTINUOUS
 62
     1
 10
1088.479201434
 20
512.413429596
 30
0.0
 40
2.185758211
 50
357.010501597
 51
58.997686085
  0
LINE
  8
0
  6
CONTINUOUS
 62
     1
 10
1085.164725201
 20
525.528034596
 30
0.0
 11
1089.605025799
 21
525.528034596
 31
0.0
  0
LINE
  8
0
  6
CONTINUOUS
 62
     1
 10
1085.164725201
 20
521.781004596
 30
0.0
 11
1089.605025799
 21
521.781004596
 31
0.0
  0
LINE
  8
0
  6
CONTINUOUS
 62
     1
 10
1085.164725201
 20
514.286944596
 30
0.0
 11
1089.605025799
 21
514.286944596
 31
0.0
  0
LINE
  8
0
  6
CONTINUOUS
 62
     1
 10
1085.164725201
 20
510.539914596
 30
0.0
 11
1089.605025799
 21
510.539914596
 31
0.0
  0
LINE
  8
0
  6
CONTINUOUS
 62
     1
 10
1090.664625201
 20
514.033974596
 30
0.0
 11
1095.664625201
 21
514.033974596
 31
0.0
  0
LINE
  8
0
  6
CONTINUOUS
 62
     1
 10
1090.664625201
 20
522.033974596
 30
0.0
 11
1095.664625201
 21
522.033974596
 31
0.0
  0
LINE
  8
0
  6
CONTINUOUS
 62
     1
 10
1095.664625201
 20
514.033974596
 30
0.0
 11
1095.664625201
 21
522.033974596
 31
0.0
  0
LINE
  8
0
  6
CONTINUOUS
 62
     2
 10
1090.664625201
 20
514.833974596
 30
0.0
 11
1095.664625201
 21
514.833974596
 31
0.0
  0
LINE
  8
0
  6
CONTINUOUS
 62
     1
 10
1085.164725201
 20
505.033974596
 30
0.0
 11
1085.164725201
 21
669.033974596
 31
0.0
  0
LINE
  8
0
  6
CONTINUOUS
 62
     1
 10
1069.164725201
 20
505.033974596
 30
0.0
 11
1085.164725201
 21
505.033974596
 31
0.0
  0
LINE
  8
0
  6
CONTINUOUS
 62
     2
 10
1090.664625201
 20
520.833974596
 30
0.0
 11
1095.664625201
 21
520.833974596
 31
0.0
  0
LINE
  8
0
  6
CONTINUOUS
 62
     2
 10
1090.664625201
 20
521.233974596
 30
0.0
 11
1095.664625201
 21
521.233974596
 31
0.0
  0
LINE
  8
0
  6
CONTINUOUS
 62
     1
 10
1085.164725201
 20
662.033974596
 30
0.0
 11
1085.164725201
 21
700.033974596
 31
0.0
  0
LINE
  8
0
  6
CONTINUOUS
 62
     1
 10
1085.164725201
 20
702.033974596
 30
0.0
 11
1069.164725201
 21
702.033974596
 31
0.0
  0
LINE
  8
0
  6
CONTINUOUS
 62
     1
 10
1085.164725201
 20
629.033974596
 30
0.0
 11
1085.164725201
 21
702.033974596
 31
0.0
  0
LINE
  8
0
  6
CONTINUOUS
 62
     1
 10
567.564725201
 20
545.033974596
 30
0.0
 11
567.564725201
 21
591.533974596
 31
0.0
  0
LINE
  8
0
  6
CONTINUOUS
 62
     2
 10
575.6
 20
570.033974596
 30
0.0
 11
644.6
 21
570.033974596
 31
0.0
  0
TEXT
  8
0
  6
CONTINUOUS
 62
     3
 10
575.6
 20
573.033974596
 30
0.0
 40
12.0
  1
推力リミッタ
 50
0.0
 41
1.0
 51
0.0
  7
KANJI55
  0
LINE
  8
0
  6
LTYPE1
 62
     2
 10
696.564725201
 20
577.833974596
 30
0.0
 11
686.564725201
 21
577.833974596
 31
0.0
  0
LINE
  8
0
  6
LTYPE2
 62
     2
 10
702.764725201
 20
568.533974596
 30
0.0
 11
683.064725201
 21
568.533974596
 31
0.0
  0
LINE
  8
0
  6
CONTINUOUS
 62
     1
 10
696.564725201
 20
545.033974596
 30
0.0
 11
696.564725201
 21
590.533974596
 31
0.0
  0
LINE
  8
0
  6
CONTINUOUS
 62
     2
 10
696.564725201
 20
568.533974596
 30
0.0
 11
708.562012066
 21
568.27881215
 31
0.0
  0
LINE
  8
0
  6
CONTINUOUS
 62
     2
 10
696.564725201
 20
568.533974596
 30
0.0
 11
707.082261626
 21
574.311640868
 31
0.0
  0
LINE
  8
0
  6
CONTINUOUS
 62
     2
 10
696.564725201
 20
568.533974596
 30
0.0
 11
749.564725201
 21
581.533974596
 31
0.0
  0
LINE
  8
0
  6
CONTINUOUS
 62
     1
 10
696.564725201
 20
551.533974596
 30
0.0
 11
567.564725201
 21
551.533974596
 31
0.0
  0
LINE
  8
0
  6
CONTINUOUS
 62
     1
 10
696.564725201
 20
550.033974596
 30
0.0
 11
567.564725201
 21
550.033974596
 31
0.0
  0
LINE
  8
0
  6
CONTINUOUS
 62
     1
 10
695.564725201
 20
544.033974596
 30
0.0
 11
568.564725201
 21
544.033974596
 31
0.0
  0
LINE
  8
0
  6
CONTINUOUS
 62
     1
 10
692.564725201
 20
543.033974596
 30
0.0
 11
571.664725201
 21
543.033974596
 31
0.0
  0
ARC
  8
0
  6
CONTINUOUS
 62
     1
 10
695.564725201
 20
545.033974596
 30
0.0
 40
1.0
 50
270.0
 51
0.0
  0
LINE
  8
0
  6
CONTINUOUS
 62
     1
 10
693.564725201
 20
544.033974596
 30
0.0
 11
693.564725201
 21
544.033974596
 31
0.0
  0
ARC
  8
0
  6
CONTINUOUS
 62
     1
 10
692.564725201
 20
544.033974596
 30
0.0
 40
1.0
 50
270.0
 51
0.0
  0
LINE
  8
0
  6
CONTINUOUS
 62
     1
 10
692.9
 20
543.033974596
 30
0.0
 11
682.3
 21
543.033974596
 31
0.0
  0
ARC
  8
0
  6
CONTINUOUS
 62
     1
 10
688.0
 20
544.033974596
 30
0.0
 40
5.0
 50
272.3
 51
348.5
  0
ARC
  8
0
  6
CONTINUOUS
 62
     1
 10
687.2
 20
544.033974596
 30
0.0
 40
5.0
 50
191.5
 51
267.7
  0
LINE
  8
0
  6
LTYPE6
 62
     2
 10
687.6
 20
535.633974596
 30
0.0
 11
687.6
 21
549.033974596
 31
0.0
  0
ARC
  8
0
  6
CONTINUOUS
 62
     1
 10
571.564725201
 20
544.033974596
 30
0.0
 40
1.0
 50
180.0
 51
270.0
  0
LINE
  8
0
  6
CONTINUOUS
 62
     1
 10
581.9
 20
542.9
 30
0.0
 11
571.3
 21
542.9
 31
0.0
  0
ARC
  8
0
  6
CONTINUOUS
 62
     1
 10
577.0
 20
543.9
 30
0.0
 40
5.0
 50
272.3
 51
348.5
  0
ARC
  8
0
  6
CONTINUOUS
 62
     1
 10
576.2
 20
543.9
 30
0.0
 40
5.0
 50
191.5
 51
267.7
  0
LINE
  8
0
  6
LTYPE6
 62
     2
 10
576.6
 20
535.5
 30
0.0
 11
576.6
 21
548.9
 31
0.0
  0
ARC
  8
0
  6
CONTINUOUS
 62
     1
 10
568.564725201
 20
545.033974596
 30
0.0
 40
1.0
 50
180.0
 51
270.0
  0
LINE
  8
0
  6
CONTINUOUS
 62
     2
 10
749.564725201
 20
581.533974596
 30
0.0
 11
830.564725201
 21
581.533974596
 31
0.0
  0
TEXT
  8
0
  6
CONTINUOUS
 62
     3
 10
749.564725201
 20
584.533974596
 30
0.0
 40
18.0
  1
ＰＦ１／２
 50
0.0
 41
0.9
 51
0.0
  7
KANJI44
  0
LINE
  8
0
  6
CONTINUOUS
 62
     1
 10
956.64722658
 20
526.033974596
 30
0.0
 11
1011.664625201
 21
526.033974596
 31
0.0
  0
LINE
  8
0
  6
CONTINUOUS
 62
     1
 10
925.34722658
 20
510.033974596
 30
0.0
 11
1011.664625201
 21
510.033974596
 31
0.0
  0
LINE
  8
0
  6
CONTINUOUS
 62
     1
 10
974.34722658
 20
211.133974596
 30
0.0
 11
974.34722658
 21
193.92344828
 31
0.0
  0
TEXT
  8
0
  6
CONTINUOUS
 62
     2
 10
1648.5200334
 20
126.899994
 30
1.8
 40
21.0
  1
０７．１０．０４
 50
0.0
 41
0.571428571
 51
0.0
  7
KANJI56
  0
LINE
  8
0
  6
CONTINUOUS
 62
     2
 10
1873.92
 20
896.7
 30
0.0
 11
2398.92
 21
896.7
 31
0.0
  0
LINE
  8
0
  6
CONTINUOUS
 62
     2
 10
1873.92
 20
854.7
 30
0.0
 11
2398.92
 21
854.7
 31
0.0
  0
LINE
  8
0
  6
CONTINUOUS
 62
     2
 10
1921.92
 20
1232.7
 30
0.0
 11
1921.92
 21
896.7
 31
0.0
  0
TEXT
  8
0
  6
CONTINUOUS
 62
     2
 10
1906.92
 20
865.5
 30
79.962857143
 40
22.8
  1
付属品
 50
0.0
 41
0.9
 51
0.0
  7
KANJI57
  0
TEXT
  8
0
  6
CONTINUOUS
 62
     2
 10
1906.92
 20
823.5
 30
180.445714286
 40
22.8
  1
台数
 50
0.0
 41
0.9
 51
0.0
  7
KANJI58
  0
LINE
  8
0
  6
CONTINUOUS
 62
     1
 10
1873.92
 20
1628.7
 30
0.0
 11
2398.92
 21
1628.7
 31
0.0
  0
TEXT
  8
0
  6
CONTINUOUS
 62
     2
 10
1948.92
 20
1584.9
 30
17.09964
 40
27.0
  1
マイティシリンダ仕様
 50
0.0
 41
0.9
 51
0.0
  7
KANJI59
  0
LINE
  8
0
  6
CONTINUOUS
 62
     2
 10
1921.92
 20
938.7
 30
0.0
 11
2398.92
 21
938.7
 31
0.0
  0
LINE
  8
0
  6
CONTINUOUS
 62
     2
 10
1921.92
 20
1064.7
 30
0.0
 11
2398.92
 21
1064.7
 31
0.0
  0
LINE
  8
0
  6
CONTINUOUS
 62
     2
 10
1921.92
 20
1106.7
 30
0.0
 11
2398.92
 21
1106.7
 31
0.0
  0
LINE
  8
0
  6
CONTINUOUS
 62
     2
 10
1873.92
 20
1316.7
 30
0.0
 11
2398.92
 21
1316.7
 31
0.0
  0
LINE
  8
0
  6
CONTINUOUS
 62
     2
 10
1873.92
 20
1274.7
 30
0.0
 11
2398.92
 21
1274.7
 31
0.0
  0
LINE
  8
0
  6
CONTINUOUS
 62
     2
 10
1873.92
 20
1232.7
 30
0.0
 11
2398.92
 21
1232.7
 31
0.0
  0
LINE
  8
0
  6
CONTINUOUS
 62
     2
 10
1921.92
 20
1148.7
 30
0.0
 11
2398.92
 21
1148.7
 31
0.0
  0
LINE
  8
0
  6
CONTINUOUS
 62
     2
 10
1921.92
 20
1190.7
 30
0.0
 11
2398.92
 21
1190.7
 31
0.0
  0
LINE
  8
0
  6
CONTINUOUS
 62
     2
 10
1873.92
 20
1526.7
 30
0.0
 11
2398.92
 21
1526.7
 31
0.0
  0
LINE
  8
0
  6
CONTINUOUS
 62
     2
 10
1873.92
 20
1484.7
 30
0.0
 11
2398.92
 21
1484.7
 31
0.0
  0
LINE
  8
0
  6
CONTINUOUS
 62
     2
 10
1873.92
 20
1442.7
 30
0.0
 11
2398.92
 21
1442.7
 31
0.0
  0
LINE
  8
0
  6
CONTINUOUS
 62
     2
 10
1873.92
 20
1400.7
 30
0.0
 11
2398.92
 21
1400.7
 31
0.0
  0
LINE
  8
0
  6
CONTINUOUS
 62
     2
 10
1873.92
 20
1358.7
 30
0.0
 11
2398.92
 21
1358.7
 31
0.0
  0
LINE
  8
0
  6
CONTINUOUS
 62
     2
 10
1873.92
 20
1568.7
 30
0.0
 11
2398.92
 21
1568.7
 31
0.0
  0
TEXT
  8
0
  6
CONTINUOUS
 62
     2
 10
1948.92
 20
1159.5
 30
33.439782857
 40
22.8
  1
電源電圧
 50
0.0
 41
0.9
 51
0.0
  7
KANJI60
  0
TEXT
  8
0
  6
CONTINUOUS
 62
     2
 10
1948.92
 20
1117.5
 30
60.42
 40
22.8
  1
周波数
 50
0.0
 41
0.9
 51
0.0
  7
KANJI61
  0
TEXT
  8
0
  6
CONTINUOUS
 62
     2
 10
1948.92
 20
1075.5
 30
141.36
 40
22.8
  1
電流
 50
0.0
 41
0.9
 51
0.0
  7
KANJI62
  0
TEXT
  8
0
  6
CONTINUOUS
 62
     2
 10
1948.92
 20
1033.5
 30
60.42
 40
22.8
  1
絶縁級
 50
0.0
 41
0.9
 51
0.0
  7
KANJI61
  0
TEXT
  8
0
  6
CONTINUOUS
 62
     2
 10
1906.92
 20
1537.5
 30
180.445714286
 40
22.8
  1
形式
 50
0.0
 41
0.9
 51
0.0
  7
KANJI58
  0
TEXT
  8
0
  6
CONTINUOUS
 62
     2
 10
1906.92
 20
1495.5
 30
180.445714286
 40
22.8
  1
推力
 50
0.0
 41
0.9
 51
0.0
  7
KANJI58
  0
TEXT
  8
0
  6
CONTINUOUS
 62
     2
 10
1906.92
 20
1453.5
 30
29.721428571
 40
22.8
  1
ストローク
 50
0.0
 41
0.9
 51
0.0
  7
KANJI63
  0
TEXT
  8
0
  6
CONTINUOUS
 62
     2
 10
1906.92
 20
1327.5
 30
180.445714286
 40
22.8
  1
構造
 50
0.0
 41
0.9
 51
0.0
  7
KANJI58
  0
TEXT
  8
0
  6
CONTINUOUS
 62
     2
 10
1906.92
 20
1285.5
 30
12.973851429
 40
22.8
  1
過負荷安全装置
 50
0.0
 41
0.9
 51
0.0
  7
KANJI64
  0
TEXT
  8
0
  6
CONTINUOUS
 62
     2
 10
1906.92
 20
1243.5
 30
79.962857143
 40
22.8
  1
塗装色
 50
0.0
 41
0.9
 51
0.0
  7
KANJI57
  0
TEXT
  8
0
  6
CONTINUOUS
 62
     2
 10
1882.92
 20
1369.5
 30
1.954285714
 40
22.8
  1
ピストンロッド回転トルク
 50
0.0
 41
0.9
 51
0.0
  7
KANJI65
  0
LINE
  8
0
  6
CONTINUOUS
 62
     2
 10
1873.92
 20
1022.7
 30
0.0
 11
2398.92
 21
1022.7
 31
0.0
  0
LINE
  8
0
  6
CONTINUOUS
 62
     2
 10
1921.92
 20
980.7
 30
0.0
 11
2398.92
 21
980.7
 31
0.0
  0
TEXT
  8
0
  6
CONTINUOUS
 62
     2
 10
1898.37
 20
1226.7
 30
13.2
 40
21.0
  1
モ　トル仕様
 50
0.0
 41
0.9
 51
0.0
  7
KANJI66
  0
TEXT
  8
0
  6
CONTINUOUS
 62
     2
 10
1898.37
 20
1004.7
 30
1.2
 40
21.0
  1
ブレ　キ
 50
0.0
 41
0.9
 51
0.0
  7
KANJI67
  0
LINE
  8
0
  6
CONTINUOUS
 62
     2
 10
1896.72
 20
954.9
 30
0.0
 11
1896.72
 21
942.3
 31
0.0
  0
TEXT
  8
0
  6
CONTINUOUS
 62
     2
 10
2208.42
 20
1286.7
 30
9.0
 40
21.0
  1
推力リミッタ
 50
0.0
 41
0.9
 51
0.0
  7
KANJI68
  0
TEXT
  8
0
  6
CONTINUOUS
 62
     2
 10
2265.42
 20
1034.7
 30
1.8
 40
18.0
  1
Ｅ
 50
0.0
 41
0.9
 51
0.0
  7
KANJI69
  0
TEXT
  8
0
  6
CONTINUOUS
 62
     2
 10
2221.92
 20
949.5
 30
12.0
 40
21.0
  1
同時切り
 50
0.0
 41
0.9
 51
0.0
  7
KANJI70
  0
TEXT
  8
0
  6
CONTINUOUS
 62
     2
 10
1948.92
 20
991.5
 30
141.36
 40
22.8
  1
形式
 50
0.0
 41
0.9
 51
0.0
  7
KANJI62
  0
TEXT
  8
0
  6
CONTINUOUS
 62
     2
 10
1948.92
 20
949.5
 30
33.439782857
 40
22.8
  1
操作方式
 50
0.0
 41
0.9
 51
0.0
  7
KANJI60
  0
LINE
  8
0
  6
CONTINUOUS
 62
     2
 10
1896.72
 20
1190.1
 30
0.0
 11
1896.72
 21
1176.3
 31
0.0
  0
TEXT
  8
0
  6
CONTINUOUS
 62
     2
 10
1948.92
 20
1201.5
 30
3.0
 40
22.8
  1
出力　相数　極数
 50
0.0
 41
0.9
 51
0.0
  7
KANJI71
  0
TEXT
  8
0
  6
CONTINUOUS
 62
     2
 10
1906.92
 20
1411.5
 30
12.0
 40
22.8
  1
公称速度
 50
0.0
 41
0.9
 51
0.0
  7
KANJI72
  0
TEXT
  8
0
  6
CONTINUOUS
 62
     2
 10
2030.82
 20
1410.3
 30
0.0
 40
21.0
  1
（５０／６０Ｈｚ）
 50
0.0
 41
0.628571429
 51
0.0
  7
KANJI73
  0
TEXT
  8
0
  6
CONTINUOUS
 62
     2
 10
2151.42
 20
991.95
 30
3.3
 40
20.4
  1
スプリング制動式電磁ブレーキ
 50
0.0
 41
0.705882353
 51
0.0
  7
KANJI74
  0
TEXT
  8
0
  6
CONTINUOUS
 62
     2
 10
2370.42
 20
1159.5
 30
0.216
 40
18.0
  1
Ｖ
 50
0.0
 41
0.8
 51
0.0
  7
KANJI75
  0
TEXT
  8
0
  6
CONTINUOUS
 62
     2
 10
2359.62
 20
1117.5
 30
0.216
 40
18.0
  1
Ｈｚ
 50
0.0
 41
0.8
 51
0.0
  7
KANJI75
  0
TEXT
  8
0
  6
CONTINUOUS
 62
     2
 10
2370.42
 20
1075.5
 30
0.216
 40
18.0
  1
Ａ
 50
0.0
 41
0.8
 51
0.0
  7
KANJI75
  0
TEXT
  8
0
  6
CONTINUOUS
 62
     2
 10
2291.52
 20
1202.7
 30
1.8
 40
18.0
  1
３φ
 50
0.0
 41
0.9
 51
0.0
  7
KANJI69
  0
TEXT
  8
0
  6
CONTINUOUS
 62
     2
 10
2351.52
 20
1202.7
 30
1.8
 40
18.0
  1
４Ｐ
 50
0.0
 41
0.9
 51
0.0
  7
KANJI69
  0
TEXT
  8
0
  6
CONTINUOUS
 62
     2
 10
2149.92
 20
1244.7
 30
1.2
 40
19.2
  1
マンセル　７．５ＧＹ　５／４．５
 50
0.0
 41
0.71875
 51
0.0
  7
KANJI76
  0
TEXT
  8
0
  6
CONTINUOUS
 62
     2
 10
2149.92
 20
1160.7
 30
1.8
 40
18.0
  1
　　　　　　　／　　　
 50
0.0
 41
0.9
 51
0.0
  7
KANJI69
  0
TEXT
  8
0
  6
CONTINUOUS
 62
     2
 10
2149.92
 20
1118.7
 30
1.8
 40
18.0
  1
　　　　５０／　６０
 50
0.0
 41
0.9
 51
0.0
  7
KANJI69
  0
TEXT
  8
0
  6
CONTINUOUS
 62
     2
 10
2149.92
 20
1076.7
 30
1.8
 40
18.0
  1
　　　　　　　／　　　
 50
0.0
 41
0.9
 51
0.0
  7
KANJI69
  0
TEXT
  8
0
  6
CONTINUOUS
 62
     2
 10
2354.52
 20
1455.9
 30
0.1536
 40
19.2
  1
ｍｍ
 50
0.0
 41
0.8
 51
0.0
  7
KANJI77
  0
TEXT
  8
0
  6
CONTINUOUS
 62
     2
 10
2315.52
 20
1412.7
 30
0.0
 40
21.0
  1
ｍｍ／ｓｅｃ
 50
0.0
 41
0.571428571
 51
0.0
  7
KANJI78
  0
TEXT
  8
0
  6
CONTINUOUS
 62
     2
 10
2155.92
 20
1202.7
 30
1.8
 40
18.0
  1
　１．１ＫＷ
 50
0.0
 41
0.9
 51
0.0
  7
KANJI69
  0
TEXT
  8
0
  6
CONTINUOUS
 62
     2
 10
2193.72
 20
1496.7
 30
1.8
 40
18.0
  1
１９．６ＫＮ（２ｔｏｎ）
 50
0.0
 41
0.9
 51
0.0
  7
KANJI69
  0
TEXT
  8
0
  6
CONTINUOUS
 62
     2
 10
2152.92
 20
1412.7
 30
1.8
 40
18.0
  1
　２４．２／２９
 50
0.0
 41
0.9
 51
0.0
  7
KANJI69
  0
TEXT
  8
0
  6
CONTINUOUS
 62
     2
 10
2208.42
 20
1328.7
 30
9.0
 40
21.0
  1
全閉屋外形
 50
0.0
 41
0.9
 51
0.0
  7
KANJI68
  0
TEXT
  8
0
  6
CONTINUOUS
 62
     2
 10
2163.42
 20
1536.6
 30
1.2
 40
18.0
  1
ＭＣＬＤ２Ｃ－　　ＪＬ
 50
0.0
 41
0.833333333
 51
0.0
  7
KANJI79
  0
LINE
  8
0
  6
CONTINUOUS
 62
     1
 10
1873.92
 20
770.7
 30
0.0
 11
2398.92
 21
770.7
 31
0.0
  0
LINE
  8
0
  6
CONTINUOUS
 62
     2
 10
1873.92
 20
812.7
 30
0.0
 11
2398.92
 21
812.7
 31
0.0
  0
TEXT
  8
0
  6
CONTINUOUS
 62
     2
 10
2343.72
 20
782.88
 30
0.0
 40
21.0
  1
ｋｇ
 50
0.0
 41
0.9
 51
0.0
  7
KANJI80
  0
TEXT
  8
0
  6
CONTINUOUS
 62
     2
 10
1905.72
 20
781.5
 30
6.0
 40
21.0
  1
概算重量（１台当り）
 50
0.0
 41
0.857142857
 51
0.0
  7
KANJI81
  0
TEXT
  8
0
  6
CONTINUOUS
 62
     2
 10
2182.92
 20
1370.7
 30
0.0
 40
18.0
  1
３９Ｎ・ｍ（４ｋｇ・ｍ）
 50
0.0
 41
0.833333333
 51
0.0
  7
KANJI82
  0
LINE
  8
0
  6
CONTINUOUS
 62
     1
 10
1873.92
 20
1628.7
 30
0.0
 11
1873.92
 21
770.7
 31
0.0
  0
LINE
  8
0
  6
CONTINUOUS
 62
     2
 10
2149.92
 20
1568.7
 30
0.0
 11
2149.92
 21
770.7
 31
0.0
  0
LINE
  8
0
  6
CONTINUOUS
 62
     1
 10
2398.92
 20
1628.7
 30
0.0
 11
2398.92
 21
770.7
 31
0.0
  0
ENDSEC
  0
EOF
