  0
SECTION
  2
HEADER
  9
$ACADVER
  1
AC1009
  9
$DWGCODEPAGE
  3
dos932
  9
$EXTMIN
 10
0.0
 20
0.0
 30
0.0
  9
$EXTMAX
 10
2520.0
 20
1782.0
 30
0.0
  9
$LIMMIN
 10
0.0
 20
0.0
  9
$LIMMAX
 10
2520.0
 20
1782.0
  9
$LTSCALE
 40
1.0
  9
$PDMODE
 70
     0
  0
ENDSEC
  0
SECTION
  2
TABLES
  0
TABLE
  2
VPORT
 70
     1
  0
VPORT
  2
*ACTIVE
 70
     0
 10
0.0
 20
0.0
 11
1.0
 21
1.0
 12
1260.0
 22
891.0
 13
0.0
 23
0.0
 14
10.0
 24
10.0
 15
10.0
 25
10.0
 16
0.0
 26
0.0
 36
1.0
 17
0.0
 27
0.0
 37
0.0
 40
2520.0
 41
1.414141414
 42
50.0
 43
0.0
 44
0.0
 50
0.0
 51
0.0
 71
     0
 72
  1000
 73
     1
 74
     3
 75
     0
 76
     0
 77
     0
 78
     0
  0
ENDTAB
  0
TABLE
  2
LTYPE
 70
     7
  0
LTYPE
  2
CONTINUOUS
 70
    64
  3
Solid line
 72
    65
 73
     0
 40
0.0
  0
LTYPE
  2
LTYPE1
 70
    64
  3
HIDDEN
 72
    65
 73
     2
 40
18.0
 49
10.8
 49
-7.2
  0
LTYPE
  2
LTYPE2
 70
    64
  3
CENTER
 72
    65
 73
     4
 40
60.0
 49
42.0
 49
-6.0
 49
6.0
 49
-6.0
  0
LTYPE
  2
LTYPE3
 70
    64
  3
CENTER
 72
    65
 73
     4
 40
90.0
 49
63.0
 49
-9.0
 49
9.0
 49
-9.0
  0
LTYPE
  2
LTYPE4
 70
    64
  3
PHANTOM
 72
    65
 73
     6
 40
60.0
 49
45.0
 49
-3.0
 49
3.0
 49
-3.0
 49
3.0
 49
-3.0
  0
LTYPE
  2
LTYPE5
 70
    64
  3
CENTER
 72
    65
 73
     4
 40
120.0
 49
84.0
 49
-12.0
 49
12.0
 49
-12.0
  0
LTYPE
  2
LTYPE6
 70
    64
  3
CENTER
 72
    65
 73
     4
 40
54.0
 49
37.8
 49
-5.4
 49
5.4
 49
-5.4
  0
ENDTAB
  0
TABLE
  2
LAYER
 70
   128
  0
LAYER
  2
0
 70
     0
 62
     7
  6
CONTINUOUS
  0
LAYER
  2
2
 70
     0
 62
     7
  6
CONTINUOUS
  0
LAYER
  2
3
 70
     0
 62
     7
  6
CONTINUOUS
  0
LAYER
  2
4
 70
     0
 62
     7
  6
CONTINUOUS
  0
LAYER
  2
5
 70
     0
 62
     7
  6
CONTINUOUS
  0
LAYER
  2
6
 70
     0
 62
     7
  6
CONTINUOUS
  0
LAYER
  2
7
 70
     0
 62
     7
  6
CONTINUOUS
  0
LAYER
  2
8
 70
     0
 62
     7
  6
CONTINUOUS
  0
LAYER
  2
9
 70
     0
 62
     7
  6
CONTINUOUS
  0
LAYER
  2
10
 70
     0
 62
     7
  6
CONTINUOUS
  0
LAYER
  2
11
 70
     0
 62
     7
  6
CONTINUOUS
  0
LAYER
  2
12
 70
     0
 62
     7
  6
CONTINUOUS
  0
LAYER
  2
13
 70
     0
 62
     7
  6
CONTINUOUS
  0
LAYER
  2
14
 70
     0
 62
     7
  6
CONTINUOUS
  0
LAYER
  2
15
 70
     0
 62
     7
  6
CONTINUOUS
  0
LAYER
  2
16
 70
     0
 62
     7
  6
CONTINUOUS
  0
LAYER
  2
17
 70
     0
 62
     7
  6
CONTINUOUS
  0
LAYER
  2
18
 70
     0
 62
     7
  6
CONTINUOUS
  0
LAYER
  2
19
 70
     0
 62
     7
  6
CONTINUOUS
  0
LAYER
  2
20
 70
     0
 62
     7
  6
CONTINUOUS
  0
LAYER
  2
21
 70
     0
 62
     7
  6
CONTINUOUS
  0
LAYER
  2
22
 70
     0
 62
     7
  6
CONTINUOUS
  0
LAYER
  2
23
 70
     0
 62
     7
  6
CONTINUOUS
  0
LAYER
  2
24
 70
     0
 62
     7
  6
CONTINUOUS
  0
LAYER
  2
25
 70
     0
 62
     7
  6
CONTINUOUS
  0
LAYER
  2
26
 70
     0
 62
     7
  6
CONTINUOUS
  0
LAYER
  2
27
 70
     0
 62
     7
  6
CONTINUOUS
  0
LAYER
  2
28
 70
     0
 62
     7
  6
CONTINUOUS
  0
LAYER
  2
29
 70
     0
 62
     7
  6
CONTINUOUS
  0
LAYER
  2
30
 70
     0
 62
     7
  6
CONTINUOUS
  0
LAYER
  2
31
 70
     0
 62
     7
  6
CONTINUOUS
  0
LAYER
  2
32
 70
     0
 62
     7
  6
CONTINUOUS
  0
LAYER
  2
33
 70
     0
 62
     7
  6
CONTINUOUS
  0
LAYER
  2
34
 70
     0
 62
     7
  6
CONTINUOUS
  0
LAYER
  2
35
 70
     0
 62
     7
  6
CONTINUOUS
  0
LAYER
  2
36
 70
     0
 62
     7
  6
CONTINUOUS
  0
LAYER
  2
37
 70
     0
 62
     7
  6
CONTINUOUS
  0
LAYER
  2
38
 70
     0
 62
     7
  6
CONTINUOUS
  0
LAYER
  2
39
 70
     0
 62
     7
  6
CONTINUOUS
  0
LAYER
  2
40
 70
     0
 62
     7
  6
CONTINUOUS
  0
LAYER
  2
41
 70
     0
 62
     7
  6
CONTINUOUS
  0
LAYER
  2
42
 70
     0
 62
     7
  6
CONTINUOUS
  0
LAYER
  2
43
 70
     0
 62
     7
  6
CONTINUOUS
  0
LAYER
  2
44
 70
     0
 62
     7
  6
CONTINUOUS
  0
LAYER
  2
45
 70
     0
 62
     7
  6
CONTINUOUS
  0
LAYER
  2
46
 70
     0
 62
     7
  6
CONTINUOUS
  0
LAYER
  2
47
 70
     0
 62
     7
  6
CONTINUOUS
  0
LAYER
  2
48
 70
     0
 62
     7
  6
CONTINUOUS
  0
LAYER
  2
49
 70
     0
 62
     7
  6
CONTINUOUS
  0
LAYER
  2
50
 70
     0
 62
     7
  6
CONTINUOUS
  0
LAYER
  2
51
 70
     0
 62
     7
  6
CONTINUOUS
  0
LAYER
  2
52
 70
     0
 62
     7
  6
CONTINUOUS
  0
LAYER
  2
53
 70
     0
 62
     7
  6
CONTINUOUS
  0
LAYER
  2
54
 70
     0
 62
     7
  6
CONTINUOUS
  0
LAYER
  2
55
 70
     0
 62
     7
  6
CONTINUOUS
  0
LAYER
  2
56
 70
     0
 62
     7
  6
CONTINUOUS
  0
LAYER
  2
57
 70
     0
 62
     7
  6
CONTINUOUS
  0
LAYER
  2
58
 70
     0
 62
     7
  6
CONTINUOUS
  0
LAYER
  2
59
 70
     0
 62
     7
  6
CONTINUOUS
  0
LAYER
  2
60
 70
     0
 62
     7
  6
CONTINUOUS
  0
LAYER
  2
61
 70
     0
 62
     7
  6
CONTINUOUS
  0
LAYER
  2
62
 70
     0
 62
     7
  6
CONTINUOUS
  0
LAYER
  2
63
 70
     0
 62
     7
  6
CONTINUOUS
  0
LAYER
  2
64
 70
     0
 62
     7
  6
CONTINUOUS
  0
LAYER
  2
65
 70
     0
 62
     7
  6
CONTINUOUS
  0
LAYER
  2
66
 70
     0
 62
     7
  6
CONTINUOUS
  0
LAYER
  2
67
 70
     0
 62
     7
  6
CONTINUOUS
  0
LAYER
  2
68
 70
     0
 62
     7
  6
CONTINUOUS
  0
LAYER
  2
69
 70
     0
 62
     7
  6
CONTINUOUS
  0
LAYER
  2
70
 70
     0
 62
     7
  6
CONTINUOUS
  0
LAYER
  2
71
 70
     0
 62
     7
  6
CONTINUOUS
  0
LAYER
  2
72
 70
     0
 62
     7
  6
CONTINUOUS
  0
LAYER
  2
73
 70
     0
 62
     7
  6
CONTINUOUS
  0
LAYER
  2
74
 70
     0
 62
     7
  6
CONTINUOUS
  0
LAYER
  2
75
 70
     0
 62
     7
  6
CONTINUOUS
  0
LAYER
  2
76
 70
     0
 62
     7
  6
CONTINUOUS
  0
LAYER
  2
77
 70
     0
 62
     7
  6
CONTINUOUS
  0
LAYER
  2
78
 70
     0
 62
     7
  6
CONTINUOUS
  0
LAYER
  2
79
 70
     0
 62
     7
  6
CONTINUOUS
  0
LAYER
  2
80
 70
     0
 62
     7
  6
CONTINUOUS
  0
LAYER
  2
81
 70
     0
 62
     7
  6
CONTINUOUS
  0
LAYER
  2
82
 70
     0
 62
     7
  6
CONTINUOUS
  0
LAYER
  2
83
 70
     0
 62
     7
  6
CONTINUOUS
  0
LAYER
  2
84
 70
     0
 62
     7
  6
CONTINUOUS
  0
LAYER
  2
85
 70
     0
 62
     7
  6
CONTINUOUS
  0
LAYER
  2
86
 70
     0
 62
     7
  6
CONTINUOUS
  0
LAYER
  2
87
 70
     0
 62
     7
  6
CONTINUOUS
  0
LAYER
  2
88
 70
     0
 62
     7
  6
CONTINUOUS
  0
LAYER
  2
89
 70
     0
 62
     7
  6
CONTINUOUS
  0
LAYER
  2
90
 70
     0
 62
     7
  6
CONTINUOUS
  0
LAYER
  2
91
 70
     0
 62
     7
  6
CONTINUOUS
  0
LAYER
  2
92
 70
     0
 62
     7
  6
CONTINUOUS
  0
LAYER
  2
93
 70
     0
 62
     7
  6
CONTINUOUS
  0
LAYER
  2
94
 70
     0
 62
     7
  6
CONTINUOUS
  0
LAYER
  2
95
 70
     0
 62
     7
  6
CONTINUOUS
  0
LAYER
  2
96
 70
     0
 62
     7
  6
CONTINUOUS
  0
LAYER
  2
97
 70
     0
 62
     7
  6
CONTINUOUS
  0
LAYER
  2
98
 70
     0
 62
     7
  6
CONTINUOUS
  0
LAYER
  2
99
 70
     0
 62
     7
  6
CONTINUOUS
  0
LAYER
  2
100
 70
     0
 62
     7
  6
CONTINUOUS
  0
LAYER
  2
101
 70
     0
 62
     7
  6
CONTINUOUS
  0
LAYER
  2
102
 70
     0
 62
     7
  6
CONTINUOUS
  0
LAYER
  2
103
 70
     0
 62
     7
  6
CONTINUOUS
  0
LAYER
  2
104
 70
     0
 62
     7
  6
CONTINUOUS
  0
LAYER
  2
105
 70
     0
 62
     7
  6
CONTINUOUS
  0
LAYER
  2
106
 70
     0
 62
     7
  6
CONTINUOUS
  0
LAYER
  2
107
 70
     0
 62
     7
  6
CONTINUOUS
  0
LAYER
  2
108
 70
     0
 62
     7
  6
CONTINUOUS
  0
LAYER
  2
109
 70
     0
 62
     7
  6
CONTINUOUS
  0
LAYER
  2
110
 70
     0
 62
     7
  6
CONTINUOUS
  0
LAYER
  2
111
 70
     0
 62
     7
  6
CONTINUOUS
  0
LAYER
  2
112
 70
     0
 62
     7
  6
CONTINUOUS
  0
LAYER
  2
113
 70
     0
 62
     7
  6
CONTINUOUS
  0
LAYER
  2
114
 70
     0
 62
     7
  6
CONTINUOUS
  0
LAYER
  2
115
 70
     0
 62
     7
  6
CONTINUOUS
  0
LAYER
  2
116
 70
     0
 62
     7
  6
CONTINUOUS
  0
LAYER
  2
117
 70
     0
 62
     7
  6
CONTINUOUS
  0
LAYER
  2
118
 70
     0
 62
     7
  6
CONTINUOUS
  0
LAYER
  2
119
 70
     0
 62
     7
  6
CONTINUOUS
  0
LAYER
  2
120
 70
     0
 62
     7
  6
CONTINUOUS
  0
LAYER
  2
121
 70
     0
 62
     7
  6
CONTINUOUS
  0
LAYER
  2
122
 70
     0
 62
     7
  6
CONTINUOUS
  0
LAYER
  2
123
 70
     0
 62
     7
  6
CONTINUOUS
  0
LAYER
  2
124
 70
     0
 62
     7
  6
CONTINUOUS
  0
LAYER
  2
125
 70
     0
 62
     7
  6
CONTINUOUS
  0
LAYER
  2
126
 70
     0
 62
     7
  6
CONTINUOUS
  0
LAYER
  2
127
 70
     0
 62
     7
  6
CONTINUOUS
  0
LAYER
  2
128
 70
     0
 62
     7
  6
CONTINUOUS
  0
ENDTAB
  0
TABLE
  2
STYLE
 70
    77
  0
STYLE
  2
STANDARD
 70
     0
 40
0.0
 41
1.0
 50
0.0
 71
     0
 42
0.2
  3
txt.shx
  4
extfont.shx
  0
STYLE
  2
KANJI0
 70
     0
 40
15.5999988
 41
0.75
 50
0.0
 71
     0
 42
15.5999988
  3
txt.shx
  4
extfont.shx
  0
STYLE
  2
KANJI1
 70
     0
 40
11.999997477
 41
0.6
 50
0.0
 71
     0
 42
11.999997477
  3
txt.shx
  4
extfont.shx
  0
STYLE
  2
KANJI2
 70
     0
 40
14.399996972
 41
0.9
 50
0.0
 71
     0
 42
14.399996972
  3
txt.shx
  4
extfont.shx
  0
STYLE
  2
KANJI3
 70
     0
 40
17.999996215
 41
0.9
 50
0.0
 71
     0
 42
17.999996215
  3
txt.shx
  4
extfont.shx
  0
STYLE
  2
KANJI4
 70
     0
 40
10.3999992
 41
0.6
 50
0.0
 71
     0
 42
10.3999992
  3
txt.shx
  4
extfont.shx
  0
STYLE
  2
KANJI5
 70
     0
 40
12.47999904
 41
0.6
 50
0.0
 71
     0
 42
12.47999904
  3
txt.shx
  4
extfont.shx
  0
STYLE
  2
KANJI6
 70
     0
 40
18.1999986
 41
0.42031746
 50
0.0
 71
     0
 42
18.1999986
  3
txt.shx
  4
extfont.shx
  0
STYLE
  2
KANJI7
 70
     0
 40
31.1999976
 41
0.9
 50
0.0
 71
     0
 42
31.1999976
  3
txt.shx
  4
extfont.shx
  0
STYLE
  2
KANJI8
 70
     0
 40
21.6
 41
1.111111111
 50
0.0
 71
     0
 42
21.6
  3
txt.shx
  4
extfont.shx
  0
STYLE
  2
KANJI9
 70
     0
 40
10.3999992
 41
0.8
 50
0.0
 71
     0
 42
10.3999992
  3
txt.shx
  4
extfont.shx
  0
STYLE
  2
KANJI10
 70
     0
 40
12.47999904
 41
0.8
 50
0.0
 71
     0
 42
12.47999904
  3
txt.shx
  4
extfont.shx
  0
STYLE
  2
KANJI11
 70
     0
 40
30.0
 41
1.0
 50
0.0
 71
     0
 42
30.0
  3
txt.shx
  4
extfont.shx
  0
STYLE
  2
KANJI12
 70
     0
 40
30.0
 41
1.0
 50
0.0
 71
     0
 42
30.0
  3
txt.shx
  4
extfont.shx
  0
STYLE
  2
KANJI13
 70
     0
 40
30.0
 41
0.8
 50
0.0
 71
     0
 42
30.0
  3
txt.shx
  4
extfont.shx
  0
STYLE
  2
KANJI14
 70
     0
 40
24.0
 41
1.0
 50
0.0
 71
     0
 42
24.0
  3
txt.shx
  4
extfont.shx
  0
STYLE
  2
KANJI15
 70
     0
 40
21.0
 41
0.857142857
 50
0.0
 71
     0
 42
21.0
  3
txt.shx
  4
extfont.shx
  0
STYLE
  2
KANJI16
 70
     0
 40
27.0
 41
0.666666667
 50
0.0
 71
     0
 42
27.0
  3
txt.shx
  4
extfont.shx
  0
STYLE
  2
KANJI17
 70
     0
 40
13.86
 41
0.9
 50
0.0
 71
     0
 42
13.86
  3
txt.shx
  4
extfont.shx
  0
STYLE
  2
KANJI18
 70
     0
 40
15.0
 41
0.9
 50
0.0
 71
     0
 42
15.0
  3
txt.shx
  4
extfont.shx
  0
STYLE
  2
KANJI19
 70
     0
 40
18.0
 41
0.9
 50
0.0
 71
     0
 42
18.0
  3
txt.shx
  4
extfont.shx
  0
STYLE
  2
KANJI20
 70
     0
 40
21.0
 41
0.793650794
 50
0.0
 71
     0
 42
21.0
  3
txt.shx
  4
extfont.shx
  0
STYLE
  2
KANJI21
 70
     0
 40
30.0
 41
0.8
 50
0.0
 71
     0
 42
30.0
  3
txt.shx
  4
extfont.shx
  0
STYLE
  2
KANJI22
 70
     0
 40
18.0
 41
0.9
 50
0.0
 71
     0
 42
18.0
  3
txt.shx
  4
extfont.shx
  0
STYLE
  2
KANJI23
 70
     0
 40
13.182
 41
0.85
 50
0.0
 71
     0
 42
13.182
  3
txt.shx
  4
extfont.shx
  0
STYLE
  2
KANJI24
 70
     0
 40
11.661
 41
0.822608696
 50
0.0
 71
     0
 42
11.661
  3
txt.shx
  4
extfont.shx
  0
STYLE
  2
KANJI25
 70
     0
 40
11.8638
 41
0.726495726
 50
0.0
 71
     0
 42
11.8638
  3
txt.shx
  4
extfont.shx
  0
STYLE
  2
KANJI26
 70
     4
 40
45.0
 41
0.538166667
 50
0.0
 71
     0
 42
45.0
  3
txt.shx
  4
extfont.shx
  0
STYLE
  2
KANJI27
 70
     0
 40
17.740702234
 41
0.880962996
 50
0.0
 71
     0
 42
17.740702234
  3
txt.shx
  4
extfont.shx
  0
STYLE
  2
KANJI28
 70
     0
 40
11.7
 41
0.8
 50
0.0
 71
     0
 42
11.7
  3
txt.shx
  4
extfont.shx
  0
STYLE
  2
KANJI29
 70
     0
 40
15.0
 41
0.911
 50
0.0
 71
     0
 42
15.0
  3
txt.shx
  4
extfont.shx
  0
STYLE
  2
KANJI30
 70
     0
 40
10.933904043
 41
0.9
 50
0.0
 71
     0
 42
10.933904043
  3
txt.shx
  4
extfont.shx
  0
STYLE
  2
KANJI31
 70
     0
 40
15.185977837
 41
0.66671875
 50
0.0
 71
     0
 42
15.185977837
  3
txt.shx
  4
extfont.shx
  0
STYLE
  2
KANJI32
 70
     0
 40
18.223173404
 41
0.9
 50
0.0
 71
     0
 42
18.223173404
  3
txt.shx
  4
extfont.shx
  0
STYLE
  2
KANJI33
 70
     0
 40
14.578538724
 41
0.9
 50
0.0
 71
     0
 42
14.578538724
  3
txt.shx
  4
extfont.shx
  0
STYLE
  2
KANJI34
 70
     0
 40
15.6
 41
0.925
 50
0.0
 71
     0
 42
15.6
  3
txt.shx
  4
extfont.shx
  0
STYLE
  2
KANJI35
 70
     0
 40
15.0
 41
0.9
 50
0.0
 71
     0
 42
15.0
  3
txt.shx
  4
extfont.shx
  0
STYLE
  2
KANJI36
 70
     0
 40
20.0
 41
0.925
 50
0.0
 71
     0
 42
20.0
  3
txt.shx
  4
extfont.shx
  0
STYLE
  2
KANJI37
 70
     0
 40
20.0
 41
0.925
 50
0.0
 71
     0
 42
20.0
  3
txt.shx
  4
extfont.shx
  0
STYLE
  2
KANJI38
 70
     0
 40
21.6
 41
0.857142857
 50
0.0
 71
     0
 42
21.6
  3
txt.shx
  4
extfont.shx
  0
STYLE
  2
KANJI39
 70
     0
 40
21.6
 41
0.857222222
 50
0.0
 71
     0
 42
21.6
  3
txt.shx
  4
extfont.shx
  0
STYLE
  2
KANJI40
 70
     0
 40
24.0
 41
0.9
 50
0.0
 71
     0
 42
24.0
  3
txt.shx
  4
extfont.shx
  0
STYLE
  2
KANJI41
 70
     0
 40
16.17
 41
0.9
 50
0.0
 71
     0
 42
16.17
  3
txt.shx
  4
extfont.shx
  0
STYLE
  2
KANJI42
 70
     0
 40
15.36
 41
0.9
 50
0.0
 71
     0
 42
15.36
  3
txt.shx
  4
extfont.shx
  0
STYLE
  2
KANJI43
 70
     0
 40
14.4
 41
0.9
 50
0.0
 71
     0
 42
14.4
  3
txt.shx
  4
extfont.shx
  0
STYLE
  2
KANJI44
 70
     0
 40
14.4
 41
0.9
 50
0.0
 71
     0
 42
14.4
  3
txt.shx
  4
extfont.shx
  0
STYLE
  2
KANJI45
 70
     0
 40
16.8
 41
0.9
 50
0.0
 71
     0
 42
16.8
  3
txt.shx
  4
extfont.shx
  0
STYLE
  2
KANJI46
 70
     0
 40
12.96
 41
0.740740741
 50
0.0
 71
     0
 42
12.96
  3
txt.shx
  4
extfont.shx
  0
STYLE
  2
KANJI47
 70
     0
 40
16.8
 41
0.857142857
 50
0.0
 71
     0
 42
16.8
  3
txt.shx
  4
extfont.shx
  0
STYLE
  2
KANJI48
 70
     0
 40
14.4
 41
0.833333333
 50
0.0
 71
     0
 42
14.4
  3
txt.shx
  4
extfont.shx
  0
STYLE
  2
KANJI49
 70
     0
 40
21.0
 41
0.571428571
 50
0.0
 71
     0
 42
21.0
  3
txt.shx
  4
extfont.shx
  0
STYLE
  2
KANJI50
 70
     0
 40
22.8
 41
0.9
 50
0.0
 71
     0
 42
22.8
  3
txt.shx
  4
extfont.shx
  0
STYLE
  2
KANJI51
 70
     0
 40
22.8
 41
0.9
 50
0.0
 71
     0
 42
22.8
  3
txt.shx
  4
extfont.shx
  0
STYLE
  2
KANJI52
 70
     0
 40
27.0
 41
0.9
 50
0.0
 71
     0
 42
27.0
  3
txt.shx
  4
extfont.shx
  0
STYLE
  2
KANJI53
 70
     0
 40
22.8
 41
0.9
 50
0.0
 71
     0
 42
22.8
  3
txt.shx
  4
extfont.shx
  0
STYLE
  2
KANJI54
 70
     0
 40
22.8
 41
0.9
 50
0.0
 71
     0
 42
22.8
  3
txt.shx
  4
extfont.shx
  0
STYLE
  2
KANJI55
 70
     0
 40
22.8
 41
0.9
 50
0.0
 71
     0
 42
22.8
  3
txt.shx
  4
extfont.shx
  0
STYLE
  2
KANJI56
 70
     0
 40
22.8
 41
0.9
 50
0.0
 71
     0
 42
22.8
  3
txt.shx
  4
extfont.shx
  0
STYLE
  2
KANJI57
 70
     0
 40
22.8
 41
0.9
 50
0.0
 71
     0
 42
22.8
  3
txt.shx
  4
extfont.shx
  0
STYLE
  2
KANJI58
 70
     0
 40
22.8
 41
0.9
 50
0.0
 71
     0
 42
22.8
  3
txt.shx
  4
extfont.shx
  0
STYLE
  2
KANJI59
 70
     4
 40
21.0
 41
0.9
 50
0.0
 71
     0
 42
21.0
  3
txt.shx
  4
extfont.shx
  0
STYLE
  2
KANJI60
 70
     4
 40
21.0
 41
0.9
 50
0.0
 71
     0
 42
21.0
  3
txt.shx
  4
extfont.shx
  0
STYLE
  2
KANJI61
 70
     0
 40
21.0
 41
0.9
 50
0.0
 71
     0
 42
21.0
  3
txt.shx
  4
extfont.shx
  0
STYLE
  2
KANJI62
 70
     0
 40
18.0
 41
0.9
 50
0.0
 71
     0
 42
18.0
  3
txt.shx
  4
extfont.shx
  0
STYLE
  2
KANJI63
 70
     0
 40
21.0
 41
0.9
 50
0.0
 71
     0
 42
21.0
  3
txt.shx
  4
extfont.shx
  0
STYLE
  2
KANJI64
 70
     0
 40
22.8
 41
0.9
 50
0.0
 71
     0
 42
22.8
  3
txt.shx
  4
extfont.shx
  0
STYLE
  2
KANJI65
 70
     0
 40
22.8
 41
0.9
 50
0.0
 71
     0
 42
22.8
  3
txt.shx
  4
extfont.shx
  0
STYLE
  2
KANJI66
 70
     0
 40
21.0
 41
0.628571429
 50
0.0
 71
     0
 42
21.0
  3
txt.shx
  4
extfont.shx
  0
STYLE
  2
KANJI67
 70
     0
 40
20.4
 41
0.705882353
 50
0.0
 71
     0
 42
20.4
  3
txt.shx
  4
extfont.shx
  0
STYLE
  2
KANJI68
 70
     0
 40
18.0
 41
0.8
 50
0.0
 71
     0
 42
18.0
  3
txt.shx
  4
extfont.shx
  0
STYLE
  2
KANJI69
 70
     0
 40
19.2
 41
0.71875
 50
0.0
 71
     0
 42
19.2
  3
txt.shx
  4
extfont.shx
  0
STYLE
  2
KANJI70
 70
     0
 40
19.2
 41
0.8
 50
0.0
 71
     0
 42
19.2
  3
txt.shx
  4
extfont.shx
  0
STYLE
  2
KANJI71
 70
     0
 40
21.0
 41
0.571428571
 50
0.0
 71
     0
 42
21.0
  3
txt.shx
  4
extfont.shx
  0
STYLE
  2
KANJI72
 70
     0
 40
18.0
 41
0.833333333
 50
0.0
 71
     0
 42
18.0
  3
txt.shx
  4
extfont.shx
  0
STYLE
  2
KANJI73
 70
     0
 40
21.0
 41
0.9
 50
0.0
 71
     0
 42
21.0
  3
txt.shx
  4
extfont.shx
  0
STYLE
  2
KANJI74
 70
     0
 40
21.0
 41
0.857142857
 50
0.0
 71
     0
 42
21.0
  3
txt.shx
  4
extfont.shx
  0
STYLE
  2
KANJI75
 70
     0
 40
18.0
 41
0.833333333
 50
0.0
 71
     0
 42
18.0
  3
txt.shx
  4
extfont.shx
  0
ENDTAB
  0
TABLE
  2
VIEW
 70
     0
  0
ENDTAB
  0
ENDSEC
  0
SECTION
  2
BLOCKS
  0
ENDSEC
  0
SECTION
  2
ENTITIES
  0
POLYLINE
  8
0
  6
CONTINUOUS
 62
     6
 66
     1
  0
VERTEX
  8
0
  6
CONTINUOUS
 62
     6
 10
82.92
 20
71.7
 30
0.0
  0
VERTEX
  8
0
  6
CONTINUOUS
 62
     6
 10
82.92
 20
1685.7
 30
0.0
  0
VERTEX
  8
0
  6
CONTINUOUS
 62
     6
 10
2404.92
 20
1685.7
 30
0.0
  0
SEQEND
  0
LINE
  8
0
  6
CONTINUOUS
 62
     6
 10
88.919998738
 20
161.699981077
 30
0.0
 11
478.919916738
 21
161.699981077
 31
0.0
  0
LINE
  8
0
  6
CONTINUOUS
 62
     6
 10
88.919998738
 20
77.699998738
 30
0.0
 11
478.919916738
 21
77.699998738
 31
0.0
  0
LINE
  8
0
  6
CONTINUOUS
 62
     6
 10
88.919998738
 20
77.699998738
 30
0.0
 11
88.919998738
 21
161.699981077
 31
0.0
  0
LINE
  8
0
  6
CONTINUOUS
 62
     6
 10
88.919998738
 20
119.699989908
 30
0.0
 11
478.919916738
 21
119.699989908
 31
0.0
  0
LINE
  8
0
  6
CONTINUOUS
 62
     4
 10
14.6199996
 20
76.8999996
 30
0.0
 11
77.0199948
 21
76.8999996
 31
0.0
  0
LINE
  8
0
  6
CONTINUOUS
 62
     4
 10
14.6199996
 20
108.0999972
 30
0.0
 11
77.0199948
 21
108.0999972
 31
0.0
  0
LINE
  8
0
  6
CONTINUOUS
 62
     4
 10
14.6199996
 20
139.2999948
 30
0.0
 11
77.0199948
 21
139.2999948
 31
0.0
  0
LINE
  8
0
  6
CONTINUOUS
 62
     4
 10
14.6199996
 20
170.4999924
 30
0.0
 11
77.0199948
 21
170.4999924
 31
0.0
  0
LINE
  8
0
  6
CONTINUOUS
 62
     4
 10
14.6199996
 20
201.69999
 30
0.0
 11
77.0199948
 21
201.69999
 31
0.0
  0
LINE
  8
0
  6
CONTINUOUS
 62
     4
 10
14.6199996
 20
232.8999876
 30
0.0
 11
77.0199948
 21
232.8999876
 31
0.0
  0
LINE
  8
0
  6
CONTINUOUS
 62
     4
 10
14.6199996
 20
264.0999852
 30
0.0
 11
77.0199948
 21
264.0999852
 31
0.0
  0
LINE
  8
0
  6
CONTINUOUS
 62
     4
 10
14.6199996
 20
295.2999828
 30
0.0
 11
77.0199948
 21
295.2999828
 31
0.0
  0
LINE
  8
0
  6
CONTINUOUS
 62
     4
 10
14.6199996
 20
326.4999804
 30
0.0
 11
77.0199948
 21
326.4999804
 31
0.0
  0
LINE
  8
0
  6
CONTINUOUS
 62
     4
 10
14.6199996
 20
357.699978
 30
0.0
 11
77.0199948
 21
357.699978
 31
0.0
  0
LINE
  8
0
  6
CONTINUOUS
 62
     4
 10
77.0199948
 20
76.8999996
 30
0.0
 11
77.0199948
 21
357.699978
 31
0.0
  0
LINE
  8
0
  6
CONTINUOUS
 62
     4
 10
45.8199972
 20
76.8999996
 30
0.0
 11
45.8199972
 21
326.4999804
 31
0.0
  0
TEXT
  8
0
  6
CONTINUOUS
 62
     4
 10
25.27999878
 20
85.9999989
 30
1.55999988
 40
15.5999988
  1
計
 50
0.0
 41
0.75
 51
0.0
  7
KANJI0
  0
TEXT
  8
0
  6
CONTINUOUS
 62
     4
 10
25.27999878
 20
148.91999406
 30
1.55999988
 40
15.5999988
  1
設
 50
0.0
 41
0.75
 51
0.0
  7
KANJI0
  0
TEXT
  8
0
  6
CONTINUOUS
 62
     4
 10
25.27999878
 20
179.5999917
 30
1.55999988
 40
15.5999988
  1
管
 50
0.0
 41
0.75
 51
0.0
  7
KANJI0
  0
TEXT
  8
0
  6
CONTINUOUS
 62
     4
 10
25.27999878
 20
210.7999893
 30
1.55999988
 40
15.5999988
  1
製
 50
0.0
 41
0.75
 51
0.0
  7
KANJI0
  0
TEXT
  8
0
  6
CONTINUOUS
 62
     4
 10
25.27999878
 20
241.9999869
 30
1.55999988
 40
15.5999988
  1
資
 50
0.0
 41
0.75
 51
0.0
  7
KANJI0
  0
TEXT
  8
0
  6
CONTINUOUS
 62
     4
 10
25.27999878
 20
273.1999845
 30
1.55999988
 40
15.5999988
  1
営
 50
0.0
 41
0.75
 51
0.0
  7
KANJI0
  0
TEXT
  8
0
  6
CONTINUOUS
 62
     4
 10
25.27999878
 20
304.3999821
 30
1.55999988
 40
15.5999988
  1
客
 50
0.0
 41
0.75
 51
0.0
  7
KANJI0
  0
TEXT
  8
0
  6
CONTINUOUS
 62
     4
 10
25.0199988
 20
336.8999796
 30
1.55999988
 40
15.5999988
  1
出　図
 50
0.0
 41
0.75
 51
0.0
  7
KANJI0
  0
LINE
  8
0
  6
CONTINUOUS
 62
     4
 10
14.6199996
 20
76.8999996
 30
0.0
 11
14.6199996
 21
357.699978
 31
0.0
  0
LINE
  8
0
  6
CONTINUOUS
 62
     6
 10
2404.92
 20
71.7
 30
0.0
 11
82.92
 21
71.7
 31
0.0
  0
TEXT
  8
0
  6
CONTINUOUS
 62
     4
 10
100.919996215
 20
101.699993692
 30
1.199999748
 40
11.999997477
  1
ＰＡＲＴＳ　ＬＩＳＴ
 50
0.0
 41
0.6
 51
0.0
  7
KANJI1
  0
TEXT
  8
0
  6
CONTINUOUS
 62
     4
 10
100.919996215
 20
83.699997477
 30
1.439999697
 40
14.399996972
  1
部品表
 50
0.0
 41
0.9
 51
0.0
  7
KANJI2
  0
TEXT
  8
0
  6
CONTINUOUS
 62
     3
 10
100.919996215
 20
131.699987385
 30
1.799999622
 40
17.999996215
  1
ＰＬ
 50
0.0
 41
0.9
 51
0.0
  7
KANJI3
  0
TEXT
  8
0
  6
CONTINUOUS
 62
     4
 10
370.919939446
 20
101.699993692
 30
1.199999748
 40
11.999997477
  1
Ｎ０．
 50
0.0
 41
0.6
 51
0.0
  7
KANJI1
  0
TEXT
  8
0
  6
CONTINUOUS
 62
     4
 10
370.919939446
 20
83.699997477
 30
1.439999697
 40
14.399996972
  1
項番
 50
0.0
 41
0.9
 51
0.0
  7
KANJI2
  0
LINE
  8
0
  6
CONTINUOUS
 62
     6
 10
478.919916738
 20
77.699998738
 30
0.0
 11
478.919916738
 21
161.699981077
 31
0.0
  0
LINE
  8
0
  6
CONTINUOUS
 62
     6
 10
358.919941969
 20
77.699998738
 30
0.0
 11
358.919941969
 21
161.699981077
 31
0.0
  0
LINE
  8
0
  6
CONTINUOUS
 62
     6
 10
2404.92
 20
1685.7
 30
0.0
 11
2404.92
 21
71.7
 31
0.0
  0
LINE
  8
0
  6
CONTINUOUS
 62
     6
 10
1598.920062
 20
76.8999996
 30
0.0
 11
1598.920062
 21
409.699974
 31
0.0
  0
LINE
  8
0
  6
CONTINUOUS
 62
     6
 10
2399.7200004
 20
76.8999996
 30
0.0
 11
2399.7200004
 21
409.699974
 31
0.0
  0
LINE
  8
0
  6
CONTINUOUS
 62
     4
 10
1788.7200474
 20
76.8999996
 30
0.0
 11
1788.7200474
 21
409.699974
 31
0.0
  0
LINE
  8
0
  6
CONTINUOUS
 62
     4
 10
1598.920062
 20
118.4999964
 30
0.0
 11
1788.7200474
 21
118.4999964
 31
0.0
  0
TEXT
  8
0
  6
CONTINUOUS
 62
     4
 10
1609.3200612
 20
100.2999978
 30
1.03999992
 40
10.3999992
  1
ＳＣＡＬＥ
 50
0.0
 41
0.6
 51
0.0
  7
KANJI4
  0
TEXT
  8
0
  6
CONTINUOUS
 62
     4
 10
1609.3200612
 20
84.699999
 30
1.247999904
 40
12.47999904
  1
尺度
 50
0.0
 41
0.6
 51
0.0
  7
KANJI5
  0
LINE
  8
0
  6
CONTINUOUS
 62
     6
 10
1188.1200936
 20
118.4999964
 30
0.0
 11
1598.920062
 21
118.4999964
 31
0.0
  0
LINE
  8
0
  6
CONTINUOUS
 62
     6
 10
1188.1200936
 20
76.8999996
 30
0.0
 11
2399.7200004
 21
76.8999996
 31
0.0
  0
TEXT
  8
0
  6
CONTINUOUS
 62
     6
 10
1793.920047
 20
100.2999978
 30
0.0
 40
18.1999986
  1
ＵＮＩＴＥＣ　ＩＮＤＵＳＴＲＹ　ＣＯ．，ＬＴＤ．
 50
0.0
 41
0.42031746
 51
0.0
  7
KANJI6
  0
TEXT
  8
0
  6
CONTINUOUS
 62
     6
 10
2049.175027365
 20
93.53999832
 30
3.11999976
 40
31.1999976
  1
ユニテック工業株式会社
 50
0.0
 41
0.9
 51
0.0
  7
KANJI7
  0
LINE
  8
0
  6
CONTINUOUS
 62
     6
 10
2007.575030565
 20
104.45999748
 30
0.0
 11
1993.847031621
 21
104.45999748
 31
0.0
  0
LINE
  8
0
  6
CONTINUOUS
 62
     6
 10
2007.575030565
 20
106.955997288
 30
0.0
 11
1993.847031621
 21
106.955997288
 31
0.0
  0
LINE
  8
0
  6
CONTINUOUS
 62
     6
 10
2007.575030565
 20
104.45999748
 30
0.0
 11
2021.303029509
 21
104.45999748
 31
0.0
  0
LINE
  8
0
  6
CONTINUOUS
 62
     6
 10
2007.575030565
 20
106.955997288
 30
0.0
 11
2021.303029509
 21
106.955997288
 31
0.0
  0
LINE
  8
0
  6
CONTINUOUS
 62
     6
 10
2021.303029509
 20
106.955997288
 30
0.0
 11
2021.303029509
 21
104.45999748
 31
0.0
  0
ARC
  8
0
  6
CONTINUOUS
 62
     6
 10
2024.423029269
 20
105.707997384
 30
0.0
 40
12.47999904
 50
185.739170477
 51
90.0
  0
ARC
  8
0
  6
CONTINUOUS
 62
     6
 10
2024.423029269
 20
105.707997384
 30
0.0
 40
14.975998848
 50
184.780191847
 51
90.0
  0
LINE
  8
0
  6
CONTINUOUS
 62
     6
 10
1993.847031621
 20
104.45999748
 30
0.0
 11
1993.847031621
 21
106.955997288
 31
0.0
  0
ARC
  8
0
  6
CONTINUOUS
 62
     6
 10
1990.727031861
 20
105.707997384
 30
0.0
 40
12.47999904
 50
90.0
 51
354.260829523
  0
ARC
  8
0
  6
CONTINUOUS
 62
     6
 10
1990.727031861
 20
105.707997384
 30
0.0
 40
14.975998848
 50
90.0
 51
355.219808153
  0
LINE
  8
0
  6
CONTINUOUS
 62
     6
 10
2005.703030709
 20
120.683996232
 30
0.0
 11
2005.703030709
 21
118.187996424
 31
0.0
  0
LINE
  8
0
  6
CONTINUOUS
 62
     6
 10
1990.727031861
 20
118.187996424
 30
0.0
 11
2005.703030709
 21
118.187996424
 31
0.0
  0
LINE
  8
0
  6
CONTINUOUS
 62
     6
 10
2009.447030421
 20
120.683996232
 30
0.0
 11
2009.447030421
 21
118.187996424
 31
0.0
  0
LINE
  8
0
  6
CONTINUOUS
 62
     6
 10
2024.423029269
 20
118.187996424
 30
0.0
 11
2009.447030421
 21
118.187996424
 31
0.0
  0
TEXT
  8
0
  6
CONTINUOUS
 62
     4
 10
1320.7200834
 20
100.2999978
 30
1.03999992
 40
10.3999992
  1
ＢＹ
 50
0.0
 41
0.6
 51
0.0
  7
KANJI4
  0
TEXT
  8
0
  6
CONTINUOUS
 62
     4
 10
1435.1200746
 20
100.2999978
 30
1.03999992
 40
10.3999992
  1
ＤＥＳＣＲＩＰＴＩＯＮ
 50
0.0
 41
0.6
 51
0.0
  7
KANJI4
  0
TEXT
  8
0
  6
CONTINUOUS
 62
     4
 10
1320.7200834
 20
84.699999
 30
1.247999904
 40
12.47999904
  1
担当
 50
0.0
 41
0.6
 51
0.0
  7
KANJI5
  0
TEXT
  8
0
  6
CONTINUOUS
 62
     4
 10
1450.7200734
 20
84.699999
 30
1.247999904
 40
12.47999904
  1
記　　　　事
 50
0.0
 41
0.6
 51
0.0
  7
KANJI5
  0
LINE
  8
0
  6
CONTINUOUS
 62
     4
 10
1210.2200919
 20
110.699997
 30
0.0
 11
1193.3200932
 21
84.699999
 31
0.0
  0
TEXT
  8
0
  6
CONTINUOUS
 62
     4
 10
1253.1200886
 20
100.2999978
 30
1.03999992
 40
10.3999992
  1
ＤＡＴＥ
 50
0.0
 41
0.6
 51
0.0
  7
KANJI4
  0
TEXT
  8
0
  6
CONTINUOUS
 62
     4
 10
1260.920088
 20
84.699999
 30
1.247999904
 40
12.47999904
  1
日付
 50
0.0
 41
0.6
 51
0.0
  7
KANJI5
  0
LINE
  8
0
  6
CONTINUOUS
 62
     4
 10
1193.3200932
 20
84.699999
 30
0.0
 11
1227.1200906
 21
84.699999
 31
0.0
  0
LINE
  8
0
  6
CONTINUOUS
 62
     4
 10
1210.2200919
 20
110.699997
 30
0.0
 11
1227.1200906
 21
84.699999
 31
0.0
  0
LINE
  8
0
  6
CONTINUOUS
 62
     6
 10
1188.1200936
 20
76.8999996
 30
0.0
 11
1188.1200936
 21
118.4999964
 31
0.0
  0
LINE
  8
0
  6
CONTINUOUS
 62
     4
 10
1232.3200902
 20
76.8999996
 30
0.0
 11
1232.3200902
 21
118.4999964
 31
0.0
  0
LINE
  8
0
  6
CONTINUOUS
 62
     4
 10
1305.1200846
 20
76.8999996
 30
0.0
 11
1305.1200846
 21
118.4999964
 31
0.0
  0
LINE
  8
0
  6
CONTINUOUS
 62
     4
 10
1351.920081
 20
76.8999996
 30
0.0
 11
1351.920081
 21
118.4999964
 31
0.0
  0
TEXT
  8
0
  6
CONTINUOUS
 62
     4
 10
1609.3200612
 20
308.2999818
 30
1.03999992
 40
10.3999992
  1
ＣＯＤＥ
 50
0.0
 41
0.6
 51
0.0
  7
KANJI4
  0
LINE
  8
0
  6
CONTINUOUS
 62
     4
 10
1598.920062
 20
326.4999804
 30
0.0
 11
2399.7200004
 21
326.4999804
 31
0.0
  0
TEXT
  8
0
  6
CONTINUOUS
 62
     4
 10
1609.3200612
 20
292.699983
 30
1.247999904
 40
12.47999904
  1
分類
 50
0.0
 41
0.6
 51
0.0
  7
KANJI5
  0
TEXT
  8
0
  6
CONTINUOUS
 62
     4
 10
1617.42
 20
332.7
 30
6.0
 40
21.6
  1
ご注文主
 50
0.0
 41
1.111111111
 51
0.0
  7
KANJI8
  0
TEXT
  8
0
  6
CONTINUOUS
 62
     4
 10
1609.3200612
 20
183.4999914
 30
1.03999992
 40
10.3999992
  1
ＤＲＡＷＮ
 50
0.0
 41
0.6
 51
0.0
  7
KANJI4
  0
TEXT
  8
0
  6
CONTINUOUS
 62
     4
 10
1609.3200612
 20
225.0999882
 30
1.03999992
 40
10.3999992
  1
ＤＥＳＩＧＮ
 50
0.0
 41
0.6
 51
0.0
  7
KANJI4
  0
TEXT
  8
0
  6
CONTINUOUS
 62
     4
 10
1609.3200612
 20
266.699985
 30
1.03999992
 40
10.3999992
  1
ＣＨＥＣＫ
 50
0.0
 41
0.6
 51
0.0
  7
KANJI4
  0
LINE
  8
0
  6
CONTINUOUS
 62
     4
 10
1598.920062
 20
243.2999868
 30
0.0
 11
1788.7200474
 21
243.2999868
 31
0.0
  0
LINE
  8
0
  6
CONTINUOUS
 62
     4
 10
1598.920062
 20
201.69999
 30
0.0
 11
1788.7200474
 21
201.69999
 31
0.0
  0
LINE
  8
0
  6
CONTINUOUS
 62
     4
 10
1598.920062
 20
284.8999836
 30
0.0
 11
1788.7200474
 21
284.8999836
 31
0.0
  0
TEXT
  8
0
  6
CONTINUOUS
 62
     4
 10
1609.3200612
 20
209.4999894
 30
1.247999904
 40
12.47999904
  1
設計
 50
0.0
 41
0.6
 51
0.0
  7
KANJI5
  0
TEXT
  8
0
  6
CONTINUOUS
 62
     4
 10
1609.3200612
 20
251.0999862
 30
1.247999904
 40
12.47999904
  1
検図
 50
0.0
 41
0.6
 51
0.0
  7
KANJI5
  0
LINE
  8
0
  6
CONTINUOUS
 62
     4
 10
1804.06004622
 20
284.8999836
 30
0.0
 11
2399.7200004
 21
284.8999836
 31
0.0
  0
LINE
  8
0
  6
CONTINUOUS
 62
     4
 10
1788.7200474
 20
201.69999
 30
0.0
 11
2399.7200004
 21
201.69999
 31
0.0
  0
TEXT
  8
0
  6
CONTINUOUS
 62
     4
 10
1799.1200466
 20
183.4999914
 30
1.03999992
 40
10.3999992
  1
ＤＲＡＷＩＮＧ　ＮＯ．
 50
0.0
 41
0.8
 51
0.0
  7
KANJI9
  0
TEXT
  8
0
  6
CONTINUOUS
 62
     4
 10
1799.1200466
 20
225.0999882
 30
1.03999992
 40
10.3999992
  1
ＭＦＧ　ＮＯ．
 50
0.0
 41
0.8
 51
0.0
  7
KANJI9
  0
TEXT
  8
0
  6
CONTINUOUS
 62
     4
 10
1799.1200466
 20
266.699985
 30
1.03999992
 40
10.3999992
  1
ＴＹＰＥ
 50
0.0
 41
0.8
 51
0.0
  7
KANJI9
  0
LINE
  8
0
  6
CONTINUOUS
 62
     4
 10
1804.3200462
 20
243.2999868
 30
0.0
 11
2043.5200278
 21
243.2999868
 31
0.0
  0
TEXT
  8
0
  6
CONTINUOUS
 62
     4
 10
1799.1200466
 20
165.2999928
 30
1.247999904
 40
12.47999904
  1
図　面　番　号
 50
0.0
 41
0.8
 51
0.0
  7
KANJI10
  0
TEXT
  8
0
  6
CONTINUOUS
 62
     4
 10
1799.1200466
 20
206.8999896
 30
1.247999904
 40
12.47999904
  1
製番
 50
0.0
 41
0.8
 51
0.0
  7
KANJI10
  0
TEXT
  8
0
  6
CONTINUOUS
 62
     4
 10
1799.1200466
 20
248.4999864
 30
1.247999904
 40
12.47999904
  1
機種
 50
0.0
 41
0.8
 51
0.0
  7
KANJI10
  0
LINE
  8
0
  6
CONTINUOUS
 62
     4
 10
1598.920062
 20
160.0999932
 30
0.0
 11
1788.7200474
 21
160.0999932
 31
0.0
  0
TEXT
  8
0
  6
CONTINUOUS
 62
     4
 10
1609.3200612
 20
141.8999946
 30
1.03999992
 40
10.3999992
  1
ＤＡＴＥ
 50
0.0
 41
0.6
 51
0.0
  7
KANJI4
  0
TEXT
  8
0
  6
CONTINUOUS
 62
     4
 10
1609.3200612
 20
126.2999958
 30
1.247999904
 40
12.47999904
  1
日付
 50
0.0
 41
0.6
 51
0.0
  7
KANJI5
  0
TEXT
  8
0
  6
CONTINUOUS
 62
     4
 10
1609.3200612
 20
167.8999926
 30
1.247999904
 40
12.47999904
  1
作図
 50
0.0
 41
0.6
 51
0.0
  7
KANJI5
  0
LINE
  8
0
  6
CONTINUOUS
 62
     4
 10
1788.7200474
 20
141.8999946
 30
0.0
 11
2399.7200004
 21
141.8999946
 31
0.0
  0
LINE
  8
0
  6
LTYPE1
 62
     4
 10
2225.5200138
 20
149.699994
 30
0.0
 11
2225.5200138
 21
191.2999908
 31
0.0
  0
LINE
  8
0
  6
LTYPE1
 62
     4
 10
2189.1200166
 20
149.699994
 30
0.0
 11
2189.1200166
 21
191.2999908
 31
0.0
  0
LINE
  8
0
  6
LTYPE1
 62
     4
 10
2152.7200194
 20
149.699994
 30
0.0
 11
2152.7200194
 21
191.2999908
 31
0.0
  0
LINE
  8
0
  6
LTYPE1
 62
     4
 10
2116.3200222
 20
149.699994
 30
0.0
 11
2116.3200222
 21
191.2999908
 31
0.0
  0
LINE
  8
0
  6
LTYPE1
 62
     4
 10
2079.920025
 20
149.699994
 30
0.0
 11
2079.920025
 21
191.2999908
 31
0.0
  0
LINE
  8
0
  6
LTYPE1
 62
     4
 10
2043.5200278
 20
149.699994
 30
0.0
 11
2043.5200278
 21
191.2999908
 31
0.0
  0
LINE
  8
0
  6
LTYPE1
 62
     4
 10
2007.1200306
 20
149.699994
 30
0.0
 11
2007.1200306
 21
191.2999908
 31
0.0
  0
LINE
  8
0
  6
LTYPE1
 62
     4
 10
1970.7200334
 20
149.699994
 30
0.0
 11
1970.7200334
 21
191.2999908
 31
0.0
  0
LINE
  8
0
  6
LTYPE1
 62
     4
 10
1970.7200334
 20
191.2999908
 30
0.0
 11
2225.5200138
 21
191.2999908
 31
0.0
  0
LINE
  8
0
  6
LTYPE1
 62
     4
 10
1970.7200334
 20
149.699994
 30
0.0
 11
2225.5200138
 21
149.699994
 31
0.0
  0
LINE
  8
0
  6
CONTINUOUS
 62
     4
 10
2246.3200122
 20
171.7999923
 30
0.0
 11
2256.7200114
 21
171.7999923
 31
0.0
  0
LINE
  8
0
  6
CONTINUOUS
 62
     4
 10
2311.3200072
 20
156.1999935
 30
0.0
 11
2274.92001
 21
156.1999935
 31
0.0
  0
LINE
  8
0
  6
CONTINUOUS
 62
     4
 10
2274.92001
 20
156.1999935
 30
0.0
 11
2293.1200086
 21
187.3999911
 31
0.0
  0
LINE
  8
0
  6
CONTINUOUS
 62
     4
 10
2293.1200086
 20
187.3999911
 30
0.0
 11
2311.3200072
 21
156.1999935
 31
0.0
  0
TEXT
  8
0
  6
CONTINUOUS
 62
     4
 10
2059.1200266
 20
266.699985
 30
1.03999992
 40
10.3999992
  1
ＴＩＴＬＥ
 50
0.0
 41
0.8
 51
0.0
  7
KANJI9
  0
TEXT
  8
0
  6
CONTINUOUS
 62
     4
 10
2059.1200266
 20
248.4999864
 30
1.247999904
 40
12.47999904
  1
名称
 50
0.0
 41
0.8
 51
0.0
  7
KANJI10
  0
TEXT
  8
0
  6
CONTINUOUS
 62
     2
 10
2143.92
 20
209.7
 30
15.0
 40
30.0
  1
外形寸法図
 50
0.0
 41
1.0
 51
0.0
  7
KANJI11
  0
TEXT
  8
0
  6
CONTINUOUS
 62
     2
 10
2107.92
 20
245.7
 30
4.285714286
 40
30.0
  1
マイティシリンダ
 50
0.0
 41
1.0
 51
0.0
  7
KANJI12
  0
TEXT
  8
0
  6
CONTINUOUS
 62
     2
 10
1939.2200334
 20
155.699994
 30
1.8
 40
30.0
  1
Ａ
 50
0.0
 41
0.8
 51
0.0
  7
KANJI13
  0
CIRCLE
  8
0
  6
CONTINUOUS
 62
     2
 10
1900.2200334
 20
220.199994
 30
0.0
 40
15.0
  0
TEXT
  8
0
  6
CONTINUOUS
 62
     2
 10
1888.9700334
 20
208.949994
 30
1.8
 40
24.0
  1
Ｓ
 50
0.0
 41
1.0
 51
0.0
  7
KANJI14
  0
LINE
  8
0
  6
CONTINUOUS
 62
     6
 10
2005.703030709
 20
120.683996232
 30
0.0
 11
1990.727031861
 21
120.683996232
 31
0.0
  0
LINE
  8
0
  6
CONTINUOUS
 62
     6
 10
2009.447030421
 20
120.683996232
 30
0.0
 11
2024.423029269
 21
120.683996232
 31
0.0
  0
TEXT
  8
0
  6
CONTINUOUS
 62
     2
 10
1665.9200334
 20
170.699994
 30
6.0
 40
21.0
  1
岡田
 50
0.0
 41
0.857142857
 51
0.0
  7
KANJI15
  0
LINE
  8
0
  6
CONTINUOUS
 62
     4
 10
2399.7200004
 20
368.0999772
 30
0.0
 11
2399.7200004
 21
409.699974
 31
0.0
  0
LINE
  8
0
  6
CONTINUOUS
 62
     6
 10
1599.670062
 20
368.0999772
 30
0.0
 11
2400.4700004
 21
368.0999772
 31
0.0
  0
LINE
  8
0
  6
CONTINUOUS
 62
     6
 10
1598.920062
 20
409.699974
 30
0.0
 11
2399.7200004
 21
409.699974
 31
0.0
  0
TEXT
  8
0
  6
CONTINUOUS
 62
     4
 10
1617.42
 20
374.2999968
 30
6.0
 40
21.6
  1
ご用途
 50
0.0
 41
1.111111111
 51
0.0
  7
KANJI8
  0
TEXT
  8
0
  6
CONTINUOUS
 62
     2
 10
1708.92
 20
83.7
 30
1.8
 40
27.0
  1
１／６
 50
0.0
 41
0.666666667
 51
0.0
  7
KANJI16
  0
LINE
  8
0
  6
CONTINUOUS
 62
     1
 10
1523.37
 20
1674.9
 30
0.0
 11
1523.37
 21
1554.78
 31
0.0
  0
LINE
  8
0
  6
CONTINUOUS
 62
     2
 10
1454.07
 20
1674.9
 30
0.0
 11
1454.07
 21
1554.78
 31
0.0
  0
LINE
  8
0
  6
CONTINUOUS
 62
     2
 10
1384.77
 20
1674.9
 30
0.0
 11
1384.77
 21
1554.78
 31
0.0
  0
LINE
  8
0
  6
CONTINUOUS
 62
     1
 10
1292.37
 20
1674.9
 30
0.0
 11
1292.37
 21
1554.78
 31
0.0
  0
LINE
  8
0
  6
CONTINUOUS
 62
     1
 10
1292.37
 20
1674.9
 30
0.0
 11
1523.37
 21
1674.9
 31
0.0
  0
LINE
  8
0
  6
CONTINUOUS
 62
     1
 10
1292.37
 20
1637.94
 30
0.0
 11
1523.37
 21
1637.94
 31
0.0
  0
LINE
  8
0
  6
CONTINUOUS
 62
     2
 10
1292.37
 20
1610.22
 30
0.0
 11
1523.37
 21
1610.22
 31
0.0
  0
LINE
  8
0
  6
CONTINUOUS
 62
     2
 10
1292.37
 20
1582.5
 30
0.0
 11
1523.37
 21
1582.5
 31
0.0
  0
LINE
  8
0
  6
CONTINUOUS
 62
     1
 10
1292.37
 20
1554.78
 30
0.0
 11
1523.37
 21
1554.78
 31
0.0
  0
TEXT
  8
0
  6
CONTINUOUS
 62
     2
 10
1463.31
 20
1658.73
 30
1.386
 40
13.86
  1
起動電流
 50
0.0
 41
0.9
 51
0.0
  7
KANJI17
  0
TEXT
  8
0
  6
CONTINUOUS
 62
     2
 10
1463.31
 20
1642.56
 30
1.386
 40
13.86
  1
　　　Ａ
 50
0.0
 41
0.9
 51
0.0
  7
KANJI17
  0
TEXT
  8
0
  6
CONTINUOUS
 62
     2
 10
1394.01
 20
1658.73
 30
1.386
 40
13.86
  1
定格電流
 50
0.0
 41
0.9
 51
0.0
  7
KANJI17
  0
TEXT
  8
0
  6
CONTINUOUS
 62
     2
 10
1394.01
 20
1642.56
 30
1.386
 40
13.86
  1
　　　Ａ
 50
0.0
 41
0.9
 51
0.0
  7
KANJI17
  0
TEXT
  8
0
  6
CONTINUOUS
 62
     2
 10
1300.224
 20
1589.43
 30
1.386
 40
13.86
  1
２００／６０
 50
0.0
 41
0.9
 51
0.0
  7
KANJI17
  0
TEXT
  8
0
  6
CONTINUOUS
 62
     2
 10
1300.224
 20
1658.73
 30
1.386
 40
13.86
  1
電圧／周波数
 50
0.0
 41
0.9
 51
0.0
  7
KANJI17
  0
TEXT
  8
0
  6
CONTINUOUS
 62
     2
 10
1300.224
 20
1642.56
 30
1.386
 40
13.86
  1
　Ｖ／Ｈｚ
 50
0.0
 41
0.9
 51
0.0
  7
KANJI17
  0
TEXT
  8
0
  6
CONTINUOUS
 62
     2
 10
1300.224
 20
1617.15
 30
1.386
 40
13.86
  1
２００／５０
 50
0.0
 41
0.9
 51
0.0
  7
KANJI17
  0
TEXT
  8
0
  6
CONTINUOUS
 62
     2
 10
1300.224
 20
1561.71
 30
1.386
 40
13.86
  1
２２０／６０
 50
0.0
 41
0.9
 51
0.0
  7
KANJI17
  0
LINE
  8
0
  6
CONTINUOUS
 62
     1
 10
1246.17
 20
1674.9
 30
0.0
 11
1246.17
 21
1554.78
 31
0.0
  0
LINE
  8
0
  6
CONTINUOUS
 62
     2
 10
1176.87
 20
1674.9
 30
0.0
 11
1176.87
 21
1554.78
 31
0.0
  0
LINE
  8
0
  6
CONTINUOUS
 62
     2
 10
1107.57
 20
1674.9
 30
0.0
 11
1107.57
 21
1554.78
 31
0.0
  0
LINE
  8
0
  6
CONTINUOUS
 62
     1
 10
1015.17
 20
1674.9
 30
0.0
 11
1015.17
 21
1554.78
 31
0.0
  0
LINE
  8
0
  6
CONTINUOUS
 62
     1
 10
1015.17
 20
1674.9
 30
0.0
 11
1246.17
 21
1674.9
 31
0.0
  0
LINE
  8
0
  6
CONTINUOUS
 62
     1
 10
1015.17
 20
1637.94
 30
0.0
 11
1246.17
 21
1637.94
 31
0.0
  0
LINE
  8
0
  6
CONTINUOUS
 62
     2
 10
1015.17
 20
1610.22
 30
0.0
 11
1246.17
 21
1610.22
 31
0.0
  0
LINE
  8
0
  6
CONTINUOUS
 62
     2
 10
1015.17
 20
1582.5
 30
0.0
 11
1246.17
 21
1582.5
 31
0.0
  0
LINE
  8
0
  6
CONTINUOUS
 62
     1
 10
1015.17
 20
1554.78
 30
0.0
 11
1246.17
 21
1554.78
 31
0.0
  0
TEXT
  8
0
  6
CONTINUOUS
 62
     2
 10
1186.11
 20
1658.73
 30
1.386
 40
13.86
  1
起動電流
 50
0.0
 41
0.9
 51
0.0
  7
KANJI17
  0
TEXT
  8
0
  6
CONTINUOUS
 62
     2
 10
1186.11
 20
1642.56
 30
1.386
 40
13.86
  1
　　　Ａ
 50
0.0
 41
0.9
 51
0.0
  7
KANJI17
  0
TEXT
  8
0
  6
CONTINUOUS
 62
     2
 10
1116.81
 20
1658.73
 30
1.386
 40
13.86
  1
定格電流
 50
0.0
 41
0.9
 51
0.0
  7
KANJI17
  0
TEXT
  8
0
  6
CONTINUOUS
 62
     2
 10
1116.81
 20
1642.56
 30
1.386
 40
13.86
  1
　　　Ａ
 50
0.0
 41
0.9
 51
0.0
  7
KANJI17
  0
TEXT
  8
0
  6
CONTINUOUS
 62
     2
 10
1023.024
 20
1658.73
 30
1.386
 40
13.86
  1
電圧／周波数
 50
0.0
 41
0.9
 51
0.0
  7
KANJI17
  0
TEXT
  8
0
  6
CONTINUOUS
 62
     2
 10
1023.024
 20
1642.56
 30
1.386
 40
13.86
  1
　Ｖ／Ｈｚ
 50
0.0
 41
0.9
 51
0.0
  7
KANJI17
  0
TEXT
  8
0
  6
CONTINUOUS
 62
     2
 10
1023.024
 20
1617.15
 30
1.386
 40
13.86
  1
４００／５０
 50
0.0
 41
0.9
 51
0.0
  7
KANJI17
  0
TEXT
  8
0
  6
CONTINUOUS
 62
     2
 10
1023.024
 20
1589.43
 30
1.386
 40
13.86
  1
４００／６０
 50
0.0
 41
0.9
 51
0.0
  7
KANJI17
  0
TEXT
  8
0
  6
CONTINUOUS
 62
     2
 10
1023.024
 20
1561.71
 30
1.386
 40
13.86
  1
４４０／６０
 50
0.0
 41
0.9
 51
0.0
  7
KANJI17
  0
TEXT
  8
0
  6
CONTINUOUS
 62
     2
 10
1119.267493476
 20
1615.15
 30
1.386
 40
13.86
  1
　３．２
 50
0.0
 41
0.9
 51
0.0
  7
KANJI17
  0
TEXT
  8
0
  6
CONTINUOUS
 62
     2
 10
1119.267493476
 20
1587.43
 30
1.386
 40
13.86
  1
　２．８
 50
0.0
 41
0.9
 51
0.0
  7
KANJI17
  0
TEXT
  8
0
  6
CONTINUOUS
 62
     2
 10
1119.267493476
 20
1559.71
 30
1.386
 40
13.86
  1
　２．７
 50
0.0
 41
0.9
 51
0.0
  7
KANJI17
  0
TEXT
  8
0
  6
CONTINUOUS
 62
     2
 10
1396.467493476
 20
1559.71
 30
1.386
 40
13.86
  1
　５．３
 50
0.0
 41
0.9
 51
0.0
  7
KANJI17
  0
TEXT
  8
0
  6
CONTINUOUS
 62
     2
 10
1396.467493476
 20
1587.43
 30
1.386
 40
13.86
  1
　５．２
 50
0.0
 41
0.9
 51
0.0
  7
KANJI17
  0
TEXT
  8
0
  6
CONTINUOUS
 62
     2
 10
1396.467493476
 20
1615.15
 30
1.386
 40
13.86
  1
　６．１
 50
0.0
 41
0.9
 51
0.0
  7
KANJI17
  0
TEXT
  8
0
  6
CONTINUOUS
 62
     2
 10
1465.767493476
 20
1615.15
 30
1.386
 40
13.86
  1
２５．１
 50
0.0
 41
0.9
 51
0.0
  7
KANJI17
  0
TEXT
  8
0
  6
CONTINUOUS
 62
     2
 10
1465.767493476
 20
1587.43
 30
1.386
 40
13.86
  1
２２．５
 50
0.0
 41
0.9
 51
0.0
  7
KANJI17
  0
TEXT
  8
0
  6
CONTINUOUS
 62
     2
 10
1465.767493476
 20
1559.71
 30
1.386
 40
13.86
  1
２４．８
 50
0.0
 41
0.9
 51
0.0
  7
KANJI17
  0
TEXT
  8
0
  6
CONTINUOUS
 62
     2
 10
1188.567493476
 20
1615.15
 30
1.386
 40
13.86
  1
１２．５
 50
0.0
 41
0.9
 51
0.0
  7
KANJI17
  0
TEXT
  8
0
  6
CONTINUOUS
 62
     2
 10
1188.567493476
 20
1587.43
 30
1.386
 40
13.86
  1
１１．３
 50
0.0
 41
0.9
 51
0.0
  7
KANJI17
  0
TEXT
  8
0
  6
CONTINUOUS
 62
     2
 10
1188.567493476
 20
1559.71
 30
1.386
 40
13.86
  1
１２．４
 50
0.0
 41
0.9
 51
0.0
  7
KANJI17
  0
LINE
  8
0
  6
CONTINUOUS
 62
     1
 10
385.5
 20
479.733974596
 30
0.0
 11
385.5
 21
819.733974596
 31
0.0
  0
LINE
  8
0
  6
CONTINUOUS
 62
     1
 10
385.5
 20
629.633974596
 30
0.0
 11
385.5
 21
829.633974596
 31
0.0
  0
LINE
  8
0
  6
CONTINUOUS
 62
     1
 10
385.5
 20
470.733974596
 30
0.0
 11
385.5
 21
845.733974596
 31
0.0
  0
LINE
  8
0
  6
CONTINUOUS
 62
     1
 10
385.5
 20
845.733974596
 30
0.0
 11
345.5
 21
845.733974596
 31
0.0
  0
ARC
  8
0
  6
CONTINUOUS
 62
     1
 10
367.5
 20
712.733974596
 30
0.0
 40
4.0
 50
270.0
 51
0.0
  0
LINE
  8
0
  6
CONTINUOUS
 62
     1
 10
345.5
 20
845.733974596
 30
0.0
 11
345.5
 21
808.733974596
 31
0.0
  0
ARC
  8
0
  6
CONTINUOUS
 62
     1
 10
342.5
 20
808.733974596
 30
0.0
 40
3.0
 50
270.0
 51
0.0
  0
ARC
  8
0
  6
CONTINUOUS
 62
     1
 10
368.5
 20
808.733974596
 30
0.0
 40
3.0
 50
270.0
 51
0.0
  0
LINE
  8
0
  6
CONTINUOUS
 62
     1
 10
371.5
 20
712.733974596
 30
0.0
 11
371.5
 21
845.733974596
 31
0.0
  0
LINE
  8
0
  6
CONTINUOUS
 62
     1
 10
290.5
 20
470.733974596
 30
0.0
 11
290.5
 21
805.733974596
 31
0.0
  0
LINE
  8
0
  6
CONTINUOUS
 62
     1
 10
290.5
 20
805.733974596
 30
0.0
 11
368.5
 21
805.733974596
 31
0.0
  0
CIRCLE
  8
0
  6
CONTINUOUS
 62
     1
 10
365.5
 20
870.733974596
 30
0.0
 40
15.0
  0
LINE
  8
0
  6
CONTINUOUS
 62
     1
 10
376.901268963
 20
853.735505015
 30
0.0
 11
365.5
 21
855.733974596
 31
0.0
  0
LINE
  8
0
  6
CONTINUOUS
 62
     1
 10
365.5
 20
853.733974596
 30
0.0
 11
376.901455767
 21
853.733974596
 31
0.0
  0
ARC
  8
0
  6
CONTINUOUS
 62
     1
 10
365.5
 20
870.733974596
 30
0.0
 40
25.0
 50
300.714883545
 51
0.0
  0
LINE
  8
0
  6
CONTINUOUS
 62
     1
 10
377.617095146
 20
847.870984085
 30
0.0
 11
376.901455767
 21
853.733974596
 31
0.0
  0
ARC
  8
0
  6
CONTINUOUS
 62
     1
 10
379.005622715
 20
848.050100256
 30
0.0
 40
1.4
 50
121.733468281
 51
187.57738995
  0
LINE
  8
0
  6
CONTINUOUS
 62
     1
 10
354.098731037
 20
853.735505015
 30
0.0
 11
365.5
 21
855.733974596
 31
0.0
  0
LINE
  8
0
  6
CONTINUOUS
 62
     1
 10
365.5
 20
853.733974596
 30
0.0
 11
354.098544233
 21
853.733974596
 31
0.0
  0
LINE
  8
0
  6
CONTINUOUS
 62
     1
 10
353.382904854
 20
847.870984085
 30
0.0
 11
354.098544233
 21
853.733974596
 31
0.0
  0
ARC
  8
0
  6
CONTINUOUS
 62
     1
 10
351.994377285
 20
848.050100256
 30
0.0
 40
1.4
 50
352.42261005
 51
58.266531719
  0
ARC
  8
0
  6
CONTINUOUS
 62
     1
 10
365.5
 20
870.733974596
 30
0.0
 40
25.0
 50
0.0
 51
239.342761175
  0
LINE
  8
0
  6
CONTINUOUS
 62
     1
 10
377.87793953
 20
845.733974596
 30
0.0
 11
377.617095146
 21
847.870984085
 31
0.0
  0
LINE
  8
0
  6
CONTINUOUS
 62
     1
 10
353.12206047
 20
845.733974596
 30
0.0
 11
353.382904854
 21
847.870984085
 31
0.0
  0
LINE
  8
0
  6
CONTINUOUS
 62
     1
 10
385.5
 20
470.733974596
 30
0.0
 11
273.5
 21
470.733974596
 31
0.0
  0
LINE
  8
0
  6
CONTINUOUS
 62
     1
 10
273.5
 20
470.733974596
 30
0.0
 11
273.5
 21
718.733974596
 31
0.0
  0
LINE
  8
0
  6
CONTINUOUS
 62
     1
 10
367.5
 20
708.733974596
 30
0.0
 11
290.5
 21
708.733974596
 31
0.0
  0
LINE
  8
0
  6
CONTINUOUS
 62
     1
 10
290.5
 20
718.733974596
 30
0.0
 11
273.5
 21
718.733974596
 31
0.0
  0
LINE
  8
0
  6
CONTINUOUS
 62
     1
 10
273.5
 20
639.733974596
 30
0.0
 11
273.5
 21
628.784434596
 31
0.0
  0
LINE
  8
0
  6
CONTINUOUS
 62
     1
 10
273.5
 20
639.733974596
 30
0.0
 11
273.5
 21
650.683514596
 31
0.0
  0
LINE
  8
0
  6
CONTINUOUS
 62
     1
 10
265.4789
 20
631.465954596
 30
0.0
 11
267.027076294
 21
628.784434596
 31
0.0
  0
LINE
  8
0
  6
CONTINUOUS
 62
     1
 10
265.4789
 20
639.733974596
 30
0.0
 11
265.4789
 21
631.465954596
 31
0.0
  0
LINE
  8
0
  6
CONTINUOUS
 62
     1
 10
265.4789
 20
648.001994596
 30
0.0
 11
267.027076294
 21
650.683514596
 31
0.0
  0
LINE
  8
0
  6
CONTINUOUS
 62
     1
 10
265.4789
 20
639.733974596
 30
0.0
 11
265.4789
 21
648.001994596
 31
0.0
  0
ARC
  8
0
  6
CONTINUOUS
 62
     1
 10
275.933121693
 20
639.733974596
 30
0.0
 40
10.454221693
 50
148.419912243
 51
211.580087757
  0
ARC
  8
0
  6
CONTINUOUS
 62
     1
 10
268.672013606
 20
631.521819596
 30
0.0
 40
3.193602261
 50
121.002313915
 51
182.989498403
  0
LINE
  8
0
  6
CONTINUOUS
 62
     1
 10
265.4789
 20
648.001994596
 30
0.0
 11
267.027076294
 21
650.683514596
 31
0.0
  0
ARC
  8
0
  6
CONTINUOUS
 62
     1
 10
268.672013606
 20
647.946129596
 30
0.0
 40
3.193602261
 50
177.010501597
 51
238.997686085
  0
LINE
  8
0
  6
CONTINUOUS
 62
     1
 10
273.5
 20
628.784434596
 30
0.0
 11
267.027076294
 21
628.784434596
 31
0.0
  0
LINE
  8
0
  6
CONTINUOUS
 62
     1
 10
273.5
 20
634.259204596
 30
0.0
 11
267.027076294
 21
634.259204596
 31
0.0
  0
LINE
  8
0
  6
CONTINUOUS
 62
     1
 10
273.5
 20
645.208744596
 30
0.0
 11
267.027076294
 21
645.208744596
 31
0.0
  0
LINE
  8
0
  6
CONTINUOUS
 62
     1
 10
273.5
 20
650.683514596
 30
0.0
 11
267.027076294
 21
650.683514596
 31
0.0
  0
LINE
  8
0
  6
CONTINUOUS
 62
     1
 10
273.5
 20
489.733974596
 30
0.0
 11
273.5
 21
478.784434596
 31
0.0
  0
LINE
  8
0
  6
CONTINUOUS
 62
     1
 10
273.5
 20
489.733974596
 30
0.0
 11
273.5
 21
500.683514596
 31
0.0
  0
LINE
  8
0
  6
CONTINUOUS
 62
     1
 10
265.4789
 20
481.465954596
 30
0.0
 11
267.027076294
 21
478.784434596
 31
0.0
  0
LINE
  8
0
  6
CONTINUOUS
 62
     1
 10
265.4789
 20
489.733974596
 30
0.0
 11
265.4789
 21
481.465954596
 31
0.0
  0
LINE
  8
0
  6
CONTINUOUS
 62
     1
 10
265.4789
 20
498.001994596
 30
0.0
 11
267.027076294
 21
500.683514596
 31
0.0
  0
LINE
  8
0
  6
CONTINUOUS
 62
     1
 10
265.4789
 20
489.733974596
 30
0.0
 11
265.4789
 21
498.001994596
 31
0.0
  0
ARC
  8
0
  6
CONTINUOUS
 62
     1
 10
275.933121693
 20
489.733974596
 30
0.0
 40
10.454221693
 50
148.419912243
 51
211.580087757
  0
ARC
  8
0
  6
CONTINUOUS
 62
     1
 10
268.672013606
 20
481.521819596
 30
0.0
 40
3.193602261
 50
121.002313915
 51
182.989498403
  0
LINE
  8
0
  6
CONTINUOUS
 62
     1
 10
265.4789
 20
498.001994596
 30
0.0
 11
267.027076294
 21
500.683514596
 31
0.0
  0
ARC
  8
0
  6
CONTINUOUS
 62
     1
 10
268.672013606
 20
497.946129596
 30
0.0
 40
3.193602261
 50
177.010501597
 51
238.997686085
  0
LINE
  8
0
  6
CONTINUOUS
 62
     1
 10
273.5
 20
478.784434596
 30
0.0
 11
267.027076294
 21
478.784434596
 31
0.0
  0
LINE
  8
0
  6
CONTINUOUS
 62
     1
 10
273.5
 20
484.259204596
 30
0.0
 11
267.027076294
 21
484.259204596
 31
0.0
  0
LINE
  8
0
  6
CONTINUOUS
 62
     1
 10
273.5
 20
495.208744596
 30
0.0
 11
267.027076294
 21
495.208744596
 31
0.0
  0
LINE
  8
0
  6
CONTINUOUS
 62
     1
 10
273.5
 20
500.683514596
 30
0.0
 11
267.027076294
 21
500.683514596
 31
0.0
  0
LINE
  8
0
  6
CONTINUOUS
 62
     1
 10
273.5
 20
707.733974596
 30
0.0
 11
273.5
 21
700.239914596
 31
0.0
  0
LINE
  8
0
  6
CONTINUOUS
 62
     1
 10
273.5
 20
707.733974596
 30
0.0
 11
273.5
 21
715.228034596
 31
0.0
  0
LINE
  8
0
  6
CONTINUOUS
 62
     1
 10
268.0001
 20
702.075194596
 30
0.0
 11
269.059699402
 21
700.239914596
 31
0.0
  0
LINE
  8
0
  6
CONTINUOUS
 62
     1
 10
268.0001
 20
707.733974596
 30
0.0
 11
268.0001
 21
702.075194596
 31
0.0
  0
LINE
  8
0
  6
CONTINUOUS
 62
     1
 10
268.0001
 20
713.392754596
 30
0.0
 11
269.059699402
 21
715.228034596
 31
0.0
  0
LINE
  8
0
  6
CONTINUOUS
 62
     1
 10
268.0001
 20
707.733974596
 30
0.0
 11
268.0001
 21
713.392754596
 31
0.0
  0
ARC
  8
0
  6
CONTINUOUS
 62
     1
 10
275.155155337
 20
707.733974596
 30
0.0
 40
7.155055337
 50
148.419912243
 51
211.580087757
  0
ARC
  8
0
  6
CONTINUOUS
 62
     1
 10
270.185523767
 20
702.113429596
 30
0.0
 40
2.185758211
 50
121.002313915
 51
182.989498403
  0
LINE
  8
0
  6
CONTINUOUS
 62
     1
 10
268.0001
 20
713.392754596
 30
0.0
 11
269.059699402
 21
715.228034596
 31
0.0
  0
ARC
  8
0
  6
CONTINUOUS
 62
     1
 10
270.185523767
 20
713.354519596
 30
0.0
 40
2.185758211
 50
177.010501597
 51
238.997686085
  0
LINE
  8
0
  6
CONTINUOUS
 62
     1
 10
273.5
 20
700.239914596
 30
0.0
 11
269.059699402
 21
700.239914596
 31
0.0
  0
LINE
  8
0
  6
CONTINUOUS
 62
     1
 10
273.5
 20
703.986944596
 30
0.0
 11
269.059699402
 21
703.986944596
 31
0.0
  0
LINE
  8
0
  6
CONTINUOUS
 62
     1
 10
273.5
 20
711.481004596
 30
0.0
 11
269.059699402
 21
711.481004596
 31
0.0
  0
LINE
  8
0
  6
CONTINUOUS
 62
     1
 10
273.5
 20
715.228034596
 30
0.0
 11
269.059699402
 21
715.228034596
 31
0.0
  0
LINE
  8
0
  6
CONTINUOUS
 62
     1
 10
385.5
 20
640.633974596
 30
0.0
 11
385.5
 21
840.633974596
 31
0.0
  0
LINE
  8
0
  6
CONTINUOUS
 62
     1
 10
385.5
 20
639.933974596
 30
0.0
 11
385.5
 21
839.933974596
 31
0.0
  0
LINE
  8
0
  6
CONTINUOUS
 62
     2
 10
547.0
 20
448.733974596
 30
0.0
 11
549.649054108
 21
436.517898617
 31
0.0
  0
LINE
  8
0
  6
CONTINUOUS
 62
     2
 10
547.0
 20
448.733974596
 30
0.0
 11
555.402186143
 21
439.479069517
 31
0.0
  0
LINE
  8
0
  6
CONTINUOUS
 62
     2
 10
547.0
 20
448.733974596
 30
0.0
 11
570.161764706
 21
403.733974596
 31
0.0
  0
LINE
  8
0
  6
CONTINUOUS
 62
     2
 10
570.161764706
 20
403.733974596
 30
0.0
 11
650.5
 21
403.733974596
 31
0.0
  0
LINE
  8
0
  6
LTYPE2
 62
     2
 10
332.575
 20
870.733974596
 30
0.0
 11
397.575
 21
870.733974596
 31
0.0
  0
LINE
  8
0
  6
LTYPE2
 62
     2
 10
365.5
 20
823.733974596
 30
0.0
 11
365.5
 21
903.433974596
 31
0.0
  0
LINE
  8
0
  6
LTYPE2
 62
     2
 10
259.9
 20
489.733974596
 30
0.0
 11
308.6
 21
489.733974596
 31
0.0
  0
LINE
  8
0
  6
LTYPE2
 62
     2
 10
260.5
 20
639.733974596
 30
0.0
 11
308.6
 21
639.733974596
 31
0.0
  0
LINE
  8
0
  6
LTYPE2
 62
     2
 10
262.4
 20
707.733974596
 30
0.0
 11
287.0
 21
707.733974596
 31
0.0
  0
LINE
  8
0
  6
CONTINUOUS
 62
     2
 10
266.0
 20
757.133974596
 30
0.0
 11
264.519645058
 21
769.546007034
 31
0.0
  0
LINE
  8
0
  6
CONTINUOUS
 62
     2
 10
266.0
 20
757.133974596
 30
0.0
 11
258.511958794
 21
767.142932529
 31
0.0
  0
LINE
  8
0
  6
CONTINUOUS
 62
     2
 10
266.0
 20
757.133974596
 30
0.0
 11
216.0
 21
882.133974596
 31
0.0
  0
LINE
  8
0
  6
CONTINUOUS
 62
     2
 10
216.0
 20
882.133974596
 30
0.0
 11
135.0
 21
882.133974596
 31
0.0
  0
TEXT
  8
0
  6
CONTINUOUS
 62
     2
 10
135.0
 20
887.133974596
 30
0.0
 40
15.0
  1
手動軸カバー
 50
0.0
 41
0.9
 51
0.0
  7
KANJI18
  0
LINE
  8
0
  6
CONTINUOUS
 62
     2
 10
273.5
 20
470.733974596
 30
0.0
 11
273.5
 21
345.733974596
 31
0.0
  0
LINE
  8
0
  6
LTYPE2
 62
     2
 10
244.05
 20
740.733974596
 30
0.0
 11
694.8
 21
740.733974596
 31
0.0
  0
LINE
  8
0
  6
CONTINUOUS
 62
     2
 10
1272.8
 20
480.733974596
 30
0.0
 11
1272.8
 21
343.733974596
 31
0.0
  0
LINE
  8
0
  6
CONTINUOUS
 62
     2
 10
1272.8
 20
348.733974596
 30
0.0
 11
1284.874072829
 21
345.498736532
 31
0.0
  0
LINE
  8
0
  6
CONTINUOUS
 62
     2
 10
1272.8
 20
348.733974596
 30
0.0
 11
1284.874072829
 21
351.96921266
 31
0.0
  0
LINE
  8
0
  6
CONTINUOUS
 62
     2
 10
1457.8
 20
348.733974596
 30
0.0
 11
1445.725927171
 21
351.96921266
 31
0.0
  0
LINE
  8
0
  6
CONTINUOUS
 62
     2
 10
1457.8
 20
348.733974596
 30
0.0
 11
1445.725927171
 21
345.498736532
 31
0.0
  0
LINE
  8
0
  6
CONTINUOUS
 62
     2
 10
1457.8
 20
480.733974596
 30
0.0
 11
1457.8
 21
343.733974596
 31
0.0
  0
LINE
  8
0
  6
CONTINUOUS
 62
     2
 10
1270.3
 20
541.733974596
 30
0.0
 11
1270.3
 21
293.733974596
 31
0.0
  0
LINE
  8
0
  6
CONTINUOUS
 62
     2
 10
1270.3
 20
298.733974596
 30
0.0
 11
1282.374072829
 21
295.498736532
 31
0.0
  0
LINE
  8
0
  6
CONTINUOUS
 62
     2
 10
1270.3
 20
298.733974596
 30
0.0
 11
1282.374072829
 21
301.96921266
 31
0.0
  0
LINE
  8
0
  6
CONTINUOUS
 62
     2
 10
1460.3
 20
298.733974596
 30
0.0
 11
1448.225927171
 21
301.96921266
 31
0.0
  0
LINE
  8
0
  6
CONTINUOUS
 62
     2
 10
1460.3
 20
298.733974596
 30
0.0
 11
1448.225927171
 21
295.498736532
 31
0.0
  0
LINE
  8
0
  6
CONTINUOUS
 62
     2
 10
1460.3
 20
541.733974596
 30
0.0
 11
1460.3
 21
293.733974596
 31
0.0
  0
LINE
  8
0
  6
CONTINUOUS
 62
     2
 10
1272.8
 20
348.733974596
 30
0.0
 11
1457.8
 21
348.733974596
 31
0.0
  0
LINE
  8
0
  6
CONTINUOUS
 62
     2
 10
1270.3
 20
298.733974596
 30
0.0
 11
1460.3
 21
298.733974596
 31
0.0
  0
LINE
  8
0
  6
CONTINUOUS
 62
     2
 10
1418.8
 20
445.733974596
 30
0.0
 11
1548.3
 21
445.733974596
 31
0.0
  0
ARC
  8
0
  6
CONTINUOUS
 62
     1
 10
1415.3
 20
447.733974596
 30
0.0
 40
1.0
 50
270.0
 51
0.0
  0
LINE
  8
0
  6
CONTINUOUS
 62
     1
 10
1457.8
 20
587.927210886
 30
0.0
 11
1457.8
 21
705.771474596
 31
0.0
  0
LINE
  8
0
  6
CONTINUOUS
 62
     1
 10
1272.8
 20
587.927210886
 30
0.0
 11
1272.8
 21
705.771474596
 31
0.0
  0
LINE
  8
0
  6
LTYPE2
 62
     2
 10
470.5
 20
521.733974596
 30
0.0
 11
470.5
 21
611.733974596
 31
0.0
  0
LINE
  8
0
  6
CONTINUOUS
 62
     2
 10
470.5
 20
521.733974596
 30
0.0
 11
470.5
 21
345.733974596
 31
0.0
  0
LINE
  8
0
  6
LTYPE2
 62
     2
 10
470.5
 20
521.733974596
 30
0.0
 11
470.5
 21
611.733974596
 31
0.0
  0
CIRCLE
  8
0
  6
CONTINUOUS
 62
     1
 10
470.5
 20
564.733974596
 30
0.0
 40
12.5
  0
CIRCLE
  8
0
  6
CONTINUOUS
 62
     1
 10
470.5
 20
564.733974596
 30
0.0
 40
23.0
  0
CIRCLE
  8
0
  6
CONTINUOUS
 62
     1
 10
470.5
 20
564.733974596
 30
0.0
 40
27.5
  0
LINE
  8
0
  6
CONTINUOUS
 62
     1
 10
508.5
 20
498.733974596
 30
0.0
 11
582.5
 21
498.733974596
 31
0.0
  0
LINE
  8
0
  6
CONTINUOUS
 62
     1
 10
590.5
 20
504.733974596
 30
0.0
 11
590.5
 21
624.733974596
 31
0.0
  0
LINE
  8
0
  6
CONTINUOUS
 62
     1
 10
400.5
 20
497.733974596
 30
0.0
 11
400.5
 21
631.733974596
 31
0.0
  0
LINE
  8
0
  6
CONTINUOUS
 62
     1
 10
385.5
 20
497.733974596
 30
0.0
 11
400.5
 21
497.733974596
 31
0.0
  0
LINE
  8
0
  6
CONTINUOUS
 62
     1
 10
385.5
 20
631.733974596
 30
0.0
 11
400.5
 21
631.733974596
 31
0.0
  0
LINE
  8
0
  6
CONTINUOUS
 62
     1
 10
400.5
 20
624.733974596
 30
0.0
 11
590.5
 21
624.733974596
 31
0.0
  0
LINE
  8
0
  6
CONTINUOUS
 62
     1
 10
582.5
 20
504.733974596
 30
0.0
 11
590.5
 21
504.733974596
 31
0.0
  0
LINE
  8
0
  6
CONTINUOUS
 62
     1
 10
400.5
 20
504.733974596
 30
0.0
 11
508.5
 21
504.733974596
 31
0.0
  0
LINE
  8
0
  6
LTYPE2
 62
     2
 10
545.5
 20
483.233974596
 30
0.0
 11
545.5
 21
509.733974596
 31
0.0
  0
LINE
  8
0
  6
CONTINUOUS
 62
     1
 10
591.5
 20
497.233974596
 30
0.0
 11
591.5
 21
496.233974596
 31
0.0
  0
ARC
  8
0
  6
CONTINUOUS
 62
     1
 10
504.5
 20
494.233974596
 30
0.0
 40
3.0
 50
90.0
 51
180.0
  0
LINE
  8
0
  6
CONTINUOUS
 62
     1
 10
630.5
 20
454.233974596
 30
0.0
 11
501.5
 21
454.233974596
 31
0.0
  0
LINE
  8
0
  6
CONTINUOUS
 62
     1
 10
591.5
 20
496.233974596
 30
0.0
 11
627.5
 21
496.233974596
 31
0.0
  0
ARC
  8
0
  6
CONTINUOUS
 62
     1
 10
627.5
 20
493.233974596
 30
0.0
 40
3.0
 50
0.0
 51
90.0
  0
LINE
  8
0
  6
CONTINUOUS
 62
     1
 10
630.5
 20
452.733974596
 30
0.0
 11
501.5
 21
452.733974596
 31
0.0
  0
LINE
  8
0
  6
CONTINUOUS
 62
     1
 10
630.5
 20
447.733974596
 30
0.0
 11
630.5
 21
493.233974596
 31
0.0
  0
ARC
  8
0
  6
CONTINUOUS
 62
     1
 10
629.5
 20
447.733974596
 30
0.0
 40
1.0
 50
270.0
 51
0.0
  0
LINE
  8
0
  6
CONTINUOUS
 62
     1
 10
627.5
 20
446.733974596
 30
0.0
 11
627.5
 21
446.733974596
 31
0.0
  0
ARC
  8
0
  6
CONTINUOUS
 62
     1
 10
626.5
 20
446.733974596
 30
0.0
 40
1.0
 50
270.0
 51
0.0
  0
LINE
  8
0
  6
CONTINUOUS
 62
     1
 10
501.5
 20
447.733974596
 30
0.0
 11
501.5
 21
494.233974596
 31
0.0
  0
LINE
  8
0
  6
CONTINUOUS
 62
     1
 10
629.5
 20
446.733974596
 30
0.0
 11
502.5
 21
446.733974596
 31
0.0
  0
ARC
  8
0
  6
CONTINUOUS
 62
     1
 10
502.5
 20
447.733974596
 30
0.0
 40
1.0
 50
180.0
 51
270.0
  0
ARC
  8
0
  6
CONTINUOUS
 62
     1
 10
505.5
 20
446.733974596
 30
0.0
 40
1.0
 50
180.0
 51
270.0
  0
LINE
  8
0
  6
CONTINUOUS
 62
     1
 10
626.5
 20
445.733974596
 30
0.0
 11
505.6
 21
445.733974596
 31
0.0
  0
LINE
  8
0
  6
CONTINUOUS
 62
     1
 10
504.5
 20
497.233974596
 30
0.0
 11
591.5
 21
497.233974596
 31
0.0
  0
LINE
  8
0
  6
CONTINUOUS
 62
     1
 10
508.5
 20
497.233974596
 30
0.0
 11
508.5
 21
539.233974596
 31
0.0
  0
LINE
  8
0
  6
CONTINUOUS
 62
     1
 10
582.5
 20
497.233974596
 30
0.0
 11
582.5
 21
539.233974596
 31
0.0
  0
LINE
  8
0
  6
CONTINUOUS
 62
     1
 10
590.5
 20
622.733974596
 30
0.0
 11
599.5
 21
622.733974596
 31
0.0
  0
LINE
  8
0
  6
CONTINUOUS
 62
     1
 10
590.5
 20
625.733974596
 30
0.0
 11
599.5
 21
625.733974596
 31
0.0
  0
LINE
  8
0
  6
CONTINUOUS
 62
     1
 10
590.5
 20
569.733974596
 30
0.0
 11
599.5
 21
569.733974596
 31
0.0
  0
LINE
  8
0
  6
CONTINUOUS
 62
     1
 10
590.5
 20
559.733974596
 30
0.0
 11
599.5
 21
559.733974596
 31
0.0
  0
LINE
  8
0
  6
CONTINUOUS
 62
     1
 10
590.5
 20
506.733974596
 30
0.0
 11
599.5
 21
506.733974596
 31
0.0
  0
LINE
  8
0
  6
CONTINUOUS
 62
     1
 10
590.5
 20
503.733974596
 30
0.0
 11
599.5
 21
503.733974596
 31
0.0
  0
LINE
  8
0
  6
CONTINUOUS
 62
     1
 10
599.5
 20
504.733974596
 30
0.0
 11
599.5
 21
624.733974596
 31
0.0
  0
LINE
  8
0
  6
LTYPE1
 62
     2
 10
630.5
 20
480.533974596
 30
0.0
 11
620.5
 21
480.533974596
 31
0.0
  0
LINE
  8
0
  6
LTYPE1
 62
     2
 10
630.5
 20
481.733974596
 30
0.0
 11
620.5
 21
481.733974596
 31
0.0
  0
LINE
  8
0
  6
LTYPE1
 62
     2
 10
630.5
 20
461.933974596
 30
0.0
 11
620.5
 21
461.933974596
 31
0.0
  0
LINE
  8
0
  6
LTYPE1
 62
     2
 10
630.5
 20
460.733974596
 30
0.0
 11
620.5
 21
460.733974596
 31
0.0
  0
LINE
  8
0
  6
CONTINUOUS
 62
     1
 10
385.5
 20
639.933974596
 30
0.0
 11
385.5
 21
839.933974596
 31
0.0
  0
LINE
  8
0
  6
CONTINUOUS
 62
     2
 10
630.5
 20
471.233974596
 30
0.0
 11
635.494458093
 21
459.775118268
 31
0.0
  0
LINE
  8
0
  6
CONTINUOUS
 62
     2
 10
630.5
 20
471.233974596
 30
0.0
 11
640.554755751
 21
463.807542964
 31
0.0
  0
LINE
  8
0
  6
CONTINUOUS
 62
     2
 10
630.5
 20
471.233974596
 30
0.0
 11
656.0
 21
439.233974596
 31
0.0
  0
LINE
  8
0
  6
CONTINUOUS
 62
     2
 10
656.0
 20
439.233974596
 30
0.0
 11
729.5
 21
439.233974596
 31
0.0
  0
LINE
  8
0
  6
CONTINUOUS
 62
     1
 10
1003.1
 20
564.733974596
 30
0.0
 11
1003.1
 21
539.733974596
 31
0.0
  0
CIRCLE
  8
0
  6
CONTINUOUS
 62
     1
 10
746.425007904
 20
564.733974596
 30
0.0
 40
19.5
  0
LINE
  8
0
  6
CONTINUOUS
 62
     1
 10
726.425007904
 20
584.733974596
 30
0.0
 11
766.425007904
 21
584.733974596
 31
0.0
  0
LINE
  8
0
  6
CONTINUOUS
 62
     1
 10
766.425007904
 20
544.733974596
 30
0.0
 11
766.425007904
 21
584.733974596
 31
0.0
  0
LINE
  8
0
  6
CONTINUOUS
 62
     1
 10
726.425007904
 20
544.733974596
 30
0.0
 11
766.425007904
 21
544.733974596
 31
0.0
  0
LINE
  8
0
  6
CONTINUOUS
 62
     1
 10
726.425007904
 20
544.733974596
 30
0.0
 11
726.425007904
 21
584.733974596
 31
0.0
  0
LINE
  8
0
  6
CONTINUOUS
 62
     2
 10
754.5
 20
573.733974596
 30
0.0
 11
761.988041206
 21
583.742932529
 31
0.0
  0
LINE
  8
0
  6
CONTINUOUS
 62
     2
 10
754.5
 20
573.733974596
 30
0.0
 11
755.980354942
 21
586.146007034
 31
0.0
  0
LINE
  8
0
  6
CONTINUOUS
 62
     2
 10
754.5
 20
573.733974596
 30
0.0
 11
804.5
 21
698.733974596
 31
0.0
  0
LINE
  8
0
  6
LTYPE2
 62
     2
 10
746.425007904
 20
539.633974596
 30
0.0
 11
746.425007904
 21
589.533974596
 31
0.0
  0
ARC
  8
0
  6
CONTINUOUS
 62
     1
 10
1282.8
 20
480.733974596
 30
0.0
 40
10.0
 50
180.0
 51
270.0
  0
ARC
  8
0
  6
CONTINUOUS
 62
     1
 10
1447.8
 20
480.733974596
 30
0.0
 40
10.0
 50
270.0
 51
0.0
  0
ARC
  8
0
  6
CONTINUOUS
 62
     1
 10
1306.3
 20
505.733974596
 30
0.0
 40
8.0
 50
180.0
 51
270.0
  0
ARC
  8
0
  6
CONTINUOUS
 62
     1
 10
1306.3
 20
623.733974596
 30
0.0
 40
8.0
 50
90.0
 51
180.0
  0
ARC
  8
0
  6
CONTINUOUS
 62
     1
 10
1424.3
 20
623.733974596
 30
0.0
 40
8.0
 50
0.0
 51
90.0
  0
ARC
  8
0
  6
CONTINUOUS
 62
     1
 10
1424.3
 20
505.733974596
 30
0.0
 40
8.0
 50
270.0
 51
0.0
  0
LINE
  8
0
  6
CONTINUOUS
 62
     1
 10
1414.3
 20
497.733974596
 30
0.0
 11
1424.3
 21
497.733974596
 31
0.0
  0
LINE
  8
0
  6
CONTINUOUS
 62
     1
 10
1306.3
 20
497.733974596
 30
0.0
 11
1317.3
 21
497.733974596
 31
0.0
  0
ARC
  8
0
  6
CONTINUOUS
 62
     1
 10
1317.3
 20
494.233974596
 30
0.0
 40
3.0
 50
90.0
 51
180.0
  0
LINE
  8
0
  6
CONTINUOUS
 62
     1
 10
1314.3
 20
447.733974596
 30
0.0
 11
1314.3
 21
494.233974596
 31
0.0
  0
ARC
  8
0
  6
CONTINUOUS
 62
     1
 10
1315.3
 20
447.733974596
 30
0.0
 40
1.0
 50
180.0
 51
270.0
  0
ARC
  8
0
  6
CONTINUOUS
 62
     1
 10
1318.3
 20
446.733974596
 30
0.0
 40
1.0
 50
180.0
 51
270.0
  0
ARC
  8
0
  6
CONTINUOUS
 62
     1
 10
1413.3
 20
494.233974596
 30
0.0
 40
3.0
 50
0.0
 51
90.0
  0
LINE
  8
0
  6
CONTINUOUS
 62
     1
 10
1416.3
 20
447.733974596
 30
0.0
 11
1416.3
 21
494.233974596
 31
0.0
  0
ARC
  8
0
  6
CONTINUOUS
 62
     1
 10
1415.3
 20
447.733974596
 30
0.0
 40
1.0
 50
270.0
 51
0.0
  0
ARC
  8
0
  6
CONTINUOUS
 62
     1
 10
1412.3
 20
446.733974596
 30
0.0
 40
1.0
 50
270.0
 51
0.0
  0
LINE
  8
0
  6
CONTINUOUS
 62
     1
 10
1416.3
 20
452.733974596
 30
0.0
 11
1314.3
 21
452.733974596
 31
0.0
  0
LINE
  8
0
  6
CONTINUOUS
 62
     1
 10
1416.3
 20
454.233974596
 30
0.0
 11
1314.3
 21
454.233974596
 31
0.0
  0
LINE
  8
0
  6
CONTINUOUS
 62
     1
 10
1412.3
 20
445.733974596
 30
0.0
 11
1318.3
 21
445.733974596
 31
0.0
  0
LINE
  8
0
  6
CONTINUOUS
 62
     1
 10
1415.3
 20
446.733974596
 30
0.0
 11
1315.3
 21
446.733974596
 31
0.0
  0
LINE
  8
0
  6
CONTINUOUS
 62
     1
 10
1306.3
 20
631.733974596
 30
0.0
 11
1327.60384635
 21
631.733974596
 31
0.0
  0
LINE
  8
0
  6
CONTINUOUS
 62
     1
 10
1402.99615365
 20
631.733974596
 30
0.0
 11
1424.3
 21
631.733974596
 31
0.0
  0
LINE
  8
0
  6
CONTINUOUS
 62
     1
 10
1416.3
 20
470.733974596
 30
0.0
 11
1447.8
 21
470.733974596
 31
0.0
  0
LINE
  8
0
  6
CONTINUOUS
 62
     1
 10
1282.8
 20
470.733974596
 30
0.0
 11
1314.3
 21
470.733974596
 31
0.0
  0
LINE
  8
0
  6
CONTINUOUS
 62
     1
 10
1460.3
 20
541.733974596
 30
0.0
 11
1460.3
 21
587.733974596
 31
0.0
  0
LINE
  8
0
  6
CONTINUOUS
 62
     1
 10
1270.3
 20
541.733974596
 30
0.0
 11
1270.3
 21
587.733974596
 31
0.0
  0
LINE
  8
0
  6
CONTINUOUS
 62
     1
 10
1272.8
 20
480.733974596
 30
0.0
 11
1272.8
 21
541.427210886
 31
0.0
  0
LINE
  8
0
  6
CONTINUOUS
 62
     1
 10
1457.8
 20
480.733974596
 30
0.0
 11
1457.8
 21
541.427210886
 31
0.0
  0
LINE
  8
0
  6
LTYPE2
 62
     2
 10
1404.3
 20
617.733974596
 30
0.0
 11
1430.8
 21
617.733974596
 31
0.0
  0
LINE
  8
0
  6
LTYPE2
 62
     2
 10
1418.3
 20
603.233974596
 30
0.0
 11
1418.3
 21
630.233974596
 31
0.0
  0
LINE
  8
0
  6
LTYPE2
 62
     2
 10
1312.3
 20
603.733974596
 30
0.0
 11
1312.3
 21
630.233974596
 31
0.0
  0
LINE
  8
0
  6
LTYPE2
 62
     2
 10
1326.8
 20
617.733974596
 30
0.0
 11
1299.8
 21
617.733974596
 31
0.0
  0
LINE
  8
0
  6
LTYPE2
 62
     2
 10
1326.3
 20
511.733974596
 30
0.0
 11
1299.8
 21
511.733974596
 31
0.0
  0
LINE
  8
0
  6
LTYPE2
 62
     2
 10
1312.3
 20
526.233974596
 30
0.0
 11
1312.3
 21
499.233974596
 31
0.0
  0
LINE
  8
0
  6
LTYPE2
 62
     2
 10
1418.3
 20
525.733974596
 30
0.0
 11
1418.3
 21
499.233974596
 31
0.0
  0
LINE
  8
0
  6
LTYPE2
 62
     2
 10
1403.8
 20
511.733974596
 30
0.0
 11
1430.8
 21
511.733974596
 31
0.0
  0
LINE
  8
0
  6
LTYPE2
 62
     2
 10
1410.3
 20
442.033974596
 30
0.0
 11
1410.3
 21
460.733974596
 31
0.0
  0
LINE
  8
0
  6
LTYPE2
 62
     2
 10
1320.3
 20
442.033974596
 30
0.0
 11
1320.3
 21
460.733974596
 31
0.0
  0
LINE
  8
0
  6
LTYPE1
 62
     2
 10
1430.3
 20
552.233974596
 30
0.0
 11
1460.3
 21
552.233974596
 31
0.0
  0
LINE
  8
0
  6
LTYPE1
 62
     2
 10
1430.3
 20
577.233974596
 30
0.0
 11
1460.3
 21
577.233974596
 31
0.0
  0
LINE
  8
0
  6
LTYPE1
 62
     2
 10
1430.3
 20
552.233974596
 30
0.0
 11
1430.3
 21
577.233974596
 31
0.0
  0
LINE
  8
0
  6
LTYPE1
 62
     2
 10
1300.3
 20
552.233974596
 30
0.0
 11
1270.3
 21
552.233974596
 31
0.0
  0
LINE
  8
0
  6
LTYPE1
 62
     2
 10
1300.3
 20
577.233974596
 30
0.0
 11
1270.3
 21
577.233974596
 31
0.0
  0
LINE
  8
0
  6
LTYPE1
 62
     2
 10
1300.3
 20
552.233974596
 30
0.0
 11
1300.3
 21
577.233974596
 31
0.0
  0
CIRCLE
  8
0
  6
CONTINUOUS
 62
     2
 10
1365.3
 20
471.233974596
 30
0.0
 40
10.4775
  0
CIRCLE
  8
0
  6
CONTINUOUS
 62
     2
 10
1365.3
 20
471.233974596
 30
0.0
 40
9.3155
  0
LINE
  8
0
  6
LTYPE3
 62
     2
 10
1385.2
 20
471.233974596
 30
0.0
 11
1344.5
 21
471.233974596
 31
0.0
  0
LINE
  8
7
  6
CONTINUOUS
 62
     2
 10
470.5
 20
387.608974596
 30
0.0
 11
482.574072829
 21
384.373736532
 31
0.0
  0
LINE
  8
7
  6
CONTINUOUS
 62
     2
 10
470.5
 20
387.608974596
 30
0.0
 11
482.574072829
 21
390.84421266
 31
0.0
  0
LINE
  8
7
  6
CONTINUOUS
 62
     2
 10
470.5
 20
387.608974596
 30
0.0
 11
937.9
 21
387.608974596
 31
0.0
  0
LINE
  8
7
  6
CONTINUOUS
 62
     2
 10
937.9
 20
387.608974596
 30
0.0
 11
925.825927171
 21
390.84421266
 31
0.0
  0
LINE
  8
7
  6
CONTINUOUS
 62
     2
 10
937.9
 20
387.608974596
 30
0.0
 11
925.825927171
 21
384.373736532
 31
0.0
  0
LINE
  8
7
  6
CONTINUOUS
 62
     2
 10
937.9
 20
387.608974596
 30
0.0
 11
949.974072829
 21
384.373736532
 31
0.0
  0
LINE
  8
7
  6
CONTINUOUS
 62
     2
 10
937.9
 20
387.608974596
 30
0.0
 11
949.974072829
 21
390.84421266
 31
0.0
  0
LINE
  8
7
  6
CONTINUOUS
 62
     2
 10
937.9
 20
387.608974596
 30
0.0
 11
1003.1
 21
387.608974596
 31
0.0
  0
LINE
  8
7
  6
CONTINUOUS
 62
     2
 10
1003.1
 20
387.608974596
 30
0.0
 11
991.025927171
 21
390.84421266
 31
0.0
  0
LINE
  8
7
  6
CONTINUOUS
 62
     2
 10
1003.1
 20
387.608974596
 30
0.0
 11
991.025927171
 21
384.373736532
 31
0.0
  0
LINE
  8
7
  6
CONTINUOUS
 62
     2
 10
470.5
 20
352.475
 30
0.0
 11
458.425927171
 21
355.710238064
 31
0.0
  0
LINE
  8
7
  6
CONTINUOUS
 62
     2
 10
470.5
 20
352.475
 30
0.0
 11
458.425927171
 21
349.239761936
 31
0.0
  0
LINE
  8
7
  6
CONTINUOUS
 62
     2
 10
470.5
 20
352.475
 30
0.0
 11
273.5
 21
352.475
 31
0.0
  0
LINE
  8
7
  6
CONTINUOUS
 62
     2
 10
273.5
 20
352.475
 30
0.0
 11
285.574072829
 21
349.239761936
 31
0.0
  0
LINE
  8
7
  6
CONTINUOUS
 62
     2
 10
273.5
 20
352.475
 30
0.0
 11
285.574072829
 21
355.710238064
 31
0.0
  0
LINE
  8
7
  6
CONTINUOUS
 62
     2
 10
273.5
 20
359.175
 30
0.0
 11
273.5
 21
359.975
 31
0.0
  0
LINE
  8
0
  6
CONTINUOUS
 62
     2
 10
804.5
 20
698.733974596
 30
0.0
 11
853.2
 21
698.733974596
 31
0.0
  0
LINE
  8
0
  6
LTYPE3
 62
     2
 10
636.7
 20
471.233974596
 30
0.0
 11
617.0
 21
471.233974596
 31
0.0
  0
LINE
  8
0
  6
CONTINUOUS
 62
     1
 10
385.5
 20
660.733974596
 30
0.0
 11
385.5
 21
820.733974596
 31
0.0
  0
LINE
  8
0
  6
CONTINUOUS
 62
     1
 10
385.5
 20
839.933974596
 30
0.0
 11
395.5
 21
839.933974596
 31
0.0
  0
LINE
  8
0
  6
CONTINUOUS
 62
     1
 10
385.5
 20
639.933974596
 30
0.0
 11
385.5
 21
839.933974596
 31
0.0
  0
LINE
  8
0
  6
CONTINUOUS
 62
     1
 10
385.5
 20
639.933974596
 30
0.0
 11
395.5
 21
639.933974596
 31
0.0
  0
LINE
  8
0
  6
CONTINUOUS
 62
     1
 10
386.0
 20
639.833974596
 30
0.0
 11
395.0
 21
639.833974596
 31
0.0
  0
ARC
  8
0
  6
CONTINUOUS
 62
     1
 10
395.0
 20
642.833974596
 30
0.0
 40
3.0
 50
270.0
 51
0.0
  0
LINE
  8
0
  6
CONTINUOUS
 62
     1
 10
386.0
 20
839.833974596
 30
0.0
 11
395.0
 21
839.833974596
 31
0.0
  0
ARC
  8
0
  6
CONTINUOUS
 62
     1
 10
395.0
 20
836.833974596
 30
0.0
 40
3.0
 50
0.0
 51
90.0
  0
LINE
  8
0
  6
CONTINUOUS
 62
     1
 10
398.0
 20
810.833974596
 30
0.0
 11
398.0
 21
836.833974596
 31
0.0
  0
LINE
  8
0
  6
CONTINUOUS
 62
     1
 10
398.0
 20
642.833974596
 30
0.0
 11
398.0
 21
810.833974596
 31
0.0
  0
ARC
  8
0
  6
CONTINUOUS
 62
     1
 10
400.0
 20
812.833974596
 30
0.0
 40
2.0
 50
180.0
 51
270.0
  0
LINE
  8
0
  6
CONTINUOUS
 62
     1
 10
433.0
 20
668.833974596
 30
0.0
 11
433.0
 21
810.733974596
 31
0.0
  0
ARC
  8
0
  6
CONTINUOUS
 62
     1
 10
400.0
 20
666.833974596
 30
0.0
 40
2.0
 50
90.0
 51
180.0
  0
LINE
  8
0
  6
CONTINUOUS
 62
     1
 10
536.55
 20
829.833974596
 30
0.0
 11
536.55
 21
863.833974596
 31
0.0
  0
LINE
  8
0
  6
CONTINUOUS
 62
     1
 10
536.55
 20
829.833974596
 30
0.0
 11
510.55
 21
829.833974596
 31
0.0
  0
LINE
  8
0
  6
CONTINUOUS
 62
     1
 10
536.55
 20
863.833974596
 30
0.0
 11
510.55
 21
863.833974596
 31
0.0
  0
LINE
  8
0
  6
LTYPE3
 62
     2
 10
543.479475845
 20
846.833974596
 30
0.0
 11
503.479475845
 21
846.833974596
 31
0.0
  0
LINE
  8
0
  6
CONTINUOUS
 62
     1
 10
440.55
 20
821.833974596
 30
0.0
 11
440.55
 21
824.833974596
 31
0.0
  0
ARC
  8
0
  6
CONTINUOUS
 62
     1
 10
444.55
 20
818.833974596
 30
0.0
 40
3.0
 50
0.0
 51
90.0
  0
LINE
  8
0
  6
CONTINUOUS
 62
     1
 10
500.55
 20
821.833974596
 30
0.0
 11
500.55
 21
824.833974596
 31
0.0
  0
ARC
  8
0
  6
CONTINUOUS
 62
     1
 10
496.55
 20
818.833974596
 30
0.0
 40
3.0
 50
90.0
 51
180.0
  0
LINE
  8
0
  6
CONTINUOUS
 62
     1
 10
500.55
 20
821.833974596
 30
0.0
 11
440.55
 21
821.833974596
 31
0.0
  0
LINE
  8
0
  6
CONTINUOUS
 62
     1
 10
425.462087912
 20
826.833974596
 30
0.0
 11
517.55
 21
870.854020484
 31
0.0
  0
LINE
  8
0
  6
CONTINUOUS
 62
     1
 10
423.55
 20
830.833974596
 30
0.0
 11
425.462087912
 21
826.833974596
 31
0.0
  0
LINE
  8
0
  6
CONTINUOUS
 62
     1
 10
423.55
 20
830.833974596
 30
0.0
 11
515.637912088
 21
874.854020484
 31
0.0
  0
LINE
  8
0
  6
CONTINUOUS
 62
     1
 10
515.637912088
 20
874.854020484
 30
0.0
 11
517.55
 21
870.854020484
 31
0.0
  0
LINE
  8
0
  6
CONTINUOUS
 62
     1
 10
430.55
 20
834.180128442
 30
0.0
 11
430.55
 21
873.833974596
 31
0.0
  0
ARC
  8
0
  6
CONTINUOUS
 62
     1
 10
433.55
 20
873.833974596
 30
0.0
 40
3.0
 50
90.0
 51
180.0
  0
LINE
  8
0
  6
CONTINUOUS
 62
     1
 10
430.55
 20
827.833974596
 30
0.0
 11
430.55
 21
829.266108396
 31
0.0
  0
ARC
  8
0
  6
CONTINUOUS
 62
     1
 10
433.55
 20
827.833974596
 30
0.0
 40
3.0
 50
180.0
 51
270.0
  0
LINE
  8
0
  6
CONTINUOUS
 62
     1
 10
510.55
 20
827.833974596
 30
0.0
 11
510.55
 21
867.507866638
 31
0.0
  0
LINE
  8
0
  6
CONTINUOUS
 62
     1
 10
507.55
 20
824.833974596
 30
0.0
 11
433.55
 21
824.833974596
 31
0.0
  0
ARC
  8
0
  6
CONTINUOUS
 62
     1
 10
507.55
 20
827.833974596
 30
0.0
 40
3.0
 50
270.0
 51
0.0
  0
LINE
  8
0
  6
CONTINUOUS
 62
     1
 10
510.55
 20
872.421886684
 30
0.0
 11
510.55
 21
873.833974596
 31
0.0
  0
LINE
  8
0
  6
CONTINUOUS
 62
     1
 10
507.55
 20
876.833974596
 30
0.0
 11
433.55
 21
876.833974596
 31
0.0
  0
ARC
  8
0
  6
CONTINUOUS
 62
     1
 10
507.55
 20
873.833974596
 30
0.0
 40
3.0
 50
0.0
 51
90.0
  0
ARC
  8
0
  6
CONTINUOUS
 62
     1
 10
450.55
 20
813.333974596
 30
0.0
 40
3.0
 50
180.0
 51
270.0
  0
ARC
  8
0
  6
CONTINUOUS
 62
     1
 10
490.55
 20
813.333974596
 30
0.0
 40
3.0
 50
270.0
 51
0.0
  0
LINE
  8
0
  6
CONTINUOUS
 62
     1
 10
493.55
 20
813.333979991
 30
0.0
 11
493.55
 21
818.833974596
 31
0.0
  0
LINE
  8
0
  6
CONTINUOUS
 62
     1
 10
447.55
 20
813.333979991
 30
0.0
 11
447.55
 21
818.833974596
 31
0.0
  0
LINE
  8
0
  6
LTYPE3
 62
     2
 10
470.5
 20
803.833974596
 30
0.0
 11
470.5
 21
878.833974596
 31
0.0
  0
LINE
  8
0
  6
CONTINUOUS
 62
     1
 10
637.810381815
 20
781.661557281
 30
0.0
 11
655.189618185
 21
780.006391912
 31
0.0
  0
ARC
  8
0
  6
CONTINUOUS
 62
     1
 10
638.0
 20
783.652548226
 30
0.0
 40
2.0
 50
180.0
 51
264.559667969
  0
LINE
  8
0
  6
CONTINUOUS
 62
     1
 10
637.810381815
 20
791.661557281
 30
0.0
 11
655.189618185
 21
790.006391912
 31
0.0
  0
ARC
  8
0
  6
CONTINUOUS
 62
     1
 10
638.0
 20
793.652548226
 30
0.0
 40
2.0
 50
180.0
 51
264.559667969
  0
LINE
  8
0
  6
CONTINUOUS
 62
     1
 10
637.810381815
 20
698.006391912
 30
0.0
 11
655.189618185
 21
699.661557281
 31
0.0
  0
ARC
  8
0
  6
CONTINUOUS
 62
     1
 10
638.0
 20
696.015400967
 30
0.0
 40
2.0
 50
95.440332031
 51
180.0
  0
ARC
  8
0
  6
CONTINUOUS
 62
     1
 10
659.0
 20
764.833974596
 30
0.0
 40
2.0
 50
180.0
 51
270.0
  0
LINE
  8
0
  6
CONTINUOUS
 62
     1
 10
668.0
 20
762.833974596
 30
0.0
 11
659.0
 21
762.833974596
 31
0.0
  0
ARC
  8
0
  6
CONTINUOUS
 62
     1
 10
668.0
 20
760.833974596
 30
0.0
 40
2.0
 50
0.0
 51
90.0
  0
LINE
  8
0
  6
CONTINUOUS
 62
     1
 10
670.0
 20
760.833974596
 30
0.0
 11
670.0
 21
718.833974596
 31
0.0
  0
ARC
  8
0
  6
CONTINUOUS
 62
     1
 10
668.0
 20
718.833974596
 30
0.0
 40
2.0
 50
270.0
 51
0.0
  0
ARC
  8
0
  6
CONTINUOUS
 62
     1
 10
659.0
 20
714.833974596
 30
0.0
 40
2.0
 50
90.0
 51
180.0
  0
LINE
  8
0
  6
CONTINUOUS
 62
     1
 10
668.0
 20
716.833974596
 30
0.0
 11
659.0
 21
716.833974596
 31
0.0
  0
LINE
  8
0
  6
CONTINUOUS
 62
     1
 10
673.0
 20
751.333974596
 30
0.0
 11
670.0
 21
751.333974596
 31
0.0
  0
LINE
  8
0
  6
CONTINUOUS
 62
     1
 10
673.0
 20
728.333974596
 30
0.0
 11
670.0
 21
728.333974596
 31
0.0
  0
LINE
  8
0
  6
CONTINUOUS
 62
     1
 10
673.0
 20
751.333974596
 30
0.0
 11
673.0
 21
728.333974596
 31
0.0
  0
ARC
  8
0
  6
CONTINUOUS
 62
     1
 10
655.0
 20
732.652548226
 30
0.0
 40
2.0
 50
275.440332031
 51
0.0
  0
LINE
  8
0
  6
CONTINUOUS
 62
     1
 10
655.189618185
 20
730.661557281
 30
0.0
 11
637.810381815
 21
729.006391912
 31
0.0
  0
ARC
  8
0
  6
CONTINUOUS
 62
     1
 10
638.0
 20
727.015400967
 30
0.0
 40
2.0
 50
95.440332031
 51
180.0
  0
ARC
  8
0
  6
CONTINUOUS
 62
     1
 10
655.0
 20
747.015400967
 30
0.0
 40
2.0
 50
0.0
 51
84.559667969
  0
LINE
  8
0
  6
CONTINUOUS
 62
     1
 10
655.189618185
 20
749.006391912
 30
0.0
 11
637.810381815
 21
750.661557281
 31
0.0
  0
ARC
  8
0
  6
CONTINUOUS
 62
     1
 10
638.0
 20
752.652548226
 30
0.0
 40
2.0
 50
180.0
 51
264.559667969
  0
LINE
  8
0
  6
LTYPE3
 62
     2
 10
649.5
 20
782.833974596
 30
0.0
 11
662.7
 21
782.833974596
 31
0.0
  0
LINE
  8
0
  6
CONTINUOUS
 62
     1
 10
637.810381815
 20
688.006391912
 30
0.0
 11
655.189618185
 21
689.661557281
 31
0.0
  0
LINE
  8
0
  6
LTYPE3
 62
     2
 10
649.5
 20
696.833974596
 30
0.0
 11
662.7
 21
696.833974596
 31
0.0
  0
ARC
  8
0
  6
CONTINUOUS
 62
     1
 10
638.0
 20
686.015400967
 30
0.0
 40
2.0
 50
95.440332031
 51
180.0
  0
LINE
  8
0
  6
CONTINUOUS
 62
     1
 10
657.0
 20
788.015400967
 30
0.0
 11
657.0
 21
692.222094596
 31
0.0
  0
ARC
  8
0
  6
CONTINUOUS
 62
     1
 10
655.0
 20
778.015400967
 30
0.0
 40
2.0
 50
0.0
 51
84.559667969
  0
ARC
  8
0
  6
CONTINUOUS
 62
     1
 10
655.0
 20
788.015400967
 30
0.0
 40
2.0
 50
0.0
 51
84.559667969
  0
LINE
  8
0
  6
CONTINUOUS
 62
     1
 10
660.5002
 20
786.316414596
 30
0.0
 11
659.848117512
 21
787.445854596
 31
0.0
  0
LINE
  8
0
  6
CONTINUOUS
 62
     1
 10
660.5002
 20
779.351534596
 30
0.0
 11
659.848117512
 21
778.222094596
 31
0.0
  0
ARC
  8
0
  6
CONTINUOUS
 62
     1
 10
656.096945074
 20
782.833974596
 30
0.0
 40
4.403254926
 50
328.419912243
 51
31.580087757
  0
ARC
  8
0
  6
CONTINUOUS
 62
     1
 10
659.155279868
 20
786.292884596
 30
0.0
 40
1.34512595
 50
301.002313915
 51
2.989498403
  0
LINE
  8
0
  6
CONTINUOUS
 62
     1
 10
660.5002
 20
779.351534596
 30
0.0
 11
659.848117512
 21
778.222094596
 31
0.0
  0
ARC
  8
0
  6
CONTINUOUS
 62
     1
 10
659.155279868
 20
779.375064596
 30
0.0
 40
1.34512595
 50
357.010501597
 51
58.997686085
  0
LINE
  8
0
  6
CONTINUOUS
 62
     1
 10
657.0
 20
787.445854596
 30
0.0
 11
659.848117512
 21
787.445854596
 31
0.0
  0
LINE
  8
0
  6
CONTINUOUS
 62
     1
 10
657.0
 20
785.139914596
 30
0.0
 11
659.848117512
 21
785.139914596
 31
0.0
  0
LINE
  8
0
  6
CONTINUOUS
 62
     1
 10
657.0
 20
780.528034596
 30
0.0
 11
659.848117512
 21
780.528034596
 31
0.0
  0
LINE
  8
0
  6
CONTINUOUS
 62
     1
 10
657.0
 20
778.222094596
 30
0.0
 11
659.848117512
 21
778.222094596
 31
0.0
  0
LINE
  8
0
  6
CONTINUOUS
 62
     1
 10
660.5002
 20
786.316414596
 30
0.0
 11
660.5002
 21
779.351534596
 31
0.0
  0
LINE
  8
0
  6
CONTINUOUS
 62
     1
 10
678.0
 20
744.186876596
 30
0.0
 11
677.184924603
 21
745.598628596
 31
0.0
  0
LINE
  8
0
  6
CONTINUOUS
 62
     1
 10
678.0
 20
735.481072596
 30
0.0
 11
677.184924603
 21
734.069320596
 31
0.0
  0
ARC
  8
0
  6
CONTINUOUS
 62
     1
 10
672.496118477
 20
739.833974596
 30
0.0
 40
5.503881523
 50
328.419912243
 51
31.580087757
  0
ARC
  8
0
  6
CONTINUOUS
 62
     1
 10
676.318906993
 20
744.157465096
 30
0.0
 40
1.681350271
 50
301.002313915
 51
2.989498403
  0
LINE
  8
0
  6
CONTINUOUS
 62
     1
 10
678.0
 20
735.481072596
 30
0.0
 11
677.184924603
 21
734.069320596
 31
0.0
  0
ARC
  8
0
  6
CONTINUOUS
 62
     1
 10
676.318906993
 20
735.510484096
 30
0.0
 40
1.681350271
 50
357.010501597
 51
58.997686085
  0
LINE
  8
0
  6
CONTINUOUS
 62
     1
 10
674.00039
 20
742.716301596
 30
0.0
 11
677.184924603
 21
742.716301596
 31
0.0
  0
LINE
  8
0
  6
CONTINUOUS
 62
     1
 10
674.00039
 20
745.598628596
 30
0.0
 11
677.184924603
 21
745.598628596
 31
0.0
  0
LINE
  8
0
  6
CONTINUOUS
 62
     1
 10
674.00039
 20
736.951647596
 30
0.0
 11
677.184924603
 21
736.951647596
 31
0.0
  0
LINE
  8
0
  6
CONTINUOUS
 62
     1
 10
674.00039
 20
734.069320596
 30
0.0
 11
677.184924603
 21
734.069320596
 31
0.0
  0
LINE
  8
0
  6
CONTINUOUS
 62
     1
 10
678.0
 20
735.481072596
 30
0.0
 11
678.0
 21
744.186876596
 31
0.0
  0
LINE
  8
0
  6
CONTINUOUS
 62
     1
 10
674.00039
 20
746.333974596
 30
0.0
 11
673.0
 21
746.333974596
 31
0.0
  0
LINE
  8
0
  6
CONTINUOUS
 62
     1
 10
674.00039
 20
746.333974596
 30
0.0
 11
674.00039
 21
733.333974596
 31
0.0
  0
LINE
  8
0
  6
CONTINUOUS
 62
     1
 10
674.00039
 20
733.333974596
 30
0.0
 11
673.0
 21
733.333974596
 31
0.0
  0
ARC
  8
0
  6
CONTINUOUS
 62
     1
 10
655.0
 20
701.652548226
 30
0.0
 40
2.0
 50
275.440332031
 51
0.0
  0
LINE
  8
0
  6
CONTINUOUS
 62
     1
 10
660.5002
 20
693.351534596
 30
0.0
 11
659.848117512
 21
692.222094596
 31
0.0
  0
LINE
  8
0
  6
CONTINUOUS
 62
     1
 10
660.5002
 20
700.316414596
 30
0.0
 11
659.848117512
 21
701.445854596
 31
0.0
  0
ARC
  8
0
  6
CONTINUOUS
 62
     1
 10
656.096945074
 20
696.833974596
 30
0.0
 40
4.403254926
 50
328.419912243
 51
31.580087757
  0
ARC
  8
0
  6
CONTINUOUS
 62
     1
 10
659.155279868
 20
693.375064596
 30
0.0
 40
1.34512595
 50
357.010501597
 51
58.997686085
  0
LINE
  8
0
  6
CONTINUOUS
 62
     1
 10
660.5002
 20
700.316414596
 30
0.0
 11
659.848117512
 21
701.445854596
 31
0.0
  0
ARC
  8
0
  6
CONTINUOUS
 62
     1
 10
659.155279868
 20
700.292884596
 30
0.0
 40
1.34512595
 50
301.002313915
 51
2.989498403
  0
LINE
  8
0
  6
CONTINUOUS
 62
     1
 10
657.0
 20
692.222094596
 30
0.0
 11
659.848117512
 21
692.222094596
 31
0.0
  0
LINE
  8
0
  6
CONTINUOUS
 62
     1
 10
657.0
 20
694.528034596
 30
0.0
 11
659.848117512
 21
694.528034596
 31
0.0
  0
LINE
  8
0
  6
CONTINUOUS
 62
     1
 10
657.0
 20
699.139914596
 30
0.0
 11
659.848117512
 21
699.139914596
 31
0.0
  0
LINE
  8
0
  6
CONTINUOUS
 62
     1
 10
657.0
 20
701.445854596
 30
0.0
 11
659.848117512
 21
701.445854596
 31
0.0
  0
LINE
  8
0
  6
CONTINUOUS
 62
     1
 10
660.5002
 20
693.351534596
 30
0.0
 11
660.5002
 21
700.316414596
 31
0.0
  0
ARC
  8
0
  6
CONTINUOUS
 62
     1
 10
655.0
 20
691.652548226
 30
0.0
 40
2.0
 50
275.440332031
 51
0.0
  0
LINE
  8
0
  6
LTYPE1
 62
     1
 10
665.1
 20
754.333974596
 30
0.0
 11
657.0
 21
745.133974596
 31
0.0
  0
ARC
  8
0
  6
LTYPE1
 62
     1
 10
668.5
 20
751.333974596
 30
0.0
 40
4.5
 50
290.9
 51
137.7
  0
LINE
  8
0
  6
LTYPE1
 62
     1
 10
663.0
 20
744.333974596
 30
0.0
 11
657.0
 21
745.133974596
 31
0.0
  0
LINE
  8
0
  6
LTYPE1
 62
     1
 10
670.1
 20
747.133974596
 30
0.0
 11
663.0
 21
744.333974596
 31
0.0
  0
LINE
  8
0
  6
LTYPE1
 62
     1
 10
663.0
 20
735.333974596
 30
0.0
 11
657.0
 21
734.533974596
 31
0.0
  0
ARC
  8
0
  6
LTYPE1
 62
     1
 10
668.5
 20
728.333974596
 30
0.0
 40
4.5
 50
222.3
 51
69.1
  0
LINE
  8
0
  6
LTYPE1
 62
     1
 10
665.1
 20
725.333974596
 30
0.0
 11
657.0
 21
734.533974596
 31
0.0
  0
LINE
  8
0
  6
LTYPE1
 62
     1
 10
670.1
 20
732.533974596
 30
0.0
 11
663.0
 21
735.333974596
 31
0.0
  0
LINE
  8
0
  6
LTYPE1
 62
     1
 10
663.0
 20
744.333974596
 30
0.0
 11
663.0
 21
735.333974596
 31
0.0
  0
LINE
  8
0
  6
CONTINUOUS
 62
     1
 10
628.0
 20
668.833974596
 30
0.0
 11
628.0
 21
810.833974596
 31
0.0
  0
LINE
  8
0
  6
CONTINUOUS
 62
     1
 10
400.0
 20
810.833974596
 30
0.0
 11
633.0
 21
810.833974596
 31
0.0
  0
ARC
  8
0
  6
CONTINUOUS
 62
     1
 10
633.0
 20
807.833974596
 30
0.0
 40
3.0
 50
0.0
 51
90.0
  0
LINE
  8
0
  6
CONTINUOUS
 62
     1
 10
400.0
 20
668.833974596
 30
0.0
 11
633.0
 21
668.833974596
 31
0.0
  0
LINE
  8
0
  6
CONTINUOUS
 62
     1
 10
636.0
 20
807.833974596
 30
0.0
 11
636.0
 21
671.833974596
 31
0.0
  0
ARC
  8
0
  6
CONTINUOUS
 62
     1
 10
633.0
 20
671.833974596
 30
0.0
 40
3.0
 50
270.0
 51
0.0
  0
LINE
  8
0
  6
CONTINUOUS
 62
     2
 10
383.0
 20
798.170284044
 30
0.0
 11
413.0
 21
798.170284044
 31
0.0
  0
LINE
  8
0
  6
CONTINUOUS
 62
     1
 10
405.0
 20
788.170284044
 30
0.0
 11
405.0
 21
808.170284044
 31
0.0
  0
LINE
  8
0
  6
CONTINUOUS
 62
     1
 10
398.0
 20
808.170284044
 30
0.0
 11
405.0
 21
808.170284044
 31
0.0
  0
LINE
  8
0
  6
CONTINUOUS
 62
     1
 10
398.0
 20
788.170284044
 30
0.0
 11
405.0
 21
788.170284044
 31
0.0
  0
LINE
  8
0
  6
CONTINUOUS
 62
     1
 10
398.0
 20
803.170284044
 30
0.0
 11
405.0
 21
803.170284044
 31
0.0
  0
LINE
  8
0
  6
CONTINUOUS
 62
     1
 10
398.0
 20
793.170284044
 30
0.0
 11
405.0
 21
793.170284044
 31
0.0
  0
LINE
  8
0
  6
CONTINUOUS
 62
     2
 10
383.0
 20
681.497665148
 30
0.0
 11
413.0
 21
681.497665148
 31
0.0
  0
LINE
  8
0
  6
CONTINUOUS
 62
     1
 10
405.0
 20
691.497665148
 30
0.0
 11
405.0
 21
671.497665148
 31
0.0
  0
LINE
  8
0
  6
CONTINUOUS
 62
     1
 10
398.0
 20
671.497665148
 30
0.0
 11
405.0
 21
671.497665148
 31
0.0
  0
LINE
  8
0
  6
CONTINUOUS
 62
     1
 10
398.0
 20
691.497665148
 30
0.0
 11
405.0
 21
691.497665148
 31
0.0
  0
LINE
  8
0
  6
CONTINUOUS
 62
     1
 10
398.0
 20
676.497665148
 30
0.0
 11
405.0
 21
676.497665148
 31
0.0
  0
LINE
  8
0
  6
CONTINUOUS
 62
     1
 10
398.0
 20
686.497665148
 30
0.0
 11
405.0
 21
686.497665148
 31
0.0
  0
LINE
  8
0
  6
CONTINUOUS
 62
     2
 10
672.8
 20
757.333974596
 30
0.0
 11
681.093374416
 21
766.686511193
 31
0.0
  0
LINE
  8
0
  6
CONTINUOUS
 62
     2
 10
672.8
 20
757.333974596
 30
0.0
 11
675.306004628
 21
769.580196087
 31
0.0
  0
LINE
  8
0
  6
CONTINUOUS
 62
     2
 10
672.8
 20
757.333974596
 30
0.0
 11
745.8
 21
903.333974596
 31
0.0
  0
LINE
  8
0
  6
CONTINUOUS
 62
     2
 10
536.55
 20
846.833974596
 30
0.0
 11
544.843374416
 21
856.186511193
 31
0.0
  0
LINE
  8
0
  6
CONTINUOUS
 62
     2
 10
536.55
 20
846.833974596
 30
0.0
 11
539.056004628
 21
859.080196087
 31
0.0
  0
LINE
  8
2
  6
CONTINUOUS
 62
     2
 10
634.0
 20
810.833974596
 30
0.0
 11
730.0
 21
810.833974596
 31
0.0
  0
LINE
  8
2
  6
CONTINUOUS
 62
     2
 10
724.0
 20
810.833974596
 30
0.0
 11
720.117714323
 21
796.345087202
 31
0.0
  0
LINE
  8
2
  6
CONTINUOUS
 62
     2
 10
724.0
 20
810.833974596
 30
0.0
 11
727.882285677
 21
796.345087202
 31
0.0
  0
LINE
  8
2
  6
CONTINUOUS
 62
     2
 10
724.0
 20
810.833974596
 30
0.0
 11
724.0
 21
668.833974596
 31
0.0
  0
LINE
  8
2
  6
CONTINUOUS
 62
     2
 10
724.0
 20
668.833974596
 30
0.0
 11
727.882285677
 21
683.322861991
 31
0.0
  0
LINE
  8
2
  6
CONTINUOUS
 62
     2
 10
724.0
 20
668.833974596
 30
0.0
 11
720.117714323
 21
683.322861991
 31
0.0
  0
LINE
  8
2
  6
CONTINUOUS
 62
     2
 10
634.0
 20
668.833974596
 30
0.0
 11
730.0
 21
668.833974596
 31
0.0
  0
LINE
  8
0
  6
CONTINUOUS
 62
     2
 10
745.8
 20
903.333974596
 30
0.0
 11
846.4
 21
903.333974596
 31
0.0
  0
LINE
  8
0
  6
CONTINUOUS
 62
     2
 10
536.55
 20
846.833974596
 30
0.0
 11
560.18
 21
894.093974596
 31
0.0
  0
LINE
  8
0
  6
CONTINUOUS
 62
     2
 10
560.18
 20
894.093974596
 30
0.0
 11
643.58
 21
894.093974596
 31
0.0
  0
LINE
  8
0
  6
CONTINUOUS
 62
     1
 10
1272.8
 20
777.233974596
 30
0.0
 11
1272.8
 21
800.263379095
 31
0.0
  0
LINE
  8
0
  6
CONTINUOUS
 62
     1
 10
1457.8
 20
775.733974596
 30
0.0
 11
1457.8
 21
800.263379095
 31
0.0
  0
ARC
  8
0
  6
CONTINUOUS
 62
     1
 10
1380.287995196
 20
786.333974596
 30
0.0
 40
8.0
 50
200.487315115
 51
251.805127661
  0
ARC
  8
0
  6
CONTINUOUS
 62
     1
 10
1350.312004804
 20
786.333974596
 30
0.0
 40
8.0
 50
288.194872339
 51
339.512684885
  0
ARC
  8
0
  6
CONTINUOUS
 62
     1
 10
1365.3
 20
780.733974596
 30
0.0
 40
8.0
 50
20.487315115
 51
159.512540111
  0
ARC
  8
0
  6
CONTINUOUS
 62
     1
 10
1380.287995196
 20
695.133974596
 30
0.0
 40
8.0
 50
108.194872339
 51
159.512684885
  0
ARC
  8
0
  6
CONTINUOUS
 62
     1
 10
1350.312004804
 20
695.133974596
 30
0.0
 40
8.0
 50
20.487315115
 51
71.805127661
  0
ARC
  8
0
  6
CONTINUOUS
 62
     1
 10
1365.3
 20
700.733974596
 30
0.0
 40
8.0
 50
200.487459889
 51
339.512684885
  0
ARC
  8
0
  6
CONTINUOUS
 62
     1
 10
1365.3
 20
740.733974596
 30
0.0
 40
40.0
 50
108.194872339
 51
251.805127661
  0
ARC
  8
0
  6
CONTINUOUS
 62
     1
 10
1411.3
 20
740.733974596
 30
0.0
 40
9.0
 50
278.674045508
 51
81.325934821
  0
CIRCLE
  8
0
  6
CONTINUOUS
 62
     1
 10
1365.3
 20
740.733974596
 30
0.0
 40
23.0
  0
ARC
  8
0
  6
CONTINUOUS
 62
     1
 10
1365.3
 20
740.733974596
 30
0.0
 40
40.0
 50
25.554707728
 51
71.805142343
  0
ARC
  8
0
  6
CONTINUOUS
 62
     1
 10
1365.3
 20
740.733974596
 30
0.0
 40
40.0
 50
288.194857657
 51
334.445306215
  0
LINE
  8
0
  6
CONTINUOUS
 62
     2
 10
1408.3
 20
757.733974596
 30
0.0
 11
1408.3
 21
721.733974596
 31
0.0
  0
LINE
  8
0
  6
CONTINUOUS
 62
     1
 10
1409.3
 20
756.833974596
 30
0.0
 11
1407.3
 21
756.833974596
 31
0.0
  0
LINE
  8
0
  6
CONTINUOUS
 62
     1
 10
1407.3
 20
756.833974596
 30
0.0
 11
1405.3
 21
745.233974596
 31
0.0
  0
LINE
  8
0
  6
CONTINUOUS
 62
     1
 10
1409.3
 20
756.833974596
 30
0.0
 11
1411.3
 21
745.233974596
 31
0.0
  0
LINE
  8
0
  6
CONTINUOUS
 62
     1
 10
1409.3
 20
724.633974596
 30
0.0
 11
1407.3
 21
724.633974596
 31
0.0
  0
LINE
  8
0
  6
CONTINUOUS
 62
     1
 10
1407.3
 20
724.633974596
 30
0.0
 11
1405.3
 21
736.233974596
 31
0.0
  0
LINE
  8
0
  6
CONTINUOUS
 62
     1
 10
1409.3
 20
724.633974596
 30
0.0
 11
1411.3
 21
736.233974596
 31
0.0
  0
ARC
  8
0
  6
CONTINUOUS
 62
     1
 10
1414.919565217
 20
764.459461897
 30
0.0
 40
15.0
 50
205.554693785
 51
235.747997449
  0
ARC
  8
0
  6
CONTINUOUS
 62
     1
 10
1414.919565217
 20
764.459461897
 30
0.0
 40
15.0
 50
252.681090544
 51
261.325827457
  0
ARC
  8
0
  6
CONTINUOUS
 62
     1
 10
1414.919565217
 20
717.008487296
 30
0.0
 40
15.0
 50
124.468179449
 51
154.445306215
  0
ARC
  8
0
  6
CONTINUOUS
 62
     1
 10
1414.919565217
 20
717.008487296
 30
0.0
 40
15.0
 50
98.674172543
 51
107.318909456
  0
CIRCLE
  8
0
  6
CONTINUOUS
 62
     1
 10
1408.3
 20
740.733974596
 30
0.0
 40
3.0
  0
LINE
  8
0
  6
CONTINUOUS
 62
     1
 10
1405.321304702
 20
745.357541869
 30
0.0
 11
1405.278695298
 21
736.110407324
 31
0.0
  0
LINE
  8
0
  6
CONTINUOUS
 62
     1
 10
1411.321304702
 20
736.110407324
 30
0.0
 11
1411.278695298
 21
745.357541869
 31
0.0
  0
ARC
  8
0
  6
CONTINUOUS
 62
     1
 10
1408.3
 20
740.733974596
 30
0.0
 40
5.5
 50
304.570397879
 51
57.208673154
  0
ARC
  8
0
  6
CONTINUOUS
 62
     1
 10
1408.3
 20
740.733974596
 30
0.0
 40
5.5
 50
122.791326846
 51
235.429602121
  0
LINE
  8
0
  6
CONTINUOUS
 62
     1
 10
1367.65
 20
787.804293994
 30
0.0
 11
1362.95
 21
787.804293994
 31
0.0
  0
LINE
  8
0
  6
CONTINUOUS
 62
     1
 10
1362.95
 20
787.804293994
 30
0.0
 11
1360.6
 21
783.733974596
 31
0.0
  0
LINE
  8
0
  6
CONTINUOUS
 62
     1
 10
1360.6
 20
783.733974596
 30
0.0
 11
1362.95
 21
779.663655198
 31
0.0
  0
LINE
  8
0
  6
CONTINUOUS
 62
     1
 10
1362.95
 20
779.663655198
 30
0.0
 11
1367.65
 21
779.663655198
 31
0.0
  0
LINE
  8
0
  6
CONTINUOUS
 62
     1
 10
1367.65
 20
779.663655198
 30
0.0
 11
1370.0
 21
783.733974596
 31
0.0
  0
LINE
  8
0
  6
CONTINUOUS
 62
     1
 10
1370.0
 20
783.733974596
 30
0.0
 11
1367.65
 21
787.804293994
 31
0.0
  0
LINE
  8
0
  6
CONTINUOUS
 62
     2
 10
1371.3
 20
783.733974596
 30
0.0
 11
1359.3
 21
783.733974596
 31
0.0
  0
LINE
  8
0
  6
CONTINUOUS
 62
     1
 10
1367.65
 20
693.663655198
 30
0.0
 11
1362.95
 21
693.663655198
 31
0.0
  0
LINE
  8
0
  6
CONTINUOUS
 62
     1
 10
1362.95
 20
693.663655198
 30
0.0
 11
1360.6
 21
697.733974596
 31
0.0
  0
LINE
  8
0
  6
CONTINUOUS
 62
     1
 10
1360.6
 20
697.733974596
 30
0.0
 11
1362.95
 21
701.804293994
 31
0.0
  0
LINE
  8
0
  6
CONTINUOUS
 62
     1
 10
1362.95
 20
701.804293994
 30
0.0
 11
1367.65
 21
701.804293994
 31
0.0
  0
LINE
  8
0
  6
CONTINUOUS
 62
     1
 10
1367.65
 20
701.804293994
 30
0.0
 11
1370.0
 21
697.733974596
 31
0.0
  0
LINE
  8
0
  6
CONTINUOUS
 62
     1
 10
1370.0
 20
697.733974596
 30
0.0
 11
1367.65
 21
693.663655198
 31
0.0
  0
LINE
  8
0
  6
CONTINUOUS
 62
     2
 10
1371.3
 20
697.733974596
 30
0.0
 11
1359.3
 21
697.733974596
 31
0.0
  0
LINE
  8
0
  6
CONTINUOUS
 62
     1
 10
1360.363655198
 20
743.583974596
 30
0.0
 11
1360.363655198
 21
737.883974596
 31
0.0
  0
LINE
  8
0
  6
CONTINUOUS
 62
     1
 10
1360.363655198
 20
737.883974596
 30
0.0
 11
1365.3
 21
735.033974596
 31
0.0
  0
LINE
  8
0
  6
CONTINUOUS
 62
     1
 10
1365.3
 20
735.033974596
 30
0.0
 11
1370.236344802
 21
737.883974596
 31
0.0
  0
LINE
  8
0
  6
CONTINUOUS
 62
     1
 10
1370.236344802
 20
737.883974596
 30
0.0
 11
1370.236344802
 21
743.583974596
 31
0.0
  0
LINE
  8
0
  6
CONTINUOUS
 62
     1
 10
1370.236344802
 20
743.583974596
 30
0.0
 11
1365.3
 21
746.433974596
 31
0.0
  0
LINE
  8
0
  6
CONTINUOUS
 62
     1
 10
1365.3
 20
746.433974596
 30
0.0
 11
1360.363655198
 21
743.583974596
 31
0.0
  0
CIRCLE
  8
0
  6
CONTINUOUS
 62
     1
 10
1365.3
 20
740.733974596
 30
0.0
 40
6.5
  0
LINE
  8
0
  6
CONTINUOUS
 62
     1
 10
1395.3
 20
822.733974596
 30
0.0
 11
1395.3
 21
825.733974596
 31
0.0
  0
ARC
  8
0
  6
CONTINUOUS
 62
     1
 10
1391.3
 20
819.733974596
 30
0.0
 40
3.0
 50
90.0
 51
180.0
  0
LINE
  8
0
  6
CONTINUOUS
 62
     1
 10
1388.3
 20
808.887593838
 30
0.0
 11
1388.3
 21
819.733974596
 31
0.0
  0
ARC
  8
0
  6
CONTINUOUS
 62
     1
 10
1384.3
 20
808.887593838
 30
0.0
 40
4.0
 50
304.936144888
 51
0.0
  0
ARC
  8
0
  6
CONTINUOUS
 62
     1
 10
1339.3
 20
819.733974596
 30
0.0
 40
3.0
 50
0.0
 51
90.0
  0
LINE
  8
0
  6
CONTINUOUS
 62
     1
 10
1342.3
 20
808.887593838
 30
0.0
 11
1342.3
 21
819.733974596
 31
0.0
  0
ARC
  8
0
  6
CONTINUOUS
 62
     1
 10
1346.3
 20
808.887593838
 30
0.0
 40
4.0
 50
180.0
 51
235.063855112
  0
CIRCLE
  8
0
  6
CONTINUOUS
 62
     1
 10
1365.3
 20
847.733974596
 30
0.0
 40
17.0
  0
LINE
  8
0
  6
LTYPE3
 62
     2
 10
1342.3
 20
847.733974596
 30
0.0
 11
1388.3
 21
847.733974596
 31
0.0
  0
ARC
  8
0
  6
CONTINUOUS
 62
     1
 10
1323.3
 20
869.754020484
 30
0.0
 40
2.0
 50
90.0
 51
180.0
  0
ARC
  8
0
  6
CONTINUOUS
 62
     1
 10
1331.3
 20
875.733974596
 30
0.0
 40
2.0
 50
90.0
 51
180.0
  0
LINE
  8
0
  6
CONTINUOUS
 62
     1
 10
1331.3
 20
877.733974596
 30
0.0
 11
1399.3
 21
877.733974596
 31
0.0
  0
ARC
  8
0
  6
CONTINUOUS
 62
     1
 10
1399.3
 20
875.733974596
 30
0.0
 40
2.0
 50
0.0
 51
90.0
  0
LINE
  8
0
  6
CONTINUOUS
 62
     1
 10
1407.3
 20
871.754020484
 30
0.0
 11
1323.3
 21
871.754020484
 31
0.0
  0
ARC
  8
0
  6
CONTINUOUS
 62
     1
 10
1407.3
 20
869.754020484
 30
0.0
 40
2.0
 50
0.0
 51
90.0
  0
ARC
  8
0
  6
CONTINUOUS
 62
     1
 10
1323.3
 20
873.754020484
 30
0.0
 40
2.0
 50
90.0
 51
180.0
  0
ARC
  8
0
  6
CONTINUOUS
 62
     1
 10
1331.3
 20
866.733974596
 30
0.0
 40
2.0
 50
90.0
 51
180.0
  0
LINE
  8
0
  6
CONTINUOUS
 62
     1
 10
1331.3
 20
868.733974596
 30
0.0
 11
1399.3
 21
868.733974596
 31
0.0
  0
ARC
  8
0
  6
CONTINUOUS
 62
     1
 10
1399.3
 20
866.733974596
 30
0.0
 40
2.0
 50
0.0
 51
90.0
  0
LINE
  8
0
  6
CONTINUOUS
 62
     1
 10
1407.3
 20
875.754020484
 30
0.0
 11
1323.3
 21
875.754020484
 31
0.0
  0
ARC
  8
0
  6
CONTINUOUS
 62
     1
 10
1407.3
 20
873.754020484
 30
0.0
 40
2.0
 50
0.0
 51
90.0
  0
LINE
  8
0
  6
CONTINUOUS
 62
     1
 10
1335.3
 20
822.733974596
 30
0.0
 11
1395.3
 21
822.733974596
 31
0.0
  0
LINE
  8
0
  6
CONTINUOUS
 62
     1
 10
1335.3
 20
822.733974596
 30
0.0
 11
1335.3
 21
825.733974596
 31
0.0
  0
LINE
  8
0
  6
CONTINUOUS
 62
     1
 10
1401.3
 20
827.733974596
 30
0.0
 11
1407.3
 21
827.733974596
 31
0.0
  0
LINE
  8
0
  6
CONTINUOUS
 62
     1
 10
1409.3
 20
829.733974596
 30
0.0
 11
1409.3
 21
873.754020484
 31
0.0
  0
ARC
  8
0
  6
CONTINUOUS
 62
     1
 10
1407.3
 20
829.733974596
 30
0.0
 40
2.0
 50
270.0
 51
0.0
  0
LINE
  8
0
  6
CONTINUOUS
 62
     1
 10
1401.3
 20
827.733974596
 30
0.0
 11
1401.3
 21
866.733974596
 31
0.0
  0
ARC
  8
0
  6
CONTINUOUS
 62
     1
 10
1399.3
 20
827.733974596
 30
0.0
 40
2.0
 50
270.0
 51
0.0
  0
LINE
  8
0
  6
CONTINUOUS
 62
     1
 10
1329.3
 20
827.733974596
 30
0.0
 11
1329.3
 21
866.733974596
 31
0.0
  0
LINE
  8
0
  6
CONTINUOUS
 62
     1
 10
1331.3
 20
825.733974596
 30
0.0
 11
1399.3
 21
825.733974596
 31
0.0
  0
ARC
  8
0
  6
CONTINUOUS
 62
     1
 10
1331.3
 20
827.733974596
 30
0.0
 40
2.0
 50
180.0
 51
270.0
  0
LINE
  8
0
  6
CONTINUOUS
 62
     1
 10
1329.3
 20
827.733974596
 30
0.0
 11
1323.3
 21
827.733974596
 31
0.0
  0
LINE
  8
0
  6
CONTINUOUS
 62
     1
 10
1321.3
 20
829.733974596
 30
0.0
 11
1321.3
 21
873.754020484
 31
0.0
  0
ARC
  8
0
  6
CONTINUOUS
 62
     1
 10
1323.3
 20
829.733974596
 30
0.0
 40
2.0
 50
180.0
 51
270.0
  0
CIRCLE
  8
0
  6
CONTINUOUS
 62
     2
 10
1365.3
 20
847.733974596
 30
0.0
 40
15.0
  0
CIRCLE
  8
0
  6
CONTINUOUS
 62
     1
 10
1365.3
 20
740.733974596
 30
0.0
 40
71.0
  0
ARC
  8
0
  6
CONTINUOUS
 62
     1
 10
1365.3
 20
740.733974596
 30
0.0
 40
100.0
 50
116.103881137
 51
63.896118863
  0
LINE
  8
0
  6
LTYPE3
 62
     2
 10
1315.3
 20
790.733974596
 30
0.0
 11
1299.3
 21
806.733974596
 31
0.0
  0
LINE
  8
0
  6
CONTINUOUS
 62
     1
 10
1311.963690552
 20
807.730538082
 30
0.0
 11
1301.963690552
 21
807.730538082
 31
0.0
  0
LINE
  8
0
  6
CONTINUOUS
 62
     1
 10
1301.963690552
 20
807.730538082
 30
0.0
 11
1296.963690552
 21
799.070284044
 31
0.0
  0
LINE
  8
0
  6
CONTINUOUS
 62
     1
 10
1296.963690552
 20
799.070284044
 30
0.0
 11
1301.963690552
 21
790.410030006
 31
0.0
  0
LINE
  8
0
  6
CONTINUOUS
 62
     1
 10
1301.963690552
 20
790.410030006
 30
0.0
 11
1311.963690552
 21
790.410030006
 31
0.0
  0
LINE
  8
0
  6
CONTINUOUS
 62
     1
 10
1311.963690552
 20
790.410030006
 30
0.0
 11
1316.963690552
 21
799.070284044
 31
0.0
  0
LINE
  8
0
  6
CONTINUOUS
 62
     1
 10
1316.963690552
 20
799.070284044
 30
0.0
 11
1311.963690552
 21
807.730538082
 31
0.0
  0
LINE
  8
0
  6
LTYPE3
 62
     2
 10
1415.3
 20
790.733974596
 30
0.0
 11
1431.3
 21
806.733974596
 31
0.0
  0
LINE
  8
0
  6
CONTINUOUS
 62
     1
 10
1418.636309448
 20
807.730538082
 30
0.0
 11
1428.636309448
 21
807.730538082
 31
0.0
  0
LINE
  8
0
  6
CONTINUOUS
 62
     1
 10
1428.636309448
 20
807.730538082
 30
0.0
 11
1433.636309448
 21
799.070284044
 31
0.0
  0
LINE
  8
0
  6
CONTINUOUS
 62
     1
 10
1433.636309448
 20
799.070284044
 30
0.0
 11
1428.636309448
 21
790.410030006
 31
0.0
  0
LINE
  8
0
  6
CONTINUOUS
 62
     1
 10
1428.636309448
 20
790.410030006
 30
0.0
 11
1418.636309448
 21
790.410030006
 31
0.0
  0
LINE
  8
0
  6
CONTINUOUS
 62
     1
 10
1418.636309448
 20
790.410030006
 30
0.0
 11
1413.636309448
 21
799.070284044
 31
0.0
  0
LINE
  8
0
  6
CONTINUOUS
 62
     1
 10
1413.636309448
 20
799.070284044
 30
0.0
 11
1418.636309448
 21
807.730538082
 31
0.0
  0
LINE
  8
0
  6
LTYPE3
 62
     2
 10
1315.3
 20
690.733974596
 30
0.0
 11
1299.3
 21
674.733974596
 31
0.0
  0
LINE
  8
0
  6
CONTINUOUS
 62
     1
 10
1311.963690552
 20
673.73741111
 30
0.0
 11
1301.963690552
 21
673.73741111
 31
0.0
  0
LINE
  8
0
  6
CONTINUOUS
 62
     1
 10
1301.963690552
 20
673.73741111
 30
0.0
 11
1296.963690552
 21
682.397665148
 31
0.0
  0
LINE
  8
0
  6
CONTINUOUS
 62
     1
 10
1296.963690552
 20
682.397665148
 30
0.0
 11
1301.963690552
 21
691.057919186
 31
0.0
  0
LINE
  8
0
  6
CONTINUOUS
 62
     1
 10
1301.963690552
 20
691.057919186
 30
0.0
 11
1311.963690552
 21
691.057919186
 31
0.0
  0
LINE
  8
0
  6
CONTINUOUS
 62
     1
 10
1311.963690552
 20
691.057919186
 30
0.0
 11
1316.963690552
 21
682.397665148
 31
0.0
  0
LINE
  8
0
  6
CONTINUOUS
 62
     1
 10
1316.963690552
 20
682.397665148
 30
0.0
 11
1311.963690552
 21
673.73741111
 31
0.0
  0
LINE
  8
0
  6
LTYPE3
 62
     2
 10
1415.3
 20
690.733974596
 30
0.0
 11
1431.3
 21
674.733974596
 31
0.0
  0
LINE
  8
0
  6
CONTINUOUS
 62
     1
 10
1418.636309448
 20
673.73741111
 30
0.0
 11
1428.636309448
 21
673.73741111
 31
0.0
  0
LINE
  8
0
  6
CONTINUOUS
 62
     1
 10
1428.636309448
 20
673.73741111
 30
0.0
 11
1433.636309448
 21
682.397665148
 31
0.0
  0
LINE
  8
0
  6
CONTINUOUS
 62
     1
 10
1433.636309448
 20
682.397665148
 30
0.0
 11
1428.636309448
 21
691.057919186
 31
0.0
  0
LINE
  8
0
  6
CONTINUOUS
 62
     1
 10
1428.636309448
 20
691.057919186
 30
0.0
 11
1418.636309448
 21
691.057919186
 31
0.0
  0
LINE
  8
0
  6
CONTINUOUS
 62
     1
 10
1418.636309448
 20
691.057919186
 30
0.0
 11
1413.636309448
 21
682.397665148
 31
0.0
  0
LINE
  8
0
  6
CONTINUOUS
 62
     1
 10
1413.636309448
 20
682.397665148
 30
0.0
 11
1418.636309448
 21
673.73741111
 31
0.0
  0
ARC
  8
0
  6
LTYPE3
 62
     2
 10
1365.3
 20
740.733974596
 30
0.0
 40
82.5
 50
213.899731785
 51
235.960335446
  0
ARC
  8
0
  6
LTYPE3
 62
     2
 10
1365.3
 20
740.733974596
 30
0.0
 40
82.5
 50
300.927939213
 51
327.087998905
  0
ARC
  8
0
  6
LTYPE3
 62
     2
 10
1365.3
 20
740.733974596
 30
0.0
 40
82.5
 50
122.095648245
 51
145.904134413
  0
ARC
  8
0
  6
LTYPE3
 62
     2
 10
1365.3
 20
740.733974596
 30
0.0
 40
82.5
 50
35.204140887
 51
56.44447448
  0
ARC
  8
0
  6
CONTINUOUS
 62
     1
 10
1365.3
 20
740.733974596
 30
0.0
 40
110.0
 50
113.578178478
 51
147.236242241
  0
ARC
  8
0
  6
CONTINUOUS
 62
     1
 10
1365.3
 20
740.733974596
 30
0.0
 40
110.0
 50
32.763757759
 51
66.421821522
  0
LINE
  8
0
  6
LTYPE2
 62
     2
 10
657.6
 20
564.733974596
 30
0.0
 11
269.9
 21
564.733974596
 31
0.0
  0
LINE
  8
0
  6
CONTINUOUS
 62
     2
 10
1402.8
 20
877.733974596
 30
0.0
 11
1579.792232957
 21
877.733974596
 31
0.0
  0
LINE
  8
2
  6
CONTINUOUS
 62
     2
 10
470.5
 20
387.608974596
 30
0.0
 11
458.425927171
 21
390.84421266
 31
0.0
  0
LINE
  8
2
  6
CONTINUOUS
 62
     2
 10
470.5
 20
387.608974596
 30
0.0
 11
458.425927171
 21
384.373736532
 31
0.0
  0
LINE
  8
2
  6
CONTINUOUS
 62
     2
 10
470.5
 20
387.608974596
 30
0.0
 11
385.5
 21
387.608974596
 31
0.0
  0
LINE
  8
2
  6
CONTINUOUS
 62
     2
 10
385.5
 20
387.608974596
 30
0.0
 11
397.574072829
 21
384.373736532
 31
0.0
  0
LINE
  8
2
  6
CONTINUOUS
 62
     2
 10
385.5
 20
387.608974596
 30
0.0
 11
397.574072829
 21
390.84421266
 31
0.0
  0
LINE
  8
2
  6
CONTINUOUS
 62
     2
 10
385.5
 20
465.733974596
 30
0.0
 11
385.5
 21
382.608974596
 31
0.0
  0
LINE
  8
2
  6
CONTINUOUS
 62
     2
 10
385.5
 20
387.608974596
 30
0.0
 11
373.425927171
 21
390.84421266
 31
0.0
  0
LINE
  8
2
  6
CONTINUOUS
 62
     2
 10
385.5
 20
387.608974596
 30
0.0
 11
373.425927171
 21
384.373736532
 31
0.0
  0
LINE
  8
2
  6
CONTINUOUS
 62
     2
 10
385.5
 20
387.608974596
 30
0.0
 11
273.5
 21
387.608974596
 31
0.0
  0
LINE
  8
2
  6
CONTINUOUS
 62
     2
 10
273.5
 20
387.608974596
 30
0.0
 11
285.574072829
 21
384.373736532
 31
0.0
  0
LINE
  8
2
  6
CONTINUOUS
 62
     2
 10
273.5
 20
387.608974596
 30
0.0
 11
285.574072829
 21
390.84421266
 31
0.0
  0
ARC
  8
0
  6
CONTINUOUS
 62
     1
 10
966.669751667
 20
638.733974596
 30
0.0
 40
1.0
 50
90.0
 51
165.0
  0
LINE
  8
0
  6
CONTINUOUS
 62
     1
 10
962.081785631
 20
625.475155551
 30
0.0
 11
965.703825841
 21
638.992793641
 31
0.0
  0
ARC
  8
0
  6
CONTINUOUS
 62
     1
 10
961.115859805
 20
625.733974596
 30
0.0
 40
1.0
 50
270.0
 51
345.0
  0
ARC
  8
0
  6
CONTINUOUS
 62
     1
 10
977.777535392
 20
638.733974596
 30
0.0
 40
1.0
 50
15.0
 51
90.0
  0
ARC
  8
0
  6
CONTINUOUS
 62
     1
 10
977.777535392
 20
638.733974596
 30
0.0
 40
1.0
 50
90.0
 51
165.0
  0
LINE
  8
0
  6
CONTINUOUS
 62
     1
 10
973.189569356
 20
625.475155551
 30
0.0
 11
976.811609566
 21
638.992793641
 31
0.0
  0
ARC
  8
0
  6
CONTINUOUS
 62
     1
 10
972.22364353
 20
625.733974596
 30
0.0
 40
1.0
 50
270.0
 51
345.0
  0
ARC
  8
0
  6
CONTINUOUS
 62
     1
 10
972.22364353
 20
625.733974596
 30
0.0
 40
1.0
 50
195.0
 51
270.0
  0
LINE
  8
0
  6
CONTINUOUS
 62
     1
 10
971.257717703
 20
625.475155551
 30
0.0
 11
967.635677493
 21
638.992793641
 31
0.0
  0
ARC
  8
0
  6
CONTINUOUS
 62
     1
 10
966.669751667
 20
638.733974596
 30
0.0
 40
1.0
 50
15.0
 51
90.0
  0
LINE
  8
0
  6
CONTINUOUS
 62
     1
 10
983.099998651
 20
622.733974596
 30
0.0
 11
978.743461218
 21
638.992793641
 31
0.0
  0
LINE
  8
0
  6
CONTINUOUS
 62
     1
 10
906.325007904
 20
622.733974596
 30
0.0
 11
910.681545337
 21
638.992793641
 31
0.0
  0
ARC
  8
0
  6
CONTINUOUS
 62
     1
 10
911.647471163
 20
638.733974596
 30
0.0
 40
1.0
 50
90.0
 51
165.0
  0
ARC
  8
0
  6
CONTINUOUS
 62
     1
 10
911.647471837
 20
638.733974596
 30
0.0
 40
1.0
 50
15.0
 51
90.0
  0
LINE
  8
0
  6
CONTINUOUS
 62
     1
 10
916.235437874
 20
625.475155551
 30
0.0
 11
912.613397664
 21
638.992793641
 31
0.0
  0
ARC
  8
0
  6
CONTINUOUS
 62
     1
 10
917.2013637
 20
625.733974596
 30
0.0
 40
1.0
 50
195.0
 51
270.0
  0
ARC
  8
0
  6
CONTINUOUS
 62
     1
 10
917.201364374
 20
625.733974596
 30
0.0
 40
1.0
 50
270.0
 51
345.0
  0
LINE
  8
0
  6
CONTINUOUS
 62
     1
 10
918.1672902
 20
625.475155551
 30
0.0
 11
921.78933041
 21
638.992793641
 31
0.0
  0
ARC
  8
0
  6
CONTINUOUS
 62
     1
 10
922.755256237
 20
638.733974596
 30
0.0
 40
1.0
 50
90.0
 51
165.0
  0
ARC
  8
0
  6
CONTINUOUS
 62
     1
 10
922.755256237
 20
638.733974596
 30
0.0
 40
1.0
 50
15.0
 51
90.0
  0
LINE
  8
0
  6
CONTINUOUS
 62
     1
 10
927.343222273
 20
625.475155551
 30
0.0
 11
923.721182063
 21
638.992793641
 31
0.0
  0
ARC
  8
0
  6
CONTINUOUS
 62
     1
 10
928.309148099
 20
625.733974596
 30
0.0
 40
1.0
 50
195.0
 51
270.0
  0
LINE
  8
0
  6
CONTINUOUS
 62
     1
 10
891.325007904
 20
624.733974596
 30
0.0
 11
901.325007904
 21
624.733974596
 31
0.0
  0
LINE
  8
0
  6
CONTINUOUS
 62
     1
 10
901.269751667
 20
622.733974596
 30
0.0
 11
906.325007904
 21
622.733974596
 31
0.0
  0
LINE
  8
0
  6
CONTINUOUS
 62
     1
 10
886.325007904
 20
622.733974596
 30
0.0
 11
891.269751667
 21
622.733974596
 31
0.0
  0
LINE
  8
0
  6
LTYPE4
 62
     2
 10
928.309148099
 20
624.733974596
 30
0.0
 11
961.115859805
 21
624.733974596
 31
0.0
  0
LINE
  8
0
  6
LTYPE4
 62
     2
 10
922.755256237
 20
639.733974596
 30
0.0
 11
966.669751667
 21
639.733974596
 31
0.0
  0
ARC
  8
0
  6
CONTINUOUS
 62
     1
 10
972.22364353
 20
503.733974596
 30
0.0
 40
1.0
 50
15.0
 51
90.0
  0
ARC
  8
0
  6
CONTINUOUS
 62
     1
 10
972.22364353
 20
503.733974596
 30
0.0
 40
1.0
 50
90.0
 51
165.0
  0
LINE
  8
0
  6
CONTINUOUS
 62
     1
 10
971.257717703
 20
503.992793641
 30
0.0
 11
967.635677493
 21
490.475155551
 31
0.0
  0
ARC
  8
0
  6
CONTINUOUS
 62
     1
 10
966.669751667
 20
490.733974596
 30
0.0
 40
1.0
 50
270.0
 51
345.0
  0
ARC
  8
0
  6
CONTINUOUS
 62
     1
 10
966.669751667
 20
490.733974596
 30
0.0
 40
1.0
 50
195.0
 51
270.0
  0
LINE
  8
0
  6
CONTINUOUS
 62
     1
 10
962.081785631
 20
503.992793641
 30
0.0
 11
965.703825841
 21
490.475155551
 31
0.0
  0
ARC
  8
0
  6
CONTINUOUS
 62
     1
 10
961.115859805
 20
503.733974596
 30
0.0
 40
1.0
 50
15.0
 51
90.0
  0
ARC
  8
0
  6
CONTINUOUS
 62
     1
 10
977.777535392
 20
490.733974596
 30
0.0
 40
1.0
 50
270.0
 51
345.0
  0
ARC
  8
0
  6
CONTINUOUS
 62
     1
 10
977.777535392
 20
490.733974596
 30
0.0
 40
1.0
 50
195.0
 51
270.0
  0
LINE
  8
0
  6
CONTINUOUS
 62
     1
 10
973.189569356
 20
503.992793641
 30
0.0
 11
976.811609566
 21
490.475155551
 31
0.0
  0
LINE
  8
0
  6
CONTINUOUS
 62
     1
 10
983.099998651
 20
506.733974596
 30
0.0
 11
978.743461218
 21
490.475155551
 31
0.0
  0
LINE
  8
0
  6
CONTINUOUS
 62
     1
 10
906.325007904
 20
506.733974596
 30
0.0
 11
910.681545337
 21
490.475155551
 31
0.0
  0
ARC
  8
0
  6
CONTINUOUS
 62
     1
 10
911.647471163
 20
490.733974596
 30
0.0
 40
1.0
 50
195.0
 51
270.0
  0
ARC
  8
0
  6
CONTINUOUS
 62
     1
 10
911.647471837
 20
490.733974596
 30
0.0
 40
1.0
 50
270.0
 51
345.0
  0
LINE
  8
0
  6
CONTINUOUS
 62
     1
 10
916.235437874
 20
503.992793641
 30
0.0
 11
912.613397664
 21
490.475155551
 31
0.0
  0
ARC
  8
0
  6
CONTINUOUS
 62
     1
 10
917.2013637
 20
503.733974596
 30
0.0
 40
1.0
 50
90.0
 51
165.0
  0
ARC
  8
0
  6
CONTINUOUS
 62
     1
 10
917.201364374
 20
503.733974596
 30
0.0
 40
1.0
 50
15.0
 51
90.0
  0
LINE
  8
0
  6
CONTINUOUS
 62
     1
 10
918.1672902
 20
503.992793641
 30
0.0
 11
921.78933041
 21
490.475155551
 31
0.0
  0
ARC
  8
0
  6
CONTINUOUS
 62
     1
 10
922.755256237
 20
490.733974596
 30
0.0
 40
1.0
 50
195.0
 51
270.0
  0
ARC
  8
0
  6
CONTINUOUS
 62
     1
 10
922.755256237
 20
490.733974596
 30
0.0
 40
1.0
 50
270.0
 51
345.0
  0
LINE
  8
0
  6
CONTINUOUS
 62
     1
 10
927.343222273
 20
503.992793641
 30
0.0
 11
923.721182063
 21
490.475155551
 31
0.0
  0
ARC
  8
0
  6
CONTINUOUS
 62
     1
 10
928.309148099
 20
503.733974596
 30
0.0
 40
1.0
 50
90.0
 51
165.0
  0
LINE
  8
0
  6
CONTINUOUS
 62
     1
 10
891.325007904
 20
504.733974596
 30
0.0
 11
901.325007904
 21
504.733974596
 31
0.0
  0
LINE
  8
0
  6
CONTINUOUS
 62
     1
 10
901.269751667
 20
506.733974596
 30
0.0
 11
906.325007904
 21
506.733974596
 31
0.0
  0
LINE
  8
0
  6
CONTINUOUS
 62
     1
 10
886.325007904
 20
506.733974596
 30
0.0
 11
901.325007904
 21
506.733974596
 31
0.0
  0
LINE
  8
0
  6
LTYPE4
 62
     2
 10
928.309148099
 20
504.733974596
 30
0.0
 11
961.115859805
 21
504.733974596
 31
0.0
  0
LINE
  8
0
  6
LTYPE4
 62
     2
 10
922.755256237
 20
489.733974596
 30
0.0
 11
966.669751667
 21
489.733974596
 31
0.0
  0
LINE
  8
0
  6
CONTINUOUS
 62
     1
 10
886.325007904
 20
619.733974596
 30
0.0
 11
599.5
 21
619.733974596
 31
0.0
  0
LINE
  8
0
  6
CONTINUOUS
 62
     1
 10
886.325007904
 20
506.733974596
 30
0.0
 11
886.325007904
 21
509.133974596
 31
0.0
  0
LINE
  8
0
  6
CONTINUOUS
 62
     1
 10
891.325007904
 20
504.733974596
 30
0.0
 11
891.325007904
 21
506.033974596
 31
0.0
  0
LINE
  8
0
  6
CONTINUOUS
 62
     1
 10
901.325007904
 20
504.733974596
 30
0.0
 11
901.325007904
 21
507.033974596
 31
0.0
  0
LINE
  8
0
  6
CONTINUOUS
 62
     1
 10
998.1
 20
612.233974596
 30
0.0
 11
988.1
 21
612.233974596
 31
0.0
  0
LINE
  8
0
  6
CONTINUOUS
 62
     1
 10
1003.1
 20
610.233974596
 30
0.0
 11
998.155256237
 21
610.233974596
 31
0.0
  0
LINE
  8
0
  6
CONTINUOUS
 62
     1
 10
1003.1
 20
564.733974596
 30
0.0
 11
1003.1
 21
610.233974596
 31
0.0
  0
LINE
  8
0
  6
CONTINUOUS
 62
     1
 10
988.155256237
 20
610.233974596
 30
0.0
 11
983.099998651
 21
610.233974596
 31
0.0
  0
LINE
  8
0
  6
CONTINUOUS
 62
     1
 10
998.1
 20
517.233974596
 30
0.0
 11
988.1
 21
517.233974596
 31
0.0
  0
LINE
  8
0
  6
CONTINUOUS
 62
     1
 10
1003.1
 20
519.233974596
 30
0.0
 11
983.099998651
 21
519.233974596
 31
0.0
  0
LINE
  8
0
  6
CONTINUOUS
 62
     1
 10
1003.1
 20
519.233974596
 30
0.0
 11
1003.1
 21
589.733974596
 31
0.0
  0
LINE
  8
0
  6
CONTINUOUS
 62
     1
 10
988.1
 20
564.733974596
 30
0.0
 11
988.1
 21
612.233974596
 31
0.0
  0
LINE
  8
0
  6
CONTINUOUS
 62
     1
 10
998.1
 20
564.733974596
 30
0.0
 11
998.1
 21
612.233974596
 31
0.0
  0
LINE
  8
0
  6
CONTINUOUS
 62
     1
 10
983.1
 20
564.733974596
 30
0.0
 11
983.1
 21
622.733974596
 31
0.0
  0
LINE
  8
0
  6
CONTINUOUS
 62
     1
 10
977.777535392
 20
639.733974596
 30
0.0
 11
977.777535392
 21
564.733974596
 31
0.0
  0
LINE
  8
0
  6
CONTINUOUS
 62
     1
 10
972.22364353
 20
624.733974596
 30
0.0
 11
972.22364353
 21
564.733974596
 31
0.0
  0
LINE
  8
0
  6
CONTINUOUS
 62
     1
 10
966.669751667
 20
639.733974596
 30
0.0
 11
966.669751667
 21
564.733974596
 31
0.0
  0
LINE
  8
0
  6
CONTINUOUS
 62
     1
 10
961.115859805
 20
624.733974596
 30
0.0
 11
961.115859805
 21
564.733974596
 31
0.0
  0
LINE
  8
0
  6
CONTINUOUS
 62
     1
 10
928.309148099
 20
624.733974596
 30
0.0
 11
928.309148099
 21
564.733974596
 31
0.0
  0
LINE
  8
0
  6
CONTINUOUS
 62
     1
 10
922.755256237
 20
639.733974596
 30
0.0
 11
922.755256237
 21
564.733974596
 31
0.0
  0
LINE
  8
0
  6
CONTINUOUS
 62
     1
 10
917.2013637
 20
624.733974596
 30
0.0
 11
917.2013637
 21
564.733974596
 31
0.0
  0
LINE
  8
0
  6
CONTINUOUS
 62
     1
 10
911.647471163
 20
639.733974596
 30
0.0
 11
911.647471163
 21
564.733974596
 31
0.0
  0
LINE
  8
0
  6
CONTINUOUS
 62
     1
 10
906.325007904
 20
564.733974596
 30
0.0
 11
906.325007904
 21
622.733974596
 31
0.0
  0
LINE
  8
0
  6
CONTINUOUS
 62
     1
 10
901.325007904
 20
564.733974596
 30
0.0
 11
901.325007904
 21
624.733974596
 31
0.0
  0
LINE
  8
0
  6
CONTINUOUS
 62
     1
 10
891.325007904
 20
564.733974596
 30
0.0
 11
891.325007904
 21
624.733974596
 31
0.0
  0
LINE
  8
0
  6
CONTINUOUS
 62
     1
 10
886.325007904
 20
564.733974596
 30
0.0
 11
886.325007904
 21
622.733974596
 31
0.0
  0
LINE
  8
0
  6
CONTINUOUS
 62
     1
 10
937.9
 20
509.733974596
 30
0.0
 11
599.5
 21
509.733974596
 31
0.0
  0
LINE
  8
0
  6
CONTINUOUS
 62
     1
 10
907.9
 20
509.733974596
 30
0.0
 11
907.9
 21
564.733974596
 31
0.0
  0
LINE
  8
0
  6
CONTINUOUS
 62
     1
 10
937.9
 20
509.733974596
 30
0.0
 11
937.9
 21
564.733974596
 31
0.0
  0
LINE
  8
2
  6
CONTINUOUS
 62
     2
 10
689.5
 20
619.733974596
 30
0.0
 11
686.264761936
 21
607.659901768
 31
0.0
  0
LINE
  8
2
  6
CONTINUOUS
 62
     2
 10
689.5
 20
619.733974596
 30
0.0
 11
692.735238064
 21
607.659901768
 31
0.0
  0
LINE
  8
2
  6
CONTINUOUS
 62
     2
 10
689.5
 20
619.733974596
 30
0.0
 11
689.5
 21
509.733974596
 31
0.0
  0
LINE
  8
2
  6
CONTINUOUS
 62
     2
 10
689.5
 20
509.733974596
 30
0.0
 11
692.735238064
 21
521.808047425
 31
0.0
  0
LINE
  8
2
  6
CONTINUOUS
 62
     2
 10
689.5
 20
509.733974596
 30
0.0
 11
686.264761936
 21
521.808047425
 31
0.0
  0
LINE
  8
0
  6
LTYPE1
 62
     2
 10
1018.1
 20
534.733974596
 30
0.0
 11
1018.1
 21
594.733974596
 31
0.0
  0
LINE
  8
0
  6
CONTINUOUS
 62
     1
 10
1018.1
 20
769.483974596
 30
0.0
 11
1018.1
 21
784.483974596
 31
0.0
  0
LINE
  8
0
  6
CONTINUOUS
 62
     1
 10
1003.1
 20
769.483974596
 30
0.0
 11
1003.1
 21
799.483974596
 31
0.0
  0
LINE
  8
0
  6
CONTINUOUS
 62
     1
 10
1018.1
 20
769.483974596
 30
0.0
 11
1018.1
 21
754.483974596
 31
0.0
  0
LINE
  8
0
  6
CONTINUOUS
 62
     1
 10
1003.1
 20
769.483974596
 30
0.0
 11
1003.1
 21
739.483974596
 31
0.0
  0
LINE
  8
0
  6
CONTINUOUS
 62
     1
 10
1003.1
 20
769.483974596
 30
0.0
 11
1003.1
 21
744.483974596
 31
0.0
  0
ARC
  8
0
  6
CONTINUOUS
 62
     1
 10
966.669751667
 20
843.483974596
 30
0.0
 40
1.0
 50
90.0
 51
165.0
  0
LINE
  8
0
  6
CONTINUOUS
 62
     1
 10
962.081785631
 20
830.225155551
 30
0.0
 11
965.703825841
 21
843.742793641
 31
0.0
  0
ARC
  8
0
  6
CONTINUOUS
 62
     1
 10
961.115859805
 20
830.483974596
 30
0.0
 40
1.0
 50
270.0
 51
345.0
  0
ARC
  8
0
  6
CONTINUOUS
 62
     1
 10
977.777535392
 20
843.483974596
 30
0.0
 40
1.0
 50
15.0
 51
90.0
  0
ARC
  8
0
  6
CONTINUOUS
 62
     1
 10
977.777535392
 20
843.483974596
 30
0.0
 40
1.0
 50
90.0
 51
165.0
  0
LINE
  8
0
  6
CONTINUOUS
 62
     1
 10
973.189569356
 20
830.225155551
 30
0.0
 11
976.811609566
 21
843.742793641
 31
0.0
  0
ARC
  8
0
  6
CONTINUOUS
 62
     1
 10
972.22364353
 20
830.483974596
 30
0.0
 40
1.0
 50
270.0
 51
345.0
  0
ARC
  8
0
  6
CONTINUOUS
 62
     1
 10
972.22364353
 20
830.483974596
 30
0.0
 40
1.0
 50
195.0
 51
270.0
  0
LINE
  8
0
  6
CONTINUOUS
 62
     1
 10
971.257717703
 20
830.225155551
 30
0.0
 11
967.635677493
 21
843.742793641
 31
0.0
  0
ARC
  8
0
  6
CONTINUOUS
 62
     1
 10
966.669751667
 20
843.483974596
 30
0.0
 40
1.0
 50
15.0
 51
90.0
  0
LINE
  8
0
  6
CONTINUOUS
 62
     1
 10
983.099998651
 20
827.483974596
 30
0.0
 11
978.743461218
 21
843.742793641
 31
0.0
  0
LINE
  8
0
  6
CONTINUOUS
 62
     1
 10
998.1
 20
816.983974596
 30
0.0
 11
988.1
 21
816.983974596
 31
0.0
  0
LINE
  8
0
  6
CONTINUOUS
 62
     1
 10
1003.1
 20
814.983974596
 30
0.0
 11
998.155256237
 21
814.983974596
 31
0.0
  0
LINE
  8
0
  6
CONTINUOUS
 62
     1
 10
1003.1
 20
769.483974596
 30
0.0
 11
1003.1
 21
814.983974596
 31
0.0
  0
LINE
  8
0
  6
CONTINUOUS
 62
     1
 10
988.155256237
 20
814.983974596
 30
0.0
 11
983.099998651
 21
814.983974596
 31
0.0
  0
LINE
  8
0
  6
CONTINUOUS
 62
     1
 10
988.1
 20
769.483974596
 30
0.0
 11
988.1
 21
816.983974596
 31
0.0
  0
LINE
  8
0
  6
CONTINUOUS
 62
     1
 10
998.1
 20
769.483974596
 30
0.0
 11
998.1
 21
816.983974596
 31
0.0
  0
LINE
  8
0
  6
CONTINUOUS
 62
     1
 10
983.1
 20
769.483974596
 30
0.0
 11
983.1
 21
827.483974596
 31
0.0
  0
LINE
  8
0
  6
CONTINUOUS
 62
     1
 10
977.777535392
 20
844.483974596
 30
0.0
 11
977.777535392
 21
769.483974596
 31
0.0
  0
LINE
  8
0
  6
CONTINUOUS
 62
     1
 10
972.22364353
 20
829.483974596
 30
0.0
 11
972.22364353
 21
769.483974596
 31
0.0
  0
LINE
  8
0
  6
CONTINUOUS
 62
     1
 10
966.669751667
 20
844.483974596
 30
0.0
 11
966.669751667
 21
769.483974596
 31
0.0
  0
LINE
  8
0
  6
CONTINUOUS
 62
     1
 10
961.115859805
 20
829.483974596
 30
0.0
 11
961.115859805
 21
769.483974596
 31
0.0
  0
ARC
  8
0
  6
CONTINUOUS
 62
     1
 10
966.669751667
 20
695.483974596
 30
0.0
 40
1.0
 50
195.0
 51
270.0
  0
LINE
  8
0
  6
CONTINUOUS
 62
     1
 10
962.081785631
 20
708.742793641
 30
0.0
 11
965.703825841
 21
695.225155551
 31
0.0
  0
ARC
  8
0
  6
CONTINUOUS
 62
     1
 10
961.115859805
 20
708.483974596
 30
0.0
 40
1.0
 50
15.0
 51
90.0
  0
ARC
  8
0
  6
CONTINUOUS
 62
     1
 10
977.777535392
 20
695.483974596
 30
0.0
 40
1.0
 50
270.0
 51
345.0
  0
ARC
  8
0
  6
CONTINUOUS
 62
     1
 10
977.777535392
 20
695.483974596
 30
0.0
 40
1.0
 50
195.0
 51
270.0
  0
LINE
  8
0
  6
CONTINUOUS
 62
     1
 10
973.189569356
 20
708.742793641
 30
0.0
 11
976.811609566
 21
695.225155551
 31
0.0
  0
ARC
  8
0
  6
CONTINUOUS
 62
     1
 10
972.22364353
 20
708.483974596
 30
0.0
 40
1.0
 50
15.0
 51
90.0
  0
ARC
  8
0
  6
CONTINUOUS
 62
     1
 10
972.22364353
 20
708.483974596
 30
0.0
 40
1.0
 50
90.0
 51
165.0
  0
LINE
  8
0
  6
CONTINUOUS
 62
     1
 10
971.257717703
 20
708.742793641
 30
0.0
 11
967.635677493
 21
695.225155551
 31
0.0
  0
ARC
  8
0
  6
CONTINUOUS
 62
     1
 10
966.669751667
 20
695.483974596
 30
0.0
 40
1.0
 50
270.0
 51
345.0
  0
LINE
  8
0
  6
CONTINUOUS
 62
     1
 10
983.099998651
 20
711.483974596
 30
0.0
 11
978.743461218
 21
695.225155551
 31
0.0
  0
LINE
  8
0
  6
CONTINUOUS
 62
     1
 10
998.1
 20
721.983974596
 30
0.0
 11
988.1
 21
721.983974596
 31
0.0
  0
LINE
  8
0
  6
CONTINUOUS
 62
     1
 10
1003.1
 20
723.983974596
 30
0.0
 11
998.155256237
 21
723.983974596
 31
0.0
  0
LINE
  8
0
  6
CONTINUOUS
 62
     1
 10
1003.1
 20
769.483974596
 30
0.0
 11
1003.1
 21
723.983974596
 31
0.0
  0
LINE
  8
0
  6
CONTINUOUS
 62
     1
 10
988.155256237
 20
723.983974596
 30
0.0
 11
983.099998651
 21
723.983974596
 31
0.0
  0
LINE
  8
0
  6
CONTINUOUS
 62
     1
 10
988.1
 20
769.483974596
 30
0.0
 11
988.1
 21
721.983974596
 31
0.0
  0
LINE
  8
0
  6
CONTINUOUS
 62
     1
 10
998.1
 20
769.483974596
 30
0.0
 11
998.1
 21
721.983974596
 31
0.0
  0
LINE
  8
0
  6
CONTINUOUS
 62
     1
 10
983.1
 20
769.483974596
 30
0.0
 11
983.1
 21
711.483974596
 31
0.0
  0
LINE
  8
0
  6
CONTINUOUS
 62
     1
 10
977.777535392
 20
694.483974596
 30
0.0
 11
977.777535392
 21
769.483974596
 31
0.0
  0
LINE
  8
0
  6
CONTINUOUS
 62
     1
 10
972.22364353
 20
709.483974596
 30
0.0
 11
972.22364353
 21
769.483974596
 31
0.0
  0
LINE
  8
0
  6
CONTINUOUS
 62
     1
 10
966.669751667
 20
694.483974596
 30
0.0
 11
966.669751667
 21
769.483974596
 31
0.0
  0
LINE
  8
0
  6
CONTINUOUS
 62
     1
 10
961.115859805
 20
709.483974596
 30
0.0
 11
961.115859805
 21
769.483974596
 31
0.0
  0
LINE
  8
0
  6
LTYPE3
 62
     2
 10
977.777535392
 20
844.483974596
 30
0.0
 11
942.777535392
 21
844.483974596
 31
0.0
  0
LINE
  8
0
  6
LTYPE3
 62
     2
 10
972.377535392
 20
829.433974596
 30
0.0
 11
943.377535392
 21
829.433974596
 31
0.0
  0
LINE
  8
0
  6
LTYPE3
 62
     2
 10
972.22364353
 20
709.483974596
 30
0.0
 11
945.72364353
 21
709.483974596
 31
0.0
  0
LINE
  8
0
  6
LTYPE3
 62
     2
 10
977.777535392
 20
694.483974596
 30
0.0
 11
945.227535392
 21
694.483974596
 31
0.0
  0
LINE
  8
2
  6
CONTINUOUS
 62
     2
 10
1003.1
 20
718.983974596
 30
0.0
 11
1003.1
 21
647.683974596
 31
0.0
  0
LINE
  8
2
  6
CONTINUOUS
 62
     2
 10
1003.1
 20
657.683974596
 30
0.0
 11
991.025927171
 21
660.91921266
 31
0.0
  0
LINE
  8
2
  6
CONTINUOUS
 62
     2
 10
1003.1
 20
657.683974596
 30
0.0
 11
991.025927171
 21
654.448736532
 31
0.0
  0
LINE
  8
2
  6
CONTINUOUS
 62
     2
 10
950.85
 20
657.683974596
 30
0.0
 11
1003.1
 21
657.683974596
 31
0.0
  0
LINE
  8
2
  6
CONTINUOUS
 62
     2
 10
1003.1
 20
657.683974596
 30
0.0
 11
1018.1
 21
657.683974596
 31
0.0
  0
LINE
  8
2
  6
CONTINUOUS
 62
     2
 10
1018.1
 20
749.483974596
 30
0.0
 11
1018.1
 21
647.683974596
 31
0.0
  0
LINE
  8
0
  6
CONTINUOUS
 62
     1
 10
1050.6
 20
769.483974596
 30
0.0
 11
1050.6
 21
784.483974596
 31
0.0
  0
LINE
  8
0
  6
CONTINUOUS
 62
     1
 10
1075.6
 20
769.483974596
 30
0.0
 11
1075.6
 21
784.483974596
 31
0.0
  0
LINE
  8
0
  6
CONTINUOUS
 62
     1
 10
1041.1
 20
803.983974596
 30
0.0
 11
1085.1
 21
803.983974596
 31
0.0
  0
LINE
  8
0
  6
CONTINUOUS
 62
     1
 10
1050.6
 20
809.983974596
 30
0.0
 11
1075.6
 21
809.983974596
 31
0.0
  0
LINE
  8
0
  6
CONTINUOUS
 62
     1
 10
1075.6
 20
809.983974596
 30
0.0
 11
1075.6
 21
803.983974596
 31
0.0
  0
LINE
  8
0
  6
CONTINUOUS
 62
     1
 10
1050.6
 20
809.983974596
 30
0.0
 11
1050.6
 21
803.983974596
 31
0.0
  0
LINE
  8
0
  6
CONTINUOUS
 62
     1
 10
1085.1
 20
803.983974596
 30
0.0
 11
1085.1
 21
799.483974596
 31
0.0
  0
LINE
  8
0
  6
CONTINUOUS
 62
     1
 10
1041.1
 20
803.983974596
 30
0.0
 11
1041.1
 21
799.483974596
 31
0.0
  0
CIRCLE
  8
0
  6
CONTINUOUS
 62
     1
 10
1063.1
 20
805.983974596
 30
0.0
 40
2.0
  0
LINE
  8
0
  6
LTYPE5
 62
     2
 10
1059.1
 20
805.883974596
 30
0.0
 11
1067.3
 21
805.883974596
 31
0.0
  0
LINE
  8
0
  6
LTYPE1
 62
     2
 10
1075.6
 20
799.483974596
 30
0.0
 11
1075.6
 21
784.483974596
 31
0.0
  0
LINE
  8
0
  6
LTYPE1
 62
     2
 10
1050.6
 20
799.483974596
 30
0.0
 11
1050.6
 21
784.483974596
 31
0.0
  0
LINE
  8
0
  6
LTYPE5
 62
     2
 10
1063.1
 20
814.383974596
 30
0.0
 11
1063.1
 21
769.483974596
 31
0.0
  0
LINE
  8
0
  6
CONTINUOUS
 62
     1
 10
1050.6
 20
769.483974596
 30
0.0
 11
1050.6
 21
754.483974596
 31
0.0
  0
LINE
  8
0
  6
CONTINUOUS
 62
     1
 10
1075.6
 20
769.483974596
 30
0.0
 11
1075.6
 21
754.483974596
 31
0.0
  0
LINE
  8
0
  6
CONTINUOUS
 62
     1
 10
1041.1
 20
734.983974596
 30
0.0
 11
1085.1
 21
734.983974596
 31
0.0
  0
LINE
  8
0
  6
CONTINUOUS
 62
     1
 10
1050.6
 20
728.983974596
 30
0.0
 11
1075.6
 21
728.983974596
 31
0.0
  0
LINE
  8
0
  6
CONTINUOUS
 62
     1
 10
1075.6
 20
728.983974596
 30
0.0
 11
1075.6
 21
734.983974596
 31
0.0
  0
LINE
  8
0
  6
CONTINUOUS
 62
     1
 10
1050.6
 20
728.983974596
 30
0.0
 11
1050.6
 21
734.983974596
 31
0.0
  0
LINE
  8
0
  6
CONTINUOUS
 62
     1
 10
1085.1
 20
734.983974596
 30
0.0
 11
1085.1
 21
739.483974596
 31
0.0
  0
LINE
  8
0
  6
CONTINUOUS
 62
     1
 10
1041.1
 20
734.983974596
 30
0.0
 11
1041.1
 21
739.483974596
 31
0.0
  0
CIRCLE
  8
0
  6
CONTINUOUS
 62
     1
 10
1063.1
 20
732.983974596
 30
0.0
 40
2.0
  0
LINE
  8
0
  6
LTYPE5
 62
     2
 10
1059.1
 20
733.083974596
 30
0.0
 11
1067.3
 21
733.083974596
 31
0.0
  0
LINE
  8
0
  6
LTYPE1
 62
     2
 10
1075.6
 20
739.483974596
 30
0.0
 11
1075.6
 21
754.483974596
 31
0.0
  0
LINE
  8
0
  6
LTYPE1
 62
     2
 10
1050.6
 20
739.483974596
 30
0.0
 11
1050.6
 21
754.483974596
 31
0.0
  0
LINE
  8
0
  6
LTYPE5
 62
     2
 10
1063.1
 20
724.583974596
 30
0.0
 11
1063.1
 21
769.483974596
 31
0.0
  0
LINE
  8
0
  6
LTYPE2
 62
     2
 10
1094.15
 20
769.483974596
 30
0.0
 11
949.5
 21
769.483974596
 31
0.0
  0
LINE
  8
2
  6
CONTINUOUS
 62
     2
 10
1018.1
 20
657.683974596
 30
0.0
 11
1030.174072829
 21
654.448736532
 31
0.0
  0
LINE
  8
2
  6
CONTINUOUS
 62
     2
 10
1018.1
 20
657.683974596
 30
0.0
 11
1030.174072829
 21
660.91921266
 31
0.0
  0
LINE
  8
2
  6
CONTINUOUS
 62
     2
 10
1018.1
 20
657.683974596
 30
0.0
 11
1063.1
 21
657.683974596
 31
0.0
  0
LINE
  8
2
  6
CONTINUOUS
 62
     2
 10
1063.1
 20
657.683974596
 30
0.0
 11
1051.025927171
 21
660.91921266
 31
0.0
  0
LINE
  8
2
  6
CONTINUOUS
 62
     2
 10
1063.1
 20
657.683974596
 30
0.0
 11
1051.025927171
 21
654.448736532
 31
0.0
  0
LINE
  8
2
  6
CONTINUOUS
 62
     2
 10
1063.1
 20
719.583974596
 30
0.0
 11
1063.1
 21
647.683974596
 31
0.0
  0
CIRCLE
  8
0
  6
CONTINUOUS
 62
     1
 10
1063.1
 20
564.733974596
 30
0.0
 40
12.5
  0
CIRCLE
  8
0
  6
CONTINUOUS
 62
     1
 10
1063.1
 20
564.733974596
 30
0.0
 40
22.0
  0
CIRCLE
  8
0
  6
CONTINUOUS
 62
     1
 10
1063.1
 20
580.233974596
 30
0.0
 40
3.0
  0
LINE
  8
0
  6
CONTINUOUS
 62
     1
 10
1058.9
 20
547.933974596
 30
0.0
 11
1060.9
 21
547.633974596
 31
0.0
  0
LINE
  8
0
  6
CONTINUOUS
 62
     1
 10
1061.4
 20
552.333974596
 30
0.0
 11
1061.164615385
 21
550.764743827
 31
0.0
  0
LINE
  8
0
  6
CONTINUOUS
 62
     1
 10
1061.164615385
 20
550.764743827
 30
0.0
 11
1058.9
 21
547.933974596
 31
0.0
  0
LINE
  8
0
  6
CONTINUOUS
 62
     1
 10
1063.1
 20
550.333974596
 30
0.0
 11
1060.9
 21
547.633974596
 31
0.0
  0
LINE
  8
0
  6
CONTINUOUS
 62
     1
 10
1067.3
 20
547.933974596
 30
0.0
 11
1065.3
 21
547.633974596
 31
0.0
  0
LINE
  8
0
  6
CONTINUOUS
 62
     1
 10
1064.8
 20
552.333974596
 30
0.0
 11
1065.035384615
 21
550.764743827
 31
0.0
  0
LINE
  8
0
  6
CONTINUOUS
 62
     1
 10
1065.035384615
 20
550.764743827
 30
0.0
 11
1067.3
 21
547.933974596
 31
0.0
  0
LINE
  8
0
  6
CONTINUOUS
 62
     1
 10
1063.1
 20
550.333974596
 30
0.0
 11
1065.3
 21
547.633974596
 31
0.0
  0
LINE
  8
0
  6
LTYPE5
 62
     2
 10
1063.1
 20
539.733974596
 30
0.0
 11
1063.1
 21
594.533974596
 31
0.0
  0
LINE
  8
7
  6
CONTINUOUS
 62
     2
 10
1069.4
 20
554.783974596
 30
0.0
 11
1070.121121805
 21
542.304792598
 31
0.0
  0
LINE
  8
7
  6
CONTINUOUS
 62
     2
 10
1069.4
 20
554.783974596
 30
0.0
 11
1076.264100802
 21
544.33724687
 31
0.0
  0
LINE
  8
7
  6
CONTINUOUS
 62
     2
 10
1069.4
 20
554.783974596
 30
0.0
 11
1109.5
 21
433.583974596
 31
0.0
  0
LINE
  8
7
  6
CONTINUOUS
 62
     2
 10
1109.5
 20
433.583974596
 30
0.0
 11
1198.0
 21
433.583974596
 31
0.0
  0
ARC
  8
0
  6
CONTINUOUS
 62
     1
 10
1085.1
 20
586.733974596
 30
0.0
 40
8.0
 50
0.0
 51
90.0
  0
LINE
  8
0
  6
CONTINUOUS
 62
     1
 10
1093.1
 20
542.733974596
 30
0.0
 11
1093.1
 21
586.733974596
 31
0.0
  0
ARC
  8
0
  6
CONTINUOUS
 62
     1
 10
1085.1
 20
542.733974596
 30
0.0
 40
8.0
 50
270.0
 51
0.0
  0
LINE
  8
0
  6
CONTINUOUS
 62
     1
 10
1003.1
 20
594.733974596
 30
0.0
 11
1085.1
 21
594.733974596
 31
0.0
  0
LINE
  8
0
  6
CONTINUOUS
 62
     1
 10
1003.1
 20
534.733974596
 30
0.0
 11
1085.1
 21
534.733974596
 31
0.0
  0
LINE
  8
2
  6
CONTINUOUS
 62
     2
 10
1090.100015259
 20
594.733974596
 30
0.0
 11
1194.4
 21
594.733974596
 31
0.0
  0
LINE
  8
2
  6
CONTINUOUS
 62
     2
 10
1184.4
 20
594.733974596
 30
0.0
 11
1181.164761936
 21
582.659901768
 31
0.0
  0
LINE
  8
2
  6
CONTINUOUS
 62
     2
 10
1184.4
 20
594.733974596
 30
0.0
 11
1187.635238064
 21
582.659901768
 31
0.0
  0
LINE
  8
2
  6
CONTINUOUS
 62
     2
 10
1184.4
 20
594.733974596
 30
0.0
 11
1184.4
 21
534.733974596
 31
0.0
  0
LINE
  8
2
  6
CONTINUOUS
 62
     2
 10
1184.4
 20
534.733974596
 30
0.0
 11
1187.635238064
 21
546.808047425
 31
0.0
  0
LINE
  8
2
  6
CONTINUOUS
 62
     2
 10
1184.4
 20
534.733974596
 30
0.0
 11
1181.164761936
 21
546.808047425
 31
0.0
  0
LINE
  8
2
  6
CONTINUOUS
 62
     2
 10
1090.100015259
 20
534.733974596
 30
0.0
 11
1194.4
 21
534.733974596
 31
0.0
  0
LINE
  8
0
  6
CONTINUOUS
 62
     1
 10
1093.1
 20
799.483974596
 30
0.0
 11
1093.1
 21
784.483974596
 31
0.0
  0
LINE
  8
0
  6
CONTINUOUS
 62
     1
 10
1093.1
 20
739.483974596
 30
0.0
 11
1093.1
 21
754.483974596
 31
0.0
  0
LINE
  8
0
  6
CONTINUOUS
 62
     1
 10
1003.1
 20
799.483974596
 30
0.0
 11
1093.1
 21
799.483974596
 31
0.0
  0
LINE
  8
0
  6
CONTINUOUS
 62
     1
 10
1018.1
 20
784.483974596
 30
0.0
 11
1093.1
 21
784.483974596
 31
0.0
  0
LINE
  8
0
  6
CONTINUOUS
 62
     1
 10
1018.1
 20
754.483974596
 30
0.0
 11
1093.1
 21
754.483974596
 31
0.0
  0
LINE
  8
0
  6
CONTINUOUS
 62
     1
 10
1003.1
 20
739.483974596
 30
0.0
 11
1093.1
 21
739.483974596
 31
0.0
  0
LINE
  8
2
  6
CONTINUOUS
 62
     2
 10
1098.1
 20
784.483974596
 30
0.0
 11
1152.47
 21
784.483974596
 31
0.0
  0
LINE
  8
2
  6
CONTINUOUS
 62
     2
 10
1142.47
 20
784.483974596
 30
0.0
 11
1139.234761936
 21
772.409901768
 31
0.0
  0
LINE
  8
2
  6
CONTINUOUS
 62
     2
 10
1142.47
 20
784.483974596
 30
0.0
 11
1145.705238064
 21
772.409901768
 31
0.0
  0
LINE
  8
2
  6
CONTINUOUS
 62
     2
 10
1142.47
 20
784.483974596
 30
0.0
 11
1142.47
 21
754.483974596
 31
0.0
  0
LINE
  8
2
  6
CONTINUOUS
 62
     2
 10
1142.47
 20
754.483974596
 30
0.0
 11
1145.705238064
 21
766.558047425
 31
0.0
  0
LINE
  8
2
  6
CONTINUOUS
 62
     2
 10
1142.47
 20
754.483974596
 30
0.0
 11
1139.234761936
 21
766.558047425
 31
0.0
  0
LINE
  8
2
  6
CONTINUOUS
 62
     2
 10
1098.1
 20
754.483974596
 30
0.0
 11
1152.47
 21
754.483974596
 31
0.0
  0
LINE
  8
2
  6
CONTINUOUS
 62
     2
 10
1098.1
 20
799.483974596
 30
0.0
 11
1201.2
 21
799.483974596
 31
0.0
  0
LINE
  8
2
  6
CONTINUOUS
 62
     2
 10
1191.2
 20
799.483974596
 30
0.0
 11
1187.964761936
 21
787.409901768
 31
0.0
  0
LINE
  8
2
  6
CONTINUOUS
 62
     2
 10
1191.2
 20
799.483974596
 30
0.0
 11
1194.435238064
 21
787.409901768
 31
0.0
  0
LINE
  8
2
  6
CONTINUOUS
 62
     2
 10
1191.2
 20
799.483974596
 30
0.0
 11
1191.2
 21
739.483974596
 31
0.0
  0
LINE
  8
2
  6
CONTINUOUS
 62
     2
 10
1191.2
 20
739.483974596
 30
0.0
 11
1194.435238064
 21
751.558047425
 31
0.0
  0
LINE
  8
2
  6
CONTINUOUS
 62
     2
 10
1191.2
 20
739.483974596
 30
0.0
 11
1187.964761936
 21
751.558047425
 31
0.0
  0
LINE
  8
2
  6
CONTINUOUS
 62
     2
 10
1098.1
 20
739.483974596
 30
0.0
 11
1201.2
 21
739.483974596
 31
0.0
  0
LINE
  8
2
  6
CONTINUOUS
 62
     2
 10
1003.1
 20
387.608974596
 30
0.0
 11
1015.174072829
 21
384.373736532
 31
0.0
  0
LINE
  8
2
  6
CONTINUOUS
 62
     2
 10
1003.1
 20
387.608974596
 30
0.0
 11
1015.174072829
 21
390.84421266
 31
0.0
  0
LINE
  8
2
  6
CONTINUOUS
 62
     2
 10
1003.1
 20
387.608974596
 30
0.0
 11
1063.1
 21
387.608974596
 31
0.0
  0
LINE
  8
2
  6
CONTINUOUS
 62
     2
 10
1063.1
 20
387.608974596
 30
0.0
 11
1051.025927171
 21
390.84421266
 31
0.0
  0
LINE
  8
2
  6
CONTINUOUS
 62
     2
 10
1063.1
 20
387.608974596
 30
0.0
 11
1051.025927171
 21
384.373736532
 31
0.0
  0
LINE
  8
2
  6
CONTINUOUS
 62
     2
 10
1063.1
 20
534.733974596
 30
0.0
 11
1063.1
 21
377.608974596
 31
0.0
  0
LINE
  8
2
  6
CONTINUOUS
 62
     2
 10
470.5
 20
352.475
 30
0.0
 11
482.574072829
 21
349.239761936
 31
0.0
  0
LINE
  8
2
  6
CONTINUOUS
 62
     2
 10
470.5
 20
352.475
 30
0.0
 11
482.574072829
 21
355.710238064
 31
0.0
  0
LINE
  8
2
  6
CONTINUOUS
 62
     2
 10
470.5
 20
352.475
 30
0.0
 11
1063.1
 21
352.475
 31
0.0
  0
LINE
  8
2
  6
CONTINUOUS
 62
     2
 10
1063.1
 20
352.475
 30
0.0
 11
1051.025927171
 21
355.710238064
 31
0.0
  0
LINE
  8
2
  6
CONTINUOUS
 62
     2
 10
1063.1
 20
352.475
 30
0.0
 11
1051.025927171
 21
349.239761936
 31
0.0
  0
LINE
  8
2
  6
CONTINUOUS
 62
     2
 10
1063.1
 20
382.608974596
 30
0.0
 11
1063.1
 21
342.475
 31
0.0
  0
LINE
  8
2
  6
CONTINUOUS
 62
     2
 10
273.5
 20
347.475
 30
0.0
 11
273.5
 21
306.908974596
 31
0.0
  0
LINE
  8
2
  6
CONTINUOUS
 62
     2
 10
273.5
 20
316.908974596
 30
0.0
 11
285.574072829
 21
313.673736532
 31
0.0
  0
LINE
  8
2
  6
CONTINUOUS
 62
     2
 10
273.5
 20
316.908974596
 30
0.0
 11
285.574072829
 21
320.14421266
 31
0.0
  0
LINE
  8
2
  6
CONTINUOUS
 62
     2
 10
273.5
 20
316.908974596
 30
0.0
 11
1063.1
 21
316.908974596
 31
0.0
  0
LINE
  8
2
  6
CONTINUOUS
 62
     2
 10
1063.1
 20
316.908974596
 30
0.0
 11
1051.025927171
 21
320.14421266
 31
0.0
  0
LINE
  8
2
  6
CONTINUOUS
 62
     2
 10
1063.1
 20
316.908974596
 30
0.0
 11
1051.025927171
 21
313.673736532
 31
0.0
  0
LINE
  8
2
  6
CONTINUOUS
 62
     2
 10
1063.1
 20
347.475
 30
0.0
 11
1063.1
 21
306.908974596
 31
0.0
  0
LINE
  8
2
  6
CONTINUOUS
 62
     2
 10
1063.1
 20
316.908974596
 30
0.0
 11
1075.174072829
 21
313.673736532
 31
0.0
  0
LINE
  8
2
  6
CONTINUOUS
 62
     2
 10
1063.1
 20
316.908974596
 30
0.0
 11
1075.174072829
 21
320.14421266
 31
0.0
  0
LINE
  8
2
  6
CONTINUOUS
 62
     2
 10
1063.1
 20
316.908974596
 30
0.0
 11
1093.1
 21
316.908974596
 31
0.0
  0
LINE
  8
2
  6
CONTINUOUS
 62
     2
 10
1093.1
 20
316.908974596
 30
0.0
 11
1081.025927171
 21
320.14421266
 31
0.0
  0
LINE
  8
2
  6
CONTINUOUS
 62
     2
 10
1093.1
 20
316.908974596
 30
0.0
 11
1081.025927171
 21
313.673736532
 31
0.0
  0
LINE
  8
2
  6
CONTINUOUS
 62
     2
 10
1093.1
 20
537.733985386
 30
0.0
 11
1093.1
 21
306.908974596
 31
0.0
  0
LINE
  8
0
  6
LTYPE3
 62
     2
 10
1365.3
 20
435.233974596
 30
0.0
 11
1365.3
 21
884.0
 31
0.0
  0
CIRCLE
  8
0
  6
CONTINUOUS
 62
     1
 10
1401.8
 20
564.733974596
 30
0.0
 40
2.0
  0
LINE
  8
0
  6
LTYPE5
 62
     2
 10
1401.7
 20
560.733974596
 30
0.0
 11
1401.7
 21
568.933974596
 31
0.0
  0
LINE
  8
0
  6
CONTINUOUS
 62
     1
 10
1405.8
 20
577.233974596
 30
0.0
 11
1399.8
 21
577.233974596
 31
0.0
  0
LINE
  8
0
  6
LTYPE1
 62
     2
 10
1399.8
 20
577.233974596
 30
0.0
 11
1380.3
 21
577.233974596
 31
0.0
  0
LINE
  8
0
  6
CONTINUOUS
 62
     1
 10
1405.8
 20
552.233974596
 30
0.0
 11
1399.8
 21
552.233974596
 31
0.0
  0
LINE
  8
0
  6
LTYPE1
 62
     2
 10
1399.8
 20
552.233974596
 30
0.0
 11
1380.3
 21
552.233974596
 31
0.0
  0
LINE
  8
0
  6
CONTINUOUS
 62
     1
 10
1399.8
 20
542.733974596
 30
0.0
 11
1395.3
 21
542.733974596
 31
0.0
  0
LINE
  8
0
  6
CONTINUOUS
 62
     1
 10
1399.8
 20
586.733974596
 30
0.0
 11
1395.3
 21
586.733974596
 31
0.0
  0
LINE
  8
0
  6
CONTINUOUS
 62
     1
 10
1380.3
 20
534.733974596
 30
0.0
 11
1380.3
 21
594.733974596
 31
0.0
  0
LINE
  8
0
  6
CONTINUOUS
 62
     1
 10
1395.3
 20
534.733974596
 30
0.0
 11
1395.3
 21
594.733974596
 31
0.0
  0
LINE
  8
0
  6
CONTINUOUS
 62
     1
 10
1399.8
 20
542.733974596
 30
0.0
 11
1399.8
 21
586.733974596
 31
0.0
  0
LINE
  8
0
  6
CONTINUOUS
 62
     1
 10
1405.8
 20
552.233974596
 30
0.0
 11
1405.8
 21
577.233974596
 31
0.0
  0
LINE
  8
0
  6
CONTINUOUS
 62
     1
 10
1395.3
 20
594.733974596
 30
0.0
 11
1365.3
 21
594.733974596
 31
0.0
  0
LINE
  8
0
  6
CONTINUOUS
 62
     1
 10
1380.3
 20
577.233974596
 30
0.0
 11
1365.3
 21
577.233974596
 31
0.0
  0
LINE
  8
0
  6
CONTINUOUS
 62
     1
 10
1380.3
 20
552.233974596
 30
0.0
 11
1365.3
 21
552.233974596
 31
0.0
  0
LINE
  8
0
  6
CONTINUOUS
 62
     1
 10
1395.3
 20
534.733974596
 30
0.0
 11
1365.3
 21
534.733974596
 31
0.0
  0
CIRCLE
  8
0
  6
CONTINUOUS
 62
     1
 10
1328.8
 20
564.733974596
 30
0.0
 40
2.0
  0
LINE
  8
0
  6
LTYPE5
 62
     2
 10
1328.9
 20
560.733974596
 30
0.0
 11
1328.9
 21
568.933974596
 31
0.0
  0
LINE
  8
0
  6
CONTINUOUS
 62
     1
 10
1324.8
 20
577.233974596
 30
0.0
 11
1330.8
 21
577.233974596
 31
0.0
  0
LINE
  8
0
  6
LTYPE1
 62
     2
 10
1330.8
 20
577.233974596
 30
0.0
 11
1350.3
 21
577.233974596
 31
0.0
  0
LINE
  8
0
  6
CONTINUOUS
 62
     1
 10
1324.8
 20
552.233974596
 30
0.0
 11
1330.8
 21
552.233974596
 31
0.0
  0
LINE
  8
0
  6
LTYPE1
 62
     2
 10
1330.8
 20
552.233974596
 30
0.0
 11
1350.3
 21
552.233974596
 31
0.0
  0
LINE
  8
0
  6
CONTINUOUS
 62
     1
 10
1330.8
 20
542.733974596
 30
0.0
 11
1335.3
 21
542.733974596
 31
0.0
  0
LINE
  8
0
  6
CONTINUOUS
 62
     1
 10
1330.8
 20
586.733974596
 30
0.0
 11
1335.3
 21
586.733974596
 31
0.0
  0
LINE
  8
0
  6
CONTINUOUS
 62
     1
 10
1350.3
 20
534.733974596
 30
0.0
 11
1350.3
 21
594.733974596
 31
0.0
  0
LINE
  8
0
  6
CONTINUOUS
 62
     1
 10
1335.3
 20
534.733974596
 30
0.0
 11
1335.3
 21
594.733974596
 31
0.0
  0
LINE
  8
0
  6
CONTINUOUS
 62
     1
 10
1330.8
 20
542.733974596
 30
0.0
 11
1330.8
 21
586.733974596
 31
0.0
  0
LINE
  8
0
  6
CONTINUOUS
 62
     1
 10
1324.8
 20
552.233974596
 30
0.0
 11
1324.8
 21
577.233974596
 31
0.0
  0
LINE
  8
0
  6
CONTINUOUS
 62
     1
 10
1335.3
 20
594.733974596
 30
0.0
 11
1365.3
 21
594.733974596
 31
0.0
  0
LINE
  8
0
  6
CONTINUOUS
 62
     1
 10
1350.3
 20
577.233974596
 30
0.0
 11
1365.3
 21
577.233974596
 31
0.0
  0
LINE
  8
0
  6
CONTINUOUS
 62
     1
 10
1350.3
 20
552.233974596
 30
0.0
 11
1365.3
 21
552.233974596
 31
0.0
  0
LINE
  8
0
  6
CONTINUOUS
 62
     1
 10
1335.3
 20
534.733974596
 30
0.0
 11
1365.3
 21
534.733974596
 31
0.0
  0
LINE
  8
2
  6
CONTINUOUS
 62
     2
 10
906.6474715
 20
639.733974596
 30
0.0
 11
842.0
 21
639.733974596
 31
0.0
  0
LINE
  8
2
  6
CONTINUOUS
 62
     2
 10
852.0
 20
639.733974596
 30
0.0
 11
848.764761936
 21
627.659901768
 31
0.0
  0
LINE
  8
2
  6
CONTINUOUS
 62
     2
 10
852.0
 20
639.733974596
 30
0.0
 11
855.235238064
 21
627.659901768
 31
0.0
  0
LINE
  8
2
  6
CONTINUOUS
 62
     2
 10
852.0
 20
639.733974596
 30
0.0
 11
852.0
 21
489.733974596
 31
0.0
  0
LINE
  8
2
  6
CONTINUOUS
 62
     2
 10
852.0
 20
489.733974596
 30
0.0
 11
855.235238064
 21
501.808047425
 31
0.0
  0
LINE
  8
2
  6
CONTINUOUS
 62
     2
 10
852.0
 20
489.733974596
 30
0.0
 11
848.764761936
 21
501.808047425
 31
0.0
  0
LINE
  8
2
  6
CONTINUOUS
 62
     2
 10
906.6474715
 20
489.733974596
 30
0.0
 11
842.0
 21
489.733974596
 31
0.0
  0
LINE
  8
0
  6
LTYPE2
 62
     2
 10
1128.5
 20
564.733974596
 30
0.0
 11
852.6474715
 21
564.733974596
 31
0.0
  0
LINE
  8
0
  6
LTYPE2
 62
     2
 10
824.6474715
 20
564.733974596
 30
0.0
 11
704.1
 21
564.733974596
 31
0.0
  0
ARC
  8
0
  6
CONTINUOUS
 62
     1
 10
1365.3
 20
729.733974596
 30
0.0
 40
105.0
 50
248.960530219
 51
250.314945175
  0
ARC
  8
0
  6
CONTINUOUS
 62
     1
 10
1365.3
 20
729.733974596
 30
0.0
 40
105.0
 50
289.685054825
 51
291.039469781
  0
ARC
  8
0
  6
CONTINUOUS
 62
     1
 10
1418.3
 20
617.733974596
 30
0.0
 40
9.0
 50
0.0
 51
138.144191404
  0
ARC
  8
0
  6
CONTINUOUS
 62
     1
 10
1418.3
 20
617.733974596
 30
0.0
 40
9.0
 50
311.855808596
 51
0.0
  0
ARC
  8
0
  6
CONTINUOUS
 62
     1
 10
1312.3
 20
617.733974596
 30
0.0
 40
9.0
 50
41.855808596
 51
228.144191404
  0
LINE
  8
0
  6
CONTINUOUS
 62
     1
 10
1270.3
 20
587.733974596
 30
0.0
 11
1294.960476335
 21
590.759950286
 31
0.0
  0
LINE
  8
0
  6
CONTINUOUS
 62
     1
 10
1298.3
 20
598.438573689
 30
0.0
 11
1298.3
 21
623.733974596
 31
0.0
  0
LINE
  8
0
  6
CONTINUOUS
 62
     1
 10
1270.3
 20
541.733974596
 30
0.0
 11
1294.960476335
 21
538.707998907
 31
0.0
  0
LINE
  8
0
  6
CONTINUOUS
 62
     1
 10
1298.3
 20
505.733974596
 30
0.0
 11
1298.3
 21
531.029375504
 31
0.0
  0
ARC
  8
0
  6
CONTINUOUS
 62
     1
 10
1312.3
 20
511.733974596
 30
0.0
 40
9.0
 50
131.855808596
 51
318.144191404
  0
LINE
  8
0
  6
CONTINUOUS
 62
     1
 10
1320.3
 20
498.733974596
 30
0.0
 11
1320.3
 21
504.733974596
 31
0.0
  0
ARC
  8
0
  6
CONTINUOUS
 62
     1
 10
1365.3
 20
564.733974596
 30
0.0
 40
75.0
 50
241.642363424
 51
0.0
  0
ARC
  8
0
  6
CONTINUOUS
 62
     1
 10
1365.3
 20
564.733974596
 30
0.0
 40
75.0
 50
0.0
 51
241.642363424
  0
LINE
  8
0
  6
CONTINUOUS
 62
     1
 10
1317.3
 20
497.233974596
 30
0.0
 11
1332.608257923
 21
497.233974596
 31
0.0
  0
LINE
  8
0
  6
CONTINUOUS
 62
     1
 10
1397.991742077
 20
497.233974596
 30
0.0
 11
1413.3
 21
497.233974596
 31
0.0
  0
LINE
  8
0
  6
CONTINUOUS
 62
     1
 10
1410.3
 20
498.733974596
 30
0.0
 11
1410.3
 21
504.733974596
 31
0.0
  0
ARC
  8
0
  6
CONTINUOUS
 62
     1
 10
1418.3
 20
511.733974596
 30
0.0
 40
9.0
 50
221.855808596
 51
48.144191404
  0
LINE
  8
0
  6
CONTINUOUS
 62
     1
 10
1460.3
 20
541.733974596
 30
0.0
 11
1435.639523665
 21
538.707998907
 31
0.0
  0
LINE
  8
0
  6
CONTINUOUS
 62
     1
 10
1432.3
 20
505.733974596
 30
0.0
 11
1432.3
 21
531.029375504
 31
0.0
  0
LINE
  8
0
  6
CONTINUOUS
 62
     1
 10
1460.3
 20
587.733974596
 30
0.0
 11
1435.639523665
 21
590.759950286
 31
0.0
  0
LINE
  8
0
  6
CONTINUOUS
 62
     1
 10
1432.3
 20
598.438573689
 30
0.0
 11
1432.3
 21
623.733974596
 31
0.0
  0
LINE
  8
0
  6
CONTINUOUS
 62
     1
 10
1320.3
 20
498.733974596
 30
0.0
 11
1329.676973739
 21
498.733974596
 31
0.0
  0
LINE
  8
0
  6
CONTINUOUS
 62
     1
 10
1400.923026261
 20
498.733974596
 30
0.0
 11
1410.3
 21
498.733974596
 31
0.0
  0
LINE
  8
0
  6
CONTINUOUS
 62
     1
 10
1003.1
 20
534.733974596
 30
0.0
 11
937.9
 21
534.733974596
 31
0.0
  0
LINE
  8
0
  6
CONTINUOUS
 62
     1
 10
983.099998651
 20
506.733974596
 30
0.0
 11
983.099998651
 21
534.733974596
 31
0.0
  0
LINE
  8
7
  6
CONTINUOUS
 62
     2
 10
937.9
 20
500.183974596
 30
0.0
 11
937.9
 21
382.833974596
 31
0.0
  0
LINE
  8
7
  6
CONTINUOUS
 62
     2
 10
1003.1
 20
497.233974596
 30
0.0
 11
1003.1
 21
382.833974596
 31
0.0
  0
LINE
  8
0
  6
LTYPE5
 62
     2
 10
1483.0
 20
564.733974596
 30
0.0
 11
1327.3
 21
564.733974596
 31
0.0
  0
LINE
  8
0
  6
LTYPE5
 62
     2
 10
1262.0
 20
564.733974596
 30
0.0
 11
1403.3
 21
564.733974596
 31
0.0
  0
LINE
  8
0
  6
CONTINUOUS
 62
     2
 10
1543.3
 20
445.733974596
 30
0.0
 11
1546.535238064
 21
457.808047425
 31
0.0
  0
LINE
  8
0
  6
CONTINUOUS
 62
     2
 10
1543.3
 20
445.733974596
 30
0.0
 11
1540.064761936
 21
457.808047425
 31
0.0
  0
LINE
  8
0
  6
CONTINUOUS
 62
     2
 10
1548.3
 20
445.733974596
 30
0.0
 11
1581.05
 21
445.733974596
 31
0.0
  0
LINE
  8
0
  6
CONTINUOUS
 62
     2
 10
1543.3
 20
564.733974596
 30
0.0
 11
1540.064761936
 21
552.659901768
 31
0.0
  0
LINE
  8
0
  6
CONTINUOUS
 62
     2
 10
1543.3
 20
564.733974596
 30
0.0
 11
1546.535238064
 21
552.659901768
 31
0.0
  0
LINE
  8
0
  6
CONTINUOUS
 62
     2
 10
1543.3
 20
564.733974596
 30
0.0
 11
1543.3
 21
445.733974596
 31
0.0
  0
LINE
  8
0
  6
CONTINUOUS
 62
     2
 10
1543.3
 20
564.733974596
 30
0.0
 11
1546.535238064
 21
576.808047425
 31
0.0
  0
LINE
  8
0
  6
CONTINUOUS
 62
     2
 10
1543.3
 20
564.733974596
 30
0.0
 11
1540.064761936
 21
576.808047425
 31
0.0
  0
LINE
  8
0
  6
CONTINUOUS
 62
     2
 10
1543.3
 20
564.733974596
 30
0.0
 11
1543.3
 21
740.733974596
 31
0.0
  0
LINE
  8
0
  6
CONTINUOUS
 62
     2
 10
1543.3
 20
740.733974596
 30
0.0
 11
1540.064761936
 21
728.659901768
 31
0.0
  0
LINE
  8
0
  6
CONTINUOUS
 62
     2
 10
1543.3
 20
740.733974596
 30
0.0
 11
1546.535238064
 21
728.659901768
 31
0.0
  0
LINE
  8
7
  6
CONTINUOUS
 62
     2
 10
1543.3
 20
740.733974596
 30
0.0
 11
1546.535238064
 21
752.808047425
 31
0.0
  0
LINE
  8
7
  6
CONTINUOUS
 62
     2
 10
1543.3
 20
740.733974596
 30
0.0
 11
1540.064761936
 21
752.808047425
 31
0.0
  0
LINE
  8
7
  6
CONTINUOUS
 62
     2
 10
1575.0
 20
445.733974596
 30
0.0
 11
1578.235238064
 21
457.808047425
 31
0.0
  0
LINE
  8
7
  6
CONTINUOUS
 62
     2
 10
1575.0
 20
445.733974596
 30
0.0
 11
1571.764761936
 21
457.808047425
 31
0.0
  0
LINE
  8
0
  6
CONTINUOUS
 62
     2
 10
1508.8
 20
577.233974596
 30
0.0
 11
1512.035238064
 21
589.308047425
 31
0.0
  0
LINE
  8
0
  6
CONTINUOUS
 62
     2
 10
1508.8
 20
577.233974596
 30
0.0
 11
1505.564761936
 21
589.308047425
 31
0.0
  0
LINE
  8
0
  6
CONTINUOUS
 62
     2
 10
1508.8
 20
552.233974596
 30
0.0
 11
1505.564761936
 21
540.159901768
 31
0.0
  0
LINE
  8
0
  6
CONTINUOUS
 62
     2
 10
1508.8
 20
552.233974596
 30
0.0
 11
1512.035238064
 21
540.159901768
 31
0.0
  0
LINE
  8
0
  6
CONTINUOUS
 62
     2
 10
1508.8
 20
751.933974596
 30
0.0
 11
1508.8
 21
527.233974596
 31
0.0
  0
LINE
  8
0
  6
CONTINUOUS
 62
     2
 10
1516.5
 20
577.233974596
 30
0.0
 11
1463.7
 21
577.233974596
 31
0.0
  0
LINE
  8
0
  6
CONTINUOUS
 62
     2
 10
1518.5
 20
552.233974596
 30
0.0
 11
1464.7
 21
552.233974596
 31
0.0
  0
LINE
  8
0
  6
CONTINUOUS
 62
     2
 10
1486.6
 20
564.733974596
 30
0.0
 11
1548.3
 21
564.733974596
 31
0.0
  0
LINE
  8
7
  6
CONTINUOUS
 62
     2
 10
1543.3
 20
877.733974596
 30
0.0
 11
1540.064761936
 21
865.659901768
 31
0.0
  0
LINE
  8
7
  6
CONTINUOUS
 62
     2
 10
1543.3
 20
877.733974596
 30
0.0
 11
1546.535238064
 21
865.659901768
 31
0.0
  0
LINE
  8
7
  6
CONTINUOUS
 62
     2
 10
1575.0
 20
877.733974596
 30
0.0
 11
1571.764761936
 21
865.659901768
 31
0.0
  0
LINE
  8
7
  6
CONTINUOUS
 62
     2
 10
1575.0
 20
877.733974596
 30
0.0
 11
1578.235238064
 21
865.659901768
 31
0.0
  0
LINE
  8
7
  6
CONTINUOUS
 62
     2
 10
1543.3
 20
740.733974596
 30
0.0
 11
1543.3
 21
877.733974596
 31
0.0
  0
LINE
  8
7
  6
CONTINUOUS
 62
     2
 10
1575.0
 20
445.733974596
 30
0.0
 11
1575.0
 21
877.733974596
 31
0.0
  0
TEXT
  8
0
  6
CONTINUOUS
 62
     2
 10
569.5
 20
408.733974596
 30
0.0
 40
18.0
  1
推力リミッタ
 50
0.0
 41
0.9
 51
0.0
  7
KANJI19
  0
TEXT
  8
0
  6
CONTINUOUS
 62
     2
 10
695.15
 20
397.233974596
 30
0.0
 40
18.0
  1
Ｃ
 50
0.0
 41
0.9
 51
0.0
  7
KANJI19
  0
TEXT
  8
0
  6
CONTINUOUS
 62
     2
 10
721.75
 20
357.608974596
 30
0.0
 40
18.0
  1
ｍｉｎ．Ｌ
 50
0.0
 41
0.9
 51
0.0
  7
KANJI19
  0
TEXT
  8
0
  6
CONTINUOUS
 62
     2
 10
615.75
 20
322.108974596
 30
0.0
 40
18.0
  1
ｍｉｎ．ＡＬ
 50
0.0
 41
0.9
 51
0.0
  7
KANJI19
  0
TEXT
  8
0
  6
CONTINUOUS
 62
     2
 10
1342.8
 20
353.733974596
 30
0.0
 40
18.0
  1
１８５
 50
0.0
 41
0.9
 51
0.0
  7
KANJI19
  0
TEXT
  8
0
  6
CONTINUOUS
 62
     2
 10
1342.8
 20
303.733974596
 30
0.0
 40
18.0
  1
１９０
 50
0.0
 41
0.9
 51
0.0
  7
KANJI19
  0
TEXT
  8
0
  6
CONTINUOUS
 62
     2
 10
656.0
 20
444.233974596
 30
0.0
 40
18.0
  1
ＰＦ１／２
 50
0.0
 41
0.9
 51
0.0
  7
KANJI19
  0
TEXT
  8
7
  6
CONTINUOUS
 62
     2
 10
350.75
 20
357.475
 30
0.0
 40
18.0
  1
１９７
 50
0.0
 41
0.9
 51
0.0
  7
KANJI19
  0
TEXT
  8
0
  6
CONTINUOUS
 62
     2
 10
804.5
 20
703.733974596
 30
0.0
 40
18.0
  1
給脂口
 50
0.0
 41
0.9
 51
0.0
  7
KANJI19
  0
TEXT
  8
0
  6
CONTINUOUS
 62
     2
 10
747.3
 20
908.333974596
 30
0.0
 40
18.0
  1
手動開放装置
 50
0.0
 41
0.9
 51
0.0
  7
KANJI19
  0
TEXT
  8
0
  6
CONTINUOUS
 62
     2
 10
560.18
 20
899.093974596
 30
0.0
 40
18.0
  1
ＰＦ３／４
 50
0.0
 41
0.9
 51
0.0
  7
KANJI19
  0
TEXT
  8
2
  6
CONTINUOUS
 62
     2
 10
718.0
 20
701.133974596
 30
0.0
 40
18.0
  1
φ１４２
 50
90.0
 41
0.9
 51
0.0
  7
KANJI19
  0
TEXT
  8
2
  6
CONTINUOUS
 62
     2
 10
304.0
 20
392.608974596
 30
0.0
 40
18.0
  1
１１２
 50
0.0
 41
0.9
 51
0.0
  7
KANJI19
  0
TEXT
  8
2
  6
CONTINUOUS
 62
     2
 10
411.25
 20
392.608974596
 30
0.0
 40
18.0
  1
８５
 50
0.0
 41
0.9
 51
0.0
  7
KANJI19
  0
TEXT
  8
7
  6
CONTINUOUS
 62
     2
 10
1109.5
 20
438.583974596
 30
0.0
 40
18.0
  1
φ２５Ｈ１０
 50
0.0
 41
0.9
 51
0.0
  7
KANJI19
  0
TEXT
  8
0
  6
CONTINUOUS
 62
     2
 10
1154.5
 20
412.583974596
 30
0.0
 40
18.0
  1
ｄ９
 50
0.0
 41
0.9
 51
0.0
  7
KANJI19
  0
TEXT
  8
2
  6
CONTINUOUS
 62
     2
 10
1016.35
 20
392.608974596
 30
0.0
 40
18.0
  1
６０
 50
0.0
 41
0.9
 51
0.0
  7
KANJI19
  0
TEXT
  8
2
  6
CONTINUOUS
 62
     2
 10
1061.35
 20
321.908974596
 30
0.0
 40
18.0
  1
３０
 50
0.0
 41
0.9
 51
0.0
  7
KANJI19
  0
TEXT
  8
2
  6
CONTINUOUS
 62
     2
 10
1179.4
 20
547.983974596
 30
0.0
 40
18.0
  1
６０
 50
90.0
 41
0.9
 51
0.0
  7
KANJI19
  0
TEXT
  8
2
  6
CONTINUOUS
 62
     2
 10
684.5
 20
528.333974596
 30
0.0
 40
18.0
  1
φ１１０
 50
90.0
 41
0.9
 51
0.0
  7
KANJI19
  0
TEXT
  8
2
  6
CONTINUOUS
 62
     2
 10
1186.2
 20
752.733974596
 30
0.0
 40
18.0
  1
６０
 50
90.0
 41
0.9
 51
0.0
  7
KANJI19
  0
TEXT
  8
2
  6
CONTINUOUS
 62
     2
 10
1137.47
 20
752.733974596
 30
0.0
 40
18.0
  1
３０
 50
90.0
 41
0.9
 51
0.0
  7
KANJI19
  0
TEXT
  8
2
  6
CONTINUOUS
 62
     2
 10
1023.85
 20
662.683974596
 30
0.0
 40
18.0
  1
４５
 50
0.0
 41
0.9
 51
0.0
  7
KANJI19
  0
TEXT
  8
2
  6
CONTINUOUS
 62
     2
 10
950.85
 20
662.683974596
 30
0.0
 40
18.0
  1
１５
 50
0.0
 41
0.9
 51
0.0
  7
KANJI19
  0
TEXT
  8
2
  6
CONTINUOUS
 62
     2
 10
847.0
 20
530.483974596
 30
0.0
 40
18.0
  1
φ１５０
 50
90.0
 41
0.9
 51
0.0
  7
KANJI19
  0
TEXT
  8
7
  6
CONTINUOUS
 62
     2
 10
938.75
 20
392.608974596
 30
0.0
 40
18.0
  1
ｍｉｎ．Ｐ
 50
0.0
 41
0.9
 51
0.0
  7
KANJI19
  0
TEXT
  8
0
  6
CONTINUOUS
 62
     2
 10
1538.3
 20
482.733974596
 30
0.0
 40
18.0
  1
１１９
 50
90.0
 41
0.9
 51
0.0
  7
KANJI19
  0
TEXT
  8
0
  6
CONTINUOUS
 62
     2
 10
1538.3
 20
630.233974596
 30
0.0
 40
18.0
  1
１７６
 50
90.0
 41
0.9
 51
0.0
  7
KANJI19
  0
TEXT
  8
0
  6
CONTINUOUS
 62
     2
 10
1503.8
 20
585.233974596
 30
0.0
 40
18.0
  1
φ２５Ｈ１０深さ３０
 50
90.0
 41
0.9
 51
0.0
  7
KANJI19
  0
TEXT
  8
7
  6
CONTINUOUS
 62
     2
 10
1538.3
 20
796.483974596
 30
0.0
 40
18.0
  1
１３７
 50
90.0
 41
0.9
 51
0.0
  7
KANJI19
  0
TEXT
  8
7
  6
CONTINUOUS
 62
     2
 10
1570.0
 20
648.983974596
 30
0.0
 40
18.0
  1
４３２
 50
90.0
 41
0.9
 51
0.0
  7
KANJI19
  0
TEXT
  8
0
  6
CONTINUOUS
 62
     2
 10
1861.92
 20
251.7
 30
0.0
 40
21.0
  1
ＭＣＬＤ２Ｃ－Ｊ
 50
0.0
 41
0.793650794
 51
0.0
  7
KANJI20
  0
TEXT
  8
0
  6
CONTINUOUS
 62
     2
 10
1976.7200334
 20
155.699994
 30
13.0
 40
30.0
  1
３００２４７７
 50
0.0
 41
0.8
 51
0.0
  7
KANJI21
  0
TEXT
  8
0
  6
CONTINUOUS
 62
     2
 10
176.4
 20
26.4
 30
0.0
 40
18.0
  1
ＦＤ　Ｎｏ．ＭＣ１９６
 50
0.0
 41
0.9
 51
0.0
  7
KANJI22
  0
TEXT
  8
0
  6
CONTINUOUS
 62
     2
 10
460.540009455
 20
716.833974596
 30
0.0
 40
18.0
  1
日本電産
 50
0.0
 41
0.9
 51
0.0
  7
KANJI19
  0
TEXT
  8
0
  6
CONTINUOUS
 62
     2
 10
460.540009455
 20
693.833974596
 30
0.0
 40
18.0
  1
エコノストップモータ
 50
0.0
 41
0.9
 51
0.0
  7
KANJI19
  0
LINE
  8
0
  6
CONTINUOUS
 62
     1
 10
515.3
 20
445.733974596
 30
0.0
 11
504.7
 21
445.733974596
 31
0.0
  0
ARC
  8
0
  6
CONTINUOUS
 62
     1
 10
510.4
 20
446.733974596
 30
0.0
 40
5.0
 50
272.3
 51
348.5
  0
ARC
  8
0
  6
CONTINUOUS
 62
     1
 10
509.6
 20
446.733974596
 30
0.0
 40
5.0
 50
191.5
 51
267.7
  0
LINE
  8
0
  6
CONTINUOUS
 62
     1
 10
510.6
 20
441.733974596
 30
0.0
 11
509.4
 21
441.733974596
 31
0.0
  0
LINE
  8
0
  6
LTYPE6
 62
     2
 10
510.0
 20
438.333974596
 30
0.0
 11
510.0
 21
451.733974596
 31
0.0
  0
LINE
  8
0
  6
CONTINUOUS
 62
     1
 10
626.3
 20
445.733974596
 30
0.0
 11
615.7
 21
445.733974596
 31
0.0
  0
ARC
  8
0
  6
CONTINUOUS
 62
     1
 10
621.4
 20
446.733974596
 30
0.0
 40
5.0
 50
272.3
 51
348.5
  0
ARC
  8
0
  6
CONTINUOUS
 62
     1
 10
620.6
 20
446.733974596
 30
0.0
 40
5.0
 50
191.5
 51
267.7
  0
LINE
  8
0
  6
CONTINUOUS
 62
     1
 10
621.6
 20
441.733974596
 30
0.0
 11
620.4
 21
441.733974596
 31
0.0
  0
LINE
  8
0
  6
LTYPE6
 62
     2
 10
621.0
 20
438.333974596
 30
0.0
 11
621.0
 21
451.733974596
 31
0.0
  0
LINE
  8
0
  6
CONTINUOUS
 62
     1
 10
1325.6
 20
445.733974596
 30
0.0
 11
1315.0
 21
445.733974596
 31
0.0
  0
ARC
  8
0
  6
CONTINUOUS
 62
     1
 10
1320.7
 20
446.733974596
 30
0.0
 40
5.0
 50
272.3
 51
348.5
  0
ARC
  8
0
  6
CONTINUOUS
 62
     1
 10
1319.9
 20
446.733974596
 30
0.0
 40
5.0
 50
191.5
 51
267.7
  0
LINE
  8
0
  6
CONTINUOUS
 62
     1
 10
1320.9
 20
441.733974596
 30
0.0
 11
1319.7
 21
441.733974596
 31
0.0
  0
LINE
  8
0
  6
LTYPE6
 62
     2
 10
1320.3
 20
438.333974596
 30
0.0
 11
1320.3
 21
451.733974596
 31
0.0
  0
LINE
  8
0
  6
CONTINUOUS
 62
     1
 10
1415.6
 20
445.733974596
 30
0.0
 11
1405.0
 21
445.733974596
 31
0.0
  0
ARC
  8
0
  6
CONTINUOUS
 62
     1
 10
1410.7
 20
446.733974596
 30
0.0
 40
5.0
 50
272.3
 51
348.5
  0
ARC
  8
0
  6
CONTINUOUS
 62
     1
 10
1409.9
 20
446.733974596
 30
0.0
 40
5.0
 50
191.5
 51
267.7
  0
LINE
  8
0
  6
CONTINUOUS
 62
     1
 10
1410.9
 20
441.733974596
 30
0.0
 11
1409.7
 21
441.733974596
 31
0.0
  0
LINE
  8
0
  6
LTYPE6
 62
     2
 10
1410.3
 20
438.333974596
 30
0.0
 11
1410.3
 21
451.733974596
 31
0.0
  0
LINE
  8
0
  6
CONTINUOUS
 62
     6
 10
356.629425053
 20
1631.447759827
 30
0.0
 11
124.584646507
 21
1631.447759827
 31
0.0
  0
LINE
  8
0
  6
CONTINUOUS
 62
     3
 10
356.629425053
 20
1603.985259827
 30
0.0
 11
124.584646507
 21
1603.985259827
 31
0.0
  0
LINE
  8
0
  6
CONTINUOUS
 62
     6
 10
356.629425053
 20
1603.985259827
 30
0.0
 11
124.584646507
 21
1603.985259827
 31
0.0
  0
TEXT
  8
0
  6
CONTINUOUS
 62
     6
 10
382.212228
 20
1628.900410728
 30
1.232517
 40
13.182
  1
電気定格　　　
 50
0.0
 41
0.85
 51
0.0
  7
KANJI23
  0
TEXT
  8
0
  6
CONTINUOUS
 62
     6
 10
128.493517202
 20
1634.64592676
 30
1.0647
 40
11.661
  1
ＬＳ０１　　　：推力リミッタ（前進時過負荷用）
 50
0.0
 41
0.822608696
 51
0.0
  7
KANJI24
  0
TEXT
  8
0
  6
CONTINUOUS
 62
     6
 10
128.493517202
 20
1607.18342676
 30
1.0647
 40
11.661
  1
ＬＳ０２　　　：推力リミッタ（後進時過負荷用）
 50
0.0
 41
0.822608696
 51
0.0
  7
KANJI24
  0
TEXT
  8
0
  6
CONTINUOUS
 62
     6
 10
395.013715102
 20
1598.326958599
 30
0.0
 40
11.8638
  1
ＤＣ１２５Ｖ　０．６Ａ　，ＤＣ２５０Ｖ　０．３Ａ　
 50
0.0
 41
0.726495726
 51
0.0
  7
KANJI25
  0
LINE
  8
0
  6
LTYPE3
 62
     6
 10
655.02
 20
1658.9
 30
0.0
 11
106.62
 21
1658.9
 31
0.0
  0
TEXT
  8
0
  6
CONTINUOUS
 62
     6
 10
389.757132178
 20
1646.661726126
 30
0.0
 40
45.0
  1
｝
 50
0.0
 41
0.538166667
 51
0.0
  7
KANJI26
  0
TEXT
  8
0
  6
CONTINUOUS
 62
     6
 10
319.632791539
 20
1417.92382165
 30
0.0
 40
17.740702234
  1
端子台　接続図
 50
0.0
 41
0.880962996
 51
0.0
  7
KANJI27
  0
LINE
  8
0
  6
LTYPE3
 62
     6
 10
655.02
 20
1399.9
 30
0.0
 11
655.02
 21
1658.9
 31
0.0
  0
LINE
  8
0
  6
LTYPE3
 62
     6
 10
106.62
 20
1399.9
 30
0.0
 11
655.02
 21
1399.9
 31
0.0
  0
LINE
  8
0
  6
LTYPE3
 62
     6
 10
106.62
 20
1658.9
 30
0.0
 11
106.62
 21
1399.9
 31
0.0
  0
LINE
  8
0
  6
CONTINUOUS
 62
     2
 10
354.597373465
 20
1468.928121884
 30
0.0
 11
354.597373465
 21
1446.149155128
 31
0.0
  0
LINE
  8
0
  6
CONTINUOUS
 62
     2
 10
381.17283468
 20
1468.928121884
 30
0.0
 11
381.17283468
 21
1446.149155128
 31
0.0
  0
LINE
  8
0
  6
CONTINUOUS
 62
     2
 10
407.748295894
 20
1468.928121884
 30
0.0
 11
407.748295894
 21
1446.149155128
 31
0.0
  0
LINE
  8
0
  6
CONTINUOUS
 62
     2
 10
434.323757109
 20
1468.928121884
 30
0.0
 11
434.323757109
 21
1446.149155128
 31
0.0
  0
CIRCLE
  8
0
  6
CONTINUOUS
 62
     6
 10
426.404269667
 20
1492.407921517
 30
0.0
 40
4.100214016
  0
LINE
  8
0
  6
CONTINUOUS
 62
     6
 10
422.304055651
 20
1492.407921517
 30
0.0
 11
421.036026502
 21
1492.407921517
 31
0.0
  0
LINE
  8
0
  6
CONTINUOUS
 62
     6
 10
447.358027433
 20
1506.094562742
 30
0.0
 11
443.443558096
 21
1483.759507138
 31
0.0
  0
LINE
  8
0
  6
CONTINUOUS
 62
     6
 10
442.631699663
 20
1506.882284037
 30
0.0
 11
438.716922494
 21
1484.547279739
 31
0.0
  0
LINE
  8
0
  6
CONTINUOUS
 62
     6
 10
443.443558096
 20
1483.759507138
 30
0.0
 11
438.716922494
 21
1484.547279739
 31
0.0
  0
CIRCLE
  8
0
  6
CONTINUOUS
 62
     6
 10
447.611487717
 20
1482.939464335
 30
0.0
 40
4.100214016
  0
LINE
  8
0
  6
CONTINUOUS
 62
     6
 10
447.611487717
 20
1478.839250319
 30
0.0
 11
447.611487717
 21
1468.928121884
 31
0.0
  0
LINE
  8
0
  6
CONTINUOUS
 62
     6
 10
421.036026502
 20
1492.407921517
 30
0.0
 11
421.036026502
 21
1468.928121884
 31
0.0
  0
LINE
  8
0
  6
CONTINUOUS
 62
     6
 10
394.460565287
 20
1468.928121884
 30
0.0
 11
394.460565287
 21
1522.633332504
 31
0.0
  0
LINE
  8
0
  6
CONTINUOUS
 62
     6
 10
314.987641926
 20
1506.094562742
 30
0.0
 11
318.902111263
 21
1483.759507138
 31
0.0
  0
LINE
  8
0
  6
CONTINUOUS
 62
     6
 10
319.713969696
 20
1506.882284037
 30
0.0
 11
323.628746865
 21
1484.547279739
 31
0.0
  0
LINE
  8
0
  6
CONTINUOUS
 62
     6
 10
318.902111263
 20
1483.759507138
 30
0.0
 11
323.628746865
 21
1484.547279739
 31
0.0
  0
CIRCLE
  8
0
  6
CONTINUOUS
 62
     6
 10
314.734181642
 20
1482.939464335
 30
0.0
 40
4.100214016
  0
CIRCLE
  8
0
  6
CONTINUOUS
 62
     6
 10
335.941399692
 20
1492.407921517
 30
0.0
 40
4.100214016
  0
LINE
  8
0
  6
CONTINUOUS
 62
     6
 10
340.041613708
 20
1492.407921517
 30
0.0
 11
341.309642857
 21
1492.407921517
 31
0.0
  0
LINE
  8
0
  6
CONTINUOUS
 62
     6
 10
314.734181642
 20
1478.839250319
 30
0.0
 11
314.734181642
 21
1468.928121884
 31
0.0
  0
LINE
  8
0
  6
CONTINUOUS
 62
     6
 10
341.309642857
 20
1492.407921517
 30
0.0
 11
341.309642857
 21
1468.928121884
 31
0.0
  0
LINE
  8
0
  6
CONTINUOUS
 62
     6
 10
367.885104072
 20
1468.928121884
 30
0.0
 11
367.885104072
 21
1522.633332504
 31
0.0
  0
LINE
  8
0
  6
CONTINUOUS
 62
     2
 10
460.899218324
 20
1468.928121884
 30
0.0
 11
460.899218324
 21
1446.149155128
 31
0.0
  0
LINE
  8
0
  6
CONTINUOUS
 62
     2
 10
301.446451035
 20
1468.928121884
 30
0.0
 11
301.446451035
 21
1446.149155128
 31
0.0
  0
LINE
  8
0
  6
CONTINUOUS
 62
     2
 10
328.02191225
 20
1468.928121884
 30
0.0
 11
328.02191225
 21
1446.149155128
 31
0.0
  0
LINE
  8
0
  6
CONTINUOUS
 62
     6
 10
447.611487717
 20
1522.633332504
 30
0.0
 11
394.460565287
 21
1522.633332504
 31
0.0
  0
CIRCLE
  8
0
  6
CONTINUOUS
 62
     6
 10
447.611487717
 20
1510.28941042
 30
0.0
 40
4.100214016
  0
LINE
  8
0
  6
CONTINUOUS
 62
     6
 10
447.358027433
 20
1506.094562742
 30
0.0
 11
442.631699663
 21
1506.882284037
 31
0.0
  0
LINE
  8
0
  6
CONTINUOUS
 62
     6
 10
447.611487717
 20
1514.389624436
 30
0.0
 11
447.611487717
 21
1522.633332504
 31
0.0
  0
CIRCLE
  8
0
  6
CONTINUOUS
 62
     6
 10
314.734181642
 20
1510.28941042
 30
0.0
 40
4.100214016
  0
LINE
  8
0
  6
CONTINUOUS
 62
     6
 10
314.987641926
 20
1506.094562742
 30
0.0
 11
319.713969696
 21
1506.882284037
 31
0.0
  0
LINE
  8
0
  6
CONTINUOUS
 62
     6
 10
314.734181642
 20
1514.389624436
 30
0.0
 11
314.734181642
 21
1522.633332504
 31
0.0
  0
LINE
  8
0
  6
CONTINUOUS
 62
     6
 10
367.885104072
 20
1522.633332504
 30
0.0
 11
314.734181642
 21
1522.633332504
 31
0.0
  0
TEXT
  8
0
  6
CONTINUOUS
 62
     6
 10
319.4972152
 20
1527.152473273
 30
0.819
 40
11.7
  1
ＬＳ０１
 50
0.0
 41
0.8
 51
0.0
  7
KANJI28
  0
TEXT
  8
0
  6
CONTINUOUS
 62
     6
 10
402.117398844
 20
1527.152473273
 30
0.819
 40
11.7
  1
ＬＳ０２
 50
0.0
 41
0.8
 51
0.0
  7
KANJI28
  0
TEXT
  8
0
  6
CONTINUOUS
 62
     3
 10
147.308775989
 20
1449.945649587
 30
0.0
 40
15.0
  1
　　　　　　　　　　　　　　　　　　１　　２　　　３　　　４　　　５　　　６
 50
0.0
 41
0.911
 51
0.0
  7
KANJI29
  0
LINE
  8
0
  6
CONTINUOUS
 62
     2
 10
301.446451035
 20
1468.928121884
 30
0.0
 11
460.899218324
 21
1468.928121884
 31
0.0
  0
LINE
  8
0
  6
CONTINUOUS
 62
     2
 10
301.446451035
 20
1446.149155128
 30
0.0
 11
460.899218324
 21
1446.149155128
 31
0.0
  0
TEXT
  8
0
  6
CONTINUOUS
 62
     6
 10
293.132791539
 20
1556.92382165
 30
0.0
 40
17.740702234
  1
推力リミッタ端子台配列
 50
0.0
 41
0.880962996
 51
0.0
  7
KANJI27
  0
TEXT
  8
0
  6
CONTINUOUS
 62
     6
 10
395.013715102
 20
1614.071931782
 30
0.0
 40
11.8638
  1
ＡＣ１００Ｖ　１２５Ｖ　２５０Ｖ　－１０Ａ
 50
0.0
 41
0.726495726
 51
0.0
  7
KANJI25
  0
LINE
  8
0
  6
LTYPE3
 62
     6
 10
148.708333
 20
1243.133317
 30
0.0
 11
148.708333
 21
1226.732460936
 31
0.0
  0
LINE
  8
0
  6
LTYPE3
 62
     6
 10
279.105262694
 20
1243.133317
 30
0.0
 11
148.708333
 21
1243.133317
 31
0.0
  0
TEXT
  8
0
  6
CONTINUOUS
 62
     6
 10
131.173590591
 20
1229.648168681
 30
1.093390404
 40
10.933904043
  1
Ｕ
 50
0.0
 41
0.9
 51
0.0
  7
KANJI30
  0
CIRCLE
  8
0
  6
CONTINUOUS
 62
     6
 10
148.708333
 20
1223.452289723
 30
0.0
 40
4.373561617
  0
LINE
  8
0
  6
CONTINUOUS
 62
     6
 10
143.68354931
 20
1218.427506033
 30
0.0
 11
153.888526417
 21
1228.63248314
 31
0.0
  0
TEXT
  8
0
  6
CONTINUOUS
 62
     6
 10
158.953806047
 20
1251.799448352
 30
1.518597784
 40
15.185977837
  1
エコノストップモータ
 50
0.0
 41
0.66671875
 51
0.0
  7
KANJI31
  0
CIRCLE
  8
0
  6
CONTINUOUS
 62
     6
 10
193.537339575
 20
1197.939846957
 30
0.0
 40
18.223173404
  0
TEXT
  8
0
  6
CONTINUOUS
 62
     6
 10
185.883606745
 20
1189.192723723
 30
1.82231734
 40
18.223173404
  1
Ｍ
 50
0.0
 41
0.9
 51
0.0
  7
KANJI32
  0
LINE
  8
0
  6
CONTINUOUS
 62
     6
 10
169.482750681
 20
1172.427404191
 30
0.0
 11
180.781118192
 21
1185.548089042
 31
0.0
  0
LINE
  8
0
  6
CONTINUOUS
 62
     6
 10
169.482750681
 20
1223.452289723
 30
0.0
 11
180.781118192
 21
1210.331604872
 31
0.0
  0
LINE
  8
0
  6
CONTINUOUS
 62
     6
 10
169.482750681
 20
1223.452289723
 30
0.0
 11
153.081894617
 21
1223.452289723
 31
0.0
  0
LINE
  8
0
  6
CONTINUOUS
 62
     6
 10
175.678629639
 20
1197.939846957
 30
0.0
 11
153.081894617
 21
1197.939846957
 31
0.0
  0
LINE
  8
0
  6
CONTINUOUS
 62
     6
 10
169.482750681
 20
1172.427404191
 30
0.0
 11
153.081894617
 21
1172.427404191
 31
0.0
  0
TEXT
  8
0
  6
CONTINUOUS
 62
     6
 10
132.266980995
 20
1203.771262446
 30
1.093390404
 40
10.933904043
  1
Ｖ
 50
0.0
 41
0.9
 51
0.0
  7
KANJI30
  0
TEXT
  8
0
  6
CONTINUOUS
 62
     6
 10
133.360371399
 20
1177.894356212
 30
1.093390404
 40
10.933904043
  1
Ｗ
 50
0.0
 41
0.9
 51
0.0
  7
KANJI30
  0
CIRCLE
  8
0
  6
CONTINUOUS
 62
     6
 10
148.708333
 20
1197.939846957
 30
0.0
 40
4.373561617
  0
LINE
  8
0
  6
CONTINUOUS
 62
     6
 10
143.68354931
 20
1192.915063267
 30
0.0
 11
153.888526417
 21
1203.120040374
 31
0.0
  0
LINE
  8
0
  6
LTYPE3
 62
     6
 10
148.708333
 20
1219.443191574
 30
0.0
 11
148.708333
 21
1201.22001817
 31
0.0
  0
CIRCLE
  8
0
  6
CONTINUOUS
 62
     6
 10
148.708333
 20
1172.427404191
 30
0.0
 40
4.373561617
  0
LINE
  8
0
  6
CONTINUOUS
 62
     6
 10
143.68354931
 20
1167.402620501
 30
0.0
 11
153.888526417
 21
1177.607597607
 31
0.0
  0
LINE
  8
0
  6
LTYPE3
 62
     6
 10
148.708333
 20
1193.930748808
 30
0.0
 11
148.708333
 21
1176.800965808
 31
0.0
  0
LINE
  8
0
  6
LTYPE3
 62
     6
 10
148.708333
 20
1168.053842574
 30
0.0
 11
148.708333
 21
1147.721584891
 31
0.0
  0
TEXT
  8
0
  6
CONTINUOUS
 62
     6
 10
219.778709277
 20
1189.684749405
 30
1.457853872
 40
14.578538724
  1
Ｂ
 50
0.0
 41
0.9
 51
0.0
  7
KANJI33
  0
CIRCLE
  8
0
  6
CONTINUOUS
 62
     6
 10
226.339051703
 20
1197.939846957
 30
0.0
 40
14.578538724
  0
LINE
  8
0
  6
LTYPE3
 62
     6
 10
279.105262694
 20
1147.721584891
 30
0.0
 11
148.708333
 21
1147.721584891
 31
0.0
  0
LINE
  8
0
  6
LTYPE3
 62
     6
 10
279.105262694
 20
1147.721584891
 30
0.0
 11
279.105262694
 21
1243.133317
 31
0.0
  0
TEXT
  8
0
  6
CONTINUOUS
 62
     2
 10
153.803726364
 20
1122.512221811
 30
0.0
 40
15.6
  1
モーター結線図
 50
0.0
 41
0.925
 51
0.0
  7
KANJI34
  0
TEXT
  8
0
  6
CONTINUOUS
 62
     3
 10
128.966667
 20
860.000657596
 30
1.5
 40
15.0
  1
手動軸□１０
 50
0.0
 41
0.9
 51
0.0
  7
KANJI35
  0
ARC
  8
0
  6
CONTINUOUS
 62
     2
 10
217.0
 20
740.133974596
 30
0.0
 40
20.0
 50
231.952957468
 51
156.801409486
  0
LINE
  8
0
  6
CONTINUOUS
 62
     2
 10
198.6170994
 20
748.012360568
 30
0.0
 11
200.91179211
 21
757.849799345
 31
0.0
  0
TEXT
  8
0
  6
CONTINUOUS
 62
     2
 10
136.6170994
 20
731.012360568
 30
0.0
 40
15.0
  1
前進方向
 50
0.0
 41
0.9
 51
0.0
  7
KANJI18
  0
LINE
  8
0
  6
CONTINUOUS
 62
     2
 10
198.6170994
 20
748.012360568
 30
0.0
 11
206.885260778
 21
752.919697103
 31
0.0
  0
LINE
  8
0
  6
CONTINUOUS
 62
     1
 10
335.0
 20
639.733974596
 30
0.0
 11
335.0
 21
569.733974596
 31
0.0
  0
TEXT
  8
0
  6
CONTINUOUS
 62
     2
 10
340.0
 20
628.733974596
 30
5.0
 40
20.0
  1
銘板
 50
270.0
 41
0.925
 51
0.0
  7
KANJI36
  0
LINE
  8
0
  6
CONTINUOUS
 62
     1
 10
378.0
 20
639.733974596
 30
0.0
 11
335.0
 21
639.733974596
 31
0.0
  0
LINE
  8
0
  6
CONTINUOUS
 62
     1
 10
378.0
 20
569.733974596
 30
0.0
 11
335.0
 21
569.733974596
 31
0.0
  0
LINE
  8
0
  6
CONTINUOUS
 62
     1
 10
378.0
 20
639.733974596
 30
0.0
 11
378.0
 21
569.733974596
 31
0.0
  0
LINE
  8
0
  6
CONTINUOUS
 62
     2
 10
561.083402385
 20
191.133330769
 30
0.0
 11
568.810808995
 21
189.062778408
 31
0.0
  0
LINE
  8
0
  6
CONTINUOUS
 62
     2
 10
561.083402385
 20
191.133330769
 30
0.0
 11
568.810808995
 21
193.20388313
 31
0.0
  0
LINE
  8
0
  6
CONTINUOUS
 62
     2
 10
561.083402385
 20
191.133330769
 30
0.0
 11
698.683402385
 21
191.133330769
 31
0.0
  0
LINE
  8
0
  6
CONTINUOUS
 62
     2
 10
698.683402385
 20
191.133330769
 30
0.0
 11
690.955995774
 21
193.20388313
 31
0.0
  0
LINE
  8
0
  6
CONTINUOUS
 62
     2
 10
698.683402385
 20
191.133330769
 30
0.0
 11
690.955995774
 21
189.062778408
 31
0.0
  0
LINE
  8
0
  6
CONTINUOUS
 62
     2
 10
698.683402385
 20
189.933330769
 30
0.0
 11
698.683402385
 21
187.133330769
 31
0.0
  0
LINE
  8
0
  6
CONTINUOUS
 62
     2
 10
698.683402385
 20
191.133330769
 30
0.0
 11
706.410808995
 21
189.062778408
 31
0.0
  0
LINE
  8
0
  6
CONTINUOUS
 62
     2
 10
698.683402385
 20
191.133330769
 30
0.0
 11
706.410808995
 21
193.20388313
 31
0.0
  0
LINE
  8
0
  6
CONTINUOUS
 62
     2
 10
698.683402385
 20
191.133330769
 30
0.0
 11
901.083402385
 21
191.133330769
 31
0.0
  0
LINE
  8
0
  6
CONTINUOUS
 62
     2
 10
901.083402385
 20
191.133330769
 30
0.0
 11
893.355995774
 21
193.20388313
 31
0.0
  0
LINE
  8
0
  6
CONTINUOUS
 62
     2
 10
901.083402385
 20
191.133330769
 30
0.0
 11
893.355995774
 21
189.062778408
 31
0.0
  0
LINE
  8
0
  6
CONTINUOUS
 62
     2
 10
698.683402385
 20
164.80388313
 30
0.0
 11
690.955995774
 21
166.874435491
 31
0.0
  0
LINE
  8
0
  6
CONTINUOUS
 62
     2
 10
698.683402385
 20
164.80388313
 30
0.0
 11
690.955995774
 21
162.733330769
 31
0.0
  0
LINE
  8
0
  6
CONTINUOUS
 62
     2
 10
686.683402385
 20
164.80388313
 30
0.0
 11
698.683402385
 21
164.80388313
 31
0.0
  0
LINE
  8
0
  6
CONTINUOUS
 62
     2
 10
698.683402385
 20
164.80388313
 30
0.0
 11
719.483402385
 21
164.80388313
 31
0.0
  0
LINE
  8
0
  6
CONTINUOUS
 62
     2
 10
719.483402385
 20
164.80388313
 30
0.0
 11
727.210808995
 21
162.733330769
 31
0.0
  0
LINE
  8
0
  6
CONTINUOUS
 62
     2
 10
719.483402385
 20
164.80388313
 30
0.0
 11
727.210808995
 21
166.874435491
 31
0.0
  0
LINE
  8
0
  6
CONTINUOUS
 62
     2
 10
561.083402385
 20
139.533330769
 30
0.0
 11
561.083402385
 21
133.533330769
 31
0.0
  0
LINE
  8
0
  6
CONTINUOUS
 62
     2
 10
561.083402385
 20
137.533330769
 30
0.0
 11
568.810808995
 21
135.462778408
 31
0.0
  0
LINE
  8
0
  6
CONTINUOUS
 62
     2
 10
561.083402385
 20
137.533330769
 30
0.0
 11
568.810808995
 21
139.60388313
 31
0.0
  0
LINE
  8
0
  6
CONTINUOUS
 62
     2
 10
561.083402385
 20
137.533330769
 30
0.0
 11
719.483402385
 21
137.533330769
 31
0.0
  0
LINE
  8
0
  6
CONTINUOUS
 62
     2
 10
719.483402385
 20
137.533330769
 30
0.0
 11
711.755995774
 21
139.60388313
 31
0.0
  0
LINE
  8
0
  6
CONTINUOUS
 62
     2
 10
719.483402385
 20
137.533330769
 30
0.0
 11
711.755995774
 21
135.462778408
 31
0.0
  0
LINE
  8
0
  6
CONTINUOUS
 62
     2
 10
719.483402385
 20
138.733330769
 30
0.0
 11
719.483402385
 21
133.533330769
 31
0.0
  0
LINE
  8
0
  6
CONTINUOUS
 62
     2
 10
719.483402385
 20
137.533330769
 30
0.0
 11
727.210808995
 21
135.462778408
 31
0.0
  0
LINE
  8
0
  6
CONTINUOUS
 62
     2
 10
719.483402385
 20
137.533330769
 30
0.0
 11
727.210808995
 21
139.60388313
 31
0.0
  0
LINE
  8
0
  6
CONTINUOUS
 62
     2
 10
901.083402385
 20
133.933330769
 30
0.0
 11
901.083402385
 21
133.533330769
 31
0.0
  0
LINE
  8
0
  6
CONTINUOUS
 62
     2
 10
561.083402385
 20
108.333330769
 30
0.0
 11
568.810808995
 21
106.262778408
 31
0.0
  0
LINE
  8
0
  6
CONTINUOUS
 62
     2
 10
561.083402385
 20
108.333330769
 30
0.0
 11
568.810808995
 21
110.40388313
 31
0.0
  0
LINE
  8
0
  6
CONTINUOUS
 62
     2
 10
561.083402385
 20
108.333330769
 30
0.0
 11
878.683402385
 21
108.333330769
 31
0.0
  0
LINE
  8
0
  6
CONTINUOUS
 62
     2
 10
878.683402385
 20
108.333330769
 30
0.0
 11
870.955995774
 21
110.40388313
 31
0.0
  0
LINE
  8
0
  6
CONTINUOUS
 62
     2
 10
878.683402385
 20
108.333330769
 30
0.0
 11
870.955995774
 21
106.262778408
 31
0.0
  0
LINE
  8
0
  6
CONTINUOUS
 62
     2
 10
878.683402385
 20
109.133330769
 30
0.0
 11
878.683402385
 21
104.333330769
 31
0.0
  0
LINE
  8
0
  6
CONTINUOUS
 62
     2
 10
878.683402385
 20
108.333330769
 30
0.0
 11
870.955995774
 21
110.40388313
 31
0.0
  0
LINE
  8
0
  6
CONTINUOUS
 62
     2
 10
878.683402385
 20
108.333330769
 30
0.0
 11
870.955995774
 21
106.262778408
 31
0.0
  0
LINE
  8
0
  6
CONTINUOUS
 62
     2
 10
866.683402385
 20
108.333330769
 30
0.0
 11
878.683402385
 21
108.333330769
 31
0.0
  0
LINE
  8
0
  6
CONTINUOUS
 62
     2
 10
878.683402385
 20
108.333330769
 30
0.0
 11
901.083402385
 21
108.333330769
 31
0.0
  0
LINE
  8
0
  6
CONTINUOUS
 62
     2
 10
901.083402385
 20
108.333330769
 30
0.0
 11
908.810808995
 21
106.262778408
 31
0.0
  0
LINE
  8
0
  6
CONTINUOUS
 62
     2
 10
901.083402385
 20
108.333330769
 30
0.0
 11
908.810808995
 21
110.40388313
 31
0.0
  0
LINE
  8
0
  6
CONTINUOUS
 62
     2
 10
561.083402385
 20
201.933330769
 30
0.0
 11
561.083402385
 21
187.133330769
 31
0.0
  0
LINE
  8
0
  6
CONTINUOUS
 62
     2
 10
901.083402385
 20
201.933330769
 30
0.0
 11
901.083402385
 21
187.133330769
 31
0.0
  0
LINE
  8
0
  6
CONTINUOUS
 62
     2
 10
698.683402385
 20
190.733330769
 30
0.0
 11
698.683402385
 21
201.933330769
 31
0.0
  0
LINE
  8
0
  6
CONTINUOUS
 62
     2
 10
719.483402385
 20
177.60388313
 30
0.0
 11
719.483402385
 21
160.80388313
 31
0.0
  0
LINE
  8
0
  6
CONTINUOUS
 62
     2
 10
561.083402385
 20
187.133330769
 30
0.0
 11
561.083402385
 21
95.133330769
 31
0.0
  0
LINE
  8
0
  6
CONTINUOUS
 62
     2
 10
901.083402385
 20
191.133330769
 30
0.0
 11
901.083402385
 21
96.333330769
 31
0.0
  0
LINE
  8
0
  6
CONTINUOUS
 62
     2
 10
719.483402385
 20
164.80388313
 30
0.0
 11
719.483402385
 21
128.333330769
 31
0.0
  0
LINE
  8
0
  6
CONTINUOUS
 62
     2
 10
698.683402385
 20
191.133330769
 30
0.0
 11
698.683402385
 21
155.533330769
 31
0.0
  0
TEXT
  8
0
  6
CONTINUOUS
 62
     3
 10
602.883402385
 20
193.133330769
 30
0.0
 40
15.0
  1
ｍｉｎ．Ｌ
 50
0.0
 41
0.9
 51
0.0
  7
KANJI18
  0
TEXT
  8
0
  6
CONTINUOUS
 62
     3
 10
756.683402385
 20
193.133330769
 30
0.0
 40
15.0
  1
機械的ストローク
 50
0.0
 41
0.9
 51
0.0
  7
KANJI18
  0
TEXT
  8
0
  6
CONTINUOUS
 62
     3
 10
731.483402385
 20
166.80388313
 30
0.0
 40
15.0
  1
余裕
 50
0.0
 41
0.9
 51
0.0
  7
KANJI18
  0
TEXT
  8
0
  6
CONTINUOUS
 62
     3
 10
613.283402385
 20
139.533330769
 30
0.0
 40
15.0
  1
常用ｍｉｎ
 50
0.0
 41
0.9
 51
0.0
  7
KANJI18
  0
TEXT
  8
0
  6
CONTINUOUS
 62
     3
 10
692.883402385
 20
110.333330769
 30
0.0
 40
15.0
  1
常用ｍａｘ
 50
0.0
 41
0.9
 51
0.0
  7
KANJI18
  0
TEXT
  8
0
  6
CONTINUOUS
 62
     3
 10
913.083402385
 20
110.333330769
 30
0.0
 40
15.0
  1
余裕
 50
0.0
 41
0.9
 51
0.0
  7
KANJI18
  0
LINE
  8
0
  6
CONTINUOUS
 62
     2
 10
719.483402385
 20
164.80388313
 30
0.0
 11
759.583402385
 21
164.80388313
 31
0.0
  0
LINE
  8
0
  6
CONTINUOUS
 62
     2
 10
901.083402385
 20
108.333330769
 30
0.0
 11
943.583402385
 21
108.333330769
 31
0.0
  0
TEXT
  8
0
  6
CONTINUOUS
 62
     2
 10
560.792674524
 20
271.971526374
 30
0.0
 40
20.0
  1
推力リミッタの作動値は、約２３００ｋｇ（設計値）
 50
0.0
 41
0.925
 51
0.0
  7
KANJI37
  0
LINE
  8
0
  6
CONTINUOUS
 62
     2
 10
558.792674524
 20
263.971526374
 30
0.0
 11
991.080083262
 21
263.971526374
 31
0.0
  0
TEXT
  8
0
  6
CONTINUOUS
 62
     2
 10
1702.92
 20
627.9
 30
6.171428571
 40
21.6
  1
１。運転時は必ずピストンロッドの回転防止を行って下さい。
 50
0.0
 41
0.857142857
 51
0.0
  7
KANJI38
  0
TEXT
  8
0
  6
CONTINUOUS
 62
     2
 10
1702.92
 20
587.1
 30
6.156
 40
21.6
  1
２。モートル：全閉自冷かご形３０分定格
 50
0.0
 41
0.857222222
 51
0.0
  7
KANJI39
  0
TEXT
  8
0
  6
CONTINUOUS
 62
     2
 10
1702.5199098
 20
546.3000036
 30
6.156
 40
21.6
  1
３。呼称ストロークは、機械的ストロークです。
 50
0.0
 41
0.857222222
 51
0.0
  7
KANJI39
  0
TEXT
  8
0
  6
CONTINUOUS
 62
     2
 10
1702.5199098
 20
511.8000036
 30
6.156
 40
21.6
  1
　　必ず、常用はストローク両端に余裕を取って下さい。
 50
0.0
 41
0.857222222
 51
0.0
  7
KANJI39
  0
LINE
  8
0
  6
CONTINUOUS
 62
     2
 10
1770.12
 20
669.3
 30
0.0
 11
1916.52
 21
669.3
 31
0.0
  0
TEXT
  8
0
  6
CONTINUOUS
 62
     2
 10
1703.4319098
 20
472.1520036
 30
6.156
 40
21.6
  1
　　前後の推奨余裕寸法は、各々１５ｍｍです。
 50
0.0
 41
0.857222222
 51
0.0
  7
KANJI39
  0
TEXT
  8
0
  6
CONTINUOUS
 62
     2
 10
1786.92
 20
675.9
 30
12.0
 40
24.0
  1
特記事項
 50
0.0
 41
0.9
 51
0.0
  7
KANJI40
  0
TEXT
  8
0
  6
CONTINUOUS
 62
     2
 10
1055.133
 20
1533.99
 30
1.617
 40
16.17
  1
注意：サーマルリレー等の選定は、上記の値で選定して下さい。
 50
0.0
 41
0.9
 51
0.0
  7
KANJI41
  0
LINE
  8
0
  6
CONTINUOUS
 62
     2
 10
1045.893
 20
1529.37
 30
0.0
 11
1519.173
 21
1529.37
 31
0.0
  0
LINE
  8
0
  6
CONTINUOUS
 62
     2
 10
1072.0
 20
908.0
 30
0.0
 11
1059.925927171
 21
911.235238064
 31
0.0
  0
LINE
  8
0
  6
CONTINUOUS
 62
     2
 10
1072.0
 20
908.0
 30
0.0
 11
1059.925927171
 21
904.764761936
 31
0.0
  0
LINE
  8
0
  6
CONTINUOUS
 62
     2
 10
1072.0
 20
908.0
 30
0.0
 11
1031.0
 21
908.0
 31
0.0
  0
TEXT
  8
0
  6
CONTINUOUS
 62
     3
 10
1038.0
 20
918.0
 30
0.0
 40
20.0
  1
前進
 50
0.0
 41
0.925
 51
0.0
  7
KANJI37
  0
LINE
  8
0
  6
CONTINUOUS
 62
     1
 10
248.5
 20
726.733974596
 30
0.0
 11
248.5
 21
754.733974596
 31
0.0
  0
LINE
  8
0
  6
CONTINUOUS
 62
     1
 10
286.5
 20
726.733974596
 30
0.0
 11
286.5
 21
754.733974596
 31
0.0
  0
LINE
  8
0
  6
CONTINUOUS
 62
     1
 10
248.5
 20
754.733974596
 30
0.0
 11
290.5
 21
754.733974596
 31
0.0
  0
LINE
  8
0
  6
CONTINUOUS
 62
     1
 10
248.5
 20
726.733974596
 30
0.0
 11
290.5
 21
726.733974596
 31
0.0
  0
LINE
  8
0
  6
CONTINUOUS
 62
     2
 10
248.5
 20
760.733974596
 30
0.0
 11
248.5
 21
954.733974596
 31
0.0
  0
LINE
  8
0
  6
CONTINUOUS
 62
     2
 10
248.5
 20
948.733974596
 30
0.0
 11
260.091109915
 21
945.628146055
 31
0.0
  0
LINE
  8
0
  6
CONTINUOUS
 62
     2
 10
248.5
 20
948.733974596
 30
0.0
 11
260.091109915
 21
951.839803137
 31
0.0
  0
LINE
  8
0
  6
CONTINUOUS
 62
     2
 10
248.5
 20
948.733974596
 30
0.0
 11
385.5
 21
948.733974596
 31
0.0
  0
LINE
  8
0
  6
CONTINUOUS
 62
     2
 10
385.5
 20
948.733974596
 30
0.0
 11
373.908890085
 21
951.839803137
 31
0.0
  0
LINE
  8
0
  6
CONTINUOUS
 62
     2
 10
385.5
 20
948.733974596
 30
0.0
 11
373.908890085
 21
945.628146055
 31
0.0
  0
LINE
  8
0
  6
CONTINUOUS
 62
     2
 10
385.5
 20
851.733974596
 30
0.0
 11
385.5
 21
954.733974596
 31
0.0
  0
TEXT
  8
0
  6
CONTINUOUS
 62
     3
 10
292.7
 20
957.733974596
 30
0.0
 40
18.0
  1
１３７
 50
0.0
 41
0.9
 51
0.0
  7
KANJI19
  0
LINE
  8
0
  6
CONTINUOUS
 62
     2
 10
385.5
 20
941.733974596
 30
0.0
 11
385.5
 21
954.733974596
 31
0.0
  0
LINE
  8
0
  6
CONTINUOUS
 62
     2
 10
385.5
 20
948.733974596
 30
0.0
 11
397.091109915
 21
945.628146055
 31
0.0
  0
LINE
  8
0
  6
CONTINUOUS
 62
     2
 10
385.5
 20
948.733974596
 30
0.0
 11
397.091109915
 21
951.839803137
 31
0.0
  0
LINE
  8
0
  6
CONTINUOUS
 62
     2
 10
385.5
 20
948.733974596
 30
0.0
 11
677.5
 21
948.733974596
 31
0.0
  0
LINE
  8
0
  6
CONTINUOUS
 62
     2
 10
677.5
 20
948.733974596
 30
0.0
 11
665.908890085
 21
951.839803137
 31
0.0
  0
LINE
  8
0
  6
CONTINUOUS
 62
     2
 10
677.5
 20
948.733974596
 30
0.0
 11
665.908890085
 21
945.628146055
 31
0.0
  0
TEXT
  8
0
  6
CONTINUOUS
 62
     3
 10
507.2
 20
957.733974596
 30
0.0
 40
18.0
  1
２９２
 50
0.0
 41
0.9
 51
0.0
  7
KANJI19
  0
LINE
  8
0
  6
CONTINUOUS
 62
     2
 10
677.5
 20
748.833974596
 30
0.0
 11
677.5
 21
954.733974596
 31
0.0
  0
LINE
  8
0
  6
CONTINUOUS
 62
     1
 10
1014.12
 20
1511.24
 30
0.0
 11
1791.72
 21
1511.24
 31
0.0
  0
LINE
  8
0
  6
CONTINUOUS
 62
     1
 10
1014.12
 20
1477.64
 30
0.0
 11
1791.72
 21
1477.64
 31
0.0
  0
TEXT
  8
0
  6
CONTINUOUS
 62
     2
 10
1062.12
 20
1487.24
 30
1.536
 40
15.36
  1
形
 50
0.0
 41
0.9
 51
0.0
  7
KANJI42
  0
TEXT
  8
0
  6
CONTINUOUS
 62
     2
 10
1155.72
 20
1487.24
 30
1.536
 40
15.36
  1
式
 50
0.0
 41
0.9
 51
0.0
  7
KANJI42
  0
TEXT
  8
0
  6
CONTINUOUS
 62
     2
 10
1228.2
 20
1486.28
 30
1.44
 40
14.4
  1
ストローク
 50
0.0
 41
0.9
 51
0.0
  7
KANJI43
  0
TEXT
  8
0
  6
CONTINUOUS
 62
     2
 10
1320.36
 20
1485.32
 30
0.0
 40
14.4
  1
ｍｉｎ　
 50
0.0
 41
0.9
 51
0.0
  7
KANJI44
  0
TEXT
  8
0
  6
CONTINUOUS
 62
     2
 10
1416.36
 20
1485.32
 30
0.0
 40
14.4
  1
ｍｉｎ　
 50
0.0
 41
0.9
 51
0.0
  7
KANJI44
  0
TEXT
  8
0
  6
CONTINUOUS
 62
     2
 10
1608.36
 20
1485.32
 30
0.0
 40
14.4
  1
ｍｉｎ　
 50
0.0
 41
0.9
 51
0.0
  7
KANJI44
  0
TEXT
  8
0
  6
CONTINUOUS
 62
     2
 10
1369.32
 20
1486.28
 30
1.68
 40
16.8
  1
ＡＬ
 50
0.0
 41
0.9
 51
0.0
  7
KANJI45
  0
TEXT
  8
0
  6
CONTINUOUS
 62
     2
 10
1465.32
 20
1486.28
 30
1.68
 40
16.8
  1
Ｌ
 50
0.0
 41
0.9
 51
0.0
  7
KANJI45
  0
TEXT
  8
0
  6
CONTINUOUS
 62
     2
 10
1546.92
 20
1486.28
 30
1.68
 40
16.8
  1
Ｃ
 50
0.0
 41
0.9
 51
0.0
  7
KANJI45
  0
TEXT
  8
0
  6
CONTINUOUS
 62
     2
 10
1657.32
 20
1486.28
 30
1.68
 40
16.8
  1
Ｐ
 50
0.0
 41
0.9
 51
0.0
  7
KANJI45
  0
TEXT
  8
0
  6
CONTINUOUS
 62
     2
 10
1756.08
 20
1485.92
 30
0.0
 40
12.96
  1
（ｋｇ）
 50
0.0
 41
0.740740741
 51
0.0
  7
KANJI46
  0
TEXT
  8
0
  6
CONTINUOUS
 62
     2
 10
1698.48
 20
1485.68
 30
1.44
 40
16.8
  1
概算重量
 50
0.0
 41
0.857142857
 51
0.0
  7
KANJI47
  0
TEXT
  8
0
  6
CONTINUOUS
 62
     2
 10
1237.32
 20
1454.08
 30
1.44
 40
14.4
  1
　２００
 50
0.0
 41
0.9
 51
0.0
  7
KANJI43
  0
TEXT
  8
0
  6
CONTINUOUS
 62
     2
 10
1621.32
 20
1454.08
 30
1.44
 40
14.4
  1
　　４５
 50
0.0
 41
0.9
 51
0.0
  7
KANJI43
  0
TEXT
  8
0
  6
CONTINUOUS
 62
     2
 10
1717.32
 20
1454.08
 30
1.44
 40
14.4
  1
　７７
 50
0.0
 41
0.9
 51
0.0
  7
KANJI43
  0
TEXT
  8
0
  6
CONTINUOUS
 62
     2
 10
1525.32
 20
1454.08
 30
1.44
 40
14.4
  1
　４６２
 50
0.0
 41
0.9
 51
0.0
  7
KANJI43
  0
LINE
  8
0
  6
CONTINUOUS
 62
     2
 10
1014.12
 20
1446.04
 30
0.0
 11
1791.72
 21
1446.04
 31
0.0
  0
TEXT
  8
0
  6
CONTINUOUS
 62
     2
 10
1429.32
 20
1454.08
 30
1.44
 40
14.4
  1
　５６７
 50
0.0
 41
0.9
 51
0.0
  7
KANJI43
  0
TEXT
  8
0
  6
CONTINUOUS
 62
     2
 10
1333.32
 20
1454.08
 30
1.44
 40
14.4
  1
　７６４
 50
0.0
 41
0.9
 51
0.0
  7
KANJI43
  0
TEXT
  8
0
  6
CONTINUOUS
 62
     2
 10
1029.72
 20
1453.72
 30
0.96
 40
14.4
  1
ＭＣＬＤ２Ｃ－　　２Ｊ
 50
0.0
 41
0.833333333
 51
0.0
  7
KANJI48
  0
TEXT
  8
0
  6
CONTINUOUS
 62
     2
 10
1237.32
 20
1422.48
 30
1.44
 40
14.4
  1
　３００
 50
0.0
 41
0.9
 51
0.0
  7
KANJI43
  0
TEXT
  8
0
  6
CONTINUOUS
 62
     2
 10
1621.32
 20
1422.48
 30
1.44
 40
14.4
  1
　　４５
 50
0.0
 41
0.9
 51
0.0
  7
KANJI43
  0
TEXT
  8
0
  6
CONTINUOUS
 62
     2
 10
1717.32
 20
1422.48
 30
1.44
 40
14.4
  1
　８０
 50
0.0
 41
0.9
 51
0.0
  7
KANJI43
  0
TEXT
  8
0
  6
CONTINUOUS
 62
     2
 10
1525.32
 20
1422.48
 30
1.44
 40
14.4
  1
　５６２
 50
0.0
 41
0.9
 51
0.0
  7
KANJI43
  0
LINE
  8
0
  6
CONTINUOUS
 62
     2
 10
1014.12
 20
1414.44
 30
0.0
 11
1791.72
 21
1414.44
 31
0.0
  0
TEXT
  8
0
  6
CONTINUOUS
 62
     2
 10
1429.32
 20
1422.48
 30
1.44
 40
14.4
  1
　６６７
 50
0.0
 41
0.9
 51
0.0
  7
KANJI43
  0
TEXT
  8
0
  6
CONTINUOUS
 62
     2
 10
1333.32
 20
1422.48
 30
1.44
 40
14.4
  1
　８６４
 50
0.0
 41
0.9
 51
0.0
  7
KANJI43
  0
TEXT
  8
0
  6
CONTINUOUS
 62
     2
 10
1029.72
 20
1422.12
 30
0.96
 40
14.4
  1
ＭＣＬＤ２Ｃ－　　３Ｊ
 50
0.0
 41
0.833333333
 51
0.0
  7
KANJI48
  0
TEXT
  8
0
  6
CONTINUOUS
 62
     2
 10
1237.32
 20
1390.88
 30
1.44
 40
14.4
  1
　４００
 50
0.0
 41
0.9
 51
0.0
  7
KANJI43
  0
TEXT
  8
0
  6
CONTINUOUS
 62
     2
 10
1621.32
 20
1390.88
 30
1.44
 40
14.4
  1
　　８５
 50
0.0
 41
0.9
 51
0.0
  7
KANJI43
  0
TEXT
  8
0
  6
CONTINUOUS
 62
     2
 10
1717.32
 20
1390.88
 30
1.44
 40
14.4
  1
　８４
 50
0.0
 41
0.9
 51
0.0
  7
KANJI43
  0
TEXT
  8
0
  6
CONTINUOUS
 62
     2
 10
1525.32
 20
1390.88
 30
1.44
 40
14.4
  1
　６６２
 50
0.0
 41
0.9
 51
0.0
  7
KANJI43
  0
LINE
  8
0
  6
CONTINUOUS
 62
     2
 10
1014.12
 20
1382.84
 30
0.0
 11
1791.72
 21
1382.84
 31
0.0
  0
TEXT
  8
0
  6
CONTINUOUS
 62
     2
 10
1429.32
 20
1390.88
 30
1.44
 40
14.4
  1
　８０７
 50
0.0
 41
0.9
 51
0.0
  7
KANJI43
  0
TEXT
  8
0
  6
CONTINUOUS
 62
     2
 10
1333.32
 20
1390.88
 30
1.44
 40
14.4
  1
１００４
 50
0.0
 41
0.9
 51
0.0
  7
KANJI43
  0
TEXT
  8
0
  6
CONTINUOUS
 62
     2
 10
1029.72
 20
1390.52
 30
0.96
 40
14.4
  1
ＭＣＬＤ２Ｃ－　　４Ｊ
 50
0.0
 41
0.833333333
 51
0.0
  7
KANJI48
  0
TEXT
  8
0
  6
CONTINUOUS
 62
     2
 10
1237.32
 20
1359.28
 30
1.44
 40
14.4
  1
　５００
 50
0.0
 41
0.9
 51
0.0
  7
KANJI43
  0
TEXT
  8
0
  6
CONTINUOUS
 62
     2
 10
1621.32
 20
1359.28
 30
1.44
 40
14.4
  1
　１１２
 50
0.0
 41
0.9
 51
0.0
  7
KANJI43
  0
TEXT
  8
0
  6
CONTINUOUS
 62
     2
 10
1717.32
 20
1359.28
 30
1.44
 40
14.4
  1
　８９
 50
0.0
 41
0.9
 51
0.0
  7
KANJI43
  0
TEXT
  8
0
  6
CONTINUOUS
 62
     2
 10
1525.32
 20
1359.28
 30
1.44
 40
14.4
  1
　７６２
 50
0.0
 41
0.9
 51
0.0
  7
KANJI43
  0
LINE
  8
0
  6
CONTINUOUS
 62
     2
 10
1014.12
 20
1351.24
 30
0.0
 11
1791.72
 21
1351.24
 31
0.0
  0
TEXT
  8
0
  6
CONTINUOUS
 62
     2
 10
1429.32
 20
1359.28
 30
1.44
 40
14.4
  1
　９３４
 50
0.0
 41
0.9
 51
0.0
  7
KANJI43
  0
TEXT
  8
0
  6
CONTINUOUS
 62
     2
 10
1333.32
 20
1359.28
 30
1.44
 40
14.4
  1
１１３１
 50
0.0
 41
0.9
 51
0.0
  7
KANJI43
  0
TEXT
  8
0
  6
CONTINUOUS
 62
     2
 10
1029.72
 20
1358.92
 30
0.96
 40
14.4
  1
ＭＣＬＤ２Ｃ－　　５Ｊ
 50
0.0
 41
0.833333333
 51
0.0
  7
KANJI48
  0
LINE
  8
0
  6
CONTINUOUS
 62
     2
 10
1014.12
 20
1319.64
 30
0.0
 11
1791.72
 21
1319.64
 31
0.0
  0
TEXT
  8
0
  6
CONTINUOUS
 62
     2
 10
1029.72
 20
1327.32
 30
0.96
 40
14.4
  1
ＭＣＬＤ２Ｃ－　　６Ｊ
 50
0.0
 41
0.833333333
 51
0.0
  7
KANJI48
  0
TEXT
  8
0
  6
CONTINUOUS
 62
     2
 10
1237.32
 20
1327.68
 30
1.44
 40
14.4
  1
　６００
 50
0.0
 41
0.9
 51
0.0
  7
KANJI43
  0
TEXT
  8
0
  6
CONTINUOUS
 62
     2
 10
1333.32
 20
1327.68
 30
1.44
 40
14.4
  1
１２８７
 50
0.0
 41
0.9
 51
0.0
  7
KANJI43
  0
TEXT
  8
0
  6
CONTINUOUS
 62
     2
 10
1429.32
 20
1327.68
 30
1.44
 40
14.4
  1
１０９０
 50
0.0
 41
0.9
 51
0.0
  7
KANJI43
  0
TEXT
  8
0
  6
CONTINUOUS
 62
     2
 10
1525.32
 20
1327.68
 30
1.44
 40
14.4
  1
　９０２
 50
0.0
 41
0.9
 51
0.0
  7
KANJI43
  0
TEXT
  8
0
  6
CONTINUOUS
 62
     2
 10
1621.32
 20
1327.68
 30
1.44
 40
14.4
  1
　１２８
 50
0.0
 41
0.9
 51
0.0
  7
KANJI43
  0
TEXT
  8
0
  6
CONTINUOUS
 62
     2
 10
1717.32
 20
1327.68
 30
1.44
 40
14.4
  1
　９３
 50
0.0
 41
0.9
 51
0.0
  7
KANJI43
  0
LINE
  8
0
  6
CONTINUOUS
 62
     2
 10
1014.12
 20
1288.04
 30
0.0
 11
1791.72
 21
1288.04
 31
0.0
  0
TEXT
  8
0
  6
CONTINUOUS
 62
     2
 10
1029.72
 20
1295.72
 30
0.96
 40
14.4
  1
ＭＣＬＤ２Ｃ－　　７Ｊ
 50
0.0
 41
0.833333333
 51
0.0
  7
KANJI48
  0
TEXT
  8
0
  6
CONTINUOUS
 62
     2
 10
1237.32
 20
1296.08
 30
1.44
 40
14.4
  1
　７００
 50
0.0
 41
0.9
 51
0.0
  7
KANJI43
  0
TEXT
  8
0
  6
CONTINUOUS
 62
     2
 10
1333.32
 20
1296.08
 30
1.44
 40
14.4
  1
１４０７
 50
0.0
 41
0.9
 51
0.0
  7
KANJI43
  0
TEXT
  8
0
  6
CONTINUOUS
 62
     2
 10
1429.32
 20
1296.08
 30
1.44
 40
14.4
  1
１２１０
 50
0.0
 41
0.9
 51
0.0
  7
KANJI43
  0
TEXT
  8
0
  6
CONTINUOUS
 62
     2
 10
1525.32
 20
1296.08
 30
1.44
 40
14.4
  1
１００２
 50
0.0
 41
0.9
 51
0.0
  7
KANJI43
  0
TEXT
  8
0
  6
CONTINUOUS
 62
     2
 10
1621.32
 20
1296.08
 30
1.44
 40
14.4
  1
　１４８
 50
0.0
 41
0.9
 51
0.0
  7
KANJI43
  0
TEXT
  8
0
  6
CONTINUOUS
 62
     2
 10
1717.32
 20
1296.08
 30
1.44
 40
14.4
  1
　９７
 50
0.0
 41
0.9
 51
0.0
  7
KANJI43
  0
LINE
  8
0
  6
CONTINUOUS
 62
     2
 10
1014.12
 20
1256.44
 30
0.0
 11
1791.72
 21
1256.44
 31
0.0
  0
TEXT
  8
0
  6
CONTINUOUS
 62
     2
 10
1029.72
 20
1264.12
 30
0.96
 40
14.4
  1
ＭＣＬＤ２Ｃ－　　８Ｊ
 50
0.0
 41
0.833333333
 51
0.0
  7
KANJI48
  0
TEXT
  8
0
  6
CONTINUOUS
 62
     2
 10
1237.32
 20
1264.48
 30
1.44
 40
14.4
  1
　８００
 50
0.0
 41
0.9
 51
0.0
  7
KANJI43
  0
TEXT
  8
0
  6
CONTINUOUS
 62
     2
 10
1333.32
 20
1264.48
 30
1.44
 40
14.4
  1
１５２７
 50
0.0
 41
0.9
 51
0.0
  7
KANJI43
  0
TEXT
  8
0
  6
CONTINUOUS
 62
     2
 10
1429.32
 20
1264.48
 30
1.44
 40
14.4
  1
１３３０
 50
0.0
 41
0.9
 51
0.0
  7
KANJI43
  0
TEXT
  8
0
  6
CONTINUOUS
 62
     2
 10
1525.32
 20
1264.48
 30
1.44
 40
14.4
  1
１１０２
 50
0.0
 41
0.9
 51
0.0
  7
KANJI43
  0
TEXT
  8
0
  6
CONTINUOUS
 62
     2
 10
1621.32
 20
1264.48
 30
1.44
 40
14.4
  1
　１６８
 50
0.0
 41
0.9
 51
0.0
  7
KANJI43
  0
TEXT
  8
0
  6
CONTINUOUS
 62
     2
 10
1717.32
 20
1264.48
 30
1.44
 40
14.4
  1
１０１
 50
0.0
 41
0.9
 51
0.0
  7
KANJI43
  0
LINE
  8
0
  6
CONTINUOUS
 62
     2
 10
1014.12
 20
1224.84
 30
0.0
 11
1791.72
 21
1224.84
 31
0.0
  0
TEXT
  8
0
  6
CONTINUOUS
 62
     2
 10
1029.72
 20
1232.52
 30
0.96
 40
14.4
  1
ＭＣＬＤ２Ｃ－　　９Ｊ
 50
0.0
 41
0.833333333
 51
0.0
  7
KANJI48
  0
TEXT
  8
0
  6
CONTINUOUS
 62
     2
 10
1237.32
 20
1232.88
 30
1.44
 40
14.4
  1
　９００
 50
0.0
 41
0.9
 51
0.0
  7
KANJI43
  0
TEXT
  8
0
  6
CONTINUOUS
 62
     2
 10
1333.32
 20
1232.88
 30
1.44
 40
14.4
  1
１６５７
 50
0.0
 41
0.9
 51
0.0
  7
KANJI43
  0
TEXT
  8
0
  6
CONTINUOUS
 62
     2
 10
1429.32
 20
1232.88
 30
1.44
 40
14.4
  1
１４６０
 50
0.0
 41
0.9
 51
0.0
  7
KANJI43
  0
TEXT
  8
0
  6
CONTINUOUS
 62
     2
 10
1525.32
 20
1232.88
 30
1.44
 40
14.4
  1
１２０２
 50
0.0
 41
0.9
 51
0.0
  7
KANJI43
  0
TEXT
  8
0
  6
CONTINUOUS
 62
     2
 10
1621.32
 20
1232.88
 30
1.44
 40
14.4
  1
　１９８
 50
0.0
 41
0.9
 51
0.0
  7
KANJI43
  0
TEXT
  8
0
  6
CONTINUOUS
 62
     2
 10
1717.32
 20
1232.88
 30
1.44
 40
14.4
  1
１０４
 50
0.0
 41
0.9
 51
0.0
  7
KANJI43
  0
LINE
  8
0
  6
CONTINUOUS
 62
     2
 10
1014.12
 20
1193.24
 30
0.0
 11
1791.72
 21
1193.24
 31
0.0
  0
TEXT
  8
0
  6
CONTINUOUS
 62
     2
 10
1029.72
 20
1200.92
 30
0.96
 40
14.4
  1
ＭＣＬＤ２Ｃ－　１０Ｊ
 50
0.0
 41
0.833333333
 51
0.0
  7
KANJI48
  0
TEXT
  8
0
  6
CONTINUOUS
 62
     2
 10
1237.32
 20
1201.28
 30
1.44
 40
14.4
  1
１０００
 50
0.0
 41
0.9
 51
0.0
  7
KANJI43
  0
TEXT
  8
0
  6
CONTINUOUS
 62
     2
 10
1333.32
 20
1201.28
 30
1.44
 40
14.4
  1
１７９０
 50
0.0
 41
0.9
 51
0.0
  7
KANJI43
  0
TEXT
  8
0
  6
CONTINUOUS
 62
     2
 10
1429.32
 20
1201.28
 30
1.44
 40
14.4
  1
１５９３
 50
0.0
 41
0.9
 51
0.0
  7
KANJI43
  0
TEXT
  8
0
  6
CONTINUOUS
 62
     2
 10
1525.32
 20
1201.28
 30
1.44
 40
14.4
  1
１３０２
 50
0.0
 41
0.9
 51
0.0
  7
KANJI43
  0
TEXT
  8
0
  6
CONTINUOUS
 62
     2
 10
1621.32
 20
1201.28
 30
1.44
 40
14.4
  1
　２３１
 50
0.0
 41
0.9
 51
0.0
  7
KANJI43
  0
TEXT
  8
0
  6
CONTINUOUS
 62
     2
 10
1717.32
 20
1201.28
 30
1.44
 40
14.4
  1
１０７
 50
0.0
 41
0.9
 51
0.0
  7
KANJI43
  0
LINE
  8
0
  6
CONTINUOUS
 62
     2
 10
1014.12
 20
1161.64
 30
0.0
 11
1791.72
 21
1161.64
 31
0.0
  0
TEXT
  8
0
  6
CONTINUOUS
 62
     2
 10
1029.72
 20
1169.32
 30
0.96
 40
14.4
  1
ＭＣＬＤ２Ｃ－　１１Ｊ
 50
0.0
 41
0.833333333
 51
0.0
  7
KANJI48
  0
TEXT
  8
0
  6
CONTINUOUS
 62
     2
 10
1237.32
 20
1169.68
 30
1.44
 40
14.4
  1
１１００
 50
0.0
 41
0.9
 51
0.0
  7
KANJI43
  0
TEXT
  8
0
  6
CONTINUOUS
 62
     2
 10
1621.32
 20
1169.68
 30
1.44
 40
14.4
  1
　２４５
 50
0.0
 41
0.9
 51
0.0
  7
KANJI43
  0
TEXT
  8
0
  6
CONTINUOUS
 62
     2
 10
1525.32
 20
1169.68
 30
1.44
 40
14.4
  1
１４０２
 50
0.0
 41
0.9
 51
0.0
  7
KANJI43
  0
TEXT
  8
0
  6
CONTINUOUS
 62
     2
 10
1717.32
 20
1169.68
 30
1.44
 40
14.4
  1
１０９
 50
0.0
 41
0.9
 51
0.0
  7
KANJI43
  0
LINE
  8
0
  6
CONTINUOUS
 62
     2
 10
1014.12
 20
1130.04
 30
0.0
 11
1791.72
 21
1130.04
 31
0.0
  0
TEXT
  8
0
  6
CONTINUOUS
 62
     2
 10
1029.72
 20
1137.72
 30
0.96
 40
14.4
  1
ＭＣＬＤ２Ｃ－　１２Ｊ
 50
0.0
 41
0.833333333
 51
0.0
  7
KANJI48
  0
TEXT
  8
0
  6
CONTINUOUS
 62
     2
 10
1237.32
 20
1138.08
 30
1.44
 40
14.4
  1
１２００
 50
0.0
 41
0.9
 51
0.0
  7
KANJI43
  0
TEXT
  8
0
  6
CONTINUOUS
 62
     2
 10
1621.32
 20
1138.08
 30
1.44
 40
14.4
  1
　２６８
 50
0.0
 41
0.9
 51
0.0
  7
KANJI43
  0
TEXT
  8
0
  6
CONTINUOUS
 62
     2
 10
1525.32
 20
1138.08
 30
1.44
 40
14.4
  1
１５０２
 50
0.0
 41
0.9
 51
0.0
  7
KANJI43
  0
TEXT
  8
0
  6
CONTINUOUS
 62
     2
 10
1717.32
 20
1138.08
 30
1.44
 40
14.4
  1
１１１
 50
0.0
 41
0.9
 51
0.0
  7
KANJI43
  0
LINE
  8
0
  6
CONTINUOUS
 62
     2
 10
1014.12
 20
1098.44
 30
0.0
 11
1791.72
 21
1098.44
 31
0.0
  0
TEXT
  8
0
  6
CONTINUOUS
 62
     2
 10
1029.72
 20
1106.12
 30
0.96
 40
14.4
  1
ＭＣＬＤ２Ｃ－　１３Ｊ
 50
0.0
 41
0.833333333
 51
0.0
  7
KANJI48
  0
TEXT
  8
0
  6
CONTINUOUS
 62
     2
 10
1237.32
 20
1106.48
 30
1.44
 40
14.4
  1
１３００
 50
0.0
 41
0.9
 51
0.0
  7
KANJI43
  0
TEXT
  8
0
  6
CONTINUOUS
 62
     2
 10
1621.32
 20
1106.48
 30
1.44
 40
14.4
  1
　２８８
 50
0.0
 41
0.9
 51
0.0
  7
KANJI43
  0
TEXT
  8
0
  6
CONTINUOUS
 62
     2
 10
1525.32
 20
1106.48
 30
1.44
 40
14.4
  1
１６０２
 50
0.0
 41
0.9
 51
0.0
  7
KANJI43
  0
TEXT
  8
0
  6
CONTINUOUS
 62
     2
 10
1717.32
 20
1106.48
 30
1.44
 40
14.4
  1
１１３
 50
0.0
 41
0.9
 51
0.0
  7
KANJI43
  0
LINE
  8
0
  6
CONTINUOUS
 62
     2
 10
1014.12
 20
1066.84
 30
0.0
 11
1791.72
 21
1066.84
 31
0.0
  0
TEXT
  8
0
  6
CONTINUOUS
 62
     2
 10
1029.72
 20
1074.52
 30
0.96
 40
14.4
  1
ＭＣＬＤ２Ｃ－　１４Ｊ
 50
0.0
 41
0.833333333
 51
0.0
  7
KANJI48
  0
TEXT
  8
0
  6
CONTINUOUS
 62
     2
 10
1237.32
 20
1074.88
 30
1.44
 40
14.4
  1
１４００
 50
0.0
 41
0.9
 51
0.0
  7
KANJI43
  0
TEXT
  8
0
  6
CONTINUOUS
 62
     2
 10
1621.32
 20
1074.88
 30
1.44
 40
14.4
  1
　３１０
 50
0.0
 41
0.9
 51
0.0
  7
KANJI43
  0
TEXT
  8
0
  6
CONTINUOUS
 62
     2
 10
1525.32
 20
1074.88
 30
1.44
 40
14.4
  1
１７０２
 50
0.0
 41
0.9
 51
0.0
  7
KANJI43
  0
TEXT
  8
0
  6
CONTINUOUS
 62
     2
 10
1717.32
 20
1074.88
 30
1.44
 40
14.4
  1
１１５
 50
0.0
 41
0.9
 51
0.0
  7
KANJI43
  0
LINE
  8
0
  6
CONTINUOUS
 62
     2
 10
1014.12
 20
1035.24
 30
0.0
 11
1791.72
 21
1035.24
 31
0.0
  0
TEXT
  8
0
  6
CONTINUOUS
 62
     2
 10
1029.72
 20
1042.92
 30
0.96
 40
14.4
  1
ＭＣＬＤ２Ｃ－　１５Ｊ
 50
0.0
 41
0.833333333
 51
0.0
  7
KANJI48
  0
TEXT
  8
0
  6
CONTINUOUS
 62
     2
 10
1237.32
 20
1043.28
 30
1.44
 40
14.4
  1
１５００
 50
0.0
 41
0.9
 51
0.0
  7
KANJI43
  0
TEXT
  8
0
  6
CONTINUOUS
 62
     2
 10
1621.32
 20
1043.28
 30
1.44
 40
14.4
  1
　３５０
 50
0.0
 41
0.9
 51
0.0
  7
KANJI43
  0
TEXT
  8
0
  6
CONTINUOUS
 62
     2
 10
1525.32
 20
1043.28
 30
1.44
 40
14.4
  1
１８０２
 50
0.0
 41
0.9
 51
0.0
  7
KANJI43
  0
TEXT
  8
0
  6
CONTINUOUS
 62
     2
 10
1717.32
 20
1043.28
 30
1.44
 40
14.4
  1
１１７
 50
0.0
 41
0.9
 51
0.0
  7
KANJI43
  0
LINE
  8
0
  6
CONTINUOUS
 62
     1
 10
1014.12
 20
1003.64
 30
0.0
 11
1791.72
 21
1003.64
 31
0.0
  0
TEXT
  8
0
  6
CONTINUOUS
 62
     2
 10
1029.72
 20
1011.32
 30
0.96
 40
14.4
  1
ＭＣＬＤ２Ｃ－　　　Ｊ　　
 50
0.0
 41
0.833333333
 51
0.0
  7
KANJI48
  0
LINE
  8
0
  6
CONTINUOUS
 62
     1
 10
1014.12
 20
1511.24
 30
0.0
 11
1014.12
 21
1003.64
 31
0.0
  0
LINE
  8
0
  6
CONTINUOUS
 62
     1
 10
1215.72
 20
1511.24
 30
0.0
 11
1215.72
 21
1003.64
 31
0.0
  0
LINE
  8
0
  6
CONTINUOUS
 62
     2
 10
1311.72
 20
1511.24
 30
0.0
 11
1311.72
 21
1003.64
 31
0.0
  0
LINE
  8
0
  6
CONTINUOUS
 62
     2
 10
1407.72
 20
1511.24
 30
0.0
 11
1407.72
 21
1003.64
 31
0.0
  0
LINE
  8
0
  6
CONTINUOUS
 62
     2
 10
1503.72
 20
1511.24
 30
0.0
 11
1503.72
 21
1003.64
 31
0.0
  0
LINE
  8
0
  6
CONTINUOUS
 62
     2
 10
1599.72
 20
1511.24
 30
0.0
 11
1599.72
 21
1003.64
 31
0.0
  0
LINE
  8
0
  6
CONTINUOUS
 62
     2
 10
1695.72
 20
1511.24
 30
0.0
 11
1695.72
 21
1003.64
 31
0.0
  0
LINE
  8
0
  6
CONTINUOUS
 62
     1
 10
1791.72
 20
1511.24
 30
0.0
 11
1791.72
 21
1003.64
 31
0.0
  0
LINE
  8
0
  6
CONTINUOUS
 62
     2
 10
878.683402385
 20
149.783330769
 30
0.0
 11
878.683402385
 21
95.533330769
 31
0.0
  0
LINE
  8
0
  6
CONTINUOUS
 62
     2
 10
719.483402385
 20
137.533330769
 30
0.0
 11
878.683402385
 21
137.533330769
 31
0.0
  0
LINE
  8
0
  6
CONTINUOUS
 62
     2
 10
878.683402385
 20
137.533330769
 30
0.0
 11
870.955995774
 21
139.60388313
 31
0.0
  0
LINE
  8
0
  6
CONTINUOUS
 62
     2
 10
878.683402385
 20
137.533330769
 30
0.0
 11
870.955995774
 21
135.462778408
 31
0.0
  0
TEXT
  8
0
  6
CONTINUOUS
 62
     3
 10
757.633402385
 20
139.533330769
 30
0.0
 40
15.0
  1
常用ストローク
 50
0.0
 41
0.9
 51
0.0
  7
KANJI18
  0
TEXT
  8
0
  6
CONTINUOUS
 62
     2
 10
1333.32
 20
1169.68
 30
1.44
 40
14.4
  1
１９０４
 50
0.0
 41
0.9
 51
0.0
  7
KANJI43
  0
TEXT
  8
0
  6
CONTINUOUS
 62
     2
 10
1333.32
 20
1138.08
 30
1.44
 40
14.4
  1
２０２７
 50
0.0
 41
0.9
 51
0.0
  7
KANJI43
  0
TEXT
  8
0
  6
CONTINUOUS
 62
     2
 10
1333.32
 20
1106.48
 30
1.44
 40
14.4
  1
２１４７
 50
0.0
 41
0.9
 51
0.0
  7
KANJI43
  0
TEXT
  8
0
  6
CONTINUOUS
 62
     2
 10
1333.32
 20
1074.88
 30
1.44
 40
14.4
  1
２２６９
 50
0.0
 41
0.9
 51
0.0
  7
KANJI43
  0
TEXT
  8
0
  6
CONTINUOUS
 62
     2
 10
1333.32
 20
1043.28
 30
1.44
 40
14.4
  1
２４０９
 50
0.0
 41
0.9
 51
0.0
  7
KANJI43
  0
TEXT
  8
0
  6
CONTINUOUS
 62
     2
 10
1429.32
 20
1043.28
 30
1.44
 40
14.4
  1
２２１２
 50
0.0
 41
0.9
 51
0.0
  7
KANJI43
  0
TEXT
  8
0
  6
CONTINUOUS
 62
     2
 10
1429.32
 20
1074.88
 30
1.44
 40
14.4
  1
２０７２
 50
0.0
 41
0.9
 51
0.0
  7
KANJI43
  0
TEXT
  8
0
  6
CONTINUOUS
 62
     2
 10
1429.32
 20
1106.48
 30
1.44
 40
14.4
  1
１９５０
 50
0.0
 41
0.9
 51
0.0
  7
KANJI43
  0
TEXT
  8
0
  6
CONTINUOUS
 62
     2
 10
1429.32
 20
1138.08
 30
1.44
 40
14.4
  1
１８３０
 50
0.0
 41
0.9
 51
0.0
  7
KANJI43
  0
TEXT
  8
0
  6
CONTINUOUS
 62
     2
 10
1429.32
 20
1169.68
 30
1.44
 40
14.4
  1
１７０７
 50
0.0
 41
0.9
 51
0.0
  7
KANJI43
  0
TEXT
  8
0
  6
CONTINUOUS
 62
     2
 10
1648.5200334
 20
126.899994
 30
1.8
 40
21.0
  1
０７．１０．０４
 50
0.0
 41
0.571428571
 51
0.0
  7
KANJI49
  0
LINE
  8
0
  6
LTYPE5
 62
     2
 10
1245.8
 20
740.733974596
 30
0.0
 11
1481.0
 21
740.733974596
 31
0.0
  0
LINE
  8
0
  6
CONTINUOUS
 62
     2
 10
1506.0
 20
740.733974596
 30
0.0
 11
1548.3
 21
740.733974596
 31
0.0
  0
LINE
  8
0
  6
CONTINUOUS
 62
     2
 10
1873.92
 20
896.7
 30
0.0
 11
2398.92
 21
896.7
 31
0.0
  0
LINE
  8
0
  6
CONTINUOUS
 62
     2
 10
1873.92
 20
854.7
 30
0.0
 11
2398.92
 21
854.7
 31
0.0
  0
LINE
  8
0
  6
CONTINUOUS
 62
     2
 10
1921.92
 20
1232.7
 30
0.0
 11
1921.92
 21
896.7
 31
0.0
  0
TEXT
  8
0
  6
CONTINUOUS
 62
     2
 10
1906.92
 20
865.5
 30
79.962857143
 40
22.8
  1
付属品
 50
0.0
 41
0.9
 51
0.0
  7
KANJI50
  0
TEXT
  8
0
  6
CONTINUOUS
 62
     2
 10
1906.92
 20
823.5
 30
180.445714286
 40
22.8
  1
台数
 50
0.0
 41
0.9
 51
0.0
  7
KANJI51
  0
LINE
  8
0
  6
CONTINUOUS
 62
     1
 10
1873.92
 20
1628.7
 30
0.0
 11
2398.92
 21
1628.7
 31
0.0
  0
TEXT
  8
0
  6
CONTINUOUS
 62
     2
 10
1948.92
 20
1584.9
 30
17.09964
 40
27.0
  1
マイティシリンダ仕様
 50
0.0
 41
0.9
 51
0.0
  7
KANJI52
  0
LINE
  8
0
  6
CONTINUOUS
 62
     2
 10
1921.92
 20
938.7
 30
0.0
 11
2398.92
 21
938.7
 31
0.0
  0
LINE
  8
0
  6
CONTINUOUS
 62
     2
 10
1921.92
 20
1064.7
 30
0.0
 11
2398.92
 21
1064.7
 31
0.0
  0
LINE
  8
0
  6
CONTINUOUS
 62
     2
 10
1921.92
 20
1106.7
 30
0.0
 11
2398.92
 21
1106.7
 31
0.0
  0
LINE
  8
0
  6
CONTINUOUS
 62
     2
 10
1873.92
 20
1316.7
 30
0.0
 11
2398.92
 21
1316.7
 31
0.0
  0
LINE
  8
0
  6
CONTINUOUS
 62
     2
 10
1873.92
 20
1274.7
 30
0.0
 11
2398.92
 21
1274.7
 31
0.0
  0
LINE
  8
0
  6
CONTINUOUS
 62
     2
 10
1873.92
 20
1232.7
 30
0.0
 11
2398.92
 21
1232.7
 31
0.0
  0
LINE
  8
0
  6
CONTINUOUS
 62
     2
 10
1921.92
 20
1148.7
 30
0.0
 11
2398.92
 21
1148.7
 31
0.0
  0
LINE
  8
0
  6
CONTINUOUS
 62
     2
 10
1921.92
 20
1190.7
 30
0.0
 11
2398.92
 21
1190.7
 31
0.0
  0
LINE
  8
0
  6
CONTINUOUS
 62
     2
 10
1873.92
 20
1526.7
 30
0.0
 11
2398.92
 21
1526.7
 31
0.0
  0
LINE
  8
0
  6
CONTINUOUS
 62
     2
 10
1873.92
 20
1484.7
 30
0.0
 11
2398.92
 21
1484.7
 31
0.0
  0
LINE
  8
0
  6
CONTINUOUS
 62
     2
 10
1873.92
 20
1442.7
 30
0.0
 11
2398.92
 21
1442.7
 31
0.0
  0
LINE
  8
0
  6
CONTINUOUS
 62
     2
 10
1873.92
 20
1400.7
 30
0.0
 11
2398.92
 21
1400.7
 31
0.0
  0
LINE
  8
0
  6
CONTINUOUS
 62
     2
 10
1873.92
 20
1358.7
 30
0.0
 11
2398.92
 21
1358.7
 31
0.0
  0
LINE
  8
0
  6
CONTINUOUS
 62
     2
 10
1873.92
 20
1568.7
 30
0.0
 11
2398.92
 21
1568.7
 31
0.0
  0
TEXT
  8
0
  6
CONTINUOUS
 62
     2
 10
1948.92
 20
1159.5
 30
33.439782857
 40
22.8
  1
電源電圧
 50
0.0
 41
0.9
 51
0.0
  7
KANJI53
  0
TEXT
  8
0
  6
CONTINUOUS
 62
     2
 10
1948.92
 20
1117.5
 30
60.42
 40
22.8
  1
周波数
 50
0.0
 41
0.9
 51
0.0
  7
KANJI54
  0
TEXT
  8
0
  6
CONTINUOUS
 62
     2
 10
1948.92
 20
1075.5
 30
141.36
 40
22.8
  1
電流
 50
0.0
 41
0.9
 51
0.0
  7
KANJI55
  0
TEXT
  8
0
  6
CONTINUOUS
 62
     2
 10
1948.92
 20
1033.5
 30
60.42
 40
22.8
  1
絶縁級
 50
0.0
 41
0.9
 51
0.0
  7
KANJI54
  0
TEXT
  8
0
  6
CONTINUOUS
 62
     2
 10
1906.92
 20
1537.5
 30
180.445714286
 40
22.8
  1
形式
 50
0.0
 41
0.9
 51
0.0
  7
KANJI51
  0
TEXT
  8
0
  6
CONTINUOUS
 62
     2
 10
1906.92
 20
1495.5
 30
180.445714286
 40
22.8
  1
推力
 50
0.0
 41
0.9
 51
0.0
  7
KANJI51
  0
TEXT
  8
0
  6
CONTINUOUS
 62
     2
 10
1906.92
 20
1453.5
 30
29.721428571
 40
22.8
  1
ストローク
 50
0.0
 41
0.9
 51
0.0
  7
KANJI56
  0
TEXT
  8
0
  6
CONTINUOUS
 62
     2
 10
1906.92
 20
1327.5
 30
180.445714286
 40
22.8
  1
構造
 50
0.0
 41
0.9
 51
0.0
  7
KANJI51
  0
TEXT
  8
0
  6
CONTINUOUS
 62
     2
 10
1906.92
 20
1285.5
 30
12.973851429
 40
22.8
  1
過負荷安全装置
 50
0.0
 41
0.9
 51
0.0
  7
KANJI57
  0
TEXT
  8
0
  6
CONTINUOUS
 62
     2
 10
1906.92
 20
1243.5
 30
79.962857143
 40
22.8
  1
塗装色
 50
0.0
 41
0.9
 51
0.0
  7
KANJI50
  0
TEXT
  8
0
  6
CONTINUOUS
 62
     2
 10
1882.92
 20
1369.5
 30
1.954285714
 40
22.8
  1
ピストンロッド回転トルク
 50
0.0
 41
0.9
 51
0.0
  7
KANJI58
  0
LINE
  8
0
  6
CONTINUOUS
 62
     2
 10
1873.92
 20
1022.7
 30
0.0
 11
2398.92
 21
1022.7
 31
0.0
  0
LINE
  8
0
  6
CONTINUOUS
 62
     2
 10
1921.92
 20
980.7
 30
0.0
 11
2398.92
 21
980.7
 31
0.0
  0
TEXT
  8
0
  6
CONTINUOUS
 62
     2
 10
1898.37
 20
1226.7
 30
13.2
 40
21.0
  1
モ　トル仕様
 50
0.0
 41
0.9
 51
0.0
  7
KANJI59
  0
TEXT
  8
0
  6
CONTINUOUS
 62
     2
 10
1898.37
 20
1004.7
 30
1.2
 40
21.0
  1
ブレ　キ
 50
0.0
 41
0.9
 51
0.0
  7
KANJI60
  0
LINE
  8
0
  6
CONTINUOUS
 62
     2
 10
1896.72
 20
954.9
 30
0.0
 11
1896.72
 21
942.3
 31
0.0
  0
TEXT
  8
0
  6
CONTINUOUS
 62
     2
 10
2208.42
 20
1286.7
 30
9.0
 40
21.0
  1
推力リミッタ
 50
0.0
 41
0.9
 51
0.0
  7
KANJI61
  0
TEXT
  8
0
  6
CONTINUOUS
 62
     2
 10
2265.42
 20
1034.7
 30
1.8
 40
18.0
  1
Ｅ
 50
0.0
 41
0.9
 51
0.0
  7
KANJI62
  0
TEXT
  8
0
  6
CONTINUOUS
 62
     2
 10
2221.92
 20
949.5
 30
12.0
 40
21.0
  1
同時切り
 50
0.0
 41
0.9
 51
0.0
  7
KANJI63
  0
TEXT
  8
0
  6
CONTINUOUS
 62
     2
 10
1948.92
 20
991.5
 30
141.36
 40
22.8
  1
形式
 50
0.0
 41
0.9
 51
0.0
  7
KANJI55
  0
TEXT
  8
0
  6
CONTINUOUS
 62
     2
 10
1948.92
 20
949.5
 30
33.439782857
 40
22.8
  1
操作方式
 50
0.0
 41
0.9
 51
0.0
  7
KANJI53
  0
LINE
  8
0
  6
CONTINUOUS
 62
     2
 10
1896.72
 20
1190.1
 30
0.0
 11
1896.72
 21
1176.3
 31
0.0
  0
TEXT
  8
0
  6
CONTINUOUS
 62
     2
 10
1948.92
 20
1201.5
 30
3.0
 40
22.8
  1
出力　相数　極数
 50
0.0
 41
0.9
 51
0.0
  7
KANJI64
  0
TEXT
  8
0
  6
CONTINUOUS
 62
     2
 10
1906.92
 20
1411.5
 30
12.0
 40
22.8
  1
公称速度
 50
0.0
 41
0.9
 51
0.0
  7
KANJI65
  0
TEXT
  8
0
  6
CONTINUOUS
 62
     2
 10
2030.82
 20
1410.3
 30
0.0
 40
21.0
  1
（５０／６０Ｈｚ）
 50
0.0
 41
0.628571429
 51
0.0
  7
KANJI66
  0
TEXT
  8
0
  6
CONTINUOUS
 62
     2
 10
2151.42
 20
991.95
 30
3.3
 40
20.4
  1
スプリング制動式電磁ブレーキ
 50
0.0
 41
0.705882353
 51
0.0
  7
KANJI67
  0
TEXT
  8
0
  6
CONTINUOUS
 62
     2
 10
2370.42
 20
1159.5
 30
0.216
 40
18.0
  1
Ｖ
 50
0.0
 41
0.8
 51
0.0
  7
KANJI68
  0
TEXT
  8
0
  6
CONTINUOUS
 62
     2
 10
2359.62
 20
1117.5
 30
0.216
 40
18.0
  1
Ｈｚ
 50
0.0
 41
0.8
 51
0.0
  7
KANJI68
  0
TEXT
  8
0
  6
CONTINUOUS
 62
     2
 10
2370.42
 20
1075.5
 30
0.216
 40
18.0
  1
Ａ
 50
0.0
 41
0.8
 51
0.0
  7
KANJI68
  0
TEXT
  8
0
  6
CONTINUOUS
 62
     2
 10
2291.52
 20
1202.7
 30
1.8
 40
18.0
  1
３φ
 50
0.0
 41
0.9
 51
0.0
  7
KANJI62
  0
TEXT
  8
0
  6
CONTINUOUS
 62
     2
 10
2351.52
 20
1202.7
 30
1.8
 40
18.0
  1
４Ｐ
 50
0.0
 41
0.9
 51
0.0
  7
KANJI62
  0
TEXT
  8
0
  6
CONTINUOUS
 62
     2
 10
2149.92
 20
1244.7
 30
1.2
 40
19.2
  1
マンセル　７．５ＧＹ　５／４．５
 50
0.0
 41
0.71875
 51
0.0
  7
KANJI69
  0
TEXT
  8
0
  6
CONTINUOUS
 62
     2
 10
2149.92
 20
1160.7
 30
1.8
 40
18.0
  1
　　　　　　　／　　　
 50
0.0
 41
0.9
 51
0.0
  7
KANJI62
  0
TEXT
  8
0
  6
CONTINUOUS
 62
     2
 10
2149.92
 20
1118.7
 30
1.8
 40
18.0
  1
　　　　５０／　６０
 50
0.0
 41
0.9
 51
0.0
  7
KANJI62
  0
TEXT
  8
0
  6
CONTINUOUS
 62
     2
 10
2149.92
 20
1076.7
 30
1.8
 40
18.0
  1
　　　　　　　／　　　
 50
0.0
 41
0.9
 51
0.0
  7
KANJI62
  0
TEXT
  8
0
  6
CONTINUOUS
 62
     2
 10
2354.52
 20
1455.9
 30
0.1536
 40
19.2
  1
ｍｍ
 50
0.0
 41
0.8
 51
0.0
  7
KANJI70
  0
TEXT
  8
0
  6
CONTINUOUS
 62
     2
 10
2315.52
 20
1412.7
 30
0.0
 40
21.0
  1
ｍｍ／ｓｅｃ
 50
0.0
 41
0.571428571
 51
0.0
  7
KANJI71
  0
TEXT
  8
0
  6
CONTINUOUS
 62
     2
 10
2155.92
 20
1202.7
 30
1.8
 40
18.0
  1
　１．１ＫＷ
 50
0.0
 41
0.9
 51
0.0
  7
KANJI62
  0
TEXT
  8
0
  6
CONTINUOUS
 62
     2
 10
2193.72
 20
1496.7
 30
1.8
 40
18.0
  1
１９．６ＫＮ（２ｔｏｎ）
 50
0.0
 41
0.9
 51
0.0
  7
KANJI62
  0
TEXT
  8
0
  6
CONTINUOUS
 62
     2
 10
2152.92
 20
1412.7
 30
1.8
 40
18.0
  1
　２４．２／２９
 50
0.0
 41
0.9
 51
0.0
  7
KANJI62
  0
TEXT
  8
0
  6
CONTINUOUS
 62
     2
 10
2208.42
 20
1328.7
 30
9.0
 40
21.0
  1
全閉屋外形
 50
0.0
 41
0.9
 51
0.0
  7
KANJI61
  0
TEXT
  8
0
  6
CONTINUOUS
 62
     2
 10
2163.42
 20
1536.6
 30
1.2
 40
18.0
  1
ＭＣＬＤ２Ｃ－　　Ｊ
 50
0.0
 41
0.833333333
 51
0.0
  7
KANJI72
  0
LINE
  8
0
  6
CONTINUOUS
 62
     1
 10
1873.92
 20
770.7
 30
0.0
 11
2398.92
 21
770.7
 31
0.0
  0
LINE
  8
0
  6
CONTINUOUS
 62
     2
 10
1873.92
 20
812.7
 30
0.0
 11
2398.92
 21
812.7
 31
0.0
  0
TEXT
  8
0
  6
CONTINUOUS
 62
     2
 10
2343.72
 20
782.88
 30
0.0
 40
21.0
  1
ｋｇ
 50
0.0
 41
0.9
 51
0.0
  7
KANJI73
  0
TEXT
  8
0
  6
CONTINUOUS
 62
     2
 10
1905.72
 20
781.5
 30
6.0
 40
21.0
  1
概算重量（１台当り）
 50
0.0
 41
0.857142857
 51
0.0
  7
KANJI74
  0
TEXT
  8
0
  6
CONTINUOUS
 62
     2
 10
2182.92
 20
1370.7
 30
0.0
 40
18.0
  1
３９Ｎ・ｍ（４ｋｇ・ｍ）
 50
0.0
 41
0.833333333
 51
0.0
  7
KANJI75
  0
LINE
  8
0
  6
CONTINUOUS
 62
     1
 10
1873.92
 20
1628.7
 30
0.0
 11
1873.92
 21
770.7
 31
0.0
  0
LINE
  8
0
  6
CONTINUOUS
 62
     2
 10
2149.92
 20
1568.7
 30
0.0
 11
2149.92
 21
770.7
 31
0.0
  0
LINE
  8
0
  6
CONTINUOUS
 62
     1
 10
2398.92
 20
1628.7
 30
0.0
 11
2398.92
 21
770.7
 31
0.0
  0
ENDSEC
  0
EOF
