  0
SECTION
  2
HEADER
  9
$ACADVER
  1
AC1009
  9
$DWGCODEPAGE
  3
dos932
  9
$EXTMIN
 10
0.0
 20
0.0
 30
0.0
  9
$EXTMAX
 10
2520.0
 20
1782.0
 30
0.0
  9
$LIMMIN
 10
0.0
 20
0.0
  9
$LIMMAX
 10
2520.0
 20
1782.0
  9
$LTSCALE
 40
1.0
  9
$PDMODE
 70
     0
  0
ENDSEC
  0
SECTION
  2
TABLES
  0
TABLE
  2
VPORT
 70
     1
  0
VPORT
  2
*ACTIVE
 70
     0
 10
0.0
 20
0.0
 11
1.0
 21
1.0
 12
1260.0
 22
891.0
 13
0.0
 23
0.0
 14
10.0
 24
10.0
 15
10.0
 25
10.0
 16
0.0
 26
0.0
 36
1.0
 17
0.0
 27
0.0
 37
0.0
 40
2520.0
 41
1.414141414
 42
50.0
 43
0.0
 44
0.0
 50
0.0
 51
0.0
 71
     0
 72
  1000
 73
     1
 74
     3
 75
     0
 76
     0
 77
     0
 78
     0
  0
ENDTAB
  0
TABLE
  2
LTYPE
 70
     7
  0
LTYPE
  2
CONTINUOUS
 70
    64
  3
Solid line
 72
    65
 73
     0
 40
0.0
  0
LTYPE
  2
LTYPE1
 70
    64
  3
HIDDEN
 72
    65
 73
     2
 40
18.0
 49
10.8
 49
-7.2
  0
LTYPE
  2
LTYPE2
 70
    64
  3
CENTER
 72
    65
 73
     4
 40
90.0
 49
63.0
 49
-9.0
 49
9.0
 49
-9.0
  0
LTYPE
  2
LTYPE3
 70
    64
  3
CENTER
 72
    65
 73
     4
 40
60.0
 49
42.0
 49
-6.0
 49
6.0
 49
-6.0
  0
LTYPE
  2
LTYPE4
 70
    64
  3
CENTER
 72
    65
 73
     4
 40
120.0
 49
84.0
 49
-12.0
 49
12.0
 49
-12.0
  0
LTYPE
  2
LTYPE5
 70
    64
  3
CENTER
 72
    65
 73
     4
 40
54.0
 49
37.8
 49
-5.4
 49
5.4
 49
-5.4
  0
LTYPE
  2
LTYPE6
 70
    64
  3
PHANTOM
 72
    65
 73
     6
 40
60.0
 49
45.0
 49
-3.0
 49
3.0
 49
-3.0
 49
3.0
 49
-3.0
  0
ENDTAB
  0
TABLE
  2
LAYER
 70
   128
  0
LAYER
  2
0
 70
     0
 62
     7
  6
CONTINUOUS
  0
LAYER
  2
2
 70
     0
 62
     7
  6
CONTINUOUS
  0
LAYER
  2
3
 70
     0
 62
     7
  6
CONTINUOUS
  0
LAYER
  2
4
 70
     0
 62
     7
  6
CONTINUOUS
  0
LAYER
  2
5
 70
     0
 62
     7
  6
CONTINUOUS
  0
LAYER
  2
6
 70
     0
 62
     7
  6
CONTINUOUS
  0
LAYER
  2
7
 70
     0
 62
     7
  6
CONTINUOUS
  0
LAYER
  2
8
 70
     0
 62
     7
  6
CONTINUOUS
  0
LAYER
  2
9
 70
     0
 62
     7
  6
CONTINUOUS
  0
LAYER
  2
10
 70
     0
 62
     7
  6
CONTINUOUS
  0
LAYER
  2
11
 70
     0
 62
     7
  6
CONTINUOUS
  0
LAYER
  2
12
 70
     0
 62
     7
  6
CONTINUOUS
  0
LAYER
  2
13
 70
     0
 62
     7
  6
CONTINUOUS
  0
LAYER
  2
14
 70
     0
 62
     7
  6
CONTINUOUS
  0
LAYER
  2
15
 70
     0
 62
     7
  6
CONTINUOUS
  0
LAYER
  2
16
 70
     0
 62
     7
  6
CONTINUOUS
  0
LAYER
  2
17
 70
     0
 62
     7
  6
CONTINUOUS
  0
LAYER
  2
18
 70
     0
 62
     7
  6
CONTINUOUS
  0
LAYER
  2
19
 70
     0
 62
     7
  6
CONTINUOUS
  0
LAYER
  2
20
 70
     0
 62
     7
  6
CONTINUOUS
  0
LAYER
  2
21
 70
     0
 62
     7
  6
CONTINUOUS
  0
LAYER
  2
22
 70
     0
 62
     7
  6
CONTINUOUS
  0
LAYER
  2
23
 70
     0
 62
     7
  6
CONTINUOUS
  0
LAYER
  2
24
 70
     0
 62
     7
  6
CONTINUOUS
  0
LAYER
  2
25
 70
     0
 62
     7
  6
CONTINUOUS
  0
LAYER
  2
26
 70
     0
 62
     7
  6
CONTINUOUS
  0
LAYER
  2
27
 70
     0
 62
     7
  6
CONTINUOUS
  0
LAYER
  2
28
 70
     0
 62
     7
  6
CONTINUOUS
  0
LAYER
  2
29
 70
     0
 62
     7
  6
CONTINUOUS
  0
LAYER
  2
30
 70
     0
 62
     7
  6
CONTINUOUS
  0
LAYER
  2
31
 70
     0
 62
     7
  6
CONTINUOUS
  0
LAYER
  2
32
 70
     0
 62
     7
  6
CONTINUOUS
  0
LAYER
  2
33
 70
     0
 62
     7
  6
CONTINUOUS
  0
LAYER
  2
34
 70
     0
 62
     7
  6
CONTINUOUS
  0
LAYER
  2
35
 70
     0
 62
     7
  6
CONTINUOUS
  0
LAYER
  2
36
 70
     0
 62
     7
  6
CONTINUOUS
  0
LAYER
  2
37
 70
     0
 62
     7
  6
CONTINUOUS
  0
LAYER
  2
38
 70
     0
 62
     7
  6
CONTINUOUS
  0
LAYER
  2
39
 70
     0
 62
     7
  6
CONTINUOUS
  0
LAYER
  2
40
 70
     0
 62
     7
  6
CONTINUOUS
  0
LAYER
  2
41
 70
     0
 62
     7
  6
CONTINUOUS
  0
LAYER
  2
42
 70
     0
 62
     7
  6
CONTINUOUS
  0
LAYER
  2
43
 70
     0
 62
     7
  6
CONTINUOUS
  0
LAYER
  2
44
 70
     0
 62
     7
  6
CONTINUOUS
  0
LAYER
  2
45
 70
     0
 62
     7
  6
CONTINUOUS
  0
LAYER
  2
46
 70
     0
 62
     7
  6
CONTINUOUS
  0
LAYER
  2
47
 70
     0
 62
     7
  6
CONTINUOUS
  0
LAYER
  2
48
 70
     0
 62
     7
  6
CONTINUOUS
  0
LAYER
  2
49
 70
     0
 62
     7
  6
CONTINUOUS
  0
LAYER
  2
50
 70
     0
 62
     7
  6
CONTINUOUS
  0
LAYER
  2
51
 70
     0
 62
     7
  6
CONTINUOUS
  0
LAYER
  2
52
 70
     0
 62
     7
  6
CONTINUOUS
  0
LAYER
  2
53
 70
     0
 62
     7
  6
CONTINUOUS
  0
LAYER
  2
54
 70
     0
 62
     7
  6
CONTINUOUS
  0
LAYER
  2
55
 70
     0
 62
     7
  6
CONTINUOUS
  0
LAYER
  2
56
 70
     0
 62
     7
  6
CONTINUOUS
  0
LAYER
  2
57
 70
     0
 62
     7
  6
CONTINUOUS
  0
LAYER
  2
58
 70
     0
 62
     7
  6
CONTINUOUS
  0
LAYER
  2
59
 70
     0
 62
     7
  6
CONTINUOUS
  0
LAYER
  2
60
 70
     0
 62
     7
  6
CONTINUOUS
  0
LAYER
  2
61
 70
     0
 62
     7
  6
CONTINUOUS
  0
LAYER
  2
62
 70
     0
 62
     7
  6
CONTINUOUS
  0
LAYER
  2
63
 70
     0
 62
     7
  6
CONTINUOUS
  0
LAYER
  2
64
 70
     0
 62
     7
  6
CONTINUOUS
  0
LAYER
  2
65
 70
     0
 62
     7
  6
CONTINUOUS
  0
LAYER
  2
66
 70
     0
 62
     7
  6
CONTINUOUS
  0
LAYER
  2
67
 70
     0
 62
     7
  6
CONTINUOUS
  0
LAYER
  2
68
 70
     0
 62
     7
  6
CONTINUOUS
  0
LAYER
  2
69
 70
     0
 62
     7
  6
CONTINUOUS
  0
LAYER
  2
70
 70
     0
 62
     7
  6
CONTINUOUS
  0
LAYER
  2
71
 70
     0
 62
     7
  6
CONTINUOUS
  0
LAYER
  2
72
 70
     0
 62
     7
  6
CONTINUOUS
  0
LAYER
  2
73
 70
     0
 62
     7
  6
CONTINUOUS
  0
LAYER
  2
74
 70
     0
 62
     7
  6
CONTINUOUS
  0
LAYER
  2
75
 70
     0
 62
     7
  6
CONTINUOUS
  0
LAYER
  2
76
 70
     0
 62
     7
  6
CONTINUOUS
  0
LAYER
  2
77
 70
     0
 62
     7
  6
CONTINUOUS
  0
LAYER
  2
78
 70
     0
 62
     7
  6
CONTINUOUS
  0
LAYER
  2
79
 70
     0
 62
     7
  6
CONTINUOUS
  0
LAYER
  2
80
 70
     0
 62
     7
  6
CONTINUOUS
  0
LAYER
  2
81
 70
     0
 62
     7
  6
CONTINUOUS
  0
LAYER
  2
82
 70
     0
 62
     7
  6
CONTINUOUS
  0
LAYER
  2
83
 70
     0
 62
     7
  6
CONTINUOUS
  0
LAYER
  2
84
 70
     0
 62
     7
  6
CONTINUOUS
  0
LAYER
  2
85
 70
     0
 62
     7
  6
CONTINUOUS
  0
LAYER
  2
86
 70
     0
 62
     7
  6
CONTINUOUS
  0
LAYER
  2
87
 70
     0
 62
     7
  6
CONTINUOUS
  0
LAYER
  2
88
 70
     0
 62
     7
  6
CONTINUOUS
  0
LAYER
  2
89
 70
     0
 62
     7
  6
CONTINUOUS
  0
LAYER
  2
90
 70
     0
 62
     7
  6
CONTINUOUS
  0
LAYER
  2
91
 70
     0
 62
     7
  6
CONTINUOUS
  0
LAYER
  2
92
 70
     0
 62
     7
  6
CONTINUOUS
  0
LAYER
  2
93
 70
     0
 62
     7
  6
CONTINUOUS
  0
LAYER
  2
94
 70
     0
 62
     7
  6
CONTINUOUS
  0
LAYER
  2
95
 70
     0
 62
     7
  6
CONTINUOUS
  0
LAYER
  2
96
 70
     0
 62
     7
  6
CONTINUOUS
  0
LAYER
  2
97
 70
     0
 62
     7
  6
CONTINUOUS
  0
LAYER
  2
98
 70
     0
 62
     7
  6
CONTINUOUS
  0
LAYER
  2
99
 70
     0
 62
     7
  6
CONTINUOUS
  0
LAYER
  2
100
 70
     0
 62
     7
  6
CONTINUOUS
  0
LAYER
  2
101
 70
     0
 62
     7
  6
CONTINUOUS
  0
LAYER
  2
102
 70
     0
 62
     7
  6
CONTINUOUS
  0
LAYER
  2
103
 70
     0
 62
     7
  6
CONTINUOUS
  0
LAYER
  2
104
 70
     0
 62
     7
  6
CONTINUOUS
  0
LAYER
  2
105
 70
     0
 62
     7
  6
CONTINUOUS
  0
LAYER
  2
106
 70
     0
 62
     7
  6
CONTINUOUS
  0
LAYER
  2
107
 70
     0
 62
     7
  6
CONTINUOUS
  0
LAYER
  2
108
 70
     0
 62
     7
  6
CONTINUOUS
  0
LAYER
  2
109
 70
     0
 62
     7
  6
CONTINUOUS
  0
LAYER
  2
110
 70
     0
 62
     7
  6
CONTINUOUS
  0
LAYER
  2
111
 70
     0
 62
     7
  6
CONTINUOUS
  0
LAYER
  2
112
 70
     0
 62
     7
  6
CONTINUOUS
  0
LAYER
  2
113
 70
     0
 62
     7
  6
CONTINUOUS
  0
LAYER
  2
114
 70
     0
 62
     7
  6
CONTINUOUS
  0
LAYER
  2
115
 70
     0
 62
     7
  6
CONTINUOUS
  0
LAYER
  2
116
 70
     0
 62
     7
  6
CONTINUOUS
  0
LAYER
  2
117
 70
     0
 62
     7
  6
CONTINUOUS
  0
LAYER
  2
118
 70
     0
 62
     7
  6
CONTINUOUS
  0
LAYER
  2
119
 70
     0
 62
     7
  6
CONTINUOUS
  0
LAYER
  2
120
 70
     0
 62
     7
  6
CONTINUOUS
  0
LAYER
  2
121
 70
     0
 62
     7
  6
CONTINUOUS
  0
LAYER
  2
122
 70
     0
 62
     7
  6
CONTINUOUS
  0
LAYER
  2
123
 70
     0
 62
     7
  6
CONTINUOUS
  0
LAYER
  2
124
 70
     0
 62
     7
  6
CONTINUOUS
  0
LAYER
  2
125
 70
     0
 62
     7
  6
CONTINUOUS
  0
LAYER
  2
126
 70
     0
 62
     7
  6
CONTINUOUS
  0
LAYER
  2
127
 70
     0
 62
     7
  6
CONTINUOUS
  0
LAYER
  2
128
 70
     0
 62
     7
  6
CONTINUOUS
  0
ENDTAB
  0
TABLE
  2
STYLE
 70
    87
  0
STYLE
  2
STANDARD
 70
     0
 40
0.0
 41
1.0
 50
0.0
 71
     0
 42
0.2
  3
txt.shx
  4
extfont.shx
  0
STYLE
  2
KANJI0
 70
     0
 40
15.5999988
 41
0.75
 50
0.0
 71
     0
 42
15.5999988
  3
txt.shx
  4
extfont.shx
  0
STYLE
  2
KANJI1
 70
     0
 40
11.999997477
 41
0.6
 50
0.0
 71
     0
 42
11.999997477
  3
txt.shx
  4
extfont.shx
  0
STYLE
  2
KANJI2
 70
     0
 40
14.399996972
 41
0.9
 50
0.0
 71
     0
 42
14.399996972
  3
txt.shx
  4
extfont.shx
  0
STYLE
  2
KANJI3
 70
     0
 40
17.999996215
 41
0.9
 50
0.0
 71
     0
 42
17.999996215
  3
txt.shx
  4
extfont.shx
  0
STYLE
  2
KANJI4
 70
     0
 40
10.3999992
 41
0.6
 50
0.0
 71
     0
 42
10.3999992
  3
txt.shx
  4
extfont.shx
  0
STYLE
  2
KANJI5
 70
     0
 40
12.47999904
 41
0.6
 50
0.0
 71
     0
 42
12.47999904
  3
txt.shx
  4
extfont.shx
  0
STYLE
  2
KANJI6
 70
     0
 40
18.1999986
 41
0.42031746
 50
0.0
 71
     0
 42
18.1999986
  3
txt.shx
  4
extfont.shx
  0
STYLE
  2
KANJI7
 70
     0
 40
31.1999976
 41
0.9
 50
0.0
 71
     0
 42
31.1999976
  3
txt.shx
  4
extfont.shx
  0
STYLE
  2
KANJI8
 70
     0
 40
21.6
 41
1.111111111
 50
0.0
 71
     0
 42
21.6
  3
txt.shx
  4
extfont.shx
  0
STYLE
  2
KANJI9
 70
     0
 40
10.3999992
 41
0.8
 50
0.0
 71
     0
 42
10.3999992
  3
txt.shx
  4
extfont.shx
  0
STYLE
  2
KANJI10
 70
     0
 40
12.47999904
 41
0.8
 50
0.0
 71
     0
 42
12.47999904
  3
txt.shx
  4
extfont.shx
  0
STYLE
  2
KANJI11
 70
     0
 40
30.0
 41
1.0
 50
0.0
 71
     0
 42
30.0
  3
txt.shx
  4
extfont.shx
  0
STYLE
  2
KANJI12
 70
     0
 40
30.0
 41
1.0
 50
0.0
 71
     0
 42
30.0
  3
txt.shx
  4
extfont.shx
  0
STYLE
  2
KANJI13
 70
     0
 40
30.0
 41
0.8
 50
0.0
 71
     0
 42
30.0
  3
txt.shx
  4
extfont.shx
  0
STYLE
  2
KANJI14
 70
     0
 40
24.0
 41
1.0
 50
0.0
 71
     0
 42
24.0
  3
txt.shx
  4
extfont.shx
  0
STYLE
  2
KANJI15
 70
     0
 40
21.0
 41
0.857142857
 50
0.0
 71
     0
 42
21.0
  3
txt.shx
  4
extfont.shx
  0
STYLE
  2
KANJI16
 70
     0
 40
27.0
 41
0.666666667
 50
0.0
 71
     0
 42
27.0
  3
txt.shx
  4
extfont.shx
  0
STYLE
  2
KANJI17
 70
     0
 40
13.86
 41
0.9
 50
0.0
 71
     0
 42
13.86
  3
txt.shx
  4
extfont.shx
  0
STYLE
  2
KANJI18
 70
     0
 40
15.36
 41
0.9
 50
0.0
 71
     0
 42
15.36
  3
txt.shx
  4
extfont.shx
  0
STYLE
  2
KANJI19
 70
     0
 40
14.4
 41
0.9
 50
0.0
 71
     0
 42
14.4
  3
txt.shx
  4
extfont.shx
  0
STYLE
  2
KANJI20
 70
     0
 40
14.4
 41
0.9
 50
0.0
 71
     0
 42
14.4
  3
txt.shx
  4
extfont.shx
  0
STYLE
  2
KANJI21
 70
     0
 40
16.8
 41
0.9
 50
0.0
 71
     0
 42
16.8
  3
txt.shx
  4
extfont.shx
  0
STYLE
  2
KANJI22
 70
     0
 40
12.96
 41
0.740740741
 50
0.0
 71
     0
 42
12.96
  3
txt.shx
  4
extfont.shx
  0
STYLE
  2
KANJI23
 70
     0
 40
16.8
 41
0.857142857
 50
0.0
 71
     0
 42
16.8
  3
txt.shx
  4
extfont.shx
  0
STYLE
  2
KANJI24
 70
     0
 40
18.0
 41
0.9
 50
0.0
 71
     0
 42
18.0
  3
txt.shx
  4
extfont.shx
  0
STYLE
  2
KANJI25
 70
     0
 40
30.0
 41
0.8
 50
0.0
 71
     0
 42
30.0
  3
txt.shx
  4
extfont.shx
  0
STYLE
  2
KANJI26
 70
     0
 40
21.0
 41
0.793650794
 50
0.0
 71
     0
 42
21.0
  3
txt.shx
  4
extfont.shx
  0
STYLE
  2
KANJI27
 70
     0
 40
16.17
 41
0.9
 50
0.0
 71
     0
 42
16.17
  3
txt.shx
  4
extfont.shx
  0
STYLE
  2
KANJI28
 70
     0
 40
17.031074144
 41
0.880962996
 50
0.0
 71
     0
 42
17.031074144
  3
txt.shx
  4
extfont.shx
  0
STYLE
  2
KANJI29
 70
     0
 40
11.232
 41
0.8
 50
0.0
 71
     0
 42
11.232
  3
txt.shx
  4
extfont.shx
  0
STYLE
  2
KANJI30
 70
     0
 40
14.37696
 41
0.9125
 50
0.0
 71
     0
 42
14.37696
  3
txt.shx
  4
extfont.shx
  0
STYLE
  2
KANJI31
 70
     0
 40
14.4
 41
0.911
 50
0.0
 71
     0
 42
14.4
  3
txt.shx
  4
extfont.shx
  0
STYLE
  2
KANJI32
 70
     0
 40
13.9932
 41
0.943315325
 50
0.0
 71
     0
 42
13.9932
  3
txt.shx
  4
extfont.shx
  0
STYLE
  2
KANJI33
 70
     0
 40
18.0
 41
0.9
 50
0.0
 71
     0
 42
18.0
  3
txt.shx
  4
extfont.shx
  0
STYLE
  2
KANJI34
 70
     0
 40
18.223173404
 41
0.66671875
 50
0.0
 71
     0
 42
18.223173404
  3
txt.shx
  4
extfont.shx
  0
STYLE
  2
KANJI35
 70
     0
 40
21.867808085
 41
0.9
 50
0.0
 71
     0
 42
21.867808085
  3
txt.shx
  4
extfont.shx
  0
STYLE
  2
KANJI36
 70
     0
 40
18.72
 41
0.925
 50
0.0
 71
     0
 42
18.72
  3
txt.shx
  4
extfont.shx
  0
STYLE
  2
KANJI37
 70
     0
 40
17.494246468
 41
0.9
 50
0.0
 71
     0
 42
17.494246468
  3
txt.shx
  4
extfont.shx
  0
STYLE
  2
KANJI38
 70
     0
 40
13.120684851
 41
0.9
 50
0.0
 71
     0
 42
13.120684851
  3
txt.shx
  4
extfont.shx
  0
STYLE
  2
KANJI39
 70
     0
 40
18.0
 41
0.9
 50
0.0
 71
     0
 42
18.0
  3
txt.shx
  4
extfont.shx
  0
STYLE
  2
KANJI40
 70
     0
 40
18.0
 41
0.933333333
 50
0.0
 71
     0
 42
18.0
  3
txt.shx
  4
extfont.shx
  0
STYLE
  2
KANJI41
 70
     0
 40
27.0
 41
0.666666667
 50
0.0
 71
     0
 42
27.0
  3
txt.shx
  4
extfont.shx
  0
STYLE
  2
KANJI42
 70
     0
 40
20.0
 41
0.925
 50
0.0
 71
     0
 42
20.0
  3
txt.shx
  4
extfont.shx
  0
STYLE
  2
KANJI43
 70
     0
 40
14.4
 41
0.9
 50
0.0
 71
     0
 42
14.4
  3
txt.shx
  4
extfont.shx
  0
STYLE
  2
KANJI44
 70
     0
 40
18.0
 41
0.9
 50
0.0
 71
     0
 42
18.0
  3
txt.shx
  4
extfont.shx
  0
STYLE
  2
KANJI45
 70
     0
 40
21.0
 41
0.857142857
 50
0.0
 71
     0
 42
21.0
  3
txt.shx
  4
extfont.shx
  0
STYLE
  2
KANJI46
 70
     0
 40
20.0
 41
0.925
 50
0.0
 71
     0
 42
20.0
  3
txt.shx
  4
extfont.shx
  0
STYLE
  2
KANJI47
 70
     0
 40
18.0
 41
0.833333333
 50
0.0
 71
     0
 42
18.0
  3
txt.shx
  4
extfont.shx
  0
STYLE
  2
KANJI48
 70
     0
 40
15.0
 41
0.9
 50
0.0
 71
     0
 42
15.0
  3
txt.shx
  4
extfont.shx
  0
STYLE
  2
KANJI49
 70
     0
 40
18.0
 41
0.9
 50
0.0
 71
     0
 42
18.0
  3
txt.shx
  4
extfont.shx
  0
STYLE
  2
KANJI50
 70
     0
 40
21.0
 41
0.857222222
 50
0.0
 71
     0
 42
21.0
  3
txt.shx
  4
extfont.shx
  0
STYLE
  2
KANJI51
 70
     0
 40
21.0
 41
0.857142857
 50
0.0
 71
     0
 42
21.0
  3
txt.shx
  4
extfont.shx
  0
STYLE
  2
KANJI52
 70
     0
 40
24.0
 41
0.9
 50
0.0
 71
     0
 42
24.0
  3
txt.shx
  4
extfont.shx
  0
STYLE
  2
KANJI53
 70
     0
 40
14.4
 41
0.833333333
 50
0.0
 71
     0
 42
14.4
  3
txt.shx
  4
extfont.shx
  0
STYLE
  2
KANJI54
 70
     0
 40
18.0
 41
0.9
 50
0.0
 71
     0
 42
18.0
  3
txt.shx
  4
extfont.shx
  0
STYLE
  2
KANJI55
 70
     0
 40
18.0
 41
0.666666667
 50
0.0
 71
     0
 42
18.0
  3
txt.shx
  4
extfont.shx
  0
STYLE
  2
KANJI56
 70
     4
 40
180.0
 41
0.216666667
 50
0.0
 71
     0
 42
180.0
  3
txt.shx
  4
extfont.shx
  0
STYLE
  2
KANJI57
 70
     0
 40
18.98208
 41
0.85
 50
0.0
 71
     0
 42
18.98208
  3
txt.shx
  4
extfont.shx
  0
STYLE
  2
KANJI58
 70
     0
 40
16.8
 41
0.714285714
 50
0.0
 71
     0
 42
16.8
  3
txt.shx
  4
extfont.shx
  0
STYLE
  2
KANJI59
 70
     0
 40
22.8
 41
0.9
 50
0.0
 71
     0
 42
22.8
  3
txt.shx
  4
extfont.shx
  0
STYLE
  2
KANJI60
 70
     0
 40
22.8
 41
0.9
 50
0.0
 71
     0
 42
22.8
  3
txt.shx
  4
extfont.shx
  0
STYLE
  2
KANJI61
 70
     0
 40
27.0
 41
0.9
 50
0.0
 71
     0
 42
27.0
  3
txt.shx
  4
extfont.shx
  0
STYLE
  2
KANJI62
 70
     0
 40
22.8
 41
0.9
 50
0.0
 71
     0
 42
22.8
  3
txt.shx
  4
extfont.shx
  0
STYLE
  2
KANJI63
 70
     0
 40
22.8
 41
0.9
 50
0.0
 71
     0
 42
22.8
  3
txt.shx
  4
extfont.shx
  0
STYLE
  2
KANJI64
 70
     0
 40
22.8
 41
0.9
 50
0.0
 71
     0
 42
22.8
  3
txt.shx
  4
extfont.shx
  0
STYLE
  2
KANJI65
 70
     0
 40
22.8
 41
0.9
 50
0.0
 71
     0
 42
22.8
  3
txt.shx
  4
extfont.shx
  0
STYLE
  2
KANJI66
 70
     0
 40
22.8
 41
0.9
 50
0.0
 71
     0
 42
22.8
  3
txt.shx
  4
extfont.shx
  0
STYLE
  2
KANJI67
 70
     0
 40
22.8
 41
0.9
 50
0.0
 71
     0
 42
22.8
  3
txt.shx
  4
extfont.shx
  0
STYLE
  2
KANJI68
 70
     4
 40
21.0
 41
0.9
 50
0.0
 71
     0
 42
21.0
  3
txt.shx
  4
extfont.shx
  0
STYLE
  2
KANJI69
 70
     4
 40
21.0
 41
0.9
 50
0.0
 71
     0
 42
21.0
  3
txt.shx
  4
extfont.shx
  0
STYLE
  2
KANJI70
 70
     0
 40
21.0
 41
0.9
 50
0.0
 71
     0
 42
21.0
  3
txt.shx
  4
extfont.shx
  0
STYLE
  2
KANJI71
 70
     0
 40
18.0
 41
0.9
 50
0.0
 71
     0
 42
18.0
  3
txt.shx
  4
extfont.shx
  0
STYLE
  2
KANJI72
 70
     0
 40
21.0
 41
0.9
 50
0.0
 71
     0
 42
21.0
  3
txt.shx
  4
extfont.shx
  0
STYLE
  2
KANJI73
 70
     0
 40
22.8
 41
0.9
 50
0.0
 71
     0
 42
22.8
  3
txt.shx
  4
extfont.shx
  0
STYLE
  2
KANJI74
 70
     0
 40
22.8
 41
0.9
 50
0.0
 71
     0
 42
22.8
  3
txt.shx
  4
extfont.shx
  0
STYLE
  2
KANJI75
 70
     0
 40
21.0
 41
0.628571429
 50
0.0
 71
     0
 42
21.0
  3
txt.shx
  4
extfont.shx
  0
STYLE
  2
KANJI76
 70
     0
 40
20.4
 41
0.705882353
 50
0.0
 71
     0
 42
20.4
  3
txt.shx
  4
extfont.shx
  0
STYLE
  2
KANJI77
 70
     0
 40
18.0
 41
0.8
 50
0.0
 71
     0
 42
18.0
  3
txt.shx
  4
extfont.shx
  0
STYLE
  2
KANJI78
 70
     0
 40
19.2
 41
0.71875
 50
0.0
 71
     0
 42
19.2
  3
txt.shx
  4
extfont.shx
  0
STYLE
  2
KANJI79
 70
     0
 40
19.2
 41
0.8
 50
0.0
 71
     0
 42
19.2
  3
txt.shx
  4
extfont.shx
  0
STYLE
  2
KANJI80
 70
     0
 40
21.0
 41
0.571428571
 50
0.0
 71
     0
 42
21.0
  3
txt.shx
  4
extfont.shx
  0
STYLE
  2
KANJI81
 70
     0
 40
18.0
 41
0.833333333
 50
0.0
 71
     0
 42
18.0
  3
txt.shx
  4
extfont.shx
  0
STYLE
  2
KANJI82
 70
     0
 40
21.0
 41
0.9
 50
0.0
 71
     0
 42
21.0
  3
txt.shx
  4
extfont.shx
  0
STYLE
  2
KANJI83
 70
     0
 40
21.0
 41
0.857142857
 50
0.0
 71
     0
 42
21.0
  3
txt.shx
  4
extfont.shx
  0
STYLE
  2
KANJI84
 70
     0
 40
18.0
 41
0.833333333
 50
0.0
 71
     0
 42
18.0
  3
txt.shx
  4
extfont.shx
  0
STYLE
  2
KANJI85
 70
     0
 40
21.0
 41
0.571428571
 50
0.0
 71
     0
 42
21.0
  3
txt.shx
  4
extfont.shx
  0
ENDTAB
  0
TABLE
  2
VIEW
 70
     0
  0
ENDTAB
  0
ENDSEC
  0
SECTION
  2
BLOCKS
  0
ENDSEC
  0
SECTION
  2
ENTITIES
  0
POLYLINE
  8
0
  6
CONTINUOUS
 62
     6
 66
     1
  0
VERTEX
  8
0
  6
CONTINUOUS
 62
     6
 10
82.92
 20
71.7
 30
0.0
  0
VERTEX
  8
0
  6
CONTINUOUS
 62
     6
 10
82.92
 20
1685.7
 30
0.0
  0
VERTEX
  8
0
  6
CONTINUOUS
 62
     6
 10
2404.92
 20
1685.7
 30
0.0
  0
SEQEND
  0
LINE
  8
0
  6
CONTINUOUS
 62
     6
 10
88.919998738
 20
161.699981077
 30
0.0
 11
478.919916738
 21
161.699981077
 31
0.0
  0
LINE
  8
0
  6
CONTINUOUS
 62
     6
 10
88.919998738
 20
77.699998738
 30
0.0
 11
478.919916738
 21
77.699998738
 31
0.0
  0
LINE
  8
0
  6
CONTINUOUS
 62
     6
 10
88.919998738
 20
77.699998738
 30
0.0
 11
88.919998738
 21
161.699981077
 31
0.0
  0
LINE
  8
0
  6
CONTINUOUS
 62
     6
 10
88.919998738
 20
119.699989908
 30
0.0
 11
478.919916738
 21
119.699989908
 31
0.0
  0
LINE
  8
0
  6
CONTINUOUS
 62
     4
 10
14.6199996
 20
76.8999996
 30
0.0
 11
77.0199948
 21
76.8999996
 31
0.0
  0
LINE
  8
0
  6
CONTINUOUS
 62
     4
 10
14.6199996
 20
108.0999972
 30
0.0
 11
77.0199948
 21
108.0999972
 31
0.0
  0
LINE
  8
0
  6
CONTINUOUS
 62
     4
 10
14.6199996
 20
139.2999948
 30
0.0
 11
77.0199948
 21
139.2999948
 31
0.0
  0
LINE
  8
0
  6
CONTINUOUS
 62
     4
 10
14.6199996
 20
170.4999924
 30
0.0
 11
77.0199948
 21
170.4999924
 31
0.0
  0
LINE
  8
0
  6
CONTINUOUS
 62
     4
 10
14.6199996
 20
201.69999
 30
0.0
 11
77.0199948
 21
201.69999
 31
0.0
  0
LINE
  8
0
  6
CONTINUOUS
 62
     4
 10
14.6199996
 20
232.8999876
 30
0.0
 11
77.0199948
 21
232.8999876
 31
0.0
  0
LINE
  8
0
  6
CONTINUOUS
 62
     4
 10
14.6199996
 20
264.0999852
 30
0.0
 11
77.0199948
 21
264.0999852
 31
0.0
  0
LINE
  8
0
  6
CONTINUOUS
 62
     4
 10
14.6199996
 20
295.2999828
 30
0.0
 11
77.0199948
 21
295.2999828
 31
0.0
  0
LINE
  8
0
  6
CONTINUOUS
 62
     4
 10
14.6199996
 20
326.4999804
 30
0.0
 11
77.0199948
 21
326.4999804
 31
0.0
  0
LINE
  8
0
  6
CONTINUOUS
 62
     4
 10
14.6199996
 20
357.699978
 30
0.0
 11
77.0199948
 21
357.699978
 31
0.0
  0
LINE
  8
0
  6
CONTINUOUS
 62
     4
 10
77.0199948
 20
76.8999996
 30
0.0
 11
77.0199948
 21
357.699978
 31
0.0
  0
LINE
  8
0
  6
CONTINUOUS
 62
     4
 10
45.8199972
 20
76.8999996
 30
0.0
 11
45.8199972
 21
326.4999804
 31
0.0
  0
TEXT
  8
0
  6
CONTINUOUS
 62
     4
 10
25.27999878
 20
85.9999989
 30
1.55999988
 40
15.5999988
  1
計
 50
0.0
 41
0.75
 51
0.0
  7
KANJI0
  0
TEXT
  8
0
  6
CONTINUOUS
 62
     4
 10
25.27999878
 20
148.91999406
 30
1.55999988
 40
15.5999988
  1
設
 50
0.0
 41
0.75
 51
0.0
  7
KANJI0
  0
TEXT
  8
0
  6
CONTINUOUS
 62
     4
 10
25.27999878
 20
179.5999917
 30
1.55999988
 40
15.5999988
  1
管
 50
0.0
 41
0.75
 51
0.0
  7
KANJI0
  0
TEXT
  8
0
  6
CONTINUOUS
 62
     4
 10
25.27999878
 20
210.7999893
 30
1.55999988
 40
15.5999988
  1
製
 50
0.0
 41
0.75
 51
0.0
  7
KANJI0
  0
TEXT
  8
0
  6
CONTINUOUS
 62
     4
 10
25.27999878
 20
241.9999869
 30
1.55999988
 40
15.5999988
  1
資
 50
0.0
 41
0.75
 51
0.0
  7
KANJI0
  0
TEXT
  8
0
  6
CONTINUOUS
 62
     4
 10
25.27999878
 20
273.1999845
 30
1.55999988
 40
15.5999988
  1
営
 50
0.0
 41
0.75
 51
0.0
  7
KANJI0
  0
TEXT
  8
0
  6
CONTINUOUS
 62
     4
 10
25.27999878
 20
304.3999821
 30
1.55999988
 40
15.5999988
  1
客
 50
0.0
 41
0.75
 51
0.0
  7
KANJI0
  0
TEXT
  8
0
  6
CONTINUOUS
 62
     4
 10
25.0199988
 20
336.8999796
 30
1.55999988
 40
15.5999988
  1
出　図
 50
0.0
 41
0.75
 51
0.0
  7
KANJI0
  0
LINE
  8
0
  6
CONTINUOUS
 62
     4
 10
14.6199996
 20
76.8999996
 30
0.0
 11
14.6199996
 21
357.699978
 31
0.0
  0
LINE
  8
0
  6
CONTINUOUS
 62
     6
 10
2404.92
 20
71.7
 30
0.0
 11
82.92
 21
71.7
 31
0.0
  0
TEXT
  8
0
  6
CONTINUOUS
 62
     4
 10
100.919996215
 20
101.699993692
 30
1.199999748
 40
11.999997477
  1
ＰＡＲＴＳ　ＬＩＳＴ
 50
0.0
 41
0.6
 51
0.0
  7
KANJI1
  0
TEXT
  8
0
  6
CONTINUOUS
 62
     4
 10
100.919996215
 20
83.699997477
 30
1.439999697
 40
14.399996972
  1
部品表
 50
0.0
 41
0.9
 51
0.0
  7
KANJI2
  0
TEXT
  8
0
  6
CONTINUOUS
 62
     3
 10
100.919996215
 20
131.699987385
 30
1.799999622
 40
17.999996215
  1
ＰＬ
 50
0.0
 41
0.9
 51
0.0
  7
KANJI3
  0
TEXT
  8
0
  6
CONTINUOUS
 62
     4
 10
370.919939446
 20
101.699993692
 30
1.199999748
 40
11.999997477
  1
Ｎ０．
 50
0.0
 41
0.6
 51
0.0
  7
KANJI1
  0
TEXT
  8
0
  6
CONTINUOUS
 62
     4
 10
370.919939446
 20
83.699997477
 30
1.439999697
 40
14.399996972
  1
項番
 50
0.0
 41
0.9
 51
0.0
  7
KANJI2
  0
LINE
  8
0
  6
CONTINUOUS
 62
     6
 10
478.919916738
 20
77.699998738
 30
0.0
 11
478.919916738
 21
161.699981077
 31
0.0
  0
LINE
  8
0
  6
CONTINUOUS
 62
     6
 10
358.919941969
 20
77.699998738
 30
0.0
 11
358.919941969
 21
161.699981077
 31
0.0
  0
LINE
  8
0
  6
CONTINUOUS
 62
     6
 10
2404.92
 20
1685.7
 30
0.0
 11
2404.92
 21
71.7
 31
0.0
  0
LINE
  8
0
  6
CONTINUOUS
 62
     6
 10
1598.920062
 20
76.8999996
 30
0.0
 11
1598.920062
 21
409.699974
 31
0.0
  0
LINE
  8
0
  6
CONTINUOUS
 62
     6
 10
2399.7200004
 20
76.8999996
 30
0.0
 11
2399.7200004
 21
409.699974
 31
0.0
  0
LINE
  8
0
  6
CONTINUOUS
 62
     4
 10
1788.7200474
 20
76.8999996
 30
0.0
 11
1788.7200474
 21
409.699974
 31
0.0
  0
LINE
  8
0
  6
CONTINUOUS
 62
     4
 10
1598.920062
 20
118.4999964
 30
0.0
 11
1788.7200474
 21
118.4999964
 31
0.0
  0
TEXT
  8
0
  6
CONTINUOUS
 62
     4
 10
1609.3200612
 20
100.2999978
 30
1.03999992
 40
10.3999992
  1
ＳＣＡＬＥ
 50
0.0
 41
0.6
 51
0.0
  7
KANJI4
  0
TEXT
  8
0
  6
CONTINUOUS
 62
     4
 10
1609.3200612
 20
84.699999
 30
1.247999904
 40
12.47999904
  1
尺度
 50
0.0
 41
0.6
 51
0.0
  7
KANJI5
  0
LINE
  8
0
  6
CONTINUOUS
 62
     6
 10
1188.1200936
 20
118.4999964
 30
0.0
 11
1598.920062
 21
118.4999964
 31
0.0
  0
LINE
  8
0
  6
CONTINUOUS
 62
     6
 10
1188.1200936
 20
76.8999996
 30
0.0
 11
2399.7200004
 21
76.8999996
 31
0.0
  0
TEXT
  8
0
  6
CONTINUOUS
 62
     6
 10
1793.920047
 20
100.2999978
 30
0.0
 40
18.1999986
  1
ＵＮＩＴＥＣ　ＩＮＤＵＳＴＲＹ　ＣＯ．，ＬＴＤ．
 50
0.0
 41
0.42031746
 51
0.0
  7
KANJI6
  0
TEXT
  8
0
  6
CONTINUOUS
 62
     6
 10
2049.175027365
 20
93.53999832
 30
3.11999976
 40
31.1999976
  1
ユニテック工業株式会社
 50
0.0
 41
0.9
 51
0.0
  7
KANJI7
  0
LINE
  8
0
  6
CONTINUOUS
 62
     6
 10
2007.575030565
 20
104.45999748
 30
0.0
 11
1993.847031621
 21
104.45999748
 31
0.0
  0
LINE
  8
0
  6
CONTINUOUS
 62
     6
 10
2007.575030565
 20
106.955997288
 30
0.0
 11
1993.847031621
 21
106.955997288
 31
0.0
  0
LINE
  8
0
  6
CONTINUOUS
 62
     6
 10
2007.575030565
 20
104.45999748
 30
0.0
 11
2021.303029509
 21
104.45999748
 31
0.0
  0
LINE
  8
0
  6
CONTINUOUS
 62
     6
 10
2007.575030565
 20
106.955997288
 30
0.0
 11
2021.303029509
 21
106.955997288
 31
0.0
  0
LINE
  8
0
  6
CONTINUOUS
 62
     6
 10
2021.303029509
 20
106.955997288
 30
0.0
 11
2021.303029509
 21
104.45999748
 31
0.0
  0
ARC
  8
0
  6
CONTINUOUS
 62
     6
 10
2024.423029269
 20
105.707997384
 30
0.0
 40
12.47999904
 50
185.739170477
 51
90.0
  0
ARC
  8
0
  6
CONTINUOUS
 62
     6
 10
2024.423029269
 20
105.707997384
 30
0.0
 40
14.975998848
 50
184.780191847
 51
90.0
  0
LINE
  8
0
  6
CONTINUOUS
 62
     6
 10
1993.847031621
 20
104.45999748
 30
0.0
 11
1993.847031621
 21
106.955997288
 31
0.0
  0
ARC
  8
0
  6
CONTINUOUS
 62
     6
 10
1990.727031861
 20
105.707997384
 30
0.0
 40
12.47999904
 50
90.0
 51
354.260829523
  0
ARC
  8
0
  6
CONTINUOUS
 62
     6
 10
1990.727031861
 20
105.707997384
 30
0.0
 40
14.975998848
 50
90.0
 51
355.219808153
  0
LINE
  8
0
  6
CONTINUOUS
 62
     6
 10
2005.703030709
 20
120.683996232
 30
0.0
 11
2005.703030709
 21
118.187996424
 31
0.0
  0
LINE
  8
0
  6
CONTINUOUS
 62
     6
 10
1990.727031861
 20
118.187996424
 30
0.0
 11
2005.703030709
 21
118.187996424
 31
0.0
  0
LINE
  8
0
  6
CONTINUOUS
 62
     6
 10
2009.447030421
 20
120.683996232
 30
0.0
 11
2009.447030421
 21
118.187996424
 31
0.0
  0
LINE
  8
0
  6
CONTINUOUS
 62
     6
 10
2024.423029269
 20
118.187996424
 30
0.0
 11
2009.447030421
 21
118.187996424
 31
0.0
  0
TEXT
  8
0
  6
CONTINUOUS
 62
     4
 10
1320.7200834
 20
100.2999978
 30
1.03999992
 40
10.3999992
  1
ＢＹ
 50
0.0
 41
0.6
 51
0.0
  7
KANJI4
  0
TEXT
  8
0
  6
CONTINUOUS
 62
     4
 10
1435.1200746
 20
100.2999978
 30
1.03999992
 40
10.3999992
  1
ＤＥＳＣＲＩＰＴＩＯＮ
 50
0.0
 41
0.6
 51
0.0
  7
KANJI4
  0
TEXT
  8
0
  6
CONTINUOUS
 62
     4
 10
1320.7200834
 20
84.699999
 30
1.247999904
 40
12.47999904
  1
担当
 50
0.0
 41
0.6
 51
0.0
  7
KANJI5
  0
TEXT
  8
0
  6
CONTINUOUS
 62
     4
 10
1450.7200734
 20
84.699999
 30
1.247999904
 40
12.47999904
  1
記　　　　事
 50
0.0
 41
0.6
 51
0.0
  7
KANJI5
  0
LINE
  8
0
  6
CONTINUOUS
 62
     4
 10
1210.2200919
 20
110.699997
 30
0.0
 11
1193.3200932
 21
84.699999
 31
0.0
  0
TEXT
  8
0
  6
CONTINUOUS
 62
     4
 10
1253.1200886
 20
100.2999978
 30
1.03999992
 40
10.3999992
  1
ＤＡＴＥ
 50
0.0
 41
0.6
 51
0.0
  7
KANJI4
  0
TEXT
  8
0
  6
CONTINUOUS
 62
     4
 10
1260.920088
 20
84.699999
 30
1.247999904
 40
12.47999904
  1
日付
 50
0.0
 41
0.6
 51
0.0
  7
KANJI5
  0
LINE
  8
0
  6
CONTINUOUS
 62
     4
 10
1193.3200932
 20
84.699999
 30
0.0
 11
1227.1200906
 21
84.699999
 31
0.0
  0
LINE
  8
0
  6
CONTINUOUS
 62
     4
 10
1210.2200919
 20
110.699997
 30
0.0
 11
1227.1200906
 21
84.699999
 31
0.0
  0
LINE
  8
0
  6
CONTINUOUS
 62
     6
 10
1188.1200936
 20
76.8999996
 30
0.0
 11
1188.1200936
 21
118.4999964
 31
0.0
  0
LINE
  8
0
  6
CONTINUOUS
 62
     4
 10
1232.3200902
 20
76.8999996
 30
0.0
 11
1232.3200902
 21
118.4999964
 31
0.0
  0
LINE
  8
0
  6
CONTINUOUS
 62
     4
 10
1305.1200846
 20
76.8999996
 30
0.0
 11
1305.1200846
 21
118.4999964
 31
0.0
  0
LINE
  8
0
  6
CONTINUOUS
 62
     4
 10
1351.920081
 20
76.8999996
 30
0.0
 11
1351.920081
 21
118.4999964
 31
0.0
  0
TEXT
  8
0
  6
CONTINUOUS
 62
     4
 10
1609.3200612
 20
308.2999818
 30
1.03999992
 40
10.3999992
  1
ＣＯＤＥ
 50
0.0
 41
0.6
 51
0.0
  7
KANJI4
  0
LINE
  8
0
  6
CONTINUOUS
 62
     4
 10
1598.920062
 20
326.4999804
 30
0.0
 11
2399.7200004
 21
326.4999804
 31
0.0
  0
TEXT
  8
0
  6
CONTINUOUS
 62
     4
 10
1609.3200612
 20
292.699983
 30
1.247999904
 40
12.47999904
  1
分類
 50
0.0
 41
0.6
 51
0.0
  7
KANJI5
  0
TEXT
  8
0
  6
CONTINUOUS
 62
     4
 10
1617.42
 20
332.7
 30
6.0
 40
21.6
  1
ご注文主
 50
0.0
 41
1.111111111
 51
0.0
  7
KANJI8
  0
TEXT
  8
0
  6
CONTINUOUS
 62
     4
 10
1609.3200612
 20
183.4999914
 30
1.03999992
 40
10.3999992
  1
ＤＲＡＷＮ
 50
0.0
 41
0.6
 51
0.0
  7
KANJI4
  0
TEXT
  8
0
  6
CONTINUOUS
 62
     4
 10
1609.3200612
 20
225.0999882
 30
1.03999992
 40
10.3999992
  1
ＤＥＳＩＧＮ
 50
0.0
 41
0.6
 51
0.0
  7
KANJI4
  0
TEXT
  8
0
  6
CONTINUOUS
 62
     4
 10
1609.3200612
 20
266.699985
 30
1.03999992
 40
10.3999992
  1
ＣＨＥＣＫ
 50
0.0
 41
0.6
 51
0.0
  7
KANJI4
  0
LINE
  8
0
  6
CONTINUOUS
 62
     4
 10
1598.920062
 20
243.2999868
 30
0.0
 11
1788.7200474
 21
243.2999868
 31
0.0
  0
LINE
  8
0
  6
CONTINUOUS
 62
     4
 10
1598.920062
 20
201.69999
 30
0.0
 11
1788.7200474
 21
201.69999
 31
0.0
  0
LINE
  8
0
  6
CONTINUOUS
 62
     4
 10
1598.920062
 20
284.8999836
 30
0.0
 11
1788.7200474
 21
284.8999836
 31
0.0
  0
TEXT
  8
0
  6
CONTINUOUS
 62
     4
 10
1609.3200612
 20
209.4999894
 30
1.247999904
 40
12.47999904
  1
設計
 50
0.0
 41
0.6
 51
0.0
  7
KANJI5
  0
TEXT
  8
0
  6
CONTINUOUS
 62
     4
 10
1609.3200612
 20
251.0999862
 30
1.247999904
 40
12.47999904
  1
検図
 50
0.0
 41
0.6
 51
0.0
  7
KANJI5
  0
LINE
  8
0
  6
CONTINUOUS
 62
     4
 10
1804.06004622
 20
284.8999836
 30
0.0
 11
2399.7200004
 21
284.8999836
 31
0.0
  0
LINE
  8
0
  6
CONTINUOUS
 62
     4
 10
1788.7200474
 20
201.69999
 30
0.0
 11
2399.7200004
 21
201.69999
 31
0.0
  0
TEXT
  8
0
  6
CONTINUOUS
 62
     4
 10
1799.1200466
 20
183.4999914
 30
1.03999992
 40
10.3999992
  1
ＤＲＡＷＩＮＧ　ＮＯ．
 50
0.0
 41
0.8
 51
0.0
  7
KANJI9
  0
TEXT
  8
0
  6
CONTINUOUS
 62
     4
 10
1799.1200466
 20
225.0999882
 30
1.03999992
 40
10.3999992
  1
ＭＦＧ　ＮＯ．
 50
0.0
 41
0.8
 51
0.0
  7
KANJI9
  0
TEXT
  8
0
  6
CONTINUOUS
 62
     4
 10
1799.1200466
 20
266.699985
 30
1.03999992
 40
10.3999992
  1
ＴＹＰＥ
 50
0.0
 41
0.8
 51
0.0
  7
KANJI9
  0
LINE
  8
0
  6
CONTINUOUS
 62
     4
 10
1804.3200462
 20
243.2999868
 30
0.0
 11
2043.5200278
 21
243.2999868
 31
0.0
  0
TEXT
  8
0
  6
CONTINUOUS
 62
     4
 10
1799.1200466
 20
165.2999928
 30
1.247999904
 40
12.47999904
  1
図　面　番　号
 50
0.0
 41
0.8
 51
0.0
  7
KANJI10
  0
TEXT
  8
0
  6
CONTINUOUS
 62
     4
 10
1799.1200466
 20
206.8999896
 30
1.247999904
 40
12.47999904
  1
製番
 50
0.0
 41
0.8
 51
0.0
  7
KANJI10
  0
TEXT
  8
0
  6
CONTINUOUS
 62
     4
 10
1799.1200466
 20
248.4999864
 30
1.247999904
 40
12.47999904
  1
機種
 50
0.0
 41
0.8
 51
0.0
  7
KANJI10
  0
LINE
  8
0
  6
CONTINUOUS
 62
     4
 10
1598.920062
 20
160.0999932
 30
0.0
 11
1788.7200474
 21
160.0999932
 31
0.0
  0
TEXT
  8
0
  6
CONTINUOUS
 62
     4
 10
1609.3200612
 20
141.8999946
 30
1.03999992
 40
10.3999992
  1
ＤＡＴＥ
 50
0.0
 41
0.6
 51
0.0
  7
KANJI4
  0
TEXT
  8
0
  6
CONTINUOUS
 62
     4
 10
1609.3200612
 20
126.2999958
 30
1.247999904
 40
12.47999904
  1
日付
 50
0.0
 41
0.6
 51
0.0
  7
KANJI5
  0
TEXT
  8
0
  6
CONTINUOUS
 62
     4
 10
1609.3200612
 20
167.8999926
 30
1.247999904
 40
12.47999904
  1
作図
 50
0.0
 41
0.6
 51
0.0
  7
KANJI5
  0
LINE
  8
0
  6
CONTINUOUS
 62
     4
 10
1788.7200474
 20
141.8999946
 30
0.0
 11
2399.7200004
 21
141.8999946
 31
0.0
  0
LINE
  8
0
  6
LTYPE1
 62
     4
 10
2225.5200138
 20
149.699994
 30
0.0
 11
2225.5200138
 21
191.2999908
 31
0.0
  0
LINE
  8
0
  6
LTYPE1
 62
     4
 10
2189.1200166
 20
149.699994
 30
0.0
 11
2189.1200166
 21
191.2999908
 31
0.0
  0
LINE
  8
0
  6
LTYPE1
 62
     4
 10
2152.7200194
 20
149.699994
 30
0.0
 11
2152.7200194
 21
191.2999908
 31
0.0
  0
LINE
  8
0
  6
LTYPE1
 62
     4
 10
2116.3200222
 20
149.699994
 30
0.0
 11
2116.3200222
 21
191.2999908
 31
0.0
  0
LINE
  8
0
  6
LTYPE1
 62
     4
 10
2079.920025
 20
149.699994
 30
0.0
 11
2079.920025
 21
191.2999908
 31
0.0
  0
LINE
  8
0
  6
LTYPE1
 62
     4
 10
2043.5200278
 20
149.699994
 30
0.0
 11
2043.5200278
 21
191.2999908
 31
0.0
  0
LINE
  8
0
  6
LTYPE1
 62
     4
 10
2007.1200306
 20
149.699994
 30
0.0
 11
2007.1200306
 21
191.2999908
 31
0.0
  0
LINE
  8
0
  6
LTYPE1
 62
     4
 10
1970.7200334
 20
149.699994
 30
0.0
 11
1970.7200334
 21
191.2999908
 31
0.0
  0
LINE
  8
0
  6
LTYPE1
 62
     4
 10
1970.7200334
 20
191.2999908
 30
0.0
 11
2225.5200138
 21
191.2999908
 31
0.0
  0
LINE
  8
0
  6
LTYPE1
 62
     4
 10
1970.7200334
 20
149.699994
 30
0.0
 11
2225.5200138
 21
149.699994
 31
0.0
  0
LINE
  8
0
  6
CONTINUOUS
 62
     4
 10
2246.3200122
 20
171.7999923
 30
0.0
 11
2256.7200114
 21
171.7999923
 31
0.0
  0
LINE
  8
0
  6
CONTINUOUS
 62
     4
 10
2311.3200072
 20
156.1999935
 30
0.0
 11
2274.92001
 21
156.1999935
 31
0.0
  0
LINE
  8
0
  6
CONTINUOUS
 62
     4
 10
2274.92001
 20
156.1999935
 30
0.0
 11
2293.1200086
 21
187.3999911
 31
0.0
  0
LINE
  8
0
  6
CONTINUOUS
 62
     4
 10
2293.1200086
 20
187.3999911
 30
0.0
 11
2311.3200072
 21
156.1999935
 31
0.0
  0
TEXT
  8
0
  6
CONTINUOUS
 62
     4
 10
2059.1200266
 20
266.699985
 30
1.03999992
 40
10.3999992
  1
ＴＩＴＬＥ
 50
0.0
 41
0.8
 51
0.0
  7
KANJI9
  0
TEXT
  8
0
  6
CONTINUOUS
 62
     4
 10
2059.1200266
 20
248.4999864
 30
1.247999904
 40
12.47999904
  1
名称
 50
0.0
 41
0.8
 51
0.0
  7
KANJI10
  0
TEXT
  8
0
  6
CONTINUOUS
 62
     2
 10
2143.92
 20
209.7
 30
15.0
 40
30.0
  1
外形寸法図
 50
0.0
 41
1.0
 51
0.0
  7
KANJI11
  0
TEXT
  8
0
  6
CONTINUOUS
 62
     2
 10
2107.92
 20
245.7
 30
4.285714286
 40
30.0
  1
マイティシリンダ
 50
0.0
 41
1.0
 51
0.0
  7
KANJI12
  0
TEXT
  8
0
  6
CONTINUOUS
 62
     2
 10
1939.2200334
 20
155.699994
 30
1.8
 40
30.0
  1
Ａ
 50
0.0
 41
0.8
 51
0.0
  7
KANJI13
  0
CIRCLE
  8
0
  6
CONTINUOUS
 62
     2
 10
1900.2200334
 20
220.199994
 30
0.0
 40
15.0
  0
TEXT
  8
0
  6
CONTINUOUS
 62
     2
 10
1888.9700334
 20
208.949994
 30
1.8
 40
24.0
  1
Ｓ
 50
0.0
 41
1.0
 51
0.0
  7
KANJI14
  0
LINE
  8
0
  6
CONTINUOUS
 62
     6
 10
2005.703030709
 20
120.683996232
 30
0.0
 11
1990.727031861
 21
120.683996232
 31
0.0
  0
LINE
  8
0
  6
CONTINUOUS
 62
     6
 10
2009.447030421
 20
120.683996232
 30
0.0
 11
2024.423029269
 21
120.683996232
 31
0.0
  0
TEXT
  8
0
  6
CONTINUOUS
 62
     2
 10
1665.9200334
 20
170.699994
 30
6.0
 40
21.0
  1
岡田
 50
0.0
 41
0.857142857
 51
0.0
  7
KANJI15
  0
LINE
  8
0
  6
CONTINUOUS
 62
     4
 10
2399.7200004
 20
368.0999772
 30
0.0
 11
2399.7200004
 21
409.699974
 31
0.0
  0
LINE
  8
0
  6
CONTINUOUS
 62
     6
 10
1599.670062
 20
368.0999772
 30
0.0
 11
2400.4700004
 21
368.0999772
 31
0.0
  0
LINE
  8
0
  6
CONTINUOUS
 62
     6
 10
1598.920062
 20
409.699974
 30
0.0
 11
2399.7200004
 21
409.699974
 31
0.0
  0
TEXT
  8
0
  6
CONTINUOUS
 62
     4
 10
1617.42
 20
374.2999968
 30
6.0
 40
21.6
  1
ご用途
 50
0.0
 41
1.111111111
 51
0.0
  7
KANJI8
  0
TEXT
  8
0
  6
CONTINUOUS
 62
     2
 10
1708.92
 20
83.7
 30
1.8
 40
27.0
  1
１／６
 50
0.0
 41
0.666666667
 51
0.0
  7
KANJI16
  0
LINE
  8
0
  6
CONTINUOUS
 62
     1
 10
1523.37
 20
1674.9
 30
0.0
 11
1523.37
 21
1554.78
 31
0.0
  0
LINE
  8
0
  6
CONTINUOUS
 62
     2
 10
1454.07
 20
1674.9
 30
0.0
 11
1454.07
 21
1554.78
 31
0.0
  0
LINE
  8
0
  6
CONTINUOUS
 62
     2
 10
1384.77
 20
1674.9
 30
0.0
 11
1384.77
 21
1554.78
 31
0.0
  0
LINE
  8
0
  6
CONTINUOUS
 62
     1
 10
1292.37
 20
1674.9
 30
0.0
 11
1292.37
 21
1554.78
 31
0.0
  0
LINE
  8
0
  6
CONTINUOUS
 62
     1
 10
1292.37
 20
1674.9
 30
0.0
 11
1523.37
 21
1674.9
 31
0.0
  0
LINE
  8
0
  6
CONTINUOUS
 62
     1
 10
1292.37
 20
1637.94
 30
0.0
 11
1523.37
 21
1637.94
 31
0.0
  0
LINE
  8
0
  6
CONTINUOUS
 62
     2
 10
1292.37
 20
1610.22
 30
0.0
 11
1523.37
 21
1610.22
 31
0.0
  0
LINE
  8
0
  6
CONTINUOUS
 62
     2
 10
1292.37
 20
1582.5
 30
0.0
 11
1523.37
 21
1582.5
 31
0.0
  0
LINE
  8
0
  6
CONTINUOUS
 62
     1
 10
1292.37
 20
1554.78
 30
0.0
 11
1523.37
 21
1554.78
 31
0.0
  0
TEXT
  8
0
  6
CONTINUOUS
 62
     2
 10
1463.31
 20
1658.73
 30
1.386
 40
13.86
  1
起動電流
 50
0.0
 41
0.9
 51
0.0
  7
KANJI17
  0
TEXT
  8
0
  6
CONTINUOUS
 62
     2
 10
1463.31
 20
1642.56
 30
1.386
 40
13.86
  1
　　　Ａ
 50
0.0
 41
0.9
 51
0.0
  7
KANJI17
  0
TEXT
  8
0
  6
CONTINUOUS
 62
     2
 10
1394.01
 20
1658.73
 30
1.386
 40
13.86
  1
定格電流
 50
0.0
 41
0.9
 51
0.0
  7
KANJI17
  0
TEXT
  8
0
  6
CONTINUOUS
 62
     2
 10
1394.01
 20
1642.56
 30
1.386
 40
13.86
  1
　　　Ａ
 50
0.0
 41
0.9
 51
0.0
  7
KANJI17
  0
TEXT
  8
0
  6
CONTINUOUS
 62
     2
 10
1300.224
 20
1589.43
 30
1.386
 40
13.86
  1
２００／６０
 50
0.0
 41
0.9
 51
0.0
  7
KANJI17
  0
TEXT
  8
0
  6
CONTINUOUS
 62
     2
 10
1300.224
 20
1658.73
 30
1.386
 40
13.86
  1
電圧／周波数
 50
0.0
 41
0.9
 51
0.0
  7
KANJI17
  0
TEXT
  8
0
  6
CONTINUOUS
 62
     2
 10
1300.224
 20
1642.56
 30
1.386
 40
13.86
  1
　Ｖ／Ｈｚ
 50
0.0
 41
0.9
 51
0.0
  7
KANJI17
  0
TEXT
  8
0
  6
CONTINUOUS
 62
     2
 10
1300.224
 20
1617.15
 30
1.386
 40
13.86
  1
２００／５０
 50
0.0
 41
0.9
 51
0.0
  7
KANJI17
  0
TEXT
  8
0
  6
CONTINUOUS
 62
     2
 10
1300.224
 20
1561.71
 30
1.386
 40
13.86
  1
２２０／６０
 50
0.0
 41
0.9
 51
0.0
  7
KANJI17
  0
LINE
  8
0
  6
CONTINUOUS
 62
     1
 10
1246.17
 20
1674.9
 30
0.0
 11
1246.17
 21
1554.78
 31
0.0
  0
LINE
  8
0
  6
CONTINUOUS
 62
     2
 10
1176.87
 20
1674.9
 30
0.0
 11
1176.87
 21
1554.78
 31
0.0
  0
LINE
  8
0
  6
CONTINUOUS
 62
     2
 10
1107.57
 20
1674.9
 30
0.0
 11
1107.57
 21
1554.78
 31
0.0
  0
LINE
  8
0
  6
CONTINUOUS
 62
     1
 10
1015.17
 20
1674.9
 30
0.0
 11
1015.17
 21
1554.78
 31
0.0
  0
LINE
  8
0
  6
CONTINUOUS
 62
     1
 10
1015.17
 20
1674.9
 30
0.0
 11
1246.17
 21
1674.9
 31
0.0
  0
LINE
  8
0
  6
CONTINUOUS
 62
     1
 10
1015.17
 20
1637.94
 30
0.0
 11
1246.17
 21
1637.94
 31
0.0
  0
LINE
  8
0
  6
CONTINUOUS
 62
     2
 10
1015.17
 20
1610.22
 30
0.0
 11
1246.17
 21
1610.22
 31
0.0
  0
LINE
  8
0
  6
CONTINUOUS
 62
     2
 10
1015.17
 20
1582.5
 30
0.0
 11
1246.17
 21
1582.5
 31
0.0
  0
LINE
  8
0
  6
CONTINUOUS
 62
     1
 10
1015.17
 20
1554.78
 30
0.0
 11
1246.17
 21
1554.78
 31
0.0
  0
TEXT
  8
0
  6
CONTINUOUS
 62
     2
 10
1186.11
 20
1658.73
 30
1.386
 40
13.86
  1
起動電流
 50
0.0
 41
0.9
 51
0.0
  7
KANJI17
  0
TEXT
  8
0
  6
CONTINUOUS
 62
     2
 10
1186.11
 20
1642.56
 30
1.386
 40
13.86
  1
　　　Ａ
 50
0.0
 41
0.9
 51
0.0
  7
KANJI17
  0
TEXT
  8
0
  6
CONTINUOUS
 62
     2
 10
1116.81
 20
1658.73
 30
1.386
 40
13.86
  1
定格電流
 50
0.0
 41
0.9
 51
0.0
  7
KANJI17
  0
TEXT
  8
0
  6
CONTINUOUS
 62
     2
 10
1116.81
 20
1642.56
 30
1.386
 40
13.86
  1
　　　Ａ
 50
0.0
 41
0.9
 51
0.0
  7
KANJI17
  0
TEXT
  8
0
  6
CONTINUOUS
 62
     2
 10
1023.024
 20
1658.73
 30
1.386
 40
13.86
  1
電圧／周波数
 50
0.0
 41
0.9
 51
0.0
  7
KANJI17
  0
TEXT
  8
0
  6
CONTINUOUS
 62
     2
 10
1023.024
 20
1642.56
 30
1.386
 40
13.86
  1
　Ｖ／Ｈｚ
 50
0.0
 41
0.9
 51
0.0
  7
KANJI17
  0
TEXT
  8
0
  6
CONTINUOUS
 62
     2
 10
1023.024
 20
1617.15
 30
1.386
 40
13.86
  1
４００／５０
 50
0.0
 41
0.9
 51
0.0
  7
KANJI17
  0
TEXT
  8
0
  6
CONTINUOUS
 62
     2
 10
1023.024
 20
1589.43
 30
1.386
 40
13.86
  1
４００／６０
 50
0.0
 41
0.9
 51
0.0
  7
KANJI17
  0
TEXT
  8
0
  6
CONTINUOUS
 62
     2
 10
1023.024
 20
1561.71
 30
1.386
 40
13.86
  1
４４０／６０
 50
0.0
 41
0.9
 51
0.0
  7
KANJI17
  0
TEXT
  8
0
  6
CONTINUOUS
 62
     2
 10
1119.267493476
 20
1615.15
 30
1.386
 40
13.86
  1
　３．２
 50
0.0
 41
0.9
 51
0.0
  7
KANJI17
  0
TEXT
  8
0
  6
CONTINUOUS
 62
     2
 10
1119.267493476
 20
1587.43
 30
1.386
 40
13.86
  1
　２．８
 50
0.0
 41
0.9
 51
0.0
  7
KANJI17
  0
TEXT
  8
0
  6
CONTINUOUS
 62
     2
 10
1119.267493476
 20
1559.71
 30
1.386
 40
13.86
  1
　２．７
 50
0.0
 41
0.9
 51
0.0
  7
KANJI17
  0
TEXT
  8
0
  6
CONTINUOUS
 62
     2
 10
1396.467493476
 20
1559.71
 30
1.386
 40
13.86
  1
　５．３
 50
0.0
 41
0.9
 51
0.0
  7
KANJI17
  0
TEXT
  8
0
  6
CONTINUOUS
 62
     2
 10
1396.467493476
 20
1587.43
 30
1.386
 40
13.86
  1
　５．２
 50
0.0
 41
0.9
 51
0.0
  7
KANJI17
  0
TEXT
  8
0
  6
CONTINUOUS
 62
     2
 10
1396.467493476
 20
1615.15
 30
1.386
 40
13.86
  1
　６．１
 50
0.0
 41
0.9
 51
0.0
  7
KANJI17
  0
TEXT
  8
0
  6
CONTINUOUS
 62
     2
 10
1465.767493476
 20
1615.15
 30
1.386
 40
13.86
  1
２５．１
 50
0.0
 41
0.9
 51
0.0
  7
KANJI17
  0
TEXT
  8
0
  6
CONTINUOUS
 62
     2
 10
1465.767493476
 20
1587.43
 30
1.386
 40
13.86
  1
２２．５
 50
0.0
 41
0.9
 51
0.0
  7
KANJI17
  0
TEXT
  8
0
  6
CONTINUOUS
 62
     2
 10
1465.767493476
 20
1559.71
 30
1.386
 40
13.86
  1
２４．８
 50
0.0
 41
0.9
 51
0.0
  7
KANJI17
  0
TEXT
  8
0
  6
CONTINUOUS
 62
     2
 10
1188.567493476
 20
1615.15
 30
1.386
 40
13.86
  1
１２．５
 50
0.0
 41
0.9
 51
0.0
  7
KANJI17
  0
TEXT
  8
0
  6
CONTINUOUS
 62
     2
 10
1188.567493476
 20
1587.43
 30
1.386
 40
13.86
  1
１１．３
 50
0.0
 41
0.9
 51
0.0
  7
KANJI17
  0
TEXT
  8
0
  6
CONTINUOUS
 62
     2
 10
1188.567493476
 20
1559.71
 30
1.386
 40
13.86
  1
１２．４
 50
0.0
 41
0.9
 51
0.0
  7
KANJI17
  0
LINE
  8
0
  6
CONTINUOUS
 62
     1
 10
1014.12
 20
1491.24
 30
0.0
 11
1791.72
 21
1491.24
 31
0.0
  0
LINE
  8
0
  6
CONTINUOUS
 62
     1
 10
1014.12
 20
1457.64
 30
0.0
 11
1791.72
 21
1457.64
 31
0.0
  0
TEXT
  8
0
  6
CONTINUOUS
 62
     2
 10
1062.12
 20
1467.24
 30
1.536
 40
15.36
  1
形
 50
0.0
 41
0.9
 51
0.0
  7
KANJI18
  0
TEXT
  8
0
  6
CONTINUOUS
 62
     2
 10
1155.72
 20
1467.24
 30
1.536
 40
15.36
  1
式
 50
0.0
 41
0.9
 51
0.0
  7
KANJI18
  0
TEXT
  8
0
  6
CONTINUOUS
 62
     2
 10
1228.2
 20
1466.28
 30
1.44
 40
14.4
  1
ストローク
 50
0.0
 41
0.9
 51
0.0
  7
KANJI19
  0
TEXT
  8
0
  6
CONTINUOUS
 62
     2
 10
1320.36
 20
1465.32
 30
0.0
 40
14.4
  1
ｍｉｎ　
 50
0.0
 41
0.9
 51
0.0
  7
KANJI20
  0
TEXT
  8
0
  6
CONTINUOUS
 62
     2
 10
1416.36
 20
1465.32
 30
0.0
 40
14.4
  1
ｍｉｎ　
 50
0.0
 41
0.9
 51
0.0
  7
KANJI20
  0
TEXT
  8
0
  6
CONTINUOUS
 62
     2
 10
1608.36
 20
1465.32
 30
0.0
 40
14.4
  1
ｍｉｎ　
 50
0.0
 41
0.9
 51
0.0
  7
KANJI20
  0
TEXT
  8
0
  6
CONTINUOUS
 62
     2
 10
1369.32
 20
1466.28
 30
1.68
 40
16.8
  1
ＡＬ
 50
0.0
 41
0.9
 51
0.0
  7
KANJI21
  0
TEXT
  8
0
  6
CONTINUOUS
 62
     2
 10
1465.32
 20
1466.28
 30
1.68
 40
16.8
  1
Ｌ
 50
0.0
 41
0.9
 51
0.0
  7
KANJI21
  0
TEXT
  8
0
  6
CONTINUOUS
 62
     2
 10
1546.92
 20
1466.28
 30
1.68
 40
16.8
  1
Ｃ
 50
0.0
 41
0.9
 51
0.0
  7
KANJI21
  0
TEXT
  8
0
  6
CONTINUOUS
 62
     2
 10
1657.32
 20
1466.28
 30
1.68
 40
16.8
  1
Ｐ
 50
0.0
 41
0.9
 51
0.0
  7
KANJI21
  0
TEXT
  8
0
  6
CONTINUOUS
 62
     2
 10
1756.08
 20
1465.92
 30
0.0
 40
12.96
  1
（ｋｇ）
 50
0.0
 41
0.740740741
 51
0.0
  7
KANJI22
  0
TEXT
  8
0
  6
CONTINUOUS
 62
     2
 10
1698.48
 20
1465.68
 30
1.44
 40
16.8
  1
概算重量
 50
0.0
 41
0.857142857
 51
0.0
  7
KANJI23
  0
TEXT
  8
0
  6
CONTINUOUS
 62
     2
 10
176.4
 20
26.4
 30
0.0
 40
18.0
  1
ＦＤ　Ｎｏ．ＭＣ１９６
 50
0.0
 41
0.9
 51
0.0
  7
KANJI24
  0
TEXT
  8
0
  6
CONTINUOUS
 62
     2
 10
1976.7200334
 20
155.699994
 30
13.0
 40
30.0
  1
３００２４７５
 50
0.0
 41
0.8
 51
0.0
  7
KANJI25
  0
TEXT
  8
0
  6
CONTINUOUS
 62
     2
 10
1861.92
 20
251.7
 30
0.0
 40
21.0
  1
ＭＣＬＤ２Ｂ－ＪＮ
 50
0.0
 41
0.793650794
 51
0.0
  7
KANJI26
  0
TEXT
  8
0
  6
CONTINUOUS
 62
     2
 10
1055.133
 20
1533.99
 30
1.617
 40
16.17
  1
注意：サーマルリレー等の選定は、上記の値で選定して下さい。
 50
0.0
 41
0.9
 51
0.0
  7
KANJI27
  0
LINE
  8
0
  6
CONTINUOUS
 62
     2
 10
1045.893
 20
1529.37
 30
0.0
 11
1513.226980613
 21
1529.37
 31
0.0
  0
LINE
  8
0
  6
LTYPE2
 62
     6
 10
117.36
 20
1653.54
 30
0.0
 11
117.36
 21
1147.14
 31
0.0
  0
TEXT
  8
0
  6
CONTINUOUS
 62
     6
 10
244.661963977
 20
1155.209618036
 30
0.0
 40
17.031074144
  1
２カム端子台　接続図
 50
0.0
 41
0.880962996
 51
0.0
  7
KANJI28
  0
LINE
  8
0
  6
LTYPE2
 62
     6
 10
872.64
 20
1653.54
 30
0.0
 11
117.36
 21
1653.54
 31
0.0
  0
LINE
  8
0
  6
LTYPE2
 62
     6
 10
117.36
 20
1147.14
 30
0.0
 11
872.64
 21
1147.14
 31
0.0
  0
CIRCLE
  8
0
  6
CONTINUOUS
 62
     6
 10
263.814412943
 20
1246.642753509
 30
0.0
 40
3.936205455
  0
LINE
  8
0
  6
CONTINUOUS
 62
     6
 10
264.057734816
 20
1242.615699739
 30
0.0
 11
267.815625379
 21
1221.174046359
 31
0.0
  0
LINE
  8
0
  6
CONTINUOUS
 62
     6
 10
264.057734816
 20
1242.615699739
 30
0.0
 11
268.595009475
 21
1243.371912182
 31
0.0
  0
LINE
  8
0
  6
CONTINUOUS
 62
     6
 10
268.595009475
 20
1243.371912182
 30
0.0
 11
272.353195556
 21
1221.930308055
 31
0.0
  0
LINE
  8
0
  6
CONTINUOUS
 62
     6
 10
263.814412943
 20
1250.578958964
 30
0.0
 11
263.814412943
 21
1258.492918711
 31
0.0
  0
LINE
  8
0
  6
CONTINUOUS
 62
     6
 10
314.839298476
 20
1258.492918711
 30
0.0
 11
263.814412943
 21
1258.492918711
 31
0.0
  0
LINE
  8
0
  6
CONTINUOUS
 62
     6
 10
314.839298476
 20
1206.935916515
 30
0.0
 11
314.839298476
 21
1258.492918711
 31
0.0
  0
CIRCLE
  8
0
  6
CONTINUOUS
 62
     6
 10
391.376626774
 20
1246.642753509
 30
0.0
 40
3.936205455
  0
LINE
  8
0
  6
CONTINUOUS
 62
     6
 10
391.133304902
 20
1242.615699739
 30
0.0
 11
387.375414339
 21
1221.174046359
 31
0.0
  0
LINE
  8
0
  6
CONTINUOUS
 62
     6
 10
391.133304902
 20
1242.615699739
 30
0.0
 11
386.596030243
 21
1243.371912182
 31
0.0
  0
LINE
  8
0
  6
CONTINUOUS
 62
     6
 10
386.596030243
 20
1243.371912182
 30
0.0
 11
382.837844161
 21
1221.930308055
 31
0.0
  0
LINE
  8
0
  6
CONTINUOUS
 62
     6
 10
391.376626774
 20
1250.578958964
 30
0.0
 11
391.376626774
 21
1258.492918711
 31
0.0
  0
LINE
  8
0
  6
CONTINUOUS
 62
     6
 10
340.351741242
 20
1258.492918711
 30
0.0
 11
391.376626774
 21
1258.492918711
 31
0.0
  0
LINE
  8
0
  6
CONTINUOUS
 62
     6
 10
340.351741242
 20
1206.935916515
 30
0.0
 11
340.351741242
 21
1258.492918711
 31
0.0
  0
LINE
  8
0
  6
CONTINUOUS
 62
     2
 10
353.107962625
 20
1307.373746261
 30
0.0
 11
353.107962625
 21
1285.505938175
 31
0.0
  0
LINE
  8
0
  6
CONTINUOUS
 62
     2
 10
378.620405391
 20
1307.373746261
 30
0.0
 11
378.620405391
 21
1285.505938175
 31
0.0
  0
LINE
  8
0
  6
CONTINUOUS
 62
     2
 10
404.132848158
 20
1307.373746261
 30
0.0
 11
404.132848158
 21
1285.505938175
 31
0.0
  0
LINE
  8
0
  6
CONTINUOUS
 62
     2
 10
429.645290924
 20
1307.373746261
 30
0.0
 11
429.645290924
 21
1285.505938175
 31
0.0
  0
CIRCLE
  8
0
  6
CONTINUOUS
 62
     6
 10
289.326855709
 20
1320.824635014
 30
0.0
 40
3.936205455
  0
LINE
  8
0
  6
CONTINUOUS
 62
     6
 10
289.083533837
 20
1343.053529485
 30
0.0
 11
285.325643274
 21
1321.611876105
 31
0.0
  0
LINE
  8
0
  6
CONTINUOUS
 62
     6
 10
284.546259178
 20
1343.809741928
 30
0.0
 11
280.788073096
 21
1322.368137801
 31
0.0
  0
LINE
  8
0
  6
CONTINUOUS
 62
     6
 10
285.325643274
 20
1321.611876105
 30
0.0
 11
280.788073096
 21
1322.368137801
 31
0.0
  0
CIRCLE
  8
0
  6
CONTINUOUS
 62
     6
 10
422.042582979
 20
1329.914353908
 30
0.0
 40
3.936205455
  0
LINE
  8
0
  6
CONTINUOUS
 62
     6
 10
418.106377524
 20
1329.914353908
 30
0.0
 11
416.889069541
 21
1329.914353908
 31
0.0
  0
LINE
  8
0
  6
CONTINUOUS
 62
     6
 10
442.158190434
 20
1343.053529485
 30
0.0
 11
438.400299871
 21
1321.611876105
 31
0.0
  0
LINE
  8
0
  6
CONTINUOUS
 62
     6
 10
437.620915776
 20
1343.809741928
 30
0.0
 11
433.862729694
 21
1322.368137801
 31
0.0
  0
LINE
  8
0
  6
CONTINUOUS
 62
     6
 10
438.400299871
 20
1321.611876105
 30
0.0
 11
433.862729694
 21
1322.368137801
 31
0.0
  0
CIRCLE
  8
0
  6
CONTINUOUS
 62
     6
 10
442.401512307
 20
1320.824635014
 30
0.0
 40
3.936205455
  0
LINE
  8
0
  6
CONTINUOUS
 62
     6
 10
289.326855709
 20
1316.888429558
 30
0.0
 11
289.326855709
 21
1307.373746261
 31
0.0
  0
LINE
  8
0
  6
CONTINUOUS
 62
     6
 10
263.814412943
 20
1358.930748456
 30
0.0
 11
263.814412943
 21
1307.373746261
 31
0.0
  0
LINE
  8
0
  6
CONTINUOUS
 62
     6
 10
442.401512307
 20
1316.888429558
 30
0.0
 11
442.401512307
 21
1307.373746261
 31
0.0
  0
LINE
  8
0
  6
CONTINUOUS
 62
     6
 10
416.889069541
 20
1329.914353908
 30
0.0
 11
416.889069541
 21
1307.373746261
 31
0.0
  0
LINE
  8
0
  6
CONTINUOUS
 62
     6
 10
391.376626774
 20
1307.373746261
 30
0.0
 11
391.376626774
 21
1358.930748456
 31
0.0
  0
LINE
  8
0
  6
CONTINUOUS
 62
     6
 10
315.082620348
 20
1343.053529485
 30
0.0
 11
318.840510911
 21
1321.611876105
 31
0.0
  0
LINE
  8
0
  6
CONTINUOUS
 62
     6
 10
319.619895007
 20
1343.809741928
 30
0.0
 11
323.378081089
 21
1322.368137801
 31
0.0
  0
LINE
  8
0
  6
CONTINUOUS
 62
     6
 10
318.840510911
 20
1321.611876105
 30
0.0
 11
323.378081089
 21
1322.368137801
 31
0.0
  0
CIRCLE
  8
0
  6
CONTINUOUS
 62
     6
 10
314.839298476
 20
1320.824635014
 30
0.0
 40
3.936205455
  0
CIRCLE
  8
0
  6
CONTINUOUS
 62
     6
 10
335.198227803
 20
1329.914353908
 30
0.0
 40
3.936205455
  0
LINE
  8
0
  6
CONTINUOUS
 62
     6
 10
339.134433259
 20
1329.914353908
 30
0.0
 11
340.351741242
 21
1329.914353908
 31
0.0
  0
LINE
  8
0
  6
CONTINUOUS
 62
     6
 10
314.839298476
 20
1316.888429558
 30
0.0
 11
314.839298476
 21
1307.373746261
 31
0.0
  0
LINE
  8
0
  6
CONTINUOUS
 62
     6
 10
340.351741242
 20
1329.914353908
 30
0.0
 11
340.351741242
 21
1307.373746261
 31
0.0
  0
LINE
  8
0
  6
CONTINUOUS
 62
     6
 10
365.864184008
 20
1307.373746261
 30
0.0
 11
365.864184008
 21
1358.930748456
 31
0.0
  0
LINE
  8
0
  6
CONTINUOUS
 62
     2
 10
455.15773369
 20
1307.373746261
 30
0.0
 11
455.15773369
 21
1285.505938175
 31
0.0
  0
LINE
  8
0
  6
CONTINUOUS
 62
     2
 10
251.05819156
 20
1307.373746261
 30
0.0
 11
251.05819156
 21
1285.505938175
 31
0.0
  0
LINE
  8
0
  6
CONTINUOUS
 62
     2
 10
276.570634326
 20
1307.373746261
 30
0.0
 11
276.570634326
 21
1285.505938175
 31
0.0
  0
LINE
  8
0
  6
CONTINUOUS
 62
     2
 10
302.083077093
 20
1307.373746261
 30
0.0
 11
302.083077093
 21
1285.505938175
 31
0.0
  0
LINE
  8
0
  6
CONTINUOUS
 62
     2
 10
327.595519859
 20
1307.373746261
 30
0.0
 11
327.595519859
 21
1285.505938175
 31
0.0
  0
LINE
  8
0
  6
CONTINUOUS
 62
     2
 10
200.033306028
 20
1307.373746261
 30
0.0
 11
200.033306028
 21
1285.505938175
 31
0.0
  0
LINE
  8
0
  6
CONTINUOUS
 62
     2
 10
225.545748794
 20
1307.373746261
 30
0.0
 11
225.545748794
 21
1285.505938175
 31
0.0
  0
LINE
  8
0
  6
CONTINUOUS
 62
     2
 10
149.008420495
 20
1307.373746261
 30
0.0
 11
455.15773369
 21
1307.373746261
 31
0.0
  0
LINE
  8
0
  6
CONTINUOUS
 62
     2
 10
149.008420495
 20
1285.505938175
 30
0.0
 11
455.15773369
 21
1285.505938175
 31
0.0
  0
CIRCLE
  8
0
  6
CONTINUOUS
 62
     6
 10
289.326855709
 20
1347.080583255
 30
0.0
 40
3.936205455
  0
LINE
  8
0
  6
CONTINUOUS
 62
     6
 10
289.083533837
 20
1343.053529485
 30
0.0
 11
284.546259178
 21
1343.809741928
 31
0.0
  0
LINE
  8
0
  6
CONTINUOUS
 62
     6
 10
289.326855709
 20
1351.01678871
 30
0.0
 11
289.326855709
 21
1358.930748456
 31
0.0
  0
LINE
  8
0
  6
CONTINUOUS
 62
     6
 10
289.326855709
 20
1358.930748456
 30
0.0
 11
263.814412943
 21
1358.930748456
 31
0.0
  0
LINE
  8
0
  6
CONTINUOUS
 62
     6
 10
442.401512307
 20
1358.930748456
 30
0.0
 11
391.376626774
 21
1358.930748456
 31
0.0
  0
CIRCLE
  8
0
  6
CONTINUOUS
 62
     6
 10
442.401512307
 20
1347.080583255
 30
0.0
 40
3.936205455
  0
LINE
  8
0
  6
CONTINUOUS
 62
     6
 10
442.158190434
 20
1343.053529485
 30
0.0
 11
437.620915776
 21
1343.809741928
 31
0.0
  0
LINE
  8
0
  6
CONTINUOUS
 62
     6
 10
442.401512307
 20
1351.01678871
 30
0.0
 11
442.401512307
 21
1358.930748456
 31
0.0
  0
CIRCLE
  8
0
  6
CONTINUOUS
 62
     6
 10
314.839298476
 20
1347.080583255
 30
0.0
 40
3.936205455
  0
LINE
  8
0
  6
CONTINUOUS
 62
     6
 10
315.082620348
 20
1343.053529485
 30
0.0
 11
319.619895007
 21
1343.809741928
 31
0.0
  0
LINE
  8
0
  6
CONTINUOUS
 62
     6
 10
314.839298476
 20
1351.01678871
 30
0.0
 11
314.839298476
 21
1358.930748456
 31
0.0
  0
LINE
  8
0
  6
CONTINUOUS
 62
     6
 10
365.864184008
 20
1358.930748456
 30
0.0
 11
314.839298476
 21
1358.930748456
 31
0.0
  0
TEXT
  8
0
  6
CONTINUOUS
 62
     6
 10
261.561199775
 20
1363.269123594
 30
0.78624
 40
11.232
  1
ＬＳＡ
 50
0.0
 41
0.8
 51
0.0
  7
KANJI29
  0
TEXT
  8
0
  6
CONTINUOUS
 62
     6
 10
319.411810691
 20
1363.269123594
 30
0.78624
 40
11.232
  1
ＬＳ０１
 50
0.0
 41
0.8
 51
0.0
  7
KANJI29
  0
TEXT
  8
0
  6
CONTINUOUS
 62
     6
 10
398.72718699
 20
1363.269123594
 30
0.78624
 40
11.232
  1
ＬＳ０２
 50
0.0
 41
0.8
 51
0.0
  7
KANJI29
  0
TEXT
  8
0
  6
CONTINUOUS
 62
     6
 10
348.338781457
 20
1262.486688026
 30
0.78624
 40
11.232
  1
ＬＳ１２
 50
0.0
 41
0.8
 51
0.0
  7
KANJI29
  0
TEXT
  8
0
  6
CONTINUOUS
 62
     6
 10
269.023405158
 20
1262.486688026
 30
0.78624
 40
11.232
  1
ＬＳ１１
 50
0.0
 41
0.8
 51
0.0
  7
KANJI29
  0
LINE
  8
0
  6
CONTINUOUS
 62
     2
 10
251.05819156
 20
1206.935916515
 30
0.0
 11
251.05819156
 21
1185.068108429
 31
0.0
  0
LINE
  8
0
  6
CONTINUOUS
 62
     2
 10
225.545748794
 20
1206.935916515
 30
0.0
 11
225.545748794
 21
1185.068108429
 31
0.0
  0
LINE
  8
0
  6
CONTINUOUS
 62
     2
 10
200.033306028
 20
1206.935916515
 30
0.0
 11
200.033306028
 21
1185.068108429
 31
0.0
  0
LINE
  8
0
  6
CONTINUOUS
 62
     2
 10
276.570634326
 20
1206.935916515
 30
0.0
 11
276.570634326
 21
1185.068108429
 31
0.0
  0
LINE
  8
0
  6
CONTINUOUS
 62
     2
 10
302.083077093
 20
1206.935916515
 30
0.0
 11
302.083077093
 21
1185.068108429
 31
0.0
  0
LINE
  8
0
  6
CONTINUOUS
 62
     2
 10
327.595519859
 20
1206.935916515
 30
0.0
 11
327.595519859
 21
1185.068108429
 31
0.0
  0
LINE
  8
0
  6
CONTINUOUS
 62
     2
 10
353.107962625
 20
1206.935916515
 30
0.0
 11
353.107962625
 21
1185.068108429
 31
0.0
  0
LINE
  8
0
  6
CONTINUOUS
 62
     2
 10
378.620405391
 20
1206.935916515
 30
0.0
 11
378.620405391
 21
1185.068108429
 31
0.0
  0
LINE
  8
0
  6
CONTINUOUS
 62
     6
 10
267.815625379
 20
1221.174046359
 30
0.0
 11
272.353195556
 21
1221.930308055
 31
0.0
  0
CIRCLE
  8
0
  6
CONTINUOUS
 62
     6
 10
263.814412943
 20
1220.386805268
 30
0.0
 40
3.936205455
  0
CIRCLE
  8
0
  6
CONTINUOUS
 62
     6
 10
284.173342271
 20
1229.476524162
 30
0.0
 40
3.936205455
  0
LINE
  8
0
  6
CONTINUOUS
 62
     6
 10
288.109547726
 20
1229.476524162
 30
0.0
 11
289.326855709
 21
1229.476524162
 31
0.0
  0
LINE
  8
0
  6
CONTINUOUS
 62
     6
 10
263.814412943
 20
1216.450599813
 30
0.0
 11
263.814412943
 21
1206.935916515
 31
0.0
  0
LINE
  8
0
  6
CONTINUOUS
 62
     6
 10
289.326855709
 20
1229.476524162
 30
0.0
 11
289.326855709
 21
1206.935916515
 31
0.0
  0
LINE
  8
0
  6
CONTINUOUS
 62
     6
 10
387.375414339
 20
1221.174046359
 30
0.0
 11
382.837844161
 21
1221.930308055
 31
0.0
  0
CIRCLE
  8
0
  6
CONTINUOUS
 62
     6
 10
391.376626774
 20
1220.386805268
 30
0.0
 40
3.936205455
  0
CIRCLE
  8
0
  6
CONTINUOUS
 62
     6
 10
371.017697447
 20
1229.476524162
 30
0.0
 40
3.936205455
  0
LINE
  8
0
  6
CONTINUOUS
 62
     6
 10
367.081491992
 20
1229.476524162
 30
0.0
 11
365.864184008
 21
1229.476524162
 31
0.0
  0
LINE
  8
0
  6
CONTINUOUS
 62
     6
 10
391.376626774
 20
1216.450599813
 30
0.0
 11
391.376626774
 21
1206.935916515
 31
0.0
  0
LINE
  8
0
  6
CONTINUOUS
 62
     6
 10
365.864184008
 20
1229.476524162
 30
0.0
 11
365.864184008
 21
1206.935916515
 31
0.0
  0
LINE
  8
0
  6
CONTINUOUS
 62
     2
 10
404.132848158
 20
1206.935916515
 30
0.0
 11
404.132848158
 21
1185.068108429
 31
0.0
  0
LINE
  8
0
  6
CONTINUOUS
 62
     2
 10
200.033306028
 20
1206.935916515
 30
0.0
 11
404.132848158
 21
1206.935916515
 31
0.0
  0
LINE
  8
0
  6
CONTINUOUS
 62
     2
 10
200.033306028
 20
1185.068108429
 30
0.0
 11
404.132848158
 21
1185.068108429
 31
0.0
  0
TEXT
  8
0
  6
CONTINUOUS
 62
     3
 10
257.997767516
 20
1188.02384711
 30
0.0
 40
14.37696
  1
２１　２２　２３　２４　　２５　　２６　　
 50
0.0
 41
0.9125
 51
0.0
  7
KANJI30
  0
LINE
  8
0
  6
CONTINUOUS
 62
     2
 10
149.008420495
 20
1307.373746261
 30
0.0
 11
149.008420495
 21
1285.505938175
 31
0.0
  0
LINE
  8
0
  6
CONTINUOUS
 62
     2
 10
174.520863261
 20
1307.373746261
 30
0.0
 11
174.520863261
 21
1285.505938175
 31
0.0
  0
TEXT
  8
0
  6
CONTINUOUS
 62
     3
 10
154.110909048
 20
1289.150572856
 30
0.0
 40
14.4
  1
　　　　　　　　　　　　４０　４１　１　　２　　　３　　　４　　　５　　　６
 50
0.0
 41
0.911
 51
0.0
  7
KANJI31
  0
TEXT
  8
0
  6
CONTINUOUS
 62
     6
 10
136.408220643
 20
1624.435112111
 30
0.0
 40
13.9932
  1
ＬＳ０１　　　：推力リミッタ（前進時過負荷用）
 50
0.0
 41
0.943315325
 51
0.0
  7
KANJI32
  0
TEXT
  8
0
  6
CONTINUOUS
 62
     6
 10
136.408220643
 20
1591.480112111
 30
0.0
 40
13.9932
  1
ＬＳ０２　　　：推力リミッタ（後進時過負荷用）
 50
0.0
 41
0.943315325
 51
0.0
  7
KANJI32
  0
TEXT
  8
0
  6
CONTINUOUS
 62
     6
 10
136.408220643
 20
1558.525112111
 30
0.0
 40
13.9932
  1
ＬＳＡ　　　　：安全リミットスイッチ
 50
0.0
 41
0.943315325
 51
0.0
  7
KANJI32
  0
TEXT
  8
0
  6
CONTINUOUS
 62
     6
 10
136.408220643
 20
1525.570112111
 30
0.0
 40
13.9932
  1
ＬＳ１１，１２：位置リミットスイッチ　［２カム用］
 50
0.0
 41
0.943315325
 51
0.0
  7
KANJI32
  0
TEXT
  8
0
  6
CONTINUOUS
 62
     6
 10
136.408220643
 20
1492.615112111
 30
0.0
 40
13.9932
  1
ＬＳ１１～１４：位置リミットスイッチ　［４カム用］
 50
0.0
 41
0.943315325
 51
0.0
  7
KANJI32
  0
LINE
  8
0
  6
CONTINUOUS
 62
     6
 10
471.259958074
 20
1620.597311792
 30
0.0
 11
131.717575809
 21
1620.597311792
 31
0.0
  0
LINE
  8
0
  6
CONTINUOUS
 62
     6
 10
471.259958074
 20
1587.642311792
 30
0.0
 11
131.717575809
 21
1587.642311792
 31
0.0
  0
LINE
  8
0
  6
CONTINUOUS
 62
     6
 10
471.259958074
 20
1554.687311792
 30
0.0
 11
131.717575809
 21
1554.687311792
 31
0.0
  0
LINE
  8
0
  6
CONTINUOUS
 62
     6
 10
471.259958074
 20
1521.732311792
 30
0.0
 11
131.717575809
 21
1521.732311792
 31
0.0
  0
LINE
  8
0
  6
CONTINUOUS
 62
     6
 10
471.259958074
 20
1488.777311792
 30
0.0
 11
131.717575809
 21
1488.777311792
 31
0.0
  0
TEXT
  8
0
  6
CONTINUOUS
 62
     6
 10
401.244011737
 20
1412.308448882
 30
0.0
 40
18.0
  1
ポジショナ内端子台配列
 50
0.0
 41
0.9
 51
0.0
  7
KANJI33
  0
TEXT
  8
0
  6
CONTINUOUS
 62
     6
 10
128.814567657
 20
1115.299357623
 30
1.82231734
 40
18.223173404
  1
エコノストップモータ
 50
0.0
 41
0.66671875
 51
0.0
  7
KANJI34
  0
TEXT
  8
0
  6
CONTINUOUS
 62
     6
 10
613.061963977
 20
1155.209618036
 30
0.0
 40
17.031074144
  1
４カム端子台　接続図
 50
0.0
 41
0.880962996
 51
0.0
  7
KANJI28
  0
LINE
  8
0
  6
LTYPE2
 62
     6
 10
872.64
 20
1147.14
 30
0.0
 11
872.64
 21
1653.54
 31
0.0
  0
LINE
  8
0
  6
CONTINUOUS
 62
     2
 10
721.507962625
 20
1307.373746261
 30
0.0
 11
721.507962625
 21
1285.505938175
 31
0.0
  0
LINE
  8
0
  6
CONTINUOUS
 62
     2
 10
747.020405391
 20
1307.373746261
 30
0.0
 11
747.020405391
 21
1285.505938175
 31
0.0
  0
LINE
  8
0
  6
CONTINUOUS
 62
     2
 10
772.532848158
 20
1307.373746261
 30
0.0
 11
772.532848158
 21
1285.505938175
 31
0.0
  0
LINE
  8
0
  6
CONTINUOUS
 62
     2
 10
798.045290924
 20
1307.373746261
 30
0.0
 11
798.045290924
 21
1285.505938175
 31
0.0
  0
LINE
  8
0
  6
CONTINUOUS
 62
     6
 10
657.726855709
 20
1316.888429558
 30
0.0
 11
657.726855709
 21
1307.373746261
 31
0.0
  0
LINE
  8
0
  6
CONTINUOUS
 62
     6
 10
632.214412943
 20
1358.930748456
 30
0.0
 11
632.214412943
 21
1307.373746261
 31
0.0
  0
LINE
  8
0
  6
CONTINUOUS
 62
     6
 10
810.801512307
 20
1316.888429558
 30
0.0
 11
810.801512307
 21
1307.373746261
 31
0.0
  0
LINE
  8
0
  6
CONTINUOUS
 62
     6
 10
785.289069541
 20
1329.914353908
 30
0.0
 11
785.289069541
 21
1307.373746261
 31
0.0
  0
LINE
  8
0
  6
CONTINUOUS
 62
     6
 10
759.776626774
 20
1307.373746261
 30
0.0
 11
759.776626774
 21
1358.930748456
 31
0.0
  0
LINE
  8
0
  6
CONTINUOUS
 62
     6
 10
683.239298476
 20
1316.888429558
 30
0.0
 11
683.239298476
 21
1307.373746261
 31
0.0
  0
LINE
  8
0
  6
CONTINUOUS
 62
     6
 10
708.751741242
 20
1329.914353908
 30
0.0
 11
708.751741242
 21
1307.373746261
 31
0.0
  0
LINE
  8
0
  6
CONTINUOUS
 62
     6
 10
734.264184008
 20
1307.373746261
 30
0.0
 11
734.264184008
 21
1358.930748456
 31
0.0
  0
LINE
  8
0
  6
CONTINUOUS
 62
     2
 10
823.55773369
 20
1307.373746261
 30
0.0
 11
823.55773369
 21
1285.505938175
 31
0.0
  0
LINE
  8
0
  6
CONTINUOUS
 62
     2
 10
619.45819156
 20
1307.373746261
 30
0.0
 11
619.45819156
 21
1285.505938175
 31
0.0
  0
LINE
  8
0
  6
CONTINUOUS
 62
     2
 10
644.970634326
 20
1307.373746261
 30
0.0
 11
644.970634326
 21
1285.505938175
 31
0.0
  0
LINE
  8
0
  6
CONTINUOUS
 62
     2
 10
670.483077093
 20
1307.373746261
 30
0.0
 11
670.483077093
 21
1285.505938175
 31
0.0
  0
LINE
  8
0
  6
CONTINUOUS
 62
     2
 10
695.995519859
 20
1307.373746261
 30
0.0
 11
695.995519859
 21
1285.505938175
 31
0.0
  0
LINE
  8
0
  6
CONTINUOUS
 62
     2
 10
568.433306028
 20
1307.373746261
 30
0.0
 11
568.433306028
 21
1285.505938175
 31
0.0
  0
LINE
  8
0
  6
CONTINUOUS
 62
     2
 10
593.945748794
 20
1307.373746261
 30
0.0
 11
593.945748794
 21
1285.505938175
 31
0.0
  0
LINE
  8
0
  6
CONTINUOUS
 62
     2
 10
517.408420495
 20
1307.373746261
 30
0.0
 11
823.55773369
 21
1307.373746261
 31
0.0
  0
LINE
  8
0
  6
CONTINUOUS
 62
     2
 10
517.408420495
 20
1285.505938175
 30
0.0
 11
823.55773369
 21
1285.505938175
 31
0.0
  0
LINE
  8
0
  6
CONTINUOUS
 62
     2
 10
517.408420495
 20
1307.373746261
 30
0.0
 11
517.408420495
 21
1285.505938175
 31
0.0
  0
LINE
  8
0
  6
CONTINUOUS
 62
     2
 10
542.920863261
 20
1307.373746261
 30
0.0
 11
542.920863261
 21
1285.505938175
 31
0.0
  0
CIRCLE
  8
0
  6
CONTINUOUS
 62
     6
 10
657.726855709
 20
1320.824635014
 30
0.0
 40
3.936205455
  0
LINE
  8
0
  6
CONTINUOUS
 62
     6
 10
657.483533837
 20
1343.053529485
 30
0.0
 11
653.725643274
 21
1321.611876105
 31
0.0
  0
LINE
  8
0
  6
CONTINUOUS
 62
     6
 10
652.946259178
 20
1343.809741928
 30
0.0
 11
649.188073096
 21
1322.368137801
 31
0.0
  0
LINE
  8
0
  6
CONTINUOUS
 62
     6
 10
653.725643274
 20
1321.611876105
 30
0.0
 11
649.188073096
 21
1322.368137801
 31
0.0
  0
CIRCLE
  8
0
  6
CONTINUOUS
 62
     6
 10
790.442582979
 20
1329.914353908
 30
0.0
 40
3.936205455
  0
LINE
  8
0
  6
CONTINUOUS
 62
     6
 10
786.506377524
 20
1329.914353908
 30
0.0
 11
785.289069541
 21
1329.914353908
 31
0.0
  0
LINE
  8
0
  6
CONTINUOUS
 62
     6
 10
810.558190434
 20
1343.053529485
 30
0.0
 11
806.800299871
 21
1321.611876105
 31
0.0
  0
LINE
  8
0
  6
CONTINUOUS
 62
     6
 10
806.020915776
 20
1343.809741928
 30
0.0
 11
802.262729694
 21
1322.368137801
 31
0.0
  0
LINE
  8
0
  6
CONTINUOUS
 62
     6
 10
806.800299871
 20
1321.611876105
 30
0.0
 11
802.262729694
 21
1322.368137801
 31
0.0
  0
CIRCLE
  8
0
  6
CONTINUOUS
 62
     6
 10
810.801512307
 20
1320.824635014
 30
0.0
 40
3.936205455
  0
LINE
  8
0
  6
CONTINUOUS
 62
     6
 10
683.482620348
 20
1343.053529485
 30
0.0
 11
687.240510911
 21
1321.611876105
 31
0.0
  0
LINE
  8
0
  6
CONTINUOUS
 62
     6
 10
688.019895007
 20
1343.809741928
 30
0.0
 11
691.778081089
 21
1322.368137801
 31
0.0
  0
LINE
  8
0
  6
CONTINUOUS
 62
     6
 10
687.240510911
 20
1321.611876105
 30
0.0
 11
691.778081089
 21
1322.368137801
 31
0.0
  0
CIRCLE
  8
0
  6
CONTINUOUS
 62
     6
 10
683.239298476
 20
1320.824635014
 30
0.0
 40
3.936205455
  0
CIRCLE
  8
0
  6
CONTINUOUS
 62
     6
 10
703.598227803
 20
1329.914353908
 30
0.0
 40
3.936205455
  0
LINE
  8
0
  6
CONTINUOUS
 62
     6
 10
707.534433259
 20
1329.914353908
 30
0.0
 11
708.751741242
 21
1329.914353908
 31
0.0
  0
CIRCLE
  8
0
  6
CONTINUOUS
 62
     6
 10
657.726855709
 20
1347.080583255
 30
0.0
 40
3.936205455
  0
LINE
  8
0
  6
CONTINUOUS
 62
     6
 10
657.483533837
 20
1343.053529485
 30
0.0
 11
652.946259178
 21
1343.809741928
 31
0.0
  0
LINE
  8
0
  6
CONTINUOUS
 62
     6
 10
657.726855709
 20
1351.01678871
 30
0.0
 11
657.726855709
 21
1358.930748456
 31
0.0
  0
LINE
  8
0
  6
CONTINUOUS
 62
     6
 10
657.726855709
 20
1358.930748456
 30
0.0
 11
632.214412943
 21
1358.930748456
 31
0.0
  0
LINE
  8
0
  6
CONTINUOUS
 62
     6
 10
810.801512307
 20
1358.930748456
 30
0.0
 11
759.776626774
 21
1358.930748456
 31
0.0
  0
CIRCLE
  8
0
  6
CONTINUOUS
 62
     6
 10
810.801512307
 20
1347.080583255
 30
0.0
 40
3.936205455
  0
LINE
  8
0
  6
CONTINUOUS
 62
     6
 10
810.558190434
 20
1343.053529485
 30
0.0
 11
806.020915776
 21
1343.809741928
 31
0.0
  0
LINE
  8
0
  6
CONTINUOUS
 62
     6
 10
810.801512307
 20
1351.01678871
 30
0.0
 11
810.801512307
 21
1358.930748456
 31
0.0
  0
CIRCLE
  8
0
  6
CONTINUOUS
 62
     6
 10
683.239298476
 20
1347.080583255
 30
0.0
 40
3.936205455
  0
LINE
  8
0
  6
CONTINUOUS
 62
     6
 10
683.482620348
 20
1343.053529485
 30
0.0
 11
688.019895007
 21
1343.809741928
 31
0.0
  0
LINE
  8
0
  6
CONTINUOUS
 62
     6
 10
683.239298476
 20
1351.01678871
 30
0.0
 11
683.239298476
 21
1358.930748456
 31
0.0
  0
LINE
  8
0
  6
CONTINUOUS
 62
     6
 10
734.264184008
 20
1358.930748456
 30
0.0
 11
683.239298476
 21
1358.930748456
 31
0.0
  0
TEXT
  8
0
  6
CONTINUOUS
 62
     6
 10
629.961199775
 20
1363.269123594
 30
0.78624
 40
11.232
  1
ＬＳＡ
 50
0.0
 41
0.8
 51
0.0
  7
KANJI29
  0
TEXT
  8
0
  6
CONTINUOUS
 62
     6
 10
687.811810691
 20
1363.269123594
 30
0.78624
 40
11.232
  1
ＬＳ０１
 50
0.0
 41
0.8
 51
0.0
  7
KANJI29
  0
TEXT
  8
0
  6
CONTINUOUS
 62
     6
 10
767.12718699
 20
1363.269123594
 30
0.78624
 40
11.232
  1
ＬＳ０２
 50
0.0
 41
0.8
 51
0.0
  7
KANJI29
  0
CIRCLE
  8
0
  6
CONTINUOUS
 62
     6
 10
530.164641878
 20
1246.642753509
 30
0.0
 40
3.936205455
  0
LINE
  8
0
  6
CONTINUOUS
 62
     6
 10
530.407963751
 20
1242.615699739
 30
0.0
 11
534.165854314
 21
1221.174046359
 31
0.0
  0
LINE
  8
0
  6
CONTINUOUS
 62
     6
 10
530.407963751
 20
1242.615699739
 30
0.0
 11
534.94523841
 21
1243.371912182
 31
0.0
  0
LINE
  8
0
  6
CONTINUOUS
 62
     6
 10
534.94523841
 20
1243.371912182
 30
0.0
 11
538.703424491
 21
1221.930308055
 31
0.0
  0
LINE
  8
0
  6
CONTINUOUS
 62
     6
 10
530.164641878
 20
1250.578958964
 30
0.0
 11
530.164641878
 21
1258.492918711
 31
0.0
  0
LINE
  8
0
  6
CONTINUOUS
 62
     6
 10
581.189527411
 20
1258.492918711
 30
0.0
 11
530.164641878
 21
1258.492918711
 31
0.0
  0
LINE
  8
0
  6
CONTINUOUS
 62
     6
 10
581.189527411
 20
1206.935916515
 30
0.0
 11
581.189527411
 21
1258.492918711
 31
0.0
  0
CIRCLE
  8
0
  6
CONTINUOUS
 62
     6
 10
657.726855709
 20
1246.642753509
 30
0.0
 40
3.936205455
  0
LINE
  8
0
  6
CONTINUOUS
 62
     6
 10
657.483533837
 20
1242.615699739
 30
0.0
 11
653.725643274
 21
1221.174046359
 31
0.0
  0
LINE
  8
0
  6
CONTINUOUS
 62
     6
 10
657.483533837
 20
1242.615699739
 30
0.0
 11
652.946259178
 21
1243.371912182
 31
0.0
  0
LINE
  8
0
  6
CONTINUOUS
 62
     6
 10
652.946259178
 20
1243.371912182
 30
0.0
 11
649.188073096
 21
1221.930308055
 31
0.0
  0
LINE
  8
0
  6
CONTINUOUS
 62
     6
 10
657.726855709
 20
1250.578958964
 30
0.0
 11
657.726855709
 21
1258.492918711
 31
0.0
  0
LINE
  8
0
  6
CONTINUOUS
 62
     6
 10
606.701970177
 20
1258.492918711
 30
0.0
 11
657.726855709
 21
1258.492918711
 31
0.0
  0
LINE
  8
0
  6
CONTINUOUS
 62
     6
 10
606.701970177
 20
1206.935916515
 30
0.0
 11
606.701970177
 21
1258.492918711
 31
0.0
  0
TEXT
  8
0
  6
CONTINUOUS
 62
     6
 10
614.689010392
 20
1262.486688026
 30
0.78624
 40
11.232
  1
ＬＳ１２
 50
0.0
 41
0.8
 51
0.0
  7
KANJI29
  0
TEXT
  8
0
  6
CONTINUOUS
 62
     6
 10
535.373634093
 20
1262.486688026
 30
0.78624
 40
11.232
  1
ＬＳ１１
 50
0.0
 41
0.8
 51
0.0
  7
KANJI29
  0
LINE
  8
0
  6
CONTINUOUS
 62
     2
 10
517.408420495
 20
1206.935916515
 30
0.0
 11
517.408420495
 21
1185.068108429
 31
0.0
  0
LINE
  8
0
  6
CONTINUOUS
 62
     2
 10
542.920863261
 20
1206.935916515
 30
0.0
 11
542.920863261
 21
1185.068108429
 31
0.0
  0
LINE
  8
0
  6
CONTINUOUS
 62
     2
 10
568.433306028
 20
1206.935916515
 30
0.0
 11
568.433306028
 21
1185.068108429
 31
0.0
  0
LINE
  8
0
  6
CONTINUOUS
 62
     2
 10
593.945748794
 20
1206.935916515
 30
0.0
 11
593.945748794
 21
1185.068108429
 31
0.0
  0
LINE
  8
0
  6
CONTINUOUS
 62
     2
 10
619.45819156
 20
1206.935916515
 30
0.0
 11
619.45819156
 21
1185.068108429
 31
0.0
  0
LINE
  8
0
  6
CONTINUOUS
 62
     2
 10
644.970634326
 20
1206.935916515
 30
0.0
 11
644.970634326
 21
1185.068108429
 31
0.0
  0
LINE
  8
0
  6
CONTINUOUS
 62
     6
 10
534.165854314
 20
1221.174046359
 30
0.0
 11
538.703424491
 21
1221.930308055
 31
0.0
  0
CIRCLE
  8
0
  6
CONTINUOUS
 62
     6
 10
530.164641878
 20
1220.386805268
 30
0.0
 40
3.936205455
  0
CIRCLE
  8
0
  6
CONTINUOUS
 62
     6
 10
550.523571206
 20
1229.476524162
 30
0.0
 40
3.936205455
  0
LINE
  8
0
  6
CONTINUOUS
 62
     6
 10
554.459776661
 20
1229.476524162
 30
0.0
 11
555.677084644
 21
1229.476524162
 31
0.0
  0
LINE
  8
0
  6
CONTINUOUS
 62
     6
 10
530.164641878
 20
1216.450599813
 30
0.0
 11
530.164641878
 21
1206.935916515
 31
0.0
  0
LINE
  8
0
  6
CONTINUOUS
 62
     6
 10
555.677084644
 20
1229.476524162
 30
0.0
 11
555.677084644
 21
1206.935916515
 31
0.0
  0
LINE
  8
0
  6
CONTINUOUS
 62
     6
 10
653.725643274
 20
1221.174046359
 30
0.0
 11
649.188073096
 21
1221.930308055
 31
0.0
  0
CIRCLE
  8
0
  6
CONTINUOUS
 62
     6
 10
657.726855709
 20
1220.386805268
 30
0.0
 40
3.936205455
  0
CIRCLE
  8
0
  6
CONTINUOUS
 62
     6
 10
637.367926382
 20
1229.476524162
 30
0.0
 40
3.936205455
  0
LINE
  8
0
  6
CONTINUOUS
 62
     6
 10
633.431720927
 20
1229.476524162
 30
0.0
 11
632.214412943
 21
1229.476524162
 31
0.0
  0
LINE
  8
0
  6
CONTINUOUS
 62
     6
 10
657.726855709
 20
1216.450599813
 30
0.0
 11
657.726855709
 21
1206.935916515
 31
0.0
  0
LINE
  8
0
  6
CONTINUOUS
 62
     6
 10
632.214412943
 20
1229.476524162
 30
0.0
 11
632.214412943
 21
1206.935916515
 31
0.0
  0
LINE
  8
0
  6
CONTINUOUS
 62
     2
 10
670.483077093
 20
1206.935916515
 30
0.0
 11
670.483077093
 21
1185.068108429
 31
0.0
  0
TEXT
  8
0
  6
CONTINUOUS
 62
     3
 10
524.347996451
 20
1188.02384711
 30
0.0
 40
14.37696
  1
２１　２２　２３　２４　　２５　　２６　　
 50
0.0
 41
0.9125
 51
0.0
  7
KANJI30
  0
LINE
  8
0
  6
CONTINUOUS
 62
     2
 10
517.408420495
 20
1185.068108429
 30
0.0
 11
670.483077093
 21
1185.068108429
 31
0.0
  0
LINE
  8
0
  6
CONTINUOUS
 62
     2
 10
517.408420495
 20
1206.935916515
 30
0.0
 11
670.483077093
 21
1206.935916515
 31
0.0
  0
CIRCLE
  8
0
  6
CONTINUOUS
 62
     6
 10
683.239298476
 20
1246.642753509
 30
0.0
 40
3.936205455
  0
LINE
  8
0
  6
CONTINUOUS
 62
     6
 10
683.482620348
 20
1242.615699739
 30
0.0
 11
687.240510911
 21
1221.174046359
 31
0.0
  0
LINE
  8
0
  6
CONTINUOUS
 62
     6
 10
683.482620348
 20
1242.615699739
 30
0.0
 11
688.019895007
 21
1243.371912182
 31
0.0
  0
LINE
  8
0
  6
CONTINUOUS
 62
     6
 10
688.019895007
 20
1243.371912182
 30
0.0
 11
691.778081089
 21
1221.930308055
 31
0.0
  0
LINE
  8
0
  6
CONTINUOUS
 62
     6
 10
683.239298476
 20
1250.578958964
 30
0.0
 11
683.239298476
 21
1258.492918711
 31
0.0
  0
LINE
  8
0
  6
CONTINUOUS
 62
     6
 10
734.264184008
 20
1258.492918711
 30
0.0
 11
683.239298476
 21
1258.492918711
 31
0.0
  0
LINE
  8
0
  6
CONTINUOUS
 62
     6
 10
734.264184008
 20
1206.935916515
 30
0.0
 11
734.264184008
 21
1258.492918711
 31
0.0
  0
CIRCLE
  8
0
  6
CONTINUOUS
 62
     6
 10
810.801512307
 20
1246.642753509
 30
0.0
 40
3.936205455
  0
LINE
  8
0
  6
CONTINUOUS
 62
     6
 10
810.558190434
 20
1242.615699739
 30
0.0
 11
806.800299871
 21
1221.174046359
 31
0.0
  0
LINE
  8
0
  6
CONTINUOUS
 62
     6
 10
810.558190434
 20
1242.615699739
 30
0.0
 11
806.020915776
 21
1243.371912182
 31
0.0
  0
LINE
  8
0
  6
CONTINUOUS
 62
     6
 10
806.020915776
 20
1243.371912182
 30
0.0
 11
802.262729694
 21
1221.930308055
 31
0.0
  0
LINE
  8
0
  6
CONTINUOUS
 62
     6
 10
810.801512307
 20
1250.578958964
 30
0.0
 11
810.801512307
 21
1258.492918711
 31
0.0
  0
LINE
  8
0
  6
CONTINUOUS
 62
     6
 10
759.776626774
 20
1258.492918711
 30
0.0
 11
810.801512307
 21
1258.492918711
 31
0.0
  0
LINE
  8
0
  6
CONTINUOUS
 62
     6
 10
759.776626774
 20
1206.935916515
 30
0.0
 11
759.776626774
 21
1258.492918711
 31
0.0
  0
LINE
  8
0
  6
CONTINUOUS
 62
     2
 10
695.995519859
 20
1206.935916515
 30
0.0
 11
695.995519859
 21
1185.068108429
 31
0.0
  0
LINE
  8
0
  6
CONTINUOUS
 62
     2
 10
721.507962625
 20
1206.935916515
 30
0.0
 11
721.507962625
 21
1185.068108429
 31
0.0
  0
LINE
  8
0
  6
CONTINUOUS
 62
     2
 10
747.020405391
 20
1206.935916515
 30
0.0
 11
747.020405391
 21
1185.068108429
 31
0.0
  0
LINE
  8
0
  6
CONTINUOUS
 62
     2
 10
772.532848158
 20
1206.935916515
 30
0.0
 11
772.532848158
 21
1185.068108429
 31
0.0
  0
LINE
  8
0
  6
CONTINUOUS
 62
     2
 10
798.045290924
 20
1206.935916515
 30
0.0
 11
798.045290924
 21
1185.068108429
 31
0.0
  0
LINE
  8
0
  6
CONTINUOUS
 62
     6
 10
687.240510911
 20
1221.174046359
 30
0.0
 11
691.778081089
 21
1221.930308055
 31
0.0
  0
CIRCLE
  8
0
  6
CONTINUOUS
 62
     6
 10
683.239298476
 20
1220.386805268
 30
0.0
 40
3.936205455
  0
CIRCLE
  8
0
  6
CONTINUOUS
 62
     6
 10
703.598227803
 20
1229.476524162
 30
0.0
 40
3.936205455
  0
LINE
  8
0
  6
CONTINUOUS
 62
     6
 10
707.534433259
 20
1229.476524162
 30
0.0
 11
708.751741242
 21
1229.476524162
 31
0.0
  0
LINE
  8
0
  6
CONTINUOUS
 62
     6
 10
683.239298476
 20
1216.450599813
 30
0.0
 11
683.239298476
 21
1206.935916515
 31
0.0
  0
LINE
  8
0
  6
CONTINUOUS
 62
     6
 10
708.751741242
 20
1229.476524162
 30
0.0
 11
708.751741242
 21
1206.935916515
 31
0.0
  0
LINE
  8
0
  6
CONTINUOUS
 62
     6
 10
806.800299871
 20
1221.174046359
 30
0.0
 11
802.262729694
 21
1221.930308055
 31
0.0
  0
CIRCLE
  8
0
  6
CONTINUOUS
 62
     6
 10
810.801512307
 20
1220.386805268
 30
0.0
 40
3.936205455
  0
CIRCLE
  8
0
  6
CONTINUOUS
 62
     6
 10
790.44258298
 20
1229.476524162
 30
0.0
 40
3.936205455
  0
LINE
  8
0
  6
CONTINUOUS
 62
     6
 10
786.506377524
 20
1229.476524162
 30
0.0
 11
785.289069541
 21
1229.476524162
 31
0.0
  0
LINE
  8
0
  6
CONTINUOUS
 62
     6
 10
810.801512307
 20
1216.450599813
 30
0.0
 11
810.801512307
 21
1206.935916515
 31
0.0
  0
LINE
  8
0
  6
CONTINUOUS
 62
     6
 10
785.289069541
 20
1229.476524162
 30
0.0
 11
785.289069541
 21
1206.935916515
 31
0.0
  0
LINE
  8
0
  6
CONTINUOUS
 62
     2
 10
823.55773369
 20
1206.935916515
 30
0.0
 11
823.55773369
 21
1185.068108429
 31
0.0
  0
LINE
  8
0
  6
CONTINUOUS
 62
     2
 10
670.483077093
 20
1185.068108429
 30
0.0
 11
823.55773369
 21
1185.068108429
 31
0.0
  0
LINE
  8
0
  6
CONTINUOUS
 62
     2
 10
670.483077093
 20
1206.935916515
 30
0.0
 11
823.55773369
 21
1206.935916515
 31
0.0
  0
TEXT
  8
0
  6
CONTINUOUS
 62
     3
 10
677.422653048
 20
1188.02384711
 30
0.0
 40
14.37696
  1
２７　２８　２９　３０　　３１　　３２　　
 50
0.0
 41
0.9125
 51
0.0
  7
KANJI30
  0
TEXT
  8
0
  6
CONTINUOUS
 62
     6
 10
688.448290691
 20
1262.486688026
 30
0.78624
 40
11.232
  1
ＬＳ１３
 50
0.0
 41
0.8
 51
0.0
  7
KANJI29
  0
TEXT
  8
0
  6
CONTINUOUS
 62
     6
 10
767.76366699
 20
1262.486688026
 30
0.78624
 40
11.232
  1
ＬＳ１４
 50
0.0
 41
0.8
 51
0.0
  7
KANJI29
  0
LINE
  8
0
  6
LTYPE2
 62
     2
 10
484.92
 20
1371.3
 30
0.0
 11
484.92
 21
1155.3
 31
0.0
  0
TEXT
  8
0
  6
CONTINUOUS
 62
     3
 10
522.510909048
 20
1289.150572856
 30
0.0
 40
14.4
  1
　　　　　　　　４０　４１　１　　２　　　３　　　４　　　５　　　６
 50
0.0
 41
0.911
 51
0.0
  7
KANJI31
  0
LINE
  8
0
  6
LTYPE2
 62
     6
 10
272.996315633
 20
1104.9
 30
0.0
 11
116.52
 21
1104.9
 31
0.0
  0
CIRCLE
  8
0
  6
CONTINUOUS
 62
     6
 10
116.52
 20
1081.282767268
 30
0.0
 40
5.24827394
  0
LINE
  8
0
  6
CONTINUOUS
 62
     6
 10
110.490259572
 20
1075.25302684
 30
0.0
 11
122.7362321
 21
1087.498999368
 31
0.0
  0
CIRCLE
  8
0
  6
CONTINUOUS
 62
     6
 10
170.31480789
 20
1050.667835948
 30
0.0
 40
21.867808085
  0
TEXT
  8
0
  6
CONTINUOUS
 62
     6
 10
161.130328494
 20
1040.171288067
 30
2.186780809
 40
21.867808085
  1
Ｍ
 50
0.0
 41
0.9
 51
0.0
  7
KANJI35
  0
LINE
  8
0
  6
CONTINUOUS
 62
     6
 10
141.449301217
 20
1020.052904629
 30
0.0
 11
155.00734223
 21
1035.79772645
 31
0.0
  0
LINE
  8
0
  6
CONTINUOUS
 62
     6
 10
141.449301217
 20
1081.282767268
 30
0.0
 11
155.00734223
 21
1065.537945446
 31
0.0
  0
LINE
  8
0
  6
CONTINUOUS
 62
     6
 10
141.449301217
 20
1081.282767268
 30
0.0
 11
121.76827394
 21
1081.282767268
 31
0.0
  0
LINE
  8
0
  6
CONTINUOUS
 62
     6
 10
148.884355966
 20
1050.667835948
 30
0.0
 11
121.76827394
 21
1050.667835948
 31
0.0
  0
LINE
  8
0
  6
CONTINUOUS
 62
     6
 10
141.449301217
 20
1020.052904629
 30
0.0
 11
121.76827394
 21
1020.052904629
 31
0.0
  0
CIRCLE
  8
0
  6
CONTINUOUS
 62
     6
 10
116.52
 20
1050.667835948
 30
0.0
 40
5.24827394
  0
LINE
  8
0
  6
CONTINUOUS
 62
     6
 10
110.490259572
 20
1044.638095521
 30
0.0
 11
122.7362321
 21
1056.884068048
 31
0.0
  0
CIRCLE
  8
0
  6
CONTINUOUS
 62
     6
 10
116.52
 20
1020.052904629
 30
0.0
 40
5.24827394
  0
LINE
  8
0
  6
CONTINUOUS
 62
     6
 10
110.490259572
 20
1014.023164201
 30
0.0
 11
122.7362321
 21
1026.269136729
 31
0.0
  0
LINE
  8
0
  6
LTYPE2
 62
     6
 10
272.996315633
 20
990.405921469
 30
0.0
 11
116.52
 21
990.405921469
 31
0.0
  0
TEXT
  8
0
  6
CONTINUOUS
 62
     2
 10
122.634472037
 20
960.154685773
 30
0.0
 40
18.72
  1
モーター結線図
 50
0.0
 41
0.925
 51
0.0
  7
KANJI36
  0
TEXT
  8
0
  6
CONTINUOUS
 62
     6
 10
201.804451533
 20
1040.761718886
 30
1.749424647
 40
17.494246468
  1
Ｂ
 50
0.0
 41
0.9
 51
0.0
  7
KANJI37
  0
CIRCLE
  8
0
  6
CONTINUOUS
 62
     6
 10
209.676862444
 20
1050.667835948
 30
0.0
 40
17.494246468
  0
LINE
  8
0
  6
LTYPE2
 62
     6
 10
272.996315633
 20
990.405921469
 30
0.0
 11
272.996315633
 21
1104.9
 31
0.0
  0
LINE
  8
0
  6
LTYPE2
 62
     6
 10
116.52
 20
1104.9
 30
0.0
 11
116.52
 21
1085.218972723
 31
0.0
  0
TEXT
  8
0
  6
CONTINUOUS
 62
     6
 10
95.478309109
 20
1088.717822017
 30
1.312068485
 40
13.120684851
  1
Ｕ
 50
0.0
 41
0.9
 51
0.0
  7
KANJI38
  0
TEXT
  8
0
  6
CONTINUOUS
 62
     6
 10
96.790377594
 20
1057.665534536
 30
1.312068485
 40
13.120684851
  1
Ｖ
 50
0.0
 41
0.9
 51
0.0
  7
KANJI38
  0
TEXT
  8
0
  6
CONTINUOUS
 62
     6
 10
98.102446079
 20
1026.613247054
 30
1.312068485
 40
13.120684851
  1
Ｗ
 50
0.0
 41
0.9
 51
0.0
  7
KANJI38
  0
LINE
  8
0
  6
LTYPE2
 62
     6
 10
116.52
 20
1076.471849489
 30
0.0
 11
116.52
 21
1054.604041404
 31
0.0
  0
LINE
  8
0
  6
LTYPE2
 62
     6
 10
116.52
 20
1045.85691817
 30
0.0
 11
116.52
 21
1025.301178569
 31
0.0
  0
LINE
  8
0
  6
LTYPE2
 62
     6
 10
116.52
 20
1014.804630688
 30
0.0
 11
116.52
 21
990.405921469
 31
0.0
  0
ARC
  8
0
  6
CONTINUOUS
 62
     1
 10
147.962218677
 20
480.143086418
 30
0.0
 40
1.0
 50
270.0
 51
0.0
  0
ARC
  8
0
  6
CONTINUOUS
 62
     1
 10
144.962218677
 20
479.143086418
 30
0.0
 40
1.0
 50
270.0
 51
0.0
  0
LINE
  8
0
  6
LTYPE3
 62
     2
 10
142.962218677
 20
474.443086418
 30
0.0
 11
142.962218677
 21
493.143086418
 31
0.0
  0
LINE
  8
0
  6
CONTINUOUS
 62
     1
 10
148.962218677
 20
480.143086418
 30
0.0
 11
148.962218677
 21
494.143086418
 31
0.0
  0
LINE
  8
0
  6
CONTINUOUS
 62
     1
 10
190.462218677
 20
746.143086418
 30
0.0
 11
190.462218677
 21
832.672490917
 31
0.0
  0
ARC
  8
0
  6
CONTINUOUS
 62
     1
 10
125.962218677
 20
810.143086418
 30
0.0
 40
3.0
 50
0.0
 51
90.0
  0
ARC
  8
0
  6
CONTINUOUS
 62
     1
 10
156.962218677
 20
807.143086418
 30
0.0
 40
6.0
 50
0.0
 51
90.0
  0
LINE
  8
0
  6
CONTINUOUS
 62
     1
 10
128.962218677
 20
751.143086418
 30
0.0
 11
128.962218677
 21
810.143086418
 31
0.0
  0
LINE
  8
0
  6
CONTINUOUS
 62
     1
 10
162.962218677
 20
746.143086418
 30
0.0
 11
162.962218677
 21
807.143086418
 31
0.0
  0
ARC
  8
0
  6
CONTINUOUS
 62
     1
 10
98.272801531
 20
774.30219741
 30
0.0
 40
100.0
 50
343.504241957
 51
22.795413147
  0
ARC
  8
0
  6
CONTINUOUS
 62
     1
 10
199.962218677
 20
738.143086418
 30
0.0
 40
8.0
 50
0.0
 51
90.0
  0
LINE
  8
0
  6
CONTINUOUS
 62
     1
 10
207.962218677
 20
502.143086418
 30
0.0
 11
207.962218677
 21
738.143086418
 31
0.0
  0
ARC
  8
0
  6
CONTINUOUS
 62
     1
 10
199.962218677
 20
502.143086418
 30
0.0
 40
8.0
 50
270.0
 51
0.0
  0
ARC
  8
0
  6
CONTINUOUS
 62
     1
 10
97.962218677
 20
773.143086418
 30
0.0
 40
110.0
 50
32.763757759
 51
72.658557197
  0
LINE
  8
0
  6
CONTINUOUS
 62
     1
 10
97.962218677
 20
878.143086418
 30
0.0
 11
130.749411298
 21
878.143086418
 31
0.0
  0
LINE
  8
0
  6
CONTINUOUS
 62
     2
 10
208.962218677
 20
746.143086418
 30
0.0
 11
332.962218677
 21
746.143086418
 31
0.0
  0
LINE
  8
0
  6
CONTINUOUS
 62
     2
 10
208.962218677
 20
494.143086418
 30
0.0
 11
332.962218677
 21
494.143086418
 31
0.0
  0
LINE
  8
0
  6
CONTINUOUS
 62
     2
 10
207.962218677
 20
493.143086418
 30
0.0
 11
207.962218677
 21
397.143086418
 31
0.0
  0
ARC
  8
0
  6
CONTINUOUS
 62
     1
 10
189.962218677
 20
512.143086418
 30
0.0
 40
15.0
 50
90.0
 51
180.0
  0
LINE
  8
0
  6
LTYPE2
 62
     2
 10
177.962218677
 20
512.143086418
 30
0.0
 11
205.762218677
 21
512.143086418
 31
0.0
  0
LINE
  8
0
  6
CONTINUOUS
 62
     1
 10
174.962218677
 20
512.143086418
 30
0.0
 11
174.962218677
 21
507.143086418
 31
0.0
  0
ARC
  8
0
  6
CONTINUOUS
 62
     1
 10
168.962218677
 20
507.143086418
 30
0.0
 40
6.0
 50
270.0
 51
0.0
  0
LINE
  8
0
  6
CONTINUOUS
 62
     1
 10
189.962218677
 20
527.143086418
 30
0.0
 11
194.962218677
 21
527.143086418
 31
0.0
  0
ARC
  8
0
  6
CONTINUOUS
 62
     1
 10
194.962218677
 20
533.143086418
 30
0.0
 40
6.0
 50
270.0
 51
0.0
  0
CIRCLE
  8
0
  6
CONTINUOUS
 62
     1
 10
189.962218677
 20
512.143086418
 30
0.0
 40
8.5
  0
LINE
  8
0
  6
CONTINUOUS
 62
     1
 10
198.462218677
 20
517.043086418
 30
0.0
 11
198.462218677
 21
507.243086418
 31
0.0
  0
LINE
  8
0
  6
CONTINUOUS
 62
     1
 10
198.462218677
 20
507.243086418
 30
0.0
 11
189.962218677
 21
502.343086418
 31
0.0
  0
LINE
  8
0
  6
CONTINUOUS
 62
     1
 10
181.462218677
 20
517.043086418
 30
0.0
 11
181.462218677
 21
507.243086418
 31
0.0
  0
LINE
  8
0
  6
CONTINUOUS
 62
     1
 10
181.462218677
 20
507.243086418
 30
0.0
 11
189.962218677
 21
502.343086418
 31
0.0
  0
LINE
  8
0
  6
CONTINUOUS
 62
     1
 10
198.462218677
 20
517.043086418
 30
0.0
 11
189.962218677
 21
521.943086418
 31
0.0
  0
LINE
  8
0
  6
CONTINUOUS
 62
     1
 10
181.462218677
 20
517.043086418
 30
0.0
 11
189.962218677
 21
521.943086418
 31
0.0
  0
LINE
  8
0
  6
LTYPE2
 62
     2
 10
189.962218677
 20
496.643086418
 30
0.0
 11
189.962218677
 21
525.143086418
 31
0.0
  0
ARC
  8
0
  6
CONTINUOUS
 62
     1
 10
189.962218677
 20
728.143086418
 30
0.0
 40
15.0
 50
180.0
 51
270.0
  0
LINE
  8
0
  6
LTYPE2
 62
     2
 10
177.962218677
 20
728.143086418
 30
0.0
 11
205.762218677
 21
728.143086418
 31
0.0
  0
LINE
  8
0
  6
CONTINUOUS
 62
     1
 10
174.962218677
 20
728.143086418
 30
0.0
 11
174.962218677
 21
733.143086418
 31
0.0
  0
ARC
  8
0
  6
CONTINUOUS
 62
     1
 10
168.962218677
 20
733.143086418
 30
0.0
 40
6.0
 50
0.0
 51
90.0
  0
LINE
  8
0
  6
CONTINUOUS
 62
     1
 10
189.962218677
 20
713.143086418
 30
0.0
 11
194.962218677
 21
713.143086418
 31
0.0
  0
ARC
  8
0
  6
CONTINUOUS
 62
     1
 10
194.962218677
 20
707.143086418
 30
0.0
 40
6.0
 50
0.0
 51
90.0
  0
CIRCLE
  8
0
  6
CONTINUOUS
 62
     1
 10
189.962218677
 20
728.143086418
 30
0.0
 40
8.5
  0
LINE
  8
0
  6
CONTINUOUS
 62
     1
 10
198.462218677
 20
723.243086418
 30
0.0
 11
198.462218677
 21
733.043086418
 31
0.0
  0
LINE
  8
0
  6
CONTINUOUS
 62
     1
 10
198.462218677
 20
733.043086418
 30
0.0
 11
189.962218677
 21
737.943086418
 31
0.0
  0
LINE
  8
0
  6
CONTINUOUS
 62
     1
 10
181.462218677
 20
723.243086418
 30
0.0
 11
181.462218677
 21
733.043086418
 31
0.0
  0
LINE
  8
0
  6
CONTINUOUS
 62
     1
 10
181.462218677
 20
733.043086418
 30
0.0
 11
189.962218677
 21
737.943086418
 31
0.0
  0
LINE
  8
0
  6
CONTINUOUS
 62
     1
 10
198.462218677
 20
723.243086418
 30
0.0
 11
189.962218677
 21
718.343086418
 31
0.0
  0
LINE
  8
0
  6
CONTINUOUS
 62
     1
 10
181.462218677
 20
723.243086418
 30
0.0
 11
189.962218677
 21
718.343086418
 31
0.0
  0
LINE
  8
0
  6
LTYPE2
 62
     2
 10
189.962218677
 20
743.643086418
 30
0.0
 11
189.962218677
 21
715.143086418
 31
0.0
  0
LINE
  8
0
  6
CONTINUOUS
 62
     1
 10
200.962218677
 20
533.143086418
 30
0.0
 11
200.962218677
 21
707.143086418
 31
0.0
  0
LINE
  8
0
  6
CONTINUOUS
 62
     1
 10
212.762218677
 20
509.193086418
 30
0.0
 11
212.762218677
 21
536.893086418
 31
0.0
  0
LINE
  8
0
  6
CONTINUOUS
 62
     1
 10
207.962218677
 20
516.143086418
 30
0.0
 11
212.762218677
 21
516.143086418
 31
0.0
  0
LINE
  8
0
  6
CONTINUOUS
 62
     1
 10
207.962218677
 20
529.943086418
 30
0.0
 11
212.762218677
 21
529.943086418
 31
0.0
  0
LINE
  8
0
  6
CONTINUOUS
 62
     1
 10
207.962218677
 20
536.893086418
 30
0.0
 11
212.762218677
 21
536.893086418
 31
0.0
  0
LINE
  8
0
  6
CONTINUOUS
 62
     1
 10
207.962218677
 20
509.193086418
 30
0.0
 11
207.962218677
 21
536.893086418
 31
0.0
  0
LINE
  8
0
  6
CONTINUOUS
 62
     1
 10
207.962218677
 20
509.193086418
 30
0.0
 11
212.762218677
 21
509.193086418
 31
0.0
  0
LINE
  8
0
  6
CONTINUOUS
 62
     1
 10
217.962218677
 20
508.393086418
 30
0.0
 11
217.962218677
 21
537.693086418
 31
0.0
  0
LINE
  8
0
  6
CONTINUOUS
 62
     1
 10
217.962218677
 20
508.393086418
 30
0.0
 11
230.962218677
 21
508.393086418
 31
0.0
  0
ARC
  8
0
  6
CONTINUOUS
 62
     1
 10
230.962218677
 20
510.393086418
 30
0.0
 40
2.0
 50
270.0
 51
0.0
  0
LINE
  8
0
  6
CONTINUOUS
 62
     1
 10
217.962218677
 20
537.693086418
 30
0.0
 11
230.962218677
 21
537.693086418
 31
0.0
  0
LINE
  8
0
  6
CONTINUOUS
 62
     1
 10
232.962218677
 20
510.393086418
 30
0.0
 11
232.962218677
 21
535.693086418
 31
0.0
  0
ARC
  8
0
  6
CONTINUOUS
 62
     1
 10
230.962218677
 20
535.693086418
 30
0.0
 40
2.0
 50
0.0
 51
90.0
  0
LINE
  8
0
  6
CONTINUOUS
 62
     1
 10
228.962218677
 20
535.693086418
 30
0.0
 11
217.962218677
 21
535.693086418
 31
0.0
  0
LINE
  8
0
  6
CONTINUOUS
 62
     1
 10
228.962218677
 20
526.793086418
 30
0.0
 11
217.962218677
 21
526.793086418
 31
0.0
  0
LINE
  8
0
  6
CONTINUOUS
 62
     1
 10
228.962218677
 20
530.893086418
 30
0.0
 11
217.962218677
 21
530.893086418
 31
0.0
  0
LINE
  8
0
  6
CONTINUOUS
 62
     1
 10
228.962218677
 20
530.893086418
 30
0.0
 11
228.962218677
 21
535.693086418
 31
0.0
  0
LINE
  8
0
  6
CONTINUOUS
 62
     1
 10
228.962218677
 20
523.043086418
 30
0.0
 11
228.962218677
 21
526.793086418
 31
0.0
  0
LINE
  8
0
  6
CONTINUOUS
 62
     1
 10
228.962218677
 20
510.393086418
 30
0.0
 11
217.962218677
 21
510.393086418
 31
0.0
  0
LINE
  8
0
  6
CONTINUOUS
 62
     1
 10
228.962218677
 20
519.293086418
 30
0.0
 11
217.962218677
 21
519.293086418
 31
0.0
  0
LINE
  8
0
  6
CONTINUOUS
 62
     1
 10
228.962218677
 20
515.193086418
 30
0.0
 11
217.962218677
 21
515.193086418
 31
0.0
  0
LINE
  8
0
  6
CONTINUOUS
 62
     1
 10
228.962218677
 20
515.193086418
 30
0.0
 11
228.962218677
 21
510.393086418
 31
0.0
  0
LINE
  8
0
  6
CONTINUOUS
 62
     1
 10
228.962218677
 20
523.043086418
 30
0.0
 11
228.962218677
 21
519.293086418
 31
0.0
  0
LINE
  8
0
  6
CONTINUOUS
 62
     1
 10
212.662218677
 20
535.743086418
 30
0.0
 11
217.962218677
 21
535.743086418
 31
0.0
  0
LINE
  8
0
  6
CONTINUOUS
 62
     1
 10
212.662218677
 20
534.943086418
 30
0.0
 11
217.962218677
 21
534.943086418
 31
0.0
  0
LINE
  8
0
  6
CONTINUOUS
 62
     1
 10
212.662218677
 20
510.343086418
 30
0.0
 11
217.962218677
 21
510.343086418
 31
0.0
  0
LINE
  8
0
  6
CONTINUOUS
 62
     1
 10
212.662218677
 20
511.143086418
 30
0.0
 11
217.962218677
 21
511.143086418
 31
0.0
  0
LINE
  8
0
  6
CONTINUOUS
 62
     2
 10
226.962218677
 20
597.143086418
 30
0.0
 11
280.962218677
 21
597.143086418
 31
0.0
  0
LINE
  8
0
  6
LTYPE2
 62
     2
 10
207.962218677
 20
523.043086418
 30
0.0
 11
274.962218677
 21
523.043086418
 31
0.0
  0
LINE
  8
0
  6
CONTINUOUS
 62
     1
 10
232.962218677
 20
527.543086418
 30
0.0
 11
261.062218677
 21
527.543086418
 31
0.0
  0
LINE
  8
0
  6
CONTINUOUS
 62
     1
 10
232.962218677
 20
518.543086418
 30
0.0
 11
261.062218677
 21
518.543086418
 31
0.0
  0
LINE
  8
0
  6
CONTINUOUS
 62
     2
 10
97.962218677
 20
436.743086418
 30
0.0
 11
266.062218677
 21
436.743086418
 31
0.0
  0
TEXT
  8
0
  6
CONTINUOUS
 62
     2
 10
153.412218677
 20
442.743086418
 30
1.8
 40
18.0
  1
１７０
 50
0.0
 41
0.9
 51
0.0
  7
KANJI39
  0
LINE
  8
0
  6
CONTINUOUS
 62
     1
 10
95.0
 20
485.143086418
 30
0.0
 11
148.962218677
 21
485.143086418
 31
0.0
  0
LINE
  8
0
  6
CONTINUOUS
 62
     1
 10
95.0
 20
486.643086418
 30
0.0
 11
148.962218677
 21
486.643086418
 31
0.0
  0
LINE
  8
0
  6
CONTINUOUS
 62
     1
 10
95.0
 20
479.143086418
 30
0.0
 11
147.962218677
 21
479.143086418
 31
0.0
  0
LINE
  8
0
  6
LTYPE4
 62
     2
 10
95.0
 20
597.143086418
 30
0.0
 11
135.962218677
 21
597.143086418
 31
0.0
  0
LINE
  8
0
  6
LTYPE4
 62
     2
 10
140.962218677
 20
597.143086418
 30
0.0
 11
95.0
 21
597.143086418
 31
0.0
  0
LINE
  8
0
  6
LTYPE2
 62
     2
 10
217.462218677
 20
773.143086418
 30
0.0
 11
95.0
 21
773.143086418
 31
0.0
  0
LINE
  8
0
  6
LTYPE2
 62
     2
 10
95.0
 20
597.143086418
 30
0.0
 11
217.962218677
 21
597.143086418
 31
0.0
  0
LINE
  8
0
  6
CONTINUOUS
 62
     1
 10
156.962218677
 20
813.143086418
 30
0.0
 11
95.0
 21
813.143086418
 31
0.0
  0
LINE
  8
0
  6
CONTINUOUS
 62
     1
 10
95.0
 20
751.143086418
 30
0.0
 11
128.962218677
 21
751.143086418
 31
0.0
  0
LINE
  8
0
  6
CONTINUOUS
 62
     1
 10
95.0
 20
746.143086418
 30
0.0
 11
199.962218677
 21
746.143086418
 31
0.0
  0
LINE
  8
0
  6
CONTINUOUS
 62
     1
 10
95.0
 20
494.143086418
 30
0.0
 11
199.962218677
 21
494.143086418
 31
0.0
  0
LINE
  8
0
  6
CONTINUOUS
 62
     1
 10
95.0
 20
501.143086418
 30
0.0
 11
168.962218677
 21
501.143086418
 31
0.0
  0
LINE
  8
0
  6
CONTINUOUS
 62
     1
 10
95.0
 20
739.143086418
 30
0.0
 11
168.962218677
 21
739.143086418
 31
0.0
  0
ARC
  8
0
  6
CONTINUOUS
 62
     1
 10
97.962218677
 20
788.143086418
 30
0.0
 40
50.0
 50
30.0
 51
93.396441402
  0
TEXT
  8
0
  6
CONTINUOUS
 62
     2
 10
122.862218677
 20
412.143086418
 30
1.8
 40
18.0
  1
２２０
 50
0.0
 41
0.9
 51
0.0
  7
KANJI39
  0
LINE
  8
0
  6
CONTINUOUS
 62
     1
 10
95.0
 20
478.143086418
 30
0.0
 11
144.962218677
 21
478.143086418
 31
0.0
  0
LINE
  8
0
  6
LTYPE4
 62
     2
 10
110.270180864
 20
773.143086418
 30
0.0
 11
105.419151341
 21
773.143086418
 31
0.0
  0
LINE
  8
0
  6
CONTINUOUS
 62
     2
 10
207.962218677
 20
406.143086418
 30
0.0
 11
193.473331282
 21
410.025372095
 31
0.0
  0
LINE
  8
0
  6
CONTINUOUS
 62
     2
 10
207.962218677
 20
406.143086418
 30
0.0
 11
193.473331282
 21
402.260800742
 31
0.0
  0
LINE
  8
0
  6
CONTINUOUS
 62
     1
 10
112.962218677
 20
835.643086418
 30
0.0
 11
112.962218677
 21
878.143086418
 31
0.0
  0
LINE
  8
0
  6
CONTINUOUS
 62
     1
 10
97.962218677
 20
928.143086418
 30
0.0
 11
97.962218677
 21
928.143086418
 31
0.0
  0
ARC
  8
0
  6
CONTINUOUS
 62
     1
 10
97.962218677
 20
923.143086418
 30
0.0
 40
5.0
 50
0.0
 51
90.0
  0
LINE
  8
0
  6
CONTINUOUS
 62
     1
 10
102.962218677
 20
885.443086418
 30
0.0
 11
102.962218677
 21
923.143086418
 31
0.0
  0
LINE
  8
0
  6
CONTINUOUS
 62
     1
 10
110.462218677
 20
878.143086418
 30
0.0
 11
108.873983382
 21
887.143086418
 31
0.0
  0
LINE
  8
0
  6
CONTINUOUS
 62
     1
 10
108.873983382
 20
887.143086418
 30
0.0
 11
103.373983382
 21
888.643086418
 31
0.0
  0
LINE
  8
0
  6
CONTINUOUS
 62
     1
 10
102.962218677
 20
887.143086418
 30
0.0
 11
108.873983382
 21
887.143086418
 31
0.0
  0
LINE
  8
0
  6
CONTINUOUS
 62
     2
 10
97.962218677
 20
442.343086418
 30
0.0
 11
97.962218677
 21
427.743086418
 31
0.0
  0
LINE
  8
0
  6
CONTINUOUS
 62
     2
 10
97.962218677
 20
436.743086418
 30
0.0
 11
112.451106071
 21
432.860800742
 31
0.0
  0
LINE
  8
0
  6
CONTINUOUS
 62
     2
 10
97.962218677
 20
436.743086418
 30
0.0
 11
112.451106071
 21
440.625372095
 31
0.0
  0
LINE
  8
0
  6
LTYPE3
 62
     2
 10
97.962218677
 20
450.343086418
 30
0.0
 11
97.962218677
 21
932.243086418
 31
0.0
  0
LINE
  8
0
  6
CONTINUOUS
 62
     1
 10
97.962218677
 20
878.143086418
 30
0.0
 11
95.0
 21
878.143086418
 31
0.0
  0
ARC
  8
0
  6
CONTINUOUS
 62
     1
 10
97.962218677
 20
773.143086418
 30
0.0
 40
15.0
 50
0.0
 51
101.38970761
  0
ARC
  8
0
  6
CONTINUOUS
 62
     1
 10
97.962218677
 20
773.143086418
 30
0.0
 40
15.0
 50
258.61029239
 51
0.0
  0
LINE
  8
0
  6
CONTINUOUS
 62
     2
 10
95.0
 20
406.143086418
 30
0.0
 11
207.962218677
 21
406.143086418
 31
0.0
  0
LINE
  8
0
  6
CONTINUOUS
 62
     2
 10
323.962218677
 20
746.143086418
 30
0.0
 11
320.079933
 21
731.654199024
 31
0.0
  0
LINE
  8
0
  6
CONTINUOUS
 62
     2
 10
323.962218677
 20
746.143086418
 30
0.0
 11
327.844504353
 21
731.654199024
 31
0.0
  0
LINE
  8
0
  6
CONTINUOUS
 62
     2
 10
323.962218677
 20
746.143086418
 30
0.0
 11
323.962218677
 21
494.143086418
 31
0.0
  0
LINE
  8
0
  6
CONTINUOUS
 62
     2
 10
323.962218677
 20
494.143086418
 30
0.0
 11
327.844504353
 21
508.631973813
 31
0.0
  0
LINE
  8
0
  6
CONTINUOUS
 62
     2
 10
323.962218677
 20
494.143086418
 30
0.0
 11
320.079933
 21
508.631973813
 31
0.0
  0
TEXT
  8
0
  6
CONTINUOUS
 62
     2
 10
317.962218677
 20
594.043086418
 30
1.8
 40
18.0
  1
２５２
 50
90.0
 41
0.9
 51
0.0
  7
KANJI39
  0
LINE
  8
0
  6
CONTINUOUS
 62
     1
 10
674.362218677
 20
878.143086418
 30
0.0
 11
634.362218677
 21
878.143086418
 31
0.0
  0
ARC
  8
0
  6
CONTINUOUS
 62
     1
 10
656.362218677
 20
745.143086418
 30
0.0
 40
4.0
 50
270.0
 51
0.0
  0
LINE
  8
0
  6
CONTINUOUS
 62
     1
 10
634.362218677
 20
878.143086418
 30
0.0
 11
634.362218677
 21
841.143086418
 31
0.0
  0
ARC
  8
0
  6
CONTINUOUS
 62
     1
 10
631.362218677
 20
841.143086418
 30
0.0
 40
3.0
 50
270.0
 51
0.0
  0
ARC
  8
0
  6
CONTINUOUS
 62
     1
 10
657.362218677
 20
841.143086418
 30
0.0
 40
3.0
 50
270.0
 51
0.0
  0
LINE
  8
0
  6
CONTINUOUS
 62
     1
 10
660.362218677
 20
745.143086418
 30
0.0
 11
660.362218677
 21
878.143086418
 31
0.0
  0
CIRCLE
  8
0
  6
CONTINUOUS
 62
     1
 10
654.362218677
 20
903.143086418
 30
0.0
 40
15.0
  0
LINE
  8
0
  6
CONTINUOUS
 62
     1
 10
665.76348764
 20
886.144616837
 30
0.0
 11
654.362218677
 21
888.143086418
 31
0.0
  0
LINE
  8
0
  6
CONTINUOUS
 62
     1
 10
654.362218677
 20
886.143086418
 30
0.0
 11
665.763674444
 21
886.143086418
 31
0.0
  0
ARC
  8
0
  6
CONTINUOUS
 62
     1
 10
654.362218677
 20
903.143086418
 30
0.0
 40
25.0
 50
300.714883545
 51
0.0
  0
LINE
  8
0
  6
CONTINUOUS
 62
     1
 10
666.479313823
 20
880.280095907
 30
0.0
 11
665.763674444
 21
886.143086418
 31
0.0
  0
ARC
  8
0
  6
CONTINUOUS
 62
     1
 10
667.867841391
 20
880.459212078
 30
0.0
 40
1.4
 50
121.733468281
 51
187.57738995
  0
LINE
  8
0
  6
CONTINUOUS
 62
     1
 10
642.960949713
 20
886.144616837
 30
0.0
 11
654.362218677
 21
888.143086418
 31
0.0
  0
LINE
  8
0
  6
CONTINUOUS
 62
     1
 10
654.362218677
 20
886.143086418
 30
0.0
 11
642.960762909
 21
886.143086418
 31
0.0
  0
LINE
  8
0
  6
CONTINUOUS
 62
     1
 10
642.24512353
 20
880.280095907
 30
0.0
 11
642.960762909
 21
886.143086418
 31
0.0
  0
ARC
  8
0
  6
CONTINUOUS
 62
     1
 10
640.856595962
 20
880.459212078
 30
0.0
 40
1.4
 50
352.42261005
 51
58.266531719
  0
ARC
  8
0
  6
CONTINUOUS
 62
     1
 10
654.362218677
 20
903.143086418
 30
0.0
 40
25.0
 50
0.0
 51
239.342761175
  0
LINE
  8
0
  6
CONTINUOUS
 62
     1
 10
666.740158206
 20
878.143086418
 30
0.0
 11
666.479313823
 21
880.280095907
 31
0.0
  0
LINE
  8
0
  6
CONTINUOUS
 62
     1
 10
641.984279147
 20
878.143086418
 30
0.0
 11
642.24512353
 21
880.280095907
 31
0.0
  0
LINE
  8
0
  6
CONTINUOUS
 62
     1
 10
656.362218677
 20
741.143086418
 30
0.0
 11
579.362218677
 21
741.143086418
 31
0.0
  0
CIRCLE
  8
0
  6
CONTINUOUS
 62
     1
 10
759.362218677
 20
597.143086418
 30
0.0
 40
12.5
  0
CIRCLE
  8
0
  6
CONTINUOUS
 62
     1
 10
759.362218677
 20
597.143086418
 30
0.0
 40
23.0
  0
CIRCLE
  8
0
  6
CONTINUOUS
 62
     1
 10
759.362218677
 20
597.143086418
 30
0.0
 40
27.5
  0
LINE
  8
0
  6
CONTINUOUS
 62
     1
 10
689.362218677
 20
530.143086418
 30
0.0
 11
689.362218677
 21
664.143086418
 31
0.0
  0
LINE
  8
0
  6
CONTINUOUS
 62
     1
 10
674.362218677
 20
530.143086418
 30
0.0
 11
689.362218677
 21
530.143086418
 31
0.0
  0
LINE
  8
0
  6
CONTINUOUS
 62
     1
 10
674.362218677
 20
530.143086418
 30
0.0
 11
674.362218677
 21
664.143086418
 31
0.0
  0
LINE
  8
0
  6
CONTINUOUS
 62
     1
 10
674.362218677
 20
664.143086418
 30
0.0
 11
689.362218677
 21
664.143086418
 31
0.0
  0
LINE
  8
0
  6
CONTINUOUS
 62
     1
 10
689.362218677
 20
657.143086418
 30
0.0
 11
879.362218677
 21
657.143086418
 31
0.0
  0
LINE
  8
0
  6
CONTINUOUS
 62
     1
 10
871.362218677
 20
537.143086418
 30
0.0
 11
879.362218677
 21
537.143086418
 31
0.0
  0
LINE
  8
0
  6
CONTINUOUS
 62
     1
 10
689.362218677
 20
537.143086418
 30
0.0
 11
797.362218677
 21
537.143086418
 31
0.0
  0
LINE
  8
0
  6
CONTINUOUS
 62
     1
 10
797.362218677
 20
529.643086418
 30
0.0
 11
797.362218677
 21
571.643086418
 31
0.0
  0
LINE
  8
0
  6
CONTINUOUS
 62
     1
 10
871.362218677
 20
529.643086418
 30
0.0
 11
871.362218677
 21
571.643086418
 31
0.0
  0
LINE
  8
0
  6
CONTINUOUS
 62
     1
 10
888.362218677
 20
658.143086418
 30
0.0
 11
879.362218677
 21
658.143086418
 31
0.0
  0
LINE
  8
0
  6
CONTINUOUS
 62
     1
 10
888.362218677
 20
654.143086418
 30
0.0
 11
879.362218677
 21
654.143086418
 31
0.0
  0
LINE
  8
0
  6
CONTINUOUS
 62
     1
 10
888.362218677
 20
593.143086418
 30
0.0
 11
879.362218677
 21
593.143086418
 31
0.0
  0
LINE
  8
0
  6
CONTINUOUS
 62
     1
 10
888.362218677
 20
601.143086418
 30
0.0
 11
879.362218677
 21
601.143086418
 31
0.0
  0
LINE
  8
0
  6
CONTINUOUS
 62
     1
 10
879.362218677
 20
536.143086418
 30
0.0
 11
879.362218677
 21
658.143086418
 31
0.0
  0
LINE
  8
0
  6
CONTINUOUS
 62
     1
 10
888.362218677
 20
536.143086418
 30
0.0
 11
879.362218677
 21
536.143086418
 31
0.0
  0
LINE
  8
0
  6
CONTINUOUS
 62
     1
 10
888.362218677
 20
536.143086418
 30
0.0
 11
888.362218677
 21
658.143086418
 31
0.0
  0
LINE
  8
0
  6
CONTINUOUS
 62
     1
 10
888.362218677
 20
540.143086418
 30
0.0
 11
879.362218677
 21
540.143086418
 31
0.0
  0
LINE
  8
0
  6
LTYPE3
 62
     2
 10
621.437218677
 20
903.143086418
 30
0.0
 11
686.437218677
 21
903.143086418
 31
0.0
  0
LINE
  8
0
  6
LTYPE3
 62
     2
 10
654.362218677
 20
856.143086418
 30
0.0
 11
654.362218677
 21
935.843086418
 31
0.0
  0
LINE
  8
0
  6
LTYPE3
 62
     2
 10
759.362218677
 20
554.143086418
 30
0.0
 11
759.362218677
 21
644.143086418
 31
0.0
  0
LINE
  8
0
  6
LTYPE3
 62
     2
 10
834.362218677
 20
515.643086418
 30
0.0
 11
834.362218677
 21
542.143086418
 31
0.0
  0
LINE
  8
0
  6
CONTINUOUS
 62
     2
 10
759.362218677
 20
554.843086418
 30
0.0
 11
759.362218677
 21
350.393086418
 31
0.0
  0
LINE
  8
0
  6
CONTINUOUS
 62
     1
 10
1066.762218677
 20
552.593086418
 30
0.0
 11
888.362218677
 21
552.593086418
 31
0.0
  0
LINE
  8
0
  6
CONTINUOUS
 62
     1
 10
579.362218677
 20
494.143086418
 30
0.0
 11
504.362218677
 21
494.143086418
 31
0.0
  0
LINE
  8
0
  6
CONTINUOUS
 62
     1
 10
674.362218677
 20
503.143086418
 30
0.0
 11
579.362218677
 21
503.143086418
 31
0.0
  0
LINE
  8
0
  6
CONTINUOUS
 62
     1
 10
504.362218677
 20
494.143086418
 30
0.0
 11
504.362218677
 21
746.143086418
 31
0.0
  0
LINE
  8
0
  6
CONTINUOUS
 62
     1
 10
504.362218677
 20
672.143086418
 30
0.0
 11
504.362218677
 21
661.193546418
 31
0.0
  0
LINE
  8
0
  6
CONTINUOUS
 62
     1
 10
504.362218677
 20
672.143086418
 30
0.0
 11
504.362218677
 21
683.092626418
 31
0.0
  0
LINE
  8
0
  6
CONTINUOUS
 62
     2
 10
579.362218677
 20
485.143086418
 30
0.0
 11
579.362218677
 21
346.393086418
 31
0.0
  0
LINE
  8
0
  6
CONTINUOUS
 62
     2
 10
392.362218677
 20
505.393086418
 30
0.0
 11
392.362218677
 21
293.393086418
 31
0.0
  0
LINE
  8
0
  6
CONTINUOUS
 62
     1
 10
504.862218677
 20
501.193086418
 30
0.0
 11
399.580266712
 21
511.533278129
 31
0.0
  0
ARC
  8
0
  6
CONTINUOUS
 62
     1
 10
400.362218677
 20
519.494970859
 30
0.0
 40
8.0
 50
180.0
 51
264.390725554
  0
LINE
  8
0
  6
CONTINUOUS
 62
     1
 10
504.862218677
 20
739.093086418
 30
0.0
 11
399.580266712
 21
728.752894708
 31
0.0
  0
ARC
  8
0
  6
CONTINUOUS
 62
     1
 10
400.362218677
 20
720.791201978
 30
0.0
 40
8.0
 50
95.609274446
 51
180.0
  0
LINE
  8
0
  6
CONTINUOUS
 62
     1
 10
392.362218677
 20
519.494970859
 30
0.0
 11
392.362218677
 21
720.791201978
 31
0.0
  0
LINE
  8
0
  6
CONTINUOUS
 62
     1
 10
504.862218677
 20
714.093086418
 30
0.0
 11
399.580266712
 21
703.752894708
 31
0.0
  0
ARC
  8
0
  6
CONTINUOUS
 62
     1
 10
400.362218677
 20
695.791201978
 30
0.0
 40
8.0
 50
95.609274446
 51
180.0
  0
LINE
  8
0
  6
CONTINUOUS
 62
     1
 10
504.862218677
 20
526.193086418
 30
0.0
 11
399.580266712
 21
536.533278129
 31
0.0
  0
ARC
  8
0
  6
CONTINUOUS
 62
     1
 10
400.362218677
 20
544.494970859
 30
0.0
 40
8.0
 50
180.0
 51
264.390725554
  0
LINE
  8
0
  6
CONTINUOUS
 62
     1
 10
496.341118677
 20
503.875066418
 30
0.0
 11
497.88929497
 21
501.193546418
 31
0.0
  0
LINE
  8
0
  6
CONTINUOUS
 62
     1
 10
496.341118677
 20
512.143086418
 30
0.0
 11
496.341118677
 21
503.875066418
 31
0.0
  0
LINE
  8
0
  6
CONTINUOUS
 62
     1
 10
496.341118677
 20
520.411106418
 30
0.0
 11
497.88929497
 21
523.092626418
 31
0.0
  0
LINE
  8
0
  6
CONTINUOUS
 62
     1
 10
496.341118677
 20
512.143086418
 30
0.0
 11
496.341118677
 21
520.411106418
 31
0.0
  0
ARC
  8
0
  6
CONTINUOUS
 62
     1
 10
506.795340369
 20
512.143086418
 30
0.0
 40
10.454221693
 50
148.419912243
 51
211.580087757
  0
ARC
  8
0
  6
CONTINUOUS
 62
     1
 10
499.534232283
 20
503.930931418
 30
0.0
 40
3.193602261
 50
121.002313915
 51
182.989498403
  0
LINE
  8
0
  6
CONTINUOUS
 62
     1
 10
496.341118677
 20
520.411106418
 30
0.0
 11
497.88929497
 21
523.092626418
 31
0.0
  0
ARC
  8
0
  6
CONTINUOUS
 62
     1
 10
499.534232283
 20
520.355241418
 30
0.0
 40
3.193602261
 50
177.010501597
 51
238.997686085
  0
LINE
  8
0
  6
CONTINUOUS
 62
     1
 10
504.362218677
 20
501.193546418
 30
0.0
 11
497.88929497
 21
501.193546418
 31
0.0
  0
LINE
  8
0
  6
CONTINUOUS
 62
     1
 10
504.362218677
 20
506.668316418
 30
0.0
 11
497.88929497
 21
506.668316418
 31
0.0
  0
LINE
  8
0
  6
CONTINUOUS
 62
     1
 10
504.362218677
 20
517.617856418
 30
0.0
 11
497.88929497
 21
517.617856418
 31
0.0
  0
LINE
  8
0
  6
CONTINUOUS
 62
     1
 10
504.362218677
 20
523.092626418
 30
0.0
 11
497.88929497
 21
523.092626418
 31
0.0
  0
LINE
  8
0
  6
LTYPE3
 62
     2
 10
490.762218677
 20
512.143086418
 30
0.0
 11
539.462218677
 21
512.143086418
 31
0.0
  0
LINE
  8
0
  6
CONTINUOUS
 62
     1
 10
496.341118677
 20
736.411106418
 30
0.0
 11
497.88929497
 21
739.092626418
 31
0.0
  0
LINE
  8
0
  6
CONTINUOUS
 62
     1
 10
496.341118677
 20
728.143086418
 30
0.0
 11
496.341118677
 21
736.411106418
 31
0.0
  0
LINE
  8
0
  6
CONTINUOUS
 62
     1
 10
496.341118677
 20
719.875066418
 30
0.0
 11
497.88929497
 21
717.193546418
 31
0.0
  0
LINE
  8
0
  6
CONTINUOUS
 62
     1
 10
496.341118677
 20
728.143086418
 30
0.0
 11
496.341118677
 21
719.875066418
 31
0.0
  0
ARC
  8
0
  6
CONTINUOUS
 62
     1
 10
506.795340369
 20
728.143086418
 30
0.0
 40
10.454221693
 50
148.419912243
 51
211.580087757
  0
ARC
  8
0
  6
CONTINUOUS
 62
     1
 10
499.534232283
 20
736.355241418
 30
0.0
 40
3.193602261
 50
177.010501597
 51
238.997686085
  0
LINE
  8
0
  6
CONTINUOUS
 62
     1
 10
496.341118677
 20
719.875066418
 30
0.0
 11
497.88929497
 21
717.193546418
 31
0.0
  0
ARC
  8
0
  6
CONTINUOUS
 62
     1
 10
499.534232283
 20
719.930931418
 30
0.0
 40
3.193602261
 50
121.002313915
 51
182.989498403
  0
LINE
  8
0
  6
CONTINUOUS
 62
     1
 10
504.362218677
 20
739.092626418
 30
0.0
 11
497.88929497
 21
739.092626418
 31
0.0
  0
LINE
  8
0
  6
CONTINUOUS
 62
     1
 10
504.362218677
 20
733.617856418
 30
0.0
 11
497.88929497
 21
733.617856418
 31
0.0
  0
LINE
  8
0
  6
CONTINUOUS
 62
     1
 10
504.362218677
 20
722.668316418
 30
0.0
 11
497.88929497
 21
722.668316418
 31
0.0
  0
LINE
  8
0
  6
CONTINUOUS
 62
     1
 10
504.362218677
 20
717.193546418
 30
0.0
 11
497.88929497
 21
717.193546418
 31
0.0
  0
LINE
  8
0
  6
LTYPE3
 62
     2
 10
490.762218677
 20
728.143086418
 30
0.0
 11
539.462218677
 21
728.143086418
 31
0.0
  0
LINE
  8
0
  6
CONTINUOUS
 62
     1
 10
514.362218677
 20
494.143086418
 30
0.0
 11
514.362218677
 21
751.143086418
 31
0.0
  0
LINE
  8
0
  6
CONTINUOUS
 62
     1
 10
579.362218677
 20
838.143086418
 30
0.0
 11
657.362218677
 21
838.143086418
 31
0.0
  0
LINE
  8
0
  6
CONTINUOUS
 62
     1
 10
579.362218677
 20
746.143086418
 30
0.0
 11
504.362218677
 21
746.143086418
 31
0.0
  0
TEXT
  8
0
  6
CONTINUOUS
 62
     2
 10
915.262218677
 20
574.643086418
 30
1.8
 40
18.0
  1
φ８９
 50
90.0
 41
0.933333333
 51
0.0
  7
KANJI40
  0
LINE
  8
0
  6
CONTINUOUS
 62
     2
 10
478.262218677
 20
788.343086418
 30
0.0
 11
475.562337673
 21
803.098107346
 31
0.0
  0
LINE
  8
0
  6
CONTINUOUS
 62
     2
 10
478.262218677
 20
788.343086418
 30
0.0
 11
468.546542677
 21
799.771368873
 31
0.0
  0
LINE
  8
0
  6
CONTINUOUS
 62
     2
 10
478.262218677
 20
788.343086418
 30
0.0
 11
427.762218677
 21
894.843086418
 31
0.0
  0
LINE
  8
0
  6
CONTINUOUS
 62
     1
 10
871.362218677
 20
531.143086418
 30
0.0
 11
797.362218677
 21
531.143086418
 31
0.0
  0
LINE
  8
0
  6
CONTINUOUS
 62
     1
 10
788.362218677
 20
529.643086418
 30
0.0
 11
788.362218677
 21
528.643086418
 31
0.0
  0
ARC
  8
0
  6
CONTINUOUS
 62
     1
 10
875.362218677
 20
526.643086418
 30
0.0
 40
3.0
 50
0.0
 51
90.0
  0
LINE
  8
0
  6
CONTINUOUS
 62
     1
 10
749.362218677
 20
486.643086418
 30
0.0
 11
878.362218677
 21
486.643086418
 31
0.0
  0
LINE
  8
0
  6
CONTINUOUS
 62
     1
 10
788.362218677
 20
528.643086418
 30
0.0
 11
752.362218677
 21
528.643086418
 31
0.0
  0
ARC
  8
0
  6
CONTINUOUS
 62
     1
 10
752.362218677
 20
525.643086418
 30
0.0
 40
3.0
 50
90.0
 51
180.0
  0
LINE
  8
0
  6
CONTINUOUS
 62
     1
 10
749.362218677
 20
485.143086418
 30
0.0
 11
878.362218677
 21
485.143086418
 31
0.0
  0
LINE
  8
0
  6
CONTINUOUS
 62
     1
 10
749.362218677
 20
480.143086418
 30
0.0
 11
749.362218677
 21
525.643086418
 31
0.0
  0
ARC
  8
0
  6
CONTINUOUS
 62
     1
 10
750.362218677
 20
480.143086418
 30
0.0
 40
1.0
 50
180.0
 51
270.0
  0
LINE
  8
0
  6
CONTINUOUS
 62
     1
 10
752.362218677
 20
479.143086418
 30
0.0
 11
752.362218677
 21
479.143086418
 31
0.0
  0
ARC
  8
0
  6
CONTINUOUS
 62
     1
 10
753.362218677
 20
479.143086418
 30
0.0
 40
1.0
 50
180.0
 51
270.0
  0
LINE
  8
0
  6
CONTINUOUS
 62
     1
 10
878.362218677
 20
480.143086418
 30
0.0
 11
878.362218677
 21
526.643086418
 31
0.0
  0
LINE
  8
0
  6
CONTINUOUS
 62
     1
 10
750.362218677
 20
479.143086418
 30
0.0
 11
877.362218677
 21
479.143086418
 31
0.0
  0
ARC
  8
0
  6
CONTINUOUS
 62
     1
 10
877.362218677
 20
480.143086418
 30
0.0
 40
1.0
 50
270.0
 51
0.0
  0
ARC
  8
0
  6
CONTINUOUS
 62
     1
 10
874.362218677
 20
479.143086418
 30
0.0
 40
1.0
 50
270.0
 51
0.0
  0
LINE
  8
0
  6
CONTINUOUS
 62
     1
 10
753.362218677
 20
478.143086418
 30
0.0
 11
874.262218677
 21
478.143086418
 31
0.0
  0
LINE
  8
0
  6
LTYPE1
 62
     1
 10
749.362218677
 20
494.343086418
 30
0.0
 11
759.362218677
 21
494.343086418
 31
0.0
  0
LINE
  8
0
  6
LTYPE1
 62
     1
 10
749.362218677
 20
493.143086418
 30
0.0
 11
759.362218677
 21
493.143086418
 31
0.0
  0
LINE
  8
0
  6
LTYPE1
 62
     1
 10
749.362218677
 20
512.943086418
 30
0.0
 11
759.362218677
 21
512.943086418
 31
0.0
  0
LINE
  8
0
  6
LTYPE1
 62
     1
 10
749.362218677
 20
514.143086418
 30
0.0
 11
759.362218677
 21
514.143086418
 31
0.0
  0
LINE
  8
0
  6
CONTINUOUS
 62
     1
 10
875.362218677
 20
529.643086418
 30
0.0
 11
788.362218677
 21
529.643086418
 31
0.0
  0
CIRCLE
  8
0
  6
LTYPE2
 62
     2
 10
544.362218677
 20
569.143086418
 30
0.0
 40
16.6
  0
LINE
  8
0
  6
LTYPE2
 62
     2
 10
570.362218677
 20
569.143086418
 30
0.0
 11
520.862218677
 21
569.143086418
 31
0.0
  0
LINE
  8
0
  6
LTYPE2
 62
     2
 10
544.362218677
 20
541.643086418
 30
0.0
 11
544.362218677
 21
594.143086418
 31
0.0
  0
CIRCLE
  8
0
  6
CONTINUOUS
 62
     1
 10
544.362218677
 20
569.143086418
 30
0.0
 40
15.15
  0
LINE
  8
0
  6
CONTINUOUS
 62
     2
 10
533.262218677
 20
565.343086418
 30
0.0
 11
519.339634217
 21
559.760825051
 31
0.0
  0
LINE
  8
0
  6
CONTINUOUS
 62
     2
 10
533.262218677
 20
565.343086418
 30
0.0
 11
523.996037532
 21
553.547414034
 31
0.0
  0
LINE
  8
0
  6
CONTINUOUS
 62
     2
 10
533.262218677
 20
565.343086418
 30
0.0
 11
363.262218677
 21
437.943086418
 31
0.0
  0
LINE
  8
0
  6
CONTINUOUS
 62
     2
 10
363.262218677
 20
437.943086418
 30
0.0
 11
296.062218677
 21
437.943086418
 31
0.0
  0
CIRCLE
  8
0
  6
CONTINUOUS
 62
     1
 10
543.662218677
 20
523.043086418
 30
0.0
 40
14.65
  0
LINE
  8
0
  6
CONTINUOUS
 62
     1
 10
744.562218677
 20
517.493086418
 30
0.0
 11
744.562218677
 21
489.793086418
 31
0.0
  0
LINE
  8
0
  6
CONTINUOUS
 62
     1
 10
749.362218677
 20
510.543086418
 30
0.0
 11
744.562218677
 21
510.543086418
 31
0.0
  0
LINE
  8
0
  6
CONTINUOUS
 62
     1
 10
749.362218677
 20
496.743086418
 30
0.0
 11
744.562218677
 21
496.743086418
 31
0.0
  0
LINE
  8
0
  6
CONTINUOUS
 62
     1
 10
749.362218677
 20
489.793086418
 30
0.0
 11
744.562218677
 21
489.793086418
 31
0.0
  0
LINE
  8
0
  6
CONTINUOUS
 62
     1
 10
749.362218677
 20
517.493086418
 30
0.0
 11
749.362218677
 21
489.793086418
 31
0.0
  0
LINE
  8
0
  6
CONTINUOUS
 62
     1
 10
749.362218677
 20
517.493086418
 30
0.0
 11
744.562218677
 21
517.493086418
 31
0.0
  0
LINE
  8
0
  6
CONTINUOUS
 62
     1
 10
739.362218677
 20
518.293086418
 30
0.0
 11
739.362218677
 21
488.993086418
 31
0.0
  0
LINE
  8
0
  6
CONTINUOUS
 62
     1
 10
739.362218677
 20
518.293086418
 30
0.0
 11
726.362218677
 21
518.293086418
 31
0.0
  0
ARC
  8
0
  6
CONTINUOUS
 62
     1
 10
726.362218677
 20
516.293086418
 30
0.0
 40
2.0
 50
90.0
 51
180.0
  0
LINE
  8
0
  6
CONTINUOUS
 62
     1
 10
739.362218677
 20
488.993086418
 30
0.0
 11
726.362218677
 21
488.993086418
 31
0.0
  0
LINE
  8
0
  6
CONTINUOUS
 62
     1
 10
724.362218677
 20
516.293086418
 30
0.0
 11
724.362218677
 21
490.993086418
 31
0.0
  0
ARC
  8
0
  6
CONTINUOUS
 62
     1
 10
726.362218677
 20
490.993086418
 30
0.0
 40
2.0
 50
180.0
 51
270.0
  0
LINE
  8
0
  6
CONTINUOUS
 62
     1
 10
728.362218677
 20
490.993086418
 30
0.0
 11
739.362218677
 21
490.993086418
 31
0.0
  0
LINE
  8
0
  6
CONTINUOUS
 62
     1
 10
728.362218677
 20
499.893086418
 30
0.0
 11
739.362218677
 21
499.893086418
 31
0.0
  0
LINE
  8
0
  6
CONTINUOUS
 62
     1
 10
728.362218677
 20
495.793086418
 30
0.0
 11
739.362218677
 21
495.793086418
 31
0.0
  0
LINE
  8
0
  6
CONTINUOUS
 62
     1
 10
728.362218677
 20
495.793086418
 30
0.0
 11
728.362218677
 21
490.993086418
 31
0.0
  0
LINE
  8
0
  6
CONTINUOUS
 62
     1
 10
728.362218677
 20
503.643086418
 30
0.0
 11
728.362218677
 21
499.893086418
 31
0.0
  0
LINE
  8
0
  6
CONTINUOUS
 62
     1
 10
728.362218677
 20
516.293086418
 30
0.0
 11
739.362218677
 21
516.293086418
 31
0.0
  0
LINE
  8
0
  6
CONTINUOUS
 62
     1
 10
728.362218677
 20
507.393086418
 30
0.0
 11
739.362218677
 21
507.393086418
 31
0.0
  0
LINE
  8
0
  6
CONTINUOUS
 62
     1
 10
728.362218677
 20
511.493086418
 30
0.0
 11
739.362218677
 21
511.493086418
 31
0.0
  0
LINE
  8
0
  6
CONTINUOUS
 62
     1
 10
728.362218677
 20
511.493086418
 30
0.0
 11
728.362218677
 21
516.293086418
 31
0.0
  0
LINE
  8
0
  6
CONTINUOUS
 62
     1
 10
728.362218677
 20
503.643086418
 30
0.0
 11
728.362218677
 21
507.393086418
 31
0.0
  0
LINE
  8
0
  6
CONTINUOUS
 62
     1
 10
744.662218677
 20
490.943086418
 30
0.0
 11
739.362218677
 21
490.943086418
 31
0.0
  0
LINE
  8
0
  6
CONTINUOUS
 62
     1
 10
744.662218677
 20
491.743086418
 30
0.0
 11
739.362218677
 21
491.743086418
 31
0.0
  0
LINE
  8
0
  6
CONTINUOUS
 62
     1
 10
744.662218677
 20
516.343086418
 30
0.0
 11
739.362218677
 21
516.343086418
 31
0.0
  0
LINE
  8
0
  6
CONTINUOUS
 62
     1
 10
744.662218677
 20
515.543086418
 30
0.0
 11
739.362218677
 21
515.543086418
 31
0.0
  0
LINE
  8
0
  6
LTYPE2
 62
     2
 10
543.212218677
 20
504.643086418
 30
0.0
 11
543.212218677
 21
539.943086418
 31
0.0
  0
ARC
  8
0
  6
CONTINUOUS
 62
     1
 10
543.662218677
 20
523.043086418
 30
0.0
 40
5.0
 50
97.512144102
 51
264.345579179
  0
LINE
  8
0
  6
CONTINUOUS
 62
     1
 10
579.362218677
 20
527.843086418
 30
0.0
 11
579.362218677
 21
838.143086418
 31
0.0
  0
LINE
  8
0
  6
CONTINUOUS
 62
     1
 10
579.362218677
 20
494.143086418
 30
0.0
 11
579.362218677
 21
518.443086418
 31
0.0
  0
LINE
  8
0
  6
CONTINUOUS
 62
     1
 10
674.362218677
 20
527.843086418
 30
0.0
 11
674.362218677
 21
878.143086418
 31
0.0
  0
LINE
  8
0
  6
CONTINUOUS
 62
     1
 10
674.362218677
 20
503.143086418
 30
0.0
 11
674.362218677
 21
518.043086418
 31
0.0
  0
LINE
  8
0
  6
CONTINUOUS
 62
     1
 10
543.212218677
 20
518.043086418
 30
0.0
 11
680.841352425
 21
518.043086418
 31
0.0
  0
ARC
  8
0
  6
CONTINUOUS
 62
     1
 10
680.841352425
 20
513.043086418
 30
0.0
 40
5.0
 50
59.620873989
 51
90.0
  0
LINE
  8
0
  6
CONTINUOUS
 62
     1
 10
543.212218677
 20
528.043086418
 30
0.0
 11
680.841352425
 21
528.043086418
 31
0.0
  0
ARC
  8
0
  6
CONTINUOUS
 62
     1
 10
680.841352425
 20
513.043086418
 30
0.0
 40
15.0
 50
59.620873989
 51
90.0
  0
LINE
  8
0
  6
CONTINUOUS
 62
     1
 10
724.362218677
 20
499.143086418
 30
0.0
 11
718.512496693
 21
499.143086418
 31
0.0
  0
LINE
  8
0
  6
CONTINUOUS
 62
     1
 10
683.369949923
 20
517.356576269
 30
0.0
 11
710.926704197
 21
501.202616867
 31
0.0
  0
ARC
  8
0
  6
CONTINUOUS
 62
     1
 10
718.512496693
 20
514.143086418
 30
0.0
 40
15.0
 50
239.620873989
 51
270.0
  0
LINE
  8
0
  6
CONTINUOUS
 62
     1
 10
724.362218677
 20
508.143086418
 30
0.0
 11
720.218379046
 21
508.143086418
 31
0.0
  0
LINE
  8
0
  6
CONTINUOUS
 62
     1
 10
688.42714492
 20
525.98355597
 30
0.0
 11
717.689781547
 21
508.829596568
 31
0.0
  0
ARC
  8
0
  6
CONTINUOUS
 62
     1
 10
720.218379046
 20
513.143086418
 30
0.0
 40
5.0
 50
239.620873989
 51
270.0
  0
LINE
  8
0
  6
LTYPE2
 62
     2
 10
716.650453971
 20
503.643086418
 30
0.0
 11
762.862218677
 21
503.643086418
 31
0.0
  0
LINE
  8
0
  6
LTYPE2
 62
     2
 10
529.012218677
 20
523.043086418
 30
0.0
 11
683.556336324
 21
523.043086418
 31
0.0
  0
LINE
  8
0
  6
LTYPE2
 62
     2
 10
683.556336324
 20
523.043086418
 30
0.0
 11
716.650453971
 21
503.643086418
 31
0.0
  0
TEXT
  8
0
  6
CONTINUOUS
 62
     2
 10
323.962218677
 20
900.843086418
 30
1.8
 40
18.0
  1
手動軸カバー
 50
0.0
 41
0.9
 51
0.0
  7
KANJI39
  0
LINE
  8
0
  6
CONTINUOUS
 62
     2
 10
427.762218677
 20
894.843086418
 30
0.0
 11
321.462218677
 21
894.843086418
 31
0.0
  0
LINE
  8
0
  6
LTYPE3
 62
     2
 10
893.45968984
 20
597.143086418
 30
0.0
 11
382.862218677
 21
597.143086418
 31
0.0
  0
TEXT
  8
0
  6
CONTINUOUS
 62
     2
 10
402.162218677
 20
623.249147334
 30
2.7
 40
27.0
  1
ポジショナ
 50
0.0
 41
0.666666667
 51
0.0
  7
KANJI41
  0
LINE
  8
0
  6
CONTINUOUS
 62
     1
 10
674.362218677
 20
673.143086418
 30
0.0
 11
674.362218677
 21
873.143086418
 31
0.0
  0
LINE
  8
0
  6
CONTINUOUS
 62
     1
 10
674.362218677
 20
673.143086418
 30
0.0
 11
683.362218677
 21
673.143086418
 31
0.0
  0
ARC
  8
0
  6
CONTINUOUS
 62
     1
 10
683.362218677
 20
676.143086418
 30
0.0
 40
3.0
 50
270.0
 51
0.0
  0
LINE
  8
0
  6
CONTINUOUS
 62
     1
 10
674.362218677
 20
873.143086418
 30
0.0
 11
683.362218677
 21
873.143086418
 31
0.0
  0
ARC
  8
0
  6
CONTINUOUS
 62
     1
 10
683.362218677
 20
870.143086418
 30
0.0
 40
3.0
 50
0.0
 51
90.0
  0
LINE
  8
0
  6
CONTINUOUS
 62
     1
 10
686.362218677
 20
844.143086418
 30
0.0
 11
686.362218677
 21
870.143086418
 31
0.0
  0
LINE
  8
0
  6
CONTINUOUS
 62
     1
 10
686.362218677
 20
676.143086418
 30
0.0
 11
686.362218677
 21
844.143086418
 31
0.0
  0
ARC
  8
0
  6
CONTINUOUS
 62
     1
 10
688.362218677
 20
846.143086418
 30
0.0
 40
2.0
 50
180.0
 51
270.0
  0
LINE
  8
0
  6
CONTINUOUS
 62
     1
 10
721.362218677
 20
702.143086418
 30
0.0
 11
721.362218677
 21
844.043086418
 31
0.0
  0
ARC
  8
0
  6
CONTINUOUS
 62
     1
 10
688.362218677
 20
700.143086418
 30
0.0
 40
2.0
 50
90.0
 51
180.0
  0
LINE
  8
0
  6
CONTINUOUS
 62
     1
 10
824.912218677
 20
863.143086418
 30
0.0
 11
824.912218677
 21
897.143086418
 31
0.0
  0
LINE
  8
0
  6
CONTINUOUS
 62
     1
 10
824.912218677
 20
863.143086418
 30
0.0
 11
798.912218677
 21
863.143086418
 31
0.0
  0
LINE
  8
0
  6
CONTINUOUS
 62
     1
 10
824.912218677
 20
897.143086418
 30
0.0
 11
798.912218677
 21
897.143086418
 31
0.0
  0
LINE
  8
0
  6
LTYPE2
 62
     2
 10
831.841694522
 20
880.143086418
 30
0.0
 11
791.841694522
 21
880.143086418
 31
0.0
  0
LINE
  8
0
  6
CONTINUOUS
 62
     1
 10
728.912218677
 20
855.143086418
 30
0.0
 11
728.912218677
 21
858.143086418
 31
0.0
  0
ARC
  8
0
  6
CONTINUOUS
 62
     1
 10
732.912218677
 20
852.143086418
 30
0.0
 40
3.0
 50
0.0
 51
90.0
  0
LINE
  8
0
  6
CONTINUOUS
 62
     1
 10
788.912218677
 20
855.143086418
 30
0.0
 11
788.912218677
 21
858.143086418
 31
0.0
  0
ARC
  8
0
  6
CONTINUOUS
 62
     1
 10
784.912218677
 20
852.143086418
 30
0.0
 40
3.0
 50
90.0
 51
180.0
  0
LINE
  8
0
  6
CONTINUOUS
 62
     1
 10
788.912218677
 20
855.143086418
 30
0.0
 11
728.912218677
 21
855.143086418
 31
0.0
  0
LINE
  8
0
  6
CONTINUOUS
 62
     1
 10
713.824306589
 20
860.143086418
 30
0.0
 11
805.912218677
 21
904.163132307
 31
0.0
  0
LINE
  8
0
  6
CONTINUOUS
 62
     1
 10
711.912218677
 20
864.143086418
 30
0.0
 11
713.824306589
 21
860.143086418
 31
0.0
  0
LINE
  8
0
  6
CONTINUOUS
 62
     1
 10
711.912218677
 20
864.143086418
 30
0.0
 11
804.000130764
 21
908.163132307
 31
0.0
  0
LINE
  8
0
  6
CONTINUOUS
 62
     1
 10
804.000130764
 20
908.163132307
 30
0.0
 11
805.912218677
 21
904.163132307
 31
0.0
  0
LINE
  8
0
  6
CONTINUOUS
 62
     1
 10
718.912218677
 20
867.489240265
 30
0.0
 11
718.912218677
 21
907.143086418
 31
0.0
  0
ARC
  8
0
  6
CONTINUOUS
 62
     1
 10
721.912218677
 20
907.143086418
 30
0.0
 40
3.0
 50
90.0
 51
180.0
  0
LINE
  8
0
  6
CONTINUOUS
 62
     1
 10
718.912218677
 20
861.143086418
 30
0.0
 11
718.912218677
 21
862.575220219
 31
0.0
  0
ARC
  8
0
  6
CONTINUOUS
 62
     1
 10
721.912218677
 20
861.143086418
 30
0.0
 40
3.0
 50
180.0
 51
270.0
  0
LINE
  8
0
  6
CONTINUOUS
 62
     1
 10
798.912218677
 20
861.143086418
 30
0.0
 11
798.912218677
 21
900.81697846
 31
0.0
  0
LINE
  8
0
  6
CONTINUOUS
 62
     1
 10
795.912218677
 20
858.143086418
 30
0.0
 11
721.912218677
 21
858.143086418
 31
0.0
  0
ARC
  8
0
  6
CONTINUOUS
 62
     1
 10
795.912218677
 20
861.143086418
 30
0.0
 40
3.0
 50
270.0
 51
0.0
  0
LINE
  8
0
  6
CONTINUOUS
 62
     1
 10
798.912218677
 20
905.730998506
 30
0.0
 11
798.912218677
 21
907.143086418
 31
0.0
  0
LINE
  8
0
  6
CONTINUOUS
 62
     1
 10
795.912218677
 20
910.143086418
 30
0.0
 11
721.912218677
 21
910.143086418
 31
0.0
  0
ARC
  8
0
  6
CONTINUOUS
 62
     1
 10
795.912218677
 20
907.143086418
 30
0.0
 40
3.0
 50
0.0
 51
90.0
  0
ARC
  8
0
  6
CONTINUOUS
 62
     1
 10
738.912218677
 20
846.643086418
 30
0.0
 40
3.0
 50
180.0
 51
270.0
  0
ARC
  8
0
  6
CONTINUOUS
 62
     1
 10
778.912218677
 20
846.643086418
 30
0.0
 40
3.0
 50
270.0
 51
0.0
  0
LINE
  8
0
  6
CONTINUOUS
 62
     1
 10
781.912218677
 20
846.643091813
 30
0.0
 11
781.912218677
 21
852.143086418
 31
0.0
  0
LINE
  8
0
  6
CONTINUOUS
 62
     1
 10
735.912218677
 20
846.643091813
 30
0.0
 11
735.912218677
 21
852.143086418
 31
0.0
  0
LINE
  8
0
  6
LTYPE2
 62
     2
 10
758.862218677
 20
837.143086418
 30
0.0
 11
758.862218677
 21
912.143086418
 31
0.0
  0
LINE
  8
0
  6
CONTINUOUS
 62
     1
 10
688.362218677
 20
844.143086418
 30
0.0
 11
921.362218677
 21
844.143086418
 31
0.0
  0
LINE
  8
0
  6
CONTINUOUS
 62
     1
 10
688.362218677
 20
702.143086418
 30
0.0
 11
921.362218677
 21
702.143086418
 31
0.0
  0
LINE
  8
0
  6
CONTINUOUS
 62
     2
 10
671.362218677
 20
831.479395866
 30
0.0
 11
701.362218677
 21
831.479395866
 31
0.0
  0
LINE
  8
0
  6
CONTINUOUS
 62
     1
 10
693.362218677
 20
821.479395866
 30
0.0
 11
693.362218677
 21
841.479395866
 31
0.0
  0
LINE
  8
0
  6
CONTINUOUS
 62
     1
 10
686.362218677
 20
841.479395866
 30
0.0
 11
693.362218677
 21
841.479395866
 31
0.0
  0
LINE
  8
0
  6
CONTINUOUS
 62
     1
 10
686.362218677
 20
821.479395866
 30
0.0
 11
693.362218677
 21
821.479395866
 31
0.0
  0
LINE
  8
0
  6
CONTINUOUS
 62
     1
 10
686.362218677
 20
836.479395866
 30
0.0
 11
693.362218677
 21
836.479395866
 31
0.0
  0
LINE
  8
0
  6
CONTINUOUS
 62
     1
 10
686.362218677
 20
826.479395866
 30
0.0
 11
693.362218677
 21
826.479395866
 31
0.0
  0
LINE
  8
0
  6
CONTINUOUS
 62
     2
 10
671.362218677
 20
714.806776971
 30
0.0
 11
701.362218677
 21
714.806776971
 31
0.0
  0
LINE
  8
0
  6
CONTINUOUS
 62
     1
 10
693.362218677
 20
724.806776971
 30
0.0
 11
693.362218677
 21
704.806776971
 31
0.0
  0
LINE
  8
0
  6
CONTINUOUS
 62
     1
 10
686.362218677
 20
704.806776971
 30
0.0
 11
693.362218677
 21
704.806776971
 31
0.0
  0
LINE
  8
0
  6
CONTINUOUS
 62
     1
 10
686.362218677
 20
724.806776971
 30
0.0
 11
693.362218677
 21
724.806776971
 31
0.0
  0
LINE
  8
0
  6
CONTINUOUS
 62
     1
 10
686.362218677
 20
709.806776971
 30
0.0
 11
693.362218677
 21
709.806776971
 31
0.0
  0
LINE
  8
0
  6
CONTINUOUS
 62
     1
 10
686.362218677
 20
719.806776971
 30
0.0
 11
693.362218677
 21
719.806776971
 31
0.0
  0
LINE
  8
0
  6
CONTINUOUS
 62
     2
 10
824.912218677
 20
880.143086418
 30
0.0
 11
833.205593092
 21
889.495623016
 31
0.0
  0
LINE
  8
0
  6
CONTINUOUS
 62
     2
 10
824.912218677
 20
880.143086418
 30
0.0
 11
827.418223305
 21
892.389307909
 31
0.0
  0
LINE
  8
0
  6
CONTINUOUS
 62
     2
 10
824.912218677
 20
880.143086418
 30
0.0
 11
904.722218677
 21
1039.763086418
 31
0.0
  0
LINE
  8
0
  6
CONTINUOUS
 62
     2
 10
276.962218677
 20
494.143086418
 30
0.0
 11
280.844504353
 21
508.631973813
 31
0.0
  0
LINE
  8
0
  6
CONTINUOUS
 62
     2
 10
276.962218677
 20
494.143086418
 30
0.0
 11
273.079933
 21
508.631973813
 31
0.0
  0
LINE
  8
0
  6
CONTINUOUS
 62
     2
 10
276.962218677
 20
494.143086418
 30
0.0
 11
276.962218677
 21
597.143086418
 31
0.0
  0
LINE
  8
0
  6
CONTINUOUS
 62
     2
 10
276.962218677
 20
597.143086418
 30
0.0
 11
273.079933
 21
582.654199024
 31
0.0
  0
LINE
  8
0
  6
CONTINUOUS
 62
     2
 10
276.962218677
 20
597.143086418
 30
0.0
 11
280.844504353
 21
582.654199024
 31
0.0
  0
TEXT
  8
0
  6
CONTINUOUS
 62
     2
 10
269.962218677
 20
538.543086418
 30
1.8
 40
18.0
  1
１０３
 50
90.0
 41
0.9
 51
0.0
  7
KANJI39
  0
LINE
  8
0
  6
CONTINUOUS
 62
     2
 10
266.062218677
 20
436.743086418
 30
0.0
 11
251.573331282
 21
440.625372095
 31
0.0
  0
LINE
  8
0
  6
CONTINUOUS
 62
     2
 10
266.062218677
 20
436.743086418
 30
0.0
 11
251.573331282
 21
432.860800742
 31
0.0
  0
LINE
  8
0
  6
CONTINUOUS
 62
     2
 10
266.062218677
 20
514.043086418
 30
0.0
 11
266.062218677
 21
427.743086418
 31
0.0
  0
ARC
  8
0
  6
CONTINUOUS
 62
     1
 10
261.062218677
 20
523.043086418
 30
0.0
 40
5.0
 50
270.0
 51
90.0
  0
TEXT
  8
0
  6
CONTINUOUS
 62
     2
 10
748.902228132
 20
750.143086418
 30
0.0
 40
18.0
  1
日本電産
 50
0.0
 41
0.9
 51
0.0
  7
KANJI33
  0
TEXT
  8
0
  6
CONTINUOUS
 62
     2
 10
748.902228132
 20
727.143086418
 30
0.0
 40
18.0
  1
エコノストップモータ
 50
0.0
 41
0.9
 51
0.0
  7
KANJI33
  0
TEXT
  8
0
  6
CONTINUOUS
 62
     2
 10
628.862218677
 20
661.143086418
 30
5.0
 40
20.0
  1
銘板
 50
270.0
 41
0.925
 51
0.0
  7
KANJI42
  0
LINE
  8
0
  6
CONTINUOUS
 62
     1
 10
623.862218677
 20
672.143086418
 30
0.0
 11
623.862218677
 21
602.143086418
 31
0.0
  0
LINE
  8
0
  6
CONTINUOUS
 62
     1
 10
666.862218677
 20
672.143086418
 30
0.0
 11
623.862218677
 21
672.143086418
 31
0.0
  0
LINE
  8
0
  6
CONTINUOUS
 62
     1
 10
666.862218677
 20
602.143086418
 30
0.0
 11
623.862218677
 21
602.143086418
 31
0.0
  0
LINE
  8
0
  6
CONTINUOUS
 62
     1
 10
666.862218677
 20
672.143086418
 30
0.0
 11
666.862218677
 21
602.143086418
 31
0.0
  0
ARC
  8
0
  6
CONTINUOUS
 62
     2
 10
410.112218677
 20
773.643086418
 30
0.0
 40
24.0
 50
231.952957468
 51
156.801409486
  0
LINE
  8
0
  6
CONTINUOUS
 62
     2
 10
388.052737956
 20
783.097149584
 30
0.0
 11
390.806369209
 21
794.902076117
 31
0.0
  0
LINE
  8
0
  6
CONTINUOUS
 62
     2
 10
388.052737956
 20
783.097149584
 30
0.0
 11
397.97453161
 21
788.985953427
 31
0.0
  0
TEXT
  8
0
  6
CONTINUOUS
 62
     2
 10
367.652737956
 20
807.589023253
 30
0.0
 40
18.0
  1
前進方向
 50
0.0
 41
0.9
 51
0.0
  7
KANJI33
  0
LINE
  8
0
  6
CONTINUOUS
 62
     1
 10
763.95
 20
478.143086418
 30
0.0
 11
753.35
 21
478.143086418
 31
0.0
  0
ARC
  8
0
  6
CONTINUOUS
 62
     1
 10
759.05
 20
479.143086418
 30
0.0
 40
5.0
 50
272.3
 51
348.5
  0
ARC
  8
0
  6
CONTINUOUS
 62
     1
 10
758.25
 20
479.143086418
 30
0.0
 40
5.0
 50
191.5
 51
267.7
  0
LINE
  8
0
  6
CONTINUOUS
 62
     1
 10
759.25
 20
474.143086418
 30
0.0
 11
758.05
 21
474.143086418
 31
0.0
  0
LINE
  8
0
  6
LTYPE5
 62
     2
 10
758.65
 20
470.743086418
 30
0.0
 11
758.65
 21
484.143086418
 31
0.0
  0
LINE
  8
0
  6
CONTINUOUS
 62
     1
 10
874.3
 20
478.193086418
 30
0.0
 11
863.7
 21
478.193086418
 31
0.0
  0
ARC
  8
0
  6
CONTINUOUS
 62
     1
 10
869.4
 20
479.193086418
 30
0.0
 40
5.0
 50
272.3
 51
348.5
  0
ARC
  8
0
  6
CONTINUOUS
 62
     1
 10
868.6
 20
479.193086418
 30
0.0
 40
5.0
 50
191.5
 51
267.7
  0
LINE
  8
0
  6
CONTINUOUS
 62
     1
 10
869.6
 20
474.193086418
 30
0.0
 11
868.4
 21
474.193086418
 31
0.0
  0
LINE
  8
0
  6
LTYPE5
 62
     2
 10
869.0
 20
470.793086418
 30
0.0
 11
869.0
 21
484.193086418
 31
0.0
  0
LINE
  8
0
  6
CONTINUOUS
 62
     2
 10
759.362218677
 20
355.393086418
 30
0.0
 11
771.436291505
 21
352.157848355
 31
0.0
  0
LINE
  8
0
  6
CONTINUOUS
 62
     2
 10
759.362218677
 20
355.393086418
 30
0.0
 11
771.436291505
 21
358.628324482
 31
0.0
  0
LINE
  8
0
  6
CONTINUOUS
 62
     2
 10
759.362218677
 20
411.843086418
 30
0.0
 11
771.436291505
 21
408.607848355
 31
0.0
  0
LINE
  8
0
  6
CONTINUOUS
 62
     2
 10
759.362218677
 20
411.843086418
 30
0.0
 11
771.436291505
 21
415.078324482
 31
0.0
  0
LINE
  8
0
  6
CONTINUOUS
 62
     2
 10
920.262218677
 20
552.593086418
 30
0.0
 11
917.026980613
 21
564.667159247
 31
0.0
  0
LINE
  8
0
  6
CONTINUOUS
 62
     2
 10
920.262218677
 20
641.693086418
 30
0.0
 11
917.026980613
 21
629.61901359
 31
0.0
  0
LINE
  8
0
  6
CONTINUOUS
 62
     2
 10
759.362218677
 20
411.843086418
 30
0.0
 11
1066.762218677
 21
411.843086418
 31
0.0
  0
LINE
  8
0
  6
CONTINUOUS
 62
     2
 10
759.362218677
 20
355.393086418
 30
0.0
 11
744.873331282
 21
359.275372095
 31
0.0
  0
LINE
  8
0
  6
CONTINUOUS
 62
     2
 10
759.362218677
 20
355.393086418
 30
0.0
 11
744.873331282
 21
351.510800742
 31
0.0
  0
LINE
  8
0
  6
CONTINUOUS
 62
     2
 10
579.362218677
 20
355.393086418
 30
0.0
 11
593.851106071
 21
351.510800742
 31
0.0
  0
LINE
  8
0
  6
CONTINUOUS
 62
     2
 10
579.362218677
 20
355.393086418
 30
0.0
 11
593.851106071
 21
359.275372095
 31
0.0
  0
LINE
  8
0
  6
CONTINUOUS
 62
     2
 10
579.362218677
 20
355.393086418
 30
0.0
 11
564.873331282
 21
359.275372095
 31
0.0
  0
LINE
  8
0
  6
CONTINUOUS
 62
     2
 10
579.362218677
 20
355.393086418
 30
0.0
 11
564.873331282
 21
351.510800742
 31
0.0
  0
LINE
  8
0
  6
CONTINUOUS
 62
     2
 10
579.362218677
 20
355.393086418
 30
0.0
 11
392.362218677
 21
355.393086418
 31
0.0
  0
TEXT
  8
0
  6
CONTINUOUS
 62
     2
 10
459.762218677
 20
361.393086418
 30
1.8
 40
18.0
  1
１８７
 50
0.0
 41
0.9
 51
0.0
  7
KANJI39
  0
LINE
  8
0
  6
CONTINUOUS
 62
     2
 10
1181.962218677
 20
355.393086418
 30
0.0
 11
579.362218677
 21
355.393086418
 31
0.0
  0
TEXT
  8
0
  6
CONTINUOUS
 62
     2
 10
643.262218677
 20
361.393086418
 30
1.8
 40
18.0
  1
１８０
 50
0.0
 41
0.9
 51
0.0
  7
KANJI39
  0
LINE
  8
0
  6
CONTINUOUS
 62
     1
 10
916.362218677
 20
702.143086418
 30
0.0
 11
916.362218677
 21
844.143086418
 31
0.0
  0
TEXT
  8
0
  6
CONTINUOUS
 62
     2
 10
761.412218677
 20
308.830586418
 30
1.8
 40
18.0
  1
ｍｉｎ．ＡＬ
 50
0.0
 41
0.933333333
 51
0.0
  7
KANJI40
  0
LINE
  8
0
  6
CONTINUOUS
 62
     1
 10
1015.18722658
 20
641.693086418
 30
0.0
 11
888.362218677
 21
641.693086418
 31
0.0
  0
TEXT
  8
0
  6
CONTINUOUS
 62
     2
 10
767.462218677
 20
500.643086418
 30
1.44
 40
14.4
  1
推力リミッター
 50
0.0
 41
0.9
 51
0.0
  7
KANJI43
  0
LINE
  8
0
  6
CONTINUOUS
 62
     2
 10
767.462218677
 20
495.843086418
 30
0.0
 11
869.222218677
 21
495.843086418
 31
0.0
  0
TEXT
  8
0
  6
CONTINUOUS
 62
     2
 10
904.722218677
 20
1044.763086418
 30
0.0
 40
18.0
  1
ＰＦ３／４
 50
0.0
 41
0.9
 51
0.0
  7
KANJI44
  0
LINE
  8
0
  6
CONTINUOUS
 62
     2
 10
904.722218677
 20
1039.763086418
 30
0.0
 11
988.122218677
 21
1039.763086418
 31
0.0
  0
LINE
  8
0
  6
CONTINUOUS
 62
     2
 10
961.162218677
 20
790.643086418
 30
0.0
 11
1034.162218677
 21
936.643086418
 31
0.0
  0
LINE
  8
2
  6
CONTINUOUS
 62
     2
 10
1012.362218677
 20
844.143086418
 30
0.0
 11
1008.479933
 21
829.654199024
 31
0.0
  0
LINE
  8
2
  6
CONTINUOUS
 62
     2
 10
1012.362218677
 20
844.143086418
 30
0.0
 11
1016.244504353
 21
829.654199024
 31
0.0
  0
LINE
  8
2
  6
CONTINUOUS
 62
     2
 10
1012.362218677
 20
844.143086418
 30
0.0
 11
1012.362218677
 21
702.143086418
 31
0.0
  0
LINE
  8
2
  6
CONTINUOUS
 62
     2
 10
931.152218677
 20
844.143086418
 30
0.0
 11
1018.362218677
 21
844.143086418
 31
0.0
  0
LINE
  8
0
  6
CONTINUOUS
 62
     2
 10
920.262218677
 20
552.593086418
 30
0.0
 11
923.49745674
 21
564.667159247
 31
0.0
  0
LINE
  8
0
  6
CONTINUOUS
 62
     2
 10
920.262218677
 20
641.693086418
 30
0.0
 11
923.49745674
 21
629.61901359
 31
0.0
  0
CIRCLE
  8
0
  6
CONTINUOUS
 62
     1
 10
958.28722658
 20
597.143086418
 30
0.0
 40
19.5
  0
LINE
  8
0
  6
CONTINUOUS
 62
     1
 10
938.28722658
 20
617.143086418
 30
0.0
 11
978.28722658
 21
617.143086418
 31
0.0
  0
LINE
  8
0
  6
CONTINUOUS
 62
     1
 10
978.28722658
 20
577.143086418
 30
0.0
 11
978.28722658
 21
617.143086418
 31
0.0
  0
LINE
  8
0
  6
CONTINUOUS
 62
     1
 10
938.28722658
 20
577.143086418
 30
0.0
 11
978.28722658
 21
577.143086418
 31
0.0
  0
LINE
  8
0
  6
CONTINUOUS
 62
     1
 10
938.28722658
 20
577.143086418
 30
0.0
 11
938.28722658
 21
617.143086418
 31
0.0
  0
LINE
  8
0
  6
LTYPE3
 62
     2
 10
958.28722658
 20
572.043086418
 30
0.0
 11
958.28722658
 21
621.943086418
 31
0.0
  0
LINE
  8
0
  6
CONTINUOUS
 62
     2
 10
967.762218677
 20
610.143086418
 30
0.0
 11
976.903674182
 21
618.668565364
 31
0.0
  0
LINE
  8
0
  6
CONTINUOUS
 62
     2
 10
967.762218677
 20
610.143086418
 30
0.0
 11
971.416211899
 21
622.097095517
 31
0.0
  0
LINE
  8
0
  6
CONTINUOUS
 62
     1
 10
1131.962218677
 20
572.143086418
 30
0.0
 11
1131.962218677
 21
622.143086418
 31
0.0
  0
LINE
  8
0
  6
CONTINUOUS
 62
     1
 10
1131.962218677
 20
597.143086418
 30
0.0
 11
1131.962218677
 21
572.143086418
 31
0.0
  0
LINE
  8
0
  6
CONTINUOUS
 62
     1
 10
1131.962218677
 20
572.143086418
 30
0.0
 11
1198.962218677
 21
572.143086418
 31
0.0
  0
ARC
  8
0
  6
CONTINUOUS
 62
     1
 10
1198.962218677
 20
580.143086418
 30
0.0
 40
8.0
 50
270.0
 51
0.0
  0
LINE
  8
0
  6
CONTINUOUS
 62
     1
 10
1131.962218677
 20
622.143086418
 30
0.0
 11
1198.962218677
 21
622.143086418
 31
0.0
  0
LINE
  8
0
  6
CONTINUOUS
 62
     1
 10
1206.962218677
 20
580.143086418
 30
0.0
 11
1206.962218677
 21
614.143086418
 31
0.0
  0
ARC
  8
0
  6
CONTINUOUS
 62
     1
 10
1198.962218677
 20
614.143086418
 30
0.0
 40
8.0
 50
0.0
 51
90.0
  0
CIRCLE
  8
0
  6
CONTINUOUS
 62
     1
 10
1181.962218677
 20
597.143086418
 30
0.0
 40
12.5
  0
CIRCLE
  8
0
  6
CONTINUOUS
 62
     1
 10
1181.962218677
 20
597.143086418
 30
0.0
 40
22.0
  0
CIRCLE
  8
0
  6
CONTINUOUS
 62
     1
 10
1181.962218677
 20
612.643086418
 30
0.0
 40
3.0
  0
LINE
  8
0
  6
CONTINUOUS
 62
     1
 10
1177.762218677
 20
580.343086418
 30
0.0
 11
1179.762218677
 21
580.043086418
 31
0.0
  0
LINE
  8
0
  6
CONTINUOUS
 62
     1
 10
1180.262218677
 20
584.743086418
 30
0.0
 11
1180.026834061
 21
583.173855649
 31
0.0
  0
LINE
  8
0
  6
CONTINUOUS
 62
     1
 10
1180.026834061
 20
583.173855649
 30
0.0
 11
1177.762218677
 21
580.343086418
 31
0.0
  0
LINE
  8
0
  6
CONTINUOUS
 62
     1
 10
1181.962218677
 20
582.743086418
 30
0.0
 11
1179.762218677
 21
580.043086418
 31
0.0
  0
LINE
  8
0
  6
CONTINUOUS
 62
     1
 10
1186.162218677
 20
580.343086418
 30
0.0
 11
1184.162218677
 21
580.043086418
 31
0.0
  0
LINE
  8
0
  6
CONTINUOUS
 62
     1
 10
1183.662218677
 20
584.743086418
 30
0.0
 11
1183.897603292
 21
583.173855649
 31
0.0
  0
LINE
  8
0
  6
CONTINUOUS
 62
     1
 10
1183.897603292
 20
583.173855649
 30
0.0
 11
1186.162218677
 21
580.343086418
 31
0.0
  0
LINE
  8
0
  6
CONTINUOUS
 62
     1
 10
1181.962218677
 20
582.743086418
 30
0.0
 11
1184.162218677
 21
580.043086418
 31
0.0
  0
LINE
  8
0
  6
CONTINUOUS
 62
     1
 10
1066.762218677
 20
552.593086418
 30
0.0
 11
1066.762218677
 21
597.143086418
 31
0.0
  0
LINE
  8
0
  6
CONTINUOUS
 62
     1
 10
1036.762218677
 20
552.593086418
 30
0.0
 11
1036.762218677
 21
597.143086418
 31
0.0
  0
LINE
  8
0
  6
CONTINUOUS
 62
     1
 10
1131.962218677
 20
572.143086418
 30
0.0
 11
1066.762218677
 21
572.143086418
 31
0.0
  0
ARC
  8
0
  6
CONTINUOUS
 62
     1
 10
1095.531970344
 20
658.643086418
 30
0.0
 40
1.0
 50
90.0
 51
165.0
  0
LINE
  8
0
  6
CONTINUOUS
 62
     1
 10
1090.944004308
 20
645.384267373
 30
0.0
 11
1094.566044517
 21
658.901905464
 31
0.0
  0
ARC
  8
0
  6
CONTINUOUS
 62
     1
 10
1089.978078481
 20
645.643086418
 30
0.0
 40
1.0
 50
270.0
 51
345.0
  0
ARC
  8
0
  6
CONTINUOUS
 62
     1
 10
1106.639754069
 20
658.643086418
 30
0.0
 40
1.0
 50
15.0
 51
90.0
  0
ARC
  8
0
  6
CONTINUOUS
 62
     1
 10
1106.639754069
 20
658.643086418
 30
0.0
 40
1.0
 50
90.0
 51
165.0
  0
LINE
  8
0
  6
CONTINUOUS
 62
     1
 10
1102.051788032
 20
645.384267373
 30
0.0
 11
1105.673828242
 21
658.901905464
 31
0.0
  0
ARC
  8
0
  6
CONTINUOUS
 62
     1
 10
1101.085862206
 20
645.643086418
 30
0.0
 40
1.0
 50
270.0
 51
345.0
  0
ARC
  8
0
  6
CONTINUOUS
 62
     1
 10
1101.085862206
 20
645.643086418
 30
0.0
 40
1.0
 50
195.0
 51
270.0
  0
LINE
  8
0
  6
CONTINUOUS
 62
     1
 10
1100.11993638
 20
645.384267373
 30
0.0
 11
1096.49789617
 21
658.901905464
 31
0.0
  0
ARC
  8
0
  6
CONTINUOUS
 62
     1
 10
1095.531970344
 20
658.643086418
 30
0.0
 40
1.0
 50
15.0
 51
90.0
  0
ARC
  8
0
  6
CONTINUOUS
 62
     1
 10
1101.085862206
 20
548.643086418
 30
0.0
 40
1.0
 50
15.0
 51
90.0
  0
ARC
  8
0
  6
CONTINUOUS
 62
     1
 10
1101.085862206
 20
548.643086418
 30
0.0
 40
1.0
 50
90.0
 51
165.0
  0
LINE
  8
0
  6
CONTINUOUS
 62
     1
 10
1100.11993638
 20
548.901905464
 30
0.0
 11
1096.49789617
 21
535.384267373
 31
0.0
  0
ARC
  8
0
  6
CONTINUOUS
 62
     1
 10
1095.531970344
 20
535.643086418
 30
0.0
 40
1.0
 50
270.0
 51
345.0
  0
ARC
  8
0
  6
CONTINUOUS
 62
     1
 10
1095.531970344
 20
535.643086418
 30
0.0
 40
1.0
 50
195.0
 51
270.0
  0
LINE
  8
0
  6
CONTINUOUS
 62
     1
 10
1090.944004308
 20
548.901905464
 30
0.0
 11
1094.566044517
 21
535.384267373
 31
0.0
  0
ARC
  8
0
  6
CONTINUOUS
 62
     1
 10
1089.978078481
 20
548.643086418
 30
0.0
 40
1.0
 50
15.0
 51
90.0
  0
ARC
  8
0
  6
CONTINUOUS
 62
     1
 10
1106.639754069
 20
535.643086418
 30
0.0
 40
1.0
 50
270.0
 51
345.0
  0
ARC
  8
0
  6
CONTINUOUS
 62
     1
 10
1106.639754069
 20
535.643086418
 30
0.0
 40
1.0
 50
195.0
 51
270.0
  0
LINE
  8
0
  6
CONTINUOUS
 62
     1
 10
1102.051788032
 20
548.901905464
 30
0.0
 11
1105.673828242
 21
535.384267373
 31
0.0
  0
LINE
  8
0
  6
CONTINUOUS
 62
     1
 10
1089.978078481
 20
644.643086418
 30
0.0
 11
1089.978078481
 21
597.143086418
 31
0.0
  0
LINE
  8
0
  6
CONTINUOUS
 62
     1
 10
1095.531970344
 20
659.643086418
 30
0.0
 11
1095.531970344
 21
597.143086418
 31
0.0
  0
LINE
  8
0
  6
CONTINUOUS
 62
     1
 10
1101.085862206
 20
644.643086418
 30
0.0
 11
1101.085862206
 21
597.143086418
 31
0.0
  0
LINE
  8
0
  6
CONTINUOUS
 62
     1
 10
1106.639754069
 20
659.643086418
 30
0.0
 11
1106.639754069
 21
597.143086418
 31
0.0
  0
LINE
  8
0
  6
CONTINUOUS
 62
     1
 10
1126.962218677
 20
644.643086418
 30
0.0
 11
1116.962218677
 21
644.643086418
 31
0.0
  0
LINE
  8
0
  6
CONTINUOUS
 62
     1
 10
1131.962218677
 20
642.643086418
 30
0.0
 11
1127.017474913
 21
642.643086418
 31
0.0
  0
LINE
  8
0
  6
CONTINUOUS
 62
     1
 10
1131.962218677
 20
597.143086418
 30
0.0
 11
1131.962218677
 21
642.643086418
 31
0.0
  0
LINE
  8
0
  6
CONTINUOUS
 62
     1
 10
1126.962218677
 20
597.143086418
 30
0.0
 11
1126.962218677
 21
644.643086418
 31
0.0
  0
LINE
  8
0
  6
CONTINUOUS
 62
     1
 10
1116.962218677
 20
597.143086418
 30
0.0
 11
1116.962218677
 21
644.643086418
 31
0.0
  0
LINE
  8
0
  6
CONTINUOUS
 62
     1
 10
1111.962218677
 20
597.143086418
 30
0.0
 11
1111.962218677
 21
642.643086418
 31
0.0
  0
LINE
  8
0
  6
CONTINUOUS
 62
     1
 10
1111.962217328
 20
642.643086418
 30
0.0
 11
1107.605679895
 21
658.901905464
 31
0.0
  0
LINE
  8
0
  6
CONTINUOUS
 62
     1
 10
1117.017474913
 20
642.643086418
 30
0.0
 11
1111.962217328
 21
642.643086418
 31
0.0
  0
LINE
  8
0
  6
CONTINUOUS
 62
     1
 10
1126.962218677
 20
549.643086418
 30
0.0
 11
1116.962218677
 21
549.643086418
 31
0.0
  0
LINE
  8
0
  6
CONTINUOUS
 62
     1
 10
1111.962217328
 20
551.643086418
 30
0.0
 11
1107.605679895
 21
535.384267373
 31
0.0
  0
LINE
  8
0
  6
CONTINUOUS
 62
     1
 10
1131.962218677
 20
551.643086418
 30
0.0
 11
1111.962217328
 21
551.643086418
 31
0.0
  0
LINE
  8
0
  6
CONTINUOUS
 62
     1
 10
1035.18722658
 20
642.643086418
 30
0.0
 11
1039.543764013
 21
658.901905464
 31
0.0
  0
ARC
  8
0
  6
CONTINUOUS
 62
     1
 10
1040.50968984
 20
658.643086418
 30
0.0
 40
1.0
 50
90.0
 51
165.0
  0
ARC
  8
0
  6
CONTINUOUS
 62
     1
 10
1040.509690514
 20
658.643086418
 30
0.0
 40
1.0
 50
15.0
 51
90.0
  0
LINE
  8
0
  6
CONTINUOUS
 62
     1
 10
1045.09765655
 20
645.384267373
 30
0.0
 11
1041.47561634
 21
658.901905464
 31
0.0
  0
ARC
  8
0
  6
CONTINUOUS
 62
     1
 10
1046.063582376
 20
645.643086418
 30
0.0
 40
1.0
 50
195.0
 51
270.0
  0
ARC
  8
0
  6
CONTINUOUS
 62
     1
 10
1046.063583051
 20
645.643086418
 30
0.0
 40
1.0
 50
270.0
 51
345.0
  0
LINE
  8
0
  6
CONTINUOUS
 62
     1
 10
1047.029508877
 20
645.384267373
 30
0.0
 11
1050.651549087
 21
658.901905464
 31
0.0
  0
ARC
  8
0
  6
CONTINUOUS
 62
     1
 10
1051.617474913
 20
658.643086418
 30
0.0
 40
1.0
 50
90.0
 51
165.0
  0
ARC
  8
0
  6
CONTINUOUS
 62
     1
 10
1051.617474913
 20
658.643086418
 30
0.0
 40
1.0
 50
15.0
 51
90.0
  0
LINE
  8
0
  6
CONTINUOUS
 62
     1
 10
1056.205440949
 20
645.384267373
 30
0.0
 11
1052.583400739
 21
658.901905464
 31
0.0
  0
ARC
  8
0
  6
CONTINUOUS
 62
     1
 10
1057.171366776
 20
645.643086418
 30
0.0
 40
1.0
 50
195.0
 51
270.0
  0
LINE
  8
0
  6
CONTINUOUS
 62
     1
 10
1020.18722658
 20
644.643086418
 30
0.0
 11
1030.18722658
 21
644.643086418
 31
0.0
  0
LINE
  8
0
  6
CONTINUOUS
 62
     1
 10
1030.131970344
 20
642.643086418
 30
0.0
 11
1035.18722658
 21
642.643086418
 31
0.0
  0
LINE
  8
0
  6
CONTINUOUS
 62
     1
 10
1015.18722658
 20
642.643086418
 30
0.0
 11
1020.131970344
 21
642.643086418
 31
0.0
  0
LINE
  8
0
  6
CONTINUOUS
 62
     1
 10
1035.18722658
 20
551.643086418
 30
0.0
 11
1039.543764013
 21
535.384267373
 31
0.0
  0
ARC
  8
0
  6
CONTINUOUS
 62
     1
 10
1040.50968984
 20
535.643086418
 30
0.0
 40
1.0
 50
195.0
 51
270.0
  0
ARC
  8
0
  6
CONTINUOUS
 62
     1
 10
1040.509690514
 20
535.643086418
 30
0.0
 40
1.0
 50
270.0
 51
345.0
  0
LINE
  8
0
  6
CONTINUOUS
 62
     1
 10
1045.09765655
 20
548.901905464
 30
0.0
 11
1041.47561634
 21
535.384267373
 31
0.0
  0
ARC
  8
0
  6
CONTINUOUS
 62
     1
 10
1046.063582376
 20
548.643086418
 30
0.0
 40
1.0
 50
90.0
 51
165.0
  0
ARC
  8
0
  6
CONTINUOUS
 62
     1
 10
1046.063583051
 20
548.643086418
 30
0.0
 40
1.0
 50
15.0
 51
90.0
  0
LINE
  8
0
  6
CONTINUOUS
 62
     1
 10
1047.029508877
 20
548.901905464
 30
0.0
 11
1050.651549087
 21
535.384267373
 31
0.0
  0
ARC
  8
0
  6
CONTINUOUS
 62
     1
 10
1051.617474913
 20
535.643086418
 30
0.0
 40
1.0
 50
195.0
 51
270.0
  0
ARC
  8
0
  6
CONTINUOUS
 62
     1
 10
1051.617474913
 20
535.643086418
 30
0.0
 40
1.0
 50
270.0
 51
345.0
  0
LINE
  8
0
  6
CONTINUOUS
 62
     1
 10
1056.205440949
 20
548.901905464
 30
0.0
 11
1052.583400739
 21
535.384267373
 31
0.0
  0
ARC
  8
0
  6
CONTINUOUS
 62
     1
 10
1057.171366776
 20
548.643086418
 30
0.0
 40
1.0
 50
90.0
 51
165.0
  0
LINE
  8
0
  6
CONTINUOUS
 62
     1
 10
1020.18722658
 20
549.643086418
 30
0.0
 11
1030.18722658
 21
549.643086418
 31
0.0
  0
LINE
  8
0
  6
CONTINUOUS
 62
     1
 10
1030.131970344
 20
551.643086418
 30
0.0
 11
1035.18722658
 21
551.643086418
 31
0.0
  0
LINE
  8
0
  6
CONTINUOUS
 62
     1
 10
1015.18722658
 20
551.643086418
 30
0.0
 11
1030.18722658
 21
551.643086418
 31
0.0
  0
LINE
  8
0
  6
CONTINUOUS
 62
     1
 10
1015.18722658
 20
597.143086418
 30
0.0
 11
1015.18722658
 21
642.643086418
 31
0.0
  0
LINE
  8
0
  6
CONTINUOUS
 62
     1
 10
1020.18722658
 20
597.143086418
 30
0.0
 11
1020.18722658
 21
644.643086418
 31
0.0
  0
LINE
  8
0
  6
CONTINUOUS
 62
     1
 10
1030.18722658
 20
597.143086418
 30
0.0
 11
1030.18722658
 21
644.643086418
 31
0.0
  0
LINE
  8
0
  6
CONTINUOUS
 62
     1
 10
1035.18722658
 20
597.143086418
 30
0.0
 11
1035.18722658
 21
642.643086418
 31
0.0
  0
LINE
  8
0
  6
CONTINUOUS
 62
     1
 10
1040.50968984
 20
659.643086418
 30
0.0
 11
1040.50968984
 21
597.143086418
 31
0.0
  0
LINE
  8
0
  6
CONTINUOUS
 62
     1
 10
1046.063582376
 20
644.643086418
 30
0.0
 11
1046.063582376
 21
597.143086418
 31
0.0
  0
LINE
  8
0
  6
CONTINUOUS
 62
     1
 10
1051.617474913
 20
659.643086418
 30
0.0
 11
1051.617474913
 21
597.143086418
 31
0.0
  0
LINE
  8
0
  6
CONTINUOUS
 62
     1
 10
1057.171366776
 20
644.643086418
 30
0.0
 11
1057.171366776
 21
597.143086418
 31
0.0
  0
LINE
  8
0
  6
LTYPE4
 62
     2
 10
1181.962218677
 20
572.143086418
 30
0.0
 11
1181.962218677
 21
622.143086418
 31
0.0
  0
LINE
  8
0
  6
LTYPE1
 62
     2
 10
1146.962218677
 20
572.143086418
 30
0.0
 11
1146.962218677
 21
622.143086418
 31
0.0
  0
LINE
  8
0
  6
LTYPE6
 62
     2
 10
1057.171366776
 20
644.643086418
 30
0.0
 11
1089.978078481
 21
644.643086418
 31
0.0
  0
LINE
  8
0
  6
LTYPE6
 62
     2
 10
1057.171366776
 20
549.643086418
 30
0.0
 11
1089.978078481
 21
549.643086418
 31
0.0
  0
LINE
  8
0
  6
LTYPE6
 62
     2
 10
1051.617474913
 20
659.643086418
 30
0.0
 11
1095.531970344
 21
659.643086418
 31
0.0
  0
LINE
  8
0
  6
LTYPE6
 62
     2
 10
1051.617474913
 20
534.643086418
 30
0.0
 11
1095.531970344
 21
534.643086418
 31
0.0
  0
LINE
  8
0
  6
CONTINUOUS
 62
     2
 10
1181.962218677
 20
355.393086418
 30
0.0
 11
1169.888145848
 21
358.628324482
 31
0.0
  0
LINE
  8
0
  6
CONTINUOUS
 62
     2
 10
1181.962218677
 20
355.393086418
 30
0.0
 11
1169.888145848
 21
352.157848355
 31
0.0
  0
LINE
  8
0
  6
CONTINUOUS
 62
     2
 10
1181.962218677
 20
355.393086418
 30
0.0
 11
1181.962218677
 21
298.830586418
 31
0.0
  0
LINE
  8
0
  6
CONTINUOUS
 62
     2
 10
1187.462218677
 20
586.112324305
 30
0.0
 11
1189.187211997
 21
573.731920513
 31
0.0
  0
LINE
  8
0
  6
CONTINUOUS
 62
     2
 10
1187.462218677
 20
586.112324305
 30
0.0
 11
1195.146308609
 21
576.253076772
 31
0.0
  0
LINE
  8
0
  6
CONTINUOUS
 62
     2
 10
1187.462218677
 20
586.112324305
 30
0.0
 11
1242.462218677
 21
456.112324305
 31
0.0
  0
LINE
  8
0
  6
CONTINUOUS
 62
     2
 10
1066.762218677
 20
411.843086418
 30
0.0
 11
1054.688145848
 21
415.078324482
 31
0.0
  0
LINE
  8
0
  6
CONTINUOUS
 62
     2
 10
1066.762218677
 20
411.843086418
 30
0.0
 11
1054.688145848
 21
408.607848355
 31
0.0
  0
LINE
  8
0
  6
CONTINUOUS
 62
     2
 10
1066.762218677
 20
411.843086418
 30
0.0
 11
1078.836291505
 21
408.607848355
 31
0.0
  0
LINE
  8
0
  6
CONTINUOUS
 62
     2
 10
1066.762218677
 20
411.843086418
 30
0.0
 11
1078.836291505
 21
415.078324482
 31
0.0
  0
LINE
  8
0
  6
CONTINUOUS
 62
     2
 10
1066.762218677
 20
411.843086418
 30
0.0
 11
1131.962218677
 21
411.843086418
 31
0.0
  0
LINE
  8
0
  6
CONTINUOUS
 62
     2
 10
1131.962218677
 20
411.843086418
 30
0.0
 11
1119.888145848
 21
415.078324482
 31
0.0
  0
LINE
  8
0
  6
CONTINUOUS
 62
     2
 10
1131.962218677
 20
411.843086418
 30
0.0
 11
1119.888145848
 21
408.607848355
 31
0.0
  0
LINE
  8
0
  6
CONTINUOUS
 62
     2
 10
1131.962218677
 20
411.843086418
 30
0.0
 11
1144.036291505
 21
408.607848355
 31
0.0
  0
LINE
  8
0
  6
CONTINUOUS
 62
     2
 10
1131.962218677
 20
411.843086418
 30
0.0
 11
1144.036291505
 21
415.078324482
 31
0.0
  0
LINE
  8
0
  6
CONTINUOUS
 62
     2
 10
1131.962218677
 20
411.843086418
 30
0.0
 11
1181.962218677
 21
411.843086418
 31
0.0
  0
LINE
  8
0
  6
CONTINUOUS
 62
     2
 10
1181.962218677
 20
411.843086418
 30
0.0
 11
1169.888145848
 21
415.078324482
 31
0.0
  0
LINE
  8
0
  6
CONTINUOUS
 62
     2
 10
1181.962218677
 20
411.843086418
 30
0.0
 11
1169.888145848
 21
408.607848355
 31
0.0
  0
LINE
  8
0
  6
CONTINUOUS
 62
     2
 10
1181.962218677
 20
570.343086418
 30
0.0
 11
1181.962218677
 21
350.393086418
 31
0.0
  0
LINE
  8
0
  6
CONTINUOUS
 62
     2
 10
1009.162218677
 20
534.643086418
 30
0.0
 11
1009.162218677
 21
659.643086419
 31
0.0
  0
LINE
  8
0
  6
CONTINUOUS
 62
     2
 10
1009.162218677
 20
534.643086418
 30
0.0
 11
1012.39745674
 21
546.717159247
 31
0.0
  0
LINE
  8
0
  6
CONTINUOUS
 62
     2
 10
1009.162218677
 20
534.643086418
 30
0.0
 11
1005.926980613
 21
546.717159247
 31
0.0
  0
LINE
  8
0
  6
CONTINUOUS
 62
     2
 10
1009.162218677
 20
659.643086419
 30
0.0
 11
1005.926980613
 21
647.56901359
 31
0.0
  0
LINE
  8
0
  6
CONTINUOUS
 62
     2
 10
1009.162218677
 20
659.643086419
 30
0.0
 11
1012.39745674
 21
647.56901359
 31
0.0
  0
LINE
  8
0
  6
CONTINUOUS
 62
     2
 10
1040.509690177
 20
659.643086419
 30
0.0
 11
1002.162218677
 21
659.643086419
 31
0.0
  0
LINE
  8
0
  6
CONTINUOUS
 62
     2
 10
1040.50968984
 20
534.643086418
 30
0.0
 11
1001.162218677
 21
534.643086418
 31
0.0
  0
LINE
  8
0
  6
CONTINUOUS
 62
     2
 10
967.762218677
 20
610.143086418
 30
0.0
 11
1022.431640164
 21
697.643086418
 31
0.0
  0
LINE
  8
0
  6
CONTINUOUS
 62
     2
 10
1240.95968984
 20
572.143086418
 30
0.0
 11
1244.194927903
 21
584.217159247
 31
0.0
  0
LINE
  8
0
  6
CONTINUOUS
 62
     2
 10
1240.95968984
 20
572.143086418
 30
0.0
 11
1237.724451776
 21
584.217159247
 31
0.0
  0
LINE
  8
0
  6
CONTINUOUS
 62
     2
 10
1240.95968984
 20
572.143086418
 30
0.0
 11
1240.95968984
 21
622.143086418
 31
0.0
  0
LINE
  8
0
  6
CONTINUOUS
 62
     2
 10
1240.95968984
 20
622.143086418
 30
0.0
 11
1237.724451776
 21
610.06901359
 31
0.0
  0
LINE
  8
0
  6
CONTINUOUS
 62
     2
 10
1240.95968984
 20
622.143086418
 30
0.0
 11
1244.194927903
 21
610.06901359
 31
0.0
  0
TEXT
  8
0
  6
CONTINUOUS
 62
     2
 10
916.062218677
 20
416.343086418
 30
1.8
 40
18.0
  1
Ｃ
 50
0.0
 41
0.933333333
 51
0.0
  7
KANJI40
  0
TEXT
  8
0
  6
CONTINUOUS
 62
     2
 10
1142.212218677
 20
416.843086418
 30
1.8
 40
18.0
  1
５０
 50
0.0
 41
0.933333333
 51
0.0
  7
KANJI40
  0
TEXT
  8
0
  6
CONTINUOUS
 62
     2
 10
932.662218677
 20
360.393086418
 30
1.8
 40
18.0
  1
ｍｉｎ．Ｌ
 50
0.0
 41
0.933333333
 51
0.0
  7
KANJI40
  0
TEXT
  8
0
  6
CONTINUOUS
 62
     2
 10
1242.462218677
 20
461.112324305
 30
0.0
 40
18.0
  1
φ２５Ｈ１０
 50
0.0
 41
0.9
 51
0.0
  7
KANJI44
  0
TEXT
  8
0
  6
CONTINUOUS
 62
     2
 10
1004.162218677
 20
566.893086418
 30
1.8
 40
18.0
  1
φ１２５
 50
90.0
 41
0.933333333
 51
0.0
  7
KANJI40
  0
LINE
  8
0
  6
CONTINUOUS
 62
     2
 10
1242.462218677
 20
456.112324305
 30
0.0
 11
1342.762218677
 21
456.112324305
 31
0.0
  0
TEXT
  8
0
  6
CONTINUOUS
 62
     2
 10
1294.262218677
 20
435.943086418
 30
1.8
 40
18.0
  1
ｄ９
 50
0.0
 41
0.9
 51
0.0
  7
KANJI39
  0
TEXT
  8
0
  6
CONTINUOUS
 62
     2
 10
1024.362218677
 20
702.643086418
 30
0.0
 40
18.0
  1
給脂口
 50
0.0
 41
0.9
 51
0.0
  7
KANJI33
  0
LINE
  8
0
  6
CONTINUOUS
 62
     2
 10
1022.431640164
 20
697.643086418
 30
0.0
 11
1076.462218677
 21
697.643086418
 31
0.0
  0
LINE
  8
0
  6
LTYPE3
 62
     2
 10
1216.262218677
 20
597.143086418
 30
0.0
 11
1011.45968984
 21
597.143086418
 31
0.0
  0
LINE
  8
0
  6
LTYPE3
 62
     2
 10
983.45968984
 20
597.143086418
 30
0.0
 11
923.45968984
 21
597.143086418
 31
0.0
  0
TEXT
  8
0
  6
CONTINUOUS
 62
     2
 10
1049.862218677
 20
384.343086418
 30
1.8
 40
18.0
  1
ｍｉｎ．Ｐ
 50
0.0
 41
0.933333333
 51
0.0
  7
KANJI40
  0
TEXT
  8
0
  6
CONTINUOUS
 62
     2
 10
1235.95968984
 20
582.393086418
 30
1.8
 40
18.0
  1
５０
 50
90.0
 41
0.933333333
 51
0.0
  7
KANJI40
  0
LINE
  8
0
  6
CONTINUOUS
 62
     1
 10
926.172600491
 20
814.970669103
 30
0.0
 11
943.551836862
 21
813.315503734
 31
0.0
  0
ARC
  8
0
  6
CONTINUOUS
 62
     1
 10
926.362218677
 20
816.961660048
 30
0.0
 40
2.0
 50
180.0
 51
264.559667969
  0
LINE
  8
0
  6
CONTINUOUS
 62
     1
 10
926.172600491
 20
824.970669103
 30
0.0
 11
943.551836862
 21
823.315503734
 31
0.0
  0
ARC
  8
0
  6
CONTINUOUS
 62
     1
 10
926.362218677
 20
826.961660048
 30
0.0
 40
2.0
 50
180.0
 51
264.559667969
  0
LINE
  8
0
  6
CONTINUOUS
 62
     1
 10
926.172600491
 20
731.315503734
 30
0.0
 11
943.551836862
 21
732.970669103
 31
0.0
  0
ARC
  8
0
  6
CONTINUOUS
 62
     1
 10
926.362218677
 20
729.324512789
 30
0.0
 40
2.0
 50
95.440332031
 51
180.0
  0
ARC
  8
0
  6
CONTINUOUS
 62
     1
 10
947.362218677
 20
798.143086418
 30
0.0
 40
2.0
 50
180.0
 51
270.0
  0
LINE
  8
0
  6
CONTINUOUS
 62
     1
 10
956.362218677
 20
796.143086418
 30
0.0
 11
947.362218677
 21
796.143086418
 31
0.0
  0
ARC
  8
0
  6
CONTINUOUS
 62
     1
 10
956.362218677
 20
794.143086418
 30
0.0
 40
2.0
 50
0.0
 51
90.0
  0
LINE
  8
0
  6
CONTINUOUS
 62
     1
 10
958.362218677
 20
794.143086418
 30
0.0
 11
958.362218677
 21
752.143086418
 31
0.0
  0
ARC
  8
0
  6
CONTINUOUS
 62
     1
 10
956.362218677
 20
752.143086418
 30
0.0
 40
2.0
 50
270.0
 51
0.0
  0
ARC
  8
0
  6
CONTINUOUS
 62
     1
 10
947.362218677
 20
748.143086418
 30
0.0
 40
2.0
 50
90.0
 51
180.0
  0
LINE
  8
0
  6
CONTINUOUS
 62
     1
 10
956.362218677
 20
750.143086418
 30
0.0
 11
947.362218677
 21
750.143086418
 31
0.0
  0
LINE
  8
0
  6
CONTINUOUS
 62
     1
 10
961.362218677
 20
784.643086418
 30
0.0
 11
958.362218677
 21
784.643086418
 31
0.0
  0
LINE
  8
0
  6
CONTINUOUS
 62
     1
 10
961.362218677
 20
761.643086418
 30
0.0
 11
958.362218677
 21
761.643086418
 31
0.0
  0
LINE
  8
0
  6
CONTINUOUS
 62
     1
 10
961.362218677
 20
784.643086418
 30
0.0
 11
961.362218677
 21
761.643086418
 31
0.0
  0
ARC
  8
0
  6
CONTINUOUS
 62
     1
 10
943.362218677
 20
765.961660048
 30
0.0
 40
2.0
 50
275.440332031
 51
0.0
  0
LINE
  8
0
  6
CONTINUOUS
 62
     1
 10
943.551836862
 20
763.970669103
 30
0.0
 11
926.172600491
 21
762.315503734
 31
0.0
  0
ARC
  8
0
  6
CONTINUOUS
 62
     1
 10
926.362218677
 20
760.324512789
 30
0.0
 40
2.0
 50
95.440332031
 51
180.0
  0
ARC
  8
0
  6
CONTINUOUS
 62
     1
 10
943.362218677
 20
780.324512789
 30
0.0
 40
2.0
 50
0.0
 51
84.559667969
  0
LINE
  8
0
  6
CONTINUOUS
 62
     1
 10
943.551836862
 20
782.315503734
 30
0.0
 11
926.172600491
 21
783.970669103
 31
0.0
  0
ARC
  8
0
  6
CONTINUOUS
 62
     1
 10
926.362218677
 20
785.961660048
 30
0.0
 40
2.0
 50
180.0
 51
264.559667969
  0
LINE
  8
0
  6
LTYPE2
 62
     2
 10
937.862218677
 20
816.143086418
 30
0.0
 11
951.062218677
 21
816.143086418
 31
0.0
  0
LINE
  8
0
  6
CONTINUOUS
 62
     1
 10
926.172600491
 20
721.315503734
 30
0.0
 11
943.551836862
 21
722.970669103
 31
0.0
  0
LINE
  8
0
  6
LTYPE2
 62
     2
 10
937.862218677
 20
730.143086418
 30
0.0
 11
951.062218677
 21
730.143086418
 31
0.0
  0
ARC
  8
0
  6
CONTINUOUS
 62
     1
 10
926.362218677
 20
719.324512789
 30
0.0
 40
2.0
 50
95.440332031
 51
180.0
  0
LINE
  8
0
  6
CONTINUOUS
 62
     1
 10
945.362218677
 20
821.324512789
 30
0.0
 11
945.362218677
 21
725.531206418
 31
0.0
  0
ARC
  8
0
  6
CONTINUOUS
 62
     1
 10
943.362218677
 20
811.324512789
 30
0.0
 40
2.0
 50
0.0
 51
84.559667969
  0
ARC
  8
0
  6
CONTINUOUS
 62
     1
 10
943.362218677
 20
821.324512789
 30
0.0
 40
2.0
 50
0.0
 51
84.559667969
  0
LINE
  8
0
  6
CONTINUOUS
 62
     1
 10
948.862418677
 20
819.625526418
 30
0.0
 11
948.210336188
 21
820.754966418
 31
0.0
  0
LINE
  8
0
  6
CONTINUOUS
 62
     1
 10
948.862418677
 20
812.660646418
 30
0.0
 11
948.210336188
 21
811.531206418
 31
0.0
  0
ARC
  8
0
  6
CONTINUOUS
 62
     1
 10
944.459163751
 20
816.143086418
 30
0.0
 40
4.403254926
 50
328.419912243
 51
31.580087757
  0
ARC
  8
0
  6
CONTINUOUS
 62
     1
 10
947.517498545
 20
819.601996418
 30
0.0
 40
1.34512595
 50
301.002313915
 51
2.989498403
  0
LINE
  8
0
  6
CONTINUOUS
 62
     1
 10
948.862418677
 20
812.660646418
 30
0.0
 11
948.210336188
 21
811.531206418
 31
0.0
  0
ARC
  8
0
  6
CONTINUOUS
 62
     1
 10
947.517498545
 20
812.684176418
 30
0.0
 40
1.34512595
 50
357.010501597
 51
58.997686085
  0
LINE
  8
0
  6
CONTINUOUS
 62
     1
 10
945.362218677
 20
820.754966418
 30
0.0
 11
948.210336188
 21
820.754966418
 31
0.0
  0
LINE
  8
0
  6
CONTINUOUS
 62
     1
 10
945.362218677
 20
818.449026418
 30
0.0
 11
948.210336188
 21
818.449026418
 31
0.0
  0
LINE
  8
0
  6
CONTINUOUS
 62
     1
 10
945.362218677
 20
813.837146418
 30
0.0
 11
948.210336188
 21
813.837146418
 31
0.0
  0
LINE
  8
0
  6
CONTINUOUS
 62
     1
 10
945.362218677
 20
811.531206418
 30
0.0
 11
948.210336188
 21
811.531206418
 31
0.0
  0
LINE
  8
0
  6
CONTINUOUS
 62
     1
 10
948.862418677
 20
819.625526418
 30
0.0
 11
948.862418677
 21
812.660646418
 31
0.0
  0
LINE
  8
0
  6
CONTINUOUS
 62
     1
 10
966.362218677
 20
777.495988418
 30
0.0
 11
965.547143279
 21
778.907740418
 31
0.0
  0
LINE
  8
0
  6
CONTINUOUS
 62
     1
 10
966.362218677
 20
768.790184418
 30
0.0
 11
965.547143279
 21
767.378432418
 31
0.0
  0
ARC
  8
0
  6
CONTINUOUS
 62
     1
 10
960.858337153
 20
773.143086418
 30
0.0
 40
5.503881523
 50
328.419912243
 51
31.580087757
  0
ARC
  8
0
  6
CONTINUOUS
 62
     1
 10
964.68112567
 20
777.466576918
 30
0.0
 40
1.681350271
 50
301.002313915
 51
2.989498403
  0
LINE
  8
0
  6
CONTINUOUS
 62
     1
 10
966.362218677
 20
768.790184418
 30
0.0
 11
965.547143279
 21
767.378432418
 31
0.0
  0
ARC
  8
0
  6
CONTINUOUS
 62
     1
 10
964.68112567
 20
768.819595918
 30
0.0
 40
1.681350271
 50
357.010501597
 51
58.997686085
  0
LINE
  8
0
  6
CONTINUOUS
 62
     1
 10
962.362608677
 20
776.025413418
 30
0.0
 11
965.547143279
 21
776.025413418
 31
0.0
  0
LINE
  8
0
  6
CONTINUOUS
 62
     1
 10
962.362608677
 20
778.907740418
 30
0.0
 11
965.547143279
 21
778.907740418
 31
0.0
  0
LINE
  8
0
  6
CONTINUOUS
 62
     1
 10
962.362608677
 20
770.260759418
 30
0.0
 11
965.547143279
 21
770.260759418
 31
0.0
  0
LINE
  8
0
  6
CONTINUOUS
 62
     1
 10
962.362608677
 20
767.378432418
 30
0.0
 11
965.547143279
 21
767.378432418
 31
0.0
  0
LINE
  8
0
  6
CONTINUOUS
 62
     1
 10
966.362218677
 20
768.790184418
 30
0.0
 11
966.362218677
 21
777.495988418
 31
0.0
  0
LINE
  8
0
  6
CONTINUOUS
 62
     1
 10
962.362608677
 20
779.643086418
 30
0.0
 11
961.362218677
 21
779.643086418
 31
0.0
  0
LINE
  8
0
  6
CONTINUOUS
 62
     1
 10
962.362608677
 20
779.643086418
 30
0.0
 11
962.362608677
 21
766.643086418
 31
0.0
  0
LINE
  8
0
  6
CONTINUOUS
 62
     1
 10
962.362608677
 20
766.643086418
 30
0.0
 11
961.362218677
 21
766.643086418
 31
0.0
  0
ARC
  8
0
  6
CONTINUOUS
 62
     1
 10
943.362218677
 20
734.961660048
 30
0.0
 40
2.0
 50
275.440332031
 51
0.0
  0
LINE
  8
0
  6
CONTINUOUS
 62
     1
 10
948.862418677
 20
726.660646418
 30
0.0
 11
948.210336188
 21
725.531206418
 31
0.0
  0
LINE
  8
0
  6
CONTINUOUS
 62
     1
 10
948.862418677
 20
733.625526418
 30
0.0
 11
948.210336188
 21
734.754966418
 31
0.0
  0
ARC
  8
0
  6
CONTINUOUS
 62
     1
 10
944.459163751
 20
730.143086418
 30
0.0
 40
4.403254926
 50
328.419912243
 51
31.580087757
  0
ARC
  8
0
  6
CONTINUOUS
 62
     1
 10
947.517498545
 20
726.684176418
 30
0.0
 40
1.34512595
 50
357.010501597
 51
58.997686085
  0
LINE
  8
0
  6
CONTINUOUS
 62
     1
 10
948.862418677
 20
733.625526418
 30
0.0
 11
948.210336188
 21
734.754966418
 31
0.0
  0
ARC
  8
0
  6
CONTINUOUS
 62
     1
 10
947.517498545
 20
733.601996418
 30
0.0
 40
1.34512595
 50
301.002313915
 51
2.989498403
  0
LINE
  8
0
  6
CONTINUOUS
 62
     1
 10
945.362218677
 20
725.531206418
 30
0.0
 11
948.210336188
 21
725.531206418
 31
0.0
  0
LINE
  8
0
  6
CONTINUOUS
 62
     1
 10
945.362218677
 20
727.837146418
 30
0.0
 11
948.210336188
 21
727.837146418
 31
0.0
  0
LINE
  8
0
  6
CONTINUOUS
 62
     1
 10
945.362218677
 20
732.449026418
 30
0.0
 11
948.210336188
 21
732.449026418
 31
0.0
  0
LINE
  8
0
  6
CONTINUOUS
 62
     1
 10
945.362218677
 20
734.754966418
 30
0.0
 11
948.210336188
 21
734.754966418
 31
0.0
  0
LINE
  8
0
  6
CONTINUOUS
 62
     1
 10
948.862418677
 20
726.660646419
 30
0.0
 11
948.862418677
 21
733.625526418
 31
0.0
  0
ARC
  8
0
  6
CONTINUOUS
 62
     1
 10
943.362218677
 20
724.961660048
 30
0.0
 40
2.0
 50
275.440332031
 51
0.0
  0
LINE
  8
0
  6
LTYPE1
 62
     1
 10
953.462218677
 20
787.643086418
 30
0.0
 11
945.362218677
 21
778.443086418
 31
0.0
  0
ARC
  8
0
  6
LTYPE1
 62
     1
 10
956.862218677
 20
784.643086418
 30
0.0
 40
4.5
 50
290.9
 51
137.7
  0
LINE
  8
0
  6
LTYPE1
 62
     1
 10
951.362218677
 20
777.643086418
 30
0.0
 11
945.362218677
 21
778.443086418
 31
0.0
  0
LINE
  8
0
  6
LTYPE1
 62
     1
 10
958.462218677
 20
780.443086418
 30
0.0
 11
951.362218677
 21
777.643086418
 31
0.0
  0
LINE
  8
0
  6
LTYPE1
 62
     1
 10
951.362218677
 20
768.643086418
 30
0.0
 11
945.362218677
 21
767.843086418
 31
0.0
  0
ARC
  8
0
  6
LTYPE1
 62
     1
 10
956.862218677
 20
761.643086418
 30
0.0
 40
4.5
 50
222.3
 51
69.1
  0
LINE
  8
0
  6
LTYPE1
 62
     1
 10
953.462218677
 20
758.643086418
 30
0.0
 11
945.362218677
 21
767.843086418
 31
0.0
  0
LINE
  8
0
  6
LTYPE1
 62
     1
 10
958.462218677
 20
765.843086418
 30
0.0
 11
951.362218677
 21
768.643086418
 31
0.0
  0
LINE
  8
0
  6
LTYPE1
 62
     1
 10
951.362218677
 20
777.643086418
 30
0.0
 11
951.362218677
 21
768.643086418
 31
0.0
  0
ARC
  8
0
  6
CONTINUOUS
 62
     1
 10
921.362218677
 20
841.143086418
 30
0.0
 40
3.0
 50
0.0
 51
90.0
  0
LINE
  8
0
  6
CONTINUOUS
 62
     1
 10
924.362218677
 20
841.143086418
 30
0.0
 11
924.362218677
 21
705.143086418
 31
0.0
  0
ARC
  8
0
  6
CONTINUOUS
 62
     1
 10
921.362218677
 20
705.143086418
 30
0.0
 40
3.0
 50
270.0
 51
0.0
  0
LINE
  8
0
  6
CONTINUOUS
 62
     2
 10
961.162218677
 20
790.643086418
 30
0.0
 11
969.455593092
 21
799.995623016
 31
0.0
  0
LINE
  8
0
  6
CONTINUOUS
 62
     2
 10
961.162218677
 20
790.643086418
 30
0.0
 11
963.668223305
 21
802.889307909
 31
0.0
  0
TEXT
  8
0
  6
CONTINUOUS
 62
     2
 10
1035.662218677
 20
941.643086418
 30
0.0
 40
18.0
  1
手動開放装置
 50
0.0
 41
0.9
 51
0.0
  7
KANJI33
  0
LINE
  8
0
  6
CONTINUOUS
 62
     2
 10
1034.162218677
 20
936.643086418
 30
0.0
 11
1134.762218677
 21
936.643086418
 31
0.0
  0
LINE
  8
2
  6
CONTINUOUS
 62
     2
 10
1012.362218677
 20
702.143086418
 30
0.0
 11
1016.244504353
 21
716.631973813
 31
0.0
  0
LINE
  8
2
  6
CONTINUOUS
 62
     2
 10
1012.362218677
 20
702.143086418
 30
0.0
 11
1008.479933
 21
716.631973813
 31
0.0
  0
TEXT
  8
2
  6
CONTINUOUS
 62
     2
 10
1006.362218677
 20
734.443086418
 30
1.8
 40
21.0
  1
φ１４２
 50
90.0
 41
0.857142857
 51
0.0
  7
KANJI45
  0
LINE
  8
0
  6
CONTINUOUS
 62
     2
 10
1181.962218677
 20
303.830586418
 30
0.0
 11
1169.888145848
 21
307.065824482
 31
0.0
  0
LINE
  8
0
  6
CONTINUOUS
 62
     2
 10
1181.962218677
 20
303.830586418
 30
0.0
 11
1169.888145848
 21
300.595348355
 31
0.0
  0
LINE
  8
0
  6
CONTINUOUS
 62
     2
 10
392.362218677
 20
303.830586418
 30
0.0
 11
1181.962218677
 21
303.830586418
 31
0.0
  0
LINE
  8
0
  6
CONTINUOUS
 62
     2
 10
1208.41
 20
622.143086418
 30
0.0
 11
1245.95968984
 21
622.143086418
 31
0.0
  0
LINE
  8
0
  6
CONTINUOUS
 62
     2
 10
1206.962218677
 20
572.143086418
 30
0.0
 11
1245.95968984
 21
572.143086418
 31
0.0
  0
LINE
  8
0
  6
CONTINUOUS
 62
     2
 10
1131.962218677
 20
559.643086418
 30
0.0
 11
1131.962218677
 21
406.843086418
 31
0.0
  0
LINE
  8
0
  6
CONTINUOUS
 62
     2
 10
1066.762218677
 20
542.753086418
 30
0.0
 11
1066.762218677
 21
406.843086418
 31
0.0
  0
LINE
  8
2
  6
CONTINUOUS
 62
     2
 10
931.152218677
 20
702.143086418
 30
0.0
 11
1018.362218677
 21
702.143086418
 31
0.0
  0
TEXT
  8
0
  6
CONTINUOUS
 62
     2
 10
572.552591263
 20
249.071507451
 30
0.0
 40
20.0
  1
推力リミッタの作動値は、約２３００ｋｇ（設計値）
 50
0.0
 41
0.925
 51
0.0
  7
KANJI46
  0
LINE
  8
0
  6
CONTINUOUS
 62
     1
 10
1146.962218677
 20
789.643086418
 30
0.0
 11
1206.962218677
 21
789.643086418
 31
0.0
  0
LINE
  8
0
  6
CONTINUOUS
 62
     1
 10
1206.962218677
 20
774.643086418
 30
0.0
 11
1206.962218677
 21
789.643086418
 31
0.0
  0
LINE
  8
0
  6
CONTINUOUS
 62
     1
 10
1131.962218677
 20
774.643086418
 30
0.0
 11
1206.962218677
 21
774.643086418
 31
0.0
  0
LINE
  8
0
  6
CONTINUOUS
 62
     1
 10
1159.962218677
 20
770.143086418
 30
0.0
 11
1203.962218677
 21
770.143086418
 31
0.0
  0
LINE
  8
0
  6
CONTINUOUS
 62
     1
 10
1169.462218677
 20
764.143086418
 30
0.0
 11
1194.462218677
 21
764.143086418
 31
0.0
  0
LINE
  8
0
  6
CONTINUOUS
 62
     1
 10
1194.462218677
 20
764.143086418
 30
0.0
 11
1194.462218677
 21
770.143086418
 31
0.0
  0
LINE
  8
0
  6
CONTINUOUS
 62
     1
 10
1169.462218677
 20
764.143086418
 30
0.0
 11
1169.462218677
 21
770.143086418
 31
0.0
  0
LINE
  8
0
  6
CONTINUOUS
 62
     1
 10
1203.962218677
 20
770.143086418
 30
0.0
 11
1203.962218677
 21
774.643086418
 31
0.0
  0
LINE
  8
0
  6
CONTINUOUS
 62
     1
 10
1159.962218677
 20
770.143086418
 30
0.0
 11
1159.962218677
 21
774.643086418
 31
0.0
  0
CIRCLE
  8
0
  6
CONTINUOUS
 62
     1
 10
1181.962218677
 20
768.143086418
 30
0.0
 40
2.0
  0
LINE
  8
0
  6
CONTINUOUS
 62
     1
 10
1146.962218677
 20
814.643086418
 30
0.0
 11
1206.962218677
 21
814.643086418
 31
0.0
  0
LINE
  8
0
  6
CONTINUOUS
 62
     1
 10
1206.962218677
 20
829.643086418
 30
0.0
 11
1206.962218677
 21
814.643086418
 31
0.0
  0
LINE
  8
0
  6
CONTINUOUS
 62
     1
 10
1131.962218677
 20
829.643086418
 30
0.0
 11
1206.962218677
 21
829.643086418
 31
0.0
  0
LINE
  8
0
  6
CONTINUOUS
 62
     1
 10
1159.962218677
 20
834.143086418
 30
0.0
 11
1203.962218677
 21
834.143086418
 31
0.0
  0
LINE
  8
0
  6
CONTINUOUS
 62
     1
 10
1169.462218677
 20
840.143086418
 30
0.0
 11
1194.462218677
 21
840.143086418
 31
0.0
  0
LINE
  8
0
  6
CONTINUOUS
 62
     1
 10
1194.462218677
 20
840.143086418
 30
0.0
 11
1194.462218677
 21
834.143086418
 31
0.0
  0
LINE
  8
0
  6
CONTINUOUS
 62
     1
 10
1169.462218677
 20
840.143086418
 30
0.0
 11
1169.462218677
 21
834.143086418
 31
0.0
  0
LINE
  8
0
  6
CONTINUOUS
 62
     1
 10
1203.962218677
 20
834.143086418
 30
0.0
 11
1203.962218677
 21
829.643086418
 31
0.0
  0
LINE
  8
0
  6
CONTINUOUS
 62
     1
 10
1159.962218677
 20
834.143086418
 30
0.0
 11
1159.962218677
 21
829.643086418
 31
0.0
  0
CIRCLE
  8
0
  6
CONTINUOUS
 62
     1
 10
1181.962218677
 20
836.143086418
 30
0.0
 40
2.0
  0
LINE
  8
0
  6
CONTINUOUS
 62
     1
 10
1146.962218677
 20
789.643086418
 30
0.0
 11
1146.962218677
 21
814.643086418
 31
0.0
  0
LINE
  8
0
  6
CONTINUOUS
 62
     1
 10
1169.462218677
 20
789.643086418
 30
0.0
 11
1169.462218677
 21
814.643086418
 31
0.0
  0
LINE
  8
0
  6
CONTINUOUS
 62
     1
 10
1194.462218677
 20
789.643086418
 30
0.0
 11
1194.462218677
 21
814.643086418
 31
0.0
  0
LINE
  8
0
  6
CONTINUOUS
 62
     1
 10
1169.462218677
 20
814.643086418
 30
0.0
 11
1169.462218677
 21
789.643086418
 31
0.0
  0
LINE
  8
0
  6
CONTINUOUS
 62
     1
 10
1194.462218677
 20
814.643086418
 30
0.0
 11
1194.462218677
 21
789.643086418
 31
0.0
  0
LINE
  8
0
  6
LTYPE4
 62
     2
 10
1177.962218677
 20
768.243086418
 30
0.0
 11
1186.162218677
 21
768.243086418
 31
0.0
  0
LINE
  8
0
  6
LTYPE1
 62
     2
 10
1194.462218677
 20
770.143086418
 30
0.0
 11
1194.462218677
 21
789.643086418
 31
0.0
  0
LINE
  8
0
  6
LTYPE1
 62
     2
 10
1169.462218677
 20
770.143086418
 30
0.0
 11
1169.462218677
 21
789.643086418
 31
0.0
  0
LINE
  8
0
  6
LTYPE4
 62
     2
 10
1177.962218677
 20
836.043086418
 30
0.0
 11
1186.162218677
 21
836.043086418
 31
0.0
  0
LINE
  8
0
  6
LTYPE1
 62
     2
 10
1194.462218677
 20
834.143086418
 30
0.0
 11
1194.462218677
 21
814.643086418
 31
0.0
  0
LINE
  8
0
  6
LTYPE1
 62
     2
 10
1169.462218677
 20
834.143086418
 30
0.0
 11
1169.462218677
 21
814.643086418
 31
0.0
  0
LINE
  8
0
  6
LTYPE4
 62
     2
 10
1181.962218677
 20
759.143086418
 30
0.0
 11
1181.962218677
 21
840.143086418
 31
0.0
  0
LINE
  8
0
  6
LTYPE4
 62
     2
 10
1181.962218677
 20
845.143086418
 30
0.0
 11
1181.962218677
 21
764.143086418
 31
0.0
  0
LINE
  8
0
  6
CONTINUOUS
 62
     2
 10
1236.462218677
 20
814.643086418
 30
0.0
 11
1239.69745674
 21
826.717159247
 31
0.0
  0
LINE
  8
0
  6
CONTINUOUS
 62
     2
 10
1236.462218677
 20
814.643086418
 30
0.0
 11
1233.226980613
 21
826.717159247
 31
0.0
  0
LINE
  8
0
  6
CONTINUOUS
 62
     2
 10
1206.962218677
 20
814.643086418
 30
0.0
 11
1241.462218677
 21
814.643086418
 31
0.0
  0
LINE
  8
0
  6
CONTINUOUS
 62
     2
 10
1206.962218677
 20
774.643086418
 30
0.0
 11
1270.462218677
 21
774.643086418
 31
0.0
  0
LINE
  8
0
  6
CONTINUOUS
 62
     2
 10
1265.462218677
 20
774.643086418
 30
0.0
 11
1268.69745674
 21
786.717159247
 31
0.0
  0
LINE
  8
0
  6
CONTINUOUS
 62
     2
 10
1265.462218677
 20
774.643086418
 30
0.0
 11
1262.226980613
 21
786.717159247
 31
0.0
  0
LINE
  8
0
  6
CONTINUOUS
 62
     2
 10
1265.462218677
 20
774.643086418
 30
0.0
 11
1265.462218677
 21
829.643086418
 31
0.0
  0
LINE
  8
0
  6
CONTINUOUS
 62
     2
 10
1265.462218677
 20
829.643086418
 30
0.0
 11
1262.226980613
 21
817.56901359
 31
0.0
  0
LINE
  8
0
  6
CONTINUOUS
 62
     2
 10
1265.462218677
 20
829.643086418
 30
0.0
 11
1268.69745674
 21
817.56901359
 31
0.0
  0
LINE
  8
0
  6
CONTINUOUS
 62
     2
 10
1206.962218677
 20
829.643086418
 30
0.0
 11
1270.462218677
 21
829.643086418
 31
0.0
  0
LINE
  8
0
  6
CONTINUOUS
 62
     2
 10
1206.962218677
 20
789.643086418
 30
0.0
 11
1241.462218677
 21
789.643086418
 31
0.0
  0
LINE
  8
0
  6
CONTINUOUS
 62
     2
 10
1236.462218677
 20
789.643086418
 30
0.0
 11
1233.226980613
 21
777.56901359
 31
0.0
  0
LINE
  8
0
  6
CONTINUOUS
 62
     2
 10
1236.462218677
 20
789.643086418
 30
0.0
 11
1239.69745674
 21
777.56901359
 31
0.0
  0
TEXT
  8
0
  6
CONTINUOUS
 62
     2
 10
1260.462218677
 20
787.393086418
 30
0.0
 40
18.0
  1
５５
 50
90.0
 41
0.9
 51
0.0
  7
KANJI33
  0
ARC
  8
0
  6
CONTINUOUS
 62
     1
 10
1095.531970344
 20
863.393086418
 30
0.0
 40
1.0
 50
90.0
 51
165.0
  0
LINE
  8
0
  6
CONTINUOUS
 62
     1
 10
1090.944004308
 20
850.134267373
 30
0.0
 11
1094.566044517
 21
863.651905464
 31
0.0
  0
ARC
  8
0
  6
CONTINUOUS
 62
     1
 10
1106.639754069
 20
863.393086418
 30
0.0
 40
1.0
 50
15.0
 51
90.0
  0
ARC
  8
0
  6
CONTINUOUS
 62
     1
 10
1106.639754069
 20
863.393086418
 30
0.0
 40
1.0
 50
90.0
 51
165.0
  0
LINE
  8
0
  6
CONTINUOUS
 62
     1
 10
1102.051788032
 20
850.134267373
 30
0.0
 11
1105.673828242
 21
863.651905464
 31
0.0
  0
LINE
  8
0
  6
CONTINUOUS
 62
     1
 10
1100.11993638
 20
850.134267373
 30
0.0
 11
1096.49789617
 21
863.651905464
 31
0.0
  0
ARC
  8
0
  6
CONTINUOUS
 62
     1
 10
1095.531970344
 20
863.393086418
 30
0.0
 40
1.0
 50
15.0
 51
90.0
  0
LINE
  8
0
  6
CONTINUOUS
 62
     1
 10
1111.962217328
 20
847.393086418
 30
0.0
 11
1107.605679895
 21
863.651905464
 31
0.0
  0
LINE
  8
0
  6
LTYPE6
 62
     2
 10
1051.617474913
 20
864.393086418
 30
0.0
 11
1095.531970344
 21
864.393086418
 31
0.0
  0
ARC
  8
0
  6
CONTINUOUS
 62
     1
 10
1089.978078481
 20
850.393086418
 30
0.0
 40
1.0
 50
270.0
 51
345.0
  0
ARC
  8
0
  6
CONTINUOUS
 62
     1
 10
1101.085862206
 20
850.393086418
 30
0.0
 40
1.0
 50
270.0
 51
345.0
  0
ARC
  8
0
  6
CONTINUOUS
 62
     1
 10
1101.085862206
 20
850.393086418
 30
0.0
 40
1.0
 50
195.0
 51
270.0
  0
LINE
  8
0
  6
LTYPE6
 62
     2
 10
1057.171366776
 20
849.393086418
 30
0.0
 11
1089.978078481
 21
849.393086418
 31
0.0
  0
LINE
  8
0
  6
CONTINUOUS
 62
     1
 10
1126.962218677
 20
754.393086418
 30
0.0
 11
1116.962218677
 21
754.393086418
 31
0.0
  0
LINE
  8
0
  6
CONTINUOUS
 62
     1
 10
1126.962218677
 20
754.393086418
 30
0.0
 11
1126.962218677
 21
756.393086418
 31
0.0
  0
LINE
  8
0
  6
CONTINUOUS
 62
     1
 10
1116.962218677
 20
754.393086418
 30
0.0
 11
1116.962218677
 21
756.393086418
 31
0.0
  0
ARC
  8
0
  6
CONTINUOUS
 62
     1
 10
1095.531970344
 20
740.393086418
 30
0.0
 40
1.0
 50
195.0
 51
270.0
  0
LINE
  8
0
  6
CONTINUOUS
 62
     1
 10
1090.944004308
 20
753.651905464
 30
0.0
 11
1094.566044517
 21
740.134267373
 31
0.0
  0
ARC
  8
0
  6
CONTINUOUS
 62
     1
 10
1106.639754069
 20
740.393086418
 30
0.0
 40
1.0
 50
270.0
 51
345.0
  0
ARC
  8
0
  6
CONTINUOUS
 62
     1
 10
1106.639754069
 20
740.393086418
 30
0.0
 40
1.0
 50
195.0
 51
270.0
  0
LINE
  8
0
  6
CONTINUOUS
 62
     1
 10
1102.051788032
 20
753.651905464
 30
0.0
 11
1105.673828242
 21
740.134267373
 31
0.0
  0
LINE
  8
0
  6
CONTINUOUS
 62
     1
 10
1100.11993638
 20
753.651905464
 30
0.0
 11
1096.49789617
 21
740.134267373
 31
0.0
  0
ARC
  8
0
  6
CONTINUOUS
 62
     1
 10
1095.531970344
 20
740.393086418
 30
0.0
 40
1.0
 50
270.0
 51
345.0
  0
LINE
  8
0
  6
CONTINUOUS
 62
     1
 10
1111.962217328
 20
756.393086418
 30
0.0
 11
1107.605679895
 21
740.134267373
 31
0.0
  0
LINE
  8
0
  6
LTYPE6
 62
     2
 10
1051.617474913
 20
739.393086418
 30
0.0
 11
1095.531970344
 21
739.393086418
 31
0.0
  0
ARC
  8
0
  6
CONTINUOUS
 62
     1
 10
1089.978078481
 20
753.393086418
 30
0.0
 40
1.0
 50
15.0
 51
90.0
  0
ARC
  8
0
  6
CONTINUOUS
 62
     1
 10
1101.085862206
 20
753.393086418
 30
0.0
 40
1.0
 50
15.0
 51
90.0
  0
ARC
  8
0
  6
CONTINUOUS
 62
     1
 10
1101.085862206
 20
753.393086418
 30
0.0
 40
1.0
 50
90.0
 51
165.0
  0
LINE
  8
0
  6
LTYPE6
 62
     2
 10
1057.171366776
 20
754.393086418
 30
0.0
 11
1089.978078481
 21
754.393086418
 31
0.0
  0
LINE
  8
0
  6
CONTINUOUS
 62
     1
 10
1106.639754069
 20
864.393086418
 30
0.0
 11
1106.639754069
 21
739.393086418
 31
0.0
  0
LINE
  8
0
  6
CONTINUOUS
 62
     1
 10
1095.531970344
 20
864.393086418
 30
0.0
 11
1095.531970344
 21
739.393086418
 31
0.0
  0
LINE
  8
0
  6
CONTINUOUS
 62
     1
 10
1089.978078481
 20
849.393086418
 30
0.0
 11
1089.978078481
 21
754.393086418
 31
0.0
  0
LINE
  8
0
  6
CONTINUOUS
 62
     1
 10
1101.085862206
 20
849.393086418
 30
0.0
 11
1101.085862206
 21
754.393086418
 31
0.0
  0
LINE
  8
0
  6
CONTINUOUS
 62
     1
 10
1126.962218677
 20
849.393086418
 30
0.0
 11
1116.962218677
 21
849.393086418
 31
0.0
  0
LINE
  8
0
  6
CONTINUOUS
 62
     1
 10
1126.962218677
 20
849.393086418
 30
0.0
 11
1126.962218677
 21
847.393086418
 31
0.0
  0
LINE
  8
0
  6
CONTINUOUS
 62
     1
 10
1116.962218677
 20
849.393086418
 30
0.0
 11
1116.962218677
 21
847.393086418
 31
0.0
  0
LINE
  8
0
  6
LTYPE3
 62
     2
 10
1213.012218677
 20
801.893086418
 30
0.0
 11
1076.962218677
 21
801.893086418
 31
0.0
  0
LINE
  8
0
  6
CONTINUOUS
 62
     1
 10
1131.962218677
 20
847.393086418
 30
0.0
 11
1111.962217328
 21
847.393086418
 31
0.0
  0
LINE
  8
0
  6
CONTINUOUS
 62
     1
 10
1131.962218677
 20
756.393086418
 30
0.0
 11
1131.962218677
 21
847.393086418
 31
0.0
  0
LINE
  8
0
  6
CONTINUOUS
 62
     1
 10
1131.962218677
 20
756.393086418
 30
0.0
 11
1111.962217328
 21
756.393086418
 31
0.0
  0
LINE
  8
0
  6
CONTINUOUS
 62
     1
 10
1111.962217328
 20
847.393086418
 30
0.0
 11
1111.962217328
 21
756.393086418
 31
0.0
  0
LINE
  8
0
  6
CONTINUOUS
 62
     2
 10
1181.962218677
 20
714.093086418
 30
0.0
 11
1169.888145848
 21
717.328324482
 31
0.0
  0
LINE
  8
0
  6
CONTINUOUS
 62
     2
 10
1181.962218677
 20
714.093086418
 30
0.0
 11
1169.888145848
 21
710.857848355
 31
0.0
  0
LINE
  8
0
  6
CONTINUOUS
 62
     2
 10
1181.962218677
 20
714.093086418
 30
0.0
 11
1146.962218677
 21
714.093086418
 31
0.0
  0
LINE
  8
0
  6
CONTINUOUS
 62
     2
 10
1146.962218677
 20
714.093086418
 30
0.0
 11
1159.036291505
 21
710.857848355
 31
0.0
  0
LINE
  8
0
  6
CONTINUOUS
 62
     2
 10
1146.962218677
 20
714.093086418
 30
0.0
 11
1159.036291505
 21
717.328324482
 31
0.0
  0
LINE
  8
0
  6
CONTINUOUS
 62
     2
 10
1131.962218677
 20
714.093086418
 30
0.0
 11
1119.888145848
 21
710.857848355
 31
0.0
  0
LINE
  8
0
  6
CONTINUOUS
 62
     2
 10
1131.962218677
 20
714.093086418
 30
0.0
 11
1119.888145848
 21
717.328324482
 31
0.0
  0
LINE
  8
0
  6
CONTINUOUS
 62
     2
 10
1146.962218677
 20
714.093086418
 30
0.0
 11
1104.962218677
 21
714.093086418
 31
0.0
  0
TEXT
  8
0
  6
CONTINUOUS
 62
     2
 10
1149.712218677
 20
719.093086418
 30
0.0
 40
18.0
  1
３５
 50
0.0
 41
0.9
 51
0.0
  7
KANJI33
  0
TEXT
  8
0
  6
CONTINUOUS
 62
     2
 10
1098.712218677
 20
719.593086418
 30
0.0
 40
18.0
  1
１５
 50
0.0
 41
0.9
 51
0.0
  7
KANJI33
  0
LINE
  8
2
  6
CONTINUOUS
 62
     2
 10
1181.962218677
 20
712.093086418
 30
0.0
 11
1181.962218677
 21
708.093086418
 31
0.0
  0
LINE
  8
2
  6
CONTINUOUS
 62
     2
 10
1181.962218677
 20
714.093086418
 30
0.0
 11
1167.473331282
 21
717.975372095
 31
0.0
  0
LINE
  8
2
  6
CONTINUOUS
 62
     2
 10
1181.962218677
 20
714.093086418
 30
0.0
 11
1167.473331282
 21
710.210800742
 31
0.0
  0
LINE
  8
2
  6
CONTINUOUS
 62
     2
 10
1159.462218677
 20
714.093086418
 30
0.0
 11
1181.962218677
 21
714.093086418
 31
0.0
  0
LINE
  8
2
  6
CONTINUOUS
 62
     2
 10
1181.962218677
 20
714.093086418
 30
0.0
 11
1206.962218677
 21
714.093086418
 31
0.0
  0
LINE
  8
2
  6
CONTINUOUS
 62
     2
 10
1206.962218677
 20
714.093086418
 30
0.0
 11
1261.862218677
 21
714.093086418
 31
0.0
  0
LINE
  8
2
  6
CONTINUOUS
 62
     2
 10
1206.962218677
 20
714.093086418
 30
0.0
 11
1221.451106071
 21
710.210800742
 31
0.0
  0
LINE
  8
2
  6
CONTINUOUS
 62
     2
 10
1206.962218677
 20
714.093086418
 30
0.0
 11
1221.451106071
 21
717.975372095
 31
0.0
  0
TEXT
  8
2
  6
CONTINUOUS
 62
     3
 10
1229.462218677
 20
717.093086418
 30
0.0
 40
18.0
  1
２５
 50
0.0
 41
0.9
 51
0.0
  7
KANJI33
  0
LINE
  8
0
  6
CONTINUOUS
 62
     2
 10
1131.962218677
 20
754.393086418
 30
0.0
 11
1131.962218677
 21
709.093086418
 31
0.0
  0
LINE
  8
0
  6
CONTINUOUS
 62
     2
 10
1146.962218677
 20
787.393086418
 30
0.0
 11
1146.962218677
 21
709.093086418
 31
0.0
  0
LINE
  8
0
  6
CONTINUOUS
 62
     2
 10
1181.962218677
 20
759.143086418
 30
0.0
 11
1181.962218677
 21
709.093086418
 31
0.0
  0
LINE
  8
2
  6
CONTINUOUS
 62
     2
 10
1206.962218677
 20
771.143086418
 30
0.0
 11
1206.962218677
 21
708.093086418
 31
0.0
  0
TEXT
  8
0
  6
CONTINUOUS
 62
     2
 10
1231.762218677
 20
838.593086418
 30
-1.8
 40
18.0
  1
２５
 50
90.0
 41
0.833333333
 51
0.0
  7
KANJI47
  0
LINE
  8
0
  6
CONTINUOUS
 62
     2
 10
1236.462218677
 20
764.643086418
 30
0.0
 11
1236.462218677
 21
870.643086418
 31
0.0
  0
LINE
  8
0
  6
CONTINUOUS
 62
     2
 10
1188.112218677
 20
895.593086418
 30
0.0
 11
1176.038145848
 21
898.828324482
 31
0.0
  0
LINE
  8
0
  6
CONTINUOUS
 62
     2
 10
1188.112218677
 20
895.593086418
 30
0.0
 11
1176.038145848
 21
892.357848355
 31
0.0
  0
LINE
  8
0
  6
CONTINUOUS
 62
     2
 10
1188.112218677
 20
895.593086418
 30
0.0
 11
1147.112218677
 21
895.593086418
 31
0.0
  0
TEXT
  8
0
  6
CONTINUOUS
 62
     3
 10
1154.112218677
 20
905.593086418
 30
0.0
 40
20.0
  1
前進
 50
0.0
 41
0.925
 51
0.0
  7
KANJI46
  0
LINE
  8
0
  6
CONTINUOUS
 62
     2
 10
570.552591263
 20
241.071507451
 30
0.0
 11
984.552591263
 21
241.071507451
 31
0.0
  0
LINE
  8
0
  6
CONTINUOUS
 62
     2
 10
560.003319123
 20
189.833311846
 30
0.0
 11
567.730725733
 21
187.762759485
 31
0.0
  0
LINE
  8
0
  6
CONTINUOUS
 62
     2
 10
560.003319123
 20
189.833311846
 30
0.0
 11
567.730725733
 21
191.903864207
 31
0.0
  0
LINE
  8
0
  6
CONTINUOUS
 62
     2
 10
560.003319123
 20
189.833311846
 30
0.0
 11
697.603319123
 21
189.833311846
 31
0.0
  0
LINE
  8
0
  6
CONTINUOUS
 62
     2
 10
697.603319123
 20
189.833311846
 30
0.0
 11
689.875912513
 21
191.903864207
 31
0.0
  0
LINE
  8
0
  6
CONTINUOUS
 62
     2
 10
697.603319123
 20
189.833311846
 30
0.0
 11
689.875912513
 21
187.762759485
 31
0.0
  0
LINE
  8
0
  6
CONTINUOUS
 62
     2
 10
697.603319123
 20
188.633311846
 30
0.0
 11
697.603319123
 21
185.833311846
 31
0.0
  0
LINE
  8
0
  6
CONTINUOUS
 62
     2
 10
697.603319123
 20
189.833311846
 30
0.0
 11
705.330725733
 21
187.762759485
 31
0.0
  0
LINE
  8
0
  6
CONTINUOUS
 62
     2
 10
697.603319123
 20
189.833311846
 30
0.0
 11
705.330725733
 21
191.903864207
 31
0.0
  0
LINE
  8
0
  6
CONTINUOUS
 62
     2
 10
697.603319123
 20
189.833311846
 30
0.0
 11
900.003319123
 21
189.833311846
 31
0.0
  0
LINE
  8
0
  6
CONTINUOUS
 62
     2
 10
900.003319123
 20
189.833311846
 30
0.0
 11
892.275912513
 21
191.903864207
 31
0.0
  0
LINE
  8
0
  6
CONTINUOUS
 62
     2
 10
900.003319123
 20
189.833311846
 30
0.0
 11
892.275912513
 21
187.762759485
 31
0.0
  0
LINE
  8
0
  6
CONTINUOUS
 62
     2
 10
697.603319123
 20
163.503864207
 30
0.0
 11
689.875912513
 21
165.574416568
 31
0.0
  0
LINE
  8
0
  6
CONTINUOUS
 62
     2
 10
697.603319123
 20
163.503864207
 30
0.0
 11
689.875912513
 21
161.433311846
 31
0.0
  0
LINE
  8
0
  6
CONTINUOUS
 62
     2
 10
685.603319123
 20
163.503864207
 30
0.0
 11
697.603319123
 21
163.503864207
 31
0.0
  0
LINE
  8
0
  6
CONTINUOUS
 62
     2
 10
697.603319123
 20
163.503864207
 30
0.0
 11
718.403319123
 21
163.503864207
 31
0.0
  0
LINE
  8
0
  6
CONTINUOUS
 62
     2
 10
718.403319123
 20
163.503864207
 30
0.0
 11
726.130725733
 21
161.433311846
 31
0.0
  0
LINE
  8
0
  6
CONTINUOUS
 62
     2
 10
718.403319123
 20
163.503864207
 30
0.0
 11
726.130725733
 21
165.574416568
 31
0.0
  0
LINE
  8
0
  6
CONTINUOUS
 62
     2
 10
560.003319123
 20
138.233311846
 30
0.0
 11
560.003319123
 21
132.233311846
 31
0.0
  0
LINE
  8
0
  6
CONTINUOUS
 62
     2
 10
560.003319123
 20
136.233311846
 30
0.0
 11
567.730725733
 21
134.162759485
 31
0.0
  0
LINE
  8
0
  6
CONTINUOUS
 62
     2
 10
560.003319123
 20
136.233311846
 30
0.0
 11
567.730725733
 21
138.303864207
 31
0.0
  0
LINE
  8
0
  6
CONTINUOUS
 62
     2
 10
560.003319123
 20
136.233311846
 30
0.0
 11
718.403319123
 21
136.233311846
 31
0.0
  0
LINE
  8
0
  6
CONTINUOUS
 62
     2
 10
718.403319123
 20
136.233311846
 30
0.0
 11
710.675912513
 21
138.303864207
 31
0.0
  0
LINE
  8
0
  6
CONTINUOUS
 62
     2
 10
718.403319123
 20
136.233311846
 30
0.0
 11
710.675912513
 21
134.162759485
 31
0.0
  0
LINE
  8
0
  6
CONTINUOUS
 62
     2
 10
718.403319123
 20
137.433311846
 30
0.0
 11
718.403319123
 21
132.233311846
 31
0.0
  0
LINE
  8
0
  6
CONTINUOUS
 62
     2
 10
718.403319123
 20
136.233311846
 30
0.0
 11
726.130725733
 21
134.162759485
 31
0.0
  0
LINE
  8
0
  6
CONTINUOUS
 62
     2
 10
718.403319123
 20
136.233311846
 30
0.0
 11
726.130725733
 21
138.303864207
 31
0.0
  0
LINE
  8
0
  6
CONTINUOUS
 62
     2
 10
900.003319123
 20
132.633311846
 30
0.0
 11
900.003319123
 21
132.233311846
 31
0.0
  0
LINE
  8
0
  6
CONTINUOUS
 62
     2
 10
560.003319123
 20
107.033311846
 30
0.0
 11
567.730725733
 21
104.962759485
 31
0.0
  0
LINE
  8
0
  6
CONTINUOUS
 62
     2
 10
560.003319123
 20
107.033311846
 30
0.0
 11
567.730725733
 21
109.103864207
 31
0.0
  0
LINE
  8
0
  6
CONTINUOUS
 62
     2
 10
560.003319123
 20
107.033311846
 30
0.0
 11
877.603319123
 21
107.033311846
 31
0.0
  0
LINE
  8
0
  6
CONTINUOUS
 62
     2
 10
877.603319123
 20
107.033311846
 30
0.0
 11
869.875912513
 21
109.103864207
 31
0.0
  0
LINE
  8
0
  6
CONTINUOUS
 62
     2
 10
877.603319123
 20
107.033311846
 30
0.0
 11
869.875912513
 21
104.962759485
 31
0.0
  0
LINE
  8
0
  6
CONTINUOUS
 62
     2
 10
877.603319123
 20
107.833311846
 30
0.0
 11
877.603319123
 21
103.033311846
 31
0.0
  0
LINE
  8
0
  6
CONTINUOUS
 62
     2
 10
877.603319123
 20
107.033311846
 30
0.0
 11
869.875912513
 21
109.103864207
 31
0.0
  0
LINE
  8
0
  6
CONTINUOUS
 62
     2
 10
877.603319123
 20
107.033311846
 30
0.0
 11
869.875912513
 21
104.962759485
 31
0.0
  0
LINE
  8
0
  6
CONTINUOUS
 62
     2
 10
865.603319123
 20
107.033311846
 30
0.0
 11
877.603319123
 21
107.033311846
 31
0.0
  0
LINE
  8
0
  6
CONTINUOUS
 62
     2
 10
877.603319123
 20
107.033311846
 30
0.0
 11
900.003319123
 21
107.033311846
 31
0.0
  0
LINE
  8
0
  6
CONTINUOUS
 62
     2
 10
900.003319123
 20
107.033311846
 30
0.0
 11
907.730725733
 21
104.962759485
 31
0.0
  0
LINE
  8
0
  6
CONTINUOUS
 62
     2
 10
900.003319123
 20
107.033311846
 30
0.0
 11
907.730725733
 21
109.103864207
 31
0.0
  0
LINE
  8
0
  6
CONTINUOUS
 62
     2
 10
560.003319123
 20
200.633311846
 30
0.0
 11
560.003319123
 21
185.833311846
 31
0.0
  0
LINE
  8
0
  6
CONTINUOUS
 62
     2
 10
900.003319123
 20
200.633311846
 30
0.0
 11
900.003319123
 21
185.833311846
 31
0.0
  0
LINE
  8
0
  6
CONTINUOUS
 62
     2
 10
697.603319123
 20
189.433311846
 30
0.0
 11
697.603319123
 21
200.633311846
 31
0.0
  0
LINE
  8
0
  6
CONTINUOUS
 62
     2
 10
718.403319123
 20
176.303864207
 30
0.0
 11
718.403319123
 21
159.503864207
 31
0.0
  0
LINE
  8
0
  6
CONTINUOUS
 62
     2
 10
560.003319123
 20
185.833311846
 30
0.0
 11
560.003319123
 21
93.833311846
 31
0.0
  0
LINE
  8
0
  6
CONTINUOUS
 62
     2
 10
900.003319123
 20
189.833311846
 30
0.0
 11
900.003319123
 21
95.033311846
 31
0.0
  0
LINE
  8
0
  6
CONTINUOUS
 62
     2
 10
718.403319123
 20
163.503864207
 30
0.0
 11
718.403319123
 21
127.033311846
 31
0.0
  0
LINE
  8
0
  6
CONTINUOUS
 62
     2
 10
697.603319123
 20
189.833311846
 30
0.0
 11
697.603319123
 21
154.233311846
 31
0.0
  0
TEXT
  8
0
  6
CONTINUOUS
 62
     3
 10
601.803319123
 20
191.833311846
 30
0.0
 40
15.0
  1
ｍｉｎ．Ｌ
 50
0.0
 41
0.9
 51
0.0
  7
KANJI48
  0
TEXT
  8
0
  6
CONTINUOUS
 62
     3
 10
755.603319123
 20
191.833311846
 30
0.0
 40
15.0
  1
機械的ストローク
 50
0.0
 41
0.9
 51
0.0
  7
KANJI48
  0
TEXT
  8
0
  6
CONTINUOUS
 62
     3
 10
730.403319123
 20
165.503864207
 30
0.0
 40
15.0
  1
余裕
 50
0.0
 41
0.9
 51
0.0
  7
KANJI48
  0
TEXT
  8
0
  6
CONTINUOUS
 62
     3
 10
612.203319123
 20
138.233311846
 30
0.0
 40
15.0
  1
常用ｍｉｎ
 50
0.0
 41
0.9
 51
0.0
  7
KANJI48
  0
TEXT
  8
0
  6
CONTINUOUS
 62
     3
 10
691.803319123
 20
109.033311846
 30
0.0
 40
15.0
  1
常用ｍａｘ
 50
0.0
 41
0.9
 51
0.0
  7
KANJI48
  0
TEXT
  8
0
  6
CONTINUOUS
 62
     3
 10
912.003319123
 20
109.033311846
 30
0.0
 40
15.0
  1
余裕
 50
0.0
 41
0.9
 51
0.0
  7
KANJI48
  0
LINE
  8
0
  6
CONTINUOUS
 62
     2
 10
718.403319123
 20
163.503864207
 30
0.0
 11
758.503319123
 21
163.503864207
 31
0.0
  0
LINE
  8
0
  6
CONTINUOUS
 62
     2
 10
900.003319123
 20
107.033311846
 30
0.0
 11
942.503319123
 21
107.033311846
 31
0.0
  0
ARC
  8
0
  6
CONTINUOUS
 62
     1
 10
1400.262218677
 20
513.143086418
 30
0.0
 40
10.0
 50
180.0
 51
270.0
  0
LINE
  8
0
  6
CONTINUOUS
 62
     1
 10
1437.762218677
 20
531.143086418
 30
0.0
 11
1527.762218677
 21
531.143086418
 31
0.0
  0
LINE
  8
0
  6
CONTINUOUS
 62
     1
 10
1415.762218677
 20
538.143086418
 30
0.0
 11
1415.762218677
 21
570.465312555
 31
0.0
  0
ARC
  8
0
  6
CONTINUOUS
 62
     1
 10
1423.762218677
 20
538.143086418
 30
0.0
 40
8.0
 50
180.0
 51
270.0
  0
LINE
  8
0
  6
CONTINUOUS
 62
     1
 10
1415.762218677
 20
622.465312555
 30
0.0
 11
1415.762218677
 21
656.143086418
 31
0.0
  0
ARC
  8
0
  6
CONTINUOUS
 62
     1
 10
1423.762218677
 20
656.143086418
 30
0.0
 40
8.0
 50
90.0
 51
180.0
  0
LINE
  8
0
  6
CONTINUOUS
 62
     1
 10
1423.762218677
 20
530.143086418
 30
0.0
 11
1434.762218677
 21
530.143086418
 31
0.0
  0
CIRCLE
  8
0
  6
CONTINUOUS
 62
     1
 10
1429.762218677
 20
650.143086418
 30
0.0
 40
9.0
  0
LINE
  8
0
  6
CONTINUOUS
 62
     1
 10
1441.762218677
 20
531.143086418
 30
0.0
 11
1528.762218677
 21
531.143086418
 31
0.0
  0
ARC
  8
0
  6
CONTINUOUS
 62
     1
 10
1434.762218677
 20
526.643086418
 30
0.0
 40
3.0
 50
90.0
 51
180.0
  0
LINE
  8
0
  6
CONTINUOUS
 62
     1
 10
1431.762218677
 20
480.143086418
 30
0.0
 11
1431.762218677
 21
526.643086418
 31
0.0
  0
ARC
  8
0
  6
CONTINUOUS
 62
     1
 10
1432.762218677
 20
480.143086418
 30
0.0
 40
1.0
 50
180.0
 51
270.0
  0
ARC
  8
0
  6
CONTINUOUS
 62
     1
 10
1435.762218677
 20
479.143086418
 30
0.0
 40
1.0
 50
180.0
 51
270.0
  0
LINE
  8
0
  6
CONTINUOUS
 62
     1
 10
1533.762218677
 20
485.143086418
 30
0.0
 11
1431.762218677
 21
485.143086418
 31
0.0
  0
LINE
  8
0
  6
CONTINUOUS
 62
     1
 10
1533.762218677
 20
486.643086418
 30
0.0
 11
1431.762218677
 21
486.643086418
 31
0.0
  0
LINE
  8
0
  6
CONTINUOUS
 62
     1
 10
1434.762218677
 20
529.643086418
 30
0.0
 11
1530.762218677
 21
529.643086418
 31
0.0
  0
LINE
  8
0
  6
CONTINUOUS
 62
     1
 10
1529.762218677
 20
478.143086418
 30
0.0
 11
1435.762218677
 21
478.143086418
 31
0.0
  0
LINE
  8
0
  6
CONTINUOUS
 62
     1
 10
1532.762218677
 20
479.143086418
 30
0.0
 11
1432.762218677
 21
479.143086418
 31
0.0
  0
LINE
  8
0
  6
CONTINUOUS
 62
     1
 10
1423.762218677
 20
664.143086418
 30
0.0
 11
1445.066065027
 21
664.143086418
 31
0.0
  0
LINE
  8
0
  6
CONTINUOUS
 62
     1
 10
1400.262218677
 20
503.143086418
 30
0.0
 11
1431.762218677
 21
503.143086418
 31
0.0
  0
CIRCLE
  8
0
  6
CONTINUOUS
 62
     1
 10
1482.762218677
 20
597.143086418
 30
0.0
 40
62.5
  0
LINE
  8
0
  6
CONTINUOUS
 62
     1
 10
1510.262218677
 20
622.143086418
 30
0.0
 11
1495.262218677
 21
622.143086418
 31
0.0
  0
LINE
  8
0
  6
CONTINUOUS
 62
     1
 10
1514.762218677
 20
575.143086418
 30
0.0
 11
1514.762218677
 21
619.143086418
 31
0.0
  0
LINE
  8
0
  6
CONTINUOUS
 62
     1
 10
1520.762218677
 20
609.643086418
 30
0.0
 11
1514.762218677
 21
609.643086418
 31
0.0
  0
LINE
  8
0
  6
CONTINUOUS
 62
     1
 10
1520.762218677
 20
584.643086418
 30
0.0
 11
1514.762218677
 21
584.643086418
 31
0.0
  0
LINE
  8
0
  6
CONTINUOUS
 62
     1
 10
1514.762218677
 20
619.143086418
 30
0.0
 11
1510.262218677
 21
619.143086418
 31
0.0
  0
LINE
  8
0
  6
CONTINUOUS
 62
     1
 10
1514.762218677
 20
575.143086418
 30
0.0
 11
1510.262218677
 21
575.143086418
 31
0.0
  0
CIRCLE
  8
0
  6
CONTINUOUS
 62
     1
 10
1516.762218677
 20
597.143086418
 30
0.0
 40
2.0
  0
LINE
  8
0
  6
CONTINUOUS
 62
     1
 10
1450.762218677
 20
575.143086418
 30
0.0
 11
1450.762218677
 21
619.143086418
 31
0.0
  0
LINE
  8
0
  6
CONTINUOUS
 62
     1
 10
1444.762218677
 20
584.643086418
 30
0.0
 11
1444.762218677
 21
609.643086418
 31
0.0
  0
LINE
  8
0
  6
CONTINUOUS
 62
     1
 10
1444.762218677
 20
609.643086418
 30
0.0
 11
1450.762218677
 21
609.643086418
 31
0.0
  0
LINE
  8
0
  6
CONTINUOUS
 62
     1
 10
1444.762218677
 20
584.643086418
 30
0.0
 11
1450.762218677
 21
584.643086418
 31
0.0
  0
LINE
  8
0
  6
CONTINUOUS
 62
     1
 10
1450.762218677
 20
619.143086418
 30
0.0
 11
1455.262218677
 21
619.143086418
 31
0.0
  0
LINE
  8
0
  6
CONTINUOUS
 62
     1
 10
1450.762218677
 20
575.143086418
 30
0.0
 11
1455.262218677
 21
575.143086418
 31
0.0
  0
CIRCLE
  8
0
  6
CONTINUOUS
 62
     1
 10
1448.762218677
 20
597.143086418
 30
0.0
 40
2.0
  0
LINE
  8
0
  6
CONTINUOUS
 62
     1
 10
1495.262218677
 20
584.643086418
 30
0.0
 11
1470.262218677
 21
584.643086418
 31
0.0
  0
LINE
  8
0
  6
CONTINUOUS
 62
     1
 10
1495.262218677
 20
609.643086418
 30
0.0
 11
1470.262218677
 21
609.643086418
 31
0.0
  0
LINE
  8
0
  6
CONTINUOUS
 62
     1
 10
1470.262218677
 20
584.643086418
 30
0.0
 11
1495.262218677
 21
584.643086418
 31
0.0
  0
LINE
  8
0
  6
CONTINUOUS
 62
     1
 10
1470.262218677
 20
609.643086418
 30
0.0
 11
1495.262218677
 21
609.643086418
 31
0.0
  0
LINE
  8
0
  6
CONTINUOUS
 62
     1
 10
1455.262218677
 20
622.143086418
 30
0.0
 11
1495.262218677
 21
622.143086418
 31
0.0
  0
LINE
  8
0
  6
CONTINUOUS
 62
     1
 10
1510.262218677
 20
572.143086418
 30
0.0
 11
1510.262218677
 21
622.143086418
 31
0.0
  0
LINE
  8
0
  6
CONTINUOUS
 62
     1
 10
1455.262218677
 20
572.143086418
 30
0.0
 11
1510.262218677
 21
572.143086418
 31
0.0
  0
LINE
  8
0
  6
CONTINUOUS
 62
     1
 10
1495.262218677
 20
572.143086418
 30
0.0
 11
1495.262218677
 21
622.143086418
 31
0.0
  0
LINE
  8
0
  6
CONTINUOUS
 62
     1
 10
1470.262218677
 20
572.143086418
 30
0.0
 11
1470.262218677
 21
622.143086418
 31
0.0
  0
LINE
  8
0
  6
CONTINUOUS
 62
     1
 10
1455.262218677
 20
572.143086418
 30
0.0
 11
1455.262218677
 21
622.143086418
 31
0.0
  0
LINE
  8
0
  6
CONTINUOUS
 62
     1
 10
1387.762218677
 20
574.143086418
 30
0.0
 11
1387.762218677
 21
620.143086418
 31
0.0
  0
LINE
  8
0
  6
CONTINUOUS
 62
     1
 10
1390.262218677
 20
513.143086418
 30
0.0
 11
1390.262218677
 21
573.836322708
 31
0.0
  0
LINE
  8
0
  6
CONTINUOUS
 62
     1
 10
1387.762218677
 20
574.143086418
 30
0.0
 11
1427.262218677
 21
569.296219792
 31
0.0
  0
LINE
  8
0
  6
CONTINUOUS
 62
     1
 10
1387.762218677
 20
620.143086418
 30
0.0
 11
1427.762218677
 21
625.051305787
 31
0.0
  0
LINE
  8
0
  6
CONTINUOUS
 62
     1
 10
1437.762218677
 20
531.143086418
 30
0.0
 11
1437.762218677
 21
553.769707486
 31
0.0
  0
ARC
  8
0
  6
CONTINUOUS
 62
     1
 10
1429.762218677
 20
544.143086418
 30
0.0
 40
9.0
 50
24.386100197
 51
334.165016937
  0
LINE
  8
0
  6
LTYPE3
 62
     2
 10
1429.762218677
 20
636.143086418
 30
0.0
 11
1429.762218677
 21
662.643086418
 31
0.0
  0
LINE
  8
0
  6
LTYPE3
 62
     2
 10
1444.262218677
 20
650.143086418
 30
0.0
 11
1417.262218677
 21
650.143086418
 31
0.0
  0
LINE
  8
0
  6
LTYPE3
 62
     2
 10
1443.762218677
 20
544.143086418
 30
0.0
 11
1417.262218677
 21
544.143086418
 31
0.0
  0
LINE
  8
0
  6
LTYPE3
 62
     2
 10
1429.762218677
 20
558.643086418
 30
0.0
 11
1429.762218677
 21
531.643086418
 31
0.0
  0
LINE
  8
0
  6
LTYPE3
 62
     2
 10
1437.762218677
 20
474.443086418
 30
0.0
 11
1437.762218677
 21
493.143086418
 31
0.0
  0
LINE
  8
0
  6
CONTINUOUS
 62
     2
 10
1390.262218677
 20
403.143086418
 30
0.0
 11
1402.336291505
 21
399.907848355
 31
0.0
  0
LINE
  8
0
  6
CONTINUOUS
 62
     2
 10
1390.262218677
 20
403.143086418
 30
0.0
 11
1402.336291505
 21
406.378324482
 31
0.0
  0
LINE
  8
0
  6
LTYPE4
 62
     2
 10
1516.662218677
 20
593.143086418
 30
0.0
 11
1516.662218677
 21
601.343086418
 31
0.0
  0
LINE
  8
0
  6
LTYPE1
 62
     2
 10
1514.762218677
 20
609.643086418
 30
0.0
 11
1495.262218677
 21
609.643086418
 31
0.0
  0
LINE
  8
0
  6
LTYPE1
 62
     2
 10
1514.762218677
 20
584.643086418
 30
0.0
 11
1495.262218677
 21
584.643086418
 31
0.0
  0
LINE
  8
0
  6
LTYPE4
 62
     2
 10
1448.862218677
 20
593.143086418
 30
0.0
 11
1448.862218677
 21
601.343086418
 31
0.0
  0
LINE
  8
0
  6
LTYPE1
 62
     2
 10
1450.762218677
 20
609.643086418
 30
0.0
 11
1470.262218677
 21
609.643086418
 31
0.0
  0
LINE
  8
0
  6
LTYPE1
 62
     2
 10
1450.762218677
 20
584.643086418
 30
0.0
 11
1470.262218677
 21
584.643086418
 31
0.0
  0
LINE
  8
0
  6
LTYPE1
 62
     2
 10
1417.762218677
 20
584.643086418
 30
0.0
 11
1387.762218677
 21
584.643086418
 31
0.0
  0
LINE
  8
0
  6
LTYPE1
 62
     2
 10
1417.762218677
 20
609.643086418
 30
0.0
 11
1387.762218677
 21
609.643086418
 31
0.0
  0
LINE
  8
0
  6
LTYPE1
 62
     2
 10
1417.762218677
 20
584.643086418
 30
0.0
 11
1417.762218677
 21
609.643086418
 31
0.0
  0
LINE
  8
0
  6
CONTINUOUS
 62
     2
 10
1387.762218677
 20
352.269707486
 30
0.0
 11
1399.836291505
 21
349.034469422
 31
0.0
  0
LINE
  8
0
  6
CONTINUOUS
 62
     2
 10
1387.762218677
 20
352.269707486
 30
0.0
 11
1399.836291505
 21
355.50494555
 31
0.0
  0
LINE
  8
0
  6
CONTINUOUS
 62
     2
 10
1387.762218677
 20
584.643086418
 30
0.0
 11
1332.80968984
 21
584.643086418
 31
0.0
  0
LINE
  8
0
  6
CONTINUOUS
 62
     2
 10
1337.80968984
 20
584.643086418
 30
0.0
 11
1334.574451776
 21
572.56901359
 31
0.0
  0
LINE
  8
0
  6
CONTINUOUS
 62
     2
 10
1337.80968984
 20
584.643086418
 30
0.0
 11
1341.044927903
 21
572.56901359
 31
0.0
  0
LINE
  8
0
  6
CONTINUOUS
 62
     2
 10
1337.80968984
 20
609.643086418
 30
0.0
 11
1341.044927903
 21
621.717159247
 31
0.0
  0
LINE
  8
0
  6
CONTINUOUS
 62
     2
 10
1337.80968984
 20
609.643086418
 30
0.0
 11
1334.574451776
 21
621.717159247
 31
0.0
  0
LINE
  8
0
  6
CONTINUOUS
 62
     2
 10
1387.762218677
 20
609.643086418
 30
0.0
 11
1332.80968984
 21
609.643086418
 31
0.0
  0
LINE
  8
0
  6
CONTINUOUS
 62
     2
 10
1390.262218677
 20
403.143086418
 30
0.0
 11
1575.262218677
 21
403.143086418
 31
0.0
  0
LINE
  8
0
  6
CONTINUOUS
 62
     2
 10
1387.762218677
 20
352.269707486
 30
0.0
 11
1577.762218677
 21
352.269707486
 31
0.0
  0
LINE
  8
0
  6
CONTINUOUS
 62
     1
 10
1386.962218677
 20
746.143086418
 30
0.0
 11
1380.762218677
 21
746.143086418
 31
0.0
  0
ARC
  8
0
  6
CONTINUOUS
 62
     1
 10
1380.762218677
 20
738.143086418
 30
0.0
 40
8.0
 50
90.0
 51
180.0
  0
LINE
  8
0
  6
CONTINUOUS
 62
     1
 10
1372.762218677
 20
502.143086418
 30
0.0
 11
1372.762218677
 21
738.143086418
 31
0.0
  0
ARC
  8
0
  6
CONTINUOUS
 62
     1
 10
1380.762218677
 20
502.143086418
 30
0.0
 40
8.0
 50
180.0
 51
270.0
  0
LINE
  8
0
  6
CONTINUOUS
 62
     1
 10
1431.462218677
 20
494.143086418
 30
0.0
 11
1380.762218677
 21
494.143086418
 31
0.0
  0
TEXT
  8
0
  6
CONTINUOUS
 62
     2
 10
1460.262218677
 20
408.143086418
 30
1.8
 40
18.0
  1
１８５
 50
0.0
 41
0.933333333
 51
0.0
  7
KANJI40
  0
TEXT
  8
0
  6
CONTINUOUS
 62
     2
 10
1460.262218677
 20
357.269707486
 30
1.8
 40
18.0
  1
１９０
 50
0.0
 41
0.933333333
 51
0.0
  7
KANJI40
  0
CIRCLE
  8
0
  6
LTYPE1
 62
     2
 10
1482.762218677
 20
503.643086418
 30
0.0
 40
10.4775
  0
CIRCLE
  8
0
  6
LTYPE1
 62
     2
 10
1482.762218677
 20
503.643086418
 30
0.0
 40
9.3155
  0
LINE
  8
0
  6
CONTINUOUS
 62
     1
 10
1367.962218677
 20
536.893086418
 30
0.0
 11
1367.962218677
 21
509.193086418
 31
0.0
  0
LINE
  8
0
  6
CONTINUOUS
 62
     1
 10
1372.762218677
 20
529.943086418
 30
0.0
 11
1367.962218677
 21
529.943086418
 31
0.0
  0
LINE
  8
0
  6
CONTINUOUS
 62
     1
 10
1372.762218677
 20
516.143086418
 30
0.0
 11
1367.962218677
 21
516.143086418
 31
0.0
  0
LINE
  8
0
  6
CONTINUOUS
 62
     1
 10
1372.762218677
 20
509.193086418
 30
0.0
 11
1367.962218677
 21
509.193086418
 31
0.0
  0
LINE
  8
0
  6
CONTINUOUS
 62
     1
 10
1372.762218677
 20
536.893086418
 30
0.0
 11
1372.762218677
 21
509.193086418
 31
0.0
  0
LINE
  8
0
  6
CONTINUOUS
 62
     1
 10
1372.762218677
 20
536.893086418
 30
0.0
 11
1367.962218677
 21
536.893086418
 31
0.0
  0
LINE
  8
0
  6
CONTINUOUS
 62
     1
 10
1362.762218677
 20
537.693086418
 30
0.0
 11
1362.762218677
 21
508.393086418
 31
0.0
  0
LINE
  8
0
  6
CONTINUOUS
 62
     1
 10
1362.762218677
 20
537.693086418
 30
0.0
 11
1349.762218677
 21
537.693086418
 31
0.0
  0
ARC
  8
0
  6
CONTINUOUS
 62
     1
 10
1349.762218677
 20
535.693086418
 30
0.0
 40
2.0
 50
90.0
 51
180.0
  0
LINE
  8
0
  6
CONTINUOUS
 62
     1
 10
1362.762218677
 20
508.393086418
 30
0.0
 11
1349.762218677
 21
508.393086418
 31
0.0
  0
LINE
  8
0
  6
CONTINUOUS
 62
     1
 10
1347.762218677
 20
535.693086418
 30
0.0
 11
1347.762218677
 21
510.393086418
 31
0.0
  0
ARC
  8
0
  6
CONTINUOUS
 62
     1
 10
1349.762218677
 20
510.393086418
 30
0.0
 40
2.0
 50
180.0
 51
270.0
  0
LINE
  8
0
  6
CONTINUOUS
 62
     1
 10
1351.762218677
 20
510.393086418
 30
0.0
 11
1362.762218677
 21
510.393086418
 31
0.0
  0
LINE
  8
0
  6
CONTINUOUS
 62
     1
 10
1351.762218677
 20
519.293086418
 30
0.0
 11
1362.762218677
 21
519.293086418
 31
0.0
  0
LINE
  8
0
  6
CONTINUOUS
 62
     1
 10
1351.762218677
 20
515.193086418
 30
0.0
 11
1362.762218677
 21
515.193086418
 31
0.0
  0
LINE
  8
0
  6
CONTINUOUS
 62
     1
 10
1351.762218677
 20
515.193086418
 30
0.0
 11
1351.762218677
 21
510.393086418
 31
0.0
  0
LINE
  8
0
  6
CONTINUOUS
 62
     1
 10
1351.762218677
 20
523.043086418
 30
0.0
 11
1351.762218677
 21
519.293086418
 31
0.0
  0
LINE
  8
0
  6
CONTINUOUS
 62
     1
 10
1351.762218677
 20
535.693086418
 30
0.0
 11
1362.762218677
 21
535.693086418
 31
0.0
  0
LINE
  8
0
  6
CONTINUOUS
 62
     1
 10
1351.762218677
 20
526.793086418
 30
0.0
 11
1362.762218677
 21
526.793086418
 31
0.0
  0
LINE
  8
0
  6
CONTINUOUS
 62
     1
 10
1351.762218677
 20
530.893086418
 30
0.0
 11
1362.762218677
 21
530.893086418
 31
0.0
  0
LINE
  8
0
  6
CONTINUOUS
 62
     1
 10
1351.762218677
 20
530.893086418
 30
0.0
 11
1351.762218677
 21
535.693086418
 31
0.0
  0
LINE
  8
0
  6
CONTINUOUS
 62
     1
 10
1351.762218677
 20
523.043086418
 30
0.0
 11
1351.762218677
 21
526.793086418
 31
0.0
  0
LINE
  8
0
  6
CONTINUOUS
 62
     1
 10
1368.062218677
 20
510.343086418
 30
0.0
 11
1362.762218677
 21
510.343086418
 31
0.0
  0
LINE
  8
0
  6
CONTINUOUS
 62
     1
 10
1368.062218677
 20
511.143086418
 30
0.0
 11
1362.762218677
 21
511.143086418
 31
0.0
  0
LINE
  8
0
  6
CONTINUOUS
 62
     1
 10
1368.062218677
 20
535.743086418
 30
0.0
 11
1362.762218677
 21
535.743086418
 31
0.0
  0
LINE
  8
0
  6
CONTINUOUS
 62
     1
 10
1368.062218677
 20
534.943086418
 30
0.0
 11
1362.762218677
 21
534.943086418
 31
0.0
  0
LINE
  8
0
  6
LTYPE2
 62
     2
 10
1385.862218677
 20
523.043086418
 30
0.0
 11
1325.762218677
 21
523.043086418
 31
0.0
  0
TEXT
  8
0
  6
CONTINUOUS
 62
     2
 10
1328.80968984
 20
612.143086418
 30
1.8
 40
18.0
  1
φ２５Ｈ１０深さ３０
 50
90.0
 41
0.933333333
 51
0.0
  7
KANJI40
  0
LINE
  8
0
  6
CONTINUOUS
 62
     2
 10
1337.80968984
 20
559.643086418
 30
0.0
 11
1337.80968984
 21
785.143086418
 31
0.0
  0
LINE
  8
0
  6
CONTINUOUS
 62
     1
 10
1390.262218677
 20
620.449850129
 30
0.0
 11
1390.262218677
 21
740.643086418
 31
0.0
  0
LINE
  8
0
  6
CONTINUOUS
 62
     1
 10
1390.262218677
 20
809.643086418
 30
0.0
 11
1390.262218677
 21
832.672490917
 31
0.0
  0
LINE
  8
0
  6
LTYPE4
 62
     2
 10
1369.086218941
 20
773.143086418
 30
0.0
 11
1631.45968984
 21
773.143086418
 31
0.0
  0
LINE
  8
0
  6
LTYPE2
 62
     2
 10
1502.662218677
 20
503.643086418
 30
0.0
 11
1461.962218677
 21
503.643086418
 31
0.0
  0
ARC
  8
0
  6
CONTINUOUS
 62
     1
 10
1497.750213873
 20
818.743086418
 30
0.0
 40
8.0
 50
200.487315115
 51
251.805127661
  0
ARC
  8
0
  6
CONTINUOUS
 62
     1
 10
1467.77422348
 20
818.743086418
 30
0.0
 40
8.0
 50
288.194872339
 51
339.512684885
  0
ARC
  8
0
  6
CONTINUOUS
 62
     1
 10
1482.762218677
 20
813.143086418
 30
0.0
 40
8.0
 50
20.487315115
 51
159.512540111
  0
ARC
  8
0
  6
CONTINUOUS
 62
     1
 10
1497.750213873
 20
727.543086418
 30
0.0
 40
8.0
 50
108.194872339
 51
159.512684885
  0
ARC
  8
0
  6
CONTINUOUS
 62
     1
 10
1467.77422348
 20
727.543086418
 30
0.0
 40
8.0
 50
20.487315115
 51
71.805127661
  0
ARC
  8
0
  6
CONTINUOUS
 62
     1
 10
1482.762218677
 20
733.143086418
 30
0.0
 40
8.0
 50
200.487459889
 51
339.512684885
  0
ARC
  8
0
  6
CONTINUOUS
 62
     1
 10
1482.762218677
 20
773.143086418
 30
0.0
 40
40.0
 50
108.194872339
 51
251.805127661
  0
CIRCLE
  8
0
  6
CONTINUOUS
 62
     1
 10
1482.762218677
 20
773.143086418
 30
0.0
 40
23.0
  0
ARC
  8
0
  6
CONTINUOUS
 62
     1
 10
1482.762218677
 20
773.143086418
 30
0.0
 40
40.0
 50
25.554707728
 51
71.805142343
  0
ARC
  8
0
  6
CONTINUOUS
 62
     1
 10
1482.762218677
 20
773.143086418
 30
0.0
 40
40.0
 50
288.194857657
 51
334.445306215
  0
LINE
  8
0
  6
CONTINUOUS
 62
     1
 10
1485.112218677
 20
820.213405816
 30
0.0
 11
1480.412218677
 21
820.213405816
 31
0.0
  0
LINE
  8
0
  6
CONTINUOUS
 62
     1
 10
1480.412218677
 20
820.213405816
 30
0.0
 11
1478.062218677
 21
816.143086418
 31
0.0
  0
LINE
  8
0
  6
CONTINUOUS
 62
     1
 10
1478.062218677
 20
816.143086418
 30
0.0
 11
1480.412218677
 21
812.072767021
 31
0.0
  0
LINE
  8
0
  6
CONTINUOUS
 62
     1
 10
1480.412218677
 20
812.072767021
 30
0.0
 11
1485.112218677
 21
812.072767021
 31
0.0
  0
LINE
  8
0
  6
CONTINUOUS
 62
     1
 10
1485.112218677
 20
812.072767021
 30
0.0
 11
1487.462218677
 21
816.143086418
 31
0.0
  0
LINE
  8
0
  6
CONTINUOUS
 62
     1
 10
1487.462218677
 20
816.143086418
 30
0.0
 11
1485.112218677
 21
820.213405816
 31
0.0
  0
LINE
  8
0
  6
CONTINUOUS
 62
     2
 10
1488.762218677
 20
816.143086418
 30
0.0
 11
1476.762218677
 21
816.143086418
 31
0.0
  0
LINE
  8
0
  6
CONTINUOUS
 62
     1
 10
1485.112218677
 20
726.072767021
 30
0.0
 11
1480.412218677
 21
726.072767021
 31
0.0
  0
LINE
  8
0
  6
CONTINUOUS
 62
     1
 10
1480.412218677
 20
726.072767021
 30
0.0
 11
1478.062218677
 21
730.143086418
 31
0.0
  0
LINE
  8
0
  6
CONTINUOUS
 62
     1
 10
1478.062218677
 20
730.143086418
 30
0.0
 11
1480.412218677
 21
734.213405816
 31
0.0
  0
LINE
  8
0
  6
CONTINUOUS
 62
     1
 10
1480.412218677
 20
734.213405816
 30
0.0
 11
1485.112218677
 21
734.213405816
 31
0.0
  0
LINE
  8
0
  6
CONTINUOUS
 62
     1
 10
1485.112218677
 20
734.213405816
 30
0.0
 11
1487.462218677
 21
730.143086418
 31
0.0
  0
LINE
  8
0
  6
CONTINUOUS
 62
     1
 10
1487.462218677
 20
730.143086418
 30
0.0
 11
1485.112218677
 21
726.072767021
 31
0.0
  0
LINE
  8
0
  6
CONTINUOUS
 62
     2
 10
1488.762218677
 20
730.143086418
 30
0.0
 11
1476.762218677
 21
730.143086418
 31
0.0
  0
LINE
  8
0
  6
CONTINUOUS
 62
     1
 10
1477.825873875
 20
775.993086418
 30
0.0
 11
1477.825873875
 21
770.293086418
 31
0.0
  0
LINE
  8
0
  6
CONTINUOUS
 62
     1
 10
1477.825873875
 20
770.293086418
 30
0.0
 11
1482.762218677
 21
767.443086418
 31
0.0
  0
LINE
  8
0
  6
CONTINUOUS
 62
     1
 10
1482.762218677
 20
767.443086418
 30
0.0
 11
1487.698563478
 21
770.293086418
 31
0.0
  0
LINE
  8
0
  6
CONTINUOUS
 62
     1
 10
1487.698563478
 20
770.293086418
 30
0.0
 11
1487.698563478
 21
775.993086418
 31
0.0
  0
LINE
  8
0
  6
CONTINUOUS
 62
     1
 10
1487.698563478
 20
775.993086418
 30
0.0
 11
1482.762218677
 21
778.843086418
 31
0.0
  0
LINE
  8
0
  6
CONTINUOUS
 62
     1
 10
1482.762218677
 20
778.843086418
 30
0.0
 11
1477.825873875
 21
775.993086418
 31
0.0
  0
CIRCLE
  8
0
  6
CONTINUOUS
 62
     1
 10
1482.762218677
 20
773.143086418
 30
0.0
 40
6.5
  0
LINE
  8
0
  6
LTYPE2
 62
     2
 10
1393.062218677
 20
773.143086418
 30
0.0
 11
1578.162218677
 21
773.143086418
 31
0.0
  0
LINE
  8
0
  6
CONTINUOUS
 62
     1
 10
1512.762218677
 20
855.143086418
 30
0.0
 11
1512.762218677
 21
858.143086418
 31
0.0
  0
ARC
  8
0
  6
CONTINUOUS
 62
     1
 10
1508.762218677
 20
852.143086418
 30
0.0
 40
3.0
 50
90.0
 51
180.0
  0
LINE
  8
0
  6
CONTINUOUS
 62
     1
 10
1505.762218677
 20
841.29670566
 30
0.0
 11
1505.762218677
 21
852.143086418
 31
0.0
  0
ARC
  8
0
  6
CONTINUOUS
 62
     1
 10
1501.762218677
 20
841.29670566
 30
0.0
 40
4.0
 50
304.936144888
 51
0.0
  0
ARC
  8
0
  6
CONTINUOUS
 62
     1
 10
1456.762218677
 20
852.143086418
 30
0.0
 40
3.0
 50
0.0
 51
90.0
  0
LINE
  8
0
  6
CONTINUOUS
 62
     1
 10
1459.762218677
 20
841.29670566
 30
0.0
 11
1459.762218677
 21
852.143086418
 31
0.0
  0
ARC
  8
0
  6
CONTINUOUS
 62
     1
 10
1463.762218677
 20
841.29670566
 30
0.0
 40
4.0
 50
180.0
 51
235.063855112
  0
CIRCLE
  8
0
  6
CONTINUOUS
 62
     1
 10
1482.762218677
 20
880.143086418
 30
0.0
 40
17.0
  0
LINE
  8
0
  6
LTYPE2
 62
     2
 10
1459.762218677
 20
880.143086418
 30
0.0
 11
1505.762218677
 21
880.143086418
 31
0.0
  0
ARC
  8
0
  6
CONTINUOUS
 62
     1
 10
1440.762218677
 20
902.163132307
 30
0.0
 40
2.0
 50
90.0
 51
180.0
  0
ARC
  8
0
  6
CONTINUOUS
 62
     1
 10
1448.762218677
 20
908.143086418
 30
0.0
 40
2.0
 50
90.0
 51
180.0
  0
LINE
  8
0
  6
CONTINUOUS
 62
     1
 10
1448.762218677
 20
910.143086418
 30
0.0
 11
1516.762218677
 21
910.143086418
 31
0.0
  0
ARC
  8
0
  6
CONTINUOUS
 62
     1
 10
1516.762218677
 20
908.143086418
 30
0.0
 40
2.0
 50
0.0
 51
90.0
  0
LINE
  8
0
  6
CONTINUOUS
 62
     1
 10
1524.762218677
 20
904.163132307
 30
0.0
 11
1440.762218677
 21
904.163132307
 31
0.0
  0
ARC
  8
0
  6
CONTINUOUS
 62
     1
 10
1440.762218677
 20
906.163132307
 30
0.0
 40
2.0
 50
90.0
 51
180.0
  0
ARC
  8
0
  6
CONTINUOUS
 62
     1
 10
1448.762218677
 20
899.143086418
 30
0.0
 40
2.0
 50
90.0
 51
180.0
  0
LINE
  8
0
  6
CONTINUOUS
 62
     1
 10
1448.762218677
 20
901.143086418
 30
0.0
 11
1516.762218677
 21
901.143086418
 31
0.0
  0
ARC
  8
0
  6
CONTINUOUS
 62
     1
 10
1516.762218677
 20
899.143086418
 30
0.0
 40
2.0
 50
0.0
 51
90.0
  0
LINE
  8
0
  6
CONTINUOUS
 62
     1
 10
1524.762218677
 20
908.163132307
 30
0.0
 11
1440.762218677
 21
908.163132307
 31
0.0
  0
LINE
  8
0
  6
CONTINUOUS
 62
     1
 10
1452.762218677
 20
855.143086418
 30
0.0
 11
1512.762218677
 21
855.143086418
 31
0.0
  0
LINE
  8
0
  6
CONTINUOUS
 62
     1
 10
1452.762218677
 20
855.143086418
 30
0.0
 11
1452.762218677
 21
858.143086418
 31
0.0
  0
ARC
  8
0
  6
CONTINUOUS
 62
     1
 10
1516.762218677
 20
860.143086418
 30
0.0
 40
2.0
 50
270.0
 51
0.0
  0
LINE
  8
0
  6
CONTINUOUS
 62
     1
 10
1446.762218677
 20
860.143086418
 30
0.0
 11
1446.762218677
 21
899.143086418
 31
0.0
  0
LINE
  8
0
  6
CONTINUOUS
 62
     1
 10
1448.762218677
 20
858.143086418
 30
0.0
 11
1516.762218677
 21
858.143086418
 31
0.0
  0
ARC
  8
0
  6
CONTINUOUS
 62
     1
 10
1448.762218677
 20
860.143086418
 30
0.0
 40
2.0
 50
180.0
 51
270.0
  0
LINE
  8
0
  6
CONTINUOUS
 62
     1
 10
1446.762218677
 20
860.143086418
 30
0.0
 11
1440.762218677
 21
860.143086418
 31
0.0
  0
LINE
  8
0
  6
CONTINUOUS
 62
     1
 10
1438.762218677
 20
862.143086418
 30
0.0
 11
1438.762218677
 21
906.163132307
 31
0.0
  0
ARC
  8
0
  6
CONTINUOUS
 62
     1
 10
1440.762218677
 20
862.143086418
 30
0.0
 40
2.0
 50
180.0
 51
270.0
  0
CIRCLE
  8
0
  6
CONTINUOUS
 62
     2
 10
1482.762218677
 20
880.143086418
 30
0.0
 40
15.0
  0
CIRCLE
  8
0
  6
CONTINUOUS
 62
     1
 10
1482.762218677
 20
773.143086418
 30
0.0
 40
71.0
  0
ARC
  8
0
  6
CONTINUOUS
 62
     1
 10
1482.762218677
 20
773.143086418
 30
0.0
 40
100.0
 50
116.103881137
 51
63.896118863
  0
LINE
  8
0
  6
LTYPE2
 62
     2
 10
1432.762218677
 20
823.143086418
 30
0.0
 11
1416.762218677
 21
839.143086418
 31
0.0
  0
LINE
  8
0
  6
CONTINUOUS
 62
     1
 10
1429.425909229
 20
840.139649904
 30
0.0
 11
1419.425909229
 21
840.139649904
 31
0.0
  0
LINE
  8
0
  6
CONTINUOUS
 62
     1
 10
1419.425909229
 20
840.139649904
 30
0.0
 11
1414.425909229
 21
831.479395866
 31
0.0
  0
LINE
  8
0
  6
CONTINUOUS
 62
     1
 10
1414.425909229
 20
831.479395866
 30
0.0
 11
1419.425909229
 21
822.819141829
 31
0.0
  0
LINE
  8
0
  6
CONTINUOUS
 62
     1
 10
1419.425909229
 20
822.819141829
 30
0.0
 11
1429.425909229
 21
822.819141829
 31
0.0
  0
LINE
  8
0
  6
CONTINUOUS
 62
     1
 10
1429.425909229
 20
822.819141829
 30
0.0
 11
1434.425909229
 21
831.479395866
 31
0.0
  0
LINE
  8
0
  6
CONTINUOUS
 62
     1
 10
1434.425909229
 20
831.479395866
 30
0.0
 11
1429.425909229
 21
840.139649904
 31
0.0
  0
LINE
  8
0
  6
LTYPE2
 62
     2
 10
1432.762218677
 20
723.143086418
 30
0.0
 11
1416.762218677
 21
707.143086418
 31
0.0
  0
LINE
  8
0
  6
CONTINUOUS
 62
     1
 10
1429.425909229
 20
706.146522933
 30
0.0
 11
1419.425909229
 21
706.146522933
 31
0.0
  0
LINE
  8
0
  6
CONTINUOUS
 62
     1
 10
1419.425909229
 20
706.146522933
 30
0.0
 11
1414.425909229
 21
714.806776971
 31
0.0
  0
LINE
  8
0
  6
CONTINUOUS
 62
     1
 10
1414.425909229
 20
714.806776971
 30
0.0
 11
1419.425909229
 21
723.467031008
 31
0.0
  0
LINE
  8
0
  6
CONTINUOUS
 62
     1
 10
1419.425909229
 20
723.467031008
 30
0.0
 11
1429.425909229
 21
723.467031008
 31
0.0
  0
LINE
  8
0
  6
CONTINUOUS
 62
     1
 10
1429.425909229
 20
723.467031008
 30
0.0
 11
1434.425909229
 21
714.806776971
 31
0.0
  0
LINE
  8
0
  6
CONTINUOUS
 62
     1
 10
1434.425909229
 20
714.806776971
 30
0.0
 11
1429.425909229
 21
706.146522933
 31
0.0
  0
ARC
  8
0
  6
LTYPE2
 62
     2
 10
1482.762218677
 20
773.143086418
 30
0.0
 40
82.5
 50
213.899731785
 51
235.960335446
  0
ARC
  8
0
  6
LTYPE2
 62
     2
 10
1482.762218677
 20
773.143086418
 30
0.0
 40
82.5
 50
122.095648245
 51
145.904134413
  0
ARC
  8
0
  6
CONTINUOUS
 62
     1
 10
1482.762218677
 20
773.143086418
 30
0.0
 40
110.0
 50
113.578178478
 51
147.236242241
  0
ARC
  8
0
  6
CONTINUOUS
 62
     1
 10
1317.762218677
 20
523.043086418
 30
0.0
 40
5.0
 50
90.0
 51
270.0
  0
LINE
  8
0
  6
CONTINUOUS
 62
     1
 10
1347.762218677
 20
527.543086418
 30
0.0
 11
1318.262218677
 21
527.543086418
 31
0.0
  0
LINE
  8
0
  6
CONTINUOUS
 62
     1
 10
1347.762218677
 20
518.543086418
 30
0.0
 11
1317.762218677
 21
518.543086418
 31
0.0
  0
LINE
  8
2
  6
CONTINUOUS
 62
     2
 10
1312.762218677
 20
378.043086418
 30
0.0
 11
1327.251106071
 21
374.160800742
 31
0.0
  0
LINE
  8
2
  6
CONTINUOUS
 62
     2
 10
1312.762218677
 20
378.043086418
 30
0.0
 11
1327.251106071
 21
381.925372095
 31
0.0
  0
LINE
  8
2
  6
CONTINUOUS
 62
     2
 10
1312.762218677
 20
378.043086418
 30
0.0
 11
1372.762218677
 21
378.043086418
 31
0.0
  0
LINE
  8
2
  6
CONTINUOUS
 62
     2
 10
1372.762218677
 20
378.043086418
 30
0.0
 11
1358.273331282
 21
381.925372095
 31
0.0
  0
LINE
  8
2
  6
CONTINUOUS
 62
     2
 10
1372.762218677
 20
378.043086418
 30
0.0
 11
1358.273331282
 21
374.160800742
 31
0.0
  0
LINE
  8
2
  6
CONTINUOUS
 62
     2
 10
1372.762218677
 20
496.143097208
 30
0.0
 11
1372.762218677
 21
372.043086418
 31
0.0
  0
TEXT
  8
2
  6
CONTINUOUS
 62
     2
 10
1323.862218677
 20
384.043086418
 30
1.8
 40
21.0
  1
６０
 50
0.0
 41
0.857142857
 51
0.0
  7
KANJI45
  0
LINE
  8
2
  6
CONTINUOUS
 62
     2
 10
1312.762218677
 20
428.143097208
 30
0.0
 11
1312.762218677
 21
372.043086418
 31
0.0
  0
LINE
  8
2
  6
CONTINUOUS
 62
     2
 10
1312.762218677
 20
517.043086418
 30
0.0
 11
1312.762218677
 21
485.143097208
 31
0.0
  0
LINE
  8
0
  6
LTYPE4
 62
     2
 10
1586.762218677
 20
597.143086418
 30
0.0
 11
1377.762218677
 21
597.143086418
 31
0.0
  0
LINE
  8
0
  6
LTYPE2
 62
     2
 10
1482.762218677
 20
470.343086418
 30
0.0
 11
1482.762218677
 21
906.096657847
 31
0.0
  0
ARC
  8
0
  6
CONTINUOUS
 62
     1
 10
1482.762218677
 20
762.143086418
 30
0.0
 40
105.0
 50
277.623325275
 51
291.039469781
  0
ARC
  8
0
  6
CONTINUOUS
 62
     1
 10
1482.762218677
 20
762.143086418
 30
0.0
 40
105.0
 50
248.960530219
 51
262.376674725
  0
LINE
  8
0
  6
CONTINUOUS
 62
     2
 10
1387.762218677
 20
570.75
 30
0.0
 11
1387.762218677
 21
347.269707486
 31
0.0
  0
LINE
  8
0
  6
CONTINUOUS
 62
     2
 10
1390.262218677
 20
503.143086418
 30
0.0
 11
1390.262218677
 21
398.143086418
 31
0.0
  0
LINE
  8
0
  6
CONTINUOUS
 62
     1
 10
1443.062218677
 20
478.143086418
 30
0.0
 11
1432.462218677
 21
478.143086418
 31
0.0
  0
ARC
  8
0
  6
CONTINUOUS
 62
     1
 10
1438.162218677
 20
479.143086418
 30
0.0
 40
5.0
 50
272.3
 51
348.5
  0
ARC
  8
0
  6
CONTINUOUS
 62
     1
 10
1437.362218677
 20
479.143086418
 30
0.0
 40
5.0
 50
191.5
 51
267.7
  0
LINE
  8
0
  6
CONTINUOUS
 62
     1
 10
1438.362218677
 20
474.143086418
 30
0.0
 11
1437.162218677
 21
474.143086418
 31
0.0
  0
LINE
  8
0
  6
LTYPE5
 62
     2
 10
1437.762218677
 20
470.743086418
 30
0.0
 11
1437.762218677
 21
484.143086418
 31
0.0
  0
ARC
  8
0
  6
CONTINUOUS
 62
     1
 10
1565.262218677
 20
513.143086418
 30
0.0
 40
10.0
 50
270.0
 51
0.0
  0
LINE
  8
0
  6
CONTINUOUS
 62
     1
 10
1549.762218677
 20
622.965312555
 30
0.0
 11
1549.762218677
 21
656.143086418
 31
0.0
  0
ARC
  8
0
  6
CONTINUOUS
 62
     1
 10
1541.762218677
 20
656.143086418
 30
0.0
 40
8.0
 50
0.0
 51
90.0
  0
LINE
  8
0
  6
CONTINUOUS
 62
     1
 10
1549.762218677
 20
538.143086418
 30
0.0
 11
1549.762218677
 21
571.320860282
 31
0.0
  0
ARC
  8
0
  6
CONTINUOUS
 62
     1
 10
1541.762218677
 20
538.143086418
 30
0.0
 40
8.0
 50
270.0
 51
0.0
  0
LINE
  8
0
  6
CONTINUOUS
 62
     1
 10
1531.762218677
 20
530.143086418
 30
0.0
 11
1541.762218677
 21
530.143086418
 31
0.0
  0
CIRCLE
  8
0
  6
CONTINUOUS
 62
     1
 10
1535.762218677
 20
650.143086418
 30
0.0
 40
9.0
  0
ARC
  8
0
  6
CONTINUOUS
 62
     1
 10
1530.762218677
 20
526.643086418
 30
0.0
 40
3.0
 50
0.0
 51
90.0
  0
LINE
  8
0
  6
CONTINUOUS
 62
     1
 10
1533.762218677
 20
480.143086418
 30
0.0
 11
1533.762218677
 21
526.643086418
 31
0.0
  0
ARC
  8
0
  6
CONTINUOUS
 62
     1
 10
1532.762218677
 20
480.143086418
 30
0.0
 40
1.0
 50
270.0
 51
0.0
  0
ARC
  8
0
  6
CONTINUOUS
 62
     1
 10
1529.762218677
 20
479.143086418
 30
0.0
 40
1.0
 50
270.0
 51
0.0
  0
LINE
  8
0
  6
CONTINUOUS
 62
     1
 10
1520.458372326
 20
664.143086418
 30
0.0
 11
1541.762218677
 21
664.143086418
 31
0.0
  0
LINE
  8
0
  6
CONTINUOUS
 62
     1
 10
1533.762218677
 20
503.143086418
 30
0.0
 11
1565.262218677
 21
503.143086418
 31
0.0
  0
LINE
  8
0
  6
CONTINUOUS
 62
     1
 10
1520.762218677
 20
584.643086418
 30
0.0
 11
1520.762218677
 21
609.643086418
 31
0.0
  0
LINE
  8
0
  6
CONTINUOUS
 62
     1
 10
1577.762218677
 20
574.143086418
 30
0.0
 11
1537.762218677
 21
569.23486705
 31
0.0
  0
LINE
  8
0
  6
CONTINUOUS
 62
     1
 10
1577.762218677
 20
620.143086418
 30
0.0
 11
1538.262218677
 21
624.989953044
 31
0.0
  0
LINE
  8
0
  6
CONTINUOUS
 62
     1
 10
1527.762218677
 20
531.143086418
 30
0.0
 11
1527.762218677
 21
553.949850129
 31
0.0
  0
ARC
  8
0
  6
CONTINUOUS
 62
     1
 10
1535.762218677
 20
544.143086418
 30
0.0
 40
9.0
 50
202.863808572
 51
155.613899803
  0
LINE
  8
0
  6
LTYPE3
 62
     2
 10
1521.762218677
 20
650.143086418
 30
0.0
 11
1548.262218677
 21
650.143086418
 31
0.0
  0
LINE
  8
0
  6
LTYPE3
 62
     2
 10
1535.762218677
 20
635.643086418
 30
0.0
 11
1535.762218677
 21
662.643086418
 31
0.0
  0
LINE
  8
0
  6
LTYPE3
 62
     2
 10
1535.762218677
 20
558.143086418
 30
0.0
 11
1535.762218677
 21
531.643086418
 31
0.0
  0
LINE
  8
0
  6
LTYPE3
 62
     2
 10
1521.262218677
 20
544.143086418
 30
0.0
 11
1548.262218677
 21
544.143086418
 31
0.0
  0
LINE
  8
0
  6
LTYPE3
 62
     2
 10
1527.762218677
 20
474.443086418
 30
0.0
 11
1527.762218677
 21
493.143086418
 31
0.0
  0
LINE
  8
0
  6
LTYPE1
 62
     2
 10
1547.762218677
 20
584.643086418
 30
0.0
 11
1577.762218677
 21
584.643086418
 31
0.0
  0
LINE
  8
0
  6
LTYPE1
 62
     2
 10
1547.762218677
 20
609.643086418
 30
0.0
 11
1577.762218677
 21
609.643086418
 31
0.0
  0
LINE
  8
0
  6
LTYPE1
 62
     2
 10
1547.762218677
 20
584.643086418
 30
0.0
 11
1547.762218677
 21
609.643086418
 31
0.0
  0
LINE
  8
0
  6
CONTINUOUS
 62
     1
 10
1584.762218677
 20
494.143086418
 30
0.0
 11
1533.762218677
 21
494.143086418
 31
0.0
  0
ARC
  8
0
  6
CONTINUOUS
 62
     1
 10
1528.762218677
 20
773.143086418
 30
0.0
 40
9.0
 50
278.674045508
 51
81.325934821
  0
LINE
  8
0
  6
CONTINUOUS
 62
     2
 10
1525.762218677
 20
790.143086418
 30
0.0
 11
1525.762218677
 21
754.143086418
 31
0.0
  0
LINE
  8
0
  6
CONTINUOUS
 62
     1
 10
1526.762218677
 20
789.243086418
 30
0.0
 11
1524.762218677
 21
789.243086418
 31
0.0
  0
LINE
  8
0
  6
CONTINUOUS
 62
     1
 10
1524.762218677
 20
789.243086418
 30
0.0
 11
1522.762218677
 21
777.643086419
 31
0.0
  0
LINE
  8
0
  6
CONTINUOUS
 62
     1
 10
1526.762218677
 20
789.243086418
 30
0.0
 11
1528.762218677
 21
777.643086419
 31
0.0
  0
LINE
  8
0
  6
CONTINUOUS
 62
     1
 10
1526.762218677
 20
757.043086418
 30
0.0
 11
1524.762218677
 21
757.043086418
 31
0.0
  0
LINE
  8
0
  6
CONTINUOUS
 62
     1
 10
1524.762218677
 20
757.043086418
 30
0.0
 11
1522.762218677
 21
768.643086418
 31
0.0
  0
LINE
  8
0
  6
CONTINUOUS
 62
     1
 10
1526.762218677
 20
757.043086418
 30
0.0
 11
1528.762218677
 21
768.643086418
 31
0.0
  0
ARC
  8
0
  6
CONTINUOUS
 62
     1
 10
1532.381783894
 20
796.868573719
 30
0.0
 40
15.0
 50
205.554693785
 51
235.747997449
  0
ARC
  8
0
  6
CONTINUOUS
 62
     1
 10
1532.381783894
 20
796.868573719
 30
0.0
 40
15.0
 50
252.681090544
 51
261.325827457
  0
ARC
  8
0
  6
CONTINUOUS
 62
     1
 10
1532.381783894
 20
749.417599118
 30
0.0
 40
15.0
 50
124.468179449
 51
154.445306215
  0
ARC
  8
0
  6
CONTINUOUS
 62
     1
 10
1532.381783894
 20
749.417599118
 30
0.0
 40
15.0
 50
98.674172543
 51
107.318909456
  0
CIRCLE
  8
0
  6
CONTINUOUS
 62
     1
 10
1525.762218677
 20
773.143086418
 30
0.0
 40
3.0
  0
LINE
  8
0
  6
CONTINUOUS
 62
     1
 10
1522.783523379
 20
777.766653691
 30
0.0
 11
1522.740913975
 21
768.519519146
 31
0.0
  0
LINE
  8
0
  6
CONTINUOUS
 62
     1
 10
1528.783523378
 20
768.519519146
 30
0.0
 11
1528.740913974
 21
777.766653691
 31
0.0
  0
ARC
  8
0
  6
CONTINUOUS
 62
     1
 10
1525.762218677
 20
773.143086418
 30
0.0
 40
5.5
 50
304.570397879
 51
57.208673154
  0
ARC
  8
0
  6
CONTINUOUS
 62
     1
 10
1525.762218677
 20
773.143086418
 30
0.0
 40
5.5
 50
122.791326846
 51
235.429602121
  0
ARC
  8
0
  6
CONTINUOUS
 62
     1
 10
1524.762218677
 20
902.163132307
 30
0.0
 40
2.0
 50
0.0
 51
90.0
  0
ARC
  8
0
  6
CONTINUOUS
 62
     1
 10
1524.762218677
 20
906.163132307
 30
0.0
 40
2.0
 50
0.0
 51
90.0
  0
LINE
  8
0
  6
CONTINUOUS
 62
     1
 10
1518.762218677
 20
860.143086418
 30
0.0
 11
1524.762218677
 21
860.143086418
 31
0.0
  0
LINE
  8
0
  6
CONTINUOUS
 62
     1
 10
1526.762218677
 20
862.143086418
 30
0.0
 11
1526.762218677
 21
906.163132307
 31
0.0
  0
ARC
  8
0
  6
CONTINUOUS
 62
     1
 10
1524.762218677
 20
862.143086418
 30
0.0
 40
2.0
 50
270.0
 51
0.0
  0
LINE
  8
0
  6
CONTINUOUS
 62
     1
 10
1518.762218677
 20
860.143086418
 30
0.0
 11
1518.762218677
 21
899.143086418
 31
0.0
  0
LINE
  8
0
  6
LTYPE2
 62
     2
 10
1532.762218677
 20
823.143086418
 30
0.0
 11
1548.762218677
 21
839.143086418
 31
0.0
  0
LINE
  8
0
  6
CONTINUOUS
 62
     1
 10
1536.098528124
 20
840.139649904
 30
0.0
 11
1546.098528124
 21
840.139649904
 31
0.0
  0
LINE
  8
0
  6
CONTINUOUS
 62
     1
 10
1546.098528124
 20
840.139649904
 30
0.0
 11
1551.098528124
 21
831.479395866
 31
0.0
  0
LINE
  8
0
  6
CONTINUOUS
 62
     1
 10
1551.098528124
 20
831.479395866
 30
0.0
 11
1546.098528124
 21
822.819141829
 31
0.0
  0
LINE
  8
0
  6
CONTINUOUS
 62
     1
 10
1546.098528124
 20
822.819141829
 30
0.0
 11
1536.098528124
 21
822.819141829
 31
0.0
  0
LINE
  8
0
  6
CONTINUOUS
 62
     1
 10
1536.098528124
 20
822.819141829
 30
0.0
 11
1531.098528124
 21
831.479395866
 31
0.0
  0
LINE
  8
0
  6
CONTINUOUS
 62
     1
 10
1531.098528124
 20
831.479395866
 30
0.0
 11
1536.098528124
 21
840.139649904
 31
0.0
  0
LINE
  8
0
  6
LTYPE2
 62
     2
 10
1532.762218677
 20
723.143086418
 30
0.0
 11
1548.762218677
 21
707.143086418
 31
0.0
  0
LINE
  8
0
  6
CONTINUOUS
 62
     1
 10
1536.098528124
 20
706.146522933
 30
0.0
 11
1546.098528124
 21
706.146522933
 31
0.0
  0
LINE
  8
0
  6
CONTINUOUS
 62
     1
 10
1546.098528124
 20
706.146522933
 30
0.0
 11
1551.098528124
 21
714.806776971
 31
0.0
  0
LINE
  8
0
  6
CONTINUOUS
 62
     1
 10
1551.098528124
 20
714.806776971
 30
0.0
 11
1546.098528124
 21
723.467031008
 31
0.0
  0
LINE
  8
0
  6
CONTINUOUS
 62
     1
 10
1546.098528124
 20
723.467031008
 30
0.0
 11
1536.098528124
 21
723.467031008
 31
0.0
  0
LINE
  8
0
  6
CONTINUOUS
 62
     1
 10
1536.098528124
 20
723.467031008
 30
0.0
 11
1531.098528124
 21
714.806776971
 31
0.0
  0
LINE
  8
0
  6
CONTINUOUS
 62
     1
 10
1531.098528124
 20
714.806776971
 30
0.0
 11
1536.098528124
 21
706.146522933
 31
0.0
  0
ARC
  8
0
  6
LTYPE2
 62
     2
 10
1482.762218677
 20
773.143086418
 30
0.0
 40
82.5
 50
300.927939213
 51
327.087998905
  0
ARC
  8
0
  6
LTYPE2
 62
     2
 10
1482.762218677
 20
773.143086418
 30
0.0
 40
82.5
 50
35.204140887
 51
56.44447448
  0
ARC
  8
0
  6
CONTINUOUS
 62
     1
 10
1482.762218677
 20
773.143086418
 30
0.0
 40
110.0
 50
32.763757759
 51
66.421821522
  0
LINE
  8
0
  6
CONTINUOUS
 62
     1
 10
1577.762218677
 20
574.143086418
 30
0.0
 11
1577.762218677
 21
620.143086418
 31
0.0
  0
LINE
  8
0
  6
CONTINUOUS
 62
     1
 10
1575.262218677
 20
513.143086418
 30
0.0
 11
1575.262218677
 21
573.836322708
 31
0.0
  0
ARC
  8
0
  6
CONTINUOUS
 62
     1
 10
1584.762218677
 20
738.143086418
 30
0.0
 40
8.0
 50
0.0
 51
90.0
  0
LINE
  8
0
  6
CONTINUOUS
 62
     1
 10
1584.762218677
 20
746.143086418
 30
0.0
 11
1577.962218677
 21
746.143086418
 31
0.0
  0
ARC
  8
0
  6
CONTINUOUS
 62
     1
 10
1584.762218677
 20
502.143086418
 30
0.0
 40
8.0
 50
270.0
 51
0.0
  0
LINE
  8
0
  6
CONTINUOUS
 62
     1
 10
1575.262218677
 20
808.143086418
 30
0.0
 11
1575.262218677
 21
832.672490917
 31
0.0
  0
LINE
  8
0
  6
CONTINUOUS
 62
     1
 10
1575.262218677
 20
620.449850129
 30
0.0
 11
1575.262218677
 21
740.143086418
 31
0.0
  0
LINE
  8
0
  6
CONTINUOUS
 62
     2
 10
1577.762218677
 20
570.37
 30
0.0
 11
1577.762218677
 21
347.269707486
 31
0.0
  0
LINE
  8
0
  6
CONTINUOUS
 62
     2
 10
1575.262218677
 20
504.33
 30
0.0
 11
1575.262218677
 21
398.143086418
 31
0.0
  0
LINE
  8
0
  6
CONTINUOUS
 62
     2
 10
1523.552218677
 20
910.143086418
 30
0.0
 11
1667.95968984
 21
910.143086418
 31
0.0
  0
LINE
  8
0
  6
CONTINUOUS
 62
     2
 10
1537.762218677
 20
478.143086418
 30
0.0
 11
1628.95968984
 21
478.143086418
 31
0.0
  0
LINE
  8
0
  6
CONTINUOUS
 62
     1
 10
1533.062218677
 20
478.143086418
 30
0.0
 11
1522.462218677
 21
478.143086418
 31
0.0
  0
ARC
  8
0
  6
CONTINUOUS
 62
     1
 10
1528.162218677
 20
479.143086418
 30
0.0
 40
5.0
 50
272.3
 51
348.5
  0
ARC
  8
0
  6
CONTINUOUS
 62
     1
 10
1527.362218677
 20
479.143086418
 30
0.0
 40
5.0
 50
191.5
 51
267.7
  0
LINE
  8
0
  6
CONTINUOUS
 62
     1
 10
1528.362218677
 20
474.143086418
 30
0.0
 11
1527.162218677
 21
474.143086418
 31
0.0
  0
LINE
  8
0
  6
LTYPE5
 62
     2
 10
1527.762218677
 20
470.743086418
 30
0.0
 11
1527.762218677
 21
484.143086418
 31
0.0
  0
LINE
  8
0
  6
CONTINUOUS
 62
     2
 10
1623.95968984
 20
478.143086418
 30
0.0
 11
1627.194927903
 21
490.217159247
 31
0.0
  0
LINE
  8
0
  6
CONTINUOUS
 62
     2
 10
1623.95968984
 20
478.143086418
 30
0.0
 11
1620.724451776
 21
490.217159247
 31
0.0
  0
LINE
  8
0
  6
CONTINUOUS
 62
     2
 10
1628.95968984
 20
478.143086418
 30
0.0
 11
1669.80968984
 21
478.143086418
 31
0.0
  0
LINE
  8
0
  6
CONTINUOUS
 62
     2
 10
1623.95968984
 20
478.143086418
 30
0.0
 11
1623.95968984
 21
597.143086418
 31
0.0
  0
LINE
  8
0
  6
CONTINUOUS
 62
     2
 10
1623.95968984
 20
597.143086418
 30
0.0
 11
1620.724451776
 21
585.06901359
 31
0.0
  0
LINE
  8
0
  6
CONTINUOUS
 62
     2
 10
1623.95968984
 20
597.143086418
 30
0.0
 11
1627.194927903
 21
585.06901359
 31
0.0
  0
LINE
  8
0
  6
CONTINUOUS
 62
     2
 10
1603.862218677
 20
597.143086418
 30
0.0
 11
1628.95968984
 21
597.143086418
 31
0.0
  0
LINE
  8
0
  6
CONTINUOUS
 62
     2
 10
1623.95968984
 20
597.143086418
 30
0.0
 11
1627.194927903
 21
609.217159247
 31
0.0
  0
LINE
  8
0
  6
CONTINUOUS
 62
     2
 10
1623.95968984
 20
597.143086418
 30
0.0
 11
1620.724451776
 21
609.217159247
 31
0.0
  0
LINE
  8
0
  6
CONTINUOUS
 62
     2
 10
1623.95968984
 20
597.143086418
 30
0.0
 11
1623.95968984
 21
773.143086418
 31
0.0
  0
LINE
  8
0
  6
CONTINUOUS
 62
     2
 10
1623.95968984
 20
773.143086418
 30
0.0
 11
1620.724451776
 21
761.06901359
 31
0.0
  0
LINE
  8
0
  6
CONTINUOUS
 62
     2
 10
1623.95968984
 20
773.143086418
 30
0.0
 11
1627.194927903
 21
761.06901359
 31
0.0
  0
LINE
  8
0
  6
CONTINUOUS
 62
     2
 10
1603.262218677
 20
773.143086418
 30
0.0
 11
1628.95968984
 21
773.143086418
 31
0.0
  0
LINE
  8
0
  6
CONTINUOUS
 62
     1
 10
1592.762218677
 20
502.143086418
 30
0.0
 11
1592.762218677
 21
738.143086418
 31
0.0
  0
TEXT
  8
0
  6
CONTINUOUS
 62
     2
 10
1618.95968984
 20
515.143086418
 30
1.8
 40
18.0
  1
１１９
 50
90.0
 41
0.933333333
 51
0.0
  7
KANJI40
  0
TEXT
  8
0
  6
CONTINUOUS
 62
     2
 10
1618.95968984
 20
662.643086418
 30
1.8
 40
18.0
  1
１７６
 50
90.0
 41
0.933333333
 51
0.0
  7
KANJI40
  0
LINE
  8
0
  6
CONTINUOUS
 62
     2
 10
1623.95968984
 20
773.143086418
 30
0.0
 11
1627.841975516
 21
787.631973813
 31
0.0
  0
LINE
  8
0
  6
CONTINUOUS
 62
     2
 10
1623.95968984
 20
773.143086418
 30
0.0
 11
1620.077404163
 21
787.631973813
 31
0.0
  0
LINE
  8
0
  6
CONTINUOUS
 62
     2
 10
1657.95968984
 20
478.143086418
 30
0.0
 11
1661.841975516
 21
492.631973813
 31
0.0
  0
LINE
  8
0
  6
CONTINUOUS
 62
     2
 10
1657.95968984
 20
478.143086418
 30
0.0
 11
1654.077404163
 21
492.631973813
 31
0.0
  0
LINE
  8
0
  6
CONTINUOUS
 62
     2
 10
1623.95968984
 20
910.143086418
 30
0.0
 11
1620.077404163
 21
895.654199024
 31
0.0
  0
LINE
  8
0
  6
CONTINUOUS
 62
     2
 10
1623.95968984
 20
910.143086418
 30
0.0
 11
1627.841975516
 21
895.654199024
 31
0.0
  0
LINE
  8
0
  6
CONTINUOUS
 62
     2
 10
1657.95968984
 20
910.143086418
 30
0.0
 11
1654.077404163
 21
895.654199024
 31
0.0
  0
LINE
  8
0
  6
CONTINUOUS
 62
     2
 10
1657.95968984
 20
910.143086418
 30
0.0
 11
1661.841975516
 21
895.654199024
 31
0.0
  0
LINE
  8
0
  6
CONTINUOUS
 62
     2
 10
1666.45968984
 20
910.143086418
 30
0.0
 11
1666.95968984
 21
910.143086418
 31
0.0
  0
LINE
  8
0
  6
CONTINUOUS
 62
     2
 10
1623.95968984
 20
773.143086418
 30
0.0
 11
1623.95968984
 21
910.143086418
 31
0.0
  0
LINE
  8
0
  6
CONTINUOUS
 62
     2
 10
1657.95968984
 20
478.143086418
 30
0.0
 11
1657.95968984
 21
910.143086418
 31
0.0
  0
TEXT
  8
0
  6
CONTINUOUS
 62
     2
 10
1617.95968984
 20
830.143086418
 30
1.2
 40
18.0
  1
１３７
 50
90.0
 41
0.9
 51
0.0
  7
KANJI49
  0
TEXT
  8
0
  6
CONTINUOUS
 62
     2
 10
1651.95968984
 20
682.643086418
 30
1.2
 40
18.0
  1
４３２
 50
90.0
 41
0.9
 51
0.0
  7
KANJI49
  0
LINE
  8
0
  6
CONTINUOUS
 62
     2
 10
1705.32
 20
696.0
 30
0.0
 11
1849.32
 21
696.0
 31
0.0
  0
TEXT
  8
0
  6
CONTINUOUS
 62
     2
 10
1711.92
 20
562.2
 30
5.985
 40
21.0
  1
　　カム式位置リミットスイッチ：　４点　　　２点
 50
0.0
 41
0.857222222
 51
0.0
  7
KANJI50
  0
TEXT
  8
0
  6
CONTINUOUS
 62
     2
 10
1711.92
 20
667.2
 30
6.0
 40
21.0
  1
１．運転時は必ずピストンロッドの回転防止を行って下さい。
 50
0.0
 41
0.857142857
 51
0.0
  7
KANJI51
  0
TEXT
  8
0
  6
CONTINUOUS
 62
     2
 10
1711.92
 20
592.2
 30
5.985
 40
21.0
  1
３．ポジショナ
 50
0.0
 41
0.857222222
 51
0.0
  7
KANJI50
  0
TEXT
  8
0
  6
CONTINUOUS
 62
     2
 10
1711.92
 20
629.7
 30
5.985
 40
21.0
  1
２．モートル：全閉自冷かご形３０分定格
 50
0.0
 41
0.857222222
 51
0.0
  7
KANJI50
  0
TEXT
  8
0
  6
CONTINUOUS
 62
     2
 10
1711.92
 20
530.4
 30
5.985
 40
21.0
  1
４．呼称ストロークは、機械的ストロークです。
 50
0.0
 41
0.857222222
 51
0.0
  7
KANJI50
  0
TEXT
  8
0
  6
CONTINUOUS
 62
     2
 10
1717.92
 20
704.4
 30
12.0
 40
24.0
  1
特記事項
 50
0.0
 41
0.9
 51
0.0
  7
KANJI52
  0
TEXT
  8
0
  6
CONTINUOUS
 62
     2
 10
1711.92
 20
464.4
 30
5.985
 40
21.0
  1
　　前後の推奨余裕寸法は、各々１５ｍｍです。
 50
0.0
 41
0.857222222
 51
0.0
  7
KANJI50
  0
LINE
  8
0
  6
CONTINUOUS
 62
     2
 10
1575.262218677
 20
403.143086418
 30
0.0
 11
1563.188145848
 21
406.378324482
 31
0.0
  0
LINE
  8
0
  6
CONTINUOUS
 62
     2
 10
1575.262218677
 20
403.143086418
 30
0.0
 11
1563.188145848
 21
399.907848355
 31
0.0
  0
LINE
  8
0
  6
CONTINUOUS
 62
     2
 10
1577.762218677
 20
352.269707486
 30
0.0
 11
1565.688145848
 21
355.50494555
 31
0.0
  0
LINE
  8
0
  6
CONTINUOUS
 62
     2
 10
1577.762218677
 20
352.269707486
 30
0.0
 11
1565.688145848
 21
349.034469422
 31
0.0
  0
LINE
  8
0
  6
CONTINUOUS
 62
     2
 10
392.362218677
 20
355.393086418
 30
0.0
 11
406.851106071
 21
359.275372095
 31
0.0
  0
LINE
  8
0
  6
CONTINUOUS
 62
     2
 10
392.362218677
 20
355.393086418
 30
0.0
 11
406.851106071
 21
351.510800742
 31
0.0
  0
LINE
  8
0
  6
CONTINUOUS
 62
     2
 10
392.362218677
 20
303.830586418
 30
0.0
 11
406.851106071
 21
299.948300742
 31
0.0
  0
LINE
  8
0
  6
CONTINUOUS
 62
     2
 10
392.362218677
 20
303.830586418
 30
0.0
 11
406.851106071
 21
307.712872095
 31
0.0
  0
TEXT
  8
0
  6
CONTINUOUS
 62
     2
 10
1237.32
 20
1432.08
 30
1.44
 40
14.4
  1
　２００
 50
0.0
 41
0.9
 51
0.0
  7
KANJI19
  0
TEXT
  8
0
  6
CONTINUOUS
 62
     2
 10
1237.32
 20
1398.48
 30
1.44
 40
14.4
  1
　３００
 50
0.0
 41
0.9
 51
0.0
  7
KANJI19
  0
TEXT
  8
0
  6
CONTINUOUS
 62
     2
 10
1237.32
 20
1264.08
 30
1.44
 40
14.4
  1
　７００
 50
0.0
 41
0.9
 51
0.0
  7
KANJI19
  0
TEXT
  8
0
  6
CONTINUOUS
 62
     2
 10
1237.32
 20
1331.28
 30
1.44
 40
14.4
  1
　５００
 50
0.0
 41
0.9
 51
0.0
  7
KANJI19
  0
TEXT
  8
0
  6
CONTINUOUS
 62
     2
 10
1237.32
 20
1364.88
 30
1.44
 40
14.4
  1
　４００
 50
0.0
 41
0.9
 51
0.0
  7
KANJI19
  0
TEXT
  8
0
  6
CONTINUOUS
 62
     2
 10
1237.32
 20
1297.68
 30
1.44
 40
14.4
  1
　６００
 50
0.0
 41
0.9
 51
0.0
  7
KANJI19
  0
TEXT
  8
0
  6
CONTINUOUS
 62
     2
 10
1237.32
 20
1230.48
 30
1.44
 40
14.4
  1
　８００
 50
0.0
 41
0.9
 51
0.0
  7
KANJI19
  0
TEXT
  8
0
  6
CONTINUOUS
 62
     2
 10
1237.32
 20
1196.88
 30
1.44
 40
14.4
  1
　９００
 50
0.0
 41
0.9
 51
0.0
  7
KANJI19
  0
TEXT
  8
0
  6
CONTINUOUS
 62
     2
 10
1237.32
 20
1163.28
 30
1.44
 40
14.4
  1
１０００
 50
0.0
 41
0.9
 51
0.0
  7
KANJI19
  0
TEXT
  8
0
  6
CONTINUOUS
 62
     2
 10
1621.32
 20
1432.08
 30
1.44
 40
14.4
  1
　　４５
 50
0.0
 41
0.9
 51
0.0
  7
KANJI19
  0
TEXT
  8
0
  6
CONTINUOUS
 62
     2
 10
1621.32
 20
1398.48
 30
1.44
 40
14.4
  1
　　４５
 50
0.0
 41
0.9
 51
0.0
  7
KANJI19
  0
TEXT
  8
0
  6
CONTINUOUS
 62
     2
 10
1621.32
 20
1364.88
 30
1.44
 40
14.4
  1
　　８５
 50
0.0
 41
0.9
 51
0.0
  7
KANJI19
  0
TEXT
  8
0
  6
CONTINUOUS
 62
     2
 10
1621.32
 20
1331.28
 30
1.44
 40
14.4
  1
　１１２
 50
0.0
 41
0.9
 51
0.0
  7
KANJI19
  0
TEXT
  8
0
  6
CONTINUOUS
 62
     2
 10
1621.32
 20
1297.68
 30
1.44
 40
14.4
  1
　１２８
 50
0.0
 41
0.9
 51
0.0
  7
KANJI19
  0
TEXT
  8
0
  6
CONTINUOUS
 62
     2
 10
1621.32
 20
1264.08
 30
1.44
 40
14.4
  1
　１４８
 50
0.0
 41
0.9
 51
0.0
  7
KANJI19
  0
TEXT
  8
0
  6
CONTINUOUS
 62
     2
 10
1621.32
 20
1230.48
 30
1.44
 40
14.4
  1
　１６８
 50
0.0
 41
0.9
 51
0.0
  7
KANJI19
  0
TEXT
  8
0
  6
CONTINUOUS
 62
     2
 10
1621.32
 20
1196.88
 30
1.44
 40
14.4
  1
　１９８
 50
0.0
 41
0.9
 51
0.0
  7
KANJI19
  0
TEXT
  8
0
  6
CONTINUOUS
 62
     2
 10
1621.32
 20
1163.28
 30
1.44
 40
14.4
  1
　２３１
 50
0.0
 41
0.9
 51
0.0
  7
KANJI19
  0
TEXT
  8
0
  6
CONTINUOUS
 62
     2
 10
1525.32
 20
1432.08
 30
1.44
 40
14.4
  1
　４４１
 50
0.0
 41
0.9
 51
0.0
  7
KANJI19
  0
TEXT
  8
0
  6
CONTINUOUS
 62
     2
 10
1525.32
 20
1398.48
 30
1.44
 40
14.4
  1
　５４１
 50
0.0
 41
0.9
 51
0.0
  7
KANJI19
  0
TEXT
  8
0
  6
CONTINUOUS
 62
     2
 10
1525.32
 20
1364.88
 30
1.44
 40
14.4
  1
　６４１
 50
0.0
 41
0.9
 51
0.0
  7
KANJI19
  0
TEXT
  8
0
  6
CONTINUOUS
 62
     2
 10
1525.32
 20
1331.28
 30
1.44
 40
14.4
  1
　７４１
 50
0.0
 41
0.9
 51
0.0
  7
KANJI19
  0
TEXT
  8
0
  6
CONTINUOUS
 62
     2
 10
1525.32
 20
1297.68
 30
1.44
 40
14.4
  1
　８８１
 50
0.0
 41
0.9
 51
0.0
  7
KANJI19
  0
TEXT
  8
0
  6
CONTINUOUS
 62
     2
 10
1525.32
 20
1264.08
 30
1.44
 40
14.4
  1
　９８１
 50
0.0
 41
0.9
 51
0.0
  7
KANJI19
  0
TEXT
  8
0
  6
CONTINUOUS
 62
     2
 10
1525.32
 20
1230.48
 30
1.44
 40
14.4
  1
１０８１
 50
0.0
 41
0.9
 51
0.0
  7
KANJI19
  0
TEXT
  8
0
  6
CONTINUOUS
 62
     2
 10
1525.32
 20
1196.88
 30
1.44
 40
14.4
  1
１１８１
 50
0.0
 41
0.9
 51
0.0
  7
KANJI19
  0
TEXT
  8
0
  6
CONTINUOUS
 62
     2
 10
1525.32
 20
1163.28
 30
1.44
 40
14.4
  1
１２８１
 50
0.0
 41
0.9
 51
0.0
  7
KANJI19
  0
TEXT
  8
0
  6
CONTINUOUS
 62
     2
 10
1429.32
 20
1432.08
 30
1.44
 40
14.4
  1
　５３６
 50
0.0
 41
0.9
 51
0.0
  7
KANJI19
  0
TEXT
  8
0
  6
CONTINUOUS
 62
     2
 10
1429.32
 20
1398.48
 30
1.44
 40
14.4
  1
　６３６
 50
0.0
 41
0.9
 51
0.0
  7
KANJI19
  0
TEXT
  8
0
  6
CONTINUOUS
 62
     2
 10
1429.32
 20
1364.88
 30
1.44
 40
14.4
  1
　７７６
 50
0.0
 41
0.9
 51
0.0
  7
KANJI19
  0
TEXT
  8
0
  6
CONTINUOUS
 62
     2
 10
1429.32
 20
1331.28
 30
1.44
 40
14.4
  1
　９０３
 50
0.0
 41
0.9
 51
0.0
  7
KANJI19
  0
TEXT
  8
0
  6
CONTINUOUS
 62
     2
 10
1429.32
 20
1297.68
 30
1.44
 40
14.4
  1
１０５９
 50
0.0
 41
0.9
 51
0.0
  7
KANJI19
  0
TEXT
  8
0
  6
CONTINUOUS
 62
     2
 10
1429.32
 20
1264.08
 30
1.44
 40
14.4
  1
１１７９
 50
0.0
 41
0.9
 51
0.0
  7
KANJI19
  0
TEXT
  8
0
  6
CONTINUOUS
 62
     2
 10
1429.32
 20
1230.48
 30
1.44
 40
14.4
  1
１２９９
 50
0.0
 41
0.9
 51
0.0
  7
KANJI19
  0
TEXT
  8
0
  6
CONTINUOUS
 62
     2
 10
1429.32
 20
1163.28
 30
1.44
 40
14.4
  1
１５６２
 50
0.0
 41
0.9
 51
0.0
  7
KANJI19
  0
TEXT
  8
0
  6
CONTINUOUS
 62
     2
 10
1429.32
 20
1196.88
 30
1.44
 40
14.4
  1
１４２９
 50
0.0
 41
0.9
 51
0.0
  7
KANJI19
  0
LINE
  8
0
  6
CONTINUOUS
 62
     2
 10
1014.12
 20
1424.04
 30
0.0
 11
1791.72
 21
1424.04
 31
0.0
  0
LINE
  8
0
  6
CONTINUOUS
 62
     2
 10
1014.12
 20
1390.44
 30
0.0
 11
1791.72
 21
1390.44
 31
0.0
  0
LINE
  8
0
  6
CONTINUOUS
 62
     2
 10
1014.12
 20
1188.84
 30
0.0
 11
1791.72
 21
1188.84
 31
0.0
  0
LINE
  8
0
  6
CONTINUOUS
 62
     2
 10
1014.12
 20
1222.44
 30
0.0
 11
1791.72
 21
1222.44
 31
0.0
  0
LINE
  8
0
  6
CONTINUOUS
 62
     2
 10
1014.12
 20
1155.24
 30
0.0
 11
1791.72
 21
1155.24
 31
0.0
  0
LINE
  8
0
  6
CONTINUOUS
 62
     2
 10
1014.12
 20
1323.24
 30
0.0
 11
1791.72
 21
1323.24
 31
0.0
  0
LINE
  8
0
  6
CONTINUOUS
 62
     2
 10
1014.12
 20
1356.84
 30
0.0
 11
1791.72
 21
1356.84
 31
0.0
  0
LINE
  8
0
  6
CONTINUOUS
 62
     2
 10
1014.12
 20
1256.04
 30
0.0
 11
1791.72
 21
1256.04
 31
0.0
  0
LINE
  8
0
  6
CONTINUOUS
 62
     2
 10
1014.12
 20
1289.64
 30
0.0
 11
1791.72
 21
1289.64
 31
0.0
  0
TEXT
  8
0
  6
CONTINUOUS
 62
     2
 10
1717.32
 20
1331.28
 30
1.44
 40
14.4
  1
　７２
 50
0.0
 41
0.9
 51
0.0
  7
KANJI19
  0
TEXT
  8
0
  6
CONTINUOUS
 62
     2
 10
1717.32
 20
1432.08
 30
1.44
 40
14.4
  1
　７２
 50
0.0
 41
0.9
 51
0.0
  7
KANJI19
  0
TEXT
  8
0
  6
CONTINUOUS
 62
     2
 10
1717.32
 20
1398.48
 30
1.44
 40
14.4
  1
　７４
 50
0.0
 41
0.9
 51
0.0
  7
KANJI19
  0
TEXT
  8
0
  6
CONTINUOUS
 62
     2
 10
1717.32
 20
1364.88
 30
1.44
 40
14.4
  1
　７７
 50
0.0
 41
0.9
 51
0.0
  7
KANJI19
  0
TEXT
  8
0
  6
CONTINUOUS
 62
     2
 10
1717.32
 20
1297.68
 30
1.44
 40
14.4
  1
　７９
 50
0.0
 41
0.9
 51
0.0
  7
KANJI19
  0
TEXT
  8
0
  6
CONTINUOUS
 62
     2
 10
1717.32
 20
1264.08
 30
1.44
 40
14.4
  1
　８８
 50
0.0
 41
0.9
 51
0.0
  7
KANJI19
  0
TEXT
  8
0
  6
CONTINUOUS
 62
     2
 10
1717.32
 20
1230.48
 30
1.44
 40
14.4
  1
　９１
 50
0.0
 41
0.9
 51
0.0
  7
KANJI19
  0
TEXT
  8
0
  6
CONTINUOUS
 62
     2
 10
1717.32
 20
1196.88
 30
1.44
 40
14.4
  1
　９４
 50
0.0
 41
0.9
 51
0.0
  7
KANJI19
  0
TEXT
  8
0
  6
CONTINUOUS
 62
     2
 10
1717.32
 20
1163.28
 30
1.44
 40
14.4
  1
　９６
 50
0.0
 41
0.9
 51
0.0
  7
KANJI19
  0
TEXT
  8
0
  6
CONTINUOUS
 62
     2
 10
1029.72
 20
1431.72
 30
0.96
 40
14.4
  1
ＭＣＬＤ２Ｂ－　　２ＪＮ
 50
0.0
 41
0.833333333
 51
0.0
  7
KANJI53
  0
TEXT
  8
0
  6
CONTINUOUS
 62
     2
 10
1029.72
 20
1398.12
 30
0.96
 40
14.4
  1
ＭＣＬＤ２Ｂ－　　３ＪＮ
 50
0.0
 41
0.833333333
 51
0.0
  7
KANJI53
  0
TEXT
  8
0
  6
CONTINUOUS
 62
     2
 10
1029.72
 20
1364.52
 30
0.96
 40
14.4
  1
ＭＣＬＤ２Ｂ－　　４ＪＮ
 50
0.0
 41
0.833333333
 51
0.0
  7
KANJI53
  0
TEXT
  8
0
  6
CONTINUOUS
 62
     2
 10
1029.72
 20
1330.92
 30
0.96
 40
14.4
  1
ＭＣＬＤ２Ｂ－　　５ＪＮ
 50
0.0
 41
0.833333333
 51
0.0
  7
KANJI53
  0
TEXT
  8
0
  6
CONTINUOUS
 62
     2
 10
1029.72
 20
1297.32
 30
0.96
 40
14.4
  1
ＭＣＬＤ２Ｂ－　　６ＪＮ
 50
0.0
 41
0.833333333
 51
0.0
  7
KANJI53
  0
TEXT
  8
0
  6
CONTINUOUS
 62
     2
 10
1029.72
 20
1263.72
 30
0.96
 40
14.4
  1
ＭＣＬＤ２Ｂ－　　７ＪＮ
 50
0.0
 41
0.833333333
 51
0.0
  7
KANJI53
  0
TEXT
  8
0
  6
CONTINUOUS
 62
     2
 10
1029.72
 20
1230.12
 30
0.96
 40
14.4
  1
ＭＣＬＤ２Ｂ－　　８ＪＮ
 50
0.0
 41
0.833333333
 51
0.0
  7
KANJI53
  0
TEXT
  8
0
  6
CONTINUOUS
 62
     2
 10
1029.72
 20
1162.92
 30
0.96
 40
14.4
  1
ＭＣＬＤ２Ｂ－　１０ＪＮ
 50
0.0
 41
0.833333333
 51
0.0
  7
KANJI53
  0
TEXT
  8
0
  6
CONTINUOUS
 62
     2
 10
1029.72
 20
1196.52
 30
0.96
 40
14.4
  1
ＭＣＬＤ２Ｂ－　　９ＪＮ
 50
0.0
 41
0.833333333
 51
0.0
  7
KANJI53
  0
TEXT
  8
0
  6
CONTINUOUS
 62
     2
 10
1029.72
 20
1129.32
 30
0.96
 40
14.4
  1
ＭＣＬＤ２Ｂ－　　　ＪＮ
 50
0.0
 41
0.833333333
 51
0.0
  7
KANJI53
  0
TEXT
  8
0
  6
CONTINUOUS
 62
     2
 10
1333.32
 20
1432.08
 30
1.44
 40
14.4
  1
　９０３
 50
0.0
 41
0.9
 51
0.0
  7
KANJI19
  0
TEXT
  8
0
  6
CONTINUOUS
 62
     2
 10
1333.32
 20
1398.48
 30
1.44
 40
14.4
  1
１００３
 50
0.0
 41
0.9
 51
0.0
  7
KANJI19
  0
TEXT
  8
0
  6
CONTINUOUS
 62
     2
 10
1333.32
 20
1364.88
 30
1.44
 40
14.4
  1
１１４３
 50
0.0
 41
0.9
 51
0.0
  7
KANJI19
  0
TEXT
  8
0
  6
CONTINUOUS
 62
     2
 10
1333.32
 20
1331.28
 30
1.44
 40
14.4
  1
１２７０
 50
0.0
 41
0.9
 51
0.0
  7
KANJI19
  0
TEXT
  8
0
  6
CONTINUOUS
 62
     2
 10
1333.32
 20
1297.68
 30
1.44
 40
14.4
  1
１４２６
 50
0.0
 41
0.9
 51
0.0
  7
KANJI19
  0
TEXT
  8
0
  6
CONTINUOUS
 62
     2
 10
1333.32
 20
1264.08
 30
1.44
 40
14.4
  1
１５４６
 50
0.0
 41
0.9
 51
0.0
  7
KANJI19
  0
TEXT
  8
0
  6
CONTINUOUS
 62
     2
 10
1333.32
 20
1230.48
 30
1.44
 40
14.4
  1
１６６６
 50
0.0
 41
0.9
 51
0.0
  7
KANJI19
  0
TEXT
  8
0
  6
CONTINUOUS
 62
     2
 10
1333.32
 20
1196.88
 30
1.44
 40
14.4
  1
１７９６
 50
0.0
 41
0.9
 51
0.0
  7
KANJI19
  0
TEXT
  8
0
  6
CONTINUOUS
 62
     2
 10
1333.32
 20
1163.28
 30
1.44
 40
14.4
  1
１９２９
 50
0.0
 41
0.9
 51
0.0
  7
KANJI19
  0
LINE
  8
0
  6
CONTINUOUS
 62
     1
 10
1215.72
 20
1491.24
 30
0.0
 11
1215.72
 21
1121.64
 31
0.0
  0
LINE
  8
0
  6
CONTINUOUS
 62
     2
 10
1311.72
 20
1491.24
 30
0.0
 11
1311.72
 21
1121.64
 31
0.0
  0
LINE
  8
0
  6
CONTINUOUS
 62
     2
 10
1407.72
 20
1491.24
 30
0.0
 11
1407.72
 21
1121.64
 31
0.0
  0
LINE
  8
0
  6
CONTINUOUS
 62
     2
 10
1503.72
 20
1491.24
 30
0.0
 11
1503.72
 21
1121.64
 31
0.0
  0
LINE
  8
0
  6
CONTINUOUS
 62
     2
 10
1599.72
 20
1491.24
 30
0.0
 11
1599.72
 21
1121.64
 31
0.0
  0
LINE
  8
0
  6
CONTINUOUS
 62
     2
 10
1695.72
 20
1491.24
 30
0.0
 11
1695.72
 21
1121.64
 31
0.0
  0
LINE
  8
0
  6
CONTINUOUS
 62
     1
 10
1791.72
 20
1491.24
 30
0.0
 11
1791.72
 21
1121.64
 31
0.0
  0
LINE
  8
0
  6
CONTINUOUS
 62
     1
 10
1014.12
 20
1121.64
 30
0.0
 11
1791.72
 21
1121.64
 31
0.0
  0
LINE
  8
0
  6
CONTINUOUS
 62
     1
 10
1014.12
 20
1491.24
 30
0.0
 11
1014.12
 21
1121.64
 31
0.0
  0
TEXT
  8
0
  6
CONTINUOUS
 62
     3
 10
328.39555241
 20
871.363106018
 30
1.8
 40
18.0
  1
手動軸□８
 50
0.0
 41
0.9
 51
0.0
  7
KANJI54
  0
LINE
  8
0
  6
CONTINUOUS
 62
     1
 10
499.362218677
 20
759.143086418
 30
0.0
 11
499.362218677
 21
787.143086418
 31
0.0
  0
LINE
  8
0
  6
CONTINUOUS
 62
     1
 10
461.362218677
 20
787.143086418
 30
0.0
 11
503.362218677
 21
787.143086418
 31
0.0
  0
LINE
  8
0
  6
CONTINUOUS
 62
     1
 10
461.362218677
 20
759.143086418
 30
0.0
 11
461.362218677
 21
787.143086418
 31
0.0
  0
LINE
  8
0
  6
CONTINUOUS
 62
     1
 10
461.362218677
 20
759.143086418
 30
0.0
 11
503.362218677
 21
759.143086418
 31
0.0
  0
LINE
  8
0
  6
CONTINUOUS
 62
     1
 10
514.362218677
 20
751.143086418
 30
0.0
 11
503.362218677
 21
751.143086418
 31
0.0
  0
POLYLINE
  8
0
  6
CONTINUOUS
 62
     1
 66
     1
  0
VERTEX
  8
0
  6
CONTINUOUS
 62
     1
 10
503.362218677
 20
751.143086418
 30
0.0
  0
VERTEX
  8
0
  6
CONTINUOUS
 62
     1
 10
503.362218677
 20
813.143086418
 30
0.0
  0
VERTEX
  8
0
  6
CONTINUOUS
 62
     1
 10
579.362218677
 20
813.143086418
 30
0.0
  0
SEQEND
  0
LINE
  8
0
  6
CONTINUOUS
 62
     2
 10
461.362218677
 20
793.143086418
 30
0.0
 11
461.362218677
 21
980.143086418
 31
0.0
  0
LINE
  8
0
  6
CONTINUOUS
 62
     2
 10
461.362218677
 20
974.143086418
 30
0.0
 11
472.953328592
 21
971.037257877
 31
0.0
  0
LINE
  8
0
  6
CONTINUOUS
 62
     2
 10
461.362218677
 20
974.143086418
 30
0.0
 11
472.953328592
 21
977.24891496
 31
0.0
  0
LINE
  8
0
  6
CONTINUOUS
 62
     2
 10
461.362218677
 20
974.143086418
 30
0.0
 11
674.362218677
 21
974.143086418
 31
0.0
  0
LINE
  8
0
  6
CONTINUOUS
 62
     2
 10
674.362218677
 20
974.143086418
 30
0.0
 11
662.771108761
 21
977.24891496
 31
0.0
  0
LINE
  8
0
  6
CONTINUOUS
 62
     2
 10
674.362218677
 20
974.143086418
 30
0.0
 11
662.771108761
 21
971.037257877
 31
0.0
  0
LINE
  8
0
  6
CONTINUOUS
 62
     2
 10
674.362218677
 20
884.143086418
 30
0.0
 11
674.362218677
 21
980.143086418
 31
0.0
  0
TEXT
  8
0
  6
CONTINUOUS
 62
     3
 10
543.562218677
 20
983.143086418
 30
0.0
 40
18.0
  1
２１３
 50
0.0
 41
0.9
 51
0.0
  7
KANJI33
  0
LINE
  8
0
  6
CONTINUOUS
 62
     2
 10
674.362218677
 20
963.143086418
 30
0.0
 11
674.362218677
 21
980.143086418
 31
0.0
  0
LINE
  8
0
  6
CONTINUOUS
 62
     2
 10
674.362218677
 20
974.143086418
 30
0.0
 11
685.953328592
 21
971.037257877
 31
0.0
  0
LINE
  8
0
  6
CONTINUOUS
 62
     2
 10
674.362218677
 20
974.143086418
 30
0.0
 11
685.953328592
 21
977.24891496
 31
0.0
  0
LINE
  8
0
  6
CONTINUOUS
 62
     2
 10
674.362218677
 20
974.143086418
 30
0.0
 11
966.362218677
 21
974.143086418
 31
0.0
  0
LINE
  8
0
  6
CONTINUOUS
 62
     2
 10
966.362218677
 20
974.143086418
 30
0.0
 11
954.771108761
 21
977.24891496
 31
0.0
  0
LINE
  8
0
  6
CONTINUOUS
 62
     2
 10
966.362218677
 20
974.143086418
 30
0.0
 11
954.771108761
 21
971.037257877
 31
0.0
  0
TEXT
  8
0
  6
CONTINUOUS
 62
     3
 10
796.062218677
 20
983.143086418
 30
0.0
 40
18.0
  1
２９２
 50
0.0
 41
0.9
 51
0.0
  7
KANJI33
  0
LINE
  8
0
  6
CONTINUOUS
 62
     2
 10
966.362218677
 20
781.143086418
 30
0.0
 11
966.362218677
 21
980.143086418
 31
0.0
  0
LINE
  8
0
  6
LTYPE2
 62
     2
 10
456.762218677
 20
773.143086418
 30
0.0
 11
974.362218677
 21
773.143086418
 31
0.0
  0
LINE
  8
0
  6
CONTINUOUS
 62
     2
 10
877.603319123
 20
149.833311846
 30
0.0
 11
877.603319123
 21
94.233311846
 31
0.0
  0
LINE
  8
0
  6
CONTINUOUS
 62
     2
 10
718.403319123
 20
136.233311846
 30
0.0
 11
877.603319123
 21
136.233311846
 31
0.0
  0
LINE
  8
0
  6
CONTINUOUS
 62
     2
 10
877.603319123
 20
136.233311846
 30
0.0
 11
869.875912513
 21
138.303864207
 31
0.0
  0
LINE
  8
0
  6
CONTINUOUS
 62
     2
 10
877.603319123
 20
136.233311846
 30
0.0
 11
869.875912513
 21
134.162759485
 31
0.0
  0
TEXT
  8
0
  6
CONTINUOUS
 62
     3
 10
756.753319123
 20
138.233311846
 30
0.0
 40
15.0
  1
常用ストローク
 50
0.0
 41
0.9
 51
0.0
  7
KANJI48
  0
TEXT
  8
0
  6
CONTINUOUS
 62
     2
 10
309.062218677
 20
443.943086418
 30
1.8
 40
18.0
  1
ＰＦ１
 50
0.0
 41
0.666666667
 51
0.0
  7
KANJI55
  0
TEXT
  8
0
  6
CONTINUOUS
 62
     6
 10
537.12
 20
1653.9
 30
0.0
 40
180.0
  1
｝
 50
0.0
 41
0.216666667
 51
0.0
  7
KANJI56
  0
TEXT
  8
0
  6
CONTINUOUS
 62
     6
 10
522.128537984
 20
1576.523705827
 30
1.77482448
 40
18.98208
  1
電気定格　　　
 50
0.0
 41
0.85
 51
0.0
  7
KANJI57
  0
TEXT
  8
0
  6
CONTINUOUS
 62
     6
 10
540.562679411
 20
1532.497934761
 30
0.0
 40
16.8
  1
ＤＣ１２５Ｖ　０．６Ａ　，ＤＣ２５０Ｖ　０．３Ａ　
 50
0.0
 41
0.714285714
 51
0.0
  7
KANJI58
  0
TEXT
  8
0
  6
CONTINUOUS
 62
     6
 10
540.562679411
 20
1555.170696145
 30
0.0
 40
16.8
  1
ＡＣ１００Ｖ　１２５Ｖ　２５０Ｖ　－１０Ａ
 50
0.0
 41
0.714285714
 51
0.0
  7
KANJI58
  0
TEXT
  8
0
  6
CONTINUOUS
 62
     2
 10
1711.92
 20
496.2
 30
5.985
 40
21.0
  1
　　必ず、常用はストローク両端に余裕を取って下さい。
 50
0.0
 41
0.857222222
 51
0.0
  7
KANJI50
  0
LINE
  8
0
  6
CONTINUOUS
 62
     2
 10
1873.92
 20
896.7
 30
0.0
 11
2398.92
 21
896.7
 31
0.0
  0
LINE
  8
0
  6
CONTINUOUS
 62
     2
 10
1873.92
 20
854.7
 30
0.0
 11
2398.92
 21
854.7
 31
0.0
  0
LINE
  8
0
  6
CONTINUOUS
 62
     2
 10
1921.92
 20
1232.7
 30
0.0
 11
1921.92
 21
896.7
 31
0.0
  0
TEXT
  8
0
  6
CONTINUOUS
 62
     2
 10
1906.92
 20
865.5
 30
79.962857143
 40
22.8
  1
付属品
 50
0.0
 41
0.9
 51
0.0
  7
KANJI59
  0
TEXT
  8
0
  6
CONTINUOUS
 62
     2
 10
1906.92
 20
823.5
 30
180.445714286
 40
22.8
  1
台数
 50
0.0
 41
0.9
 51
0.0
  7
KANJI60
  0
LINE
  8
0
  6
CONTINUOUS
 62
     1
 10
1873.92
 20
1628.7
 30
0.0
 11
2398.92
 21
1628.7
 31
0.0
  0
TEXT
  8
0
  6
CONTINUOUS
 62
     2
 10
1948.92
 20
1584.9
 30
17.09964
 40
27.0
  1
マイティシリンダ仕様
 50
0.0
 41
0.9
 51
0.0
  7
KANJI61
  0
LINE
  8
0
  6
CONTINUOUS
 62
     2
 10
1921.92
 20
938.7
 30
0.0
 11
2398.92
 21
938.7
 31
0.0
  0
LINE
  8
0
  6
CONTINUOUS
 62
     2
 10
1921.92
 20
1064.7
 30
0.0
 11
2398.92
 21
1064.7
 31
0.0
  0
LINE
  8
0
  6
CONTINUOUS
 62
     2
 10
1921.92
 20
1106.7
 30
0.0
 11
2398.92
 21
1106.7
 31
0.0
  0
LINE
  8
0
  6
CONTINUOUS
 62
     2
 10
1873.92
 20
1316.7
 30
0.0
 11
2398.92
 21
1316.7
 31
0.0
  0
LINE
  8
0
  6
CONTINUOUS
 62
     2
 10
1873.92
 20
1274.7
 30
0.0
 11
2398.92
 21
1274.7
 31
0.0
  0
LINE
  8
0
  6
CONTINUOUS
 62
     2
 10
1873.92
 20
1232.7
 30
0.0
 11
2398.92
 21
1232.7
 31
0.0
  0
LINE
  8
0
  6
CONTINUOUS
 62
     2
 10
1921.92
 20
1148.7
 30
0.0
 11
2398.92
 21
1148.7
 31
0.0
  0
LINE
  8
0
  6
CONTINUOUS
 62
     2
 10
1921.92
 20
1190.7
 30
0.0
 11
2398.92
 21
1190.7
 31
0.0
  0
LINE
  8
0
  6
CONTINUOUS
 62
     2
 10
1873.92
 20
1526.7
 30
0.0
 11
2398.92
 21
1526.7
 31
0.0
  0
LINE
  8
0
  6
CONTINUOUS
 62
     2
 10
1873.92
 20
1484.7
 30
0.0
 11
2398.92
 21
1484.7
 31
0.0
  0
LINE
  8
0
  6
CONTINUOUS
 62
     2
 10
1873.92
 20
1442.7
 30
0.0
 11
2398.92
 21
1442.7
 31
0.0
  0
LINE
  8
0
  6
CONTINUOUS
 62
     2
 10
1873.92
 20
1400.7
 30
0.0
 11
2398.92
 21
1400.7
 31
0.0
  0
LINE
  8
0
  6
CONTINUOUS
 62
     2
 10
1873.92
 20
1358.7
 30
0.0
 11
2398.92
 21
1358.7
 31
0.0
  0
LINE
  8
0
  6
CONTINUOUS
 62
     2
 10
1873.92
 20
1568.7
 30
0.0
 11
2398.92
 21
1568.7
 31
0.0
  0
TEXT
  8
0
  6
CONTINUOUS
 62
     2
 10
1948.92
 20
1159.5
 30
33.439782857
 40
22.8
  1
電源電圧
 50
0.0
 41
0.9
 51
0.0
  7
KANJI62
  0
TEXT
  8
0
  6
CONTINUOUS
 62
     2
 10
1948.92
 20
1117.5
 30
60.42
 40
22.8
  1
周波数
 50
0.0
 41
0.9
 51
0.0
  7
KANJI63
  0
TEXT
  8
0
  6
CONTINUOUS
 62
     2
 10
1948.92
 20
1075.5
 30
141.36
 40
22.8
  1
電流
 50
0.0
 41
0.9
 51
0.0
  7
KANJI64
  0
TEXT
  8
0
  6
CONTINUOUS
 62
     2
 10
1948.92
 20
1033.5
 30
60.42
 40
22.8
  1
絶縁級
 50
0.0
 41
0.9
 51
0.0
  7
KANJI63
  0
TEXT
  8
0
  6
CONTINUOUS
 62
     2
 10
1906.92
 20
1537.5
 30
180.445714286
 40
22.8
  1
形式
 50
0.0
 41
0.9
 51
0.0
  7
KANJI60
  0
TEXT
  8
0
  6
CONTINUOUS
 62
     2
 10
1906.92
 20
1495.5
 30
180.445714286
 40
22.8
  1
推力
 50
0.0
 41
0.9
 51
0.0
  7
KANJI60
  0
TEXT
  8
0
  6
CONTINUOUS
 62
     2
 10
1906.92
 20
1453.5
 30
29.721428571
 40
22.8
  1
ストローク
 50
0.0
 41
0.9
 51
0.0
  7
KANJI65
  0
TEXT
  8
0
  6
CONTINUOUS
 62
     2
 10
1906.92
 20
1327.5
 30
180.445714286
 40
22.8
  1
構造
 50
0.0
 41
0.9
 51
0.0
  7
KANJI60
  0
TEXT
  8
0
  6
CONTINUOUS
 62
     2
 10
1906.92
 20
1285.5
 30
12.973851429
 40
22.8
  1
過負荷安全装置
 50
0.0
 41
0.9
 51
0.0
  7
KANJI66
  0
TEXT
  8
0
  6
CONTINUOUS
 62
     2
 10
1906.92
 20
1243.5
 30
79.962857143
 40
22.8
  1
塗装色
 50
0.0
 41
0.9
 51
0.0
  7
KANJI59
  0
TEXT
  8
0
  6
CONTINUOUS
 62
     2
 10
1882.92
 20
1369.5
 30
1.954285714
 40
22.8
  1
ピストンロッド回転トルク
 50
0.0
 41
0.9
 51
0.0
  7
KANJI67
  0
LINE
  8
0
  6
CONTINUOUS
 62
     2
 10
1873.92
 20
1022.7
 30
0.0
 11
2398.92
 21
1022.7
 31
0.0
  0
LINE
  8
0
  6
CONTINUOUS
 62
     2
 10
1921.92
 20
980.7
 30
0.0
 11
2398.92
 21
980.7
 31
0.0
  0
TEXT
  8
0
  6
CONTINUOUS
 62
     2
 10
1898.37
 20
1226.7
 30
13.2
 40
21.0
  1
モ　トル仕様
 50
0.0
 41
0.9
 51
0.0
  7
KANJI68
  0
TEXT
  8
0
  6
CONTINUOUS
 62
     2
 10
1898.37
 20
1004.7
 30
1.2
 40
21.0
  1
ブレ　キ
 50
0.0
 41
0.9
 51
0.0
  7
KANJI69
  0
LINE
  8
0
  6
CONTINUOUS
 62
     2
 10
1896.72
 20
954.9
 30
0.0
 11
1896.72
 21
942.3
 31
0.0
  0
TEXT
  8
0
  6
CONTINUOUS
 62
     2
 10
2208.42
 20
1286.7
 30
9.0
 40
21.0
  1
推力リミッタ
 50
0.0
 41
0.9
 51
0.0
  7
KANJI70
  0
TEXT
  8
0
  6
CONTINUOUS
 62
     2
 10
2265.42
 20
1034.7
 30
1.8
 40
18.0
  1
Ｅ
 50
0.0
 41
0.9
 51
0.0
  7
KANJI71
  0
TEXT
  8
0
  6
CONTINUOUS
 62
     2
 10
2221.92
 20
949.5
 30
12.0
 40
21.0
  1
同時切り
 50
0.0
 41
0.9
 51
0.0
  7
KANJI72
  0
TEXT
  8
0
  6
CONTINUOUS
 62
     2
 10
1948.92
 20
991.5
 30
141.36
 40
22.8
  1
形式
 50
0.0
 41
0.9
 51
0.0
  7
KANJI64
  0
TEXT
  8
0
  6
CONTINUOUS
 62
     2
 10
1948.92
 20
949.5
 30
33.439782857
 40
22.8
  1
操作方式
 50
0.0
 41
0.9
 51
0.0
  7
KANJI62
  0
LINE
  8
0
  6
CONTINUOUS
 62
     2
 10
1896.72
 20
1190.1
 30
0.0
 11
1896.72
 21
1176.3
 31
0.0
  0
TEXT
  8
0
  6
CONTINUOUS
 62
     2
 10
1948.92
 20
1201.5
 30
3.0
 40
22.8
  1
出力　相数　極数
 50
0.0
 41
0.9
 51
0.0
  7
KANJI73
  0
TEXT
  8
0
  6
CONTINUOUS
 62
     2
 10
1906.92
 20
1411.5
 30
12.0
 40
22.8
  1
公称速度
 50
0.0
 41
0.9
 51
0.0
  7
KANJI74
  0
TEXT
  8
0
  6
CONTINUOUS
 62
     2
 10
2030.82
 20
1410.3
 30
0.0
 40
21.0
  1
（５０／６０Ｈｚ）
 50
0.0
 41
0.628571429
 51
0.0
  7
KANJI75
  0
TEXT
  8
0
  6
CONTINUOUS
 62
     2
 10
2151.42
 20
991.95
 30
3.3
 40
20.4
  1
スプリング制動式電磁ブレーキ
 50
0.0
 41
0.705882353
 51
0.0
  7
KANJI76
  0
TEXT
  8
0
  6
CONTINUOUS
 62
     2
 10
2370.42
 20
1159.5
 30
0.216
 40
18.0
  1
Ｖ
 50
0.0
 41
0.8
 51
0.0
  7
KANJI77
  0
TEXT
  8
0
  6
CONTINUOUS
 62
     2
 10
2359.62
 20
1117.5
 30
0.216
 40
18.0
  1
Ｈｚ
 50
0.0
 41
0.8
 51
0.0
  7
KANJI77
  0
TEXT
  8
0
  6
CONTINUOUS
 62
     2
 10
2370.42
 20
1075.5
 30
0.216
 40
18.0
  1
Ａ
 50
0.0
 41
0.8
 51
0.0
  7
KANJI77
  0
TEXT
  8
0
  6
CONTINUOUS
 62
     2
 10
2291.52
 20
1202.7
 30
1.8
 40
18.0
  1
３φ
 50
0.0
 41
0.9
 51
0.0
  7
KANJI71
  0
TEXT
  8
0
  6
CONTINUOUS
 62
     2
 10
2351.52
 20
1202.7
 30
1.8
 40
18.0
  1
４Ｐ
 50
0.0
 41
0.9
 51
0.0
  7
KANJI71
  0
TEXT
  8
0
  6
CONTINUOUS
 62
     2
 10
2149.92
 20
1244.7
 30
1.2
 40
19.2
  1
マンセル　７．５ＧＹ　５／４．５
 50
0.0
 41
0.71875
 51
0.0
  7
KANJI78
  0
TEXT
  8
0
  6
CONTINUOUS
 62
     2
 10
2149.92
 20
1160.7
 30
1.8
 40
18.0
  1
　　　　　　　／　　　
 50
0.0
 41
0.9
 51
0.0
  7
KANJI71
  0
TEXT
  8
0
  6
CONTINUOUS
 62
     2
 10
2149.92
 20
1118.7
 30
1.8
 40
18.0
  1
　　　　５０／　６０
 50
0.0
 41
0.9
 51
0.0
  7
KANJI71
  0
TEXT
  8
0
  6
CONTINUOUS
 62
     2
 10
2149.92
 20
1076.7
 30
1.8
 40
18.0
  1
　　　　　　　／　　　
 50
0.0
 41
0.9
 51
0.0
  7
KANJI71
  0
TEXT
  8
0
  6
CONTINUOUS
 62
     2
 10
2354.52
 20
1455.9
 30
0.1536
 40
19.2
  1
ｍｍ
 50
0.0
 41
0.8
 51
0.0
  7
KANJI79
  0
TEXT
  8
0
  6
CONTINUOUS
 62
     2
 10
2315.52
 20
1412.7
 30
0.0
 40
21.0
  1
ｍｍ／ｓｅｃ
 50
0.0
 41
0.571428571
 51
0.0
  7
KANJI80
  0
TEXT
  8
0
  6
CONTINUOUS
 62
     2
 10
2155.92
 20
1202.7
 30
1.8
 40
18.0
  1
　１．１ＫＷ
 50
0.0
 41
0.9
 51
0.0
  7
KANJI71
  0
TEXT
  8
0
  6
CONTINUOUS
 62
     2
 10
2193.72
 20
1496.7
 30
1.8
 40
18.0
  1
１９．６ＫＮ（２ｔｏｎ）
 50
0.0
 41
0.9
 51
0.0
  7
KANJI71
  0
TEXT
  8
0
  6
CONTINUOUS
 62
     2
 10
2152.92
 20
1412.7
 30
1.8
 40
18.0
  1
　２４．２／２９
 50
0.0
 41
0.9
 51
0.0
  7
KANJI71
  0
TEXT
  8
0
  6
CONTINUOUS
 62
     2
 10
2208.42
 20
1328.7
 30
9.0
 40
21.0
  1
全閉屋外形
 50
0.0
 41
0.9
 51
0.0
  7
KANJI70
  0
TEXT
  8
0
  6
CONTINUOUS
 62
     2
 10
2163.42
 20
1536.6
 30
1.2
 40
18.0
  1
ＭＣＬＤ２Ｂ－　　ＪＮ
 50
0.0
 41
0.833333333
 51
0.0
  7
KANJI81
  0
TEXT
  8
0
  6
CONTINUOUS
 62
     2
 10
2183.0
 20
866.0
 30
0.0
 40
18.0
  1
手動ハンドル
 50
0.0
 41
0.9
 51
0.0
  7
KANJI33
  0
LINE
  8
0
  6
CONTINUOUS
 62
     1
 10
1873.92
 20
770.7
 30
0.0
 11
2398.92
 21
770.7
 31
0.0
  0
LINE
  8
0
  6
CONTINUOUS
 62
     2
 10
1873.92
 20
812.7
 30
0.0
 11
2398.92
 21
812.7
 31
0.0
  0
TEXT
  8
0
  6
CONTINUOUS
 62
     2
 10
2343.72
 20
782.88
 30
0.0
 40
21.0
  1
ｋｇ
 50
0.0
 41
0.9
 51
0.0
  7
KANJI82
  0
TEXT
  8
0
  6
CONTINUOUS
 62
     2
 10
1905.72
 20
781.5
 30
6.0
 40
21.0
  1
概算重量（１台当り）
 50
0.0
 41
0.857142857
 51
0.0
  7
KANJI83
  0
TEXT
  8
0
  6
CONTINUOUS
 62
     2
 10
2182.92
 20
1370.7
 30
0.0
 40
18.0
  1
３９Ｎ・ｍ（４ｋｇ・ｍ）
 50
0.0
 41
0.833333333
 51
0.0
  7
KANJI84
  0
LINE
  8
0
  6
CONTINUOUS
 62
     1
 10
1873.92
 20
1628.7
 30
0.0
 11
1873.92
 21
770.7
 31
0.0
  0
LINE
  8
0
  6
CONTINUOUS
 62
     2
 10
2149.92
 20
1568.7
 30
0.0
 11
2149.92
 21
770.7
 31
0.0
  0
LINE
  8
0
  6
CONTINUOUS
 62
     1
 10
2398.92
 20
1628.7
 30
0.0
 11
2398.92
 21
770.7
 31
0.0
  0
LINE
  8
0
  6
CONTINUOUS
 62
     2
 10
920.262218677
 20
552.593086418
 30
0.0
 11
920.262218677
 21
641.693086418
 31
0.0
  0
TEXT
  8
0
  6
CONTINUOUS
 62
     2
 10
1648.5200334
 20
126.899994
 30
1.8
 40
21.0
  1
０７．１１．０７
 50
0.0
 41
0.571428571
 51
0.0
  7
KANJI85
  0
ENDSEC
  0
EOF
