  0
SECTION
  2
HEADER
  9
$ACADVER
  1
AC1009
  9
$DWGCODEPAGE
  3
dos932
  9
$EXTMIN
 10
0.0
 20
0.0
 30
0.0
  9
$EXTMAX
 10
2520.0
 20
1782.0
 30
0.0
  9
$LIMMIN
 10
0.0
 20
0.0
  9
$LIMMAX
 10
2520.0
 20
1782.0
  9
$LTSCALE
 40
1.0
  9
$PDMODE
 70
     0
  0
ENDSEC
  0
SECTION
  2
TABLES
  0
TABLE
  2
VPORT
 70
     1
  0
VPORT
  2
*ACTIVE
 70
     0
 10
0.0
 20
0.0
 11
1.0
 21
1.0
 12
1260.0
 22
891.0
 13
0.0
 23
0.0
 14
10.0
 24
10.0
 15
10.0
 25
10.0
 16
0.0
 26
0.0
 36
1.0
 17
0.0
 27
0.0
 37
0.0
 40
2520.0
 41
1.414141414
 42
50.0
 43
0.0
 44
0.0
 50
0.0
 51
0.0
 71
     0
 72
  1000
 73
     1
 74
     3
 75
     0
 76
     0
 77
     0
 78
     0
  0
ENDTAB
  0
TABLE
  2
LTYPE
 70
     7
  0
LTYPE
  2
CONTINUOUS
 70
    64
  3
Solid line
 72
    65
 73
     0
 40
0.0
  0
LTYPE
  2
LTYPE1
 70
    64
  3
HIDDEN
 72
    65
 73
     2
 40
18.0
 49
10.8
 49
-7.2
  0
LTYPE
  2
LTYPE2
 70
    64
  3
CENTER
 72
    65
 73
     4
 40
90.0
 49
63.0
 49
-9.0
 49
9.0
 49
-9.0
  0
LTYPE
  2
LTYPE3
 70
    64
  3
CENTER
 72
    65
 73
     4
 40
60.0
 49
42.0
 49
-6.0
 49
6.0
 49
-6.0
  0
LTYPE
  2
LTYPE4
 70
    64
  3
CENTER
 72
    65
 73
     4
 40
120.0
 49
84.0
 49
-12.0
 49
12.0
 49
-12.0
  0
LTYPE
  2
LTYPE5
 70
    64
  3
PHANTOM
 72
    65
 73
     6
 40
90.0
 49
67.5
 49
-4.5
 49
4.5
 49
-4.5
 49
4.5
 49
-4.5
  0
LTYPE
  2
LTYPE6
 70
    64
  3
CENTER
 72
    65
 73
     4
 40
54.0
 49
37.8
 49
-5.4
 49
5.4
 49
-5.4
  0
ENDTAB
  0
TABLE
  2
LAYER
 70
   128
  0
LAYER
  2
0
 70
     0
 62
     7
  6
CONTINUOUS
  0
LAYER
  2
2
 70
     0
 62
     7
  6
CONTINUOUS
  0
LAYER
  2
3
 70
     0
 62
     7
  6
CONTINUOUS
  0
LAYER
  2
4
 70
     0
 62
     7
  6
CONTINUOUS
  0
LAYER
  2
5
 70
     0
 62
     7
  6
CONTINUOUS
  0
LAYER
  2
6
 70
     0
 62
     7
  6
CONTINUOUS
  0
LAYER
  2
7
 70
     0
 62
     7
  6
CONTINUOUS
  0
LAYER
  2
8
 70
     0
 62
     7
  6
CONTINUOUS
  0
LAYER
  2
9
 70
     0
 62
     7
  6
CONTINUOUS
  0
LAYER
  2
10
 70
     0
 62
     7
  6
CONTINUOUS
  0
LAYER
  2
11
 70
     0
 62
     7
  6
CONTINUOUS
  0
LAYER
  2
12
 70
     0
 62
     7
  6
CONTINUOUS
  0
LAYER
  2
13
 70
     0
 62
     7
  6
CONTINUOUS
  0
LAYER
  2
14
 70
     0
 62
     7
  6
CONTINUOUS
  0
LAYER
  2
15
 70
     0
 62
     7
  6
CONTINUOUS
  0
LAYER
  2
16
 70
     0
 62
     7
  6
CONTINUOUS
  0
LAYER
  2
17
 70
     0
 62
     7
  6
CONTINUOUS
  0
LAYER
  2
18
 70
     0
 62
     7
  6
CONTINUOUS
  0
LAYER
  2
19
 70
     0
 62
     7
  6
CONTINUOUS
  0
LAYER
  2
20
 70
     0
 62
     7
  6
CONTINUOUS
  0
LAYER
  2
21
 70
     0
 62
     7
  6
CONTINUOUS
  0
LAYER
  2
22
 70
     0
 62
     7
  6
CONTINUOUS
  0
LAYER
  2
23
 70
     0
 62
     7
  6
CONTINUOUS
  0
LAYER
  2
24
 70
     0
 62
     7
  6
CONTINUOUS
  0
LAYER
  2
25
 70
     0
 62
     7
  6
CONTINUOUS
  0
LAYER
  2
26
 70
     0
 62
     7
  6
CONTINUOUS
  0
LAYER
  2
27
 70
     0
 62
     7
  6
CONTINUOUS
  0
LAYER
  2
28
 70
     0
 62
     7
  6
CONTINUOUS
  0
LAYER
  2
29
 70
     0
 62
     7
  6
CONTINUOUS
  0
LAYER
  2
30
 70
     0
 62
     7
  6
CONTINUOUS
  0
LAYER
  2
31
 70
     0
 62
     7
  6
CONTINUOUS
  0
LAYER
  2
32
 70
     0
 62
     7
  6
CONTINUOUS
  0
LAYER
  2
33
 70
     0
 62
     7
  6
CONTINUOUS
  0
LAYER
  2
34
 70
     0
 62
     7
  6
CONTINUOUS
  0
LAYER
  2
35
 70
     0
 62
     7
  6
CONTINUOUS
  0
LAYER
  2
36
 70
     0
 62
     7
  6
CONTINUOUS
  0
LAYER
  2
37
 70
     0
 62
     7
  6
CONTINUOUS
  0
LAYER
  2
38
 70
     0
 62
     7
  6
CONTINUOUS
  0
LAYER
  2
39
 70
     0
 62
     7
  6
CONTINUOUS
  0
LAYER
  2
40
 70
     0
 62
     7
  6
CONTINUOUS
  0
LAYER
  2
41
 70
     0
 62
     7
  6
CONTINUOUS
  0
LAYER
  2
42
 70
     0
 62
     7
  6
CONTINUOUS
  0
LAYER
  2
43
 70
     0
 62
     7
  6
CONTINUOUS
  0
LAYER
  2
44
 70
     0
 62
     7
  6
CONTINUOUS
  0
LAYER
  2
45
 70
     0
 62
     7
  6
CONTINUOUS
  0
LAYER
  2
46
 70
     0
 62
     7
  6
CONTINUOUS
  0
LAYER
  2
47
 70
     0
 62
     7
  6
CONTINUOUS
  0
LAYER
  2
48
 70
     0
 62
     7
  6
CONTINUOUS
  0
LAYER
  2
49
 70
     0
 62
     7
  6
CONTINUOUS
  0
LAYER
  2
50
 70
     0
 62
     7
  6
CONTINUOUS
  0
LAYER
  2
51
 70
     0
 62
     7
  6
CONTINUOUS
  0
LAYER
  2
52
 70
     0
 62
     7
  6
CONTINUOUS
  0
LAYER
  2
53
 70
     0
 62
     7
  6
CONTINUOUS
  0
LAYER
  2
54
 70
     0
 62
     7
  6
CONTINUOUS
  0
LAYER
  2
55
 70
     0
 62
     7
  6
CONTINUOUS
  0
LAYER
  2
56
 70
     0
 62
     7
  6
CONTINUOUS
  0
LAYER
  2
57
 70
     0
 62
     7
  6
CONTINUOUS
  0
LAYER
  2
58
 70
     0
 62
     7
  6
CONTINUOUS
  0
LAYER
  2
59
 70
     0
 62
     7
  6
CONTINUOUS
  0
LAYER
  2
60
 70
     0
 62
     7
  6
CONTINUOUS
  0
LAYER
  2
61
 70
     0
 62
     7
  6
CONTINUOUS
  0
LAYER
  2
62
 70
     0
 62
     7
  6
CONTINUOUS
  0
LAYER
  2
63
 70
     0
 62
     7
  6
CONTINUOUS
  0
LAYER
  2
64
 70
     0
 62
     7
  6
CONTINUOUS
  0
LAYER
  2
65
 70
     0
 62
     7
  6
CONTINUOUS
  0
LAYER
  2
66
 70
     0
 62
     7
  6
CONTINUOUS
  0
LAYER
  2
67
 70
     0
 62
     7
  6
CONTINUOUS
  0
LAYER
  2
68
 70
     0
 62
     7
  6
CONTINUOUS
  0
LAYER
  2
69
 70
     0
 62
     7
  6
CONTINUOUS
  0
LAYER
  2
70
 70
     0
 62
     7
  6
CONTINUOUS
  0
LAYER
  2
71
 70
     0
 62
     7
  6
CONTINUOUS
  0
LAYER
  2
72
 70
     0
 62
     7
  6
CONTINUOUS
  0
LAYER
  2
73
 70
     0
 62
     7
  6
CONTINUOUS
  0
LAYER
  2
74
 70
     0
 62
     7
  6
CONTINUOUS
  0
LAYER
  2
75
 70
     0
 62
     7
  6
CONTINUOUS
  0
LAYER
  2
76
 70
     0
 62
     7
  6
CONTINUOUS
  0
LAYER
  2
77
 70
     0
 62
     7
  6
CONTINUOUS
  0
LAYER
  2
78
 70
     0
 62
     7
  6
CONTINUOUS
  0
LAYER
  2
79
 70
     0
 62
     7
  6
CONTINUOUS
  0
LAYER
  2
80
 70
     0
 62
     7
  6
CONTINUOUS
  0
LAYER
  2
81
 70
     0
 62
     7
  6
CONTINUOUS
  0
LAYER
  2
82
 70
     0
 62
     7
  6
CONTINUOUS
  0
LAYER
  2
83
 70
     0
 62
     7
  6
CONTINUOUS
  0
LAYER
  2
84
 70
     0
 62
     7
  6
CONTINUOUS
  0
LAYER
  2
85
 70
     0
 62
     7
  6
CONTINUOUS
  0
LAYER
  2
86
 70
     0
 62
     7
  6
CONTINUOUS
  0
LAYER
  2
87
 70
     0
 62
     7
  6
CONTINUOUS
  0
LAYER
  2
88
 70
     0
 62
     7
  6
CONTINUOUS
  0
LAYER
  2
89
 70
     0
 62
     7
  6
CONTINUOUS
  0
LAYER
  2
90
 70
     0
 62
     7
  6
CONTINUOUS
  0
LAYER
  2
91
 70
     0
 62
     7
  6
CONTINUOUS
  0
LAYER
  2
92
 70
     0
 62
     7
  6
CONTINUOUS
  0
LAYER
  2
93
 70
     0
 62
     7
  6
CONTINUOUS
  0
LAYER
  2
94
 70
     0
 62
     7
  6
CONTINUOUS
  0
LAYER
  2
95
 70
     0
 62
     7
  6
CONTINUOUS
  0
LAYER
  2
96
 70
     0
 62
     7
  6
CONTINUOUS
  0
LAYER
  2
97
 70
     0
 62
     7
  6
CONTINUOUS
  0
LAYER
  2
98
 70
     0
 62
     7
  6
CONTINUOUS
  0
LAYER
  2
99
 70
     0
 62
     7
  6
CONTINUOUS
  0
LAYER
  2
100
 70
     0
 62
     7
  6
CONTINUOUS
  0
LAYER
  2
101
 70
     0
 62
     7
  6
CONTINUOUS
  0
LAYER
  2
102
 70
     0
 62
     7
  6
CONTINUOUS
  0
LAYER
  2
103
 70
     0
 62
     7
  6
CONTINUOUS
  0
LAYER
  2
104
 70
     0
 62
     7
  6
CONTINUOUS
  0
LAYER
  2
105
 70
     0
 62
     7
  6
CONTINUOUS
  0
LAYER
  2
106
 70
     0
 62
     7
  6
CONTINUOUS
  0
LAYER
  2
107
 70
     0
 62
     7
  6
CONTINUOUS
  0
LAYER
  2
108
 70
     0
 62
     7
  6
CONTINUOUS
  0
LAYER
  2
109
 70
     0
 62
     7
  6
CONTINUOUS
  0
LAYER
  2
110
 70
     0
 62
     7
  6
CONTINUOUS
  0
LAYER
  2
111
 70
     0
 62
     7
  6
CONTINUOUS
  0
LAYER
  2
112
 70
     0
 62
     7
  6
CONTINUOUS
  0
LAYER
  2
113
 70
     0
 62
     7
  6
CONTINUOUS
  0
LAYER
  2
114
 70
     0
 62
     7
  6
CONTINUOUS
  0
LAYER
  2
115
 70
     0
 62
     7
  6
CONTINUOUS
  0
LAYER
  2
116
 70
     0
 62
     7
  6
CONTINUOUS
  0
LAYER
  2
117
 70
     0
 62
     7
  6
CONTINUOUS
  0
LAYER
  2
118
 70
     0
 62
     7
  6
CONTINUOUS
  0
LAYER
  2
119
 70
     0
 62
     7
  6
CONTINUOUS
  0
LAYER
  2
120
 70
     0
 62
     7
  6
CONTINUOUS
  0
LAYER
  2
121
 70
     0
 62
     7
  6
CONTINUOUS
  0
LAYER
  2
122
 70
     0
 62
     7
  6
CONTINUOUS
  0
LAYER
  2
123
 70
     0
 62
     7
  6
CONTINUOUS
  0
LAYER
  2
124
 70
     0
 62
     7
  6
CONTINUOUS
  0
LAYER
  2
125
 70
     0
 62
     7
  6
CONTINUOUS
  0
LAYER
  2
126
 70
     0
 62
     7
  6
CONTINUOUS
  0
LAYER
  2
127
 70
     0
 62
     7
  6
CONTINUOUS
  0
LAYER
  2
128
 70
     0
 62
     7
  6
CONTINUOUS
  0
ENDTAB
  0
TABLE
  2
STYLE
 70
    80
  0
STYLE
  2
STANDARD
 70
     0
 40
0.0
 41
1.0
 50
0.0
 71
     0
 42
0.2
  3
txt.shx
  4
extfont.shx
  0
STYLE
  2
KANJI0
 70
     0
 40
15.5999988
 41
0.75
 50
0.0
 71
     0
 42
15.5999988
  3
txt.shx
  4
extfont.shx
  0
STYLE
  2
KANJI1
 70
     0
 40
11.999997477
 41
0.6
 50
0.0
 71
     0
 42
11.999997477
  3
txt.shx
  4
extfont.shx
  0
STYLE
  2
KANJI2
 70
     0
 40
14.399996972
 41
0.9
 50
0.0
 71
     0
 42
14.399996972
  3
txt.shx
  4
extfont.shx
  0
STYLE
  2
KANJI3
 70
     0
 40
17.999996215
 41
0.9
 50
0.0
 71
     0
 42
17.999996215
  3
txt.shx
  4
extfont.shx
  0
STYLE
  2
KANJI4
 70
     0
 40
10.3999992
 41
0.6
 50
0.0
 71
     0
 42
10.3999992
  3
txt.shx
  4
extfont.shx
  0
STYLE
  2
KANJI5
 70
     0
 40
12.47999904
 41
0.6
 50
0.0
 71
     0
 42
12.47999904
  3
txt.shx
  4
extfont.shx
  0
STYLE
  2
KANJI6
 70
     0
 40
18.1999986
 41
0.42031746
 50
0.0
 71
     0
 42
18.1999986
  3
txt.shx
  4
extfont.shx
  0
STYLE
  2
KANJI7
 70
     0
 40
31.1999976
 41
0.9
 50
0.0
 71
     0
 42
31.1999976
  3
txt.shx
  4
extfont.shx
  0
STYLE
  2
KANJI8
 70
     0
 40
21.6
 41
1.111111111
 50
0.0
 71
     0
 42
21.6
  3
txt.shx
  4
extfont.shx
  0
STYLE
  2
KANJI9
 70
     0
 40
10.3999992
 41
0.8
 50
0.0
 71
     0
 42
10.3999992
  3
txt.shx
  4
extfont.shx
  0
STYLE
  2
KANJI10
 70
     0
 40
12.47999904
 41
0.8
 50
0.0
 71
     0
 42
12.47999904
  3
txt.shx
  4
extfont.shx
  0
STYLE
  2
KANJI11
 70
     0
 40
30.0
 41
1.0
 50
0.0
 71
     0
 42
30.0
  3
txt.shx
  4
extfont.shx
  0
STYLE
  2
KANJI12
 70
     0
 40
30.0
 41
1.0
 50
0.0
 71
     0
 42
30.0
  3
txt.shx
  4
extfont.shx
  0
STYLE
  2
KANJI13
 70
     0
 40
30.0
 41
0.8
 50
0.0
 71
     0
 42
30.0
  3
txt.shx
  4
extfont.shx
  0
STYLE
  2
KANJI14
 70
     0
 40
24.0
 41
1.0
 50
0.0
 71
     0
 42
24.0
  3
txt.shx
  4
extfont.shx
  0
STYLE
  2
KANJI15
 70
     0
 40
21.0
 41
0.857142857
 50
0.0
 71
     0
 42
21.0
  3
txt.shx
  4
extfont.shx
  0
STYLE
  2
KANJI16
 70
     0
 40
27.0
 41
0.666666667
 50
0.0
 71
     0
 42
27.0
  3
txt.shx
  4
extfont.shx
  0
STYLE
  2
KANJI17
 70
     0
 40
13.86
 41
0.9
 50
0.0
 71
     0
 42
13.86
  3
txt.shx
  4
extfont.shx
  0
STYLE
  2
KANJI18
 70
     0
 40
21.0
 41
0.793650794
 50
0.0
 71
     0
 42
21.0
  3
txt.shx
  4
extfont.shx
  0
STYLE
  2
KANJI19
 70
     0
 40
30.0
 41
0.8
 50
0.0
 71
     0
 42
30.0
  3
txt.shx
  4
extfont.shx
  0
STYLE
  2
KANJI20
 70
     0
 40
18.0
 41
0.9
 50
0.0
 71
     0
 42
18.0
  3
txt.shx
  4
extfont.shx
  0
STYLE
  2
KANJI21
 70
     0
 40
11.661
 41
0.822608696
 50
0.0
 71
     0
 42
11.661
  3
txt.shx
  4
extfont.shx
  0
STYLE
  2
KANJI22
 70
     0
 40
13.182
 41
0.85
 50
0.0
 71
     0
 42
13.182
  3
txt.shx
  4
extfont.shx
  0
STYLE
  2
KANJI23
 70
     0
 40
11.8638
 41
0.726495726
 50
0.0
 71
     0
 42
11.8638
  3
txt.shx
  4
extfont.shx
  0
STYLE
  2
KANJI24
 70
     4
 40
55.0
 41
0.440318182
 50
0.0
 71
     0
 42
55.0
  3
txt.shx
  4
extfont.shx
  0
STYLE
  2
KANJI25
 70
     0
 40
17.740702234
 41
0.880962996
 50
0.0
 71
     0
 42
17.740702234
  3
txt.shx
  4
extfont.shx
  0
STYLE
  2
KANJI26
 70
     0
 40
11.7
 41
0.8
 50
0.0
 71
     0
 42
11.7
  3
txt.shx
  4
extfont.shx
  0
STYLE
  2
KANJI27
 70
     0
 40
15.0
 41
0.911
 50
0.0
 71
     0
 42
15.0
  3
txt.shx
  4
extfont.shx
  0
STYLE
  2
KANJI28
 70
     0
 40
18.0
 41
0.9
 50
0.0
 71
     0
 42
18.0
  3
txt.shx
  4
extfont.shx
  0
STYLE
  2
KANJI29
 70
     0
 40
15.6
 41
0.925
 50
0.0
 71
     0
 42
15.6
  3
txt.shx
  4
extfont.shx
  0
STYLE
  2
KANJI30
 70
     0
 40
10.933904043
 41
0.9
 50
0.0
 71
     0
 42
10.933904043
  3
txt.shx
  4
extfont.shx
  0
STYLE
  2
KANJI31
 70
     0
 40
15.185977837
 41
0.66671875
 50
0.0
 71
     0
 42
15.185977837
  3
txt.shx
  4
extfont.shx
  0
STYLE
  2
KANJI32
 70
     0
 40
18.223173404
 41
0.9
 50
0.0
 71
     0
 42
18.223173404
  3
txt.shx
  4
extfont.shx
  0
STYLE
  2
KANJI33
 70
     0
 40
14.578538724
 41
0.9
 50
0.0
 71
     0
 42
14.578538724
  3
txt.shx
  4
extfont.shx
  0
STYLE
  2
KANJI34
 70
     0
 40
15.0
 41
0.9
 50
0.0
 71
     0
 42
15.0
  3
txt.shx
  4
extfont.shx
  0
STYLE
  2
KANJI35
 70
     0
 40
12.0
 41
0.9
 50
0.0
 71
     0
 42
12.0
  3
txt.shx
  4
extfont.shx
  0
STYLE
  2
KANJI36
 70
     0
 40
10.0
 41
0.85
 50
0.0
 71
     0
 42
10.0
  3
txt.shx
  4
extfont.shx
  0
STYLE
  2
KANJI37
 70
     0
 40
10.0
 41
0.75
 50
0.0
 71
     0
 42
10.0
  3
txt.shx
  4
extfont.shx
  0
STYLE
  2
KANJI38
 70
     0
 40
20.0
 41
0.925
 50
0.0
 71
     0
 42
20.0
  3
txt.shx
  4
extfont.shx
  0
STYLE
  2
KANJI39
 70
     0
 40
24.0
 41
0.9
 50
0.0
 71
     0
 42
24.0
  3
txt.shx
  4
extfont.shx
  0
STYLE
  2
KANJI40
 70
     0
 40
21.0
 41
0.857142857
 50
0.0
 71
     0
 42
21.0
  3
txt.shx
  4
extfont.shx
  0
STYLE
  2
KANJI41
 70
     0
 40
20.0
 41
0.925
 50
0.0
 71
     0
 42
20.0
  3
txt.shx
  4
extfont.shx
  0
STYLE
  2
KANJI42
 70
     0
 40
15.0
 41
0.92
 50
0.0
 71
     0
 42
15.0
  3
txt.shx
  4
extfont.shx
  0
STYLE
  2
KANJI43
 70
     0
 40
16.17
 41
0.9
 50
0.0
 71
     0
 42
16.17
  3
txt.shx
  4
extfont.shx
  0
STYLE
  2
KANJI44
 70
     0
 40
15.0
 41
0.9
 50
0.0
 71
     0
 42
15.0
  3
txt.shx
  4
extfont.shx
  0
STYLE
  2
KANJI45
 70
     0
 40
15.36
 41
0.9
 50
0.0
 71
     0
 42
15.36
  3
txt.shx
  4
extfont.shx
  0
STYLE
  2
KANJI46
 70
     0
 40
14.4
 41
0.9
 50
0.0
 71
     0
 42
14.4
  3
txt.shx
  4
extfont.shx
  0
STYLE
  2
KANJI47
 70
     0
 40
14.4
 41
0.9
 50
0.0
 71
     0
 42
14.4
  3
txt.shx
  4
extfont.shx
  0
STYLE
  2
KANJI48
 70
     0
 40
16.8
 41
0.9
 50
0.0
 71
     0
 42
16.8
  3
txt.shx
  4
extfont.shx
  0
STYLE
  2
KANJI49
 70
     0
 40
12.96
 41
0.740740741
 50
0.0
 71
     0
 42
12.96
  3
txt.shx
  4
extfont.shx
  0
STYLE
  2
KANJI50
 70
     0
 40
16.8
 41
0.857142857
 50
0.0
 71
     0
 42
16.8
  3
txt.shx
  4
extfont.shx
  0
STYLE
  2
KANJI51
 70
     0
 40
14.4
 41
0.833333333
 50
0.0
 71
     0
 42
14.4
  3
txt.shx
  4
extfont.shx
  0
STYLE
  2
KANJI52
 70
     0
 40
22.8
 41
0.9
 50
0.0
 71
     0
 42
22.8
  3
txt.shx
  4
extfont.shx
  0
STYLE
  2
KANJI53
 70
     0
 40
22.8
 41
0.9
 50
0.0
 71
     0
 42
22.8
  3
txt.shx
  4
extfont.shx
  0
STYLE
  2
KANJI54
 70
     0
 40
27.0
 41
0.9
 50
0.0
 71
     0
 42
27.0
  3
txt.shx
  4
extfont.shx
  0
STYLE
  2
KANJI55
 70
     0
 40
22.8
 41
0.9
 50
0.0
 71
     0
 42
22.8
  3
txt.shx
  4
extfont.shx
  0
STYLE
  2
KANJI56
 70
     0
 40
22.8
 41
0.9
 50
0.0
 71
     0
 42
22.8
  3
txt.shx
  4
extfont.shx
  0
STYLE
  2
KANJI57
 70
     0
 40
22.8
 41
0.9
 50
0.0
 71
     0
 42
22.8
  3
txt.shx
  4
extfont.shx
  0
STYLE
  2
KANJI58
 70
     0
 40
22.8
 41
0.9
 50
0.0
 71
     0
 42
22.8
  3
txt.shx
  4
extfont.shx
  0
STYLE
  2
KANJI59
 70
     0
 40
22.8
 41
0.9
 50
0.0
 71
     0
 42
22.8
  3
txt.shx
  4
extfont.shx
  0
STYLE
  2
KANJI60
 70
     0
 40
22.8
 41
0.9
 50
0.0
 71
     0
 42
22.8
  3
txt.shx
  4
extfont.shx
  0
STYLE
  2
KANJI61
 70
     4
 40
21.0
 41
0.9
 50
0.0
 71
     0
 42
21.0
  3
txt.shx
  4
extfont.shx
  0
STYLE
  2
KANJI62
 70
     4
 40
21.0
 41
0.9
 50
0.0
 71
     0
 42
21.0
  3
txt.shx
  4
extfont.shx
  0
STYLE
  2
KANJI63
 70
     0
 40
21.0
 41
0.9
 50
0.0
 71
     0
 42
21.0
  3
txt.shx
  4
extfont.shx
  0
STYLE
  2
KANJI64
 70
     0
 40
18.0
 41
0.9
 50
0.0
 71
     0
 42
18.0
  3
txt.shx
  4
extfont.shx
  0
STYLE
  2
KANJI65
 70
     0
 40
21.0
 41
0.9
 50
0.0
 71
     0
 42
21.0
  3
txt.shx
  4
extfont.shx
  0
STYLE
  2
KANJI66
 70
     0
 40
22.8
 41
0.9
 50
0.0
 71
     0
 42
22.8
  3
txt.shx
  4
extfont.shx
  0
STYLE
  2
KANJI67
 70
     0
 40
22.8
 41
0.9
 50
0.0
 71
     0
 42
22.8
  3
txt.shx
  4
extfont.shx
  0
STYLE
  2
KANJI68
 70
     0
 40
21.0
 41
0.628571429
 50
0.0
 71
     0
 42
21.0
  3
txt.shx
  4
extfont.shx
  0
STYLE
  2
KANJI69
 70
     0
 40
20.4
 41
0.705882353
 50
0.0
 71
     0
 42
20.4
  3
txt.shx
  4
extfont.shx
  0
STYLE
  2
KANJI70
 70
     0
 40
18.0
 41
0.8
 50
0.0
 71
     0
 42
18.0
  3
txt.shx
  4
extfont.shx
  0
STYLE
  2
KANJI71
 70
     0
 40
19.2
 41
0.71875
 50
0.0
 71
     0
 42
19.2
  3
txt.shx
  4
extfont.shx
  0
STYLE
  2
KANJI72
 70
     0
 40
19.2
 41
0.8
 50
0.0
 71
     0
 42
19.2
  3
txt.shx
  4
extfont.shx
  0
STYLE
  2
KANJI73
 70
     0
 40
21.0
 41
0.571428571
 50
0.0
 71
     0
 42
21.0
  3
txt.shx
  4
extfont.shx
  0
STYLE
  2
KANJI74
 70
     0
 40
18.0
 41
0.833333333
 50
0.0
 71
     0
 42
18.0
  3
txt.shx
  4
extfont.shx
  0
STYLE
  2
KANJI75
 70
     0
 40
21.0
 41
0.9
 50
0.0
 71
     0
 42
21.0
  3
txt.shx
  4
extfont.shx
  0
STYLE
  2
KANJI76
 70
     0
 40
21.0
 41
0.857142857
 50
0.0
 71
     0
 42
21.0
  3
txt.shx
  4
extfont.shx
  0
STYLE
  2
KANJI77
 70
     0
 40
18.0
 41
0.833333333
 50
0.0
 71
     0
 42
18.0
  3
txt.shx
  4
extfont.shx
  0
STYLE
  2
KANJI78
 70
     0
 40
21.0
 41
0.571428571
 50
0.0
 71
     0
 42
21.0
  3
txt.shx
  4
extfont.shx
  0
ENDTAB
  0
TABLE
  2
VIEW
 70
     0
  0
ENDTAB
  0
ENDSEC
  0
SECTION
  2
BLOCKS
  0
ENDSEC
  0
SECTION
  2
ENTITIES
  0
POLYLINE
  8
0
  6
CONTINUOUS
 62
     6
 66
     1
  0
VERTEX
  8
0
  6
CONTINUOUS
 62
     6
 10
71.92
 20
65.7
 30
0.0
  0
VERTEX
  8
0
  6
CONTINUOUS
 62
     6
 10
71.92
 20
1679.7
 30
0.0
  0
VERTEX
  8
0
  6
CONTINUOUS
 62
     6
 10
2393.92
 20
1679.7
 30
0.0
  0
SEQEND
  0
LINE
  8
0
  6
CONTINUOUS
 62
     6
 10
77.919998738
 20
71.699998738
 30
0.0
 11
467.919916738
 21
71.699998738
 31
0.0
  0
LINE
  8
0
  6
CONTINUOUS
 62
     6
 10
77.919998738
 20
71.699998738
 30
0.0
 11
77.919998738
 21
155.699981077
 31
0.0
  0
LINE
  8
0
  6
CONTINUOUS
 62
     6
 10
77.919998738
 20
113.699989908
 30
0.0
 11
467.919916738
 21
113.699989908
 31
0.0
  0
LINE
  8
0
  6
CONTINUOUS
 62
     4
 10
3.6199996
 20
70.8999996
 30
0.0
 11
66.0199948
 21
70.8999996
 31
0.0
  0
LINE
  8
0
  6
CONTINUOUS
 62
     4
 10
3.6199996
 20
102.0999972
 30
0.0
 11
66.0199948
 21
102.0999972
 31
0.0
  0
LINE
  8
0
  6
CONTINUOUS
 62
     4
 10
3.6199996
 20
133.2999948
 30
0.0
 11
66.0199948
 21
133.2999948
 31
0.0
  0
LINE
  8
0
  6
CONTINUOUS
 62
     4
 10
3.6199996
 20
164.4999924
 30
0.0
 11
66.0199948
 21
164.4999924
 31
0.0
  0
LINE
  8
0
  6
CONTINUOUS
 62
     4
 10
3.6199996
 20
195.69999
 30
0.0
 11
66.0199948
 21
195.69999
 31
0.0
  0
LINE
  8
0
  6
CONTINUOUS
 62
     4
 10
3.6199996
 20
226.8999876
 30
0.0
 11
66.0199948
 21
226.8999876
 31
0.0
  0
LINE
  8
0
  6
CONTINUOUS
 62
     4
 10
3.6199996
 20
258.0999852
 30
0.0
 11
66.0199948
 21
258.0999852
 31
0.0
  0
LINE
  8
0
  6
CONTINUOUS
 62
     4
 10
3.6199996
 20
289.2999828
 30
0.0
 11
66.0199948
 21
289.2999828
 31
0.0
  0
LINE
  8
0
  6
CONTINUOUS
 62
     4
 10
3.6199996
 20
320.4999804
 30
0.0
 11
66.0199948
 21
320.4999804
 31
0.0
  0
LINE
  8
0
  6
CONTINUOUS
 62
     4
 10
3.6199996
 20
351.699978
 30
0.0
 11
66.0199948
 21
351.699978
 31
0.0
  0
LINE
  8
0
  6
CONTINUOUS
 62
     4
 10
66.0199948
 20
70.8999996
 30
0.0
 11
66.0199948
 21
351.699978
 31
0.0
  0
LINE
  8
0
  6
CONTINUOUS
 62
     4
 10
34.8199972
 20
70.8999996
 30
0.0
 11
34.8199972
 21
320.4999804
 31
0.0
  0
TEXT
  8
0
  6
CONTINUOUS
 62
     4
 10
14.27999878
 20
79.9999989
 30
1.55999988
 40
15.5999988
  1
計
 50
0.0
 41
0.75
 51
0.0
  7
KANJI0
  0
TEXT
  8
0
  6
CONTINUOUS
 62
     4
 10
14.27999878
 20
142.91999406
 30
1.55999988
 40
15.5999988
  1
設
 50
0.0
 41
0.75
 51
0.0
  7
KANJI0
  0
TEXT
  8
0
  6
CONTINUOUS
 62
     4
 10
14.27999878
 20
173.5999917
 30
1.55999988
 40
15.5999988
  1
管
 50
0.0
 41
0.75
 51
0.0
  7
KANJI0
  0
TEXT
  8
0
  6
CONTINUOUS
 62
     4
 10
14.27999878
 20
204.7999893
 30
1.55999988
 40
15.5999988
  1
製
 50
0.0
 41
0.75
 51
0.0
  7
KANJI0
  0
TEXT
  8
0
  6
CONTINUOUS
 62
     4
 10
14.27999878
 20
235.9999869
 30
1.55999988
 40
15.5999988
  1
資
 50
0.0
 41
0.75
 51
0.0
  7
KANJI0
  0
TEXT
  8
0
  6
CONTINUOUS
 62
     4
 10
14.27999878
 20
267.1999845
 30
1.55999988
 40
15.5999988
  1
営
 50
0.0
 41
0.75
 51
0.0
  7
KANJI0
  0
TEXT
  8
0
  6
CONTINUOUS
 62
     4
 10
14.27999878
 20
298.3999821
 30
1.55999988
 40
15.5999988
  1
客
 50
0.0
 41
0.75
 51
0.0
  7
KANJI0
  0
TEXT
  8
0
  6
CONTINUOUS
 62
     4
 10
14.0199988
 20
330.8999796
 30
1.55999988
 40
15.5999988
  1
出　図
 50
0.0
 41
0.75
 51
0.0
  7
KANJI0
  0
LINE
  8
0
  6
CONTINUOUS
 62
     4
 10
3.6199996
 20
70.8999996
 30
0.0
 11
3.6199996
 21
351.699978
 31
0.0
  0
LINE
  8
0
  6
CONTINUOUS
 62
     6
 10
2393.92
 20
65.7
 30
0.0
 11
71.92
 21
65.7
 31
0.0
  0
TEXT
  8
0
  6
CONTINUOUS
 62
     4
 10
89.919996215
 20
95.699993692
 30
1.199999748
 40
11.999997477
  1
ＰＡＲＴＳ　ＬＩＳＴ
 50
0.0
 41
0.6
 51
0.0
  7
KANJI1
  0
TEXT
  8
0
  6
CONTINUOUS
 62
     4
 10
89.919996215
 20
77.699997477
 30
1.439999697
 40
14.399996972
  1
部品表
 50
0.0
 41
0.9
 51
0.0
  7
KANJI2
  0
TEXT
  8
0
  6
CONTINUOUS
 62
     3
 10
89.919996215
 20
125.699987385
 30
1.799999622
 40
17.999996215
  1
ＰＬ
 50
0.0
 41
0.9
 51
0.0
  7
KANJI3
  0
TEXT
  8
0
  6
CONTINUOUS
 62
     4
 10
359.919939446
 20
95.699993692
 30
1.199999748
 40
11.999997477
  1
Ｎ０．
 50
0.0
 41
0.6
 51
0.0
  7
KANJI1
  0
TEXT
  8
0
  6
CONTINUOUS
 62
     4
 10
359.919939446
 20
77.699997477
 30
1.439999697
 40
14.399996972
  1
項番
 50
0.0
 41
0.9
 51
0.0
  7
KANJI2
  0
LINE
  8
0
  6
CONTINUOUS
 62
     6
 10
347.919941969
 20
71.699998738
 30
0.0
 11
347.919941969
 21
155.699981077
 31
0.0
  0
LINE
  8
0
  6
CONTINUOUS
 62
     6
 10
2393.92
 20
1679.7
 30
0.0
 11
2393.92
 21
65.7
 31
0.0
  0
LINE
  8
0
  6
CONTINUOUS
 62
     6
 10
1587.920062
 20
70.8999996
 30
0.0
 11
1587.920062
 21
403.699974
 31
0.0
  0
LINE
  8
0
  6
CONTINUOUS
 62
     6
 10
2388.7200004
 20
70.8999996
 30
0.0
 11
2388.7200004
 21
403.699974
 31
0.0
  0
LINE
  8
0
  6
CONTINUOUS
 62
     4
 10
1777.7200474
 20
70.8999996
 30
0.0
 11
1777.7200474
 21
403.699974
 31
0.0
  0
LINE
  8
0
  6
CONTINUOUS
 62
     4
 10
1587.920062
 20
112.4999964
 30
0.0
 11
1777.7200474
 21
112.4999964
 31
0.0
  0
TEXT
  8
0
  6
CONTINUOUS
 62
     4
 10
1598.3200612
 20
94.2999978
 30
1.03999992
 40
10.3999992
  1
ＳＣＡＬＥ
 50
0.0
 41
0.6
 51
0.0
  7
KANJI4
  0
TEXT
  8
0
  6
CONTINUOUS
 62
     4
 10
1598.3200612
 20
78.699999
 30
1.247999904
 40
12.47999904
  1
尺度
 50
0.0
 41
0.6
 51
0.0
  7
KANJI5
  0
LINE
  8
0
  6
CONTINUOUS
 62
     6
 10
1177.1200936
 20
112.4999964
 30
0.0
 11
1587.920062
 21
112.4999964
 31
0.0
  0
LINE
  8
0
  6
CONTINUOUS
 62
     6
 10
1177.1200936
 20
70.8999996
 30
0.0
 11
2388.7200004
 21
70.8999996
 31
0.0
  0
TEXT
  8
0
  6
CONTINUOUS
 62
     6
 10
1782.920047
 20
94.2999978
 30
0.0
 40
18.1999986
  1
ＵＮＩＴＥＣ　ＩＮＤＵＳＴＲＹ　ＣＯ．，ＬＴＤ．
 50
0.0
 41
0.42031746
 51
0.0
  7
KANJI6
  0
TEXT
  8
0
  6
CONTINUOUS
 62
     6
 10
2038.175027365
 20
87.53999832
 30
3.11999976
 40
31.1999976
  1
ユニテック工業株式会社
 50
0.0
 41
0.9
 51
0.0
  7
KANJI7
  0
LINE
  8
0
  6
CONTINUOUS
 62
     6
 10
1996.575030565
 20
98.45999748
 30
0.0
 11
1982.847031621
 21
98.45999748
 31
0.0
  0
LINE
  8
0
  6
CONTINUOUS
 62
     6
 10
1996.575030565
 20
100.955997288
 30
0.0
 11
1982.847031621
 21
100.955997288
 31
0.0
  0
LINE
  8
0
  6
CONTINUOUS
 62
     6
 10
1996.575030565
 20
98.45999748
 30
0.0
 11
2010.303029509
 21
98.45999748
 31
0.0
  0
LINE
  8
0
  6
CONTINUOUS
 62
     6
 10
1996.575030565
 20
100.955997288
 30
0.0
 11
2010.303029509
 21
100.955997288
 31
0.0
  0
LINE
  8
0
  6
CONTINUOUS
 62
     6
 10
2010.303029509
 20
100.955997288
 30
0.0
 11
2010.303029509
 21
98.45999748
 31
0.0
  0
ARC
  8
0
  6
CONTINUOUS
 62
     6
 10
2013.423029269
 20
99.707997384
 30
0.0
 40
12.47999904
 50
185.739170477
 51
90.0
  0
ARC
  8
0
  6
CONTINUOUS
 62
     6
 10
2013.423029269
 20
99.707997384
 30
0.0
 40
14.975998848
 50
184.780191847
 51
90.0
  0
LINE
  8
0
  6
CONTINUOUS
 62
     6
 10
1982.847031621
 20
98.45999748
 30
0.0
 11
1982.847031621
 21
100.955997288
 31
0.0
  0
ARC
  8
0
  6
CONTINUOUS
 62
     6
 10
1979.727031861
 20
99.707997384
 30
0.0
 40
12.47999904
 50
90.0
 51
354.260829523
  0
ARC
  8
0
  6
CONTINUOUS
 62
     6
 10
1979.727031861
 20
99.707997384
 30
0.0
 40
14.975998848
 50
90.0
 51
355.219808153
  0
LINE
  8
0
  6
CONTINUOUS
 62
     6
 10
1994.703030709
 20
114.683996232
 30
0.0
 11
1994.703030709
 21
112.187996424
 31
0.0
  0
LINE
  8
0
  6
CONTINUOUS
 62
     6
 10
1979.727031861
 20
112.187996424
 30
0.0
 11
1994.703030709
 21
112.187996424
 31
0.0
  0
LINE
  8
0
  6
CONTINUOUS
 62
     6
 10
1998.447030421
 20
114.683996232
 30
0.0
 11
1998.447030421
 21
112.187996424
 31
0.0
  0
LINE
  8
0
  6
CONTINUOUS
 62
     6
 10
2013.423029269
 20
112.187996424
 30
0.0
 11
1998.447030421
 21
112.187996424
 31
0.0
  0
TEXT
  8
0
  6
CONTINUOUS
 62
     4
 10
1309.7200834
 20
94.2999978
 30
1.03999992
 40
10.3999992
  1
ＢＹ
 50
0.0
 41
0.6
 51
0.0
  7
KANJI4
  0
TEXT
  8
0
  6
CONTINUOUS
 62
     4
 10
1424.1200746
 20
94.2999978
 30
1.03999992
 40
10.3999992
  1
ＤＥＳＣＲＩＰＴＩＯＮ
 50
0.0
 41
0.6
 51
0.0
  7
KANJI4
  0
TEXT
  8
0
  6
CONTINUOUS
 62
     4
 10
1309.7200834
 20
78.699999
 30
1.247999904
 40
12.47999904
  1
担当
 50
0.0
 41
0.6
 51
0.0
  7
KANJI5
  0
TEXT
  8
0
  6
CONTINUOUS
 62
     4
 10
1439.7200734
 20
78.699999
 30
1.247999904
 40
12.47999904
  1
記　　　　事
 50
0.0
 41
0.6
 51
0.0
  7
KANJI5
  0
LINE
  8
0
  6
CONTINUOUS
 62
     4
 10
1199.2200919
 20
104.699997
 30
0.0
 11
1182.3200932
 21
78.699999
 31
0.0
  0
TEXT
  8
0
  6
CONTINUOUS
 62
     4
 10
1242.1200886
 20
94.2999978
 30
1.03999992
 40
10.3999992
  1
ＤＡＴＥ
 50
0.0
 41
0.6
 51
0.0
  7
KANJI4
  0
TEXT
  8
0
  6
CONTINUOUS
 62
     4
 10
1249.920088
 20
78.699999
 30
1.247999904
 40
12.47999904
  1
日付
 50
0.0
 41
0.6
 51
0.0
  7
KANJI5
  0
LINE
  8
0
  6
CONTINUOUS
 62
     4
 10
1182.3200932
 20
78.699999
 30
0.0
 11
1216.1200906
 21
78.699999
 31
0.0
  0
LINE
  8
0
  6
CONTINUOUS
 62
     4
 10
1199.2200919
 20
104.699997
 30
0.0
 11
1216.1200906
 21
78.699999
 31
0.0
  0
LINE
  8
0
  6
CONTINUOUS
 62
     6
 10
1177.1200936
 20
70.8999996
 30
0.0
 11
1177.1200936
 21
112.4999964
 31
0.0
  0
LINE
  8
0
  6
CONTINUOUS
 62
     4
 10
1221.3200902
 20
70.8999996
 30
0.0
 11
1221.3200902
 21
112.4999964
 31
0.0
  0
LINE
  8
0
  6
CONTINUOUS
 62
     4
 10
1294.1200846
 20
70.8999996
 30
0.0
 11
1294.1200846
 21
112.4999964
 31
0.0
  0
LINE
  8
0
  6
CONTINUOUS
 62
     4
 10
1340.920081
 20
70.8999996
 30
0.0
 11
1340.920081
 21
112.4999964
 31
0.0
  0
TEXT
  8
0
  6
CONTINUOUS
 62
     4
 10
1598.3200612
 20
302.2999818
 30
1.03999992
 40
10.3999992
  1
ＣＯＤＥ
 50
0.0
 41
0.6
 51
0.0
  7
KANJI4
  0
LINE
  8
0
  6
CONTINUOUS
 62
     4
 10
1587.920062
 20
320.4999804
 30
0.0
 11
2388.7200004
 21
320.4999804
 31
0.0
  0
TEXT
  8
0
  6
CONTINUOUS
 62
     4
 10
1598.3200612
 20
286.699983
 30
1.247999904
 40
12.47999904
  1
分類
 50
0.0
 41
0.6
 51
0.0
  7
KANJI5
  0
TEXT
  8
0
  6
CONTINUOUS
 62
     4
 10
1606.42
 20
326.7
 30
6.0
 40
21.6
  1
ご注文主
 50
0.0
 41
1.111111111
 51
0.0
  7
KANJI8
  0
TEXT
  8
0
  6
CONTINUOUS
 62
     4
 10
1598.3200612
 20
177.4999914
 30
1.03999992
 40
10.3999992
  1
ＤＲＡＷＮ
 50
0.0
 41
0.6
 51
0.0
  7
KANJI4
  0
TEXT
  8
0
  6
CONTINUOUS
 62
     4
 10
1598.3200612
 20
219.0999882
 30
1.03999992
 40
10.3999992
  1
ＤＥＳＩＧＮ
 50
0.0
 41
0.6
 51
0.0
  7
KANJI4
  0
TEXT
  8
0
  6
CONTINUOUS
 62
     4
 10
1598.3200612
 20
260.699985
 30
1.03999992
 40
10.3999992
  1
ＣＨＥＣＫ
 50
0.0
 41
0.6
 51
0.0
  7
KANJI4
  0
LINE
  8
0
  6
CONTINUOUS
 62
     4
 10
1587.920062
 20
237.2999868
 30
0.0
 11
1777.7200474
 21
237.2999868
 31
0.0
  0
LINE
  8
0
  6
CONTINUOUS
 62
     4
 10
1587.920062
 20
195.69999
 30
0.0
 11
1777.7200474
 21
195.69999
 31
0.0
  0
LINE
  8
0
  6
CONTINUOUS
 62
     4
 10
1587.920062
 20
278.8999836
 30
0.0
 11
1777.7200474
 21
278.8999836
 31
0.0
  0
TEXT
  8
0
  6
CONTINUOUS
 62
     4
 10
1598.3200612
 20
203.4999894
 30
1.247999904
 40
12.47999904
  1
設計
 50
0.0
 41
0.6
 51
0.0
  7
KANJI5
  0
TEXT
  8
0
  6
CONTINUOUS
 62
     4
 10
1598.3200612
 20
245.0999862
 30
1.247999904
 40
12.47999904
  1
検図
 50
0.0
 41
0.6
 51
0.0
  7
KANJI5
  0
LINE
  8
0
  6
CONTINUOUS
 62
     4
 10
1793.06004622
 20
278.8999836
 30
0.0
 11
2388.7200004
 21
278.8999836
 31
0.0
  0
LINE
  8
0
  6
CONTINUOUS
 62
     4
 10
1777.7200474
 20
195.69999
 30
0.0
 11
2388.7200004
 21
195.69999
 31
0.0
  0
TEXT
  8
0
  6
CONTINUOUS
 62
     4
 10
1788.1200466
 20
177.4999914
 30
1.03999992
 40
10.3999992
  1
ＤＲＡＷＩＮＧ　ＮＯ．
 50
0.0
 41
0.8
 51
0.0
  7
KANJI9
  0
TEXT
  8
0
  6
CONTINUOUS
 62
     4
 10
1788.1200466
 20
219.0999882
 30
1.03999992
 40
10.3999992
  1
ＭＦＧ　ＮＯ．
 50
0.0
 41
0.8
 51
0.0
  7
KANJI9
  0
TEXT
  8
0
  6
CONTINUOUS
 62
     4
 10
1788.1200466
 20
260.699985
 30
1.03999992
 40
10.3999992
  1
ＴＹＰＥ
 50
0.0
 41
0.8
 51
0.0
  7
KANJI9
  0
LINE
  8
0
  6
CONTINUOUS
 62
     4
 10
1793.3200462
 20
237.2999868
 30
0.0
 11
2032.5200278
 21
237.2999868
 31
0.0
  0
TEXT
  8
0
  6
CONTINUOUS
 62
     4
 10
1788.1200466
 20
159.2999928
 30
1.247999904
 40
12.47999904
  1
図　面　番　号
 50
0.0
 41
0.8
 51
0.0
  7
KANJI10
  0
TEXT
  8
0
  6
CONTINUOUS
 62
     4
 10
1788.1200466
 20
200.8999896
 30
1.247999904
 40
12.47999904
  1
製番
 50
0.0
 41
0.8
 51
0.0
  7
KANJI10
  0
TEXT
  8
0
  6
CONTINUOUS
 62
     4
 10
1788.1200466
 20
242.4999864
 30
1.247999904
 40
12.47999904
  1
機種
 50
0.0
 41
0.8
 51
0.0
  7
KANJI10
  0
LINE
  8
0
  6
CONTINUOUS
 62
     4
 10
1587.920062
 20
154.0999932
 30
0.0
 11
1777.7200474
 21
154.0999932
 31
0.0
  0
TEXT
  8
0
  6
CONTINUOUS
 62
     4
 10
1598.3200612
 20
135.8999946
 30
1.03999992
 40
10.3999992
  1
ＤＡＴＥ
 50
0.0
 41
0.6
 51
0.0
  7
KANJI4
  0
TEXT
  8
0
  6
CONTINUOUS
 62
     4
 10
1598.3200612
 20
120.2999958
 30
1.247999904
 40
12.47999904
  1
日付
 50
0.0
 41
0.6
 51
0.0
  7
KANJI5
  0
TEXT
  8
0
  6
CONTINUOUS
 62
     4
 10
1598.3200612
 20
161.8999926
 30
1.247999904
 40
12.47999904
  1
作図
 50
0.0
 41
0.6
 51
0.0
  7
KANJI5
  0
LINE
  8
0
  6
CONTINUOUS
 62
     4
 10
1777.7200474
 20
135.8999946
 30
0.0
 11
2388.7200004
 21
135.8999946
 31
0.0
  0
LINE
  8
0
  6
LTYPE1
 62
     4
 10
2214.5200138
 20
143.699994
 30
0.0
 11
2214.5200138
 21
185.2999908
 31
0.0
  0
LINE
  8
0
  6
LTYPE1
 62
     4
 10
2178.1200166
 20
143.699994
 30
0.0
 11
2178.1200166
 21
185.2999908
 31
0.0
  0
LINE
  8
0
  6
LTYPE1
 62
     4
 10
2141.7200194
 20
143.699994
 30
0.0
 11
2141.7200194
 21
185.2999908
 31
0.0
  0
LINE
  8
0
  6
LTYPE1
 62
     4
 10
2105.3200222
 20
143.699994
 30
0.0
 11
2105.3200222
 21
185.2999908
 31
0.0
  0
LINE
  8
0
  6
LTYPE1
 62
     4
 10
2068.920025
 20
143.699994
 30
0.0
 11
2068.920025
 21
185.2999908
 31
0.0
  0
LINE
  8
0
  6
LTYPE1
 62
     4
 10
2032.5200278
 20
143.699994
 30
0.0
 11
2032.5200278
 21
185.2999908
 31
0.0
  0
LINE
  8
0
  6
LTYPE1
 62
     4
 10
1996.1200306
 20
143.699994
 30
0.0
 11
1996.1200306
 21
185.2999908
 31
0.0
  0
LINE
  8
0
  6
LTYPE1
 62
     4
 10
1959.7200334
 20
143.699994
 30
0.0
 11
1959.7200334
 21
185.2999908
 31
0.0
  0
LINE
  8
0
  6
LTYPE1
 62
     4
 10
1959.7200334
 20
185.2999908
 30
0.0
 11
2214.5200138
 21
185.2999908
 31
0.0
  0
LINE
  8
0
  6
LTYPE1
 62
     4
 10
1959.7200334
 20
143.699994
 30
0.0
 11
2214.5200138
 21
143.699994
 31
0.0
  0
LINE
  8
0
  6
CONTINUOUS
 62
     4
 10
2235.3200122
 20
165.7999923
 30
0.0
 11
2245.7200114
 21
165.7999923
 31
0.0
  0
LINE
  8
0
  6
CONTINUOUS
 62
     4
 10
2300.3200072
 20
150.1999935
 30
0.0
 11
2263.92001
 21
150.1999935
 31
0.0
  0
LINE
  8
0
  6
CONTINUOUS
 62
     4
 10
2263.92001
 20
150.1999935
 30
0.0
 11
2282.1200086
 21
181.3999911
 31
0.0
  0
LINE
  8
0
  6
CONTINUOUS
 62
     4
 10
2282.1200086
 20
181.3999911
 30
0.0
 11
2300.3200072
 21
150.1999935
 31
0.0
  0
TEXT
  8
0
  6
CONTINUOUS
 62
     4
 10
2048.1200266
 20
260.699985
 30
1.03999992
 40
10.3999992
  1
ＴＩＴＬＥ
 50
0.0
 41
0.8
 51
0.0
  7
KANJI9
  0
TEXT
  8
0
  6
CONTINUOUS
 62
     4
 10
2048.1200266
 20
242.4999864
 30
1.247999904
 40
12.47999904
  1
名称
 50
0.0
 41
0.8
 51
0.0
  7
KANJI10
  0
TEXT
  8
0
  6
CONTINUOUS
 62
     2
 10
2132.92
 20
203.7
 30
15.0
 40
30.0
  1
外形寸法図
 50
0.0
 41
1.0
 51
0.0
  7
KANJI11
  0
TEXT
  8
0
  6
CONTINUOUS
 62
     2
 10
2096.92
 20
239.7
 30
4.285714286
 40
30.0
  1
マイティシリンダ
 50
0.0
 41
1.0
 51
0.0
  7
KANJI12
  0
TEXT
  8
0
  6
CONTINUOUS
 62
     2
 10
1928.2200334
 20
149.699994
 30
1.8
 40
30.0
  1
Ａ
 50
0.0
 41
0.8
 51
0.0
  7
KANJI13
  0
CIRCLE
  8
0
  6
CONTINUOUS
 62
     2
 10
1889.2200334
 20
214.199994
 30
0.0
 40
15.0
  0
TEXT
  8
0
  6
CONTINUOUS
 62
     2
 10
1877.9700334
 20
202.949994
 30
1.8
 40
24.0
  1
Ｓ
 50
0.0
 41
1.0
 51
0.0
  7
KANJI14
  0
LINE
  8
0
  6
CONTINUOUS
 62
     6
 10
1994.703030709
 20
114.683996232
 30
0.0
 11
1979.727031861
 21
114.683996232
 31
0.0
  0
LINE
  8
0
  6
CONTINUOUS
 62
     6
 10
1998.447030421
 20
114.683996232
 30
0.0
 11
2013.423029269
 21
114.683996232
 31
0.0
  0
TEXT
  8
0
  6
CONTINUOUS
 62
     2
 10
1654.9200334
 20
164.699994
 30
6.0
 40
21.0
  1
岡田
 50
0.0
 41
0.857142857
 51
0.0
  7
KANJI15
  0
LINE
  8
0
  6
CONTINUOUS
 62
     4
 10
2388.7200004
 20
362.0999772
 30
0.0
 11
2388.7200004
 21
403.699974
 31
0.0
  0
LINE
  8
0
  6
CONTINUOUS
 62
     6
 10
1588.670062
 20
362.0999772
 30
0.0
 11
2389.4700004
 21
362.0999772
 31
0.0
  0
LINE
  8
0
  6
CONTINUOUS
 62
     6
 10
1587.920062
 20
403.699974
 30
0.0
 11
2388.7200004
 21
403.699974
 31
0.0
  0
TEXT
  8
0
  6
CONTINUOUS
 62
     4
 10
1606.42
 20
368.2999968
 30
6.0
 40
21.6
  1
ご用途
 50
0.0
 41
1.111111111
 51
0.0
  7
KANJI8
  0
TEXT
  8
0
  6
CONTINUOUS
 62
     2
 10
1697.92
 20
77.7
 30
1.8
 40
27.0
  1
１／６
 50
0.0
 41
0.666666667
 51
0.0
  7
KANJI16
  0
LINE
  8
0
  6
CONTINUOUS
 62
     6
 10
77.919998738
 20
155.699981077
 30
0.0
 11
467.919916738
 21
155.699981077
 31
0.0
  0
LINE
  8
0
  6
CONTINUOUS
 62
     6
 10
467.919916738
 20
71.699998738
 30
0.0
 11
467.919916738
 21
155.699981077
 31
0.0
  0
LINE
  8
0
  6
CONTINUOUS
 62
     1
 10
1512.37
 20
1668.9
 30
0.0
 11
1512.37
 21
1548.78
 31
0.0
  0
LINE
  8
0
  6
CONTINUOUS
 62
     2
 10
1443.07
 20
1668.9
 30
0.0
 11
1443.07
 21
1548.78
 31
0.0
  0
LINE
  8
0
  6
CONTINUOUS
 62
     2
 10
1373.77
 20
1668.9
 30
0.0
 11
1373.77
 21
1548.78
 31
0.0
  0
LINE
  8
0
  6
CONTINUOUS
 62
     1
 10
1281.37
 20
1668.9
 30
0.0
 11
1281.37
 21
1548.78
 31
0.0
  0
LINE
  8
0
  6
CONTINUOUS
 62
     1
 10
1281.37
 20
1668.9
 30
0.0
 11
1512.37
 21
1668.9
 31
0.0
  0
LINE
  8
0
  6
CONTINUOUS
 62
     1
 10
1281.37
 20
1631.94
 30
0.0
 11
1512.37
 21
1631.94
 31
0.0
  0
LINE
  8
0
  6
CONTINUOUS
 62
     2
 10
1281.37
 20
1604.22
 30
0.0
 11
1512.37
 21
1604.22
 31
0.0
  0
LINE
  8
0
  6
CONTINUOUS
 62
     2
 10
1281.37
 20
1576.5
 30
0.0
 11
1512.37
 21
1576.5
 31
0.0
  0
LINE
  8
0
  6
CONTINUOUS
 62
     1
 10
1281.37
 20
1548.78
 30
0.0
 11
1512.37
 21
1548.78
 31
0.0
  0
TEXT
  8
0
  6
CONTINUOUS
 62
     2
 10
1452.31
 20
1652.73
 30
1.386
 40
13.86
  1
起動電流
 50
0.0
 41
0.9
 51
0.0
  7
KANJI17
  0
TEXT
  8
0
  6
CONTINUOUS
 62
     2
 10
1452.31
 20
1636.56
 30
1.386
 40
13.86
  1
　　　Ａ
 50
0.0
 41
0.9
 51
0.0
  7
KANJI17
  0
TEXT
  8
0
  6
CONTINUOUS
 62
     2
 10
1383.01
 20
1652.73
 30
1.386
 40
13.86
  1
定格電流
 50
0.0
 41
0.9
 51
0.0
  7
KANJI17
  0
TEXT
  8
0
  6
CONTINUOUS
 62
     2
 10
1383.01
 20
1636.56
 30
1.386
 40
13.86
  1
　　　Ａ
 50
0.0
 41
0.9
 51
0.0
  7
KANJI17
  0
TEXT
  8
0
  6
CONTINUOUS
 62
     2
 10
1289.224
 20
1583.43
 30
1.386
 40
13.86
  1
２００／６０
 50
0.0
 41
0.9
 51
0.0
  7
KANJI17
  0
TEXT
  8
0
  6
CONTINUOUS
 62
     2
 10
1289.224
 20
1652.73
 30
1.386
 40
13.86
  1
電圧／周波数
 50
0.0
 41
0.9
 51
0.0
  7
KANJI17
  0
TEXT
  8
0
  6
CONTINUOUS
 62
     2
 10
1289.224
 20
1636.56
 30
1.386
 40
13.86
  1
　Ｖ／Ｈｚ
 50
0.0
 41
0.9
 51
0.0
  7
KANJI17
  0
TEXT
  8
0
  6
CONTINUOUS
 62
     2
 10
1289.224
 20
1611.15
 30
1.386
 40
13.86
  1
２００／５０
 50
0.0
 41
0.9
 51
0.0
  7
KANJI17
  0
TEXT
  8
0
  6
CONTINUOUS
 62
     2
 10
1289.224
 20
1555.71
 30
1.386
 40
13.86
  1
２２０／６０
 50
0.0
 41
0.9
 51
0.0
  7
KANJI17
  0
LINE
  8
0
  6
CONTINUOUS
 62
     1
 10
1235.17
 20
1668.9
 30
0.0
 11
1235.17
 21
1548.78
 31
0.0
  0
LINE
  8
0
  6
CONTINUOUS
 62
     2
 10
1165.87
 20
1668.9
 30
0.0
 11
1165.87
 21
1548.78
 31
0.0
  0
LINE
  8
0
  6
CONTINUOUS
 62
     2
 10
1096.57
 20
1668.9
 30
0.0
 11
1096.57
 21
1548.78
 31
0.0
  0
LINE
  8
0
  6
CONTINUOUS
 62
     1
 10
1004.17
 20
1668.9
 30
0.0
 11
1004.17
 21
1548.78
 31
0.0
  0
LINE
  8
0
  6
CONTINUOUS
 62
     1
 10
1004.17
 20
1668.9
 30
0.0
 11
1235.17
 21
1668.9
 31
0.0
  0
LINE
  8
0
  6
CONTINUOUS
 62
     1
 10
1004.17
 20
1631.94
 30
0.0
 11
1235.17
 21
1631.94
 31
0.0
  0
LINE
  8
0
  6
CONTINUOUS
 62
     2
 10
1004.17
 20
1604.22
 30
0.0
 11
1235.17
 21
1604.22
 31
0.0
  0
LINE
  8
0
  6
CONTINUOUS
 62
     2
 10
1004.17
 20
1576.5
 30
0.0
 11
1235.17
 21
1576.5
 31
0.0
  0
LINE
  8
0
  6
CONTINUOUS
 62
     1
 10
1004.17
 20
1548.78
 30
0.0
 11
1235.17
 21
1548.78
 31
0.0
  0
TEXT
  8
0
  6
CONTINUOUS
 62
     2
 10
1175.11
 20
1652.73
 30
1.386
 40
13.86
  1
起動電流
 50
0.0
 41
0.9
 51
0.0
  7
KANJI17
  0
TEXT
  8
0
  6
CONTINUOUS
 62
     2
 10
1175.11
 20
1636.56
 30
1.386
 40
13.86
  1
　　　Ａ
 50
0.0
 41
0.9
 51
0.0
  7
KANJI17
  0
TEXT
  8
0
  6
CONTINUOUS
 62
     2
 10
1105.81
 20
1652.73
 30
1.386
 40
13.86
  1
定格電流
 50
0.0
 41
0.9
 51
0.0
  7
KANJI17
  0
TEXT
  8
0
  6
CONTINUOUS
 62
     2
 10
1105.81
 20
1636.56
 30
1.386
 40
13.86
  1
　　　Ａ
 50
0.0
 41
0.9
 51
0.0
  7
KANJI17
  0
TEXT
  8
0
  6
CONTINUOUS
 62
     2
 10
1012.024
 20
1652.73
 30
1.386
 40
13.86
  1
電圧／周波数
 50
0.0
 41
0.9
 51
0.0
  7
KANJI17
  0
TEXT
  8
0
  6
CONTINUOUS
 62
     2
 10
1012.024
 20
1636.56
 30
1.386
 40
13.86
  1
　Ｖ／Ｈｚ
 50
0.0
 41
0.9
 51
0.0
  7
KANJI17
  0
TEXT
  8
0
  6
CONTINUOUS
 62
     2
 10
1012.024
 20
1611.15
 30
1.386
 40
13.86
  1
４００／５０
 50
0.0
 41
0.9
 51
0.0
  7
KANJI17
  0
TEXT
  8
0
  6
CONTINUOUS
 62
     2
 10
1012.024
 20
1583.43
 30
1.386
 40
13.86
  1
４００／６０
 50
0.0
 41
0.9
 51
0.0
  7
KANJI17
  0
TEXT
  8
0
  6
CONTINUOUS
 62
     2
 10
1012.024
 20
1555.71
 30
1.386
 40
13.86
  1
４４０／６０
 50
0.0
 41
0.9
 51
0.0
  7
KANJI17
  0
TEXT
  8
0
  6
CONTINUOUS
 62
     2
 10
1105.81
 20
1611.15
 30
1.386
 40
13.86
  1
　２．０
 50
0.0
 41
0.9
 51
0.0
  7
KANJI17
  0
TEXT
  8
0
  6
CONTINUOUS
 62
     2
 10
1105.81
 20
1555.71
 30
1.386
 40
13.86
  1
　１．７
 50
0.0
 41
0.9
 51
0.0
  7
KANJI17
  0
TEXT
  8
0
  6
CONTINUOUS
 62
     2
 10
1105.81
 20
1583.43
 30
1.386
 40
13.86
  1
　１．８
 50
0.0
 41
0.9
 51
0.0
  7
KANJI17
  0
TEXT
  8
0
  6
CONTINUOUS
 62
     2
 10
1383.01
 20
1611.15
 30
1.386
 40
13.86
  1
　４．０
 50
0.0
 41
0.9
 51
0.0
  7
KANJI17
  0
TEXT
  8
0
  6
CONTINUOUS
 62
     2
 10
1383.01
 20
1583.43
 30
1.386
 40
13.86
  1
　３．２
 50
0.0
 41
0.9
 51
0.0
  7
KANJI17
  0
TEXT
  8
0
  6
CONTINUOUS
 62
     2
 10
1383.01
 20
1555.71
 30
1.386
 40
13.86
  1
　３．４
 50
0.0
 41
0.9
 51
0.0
  7
KANJI17
  0
TEXT
  8
0
  6
CONTINUOUS
 62
     2
 10
1175.11
 20
1611.15
 30
1.386
 40
13.86
  1
　６．６
 50
0.0
 41
0.9
 51
0.0
  7
KANJI17
  0
TEXT
  8
0
  6
CONTINUOUS
 62
     2
 10
1175.11
 20
1583.43
 30
1.386
 40
13.86
  1
　５．８
 50
0.0
 41
0.9
 51
0.0
  7
KANJI17
  0
TEXT
  8
0
  6
CONTINUOUS
 62
     2
 10
1175.11
 20
1555.71
 30
1.386
 40
13.86
  1
　６．４
 50
0.0
 41
0.9
 51
0.0
  7
KANJI17
  0
TEXT
  8
0
  6
CONTINUOUS
 62
     2
 10
1452.31
 20
1611.15
 30
1.386
 40
13.86
  1
１３．３
 50
0.0
 41
0.9
 51
0.0
  7
KANJI17
  0
TEXT
  8
0
  6
CONTINUOUS
 62
     2
 10
1452.31
 20
1583.43
 30
1.386
 40
13.86
  1
１１．６
 50
0.0
 41
0.9
 51
0.0
  7
KANJI17
  0
TEXT
  8
0
  6
CONTINUOUS
 62
     2
 10
1452.31
 20
1555.71
 30
1.386
 40
13.86
  1
１２．７
 50
0.0
 41
0.9
 51
0.0
  7
KANJI17
  0
TEXT
  8
0
  6
CONTINUOUS
 62
     2
 10
1850.92
 20
245.7
 30
0.0
 40
21.0
  1
ＭＤ１－ＪＬ
 50
0.0
 41
0.793650794
 51
0.0
  7
KANJI18
  0
TEXT
  8
0
  6
CONTINUOUS
 62
     2
 10
1965.7200334
 20
149.699994
 30
13.0
 40
30.0
  1
３００２４６１
 50
0.0
 41
0.8
 51
0.0
  7
KANJI19
  0
TEXT
  8
0
  6
CONTINUOUS
 62
     2
 10
165.4
 20
20.4
 30
0.0
 40
18.0
  1
ＦＤ　Ｎｏ．ＭＣ１９３
 50
0.0
 41
0.9
 51
0.0
  7
KANJI20
  0
LINE
  8
0
  6
CONTINUOUS
 62
     6
 10
345.629425053
 20
1625.447759827
 30
0.0
 11
113.584646507
 21
1625.447759827
 31
0.0
  0
TEXT
  8
0
  6
CONTINUOUS
 62
     6
 10
117.493517202
 20
1628.64592676
 30
1.0647
 40
11.661
  1
ＬＳ０１　　　：推力リミッタ（前進時過負荷用）
 50
0.0
 41
0.822608696
 51
0.0
  7
KANJI21
  0
TEXT
  8
0
  6
CONTINUOUS
 62
     6
 10
117.493517202
 20
1601.18342676
 30
1.0647
 40
11.661
  1
ＬＳ０２　　　：推力リミッタ（後進時過負荷用）
 50
0.0
 41
0.822608696
 51
0.0
  7
KANJI21
  0
LINE
  8
0
  6
CONTINUOUS
 62
     3
 10
345.629425053
 20
1597.985259827
 30
0.0
 11
113.584646507
 21
1597.985259827
 31
0.0
  0
LINE
  8
0
  6
CONTINUOUS
 62
     6
 10
345.629425053
 20
1597.985259827
 30
0.0
 11
113.584646507
 21
1597.985259827
 31
0.0
  0
TEXT
  8
0
  6
CONTINUOUS
 62
     6
 10
371.212228
 20
1622.900410728
 30
1.232517
 40
13.182
  1
電気定格　　　
 50
0.0
 41
0.85
 51
0.0
  7
KANJI22
  0
TEXT
  8
0
  6
CONTINUOUS
 62
     6
 10
384.013715102
 20
1592.326958599
 30
0.0
 40
11.8638
  1
ＤＣ１２５Ｖ　０．６Ａ　，ＤＣ２５０Ｖ　０．３Ａ　
 50
0.0
 41
0.726495726
 51
0.0
  7
KANJI23
  0
TEXT
  8
0
  6
CONTINUOUS
 62
     6
 10
378.757132178
 20
1640.661726126
 30
0.0
 40
55.0
  1
｝
 50
0.0
 41
0.440318182
 51
0.0
  7
KANJI24
  0
LINE
  8
0
  6
LTYPE2
 62
     6
 10
97.42
 20
1352.3
 30
0.0
 11
618.02
 21
1352.3
 31
0.0
  0
LINE
  8
0
  6
LTYPE2
 62
     6
 10
618.02
 20
1352.3
 30
0.0
 11
618.02
 21
1655.4
 31
0.0
  0
LINE
  8
0
  6
LTYPE2
 62
     6
 10
618.02
 20
1655.4
 30
0.0
 11
97.42
 21
1655.4
 31
0.0
  0
LINE
  8
0
  6
LTYPE2
 62
     6
 10
97.42
 20
1655.4
 30
0.0
 11
97.42
 21
1352.3
 31
0.0
  0
TEXT
  8
0
  6
CONTINUOUS
 62
     6
 10
282.632791539
 20
1370.32382165
 30
0.0
 40
17.740702234
  1
端子台　接続図
 50
0.0
 41
0.880962996
 51
0.0
  7
KANJI25
  0
LINE
  8
0
  6
CONTINUOUS
 62
     2
 10
317.597373465
 20
1421.328121884
 30
0.0
 11
317.597373465
 21
1398.549155128
 31
0.0
  0
LINE
  8
0
  6
CONTINUOUS
 62
     2
 10
344.17283468
 20
1421.328121884
 30
0.0
 11
344.17283468
 21
1398.549155128
 31
0.0
  0
LINE
  8
0
  6
CONTINUOUS
 62
     2
 10
370.748295894
 20
1421.328121884
 30
0.0
 11
370.748295894
 21
1398.549155128
 31
0.0
  0
LINE
  8
0
  6
CONTINUOUS
 62
     2
 10
397.323757109
 20
1421.328121884
 30
0.0
 11
397.323757109
 21
1398.549155128
 31
0.0
  0
CIRCLE
  8
0
  6
CONTINUOUS
 62
     6
 10
389.404269667
 20
1444.807921517
 30
0.0
 40
4.100214016
  0
LINE
  8
0
  6
CONTINUOUS
 62
     6
 10
385.304055651
 20
1444.807921517
 30
0.0
 11
384.036026502
 21
1444.807921517
 31
0.0
  0
LINE
  8
0
  6
CONTINUOUS
 62
     6
 10
410.358027433
 20
1458.494562742
 30
0.0
 11
406.443558096
 21
1436.159507138
 31
0.0
  0
LINE
  8
0
  6
CONTINUOUS
 62
     6
 10
405.631699663
 20
1459.282284037
 30
0.0
 11
401.716922494
 21
1436.947279739
 31
0.0
  0
LINE
  8
0
  6
CONTINUOUS
 62
     6
 10
406.443558096
 20
1436.159507138
 30
0.0
 11
401.716922494
 21
1436.947279739
 31
0.0
  0
CIRCLE
  8
0
  6
CONTINUOUS
 62
     6
 10
410.611487717
 20
1435.339464335
 30
0.0
 40
4.100214016
  0
LINE
  8
0
  6
CONTINUOUS
 62
     6
 10
410.611487717
 20
1431.239250319
 30
0.0
 11
410.611487717
 21
1421.328121884
 31
0.0
  0
LINE
  8
0
  6
CONTINUOUS
 62
     6
 10
384.036026502
 20
1444.807921517
 30
0.0
 11
384.036026502
 21
1421.328121884
 31
0.0
  0
LINE
  8
0
  6
CONTINUOUS
 62
     6
 10
357.460565287
 20
1421.328121884
 30
0.0
 11
357.460565287
 21
1475.033332504
 31
0.0
  0
LINE
  8
0
  6
CONTINUOUS
 62
     6
 10
277.987641926
 20
1458.494562742
 30
0.0
 11
281.902111263
 21
1436.159507138
 31
0.0
  0
LINE
  8
0
  6
CONTINUOUS
 62
     6
 10
282.713969696
 20
1459.282284037
 30
0.0
 11
286.628746865
 21
1436.947279739
 31
0.0
  0
LINE
  8
0
  6
CONTINUOUS
 62
     6
 10
281.902111263
 20
1436.159507138
 30
0.0
 11
286.628746865
 21
1436.947279739
 31
0.0
  0
CIRCLE
  8
0
  6
CONTINUOUS
 62
     6
 10
277.734181642
 20
1435.339464335
 30
0.0
 40
4.100214016
  0
CIRCLE
  8
0
  6
CONTINUOUS
 62
     6
 10
298.941399692
 20
1444.807921517
 30
0.0
 40
4.100214016
  0
LINE
  8
0
  6
CONTINUOUS
 62
     6
 10
303.041613708
 20
1444.807921517
 30
0.0
 11
304.309642857
 21
1444.807921517
 31
0.0
  0
LINE
  8
0
  6
CONTINUOUS
 62
     6
 10
277.734181642
 20
1431.239250319
 30
0.0
 11
277.734181642
 21
1421.328121884
 31
0.0
  0
LINE
  8
0
  6
CONTINUOUS
 62
     6
 10
304.309642857
 20
1444.807921517
 30
0.0
 11
304.309642857
 21
1421.328121884
 31
0.0
  0
LINE
  8
0
  6
CONTINUOUS
 62
     6
 10
330.885104072
 20
1421.328121884
 30
0.0
 11
330.885104072
 21
1475.033332504
 31
0.0
  0
LINE
  8
0
  6
CONTINUOUS
 62
     2
 10
423.899218324
 20
1421.328121884
 30
0.0
 11
423.899218324
 21
1398.549155128
 31
0.0
  0
LINE
  8
0
  6
CONTINUOUS
 62
     2
 10
264.446451035
 20
1421.328121884
 30
0.0
 11
264.446451035
 21
1398.549155128
 31
0.0
  0
LINE
  8
0
  6
CONTINUOUS
 62
     2
 10
291.02191225
 20
1421.328121884
 30
0.0
 11
291.02191225
 21
1398.549155128
 31
0.0
  0
LINE
  8
0
  6
CONTINUOUS
 62
     6
 10
410.611487717
 20
1475.033332504
 30
0.0
 11
357.460565287
 21
1475.033332504
 31
0.0
  0
CIRCLE
  8
0
  6
CONTINUOUS
 62
     6
 10
410.611487717
 20
1462.68941042
 30
0.0
 40
4.100214016
  0
LINE
  8
0
  6
CONTINUOUS
 62
     6
 10
410.358027433
 20
1458.494562742
 30
0.0
 11
405.631699663
 21
1459.282284037
 31
0.0
  0
LINE
  8
0
  6
CONTINUOUS
 62
     6
 10
410.611487717
 20
1466.789624436
 30
0.0
 11
410.611487717
 21
1475.033332504
 31
0.0
  0
CIRCLE
  8
0
  6
CONTINUOUS
 62
     6
 10
277.734181642
 20
1462.68941042
 30
0.0
 40
4.100214016
  0
LINE
  8
0
  6
CONTINUOUS
 62
     6
 10
277.987641926
 20
1458.494562742
 30
0.0
 11
282.713969696
 21
1459.282284037
 31
0.0
  0
LINE
  8
0
  6
CONTINUOUS
 62
     6
 10
277.734181642
 20
1466.789624436
 30
0.0
 11
277.734181642
 21
1475.033332504
 31
0.0
  0
LINE
  8
0
  6
CONTINUOUS
 62
     6
 10
330.885104072
 20
1475.033332504
 30
0.0
 11
277.734181642
 21
1475.033332504
 31
0.0
  0
TEXT
  8
0
  6
CONTINUOUS
 62
     6
 10
282.4972152
 20
1479.552473273
 30
0.819
 40
11.7
  1
ＬＳ０１
 50
0.0
 41
0.8
 51
0.0
  7
KANJI26
  0
TEXT
  8
0
  6
CONTINUOUS
 62
     6
 10
365.117398844
 20
1479.552473273
 30
0.819
 40
11.7
  1
ＬＳ０２
 50
0.0
 41
0.8
 51
0.0
  7
KANJI26
  0
TEXT
  8
0
  6
CONTINUOUS
 62
     3
 10
110.308775989
 20
1402.345649587
 30
0.0
 40
15.0
  1
　　　　　　　　　　　　　　　　　　１　　２　　　３　　　４　　　５　　　６
 50
0.0
 41
0.911
 51
0.0
  7
KANJI27
  0
LINE
  8
0
  6
CONTINUOUS
 62
     2
 10
264.446451035
 20
1421.328121884
 30
0.0
 11
423.899218324
 21
1421.328121884
 31
0.0
  0
LINE
  8
0
  6
CONTINUOUS
 62
     2
 10
264.446451035
 20
1398.549155128
 30
0.0
 11
423.899218324
 21
1398.549155128
 31
0.0
  0
TEXT
  8
0
  6
CONTINUOUS
 62
     6
 10
256.132791539
 20
1509.32382165
 30
0.0
 40
17.740702234
  1
推力リミッタ端子台配列
 50
0.0
 41
0.880962996
 51
0.0
  7
KANJI25
  0
TEXT
  8
0
  6
CONTINUOUS
 62
     6
 10
384.013715102
 20
1608.071931782
 30
0.0
 40
11.8638
  1
ＡＣ１００Ｖ　１２５Ｖ　２５０Ｖ　－１０Ａ
 50
0.0
 41
0.726495726
 51
0.0
  7
KANJI23
  0
LINE
  8
0
  6
CONTINUOUS
 62
     1
 10
400.0
 20
604.0
 30
0.0
 11
314.0
 21
604.0
 31
0.0
  0
LINE
  8
0
  6
CONTINUOUS
 62
     1
 10
314.0
 20
617.5
 30
0.0
 11
314.0
 21
606.55046
 31
0.0
  0
LINE
  8
0
  6
CONTINUOUS
 62
     1
 10
314.0
 20
617.5
 30
0.0
 11
314.0
 21
628.44954
 31
0.0
  0
LINE
  8
0
  6
CONTINUOUS
 62
     1
 10
305.9789
 20
609.23198
 30
0.0
 11
307.527076294
 21
606.55046
 31
0.0
  0
LINE
  8
0
  6
CONTINUOUS
 62
     1
 10
305.9789
 20
617.5
 30
0.0
 11
305.9789
 21
609.23198
 31
0.0
  0
LINE
  8
0
  6
CONTINUOUS
 62
     1
 10
305.9789
 20
625.76802
 30
0.0
 11
307.527076294
 21
628.44954
 31
0.0
  0
LINE
  8
0
  6
CONTINUOUS
 62
     1
 10
305.9789
 20
617.5
 30
0.0
 11
305.9789
 21
625.76802
 31
0.0
  0
ARC
  8
0
  6
CONTINUOUS
 62
     1
 10
316.433121693
 20
617.5
 30
0.0
 40
10.454221693
 50
148.419912243
 51
211.580087757
  0
ARC
  8
0
  6
CONTINUOUS
 62
     1
 10
309.172013606
 20
609.287845
 30
0.0
 40
3.193602261
 50
121.002313915
 51
182.989498403
  0
LINE
  8
0
  6
CONTINUOUS
 62
     1
 10
305.9789
 20
625.76802
 30
0.0
 11
307.527076294
 21
628.44954
 31
0.0
  0
ARC
  8
0
  6
CONTINUOUS
 62
     1
 10
309.172013606
 20
625.712155
 30
0.0
 40
3.193602261
 50
177.010501597
 51
238.997686085
  0
LINE
  8
0
  6
CONTINUOUS
 62
     1
 10
314.0
 20
606.55046
 30
0.0
 11
307.527076294
 21
606.55046
 31
0.0
  0
LINE
  8
0
  6
CONTINUOUS
 62
     1
 10
314.0
 20
612.02523
 30
0.0
 11
307.527076294
 21
612.02523
 31
0.0
  0
LINE
  8
0
  6
CONTINUOUS
 62
     1
 10
314.0
 20
622.97477
 30
0.0
 11
307.527076294
 21
622.97477
 31
0.0
  0
LINE
  8
0
  6
CONTINUOUS
 62
     1
 10
314.0
 20
628.44954
 30
0.0
 11
307.527076294
 21
628.44954
 31
0.0
  0
LINE
  8
0
  6
CONTINUOUS
 62
     1
 10
314.0
 20
745.5
 30
0.0
 11
314.0
 21
734.55046
 31
0.0
  0
LINE
  8
0
  6
CONTINUOUS
 62
     1
 10
314.0
 20
745.5
 30
0.0
 11
314.0
 21
756.44954
 31
0.0
  0
LINE
  8
0
  6
CONTINUOUS
 62
     1
 10
305.9789
 20
737.23198
 30
0.0
 11
307.527076294
 21
734.55046
 31
0.0
  0
LINE
  8
0
  6
CONTINUOUS
 62
     1
 10
305.9789
 20
745.5
 30
0.0
 11
305.9789
 21
737.23198
 31
0.0
  0
LINE
  8
0
  6
CONTINUOUS
 62
     1
 10
305.9789
 20
753.76802
 30
0.0
 11
307.527076294
 21
756.44954
 31
0.0
  0
LINE
  8
0
  6
CONTINUOUS
 62
     1
 10
305.9789
 20
745.5
 30
0.0
 11
305.9789
 21
753.76802
 31
0.0
  0
ARC
  8
0
  6
CONTINUOUS
 62
     1
 10
316.433121693
 20
745.5
 30
0.0
 40
10.454221693
 50
148.419912243
 51
211.580087757
  0
ARC
  8
0
  6
CONTINUOUS
 62
     1
 10
309.172013606
 20
737.287845
 30
0.0
 40
3.193602261
 50
121.002313915
 51
182.989498403
  0
LINE
  8
0
  6
CONTINUOUS
 62
     1
 10
305.9789
 20
753.76802
 30
0.0
 11
307.527076294
 21
756.44954
 31
0.0
  0
ARC
  8
0
  6
CONTINUOUS
 62
     1
 10
309.172013606
 20
753.712155
 30
0.0
 40
3.193602261
 50
177.010501597
 51
238.997686085
  0
LINE
  8
0
  6
CONTINUOUS
 62
     1
 10
314.0
 20
734.55046
 30
0.0
 11
307.527076294
 21
734.55046
 31
0.0
  0
LINE
  8
0
  6
CONTINUOUS
 62
     1
 10
314.0
 20
740.02523
 30
0.0
 11
307.527076294
 21
740.02523
 31
0.0
  0
LINE
  8
0
  6
CONTINUOUS
 62
     1
 10
314.0
 20
750.97477
 30
0.0
 11
307.527076294
 21
750.97477
 31
0.0
  0
LINE
  8
0
  6
CONTINUOUS
 62
     1
 10
314.0
 20
756.44954
 30
0.0
 11
307.527076294
 21
756.44954
 31
0.0
  0
LINE
  8
0
  6
CONTINUOUS
 62
     1
 10
508.0
 20
623.5
 30
0.0
 11
582.0
 21
623.5
 31
0.0
  0
LINE
  8
0
  6
CONTINUOUS
 62
     1
 10
415.0
 20
624.5
 30
0.0
 11
415.0
 21
738.5
 31
0.0
  0
CIRCLE
  8
0
  6
CONTINUOUS
 62
     1
 10
460.0
 20
681.5
 30
0.0
 40
10.0
  0
CIRCLE
  8
0
  6
CONTINUOUS
 62
     1
 10
460.0
 20
681.5
 30
0.0
 40
21.0
  0
CIRCLE
  8
0
  6
CONTINUOUS
 62
     1
 10
460.0
 20
681.5
 30
0.0
 40
25.0
  0
LINE
  8
0
  6
CONTINUOUS
 62
     1
 10
400.0
 20
738.5
 30
0.0
 11
415.0
 21
738.5
 31
0.0
  0
LINE
  8
0
  6
CONTINUOUS
 62
     1
 10
428.9
 20
734.5
 30
0.0
 11
582.0
 21
734.5
 31
0.0
  0
LINE
  8
0
  6
CONTINUOUS
 62
     1
 10
508.0
 20
623.5
 30
0.0
 11
508.0
 21
675.9
 31
0.0
  0
LINE
  8
0
  6
CONTINUOUS
 62
     1
 10
428.9
 20
628.5
 30
0.0
 11
505.5
 21
628.5
 31
0.0
  0
ARC
  8
0
  6
CONTINUOUS
 62
     1
 10
503.0
 20
619.0
 30
0.0
 40
3.0
 50
90.0
 51
180.0
  0
LINE
  8
0
  6
CONTINUOUS
 62
     1
 10
503.0
 20
622.0
 30
0.0
 11
590.0
 21
622.0
 31
0.0
  0
LINE
  8
0
  6
CONTINUOUS
 62
     1
 10
503.0
 20
623.5
 30
0.0
 11
590.0
 21
623.5
 31
0.0
  0
LINE
  8
0
  6
CONTINUOUS
 62
     1
 10
418.0
 20
726.5
 30
0.0
 11
418.0
 21
737.44954
 31
0.0
  0
LINE
  8
0
  6
CONTINUOUS
 62
     1
 10
418.0
 20
726.5
 30
0.0
 11
418.0
 21
715.55046
 31
0.0
  0
LINE
  8
0
  6
CONTINUOUS
 62
     1
 10
415.0
 20
737.25
 30
0.0
 11
418.0
 21
737.25
 31
0.0
  0
LINE
  8
0
  6
CONTINUOUS
 62
     1
 10
415.0
 20
726.5
 30
0.0
 11
418.000254073
 21
729.500254073
 31
0.0
  0
LINE
  8
0
  6
CONTINUOUS
 62
     1
 10
418.000254073
 20
726.5
 30
0.0
 11
415.0
 21
723.499745927
 31
0.0
  0
LINE
  8
0
  6
CONTINUOUS
 62
     1
 10
415.0
 20
715.75
 30
0.0
 11
418.0
 21
715.75
 31
0.0
  0
LINE
  8
0
  6
CONTINUOUS
 62
     1
 10
418.0
 20
737.25
 30
0.0
 11
429.3
 21
737.25
 31
0.0
  0
LINE
  8
0
  6
CONTINUOUS
 62
     1
 10
429.3
 20
726.5
 30
0.0
 11
429.3
 21
737.25
 31
0.0
  0
LINE
  8
0
  6
CONTINUOUS
 62
     1
 10
429.3
 20
737.25
 30
0.0
 11
430.0
 21
736.037564435
 31
0.0
  0
LINE
  8
0
  6
CONTINUOUS
 62
     1
 10
430.0
 20
726.5
 30
0.0
 11
430.0
 21
736.037564435
 31
0.0
  0
LINE
  8
0
  6
CONTINUOUS
 62
     1
 10
418.0
 20
715.75
 30
0.0
 11
429.3
 21
715.75
 31
0.0
  0
LINE
  8
0
  6
CONTINUOUS
 62
     1
 10
429.3
 20
726.5
 30
0.0
 11
429.3
 21
715.75
 31
0.0
  0
LINE
  8
0
  6
CONTINUOUS
 62
     1
 10
429.3
 20
715.75
 30
0.0
 11
430.0
 21
716.962435565
 31
0.0
  0
LINE
  8
0
  6
CONTINUOUS
 62
     1
 10
430.0
 20
726.5
 30
0.0
 11
430.0
 21
716.962435565
 31
0.0
  0
LINE
  8
0
  6
CONTINUOUS
 62
     1
 10
418.0
 20
636.5
 30
0.0
 11
418.0
 21
625.55046
 31
0.0
  0
LINE
  8
0
  6
CONTINUOUS
 62
     1
 10
418.0
 20
636.5
 30
0.0
 11
418.0
 21
647.44954
 31
0.0
  0
LINE
  8
0
  6
CONTINUOUS
 62
     1
 10
415.0
 20
625.75
 30
0.0
 11
418.0
 21
625.75
 31
0.0
  0
LINE
  8
0
  6
CONTINUOUS
 62
     1
 10
415.0
 20
636.5
 30
0.0
 11
418.000254073
 21
633.499745927
 31
0.0
  0
LINE
  8
0
  6
CONTINUOUS
 62
     1
 10
418.000254073
 20
636.5
 30
0.0
 11
415.0
 21
639.500254073
 31
0.0
  0
LINE
  8
0
  6
CONTINUOUS
 62
     1
 10
415.0
 20
647.25
 30
0.0
 11
418.0
 21
647.25
 31
0.0
  0
LINE
  8
0
  6
CONTINUOUS
 62
     1
 10
418.0
 20
625.75
 30
0.0
 11
429.3
 21
625.75
 31
0.0
  0
LINE
  8
0
  6
CONTINUOUS
 62
     1
 10
429.3
 20
636.5
 30
0.0
 11
429.3
 21
625.75
 31
0.0
  0
LINE
  8
0
  6
CONTINUOUS
 62
     1
 10
429.3
 20
625.75
 30
0.0
 11
430.0
 21
626.962435565
 31
0.0
  0
LINE
  8
0
  6
CONTINUOUS
 62
     1
 10
430.0
 20
636.5
 30
0.0
 11
430.0
 21
626.962435565
 31
0.0
  0
LINE
  8
0
  6
CONTINUOUS
 62
     1
 10
418.0
 20
647.25
 30
0.0
 11
429.3
 21
647.25
 31
0.0
  0
LINE
  8
0
  6
CONTINUOUS
 62
     1
 10
429.3
 20
636.5
 30
0.0
 11
429.3
 21
647.25
 31
0.0
  0
LINE
  8
0
  6
CONTINUOUS
 62
     1
 10
429.3
 20
647.25
 30
0.0
 11
430.0
 21
646.037564435
 31
0.0
  0
LINE
  8
0
  6
CONTINUOUS
 62
     1
 10
430.0
 20
636.5
 30
0.0
 11
430.0
 21
646.037564435
 31
0.0
  0
LINE
  8
0
  6
CONTINUOUS
 62
     1
 10
400.0
 20
624.5
 30
0.0
 11
415.0
 21
624.5
 31
0.0
  0
POINT
  8
0
  6
CONTINUOUS
 62
     1
 10
400.0
 20
624.5
 30
0.0
  0
LINE
  8
0
  6
CONTINUOUS
 62
     1
 10
400.0
 20
624.5
 30
0.0
 11
400.0
 21
738.5
 31
0.0
  0
LINE
  8
0
  6
LTYPE3
 62
     2
 10
339.1
 20
617.5
 30
0.0
 11
304.9
 21
617.5
 31
0.0
  0
LINE
  8
0
  6
LTYPE3
 62
     2
 10
340.1
 20
745.5
 30
0.0
 11
304.9
 21
745.5
 31
0.0
  0
LINE
  8
0
  6
LTYPE3
 62
     2
 10
379.0
 20
726.5
 30
0.0
 11
432.0
 21
726.5
 31
0.0
  0
LINE
  8
0
  6
LTYPE3
 62
     2
 10
460.0
 20
650.0
 30
0.0
 11
460.0
 21
713.0
 31
0.0
  0
LINE
  8
0
  6
LTYPE3
 62
     2
 10
379.0
 20
636.5
 30
0.0
 11
432.0
 21
636.5
 31
0.0
  0
LINE
  8
0
  6
LTYPE2
 62
     2
 10
544.0
 20
610.3
 30
0.0
 11
544.0
 21
625.15
 31
0.0
  0
LINE
  8
0
  6
CONTINUOUS
 62
     2
 10
314.0
 20
431.3625
 30
0.0
 11
326.074072829
 21
428.127261936
 31
0.0
  0
LINE
  8
0
  6
CONTINUOUS
 62
     2
 10
314.0
 20
431.3625
 30
0.0
 11
326.074072829
 21
434.597738064
 31
0.0
  0
LINE
  8
0
  6
CONTINUOUS
 62
     2
 10
314.0
 20
431.3625
 30
0.0
 11
400.0
 21
431.3625
 31
0.0
  0
LINE
  8
0
  6
CONTINUOUS
 62
     2
 10
400.0
 20
431.3625
 30
0.0
 11
387.925927171
 21
434.597738064
 31
0.0
  0
LINE
  8
0
  6
CONTINUOUS
 62
     2
 10
400.0
 20
431.3625
 30
0.0
 11
387.925927171
 21
428.127261936
 31
0.0
  0
LINE
  8
0
  6
CONTINUOUS
 62
     2
 10
400.0
 20
431.3625
 30
0.0
 11
412.074072829
 21
428.127261936
 31
0.0
  0
LINE
  8
0
  6
CONTINUOUS
 62
     2
 10
400.0
 20
431.3625
 30
0.0
 11
412.074072829
 21
434.597738064
 31
0.0
  0
LINE
  8
0
  6
CONTINUOUS
 62
     2
 10
400.0
 20
431.3625
 30
0.0
 11
460.0
 21
431.3625
 31
0.0
  0
LINE
  8
0
  6
CONTINUOUS
 62
     2
 10
460.0
 20
431.3625
 30
0.0
 11
447.925927171
 21
434.597738064
 31
0.0
  0
LINE
  8
0
  6
CONTINUOUS
 62
     2
 10
460.0
 20
431.3625
 30
0.0
 11
447.925927171
 21
428.127261936
 31
0.0
  0
LINE
  8
0
  6
CONTINUOUS
 62
     2
 10
460.0
 20
431.3625
 30
0.0
 11
472.074072829
 21
428.127261936
 31
0.0
  0
LINE
  8
0
  6
CONTINUOUS
 62
     2
 10
460.0
 20
431.3625
 30
0.0
 11
472.074072829
 21
434.597738064
 31
0.0
  0
LINE
  8
0
  6
CONTINUOUS
 62
     2
 10
460.0
 20
431.3625
 30
0.0
 11
1091.0
 21
431.3625
 31
0.0
  0
LINE
  8
0
  6
CONTINUOUS
 62
     2
 10
460.0
 20
474.7
 30
0.0
 11
472.074072829
 21
471.464761936
 31
0.0
  0
LINE
  8
0
  6
CONTINUOUS
 62
     2
 10
460.0
 20
474.7
 30
0.0
 11
472.074072829
 21
477.935238064
 31
0.0
  0
LINE
  8
0
  6
CONTINUOUS
 62
     2
 10
460.0
 20
474.7
 30
0.0
 11
986.0
 21
474.7
 31
0.0
  0
LINE
  8
0
  6
CONTINUOUS
 62
     2
 10
314.0
 20
423.8625
 30
0.0
 11
314.0
 21
379.5
 31
0.0
  0
LINE
  8
0
  6
CONTINUOUS
 62
     2
 10
314.0
 20
387.0
 30
0.0
 11
326.074072829
 21
383.764761936
 31
0.0
  0
LINE
  8
0
  6
CONTINUOUS
 62
     2
 10
314.0
 20
387.0
 30
0.0
 11
326.074072829
 21
390.235238064
 31
0.0
  0
LINE
  8
0
  6
CONTINUOUS
 62
     2
 10
314.0
 20
387.0
 30
0.0
 11
1091.0
 21
387.0
 31
0.0
  0
LINE
  8
0
  6
CONTINUOUS
 62
     2
 10
314.0
 20
595.875
 30
0.0
 11
314.0
 21
423.8625
 31
0.0
  0
LINE
  8
0
  6
CONTINUOUS
 62
     2
 10
400.0
 20
599.875
 30
0.0
 11
400.0
 21
423.8625
 31
0.0
  0
LINE
  8
0
  6
CONTINUOUS
 62
     2
 10
460.0
 20
653.375
 30
0.0
 11
460.0
 21
423.8625
 31
0.0
  0
ARC
  8
0
  6
CONTINUOUS
 62
     1
 10
412.0
 20
751.0
 30
0.0
 40
2.0
 50
90.0
 51
180.0
  0
ARC
  8
0
  6
CONTINUOUS
 62
     1
 10
412.0
 20
882.0
 30
0.0
 40
2.0
 50
180.0
 51
270.0
  0
LINE
  8
0
  6
CONTINUOUS
 62
     1
 10
447.0
 20
880.0
 30
0.0
 11
447.0
 21
753.0
 31
0.0
  0
LINE
  8
0
  6
CONTINUOUS
 62
     1
 10
633.000005395
 20
753.0
 30
0.0
 11
412.0
 21
753.0
 31
0.0
  0
LINE
  8
0
  6
CONTINUOUS
 62
     1
 10
633.0
 20
880.0
 30
0.0
 11
412.0
 21
880.0
 31
0.0
  0
LINE
  8
0
  6
CONTINUOUS
 62
     1
 10
545.05
 20
899.5
 30
0.0
 11
545.05
 21
933.5
 31
0.0
  0
LINE
  8
0
  6
CONTINUOUS
 62
     1
 10
545.05
 20
899.5
 30
0.0
 11
519.05
 21
899.5
 31
0.0
  0
LINE
  8
0
  6
CONTINUOUS
 62
     1
 10
545.05
 20
933.5
 30
0.0
 11
519.05
 21
933.5
 31
0.0
  0
LINE
  8
0
  6
LTYPE2
 62
     2
 10
551.979475845
 20
916.5
 30
0.0
 11
511.979475845
 21
916.5
 31
0.0
  0
LINE
  8
0
  6
CONTINUOUS
 62
     1
 10
449.05
 20
891.5
 30
0.0
 11
449.05
 21
894.5
 31
0.0
  0
ARC
  8
0
  6
CONTINUOUS
 62
     1
 10
453.05
 20
888.5
 30
0.0
 40
3.0
 50
0.0
 51
90.0
  0
LINE
  8
0
  6
CONTINUOUS
 62
     1
 10
509.05
 20
891.5
 30
0.0
 11
509.05
 21
894.5
 31
0.0
  0
ARC
  8
0
  6
CONTINUOUS
 62
     1
 10
505.05
 20
888.5
 30
0.0
 40
3.0
 50
90.0
 51
180.0
  0
LINE
  8
0
  6
CONTINUOUS
 62
     1
 10
509.05
 20
891.5
 30
0.0
 11
449.05
 21
891.5
 31
0.0
  0
LINE
  8
0
  6
CONTINUOUS
 62
     1
 10
433.962087912
 20
896.5
 30
0.0
 11
526.05
 21
940.520045888
 31
0.0
  0
LINE
  8
0
  6
CONTINUOUS
 62
     1
 10
432.05
 20
900.5
 30
0.0
 11
433.962087912
 21
896.5
 31
0.0
  0
LINE
  8
0
  6
CONTINUOUS
 62
     1
 10
432.05
 20
900.5
 30
0.0
 11
524.137912088
 21
944.520045888
 31
0.0
  0
LINE
  8
0
  6
CONTINUOUS
 62
     1
 10
524.137912088
 20
944.520045888
 30
0.0
 11
526.05
 21
940.520045888
 31
0.0
  0
LINE
  8
0
  6
CONTINUOUS
 62
     1
 10
439.05
 20
903.846153846
 30
0.0
 11
439.05
 21
943.5
 31
0.0
  0
ARC
  8
0
  6
CONTINUOUS
 62
     1
 10
442.05
 20
943.5
 30
0.0
 40
3.0
 50
90.0
 51
180.0
  0
LINE
  8
0
  6
CONTINUOUS
 62
     1
 10
439.05
 20
897.5
 30
0.0
 11
439.05
 21
898.9321338
 31
0.0
  0
ARC
  8
0
  6
CONTINUOUS
 62
     1
 10
442.05
 20
897.5
 30
0.0
 40
3.0
 50
180.0
 51
270.0
  0
LINE
  8
0
  6
CONTINUOUS
 62
     1
 10
519.05
 20
897.5
 30
0.0
 11
519.05
 21
937.173892042
 31
0.0
  0
LINE
  8
0
  6
CONTINUOUS
 62
     1
 10
516.05
 20
894.5
 30
0.0
 11
442.05
 21
894.5
 31
0.0
  0
ARC
  8
0
  6
CONTINUOUS
 62
     1
 10
516.05
 20
897.5
 30
0.0
 40
3.0
 50
270.0
 51
0.0
  0
LINE
  8
0
  6
CONTINUOUS
 62
     1
 10
519.05
 20
942.087912088
 30
0.0
 11
519.05
 21
943.5
 31
0.0
  0
LINE
  8
0
  6
CONTINUOUS
 62
     1
 10
516.05
 20
946.5
 30
0.0
 11
442.05
 21
946.5
 31
0.0
  0
ARC
  8
0
  6
CONTINUOUS
 62
     1
 10
516.05
 20
943.5
 30
0.0
 40
3.0
 50
0.0
 51
90.0
  0
ARC
  8
0
  6
CONTINUOUS
 62
     1
 10
459.05
 20
883.0
 30
0.0
 40
3.0
 50
180.0
 51
270.0
  0
ARC
  8
0
  6
CONTINUOUS
 62
     1
 10
499.05
 20
883.0
 30
0.0
 40
3.0
 50
270.0
 51
0.0
  0
LINE
  8
0
  6
CONTINUOUS
 62
     1
 10
502.05
 20
883.000005395
 30
0.0
 11
502.05
 21
888.5
 31
0.0
  0
LINE
  8
0
  6
CONTINUOUS
 62
     1
 10
456.05
 20
883.000005395
 30
0.0
 11
456.05
 21
888.5
 31
0.0
  0
ARC
  8
0
  6
CONTINUOUS
 62
     1
 10
408.0
 20
894.5
 30
0.0
 40
2.0
 50
0.0
 51
90.0
  0
LINE
  8
0
  6
CONTINUOUS
 62
     1
 10
410.0
 20
894.5
 30
0.0
 11
410.0
 21
738.5
 31
0.0
  0
LINE
  8
0
  6
CONTINUOUS
 62
     1
 10
415.4999
 20
868.120720777
 30
0.0
 11
414.440300598
 21
869.956000777
 31
0.0
  0
LINE
  8
0
  6
CONTINUOUS
 62
     1
 10
415.4999
 20
862.461940777
 30
0.0
 11
415.4999
 21
868.120720777
 31
0.0
  0
LINE
  8
0
  6
CONTINUOUS
 62
     1
 10
415.4999
 20
856.803160777
 30
0.0
 11
414.440300598
 21
854.967880777
 31
0.0
  0
LINE
  8
0
  6
CONTINUOUS
 62
     1
 10
415.4999
 20
862.461940777
 30
0.0
 11
415.4999
 21
856.803160777
 31
0.0
  0
ARC
  8
0
  6
CONTINUOUS
 62
     1
 10
408.344844663
 20
862.461940777
 30
0.0
 40
7.155055337
 50
328.419912243
 51
31.580087757
  0
ARC
  8
0
  6
CONTINUOUS
 62
     1
 10
413.314476233
 20
868.082485777
 30
0.0
 40
2.185758211
 50
301.002313915
 51
2.989498403
  0
LINE
  8
0
  6
CONTINUOUS
 62
     1
 10
415.4999
 20
856.803160777
 30
0.0
 11
414.440300598
 21
854.967880777
 31
0.0
  0
ARC
  8
0
  6
CONTINUOUS
 62
     1
 10
413.314476233
 20
856.841395777
 30
0.0
 40
2.185758211
 50
357.010501597
 51
58.997686085
  0
LINE
  8
0
  6
CONTINUOUS
 62
     1
 10
410.0
 20
869.956000777
 30
0.0
 11
414.440300598
 21
869.956000777
 31
0.0
  0
LINE
  8
0
  6
CONTINUOUS
 62
     1
 10
410.0
 20
866.208970777
 30
0.0
 11
414.440300598
 21
866.208970777
 31
0.0
  0
LINE
  8
0
  6
CONTINUOUS
 62
     1
 10
410.0
 20
858.714910777
 30
0.0
 11
414.440300598
 21
858.714910777
 31
0.0
  0
LINE
  8
0
  6
CONTINUOUS
 62
     1
 10
410.0
 20
854.967880777
 30
0.0
 11
414.440300598
 21
854.967880777
 31
0.0
  0
LINE
  8
0
  6
LTYPE2
 62
     2
 10
405.0
 20
862.461940777
 30
0.0
 11
419.8
 21
862.461940777
 31
0.0
  0
LINE
  8
0
  6
LTYPE2
 62
     2
 10
479.0
 20
873.5
 30
0.0
 11
479.0
 21
948.5
 31
0.0
  0
LINE
  8
0
  6
CONTINUOUS
 62
     1
 10
415.4999
 20
764.879279223
 30
0.0
 11
414.440300598
 21
763.043999223
 31
0.0
  0
LINE
  8
0
  6
CONTINUOUS
 62
     1
 10
415.4999
 20
770.538059223
 30
0.0
 11
415.4999
 21
764.879279223
 31
0.0
  0
LINE
  8
0
  6
CONTINUOUS
 62
     1
 10
415.4999
 20
776.196839223
 30
0.0
 11
414.440300598
 21
778.032119223
 31
0.0
  0
LINE
  8
0
  6
CONTINUOUS
 62
     1
 10
415.4999
 20
770.538059223
 30
0.0
 11
415.4999
 21
776.196839223
 31
0.0
  0
ARC
  8
0
  6
CONTINUOUS
 62
     1
 10
408.344844663
 20
770.538059223
 30
0.0
 40
7.155055337
 50
328.419912243
 51
31.580087757
  0
ARC
  8
0
  6
CONTINUOUS
 62
     1
 10
413.314476233
 20
764.917514223
 30
0.0
 40
2.185758211
 50
357.010501597
 51
58.997686085
  0
LINE
  8
0
  6
CONTINUOUS
 62
     1
 10
415.4999
 20
776.196839223
 30
0.0
 11
414.440300598
 21
778.032119223
 31
0.0
  0
ARC
  8
0
  6
CONTINUOUS
 62
     1
 10
413.314476233
 20
776.158604223
 30
0.0
 40
2.185758211
 50
301.002313915
 51
2.989498403
  0
LINE
  8
0
  6
CONTINUOUS
 62
     1
 10
410.0
 20
763.043999223
 30
0.0
 11
414.440300598
 21
763.043999223
 31
0.0
  0
LINE
  8
0
  6
CONTINUOUS
 62
     1
 10
410.0
 20
766.791029223
 30
0.0
 11
414.440300598
 21
766.791029223
 31
0.0
  0
LINE
  8
0
  6
CONTINUOUS
 62
     1
 10
410.0
 20
774.285089223
 30
0.0
 11
414.440300598
 21
774.285089223
 31
0.0
  0
LINE
  8
0
  6
CONTINUOUS
 62
     1
 10
410.0
 20
778.032119223
 30
0.0
 11
414.440300598
 21
778.032119223
 31
0.0
  0
LINE
  8
0
  6
LTYPE2
 62
     2
 10
405.0
 20
770.538059223
 30
0.0
 11
419.8
 21
770.538059223
 31
0.0
  0
LINE
  8
0
  6
CONTINUOUS
 62
     2
 10
545.05
 20
916.5
 30
0.0
 11
556.118811641
 21
922.307874727
 31
0.0
  0
LINE
  8
0
  6
CONTINUOUS
 62
     2
 10
545.05
 20
916.5
 30
0.0
 11
551.731934708
 21
927.064172876
 31
0.0
  0
LINE
  8
0
  6
CONTINUOUS
 62
     2
 10
545.05
 20
916.5
 30
0.0
 11
575.008113477
 21
944.131269711
 31
0.0
  0
ARC
  8
0
  6
CONTINUOUS
 62
     1
 10
408.0
 20
738.5
 30
0.0
 40
2.0
 50
270.0
 51
0.0
  0
LINE
  8
0
  6
CONTINUOUS
 62
     1
 10
408.0
 20
736.5
 30
0.0
 11
400.0
 21
736.5
 31
0.0
  0
LINE
  8
0
  6
CONTINUOUS
 62
     1
 10
295.0
 20
799.5
 30
0.0
 11
295.0
 21
833.5
 31
0.0
  0
LINE
  8
0
  6
CONTINUOUS
 62
     1
 10
325.0
 20
799.5
 30
0.0
 11
325.0
 21
833.5
 31
0.0
  0
LINE
  8
0
  6
CONTINUOUS
 62
     1
 10
329.0
 20
833.5
 30
0.0
 11
295.0
 21
833.5
 31
0.0
  0
LINE
  8
0
  6
CONTINUOUS
 62
     1
 10
329.0
 20
799.5
 30
0.0
 11
295.0
 21
799.5
 31
0.0
  0
LINE
  8
0
  6
CONTINUOUS
 62
     1
 10
329.0
 20
798.0
 30
0.0
 11
314.0
 21
798.0
 31
0.0
  0
LINE
  8
0
  6
CONTINUOUS
 62
     1
 10
314.0
 20
789.0
 30
0.0
 11
314.0
 21
781.50594
 31
0.0
  0
LINE
  8
0
  6
CONTINUOUS
 62
     1
 10
314.0
 20
789.0
 30
0.0
 11
314.0
 21
796.49406
 31
0.0
  0
LINE
  8
0
  6
CONTINUOUS
 62
     1
 10
308.5001
 20
783.34122
 30
0.0
 11
309.559699402
 21
781.50594
 31
0.0
  0
LINE
  8
0
  6
CONTINUOUS
 62
     1
 10
308.5001
 20
789.0
 30
0.0
 11
308.5001
 21
783.34122
 31
0.0
  0
LINE
  8
0
  6
CONTINUOUS
 62
     1
 10
308.5001
 20
794.65878
 30
0.0
 11
309.559699402
 21
796.49406
 31
0.0
  0
LINE
  8
0
  6
CONTINUOUS
 62
     1
 10
308.5001
 20
789.0
 30
0.0
 11
308.5001
 21
794.65878
 31
0.0
  0
ARC
  8
0
  6
CONTINUOUS
 62
     1
 10
315.655155337
 20
789.0
 30
0.0
 40
7.155055337
 50
148.419912243
 51
211.580087757
  0
ARC
  8
0
  6
CONTINUOUS
 62
     1
 10
310.685523767
 20
783.379455
 30
0.0
 40
2.185758211
 50
121.002313915
 51
182.989498403
  0
LINE
  8
0
  6
CONTINUOUS
 62
     1
 10
308.5001
 20
794.65878
 30
0.0
 11
309.559699402
 21
796.49406
 31
0.0
  0
ARC
  8
0
  6
CONTINUOUS
 62
     1
 10
310.685523767
 20
794.620545
 30
0.0
 40
2.185758211
 50
177.010501597
 51
238.997686085
  0
LINE
  8
0
  6
CONTINUOUS
 62
     1
 10
314.0
 20
781.50594
 30
0.0
 11
309.559699402
 21
781.50594
 31
0.0
  0
LINE
  8
0
  6
CONTINUOUS
 62
     1
 10
314.0
 20
785.25297
 30
0.0
 11
309.559699402
 21
785.25297
 31
0.0
  0
LINE
  8
0
  6
CONTINUOUS
 62
     1
 10
314.0
 20
792.74703
 30
0.0
 11
309.559699402
 21
792.74703
 31
0.0
  0
LINE
  8
0
  6
CONTINUOUS
 62
     1
 10
314.0
 20
796.49406
 30
0.0
 11
309.559699402
 21
796.49406
 31
0.0
  0
LINE
  8
0
  6
CONTINUOUS
 62
     1
 10
357.0
 20
859.5
 30
0.0
 11
329.0
 21
859.5
 31
0.0
  0
ARC
  8
0
  6
CONTINUOUS
 62
     1
 10
357.0
 20
865.5
 30
0.0
 40
6.0
 50
270.0
 51
360.0
  0
LINE
  8
0
  6
LTYPE3
 62
     2
 10
344.6
 20
789.0
 30
0.0
 11
305.3
 21
789.0
 31
0.0
  0
LINE
  8
0
  6
CONTINUOUS
 62
     2
 10
319.5
 20
833.3
 30
0.0
 11
318.019645058
 21
845.712032438
 31
0.0
  0
LINE
  8
0
  6
CONTINUOUS
 62
     2
 10
319.5
 20
833.3
 30
0.0
 11
312.011958794
 21
843.308957933
 31
0.0
  0
LINE
  8
0
  6
CONTINUOUS
 62
     2
 10
295.0
 20
841.0
 30
0.0
 11
295.0
 21
1037.4
 31
0.0
  0
LINE
  8
0
  6
CONTINUOUS
 62
     2
 10
295.0
 20
1029.9
 30
0.0
 11
307.074072829
 21
1026.664761936
 31
0.0
  0
LINE
  8
0
  6
CONTINUOUS
 62
     2
 10
295.0
 20
1029.9
 30
0.0
 11
307.074072829
 21
1033.135238064
 31
0.0
  0
LINE
  8
0
  6
CONTINUOUS
 62
     2
 10
295.0
 20
1029.9
 30
0.0
 11
400.0
 21
1029.9
 31
0.0
  0
LINE
  8
0
  6
CONTINUOUS
 62
     2
 10
400.0
 20
1029.9
 30
0.0
 11
387.925927171
 21
1033.135238064
 31
0.0
  0
LINE
  8
0
  6
CONTINUOUS
 62
     2
 10
400.0
 20
1029.9
 30
0.0
 11
387.925927171
 21
1026.664761936
 31
0.0
  0
LINE
  8
0
  6
CONTINUOUS
 62
     2
 10
279.58
 20
933.1
 30
0.0
 11
198.6
 21
933.1
 31
0.0
  0
LINE
  8
0
  6
CONTINUOUS
 62
     2
 10
319.5
 20
833.3
 30
0.0
 11
279.58
 21
933.1
 31
0.0
  0
LINE
  8
0
  6
CONTINUOUS
 62
     1
 10
329.0
 20
604.0
 30
0.0
 11
329.0
 21
859.5
 31
0.0
  0
LINE
  8
0
  6
CONTINUOUS
 62
     1
 10
314.0
 20
604.0
 30
0.0
 11
314.0
 21
798.0
 31
0.0
  0
LINE
  8
0
  6
CONTINUOUS
 62
     2
 10
400.0
 20
1029.9
 30
0.0
 11
412.074072829
 21
1026.664761936
 31
0.0
  0
LINE
  8
0
  6
CONTINUOUS
 62
     2
 10
400.0
 20
1029.9
 30
0.0
 11
412.074072829
 21
1033.135238064
 31
0.0
  0
LINE
  8
0
  6
CONTINUOUS
 62
     2
 10
400.0
 20
1029.9
 30
0.0
 11
676.99181787
 21
1029.9
 31
0.0
  0
LINE
  8
0
  6
LTYPE3
 62
     2
 10
687.0
 20
816.5
 30
0.0
 11
285.6
 21
816.5
 31
0.0
  0
TEXT
  8
0
  6
CONTINUOUS
 62
     2
 10
342.75
 20
436.3625
 30
0.0
 40
18.0
  1
８６
 50
0.0
 41
0.9
 51
0.0
  7
KANJI28
  0
TEXT
  8
0
  6
CONTINUOUS
 62
     2
 10
415.75
 20
436.3625
 30
0.0
 40
18.0
  1
６０
 50
0.0
 41
0.9
 51
0.0
  7
KANJI28
  0
TEXT
  8
0
  6
CONTINUOUS
 62
     2
 10
325.75
 20
1034.9
 30
0.0
 40
18.0
  1
１１３
 50
0.0
 41
0.9
 51
0.0
  7
KANJI28
  0
TEXT
  8
0
  6
CONTINUOUS
 62
     2
 10
198.6
 20
938.1
 30
0.0
 40
18.0
  1
手動軸カバー
 50
0.0
 41
0.9
 51
0.0
  7
KANJI28
  0
TEXT
  8
0
  6
CONTINUOUS
 62
     2
 10
498.75
 20
1034.9
 30
0.0
 40
18.0
  1
２７７
 50
0.0
 41
0.9
 51
0.0
  7
KANJI28
  0
TEXT
  8
0
  6
CONTINUOUS
 62
     2
 10
456.540009455
 20
793.5
 30
0.0
 40
18.0
  1
日本電産
 50
0.0
 41
0.9
 51
0.0
  7
KANJI28
  0
TEXT
  8
0
  6
CONTINUOUS
 62
     2
 10
456.540009455
 20
772.5
 30
0.0
 40
18.0
  1
エコノストップモータ
 50
0.0
 41
0.9
 51
0.0
  7
KANJI28
  0
LINE
  8
0
  6
LTYPE3
 62
     2
 10
692.182501379
 20
681.5
 30
0.0
 11
288.9
 21
681.5
 31
0.0
  0
TEXT
  8
0
  6
CONTINUOUS
 62
     2
 10
134.778726364
 20
1048.612221811
 30
0.0
 40
15.6
  1
モーター結線図
 50
0.0
 41
0.925
 51
0.0
  7
KANJI29
  0
LINE
  8
0
  6
LTYPE2
 62
     6
 10
129.683333
 20
1169.233317
 30
0.0
 11
129.683333
 21
1152.832460936
 31
0.0
  0
LINE
  8
0
  6
LTYPE2
 62
     6
 10
260.080262694
 20
1169.233317
 30
0.0
 11
129.683333
 21
1169.233317
 31
0.0
  0
TEXT
  8
0
  6
CONTINUOUS
 62
     6
 10
112.148590591
 20
1155.748168681
 30
1.093390404
 40
10.933904043
  1
Ｕ
 50
0.0
 41
0.9
 51
0.0
  7
KANJI30
  0
CIRCLE
  8
0
  6
CONTINUOUS
 62
     6
 10
129.683333
 20
1149.552289723
 30
0.0
 40
4.373561617
  0
LINE
  8
0
  6
CONTINUOUS
 62
     6
 10
124.65854931
 20
1144.527506033
 30
0.0
 11
134.863526417
 21
1154.73248314
 31
0.0
  0
TEXT
  8
0
  6
CONTINUOUS
 62
     6
 10
139.928806047
 20
1177.899448352
 30
1.518597784
 40
15.185977837
  1
エコノストップモータ
 50
0.0
 41
0.66671875
 51
0.0
  7
KANJI31
  0
CIRCLE
  8
0
  6
CONTINUOUS
 62
     6
 10
174.512339575
 20
1124.039846957
 30
0.0
 40
18.223173404
  0
TEXT
  8
0
  6
CONTINUOUS
 62
     6
 10
166.858606745
 20
1115.292723723
 30
1.82231734
 40
18.223173404
  1
Ｍ
 50
0.0
 41
0.9
 51
0.0
  7
KANJI32
  0
LINE
  8
0
  6
CONTINUOUS
 62
     6
 10
150.457750681
 20
1098.527404191
 30
0.0
 11
161.756118192
 21
1111.648089042
 31
0.0
  0
LINE
  8
0
  6
CONTINUOUS
 62
     6
 10
150.457750681
 20
1149.552289723
 30
0.0
 11
161.756118192
 21
1136.431604872
 31
0.0
  0
LINE
  8
0
  6
CONTINUOUS
 62
     6
 10
150.457750681
 20
1149.552289723
 30
0.0
 11
134.056894617
 21
1149.552289723
 31
0.0
  0
LINE
  8
0
  6
CONTINUOUS
 62
     6
 10
156.653629639
 20
1124.039846957
 30
0.0
 11
134.056894617
 21
1124.039846957
 31
0.0
  0
LINE
  8
0
  6
CONTINUOUS
 62
     6
 10
150.457750681
 20
1098.527404191
 30
0.0
 11
134.056894617
 21
1098.527404191
 31
0.0
  0
TEXT
  8
0
  6
CONTINUOUS
 62
     6
 10
113.241980995
 20
1129.871262446
 30
1.093390404
 40
10.933904043
  1
Ｖ
 50
0.0
 41
0.9
 51
0.0
  7
KANJI30
  0
TEXT
  8
0
  6
CONTINUOUS
 62
     6
 10
114.335371399
 20
1103.994356212
 30
1.093390404
 40
10.933904043
  1
Ｗ
 50
0.0
 41
0.9
 51
0.0
  7
KANJI30
  0
CIRCLE
  8
0
  6
CONTINUOUS
 62
     6
 10
129.683333
 20
1124.039846957
 30
0.0
 40
4.373561617
  0
LINE
  8
0
  6
CONTINUOUS
 62
     6
 10
124.65854931
 20
1119.015063267
 30
0.0
 11
134.863526417
 21
1129.220040374
 31
0.0
  0
LINE
  8
0
  6
LTYPE2
 62
     6
 10
129.683333
 20
1145.543191574
 30
0.0
 11
129.683333
 21
1127.32001817
 31
0.0
  0
CIRCLE
  8
0
  6
CONTINUOUS
 62
     6
 10
129.683333
 20
1098.527404191
 30
0.0
 40
4.373561617
  0
LINE
  8
0
  6
CONTINUOUS
 62
     6
 10
124.65854931
 20
1093.502620501
 30
0.0
 11
134.863526417
 21
1103.707597607
 31
0.0
  0
LINE
  8
0
  6
LTYPE2
 62
     6
 10
129.683333
 20
1120.030748808
 30
0.0
 11
129.683333
 21
1102.900965808
 31
0.0
  0
LINE
  8
0
  6
LTYPE2
 62
     6
 10
260.080262694
 20
1073.821584891
 30
0.0
 11
129.683333
 21
1073.821584891
 31
0.0
  0
LINE
  8
0
  6
LTYPE2
 62
     6
 10
129.683333
 20
1094.153842574
 30
0.0
 11
129.683333
 21
1073.821584891
 31
0.0
  0
TEXT
  8
0
  6
CONTINUOUS
 62
     6
 10
200.753709277
 20
1115.784749405
 30
1.457853872
 40
14.578538724
  1
Ｂ
 50
0.0
 41
0.9
 51
0.0
  7
KANJI33
  0
CIRCLE
  8
0
  6
CONTINUOUS
 62
     6
 10
207.314051703
 20
1124.039846957
 30
0.0
 40
14.578538724
  0
LINE
  8
0
  6
LTYPE2
 62
     6
 10
260.080262694
 20
1073.821584891
 30
0.0
 11
260.080262694
 21
1169.233317
 31
0.0
  0
ARC
  8
0
  6
CONTINUOUS
 62
     2
 10
243.0
 20
816.0
 30
0.0
 40
20.0
 50
231.952957468
 51
156.801409486
  0
LINE
  8
0
  6
CONTINUOUS
 62
     2
 10
224.6170994
 20
823.878385972
 30
0.0
 11
226.91179211
 21
833.715824749
 31
0.0
  0
TEXT
  8
0
  6
CONTINUOUS
 62
     2
 10
162.6170994
 20
806.878385972
 30
0.0
 40
15.0
  1
前進方向
 50
0.0
 41
0.9
 51
0.0
  7
KANJI34
  0
LINE
  8
0
  6
CONTINUOUS
 62
     2
 10
224.6170994
 20
823.878385972
 30
0.0
 11
232.885260778
 21
828.785722507
 31
0.0
  0
LINE
  8
0
  6
CONTINUOUS
 62
     2
 10
126.0
 20
274.8
 30
0.0
 11
133.72740661
 21
272.729447639
 31
0.0
  0
LINE
  8
0
  6
CONTINUOUS
 62
     2
 10
126.0
 20
274.8
 30
0.0
 11
133.72740661
 21
276.870552361
 31
0.0
  0
LINE
  8
0
  6
CONTINUOUS
 62
     2
 10
126.0
 20
274.8
 30
0.0
 11
263.6
 21
274.8
 31
0.0
  0
LINE
  8
0
  6
CONTINUOUS
 62
     2
 10
263.6
 20
274.8
 30
0.0
 11
255.87259339
 21
276.870552361
 31
0.0
  0
LINE
  8
0
  6
CONTINUOUS
 62
     2
 10
263.6
 20
274.8
 30
0.0
 11
255.87259339
 21
272.729447639
 31
0.0
  0
LINE
  8
0
  6
CONTINUOUS
 62
     2
 10
263.6
 20
273.6
 30
0.0
 11
263.6
 21
270.8
 31
0.0
  0
LINE
  8
0
  6
CONTINUOUS
 62
     2
 10
263.6
 20
274.8
 30
0.0
 11
271.32740661
 21
272.729447639
 31
0.0
  0
LINE
  8
0
  6
CONTINUOUS
 62
     2
 10
263.6
 20
274.8
 30
0.0
 11
271.32740661
 21
276.870552361
 31
0.0
  0
LINE
  8
0
  6
CONTINUOUS
 62
     2
 10
263.6
 20
274.8
 30
0.0
 11
466.0
 21
274.8
 31
0.0
  0
LINE
  8
0
  6
CONTINUOUS
 62
     2
 10
466.0
 20
274.8
 30
0.0
 11
458.27259339
 21
276.870552361
 31
0.0
  0
LINE
  8
0
  6
CONTINUOUS
 62
     2
 10
466.0
 20
274.8
 30
0.0
 11
458.27259339
 21
272.729447639
 31
0.0
  0
LINE
  8
0
  6
CONTINUOUS
 62
     2
 10
263.6
 20
248.470552361
 30
0.0
 11
255.87259339
 21
250.541104722
 31
0.0
  0
LINE
  8
0
  6
CONTINUOUS
 62
     2
 10
263.6
 20
248.470552361
 30
0.0
 11
255.87259339
 21
246.4
 31
0.0
  0
LINE
  8
0
  6
CONTINUOUS
 62
     2
 10
251.6
 20
248.470552361
 30
0.0
 11
263.6
 21
248.470552361
 31
0.0
  0
LINE
  8
0
  6
CONTINUOUS
 62
     2
 10
263.6
 20
248.470552361
 30
0.0
 11
284.4
 21
248.470552361
 31
0.0
  0
LINE
  8
0
  6
CONTINUOUS
 62
     2
 10
284.4
 20
248.470552361
 30
0.0
 11
292.12740661
 21
246.4
 31
0.0
  0
LINE
  8
0
  6
CONTINUOUS
 62
     2
 10
284.4
 20
248.470552361
 30
0.0
 11
292.12740661
 21
250.541104722
 31
0.0
  0
LINE
  8
0
  6
CONTINUOUS
 62
     2
 10
126.0
 20
223.2
 30
0.0
 11
126.0
 21
217.2
 31
0.0
  0
LINE
  8
0
  6
CONTINUOUS
 62
     2
 10
126.0
 20
221.2
 30
0.0
 11
133.72740661
 21
219.129447639
 31
0.0
  0
LINE
  8
0
  6
CONTINUOUS
 62
     2
 10
126.0
 20
221.2
 30
0.0
 11
133.72740661
 21
223.270552361
 31
0.0
  0
LINE
  8
0
  6
CONTINUOUS
 62
     2
 10
126.0
 20
221.2
 30
0.0
 11
284.4
 21
221.2
 31
0.0
  0
LINE
  8
0
  6
CONTINUOUS
 62
     2
 10
284.4
 20
221.2
 30
0.0
 11
276.67259339
 21
223.270552361
 31
0.0
  0
LINE
  8
0
  6
CONTINUOUS
 62
     2
 10
284.4
 20
221.2
 30
0.0
 11
276.67259339
 21
219.129447639
 31
0.0
  0
LINE
  8
0
  6
CONTINUOUS
 62
     2
 10
284.4
 20
222.4
 30
0.0
 11
284.4
 21
217.2
 31
0.0
  0
LINE
  8
0
  6
CONTINUOUS
 62
     2
 10
284.4
 20
221.2
 30
0.0
 11
292.12740661
 21
219.129447639
 31
0.0
  0
LINE
  8
0
  6
CONTINUOUS
 62
     2
 10
284.4
 20
221.2
 30
0.0
 11
292.12740661
 21
223.270552361
 31
0.0
  0
LINE
  8
0
  6
CONTINUOUS
 62
     2
 10
466.0
 20
217.6
 30
0.0
 11
466.0
 21
217.2
 31
0.0
  0
LINE
  8
0
  6
CONTINUOUS
 62
     2
 10
126.0
 20
192.0
 30
0.0
 11
133.72740661
 21
189.929447639
 31
0.0
  0
LINE
  8
0
  6
CONTINUOUS
 62
     2
 10
126.0
 20
192.0
 30
0.0
 11
133.72740661
 21
194.070552361
 31
0.0
  0
LINE
  8
0
  6
CONTINUOUS
 62
     2
 10
126.0
 20
192.0
 30
0.0
 11
443.6
 21
192.0
 31
0.0
  0
LINE
  8
0
  6
CONTINUOUS
 62
     2
 10
443.6
 20
192.0
 30
0.0
 11
435.87259339
 21
194.070552361
 31
0.0
  0
LINE
  8
0
  6
CONTINUOUS
 62
     2
 10
443.6
 20
192.0
 30
0.0
 11
435.87259339
 21
189.929447639
 31
0.0
  0
LINE
  8
0
  6
CONTINUOUS
 62
     2
 10
443.6
 20
192.8
 30
0.0
 11
443.6
 21
188.0
 31
0.0
  0
LINE
  8
0
  6
CONTINUOUS
 62
     2
 10
443.6
 20
192.0
 30
0.0
 11
435.87259339
 21
194.070552361
 31
0.0
  0
LINE
  8
0
  6
CONTINUOUS
 62
     2
 10
443.6
 20
192.0
 30
0.0
 11
435.87259339
 21
189.929447639
 31
0.0
  0
LINE
  8
0
  6
CONTINUOUS
 62
     2
 10
431.6
 20
192.0
 30
0.0
 11
443.6
 21
192.0
 31
0.0
  0
LINE
  8
0
  6
CONTINUOUS
 62
     2
 10
443.6
 20
192.0
 30
0.0
 11
466.0
 21
192.0
 31
0.0
  0
LINE
  8
0
  6
CONTINUOUS
 62
     2
 10
466.0
 20
192.0
 30
0.0
 11
473.72740661
 21
189.929447639
 31
0.0
  0
LINE
  8
0
  6
CONTINUOUS
 62
     2
 10
466.0
 20
192.0
 30
0.0
 11
473.72740661
 21
194.070552361
 31
0.0
  0
LINE
  8
0
  6
CONTINUOUS
 62
     2
 10
126.0
 20
285.6
 30
0.0
 11
126.0
 21
270.8
 31
0.0
  0
LINE
  8
0
  6
CONTINUOUS
 62
     2
 10
466.0
 20
285.6
 30
0.0
 11
466.0
 21
270.8
 31
0.0
  0
LINE
  8
0
  6
CONTINUOUS
 62
     2
 10
263.6
 20
274.4
 30
0.0
 11
263.6
 21
285.6
 31
0.0
  0
LINE
  8
0
  6
CONTINUOUS
 62
     2
 10
284.4
 20
261.270552361
 30
0.0
 11
284.4
 21
244.470552361
 31
0.0
  0
LINE
  8
0
  6
CONTINUOUS
 62
     2
 10
126.0
 20
270.8
 30
0.0
 11
126.0
 21
178.8
 31
0.0
  0
LINE
  8
0
  6
CONTINUOUS
 62
     2
 10
466.0
 20
274.8
 30
0.0
 11
466.0
 21
180.0
 31
0.0
  0
LINE
  8
0
  6
CONTINUOUS
 62
     2
 10
284.4
 20
248.470552361
 30
0.0
 11
284.4
 21
212.0
 31
0.0
  0
LINE
  8
0
  6
CONTINUOUS
 62
     2
 10
263.6
 20
274.8
 30
0.0
 11
263.6
 21
239.2
 31
0.0
  0
TEXT
  8
0
  6
CONTINUOUS
 62
     3
 10
167.8
 20
276.8
 30
0.0
 40
15.0
  1
ｍｉｎ．Ｌ
 50
0.0
 41
0.9
 51
0.0
  7
KANJI34
  0
TEXT
  8
0
  6
CONTINUOUS
 62
     3
 10
321.6
 20
276.8
 30
0.0
 40
15.0
  1
機械的ストローク
 50
0.0
 41
0.9
 51
0.0
  7
KANJI34
  0
TEXT
  8
0
  6
CONTINUOUS
 62
     3
 10
296.4
 20
250.470552361
 30
0.0
 40
15.0
  1
余裕
 50
0.0
 41
0.9
 51
0.0
  7
KANJI34
  0
TEXT
  8
0
  6
CONTINUOUS
 62
     3
 10
178.2
 20
223.2
 30
0.0
 40
15.0
  1
常用ｍｉｎ
 50
0.0
 41
0.9
 51
0.0
  7
KANJI34
  0
TEXT
  8
0
  6
CONTINUOUS
 62
     3
 10
257.8
 20
194.0
 30
0.0
 40
15.0
  1
常用ｍａｘ
 50
0.0
 41
0.9
 51
0.0
  7
KANJI34
  0
TEXT
  8
0
  6
CONTINUOUS
 62
     3
 10
478.0
 20
194.0
 30
0.0
 40
15.0
  1
余裕
 50
0.0
 41
0.9
 51
0.0
  7
KANJI34
  0
LINE
  8
0
  6
CONTINUOUS
 62
     2
 10
284.4
 20
248.470552361
 30
0.0
 11
324.5
 21
248.470552361
 31
0.0
  0
LINE
  8
0
  6
CONTINUOUS
 62
     2
 10
466.0
 20
192.0
 30
0.0
 11
508.5
 21
192.0
 31
0.0
  0
LINE
  8
0
  6
CONTINUOUS
 62
     1
 10
582.0
 20
623.5
 30
0.0
 11
582.0
 21
734.5
 31
0.0
  0
LINE
  8
0
  6
CONTINUOUS
 62
     1
 10
590.0
 20
622.0
 30
0.0
 11
590.0
 21
621.0
 31
0.0
  0
LINE
  8
0
  6
CONTINUOUS
 62
     1
 10
590.0
 20
621.0
 30
0.0
 11
626.0
 21
621.0
 31
0.0
  0
ARC
  8
0
  6
CONTINUOUS
 62
     1
 10
626.0
 20
618.0
 30
0.0
 40
3.0
 50
0.0
 51
90.0
  0
LINE
  8
0
  6
CONTINUOUS
 62
     1
 10
591.0
 20
630.5
 30
0.0
 11
591.0
 21
732.5
 31
0.0
  0
LINE
  8
0
  6
CONTINUOUS
 62
     1
 10
591.0
 20
732.5
 30
0.0
 11
582.0
 21
732.5
 31
0.0
  0
LINE
  8
0
  6
CONTINUOUS
 62
     1
 10
591.0
 20
630.5
 30
0.0
 11
582.0
 21
630.5
 31
0.0
  0
LINE
  8
0
  6
CONTINUOUS
 62
     1
 10
591.0
 20
729.0
 30
0.0
 11
582.0
 21
729.0
 31
0.0
  0
LINE
  8
0
  6
CONTINUOUS
 62
     1
 10
591.0
 20
634.0
 30
0.0
 11
582.0
 21
634.0
 31
0.0
  0
LINE
  8
0
  6
CONTINUOUS
 62
     1
 10
591.0
 20
677.5
 30
0.0
 11
582.0
 21
677.5
 31
0.0
  0
LINE
  8
0
  6
CONTINUOUS
 62
     1
 10
591.0
 20
685.5
 30
0.0
 11
582.0
 21
685.5
 31
0.0
  0
LINE
  8
0
  6
LTYPE1
 62
     2
 10
629.0
 20
605.3
 30
0.0
 11
619.0
 21
605.3
 31
0.0
  0
LINE
  8
0
  6
LTYPE1
 62
     2
 10
629.0
 20
606.5
 30
0.0
 11
619.0
 21
606.5
 31
0.0
  0
LINE
  8
0
  6
CONTINUOUS
 62
     1
 10
636.810381815
 20
858.327582684
 30
0.0
 11
654.189618185
 21
856.672417316
 31
0.0
  0
ARC
  8
0
  6
CONTINUOUS
 62
     1
 10
637.0
 20
860.318573629
 30
0.0
 40
2.0
 50
180.0
 51
264.559667969
  0
LINE
  8
0
  6
CONTINUOUS
 62
     1
 10
636.810381815
 20
868.327582684
 30
0.0
 11
654.189618185
 21
866.672417316
 31
0.0
  0
ARC
  8
0
  6
CONTINUOUS
 62
     1
 10
637.0
 20
870.318573629
 30
0.0
 40
2.0
 50
180.0
 51
264.559667969
  0
LINE
  8
0
  6
CONTINUOUS
 62
     1
 10
636.810381815
 20
774.672417316
 30
0.0
 11
654.189618185
 21
776.327582684
 31
0.0
  0
ARC
  8
0
  6
CONTINUOUS
 62
     1
 10
637.0
 20
772.681426371
 30
0.0
 40
2.0
 50
95.440332031
 51
180.0
  0
ARC
  8
0
  6
CONTINUOUS
 62
     1
 10
658.0
 20
841.5
 30
0.0
 40
2.0
 50
180.0
 51
270.0
  0
LINE
  8
0
  6
CONTINUOUS
 62
     1
 10
667.0
 20
839.5
 30
0.0
 11
658.0
 21
839.5
 31
0.0
  0
ARC
  8
0
  6
CONTINUOUS
 62
     1
 10
667.0
 20
837.5
 30
0.0
 40
2.0
 50
0.0
 51
90.0
  0
LINE
  8
0
  6
CONTINUOUS
 62
     1
 10
669.0
 20
837.5
 30
0.0
 11
669.0
 21
795.5
 31
0.0
  0
ARC
  8
0
  6
CONTINUOUS
 62
     1
 10
667.0
 20
795.5
 30
0.0
 40
2.0
 50
270.0
 51
0.0
  0
ARC
  8
0
  6
CONTINUOUS
 62
     1
 10
658.0
 20
791.5
 30
0.0
 40
2.0
 50
90.0
 51
180.0
  0
LINE
  8
0
  6
CONTINUOUS
 62
     1
 10
667.0
 20
793.5
 30
0.0
 11
658.0
 21
793.5
 31
0.0
  0
LINE
  8
0
  6
CONTINUOUS
 62
     1
 10
672.0
 20
828.0
 30
0.0
 11
669.0
 21
828.0
 31
0.0
  0
LINE
  8
0
  6
CONTINUOUS
 62
     1
 10
672.0
 20
805.0
 30
0.0
 11
669.0
 21
805.0
 31
0.0
  0
LINE
  8
0
  6
CONTINUOUS
 62
     1
 10
672.0
 20
828.0
 30
0.0
 11
672.0
 21
805.0
 31
0.0
  0
ARC
  8
0
  6
CONTINUOUS
 62
     1
 10
633.0
 20
755.0
 30
0.0
 40
2.0
 50
270.0
 51
0.0
  0
ARC
  8
0
  6
CONTINUOUS
 62
     1
 10
633.0
 20
878.0
 30
0.0
 40
2.0
 50
0.0
 51
90.0
  0
LINE
  8
0
  6
CONTINUOUS
 62
     1
 10
627.0
 20
880.0
 30
0.0
 11
627.0
 21
753.0
 31
0.0
  0
ARC
  8
0
  6
CONTINUOUS
 62
     1
 10
654.0
 20
809.318573629
 30
0.0
 40
2.0
 50
275.440332031
 51
0.0
  0
LINE
  8
0
  6
CONTINUOUS
 62
     1
 10
654.189618185
 20
807.327582684
 30
0.0
 11
636.810381815
 21
805.672417316
 31
0.0
  0
ARC
  8
0
  6
CONTINUOUS
 62
     1
 10
637.0
 20
803.681426371
 30
0.0
 40
2.0
 50
95.440332031
 51
180.0
  0
ARC
  8
0
  6
CONTINUOUS
 62
     1
 10
654.0
 20
823.681426371
 30
0.0
 40
2.0
 50
0.0
 51
84.559667969
  0
LINE
  8
0
  6
CONTINUOUS
 62
     1
 10
654.189618185
 20
825.672417316
 30
0.0
 11
636.810381815
 21
827.327582684
 31
0.0
  0
ARC
  8
0
  6
CONTINUOUS
 62
     1
 10
637.0
 20
829.318573629
 30
0.0
 40
2.0
 50
180.0
 51
264.559667969
  0
LINE
  8
0
  6
CONTINUOUS
 62
     1
 10
635.0
 20
878.000001907
 30
0.0
 11
635.0
 21
755.000004672
 31
0.0
  0
LINE
  8
0
  6
LTYPE2
 62
     2
 10
648.5
 20
859.5
 30
0.0
 11
661.7
 21
859.5
 31
0.0
  0
LINE
  8
0
  6
CONTINUOUS
 62
     1
 10
636.810381815
 20
764.672417316
 30
0.0
 11
654.189618185
 21
766.327582684
 31
0.0
  0
LINE
  8
0
  6
LTYPE2
 62
     2
 10
648.5
 20
773.5
 30
0.0
 11
661.7
 21
773.5
 31
0.0
  0
ARC
  8
0
  6
CONTINUOUS
 62
     1
 10
637.0
 20
762.681426371
 30
0.0
 40
2.0
 50
95.440332031
 51
180.0
  0
LINE
  8
0
  6
CONTINUOUS
 62
     1
 10
656.0
 20
864.681426371
 30
0.0
 11
656.0
 21
768.88812
 31
0.0
  0
ARC
  8
0
  6
CONTINUOUS
 62
     1
 10
654.0
 20
854.681426371
 30
0.0
 40
2.0
 50
0.0
 51
84.559667969
  0
ARC
  8
0
  6
CONTINUOUS
 62
     1
 10
654.0
 20
864.681426371
 30
0.0
 40
2.0
 50
0.0
 51
84.559667969
  0
LINE
  8
0
  6
CONTINUOUS
 62
     1
 10
659.5002
 20
862.98244
 30
0.0
 11
658.848117512
 21
864.11188
 31
0.0
  0
LINE
  8
0
  6
CONTINUOUS
 62
     1
 10
659.5002
 20
856.01756
 30
0.0
 11
658.848117512
 21
854.88812
 31
0.0
  0
ARC
  8
0
  6
CONTINUOUS
 62
     1
 10
655.096945074
 20
859.5
 30
0.0
 40
4.403254926
 50
328.419912243
 51
31.580087757
  0
ARC
  8
0
  6
CONTINUOUS
 62
     1
 10
658.155279868
 20
862.95891
 30
0.0
 40
1.34512595
 50
301.002313915
 51
2.989498403
  0
LINE
  8
0
  6
CONTINUOUS
 62
     1
 10
659.5002
 20
856.01756
 30
0.0
 11
658.848117512
 21
854.88812
 31
0.0
  0
ARC
  8
0
  6
CONTINUOUS
 62
     1
 10
658.155279868
 20
856.04109
 30
0.0
 40
1.34512595
 50
357.010501597
 51
58.997686085
  0
LINE
  8
0
  6
CONTINUOUS
 62
     1
 10
656.0
 20
864.11188
 30
0.0
 11
658.848117512
 21
864.11188
 31
0.0
  0
LINE
  8
0
  6
CONTINUOUS
 62
     1
 10
656.0
 20
861.80594
 30
0.0
 11
658.848117512
 21
861.80594
 31
0.0
  0
LINE
  8
0
  6
CONTINUOUS
 62
     1
 10
656.0
 20
857.19406
 30
0.0
 11
658.848117512
 21
857.19406
 31
0.0
  0
LINE
  8
0
  6
CONTINUOUS
 62
     1
 10
656.0
 20
854.88812
 30
0.0
 11
658.848117512
 21
854.88812
 31
0.0
  0
LINE
  8
0
  6
CONTINUOUS
 62
     1
 10
659.5002
 20
862.98244
 30
0.0
 11
659.5002
 21
856.01756
 31
0.0
  0
LINE
  8
0
  6
CONTINUOUS
 62
     1
 10
677.0
 20
820.852902
 30
0.0
 11
676.184924603
 21
822.264654
 31
0.0
  0
LINE
  8
0
  6
CONTINUOUS
 62
     1
 10
677.0
 20
812.147098
 30
0.0
 11
676.184924603
 21
810.735346
 31
0.0
  0
ARC
  8
0
  6
CONTINUOUS
 62
     1
 10
671.496118477
 20
816.5
 30
0.0
 40
5.503881523
 50
328.419912243
 51
31.580087757
  0
ARC
  8
0
  6
CONTINUOUS
 62
     1
 10
675.318906993
 20
820.8234905
 30
0.0
 40
1.681350271
 50
301.002313915
 51
2.989498403
  0
LINE
  8
0
  6
CONTINUOUS
 62
     1
 10
677.0
 20
812.147098
 30
0.0
 11
676.184924603
 21
810.735346
 31
0.0
  0
ARC
  8
0
  6
CONTINUOUS
 62
     1
 10
675.318906993
 20
812.1765095
 30
0.0
 40
1.681350271
 50
357.010501597
 51
58.997686085
  0
LINE
  8
0
  6
CONTINUOUS
 62
     1
 10
673.00039
 20
819.382327
 30
0.0
 11
676.184924603
 21
819.382327
 31
0.0
  0
LINE
  8
0
  6
CONTINUOUS
 62
     1
 10
673.00039
 20
822.264654
 30
0.0
 11
676.184924603
 21
822.264654
 31
0.0
  0
LINE
  8
0
  6
CONTINUOUS
 62
     1
 10
673.00039
 20
813.617673
 30
0.0
 11
676.184924603
 21
813.617673
 31
0.0
  0
LINE
  8
0
  6
CONTINUOUS
 62
     1
 10
673.00039
 20
810.735346
 30
0.0
 11
676.184924603
 21
810.735346
 31
0.0
  0
LINE
  8
0
  6
CONTINUOUS
 62
     1
 10
677.0
 20
812.147098
 30
0.0
 11
677.0
 21
820.852902
 31
0.0
  0
LINE
  8
0
  6
CONTINUOUS
 62
     1
 10
673.00039
 20
823.0
 30
0.0
 11
672.0
 21
823.0
 31
0.0
  0
LINE
  8
0
  6
CONTINUOUS
 62
     1
 10
673.00039
 20
823.0
 30
0.0
 11
673.00039
 21
810.0
 31
0.0
  0
LINE
  8
0
  6
CONTINUOUS
 62
     1
 10
673.00039
 20
810.0
 30
0.0
 11
672.0
 21
810.0
 31
0.0
  0
ARC
  8
0
  6
CONTINUOUS
 62
     1
 10
654.0
 20
778.318573629
 30
0.0
 40
2.0
 50
275.440332031
 51
0.0
  0
LINE
  8
0
  6
CONTINUOUS
 62
     1
 10
659.5002
 20
770.01756
 30
0.0
 11
658.848117512
 21
768.88812
 31
0.0
  0
LINE
  8
0
  6
CONTINUOUS
 62
     1
 10
659.5002
 20
776.98244
 30
0.0
 11
658.848117512
 21
778.11188
 31
0.0
  0
ARC
  8
0
  6
CONTINUOUS
 62
     1
 10
655.096945074
 20
773.5
 30
0.0
 40
4.403254926
 50
328.419912243
 51
31.580087757
  0
ARC
  8
0
  6
CONTINUOUS
 62
     1
 10
658.155279868
 20
770.04109
 30
0.0
 40
1.34512595
 50
357.010501597
 51
58.997686085
  0
LINE
  8
0
  6
CONTINUOUS
 62
     1
 10
659.5002
 20
776.98244
 30
0.0
 11
658.848117512
 21
778.11188
 31
0.0
  0
ARC
  8
0
  6
CONTINUOUS
 62
     1
 10
658.155279868
 20
776.95891
 30
0.0
 40
1.34512595
 50
301.002313915
 51
2.989498403
  0
LINE
  8
0
  6
CONTINUOUS
 62
     1
 10
656.0
 20
768.88812
 30
0.0
 11
658.848117512
 21
768.88812
 31
0.0
  0
LINE
  8
0
  6
CONTINUOUS
 62
     1
 10
656.0
 20
771.19406
 30
0.0
 11
658.848117512
 21
771.19406
 31
0.0
  0
LINE
  8
0
  6
CONTINUOUS
 62
     1
 10
656.0
 20
775.80594
 30
0.0
 11
658.848117512
 21
775.80594
 31
0.0
  0
LINE
  8
0
  6
CONTINUOUS
 62
     1
 10
656.0
 20
778.11188
 30
0.0
 11
658.848117512
 21
778.11188
 31
0.0
  0
LINE
  8
0
  6
CONTINUOUS
 62
     1
 10
659.5002
 20
770.01756
 30
0.0
 11
659.5002
 21
776.98244
 31
0.0
  0
ARC
  8
0
  6
CONTINUOUS
 62
     1
 10
654.0
 20
768.318573629
 30
0.0
 40
2.0
 50
275.440332031
 51
0.0
  0
LINE
  8
0
  6
LTYPE1
 62
     1
 10
664.1
 20
831.0
 30
0.0
 11
656.0
 21
821.8
 31
0.0
  0
ARC
  8
0
  6
LTYPE1
 62
     1
 10
667.5
 20
828.0
 30
0.0
 40
4.5
 50
290.9
 51
137.7
  0
LINE
  8
0
  6
LTYPE1
 62
     1
 10
662.0
 20
821.0
 30
0.0
 11
656.0
 21
821.8
 31
0.0
  0
LINE
  8
0
  6
LTYPE1
 62
     1
 10
669.1
 20
823.8
 30
0.0
 11
662.0
 21
821.0
 31
0.0
  0
LINE
  8
0
  6
LTYPE1
 62
     1
 10
662.0
 20
812.0
 30
0.0
 11
656.0
 21
811.2
 31
0.0
  0
ARC
  8
0
  6
LTYPE1
 62
     1
 10
667.5
 20
805.0
 30
0.0
 40
4.5
 50
222.3
 51
69.1
  0
LINE
  8
0
  6
LTYPE1
 62
     1
 10
664.1
 20
802.0
 30
0.0
 11
656.0
 21
811.2
 31
0.0
  0
LINE
  8
0
  6
LTYPE1
 62
     1
 10
669.1
 20
809.2
 30
0.0
 11
662.0
 21
812.0
 31
0.0
  0
LINE
  8
0
  6
LTYPE1
 62
     1
 10
662.0
 20
821.0
 30
0.0
 11
662.0
 21
812.0
 31
0.0
  0
LINE
  8
0
  6
CONTINUOUS
 62
     2
 10
575.008113477
 20
944.131269711
 30
0.0
 11
648.508113477
 21
944.131269711
 31
0.0
  0
LINE
  8
2
  6
CONTINUOUS
 62
     2
 10
670.2
 20
837.0
 30
0.0
 11
678.793379441
 21
846.077655522
 31
0.0
  0
LINE
  8
2
  6
CONTINUOUS
 62
     2
 10
670.2
 20
837.0
 30
0.0
 11
673.10325714
 21
849.15817001
 31
0.0
  0
LINE
  8
2
  6
CONTINUOUS
 62
     2
 10
670.2
 20
837.0
 30
0.0
 11
748.7
 21
982.0
 31
0.0
  0
LINE
  8
0
  6
CONTINUOUS
 62
     2
 10
676.99181787
 20
1029.9
 30
0.0
 11
664.917745041
 21
1033.135238064
 31
0.0
  0
LINE
  8
0
  6
CONTINUOUS
 62
     2
 10
676.99181787
 20
1029.9
 30
0.0
 11
664.917745041
 21
1026.664761936
 31
0.0
  0
LINE
  8
0
  6
CONTINUOUS
 62
     2
 10
676.99181787
 20
830.4
 30
0.0
 11
676.99181787
 21
1037.4
 31
0.0
  0
TEXT
  8
0
  6
CONTINUOUS
 62
     2
 10
658.25
 20
392.0
 30
0.0
 40
18.0
  1
ｍｉｎ．ＡＬ
 50
0.0
 41
0.9
 51
0.0
  7
KANJI28
  0
TEXT
  8
0
  6
CONTINUOUS
 62
     2
 10
716.25
 20
479.7
 30
0.0
 40
18.0
  1
Ｃ
 50
0.0
 41
0.9
 51
0.0
  7
KANJI28
  0
TEXT
  8
0
  6
CONTINUOUS
 62
     2
 10
575.008113477
 20
949.131269711
 30
0.0
 40
18.0
  1
ＰＦ３／４
 50
0.0
 41
0.9
 51
0.0
  7
KANJI28
  0
LINE
  8
0
  6
CONTINUOUS
 62
     2
 10
728.240009455
 20
880.3
 30
0.0
 11
725.004771391
 21
868.225927171
 31
0.0
  0
LINE
  8
0
  6
CONTINUOUS
 62
     2
 10
728.240009455
 20
753.3
 30
0.0
 11
725.004771391
 21
765.374072829
 31
0.0
  0
TEXT
  8
0
  6
CONTINUOUS
 62
     2
 10
723.240009455
 20
789.05
 30
0.0
 40
18.0
  1
φ１２７
 50
90.0
 41
0.9
 51
0.0
  7
KANJI28
  0
LINE
  8
0
  6
CONTINUOUS
 62
     2
 10
643.0
 20
880.3
 30
0.0
 11
739.1
 21
880.3
 31
0.0
  0
LINE
  8
0
  6
CONTINUOUS
 62
     2
 10
643.0
 20
753.3
 30
0.0
 11
739.1
 21
753.3
 31
0.0
  0
LINE
  8
0
  6
CONTINUOUS
 62
     1
 10
831.182501379
 20
716.5
 30
0.0
 11
591.0
 21
716.5
 31
0.0
  0
LINE
  8
0
  6
CONTINUOUS
 62
     1
 10
828.182501379
 20
646.5
 30
0.0
 11
591.0
 21
646.5
 31
0.0
  0
LINE
  8
0
  6
LTYPE3
 62
     2
 10
1109.283472275
 20
681.5
 30
0.0
 11
717.182501379
 21
681.5
 31
0.0
  0
CIRCLE
  8
0
  6
CONTINUOUS
 62
     1
 10
756.0
 20
681.5
 30
0.0
 40
19.5
  0
LINE
  8
0
  6
CONTINUOUS
 62
     1
 10
736.0
 20
701.5
 30
0.0
 11
776.0
 21
701.5
 31
0.0
  0
LINE
  8
0
  6
CONTINUOUS
 62
     1
 10
776.0
 20
661.5
 30
0.0
 11
776.0
 21
701.5
 31
0.0
  0
LINE
  8
0
  6
CONTINUOUS
 62
     1
 10
736.0
 20
661.5
 30
0.0
 11
776.0
 21
661.5
 31
0.0
  0
LINE
  8
0
  6
CONTINUOUS
 62
     1
 10
736.0
 20
661.5
 30
0.0
 11
736.0
 21
701.5
 31
0.0
  0
LINE
  8
0
  6
LTYPE3
 62
     2
 10
756.0
 20
656.4
 30
0.0
 11
756.0
 21
706.3
 31
0.0
  0
LINE
  8
0
  6
CONTINUOUS
 62
     1
 10
800.182501379
 20
579.5
 30
0.0
 11
930.182501379
 21
579.5
 31
0.0
  0
LINE
  8
0
  6
CONTINUOUS
 62
     1
 10
937.882501379
 20
572.5
 30
0.0
 11
937.882501379
 21
547.1
 31
0.0
  0
LINE
  8
0
  6
CONTINUOUS
 62
     1
 10
912.482501379
 20
572.5
 30
0.0
 11
937.882501379
 21
572.5
 31
0.0
  0
LINE
  8
0
  6
CONTINUOUS
 62
     1
 10
800.182501379
 20
573.5
 30
0.0
 11
800.182501379
 21
579.5
 31
0.0
  0
LINE
  8
0
  6
CONTINUOUS
 62
     1
 10
800.182501379
 20
573.5
 30
0.0
 11
930.182501379
 21
573.5
 31
0.0
  0
LINE
  8
0
  6
CONTINUOUS
 62
     1
 10
930.182501379
 20
573.5
 30
0.0
 11
930.182501379
 21
579.5
 31
0.0
  0
LINE
  8
0
  6
CONTINUOUS
 62
     1
 10
912.482501379
 20
547.1
 30
0.0
 11
937.882501379
 21
547.1
 31
0.0
  0
LINE
  8
0
  6
CONTINUOUS
 62
     1
 10
843.782501379
 20
573.5
 30
0.0
 11
843.782501379
 21
533.5
 31
0.0
  0
LINE
  8
0
  6
CONTINUOUS
 62
     1
 10
912.482501379
 20
573.5
 30
0.0
 11
912.482501379
 21
533.5
 31
0.0
  0
LINE
  8
0
  6
LTYPE1
 62
     2
 10
848.882501379
 20
542.73
 30
0.0
 11
843.882501379
 21
542.73
 31
0.0
  0
LINE
  8
0
  6
LTYPE1
 62
     2
 10
848.882501379
 20
543.885
 30
0.0
 11
843.882501379
 21
543.885
 31
0.0
  0
LINE
  8
0
  6
LTYPE1
 62
     2
 10
848.882501379
 20
563.67
 30
0.0
 11
843.882501379
 21
563.67
 31
0.0
  0
LINE
  8
0
  6
LTYPE1
 62
     2
 10
848.882501379
 20
562.515
 30
0.0
 11
843.882501379
 21
562.515
 31
0.0
  0
LINE
  8
0
  6
LTYPE1
 62
     2
 10
848.882501379
 20
563.67
 30
0.0
 11
843.882501379
 21
563.67
 31
0.0
  0
LINE
  8
0
  6
LTYPE3
 62
     2
 10
865.182501379
 20
517.5
 30
0.0
 11
865.182501379
 21
582.8
 31
0.0
  0
LINE
  8
0
  6
LTYPE3
 62
     2
 10
922.182501379
 20
558.6875
 30
0.0
 11
922.182501379
 21
518.7
 31
0.0
  0
LINE
  8
0
  6
CONTINUOUS
 62
     1
 10
792.482501379
 20
572.5
 30
0.0
 11
792.482501379
 21
547.1
 31
0.0
  0
LINE
  8
0
  6
CONTINUOUS
 62
     1
 10
817.882501379
 20
572.5
 30
0.0
 11
792.482501379
 21
572.5
 31
0.0
  0
LINE
  8
0
  6
CONTINUOUS
 62
     1
 10
817.882501379
 20
547.1
 30
0.0
 11
792.482501379
 21
547.1
 31
0.0
  0
LINE
  8
0
  6
CONTINUOUS
 62
     1
 10
817.882501379
 20
573.5
 30
0.0
 11
817.882501379
 21
533.5
 31
0.0
  0
LINE
  8
0
  6
CONTINUOUS
 62
     1
 10
849.182501379
 20
518.5
 30
0.0
 11
849.182501379
 21
533.5
 31
0.0
  0
LINE
  8
0
  6
CONTINUOUS
 62
     1
 10
849.182501379
 20
518.5
 30
0.0
 11
881.182501379
 21
518.5
 31
0.0
  0
LINE
  8
0
  6
CONTINUOUS
 62
     1
 10
881.182501379
 20
518.5
 30
0.0
 11
881.182501379
 21
533.5
 31
0.0
  0
LINE
  8
0
  6
LTYPE4
 62
     2
 10
848.882501379
 20
552.2
 30
0.0
 11
839.782501379
 21
552.2
 31
0.0
  0
LINE
  8
0
  6
CONTINUOUS
 62
     1
 10
817.882501379
 20
539.5
 30
0.0
 11
912.482501379
 21
539.5
 31
0.0
  0
LINE
  8
0
  6
CONTINUOUS
 62
     1
 10
817.882501379
 20
533.5
 30
0.0
 11
912.482501379
 21
533.5
 31
0.0
  0
LINE
  8
0
  6
CONTINUOUS
 62
     2
 10
857.0
 20
521.375
 30
0.0
 11
847.458760731
 21
513.299434806
 31
0.0
  0
LINE
  8
0
  6
CONTINUOUS
 62
     2
 10
857.0
 20
521.375
 30
0.0
 11
852.774827007
 21
509.610735757
 31
0.0
  0
LINE
  8
0
  6
CONTINUOUS
 62
     2
 10
857.0
 20
521.375
 30
0.0
 11
840.0
 21
496.875
 31
0.0
  0
LINE
  8
0
  6
CONTINUOUS
 62
     2
 10
840.0
 20
496.875
 30
0.0
 11
751.5
 21
496.875
 31
0.0
  0
LINE
  8
0
  6
CONTINUOUS
 62
     1
 10
903.183009455
 20
681.5
 30
0.0
 11
903.183009455
 21
714.5
 31
0.0
  0
LINE
  8
2
  6
CONTINUOUS
 62
     2
 10
748.7
 20
982.0
 30
0.0
 11
883.7
 21
982.0
 31
0.0
  0
TEXT
  8
0
  6
CONTINUOUS
 62
     2
 10
738.75
 20
436.3625
 30
0.0
 40
18.0
  1
ｍｉｎ．Ｌ
 50
0.0
 41
0.9
 51
0.0
  7
KANJI28
  0
TEXT
  8
0
  6
CONTINUOUS
 62
     2
 10
751.5
 20
501.875
 30
0.0
 40
18.0
  1
ＬＳユニット
 50
0.0
 41
0.9
 51
0.0
  7
KANJI28
  0
TEXT
  8
2
  6
CONTINUOUS
 62
     2
 10
748.7
 20
987.0
 30
0.0
 40
18.0
  1
ブレーキ解放装置
 50
0.0
 41
0.9
 51
0.0
  7
KANJI28
  0
LINE
  8
0
  6
CONTINUOUS
 62
     2
 10
728.240009455
 20
880.3
 30
0.0
 11
731.475247519
 21
868.225927171
 31
0.0
  0
LINE
  8
0
  6
CONTINUOUS
 62
     2
 10
728.240009455
 20
880.3
 30
0.0
 11
728.240009455
 21
753.3
 31
0.0
  0
LINE
  8
0
  6
CONTINUOUS
 62
     2
 10
728.240009455
 20
753.3
 30
0.0
 11
731.475247519
 21
765.374072829
 31
0.0
  0
ARC
  8
0
  6
CONTINUOUS
 62
     1
 10
924.845218677
 20
735.5
 30
0.0
 40
1.0
 50
90.0
 51
165.0
  0
ARC
  8
0
  6
CONTINUOUS
 62
     1
 10
924.845219502
 20
735.5
 30
0.0
 40
1.0
 50
15.0
 51
90.0
  0
LINE
  8
0
  6
CONTINUOUS
 62
     1
 10
929.433185539
 20
722.241180955
 30
0.0
 11
925.811145329
 21
735.758819045
 31
0.0
  0
ARC
  8
0
  6
CONTINUOUS
 62
     1
 10
930.399111365
 20
722.5
 30
0.0
 40
1.0
 50
195.0
 51
270.0
  0
ARC
  8
0
  6
CONTINUOUS
 62
     1
 10
930.399112039
 20
722.5
 30
0.0
 40
1.0
 50
270.0
 51
345.0
  0
LINE
  8
0
  6
CONTINUOUS
 62
     1
 10
931.365037865
 20
722.241180955
 30
0.0
 11
934.987078075
 21
735.758819045
 31
0.0
  0
ARC
  8
0
  6
CONTINUOUS
 62
     1
 10
935.953003902
 20
735.5
 30
0.0
 40
1.0
 50
90.0
 51
165.0
  0
LINE
  8
0
  6
CONTINUOUS
 62
     1
 10
940.540970764
 20
722.241180955
 30
0.0
 11
936.918930554
 21
735.758819045
 31
0.0
  0
ARC
  8
0
  6
CONTINUOUS
 62
     1
 10
941.50689659
 20
722.5
 30
0.0
 40
1.0
 50
195.0
 51
270.0
  0
ARC
  8
0
  6
CONTINUOUS
 62
     1
 10
935.953005553
 20
735.5
 30
0.0
 40
1.0
 50
15.0
 51
90.0
  0
LINE
  8
0
  6
CONTINUOUS
 62
     1
 10
924.845218677
 20
736.5
 30
0.0
 11
924.845218677
 21
681.5
 31
0.0
  0
LINE
  8
0
  6
CONTINUOUS
 62
     1
 10
930.399111365
 20
681.5
 30
0.0
 11
930.399111365
 21
721.5
 31
0.0
  0
LINE
  8
0
  6
CONTINUOUS
 62
     1
 10
935.953004728
 20
736.5
 30
0.0
 11
935.953004728
 21
681.5
 31
0.0
  0
LINE
  8
0
  6
CONTINUOUS
 62
     1
 10
941.50689659
 20
721.5
 30
0.0
 11
941.50689659
 21
681.5
 31
0.0
  0
LINE
  8
0
  6
LTYPE5
 62
     2
 10
941.50689659
 20
721.5
 30
0.0
 11
955.730004728
 21
721.5
 31
0.0
  0
LINE
  8
0
  6
LTYPE5
 62
     2
 10
935.953004728
 20
736.5
 30
0.0
 11
955.730004728
 21
736.5
 31
0.0
  0
LINE
  8
0
  6
CONTINUOUS
 62
     1
 10
905.683009455
 20
718.5
 30
0.0
 11
915.683009455
 21
718.5
 31
0.0
  0
LINE
  8
0
  6
CONTINUOUS
 62
     1
 10
915.683009455
 20
716.5
 30
0.0
 11
915.683009455
 21
718.5
 31
0.0
  0
LINE
  8
0
  6
CONTINUOUS
 62
     1
 10
918.71890784
 20
716.5
 30
0.0
 11
923.87929285
 21
735.758819045
 31
0.0
  0
LINE
  8
0
  6
CONTINUOUS
 62
     1
 10
918.71890784
 20
716.5
 30
0.0
 11
918.71890784
 21
681.5
 31
0.0
  0
ARC
  8
0
  6
CONTINUOUS
 62
     1
 10
924.845218677
 20
627.5
 30
0.0
 40
1.0
 50
195.0
 51
270.0
  0
ARC
  8
0
  6
CONTINUOUS
 62
     1
 10
924.845219502
 20
627.5
 30
0.0
 40
1.0
 50
270.0
 51
345.0
  0
LINE
  8
0
  6
CONTINUOUS
 62
     1
 10
929.433185539
 20
640.758819045
 30
0.0
 11
925.811145329
 21
627.241180955
 31
0.0
  0
ARC
  8
0
  6
CONTINUOUS
 62
     1
 10
930.399111365
 20
640.5
 30
0.0
 40
1.0
 50
90.0
 51
165.0
  0
ARC
  8
0
  6
CONTINUOUS
 62
     1
 10
930.399112039
 20
640.5
 30
0.0
 40
1.0
 50
15.0
 51
90.0
  0
LINE
  8
0
  6
CONTINUOUS
 62
     1
 10
931.365037865
 20
640.758819045
 30
0.0
 11
934.987078075
 21
627.241180955
 31
0.0
  0
ARC
  8
0
  6
CONTINUOUS
 62
     1
 10
935.953003902
 20
627.5
 30
0.0
 40
1.0
 50
195.0
 51
270.0
  0
LINE
  8
0
  6
CONTINUOUS
 62
     1
 10
940.540970764
 20
640.758819045
 30
0.0
 11
936.918930554
 21
627.241180955
 31
0.0
  0
ARC
  8
0
  6
CONTINUOUS
 62
     1
 10
941.50689659
 20
640.5
 30
0.0
 40
1.0
 50
90.0
 51
165.0
  0
ARC
  8
0
  6
CONTINUOUS
 62
     1
 10
935.953005553
 20
627.5
 30
0.0
 40
1.0
 50
270.0
 51
345.0
  0
LINE
  8
0
  6
LTYPE5
 62
     2
 10
941.50689659
 20
641.5
 30
0.0
 11
955.730004728
 21
641.5
 31
0.0
  0
LINE
  8
0
  6
LTYPE5
 62
     2
 10
935.953004728
 20
626.5
 30
0.0
 11
955.730004728
 21
626.5
 31
0.0
  0
LINE
  8
0
  6
CONTINUOUS
 62
     1
 10
905.683009455
 20
643.5
 30
0.0
 11
915.683009455
 21
643.5
 31
0.0
  0
LINE
  8
0
  6
CONTINUOUS
 62
     1
 10
915.683009455
 20
645.5
 30
0.0
 11
915.683009455
 21
643.5
 31
0.0
  0
LINE
  8
0
  6
CONTINUOUS
 62
     1
 10
903.183009455
 20
645.5
 30
0.0
 11
918.986857032
 21
645.5
 31
0.0
  0
LINE
  8
0
  6
CONTINUOUS
 62
     1
 10
918.986857032
 20
645.5
 30
0.0
 11
923.87929285
 21
627.241180955
 31
0.0
  0
TEXT
  8
0
  6
CONTINUOUS
 62
     2
 10
954.4
 20
843.6
 30
0.0
 40
18.0
  1
φ１１０
 50
90.0
 41
0.9
 51
0.0
  7
KANJI28
  0
LINE
  8
0
  6
CONTINUOUS
 62
     1
 10
903.182501379
 20
716.5
 30
0.0
 11
918.183009455
 21
716.5
 31
0.0
  0
LINE
  8
0
  6
CONTINUOUS
 62
     1
 10
903.182501379
 20
668.5
 30
0.0
 11
903.182501379
 21
716.5
 31
0.0
  0
LINE
  8
0
  6
CONTINUOUS
 62
     1
 10
903.182501379
 20
668.5
 30
0.0
 11
903.182501379
 21
646.5
 31
0.0
  0
LINE
  8
0
  6
CONTINUOUS
 62
     1
 10
849.182501379
 20
232.6
 30
0.0
 11
881.182501379
 21
232.6
 31
0.0
  0
LINE
  8
0
  6
CONTINUOUS
 62
     1
 10
849.182501379
 20
200.6
 30
0.0
 11
849.182501379
 21
232.6
 31
0.0
  0
ARC
  8
0
  6
CONTINUOUS
 62
     1
 10
810.182501379
 20
289.1
 30
0.0
 40
10.0
 50
90.0
 51
180.0
  0
LINE
  8
0
  6
CONTINUOUS
 62
     1
 10
810.182501379
 20
299.1
 30
0.0
 11
920.182501379
 21
299.1
 31
0.0
  0
LINE
  8
0
  6
LTYPE3
 62
     2
 10
931.443522596
 20
274.6
 30
0.0
 11
840.182501379
 21
274.6
 31
0.0
  0
LINE
  8
0
  6
CONTINUOUS
 62
     1
 10
881.182501379
 20
200.6
 30
0.0
 11
849.182501379
 21
200.6
 31
0.0
  0
LINE
  8
0
  6
LTYPE3
 62
     2
 10
819.182501379
 20
196.6
 30
0.0
 11
796.182501379
 21
196.6
 31
0.0
  0
LINE
  8
0
  6
CONTINUOUS
 62
     1
 10
802.190817392
 20
158.915789474
 30
0.0
 11
804.188045388
 21
196.810526316
 31
0.0
  0
LINE
  8
0
  6
CONTINUOUS
 62
     1
 10
814.174185367
 20
158.915789474
 30
0.0
 11
812.176957371
 21
196.810526316
 31
0.0
  0
ARC
  8
0
  6
CONTINUOUS
 62
     1
 10
808.182501379
 20
196.6
 30
0.0
 40
4.0
 50
356.983042101
 51
183.016952287
  0
ARC
  8
0
  6
CONTINUOUS
 62
     1
 10
808.182501379
 20
196.6
 30
0.0
 40
8.75
 50
300.219855722
 51
239.780144278
  0
LINE
  8
0
  6
LTYPE3
 62
     2
 10
808.182501379
 20
149.5
 30
0.0
 11
808.182501379
 21
207.0
 31
0.0
  0
LINE
  8
0
  6
CONTINUOUS
 62
     1
 10
800.182501379
 20
193.05563828
 30
0.0
 11
800.182501379
 21
171.25
 31
0.0
  0
LINE
  8
0
  6
CONTINUOUS
 62
     1
 10
800.182501379
 20
208.6
 30
0.0
 11
800.182501379
 21
200.14436172
 31
0.0
  0
LINE
  8
0
  6
CONTINUOUS
 62
     1
 10
783.803444363
 20
208.6
 30
0.0
 11
849.182501379
 21
208.6
 31
0.0
  0
LINE
  8
0
  6
CONTINUOUS
 62
     1
 10
849.182501379
 20
224.6
 30
0.0
 11
783.873079342
 21
224.6
 31
0.0
  0
ARC
  8
0
  6
CONTINUOUS
 62
     1
 10
789.427969957
 20
220.6
 30
0.0
 40
6.845203412
 50
144.242860688
 51
215.757139312
  0
ARC
  8
0
  6
CONTINUOUS
 62
     1
 10
778.318188727
 20
220.6
 30
0.0
 40
6.845203412
 50
324.242860688
 51
35.757139312
  0
ARC
  8
0
  6
CONTINUOUS
 62
     1
 10
778.318188727
 20
212.6
 30
0.0
 40
6.845203412
 50
324.242860688
 51
35.757139312
  0
LINE
  8
0
  6
LTYPE2
 62
     2
 10
1013.682501379
 20
216.6
 30
0.0
 11
778.838261852
 21
216.6
 31
0.0
  0
LINE
  8
7
  6
CONTINUOUS
 62
     2
 10
843.782501379
 20
274.6
 30
0.0
 11
835.47402349
 21
269.035002681
 31
0.0
  0
LINE
  8
7
  6
CONTINUOUS
 62
     2
 10
843.782501379
 20
274.6
 30
0.0
 11
839.36964712
 21
265.626332005
 31
0.0
  0
LINE
  8
7
  6
CONTINUOUS
 62
     2
 10
843.782501379
 20
274.6
 30
0.0
 11
832.582501379
 21
261.8
 31
0.0
  0
LINE
  8
7
  6
CONTINUOUS
 62
     2
 10
832.582501379
 20
261.8
 30
0.0
 11
773.782501379
 21
261.8
 31
0.0
  0
TEXT
  8
7
  6
CONTINUOUS
 62
     2
 10
773.782501379
 20
265.8
 30
1.2
 40
12.0
  1
ＰＦ１／２
 50
0.0
 41
0.9
 51
0.0
  7
KANJI35
  0
LINE
  8
0
  6
CONTINUOUS
 62
     1
 10
800.182501379
 20
278.8
 30
0.0
 11
800.182501379
 21
289.1
 31
0.0
  0
LINE
  8
0
  6
CONTINUOUS
 62
     1
 10
800.182501379
 20
224.6
 30
0.0
 11
800.182501379
 21
258.8
 31
0.0
  0
LINE
  8
0
  6
LTYPE3
 62
     2
 10
855.222501379
 20
289.7
 30
0.0
 11
843.782501379
 21
289.7
 31
0.0
  0
LINE
  8
0
  6
LTYPE3
 62
     2
 10
848.782501379
 20
293.6
 30
0.0
 11
848.782501379
 21
284.62
 31
0.0
  0
LINE
  8
0
  6
CONTINUOUS
 62
     1
 10
910.482501379
 20
294.6
 30
0.0
 11
845.782501379
 21
294.6
 31
0.0
  0
LINE
  8
0
  6
CONTINUOUS
 62
     1
 10
843.782501379
 20
292.6
 30
0.0
 11
843.782501379
 21
256.6
 31
0.0
  0
ARC
  8
0
  6
CONTINUOUS
 62
     1
 10
845.782501379
 20
292.6
 30
0.0
 40
2.0
 50
90.0
 51
180.0
  0
LINE
  8
0
  6
LTYPE3
 62
     2
 10
854.682501379
 20
259.5
 30
0.0
 11
843.782501379
 21
259.5
 31
0.0
  0
LINE
  8
0
  6
LTYPE3
 62
     2
 10
848.782501379
 20
265.52
 30
0.0
 11
848.782501379
 21
255.6
 31
0.0
  0
LINE
  8
0
  6
CONTINUOUS
 62
     1
 10
910.482501379
 20
254.6
 30
0.0
 11
845.782501379
 21
254.6
 31
0.0
  0
ARC
  8
0
  6
CONTINUOUS
 62
     1
 10
845.782501379
 20
256.6
 30
0.0
 40
2.0
 50
180.0
 51
270.0
  0
LINE
  8
0
  6
CONTINUOUS
 62
     1
 10
881.182501379
 20
200.6
 30
0.0
 11
881.182501379
 21
232.6
 31
0.0
  0
LINE
  8
0
  6
CONTINUOUS
 62
     1
 10
930.182501379
 20
287.3
 30
0.0
 11
930.182501379
 21
289.1
 31
0.0
  0
ARC
  8
0
  6
CONTINUOUS
 62
     1
 10
920.182501379
 20
289.1
 30
0.0
 40
10.0
 50
0.0
 51
90.0
  0
LINE
  8
0
  6
CONTINUOUS
 62
     1
 10
930.182501379
 20
240.14436172
 30
0.0
 11
930.182501379
 21
261.95
 31
0.0
  0
LINE
  8
0
  6
CONTINUOUS
 62
     1
 10
930.182501379
 20
224.6
 30
0.0
 11
930.182501379
 21
233.05563828
 31
0.0
  0
TEXT
  8
7
  6
CONTINUOUS
 62
     2
 10
899.232501379
 20
176.75
 30
1.2
 40
12.0
  1
ＰＦ１／２
 50
0.0
 41
0.9
 51
0.0
  7
KANJI35
  0
LINE
  8
0
  6
LTYPE3
 62
     2
 10
912.482501379
 20
289.7
 30
0.0
 11
902.522501379
 21
289.7
 31
0.0
  0
LINE
  8
0
  6
LTYPE3
 62
     2
 10
907.482501379
 20
293.6
 30
0.0
 11
907.482501379
 21
285.72
 31
0.0
  0
ARC
  8
0
  6
CONTINUOUS
 62
     1
 10
910.482501379
 20
292.6
 30
0.0
 40
2.0
 50
0.0
 51
90.0
  0
LINE
  8
0
  6
CONTINUOUS
 62
     1
 10
935.882501379
 20
287.3
 30
0.0
 11
912.482501379
 21
287.3
 31
0.0
  0
LINE
  8
0
  6
CONTINUOUS
 62
     1
 10
912.482501379
 20
292.6
 30
0.0
 11
912.482501379
 21
256.6
 31
0.0
  0
LINE
  8
0
  6
LTYPE3
 62
     2
 10
912.482501379
 20
259.5
 30
0.0
 11
902.682501379
 21
259.5
 31
0.0
  0
LINE
  8
0
  6
LTYPE3
 62
     2
 10
907.482501379
 20
265.62
 30
0.0
 11
907.482501379
 21
255.6
 31
0.0
  0
ARC
  8
0
  6
CONTINUOUS
 62
     1
 10
910.482501379
 20
256.6
 30
0.0
 40
2.0
 50
270.0
 51
0.0
  0
LINE
  8
0
  6
CONTINUOUS
 62
     1
 10
916.843522596
 20
261.9
 30
0.0
 11
912.482501379
 21
261.9
 31
0.0
  0
ARC
  8
0
  6
CONTINUOUS
 62
     1
 10
935.882501379
 20
285.3
 30
0.0
 40
2.0
 50
0.0
 51
90.0
  0
LINE
  8
0
  6
CONTINUOUS
 62
     1
 10
937.882501379
 20
285.3
 30
0.0
 11
937.882501379
 21
263.9
 31
0.0
  0
ARC
  8
0
  6
CONTINUOUS
 62
     1
 10
922.182501379
 20
274.6
 30
0.0
 40
6.0
 50
356.983045121
 51
183.016954879
  0
LINE
  8
0
  6
LTYPE3
 62
     2
 10
922.182501379
 20
283.7
 30
0.0
 11
922.182501379
 21
226.2
 31
0.0
  0
LINE
  8
0
  6
CONTINUOUS
 62
     1
 10
928.174185367
 20
274.284210526
 30
0.0
 11
926.176957371
 21
236.389473684
 31
0.0
  0
LINE
  8
0
  6
CONTINUOUS
 62
     1
 10
916.190817392
 20
274.284210526
 30
0.0
 11
918.188045388
 21
236.389473684
 31
0.0
  0
ARC
  8
0
  6
CONTINUOUS
 62
     1
 10
935.882501379
 20
263.9
 30
0.0
 40
2.0
 50
270.0
 51
0.0
  0
LINE
  8
0
  6
CONTINUOUS
 62
     1
 10
935.882501379
 20
261.9
 30
0.0
 11
927.521480162
 21
261.9
 31
0.0
  0
LINE
  8
0
  6
LTYPE3
 62
     2
 10
911.182501379
 20
236.6
 30
0.0
 11
934.182501379
 21
236.6
 31
0.0
  0
ARC
  8
0
  6
CONTINUOUS
 62
     1
 10
922.182501379
 20
236.6
 30
0.0
 40
8.75
 50
120.219855722
 51
59.780144278
  0
ARC
  8
0
  6
CONTINUOUS
 62
     1
 10
922.182501379
 20
236.6
 30
0.0
 40
4.0
 50
176.983042101
 51
3.016952287
  0
LINE
  8
0
  6
LTYPE2
 62
     2
 10
865.182501379
 20
189.0
 30
0.0
 11
865.182501379
 21
533.5
 31
0.0
  0
LINE
  8
0
  6
CONTINUOUS
 62
     2
 10
804.182501379
 20
299.1
 30
0.0
 11
731.182501379
 21
299.1
 31
0.0
  0
LINE
  8
0
  6
CONTINUOUS
 62
     2
 10
737.182501379
 20
299.1
 30
0.0
 11
734.076672838
 21
287.508890085
 31
0.0
  0
LINE
  8
0
  6
CONTINUOUS
 62
     2
 10
737.182501379
 20
299.1
 30
0.0
 11
740.288329921
 21
287.508890085
 31
0.0
  0
LINE
  8
0
  6
CONTINUOUS
 62
     2
 10
737.182501379
 20
299.1
 30
0.0
 11
737.182501379
 21
134.1
 31
0.0
  0
TEXT
  8
0
  6
CONTINUOUS
 62
     3
 10
734.182501379
 20
192.3
 30
0.0
 40
18.0
  1
１６５
 50
90.0
 41
0.9
 51
0.0
  7
KANJI28
  0
LINE
  8
0
  6
CONTINUOUS
 62
     1
 10
918.71890784
 20
716.5
 30
0.0
 11
899.182501379
 21
716.5
 31
0.0
  0
LINE
  8
0
  6
CONTINUOUS
 62
     1
 10
891.182501379
 20
716.5
 30
0.0
 11
839.182501379
 21
716.5
 31
0.0
  0
LINE
  8
0
  6
CONTINUOUS
 62
     1
 10
887.182501379
 20
646.5
 30
0.0
 11
842.182501379
 21
646.5
 31
0.0
  0
LINE
  8
0
  6
CONTINUOUS
 62
     1
 10
986.0
 20
646.5
 30
0.0
 11
902.182501379
 21
646.5
 31
0.0
  0
LINE
  8
0
  6
CONTINUOUS
 62
     2
 10
1091.0
 20
387.0
 30
0.0
 11
1078.925927171
 21
390.235238064
 31
0.0
  0
LINE
  8
0
  6
CONTINUOUS
 62
     2
 10
1091.0
 20
387.0
 30
0.0
 11
1078.925927171
 21
383.764761936
 31
0.0
  0
LINE
  8
0
  6
CONTINUOUS
 62
     2
 10
1091.0
 20
423.8625
 30
0.0
 11
1091.0
 21
379.5
 31
0.0
  0
LINE
  8
0
  6
CONTINUOUS
 62
     2
 10
1091.0
 20
655.375
 30
0.0
 11
1091.0
 21
423.8625
 31
0.0
  0
LINE
  8
0
  6
CONTINUOUS
 62
     1
 10
1100.482501379
 20
299.1
 30
0.0
 11
1100.482501379
 21
234.4
 31
0.0
  0
LINE
  8
0
  6
CONTINUOUS
 62
     1
 10
1102.482501379
 20
232.4
 30
0.0
 11
1138.482501379
 21
232.4
 31
0.0
  0
ARC
  8
0
  6
CONTINUOUS
 62
     1
 10
1102.482501379
 20
234.4
 30
0.0
 40
2.0
 50
180.0
 51
270.0
  0
LINE
  8
0
  6
CONTINUOUS
 62
     1
 10
1140.482501379
 20
299.1
 30
0.0
 11
1140.482501379
 21
234.4
 31
0.0
  0
ARC
  8
0
  6
CONTINUOUS
 62
     1
 10
1138.482501379
 20
234.4
 30
0.0
 40
2.0
 50
270.0
 51
0.0
  0
ARC
  8
0
  6
CONTINUOUS
 62
     1
 10
1102.482501379
 20
299.1
 30
0.0
 40
2.0
 50
90.0
 51
180.0
  0
LINE
  8
0
  6
CONTINUOUS
 62
     1
 10
1107.782501379
 20
324.5
 30
0.0
 11
1107.782501379
 21
301.1
 31
0.0
  0
LINE
  8
0
  6
CONTINUOUS
 62
     1
 10
1102.482501379
 20
301.1
 30
0.0
 11
1138.482501379
 21
301.1
 31
0.0
  0
ARC
  8
0
  6
CONTINUOUS
 62
     1
 10
1138.482501379
 20
299.1
 30
0.0
 40
2.0
 50
0.0
 51
90.0
  0
ARC
  8
0
  6
CONTINUOUS
 62
     1
 10
1109.782501379
 20
324.5
 30
0.0
 40
2.0
 50
90.0
 51
180.0
  0
ARC
  8
0
  6
CONTINUOUS
 62
     1
 10
1120.482501379
 20
310.8
 30
0.0
 40
6.0
 50
131.983045121
 51
318.016954879
  0
LINE
  8
0
  6
LTYPE3
 62
     2
 10
1114.047829671
 20
304.365328291
 30
0.0
 11
1154.706469589
 21
345.023968209
 31
0.0
  0
LINE
  8
0
  6
CONTINUOUS
 62
     1
 10
1116.469037879
 20
315.260057257
 30
0.0
 11
1144.676916731
 21
340.64342919
 31
0.0
  0
LINE
  8
0
  6
CONTINUOUS
 62
     1
 10
1124.942558636
 20
306.7865365
 30
0.0
 11
1150.325930569
 21
334.994415352
 31
0.0
  0
LINE
  8
0
  6
LTYPE3
 62
     2
 10
1155.130733658
 20
329.891883092
 30
0.0
 11
1138.86727769
 21
346.155339059
 31
0.0
  0
ARC
  8
0
  6
CONTINUOUS
 62
     1
 10
1147.352559064
 20
337.670057685
 30
0.0
 40
8.75
 50
255.219855722
 51
194.780144278
  0
ARC
  8
0
  6
CONTINUOUS
 62
     1
 10
1147.352559064
 20
337.670057685
 30
0.0
 40
4.0
 50
311.983042101
 51
138.016952287
  0
LINE
  8
0
  6
CONTINUOUS
 62
     1
 10
1133.182501379
 20
315.94336985
 30
0.0
 11
1133.182501379
 21
301.1
 31
0.0
  0
LINE
  8
0
  6
CONTINUOUS
 62
     1
 10
1109.782501379
 20
326.5
 30
0.0
 11
1128.959692944
 21
326.5
 31
0.0
  0
LINE
  8
0
  6
LTYPE2
 62
     2
 10
1105.607501379
 20
277.6
 30
0.0
 11
1135.607501379
 21
277.6
 31
0.0
  0
LINE
  8
0
  6
LTYPE2
 62
     2
 10
1135.607501379
 20
277.6
 30
0.0
 11
1135.607501379
 21
287.1
 31
0.0
  0
LINE
  8
0
  6
LTYPE2
 62
     2
 10
1135.607501379
 20
287.1
 30
0.0
 11
1105.607501379
 21
287.1
 31
0.0
  0
LINE
  8
0
  6
LTYPE2
 62
     2
 10
1105.607501379
 20
287.1
 30
0.0
 11
1105.607501379
 21
277.6
 31
0.0
  0
LINE
  8
0
  6
CONTINUOUS
 62
     1
 10
1105.607501379
 20
247.6
 30
0.0
 11
1135.607501379
 21
247.6
 31
0.0
  0
LINE
  8
0
  6
CONTINUOUS
 62
     1
 10
1135.607501379
 20
247.6
 30
0.0
 11
1135.607501379
 21
257.1
 31
0.0
  0
LINE
  8
0
  6
CONTINUOUS
 62
     1
 10
1135.607501379
 20
257.1
 30
0.0
 11
1105.607501379
 21
257.1
 31
0.0
  0
LINE
  8
0
  6
CONTINUOUS
 62
     1
 10
1105.607501379
 20
257.1
 30
0.0
 11
1105.607501379
 21
247.6
 31
0.0
  0
TEXT
  8
0
  6
CONTINUOUS
 62
     2
 10
1104.382501379
 20
290.4
 30
0.0
 40
10.0
  1
４
 50
0.0
 41
0.85
 51
0.0
  7
KANJI36
  0
TEXT
  8
0
  6
CONTINUOUS
 62
     2
 10
1129.382501379
 20
290.4
 30
0.0
 40
10.0
  1
３
 50
0.0
 41
0.85
 51
0.0
  7
KANJI36
  0
POLYLINE
  8
0
  6
CONTINUOUS
 62
     2
 66
     1
 70
     1
  0
VERTEX
  8
0
  6
CONTINUOUS
 62
     2
 10
1115.382501379
 20
289.65
 30
0.0
 42
0.021820078
  0
VERTEX
  8
0
  6
CONTINUOUS
 62
     2
 10
1115.37393945
 20
289.846100421
 30
0.0
 42
0.021820078
  0
VERTEX
  8
0
  6
CONTINUOUS
 62
     2
 10
1115.348318824
 20
290.0407084
 30
0.0
 42
0.021820078
  0
VERTEX
  8
0
  6
CONTINUOUS
 62
     2
 10
1115.305834489
 20
290.232342851
 30
0.0
 42
0.021820078
  0
VERTEX
  8
0
  6
CONTINUOUS
 62
     2
 10
1115.246809776
 20
290.419545322
 30
0.0
 42
0.021820078
  0
VERTEX
  8
0
  6
CONTINUOUS
 62
     2
 10
1115.1716939
 20
290.600891089
 30
0.0
 42
0.021820078
  0
VERTEX
  8
0
  6
CONTINUOUS
 62
     2
 10
1115.081058538
 20
290.775
 30
0.0
 42
0.021820078
  0
VERTEX
  8
0
  6
CONTINUOUS
 62
     2
 10
1114.975593479
 20
290.940546982
 30
0.0
 42
0.021820078
  0
VERTEX
  8
0
  6
CONTINUOUS
 62
     2
 10
1114.856101376
 20
291.096272122
 30
0.0
 42
0.021820078
  0
VERTEX
  8
0
  6
CONTINUOUS
 62
     2
 10
1114.723491637
 20
291.240990258
 30
0.0
 42
0.021820078
  0
VERTEX
  8
0
  6
CONTINUOUS
 62
     2
 10
1114.578773501
 20
291.373599997
 30
0.0
 42
0.021820078
  0
VERTEX
  8
0
  6
CONTINUOUS
 62
     2
 10
1114.423048361
 20
291.4930921
 30
0.0
 42
0.021820078
  0
VERTEX
  8
0
  6
CONTINUOUS
 62
     2
 10
1114.257501379
 20
291.598557159
 30
0.0
 42
0.021820078
  0
VERTEX
  8
0
  6
CONTINUOUS
 62
     2
 10
1114.083392468
 20
291.689192521
 30
0.0
 42
0.021820078
  0
VERTEX
  8
0
  6
CONTINUOUS
 62
     2
 10
1113.902046702
 20
291.764308397
 30
0.0
 42
0.021820078
  0
VERTEX
  8
0
  6
CONTINUOUS
 62
     2
 10
1113.714844231
 20
291.823333109
 30
0.0
 42
0.021820078
  0
VERTEX
  8
0
  6
CONTINUOUS
 62
     2
 10
1113.523209779
 20
291.865817444
 30
0.0
 42
0.021820078
  0
VERTEX
  8
0
  6
CONTINUOUS
 62
     2
 10
1113.328601801
 20
291.891438071
 30
0.0
 42
0.021820078
  0
VERTEX
  8
0
  6
CONTINUOUS
 62
     2
 10
1113.132501379
 20
291.9
 30
0.0
 42
0.021820078
  0
VERTEX
  8
0
  6
CONTINUOUS
 62
     2
 10
1112.936400958
 20
291.891438071
 30
0.0
 42
0.021820078
  0
VERTEX
  8
0
  6
CONTINUOUS
 62
     2
 10
1112.74179298
 20
291.865817444
 30
0.0
 42
0.021820078
  0
VERTEX
  8
0
  6
CONTINUOUS
 62
     2
 10
1112.550158528
 20
291.823333109
 30
0.0
 42
0.021820078
  0
VERTEX
  8
0
  6
CONTINUOUS
 62
     2
 10
1112.362956057
 20
291.764308397
 30
0.0
 42
0.021820078
  0
VERTEX
  8
0
  6
CONTINUOUS
 62
     2
 10
1112.18161029
 20
291.689192521
 30
0.0
 42
0.021820078
  0
VERTEX
  8
0
  6
CONTINUOUS
 62
     2
 10
1112.007501379
 20
291.598557159
 30
0.0
 42
0.021820078
  0
VERTEX
  8
0
  6
CONTINUOUS
 62
     2
 10
1111.841954398
 20
291.4930921
 30
0.0
 42
0.021820078
  0
VERTEX
  8
0
  6
CONTINUOUS
 62
     2
 10
1111.686229258
 20
291.373599997
 30
0.0
 42
0.021820078
  0
VERTEX
  8
0
  6
CONTINUOUS
 62
     2
 10
1111.541511122
 20
291.240990258
 30
0.0
 42
0.021820078
  0
VERTEX
  8
0
  6
CONTINUOUS
 62
     2
 10
1111.408901382
 20
291.096272122
 30
0.0
 42
0.021820078
  0
VERTEX
  8
0
  6
CONTINUOUS
 62
     2
 10
1111.28940928
 20
290.940546982
 30
0.0
 42
0.021820078
  0
VERTEX
  8
0
  6
CONTINUOUS
 62
     2
 10
1111.183944221
 20
290.775
 30
0.0
 42
0.021820078
  0
VERTEX
  8
0
  6
CONTINUOUS
 62
     2
 10
1111.093308859
 20
290.600891089
 30
0.0
 42
0.021820078
  0
VERTEX
  8
0
  6
CONTINUOUS
 62
     2
 10
1111.018192983
 20
290.419545322
 30
0.0
 42
0.021820078
  0
VERTEX
  8
0
  6
CONTINUOUS
 62
     2
 10
1110.95916827
 20
290.232342851
 30
0.0
 42
0.021820078
  0
VERTEX
  8
0
  6
CONTINUOUS
 62
     2
 10
1110.916683935
 20
290.0407084
 30
0.0
 42
0.021820078
  0
VERTEX
  8
0
  6
CONTINUOUS
 62
     2
 10
1110.891063309
 20
289.846100421
 30
0.0
 42
0.021820078
  0
VERTEX
  8
0
  6
CONTINUOUS
 62
     2
 10
1110.882501379
 20
289.65
 30
0.0
 42
0.021820078
  0
VERTEX
  8
0
  6
CONTINUOUS
 62
     2
 10
1110.891063309
 20
289.453899579
 30
0.0
 42
0.021820078
  0
VERTEX
  8
0
  6
CONTINUOUS
 62
     2
 10
1110.916683935
 20
289.2592916
 30
0.0
 42
0.021820078
  0
VERTEX
  8
0
  6
CONTINUOUS
 62
     2
 10
1110.95916827
 20
289.067657149
 30
0.0
 42
0.021820078
  0
VERTEX
  8
0
  6
CONTINUOUS
 62
     2
 10
1111.018192983
 20
288.880454678
 30
0.0
 42
0.021820078
  0
VERTEX
  8
0
  6
CONTINUOUS
 62
     2
 10
1111.093308859
 20
288.699108911
 30
0.0
 42
0.021820078
  0
VERTEX
  8
0
  6
CONTINUOUS
 62
     2
 10
1111.183944221
 20
288.525
 30
0.0
 42
0.021820078
  0
VERTEX
  8
0
  6
CONTINUOUS
 62
     2
 10
1111.28940928
 20
288.359453018
 30
0.0
 42
0.021820078
  0
VERTEX
  8
0
  6
CONTINUOUS
 62
     2
 10
1111.408901382
 20
288.203727878
 30
0.0
 42
0.021820078
  0
VERTEX
  8
0
  6
CONTINUOUS
 62
     2
 10
1111.541511122
 20
288.059009742
 30
0.0
 42
0.021820078
  0
VERTEX
  8
0
  6
CONTINUOUS
 62
     2
 10
1111.686229258
 20
287.926400003
 30
0.0
 42
0.021820078
  0
VERTEX
  8
0
  6
CONTINUOUS
 62
     2
 10
1111.841954398
 20
287.8069079
 30
0.0
 42
0.021820078
  0
VERTEX
  8
0
  6
CONTINUOUS
 62
     2
 10
1112.007501379
 20
287.701442841
 30
0.0
 42
0.021820078
  0
VERTEX
  8
0
  6
CONTINUOUS
 62
     2
 10
1112.18161029
 20
287.610807479
 30
0.0
 42
0.021820078
  0
VERTEX
  8
0
  6
CONTINUOUS
 62
     2
 10
1112.362956057
 20
287.535691603
 30
0.0
 42
0.021820078
  0
VERTEX
  8
0
  6
CONTINUOUS
 62
     2
 10
1112.550158528
 20
287.476666891
 30
0.0
 42
0.021820078
  0
VERTEX
  8
0
  6
CONTINUOUS
 62
     2
 10
1112.74179298
 20
287.434182556
 30
0.0
 42
0.021820078
  0
VERTEX
  8
0
  6
CONTINUOUS
 62
     2
 10
1112.936400958
 20
287.408561929
 30
0.0
 42
0.021820078
  0
VERTEX
  8
0
  6
CONTINUOUS
 62
     2
 10
1113.132501379
 20
287.4
 30
0.0
 42
0.021820078
  0
VERTEX
  8
0
  6
CONTINUOUS
 62
     2
 10
1113.328601801
 20
287.408561929
 30
0.0
 42
0.021820078
  0
VERTEX
  8
0
  6
CONTINUOUS
 62
     2
 10
1113.523209779
 20
287.434182556
 30
0.0
 42
0.021820078
  0
VERTEX
  8
0
  6
CONTINUOUS
 62
     2
 10
1113.714844231
 20
287.476666891
 30
0.0
 42
0.021820078
  0
VERTEX
  8
0
  6
CONTINUOUS
 62
     2
 10
1113.902046702
 20
287.535691603
 30
0.0
 42
0.021820078
  0
VERTEX
  8
0
  6
CONTINUOUS
 62
     2
 10
1114.083392468
 20
287.610807479
 30
0.0
 42
0.021820078
  0
VERTEX
  8
0
  6
CONTINUOUS
 62
     2
 10
1114.257501379
 20
287.701442841
 30
0.0
 42
0.021820078
  0
VERTEX
  8
0
  6
CONTINUOUS
 62
     2
 10
1114.423048361
 20
287.8069079
 30
0.0
 42
0.021820078
  0
VERTEX
  8
0
  6
CONTINUOUS
 62
     2
 10
1114.578773501
 20
287.926400003
 30
0.0
 42
0.021820078
  0
VERTEX
  8
0
  6
CONTINUOUS
 62
     2
 10
1114.723491637
 20
288.059009742
 30
0.0
 42
0.021820078
  0
VERTEX
  8
0
  6
CONTINUOUS
 62
     2
 10
1114.856101376
 20
288.203727878
 30
0.0
 42
0.021820078
  0
VERTEX
  8
0
  6
CONTINUOUS
 62
     2
 10
1114.975593479
 20
288.359453018
 30
0.0
 42
0.021820078
  0
VERTEX
  8
0
  6
CONTINUOUS
 62
     2
 10
1115.081058538
 20
288.525
 30
0.0
 42
0.021820078
  0
VERTEX
  8
0
  6
CONTINUOUS
 62
     2
 10
1115.1716939
 20
288.699108911
 30
0.0
 42
0.021820078
  0
VERTEX
  8
0
  6
CONTINUOUS
 62
     2
 10
1115.246809776
 20
288.880454678
 30
0.0
 42
0.021820078
  0
VERTEX
  8
0
  6
CONTINUOUS
 62
     2
 10
1115.305834489
 20
289.067657149
 30
0.0
 42
0.021820078
  0
VERTEX
  8
0
  6
CONTINUOUS
 62
     2
 10
1115.348318824
 20
289.2592916
 30
0.0
 42
0.021820078
  0
VERTEX
  8
0
  6
CONTINUOUS
 62
     2
 10
1115.37393945
 20
289.453899579
 30
0.0
 42
0.021820078
  0
SEQEND
  8
0
  6
CONTINUOUS
 62
     2
  0
POLYLINE
  8
0
  6
CONTINUOUS
 62
     2
 66
     1
 70
     1
  0
VERTEX
  8
0
  6
CONTINUOUS
 62
     2
 10
1130.382501379
 20
289.65
 30
0.0
 42
0.021820078
  0
VERTEX
  8
0
  6
CONTINUOUS
 62
     2
 10
1130.37393945
 20
289.846100421
 30
0.0
 42
0.021820078
  0
VERTEX
  8
0
  6
CONTINUOUS
 62
     2
 10
1130.348318824
 20
290.0407084
 30
0.0
 42
0.021820078
  0
VERTEX
  8
0
  6
CONTINUOUS
 62
     2
 10
1130.305834489
 20
290.232342851
 30
0.0
 42
0.021820078
  0
VERTEX
  8
0
  6
CONTINUOUS
 62
     2
 10
1130.246809776
 20
290.419545322
 30
0.0
 42
0.021820078
  0
VERTEX
  8
0
  6
CONTINUOUS
 62
     2
 10
1130.1716939
 20
290.600891089
 30
0.0
 42
0.021820078
  0
VERTEX
  8
0
  6
CONTINUOUS
 62
     2
 10
1130.081058538
 20
290.775
 30
0.0
 42
0.021820078
  0
VERTEX
  8
0
  6
CONTINUOUS
 62
     2
 10
1129.975593479
 20
290.940546982
 30
0.0
 42
0.021820078
  0
VERTEX
  8
0
  6
CONTINUOUS
 62
     2
 10
1129.856101376
 20
291.096272122
 30
0.0
 42
0.021820078
  0
VERTEX
  8
0
  6
CONTINUOUS
 62
     2
 10
1129.723491637
 20
291.240990258
 30
0.0
 42
0.021820078
  0
VERTEX
  8
0
  6
CONTINUOUS
 62
     2
 10
1129.578773501
 20
291.373599997
 30
0.0
 42
0.021820078
  0
VERTEX
  8
0
  6
CONTINUOUS
 62
     2
 10
1129.423048361
 20
291.4930921
 30
0.0
 42
0.021820078
  0
VERTEX
  8
0
  6
CONTINUOUS
 62
     2
 10
1129.257501379
 20
291.598557159
 30
0.0
 42
0.021820078
  0
VERTEX
  8
0
  6
CONTINUOUS
 62
     2
 10
1129.083392468
 20
291.689192521
 30
0.0
 42
0.021820078
  0
VERTEX
  8
0
  6
CONTINUOUS
 62
     2
 10
1128.902046702
 20
291.764308397
 30
0.0
 42
0.021820078
  0
VERTEX
  8
0
  6
CONTINUOUS
 62
     2
 10
1128.714844231
 20
291.823333109
 30
0.0
 42
0.021820078
  0
VERTEX
  8
0
  6
CONTINUOUS
 62
     2
 10
1128.523209779
 20
291.865817444
 30
0.0
 42
0.021820078
  0
VERTEX
  8
0
  6
CONTINUOUS
 62
     2
 10
1128.328601801
 20
291.891438071
 30
0.0
 42
0.021820078
  0
VERTEX
  8
0
  6
CONTINUOUS
 62
     2
 10
1128.132501379
 20
291.9
 30
0.0
 42
0.021820078
  0
VERTEX
  8
0
  6
CONTINUOUS
 62
     2
 10
1127.936400958
 20
291.891438071
 30
0.0
 42
0.021820078
  0
VERTEX
  8
0
  6
CONTINUOUS
 62
     2
 10
1127.74179298
 20
291.865817444
 30
0.0
 42
0.021820078
  0
VERTEX
  8
0
  6
CONTINUOUS
 62
     2
 10
1127.550158528
 20
291.823333109
 30
0.0
 42
0.021820078
  0
VERTEX
  8
0
  6
CONTINUOUS
 62
     2
 10
1127.362956057
 20
291.764308397
 30
0.0
 42
0.021820078
  0
VERTEX
  8
0
  6
CONTINUOUS
 62
     2
 10
1127.18161029
 20
291.689192521
 30
0.0
 42
0.021820078
  0
VERTEX
  8
0
  6
CONTINUOUS
 62
     2
 10
1127.007501379
 20
291.598557159
 30
0.0
 42
0.021820078
  0
VERTEX
  8
0
  6
CONTINUOUS
 62
     2
 10
1126.841954398
 20
291.4930921
 30
0.0
 42
0.021820078
  0
VERTEX
  8
0
  6
CONTINUOUS
 62
     2
 10
1126.686229258
 20
291.373599997
 30
0.0
 42
0.021820078
  0
VERTEX
  8
0
  6
CONTINUOUS
 62
     2
 10
1126.541511122
 20
291.240990258
 30
0.0
 42
0.021820078
  0
VERTEX
  8
0
  6
CONTINUOUS
 62
     2
 10
1126.408901382
 20
291.096272122
 30
0.0
 42
0.021820078
  0
VERTEX
  8
0
  6
CONTINUOUS
 62
     2
 10
1126.28940928
 20
290.940546982
 30
0.0
 42
0.021820078
  0
VERTEX
  8
0
  6
CONTINUOUS
 62
     2
 10
1126.183944221
 20
290.775
 30
0.0
 42
0.021820078
  0
VERTEX
  8
0
  6
CONTINUOUS
 62
     2
 10
1126.093308859
 20
290.600891089
 30
0.0
 42
0.021820078
  0
VERTEX
  8
0
  6
CONTINUOUS
 62
     2
 10
1126.018192983
 20
290.419545322
 30
0.0
 42
0.021820078
  0
VERTEX
  8
0
  6
CONTINUOUS
 62
     2
 10
1125.95916827
 20
290.232342851
 30
0.0
 42
0.021820078
  0
VERTEX
  8
0
  6
CONTINUOUS
 62
     2
 10
1125.916683935
 20
290.0407084
 30
0.0
 42
0.021820078
  0
VERTEX
  8
0
  6
CONTINUOUS
 62
     2
 10
1125.891063309
 20
289.846100421
 30
0.0
 42
0.021820078
  0
VERTEX
  8
0
  6
CONTINUOUS
 62
     2
 10
1125.882501379
 20
289.65
 30
0.0
 42
0.021820078
  0
VERTEX
  8
0
  6
CONTINUOUS
 62
     2
 10
1125.891063309
 20
289.453899579
 30
0.0
 42
0.021820078
  0
VERTEX
  8
0
  6
CONTINUOUS
 62
     2
 10
1125.916683935
 20
289.2592916
 30
0.0
 42
0.021820078
  0
VERTEX
  8
0
  6
CONTINUOUS
 62
     2
 10
1125.95916827
 20
289.067657149
 30
0.0
 42
0.021820078
  0
VERTEX
  8
0
  6
CONTINUOUS
 62
     2
 10
1126.018192983
 20
288.880454678
 30
0.0
 42
0.021820078
  0
VERTEX
  8
0
  6
CONTINUOUS
 62
     2
 10
1126.093308859
 20
288.699108911
 30
0.0
 42
0.021820078
  0
VERTEX
  8
0
  6
CONTINUOUS
 62
     2
 10
1126.183944221
 20
288.525
 30
0.0
 42
0.021820078
  0
VERTEX
  8
0
  6
CONTINUOUS
 62
     2
 10
1126.28940928
 20
288.359453018
 30
0.0
 42
0.021820078
  0
VERTEX
  8
0
  6
CONTINUOUS
 62
     2
 10
1126.408901382
 20
288.203727878
 30
0.0
 42
0.021820078
  0
VERTEX
  8
0
  6
CONTINUOUS
 62
     2
 10
1126.541511122
 20
288.059009742
 30
0.0
 42
0.021820078
  0
VERTEX
  8
0
  6
CONTINUOUS
 62
     2
 10
1126.686229258
 20
287.926400003
 30
0.0
 42
0.021820078
  0
VERTEX
  8
0
  6
CONTINUOUS
 62
     2
 10
1126.841954398
 20
287.8069079
 30
0.0
 42
0.021820078
  0
VERTEX
  8
0
  6
CONTINUOUS
 62
     2
 10
1127.007501379
 20
287.701442841
 30
0.0
 42
0.021820078
  0
VERTEX
  8
0
  6
CONTINUOUS
 62
     2
 10
1127.18161029
 20
287.610807479
 30
0.0
 42
0.021820078
  0
VERTEX
  8
0
  6
CONTINUOUS
 62
     2
 10
1127.362956057
 20
287.535691603
 30
0.0
 42
0.021820078
  0
VERTEX
  8
0
  6
CONTINUOUS
 62
     2
 10
1127.550158528
 20
287.476666891
 30
0.0
 42
0.021820078
  0
VERTEX
  8
0
  6
CONTINUOUS
 62
     2
 10
1127.74179298
 20
287.434182556
 30
0.0
 42
0.021820078
  0
VERTEX
  8
0
  6
CONTINUOUS
 62
     2
 10
1127.936400958
 20
287.408561929
 30
0.0
 42
0.021820078
  0
VERTEX
  8
0
  6
CONTINUOUS
 62
     2
 10
1128.132501379
 20
287.4
 30
0.0
 42
0.021820078
  0
VERTEX
  8
0
  6
CONTINUOUS
 62
     2
 10
1128.328601801
 20
287.408561929
 30
0.0
 42
0.021820078
  0
VERTEX
  8
0
  6
CONTINUOUS
 62
     2
 10
1128.523209779
 20
287.434182556
 30
0.0
 42
0.021820078
  0
VERTEX
  8
0
  6
CONTINUOUS
 62
     2
 10
1128.714844231
 20
287.476666891
 30
0.0
 42
0.021820078
  0
VERTEX
  8
0
  6
CONTINUOUS
 62
     2
 10
1128.902046702
 20
287.535691603
 30
0.0
 42
0.021820078
  0
VERTEX
  8
0
  6
CONTINUOUS
 62
     2
 10
1129.083392468
 20
287.610807479
 30
0.0
 42
0.021820078
  0
VERTEX
  8
0
  6
CONTINUOUS
 62
     2
 10
1129.257501379
 20
287.701442841
 30
0.0
 42
0.021820078
  0
VERTEX
  8
0
  6
CONTINUOUS
 62
     2
 10
1129.423048361
 20
287.8069079
 30
0.0
 42
0.021820078
  0
VERTEX
  8
0
  6
CONTINUOUS
 62
     2
 10
1129.578773501
 20
287.926400003
 30
0.0
 42
0.021820078
  0
VERTEX
  8
0
  6
CONTINUOUS
 62
     2
 10
1129.723491637
 20
288.059009742
 30
0.0
 42
0.021820078
  0
VERTEX
  8
0
  6
CONTINUOUS
 62
     2
 10
1129.856101376
 20
288.203727878
 30
0.0
 42
0.021820078
  0
VERTEX
  8
0
  6
CONTINUOUS
 62
     2
 10
1129.975593479
 20
288.359453018
 30
0.0
 42
0.021820078
  0
VERTEX
  8
0
  6
CONTINUOUS
 62
     2
 10
1130.081058538
 20
288.525
 30
0.0
 42
0.021820078
  0
VERTEX
  8
0
  6
CONTINUOUS
 62
     2
 10
1130.1716939
 20
288.699108911
 30
0.0
 42
0.021820078
  0
VERTEX
  8
0
  6
CONTINUOUS
 62
     2
 10
1130.246809776
 20
288.880454678
 30
0.0
 42
0.021820078
  0
VERTEX
  8
0
  6
CONTINUOUS
 62
     2
 10
1130.305834489
 20
289.067657149
 30
0.0
 42
0.021820078
  0
VERTEX
  8
0
  6
CONTINUOUS
 62
     2
 10
1130.348318824
 20
289.2592916
 30
0.0
 42
0.021820078
  0
VERTEX
  8
0
  6
CONTINUOUS
 62
     2
 10
1130.37393945
 20
289.453899579
 30
0.0
 42
0.021820078
  0
SEQEND
  8
0
  6
CONTINUOUS
 62
     2
  0
POLYLINE
  8
0
  6
CONTINUOUS
 62
     2
 66
     1
 70
     1
  0
VERTEX
  8
0
  6
CONTINUOUS
 62
     2
 10
1115.382501379
 20
245.3
 30
0.0
 42
-0.021820078
  0
VERTEX
  8
0
  6
CONTINUOUS
 62
     2
 10
1115.37393945
 20
245.103899579
 30
0.0
 42
-0.021820078
  0
VERTEX
  8
0
  6
CONTINUOUS
 62
     2
 10
1115.348318824
 20
244.9092916
 30
0.0
 42
-0.021820078
  0
VERTEX
  8
0
  6
CONTINUOUS
 62
     2
 10
1115.305834489
 20
244.717657149
 30
0.0
 42
-0.021820078
  0
VERTEX
  8
0
  6
CONTINUOUS
 62
     2
 10
1115.246809776
 20
244.530454678
 30
0.0
 42
-0.021820078
  0
VERTEX
  8
0
  6
CONTINUOUS
 62
     2
 10
1115.1716939
 20
244.349108911
 30
0.0
 42
-0.021820078
  0
VERTEX
  8
0
  6
CONTINUOUS
 62
     2
 10
1115.081058538
 20
244.175
 30
0.0
 42
-0.021820078
  0
VERTEX
  8
0
  6
CONTINUOUS
 62
     2
 10
1114.975593479
 20
244.009453018
 30
0.0
 42
-0.021820078
  0
VERTEX
  8
0
  6
CONTINUOUS
 62
     2
 10
1114.856101376
 20
243.853727878
 30
0.0
 42
-0.021820078
  0
VERTEX
  8
0
  6
CONTINUOUS
 62
     2
 10
1114.723491637
 20
243.709009742
 30
0.0
 42
-0.021820078
  0
VERTEX
  8
0
  6
CONTINUOUS
 62
     2
 10
1114.578773501
 20
243.576400003
 30
0.0
 42
-0.021820078
  0
VERTEX
  8
0
  6
CONTINUOUS
 62
     2
 10
1114.423048361
 20
243.4569079
 30
0.0
 42
-0.021820078
  0
VERTEX
  8
0
  6
CONTINUOUS
 62
     2
 10
1114.257501379
 20
243.351442841
 30
0.0
 42
-0.021820078
  0
VERTEX
  8
0
  6
CONTINUOUS
 62
     2
 10
1114.083392468
 20
243.260807479
 30
0.0
 42
-0.021820078
  0
VERTEX
  8
0
  6
CONTINUOUS
 62
     2
 10
1113.902046702
 20
243.185691603
 30
0.0
 42
-0.021820078
  0
VERTEX
  8
0
  6
CONTINUOUS
 62
     2
 10
1113.714844231
 20
243.126666891
 30
0.0
 42
-0.021820078
  0
VERTEX
  8
0
  6
CONTINUOUS
 62
     2
 10
1113.523209779
 20
243.084182556
 30
0.0
 42
-0.021820078
  0
VERTEX
  8
0
  6
CONTINUOUS
 62
     2
 10
1113.328601801
 20
243.058561929
 30
0.0
 42
-0.021820078
  0
VERTEX
  8
0
  6
CONTINUOUS
 62
     2
 10
1113.132501379
 20
243.05
 30
0.0
 42
-0.021820078
  0
VERTEX
  8
0
  6
CONTINUOUS
 62
     2
 10
1112.936400958
 20
243.058561929
 30
0.0
 42
-0.021820078
  0
VERTEX
  8
0
  6
CONTINUOUS
 62
     2
 10
1112.74179298
 20
243.084182556
 30
0.0
 42
-0.021820078
  0
VERTEX
  8
0
  6
CONTINUOUS
 62
     2
 10
1112.550158528
 20
243.126666891
 30
0.0
 42
-0.021820078
  0
VERTEX
  8
0
  6
CONTINUOUS
 62
     2
 10
1112.362956057
 20
243.185691603
 30
0.0
 42
-0.021820078
  0
VERTEX
  8
0
  6
CONTINUOUS
 62
     2
 10
1112.18161029
 20
243.260807479
 30
0.0
 42
-0.021820078
  0
VERTEX
  8
0
  6
CONTINUOUS
 62
     2
 10
1112.007501379
 20
243.351442841
 30
0.0
 42
-0.021820078
  0
VERTEX
  8
0
  6
CONTINUOUS
 62
     2
 10
1111.841954398
 20
243.4569079
 30
0.0
 42
-0.021820078
  0
VERTEX
  8
0
  6
CONTINUOUS
 62
     2
 10
1111.686229258
 20
243.576400003
 30
0.0
 42
-0.021820078
  0
VERTEX
  8
0
  6
CONTINUOUS
 62
     2
 10
1111.541511122
 20
243.709009742
 30
0.0
 42
-0.021820078
  0
VERTEX
  8
0
  6
CONTINUOUS
 62
     2
 10
1111.408901382
 20
243.853727878
 30
0.0
 42
-0.021820078
  0
VERTEX
  8
0
  6
CONTINUOUS
 62
     2
 10
1111.28940928
 20
244.009453018
 30
0.0
 42
-0.021820078
  0
VERTEX
  8
0
  6
CONTINUOUS
 62
     2
 10
1111.183944221
 20
244.175
 30
0.0
 42
-0.021820078
  0
VERTEX
  8
0
  6
CONTINUOUS
 62
     2
 10
1111.093308859
 20
244.349108911
 30
0.0
 42
-0.021820078
  0
VERTEX
  8
0
  6
CONTINUOUS
 62
     2
 10
1111.018192983
 20
244.530454678
 30
0.0
 42
-0.021820078
  0
VERTEX
  8
0
  6
CONTINUOUS
 62
     2
 10
1110.95916827
 20
244.717657149
 30
0.0
 42
-0.021820078
  0
VERTEX
  8
0
  6
CONTINUOUS
 62
     2
 10
1110.916683935
 20
244.9092916
 30
0.0
 42
-0.021820078
  0
VERTEX
  8
0
  6
CONTINUOUS
 62
     2
 10
1110.891063309
 20
245.103899579
 30
0.0
 42
-0.021820078
  0
VERTEX
  8
0
  6
CONTINUOUS
 62
     2
 10
1110.882501379
 20
245.3
 30
0.0
 42
-0.021820078
  0
VERTEX
  8
0
  6
CONTINUOUS
 62
     2
 10
1110.891063309
 20
245.496100421
 30
0.0
 42
-0.021820078
  0
VERTEX
  8
0
  6
CONTINUOUS
 62
     2
 10
1110.916683935
 20
245.6907084
 30
0.0
 42
-0.021820078
  0
VERTEX
  8
0
  6
CONTINUOUS
 62
     2
 10
1110.95916827
 20
245.882342851
 30
0.0
 42
-0.021820078
  0
VERTEX
  8
0
  6
CONTINUOUS
 62
     2
 10
1111.018192983
 20
246.069545322
 30
0.0
 42
-0.021820078
  0
VERTEX
  8
0
  6
CONTINUOUS
 62
     2
 10
1111.093308859
 20
246.250891089
 30
0.0
 42
-0.021820078
  0
VERTEX
  8
0
  6
CONTINUOUS
 62
     2
 10
1111.183944221
 20
246.425
 30
0.0
 42
-0.021820078
  0
VERTEX
  8
0
  6
CONTINUOUS
 62
     2
 10
1111.28940928
 20
246.590546982
 30
0.0
 42
-0.021820078
  0
VERTEX
  8
0
  6
CONTINUOUS
 62
     2
 10
1111.408901382
 20
246.746272122
 30
0.0
 42
-0.021820078
  0
VERTEX
  8
0
  6
CONTINUOUS
 62
     2
 10
1111.541511122
 20
246.890990258
 30
0.0
 42
-0.021820078
  0
VERTEX
  8
0
  6
CONTINUOUS
 62
     2
 10
1111.686229258
 20
247.023599997
 30
0.0
 42
-0.021820078
  0
VERTEX
  8
0
  6
CONTINUOUS
 62
     2
 10
1111.841954398
 20
247.1430921
 30
0.0
 42
-0.021820078
  0
VERTEX
  8
0
  6
CONTINUOUS
 62
     2
 10
1112.007501379
 20
247.248557159
 30
0.0
 42
-0.021820078
  0
VERTEX
  8
0
  6
CONTINUOUS
 62
     2
 10
1112.18161029
 20
247.339192521
 30
0.0
 42
-0.021820078
  0
VERTEX
  8
0
  6
CONTINUOUS
 62
     2
 10
1112.362956057
 20
247.414308397
 30
0.0
 42
-0.021820078
  0
VERTEX
  8
0
  6
CONTINUOUS
 62
     2
 10
1112.550158528
 20
247.473333109
 30
0.0
 42
-0.021820078
  0
VERTEX
  8
0
  6
CONTINUOUS
 62
     2
 10
1112.74179298
 20
247.515817444
 30
0.0
 42
-0.021820078
  0
VERTEX
  8
0
  6
CONTINUOUS
 62
     2
 10
1112.936400958
 20
247.541438071
 30
0.0
 42
-0.021820078
  0
VERTEX
  8
0
  6
CONTINUOUS
 62
     2
 10
1113.132501379
 20
247.55
 30
0.0
 42
-0.021820078
  0
VERTEX
  8
0
  6
CONTINUOUS
 62
     2
 10
1113.328601801
 20
247.541438071
 30
0.0
 42
-0.021820078
  0
VERTEX
  8
0
  6
CONTINUOUS
 62
     2
 10
1113.523209779
 20
247.515817444
 30
0.0
 42
-0.021820078
  0
VERTEX
  8
0
  6
CONTINUOUS
 62
     2
 10
1113.714844231
 20
247.473333109
 30
0.0
 42
-0.021820078
  0
VERTEX
  8
0
  6
CONTINUOUS
 62
     2
 10
1113.902046702
 20
247.414308397
 30
0.0
 42
-0.021820078
  0
VERTEX
  8
0
  6
CONTINUOUS
 62
     2
 10
1114.083392468
 20
247.339192521
 30
0.0
 42
-0.021820078
  0
VERTEX
  8
0
  6
CONTINUOUS
 62
     2
 10
1114.257501379
 20
247.248557159
 30
0.0
 42
-0.021820078
  0
VERTEX
  8
0
  6
CONTINUOUS
 62
     2
 10
1114.423048361
 20
247.1430921
 30
0.0
 42
-0.021820078
  0
VERTEX
  8
0
  6
CONTINUOUS
 62
     2
 10
1114.578773501
 20
247.023599997
 30
0.0
 42
-0.021820078
  0
VERTEX
  8
0
  6
CONTINUOUS
 62
     2
 10
1114.723491637
 20
246.890990258
 30
0.0
 42
-0.021820078
  0
VERTEX
  8
0
  6
CONTINUOUS
 62
     2
 10
1114.856101376
 20
246.746272122
 30
0.0
 42
-0.021820078
  0
VERTEX
  8
0
  6
CONTINUOUS
 62
     2
 10
1114.975593479
 20
246.590546982
 30
0.0
 42
-0.021820078
  0
VERTEX
  8
0
  6
CONTINUOUS
 62
     2
 10
1115.081058538
 20
246.425
 30
0.0
 42
-0.021820078
  0
VERTEX
  8
0
  6
CONTINUOUS
 62
     2
 10
1115.1716939
 20
246.250891089
 30
0.0
 42
-0.021820078
  0
VERTEX
  8
0
  6
CONTINUOUS
 62
     2
 10
1115.246809776
 20
246.069545322
 30
0.0
 42
-0.021820078
  0
VERTEX
  8
0
  6
CONTINUOUS
 62
     2
 10
1115.305834489
 20
245.882342851
 30
0.0
 42
-0.021820078
  0
VERTEX
  8
0
  6
CONTINUOUS
 62
     2
 10
1115.348318824
 20
245.6907084
 30
0.0
 42
-0.021820078
  0
VERTEX
  8
0
  6
CONTINUOUS
 62
     2
 10
1115.37393945
 20
245.496100421
 30
0.0
 42
-0.021820078
  0
SEQEND
  8
0
  6
CONTINUOUS
 62
     2
  0
POLYLINE
  8
0
  6
CONTINUOUS
 62
     2
 66
     1
 70
     1
  0
VERTEX
  8
0
  6
CONTINUOUS
 62
     2
 10
1130.382501379
 20
245.3
 30
0.0
 42
-0.021820078
  0
VERTEX
  8
0
  6
CONTINUOUS
 62
     2
 10
1130.37393945
 20
245.103899579
 30
0.0
 42
-0.021820078
  0
VERTEX
  8
0
  6
CONTINUOUS
 62
     2
 10
1130.348318824
 20
244.9092916
 30
0.0
 42
-0.021820078
  0
VERTEX
  8
0
  6
CONTINUOUS
 62
     2
 10
1130.305834489
 20
244.717657149
 30
0.0
 42
-0.021820078
  0
VERTEX
  8
0
  6
CONTINUOUS
 62
     2
 10
1130.246809776
 20
244.530454678
 30
0.0
 42
-0.021820078
  0
VERTEX
  8
0
  6
CONTINUOUS
 62
     2
 10
1130.1716939
 20
244.349108911
 30
0.0
 42
-0.021820078
  0
VERTEX
  8
0
  6
CONTINUOUS
 62
     2
 10
1130.081058538
 20
244.175
 30
0.0
 42
-0.021820078
  0
VERTEX
  8
0
  6
CONTINUOUS
 62
     2
 10
1129.975593479
 20
244.009453018
 30
0.0
 42
-0.021820078
  0
VERTEX
  8
0
  6
CONTINUOUS
 62
     2
 10
1129.856101376
 20
243.853727878
 30
0.0
 42
-0.021820078
  0
VERTEX
  8
0
  6
CONTINUOUS
 62
     2
 10
1129.723491637
 20
243.709009742
 30
0.0
 42
-0.021820078
  0
VERTEX
  8
0
  6
CONTINUOUS
 62
     2
 10
1129.578773501
 20
243.576400003
 30
0.0
 42
-0.021820078
  0
VERTEX
  8
0
  6
CONTINUOUS
 62
     2
 10
1129.423048361
 20
243.4569079
 30
0.0
 42
-0.021820078
  0
VERTEX
  8
0
  6
CONTINUOUS
 62
     2
 10
1129.257501379
 20
243.351442841
 30
0.0
 42
-0.021820078
  0
VERTEX
  8
0
  6
CONTINUOUS
 62
     2
 10
1129.083392468
 20
243.260807479
 30
0.0
 42
-0.021820078
  0
VERTEX
  8
0
  6
CONTINUOUS
 62
     2
 10
1128.902046702
 20
243.185691603
 30
0.0
 42
-0.021820078
  0
VERTEX
  8
0
  6
CONTINUOUS
 62
     2
 10
1128.714844231
 20
243.126666891
 30
0.0
 42
-0.021820078
  0
VERTEX
  8
0
  6
CONTINUOUS
 62
     2
 10
1128.523209779
 20
243.084182556
 30
0.0
 42
-0.021820078
  0
VERTEX
  8
0
  6
CONTINUOUS
 62
     2
 10
1128.328601801
 20
243.058561929
 30
0.0
 42
-0.021820078
  0
VERTEX
  8
0
  6
CONTINUOUS
 62
     2
 10
1128.132501379
 20
243.05
 30
0.0
 42
-0.021820078
  0
VERTEX
  8
0
  6
CONTINUOUS
 62
     2
 10
1127.936400958
 20
243.058561929
 30
0.0
 42
-0.021820078
  0
VERTEX
  8
0
  6
CONTINUOUS
 62
     2
 10
1127.74179298
 20
243.084182556
 30
0.0
 42
-0.021820078
  0
VERTEX
  8
0
  6
CONTINUOUS
 62
     2
 10
1127.550158528
 20
243.126666891
 30
0.0
 42
-0.021820078
  0
VERTEX
  8
0
  6
CONTINUOUS
 62
     2
 10
1127.362956057
 20
243.185691603
 30
0.0
 42
-0.021820078
  0
VERTEX
  8
0
  6
CONTINUOUS
 62
     2
 10
1127.18161029
 20
243.260807479
 30
0.0
 42
-0.021820078
  0
VERTEX
  8
0
  6
CONTINUOUS
 62
     2
 10
1127.007501379
 20
243.351442841
 30
0.0
 42
-0.021820078
  0
VERTEX
  8
0
  6
CONTINUOUS
 62
     2
 10
1126.841954398
 20
243.4569079
 30
0.0
 42
-0.021820078
  0
VERTEX
  8
0
  6
CONTINUOUS
 62
     2
 10
1126.686229258
 20
243.576400003
 30
0.0
 42
-0.021820078
  0
VERTEX
  8
0
  6
CONTINUOUS
 62
     2
 10
1126.541511122
 20
243.709009742
 30
0.0
 42
-0.021820078
  0
VERTEX
  8
0
  6
CONTINUOUS
 62
     2
 10
1126.408901382
 20
243.853727878
 30
0.0
 42
-0.021820078
  0
VERTEX
  8
0
  6
CONTINUOUS
 62
     2
 10
1126.28940928
 20
244.009453018
 30
0.0
 42
-0.021820078
  0
VERTEX
  8
0
  6
CONTINUOUS
 62
     2
 10
1126.183944221
 20
244.175
 30
0.0
 42
-0.021820078
  0
VERTEX
  8
0
  6
CONTINUOUS
 62
     2
 10
1126.093308859
 20
244.349108911
 30
0.0
 42
-0.021820078
  0
VERTEX
  8
0
  6
CONTINUOUS
 62
     2
 10
1126.018192983
 20
244.530454678
 30
0.0
 42
-0.021820078
  0
VERTEX
  8
0
  6
CONTINUOUS
 62
     2
 10
1125.95916827
 20
244.717657149
 30
0.0
 42
-0.021820078
  0
VERTEX
  8
0
  6
CONTINUOUS
 62
     2
 10
1125.916683935
 20
244.9092916
 30
0.0
 42
-0.021820078
  0
VERTEX
  8
0
  6
CONTINUOUS
 62
     2
 10
1125.891063309
 20
245.103899579
 30
0.0
 42
-0.021820078
  0
VERTEX
  8
0
  6
CONTINUOUS
 62
     2
 10
1125.882501379
 20
245.3
 30
0.0
 42
-0.021820078
  0
VERTEX
  8
0
  6
CONTINUOUS
 62
     2
 10
1125.891063309
 20
245.496100421
 30
0.0
 42
-0.021820078
  0
VERTEX
  8
0
  6
CONTINUOUS
 62
     2
 10
1125.916683935
 20
245.6907084
 30
0.0
 42
-0.021820078
  0
VERTEX
  8
0
  6
CONTINUOUS
 62
     2
 10
1125.95916827
 20
245.882342851
 30
0.0
 42
-0.021820078
  0
VERTEX
  8
0
  6
CONTINUOUS
 62
     2
 10
1126.018192983
 20
246.069545322
 30
0.0
 42
-0.021820078
  0
VERTEX
  8
0
  6
CONTINUOUS
 62
     2
 10
1126.093308859
 20
246.250891089
 30
0.0
 42
-0.021820078
  0
VERTEX
  8
0
  6
CONTINUOUS
 62
     2
 10
1126.183944221
 20
246.425
 30
0.0
 42
-0.021820078
  0
VERTEX
  8
0
  6
CONTINUOUS
 62
     2
 10
1126.28940928
 20
246.590546982
 30
0.0
 42
-0.021820078
  0
VERTEX
  8
0
  6
CONTINUOUS
 62
     2
 10
1126.408901382
 20
246.746272122
 30
0.0
 42
-0.021820078
  0
VERTEX
  8
0
  6
CONTINUOUS
 62
     2
 10
1126.541511122
 20
246.890990258
 30
0.0
 42
-0.021820078
  0
VERTEX
  8
0
  6
CONTINUOUS
 62
     2
 10
1126.686229258
 20
247.023599997
 30
0.0
 42
-0.021820078
  0
VERTEX
  8
0
  6
CONTINUOUS
 62
     2
 10
1126.841954398
 20
247.1430921
 30
0.0
 42
-0.021820078
  0
VERTEX
  8
0
  6
CONTINUOUS
 62
     2
 10
1127.007501379
 20
247.248557159
 30
0.0
 42
-0.021820078
  0
VERTEX
  8
0
  6
CONTINUOUS
 62
     2
 10
1127.18161029
 20
247.339192521
 30
0.0
 42
-0.021820078
  0
VERTEX
  8
0
  6
CONTINUOUS
 62
     2
 10
1127.362956057
 20
247.414308397
 30
0.0
 42
-0.021820078
  0
VERTEX
  8
0
  6
CONTINUOUS
 62
     2
 10
1127.550158528
 20
247.473333109
 30
0.0
 42
-0.021820078
  0
VERTEX
  8
0
  6
CONTINUOUS
 62
     2
 10
1127.74179298
 20
247.515817444
 30
0.0
 42
-0.021820078
  0
VERTEX
  8
0
  6
CONTINUOUS
 62
     2
 10
1127.936400958
 20
247.541438071
 30
0.0
 42
-0.021820078
  0
VERTEX
  8
0
  6
CONTINUOUS
 62
     2
 10
1128.132501379
 20
247.55
 30
0.0
 42
-0.021820078
  0
VERTEX
  8
0
  6
CONTINUOUS
 62
     2
 10
1128.328601801
 20
247.541438071
 30
0.0
 42
-0.021820078
  0
VERTEX
  8
0
  6
CONTINUOUS
 62
     2
 10
1128.523209779
 20
247.515817444
 30
0.0
 42
-0.021820078
  0
VERTEX
  8
0
  6
CONTINUOUS
 62
     2
 10
1128.714844231
 20
247.473333109
 30
0.0
 42
-0.021820078
  0
VERTEX
  8
0
  6
CONTINUOUS
 62
     2
 10
1128.902046702
 20
247.414308397
 30
0.0
 42
-0.021820078
  0
VERTEX
  8
0
  6
CONTINUOUS
 62
     2
 10
1129.083392468
 20
247.339192521
 30
0.0
 42
-0.021820078
  0
VERTEX
  8
0
  6
CONTINUOUS
 62
     2
 10
1129.257501379
 20
247.248557159
 30
0.0
 42
-0.021820078
  0
VERTEX
  8
0
  6
CONTINUOUS
 62
     2
 10
1129.423048361
 20
247.1430921
 30
0.0
 42
-0.021820078
  0
VERTEX
  8
0
  6
CONTINUOUS
 62
     2
 10
1129.578773501
 20
247.023599997
 30
0.0
 42
-0.021820078
  0
VERTEX
  8
0
  6
CONTINUOUS
 62
     2
 10
1129.723491637
 20
246.890990258
 30
0.0
 42
-0.021820078
  0
VERTEX
  8
0
  6
CONTINUOUS
 62
     2
 10
1129.856101376
 20
246.746272122
 30
0.0
 42
-0.021820078
  0
VERTEX
  8
0
  6
CONTINUOUS
 62
     2
 10
1129.975593479
 20
246.590546982
 30
0.0
 42
-0.021820078
  0
VERTEX
  8
0
  6
CONTINUOUS
 62
     2
 10
1130.081058538
 20
246.425
 30
0.0
 42
-0.021820078
  0
VERTEX
  8
0
  6
CONTINUOUS
 62
     2
 10
1130.1716939
 20
246.250891089
 30
0.0
 42
-0.021820078
  0
VERTEX
  8
0
  6
CONTINUOUS
 62
     2
 10
1130.246809776
 20
246.069545322
 30
0.0
 42
-0.021820078
  0
VERTEX
  8
0
  6
CONTINUOUS
 62
     2
 10
1130.305834489
 20
245.882342851
 30
0.0
 42
-0.021820078
  0
VERTEX
  8
0
  6
CONTINUOUS
 62
     2
 10
1130.348318824
 20
245.6907084
 30
0.0
 42
-0.021820078
  0
VERTEX
  8
0
  6
CONTINUOUS
 62
     2
 10
1130.37393945
 20
245.496100421
 30
0.0
 42
-0.021820078
  0
SEQEND
  8
0
  6
CONTINUOUS
 62
     2
  0
TEXT
  8
0
  6
CONTINUOUS
 62
     2
 10
1104.382501379
 20
234.9
 30
0.0
 40
10.0
  1
１
 50
0.0
 41
0.85
 51
0.0
  7
KANJI36
  0
TEXT
  8
0
  6
CONTINUOUS
 62
     2
 10
1129.382501379
 20
234.9
 30
0.0
 40
10.0
  1
２
 50
0.0
 41
0.85
 51
0.0
  7
KANJI36
  0
TEXT
  8
0
  6
CONTINUOUS
 62
     2
 10
1072.482501379
 20
289.6
 30
0.0
 40
10.0
  1
（ＮＯ）
 50
0.0
 41
0.75
 51
0.0
  7
KANJI37
  0
TEXT
  8
0
  6
CONTINUOUS
 62
     2
 10
1138.482501379
 20
289.6
 30
0.0
 40
10.0
  1
（ＮＯ）
 50
0.0
 41
0.75
 51
0.0
  7
KANJI37
  0
TEXT
  8
0
  6
CONTINUOUS
 62
     2
 10
1072.482501379
 20
232.1
 30
0.0
 40
10.0
  1
（ＮＣ）
 50
0.0
 41
0.75
 51
0.0
  7
KANJI37
  0
TEXT
  8
0
  6
CONTINUOUS
 62
     2
 10
1138.482501379
 20
232.1
 30
0.0
 40
10.0
  1
（ＮＣ）
 50
0.0
 41
0.75
 51
0.0
  7
KANJI37
  0
TEXT
  8
0
  6
CONTINUOUS
 62
     2
 10
1056.357501379
 20
203.1
 30
0.0
 40
15.0
  1
外部ＬＳリミットＳＷ
 50
0.0
 41
0.9
 51
0.0
  7
KANJI34
  0
TEXT
  8
0
  6
CONTINUOUS
 62
     2
 10
1093.607501379
 20
184.1
 30
0.0
 40
15.0
  1
端子符号
 50
0.0
 41
0.9
 51
0.0
  7
KANJI34
  0
LINE
  8
0
  6
CONTINUOUS
 62
     2
 10
1198.107501379
 20
190.6
 30
0.0
 11
1198.107501379
 21
360.35
 31
0.0
  0
LINE
  8
0
  6
CONTINUOUS
 62
     2
 10
1198.107501379
 20
360.35
 30
0.0
 11
1044.857501379
 21
360.35
 31
0.0
  0
LINE
  8
0
  6
CONTINUOUS
 62
     2
 10
1044.857501379
 20
360.35
 30
0.0
 11
1044.857501379
 21
190.6
 31
0.0
  0
LINE
  8
0
  6
CONTINUOUS
 62
     2
 10
1153.107501379
 20
190.6
 30
0.0
 11
1198.107501379
 21
190.6
 31
0.0
  0
LINE
  8
0
  6
CONTINUOUS
 62
     2
 10
1044.857501379
 20
190.6
 30
0.0
 11
1083.857501379
 21
190.6
 31
0.0
  0
ARC
  8
0
  6
CONTINUOUS
 62
     1
 10
1003.437032801
 20
220.6
 30
0.0
 40
6.845203412
 50
324.242860688
 51
35.757139312
  0
ARC
  8
0
  6
CONTINUOUS
 62
     1
 10
1014.546814032
 20
220.6
 30
0.0
 40
6.845203412
 50
144.242860688
 51
215.757139312
  0
ARC
  8
0
  6
CONTINUOUS
 62
     1
 10
1014.546814032
 20
212.6
 30
0.0
 40
6.845203412
 50
144.242860688
 51
215.757139312
  0
LINE
  8
0
  6
LTYPE2
 62
     2
 10
961.682501379
 20
206.6
 30
0.0
 11
961.682501379
 21
226.6
 31
0.0
  0
CIRCLE
  8
0
  6
CONTINUOUS
 62
     2
 10
961.682501379
 20
216.6
 30
0.0
 40
5.0
  0
CIRCLE
  8
0
  6
CONTINUOUS
 62
     2
 10
961.682501379
 20
216.6
 30
0.0
 40
4.0
  0
LINE
  8
0
  6
CONTINUOUS
 62
     2
 10
1091.0
 20
431.3625
 30
0.0
 11
1078.925927171
 21
434.597738064
 31
0.0
  0
LINE
  8
0
  6
CONTINUOUS
 62
     2
 10
1091.0
 20
431.3625
 30
0.0
 11
1078.925927171
 21
428.127261936
 31
0.0
  0
LINE
  8
0
  6
CONTINUOUS
 62
     2
 10
986.0
 20
474.7
 30
0.0
 11
973.925927171
 21
477.935238064
 31
0.0
  0
LINE
  8
0
  6
CONTINUOUS
 62
     2
 10
986.0
 20
474.7
 30
0.0
 11
973.925927171
 21
471.464761936
 31
0.0
  0
LINE
  8
0
  6
CONTINUOUS
 62
     2
 10
986.0
 20
474.7
 30
0.0
 11
998.074072829
 21
471.464761936
 31
0.0
  0
LINE
  8
0
  6
CONTINUOUS
 62
     2
 10
986.0
 20
474.7
 30
0.0
 11
998.074072829
 21
477.935238064
 31
0.0
  0
LINE
  8
0
  6
CONTINUOUS
 62
     2
 10
986.0
 20
474.7
 30
0.0
 11
1041.0
 21
474.7
 31
0.0
  0
LINE
  8
0
  6
CONTINUOUS
 62
     2
 10
1041.0
 20
474.7
 30
0.0
 11
1028.925927171
 21
477.935238064
 31
0.0
  0
LINE
  8
0
  6
CONTINUOUS
 62
     2
 10
1041.0
 20
474.7
 30
0.0
 11
1028.925927171
 21
471.464761936
 31
0.0
  0
LINE
  8
0
  6
CONTINUOUS
 62
     2
 10
1041.0
 20
597.0
 30
0.0
 11
1041.0
 21
467.2
 31
0.0
  0
LINE
  8
0
  6
CONTINUOUS
 62
     2
 10
1041.0
 20
474.7
 30
0.0
 11
1053.074072829
 21
471.464761936
 31
0.0
  0
LINE
  8
0
  6
CONTINUOUS
 62
     2
 10
1041.0
 20
474.7
 30
0.0
 11
1053.074072829
 21
477.935238064
 31
0.0
  0
LINE
  8
0
  6
CONTINUOUS
 62
     2
 10
1041.0
 20
474.7
 30
0.0
 11
1091.0
 21
474.7
 31
0.0
  0
LINE
  8
0
  6
CONTINUOUS
 62
     2
 10
1091.0
 20
474.7
 30
0.0
 11
1078.925927171
 21
477.935238064
 31
0.0
  0
LINE
  8
0
  6
CONTINUOUS
 62
     2
 10
1091.0
 20
474.7
 30
0.0
 11
1078.925927171
 21
471.464761936
 31
0.0
  0
LINE
  8
0
  6
CONTINUOUS
 62
     1
 10
1041.0
 20
518.5
 30
0.0
 11
1041.0
 21
688.5
 31
0.0
  0
LINE
  8
0
  6
CONTINUOUS
 62
     1
 10
1025.0
 20
518.5
 30
0.0
 11
1041.0
 21
518.5
 31
0.0
  0
LINE
  8
0
  6
CONTINUOUS
 62
     1
 10
1025.0
 20
518.5
 30
0.0
 11
1025.0
 21
701.5
 31
0.0
  0
LINE
  8
0
  6
CONTINUOUS
 62
     1
 10
1041.0
 20
531.5
 30
0.0
 11
1041.0
 21
538.99406
 31
0.0
  0
LINE
  8
0
  6
CONTINUOUS
 62
     1
 10
1041.0
 20
531.5
 30
0.0
 11
1041.0
 21
524.00594
 31
0.0
  0
LINE
  8
0
  6
CONTINUOUS
 62
     1
 10
1046.4999
 20
537.15878
 30
0.0
 11
1045.440300598
 21
538.99406
 31
0.0
  0
LINE
  8
0
  6
CONTINUOUS
 62
     1
 10
1046.4999
 20
531.5
 30
0.0
 11
1046.4999
 21
537.15878
 31
0.0
  0
LINE
  8
0
  6
CONTINUOUS
 62
     1
 10
1046.4999
 20
525.84122
 30
0.0
 11
1045.440300598
 21
524.00594
 31
0.0
  0
LINE
  8
0
  6
CONTINUOUS
 62
     1
 10
1046.4999
 20
531.5
 30
0.0
 11
1046.4999
 21
525.84122
 31
0.0
  0
ARC
  8
0
  6
CONTINUOUS
 62
     1
 10
1039.344844663
 20
531.5
 30
0.0
 40
7.155055337
 50
328.419912243
 51
31.580087757
  0
ARC
  8
0
  6
CONTINUOUS
 62
     1
 10
1044.314476233
 20
537.120545
 30
0.0
 40
2.185758211
 50
301.002313915
 51
2.989498403
  0
LINE
  8
0
  6
CONTINUOUS
 62
     1
 10
1046.4999
 20
525.84122
 30
0.0
 11
1045.440300598
 21
524.00594
 31
0.0
  0
ARC
  8
0
  6
CONTINUOUS
 62
     1
 10
1044.314476233
 20
525.879455
 30
0.0
 40
2.185758211
 50
357.010501597
 51
58.997686085
  0
LINE
  8
0
  6
CONTINUOUS
 62
     1
 10
1041.0
 20
538.99406
 30
0.0
 11
1045.440300598
 21
538.99406
 31
0.0
  0
LINE
  8
0
  6
CONTINUOUS
 62
     1
 10
1041.0
 20
535.24703
 30
0.0
 11
1045.440300598
 21
535.24703
 31
0.0
  0
LINE
  8
0
  6
CONTINUOUS
 62
     1
 10
1041.0
 20
527.75297
 30
0.0
 11
1045.440300598
 21
527.75297
 31
0.0
  0
LINE
  8
0
  6
CONTINUOUS
 62
     1
 10
1041.0
 20
524.00594
 30
0.0
 11
1045.440300598
 21
524.00594
 31
0.0
  0
LINE
  8
0
  6
CONTINUOUS
 62
     1
 10
1046.4999
 20
527.5
 30
0.0
 11
1051.4999
 21
527.5
 31
0.0
  0
LINE
  8
0
  6
CONTINUOUS
 62
     1
 10
1046.4999
 20
535.5
 30
0.0
 11
1051.4999
 21
535.5
 31
0.0
  0
LINE
  8
0
  6
CONTINUOUS
 62
     1
 10
1051.4999
 20
527.5
 30
0.0
 11
1051.4999
 21
535.5
 31
0.0
  0
LINE
  8
0
  6
CONTINUOUS
 62
     2
 10
1046.4999
 20
534.7
 30
0.0
 11
1051.4999
 21
534.7
 31
0.0
  0
LINE
  8
0
  6
CONTINUOUS
 62
     2
 10
1046.4999
 20
528.3
 30
0.0
 11
1051.4999
 21
528.3
 31
0.0
  0
LINE
  8
0
  6
CONTINUOUS
 62
     2
 10
986.0
 20
643.875
 30
0.0
 11
986.0
 21
467.2
 31
0.0
  0
TEXT
  8
0
  6
CONTINUOUS
 62
     2
 10
1051.75
 20
479.7
 30
0.0
 40
18.0
  1
５０
 50
0.0
 41
0.9
 51
0.0
  7
KANJI28
  0
TEXT
  8
0
  6
CONTINUOUS
 62
     2
 10
970.75
 20
449.7
 30
0.0
 40
18.0
  1
ｍｉｎ．Ｐ
 50
0.0
 41
0.9
 51
0.0
  7
KANJI28
  0
LINE
  8
0
  6
CONTINUOUS
 62
     1
 10
1041.0
 20
681.0
 30
0.0
 11
1041.0
 21
656.0
 31
0.0
  0
LINE
  8
0
  6
CONTINUOUS
 62
     1
 10
1041.0
 20
656.0
 30
0.0
 11
1108.0
 21
656.0
 31
0.0
  0
ARC
  8
0
  6
CONTINUOUS
 62
     1
 10
1108.0
 20
664.0
 30
0.0
 40
8.0
 50
270.0
 51
0.0
  0
LINE
  8
0
  6
CONTINUOUS
 62
     1
 10
1041.0
 20
706.0
 30
0.0
 11
1108.0
 21
706.0
 31
0.0
  0
LINE
  8
0
  6
CONTINUOUS
 62
     1
 10
1116.0
 20
664.0
 30
0.0
 11
1116.0
 21
698.0
 31
0.0
  0
ARC
  8
0
  6
CONTINUOUS
 62
     1
 10
1108.0
 20
698.0
 30
0.0
 40
8.0
 50
0.0
 51
90.0
  0
CIRCLE
  8
0
  6
CONTINUOUS
 62
     1
 10
1091.0
 20
681.0
 30
0.0
 40
12.5
  0
CIRCLE
  8
0
  6
CONTINUOUS
 62
     1
 10
1091.0
 20
681.0
 30
0.0
 40
22.0
  0
CIRCLE
  8
0
  6
CONTINUOUS
 62
     1
 10
1091.0
 20
696.5
 30
0.0
 40
3.0
  0
LINE
  8
0
  6
CONTINUOUS
 62
     1
 10
1086.8
 20
664.2
 30
0.0
 11
1088.8
 21
663.9
 31
0.0
  0
LINE
  8
0
  6
CONTINUOUS
 62
     1
 10
1089.3
 20
668.6
 30
0.0
 11
1089.064615385
 21
667.030769231
 31
0.0
  0
LINE
  8
0
  6
CONTINUOUS
 62
     1
 10
1089.064615385
 20
667.030769231
 30
0.0
 11
1086.8
 21
664.2
 31
0.0
  0
LINE
  8
0
  6
CONTINUOUS
 62
     1
 10
1091.0
 20
666.6
 30
0.0
 11
1088.8
 21
663.9
 31
0.0
  0
LINE
  8
0
  6
CONTINUOUS
 62
     1
 10
1095.2
 20
664.2
 30
0.0
 11
1093.2
 21
663.9
 31
0.0
  0
LINE
  8
0
  6
CONTINUOUS
 62
     1
 10
1092.7
 20
668.6
 30
0.0
 11
1092.935384615
 21
667.030769231
 31
0.0
  0
LINE
  8
0
  6
CONTINUOUS
 62
     1
 10
1092.935384615
 20
667.030769231
 30
0.0
 11
1095.2
 21
664.2
 31
0.0
  0
LINE
  8
0
  6
CONTINUOUS
 62
     1
 10
1091.0
 20
666.6
 30
0.0
 11
1093.2
 21
663.9
 31
0.0
  0
LINE
  8
0
  6
LTYPE1
 62
     2
 10
1056.0
 20
656.0
 30
0.0
 11
1056.0
 21
706.0
 31
0.0
  0
LINE
  8
0
  6
CONTINUOUS
 62
     2
 10
1115.5
 20
706.0
 30
0.0
 11
1179.1
 21
706.0
 31
0.0
  0
LINE
  8
0
  6
CONTINUOUS
 62
     2
 10
1171.6
 20
706.0
 30
0.0
 11
1168.364761936
 21
693.925927171
 31
0.0
  0
LINE
  8
0
  6
CONTINUOUS
 62
     2
 10
1171.6
 20
706.0
 30
0.0
 11
1174.835238064
 21
693.925927171
 31
0.0
  0
LINE
  8
0
  6
CONTINUOUS
 62
     2
 10
1171.6
 20
706.0
 30
0.0
 11
1171.6
 21
656.0
 31
0.0
  0
LINE
  8
0
  6
CONTINUOUS
 62
     2
 10
1171.6
 20
656.0
 30
0.0
 11
1174.835238064
 21
668.074072829
 31
0.0
  0
LINE
  8
0
  6
CONTINUOUS
 62
     2
 10
1171.6
 20
656.0
 30
0.0
 11
1168.364761936
 21
668.074072829
 31
0.0
  0
LINE
  8
0
  6
CONTINUOUS
 62
     2
 10
1115.5
 20
656.0
 30
0.0
 11
1179.1
 21
656.0
 31
0.0
  0
LINE
  8
0
  6
CONTINUOUS
 62
     1
 10
1041.0
 20
648.5
 30
0.0
 11
1041.0
 21
706.0
 31
0.0
  0
LINE
  8
0
  6
LTYPE4
 62
     2
 10
1091.0
 20
656.0
 30
0.0
 11
1091.0
 21
713.1
 31
0.0
  0
LINE
  8
0
  6
CONTINUOUS
 62
     2
 10
1098.5
 20
690.6
 30
0.0
 11
1107.413448812
 21
699.363585469
 31
0.0
  0
LINE
  8
0
  6
CONTINUOUS
 62
     2
 10
1098.5
 20
690.6
 30
0.0
 11
1101.837480372
 21
702.64621205
 31
0.0
  0
LINE
  8
0
  6
CONTINUOUS
 62
     2
 10
1098.5
 20
690.6
 30
0.0
 11
1135.0
 21
752.6
 31
0.0
  0
LINE
  8
0
  6
CONTINUOUS
 62
     1
 10
1041.0
 20
668.5
 30
0.0
 11
1041.0
 21
698.5
 31
0.0
  0
LINE
  8
0
  6
CONTINUOUS
 62
     1
 10
1025.0
 20
648.5
 30
0.0
 11
1025.0
 21
719.5
 31
0.0
  0
LINE
  8
0
  6
CONTINUOUS
 62
     1
 10
1025.0
 20
719.5
 30
0.0
 11
1041.0
 21
719.5
 31
0.0
  0
LINE
  8
0
  6
CONTINUOUS
 62
     1
 10
1041.0
 20
681.5
 30
0.0
 11
1041.0
 21
719.5
 31
0.0
  0
LINE
  8
0
  6
CONTINUOUS
 62
     1
 10
1025.0
 20
681.5
 30
0.0
 11
1025.0
 21
714.5
 31
0.0
  0
TEXT
  8
0
  6
CONTINUOUS
 62
     2
 10
1166.6
 20
666.75
 30
0.0
 40
18.0
  1
５０
 50
90.0
 41
0.9
 51
0.0
  7
KANJI28
  0
LINE
  8
0
  6
LTYPE5
 62
     2
 10
986.676112865
 20
721.5
 30
0.0
 11
955.730004728
 21
721.5
 31
0.0
  0
ARC
  8
0
  6
CONTINUOUS
 62
     1
 10
997.78389809
 20
722.5
 30
0.0
 40
1.0
 50
270.0
 51
345.0
  0
ARC
  8
0
  6
CONTINUOUS
 62
     1
 10
997.783897416
 20
722.5
 30
0.0
 40
1.0
 50
195.0
 51
270.0
  0
ARC
  8
0
  6
CONTINUOUS
 62
     1
 10
986.676112865
 20
722.5
 30
0.0
 40
1.0
 50
270.0
 51
345.0
  0
LINE
  8
0
  6
CONTINUOUS
 62
     1
 10
1010.0
 20
714.5
 30
0.0
 11
1004.303716605
 21
735.758819045
 31
0.0
  0
LINE
  8
0
  6
CONTINUOUS
 62
     1
 10
1022.5
 20
716.5
 30
0.0
 11
1012.5
 21
716.5
 31
0.0
  0
LINE
  8
0
  6
CONTINUOUS
 62
     1
 10
1025.0
 20
714.5
 30
0.0
 11
1010.0
 21
714.5
 31
0.0
  0
LINE
  8
0
  6
CONTINUOUS
 62
     1
 10
1022.5
 20
714.5
 30
0.0
 11
1022.5
 21
716.5
 31
0.0
  0
LINE
  8
0
  6
CONTINUOUS
 62
     1
 10
1012.5
 20
714.5
 30
0.0
 11
1012.5
 21
716.5
 31
0.0
  0
LINE
  8
0
  6
CONTINUOUS
 62
     1
 10
1010.0
 20
681.5
 30
0.0
 11
1010.0
 21
714.5
 31
0.0
  0
LINE
  8
0
  6
CONTINUOUS
 62
     1
 10
986.676112865
 20
721.5
 30
0.0
 11
986.676112865
 21
681.5
 31
0.0
  0
LINE
  8
0
  6
CONTINUOUS
 62
     1
 10
992.230004728
 20
736.5
 30
0.0
 11
992.230004728
 21
681.5
 31
0.0
  0
LINE
  8
0
  6
CONTINUOUS
 62
     1
 10
1003.337790779
 20
736.5
 30
0.0
 11
1003.337790779
 21
681.5
 31
0.0
  0
LINE
  8
0
  6
CONTINUOUS
 62
     1
 10
997.78389809
 20
681.5
 30
0.0
 11
997.78389809
 21
721.5
 31
0.0
  0
LINE
  8
0
  6
CONTINUOUS
 62
     1
 10
951.0
 20
646.5
 30
0.0
 11
951.0
 21
681.5
 31
0.0
  0
LINE
  8
0
  6
LTYPE5
 62
     2
 10
986.676112865
 20
641.5
 30
0.0
 11
955.730004728
 21
641.5
 31
0.0
  0
LINE
  8
0
  6
LTYPE5
 62
     2
 10
992.230005553
 20
626.5
 30
0.0
 11
955.730004728
 21
626.5
 31
0.0
  0
LINE
  8
0
  6
CONTINUOUS
 62
     1
 10
1025.0
 20
656.5
 30
0.0
 11
986.0
 21
656.5
 31
0.0
  0
LINE
  8
0
  6
CONTINUOUS
 62
     1
 10
986.0
 20
646.5
 30
0.0
 11
986.0
 21
681.5
 31
0.0
  0
LINE
  8
0
  6
CONTINUOUS
 62
     1
 10
1009.982501379
 20
648.6
 30
0.0
 11
1009.982501379
 21
656.4
 31
0.0
  0
ARC
  8
0
  6
CONTINUOUS
 62
     1
 10
1003.337790779
 20
627.5
 30
0.0
 40
1.0
 50
270.0
 51
345.0
  0
ARC
  8
0
  6
CONTINUOUS
 62
     1
 10
1003.337789953
 20
627.5
 30
0.0
 40
1.0
 50
195.0
 51
270.0
  0
LINE
  8
0
  6
CONTINUOUS
 62
     1
 10
998.749823916
 20
640.758819045
 30
0.0
 11
1002.371864126
 21
627.241180955
 31
0.0
  0
ARC
  8
0
  6
CONTINUOUS
 62
     1
 10
997.78389809
 20
640.5
 30
0.0
 40
1.0
 50
15.0
 51
90.0
  0
ARC
  8
0
  6
CONTINUOUS
 62
     1
 10
997.783897416
 20
640.5
 30
0.0
 40
1.0
 50
90.0
 51
165.0
  0
LINE
  8
0
  6
CONTINUOUS
 62
     1
 10
996.81797159
 20
640.758819045
 30
0.0
 11
993.19593138
 21
627.241180955
 31
0.0
  0
ARC
  8
0
  6
CONTINUOUS
 62
     1
 10
992.230005553
 20
627.5
 30
0.0
 40
1.0
 50
270.0
 51
345.0
  0
ARC
  8
0
  6
CONTINUOUS
 62
     1
 10
992.230003902
 20
627.5
 30
0.0
 40
1.0
 50
195.0
 51
270.0
  0
ARC
  8
0
  6
CONTINUOUS
 62
     1
 10
986.676112865
 20
640.5
 30
0.0
 40
1.0
 50
15.0
 51
90.0
  0
LINE
  8
0
  6
CONTINUOUS
 62
     1
 10
987.642038691
 20
640.758819045
 30
0.0
 11
991.264078901
 21
627.241180955
 31
0.0
  0
LINE
  8
0
  6
CONTINUOUS
 62
     1
 10
1010.0
 20
648.5
 30
0.0
 11
1004.303716605
 21
627.241180955
 31
0.0
  0
LINE
  8
0
  6
CONTINUOUS
 62
     1
 10
1022.5
 20
646.5
 30
0.0
 11
1012.5
 21
646.5
 31
0.0
  0
LINE
  8
0
  6
CONTINUOUS
 62
     1
 10
1025.0
 20
648.5
 30
0.0
 11
1010.0
 21
648.5
 31
0.0
  0
LINE
  8
0
  6
CONTINUOUS
 62
     1
 10
1022.5
 20
648.5
 30
0.0
 11
1022.5
 21
646.5
 31
0.0
  0
LINE
  8
0
  6
CONTINUOUS
 62
     1
 10
1012.5
 20
648.5
 30
0.0
 11
1012.5
 21
646.5
 31
0.0
  0
LINE
  8
0
  6
LTYPE5
 62
     2
 10
992.230005553
 20
736.5
 30
0.0
 11
955.730004728
 21
736.5
 31
0.0
  0
ARC
  8
0
  6
CONTINUOUS
 62
     1
 10
1003.337790779
 20
735.5
 30
0.0
 40
1.0
 50
15.0
 51
90.0
  0
ARC
  8
0
  6
CONTINUOUS
 62
     1
 10
1003.337789953
 20
735.5
 30
0.0
 40
1.0
 50
90.0
 51
165.0
  0
LINE
  8
0
  6
CONTINUOUS
 62
     1
 10
998.749823916
 20
722.241180955
 30
0.0
 11
1002.371864126
 21
735.758819045
 31
0.0
  0
LINE
  8
0
  6
CONTINUOUS
 62
     1
 10
996.81797159
 20
722.241180955
 30
0.0
 11
993.19593138
 21
735.758819045
 31
0.0
  0
ARC
  8
0
  6
CONTINUOUS
 62
     1
 10
992.230005553
 20
735.5
 30
0.0
 40
1.0
 50
15.0
 51
90.0
  0
ARC
  8
0
  6
CONTINUOUS
 62
     1
 10
992.230003902
 20
735.5
 30
0.0
 40
1.0
 50
90.0
 51
165.0
  0
LINE
  8
0
  6
CONTINUOUS
 62
     1
 10
987.642038691
 20
722.241180955
 30
0.0
 11
991.264078901
 21
735.758819045
 31
0.0
  0
LINE
  8
0
  6
CONTINUOUS
 62
     1
 10
1056.0
 20
859.6
 30
0.0
 11
1116.0
 21
859.6
 31
0.0
  0
LINE
  8
0
  6
CONTINUOUS
 62
     1
 10
1069.0
 20
840.1
 30
0.0
 11
1113.0
 21
840.1
 31
0.0
  0
LINE
  8
0
  6
CONTINUOUS
 62
     1
 10
1078.5
 20
834.1
 30
0.0
 11
1103.5
 21
834.1
 31
0.0
  0
LINE
  8
0
  6
CONTINUOUS
 62
     1
 10
1103.5
 20
834.1
 30
0.0
 11
1103.5
 21
840.1
 31
0.0
  0
LINE
  8
0
  6
CONTINUOUS
 62
     1
 10
1078.5
 20
834.1
 30
0.0
 11
1078.5
 21
840.1
 31
0.0
  0
LINE
  8
0
  6
CONTINUOUS
 62
     1
 10
1069.0
 20
840.1
 30
0.0
 11
1069.0
 21
844.6
 31
0.0
  0
CIRCLE
  8
0
  6
CONTINUOUS
 62
     1
 10
1091.0
 20
838.1
 30
0.0
 40
2.0
  0
LINE
  8
0
  6
LTYPE4
 62
     2
 10
1087.0
 20
838.2
 30
0.0
 11
1095.2
 21
838.2
 31
0.0
  0
LINE
  8
0
  6
LTYPE1
 62
     2
 10
1103.5
 20
840.1
 30
0.0
 11
1103.5
 21
859.6
 31
0.0
  0
LINE
  8
0
  6
LTYPE1
 62
     2
 10
1078.5
 20
840.1
 30
0.0
 11
1078.5
 21
859.6
 31
0.0
  0
LINE
  8
0
  6
CONTINUOUS
 62
     1
 10
1056.0
 20
884.6
 30
0.0
 11
1116.0
 21
884.6
 31
0.0
  0
LINE
  8
0
  6
CONTINUOUS
 62
     1
 10
1069.0
 20
904.1
 30
0.0
 11
1113.0
 21
904.1
 31
0.0
  0
LINE
  8
0
  6
CONTINUOUS
 62
     1
 10
1078.5
 20
910.1
 30
0.0
 11
1103.5
 21
910.1
 31
0.0
  0
LINE
  8
0
  6
CONTINUOUS
 62
     1
 10
1103.5
 20
910.1
 30
0.0
 11
1103.5
 21
904.1
 31
0.0
  0
LINE
  8
0
  6
CONTINUOUS
 62
     1
 10
1078.5
 20
910.1
 30
0.0
 11
1078.5
 21
904.1
 31
0.0
  0
LINE
  8
0
  6
CONTINUOUS
 62
     1
 10
1069.0
 20
904.1
 30
0.0
 11
1069.0
 21
899.6
 31
0.0
  0
CIRCLE
  8
0
  6
CONTINUOUS
 62
     1
 10
1091.0
 20
906.1
 30
0.0
 40
2.0
  0
LINE
  8
0
  6
LTYPE4
 62
     2
 10
1087.0
 20
906.0
 30
0.0
 11
1095.2
 21
906.0
 31
0.0
  0
LINE
  8
0
  6
LTYPE1
 62
     2
 10
1103.5
 20
904.1
 30
0.0
 11
1103.5
 21
884.6
 31
0.0
  0
LINE
  8
0
  6
LTYPE1
 62
     2
 10
1078.5
 20
904.1
 30
0.0
 11
1078.5
 21
884.6
 31
0.0
  0
LINE
  8
0
  6
CONTINUOUS
 62
     1
 10
1056.0
 20
859.6
 30
0.0
 11
1056.0
 21
884.6
 31
0.0
  0
LINE
  8
0
  6
CONTINUOUS
 62
     1
 10
1078.5
 20
859.6
 30
0.0
 11
1078.5
 21
884.6
 31
0.0
  0
LINE
  8
0
  6
CONTINUOUS
 62
     1
 10
1103.5
 20
859.6
 30
0.0
 11
1103.5
 21
884.6
 31
0.0
  0
LINE
  8
0
  6
LTYPE4
 62
     2
 10
1091.0
 20
829.1
 30
0.0
 11
1091.0
 21
910.1
 31
0.0
  0
LINE
  8
0
  6
LTYPE4
 62
     2
 10
1091.0
 20
915.1
 30
0.0
 11
1091.0
 21
834.1
 31
0.0
  0
LINE
  8
0
  6
CONTINUOUS
 62
     1
 10
1078.5
 20
884.6
 30
0.0
 11
1078.5
 21
859.6
 31
0.0
  0
LINE
  8
0
  6
CONTINUOUS
 62
     1
 10
1103.5
 20
884.6
 30
0.0
 11
1103.5
 21
859.6
 31
0.0
  0
LINE
  8
0
  6
LTYPE2
 62
     2
 10
973.7
 20
872.1
 30
0.0
 11
1136.0
 21
872.1
 31
0.0
  0
LINE
  8
0
  6
CONTINUOUS
 62
     1
 10
1041.0
 20
899.6
 30
0.0
 11
1116.0
 21
899.6
 31
0.0
  0
LINE
  8
0
  6
CONTINUOUS
 62
     1
 10
1041.0
 20
844.6
 30
0.0
 11
1041.0
 21
899.6
 31
0.0
  0
LINE
  8
0
  6
CONTINUOUS
 62
     1
 10
1041.0
 20
844.6
 30
0.0
 11
1116.0
 21
844.6
 31
0.0
  0
LINE
  8
0
  6
LTYPE5
 62
     2
 10
1002.676112865
 20
912.1
 30
0.0
 11
971.730004728
 21
912.1
 31
0.0
  0
LINE
  8
0
  6
LTYPE5
 62
     2
 10
1008.230005553
 20
927.1
 30
0.0
 11
971.730004728
 21
927.1
 31
0.0
  0
ARC
  8
0
  6
CONTINUOUS
 62
     1
 10
1019.337790779
 20
926.1
 30
0.0
 40
1.0
 50
15.0
 51
90.0
  0
ARC
  8
0
  6
CONTINUOUS
 62
     1
 10
1019.337789953
 20
926.1
 30
0.0
 40
1.0
 50
90.0
 51
165.0
  0
LINE
  8
0
  6
CONTINUOUS
 62
     1
 10
1014.749823916
 20
912.841180955
 30
0.0
 11
1018.371864126
 21
926.358819045
 31
0.0
  0
ARC
  8
0
  6
CONTINUOUS
 62
     1
 10
1013.78389809
 20
913.1
 30
0.0
 40
1.0
 50
270.0
 51
345.0
  0
ARC
  8
0
  6
CONTINUOUS
 62
     1
 10
1013.783897416
 20
913.1
 30
0.0
 40
1.0
 50
195.0
 51
270.0
  0
LINE
  8
0
  6
CONTINUOUS
 62
     1
 10
1012.81797159
 20
912.841180955
 30
0.0
 11
1009.19593138
 21
926.358819045
 31
0.0
  0
ARC
  8
0
  6
CONTINUOUS
 62
     1
 10
1008.230005553
 20
926.1
 30
0.0
 40
1.0
 50
15.0
 51
90.0
  0
ARC
  8
0
  6
CONTINUOUS
 62
     1
 10
1008.230003902
 20
926.1
 30
0.0
 40
1.0
 50
90.0
 51
165.0
  0
ARC
  8
0
  6
CONTINUOUS
 62
     1
 10
1002.676112865
 20
913.1
 30
0.0
 40
1.0
 50
270.0
 51
345.0
  0
LINE
  8
0
  6
CONTINUOUS
 62
     1
 10
1003.642038691
 20
912.841180955
 30
0.0
 11
1007.264078901
 21
926.358819045
 31
0.0
  0
LINE
  8
0
  6
CONTINUOUS
 62
     1
 10
1026.0
 20
905.1
 30
0.0
 11
1020.303716605
 21
926.358819045
 31
0.0
  0
LINE
  8
0
  6
CONTINUOUS
 62
     1
 10
1038.5
 20
907.1
 30
0.0
 11
1028.5
 21
907.1
 31
0.0
  0
LINE
  8
0
  6
CONTINUOUS
 62
     1
 10
1041.0
 20
905.1
 30
0.0
 11
1026.0
 21
905.1
 31
0.0
  0
LINE
  8
0
  6
CONTINUOUS
 62
     1
 10
1038.5
 20
905.1
 30
0.0
 11
1038.5
 21
907.1
 31
0.0
  0
LINE
  8
0
  6
CONTINUOUS
 62
     1
 10
1028.5
 20
905.1
 30
0.0
 11
1028.5
 21
907.1
 31
0.0
  0
LINE
  8
0
  6
CONTINUOUS
 62
     1
 10
1026.0
 20
872.1
 30
0.0
 11
1026.0
 21
905.1
 31
0.0
  0
LINE
  8
0
  6
CONTINUOUS
 62
     1
 10
1002.676112865
 20
912.1
 30
0.0
 11
1002.676112865
 21
872.1
 31
0.0
  0
LINE
  8
0
  6
CONTINUOUS
 62
     1
 10
1008.230004728
 20
927.1
 30
0.0
 11
1008.230004728
 21
872.1
 31
0.0
  0
LINE
  8
0
  6
CONTINUOUS
 62
     1
 10
1019.337790779
 20
927.1
 30
0.0
 11
1019.337790779
 21
872.1
 31
0.0
  0
LINE
  8
0
  6
CONTINUOUS
 62
     1
 10
1013.78389809
 20
872.1
 30
0.0
 11
1013.78389809
 21
912.1
 31
0.0
  0
LINE
  8
0
  6
CONTINUOUS
 62
     2
 10
964.230004728
 20
927.1
 30
0.0
 11
951.9
 21
927.1
 31
0.0
  0
LINE
  8
0
  6
CONTINUOUS
 62
     2
 10
959.4
 20
927.1
 30
0.0
 11
956.164761936
 21
915.025927171
 31
0.0
  0
LINE
  8
0
  6
CONTINUOUS
 62
     2
 10
959.4
 20
927.1
 30
0.0
 11
962.635238064
 21
915.025927171
 31
0.0
  0
LINE
  8
0
  6
CONTINUOUS
 62
     2
 10
959.4
 20
927.1
 30
0.0
 11
959.4
 21
817.1
 31
0.0
  0
LINE
  8
0
  6
CONTINUOUS
 62
     1
 10
1041.0
 20
872.1
 30
0.0
 11
1041.0
 21
905.1
 31
0.0
  0
LINE
  8
0
  6
LTYPE5
 62
     2
 10
1002.676112865
 20
832.1
 30
0.0
 11
971.730004728
 21
832.1
 31
0.0
  0
LINE
  8
0
  6
LTYPE5
 62
     2
 10
1008.230005553
 20
817.1
 30
0.0
 11
971.730004728
 21
817.1
 31
0.0
  0
ARC
  8
0
  6
CONTINUOUS
 62
     1
 10
1019.337790779
 20
818.1
 30
0.0
 40
1.0
 50
270.0
 51
345.0
  0
ARC
  8
0
  6
CONTINUOUS
 62
     1
 10
1019.337789953
 20
818.1
 30
0.0
 40
1.0
 50
195.0
 51
270.0
  0
LINE
  8
0
  6
CONTINUOUS
 62
     1
 10
1014.749823916
 20
831.358819045
 30
0.0
 11
1018.371864126
 21
817.841180955
 31
0.0
  0
ARC
  8
0
  6
CONTINUOUS
 62
     1
 10
1013.78389809
 20
831.1
 30
0.0
 40
1.0
 50
15.0
 51
90.0
  0
ARC
  8
0
  6
CONTINUOUS
 62
     1
 10
1013.783897416
 20
831.1
 30
0.0
 40
1.0
 50
90.0
 51
165.0
  0
LINE
  8
0
  6
CONTINUOUS
 62
     1
 10
1012.81797159
 20
831.358819045
 30
0.0
 11
1009.19593138
 21
817.841180955
 31
0.0
  0
ARC
  8
0
  6
CONTINUOUS
 62
     1
 10
1008.230005553
 20
818.1
 30
0.0
 40
1.0
 50
270.0
 51
345.0
  0
ARC
  8
0
  6
CONTINUOUS
 62
     1
 10
1008.230003902
 20
818.1
 30
0.0
 40
1.0
 50
195.0
 51
270.0
  0
ARC
  8
0
  6
CONTINUOUS
 62
     1
 10
1002.676112865
 20
831.1
 30
0.0
 40
1.0
 50
15.0
 51
90.0
  0
LINE
  8
0
  6
CONTINUOUS
 62
     1
 10
1003.642038691
 20
831.358819045
 30
0.0
 11
1007.264078901
 21
817.841180955
 31
0.0
  0
LINE
  8
0
  6
CONTINUOUS
 62
     1
 10
1026.0
 20
839.1
 30
0.0
 11
1020.303716605
 21
817.841180955
 31
0.0
  0
LINE
  8
0
  6
CONTINUOUS
 62
     1
 10
1038.5
 20
837.1
 30
0.0
 11
1028.5
 21
837.1
 31
0.0
  0
LINE
  8
0
  6
CONTINUOUS
 62
     1
 10
1041.0
 20
839.1
 30
0.0
 11
1026.0
 21
839.1
 31
0.0
  0
LINE
  8
0
  6
CONTINUOUS
 62
     1
 10
1028.5
 20
839.1
 30
0.0
 11
1028.5
 21
837.1
 31
0.0
  0
LINE
  8
0
  6
CONTINUOUS
 62
     1
 10
1026.0
 20
872.1
 30
0.0
 11
1026.0
 21
839.1
 31
0.0
  0
LINE
  8
0
  6
CONTINUOUS
 62
     1
 10
1002.676112865
 20
832.1
 30
0.0
 11
1002.676112865
 21
872.1
 31
0.0
  0
LINE
  8
0
  6
CONTINUOUS
 62
     1
 10
1008.230004728
 20
817.1
 30
0.0
 11
1008.230004728
 21
872.1
 31
0.0
  0
LINE
  8
0
  6
CONTINUOUS
 62
     1
 10
1019.337790779
 20
817.1
 30
0.0
 11
1019.337790779
 21
872.1
 31
0.0
  0
LINE
  8
0
  6
CONTINUOUS
 62
     1
 10
1013.78389809
 20
872.1
 30
0.0
 11
1013.78389809
 21
832.1
 31
0.0
  0
LINE
  8
0
  6
CONTINUOUS
 62
     2
 10
959.4
 20
817.1
 30
0.0
 11
962.635238064
 21
829.174072829
 31
0.0
  0
LINE
  8
0
  6
CONTINUOUS
 62
     2
 10
959.4
 20
817.1
 30
0.0
 11
956.164761936
 21
829.174072829
 31
0.0
  0
LINE
  8
0
  6
CONTINUOUS
 62
     2
 10
964.230004728
 20
817.1
 30
0.0
 11
951.9
 21
817.1
 31
0.0
  0
LINE
  8
0
  6
CONTINUOUS
 62
     1
 10
1038.5
 20
839.1
 30
0.0
 11
1038.5
 21
837.1
 31
0.0
  0
LINE
  8
0
  6
CONTINUOUS
 62
     2
 10
1056.0
 20
789.6
 30
0.0
 11
1068.074072829
 21
786.364761936
 31
0.0
  0
LINE
  8
0
  6
CONTINUOUS
 62
     2
 10
1056.0
 20
789.6
 30
0.0
 11
1068.074072829
 21
792.835238064
 31
0.0
  0
LINE
  8
0
  6
CONTINUOUS
 62
     2
 10
1056.0
 20
789.6
 30
0.0
 11
1091.0
 21
789.6
 31
0.0
  0
LINE
  8
0
  6
CONTINUOUS
 62
     2
 10
1091.0
 20
789.6
 30
0.0
 11
1078.925927171
 21
792.835238064
 31
0.0
  0
LINE
  8
0
  6
CONTINUOUS
 62
     2
 10
1091.0
 20
789.6
 30
0.0
 11
1078.925927171
 21
786.364761936
 31
0.0
  0
LINE
  8
0
  6
CONTINUOUS
 62
     2
 10
1056.0
 20
789.6
 30
0.0
 11
1068.074072829
 21
786.364761936
 31
0.0
  0
LINE
  8
0
  6
CONTINUOUS
 62
     2
 10
1056.0
 20
789.6
 30
0.0
 11
1068.074072829
 21
792.835238064
 31
0.0
  0
LINE
  8
0
  6
CONTINUOUS
 62
     2
 10
1074.75
 20
789.6
 30
0.0
 11
993.75
 21
789.6
 31
0.0
  0
LINE
  8
0
  6
CONTINUOUS
 62
     2
 10
1041.0
 20
789.6
 30
0.0
 11
1028.925927171
 21
792.835238064
 31
0.0
  0
LINE
  8
0
  6
CONTINUOUS
 62
     2
 10
1041.0
 20
789.6
 30
0.0
 11
1028.925927171
 21
786.364761936
 31
0.0
  0
TEXT
  8
0
  6
CONTINUOUS
 62
     2
 10
1059.25
 20
794.6
 30
0.0
 40
18.0
  1
３５
 50
0.0
 41
0.9
 51
0.0
  7
KANJI28
  0
TEXT
  8
0
  6
CONTINUOUS
 62
     2
 10
994.75
 20
792.6
 30
0.0
 40
18.0
  1
１５
 50
0.0
 41
0.9
 51
0.0
  7
KANJI28
  0
LINE
  8
2
  6
CONTINUOUS
 62
     2
 10
1091.0
 20
793.6
 30
0.0
 11
1091.0
 21
783.6
 31
0.0
  0
LINE
  8
2
  6
CONTINUOUS
 62
     2
 10
1091.0
 20
789.6
 30
0.0
 11
1076.511112606
 21
793.482285677
 31
0.0
  0
LINE
  8
2
  6
CONTINUOUS
 62
     2
 10
1091.0
 20
789.6
 30
0.0
 11
1076.511112606
 21
785.717714323
 31
0.0
  0
LINE
  8
2
  6
CONTINUOUS
 62
     2
 10
1068.5
 20
789.6
 30
0.0
 11
1091.0
 21
789.6
 31
0.0
  0
LINE
  8
2
  6
CONTINUOUS
 62
     2
 10
1091.0
 20
789.6
 30
0.0
 11
1116.0
 21
789.6
 31
0.0
  0
LINE
  8
0
  6
CONTINUOUS
 62
     2
 10
1041.0
 20
832.5
 30
0.0
 11
1041.0
 21
782.1
 31
0.0
  0
LINE
  8
0
  6
CONTINUOUS
 62
     2
 10
1056.0
 20
856.5
 30
0.0
 11
1056.0
 21
782.1
 31
0.0
  0
LINE
  8
0
  6
CONTINUOUS
 62
     2
 10
1091.0
 20
825.5
 30
0.0
 11
1091.0
 21
782.1
 31
0.0
  0
LINE
  8
0
  6
CONTINUOUS
 62
     1
 10
1116.0
 20
844.6
 30
0.0
 11
1116.0
 21
859.6
 31
0.0
  0
LINE
  8
0
  6
CONTINUOUS
 62
     1
 10
1113.0
 20
840.1
 30
0.0
 11
1113.0
 21
844.6
 31
0.0
  0
LINE
  8
0
  6
CONTINUOUS
 62
     1
 10
1116.0
 20
899.6
 30
0.0
 11
1116.0
 21
884.6
 31
0.0
  0
LINE
  8
0
  6
CONTINUOUS
 62
     1
 10
1113.0
 20
904.1
 30
0.0
 11
1113.0
 21
899.6
 31
0.0
  0
LINE
  8
0
  6
CONTINUOUS
 62
     2
 10
1123.5
 20
844.6
 30
0.0
 11
1201.0
 21
844.6
 31
0.0
  0
LINE
  8
0
  6
CONTINUOUS
 62
     2
 10
1123.5
 20
899.6
 30
0.0
 11
1201.0
 21
899.6
 31
0.0
  0
LINE
  8
0
  6
CONTINUOUS
 62
     2
 10
1123.5
 20
859.6
 30
0.0
 11
1172.5
 21
859.6
 31
0.0
  0
LINE
  8
0
  6
CONTINUOUS
 62
     2
 10
1165.0
 20
859.6
 30
0.0
 11
1161.764761936
 21
847.525927171
 31
0.0
  0
LINE
  8
0
  6
CONTINUOUS
 62
     2
 10
1165.0
 20
859.6
 30
0.0
 11
1168.235238064
 21
847.525927171
 31
0.0
  0
LINE
  8
0
  6
CONTINUOUS
 62
     2
 10
1165.0
 20
840.85
 30
0.0
 11
1165.0
 21
931.85
 31
0.0
  0
LINE
  8
0
  6
CONTINUOUS
 62
     2
 10
1165.0
 20
884.6
 30
0.0
 11
1168.235238064
 21
896.674072829
 31
0.0
  0
LINE
  8
0
  6
CONTINUOUS
 62
     2
 10
1165.0
 20
884.6
 30
0.0
 11
1161.764761936
 21
896.674072829
 31
0.0
  0
LINE
  8
0
  6
CONTINUOUS
 62
     2
 10
1123.5
 20
884.6
 30
0.0
 11
1172.5
 21
884.6
 31
0.0
  0
TEXT
  8
0
  6
CONTINUOUS
 62
     2
 10
1188.5
 20
857.85
 30
0.0
 40
18.0
  1
５５
 50
90.0
 41
0.9
 51
0.0
  7
KANJI28
  0
TEXT
  8
0
  6
CONTINUOUS
 62
     2
 10
1160.0
 20
903.35
 30
0.0
 40
18.0
  1
２５
 50
90.0
 41
0.9
 51
0.0
  7
KANJI28
  0
LINE
  8
2
  6
CONTINUOUS
 62
     2
 10
1116.0
 20
842.5
 30
0.0
 11
1116.0
 21
783.6
 31
0.0
  0
LINE
  8
0
  6
CONTINUOUS
 62
     2
 10
1193.5
 20
844.6
 30
0.0
 11
1193.5
 21
899.6
 31
0.0
  0
LINE
  8
0
  6
CONTINUOUS
 62
     2
 10
1193.5
 20
899.6
 30
0.0
 11
1190.264761936
 21
887.525927171
 31
0.0
  0
LINE
  8
0
  6
CONTINUOUS
 62
     2
 10
1193.5
 20
899.6
 30
0.0
 11
1196.735238064
 21
887.525927171
 31
0.0
  0
LINE
  8
0
  6
CONTINUOUS
 62
     2
 10
1193.5
 20
844.6
 30
0.0
 11
1196.735238064
 21
856.674072829
 31
0.0
  0
LINE
  8
0
  6
CONTINUOUS
 62
     2
 10
1193.5
 20
844.6
 30
0.0
 11
1190.264761936
 21
856.674072829
 31
0.0
  0
LINE
  8
2
  6
CONTINUOUS
 62
     2
 10
1116.0
 20
789.6
 30
0.0
 11
1170.9
 21
789.6
 31
0.0
  0
LINE
  8
2
  6
CONTINUOUS
 62
     2
 10
1116.0
 20
789.6
 30
0.0
 11
1130.488887394
 21
785.717714323
 31
0.0
  0
LINE
  8
2
  6
CONTINUOUS
 62
     2
 10
1116.0
 20
789.6
 30
0.0
 11
1130.488887394
 21
793.482285677
 31
0.0
  0
TEXT
  8
2
  6
CONTINUOUS
 62
     3
 10
1138.5
 20
795.6
 30
0.0
 40
18.0
  1
２５
 50
0.0
 41
0.9
 51
0.0
  7
KANJI28
  0
LINE
  8
0
  6
CONTINUOUS
 62
     2
 10
1135.0
 20
752.6
 30
0.0
 11
1223.5
 21
752.6
 31
0.0
  0
TEXT
  8
0
  6
CONTINUOUS
 62
     2
 10
1135.0
 20
757.6
 30
0.0
 40
18.0
  1
φ２５Ｈ１０
 50
0.0
 41
0.9
 51
0.0
  7
KANJI28
  0
TEXT
  8
0
  6
CONTINUOUS
 62
     2
 10
1179.5
 20
733.1
 30
0.0
 40
18.0
  1
ｄ９
 50
0.0
 41
0.9
 51
0.0
  7
KANJI28
  0
LINE
  8
0
  6
CONTINUOUS
 62
     2
 10
1085.333333
 20
995.333317
 30
0.0
 11
1073.259260171
 21
998.568555064
 31
0.0
  0
LINE
  8
0
  6
CONTINUOUS
 62
     2
 10
1085.333333
 20
995.333317
 30
0.0
 11
1073.259260171
 21
992.098078936
 31
0.0
  0
LINE
  8
0
  6
CONTINUOUS
 62
     2
 10
1085.333333
 20
995.333317
 30
0.0
 11
1044.333333
 21
995.333317
 31
0.0
  0
TEXT
  8
0
  6
CONTINUOUS
 62
     3
 10
1051.333333
 20
1005.333317
 30
0.0
 40
20.0
  1
前進
 50
0.0
 41
0.925
 51
0.0
  7
KANJI38
  0
LINE
  8
0
  6
CONTINUOUS
 62
     2
 10
1209.0
 20
681.5
 30
0.0
 11
1205.894171459
 21
669.908890085
 31
0.0
  0
LINE
  8
0
  6
CONTINUOUS
 62
     2
 10
1209.0
 20
681.5
 30
0.0
 11
1212.105828541
 21
669.908890085
 31
0.0
  0
LINE
  8
0
  6
CONTINUOUS
 62
     2
 10
1209.0
 20
681.5
 30
0.0
 11
1209.0
 21
515.5
 31
0.0
  0
LINE
  8
0
  6
CONTINUOUS
 62
     2
 10
1209.0
 20
515.5
 30
0.0
 11
1212.105828541
 21
527.091109915
 31
0.0
  0
LINE
  8
0
  6
CONTINUOUS
 62
     2
 10
1209.0
 20
515.5
 30
0.0
 11
1205.894171459
 21
527.091109915
 31
0.0
  0
LINE
  8
0
  6
CONTINUOUS
 62
     2
 10
996.532501379
 20
515.5
 30
0.0
 11
1215.0
 21
515.5
 31
0.0
  0
TEXT
  8
0
  6
CONTINUOUS
 62
     3
 10
1206.0
 20
574.2
 30
0.0
 40
18.0
  1
１６６
 50
90.0
 41
0.9
 51
0.0
  7
KANJI28
  0
LINE
  8
0
  6
CONTINUOUS
 62
     2
 10
1177.532501379
 20
681.5
 30
0.0
 11
1215.0
 21
681.5
 31
0.0
  0
LINE
  8
0
  6
CONTINUOUS
 62
     2
 10
1109.489995997
 20
681.5
 30
0.0
 11
1143.532501379
 21
681.5
 31
0.0
  0
LINE
  8
0
  6
LTYPE3
 62
     2
 10
817.882501379
 20
143.5
 30
0.0
 11
827.842501379
 21
143.5
 31
0.0
  0
LINE
  8
0
  6
LTYPE3
 62
     2
 10
822.882501379
 20
139.6
 30
0.0
 11
822.882501379
 21
147.48
 31
0.0
  0
LINE
  8
0
  6
LTYPE3
 62
     2
 10
817.882501379
 20
173.7
 30
0.0
 11
827.682501379
 21
173.7
 31
0.0
  0
LINE
  8
0
  6
LTYPE3
 62
     2
 10
822.882501379
 20
167.58
 30
0.0
 11
822.882501379
 21
177.6
 31
0.0
  0
ARC
  8
0
  6
CONTINUOUS
 62
     1
 10
819.882501379
 20
140.6
 30
0.0
 40
2.0
 50
180.0
 51
270.0
  0
LINE
  8
0
  6
CONTINUOUS
 62
     1
 10
794.482501379
 20
145.9
 30
0.0
 11
817.882501379
 21
145.9
 31
0.0
  0
ARC
  8
0
  6
CONTINUOUS
 62
     1
 10
794.482501379
 20
147.9
 30
0.0
 40
2.0
 50
180.0
 51
270.0
  0
LINE
  8
0
  6
CONTINUOUS
 62
     1
 10
792.482501379
 20
147.9
 30
0.0
 11
792.482501379
 21
169.3
 31
0.0
  0
ARC
  8
0
  6
CONTINUOUS
 62
     1
 10
794.482501379
 20
169.3
 30
0.0
 40
2.0
 50
90.0
 51
180.0
  0
LINE
  8
0
  6
CONTINUOUS
 62
     1
 10
817.882501379
 20
140.6
 30
0.0
 11
817.882501379
 21
176.6
 31
0.0
  0
ARC
  8
0
  6
CONTINUOUS
 62
     1
 10
819.882501379
 20
176.6
 30
0.0
 40
2.0
 50
90.0
 51
180.0
  0
LINE
  8
0
  6
CONTINUOUS
 62
     1
 10
819.882501379
 20
178.6
 30
0.0
 11
884.582501379
 21
178.6
 31
0.0
  0
LINE
  8
0
  6
CONTINUOUS
 62
     1
 10
819.882501379
 20
138.6
 30
0.0
 11
884.582501379
 21
138.6
 31
0.0
  0
LINE
  8
0
  6
CONTINUOUS
 62
     1
 10
800.182501379
 20
145.9
 30
0.0
 11
800.182501379
 21
144.1
 31
0.0
  0
LINE
  8
0
  6
CONTINUOUS
 62
     1
 10
920.182501379
 20
134.1
 30
0.0
 11
810.182501379
 21
134.1
 31
0.0
  0
ARC
  8
0
  6
CONTINUOUS
 62
     1
 10
810.182501379
 20
144.1
 30
0.0
 40
10.0
 50
180.0
 51
270.0
  0
ARC
  8
0
  6
CONTINUOUS
 62
     1
 10
808.182501379
 20
158.6
 30
0.0
 40
6.0
 50
176.983045121
 51
3.016954879
  0
LINE
  8
0
  6
CONTINUOUS
 62
     1
 10
813.521480162
 20
171.3
 30
0.0
 11
817.882501379
 21
171.3
 31
0.0
  0
LINE
  8
0
  6
CONTINUOUS
 62
     1
 10
794.482501379
 20
171.3
 30
0.0
 11
802.843522596
 21
171.3
 31
0.0
  0
LINE
  8
0
  6
LTYPE3
 62
     2
 10
798.921480162
 20
158.6
 30
0.0
 11
890.182501379
 21
158.6
 31
0.0
  0
LINE
  8
0
  6
LTYPE3
 62
     2
 10
875.682501379
 20
173.7
 30
0.0
 11
886.582501379
 21
173.7
 31
0.0
  0
LINE
  8
0
  6
LTYPE3
 62
     2
 10
881.582501379
 20
167.68
 30
0.0
 11
881.582501379
 21
177.6
 31
0.0
  0
LINE
  8
0
  6
LTYPE3
 62
     2
 10
875.142501379
 20
143.5
 30
0.0
 11
886.582501379
 21
143.5
 31
0.0
  0
LINE
  8
0
  6
LTYPE3
 62
     2
 10
881.582501379
 20
139.6
 30
0.0
 11
881.582501379
 21
148.58
 31
0.0
  0
ARC
  8
0
  6
CONTINUOUS
 62
     1
 10
884.582501379
 20
176.6
 30
0.0
 40
2.0
 50
0.0
 51
90.0
  0
LINE
  8
0
  6
CONTINUOUS
 62
     1
 10
886.582501379
 20
140.6
 30
0.0
 11
886.582501379
 21
176.6
 31
0.0
  0
ARC
  8
0
  6
CONTINUOUS
 62
     1
 10
884.582501379
 20
140.6
 30
0.0
 40
2.0
 50
270.0
 51
0.0
  0
LINE
  8
7
  6
CONTINUOUS
 62
     2
 10
886.582501379
 20
158.6
 30
0.0
 11
894.949808964
 21
164.076144975
 31
0.0
  0
LINE
  8
7
  6
CONTINUOUS
 62
     2
 10
886.582501379
 20
158.6
 30
0.0
 11
891.090729822
 21
167.526134455
 31
0.0
  0
LINE
  8
7
  6
CONTINUOUS
 62
     2
 10
886.582501379
 20
158.6
 30
0.0
 11
899.232501379
 21
172.75
 31
0.0
  0
ARC
  8
0
  6
CONTINUOUS
 62
     1
 10
920.182501379
 20
144.1
 30
0.0
 40
10.0
 50
270.0
 51
0.0
  0
LINE
  8
7
  6
CONTINUOUS
 62
     2
 10
899.232501379
 20
172.75
 30
0.0
 11
958.032501379
 21
172.75
 31
0.0
  0
LINE
  8
0
  6
CONTINUOUS
 62
     1
 10
930.182501379
 20
169.8
 30
0.0
 11
930.182501379
 21
144.1
 31
0.0
  0
LINE
  8
0
  6
CONTINUOUS
 62
     2
 10
800.182501379
 20
139.9
 30
0.0
 11
800.182501379
 21
91.0
 31
0.0
  0
LINE
  8
0
  6
CONTINUOUS
 62
     2
 10
800.182501379
 20
97.0
 30
0.0
 11
811.773611295
 21
93.894171459
 31
0.0
  0
LINE
  8
0
  6
CONTINUOUS
 62
     2
 10
800.182501379
 20
97.0
 30
0.0
 11
811.773611295
 21
100.105828541
 31
0.0
  0
LINE
  8
0
  6
CONTINUOUS
 62
     2
 10
800.182501379
 20
97.0
 30
0.0
 11
930.182501379
 21
97.0
 31
0.0
  0
LINE
  8
0
  6
CONTINUOUS
 62
     2
 10
930.182501379
 20
97.0
 30
0.0
 11
918.591391464
 21
100.105828541
 31
0.0
  0
LINE
  8
0
  6
CONTINUOUS
 62
     2
 10
930.182501379
 20
97.0
 30
0.0
 11
918.591391464
 21
93.894171459
 31
0.0
  0
LINE
  8
0
  6
CONTINUOUS
 62
     2
 10
930.182501379
 20
138.100010447
 30
0.0
 11
930.182501379
 21
91.0
 31
0.0
  0
TEXT
  8
0
  6
CONTINUOUS
 62
     3
 10
840.882501379
 20
100.0
 30
0.0
 40
18.0
  1
１３０
 50
0.0
 41
0.9
 51
0.0
  7
KANJI28
  0
LINE
  8
0
  6
CONTINUOUS
 62
     2
 10
737.182501379
 20
134.1
 30
0.0
 11
740.288329921
 21
145.691109915
 31
0.0
  0
LINE
  8
0
  6
CONTINUOUS
 62
     2
 10
737.182501379
 20
134.1
 30
0.0
 11
734.076672838
 21
145.691109915
 31
0.0
  0
LINE
  8
0
  6
CONTINUOUS
 62
     2
 10
804.182512169
 20
134.1
 30
0.0
 11
731.182501379
 21
134.1
 31
0.0
  0
ARC
  8
0
  6
CONTINUOUS
 62
     1
 10
1405.0
 20
610.0
 30
0.0
 40
6.0
 50
180.0
 51
270.0
  0
ARC
  8
0
  6
CONTINUOUS
 62
     1
 10
1547.0
 20
610.0
 30
0.0
 40
6.0
 50
270.0
 51
0.0
  0
LINE
  8
0
  6
CONTINUOUS
 62
     1
 10
1556.0
 20
660.5
 30
0.0
 11
1556.0
 21
702.5
 31
0.0
  0
ARC
  8
0
  6
CONTINUOUS
 62
     1
 10
1428.0
 20
619.0
 30
0.0
 40
3.0
 50
90.0
 51
180.0
  0
LINE
  8
0
  6
CONTINUOUS
 62
     1
 10
1425.0
 20
572.5
 30
0.0
 11
1425.0
 21
619.0
 31
0.0
  0
ARC
  8
0
  6
CONTINUOUS
 62
     1
 10
1426.0
 20
572.5
 30
0.0
 40
1.0
 50
180.0
 51
270.0
  0
ARC
  8
0
  6
CONTINUOUS
 62
     1
 10
1429.0
 20
571.5
 30
0.0
 40
1.0
 50
180.0
 51
270.0
  0
ARC
  8
0
  6
CONTINUOUS
 62
     1
 10
1524.0
 20
619.0
 30
0.0
 40
3.0
 50
0.0
 51
90.0
  0
LINE
  8
0
  6
CONTINUOUS
 62
     1
 10
1527.0
 20
572.5
 30
0.0
 11
1527.0
 21
619.0
 31
0.0
  0
ARC
  8
0
  6
CONTINUOUS
 62
     1
 10
1526.0
 20
572.5
 30
0.0
 40
1.0
 50
270.0
 51
0.0
  0
ARC
  8
0
  6
CONTINUOUS
 62
     1
 10
1523.0
 20
571.5
 30
0.0
 40
1.0
 50
270.0
 51
0.0
  0
LINE
  8
0
  6
CONTINUOUS
 62
     1
 10
1527.0
 20
577.5
 30
0.0
 11
1425.0
 21
577.5
 31
0.0
  0
LINE
  8
0
  6
CONTINUOUS
 62
     1
 10
1527.0
 20
579.0
 30
0.0
 11
1425.0
 21
579.0
 31
0.0
  0
LINE
  8
0
  6
CONTINUOUS
 62
     1
 10
1428.0
 20
622.0
 30
0.0
 11
1524.0
 21
622.0
 31
0.0
  0
LINE
  8
0
  6
CONTINUOUS
 62
     1
 10
1523.0
 20
570.5
 30
0.0
 11
1429.0
 21
570.5
 31
0.0
  0
LINE
  8
0
  6
CONTINUOUS
 62
     1
 10
1526.0
 20
571.5
 30
0.0
 11
1426.0
 21
571.5
 31
0.0
  0
LINE
  8
0
  6
CONTINUOUS
 62
     1
 10
1431.0
 20
623.5
 30
0.0
 11
1521.0
 21
623.5
 31
0.0
  0
ARC
  8
0
  6
CONTINUOUS
 62
     1
 10
1530.0
 20
735.5
 30
0.0
 40
5.0
 50
0.0
 51
90.0
  0
CIRCLE
  8
0
  6
CONTINUOUS
 62
     1
 10
1523.0
 20
728.5
 30
0.0
 40
9.0
  0
ARC
  8
0
  6
CONTINUOUS
 62
     1
 10
1530.0
 20
627.5
 30
0.0
 40
5.0
 50
270.0
 51
360.0
  0
ARC
  8
0
  6
CONTINUOUS
 62
     1
 10
1422.0
 20
627.5
 30
0.0
 40
5.0
 50
180.0
 51
270.0
  0
LINE
  8
0
  6
CONTINUOUS
 62
     1
 10
1535.0
 20
705.025046491
 30
0.0
 11
1535.0
 21
735.5
 31
0.0
  0
LINE
  8
0
  6
CONTINUOUS
 62
     1
 10
1521.0
 20
622.5
 30
0.0
 11
1530.0
 21
622.5
 31
0.0
  0
LINE
  8
0
  6
CONTINUOUS
 62
     1
 10
1431.0
 20
622.5
 30
0.0
 11
1422.0
 21
622.5
 31
0.0
  0
LINE
  8
0
  6
CONTINUOUS
 62
     1
 10
1503.5
 20
706.5
 30
0.0
 11
1488.5
 21
706.5
 31
0.0
  0
LINE
  8
0
  6
CONTINUOUS
 62
     1
 10
1508.0
 20
659.5
 30
0.0
 11
1508.0
 21
703.5
 31
0.0
  0
LINE
  8
0
  6
CONTINUOUS
 62
     1
 10
1514.0
 20
669.0
 30
0.0
 11
1514.0
 21
694.0
 31
0.0
  0
LINE
  8
0
  6
CONTINUOUS
 62
     1
 10
1514.0
 20
694.0
 30
0.0
 11
1508.0
 21
694.0
 31
0.0
  0
LINE
  8
0
  6
CONTINUOUS
 62
     1
 10
1514.0
 20
669.0
 30
0.0
 11
1508.0
 21
669.0
 31
0.0
  0
LINE
  8
0
  6
CONTINUOUS
 62
     1
 10
1508.0
 20
703.5
 30
0.0
 11
1503.5
 21
703.5
 31
0.0
  0
LINE
  8
0
  6
CONTINUOUS
 62
     1
 10
1508.0
 20
659.5
 30
0.0
 11
1503.5
 21
659.5
 31
0.0
  0
CIRCLE
  8
0
  6
CONTINUOUS
 62
     1
 10
1510.0
 20
681.5
 30
0.0
 40
2.0
  0
LINE
  8
0
  6
CONTINUOUS
 62
     1
 10
1444.0
 20
659.5
 30
0.0
 11
1444.0
 21
703.5
 31
0.0
  0
LINE
  8
0
  6
CONTINUOUS
 62
     1
 10
1438.0
 20
669.0
 30
0.0
 11
1438.0
 21
694.0
 31
0.0
  0
LINE
  8
0
  6
CONTINUOUS
 62
     1
 10
1438.0
 20
694.0
 30
0.0
 11
1444.0
 21
694.0
 31
0.0
  0
LINE
  8
0
  6
CONTINUOUS
 62
     1
 10
1438.0
 20
669.0
 30
0.0
 11
1444.0
 21
669.0
 31
0.0
  0
LINE
  8
0
  6
CONTINUOUS
 62
     1
 10
1444.0
 20
703.5
 30
0.0
 11
1448.5
 21
703.5
 31
0.0
  0
LINE
  8
0
  6
CONTINUOUS
 62
     1
 10
1444.0
 20
659.5
 30
0.0
 11
1448.5
 21
659.5
 31
0.0
  0
CIRCLE
  8
0
  6
CONTINUOUS
 62
     1
 10
1442.0
 20
681.5
 30
0.0
 40
2.0
  0
LINE
  8
0
  6
CONTINUOUS
 62
     1
 10
1488.5
 20
669.0
 30
0.0
 11
1463.5
 21
669.0
 31
0.0
  0
LINE
  8
0
  6
CONTINUOUS
 62
     1
 10
1488.5
 20
694.0
 30
0.0
 11
1463.5
 21
694.0
 31
0.0
  0
LINE
  8
0
  6
CONTINUOUS
 62
     1
 10
1463.5
 20
669.0
 30
0.0
 11
1488.5
 21
669.0
 31
0.0
  0
LINE
  8
0
  6
CONTINUOUS
 62
     1
 10
1463.5
 20
694.0
 30
0.0
 11
1488.5
 21
694.0
 31
0.0
  0
LINE
  8
0
  6
CONTINUOUS
 62
     1
 10
1448.5
 20
706.5
 30
0.0
 11
1488.5
 21
706.5
 31
0.0
  0
LINE
  8
0
  6
CONTINUOUS
 62
     1
 10
1503.5
 20
656.5
 30
0.0
 11
1503.5
 21
706.5
 31
0.0
  0
LINE
  8
0
  6
CONTINUOUS
 62
     1
 10
1448.5
 20
656.5
 30
0.0
 11
1503.5
 21
656.5
 31
0.0
  0
LINE
  8
0
  6
CONTINUOUS
 62
     1
 10
1488.5
 20
656.5
 30
0.0
 11
1488.5
 21
706.5
 31
0.0
  0
LINE
  8
0
  6
CONTINUOUS
 62
     1
 10
1463.5
 20
656.5
 30
0.0
 11
1463.5
 21
706.5
 31
0.0
  0
LINE
  8
0
  6
CONTINUOUS
 62
     1
 10
1448.5
 20
656.5
 30
0.0
 11
1448.5
 21
706.5
 31
0.0
  0
LINE
  8
0
  6
CONTINUOUS
 62
     1
 10
1527.0
 20
604.0
 30
0.0
 11
1547.0
 21
604.0
 31
0.0
  0
LINE
  8
0
  6
CONTINUOUS
 62
     1
 10
1405.0
 20
604.0
 30
0.0
 11
1425.0
 21
604.0
 31
0.0
  0
LINE
  8
0
  6
CONTINUOUS
 62
     1
 10
1553.0
 20
610.0
 30
0.0
 11
1553.0
 21
660.139279073
 31
0.0
  0
LINE
  8
0
  6
LTYPE1
 62
     2
 10
1531.0
 20
671.5
 30
0.0
 11
1531.0
 21
691.5
 31
0.0
  0
LINE
  8
0
  6
LTYPE1
 62
     2
 10
1531.0
 20
691.5
 30
0.0
 11
1556.0
 21
691.5
 31
0.0
  0
LINE
  8
0
  6
LTYPE1
 62
     2
 10
1531.0
 20
671.5
 30
0.0
 11
1556.0
 21
671.5
 31
0.0
  0
LINE
  8
0
  6
LTYPE3
 62
     2
 10
1521.0
 20
566.8
 30
0.0
 11
1521.0
 21
585.5
 31
0.0
  0
LINE
  8
0
  6
LTYPE3
 62
     2
 10
1431.0
 20
566.8
 30
0.0
 11
1431.0
 21
585.5
 31
0.0
  0
LINE
  8
0
  6
LTYPE3
 62
     2
 10
1429.0
 20
717.165527109
 30
0.0
 11
1429.0
 21
739.265527109
 31
0.0
  0
LINE
  8
0
  6
LTYPE3
 62
     2
 10
1510.6
 20
728.5
 30
0.0
 11
1534.4
 21
728.5
 31
0.0
  0
LINE
  8
0
  6
LTYPE3
 62
     2
 10
1523.0
 20
717.165527109
 30
0.0
 11
1523.0
 21
739.265527109
 31
0.0
  0
LINE
  8
0
  6
LTYPE4
 62
     2
 10
1509.9
 20
677.5
 30
0.0
 11
1509.9
 21
685.7
 31
0.0
  0
LINE
  8
0
  6
LTYPE1
 62
     2
 10
1508.0
 20
694.0
 30
0.0
 11
1488.5
 21
694.0
 31
0.0
  0
LINE
  8
0
  6
LTYPE1
 62
     2
 10
1508.0
 20
669.0
 30
0.0
 11
1488.5
 21
669.0
 31
0.0
  0
LINE
  8
0
  6
LTYPE4
 62
     2
 10
1442.1
 20
677.5
 30
0.0
 11
1442.1
 21
685.7
 31
0.0
  0
LINE
  8
0
  6
LTYPE1
 62
     2
 10
1444.0
 20
694.0
 30
0.0
 11
1463.5
 21
694.0
 31
0.0
  0
LINE
  8
0
  6
LTYPE1
 62
     2
 10
1444.0
 20
669.0
 30
0.0
 11
1463.5
 21
669.0
 31
0.0
  0
LINE
  8
0
  6
CONTINUOUS
 62
     2
 10
1530.5
 20
570.5
 30
0.0
 11
1632.372218677
 21
570.5
 31
0.0
  0
LINE
  8
0
  6
CONTINUOUS
 62
     2
 10
1399.0
 20
602.5
 30
0.0
 11
1399.0
 21
514.8
 31
0.0
  0
LINE
  8
0
  6
CONTINUOUS
 62
     2
 10
1399.0
 20
522.3
 30
0.0
 11
1411.074072829
 21
519.064761936
 31
0.0
  0
LINE
  8
0
  6
CONTINUOUS
 62
     2
 10
1399.0
 20
522.3
 30
0.0
 11
1411.074072829
 21
525.535238064
 31
0.0
  0
LINE
  8
0
  6
CONTINUOUS
 62
     2
 10
1399.0
 20
522.3
 30
0.0
 11
1553.0
 21
522.3
 31
0.0
  0
LINE
  8
0
  6
CONTINUOUS
 62
     2
 10
1553.0
 20
522.3
 30
0.0
 11
1540.925927171
 21
525.535238064
 31
0.0
  0
LINE
  8
0
  6
CONTINUOUS
 62
     2
 10
1553.0
 20
522.3
 30
0.0
 11
1540.925927171
 21
519.064761936
 31
0.0
  0
LINE
  8
0
  6
CONTINUOUS
 62
     2
 10
1553.0
 20
602.5
 30
0.0
 11
1553.0
 21
514.8
 31
0.0
  0
LINE
  8
0
  6
CONTINUOUS
 62
     2
 10
1396.0
 20
653.0
 30
0.0
 11
1396.0
 21
474.3375
 31
0.0
  0
LINE
  8
0
  6
CONTINUOUS
 62
     2
 10
1396.0
 20
481.8375
 30
0.0
 11
1408.074072829
 21
478.602261936
 31
0.0
  0
LINE
  8
0
  6
CONTINUOUS
 62
     2
 10
1396.0
 20
481.8375
 30
0.0
 11
1408.074072829
 21
485.072738064
 31
0.0
  0
LINE
  8
0
  6
CONTINUOUS
 62
     2
 10
1396.0
 20
481.8375
 30
0.0
 11
1556.0
 21
481.8375
 31
0.0
  0
LINE
  8
0
  6
CONTINUOUS
 62
     2
 10
1556.0
 20
481.8375
 30
0.0
 11
1543.925927171
 21
485.072738064
 31
0.0
  0
LINE
  8
0
  6
CONTINUOUS
 62
     2
 10
1556.0
 20
481.8375
 30
0.0
 11
1543.925927171
 21
478.602261936
 31
0.0
  0
LINE
  8
0
  6
CONTINUOUS
 62
     2
 10
1556.0
 20
653.0
 30
0.0
 11
1556.0
 21
474.3375
 31
0.0
  0
LINE
  8
0
  6
LTYPE4
 62
     2
 10
1585.0
 20
681.5
 30
0.0
 11
1438.0
 21
681.5
 31
0.0
  0
CIRCLE
  8
0
  6
CONTINUOUS
 62
     2
 10
1476.0
 20
596.0
 30
0.0
 40
10.4775
  0
CIRCLE
  8
0
  6
CONTINUOUS
 62
     2
 10
1476.0
 20
596.0
 30
0.0
 40
9.3155
  0
LINE
  8
0
  6
LTYPE2
 62
     2
 10
1495.9
 20
596.0
 30
0.0
 11
1455.2
 21
596.0
 31
0.0
  0
ARC
  8
0
  6
CONTINUOUS
 62
     1
 10
1429.0
 20
728.5
 30
0.0
 40
9.0
 50
0.0
 51
4.497151615
  0
ARC
  8
0
  6
CONTINUOUS
 62
     1
 10
1476.0
 20
681.5
 30
0.0
 40
55.0
 50
46.933927913
 51
47.005647371
  0
LINE
  8
0
  6
CONTINUOUS
 62
     2
 10
1602.5
 20
681.5
 30
0.0
 11
1647.372218677
 21
681.5
 31
0.0
  0
LINE
  8
0
  6
CONTINUOUS
 62
     2
 10
1563.5
 20
691.5
 30
0.0
 11
1610.0
 21
691.5
 31
0.0
  0
LINE
  8
0
  6
CONTINUOUS
 62
     2
 10
1602.5
 20
691.5
 30
0.0
 11
1605.735238064
 21
703.574072829
 31
0.0
  0
LINE
  8
0
  6
CONTINUOUS
 62
     2
 10
1602.5
 20
691.5
 30
0.0
 11
1599.264761936
 21
703.574072829
 31
0.0
  0
LINE
  8
0
  6
CONTINUOUS
 62
     2
 10
1602.5
 20
671.5
 30
0.0
 11
1599.264761936
 21
659.425927171
 31
0.0
  0
LINE
  8
0
  6
CONTINUOUS
 62
     2
 10
1602.5
 20
671.5
 30
0.0
 11
1605.735238064
 21
659.425927171
 31
0.0
  0
LINE
  8
0
  6
CONTINUOUS
 62
     2
 10
1563.5
 20
671.5
 30
0.0
 11
1610.0
 21
671.5
 31
0.0
  0
LINE
  8
0
  6
LTYPE3
 62
     2
 10
1470.4
 20
816.5
 30
0.0
 11
1482.4
 21
816.5
 31
0.0
  0
LINE
  8
0
  6
LTYPE3
 62
     2
 10
1476.0
 20
931.5
 30
0.0
 11
1476.0
 21
862.5
 31
0.0
  0
LINE
  8
0
  6
CONTINUOUS
 62
     1
 10
1506.0
 20
891.5
 30
0.0
 11
1506.0
 21
894.5
 31
0.0
  0
ARC
  8
0
  6
CONTINUOUS
 62
     1
 10
1502.0
 20
888.5
 30
0.0
 40
3.0
 50
90.0
 51
180.0
  0
LINE
  8
0
  6
CONTINUOUS
 62
     1
 10
1499.0
 20
877.653619242
 30
0.0
 11
1499.0
 21
888.5
 31
0.0
  0
ARC
  8
0
  6
CONTINUOUS
 62
     1
 10
1495.0
 20
877.653619242
 30
0.0
 40
4.0
 50
304.936144888
 51
0.0
  0
ARC
  8
0
  6
CONTINUOUS
 62
     1
 10
1450.0
 20
888.5
 30
0.0
 40
3.0
 50
0.0
 51
90.0
  0
LINE
  8
0
  6
CONTINUOUS
 62
     1
 10
1453.0
 20
877.653619242
 30
0.0
 11
1453.0
 21
888.5
 31
0.0
  0
ARC
  8
0
  6
CONTINUOUS
 62
     1
 10
1457.0
 20
877.653619242
 30
0.0
 40
4.0
 50
180.0
 51
235.063855112
  0
CIRCLE
  8
0
  6
CONTINUOUS
 62
     1
 10
1476.0
 20
916.5
 30
0.0
 40
17.0
  0
LINE
  8
0
  6
LTYPE2
 62
     2
 10
1453.0
 20
916.5
 30
0.0
 11
1499.0
 21
916.5
 31
0.0
  0
ARC
  8
0
  6
CONTINUOUS
 62
     1
 10
1434.0
 20
938.520045888
 30
0.0
 40
2.0
 50
90.0
 51
180.0
  0
ARC
  8
0
  6
CONTINUOUS
 62
     1
 10
1442.0
 20
944.5
 30
0.0
 40
2.0
 50
90.0
 51
180.0
  0
LINE
  8
0
  6
CONTINUOUS
 62
     1
 10
1442.0
 20
946.5
 30
0.0
 11
1510.0
 21
946.5
 31
0.0
  0
ARC
  8
0
  6
CONTINUOUS
 62
     1
 10
1510.0
 20
944.5
 30
0.0
 40
2.0
 50
0.0
 51
90.0
  0
LINE
  8
0
  6
CONTINUOUS
 62
     1
 10
1518.0
 20
940.520045888
 30
0.0
 11
1434.0
 21
940.520045888
 31
0.0
  0
ARC
  8
0
  6
CONTINUOUS
 62
     1
 10
1518.0
 20
938.520045888
 30
0.0
 40
2.0
 50
0.0
 51
90.0
  0
ARC
  8
0
  6
CONTINUOUS
 62
     1
 10
1434.0
 20
942.520045888
 30
0.0
 40
2.0
 50
90.0
 51
180.0
  0
ARC
  8
0
  6
CONTINUOUS
 62
     1
 10
1442.0
 20
935.5
 30
0.0
 40
2.0
 50
90.0
 51
180.0
  0
LINE
  8
0
  6
CONTINUOUS
 62
     1
 10
1442.0
 20
937.5
 30
0.0
 11
1510.0
 21
937.5
 31
0.0
  0
ARC
  8
0
  6
CONTINUOUS
 62
     1
 10
1510.0
 20
935.5
 30
0.0
 40
2.0
 50
0.0
 51
90.0
  0
LINE
  8
0
  6
CONTINUOUS
 62
     1
 10
1518.0
 20
944.520045888
 30
0.0
 11
1434.0
 21
944.520045888
 31
0.0
  0
ARC
  8
0
  6
CONTINUOUS
 62
     1
 10
1518.0
 20
942.520045888
 30
0.0
 40
2.0
 50
0.0
 51
90.0
  0
LINE
  8
0
  6
CONTINUOUS
 62
     1
 10
1446.0
 20
891.5
 30
0.0
 11
1506.0
 21
891.5
 31
0.0
  0
LINE
  8
0
  6
CONTINUOUS
 62
     1
 10
1446.0
 20
891.5
 30
0.0
 11
1446.0
 21
894.5
 31
0.0
  0
LINE
  8
0
  6
CONTINUOUS
 62
     1
 10
1512.0
 20
896.5
 30
0.0
 11
1518.0
 21
896.5
 31
0.0
  0
LINE
  8
0
  6
CONTINUOUS
 62
     1
 10
1520.0
 20
898.5
 30
0.0
 11
1520.0
 21
942.520045888
 31
0.0
  0
ARC
  8
0
  6
CONTINUOUS
 62
     1
 10
1518.0
 20
898.5
 30
0.0
 40
2.0
 50
270.0
 51
0.0
  0
LINE
  8
0
  6
CONTINUOUS
 62
     1
 10
1512.0
 20
896.5
 30
0.0
 11
1512.0
 21
935.5
 31
0.0
  0
ARC
  8
0
  6
CONTINUOUS
 62
     1
 10
1510.0
 20
896.5
 30
0.0
 40
2.0
 50
270.0
 51
0.0
  0
LINE
  8
0
  6
CONTINUOUS
 62
     1
 10
1440.0
 20
896.5
 30
0.0
 11
1440.0
 21
935.5
 31
0.0
  0
LINE
  8
0
  6
CONTINUOUS
 62
     1
 10
1442.0
 20
894.5
 30
0.0
 11
1510.0
 21
894.5
 31
0.0
  0
ARC
  8
0
  6
CONTINUOUS
 62
     1
 10
1442.0
 20
896.5
 30
0.0
 40
2.0
 50
180.0
 51
270.0
  0
LINE
  8
0
  6
CONTINUOUS
 62
     1
 10
1440.0
 20
896.5
 30
0.0
 11
1434.0
 21
896.5
 31
0.0
  0
LINE
  8
0
  6
CONTINUOUS
 62
     1
 10
1432.0
 20
898.5
 30
0.0
 11
1432.0
 21
942.520045888
 31
0.0
  0
ARC
  8
0
  6
CONTINUOUS
 62
     1
 10
1434.0
 20
898.5
 30
0.0
 40
2.0
 50
180.0
 51
270.0
  0
CIRCLE
  8
0
  6
CONTINUOUS
 62
     2
 10
1476.0
 20
916.5
 30
0.0
 40
15.0
  0
ARC
  8
0
  6
CONTINUOUS
 62
     1
 10
1490.987995196
 20
862.1
 30
0.0
 40
8.0
 50
200.487315115
 51
251.805127661
  0
ARC
  8
0
  6
CONTINUOUS
 62
     1
 10
1461.012004804
 20
862.1
 30
0.0
 40
8.0
 50
288.194872339
 51
339.512684885
  0
ARC
  8
0
  6
CONTINUOUS
 62
     1
 10
1476.0
 20
856.5
 30
0.0
 40
8.0
 50
20.487315115
 51
159.512540111
  0
ARC
  8
0
  6
CONTINUOUS
 62
     1
 10
1490.987995196
 20
770.9
 30
0.0
 40
8.0
 50
108.194872339
 51
159.512684885
  0
ARC
  8
0
  6
CONTINUOUS
 62
     1
 10
1461.012004804
 20
770.9
 30
0.0
 40
8.0
 50
20.487315115
 51
71.805127661
  0
ARC
  8
0
  6
CONTINUOUS
 62
     1
 10
1476.0
 20
776.5
 30
0.0
 40
8.0
 50
200.487459889
 51
339.512684885
  0
ARC
  8
0
  6
CONTINUOUS
 62
     1
 10
1476.0
 20
816.5
 30
0.0
 40
40.0
 50
108.194872339
 51
251.805127661
  0
ARC
  8
0
  6
CONTINUOUS
 62
     1
 10
1522.0
 20
816.5
 30
0.0
 40
9.0
 50
278.674045508
 51
81.325934821
  0
CIRCLE
  8
0
  6
CONTINUOUS
 62
     1
 10
1476.0
 20
816.5
 30
0.0
 40
23.0
  0
ARC
  8
0
  6
CONTINUOUS
 62
     1
 10
1476.0
 20
816.5
 30
0.0
 40
40.0
 50
25.554707728
 51
71.805142343
  0
ARC
  8
0
  6
CONTINUOUS
 62
     1
 10
1476.0
 20
816.5
 30
0.0
 40
40.0
 50
288.194857657
 51
334.445306215
  0
LINE
  8
0
  6
CONTINUOUS
 62
     2
 10
1519.0
 20
833.5
 30
0.0
 11
1519.0
 21
797.5
 31
0.0
  0
LINE
  8
0
  6
CONTINUOUS
 62
     1
 10
1520.0
 20
832.6
 30
0.0
 11
1518.0
 21
832.6
 31
0.0
  0
LINE
  8
0
  6
CONTINUOUS
 62
     1
 10
1518.0
 20
832.6
 30
0.0
 11
1516.0
 21
821.0
 31
0.0
  0
LINE
  8
0
  6
CONTINUOUS
 62
     1
 10
1520.0
 20
832.6
 30
0.0
 11
1522.0
 21
821.0
 31
0.0
  0
LINE
  8
0
  6
CONTINUOUS
 62
     1
 10
1520.0
 20
800.4
 30
0.0
 11
1518.0
 21
800.4
 31
0.0
  0
LINE
  8
0
  6
CONTINUOUS
 62
     1
 10
1518.0
 20
800.4
 30
0.0
 11
1516.0
 21
812.0
 31
0.0
  0
LINE
  8
0
  6
CONTINUOUS
 62
     1
 10
1520.0
 20
800.4
 30
0.0
 11
1522.0
 21
812.0
 31
0.0
  0
ARC
  8
0
  6
CONTINUOUS
 62
     1
 10
1525.619565217
 20
840.2254873
 30
0.0
 40
15.0
 50
205.554693785
 51
235.747997449
  0
ARC
  8
0
  6
CONTINUOUS
 62
     1
 10
1525.619565217
 20
840.2254873
 30
0.0
 40
15.0
 50
252.681090544
 51
261.325827457
  0
ARC
  8
0
  6
CONTINUOUS
 62
     1
 10
1525.619565217
 20
792.7745127
 30
0.0
 40
15.0
 50
124.468179449
 51
154.445306215
  0
ARC
  8
0
  6
CONTINUOUS
 62
     1
 10
1525.619565217
 20
792.7745127
 30
0.0
 40
15.0
 50
98.674172543
 51
107.318909456
  0
CIRCLE
  8
0
  6
CONTINUOUS
 62
     1
 10
1519.0
 20
816.5
 30
0.0
 40
3.0
  0
LINE
  8
0
  6
CONTINUOUS
 62
     1
 10
1516.021304702
 20
821.123567272
 30
0.0
 11
1515.978695298
 21
811.876432728
 31
0.0
  0
LINE
  8
0
  6
CONTINUOUS
 62
     1
 10
1522.021304702
 20
811.876432728
 30
0.0
 11
1521.978695298
 21
821.123567272
 31
0.0
  0
ARC
  8
0
  6
CONTINUOUS
 62
     1
 10
1519.0
 20
816.5
 30
0.0
 40
5.5
 50
304.570397879
 51
57.208673154
  0
ARC
  8
0
  6
CONTINUOUS
 62
     1
 10
1519.0
 20
816.5
 30
0.0
 40
5.5
 50
122.791326846
 51
235.429602121
  0
LINE
  8
0
  6
CONTINUOUS
 62
     1
 10
1478.35
 20
863.570319398
 30
0.0
 11
1473.65
 21
863.570319398
 31
0.0
  0
LINE
  8
0
  6
CONTINUOUS
 62
     1
 10
1473.65
 20
863.570319398
 30
0.0
 11
1471.3
 21
859.5
 31
0.0
  0
LINE
  8
0
  6
CONTINUOUS
 62
     1
 10
1471.3
 20
859.5
 30
0.0
 11
1473.65
 21
855.429680602
 31
0.0
  0
LINE
  8
0
  6
CONTINUOUS
 62
     1
 10
1473.65
 20
855.429680602
 30
0.0
 11
1478.35
 21
855.429680602
 31
0.0
  0
LINE
  8
0
  6
CONTINUOUS
 62
     1
 10
1478.35
 20
855.429680602
 30
0.0
 11
1480.7
 21
859.5
 31
0.0
  0
LINE
  8
0
  6
CONTINUOUS
 62
     1
 10
1480.7
 20
859.5
 30
0.0
 11
1478.35
 21
863.570319398
 31
0.0
  0
LINE
  8
0
  6
CONTINUOUS
 62
     2
 10
1482.0
 20
859.5
 30
0.0
 11
1470.0
 21
859.5
 31
0.0
  0
LINE
  8
0
  6
CONTINUOUS
 62
     1
 10
1478.35
 20
769.429680602
 30
0.0
 11
1473.65
 21
769.429680602
 31
0.0
  0
LINE
  8
0
  6
CONTINUOUS
 62
     1
 10
1473.65
 20
769.429680602
 30
0.0
 11
1471.3
 21
773.5
 31
0.0
  0
LINE
  8
0
  6
CONTINUOUS
 62
     1
 10
1471.3
 20
773.5
 30
0.0
 11
1473.65
 21
777.570319398
 31
0.0
  0
LINE
  8
0
  6
CONTINUOUS
 62
     1
 10
1473.65
 20
777.570319398
 30
0.0
 11
1478.35
 21
777.570319398
 31
0.0
  0
LINE
  8
0
  6
CONTINUOUS
 62
     1
 10
1478.35
 20
777.570319398
 30
0.0
 11
1480.7
 21
773.5
 31
0.0
  0
LINE
  8
0
  6
CONTINUOUS
 62
     1
 10
1480.7
 20
773.5
 30
0.0
 11
1478.35
 21
769.429680602
 31
0.0
  0
LINE
  8
0
  6
CONTINUOUS
 62
     2
 10
1482.0
 20
773.5
 30
0.0
 11
1470.0
 21
773.5
 31
0.0
  0
LINE
  8
0
  6
CONTINUOUS
 62
     1
 10
1471.063655198
 20
819.35
 30
0.0
 11
1471.063655198
 21
813.65
 31
0.0
  0
LINE
  8
0
  6
CONTINUOUS
 62
     1
 10
1471.063655198
 20
813.65
 30
0.0
 11
1476.0
 21
810.8
 31
0.0
  0
LINE
  8
0
  6
CONTINUOUS
 62
     1
 10
1476.0
 20
810.8
 30
0.0
 11
1480.936344802
 21
813.65
 31
0.0
  0
LINE
  8
0
  6
CONTINUOUS
 62
     1
 10
1480.936344802
 20
813.65
 30
0.0
 11
1480.936344802
 21
819.35
 31
0.0
  0
LINE
  8
0
  6
CONTINUOUS
 62
     1
 10
1480.936344802
 20
819.35
 30
0.0
 11
1476.0
 21
822.2
 31
0.0
  0
LINE
  8
0
  6
CONTINUOUS
 62
     1
 10
1476.0
 20
822.2
 30
0.0
 11
1471.063655198
 21
819.35
 31
0.0
  0
CIRCLE
  8
0
  6
CONTINUOUS
 62
     1
 10
1476.0
 20
816.5
 30
0.0
 40
6.5
  0
LINE
  8
0
  6
CONTINUOUS
 62
     1
 10
1433.788059223
 20
868.957131306
 30
0.0
 11
1426.288059223
 21
868.957131306
 31
0.0
  0
LINE
  8
0
  6
CONTINUOUS
 62
     1
 10
1426.288059223
 20
868.957131306
 30
0.0
 11
1422.538059223
 21
862.461940777
 31
0.0
  0
LINE
  8
0
  6
CONTINUOUS
 62
     1
 10
1422.538059223
 20
862.461940777
 30
0.0
 11
1426.288059223
 21
855.966750249
 31
0.0
  0
LINE
  8
0
  6
CONTINUOUS
 62
     1
 10
1435.728418262
 20
865.596330864
 30
0.0
 11
1433.788059223
 21
868.957131306
 31
0.0
  0
LINE
  8
0
  6
LTYPE1
 62
     1
 10
1433.788059223
 20
855.966750249
 30
0.0
 11
1437.538059223
 21
862.461940777
 31
0.0
  0
LINE
  8
0
  6
LTYPE1
 62
     1
 10
1437.538059223
 20
862.461940777
 30
0.0
 11
1435.728418262
 21
865.596330864
 31
0.0
  0
LINE
  8
0
  6
LTYPE1
 62
     1
 10
1426.288059223
 20
855.966750249
 30
0.0
 11
1433.788059223
 21
855.966750249
 31
0.0
  0
ARC
  8
0
  6
LTYPE2
 62
     2
 10
1476.0
 20
816.5
 30
0.0
 40
65.0
 50
125.31362776
 51
144.542425518
  0
LINE
  8
0
  6
LTYPE2
 62
     2
 10
1436.903669136
 20
855.596330864
 30
0.0
 11
1424.0
 21
868.5
 31
0.0
  0
LINE
  8
0
  6
CONTINUOUS
 62
     1
 10
1518.211940777
 20
868.957131306
 30
0.0
 11
1525.711940777
 21
868.957131306
 31
0.0
  0
LINE
  8
0
  6
CONTINUOUS
 62
     1
 10
1525.711940777
 20
868.957131306
 30
0.0
 11
1529.461940777
 21
862.461940777
 31
0.0
  0
LINE
  8
0
  6
CONTINUOUS
 62
     1
 10
1529.461940777
 20
862.461940777
 30
0.0
 11
1525.711940777
 21
855.966750249
 31
0.0
  0
LINE
  8
0
  6
CONTINUOUS
 62
     1
 10
1516.271581738
 20
865.596330864
 30
0.0
 11
1518.211940777
 21
868.957131306
 31
0.0
  0
LINE
  8
0
  6
LTYPE1
 62
     1
 10
1518.211940777
 20
855.966750249
 30
0.0
 11
1514.461940777
 21
862.461940777
 31
0.0
  0
LINE
  8
0
  6
LTYPE1
 62
     1
 10
1514.461940777
 20
862.461940777
 30
0.0
 11
1516.271581738
 21
865.596330864
 31
0.0
  0
LINE
  8
0
  6
LTYPE1
 62
     1
 10
1525.711940777
 20
855.966750249
 30
0.0
 11
1518.211940777
 21
855.966750249
 31
0.0
  0
ARC
  8
0
  6
LTYPE2
 62
     2
 10
1476.0
 20
816.5
 30
0.0
 40
65.0
 50
35.457574482
 51
54.68637224
  0
LINE
  8
0
  6
LTYPE2
 62
     2
 10
1515.096330864
 20
855.596330864
 30
0.0
 11
1528.0
 21
868.5
 31
0.0
  0
LINE
  8
0
  6
CONTINUOUS
 62
     1
 10
1518.211940777
 20
764.042868694
 30
0.0
 11
1525.711940777
 21
764.042868694
 31
0.0
  0
LINE
  8
0
  6
CONTINUOUS
 62
     1
 10
1525.711940777
 20
764.042868694
 30
0.0
 11
1529.461940777
 21
770.538059223
 31
0.0
  0
LINE
  8
0
  6
CONTINUOUS
 62
     1
 10
1529.461940777
 20
770.538059223
 30
0.0
 11
1525.711940777
 21
777.033249751
 31
0.0
  0
LINE
  8
0
  6
CONTINUOUS
 62
     1
 10
1516.271581738
 20
767.403669136
 30
0.0
 11
1518.211940777
 21
764.042868694
 31
0.0
  0
LINE
  8
0
  6
LTYPE1
 62
     1
 10
1518.211940777
 20
777.033249751
 30
0.0
 11
1514.461940777
 21
770.538059223
 31
0.0
  0
LINE
  8
0
  6
LTYPE1
 62
     1
 10
1514.461940777
 20
770.538059223
 30
0.0
 11
1516.271581738
 21
767.403669136
 31
0.0
  0
LINE
  8
0
  6
LTYPE1
 62
     1
 10
1525.711940777
 20
777.033249751
 30
0.0
 11
1518.211940777
 21
777.033249751
 31
0.0
  0
ARC
  8
0
  6
LTYPE2
 62
     2
 10
1476.0
 20
816.5
 30
0.0
 40
65.0
 50
305.31362776
 51
324.542425518
  0
LINE
  8
0
  6
LTYPE2
 62
     2
 10
1515.096330864
 20
777.403669136
 30
0.0
 11
1528.0
 21
764.5
 31
0.0
  0
ARC
  8
0
  6
CONTINUOUS
 62
     1
 10
1476.0
 20
816.5
 30
0.0
 40
80.0
 50
0.0
 51
69.635865194
  0
ARC
  8
0
  6
LTYPE1
 62
     1
 10
1476.0
 20
816.5
 30
0.0
 40
80.0
 50
69.635865194
 51
110.364134806
  0
LINE
  8
0
  6
CONTINUOUS
 62
     1
 10
1499.020008006
 20
740.5
 30
0.0
 11
1530.0
 21
740.5
 31
0.0
  0
LINE
  8
0
  6
CONTINUOUS
 62
     2
 10
1513.122218677
 20
946.5
 30
0.0
 11
1632.372218677
 21
946.5
 31
0.0
  0
LINE
  8
0
  6
LTYPE3
 62
     2
 10
1476.0
 20
951.5
 30
0.0
 11
1476.0
 21
546.0
 31
0.0
  0
LINE
  8
0
  6
CONTINUOUS
 62
     1
 10
1553.0
 20
702.860720927
 30
0.0
 11
1553.0
 21
794.797465586
 31
0.0
  0
LINE
  8
0
  6
CONTINUOUS
 62
     2
 10
1632.372218677
 20
570.5
 30
0.0
 11
1683.122218677
 21
570.5
 31
0.0
  0
LINE
  8
0
  6
CONTINUOUS
 62
     2
 10
1675.622218677
 20
570.5
 30
0.0
 11
1678.85745674
 21
582.574072829
 31
0.0
  0
LINE
  8
0
  6
CONTINUOUS
 62
     2
 10
1675.622218677
 20
570.5
 30
0.0
 11
1672.386980613
 21
582.574072829
 31
0.0
  0
LINE
  8
0
  6
CONTINUOUS
 62
     2
 10
1639.872218677
 20
681.5
 30
0.0
 11
1636.636980613
 21
669.425927171
 31
0.0
  0
LINE
  8
0
  6
CONTINUOUS
 62
     2
 10
1639.872218677
 20
681.5
 30
0.0
 11
1643.10745674
 21
669.425927171
 31
0.0
  0
LINE
  8
0
  6
CONTINUOUS
 62
     2
 10
1639.872218677
 20
681.5
 30
0.0
 11
1639.872218677
 21
570.5
 31
0.0
  0
LINE
  8
0
  6
CONTINUOUS
 62
     2
 10
1639.872218677
 20
570.5
 30
0.0
 11
1643.10745674
 21
582.574072829
 31
0.0
  0
LINE
  8
0
  6
CONTINUOUS
 62
     2
 10
1639.872218677
 20
570.5
 30
0.0
 11
1636.636980613
 21
582.574072829
 31
0.0
  0
LINE
  8
0
  6
CONTINUOUS
 62
     2
 10
1639.872218677
 20
681.5
 30
0.0
 11
1643.10745674
 21
693.574072829
 31
0.0
  0
LINE
  8
0
  6
CONTINUOUS
 62
     2
 10
1639.872218677
 20
681.5
 30
0.0
 11
1636.636980613
 21
693.574072829
 31
0.0
  0
LINE
  8
0
  6
CONTINUOUS
 62
     2
 10
1639.872218677
 20
816.5
 30
0.0
 11
1636.636980613
 21
804.425927171
 31
0.0
  0
LINE
  8
0
  6
CONTINUOUS
 62
     2
 10
1639.872218677
 20
816.5
 30
0.0
 11
1643.10745674
 21
804.425927171
 31
0.0
  0
LINE
  8
0
  6
CONTINUOUS
 62
     2
 10
1619.0
 20
816.5
 30
0.0
 11
1647.372218677
 21
816.5
 31
0.0
  0
LINE
  8
0
  6
CONTINUOUS
 62
     2
 10
1639.872218677
 20
816.5
 30
0.0
 11
1643.10745674
 21
828.574072829
 31
0.0
  0
LINE
  8
0
  6
CONTINUOUS
 62
     2
 10
1639.872218677
 20
816.5
 30
0.0
 11
1636.636980613
 21
828.574072829
 31
0.0
  0
LINE
  8
0
  6
LTYPE4
 62
     2
 10
1607.872218677
 20
816.5
 30
0.0
 11
1641.0
 21
816.5
 31
0.0
  0
LINE
  8
0
  6
CONTINUOUS
 62
     2
 10
1639.872218677
 20
681.5
 30
0.0
 11
1639.872218677
 21
816.5
 31
0.0
  0
LINE
  8
0
  6
CONTINUOUS
 62
     2
 10
1675.622218677
 20
946.5
 30
0.0
 11
1672.386980613
 21
934.425927171
 31
0.0
  0
LINE
  8
0
  6
CONTINUOUS
 62
     2
 10
1675.622218677
 20
946.5
 30
0.0
 11
1678.85745674
 21
934.425927171
 31
0.0
  0
LINE
  8
0
  6
CONTINUOUS
 62
     2
 10
1632.372218677
 20
946.5
 30
0.0
 11
1683.122218677
 21
946.5
 31
0.0
  0
LINE
  8
0
  6
CONTINUOUS
 62
     2
 10
1639.872218677
 20
946.5
 30
0.0
 11
1636.636980613
 21
934.425927171
 31
0.0
  0
LINE
  8
0
  6
CONTINUOUS
 62
     2
 10
1639.872218677
 20
946.5
 30
0.0
 11
1643.10745674
 21
934.425927171
 31
0.0
  0
LINE
  8
0
  6
CONTINUOUS
 62
     2
 10
1639.872218677
 20
816.5
 30
0.0
 11
1639.872218677
 21
946.5
 31
0.0
  0
LINE
  8
0
  6
CONTINUOUS
 62
     2
 10
1675.622218677
 20
570.5
 30
0.0
 11
1675.622218677
 21
946.5
 31
0.0
  0
TEXT
  8
0
  6
CONTINUOUS
 62
     2
 10
1454.25
 20
527.3
 30
0.0
 40
18.0
  1
１５４
 50
0.0
 41
0.9
 51
0.0
  7
KANJI28
  0
TEXT
  8
0
  6
CONTINUOUS
 62
     2
 10
1454.25
 20
486.8375
 30
0.0
 40
18.0
  1
１６０
 50
0.0
 41
0.9
 51
0.0
  7
KANJI28
  0
TEXT
  8
0
  6
CONTINUOUS
 62
     2
 10
1597.222218677
 20
697.25
 30
0.0
 40
18.0
  1
φ２０Ｈ１０深さ２５
 50
90.0
 41
0.9
 51
0.0
  7
KANJI28
  0
TEXT
  8
0
  6
CONTINUOUS
 62
     2
 10
1634.872218677
 20
604.25
 30
0.0
 40
18.0
  1
１１１
 50
90.0
 41
0.9
 51
0.0
  7
KANJI28
  0
TEXT
  8
0
  6
CONTINUOUS
 62
     2
 10
1634.872218677
 20
737.75
 30
0.0
 40
18.0
  1
１３５
 50
90.0
 41
0.9
 51
0.0
  7
KANJI28
  0
TEXT
  8
0
  6
CONTINUOUS
 62
     2
 10
1634.872218677
 20
862.85
 30
0.0
 40
18.0
  1
１３０
 50
90.0
 41
0.9
 51
0.0
  7
KANJI28
  0
TEXT
  8
0
  6
CONTINUOUS
 62
     2
 10
1670.622218677
 20
749.35
 30
0.0
 40
18.0
  1
３７６
 50
90.0
 41
0.9
 51
0.0
  7
KANJI28
  0
LINE
  8
0
  6
LTYPE4
 62
     2
 10
1580.0
 20
816.5
 30
0.0
 11
1580.372218677
 21
816.5
 31
0.0
  0
LINE
  8
0
  6
LTYPE4
 62
     2
 10
1362.324000264
 20
816.5
 30
0.0
 11
1570.0
 21
816.5
 31
0.0
  0
LINE
  8
0
  6
CONTINUOUS
 62
     2
 10
1602.5
 20
855.6
 30
0.0
 11
1602.5
 21
652.75
 31
0.0
  0
LINE
  8
0
  6
CONTINUOUS
 62
     1
 10
1556.0
 20
702.5
 30
0.0
 11
1524.655954376
 21
706.268817734
 31
0.0
  0
LINE
  8
0
  6
CONTINUOUS
 62
     1
 10
1556.0
 20
660.5
 30
0.0
 11
1524.655954376
 21
656.731182266
 31
0.0
  0
LINE
  8
0
  6
CONTINUOUS
 62
     1
 10
1436.3
 20
570.5
 30
0.0
 11
1425.7
 21
570.5
 31
0.0
  0
ARC
  8
0
  6
CONTINUOUS
 62
     1
 10
1431.4
 20
571.5
 30
0.0
 40
5.0
 50
272.3
 51
348.5
  0
ARC
  8
0
  6
CONTINUOUS
 62
     1
 10
1430.6
 20
571.5
 30
0.0
 40
5.0
 50
191.5
 51
267.7
  0
LINE
  8
0
  6
CONTINUOUS
 62
     1
 10
1431.6
 20
566.5
 30
0.0
 11
1430.4
 21
566.5
 31
0.0
  0
LINE
  8
0
  6
LTYPE6
 62
     2
 10
1431.0
 20
563.1
 30
0.0
 11
1431.0
 21
576.5
 31
0.0
  0
LINE
  8
0
  6
CONTINUOUS
 62
     1
 10
1526.3
 20
570.5
 30
0.0
 11
1515.7
 21
570.5
 31
0.0
  0
ARC
  8
0
  6
CONTINUOUS
 62
     1
 10
1521.4
 20
571.5
 30
0.0
 40
5.0
 50
272.3
 51
348.5
  0
ARC
  8
0
  6
CONTINUOUS
 62
     1
 10
1520.6
 20
571.5
 30
0.0
 40
5.0
 50
191.5
 51
267.7
  0
LINE
  8
0
  6
CONTINUOUS
 62
     1
 10
1521.6
 20
566.5
 30
0.0
 11
1520.4
 21
566.5
 31
0.0
  0
LINE
  8
0
  6
LTYPE6
 62
     2
 10
1521.0
 20
563.1
 30
0.0
 11
1521.0
 21
576.5
 31
0.0
  0
LINE
  8
0
  6
CONTINUOUS
 62
     2
 10
1718.32
 20
700.5
 30
0.0
 11
1862.32
 21
700.5
 31
0.0
  0
TEXT
  8
0
  6
CONTINUOUS
 62
     2
 10
1730.92
 20
708.9
 30
12.0
 40
24.0
  1
特記事項
 50
0.0
 41
0.9
 51
0.0
  7
KANJI39
  0
TEXT
  8
0
  6
CONTINUOUS
 62
     2
 10
1724.92
 20
589.2
 30
1.8
 40
21.0
  1
３．ＬＳユニット
 50
0.0
 41
0.857142857
 51
0.0
  7
KANJI40
  0
TEXT
  8
0
  6
CONTINUOUS
 62
     2
 10
1724.92
 20
664.2
 30
1.8
 40
21.0
  1
１．運転時は必ずピストンロッドの回転防止を行って下さい。
 50
0.0
 41
0.857142857
 51
0.0
  7
KANJI40
  0
TEXT
  8
0
  6
CONTINUOUS
 62
     2
 10
1724.92
 20
626.7
 30
1.8
 40
21.0
  1
２．モートル：全閉自冷かご形３０分定格
 50
0.0
 41
0.857142857
 51
0.0
  7
KANJI40
  0
TEXT
  8
0
  6
CONTINUOUS
 62
     2
 10
1724.92
 20
496.2
 30
1.8
 40
21.0
  1
４．呼称ストロークは、機械的ストロークです。
 50
0.0
 41
0.857142857
 51
0.0
  7
KANJI40
  0
TEXT
  8
0
  6
CONTINUOUS
 62
     2
 10
1724.92
 20
529.2
 30
1.8
 40
21.0
  1
　　ストローク７００ｍｍ以上の場合２ロッド方式となります。
 50
0.0
 41
0.857142857
 51
0.0
  7
KANJI40
  0
TEXT
  8
0
  6
CONTINUOUS
 62
     2
 10
1724.92
 20
559.2
 30
1.8
 40
21.0
  1
　　リミットスイッチ：１ＬＳ１－Ｊｘ２ケ（山武）
 50
0.0
 41
0.857142857
 51
0.0
  7
KANJI40
  0
TEXT
  8
0
  6
CONTINUOUS
 62
     2
 10
1724.92
 20
459.24
 30
1.8
 40
21.0
  1
　　必ず、常用はストローク両端に必ず余裕を取って下さい。
 50
0.0
 41
0.857142857
 51
0.0
  7
KANJI40
  0
TEXT
  8
0
  6
CONTINUOUS
 62
     2
 10
308.632591263
 20
339.871507451
 30
0.0
 40
20.0
  1
推力リミッタの作動値は、約１２００ｋｇ（設計値）
 50
0.0
 41
0.925
 51
0.0
  7
KANJI38
  0
LINE
  8
0
  6
CONTINUOUS
 62
     2
 10
306.632591263
 20
331.871507451
 30
0.0
 11
734.92
 21
331.871507451
 31
0.0
  0
LINE
  8
0
  6
CONTINUOUS
 62
     1
 10
392.5
 20
756.5
 30
0.0
 11
349.5
 21
756.5
 31
0.0
  0
TEXT
  8
0
  6
CONTINUOUS
 62
     2
 10
354.5
 20
745.5
 30
5.0
 40
20.0
  1
銘板
 50
270.0
 41
0.925
 51
0.0
  7
KANJI41
  0
LINE
  8
0
  6
CONTINUOUS
 62
     1
 10
349.5
 20
756.5
 30
0.0
 11
349.5
 21
686.5
 31
0.0
  0
LINE
  8
0
  6
CONTINUOUS
 62
     1
 10
392.5
 20
756.5
 30
0.0
 11
392.5
 21
686.5
 31
0.0
  0
LINE
  8
0
  6
CONTINUOUS
 62
     1
 10
392.5
 20
686.5
 30
0.0
 11
349.5
 21
686.5
 31
0.0
  0
LINE
  8
0
  6
LTYPE2
 62
     2
 10
437.532501379
 20
559.5
 30
0.0
 11
824.792501379
 21
559.5
 31
0.0
  0
LINE
  8
0
  6
LTYPE1
 62
     2
 10
692.032501379
 20
573.5
 30
0.0
 11
457.032501379
 21
573.5
 31
0.0
  0
LINE
  8
0
  6
LTYPE1
 62
     2
 10
692.032501379
 20
579.5
 30
0.0
 11
457.032501379
 21
579.5
 31
0.0
  0
LINE
  8
0
  6
LTYPE1
 62
     2
 10
457.032501379
 20
546.5
 30
0.0
 11
473.032501379
 21
546.5
 31
0.0
  0
LINE
  8
0
  6
LTYPE1
 62
     2
 10
454.532501379
 20
569.3
 30
0.0
 11
448.918142025
 21
569.3
 31
0.0
  0
LINE
  8
0
  6
LTYPE1
 62
     2
 10
454.532501379
 20
564.4
 30
0.0
 11
448.918142025
 21
564.4
 31
0.0
  0
LINE
  8
0
  6
LTYPE1
 62
     2
 10
454.532501379
 20
559.5
 30
0.0
 11
454.532501379
 21
569.3
 31
0.0
  0
LINE
  8
0
  6
LTYPE1
 62
     2
 10
457.032501379
 20
568.7
 30
0.0
 11
454.532501379
 21
568.7
 31
0.0
  0
LINE
  8
0
  6
LTYPE1
 62
     2
 10
454.532501384
 20
559.5
 30
0.0
 11
457.032501379
 21
561.999999996
 31
0.0
  0
LINE
  8
0
  6
LTYPE1
 62
     2
 10
454.532501379
 20
549.7
 30
0.0
 11
448.918142025
 21
549.7
 31
0.0
  0
LINE
  8
0
  6
LTYPE1
 62
     2
 10
454.532501379
 20
554.6
 30
0.0
 11
448.918142025
 21
554.6
 31
0.0
  0
LINE
  8
0
  6
LTYPE1
 62
     2
 10
454.532501379
 20
559.5
 30
0.0
 11
454.532501379
 21
549.7
 31
0.0
  0
LINE
  8
0
  6
LTYPE1
 62
     2
 10
457.032501379
 20
559.5
 30
0.0
 11
454.532501384
 21
557.000000004
 31
0.0
  0
LINE
  8
0
  6
LTYPE1
 62
     2
 10
457.032501379
 20
550.3
 30
0.0
 11
454.532501379
 21
550.3
 31
0.0
  0
LINE
  8
0
  6
LTYPE1
 62
     2
 10
447.532501379
 20
559.5
 30
0.0
 11
447.532501379
 21
566.9
 31
0.0
  0
LINE
  8
0
  6
LTYPE1
 62
     2
 10
447.532501379
 20
566.9
 30
0.0
 11
448.918142025
 21
569.3
 31
0.0
  0
LINE
  8
0
  6
LTYPE1
 62
     2
 10
447.532501379
 20
566.9
 30
0.0
 11
448.918142025
 21
569.3
 31
0.0
  0
ARC
  8
0
  6
LTYPE1
 62
     2
 10
450.390385212
 20
566.85
 30
0.0
 40
2.858321186
 50
177.010501597
 51
238.997686085
  0
LINE
  8
0
  6
LTYPE1
 62
     2
 10
443.032501379
 20
563.5
 30
0.0
 11
447.532501379
 21
563.5
 31
0.0
  0
LINE
  8
0
  6
LTYPE1
 62
     2
 10
443.032501379
 20
562.5
 30
0.0
 11
447.532501379
 21
562.5
 31
0.0
  0
LINE
  8
0
  6
LTYPE1
 62
     2
 10
447.532501379
 20
552.1
 30
0.0
 11
448.918142025
 21
549.7
 31
0.0
  0
LINE
  8
0
  6
LTYPE1
 62
     2
 10
447.532501379
 20
559.5
 30
0.0
 11
447.532501379
 21
552.1
 31
0.0
  0
ARC
  8
0
  6
LTYPE1
 62
     2
 10
450.390385212
 20
552.15
 30
0.0
 40
2.858321186
 50
121.002313915
 51
182.989498403
  0
LINE
  8
0
  6
LTYPE1
 62
     2
 10
443.032501379
 20
555.5
 30
0.0
 11
447.532501379
 21
555.5
 31
0.0
  0
LINE
  8
0
  6
LTYPE1
 62
     2
 10
443.032501379
 20
556.5
 30
0.0
 11
447.532501379
 21
556.5
 31
0.0
  0
ARC
  8
0
  6
LTYPE1
 62
     2
 10
456.889184179
 20
559.5
 30
0.0
 40
9.3566828
 50
148.419912243
 51
211.580087757
  0
LINE
  8
0
  6
LTYPE1
 62
     2
 10
443.032501379
 20
555.5
 30
0.0
 11
443.032501379
 21
563.5
 31
0.0
  0
LINE
  8
0
  6
LTYPE1
 62
     2
 10
459.373721379
 20
584.9999
 30
0.0
 11
457.538441379
 21
583.940300598
 31
0.0
  0
LINE
  8
0
  6
LTYPE1
 62
     2
 10
457.538441379
 20
579.5
 30
0.0
 11
457.538441379
 21
583.940300598
 31
0.0
  0
LINE
  8
0
  6
LTYPE1
 62
     2
 10
457.032501379
 20
546.5
 30
0.0
 11
457.032501379
 21
579.5
 31
0.0
  0
LINE
  8
0
  6
LTYPE1
 62
     2
 10
465.032501379
 20
584.9999
 30
0.0
 11
459.373721379
 21
584.9999
 31
0.0
  0
ARC
  8
0
  6
LTYPE1
 62
     2
 10
459.411956379
 20
582.814476233
 30
0.0
 40
2.185758211
 50
31.002313915
 51
92.989498403
  0
LINE
  8
0
  6
LTYPE3
 62
     2
 10
465.682501379
 20
531.5
 30
0.0
 11
1057.032501379
 21
531.5
 31
0.0
  0
LINE
  8
0
  6
LTYPE3
 62
     2
 10
476.032501379
 20
559.5
 30
0.0
 11
487.532501379
 21
559.5
 31
0.0
  0
ARC
  8
0
  6
LTYPE1
 62
     2
 10
476.632501379
 20
567.3
 30
0.0
 40
3.9
 50
317.9
 51
42.1
  0
LINE
  8
0
  6
LTYPE1
 62
     2
 10
479.532501379
 20
564.7
 30
0.0
 11
473.032501379
 21
564.7
 31
0.0
  0
LINE
  8
0
  6
LTYPE1
 62
     2
 10
480.532501379
 20
563.5
 30
0.0
 11
488.032501379
 21
563.5
 31
0.0
  0
LINE
  8
0
  6
LTYPE1
 62
     2
 10
480.532501379
 20
562.5
 30
0.0
 11
488.032501379
 21
562.5
 31
0.0
  0
LINE
  8
0
  6
LTYPE1
 62
     2
 10
473.032501379
 20
549.1
 30
0.0
 11
479.532501379
 21
549.1
 31
0.0
  0
ARC
  8
0
  6
LTYPE1
 62
     2
 10
476.632501379
 20
551.7
 30
0.0
 40
3.9
 50
317.9
 51
42.1
  0
LINE
  8
0
  6
LTYPE1
 62
     2
 10
473.032501379
 20
554.3
 30
0.0
 11
479.532501379
 21
554.3
 31
0.0
  0
LINE
  8
0
  6
LTYPE1
 62
     2
 10
480.532501379
 20
556.5
 30
0.0
 11
488.032501379
 21
556.5
 31
0.0
  0
LINE
  8
0
  6
LTYPE1
 62
     2
 10
480.532501379
 20
555.5
 30
0.0
 11
488.032501379
 21
555.5
 31
0.0
  0
LINE
  8
0
  6
LTYPE1
 62
     2
 10
473.032501379
 20
546.5
 30
0.0
 11
473.032501379
 21
573.5
 31
0.0
  0
LINE
  8
0
  6
LTYPE1
 62
     2
 10
473.032501379
 20
569.9
 30
0.0
 11
473.032501379
 21
549.1
 31
0.0
  0
ARC
  8
0
  6
LTYPE1
 62
     2
 10
466.532501379
 20
559.5
 30
0.0
 40
14.0
 50
338.2
 51
21.8
  0
LINE
  8
0
  6
LTYPE1
 62
     2
 10
480.532501379
 20
551.7
 30
0.0
 11
480.532501379
 21
567.3
 31
0.0
  0
LINE
  8
0
  6
LTYPE1
 62
     2
 10
485.532501379
 20
541.3
 30
0.0
 11
479.918142025
 21
541.3
 31
0.0
  0
LINE
  8
0
  6
LTYPE1
 62
     2
 10
478.532501379
 20
538.9
 30
0.0
 11
479.918142025
 21
541.3
 31
0.0
  0
LINE
  8
0
  6
LTYPE1
 62
     2
 10
478.532501379
 20
538.9
 30
0.0
 11
479.918142025
 21
541.3
 31
0.0
  0
LINE
  8
0
  6
LTYPE1
 62
     2
 10
478.532501379
 20
531.5
 30
0.0
 11
478.532501379
 21
538.9
 31
0.0
  0
LINE
  8
0
  6
LTYPE1
 62
     2
 10
485.532501379
 20
536.4
 30
0.0
 11
479.918142025
 21
536.4
 31
0.0
  0
ARC
  8
0
  6
LTYPE1
 62
     2
 10
481.390385212
 20
538.85
 30
0.0
 40
2.858321186
 50
177.010501597
 51
238.997686085
  0
LINE
  8
0
  6
LTYPE1
 62
     2
 10
470.032501379
 20
535.5
 30
0.0
 11
478.532501379
 21
535.5
 31
0.0
  0
ARC
  8
0
  6
LTYPE1
 62
     2
 10
487.889184179
 20
531.5
 30
0.0
 40
9.3566828
 50
148.419912243
 51
211.580087757
  0
LINE
  8
0
  6
LTYPE1
 62
     2
 10
470.032501379
 20
527.5
 30
0.0
 11
470.032501379
 21
535.5
 31
0.0
  0
LINE
  8
0
  6
LTYPE1
 62
     2
 10
485.532501379
 20
521.7
 30
0.0
 11
479.918142025
 21
521.7
 31
0.0
  0
LINE
  8
0
  6
LTYPE1
 62
     2
 10
478.532501379
 20
524.1
 30
0.0
 11
479.918142025
 21
521.7
 31
0.0
  0
LINE
  8
0
  6
LTYPE1
 62
     2
 10
478.532501379
 20
531.5
 30
0.0
 11
478.532501379
 21
524.1
 31
0.0
  0
LINE
  8
0
  6
LTYPE1
 62
     2
 10
485.532501379
 20
526.6
 30
0.0
 11
479.918142025
 21
526.6
 31
0.0
  0
ARC
  8
0
  6
LTYPE1
 62
     2
 10
481.390385212
 20
524.15
 30
0.0
 40
2.858321186
 50
121.002313915
 51
182.989498403
  0
LINE
  8
0
  6
LTYPE1
 62
     2
 10
470.032501379
 20
527.5
 30
0.0
 11
478.532501379
 21
527.5
 31
0.0
  0
LINE
  8
0
  6
LTYPE1
 62
     2
 10
470.032501379
 20
528.5
 30
0.0
 11
478.532501379
 21
528.5
 31
0.0
  0
LINE
  8
0
  6
LTYPE1
 62
     2
 10
470.032501379
 20
534.5
 30
0.0
 11
478.532501379
 21
534.5
 31
0.0
  0
LINE
  8
0
  6
LTYPE1
 62
     2
 10
520.032501379
 20
565.5
 30
0.0
 11
488.032501379
 21
565.5
 31
0.0
  0
LINE
  8
0
  6
LTYPE1
 62
     2
 10
488.032501379
 20
553.5
 30
0.0
 11
520.032501379
 21
553.5
 31
0.0
  0
LINE
  8
0
  6
LTYPE1
 62
     2
 10
488.032501379
 20
518.5
 30
0.0
 11
520.032501379
 21
518.5
 31
0.0
  0
LINE
  8
0
  6
LTYPE1
 62
     2
 10
488.032501379
 20
563.5
 30
0.0
 11
493.032501379
 21
563.5
 31
0.0
  0
LINE
  8
0
  6
LTYPE1
 62
     2
 10
488.032501379
 20
562.5
 30
0.0
 11
493.032501379
 21
562.5
 31
0.0
  0
LINE
  8
0
  6
LTYPE1
 62
     2
 10
488.032501379
 20
555.5
 30
0.0
 11
493.032501379
 21
555.5
 31
0.0
  0
LINE
  8
0
  6
LTYPE1
 62
     2
 10
488.032501379
 20
556.5
 30
0.0
 11
493.032501379
 21
556.5
 31
0.0
  0
LINE
  8
0
  6
LTYPE1
 62
     2
 10
488.032501379
 20
540.7
 30
0.0
 11
485.532501379
 21
540.7
 31
0.0
  0
LINE
  8
0
  6
LTYPE1
 62
     2
 10
485.532501379
 20
531.5
 30
0.0
 11
485.532501379
 21
541.3
 31
0.0
  0
LINE
  8
0
  6
LTYPE1
 62
     2
 10
488.032501379
 20
518.5
 30
0.0
 11
488.032501379
 21
571.5
 31
0.0
  0
LINE
  8
0
  6
LTYPE1
 62
     2
 10
485.532501379
 20
531.5
 30
0.0
 11
485.532501379
 21
521.7
 31
0.0
  0
LINE
  8
0
  6
LTYPE1
 62
     2
 10
488.032501379
 20
522.3
 30
0.0
 11
485.532501379
 21
522.3
 31
0.0
  0
LINE
  8
0
  6
LTYPE1
 62
     2
 10
488.032501379
 20
531.5
 30
0.0
 11
485.532501384
 21
529.000000004
 31
0.0
  0
LINE
  8
0
  6
LTYPE1
 62
     2
 10
485.532501384
 20
531.5
 30
0.0
 11
488.032501379
 21
533.999999996
 31
0.0
  0
LINE
  8
0
  6
LTYPE1
 62
     2
 10
473.032501379
 20
569.9
 30
0.0
 11
479.532501379
 21
569.9
 31
0.0
  0
ARC
  8
0
  6
LTYPE1
 62
     2
 10
465.032501379
 20
577.844844663
 30
0.0
 40
7.155055337
 50
58.419912243
 51
121.580087757
  0
LINE
  8
0
  6
LTYPE1
 62
     2
 10
470.691281379
 20
584.9999
 30
0.0
 11
472.526561379
 21
583.940300598
 31
0.0
  0
LINE
  8
0
  6
LTYPE1
 62
     2
 10
465.032501379
 20
584.9999
 30
0.0
 11
470.691281379
 21
584.9999
 31
0.0
  0
LINE
  8
0
  6
LTYPE1
 62
     2
 10
470.691281379
 20
584.9999
 30
0.0
 11
472.526561379
 21
583.940300598
 31
0.0
  0
ARC
  8
0
  6
LTYPE1
 62
     2
 10
470.653046379
 20
582.814476233
 30
0.0
 40
2.185758211
 50
87.010501597
 51
148.997686085
  0
LINE
  8
0
  6
LTYPE1
 62
     2
 10
468.779531379
 20
579.5
 30
0.0
 11
468.779531379
 21
583.940300598
 31
0.0
  0
LINE
  8
0
  6
LTYPE1
 62
     2
 10
472.526561379
 20
579.5
 30
0.0
 11
472.526561379
 21
583.940300598
 31
0.0
  0
LINE
  8
0
  6
LTYPE1
 62
     2
 10
520.032501379
 20
571.5
 30
0.0
 11
488.032501379
 21
571.5
 31
0.0
  0
LINE
  8
0
  6
LTYPE1
 62
     2
 10
465.032501379
 20
569.5
 30
0.0
 11
465.032501379
 21
585.5
 31
0.0
  0
LINE
  8
0
  6
LTYPE1
 62
     2
 10
461.285471379
 20
579.5
 30
0.0
 11
461.285471379
 21
583.940300598
 31
0.0
  0
LINE
  8
0
  6
CONTINUOUS
 62
     1
 10
629.0
 20
579.0
 30
0.0
 11
500.0
 21
579.0
 31
0.0
  0
LINE
  8
0
  6
CONTINUOUS
 62
     1
 10
629.0
 20
577.5
 30
0.0
 11
500.0
 21
577.5
 31
0.0
  0
LINE
  8
0
  6
CONTINUOUS
 62
     1
 10
500.0
 20
572.5
 30
0.0
 11
500.0
 21
619.0
 31
0.0
  0
LINE
  8
0
  6
CONTINUOUS
 62
     1
 10
628.0
 20
571.5
 30
0.0
 11
501.0
 21
571.5
 31
0.0
  0
ARC
  8
0
  6
CONTINUOUS
 62
     1
 10
501.0
 20
572.5
 30
0.0
 40
1.0
 50
180.0
 51
270.0
  0
ARC
  8
0
  6
CONTINUOUS
 62
     1
 10
504.0
 20
571.5
 30
0.0
 40
1.0
 50
180.0
 51
270.0
  0
LINE
  8
0
  6
CONTINUOUS
 62
     1
 10
625.0
 20
570.5
 30
0.0
 11
504.1
 21
570.5
 31
0.0
  0
LINE
  8
0
  6
LTYPE1
 62
     2
 10
520.032501379
 20
567.5
 30
0.0
 11
792.482501379
 21
567.5
 31
0.0
  0
LINE
  8
0
  6
LTYPE1
 62
     2
 10
520.032501379
 20
551.5
 30
0.0
 11
792.482501379
 21
551.5
 31
0.0
  0
LINE
  8
0
  6
CONTINUOUS
 62
     1
 10
506.532501379
 20
540.05
 30
0.0
 11
506.532501379
 21
524.05
 31
0.0
  0
LINE
  8
0
  6
CONTINUOUS
 62
     1
 10
506.532501379
 20
540.05
 30
0.0
 11
520.032501379
 21
540.05
 31
0.0
  0
LINE
  8
0
  6
CONTINUOUS
 62
     1
 10
506.532501379
 20
524.05
 30
0.0
 11
520.032501379
 21
524.05
 31
0.0
  0
LINE
  8
0
  6
LTYPE1
 62
     2
 10
493.032501379
 20
553.5
 30
0.0
 11
493.032501379
 21
565.5
 31
0.0
  0
LINE
  8
0
  6
CONTINUOUS
 62
     1
 10
520.032501379
 20
542.5
 30
0.0
 11
528.692755417
 21
547.5
 31
0.0
  0
LINE
  8
0
  6
CONTINUOUS
 62
     1
 10
520.032501379
 20
520.5
 30
0.0
 11
520.032501379
 21
542.5
 31
0.0
  0
LINE
  8
0
  6
CONTINUOUS
 62
     1
 10
520.032501379
 20
520.5
 30
0.0
 11
528.692755417
 21
515.5
 31
0.0
  0
LINE
  8
0
  6
LTYPE1
 62
     2
 10
520.032501379
 20
518.5
 30
0.0
 11
520.032501379
 21
571.5
 31
0.0
  0
LINE
  8
0
  6
CONTINUOUS
 62
     1
 10
528.682501379
 20
515.5
 30
0.0
 11
553.382501379
 21
515.5
 31
0.0
  0
LINE
  8
0
  6
LTYPE2
 62
     2
 10
541.032501379
 20
521.5
 30
0.0
 11
541.032501379
 21
541.5
 31
0.0
  0
LINE
  8
0
  6
CONTINUOUS
 62
     1
 10
528.682501379
 20
547.5
 30
0.0
 11
553.382501379
 21
547.5
 31
0.0
  0
CIRCLE
  8
0
  6
CONTINUOUS
 62
     2
 10
541.032501379
 20
531.5
 30
0.0
 40
5.0
  0
CIRCLE
  8
0
  6
CONTINUOUS
 62
     2
 10
541.032501379
 20
531.5
 30
0.0
 40
4.0
  0
LINE
  8
0
  6
CONTINUOUS
 62
     1
 10
528.682501379
 20
515.5
 30
0.0
 11
528.682501379
 21
547.5
 31
0.0
  0
ARC
  8
0
  6
CONTINUOUS
 62
     1
 10
509.9
 20
571.5
 30
0.0
 40
5.0
 50
272.3
 51
348.5
  0
ARC
  8
0
  6
CONTINUOUS
 62
     1
 10
509.1
 20
571.5
 30
0.0
 40
5.0
 50
191.5
 51
267.7
  0
LINE
  8
0
  6
CONTINUOUS
 62
     1
 10
510.1
 20
566.5
 30
0.0
 11
508.9
 21
566.5
 31
0.0
  0
LINE
  8
0
  6
LTYPE6
 62
     2
 10
509.5
 20
563.1
 30
0.0
 11
509.5
 21
576.5
 31
0.0
  0
LINE
  8
0
  6
CONTINUOUS
 62
     2
 10
509.292647059
 20
589.2
 30
0.0
 11
588.8
 21
589.2
 31
0.0
  0
TEXT
  8
0
  6
CONTINUOUS
 62
     2
 10
509.3
 20
591.2
 30
0.0
 40
15.0
  1
推力リミッタ
 50
0.0
 41
0.92
 51
0.0
  7
KANJI42
  0
LINE
  8
0
  6
LTYPE1
 62
     2
 10
629.0
 20
586.7
 30
0.0
 11
619.0
 21
586.7
 31
0.0
  0
LINE
  8
0
  6
LTYPE1
 62
     2
 10
629.0
 20
585.5
 30
0.0
 11
619.0
 21
585.5
 31
0.0
  0
LINE
  8
0
  6
LTYPE2
 62
     2
 10
635.2
 20
596.0
 30
0.0
 11
615.5
 21
596.0
 31
0.0
  0
LINE
  8
0
  6
CONTINUOUS
 62
     1
 10
629.0
 20
572.5
 30
0.0
 11
629.0
 21
618.0
 31
0.0
  0
ARC
  8
0
  6
CONTINUOUS
 62
     1
 10
628.0
 20
572.5
 30
0.0
 40
1.0
 50
270.0
 51
0.0
  0
LINE
  8
0
  6
CONTINUOUS
 62
     1
 10
626.0
 20
571.5
 30
0.0
 11
626.0
 21
571.5
 31
0.0
  0
ARC
  8
0
  6
CONTINUOUS
 62
     1
 10
625.0
 20
571.5
 30
0.0
 40
1.0
 50
270.0
 51
0.0
  0
LINE
  8
0
  6
CONTINUOUS
 62
     1
 10
562.032501379
 20
539.5
 30
0.0
 11
817.882501379
 21
539.5
 31
0.0
  0
LINE
  8
0
  6
CONTINUOUS
 62
     1
 10
562.032501379
 20
523.5
 30
0.0
 11
849.182501379
 21
523.5
 31
0.0
  0
LINE
  8
0
  6
CONTINUOUS
 62
     1
 10
553.382501379
 20
515.5
 30
0.0
 11
553.382501379
 21
547.5
 31
0.0
  0
LINE
  8
0
  6
CONTINUOUS
 62
     1
 10
562.032501379
 20
520.5
 30
0.0
 11
553.372247342
 21
515.5
 31
0.0
  0
LINE
  8
0
  6
CONTINUOUS
 62
     1
 10
562.032501379
 20
542.5
 30
0.0
 11
553.372247342
 21
547.5
 31
0.0
  0
LINE
  8
0
  6
CONTINUOUS
 62
     1
 10
562.032501379
 20
520.5
 30
0.0
 11
562.032501379
 21
542.5
 31
0.0
  0
ARC
  8
0
  6
CONTINUOUS
 62
     1
 10
620.4
 20
571.5
 30
0.0
 40
5.0
 50
272.3
 51
348.5
  0
ARC
  8
0
  6
CONTINUOUS
 62
     1
 10
619.6
 20
571.5
 30
0.0
 40
5.0
 50
191.5
 51
267.7
  0
LINE
  8
0
  6
CONTINUOUS
 62
     1
 10
620.6
 20
566.5
 30
0.0
 11
619.4
 21
566.5
 31
0.0
  0
LINE
  8
0
  6
LTYPE6
 62
     2
 10
620.0
 20
563.1
 30
0.0
 11
620.0
 21
576.5
 31
0.0
  0
LINE
  8
0
  6
CONTINUOUS
 62
     2
 10
629.0
 20
596.0
 30
0.0
 11
640.980916594
 21
595.323510848
 31
0.0
  0
LINE
  8
0
  6
CONTINUOUS
 62
     2
 10
629.0
 20
596.0
 30
0.0
 11
639.714022707
 21
601.404601506
 31
0.0
  0
LINE
  8
0
  6
CONTINUOUS
 62
     2
 10
629.0
 20
596.0
 30
0.0
 11
713.0
 21
613.5
 31
0.0
  0
LINE
  8
0
  6
LTYPE1
 62
     2
 10
678.032501379
 20
580.0
 30
0.0
 11
678.032501379
 21
664.5
 31
0.0
  0
LINE
  8
0
  6
LTYPE1
 62
     2
 10
676.532501379
 20
573.5
 30
0.0
 11
676.532501379
 21
568.9
 31
0.0
  0
ARC
  8
0
  6
LTYPE1
 62
     2
 10
678.332501379
 20
571.0
 30
0.0
 40
2.8
 50
228.5
 51
311.5
  0
LINE
  8
0
  6
LTYPE1
 62
     2
 10
689.732501379
 20
568.2
 30
0.0
 11
678.332501379
 21
568.2
 31
0.0
  0
LINE
  8
0
  6
LTYPE1
 62
     2
 10
692.032501379
 20
573.5
 30
0.0
 11
692.032501379
 21
664.5
 31
0.0
  0
LINE
  8
0
  6
LTYPE1
 62
     2
 10
691.532501379
 20
573.5
 30
0.0
 11
691.532501379
 21
568.9
 31
0.0
  0
LINE
  8
0
  6
LTYPE1
 62
     2
 10
680.232501379
 20
573.5
 30
0.0
 11
680.232501379
 21
568.9
 31
0.0
  0
LINE
  8
0
  6
LTYPE1
 62
     2
 10
687.832501379
 20
573.5
 30
0.0
 11
687.832501379
 21
568.9
 31
0.0
  0
ARC
  8
0
  6
LTYPE1
 62
     2
 10
684.032501379
 20
578.9
 30
0.0
 40
10.7
 50
249.1
 51
290.9
  0
ARC
  8
0
  6
LTYPE1
 62
     2
 10
689.732501379
 20
571.0
 30
0.0
 40
2.8
 50
228.5
 51
311.5
  0
LINE
  8
0
  6
LTYPE1
 62
     2
 10
684.032501379
 20
564.7
 30
0.0
 11
684.032501379
 21
576.5
 31
0.0
  0
LINE
  8
0
  6
LTYPE2
 62
     2
 10
684.032501379
 20
560.85
 30
0.0
 11
684.032501379
 21
585.15
 31
0.0
  0
LINE
  8
0
  6
CONTINUOUS
 62
     2
 10
713.0
 20
613.5
 30
0.0
 11
794.0
 21
613.5
 31
0.0
  0
TEXT
  8
0
  6
CONTINUOUS
 62
     3
 10
713.0
 20
616.5
 30
0.0
 40
18.0
  1
ＰＦ１／２
 50
0.0
 41
0.9
 51
0.0
  7
KANJI28
  0
LINE
  8
0
  6
LTYPE3
 62
     2
 10
685.032501379
 20
618.75
 30
0.0
 11
685.032501379
 21
724.4
 31
0.0
  0
LINE
  8
0
  6
CONTINUOUS
 62
     2
 10
719.0
 20
646.5
 30
0.0
 11
719.0
 21
716.5
 31
0.0
  0
LINE
  8
0
  6
CONTINUOUS
 62
     2
 10
719.0
 20
646.5
 30
0.0
 11
722.235238064
 21
658.574072829
 31
0.0
  0
LINE
  8
0
  6
CONTINUOUS
 62
     2
 10
719.0
 20
646.5
 30
0.0
 11
715.764761936
 21
658.574072829
 31
0.0
  0
LINE
  8
0
  6
LTYPE1
 62
     2
 10
692.032501379
 20
644.5
 30
0.0
 11
678.032501379
 21
644.5
 31
0.0
  0
LINE
  8
0
  6
LTYPE1
 62
     2
 10
692.032501379
 20
664.5
 30
0.0
 11
678.032501379
 21
664.5
 31
0.0
  0
LINE
  8
0
  6
LTYPE1
 62
     2
 10
689.032501379
 20
664.5
 30
0.0
 11
689.032501379
 21
721.00001079
 31
0.0
  0
LINE
  8
0
  6
LTYPE1
 62
     2
 10
681.032501379
 20
664.5
 30
0.0
 11
681.032501379
 21
721.00001079
 31
0.0
  0
TEXT
  8
0
  6
CONTINUOUS
 62
     2
 10
714.0
 20
659.75
 30
0.0
 40
18.0
  1
φ７０
 50
90.0
 41
0.9
 51
0.0
  7
KANJI28
  0
ARC
  8
0
  6
LTYPE1
 62
     2
 10
685.032501379
 20
721.0
 30
0.0
 40
4.0
 50
0.00015455
 51
179.99984545
  0
LINE
  8
0
  6
CONTINUOUS
 62
     2
 10
719.0
 20
716.5
 30
0.0
 11
715.764761936
 21
704.425927171
 31
0.0
  0
LINE
  8
0
  6
CONTINUOUS
 62
     2
 10
719.0
 20
716.5
 30
0.0
 11
722.235238064
 21
704.425927171
 31
0.0
  0
LINE
  8
0
  6
CONTINUOUS
 62
     2
 10
762.1
 20
692.3
 30
0.0
 11
769.588041206
 21
702.308957933
 31
0.0
  0
LINE
  8
0
  6
CONTINUOUS
 62
     2
 10
762.1
 20
692.3
 30
0.0
 11
763.580354942
 21
704.712032438
 31
0.0
  0
LINE
  8
0
  6
CONTINUOUS
 62
     2
 10
762.1
 20
692.3
 30
0.0
 11
812.1
 21
817.3
 31
0.0
  0
TEXT
  8
0
  6
CONTINUOUS
 62
     2
 10
812.1
 20
822.3
 30
0.0
 40
18.0
  1
給脂口
 50
0.0
 41
0.9
 51
0.0
  7
KANJI28
  0
LINE
  8
0
  6
CONTINUOUS
 62
     2
 10
812.1
 20
817.3
 30
0.0
 11
868.0
 21
817.3
 31
0.0
  0
LINE
  8
0
  6
LTYPE2
 62
     2
 10
835.182501379
 20
618.75
 30
0.0
 11
835.182501379
 21
724.4
 31
0.0
  0
ARC
  8
0
  6
CONTINUOUS
 62
     1
 10
835.182501379
 20
721.0
 30
0.0
 40
4.0
 50
0.00015455
 51
179.99984545
  0
ARC
  8
0
  6
CONTINUOUS
 62
     1
 10
895.182501379
 20
721.0
 30
0.0
 40
4.0
 50
0.00015455
 51
179.99984545
  0
LINE
  8
0
  6
LTYPE2
 62
     2
 10
895.182501379
 20
618.75
 30
0.0
 11
895.182501379
 21
724.4
 31
0.0
  0
LINE
  8
0
  6
CONTINUOUS
 62
     1
 10
839.182501379
 20
664.5
 30
0.0
 11
839.182501379
 21
721.00001079
 31
0.0
  0
LINE
  8
0
  6
CONTINUOUS
 62
     1
 10
831.182501379
 20
664.5
 30
0.0
 11
831.182501379
 21
721.00001079
 31
0.0
  0
LINE
  8
0
  6
CONTINUOUS
 62
     1
 10
891.182501379
 20
664.5
 30
0.0
 11
891.182501379
 21
721.00001079
 31
0.0
  0
LINE
  8
0
  6
CONTINUOUS
 62
     1
 10
899.182501379
 20
664.5
 30
0.0
 11
899.182501379
 21
721.00001079
 31
0.0
  0
LINE
  8
0
  6
CONTINUOUS
 62
     1
 10
888.182501379
 20
580.0
 30
0.0
 11
888.182501379
 21
664.5
 31
0.0
  0
LINE
  8
0
  6
CONTINUOUS
 62
     1
 10
902.182501379
 20
664.5
 30
0.0
 11
888.182501379
 21
664.5
 31
0.0
  0
LINE
  8
0
  6
CONTINUOUS
 62
     1
 10
842.182501379
 20
664.5
 30
0.0
 11
828.182501379
 21
664.5
 31
0.0
  0
LINE
  8
0
  6
CONTINUOUS
 62
     1
 10
842.182501379
 20
579.5
 30
0.0
 11
842.182501379
 21
664.5
 31
0.0
  0
LINE
  8
0
  6
CONTINUOUS
 62
     1
 10
828.182501379
 20
580.0
 30
0.0
 11
828.182501379
 21
664.5
 31
0.0
  0
LINE
  8
0
  6
CONTINUOUS
 62
     1
 10
842.182501379
 20
644.5
 30
0.0
 11
828.182501379
 21
644.5
 31
0.0
  0
LINE
  8
0
  6
CONTINUOUS
 62
     1
 10
902.182501379
 20
644.5
 30
0.0
 11
888.182501379
 21
644.5
 31
0.0
  0
LINE
  8
0
  6
CONTINUOUS
 62
     1
 10
902.182501379
 20
579.5
 30
0.0
 11
902.182501379
 21
664.5
 31
0.0
  0
LINE
  8
0
  6
CONTINUOUS
 62
     1
 10
881.182501379
 20
525.5
 30
0.0
 11
957.182501379
 21
525.5
 31
0.0
  0
LINE
  8
0
  6
CONTINUOUS
 62
     1
 10
912.482501379
 20
537.5
 30
0.0
 11
957.182501379
 21
537.5
 31
0.0
  0
CIRCLE
  8
0
  6
CONTINUOUS
 62
     2
 10
978.182501379
 20
531.5
 30
0.0
 40
5.0
  0
CIRCLE
  8
0
  6
CONTINUOUS
 62
     2
 10
978.182501379
 20
531.5
 30
0.0
 40
4.0
  0
LINE
  8
0
  6
LTYPE3
 62
     2
 10
978.182501379
 20
521.5
 30
0.0
 11
978.182501379
 21
541.5
 31
0.0
  0
LINE
  8
0
  6
LTYPE1
 62
     2
 10
957.182501379
 20
537.5
 30
0.0
 11
999.182501379
 21
537.5
 31
0.0
  0
LINE
  8
0
  6
LTYPE1
 62
     2
 10
957.182501379
 20
525.5
 30
0.0
 11
999.182501379
 21
525.5
 31
0.0
  0
LINE
  8
0
  6
CONTINUOUS
 62
     1
 10
999.182501379
 20
537.5
 30
0.0
 11
1025.0
 21
537.5
 31
0.0
  0
LINE
  8
0
  6
CONTINUOUS
 62
     1
 10
999.182501379
 20
525.5
 30
0.0
 11
1025.0
 21
525.5
 31
0.0
  0
LINE
  8
0
  6
CONTINUOUS
 62
     1
 10
1315.322294753
 20
707.762575811
 30
0.0
 11
1302.567368687
 21
660.160543685
 31
0.0
  0
LINE
  8
0
  6
CONTINUOUS
 62
     1
 10
1306.449654363
 20
674.649431079
 30
0.0
 11
1332.722836839
 21
667.609553052
 31
0.0
  0
LINE
  8
7
  6
CONTINUOUS
 62
     2
 10
1313.917646349
 20
724.929835768
 30
0.0
 11
1277.117646349
 21
806.929835768
 31
0.0
  0
LINE
  8
7
  6
CONTINUOUS
 62
     2
 10
1313.917646349
 20
724.929835768
 30
0.0
 11
1312.324070101
 21
734.802044981
 31
0.0
  0
LINE
  8
7
  6
CONTINUOUS
 62
     2
 10
1313.917646349
 20
724.929835768
 30
0.0
 11
1307.601464229
 21
732.682631614
 31
0.0
  0
TEXT
  8
7
  6
CONTINUOUS
 62
     2
 10
1288.623822488
 20
690.329880312
 30
0.0
 40
15.0
  1
約１５゜
 50
82.5
 41
0.9
 51
0.0
  7
KANJI34
  0
LINE
  8
0
  6
LTYPE4
 62
     2
 10
1278.0
 20
681.5
 30
0.0
 11
1514.0
 21
681.5
 31
0.0
  0
LINE
  8
0
  6
CONTINUOUS
 62
     2
 10
1301.704445042
 20
728.202353195
 30
0.0
 11
1295.69169234
 21
729.813465426
 31
0.0
  0
LINE
  8
0
  6
CONTINUOUS
 62
     2
 10
1301.487247298
 20
728.260551155
 30
0.0
 11
1295.487247298
 21
717.86824631
 31
0.0
  0
LINE
  8
0
  6
CONTINUOUS
 62
     2
 10
1301.487247298
 20
728.260551155
 30
0.0
 11
1301.487247298
 21
716.260551155
 31
0.0
  0
ARC
  8
0
  6
CONTINUOUS
 62
     2
 10
1476.0
 20
681.5
 30
0.0
 40
180.66889605
 50
165.0
 51
180.0
  0
LINE
  8
0
  6
CONTINUOUS
 62
     2
 10
1295.33110395
 20
681.5
 30
0.0
 11
1298.436932491
 21
693.091109915
 31
0.0
  0
LINE
  8
0
  6
CONTINUOUS
 62
     2
 10
1295.33110395
 20
681.5
 30
0.0
 11
1292.225275409
 21
693.091109915
 31
0.0
  0
LINE
  8
0
  6
LTYPE4
 62
     2
 10
1301.0
 20
728.391108675
 30
0.0
 11
1483.163497148
 21
679.580546724
 31
0.0
  0
LINE
  8
0
  6
LTYPE3
 62
     2
 10
1301.031178551
 20
668.336735944
 30
0.0
 11
1357.054876475
 21
653.325231328
 31
0.0
  0
LINE
  8
0
  6
CONTINUOUS
 62
     1
 10
1302.567368687
 20
660.160543685
 30
0.0
 11
1328.840551162
 21
653.120665658
 31
0.0
  0
LINE
  8
0
  6
LTYPE3
 62
     2
 10
1318.4623077
 20
679.29874929
 30
0.0
 11
1363.860821535
 21
667.13425417
 31
0.0
  0
LINE
  8
0
  6
CONTINUOUS
 62
     1
 10
1360.878961221
 20
673.006094517
 30
0.0
 11
1322.241928169
 21
683.358856321
 31
0.0
  0
LINE
  8
0
  6
CONTINUOUS
 62
     1
 10
1319.34415069
 20
684.135313457
 30
0.0
 11
1316.108912626
 21
672.061240628
 31
0.0
  0
LINE
  8
0
  6
CONTINUOUS
 62
     1
 10
1333.551057783
 20
670.700515696
 30
0.0
 11
1328.012330218
 21
650.029703014
 31
0.0
  0
ARC
  8
0
  6
CONTINUOUS
 62
     1
 10
1335.482909435
 20
670.182877606
 30
0.0
 40
2.0
 50
75.0
 51
165.0
  0
LINE
  8
0
  6
LTYPE3
 62
     2
 10
1339.399603458
 20
643.458553332
 30
0.0
 11
1346.750064339
 21
670.890846798
 31
0.0
  0
LINE
  8
0
  6
CONTINUOUS
 62
     1
 10
1327.0715573
 20
682.064761096
 30
0.0
 11
1323.810437332
 21
669.894095685
 31
0.0
  0
LINE
  8
0
  6
CONTINUOUS
 62
     1
 10
1322.241928169
 20
683.358856321
 30
0.0
 11
1319.006690105
 21
671.284783493
 31
0.0
  0
LINE
  8
0
  6
CONTINUOUS
 62
     1
 10
1336.000547526
 20
672.114729259
 30
0.0
 11
1356.671360208
 21
666.576001694
 31
0.0
  0
LINE
  8
0
  6
CONTINUOUS
 62
     1
 10
1316.108912626
 20
672.061240628
 30
0.0
 11
1312.22662695
 21
657.572353234
 31
0.0
  0
LINE
  8
0
  6
CONTINUOUS
 62
     1
 10
1319.709782622
 20
693.613647344
 30
0.0
 11
1319.34415069
 21
684.135313457
 31
0.0
  0
LINE
  8
0
  6
LTYPE4
 62
     2
 10
1324.433594693
 20
695.401970447
 30
0.0
 11
1337.374546948
 21
743.698261762
 31
0.0
  0
ARC
  8
0
  6
LTYPE1
 62
     1
 10
1331.111126057
 20
720.322856765
 30
0.0
 40
16.0
 50
255.0
 51
129.340912304
  0
ARC
  8
0
  6
CONTINUOUS
 62
     1
 10
1331.111126057
 20
720.322856765
 30
0.0
 40
16.0
 50
129.340912304
 51
200.659087696
  0
LINE
  8
0
  6
CONTINUOUS
 62
     1
 10
1322.596768035
 20
704.001653255
 30
0.0
 11
1319.806375205
 21
693.58776544
 31
0.0
  0
LINE
  8
0
  6
LTYPE3
 62
     2
 10
1313.184524248
 20
704.420751635
 30
0.0
 11
1331.730300112
 21
699.451425969
 31
0.0
  0
LINE
  8
0
  6
LTYPE1
 62
     2
 10
1324.818671407
 20
710.362057877
 30
0.0
 11
1331.580152191
 21
708.550324562
 31
0.0
  0
LINE
  8
0
  6
LTYPE1
 62
     2
 10
1331.580152191
 20
708.550324562
 30
0.0
 11
1329.630921258
 21
701.275695683
 31
0.0
  0
ARC
  8
0
  6
LTYPE1
 62
     1
 10
1331.111126057
 20
720.322856765
 30
0.0
 40
16.0
 50
200.659087696
 51
255.0
  0
LINE
  8
0
  6
LTYPE1
 62
     1
 10
1315.637730465
 20
708.939797912
 30
0.0
 11
1315.322294753
 21
707.762575811
 31
0.0
  0
LINE
  8
0
  6
LTYPE1
 62
     1
 10
1323.365137075
 20
706.869245551
 30
0.0
 11
1322.596768035
 21
704.001653255
 31
0.0
  0
LINE
  8
0
  6
LTYPE1
 62
     1
 10
1315.637730465
 20
708.939797912
 30
0.0
 11
1325.216494909
 21
706.373175715
 31
0.0
  0
CIRCLE
  8
0
  6
CONTINUOUS
 62
     1
 10
1331.111126057
 20
720.322856765
 30
0.0
 40
6.49995
  0
CIRCLE
  8
0
  6
LTYPE1
 62
     2
 10
1331.111126057
 20
720.322856765
 30
0.0
 40
3.2
  0
CIRCLE
  8
0
  6
CONTINUOUS
 62
     1
 10
1331.111126057
 20
720.322856765
 30
0.0
 40
4.0
  0
LINE
  8
0
  6
CONTINUOUS
 62
     1
 10
1333.048168253
 20
713.074584464
 30
0.0
 11
1325.809462156
 21
715.014189917
 31
0.0
  0
LINE
  8
0
  6
CONTINUOUS
 62
     1
 10
1325.809462156
 20
715.014189917
 30
0.0
 11
1323.872419959
 21
722.262462219
 31
0.0
  0
LINE
  8
0
  6
CONTINUOUS
 62
     1
 10
1333.048168253
 20
713.074584464
 30
0.0
 11
1338.349832154
 21
718.383251312
 31
0.0
  0
LINE
  8
0
  6
CONTINUOUS
 62
     1
 10
1329.630921258
 20
701.275695683
 30
0.0
 11
1327.050818902
 21
691.646622602
 31
0.0
  0
LINE
  8
0
  6
CONTINUOUS
 62
     1
 10
1320.289338118
 20
693.458355917
 30
0.0
 11
1327.050818902
 21
691.646622602
 31
0.0
  0
LINE
  8
0
  6
CONTINUOUS
 62
     1
 10
1329.17408386
 20
727.571129067
 30
0.0
 11
1323.872419959
 21
722.262462219
 31
0.0
  0
LINE
  8
0
  6
CONTINUOUS
 62
     1
 10
1336.412789958
 20
725.631523613
 30
0.0
 11
1338.349832154
 21
718.383251312
 31
0.0
  0
LINE
  8
0
  6
CONTINUOUS
 62
     1
 10
1336.412789958
 20
725.631523613
 30
0.0
 11
1329.17408386
 21
727.571129067
 31
0.0
  0
LINE
  8
0
  6
LTYPE1
 62
     2
 10
1330.642099922
 20
732.095388969
 30
0.0
 11
1337.403580706
 21
730.283655653
 31
0.0
  0
LINE
  8
0
  6
LTYPE1
 62
     2
 10
1339.352811639
 20
737.558284533
 30
0.0
 11
1337.403580706
 21
730.283655653
 31
0.0
  0
LINE
  8
0
  6
LTYPE3
 62
     2
 10
1321.219064069
 20
743.678950395
 30
0.0
 11
1342.083061916
 21
738.088459021
 31
0.0
  0
LINE
  8
0
  6
CONTINUOUS
 62
     1
 10
1331.898077468
 20
738.714612637
 30
0.0
 11
1334.688470298
 21
749.128500452
 31
0.0
  0
LINE
  8
0
  6
CONTINUOUS
 62
     1
 10
1323.717737529
 20
739.094794802
 30
0.0
 11
1336.472663595
 21
786.696826929
 31
0.0
  0
LINE
  8
0
  6
LTYPE1
 62
     1
 10
1331.129708428
 20
735.84702034
 30
0.0
 11
1331.898077468
 21
738.714612637
 31
0.0
  0
LINE
  8
0
  6
LTYPE1
 62
     1
 10
1323.402301818
 20
737.917572701
 30
0.0
 11
1332.981066262
 21
735.350950504
 31
0.0
  0
LINE
  8
0
  6
LTYPE1
 62
     2
 10
1332.176141971
 20
737.820511835
 30
0.0
 11
1331.612671341
 21
735.717610818
 31
0.0
  0
LINE
  8
0
  6
CONTINUOUS
 62
     1
 10
1335.171433211
 20
748.999090929
 30
0.0
 11
1341.932913995
 21
747.187357613
 31
0.0
  0
LINE
  8
0
  6
CONTINUOUS
 62
     1
 10
1334.591877716
 20
749.154382356
 30
0.0
 11
1339.014398118
 21
757.545676255
 31
0.0
  0
LINE
  8
0
  6
CONTINUOUS
 62
     1
 10
1341.932913995
 20
747.187357613
 30
0.0
 11
1338.638898324
 21
734.893923767
 31
0.0
  0
LINE
  8
0
  6
CONTINUOUS
 62
     1
 10
1357.094566532
 20
794.112156945
 30
0.0
 11
1346.741804728
 21
755.475123894
 31
0.0
  0
LINE
  8
0
  6
CONTINUOUS
 62
     1
 10
1355.782218313
 20
789.214406712
 30
0.0
 11
1346.741804728
 21
755.475123894
 31
0.0
  0
LINE
  8
0
  6
CONTINUOUS
 62
     1
 10
1341.912175597
 20
756.769219119
 30
0.0
 11
1380.549208648
 21
746.416457315
 31
0.0
  0
LINE
  8
0
  6
LTYPE1
 62
     1
 10
1335.959337559
 20
734.552925115
 30
0.0
 11
1336.274773271
 21
735.730147215
 31
0.0
  0
LINE
  8
0
  6
CONTINUOUS
 62
     1
 10
1315.318852251
 20
711.613431523
 30
0.0
 11
1321.789328379
 21
735.76157718
 31
0.0
  0
LINE
  8
0
  6
CONTINUOUS
 62
     1
 10
1323.987355887
 20
707.25954612
 30
0.0
 11
1320.289338118
 21
693.458355917
 31
0.0
  0
LINE
  8
0
  6
LTYPE1
 62
     2
 10
1324.818671407
 20
710.362057877
 30
0.0
 11
1323.987355887
 21
707.25954612
 31
0.0
  0
LINE
  8
0
  6
CONTINUOUS
 62
     1
 10
1335.171433211
 20
748.999090929
 30
0.0
 11
1331.473415442
 21
735.197900726
 31
0.0
  0
LINE
  8
0
  6
CONTINUOUS
 62
     1
 10
1321.789328379
 20
735.76157718
 30
0.0
 11
1462.463435192
 21
727.573435005
 31
0.0
  0
LINE
  8
0
  6
CONTINUOUS
 62
     1
 10
1315.318852251
 20
711.613431523
 30
0.0
 11
1441.240273494
 21
648.36751725
 31
0.0
  0
LINE
  8
7
  6
CONTINUOUS
 62
     2
 10
1353.783705995
 20
806.929835768
 30
0.0
 11
1201.283705995
 21
806.929835768
 31
0.0
  0
TEXT
  8
7
  6
CONTINUOUS
 62
     2
 10
1210.517091025
 20
810.929835768
 30
0.0
 40
15.0
  1
ＬＳユニット組付位置
 50
0.0
 41
0.9
 51
0.0
  7
KANJI34
  0
LINE
  8
0
  6
LTYPE3
 62
     2
 10
1329.12233613
 20
780.901769884
 30
0.0
 11
1385.146034055
 21
765.890265268
 31
0.0
  0
LINE
  8
0
  6
CONTINUOUS
 62
     1
 10
1332.590377919
 20
772.207939534
 30
0.0
 11
1345.147413661
 21
768.843291948
 31
0.0
  0
LINE
  8
0
  6
CONTINUOUS
 62
     1
 10
1339.014398118
 20
757.545676255
 30
0.0
 11
1342.249636182
 21
769.619749083
 31
0.0
  0
LINE
  8
0
  6
CONTINUOUS
 62
     1
 10
1352.264937401
 20
795.406252171
 30
0.0
 11
1341.912175597
 21
756.769219119
 31
0.0
  0
LINE
  8
0
  6
CONTINUOUS
 62
     1
 10
1336.472663595
 20
786.696826929
 30
0.0
 11
1349.029699337
 21
783.332179342
 31
0.0
  0
LINE
  8
0
  6
LTYPE3
 62
     2
 10
1385.101569779
 20
750.269509111
 30
0.0
 11
1339.703055943
 21
762.43400423
 31
0.0
  0
LINE
  8
0
  6
LTYPE1
 62
     2
 10
1396.0
 20
702.5
 30
0.0
 11
1429.266714218
 21
706.5
 31
0.0
  0
LINE
  8
0
  6
LTYPE3
 62
     2
 10
1348.485316932
 20
791.346145139
 30
0.0
 11
1393.883830767
 21
779.181650019
 31
0.0
  0
LINE
  8
0
  6
CONTINUOUS
 62
     1
 10
1390.901970452
 20
785.053490367
 30
0.0
 11
1352.264937401
 21
795.406252171
 31
0.0
  0
CIRCLE
  8
0
  6
CONTINUOUS
 62
     1
 10
1364.861591703
 20
771.325465215
 30
0.0
 40
9.36
  0
LINE
  8
0
  6
LTYPE3
 62
     2
 10
1368.226239289
 20
783.882500957
 30
0.0
 11
1361.496944116
 21
758.768429473
 31
0.0
  0
CIRCLE
  8
0
  6
CONTINUOUS
 62
     2
 10
1364.861591703
 20
771.325465215
 30
0.0
 40
10.47
  0
LINE
  8
0
  6
CONTINUOUS
 62
     1
 10
1367.363707665
 20
762.890453911
 30
0.0
 11
1379.920743407
 21
759.525806324
 31
0.0
  0
LINE
  8
0
  6
CONTINUOUS
 62
     1
 10
1387.038267147
 20
786.088766547
 30
0.0
 11
1376.685505343
 21
747.451733496
 31
0.0
  0
LINE
  8
0
  6
CONTINUOUS
 62
     1
 10
1371.245993342
 20
777.379341305
 30
0.0
 11
1383.803029084
 21
774.014693719
 31
0.0
  0
LINE
  8
0
  6
CONTINUOUS
 62
     1
 10
1373.787727864
 20
748.228190631
 30
0.0
 11
1377.022965928
 21
760.302263459
 31
0.0
  0
LINE
  8
0
  6
CONTINUOUS
 62
     1
 10
1392.066656155
 20
789.400156585
 30
0.0
 11
1397.862211113
 21
787.847242314
 31
0.0
  0
LINE
  8
0
  6
CONTINUOUS
 62
     1
 10
1376.835718001
 20
732.557521547
 30
0.0
 11
1392.066656155
 21
789.400156585
 31
0.0
  0
LINE
  8
0
  6
CONTINUOUS
 62
     1
 10
1397.862211113
 20
787.847242314
 30
0.0
 11
1382.951983515
 21
732.201515365
 31
0.0
  0
LINE
  8
0
  6
CONTINUOUS
 62
     1
 10
1386.051269384
 20
741.836356043
 30
0.0
 11
1413.09719252
 21
734.58942278
 31
0.0
  0
LINE
  8
0
  6
CONTINUOUS
 62
     1
 10
1383.461672308
 20
732.171848183
 30
0.0
 11
1386.051269384
 21
741.836356043
 31
0.0
  0
LINE
  8
0
  6
CONTINUOUS
 62
     1
 10
1349.361513714
 20
630.022395247
 30
0.0
 11
1355.157068671
 21
628.469480977
 31
0.0
  0
LINE
  8
0
  6
LTYPE3
 62
     2
 10
1355.078560547
 20
638.222113261
 30
0.0
 11
1309.680046711
 21
650.386608381
 31
0.0
  0
LINE
  8
0
  6
CONTINUOUS
 62
     1
 10
1360.878961221
 20
673.006094517
 30
0.0
 11
1350.526199416
 21
634.369061466
 31
0.0
  0
LINE
  8
0
  6
CONTINUOUS
 62
     1
 10
1350.526199416
 20
634.369061466
 30
0.0
 11
1350.622791999
 21
634.343179561
 31
0.0
  0
LINE
  8
0
  6
CONTINUOUS
 62
     1
 10
1311.889166365
 20
644.72182327
 30
0.0
 11
1350.526199416
 21
634.369061466
 31
0.0
  0
LINE
  8
0
  6
CONTINUOUS
 62
     1
 10
1329.42654378
 20
647.580213271
 30
0.0
 11
1350.097356463
 21
642.041485706
 31
0.0
  0
ARC
  8
0
  6
CONTINUOUS
 62
     1
 10
1350.614994553
 20
643.973337358
 30
0.0
 40
2.0
 50
255.0
 51
345.0
  0
LINE
  8
0
  6
CONTINUOUS
 62
     1
 10
1358.085573771
 20
664.126511951
 30
0.0
 11
1352.546846205
 21
643.455699268
 31
0.0
  0
ARC
  8
0
  6
CONTINUOUS
 62
     1
 10
1356.153722118
 20
664.644150041
 30
0.0
 40
2.0
 50
345.0
 51
75.0
  0
ARC
  8
0
  6
CONTINUOUS
 62
     1
 10
1329.94418187
 20
649.512064924
 30
0.0
 40
2.0
 50
165.0
 51
255.0
  0
LINE
  8
0
  6
CONTINUOUS
 62
     1
 10
1319.95403356
 20
655.501800873
 30
0.0
 11
1316.718795496
 21
643.427728044
 31
0.0
  0
LINE
  8
0
  6
CONTINUOUS
 62
     1
 10
1315.098522524
 20
656.699303516
 30
0.0
 11
1311.889166365
 21
644.72182327
 31
0.0
  0
LINE
  8
0
  6
CONTINUOUS
 62
     1
 10
1370.06729627
 20
684.115207926
 30
0.0
 11
1355.157068671
 21
628.469480977
 31
0.0
  0
LINE
  8
0
  6
CONTINUOUS
 62
     1
 10
1349.361513714
 20
630.022395247
 30
0.0
 11
1364.592451868
 21
686.865030286
 31
0.0
  0
LINE
  8
0
  6
CONTINUOUS
 62
     1
 10
1367.933936227
 20
674.221548203
 30
0.0
 11
1394.979859363
 21
666.97461494
 31
0.0
  0
LINE
  8
0
  6
CONTINUOUS
 62
     1
 10
1367.933936227
 20
674.221548203
 30
0.0
 11
1370.550259183
 21
683.985798403
 31
0.0
  0
LINE
  8
0
  6
CONTINUOUS
 62
     1
 10
1399.0
 20
610.0
 30
0.0
 11
1399.0
 21
660.139279073
 31
0.0
  0
LINE
  8
0
  6
LTYPE1
 62
     2
 10
1421.0
 20
671.5
 30
0.0
 11
1421.0
 21
691.5
 31
0.0
  0
LINE
  8
0
  6
LTYPE1
 62
     2
 10
1421.0
 20
671.5
 30
0.0
 11
1396.0
 21
671.5
 31
0.0
  0
ARC
  8
0
  6
CONTINUOUS
 62
     1
 10
1395.497497453
 20
668.906466593
 30
0.0
 40
2.0
 50
255.0
 51
345.0
  0
LINE
  8
0
  6
CONTINUOUS
 62
     1
 10
1397.429349106
 20
668.388828502
 30
0.0
 11
1397.897755312
 21
670.136944264
 31
0.0
  0
LINE
  8
0
  6
CONTINUOUS
 62
     1
 10
1396.0
 20
660.5
 30
0.0
 11
1423.0
 21
657.253511655
 31
0.0
  0
LINE
  8
0
  6
LTYPE1
 62
     2
 10
1421.0
 20
691.5
 30
0.0
 11
1396.0
 21
691.5
 31
0.0
  0
LINE
  8
0
  6
LTYPE3
 62
     2
 10
1441.4
 20
728.5
 30
0.0
 11
1417.6
 21
728.5
 31
0.0
  0
LINE
  8
0
  6
CONTINUOUS
 62
     1
 10
1451.020008006
 20
740.5
 30
0.0
 11
1422.0
 21
740.5
 31
0.0
  0
ARC
  8
0
  6
CONTINUOUS
 62
     1
 10
1453.874128287
 20
736.086589937
 30
0.0
 40
2.0
 50
75.0
 51
165.0
  0
ARC
  8
0
  6
CONTINUOUS
 62
     1
 10
1476.0
 20
681.5
 30
0.0
 40
55.0
 50
209.179709638
 51
121.569008097
  0
LINE
  8
0
  6
CONTINUOUS
 62
     1
 10
1450.038704471
 20
729.5
 30
0.0
 11
1451.942276634
 21
736.604228027
 31
0.0
  0
LINE
  8
0
  6
CONTINUOUS
 62
     1
 10
1441.240273494
 20
648.36751725
 30
0.0
 11
1463.939530411
 21
642.28526969
 31
0.0
  0
ARC
  8
0
  6
CONTINUOUS
 62
     1
 10
1429.0
 20
634.5
 30
0.0
 40
9.0
 50
77.327684064
 51
282.116861929
  0
LINE
  8
0
  6
LTYPE3
 62
     2
 10
1441.4
 20
634.5
 30
0.0
 11
1417.6
 21
634.5
 31
0.0
  0
LINE
  8
0
  6
LTYPE3
 62
     2
 10
1429.0
 20
624.65
 30
0.0
 11
1429.0
 21
647.75
 31
0.0
  0
LINE
  8
0
  6
CONTINUOUS
 62
     1
 10
1431.0
 20
622.0
 30
0.0
 11
1431.0
 21
646.377223398
 31
0.0
  0
ARC
  8
0
  6
CONTINUOUS
 62
     1
 10
1429.545138047
 20
645.289562266
 30
0.0
 40
2.0
 50
165.0
 51
255.0
  0
LINE
  8
0
  6
CONTINUOUS
 62
     1
 10
1429.027499957
 20
643.357710613
 30
0.0
 11
1440.0
 21
640.417638087
 31
0.0
  0
LINE
  8
0
  6
CONTINUOUS
 62
     1
 10
1427.613286394
 20
645.807200356
 30
0.0
 11
1429.54059125
 21
653.0
 31
0.0
  0
LINE
  8
0
  6
CONTINUOUS
 62
     1
 10
1454.391766377
 20
738.018441589
 30
0.0
 11
1464.0
 21
735.443923149
 31
0.0
  0
LINE
  8
0
  6
LTYPE2
 62
     2
 10
1463.004464167
 20
633.0
 30
0.0
 11
1487.882308775
 21
725.84538006
 31
0.0
  0
LINE
  8
0
  6
CONTINUOUS
 62
     1
 10
1463.939530411
 20
642.28526969
 30
0.0
 11
1485.16269211
 21
721.491187446
 31
0.0
  0
LINE
  8
0
  6
CONTINUOUS
 62
     1
 10
1466.83730789
 20
641.508812554
 30
0.0
 11
1488.060469589
 21
720.71473031
 31
0.0
  0
LINE
  8
0
  6
CONTINUOUS
 62
     1
 10
1488.060469589
 20
720.71473031
 30
0.0
 11
1520.418984769
 21
712.044292299
 31
0.0
  0
LINE
  8
0
  6
CONTINUOUS
 62
     1
 10
1462.463435192
 20
727.573435005
 30
0.0
 11
1485.16269211
 21
721.491187446
 31
0.0
  0
LINE
  8
0
  6
CONTINUOUS
 62
     1
 10
1514.0
 20
688.088315007
 30
0.0
 11
1520.418984769
 21
712.044292299
 31
0.0
  0
LINE
  8
0
  6
CONTINUOUS
 62
     1
 10
1466.83730789
 20
641.508812554
 30
0.0
 11
1499.195823071
 21
632.838374544
 31
0.0
  0
LINE
  8
0
  6
CONTINUOUS
 62
     1
 10
1499.195823071
 20
632.838374544
 30
0.0
 11
1506.392304845
 21
659.696010162
 31
0.0
  0
LINE
  8
0
  6
CONTINUOUS
 62
     1
 10
1535.0
 20
657.974953509
 30
0.0
 11
1535.0
 21
627.5
 31
0.0
  0
ARC
  8
0
  6
CONTINUOUS
 62
     1
 10
1523.0
 20
634.5
 30
0.0
 40
9.0
 50
257.883138071
 51
102.672315936
  0
LINE
  8
0
  6
LTYPE3
 62
     2
 10
1510.6
 20
634.5
 30
0.0
 11
1534.4
 21
634.5
 31
0.0
  0
LINE
  8
0
  6
LTYPE3
 62
     2
 10
1510.6
 20
634.5
 30
0.0
 11
1534.4
 21
634.5
 31
0.0
  0
LINE
  8
0
  6
LTYPE3
 62
     2
 10
1523.0
 20
624.65
 30
0.0
 11
1523.0
 21
647.75
 31
0.0
  0
LINE
  8
0
  6
CONTINUOUS
 62
     1
 10
1521.0
 20
622.0
 30
0.0
 11
1521.0
 21
650.780340307
 31
0.0
  0
TEXT
  8
0
  6
CONTINUOUS
 62
     2
 10
1044.133
 20
1527.99
 30
1.617
 40
16.17
  1
注意：サーマルリレー等の選定は、上記の値で選定して下さい。
 50
0.0
 41
0.9
 51
0.0
  7
KANJI43
  0
TEXT
  8
0
  6
CONTINUOUS
 62
     2
 10
1724.92
 20
421.464
 30
1.8
 40
21.0
  1
　　前後の推奨余裕寸法は、各々１０ｍｍです。
 50
0.0
 41
0.857142857
 51
0.0
  7
KANJI40
  0
LINE
  8
0
  6
CONTINUOUS
 62
     2
 10
1034.893
 20
1523.37
 30
0.0
 11
1498.92
 21
1523.37
 31
0.0
  0
TEXT
  8
0
  6
CONTINUOUS
 62
     3
 10
188.466667
 20
911.766683
 30
1.5
 40
15.0
  1
手動軸□８
 50
0.0
 41
0.9
 51
0.0
  7
KANJI44
  0
LINE
  8
0
  6
CONTINUOUS
 62
     1
 10
957.182501379
 20
542.5
 30
0.0
 11
965.842755417
 21
547.5
 31
0.0
  0
LINE
  8
0
  6
CONTINUOUS
 62
     1
 10
965.832501379
 20
515.5
 30
0.0
 11
965.832501379
 21
547.5
 31
0.0
  0
LINE
  8
0
  6
CONTINUOUS
 62
     1
 10
965.832501379
 20
547.5
 30
0.0
 11
990.532501379
 21
547.5
 31
0.0
  0
LINE
  8
0
  6
CONTINUOUS
 62
     1
 10
957.182501379
 20
520.5
 30
0.0
 11
957.182501379
 21
542.5
 31
0.0
  0
LINE
  8
0
  6
CONTINUOUS
 62
     1
 10
990.532501379
 20
515.5
 30
0.0
 11
990.532501379
 21
547.5
 31
0.0
  0
LINE
  8
0
  6
CONTINUOUS
 62
     1
 10
999.182501379
 20
542.5
 30
0.0
 11
990.522247342
 21
547.5
 31
0.0
  0
LINE
  8
0
  6
CONTINUOUS
 62
     1
 10
999.182501379
 20
520.5
 30
0.0
 11
999.182501379
 21
542.5
 31
0.0
  0
LINE
  8
0
  6
CONTINUOUS
 62
     1
 10
965.832501379
 20
515.5
 30
0.0
 11
990.532501379
 21
515.5
 31
0.0
  0
LINE
  8
0
  6
CONTINUOUS
 62
     1
 10
999.182501379
 20
520.5
 30
0.0
 11
990.522247342
 21
515.5
 31
0.0
  0
LINE
  8
0
  6
CONTINUOUS
 62
     1
 10
957.182501379
 20
520.5
 30
0.0
 11
965.842755417
 21
515.5
 31
0.0
  0
LINE
  8
0
  6
CONTINUOUS
 62
     1
 10
940.682501379
 20
227.6
 30
0.0
 11
949.342755417
 21
232.6
 31
0.0
  0
LINE
  8
0
  6
CONTINUOUS
 62
     1
 10
949.332501379
 20
200.6
 30
0.0
 11
949.332501379
 21
232.6
 31
0.0
  0
LINE
  8
0
  6
CONTINUOUS
 62
     1
 10
949.332501379
 20
232.6
 30
0.0
 11
974.032501379
 21
232.6
 31
0.0
  0
LINE
  8
0
  6
CONTINUOUS
 62
     1
 10
940.682501379
 20
205.6
 30
0.0
 11
940.682501379
 21
227.6
 31
0.0
  0
LINE
  8
0
  6
CONTINUOUS
 62
     1
 10
974.032501379
 20
200.6
 30
0.0
 11
974.032501379
 21
232.6
 31
0.0
  0
LINE
  8
0
  6
CONTINUOUS
 62
     1
 10
982.682501379
 20
227.6
 30
0.0
 11
974.022247342
 21
232.6
 31
0.0
  0
LINE
  8
0
  6
CONTINUOUS
 62
     1
 10
982.682501379
 20
205.6
 30
0.0
 11
982.682501379
 21
227.6
 31
0.0
  0
LINE
  8
0
  6
CONTINUOUS
 62
     1
 10
949.332501379
 20
200.6
 30
0.0
 11
974.032501379
 21
200.6
 31
0.0
  0
LINE
  8
0
  6
CONTINUOUS
 62
     1
 10
982.682501379
 20
205.6
 30
0.0
 11
974.022247342
 21
200.6
 31
0.0
  0
LINE
  8
0
  6
CONTINUOUS
 62
     1
 10
940.682501379
 20
205.6
 30
0.0
 11
949.342755417
 21
200.6
 31
0.0
  0
LINE
  8
0
  6
CONTINUOUS
 62
     1
 10
982.682501379
 20
224.6
 30
0.0
 11
1008.991923417
 21
224.6
 31
0.0
  0
LINE
  8
0
  6
CONTINUOUS
 62
     1
 10
1008.991923417
 20
208.6
 30
0.0
 11
982.682501379
 21
208.6
 31
0.0
  0
LINE
  8
0
  6
CONTINUOUS
 62
     1
 10
940.682501379
 20
208.6
 30
0.0
 11
881.182501379
 21
208.6
 31
0.0
  0
LINE
  8
0
  6
CONTINUOUS
 62
     1
 10
881.182501379
 20
224.6
 30
0.0
 11
940.682501379
 21
224.6
 31
0.0
  0
LINE
  8
0
  6
CONTINUOUS
 62
     1
 10
1003.12
 20
1485.24
 30
0.0
 11
1780.72
 21
1485.24
 31
0.0
  0
LINE
  8
0
  6
CONTINUOUS
 62
     1
 10
1003.12
 20
1451.64
 30
0.0
 11
1780.72
 21
1451.64
 31
0.0
  0
TEXT
  8
0
  6
CONTINUOUS
 62
     2
 10
1051.12
 20
1461.24
 30
1.536
 40
15.36
  1
形
 50
0.0
 41
0.9
 51
0.0
  7
KANJI45
  0
TEXT
  8
0
  6
CONTINUOUS
 62
     2
 10
1144.72
 20
1461.24
 30
1.536
 40
15.36
  1
式
 50
0.0
 41
0.9
 51
0.0
  7
KANJI45
  0
TEXT
  8
0
  6
CONTINUOUS
 62
     2
 10
1217.2
 20
1460.28
 30
1.44
 40
14.4
  1
ストローク
 50
0.0
 41
0.9
 51
0.0
  7
KANJI46
  0
TEXT
  8
0
  6
CONTINUOUS
 62
     2
 10
1309.36
 20
1459.32
 30
0.0
 40
14.4
  1
ｍｉｎ　
 50
0.0
 41
0.9
 51
0.0
  7
KANJI47
  0
TEXT
  8
0
  6
CONTINUOUS
 62
     2
 10
1405.36
 20
1459.32
 30
0.0
 40
14.4
  1
ｍｉｎ　
 50
0.0
 41
0.9
 51
0.0
  7
KANJI47
  0
TEXT
  8
0
  6
CONTINUOUS
 62
     2
 10
1597.36
 20
1459.32
 30
0.0
 40
14.4
  1
ｍｉｎ　
 50
0.0
 41
0.9
 51
0.0
  7
KANJI47
  0
TEXT
  8
0
  6
CONTINUOUS
 62
     2
 10
1358.32
 20
1460.28
 30
1.68
 40
16.8
  1
ＡＬ
 50
0.0
 41
0.9
 51
0.0
  7
KANJI48
  0
TEXT
  8
0
  6
CONTINUOUS
 62
     2
 10
1454.32
 20
1460.28
 30
1.68
 40
16.8
  1
Ｌ
 50
0.0
 41
0.9
 51
0.0
  7
KANJI48
  0
TEXT
  8
0
  6
CONTINUOUS
 62
     2
 10
1535.92
 20
1460.28
 30
1.68
 40
16.8
  1
Ｃ
 50
0.0
 41
0.9
 51
0.0
  7
KANJI48
  0
TEXT
  8
0
  6
CONTINUOUS
 62
     2
 10
1646.32
 20
1460.28
 30
1.68
 40
16.8
  1
Ｐ
 50
0.0
 41
0.9
 51
0.0
  7
KANJI48
  0
TEXT
  8
0
  6
CONTINUOUS
 62
     2
 10
1745.08
 20
1459.92
 30
0.0
 40
12.96
  1
（ｋｇ）
 50
0.0
 41
0.740740741
 51
0.0
  7
KANJI49
  0
TEXT
  8
0
  6
CONTINUOUS
 62
     2
 10
1687.48
 20
1459.68
 30
1.44
 40
16.8
  1
概算重量
 50
0.0
 41
0.857142857
 51
0.0
  7
KANJI50
  0
LINE
  8
0
  6
CONTINUOUS
 62
     2
 10
1003.12
 20
1418.04
 30
0.0
 11
1780.72
 21
1418.04
 31
0.0
  0
LINE
  8
0
  6
CONTINUOUS
 62
     2
 10
1003.12
 20
1384.44
 30
0.0
 11
1780.72
 21
1384.44
 31
0.0
  0
TEXT
  8
0
  6
CONTINUOUS
 62
     2
 10
1226.32
 20
1426.08
 30
1.44
 40
14.4
  1
　２００
 50
0.0
 41
0.9
 51
0.0
  7
KANJI46
  0
TEXT
  8
0
  6
CONTINUOUS
 62
     2
 10
1226.32
 20
1392.48
 30
1.44
 40
14.4
  1
　３００
 50
0.0
 41
0.9
 51
0.0
  7
KANJI46
  0
TEXT
  8
0
  6
CONTINUOUS
 62
     2
 10
1226.32
 20
1258.08
 30
1.44
 40
14.4
  1
　７００
 50
0.0
 41
0.9
 51
0.0
  7
KANJI46
  0
LINE
  8
0
  6
CONTINUOUS
 62
     2
 10
1003.12
 20
1216.44
 30
0.0
 11
1780.72
 21
1216.44
 31
0.0
  0
LINE
  8
0
  6
CONTINUOUS
 62
     2
 10
1003.12
 20
1317.24
 30
0.0
 11
1780.72
 21
1317.24
 31
0.0
  0
LINE
  8
0
  6
CONTINUOUS
 62
     2
 10
1003.12
 20
1350.84
 30
0.0
 11
1780.72
 21
1350.84
 31
0.0
  0
LINE
  8
0
  6
CONTINUOUS
 62
     2
 10
1003.12
 20
1250.04
 30
0.0
 11
1780.72
 21
1250.04
 31
0.0
  0
LINE
  8
0
  6
CONTINUOUS
 62
     2
 10
1003.12
 20
1283.64
 30
0.0
 11
1780.72
 21
1283.64
 31
0.0
  0
TEXT
  8
0
  6
CONTINUOUS
 62
     2
 10
1226.32
 20
1325.28
 30
1.44
 40
14.4
  1
　５００
 50
0.0
 41
0.9
 51
0.0
  7
KANJI46
  0
TEXT
  8
0
  6
CONTINUOUS
 62
     2
 10
1226.32
 20
1358.88
 30
1.44
 40
14.4
  1
　４００
 50
0.0
 41
0.9
 51
0.0
  7
KANJI46
  0
TEXT
  8
0
  6
CONTINUOUS
 62
     2
 10
1226.32
 20
1291.68
 30
1.44
 40
14.4
  1
　６００
 50
0.0
 41
0.9
 51
0.0
  7
KANJI46
  0
TEXT
  8
0
  6
CONTINUOUS
 62
     2
 10
1226.32
 20
1224.48
 30
1.44
 40
14.4
  1
　８００
 50
0.0
 41
0.9
 51
0.0
  7
KANJI46
  0
TEXT
  8
0
  6
CONTINUOUS
 62
     2
 10
1610.32
 20
1426.08
 30
1.44
 40
14.4
  1
　　４５
 50
0.0
 41
0.9
 51
0.0
  7
KANJI46
  0
TEXT
  8
0
  6
CONTINUOUS
 62
     2
 10
1610.32
 20
1392.48
 30
1.44
 40
14.4
  1
　　４５
 50
0.0
 41
0.9
 51
0.0
  7
KANJI46
  0
TEXT
  8
0
  6
CONTINUOUS
 62
     2
 10
1514.32
 20
1426.08
 30
1.44
 40
14.4
  1
　３７８
 50
0.0
 41
0.9
 51
0.0
  7
KANJI46
  0
TEXT
  8
0
  6
CONTINUOUS
 62
     2
 10
1514.32
 20
1392.48
 30
1.44
 40
14.4
  1
　４７８
 50
0.0
 41
0.9
 51
0.0
  7
KANJI46
  0
TEXT
  8
0
  6
CONTINUOUS
 62
     2
 10
1514.32
 20
1358.88
 30
1.44
 40
14.4
  1
　５７８
 50
0.0
 41
0.9
 51
0.0
  7
KANJI46
  0
TEXT
  8
0
  6
CONTINUOUS
 62
     2
 10
1514.32
 20
1325.28
 30
1.44
 40
14.4
  1
　６７８
 50
0.0
 41
0.9
 51
0.0
  7
KANJI46
  0
TEXT
  8
0
  6
CONTINUOUS
 62
     2
 10
1514.32
 20
1291.68
 30
1.44
 40
14.4
  1
　８１８
 50
0.0
 41
0.9
 51
0.0
  7
KANJI46
  0
TEXT
  8
0
  6
CONTINUOUS
 62
     2
 10
1514.32
 20
1258.08
 30
1.44
 40
14.4
  1
　９１８
 50
0.0
 41
0.9
 51
0.0
  7
KANJI46
  0
TEXT
  8
0
  6
CONTINUOUS
 62
     2
 10
1514.32
 20
1224.48
 30
1.44
 40
14.4
  1
１０１８
 50
0.0
 41
0.9
 51
0.0
  7
KANJI46
  0
TEXT
  8
0
  6
CONTINUOUS
 62
     2
 10
1418.32
 20
1426.08
 30
1.44
 40
14.4
  1
　４７３
 50
0.0
 41
0.9
 51
0.0
  7
KANJI46
  0
TEXT
  8
0
  6
CONTINUOUS
 62
     2
 10
1418.32
 20
1392.48
 30
1.44
 40
14.4
  1
　５７３
 50
0.0
 41
0.9
 51
0.0
  7
KANJI46
  0
TEXT
  8
0
  6
CONTINUOUS
 62
     2
 10
1322.32
 20
1426.08
 30
1.44
 40
14.4
  1
　６１９
 50
0.0
 41
0.9
 51
0.0
  7
KANJI46
  0
TEXT
  8
0
  6
CONTINUOUS
 62
     2
 10
1322.32
 20
1392.48
 30
1.44
 40
14.4
  1
　７１９
 50
0.0
 41
0.9
 51
0.0
  7
KANJI46
  0
TEXT
  8
0
  6
CONTINUOUS
 62
     2
 10
1610.32
 20
1358.88
 30
1.44
 40
14.4
  1
　　８５
 50
0.0
 41
0.9
 51
0.0
  7
KANJI46
  0
TEXT
  8
0
  6
CONTINUOUS
 62
     2
 10
1610.32
 20
1325.28
 30
1.44
 40
14.4
  1
　１１２
 50
0.0
 41
0.9
 51
0.0
  7
KANJI46
  0
TEXT
  8
0
  6
CONTINUOUS
 62
     2
 10
1610.32
 20
1291.68
 30
1.44
 40
14.4
  1
　１２８
 50
0.0
 41
0.9
 51
0.0
  7
KANJI46
  0
TEXT
  8
0
  6
CONTINUOUS
 62
     2
 10
1610.32
 20
1258.08
 30
1.44
 40
14.4
  1
　１４８
 50
0.0
 41
0.9
 51
0.0
  7
KANJI46
  0
TEXT
  8
0
  6
CONTINUOUS
 62
     2
 10
1610.32
 20
1224.48
 30
1.44
 40
14.4
  1
　１６８
 50
0.0
 41
0.9
 51
0.0
  7
KANJI46
  0
TEXT
  8
0
  6
CONTINUOUS
 62
     2
 10
1418.32
 20
1358.88
 30
1.44
 40
14.4
  1
　７１３
 50
0.0
 41
0.9
 51
0.0
  7
KANJI46
  0
TEXT
  8
0
  6
CONTINUOUS
 62
     2
 10
1418.32
 20
1325.28
 30
1.44
 40
14.4
  1
　８４０
 50
0.0
 41
0.9
 51
0.0
  7
KANJI46
  0
TEXT
  8
0
  6
CONTINUOUS
 62
     2
 10
1418.32
 20
1291.68
 30
1.44
 40
14.4
  1
　９９６
 50
0.0
 41
0.9
 51
0.0
  7
KANJI46
  0
TEXT
  8
0
  6
CONTINUOUS
 62
     2
 10
1418.32
 20
1258.08
 30
1.44
 40
14.4
  1
１１１６
 50
0.0
 41
0.9
 51
0.0
  7
KANJI46
  0
TEXT
  8
0
  6
CONTINUOUS
 62
     2
 10
1418.32
 20
1224.48
 30
1.44
 40
14.4
  1
１２３６
 50
0.0
 41
0.9
 51
0.0
  7
KANJI46
  0
TEXT
  8
0
  6
CONTINUOUS
 62
     2
 10
1322.32
 20
1358.88
 30
1.44
 40
14.4
  1
　８５９
 50
0.0
 41
0.9
 51
0.0
  7
KANJI46
  0
TEXT
  8
0
  6
CONTINUOUS
 62
     2
 10
1322.32
 20
1325.28
 30
1.44
 40
14.4
  1
　９８６
 50
0.0
 41
0.9
 51
0.0
  7
KANJI46
  0
TEXT
  8
0
  6
CONTINUOUS
 62
     2
 10
1322.32
 20
1291.68
 30
1.44
 40
14.4
  1
１１４２
 50
0.0
 41
0.9
 51
0.0
  7
KANJI46
  0
TEXT
  8
0
  6
CONTINUOUS
 62
     2
 10
1322.32
 20
1258.08
 30
1.44
 40
14.4
  1
１２６２
 50
0.0
 41
0.9
 51
0.0
  7
KANJI46
  0
TEXT
  8
0
  6
CONTINUOUS
 62
     2
 10
1322.32
 20
1224.48
 30
1.44
 40
14.4
  1
１３８２
 50
0.0
 41
0.9
 51
0.0
  7
KANJI46
  0
LINE
  8
0
  6
CONTINUOUS
 62
     2
 10
1003.12
 20
1182.84
 30
0.0
 11
1780.72
 21
1182.84
 31
0.0
  0
LINE
  8
0
  6
CONTINUOUS
 62
     2
 10
1003.12
 20
1149.24
 30
0.0
 11
1780.72
 21
1149.24
 31
0.0
  0
TEXT
  8
0
  6
CONTINUOUS
 62
     2
 10
1226.32
 20
1190.88
 30
1.44
 40
14.4
  1
　９００
 50
0.0
 41
0.9
 51
0.0
  7
KANJI46
  0
TEXT
  8
0
  6
CONTINUOUS
 62
     2
 10
1226.32
 20
1157.28
 30
1.44
 40
14.4
  1
１０００
 50
0.0
 41
0.9
 51
0.0
  7
KANJI46
  0
TEXT
  8
0
  6
CONTINUOUS
 62
     2
 10
1322.32
 20
1190.88
 30
1.44
 40
14.4
  1
１５１２
 50
0.0
 41
0.9
 51
0.0
  7
KANJI46
  0
TEXT
  8
0
  6
CONTINUOUS
 62
     2
 10
1322.32
 20
1157.28
 30
1.44
 40
14.4
  1
１６４５
 50
0.0
 41
0.9
 51
0.0
  7
KANJI46
  0
TEXT
  8
0
  6
CONTINUOUS
 62
     2
 10
1418.32
 20
1190.88
 30
1.44
 40
14.4
  1
１３６６
 50
0.0
 41
0.9
 51
0.0
  7
KANJI46
  0
TEXT
  8
0
  6
CONTINUOUS
 62
     2
 10
1418.32
 20
1157.28
 30
1.44
 40
14.4
  1
１４９９
 50
0.0
 41
0.9
 51
0.0
  7
KANJI46
  0
TEXT
  8
0
  6
CONTINUOUS
 62
     2
 10
1514.32
 20
1190.88
 30
1.44
 40
14.4
  1
１１１８
 50
0.0
 41
0.9
 51
0.0
  7
KANJI46
  0
TEXT
  8
0
  6
CONTINUOUS
 62
     2
 10
1514.32
 20
1157.28
 30
1.44
 40
14.4
  1
１２１８
 50
0.0
 41
0.9
 51
0.0
  7
KANJI46
  0
TEXT
  8
0
  6
CONTINUOUS
 62
     2
 10
1610.32
 20
1190.88
 30
1.44
 40
14.4
  1
　１９８
 50
0.0
 41
0.9
 51
0.0
  7
KANJI46
  0
TEXT
  8
0
  6
CONTINUOUS
 62
     2
 10
1610.32
 20
1157.28
 30
1.44
 40
14.4
  1
　２３１
 50
0.0
 41
0.9
 51
0.0
  7
KANJI46
  0
LINE
  8
0
  6
CONTINUOUS
 62
     1
 10
1003.12
 20
1048.44
 30
0.0
 11
1780.72
 21
1048.44
 31
0.0
  0
LINE
  8
0
  6
CONTINUOUS
 62
     2
 10
1003.12
 20
1115.64
 30
0.0
 11
1780.72
 21
1115.64
 31
0.0
  0
LINE
  8
0
  6
CONTINUOUS
 62
     2
 10
1003.12
 20
1082.04
 30
0.0
 11
1780.72
 21
1082.04
 31
0.0
  0
LINE
  8
0
  6
CONTINUOUS
 62
     1
 10
1003.12
 20
1485.24
 30
0.0
 11
1003.12
 21
1048.44
 31
0.0
  0
LINE
  8
0
  6
CONTINUOUS
 62
     1
 10
1204.72
 20
1485.24
 30
0.0
 11
1204.72
 21
1048.44
 31
0.0
  0
LINE
  8
0
  6
CONTINUOUS
 62
     2
 10
1300.72
 20
1485.24
 30
0.0
 11
1300.72
 21
1048.44
 31
0.0
  0
LINE
  8
0
  6
CONTINUOUS
 62
     2
 10
1396.72
 20
1485.24
 30
0.0
 11
1396.72
 21
1048.44
 31
0.0
  0
LINE
  8
0
  6
CONTINUOUS
 62
     2
 10
1492.72
 20
1485.24
 30
0.0
 11
1492.72
 21
1048.44
 31
0.0
  0
LINE
  8
0
  6
CONTINUOUS
 62
     2
 10
1588.72
 20
1485.24
 30
0.0
 11
1588.72
 21
1048.44
 31
0.0
  0
LINE
  8
0
  6
CONTINUOUS
 62
     2
 10
1684.72
 20
1485.24
 30
0.0
 11
1684.72
 21
1048.44
 31
0.0
  0
LINE
  8
0
  6
CONTINUOUS
 62
     1
 10
1780.72
 20
1485.24
 30
0.0
 11
1780.72
 21
1048.44
 31
0.0
  0
TEXT
  8
0
  6
CONTINUOUS
 62
     2
 10
1226.32
 20
1123.68
 30
1.44
 40
14.4
  1
１１００
 50
0.0
 41
0.9
 51
0.0
  7
KANJI46
  0
TEXT
  8
0
  6
CONTINUOUS
 62
     2
 10
1226.32
 20
1090.08
 30
1.44
 40
14.4
  1
１２００
 50
0.0
 41
0.9
 51
0.0
  7
KANJI46
  0
TEXT
  8
0
  6
CONTINUOUS
 62
     2
 10
1610.32
 20
1123.68
 30
1.44
 40
14.4
  1
　２４５
 50
0.0
 41
0.9
 51
0.0
  7
KANJI46
  0
TEXT
  8
0
  6
CONTINUOUS
 62
     2
 10
1610.32
 20
1090.08
 30
1.44
 40
14.4
  1
　２６８
 50
0.0
 41
0.9
 51
0.0
  7
KANJI46
  0
TEXT
  8
0
  6
CONTINUOUS
 62
     2
 10
1514.32
 20
1123.68
 30
1.44
 40
14.4
  1
１３１８
 50
0.0
 41
0.9
 51
0.0
  7
KANJI46
  0
TEXT
  8
0
  6
CONTINUOUS
 62
     2
 10
1514.32
 20
1090.08
 30
1.44
 40
14.4
  1
１４１８
 50
0.0
 41
0.9
 51
0.0
  7
KANJI46
  0
TEXT
  8
0
  6
CONTINUOUS
 62
     2
 10
1418.32
 20
1123.68
 30
1.44
 40
14.4
  1
１６１３
 50
0.0
 41
0.9
 51
0.0
  7
KANJI46
  0
TEXT
  8
0
  6
CONTINUOUS
 62
     2
 10
1322.32
 20
1123.68
 30
1.44
 40
14.4
  1
１７５９
 50
0.0
 41
0.9
 51
0.0
  7
KANJI46
  0
TEXT
  8
0
  6
CONTINUOUS
 62
     2
 10
1418.32
 20
1090.08
 30
1.44
 40
14.4
  1
１７３６
 50
0.0
 41
0.9
 51
0.0
  7
KANJI46
  0
TEXT
  8
0
  6
CONTINUOUS
 62
     2
 10
1322.32
 20
1090.08
 30
1.44
 40
14.4
  1
１８８２
 50
0.0
 41
0.9
 51
0.0
  7
KANJI46
  0
TEXT
  8
0
  6
CONTINUOUS
 62
     2
 10
1706.32
 20
1426.08
 30
1.44
 40
14.4
  1
　４８
 50
0.0
 41
0.9
 51
0.0
  7
KANJI46
  0
TEXT
  8
0
  6
CONTINUOUS
 62
     2
 10
1706.32
 20
1392.48
 30
1.44
 40
14.4
  1
　５１
 50
0.0
 41
0.9
 51
0.0
  7
KANJI46
  0
TEXT
  8
0
  6
CONTINUOUS
 62
     2
 10
1706.32
 20
1358.88
 30
1.44
 40
14.4
  1
　５３
 50
0.0
 41
0.9
 51
0.0
  7
KANJI46
  0
TEXT
  8
0
  6
CONTINUOUS
 62
     2
 10
1706.32
 20
1325.28
 30
1.44
 40
14.4
  1
　５５
 50
0.0
 41
0.9
 51
0.0
  7
KANJI46
  0
TEXT
  8
0
  6
CONTINUOUS
 62
     2
 10
1706.32
 20
1291.68
 30
1.44
 40
14.4
  1
　５７
 50
0.0
 41
0.9
 51
0.0
  7
KANJI46
  0
TEXT
  8
0
  6
CONTINUOUS
 62
     2
 10
1706.32
 20
1258.08
 30
1.44
 40
14.4
  1
　５９
 50
0.0
 41
0.9
 51
0.0
  7
KANJI46
  0
TEXT
  8
0
  6
CONTINUOUS
 62
     2
 10
1706.32
 20
1224.48
 30
1.44
 40
14.4
  1
　６１
 50
0.0
 41
0.9
 51
0.0
  7
KANJI46
  0
TEXT
  8
0
  6
CONTINUOUS
 62
     2
 10
1706.32
 20
1190.88
 30
1.44
 40
14.4
  1
　６３
 50
0.0
 41
0.9
 51
0.0
  7
KANJI46
  0
TEXT
  8
0
  6
CONTINUOUS
 62
     2
 10
1706.32
 20
1157.28
 30
1.44
 40
14.4
  1
　６６
 50
0.0
 41
0.9
 51
0.0
  7
KANJI46
  0
TEXT
  8
0
  6
CONTINUOUS
 62
     2
 10
1706.32
 20
1123.68
 30
1.44
 40
14.4
  1
　６８
 50
0.0
 41
0.9
 51
0.0
  7
KANJI46
  0
TEXT
  8
0
  6
CONTINUOUS
 62
     2
 10
1706.32
 20
1090.08
 30
1.44
 40
14.4
  1
　７０
 50
0.0
 41
0.9
 51
0.0
  7
KANJI46
  0
TEXT
  8
0
  6
CONTINUOUS
 62
     2
 10
1018.72
 20
1425.72
 30
0.96
 40
14.4
  1
ＭＤ１－　　２ＪＬ
 50
0.0
 41
0.833333333
 51
0.0
  7
KANJI51
  0
TEXT
  8
0
  6
CONTINUOUS
 62
     2
 10
1018.72
 20
1392.12
 30
0.96
 40
14.4
  1
ＭＤ１－　　３ＪＬ
 50
0.0
 41
0.833333333
 51
0.0
  7
KANJI51
  0
TEXT
  8
0
  6
CONTINUOUS
 62
     2
 10
1018.72
 20
1358.52
 30
0.96
 40
14.4
  1
ＭＤ１－　　４ＪＬ
 50
0.0
 41
0.833333333
 51
0.0
  7
KANJI51
  0
TEXT
  8
0
  6
CONTINUOUS
 62
     2
 10
1018.72
 20
1324.92
 30
0.96
 40
14.4
  1
ＭＤ１－　　５ＪＬ
 50
0.0
 41
0.833333333
 51
0.0
  7
KANJI51
  0
TEXT
  8
0
  6
CONTINUOUS
 62
     2
 10
1018.72
 20
1291.32
 30
0.96
 40
14.4
  1
ＭＤ１－　　６ＪＬ
 50
0.0
 41
0.833333333
 51
0.0
  7
KANJI51
  0
TEXT
  8
0
  6
CONTINUOUS
 62
     2
 10
1018.72
 20
1257.72
 30
0.96
 40
14.4
  1
ＭＤ１－　　７ＪＬ
 50
0.0
 41
0.833333333
 51
0.0
  7
KANJI51
  0
TEXT
  8
0
  6
CONTINUOUS
 62
     2
 10
1018.72
 20
1224.12
 30
0.96
 40
14.4
  1
ＭＤ１－　　８ＪＬ
 50
0.0
 41
0.833333333
 51
0.0
  7
KANJI51
  0
TEXT
  8
0
  6
CONTINUOUS
 62
     2
 10
1018.72
 20
1190.52
 30
0.96
 40
14.4
  1
ＭＤ１－　　９ＪＬ
 50
0.0
 41
0.833333333
 51
0.0
  7
KANJI51
  0
TEXT
  8
0
  6
CONTINUOUS
 62
     2
 10
1018.72
 20
1156.92
 30
0.96
 40
14.4
  1
ＭＤ１－　１０ＪＬ
 50
0.0
 41
0.833333333
 51
0.0
  7
KANJI51
  0
TEXT
  8
0
  6
CONTINUOUS
 62
     2
 10
1018.72
 20
1123.32
 30
0.96
 40
14.4
  1
ＭＤ１－　１１ＪＬ
 50
0.0
 41
0.833333333
 51
0.0
  7
KANJI51
  0
TEXT
  8
0
  6
CONTINUOUS
 62
     2
 10
1018.72
 20
1089.72
 30
0.96
 40
14.4
  1
ＭＤ１－　１２ＪＬ
 50
0.0
 41
0.833333333
 51
0.0
  7
KANJI51
  0
TEXT
  8
0
  6
CONTINUOUS
 62
     2
 10
1018.72
 20
1056.12
 30
0.96
 40
14.4
  1
ＭＤ１－　　　ＪＬ
 50
0.0
 41
0.833333333
 51
0.0
  7
KANJI51
  0
LINE
  8
0
  6
CONTINUOUS
 62
     2
 10
443.6
 20
235.45
 30
0.0
 11
443.6
 21
179.2
 31
0.0
  0
LINE
  8
0
  6
CONTINUOUS
 62
     2
 10
284.4
 20
221.2
 30
0.0
 11
443.6
 21
221.2
 31
0.0
  0
LINE
  8
0
  6
CONTINUOUS
 62
     2
 10
443.6
 20
221.2
 30
0.0
 11
435.87259339
 21
223.270552361
 31
0.0
  0
LINE
  8
0
  6
CONTINUOUS
 62
     2
 10
443.6
 20
221.2
 30
0.0
 11
435.87259339
 21
219.129447639
 31
0.0
  0
TEXT
  8
0
  6
CONTINUOUS
 62
     3
 10
325.7
 20
223.2
 30
0.0
 40
15.0
  1
常用ストローク
 50
0.0
 41
0.9
 51
0.0
  7
KANJI34
  0
LINE
  8
0
  6
CONTINUOUS
 62
     2
 10
1365.267964258
 20
781.764647586
 30
0.0
 11
1334.199982657
 21
855.926926248
 31
0.0
  0
LINE
  8
0
  6
CONTINUOUS
 62
     2
 10
1365.267964258
 20
781.764647586
 30
0.0
 11
1359.148588842
 21
789.673708498
 31
0.0
  0
LINE
  8
0
  6
CONTINUOUS
 62
     2
 10
1365.267964258
 20
781.764647586
 30
0.0
 11
1363.922960148
 21
791.673782965
 31
0.0
  0
LINE
  8
0
  6
LTYPE1
 62
     2
 10
1399.0
 20
702.860720927
 30
0.0
 11
1399.0
 21
738.366754132
 31
0.0
  0
LINE
  8
0
  6
CONTINUOUS
 62
     1
 10
1399.0
 20
738.366754132
 30
0.0
 11
1399.0
 21
794.797465586
 31
0.0
  0
ARC
  8
0
  6
CONTINUOUS
 62
     1
 10
1476.0
 20
816.5
 30
0.0
 40
80.0
 50
111.801409486
 51
0.0
  0
POLYLINE
  8
0
  6
CONTINUOUS
 62
     1
 66
     1
  0
VERTEX
  8
0
  6
CONTINUOUS
 62
     1
 10
1433.788059223
 20
764.042868694
 30
0.0
  0
VERTEX
  8
0
  6
CONTINUOUS
 62
     1
 10
1426.288059223
 20
764.042868694
 30
0.0
  0
VERTEX
  8
0
  6
CONTINUOUS
 62
     1
 10
1422.538059223
 20
770.538059223
 30
0.0
  0
VERTEX
  8
0
  6
CONTINUOUS
 62
     1
 10
1426.288059223
 20
777.033249751
 30
0.0
  0
SEQEND
  0
LINE
  8
0
  6
CONTINUOUS
 62
     1
 10
1435.728418262
 20
767.403669136
 30
0.0
 11
1433.788059223
 21
764.042868694
 31
0.0
  0
LINE
  8
0
  6
LTYPE1
 62
     1
 10
1433.788059223
 20
777.033249751
 30
0.0
 11
1437.538059223
 21
770.538059223
 31
0.0
  0
LINE
  8
0
  6
LTYPE1
 62
     1
 10
1437.538059223
 20
770.538059223
 30
0.0
 11
1435.728418262
 21
767.403669136
 31
0.0
  0
LINE
  8
0
  6
LTYPE1
 62
     1
 10
1426.288059223
 20
777.033249751
 30
0.0
 11
1433.788059223
 21
777.033249751
 31
0.0
  0
ARC
  8
0
  6
LTYPE2
 62
     2
 10
1476.0
 20
816.5
 30
0.0
 40
65.0
 50
215.457574482
 51
234.68637224
  0
LINE
  8
0
  6
LTYPE2
 62
     2
 10
1436.903669136
 20
777.403669136
 30
0.0
 11
1424.0
 21
764.5
 31
0.0
  0
CIRCLE
  8
0
  6
CONTINUOUS
 62
     1
 10
1476.0
 20
816.5
 30
0.0
 40
63.5
  0
LINE
  8
0
  6
LTYPE1
 62
     2
 10
1417.0
 20
705.025046491
 30
0.0
 11
1417.0
 21
730.119700758
 31
0.0
  0
ARC
  8
0
  6
CONTINUOUS
 62
     1
 10
1429.0
 20
728.5
 30
0.0
 40
9.0
 50
4.497151615
 51
170.164489269
  0
ARC
  8
0
  6
CONTINUOUS
 62
     1
 10
1422.0
 20
735.5
 30
0.0
 40
5.0
 50
90.0
 51
179.999825149
  0
LINE
  8
0
  6
CONTINUOUS
 62
     1
 10
1417.0
 20
730.219700758
 30
0.0
 11
1417.0
 21
735.500015259
 31
0.0
  0
LINE
  8
0
  6
CONTINUOUS
 62
     1
 10
1396.0
 20
660.5
 30
0.0
 11
1396.0
 21
666.9706228
 31
0.0
  0
LINE
  8
0
  6
LTYPE1
 62
     2
 10
1396.0
 20
666.9706228
 30
0.0
 11
1396.0
 21
702.5
 31
0.0
  0
LINE
  8
0
  6
CONTINUOUS
 62
     1
 10
1414.51140878
 20
732.139943104
 30
0.0
 11
1414.042999876
 21
730.391817276
 31
0.0
  0
ARC
  8
0
  6
CONTINUOUS
 62
     1
 10
1412.57955443
 20
732.657571128
 30
0.0
 40
2.0
 50
345.000298567
 51
75.0
  0
LINE
  8
0
  6
CONTINUOUS
 62
     1
 10
1417.0
 20
657.974953509
 30
0.0
 11
1417.0
 21
627.5
 31
0.0
  0
LINE
  8
2
  6
CONTINUOUS
 62
     2
 10
1334.199982657
 20
855.926926248
 30
0.0
 11
1235.267964258
 21
855.926926248
 31
0.0
  0
LINE
  8
0
  6
CONTINUOUS
 62
     2
 10
1476.0
 20
545.838059223
 30
0.0
 11
1476.0
 21
543.988059223
 31
0.0
  0
LINE
  8
0
  6
CONTINUOUS
 62
     2
 10
1476.0
 20
549.988059223
 30
0.0
 11
1464.408890085
 21
553.093887764
 31
0.0
  0
LINE
  8
0
  6
CONTINUOUS
 62
     2
 10
1476.0
 20
549.988059223
 30
0.0
 11
1464.408890085
 21
546.882230682
 31
0.0
  0
LINE
  8
0
  6
CONTINUOUS
 62
     2
 10
1476.0
 20
549.988059223
 30
0.0
 11
1301.0
 21
549.988059223
 31
0.0
  0
LINE
  8
0
  6
CONTINUOUS
 62
     2
 10
1301.0
 20
549.988059223
 30
0.0
 11
1312.591109915
 21
546.882230682
 31
0.0
  0
LINE
  8
0
  6
CONTINUOUS
 62
     2
 10
1301.0
 20
549.988059223
 30
0.0
 11
1312.591109915
 21
553.093887764
 31
0.0
  0
LINE
  8
0
  6
CONTINUOUS
 62
     2
 10
1301.0
 20
649.688059223
 30
0.0
 11
1301.0
 21
543.988059223
 31
0.0
  0
TEXT
  8
0
  6
CONTINUOUS
 62
     3
 10
1341.75
 20
557.138059223
 30
0.0
 40
18.0
  1
１７５
 50
0.0
 41
0.9
 51
0.0
  7
KANJI28
  0
LINE
  8
0
  6
CONTINUOUS
 62
     1
 10
408.0
 20
896.5
 30
0.0
 11
400.0
 21
896.5
 31
0.0
  0
LINE
  8
0
  6
CONTINUOUS
 62
     1
 10
400.0
 20
604.0
 30
0.0
 11
400.0
 21
896.5
 31
0.0
  0
LINE
  8
0
  6
CONTINUOUS
 62
     2
 10
400.0
 20
900.0
 30
0.0
 11
400.0
 21
1037.3
 31
0.0
  0
LINE
  8
0
  6
CONTINUOUS
 62
     1
 10
366.0
 20
891.5
 30
0.0
 11
400.0
 21
891.5
 31
0.0
  0
LINE
  8
0
  6
CONTINUOUS
 62
     1
 10
363.0
 20
865.5
 30
0.0
 11
363.0
 21
888.5
 31
0.0
  0
ARC
  8
0
  6
CONTINUOUS
 62
     1
 10
366.0
 20
888.5
 30
0.0
 40
3.0
 50
90.0
 51
180.0
  0
LINE
  8
0
  6
CONTINUOUS
 62
     1
 10
392.0
 20
891.5
 30
0.0
 11
387.9
 21
861.9
 31
0.0
  0
LINE
  8
0
  6
CONTINUOUS
 62
     1
 10
376.0
 20
897.5
 30
0.0
 11
385.2
 21
897.5
 31
0.0
  0
CIRCLE
  8
0
  6
CONTINUOUS
 62
     1
 10
376.0
 20
911.5
 30
0.0
 40
12.5
  0
LINE
  8
0
  6
CONTINUOUS
 62
     1
 10
376.0
 20
899.0
 30
0.0
 11
385.2
 21
897.5
 31
0.0
  0
ARC
  8
0
  6
CONTINUOUS
 62
     1
 10
376.0
 20
911.5
 30
0.0
 40
20.5
 50
300.423432294
 51
0.0
  0
ARC
  8
0
  6
CONTINUOUS
 62
     1
 10
386.947984073
 20
892.773488336
 30
0.0
 40
1.2
 50
118.393405187
 51
188.554293104
  0
LINE
  8
0
  6
CONTINUOUS
 62
     1
 10
376.0
 20
897.5
 30
0.0
 11
366.8
 21
897.5
 31
0.0
  0
LINE
  8
0
  6
CONTINUOUS
 62
     1
 10
376.0
 20
899.0
 30
0.0
 11
366.8
 21
897.5
 31
0.0
  0
ARC
  8
0
  6
CONTINUOUS
 62
     1
 10
365.052015927
 20
892.773488336
 30
0.0
 40
1.2
 50
351.445706896
 51
61.606594813
  0
ARC
  8
0
  6
CONTINUOUS
 62
     1
 10
376.0
 20
911.5
 30
0.0
 40
20.5
 50
0.0
 51
239.707348078
  0
LINE
  8
0
  6
CONTINUOUS
 62
     1
 10
366.114285714
 20
891.5
 30
0.0
 11
366.8
 21
897.5
 31
0.0
  0
LINE
  8
0
  6
CONTINUOUS
 62
     1
 10
385.885714286
 20
891.5
 30
0.0
 11
385.2
 21
897.5
 31
0.0
  0
LINE
  8
0
  6
LTYPE3
 62
     2
 10
350.475
 20
911.5
 30
0.0
 11
400.0
 21
911.5
 31
0.0
  0
LINE
  8
0
  6
LTYPE3
 62
     2
 10
376.0
 20
880.9
 30
0.0
 11
376.0
 21
934.9
 31
0.0
  0
LINE
  8
0
  6
CONTINUOUS
 62
     1
 10
329.0
 20
859.5
 30
0.0
 11
385.0
 21
859.5
 31
0.0
  0
ARC
  8
0
  6
CONTINUOUS
 62
     1
 10
385.0
 20
862.5
 30
0.0
 40
3.0
 50
270.0
 51
0.0
  0
LINE
  8
0
  6
CONTINUOUS
 62
     1
 10
388.0
 20
789.5
 30
0.0
 11
388.0
 21
861.9
 31
0.0
  0
ARC
  8
0
  6
CONTINUOUS
 62
     1
 10
385.0
 20
789.5
 30
0.0
 40
3.0
 50
270.0
 51
360.0
  0
LINE
  8
0
  6
CONTINUOUS
 62
     1
 10
329.0
 20
786.5
 30
0.0
 11
385.0
 21
786.5
 31
0.0
  0
LINE
  8
0
  6
CONTINUOUS
 62
     1
 10
930.182501379
 20
208.6
 30
0.0
 11
930.182501379
 21
191.0
 31
0.0
  0
TEXT
  8
2
  6
CONTINUOUS
 62
     2
 10
1228.178145063
 20
859.926926248
 30
0.0
 40
18.0
  1
２－ＰＦ１／２
 50
0.0
 41
0.9
 51
0.0
  7
KANJI28
  0
LINE
  8
0
  6
CONTINUOUS
 62
     2
 10
1862.92
 20
890.7
 30
0.0
 11
2387.92
 21
890.7
 31
0.0
  0
LINE
  8
0
  6
CONTINUOUS
 62
     2
 10
1862.92
 20
848.7
 30
0.0
 11
2387.92
 21
848.7
 31
0.0
  0
LINE
  8
0
  6
CONTINUOUS
 62
     2
 10
1910.92
 20
1226.7
 30
0.0
 11
1910.92
 21
890.7
 31
0.0
  0
TEXT
  8
0
  6
CONTINUOUS
 62
     2
 10
1895.92
 20
859.5
 30
79.962857143
 40
22.8
  1
付属品
 50
0.0
 41
0.9
 51
0.0
  7
KANJI52
  0
TEXT
  8
0
  6
CONTINUOUS
 62
     2
 10
1895.92
 20
817.5
 30
180.445714286
 40
22.8
  1
台数
 50
0.0
 41
0.9
 51
0.0
  7
KANJI53
  0
LINE
  8
0
  6
CONTINUOUS
 62
     1
 10
1862.92
 20
1622.7
 30
0.0
 11
2387.92
 21
1622.7
 31
0.0
  0
TEXT
  8
0
  6
CONTINUOUS
 62
     2
 10
1937.92
 20
1578.9
 30
17.09964
 40
27.0
  1
マイティシリンダ仕様
 50
0.0
 41
0.9
 51
0.0
  7
KANJI54
  0
LINE
  8
0
  6
CONTINUOUS
 62
     2
 10
1910.92
 20
932.7
 30
0.0
 11
2387.92
 21
932.7
 31
0.0
  0
LINE
  8
0
  6
CONTINUOUS
 62
     2
 10
1910.92
 20
1058.7
 30
0.0
 11
2387.92
 21
1058.7
 31
0.0
  0
LINE
  8
0
  6
CONTINUOUS
 62
     2
 10
1910.92
 20
1100.7
 30
0.0
 11
2387.92
 21
1100.7
 31
0.0
  0
LINE
  8
0
  6
CONTINUOUS
 62
     2
 10
1862.92
 20
1310.7
 30
0.0
 11
2387.92
 21
1310.7
 31
0.0
  0
LINE
  8
0
  6
CONTINUOUS
 62
     2
 10
1862.92
 20
1268.7
 30
0.0
 11
2387.92
 21
1268.7
 31
0.0
  0
LINE
  8
0
  6
CONTINUOUS
 62
     2
 10
1862.92
 20
1226.7
 30
0.0
 11
2387.92
 21
1226.7
 31
0.0
  0
LINE
  8
0
  6
CONTINUOUS
 62
     2
 10
1910.92
 20
1142.7
 30
0.0
 11
2387.92
 21
1142.7
 31
0.0
  0
LINE
  8
0
  6
CONTINUOUS
 62
     2
 10
1910.92
 20
1184.7
 30
0.0
 11
2387.92
 21
1184.7
 31
0.0
  0
LINE
  8
0
  6
CONTINUOUS
 62
     2
 10
1862.92
 20
1520.7
 30
0.0
 11
2387.92
 21
1520.7
 31
0.0
  0
LINE
  8
0
  6
CONTINUOUS
 62
     2
 10
1862.92
 20
1478.7
 30
0.0
 11
2387.92
 21
1478.7
 31
0.0
  0
LINE
  8
0
  6
CONTINUOUS
 62
     2
 10
1862.92
 20
1436.7
 30
0.0
 11
2387.92
 21
1436.7
 31
0.0
  0
LINE
  8
0
  6
CONTINUOUS
 62
     2
 10
1862.92
 20
1394.7
 30
0.0
 11
2387.92
 21
1394.7
 31
0.0
  0
LINE
  8
0
  6
CONTINUOUS
 62
     2
 10
1862.92
 20
1352.7
 30
0.0
 11
2387.92
 21
1352.7
 31
0.0
  0
LINE
  8
0
  6
CONTINUOUS
 62
     2
 10
1862.92
 20
1562.7
 30
0.0
 11
2387.92
 21
1562.7
 31
0.0
  0
TEXT
  8
0
  6
CONTINUOUS
 62
     2
 10
1937.92
 20
1153.5
 30
33.439782857
 40
22.8
  1
電源電圧
 50
0.0
 41
0.9
 51
0.0
  7
KANJI55
  0
TEXT
  8
0
  6
CONTINUOUS
 62
     2
 10
1937.92
 20
1111.5
 30
60.42
 40
22.8
  1
周波数
 50
0.0
 41
0.9
 51
0.0
  7
KANJI56
  0
TEXT
  8
0
  6
CONTINUOUS
 62
     2
 10
1937.92
 20
1069.5
 30
141.36
 40
22.8
  1
電流
 50
0.0
 41
0.9
 51
0.0
  7
KANJI57
  0
TEXT
  8
0
  6
CONTINUOUS
 62
     2
 10
1937.92
 20
1027.5
 30
60.42
 40
22.8
  1
絶縁級
 50
0.0
 41
0.9
 51
0.0
  7
KANJI56
  0
TEXT
  8
0
  6
CONTINUOUS
 62
     2
 10
1895.92
 20
1531.5
 30
180.445714286
 40
22.8
  1
形式
 50
0.0
 41
0.9
 51
0.0
  7
KANJI53
  0
TEXT
  8
0
  6
CONTINUOUS
 62
     2
 10
1895.92
 20
1489.5
 30
180.445714286
 40
22.8
  1
推力
 50
0.0
 41
0.9
 51
0.0
  7
KANJI53
  0
TEXT
  8
0
  6
CONTINUOUS
 62
     2
 10
1895.92
 20
1447.5
 30
29.721428571
 40
22.8
  1
ストローク
 50
0.0
 41
0.9
 51
0.0
  7
KANJI58
  0
TEXT
  8
0
  6
CONTINUOUS
 62
     2
 10
1895.92
 20
1321.5
 30
180.445714286
 40
22.8
  1
構造
 50
0.0
 41
0.9
 51
0.0
  7
KANJI53
  0
TEXT
  8
0
  6
CONTINUOUS
 62
     2
 10
1895.92
 20
1279.5
 30
12.973851429
 40
22.8
  1
過負荷安全装置
 50
0.0
 41
0.9
 51
0.0
  7
KANJI59
  0
TEXT
  8
0
  6
CONTINUOUS
 62
     2
 10
1895.92
 20
1237.5
 30
79.962857143
 40
22.8
  1
塗装色
 50
0.0
 41
0.9
 51
0.0
  7
KANJI52
  0
TEXT
  8
0
  6
CONTINUOUS
 62
     2
 10
1871.92
 20
1363.5
 30
1.954285714
 40
22.8
  1
ピストンロッド回転トルク
 50
0.0
 41
0.9
 51
0.0
  7
KANJI60
  0
LINE
  8
0
  6
CONTINUOUS
 62
     2
 10
1862.92
 20
1016.7
 30
0.0
 11
2387.92
 21
1016.7
 31
0.0
  0
LINE
  8
0
  6
CONTINUOUS
 62
     2
 10
1910.92
 20
974.7
 30
0.0
 11
2387.92
 21
974.7
 31
0.0
  0
TEXT
  8
0
  6
CONTINUOUS
 62
     2
 10
1887.37
 20
1220.7
 30
13.2
 40
21.0
  1
モ　トル仕様
 50
0.0
 41
0.9
 51
0.0
  7
KANJI61
  0
TEXT
  8
0
  6
CONTINUOUS
 62
     2
 10
1887.37
 20
998.7
 30
1.2
 40
21.0
  1
ブレ　キ
 50
0.0
 41
0.9
 51
0.0
  7
KANJI62
  0
LINE
  8
0
  6
CONTINUOUS
 62
     2
 10
1885.72
 20
948.9
 30
0.0
 11
1885.72
 21
936.3
 31
0.0
  0
TEXT
  8
0
  6
CONTINUOUS
 62
     2
 10
2197.42
 20
1280.7
 30
9.0
 40
21.0
  1
推力リミッタ
 50
0.0
 41
0.9
 51
0.0
  7
KANJI63
  0
TEXT
  8
0
  6
CONTINUOUS
 62
     2
 10
2254.42
 20
1028.7
 30
1.8
 40
18.0
  1
Ｅ
 50
0.0
 41
0.9
 51
0.0
  7
KANJI64
  0
TEXT
  8
0
  6
CONTINUOUS
 62
     2
 10
2210.92
 20
943.5
 30
12.0
 40
21.0
  1
同時切り
 50
0.0
 41
0.9
 51
0.0
  7
KANJI65
  0
TEXT
  8
0
  6
CONTINUOUS
 62
     2
 10
1937.92
 20
985.5
 30
141.36
 40
22.8
  1
形式
 50
0.0
 41
0.9
 51
0.0
  7
KANJI57
  0
TEXT
  8
0
  6
CONTINUOUS
 62
     2
 10
1937.92
 20
943.5
 30
33.439782857
 40
22.8
  1
操作方式
 50
0.0
 41
0.9
 51
0.0
  7
KANJI55
  0
LINE
  8
0
  6
CONTINUOUS
 62
     2
 10
1885.72
 20
1184.1
 30
0.0
 11
1885.72
 21
1170.3
 31
0.0
  0
TEXT
  8
0
  6
CONTINUOUS
 62
     2
 10
1937.92
 20
1195.5
 30
3.0
 40
22.8
  1
出力　相数　極数
 50
0.0
 41
0.9
 51
0.0
  7
KANJI66
  0
TEXT
  8
0
  6
CONTINUOUS
 62
     2
 10
1895.92
 20
1405.5
 30
12.0
 40
22.8
  1
公称速度
 50
0.0
 41
0.9
 51
0.0
  7
KANJI67
  0
TEXT
  8
0
  6
CONTINUOUS
 62
     2
 10
2019.82
 20
1404.3
 30
0.0
 40
21.0
  1
（５０／６０Ｈｚ）
 50
0.0
 41
0.628571429
 51
0.0
  7
KANJI68
  0
TEXT
  8
0
  6
CONTINUOUS
 62
     2
 10
2140.42
 20
985.95
 30
3.3
 40
20.4
  1
スプリング制動式電磁ブレーキ
 50
0.0
 41
0.705882353
 51
0.0
  7
KANJI69
  0
TEXT
  8
0
  6
CONTINUOUS
 62
     2
 10
2359.42
 20
1153.5
 30
0.216
 40
18.0
  1
Ｖ
 50
0.0
 41
0.8
 51
0.0
  7
KANJI70
  0
TEXT
  8
0
  6
CONTINUOUS
 62
     2
 10
2348.62
 20
1111.5
 30
0.216
 40
18.0
  1
Ｈｚ
 50
0.0
 41
0.8
 51
0.0
  7
KANJI70
  0
TEXT
  8
0
  6
CONTINUOUS
 62
     2
 10
2359.42
 20
1069.5
 30
0.216
 40
18.0
  1
Ａ
 50
0.0
 41
0.8
 51
0.0
  7
KANJI70
  0
TEXT
  8
0
  6
CONTINUOUS
 62
     2
 10
2280.52
 20
1196.7
 30
1.8
 40
18.0
  1
３φ
 50
0.0
 41
0.9
 51
0.0
  7
KANJI64
  0
TEXT
  8
0
  6
CONTINUOUS
 62
     2
 10
2340.52
 20
1196.7
 30
1.8
 40
18.0
  1
４Ｐ
 50
0.0
 41
0.9
 51
0.0
  7
KANJI64
  0
TEXT
  8
0
  6
CONTINUOUS
 62
     2
 10
2138.92
 20
1238.7
 30
1.2
 40
19.2
  1
マンセル　７．５ＧＹ　５／４．５
 50
0.0
 41
0.71875
 51
0.0
  7
KANJI71
  0
TEXT
  8
0
  6
CONTINUOUS
 62
     2
 10
2138.92
 20
1154.7
 30
1.8
 40
18.0
  1
　　　　　　　／　　　
 50
0.0
 41
0.9
 51
0.0
  7
KANJI64
  0
TEXT
  8
0
  6
CONTINUOUS
 62
     2
 10
2138.92
 20
1112.7
 30
1.8
 40
18.0
  1
　　　　５０／　６０
 50
0.0
 41
0.9
 51
0.0
  7
KANJI64
  0
TEXT
  8
0
  6
CONTINUOUS
 62
     2
 10
2138.92
 20
1070.7
 30
1.8
 40
18.0
  1
　　　　　　　／　　　
 50
0.0
 41
0.9
 51
0.0
  7
KANJI64
  0
TEXT
  8
0
  6
CONTINUOUS
 62
     2
 10
2343.52
 20
1449.9
 30
0.1536
 40
19.2
  1
ｍｍ
 50
0.0
 41
0.8
 51
0.0
  7
KANJI72
  0
TEXT
  8
0
  6
CONTINUOUS
 62
     2
 10
2304.52
 20
1406.7
 30
0.0
 40
21.0
  1
ｍｍ／ｓｅｃ
 50
0.0
 41
0.571428571
 51
0.0
  7
KANJI73
  0
TEXT
  8
0
  6
CONTINUOUS
 62
     2
 10
2144.92
 20
1196.7
 30
1.8
 40
18.0
  1
　０．６ＫＷ
 50
0.0
 41
0.9
 51
0.0
  7
KANJI64
  0
TEXT
  8
0
  6
CONTINUOUS
 62
     2
 10
2197.42
 20
1322.7
 30
9.0
 40
21.0
  1
全閉屋外形
 50
0.0
 41
0.9
 51
0.0
  7
KANJI63
  0
TEXT
  8
0
  6
CONTINUOUS
 62
     2
 10
2182.72
 20
1490.7
 30
1.8
 40
18.0
  1
９．８ＫＮ（１ｔｏｎ）
 50
0.0
 41
0.9
 51
0.0
  7
KANJI64
  0
TEXT
  8
0
  6
CONTINUOUS
 62
     2
 10
2152.42
 20
1530.6
 30
1.2
 40
18.0
  1
ＭＤ１－　ＪＬ
 50
0.0
 41
0.833333333
 51
0.0
  7
KANJI74
  0
TEXT
  8
0
  6
CONTINUOUS
 62
     2
 10
2141.92
 20
1406.7
 30
1.8
 40
18.0
  1
　９．４／１１．２
 50
0.0
 41
0.9
 51
0.0
  7
KANJI64
  0
LINE
  8
0
  6
CONTINUOUS
 62
     1
 10
1862.92
 20
764.7
 30
0.0
 11
2387.92
 21
764.7
 31
0.0
  0
LINE
  8
0
  6
CONTINUOUS
 62
     2
 10
1862.92
 20
806.7
 30
0.0
 11
2387.92
 21
806.7
 31
0.0
  0
TEXT
  8
0
  6
CONTINUOUS
 62
     2
 10
2332.72
 20
776.88
 30
0.0
 40
21.0
  1
ｋｇ
 50
0.0
 41
0.9
 51
0.0
  7
KANJI75
  0
TEXT
  8
0
  6
CONTINUOUS
 62
     2
 10
1894.72
 20
775.5
 30
6.0
 40
21.0
  1
概算重量（１台当り）
 50
0.0
 41
0.857142857
 51
0.0
  7
KANJI76
  0
TEXT
  8
0
  6
CONTINUOUS
 62
     2
 10
2153.92
 20
1364.7
 30
0.0
 40
18.0
  1
２７Ｎ・ｍ（２．８ｋｇ・ｍ）
 50
0.0
 41
0.833333333
 51
0.0
  7
KANJI77
  0
LINE
  8
0
  6
CONTINUOUS
 62
     1
 10
1862.92
 20
1622.7
 30
0.0
 11
1862.92
 21
764.7
 31
0.0
  0
LINE
  8
0
  6
CONTINUOUS
 62
     2
 10
2138.92
 20
1562.7
 30
0.0
 11
2138.92
 21
764.7
 31
0.0
  0
LINE
  8
0
  6
CONTINUOUS
 62
     1
 10
2387.92
 20
1622.7
 30
0.0
 11
2387.92
 21
764.7
 31
0.0
  0
TEXT
  8
0
  6
CONTINUOUS
 62
     2
 10
1637.5200334
 20
120.899994
 30
1.8
 40
21.0
  1
０７．１０．０２
 50
0.0
 41
0.571428571
 51
0.0
  7
KANJI78
  0
ENDSEC
  0
EOF
