  0
SECTION
  2
HEADER
  9
$ACADVER
  1
AC1009
  9
$DWGCODEPAGE
  3
dos932
  9
$EXTMIN
 10
0.0
 20
0.0
 30
0.0
  9
$EXTMAX
 10
2520.0
 20
1782.0
 30
0.0
  9
$LIMMIN
 10
0.0
 20
0.0
  9
$LIMMAX
 10
2520.0
 20
1782.0
  9
$LTSCALE
 40
1.0
  9
$PDMODE
 70
     0
  0
ENDSEC
  0
SECTION
  2
TABLES
  0
TABLE
  2
VPORT
 70
     1
  0
VPORT
  2
*ACTIVE
 70
     0
 10
0.0
 20
0.0
 11
1.0
 21
1.0
 12
1260.0
 22
891.0
 13
0.0
 23
0.0
 14
10.0
 24
10.0
 15
10.0
 25
10.0
 16
0.0
 26
0.0
 36
1.0
 17
0.0
 27
0.0
 37
0.0
 40
2520.0
 41
1.414141414
 42
50.0
 43
0.0
 44
0.0
 50
0.0
 51
0.0
 71
     0
 72
  1000
 73
     1
 74
     3
 75
     0
 76
     0
 77
     0
 78
     0
  0
ENDTAB
  0
TABLE
  2
LTYPE
 70
     6
  0
LTYPE
  2
CONTINUOUS
 70
    64
  3
Solid line
 72
    65
 73
     0
 40
0.0
  0
LTYPE
  2
LTYPE1
 70
    64
  3
HIDDEN
 72
    65
 73
     2
 40
18.0
 49
10.8
 49
-7.2
  0
LTYPE
  2
LTYPE2
 70
    64
  3
CENTER
 72
    65
 73
     4
 40
60.0
 49
42.0
 49
-6.0
 49
6.0
 49
-6.0
  0
LTYPE
  2
LTYPE3
 70
    64
  3
CENTER
 72
    65
 73
     4
 40
90.0
 49
63.0
 49
-9.0
 49
9.0
 49
-9.0
  0
LTYPE
  2
LTYPE4
 70
    64
  3
CENTER
 72
    65
 73
     4
 40
120.0
 49
84.0
 49
-12.0
 49
12.0
 49
-12.0
  0
LTYPE
  2
LTYPE5
 70
    64
  3
CENTER
 72
    65
 73
     4
 40
54.0
 49
37.8
 49
-5.4
 49
5.4
 49
-5.4
  0
ENDTAB
  0
TABLE
  2
LAYER
 70
   128
  0
LAYER
  2
0
 70
     0
 62
     7
  6
CONTINUOUS
  0
LAYER
  2
2
 70
     0
 62
     7
  6
CONTINUOUS
  0
LAYER
  2
3
 70
     0
 62
     7
  6
CONTINUOUS
  0
LAYER
  2
4
 70
     0
 62
     7
  6
CONTINUOUS
  0
LAYER
  2
5
 70
     0
 62
     7
  6
CONTINUOUS
  0
LAYER
  2
6
 70
     0
 62
     7
  6
CONTINUOUS
  0
LAYER
  2
7
 70
     0
 62
     7
  6
CONTINUOUS
  0
LAYER
  2
8
 70
     0
 62
     7
  6
CONTINUOUS
  0
LAYER
  2
9
 70
     0
 62
     7
  6
CONTINUOUS
  0
LAYER
  2
10
 70
     0
 62
     7
  6
CONTINUOUS
  0
LAYER
  2
11
 70
     0
 62
     7
  6
CONTINUOUS
  0
LAYER
  2
12
 70
     0
 62
     7
  6
CONTINUOUS
  0
LAYER
  2
13
 70
     0
 62
     7
  6
CONTINUOUS
  0
LAYER
  2
14
 70
     0
 62
     7
  6
CONTINUOUS
  0
LAYER
  2
15
 70
     0
 62
     7
  6
CONTINUOUS
  0
LAYER
  2
16
 70
     0
 62
     7
  6
CONTINUOUS
  0
LAYER
  2
17
 70
     0
 62
     7
  6
CONTINUOUS
  0
LAYER
  2
18
 70
     0
 62
     7
  6
CONTINUOUS
  0
LAYER
  2
19
 70
     0
 62
     7
  6
CONTINUOUS
  0
LAYER
  2
20
 70
     0
 62
     7
  6
CONTINUOUS
  0
LAYER
  2
21
 70
     0
 62
     7
  6
CONTINUOUS
  0
LAYER
  2
22
 70
     0
 62
     7
  6
CONTINUOUS
  0
LAYER
  2
23
 70
     0
 62
     7
  6
CONTINUOUS
  0
LAYER
  2
24
 70
     0
 62
     7
  6
CONTINUOUS
  0
LAYER
  2
25
 70
     0
 62
     7
  6
CONTINUOUS
  0
LAYER
  2
26
 70
     0
 62
     7
  6
CONTINUOUS
  0
LAYER
  2
27
 70
     0
 62
     7
  6
CONTINUOUS
  0
LAYER
  2
28
 70
     0
 62
     7
  6
CONTINUOUS
  0
LAYER
  2
29
 70
     0
 62
     7
  6
CONTINUOUS
  0
LAYER
  2
30
 70
     0
 62
     7
  6
CONTINUOUS
  0
LAYER
  2
31
 70
     0
 62
     7
  6
CONTINUOUS
  0
LAYER
  2
32
 70
     0
 62
     7
  6
CONTINUOUS
  0
LAYER
  2
33
 70
     0
 62
     7
  6
CONTINUOUS
  0
LAYER
  2
34
 70
     0
 62
     7
  6
CONTINUOUS
  0
LAYER
  2
35
 70
     0
 62
     7
  6
CONTINUOUS
  0
LAYER
  2
36
 70
     0
 62
     7
  6
CONTINUOUS
  0
LAYER
  2
37
 70
     0
 62
     7
  6
CONTINUOUS
  0
LAYER
  2
38
 70
     0
 62
     7
  6
CONTINUOUS
  0
LAYER
  2
39
 70
     0
 62
     7
  6
CONTINUOUS
  0
LAYER
  2
40
 70
     0
 62
     7
  6
CONTINUOUS
  0
LAYER
  2
41
 70
     0
 62
     7
  6
CONTINUOUS
  0
LAYER
  2
42
 70
     0
 62
     7
  6
CONTINUOUS
  0
LAYER
  2
43
 70
     0
 62
     7
  6
CONTINUOUS
  0
LAYER
  2
44
 70
     0
 62
     7
  6
CONTINUOUS
  0
LAYER
  2
45
 70
     0
 62
     7
  6
CONTINUOUS
  0
LAYER
  2
46
 70
     0
 62
     7
  6
CONTINUOUS
  0
LAYER
  2
47
 70
     0
 62
     7
  6
CONTINUOUS
  0
LAYER
  2
48
 70
     0
 62
     7
  6
CONTINUOUS
  0
LAYER
  2
49
 70
     0
 62
     7
  6
CONTINUOUS
  0
LAYER
  2
50
 70
     0
 62
     7
  6
CONTINUOUS
  0
LAYER
  2
51
 70
     0
 62
     7
  6
CONTINUOUS
  0
LAYER
  2
52
 70
     0
 62
     7
  6
CONTINUOUS
  0
LAYER
  2
53
 70
     0
 62
     7
  6
CONTINUOUS
  0
LAYER
  2
54
 70
     0
 62
     7
  6
CONTINUOUS
  0
LAYER
  2
55
 70
     0
 62
     7
  6
CONTINUOUS
  0
LAYER
  2
56
 70
     0
 62
     7
  6
CONTINUOUS
  0
LAYER
  2
57
 70
     0
 62
     7
  6
CONTINUOUS
  0
LAYER
  2
58
 70
     0
 62
     7
  6
CONTINUOUS
  0
LAYER
  2
59
 70
     0
 62
     7
  6
CONTINUOUS
  0
LAYER
  2
60
 70
     0
 62
     7
  6
CONTINUOUS
  0
LAYER
  2
61
 70
     0
 62
     7
  6
CONTINUOUS
  0
LAYER
  2
62
 70
     0
 62
     7
  6
CONTINUOUS
  0
LAYER
  2
63
 70
     0
 62
     7
  6
CONTINUOUS
  0
LAYER
  2
64
 70
     0
 62
     7
  6
CONTINUOUS
  0
LAYER
  2
65
 70
     0
 62
     7
  6
CONTINUOUS
  0
LAYER
  2
66
 70
     0
 62
     7
  6
CONTINUOUS
  0
LAYER
  2
67
 70
     0
 62
     7
  6
CONTINUOUS
  0
LAYER
  2
68
 70
     0
 62
     7
  6
CONTINUOUS
  0
LAYER
  2
69
 70
     0
 62
     7
  6
CONTINUOUS
  0
LAYER
  2
70
 70
     0
 62
     7
  6
CONTINUOUS
  0
LAYER
  2
71
 70
     0
 62
     7
  6
CONTINUOUS
  0
LAYER
  2
72
 70
     0
 62
     7
  6
CONTINUOUS
  0
LAYER
  2
73
 70
     0
 62
     7
  6
CONTINUOUS
  0
LAYER
  2
74
 70
     0
 62
     7
  6
CONTINUOUS
  0
LAYER
  2
75
 70
     0
 62
     7
  6
CONTINUOUS
  0
LAYER
  2
76
 70
     0
 62
     7
  6
CONTINUOUS
  0
LAYER
  2
77
 70
     0
 62
     7
  6
CONTINUOUS
  0
LAYER
  2
78
 70
     0
 62
     7
  6
CONTINUOUS
  0
LAYER
  2
79
 70
     0
 62
     7
  6
CONTINUOUS
  0
LAYER
  2
80
 70
     0
 62
     7
  6
CONTINUOUS
  0
LAYER
  2
81
 70
     0
 62
     7
  6
CONTINUOUS
  0
LAYER
  2
82
 70
     0
 62
     7
  6
CONTINUOUS
  0
LAYER
  2
83
 70
     0
 62
     7
  6
CONTINUOUS
  0
LAYER
  2
84
 70
     0
 62
     7
  6
CONTINUOUS
  0
LAYER
  2
85
 70
     0
 62
     7
  6
CONTINUOUS
  0
LAYER
  2
86
 70
     0
 62
     7
  6
CONTINUOUS
  0
LAYER
  2
87
 70
     0
 62
     7
  6
CONTINUOUS
  0
LAYER
  2
88
 70
     0
 62
     7
  6
CONTINUOUS
  0
LAYER
  2
89
 70
     0
 62
     7
  6
CONTINUOUS
  0
LAYER
  2
90
 70
     0
 62
     7
  6
CONTINUOUS
  0
LAYER
  2
91
 70
     0
 62
     7
  6
CONTINUOUS
  0
LAYER
  2
92
 70
     0
 62
     7
  6
CONTINUOUS
  0
LAYER
  2
93
 70
     0
 62
     7
  6
CONTINUOUS
  0
LAYER
  2
94
 70
     0
 62
     7
  6
CONTINUOUS
  0
LAYER
  2
95
 70
     0
 62
     7
  6
CONTINUOUS
  0
LAYER
  2
96
 70
     0
 62
     7
  6
CONTINUOUS
  0
LAYER
  2
97
 70
     0
 62
     7
  6
CONTINUOUS
  0
LAYER
  2
98
 70
     0
 62
     7
  6
CONTINUOUS
  0
LAYER
  2
99
 70
     0
 62
     7
  6
CONTINUOUS
  0
LAYER
  2
100
 70
     0
 62
     7
  6
CONTINUOUS
  0
LAYER
  2
101
 70
     0
 62
     7
  6
CONTINUOUS
  0
LAYER
  2
102
 70
     0
 62
     7
  6
CONTINUOUS
  0
LAYER
  2
103
 70
     0
 62
     7
  6
CONTINUOUS
  0
LAYER
  2
104
 70
     0
 62
     7
  6
CONTINUOUS
  0
LAYER
  2
105
 70
     0
 62
     7
  6
CONTINUOUS
  0
LAYER
  2
106
 70
     0
 62
     7
  6
CONTINUOUS
  0
LAYER
  2
107
 70
     0
 62
     7
  6
CONTINUOUS
  0
LAYER
  2
108
 70
     0
 62
     7
  6
CONTINUOUS
  0
LAYER
  2
109
 70
     0
 62
     7
  6
CONTINUOUS
  0
LAYER
  2
110
 70
     0
 62
     7
  6
CONTINUOUS
  0
LAYER
  2
111
 70
     0
 62
     7
  6
CONTINUOUS
  0
LAYER
  2
112
 70
     0
 62
     7
  6
CONTINUOUS
  0
LAYER
  2
113
 70
     0
 62
     7
  6
CONTINUOUS
  0
LAYER
  2
114
 70
     0
 62
     7
  6
CONTINUOUS
  0
LAYER
  2
115
 70
     0
 62
     7
  6
CONTINUOUS
  0
LAYER
  2
116
 70
     0
 62
     7
  6
CONTINUOUS
  0
LAYER
  2
117
 70
     0
 62
     7
  6
CONTINUOUS
  0
LAYER
  2
118
 70
     0
 62
     7
  6
CONTINUOUS
  0
LAYER
  2
119
 70
     0
 62
     7
  6
CONTINUOUS
  0
LAYER
  2
120
 70
     0
 62
     7
  6
CONTINUOUS
  0
LAYER
  2
121
 70
     0
 62
     7
  6
CONTINUOUS
  0
LAYER
  2
122
 70
     0
 62
     7
  6
CONTINUOUS
  0
LAYER
  2
123
 70
     0
 62
     7
  6
CONTINUOUS
  0
LAYER
  2
124
 70
     0
 62
     7
  6
CONTINUOUS
  0
LAYER
  2
125
 70
     0
 62
     7
  6
CONTINUOUS
  0
LAYER
  2
126
 70
     0
 62
     7
  6
CONTINUOUS
  0
LAYER
  2
127
 70
     0
 62
     7
  6
CONTINUOUS
  0
LAYER
  2
128
 70
     0
 62
     7
  6
CONTINUOUS
  0
ENDTAB
  0
TABLE
  2
STYLE
 70
    84
  0
STYLE
  2
STANDARD
 70
     0
 40
0.0
 41
1.0
 50
0.0
 71
     0
 42
0.2
  3
txt.shx
  4
extfont.shx
  0
STYLE
  2
KANJI0
 70
     0
 40
15.5999988
 41
0.75
 50
0.0
 71
     0
 42
15.5999988
  3
txt.shx
  4
extfont.shx
  0
STYLE
  2
KANJI1
 70
     0
 40
11.999997477
 41
0.6
 50
0.0
 71
     0
 42
11.999997477
  3
txt.shx
  4
extfont.shx
  0
STYLE
  2
KANJI2
 70
     0
 40
14.399996972
 41
0.9
 50
0.0
 71
     0
 42
14.399996972
  3
txt.shx
  4
extfont.shx
  0
STYLE
  2
KANJI3
 70
     0
 40
17.999996215
 41
0.9
 50
0.0
 71
     0
 42
17.999996215
  3
txt.shx
  4
extfont.shx
  0
STYLE
  2
KANJI4
 70
     0
 40
10.3999992
 41
0.6
 50
0.0
 71
     0
 42
10.3999992
  3
txt.shx
  4
extfont.shx
  0
STYLE
  2
KANJI5
 70
     0
 40
12.47999904
 41
0.6
 50
0.0
 71
     0
 42
12.47999904
  3
txt.shx
  4
extfont.shx
  0
STYLE
  2
KANJI6
 70
     0
 40
18.1999986
 41
0.42031746
 50
0.0
 71
     0
 42
18.1999986
  3
txt.shx
  4
extfont.shx
  0
STYLE
  2
KANJI7
 70
     0
 40
31.1999976
 41
0.9
 50
0.0
 71
     0
 42
31.1999976
  3
txt.shx
  4
extfont.shx
  0
STYLE
  2
KANJI8
 70
     0
 40
21.6
 41
1.111111111
 50
0.0
 71
     0
 42
21.6
  3
txt.shx
  4
extfont.shx
  0
STYLE
  2
KANJI9
 70
     0
 40
10.3999992
 41
0.8
 50
0.0
 71
     0
 42
10.3999992
  3
txt.shx
  4
extfont.shx
  0
STYLE
  2
KANJI10
 70
     0
 40
12.47999904
 41
0.8
 50
0.0
 71
     0
 42
12.47999904
  3
txt.shx
  4
extfont.shx
  0
STYLE
  2
KANJI11
 70
     0
 40
30.0
 41
1.0
 50
0.0
 71
     0
 42
30.0
  3
txt.shx
  4
extfont.shx
  0
STYLE
  2
KANJI12
 70
     0
 40
30.0
 41
1.0
 50
0.0
 71
     0
 42
30.0
  3
txt.shx
  4
extfont.shx
  0
STYLE
  2
KANJI13
 70
     0
 40
30.0
 41
0.8
 50
0.0
 71
     0
 42
30.0
  3
txt.shx
  4
extfont.shx
  0
STYLE
  2
KANJI14
 70
     0
 40
24.0
 41
1.0
 50
0.0
 71
     0
 42
24.0
  3
txt.shx
  4
extfont.shx
  0
STYLE
  2
KANJI15
 70
     0
 40
21.0
 41
0.857142857
 50
0.0
 71
     0
 42
21.0
  3
txt.shx
  4
extfont.shx
  0
STYLE
  2
KANJI16
 70
     0
 40
27.0
 41
0.666666667
 50
0.0
 71
     0
 42
27.0
  3
txt.shx
  4
extfont.shx
  0
STYLE
  2
KANJI17
 70
     0
 40
18.0
 41
0.9
 50
0.0
 71
     0
 42
18.0
  3
txt.shx
  4
extfont.shx
  0
STYLE
  2
KANJI18
 70
     0
 40
18.0
 41
0.9
 50
0.0
 71
     0
 42
18.0
  3
txt.shx
  4
extfont.shx
  0
STYLE
  2
KANJI19
 70
     0
 40
13.86
 41
0.9
 50
0.0
 71
     0
 42
13.86
  3
txt.shx
  4
extfont.shx
  0
STYLE
  2
KANJI20
 70
     0
 40
21.0
 41
0.793650794
 50
0.0
 71
     0
 42
21.0
  3
txt.shx
  4
extfont.shx
  0
STYLE
  2
KANJI21
 70
     0
 40
30.0
 41
0.8
 50
0.0
 71
     0
 42
30.0
  3
txt.shx
  4
extfont.shx
  0
STYLE
  2
KANJI22
 70
     0
 40
15.0
 41
0.92
 50
0.0
 71
     0
 42
15.0
  3
txt.shx
  4
extfont.shx
  0
STYLE
  2
KANJI23
 70
     0
 40
12.0
 41
0.9
 50
0.0
 71
     0
 42
12.0
  3
txt.shx
  4
extfont.shx
  0
STYLE
  2
KANJI24
 70
     0
 40
10.0
 41
0.85
 50
0.0
 71
     0
 42
10.0
  3
txt.shx
  4
extfont.shx
  0
STYLE
  2
KANJI25
 70
     0
 40
10.0
 41
0.75
 50
0.0
 71
     0
 42
10.0
  3
txt.shx
  4
extfont.shx
  0
STYLE
  2
KANJI26
 70
     0
 40
15.0
 41
0.9
 50
0.0
 71
     0
 42
15.0
  3
txt.shx
  4
extfont.shx
  0
STYLE
  2
KANJI27
 70
     0
 40
18.0
 41
0.9
 50
0.0
 71
     0
 42
18.0
  3
txt.shx
  4
extfont.shx
  0
STYLE
  2
KANJI28
 70
     0
 40
24.0
 41
0.9
 50
0.0
 71
     0
 42
24.0
  3
txt.shx
  4
extfont.shx
  0
STYLE
  2
KANJI29
 70
     0
 40
21.0
 41
0.857142857
 50
0.0
 71
     0
 42
21.0
  3
txt.shx
  4
extfont.shx
  0
STYLE
  2
KANJI30
 70
     0
 40
20.0
 41
0.925
 50
0.0
 71
     0
 42
20.0
  3
txt.shx
  4
extfont.shx
  0
STYLE
  2
KANJI31
 70
     0
 40
20.0
 41
0.925
 50
0.0
 71
     0
 42
20.0
  3
txt.shx
  4
extfont.shx
  0
STYLE
  2
KANJI32
 70
     0
 40
15.6
 41
0.925
 50
0.0
 71
     0
 42
15.6
  3
txt.shx
  4
extfont.shx
  0
STYLE
  2
KANJI33
 70
     0
 40
10.933904043
 41
0.9
 50
0.0
 71
     0
 42
10.933904043
  3
txt.shx
  4
extfont.shx
  0
STYLE
  2
KANJI34
 70
     0
 40
15.185977837
 41
0.66671875
 50
0.0
 71
     0
 42
15.185977837
  3
txt.shx
  4
extfont.shx
  0
STYLE
  2
KANJI35
 70
     0
 40
18.223173404
 41
0.9
 50
0.0
 71
     0
 42
18.223173404
  3
txt.shx
  4
extfont.shx
  0
STYLE
  2
KANJI36
 70
     0
 40
14.578538724
 41
0.9
 50
0.0
 71
     0
 42
14.578538724
  3
txt.shx
  4
extfont.shx
  0
STYLE
  2
KANJI37
 70
     0
 40
11.661
 41
0.822608696
 50
0.0
 71
     0
 42
11.661
  3
txt.shx
  4
extfont.shx
  0
STYLE
  2
KANJI38
 70
     0
 40
13.182
 41
0.85
 50
0.0
 71
     0
 42
13.182
  3
txt.shx
  4
extfont.shx
  0
STYLE
  2
KANJI39
 70
     0
 40
11.8638
 41
0.726495726
 50
0.0
 71
     0
 42
11.8638
  3
txt.shx
  4
extfont.shx
  0
STYLE
  2
KANJI40
 70
     4
 40
55.0
 41
0.440318182
 50
0.0
 71
     0
 42
55.0
  3
txt.shx
  4
extfont.shx
  0
STYLE
  2
KANJI41
 70
     0
 40
17.740702234
 41
0.880962996
 50
0.0
 71
     0
 42
17.740702234
  3
txt.shx
  4
extfont.shx
  0
STYLE
  2
KANJI42
 70
     0
 40
11.7
 41
0.8
 50
0.0
 71
     0
 42
11.7
  3
txt.shx
  4
extfont.shx
  0
STYLE
  2
KANJI43
 70
     0
 40
15.0
 41
0.911
 50
0.0
 71
     0
 42
15.0
  3
txt.shx
  4
extfont.shx
  0
STYLE
  2
KANJI44
 70
     0
 40
16.17
 41
0.9
 50
0.0
 71
     0
 42
16.17
  3
txt.shx
  4
extfont.shx
  0
STYLE
  2
KANJI45
 70
     0
 40
24.0
 41
0.925
 50
0.0
 71
     0
 42
24.0
  3
txt.shx
  4
extfont.shx
  0
STYLE
  2
KANJI46
 70
     0
 40
15.0
 41
0.9
 50
0.0
 71
     0
 42
15.0
  3
txt.shx
  4
extfont.shx
  0
STYLE
  2
KANJI47
 70
     0
 40
15.36
 41
0.9
 50
0.0
 71
     0
 42
15.36
  3
txt.shx
  4
extfont.shx
  0
STYLE
  2
KANJI48
 70
     0
 40
14.4
 41
0.9
 50
0.0
 71
     0
 42
14.4
  3
txt.shx
  4
extfont.shx
  0
STYLE
  2
KANJI49
 70
     0
 40
14.4
 41
0.9
 50
0.0
 71
     0
 42
14.4
  3
txt.shx
  4
extfont.shx
  0
STYLE
  2
KANJI50
 70
     0
 40
16.8
 41
0.9
 50
0.0
 71
     0
 42
16.8
  3
txt.shx
  4
extfont.shx
  0
STYLE
  2
KANJI51
 70
     0
 40
12.96
 41
0.740740741
 50
0.0
 71
     0
 42
12.96
  3
txt.shx
  4
extfont.shx
  0
STYLE
  2
KANJI52
 70
     0
 40
16.8
 41
0.857142857
 50
0.0
 71
     0
 42
16.8
  3
txt.shx
  4
extfont.shx
  0
STYLE
  2
KANJI53
 70
     0
 40
14.4
 41
0.833333333
 50
0.0
 71
     0
 42
14.4
  3
txt.shx
  4
extfont.shx
  0
STYLE
  2
KANJI54
 70
     0
 40
12.0
 41
0.9
 50
0.0
 71
     0
 42
12.0
  3
txt.shx
  4
extfont.shx
  0
STYLE
  2
KANJI55
 70
     0
 40
18.0
 41
0.766666667
 50
0.0
 71
     0
 42
18.0
  3
txt.shx
  4
extfont.shx
  0
STYLE
  2
KANJI56
 70
     0
 40
22.8
 41
0.9
 50
0.0
 71
     0
 42
22.8
  3
txt.shx
  4
extfont.shx
  0
STYLE
  2
KANJI57
 70
     0
 40
22.8
 41
0.9
 50
0.0
 71
     0
 42
22.8
  3
txt.shx
  4
extfont.shx
  0
STYLE
  2
KANJI58
 70
     0
 40
27.0
 41
0.9
 50
0.0
 71
     0
 42
27.0
  3
txt.shx
  4
extfont.shx
  0
STYLE
  2
KANJI59
 70
     0
 40
22.8
 41
0.9
 50
0.0
 71
     0
 42
22.8
  3
txt.shx
  4
extfont.shx
  0
STYLE
  2
KANJI60
 70
     0
 40
22.8
 41
0.9
 50
0.0
 71
     0
 42
22.8
  3
txt.shx
  4
extfont.shx
  0
STYLE
  2
KANJI61
 70
     0
 40
22.8
 41
0.9
 50
0.0
 71
     0
 42
22.8
  3
txt.shx
  4
extfont.shx
  0
STYLE
  2
KANJI62
 70
     0
 40
22.8
 41
0.9
 50
0.0
 71
     0
 42
22.8
  3
txt.shx
  4
extfont.shx
  0
STYLE
  2
KANJI63
 70
     0
 40
22.8
 41
0.9
 50
0.0
 71
     0
 42
22.8
  3
txt.shx
  4
extfont.shx
  0
STYLE
  2
KANJI64
 70
     0
 40
22.8
 41
0.9
 50
0.0
 71
     0
 42
22.8
  3
txt.shx
  4
extfont.shx
  0
STYLE
  2
KANJI65
 70
     4
 40
21.0
 41
0.9
 50
0.0
 71
     0
 42
21.0
  3
txt.shx
  4
extfont.shx
  0
STYLE
  2
KANJI66
 70
     4
 40
21.0
 41
0.9
 50
0.0
 71
     0
 42
21.0
  3
txt.shx
  4
extfont.shx
  0
STYLE
  2
KANJI67
 70
     0
 40
21.0
 41
0.9
 50
0.0
 71
     0
 42
21.0
  3
txt.shx
  4
extfont.shx
  0
STYLE
  2
KANJI68
 70
     0
 40
18.0
 41
0.9
 50
0.0
 71
     0
 42
18.0
  3
txt.shx
  4
extfont.shx
  0
STYLE
  2
KANJI69
 70
     0
 40
21.0
 41
0.9
 50
0.0
 71
     0
 42
21.0
  3
txt.shx
  4
extfont.shx
  0
STYLE
  2
KANJI70
 70
     0
 40
22.8
 41
0.9
 50
0.0
 71
     0
 42
22.8
  3
txt.shx
  4
extfont.shx
  0
STYLE
  2
KANJI71
 70
     0
 40
22.8
 41
0.9
 50
0.0
 71
     0
 42
22.8
  3
txt.shx
  4
extfont.shx
  0
STYLE
  2
KANJI72
 70
     0
 40
21.0
 41
0.628571429
 50
0.0
 71
     0
 42
21.0
  3
txt.shx
  4
extfont.shx
  0
STYLE
  2
KANJI73
 70
     0
 40
20.4
 41
0.705882353
 50
0.0
 71
     0
 42
20.4
  3
txt.shx
  4
extfont.shx
  0
STYLE
  2
KANJI74
 70
     0
 40
18.0
 41
0.8
 50
0.0
 71
     0
 42
18.0
  3
txt.shx
  4
extfont.shx
  0
STYLE
  2
KANJI75
 70
     0
 40
19.2
 41
0.71875
 50
0.0
 71
     0
 42
19.2
  3
txt.shx
  4
extfont.shx
  0
STYLE
  2
KANJI76
 70
     0
 40
19.2
 41
0.8
 50
0.0
 71
     0
 42
19.2
  3
txt.shx
  4
extfont.shx
  0
STYLE
  2
KANJI77
 70
     0
 40
21.0
 41
0.571428571
 50
0.0
 71
     0
 42
21.0
  3
txt.shx
  4
extfont.shx
  0
STYLE
  2
KANJI78
 70
     0
 40
18.0
 41
0.833333333
 50
0.0
 71
     0
 42
18.0
  3
txt.shx
  4
extfont.shx
  0
STYLE
  2
KANJI79
 70
     0
 40
21.0
 41
0.9
 50
0.0
 71
     0
 42
21.0
  3
txt.shx
  4
extfont.shx
  0
STYLE
  2
KANJI80
 70
     0
 40
21.0
 41
0.857142857
 50
0.0
 71
     0
 42
21.0
  3
txt.shx
  4
extfont.shx
  0
STYLE
  2
KANJI81
 70
     0
 40
21.0
 41
0.571428571
 50
0.0
 71
     0
 42
21.0
  3
txt.shx
  4
extfont.shx
  0
STYLE
  2
KANJI82
 70
     0
 40
18.0
 41
0.833333333
 50
0.0
 71
     0
 42
18.0
  3
txt.shx
  4
extfont.shx
  0
ENDTAB
  0
TABLE
  2
VIEW
 70
     0
  0
ENDTAB
  0
ENDSEC
  0
SECTION
  2
BLOCKS
  0
ENDSEC
  0
SECTION
  2
ENTITIES
  0
POLYLINE
  8
0
  6
CONTINUOUS
 62
     6
 66
     1
  0
VERTEX
  8
0
  6
CONTINUOUS
 62
     6
 10
77.92
 20
71.7
 30
0.0
  0
VERTEX
  8
0
  6
CONTINUOUS
 62
     6
 10
77.92
 20
1685.7
 30
0.0
  0
VERTEX
  8
0
  6
CONTINUOUS
 62
     6
 10
2399.92
 20
1685.7
 30
0.0
  0
SEQEND
  0
LINE
  8
0
  6
CONTINUOUS
 62
     6
 10
83.919998738
 20
161.699981077
 30
0.0
 11
473.919916738
 21
161.699981077
 31
0.0
  0
LINE
  8
0
  6
CONTINUOUS
 62
     6
 10
83.919998738
 20
77.699998738
 30
0.0
 11
473.919916738
 21
77.699998738
 31
0.0
  0
LINE
  8
0
  6
CONTINUOUS
 62
     6
 10
83.919998738
 20
77.699998738
 30
0.0
 11
83.919998738
 21
161.699981077
 31
0.0
  0
LINE
  8
0
  6
CONTINUOUS
 62
     6
 10
83.919998738
 20
119.699989908
 30
0.0
 11
473.919916738
 21
119.699989908
 31
0.0
  0
LINE
  8
0
  6
CONTINUOUS
 62
     4
 10
9.6199996
 20
76.8999996
 30
0.0
 11
72.0199948
 21
76.8999996
 31
0.0
  0
LINE
  8
0
  6
CONTINUOUS
 62
     4
 10
9.6199996
 20
108.0999972
 30
0.0
 11
72.0199948
 21
108.0999972
 31
0.0
  0
LINE
  8
0
  6
CONTINUOUS
 62
     4
 10
9.6199996
 20
139.2999948
 30
0.0
 11
72.0199948
 21
139.2999948
 31
0.0
  0
LINE
  8
0
  6
CONTINUOUS
 62
     4
 10
9.6199996
 20
170.4999924
 30
0.0
 11
72.0199948
 21
170.4999924
 31
0.0
  0
LINE
  8
0
  6
CONTINUOUS
 62
     4
 10
9.6199996
 20
201.69999
 30
0.0
 11
72.0199948
 21
201.69999
 31
0.0
  0
LINE
  8
0
  6
CONTINUOUS
 62
     4
 10
9.6199996
 20
232.8999876
 30
0.0
 11
72.0199948
 21
232.8999876
 31
0.0
  0
LINE
  8
0
  6
CONTINUOUS
 62
     4
 10
9.6199996
 20
264.0999852
 30
0.0
 11
72.0199948
 21
264.0999852
 31
0.0
  0
LINE
  8
0
  6
CONTINUOUS
 62
     4
 10
9.6199996
 20
295.2999828
 30
0.0
 11
72.0199948
 21
295.2999828
 31
0.0
  0
LINE
  8
0
  6
CONTINUOUS
 62
     4
 10
9.6199996
 20
326.4999804
 30
0.0
 11
72.0199948
 21
326.4999804
 31
0.0
  0
LINE
  8
0
  6
CONTINUOUS
 62
     4
 10
9.6199996
 20
357.699978
 30
0.0
 11
72.0199948
 21
357.699978
 31
0.0
  0
LINE
  8
0
  6
CONTINUOUS
 62
     4
 10
72.0199948
 20
76.8999996
 30
0.0
 11
72.0199948
 21
357.699978
 31
0.0
  0
LINE
  8
0
  6
CONTINUOUS
 62
     4
 10
40.8199972
 20
76.8999996
 30
0.0
 11
40.8199972
 21
326.4999804
 31
0.0
  0
TEXT
  8
0
  6
CONTINUOUS
 62
     4
 10
20.27999878
 20
85.9999989
 30
1.55999988
 40
15.5999988
  1
計
 50
0.0
 41
0.75
 51
0.0
  7
KANJI0
  0
TEXT
  8
0
  6
CONTINUOUS
 62
     4
 10
20.27999878
 20
148.91999406
 30
1.55999988
 40
15.5999988
  1
設
 50
0.0
 41
0.75
 51
0.0
  7
KANJI0
  0
TEXT
  8
0
  6
CONTINUOUS
 62
     4
 10
20.27999878
 20
179.5999917
 30
1.55999988
 40
15.5999988
  1
管
 50
0.0
 41
0.75
 51
0.0
  7
KANJI0
  0
TEXT
  8
0
  6
CONTINUOUS
 62
     4
 10
20.27999878
 20
210.7999893
 30
1.55999988
 40
15.5999988
  1
製
 50
0.0
 41
0.75
 51
0.0
  7
KANJI0
  0
TEXT
  8
0
  6
CONTINUOUS
 62
     4
 10
20.27999878
 20
241.9999869
 30
1.55999988
 40
15.5999988
  1
資
 50
0.0
 41
0.75
 51
0.0
  7
KANJI0
  0
TEXT
  8
0
  6
CONTINUOUS
 62
     4
 10
20.27999878
 20
273.1999845
 30
1.55999988
 40
15.5999988
  1
営
 50
0.0
 41
0.75
 51
0.0
  7
KANJI0
  0
TEXT
  8
0
  6
CONTINUOUS
 62
     4
 10
20.27999878
 20
304.3999821
 30
1.55999988
 40
15.5999988
  1
客
 50
0.0
 41
0.75
 51
0.0
  7
KANJI0
  0
TEXT
  8
0
  6
CONTINUOUS
 62
     4
 10
20.0199988
 20
336.8999796
 30
1.55999988
 40
15.5999988
  1
出　図
 50
0.0
 41
0.75
 51
0.0
  7
KANJI0
  0
LINE
  8
0
  6
CONTINUOUS
 62
     4
 10
9.6199996
 20
76.8999996
 30
0.0
 11
9.6199996
 21
357.699978
 31
0.0
  0
LINE
  8
0
  6
CONTINUOUS
 62
     6
 10
2399.92
 20
71.7
 30
0.0
 11
77.92
 21
71.7
 31
0.0
  0
TEXT
  8
0
  6
CONTINUOUS
 62
     4
 10
95.919996215
 20
101.699993692
 30
1.199999748
 40
11.999997477
  1
ＰＡＲＴＳ　ＬＩＳＴ
 50
0.0
 41
0.6
 51
0.0
  7
KANJI1
  0
TEXT
  8
0
  6
CONTINUOUS
 62
     4
 10
95.919996215
 20
83.699997477
 30
1.439999697
 40
14.399996972
  1
部品表
 50
0.0
 41
0.9
 51
0.0
  7
KANJI2
  0
TEXT
  8
0
  6
CONTINUOUS
 62
     3
 10
95.919996215
 20
131.699987385
 30
1.799999622
 40
17.999996215
  1
ＰＬ
 50
0.0
 41
0.9
 51
0.0
  7
KANJI3
  0
TEXT
  8
0
  6
CONTINUOUS
 62
     4
 10
365.919939446
 20
101.699993692
 30
1.199999748
 40
11.999997477
  1
Ｎ０．
 50
0.0
 41
0.6
 51
0.0
  7
KANJI1
  0
TEXT
  8
0
  6
CONTINUOUS
 62
     4
 10
365.919939446
 20
83.699997477
 30
1.439999697
 40
14.399996972
  1
項番
 50
0.0
 41
0.9
 51
0.0
  7
KANJI2
  0
LINE
  8
0
  6
CONTINUOUS
 62
     6
 10
473.919916738
 20
77.699998738
 30
0.0
 11
473.919916738
 21
161.699981077
 31
0.0
  0
LINE
  8
0
  6
CONTINUOUS
 62
     6
 10
353.919941969
 20
77.699998738
 30
0.0
 11
353.919941969
 21
161.699981077
 31
0.0
  0
LINE
  8
0
  6
CONTINUOUS
 62
     6
 10
2399.92
 20
1685.7
 30
0.0
 11
2399.92
 21
71.7
 31
0.0
  0
LINE
  8
0
  6
CONTINUOUS
 62
     6
 10
1593.920062
 20
76.8999996
 30
0.0
 11
1593.920062
 21
409.699974
 31
0.0
  0
LINE
  8
0
  6
CONTINUOUS
 62
     6
 10
2394.7200004
 20
76.8999996
 30
0.0
 11
2394.7200004
 21
409.699974
 31
0.0
  0
LINE
  8
0
  6
CONTINUOUS
 62
     4
 10
1783.7200474
 20
76.8999996
 30
0.0
 11
1783.7200474
 21
409.699974
 31
0.0
  0
LINE
  8
0
  6
CONTINUOUS
 62
     4
 10
1593.920062
 20
118.4999964
 30
0.0
 11
1783.7200474
 21
118.4999964
 31
0.0
  0
TEXT
  8
0
  6
CONTINUOUS
 62
     4
 10
1604.3200612
 20
100.2999978
 30
1.03999992
 40
10.3999992
  1
ＳＣＡＬＥ
 50
0.0
 41
0.6
 51
0.0
  7
KANJI4
  0
TEXT
  8
0
  6
CONTINUOUS
 62
     4
 10
1604.3200612
 20
84.699999
 30
1.247999904
 40
12.47999904
  1
尺度
 50
0.0
 41
0.6
 51
0.0
  7
KANJI5
  0
LINE
  8
0
  6
CONTINUOUS
 62
     6
 10
1183.1200936
 20
118.4999964
 30
0.0
 11
1593.920062
 21
118.4999964
 31
0.0
  0
LINE
  8
0
  6
CONTINUOUS
 62
     6
 10
1183.1200936
 20
76.8999996
 30
0.0
 11
2394.7200004
 21
76.8999996
 31
0.0
  0
TEXT
  8
0
  6
CONTINUOUS
 62
     6
 10
1788.920047
 20
100.2999978
 30
0.0
 40
18.1999986
  1
ＵＮＩＴＥＣ　ＩＮＤＵＳＴＲＹ　ＣＯ．，ＬＴＤ．
 50
0.0
 41
0.42031746
 51
0.0
  7
KANJI6
  0
TEXT
  8
0
  6
CONTINUOUS
 62
     6
 10
2044.175027365
 20
93.53999832
 30
3.11999976
 40
31.1999976
  1
ユニテック工業株式会社
 50
0.0
 41
0.9
 51
0.0
  7
KANJI7
  0
LINE
  8
0
  6
CONTINUOUS
 62
     6
 10
2002.575030565
 20
104.45999748
 30
0.0
 11
1988.847031621
 21
104.45999748
 31
0.0
  0
LINE
  8
0
  6
CONTINUOUS
 62
     6
 10
2002.575030565
 20
106.955997288
 30
0.0
 11
1988.847031621
 21
106.955997288
 31
0.0
  0
LINE
  8
0
  6
CONTINUOUS
 62
     6
 10
2002.575030565
 20
104.45999748
 30
0.0
 11
2016.303029509
 21
104.45999748
 31
0.0
  0
LINE
  8
0
  6
CONTINUOUS
 62
     6
 10
2002.575030565
 20
106.955997288
 30
0.0
 11
2016.303029509
 21
106.955997288
 31
0.0
  0
LINE
  8
0
  6
CONTINUOUS
 62
     6
 10
2016.303029509
 20
106.955997288
 30
0.0
 11
2016.303029509
 21
104.45999748
 31
0.0
  0
ARC
  8
0
  6
CONTINUOUS
 62
     6
 10
2019.423029269
 20
105.707997384
 30
0.0
 40
12.47999904
 50
185.739170477
 51
90.0
  0
ARC
  8
0
  6
CONTINUOUS
 62
     6
 10
2019.423029269
 20
105.707997384
 30
0.0
 40
14.975998848
 50
184.780191847
 51
90.0
  0
LINE
  8
0
  6
CONTINUOUS
 62
     6
 10
1988.847031621
 20
104.45999748
 30
0.0
 11
1988.847031621
 21
106.955997288
 31
0.0
  0
ARC
  8
0
  6
CONTINUOUS
 62
     6
 10
1985.727031861
 20
105.707997384
 30
0.0
 40
12.47999904
 50
90.0
 51
354.260829523
  0
ARC
  8
0
  6
CONTINUOUS
 62
     6
 10
1985.727031861
 20
105.707997384
 30
0.0
 40
14.975998848
 50
90.0
 51
355.219808153
  0
LINE
  8
0
  6
CONTINUOUS
 62
     6
 10
2000.703030709
 20
120.683996232
 30
0.0
 11
2000.703030709
 21
118.187996424
 31
0.0
  0
LINE
  8
0
  6
CONTINUOUS
 62
     6
 10
1985.727031861
 20
118.187996424
 30
0.0
 11
2000.703030709
 21
118.187996424
 31
0.0
  0
LINE
  8
0
  6
CONTINUOUS
 62
     6
 10
2004.447030421
 20
120.683996232
 30
0.0
 11
2004.447030421
 21
118.187996424
 31
0.0
  0
LINE
  8
0
  6
CONTINUOUS
 62
     6
 10
2019.423029269
 20
118.187996424
 30
0.0
 11
2004.447030421
 21
118.187996424
 31
0.0
  0
TEXT
  8
0
  6
CONTINUOUS
 62
     4
 10
1315.7200834
 20
100.2999978
 30
1.03999992
 40
10.3999992
  1
ＢＹ
 50
0.0
 41
0.6
 51
0.0
  7
KANJI4
  0
TEXT
  8
0
  6
CONTINUOUS
 62
     4
 10
1430.1200746
 20
100.2999978
 30
1.03999992
 40
10.3999992
  1
ＤＥＳＣＲＩＰＴＩＯＮ
 50
0.0
 41
0.6
 51
0.0
  7
KANJI4
  0
TEXT
  8
0
  6
CONTINUOUS
 62
     4
 10
1315.7200834
 20
84.699999
 30
1.247999904
 40
12.47999904
  1
担当
 50
0.0
 41
0.6
 51
0.0
  7
KANJI5
  0
TEXT
  8
0
  6
CONTINUOUS
 62
     4
 10
1445.7200734
 20
84.699999
 30
1.247999904
 40
12.47999904
  1
記　　　　事
 50
0.0
 41
0.6
 51
0.0
  7
KANJI5
  0
LINE
  8
0
  6
CONTINUOUS
 62
     4
 10
1205.2200919
 20
110.699997
 30
0.0
 11
1188.3200932
 21
84.699999
 31
0.0
  0
TEXT
  8
0
  6
CONTINUOUS
 62
     4
 10
1248.1200886
 20
100.2999978
 30
1.03999992
 40
10.3999992
  1
ＤＡＴＥ
 50
0.0
 41
0.6
 51
0.0
  7
KANJI4
  0
TEXT
  8
0
  6
CONTINUOUS
 62
     4
 10
1255.920088
 20
84.699999
 30
1.247999904
 40
12.47999904
  1
日付
 50
0.0
 41
0.6
 51
0.0
  7
KANJI5
  0
LINE
  8
0
  6
CONTINUOUS
 62
     4
 10
1188.3200932
 20
84.699999
 30
0.0
 11
1222.1200906
 21
84.699999
 31
0.0
  0
LINE
  8
0
  6
CONTINUOUS
 62
     4
 10
1205.2200919
 20
110.699997
 30
0.0
 11
1222.1200906
 21
84.699999
 31
0.0
  0
LINE
  8
0
  6
CONTINUOUS
 62
     6
 10
1183.1200936
 20
76.8999996
 30
0.0
 11
1183.1200936
 21
118.4999964
 31
0.0
  0
LINE
  8
0
  6
CONTINUOUS
 62
     4
 10
1227.3200902
 20
76.8999996
 30
0.0
 11
1227.3200902
 21
118.4999964
 31
0.0
  0
LINE
  8
0
  6
CONTINUOUS
 62
     4
 10
1300.1200846
 20
76.8999996
 30
0.0
 11
1300.1200846
 21
118.4999964
 31
0.0
  0
LINE
  8
0
  6
CONTINUOUS
 62
     4
 10
1346.920081
 20
76.8999996
 30
0.0
 11
1346.920081
 21
118.4999964
 31
0.0
  0
TEXT
  8
0
  6
CONTINUOUS
 62
     4
 10
1604.3200612
 20
308.2999818
 30
1.03999992
 40
10.3999992
  1
ＣＯＤＥ
 50
0.0
 41
0.6
 51
0.0
  7
KANJI4
  0
LINE
  8
0
  6
CONTINUOUS
 62
     4
 10
1593.920062
 20
326.4999804
 30
0.0
 11
2394.7200004
 21
326.4999804
 31
0.0
  0
TEXT
  8
0
  6
CONTINUOUS
 62
     4
 10
1604.3200612
 20
292.699983
 30
1.247999904
 40
12.47999904
  1
分類
 50
0.0
 41
0.6
 51
0.0
  7
KANJI5
  0
TEXT
  8
0
  6
CONTINUOUS
 62
     4
 10
1612.42
 20
332.7
 30
6.0
 40
21.6
  1
ご注文主
 50
0.0
 41
1.111111111
 51
0.0
  7
KANJI8
  0
TEXT
  8
0
  6
CONTINUOUS
 62
     4
 10
1604.3200612
 20
183.4999914
 30
1.03999992
 40
10.3999992
  1
ＤＲＡＷＮ
 50
0.0
 41
0.6
 51
0.0
  7
KANJI4
  0
TEXT
  8
0
  6
CONTINUOUS
 62
     4
 10
1604.3200612
 20
225.0999882
 30
1.03999992
 40
10.3999992
  1
ＤＥＳＩＧＮ
 50
0.0
 41
0.6
 51
0.0
  7
KANJI4
  0
TEXT
  8
0
  6
CONTINUOUS
 62
     4
 10
1604.3200612
 20
266.699985
 30
1.03999992
 40
10.3999992
  1
ＣＨＥＣＫ
 50
0.0
 41
0.6
 51
0.0
  7
KANJI4
  0
LINE
  8
0
  6
CONTINUOUS
 62
     4
 10
1593.920062
 20
243.2999868
 30
0.0
 11
1783.7200474
 21
243.2999868
 31
0.0
  0
LINE
  8
0
  6
CONTINUOUS
 62
     4
 10
1593.920062
 20
201.69999
 30
0.0
 11
1783.7200474
 21
201.69999
 31
0.0
  0
LINE
  8
0
  6
CONTINUOUS
 62
     4
 10
1593.920062
 20
284.8999836
 30
0.0
 11
1783.7200474
 21
284.8999836
 31
0.0
  0
TEXT
  8
0
  6
CONTINUOUS
 62
     4
 10
1604.3200612
 20
209.4999894
 30
1.247999904
 40
12.47999904
  1
設計
 50
0.0
 41
0.6
 51
0.0
  7
KANJI5
  0
TEXT
  8
0
  6
CONTINUOUS
 62
     4
 10
1604.3200612
 20
251.0999862
 30
1.247999904
 40
12.47999904
  1
検図
 50
0.0
 41
0.6
 51
0.0
  7
KANJI5
  0
LINE
  8
0
  6
CONTINUOUS
 62
     4
 10
1799.06004622
 20
284.8999836
 30
0.0
 11
2394.7200004
 21
284.8999836
 31
0.0
  0
LINE
  8
0
  6
CONTINUOUS
 62
     4
 10
1783.7200474
 20
201.69999
 30
0.0
 11
2394.7200004
 21
201.69999
 31
0.0
  0
TEXT
  8
0
  6
CONTINUOUS
 62
     4
 10
1794.1200466
 20
183.4999914
 30
1.03999992
 40
10.3999992
  1
ＤＲＡＷＩＮＧ　ＮＯ．
 50
0.0
 41
0.8
 51
0.0
  7
KANJI9
  0
TEXT
  8
0
  6
CONTINUOUS
 62
     4
 10
1794.1200466
 20
225.0999882
 30
1.03999992
 40
10.3999992
  1
ＭＦＧ　ＮＯ．
 50
0.0
 41
0.8
 51
0.0
  7
KANJI9
  0
TEXT
  8
0
  6
CONTINUOUS
 62
     4
 10
1794.1200466
 20
266.699985
 30
1.03999992
 40
10.3999992
  1
ＴＹＰＥ
 50
0.0
 41
0.8
 51
0.0
  7
KANJI9
  0
LINE
  8
0
  6
CONTINUOUS
 62
     4
 10
1799.3200462
 20
243.2999868
 30
0.0
 11
2038.5200278
 21
243.2999868
 31
0.0
  0
TEXT
  8
0
  6
CONTINUOUS
 62
     4
 10
1794.1200466
 20
165.2999928
 30
1.247999904
 40
12.47999904
  1
図　面　番　号
 50
0.0
 41
0.8
 51
0.0
  7
KANJI10
  0
TEXT
  8
0
  6
CONTINUOUS
 62
     4
 10
1794.1200466
 20
206.8999896
 30
1.247999904
 40
12.47999904
  1
製番
 50
0.0
 41
0.8
 51
0.0
  7
KANJI10
  0
TEXT
  8
0
  6
CONTINUOUS
 62
     4
 10
1794.1200466
 20
248.4999864
 30
1.247999904
 40
12.47999904
  1
機種
 50
0.0
 41
0.8
 51
0.0
  7
KANJI10
  0
LINE
  8
0
  6
CONTINUOUS
 62
     4
 10
1593.920062
 20
160.0999932
 30
0.0
 11
1783.7200474
 21
160.0999932
 31
0.0
  0
TEXT
  8
0
  6
CONTINUOUS
 62
     4
 10
1604.3200612
 20
141.8999946
 30
1.03999992
 40
10.3999992
  1
ＤＡＴＥ
 50
0.0
 41
0.6
 51
0.0
  7
KANJI4
  0
TEXT
  8
0
  6
CONTINUOUS
 62
     4
 10
1604.3200612
 20
126.2999958
 30
1.247999904
 40
12.47999904
  1
日付
 50
0.0
 41
0.6
 51
0.0
  7
KANJI5
  0
TEXT
  8
0
  6
CONTINUOUS
 62
     4
 10
1604.3200612
 20
167.8999926
 30
1.247999904
 40
12.47999904
  1
作図
 50
0.0
 41
0.6
 51
0.0
  7
KANJI5
  0
LINE
  8
0
  6
CONTINUOUS
 62
     4
 10
1783.7200474
 20
141.8999946
 30
0.0
 11
2394.7200004
 21
141.8999946
 31
0.0
  0
LINE
  8
0
  6
LTYPE1
 62
     4
 10
2220.5200138
 20
149.699994
 30
0.0
 11
2220.5200138
 21
191.2999908
 31
0.0
  0
LINE
  8
0
  6
LTYPE1
 62
     4
 10
2184.1200166
 20
149.699994
 30
0.0
 11
2184.1200166
 21
191.2999908
 31
0.0
  0
LINE
  8
0
  6
LTYPE1
 62
     4
 10
2147.7200194
 20
149.699994
 30
0.0
 11
2147.7200194
 21
191.2999908
 31
0.0
  0
LINE
  8
0
  6
LTYPE1
 62
     4
 10
2111.3200222
 20
149.699994
 30
0.0
 11
2111.3200222
 21
191.2999908
 31
0.0
  0
LINE
  8
0
  6
LTYPE1
 62
     4
 10
2074.920025
 20
149.699994
 30
0.0
 11
2074.920025
 21
191.2999908
 31
0.0
  0
LINE
  8
0
  6
LTYPE1
 62
     4
 10
2038.5200278
 20
149.699994
 30
0.0
 11
2038.5200278
 21
191.2999908
 31
0.0
  0
LINE
  8
0
  6
LTYPE1
 62
     4
 10
2002.1200306
 20
149.699994
 30
0.0
 11
2002.1200306
 21
191.2999908
 31
0.0
  0
LINE
  8
0
  6
LTYPE1
 62
     4
 10
1965.7200334
 20
149.699994
 30
0.0
 11
1965.7200334
 21
191.2999908
 31
0.0
  0
LINE
  8
0
  6
LTYPE1
 62
     4
 10
1965.7200334
 20
191.2999908
 30
0.0
 11
2220.5200138
 21
191.2999908
 31
0.0
  0
LINE
  8
0
  6
LTYPE1
 62
     4
 10
1965.7200334
 20
149.699994
 30
0.0
 11
2220.5200138
 21
149.699994
 31
0.0
  0
LINE
  8
0
  6
CONTINUOUS
 62
     4
 10
2241.3200122
 20
171.7999923
 30
0.0
 11
2251.7200114
 21
171.7999923
 31
0.0
  0
LINE
  8
0
  6
CONTINUOUS
 62
     4
 10
2306.3200072
 20
156.1999935
 30
0.0
 11
2269.92001
 21
156.1999935
 31
0.0
  0
LINE
  8
0
  6
CONTINUOUS
 62
     4
 10
2269.92001
 20
156.1999935
 30
0.0
 11
2288.1200086
 21
187.3999911
 31
0.0
  0
LINE
  8
0
  6
CONTINUOUS
 62
     4
 10
2288.1200086
 20
187.3999911
 30
0.0
 11
2306.3200072
 21
156.1999935
 31
0.0
  0
TEXT
  8
0
  6
CONTINUOUS
 62
     4
 10
2054.1200266
 20
266.699985
 30
1.03999992
 40
10.3999992
  1
ＴＩＴＬＥ
 50
0.0
 41
0.8
 51
0.0
  7
KANJI9
  0
TEXT
  8
0
  6
CONTINUOUS
 62
     4
 10
2054.1200266
 20
248.4999864
 30
1.247999904
 40
12.47999904
  1
名称
 50
0.0
 41
0.8
 51
0.0
  7
KANJI10
  0
TEXT
  8
0
  6
CONTINUOUS
 62
     2
 10
2138.92
 20
209.7
 30
15.0
 40
30.0
  1
外形寸法図
 50
0.0
 41
1.0
 51
0.0
  7
KANJI11
  0
TEXT
  8
0
  6
CONTINUOUS
 62
     2
 10
2102.92
 20
245.7
 30
4.285714286
 40
30.0
  1
マイティシリンダ
 50
0.0
 41
1.0
 51
0.0
  7
KANJI12
  0
TEXT
  8
0
  6
CONTINUOUS
 62
     2
 10
1934.2200334
 20
155.699994
 30
1.8
 40
30.0
  1
Ａ
 50
0.0
 41
0.8
 51
0.0
  7
KANJI13
  0
CIRCLE
  8
0
  6
CONTINUOUS
 62
     2
 10
1895.2200334
 20
220.199994
 30
0.0
 40
15.0
  0
TEXT
  8
0
  6
CONTINUOUS
 62
     2
 10
1883.9700334
 20
208.949994
 30
1.8
 40
24.0
  1
Ｓ
 50
0.0
 41
1.0
 51
0.0
  7
KANJI14
  0
LINE
  8
0
  6
CONTINUOUS
 62
     6
 10
2000.703030709
 20
120.683996232
 30
0.0
 11
1985.727031861
 21
120.683996232
 31
0.0
  0
LINE
  8
0
  6
CONTINUOUS
 62
     6
 10
2004.447030421
 20
120.683996232
 30
0.0
 11
2019.423029269
 21
120.683996232
 31
0.0
  0
TEXT
  8
0
  6
CONTINUOUS
 62
     2
 10
1660.9200334
 20
170.699994
 30
6.0
 40
21.0
  1
岡田
 50
0.0
 41
0.857142857
 51
0.0
  7
KANJI15
  0
LINE
  8
0
  6
CONTINUOUS
 62
     4
 10
2394.7200004
 20
368.0999772
 30
0.0
 11
2394.7200004
 21
409.699974
 31
0.0
  0
LINE
  8
0
  6
CONTINUOUS
 62
     6
 10
1594.670062
 20
368.0999772
 30
0.0
 11
2395.4700004
 21
368.0999772
 31
0.0
  0
LINE
  8
0
  6
CONTINUOUS
 62
     6
 10
1593.920062
 20
409.699974
 30
0.0
 11
2394.7200004
 21
409.699974
 31
0.0
  0
TEXT
  8
0
  6
CONTINUOUS
 62
     4
 10
1612.42
 20
374.2999968
 30
6.0
 40
21.6
  1
ご用途
 50
0.0
 41
1.111111111
 51
0.0
  7
KANJI8
  0
TEXT
  8
0
  6
CONTINUOUS
 62
     2
 10
1703.92
 20
83.7
 30
1.8
 40
27.0
  1
１／６
 50
0.0
 41
0.666666667
 51
0.0
  7
KANJI16
  0
LINE
  8
0
  6
LTYPE2
 62
     2
 10
1476.4
 20
862.0
 30
0.0
 11
1488.4
 21
862.0
 31
0.0
  0
LINE
  8
0
  6
LTYPE3
 62
     2
 10
1392.3
 20
862.0
 30
0.0
 11
1577.4
 21
862.0
 31
0.0
  0
ARC
  8
0
  6
CONTINUOUS
 62
     1
 10
1426.0
 20
918.0
 30
0.0
 40
5.0
 50
90.0
 51
180.0
  0
CIRCLE
  8
0
  6
CONTINUOUS
 62
     1
 10
1482.0
 20
862.0
 30
0.0
 40
57.0
  0
CIRCLE
  8
0
  6
CONTINUOUS
 62
     1
 10
1482.0
 20
862.0
 30
0.0
 40
42.0
  0
CIRCLE
  8
0
  6
CONTINUOUS
 62
     1
 10
1482.0
 20
862.0
 30
0.0
 40
36.5
  0
CIRCLE
  8
0
  6
CONTINUOUS
 62
     1
 10
1482.0
 20
862.0
 30
0.0
 40
15.5
  0
LINE
  8
0
  6
CONTINUOUS
 62
     1
 10
1486.952830189
 20
878.784500979
 30
0.0
 11
1511.330188679
 21
871.591143417
 31
0.0
  0
LINE
  8
0
  6
CONTINUOUS
 62
     1
 10
1486.952830189
 20
845.215499021
 30
0.0
 11
1511.330188679
 21
852.408856583
 31
0.0
  0
ARC
  8
0
  6
CONTINUOUS
 62
     1
 10
1508.5
 20
862.0
 30
0.0
 40
10.0
 50
0.0
 51
150.0
  0
ARC
  8
0
  6
CONTINUOUS
 62
     1
 10
1508.5
 20
862.0
 30
0.0
 40
10.0
 50
210.0
 51
0.0
  0
LINE
  8
0
  6
CONTINUOUS
 62
     1
 10
1496.671400751
 20
857.0
 30
0.0
 11
1499.839745962
 21
857.0
 31
0.0
  0
LINE
  8
0
  6
CONTINUOUS
 62
     1
 10
1496.671400751
 20
867.0
 30
0.0
 11
1499.839745962
 21
867.0
 31
0.0
  0
ARC
  8
0
  6
LTYPE3
 62
     2
 10
1482.0
 20
862.0
 30
0.0
 40
26.5
 50
345.963756532
 51
14.715071651
  0
LINE
  8
0
  6
CONTINUOUS
 62
     1
 10
1477.047169811
 20
878.784500979
 30
0.0
 11
1452.669811321
 21
871.591143417
 31
0.0
  0
LINE
  8
0
  6
CONTINUOUS
 62
     1
 10
1477.047169811
 20
845.215499021
 30
0.0
 11
1452.669811321
 21
852.408856583
 31
0.0
  0
ARC
  8
0
  6
CONTINUOUS
 62
     1
 10
1455.5
 20
862.0
 30
0.0
 40
10.0
 50
30.0
 51
180.0
  0
ARC
  8
0
  6
CONTINUOUS
 62
     1
 10
1455.5
 20
862.0
 30
0.0
 40
10.0
 50
180.0
 51
330.0
  0
LINE
  8
0
  6
CONTINUOUS
 62
     1
 10
1467.328599249
 20
857.0
 30
0.0
 11
1464.160254038
 21
857.0
 31
0.0
  0
LINE
  8
0
  6
CONTINUOUS
 62
     1
 10
1467.328599249
 20
867.0
 30
0.0
 11
1464.160254038
 21
867.0
 31
0.0
  0
ARC
  8
0
  6
LTYPE3
 62
     2
 10
1482.0
 20
862.0
 30
0.0
 40
26.5
 50
165.284928349
 51
194.036243468
  0
ARC
  8
0
  6
CONTINUOUS
 62
     1
 10
1482.0
 20
862.0
 30
0.0
 40
17.5
 50
16.601549599
 51
163.398450401
  0
ARC
  8
0
  6
CONTINUOUS
 62
     1
 10
1482.0
 20
862.0
 30
0.0
 40
17.5
 50
196.601549599
 51
343.398450401
  0
ARC
  8
0
  6
LTYPE3
 62
     2
 10
1482.0
 20
862.0
 30
0.0
 40
51.0
 50
34.902495616
 51
52.696051722
  0
LINE
  8
0
  6
LTYPE3
 62
     2
 10
1514.0
 20
894.0
 30
0.0
 11
1523.0
 21
903.0
 31
0.0
  0
ARC
  8
0
  6
LTYPE3
 62
     2
 10
1482.0
 20
862.0
 30
0.0
 40
25.0
 50
63.434948823
 51
114.623564786
  0
ARC
  8
0
  6
LTYPE3
 62
     2
 10
1482.0
 20
862.0
 30
0.0
 40
25.0
 50
245.376435214
 51
296.565051177
  0
ARC
  8
0
  6
LTYPE3
 62
     2
 10
1482.0
 20
862.0
 30
0.0
 40
51.0
 50
124.902495616
 51
142.696051722
  0
LINE
  8
0
  6
LTYPE3
 62
     2
 10
1450.0
 20
894.0
 30
0.0
 11
1441.0
 21
903.0
 31
0.0
  0
ARC
  8
0
  6
LTYPE3
 62
     2
 10
1482.0
 20
862.0
 30
0.0
 40
51.0
 50
307.303948278
 51
325.097504384
  0
LINE
  8
0
  6
LTYPE3
 62
     2
 10
1514.0
 20
830.0
 30
0.0
 11
1523.0
 21
821.0
 31
0.0
  0
ARC
  8
0
  6
LTYPE3
 62
     2
 10
1482.0
 20
862.0
 30
0.0
 40
51.0
 50
217.303948278
 51
235.097504384
  0
LINE
  8
0
  6
LTYPE3
 62
     2
 10
1450.0
 20
830.0
 30
0.0
 11
1441.0
 21
821.0
 31
0.0
  0
LINE
  8
0
  6
LTYPE3
 62
     2
 10
1524.0
 20
913.0
 30
0.0
 11
1541.0
 21
913.0
 31
0.0
  0
LINE
  8
0
  6
LTYPE3
 62
     2
 10
1533.0
 20
921.0
 30
0.0
 11
1533.0
 21
904.5
 31
0.0
  0
LINE
  8
0
  6
LTYPE3
 62
     2
 10
1440.0
 20
913.0
 30
0.0
 11
1423.0
 21
913.0
 31
0.0
  0
LINE
  8
0
  6
LTYPE3
 62
     2
 10
1431.0
 20
921.0
 30
0.0
 11
1431.0
 21
904.5
 31
0.0
  0
LINE
  8
0
  6
LTYPE3
 62
     2
 10
1524.0
 20
811.0
 30
0.0
 11
1541.0
 21
811.0
 31
0.0
  0
LINE
  8
0
  6
LTYPE3
 62
     2
 10
1533.0
 20
803.0
 30
0.0
 11
1533.0
 21
819.5
 31
0.0
  0
LINE
  8
0
  6
CONTINUOUS
 62
     1
 10
1512.0
 20
932.0
 30
0.0
 11
1512.0
 21
935.0
 31
0.0
  0
ARC
  8
0
  6
CONTINUOUS
 62
     1
 10
1508.0
 20
929.0
 30
0.0
 40
3.0
 50
90.0
 51
180.0
  0
LINE
  8
0
  6
CONTINUOUS
 62
     1
 10
1505.0
 20
918.153619242
 30
0.0
 11
1505.0
 21
929.0
 31
0.0
  0
ARC
  8
0
  6
CONTINUOUS
 62
     1
 10
1501.0
 20
918.153619242
 30
0.0
 40
4.0
 50
304.936144888
 51
0.0
  0
ARC
  8
0
  6
CONTINUOUS
 62
     1
 10
1456.0
 20
929.0
 30
0.0
 40
3.0
 50
0.0
 51
90.0
  0
LINE
  8
0
  6
CONTINUOUS
 62
     1
 10
1459.0
 20
918.153619242
 30
0.0
 11
1459.0
 21
929.0
 31
0.0
  0
ARC
  8
0
  6
CONTINUOUS
 62
     1
 10
1463.0
 20
918.153619242
 30
0.0
 40
4.0
 50
180.0
 51
235.063855112
  0
LINE
  8
0
  6
CONTINUOUS
 62
     1
 10
1505.0
 20
923.0
 30
0.0
 11
1538.0
 21
923.0
 31
0.0
  0
LINE
  8
0
  6
CONTINUOUS
 62
     1
 10
1426.0
 20
923.0
 30
0.0
 11
1459.0
 21
923.0
 31
0.0
  0
CIRCLE
  8
0
  6
CONTINUOUS
 62
     1
 10
1482.0
 20
957.0
 30
0.0
 40
17.0
  0
LINE
  8
0
  6
LTYPE3
 62
     2
 10
1459.0
 20
957.0
 30
0.0
 11
1505.0
 21
957.0
 31
0.0
  0
ARC
  8
0
  6
CONTINUOUS
 62
     1
 10
1440.0
 20
979.020045888
 30
0.0
 40
2.0
 50
90.0
 51
180.0
  0
ARC
  8
0
  6
CONTINUOUS
 62
     1
 10
1448.0
 20
985.0
 30
0.0
 40
2.0
 50
90.0
 51
180.0
  0
LINE
  8
0
  6
CONTINUOUS
 62
     1
 10
1448.0
 20
987.0
 30
0.0
 11
1516.0
 21
987.0
 31
0.0
  0
ARC
  8
0
  6
CONTINUOUS
 62
     1
 10
1516.0
 20
985.0
 30
0.0
 40
2.0
 50
0.0
 51
90.0
  0
LINE
  8
0
  6
CONTINUOUS
 62
     1
 10
1524.0
 20
981.020045888
 30
0.0
 11
1440.0
 21
981.020045888
 31
0.0
  0
ARC
  8
0
  6
CONTINUOUS
 62
     1
 10
1524.0
 20
979.020045888
 30
0.0
 40
2.0
 50
0.0
 51
90.0
  0
ARC
  8
0
  6
CONTINUOUS
 62
     1
 10
1440.0
 20
983.020045888
 30
0.0
 40
2.0
 50
90.0
 51
180.0
  0
ARC
  8
0
  6
CONTINUOUS
 62
     1
 10
1448.0
 20
976.0
 30
0.0
 40
2.0
 50
90.0
 51
180.0
  0
LINE
  8
0
  6
CONTINUOUS
 62
     1
 10
1448.0
 20
978.0
 30
0.0
 11
1516.0
 21
978.0
 31
0.0
  0
ARC
  8
0
  6
CONTINUOUS
 62
     1
 10
1516.0
 20
976.0
 30
0.0
 40
2.0
 50
0.0
 51
90.0
  0
LINE
  8
0
  6
CONTINUOUS
 62
     1
 10
1524.0
 20
985.020045888
 30
0.0
 11
1440.0
 21
985.020045888
 31
0.0
  0
ARC
  8
0
  6
CONTINUOUS
 62
     1
 10
1524.0
 20
983.020045888
 30
0.0
 40
2.0
 50
0.0
 51
90.0
  0
LINE
  8
0
  6
CONTINUOUS
 62
     1
 10
1452.0
 20
932.0
 30
0.0
 11
1512.0
 21
932.0
 31
0.0
  0
LINE
  8
0
  6
CONTINUOUS
 62
     1
 10
1452.0
 20
932.0
 30
0.0
 11
1452.0
 21
935.0
 31
0.0
  0
LINE
  8
0
  6
CONTINUOUS
 62
     1
 10
1518.0
 20
937.0
 30
0.0
 11
1524.0
 21
937.0
 31
0.0
  0
LINE
  8
0
  6
CONTINUOUS
 62
     1
 10
1526.0
 20
939.0
 30
0.0
 11
1526.0
 21
983.020045888
 31
0.0
  0
ARC
  8
0
  6
CONTINUOUS
 62
     1
 10
1524.0
 20
939.0
 30
0.0
 40
2.0
 50
270.0
 51
0.0
  0
LINE
  8
0
  6
CONTINUOUS
 62
     1
 10
1518.0
 20
937.0
 30
0.0
 11
1518.0
 21
976.0
 31
0.0
  0
ARC
  8
0
  6
CONTINUOUS
 62
     1
 10
1516.0
 20
937.0
 30
0.0
 40
2.0
 50
270.0
 51
0.0
  0
LINE
  8
0
  6
CONTINUOUS
 62
     1
 10
1446.0
 20
937.0
 30
0.0
 11
1446.0
 21
976.0
 31
0.0
  0
LINE
  8
0
  6
CONTINUOUS
 62
     1
 10
1448.0
 20
935.0
 30
0.0
 11
1516.0
 21
935.0
 31
0.0
  0
ARC
  8
0
  6
CONTINUOUS
 62
     1
 10
1448.0
 20
937.0
 30
0.0
 40
2.0
 50
180.0
 51
270.0
  0
LINE
  8
0
  6
CONTINUOUS
 62
     1
 10
1446.0
 20
937.0
 30
0.0
 11
1440.0
 21
937.0
 31
0.0
  0
LINE
  8
0
  6
CONTINUOUS
 62
     1
 10
1438.0
 20
939.0
 30
0.0
 11
1438.0
 21
983.020045888
 31
0.0
  0
ARC
  8
0
  6
CONTINUOUS
 62
     1
 10
1440.0
 20
939.0
 30
0.0
 40
2.0
 50
180.0
 51
270.0
  0
CIRCLE
  8
0
  6
CONTINUOUS
 62
     2
 10
1482.0
 20
957.0
 30
0.0
 40
15.0
  0
CIRCLE
  8
0
  6
CONTINUOUS
 62
     6
 10
1482.0
 20
887.0
 30
0.0
 40
3.999998
  0
LINE
  8
0
  6
CONTINUOUS
 62
     6
 10
1485.999998
 20
889.3058812
 30
0.0
 11
1485.999998
 21
884.6941188
 31
0.0
  0
LINE
  8
0
  6
CONTINUOUS
 62
     6
 10
1485.999998
 20
884.6941188
 30
0.0
 11
1482.0
 21
882.3882376
 31
0.0
  0
LINE
  8
0
  6
CONTINUOUS
 62
     6
 10
1478.000002
 20
889.3058812
 30
0.0
 11
1478.000002
 21
884.6941188
 31
0.0
  0
LINE
  8
0
  6
CONTINUOUS
 62
     6
 10
1478.000002
 20
884.6941188
 30
0.0
 11
1482.0
 21
882.3882376
 31
0.0
  0
LINE
  8
0
  6
CONTINUOUS
 62
     6
 10
1485.999998
 20
889.3058812
 30
0.0
 11
1482.0
 21
891.6117624
 31
0.0
  0
LINE
  8
0
  6
CONTINUOUS
 62
     6
 10
1478.000002
 20
889.3058812
 30
0.0
 11
1482.0
 21
891.6117624
 31
0.0
  0
CIRCLE
  8
0
  6
CONTINUOUS
 62
     6
 10
1482.0
 20
837.0
 30
0.0
 40
3.999998
  0
LINE
  8
0
  6
CONTINUOUS
 62
     6
 10
1485.999998
 20
834.6941188
 30
0.0
 11
1485.999998
 21
839.3058812
 31
0.0
  0
LINE
  8
0
  6
CONTINUOUS
 62
     6
 10
1485.999998
 20
839.3058812
 30
0.0
 11
1482.0
 21
841.6117624
 31
0.0
  0
LINE
  8
0
  6
CONTINUOUS
 62
     6
 10
1478.000002
 20
834.6941188
 30
0.0
 11
1478.000002
 21
839.3058812
 31
0.0
  0
LINE
  8
0
  6
CONTINUOUS
 62
     6
 10
1478.000002
 20
839.3058812
 30
0.0
 11
1482.0
 21
841.6117624
 31
0.0
  0
LINE
  8
0
  6
CONTINUOUS
 62
     6
 10
1485.999998
 20
834.6941188
 30
0.0
 11
1482.0
 21
832.3882376
 31
0.0
  0
LINE
  8
0
  6
CONTINUOUS
 62
     6
 10
1478.000002
 20
834.6941188
 30
0.0
 11
1482.0
 21
832.3882376
 31
0.0
  0
CIRCLE
  8
0
  6
CONTINUOUS
 62
     6
 10
1455.5
 20
862.0
 30
0.0
 40
3.5
  0
LINE
  8
0
  6
CONTINUOUS
 62
     6
 10
1451.992597115
 20
864.025
 30
0.0
 11
1455.5
 21
866.05
 31
0.0
  0
LINE
  8
0
  6
CONTINUOUS
 62
     6
 10
1455.5
 20
866.05
 30
0.0
 11
1459.007402885
 21
864.025
 31
0.0
  0
LINE
  8
0
  6
CONTINUOUS
 62
     6
 10
1459.007402885
 20
864.025
 30
0.0
 11
1459.007402885
 21
859.975
 31
0.0
  0
LINE
  8
0
  6
CONTINUOUS
 62
     6
 10
1451.992597115
 20
859.975
 30
0.0
 11
1451.992597115
 21
864.025
 31
0.0
  0
LINE
  8
0
  6
CONTINUOUS
 62
     6
 10
1459.007402885
 20
859.975
 30
0.0
 11
1455.5
 21
857.95
 31
0.0
  0
LINE
  8
0
  6
CONTINUOUS
 62
     6
 10
1455.5
 20
857.95
 30
0.0
 11
1451.992597115
 21
859.975
 31
0.0
  0
LINE
  8
0
  6
CONTINUOUS
 62
     6
 10
1424.50005
 20
916.74703
 30
0.0
 11
1424.50005
 21
909.25297
 31
0.0
  0
LINE
  8
0
  6
CONTINUOUS
 62
     6
 10
1437.49995
 20
916.74703
 30
0.0
 11
1437.49995
 21
909.25297
 31
0.0
  0
LINE
  8
0
  6
CONTINUOUS
 62
     6
 10
1424.50005
 20
916.74703
 30
0.0
 11
1431.0
 21
920.49406
 31
0.0
  0
LINE
  8
0
  6
CONTINUOUS
 62
     6
 10
1437.49995
 20
916.74703
 30
0.0
 11
1431.0
 21
920.49406
 31
0.0
  0
LINE
  8
0
  6
CONTINUOUS
 62
     6
 10
1424.50005
 20
909.25297
 30
0.0
 11
1431.0
 21
905.50594
 31
0.0
  0
CIRCLE
  8
0
  6
CONTINUOUS
 62
     6
 10
1508.5
 20
862.0
 30
0.0
 40
3.5
  0
LINE
  8
0
  6
CONTINUOUS
 62
     6
 10
1512.007402885
 20
864.025
 30
0.0
 11
1508.5
 21
866.05
 31
0.0
  0
LINE
  8
0
  6
CONTINUOUS
 62
     6
 10
1508.5
 20
866.05
 30
0.0
 11
1504.992597115
 21
864.025
 31
0.0
  0
LINE
  8
0
  6
CONTINUOUS
 62
     6
 10
1504.992597115
 20
864.025
 30
0.0
 11
1504.992597115
 21
859.975
 31
0.0
  0
LINE
  8
0
  6
CONTINUOUS
 62
     6
 10
1504.992597115
 20
859.975
 30
0.0
 11
1508.5
 21
857.95
 31
0.0
  0
LINE
  8
0
  6
CONTINUOUS
 62
     6
 10
1508.5
 20
857.95
 30
0.0
 11
1512.007402885
 21
859.975
 31
0.0
  0
LINE
  8
0
  6
CONTINUOUS
 62
     6
 10
1512.007402885
 20
859.975
 30
0.0
 11
1512.007402885
 21
864.025
 31
0.0
  0
LINE
  8
0
  6
CONTINUOUS
 62
     6
 10
1514.062447841
 20
823.631672959
 30
0.0
 11
1514.062447841
 21
828.243435359
 31
0.0
  0
LINE
  8
0
  6
CONTINUOUS
 62
     6
 10
1522.062443841
 20
828.243435359
 30
0.0
 11
1518.062445841
 21
830.549316559
 31
0.0
  0
LINE
  8
0
  6
CONTINUOUS
 62
     6
 10
1514.062447841
 20
828.243435359
 30
0.0
 11
1518.062445841
 21
830.549316559
 31
0.0
  0
LINE
  8
0
  6
CONTINUOUS
 62
     6
 10
1522.062443841
 20
823.631672959
 30
0.0
 11
1518.062445841
 21
821.325791759
 31
0.0
  0
LINE
  8
0
  6
CONTINUOUS
 62
     6
 10
1514.062447841
 20
823.631672959
 30
0.0
 11
1518.062445841
 21
821.325791759
 31
0.0
  0
LINE
  8
0
  6
CONTINUOUS
 62
     6
 10
1522.062443841
 20
823.631672959
 30
0.0
 11
1522.062443841
 21
828.243435359
 31
0.0
  0
CIRCLE
  8
0
  6
CONTINUOUS
 62
     6
 10
1518.062445841
 20
825.937554159
 30
0.0
 40
3.999998
  0
CIRCLE
  8
0
  6
CONTINUOUS
 62
     6
 10
1431.0
 20
913.0
 30
0.0
 40
6.49995
  0
LINE
  8
0
  6
CONTINUOUS
 62
     6
 10
1437.49995
 20
909.25297
 30
0.0
 11
1431.0
 21
905.50594
 31
0.0
  0
LINE
  8
0
  6
CONTINUOUS
 62
     6
 10
1443.631672959
 20
902.062443841
 30
0.0
 11
1448.243435359
 21
902.062443841
 31
0.0
  0
LINE
  8
0
  6
CONTINUOUS
 62
     6
 10
1448.243435359
 20
902.062443841
 30
0.0
 11
1450.549316559
 21
898.062445841
 31
0.0
  0
LINE
  8
0
  6
CONTINUOUS
 62
     6
 10
1448.243435359
 20
894.062447841
 30
0.0
 11
1450.549316559
 21
898.062445841
 31
0.0
  0
LINE
  8
0
  6
CONTINUOUS
 62
     6
 10
1443.631672959
 20
902.062443841
 30
0.0
 11
1441.325791759
 21
898.062445841
 31
0.0
  0
LINE
  8
0
  6
CONTINUOUS
 62
     6
 10
1443.631672959
 20
894.062447841
 30
0.0
 11
1441.325791759
 21
898.062445841
 31
0.0
  0
LINE
  8
0
  6
CONTINUOUS
 62
     6
 10
1443.631672959
 20
894.062447841
 30
0.0
 11
1448.243435359
 21
894.062447841
 31
0.0
  0
CIRCLE
  8
0
  6
CONTINUOUS
 62
     6
 10
1445.937554159
 20
898.062445841
 30
0.0
 40
3.999998
  0
LINE
  8
0
  6
CONTINUOUS
 62
     6
 10
1522.062443841
 20
900.368327041
 30
0.0
 11
1518.062445841
 21
902.674208241
 31
0.0
  0
LINE
  8
0
  6
CONTINUOUS
 62
     6
 10
1514.062447841
 20
900.368327041
 30
0.0
 11
1518.062445841
 21
902.674208241
 31
0.0
  0
LINE
  8
0
  6
CONTINUOUS
 62
     6
 10
1522.062443841
 20
900.368327041
 30
0.0
 11
1522.062443841
 21
895.756564641
 31
0.0
  0
LINE
  8
0
  6
CONTINUOUS
 62
     6
 10
1522.062443841
 20
895.756564641
 30
0.0
 11
1518.062445841
 21
893.450683441
 31
0.0
  0
LINE
  8
0
  6
CONTINUOUS
 62
     6
 10
1514.062447841
 20
895.756564641
 30
0.0
 11
1518.062445841
 21
893.450683441
 31
0.0
  0
LINE
  8
0
  6
CONTINUOUS
 62
     6
 10
1514.062447841
 20
900.368327041
 30
0.0
 11
1514.062447841
 21
895.756564641
 31
0.0
  0
CIRCLE
  8
0
  6
CONTINUOUS
 62
     6
 10
1518.062445841
 20
898.062445841
 30
0.0
 40
3.999998
  0
LINE
  8
0
  6
CONTINUOUS
 62
     6
 10
1526.50005
 20
916.74703
 30
0.0
 11
1526.50005
 21
909.25297
 31
0.0
  0
LINE
  8
0
  6
CONTINUOUS
 62
     6
 10
1526.50005
 20
909.25297
 30
0.0
 11
1533.0
 21
905.50594
 31
0.0
  0
LINE
  8
0
  6
CONTINUOUS
 62
     6
 10
1539.49995
 20
916.74703
 30
0.0
 11
1533.0
 21
920.49406
 31
0.0
  0
LINE
  8
0
  6
CONTINUOUS
 62
     6
 10
1526.50005
 20
916.74703
 30
0.0
 11
1533.0
 21
920.49406
 31
0.0
  0
LINE
  8
0
  6
CONTINUOUS
 62
     6
 10
1539.49995
 20
909.25297
 30
0.0
 11
1533.0
 21
905.50594
 31
0.0
  0
CIRCLE
  8
0
  6
CONTINUOUS
 62
     6
 10
1533.0
 20
913.0
 30
0.0
 40
6.49995
  0
LINE
  8
0
  6
CONTINUOUS
 62
     6
 10
1443.631672959
 20
821.937556159
 30
0.0
 11
1448.243435359
 21
821.937556159
 31
0.0
  0
LINE
  8
0
  6
CONTINUOUS
 62
     6
 10
1448.243435359
 20
821.937556159
 30
0.0
 11
1450.549316559
 21
825.937554159
 31
0.0
  0
LINE
  8
0
  6
CONTINUOUS
 62
     6
 10
1448.243435359
 20
829.937552159
 30
0.0
 11
1450.549316559
 21
825.937554159
 31
0.0
  0
LINE
  8
0
  6
CONTINUOUS
 62
     6
 10
1443.631672959
 20
829.937552159
 30
0.0
 11
1448.243435359
 21
829.937552159
 31
0.0
  0
LINE
  8
0
  6
CONTINUOUS
 62
     6
 10
1443.631672959
 20
821.937556159
 30
0.0
 11
1441.325791759
 21
825.937554159
 31
0.0
  0
LINE
  8
0
  6
CONTINUOUS
 62
     6
 10
1443.631672959
 20
829.937552159
 30
0.0
 11
1441.325791759
 21
825.937554159
 31
0.0
  0
CIRCLE
  8
0
  6
CONTINUOUS
 62
     6
 10
1445.937554159
 20
825.937554159
 30
0.0
 40
3.999998
  0
LINE
  8
0
  6
CONTINUOUS
 62
     6
 10
1526.50005
 20
807.25297
 30
0.0
 11
1526.50005
 21
814.74703
 31
0.0
  0
LINE
  8
0
  6
CONTINUOUS
 62
     6
 10
1526.50005
 20
807.25297
 30
0.0
 11
1533.0
 21
803.50594
 31
0.0
  0
LINE
  8
0
  6
CONTINUOUS
 62
     6
 10
1539.49995
 20
807.25297
 30
0.0
 11
1533.0
 21
803.50594
 31
0.0
  0
LINE
  8
0
  6
CONTINUOUS
 62
     6
 10
1539.49995
 20
814.74703
 30
0.0
 11
1533.0
 21
818.49406
 31
0.0
  0
LINE
  8
0
  6
CONTINUOUS
 62
     6
 10
1526.50005
 20
814.74703
 30
0.0
 11
1533.0
 21
818.49406
 31
0.0
  0
CIRCLE
  8
0
  6
CONTINUOUS
 62
     6
 10
1533.0
 20
811.0
 30
0.0
 40
6.49995
  0
LINE
  8
2
  6
CONTINUOUS
 62
     2
 10
1521.000015259
 20
987.0
 30
0.0
 11
1694.0
 21
987.0
 31
0.0
  0
ARC
  8
0
  6
CONTINUOUS
 62
     1
 10
1411.0
 20
655.5
 30
0.0
 40
6.0
 50
180.0
 51
270.0
  0
LINE
  8
0
  6
CONTINUOUS
 62
     1
 10
1562.0
 20
748.0
 30
0.0
 11
1528.733285782
 21
752.0
 31
0.0
  0
ARC
  8
0
  6
CONTINUOUS
 62
     1
 10
1434.0
 20
664.5
 30
0.0
 40
3.0
 50
90.0
 51
180.0
  0
LINE
  8
0
  6
CONTINUOUS
 62
     1
 10
1431.0
 20
618.0
 30
0.0
 11
1431.0
 21
664.5
 31
0.0
  0
ARC
  8
0
  6
CONTINUOUS
 62
     1
 10
1432.0
 20
618.0
 30
0.0
 40
1.0
 50
180.0
 51
270.0
  0
ARC
  8
0
  6
CONTINUOUS
 62
     1
 10
1435.0
 20
617.0
 30
0.0
 40
1.0
 50
180.0
 51
270.0
  0
ARC
  8
0
  6
CONTINUOUS
 62
     1
 10
1530.0
 20
664.5
 30
0.0
 40
3.0
 50
0.0
 51
90.0
  0
LINE
  8
0
  6
CONTINUOUS
 62
     1
 10
1533.0
 20
618.0
 30
0.0
 11
1533.0
 21
664.5
 31
0.0
  0
ARC
  8
0
  6
CONTINUOUS
 62
     1
 10
1532.0
 20
618.0
 30
0.0
 40
1.0
 50
270.0
 51
0.0
  0
ARC
  8
0
  6
CONTINUOUS
 62
     1
 10
1529.0
 20
617.0
 30
0.0
 40
1.0
 50
270.0
 51
0.0
  0
LINE
  8
0
  6
CONTINUOUS
 62
     1
 10
1533.0
 20
623.0
 30
0.0
 11
1431.0
 21
623.0
 31
0.0
  0
LINE
  8
0
  6
CONTINUOUS
 62
     1
 10
1533.0
 20
624.5
 30
0.0
 11
1431.0
 21
624.5
 31
0.0
  0
LINE
  8
0
  6
CONTINUOUS
 62
     1
 10
1434.0
 20
667.5
 30
0.0
 11
1530.0
 21
667.5
 31
0.0
  0
LINE
  8
0
  6
CONTINUOUS
 62
     1
 10
1529.0
 20
616.0
 30
0.0
 11
1435.0
 21
616.0
 31
0.0
  0
LINE
  8
0
  6
CONTINUOUS
 62
     1
 10
1532.0
 20
617.0
 30
0.0
 11
1432.0
 21
617.0
 31
0.0
  0
LINE
  8
0
  6
CONTINUOUS
 62
     1
 10
1437.0
 20
669.0
 30
0.0
 11
1527.0
 21
669.0
 31
0.0
  0
CIRCLE
  8
0
  6
CONTINUOUS
 62
     1
 10
1529.0
 20
774.0
 30
0.0
 40
9.0
  0
ARC
  8
0
  6
CONTINUOUS
 62
     1
 10
1428.0
 20
673.0
 30
0.0
 40
5.0
 50
180.0
 51
270.0
  0
LINE
  8
0
  6
CONTINUOUS
 62
     1
 10
1527.0
 20
668.0
 30
0.0
 11
1536.0
 21
668.0
 31
0.0
  0
LINE
  8
0
  6
CONTINUOUS
 62
     1
 10
1437.0
 20
668.0
 30
0.0
 11
1428.0
 21
668.0
 31
0.0
  0
ARC
  8
0
  6
CONTINUOUS
 62
     1
 10
1435.0
 20
680.0
 30
0.0
 40
9.0
 50
77.327684064
 51
282.116861929
  0
ARC
  8
0
  6
CONTINUOUS
 62
     1
 10
1529.0
 20
680.0
 30
0.0
 40
9.0
 50
257.883138071
 51
102.672315936
  0
LINE
  8
0
  6
CONTINUOUS
 62
     1
 10
1509.5
 20
752.0
 30
0.0
 11
1494.5
 21
752.0
 31
0.0
  0
LINE
  8
0
  6
CONTINUOUS
 62
     1
 10
1514.0
 20
705.0
 30
0.0
 11
1514.0
 21
749.0
 31
0.0
  0
LINE
  8
0
  6
CONTINUOUS
 62
     1
 10
1520.0
 20
714.5
 30
0.0
 11
1520.0
 21
739.5
 31
0.0
  0
LINE
  8
0
  6
CONTINUOUS
 62
     1
 10
1520.0
 20
739.5
 30
0.0
 11
1514.0
 21
739.5
 31
0.0
  0
LINE
  8
0
  6
CONTINUOUS
 62
     1
 10
1520.0
 20
714.5
 30
0.0
 11
1514.0
 21
714.5
 31
0.0
  0
LINE
  8
0
  6
CONTINUOUS
 62
     1
 10
1514.0
 20
749.0
 30
0.0
 11
1509.5
 21
749.0
 31
0.0
  0
LINE
  8
0
  6
CONTINUOUS
 62
     1
 10
1514.0
 20
705.0
 30
0.0
 11
1509.5
 21
705.0
 31
0.0
  0
CIRCLE
  8
0
  6
CONTINUOUS
 62
     1
 10
1516.0
 20
727.0
 30
0.0
 40
2.0
  0
LINE
  8
0
  6
CONTINUOUS
 62
     1
 10
1450.0
 20
705.0
 30
0.0
 11
1450.0
 21
749.0
 31
0.0
  0
LINE
  8
0
  6
CONTINUOUS
 62
     1
 10
1444.0
 20
714.5
 30
0.0
 11
1444.0
 21
739.5
 31
0.0
  0
LINE
  8
0
  6
CONTINUOUS
 62
     1
 10
1444.0
 20
739.5
 30
0.0
 11
1450.0
 21
739.5
 31
0.0
  0
LINE
  8
0
  6
CONTINUOUS
 62
     1
 10
1444.0
 20
714.5
 30
0.0
 11
1450.0
 21
714.5
 31
0.0
  0
LINE
  8
0
  6
CONTINUOUS
 62
     1
 10
1450.0
 20
749.0
 30
0.0
 11
1454.5
 21
749.0
 31
0.0
  0
LINE
  8
0
  6
CONTINUOUS
 62
     1
 10
1450.0
 20
705.0
 30
0.0
 11
1454.5
 21
705.0
 31
0.0
  0
CIRCLE
  8
0
  6
CONTINUOUS
 62
     1
 10
1448.0
 20
727.0
 30
0.0
 40
2.0
  0
LINE
  8
0
  6
CONTINUOUS
 62
     1
 10
1494.5
 20
714.5
 30
0.0
 11
1469.5
 21
714.5
 31
0.0
  0
LINE
  8
0
  6
CONTINUOUS
 62
     1
 10
1494.5
 20
739.5
 30
0.0
 11
1469.5
 21
739.5
 31
0.0
  0
LINE
  8
0
  6
CONTINUOUS
 62
     1
 10
1469.5
 20
714.5
 30
0.0
 11
1494.5
 21
714.5
 31
0.0
  0
LINE
  8
0
  6
CONTINUOUS
 62
     1
 10
1469.5
 20
739.5
 30
0.0
 11
1494.5
 21
739.5
 31
0.0
  0
LINE
  8
0
  6
CONTINUOUS
 62
     1
 10
1454.5
 20
752.0
 30
0.0
 11
1494.5
 21
752.0
 31
0.0
  0
LINE
  8
0
  6
CONTINUOUS
 62
     1
 10
1509.5
 20
702.0
 30
0.0
 11
1509.5
 21
752.0
 31
0.0
  0
LINE
  8
0
  6
CONTINUOUS
 62
     1
 10
1454.5
 20
702.0
 30
0.0
 11
1509.5
 21
702.0
 31
0.0
  0
LINE
  8
0
  6
CONTINUOUS
 62
     1
 10
1494.5
 20
702.0
 30
0.0
 11
1494.5
 21
752.0
 31
0.0
  0
LINE
  8
0
  6
CONTINUOUS
 62
     1
 10
1469.5
 20
702.0
 30
0.0
 11
1469.5
 21
752.0
 31
0.0
  0
LINE
  8
0
  6
CONTINUOUS
 62
     1
 10
1454.5
 20
702.0
 30
0.0
 11
1454.5
 21
752.0
 31
0.0
  0
LINE
  8
0
  6
CONTINUOUS
 62
     1
 10
1533.0
 20
649.5
 30
0.0
 11
1553.0
 21
649.5
 31
0.0
  0
LINE
  8
0
  6
CONTINUOUS
 62
     1
 10
1411.0
 20
649.5
 30
0.0
 11
1431.0
 21
649.5
 31
0.0
  0
LINE
  8
0
  6
CONTINUOUS
 62
     1
 10
1405.0
 20
655.5
 30
0.0
 11
1405.0
 21
705.639279073
 31
0.0
  0
LINE
  8
0
  6
LTYPE1
 62
     2
 10
1427.0
 20
717.0
 30
0.0
 11
1427.0
 21
737.0
 31
0.0
  0
LINE
  8
0
  6
LTYPE1
 62
     2
 10
1427.0
 20
737.0
 30
0.0
 11
1402.0
 21
737.0
 31
0.0
  0
LINE
  8
0
  6
LTYPE1
 62
     2
 10
1427.0
 20
717.0
 30
0.0
 11
1402.0
 21
717.0
 31
0.0
  0
LINE
  8
0
  6
LTYPE2
 62
     2
 10
1527.0
 20
612.3
 30
0.0
 11
1527.0
 21
631.0
 31
0.0
  0
LINE
  8
0
  6
LTYPE2
 62
     2
 10
1437.0
 20
612.3
 30
0.0
 11
1437.0
 21
631.0
 31
0.0
  0
LINE
  8
0
  6
LTYPE2
 62
     2
 10
1447.4
 20
774.0
 30
0.0
 11
1423.6
 21
774.0
 31
0.0
  0
LINE
  8
0
  6
LTYPE2
 62
     2
 10
1435.0
 20
762.665527109
 30
0.0
 11
1435.0
 21
784.765527109
 31
0.0
  0
LINE
  8
0
  6
LTYPE2
 62
     2
 10
1516.6
 20
774.0
 30
0.0
 11
1540.4
 21
774.0
 31
0.0
  0
LINE
  8
0
  6
LTYPE2
 62
     2
 10
1529.0
 20
762.665527109
 30
0.0
 11
1529.0
 21
784.765527109
 31
0.0
  0
LINE
  8
0
  6
LTYPE2
 62
     2
 10
1516.6
 20
680.0
 30
0.0
 11
1540.4
 21
680.0
 31
0.0
  0
LINE
  8
0
  6
LTYPE2
 62
     2
 10
1447.4
 20
680.0
 30
0.0
 11
1423.6
 21
680.0
 31
0.0
  0
LINE
  8
0
  6
LTYPE2
 62
     2
 10
1435.0
 20
670.15
 30
0.0
 11
1435.0
 21
693.25
 31
0.0
  0
LINE
  8
0
  6
LTYPE2
 62
     2
 10
1516.6
 20
680.0
 30
0.0
 11
1540.4
 21
680.0
 31
0.0
  0
LINE
  8
0
  6
LTYPE2
 62
     2
 10
1529.0
 20
670.15
 30
0.0
 11
1529.0
 21
693.25
 31
0.0
  0
LINE
  8
0
  6
LTYPE4
 62
     2
 10
1515.9
 20
723.0
 30
0.0
 11
1515.9
 21
731.2
 31
0.0
  0
LINE
  8
0
  6
LTYPE1
 62
     2
 10
1514.0
 20
739.5
 30
0.0
 11
1494.5
 21
739.5
 31
0.0
  0
LINE
  8
0
  6
LTYPE1
 62
     2
 10
1514.0
 20
714.5
 30
0.0
 11
1494.5
 21
714.5
 31
0.0
  0
LINE
  8
0
  6
LTYPE4
 62
     2
 10
1448.1
 20
723.0
 30
0.0
 11
1448.1
 21
731.2
 31
0.0
  0
LINE
  8
0
  6
LTYPE1
 62
     2
 10
1450.0
 20
739.5
 30
0.0
 11
1469.5
 21
739.5
 31
0.0
  0
LINE
  8
0
  6
LTYPE1
 62
     2
 10
1450.0
 20
714.5
 30
0.0
 11
1469.5
 21
714.5
 31
0.0
  0
LINE
  8
0
  6
CONTINUOUS
 62
     2
 10
1405.0
 20
648.0
 30
0.0
 11
1405.0
 21
560.3
 31
0.0
  0
LINE
  8
0
  6
CONTINUOUS
 62
     2
 10
1405.0
 20
567.8
 30
0.0
 11
1417.074072829
 21
564.564761936
 31
0.0
  0
LINE
  8
0
  6
CONTINUOUS
 62
     2
 10
1405.0
 20
567.8
 30
0.0
 11
1417.074072829
 21
571.035238064
 31
0.0
  0
LINE
  8
0
  6
CONTINUOUS
 62
     2
 10
1405.0
 20
567.8
 30
0.0
 11
1559.0
 21
567.8
 31
0.0
  0
LINE
  8
0
  6
CONTINUOUS
 62
     2
 10
1402.0
 20
698.5
 30
0.0
 11
1402.0
 21
519.8375
 31
0.0
  0
LINE
  8
0
  6
CONTINUOUS
 62
     2
 10
1402.0
 20
527.3375
 30
0.0
 11
1414.074072829
 21
524.102261936
 31
0.0
  0
LINE
  8
0
  6
CONTINUOUS
 62
     2
 10
1402.0
 20
527.3375
 30
0.0
 11
1414.074072829
 21
530.572738064
 31
0.0
  0
LINE
  8
0
  6
CONTINUOUS
 62
     2
 10
1402.0
 20
527.3375
 30
0.0
 11
1562.0
 21
527.3375
 31
0.0
  0
CIRCLE
  8
0
  6
CONTINUOUS
 62
     2
 10
1482.0
 20
641.5
 30
0.0
 40
10.4775
  0
CIRCLE
  8
0
  6
CONTINUOUS
 62
     2
 10
1482.0
 20
641.5
 30
0.0
 40
9.3155
  0
LINE
  8
0
  6
LTYPE3
 62
     2
 10
1501.9
 20
641.5
 30
0.0
 11
1461.2
 21
641.5
 31
0.0
  0
ARC
  8
0
  6
CONTINUOUS
 62
     1
 10
1435.0
 20
774.0
 30
0.0
 40
9.0
 50
4.497151615
 51
179.370401392
  0
ARC
  8
0
  6
CONTINUOUS
 62
     1
 10
1435.0
 20
774.0
 30
0.0
 40
9.0
 50
0.0
 51
4.497151615
  0
ARC
  8
0
  6
CONTINUOUS
 62
     1
 10
1482.0
 20
727.0
 30
0.0
 40
55.0
 50
46.933927913
 51
47.005647371
  0
LINE
  8
0
  6
CONTINUOUS
 62
     1
 10
1527.0
 20
667.5
 30
0.0
 11
1527.0
 21
695.377223398
 31
0.0
  0
LINE
  8
0
  6
CONTINUOUS
 62
     1
 10
1562.0
 20
706.0
 30
0.0
 11
1531.0
 21
702.272550418
 31
0.0
  0
LINE
  8
0
  6
LTYPE1
 62
     2
 10
1402.0
 20
748.0
 30
0.0
 11
1435.266714218
 21
752.0
 31
0.0
  0
LINE
  8
0
  6
LTYPE1
 62
     2
 10
1423.0
 20
750.525046491
 30
0.0
 11
1423.0
 21
774.1
 31
0.0
  0
LINE
  8
0
  6
CONTINUOUS
 62
     2
 10
1311.087188375
 20
596.1
 30
0.0
 11
1323.161261203
 21
592.864761936
 31
0.0
  0
LINE
  8
0
  6
CONTINUOUS
 62
     2
 10
1311.087188375
 20
596.1
 30
0.0
 11
1323.161261203
 21
599.335238064
 31
0.0
  0
LINE
  8
0
  6
CONTINUOUS
 62
     2
 10
1311.087188375
 20
596.1
 30
0.0
 11
1482.0
 21
596.1
 31
0.0
  0
LINE
  8
0
  6
CONTINUOUS
 62
     2
 10
1482.0
 20
596.1
 30
0.0
 11
1469.925927171
 21
599.335238064
 31
0.0
  0
LINE
  8
0
  6
CONTINUOUS
 62
     2
 10
1482.0
 20
596.1
 30
0.0
 11
1469.925927171
 21
592.864761936
 31
0.0
  0
LINE
  8
0
  6
LTYPE2
 62
     2
 10
1482.0
 20
997.0
 30
0.0
 11
1482.0
 21
591.5
 31
0.0
  0
ARC
  8
0
  6
CONTINUOUS
 62
     1
 10
1482.0
 20
862.0
 30
0.0
 40
78.0
 50
141.071652006
 51
170.815502227
  0
LINE
  8
0
  6
CONTINUOUS
 62
     2
 10
1645.872218677
 20
727.0
 30
0.0
 11
1642.636980613
 21
714.925927171
 31
0.0
  0
LINE
  8
0
  6
CONTINUOUS
 62
     2
 10
1645.872218677
 20
727.0
 30
0.0
 11
1649.10745674
 21
714.925927171
 31
0.0
  0
LINE
  8
0
  6
CONTINUOUS
 62
     2
 10
1645.872218677
 20
727.0
 30
0.0
 11
1645.872218677
 21
616.0
 31
0.0
  0
LINE
  8
0
  6
CONTINUOUS
 62
     2
 10
1645.872218677
 20
616.0
 30
0.0
 11
1649.10745674
 21
628.074072829
 31
0.0
  0
LINE
  8
0
  6
CONTINUOUS
 62
     2
 10
1645.872218677
 20
616.0
 30
0.0
 11
1642.636980613
 21
628.074072829
 31
0.0
  0
LINE
  8
0
  6
CONTINUOUS
 62
     2
 10
1645.872218677
 20
727.0
 30
0.0
 11
1649.10745674
 21
739.074072829
 31
0.0
  0
LINE
  8
0
  6
CONTINUOUS
 62
     2
 10
1645.872218677
 20
727.0
 30
0.0
 11
1642.636980613
 21
739.074072829
 31
0.0
  0
LINE
  8
0
  6
CONTINUOUS
 62
     2
 10
1569.5
 20
737.0
 30
0.0
 11
1616.0
 21
737.0
 31
0.0
  0
LINE
  8
0
  6
CONTINUOUS
 62
     2
 10
1608.5
 20
737.0
 30
0.0
 11
1611.735238064
 21
749.074072829
 31
0.0
  0
LINE
  8
0
  6
CONTINUOUS
 62
     2
 10
1608.5
 20
737.0
 30
0.0
 11
1605.264761936
 21
749.074072829
 31
0.0
  0
LINE
  8
0
  6
CONTINUOUS
 62
     2
 10
1608.5
 20
717.0
 30
0.0
 11
1605.264761936
 21
704.925927171
 31
0.0
  0
LINE
  8
0
  6
CONTINUOUS
 62
     2
 10
1608.5
 20
717.0
 30
0.0
 11
1611.735238064
 21
704.925927171
 31
0.0
  0
LINE
  8
0
  6
CONTINUOUS
 62
     2
 10
1569.5
 20
717.0
 30
0.0
 11
1616.0
 21
717.0
 31
0.0
  0
LINE
  8
0
  6
CONTINUOUS
 62
     2
 10
1645.872218677
 20
862.0
 30
0.0
 11
1642.636980613
 21
849.925927171
 31
0.0
  0
LINE
  8
0
  6
CONTINUOUS
 62
     2
 10
1645.872218677
 20
862.0
 30
0.0
 11
1649.10745674
 21
849.925927171
 31
0.0
  0
LINE
  8
0
  6
CONTINUOUS
 62
     2
 10
1625.0
 20
862.0
 30
0.0
 11
1653.372218677
 21
862.0
 31
0.0
  0
LINE
  8
0
  6
LTYPE4
 62
     2
 10
1613.872218677
 20
862.0
 30
0.0
 11
1647.0
 21
862.0
 31
0.0
  0
LINE
  8
0
  6
CONTINUOUS
 62
     2
 10
1645.872218677
 20
727.0
 30
0.0
 11
1645.872218677
 21
862.0
 31
0.0
  0
ARC
  8
0
  6
CONTINUOUS
 62
     1
 10
1538.0
 20
918.0
 30
0.0
 40
5.0
 50
0.0
 51
90.0
  0
LINE
  8
0
  6
CONTINUOUS
 62
     1
 10
1543.0
 20
806.0
 30
0.0
 11
1543.0
 21
918.0
 31
0.0
  0
ARC
  8
0
  6
CONTINUOUS
 62
     1
 10
1538.0
 20
806.0
 30
0.0
 40
5.0
 50
270.0
 51
0.0
  0
LINE
  8
0
  6
CONTINUOUS
 62
     6
 10
1539.49995
 20
916.74703
 30
0.0
 11
1539.49995
 21
909.25297
 31
0.0
  0
LINE
  8
0
  6
CONTINUOUS
 62
     6
 10
1539.49995
 20
807.25297
 30
0.0
 11
1539.49995
 21
814.74703
 31
0.0
  0
LINE
  8
2
  6
CONTINUOUS
 62
     2
 10
1632.0
 20
616.0
 30
0.0
 11
1694.0
 21
616.0
 31
0.0
  0
LINE
  8
2
  6
CONTINUOUS
 62
     2
 10
1684.0
 20
616.0
 30
0.0
 11
1687.235238064
 21
628.074072829
 31
0.0
  0
LINE
  8
2
  6
CONTINUOUS
 62
     2
 10
1684.0
 20
616.0
 30
0.0
 11
1680.764761936
 21
628.074072829
 31
0.0
  0
LINE
  8
2
  6
CONTINUOUS
 62
     2
 10
1684.0
 20
616.0
 30
0.0
 11
1684.0
 21
987.0
 31
0.0
  0
LINE
  8
2
  6
CONTINUOUS
 62
     2
 10
1684.0
 20
987.0
 30
0.0
 11
1680.764761936
 21
974.925927171
 31
0.0
  0
LINE
  8
2
  6
CONTINUOUS
 62
     2
 10
1684.0
 20
987.0
 30
0.0
 11
1687.235238064
 21
974.925927171
 31
0.0
  0
LINE
  8
2
  6
CONTINUOUS
 62
     2
 10
1639.872218677
 20
862.0
 30
0.0
 11
1655.872218677
 21
862.0
 31
0.0
  0
LINE
  8
2
  6
CONTINUOUS
 62
     2
 10
1645.872218677
 20
862.0
 30
0.0
 11
1649.10745674
 21
874.074072829
 31
0.0
  0
LINE
  8
2
  6
CONTINUOUS
 62
     2
 10
1645.872218677
 20
862.0
 30
0.0
 11
1642.636980613
 21
874.074072829
 31
0.0
  0
LINE
  8
2
  6
CONTINUOUS
 62
     2
 10
1645.872218677
 20
862.0
 30
0.0
 11
1645.872218677
 21
987.0
 31
0.0
  0
LINE
  8
2
  6
CONTINUOUS
 62
     2
 10
1645.872218677
 20
987.0
 30
0.0
 11
1642.636980613
 21
974.925927171
 31
0.0
  0
LINE
  8
2
  6
CONTINUOUS
 62
     2
 10
1645.872218677
 20
987.0
 30
0.0
 11
1649.10745674
 21
974.925927171
 31
0.0
  0
LINE
  8
2
  6
CONTINUOUS
 62
     2
 10
1617.872218677
 20
987.0
 30
0.0
 11
1655.872218677
 21
987.0
 31
0.0
  0
ARC
  8
0
  6
CONTINUOUS
 62
     1
 10
1553.0
 20
655.5
 30
0.0
 40
6.0
 50
270.0
 51
0.0
  0
LINE
  8
0
  6
CONTINUOUS
 62
     1
 10
1562.0
 20
706.0
 30
0.0
 11
1562.0
 21
748.0
 31
0.0
  0
ARC
  8
0
  6
CONTINUOUS
 62
     1
 10
1536.0
 20
781.0
 30
0.0
 40
5.0
 50
0.0
 51
90.0
  0
ARC
  8
0
  6
CONTINUOUS
 62
     1
 10
1536.0
 20
673.0
 30
0.0
 40
5.0
 50
270.0
 51
360.0
  0
LINE
  8
0
  6
CONTINUOUS
 62
     1
 10
1541.0
 20
750.525046491
 30
0.0
 11
1541.0
 21
781.0
 31
0.0
  0
LINE
  8
0
  6
CONTINUOUS
 62
     1
 10
1541.0
 20
703.474953509
 30
0.0
 11
1541.0
 21
673.0
 31
0.0
  0
LINE
  8
0
  6
CONTINUOUS
 62
     1
 10
1559.0
 20
655.5
 30
0.0
 11
1559.0
 21
705.639279073
 31
0.0
  0
LINE
  8
0
  6
LTYPE1
 62
     2
 10
1537.0
 20
717.0
 30
0.0
 11
1537.0
 21
737.0
 31
0.0
  0
LINE
  8
0
  6
LTYPE1
 62
     2
 10
1537.0
 20
737.0
 30
0.0
 11
1562.0
 21
737.0
 31
0.0
  0
LINE
  8
0
  6
LTYPE1
 62
     2
 10
1537.0
 20
717.0
 30
0.0
 11
1562.0
 21
717.0
 31
0.0
  0
LINE
  8
0
  6
CONTINUOUS
 62
     2
 10
1536.5
 20
616.0
 30
0.0
 11
1638.372218677
 21
616.0
 31
0.0
  0
LINE
  8
0
  6
CONTINUOUS
 62
     2
 10
1559.0
 20
567.8
 30
0.0
 11
1546.925927171
 21
571.035238064
 31
0.0
  0
LINE
  8
0
  6
CONTINUOUS
 62
     2
 10
1559.0
 20
567.8
 30
0.0
 11
1546.925927171
 21
564.564761936
 31
0.0
  0
LINE
  8
0
  6
CONTINUOUS
 62
     2
 10
1559.0
 20
648.0
 30
0.0
 11
1559.0
 21
560.3
 31
0.0
  0
LINE
  8
0
  6
CONTINUOUS
 62
     2
 10
1562.0
 20
527.3375
 30
0.0
 11
1549.925927171
 21
530.572738064
 31
0.0
  0
LINE
  8
0
  6
CONTINUOUS
 62
     2
 10
1562.0
 20
527.3375
 30
0.0
 11
1549.925927171
 21
524.102261936
 31
0.0
  0
LINE
  8
0
  6
CONTINUOUS
 62
     2
 10
1562.0
 20
698.5
 30
0.0
 11
1562.0
 21
519.8375
 31
0.0
  0
LINE
  8
0
  6
CONTINUOUS
 62
     1
 10
1559.0
 20
748.360720927
 30
0.0
 11
1559.0
 21
874.449899598
 31
0.0
  0
ARC
  8
0
  6
CONTINUOUS
 62
     1
 10
1482.0
 20
862.0
 30
0.0
 40
78.0
 50
9.184497773
 51
38.928347994
  0
TEXT
  8
0
  6
CONTINUOUS
 62
     2
 10
1460.25
 20
572.8
 30
0.0
 40
18.0
  1
１５４
 50
0.0
 41
0.9
 51
0.0
  7
KANJI17
  0
TEXT
  8
0
  6
CONTINUOUS
 62
     2
 10
1460.25
 20
532.3375
 30
0.0
 40
18.0
  1
１６０
 50
0.0
 41
0.9
 51
0.0
  7
KANJI17
  0
TEXT
  8
0
  6
CONTINUOUS
 62
     2
 10
1640.872218677
 20
649.75
 30
0.0
 40
18.0
  1
１１１
 50
90.0
 41
0.9
 51
0.0
  7
KANJI17
  0
TEXT
  8
0
  6
CONTINUOUS
 62
     2
 10
1603.222218677
 20
742.75
 30
0.0
 40
18.0
  1
φ２０Ｈ１０深さ２５
 50
90.0
 41
0.9
 51
0.0
  7
KANJI17
  0
TEXT
  8
0
  6
CONTINUOUS
 62
     2
 10
1640.872218677
 20
783.25
 30
0.0
 40
18.0
  1
１３５
 50
90.0
 41
0.9
 51
0.0
  7
KANJI17
  0
TEXT
  8
2
  6
CONTINUOUS
 62
     2
 10
1679.0
 20
776.0
 30
0.0
 40
18.0
  1
３７１
 50
90.0
 41
0.9
 51
0.0
  7
KANJI17
  0
TEXT
  8
2
  6
CONTINUOUS
 62
     3
 10
1640.872218677
 20
899.0
 30
0.0
 40
18.0
  1
１２５
 50
90.0
 41
0.9
 51
0.0
  7
KANJI17
  0
TEXT
  8
0
  6
CONTINUOUS
 62
     2
 10
1345.043594187
 20
601.1
 30
0.0
 40
18.0
  1
１７５
 50
0.0
 41
0.9
 51
0.0
  7
KANJI17
  0
LINE
  8
0
  6
CONTINUOUS
 62
     2
 10
1608.5
 20
905.0
 30
0.0
 11
1608.5
 21
698.25
 31
0.0
  0
ARC
  8
0
  6
CONTINUOUS
 62
     1
 10
1482.0
 20
862.0
 30
0.0
 40
78.0
 50
51.448774443
 51
66.58303177
  0
ARC
  8
0
  6
CONTINUOUS
 62
     1
 10
1482.0
 20
862.0
 30
0.0
 40
78.0
 50
112.496007422
 51
128.551225557
  0
LINE
  8
0
  6
CONTINUOUS
 62
     2
 10
1574.956523564
 20
727.0
 30
0.0
 11
1653.372218677
 21
727.0
 31
0.0
  0
TEXT
  8
0
  6
CONTINUOUS
 62
     2
 10
171.4
 20
26.4
 30
0.0
 40
18.0
  1
ＦＤ　Ｎｏ．ＭＣ１９０
 50
0.0
 41
0.9
 51
0.0
  7
KANJI18
  0
LINE
  8
0
  6
CONTINUOUS
 62
     1
 10
1518.37
 20
1674.9
 30
0.0
 11
1518.37
 21
1554.78
 31
0.0
  0
LINE
  8
0
  6
CONTINUOUS
 62
     2
 10
1449.07
 20
1674.9
 30
0.0
 11
1449.07
 21
1554.78
 31
0.0
  0
LINE
  8
0
  6
CONTINUOUS
 62
     2
 10
1379.77
 20
1674.9
 30
0.0
 11
1379.77
 21
1554.78
 31
0.0
  0
LINE
  8
0
  6
CONTINUOUS
 62
     1
 10
1287.37
 20
1674.9
 30
0.0
 11
1287.37
 21
1554.78
 31
0.0
  0
LINE
  8
0
  6
CONTINUOUS
 62
     1
 10
1287.37
 20
1674.9
 30
0.0
 11
1518.37
 21
1674.9
 31
0.0
  0
LINE
  8
0
  6
CONTINUOUS
 62
     1
 10
1287.37
 20
1637.94
 30
0.0
 11
1518.37
 21
1637.94
 31
0.0
  0
LINE
  8
0
  6
CONTINUOUS
 62
     2
 10
1287.37
 20
1610.22
 30
0.0
 11
1518.37
 21
1610.22
 31
0.0
  0
LINE
  8
0
  6
CONTINUOUS
 62
     2
 10
1287.37
 20
1582.5
 30
0.0
 11
1518.37
 21
1582.5
 31
0.0
  0
LINE
  8
0
  6
CONTINUOUS
 62
     1
 10
1287.37
 20
1554.78
 30
0.0
 11
1518.37
 21
1554.78
 31
0.0
  0
TEXT
  8
0
  6
CONTINUOUS
 62
     2
 10
1458.31
 20
1658.73
 30
1.386
 40
13.86
  1
起動電流
 50
0.0
 41
0.9
 51
0.0
  7
KANJI19
  0
TEXT
  8
0
  6
CONTINUOUS
 62
     2
 10
1458.31
 20
1642.56
 30
1.386
 40
13.86
  1
　　　Ａ
 50
0.0
 41
0.9
 51
0.0
  7
KANJI19
  0
TEXT
  8
0
  6
CONTINUOUS
 62
     2
 10
1389.01
 20
1658.73
 30
1.386
 40
13.86
  1
定格電流
 50
0.0
 41
0.9
 51
0.0
  7
KANJI19
  0
TEXT
  8
0
  6
CONTINUOUS
 62
     2
 10
1389.01
 20
1642.56
 30
1.386
 40
13.86
  1
　　　Ａ
 50
0.0
 41
0.9
 51
0.0
  7
KANJI19
  0
TEXT
  8
0
  6
CONTINUOUS
 62
     2
 10
1295.224
 20
1589.43
 30
1.386
 40
13.86
  1
２００／６０
 50
0.0
 41
0.9
 51
0.0
  7
KANJI19
  0
TEXT
  8
0
  6
CONTINUOUS
 62
     2
 10
1295.224
 20
1658.73
 30
1.386
 40
13.86
  1
電圧／周波数
 50
0.0
 41
0.9
 51
0.0
  7
KANJI19
  0
TEXT
  8
0
  6
CONTINUOUS
 62
     2
 10
1295.224
 20
1642.56
 30
1.386
 40
13.86
  1
　Ｖ／Ｈｚ
 50
0.0
 41
0.9
 51
0.0
  7
KANJI19
  0
TEXT
  8
0
  6
CONTINUOUS
 62
     2
 10
1295.224
 20
1617.15
 30
1.386
 40
13.86
  1
２００／５０
 50
0.0
 41
0.9
 51
0.0
  7
KANJI19
  0
TEXT
  8
0
  6
CONTINUOUS
 62
     2
 10
1295.224
 20
1561.71
 30
1.386
 40
13.86
  1
２２０／６０
 50
0.0
 41
0.9
 51
0.0
  7
KANJI19
  0
LINE
  8
0
  6
CONTINUOUS
 62
     1
 10
1241.17
 20
1674.9
 30
0.0
 11
1241.17
 21
1554.78
 31
0.0
  0
LINE
  8
0
  6
CONTINUOUS
 62
     2
 10
1171.87
 20
1674.9
 30
0.0
 11
1171.87
 21
1554.78
 31
0.0
  0
LINE
  8
0
  6
CONTINUOUS
 62
     2
 10
1102.57
 20
1674.9
 30
0.0
 11
1102.57
 21
1554.78
 31
0.0
  0
LINE
  8
0
  6
CONTINUOUS
 62
     1
 10
1010.17
 20
1674.9
 30
0.0
 11
1010.17
 21
1554.78
 31
0.0
  0
LINE
  8
0
  6
CONTINUOUS
 62
     1
 10
1010.17
 20
1674.9
 30
0.0
 11
1241.17
 21
1674.9
 31
0.0
  0
LINE
  8
0
  6
CONTINUOUS
 62
     1
 10
1010.17
 20
1637.94
 30
0.0
 11
1241.17
 21
1637.94
 31
0.0
  0
LINE
  8
0
  6
CONTINUOUS
 62
     2
 10
1010.17
 20
1610.22
 30
0.0
 11
1241.17
 21
1610.22
 31
0.0
  0
LINE
  8
0
  6
CONTINUOUS
 62
     2
 10
1010.17
 20
1582.5
 30
0.0
 11
1241.17
 21
1582.5
 31
0.0
  0
LINE
  8
0
  6
CONTINUOUS
 62
     1
 10
1010.17
 20
1554.78
 30
0.0
 11
1241.17
 21
1554.78
 31
0.0
  0
TEXT
  8
0
  6
CONTINUOUS
 62
     2
 10
1181.11
 20
1658.73
 30
1.386
 40
13.86
  1
起動電流
 50
0.0
 41
0.9
 51
0.0
  7
KANJI19
  0
TEXT
  8
0
  6
CONTINUOUS
 62
     2
 10
1181.11
 20
1642.56
 30
1.386
 40
13.86
  1
　　　Ａ
 50
0.0
 41
0.9
 51
0.0
  7
KANJI19
  0
TEXT
  8
0
  6
CONTINUOUS
 62
     2
 10
1111.81
 20
1658.73
 30
1.386
 40
13.86
  1
定格電流
 50
0.0
 41
0.9
 51
0.0
  7
KANJI19
  0
TEXT
  8
0
  6
CONTINUOUS
 62
     2
 10
1111.81
 20
1642.56
 30
1.386
 40
13.86
  1
　　　Ａ
 50
0.0
 41
0.9
 51
0.0
  7
KANJI19
  0
TEXT
  8
0
  6
CONTINUOUS
 62
     2
 10
1018.024
 20
1658.73
 30
1.386
 40
13.86
  1
電圧／周波数
 50
0.0
 41
0.9
 51
0.0
  7
KANJI19
  0
TEXT
  8
0
  6
CONTINUOUS
 62
     2
 10
1018.024
 20
1642.56
 30
1.386
 40
13.86
  1
　Ｖ／Ｈｚ
 50
0.0
 41
0.9
 51
0.0
  7
KANJI19
  0
TEXT
  8
0
  6
CONTINUOUS
 62
     2
 10
1018.024
 20
1617.15
 30
1.386
 40
13.86
  1
４００／５０
 50
0.0
 41
0.9
 51
0.0
  7
KANJI19
  0
TEXT
  8
0
  6
CONTINUOUS
 62
     2
 10
1018.024
 20
1589.43
 30
1.386
 40
13.86
  1
４００／６０
 50
0.0
 41
0.9
 51
0.0
  7
KANJI19
  0
TEXT
  8
0
  6
CONTINUOUS
 62
     2
 10
1018.024
 20
1561.71
 30
1.386
 40
13.86
  1
４４０／６０
 50
0.0
 41
0.9
 51
0.0
  7
KANJI19
  0
LINE
  8
0
  6
CONTINUOUS
 62
     2
 10
1040.893
 20
1529.37
 30
0.0
 11
1475.173
 21
1529.37
 31
0.0
  0
TEXT
  8
0
  6
CONTINUOUS
 62
     2
 10
1458.31
 20
1617.15
 30
1.386
 40
13.86
  1
　９．２
 50
0.0
 41
0.9
 51
0.0
  7
KANJI19
  0
TEXT
  8
0
  6
CONTINUOUS
 62
     2
 10
1458.31
 20
1589.43
 30
1.386
 40
13.86
  1
　８
 50
0.0
 41
0.9
 51
0.0
  7
KANJI19
  0
TEXT
  8
0
  6
CONTINUOUS
 62
     2
 10
1458.31
 20
1561.71
 30
1.386
 40
13.86
  1
　８．８
 50
0.0
 41
0.9
 51
0.0
  7
KANJI19
  0
TEXT
  8
0
  6
CONTINUOUS
 62
     2
 10
1389.01
 20
1617.15
 30
1.386
 40
13.86
  1
　４．０
 50
0.0
 41
0.9
 51
0.0
  7
KANJI19
  0
TEXT
  8
0
  6
CONTINUOUS
 62
     2
 10
1389.01
 20
1589.43
 30
1.386
 40
13.86
  1
　２．８
 50
0.0
 41
0.9
 51
0.0
  7
KANJI19
  0
TEXT
  8
0
  6
CONTINUOUS
 62
     2
 10
1389.01
 20
1561.71
 30
1.386
 40
13.86
  1
　３．３
 50
0.0
 41
0.9
 51
0.0
  7
KANJI19
  0
TEXT
  8
0
  6
CONTINUOUS
 62
     2
 10
1181.11
 20
1617.15
 30
1.386
 40
13.86
  1
　４．６
 50
0.0
 41
0.9
 51
0.0
  7
KANJI19
  0
TEXT
  8
0
  6
CONTINUOUS
 62
     2
 10
1181.11
 20
1589.43
 30
1.386
 40
13.86
  1
　４
 50
0.0
 41
0.9
 51
0.0
  7
KANJI19
  0
TEXT
  8
0
  6
CONTINUOUS
 62
     2
 10
1181.11
 20
1561.71
 30
1.386
 40
13.86
  1
　４．４
 50
0.0
 41
0.9
 51
0.0
  7
KANJI19
  0
TEXT
  8
0
  6
CONTINUOUS
 62
     2
 10
1111.81
 20
1617.15
 30
1.386
 40
13.86
  1
　２．０
 50
0.0
 41
0.9
 51
0.0
  7
KANJI19
  0
TEXT
  8
0
  6
CONTINUOUS
 62
     2
 10
1111.81
 20
1589.43
 30
1.386
 40
13.86
  1
　１．４
 50
0.0
 41
0.9
 51
0.0
  7
KANJI19
  0
TEXT
  8
0
  6
CONTINUOUS
 62
     2
 10
1111.81
 20
1561.71
 30
1.386
 40
13.86
  1
　１．７
 50
0.0
 41
0.9
 51
0.0
  7
KANJI19
  0
TEXT
  8
0
  6
CONTINUOUS
 62
     2
 10
1856.92
 20
251.7
 30
0.0
 40
21.0
  1
ＭＤ０５－Ｌ
 50
0.0
 41
0.793650794
 51
0.0
  7
KANJI20
  0
TEXT
  8
0
  6
CONTINUOUS
 62
     2
 10
1971.7200334
 20
155.699994
 30
13.0
 40
30.0
  1
３００２４２５
 50
0.0
 41
0.8
 51
0.0
  7
KANJI21
  0
ARC
  8
0
  6
CONTINUOUS
 62
     1
 10
786.182501379
 20
335.1
 30
0.0
 40
10.0
 50
90.0
 51
180.0
  0
LINE
  8
0
  6
CONTINUOUS
 62
     1
 10
776.182501379
 20
324.8
 30
0.0
 11
776.182501379
 21
335.1
 31
0.0
  0
LINE
  8
0
  6
CONTINUOUS
 62
     1
 10
376.0
 20
649.5
 30
0.0
 11
290.0
 21
649.5
 31
0.0
  0
LINE
  8
0
  6
CONTINUOUS
 62
     1
 10
290.0
 20
663.0
 30
0.0
 11
290.0
 21
652.05046
 31
0.0
  0
LINE
  8
0
  6
CONTINUOUS
 62
     1
 10
290.0
 20
663.0
 30
0.0
 11
290.0
 21
673.94954
 31
0.0
  0
LINE
  8
0
  6
CONTINUOUS
 62
     1
 10
281.9789
 20
654.73198
 30
0.0
 11
283.527076294
 21
652.05046
 31
0.0
  0
LINE
  8
0
  6
CONTINUOUS
 62
     1
 10
281.9789
 20
663.0
 30
0.0
 11
281.9789
 21
654.73198
 31
0.0
  0
LINE
  8
0
  6
CONTINUOUS
 62
     1
 10
281.9789
 20
671.26802
 30
0.0
 11
283.527076294
 21
673.94954
 31
0.0
  0
LINE
  8
0
  6
CONTINUOUS
 62
     1
 10
281.9789
 20
663.0
 30
0.0
 11
281.9789
 21
671.26802
 31
0.0
  0
ARC
  8
0
  6
CONTINUOUS
 62
     1
 10
292.433121693
 20
663.0
 30
0.0
 40
10.454221693
 50
148.419912243
 51
211.580087757
  0
ARC
  8
0
  6
CONTINUOUS
 62
     1
 10
285.172013606
 20
654.787845
 30
0.0
 40
3.193602261
 50
121.002313915
 51
182.989498403
  0
LINE
  8
0
  6
CONTINUOUS
 62
     1
 10
281.9789
 20
671.26802
 30
0.0
 11
283.527076294
 21
673.94954
 31
0.0
  0
ARC
  8
0
  6
CONTINUOUS
 62
     1
 10
285.172013606
 20
671.212155
 30
0.0
 40
3.193602261
 50
177.010501597
 51
238.997686085
  0
LINE
  8
0
  6
CONTINUOUS
 62
     1
 10
290.0
 20
652.05046
 30
0.0
 11
283.527076294
 21
652.05046
 31
0.0
  0
LINE
  8
0
  6
CONTINUOUS
 62
     1
 10
290.0
 20
657.52523
 30
0.0
 11
283.527076294
 21
657.52523
 31
0.0
  0
LINE
  8
0
  6
CONTINUOUS
 62
     1
 10
290.0
 20
668.47477
 30
0.0
 11
283.527076294
 21
668.47477
 31
0.0
  0
LINE
  8
0
  6
CONTINUOUS
 62
     1
 10
290.0
 20
673.94954
 30
0.0
 11
283.527076294
 21
673.94954
 31
0.0
  0
LINE
  8
0
  6
CONTINUOUS
 62
     1
 10
290.0
 20
791.0
 30
0.0
 11
290.0
 21
780.05046
 31
0.0
  0
LINE
  8
0
  6
CONTINUOUS
 62
     1
 10
290.0
 20
791.0
 30
0.0
 11
290.0
 21
801.94954
 31
0.0
  0
LINE
  8
0
  6
CONTINUOUS
 62
     1
 10
281.9789
 20
782.73198
 30
0.0
 11
283.527076294
 21
780.05046
 31
0.0
  0
LINE
  8
0
  6
CONTINUOUS
 62
     1
 10
281.9789
 20
791.0
 30
0.0
 11
281.9789
 21
782.73198
 31
0.0
  0
LINE
  8
0
  6
CONTINUOUS
 62
     1
 10
281.9789
 20
799.26802
 30
0.0
 11
283.527076294
 21
801.94954
 31
0.0
  0
LINE
  8
0
  6
CONTINUOUS
 62
     1
 10
281.9789
 20
791.0
 30
0.0
 11
281.9789
 21
799.26802
 31
0.0
  0
ARC
  8
0
  6
CONTINUOUS
 62
     1
 10
292.433121693
 20
791.0
 30
0.0
 40
10.454221693
 50
148.419912243
 51
211.580087757
  0
ARC
  8
0
  6
CONTINUOUS
 62
     1
 10
285.172013606
 20
782.787845
 30
0.0
 40
3.193602261
 50
121.002313915
 51
182.989498403
  0
LINE
  8
0
  6
CONTINUOUS
 62
     1
 10
281.9789
 20
799.26802
 30
0.0
 11
283.527076294
 21
801.94954
 31
0.0
  0
ARC
  8
0
  6
CONTINUOUS
 62
     1
 10
285.172013606
 20
799.212155
 30
0.0
 40
3.193602261
 50
177.010501597
 51
238.997686085
  0
LINE
  8
0
  6
CONTINUOUS
 62
     1
 10
290.0
 20
780.05046
 30
0.0
 11
283.527076294
 21
780.05046
 31
0.0
  0
LINE
  8
0
  6
CONTINUOUS
 62
     1
 10
290.0
 20
785.52523
 30
0.0
 11
283.527076294
 21
785.52523
 31
0.0
  0
LINE
  8
0
  6
CONTINUOUS
 62
     1
 10
290.0
 20
796.47477
 30
0.0
 11
283.527076294
 21
796.47477
 31
0.0
  0
LINE
  8
0
  6
CONTINUOUS
 62
     1
 10
290.0
 20
801.94954
 30
0.0
 11
283.527076294
 21
801.94954
 31
0.0
  0
LINE
  8
0
  6
CONTINUOUS
 62
     1
 10
484.0
 20
669.0
 30
0.0
 11
558.0
 21
669.0
 31
0.0
  0
LINE
  8
0
  6
CONTINUOUS
 62
     1
 10
558.0
 20
669.0
 30
0.0
 11
558.0
 21
780.0
 31
0.0
  0
LINE
  8
0
  6
CONTINUOUS
 62
     1
 10
391.0
 20
670.0
 30
0.0
 11
391.0
 21
784.0
 31
0.0
  0
CIRCLE
  8
0
  6
CONTINUOUS
 62
     1
 10
436.0
 20
727.0
 30
0.0
 40
10.0
  0
CIRCLE
  8
0
  6
CONTINUOUS
 62
     1
 10
436.0
 20
727.0
 30
0.0
 40
21.0
  0
CIRCLE
  8
0
  6
CONTINUOUS
 62
     1
 10
436.0
 20
727.0
 30
0.0
 40
25.0
  0
LINE
  8
0
  6
CONTINUOUS
 62
     1
 10
376.0
 20
784.0
 30
0.0
 11
391.0
 21
784.0
 31
0.0
  0
LINE
  8
0
  6
CONTINUOUS
 62
     1
 10
404.9
 20
780.0
 30
0.0
 11
558.0
 21
780.0
 31
0.0
  0
LINE
  8
0
  6
CONTINUOUS
 62
     1
 10
484.0
 20
669.0
 30
0.0
 11
484.0
 21
721.4
 31
0.0
  0
LINE
  8
0
  6
CONTINUOUS
 62
     1
 10
404.9
 20
674.0
 30
0.0
 11
481.5
 21
674.0
 31
0.0
  0
LINE
  8
0
  6
CONTINUOUS
 62
     1
 10
566.0
 20
667.5
 30
0.0
 11
566.0
 21
666.5
 31
0.0
  0
ARC
  8
0
  6
CONTINUOUS
 62
     1
 10
479.0
 20
664.5
 30
0.0
 40
3.0
 50
90.0
 51
180.0
  0
LINE
  8
0
  6
CONTINUOUS
 62
     1
 10
605.0
 20
624.5
 30
0.0
 11
476.0
 21
624.5
 31
0.0
  0
LINE
  8
0
  6
CONTINUOUS
 62
     1
 10
566.0
 20
666.5
 30
0.0
 11
602.0
 21
666.5
 31
0.0
  0
ARC
  8
0
  6
CONTINUOUS
 62
     1
 10
602.0
 20
663.5
 30
0.0
 40
3.0
 50
0.0
 51
90.0
  0
LINE
  8
0
  6
CONTINUOUS
 62
     1
 10
605.0
 20
623.0
 30
0.0
 11
476.0
 21
623.0
 31
0.0
  0
LINE
  8
0
  6
CONTINUOUS
 62
     1
 10
605.0
 20
618.0
 30
0.0
 11
605.0
 21
663.5
 31
0.0
  0
ARC
  8
0
  6
CONTINUOUS
 62
     1
 10
604.0
 20
618.0
 30
0.0
 40
1.0
 50
270.0
 51
0.0
  0
LINE
  8
0
  6
CONTINUOUS
 62
     1
 10
602.0
 20
617.0
 30
0.0
 11
602.0
 21
617.0
 31
0.0
  0
ARC
  8
0
  6
CONTINUOUS
 62
     1
 10
601.0
 20
617.0
 30
0.0
 40
1.0
 50
270.0
 51
0.0
  0
LINE
  8
0
  6
CONTINUOUS
 62
     1
 10
476.0
 20
618.0
 30
0.0
 11
476.0
 21
664.5
 31
0.0
  0
LINE
  8
0
  6
CONTINUOUS
 62
     1
 10
604.0
 20
617.0
 30
0.0
 11
477.0
 21
617.0
 31
0.0
  0
ARC
  8
0
  6
CONTINUOUS
 62
     1
 10
477.0
 20
618.0
 30
0.0
 40
1.0
 50
180.0
 51
270.0
  0
ARC
  8
0
  6
CONTINUOUS
 62
     1
 10
480.0
 20
617.0
 30
0.0
 40
1.0
 50
180.0
 51
270.0
  0
LINE
  8
0
  6
CONTINUOUS
 62
     1
 10
601.0
 20
616.0
 30
0.0
 11
480.1
 21
616.0
 31
0.0
  0
LINE
  8
0
  6
CONTINUOUS
 62
     1
 10
479.0
 20
667.5
 30
0.0
 11
566.0
 21
667.5
 31
0.0
  0
LINE
  8
0
  6
CONTINUOUS
 62
     1
 10
479.0
 20
669.0
 30
0.0
 11
566.0
 21
669.0
 31
0.0
  0
LINE
  8
0
  6
CONTINUOUS
 62
     1
 10
394.0
 20
772.0
 30
0.0
 11
394.0
 21
782.94954
 31
0.0
  0
LINE
  8
0
  6
CONTINUOUS
 62
     1
 10
394.0
 20
772.0
 30
0.0
 11
394.0
 21
761.05046
 31
0.0
  0
LINE
  8
0
  6
CONTINUOUS
 62
     1
 10
391.0
 20
782.75
 30
0.0
 11
394.0
 21
782.75
 31
0.0
  0
LINE
  8
0
  6
CONTINUOUS
 62
     1
 10
391.0
 20
772.0
 30
0.0
 11
394.000254073
 21
775.000254073
 31
0.0
  0
LINE
  8
0
  6
CONTINUOUS
 62
     1
 10
394.000254073
 20
772.0
 30
0.0
 11
391.0
 21
768.999745927
 31
0.0
  0
LINE
  8
0
  6
CONTINUOUS
 62
     1
 10
391.0
 20
761.25
 30
0.0
 11
394.0
 21
761.25
 31
0.0
  0
LINE
  8
0
  6
CONTINUOUS
 62
     1
 10
394.0
 20
782.75
 30
0.0
 11
405.3
 21
782.75
 31
0.0
  0
LINE
  8
0
  6
CONTINUOUS
 62
     1
 10
405.3
 20
772.0
 30
0.0
 11
405.3
 21
782.75
 31
0.0
  0
LINE
  8
0
  6
CONTINUOUS
 62
     1
 10
405.3
 20
782.75
 30
0.0
 11
406.0
 21
781.537564435
 31
0.0
  0
LINE
  8
0
  6
CONTINUOUS
 62
     1
 10
406.0
 20
772.0
 30
0.0
 11
406.0
 21
781.537564435
 31
0.0
  0
LINE
  8
0
  6
CONTINUOUS
 62
     1
 10
394.0
 20
761.25
 30
0.0
 11
405.3
 21
761.25
 31
0.0
  0
LINE
  8
0
  6
CONTINUOUS
 62
     1
 10
405.3
 20
772.0
 30
0.0
 11
405.3
 21
761.25
 31
0.0
  0
LINE
  8
0
  6
CONTINUOUS
 62
     1
 10
405.3
 20
761.25
 30
0.0
 11
406.0
 21
762.462435565
 31
0.0
  0
LINE
  8
0
  6
CONTINUOUS
 62
     1
 10
406.0
 20
772.0
 30
0.0
 11
406.0
 21
762.462435565
 31
0.0
  0
LINE
  8
0
  6
CONTINUOUS
 62
     1
 10
394.0
 20
682.0
 30
0.0
 11
394.0
 21
671.05046
 31
0.0
  0
LINE
  8
0
  6
CONTINUOUS
 62
     1
 10
394.0
 20
682.0
 30
0.0
 11
394.0
 21
692.94954
 31
0.0
  0
LINE
  8
0
  6
CONTINUOUS
 62
     1
 10
391.0
 20
671.25
 30
0.0
 11
394.0
 21
671.25
 31
0.0
  0
LINE
  8
0
  6
CONTINUOUS
 62
     1
 10
391.0
 20
682.0
 30
0.0
 11
394.000254073
 21
678.999745927
 31
0.0
  0
LINE
  8
0
  6
CONTINUOUS
 62
     1
 10
394.000254073
 20
682.0
 30
0.0
 11
391.0
 21
685.000254073
 31
0.0
  0
LINE
  8
0
  6
CONTINUOUS
 62
     1
 10
391.0
 20
692.75
 30
0.0
 11
394.0
 21
692.75
 31
0.0
  0
LINE
  8
0
  6
CONTINUOUS
 62
     1
 10
394.0
 20
671.25
 30
0.0
 11
405.3
 21
671.25
 31
0.0
  0
LINE
  8
0
  6
CONTINUOUS
 62
     1
 10
405.3
 20
682.0
 30
0.0
 11
405.3
 21
671.25
 31
0.0
  0
LINE
  8
0
  6
CONTINUOUS
 62
     1
 10
405.3
 20
671.25
 30
0.0
 11
406.0
 21
672.462435565
 31
0.0
  0
LINE
  8
0
  6
CONTINUOUS
 62
     1
 10
406.0
 20
682.0
 30
0.0
 11
406.0
 21
672.462435565
 31
0.0
  0
LINE
  8
0
  6
CONTINUOUS
 62
     1
 10
394.0
 20
692.75
 30
0.0
 11
405.3
 21
692.75
 31
0.0
  0
LINE
  8
0
  6
CONTINUOUS
 62
     1
 10
405.3
 20
682.0
 30
0.0
 11
405.3
 21
692.75
 31
0.0
  0
LINE
  8
0
  6
CONTINUOUS
 62
     1
 10
405.3
 20
692.75
 30
0.0
 11
406.0
 21
691.537564435
 31
0.0
  0
LINE
  8
0
  6
CONTINUOUS
 62
     1
 10
406.0
 20
682.0
 30
0.0
 11
406.0
 21
691.537564435
 31
0.0
  0
LINE
  8
0
  6
CONTINUOUS
 62
     1
 10
376.0
 20
670.0
 30
0.0
 11
391.0
 21
670.0
 31
0.0
  0
POINT
  8
0
  6
CONTINUOUS
 62
     1
 10
376.0
 20
670.0
 30
0.0
  0
LINE
  8
0
  6
CONTINUOUS
 62
     1
 10
376.0
 20
670.0
 30
0.0
 11
376.0
 21
784.0
 31
0.0
  0
LINE
  8
0
  6
CONTINUOUS
 62
     1
 10
567.0
 20
676.0
 30
0.0
 11
567.0
 21
778.0
 31
0.0
  0
LINE
  8
0
  6
CONTINUOUS
 62
     1
 10
567.0
 20
778.0
 30
0.0
 11
558.0
 21
778.0
 31
0.0
  0
LINE
  8
0
  6
CONTINUOUS
 62
     1
 10
567.0
 20
676.0
 30
0.0
 11
558.0
 21
676.0
 31
0.0
  0
LINE
  8
0
  6
CONTINUOUS
 62
     1
 10
567.0
 20
774.5
 30
0.0
 11
558.0
 21
774.5
 31
0.0
  0
LINE
  8
0
  6
CONTINUOUS
 62
     1
 10
567.0
 20
679.5
 30
0.0
 11
558.0
 21
679.5
 31
0.0
  0
LINE
  8
0
  6
CONTINUOUS
 62
     1
 10
567.0
 20
723.0
 30
0.0
 11
558.0
 21
723.0
 31
0.0
  0
LINE
  8
0
  6
CONTINUOUS
 62
     1
 10
567.0
 20
731.0
 30
0.0
 11
558.0
 21
731.0
 31
0.0
  0
CIRCLE
  8
0
  6
CONTINUOUS
 62
     1
 10
732.0
 20
727.0
 30
0.0
 40
19.5
  0
LINE
  8
0
  6
CONTINUOUS
 62
     1
 10
712.0
 20
747.0
 30
0.0
 11
752.0
 21
747.0
 31
0.0
  0
LINE
  8
0
  6
CONTINUOUS
 62
     1
 10
752.0
 20
707.0
 30
0.0
 11
752.0
 21
747.0
 31
0.0
  0
LINE
  8
0
  6
CONTINUOUS
 62
     1
 10
712.0
 20
707.0
 30
0.0
 11
752.0
 21
707.0
 31
0.0
  0
LINE
  8
0
  6
CONTINUOUS
 62
     1
 10
712.0
 20
707.0
 30
0.0
 11
712.0
 21
747.0
 31
0.0
  0
LINE
  8
0
  6
LTYPE2
 62
     2
 10
315.1
 20
663.0
 30
0.0
 11
280.9
 21
663.0
 31
0.0
  0
LINE
  8
0
  6
LTYPE2
 62
     2
 10
316.1
 20
791.0
 30
0.0
 11
280.9
 21
791.0
 31
0.0
  0
LINE
  8
0
  6
LTYPE2
 62
     2
 10
355.0
 20
772.0
 30
0.0
 11
408.0
 21
772.0
 31
0.0
  0
LINE
  8
0
  6
LTYPE2
 62
     2
 10
436.0
 20
695.5
 30
0.0
 11
436.0
 21
758.5
 31
0.0
  0
LINE
  8
0
  6
LTYPE2
 62
     2
 10
355.0
 20
682.0
 30
0.0
 11
408.0
 21
682.0
 31
0.0
  0
LINE
  8
0
  6
LTYPE2
 62
     2
 10
732.0
 20
701.9
 30
0.0
 11
732.0
 21
751.8
 31
0.0
  0
LINE
  8
0
  6
LTYPE1
 62
     2
 10
605.0
 20
650.8
 30
0.0
 11
595.0
 21
650.8
 31
0.0
  0
LINE
  8
0
  6
LTYPE1
 62
     2
 10
605.0
 20
652.0
 30
0.0
 11
595.0
 21
652.0
 31
0.0
  0
LINE
  8
0
  6
LTYPE1
 62
     2
 10
605.0
 20
632.2
 30
0.0
 11
595.0
 21
632.2
 31
0.0
  0
LINE
  8
0
  6
LTYPE1
 62
     2
 10
605.0
 20
631.0
 30
0.0
 11
595.0
 21
631.0
 31
0.0
  0
LINE
  8
0
  6
LTYPE3
 62
     2
 10
611.2
 20
641.5
 30
0.0
 11
591.5
 21
641.5
 31
0.0
  0
LINE
  8
0
  6
LTYPE3
 62
     2
 10
520.0
 20
655.8
 30
0.0
 11
520.0
 21
670.65
 31
0.0
  0
LINE
  8
0
  6
CONTINUOUS
 62
     2
 10
738.1
 20
737.8
 30
0.0
 11
745.588041206
 21
747.808957933
 31
0.0
  0
LINE
  8
0
  6
CONTINUOUS
 62
     2
 10
738.1
 20
737.8
 30
0.0
 11
739.580354942
 21
750.212032438
 31
0.0
  0
LINE
  8
0
  6
CONTINUOUS
 62
     2
 10
738.1
 20
737.8
 30
0.0
 11
788.1
 21
862.8
 31
0.0
  0
LINE
  8
0
  6
CONTINUOUS
 62
     1
 10
271.0
 20
845.0
 30
0.0
 11
271.0
 21
879.0
 31
0.0
  0
LINE
  8
0
  6
CONTINUOUS
 62
     1
 10
301.0
 20
845.0
 30
0.0
 11
301.0
 21
879.0
 31
0.0
  0
LINE
  8
0
  6
CONTINUOUS
 62
     1
 10
305.0
 20
879.0
 30
0.0
 11
271.0
 21
879.0
 31
0.0
  0
LINE
  8
0
  6
CONTINUOUS
 62
     1
 10
305.0
 20
845.0
 30
0.0
 11
271.0
 21
845.0
 31
0.0
  0
ARC
  8
0
  6
CONTINUOUS
 62
     1
 10
358.0
 20
838.0
 30
0.0
 40
6.0
 50
270.0
 51
0.0
  0
LINE
  8
0
  6
CONTINUOUS
 62
     1
 10
362.0
 20
832.0
 30
0.0
 11
305.0
 21
832.0
 31
0.0
  0
ARC
  8
0
  6
CONTINUOUS
 62
     1
 10
362.0
 20
838.0
 30
0.0
 40
6.0
 50
270.0
 51
0.0
  0
LINE
  8
0
  6
CONTINUOUS
 62
     1
 10
305.0
 20
843.5
 30
0.0
 11
290.0
 21
843.5
 31
0.0
  0
LINE
  8
0
  6
CONTINUOUS
 62
     1
 10
290.0
 20
834.5
 30
0.0
 11
290.0
 21
827.00594
 31
0.0
  0
LINE
  8
0
  6
CONTINUOUS
 62
     1
 10
290.0
 20
834.5
 30
0.0
 11
290.0
 21
841.99406
 31
0.0
  0
LINE
  8
0
  6
CONTINUOUS
 62
     1
 10
284.5001
 20
828.84122
 30
0.0
 11
285.559699402
 21
827.00594
 31
0.0
  0
LINE
  8
0
  6
CONTINUOUS
 62
     1
 10
284.5001
 20
834.5
 30
0.0
 11
284.5001
 21
828.84122
 31
0.0
  0
LINE
  8
0
  6
CONTINUOUS
 62
     1
 10
284.5001
 20
840.15878
 30
0.0
 11
285.559699402
 21
841.99406
 31
0.0
  0
LINE
  8
0
  6
CONTINUOUS
 62
     1
 10
284.5001
 20
834.5
 30
0.0
 11
284.5001
 21
840.15878
 31
0.0
  0
ARC
  8
0
  6
CONTINUOUS
 62
     1
 10
291.655155337
 20
834.5
 30
0.0
 40
7.155055337
 50
148.419912243
 51
211.580087757
  0
ARC
  8
0
  6
CONTINUOUS
 62
     1
 10
286.685523767
 20
828.879455
 30
0.0
 40
2.185758211
 50
121.002313915
 51
182.989498403
  0
LINE
  8
0
  6
CONTINUOUS
 62
     1
 10
284.5001
 20
840.15878
 30
0.0
 11
285.559699402
 21
841.99406
 31
0.0
  0
ARC
  8
0
  6
CONTINUOUS
 62
     1
 10
286.685523767
 20
840.120545
 30
0.0
 40
2.185758211
 50
177.010501597
 51
238.997686085
  0
LINE
  8
0
  6
CONTINUOUS
 62
     1
 10
290.0
 20
827.00594
 30
0.0
 11
285.559699402
 21
827.00594
 31
0.0
  0
LINE
  8
0
  6
CONTINUOUS
 62
     1
 10
290.0
 20
830.75297
 30
0.0
 11
285.559699402
 21
830.75297
 31
0.0
  0
LINE
  8
0
  6
CONTINUOUS
 62
     1
 10
290.0
 20
838.24703
 30
0.0
 11
285.559699402
 21
838.24703
 31
0.0
  0
LINE
  8
0
  6
CONTINUOUS
 62
     1
 10
290.0
 20
841.99406
 30
0.0
 11
285.559699402
 21
841.99406
 31
0.0
  0
LINE
  8
0
  6
CONTINUOUS
 62
     1
 10
333.0
 20
905.0
 30
0.0
 11
305.0
 21
905.0
 31
0.0
  0
ARC
  8
0
  6
CONTINUOUS
 62
     1
 10
333.0
 20
911.0
 30
0.0
 40
6.0
 50
270.0
 51
360.0
  0
LINE
  8
0
  6
LTYPE2
 62
     2
 10
320.6
 20
834.5
 30
0.0
 11
281.3
 21
834.5
 31
0.0
  0
LINE
  8
0
  6
CONTINUOUS
 62
     2
 10
295.5
 20
878.8
 30
0.0
 11
294.019645058
 21
891.212032438
 31
0.0
  0
LINE
  8
0
  6
CONTINUOUS
 62
     2
 10
295.5
 20
878.8
 30
0.0
 11
288.011958794
 21
888.808957933
 31
0.0
  0
LINE
  8
0
  6
CONTINUOUS
 62
     2
 10
271.0
 20
886.5
 30
0.0
 11
271.0
 21
1082.9
 31
0.0
  0
LINE
  8
0
  6
CONTINUOUS
 62
     2
 10
271.0
 20
1075.4
 30
0.0
 11
283.074072829
 21
1072.164761936
 31
0.0
  0
LINE
  8
0
  6
CONTINUOUS
 62
     2
 10
271.0
 20
1075.4
 30
0.0
 11
283.074072829
 21
1078.635238064
 31
0.0
  0
LINE
  8
0
  6
CONTINUOUS
 62
     2
 10
271.0
 20
1075.4
 30
0.0
 11
376.0
 21
1075.4
 31
0.0
  0
LINE
  8
0
  6
CONTINUOUS
 62
     2
 10
376.0
 20
1075.4
 30
0.0
 11
363.925927171
 21
1078.635238064
 31
0.0
  0
LINE
  8
0
  6
CONTINUOUS
 62
     2
 10
376.0
 20
1075.4
 30
0.0
 11
363.925927171
 21
1072.164761936
 31
0.0
  0
LINE
  8
0
  6
CONTINUOUS
 62
     2
 10
255.58
 20
978.6
 30
0.0
 11
174.6
 21
978.6
 31
0.0
  0
LINE
  8
0
  6
CONTINUOUS
 62
     2
 10
295.5
 20
878.8
 30
0.0
 11
255.58
 21
978.6
 31
0.0
  0
LINE
  8
0
  6
CONTINUOUS
 62
     1
 10
305.0
 20
649.5
 30
0.0
 11
305.0
 21
905.0
 31
0.0
  0
LINE
  8
0
  6
CONTINUOUS
 62
     1
 10
290.0
 20
649.5
 30
0.0
 11
290.0
 21
843.5
 31
0.0
  0
LINE
  8
0
  6
CONTINUOUS
 62
     2
 10
376.0
 20
963.5
 30
0.0
 11
376.0
 21
1082.8
 31
0.0
  0
LINE
  8
0
  6
LTYPE2
 62
     2
 10
379.4
 20
862.0
 30
0.0
 11
391.4
 21
862.0
 31
0.0
  0
LINE
  8
0
  6
LTYPE2
 62
     2
 10
379.4
 20
862.0
 30
0.0
 11
391.4
 21
862.0
 31
0.0
  0
LINE
  8
2
  6
CONTINUOUS
 62
     2
 10
376.0
 20
1067.4
 30
0.0
 11
376.0
 21
1085.4
 31
0.0
  0
LINE
  8
0
  6
CONTINUOUS
 62
     1
 10
368.0
 20
838.0
 30
0.0
 11
368.0
 21
937.0
 31
0.0
  0
CIRCLE
  8
0
  6
CONTINUOUS
 62
     1
 10
732.0
 20
727.0
 30
0.0
 40
19.5
  0
LINE
  8
0
  6
CONTINUOUS
 62
     1
 10
712.0
 20
747.0
 30
0.0
 11
752.0
 21
747.0
 31
0.0
  0
LINE
  8
0
  6
CONTINUOUS
 62
     1
 10
752.0
 20
707.0
 30
0.0
 11
752.0
 21
747.0
 31
0.0
  0
LINE
  8
0
  6
CONTINUOUS
 62
     1
 10
712.0
 20
707.0
 30
0.0
 11
752.0
 21
707.0
 31
0.0
  0
LINE
  8
0
  6
CONTINUOUS
 62
     1
 10
712.0
 20
707.0
 30
0.0
 11
712.0
 21
747.0
 31
0.0
  0
LINE
  8
0
  6
LTYPE2
 62
     2
 10
732.0
 20
701.9
 30
0.0
 11
732.0
 21
751.8
 31
0.0
  0
LINE
  8
0
  6
CONTINUOUS
 62
     2
 10
738.1
 20
737.8
 30
0.0
 11
745.588041206
 21
747.808957933
 31
0.0
  0
LINE
  8
0
  6
CONTINUOUS
 62
     2
 10
738.1
 20
737.8
 30
0.0
 11
739.580354942
 21
750.212032438
 31
0.0
  0
LINE
  8
0
  6
CONTINUOUS
 62
     2
 10
738.1
 20
737.8
 30
0.0
 11
788.1
 21
862.8
 31
0.0
  0
LINE
  8
0
  6
CONTINUOUS
 62
     1
 10
776.182501379
 20
625.0
 30
0.0
 11
906.182501379
 21
625.0
 31
0.0
  0
LINE
  8
0
  6
CONTINUOUS
 62
     1
 10
776.182501379
 20
619.0
 30
0.0
 11
776.182501379
 21
625.0
 31
0.0
  0
LINE
  8
0
  6
CONTINUOUS
 62
     1
 10
776.182501379
 20
619.0
 30
0.0
 11
906.182501379
 21
619.0
 31
0.0
  0
LINE
  8
0
  6
CONTINUOUS
 62
     1
 10
768.482501379
 20
618.0
 30
0.0
 11
768.482501379
 21
592.6
 31
0.0
  0
LINE
  8
0
  6
CONTINUOUS
 62
     1
 10
793.882501379
 20
618.0
 30
0.0
 11
768.482501379
 21
618.0
 31
0.0
  0
LINE
  8
0
  6
CONTINUOUS
 62
     1
 10
793.882501379
 20
592.6
 30
0.0
 11
768.482501379
 21
592.6
 31
0.0
  0
LINE
  8
0
  6
CONTINUOUS
 62
     2
 10
816.0
 20
542.375
 30
0.0
 11
727.5
 21
542.375
 31
0.0
  0
LINE
  8
2
  6
CONTINUOUS
 62
     2
 10
436.0
 20
706.403252248
 30
0.0
 11
436.0
 21
477.0
 31
0.0
  0
LINE
  8
2
  6
CONTINUOUS
 62
     2
 10
436.0
 20
487.0
 30
0.0
 11
448.074072829
 21
483.764761936
 31
0.0
  0
LINE
  8
2
  6
CONTINUOUS
 62
     2
 10
436.0
 20
487.0
 30
0.0
 11
448.074072829
 21
490.235238064
 31
0.0
  0
LINE
  8
2
  6
CONTINUOUS
 62
     2
 10
436.0
 20
497.5
 30
0.0
 11
436.0
 21
433.5
 31
0.0
  0
LINE
  8
2
  6
CONTINUOUS
 62
     2
 10
436.0
 20
443.5
 30
0.0
 11
423.925927171
 21
446.735238064
 31
0.0
  0
LINE
  8
2
  6
CONTINUOUS
 62
     2
 10
436.0
 20
443.5
 30
0.0
 11
423.925927171
 21
440.264761936
 31
0.0
  0
LINE
  8
2
  6
CONTINUOUS
 62
     2
 10
436.0
 20
443.5
 30
0.0
 11
376.0
 21
443.5
 31
0.0
  0
LINE
  8
2
  6
CONTINUOUS
 62
     2
 10
376.0
 20
443.5
 30
0.0
 11
388.074072829
 21
440.264761936
 31
0.0
  0
LINE
  8
2
  6
CONTINUOUS
 62
     2
 10
376.0
 20
443.5
 30
0.0
 11
388.074072829
 21
446.735238064
 31
0.0
  0
LINE
  8
2
  6
CONTINUOUS
 62
     2
 10
376.0
 20
644.5
 30
0.0
 11
376.0
 21
433.5
 31
0.0
  0
LINE
  8
2
  6
CONTINUOUS
 62
     2
 10
376.0
 20
511.0
 30
0.0
 11
376.0
 21
433.5
 31
0.0
  0
LINE
  8
2
  6
CONTINUOUS
 62
     2
 10
376.0
 20
443.5
 30
0.0
 11
363.925927171
 21
446.735238064
 31
0.0
  0
LINE
  8
2
  6
CONTINUOUS
 62
     2
 10
376.0
 20
443.5
 30
0.0
 11
363.925927171
 21
440.264761936
 31
0.0
  0
LINE
  8
2
  6
CONTINUOUS
 62
     2
 10
376.0
 20
443.5
 30
0.0
 11
290.0
 21
443.5
 31
0.0
  0
LINE
  8
2
  6
CONTINUOUS
 62
     2
 10
290.0
 20
443.5
 30
0.0
 11
302.074072829
 21
440.264761936
 31
0.0
  0
LINE
  8
2
  6
CONTINUOUS
 62
     2
 10
290.0
 20
443.5
 30
0.0
 11
302.074072829
 21
446.735238064
 31
0.0
  0
LINE
  8
2
  6
CONTINUOUS
 62
     2
 10
290.0
 20
644.5
 30
0.0
 11
290.0
 21
433.5
 31
0.0
  0
LINE
  8
2
  6
CONTINUOUS
 62
     2
 10
436.0
 20
447.5
 30
0.0
 11
436.0
 21
433.5
 31
0.0
  0
LINE
  8
2
  6
CONTINUOUS
 62
     2
 10
436.0
 20
443.5
 30
0.0
 11
448.074072829
 21
440.264761936
 31
0.0
  0
LINE
  8
2
  6
CONTINUOUS
 62
     2
 10
436.0
 20
443.5
 30
0.0
 11
448.074072829
 21
446.735238064
 31
0.0
  0
LINE
  8
2
  6
CONTINUOUS
 62
     2
 10
436.0
 20
443.5
 30
0.0
 11
1067.0
 21
443.5
 31
0.0
  0
LINE
  8
2
  6
CONTINUOUS
 62
     2
 10
1067.0
 20
406.5
 30
0.0
 11
290.0
 21
406.5
 31
0.0
  0
LINE
  8
2
  6
CONTINUOUS
 62
     2
 10
290.0
 20
406.5
 30
0.0
 11
302.074072829
 21
403.264761936
 31
0.0
  0
LINE
  8
2
  6
CONTINUOUS
 62
     2
 10
290.0
 20
406.5
 30
0.0
 11
302.074072829
 21
409.735238064
 31
0.0
  0
LINE
  8
2
  6
CONTINUOUS
 62
     2
 10
290.0
 20
447.0
 30
0.0
 11
290.0
 21
396.5
 31
0.0
  0
LINE
  8
0
  6
LTYPE2
 62
     2
 10
603.0
 20
862.0
 30
0.0
 11
261.6
 21
862.0
 31
0.0
  0
TEXT
  8
0
  6
CONTINUOUS
 62
     2
 10
301.75
 20
1080.4
 30
0.0
 40
18.0
  1
１１３
 50
0.0
 41
0.9
 51
0.0
  7
KANJI17
  0
TEXT
  8
0
  6
CONTINUOUS
 62
     2
 10
174.6
 20
983.6
 30
0.0
 40
18.0
  1
手動軸カバー
 50
0.0
 41
0.9
 51
0.0
  7
KANJI17
  0
TEXT
  8
2
  6
CONTINUOUS
 62
     3
 10
389.25
 20
448.5
 30
0.0
 40
18.0
  1
６０
 50
0.0
 41
0.9
 51
0.0
  7
KANJI17
  0
TEXT
  8
2
  6
CONTINUOUS
 62
     3
 10
316.25
 20
448.5
 30
0.0
 40
18.0
  1
８６
 50
0.0
 41
0.9
 51
0.0
  7
KANJI17
  0
TEXT
  8
2
  6
CONTINUOUS
 62
     3
 10
653.0
 20
411.5
 30
0.0
 40
18.0
  1
ｍｉｎ．ＡＬ
 50
0.0
 41
0.9
 51
0.0
  7
KANJI17
  0
TEXT
  8
2
  6
CONTINUOUS
 62
     3
 10
726.0
 20
448.5
 30
0.0
 40
18.0
  1
ｍｉｎ．Ｌ
 50
0.0
 41
0.9
 51
0.0
  7
KANJI17
  0
TEXT
  8
2
  6
CONTINUOUS
 62
     3
 10
673.5
 20
492.0
 30
0.0
 40
18.0
  1
Ｃ
 50
0.0
 41
0.9
 51
0.0
  7
KANJI17
  0
TEXT
  8
0
  6
CONTINUOUS
 62
     2
 10
727.5
 20
547.375
 30
0.0
 40
18.0
  1
ＬＳユニット
 50
0.0
 41
0.9
 51
0.0
  7
KANJI17
  0
LINE
  8
0
  6
CONTINUOUS
 62
     2
 10
780.182501379
 20
345.1
 30
0.0
 11
722.0
 21
345.1
 31
0.0
  0
LINE
  8
0
  6
CONTINUOUS
 62
     2
 10
728.0
 20
345.1
 30
0.0
 11
724.894171459
 21
333.508890085
 31
0.0
  0
LINE
  8
0
  6
CONTINUOUS
 62
     2
 10
728.0
 20
345.1
 30
0.0
 11
731.105828541
 21
333.508890085
 31
0.0
  0
LINE
  8
0
  6
CONTINUOUS
 62
     2
 10
728.0
 20
345.1
 30
0.0
 11
728.0
 21
180.1
 31
0.0
  0
LINE
  8
2
  6
CONTINUOUS
 62
     2
 10
436.0
 20
487.0
 30
0.0
 11
972.0
 21
487.0
 31
0.0
  0
LINE
  8
0
  6
LTYPE2
 62
     2
 10
661.032501379
 20
664.25
 30
0.0
 11
661.032501379
 21
769.9
 31
0.0
  0
ARC
  8
0
  6
LTYPE1
 62
     2
 10
661.032501379
 20
766.5
 30
0.0
 40
4.0
 50
0.00015455
 51
179.99984545
  0
LINE
  8
0
  6
LTYPE1
 62
     2
 10
665.032501379
 20
710.0
 30
0.0
 11
665.032501379
 21
766.50001079
 31
0.0
  0
LINE
  8
0
  6
LTYPE1
 62
     2
 10
657.032501379
 20
710.0
 30
0.0
 11
657.032501379
 21
766.50001079
 31
0.0
  0
LINE
  8
0
  6
LTYPE1
 62
     2
 10
654.032501379
 20
625.5
 30
0.0
 11
654.032501379
 21
710.0
 31
0.0
  0
LINE
  8
0
  6
LTYPE1
 62
     2
 10
668.032501379
 20
710.0
 30
0.0
 11
654.032501379
 21
710.0
 31
0.0
  0
LINE
  8
0
  6
LTYPE1
 62
     2
 10
668.032501379
 20
619.0
 30
0.0
 11
668.032501379
 21
710.0
 31
0.0
  0
LINE
  8
0
  6
CONTINUOUS
 62
     2
 10
605.0
 20
641.5
 30
0.0
 11
689.0
 21
659.0
 31
0.0
  0
LINE
  8
0
  6
CONTINUOUS
 62
     2
 10
689.0
 20
659.0
 30
0.0
 11
770.0
 21
659.0
 31
0.0
  0
TEXT
  8
0
  6
CONTINUOUS
 62
     3
 10
689.0
 20
662.0
 30
0.0
 40
18.0
  1
ＰＦ１／２
 50
0.0
 41
0.9
 51
0.0
  7
KANJI17
  0
LINE
  8
0
  6
LTYPE2
 62
     2
 10
441.682501379
 20
577.0
 30
0.0
 11
1033.032501379
 21
577.0
 31
0.0
  0
LINE
  8
0
  6
LTYPE3
 62
     2
 10
413.532501379
 20
605.0
 30
0.0
 11
800.792501379
 21
605.0
 31
0.0
  0
LINE
  8
0
  6
LTYPE1
 62
     2
 10
496.032501379
 20
613.0
 30
0.0
 11
768.482501379
 21
613.0
 31
0.0
  0
LINE
  8
0
  6
LTYPE1
 62
     2
 10
496.032501379
 20
597.0
 30
0.0
 11
768.482501379
 21
597.0
 31
0.0
  0
LINE
  8
0
  6
CONTINUOUS
 62
     1
 10
538.032501379
 20
585.0
 30
0.0
 11
793.882501379
 21
585.0
 31
0.0
  0
LINE
  8
0
  6
CONTINUOUS
 62
     1
 10
538.032501379
 20
569.0
 30
0.0
 11
825.182501379
 21
569.0
 31
0.0
  0
LINE
  8
0
  6
LTYPE1
 62
     2
 10
668.032501379
 20
619.0
 30
0.0
 11
433.032501379
 21
619.0
 31
0.0
  0
LINE
  8
0
  6
LTYPE1
 62
     2
 10
668.032501379
 20
625.0
 30
0.0
 11
433.032501379
 21
625.0
 31
0.0
  0
LINE
  8
0
  6
LTYPE1
 62
     2
 10
667.532501379
 20
619.0
 30
0.0
 11
667.532501379
 21
614.4
 31
0.0
  0
LINE
  8
0
  6
LTYPE1
 62
     2
 10
652.532501379
 20
619.0
 30
0.0
 11
652.532501379
 21
614.4
 31
0.0
  0
LINE
  8
0
  6
LTYPE1
 62
     2
 10
656.232501379
 20
619.0
 30
0.0
 11
656.232501379
 21
614.4
 31
0.0
  0
LINE
  8
0
  6
LTYPE1
 62
     2
 10
663.832501379
 20
619.0
 30
0.0
 11
663.832501379
 21
614.4
 31
0.0
  0
ARC
  8
0
  6
LTYPE1
 62
     2
 10
654.332501379
 20
616.5
 30
0.0
 40
2.8
 50
228.5
 51
311.5
  0
ARC
  8
0
  6
LTYPE1
 62
     2
 10
660.032501379
 20
624.4
 30
0.0
 40
10.7
 50
249.1
 51
290.9
  0
ARC
  8
0
  6
LTYPE1
 62
     2
 10
665.732501379
 20
616.5
 30
0.0
 40
2.8
 50
228.5
 51
311.5
  0
LINE
  8
0
  6
LTYPE1
 62
     2
 10
660.032501379
 20
610.2
 30
0.0
 11
660.032501379
 21
622.0
 31
0.0
  0
LINE
  8
0
  6
LTYPE3
 62
     2
 10
660.032501379
 20
606.35
 30
0.0
 11
660.032501379
 21
630.65
 31
0.0
  0
LINE
  8
0
  6
LTYPE1
 62
     2
 10
665.732501379
 20
613.7
 30
0.0
 11
654.332501379
 21
613.7
 31
0.0
  0
LINE
  8
0
  6
LTYPE1
 62
     2
 10
433.032501379
 20
592.0
 30
0.0
 11
449.032501379
 21
592.0
 31
0.0
  0
LINE
  8
0
  6
LTYPE2
 62
     2
 10
452.032501379
 20
605.0
 30
0.0
 11
463.532501379
 21
605.0
 31
0.0
  0
LINE
  8
0
  6
LTYPE1
 62
     2
 10
449.032501379
 20
594.6
 30
0.0
 11
455.532501379
 21
594.6
 31
0.0
  0
ARC
  8
0
  6
LTYPE1
 62
     2
 10
452.632501379
 20
597.2
 30
0.0
 40
3.9
 50
317.9
 51
42.1
  0
LINE
  8
0
  6
LTYPE1
 62
     2
 10
449.032501379
 20
599.8
 30
0.0
 11
455.532501379
 21
599.8
 31
0.0
  0
LINE
  8
0
  6
LTYPE1
 62
     2
 10
456.532501379
 20
602.0
 30
0.0
 11
464.032501379
 21
602.0
 31
0.0
  0
LINE
  8
0
  6
LTYPE1
 62
     2
 10
456.532501379
 20
601.0
 30
0.0
 11
464.032501379
 21
601.0
 31
0.0
  0
LINE
  8
0
  6
LTYPE1
 62
     2
 10
449.032501379
 20
592.0
 30
0.0
 11
449.032501379
 21
619.0
 31
0.0
  0
LINE
  8
0
  6
LTYPE1
 62
     2
 10
449.032501379
 20
615.4
 30
0.0
 11
449.032501379
 21
594.6
 31
0.0
  0
ARC
  8
0
  6
LTYPE1
 62
     2
 10
442.532501379
 20
605.0
 30
0.0
 40
14.0
 50
338.2
 51
21.8
  0
LINE
  8
0
  6
LTYPE1
 62
     2
 10
456.532501379
 20
597.2
 30
0.0
 11
456.532501379
 21
612.8
 31
0.0
  0
LINE
  8
0
  6
LTYPE1
 62
     2
 10
461.532501379
 20
586.8
 30
0.0
 11
455.918142025
 21
586.8
 31
0.0
  0
LINE
  8
0
  6
LTYPE1
 62
     2
 10
454.532501379
 20
584.4
 30
0.0
 11
455.918142025
 21
586.8
 31
0.0
  0
LINE
  8
0
  6
LTYPE1
 62
     2
 10
454.532501379
 20
584.4
 30
0.0
 11
455.918142025
 21
586.8
 31
0.0
  0
LINE
  8
0
  6
LTYPE1
 62
     2
 10
454.532501379
 20
577.0
 30
0.0
 11
454.532501379
 21
584.4
 31
0.0
  0
LINE
  8
0
  6
LTYPE1
 62
     2
 10
461.532501379
 20
581.9
 30
0.0
 11
455.918142025
 21
581.9
 31
0.0
  0
ARC
  8
0
  6
LTYPE1
 62
     2
 10
457.390385212
 20
584.35
 30
0.0
 40
2.858321186
 50
177.010501597
 51
238.997686085
  0
LINE
  8
0
  6
LTYPE1
 62
     2
 10
446.032501379
 20
581.0
 30
0.0
 11
454.532501379
 21
581.0
 31
0.0
  0
ARC
  8
0
  6
LTYPE1
 62
     2
 10
463.889184179
 20
577.0
 30
0.0
 40
9.3566828
 50
148.419912243
 51
211.580087757
  0
LINE
  8
0
  6
LTYPE1
 62
     2
 10
446.032501379
 20
573.0
 30
0.0
 11
446.032501379
 21
581.0
 31
0.0
  0
LINE
  8
0
  6
LTYPE1
 62
     2
 10
461.532501379
 20
567.2
 30
0.0
 11
455.918142025
 21
567.2
 31
0.0
  0
LINE
  8
0
  6
LTYPE1
 62
     2
 10
454.532501379
 20
569.6
 30
0.0
 11
455.918142025
 21
567.2
 31
0.0
  0
LINE
  8
0
  6
LTYPE1
 62
     2
 10
454.532501379
 20
577.0
 30
0.0
 11
454.532501379
 21
569.6
 31
0.0
  0
LINE
  8
0
  6
LTYPE1
 62
     2
 10
461.532501379
 20
572.1
 30
0.0
 11
455.918142025
 21
572.1
 31
0.0
  0
ARC
  8
0
  6
LTYPE1
 62
     2
 10
457.390385212
 20
569.65
 30
0.0
 40
2.858321186
 50
121.002313915
 51
182.989498403
  0
LINE
  8
0
  6
LTYPE1
 62
     2
 10
446.032501379
 20
573.0
 30
0.0
 11
454.532501379
 21
573.0
 31
0.0
  0
LINE
  8
0
  6
LTYPE1
 62
     2
 10
446.032501379
 20
574.0
 30
0.0
 11
454.532501379
 21
574.0
 31
0.0
  0
LINE
  8
0
  6
LTYPE1
 62
     2
 10
446.032501379
 20
580.0
 30
0.0
 11
454.532501379
 21
580.0
 31
0.0
  0
LINE
  8
0
  6
CONTINUOUS
 62
     1
 10
482.532501379
 20
585.55
 30
0.0
 11
482.532501379
 21
569.55
 31
0.0
  0
LINE
  8
0
  6
CONTINUOUS
 62
     1
 10
482.532501379
 20
585.55
 30
0.0
 11
496.032501379
 21
585.55
 31
0.0
  0
LINE
  8
0
  6
CONTINUOUS
 62
     1
 10
482.532501379
 20
569.55
 30
0.0
 11
496.032501379
 21
569.55
 31
0.0
  0
LINE
  8
0
  6
LTYPE1
 62
     2
 10
464.032501379
 20
599.0
 30
0.0
 11
496.032501379
 21
599.0
 31
0.0
  0
LINE
  8
0
  6
LTYPE1
 62
     2
 10
464.032501379
 20
564.0
 30
0.0
 11
496.032501379
 21
564.0
 31
0.0
  0
LINE
  8
0
  6
LTYPE1
 62
     2
 10
464.032501379
 20
601.0
 30
0.0
 11
469.032501379
 21
601.0
 31
0.0
  0
LINE
  8
0
  6
LTYPE1
 62
     2
 10
464.032501379
 20
602.0
 30
0.0
 11
469.032501379
 21
602.0
 31
0.0
  0
LINE
  8
0
  6
LTYPE1
 62
     2
 10
464.032501379
 20
586.2
 30
0.0
 11
461.532501379
 21
586.2
 31
0.0
  0
LINE
  8
0
  6
LTYPE1
 62
     2
 10
461.532501379
 20
577.0
 30
0.0
 11
461.532501379
 21
586.8
 31
0.0
  0
LINE
  8
0
  6
LTYPE1
 62
     2
 10
464.032501379
 20
564.0
 30
0.0
 11
464.032501379
 21
617.0
 31
0.0
  0
LINE
  8
0
  6
LTYPE1
 62
     2
 10
461.532501379
 20
577.0
 30
0.0
 11
461.532501379
 21
567.2
 31
0.0
  0
LINE
  8
0
  6
LTYPE1
 62
     2
 10
464.032501379
 20
567.8
 30
0.0
 11
461.532501379
 21
567.8
 31
0.0
  0
LINE
  8
0
  6
LTYPE1
 62
     2
 10
464.032501379
 20
577.0
 30
0.0
 11
461.532501384
 21
574.500000004
 31
0.0
  0
LINE
  8
0
  6
LTYPE1
 62
     2
 10
461.532501384
 20
577.0
 30
0.0
 11
464.032501379
 21
579.499999996
 31
0.0
  0
LINE
  8
0
  6
LTYPE1
 62
     2
 10
469.032501379
 20
599.0
 30
0.0
 11
469.032501379
 21
611.0
 31
0.0
  0
LINE
  8
0
  6
CONTINUOUS
 62
     1
 10
496.032501379
 20
588.0
 30
0.0
 11
504.692755417
 21
593.0
 31
0.0
  0
LINE
  8
0
  6
CONTINUOUS
 62
     1
 10
496.032501379
 20
566.0
 30
0.0
 11
496.032501379
 21
588.0
 31
0.0
  0
LINE
  8
0
  6
CONTINUOUS
 62
     1
 10
496.032501379
 20
566.0
 30
0.0
 11
504.692755417
 21
561.0
 31
0.0
  0
LINE
  8
0
  6
LTYPE1
 62
     2
 10
496.032501379
 20
564.0
 30
0.0
 11
496.032501379
 21
617.0
 31
0.0
  0
LINE
  8
0
  6
CONTINUOUS
 62
     1
 10
529.382501379
 20
561.0
 30
0.0
 11
529.382501379
 21
593.0
 31
0.0
  0
LINE
  8
0
  6
CONTINUOUS
 62
     1
 10
504.682501379
 20
561.0
 30
0.0
 11
529.382501379
 21
561.0
 31
0.0
  0
LINE
  8
0
  6
CONTINUOUS
 62
     1
 10
538.032501379
 20
566.0
 30
0.0
 11
529.372247342
 21
561.0
 31
0.0
  0
LINE
  8
0
  6
LTYPE3
 62
     2
 10
517.032501379
 20
567.0
 30
0.0
 11
517.032501379
 21
587.0
 31
0.0
  0
LINE
  8
0
  6
CONTINUOUS
 62
     1
 10
504.682501379
 20
593.0
 30
0.0
 11
529.382501379
 21
593.0
 31
0.0
  0
LINE
  8
0
  6
CONTINUOUS
 62
     1
 10
538.032501379
 20
588.0
 30
0.0
 11
529.372247342
 21
593.0
 31
0.0
  0
CIRCLE
  8
0
  6
CONTINUOUS
 62
     2
 10
517.032501379
 20
577.0
 30
0.0
 40
5.0
  0
CIRCLE
  8
0
  6
CONTINUOUS
 62
     2
 10
517.032501379
 20
577.0
 30
0.0
 40
4.0
  0
LINE
  8
0
  6
CONTINUOUS
 62
     1
 10
538.032501379
 20
566.0
 30
0.0
 11
538.032501379
 21
588.0
 31
0.0
  0
LINE
  8
0
  6
CONTINUOUS
 62
     1
 10
504.682501379
 20
561.0
 30
0.0
 11
504.682501379
 21
593.0
 31
0.0
  0
LINE
  8
0
  6
LTYPE1
 62
     2
 10
449.032501379
 20
615.4
 30
0.0
 11
455.532501379
 21
615.4
 31
0.0
  0
ARC
  8
0
  6
LTYPE1
 62
     2
 10
452.632501379
 20
612.8
 30
0.0
 40
3.9
 50
317.9
 51
42.1
  0
LINE
  8
0
  6
LTYPE1
 62
     2
 10
455.532501379
 20
610.2
 30
0.0
 11
449.032501379
 21
610.2
 31
0.0
  0
LINE
  8
0
  6
LTYPE1
 62
     2
 10
456.532501379
 20
609.0
 30
0.0
 11
464.032501379
 21
609.0
 31
0.0
  0
LINE
  8
0
  6
LTYPE1
 62
     2
 10
456.532501379
 20
608.0
 30
0.0
 11
464.032501379
 21
608.0
 31
0.0
  0
LINE
  8
0
  6
LTYPE1
 62
     2
 10
444.779531379
 20
625.0
 30
0.0
 11
444.779531379
 21
629.440300598
 31
0.0
  0
LINE
  8
0
  6
LTYPE1
 62
     2
 10
448.526561379
 20
625.0
 30
0.0
 11
448.526561379
 21
629.440300598
 31
0.0
  0
LINE
  8
0
  6
LTYPE1
 62
     2
 10
496.032501379
 20
617.0
 30
0.0
 11
464.032501379
 21
617.0
 31
0.0
  0
LINE
  8
0
  6
LTYPE1
 62
     2
 10
496.032501379
 20
611.0
 30
0.0
 11
464.032501379
 21
611.0
 31
0.0
  0
LINE
  8
0
  6
LTYPE1
 62
     2
 10
464.032501379
 20
609.0
 30
0.0
 11
469.032501379
 21
609.0
 31
0.0
  0
LINE
  8
0
  6
LTYPE1
 62
     2
 10
464.032501379
 20
608.0
 30
0.0
 11
469.032501379
 21
608.0
 31
0.0
  0
ARC
  8
0
  6
LTYPE1
 62
     2
 10
441.032501379
 20
623.344844663
 30
0.0
 40
7.155055337
 50
58.419912243
 51
121.580087757
  0
LINE
  8
0
  6
LTYPE1
 62
     2
 10
446.691281379
 20
630.4999
 30
0.0
 11
448.526561379
 21
629.440300598
 31
0.0
  0
LINE
  8
0
  6
LTYPE1
 62
     2
 10
441.032501379
 20
630.4999
 30
0.0
 11
446.691281379
 21
630.4999
 31
0.0
  0
LINE
  8
0
  6
LTYPE1
 62
     2
 10
446.691281379
 20
630.4999
 30
0.0
 11
448.526561379
 21
629.440300598
 31
0.0
  0
ARC
  8
0
  6
LTYPE1
 62
     2
 10
446.653046379
 20
628.314476233
 30
0.0
 40
2.185758211
 50
87.010501597
 51
148.997686085
  0
LINE
  8
0
  6
LTYPE1
 62
     2
 10
441.032501379
 20
615.0
 30
0.0
 11
441.032501379
 21
631.0
 31
0.0
  0
LINE
  8
0
  6
LTYPE1
 62
     2
 10
441.032501379
 20
630.4999
 30
0.0
 11
435.373721379
 21
630.4999
 31
0.0
  0
ARC
  8
0
  6
LTYPE1
 62
     2
 10
435.411956379
 20
628.314476233
 30
0.0
 40
2.185758211
 50
31.002313915
 51
92.989498403
  0
LINE
  8
0
  6
LTYPE1
 62
     2
 10
437.285471379
 20
625.0
 30
0.0
 11
437.285471379
 21
629.440300598
 31
0.0
  0
LINE
  8
0
  6
LTYPE1
 62
     2
 10
430.532501379
 20
614.8
 30
0.0
 11
424.918142025
 21
614.8
 31
0.0
  0
LINE
  8
0
  6
LTYPE1
 62
     2
 10
430.532501379
 20
609.9
 30
0.0
 11
424.918142025
 21
609.9
 31
0.0
  0
LINE
  8
0
  6
LTYPE1
 62
     2
 10
430.532501379
 20
605.0
 30
0.0
 11
430.532501379
 21
614.8
 31
0.0
  0
LINE
  8
0
  6
LTYPE1
 62
     2
 10
433.032501379
 20
614.2
 30
0.0
 11
430.532501379
 21
614.2
 31
0.0
  0
LINE
  8
0
  6
LTYPE1
 62
     2
 10
430.532501384
 20
605.0
 30
0.0
 11
433.032501379
 21
607.499999996
 31
0.0
  0
LINE
  8
0
  6
LTYPE1
 62
     2
 10
430.532501379
 20
595.2
 30
0.0
 11
424.918142025
 21
595.2
 31
0.0
  0
LINE
  8
0
  6
LTYPE1
 62
     2
 10
430.532501379
 20
600.1
 30
0.0
 11
424.918142025
 21
600.1
 31
0.0
  0
LINE
  8
0
  6
LTYPE1
 62
     2
 10
430.532501379
 20
605.0
 30
0.0
 11
430.532501379
 21
595.2
 31
0.0
  0
LINE
  8
0
  6
LTYPE1
 62
     2
 10
433.032501379
 20
605.0
 30
0.0
 11
430.532501384
 21
602.500000004
 31
0.0
  0
LINE
  8
0
  6
LTYPE1
 62
     2
 10
433.032501379
 20
595.8
 30
0.0
 11
430.532501379
 21
595.8
 31
0.0
  0
LINE
  8
0
  6
LTYPE1
 62
     2
 10
423.532501379
 20
605.0
 30
0.0
 11
423.532501379
 21
612.4
 31
0.0
  0
LINE
  8
0
  6
LTYPE1
 62
     2
 10
423.532501379
 20
612.4
 30
0.0
 11
424.918142025
 21
614.8
 31
0.0
  0
LINE
  8
0
  6
LTYPE1
 62
     2
 10
423.532501379
 20
612.4
 30
0.0
 11
424.918142025
 21
614.8
 31
0.0
  0
ARC
  8
0
  6
LTYPE1
 62
     2
 10
426.390385212
 20
612.35
 30
0.0
 40
2.858321186
 50
177.010501597
 51
238.997686085
  0
LINE
  8
0
  6
LTYPE1
 62
     2
 10
419.032501379
 20
609.0
 30
0.0
 11
423.532501379
 21
609.0
 31
0.0
  0
LINE
  8
0
  6
LTYPE1
 62
     2
 10
419.032501379
 20
608.0
 30
0.0
 11
423.532501379
 21
608.0
 31
0.0
  0
LINE
  8
0
  6
LTYPE1
 62
     2
 10
423.532501379
 20
597.6
 30
0.0
 11
424.918142025
 21
595.2
 31
0.0
  0
LINE
  8
0
  6
LTYPE1
 62
     2
 10
423.532501379
 20
605.0
 30
0.0
 11
423.532501379
 21
597.6
 31
0.0
  0
ARC
  8
0
  6
LTYPE1
 62
     2
 10
426.390385212
 20
597.65
 30
0.0
 40
2.858321186
 50
121.002313915
 51
182.989498403
  0
LINE
  8
0
  6
LTYPE1
 62
     2
 10
419.032501379
 20
601.0
 30
0.0
 11
423.532501379
 21
601.0
 31
0.0
  0
LINE
  8
0
  6
LTYPE1
 62
     2
 10
419.032501379
 20
602.0
 30
0.0
 11
423.532501379
 21
602.0
 31
0.0
  0
ARC
  8
0
  6
LTYPE1
 62
     2
 10
432.889184179
 20
605.0
 30
0.0
 40
9.3566828
 50
148.419912243
 51
211.580087757
  0
LINE
  8
0
  6
LTYPE1
 62
     2
 10
419.032501379
 20
601.0
 30
0.0
 11
419.032501379
 21
609.0
 31
0.0
  0
LINE
  8
0
  6
LTYPE1
 62
     2
 10
433.032501379
 20
592.0
 30
0.0
 11
433.032501379
 21
625.0
 31
0.0
  0
LINE
  8
0
  6
LTYPE3
 62
     2
 10
611.2
 20
641.5
 30
0.0
 11
591.5
 21
641.5
 31
0.0
  0
LINE
  8
0
  6
CONTINUOUS
 62
     2
 10
605.0
 20
641.5
 30
0.0
 11
615.714022707
 21
646.904601506
 31
0.0
  0
LINE
  8
0
  6
CONTINUOUS
 62
     2
 10
605.0
 20
641.5
 30
0.0
 11
616.980916594
 21
640.823510848
 31
0.0
  0
LINE
  8
0
  6
CONTINUOUS
 62
     2
 10
485.292647059
 20
634.7
 30
0.0
 11
564.8
 21
634.7
 31
0.0
  0
TEXT
  8
0
  6
CONTINUOUS
 62
     2
 10
485.3
 20
636.7
 30
0.0
 40
15.0
  1
推力リミッタ
 50
0.0
 41
0.92
 51
0.0
  7
KANJI22
  0
LINE
  8
0
  6
LTYPE1
 62
     2
 10
668.032501379
 20
690.0
 30
0.0
 11
654.032501379
 21
690.0
 31
0.0
  0
LINE
  8
0
  6
CONTINUOUS
 62
     1
 10
807.182501379
 20
762.0
 30
0.0
 11
567.0
 21
762.0
 31
0.0
  0
LINE
  8
0
  6
CONTINUOUS
 62
     1
 10
804.182501379
 20
692.0
 30
0.0
 11
567.0
 21
692.0
 31
0.0
  0
TEXT
  8
0
  6
CONTINUOUS
 62
     2
 10
619.5
 20
705.25
 30
0.0
 40
18.0
  1
φ７０
 50
90.0
 41
0.9
 51
0.0
  7
KANJI17
  0
TEXT
  8
0
  6
CONTINUOUS
 62
     2
 10
619.5
 20
705.25
 30
0.0
 40
18.0
  1
φ７０
 50
90.0
 41
0.9
 51
0.0
  7
KANJI17
  0
LINE
  8
0
  6
CONTINUOUS
 62
     2
 10
624.5
 20
692.0
 30
0.0
 11
624.5
 21
762.0
 31
0.0
  0
LINE
  8
0
  6
CONTINUOUS
 62
     2
 10
624.5
 20
692.0
 30
0.0
 11
624.5
 21
762.0
 31
0.0
  0
LINE
  8
0
  6
CONTINUOUS
 62
     2
 10
624.5
 20
692.0
 30
0.0
 11
627.735238064
 21
704.074072829
 31
0.0
  0
LINE
  8
0
  6
CONTINUOUS
 62
     2
 10
624.5
 20
692.0
 30
0.0
 11
621.264761936
 21
704.074072829
 31
0.0
  0
LINE
  8
0
  6
CONTINUOUS
 62
     2
 10
624.5
 20
692.0
 30
0.0
 11
627.735238064
 21
704.074072829
 31
0.0
  0
LINE
  8
0
  6
CONTINUOUS
 62
     2
 10
624.5
 20
692.0
 30
0.0
 11
621.264761936
 21
704.074072829
 31
0.0
  0
LINE
  8
0
  6
CONTINUOUS
 62
     2
 10
624.5
 20
762.0
 30
0.0
 11
627.735238064
 21
749.925927171
 31
0.0
  0
LINE
  8
0
  6
CONTINUOUS
 62
     2
 10
624.5
 20
762.0
 30
0.0
 11
627.735238064
 21
749.925927171
 31
0.0
  0
LINE
  8
0
  6
CONTINUOUS
 62
     2
 10
624.5
 20
762.0
 30
0.0
 11
621.264761936
 21
749.925927171
 31
0.0
  0
LINE
  8
0
  6
CONTINUOUS
 62
     2
 10
624.5
 20
762.0
 30
0.0
 11
621.264761936
 21
749.925927171
 31
0.0
  0
LINE
  8
0
  6
LTYPE2
 62
     2
 10
597.5
 20
727.0
 30
0.0
 11
264.9
 21
727.0
 31
0.0
  0
LINE
  8
0
  6
LTYPE2
 62
     2
 10
1085.283472275
 20
727.0
 30
0.0
 11
622.5
 21
727.0
 31
0.0
  0
LINE
  8
0
  6
CONTINUOUS
 62
     1
 10
825.182501379
 20
278.6
 30
0.0
 11
857.182501379
 21
278.6
 31
0.0
  0
LINE
  8
0
  6
CONTINUOUS
 62
     1
 10
825.182501379
 20
246.6
 30
0.0
 11
825.182501379
 21
278.6
 31
0.0
  0
LINE
  8
0
  6
CONTINUOUS
 62
     1
 10
906.182501379
 20
333.3
 30
0.0
 11
906.182501379
 21
335.1
 31
0.0
  0
LINE
  8
0
  6
CONTINUOUS
 62
     1
 10
786.182501379
 20
345.1
 30
0.0
 11
896.182501379
 21
345.1
 31
0.0
  0
ARC
  8
0
  6
CONTINUOUS
 62
     1
 10
896.182501379
 20
335.1
 30
0.0
 40
10.0
 50
0.0
 51
90.0
  0
LINE
  8
0
  6
LTYPE2
 62
     2
 10
907.443522596
 20
320.6
 30
0.0
 11
816.182501379
 21
320.6
 31
0.0
  0
LINE
  8
0
  6
CONTINUOUS
 62
     1
 10
857.182501379
 20
246.6
 30
0.0
 11
825.182501379
 21
246.6
 31
0.0
  0
LINE
  8
0
  6
LTYPE2
 62
     2
 10
851.682501379
 20
219.7
 30
0.0
 11
862.582501379
 21
219.7
 31
0.0
  0
LINE
  8
0
  6
LTYPE2
 62
     2
 10
857.582501379
 20
213.68
 30
0.0
 11
857.582501379
 21
223.6
 31
0.0
  0
LINE
  8
0
  6
LTYPE2
 62
     2
 10
851.142501379
 20
189.5
 30
0.0
 11
862.582501379
 21
189.5
 31
0.0
  0
LINE
  8
0
  6
LTYPE2
 62
     2
 10
857.582501379
 20
185.6
 30
0.0
 11
857.582501379
 21
194.58
 31
0.0
  0
LINE
  8
0
  6
LTYPE2
 62
     2
 10
793.882501379
 20
189.5
 30
0.0
 11
803.842501379
 21
189.5
 31
0.0
  0
LINE
  8
0
  6
LTYPE2
 62
     2
 10
798.882501379
 20
185.6
 30
0.0
 11
798.882501379
 21
193.48
 31
0.0
  0
LINE
  8
0
  6
LTYPE2
 62
     2
 10
793.882501379
 20
219.7
 30
0.0
 11
803.682501379
 21
219.7
 31
0.0
  0
LINE
  8
0
  6
LTYPE2
 62
     2
 10
798.882501379
 20
213.58
 30
0.0
 11
798.882501379
 21
223.6
 31
0.0
  0
LINE
  8
0
  6
LTYPE2
 62
     2
 10
795.182501379
 20
242.6
 30
0.0
 11
772.182501379
 21
242.6
 31
0.0
  0
ARC
  8
0
  6
CONTINUOUS
 62
     1
 10
795.882501379
 20
186.6
 30
0.0
 40
2.0
 50
180.0
 51
270.0
  0
LINE
  8
0
  6
CONTINUOUS
 62
     1
 10
770.482501379
 20
191.9
 30
0.0
 11
793.882501379
 21
191.9
 31
0.0
  0
ARC
  8
0
  6
CONTINUOUS
 62
     1
 10
770.482501379
 20
193.9
 30
0.0
 40
2.0
 50
180.0
 51
270.0
  0
LINE
  8
0
  6
CONTINUOUS
 62
     1
 10
768.482501379
 20
193.9
 30
0.0
 11
768.482501379
 21
215.3
 31
0.0
  0
ARC
  8
0
  6
CONTINUOUS
 62
     1
 10
770.482501379
 20
215.3
 30
0.0
 40
2.0
 50
90.0
 51
180.0
  0
LINE
  8
0
  6
CONTINUOUS
 62
     1
 10
793.882501379
 20
186.6
 30
0.0
 11
793.882501379
 21
222.6
 31
0.0
  0
ARC
  8
0
  6
CONTINUOUS
 62
     1
 10
795.882501379
 20
222.6
 30
0.0
 40
2.0
 50
90.0
 51
180.0
  0
LINE
  8
0
  6
CONTINUOUS
 62
     1
 10
795.882501379
 20
224.6
 30
0.0
 11
860.582501379
 21
224.6
 31
0.0
  0
ARC
  8
0
  6
CONTINUOUS
 62
     1
 10
860.582501379
 20
222.6
 30
0.0
 40
2.0
 50
0.0
 51
90.0
  0
LINE
  8
0
  6
CONTINUOUS
 62
     1
 10
795.882501379
 20
184.6
 30
0.0
 11
860.582501379
 21
184.6
 31
0.0
  0
LINE
  8
0
  6
CONTINUOUS
 62
     1
 10
862.582501379
 20
186.6
 30
0.0
 11
862.582501379
 21
222.6
 31
0.0
  0
ARC
  8
0
  6
CONTINUOUS
 62
     1
 10
860.582501379
 20
186.6
 30
0.0
 40
2.0
 50
270.0
 51
0.0
  0
ARC
  8
0
  6
CONTINUOUS
 62
     1
 10
896.182501379
 20
190.1
 30
0.0
 40
10.0
 50
270.0
 51
0.0
  0
LINE
  8
0
  6
CONTINUOUS
 62
     1
 10
776.182501379
 20
191.9
 30
0.0
 11
776.182501379
 21
190.1
 31
0.0
  0
LINE
  8
0
  6
CONTINUOUS
 62
     1
 10
896.182501379
 20
180.1
 30
0.0
 11
786.182501379
 21
180.1
 31
0.0
  0
ARC
  8
0
  6
CONTINUOUS
 62
     1
 10
786.182501379
 20
190.1
 30
0.0
 40
10.0
 50
180.0
 51
270.0
  0
LINE
  8
0
  6
CONTINUOUS
 62
     1
 10
778.190817392
 20
204.915789474
 30
0.0
 11
780.188045388
 21
242.810526316
 31
0.0
  0
LINE
  8
0
  6
CONTINUOUS
 62
     1
 10
790.174185367
 20
204.915789474
 30
0.0
 11
788.176957371
 21
242.810526316
 31
0.0
  0
ARC
  8
0
  6
CONTINUOUS
 62
     1
 10
784.182501379
 20
242.6
 30
0.0
 40
4.0
 50
356.983042101
 51
183.016952287
  0
ARC
  8
0
  6
CONTINUOUS
 62
     1
 10
784.182501379
 20
242.6
 30
0.0
 40
8.75
 50
300.219855722
 51
239.780144278
  0
ARC
  8
0
  6
CONTINUOUS
 62
     1
 10
784.182501379
 20
204.6
 30
0.0
 40
6.0
 50
176.983045121
 51
3.016954879
  0
LINE
  8
0
  6
CONTINUOUS
 62
     1
 10
789.521480162
 20
217.3
 30
0.0
 11
793.882501379
 21
217.3
 31
0.0
  0
LINE
  8
0
  6
CONTINUOUS
 62
     1
 10
770.482501379
 20
217.3
 30
0.0
 11
778.843522596
 21
217.3
 31
0.0
  0
LINE
  8
0
  6
LTYPE2
 62
     2
 10
784.182501379
 20
195.5
 30
0.0
 11
784.182501379
 21
253.0
 31
0.0
  0
LINE
  8
0
  6
LTYPE2
 62
     2
 10
774.921480162
 20
204.6
 30
0.0
 11
866.182501379
 21
204.6
 31
0.0
  0
LINE
  8
0
  6
CONTINUOUS
 62
     1
 10
857.182501379
 20
246.6
 30
0.0
 11
857.182501379
 21
278.6
 31
0.0
  0
LINE
  8
0
  6
CONTINUOUS
 62
     1
 10
776.182501379
 20
239.05563828
 30
0.0
 11
776.182501379
 21
217.25
 31
0.0
  0
LINE
  8
0
  6
CONTINUOUS
 62
     1
 10
776.182501379
 20
254.6
 30
0.0
 11
776.182501379
 21
246.14436172
 31
0.0
  0
LINE
  8
0
  6
CONTINUOUS
 62
     1
 10
906.182501379
 20
286.14436172
 30
0.0
 11
906.182501379
 21
307.95
 31
0.0
  0
LINE
  8
0
  6
CONTINUOUS
 62
     1
 10
906.182501379
 20
270.6
 30
0.0
 11
906.182501379
 21
279.05563828
 31
0.0
  0
LINE
  8
0
  6
CONTINUOUS
 62
     1
 10
759.803444363
 20
254.6
 30
0.0
 11
825.182501379
 21
254.6
 31
0.0
  0
LINE
  8
0
  6
CONTINUOUS
 62
     1
 10
825.182501379
 20
270.6
 30
0.0
 11
759.873079342
 21
270.6
 31
0.0
  0
ARC
  8
0
  6
CONTINUOUS
 62
     1
 10
765.427969957
 20
266.6
 30
0.0
 40
6.845203412
 50
144.242860688
 51
215.757139312
  0
ARC
  8
0
  6
CONTINUOUS
 62
     1
 10
754.318188727
 20
266.6
 30
0.0
 40
6.845203412
 50
324.242860688
 51
35.757139312
  0
ARC
  8
0
  6
CONTINUOUS
 62
     1
 10
754.318188727
 20
258.6
 30
0.0
 40
6.845203412
 50
324.242860688
 51
35.757139312
  0
LINE
  8
0
  6
CONTINUOUS
 62
     1
 10
912.682501379
 20
252.6
 30
0.0
 11
912.682501379
 21
272.6
 31
0.0
  0
LINE
  8
0
  6
CONTINUOUS
 62
     1
 10
912.682501379
 20
272.6
 30
0.0
 11
926.53890784
 21
280.6
 31
0.0
  0
LINE
  8
0
  6
CONTINUOUS
 62
     1
 10
912.682501379
 20
252.6
 30
0.0
 11
926.53890784
 21
244.6
 31
0.0
  0
LINE
  8
0
  6
CONTINUOUS
 62
     1
 10
926.53890784
 20
244.6
 30
0.0
 11
926.53890784
 21
280.6
 31
0.0
  0
LINE
  8
0
  6
CONTINUOUS
 62
     1
 10
948.826094919
 20
244.6
 30
0.0
 11
948.826094919
 21
280.6
 31
0.0
  0
LINE
  8
0
  6
CONTINUOUS
 62
     1
 10
926.53890784
 20
280.6
 30
0.0
 11
948.826094919
 21
280.6
 31
0.0
  0
LINE
  8
0
  6
CONTINUOUS
 62
     1
 10
962.682501379
 20
272.6
 30
0.0
 11
948.826094919
 21
280.6
 31
0.0
  0
LINE
  8
0
  6
CONTINUOUS
 62
     1
 10
926.53890784
 20
244.6
 30
0.0
 11
948.826094919
 21
244.6
 31
0.0
  0
LINE
  8
0
  6
CONTINUOUS
 62
     1
 10
962.682501379
 20
252.6
 30
0.0
 11
948.826094919
 21
244.6
 31
0.0
  0
LINE
  8
0
  6
CONTINUOUS
 62
     1
 10
926.53890784
 20
244.6
 30
0.0
 11
948.826094919
 21
244.6
 31
0.0
  0
LINE
  8
0
  6
LTYPE3
 62
     2
 10
937.682501379
 20
252.6
 30
0.0
 11
937.682501379
 21
272.6
 31
0.0
  0
CIRCLE
  8
0
  6
CONTINUOUS
 62
     2
 10
937.682501379
 20
262.6
 30
0.0
 40
5.0
  0
CIRCLE
  8
0
  6
CONTINUOUS
 62
     2
 10
937.682501379
 20
262.6
 30
0.0
 40
4.0
  0
LINE
  8
0
  6
CONTINUOUS
 62
     1
 10
857.182501379
 20
270.6
 30
0.0
 11
912.682501379
 21
270.6
 31
0.0
  0
LINE
  8
0
  6
CONTINUOUS
 62
     1
 10
912.682501379
 20
254.6
 30
0.0
 11
857.182501379
 21
254.6
 31
0.0
  0
LINE
  8
0
  6
LTYPE3
 62
     2
 10
989.682501379
 20
262.6
 30
0.0
 11
754.838261852
 21
262.6
 31
0.0
  0
LINE
  8
7
  6
CONTINUOUS
 62
     2
 10
862.582501379
 20
204.6
 30
0.0
 11
870.949808964
 21
210.076144975
 31
0.0
  0
LINE
  8
7
  6
CONTINUOUS
 62
     2
 10
862.582501379
 20
204.6
 30
0.0
 11
867.090729822
 21
213.526134455
 31
0.0
  0
LINE
  8
7
  6
CONTINUOUS
 62
     2
 10
862.582501379
 20
204.6
 30
0.0
 11
875.232501379
 21
218.75
 31
0.0
  0
LINE
  8
7
  6
CONTINUOUS
 62
     2
 10
875.232501379
 20
218.75
 30
0.0
 11
934.032501379
 21
218.75
 31
0.0
  0
TEXT
  8
7
  6
CONTINUOUS
 62
     2
 10
875.232501379
 20
222.75
 30
1.2
 40
12.0
  1
ＰＦ１／２
 50
0.0
 41
0.9
 51
0.0
  7
KANJI23
  0
LINE
  8
7
  6
CONTINUOUS
 62
     2
 10
819.782501379
 20
320.6
 30
0.0
 11
811.47402349
 21
315.035002681
 31
0.0
  0
LINE
  8
7
  6
CONTINUOUS
 62
     2
 10
819.782501379
 20
320.6
 30
0.0
 11
815.36964712
 21
311.626332005
 31
0.0
  0
LINE
  8
7
  6
CONTINUOUS
 62
     2
 10
819.782501379
 20
320.6
 30
0.0
 11
808.582501379
 21
307.8
 31
0.0
  0
LINE
  8
7
  6
CONTINUOUS
 62
     2
 10
808.582501379
 20
307.8
 30
0.0
 11
749.782501379
 21
307.8
 31
0.0
  0
TEXT
  8
7
  6
CONTINUOUS
 62
     2
 10
749.782501379
 20
311.8
 30
1.2
 40
12.0
  1
ＰＦ１／２
 50
0.0
 41
0.9
 51
0.0
  7
KANJI23
  0
LINE
  8
0
  6
CONTINUOUS
 62
     1
 10
776.182501379
 20
270.6
 30
0.0
 11
776.182501379
 21
304.8
 31
0.0
  0
LINE
  8
0
  6
CONTINUOUS
 62
     1
 10
906.182501379
 20
215.8
 30
0.0
 11
906.182501379
 21
190.1
 31
0.0
  0
LINE
  8
0
  6
LTYPE3
 62
     2
 10
841.182501379
 20
228.5
 30
0.0
 11
841.182501379
 21
539.5
 31
0.0
  0
LINE
  8
0
  6
LTYPE2
 62
     2
 10
831.222501379
 20
335.7
 30
0.0
 11
819.782501379
 21
335.7
 31
0.0
  0
LINE
  8
0
  6
LTYPE2
 62
     2
 10
824.782501379
 20
339.6
 30
0.0
 11
824.782501379
 21
330.62
 31
0.0
  0
LINE
  8
0
  6
CONTINUOUS
 62
     1
 10
886.482501379
 20
340.6
 30
0.0
 11
821.782501379
 21
340.6
 31
0.0
  0
LINE
  8
0
  6
CONTINUOUS
 62
     1
 10
819.782501379
 20
338.6
 30
0.0
 11
819.782501379
 21
302.6
 31
0.0
  0
ARC
  8
0
  6
CONTINUOUS
 62
     1
 10
821.782501379
 20
338.6
 30
0.0
 40
2.0
 50
90.0
 51
180.0
  0
LINE
  8
0
  6
LTYPE2
 62
     2
 10
830.682501379
 20
305.5
 30
0.0
 11
819.782501379
 21
305.5
 31
0.0
  0
LINE
  8
0
  6
LTYPE2
 62
     2
 10
824.782501379
 20
311.52
 30
0.0
 11
824.782501379
 21
301.6
 31
0.0
  0
LINE
  8
0
  6
CONTINUOUS
 62
     1
 10
886.482501379
 20
300.6
 30
0.0
 11
821.782501379
 21
300.6
 31
0.0
  0
ARC
  8
0
  6
CONTINUOUS
 62
     1
 10
821.782501379
 20
302.6
 30
0.0
 40
2.0
 50
180.0
 51
270.0
  0
LINE
  8
0
  6
LTYPE2
 62
     2
 10
888.482501379
 20
335.7
 30
0.0
 11
878.522501379
 21
335.7
 31
0.0
  0
LINE
  8
0
  6
LTYPE2
 62
     2
 10
883.482501379
 20
339.6
 30
0.0
 11
883.482501379
 21
331.72
 31
0.0
  0
ARC
  8
0
  6
CONTINUOUS
 62
     1
 10
886.482501379
 20
338.6
 30
0.0
 40
2.0
 50
0.0
 51
90.0
  0
LINE
  8
0
  6
CONTINUOUS
 62
     1
 10
911.882501379
 20
333.3
 30
0.0
 11
888.482501379
 21
333.3
 31
0.0
  0
LINE
  8
0
  6
CONTINUOUS
 62
     1
 10
888.482501379
 20
338.6
 30
0.0
 11
888.482501379
 21
302.6
 31
0.0
  0
LINE
  8
0
  6
LTYPE2
 62
     2
 10
888.482501379
 20
305.5
 30
0.0
 11
878.682501379
 21
305.5
 31
0.0
  0
LINE
  8
0
  6
LTYPE2
 62
     2
 10
883.482501379
 20
311.62
 30
0.0
 11
883.482501379
 21
301.6
 31
0.0
  0
ARC
  8
0
  6
CONTINUOUS
 62
     1
 10
886.482501379
 20
302.6
 30
0.0
 40
2.0
 50
270.0
 51
0.0
  0
LINE
  8
0
  6
CONTINUOUS
 62
     1
 10
892.843522596
 20
307.9
 30
0.0
 11
888.482501379
 21
307.9
 31
0.0
  0
ARC
  8
0
  6
CONTINUOUS
 62
     1
 10
911.882501379
 20
331.3
 30
0.0
 40
2.0
 50
0.0
 51
90.0
  0
LINE
  8
0
  6
CONTINUOUS
 62
     1
 10
913.882501379
 20
331.3
 30
0.0
 11
913.882501379
 21
309.9
 31
0.0
  0
ARC
  8
0
  6
CONTINUOUS
 62
     1
 10
898.182501379
 20
320.6
 30
0.0
 40
6.0
 50
356.983045121
 51
183.016954879
  0
LINE
  8
0
  6
LTYPE2
 62
     2
 10
898.182501379
 20
329.7
 30
0.0
 11
898.182501379
 21
272.2
 31
0.0
  0
LINE
  8
0
  6
CONTINUOUS
 62
     1
 10
904.174185367
 20
320.284210526
 30
0.0
 11
902.176957371
 21
282.389473684
 31
0.0
  0
LINE
  8
0
  6
CONTINUOUS
 62
     1
 10
892.190817392
 20
320.284210526
 30
0.0
 11
894.188045388
 21
282.389473684
 31
0.0
  0
ARC
  8
0
  6
CONTINUOUS
 62
     1
 10
911.882501379
 20
309.9
 30
0.0
 40
2.0
 50
270.0
 51
0.0
  0
LINE
  8
0
  6
CONTINUOUS
 62
     1
 10
911.882501379
 20
307.9
 30
0.0
 11
903.521480162
 21
307.9
 31
0.0
  0
LINE
  8
0
  6
LTYPE2
 62
     2
 10
887.182501379
 20
282.6
 30
0.0
 11
910.182501379
 21
282.6
 31
0.0
  0
ARC
  8
0
  6
CONTINUOUS
 62
     1
 10
898.182501379
 20
282.6
 30
0.0
 40
8.75
 50
120.219855722
 51
59.780144278
  0
ARC
  8
0
  6
CONTINUOUS
 62
     1
 10
898.182501379
 20
282.6
 30
0.0
 40
4.0
 50
176.983042101
 51
3.016952287
  0
LINE
  8
0
  6
CONTINUOUS
 62
     2
 10
728.0
 20
180.1
 30
0.0
 11
731.105828541
 21
191.691109915
 31
0.0
  0
LINE
  8
0
  6
CONTINUOUS
 62
     2
 10
728.0
 20
180.1
 30
0.0
 11
724.894171459
 21
191.691109915
 31
0.0
  0
LINE
  8
0
  6
CONTINUOUS
 62
     2
 10
780.182501379
 20
180.1
 30
0.0
 11
722.0
 21
180.1
 31
0.0
  0
TEXT
  8
0
  6
CONTINUOUS
 62
     3
 10
725.0
 20
238.3
 30
0.0
 40
18.0
  1
１６５
 50
90.0
 41
0.9
 51
0.0
  7
KANJI17
  0
LINE
  8
0
  6
CONTINUOUS
 62
     2
 10
776.182501379
 20
185.9
 30
0.0
 11
776.182501379
 21
111.1
 31
0.0
  0
LINE
  8
0
  6
CONTINUOUS
 62
     2
 10
776.182501379
 20
117.1
 30
0.0
 11
787.773611295
 21
113.994171459
 31
0.0
  0
LINE
  8
0
  6
CONTINUOUS
 62
     2
 10
776.182501379
 20
117.1
 30
0.0
 11
787.773611295
 21
120.205828541
 31
0.0
  0
LINE
  8
0
  6
CONTINUOUS
 62
     2
 10
776.182501379
 20
117.1
 30
0.0
 11
906.182501379
 21
117.1
 31
0.0
  0
LINE
  8
0
  6
CONTINUOUS
 62
     2
 10
906.182501379
 20
117.1
 30
0.0
 11
894.591391464
 21
120.205828541
 31
0.0
  0
LINE
  8
0
  6
CONTINUOUS
 62
     2
 10
906.182501379
 20
117.1
 30
0.0
 11
894.591391464
 21
113.994171459
 31
0.0
  0
LINE
  8
0
  6
CONTINUOUS
 62
     2
 10
906.182501379
 20
184.100009726
 30
0.0
 11
906.182501379
 21
111.1
 31
0.0
  0
TEXT
  8
0
  6
CONTINUOUS
 62
     3
 10
816.882501379
 20
120.1
 30
0.0
 40
18.0
  1
１３０
 50
0.0
 41
0.9
 51
0.0
  7
KANJI17
  0
ARC
  8
0
  6
CONTINUOUS
 62
     1
 10
979.437032801
 20
266.6
 30
0.0
 40
6.845203412
 50
324.242860688
 51
35.757139312
  0
ARC
  8
0
  6
CONTINUOUS
 62
     1
 10
990.546814032
 20
266.6
 30
0.0
 40
6.845203412
 50
144.242860688
 51
215.757139312
  0
ARC
  8
0
  6
CONTINUOUS
 62
     1
 10
990.546814032
 20
258.6
 30
0.0
 40
6.845203412
 50
144.242860688
 51
215.757139312
  0
LINE
  8
0
  6
CONTINUOUS
 62
     1
 10
962.682501379
 20
252.6
 30
0.0
 11
962.682501379
 21
272.6
 31
0.0
  0
LINE
  8
0
  6
CONTINUOUS
 62
     1
 10
962.682501379
 20
270.6
 30
0.0
 11
984.991923417
 21
270.6
 31
0.0
  0
LINE
  8
0
  6
CONTINUOUS
 62
     1
 10
984.991923417
 20
254.6
 30
0.0
 11
962.682501379
 21
254.6
 31
0.0
  0
LINE
  8
0
  6
CONTINUOUS
 62
     1
 10
1076.482501379
 20
305.1
 30
0.0
 11
1076.482501379
 21
240.4
 31
0.0
  0
LINE
  8
0
  6
CONTINUOUS
 62
     1
 10
1078.482501379
 20
238.4
 30
0.0
 11
1114.482501379
 21
238.4
 31
0.0
  0
ARC
  8
0
  6
CONTINUOUS
 62
     1
 10
1078.482501379
 20
240.4
 30
0.0
 40
2.0
 50
180.0
 51
270.0
  0
LINE
  8
0
  6
CONTINUOUS
 62
     1
 10
1116.482501379
 20
305.1
 30
0.0
 11
1116.482501379
 21
240.4
 31
0.0
  0
ARC
  8
0
  6
CONTINUOUS
 62
     1
 10
1114.482501379
 20
240.4
 30
0.0
 40
2.0
 50
270.0
 51
0.0
  0
ARC
  8
0
  6
CONTINUOUS
 62
     1
 10
1078.482501379
 20
305.1
 30
0.0
 40
2.0
 50
90.0
 51
180.0
  0
LINE
  8
0
  6
CONTINUOUS
 62
     1
 10
1083.782501379
 20
330.5
 30
0.0
 11
1083.782501379
 21
307.1
 31
0.0
  0
LINE
  8
0
  6
CONTINUOUS
 62
     1
 10
1078.482501379
 20
307.1
 30
0.0
 11
1114.482501379
 21
307.1
 31
0.0
  0
ARC
  8
0
  6
CONTINUOUS
 62
     1
 10
1114.482501379
 20
305.1
 30
0.0
 40
2.0
 50
0.0
 51
90.0
  0
ARC
  8
0
  6
CONTINUOUS
 62
     1
 10
1085.782501379
 20
330.5
 30
0.0
 40
2.0
 50
90.0
 51
180.0
  0
ARC
  8
0
  6
CONTINUOUS
 62
     1
 10
1096.482501379
 20
316.8
 30
0.0
 40
6.0
 50
131.983045121
 51
318.016954879
  0
LINE
  8
0
  6
LTYPE2
 62
     2
 10
1090.047829671
 20
310.365328291
 30
0.0
 11
1130.706469589
 21
351.023968209
 31
0.0
  0
LINE
  8
0
  6
CONTINUOUS
 62
     1
 10
1092.469037879
 20
321.260057257
 30
0.0
 11
1120.676916731
 21
346.64342919
 31
0.0
  0
LINE
  8
0
  6
CONTINUOUS
 62
     1
 10
1100.942558636
 20
312.7865365
 30
0.0
 11
1126.325930569
 21
340.994415352
 31
0.0
  0
LINE
  8
0
  6
LTYPE2
 62
     2
 10
1131.130733658
 20
335.891883092
 30
0.0
 11
1114.86727769
 21
352.155339059
 31
0.0
  0
ARC
  8
0
  6
CONTINUOUS
 62
     1
 10
1123.352559064
 20
343.670057685
 30
0.0
 40
8.75
 50
255.219855722
 51
194.780144278
  0
ARC
  8
0
  6
CONTINUOUS
 62
     1
 10
1123.352559064
 20
343.670057685
 30
0.0
 40
4.0
 50
311.983042101
 51
138.016952287
  0
LINE
  8
0
  6
CONTINUOUS
 62
     1
 10
1109.182501379
 20
321.94336985
 30
0.0
 11
1109.182501379
 21
307.1
 31
0.0
  0
LINE
  8
0
  6
CONTINUOUS
 62
     1
 10
1085.782501379
 20
332.5
 30
0.0
 11
1104.959692944
 21
332.5
 31
0.0
  0
LINE
  8
0
  6
LTYPE3
 62
     2
 10
1081.607501379
 20
283.6
 30
0.0
 11
1111.607501379
 21
283.6
 31
0.0
  0
LINE
  8
0
  6
LTYPE3
 62
     2
 10
1111.607501379
 20
283.6
 30
0.0
 11
1111.607501379
 21
293.1
 31
0.0
  0
LINE
  8
0
  6
LTYPE3
 62
     2
 10
1111.607501379
 20
293.1
 30
0.0
 11
1081.607501379
 21
293.1
 31
0.0
  0
LINE
  8
0
  6
LTYPE3
 62
     2
 10
1081.607501379
 20
293.1
 30
0.0
 11
1081.607501379
 21
283.6
 31
0.0
  0
LINE
  8
0
  6
CONTINUOUS
 62
     1
 10
1081.607501379
 20
253.6
 30
0.0
 11
1111.607501379
 21
253.6
 31
0.0
  0
LINE
  8
0
  6
CONTINUOUS
 62
     1
 10
1111.607501379
 20
253.6
 30
0.0
 11
1111.607501379
 21
263.1
 31
0.0
  0
LINE
  8
0
  6
CONTINUOUS
 62
     1
 10
1111.607501379
 20
263.1
 30
0.0
 11
1081.607501379
 21
263.1
 31
0.0
  0
LINE
  8
0
  6
CONTINUOUS
 62
     1
 10
1081.607501379
 20
263.1
 30
0.0
 11
1081.607501379
 21
253.6
 31
0.0
  0
TEXT
  8
0
  6
CONTINUOUS
 62
     2
 10
1080.382501379
 20
296.4
 30
0.0
 40
10.0
  1
４
 50
0.0
 41
0.85
 51
0.0
  7
KANJI24
  0
TEXT
  8
0
  6
CONTINUOUS
 62
     2
 10
1105.382501379
 20
296.4
 30
0.0
 40
10.0
  1
３
 50
0.0
 41
0.85
 51
0.0
  7
KANJI24
  0
POLYLINE
  8
0
  6
CONTINUOUS
 62
     2
 66
     1
 70
     1
  0
VERTEX
  8
0
  6
CONTINUOUS
 62
     2
 10
1091.382501379
 20
295.65
 30
0.0
 42
0.021820078
  0
VERTEX
  8
0
  6
CONTINUOUS
 62
     2
 10
1091.37393945
 20
295.846100421
 30
0.0
 42
0.021820078
  0
VERTEX
  8
0
  6
CONTINUOUS
 62
     2
 10
1091.348318824
 20
296.0407084
 30
0.0
 42
0.021820078
  0
VERTEX
  8
0
  6
CONTINUOUS
 62
     2
 10
1091.305834489
 20
296.232342851
 30
0.0
 42
0.021820078
  0
VERTEX
  8
0
  6
CONTINUOUS
 62
     2
 10
1091.246809776
 20
296.419545322
 30
0.0
 42
0.021820078
  0
VERTEX
  8
0
  6
CONTINUOUS
 62
     2
 10
1091.1716939
 20
296.600891089
 30
0.0
 42
0.021820078
  0
VERTEX
  8
0
  6
CONTINUOUS
 62
     2
 10
1091.081058538
 20
296.775
 30
0.0
 42
0.021820078
  0
VERTEX
  8
0
  6
CONTINUOUS
 62
     2
 10
1090.975593479
 20
296.940546982
 30
0.0
 42
0.021820078
  0
VERTEX
  8
0
  6
CONTINUOUS
 62
     2
 10
1090.856101376
 20
297.096272122
 30
0.0
 42
0.021820078
  0
VERTEX
  8
0
  6
CONTINUOUS
 62
     2
 10
1090.723491637
 20
297.240990258
 30
0.0
 42
0.021820078
  0
VERTEX
  8
0
  6
CONTINUOUS
 62
     2
 10
1090.578773501
 20
297.373599997
 30
0.0
 42
0.021820078
  0
VERTEX
  8
0
  6
CONTINUOUS
 62
     2
 10
1090.423048361
 20
297.4930921
 30
0.0
 42
0.021820078
  0
VERTEX
  8
0
  6
CONTINUOUS
 62
     2
 10
1090.257501379
 20
297.598557159
 30
0.0
 42
0.021820078
  0
VERTEX
  8
0
  6
CONTINUOUS
 62
     2
 10
1090.083392468
 20
297.689192521
 30
0.0
 42
0.021820078
  0
VERTEX
  8
0
  6
CONTINUOUS
 62
     2
 10
1089.902046702
 20
297.764308397
 30
0.0
 42
0.021820078
  0
VERTEX
  8
0
  6
CONTINUOUS
 62
     2
 10
1089.714844231
 20
297.823333109
 30
0.0
 42
0.021820078
  0
VERTEX
  8
0
  6
CONTINUOUS
 62
     2
 10
1089.523209779
 20
297.865817444
 30
0.0
 42
0.021820078
  0
VERTEX
  8
0
  6
CONTINUOUS
 62
     2
 10
1089.328601801
 20
297.891438071
 30
0.0
 42
0.021820078
  0
VERTEX
  8
0
  6
CONTINUOUS
 62
     2
 10
1089.132501379
 20
297.9
 30
0.0
 42
0.021820078
  0
VERTEX
  8
0
  6
CONTINUOUS
 62
     2
 10
1088.936400958
 20
297.891438071
 30
0.0
 42
0.021820078
  0
VERTEX
  8
0
  6
CONTINUOUS
 62
     2
 10
1088.74179298
 20
297.865817444
 30
0.0
 42
0.021820078
  0
VERTEX
  8
0
  6
CONTINUOUS
 62
     2
 10
1088.550158528
 20
297.823333109
 30
0.0
 42
0.021820078
  0
VERTEX
  8
0
  6
CONTINUOUS
 62
     2
 10
1088.362956057
 20
297.764308397
 30
0.0
 42
0.021820078
  0
VERTEX
  8
0
  6
CONTINUOUS
 62
     2
 10
1088.18161029
 20
297.689192521
 30
0.0
 42
0.021820078
  0
VERTEX
  8
0
  6
CONTINUOUS
 62
     2
 10
1088.007501379
 20
297.598557159
 30
0.0
 42
0.021820078
  0
VERTEX
  8
0
  6
CONTINUOUS
 62
     2
 10
1087.841954398
 20
297.4930921
 30
0.0
 42
0.021820078
  0
VERTEX
  8
0
  6
CONTINUOUS
 62
     2
 10
1087.686229258
 20
297.373599997
 30
0.0
 42
0.021820078
  0
VERTEX
  8
0
  6
CONTINUOUS
 62
     2
 10
1087.541511122
 20
297.240990258
 30
0.0
 42
0.021820078
  0
VERTEX
  8
0
  6
CONTINUOUS
 62
     2
 10
1087.408901382
 20
297.096272122
 30
0.0
 42
0.021820078
  0
VERTEX
  8
0
  6
CONTINUOUS
 62
     2
 10
1087.28940928
 20
296.940546982
 30
0.0
 42
0.021820078
  0
VERTEX
  8
0
  6
CONTINUOUS
 62
     2
 10
1087.183944221
 20
296.775
 30
0.0
 42
0.021820078
  0
VERTEX
  8
0
  6
CONTINUOUS
 62
     2
 10
1087.093308859
 20
296.600891089
 30
0.0
 42
0.021820078
  0
VERTEX
  8
0
  6
CONTINUOUS
 62
     2
 10
1087.018192983
 20
296.419545322
 30
0.0
 42
0.021820078
  0
VERTEX
  8
0
  6
CONTINUOUS
 62
     2
 10
1086.95916827
 20
296.232342851
 30
0.0
 42
0.021820078
  0
VERTEX
  8
0
  6
CONTINUOUS
 62
     2
 10
1086.916683935
 20
296.0407084
 30
0.0
 42
0.021820078
  0
VERTEX
  8
0
  6
CONTINUOUS
 62
     2
 10
1086.891063309
 20
295.846100421
 30
0.0
 42
0.021820078
  0
VERTEX
  8
0
  6
CONTINUOUS
 62
     2
 10
1086.882501379
 20
295.65
 30
0.0
 42
0.021820078
  0
VERTEX
  8
0
  6
CONTINUOUS
 62
     2
 10
1086.891063309
 20
295.453899579
 30
0.0
 42
0.021820078
  0
VERTEX
  8
0
  6
CONTINUOUS
 62
     2
 10
1086.916683935
 20
295.2592916
 30
0.0
 42
0.021820078
  0
VERTEX
  8
0
  6
CONTINUOUS
 62
     2
 10
1086.95916827
 20
295.067657149
 30
0.0
 42
0.021820078
  0
VERTEX
  8
0
  6
CONTINUOUS
 62
     2
 10
1087.018192983
 20
294.880454678
 30
0.0
 42
0.021820078
  0
VERTEX
  8
0
  6
CONTINUOUS
 62
     2
 10
1087.093308859
 20
294.699108911
 30
0.0
 42
0.021820078
  0
VERTEX
  8
0
  6
CONTINUOUS
 62
     2
 10
1087.183944221
 20
294.525
 30
0.0
 42
0.021820078
  0
VERTEX
  8
0
  6
CONTINUOUS
 62
     2
 10
1087.28940928
 20
294.359453018
 30
0.0
 42
0.021820078
  0
VERTEX
  8
0
  6
CONTINUOUS
 62
     2
 10
1087.408901382
 20
294.203727878
 30
0.0
 42
0.021820078
  0
VERTEX
  8
0
  6
CONTINUOUS
 62
     2
 10
1087.541511122
 20
294.059009742
 30
0.0
 42
0.021820078
  0
VERTEX
  8
0
  6
CONTINUOUS
 62
     2
 10
1087.686229258
 20
293.926400003
 30
0.0
 42
0.021820078
  0
VERTEX
  8
0
  6
CONTINUOUS
 62
     2
 10
1087.841954398
 20
293.8069079
 30
0.0
 42
0.021820078
  0
VERTEX
  8
0
  6
CONTINUOUS
 62
     2
 10
1088.007501379
 20
293.701442841
 30
0.0
 42
0.021820078
  0
VERTEX
  8
0
  6
CONTINUOUS
 62
     2
 10
1088.18161029
 20
293.610807479
 30
0.0
 42
0.021820078
  0
VERTEX
  8
0
  6
CONTINUOUS
 62
     2
 10
1088.362956057
 20
293.535691603
 30
0.0
 42
0.021820078
  0
VERTEX
  8
0
  6
CONTINUOUS
 62
     2
 10
1088.550158528
 20
293.476666891
 30
0.0
 42
0.021820078
  0
VERTEX
  8
0
  6
CONTINUOUS
 62
     2
 10
1088.74179298
 20
293.434182556
 30
0.0
 42
0.021820078
  0
VERTEX
  8
0
  6
CONTINUOUS
 62
     2
 10
1088.936400958
 20
293.408561929
 30
0.0
 42
0.021820078
  0
VERTEX
  8
0
  6
CONTINUOUS
 62
     2
 10
1089.132501379
 20
293.4
 30
0.0
 42
0.021820078
  0
VERTEX
  8
0
  6
CONTINUOUS
 62
     2
 10
1089.328601801
 20
293.408561929
 30
0.0
 42
0.021820078
  0
VERTEX
  8
0
  6
CONTINUOUS
 62
     2
 10
1089.523209779
 20
293.434182556
 30
0.0
 42
0.021820078
  0
VERTEX
  8
0
  6
CONTINUOUS
 62
     2
 10
1089.714844231
 20
293.476666891
 30
0.0
 42
0.021820078
  0
VERTEX
  8
0
  6
CONTINUOUS
 62
     2
 10
1089.902046702
 20
293.535691603
 30
0.0
 42
0.021820078
  0
VERTEX
  8
0
  6
CONTINUOUS
 62
     2
 10
1090.083392468
 20
293.610807479
 30
0.0
 42
0.021820078
  0
VERTEX
  8
0
  6
CONTINUOUS
 62
     2
 10
1090.257501379
 20
293.701442841
 30
0.0
 42
0.021820078
  0
VERTEX
  8
0
  6
CONTINUOUS
 62
     2
 10
1090.423048361
 20
293.8069079
 30
0.0
 42
0.021820078
  0
VERTEX
  8
0
  6
CONTINUOUS
 62
     2
 10
1090.578773501
 20
293.926400003
 30
0.0
 42
0.021820078
  0
VERTEX
  8
0
  6
CONTINUOUS
 62
     2
 10
1090.723491637
 20
294.059009742
 30
0.0
 42
0.021820078
  0
VERTEX
  8
0
  6
CONTINUOUS
 62
     2
 10
1090.856101376
 20
294.203727878
 30
0.0
 42
0.021820078
  0
VERTEX
  8
0
  6
CONTINUOUS
 62
     2
 10
1090.975593479
 20
294.359453018
 30
0.0
 42
0.021820078
  0
VERTEX
  8
0
  6
CONTINUOUS
 62
     2
 10
1091.081058538
 20
294.525
 30
0.0
 42
0.021820078
  0
VERTEX
  8
0
  6
CONTINUOUS
 62
     2
 10
1091.1716939
 20
294.699108911
 30
0.0
 42
0.021820078
  0
VERTEX
  8
0
  6
CONTINUOUS
 62
     2
 10
1091.246809776
 20
294.880454678
 30
0.0
 42
0.021820078
  0
VERTEX
  8
0
  6
CONTINUOUS
 62
     2
 10
1091.305834489
 20
295.067657149
 30
0.0
 42
0.021820078
  0
VERTEX
  8
0
  6
CONTINUOUS
 62
     2
 10
1091.348318824
 20
295.2592916
 30
0.0
 42
0.021820078
  0
VERTEX
  8
0
  6
CONTINUOUS
 62
     2
 10
1091.37393945
 20
295.453899579
 30
0.0
 42
0.021820078
  0
SEQEND
  8
0
  6
CONTINUOUS
 62
     2
  0
POLYLINE
  8
0
  6
CONTINUOUS
 62
     2
 66
     1
 70
     1
  0
VERTEX
  8
0
  6
CONTINUOUS
 62
     2
 10
1106.382501379
 20
295.65
 30
0.0
 42
0.021820078
  0
VERTEX
  8
0
  6
CONTINUOUS
 62
     2
 10
1106.37393945
 20
295.846100421
 30
0.0
 42
0.021820078
  0
VERTEX
  8
0
  6
CONTINUOUS
 62
     2
 10
1106.348318824
 20
296.0407084
 30
0.0
 42
0.021820078
  0
VERTEX
  8
0
  6
CONTINUOUS
 62
     2
 10
1106.305834489
 20
296.232342851
 30
0.0
 42
0.021820078
  0
VERTEX
  8
0
  6
CONTINUOUS
 62
     2
 10
1106.246809776
 20
296.419545322
 30
0.0
 42
0.021820078
  0
VERTEX
  8
0
  6
CONTINUOUS
 62
     2
 10
1106.1716939
 20
296.600891089
 30
0.0
 42
0.021820078
  0
VERTEX
  8
0
  6
CONTINUOUS
 62
     2
 10
1106.081058538
 20
296.775
 30
0.0
 42
0.021820078
  0
VERTEX
  8
0
  6
CONTINUOUS
 62
     2
 10
1105.975593479
 20
296.940546982
 30
0.0
 42
0.021820078
  0
VERTEX
  8
0
  6
CONTINUOUS
 62
     2
 10
1105.856101376
 20
297.096272122
 30
0.0
 42
0.021820078
  0
VERTEX
  8
0
  6
CONTINUOUS
 62
     2
 10
1105.723491637
 20
297.240990258
 30
0.0
 42
0.021820078
  0
VERTEX
  8
0
  6
CONTINUOUS
 62
     2
 10
1105.578773501
 20
297.373599997
 30
0.0
 42
0.021820078
  0
VERTEX
  8
0
  6
CONTINUOUS
 62
     2
 10
1105.423048361
 20
297.4930921
 30
0.0
 42
0.021820078
  0
VERTEX
  8
0
  6
CONTINUOUS
 62
     2
 10
1105.257501379
 20
297.598557159
 30
0.0
 42
0.021820078
  0
VERTEX
  8
0
  6
CONTINUOUS
 62
     2
 10
1105.083392468
 20
297.689192521
 30
0.0
 42
0.021820078
  0
VERTEX
  8
0
  6
CONTINUOUS
 62
     2
 10
1104.902046702
 20
297.764308397
 30
0.0
 42
0.021820078
  0
VERTEX
  8
0
  6
CONTINUOUS
 62
     2
 10
1104.714844231
 20
297.823333109
 30
0.0
 42
0.021820078
  0
VERTEX
  8
0
  6
CONTINUOUS
 62
     2
 10
1104.523209779
 20
297.865817444
 30
0.0
 42
0.021820078
  0
VERTEX
  8
0
  6
CONTINUOUS
 62
     2
 10
1104.328601801
 20
297.891438071
 30
0.0
 42
0.021820078
  0
VERTEX
  8
0
  6
CONTINUOUS
 62
     2
 10
1104.132501379
 20
297.9
 30
0.0
 42
0.021820078
  0
VERTEX
  8
0
  6
CONTINUOUS
 62
     2
 10
1103.936400958
 20
297.891438071
 30
0.0
 42
0.021820078
  0
VERTEX
  8
0
  6
CONTINUOUS
 62
     2
 10
1103.74179298
 20
297.865817444
 30
0.0
 42
0.021820078
  0
VERTEX
  8
0
  6
CONTINUOUS
 62
     2
 10
1103.550158528
 20
297.823333109
 30
0.0
 42
0.021820078
  0
VERTEX
  8
0
  6
CONTINUOUS
 62
     2
 10
1103.362956057
 20
297.764308397
 30
0.0
 42
0.021820078
  0
VERTEX
  8
0
  6
CONTINUOUS
 62
     2
 10
1103.18161029
 20
297.689192521
 30
0.0
 42
0.021820078
  0
VERTEX
  8
0
  6
CONTINUOUS
 62
     2
 10
1103.007501379
 20
297.598557159
 30
0.0
 42
0.021820078
  0
VERTEX
  8
0
  6
CONTINUOUS
 62
     2
 10
1102.841954398
 20
297.4930921
 30
0.0
 42
0.021820078
  0
VERTEX
  8
0
  6
CONTINUOUS
 62
     2
 10
1102.686229258
 20
297.373599997
 30
0.0
 42
0.021820078
  0
VERTEX
  8
0
  6
CONTINUOUS
 62
     2
 10
1102.541511122
 20
297.240990258
 30
0.0
 42
0.021820078
  0
VERTEX
  8
0
  6
CONTINUOUS
 62
     2
 10
1102.408901382
 20
297.096272122
 30
0.0
 42
0.021820078
  0
VERTEX
  8
0
  6
CONTINUOUS
 62
     2
 10
1102.28940928
 20
296.940546982
 30
0.0
 42
0.021820078
  0
VERTEX
  8
0
  6
CONTINUOUS
 62
     2
 10
1102.183944221
 20
296.775
 30
0.0
 42
0.021820078
  0
VERTEX
  8
0
  6
CONTINUOUS
 62
     2
 10
1102.093308859
 20
296.600891089
 30
0.0
 42
0.021820078
  0
VERTEX
  8
0
  6
CONTINUOUS
 62
     2
 10
1102.018192983
 20
296.419545322
 30
0.0
 42
0.021820078
  0
VERTEX
  8
0
  6
CONTINUOUS
 62
     2
 10
1101.95916827
 20
296.232342851
 30
0.0
 42
0.021820078
  0
VERTEX
  8
0
  6
CONTINUOUS
 62
     2
 10
1101.916683935
 20
296.0407084
 30
0.0
 42
0.021820078
  0
VERTEX
  8
0
  6
CONTINUOUS
 62
     2
 10
1101.891063309
 20
295.846100421
 30
0.0
 42
0.021820078
  0
VERTEX
  8
0
  6
CONTINUOUS
 62
     2
 10
1101.882501379
 20
295.65
 30
0.0
 42
0.021820078
  0
VERTEX
  8
0
  6
CONTINUOUS
 62
     2
 10
1101.891063309
 20
295.453899579
 30
0.0
 42
0.021820078
  0
VERTEX
  8
0
  6
CONTINUOUS
 62
     2
 10
1101.916683935
 20
295.2592916
 30
0.0
 42
0.021820078
  0
VERTEX
  8
0
  6
CONTINUOUS
 62
     2
 10
1101.95916827
 20
295.067657149
 30
0.0
 42
0.021820078
  0
VERTEX
  8
0
  6
CONTINUOUS
 62
     2
 10
1102.018192983
 20
294.880454678
 30
0.0
 42
0.021820078
  0
VERTEX
  8
0
  6
CONTINUOUS
 62
     2
 10
1102.093308859
 20
294.699108911
 30
0.0
 42
0.021820078
  0
VERTEX
  8
0
  6
CONTINUOUS
 62
     2
 10
1102.183944221
 20
294.525
 30
0.0
 42
0.021820078
  0
VERTEX
  8
0
  6
CONTINUOUS
 62
     2
 10
1102.28940928
 20
294.359453018
 30
0.0
 42
0.021820078
  0
VERTEX
  8
0
  6
CONTINUOUS
 62
     2
 10
1102.408901382
 20
294.203727878
 30
0.0
 42
0.021820078
  0
VERTEX
  8
0
  6
CONTINUOUS
 62
     2
 10
1102.541511122
 20
294.059009742
 30
0.0
 42
0.021820078
  0
VERTEX
  8
0
  6
CONTINUOUS
 62
     2
 10
1102.686229258
 20
293.926400003
 30
0.0
 42
0.021820078
  0
VERTEX
  8
0
  6
CONTINUOUS
 62
     2
 10
1102.841954398
 20
293.8069079
 30
0.0
 42
0.021820078
  0
VERTEX
  8
0
  6
CONTINUOUS
 62
     2
 10
1103.007501379
 20
293.701442841
 30
0.0
 42
0.021820078
  0
VERTEX
  8
0
  6
CONTINUOUS
 62
     2
 10
1103.18161029
 20
293.610807479
 30
0.0
 42
0.021820078
  0
VERTEX
  8
0
  6
CONTINUOUS
 62
     2
 10
1103.362956057
 20
293.535691603
 30
0.0
 42
0.021820078
  0
VERTEX
  8
0
  6
CONTINUOUS
 62
     2
 10
1103.550158528
 20
293.476666891
 30
0.0
 42
0.021820078
  0
VERTEX
  8
0
  6
CONTINUOUS
 62
     2
 10
1103.74179298
 20
293.434182556
 30
0.0
 42
0.021820078
  0
VERTEX
  8
0
  6
CONTINUOUS
 62
     2
 10
1103.936400958
 20
293.408561929
 30
0.0
 42
0.021820078
  0
VERTEX
  8
0
  6
CONTINUOUS
 62
     2
 10
1104.132501379
 20
293.4
 30
0.0
 42
0.021820078
  0
VERTEX
  8
0
  6
CONTINUOUS
 62
     2
 10
1104.328601801
 20
293.408561929
 30
0.0
 42
0.021820078
  0
VERTEX
  8
0
  6
CONTINUOUS
 62
     2
 10
1104.523209779
 20
293.434182556
 30
0.0
 42
0.021820078
  0
VERTEX
  8
0
  6
CONTINUOUS
 62
     2
 10
1104.714844231
 20
293.476666891
 30
0.0
 42
0.021820078
  0
VERTEX
  8
0
  6
CONTINUOUS
 62
     2
 10
1104.902046702
 20
293.535691603
 30
0.0
 42
0.021820078
  0
VERTEX
  8
0
  6
CONTINUOUS
 62
     2
 10
1105.083392468
 20
293.610807479
 30
0.0
 42
0.021820078
  0
VERTEX
  8
0
  6
CONTINUOUS
 62
     2
 10
1105.257501379
 20
293.701442841
 30
0.0
 42
0.021820078
  0
VERTEX
  8
0
  6
CONTINUOUS
 62
     2
 10
1105.423048361
 20
293.8069079
 30
0.0
 42
0.021820078
  0
VERTEX
  8
0
  6
CONTINUOUS
 62
     2
 10
1105.578773501
 20
293.926400003
 30
0.0
 42
0.021820078
  0
VERTEX
  8
0
  6
CONTINUOUS
 62
     2
 10
1105.723491637
 20
294.059009742
 30
0.0
 42
0.021820078
  0
VERTEX
  8
0
  6
CONTINUOUS
 62
     2
 10
1105.856101376
 20
294.203727878
 30
0.0
 42
0.021820078
  0
VERTEX
  8
0
  6
CONTINUOUS
 62
     2
 10
1105.975593479
 20
294.359453018
 30
0.0
 42
0.021820078
  0
VERTEX
  8
0
  6
CONTINUOUS
 62
     2
 10
1106.081058538
 20
294.525
 30
0.0
 42
0.021820078
  0
VERTEX
  8
0
  6
CONTINUOUS
 62
     2
 10
1106.1716939
 20
294.699108911
 30
0.0
 42
0.021820078
  0
VERTEX
  8
0
  6
CONTINUOUS
 62
     2
 10
1106.246809776
 20
294.880454678
 30
0.0
 42
0.021820078
  0
VERTEX
  8
0
  6
CONTINUOUS
 62
     2
 10
1106.305834489
 20
295.067657149
 30
0.0
 42
0.021820078
  0
VERTEX
  8
0
  6
CONTINUOUS
 62
     2
 10
1106.348318824
 20
295.2592916
 30
0.0
 42
0.021820078
  0
VERTEX
  8
0
  6
CONTINUOUS
 62
     2
 10
1106.37393945
 20
295.453899579
 30
0.0
 42
0.021820078
  0
SEQEND
  8
0
  6
CONTINUOUS
 62
     2
  0
POLYLINE
  8
0
  6
CONTINUOUS
 62
     2
 66
     1
 70
     1
  0
VERTEX
  8
0
  6
CONTINUOUS
 62
     2
 10
1091.382501379
 20
251.3
 30
0.0
 42
-0.021820078
  0
VERTEX
  8
0
  6
CONTINUOUS
 62
     2
 10
1091.37393945
 20
251.103899579
 30
0.0
 42
-0.021820078
  0
VERTEX
  8
0
  6
CONTINUOUS
 62
     2
 10
1091.348318824
 20
250.9092916
 30
0.0
 42
-0.021820078
  0
VERTEX
  8
0
  6
CONTINUOUS
 62
     2
 10
1091.305834489
 20
250.717657149
 30
0.0
 42
-0.021820078
  0
VERTEX
  8
0
  6
CONTINUOUS
 62
     2
 10
1091.246809776
 20
250.530454678
 30
0.0
 42
-0.021820078
  0
VERTEX
  8
0
  6
CONTINUOUS
 62
     2
 10
1091.1716939
 20
250.349108911
 30
0.0
 42
-0.021820078
  0
VERTEX
  8
0
  6
CONTINUOUS
 62
     2
 10
1091.081058538
 20
250.175
 30
0.0
 42
-0.021820078
  0
VERTEX
  8
0
  6
CONTINUOUS
 62
     2
 10
1090.975593479
 20
250.009453018
 30
0.0
 42
-0.021820078
  0
VERTEX
  8
0
  6
CONTINUOUS
 62
     2
 10
1090.856101376
 20
249.853727878
 30
0.0
 42
-0.021820078
  0
VERTEX
  8
0
  6
CONTINUOUS
 62
     2
 10
1090.723491637
 20
249.709009742
 30
0.0
 42
-0.021820078
  0
VERTEX
  8
0
  6
CONTINUOUS
 62
     2
 10
1090.578773501
 20
249.576400003
 30
0.0
 42
-0.021820078
  0
VERTEX
  8
0
  6
CONTINUOUS
 62
     2
 10
1090.423048361
 20
249.4569079
 30
0.0
 42
-0.021820078
  0
VERTEX
  8
0
  6
CONTINUOUS
 62
     2
 10
1090.257501379
 20
249.351442841
 30
0.0
 42
-0.021820078
  0
VERTEX
  8
0
  6
CONTINUOUS
 62
     2
 10
1090.083392468
 20
249.260807479
 30
0.0
 42
-0.021820078
  0
VERTEX
  8
0
  6
CONTINUOUS
 62
     2
 10
1089.902046702
 20
249.185691603
 30
0.0
 42
-0.021820078
  0
VERTEX
  8
0
  6
CONTINUOUS
 62
     2
 10
1089.714844231
 20
249.126666891
 30
0.0
 42
-0.021820078
  0
VERTEX
  8
0
  6
CONTINUOUS
 62
     2
 10
1089.523209779
 20
249.084182556
 30
0.0
 42
-0.021820078
  0
VERTEX
  8
0
  6
CONTINUOUS
 62
     2
 10
1089.328601801
 20
249.058561929
 30
0.0
 42
-0.021820078
  0
VERTEX
  8
0
  6
CONTINUOUS
 62
     2
 10
1089.132501379
 20
249.05
 30
0.0
 42
-0.021820078
  0
VERTEX
  8
0
  6
CONTINUOUS
 62
     2
 10
1088.936400958
 20
249.058561929
 30
0.0
 42
-0.021820078
  0
VERTEX
  8
0
  6
CONTINUOUS
 62
     2
 10
1088.74179298
 20
249.084182556
 30
0.0
 42
-0.021820078
  0
VERTEX
  8
0
  6
CONTINUOUS
 62
     2
 10
1088.550158528
 20
249.126666891
 30
0.0
 42
-0.021820078
  0
VERTEX
  8
0
  6
CONTINUOUS
 62
     2
 10
1088.362956057
 20
249.185691603
 30
0.0
 42
-0.021820078
  0
VERTEX
  8
0
  6
CONTINUOUS
 62
     2
 10
1088.18161029
 20
249.260807479
 30
0.0
 42
-0.021820078
  0
VERTEX
  8
0
  6
CONTINUOUS
 62
     2
 10
1088.007501379
 20
249.351442841
 30
0.0
 42
-0.021820078
  0
VERTEX
  8
0
  6
CONTINUOUS
 62
     2
 10
1087.841954398
 20
249.4569079
 30
0.0
 42
-0.021820078
  0
VERTEX
  8
0
  6
CONTINUOUS
 62
     2
 10
1087.686229258
 20
249.576400003
 30
0.0
 42
-0.021820078
  0
VERTEX
  8
0
  6
CONTINUOUS
 62
     2
 10
1087.541511122
 20
249.709009742
 30
0.0
 42
-0.021820078
  0
VERTEX
  8
0
  6
CONTINUOUS
 62
     2
 10
1087.408901382
 20
249.853727878
 30
0.0
 42
-0.021820078
  0
VERTEX
  8
0
  6
CONTINUOUS
 62
     2
 10
1087.28940928
 20
250.009453018
 30
0.0
 42
-0.021820078
  0
VERTEX
  8
0
  6
CONTINUOUS
 62
     2
 10
1087.183944221
 20
250.175
 30
0.0
 42
-0.021820078
  0
VERTEX
  8
0
  6
CONTINUOUS
 62
     2
 10
1087.093308859
 20
250.349108911
 30
0.0
 42
-0.021820078
  0
VERTEX
  8
0
  6
CONTINUOUS
 62
     2
 10
1087.018192983
 20
250.530454678
 30
0.0
 42
-0.021820078
  0
VERTEX
  8
0
  6
CONTINUOUS
 62
     2
 10
1086.95916827
 20
250.717657149
 30
0.0
 42
-0.021820078
  0
VERTEX
  8
0
  6
CONTINUOUS
 62
     2
 10
1086.916683935
 20
250.9092916
 30
0.0
 42
-0.021820078
  0
VERTEX
  8
0
  6
CONTINUOUS
 62
     2
 10
1086.891063309
 20
251.103899579
 30
0.0
 42
-0.021820078
  0
VERTEX
  8
0
  6
CONTINUOUS
 62
     2
 10
1086.882501379
 20
251.3
 30
0.0
 42
-0.021820078
  0
VERTEX
  8
0
  6
CONTINUOUS
 62
     2
 10
1086.891063309
 20
251.496100421
 30
0.0
 42
-0.021820078
  0
VERTEX
  8
0
  6
CONTINUOUS
 62
     2
 10
1086.916683935
 20
251.6907084
 30
0.0
 42
-0.021820078
  0
VERTEX
  8
0
  6
CONTINUOUS
 62
     2
 10
1086.95916827
 20
251.882342851
 30
0.0
 42
-0.021820078
  0
VERTEX
  8
0
  6
CONTINUOUS
 62
     2
 10
1087.018192983
 20
252.069545322
 30
0.0
 42
-0.021820078
  0
VERTEX
  8
0
  6
CONTINUOUS
 62
     2
 10
1087.093308859
 20
252.250891089
 30
0.0
 42
-0.021820078
  0
VERTEX
  8
0
  6
CONTINUOUS
 62
     2
 10
1087.183944221
 20
252.425
 30
0.0
 42
-0.021820078
  0
VERTEX
  8
0
  6
CONTINUOUS
 62
     2
 10
1087.28940928
 20
252.590546982
 30
0.0
 42
-0.021820078
  0
VERTEX
  8
0
  6
CONTINUOUS
 62
     2
 10
1087.408901382
 20
252.746272122
 30
0.0
 42
-0.021820078
  0
VERTEX
  8
0
  6
CONTINUOUS
 62
     2
 10
1087.541511122
 20
252.890990258
 30
0.0
 42
-0.021820078
  0
VERTEX
  8
0
  6
CONTINUOUS
 62
     2
 10
1087.686229258
 20
253.023599997
 30
0.0
 42
-0.021820078
  0
VERTEX
  8
0
  6
CONTINUOUS
 62
     2
 10
1087.841954398
 20
253.1430921
 30
0.0
 42
-0.021820078
  0
VERTEX
  8
0
  6
CONTINUOUS
 62
     2
 10
1088.007501379
 20
253.248557159
 30
0.0
 42
-0.021820078
  0
VERTEX
  8
0
  6
CONTINUOUS
 62
     2
 10
1088.18161029
 20
253.339192521
 30
0.0
 42
-0.021820078
  0
VERTEX
  8
0
  6
CONTINUOUS
 62
     2
 10
1088.362956057
 20
253.414308397
 30
0.0
 42
-0.021820078
  0
VERTEX
  8
0
  6
CONTINUOUS
 62
     2
 10
1088.550158528
 20
253.473333109
 30
0.0
 42
-0.021820078
  0
VERTEX
  8
0
  6
CONTINUOUS
 62
     2
 10
1088.74179298
 20
253.515817444
 30
0.0
 42
-0.021820078
  0
VERTEX
  8
0
  6
CONTINUOUS
 62
     2
 10
1088.936400958
 20
253.541438071
 30
0.0
 42
-0.021820078
  0
VERTEX
  8
0
  6
CONTINUOUS
 62
     2
 10
1089.132501379
 20
253.55
 30
0.0
 42
-0.021820078
  0
VERTEX
  8
0
  6
CONTINUOUS
 62
     2
 10
1089.328601801
 20
253.541438071
 30
0.0
 42
-0.021820078
  0
VERTEX
  8
0
  6
CONTINUOUS
 62
     2
 10
1089.523209779
 20
253.515817444
 30
0.0
 42
-0.021820078
  0
VERTEX
  8
0
  6
CONTINUOUS
 62
     2
 10
1089.714844231
 20
253.473333109
 30
0.0
 42
-0.021820078
  0
VERTEX
  8
0
  6
CONTINUOUS
 62
     2
 10
1089.902046702
 20
253.414308397
 30
0.0
 42
-0.021820078
  0
VERTEX
  8
0
  6
CONTINUOUS
 62
     2
 10
1090.083392468
 20
253.339192521
 30
0.0
 42
-0.021820078
  0
VERTEX
  8
0
  6
CONTINUOUS
 62
     2
 10
1090.257501379
 20
253.248557159
 30
0.0
 42
-0.021820078
  0
VERTEX
  8
0
  6
CONTINUOUS
 62
     2
 10
1090.423048361
 20
253.1430921
 30
0.0
 42
-0.021820078
  0
VERTEX
  8
0
  6
CONTINUOUS
 62
     2
 10
1090.578773501
 20
253.023599997
 30
0.0
 42
-0.021820078
  0
VERTEX
  8
0
  6
CONTINUOUS
 62
     2
 10
1090.723491637
 20
252.890990258
 30
0.0
 42
-0.021820078
  0
VERTEX
  8
0
  6
CONTINUOUS
 62
     2
 10
1090.856101376
 20
252.746272122
 30
0.0
 42
-0.021820078
  0
VERTEX
  8
0
  6
CONTINUOUS
 62
     2
 10
1090.975593479
 20
252.590546982
 30
0.0
 42
-0.021820078
  0
VERTEX
  8
0
  6
CONTINUOUS
 62
     2
 10
1091.081058538
 20
252.425
 30
0.0
 42
-0.021820078
  0
VERTEX
  8
0
  6
CONTINUOUS
 62
     2
 10
1091.1716939
 20
252.250891089
 30
0.0
 42
-0.021820078
  0
VERTEX
  8
0
  6
CONTINUOUS
 62
     2
 10
1091.246809776
 20
252.069545322
 30
0.0
 42
-0.021820078
  0
VERTEX
  8
0
  6
CONTINUOUS
 62
     2
 10
1091.305834489
 20
251.882342851
 30
0.0
 42
-0.021820078
  0
VERTEX
  8
0
  6
CONTINUOUS
 62
     2
 10
1091.348318824
 20
251.6907084
 30
0.0
 42
-0.021820078
  0
VERTEX
  8
0
  6
CONTINUOUS
 62
     2
 10
1091.37393945
 20
251.496100421
 30
0.0
 42
-0.021820078
  0
SEQEND
  8
0
  6
CONTINUOUS
 62
     2
  0
POLYLINE
  8
0
  6
CONTINUOUS
 62
     2
 66
     1
 70
     1
  0
VERTEX
  8
0
  6
CONTINUOUS
 62
     2
 10
1106.382501379
 20
251.3
 30
0.0
 42
-0.021820078
  0
VERTEX
  8
0
  6
CONTINUOUS
 62
     2
 10
1106.37393945
 20
251.103899579
 30
0.0
 42
-0.021820078
  0
VERTEX
  8
0
  6
CONTINUOUS
 62
     2
 10
1106.348318824
 20
250.9092916
 30
0.0
 42
-0.021820078
  0
VERTEX
  8
0
  6
CONTINUOUS
 62
     2
 10
1106.305834489
 20
250.717657149
 30
0.0
 42
-0.021820078
  0
VERTEX
  8
0
  6
CONTINUOUS
 62
     2
 10
1106.246809776
 20
250.530454678
 30
0.0
 42
-0.021820078
  0
VERTEX
  8
0
  6
CONTINUOUS
 62
     2
 10
1106.1716939
 20
250.349108911
 30
0.0
 42
-0.021820078
  0
VERTEX
  8
0
  6
CONTINUOUS
 62
     2
 10
1106.081058538
 20
250.175
 30
0.0
 42
-0.021820078
  0
VERTEX
  8
0
  6
CONTINUOUS
 62
     2
 10
1105.975593479
 20
250.009453018
 30
0.0
 42
-0.021820078
  0
VERTEX
  8
0
  6
CONTINUOUS
 62
     2
 10
1105.856101376
 20
249.853727878
 30
0.0
 42
-0.021820078
  0
VERTEX
  8
0
  6
CONTINUOUS
 62
     2
 10
1105.723491637
 20
249.709009742
 30
0.0
 42
-0.021820078
  0
VERTEX
  8
0
  6
CONTINUOUS
 62
     2
 10
1105.578773501
 20
249.576400003
 30
0.0
 42
-0.021820078
  0
VERTEX
  8
0
  6
CONTINUOUS
 62
     2
 10
1105.423048361
 20
249.4569079
 30
0.0
 42
-0.021820078
  0
VERTEX
  8
0
  6
CONTINUOUS
 62
     2
 10
1105.257501379
 20
249.351442841
 30
0.0
 42
-0.021820078
  0
VERTEX
  8
0
  6
CONTINUOUS
 62
     2
 10
1105.083392468
 20
249.260807479
 30
0.0
 42
-0.021820078
  0
VERTEX
  8
0
  6
CONTINUOUS
 62
     2
 10
1104.902046702
 20
249.185691603
 30
0.0
 42
-0.021820078
  0
VERTEX
  8
0
  6
CONTINUOUS
 62
     2
 10
1104.714844231
 20
249.126666891
 30
0.0
 42
-0.021820078
  0
VERTEX
  8
0
  6
CONTINUOUS
 62
     2
 10
1104.523209779
 20
249.084182556
 30
0.0
 42
-0.021820078
  0
VERTEX
  8
0
  6
CONTINUOUS
 62
     2
 10
1104.328601801
 20
249.058561929
 30
0.0
 42
-0.021820078
  0
VERTEX
  8
0
  6
CONTINUOUS
 62
     2
 10
1104.132501379
 20
249.05
 30
0.0
 42
-0.021820078
  0
VERTEX
  8
0
  6
CONTINUOUS
 62
     2
 10
1103.936400958
 20
249.058561929
 30
0.0
 42
-0.021820078
  0
VERTEX
  8
0
  6
CONTINUOUS
 62
     2
 10
1103.74179298
 20
249.084182556
 30
0.0
 42
-0.021820078
  0
VERTEX
  8
0
  6
CONTINUOUS
 62
     2
 10
1103.550158528
 20
249.126666891
 30
0.0
 42
-0.021820078
  0
VERTEX
  8
0
  6
CONTINUOUS
 62
     2
 10
1103.362956057
 20
249.185691603
 30
0.0
 42
-0.021820078
  0
VERTEX
  8
0
  6
CONTINUOUS
 62
     2
 10
1103.18161029
 20
249.260807479
 30
0.0
 42
-0.021820078
  0
VERTEX
  8
0
  6
CONTINUOUS
 62
     2
 10
1103.007501379
 20
249.351442841
 30
0.0
 42
-0.021820078
  0
VERTEX
  8
0
  6
CONTINUOUS
 62
     2
 10
1102.841954398
 20
249.4569079
 30
0.0
 42
-0.021820078
  0
VERTEX
  8
0
  6
CONTINUOUS
 62
     2
 10
1102.686229258
 20
249.576400003
 30
0.0
 42
-0.021820078
  0
VERTEX
  8
0
  6
CONTINUOUS
 62
     2
 10
1102.541511122
 20
249.709009742
 30
0.0
 42
-0.021820078
  0
VERTEX
  8
0
  6
CONTINUOUS
 62
     2
 10
1102.408901382
 20
249.853727878
 30
0.0
 42
-0.021820078
  0
VERTEX
  8
0
  6
CONTINUOUS
 62
     2
 10
1102.28940928
 20
250.009453018
 30
0.0
 42
-0.021820078
  0
VERTEX
  8
0
  6
CONTINUOUS
 62
     2
 10
1102.183944221
 20
250.175
 30
0.0
 42
-0.021820078
  0
VERTEX
  8
0
  6
CONTINUOUS
 62
     2
 10
1102.093308859
 20
250.349108911
 30
0.0
 42
-0.021820078
  0
VERTEX
  8
0
  6
CONTINUOUS
 62
     2
 10
1102.018192983
 20
250.530454678
 30
0.0
 42
-0.021820078
  0
VERTEX
  8
0
  6
CONTINUOUS
 62
     2
 10
1101.95916827
 20
250.717657149
 30
0.0
 42
-0.021820078
  0
VERTEX
  8
0
  6
CONTINUOUS
 62
     2
 10
1101.916683935
 20
250.9092916
 30
0.0
 42
-0.021820078
  0
VERTEX
  8
0
  6
CONTINUOUS
 62
     2
 10
1101.891063309
 20
251.103899579
 30
0.0
 42
-0.021820078
  0
VERTEX
  8
0
  6
CONTINUOUS
 62
     2
 10
1101.882501379
 20
251.3
 30
0.0
 42
-0.021820078
  0
VERTEX
  8
0
  6
CONTINUOUS
 62
     2
 10
1101.891063309
 20
251.496100421
 30
0.0
 42
-0.021820078
  0
VERTEX
  8
0
  6
CONTINUOUS
 62
     2
 10
1101.916683935
 20
251.6907084
 30
0.0
 42
-0.021820078
  0
VERTEX
  8
0
  6
CONTINUOUS
 62
     2
 10
1101.95916827
 20
251.882342851
 30
0.0
 42
-0.021820078
  0
VERTEX
  8
0
  6
CONTINUOUS
 62
     2
 10
1102.018192983
 20
252.069545322
 30
0.0
 42
-0.021820078
  0
VERTEX
  8
0
  6
CONTINUOUS
 62
     2
 10
1102.093308859
 20
252.250891089
 30
0.0
 42
-0.021820078
  0
VERTEX
  8
0
  6
CONTINUOUS
 62
     2
 10
1102.183944221
 20
252.425
 30
0.0
 42
-0.021820078
  0
VERTEX
  8
0
  6
CONTINUOUS
 62
     2
 10
1102.28940928
 20
252.590546982
 30
0.0
 42
-0.021820078
  0
VERTEX
  8
0
  6
CONTINUOUS
 62
     2
 10
1102.408901382
 20
252.746272122
 30
0.0
 42
-0.021820078
  0
VERTEX
  8
0
  6
CONTINUOUS
 62
     2
 10
1102.541511122
 20
252.890990258
 30
0.0
 42
-0.021820078
  0
VERTEX
  8
0
  6
CONTINUOUS
 62
     2
 10
1102.686229258
 20
253.023599997
 30
0.0
 42
-0.021820078
  0
VERTEX
  8
0
  6
CONTINUOUS
 62
     2
 10
1102.841954398
 20
253.1430921
 30
0.0
 42
-0.021820078
  0
VERTEX
  8
0
  6
CONTINUOUS
 62
     2
 10
1103.007501379
 20
253.248557159
 30
0.0
 42
-0.021820078
  0
VERTEX
  8
0
  6
CONTINUOUS
 62
     2
 10
1103.18161029
 20
253.339192521
 30
0.0
 42
-0.021820078
  0
VERTEX
  8
0
  6
CONTINUOUS
 62
     2
 10
1103.362956057
 20
253.414308397
 30
0.0
 42
-0.021820078
  0
VERTEX
  8
0
  6
CONTINUOUS
 62
     2
 10
1103.550158528
 20
253.473333109
 30
0.0
 42
-0.021820078
  0
VERTEX
  8
0
  6
CONTINUOUS
 62
     2
 10
1103.74179298
 20
253.515817444
 30
0.0
 42
-0.021820078
  0
VERTEX
  8
0
  6
CONTINUOUS
 62
     2
 10
1103.936400958
 20
253.541438071
 30
0.0
 42
-0.021820078
  0
VERTEX
  8
0
  6
CONTINUOUS
 62
     2
 10
1104.132501379
 20
253.55
 30
0.0
 42
-0.021820078
  0
VERTEX
  8
0
  6
CONTINUOUS
 62
     2
 10
1104.328601801
 20
253.541438071
 30
0.0
 42
-0.021820078
  0
VERTEX
  8
0
  6
CONTINUOUS
 62
     2
 10
1104.523209779
 20
253.515817444
 30
0.0
 42
-0.021820078
  0
VERTEX
  8
0
  6
CONTINUOUS
 62
     2
 10
1104.714844231
 20
253.473333109
 30
0.0
 42
-0.021820078
  0
VERTEX
  8
0
  6
CONTINUOUS
 62
     2
 10
1104.902046702
 20
253.414308397
 30
0.0
 42
-0.021820078
  0
VERTEX
  8
0
  6
CONTINUOUS
 62
     2
 10
1105.083392468
 20
253.339192521
 30
0.0
 42
-0.021820078
  0
VERTEX
  8
0
  6
CONTINUOUS
 62
     2
 10
1105.257501379
 20
253.248557159
 30
0.0
 42
-0.021820078
  0
VERTEX
  8
0
  6
CONTINUOUS
 62
     2
 10
1105.423048361
 20
253.1430921
 30
0.0
 42
-0.021820078
  0
VERTEX
  8
0
  6
CONTINUOUS
 62
     2
 10
1105.578773501
 20
253.023599997
 30
0.0
 42
-0.021820078
  0
VERTEX
  8
0
  6
CONTINUOUS
 62
     2
 10
1105.723491637
 20
252.890990258
 30
0.0
 42
-0.021820078
  0
VERTEX
  8
0
  6
CONTINUOUS
 62
     2
 10
1105.856101376
 20
252.746272122
 30
0.0
 42
-0.021820078
  0
VERTEX
  8
0
  6
CONTINUOUS
 62
     2
 10
1105.975593479
 20
252.590546982
 30
0.0
 42
-0.021820078
  0
VERTEX
  8
0
  6
CONTINUOUS
 62
     2
 10
1106.081058538
 20
252.425
 30
0.0
 42
-0.021820078
  0
VERTEX
  8
0
  6
CONTINUOUS
 62
     2
 10
1106.1716939
 20
252.250891089
 30
0.0
 42
-0.021820078
  0
VERTEX
  8
0
  6
CONTINUOUS
 62
     2
 10
1106.246809776
 20
252.069545322
 30
0.0
 42
-0.021820078
  0
VERTEX
  8
0
  6
CONTINUOUS
 62
     2
 10
1106.305834489
 20
251.882342851
 30
0.0
 42
-0.021820078
  0
VERTEX
  8
0
  6
CONTINUOUS
 62
     2
 10
1106.348318824
 20
251.6907084
 30
0.0
 42
-0.021820078
  0
VERTEX
  8
0
  6
CONTINUOUS
 62
     2
 10
1106.37393945
 20
251.496100421
 30
0.0
 42
-0.021820078
  0
SEQEND
  8
0
  6
CONTINUOUS
 62
     2
  0
TEXT
  8
0
  6
CONTINUOUS
 62
     2
 10
1080.382501379
 20
240.9
 30
0.0
 40
10.0
  1
１
 50
0.0
 41
0.85
 51
0.0
  7
KANJI24
  0
TEXT
  8
0
  6
CONTINUOUS
 62
     2
 10
1105.382501379
 20
240.9
 30
0.0
 40
10.0
  1
２
 50
0.0
 41
0.85
 51
0.0
  7
KANJI24
  0
TEXT
  8
0
  6
CONTINUOUS
 62
     2
 10
1048.482501379
 20
295.6
 30
0.0
 40
10.0
  1
（ＮＯ）
 50
0.0
 41
0.75
 51
0.0
  7
KANJI25
  0
TEXT
  8
0
  6
CONTINUOUS
 62
     2
 10
1114.482501379
 20
295.6
 30
0.0
 40
10.0
  1
（ＮＯ）
 50
0.0
 41
0.75
 51
0.0
  7
KANJI25
  0
TEXT
  8
0
  6
CONTINUOUS
 62
     2
 10
1048.482501379
 20
238.1
 30
0.0
 40
10.0
  1
（ＮＣ）
 50
0.0
 41
0.75
 51
0.0
  7
KANJI25
  0
TEXT
  8
0
  6
CONTINUOUS
 62
     2
 10
1114.482501379
 20
238.1
 30
0.0
 40
10.0
  1
（ＮＣ）
 50
0.0
 41
0.75
 51
0.0
  7
KANJI25
  0
TEXT
  8
0
  6
CONTINUOUS
 62
     2
 10
1032.357501379
 20
209.1
 30
0.0
 40
15.0
  1
外部ＬＳリミットＳＷ
 50
0.0
 41
0.9
 51
0.0
  7
KANJI26
  0
TEXT
  8
0
  6
CONTINUOUS
 62
     2
 10
1069.607501379
 20
190.1
 30
0.0
 40
15.0
  1
端子符号
 50
0.0
 41
0.9
 51
0.0
  7
KANJI26
  0
LINE
  8
0
  6
CONTINUOUS
 62
     2
 10
1174.107501379
 20
196.6
 30
0.0
 11
1174.107501379
 21
366.35
 31
0.0
  0
LINE
  8
0
  6
CONTINUOUS
 62
     2
 10
1174.107501379
 20
366.35
 30
0.0
 11
1020.857501379
 21
366.35
 31
0.0
  0
LINE
  8
0
  6
CONTINUOUS
 62
     2
 10
1020.857501379
 20
366.35
 30
0.0
 11
1020.857501379
 21
196.6
 31
0.0
  0
LINE
  8
0
  6
CONTINUOUS
 62
     2
 10
1129.107501379
 20
196.6
 30
0.0
 11
1174.107501379
 21
196.6
 31
0.0
  0
LINE
  8
0
  6
CONTINUOUS
 62
     2
 10
1020.857501379
 20
196.6
 30
0.0
 11
1059.857501379
 21
196.6
 31
0.0
  0
LINE
  8
0
  6
LTYPE2
 62
     2
 10
841.182501379
 20
523.5
 30
0.0
 11
841.182501379
 21
588.8
 31
0.0
  0
LINE
  8
0
  6
CONTINUOUS
 62
     2
 10
788.1
 20
862.8
 30
0.0
 11
828.6
 21
862.8
 31
0.0
  0
CIRCLE
  8
0
  6
CONTINUOUS
 62
     1
 10
1067.0
 20
727.0
 30
0.0
 40
12.5
  0
CIRCLE
  8
0
  6
CONTINUOUS
 62
     1
 10
1067.0
 20
727.0
 30
0.0
 40
22.0
  0
CIRCLE
  8
0
  6
CONTINUOUS
 62
     1
 10
1067.0
 20
742.5
 30
0.0
 40
3.0
  0
LINE
  8
0
  6
CONTINUOUS
 62
     1
 10
1062.8
 20
710.2
 30
0.0
 11
1064.8
 21
709.9
 31
0.0
  0
LINE
  8
0
  6
CONTINUOUS
 62
     1
 10
1065.3
 20
714.6
 30
0.0
 11
1065.064615385
 21
713.030769231
 31
0.0
  0
LINE
  8
0
  6
CONTINUOUS
 62
     1
 10
1065.064615385
 20
713.030769231
 30
0.0
 11
1062.8
 21
710.2
 31
0.0
  0
LINE
  8
0
  6
CONTINUOUS
 62
     1
 10
1067.0
 20
712.6
 30
0.0
 11
1064.8
 21
709.9
 31
0.0
  0
LINE
  8
0
  6
CONTINUOUS
 62
     1
 10
1067.0
 20
712.6
 30
0.0
 11
1069.2
 21
709.9
 31
0.0
  0
LINE
  8
0
  6
LTYPE1
 62
     2
 10
1032.0
 20
702.0
 30
0.0
 11
1032.0
 21
752.0
 31
0.0
  0
LINE
  8
0
  6
CONTINUOUS
 62
     1
 10
1017.0
 20
702.0
 30
0.0
 11
1084.0
 21
702.0
 31
0.0
  0
LINE
  8
0
  6
CONTINUOUS
 62
     1
 10
1017.0
 20
726.5
 30
0.0
 11
1017.0
 21
701.5
 31
0.0
  0
LINE
  8
0
  6
CONTINUOUS
 62
     1
 10
1017.0
 20
751.5
 30
0.0
 11
1084.0
 21
751.5
 31
0.0
  0
LINE
  8
0
  6
LTYPE1
 62
     2
 10
1032.0
 20
701.5
 30
0.0
 11
1032.0
 21
751.5
 31
0.0
  0
LINE
  8
0
  6
CONTINUOUS
 62
     1
 10
1017.0
 20
694.0
 30
0.0
 11
1017.0
 21
751.5
 31
0.0
  0
LINE
  8
0
  6
CONTINUOUS
 62
     1
 10
913.882501379
 20
618.0
 30
0.0
 11
913.882501379
 21
592.6
 31
0.0
  0
LINE
  8
0
  6
CONTINUOUS
 62
     1
 10
888.482501379
 20
618.0
 30
0.0
 11
913.882501379
 21
618.0
 31
0.0
  0
LINE
  8
0
  6
CONTINUOUS
 62
     1
 10
906.182501379
 20
619.0
 30
0.0
 11
906.182501379
 21
625.0
 31
0.0
  0
LINE
  8
0
  6
CONTINUOUS
 62
     1
 10
888.482501379
 20
592.6
 30
0.0
 11
913.882501379
 21
592.6
 31
0.0
  0
LINE
  8
0
  6
CONTINUOUS
 62
     1
 10
819.782501379
 20
619.0
 30
0.0
 11
819.782501379
 21
579.0
 31
0.0
  0
LINE
  8
0
  6
CONTINUOUS
 62
     1
 10
888.482501379
 20
619.0
 30
0.0
 11
888.482501379
 21
579.0
 31
0.0
  0
LINE
  8
0
  6
LTYPE1
 62
     2
 10
824.882501379
 20
588.23
 30
0.0
 11
819.882501379
 21
588.23
 31
0.0
  0
LINE
  8
0
  6
LTYPE1
 62
     2
 10
824.882501379
 20
589.385
 30
0.0
 11
819.882501379
 21
589.385
 31
0.0
  0
LINE
  8
0
  6
LTYPE1
 62
     2
 10
824.882501379
 20
609.17
 30
0.0
 11
819.882501379
 21
609.17
 31
0.0
  0
LINE
  8
0
  6
LTYPE1
 62
     2
 10
824.882501379
 20
608.015
 30
0.0
 11
819.882501379
 21
608.015
 31
0.0
  0
LINE
  8
0
  6
LTYPE1
 62
     2
 10
824.882501379
 20
609.17
 30
0.0
 11
819.882501379
 21
609.17
 31
0.0
  0
LINE
  8
0
  6
LTYPE2
 62
     2
 10
841.182501379
 20
563.0
 30
0.0
 11
841.182501379
 21
628.3
 31
0.0
  0
LINE
  8
0
  6
LTYPE2
 62
     2
 10
898.182501379
 20
604.1875
 30
0.0
 11
898.182501379
 21
564.2
 31
0.0
  0
LINE
  8
0
  6
CONTINUOUS
 62
     1
 10
793.882501379
 20
619.0
 30
0.0
 11
793.882501379
 21
579.0
 31
0.0
  0
LINE
  8
0
  6
CONTINUOUS
 62
     1
 10
825.182501379
 20
564.0
 30
0.0
 11
825.182501379
 21
579.0
 31
0.0
  0
LINE
  8
0
  6
CONTINUOUS
 62
     1
 10
825.182501379
 20
564.0
 30
0.0
 11
857.182501379
 21
564.0
 31
0.0
  0
LINE
  8
0
  6
CONTINUOUS
 62
     1
 10
857.182501379
 20
564.0
 30
0.0
 11
857.182501379
 21
579.0
 31
0.0
  0
LINE
  8
0
  6
LTYPE4
 62
     2
 10
824.882501379
 20
597.7
 30
0.0
 11
815.782501379
 21
597.7
 31
0.0
  0
CIRCLE
  8
0
  6
CONTINUOUS
 62
     2
 10
954.182501379
 20
577.0
 30
0.0
 40
5.0
  0
CIRCLE
  8
0
  6
CONTINUOUS
 62
     2
 10
954.182501379
 20
577.0
 30
0.0
 40
4.0
  0
LINE
  8
0
  6
LTYPE2
 62
     2
 10
954.182501379
 20
567.0
 30
0.0
 11
954.182501379
 21
587.0
 31
0.0
  0
LINE
  8
0
  6
CONTINUOUS
 62
     1
 10
793.882501379
 20
585.0
 30
0.0
 11
888.482501379
 21
585.0
 31
0.0
  0
LINE
  8
0
  6
CONTINUOUS
 62
     1
 10
793.882501379
 20
579.0
 30
0.0
 11
888.482501379
 21
579.0
 31
0.0
  0
LINE
  8
0
  6
CONTINUOUS
 62
     1
 10
1017.0
 20
714.0
 30
0.0
 11
1017.0
 21
744.0
 31
0.0
  0
LINE
  8
0
  6
CONTINUOUS
 62
     1
 10
1017.0
 20
564.0
 30
0.0
 11
1017.0
 21
734.0
 31
0.0
  0
LINE
  8
0
  6
CONTINUOUS
 62
     1
 10
1001.0
 20
564.0
 30
0.0
 11
1017.0
 21
564.0
 31
0.0
  0
LINE
  8
0
  6
CONTINUOUS
 62
     1
 10
1001.0
 20
564.0
 30
0.0
 11
1001.0
 21
747.0
 31
0.0
  0
LINE
  8
0
  6
CONTINUOUS
 62
     1
 10
1017.0
 20
577.0
 30
0.0
 11
1017.0
 21
584.49406
 31
0.0
  0
LINE
  8
0
  6
CONTINUOUS
 62
     1
 10
1017.0
 20
577.0
 30
0.0
 11
1017.0
 21
569.50594
 31
0.0
  0
LINE
  8
0
  6
CONTINUOUS
 62
     1
 10
1022.4999
 20
582.65878
 30
0.0
 11
1021.440300598
 21
584.49406
 31
0.0
  0
LINE
  8
0
  6
CONTINUOUS
 62
     1
 10
1022.4999
 20
577.0
 30
0.0
 11
1022.4999
 21
582.65878
 31
0.0
  0
LINE
  8
0
  6
CONTINUOUS
 62
     1
 10
1022.4999
 20
571.34122
 30
0.0
 11
1021.440300598
 21
569.50594
 31
0.0
  0
LINE
  8
0
  6
CONTINUOUS
 62
     1
 10
1022.4999
 20
577.0
 30
0.0
 11
1022.4999
 21
571.34122
 31
0.0
  0
ARC
  8
0
  6
CONTINUOUS
 62
     1
 10
1015.344844663
 20
577.0
 30
0.0
 40
7.155055337
 50
328.419912243
 51
31.580087757
  0
ARC
  8
0
  6
CONTINUOUS
 62
     1
 10
1020.314476233
 20
582.620545
 30
0.0
 40
2.185758211
 50
301.002313915
 51
2.989498403
  0
LINE
  8
0
  6
CONTINUOUS
 62
     1
 10
1022.4999
 20
571.34122
 30
0.0
 11
1021.440300598
 21
569.50594
 31
0.0
  0
ARC
  8
0
  6
CONTINUOUS
 62
     1
 10
1020.314476233
 20
571.379455
 30
0.0
 40
2.185758211
 50
357.010501597
 51
58.997686085
  0
LINE
  8
0
  6
CONTINUOUS
 62
     1
 10
1017.0
 20
584.49406
 30
0.0
 11
1021.440300598
 21
584.49406
 31
0.0
  0
LINE
  8
0
  6
CONTINUOUS
 62
     1
 10
1017.0
 20
580.74703
 30
0.0
 11
1021.440300598
 21
580.74703
 31
0.0
  0
LINE
  8
0
  6
CONTINUOUS
 62
     1
 10
1017.0
 20
573.25297
 30
0.0
 11
1021.440300598
 21
573.25297
 31
0.0
  0
LINE
  8
0
  6
CONTINUOUS
 62
     1
 10
1017.0
 20
569.50594
 30
0.0
 11
1021.440300598
 21
569.50594
 31
0.0
  0
LINE
  8
0
  6
CONTINUOUS
 62
     1
 10
1022.4999
 20
573.0
 30
0.0
 11
1027.4999
 21
573.0
 31
0.0
  0
LINE
  8
0
  6
CONTINUOUS
 62
     1
 10
1022.4999
 20
581.0
 30
0.0
 11
1027.4999
 21
581.0
 31
0.0
  0
LINE
  8
0
  6
CONTINUOUS
 62
     1
 10
1027.4999
 20
573.0
 30
0.0
 11
1027.4999
 21
581.0
 31
0.0
  0
LINE
  8
0
  6
CONTINUOUS
 62
     2
 10
1022.4999
 20
580.2
 30
0.0
 11
1027.4999
 21
580.2
 31
0.0
  0
LINE
  8
0
  6
CONTINUOUS
 62
     2
 10
1022.4999
 20
573.8
 30
0.0
 11
1027.4999
 21
573.8
 31
0.0
  0
LINE
  8
0
  6
CONTINUOUS
 62
     1
 10
1001.0
 20
694.0
 30
0.0
 11
1001.0
 21
765.0
 31
0.0
  0
LINE
  8
0
  6
CONTINUOUS
 62
     1
 10
1001.0
 20
765.0
 30
0.0
 11
1017.0
 21
765.0
 31
0.0
  0
LINE
  8
0
  6
CONTINUOUS
 62
     1
 10
1017.0
 20
727.0
 30
0.0
 11
1017.0
 21
765.0
 31
0.0
  0
LINE
  8
0
  6
CONTINUOUS
 62
     2
 10
833.0
 20
566.875
 30
0.0
 11
823.458760731
 21
558.799434806
 31
0.0
  0
LINE
  8
0
  6
CONTINUOUS
 62
     2
 10
833.0
 20
566.875
 30
0.0
 11
828.774827007
 21
555.110735757
 31
0.0
  0
LINE
  8
0
  6
CONTINUOUS
 62
     2
 10
833.0
 20
566.875
 30
0.0
 11
816.0
 21
542.375
 31
0.0
  0
LINE
  8
0
  6
CONTINUOUS
 62
     1
 10
1001.0
 20
727.0
 30
0.0
 11
1001.0
 21
760.0
 31
0.0
  0
LINE
  8
0
  6
LTYPE4
 62
     2
 10
1067.0
 20
702.0
 30
0.0
 11
1067.0
 21
778.325111356
 31
0.0
  0
LINE
  8
0
  6
CONTINUOUS
 62
     1
 10
1031.956523564
 20
947.825111356
 30
0.0
 11
1091.956523564
 21
947.825111356
 31
0.0
  0
LINE
  8
0
  6
CONTINUOUS
 62
     1
 10
1044.956523564
 20
928.325111356
 30
0.0
 11
1088.956523564
 21
928.325111356
 31
0.0
  0
LINE
  8
0
  6
CONTINUOUS
 62
     1
 10
1054.456523564
 20
922.325111356
 30
0.0
 11
1079.456523564
 21
922.325111356
 31
0.0
  0
LINE
  8
0
  6
CONTINUOUS
 62
     1
 10
1054.456523564
 20
922.325111356
 30
0.0
 11
1054.456523564
 21
928.325111356
 31
0.0
  0
LINE
  8
0
  6
CONTINUOUS
 62
     1
 10
1044.956523564
 20
928.325111356
 30
0.0
 11
1044.956523564
 21
932.825111356
 31
0.0
  0
CIRCLE
  8
0
  6
CONTINUOUS
 62
     1
 10
1066.956523564
 20
926.325111356
 30
0.0
 40
2.0
  0
LINE
  8
0
  6
LTYPE4
 62
     2
 10
1062.956523564
 20
926.425111356
 30
0.0
 11
1071.156523564
 21
926.425111356
 31
0.0
  0
LINE
  8
0
  6
LTYPE1
 62
     2
 10
1054.456523564
 20
928.325111356
 30
0.0
 11
1054.456523564
 21
947.825111356
 31
0.0
  0
LINE
  8
0
  6
CONTINUOUS
 62
     1
 10
1031.956523564
 20
972.825111356
 30
0.0
 11
1091.956523564
 21
972.825111356
 31
0.0
  0
LINE
  8
0
  6
CONTINUOUS
 62
     1
 10
1044.956523564
 20
992.325111356
 30
0.0
 11
1088.956523564
 21
992.325111356
 31
0.0
  0
LINE
  8
0
  6
CONTINUOUS
 62
     1
 10
1054.456523564
 20
998.325111356
 30
0.0
 11
1079.456523564
 21
998.325111356
 31
0.0
  0
LINE
  8
0
  6
CONTINUOUS
 62
     1
 10
1054.456523564
 20
998.325111356
 30
0.0
 11
1054.456523564
 21
992.325111356
 31
0.0
  0
LINE
  8
0
  6
CONTINUOUS
 62
     1
 10
1044.956523564
 20
992.325111356
 30
0.0
 11
1044.956523564
 21
987.825111356
 31
0.0
  0
CIRCLE
  8
0
  6
CONTINUOUS
 62
     1
 10
1066.956523564
 20
994.325111356
 30
0.0
 40
2.0
  0
LINE
  8
0
  6
LTYPE4
 62
     2
 10
1062.956523564
 20
994.225111356
 30
0.0
 11
1071.156523564
 21
994.225111356
 31
0.0
  0
LINE
  8
0
  6
LTYPE1
 62
     2
 10
1054.456523564
 20
992.325111356
 30
0.0
 11
1054.456523564
 21
972.825111356
 31
0.0
  0
LINE
  8
0
  6
CONTINUOUS
 62
     1
 10
1031.956523564
 20
947.825111356
 30
0.0
 11
1031.956523564
 21
972.825111356
 31
0.0
  0
LINE
  8
0
  6
CONTINUOUS
 62
     1
 10
1054.456523564
 20
947.825111356
 30
0.0
 11
1054.456523564
 21
972.825111356
 31
0.0
  0
LINE
  8
0
  6
LTYPE4
 62
     2
 10
1066.956523564
 20
917.325111356
 30
0.0
 11
1066.956523564
 21
998.325111356
 31
0.0
  0
LINE
  8
0
  6
LTYPE4
 62
     2
 10
1066.956523564
 20
1003.325111356
 30
0.0
 11
1066.956523564
 21
922.325111356
 31
0.0
  0
LINE
  8
0
  6
CONTINUOUS
 62
     1
 10
1054.456523564
 20
972.825111356
 30
0.0
 11
1054.456523564
 21
947.825111356
 31
0.0
  0
LINE
  8
0
  6
CONTINUOUS
 62
     2
 10
1031.956523564
 20
877.825111356
 30
0.0
 11
1044.030596393
 21
874.589873292
 31
0.0
  0
LINE
  8
0
  6
CONTINUOUS
 62
     2
 10
1031.956523564
 20
877.825111356
 30
0.0
 11
1044.030596393
 21
881.06034942
 31
0.0
  0
LINE
  8
0
  6
CONTINUOUS
 62
     2
 10
1031.956523564
 20
877.825111356
 30
0.0
 11
1066.956523564
 21
877.825111356
 31
0.0
  0
LINE
  8
0
  6
CONTINUOUS
 62
     2
 10
1066.956523564
 20
877.825111356
 30
0.0
 11
1054.882450736
 21
881.06034942
 31
0.0
  0
LINE
  8
0
  6
CONTINUOUS
 62
     2
 10
1066.956523564
 20
877.825111356
 30
0.0
 11
1054.882450736
 21
874.589873292
 31
0.0
  0
LINE
  8
0
  6
CONTINUOUS
 62
     2
 10
1031.956523564
 20
877.825111356
 30
0.0
 11
1044.030596393
 21
874.589873292
 31
0.0
  0
LINE
  8
0
  6
CONTINUOUS
 62
     2
 10
1031.956523564
 20
877.825111356
 30
0.0
 11
1044.030596393
 21
881.06034942
 31
0.0
  0
LINE
  8
0
  6
CONTINUOUS
 62
     2
 10
1050.706523564
 20
877.825111356
 30
0.0
 11
969.706523564
 21
877.825111356
 31
0.0
  0
LINE
  8
0
  6
CONTINUOUS
 62
     2
 10
1016.956523564
 20
877.825111356
 30
0.0
 11
1004.882450736
 21
881.06034942
 31
0.0
  0
LINE
  8
0
  6
CONTINUOUS
 62
     2
 10
1016.956523564
 20
877.825111356
 30
0.0
 11
1004.882450736
 21
874.589873292
 31
0.0
  0
LINE
  8
0
  6
CONTINUOUS
 62
     2
 10
1066.956523564
 20
912.725111356
 30
0.0
 11
1066.956523564
 21
870.325111356
 31
0.0
  0
LINE
  8
0
  6
CONTINUOUS
 62
     2
 10
1031.956523564
 20
945.225111356
 30
0.0
 11
1031.956523564
 21
870.325111356
 31
0.0
  0
LINE
  8
0
  6
CONTINUOUS
 62
     2
 10
1016.956523564
 20
921.225111356
 30
0.0
 11
1016.956523564
 21
870.325111356
 31
0.0
  0
LINE
  8
0
  6
CONTINUOUS
 62
     1
 10
1016.956523564
 20
960.325111356
 30
0.0
 11
1016.956523564
 21
987.825111356
 31
0.0
  0
LINE
  8
0
  6
CONTINUOUS
 62
     1
 10
1016.956523564
 20
987.825111356
 30
0.0
 11
1091.956523564
 21
987.825111356
 31
0.0
  0
LINE
  8
0
  6
CONTINUOUS
 62
     1
 10
1016.956523564
 20
932.825111356
 30
0.0
 11
1016.956523564
 21
987.825111356
 31
0.0
  0
LINE
  8
0
  6
CONTINUOUS
 62
     1
 10
1016.956523564
 20
932.825111356
 30
0.0
 11
1091.956523564
 21
932.825111356
 31
0.0
  0
LINE
  8
0
  6
LTYPE3
 62
     2
 10
967.456523564
 20
960.325111356
 30
0.0
 11
1111.956523564
 21
960.325111356
 31
0.0
  0
LINE
  8
2
  6
CONTINUOUS
 62
     2
 10
1017.0
 20
487.0
 30
0.0
 11
1004.925927171
 21
490.235238064
 31
0.0
  0
LINE
  8
2
  6
CONTINUOUS
 62
     2
 10
1017.0
 20
487.0
 30
0.0
 11
1004.925927171
 21
483.764761936
 31
0.0
  0
LINE
  8
2
  6
CONTINUOUS
 62
     2
 10
1017.0
 20
559.0
 30
0.0
 11
1017.0
 21
477.0
 31
0.0
  0
LINE
  8
2
  6
CONTINUOUS
 62
     2
 10
1067.0
 20
702.5
 30
0.0
 11
1067.0
 21
477.0
 31
0.0
  0
LINE
  8
2
  6
CONTINUOUS
 62
     2
 10
1067.0
 20
487.0
 30
0.0
 11
1054.925927171
 21
490.235238064
 31
0.0
  0
LINE
  8
2
  6
CONTINUOUS
 62
     2
 10
1067.0
 20
487.0
 30
0.0
 11
1054.925927171
 21
483.764761936
 31
0.0
  0
LINE
  8
2
  6
CONTINUOUS
 62
     2
 10
1067.0
 20
487.0
 30
0.0
 11
1017.0
 21
487.0
 31
0.0
  0
LINE
  8
2
  6
CONTINUOUS
 62
     2
 10
1017.0
 20
487.0
 30
0.0
 11
1029.074072829
 21
483.764761936
 31
0.0
  0
LINE
  8
2
  6
CONTINUOUS
 62
     2
 10
1017.0
 20
487.0
 30
0.0
 11
1029.074072829
 21
490.235238064
 31
0.0
  0
LINE
  8
2
  6
CONTINUOUS
 62
     2
 10
1017.0
 20
559.0
 30
0.0
 11
1017.0
 21
477.0
 31
0.0
  0
LINE
  8
2
  6
CONTINUOUS
 62
     2
 10
1067.0
 20
443.5
 30
0.0
 11
1054.925927171
 21
446.735238064
 31
0.0
  0
LINE
  8
2
  6
CONTINUOUS
 62
     2
 10
1067.0
 20
443.5
 30
0.0
 11
1054.925927171
 21
440.264761936
 31
0.0
  0
LINE
  8
2
  6
CONTINUOUS
 62
     2
 10
1067.0
 20
490.5
 30
0.0
 11
1067.0
 21
433.5
 31
0.0
  0
LINE
  8
2
  6
CONTINUOUS
 62
     2
 10
1067.0
 20
444.5
 30
0.0
 11
1067.0
 21
396.5
 31
0.0
  0
LINE
  8
2
  6
CONTINUOUS
 62
     2
 10
1067.0
 20
406.5
 30
0.0
 11
1054.925927171
 21
409.735238064
 31
0.0
  0
LINE
  8
2
  6
CONTINUOUS
 62
     2
 10
1067.0
 20
406.5
 30
0.0
 11
1054.925927171
 21
403.264761936
 31
0.0
  0
TEXT
  8
0
  6
CONTINUOUS
 62
     2
 10
788.1
 20
867.8
 30
0.0
 40
18.0
  1
給脂口
 50
0.0
 41
0.9
 51
0.0
  7
KANJI17
  0
TEXT
  8
0
  6
CONTINUOUS
 62
     2
 10
1035.206523564
 20
882.825111356
 30
0.0
 40
18.0
  1
３５
 50
0.0
 41
0.9
 51
0.0
  7
KANJI17
  0
TEXT
  8
0
  6
CONTINUOUS
 62
     2
 10
970.706523564
 20
880.825111356
 30
0.0
 40
18.0
  1
１５
 50
0.0
 41
0.9
 51
0.0
  7
KANJI17
  0
TEXT
  8
2
  6
CONTINUOUS
 62
     3
 10
1025.25
 20
492.0
 30
0.0
 40
18.0
  1
５０
 50
0.0
 41
0.9
 51
0.0
  7
KANJI17
  0
TEXT
  8
2
  6
CONTINUOUS
 62
     3
 10
989.75
 20
491.5
 30
0.0
 40
18.0
  1
Ｐ
 50
0.0
 41
0.9
 51
0.0
  7
KANJI17
  0
LINE
  8
2
  6
CONTINUOUS
 62
     2
 10
1066.956523564
 20
880.825111356
 30
0.0
 11
1066.956523564
 21
871.825111356
 31
0.0
  0
LINE
  8
2
  6
CONTINUOUS
 62
     2
 10
1066.956523564
 20
877.825111356
 30
0.0
 11
1052.46763617
 21
881.707397032
 31
0.0
  0
LINE
  8
2
  6
CONTINUOUS
 62
     2
 10
1066.956523564
 20
877.825111356
 30
0.0
 11
1052.46763617
 21
873.942825679
 31
0.0
  0
LINE
  8
2
  6
CONTINUOUS
 62
     2
 10
1044.456523564
 20
877.825111356
 30
0.0
 11
1066.956523564
 21
877.825111356
 31
0.0
  0
LINE
  8
2
  6
CONTINUOUS
 62
     2
 10
1066.956523564
 20
877.825111356
 30
0.0
 11
1091.956523564
 21
877.825111356
 31
0.0
  0
LINE
  8
0
  6
CONTINUOUS
 62
     1
 10
1001.0
 20
752.0
 30
0.0
 11
972.0
 21
752.0
 31
0.0
  0
LINE
  8
0
  6
CONTINUOUS
 62
     1
 10
1001.0
 20
702.0
 30
0.0
 11
972.0
 21
702.0
 31
0.0
  0
LINE
  8
0
  6
CONTINUOUS
 62
     1
 10
937.0
 20
692.0
 30
0.0
 11
937.0
 21
762.0
 31
0.0
  0
LINE
  8
2
  6
CONTINUOUS
 62
     2
 10
972.0
 20
687.0
 30
0.0
 11
972.0
 21
477.0
 31
0.0
  0
LINE
  8
2
  6
CONTINUOUS
 62
     2
 10
972.0
 20
487.0
 30
0.0
 11
959.925927171
 21
490.235238064
 31
0.0
  0
LINE
  8
2
  6
CONTINUOUS
 62
     2
 10
972.0
 20
510.5
 30
0.0
 11
972.0
 21
477.0
 31
0.0
  0
LINE
  8
2
  6
CONTINUOUS
 62
     2
 10
972.0
 20
487.0
 30
0.0
 11
984.074072829
 21
490.235238064
 31
0.0
  0
LINE
  8
2
  6
CONTINUOUS
 62
     2
 10
972.0
 20
487.0
 30
0.0
 11
959.925927171
 21
483.764761936
 31
0.0
  0
LINE
  8
2
  6
CONTINUOUS
 62
     2
 10
972.0
 20
487.0
 30
0.0
 11
984.074072829
 21
483.764761936
 31
0.0
  0
LINE
  8
0
  6
CONTINUOUS
 62
     1
 10
879.183009455
 20
762.0
 30
0.0
 11
972.0
 21
762.0
 31
0.0
  0
LINE
  8
0
  6
CONTINUOUS
 62
     1
 10
972.0
 20
692.0
 30
0.0
 11
972.0
 21
762.0
 31
0.0
  0
LINE
  8
2
  6
CONTINUOUS
 62
     2
 10
972.0
 20
487.0
 30
0.0
 11
1017.0
 21
487.0
 31
0.0
  0
TEXT
  8
0
  6
CONTINUOUS
 62
     2
 10
974.5
 20
516.5
 30
-3.0
 40
18.0
  1
ｍｉｎ
 50
0.0
 41
0.9
 51
0.0
  7
KANJI27
  0
LINE
  8
0
  6
LTYPE3
 62
     2
 10
811.182501379
 20
664.25
 30
0.0
 11
811.182501379
 21
769.9
 31
0.0
  0
LINE
  8
0
  6
CONTINUOUS
 62
     1
 10
815.182501379
 20
710.0
 30
0.0
 11
815.182501379
 21
766.50001079
 31
0.0
  0
LINE
  8
0
  6
CONTINUOUS
 62
     1
 10
807.182501379
 20
710.0
 30
0.0
 11
807.182501379
 21
766.50001079
 31
0.0
  0
LINE
  8
0
  6
CONTINUOUS
 62
     1
 10
867.182501379
 20
710.0
 30
0.0
 11
867.182501379
 21
766.50001079
 31
0.0
  0
LINE
  8
0
  6
LTYPE3
 62
     2
 10
871.182501379
 20
664.25
 30
0.0
 11
871.182501379
 21
769.9
 31
0.0
  0
LINE
  8
0
  6
CONTINUOUS
 62
     1
 10
875.182501379
 20
710.0
 30
0.0
 11
875.182501379
 21
766.50001079
 31
0.0
  0
ARC
  8
0
  6
CONTINUOUS
 62
     1
 10
811.182501379
 20
766.5
 30
0.0
 40
4.0
 50
0.00015455
 51
179.99984545
  0
ARC
  8
0
  6
CONTINUOUS
 62
     1
 10
871.182501379
 20
766.5
 30
0.0
 40
4.0
 50
0.00015455
 51
179.99984545
  0
LINE
  8
0
  6
CONTINUOUS
 62
     1
 10
804.182501379
 20
625.5
 30
0.0
 11
804.182501379
 21
710.0
 31
0.0
  0
LINE
  8
0
  6
CONTINUOUS
 62
     1
 10
864.182501379
 20
625.5
 30
0.0
 11
864.182501379
 21
710.0
 31
0.0
  0
LINE
  8
0
  6
CONTINUOUS
 62
     1
 10
818.182501379
 20
625.0
 30
0.0
 11
818.182501379
 21
710.0
 31
0.0
  0
LINE
  8
0
  6
CONTINUOUS
 62
     1
 10
878.182501379
 20
625.0
 30
0.0
 11
878.182501379
 21
710.0
 31
0.0
  0
LINE
  8
0
  6
CONTINUOUS
 62
     1
 10
818.182501379
 20
710.0
 30
0.0
 11
804.182501379
 21
710.0
 31
0.0
  0
LINE
  8
0
  6
CONTINUOUS
 62
     1
 10
818.182501379
 20
690.0
 30
0.0
 11
804.182501379
 21
690.0
 31
0.0
  0
LINE
  8
0
  6
CONTINUOUS
 62
     1
 10
878.182501379
 20
710.0
 30
0.0
 11
864.182501379
 21
710.0
 31
0.0
  0
LINE
  8
0
  6
CONTINUOUS
 62
     1
 10
878.182501379
 20
690.0
 30
0.0
 11
864.182501379
 21
690.0
 31
0.0
  0
LINE
  8
0
  6
LTYPE1
 62
     2
 10
933.182501379
 20
583.0
 30
0.0
 11
975.182501379
 21
583.0
 31
0.0
  0
LINE
  8
0
  6
CONTINUOUS
 62
     1
 10
933.182501379
 20
588.0
 30
0.0
 11
941.842755417
 21
593.0
 31
0.0
  0
LINE
  8
0
  6
CONTINUOUS
 62
     1
 10
941.832501379
 20
561.0
 30
0.0
 11
941.832501379
 21
593.0
 31
0.0
  0
LINE
  8
0
  6
CONTINUOUS
 62
     1
 10
941.832501379
 20
593.0
 30
0.0
 11
966.532501379
 21
593.0
 31
0.0
  0
LINE
  8
0
  6
CONTINUOUS
 62
     1
 10
933.182501379
 20
566.0
 30
0.0
 11
933.182501379
 21
588.0
 31
0.0
  0
LINE
  8
0
  6
CONTINUOUS
 62
     1
 10
888.482501379
 20
583.0
 30
0.0
 11
933.182501379
 21
583.0
 31
0.0
  0
LINE
  8
0
  6
LTYPE1
 62
     2
 10
933.182501379
 20
571.0
 30
0.0
 11
975.182501379
 21
571.0
 31
0.0
  0
LINE
  8
0
  6
CONTINUOUS
 62
     1
 10
941.832501379
 20
561.0
 30
0.0
 11
966.532501379
 21
561.0
 31
0.0
  0
LINE
  8
0
  6
CONTINUOUS
 62
     1
 10
857.182501379
 20
571.0
 30
0.0
 11
933.182501379
 21
571.0
 31
0.0
  0
LINE
  8
0
  6
CONTINUOUS
 62
     1
 10
933.182501379
 20
566.0
 30
0.0
 11
941.842755417
 21
561.0
 31
0.0
  0
LINE
  8
0
  6
CONTINUOUS
 62
     1
 10
975.182501379
 20
588.0
 30
0.0
 11
966.522247342
 21
593.0
 31
0.0
  0
LINE
  8
0
  6
CONTINUOUS
 62
     1
 10
975.182501379
 20
566.0
 30
0.0
 11
975.182501379
 21
588.0
 31
0.0
  0
LINE
  8
0
  6
CONTINUOUS
 62
     1
 10
966.532501379
 20
561.0
 30
0.0
 11
966.532501379
 21
593.0
 31
0.0
  0
LINE
  8
0
  6
CONTINUOUS
 62
     1
 10
975.182501379
 20
566.0
 30
0.0
 11
966.522247342
 21
561.0
 31
0.0
  0
LINE
  8
0
  6
CONTINUOUS
 62
     1
 10
975.182501379
 20
571.0
 30
0.0
 11
1001.0
 21
571.0
 31
0.0
  0
LINE
  8
0
  6
CONTINUOUS
 62
     1
 10
975.182501379
 20
583.0
 30
0.0
 11
1001.0
 21
583.0
 31
0.0
  0
LINE
  8
0
  6
CONTINUOUS
 62
     1
 10
972.0
 20
692.0
 30
0.0
 11
878.182501379
 21
692.0
 31
0.0
  0
LINE
  8
0
  6
CONTINUOUS
 62
     1
 10
864.182501379
 20
692.0
 30
0.0
 11
818.182501379
 21
692.0
 31
0.0
  0
LINE
  8
0
  6
CONTINUOUS
 62
     1
 10
894.71890784
 20
762.0
 30
0.0
 11
875.182501379
 21
762.0
 31
0.0
  0
LINE
  8
0
  6
CONTINUOUS
 62
     1
 10
867.182501379
 20
762.0
 30
0.0
 11
815.182501379
 21
762.0
 31
0.0
  0
LINE
  8
0
  6
CONTINUOUS
 62
     2
 10
1074.5
 20
736.1
 30
0.0
 11
1111.0
 21
798.1
 31
0.0
  0
LINE
  8
0
  6
CONTINUOUS
 62
     2
 10
1111.0
 20
798.1
 30
0.0
 11
1199.5
 21
798.1
 31
0.0
  0
LINE
  8
0
  6
CONTINUOUS
 62
     2
 10
1111.0
 20
798.1
 30
0.0
 11
1199.5
 21
798.1
 31
0.0
  0
LINE
  8
0
  6
CONTINUOUS
 62
     1
 10
1091.956523564
 20
932.825111356
 30
0.0
 11
1091.956523564
 21
947.825111356
 31
0.0
  0
LINE
  8
0
  6
CONTINUOUS
 62
     1
 10
1079.456523564
 20
922.325111356
 30
0.0
 11
1079.456523564
 21
928.325111356
 31
0.0
  0
LINE
  8
0
  6
CONTINUOUS
 62
     1
 10
1088.956523564
 20
928.325111356
 30
0.0
 11
1088.956523564
 21
932.825111356
 31
0.0
  0
LINE
  8
0
  6
LTYPE1
 62
     2
 10
1079.456523564
 20
928.325111356
 30
0.0
 11
1079.456523564
 21
947.825111356
 31
0.0
  0
LINE
  8
0
  6
CONTINUOUS
 62
     1
 10
1091.956523564
 20
987.825111356
 30
0.0
 11
1091.956523564
 21
972.825111356
 31
0.0
  0
LINE
  8
0
  6
CONTINUOUS
 62
     1
 10
1079.456523564
 20
998.325111356
 30
0.0
 11
1079.456523564
 21
992.325111356
 31
0.0
  0
LINE
  8
0
  6
CONTINUOUS
 62
     1
 10
1088.956523564
 20
992.325111356
 30
0.0
 11
1088.956523564
 21
987.825111356
 31
0.0
  0
LINE
  8
0
  6
LTYPE1
 62
     2
 10
1079.456523564
 20
992.325111356
 30
0.0
 11
1079.456523564
 21
972.825111356
 31
0.0
  0
LINE
  8
0
  6
CONTINUOUS
 62
     1
 10
1079.456523564
 20
947.825111356
 30
0.0
 11
1079.456523564
 21
972.825111356
 31
0.0
  0
LINE
  8
0
  6
CONTINUOUS
 62
     1
 10
1079.456523564
 20
972.825111356
 30
0.0
 11
1079.456523564
 21
947.825111356
 31
0.0
  0
LINE
  8
0
  6
CONTINUOUS
 62
     2
 10
1099.456523564
 20
932.825111356
 30
0.0
 11
1176.956523564
 21
932.825111356
 31
0.0
  0
LINE
  8
0
  6
CONTINUOUS
 62
     2
 10
1169.456523564
 20
932.825111356
 30
0.0
 11
1172.691761628
 21
944.899184185
 31
0.0
  0
LINE
  8
0
  6
CONTINUOUS
 62
     2
 10
1169.456523564
 20
932.825111356
 30
0.0
 11
1166.2212855
 21
944.899184185
 31
0.0
  0
LINE
  8
0
  6
CONTINUOUS
 62
     2
 10
1169.456523564
 20
932.825111356
 30
0.0
 11
1169.456523564
 21
987.825111356
 31
0.0
  0
LINE
  8
0
  6
CONTINUOUS
 62
     2
 10
1169.456523564
 20
987.825111356
 30
0.0
 11
1166.2212855
 21
975.751038527
 31
0.0
  0
LINE
  8
0
  6
CONTINUOUS
 62
     2
 10
1169.456523564
 20
987.825111356
 30
0.0
 11
1172.691761628
 21
975.751038527
 31
0.0
  0
LINE
  8
0
  6
CONTINUOUS
 62
     2
 10
1099.456523564
 20
987.825111356
 30
0.0
 11
1176.956523564
 21
987.825111356
 31
0.0
  0
LINE
  8
0
  6
CONTINUOUS
 62
     2
 10
1099.456523564
 20
947.825111356
 30
0.0
 11
1148.456523564
 21
947.825111356
 31
0.0
  0
LINE
  8
0
  6
CONTINUOUS
 62
     2
 10
1140.956523564
 20
947.825111356
 30
0.0
 11
1137.7212855
 21
935.751038527
 31
0.0
  0
LINE
  8
0
  6
CONTINUOUS
 62
     2
 10
1140.956523564
 20
947.825111356
 30
0.0
 11
1144.191761628
 21
935.751038527
 31
0.0
  0
LINE
  8
0
  6
CONTINUOUS
 62
     2
 10
1140.956523564
 20
929.075111356
 30
0.0
 11
1140.956523564
 21
1020.075111356
 31
0.0
  0
LINE
  8
0
  6
CONTINUOUS
 62
     2
 10
1140.956523564
 20
972.825111356
 30
0.0
 11
1144.191761628
 21
984.899184185
 31
0.0
  0
LINE
  8
0
  6
CONTINUOUS
 62
     2
 10
1140.956523564
 20
972.825111356
 30
0.0
 11
1137.7212855
 21
984.899184185
 31
0.0
  0
LINE
  8
0
  6
CONTINUOUS
 62
     2
 10
1099.456523564
 20
972.825111356
 30
0.0
 11
1148.456523564
 21
972.825111356
 31
0.0
  0
TEXT
  8
0
  6
CONTINUOUS
 62
     2
 10
1155.5
 20
778.6
 30
0.0
 40
18.0
  1
ｄ９
 50
0.0
 41
0.9
 51
0.0
  7
KANJI17
  0
TEXT
  8
0
  6
CONTINUOUS
 62
     2
 10
1164.456523564
 20
946.075111356
 30
0.0
 40
18.0
  1
５５
 50
90.0
 41
0.9
 51
0.0
  7
KANJI17
  0
TEXT
  8
0
  6
CONTINUOUS
 62
     2
 10
1135.956523564
 20
991.575111356
 30
0.0
 40
18.0
  1
２５
 50
90.0
 41
0.9
 51
0.0
  7
KANJI17
  0
TEXT
  8
0
  6
CONTINUOUS
 62
     2
 10
1111.0
 20
803.1
 30
0.0
 40
18.0
  1
φ２５Ｈ１０
 50
0.0
 41
0.9
 51
0.0
  7
KANJI17
  0
TEXT
  8
0
  6
CONTINUOUS
 62
     2
 10
1111.0
 20
803.1
 30
0.0
 40
18.0
  1
φ２５Ｈ１０
 50
0.0
 41
0.9
 51
0.0
  7
KANJI17
  0
LINE
  8
2
  6
CONTINUOUS
 62
     2
 10
1091.956523564
 20
877.825111356
 30
0.0
 11
1146.856523564
 21
877.825111356
 31
0.0
  0
LINE
  8
2
  6
CONTINUOUS
 62
     2
 10
1091.956523564
 20
877.825111356
 30
0.0
 11
1106.445410958
 21
873.942825679
 31
0.0
  0
LINE
  8
2
  6
CONTINUOUS
 62
     2
 10
1091.956523564
 20
877.825111356
 30
0.0
 11
1106.445410958
 21
881.707397032
 31
0.0
  0
LINE
  8
2
  6
CONTINUOUS
 62
     2
 10
1091.956523564
 20
926.825111356
 30
0.0
 11
1091.956523564
 21
871.825111356
 31
0.0
  0
TEXT
  8
2
  6
CONTINUOUS
 62
     3
 10
1114.456523564
 20
883.825111356
 30
0.0
 40
18.0
  1
２５
 50
0.0
 41
0.9
 51
0.0
  7
KANJI17
  0
ARC
  8
0
  6
CONTINUOUS
 62
     1
 10
1084.0
 20
710.0
 30
0.0
 40
8.0
 50
270.0
 51
0.0
  0
LINE
  8
0
  6
CONTINUOUS
 62
     1
 10
1092.0
 20
710.0
 30
0.0
 11
1092.0
 21
744.0
 31
0.0
  0
ARC
  8
0
  6
CONTINUOUS
 62
     1
 10
1084.0
 20
744.0
 30
0.0
 40
8.0
 50
0.0
 51
90.0
  0
LINE
  8
0
  6
CONTINUOUS
 62
     1
 10
1071.2
 20
710.2
 30
0.0
 11
1069.2
 21
709.9
 31
0.0
  0
LINE
  8
0
  6
CONTINUOUS
 62
     1
 10
1068.7
 20
714.6
 30
0.0
 11
1068.935384615
 21
713.030769231
 31
0.0
  0
LINE
  8
0
  6
CONTINUOUS
 62
     1
 10
1068.935384615
 20
713.030769231
 30
0.0
 11
1071.2
 21
710.2
 31
0.0
  0
LINE
  8
0
  6
CONTINUOUS
 62
     2
 10
1091.5
 20
752.0
 30
0.0
 11
1155.1
 21
752.0
 31
0.0
  0
LINE
  8
0
  6
CONTINUOUS
 62
     2
 10
1147.6
 20
752.0
 30
0.0
 11
1144.364761936
 21
739.925927171
 31
0.0
  0
LINE
  8
0
  6
CONTINUOUS
 62
     2
 10
1147.6
 20
752.0
 30
0.0
 11
1150.835238064
 21
739.925927171
 31
0.0
  0
LINE
  8
0
  6
CONTINUOUS
 62
     2
 10
1147.6
 20
752.0
 30
0.0
 11
1147.6
 21
702.0
 31
0.0
  0
LINE
  8
0
  6
CONTINUOUS
 62
     2
 10
1147.6
 20
702.0
 30
0.0
 11
1150.835238064
 21
714.074072829
 31
0.0
  0
LINE
  8
0
  6
CONTINUOUS
 62
     2
 10
1147.6
 20
702.0
 30
0.0
 11
1144.364761936
 21
714.074072829
 31
0.0
  0
LINE
  8
0
  6
CONTINUOUS
 62
     2
 10
1091.5
 20
702.0
 30
0.0
 11
1155.1
 21
702.0
 31
0.0
  0
LINE
  8
0
  6
CONTINUOUS
 62
     2
 10
1074.5
 20
736.6
 30
0.0
 11
1083.413448812
 21
745.363585469
 31
0.0
  0
LINE
  8
0
  6
CONTINUOUS
 62
     2
 10
1074.5
 20
736.6
 30
0.0
 11
1077.837480372
 21
748.64621205
 31
0.0
  0
TEXT
  8
0
  6
CONTINUOUS
 62
     2
 10
1142.6
 20
712.75
 30
0.0
 40
18.0
  1
５０
 50
90.0
 41
0.9
 51
0.0
  7
KANJI17
  0
LINE
  8
0
  6
CONTINUOUS
 62
     1
 10
972.0
 20
985.325111356
 30
0.0
 11
1016.956523564
 21
985.325111356
 31
0.0
  0
LINE
  8
0
  6
CONTINUOUS
 62
     1
 10
972.0
 20
935.325111356
 30
0.0
 11
1016.956523564
 21
935.325111356
 31
0.0
  0
LINE
  8
0
  6
CONTINUOUS
 62
     1
 10
1321.322294753
 20
753.262575811
 30
0.0
 11
1308.567368687
 21
705.660543685
 31
0.0
  0
LINE
  8
0
  6
LTYPE2
 62
     2
 10
1307.031178551
 20
713.836735944
 30
0.0
 11
1363.054876475
 21
698.825231328
 31
0.0
  0
LINE
  8
0
  6
CONTINUOUS
 62
     1
 10
1312.449654363
 20
720.149431079
 30
0.0
 11
1338.722836839
 21
713.109553052
 31
0.0
  0
LINE
  8
0
  6
CONTINUOUS
 62
     1
 10
1308.567368687
 20
705.660543685
 30
0.0
 11
1334.840551162
 21
698.620665658
 31
0.0
  0
LINE
  8
0
  6
CONTINUOUS
 62
     1
 10
1355.361513714
 20
675.522395247
 30
0.0
 11
1361.157068671
 21
673.969480977
 31
0.0
  0
LINE
  8
0
  6
LTYPE2
 62
     2
 10
1361.078560547
 20
683.722113261
 30
0.0
 11
1315.680046711
 21
695.886608381
 31
0.0
  0
LINE
  8
0
  6
LTYPE2
 62
     2
 10
1324.4623077
 20
724.79874929
 30
0.0
 11
1369.860821535
 21
712.63425417
 31
0.0
  0
LINE
  8
0
  6
CONTINUOUS
 62
     1
 10
1366.878961221
 20
718.506094517
 30
0.0
 11
1356.526199416
 21
679.869061466
 31
0.0
  0
LINE
  8
0
  6
CONTINUOUS
 62
     1
 10
1356.526199416
 20
679.869061466
 30
0.0
 11
1356.622791999
 21
679.843179561
 31
0.0
  0
LINE
  8
0
  6
CONTINUOUS
 62
     1
 10
1317.889166365
 20
690.22182327
 30
0.0
 11
1356.526199416
 21
679.869061466
 31
0.0
  0
LINE
  8
0
  6
CONTINUOUS
 62
     1
 10
1366.878961221
 20
718.506094517
 30
0.0
 11
1328.241928169
 21
728.858856321
 31
0.0
  0
LINE
  8
0
  6
CONTINUOUS
 62
     1
 10
1325.34415069
 20
729.635313457
 30
0.0
 11
1322.108912626
 21
717.561240628
 31
0.0
  0
LINE
  8
0
  6
CONTINUOUS
 62
     1
 10
1339.551057783
 20
716.200515696
 30
0.0
 11
1334.012330218
 21
695.529703014
 31
0.0
  0
ARC
  8
0
  6
CONTINUOUS
 62
     1
 10
1341.482909435
 20
715.682877606
 30
0.0
 40
2.0
 50
75.0
 51
165.0
  0
LINE
  8
0
  6
CONTINUOUS
 62
     1
 10
1335.42654378
 20
693.080213271
 30
0.0
 11
1356.097356463
 21
687.541485706
 31
0.0
  0
ARC
  8
0
  6
CONTINUOUS
 62
     1
 10
1356.614994553
 20
689.473337358
 30
0.0
 40
2.0
 50
255.0
 51
345.0
  0
LINE
  8
0
  6
LTYPE2
 62
     2
 10
1345.399603458
 20
688.958553332
 30
0.0
 11
1352.750064339
 21
716.390846798
 31
0.0
  0
LINE
  8
0
  6
CONTINUOUS
 62
     1
 10
1333.0715573
 20
727.564761096
 30
0.0
 11
1329.810437332
 21
715.394095685
 31
0.0
  0
LINE
  8
0
  6
CONTINUOUS
 62
     1
 10
1328.241928169
 20
728.858856321
 30
0.0
 11
1325.006690105
 21
716.784783493
 31
0.0
  0
LINE
  8
0
  6
CONTINUOUS
 62
     1
 10
1342.000547526
 20
717.614729259
 30
0.0
 11
1362.671360208
 21
712.076001694
 31
0.0
  0
LINE
  8
0
  6
CONTINUOUS
 62
     1
 10
1364.085573771
 20
709.626511951
 30
0.0
 11
1358.546846205
 21
688.955699268
 31
0.0
  0
ARC
  8
0
  6
CONTINUOUS
 62
     1
 10
1362.153722118
 20
710.144150041
 30
0.0
 40
2.0
 50
345.0
 51
75.0
  0
LINE
  8
0
  6
CONTINUOUS
 62
     1
 10
1322.108912626
 20
717.561240628
 30
0.0
 11
1318.22662695
 21
703.072353234
 31
0.0
  0
ARC
  8
0
  6
CONTINUOUS
 62
     1
 10
1335.94418187
 20
695.012064924
 30
0.0
 40
2.0
 50
165.0
 51
255.0
  0
LINE
  8
0
  6
CONTINUOUS
 62
     1
 10
1325.95403356
 20
701.001800873
 30
0.0
 11
1322.718795496
 21
688.927728044
 31
0.0
  0
LINE
  8
0
  6
CONTINUOUS
 62
     1
 10
1321.098522524
 20
702.199303516
 30
0.0
 11
1317.889166365
 21
690.22182327
 31
0.0
  0
LINE
  8
0
  6
CONTINUOUS
 62
     1
 10
1325.709782622
 20
739.113647344
 30
0.0
 11
1325.34415069
 21
729.635313457
 31
0.0
  0
LINE
  8
0
  6
LTYPE4
 62
     2
 10
1330.433594693
 20
740.901970447
 30
0.0
 11
1343.374546948
 21
789.198261762
 31
0.0
  0
ARC
  8
0
  6
LTYPE1
 62
     1
 10
1337.111126057
 20
765.822856765
 30
0.0
 40
16.0
 50
255.0
 51
129.340912304
  0
ARC
  8
0
  6
CONTINUOUS
 62
     1
 10
1337.111126057
 20
765.822856765
 30
0.0
 40
16.0
 50
129.340912304
 51
200.659087696
  0
LINE
  8
0
  6
CONTINUOUS
 62
     1
 10
1328.596768035
 20
749.501653255
 30
0.0
 11
1325.806375205
 21
739.08776544
 31
0.0
  0
LINE
  8
0
  6
LTYPE2
 62
     2
 10
1319.184524248
 20
749.920751635
 30
0.0
 11
1337.730300112
 21
744.951425969
 31
0.0
  0
LINE
  8
0
  6
LTYPE1
 62
     2
 10
1330.818671407
 20
755.862057877
 30
0.0
 11
1337.580152191
 21
754.050324562
 31
0.0
  0
LINE
  8
0
  6
LTYPE1
 62
     2
 10
1337.580152191
 20
754.050324562
 30
0.0
 11
1335.630921258
 21
746.775695683
 31
0.0
  0
ARC
  8
0
  6
LTYPE1
 62
     1
 10
1337.111126057
 20
765.822856765
 30
0.0
 40
16.0
 50
200.659087696
 51
255.0
  0
LINE
  8
0
  6
LTYPE1
 62
     1
 10
1321.637730465
 20
754.439797912
 30
0.0
 11
1321.322294753
 21
753.262575811
 31
0.0
  0
LINE
  8
0
  6
LTYPE1
 62
     1
 10
1329.365137075
 20
752.369245551
 30
0.0
 11
1328.596768035
 21
749.501653255
 31
0.0
  0
LINE
  8
0
  6
LTYPE1
 62
     1
 10
1321.637730465
 20
754.439797912
 30
0.0
 11
1331.216494909
 21
751.873175715
 31
0.0
  0
CIRCLE
  8
0
  6
CONTINUOUS
 62
     1
 10
1337.111126057
 20
765.822856765
 30
0.0
 40
6.49995
  0
CIRCLE
  8
0
  6
LTYPE1
 62
     2
 10
1337.111126057
 20
765.822856765
 30
0.0
 40
3.2
  0
CIRCLE
  8
0
  6
CONTINUOUS
 62
     1
 10
1337.111126057
 20
765.822856765
 30
0.0
 40
4.0
  0
LINE
  8
0
  6
CONTINUOUS
 62
     1
 10
1339.048168253
 20
758.574584464
 30
0.0
 11
1331.809462156
 21
760.514189917
 31
0.0
  0
LINE
  8
0
  6
CONTINUOUS
 62
     1
 10
1331.809462156
 20
760.514189917
 30
0.0
 11
1329.872419959
 21
767.762462219
 31
0.0
  0
LINE
  8
0
  6
CONTINUOUS
 62
     1
 10
1339.048168253
 20
758.574584464
 30
0.0
 11
1344.349832154
 21
763.883251312
 31
0.0
  0
LINE
  8
0
  6
CONTINUOUS
 62
     1
 10
1335.630921258
 20
746.775695683
 30
0.0
 11
1333.050818902
 21
737.146622602
 31
0.0
  0
LINE
  8
0
  6
CONTINUOUS
 62
     1
 10
1326.289338118
 20
738.958355917
 30
0.0
 11
1333.050818902
 21
737.146622602
 31
0.0
  0
LINE
  8
0
  6
CONTINUOUS
 62
     1
 10
1335.17408386
 20
773.071129067
 30
0.0
 11
1329.872419959
 21
767.762462219
 31
0.0
  0
LINE
  8
0
  6
CONTINUOUS
 62
     1
 10
1342.412789958
 20
771.131523613
 30
0.0
 11
1344.349832154
 21
763.883251312
 31
0.0
  0
LINE
  8
0
  6
CONTINUOUS
 62
     1
 10
1342.412789958
 20
771.131523613
 30
0.0
 11
1335.17408386
 21
773.071129067
 31
0.0
  0
LINE
  8
0
  6
LTYPE1
 62
     2
 10
1336.642099922
 20
777.595388969
 30
0.0
 11
1343.403580706
 21
775.783655653
 31
0.0
  0
LINE
  8
0
  6
LTYPE1
 62
     2
 10
1345.352811639
 20
783.058284533
 30
0.0
 11
1343.403580706
 21
775.783655653
 31
0.0
  0
LINE
  8
7
  6
CONTINUOUS
 62
     2
 10
1319.917646349
 20
770.429835768
 30
0.0
 11
1283.117646349
 21
852.429835768
 31
0.0
  0
LINE
  8
7
  6
CONTINUOUS
 62
     2
 10
1319.917646349
 20
770.429835768
 30
0.0
 11
1318.324070101
 21
780.302044981
 31
0.0
  0
LINE
  8
7
  6
CONTINUOUS
 62
     2
 10
1319.917646349
 20
770.429835768
 30
0.0
 11
1313.601464229
 21
778.182631614
 31
0.0
  0
TEXT
  8
7
  6
CONTINUOUS
 62
     2
 10
1294.623822488
 20
735.829880312
 30
0.0
 40
15.0
  1
約１５゜
 50
82.5
 41
0.9
 51
0.0
  7
KANJI26
  0
LINE
  8
0
  6
LTYPE2
 62
     2
 10
1335.12233613
 20
826.401769884
 30
0.0
 11
1391.146034055
 21
811.390265268
 31
0.0
  0
LINE
  8
0
  6
LTYPE2
 62
     2
 10
1354.485316932
 20
836.846145139
 30
0.0
 11
1399.883830767
 21
824.681650019
 31
0.0
  0
LINE
  8
0
  6
CONTINUOUS
 62
     1
 10
1396.901970452
 20
830.553490367
 30
0.0
 11
1358.264937401
 21
840.906252171
 31
0.0
  0
CIRCLE
  8
0
  6
CONTINUOUS
 62
     1
 10
1370.861591703
 20
816.825465215
 30
0.0
 40
9.36
  0
LINE
  8
0
  6
LTYPE2
 62
     2
 10
1374.226239289
 20
829.382500957
 30
0.0
 11
1367.496944116
 21
804.268429473
 31
0.0
  0
CIRCLE
  8
0
  6
CONTINUOUS
 62
     2
 10
1370.861591703
 20
816.825465215
 30
0.0
 40
10.47
  0
LINE
  8
0
  6
LTYPE2
 62
     2
 10
1327.219064069
 20
789.178950395
 30
0.0
 11
1348.083061916
 21
783.588459021
 31
0.0
  0
LINE
  8
0
  6
CONTINUOUS
 62
     1
 10
1337.898077468
 20
784.214612637
 30
0.0
 11
1340.688470298
 21
794.628500452
 31
0.0
  0
LINE
  8
0
  6
CONTINUOUS
 62
     1
 10
1329.717737529
 20
784.594794802
 30
0.0
 11
1342.472663595
 21
832.196826929
 31
0.0
  0
LINE
  8
0
  6
LTYPE1
 62
     1
 10
1337.129708428
 20
781.34702034
 30
0.0
 11
1337.898077468
 21
784.214612637
 31
0.0
  0
LINE
  8
0
  6
LTYPE1
 62
     1
 10
1329.402301818
 20
783.417572701
 30
0.0
 11
1338.981066262
 21
780.850950504
 31
0.0
  0
LINE
  8
0
  6
LTYPE1
 62
     2
 10
1338.176141971
 20
783.320511835
 30
0.0
 11
1337.612671341
 21
781.217610818
 31
0.0
  0
LINE
  8
0
  6
CONTINUOUS
 62
     1
 10
1341.171433211
 20
794.499090929
 30
0.0
 11
1347.932913995
 21
792.687357613
 31
0.0
  0
LINE
  8
0
  6
CONTINUOUS
 62
     1
 10
1340.591877716
 20
794.654382356
 30
0.0
 11
1345.014398118
 21
803.045676255
 31
0.0
  0
LINE
  8
0
  6
CONTINUOUS
 62
     1
 10
1347.932913995
 20
792.687357613
 30
0.0
 11
1344.638898324
 21
780.393923767
 31
0.0
  0
LINE
  8
0
  6
CONTINUOUS
 62
     1
 10
1338.590377919
 20
817.707939534
 30
0.0
 11
1351.147413661
 21
814.343291948
 31
0.0
  0
LINE
  8
0
  6
CONTINUOUS
 62
     1
 10
1345.014398118
 20
803.045676255
 30
0.0
 11
1348.249636182
 21
815.119749083
 31
0.0
  0
LINE
  8
0
  6
CONTINUOUS
 62
     1
 10
1363.094566532
 20
839.612156945
 30
0.0
 11
1352.741804728
 21
800.975123894
 31
0.0
  0
LINE
  8
0
  6
CONTINUOUS
 62
     1
 10
1361.782218313
 20
834.714406712
 30
0.0
 11
1352.741804728
 21
800.975123894
 31
0.0
  0
LINE
  8
0
  6
CONTINUOUS
 62
     1
 10
1358.264937401
 20
840.906252171
 30
0.0
 11
1347.912175597
 21
802.269219119
 31
0.0
  0
LINE
  8
0
  6
CONTINUOUS
 62
     1
 10
1342.472663595
 20
832.196826929
 30
0.0
 11
1355.029699337
 21
828.832179342
 31
0.0
  0
LINE
  8
0
  6
LTYPE2
 62
     2
 10
1391.101569779
 20
795.769509111
 30
0.0
 11
1345.703055943
 21
807.93400423
 31
0.0
  0
LINE
  8
0
  6
CONTINUOUS
 62
     1
 10
1347.912175597
 20
802.269219119
 30
0.0
 11
1386.549208648
 21
791.916457315
 31
0.0
  0
LINE
  8
0
  6
CONTINUOUS
 62
     1
 10
1373.363707665
 20
808.390453911
 30
0.0
 11
1385.920743407
 21
805.025806324
 31
0.0
  0
LINE
  8
0
  6
CONTINUOUS
 62
     1
 10
1393.038267147
 20
831.588766547
 30
0.0
 11
1382.685505343
 21
792.951733496
 31
0.0
  0
LINE
  8
0
  6
CONTINUOUS
 62
     1
 10
1377.245993342
 20
822.879341305
 30
0.0
 11
1389.803029084
 21
819.514693719
 31
0.0
  0
LINE
  8
0
  6
CONTINUOUS
 62
     1
 10
1379.787727864
 20
793.728190631
 30
0.0
 11
1383.022965928
 21
805.802263459
 31
0.0
  0
LINE
  8
0
  6
CONTINUOUS
 62
     1
 10
1398.066656155
 20
834.900156585
 30
0.0
 11
1403.862211113
 21
833.347242314
 31
0.0
  0
TEXT
  8
7
  6
CONTINUOUS
 62
     2
 10
1216.517091025
 20
856.429835768
 30
0.0
 40
15.0
  1
ＬＳユニット組付位置
 50
0.0
 41
0.9
 51
0.0
  7
KANJI26
  0
LINE
  8
0
  6
LTYPE1
 62
     1
 10
1341.959337559
 20
780.052925115
 30
0.0
 11
1342.274773271
 21
781.230147215
 31
0.0
  0
LINE
  8
0
  6
LTYPE4
 62
     2
 10
1313.5
 20
772.149438925
 30
0.0
 11
1489.163497148
 21
725.080546724
 31
0.0
  0
LINE
  8
0
  6
CONTINUOUS
 62
     1
 10
1321.318852251
 20
757.113431523
 30
0.0
 11
1327.789328379
 21
781.26157718
 31
0.0
  0
LINE
  8
0
  6
CONTINUOUS
 62
     1
 10
1329.987355887
 20
752.75954612
 30
0.0
 11
1326.289338118
 21
738.958355917
 31
0.0
  0
LINE
  8
0
  6
LTYPE1
 62
     2
 10
1330.818671407
 20
755.862057877
 30
0.0
 11
1329.987355887
 21
752.75954612
 31
0.0
  0
LINE
  8
0
  6
CONTINUOUS
 62
     1
 10
1341.171433211
 20
794.499090929
 30
0.0
 11
1337.473415442
 21
780.697900726
 31
0.0
  0
LINE
  8
0
  6
CONTINUOUS
 62
     1
 10
1327.789328379
 20
781.26157718
 30
0.0
 11
1468.463435192
 21
773.073435005
 31
0.0
  0
LINE
  8
0
  6
CONTINUOUS
 62
     1
 10
1321.318852251
 20
757.113431523
 30
0.0
 11
1447.240273494
 21
693.86751725
 31
0.0
  0
LINE
  8
0
  6
CONTINUOUS
 62
     1
 10
1376.06729627
 20
729.615207926
 30
0.0
 11
1361.157068671
 21
673.969480977
 31
0.0
  0
LINE
  8
0
  6
CONTINUOUS
 62
     1
 10
1355.361513714
 20
675.522395247
 30
0.0
 11
1370.592451868
 21
732.365030286
 31
0.0
  0
LINE
  8
0
  6
CONTINUOUS
 62
     1
 10
1382.835718001
 20
778.057521547
 30
0.0
 11
1398.066656155
 21
834.900156585
 31
0.0
  0
LINE
  8
0
  6
CONTINUOUS
 62
     1
 10
1403.862211113
 20
833.347242314
 30
0.0
 11
1388.951983515
 21
777.701515365
 31
0.0
  0
LINE
  8
0
  6
LTYPE3
 62
     2
 10
1469.004464167
 20
678.5
 30
0.0
 11
1493.882308775
 21
771.34538006
 31
0.0
  0
LINE
  8
0
  6
CONTINUOUS
 62
     1
 10
1494.060469589
 20
766.21473031
 30
0.0
 11
1526.418984769
 21
757.544292299
 31
0.0
  0
LINE
  8
0
  6
CONTINUOUS
 62
     1
 10
1468.463435192
 20
773.073435005
 30
0.0
 11
1491.16269211
 21
766.991187446
 31
0.0
  0
LINE
  8
0
  6
CONTINUOUS
 62
     1
 10
1472.83730789
 20
687.008812554
 30
0.0
 11
1505.195823071
 21
678.338374544
 31
0.0
  0
LINE
  8
0
  6
CONTINUOUS
 62
     1
 10
1447.240273494
 20
693.86751725
 30
0.0
 11
1469.939530411
 21
687.78526969
 31
0.0
  0
LINE
  8
0
  6
CONTINUOUS
 62
     1
 10
1373.933936227
 20
719.721548203
 30
0.0
 11
1400.979859363
 21
712.47461494
 31
0.0
  0
ARC
  8
0
  6
CONTINUOUS
 62
     1
 10
1401.497497453
 20
714.406466593
 30
0.0
 40
2.0
 50
255.0
 51
345.0
  0
LINE
  8
0
  6
CONTINUOUS
 62
     1
 10
1392.051269384
 20
787.336356043
 30
0.0
 11
1419.09719252
 21
780.08942278
 31
0.0
  0
LINE
  8
0
  6
CONTINUOUS
 62
     1
 10
1403.429349106
 20
713.888828502
 30
0.0
 11
1403.897755312
 21
715.636944264
 31
0.0
  0
LINE
  8
0
  6
CONTINUOUS
 62
     1
 10
1389.461672308
 20
777.671848183
 30
0.0
 11
1392.051269384
 21
787.336356043
 31
0.0
  0
LINE
  8
0
  6
CONTINUOUS
 62
     1
 10
1373.933936227
 20
719.721548203
 30
0.0
 11
1376.550259183
 21
729.485798403
 31
0.0
  0
ARC
  8
0
  6
CONTINUOUS
 62
     1
 10
1435.545138047
 20
690.789562266
 30
0.0
 40
2.0
 50
165.0
 51
255.0
  0
LINE
  8
0
  6
CONTINUOUS
 62
     1
 10
1435.027499957
 20
688.857710613
 30
0.0
 11
1450.482313177
 21
684.716605891
 31
0.0
  0
ARC
  8
0
  6
CONTINUOUS
 62
     1
 10
1450.999951268
 20
686.648457544
 30
0.0
 40
2.0
 50
255.0
 51
345.0
  0
ARC
  8
0
  6
CONTINUOUS
 62
     1
 10
1475.328941507
 20
777.445485215
 30
0.0
 40
2.0
 50
345.0
 51
75.0
  0
LINE
  8
0
  6
CONTINUOUS
 62
     1
 10
1460.391766377
 20
783.518441589
 30
0.0
 11
1475.846579597
 21
779.377336868
 31
0.0
  0
ARC
  8
0
  6
CONTINUOUS
 62
     1
 10
1459.874128287
 20
781.586589937
 30
0.0
 40
2.0
 50
75.0
 51
165.0
  0
LINE
  8
0
  6
CONTINUOUS
 62
     1
 10
1455.721215372
 20
773.81511455
 30
0.0
 11
1457.942276634
 21
782.104228027
 31
0.0
  0
LINE
  8
0
  6
CONTINUOUS
 62
     1
 10
1433.613286394
 20
691.307200356
 30
0.0
 11
1435.834347656
 21
699.596313832
 31
0.0
  0
LINE
  8
0
  6
CONTINUOUS
 62
     1
 10
1475.707878889
 20
771.132292167
 30
0.0
 11
1477.26079316
 21
776.927847125
 31
0.0
  0
LINE
  8
0
  6
CONTINUOUS
 62
     1
 10
1452.93180292
 20
686.130819454
 30
0.0
 11
1454.484717191
 21
691.926374411
 31
0.0
  0
ARC
  8
0
  6
CONTINUOUS
 62
     1
 10
1482.0
 20
727.0
 30
0.0
 40
43.5
 50
254.999979886
 51
274.519344521
  0
ARC
  8
0
  6
CONTINUOUS
 62
     1
 10
1482.0
 20
727.0
 30
0.0
 40
43.5
 50
55.480655479
 51
75.000020114
  0
ARC
  8
0
  6
CONTINUOUS
 62
     1
 10
1482.0
 20
727.0
 30
0.0
 40
43.5
 50
308.024948378
 51
21.428579014
  0
LINE
  8
0
  6
CONTINUOUS
 62
     1
 10
1476.354926502
 20
773.547106733
 30
0.0
 11
1493.258613723
 21
769.017777393
 31
0.0
  0
LINE
  8
0
  6
CONTINUOUS
 62
     1
 10
1453.837669578
 20
689.511559846
 30
0.0
 11
1470.741356799
 21
684.982230506
 31
0.0
  0
LINE
  8
0
  6
CONTINUOUS
 62
     1
 10
1478.5
 20
774.8
 30
0.0
 11
1485.5
 21
774.8
 31
0.0
  0
LINE
  8
0
  6
CONTINUOUS
 62
     1
 10
1485.5
 20
777.679285709
 30
0.0
 11
1485.5
 21
774.8
 31
0.0
  0
LINE
  8
0
  6
CONTINUOUS
 62
     1
 10
1478.5
 20
777.679285709
 30
0.0
 11
1478.5
 21
774.8
 31
0.0
  0
ARC
  8
0
  6
CONTINUOUS
 62
     1
 10
1482.0
 20
727.0
 30
0.0
 40
50.8
 50
93.950673643
 51
96.2156359
  0
LINE
  8
0
  6
CONTINUOUS
 62
     1
 10
1525.146014301
 20
706.131088913
 30
0.0
 11
1521.646014301
 21
700.068911087
 31
0.0
  0
LINE
  8
0
  6
CONTINUOUS
 62
     1
 10
1527.63954887
 20
704.691446059
 30
0.0
 11
1525.146014301
 21
706.131088913
 31
0.0
  0
LINE
  8
0
  6
CONTINUOUS
 62
     1
 10
1524.13954887
 20
698.629268232
 30
0.0
 11
1521.646014301
 21
700.068911087
 31
0.0
  0
ARC
  8
0
  6
CONTINUOUS
 62
     1
 10
1482.0
 20
727.0
 30
0.0
 40
50.8
 50
299.109855557
 51
326.049326357
  0
ARC
  8
0
  6
CONTINUOUS
 62
     1
 10
1482.0
 20
727.0
 30
0.0
 40
50.8
 50
234.264523985
 51
290.955776731
  0
LINE
  8
0
  6
CONTINUOUS
 62
     1
 10
1487.14581554
 20
752.0
 30
0.0
 11
1491.16269211
 21
766.991187446
 31
0.0
  0
LINE
  8
0
  6
CONTINUOUS
 62
     1
 10
1490.251644081
 20
752.0
 30
0.0
 11
1494.060469589
 21
766.21473031
 31
0.0
  0
ARC
  8
0
  6
CONTINUOUS
 62
     1
 10
1482.0
 20
727.0
 30
0.0
 40
50.8
 50
38.812254591
 51
86.049326357
  0
ARC
  8
0
  6
CONTINUOUS
 62
     1
 10
1482.0
 20
727.0
 30
0.0
 40
50.8
 50
333.950673643
 51
31.450865162
  0
LINE
  8
0
  6
CONTINUOUS
 62
     1
 10
1520.0
 20
733.588315007
 30
0.0
 11
1526.418984769
 21
757.544292299
 31
0.0
  0
LINE
  8
0
  6
CONTINUOUS
 62
     1
 10
1469.939530411
 20
687.78526969
 30
0.0
 11
1473.748355919
 21
702.0
 31
0.0
  0
LINE
  8
0
  6
CONTINUOUS
 62
     1
 10
1472.83730789
 20
687.008812554
 30
0.0
 11
1476.85418446
 21
702.0
 31
0.0
  0
LINE
  8
0
  6
CONTINUOUS
 62
     1
 10
1505.195823071
 20
678.338374544
 30
0.0
 11
1512.339784081
 21
705.0
 31
0.0
  0
LINE
  8
0
  6
CONTINUOUS
 62
     1
 10
1437.0
 20
667.5
 30
0.0
 11
1437.0
 21
688.780765894
 31
0.0
  0
LINE
  8
0
  6
CONTINUOUS
 62
     1
 10
1423.0
 20
703.474953509
 30
0.0
 11
1423.0
 21
673.0
 31
0.0
  0
LINE
  8
0
  6
LTYPE1
 62
     2
 10
1405.0
 20
748.360720927
 30
0.0
 11
1405.0
 21
783.866754132
 31
0.0
  0
LINE
  8
0
  6
CONTINUOUS
 62
     1
 10
1428.445498266
 20
786.0
 30
0.0
 11
1536.0
 21
786.0
 31
0.0
  0
LINE
  8
0
  6
LTYPE4
 62
     2
 10
1292.2
 20
727.0
 30
0.0
 11
1572.956523564
 21
727.0
 31
0.0
  0
LINE
  8
0
  6
CONTINUOUS
 62
     2
 10
1308.166668052
 20
773.578500913
 30
0.0
 11
1302.166668052
 21
763.186196068
 31
0.0
  0
LINE
  8
0
  6
CONTINUOUS
 62
     2
 10
1308.166668052
 20
773.578500913
 30
0.0
 11
1308.166668052
 21
761.578500913
 31
0.0
  0
ARC
  8
0
  6
CONTINUOUS
 62
     2
 10
1482.0
 20
727.0
 30
0.0
 40
179.965507927
 50
165.0
 51
180.0
  0
LINE
  8
0
  6
CONTINUOUS
 62
     2
 10
1302.034492073
 20
727.0
 30
0.0
 11
1305.140320614
 21
738.591109915
 31
0.0
  0
LINE
  8
0
  6
CONTINUOUS
 62
     2
 10
1302.034492073
 20
727.0
 30
0.0
 11
1298.928663532
 21
738.591109915
 31
0.0
  0
LINE
  8
0
  6
CONTINUOUS
 62
     2
 10
1313.5
 20
772.149438925
 30
0.0
 11
1302.371113094
 21
775.131415184
 31
0.0
  0
LINE
  8
0
  6
CONTINUOUS
 62
     2
 10
1311.087188375
 20
695.5
 30
0.0
 11
1311.087188375
 21
591.5
 31
0.0
  0
LINE
  8
0
  6
CONTINUOUS
 62
     2
 10
1724.32
 20
706.5
 30
0.0
 11
1868.32
 21
706.5
 31
0.0
  0
TEXT
  8
0
  6
CONTINUOUS
 62
     2
 10
1736.92
 20
714.9
 30
12.0
 40
24.0
  1
特記事項
 50
0.0
 41
0.9
 51
0.0
  7
KANJI28
  0
TEXT
  8
0
  6
CONTINUOUS
 62
     2
 10
1730.92
 20
595.2
 30
1.8
 40
21.0
  1
３．ＬＳユニット
 50
0.0
 41
0.857142857
 51
0.0
  7
KANJI29
  0
TEXT
  8
0
  6
CONTINUOUS
 62
     2
 10
1730.92
 20
670.2
 30
1.8
 40
21.0
  1
１．運転時は必ずピストンロッドの回転防止を行って下さい。
 50
0.0
 41
0.857142857
 51
0.0
  7
KANJI29
  0
TEXT
  8
0
  6
CONTINUOUS
 62
     2
 10
1730.92
 20
632.7
 30
1.8
 40
21.0
  1
２．モートル：全閉自冷かご形３０分定格
 50
0.0
 41
0.857142857
 51
0.0
  7
KANJI29
  0
TEXT
  8
0
  6
CONTINUOUS
 62
     2
 10
1730.92
 20
502.2
 30
1.8
 40
21.0
  1
４．呼称ストロークは、機械的ストロークです。
 50
0.0
 41
0.857142857
 51
0.0
  7
KANJI29
  0
TEXT
  8
0
  6
CONTINUOUS
 62
     2
 10
1730.92
 20
535.2
 30
1.8
 40
21.0
  1
　　ストローク７００ｍｍ以上の場合２ロッド方式となります。
 50
0.0
 41
0.857142857
 51
0.0
  7
KANJI29
  0
TEXT
  8
0
  6
CONTINUOUS
 62
     2
 10
1730.92
 20
565.2
 30
1.8
 40
21.0
  1
　　リミットスイッチ：１ＬＳ１－Ｊｘ２ケ（山武）
 50
0.0
 41
0.857142857
 51
0.0
  7
KANJI29
  0
TEXT
  8
0
  6
CONTINUOUS
 62
     2
 10
1730.92
 20
465.24
 30
1.8
 40
21.0
  1
　　必ず、常用はストローク両端に必ず余裕を取って下さい。
 50
0.0
 41
0.857142857
 51
0.0
  7
KANJI29
  0
TEXT
  8
0
  6
CONTINUOUS
 62
     2
 10
1730.92
 20
427.464
 30
1.8
 40
21.0
  1
　　前後の推奨余裕寸法は、各々１０ｍｍです。
 50
0.0
 41
0.857142857
 51
0.0
  7
KANJI29
  0
LINE
  8
0
  6
CONTINUOUS
 62
     2
 10
138.0
 20
298.8
 30
0.0
 11
145.72740661
 21
296.729447639
 31
0.0
  0
LINE
  8
0
  6
CONTINUOUS
 62
     2
 10
138.0
 20
298.8
 30
0.0
 11
145.72740661
 21
300.870552361
 31
0.0
  0
LINE
  8
0
  6
CONTINUOUS
 62
     2
 10
138.0
 20
298.8
 30
0.0
 11
275.6
 21
298.8
 31
0.0
  0
LINE
  8
0
  6
CONTINUOUS
 62
     2
 10
275.6
 20
298.8
 30
0.0
 11
267.87259339
 21
300.870552361
 31
0.0
  0
LINE
  8
0
  6
CONTINUOUS
 62
     2
 10
275.6
 20
298.8
 30
0.0
 11
267.87259339
 21
296.729447639
 31
0.0
  0
LINE
  8
0
  6
CONTINUOUS
 62
     2
 10
275.6
 20
297.6
 30
0.0
 11
275.6
 21
294.8
 31
0.0
  0
LINE
  8
0
  6
CONTINUOUS
 62
     2
 10
275.6
 20
298.8
 30
0.0
 11
283.32740661
 21
296.729447639
 31
0.0
  0
LINE
  8
0
  6
CONTINUOUS
 62
     2
 10
275.6
 20
298.8
 30
0.0
 11
283.32740661
 21
300.870552361
 31
0.0
  0
LINE
  8
0
  6
CONTINUOUS
 62
     2
 10
275.6
 20
298.8
 30
0.0
 11
478.0
 21
298.8
 31
0.0
  0
LINE
  8
0
  6
CONTINUOUS
 62
     2
 10
478.0
 20
298.8
 30
0.0
 11
470.27259339
 21
300.870552361
 31
0.0
  0
LINE
  8
0
  6
CONTINUOUS
 62
     2
 10
478.0
 20
298.8
 30
0.0
 11
470.27259339
 21
296.729447639
 31
0.0
  0
LINE
  8
0
  6
CONTINUOUS
 62
     2
 10
275.6
 20
272.470552361
 30
0.0
 11
267.87259339
 21
274.541104722
 31
0.0
  0
LINE
  8
0
  6
CONTINUOUS
 62
     2
 10
275.6
 20
272.470552361
 30
0.0
 11
267.87259339
 21
270.4
 31
0.0
  0
LINE
  8
0
  6
CONTINUOUS
 62
     2
 10
263.6
 20
272.470552361
 30
0.0
 11
275.6
 21
272.470552361
 31
0.0
  0
LINE
  8
0
  6
CONTINUOUS
 62
     2
 10
275.6
 20
272.470552361
 30
0.0
 11
296.4
 21
272.470552361
 31
0.0
  0
LINE
  8
0
  6
CONTINUOUS
 62
     2
 10
296.4
 20
272.470552361
 30
0.0
 11
304.12740661
 21
270.4
 31
0.0
  0
LINE
  8
0
  6
CONTINUOUS
 62
     2
 10
296.4
 20
272.470552361
 30
0.0
 11
304.12740661
 21
274.541104722
 31
0.0
  0
LINE
  8
0
  6
CONTINUOUS
 62
     2
 10
138.0
 20
247.2
 30
0.0
 11
138.0
 21
241.2
 31
0.0
  0
LINE
  8
0
  6
CONTINUOUS
 62
     2
 10
138.0
 20
245.2
 30
0.0
 11
145.72740661
 21
243.129447639
 31
0.0
  0
LINE
  8
0
  6
CONTINUOUS
 62
     2
 10
138.0
 20
245.2
 30
0.0
 11
145.72740661
 21
247.270552361
 31
0.0
  0
LINE
  8
0
  6
CONTINUOUS
 62
     2
 10
138.0
 20
245.2
 30
0.0
 11
296.4
 21
245.2
 31
0.0
  0
LINE
  8
0
  6
CONTINUOUS
 62
     2
 10
296.4
 20
245.2
 30
0.0
 11
288.67259339
 21
247.270552361
 31
0.0
  0
LINE
  8
0
  6
CONTINUOUS
 62
     2
 10
296.4
 20
245.2
 30
0.0
 11
288.67259339
 21
243.129447639
 31
0.0
  0
LINE
  8
0
  6
CONTINUOUS
 62
     2
 10
296.4
 20
246.4
 30
0.0
 11
296.4
 21
241.2
 31
0.0
  0
LINE
  8
0
  6
CONTINUOUS
 62
     2
 10
296.4
 20
245.2
 30
0.0
 11
304.12740661
 21
243.129447639
 31
0.0
  0
LINE
  8
0
  6
CONTINUOUS
 62
     2
 10
296.4
 20
245.2
 30
0.0
 11
304.12740661
 21
247.270552361
 31
0.0
  0
LINE
  8
0
  6
CONTINUOUS
 62
     2
 10
478.0
 20
241.6
 30
0.0
 11
478.0
 21
241.2
 31
0.0
  0
LINE
  8
0
  6
CONTINUOUS
 62
     2
 10
138.0
 20
216.0
 30
0.0
 11
145.72740661
 21
213.929447639
 31
0.0
  0
LINE
  8
0
  6
CONTINUOUS
 62
     2
 10
138.0
 20
216.0
 30
0.0
 11
145.72740661
 21
218.070552361
 31
0.0
  0
LINE
  8
0
  6
CONTINUOUS
 62
     2
 10
138.0
 20
216.0
 30
0.0
 11
455.6
 21
216.0
 31
0.0
  0
LINE
  8
0
  6
CONTINUOUS
 62
     2
 10
455.6
 20
216.0
 30
0.0
 11
447.87259339
 21
218.070552361
 31
0.0
  0
LINE
  8
0
  6
CONTINUOUS
 62
     2
 10
455.6
 20
216.0
 30
0.0
 11
447.87259339
 21
213.929447639
 31
0.0
  0
LINE
  8
0
  6
CONTINUOUS
 62
     2
 10
455.6
 20
216.8
 30
0.0
 11
455.6
 21
212.0
 31
0.0
  0
LINE
  8
0
  6
CONTINUOUS
 62
     2
 10
455.6
 20
216.0
 30
0.0
 11
447.87259339
 21
218.070552361
 31
0.0
  0
LINE
  8
0
  6
CONTINUOUS
 62
     2
 10
455.6
 20
216.0
 30
0.0
 11
447.87259339
 21
213.929447639
 31
0.0
  0
LINE
  8
0
  6
CONTINUOUS
 62
     2
 10
443.6
 20
216.0
 30
0.0
 11
455.6
 21
216.0
 31
0.0
  0
LINE
  8
0
  6
CONTINUOUS
 62
     2
 10
455.6
 20
216.0
 30
0.0
 11
478.0
 21
216.0
 31
0.0
  0
LINE
  8
0
  6
CONTINUOUS
 62
     2
 10
478.0
 20
216.0
 30
0.0
 11
485.72740661
 21
213.929447639
 31
0.0
  0
LINE
  8
0
  6
CONTINUOUS
 62
     2
 10
478.0
 20
216.0
 30
0.0
 11
485.72740661
 21
218.070552361
 31
0.0
  0
LINE
  8
0
  6
CONTINUOUS
 62
     2
 10
138.0
 20
309.6
 30
0.0
 11
138.0
 21
294.8
 31
0.0
  0
LINE
  8
0
  6
CONTINUOUS
 62
     2
 10
478.0
 20
309.6
 30
0.0
 11
478.0
 21
294.8
 31
0.0
  0
LINE
  8
0
  6
CONTINUOUS
 62
     2
 10
275.6
 20
298.4
 30
0.0
 11
275.6
 21
309.6
 31
0.0
  0
LINE
  8
0
  6
CONTINUOUS
 62
     2
 10
296.4
 20
285.270552361
 30
0.0
 11
296.4
 21
268.470552361
 31
0.0
  0
LINE
  8
0
  6
CONTINUOUS
 62
     2
 10
138.0
 20
294.8
 30
0.0
 11
138.0
 21
202.8
 31
0.0
  0
LINE
  8
0
  6
CONTINUOUS
 62
     2
 10
478.0
 20
298.8
 30
0.0
 11
478.0
 21
204.0
 31
0.0
  0
LINE
  8
0
  6
CONTINUOUS
 62
     2
 10
296.4
 20
272.470552361
 30
0.0
 11
296.4
 21
236.0
 31
0.0
  0
LINE
  8
0
  6
CONTINUOUS
 62
     2
 10
275.6
 20
298.8
 30
0.0
 11
275.6
 21
263.2
 31
0.0
  0
TEXT
  8
0
  6
CONTINUOUS
 62
     3
 10
179.8
 20
300.8
 30
0.0
 40
15.0
  1
ｍｉｎ．Ｌ
 50
0.0
 41
0.9
 51
0.0
  7
KANJI26
  0
TEXT
  8
0
  6
CONTINUOUS
 62
     3
 10
333.6
 20
300.8
 30
0.0
 40
15.0
  1
機械的ストローク
 50
0.0
 41
0.9
 51
0.0
  7
KANJI26
  0
TEXT
  8
0
  6
CONTINUOUS
 62
     3
 10
308.4
 20
274.470552361
 30
0.0
 40
15.0
  1
余裕
 50
0.0
 41
0.9
 51
0.0
  7
KANJI26
  0
TEXT
  8
0
  6
CONTINUOUS
 62
     3
 10
190.2
 20
247.2
 30
0.0
 40
15.0
  1
常用ｍｉｎ
 50
0.0
 41
0.9
 51
0.0
  7
KANJI26
  0
TEXT
  8
0
  6
CONTINUOUS
 62
     3
 10
269.8
 20
218.0
 30
0.0
 40
15.0
  1
常用ｍａｘ
 50
0.0
 41
0.9
 51
0.0
  7
KANJI26
  0
TEXT
  8
0
  6
CONTINUOUS
 62
     3
 10
490.0
 20
218.0
 30
0.0
 40
15.0
  1
余裕
 50
0.0
 41
0.9
 51
0.0
  7
KANJI26
  0
LINE
  8
0
  6
CONTINUOUS
 62
     2
 10
296.4
 20
272.470552361
 30
0.0
 11
336.5
 21
272.470552361
 31
0.0
  0
LINE
  8
0
  6
CONTINUOUS
 62
     2
 10
478.0
 20
216.0
 30
0.0
 11
520.5
 21
216.0
 31
0.0
  0
LINE
  8
0
  6
CONTINUOUS
 62
     2
 10
303.632591263
 20
351.371507451
 30
0.0
 11
717.632591263
 21
351.371507451
 31
0.0
  0
TEXT
  8
0
  6
CONTINUOUS
 62
     2
 10
305.632591263
 20
359.371507451
 30
0.0
 40
20.0
  1
推力リミッタの作動値は、約６００ｋｇ（設計値）
 50
0.0
 41
0.925
 51
0.0
  7
KANJI30
  0
TEXT
  8
0
  6
CONTINUOUS
 62
     2
 10
609.979258263
 20
1128.988190451
 30
0.0
 40
20.0
  1
ブレーキ解放装置はありません。
 50
0.0
 41
0.925
 51
0.0
  7
KANJI30
  0
TEXT
  8
0
  6
CONTINUOUS
 62
     2
 10
610.979258263
 20
1103.988190451
 30
0.0
 40
20.0
  1
そのまま手動操作をして下さい．
 50
0.0
 41
0.925
 51
0.0
  7
KANJI30
  0
ARC
  8
0
  6
CONTINUOUS
 62
     2
 10
217.0
 20
859.5
 30
0.0
 40
20.0
 50
231.952957468
 51
156.801409486
  0
LINE
  8
0
  6
CONTINUOUS
 62
     2
 10
198.6170994
 20
867.378385972
 30
0.0
 11
200.91179211
 21
877.215824749
 31
0.0
  0
TEXT
  8
0
  6
CONTINUOUS
 62
     2
 10
136.6170994
 20
850.378385972
 30
0.0
 40
15.0
  1
前進方向
 50
0.0
 41
0.9
 51
0.0
  7
KANJI26
  0
LINE
  8
0
  6
CONTINUOUS
 62
     2
 10
198.6170994
 20
867.378385972
 30
0.0
 11
206.885260778
 21
872.285722507
 31
0.0
  0
LINE
  8
0
  6
CONTINUOUS
 62
     1
 10
368.5
 20
802.0
 30
0.0
 11
325.5
 21
802.0
 31
0.0
  0
TEXT
  8
0
  6
CONTINUOUS
 62
     2
 10
330.5
 20
791.0
 30
5.0
 40
20.0
  1
銘板
 50
270.0
 41
0.925
 51
0.0
  7
KANJI31
  0
LINE
  8
0
  6
CONTINUOUS
 62
     1
 10
325.5
 20
802.0
 30
0.0
 11
325.5
 21
732.0
 31
0.0
  0
LINE
  8
0
  6
CONTINUOUS
 62
     1
 10
368.5
 20
732.0
 30
0.0
 11
325.5
 21
732.0
 31
0.0
  0
LINE
  8
0
  6
CONTINUOUS
 62
     1
 10
368.5
 20
802.0
 30
0.0
 11
368.5
 21
732.0
 31
0.0
  0
TEXT
  8
0
  6
CONTINUOUS
 62
     2
 10
110.778726364
 20
1096.112221811
 30
0.0
 40
15.6
  1
モーター結線図
 50
0.0
 41
0.925
 51
0.0
  7
KANJI32
  0
LINE
  8
0
  6
LTYPE3
 62
     6
 10
105.683333
 20
1216.733317
 30
0.0
 11
105.683333
 21
1200.332460936
 31
0.0
  0
LINE
  8
0
  6
LTYPE3
 62
     6
 10
236.080262694
 20
1216.733317
 30
0.0
 11
105.683333
 21
1216.733317
 31
0.0
  0
TEXT
  8
0
  6
CONTINUOUS
 62
     6
 10
88.148590591
 20
1203.248168681
 30
1.093390404
 40
10.933904043
  1
Ｕ
 50
0.0
 41
0.9
 51
0.0
  7
KANJI33
  0
CIRCLE
  8
0
  6
CONTINUOUS
 62
     6
 10
105.683333
 20
1197.052289723
 30
0.0
 40
4.373561617
  0
LINE
  8
0
  6
CONTINUOUS
 62
     6
 10
100.65854931
 20
1192.027506033
 30
0.0
 11
110.863526417
 21
1202.23248314
 31
0.0
  0
TEXT
  8
0
  6
CONTINUOUS
 62
     6
 10
115.928806047
 20
1225.399448352
 30
1.518597784
 40
15.185977837
  1
エコノストップモータ
 50
0.0
 41
0.66671875
 51
0.0
  7
KANJI34
  0
CIRCLE
  8
0
  6
CONTINUOUS
 62
     6
 10
150.512339575
 20
1171.539846957
 30
0.0
 40
18.223173404
  0
TEXT
  8
0
  6
CONTINUOUS
 62
     6
 10
142.858606745
 20
1162.792723723
 30
1.82231734
 40
18.223173404
  1
Ｍ
 50
0.0
 41
0.9
 51
0.0
  7
KANJI35
  0
LINE
  8
0
  6
CONTINUOUS
 62
     6
 10
126.457750681
 20
1146.027404191
 30
0.0
 11
137.756118192
 21
1159.148089042
 31
0.0
  0
LINE
  8
0
  6
CONTINUOUS
 62
     6
 10
126.457750681
 20
1197.052289723
 30
0.0
 11
137.756118192
 21
1183.931604872
 31
0.0
  0
LINE
  8
0
  6
CONTINUOUS
 62
     6
 10
126.457750681
 20
1197.052289723
 30
0.0
 11
110.056894617
 21
1197.052289723
 31
0.0
  0
LINE
  8
0
  6
CONTINUOUS
 62
     6
 10
132.653629639
 20
1171.539846957
 30
0.0
 11
110.056894617
 21
1171.539846957
 31
0.0
  0
LINE
  8
0
  6
CONTINUOUS
 62
     6
 10
126.457750681
 20
1146.027404191
 30
0.0
 11
110.056894617
 21
1146.027404191
 31
0.0
  0
TEXT
  8
0
  6
CONTINUOUS
 62
     6
 10
89.241980995
 20
1177.371262446
 30
1.093390404
 40
10.933904043
  1
Ｖ
 50
0.0
 41
0.9
 51
0.0
  7
KANJI33
  0
TEXT
  8
0
  6
CONTINUOUS
 62
     6
 10
90.335371399
 20
1151.494356212
 30
1.093390404
 40
10.933904043
  1
Ｗ
 50
0.0
 41
0.9
 51
0.0
  7
KANJI33
  0
CIRCLE
  8
0
  6
CONTINUOUS
 62
     6
 10
105.683333
 20
1171.539846957
 30
0.0
 40
4.373561617
  0
LINE
  8
0
  6
CONTINUOUS
 62
     6
 10
100.65854931
 20
1166.515063267
 30
0.0
 11
110.863526417
 21
1176.720040374
 31
0.0
  0
LINE
  8
0
  6
LTYPE3
 62
     6
 10
105.683333
 20
1193.043191574
 30
0.0
 11
105.683333
 21
1174.82001817
 31
0.0
  0
CIRCLE
  8
0
  6
CONTINUOUS
 62
     6
 10
105.683333
 20
1146.027404191
 30
0.0
 40
4.373561617
  0
LINE
  8
0
  6
CONTINUOUS
 62
     6
 10
100.65854931
 20
1141.002620501
 30
0.0
 11
110.863526417
 21
1151.207597607
 31
0.0
  0
LINE
  8
0
  6
LTYPE3
 62
     6
 10
105.683333
 20
1167.530748808
 30
0.0
 11
105.683333
 21
1150.400965808
 31
0.0
  0
LINE
  8
0
  6
LTYPE3
 62
     6
 10
236.080262694
 20
1121.321584891
 30
0.0
 11
105.683333
 21
1121.321584891
 31
0.0
  0
LINE
  8
0
  6
LTYPE3
 62
     6
 10
105.683333
 20
1141.653842574
 30
0.0
 11
105.683333
 21
1121.321584891
 31
0.0
  0
TEXT
  8
0
  6
CONTINUOUS
 62
     6
 10
176.753709277
 20
1163.284749405
 30
1.457853872
 40
14.578538724
  1
Ｂ
 50
0.0
 41
0.9
 51
0.0
  7
KANJI36
  0
CIRCLE
  8
0
  6
CONTINUOUS
 62
     6
 10
183.314051703
 20
1171.539846957
 30
0.0
 40
14.578538724
  0
LINE
  8
0
  6
LTYPE3
 62
     6
 10
236.080262694
 20
1121.321584891
 30
0.0
 11
236.080262694
 21
1216.733317
 31
0.0
  0
LINE
  8
0
  6
CONTINUOUS
 62
     6
 10
351.629425053
 20
1631.447759827
 30
0.0
 11
119.584646507
 21
1631.447759827
 31
0.0
  0
TEXT
  8
0
  6
CONTINUOUS
 62
     6
 10
123.493517202
 20
1634.64592676
 30
1.0647
 40
11.661
  1
ＬＳ０１　　　：推力リミッタ（前進時過負荷用）
 50
0.0
 41
0.822608696
 51
0.0
  7
KANJI37
  0
TEXT
  8
0
  6
CONTINUOUS
 62
     6
 10
123.493517202
 20
1607.18342676
 30
1.0647
 40
11.661
  1
ＬＳ０２　　　：推力リミッタ（後進時過負荷用）
 50
0.0
 41
0.822608696
 51
0.0
  7
KANJI37
  0
LINE
  8
0
  6
CONTINUOUS
 62
     3
 10
351.629425053
 20
1603.985259827
 30
0.0
 11
119.584646507
 21
1603.985259827
 31
0.0
  0
LINE
  8
0
  6
CONTINUOUS
 62
     6
 10
351.629425053
 20
1603.985259827
 30
0.0
 11
119.584646507
 21
1603.985259827
 31
0.0
  0
TEXT
  8
0
  6
CONTINUOUS
 62
     6
 10
377.212228
 20
1628.900410728
 30
1.232517
 40
13.182
  1
電気定格　　　
 50
0.0
 41
0.85
 51
0.0
  7
KANJI38
  0
TEXT
  8
0
  6
CONTINUOUS
 62
     6
 10
390.013715102
 20
1598.326958599
 30
0.0
 40
11.8638
  1
ＤＣ１２５Ｖ　０．６Ａ　，ＤＣ２５０Ｖ　０．３Ａ　
 50
0.0
 41
0.726495726
 51
0.0
  7
KANJI39
  0
TEXT
  8
0
  6
CONTINUOUS
 62
     6
 10
384.757132178
 20
1646.661726126
 30
0.0
 40
55.0
  1
｝
 50
0.0
 41
0.440318182
 51
0.0
  7
KANJI40
  0
LINE
  8
0
  6
LTYPE3
 62
     6
 10
103.42
 20
1358.3
 30
0.0
 11
624.02
 21
1358.3
 31
0.0
  0
LINE
  8
0
  6
LTYPE3
 62
     6
 10
624.02
 20
1358.3
 30
0.0
 11
624.02
 21
1661.4
 31
0.0
  0
LINE
  8
0
  6
LTYPE3
 62
     6
 10
624.02
 20
1661.4
 30
0.0
 11
103.42
 21
1661.4
 31
0.0
  0
LINE
  8
0
  6
LTYPE3
 62
     6
 10
103.42
 20
1661.4
 30
0.0
 11
103.42
 21
1358.3
 31
0.0
  0
TEXT
  8
0
  6
CONTINUOUS
 62
     6
 10
288.632791539
 20
1376.32382165
 30
0.0
 40
17.740702234
  1
端子台　接続図
 50
0.0
 41
0.880962996
 51
0.0
  7
KANJI41
  0
LINE
  8
0
  6
CONTINUOUS
 62
     2
 10
323.597373465
 20
1427.328121884
 30
0.0
 11
323.597373465
 21
1404.549155128
 31
0.0
  0
LINE
  8
0
  6
CONTINUOUS
 62
     2
 10
350.17283468
 20
1427.328121884
 30
0.0
 11
350.17283468
 21
1404.549155128
 31
0.0
  0
LINE
  8
0
  6
CONTINUOUS
 62
     2
 10
376.748295894
 20
1427.328121884
 30
0.0
 11
376.748295894
 21
1404.549155128
 31
0.0
  0
LINE
  8
0
  6
CONTINUOUS
 62
     2
 10
403.323757109
 20
1427.328121884
 30
0.0
 11
403.323757109
 21
1404.549155128
 31
0.0
  0
CIRCLE
  8
0
  6
CONTINUOUS
 62
     6
 10
395.404269667
 20
1450.807921517
 30
0.0
 40
4.100214016
  0
LINE
  8
0
  6
CONTINUOUS
 62
     6
 10
391.304055651
 20
1450.807921517
 30
0.0
 11
390.036026502
 21
1450.807921517
 31
0.0
  0
LINE
  8
0
  6
CONTINUOUS
 62
     6
 10
416.358027433
 20
1464.494562742
 30
0.0
 11
412.443558096
 21
1442.159507138
 31
0.0
  0
LINE
  8
0
  6
CONTINUOUS
 62
     6
 10
411.631699663
 20
1465.282284037
 30
0.0
 11
407.716922494
 21
1442.947279739
 31
0.0
  0
LINE
  8
0
  6
CONTINUOUS
 62
     6
 10
412.443558096
 20
1442.159507138
 30
0.0
 11
407.716922494
 21
1442.947279739
 31
0.0
  0
CIRCLE
  8
0
  6
CONTINUOUS
 62
     6
 10
416.611487717
 20
1441.339464335
 30
0.0
 40
4.100214016
  0
LINE
  8
0
  6
CONTINUOUS
 62
     6
 10
416.611487717
 20
1437.239250319
 30
0.0
 11
416.611487717
 21
1427.328121884
 31
0.0
  0
LINE
  8
0
  6
CONTINUOUS
 62
     6
 10
390.036026502
 20
1450.807921517
 30
0.0
 11
390.036026502
 21
1427.328121884
 31
0.0
  0
LINE
  8
0
  6
CONTINUOUS
 62
     6
 10
363.460565287
 20
1427.328121884
 30
0.0
 11
363.460565287
 21
1481.033332504
 31
0.0
  0
LINE
  8
0
  6
CONTINUOUS
 62
     6
 10
283.987641926
 20
1464.494562742
 30
0.0
 11
287.902111263
 21
1442.159507138
 31
0.0
  0
LINE
  8
0
  6
CONTINUOUS
 62
     6
 10
288.713969696
 20
1465.282284037
 30
0.0
 11
292.628746865
 21
1442.947279739
 31
0.0
  0
LINE
  8
0
  6
CONTINUOUS
 62
     6
 10
287.902111263
 20
1442.159507138
 30
0.0
 11
292.628746865
 21
1442.947279739
 31
0.0
  0
CIRCLE
  8
0
  6
CONTINUOUS
 62
     6
 10
283.734181642
 20
1441.339464335
 30
0.0
 40
4.100214016
  0
CIRCLE
  8
0
  6
CONTINUOUS
 62
     6
 10
304.941399692
 20
1450.807921517
 30
0.0
 40
4.100214016
  0
LINE
  8
0
  6
CONTINUOUS
 62
     6
 10
309.041613708
 20
1450.807921517
 30
0.0
 11
310.309642857
 21
1450.807921517
 31
0.0
  0
LINE
  8
0
  6
CONTINUOUS
 62
     6
 10
283.734181642
 20
1437.239250319
 30
0.0
 11
283.734181642
 21
1427.328121884
 31
0.0
  0
LINE
  8
0
  6
CONTINUOUS
 62
     6
 10
310.309642857
 20
1450.807921517
 30
0.0
 11
310.309642857
 21
1427.328121884
 31
0.0
  0
LINE
  8
0
  6
CONTINUOUS
 62
     6
 10
336.885104072
 20
1427.328121884
 30
0.0
 11
336.885104072
 21
1481.033332504
 31
0.0
  0
LINE
  8
0
  6
CONTINUOUS
 62
     2
 10
429.899218324
 20
1427.328121884
 30
0.0
 11
429.899218324
 21
1404.549155128
 31
0.0
  0
LINE
  8
0
  6
CONTINUOUS
 62
     2
 10
270.446451035
 20
1427.328121884
 30
0.0
 11
270.446451035
 21
1404.549155128
 31
0.0
  0
LINE
  8
0
  6
CONTINUOUS
 62
     2
 10
297.02191225
 20
1427.328121884
 30
0.0
 11
297.02191225
 21
1404.549155128
 31
0.0
  0
LINE
  8
0
  6
CONTINUOUS
 62
     6
 10
416.611487717
 20
1481.033332504
 30
0.0
 11
363.460565287
 21
1481.033332504
 31
0.0
  0
CIRCLE
  8
0
  6
CONTINUOUS
 62
     6
 10
416.611487717
 20
1468.68941042
 30
0.0
 40
4.100214016
  0
LINE
  8
0
  6
CONTINUOUS
 62
     6
 10
416.358027433
 20
1464.494562742
 30
0.0
 11
411.631699663
 21
1465.282284037
 31
0.0
  0
LINE
  8
0
  6
CONTINUOUS
 62
     6
 10
416.611487717
 20
1472.789624436
 30
0.0
 11
416.611487717
 21
1481.033332504
 31
0.0
  0
CIRCLE
  8
0
  6
CONTINUOUS
 62
     6
 10
283.734181642
 20
1468.68941042
 30
0.0
 40
4.100214016
  0
LINE
  8
0
  6
CONTINUOUS
 62
     6
 10
283.987641926
 20
1464.494562742
 30
0.0
 11
288.713969696
 21
1465.282284037
 31
0.0
  0
LINE
  8
0
  6
CONTINUOUS
 62
     6
 10
283.734181642
 20
1472.789624436
 30
0.0
 11
283.734181642
 21
1481.033332504
 31
0.0
  0
LINE
  8
0
  6
CONTINUOUS
 62
     6
 10
336.885104072
 20
1481.033332504
 30
0.0
 11
283.734181642
 21
1481.033332504
 31
0.0
  0
TEXT
  8
0
  6
CONTINUOUS
 62
     6
 10
288.4972152
 20
1485.552473273
 30
0.819
 40
11.7
  1
ＬＳ０１
 50
0.0
 41
0.8
 51
0.0
  7
KANJI42
  0
TEXT
  8
0
  6
CONTINUOUS
 62
     6
 10
371.117398844
 20
1485.552473273
 30
0.819
 40
11.7
  1
ＬＳ０２
 50
0.0
 41
0.8
 51
0.0
  7
KANJI42
  0
TEXT
  8
0
  6
CONTINUOUS
 62
     3
 10
116.308775989
 20
1408.345649587
 30
0.0
 40
15.0
  1
　　　　　　　　　　　　　　　　　　１　　２　　　３　　　４　　　５　　　６
 50
0.0
 41
0.911
 51
0.0
  7
KANJI43
  0
LINE
  8
0
  6
CONTINUOUS
 62
     2
 10
270.446451035
 20
1427.328121884
 30
0.0
 11
429.899218324
 21
1427.328121884
 31
0.0
  0
LINE
  8
0
  6
CONTINUOUS
 62
     2
 10
270.446451035
 20
1404.549155128
 30
0.0
 11
429.899218324
 21
1404.549155128
 31
0.0
  0
TEXT
  8
0
  6
CONTINUOUS
 62
     6
 10
262.132791539
 20
1515.32382165
 30
0.0
 40
17.740702234
  1
推力リミッタ端子台配列
 50
0.0
 41
0.880962996
 51
0.0
  7
KANJI41
  0
TEXT
  8
0
  6
CONTINUOUS
 62
     6
 10
390.013715102
 20
1614.071931782
 30
0.0
 40
11.8638
  1
ＡＣ１００Ｖ　１２５Ｖ　２５０Ｖ　－１０Ａ
 50
0.0
 41
0.726495726
 51
0.0
  7
KANJI39
  0
TEXT
  8
0
  6
CONTINUOUS
 62
     2
 10
1050.133
 20
1533.99
 30
1.617
 40
16.17
  1
注意：サーマルリレー等の選定は、上記の値で選定して下さい。
 50
0.0
 41
0.9
 51
0.0
  7
KANJI44
  0
LINE
  8
0
  6
CONTINUOUS
 62
     2
 10
1040.893
 20
1529.37
 30
0.0
 11
1510.22
 21
1529.37
 31
0.0
  0
LINE
  8
0
  6
CONTINUOUS
 62
     1
 10
1442.3
 20
616.0
 30
0.0
 11
1431.7
 21
616.0
 31
0.0
  0
ARC
  8
0
  6
CONTINUOUS
 62
     1
 10
1437.4
 20
617.0
 30
0.0
 40
5.0
 50
272.3
 51
348.5
  0
ARC
  8
0
  6
CONTINUOUS
 62
     1
 10
1436.6
 20
617.0
 30
0.0
 40
5.0
 50
191.5
 51
267.7
  0
LINE
  8
0
  6
CONTINUOUS
 62
     1
 10
1437.6
 20
612.0
 30
0.0
 11
1436.4
 21
612.0
 31
0.0
  0
LINE
  8
0
  6
LTYPE5
 62
     2
 10
1437.0
 20
608.6
 30
0.0
 11
1437.0
 21
622.0
 31
0.0
  0
LINE
  8
0
  6
CONTINUOUS
 62
     1
 10
1532.3
 20
616.0
 30
0.0
 11
1521.7
 21
616.0
 31
0.0
  0
ARC
  8
0
  6
CONTINUOUS
 62
     1
 10
1527.4
 20
617.0
 30
0.0
 40
5.0
 50
272.3
 51
348.5
  0
ARC
  8
0
  6
CONTINUOUS
 62
     1
 10
1526.6
 20
617.0
 30
0.0
 40
5.0
 50
191.5
 51
267.7
  0
LINE
  8
0
  6
CONTINUOUS
 62
     1
 10
1527.6
 20
612.0
 30
0.0
 11
1526.4
 21
612.0
 31
0.0
  0
LINE
  8
0
  6
LTYPE5
 62
     2
 10
1527.0
 20
608.6
 30
0.0
 11
1527.0
 21
622.0
 31
0.0
  0
LINE
  8
0
  6
CONTINUOUS
 62
     1
 10
490.2
 20
616.1
 30
0.0
 11
479.6
 21
616.1
 31
0.0
  0
ARC
  8
0
  6
CONTINUOUS
 62
     1
 10
485.3
 20
617.1
 30
0.0
 40
5.0
 50
272.3
 51
348.5
  0
ARC
  8
0
  6
CONTINUOUS
 62
     1
 10
484.5
 20
617.1
 30
0.0
 40
5.0
 50
191.5
 51
267.7
  0
LINE
  8
0
  6
CONTINUOUS
 62
     1
 10
485.5
 20
612.1
 30
0.0
 11
484.3
 21
612.1
 31
0.0
  0
LINE
  8
0
  6
LTYPE5
 62
     2
 10
484.9
 20
608.7
 30
0.0
 11
484.9
 21
622.1
 31
0.0
  0
LINE
  8
0
  6
CONTINUOUS
 62
     1
 10
601.0
 20
616.1
 30
0.0
 11
590.4
 21
616.1
 31
0.0
  0
ARC
  8
0
  6
CONTINUOUS
 62
     1
 10
596.1
 20
617.1
 30
0.0
 40
5.0
 50
272.3
 51
348.5
  0
ARC
  8
0
  6
CONTINUOUS
 62
     1
 10
595.3
 20
617.1
 30
0.0
 40
5.0
 50
191.5
 51
267.7
  0
LINE
  8
0
  6
CONTINUOUS
 62
     1
 10
596.3
 20
612.1
 30
0.0
 11
595.1
 21
612.1
 31
0.0
  0
LINE
  8
0
  6
LTYPE5
 62
     2
 10
595.7
 20
608.7
 30
0.0
 11
595.7
 21
622.1
 31
0.0
  0
LINE
  8
0
  6
CONTINUOUS
 62
     2
 10
1138.7
 20
599.3
 30
0.0
 11
1124.211112606
 21
603.182285677
 31
0.0
  0
LINE
  8
0
  6
CONTINUOUS
 62
     2
 10
1138.7
 20
599.3
 30
0.0
 11
1124.211112606
 21
595.417714323
 31
0.0
  0
LINE
  8
0
  6
CONTINUOUS
 62
     2
 10
1138.7
 20
599.3
 30
0.0
 11
1089.5
 21
599.3
 31
0.0
  0
TEXT
  8
0
  6
CONTINUOUS
 62
     3
 10
1097.9
 20
611.3
 30
0.0
 40
24.0
  1
前進
 50
0.0
 41
0.925
 51
0.0
  7
KANJI45
  0
LINE
  8
0
  6
CONTINUOUS
 62
     2
 10
1181.32
 20
727.0
 30
0.0
 11
1178.214171459
 21
715.408890085
 31
0.0
  0
LINE
  8
0
  6
CONTINUOUS
 62
     2
 10
1181.32
 20
727.0
 30
0.0
 11
1184.425828541
 21
715.408890085
 31
0.0
  0
LINE
  8
0
  6
CONTINUOUS
 62
     2
 10
1181.32
 20
727.0
 30
0.0
 11
1181.32
 21
561.0
 31
0.0
  0
LINE
  8
0
  6
CONTINUOUS
 62
     2
 10
1181.32
 20
561.0
 30
0.0
 11
1184.425828541
 21
572.591109915
 31
0.0
  0
LINE
  8
0
  6
CONTINUOUS
 62
     2
 10
1181.32
 20
561.0
 30
0.0
 11
1178.214171459
 21
572.591109915
 31
0.0
  0
LINE
  8
0
  6
CONTINUOUS
 62
     2
 10
978.0
 20
561.0
 30
0.0
 11
1187.32
 21
561.0
 31
0.0
  0
TEXT
  8
0
  6
CONTINUOUS
 62
     3
 10
1178.32
 20
619.7
 30
0.0
 40
18.0
  1
１６６
 50
90.0
 41
0.9
 51
0.0
  7
KANJI17
  0
LINE
  8
0
  6
CONTINUOUS
 62
     2
 10
1150.835238064
 20
727.0
 30
0.0
 11
1187.32
 21
727.0
 31
0.0
  0
LINE
  8
0
  6
CONTINUOUS
 62
     2
 10
1088.42
 20
727.0
 30
0.0
 11
1114.4
 21
727.0
 31
0.0
  0
TEXT
  8
0
  6
CONTINUOUS
 62
     3
 10
182.466667
 20
957.266683
 30
1.5
 40
15.0
  1
手動軸□８
 50
0.0
 41
0.9
 51
0.0
  7
KANJI46
  0
LINE
  8
0
  6
CONTINUOUS
 62
     1
 10
1009.12
 20
1511.24
 30
0.0
 11
1786.72
 21
1511.24
 31
0.0
  0
LINE
  8
0
  6
CONTINUOUS
 62
     1
 10
1009.12
 20
1477.64
 30
0.0
 11
1786.72
 21
1477.64
 31
0.0
  0
TEXT
  8
0
  6
CONTINUOUS
 62
     2
 10
1057.12
 20
1487.24
 30
1.536
 40
15.36
  1
形
 50
0.0
 41
0.9
 51
0.0
  7
KANJI47
  0
TEXT
  8
0
  6
CONTINUOUS
 62
     2
 10
1150.72
 20
1487.24
 30
1.536
 40
15.36
  1
式
 50
0.0
 41
0.9
 51
0.0
  7
KANJI47
  0
TEXT
  8
0
  6
CONTINUOUS
 62
     2
 10
1223.2
 20
1486.28
 30
1.44
 40
14.4
  1
ストローク
 50
0.0
 41
0.9
 51
0.0
  7
KANJI48
  0
TEXT
  8
0
  6
CONTINUOUS
 62
     2
 10
1315.36
 20
1485.32
 30
0.0
 40
14.4
  1
ｍｉｎ　
 50
0.0
 41
0.9
 51
0.0
  7
KANJI49
  0
TEXT
  8
0
  6
CONTINUOUS
 62
     2
 10
1411.36
 20
1485.32
 30
0.0
 40
14.4
  1
ｍｉｎ　
 50
0.0
 41
0.9
 51
0.0
  7
KANJI49
  0
TEXT
  8
0
  6
CONTINUOUS
 62
     2
 10
1603.36
 20
1485.32
 30
0.0
 40
14.4
  1
ｍｉｎ　
 50
0.0
 41
0.9
 51
0.0
  7
KANJI49
  0
TEXT
  8
0
  6
CONTINUOUS
 62
     2
 10
1364.32
 20
1486.28
 30
1.68
 40
16.8
  1
ＡＬ
 50
0.0
 41
0.9
 51
0.0
  7
KANJI50
  0
TEXT
  8
0
  6
CONTINUOUS
 62
     2
 10
1460.32
 20
1486.28
 30
1.68
 40
16.8
  1
Ｌ
 50
0.0
 41
0.9
 51
0.0
  7
KANJI50
  0
TEXT
  8
0
  6
CONTINUOUS
 62
     2
 10
1541.92
 20
1486.28
 30
1.68
 40
16.8
  1
Ｃ
 50
0.0
 41
0.9
 51
0.0
  7
KANJI50
  0
TEXT
  8
0
  6
CONTINUOUS
 62
     2
 10
1652.32
 20
1486.28
 30
1.68
 40
16.8
  1
Ｐ
 50
0.0
 41
0.9
 51
0.0
  7
KANJI50
  0
TEXT
  8
0
  6
CONTINUOUS
 62
     2
 10
1751.08
 20
1485.92
 30
0.0
 40
12.96
  1
（ｋｇ）
 50
0.0
 41
0.740740741
 51
0.0
  7
KANJI51
  0
TEXT
  8
0
  6
CONTINUOUS
 62
     2
 10
1693.48
 20
1485.68
 30
1.44
 40
16.8
  1
概算重量
 50
0.0
 41
0.857142857
 51
0.0
  7
KANJI52
  0
TEXT
  8
0
  6
CONTINUOUS
 62
     2
 10
1232.32
 20
1457.08
 30
1.44
 40
14.4
  1
　２００
 50
0.0
 41
0.9
 51
0.0
  7
KANJI48
  0
LINE
  8
0
  6
CONTINUOUS
 62
     2
 10
1009.12
 20
1449.44
 30
0.0
 11
1786.72
 21
1449.44
 31
0.0
  0
TEXT
  8
0
  6
CONTINUOUS
 62
     2
 10
1232.32
 20
1428.48
 30
1.44
 40
14.4
  1
　３００
 50
0.0
 41
0.9
 51
0.0
  7
KANJI48
  0
LINE
  8
0
  6
CONTINUOUS
 62
     2
 10
1009.12
 20
1420.84
 30
0.0
 11
1786.72
 21
1420.84
 31
0.0
  0
TEXT
  8
0
  6
CONTINUOUS
 62
     2
 10
1232.32
 20
1399.88
 30
1.44
 40
14.4
  1
　４００
 50
0.0
 41
0.9
 51
0.0
  7
KANJI48
  0
LINE
  8
0
  6
CONTINUOUS
 62
     2
 10
1009.12
 20
1392.24
 30
0.0
 11
1786.72
 21
1392.24
 31
0.0
  0
TEXT
  8
0
  6
CONTINUOUS
 62
     2
 10
1232.32
 20
1371.28
 30
1.44
 40
14.4
  1
　５００
 50
0.0
 41
0.9
 51
0.0
  7
KANJI48
  0
LINE
  8
0
  6
CONTINUOUS
 62
     2
 10
1009.12
 20
1363.64
 30
0.0
 11
1786.72
 21
1363.64
 31
0.0
  0
TEXT
  8
0
  6
CONTINUOUS
 62
     2
 10
1232.32
 20
1342.68
 30
1.44
 40
14.4
  1
　６００
 50
0.0
 41
0.9
 51
0.0
  7
KANJI48
  0
LINE
  8
0
  6
CONTINUOUS
 62
     2
 10
1009.12
 20
1335.04
 30
0.0
 11
1786.72
 21
1335.04
 31
0.0
  0
TEXT
  8
0
  6
CONTINUOUS
 62
     2
 10
1232.32
 20
1314.08
 30
1.44
 40
14.4
  1
　７００
 50
0.0
 41
0.9
 51
0.0
  7
KANJI48
  0
LINE
  8
0
  6
CONTINUOUS
 62
     2
 10
1009.12
 20
1306.44
 30
0.0
 11
1786.72
 21
1306.44
 31
0.0
  0
TEXT
  8
0
  6
CONTINUOUS
 62
     2
 10
1232.32
 20
1285.48
 30
1.44
 40
14.4
  1
　８００
 50
0.0
 41
0.9
 51
0.0
  7
KANJI48
  0
LINE
  8
0
  6
CONTINUOUS
 62
     2
 10
1009.12
 20
1277.84
 30
0.0
 11
1786.72
 21
1277.84
 31
0.0
  0
TEXT
  8
0
  6
CONTINUOUS
 62
     2
 10
1232.32
 20
1256.88
 30
1.44
 40
14.4
  1
　９００
 50
0.0
 41
0.9
 51
0.0
  7
KANJI48
  0
LINE
  8
0
  6
CONTINUOUS
 62
     2
 10
1009.12
 20
1249.24
 30
0.0
 11
1786.72
 21
1249.24
 31
0.0
  0
TEXT
  8
0
  6
CONTINUOUS
 62
     2
 10
1232.32
 20
1228.28
 30
1.44
 40
14.4
  1
１０００
 50
0.0
 41
0.9
 51
0.0
  7
KANJI48
  0
LINE
  8
0
  6
CONTINUOUS
 62
     2
 10
1009.12
 20
1220.64
 30
0.0
 11
1786.72
 21
1220.64
 31
0.0
  0
LINE
  8
0
  6
CONTINUOUS
 62
     2
 10
1009.12
 20
1192.04
 30
0.0
 11
1786.72
 21
1192.04
 31
0.0
  0
LINE
  8
0
  6
CONTINUOUS
 62
     2
 10
1009.12
 20
1163.44
 30
0.0
 11
1786.72
 21
1163.44
 31
0.0
  0
LINE
  8
0
  6
CONTINUOUS
 62
     2
 10
1009.12
 20
1134.84
 30
0.0
 11
1786.72
 21
1134.84
 31
0.0
  0
LINE
  8
0
  6
CONTINUOUS
 62
     2
 10
1009.12
 20
1106.24
 30
0.0
 11
1786.72
 21
1106.24
 31
0.0
  0
LINE
  8
0
  6
CONTINUOUS
 62
     2
 10
1009.12
 20
1077.64
 30
0.0
 11
1786.72
 21
1077.64
 31
0.0
  0
LINE
  8
0
  6
CONTINUOUS
 62
     1
 10
1009.12
 20
1048.24
 30
0.0
 11
1786.72
 21
1048.24
 31
0.0
  0
LINE
  8
0
  6
CONTINUOUS
 62
     1
 10
1009.12
 20
1511.24
 30
0.0
 11
1009.12
 21
1048.24
 31
0.0
  0
LINE
  8
0
  6
CONTINUOUS
 62
     1
 10
1786.72
 20
1511.24
 30
0.0
 11
1786.72
 21
1048.24
 31
0.0
  0
LINE
  8
0
  6
CONTINUOUS
 62
     1
 10
1210.72
 20
1511.24
 30
0.0
 11
1210.72
 21
1048.24
 31
0.0
  0
LINE
  8
0
  6
CONTINUOUS
 62
     2
 10
1306.72
 20
1511.24
 30
0.0
 11
1306.72
 21
1048.24
 31
0.0
  0
LINE
  8
0
  6
CONTINUOUS
 62
     2
 10
1402.72
 20
1511.24
 30
0.0
 11
1402.72
 21
1048.24
 31
0.0
  0
LINE
  8
0
  6
CONTINUOUS
 62
     2
 10
1498.72
 20
1511.24
 30
0.0
 11
1498.72
 21
1048.24
 31
0.0
  0
LINE
  8
0
  6
CONTINUOUS
 62
     2
 10
1594.72
 20
1511.24
 30
0.0
 11
1594.72
 21
1048.24
 31
0.0
  0
LINE
  8
0
  6
CONTINUOUS
 62
     2
 10
1690.72
 20
1511.24
 30
0.0
 11
1690.72
 21
1048.24
 31
0.0
  0
TEXT
  8
0
  6
CONTINUOUS
 62
     2
 10
1232.32
 20
1199.68
 30
1.44
 40
14.4
  1
１１００
 50
0.0
 41
0.9
 51
0.0
  7
KANJI48
  0
TEXT
  8
0
  6
CONTINUOUS
 62
     2
 10
1232.32
 20
1171.08
 30
1.44
 40
14.4
  1
１２００
 50
0.0
 41
0.9
 51
0.0
  7
KANJI48
  0
TEXT
  8
0
  6
CONTINUOUS
 62
     2
 10
1232.32
 20
1142.48
 30
1.44
 40
14.4
  1
１３００
 50
0.0
 41
0.9
 51
0.0
  7
KANJI48
  0
TEXT
  8
0
  6
CONTINUOUS
 62
     2
 10
1232.32
 20
1113.88
 30
1.44
 40
14.4
  1
１４００
 50
0.0
 41
0.9
 51
0.0
  7
KANJI48
  0
TEXT
  8
0
  6
CONTINUOUS
 62
     2
 10
1232.32
 20
1085.28
 30
1.44
 40
14.4
  1
１５００
 50
0.0
 41
0.9
 51
0.0
  7
KANJI48
  0
TEXT
  8
0
  6
CONTINUOUS
 62
     2
 10
1616.32
 20
1457.08
 30
1.44
 40
14.4
  1
　　４５
 50
0.0
 41
0.9
 51
0.0
  7
KANJI48
  0
TEXT
  8
0
  6
CONTINUOUS
 62
     2
 10
1616.32
 20
1428.48
 30
1.44
 40
14.4
  1
　　４５
 50
0.0
 41
0.9
 51
0.0
  7
KANJI48
  0
TEXT
  8
0
  6
CONTINUOUS
 62
     2
 10
1616.32
 20
1400.28
 30
1.44
 40
14.4
  1
　　４５
 50
0.0
 41
0.9
 51
0.0
  7
KANJI48
  0
TEXT
  8
0
  6
CONTINUOUS
 62
     2
 10
1616.32
 20
1371.68
 30
1.44
 40
14.4
  1
　　４５
 50
0.0
 41
0.9
 51
0.0
  7
KANJI48
  0
TEXT
  8
0
  6
CONTINUOUS
 62
     2
 10
1616.32
 20
1343.08
 30
1.44
 40
14.4
  1
　　４５
 50
0.0
 41
0.9
 51
0.0
  7
KANJI48
  0
TEXT
  8
0
  6
CONTINUOUS
 62
     2
 10
1616.32
 20
1314.48
 30
1.44
 40
14.4
  1
　　４５
 50
0.0
 41
0.9
 51
0.0
  7
KANJI48
  0
TEXT
  8
0
  6
CONTINUOUS
 62
     2
 10
1616.32
 20
1286.28
 30
1.44
 40
14.4
  1
　　４５
 50
0.0
 41
0.9
 51
0.0
  7
KANJI48
  0
TEXT
  8
0
  6
CONTINUOUS
 62
     2
 10
1616.32
 20
1257.68
 30
1.44
 40
14.4
  1
　　４５
 50
0.0
 41
0.9
 51
0.0
  7
KANJI48
  0
TEXT
  8
0
  6
CONTINUOUS
 62
     2
 10
1616.32
 20
1228.68
 30
1.44
 40
14.4
  1
　　４５
 50
0.0
 41
0.9
 51
0.0
  7
KANJI48
  0
TEXT
  8
0
  6
CONTINUOUS
 62
     2
 10
1616.32
 20
1200.08
 30
1.44
 40
14.4
  1
　　４５
 50
0.0
 41
0.9
 51
0.0
  7
KANJI48
  0
TEXT
  8
0
  6
CONTINUOUS
 62
     2
 10
1616.32
 20
1171.88
 30
1.44
 40
14.4
  1
　　４５
 50
0.0
 41
0.9
 51
0.0
  7
KANJI48
  0
TEXT
  8
0
  6
CONTINUOUS
 62
     2
 10
1616.32
 20
1143.28
 30
1.44
 40
14.4
  1
　　４５
 50
0.0
 41
0.9
 51
0.0
  7
KANJI48
  0
TEXT
  8
0
  6
CONTINUOUS
 62
     2
 10
1616.32
 20
1115.28
 30
1.44
 40
14.4
  1
　　４５
 50
0.0
 41
0.9
 51
0.0
  7
KANJI48
  0
TEXT
  8
0
  6
CONTINUOUS
 62
     2
 10
1616.32
 20
1086.68
 30
1.44
 40
14.4
  1
　　４５
 50
0.0
 41
0.9
 51
0.0
  7
KANJI48
  0
TEXT
  8
0
  6
CONTINUOUS
 62
     2
 10
1328.32
 20
1457.48
 30
1.44
 40
14.4
  1
　６１９
 50
0.0
 41
0.9
 51
0.0
  7
KANJI48
  0
TEXT
  8
0
  6
CONTINUOUS
 62
     2
 10
1328.32
 20
1428.88
 30
1.44
 40
14.4
  1
　７１９
 50
0.0
 41
0.9
 51
0.0
  7
KANJI48
  0
TEXT
  8
0
  6
CONTINUOUS
 62
     2
 10
1328.32
 20
1400.28
 30
1.44
 40
14.4
  1
　８１９
 50
0.0
 41
0.9
 51
0.0
  7
KANJI48
  0
TEXT
  8
0
  6
CONTINUOUS
 62
     2
 10
1328.32
 20
1371.68
 30
1.44
 40
14.4
  1
　９１９
 50
0.0
 41
0.9
 51
0.0
  7
KANJI48
  0
TEXT
  8
0
  6
CONTINUOUS
 62
     2
 10
1328.32
 20
1343.08
 30
1.44
 40
14.4
  1
１０５９
 50
0.0
 41
0.9
 51
0.0
  7
KANJI48
  0
TEXT
  8
0
  6
CONTINUOUS
 62
     2
 10
1328.32
 20
1314.48
 30
1.44
 40
14.4
  1
１１５９
 50
0.0
 41
0.9
 51
0.0
  7
KANJI48
  0
TEXT
  8
0
  6
CONTINUOUS
 62
     2
 10
1328.32
 20
1285.88
 30
1.44
 40
14.4
  1
１２５９
 50
0.0
 41
0.9
 51
0.0
  7
KANJI48
  0
TEXT
  8
0
  6
CONTINUOUS
 62
     2
 10
1328.32
 20
1257.28
 30
1.44
 40
14.4
  1
１３５９
 50
0.0
 41
0.9
 51
0.0
  7
KANJI48
  0
TEXT
  8
0
  6
CONTINUOUS
 62
     2
 10
1328.32
 20
1228.68
 30
1.44
 40
14.4
  1
１４５９
 50
0.0
 41
0.9
 51
0.0
  7
KANJI48
  0
TEXT
  8
0
  6
CONTINUOUS
 62
     2
 10
1328.32
 20
1200.08
 30
1.44
 40
14.4
  1
１５５９
 50
0.0
 41
0.9
 51
0.0
  7
KANJI48
  0
TEXT
  8
0
  6
CONTINUOUS
 62
     2
 10
1328.32
 20
1171.48
 30
1.44
 40
14.4
  1
１６５９
 50
0.0
 41
0.9
 51
0.0
  7
KANJI48
  0
TEXT
  8
0
  6
CONTINUOUS
 62
     2
 10
1328.32
 20
1142.88
 30
1.44
 40
14.4
  1
１７５９
 50
0.0
 41
0.9
 51
0.0
  7
KANJI48
  0
TEXT
  8
0
  6
CONTINUOUS
 62
     2
 10
1328.32
 20
1114.28
 30
1.44
 40
14.4
  1
１８５９
 50
0.0
 41
0.9
 51
0.0
  7
KANJI48
  0
TEXT
  8
0
  6
CONTINUOUS
 62
     2
 10
1328.32
 20
1085.68
 30
1.44
 40
14.4
  1
１９５９
 50
0.0
 41
0.9
 51
0.0
  7
KANJI48
  0
TEXT
  8
0
  6
CONTINUOUS
 62
     2
 10
1424.32
 20
1457.48
 30
1.44
 40
14.4
  1
　４７３
 50
0.0
 41
0.9
 51
0.0
  7
KANJI48
  0
TEXT
  8
0
  6
CONTINUOUS
 62
     2
 10
1424.32
 20
1428.88
 30
1.44
 40
14.4
  1
　５７３
 50
0.0
 41
0.9
 51
0.0
  7
KANJI48
  0
TEXT
  8
0
  6
CONTINUOUS
 62
     2
 10
1424.32
 20
1400.28
 30
1.44
 40
14.4
  1
　６７３
 50
0.0
 41
0.9
 51
0.0
  7
KANJI48
  0
TEXT
  8
0
  6
CONTINUOUS
 62
     2
 10
1424.32
 20
1371.68
 30
1.44
 40
14.4
  1
　７７３
 50
0.0
 41
0.9
 51
0.0
  7
KANJI48
  0
TEXT
  8
0
  6
CONTINUOUS
 62
     2
 10
1424.32
 20
1343.08
 30
1.44
 40
14.4
  1
　９１３
 50
0.0
 41
0.9
 51
0.0
  7
KANJI48
  0
TEXT
  8
0
  6
CONTINUOUS
 62
     2
 10
1424.32
 20
1314.48
 30
1.44
 40
14.4
  1
１０１３
 50
0.0
 41
0.9
 51
0.0
  7
KANJI48
  0
TEXT
  8
0
  6
CONTINUOUS
 62
     2
 10
1424.32
 20
1285.88
 30
1.44
 40
14.4
  1
１１１３
 50
0.0
 41
0.9
 51
0.0
  7
KANJI48
  0
TEXT
  8
0
  6
CONTINUOUS
 62
     2
 10
1424.32
 20
1257.28
 30
1.44
 40
14.4
  1
１２１３
 50
0.0
 41
0.9
 51
0.0
  7
KANJI48
  0
TEXT
  8
0
  6
CONTINUOUS
 62
     2
 10
1424.32
 20
1228.68
 30
1.44
 40
14.4
  1
１３１３
 50
0.0
 41
0.9
 51
0.0
  7
KANJI48
  0
TEXT
  8
0
  6
CONTINUOUS
 62
     2
 10
1424.32
 20
1200.08
 30
1.44
 40
14.4
  1
１４１３
 50
0.0
 41
0.9
 51
0.0
  7
KANJI48
  0
TEXT
  8
0
  6
CONTINUOUS
 62
     2
 10
1424.32
 20
1171.48
 30
1.44
 40
14.4
  1
１５１３
 50
0.0
 41
0.9
 51
0.0
  7
KANJI48
  0
TEXT
  8
0
  6
CONTINUOUS
 62
     2
 10
1424.32
 20
1142.88
 30
1.44
 40
14.4
  1
１６１３
 50
0.0
 41
0.9
 51
0.0
  7
KANJI48
  0
TEXT
  8
0
  6
CONTINUOUS
 62
     2
 10
1424.32
 20
1114.28
 30
1.44
 40
14.4
  1
１７１３
 50
0.0
 41
0.9
 51
0.0
  7
KANJI48
  0
TEXT
  8
0
  6
CONTINUOUS
 62
     2
 10
1424.32
 20
1085.68
 30
1.44
 40
14.4
  1
１８１３
 50
0.0
 41
0.9
 51
0.0
  7
KANJI48
  0
TEXT
  8
0
  6
CONTINUOUS
 62
     2
 10
1520.32
 20
1457.48
 30
1.44
 40
14.4
  1
　３７８
 50
0.0
 41
0.9
 51
0.0
  7
KANJI48
  0
TEXT
  8
0
  6
CONTINUOUS
 62
     2
 10
1520.32
 20
1428.88
 30
1.44
 40
14.4
  1
　４７８
 50
0.0
 41
0.9
 51
0.0
  7
KANJI48
  0
TEXT
  8
0
  6
CONTINUOUS
 62
     2
 10
1520.32
 20
1400.28
 30
1.44
 40
14.4
  1
　５７８
 50
0.0
 41
0.9
 51
0.0
  7
KANJI48
  0
TEXT
  8
0
  6
CONTINUOUS
 62
     2
 10
1520.32
 20
1371.68
 30
1.44
 40
14.4
  1
　６７８
 50
0.0
 41
0.9
 51
0.0
  7
KANJI48
  0
TEXT
  8
0
  6
CONTINUOUS
 62
     2
 10
1520.32
 20
1343.08
 30
1.44
 40
14.4
  1
　８１８
 50
0.0
 41
0.9
 51
0.0
  7
KANJI48
  0
TEXT
  8
0
  6
CONTINUOUS
 62
     2
 10
1520.32
 20
1314.48
 30
1.44
 40
14.4
  1
　９１８
 50
0.0
 41
0.9
 51
0.0
  7
KANJI48
  0
TEXT
  8
0
  6
CONTINUOUS
 62
     2
 10
1520.32
 20
1285.88
 30
1.44
 40
14.4
  1
１０１８
 50
0.0
 41
0.9
 51
0.0
  7
KANJI48
  0
TEXT
  8
0
  6
CONTINUOUS
 62
     2
 10
1520.32
 20
1257.28
 30
1.44
 40
14.4
  1
１１１８
 50
0.0
 41
0.9
 51
0.0
  7
KANJI48
  0
TEXT
  8
0
  6
CONTINUOUS
 62
     2
 10
1520.32
 20
1228.68
 30
1.44
 40
14.4
  1
１２１８
 50
0.0
 41
0.9
 51
0.0
  7
KANJI48
  0
TEXT
  8
0
  6
CONTINUOUS
 62
     2
 10
1520.32
 20
1200.08
 30
1.44
 40
14.4
  1
１３１８
 50
0.0
 41
0.9
 51
0.0
  7
KANJI48
  0
TEXT
  8
0
  6
CONTINUOUS
 62
     2
 10
1520.32
 20
1171.48
 30
1.44
 40
14.4
  1
１４１８
 50
0.0
 41
0.9
 51
0.0
  7
KANJI48
  0
TEXT
  8
0
  6
CONTINUOUS
 62
     2
 10
1520.32
 20
1142.88
 30
1.44
 40
14.4
  1
１５１８
 50
0.0
 41
0.9
 51
0.0
  7
KANJI48
  0
TEXT
  8
0
  6
CONTINUOUS
 62
     2
 10
1520.32
 20
1114.28
 30
1.44
 40
14.4
  1
１６１８
 50
0.0
 41
0.9
 51
0.0
  7
KANJI48
  0
TEXT
  8
0
  6
CONTINUOUS
 62
     2
 10
1520.32
 20
1085.68
 30
1.44
 40
14.4
  1
１７１８
 50
0.0
 41
0.9
 51
0.0
  7
KANJI48
  0
TEXT
  8
0
  6
CONTINUOUS
 62
     2
 10
1712.32
 20
1457.08
 30
1.44
 40
14.4
  1
　４２
 50
0.0
 41
0.9
 51
0.0
  7
KANJI48
  0
TEXT
  8
0
  6
CONTINUOUS
 62
     2
 10
1712.32
 20
1428.48
 30
1.44
 40
14.4
  1
　４５
 50
0.0
 41
0.9
 51
0.0
  7
KANJI48
  0
TEXT
  8
0
  6
CONTINUOUS
 62
     2
 10
1712.32
 20
1399.88
 30
1.44
 40
14.4
  1
　４７
 50
0.0
 41
0.9
 51
0.0
  7
KANJI48
  0
TEXT
  8
0
  6
CONTINUOUS
 62
     2
 10
1712.32
 20
1371.28
 30
1.44
 40
14.4
  1
　４９
 50
0.0
 41
0.9
 51
0.0
  7
KANJI48
  0
TEXT
  8
0
  6
CONTINUOUS
 62
     2
 10
1712.32
 20
1342.68
 30
1.44
 40
14.4
  1
　５１
 50
0.0
 41
0.9
 51
0.0
  7
KANJI48
  0
TEXT
  8
0
  6
CONTINUOUS
 62
     2
 10
1712.32
 20
1314.08
 30
1.44
 40
14.4
  1
　５４
 50
0.0
 41
0.9
 51
0.0
  7
KANJI48
  0
TEXT
  8
0
  6
CONTINUOUS
 62
     2
 10
1712.32
 20
1285.48
 30
1.44
 40
14.4
  1
　５７
 50
0.0
 41
0.9
 51
0.0
  7
KANJI48
  0
TEXT
  8
0
  6
CONTINUOUS
 62
     2
 10
1712.32
 20
1256.88
 30
1.44
 40
14.4
  1
　５９
 50
0.0
 41
0.9
 51
0.0
  7
KANJI48
  0
TEXT
  8
0
  6
CONTINUOUS
 62
     2
 10
1712.32
 20
1228.28
 30
1.44
 40
14.4
  1
　６１
 50
0.0
 41
0.9
 51
0.0
  7
KANJI48
  0
TEXT
  8
0
  6
CONTINUOUS
 62
     2
 10
1712.32
 20
1199.68
 30
1.44
 40
14.4
  1
　６３
 50
0.0
 41
0.9
 51
0.0
  7
KANJI48
  0
TEXT
  8
0
  6
CONTINUOUS
 62
     2
 10
1712.32
 20
1171.08
 30
1.44
 40
14.4
  1
　６５
 50
0.0
 41
0.9
 51
0.0
  7
KANJI48
  0
TEXT
  8
0
  6
CONTINUOUS
 62
     2
 10
1712.32
 20
1142.48
 30
1.44
 40
14.4
  1
　６７
 50
0.0
 41
0.9
 51
0.0
  7
KANJI48
  0
TEXT
  8
0
  6
CONTINUOUS
 62
     2
 10
1712.32
 20
1113.88
 30
1.44
 40
14.4
  1
　６９
 50
0.0
 41
0.9
 51
0.0
  7
KANJI48
  0
TEXT
  8
0
  6
CONTINUOUS
 62
     2
 10
1712.32
 20
1085.28
 30
1.44
 40
14.4
  1
　７１
 50
0.0
 41
0.9
 51
0.0
  7
KANJI48
  0
TEXT
  8
0
  6
CONTINUOUS
 62
     2
 10
1024.72
 20
1456.72
 30
0.96
 40
14.4
  1
ＭＤ０５－　　２Ｌ
 50
0.0
 41
0.833333333
 51
0.0
  7
KANJI53
  0
TEXT
  8
0
  6
CONTINUOUS
 62
     2
 10
1024.72
 20
1428.12
 30
0.96
 40
14.4
  1
ＭＤ０５－　　３Ｌ
 50
0.0
 41
0.833333333
 51
0.0
  7
KANJI53
  0
TEXT
  8
0
  6
CONTINUOUS
 62
     2
 10
1024.72
 20
1399.52
 30
0.96
 40
14.4
  1
ＭＤ０５－　　４Ｌ
 50
0.0
 41
0.833333333
 51
0.0
  7
KANJI53
  0
TEXT
  8
0
  6
CONTINUOUS
 62
     2
 10
1024.72
 20
1370.92
 30
0.96
 40
14.4
  1
ＭＤ０５－　　５Ｌ
 50
0.0
 41
0.833333333
 51
0.0
  7
KANJI53
  0
TEXT
  8
0
  6
CONTINUOUS
 62
     2
 10
1024.72
 20
1342.32
 30
0.96
 40
14.4
  1
ＭＤ０５－　　６Ｌ
 50
0.0
 41
0.833333333
 51
0.0
  7
KANJI53
  0
TEXT
  8
0
  6
CONTINUOUS
 62
     2
 10
1024.72
 20
1313.72
 30
0.96
 40
14.4
  1
ＭＤ０５－　　７Ｌ
 50
0.0
 41
0.833333333
 51
0.0
  7
KANJI53
  0
TEXT
  8
0
  6
CONTINUOUS
 62
     2
 10
1024.72
 20
1285.12
 30
0.96
 40
14.4
  1
ＭＤ０５－　　８Ｌ
 50
0.0
 41
0.833333333
 51
0.0
  7
KANJI53
  0
TEXT
  8
0
  6
CONTINUOUS
 62
     2
 10
1024.72
 20
1256.52
 30
0.96
 40
14.4
  1
ＭＤ０５－　　９Ｌ
 50
0.0
 41
0.833333333
 51
0.0
  7
KANJI53
  0
TEXT
  8
0
  6
CONTINUOUS
 62
     2
 10
1024.72
 20
1227.92
 30
0.96
 40
14.4
  1
ＭＤ０５－　１０Ｌ
 50
0.0
 41
0.833333333
 51
0.0
  7
KANJI53
  0
TEXT
  8
0
  6
CONTINUOUS
 62
     2
 10
1024.72
 20
1199.32
 30
0.96
 40
14.4
  1
ＭＤ０５－　１１Ｌ
 50
0.0
 41
0.833333333
 51
0.0
  7
KANJI53
  0
TEXT
  8
0
  6
CONTINUOUS
 62
     2
 10
1024.72
 20
1170.72
 30
0.96
 40
14.4
  1
ＭＤ０５－　１２Ｌ
 50
0.0
 41
0.833333333
 51
0.0
  7
KANJI53
  0
TEXT
  8
0
  6
CONTINUOUS
 62
     2
 10
1024.72
 20
1142.12
 30
0.96
 40
14.4
  1
ＭＤ０５－　１３Ｌ
 50
0.0
 41
0.833333333
 51
0.0
  7
KANJI53
  0
TEXT
  8
0
  6
CONTINUOUS
 62
     2
 10
1024.72
 20
1113.52
 30
0.96
 40
14.4
  1
ＭＤ０５－　１４Ｌ
 50
0.0
 41
0.833333333
 51
0.0
  7
KANJI53
  0
TEXT
  8
0
  6
CONTINUOUS
 62
     2
 10
1024.72
 20
1084.92
 30
0.96
 40
14.4
  1
ＭＤ０５－　１５Ｌ
 50
0.0
 41
0.833333333
 51
0.0
  7
KANJI53
  0
TEXT
  8
0
  6
CONTINUOUS
 62
     2
 10
1024.72
 20
1055.92
 30
0.96
 40
14.4
  1
ＭＤ０５－　　　Ｌ
 50
0.0
 41
0.833333333
 51
0.0
  7
KANJI53
  0
LINE
  8
0
  6
CONTINUOUS
 62
     2
 10
455.6
 20
258.8
 30
0.0
 11
455.6
 21
203.2
 31
0.0
  0
LINE
  8
0
  6
CONTINUOUS
 62
     2
 10
296.4
 20
245.2
 30
0.0
 11
455.6
 21
245.2
 31
0.0
  0
LINE
  8
0
  6
CONTINUOUS
 62
     2
 10
455.6
 20
245.2
 30
0.0
 11
447.87259339
 21
247.270552361
 31
0.0
  0
LINE
  8
0
  6
CONTINUOUS
 62
     2
 10
455.6
 20
245.2
 30
0.0
 11
447.87259339
 21
243.129447639
 31
0.0
  0
TEXT
  8
0
  6
CONTINUOUS
 62
     3
 10
336.65
 20
247.2
 30
0.0
 40
15.0
  1
常用ストローク
 50
0.0
 41
0.9
 51
0.0
  7
KANJI26
  0
LINE
  8
0
  6
CONTINUOUS
 62
     2
 10
1371.167964258
 20
827.314647586
 30
0.0
 11
1369.822960148
 21
837.223782965
 31
0.0
  0
LINE
  8
0
  6
CONTINUOUS
 62
     2
 10
1371.167964258
 20
827.314647586
 30
0.0
 11
1365.048588842
 21
835.223708498
 31
0.0
  0
LINE
  8
7
  6
CONTINUOUS
 62
     2
 10
1353.017964258
 20
852.429835768
 30
0.0
 11
1207.283705995
 21
852.429835768
 31
0.0
  0
LINE
  8
0
  6
CONTINUOUS
 62
     1
 10
1405.0
 20
783.866754132
 30
0.0
 11
1405.0
 21
874.449899598
 31
0.0
  0
LINE
  8
0
  6
LTYPE3
 62
     2
 10
1440.0
 20
811.0
 30
0.0
 11
1423.0
 21
811.0
 31
0.0
  0
LINE
  8
0
  6
LTYPE3
 62
     2
 10
1431.0
 20
803.0
 30
0.0
 11
1431.0
 21
819.5
 31
0.0
  0
LINE
  8
0
  6
CONTINUOUS
 62
     6
 10
1437.49995
 20
807.25297
 30
0.0
 11
1437.49995
 21
814.74703
 31
0.0
  0
LINE
  8
0
  6
CONTINUOUS
 62
     6
 10
1437.49995
 20
807.25297
 30
0.0
 11
1431.0
 21
803.50594
 31
0.0
  0
LINE
  8
0
  6
CONTINUOUS
 62
     6
 10
1424.50005
 20
807.25297
 30
0.0
 11
1431.0
 21
803.50594
 31
0.0
  0
LINE
  8
0
  6
CONTINUOUS
 62
     6
 10
1424.50005
 20
814.74703
 30
0.0
 11
1431.0
 21
818.49406
 31
0.0
  0
LINE
  8
0
  6
CONTINUOUS
 62
     6
 10
1437.49995
 20
814.74703
 30
0.0
 11
1431.0
 21
818.49406
 31
0.0
  0
CIRCLE
  8
0
  6
CONTINUOUS
 62
     6
 10
1431.0
 20
811.0
 30
0.0
 40
6.49995
  0
LINE
  8
0
  6
CONTINUOUS
 62
     6
 10
1424.50005
 20
807.25297
 30
0.0
 11
1424.50005
 21
814.74703
 31
0.0
  0
LINE
  8
0
  6
CONTINUOUS
 62
     1
 10
1426.0
 20
801.0
 30
0.0
 11
1538.0
 21
801.0
 31
0.0
  0
ARC
  8
0
  6
CONTINUOUS
 62
     1
 10
1426.0
 20
806.0
 30
0.0
 40
5.0
 50
179.999876362
 51
270.0
  0
LINE
  8
0
  6
CONTINUOUS
 62
     1
 10
1421.0
 20
806.00001079
 30
0.0
 11
1421.0
 21
918.0
 31
0.0
  0
ARC
  8
0
  6
CONTINUOUS
 62
     1
 10
1428.0
 20
781.0
 30
0.0
 40
5.0
 50
90.0
 51
180.0
  0
LINE
  8
0
  6
CONTINUOUS
 62
     1
 10
1423.0
 20
775.719700758
 30
0.0
 11
1423.0
 21
781.0
 31
0.0
  0
LINE
  8
0
  6
CONTINUOUS
 62
     1
 10
1420.51140878
 20
777.639943104
 30
0.0
 11
1420.042999876
 21
775.891817276
 31
0.0
  0
ARC
  8
0
  6
CONTINUOUS
 62
     1
 10
1418.57955443
 20
778.157571128
 30
0.0
 40
2.0
 50
345.000298567
 51
75.0
  0
LINE
  8
0
  6
LTYPE1
 62
     2
 10
1402.0
 20
712.4706228
 30
0.0
 11
1402.0
 21
748.0
 31
0.0
  0
LINE
  8
0
  6
LTYPE1
 62
     2
 10
1429.721040822
 20
702.666813483
 30
0.0
 11
1435.266714218
 21
702.0
 31
0.0
  0
LINE
  8
0
  6
CONTINUOUS
 62
     1
 10
1402.0
 20
706.0
 30
0.0
 11
1402.0
 21
712.4206228
 31
0.0
  0
LINE
  8
0
  6
CONTINUOUS
 62
     1
 10
1402.0
 20
706.0
 30
0.0
 11
1429.721040822
 21
702.666813483
 31
0.0
  0
LINE
  8
0
  6
CONTINUOUS
 62
     1
 10
376.0
 20
649.5
 30
0.0
 11
376.0
 21
937.0
 31
0.0
  0
LINE
  8
2
  6
CONTINUOUS
 62
     2
 10
376.0
 20
1075.4
 30
0.0
 11
388.074072829
 21
1072.164761936
 31
0.0
  0
LINE
  8
2
  6
CONTINUOUS
 62
     2
 10
376.0
 20
1075.4
 30
0.0
 11
388.074072829
 21
1078.635238064
 31
0.0
  0
LINE
  8
2
  6
CONTINUOUS
 62
     2
 10
376.0
 20
1075.4
 30
0.0
 11
598.0
 21
1075.4
 31
0.0
  0
LINE
  8
2
  6
CONTINUOUS
 62
     2
 10
598.0
 20
1075.4
 30
0.0
 11
585.925927171
 21
1078.635238064
 31
0.0
  0
LINE
  8
2
  6
CONTINUOUS
 62
     2
 10
598.0
 20
1075.4
 30
0.0
 11
585.925927171
 21
1072.164761936
 31
0.0
  0
LINE
  8
2
  6
CONTINUOUS
 62
     2
 10
598.0
 20
867.0
 30
0.0
 11
598.0
 21
1085.4
 31
0.0
  0
LINE
  8
0
  6
CONTINUOUS
 62
     1
 10
548.0
 20
862.0
 30
0.0
 11
548.0
 21
919.0
 31
0.0
  0
LINE
  8
0
  6
CONTINUOUS
 62
     1
 10
553.0
 20
905.070524155
 30
0.0
 11
553.0
 21
917.5
 31
0.0
  0
ARC
  8
0
  6
CONTINUOUS
 62
     1
 10
554.5
 20
905.070524155
 30
0.0
 40
1.5
 50
180.0
 51
251.029592192
  0
LINE
  8
0
  6
CONTINUOUS
 62
     1
 10
569.0
 20
862.0
 30
0.0
 11
569.0
 21
897.429475845
 31
0.0
  0
LINE
  8
0
  6
CONTINUOUS
 62
     1
 10
567.987619653
 20
898.848005744
 30
0.0
 11
554.012380347
 21
903.651994256
 31
0.0
  0
ARC
  8
0
  6
CONTINUOUS
 62
     1
 10
567.5
 20
897.429475845
 30
0.0
 40
1.5
 50
0.0
 51
71.029592192
  0
LINE
  8
0
  6
CONTINUOUS
 62
     1
 10
553.0
 20
862.0
 30
0.0
 11
553.0
 21
905.070524155
 31
0.0
  0
LINE
  8
0
  6
LTYPE3
 62
     2
 10
561.0
 20
898.062445841
 30
0.0
 11
550.0
 21
898.062445841
 31
0.0
  0
LINE
  8
0
  6
CONTINUOUS
 62
     1
 10
498.0
 20
940.0
 30
0.0
 11
498.0
 21
974.0
 31
0.0
  0
LINE
  8
0
  6
CONTINUOUS
 62
     1
 10
498.0
 20
940.0
 30
0.0
 11
472.0
 21
940.0
 31
0.0
  0
LINE
  8
0
  6
CONTINUOUS
 62
     1
 10
498.0
 20
974.0
 30
0.0
 11
472.0
 21
974.0
 31
0.0
  0
LINE
  8
0
  6
CONTINUOUS
 62
     1
 10
402.0
 20
932.0
 30
0.0
 11
402.0
 21
935.0
 31
0.0
  0
ARC
  8
0
  6
CONTINUOUS
 62
     1
 10
406.0
 20
929.0
 30
0.0
 40
3.0
 50
0.0
 51
90.0
  0
LINE
  8
0
  6
CONTINUOUS
 62
     1
 10
409.0
 20
922.0
 30
0.0
 11
409.0
 21
929.0
 31
0.0
  0
ARC
  8
0
  6
CONTINUOUS
 62
     1
 10
412.0
 20
922.0
 30
0.0
 40
3.0
 50
180.0
 51
270.0
  0
LINE
  8
0
  6
CONTINUOUS
 62
     1
 10
462.0
 20
932.0
 30
0.0
 11
462.0
 21
935.0
 31
0.0
  0
ARC
  8
0
  6
CONTINUOUS
 62
     1
 10
458.0
 20
929.0
 30
0.0
 40
3.0
 50
90.0
 51
180.0
  0
LINE
  8
0
  6
CONTINUOUS
 62
     1
 10
455.0
 20
922.0
 30
0.0
 11
455.0
 21
929.0
 31
0.0
  0
ARC
  8
0
  6
CONTINUOUS
 62
     1
 10
452.0
 20
922.0
 30
0.0
 40
3.0
 50
270.0
 51
0.0
  0
LINE
  8
0
  6
CONTINUOUS
 62
     1
 10
462.0
 20
932.0
 30
0.0
 11
402.0
 21
932.0
 31
0.0
  0
LINE
  8
0
  6
CONTINUOUS
 62
     1
 10
386.912087912
 20
937.0
 30
0.0
 11
479.0
 21
981.020045888
 31
0.0
  0
LINE
  8
0
  6
CONTINUOUS
 62
     1
 10
385.0
 20
941.0
 30
0.0
 11
477.087912088
 21
985.020045888
 31
0.0
  0
LINE
  8
0
  6
CONTINUOUS
 62
     1
 10
477.087912088
 20
985.020045888
 30
0.0
 11
479.0
 21
981.020045888
 31
0.0
  0
LINE
  8
0
  6
CONTINUOUS
 62
     1
 10
392.0
 20
944.346153846
 30
0.0
 11
392.0
 21
984.0
 31
0.0
  0
ARC
  8
0
  6
CONTINUOUS
 62
     1
 10
395.0
 20
984.0
 30
0.0
 40
3.0
 50
90.0
 51
180.0
  0
LINE
  8
0
  6
CONTINUOUS
 62
     1
 10
392.0
 20
938.0
 30
0.0
 11
392.0
 21
939.4321338
 31
0.0
  0
ARC
  8
0
  6
CONTINUOUS
 62
     1
 10
395.0
 20
938.0
 30
0.0
 40
3.0
 50
180.0
 51
270.0
  0
LINE
  8
0
  6
CONTINUOUS
 62
     1
 10
472.0
 20
938.0
 30
0.0
 11
472.0
 21
977.673892042
 31
0.0
  0
LINE
  8
0
  6
CONTINUOUS
 62
     1
 10
469.0
 20
935.0
 30
0.0
 11
395.0
 21
935.0
 31
0.0
  0
ARC
  8
0
  6
CONTINUOUS
 62
     1
 10
469.0
 20
938.0
 30
0.0
 40
3.0
 50
270.0
 51
0.0
  0
LINE
  8
0
  6
CONTINUOUS
 62
     1
 10
472.0
 20
982.587912088
 30
0.0
 11
472.0
 21
984.0
 31
0.0
  0
LINE
  8
0
  6
CONTINUOUS
 62
     1
 10
469.0
 20
987.0
 30
0.0
 11
395.0
 21
987.0
 31
0.0
  0
ARC
  8
0
  6
CONTINUOUS
 62
     1
 10
469.0
 20
984.0
 30
0.0
 40
3.0
 50
0.0
 51
90.0
  0
LINE
  8
0
  6
LTYPE3
 62
     2
 10
432.0
 20
907.0
 30
0.0
 11
432.0
 21
994.9321338
 31
0.0
  0
LINE
  8
0
  6
CONTINUOUS
 62
     6
 10
554.3
 20
898.062445841
 30
0.0
 11
554.3
 21
893.450565841
 31
0.0
  0
LINE
  8
0
  6
CONTINUOUS
 62
     6
 10
554.3
 20
898.062445841
 30
0.0
 11
554.3
 21
902.674325841
 31
0.0
  0
LINE
  8
0
  6
CONTINUOUS
 62
     6
 10
557.8002
 20
894.580005841
 30
0.0
 11
557.148117512
 21
893.450565841
 31
0.0
  0
LINE
  8
0
  6
CONTINUOUS
 62
     6
 10
557.8002
 20
898.062445841
 30
0.0
 11
557.8002
 21
894.580005841
 31
0.0
  0
LINE
  8
0
  6
CONTINUOUS
 62
     6
 10
557.8002
 20
901.544885841
 30
0.0
 11
557.148117512
 21
902.674325841
 31
0.0
  0
LINE
  8
0
  6
CONTINUOUS
 62
     6
 10
557.8002
 20
898.062445841
 30
0.0
 11
557.8002
 21
901.544885841
 31
0.0
  0
ARC
  8
0
  6
CONTINUOUS
 62
     6
 10
553.396945074
 20
898.062445841
 30
0.0
 40
4.403254926
 50
328.419912243
 51
31.580087757
  0
ARC
  8
0
  6
CONTINUOUS
 62
     6
 10
556.455279868
 20
894.603535841
 30
0.0
 40
1.34512595
 50
357.010501597
 51
58.997686085
  0
LINE
  8
0
  6
CONTINUOUS
 62
     6
 10
557.8002
 20
901.544885841
 30
0.0
 11
557.148117512
 21
902.674325841
 31
0.0
  0
ARC
  8
0
  6
CONTINUOUS
 62
     6
 10
556.455279868
 20
901.521355841
 30
0.0
 40
1.34512595
 50
301.002313915
 51
2.989498403
  0
LINE
  8
0
  6
CONTINUOUS
 62
     6
 10
554.3
 20
893.450565841
 30
0.0
 11
557.148117512
 21
893.450565841
 31
0.0
  0
LINE
  8
0
  6
CONTINUOUS
 62
     6
 10
554.3
 20
895.756505841
 30
0.0
 11
557.148117512
 21
895.756505841
 31
0.0
  0
LINE
  8
0
  6
CONTINUOUS
 62
     6
 10
554.3
 20
900.368385841
 30
0.0
 11
557.148117512
 21
900.368385841
 31
0.0
  0
LINE
  8
0
  6
CONTINUOUS
 62
     6
 10
554.3
 20
902.674325841
 30
0.0
 11
557.148117512
 21
902.674325841
 31
0.0
  0
LINE
  8
0
  6
CONTINUOUS
 62
     6
 10
553.0
 20
893.462445841
 30
0.0
 11
554.3
 21
893.462445841
 31
0.0
  0
LINE
  8
0
  6
CONTINUOUS
 62
     6
 10
553.0
 20
898.062445841
 30
0.0
 11
554.299999554
 21
896.762446287
 31
0.0
  0
LINE
  8
0
  6
CONTINUOUS
 62
     6
 10
554.299999554
 20
898.062445841
 30
0.0
 11
553.0
 21
899.362445394
 31
0.0
  0
LINE
  8
0
  6
CONTINUOUS
 62
     6
 10
553.0
 20
902.662445841
 30
0.0
 11
554.3
 21
902.662445841
 31
0.0
  0
LINE
  8
7
  6
CONTINUOUS
 62
     2
 10
498.0
 20
957.0
 30
0.0
 11
506.564390096
 21
962.162482183
 31
0.0
  0
LINE
  8
7
  6
CONTINUOUS
 62
     2
 10
498.0
 20
957.0
 30
0.0
 11
502.835738299
 21
965.753035765
 31
0.0
  0
LINE
  8
7
  6
CONTINUOUS
 62
     2
 10
498.0
 20
957.0
 30
0.0
 11
524.0
 21
984.0
 31
0.0
  0
LINE
  8
7
  6
CONTINUOUS
 62
     2
 10
524.0
 20
984.0
 30
0.0
 11
582.8
 21
984.0
 31
0.0
  0
TEXT
  8
7
  6
CONTINUOUS
 62
     2
 10
524.0
 20
988.0
 30
1.2
 40
12.0
  1
ＰＦ３／４
 50
0.0
 41
0.9
 51
0.0
  7
KANJI54
  0
LINE
  8
0
  6
LTYPE3
 62
     2
 10
507.67468209
 20
957.0
 30
0.0
 11
464.929475845
 21
957.0
 31
0.0
  0
LINE
  8
0
  6
CONTINUOUS
 62
     1
 10
389.0
 20
862.0
 30
0.0
 11
389.0
 21
919.0
 31
0.0
  0
ARC
  8
0
  6
CONTINUOUS
 62
     1
 10
384.5
 20
920.5
 30
0.0
 40
1.5
 50
180.0
 51
270.0
  0
LINE
  8
0
  6
CONTINUOUS
 62
     1
 10
383.0
 20
920.5
 30
0.0
 11
383.0
 21
921.5
 31
0.0
  0
ARC
  8
0
  6
CONTINUOUS
 62
     1
 10
381.5
 20
921.5
 30
0.0
 40
1.5
 50
0.0
 51
90.0
  0
LINE
  8
0
  6
CONTINUOUS
 62
     1
 10
383.0
 20
862.0
 30
0.0
 11
383.0
 21
921.1
 31
0.0
  0
LINE
  8
0
  6
CONTINUOUS
 62
     1
 10
381.5
 20
923.0
 30
0.0
 11
376.0
 21
923.0
 31
0.0
  0
ARC
  8
0
  6
CONTINUOUS
 62
     1
 10
551.5
 20
917.5
 30
0.0
 40
1.5
 50
0.0
 51
89.999708579
  0
LINE
  8
0
  6
CONTINUOUS
 62
     1
 10
551.500007629
 20
919.0
 30
0.0
 11
384.5
 21
919.0
 31
0.0
  0
TEXT
  8
2
  6
CONTINUOUS
 62
     3
 10
461.5
 20
1080.4
 30
0.0
 40
18.0
  1
２２２
 50
0.0
 41
0.9
 51
0.0
  7
KANJI17
  0
LINE
  8
2
  6
CONTINUOUS
 62
     2
 10
554.0
 20
919.0
 30
0.0
 11
655.0
 21
919.0
 31
0.0
  0
TEXT
  8
2
  6
CONTINUOUS
 62
     3
 10
643.0
 20
829.6
 30
0.0
 40
18.0
  1
φ１１４
 50
90.0
 41
0.9
 51
0.0
  7
KANJI17
  0
LINE
  8
2
  6
CONTINUOUS
 62
     2
 10
649.0
 20
919.0
 30
0.0
 11
645.117714323
 21
904.511112606
 31
0.0
  0
LINE
  8
2
  6
CONTINUOUS
 62
     2
 10
649.0
 20
919.0
 30
0.0
 11
652.882285677
 21
904.511112606
 31
0.0
  0
LINE
  8
2
  6
CONTINUOUS
 62
     2
 10
649.0
 20
919.0
 30
0.0
 11
649.0
 21
805.0
 31
0.0
  0
LINE
  8
2
  6
CONTINUOUS
 62
     2
 10
649.0
 20
805.0
 30
0.0
 11
652.882285677
 21
819.488887394
 31
0.0
  0
LINE
  8
2
  6
CONTINUOUS
 62
     2
 10
649.0
 20
805.0
 30
0.0
 11
645.117714323
 21
819.488887394
 31
0.0
  0
LINE
  8
2
  6
CONTINUOUS
 62
     2
 10
554.0
 20
805.0
 30
0.0
 11
655.0
 21
805.0
 31
0.0
  0
LINE
  8
0
  6
CONTINUOUS
 62
     1
 10
389.0
 20
862.0
 30
0.0
 11
389.0
 21
805.0
 31
0.0
  0
ARC
  8
0
  6
CONTINUOUS
 62
     1
 10
384.5
 20
803.5
 30
0.0
 40
1.5
 50
90.0
 51
180.0
  0
LINE
  8
0
  6
CONTINUOUS
 62
     1
 10
383.0
 20
803.5
 30
0.0
 11
383.0
 21
802.5
 31
0.0
  0
LINE
  8
0
  6
CONTINUOUS
 62
     1
 10
383.0
 20
862.0
 30
0.0
 11
383.0
 21
802.9
 31
0.0
  0
ARC
  8
0
  6
CONTINUOUS
 62
     1
 10
381.5
 20
802.5
 30
0.0
 40
1.5
 50
270.000291421
 51
0.0
  0
LINE
  8
0
  6
CONTINUOUS
 62
     1
 10
381.500007629
 20
801.0
 30
0.0
 11
376.0
 21
801.0
 31
0.0
  0
LINE
  8
0
  6
CONTINUOUS
 62
     1
 10
551.500013215
 20
805.0
 30
0.0
 11
384.5
 21
805.0
 31
0.0
  0
TEXT
  8
0
  6
CONTINUOUS
 62
     2
 10
399.540009455
 20
839.0
 30
0.0
 40
18.0
  1
日本電産
 50
0.0
 41
0.9
 51
0.0
  7
KANJI17
  0
TEXT
  8
0
  6
CONTINUOUS
 62
     2
 10
399.540009455
 20
820.0
 30
0.0
 40
18.0
  1
エコノストップモータ
 50
0.0
 41
0.766666667
 51
0.0
  7
KANJI55
  0
LINE
  8
0
  6
CONTINUOUS
 62
     1
 10
548.0
 20
862.0
 30
0.0
 11
548.0
 21
805.0
 31
0.0
  0
LINE
  8
0
  6
CONTINUOUS
 62
     1
 10
569.0
 20
862.0
 30
0.0
 11
569.0
 21
826.570524155
 31
0.0
  0
ARC
  8
0
  6
CONTINUOUS
 62
     1
 10
567.5
 20
826.570524155
 30
0.0
 40
1.5
 50
288.970407808
 51
0.0
  0
ARC
  8
0
  6
CONTINUOUS
 62
     1
 10
581.0
 20
845.5
 30
0.0
 40
1.0
 50
270.0
 51
0.0
  0
LINE
  8
0
  6
CONTINUOUS
 62
     1
 10
581.0
 20
844.5
 30
0.0
 11
569.0
 21
844.5
 31
0.0
  0
LINE
  8
0
  6
CONTINUOUS
 62
     1
 10
582.0
 20
862.0
 30
0.0
 11
582.0
 21
845.5
 31
0.0
  0
LINE
  8
0
  6
CONTINUOUS
 62
     1
 10
553.0
 20
818.929475845
 30
0.0
 11
553.0
 21
806.5
 31
0.0
  0
ARC
  8
0
  6
CONTINUOUS
 62
     1
 10
554.5
 20
818.929475845
 30
0.0
 40
1.5
 50
108.970407808
 51
180.0
  0
LINE
  8
0
  6
CONTINUOUS
 62
     1
 10
567.987619653
 20
825.151994256
 30
0.0
 11
554.012380347
 21
820.348005744
 31
0.0
  0
LINE
  8
0
  6
CONTINUOUS
 62
     1
 10
553.0
 20
862.0
 30
0.0
 11
553.0
 21
818.929475845
 31
0.0
  0
LINE
  8
0
  6
CONTINUOUS
 62
     6
 10
554.3
 20
825.937554159
 30
0.0
 11
554.3
 21
830.549434159
 31
0.0
  0
LINE
  8
0
  6
CONTINUOUS
 62
     6
 10
557.8002
 20
829.419994159
 30
0.0
 11
557.148117512
 21
830.549434159
 31
0.0
  0
LINE
  8
0
  6
CONTINUOUS
 62
     6
 10
557.8002
 20
825.937554159
 30
0.0
 11
557.8002
 21
829.419994159
 31
0.0
  0
ARC
  8
0
  6
CONTINUOUS
 62
     6
 10
556.455279868
 20
829.396464159
 30
0.0
 40
1.34512595
 50
301.002313915
 51
2.989498403
  0
LINE
  8
0
  6
CONTINUOUS
 62
     6
 10
554.3
 20
830.549434159
 30
0.0
 11
557.148117512
 21
830.549434159
 31
0.0
  0
LINE
  8
0
  6
CONTINUOUS
 62
     6
 10
553.0
 20
830.537554159
 30
0.0
 11
554.3
 21
830.537554159
 31
0.0
  0
LINE
  8
0
  6
CONTINUOUS
 62
     6
 10
554.3
 20
825.937554159
 30
0.0
 11
554.3
 21
821.325674159
 31
0.0
  0
LINE
  8
0
  6
CONTINUOUS
 62
     6
 10
557.8002
 20
822.455114159
 30
0.0
 11
557.148117512
 21
821.325674159
 31
0.0
  0
LINE
  8
0
  6
CONTINUOUS
 62
     6
 10
557.8002
 20
825.937554159
 30
0.0
 11
557.8002
 21
822.455114159
 31
0.0
  0
ARC
  8
0
  6
CONTINUOUS
 62
     6
 10
553.396945074
 20
825.937554159
 30
0.0
 40
4.403254926
 50
328.419912243
 51
31.580087757
  0
LINE
  8
0
  6
CONTINUOUS
 62
     6
 10
557.8002
 20
822.455114159
 30
0.0
 11
557.148117512
 21
821.325674159
 31
0.0
  0
ARC
  8
0
  6
CONTINUOUS
 62
     6
 10
556.455279868
 20
822.478644159
 30
0.0
 40
1.34512595
 50
357.010501597
 51
58.997686085
  0
LINE
  8
0
  6
CONTINUOUS
 62
     6
 10
554.3
 20
823.631614159
 30
0.0
 11
557.148117512
 21
823.631614159
 31
0.0
  0
LINE
  8
0
  6
CONTINUOUS
 62
     6
 10
554.3
 20
821.325674159
 30
0.0
 11
557.148117512
 21
821.325674159
 31
0.0
  0
LINE
  8
0
  6
CONTINUOUS
 62
     6
 10
553.0
 20
821.337554159
 30
0.0
 11
554.3
 21
821.337554159
 31
0.0
  0
LINE
  8
0
  6
CONTINUOUS
 62
     6
 10
554.3
 20
828.243494159
 30
0.0
 11
557.148117512
 21
828.243494159
 31
0.0
  0
LINE
  8
0
  6
CONTINUOUS
 62
     6
 10
553.0
 20
825.937554159
 30
0.0
 11
554.299999554
 21
827.237553713
 31
0.0
  0
LINE
  8
0
  6
CONTINUOUS
 62
     6
 10
554.299999554
 20
825.937554159
 30
0.0
 11
553.0
 21
824.637554606
 31
0.0
  0
LINE
  8
0
  6
CONTINUOUS
 62
     1
 10
596.5
 20
846.5
 30
0.0
 11
582.0
 21
846.5
 31
0.0
  0
LINE
  8
0
  6
CONTINUOUS
 62
     1
 10
598.0
 20
848.0
 30
0.0
 11
598.0
 21
876.0
 31
0.0
  0
ARC
  8
0
  6
CONTINUOUS
 62
     1
 10
596.5
 20
848.0
 30
0.0
 40
1.5
 50
270.0
 51
0.0
  0
ARC
  8
0
  6
CONTINUOUS
 62
     1
 10
551.5
 20
806.5
 30
0.0
 40
1.5
 50
270.000504757
 51
0.0
  0
ARC
  8
0
  6
CONTINUOUS
 62
     1
 10
581.0
 20
878.5
 30
0.0
 40
1.0
 50
0.0
 51
90.0
  0
LINE
  8
0
  6
CONTINUOUS
 62
     1
 10
581.0
 20
879.5
 30
0.0
 11
569.0
 21
879.5
 31
0.0
  0
LINE
  8
0
  6
CONTINUOUS
 62
     1
 10
582.0
 20
862.0
 30
0.0
 11
582.0
 21
878.5
 31
0.0
  0
LINE
  8
0
  6
CONTINUOUS
 62
     6
 10
583.0
 20
865.8
 30
0.0
 11
582.0
 21
865.8
 31
0.0
  0
LINE
  8
0
  6
CONTINUOUS
 62
     6
 10
583.0
 20
862.0
 30
0.0
 11
582.0
 21
863.0
 31
0.0
  0
LINE
  8
0
  6
CONTINUOUS
 62
     6
 10
585.482457352
 20
866.05
 30
0.0
 11
583.0
 21
866.05
 31
0.0
  0
LINE
  8
0
  6
CONTINUOUS
 62
     6
 10
585.8
 20
865.5
 30
0.0
 11
585.482457352
 21
866.05
 31
0.0
  0
LINE
  8
0
  6
CONTINUOUS
 62
     6
 10
585.482457352
 20
864.025
 30
0.0
 11
583.0
 21
864.025
 31
0.0
  0
ARC
  8
0
  6
CONTINUOUS
 62
     6
 10
584.027026212
 20
865.0375
 30
0.0
 40
1.772973788
 50
325.174816769
 51
34.825183231
  0
LINE
  8
0
  6
CONTINUOUS
 62
     6
 10
583.0
 20
858.2
 30
0.0
 11
582.0
 21
858.2
 31
0.0
  0
LINE
  8
0
  6
CONTINUOUS
 62
     6
 10
583.0
 20
861.0
 30
0.0
 11
582.0
 21
862.0
 31
0.0
  0
LINE
  8
0
  6
CONTINUOUS
 62
     6
 10
585.8
 20
858.5
 30
0.0
 11
585.482457352
 21
857.95
 31
0.0
  0
LINE
  8
0
  6
CONTINUOUS
 62
     6
 10
585.482457352
 20
857.95
 30
0.0
 11
583.0
 21
857.95
 31
0.0
  0
LINE
  8
0
  6
CONTINUOUS
 62
     6
 10
585.482457352
 20
859.975
 30
0.0
 11
583.0
 21
859.975
 31
0.0
  0
ARC
  8
0
  6
CONTINUOUS
 62
     6
 10
584.027026212
 20
858.9625
 30
0.0
 40
1.772973788
 50
325.174816769
 51
34.825183231
  0
LINE
  8
0
  6
CONTINUOUS
 62
     6
 10
583.0
 20
866.05
 30
0.0
 11
583.0
 21
857.95
 31
0.0
  0
LINE
  8
0
  6
CONTINUOUS
 62
     6
 10
585.8
 20
865.5
 30
0.0
 11
585.8
 21
858.5
 31
0.0
  0
ARC
  8
0
  6
CONTINUOUS
 62
     6
 10
579.184418819
 20
862.0
 30
0.0
 40
6.615581181
 50
342.175912681
 51
17.824087319
  0
LINE
  8
0
  6
CONTINUOUS
 62
     1
 10
596.5
 20
877.5
 30
0.0
 11
582.0
 21
877.5
 31
0.0
  0
ARC
  8
0
  6
CONTINUOUS
 62
     1
 10
596.5
 20
876.0
 30
0.0
 40
1.5
 50
0.0
 51
90.0
  0
TEXT
  8
2
  6
CONTINUOUS
 62
     2
 10
1248.278145063
 20
896.126926248
 30
0.0
 40
15.0
  1
２－ＰＦ１／２
 50
0.0
 41
0.9
 51
0.0
  7
KANJI26
  0
LINE
  8
0
  6
CONTINUOUS
 62
     2
 10
1371.167964258
 20
827.314647586
 30
0.0
 11
1344.016874549
 21
892.126926248
 31
0.0
  0
LINE
  8
2
  6
CONTINUOUS
 62
     2
 10
1344.016874549
 20
892.126926248
 30
0.0
 11
1246.367964258
 21
892.126926248
 31
0.0
  0
LINE
  8
0
  6
CONTINUOUS
 62
     1
 10
339.0
 20
911.0
 30
0.0
 11
339.0
 21
934.0
 31
0.0
  0
ARC
  8
0
  6
CONTINUOUS
 62
     1
 10
342.0
 20
934.0
 30
0.0
 40
3.0
 50
90.0
 51
180.0
  0
LINE
  8
0
  6
CONTINUOUS
 62
     1
 10
352.0
 20
943.0
 30
0.0
 11
361.2
 21
943.0
 31
0.0
  0
CIRCLE
  8
0
  6
CONTINUOUS
 62
     1
 10
352.0
 20
957.0
 30
0.0
 40
12.5
  0
LINE
  8
0
  6
CONTINUOUS
 62
     1
 10
352.0
 20
944.5
 30
0.0
 11
361.2
 21
943.0
 31
0.0
  0
ARC
  8
0
  6
CONTINUOUS
 62
     1
 10
352.0
 20
957.0
 30
0.0
 40
20.5
 50
300.423432294
 51
0.0
  0
ARC
  8
0
  6
CONTINUOUS
 62
     1
 10
362.947984073
 20
938.273488336
 30
0.0
 40
1.2
 50
118.393405187
 51
188.554293104
  0
LINE
  8
0
  6
CONTINUOUS
 62
     1
 10
352.0
 20
943.0
 30
0.0
 11
342.8
 21
943.0
 31
0.0
  0
LINE
  8
0
  6
CONTINUOUS
 62
     1
 10
352.0
 20
944.5
 30
0.0
 11
342.8
 21
943.0
 31
0.0
  0
ARC
  8
0
  6
CONTINUOUS
 62
     1
 10
341.052015927
 20
938.273488336
 30
0.0
 40
1.2
 50
351.445706896
 51
61.606594813
  0
ARC
  8
0
  6
CONTINUOUS
 62
     1
 10
352.0
 20
957.0
 30
0.0
 40
20.5
 50
0.0
 51
239.707348078
  0
LINE
  8
0
  6
CONTINUOUS
 62
     1
 10
342.114285714
 20
937.0
 30
0.0
 11
342.8
 21
943.0
 31
0.0
  0
LINE
  8
0
  6
CONTINUOUS
 62
     1
 10
361.885714286
 20
937.0
 30
0.0
 11
361.2
 21
943.0
 31
0.0
  0
LINE
  8
0
  6
LTYPE2
 62
     2
 10
326.475
 20
957.0
 30
0.0
 11
376.0
 21
957.0
 31
0.0
  0
LINE
  8
0
  6
LTYPE2
 62
     2
 10
352.0
 20
926.4
 30
0.0
 11
352.0
 21
980.4
 31
0.0
  0
LINE
  8
0
  6
CONTINUOUS
 62
     1
 10
342.0
 20
937.0
 30
0.0
 11
376.0
 21
937.0
 31
0.0
  0
POLYLINE
  8
0
  6
CONTINUOUS
 62
     1
 66
     1
  0
VERTEX
  8
0
  6
CONTINUOUS
 62
     1
 10
364.0
 20
838.0
 30
0.0
  0
VERTEX
  8
0
  6
CONTINUOUS
 62
     1
 10
364.0
 20
905.0
 30
0.0
  0
VERTEX
  8
0
  6
CONTINUOUS
 62
     1
 10
333.0
 20
905.0
 30
0.0
  0
SEQEND
  0
LINE
  8
0
  6
CONTINUOUS
 62
     1
 10
364.0
 20
905.0
 30
0.0
 11
368.0
 21
937.0
 31
0.0
  0
LINE
  8
0
  6
CONTINUOUS
 62
     2
 10
1868.92
 20
896.7
 30
0.0
 11
2393.92
 21
896.7
 31
0.0
  0
LINE
  8
0
  6
CONTINUOUS
 62
     2
 10
1868.92
 20
854.7
 30
0.0
 11
2393.92
 21
854.7
 31
0.0
  0
LINE
  8
0
  6
CONTINUOUS
 62
     2
 10
1916.92
 20
1232.7
 30
0.0
 11
1916.92
 21
896.7
 31
0.0
  0
TEXT
  8
0
  6
CONTINUOUS
 62
     2
 10
1901.92
 20
865.5
 30
79.962857143
 40
22.8
  1
付属品
 50
0.0
 41
0.9
 51
0.0
  7
KANJI56
  0
TEXT
  8
0
  6
CONTINUOUS
 62
     2
 10
1901.92
 20
823.5
 30
180.445714286
 40
22.8
  1
台数
 50
0.0
 41
0.9
 51
0.0
  7
KANJI57
  0
LINE
  8
0
  6
CONTINUOUS
 62
     1
 10
1868.92
 20
1628.7
 30
0.0
 11
2393.92
 21
1628.7
 31
0.0
  0
TEXT
  8
0
  6
CONTINUOUS
 62
     2
 10
1943.92
 20
1584.9
 30
17.09964
 40
27.0
  1
マイティシリンダ仕様
 50
0.0
 41
0.9
 51
0.0
  7
KANJI58
  0
LINE
  8
0
  6
CONTINUOUS
 62
     2
 10
1916.92
 20
938.7
 30
0.0
 11
2393.92
 21
938.7
 31
0.0
  0
LINE
  8
0
  6
CONTINUOUS
 62
     2
 10
1916.92
 20
1064.7
 30
0.0
 11
2393.92
 21
1064.7
 31
0.0
  0
LINE
  8
0
  6
CONTINUOUS
 62
     2
 10
1916.92
 20
1106.7
 30
0.0
 11
2393.92
 21
1106.7
 31
0.0
  0
LINE
  8
0
  6
CONTINUOUS
 62
     2
 10
1868.92
 20
1316.7
 30
0.0
 11
2393.92
 21
1316.7
 31
0.0
  0
LINE
  8
0
  6
CONTINUOUS
 62
     2
 10
1868.92
 20
1274.7
 30
0.0
 11
2393.92
 21
1274.7
 31
0.0
  0
LINE
  8
0
  6
CONTINUOUS
 62
     2
 10
1868.92
 20
1232.7
 30
0.0
 11
2393.92
 21
1232.7
 31
0.0
  0
LINE
  8
0
  6
CONTINUOUS
 62
     2
 10
1916.92
 20
1148.7
 30
0.0
 11
2393.92
 21
1148.7
 31
0.0
  0
LINE
  8
0
  6
CONTINUOUS
 62
     2
 10
1916.92
 20
1190.7
 30
0.0
 11
2393.92
 21
1190.7
 31
0.0
  0
LINE
  8
0
  6
CONTINUOUS
 62
     2
 10
1868.92
 20
1526.7
 30
0.0
 11
2393.92
 21
1526.7
 31
0.0
  0
LINE
  8
0
  6
CONTINUOUS
 62
     2
 10
1868.92
 20
1484.7
 30
0.0
 11
2393.92
 21
1484.7
 31
0.0
  0
LINE
  8
0
  6
CONTINUOUS
 62
     2
 10
1868.92
 20
1442.7
 30
0.0
 11
2393.92
 21
1442.7
 31
0.0
  0
LINE
  8
0
  6
CONTINUOUS
 62
     2
 10
1868.92
 20
1400.7
 30
0.0
 11
2393.92
 21
1400.7
 31
0.0
  0
LINE
  8
0
  6
CONTINUOUS
 62
     2
 10
1868.92
 20
1358.7
 30
0.0
 11
2393.92
 21
1358.7
 31
0.0
  0
LINE
  8
0
  6
CONTINUOUS
 62
     2
 10
1868.92
 20
1568.7
 30
0.0
 11
2393.92
 21
1568.7
 31
0.0
  0
TEXT
  8
0
  6
CONTINUOUS
 62
     2
 10
1943.92
 20
1159.5
 30
33.439782857
 40
22.8
  1
電源電圧
 50
0.0
 41
0.9
 51
0.0
  7
KANJI59
  0
TEXT
  8
0
  6
CONTINUOUS
 62
     2
 10
1943.92
 20
1117.5
 30
60.42
 40
22.8
  1
周波数
 50
0.0
 41
0.9
 51
0.0
  7
KANJI60
  0
TEXT
  8
0
  6
CONTINUOUS
 62
     2
 10
1943.92
 20
1075.5
 30
141.36
 40
22.8
  1
電流
 50
0.0
 41
0.9
 51
0.0
  7
KANJI61
  0
TEXT
  8
0
  6
CONTINUOUS
 62
     2
 10
1943.92
 20
1033.5
 30
60.42
 40
22.8
  1
絶縁級
 50
0.0
 41
0.9
 51
0.0
  7
KANJI60
  0
TEXT
  8
0
  6
CONTINUOUS
 62
     2
 10
1901.92
 20
1537.5
 30
180.445714286
 40
22.8
  1
形式
 50
0.0
 41
0.9
 51
0.0
  7
KANJI57
  0
TEXT
  8
0
  6
CONTINUOUS
 62
     2
 10
1901.92
 20
1495.5
 30
180.445714286
 40
22.8
  1
推力
 50
0.0
 41
0.9
 51
0.0
  7
KANJI57
  0
TEXT
  8
0
  6
CONTINUOUS
 62
     2
 10
1901.92
 20
1453.5
 30
29.721428571
 40
22.8
  1
ストローク
 50
0.0
 41
0.9
 51
0.0
  7
KANJI62
  0
TEXT
  8
0
  6
CONTINUOUS
 62
     2
 10
1901.92
 20
1327.5
 30
180.445714286
 40
22.8
  1
構造
 50
0.0
 41
0.9
 51
0.0
  7
KANJI57
  0
TEXT
  8
0
  6
CONTINUOUS
 62
     2
 10
1901.92
 20
1285.5
 30
12.973851429
 40
22.8
  1
過負荷安全装置
 50
0.0
 41
0.9
 51
0.0
  7
KANJI63
  0
TEXT
  8
0
  6
CONTINUOUS
 62
     2
 10
1901.92
 20
1243.5
 30
79.962857143
 40
22.8
  1
塗装色
 50
0.0
 41
0.9
 51
0.0
  7
KANJI56
  0
TEXT
  8
0
  6
CONTINUOUS
 62
     2
 10
1877.92
 20
1369.5
 30
1.954285714
 40
22.8
  1
ピストンロッド回転トルク
 50
0.0
 41
0.9
 51
0.0
  7
KANJI64
  0
LINE
  8
0
  6
CONTINUOUS
 62
     2
 10
1868.92
 20
1022.7
 30
0.0
 11
2393.92
 21
1022.7
 31
0.0
  0
LINE
  8
0
  6
CONTINUOUS
 62
     2
 10
1916.92
 20
980.7
 30
0.0
 11
2393.92
 21
980.7
 31
0.0
  0
TEXT
  8
0
  6
CONTINUOUS
 62
     2
 10
1893.37
 20
1226.7
 30
13.2
 40
21.0
  1
モ　トル仕様
 50
0.0
 41
0.9
 51
0.0
  7
KANJI65
  0
TEXT
  8
0
  6
CONTINUOUS
 62
     2
 10
1893.37
 20
1004.7
 30
1.2
 40
21.0
  1
ブレ　キ
 50
0.0
 41
0.9
 51
0.0
  7
KANJI66
  0
LINE
  8
0
  6
CONTINUOUS
 62
     2
 10
1891.72
 20
954.9
 30
0.0
 11
1891.72
 21
942.3
 31
0.0
  0
TEXT
  8
0
  6
CONTINUOUS
 62
     2
 10
2203.42
 20
1286.7
 30
9.0
 40
21.0
  1
推力リミッタ
 50
0.0
 41
0.9
 51
0.0
  7
KANJI67
  0
TEXT
  8
0
  6
CONTINUOUS
 62
     2
 10
2260.42
 20
1034.7
 30
1.8
 40
18.0
  1
Ｅ
 50
0.0
 41
0.9
 51
0.0
  7
KANJI68
  0
TEXT
  8
0
  6
CONTINUOUS
 62
     2
 10
2216.92
 20
949.5
 30
12.0
 40
21.0
  1
同時切り
 50
0.0
 41
0.9
 51
0.0
  7
KANJI69
  0
TEXT
  8
0
  6
CONTINUOUS
 62
     2
 10
1943.92
 20
991.5
 30
141.36
 40
22.8
  1
形式
 50
0.0
 41
0.9
 51
0.0
  7
KANJI61
  0
TEXT
  8
0
  6
CONTINUOUS
 62
     2
 10
1943.92
 20
949.5
 30
33.439782857
 40
22.8
  1
操作方式
 50
0.0
 41
0.9
 51
0.0
  7
KANJI59
  0
LINE
  8
0
  6
CONTINUOUS
 62
     2
 10
1891.72
 20
1190.1
 30
0.0
 11
1891.72
 21
1176.3
 31
0.0
  0
TEXT
  8
0
  6
CONTINUOUS
 62
     2
 10
1943.92
 20
1201.5
 30
3.0
 40
22.8
  1
出力　相数　極数
 50
0.0
 41
0.9
 51
0.0
  7
KANJI70
  0
TEXT
  8
0
  6
CONTINUOUS
 62
     2
 10
1901.92
 20
1411.5
 30
12.0
 40
22.8
  1
公称速度
 50
0.0
 41
0.9
 51
0.0
  7
KANJI71
  0
TEXT
  8
0
  6
CONTINUOUS
 62
     2
 10
2025.82
 20
1410.3
 30
0.0
 40
21.0
  1
（５０／６０Ｈｚ）
 50
0.0
 41
0.628571429
 51
0.0
  7
KANJI72
  0
TEXT
  8
0
  6
CONTINUOUS
 62
     2
 10
2146.42
 20
991.95
 30
3.3
 40
20.4
  1
スプリング制動式電磁ブレーキ
 50
0.0
 41
0.705882353
 51
0.0
  7
KANJI73
  0
TEXT
  8
0
  6
CONTINUOUS
 62
     2
 10
2365.42
 20
1159.5
 30
0.216
 40
18.0
  1
Ｖ
 50
0.0
 41
0.8
 51
0.0
  7
KANJI74
  0
TEXT
  8
0
  6
CONTINUOUS
 62
     2
 10
2354.62
 20
1117.5
 30
0.216
 40
18.0
  1
Ｈｚ
 50
0.0
 41
0.8
 51
0.0
  7
KANJI74
  0
TEXT
  8
0
  6
CONTINUOUS
 62
     2
 10
2365.42
 20
1075.5
 30
0.216
 40
18.0
  1
Ａ
 50
0.0
 41
0.8
 51
0.0
  7
KANJI74
  0
TEXT
  8
0
  6
CONTINUOUS
 62
     2
 10
2286.52
 20
1202.7
 30
1.8
 40
18.0
  1
３φ
 50
0.0
 41
0.9
 51
0.0
  7
KANJI68
  0
TEXT
  8
0
  6
CONTINUOUS
 62
     2
 10
2346.52
 20
1202.7
 30
1.8
 40
18.0
  1
４Ｐ
 50
0.0
 41
0.9
 51
0.0
  7
KANJI68
  0
TEXT
  8
0
  6
CONTINUOUS
 62
     2
 10
2144.92
 20
1244.7
 30
1.2
 40
19.2
  1
マンセル　７．５ＧＹ　５／４．５
 50
0.0
 41
0.71875
 51
0.0
  7
KANJI75
  0
TEXT
  8
0
  6
CONTINUOUS
 62
     2
 10
2144.92
 20
1160.7
 30
1.8
 40
18.0
  1
　　　　　　　／　　　
 50
0.0
 41
0.9
 51
0.0
  7
KANJI68
  0
TEXT
  8
0
  6
CONTINUOUS
 62
     2
 10
2144.92
 20
1118.7
 30
1.8
 40
18.0
  1
　　　　５０／　６０
 50
0.0
 41
0.9
 51
0.0
  7
KANJI68
  0
TEXT
  8
0
  6
CONTINUOUS
 62
     2
 10
2144.92
 20
1076.7
 30
1.8
 40
18.0
  1
　　　　　　　／　　　
 50
0.0
 41
0.9
 51
0.0
  7
KANJI68
  0
TEXT
  8
0
  6
CONTINUOUS
 62
     2
 10
2349.52
 20
1455.9
 30
0.1536
 40
19.2
  1
ｍｍ
 50
0.0
 41
0.8
 51
0.0
  7
KANJI76
  0
TEXT
  8
0
  6
CONTINUOUS
 62
     2
 10
2203.42
 20
1328.7
 30
9.0
 40
21.0
  1
全閉屋内形
 50
0.0
 41
0.9
 51
0.0
  7
KANJI67
  0
TEXT
  8
0
  6
CONTINUOUS
 62
     2
 10
2310.52
 20
1412.7
 30
0.0
 40
21.0
  1
ｍｍ／ｓｅｃ
 50
0.0
 41
0.571428571
 51
0.0
  7
KANJI77
  0
TEXT
  8
0
  6
CONTINUOUS
 62
     2
 10
2188.72
 20
1496.7
 30
1.8
 40
18.0
  1
４．９ＫＮ（５００ｋｇ）
 50
0.0
 41
0.9
 51
0.0
  7
KANJI68
  0
TEXT
  8
0
  6
CONTINUOUS
 62
     2
 10
2150.92
 20
1202.7
 30
1.8
 40
18.0
  1
　０．３ＫＷ
 50
0.0
 41
0.9
 51
0.0
  7
KANJI68
  0
TEXT
  8
0
  6
CONTINUOUS
 62
     2
 10
2147.92
 20
1412.7
 30
1.8
 40
18.0
  1
　９．４／１１．２
 50
0.0
 41
0.9
 51
0.0
  7
KANJI68
  0
TEXT
  8
0
  6
CONTINUOUS
 62
     2
 10
2158.42
 20
1536.6
 30
1.2
 40
18.0
  1
ＭＤ０５－　Ｌ
 50
0.0
 41
0.833333333
 51
0.0
  7
KANJI78
  0
LINE
  8
0
  6
CONTINUOUS
 62
     1
 10
1868.92
 20
770.7
 30
0.0
 11
2393.92
 21
770.7
 31
0.0
  0
LINE
  8
0
  6
CONTINUOUS
 62
     2
 10
1868.92
 20
812.7
 30
0.0
 11
2393.92
 21
812.7
 31
0.0
  0
TEXT
  8
0
  6
CONTINUOUS
 62
     2
 10
2338.72
 20
782.88
 30
0.0
 40
21.0
  1
ｋｇ
 50
0.0
 41
0.9
 51
0.0
  7
KANJI79
  0
TEXT
  8
0
  6
CONTINUOUS
 62
     2
 10
1900.72
 20
781.5
 30
6.0
 40
21.0
  1
概算重量（１台当り）
 50
0.0
 41
0.857142857
 51
0.0
  7
KANJI80
  0
LINE
  8
0
  6
CONTINUOUS
 62
     1
 10
1868.92
 20
1628.7
 30
0.0
 11
1868.92
 21
770.7
 31
0.0
  0
LINE
  8
0
  6
CONTINUOUS
 62
     2
 10
2144.92
 20
1568.7
 30
0.0
 11
2144.92
 21
770.7
 31
0.0
  0
LINE
  8
0
  6
CONTINUOUS
 62
     1
 10
2393.92
 20
1628.7
 30
0.0
 11
2393.92
 21
770.7
 31
0.0
  0
TEXT
  8
0
  6
CONTINUOUS
 62
     2
 10
1643.5200334
 20
126.899994
 30
1.8
 40
21.0
  1
０７．１０．０５
 50
0.0
 41
0.571428571
 51
0.0
  7
KANJI81
  0
TEXT
  8
0
  6
CONTINUOUS
 62
     2
 10
2159.92
 20
1370.7
 30
0.0
 40
18.0
  1
１３．７Ｎ・ｍ（１．４ｋｇ・ｍ）
 50
0.0
 41
0.833333333
 51
0.0
  7
KANJI82
  0
LINE
  8
0
  6
CONTINUOUS
 62
     1
 10
906.182501379
 20
254.6
 30
0.0
 11
906.182501379
 21
238.0
 31
0.0
  0
ENDSEC
  0
EOF
