  0
SECTION
  2
HEADER
  9
$ACADVER
  1
AC1009
  9
$DWGCODEPAGE
  3
dos932
  9
$EXTMIN
 10
0.0
 20
0.0
 30
0.0
  9
$EXTMAX
 10
2520.0
 20
1782.0
 30
0.0
  9
$LIMMIN
 10
0.0
 20
0.0
  9
$LIMMAX
 10
2520.0
 20
1782.0
  9
$LTSCALE
 40
1.0
  9
$PDMODE
 70
     0
  0
ENDSEC
  0
SECTION
  2
TABLES
  0
TABLE
  2
VPORT
 70
     1
  0
VPORT
  2
*ACTIVE
 70
     0
 10
0.0
 20
0.0
 11
1.0
 21
1.0
 12
1260.0
 22
891.0
 13
0.0
 23
0.0
 14
10.0
 24
10.0
 15
10.0
 25
10.0
 16
0.0
 26
0.0
 36
1.0
 17
0.0
 27
0.0
 37
0.0
 40
2520.0
 41
1.414141414
 42
50.0
 43
0.0
 44
0.0
 50
0.0
 51
0.0
 71
     0
 72
  1000
 73
     1
 74
     3
 75
     0
 76
     0
 77
     0
 78
     0
  0
ENDTAB
  0
TABLE
  2
LTYPE
 70
     7
  0
LTYPE
  2
CONTINUOUS
 70
    64
  3
Solid line
 72
    65
 73
     0
 40
0.0
  0
LTYPE
  2
LTYPE1
 70
    64
  3
HIDDEN
 72
    65
 73
     2
 40
18.0
 49
10.8
 49
-7.2
  0
LTYPE
  2
LTYPE2
 70
    64
  3
CENTER
 72
    65
 73
     4
 40
90.0
 49
63.0
 49
-9.0
 49
9.0
 49
-9.0
  0
LTYPE
  2
LTYPE3
 70
    64
  3
PHANTOM
 72
    65
 73
     6
 40
90.0
 49
67.5
 49
-4.5
 49
4.5
 49
-4.5
 49
4.5
 49
-4.5
  0
LTYPE
  2
LTYPE4
 70
    64
  3
CENTER
 72
    65
 73
     4
 40
60.0
 49
42.0
 49
-6.0
 49
6.0
 49
-6.0
  0
LTYPE
  2
LTYPE5
 70
    64
  3
CENTER
 72
    65
 73
     4
 40
120.0
 49
84.0
 49
-12.0
 49
12.0
 49
-12.0
  0
LTYPE
  2
LTYPE6
 70
    64
  3
CENTER
 72
    65
 73
     4
 40
54.0
 49
37.8
 49
-5.4
 49
5.4
 49
-5.4
  0
ENDTAB
  0
TABLE
  2
LAYER
 70
   128
  0
LAYER
  2
0
 70
     0
 62
     7
  6
CONTINUOUS
  0
LAYER
  2
2
 70
     0
 62
     7
  6
CONTINUOUS
  0
LAYER
  2
3
 70
     0
 62
     7
  6
CONTINUOUS
  0
LAYER
  2
4
 70
     0
 62
     7
  6
CONTINUOUS
  0
LAYER
  2
5
 70
     0
 62
     7
  6
CONTINUOUS
  0
LAYER
  2
6
 70
     0
 62
     7
  6
CONTINUOUS
  0
LAYER
  2
7
 70
     0
 62
     7
  6
CONTINUOUS
  0
LAYER
  2
8
 70
     0
 62
     7
  6
CONTINUOUS
  0
LAYER
  2
9
 70
     0
 62
     7
  6
CONTINUOUS
  0
LAYER
  2
10
 70
     0
 62
     7
  6
CONTINUOUS
  0
LAYER
  2
11
 70
     0
 62
     7
  6
CONTINUOUS
  0
LAYER
  2
12
 70
     0
 62
     7
  6
CONTINUOUS
  0
LAYER
  2
13
 70
     0
 62
     7
  6
CONTINUOUS
  0
LAYER
  2
14
 70
     0
 62
     7
  6
CONTINUOUS
  0
LAYER
  2
15
 70
     0
 62
     7
  6
CONTINUOUS
  0
LAYER
  2
16
 70
     0
 62
     7
  6
CONTINUOUS
  0
LAYER
  2
17
 70
     0
 62
     7
  6
CONTINUOUS
  0
LAYER
  2
18
 70
     0
 62
     7
  6
CONTINUOUS
  0
LAYER
  2
19
 70
     0
 62
     7
  6
CONTINUOUS
  0
LAYER
  2
20
 70
     0
 62
     7
  6
CONTINUOUS
  0
LAYER
  2
21
 70
     0
 62
     7
  6
CONTINUOUS
  0
LAYER
  2
22
 70
     0
 62
     7
  6
CONTINUOUS
  0
LAYER
  2
23
 70
     0
 62
     7
  6
CONTINUOUS
  0
LAYER
  2
24
 70
     0
 62
     7
  6
CONTINUOUS
  0
LAYER
  2
25
 70
     0
 62
     7
  6
CONTINUOUS
  0
LAYER
  2
26
 70
     0
 62
     7
  6
CONTINUOUS
  0
LAYER
  2
27
 70
     0
 62
     7
  6
CONTINUOUS
  0
LAYER
  2
28
 70
     0
 62
     7
  6
CONTINUOUS
  0
LAYER
  2
29
 70
     0
 62
     7
  6
CONTINUOUS
  0
LAYER
  2
30
 70
     0
 62
     7
  6
CONTINUOUS
  0
LAYER
  2
31
 70
     0
 62
     7
  6
CONTINUOUS
  0
LAYER
  2
32
 70
     0
 62
     7
  6
CONTINUOUS
  0
LAYER
  2
33
 70
     0
 62
     7
  6
CONTINUOUS
  0
LAYER
  2
34
 70
     0
 62
     7
  6
CONTINUOUS
  0
LAYER
  2
35
 70
     0
 62
     7
  6
CONTINUOUS
  0
LAYER
  2
36
 70
     0
 62
     7
  6
CONTINUOUS
  0
LAYER
  2
37
 70
     0
 62
     7
  6
CONTINUOUS
  0
LAYER
  2
38
 70
     0
 62
     7
  6
CONTINUOUS
  0
LAYER
  2
39
 70
     0
 62
     7
  6
CONTINUOUS
  0
LAYER
  2
40
 70
     0
 62
     7
  6
CONTINUOUS
  0
LAYER
  2
41
 70
     0
 62
     7
  6
CONTINUOUS
  0
LAYER
  2
42
 70
     0
 62
     7
  6
CONTINUOUS
  0
LAYER
  2
43
 70
     0
 62
     7
  6
CONTINUOUS
  0
LAYER
  2
44
 70
     0
 62
     7
  6
CONTINUOUS
  0
LAYER
  2
45
 70
     0
 62
     7
  6
CONTINUOUS
  0
LAYER
  2
46
 70
     0
 62
     7
  6
CONTINUOUS
  0
LAYER
  2
47
 70
     0
 62
     7
  6
CONTINUOUS
  0
LAYER
  2
48
 70
     0
 62
     7
  6
CONTINUOUS
  0
LAYER
  2
49
 70
     0
 62
     7
  6
CONTINUOUS
  0
LAYER
  2
50
 70
     0
 62
     7
  6
CONTINUOUS
  0
LAYER
  2
51
 70
     0
 62
     7
  6
CONTINUOUS
  0
LAYER
  2
52
 70
     0
 62
     7
  6
CONTINUOUS
  0
LAYER
  2
53
 70
     0
 62
     7
  6
CONTINUOUS
  0
LAYER
  2
54
 70
     0
 62
     7
  6
CONTINUOUS
  0
LAYER
  2
55
 70
     0
 62
     7
  6
CONTINUOUS
  0
LAYER
  2
56
 70
     0
 62
     7
  6
CONTINUOUS
  0
LAYER
  2
57
 70
     0
 62
     7
  6
CONTINUOUS
  0
LAYER
  2
58
 70
     0
 62
     7
  6
CONTINUOUS
  0
LAYER
  2
59
 70
     0
 62
     7
  6
CONTINUOUS
  0
LAYER
  2
60
 70
     0
 62
     7
  6
CONTINUOUS
  0
LAYER
  2
61
 70
     0
 62
     7
  6
CONTINUOUS
  0
LAYER
  2
62
 70
     0
 62
     7
  6
CONTINUOUS
  0
LAYER
  2
63
 70
     0
 62
     7
  6
CONTINUOUS
  0
LAYER
  2
64
 70
     0
 62
     7
  6
CONTINUOUS
  0
LAYER
  2
65
 70
     0
 62
     7
  6
CONTINUOUS
  0
LAYER
  2
66
 70
     0
 62
     7
  6
CONTINUOUS
  0
LAYER
  2
67
 70
     0
 62
     7
  6
CONTINUOUS
  0
LAYER
  2
68
 70
     0
 62
     7
  6
CONTINUOUS
  0
LAYER
  2
69
 70
     0
 62
     7
  6
CONTINUOUS
  0
LAYER
  2
70
 70
     0
 62
     7
  6
CONTINUOUS
  0
LAYER
  2
71
 70
     0
 62
     7
  6
CONTINUOUS
  0
LAYER
  2
72
 70
     0
 62
     7
  6
CONTINUOUS
  0
LAYER
  2
73
 70
     0
 62
     7
  6
CONTINUOUS
  0
LAYER
  2
74
 70
     0
 62
     7
  6
CONTINUOUS
  0
LAYER
  2
75
 70
     0
 62
     7
  6
CONTINUOUS
  0
LAYER
  2
76
 70
     0
 62
     7
  6
CONTINUOUS
  0
LAYER
  2
77
 70
     0
 62
     7
  6
CONTINUOUS
  0
LAYER
  2
78
 70
     0
 62
     7
  6
CONTINUOUS
  0
LAYER
  2
79
 70
     0
 62
     7
  6
CONTINUOUS
  0
LAYER
  2
80
 70
     0
 62
     7
  6
CONTINUOUS
  0
LAYER
  2
81
 70
     0
 62
     7
  6
CONTINUOUS
  0
LAYER
  2
82
 70
     0
 62
     7
  6
CONTINUOUS
  0
LAYER
  2
83
 70
     0
 62
     7
  6
CONTINUOUS
  0
LAYER
  2
84
 70
     0
 62
     7
  6
CONTINUOUS
  0
LAYER
  2
85
 70
     0
 62
     7
  6
CONTINUOUS
  0
LAYER
  2
86
 70
     0
 62
     7
  6
CONTINUOUS
  0
LAYER
  2
87
 70
     0
 62
     7
  6
CONTINUOUS
  0
LAYER
  2
88
 70
     0
 62
     7
  6
CONTINUOUS
  0
LAYER
  2
89
 70
     0
 62
     7
  6
CONTINUOUS
  0
LAYER
  2
90
 70
     0
 62
     7
  6
CONTINUOUS
  0
LAYER
  2
91
 70
     0
 62
     7
  6
CONTINUOUS
  0
LAYER
  2
92
 70
     0
 62
     7
  6
CONTINUOUS
  0
LAYER
  2
93
 70
     0
 62
     7
  6
CONTINUOUS
  0
LAYER
  2
94
 70
     0
 62
     7
  6
CONTINUOUS
  0
LAYER
  2
95
 70
     0
 62
     7
  6
CONTINUOUS
  0
LAYER
  2
96
 70
     0
 62
     7
  6
CONTINUOUS
  0
LAYER
  2
97
 70
     0
 62
     7
  6
CONTINUOUS
  0
LAYER
  2
98
 70
     0
 62
     7
  6
CONTINUOUS
  0
LAYER
  2
99
 70
     0
 62
     7
  6
CONTINUOUS
  0
LAYER
  2
100
 70
     0
 62
     7
  6
CONTINUOUS
  0
LAYER
  2
101
 70
     0
 62
     7
  6
CONTINUOUS
  0
LAYER
  2
102
 70
     0
 62
     7
  6
CONTINUOUS
  0
LAYER
  2
103
 70
     0
 62
     7
  6
CONTINUOUS
  0
LAYER
  2
104
 70
     0
 62
     7
  6
CONTINUOUS
  0
LAYER
  2
105
 70
     0
 62
     7
  6
CONTINUOUS
  0
LAYER
  2
106
 70
     0
 62
     7
  6
CONTINUOUS
  0
LAYER
  2
107
 70
     0
 62
     7
  6
CONTINUOUS
  0
LAYER
  2
108
 70
     0
 62
     7
  6
CONTINUOUS
  0
LAYER
  2
109
 70
     0
 62
     7
  6
CONTINUOUS
  0
LAYER
  2
110
 70
     0
 62
     7
  6
CONTINUOUS
  0
LAYER
  2
111
 70
     0
 62
     7
  6
CONTINUOUS
  0
LAYER
  2
112
 70
     0
 62
     7
  6
CONTINUOUS
  0
LAYER
  2
113
 70
     0
 62
     7
  6
CONTINUOUS
  0
LAYER
  2
114
 70
     0
 62
     7
  6
CONTINUOUS
  0
LAYER
  2
115
 70
     0
 62
     7
  6
CONTINUOUS
  0
LAYER
  2
116
 70
     0
 62
     7
  6
CONTINUOUS
  0
LAYER
  2
117
 70
     0
 62
     7
  6
CONTINUOUS
  0
LAYER
  2
118
 70
     0
 62
     7
  6
CONTINUOUS
  0
LAYER
  2
119
 70
     0
 62
     7
  6
CONTINUOUS
  0
LAYER
  2
120
 70
     0
 62
     7
  6
CONTINUOUS
  0
LAYER
  2
121
 70
     0
 62
     7
  6
CONTINUOUS
  0
LAYER
  2
122
 70
     0
 62
     7
  6
CONTINUOUS
  0
LAYER
  2
123
 70
     0
 62
     7
  6
CONTINUOUS
  0
LAYER
  2
124
 70
     0
 62
     7
  6
CONTINUOUS
  0
LAYER
  2
125
 70
     0
 62
     7
  6
CONTINUOUS
  0
LAYER
  2
126
 70
     0
 62
     7
  6
CONTINUOUS
  0
LAYER
  2
127
 70
     0
 62
     7
  6
CONTINUOUS
  0
LAYER
  2
128
 70
     0
 62
     7
  6
CONTINUOUS
  0
ENDTAB
  0
TABLE
  2
STYLE
 70
    87
  0
STYLE
  2
STANDARD
 70
     0
 40
0.0
 41
1.0
 50
0.0
 71
     0
 42
0.2
  3
txt.shx
  4
extfont.shx
  0
STYLE
  2
KANJI0
 70
     0
 40
15.5999988
 41
0.75
 50
0.0
 71
     0
 42
15.5999988
  3
txt.shx
  4
extfont.shx
  0
STYLE
  2
KANJI1
 70
     0
 40
11.999997477
 41
0.6
 50
0.0
 71
     0
 42
11.999997477
  3
txt.shx
  4
extfont.shx
  0
STYLE
  2
KANJI2
 70
     0
 40
14.399996972
 41
0.9
 50
0.0
 71
     0
 42
14.399996972
  3
txt.shx
  4
extfont.shx
  0
STYLE
  2
KANJI3
 70
     0
 40
17.999996215
 41
0.9
 50
0.0
 71
     0
 42
17.999996215
  3
txt.shx
  4
extfont.shx
  0
STYLE
  2
KANJI4
 70
     0
 40
10.3999992
 41
0.6
 50
0.0
 71
     0
 42
10.3999992
  3
txt.shx
  4
extfont.shx
  0
STYLE
  2
KANJI5
 70
     0
 40
12.47999904
 41
0.6
 50
0.0
 71
     0
 42
12.47999904
  3
txt.shx
  4
extfont.shx
  0
STYLE
  2
KANJI6
 70
     0
 40
18.1999986
 41
0.42031746
 50
0.0
 71
     0
 42
18.1999986
  3
txt.shx
  4
extfont.shx
  0
STYLE
  2
KANJI7
 70
     0
 40
31.1999976
 41
0.9
 50
0.0
 71
     0
 42
31.1999976
  3
txt.shx
  4
extfont.shx
  0
STYLE
  2
KANJI8
 70
     0
 40
21.6
 41
1.111111111
 50
0.0
 71
     0
 42
21.6
  3
txt.shx
  4
extfont.shx
  0
STYLE
  2
KANJI9
 70
     0
 40
10.3999992
 41
0.8
 50
0.0
 71
     0
 42
10.3999992
  3
txt.shx
  4
extfont.shx
  0
STYLE
  2
KANJI10
 70
     0
 40
12.47999904
 41
0.8
 50
0.0
 71
     0
 42
12.47999904
  3
txt.shx
  4
extfont.shx
  0
STYLE
  2
KANJI11
 70
     0
 40
30.0
 41
1.0
 50
0.0
 71
     0
 42
30.0
  3
txt.shx
  4
extfont.shx
  0
STYLE
  2
KANJI12
 70
     0
 40
30.0
 41
1.0
 50
0.0
 71
     0
 42
30.0
  3
txt.shx
  4
extfont.shx
  0
STYLE
  2
KANJI13
 70
     0
 40
30.0
 41
0.8
 50
0.0
 71
     0
 42
30.0
  3
txt.shx
  4
extfont.shx
  0
STYLE
  2
KANJI14
 70
     0
 40
24.0
 41
1.0
 50
0.0
 71
     0
 42
24.0
  3
txt.shx
  4
extfont.shx
  0
STYLE
  2
KANJI15
 70
     0
 40
21.0
 41
0.857142857
 50
0.0
 71
     0
 42
21.0
  3
txt.shx
  4
extfont.shx
  0
STYLE
  2
KANJI16
 70
     0
 40
27.0
 41
0.666666667
 50
0.0
 71
     0
 42
27.0
  3
txt.shx
  4
extfont.shx
  0
STYLE
  2
KANJI17
 70
     0
 40
13.86
 41
0.9
 50
0.0
 71
     0
 42
13.86
  3
txt.shx
  4
extfont.shx
  0
STYLE
  2
KANJI18
 70
     0
 40
18.0
 41
0.9
 50
0.0
 71
     0
 42
18.0
  3
txt.shx
  4
extfont.shx
  0
STYLE
  2
KANJI19
 70
     0
 40
21.0
 41
0.793650794
 50
0.0
 71
     0
 42
21.0
  3
txt.shx
  4
extfont.shx
  0
STYLE
  2
KANJI20
 70
     0
 40
30.0
 41
0.8
 50
0.0
 71
     0
 42
30.0
  3
txt.shx
  4
extfont.shx
  0
STYLE
  2
KANJI21
 70
     0
 40
18.223173404
 41
0.66671875
 50
0.0
 71
     0
 42
18.223173404
  3
txt.shx
  4
extfont.shx
  0
STYLE
  2
KANJI22
 70
     0
 40
21.867808085
 41
0.9
 50
0.0
 71
     0
 42
21.867808085
  3
txt.shx
  4
extfont.shx
  0
STYLE
  2
KANJI23
 70
     0
 40
18.72
 41
0.925
 50
0.0
 71
     0
 42
18.72
  3
txt.shx
  4
extfont.shx
  0
STYLE
  2
KANJI24
 70
     0
 40
17.494246468
 41
0.9
 50
0.0
 71
     0
 42
17.494246468
  3
txt.shx
  4
extfont.shx
  0
STYLE
  2
KANJI25
 70
     0
 40
13.120684851
 41
0.9
 50
0.0
 71
     0
 42
13.120684851
  3
txt.shx
  4
extfont.shx
  0
STYLE
  2
KANJI26
 70
     0
 40
17.031074144
 41
0.880962996
 50
0.0
 71
     0
 42
17.031074144
  3
txt.shx
  4
extfont.shx
  0
STYLE
  2
KANJI27
 70
     0
 40
14.37696
 41
0.9125
 50
0.0
 71
     0
 42
14.37696
  3
txt.shx
  4
extfont.shx
  0
STYLE
  2
KANJI28
 70
     0
 40
11.232
 41
0.8
 50
0.0
 71
     0
 42
11.232
  3
txt.shx
  4
extfont.shx
  0
STYLE
  2
KANJI29
 70
     0
 40
14.4
 41
0.911
 50
0.0
 71
     0
 42
14.4
  3
txt.shx
  4
extfont.shx
  0
STYLE
  2
KANJI30
 70
     0
 40
13.9932
 41
0.943315325
 50
0.0
 71
     0
 42
13.9932
  3
txt.shx
  4
extfont.shx
  0
STYLE
  2
KANJI31
 70
     0
 40
18.0
 41
0.9
 50
0.0
 71
     0
 42
18.0
  3
txt.shx
  4
extfont.shx
  0
STYLE
  2
KANJI32
 70
     0
 40
12.0
 41
0.85
 50
0.0
 71
     0
 42
12.0
  3
txt.shx
  4
extfont.shx
  0
STYLE
  2
KANJI33
 70
     0
 40
21.0
 41
0.857222222
 50
0.0
 71
     0
 42
21.0
  3
txt.shx
  4
extfont.shx
  0
STYLE
  2
KANJI34
 70
     0
 40
21.0
 41
0.857142857
 50
0.0
 71
     0
 42
21.0
  3
txt.shx
  4
extfont.shx
  0
STYLE
  2
KANJI35
 70
     0
 40
24.0
 41
0.9
 50
0.0
 71
     0
 42
24.0
  3
txt.shx
  4
extfont.shx
  0
STYLE
  2
KANJI36
 70
     0
 40
16.17
 41
0.9
 50
0.0
 71
     0
 42
16.17
  3
txt.shx
  4
extfont.shx
  0
STYLE
  2
KANJI37
 70
     0
 40
17.5
 41
0.9
 50
0.0
 71
     0
 42
17.5
  3
txt.shx
  4
extfont.shx
  0
STYLE
  2
KANJI38
 70
     0
 40
17.5
 41
0.9
 50
0.0
 71
     0
 42
17.5
  3
txt.shx
  4
extfont.shx
  0
STYLE
  2
KANJI39
 70
     0
 40
17.5
 41
0.9
 50
0.0
 71
     0
 42
17.5
  3
txt.shx
  4
extfont.shx
  0
STYLE
  2
KANJI40
 70
     0
 40
17.5
 41
0.9
 50
0.0
 71
     0
 42
17.5
  3
txt.shx
  4
extfont.shx
  0
STYLE
  2
KANJI41
 70
     0
 40
18.0
 41
0.866666667
 50
0.0
 71
     0
 42
18.0
  3
txt.shx
  4
extfont.shx
  0
STYLE
  2
KANJI42
 70
     0
 40
18.0
 41
0.766666667
 50
0.0
 71
     0
 42
18.0
  3
txt.shx
  4
extfont.shx
  0
STYLE
  2
KANJI43
 70
     0
 40
18.0
 41
0.933333333
 50
0.0
 71
     0
 42
18.0
  3
txt.shx
  4
extfont.shx
  0
STYLE
  2
KANJI44
 70
     0
 40
20.0
 41
0.925
 50
0.0
 71
     0
 42
20.0
  3
txt.shx
  4
extfont.shx
  0
STYLE
  2
KANJI45
 70
     0
 40
20.0
 41
0.925
 50
0.0
 71
     0
 42
20.0
  3
txt.shx
  4
extfont.shx
  0
STYLE
  2
KANJI46
 70
     0
 40
15.0
 41
0.9
 50
0.0
 71
     0
 42
15.0
  3
txt.shx
  4
extfont.shx
  0
STYLE
  2
KANJI47
 70
     0
 40
15.0
 41
0.9
 50
0.0
 71
     0
 42
15.0
  3
txt.shx
  4
extfont.shx
  0
STYLE
  2
KANJI48
 70
     0
 40
15.36
 41
0.9
 50
0.0
 71
     0
 42
15.36
  3
txt.shx
  4
extfont.shx
  0
STYLE
  2
KANJI49
 70
     0
 40
14.4
 41
0.9
 50
0.0
 71
     0
 42
14.4
  3
txt.shx
  4
extfont.shx
  0
STYLE
  2
KANJI50
 70
     0
 40
14.4
 41
0.9
 50
0.0
 71
     0
 42
14.4
  3
txt.shx
  4
extfont.shx
  0
STYLE
  2
KANJI51
 70
     0
 40
16.8
 41
0.9
 50
0.0
 71
     0
 42
16.8
  3
txt.shx
  4
extfont.shx
  0
STYLE
  2
KANJI52
 70
     0
 40
12.96
 41
0.740740741
 50
0.0
 71
     0
 42
12.96
  3
txt.shx
  4
extfont.shx
  0
STYLE
  2
KANJI53
 70
     0
 40
16.8
 41
0.857142857
 50
0.0
 71
     0
 42
16.8
  3
txt.shx
  4
extfont.shx
  0
STYLE
  2
KANJI54
 70
     0
 40
14.4
 41
0.833333333
 50
0.0
 71
     0
 42
14.4
  3
txt.shx
  4
extfont.shx
  0
STYLE
  2
KANJI55
 70
     0
 40
18.0
 41
0.9
 50
0.0
 71
     0
 42
18.0
  3
txt.shx
  4
extfont.shx
  0
STYLE
  2
KANJI56
 70
     4
 40
216.0
 41
0.180555556
 50
0.0
 71
     0
 42
216.0
  3
txt.shx
  4
extfont.shx
  0
STYLE
  2
KANJI57
 70
     0
 40
18.98208
 41
0.85
 50
0.0
 71
     0
 42
18.98208
  3
txt.shx
  4
extfont.shx
  0
STYLE
  2
KANJI58
 70
     0
 40
16.8
 41
0.714285714
 50
0.0
 71
     0
 42
16.8
  3
txt.shx
  4
extfont.shx
  0
STYLE
  2
KANJI59
 70
     0
 40
22.8
 41
0.9
 50
0.0
 71
     0
 42
22.8
  3
txt.shx
  4
extfont.shx
  0
STYLE
  2
KANJI60
 70
     0
 40
22.8
 41
0.9
 50
0.0
 71
     0
 42
22.8
  3
txt.shx
  4
extfont.shx
  0
STYLE
  2
KANJI61
 70
     0
 40
27.0
 41
0.9
 50
0.0
 71
     0
 42
27.0
  3
txt.shx
  4
extfont.shx
  0
STYLE
  2
KANJI62
 70
     0
 40
22.8
 41
0.9
 50
0.0
 71
     0
 42
22.8
  3
txt.shx
  4
extfont.shx
  0
STYLE
  2
KANJI63
 70
     0
 40
22.8
 41
0.9
 50
0.0
 71
     0
 42
22.8
  3
txt.shx
  4
extfont.shx
  0
STYLE
  2
KANJI64
 70
     0
 40
22.8
 41
0.9
 50
0.0
 71
     0
 42
22.8
  3
txt.shx
  4
extfont.shx
  0
STYLE
  2
KANJI65
 70
     0
 40
22.8
 41
0.9
 50
0.0
 71
     0
 42
22.8
  3
txt.shx
  4
extfont.shx
  0
STYLE
  2
KANJI66
 70
     0
 40
22.8
 41
0.9
 50
0.0
 71
     0
 42
22.8
  3
txt.shx
  4
extfont.shx
  0
STYLE
  2
KANJI67
 70
     0
 40
22.8
 41
0.9
 50
0.0
 71
     0
 42
22.8
  3
txt.shx
  4
extfont.shx
  0
STYLE
  2
KANJI68
 70
     4
 40
21.0
 41
0.9
 50
0.0
 71
     0
 42
21.0
  3
txt.shx
  4
extfont.shx
  0
STYLE
  2
KANJI69
 70
     4
 40
21.0
 41
0.9
 50
0.0
 71
     0
 42
21.0
  3
txt.shx
  4
extfont.shx
  0
STYLE
  2
KANJI70
 70
     0
 40
21.0
 41
0.9
 50
0.0
 71
     0
 42
21.0
  3
txt.shx
  4
extfont.shx
  0
STYLE
  2
KANJI71
 70
     0
 40
18.0
 41
0.9
 50
0.0
 71
     0
 42
18.0
  3
txt.shx
  4
extfont.shx
  0
STYLE
  2
KANJI72
 70
     0
 40
21.0
 41
0.9
 50
0.0
 71
     0
 42
21.0
  3
txt.shx
  4
extfont.shx
  0
STYLE
  2
KANJI73
 70
     0
 40
22.8
 41
0.9
 50
0.0
 71
     0
 42
22.8
  3
txt.shx
  4
extfont.shx
  0
STYLE
  2
KANJI74
 70
     0
 40
22.8
 41
0.9
 50
0.0
 71
     0
 42
22.8
  3
txt.shx
  4
extfont.shx
  0
STYLE
  2
KANJI75
 70
     0
 40
21.0
 41
0.628571429
 50
0.0
 71
     0
 42
21.0
  3
txt.shx
  4
extfont.shx
  0
STYLE
  2
KANJI76
 70
     0
 40
20.4
 41
0.705882353
 50
0.0
 71
     0
 42
20.4
  3
txt.shx
  4
extfont.shx
  0
STYLE
  2
KANJI77
 70
     0
 40
18.0
 41
0.8
 50
0.0
 71
     0
 42
18.0
  3
txt.shx
  4
extfont.shx
  0
STYLE
  2
KANJI78
 70
     0
 40
19.2
 41
0.71875
 50
0.0
 71
     0
 42
19.2
  3
txt.shx
  4
extfont.shx
  0
STYLE
  2
KANJI79
 70
     0
 40
19.2
 41
0.8
 50
0.0
 71
     0
 42
19.2
  3
txt.shx
  4
extfont.shx
  0
STYLE
  2
KANJI80
 70
     0
 40
21.0
 41
0.571428571
 50
0.0
 71
     0
 42
21.0
  3
txt.shx
  4
extfont.shx
  0
STYLE
  2
KANJI81
 70
     0
 40
18.0
 41
0.833333333
 50
0.0
 71
     0
 42
18.0
  3
txt.shx
  4
extfont.shx
  0
STYLE
  2
KANJI82
 70
     0
 40
21.0
 41
0.9
 50
0.0
 71
     0
 42
21.0
  3
txt.shx
  4
extfont.shx
  0
STYLE
  2
KANJI83
 70
     0
 40
21.0
 41
0.857142857
 50
0.0
 71
     0
 42
21.0
  3
txt.shx
  4
extfont.shx
  0
STYLE
  2
KANJI84
 70
     0
 40
21.0
 41
0.571428571
 50
0.0
 71
     0
 42
21.0
  3
txt.shx
  4
extfont.shx
  0
STYLE
  2
KANJI85
 70
     0
 40
18.0
 41
0.833333333
 50
0.0
 71
     0
 42
18.0
  3
txt.shx
  4
extfont.shx
  0
ENDTAB
  0
TABLE
  2
VIEW
 70
     0
  0
ENDTAB
  0
ENDSEC
  0
SECTION
  2
BLOCKS
  0
ENDSEC
  0
SECTION
  2
ENTITIES
  0
POLYLINE
  8
0
  6
CONTINUOUS
 62
     6
 66
     1
  0
VERTEX
  8
0
  6
CONTINUOUS
 62
     6
 10
60.92
 20
64.6
 30
0.0
  0
VERTEX
  8
0
  6
CONTINUOUS
 62
     6
 10
60.92
 20
1678.6
 30
0.0
  0
VERTEX
  8
0
  6
CONTINUOUS
 62
     6
 10
2382.92
 20
1678.6
 30
0.0
  0
SEQEND
  0
LINE
  8
0
  6
CONTINUOUS
 62
     6
 10
66.919998738
 20
154.599981077
 30
0.0
 11
456.919916738
 21
154.599981077
 31
0.0
  0
LINE
  8
0
  6
CONTINUOUS
 62
     6
 10
66.919998738
 20
70.599998738
 30
0.0
 11
456.919916738
 21
70.599998738
 31
0.0
  0
LINE
  8
0
  6
CONTINUOUS
 62
     6
 10
66.919998738
 20
70.599998738
 30
0.0
 11
66.919998738
 21
154.599981077
 31
0.0
  0
LINE
  8
0
  6
CONTINUOUS
 62
     6
 10
66.919998738
 20
112.599989908
 30
0.0
 11
456.919916738
 21
112.599989908
 31
0.0
  0
LINE
  8
0
  6
CONTINUOUS
 62
     4
 10
-7.3800004
 20
69.7999996
 30
0.0
 11
55.0199948
 21
69.7999996
 31
0.0
  0
LINE
  8
0
  6
CONTINUOUS
 62
     4
 10
-7.3800004
 20
100.9999972
 30
0.0
 11
55.0199948
 21
100.9999972
 31
0.0
  0
LINE
  8
0
  6
CONTINUOUS
 62
     4
 10
-7.3800004
 20
132.1999948
 30
0.0
 11
55.0199948
 21
132.1999948
 31
0.0
  0
LINE
  8
0
  6
CONTINUOUS
 62
     4
 10
-7.3800004
 20
163.3999924
 30
0.0
 11
55.0199948
 21
163.3999924
 31
0.0
  0
LINE
  8
0
  6
CONTINUOUS
 62
     4
 10
-7.3800004
 20
194.59999
 30
0.0
 11
55.0199948
 21
194.59999
 31
0.0
  0
LINE
  8
0
  6
CONTINUOUS
 62
     4
 10
-7.3800004
 20
225.7999876
 30
0.0
 11
55.0199948
 21
225.7999876
 31
0.0
  0
LINE
  8
0
  6
CONTINUOUS
 62
     4
 10
-7.3800004
 20
256.9999852
 30
0.0
 11
55.0199948
 21
256.9999852
 31
0.0
  0
LINE
  8
0
  6
CONTINUOUS
 62
     4
 10
-7.3800004
 20
288.1999828
 30
0.0
 11
55.0199948
 21
288.1999828
 31
0.0
  0
LINE
  8
0
  6
CONTINUOUS
 62
     4
 10
-7.3800004
 20
319.3999804
 30
0.0
 11
55.0199948
 21
319.3999804
 31
0.0
  0
LINE
  8
0
  6
CONTINUOUS
 62
     4
 10
-7.3800004
 20
350.599978
 30
0.0
 11
55.0199948
 21
350.599978
 31
0.0
  0
LINE
  8
0
  6
CONTINUOUS
 62
     4
 10
55.0199948
 20
69.7999996
 30
0.0
 11
55.0199948
 21
350.599978
 31
0.0
  0
LINE
  8
0
  6
CONTINUOUS
 62
     4
 10
23.8199972
 20
69.7999996
 30
0.0
 11
23.8199972
 21
319.3999804
 31
0.0
  0
TEXT
  8
0
  6
CONTINUOUS
 62
     4
 10
3.27999878
 20
78.8999989
 30
1.55999988
 40
15.5999988
  1
計
 50
0.0
 41
0.75
 51
0.0
  7
KANJI0
  0
TEXT
  8
0
  6
CONTINUOUS
 62
     4
 10
3.27999878
 20
141.81999406
 30
1.55999988
 40
15.5999988
  1
設
 50
0.0
 41
0.75
 51
0.0
  7
KANJI0
  0
TEXT
  8
0
  6
CONTINUOUS
 62
     4
 10
3.27999878
 20
172.4999917
 30
1.55999988
 40
15.5999988
  1
管
 50
0.0
 41
0.75
 51
0.0
  7
KANJI0
  0
TEXT
  8
0
  6
CONTINUOUS
 62
     4
 10
3.27999878
 20
203.6999893
 30
1.55999988
 40
15.5999988
  1
製
 50
0.0
 41
0.75
 51
0.0
  7
KANJI0
  0
TEXT
  8
0
  6
CONTINUOUS
 62
     4
 10
3.27999878
 20
234.8999869
 30
1.55999988
 40
15.5999988
  1
資
 50
0.0
 41
0.75
 51
0.0
  7
KANJI0
  0
TEXT
  8
0
  6
CONTINUOUS
 62
     4
 10
3.27999878
 20
266.0999845
 30
1.55999988
 40
15.5999988
  1
営
 50
0.0
 41
0.75
 51
0.0
  7
KANJI0
  0
TEXT
  8
0
  6
CONTINUOUS
 62
     4
 10
3.27999878
 20
297.2999821
 30
1.55999988
 40
15.5999988
  1
客
 50
0.0
 41
0.75
 51
0.0
  7
KANJI0
  0
TEXT
  8
0
  6
CONTINUOUS
 62
     4
 10
3.0199988
 20
329.7999796
 30
1.55999988
 40
15.5999988
  1
出　図
 50
0.0
 41
0.75
 51
0.0
  7
KANJI0
  0
LINE
  8
0
  6
CONTINUOUS
 62
     4
 10
-7.3800004
 20
69.7999996
 30
0.0
 11
-7.3800004
 21
350.599978
 31
0.0
  0
LINE
  8
0
  6
CONTINUOUS
 62
     6
 10
2382.92
 20
64.6
 30
0.0
 11
60.92
 21
64.6
 31
0.0
  0
TEXT
  8
0
  6
CONTINUOUS
 62
     4
 10
78.919996215
 20
94.599993692
 30
1.199999748
 40
11.999997477
  1
ＰＡＲＴＳ　ＬＩＳＴ
 50
0.0
 41
0.6
 51
0.0
  7
KANJI1
  0
TEXT
  8
0
  6
CONTINUOUS
 62
     4
 10
78.919996215
 20
76.599997477
 30
1.439999697
 40
14.399996972
  1
部品表
 50
0.0
 41
0.9
 51
0.0
  7
KANJI2
  0
TEXT
  8
0
  6
CONTINUOUS
 62
     3
 10
78.919996215
 20
124.599987385
 30
1.799999622
 40
17.999996215
  1
ＰＬ
 50
0.0
 41
0.9
 51
0.0
  7
KANJI3
  0
TEXT
  8
0
  6
CONTINUOUS
 62
     4
 10
348.919939446
 20
94.599993692
 30
1.199999748
 40
11.999997477
  1
Ｎ０．
 50
0.0
 41
0.6
 51
0.0
  7
KANJI1
  0
TEXT
  8
0
  6
CONTINUOUS
 62
     4
 10
348.919939446
 20
76.599997477
 30
1.439999697
 40
14.399996972
  1
項番
 50
0.0
 41
0.9
 51
0.0
  7
KANJI2
  0
LINE
  8
0
  6
CONTINUOUS
 62
     6
 10
456.919916738
 20
70.599998738
 30
0.0
 11
456.919916738
 21
154.599981077
 31
0.0
  0
LINE
  8
0
  6
CONTINUOUS
 62
     6
 10
336.919941969
 20
70.599998738
 30
0.0
 11
336.919941969
 21
154.599981077
 31
0.0
  0
LINE
  8
0
  6
CONTINUOUS
 62
     6
 10
2382.92
 20
1678.6
 30
0.0
 11
2382.92
 21
64.6
 31
0.0
  0
LINE
  8
0
  6
CONTINUOUS
 62
     6
 10
1576.920062
 20
69.7999996
 30
0.0
 11
1576.920062
 21
402.599974
 31
0.0
  0
LINE
  8
0
  6
CONTINUOUS
 62
     6
 10
2377.7200004
 20
69.7999996
 30
0.0
 11
2377.7200004
 21
402.599974
 31
0.0
  0
LINE
  8
0
  6
CONTINUOUS
 62
     4
 10
1766.7200474
 20
69.7999996
 30
0.0
 11
1766.7200474
 21
402.599974
 31
0.0
  0
LINE
  8
0
  6
CONTINUOUS
 62
     4
 10
1576.920062
 20
111.3999964
 30
0.0
 11
1766.7200474
 21
111.3999964
 31
0.0
  0
TEXT
  8
0
  6
CONTINUOUS
 62
     4
 10
1587.3200612
 20
93.1999978
 30
1.03999992
 40
10.3999992
  1
ＳＣＡＬＥ
 50
0.0
 41
0.6
 51
0.0
  7
KANJI4
  0
TEXT
  8
0
  6
CONTINUOUS
 62
     4
 10
1587.3200612
 20
77.599999
 30
1.247999904
 40
12.47999904
  1
尺度
 50
0.0
 41
0.6
 51
0.0
  7
KANJI5
  0
LINE
  8
0
  6
CONTINUOUS
 62
     6
 10
1166.1200936
 20
111.3999964
 30
0.0
 11
1576.920062
 21
111.3999964
 31
0.0
  0
LINE
  8
0
  6
CONTINUOUS
 62
     6
 10
1166.1200936
 20
69.7999996
 30
0.0
 11
2377.7200004
 21
69.7999996
 31
0.0
  0
TEXT
  8
0
  6
CONTINUOUS
 62
     6
 10
1771.920047
 20
93.1999978
 30
0.0
 40
18.1999986
  1
ＵＮＩＴＥＣ　ＩＮＤＵＳＴＲＹ　ＣＯ．，ＬＴＤ．
 50
0.0
 41
0.42031746
 51
0.0
  7
KANJI6
  0
TEXT
  8
0
  6
CONTINUOUS
 62
     6
 10
2027.175027365
 20
86.43999832
 30
3.11999976
 40
31.1999976
  1
ユニテック工業株式会社
 50
0.0
 41
0.9
 51
0.0
  7
KANJI7
  0
LINE
  8
0
  6
CONTINUOUS
 62
     6
 10
1985.575030565
 20
97.35999748
 30
0.0
 11
1971.847031621
 21
97.35999748
 31
0.0
  0
LINE
  8
0
  6
CONTINUOUS
 62
     6
 10
1985.575030565
 20
99.855997288
 30
0.0
 11
1971.847031621
 21
99.855997288
 31
0.0
  0
LINE
  8
0
  6
CONTINUOUS
 62
     6
 10
1985.575030565
 20
97.35999748
 30
0.0
 11
1999.303029509
 21
97.35999748
 31
0.0
  0
LINE
  8
0
  6
CONTINUOUS
 62
     6
 10
1985.575030565
 20
99.855997288
 30
0.0
 11
1999.303029509
 21
99.855997288
 31
0.0
  0
LINE
  8
0
  6
CONTINUOUS
 62
     6
 10
1999.303029509
 20
99.855997288
 30
0.0
 11
1999.303029509
 21
97.35999748
 31
0.0
  0
ARC
  8
0
  6
CONTINUOUS
 62
     6
 10
2002.423029269
 20
98.607997384
 30
0.0
 40
12.47999904
 50
185.739170477
 51
90.0
  0
ARC
  8
0
  6
CONTINUOUS
 62
     6
 10
2002.423029269
 20
98.607997384
 30
0.0
 40
14.975998848
 50
184.780191847
 51
90.0
  0
LINE
  8
0
  6
CONTINUOUS
 62
     6
 10
1971.847031621
 20
97.35999748
 30
0.0
 11
1971.847031621
 21
99.855997288
 31
0.0
  0
ARC
  8
0
  6
CONTINUOUS
 62
     6
 10
1968.727031861
 20
98.607997384
 30
0.0
 40
12.47999904
 50
90.0
 51
354.260829523
  0
ARC
  8
0
  6
CONTINUOUS
 62
     6
 10
1968.727031861
 20
98.607997384
 30
0.0
 40
14.975998848
 50
90.0
 51
355.219808153
  0
LINE
  8
0
  6
CONTINUOUS
 62
     6
 10
1983.703030709
 20
113.583996232
 30
0.0
 11
1983.703030709
 21
111.087996424
 31
0.0
  0
LINE
  8
0
  6
CONTINUOUS
 62
     6
 10
1968.727031861
 20
111.087996424
 30
0.0
 11
1983.703030709
 21
111.087996424
 31
0.0
  0
LINE
  8
0
  6
CONTINUOUS
 62
     6
 10
1987.447030421
 20
113.583996232
 30
0.0
 11
1987.447030421
 21
111.087996424
 31
0.0
  0
LINE
  8
0
  6
CONTINUOUS
 62
     6
 10
2002.423029269
 20
111.087996424
 30
0.0
 11
1987.447030421
 21
111.087996424
 31
0.0
  0
TEXT
  8
0
  6
CONTINUOUS
 62
     4
 10
1298.7200834
 20
93.1999978
 30
1.03999992
 40
10.3999992
  1
ＢＹ
 50
0.0
 41
0.6
 51
0.0
  7
KANJI4
  0
TEXT
  8
0
  6
CONTINUOUS
 62
     4
 10
1413.1200746
 20
93.1999978
 30
1.03999992
 40
10.3999992
  1
ＤＥＳＣＲＩＰＴＩＯＮ
 50
0.0
 41
0.6
 51
0.0
  7
KANJI4
  0
TEXT
  8
0
  6
CONTINUOUS
 62
     4
 10
1298.7200834
 20
77.599999
 30
1.247999904
 40
12.47999904
  1
担当
 50
0.0
 41
0.6
 51
0.0
  7
KANJI5
  0
TEXT
  8
0
  6
CONTINUOUS
 62
     4
 10
1428.7200734
 20
77.599999
 30
1.247999904
 40
12.47999904
  1
記　　　　事
 50
0.0
 41
0.6
 51
0.0
  7
KANJI5
  0
LINE
  8
0
  6
CONTINUOUS
 62
     4
 10
1188.2200919
 20
103.599997
 30
0.0
 11
1171.3200932
 21
77.599999
 31
0.0
  0
TEXT
  8
0
  6
CONTINUOUS
 62
     4
 10
1231.1200886
 20
93.1999978
 30
1.03999992
 40
10.3999992
  1
ＤＡＴＥ
 50
0.0
 41
0.6
 51
0.0
  7
KANJI4
  0
TEXT
  8
0
  6
CONTINUOUS
 62
     4
 10
1238.920088
 20
77.599999
 30
1.247999904
 40
12.47999904
  1
日付
 50
0.0
 41
0.6
 51
0.0
  7
KANJI5
  0
LINE
  8
0
  6
CONTINUOUS
 62
     4
 10
1171.3200932
 20
77.599999
 30
0.0
 11
1205.1200906
 21
77.599999
 31
0.0
  0
LINE
  8
0
  6
CONTINUOUS
 62
     4
 10
1188.2200919
 20
103.599997
 30
0.0
 11
1205.1200906
 21
77.599999
 31
0.0
  0
LINE
  8
0
  6
CONTINUOUS
 62
     6
 10
1166.1200936
 20
69.7999996
 30
0.0
 11
1166.1200936
 21
111.3999964
 31
0.0
  0
LINE
  8
0
  6
CONTINUOUS
 62
     4
 10
1210.3200902
 20
69.7999996
 30
0.0
 11
1210.3200902
 21
111.3999964
 31
0.0
  0
LINE
  8
0
  6
CONTINUOUS
 62
     4
 10
1283.1200846
 20
69.7999996
 30
0.0
 11
1283.1200846
 21
111.3999964
 31
0.0
  0
LINE
  8
0
  6
CONTINUOUS
 62
     4
 10
1329.920081
 20
69.7999996
 30
0.0
 11
1329.920081
 21
111.3999964
 31
0.0
  0
TEXT
  8
0
  6
CONTINUOUS
 62
     4
 10
1587.3200612
 20
301.1999818
 30
1.03999992
 40
10.3999992
  1
ＣＯＤＥ
 50
0.0
 41
0.6
 51
0.0
  7
KANJI4
  0
LINE
  8
0
  6
CONTINUOUS
 62
     4
 10
1576.920062
 20
319.3999804
 30
0.0
 11
2377.7200004
 21
319.3999804
 31
0.0
  0
TEXT
  8
0
  6
CONTINUOUS
 62
     4
 10
1587.3200612
 20
285.599983
 30
1.247999904
 40
12.47999904
  1
分類
 50
0.0
 41
0.6
 51
0.0
  7
KANJI5
  0
TEXT
  8
0
  6
CONTINUOUS
 62
     4
 10
1595.42
 20
325.6
 30
6.0
 40
21.6
  1
ご注文主
 50
0.0
 41
1.111111111
 51
0.0
  7
KANJI8
  0
TEXT
  8
0
  6
CONTINUOUS
 62
     4
 10
1587.3200612
 20
176.3999914
 30
1.03999992
 40
10.3999992
  1
ＤＲＡＷＮ
 50
0.0
 41
0.6
 51
0.0
  7
KANJI4
  0
TEXT
  8
0
  6
CONTINUOUS
 62
     4
 10
1587.3200612
 20
217.9999882
 30
1.03999992
 40
10.3999992
  1
ＤＥＳＩＧＮ
 50
0.0
 41
0.6
 51
0.0
  7
KANJI4
  0
TEXT
  8
0
  6
CONTINUOUS
 62
     4
 10
1587.3200612
 20
259.599985
 30
1.03999992
 40
10.3999992
  1
ＣＨＥＣＫ
 50
0.0
 41
0.6
 51
0.0
  7
KANJI4
  0
LINE
  8
0
  6
CONTINUOUS
 62
     4
 10
1576.920062
 20
236.1999868
 30
0.0
 11
1766.7200474
 21
236.1999868
 31
0.0
  0
LINE
  8
0
  6
CONTINUOUS
 62
     4
 10
1576.920062
 20
194.59999
 30
0.0
 11
1766.7200474
 21
194.59999
 31
0.0
  0
LINE
  8
0
  6
CONTINUOUS
 62
     4
 10
1576.920062
 20
277.7999836
 30
0.0
 11
1766.7200474
 21
277.7999836
 31
0.0
  0
TEXT
  8
0
  6
CONTINUOUS
 62
     4
 10
1587.3200612
 20
202.3999894
 30
1.247999904
 40
12.47999904
  1
設計
 50
0.0
 41
0.6
 51
0.0
  7
KANJI5
  0
TEXT
  8
0
  6
CONTINUOUS
 62
     4
 10
1587.3200612
 20
243.9999862
 30
1.247999904
 40
12.47999904
  1
検図
 50
0.0
 41
0.6
 51
0.0
  7
KANJI5
  0
LINE
  8
0
  6
CONTINUOUS
 62
     4
 10
1782.06004622
 20
277.7999836
 30
0.0
 11
2377.7200004
 21
277.7999836
 31
0.0
  0
LINE
  8
0
  6
CONTINUOUS
 62
     4
 10
1766.7200474
 20
194.59999
 30
0.0
 11
2377.7200004
 21
194.59999
 31
0.0
  0
TEXT
  8
0
  6
CONTINUOUS
 62
     4
 10
1777.1200466
 20
176.3999914
 30
1.03999992
 40
10.3999992
  1
ＤＲＡＷＩＮＧ　ＮＯ．
 50
0.0
 41
0.8
 51
0.0
  7
KANJI9
  0
TEXT
  8
0
  6
CONTINUOUS
 62
     4
 10
1777.1200466
 20
217.9999882
 30
1.03999992
 40
10.3999992
  1
ＭＦＧ　ＮＯ．
 50
0.0
 41
0.8
 51
0.0
  7
KANJI9
  0
TEXT
  8
0
  6
CONTINUOUS
 62
     4
 10
1777.1200466
 20
259.599985
 30
1.03999992
 40
10.3999992
  1
ＴＹＰＥ
 50
0.0
 41
0.8
 51
0.0
  7
KANJI9
  0
LINE
  8
0
  6
CONTINUOUS
 62
     4
 10
1782.3200462
 20
236.1999868
 30
0.0
 11
2021.5200278
 21
236.1999868
 31
0.0
  0
TEXT
  8
0
  6
CONTINUOUS
 62
     4
 10
1777.1200466
 20
158.1999928
 30
1.247999904
 40
12.47999904
  1
図　面　番　号
 50
0.0
 41
0.8
 51
0.0
  7
KANJI10
  0
TEXT
  8
0
  6
CONTINUOUS
 62
     4
 10
1777.1200466
 20
199.7999896
 30
1.247999904
 40
12.47999904
  1
製番
 50
0.0
 41
0.8
 51
0.0
  7
KANJI10
  0
TEXT
  8
0
  6
CONTINUOUS
 62
     4
 10
1777.1200466
 20
241.3999864
 30
1.247999904
 40
12.47999904
  1
機種
 50
0.0
 41
0.8
 51
0.0
  7
KANJI10
  0
LINE
  8
0
  6
CONTINUOUS
 62
     4
 10
1576.920062
 20
152.9999932
 30
0.0
 11
1766.7200474
 21
152.9999932
 31
0.0
  0
TEXT
  8
0
  6
CONTINUOUS
 62
     4
 10
1587.3200612
 20
134.7999946
 30
1.03999992
 40
10.3999992
  1
ＤＡＴＥ
 50
0.0
 41
0.6
 51
0.0
  7
KANJI4
  0
TEXT
  8
0
  6
CONTINUOUS
 62
     4
 10
1587.3200612
 20
119.1999958
 30
1.247999904
 40
12.47999904
  1
日付
 50
0.0
 41
0.6
 51
0.0
  7
KANJI5
  0
TEXT
  8
0
  6
CONTINUOUS
 62
     4
 10
1587.3200612
 20
160.7999926
 30
1.247999904
 40
12.47999904
  1
作図
 50
0.0
 41
0.6
 51
0.0
  7
KANJI5
  0
LINE
  8
0
  6
CONTINUOUS
 62
     4
 10
1766.7200474
 20
134.7999946
 30
0.0
 11
2377.7200004
 21
134.7999946
 31
0.0
  0
LINE
  8
0
  6
LTYPE1
 62
     4
 10
2203.5200138
 20
142.599994
 30
0.0
 11
2203.5200138
 21
184.1999908
 31
0.0
  0
LINE
  8
0
  6
LTYPE1
 62
     4
 10
2167.1200166
 20
142.599994
 30
0.0
 11
2167.1200166
 21
184.1999908
 31
0.0
  0
LINE
  8
0
  6
LTYPE1
 62
     4
 10
2130.7200194
 20
142.599994
 30
0.0
 11
2130.7200194
 21
184.1999908
 31
0.0
  0
LINE
  8
0
  6
LTYPE1
 62
     4
 10
2094.3200222
 20
142.599994
 30
0.0
 11
2094.3200222
 21
184.1999908
 31
0.0
  0
LINE
  8
0
  6
LTYPE1
 62
     4
 10
2057.920025
 20
142.599994
 30
0.0
 11
2057.920025
 21
184.1999908
 31
0.0
  0
LINE
  8
0
  6
LTYPE1
 62
     4
 10
2021.5200278
 20
142.599994
 30
0.0
 11
2021.5200278
 21
184.1999908
 31
0.0
  0
LINE
  8
0
  6
LTYPE1
 62
     4
 10
1985.1200306
 20
142.599994
 30
0.0
 11
1985.1200306
 21
184.1999908
 31
0.0
  0
LINE
  8
0
  6
LTYPE1
 62
     4
 10
1948.7200334
 20
142.599994
 30
0.0
 11
1948.7200334
 21
184.1999908
 31
0.0
  0
LINE
  8
0
  6
LTYPE1
 62
     4
 10
1948.7200334
 20
184.1999908
 30
0.0
 11
2203.5200138
 21
184.1999908
 31
0.0
  0
LINE
  8
0
  6
LTYPE1
 62
     4
 10
1948.7200334
 20
142.599994
 30
0.0
 11
2203.5200138
 21
142.599994
 31
0.0
  0
LINE
  8
0
  6
CONTINUOUS
 62
     4
 10
2224.3200122
 20
164.6999923
 30
0.0
 11
2234.7200114
 21
164.6999923
 31
0.0
  0
LINE
  8
0
  6
CONTINUOUS
 62
     4
 10
2289.3200072
 20
149.0999935
 30
0.0
 11
2252.92001
 21
149.0999935
 31
0.0
  0
LINE
  8
0
  6
CONTINUOUS
 62
     4
 10
2252.92001
 20
149.0999935
 30
0.0
 11
2271.1200086
 21
180.2999911
 31
0.0
  0
LINE
  8
0
  6
CONTINUOUS
 62
     4
 10
2271.1200086
 20
180.2999911
 30
0.0
 11
2289.3200072
 21
149.0999935
 31
0.0
  0
TEXT
  8
0
  6
CONTINUOUS
 62
     4
 10
2037.1200266
 20
259.599985
 30
1.03999992
 40
10.3999992
  1
ＴＩＴＬＥ
 50
0.0
 41
0.8
 51
0.0
  7
KANJI9
  0
TEXT
  8
0
  6
CONTINUOUS
 62
     4
 10
2037.1200266
 20
241.3999864
 30
1.247999904
 40
12.47999904
  1
名称
 50
0.0
 41
0.8
 51
0.0
  7
KANJI10
  0
TEXT
  8
0
  6
CONTINUOUS
 62
     2
 10
2121.92
 20
202.6
 30
15.0
 40
30.0
  1
外形寸法図
 50
0.0
 41
1.0
 51
0.0
  7
KANJI11
  0
TEXT
  8
0
  6
CONTINUOUS
 62
     2
 10
2085.92
 20
238.6
 30
4.285714286
 40
30.0
  1
マイティシリンダ
 50
0.0
 41
1.0
 51
0.0
  7
KANJI12
  0
TEXT
  8
0
  6
CONTINUOUS
 62
     2
 10
1917.2200334
 20
148.599994
 30
1.8
 40
30.0
  1
Ａ
 50
0.0
 41
0.8
 51
0.0
  7
KANJI13
  0
CIRCLE
  8
0
  6
CONTINUOUS
 62
     2
 10
1878.2200334
 20
213.099994
 30
0.0
 40
15.0
  0
TEXT
  8
0
  6
CONTINUOUS
 62
     2
 10
1866.9700334
 20
201.849994
 30
1.8
 40
24.0
  1
Ｓ
 50
0.0
 41
1.0
 51
0.0
  7
KANJI14
  0
LINE
  8
0
  6
CONTINUOUS
 62
     6
 10
1983.703030709
 20
113.583996232
 30
0.0
 11
1968.727031861
 21
113.583996232
 31
0.0
  0
LINE
  8
0
  6
CONTINUOUS
 62
     6
 10
1987.447030421
 20
113.583996232
 30
0.0
 11
2002.423029269
 21
113.583996232
 31
0.0
  0
TEXT
  8
0
  6
CONTINUOUS
 62
     2
 10
1643.9200334
 20
163.599994
 30
6.0
 40
21.0
  1
岡田
 50
0.0
 41
0.857142857
 51
0.0
  7
KANJI15
  0
LINE
  8
0
  6
CONTINUOUS
 62
     4
 10
2377.7200004
 20
360.9999772
 30
0.0
 11
2377.7200004
 21
402.599974
 31
0.0
  0
LINE
  8
0
  6
CONTINUOUS
 62
     6
 10
1577.670062
 20
360.9999772
 30
0.0
 11
2378.4700004
 21
360.9999772
 31
0.0
  0
LINE
  8
0
  6
CONTINUOUS
 62
     6
 10
1576.920062
 20
402.599974
 30
0.0
 11
2377.7200004
 21
402.599974
 31
0.0
  0
TEXT
  8
0
  6
CONTINUOUS
 62
     4
 10
1595.42
 20
367.1999968
 30
6.0
 40
21.6
  1
ご用途
 50
0.0
 41
1.111111111
 51
0.0
  7
KANJI8
  0
TEXT
  8
0
  6
CONTINUOUS
 62
     2
 10
1686.92
 20
76.6
 30
1.8
 40
27.0
  1
１／６
 50
0.0
 41
0.666666667
 51
0.0
  7
KANJI16
  0
LINE
  8
0
  6
CONTINUOUS
 62
     1
 10
1501.37
 20
1667.8
 30
0.0
 11
1501.37
 21
1547.68
 31
0.0
  0
LINE
  8
0
  6
CONTINUOUS
 62
     2
 10
1432.07
 20
1667.8
 30
0.0
 11
1432.07
 21
1547.68
 31
0.0
  0
LINE
  8
0
  6
CONTINUOUS
 62
     2
 10
1362.77
 20
1667.8
 30
0.0
 11
1362.77
 21
1547.68
 31
0.0
  0
LINE
  8
0
  6
CONTINUOUS
 62
     1
 10
1270.37
 20
1667.8
 30
0.0
 11
1270.37
 21
1547.68
 31
0.0
  0
LINE
  8
0
  6
CONTINUOUS
 62
     1
 10
1270.37
 20
1667.8
 30
0.0
 11
1501.37
 21
1667.8
 31
0.0
  0
LINE
  8
0
  6
CONTINUOUS
 62
     1
 10
1270.37
 20
1630.84
 30
0.0
 11
1501.37
 21
1630.84
 31
0.0
  0
LINE
  8
0
  6
CONTINUOUS
 62
     2
 10
1270.37
 20
1603.12
 30
0.0
 11
1501.37
 21
1603.12
 31
0.0
  0
LINE
  8
0
  6
CONTINUOUS
 62
     2
 10
1270.37
 20
1575.4
 30
0.0
 11
1501.37
 21
1575.4
 31
0.0
  0
LINE
  8
0
  6
CONTINUOUS
 62
     1
 10
1270.37
 20
1547.68
 30
0.0
 11
1501.37
 21
1547.68
 31
0.0
  0
TEXT
  8
0
  6
CONTINUOUS
 62
     2
 10
1441.31
 20
1651.63
 30
1.386
 40
13.86
  1
起動電流
 50
0.0
 41
0.9
 51
0.0
  7
KANJI17
  0
TEXT
  8
0
  6
CONTINUOUS
 62
     2
 10
1441.31
 20
1635.46
 30
1.386
 40
13.86
  1
　　　Ａ
 50
0.0
 41
0.9
 51
0.0
  7
KANJI17
  0
TEXT
  8
0
  6
CONTINUOUS
 62
     2
 10
1372.01
 20
1651.63
 30
1.386
 40
13.86
  1
定格電流
 50
0.0
 41
0.9
 51
0.0
  7
KANJI17
  0
TEXT
  8
0
  6
CONTINUOUS
 62
     2
 10
1372.01
 20
1635.46
 30
1.386
 40
13.86
  1
　　　Ａ
 50
0.0
 41
0.9
 51
0.0
  7
KANJI17
  0
TEXT
  8
0
  6
CONTINUOUS
 62
     2
 10
1278.224
 20
1582.33
 30
1.386
 40
13.86
  1
２００／６０
 50
0.0
 41
0.9
 51
0.0
  7
KANJI17
  0
TEXT
  8
0
  6
CONTINUOUS
 62
     2
 10
1278.224
 20
1651.63
 30
1.386
 40
13.86
  1
電圧／周波数
 50
0.0
 41
0.9
 51
0.0
  7
KANJI17
  0
TEXT
  8
0
  6
CONTINUOUS
 62
     2
 10
1278.224
 20
1635.46
 30
1.386
 40
13.86
  1
　Ｖ／Ｈｚ
 50
0.0
 41
0.9
 51
0.0
  7
KANJI17
  0
TEXT
  8
0
  6
CONTINUOUS
 62
     2
 10
1278.224
 20
1610.05
 30
1.386
 40
13.86
  1
２００／５０
 50
0.0
 41
0.9
 51
0.0
  7
KANJI17
  0
TEXT
  8
0
  6
CONTINUOUS
 62
     2
 10
1278.224
 20
1554.61
 30
1.386
 40
13.86
  1
２２０／６０
 50
0.0
 41
0.9
 51
0.0
  7
KANJI17
  0
LINE
  8
0
  6
CONTINUOUS
 62
     1
 10
1224.17
 20
1667.8
 30
0.0
 11
1224.17
 21
1547.68
 31
0.0
  0
LINE
  8
0
  6
CONTINUOUS
 62
     2
 10
1154.87
 20
1667.8
 30
0.0
 11
1154.87
 21
1547.68
 31
0.0
  0
LINE
  8
0
  6
CONTINUOUS
 62
     2
 10
1085.57
 20
1667.8
 30
0.0
 11
1085.57
 21
1547.68
 31
0.0
  0
LINE
  8
0
  6
CONTINUOUS
 62
     1
 10
993.17
 20
1667.8
 30
0.0
 11
993.17
 21
1547.68
 31
0.0
  0
LINE
  8
0
  6
CONTINUOUS
 62
     1
 10
993.17
 20
1667.8
 30
0.0
 11
1224.17
 21
1667.8
 31
0.0
  0
LINE
  8
0
  6
CONTINUOUS
 62
     1
 10
993.17
 20
1630.84
 30
0.0
 11
1224.17
 21
1630.84
 31
0.0
  0
LINE
  8
0
  6
CONTINUOUS
 62
     2
 10
993.17
 20
1603.12
 30
0.0
 11
1224.17
 21
1603.12
 31
0.0
  0
LINE
  8
0
  6
CONTINUOUS
 62
     2
 10
993.17
 20
1575.4
 30
0.0
 11
1224.17
 21
1575.4
 31
0.0
  0
LINE
  8
0
  6
CONTINUOUS
 62
     1
 10
993.17
 20
1547.68
 30
0.0
 11
1224.17
 21
1547.68
 31
0.0
  0
TEXT
  8
0
  6
CONTINUOUS
 62
     2
 10
1164.11
 20
1651.63
 30
1.386
 40
13.86
  1
起動電流
 50
0.0
 41
0.9
 51
0.0
  7
KANJI17
  0
TEXT
  8
0
  6
CONTINUOUS
 62
     2
 10
1164.11
 20
1635.46
 30
1.386
 40
13.86
  1
　　　Ａ
 50
0.0
 41
0.9
 51
0.0
  7
KANJI17
  0
TEXT
  8
0
  6
CONTINUOUS
 62
     2
 10
1094.81
 20
1651.63
 30
1.386
 40
13.86
  1
定格電流
 50
0.0
 41
0.9
 51
0.0
  7
KANJI17
  0
TEXT
  8
0
  6
CONTINUOUS
 62
     2
 10
1094.81
 20
1635.46
 30
1.386
 40
13.86
  1
　　　Ａ
 50
0.0
 41
0.9
 51
0.0
  7
KANJI17
  0
TEXT
  8
0
  6
CONTINUOUS
 62
     2
 10
1001.024
 20
1651.63
 30
1.386
 40
13.86
  1
電圧／周波数
 50
0.0
 41
0.9
 51
0.0
  7
KANJI17
  0
TEXT
  8
0
  6
CONTINUOUS
 62
     2
 10
1001.024
 20
1635.46
 30
1.386
 40
13.86
  1
　Ｖ／Ｈｚ
 50
0.0
 41
0.9
 51
0.0
  7
KANJI17
  0
TEXT
  8
0
  6
CONTINUOUS
 62
     2
 10
1001.024
 20
1610.05
 30
1.386
 40
13.86
  1
４００／５０
 50
0.0
 41
0.9
 51
0.0
  7
KANJI17
  0
TEXT
  8
0
  6
CONTINUOUS
 62
     2
 10
1001.024
 20
1582.33
 30
1.386
 40
13.86
  1
４００／６０
 50
0.0
 41
0.9
 51
0.0
  7
KANJI17
  0
TEXT
  8
0
  6
CONTINUOUS
 62
     2
 10
1001.024
 20
1554.61
 30
1.386
 40
13.86
  1
４４０／６０
 50
0.0
 41
0.9
 51
0.0
  7
KANJI17
  0
TEXT
  8
0
  6
CONTINUOUS
 62
     2
 10
1441.31
 20
1610.05
 30
1.386
 40
13.86
  1
　９．２
 50
0.0
 41
0.9
 51
0.0
  7
KANJI17
  0
TEXT
  8
0
  6
CONTINUOUS
 62
     2
 10
1441.31
 20
1582.33
 30
1.386
 40
13.86
  1
　８
 50
0.0
 41
0.9
 51
0.0
  7
KANJI17
  0
TEXT
  8
0
  6
CONTINUOUS
 62
     2
 10
1441.31
 20
1554.61
 30
1.386
 40
13.86
  1
　８．８
 50
0.0
 41
0.9
 51
0.0
  7
KANJI17
  0
TEXT
  8
0
  6
CONTINUOUS
 62
     2
 10
1372.01
 20
1610.05
 30
1.386
 40
13.86
  1
　４．０
 50
0.0
 41
0.9
 51
0.0
  7
KANJI17
  0
TEXT
  8
0
  6
CONTINUOUS
 62
     2
 10
1372.01
 20
1582.33
 30
1.386
 40
13.86
  1
　２．８
 50
0.0
 41
0.9
 51
0.0
  7
KANJI17
  0
TEXT
  8
0
  6
CONTINUOUS
 62
     2
 10
1372.01
 20
1554.61
 30
1.386
 40
13.86
  1
　３．３
 50
0.0
 41
0.9
 51
0.0
  7
KANJI17
  0
TEXT
  8
0
  6
CONTINUOUS
 62
     2
 10
1164.11
 20
1610.05
 30
1.386
 40
13.86
  1
　４．６
 50
0.0
 41
0.9
 51
0.0
  7
KANJI17
  0
TEXT
  8
0
  6
CONTINUOUS
 62
     2
 10
1164.11
 20
1582.33
 30
1.386
 40
13.86
  1
　４
 50
0.0
 41
0.9
 51
0.0
  7
KANJI17
  0
TEXT
  8
0
  6
CONTINUOUS
 62
     2
 10
1164.11
 20
1554.61
 30
1.386
 40
13.86
  1
　４．４
 50
0.0
 41
0.9
 51
0.0
  7
KANJI17
  0
TEXT
  8
0
  6
CONTINUOUS
 62
     2
 10
1094.81
 20
1610.05
 30
1.386
 40
13.86
  1
　２．０
 50
0.0
 41
0.9
 51
0.0
  7
KANJI17
  0
TEXT
  8
0
  6
CONTINUOUS
 62
     2
 10
1094.81
 20
1582.33
 30
1.386
 40
13.86
  1
　１．４
 50
0.0
 41
0.9
 51
0.0
  7
KANJI17
  0
TEXT
  8
0
  6
CONTINUOUS
 62
     2
 10
1094.81
 20
1554.61
 30
1.386
 40
13.86
  1
　１．７
 50
0.0
 41
0.9
 51
0.0
  7
KANJI17
  0
TEXT
  8
0
  6
CONTINUOUS
 62
     2
 10
154.4
 20
19.3
 30
0.0
 40
18.0
  1
ＦＤ　Ｎｏ．ＭＣ１９９
 50
0.0
 41
0.9
 51
0.0
  7
KANJI18
  0
TEXT
  8
0
  6
CONTINUOUS
 62
     2
 10
1839.92
 20
244.6
 30
0.0
 40
21.0
  1
ＭＤ０５－ＪＰＮ
 50
0.0
 41
0.793650794
 51
0.0
  7
KANJI19
  0
TEXT
  8
0
  6
CONTINUOUS
 62
     2
 10
1954.7200334
 20
148.599994
 30
13.0
 40
30.0
  1
３００２４２７
 50
0.0
 41
0.8
 51
0.0
  7
KANJI20
  0
LINE
  8
0
  6
LTYPE2
 62
     6
 10
250.996315633
 20
1097.8
 30
0.0
 11
94.52
 21
1097.8
 31
0.0
  0
CIRCLE
  8
0
  6
CONTINUOUS
 62
     6
 10
94.52
 20
1074.182767268
 30
0.0
 40
5.24827394
  0
LINE
  8
0
  6
CONTINUOUS
 62
     6
 10
88.490259572
 20
1068.15302684
 30
0.0
 11
100.7362321
 21
1080.398999368
 31
0.0
  0
TEXT
  8
0
  6
CONTINUOUS
 62
     6
 10
106.814567657
 20
1108.199357623
 30
1.82231734
 40
18.223173404
  1
エコノストップモータ
 50
0.0
 41
0.66671875
 51
0.0
  7
KANJI21
  0
CIRCLE
  8
0
  6
CONTINUOUS
 62
     6
 10
148.31480789
 20
1043.567835948
 30
0.0
 40
21.867808085
  0
TEXT
  8
0
  6
CONTINUOUS
 62
     6
 10
139.130328494
 20
1033.071288067
 30
2.186780809
 40
21.867808085
  1
Ｍ
 50
0.0
 41
0.9
 51
0.0
  7
KANJI22
  0
LINE
  8
0
  6
CONTINUOUS
 62
     6
 10
119.449301217
 20
1012.952904629
 30
0.0
 11
133.00734223
 21
1028.69772645
 31
0.0
  0
LINE
  8
0
  6
CONTINUOUS
 62
     6
 10
119.449301217
 20
1074.182767268
 30
0.0
 11
133.00734223
 21
1058.437945446
 31
0.0
  0
LINE
  8
0
  6
CONTINUOUS
 62
     6
 10
119.449301217
 20
1074.182767268
 30
0.0
 11
99.76827394
 21
1074.182767268
 31
0.0
  0
LINE
  8
0
  6
CONTINUOUS
 62
     6
 10
126.884355966
 20
1043.567835948
 30
0.0
 11
99.76827394
 21
1043.567835948
 31
0.0
  0
LINE
  8
0
  6
CONTINUOUS
 62
     6
 10
119.449301217
 20
1012.952904629
 30
0.0
 11
99.76827394
 21
1012.952904629
 31
0.0
  0
CIRCLE
  8
0
  6
CONTINUOUS
 62
     6
 10
94.52
 20
1043.567835948
 30
0.0
 40
5.24827394
  0
LINE
  8
0
  6
CONTINUOUS
 62
     6
 10
88.490259572
 20
1037.538095521
 30
0.0
 11
100.7362321
 21
1049.784068048
 31
0.0
  0
CIRCLE
  8
0
  6
CONTINUOUS
 62
     6
 10
94.52
 20
1012.952904629
 30
0.0
 40
5.24827394
  0
LINE
  8
0
  6
CONTINUOUS
 62
     6
 10
88.490259572
 20
1006.923164201
 30
0.0
 11
100.7362321
 21
1019.169136729
 31
0.0
  0
LINE
  8
0
  6
LTYPE2
 62
     6
 10
250.996315633
 20
983.305921469
 30
0.0
 11
94.52
 21
983.305921469
 31
0.0
  0
TEXT
  8
0
  6
CONTINUOUS
 62
     2
 10
100.634472037
 20
953.054685773
 30
0.0
 40
18.72
  1
モーター結線図
 50
0.0
 41
0.925
 51
0.0
  7
KANJI23
  0
TEXT
  8
0
  6
CONTINUOUS
 62
     6
 10
179.804451533
 20
1033.661718886
 30
1.749424647
 40
17.494246468
  1
Ｂ
 50
0.0
 41
0.9
 51
0.0
  7
KANJI24
  0
CIRCLE
  8
0
  6
CONTINUOUS
 62
     6
 10
187.676862444
 20
1043.567835948
 30
0.0
 40
17.494246468
  0
LINE
  8
0
  6
LTYPE2
 62
     6
 10
250.996315633
 20
983.305921469
 30
0.0
 11
250.996315633
 21
1097.8
 31
0.0
  0
LINE
  8
0
  6
LTYPE2
 62
     6
 10
94.52
 20
1097.8
 30
0.0
 11
94.52
 21
1078.118972723
 31
0.0
  0
TEXT
  8
0
  6
CONTINUOUS
 62
     6
 10
73.478309109
 20
1081.617822017
 30
1.312068485
 40
13.120684851
  1
Ｕ
 50
0.0
 41
0.9
 51
0.0
  7
KANJI25
  0
TEXT
  8
0
  6
CONTINUOUS
 62
     6
 10
74.790377594
 20
1050.565534536
 30
1.312068485
 40
13.120684851
  1
Ｖ
 50
0.0
 41
0.9
 51
0.0
  7
KANJI25
  0
TEXT
  8
0
  6
CONTINUOUS
 62
     6
 10
76.102446079
 20
1019.513247054
 30
1.312068485
 40
13.120684851
  1
Ｗ
 50
0.0
 41
0.9
 51
0.0
  7
KANJI25
  0
LINE
  8
0
  6
LTYPE2
 62
     6
 10
94.52
 20
1069.371849489
 30
0.0
 11
94.52
 21
1047.504041404
 31
0.0
  0
LINE
  8
0
  6
LTYPE2
 62
     6
 10
94.52
 20
1038.75691817
 30
0.0
 11
94.52
 21
1018.201178569
 31
0.0
  0
LINE
  8
0
  6
LTYPE2
 62
     6
 10
94.52
 20
1007.704630688
 30
0.0
 11
94.52
 21
983.305921469
 31
0.0
  0
LINE
  8
0
  6
LTYPE2
 62
     6
 10
95.36
 20
1646.44
 30
0.0
 11
95.36
 21
1140.04
 31
0.0
  0
TEXT
  8
0
  6
CONTINUOUS
 62
     6
 10
222.661963977
 20
1148.109618036
 30
0.0
 40
17.031074144
  1
２カム端子台　接続図
 50
0.0
 41
0.880962996
 51
0.0
  7
KANJI26
  0
LINE
  8
0
  6
LTYPE2
 62
     6
 10
95.36
 20
1140.04
 30
0.0
 11
850.64
 21
1140.04
 31
0.0
  0
LINE
  8
0
  6
CONTINUOUS
 62
     6
 10
292.839298476
 20
1199.835916515
 30
0.0
 11
292.839298476
 21
1251.392918711
 31
0.0
  0
LINE
  8
0
  6
CONTINUOUS
 62
     2
 10
229.05819156
 20
1199.835916515
 30
0.0
 11
229.05819156
 21
1177.968108429
 31
0.0
  0
LINE
  8
0
  6
CONTINUOUS
 62
     2
 10
203.545748794
 20
1199.835916515
 30
0.0
 11
203.545748794
 21
1177.968108429
 31
0.0
  0
LINE
  8
0
  6
CONTINUOUS
 62
     2
 10
178.033306028
 20
1199.835916515
 30
0.0
 11
178.033306028
 21
1177.968108429
 31
0.0
  0
LINE
  8
0
  6
CONTINUOUS
 62
     2
 10
254.570634326
 20
1199.835916515
 30
0.0
 11
254.570634326
 21
1177.968108429
 31
0.0
  0
LINE
  8
0
  6
CONTINUOUS
 62
     2
 10
280.083077093
 20
1199.835916515
 30
0.0
 11
280.083077093
 21
1177.968108429
 31
0.0
  0
LINE
  8
0
  6
CONTINUOUS
 62
     6
 10
241.814412943
 20
1209.350599813
 30
0.0
 11
241.814412943
 21
1199.835916515
 31
0.0
  0
LINE
  8
0
  6
CONTINUOUS
 62
     6
 10
267.326855709
 20
1222.376524162
 30
0.0
 11
267.326855709
 21
1199.835916515
 31
0.0
  0
LINE
  8
0
  6
CONTINUOUS
 62
     2
 10
178.033306028
 20
1199.835916515
 30
0.0
 11
382.132848158
 21
1199.835916515
 31
0.0
  0
LINE
  8
0
  6
CONTINUOUS
 62
     2
 10
178.033306028
 20
1177.968108429
 30
0.0
 11
382.132848158
 21
1177.968108429
 31
0.0
  0
TEXT
  8
0
  6
CONTINUOUS
 62
     3
 10
235.997767516
 20
1180.92384711
 30
0.0
 40
14.37696
  1
２１　２２　２３　２４　　２５　　２６　　
 50
0.0
 41
0.9125
 51
0.0
  7
KANJI27
  0
TEXT
  8
0
  6
CONTINUOUS
 62
     6
 10
591.061963977
 20
1148.109618036
 30
0.0
 40
17.031074144
  1
４カム端子台　接続図
 50
0.0
 41
0.880962996
 51
0.0
  7
KANJI26
  0
LINE
  8
0
  6
LTYPE2
 62
     6
 10
850.64
 20
1646.44
 30
0.0
 11
95.36
 21
1646.44
 31
0.0
  0
LINE
  8
0
  6
LTYPE2
 62
     6
 10
850.64
 20
1140.04
 30
0.0
 11
850.64
 21
1646.44
 31
0.0
  0
CIRCLE
  8
0
  6
CONTINUOUS
 62
     6
 10
241.814412943
 20
1239.542753509
 30
0.0
 40
3.936205455
  0
LINE
  8
0
  6
CONTINUOUS
 62
     6
 10
242.057734816
 20
1235.515699739
 30
0.0
 11
245.815625379
 21
1214.074046359
 31
0.0
  0
LINE
  8
0
  6
CONTINUOUS
 62
     6
 10
242.057734816
 20
1235.515699739
 30
0.0
 11
246.595009475
 21
1236.271912182
 31
0.0
  0
LINE
  8
0
  6
CONTINUOUS
 62
     6
 10
246.595009475
 20
1236.271912182
 30
0.0
 11
250.353195556
 21
1214.830308055
 31
0.0
  0
LINE
  8
0
  6
CONTINUOUS
 62
     6
 10
241.814412943
 20
1243.478958964
 30
0.0
 11
241.814412943
 21
1251.392918711
 31
0.0
  0
LINE
  8
0
  6
CONTINUOUS
 62
     6
 10
292.839298476
 20
1251.392918711
 30
0.0
 11
241.814412943
 21
1251.392918711
 31
0.0
  0
CIRCLE
  8
0
  6
CONTINUOUS
 62
     6
 10
369.376626774
 20
1239.542753509
 30
0.0
 40
3.936205455
  0
LINE
  8
0
  6
CONTINUOUS
 62
     6
 10
369.133304902
 20
1235.515699739
 30
0.0
 11
365.375414339
 21
1214.074046359
 31
0.0
  0
LINE
  8
0
  6
CONTINUOUS
 62
     6
 10
369.133304902
 20
1235.515699739
 30
0.0
 11
364.596030243
 21
1236.271912182
 31
0.0
  0
LINE
  8
0
  6
CONTINUOUS
 62
     6
 10
364.596030243
 20
1236.271912182
 30
0.0
 11
360.837844161
 21
1214.830308055
 31
0.0
  0
LINE
  8
0
  6
CONTINUOUS
 62
     6
 10
369.376626774
 20
1243.478958964
 30
0.0
 11
369.376626774
 21
1251.392918711
 31
0.0
  0
LINE
  8
0
  6
CONTINUOUS
 62
     6
 10
318.351741242
 20
1251.392918711
 30
0.0
 11
369.376626774
 21
1251.392918711
 31
0.0
  0
LINE
  8
0
  6
CONTINUOUS
 62
     6
 10
318.351741242
 20
1199.835916515
 30
0.0
 11
318.351741242
 21
1251.392918711
 31
0.0
  0
LINE
  8
0
  6
CONTINUOUS
 62
     2
 10
331.107962625
 20
1300.273746261
 30
0.0
 11
331.107962625
 21
1278.405938175
 31
0.0
  0
LINE
  8
0
  6
CONTINUOUS
 62
     2
 10
356.620405391
 20
1300.273746261
 30
0.0
 11
356.620405391
 21
1278.405938175
 31
0.0
  0
LINE
  8
0
  6
CONTINUOUS
 62
     2
 10
382.132848158
 20
1300.273746261
 30
0.0
 11
382.132848158
 21
1278.405938175
 31
0.0
  0
LINE
  8
0
  6
CONTINUOUS
 62
     2
 10
407.645290924
 20
1300.273746261
 30
0.0
 11
407.645290924
 21
1278.405938175
 31
0.0
  0
CIRCLE
  8
0
  6
CONTINUOUS
 62
     6
 10
267.326855709
 20
1313.724635014
 30
0.0
 40
3.936205455
  0
LINE
  8
0
  6
CONTINUOUS
 62
     6
 10
267.083533837
 20
1335.953529485
 30
0.0
 11
263.325643274
 21
1314.511876105
 31
0.0
  0
LINE
  8
0
  6
CONTINUOUS
 62
     6
 10
262.546259178
 20
1336.709741928
 30
0.0
 11
258.788073096
 21
1315.268137801
 31
0.0
  0
LINE
  8
0
  6
CONTINUOUS
 62
     6
 10
263.325643274
 20
1314.511876105
 30
0.0
 11
258.788073096
 21
1315.268137801
 31
0.0
  0
CIRCLE
  8
0
  6
CONTINUOUS
 62
     6
 10
400.042582979
 20
1322.814353908
 30
0.0
 40
3.936205455
  0
LINE
  8
0
  6
CONTINUOUS
 62
     6
 10
396.106377524
 20
1322.814353908
 30
0.0
 11
394.889069541
 21
1322.814353908
 31
0.0
  0
LINE
  8
0
  6
CONTINUOUS
 62
     6
 10
420.158190434
 20
1335.953529485
 30
0.0
 11
416.400299871
 21
1314.511876105
 31
0.0
  0
LINE
  8
0
  6
CONTINUOUS
 62
     6
 10
415.620915776
 20
1336.709741928
 30
0.0
 11
411.862729694
 21
1315.268137801
 31
0.0
  0
LINE
  8
0
  6
CONTINUOUS
 62
     6
 10
416.400299871
 20
1314.511876105
 30
0.0
 11
411.862729694
 21
1315.268137801
 31
0.0
  0
CIRCLE
  8
0
  6
CONTINUOUS
 62
     6
 10
420.401512307
 20
1313.724635014
 30
0.0
 40
3.936205455
  0
LINE
  8
0
  6
CONTINUOUS
 62
     6
 10
267.326855709
 20
1309.788429558
 30
0.0
 11
267.326855709
 21
1300.273746261
 31
0.0
  0
LINE
  8
0
  6
CONTINUOUS
 62
     6
 10
241.814412943
 20
1351.830748456
 30
0.0
 11
241.814412943
 21
1300.273746261
 31
0.0
  0
LINE
  8
0
  6
CONTINUOUS
 62
     6
 10
420.401512307
 20
1309.788429558
 30
0.0
 11
420.401512307
 21
1300.273746261
 31
0.0
  0
LINE
  8
0
  6
CONTINUOUS
 62
     6
 10
394.889069541
 20
1322.814353908
 30
0.0
 11
394.889069541
 21
1300.273746261
 31
0.0
  0
LINE
  8
0
  6
CONTINUOUS
 62
     6
 10
369.376626774
 20
1300.273746261
 30
0.0
 11
369.376626774
 21
1351.830748456
 31
0.0
  0
LINE
  8
0
  6
CONTINUOUS
 62
     6
 10
293.082620348
 20
1335.953529485
 30
0.0
 11
296.840510911
 21
1314.511876105
 31
0.0
  0
LINE
  8
0
  6
CONTINUOUS
 62
     6
 10
297.619895007
 20
1336.709741928
 30
0.0
 11
301.378081089
 21
1315.268137801
 31
0.0
  0
LINE
  8
0
  6
CONTINUOUS
 62
     6
 10
296.840510911
 20
1314.511876105
 30
0.0
 11
301.378081089
 21
1315.268137801
 31
0.0
  0
CIRCLE
  8
0
  6
CONTINUOUS
 62
     6
 10
292.839298476
 20
1313.724635014
 30
0.0
 40
3.936205455
  0
CIRCLE
  8
0
  6
CONTINUOUS
 62
     6
 10
313.198227803
 20
1322.814353908
 30
0.0
 40
3.936205455
  0
LINE
  8
0
  6
CONTINUOUS
 62
     6
 10
317.134433259
 20
1322.814353908
 30
0.0
 11
318.351741242
 21
1322.814353908
 31
0.0
  0
LINE
  8
0
  6
CONTINUOUS
 62
     6
 10
292.839298476
 20
1309.788429558
 30
0.0
 11
292.839298476
 21
1300.273746261
 31
0.0
  0
LINE
  8
0
  6
CONTINUOUS
 62
     6
 10
318.351741242
 20
1322.814353908
 30
0.0
 11
318.351741242
 21
1300.273746261
 31
0.0
  0
LINE
  8
0
  6
CONTINUOUS
 62
     6
 10
343.864184008
 20
1300.273746261
 30
0.0
 11
343.864184008
 21
1351.830748456
 31
0.0
  0
LINE
  8
0
  6
CONTINUOUS
 62
     2
 10
433.15773369
 20
1300.273746261
 30
0.0
 11
433.15773369
 21
1278.405938175
 31
0.0
  0
LINE
  8
0
  6
CONTINUOUS
 62
     2
 10
229.05819156
 20
1300.273746261
 30
0.0
 11
229.05819156
 21
1278.405938175
 31
0.0
  0
LINE
  8
0
  6
CONTINUOUS
 62
     2
 10
254.570634326
 20
1300.273746261
 30
0.0
 11
254.570634326
 21
1278.405938175
 31
0.0
  0
LINE
  8
0
  6
CONTINUOUS
 62
     2
 10
280.083077093
 20
1300.273746261
 30
0.0
 11
280.083077093
 21
1278.405938175
 31
0.0
  0
LINE
  8
0
  6
CONTINUOUS
 62
     2
 10
305.595519859
 20
1300.273746261
 30
0.0
 11
305.595519859
 21
1278.405938175
 31
0.0
  0
LINE
  8
0
  6
CONTINUOUS
 62
     2
 10
178.033306028
 20
1300.273746261
 30
0.0
 11
178.033306028
 21
1278.405938175
 31
0.0
  0
LINE
  8
0
  6
CONTINUOUS
 62
     2
 10
203.545748794
 20
1300.273746261
 30
0.0
 11
203.545748794
 21
1278.405938175
 31
0.0
  0
LINE
  8
0
  6
CONTINUOUS
 62
     2
 10
127.008420495
 20
1300.273746261
 30
0.0
 11
433.15773369
 21
1300.273746261
 31
0.0
  0
LINE
  8
0
  6
CONTINUOUS
 62
     2
 10
127.008420495
 20
1278.405938175
 30
0.0
 11
433.15773369
 21
1278.405938175
 31
0.0
  0
CIRCLE
  8
0
  6
CONTINUOUS
 62
     6
 10
267.326855709
 20
1339.980583255
 30
0.0
 40
3.936205455
  0
LINE
  8
0
  6
CONTINUOUS
 62
     6
 10
267.083533837
 20
1335.953529485
 30
0.0
 11
262.546259178
 21
1336.709741928
 31
0.0
  0
LINE
  8
0
  6
CONTINUOUS
 62
     6
 10
267.326855709
 20
1343.91678871
 30
0.0
 11
267.326855709
 21
1351.830748456
 31
0.0
  0
LINE
  8
0
  6
CONTINUOUS
 62
     6
 10
267.326855709
 20
1351.830748456
 30
0.0
 11
241.814412943
 21
1351.830748456
 31
0.0
  0
LINE
  8
0
  6
CONTINUOUS
 62
     6
 10
420.401512307
 20
1351.830748456
 30
0.0
 11
369.376626774
 21
1351.830748456
 31
0.0
  0
CIRCLE
  8
0
  6
CONTINUOUS
 62
     6
 10
420.401512307
 20
1339.980583255
 30
0.0
 40
3.936205455
  0
LINE
  8
0
  6
CONTINUOUS
 62
     6
 10
420.158190434
 20
1335.953529485
 30
0.0
 11
415.620915776
 21
1336.709741928
 31
0.0
  0
LINE
  8
0
  6
CONTINUOUS
 62
     6
 10
420.401512307
 20
1343.91678871
 30
0.0
 11
420.401512307
 21
1351.830748456
 31
0.0
  0
CIRCLE
  8
0
  6
CONTINUOUS
 62
     6
 10
292.839298476
 20
1339.980583255
 30
0.0
 40
3.936205455
  0
LINE
  8
0
  6
CONTINUOUS
 62
     6
 10
293.082620348
 20
1335.953529485
 30
0.0
 11
297.619895007
 21
1336.709741928
 31
0.0
  0
LINE
  8
0
  6
CONTINUOUS
 62
     6
 10
292.839298476
 20
1343.91678871
 30
0.0
 11
292.839298476
 21
1351.830748456
 31
0.0
  0
LINE
  8
0
  6
CONTINUOUS
 62
     6
 10
343.864184008
 20
1351.830748456
 30
0.0
 11
292.839298476
 21
1351.830748456
 31
0.0
  0
TEXT
  8
0
  6
CONTINUOUS
 62
     6
 10
239.561199775
 20
1356.169123594
 30
0.78624
 40
11.232
  1
ＬＳＡ
 50
0.0
 41
0.8
 51
0.0
  7
KANJI28
  0
TEXT
  8
0
  6
CONTINUOUS
 62
     6
 10
297.411810691
 20
1356.169123594
 30
0.78624
 40
11.232
  1
ＬＳ０１
 50
0.0
 41
0.8
 51
0.0
  7
KANJI28
  0
TEXT
  8
0
  6
CONTINUOUS
 62
     6
 10
376.72718699
 20
1356.169123594
 30
0.78624
 40
11.232
  1
ＬＳ０２
 50
0.0
 41
0.8
 51
0.0
  7
KANJI28
  0
TEXT
  8
0
  6
CONTINUOUS
 62
     6
 10
326.338781457
 20
1255.386688026
 30
0.78624
 40
11.232
  1
ＬＳ１２
 50
0.0
 41
0.8
 51
0.0
  7
KANJI28
  0
TEXT
  8
0
  6
CONTINUOUS
 62
     6
 10
247.023405158
 20
1255.386688026
 30
0.78624
 40
11.232
  1
ＬＳ１１
 50
0.0
 41
0.8
 51
0.0
  7
KANJI28
  0
LINE
  8
0
  6
CONTINUOUS
 62
     2
 10
305.595519859
 20
1199.835916515
 30
0.0
 11
305.595519859
 21
1177.968108429
 31
0.0
  0
LINE
  8
0
  6
CONTINUOUS
 62
     2
 10
331.107962625
 20
1199.835916515
 30
0.0
 11
331.107962625
 21
1177.968108429
 31
0.0
  0
LINE
  8
0
  6
CONTINUOUS
 62
     2
 10
356.620405391
 20
1199.835916515
 30
0.0
 11
356.620405391
 21
1177.968108429
 31
0.0
  0
LINE
  8
0
  6
CONTINUOUS
 62
     6
 10
245.815625379
 20
1214.074046359
 30
0.0
 11
250.353195556
 21
1214.830308055
 31
0.0
  0
CIRCLE
  8
0
  6
CONTINUOUS
 62
     6
 10
241.814412943
 20
1213.286805268
 30
0.0
 40
3.936205455
  0
CIRCLE
  8
0
  6
CONTINUOUS
 62
     6
 10
262.173342271
 20
1222.376524162
 30
0.0
 40
3.936205455
  0
LINE
  8
0
  6
CONTINUOUS
 62
     6
 10
266.109547726
 20
1222.376524162
 30
0.0
 11
267.326855709
 21
1222.376524162
 31
0.0
  0
LINE
  8
0
  6
CONTINUOUS
 62
     6
 10
365.375414339
 20
1214.074046359
 30
0.0
 11
360.837844161
 21
1214.830308055
 31
0.0
  0
CIRCLE
  8
0
  6
CONTINUOUS
 62
     6
 10
369.376626774
 20
1213.286805268
 30
0.0
 40
3.936205455
  0
CIRCLE
  8
0
  6
CONTINUOUS
 62
     6
 10
349.017697447
 20
1222.376524162
 30
0.0
 40
3.936205455
  0
LINE
  8
0
  6
CONTINUOUS
 62
     6
 10
345.081491992
 20
1222.376524162
 30
0.0
 11
343.864184008
 21
1222.376524162
 31
0.0
  0
LINE
  8
0
  6
CONTINUOUS
 62
     6
 10
369.376626774
 20
1209.350599813
 30
0.0
 11
369.376626774
 21
1199.835916515
 31
0.0
  0
LINE
  8
0
  6
CONTINUOUS
 62
     6
 10
343.864184008
 20
1222.376524162
 30
0.0
 11
343.864184008
 21
1199.835916515
 31
0.0
  0
LINE
  8
0
  6
CONTINUOUS
 62
     2
 10
382.132848158
 20
1199.835916515
 30
0.0
 11
382.132848158
 21
1177.968108429
 31
0.0
  0
LINE
  8
0
  6
CONTINUOUS
 62
     2
 10
127.008420495
 20
1300.273746261
 30
0.0
 11
127.008420495
 21
1278.405938175
 31
0.0
  0
LINE
  8
0
  6
CONTINUOUS
 62
     2
 10
152.520863261
 20
1300.273746261
 30
0.0
 11
152.520863261
 21
1278.405938175
 31
0.0
  0
LINE
  8
0
  6
CONTINUOUS
 62
     2
 10
699.507962625
 20
1300.273746261
 30
0.0
 11
699.507962625
 21
1278.405938175
 31
0.0
  0
LINE
  8
0
  6
CONTINUOUS
 62
     2
 10
725.020405391
 20
1300.273746261
 30
0.0
 11
725.020405391
 21
1278.405938175
 31
0.0
  0
LINE
  8
0
  6
CONTINUOUS
 62
     2
 10
750.532848158
 20
1300.273746261
 30
0.0
 11
750.532848158
 21
1278.405938175
 31
0.0
  0
LINE
  8
0
  6
CONTINUOUS
 62
     2
 10
776.045290924
 20
1300.273746261
 30
0.0
 11
776.045290924
 21
1278.405938175
 31
0.0
  0
LINE
  8
0
  6
CONTINUOUS
 62
     6
 10
635.726855709
 20
1309.788429558
 30
0.0
 11
635.726855709
 21
1300.273746261
 31
0.0
  0
LINE
  8
0
  6
CONTINUOUS
 62
     6
 10
610.214412943
 20
1351.830748456
 30
0.0
 11
610.214412943
 21
1300.273746261
 31
0.0
  0
LINE
  8
0
  6
CONTINUOUS
 62
     6
 10
788.801512307
 20
1309.788429558
 30
0.0
 11
788.801512307
 21
1300.273746261
 31
0.0
  0
LINE
  8
0
  6
CONTINUOUS
 62
     6
 10
763.289069541
 20
1322.814353908
 30
0.0
 11
763.289069541
 21
1300.273746261
 31
0.0
  0
LINE
  8
0
  6
CONTINUOUS
 62
     6
 10
737.776626774
 20
1300.273746261
 30
0.0
 11
737.776626774
 21
1351.830748456
 31
0.0
  0
LINE
  8
0
  6
CONTINUOUS
 62
     6
 10
661.239298476
 20
1309.788429558
 30
0.0
 11
661.239298476
 21
1300.273746261
 31
0.0
  0
LINE
  8
0
  6
CONTINUOUS
 62
     6
 10
686.751741242
 20
1322.814353908
 30
0.0
 11
686.751741242
 21
1300.273746261
 31
0.0
  0
LINE
  8
0
  6
CONTINUOUS
 62
     6
 10
712.264184008
 20
1300.273746261
 30
0.0
 11
712.264184008
 21
1351.830748456
 31
0.0
  0
LINE
  8
0
  6
CONTINUOUS
 62
     2
 10
801.55773369
 20
1300.273746261
 30
0.0
 11
801.55773369
 21
1278.405938175
 31
0.0
  0
LINE
  8
0
  6
CONTINUOUS
 62
     2
 10
597.45819156
 20
1300.273746261
 30
0.0
 11
597.45819156
 21
1278.405938175
 31
0.0
  0
LINE
  8
0
  6
CONTINUOUS
 62
     2
 10
622.970634326
 20
1300.273746261
 30
0.0
 11
622.970634326
 21
1278.405938175
 31
0.0
  0
LINE
  8
0
  6
CONTINUOUS
 62
     2
 10
648.483077093
 20
1300.273746261
 30
0.0
 11
648.483077093
 21
1278.405938175
 31
0.0
  0
LINE
  8
0
  6
CONTINUOUS
 62
     2
 10
673.995519859
 20
1300.273746261
 30
0.0
 11
673.995519859
 21
1278.405938175
 31
0.0
  0
LINE
  8
0
  6
CONTINUOUS
 62
     2
 10
546.433306028
 20
1300.273746261
 30
0.0
 11
546.433306028
 21
1278.405938175
 31
0.0
  0
LINE
  8
0
  6
CONTINUOUS
 62
     2
 10
571.945748794
 20
1300.273746261
 30
0.0
 11
571.945748794
 21
1278.405938175
 31
0.0
  0
LINE
  8
0
  6
CONTINUOUS
 62
     2
 10
495.408420495
 20
1300.273746261
 30
0.0
 11
801.55773369
 21
1300.273746261
 31
0.0
  0
LINE
  8
0
  6
CONTINUOUS
 62
     2
 10
495.408420495
 20
1278.405938175
 30
0.0
 11
801.55773369
 21
1278.405938175
 31
0.0
  0
LINE
  8
0
  6
CONTINUOUS
 62
     2
 10
495.408420495
 20
1300.273746261
 30
0.0
 11
495.408420495
 21
1278.405938175
 31
0.0
  0
LINE
  8
0
  6
CONTINUOUS
 62
     2
 10
520.920863261
 20
1300.273746261
 30
0.0
 11
520.920863261
 21
1278.405938175
 31
0.0
  0
CIRCLE
  8
0
  6
CONTINUOUS
 62
     6
 10
635.726855709
 20
1313.724635014
 30
0.0
 40
3.936205455
  0
LINE
  8
0
  6
CONTINUOUS
 62
     6
 10
635.483533837
 20
1335.953529485
 30
0.0
 11
631.725643274
 21
1314.511876105
 31
0.0
  0
LINE
  8
0
  6
CONTINUOUS
 62
     6
 10
630.946259178
 20
1336.709741928
 30
0.0
 11
627.188073096
 21
1315.268137801
 31
0.0
  0
LINE
  8
0
  6
CONTINUOUS
 62
     6
 10
631.725643274
 20
1314.511876105
 30
0.0
 11
627.188073096
 21
1315.268137801
 31
0.0
  0
CIRCLE
  8
0
  6
CONTINUOUS
 62
     6
 10
768.442582979
 20
1322.814353908
 30
0.0
 40
3.936205455
  0
LINE
  8
0
  6
CONTINUOUS
 62
     6
 10
764.506377524
 20
1322.814353908
 30
0.0
 11
763.289069541
 21
1322.814353908
 31
0.0
  0
LINE
  8
0
  6
CONTINUOUS
 62
     6
 10
788.558190434
 20
1335.953529485
 30
0.0
 11
784.800299871
 21
1314.511876105
 31
0.0
  0
LINE
  8
0
  6
CONTINUOUS
 62
     6
 10
784.020915776
 20
1336.709741928
 30
0.0
 11
780.262729694
 21
1315.268137801
 31
0.0
  0
LINE
  8
0
  6
CONTINUOUS
 62
     6
 10
784.800299871
 20
1314.511876105
 30
0.0
 11
780.262729694
 21
1315.268137801
 31
0.0
  0
CIRCLE
  8
0
  6
CONTINUOUS
 62
     6
 10
788.801512307
 20
1313.724635014
 30
0.0
 40
3.936205455
  0
LINE
  8
0
  6
CONTINUOUS
 62
     6
 10
661.482620348
 20
1335.953529485
 30
0.0
 11
665.240510911
 21
1314.511876105
 31
0.0
  0
LINE
  8
0
  6
CONTINUOUS
 62
     6
 10
666.019895007
 20
1336.709741928
 30
0.0
 11
669.778081089
 21
1315.268137801
 31
0.0
  0
LINE
  8
0
  6
CONTINUOUS
 62
     6
 10
665.240510911
 20
1314.511876105
 30
0.0
 11
669.778081089
 21
1315.268137801
 31
0.0
  0
CIRCLE
  8
0
  6
CONTINUOUS
 62
     6
 10
661.239298476
 20
1313.724635014
 30
0.0
 40
3.936205455
  0
CIRCLE
  8
0
  6
CONTINUOUS
 62
     6
 10
681.598227803
 20
1322.814353908
 30
0.0
 40
3.936205455
  0
LINE
  8
0
  6
CONTINUOUS
 62
     6
 10
685.534433259
 20
1322.814353908
 30
0.0
 11
686.751741242
 21
1322.814353908
 31
0.0
  0
CIRCLE
  8
0
  6
CONTINUOUS
 62
     6
 10
635.726855709
 20
1339.980583255
 30
0.0
 40
3.936205455
  0
LINE
  8
0
  6
CONTINUOUS
 62
     6
 10
635.483533837
 20
1335.953529485
 30
0.0
 11
630.946259178
 21
1336.709741928
 31
0.0
  0
LINE
  8
0
  6
CONTINUOUS
 62
     6
 10
635.726855709
 20
1343.91678871
 30
0.0
 11
635.726855709
 21
1351.830748456
 31
0.0
  0
LINE
  8
0
  6
CONTINUOUS
 62
     6
 10
635.726855709
 20
1351.830748456
 30
0.0
 11
610.214412943
 21
1351.830748456
 31
0.0
  0
LINE
  8
0
  6
CONTINUOUS
 62
     6
 10
788.801512307
 20
1351.830748456
 30
0.0
 11
737.776626774
 21
1351.830748456
 31
0.0
  0
CIRCLE
  8
0
  6
CONTINUOUS
 62
     6
 10
788.801512307
 20
1339.980583255
 30
0.0
 40
3.936205455
  0
LINE
  8
0
  6
CONTINUOUS
 62
     6
 10
788.558190434
 20
1335.953529485
 30
0.0
 11
784.020915776
 21
1336.709741928
 31
0.0
  0
LINE
  8
0
  6
CONTINUOUS
 62
     6
 10
788.801512307
 20
1343.91678871
 30
0.0
 11
788.801512307
 21
1351.830748456
 31
0.0
  0
CIRCLE
  8
0
  6
CONTINUOUS
 62
     6
 10
661.239298476
 20
1339.980583255
 30
0.0
 40
3.936205455
  0
LINE
  8
0
  6
CONTINUOUS
 62
     6
 10
661.482620348
 20
1335.953529485
 30
0.0
 11
666.019895007
 21
1336.709741928
 31
0.0
  0
LINE
  8
0
  6
CONTINUOUS
 62
     6
 10
661.239298476
 20
1343.91678871
 30
0.0
 11
661.239298476
 21
1351.830748456
 31
0.0
  0
LINE
  8
0
  6
CONTINUOUS
 62
     6
 10
712.264184008
 20
1351.830748456
 30
0.0
 11
661.239298476
 21
1351.830748456
 31
0.0
  0
TEXT
  8
0
  6
CONTINUOUS
 62
     6
 10
607.961199775
 20
1356.169123594
 30
0.78624
 40
11.232
  1
ＬＳＡ
 50
0.0
 41
0.8
 51
0.0
  7
KANJI28
  0
TEXT
  8
0
  6
CONTINUOUS
 62
     6
 10
665.811810691
 20
1356.169123594
 30
0.78624
 40
11.232
  1
ＬＳ０１
 50
0.0
 41
0.8
 51
0.0
  7
KANJI28
  0
TEXT
  8
0
  6
CONTINUOUS
 62
     6
 10
745.12718699
 20
1356.169123594
 30
0.78624
 40
11.232
  1
ＬＳ０２
 50
0.0
 41
0.8
 51
0.0
  7
KANJI28
  0
TEXT
  8
0
  6
CONTINUOUS
 62
     3
 10
132.110909048
 20
1282.050572856
 30
0.0
 40
14.4
  1
１１　１２　１３　　　４０　４１　１　　２　　　３　　　４　　　５　　　６
 50
0.0
 41
0.911
 51
0.0
  7
KANJI29
  0
POINT
  8
0
  6
CONTINUOUS
 62
     6
 10
138.221347684
 20
1329.099042337
 30
0.0
  0
POINT
  8
0
  6
CONTINUOUS
 62
     6
 10
192.317347684
 20
1329.099042337
 30
0.0
  0
LINE
  8
0
  6
CONTINUOUS
 62
     6
 10
148.794147684
 20
1341.099042337
 30
0.0
 11
154.076235385
 21
1351.002956776
 31
0.0
  0
LINE
  8
0
  6
CONTINUOUS
 62
     6
 10
154.076235385
 20
1351.002956776
 30
0.0
 11
160.597863813
 21
1332.742397176
 31
0.0
  0
LINE
  8
0
  6
CONTINUOUS
 62
     6
 10
169.133347684
 20
1351.179042337
 30
0.0
 11
176.525347684
 21
1333.035042337
 31
0.0
  0
LINE
  8
0
  6
CONTINUOUS
 62
     6
 10
160.597863813
 20
1332.742397176
 30
0.0
 11
169.133347684
 21
1351.179042337
 31
0.0
  0
LINE
  8
0
  6
CONTINUOUS
 62
     6
 10
176.525347684
 20
1333.035042337
 30
0.0
 11
179.885347684
 21
1341.099042337
 31
0.0
  0
LINE
  8
0
  6
CONTINUOUS
 62
     6
 10
179.885347684
 20
1341.099042337
 30
0.0
 11
192.317347684
 21
1341.099042337
 31
0.0
  0
LINE
  8
0
  6
CONTINUOUS
 62
     6
 10
138.221347684
 20
1341.099042337
 30
0.0
 11
148.794147684
 21
1341.099042337
 31
0.0
  0
LINE
  8
0
  6
CONTINUOUS
 62
     6
 10
138.221347684
 20
1300.273746261
 30
0.0
 11
138.221347684
 21
1341.099042337
 31
0.0
  0
LINE
  8
0
  6
CONTINUOUS
 62
     6
 10
165.437347684
 20
1300.273746261
 30
0.0
 11
165.437347684
 21
1330.731042337
 31
0.0
  0
LINE
  8
0
  6
CONTINUOUS
 62
     6
 10
192.317347684
 20
1341.099042337
 30
0.0
 11
192.317347684
 21
1300.273746261
 31
0.0
  0
LINE
  8
0
  6
CONTINUOUS
 62
     6
 10
165.437347684
 20
1330.731042337
 30
0.0
 11
162.94423925
 21
1324.498271253
 31
0.0
  0
LINE
  8
0
  6
CONTINUOUS
 62
     6
 10
165.437347684
 20
1330.731042337
 30
0.0
 11
167.930456118
 21
1324.498271253
 31
0.0
  0
TEXT
  8
0
  6
CONTINUOUS
 62
     3
 10
500.510909048
 20
1282.050572856
 30
0.0
 40
14.4
  1
１１　１２　１３　　　４０　４１　１　　２　　　３　　　４　　　５　　　６
 50
0.0
 41
0.911
 51
0.0
  7
KANJI29
  0
POINT
  8
0
  6
CONTINUOUS
 62
     6
 10
506.621347684
 20
1329.099042337
 30
0.0
  0
POINT
  8
0
  6
CONTINUOUS
 62
     6
 10
560.717347684
 20
1329.099042337
 30
0.0
  0
LINE
  8
0
  6
CONTINUOUS
 62
     6
 10
517.194147684
 20
1341.099042337
 30
0.0
 11
522.476235385
 21
1351.002956776
 31
0.0
  0
LINE
  8
0
  6
CONTINUOUS
 62
     6
 10
522.476235385
 20
1351.002956776
 30
0.0
 11
528.997863813
 21
1332.742397176
 31
0.0
  0
LINE
  8
0
  6
CONTINUOUS
 62
     6
 10
537.533347684
 20
1351.179042337
 30
0.0
 11
544.925347684
 21
1333.035042337
 31
0.0
  0
LINE
  8
0
  6
CONTINUOUS
 62
     6
 10
528.997863813
 20
1332.742397176
 30
0.0
 11
537.533347684
 21
1351.179042337
 31
0.0
  0
LINE
  8
0
  6
CONTINUOUS
 62
     6
 10
544.925347684
 20
1333.035042337
 30
0.0
 11
548.285347684
 21
1341.099042337
 31
0.0
  0
LINE
  8
0
  6
CONTINUOUS
 62
     6
 10
548.285347684
 20
1341.099042337
 30
0.0
 11
560.717347684
 21
1341.099042337
 31
0.0
  0
LINE
  8
0
  6
CONTINUOUS
 62
     6
 10
506.621347684
 20
1341.099042337
 30
0.0
 11
517.194147684
 21
1341.099042337
 31
0.0
  0
LINE
  8
0
  6
CONTINUOUS
 62
     6
 10
506.621347684
 20
1300.273746261
 30
0.0
 11
506.621347684
 21
1341.099042337
 31
0.0
  0
LINE
  8
0
  6
CONTINUOUS
 62
     6
 10
533.837347684
 20
1300.273746261
 30
0.0
 11
533.837347684
 21
1330.731042337
 31
0.0
  0
LINE
  8
0
  6
CONTINUOUS
 62
     6
 10
560.717347684
 20
1341.099042337
 30
0.0
 11
560.717347684
 21
1300.273746261
 31
0.0
  0
LINE
  8
0
  6
CONTINUOUS
 62
     6
 10
533.837347684
 20
1330.731042337
 30
0.0
 11
531.34423925
 21
1324.498271253
 31
0.0
  0
LINE
  8
0
  6
CONTINUOUS
 62
     6
 10
533.837347684
 20
1330.731042337
 30
0.0
 11
536.330456118
 21
1324.498271253
 31
0.0
  0
CIRCLE
  8
0
  6
CONTINUOUS
 62
     6
 10
508.164641878
 20
1239.542753509
 30
0.0
 40
3.936205455
  0
LINE
  8
0
  6
CONTINUOUS
 62
     6
 10
508.407963751
 20
1235.515699739
 30
0.0
 11
512.165854314
 21
1214.074046359
 31
0.0
  0
LINE
  8
0
  6
CONTINUOUS
 62
     6
 10
508.407963751
 20
1235.515699739
 30
0.0
 11
512.94523841
 21
1236.271912182
 31
0.0
  0
LINE
  8
0
  6
CONTINUOUS
 62
     6
 10
512.94523841
 20
1236.271912182
 30
0.0
 11
516.703424491
 21
1214.830308055
 31
0.0
  0
LINE
  8
0
  6
CONTINUOUS
 62
     6
 10
508.164641878
 20
1243.478958964
 30
0.0
 11
508.164641878
 21
1251.392918711
 31
0.0
  0
LINE
  8
0
  6
CONTINUOUS
 62
     6
 10
559.189527411
 20
1251.392918711
 30
0.0
 11
508.164641878
 21
1251.392918711
 31
0.0
  0
LINE
  8
0
  6
CONTINUOUS
 62
     6
 10
559.189527411
 20
1199.835916515
 30
0.0
 11
559.189527411
 21
1251.392918711
 31
0.0
  0
CIRCLE
  8
0
  6
CONTINUOUS
 62
     6
 10
635.726855709
 20
1239.542753509
 30
0.0
 40
3.936205455
  0
LINE
  8
0
  6
CONTINUOUS
 62
     6
 10
635.483533837
 20
1235.515699739
 30
0.0
 11
631.725643274
 21
1214.074046359
 31
0.0
  0
LINE
  8
0
  6
CONTINUOUS
 62
     6
 10
635.483533837
 20
1235.515699739
 30
0.0
 11
630.946259178
 21
1236.271912182
 31
0.0
  0
LINE
  8
0
  6
CONTINUOUS
 62
     6
 10
630.946259178
 20
1236.271912182
 30
0.0
 11
627.188073096
 21
1214.830308055
 31
0.0
  0
LINE
  8
0
  6
CONTINUOUS
 62
     6
 10
635.726855709
 20
1243.478958964
 30
0.0
 11
635.726855709
 21
1251.392918711
 31
0.0
  0
LINE
  8
0
  6
CONTINUOUS
 62
     6
 10
584.701970177
 20
1251.392918711
 30
0.0
 11
635.726855709
 21
1251.392918711
 31
0.0
  0
LINE
  8
0
  6
CONTINUOUS
 62
     6
 10
584.701970177
 20
1199.835916515
 30
0.0
 11
584.701970177
 21
1251.392918711
 31
0.0
  0
TEXT
  8
0
  6
CONTINUOUS
 62
     6
 10
592.689010392
 20
1255.386688026
 30
0.78624
 40
11.232
  1
ＬＳ１２
 50
0.0
 41
0.8
 51
0.0
  7
KANJI28
  0
TEXT
  8
0
  6
CONTINUOUS
 62
     6
 10
513.373634093
 20
1255.386688026
 30
0.78624
 40
11.232
  1
ＬＳ１１
 50
0.0
 41
0.8
 51
0.0
  7
KANJI28
  0
LINE
  8
0
  6
CONTINUOUS
 62
     2
 10
495.408420495
 20
1199.835916515
 30
0.0
 11
495.408420495
 21
1177.968108429
 31
0.0
  0
LINE
  8
0
  6
CONTINUOUS
 62
     2
 10
520.920863261
 20
1199.835916515
 30
0.0
 11
520.920863261
 21
1177.968108429
 31
0.0
  0
LINE
  8
0
  6
CONTINUOUS
 62
     2
 10
546.433306028
 20
1199.835916515
 30
0.0
 11
546.433306028
 21
1177.968108429
 31
0.0
  0
LINE
  8
0
  6
CONTINUOUS
 62
     2
 10
571.945748794
 20
1199.835916515
 30
0.0
 11
571.945748794
 21
1177.968108429
 31
0.0
  0
LINE
  8
0
  6
CONTINUOUS
 62
     2
 10
597.45819156
 20
1199.835916515
 30
0.0
 11
597.45819156
 21
1177.968108429
 31
0.0
  0
LINE
  8
0
  6
CONTINUOUS
 62
     2
 10
622.970634326
 20
1199.835916515
 30
0.0
 11
622.970634326
 21
1177.968108429
 31
0.0
  0
LINE
  8
0
  6
CONTINUOUS
 62
     6
 10
512.165854314
 20
1214.074046359
 30
0.0
 11
516.703424491
 21
1214.830308055
 31
0.0
  0
CIRCLE
  8
0
  6
CONTINUOUS
 62
     6
 10
508.164641878
 20
1213.286805268
 30
0.0
 40
3.936205455
  0
CIRCLE
  8
0
  6
CONTINUOUS
 62
     6
 10
528.523571206
 20
1222.376524162
 30
0.0
 40
3.936205455
  0
LINE
  8
0
  6
CONTINUOUS
 62
     6
 10
532.459776661
 20
1222.376524162
 30
0.0
 11
533.677084644
 21
1222.376524162
 31
0.0
  0
LINE
  8
0
  6
CONTINUOUS
 62
     6
 10
508.164641878
 20
1209.350599813
 30
0.0
 11
508.164641878
 21
1199.835916515
 31
0.0
  0
LINE
  8
0
  6
CONTINUOUS
 62
     6
 10
533.677084644
 20
1222.376524162
 30
0.0
 11
533.677084644
 21
1199.835916515
 31
0.0
  0
LINE
  8
0
  6
CONTINUOUS
 62
     6
 10
631.725643274
 20
1214.074046359
 30
0.0
 11
627.188073096
 21
1214.830308055
 31
0.0
  0
CIRCLE
  8
0
  6
CONTINUOUS
 62
     6
 10
635.726855709
 20
1213.286805268
 30
0.0
 40
3.936205455
  0
CIRCLE
  8
0
  6
CONTINUOUS
 62
     6
 10
615.367926382
 20
1222.376524162
 30
0.0
 40
3.936205455
  0
LINE
  8
0
  6
CONTINUOUS
 62
     6
 10
611.431720927
 20
1222.376524162
 30
0.0
 11
610.214412943
 21
1222.376524162
 31
0.0
  0
LINE
  8
0
  6
CONTINUOUS
 62
     6
 10
635.726855709
 20
1209.350599813
 30
0.0
 11
635.726855709
 21
1199.835916515
 31
0.0
  0
LINE
  8
0
  6
CONTINUOUS
 62
     6
 10
610.214412943
 20
1222.376524162
 30
0.0
 11
610.214412943
 21
1199.835916515
 31
0.0
  0
LINE
  8
0
  6
CONTINUOUS
 62
     2
 10
648.483077093
 20
1199.835916515
 30
0.0
 11
648.483077093
 21
1177.968108429
 31
0.0
  0
TEXT
  8
0
  6
CONTINUOUS
 62
     3
 10
502.347996451
 20
1180.92384711
 30
0.0
 40
14.37696
  1
２１　２２　２３　２４　　２５　　２６　　
 50
0.0
 41
0.9125
 51
0.0
  7
KANJI27
  0
LINE
  8
0
  6
CONTINUOUS
 62
     2
 10
495.408420495
 20
1177.968108429
 30
0.0
 11
648.483077093
 21
1177.968108429
 31
0.0
  0
LINE
  8
0
  6
CONTINUOUS
 62
     2
 10
495.408420495
 20
1199.835916515
 30
0.0
 11
648.483077093
 21
1199.835916515
 31
0.0
  0
CIRCLE
  8
0
  6
CONTINUOUS
 62
     6
 10
661.239298476
 20
1239.542753509
 30
0.0
 40
3.936205455
  0
LINE
  8
0
  6
CONTINUOUS
 62
     6
 10
661.482620348
 20
1235.515699739
 30
0.0
 11
665.240510911
 21
1214.074046359
 31
0.0
  0
LINE
  8
0
  6
CONTINUOUS
 62
     6
 10
661.482620348
 20
1235.515699739
 30
0.0
 11
666.019895007
 21
1236.271912182
 31
0.0
  0
LINE
  8
0
  6
CONTINUOUS
 62
     6
 10
666.019895007
 20
1236.271912182
 30
0.0
 11
669.778081089
 21
1214.830308055
 31
0.0
  0
LINE
  8
0
  6
CONTINUOUS
 62
     6
 10
661.239298476
 20
1243.478958964
 30
0.0
 11
661.239298476
 21
1251.392918711
 31
0.0
  0
LINE
  8
0
  6
CONTINUOUS
 62
     6
 10
712.264184008
 20
1251.392918711
 30
0.0
 11
661.239298476
 21
1251.392918711
 31
0.0
  0
LINE
  8
0
  6
CONTINUOUS
 62
     6
 10
712.264184008
 20
1199.835916515
 30
0.0
 11
712.264184008
 21
1251.392918711
 31
0.0
  0
CIRCLE
  8
0
  6
CONTINUOUS
 62
     6
 10
788.801512307
 20
1239.542753509
 30
0.0
 40
3.936205455
  0
LINE
  8
0
  6
CONTINUOUS
 62
     6
 10
788.558190434
 20
1235.515699739
 30
0.0
 11
784.800299871
 21
1214.074046359
 31
0.0
  0
LINE
  8
0
  6
CONTINUOUS
 62
     6
 10
788.558190434
 20
1235.515699739
 30
0.0
 11
784.020915776
 21
1236.271912182
 31
0.0
  0
LINE
  8
0
  6
CONTINUOUS
 62
     6
 10
784.020915776
 20
1236.271912182
 30
0.0
 11
780.262729694
 21
1214.830308055
 31
0.0
  0
LINE
  8
0
  6
CONTINUOUS
 62
     6
 10
788.801512307
 20
1243.478958964
 30
0.0
 11
788.801512307
 21
1251.392918711
 31
0.0
  0
LINE
  8
0
  6
CONTINUOUS
 62
     6
 10
737.776626774
 20
1251.392918711
 30
0.0
 11
788.801512307
 21
1251.392918711
 31
0.0
  0
LINE
  8
0
  6
CONTINUOUS
 62
     6
 10
737.776626774
 20
1199.835916515
 30
0.0
 11
737.776626774
 21
1251.392918711
 31
0.0
  0
LINE
  8
0
  6
CONTINUOUS
 62
     2
 10
673.995519859
 20
1199.835916515
 30
0.0
 11
673.995519859
 21
1177.968108429
 31
0.0
  0
LINE
  8
0
  6
CONTINUOUS
 62
     2
 10
699.507962625
 20
1199.835916515
 30
0.0
 11
699.507962625
 21
1177.968108429
 31
0.0
  0
LINE
  8
0
  6
CONTINUOUS
 62
     2
 10
725.020405391
 20
1199.835916515
 30
0.0
 11
725.020405391
 21
1177.968108429
 31
0.0
  0
LINE
  8
0
  6
CONTINUOUS
 62
     2
 10
750.532848158
 20
1199.835916515
 30
0.0
 11
750.532848158
 21
1177.968108429
 31
0.0
  0
LINE
  8
0
  6
CONTINUOUS
 62
     2
 10
776.045290924
 20
1199.835916515
 30
0.0
 11
776.045290924
 21
1177.968108429
 31
0.0
  0
LINE
  8
0
  6
CONTINUOUS
 62
     6
 10
665.240510911
 20
1214.074046359
 30
0.0
 11
669.778081089
 21
1214.830308055
 31
0.0
  0
CIRCLE
  8
0
  6
CONTINUOUS
 62
     6
 10
661.239298476
 20
1213.286805268
 30
0.0
 40
3.936205455
  0
CIRCLE
  8
0
  6
CONTINUOUS
 62
     6
 10
681.598227803
 20
1222.376524162
 30
0.0
 40
3.936205455
  0
LINE
  8
0
  6
CONTINUOUS
 62
     6
 10
685.534433259
 20
1222.376524162
 30
0.0
 11
686.751741242
 21
1222.376524162
 31
0.0
  0
LINE
  8
0
  6
CONTINUOUS
 62
     6
 10
661.239298476
 20
1209.350599813
 30
0.0
 11
661.239298476
 21
1199.835916515
 31
0.0
  0
LINE
  8
0
  6
CONTINUOUS
 62
     6
 10
686.751741242
 20
1222.376524162
 30
0.0
 11
686.751741242
 21
1199.835916515
 31
0.0
  0
LINE
  8
0
  6
CONTINUOUS
 62
     6
 10
784.800299871
 20
1214.074046359
 30
0.0
 11
780.262729694
 21
1214.830308055
 31
0.0
  0
CIRCLE
  8
0
  6
CONTINUOUS
 62
     6
 10
788.801512307
 20
1213.286805268
 30
0.0
 40
3.936205455
  0
CIRCLE
  8
0
  6
CONTINUOUS
 62
     6
 10
768.44258298
 20
1222.376524162
 30
0.0
 40
3.936205455
  0
LINE
  8
0
  6
CONTINUOUS
 62
     6
 10
764.506377524
 20
1222.376524162
 30
0.0
 11
763.289069541
 21
1222.376524162
 31
0.0
  0
LINE
  8
0
  6
CONTINUOUS
 62
     6
 10
788.801512307
 20
1209.350599813
 30
0.0
 11
788.801512307
 21
1199.835916515
 31
0.0
  0
LINE
  8
0
  6
CONTINUOUS
 62
     6
 10
763.289069541
 20
1222.376524162
 30
0.0
 11
763.289069541
 21
1199.835916515
 31
0.0
  0
LINE
  8
0
  6
CONTINUOUS
 62
     2
 10
801.55773369
 20
1199.835916515
 30
0.0
 11
801.55773369
 21
1177.968108429
 31
0.0
  0
LINE
  8
0
  6
CONTINUOUS
 62
     2
 10
648.483077093
 20
1177.968108429
 30
0.0
 11
801.55773369
 21
1177.968108429
 31
0.0
  0
LINE
  8
0
  6
CONTINUOUS
 62
     2
 10
648.483077093
 20
1199.835916515
 30
0.0
 11
801.55773369
 21
1199.835916515
 31
0.0
  0
TEXT
  8
0
  6
CONTINUOUS
 62
     3
 10
655.422653048
 20
1180.92384711
 30
0.0
 40
14.37696
  1
２７　２８　２９　３０　　３１　　３２　　
 50
0.0
 41
0.9125
 51
0.0
  7
KANJI27
  0
TEXT
  8
0
  6
CONTINUOUS
 62
     6
 10
157.361199775
 20
1356.169123594
 30
0.78624
 40
11.232
  1
Ｐｔ
 50
0.0
 41
0.8
 51
0.0
  7
KANJI28
  0
TEXT
  8
0
  6
CONTINUOUS
 62
     6
 10
666.448290691
 20
1255.386688026
 30
0.78624
 40
11.232
  1
ＬＳ１３
 50
0.0
 41
0.8
 51
0.0
  7
KANJI28
  0
TEXT
  8
0
  6
CONTINUOUS
 62
     6
 10
745.76366699
 20
1255.386688026
 30
0.78624
 40
11.232
  1
ＬＳ１４
 50
0.0
 41
0.8
 51
0.0
  7
KANJI28
  0
TEXT
  8
0
  6
CONTINUOUS
 62
     6
 10
525.761199775
 20
1356.169123594
 30
0.78624
 40
11.232
  1
Ｐｔ
 50
0.0
 41
0.8
 51
0.0
  7
KANJI28
  0
TEXT
  8
0
  6
CONTINUOUS
 62
     6
 10
114.408220643
 20
1518.470112111
 30
0.0
 40
13.9932
  1
ＬＳ１１，１２：位置リミットスイッチ　［２カム用］
 50
0.0
 41
0.943315325
 51
0.0
  7
KANJI30
  0
TEXT
  8
0
  6
CONTINUOUS
 62
     6
 10
114.408220643
 20
1485.515112111
 30
0.0
 40
13.9932
  1
ＬＳ１１～１４：位置リミットスイッチ　［４カム用］
 50
0.0
 41
0.943315325
 51
0.0
  7
KANJI30
  0
LINE
  8
0
  6
CONTINUOUS
 62
     6
 10
449.259958074
 20
1514.632311792
 30
0.0
 11
109.717575809
 21
1514.632311792
 31
0.0
  0
LINE
  8
0
  6
CONTINUOUS
 62
     6
 10
449.259958074
 20
1481.677311792
 30
0.0
 11
109.717575809
 21
1481.677311792
 31
0.0
  0
TEXT
  8
0
  6
CONTINUOUS
 62
     6
 10
114.408220643
 20
1617.335112111
 30
0.0
 40
13.9932
  1
ＬＳ０１　　　：推力リミッタ（前進時過負荷用）
 50
0.0
 41
0.943315325
 51
0.0
  7
KANJI30
  0
TEXT
  8
0
  6
CONTINUOUS
 62
     6
 10
114.408220643
 20
1584.380112111
 30
0.0
 40
13.9932
  1
ＬＳ０２　　　：推力リミッタ（後進時過負荷用）
 50
0.0
 41
0.943315325
 51
0.0
  7
KANJI30
  0
TEXT
  8
0
  6
CONTINUOUS
 62
     6
 10
114.408220643
 20
1551.425112111
 30
0.0
 40
13.9932
  1
ＬＳＡ　　　　：安全リミットスイッチ
 50
0.0
 41
0.943315325
 51
0.0
  7
KANJI30
  0
TEXT
  8
0
  6
CONTINUOUS
 62
     6
 10
114.408220643
 20
1452.560112111
 30
0.0
 40
13.9932
  1
Ｐｔ　　　　　：ポテンションメータ（１ｋΩ）
 50
0.0
 41
0.943315325
 51
0.0
  7
KANJI30
  0
LINE
  8
0
  6
CONTINUOUS
 62
     6
 10
449.259958074
 20
1613.497311792
 30
0.0
 11
109.717575809
 21
1613.497311792
 31
0.0
  0
LINE
  8
0
  6
CONTINUOUS
 62
     6
 10
449.259958074
 20
1580.542311792
 30
0.0
 11
109.717575809
 21
1580.542311792
 31
0.0
  0
LINE
  8
0
  6
CONTINUOUS
 62
     6
 10
449.259958074
 20
1547.587311792
 30
0.0
 11
109.717575809
 21
1547.587311792
 31
0.0
  0
LINE
  8
0
  6
CONTINUOUS
 62
     6
 10
449.259958074
 20
1448.722311792
 30
0.0
 11
109.717575809
 21
1448.722311792
 31
0.0
  0
TEXT
  8
0
  6
CONTINUOUS
 62
     6
 10
394.244011737
 20
1411.208448882
 30
0.0
 40
18.0
  1
ポジショナ内端子台配列
 50
0.0
 41
0.9
 51
0.0
  7
KANJI31
  0
LINE
  8
0
  6
CONTINUOUS
 62
     2
 10
185.12
 20
1384.0
 30
0.0
 11
173.528890085
 21
1387.105828541
 31
0.0
  0
LINE
  8
0
  6
CONTINUOUS
 62
     2
 10
185.12
 20
1384.0
 30
0.0
 11
173.528890085
 21
1380.894171459
 31
0.0
  0
LINE
  8
0
  6
CONTINUOUS
 62
     2
 10
185.12
 20
1384.0
 30
0.0
 11
143.72
 21
1384.0
 31
0.0
  0
TEXT
  8
0
  6
CONTINUOUS
 62
     3
 10
152.12
 20
1390.0
 30
0.0
 40
12.0
  1
前進
 50
0.0
 41
0.85
 51
0.0
  7
KANJI32
  0
LINE
  8
0
  6
CONTINUOUS
 62
     2
 10
553.52
 20
1384.0
 30
0.0
 11
541.928890085
 21
1387.105828541
 31
0.0
  0
LINE
  8
0
  6
CONTINUOUS
 62
     2
 10
553.52
 20
1384.0
 30
0.0
 11
541.928890085
 21
1380.894171459
 31
0.0
  0
LINE
  8
0
  6
CONTINUOUS
 62
     2
 10
553.52
 20
1384.0
 30
0.0
 11
512.12
 21
1384.0
 31
0.0
  0
TEXT
  8
0
  6
CONTINUOUS
 62
     3
 10
520.52
 20
1390.0
 30
0.0
 40
12.0
  1
前進
 50
0.0
 41
0.85
 51
0.0
  7
KANJI32
  0
LINE
  8
0
  6
LTYPE2
 62
     6
 10
458.72
 20
1379.8
 30
0.0
 11
458.72
 21
1156.6
 31
0.0
  0
LINE
  8
0
  6
CONTINUOUS
 62
     2
 10
1683.32
 20
688.9
 30
0.0
 11
1827.32
 21
688.9
 31
0.0
  0
TEXT
  8
0
  6
CONTINUOUS
 62
     2
 10
1689.92
 20
525.1
 30
5.985
 40
21.0
  1
　　ポテンショメータ：　１ｋΩ
 50
0.0
 41
0.857222222
 51
0.0
  7
KANJI33
  0
TEXT
  8
0
  6
CONTINUOUS
 62
     2
 10
1689.92
 20
555.1
 30
5.985
 40
21.0
  1
　　カム式位置リミットスイッチ：　４点　　　２点
 50
0.0
 41
0.857222222
 51
0.0
  7
KANJI33
  0
TEXT
  8
0
  6
CONTINUOUS
 62
     2
 10
1689.92
 20
660.1
 30
6.0
 40
21.0
  1
１．運転時は必ずピストンロッドの回転防止を行って下さい。
 50
0.0
 41
0.857142857
 51
0.0
  7
KANJI34
  0
TEXT
  8
0
  6
CONTINUOUS
 62
     2
 10
1689.92
 20
585.1
 30
5.985
 40
21.0
  1
３．ポジショナ
 50
0.0
 41
0.857222222
 51
0.0
  7
KANJI33
  0
TEXT
  8
0
  6
CONTINUOUS
 62
     2
 10
1690.52
 20
493.0
 30
5.985
 40
21.0
  1
４．呼称ストロークは、機械的ストロークです。
 50
0.0
 41
0.857222222
 51
0.0
  7
KANJI33
  0
TEXT
  8
0
  6
CONTINUOUS
 62
     2
 10
1695.92
 20
697.3
 30
12.0
 40
24.0
  1
特記事項
 50
0.0
 41
0.9
 51
0.0
  7
KANJI35
  0
TEXT
  8
0
  6
CONTINUOUS
 62
     2
 10
1690.52
 20
427.0
 30
5.985
 40
21.0
  1
　　前後の推奨余裕寸法は、各々１０ｍｍです。
 50
0.0
 41
0.857222222
 51
0.0
  7
KANJI33
  0
TEXT
  8
0
  6
CONTINUOUS
 62
     2
 10
1041.753
 20
1522.58
 30
1.617
 40
16.17
  1
注意：サーマルリレー等の選定は、上記の値で選定して下さい。
 50
0.0
 41
0.9
 51
0.0
  7
KANJI36
  0
LINE
  8
0
  6
CONTINUOUS
 62
     2
 10
1032.513
 20
1517.96
 30
0.0
 11
1503.0
 21
1517.96
 31
0.0
  0
ARC
  8
0
  6
CONTINUOUS
 62
     1
 10
1039.788885343
 20
551.0
 30
0.0
 40
1.0
 50
195.0
 51
270.0
  0
ARC
  8
0
  6
CONTINUOUS
 62
     1
 10
1039.788886169
 20
551.0
 30
0.0
 40
1.0
 50
270.0
 51
345.0
  0
LINE
  8
0
  6
CONTINUOUS
 62
     1
 10
1044.376852205
 20
564.258819045
 30
0.0
 11
1040.754811995
 21
550.741180955
 31
0.0
  0
ARC
  8
0
  6
CONTINUOUS
 62
     1
 10
1045.342778032
 20
564.0
 30
0.0
 40
1.0
 50
90.0
 51
165.0
  0
ARC
  8
0
  6
CONTINUOUS
 62
     1
 10
1045.342778706
 20
564.0
 30
0.0
 40
1.0
 50
15.0
 51
90.0
  0
LINE
  8
0
  6
CONTINUOUS
 62
     1
 10
1046.308704532
 20
564.258819045
 30
0.0
 11
1049.930744742
 21
550.741180955
 31
0.0
  0
ARC
  8
0
  6
CONTINUOUS
 62
     1
 10
1050.896670568
 20
551.0
 30
0.0
 40
1.0
 50
195.0
 51
270.0
  0
LINE
  8
0
  6
CONTINUOUS
 62
     1
 10
1055.48463743
 20
564.258819045
 30
0.0
 11
1051.86259722
 21
550.741180955
 31
0.0
  0
ARC
  8
0
  6
CONTINUOUS
 62
     1
 10
1056.450563257
 20
564.0
 30
0.0
 40
1.0
 50
90.0
 51
165.0
  0
ARC
  8
0
  6
CONTINUOUS
 62
     1
 10
1050.89667222
 20
551.0
 30
0.0
 40
1.0
 50
270.0
 51
345.0
  0
ARC
  8
0
  6
CONTINUOUS
 62
     1
 10
1039.788885343
 20
659.0
 30
0.0
 40
1.0
 50
90.0
 51
165.0
  0
ARC
  8
0
  6
CONTINUOUS
 62
     1
 10
1039.788886169
 20
659.0
 30
0.0
 40
1.0
 50
15.0
 51
90.0
  0
LINE
  8
0
  6
CONTINUOUS
 62
     1
 10
1044.376852205
 20
645.741180955
 30
0.0
 11
1040.754811995
 21
659.258819045
 31
0.0
  0
ARC
  8
0
  6
CONTINUOUS
 62
     1
 10
1045.342778032
 20
646.0
 30
0.0
 40
1.0
 50
195.0
 51
270.0
  0
ARC
  8
0
  6
CONTINUOUS
 62
     1
 10
1045.342778706
 20
646.0
 30
0.0
 40
1.0
 50
270.0
 51
345.0
  0
LINE
  8
0
  6
CONTINUOUS
 62
     1
 10
1046.308704532
 20
645.741180955
 30
0.0
 11
1049.930744742
 21
659.258819045
 31
0.0
  0
ARC
  8
0
  6
CONTINUOUS
 62
     1
 10
1050.896670568
 20
659.0
 30
0.0
 40
1.0
 50
90.0
 51
165.0
  0
LINE
  8
0
  6
CONTINUOUS
 62
     1
 10
1055.48463743
 20
645.741180955
 30
0.0
 11
1051.86259722
 21
659.258819045
 31
0.0
  0
ARC
  8
0
  6
CONTINUOUS
 62
     1
 10
1056.450563257
 20
646.0
 30
0.0
 40
1.0
 50
195.0
 51
270.0
  0
ARC
  8
0
  6
CONTINUOUS
 62
     1
 10
1050.89667222
 20
659.0
 30
0.0
 40
1.0
 50
15.0
 51
90.0
  0
LINE
  8
0
  6
CONTINUOUS
 62
     1
 10
1039.788885343
 20
660.0
 30
0.0
 11
1039.788885343
 21
605.0
 31
0.0
  0
LINE
  8
0
  6
CONTINUOUS
 62
     1
 10
1045.342778032
 20
605.0
 30
0.0
 11
1045.342778032
 21
645.0
 31
0.0
  0
LINE
  8
0
  6
CONTINUOUS
 62
     1
 10
1050.896671394
 20
660.0
 30
0.0
 11
1050.896671394
 21
605.0
 31
0.0
  0
LINE
  8
0
  6
CONTINUOUS
 62
     1
 10
1056.450563257
 20
645.0
 30
0.0
 11
1056.450563257
 21
605.0
 31
0.0
  0
LINE
  8
0
  6
CONTINUOUS
 62
     1
 10
1071.042512848
 20
580.0
 30
0.0
 11
1156.666666667
 21
580.0
 31
0.0
  0
LINE
  8
0
  6
LTYPE3
 62
     2
 10
1056.450563257
 20
565.0
 30
0.0
 11
1087.396671394
 21
565.0
 31
0.0
  0
LINE
  8
0
  6
LTYPE3
 62
     2
 10
1050.896670568
 20
550.0
 30
0.0
 11
1087.396671394
 21
550.0
 31
0.0
  0
LINE
  8
0
  6
LTYPE3
 62
     2
 10
1118.342779532
 20
565.0
 30
0.0
 11
1087.396671394
 21
565.0
 31
0.0
  0
LINE
  8
0
  6
LTYPE3
 62
     2
 10
1123.89667222
 20
550.0
 30
0.0
 11
1087.396671394
 21
550.0
 31
0.0
  0
LINE
  8
0
  6
LTYPE3
 62
     2
 10
1056.450563257
 20
645.0
 30
0.0
 11
1087.396671394
 21
645.0
 31
0.0
  0
LINE
  8
0
  6
LTYPE3
 62
     2
 10
1050.896670568
 20
660.0
 30
0.0
 11
1087.396671394
 21
660.0
 31
0.0
  0
LINE
  8
0
  6
LTYPE3
 62
     2
 10
1118.342779532
 20
645.0
 30
0.0
 11
1087.396671394
 21
645.0
 31
0.0
  0
LINE
  8
0
  6
LTYPE3
 62
     2
 10
1123.89667222
 20
660.0
 30
0.0
 11
1087.396671394
 21
660.0
 31
0.0
  0
LINE
  8
0
  6
LTYPE3
 62
     2
 10
1118.342779532
 20
848.0
 30
0.0
 11
1087.396671394
 21
848.0
 31
0.0
  0
LINE
  8
0
  6
LTYPE3
 62
     2
 10
1123.89667222
 20
863.0
 30
0.0
 11
1087.396671394
 21
863.0
 31
0.0
  0
LINE
  8
0
  6
LTYPE3
 62
     2
 10
1118.342779532
 20
768.0
 30
0.0
 11
1087.396671394
 21
768.0
 31
0.0
  0
LINE
  8
0
  6
LTYPE3
 62
     2
 10
1123.89667222
 20
753.0
 30
0.0
 11
1087.396671394
 21
753.0
 31
0.0
  0
LINE
  8
0
  6
CONTINUOUS
 62
     2
 10
1071.042512848
 20
410.8
 30
0.0
 11
1058.968440019
 21
414.035238064
 31
0.0
  0
LINE
  8
0
  6
CONTINUOUS
 62
     2
 10
1071.042512848
 20
410.8
 30
0.0
 11
1058.968440019
 21
407.564761936
 31
0.0
  0
LINE
  8
0
  6
CONTINUOUS
 62
     2
 10
1071.042512848
 20
410.8
 30
0.0
 11
1083.116585676
 21
407.564761936
 31
0.0
  0
LINE
  8
0
  6
CONTINUOUS
 62
     2
 10
1071.042512848
 20
410.8
 30
0.0
 11
1083.116585676
 21
414.035238064
 31
0.0
  0
LINE
  8
0
  6
CONTINUOUS
 62
     2
 10
1071.042512848
 20
566.85
 30
0.0
 11
1071.042512848
 21
401.0625
 31
0.0
  0
CIRCLE
  8
0
  6
CONTINUOUS
 62
     1
 10
974.666666667
 20
605.0
 30
0.0
 40
16.575
  0
LINE
  8
0
  6
CONTINUOUS
 62
     1
 10
957.666666667
 20
622.0
 30
0.0
 11
991.666666667
 21
622.0
 31
0.0
  0
LINE
  8
0
  6
CONTINUOUS
 62
     1
 10
991.666666667
 20
588.0
 30
0.0
 11
991.666666667
 21
622.0
 31
0.0
  0
LINE
  8
0
  6
CONTINUOUS
 62
     1
 10
957.666666667
 20
588.0
 30
0.0
 11
991.666666667
 21
588.0
 31
0.0
  0
LINE
  8
0
  6
CONTINUOUS
 62
     1
 10
957.666666667
 20
588.0
 30
0.0
 11
957.666666667
 21
622.0
 31
0.0
  0
LINE
  8
0
  6
LTYPE4
 62
     2
 10
974.666666667
 20
583.665
 30
0.0
 11
974.666666667
 21
626.08
 31
0.0
  0
ARC
  8
0
  6
CONTINUOUS
 62
     1
 10
678.066666667
 20
789.0
 30
0.0
 40
6.0
 50
270.0
 51
0.0
  0
LINE
  8
0
  6
CONTINUOUS
 62
     1
 10
687.066666667
 20
815.0
 30
0.0
 11
721.066666667
 21
815.0
 31
0.0
  0
LINE
  8
0
  6
CONTINUOUS
 62
     1
 10
684.066666667
 20
789.0
 30
0.0
 11
684.066666667
 21
812.0
 31
0.0
  0
ARC
  8
0
  6
CONTINUOUS
 62
     1
 10
687.066666667
 20
812.0
 30
0.0
 40
3.0
 50
90.0
 51
180.0
  0
LINE
  8
0
  6
CONTINUOUS
 62
     1
 10
697.066666667
 20
821.0
 30
0.0
 11
706.266666667
 21
821.0
 31
0.0
  0
CIRCLE
  8
0
  6
CONTINUOUS
 62
     1
 10
697.066666667
 20
835.0
 30
0.0
 40
12.5
  0
LINE
  8
0
  6
CONTINUOUS
 62
     1
 10
697.066666667
 20
822.5
 30
0.0
 11
706.266666667
 21
821.0
 31
0.0
  0
ARC
  8
0
  6
CONTINUOUS
 62
     1
 10
697.066666667
 20
835.0
 30
0.0
 40
20.5
 50
300.423432294
 51
0.0
  0
ARC
  8
0
  6
CONTINUOUS
 62
     1
 10
708.014650739
 20
816.273488336
 30
0.0
 40
1.2
 50
118.393405187
 51
188.554293104
  0
LINE
  8
0
  6
CONTINUOUS
 62
     1
 10
697.066666667
 20
821.0
 30
0.0
 11
687.866666667
 21
821.0
 31
0.0
  0
LINE
  8
0
  6
CONTINUOUS
 62
     1
 10
697.066666667
 20
822.5
 30
0.0
 11
687.866666667
 21
821.0
 31
0.0
  0
ARC
  8
0
  6
CONTINUOUS
 62
     1
 10
686.118682594
 20
816.273488336
 30
0.0
 40
1.2
 50
351.445706896
 51
61.606594813
  0
ARC
  8
0
  6
CONTINUOUS
 62
     1
 10
697.066666667
 20
835.0
 30
0.0
 40
20.5
 50
0.0
 51
239.707348078
  0
LINE
  8
0
  6
CONTINUOUS
 62
     1
 10
687.180952381
 20
815.0
 30
0.0
 11
687.866666667
 21
821.0
 31
0.0
  0
LINE
  8
0
  6
CONTINUOUS
 62
     1
 10
706.952380952
 20
815.0
 30
0.0
 11
706.266666667
 21
821.0
 31
0.0
  0
LINE
  8
0
  6
CONTINUOUS
 62
     1
 10
903.066666667
 20
547.0
 30
0.0
 11
903.066666667
 21
658.0
 31
0.0
  0
LINE
  8
0
  6
CONTINUOUS
 62
     1
 10
736.066666667
 20
548.0
 30
0.0
 11
736.066666667
 21
662.0
 31
0.0
  0
CIRCLE
  8
0
  6
CONTINUOUS
 62
     1
 10
781.066666667
 20
605.0
 30
0.0
 40
10.0
  0
CIRCLE
  8
0
  6
CONTINUOUS
 62
     1
 10
781.066666667
 20
605.0
 30
0.0
 40
21.0
  0
CIRCLE
  8
0
  6
CONTINUOUS
 62
     1
 10
781.066666667
 20
605.0
 30
0.0
 40
25.0
  0
LINE
  8
0
  6
CONTINUOUS
 62
     1
 10
721.066666667
 20
662.0
 30
0.0
 11
736.066666667
 21
662.0
 31
0.0
  0
LINE
  8
0
  6
CONTINUOUS
 62
     1
 10
749.966666667
 20
658.0
 30
0.0
 11
903.066666667
 21
658.0
 31
0.0
  0
LINE
  8
0
  6
CONTINUOUS
 62
     1
 10
829.066666667
 20
547.0
 30
0.0
 11
829.066666667
 21
599.4
 31
0.0
  0
LINE
  8
0
  6
CONTINUOUS
 62
     1
 10
749.966666667
 20
552.0
 30
0.0
 11
826.566666667
 21
552.0
 31
0.0
  0
LINE
  8
0
  6
CONTINUOUS
 62
     1
 10
739.066666667
 20
650.0
 30
0.0
 11
739.066666667
 21
660.94954
 31
0.0
  0
LINE
  8
0
  6
CONTINUOUS
 62
     1
 10
739.066666667
 20
650.0
 30
0.0
 11
739.066666667
 21
639.05046
 31
0.0
  0
LINE
  8
0
  6
CONTINUOUS
 62
     1
 10
736.066666667
 20
660.75
 30
0.0
 11
739.066666667
 21
660.75
 31
0.0
  0
LINE
  8
0
  6
CONTINUOUS
 62
     1
 10
736.066666667
 20
650.0
 30
0.0
 11
739.066920739
 21
653.000254073
 31
0.0
  0
LINE
  8
0
  6
CONTINUOUS
 62
     1
 10
739.066920739
 20
650.0
 30
0.0
 11
736.066666667
 21
646.999745927
 31
0.0
  0
LINE
  8
0
  6
CONTINUOUS
 62
     1
 10
736.066666667
 20
639.25
 30
0.0
 11
739.066666667
 21
639.25
 31
0.0
  0
LINE
  8
0
  6
CONTINUOUS
 62
     1
 10
739.066666667
 20
660.75
 30
0.0
 11
750.366666667
 21
660.75
 31
0.0
  0
LINE
  8
0
  6
CONTINUOUS
 62
     1
 10
750.366666667
 20
650.0
 30
0.0
 11
750.366666667
 21
660.75
 31
0.0
  0
LINE
  8
0
  6
CONTINUOUS
 62
     1
 10
750.366666667
 20
660.75
 30
0.0
 11
751.066666667
 21
659.537564435
 31
0.0
  0
LINE
  8
0
  6
CONTINUOUS
 62
     1
 10
751.066666667
 20
650.0
 30
0.0
 11
751.066666667
 21
659.537564435
 31
0.0
  0
LINE
  8
0
  6
CONTINUOUS
 62
     1
 10
739.066666667
 20
639.25
 30
0.0
 11
750.366666667
 21
639.25
 31
0.0
  0
LINE
  8
0
  6
CONTINUOUS
 62
     1
 10
750.366666667
 20
650.0
 30
0.0
 11
750.366666667
 21
639.25
 31
0.0
  0
LINE
  8
0
  6
CONTINUOUS
 62
     1
 10
750.366666667
 20
639.25
 30
0.0
 11
751.066666667
 21
640.462435565
 31
0.0
  0
LINE
  8
0
  6
CONTINUOUS
 62
     1
 10
751.066666667
 20
650.0
 30
0.0
 11
751.066666667
 21
640.462435565
 31
0.0
  0
LINE
  8
0
  6
CONTINUOUS
 62
     1
 10
739.066666667
 20
560.0
 30
0.0
 11
739.066666667
 21
549.05046
 31
0.0
  0
LINE
  8
0
  6
CONTINUOUS
 62
     1
 10
739.066666667
 20
560.0
 30
0.0
 11
739.066666667
 21
570.94954
 31
0.0
  0
LINE
  8
0
  6
CONTINUOUS
 62
     1
 10
736.066666667
 20
549.25
 30
0.0
 11
739.066666667
 21
549.25
 31
0.0
  0
LINE
  8
0
  6
CONTINUOUS
 62
     1
 10
736.066666667
 20
560.0
 30
0.0
 11
739.066920739
 21
556.999745927
 31
0.0
  0
LINE
  8
0
  6
CONTINUOUS
 62
     1
 10
739.066920739
 20
560.0
 30
0.0
 11
736.066666667
 21
563.000254073
 31
0.0
  0
LINE
  8
0
  6
CONTINUOUS
 62
     1
 10
736.066666667
 20
570.75
 30
0.0
 11
739.066666667
 21
570.75
 31
0.0
  0
LINE
  8
0
  6
CONTINUOUS
 62
     1
 10
739.066666667
 20
549.25
 30
0.0
 11
750.366666667
 21
549.25
 31
0.0
  0
LINE
  8
0
  6
CONTINUOUS
 62
     1
 10
750.366666667
 20
560.0
 30
0.0
 11
750.366666667
 21
549.25
 31
0.0
  0
LINE
  8
0
  6
CONTINUOUS
 62
     1
 10
750.366666667
 20
549.25
 30
0.0
 11
751.066666667
 21
550.462435565
 31
0.0
  0
LINE
  8
0
  6
CONTINUOUS
 62
     1
 10
751.066666667
 20
560.0
 30
0.0
 11
751.066666667
 21
550.462435565
 31
0.0
  0
LINE
  8
0
  6
CONTINUOUS
 62
     1
 10
739.066666667
 20
570.75
 30
0.0
 11
750.366666667
 21
570.75
 31
0.0
  0
LINE
  8
0
  6
CONTINUOUS
 62
     1
 10
750.366666667
 20
560.0
 30
0.0
 11
750.366666667
 21
570.75
 31
0.0
  0
LINE
  8
0
  6
CONTINUOUS
 62
     1
 10
750.366666667
 20
570.75
 30
0.0
 11
751.066666667
 21
569.537564435
 31
0.0
  0
LINE
  8
0
  6
CONTINUOUS
 62
     1
 10
751.066666667
 20
560.0
 30
0.0
 11
751.066666667
 21
569.537564435
 31
0.0
  0
LINE
  8
0
  6
CONTINUOUS
 62
     1
 10
721.066666667
 20
548.0
 30
0.0
 11
736.066666667
 21
548.0
 31
0.0
  0
POINT
  8
0
  6
CONTINUOUS
 62
     1
 10
721.066666667
 20
548.0
 30
0.0
  0
LINE
  8
0
  6
CONTINUOUS
 62
     1
 10
721.066666667
 20
548.0
 30
0.0
 11
721.066666667
 21
662.0
 31
0.0
  0
LINE
  8
0
  6
CONTINUOUS
 62
     1
 10
903.066666667
 20
601.0
 30
0.0
 11
912.066666667
 21
601.0
 31
0.0
  0
LINE
  8
0
  6
CONTINUOUS
 62
     1
 10
903.066666667
 20
558.0
 30
0.0
 11
912.066666667
 21
558.0
 31
0.0
  0
LINE
  8
0
  6
CONTINUOUS
 62
     1
 10
903.066666667
 20
554.0
 30
0.0
 11
912.066666667
 21
554.0
 31
0.0
  0
LINE
  8
0
  6
CONTINUOUS
 62
     1
 10
903.066666667
 20
609.0
 30
0.0
 11
912.066666667
 21
609.0
 31
0.0
  0
LINE
  8
0
  6
CONTINUOUS
 62
     1
 10
903.066666667
 20
652.0
 30
0.0
 11
912.066666667
 21
652.0
 31
0.0
  0
LINE
  8
0
  6
CONTINUOUS
 62
     1
 10
903.066666667
 20
656.0
 30
0.0
 11
912.066666667
 21
656.0
 31
0.0
  0
LINE
  8
0
  6
CONTINUOUS
 62
     1
 10
912.066666667
 20
554.0
 30
0.0
 11
912.066666667
 21
656.0
 31
0.0
  0
LINE
  8
0
  6
LTYPE4
 62
     2
 10
671.541666667
 20
835.0
 30
0.0
 11
721.066666667
 21
835.0
 31
0.0
  0
LINE
  8
0
  6
LTYPE4
 62
     2
 10
697.066666667
 20
804.4
 30
0.0
 11
697.066666667
 21
858.4
 31
0.0
  0
LINE
  8
0
  6
LTYPE4
 62
     2
 10
700.066666667
 20
650.0
 30
0.0
 11
753.066666667
 21
650.0
 31
0.0
  0
LINE
  8
0
  6
LTYPE4
 62
     2
 10
781.066666667
 20
573.5
 30
0.0
 11
781.066666667
 21
636.5
 31
0.0
  0
LINE
  8
0
  6
LTYPE4
 62
     2
 10
700.066666667
 20
560.0
 30
0.0
 11
753.066666667
 21
560.0
 31
0.0
  0
LINE
  8
0
  6
CONTINUOUS
 62
     2
 10
721.066666667
 20
815.0
 30
0.0
 11
721.066666667
 21
908.8
 31
0.0
  0
LINE
  8
0
  6
CONTINUOUS
 62
     2
 10
894.066666667
 20
495.8
 30
0.0
 11
896.715720774
 21
483.583924021
 31
0.0
  0
LINE
  8
0
  6
CONTINUOUS
 62
     2
 10
894.066666667
 20
495.8
 30
0.0
 11
902.46885281
 21
486.545094921
 31
0.0
  0
LINE
  8
0
  6
CONTINUOUS
 62
     2
 10
781.066666667
 20
410.8
 30
0.0
 11
793.140739495
 21
407.564761936
 31
0.0
  0
LINE
  8
0
  6
CONTINUOUS
 62
     2
 10
781.066666667
 20
410.8
 30
0.0
 11
793.140739495
 21
414.035238064
 31
0.0
  0
LINE
  8
0
  6
CONTINUOUS
 62
     2
 10
894.066666667
 20
495.8
 30
0.0
 11
917.228431373
 21
450.8
 31
0.0
  0
LINE
  8
0
  6
CONTINUOUS
 62
     2
 10
781.066666667
 20
573.5
 30
0.0
 11
781.066666667
 21
366.2
 31
0.0
  0
LINE
  8
0
  6
CONTINUOUS
 62
     1
 10
575.066666667
 20
513.0
 30
0.0
 11
575.066666667
 21
765.0
 31
0.0
  0
LINE
  8
0
  6
CONTINUOUS
 62
     1
 10
563.066666667
 20
513.0
 30
0.0
 11
472.071629476
 21
522.099503719
 31
0.0
  0
ARC
  8
0
  6
CONTINUOUS
 62
     1
 10
473.066666667
 20
532.049875621
 30
0.0
 40
10.0
 50
180.0
 51
264.289406863
  0
LINE
  8
0
  6
CONTINUOUS
 62
     1
 10
563.066666667
 20
765.0
 30
0.0
 11
650.066666667
 21
765.0
 31
0.0
  0
LINE
  8
0
  6
CONTINUOUS
 62
     1
 10
563.066666667
 20
741.0
 30
0.0
 11
563.066666667
 21
765.0
 31
0.0
  0
LINE
  8
0
  6
LTYPE2
 62
     2
 10
546.966666667
 20
753.0
 30
0.0
 11
599.966666667
 21
753.0
 31
0.0
  0
LINE
  8
0
  6
CONTINUOUS
 62
     1
 10
560.566666667
 20
753.0
 30
0.0
 11
560.566666667
 21
743.2
 31
0.0
  0
LINE
  8
0
  6
CONTINUOUS
 62
     1
 10
560.566666667
 20
743.2
 30
0.0
 11
554.952307313
 21
743.2
 31
0.0
  0
LINE
  8
0
  6
CONTINUOUS
 62
     1
 10
553.566666667
 20
745.6
 30
0.0
 11
554.952307313
 21
743.2
 31
0.0
  0
LINE
  8
0
  6
CONTINUOUS
 62
     1
 10
553.566666667
 20
753.0
 30
0.0
 11
553.566666667
 21
745.6
 31
0.0
  0
LINE
  8
0
  6
CONTINUOUS
 62
     1
 10
560.566666667
 20
748.1
 30
0.0
 11
554.952307313
 21
748.1
 31
0.0
  0
LINE
  8
0
  6
CONTINUOUS
 62
     1
 10
560.566666667
 20
753.0
 30
0.0
 11
560.566666667
 21
762.8
 31
0.0
  0
LINE
  8
0
  6
CONTINUOUS
 62
     1
 10
560.566666667
 20
762.8
 30
0.0
 11
554.952307313
 21
762.8
 31
0.0
  0
LINE
  8
0
  6
CONTINUOUS
 62
     1
 10
553.566666667
 20
760.4
 30
0.0
 11
554.952307313
 21
762.8
 31
0.0
  0
LINE
  8
0
  6
CONTINUOUS
 62
     1
 10
553.566666667
 20
753.0
 30
0.0
 11
553.566666667
 21
760.4
 31
0.0
  0
LINE
  8
0
  6
CONTINUOUS
 62
     1
 10
560.566666667
 20
757.9
 30
0.0
 11
554.952307313
 21
757.9
 31
0.0
  0
ARC
  8
0
  6
CONTINUOUS
 62
     1
 10
562.923349467
 20
753.0
 30
0.0
 40
9.3566828
 50
148.419912243
 51
211.580087757
  0
ARC
  8
0
  6
CONTINUOUS
 62
     1
 10
556.424550499
 20
745.65
 30
0.0
 40
2.858321186
 50
121.002313915
 51
182.989498403
  0
LINE
  8
0
  6
CONTINUOUS
 62
     1
 10
553.566666667
 20
760.4
 30
0.0
 11
554.952307313
 21
762.8
 31
0.0
  0
ARC
  8
0
  6
CONTINUOUS
 62
     1
 10
556.424550499
 20
760.35
 30
0.0
 40
2.858321186
 50
177.010501597
 51
238.997686085
  0
LINE
  8
0
  6
CONTINUOUS
 62
     1
 10
563.066666667
 20
743.8
 30
0.0
 11
560.566666667
 21
743.8
 31
0.0
  0
LINE
  8
0
  6
CONTINUOUS
 62
     1
 10
563.066666667
 20
753.0
 30
0.0
 11
560.566666671
 21
750.500000004
 31
0.0
  0
LINE
  8
0
  6
CONTINUOUS
 62
     1
 10
560.566666671
 20
753.0
 30
0.0
 11
563.066666667
 21
755.499999996
 31
0.0
  0
LINE
  8
0
  6
CONTINUOUS
 62
     1
 10
563.066666667
 20
762.2
 30
0.0
 11
560.566666667
 21
762.2
 31
0.0
  0
LINE
  8
0
  6
CONTINUOUS
 62
     1
 10
563.066666667
 20
513.0
 30
0.0
 11
472.071629476
 21
522.099503719
 31
0.0
  0
LINE
  8
0
  6
CONTINUOUS
 62
     1
 10
465.066666667
 20
537.0
 30
0.0
 11
563.066666667
 21
537.0
 31
0.0
  0
LINE
  8
0
  6
LTYPE2
 62
     2
 10
546.966666667
 20
525.0
 30
0.0
 11
599.966666667
 21
525.0
 31
0.0
  0
LINE
  8
0
  6
CONTINUOUS
 62
     1
 10
560.566666667
 20
525.0
 30
0.0
 11
560.566666667
 21
534.8
 31
0.0
  0
LINE
  8
0
  6
CONTINUOUS
 62
     1
 10
560.566666667
 20
534.8
 30
0.0
 11
554.952307313
 21
534.8
 31
0.0
  0
LINE
  8
0
  6
CONTINUOUS
 62
     1
 10
553.566666667
 20
532.4
 30
0.0
 11
554.952307313
 21
534.8
 31
0.0
  0
LINE
  8
0
  6
CONTINUOUS
 62
     1
 10
553.566666667
 20
525.0
 30
0.0
 11
553.566666667
 21
532.4
 31
0.0
  0
LINE
  8
0
  6
CONTINUOUS
 62
     1
 10
560.566666667
 20
529.9
 30
0.0
 11
554.952307313
 21
529.9
 31
0.0
  0
LINE
  8
0
  6
CONTINUOUS
 62
     1
 10
560.566666667
 20
525.0
 30
0.0
 11
560.566666667
 21
515.2
 31
0.0
  0
LINE
  8
0
  6
CONTINUOUS
 62
     1
 10
560.566666667
 20
515.2
 30
0.0
 11
554.952307313
 21
515.2
 31
0.0
  0
LINE
  8
0
  6
CONTINUOUS
 62
     1
 10
553.566666667
 20
517.6
 30
0.0
 11
554.952307313
 21
515.2
 31
0.0
  0
LINE
  8
0
  6
CONTINUOUS
 62
     1
 10
553.566666667
 20
525.0
 30
0.0
 11
553.566666667
 21
517.6
 31
0.0
  0
LINE
  8
0
  6
CONTINUOUS
 62
     1
 10
560.566666667
 20
520.1
 30
0.0
 11
554.952307313
 21
520.1
 31
0.0
  0
ARC
  8
0
  6
CONTINUOUS
 62
     1
 10
562.923349467
 20
525.0
 30
0.0
 40
9.3566828
 50
148.419912243
 51
211.580087757
  0
ARC
  8
0
  6
CONTINUOUS
 62
     1
 10
556.424550499
 20
532.35
 30
0.0
 40
2.858321186
 50
177.010501597
 51
238.997686085
  0
LINE
  8
0
  6
CONTINUOUS
 62
     1
 10
553.566666667
 20
517.6
 30
0.0
 11
554.952307313
 21
515.2
 31
0.0
  0
ARC
  8
0
  6
CONTINUOUS
 62
     1
 10
556.424550499
 20
517.65
 30
0.0
 40
2.858321186
 50
121.002313915
 51
182.989498403
  0
LINE
  8
0
  6
CONTINUOUS
 62
     1
 10
563.066666667
 20
534.2
 30
0.0
 11
560.566666667
 21
534.2
 31
0.0
  0
LINE
  8
0
  6
CONTINUOUS
 62
     1
 10
563.066666667
 20
525.0
 30
0.0
 11
560.566666671
 21
527.499999996
 31
0.0
  0
LINE
  8
0
  6
CONTINUOUS
 62
     1
 10
560.566666671
 20
525.0
 30
0.0
 11
563.066666667
 21
522.500000004
 31
0.0
  0
LINE
  8
0
  6
CONTINUOUS
 62
     1
 10
563.066666667
 20
515.8
 30
0.0
 11
560.566666667
 21
515.8
 31
0.0
  0
LINE
  8
0
  6
CONTINUOUS
 62
     1
 10
563.066666667
 20
537.0
 30
0.0
 11
563.066666667
 21
513.0
 31
0.0
  0
LINE
  8
0
  6
CONTINUOUS
 62
     1
 10
563.066666667
 20
513.0
 30
0.0
 11
650.066666667
 21
513.0
 31
0.0
  0
LINE
  8
0
  6
CONTINUOUS
 62
     2
 10
781.066666667
 20
410.8
 30
0.0
 11
1206.666666667
 21
410.8
 31
0.0
  0
LINE
  8
0
  6
LTYPE4
 62
     2
 10
456.126666667
 20
605.0
 30
0.0
 11
744.166666667
 21
605.0
 31
0.0
  0
LINE
  8
0
  6
CONTINUOUS
 62
     2
 10
650.066666667
 20
505.5
 30
0.0
 11
650.066666667
 21
368.2
 31
0.0
  0
LINE
  8
0
  6
CONTINUOUS
 62
     2
 10
463.066666667
 20
520.5
 30
0.0
 11
463.066666667
 21
333.2
 31
0.0
  0
LINE
  8
0
  6
CONTINUOUS
 62
     2
 10
721.066666667
 20
901.3
 30
0.0
 11
708.992593838
 21
904.535238064
 31
0.0
  0
LINE
  8
0
  6
CONTINUOUS
 62
     2
 10
721.066666667
 20
901.3
 30
0.0
 11
708.992593838
 21
898.064761936
 31
0.0
  0
LINE
  8
0
  6
CONTINUOUS
 62
     2
 10
721.066666667
 20
901.3
 30
0.0
 11
463.066666667
 21
901.3
 31
0.0
  0
LINE
  8
0
  6
CONTINUOUS
 62
     2
 10
463.066666667
 20
901.3
 30
0.0
 11
475.140739495
 21
898.064761936
 31
0.0
  0
LINE
  8
0
  6
CONTINUOUS
 62
     2
 10
463.066666667
 20
901.3
 30
0.0
 11
475.140739495
 21
904.535238064
 31
0.0
  0
LINE
  8
0
  6
CONTINUOUS
 62
     1
 10
503.066666667
 20
741.0
 30
0.0
 11
563.066666667
 21
741.0
 31
0.0
  0
LINE
  8
0
  6
CONTINUOUS
 62
     1
 10
463.066666667
 20
528.0
 30
0.0
 11
463.066666667
 21
700.950124379
 31
0.0
  0
ARC
  8
0
  6
CONTINUOUS
 62
     1
 10
473.066666667
 20
700.950124379
 30
0.0
 40
10.0
 50
95.710593137
 51
180.0
  0
LINE
  8
0
  6
CONTINUOUS
 62
     1
 10
563.066666667
 20
765.0
 30
0.0
 11
507.569148072
 21
759.45024814
 31
0.0
  0
ARC
  8
0
  6
CONTINUOUS
 62
     1
 10
508.066666667
 20
754.475062189
 30
0.0
 40
5.0
 50
95.710593137
 51
180.0
  0
LINE
  8
0
  6
CONTINUOUS
 62
     1
 10
498.564185262
 20
713.54975186
 30
0.0
 11
472.071629476
 21
710.900496281
 31
0.0
  0
LINE
  8
0
  6
CONTINUOUS
 62
     1
 10
503.066666667
 20
718.524937811
 30
0.0
 11
503.066666667
 21
754.475062189
 31
0.0
  0
ARC
  8
0
  6
CONTINUOUS
 62
     1
 10
498.066666667
 20
718.524937811
 30
0.0
 40
5.0
 50
275.710593138
 51
0.0
  0
LINE
  8
0
  6
CONTINUOUS
 62
     2
 10
463.066666667
 20
706.0
 30
0.0
 11
463.066666667
 21
908.8
 31
0.0
  0
LINE
  8
0
  6
CONTINUOUS
 62
     1
 10
499.066666667
 20
725.0
 30
0.0
 11
499.066666667
 21
755.0
 31
0.0
  0
LINE
  8
0
  6
CONTINUOUS
 62
     1
 10
469.066666667
 20
725.0
 30
0.0
 11
469.066666667
 21
755.0
 31
0.0
  0
LINE
  8
0
  6
CONTINUOUS
 62
     1
 10
469.066666667
 20
755.0
 30
0.0
 11
503.066666667
 21
755.0
 31
0.0
  0
LINE
  8
0
  6
CONTINUOUS
 62
     1
 10
469.066666667
 20
725.0
 30
0.0
 11
503.066666667
 21
725.0
 31
0.0
  0
LINE
  8
0
  6
CONTINUOUS
 62
     2
 10
483.066666667
 20
752.0
 30
0.0
 11
480.239371862
 21
764.176058643
 31
0.0
  0
LINE
  8
0
  6
CONTINUOUS
 62
     2
 10
483.066666667
 20
752.0
 30
0.0
 11
474.53012822
 21
761.131128701
 31
0.0
  0
LINE
  8
0
  6
CONTINUOUS
 62
     2
 10
483.066666667
 20
752.0
 30
0.0
 11
443.066666667
 21
827.0
 31
0.0
  0
LINE
  8
0
  6
CONTINUOUS
 62
     2
 10
443.066666667
 20
827.0
 30
0.0
 11
354.566666667
 21
827.0
 31
0.0
  0
LINE
  8
0
  6
CONTINUOUS
 62
     1
 10
901.066666667
 20
547.0
 30
0.0
 11
827.066666667
 21
547.0
 31
0.0
  0
LINE
  8
0
  6
CONTINUOUS
 62
     1
 10
819.066666667
 20
545.5
 30
0.0
 11
819.066666667
 21
544.5
 31
0.0
  0
ARC
  8
0
  6
CONTINUOUS
 62
     1
 10
906.066666667
 20
542.5
 30
0.0
 40
3.0
 50
0.0
 51
90.0
  0
LINE
  8
0
  6
CONTINUOUS
 62
     1
 10
780.066666667
 20
502.5
 30
0.0
 11
909.066666667
 21
502.5
 31
0.0
  0
LINE
  8
0
  6
CONTINUOUS
 62
     1
 10
819.066666667
 20
544.5
 30
0.0
 11
783.066666667
 21
544.5
 31
0.0
  0
ARC
  8
0
  6
CONTINUOUS
 62
     1
 10
783.066666667
 20
541.5
 30
0.0
 40
3.0
 50
90.0
 51
180.0
  0
LINE
  8
0
  6
CONTINUOUS
 62
     1
 10
780.066666667
 20
501.0
 30
0.0
 11
909.066666667
 21
501.0
 31
0.0
  0
LINE
  8
0
  6
CONTINUOUS
 62
     1
 10
780.066666667
 20
496.0
 30
0.0
 11
780.066666667
 21
541.5
 31
0.0
  0
ARC
  8
0
  6
CONTINUOUS
 62
     1
 10
781.066666667
 20
496.0
 30
0.0
 40
1.0
 50
180.0
 51
270.0
  0
LINE
  8
0
  6
CONTINUOUS
 62
     1
 10
783.066666667
 20
495.0
 30
0.0
 11
783.066666667
 21
495.0
 31
0.0
  0
ARC
  8
0
  6
CONTINUOUS
 62
     1
 10
784.066666667
 20
495.0
 30
0.0
 40
1.0
 50
180.0
 51
270.0
  0
LINE
  8
0
  6
CONTINUOUS
 62
     1
 10
909.066666667
 20
496.0
 30
0.0
 11
909.066666667
 21
542.5
 31
0.0
  0
LINE
  8
0
  6
CONTINUOUS
 62
     1
 10
781.066666667
 20
495.0
 30
0.0
 11
908.066666667
 21
495.0
 31
0.0
  0
ARC
  8
0
  6
CONTINUOUS
 62
     1
 10
908.066666667
 20
496.0
 30
0.0
 40
1.0
 50
270.0
 51
0.0
  0
ARC
  8
0
  6
CONTINUOUS
 62
     1
 10
905.066666667
 20
495.0
 30
0.0
 40
1.0
 50
270.0
 51
0.0
  0
LINE
  8
0
  6
CONTINUOUS
 62
     1
 10
784.066666667
 20
494.0
 30
0.0
 11
904.966666667
 21
494.0
 31
0.0
  0
LINE
  8
0
  6
CONTINUOUS
 62
     1
 10
906.066666667
 20
545.5
 30
0.0
 11
819.066666667
 21
545.5
 31
0.0
  0
LINE
  8
0
  6
CONTINUOUS
 62
     1
 10
906.066666667
 20
547.0
 30
0.0
 11
819.066666667
 21
547.0
 31
0.0
  0
LINE
  8
0
  6
LTYPE1
 62
     2
 10
780.066666667
 20
528.8
 30
0.0
 11
790.066666667
 21
528.8
 31
0.0
  0
LINE
  8
0
  6
LTYPE1
 62
     2
 10
780.066666667
 20
530.0
 30
0.0
 11
790.066666667
 21
530.0
 31
0.0
  0
LINE
  8
0
  6
LTYPE1
 62
     2
 10
780.066666667
 20
510.2
 30
0.0
 11
790.066666667
 21
510.2
 31
0.0
  0
LINE
  8
0
  6
LTYPE1
 62
     2
 10
780.066666667
 20
509.0
 30
0.0
 11
790.066666667
 21
509.0
 31
0.0
  0
LINE
  8
0
  6
LTYPE2
 62
     2
 10
865.066666667
 20
533.8
 30
0.0
 11
865.066666667
 21
548.65
 31
0.0
  0
LINE
  8
0
  6
LTYPE2
 62
     2
 10
773.866666667
 20
519.5
 30
0.0
 11
793.566666667
 21
519.5
 31
0.0
  0
LINE
  8
0
  6
CONTINUOUS
 62
     1
 10
779.866666667
 20
545.5
 30
0.0
 11
779.866666667
 21
502.5
 31
0.0
  0
LINE
  8
0
  6
LTYPE4
 62
     2
 10
797.366666667
 20
519.5
 30
0.0
 11
772.866666667
 21
519.5
 31
0.0
  0
LINE
  8
0
  6
CONTINUOUS
 62
     1
 10
775.066666667
 20
505.65
 30
0.0
 11
775.066666667
 21
533.35
 31
0.0
  0
LINE
  8
0
  6
CONTINUOUS
 62
     1
 10
779.866666667
 20
512.6
 30
0.0
 11
775.066666667
 21
512.6
 31
0.0
  0
LINE
  8
0
  6
CONTINUOUS
 62
     1
 10
779.866666667
 20
526.4
 30
0.0
 11
775.066666667
 21
526.4
 31
0.0
  0
LINE
  8
0
  6
CONTINUOUS
 62
     1
 10
779.866666667
 20
533.35
 30
0.0
 11
775.066666667
 21
533.35
 31
0.0
  0
LINE
  8
0
  6
CONTINUOUS
 62
     1
 10
779.866666667
 20
505.65
 30
0.0
 11
779.866666667
 21
533.35
 31
0.0
  0
LINE
  8
0
  6
CONTINUOUS
 62
     1
 10
779.866666667
 20
505.65
 30
0.0
 11
775.066666667
 21
505.65
 31
0.0
  0
LINE
  8
0
  6
CONTINUOUS
 62
     1
 10
769.866666667
 20
504.85
 30
0.0
 11
769.866666667
 21
534.15
 31
0.0
  0
LINE
  8
0
  6
CONTINUOUS
 62
     1
 10
769.866666667
 20
504.85
 30
0.0
 11
756.866666667
 21
504.85
 31
0.0
  0
ARC
  8
0
  6
CONTINUOUS
 62
     1
 10
756.866666667
 20
506.85
 30
0.0
 40
2.0
 50
180.0
 51
270.0
  0
LINE
  8
0
  6
CONTINUOUS
 62
     1
 10
769.866666667
 20
534.15
 30
0.0
 11
756.866666667
 21
534.15
 31
0.0
  0
LINE
  8
0
  6
CONTINUOUS
 62
     1
 10
754.866666667
 20
506.85
 30
0.0
 11
754.866666667
 21
532.15
 31
0.0
  0
ARC
  8
0
  6
CONTINUOUS
 62
     1
 10
756.866666667
 20
532.15
 30
0.0
 40
2.0
 50
90.0
 51
180.0
  0
LINE
  8
0
  6
CONTINUOUS
 62
     1
 10
758.866666667
 20
532.15
 30
0.0
 11
769.866666667
 21
532.15
 31
0.0
  0
LINE
  8
0
  6
CONTINUOUS
 62
     1
 10
758.866666667
 20
523.25
 30
0.0
 11
769.866666667
 21
523.25
 31
0.0
  0
LINE
  8
0
  6
CONTINUOUS
 62
     1
 10
758.866666667
 20
527.35
 30
0.0
 11
769.866666667
 21
527.35
 31
0.0
  0
LINE
  8
0
  6
CONTINUOUS
 62
     1
 10
758.866666667
 20
527.35
 30
0.0
 11
758.866666667
 21
532.15
 31
0.0
  0
LINE
  8
0
  6
CONTINUOUS
 62
     1
 10
758.866666667
 20
519.5
 30
0.0
 11
758.866666667
 21
523.25
 31
0.0
  0
LINE
  8
0
  6
CONTINUOUS
 62
     1
 10
758.866666667
 20
506.85
 30
0.0
 11
769.866666667
 21
506.85
 31
0.0
  0
LINE
  8
0
  6
CONTINUOUS
 62
     1
 10
758.866666667
 20
515.75
 30
0.0
 11
769.866666667
 21
515.75
 31
0.0
  0
LINE
  8
0
  6
CONTINUOUS
 62
     1
 10
758.866666667
 20
511.65
 30
0.0
 11
769.866666667
 21
511.65
 31
0.0
  0
LINE
  8
0
  6
CONTINUOUS
 62
     1
 10
758.866666667
 20
511.65
 30
0.0
 11
758.866666667
 21
506.85
 31
0.0
  0
LINE
  8
0
  6
CONTINUOUS
 62
     1
 10
758.866666667
 20
519.5
 30
0.0
 11
758.866666667
 21
515.75
 31
0.0
  0
LINE
  8
0
  6
CONTINUOUS
 62
     1
 10
775.166666667
 20
532.2
 30
0.0
 11
769.866666667
 21
532.2
 31
0.0
  0
LINE
  8
0
  6
CONTINUOUS
 62
     1
 10
775.166666667
 20
531.4
 30
0.0
 11
769.866666667
 21
531.4
 31
0.0
  0
LINE
  8
0
  6
CONTINUOUS
 62
     1
 10
775.166666667
 20
506.8
 30
0.0
 11
769.866666667
 21
506.8
 31
0.0
  0
LINE
  8
0
  6
CONTINUOUS
 62
     1
 10
775.166666667
 20
507.6
 30
0.0
 11
769.866666667
 21
507.6
 31
0.0
  0
LINE
  8
0
  6
LTYPE2
 62
     2
 10
590.366666667
 20
547.0
 30
0.0
 11
633.866666667
 21
547.0
 31
0.0
  0
LINE
  8
0
  6
LTYPE2
 62
     2
 10
612.866666667
 20
524.0
 30
0.0
 11
612.866666667
 21
568.5
 31
0.0
  0
ARC
  8
0
  6
CONTINUOUS
 62
     1
 10
612.866666667
 20
547.0
 30
0.0
 40
14.65
 50
17.012546809
 51
338.902050411
  0
ARC
  8
0
  6
CONTINUOUS
 62
     1
 10
612.866666667
 20
547.0
 30
0.0
 40
5.0
 50
87.397437796
 51
272.862405227
  0
CIRCLE
  8
0
  6
CONTINUOUS
 62
     2
 10
612.566666667
 20
620.0
 30
0.0
 40
17.0
  0
CIRCLE
  8
0
  6
CONTINUOUS
 62
     1
 10
612.566666667
 20
620.0
 30
0.0
 40
14.5
  0
LINE
  8
0
  6
LTYPE2
 62
     2
 10
612.566666667
 20
595.0
 30
0.0
 11
612.566666667
 21
650.0
 31
0.0
  0
LINE
  8
0
  6
LTYPE2
 62
     2
 10
582.566666667
 20
620.0
 30
0.0
 11
642.766666667
 21
620.0
 31
0.0
  0
LINE
  8
0
  6
CONTINUOUS
 62
     2
 10
622.766666667
 20
614.0
 30
0.0
 11
624.503892739
 21
601.621306791
 31
0.0
  0
LINE
  8
0
  6
CONTINUOUS
 62
     2
 10
622.766666667
 20
614.0
 30
0.0
 11
630.460495182
 21
604.148350251
 31
0.0
  0
LINE
  8
0
  6
CONTINUOUS
 62
     2
 10
622.766666667
 20
614.0
 30
0.0
 11
692.766666667
 21
449.0
 31
0.0
  0
LINE
  8
0
  6
CONTINUOUS
 62
     2
 10
692.766666667
 20
449.0
 30
0.0
 11
766.266666667
 21
449.0
 31
0.0
  0
LINE
  8
0
  6
CONTINUOUS
 62
     1
 10
636.012636924
 20
540.36336397
 30
0.0
 11
654.606687724
 21
519.90990809
 31
0.0
  0
ARC
  8
0
  6
CONTINUOUS
 62
     1
 10
632.312936557
 20
537.0
 30
0.0
 40
15.0
 50
42.273689006
 51
90.0
  0
ARC
  8
0
  6
CONTINUOUS
 62
     1
 10
665.705788825
 20
530.0
 30
0.0
 40
15.0
 50
222.273689006
 51
270.0
  0
LINE
  8
0
  6
CONTINUOUS
 62
     1
 10
643.412037658
 20
547.09009191
 30
0.0
 11
662.915179367
 21
525.63663603
 31
0.0
  0
ARC
  8
0
  6
CONTINUOUS
 62
     1
 10
666.614879734
 20
529.0
 30
0.0
 40
5.0
 50
222.273689006
 51
270.0
  0
ARC
  8
0
  6
CONTINUOUS
 62
     1
 10
632.312936557
 20
537.0
 30
0.0
 40
5.0
 50
42.273689006
 51
90.0
  0
LINE
  8
0
  6
CONTINUOUS
 62
     1
 10
612.866666667
 20
542.0
 30
0.0
 11
632.312936557
 21
542.0
 31
0.0
  0
LINE
  8
0
  6
CONTINUOUS
 62
     1
 10
612.866666667
 20
552.0
 30
0.0
 11
632.312936557
 21
552.0
 31
0.0
  0
LINE
  8
0
  6
CONTINUOUS
 62
     1
 10
754.866666667
 20
524.0
 30
0.0
 11
666.612936557
 21
524.0
 31
0.0
  0
LINE
  8
0
  6
CONTINUOUS
 62
     1
 10
754.866666667
 20
515.0
 30
0.0
 11
665.012936557
 21
515.0
 31
0.0
  0
LINE
  8
0
  6
CONTINUOUS
 62
     1
 10
650.066666667
 20
513.0
 30
0.0
 11
650.066666667
 21
525.5
 31
0.0
  0
LINE
  8
0
  6
CONTINUOUS
 62
     1
 10
661.112936557
 20
528.0
 30
0.0
 11
721.066666667
 21
528.0
 31
0.0
  0
LINE
  8
0
  6
CONTINUOUS
 62
     1
 10
721.066666667
 20
528.0
 30
0.0
 11
721.066666667
 21
815.0
 31
0.0
  0
LINE
  8
0
  6
LTYPE5
 62
     2
 10
1102.766666667
 20
808.0
 30
0.0
 11
1231.666666667
 21
808.0
 31
0.0
  0
LINE
  8
7
  6
CONTINUOUS
 62
     2
 10
1079.896671394
 20
863.0
 30
0.0
 11
1066.266666667
 21
863.0
 31
0.0
  0
LINE
  8
7
  6
CONTINUOUS
 62
     2
 10
1073.766666667
 20
863.0
 30
0.0
 11
1070.531428603
 21
850.925927171
 31
0.0
  0
LINE
  8
7
  6
CONTINUOUS
 62
     2
 10
1073.766666667
 20
863.0
 30
0.0
 11
1077.00190473
 21
850.925927171
 31
0.0
  0
LINE
  8
7
  6
CONTINUOUS
 62
     2
 10
1073.766666667
 20
863.0
 30
0.0
 11
1073.766666667
 21
753.0
 31
0.0
  0
LINE
  8
7
  6
CONTINUOUS
 62
     2
 10
1073.766666667
 20
753.0
 30
0.0
 11
1077.00190473
 21
765.074072829
 31
0.0
  0
LINE
  8
7
  6
CONTINUOUS
 62
     2
 10
1073.766666667
 20
753.0
 30
0.0
 11
1070.531428603
 21
765.074072829
 31
0.0
  0
LINE
  8
7
  6
CONTINUOUS
 62
     2
 10
1079.896671394
 20
753.0
 30
0.0
 11
1066.266666667
 21
753.0
 31
0.0
  0
LINE
  8
0
  6
LTYPE4
 62
     2
 10
949.766666667
 20
605.0
 30
0.0
 11
1242.766666667
 21
605.0
 31
0.0
  0
LINE
  8
0
  6
LTYPE4
 62
     2
 10
694.216666667
 20
605.0
 30
0.0
 11
921.766666667
 21
605.0
 31
0.0
  0
TEXT
  8
0
  6
CONTINUOUS
 62
     2
 10
354.566666667
 20
832.0
 30
1.75
 40
17.5
  1
手動軸カバー
 50
0.0
 41
0.9
 51
0.0
  7
KANJI37
  0
TEXT
  8
0
  6
CONTINUOUS
 62
     2
 10
480.766666667
 20
657.5
 30
1.75
 40
17.5
  1
ポジショナ
 50
0.0
 41
0.9
 51
0.0
  7
KANJI38
  0
LINE
  8
0
  6
CONTINUOUS
 62
     2
 10
566.766666667
 20
650.0
 30
0.0
 11
472.766666667
 21
650.0
 31
0.0
  0
TEXT
  8
0
  6
CONTINUOUS
 62
     2
 10
806.566666667
 20
455.8
 30
0.0
 40
17.5
  1
推力リミッタ
 50
0.0
 41
0.9
 51
0.0
  7
KANJI39
  0
LINE
  8
0
  6
CONTINUOUS
 62
     2
 10
801.766666667
 20
450.8
 30
0.0
 11
917.228431373
 21
450.8
 31
0.0
  0
LINE
  8
0
  6
CONTINUOUS
 62
     1
 10
912.066666667
 20
570.0
 30
0.0
 11
1071.042512848
 21
570.0
 31
0.0
  0
LINE
  8
0
  6
CONTINUOUS
 62
     1
 10
1022.542512848
 20
568.0
 30
0.0
 11
1032.542512848
 21
568.0
 31
0.0
  0
LINE
  8
0
  6
CONTINUOUS
 62
     1
 10
1022.542512848
 20
570.0
 30
0.0
 11
1022.542512848
 21
568.0
 31
0.0
  0
LINE
  8
0
  6
CONTINUOUS
 62
     1
 10
1032.542512848
 20
570.0
 30
0.0
 11
1032.542512848
 21
568.0
 31
0.0
  0
LINE
  8
0
  6
CONTINUOUS
 62
     1
 10
1020.042512848
 20
570.0
 30
0.0
 11
1035.042512848
 21
570.0
 31
0.0
  0
LINE
  8
0
  6
CONTINUOUS
 62
     1
 10
1032.542512848
 20
570.0
 30
0.0
 11
1038.822959517
 21
550.741180955
 31
0.0
  0
LINE
  8
0
  6
CONTINUOUS
 62
     1
 10
1041.042512848
 20
570.0
 30
0.0
 11
1041.042512848
 21
604.15
 31
0.0
  0
LINE
  8
0
  6
CONTINUOUS
 62
     1
 10
1071.042512848
 20
570.0
 30
0.0
 11
1071.042512848
 21
604.15
 31
0.0
  0
LINE
  8
0
  6
CONTINUOUS
 62
     1
 10
912.066666667
 20
640.0
 30
0.0
 11
1020.042512848
 21
640.0
 31
0.0
  0
LINE
  8
0
  6
CONTINUOUS
 62
     1
 10
1022.542512848
 20
642.0
 30
0.0
 11
1032.542512848
 21
642.0
 31
0.0
  0
LINE
  8
0
  6
CONTINUOUS
 62
     1
 10
1022.542512848
 20
640.0
 30
0.0
 11
1022.542512848
 21
642.0
 31
0.0
  0
LINE
  8
0
  6
CONTINUOUS
 62
     1
 10
1032.542512848
 20
640.0
 30
0.0
 11
1032.542512848
 21
642.0
 31
0.0
  0
LINE
  8
0
  6
CONTINUOUS
 62
     1
 10
1020.042512848
 20
640.0
 30
0.0
 11
1035.042512848
 21
640.0
 31
0.0
  0
LINE
  8
0
  6
CONTINUOUS
 62
     1
 10
1032.542512848
 20
640.0
 30
0.0
 11
1038.822959517
 21
659.258819045
 31
0.0
  0
LINE
  8
0
  6
CONTINUOUS
 62
     1
 10
1032.542512848
 20
605.0
 30
0.0
 11
1032.542512848
 21
640.0
 31
0.0
  0
LINE
  8
0
  6
CONTINUOUS
 62
     1
 10
1020.042512848
 20
605.0
 30
0.0
 11
1020.042512848
 21
640.0
 31
0.0
  0
LINE
  8
0
  6
CONTINUOUS
 62
     2
 10
947.166666667
 20
640.0
 30
0.0
 11
943.931428603
 21
627.925927171
 31
0.0
  0
LINE
  8
0
  6
CONTINUOUS
 62
     2
 10
947.166666667
 20
640.0
 30
0.0
 11
950.40190473
 21
627.925927171
 31
0.0
  0
LINE
  8
0
  6
CONTINUOUS
 62
     2
 10
947.166666667
 20
570.0
 30
0.0
 11
950.40190473
 21
582.074072829
 31
0.0
  0
LINE
  8
0
  6
CONTINUOUS
 62
     2
 10
947.166666667
 20
570.0
 30
0.0
 11
943.931428603
 21
582.074072829
 31
0.0
  0
LINE
  8
0
  6
CONTINUOUS
 62
     2
 10
947.166666667
 20
570.0
 30
0.0
 11
947.166666667
 21
640.0
 31
0.0
  0
LINE
  8
0
  6
CONTINUOUS
 62
     2
 10
992.366666667
 20
621.9
 30
0.0
 11
999.854707873
 21
631.908957933
 31
0.0
  0
LINE
  8
0
  6
CONTINUOUS
 62
     2
 10
992.366666667
 20
621.9
 30
0.0
 11
993.847021609
 21
634.312032438
 31
0.0
  0
TEXT
  8
0
  6
CONTINUOUS
 62
     2
 10
953.326666667
 20
654.15
 30
0.0
 40
17.5
  1
給脂口
 50
0.0
 41
0.9
 51
0.0
  7
KANJI40
  0
LINE
  8
0
  6
CONTINUOUS
 62
     2
 10
953.326666667
 20
649.15
 30
0.0
 11
1003.266666667
 21
649.15
 31
0.0
  0
LINE
  8
0
  6
CONTINUOUS
 62
     2
 10
992.366666667
 20
621.9
 30
0.0
 11
1003.266666667
 21
649.15
 31
0.0
  0
TEXT
  8
0
  6
CONTINUOUS
 62
     2
 10
694.316666667
 20
380.7
 30
0.0
 40
18.0
  1
１３１
 50
0.0
 41
0.9
 51
0.0
  7
KANJI31
  0
TEXT
  8
0
  6
CONTINUOUS
 62
     2
 10
535.316666667
 20
380.7
 30
0.0
 40
18.0
  1
１８７
 50
0.0
 41
0.9
 51
0.0
  7
KANJI31
  0
TEXT
  8
0
  6
CONTINUOUS
 62
     2
 10
570.816666667
 20
906.3
 30
0.0
 40
18.0
  1
２５８
 50
0.0
 41
0.9
 51
0.0
  7
KANJI31
  0
TEXT
  8
0
  6
CONTINUOUS
 62
     2
 10
942.166666667
 20
577.1
 30
0.0
 40
18.0
  1
φ７０
 50
90.0
 41
0.9
 51
0.0
  7
KANJI31
  0
TEXT
  8
7
  6
CONTINUOUS
 62
     2
 10
1068.766666667
 20
778.75
 30
0.0
 40
18.0
  1
φ１１０
 50
90.0
 41
0.9
 51
0.0
  7
KANJI31
  0
TEXT
  8
0
  6
CONTINUOUS
 62
     2
 10
965.616666667
 20
380.7
 30
0.0
 40
18.0
  1
ｍｉｎ．Ｌ
 50
0.0
 41
0.9
 51
0.0
  7
KANJI31
  0
TEXT
  8
0
  6
CONTINUOUS
 62
     2
 10
946.804589757
 20
415.8
 30
0.0
 40
18.0
  1
Ｃ
 50
0.0
 41
0.9
 51
0.0
  7
KANJI31
  0
TEXT
  8
0
  6
CONTINUOUS
 62
     2
 10
1077.104589757
 20
415.8
 30
0.0
 40
18.0
  1
ｍｉｎ．Ｐ
 50
0.0
 41
0.866666667
 51
0.0
  7
KANJI41
  0
LINE
  8
0
  6
CONTINUOUS
 62
     1
 10
893.066666667
 20
740.0
 30
0.0
 11
893.066666667
 21
797.0
 31
0.0
  0
LINE
  8
0
  6
CONTINUOUS
 62
     1
 10
898.066666667
 20
783.070524155
 30
0.0
 11
898.066666667
 21
795.5
 31
0.0
  0
ARC
  8
0
  6
CONTINUOUS
 62
     1
 10
899.566666667
 20
783.070524155
 30
0.0
 40
1.5
 50
180.0
 51
251.029592192
  0
LINE
  8
0
  6
CONTINUOUS
 62
     1
 10
914.066666667
 20
740.0
 30
0.0
 11
914.066666667
 21
775.429475845
 31
0.0
  0
LINE
  8
0
  6
CONTINUOUS
 62
     1
 10
913.054286319
 20
776.848005744
 30
0.0
 11
899.079047014
 21
781.651994256
 31
0.0
  0
ARC
  8
0
  6
CONTINUOUS
 62
     1
 10
912.566666667
 20
775.429475845
 30
0.0
 40
1.5
 50
0.0
 51
71.029592192
  0
LINE
  8
0
  6
CONTINUOUS
 62
     1
 10
898.066666667
 20
740.0
 30
0.0
 11
898.066666667
 21
783.070524155
 31
0.0
  0
ARC
  8
0
  6
CONTINUOUS
 62
     1
 10
926.066666667
 20
756.5
 30
0.0
 40
1.0
 50
0.0
 51
90.0
  0
LINE
  8
0
  6
CONTINUOUS
 62
     1
 10
926.066666667
 20
757.5
 30
0.0
 11
914.066666667
 21
757.5
 31
0.0
  0
LINE
  8
0
  6
CONTINUOUS
 62
     1
 10
927.066666667
 20
740.0
 30
0.0
 11
927.066666667
 21
756.5
 31
0.0
  0
LINE
  8
0
  6
LTYPE2
 62
     2
 10
906.066666667
 20
776.062445841
 30
0.0
 11
895.066666667
 21
776.062445841
 31
0.0
  0
LINE
  8
0
  6
CONTINUOUS
 62
     1
 10
843.066666667
 20
818.0
 30
0.0
 11
843.066666667
 21
852.0
 31
0.0
  0
LINE
  8
0
  6
CONTINUOUS
 62
     1
 10
843.066666667
 20
818.0
 30
0.0
 11
817.066666667
 21
818.0
 31
0.0
  0
LINE
  8
0
  6
CONTINUOUS
 62
     1
 10
843.066666667
 20
852.0
 30
0.0
 11
817.066666667
 21
852.0
 31
0.0
  0
LINE
  8
0
  6
CONTINUOUS
 62
     1
 10
747.066666667
 20
810.0
 30
0.0
 11
747.066666667
 21
813.0
 31
0.0
  0
ARC
  8
0
  6
CONTINUOUS
 62
     1
 10
751.066666667
 20
807.0
 30
0.0
 40
3.0
 50
0.0
 51
90.0
  0
LINE
  8
0
  6
CONTINUOUS
 62
     1
 10
754.066666667
 20
800.0
 30
0.0
 11
754.066666667
 21
807.0
 31
0.0
  0
ARC
  8
0
  6
CONTINUOUS
 62
     1
 10
757.066666667
 20
800.0
 30
0.0
 40
3.0
 50
180.0
 51
270.0
  0
LINE
  8
0
  6
CONTINUOUS
 62
     1
 10
807.066666667
 20
810.0
 30
0.0
 11
807.066666667
 21
813.0
 31
0.0
  0
ARC
  8
0
  6
CONTINUOUS
 62
     1
 10
803.066666667
 20
807.0
 30
0.0
 40
3.0
 50
90.0
 51
180.0
  0
LINE
  8
0
  6
CONTINUOUS
 62
     1
 10
800.066666667
 20
800.0
 30
0.0
 11
800.066666667
 21
807.0
 31
0.0
  0
ARC
  8
0
  6
CONTINUOUS
 62
     1
 10
797.066666667
 20
800.0
 30
0.0
 40
3.0
 50
270.0
 51
0.0
  0
LINE
  8
0
  6
CONTINUOUS
 62
     1
 10
807.066666667
 20
810.0
 30
0.0
 11
747.066666667
 21
810.0
 31
0.0
  0
LINE
  8
0
  6
CONTINUOUS
 62
     1
 10
731.978754579
 20
815.0
 30
0.0
 11
824.066666667
 21
859.020045888
 31
0.0
  0
LINE
  8
0
  6
CONTINUOUS
 62
     1
 10
730.066666667
 20
819.0
 30
0.0
 11
822.154578755
 21
863.020045888
 31
0.0
  0
LINE
  8
0
  6
CONTINUOUS
 62
     1
 10
822.154578755
 20
863.020045888
 30
0.0
 11
824.066666667
 21
859.020045888
 31
0.0
  0
LINE
  8
0
  6
CONTINUOUS
 62
     1
 10
737.066666667
 20
822.346153846
 30
0.0
 11
737.066666667
 21
862.0
 31
0.0
  0
ARC
  8
0
  6
CONTINUOUS
 62
     1
 10
740.066666667
 20
862.0
 30
0.0
 40
3.0
 50
90.0
 51
180.0
  0
LINE
  8
0
  6
CONTINUOUS
 62
     1
 10
737.066666667
 20
816.0
 30
0.0
 11
737.066666667
 21
817.4321338
 31
0.0
  0
ARC
  8
0
  6
CONTINUOUS
 62
     1
 10
740.066666667
 20
816.0
 30
0.0
 40
3.0
 50
180.0
 51
270.0
  0
LINE
  8
0
  6
CONTINUOUS
 62
     1
 10
817.066666667
 20
816.0
 30
0.0
 11
817.066666667
 21
855.673892042
 31
0.0
  0
LINE
  8
0
  6
CONTINUOUS
 62
     1
 10
814.066666667
 20
813.0
 30
0.0
 11
740.066666667
 21
813.0
 31
0.0
  0
ARC
  8
0
  6
CONTINUOUS
 62
     1
 10
814.066666667
 20
816.0
 30
0.0
 40
3.0
 50
270.0
 51
0.0
  0
LINE
  8
0
  6
CONTINUOUS
 62
     1
 10
817.066666667
 20
860.587912088
 30
0.0
 11
817.066666667
 21
862.0
 31
0.0
  0
LINE
  8
0
  6
CONTINUOUS
 62
     1
 10
814.066666667
 20
865.0
 30
0.0
 11
740.066666667
 21
865.0
 31
0.0
  0
ARC
  8
0
  6
CONTINUOUS
 62
     1
 10
814.066666667
 20
862.0
 30
0.0
 40
3.0
 50
0.0
 51
90.0
  0
LINE
  8
0
  6
LTYPE2
 62
     2
 10
777.066666667
 20
785.0
 30
0.0
 11
777.066666667
 21
872.9321338
 31
0.0
  0
LINE
  8
0
  6
CONTINUOUS
 62
     6
 10
899.366666667
 20
776.062445841
 30
0.0
 11
899.366666667
 21
771.450565841
 31
0.0
  0
LINE
  8
0
  6
CONTINUOUS
 62
     6
 10
899.366666667
 20
776.062445841
 30
0.0
 11
899.366666667
 21
780.674325841
 31
0.0
  0
LINE
  8
0
  6
CONTINUOUS
 62
     6
 10
902.866866667
 20
772.580005841
 30
0.0
 11
902.214784179
 21
771.450565841
 31
0.0
  0
LINE
  8
0
  6
CONTINUOUS
 62
     6
 10
902.866866667
 20
776.062445841
 30
0.0
 11
902.866866667
 21
772.580005841
 31
0.0
  0
LINE
  8
0
  6
CONTINUOUS
 62
     6
 10
902.866866667
 20
779.544885841
 30
0.0
 11
902.214784179
 21
780.674325841
 31
0.0
  0
LINE
  8
0
  6
CONTINUOUS
 62
     6
 10
902.866866667
 20
776.062445841
 30
0.0
 11
902.866866667
 21
779.544885841
 31
0.0
  0
ARC
  8
0
  6
CONTINUOUS
 62
     6
 10
898.463611741
 20
776.062445841
 30
0.0
 40
4.403254926
 50
328.419912243
 51
31.580087757
  0
ARC
  8
0
  6
CONTINUOUS
 62
     6
 10
901.521946535
 20
772.603535841
 30
0.0
 40
1.34512595
 50
357.010501597
 51
58.997686085
  0
LINE
  8
0
  6
CONTINUOUS
 62
     6
 10
902.866866667
 20
779.544885841
 30
0.0
 11
902.214784179
 21
780.674325841
 31
0.0
  0
ARC
  8
0
  6
CONTINUOUS
 62
     6
 10
901.521946535
 20
779.521355841
 30
0.0
 40
1.34512595
 50
301.002313915
 51
2.989498403
  0
LINE
  8
0
  6
CONTINUOUS
 62
     6
 10
899.366666667
 20
771.450565841
 30
0.0
 11
902.214784179
 21
771.450565841
 31
0.0
  0
LINE
  8
0
  6
CONTINUOUS
 62
     6
 10
899.366666667
 20
773.756505841
 30
0.0
 11
902.214784179
 21
773.756505841
 31
0.0
  0
LINE
  8
0
  6
CONTINUOUS
 62
     6
 10
899.366666667
 20
778.368385841
 30
0.0
 11
902.214784179
 21
778.368385841
 31
0.0
  0
LINE
  8
0
  6
CONTINUOUS
 62
     6
 10
899.366666667
 20
780.674325841
 30
0.0
 11
902.214784179
 21
780.674325841
 31
0.0
  0
LINE
  8
0
  6
CONTINUOUS
 62
     6
 10
898.066666667
 20
771.462445841
 30
0.0
 11
899.366666667
 21
771.462445841
 31
0.0
  0
LINE
  8
0
  6
CONTINUOUS
 62
     6
 10
898.066666667
 20
776.062445841
 30
0.0
 11
899.36666622
 21
774.762446287
 31
0.0
  0
LINE
  8
0
  6
CONTINUOUS
 62
     6
 10
899.36666622
 20
776.062445841
 30
0.0
 11
898.066666667
 21
777.362445394
 31
0.0
  0
LINE
  8
0
  6
CONTINUOUS
 62
     6
 10
898.066666667
 20
780.662445841
 30
0.0
 11
899.366666667
 21
780.662445841
 31
0.0
  0
LINE
  8
0
  6
CONTINUOUS
 62
     1
 10
941.566666667
 20
755.5
 30
0.0
 11
927.066666667
 21
755.5
 31
0.0
  0
ARC
  8
0
  6
CONTINUOUS
 62
     1
 10
941.566666667
 20
754.0
 30
0.0
 40
1.5
 50
0.0
 51
90.0
  0
LINE
  8
0
  6
CONTINUOUS
 62
     1
 10
943.066666667
 20
726.0
 30
0.0
 11
943.066666667
 21
754.0
 31
0.0
  0
LINE
  8
7
  6
CONTINUOUS
 62
     2
 10
843.066666667
 20
835.0
 30
0.0
 11
851.631056762
 21
840.162482183
 31
0.0
  0
LINE
  8
7
  6
CONTINUOUS
 62
     2
 10
843.066666667
 20
835.0
 30
0.0
 11
847.902404966
 21
843.753035765
 31
0.0
  0
LINE
  8
7
  6
CONTINUOUS
 62
     2
 10
843.066666667
 20
835.0
 30
0.0
 11
869.066666667
 21
862.0
 31
0.0
  0
LINE
  8
0
  6
LTYPE2
 62
     2
 10
852.741348757
 20
835.0
 30
0.0
 11
809.996142512
 21
835.0
 31
0.0
  0
LINE
  8
0
  6
CONTINUOUS
 62
     1
 10
734.066666667
 20
740.0
 30
0.0
 11
734.066666667
 21
797.0
 31
0.0
  0
ARC
  8
0
  6
CONTINUOUS
 62
     1
 10
729.566666667
 20
798.5
 30
0.0
 40
1.5
 50
180.0
 51
270.0
  0
LINE
  8
0
  6
CONTINUOUS
 62
     1
 10
728.066666667
 20
798.5
 30
0.0
 11
728.066666667
 21
799.5
 31
0.0
  0
ARC
  8
0
  6
CONTINUOUS
 62
     1
 10
726.566666667
 20
799.5
 30
0.0
 40
1.5
 50
0.0
 51
90.0
  0
LINE
  8
0
  6
CONTINUOUS
 62
     1
 10
728.066666667
 20
740.0
 30
0.0
 11
728.066666667
 21
799.1
 31
0.0
  0
LINE
  8
0
  6
CONTINUOUS
 62
     1
 10
726.566666667
 20
801.0
 30
0.0
 11
721.066666667
 21
801.0
 31
0.0
  0
ARC
  8
0
  6
CONTINUOUS
 62
     1
 10
896.566666667
 20
795.5
 30
0.0
 40
1.5
 50
0.0
 51
89.999708579
  0
LINE
  8
0
  6
CONTINUOUS
 62
     1
 10
896.566674296
 20
797.0
 30
0.0
 11
729.566666667
 21
797.0
 31
0.0
  0
LINE
  8
7
  6
CONTINUOUS
 62
     2
 10
869.066666667
 20
862.0
 30
0.0
 11
937.066666667
 21
862.0
 31
0.0
  0
LINE
  8
2
  6
CONTINUOUS
 62
     2
 10
899.066666667
 20
797.0
 30
0.0
 11
996.066666667
 21
797.0
 31
0.0
  0
LINE
  8
2
  6
CONTINUOUS
 62
     2
 10
990.066666667
 20
797.0
 30
0.0
 11
986.18438099
 21
782.511112606
 31
0.0
  0
LINE
  8
2
  6
CONTINUOUS
 62
     2
 10
990.066666667
 20
797.0
 30
0.0
 11
993.948952343
 21
782.511112606
 31
0.0
  0
LINE
  8
2
  6
CONTINUOUS
 62
     2
 10
990.066666667
 20
797.0
 30
0.0
 11
990.066666667
 21
683.0
 31
0.0
  0
TEXT
  8
2
  6
CONTINUOUS
 62
     3
 10
984.066666667
 20
707.6
 30
0.0
 40
18.0
  1
φ１１４
 50
90.0
 41
0.9
 51
0.0
  7
KANJI31
  0
TEXT
  8
7
  6
CONTINUOUS
 62
     2
 10
869.066666667
 20
866.0
 30
0.0
 40
18.0
  1
ＰＦ３／４
 50
0.0
 41
0.766666667
 51
0.0
  7
KANJI42
  0
LINE
  8
0
  6
CONTINUOUS
 62
     1
 10
893.066666667
 20
740.0
 30
0.0
 11
893.066666667
 21
683.0
 31
0.0
  0
LINE
  8
0
  6
CONTINUOUS
 62
     1
 10
914.066666667
 20
740.0
 30
0.0
 11
914.066666667
 21
704.570524155
 31
0.0
  0
ARC
  8
0
  6
CONTINUOUS
 62
     1
 10
912.566666667
 20
704.570524155
 30
0.0
 40
1.5
 50
288.970407808
 51
0.0
  0
ARC
  8
0
  6
CONTINUOUS
 62
     1
 10
926.066666667
 20
723.5
 30
0.0
 40
1.0
 50
270.0
 51
0.0
  0
LINE
  8
0
  6
CONTINUOUS
 62
     1
 10
926.066666667
 20
722.5
 30
0.0
 11
914.066666667
 21
722.5
 31
0.0
  0
LINE
  8
0
  6
CONTINUOUS
 62
     1
 10
927.066666667
 20
740.0
 30
0.0
 11
927.066666667
 21
723.5
 31
0.0
  0
LINE
  8
0
  6
CONTINUOUS
 62
     1
 10
898.066666667
 20
696.929475845
 30
0.0
 11
898.066666667
 21
684.5
 31
0.0
  0
ARC
  8
0
  6
CONTINUOUS
 62
     1
 10
899.566666667
 20
696.929475845
 30
0.0
 40
1.5
 50
108.970407808
 51
180.0
  0
LINE
  8
0
  6
CONTINUOUS
 62
     1
 10
913.054286319
 20
703.151994256
 30
0.0
 11
899.079047014
 21
698.348005744
 31
0.0
  0
LINE
  8
0
  6
CONTINUOUS
 62
     1
 10
898.066666667
 20
740.0
 30
0.0
 11
898.066666667
 21
696.929475845
 31
0.0
  0
LINE
  8
0
  6
LTYPE2
 62
     2
 10
906.066666667
 20
703.937554159
 30
0.0
 11
895.066666667
 21
703.937554159
 31
0.0
  0
LINE
  8
0
  6
CONTINUOUS
 62
     6
 10
899.366666667
 20
703.937554159
 30
0.0
 11
899.366666667
 21
708.549434159
 31
0.0
  0
LINE
  8
0
  6
CONTINUOUS
 62
     6
 10
902.866866667
 20
707.419994159
 30
0.0
 11
902.214784179
 21
708.549434159
 31
0.0
  0
LINE
  8
0
  6
CONTINUOUS
 62
     6
 10
902.866866667
 20
703.937554159
 30
0.0
 11
902.866866667
 21
707.419994159
 31
0.0
  0
ARC
  8
0
  6
CONTINUOUS
 62
     6
 10
901.521946535
 20
707.396464159
 30
0.0
 40
1.34512595
 50
301.002313915
 51
2.989498403
  0
LINE
  8
0
  6
CONTINUOUS
 62
     6
 10
899.366666667
 20
708.549434159
 30
0.0
 11
902.214784179
 21
708.549434159
 31
0.0
  0
LINE
  8
0
  6
CONTINUOUS
 62
     6
 10
898.066666667
 20
708.537554159
 30
0.0
 11
899.366666667
 21
708.537554159
 31
0.0
  0
LINE
  8
0
  6
CONTINUOUS
 62
     6
 10
899.366666667
 20
703.937554159
 30
0.0
 11
899.366666667
 21
699.325674159
 31
0.0
  0
LINE
  8
0
  6
CONTINUOUS
 62
     6
 10
902.866866667
 20
700.455114159
 30
0.0
 11
902.214784179
 21
699.325674159
 31
0.0
  0
LINE
  8
0
  6
CONTINUOUS
 62
     6
 10
902.866866667
 20
703.937554159
 30
0.0
 11
902.866866667
 21
700.455114159
 31
0.0
  0
ARC
  8
0
  6
CONTINUOUS
 62
     6
 10
898.463611741
 20
703.937554159
 30
0.0
 40
4.403254926
 50
328.419912243
 51
31.580087757
  0
LINE
  8
0
  6
CONTINUOUS
 62
     6
 10
902.866866667
 20
700.455114159
 30
0.0
 11
902.214784179
 21
699.325674159
 31
0.0
  0
ARC
  8
0
  6
CONTINUOUS
 62
     6
 10
901.521946535
 20
700.478644159
 30
0.0
 40
1.34512595
 50
357.010501597
 51
58.997686085
  0
LINE
  8
0
  6
CONTINUOUS
 62
     6
 10
899.366666667
 20
701.631614159
 30
0.0
 11
902.214784179
 21
701.631614159
 31
0.0
  0
LINE
  8
0
  6
CONTINUOUS
 62
     6
 10
899.366666667
 20
699.325674159
 30
0.0
 11
902.214784179
 21
699.325674159
 31
0.0
  0
LINE
  8
0
  6
CONTINUOUS
 62
     6
 10
898.066666667
 20
699.337554159
 30
0.0
 11
899.366666667
 21
699.337554159
 31
0.0
  0
LINE
  8
0
  6
CONTINUOUS
 62
     6
 10
899.366666667
 20
706.243494159
 30
0.0
 11
902.214784179
 21
706.243494159
 31
0.0
  0
LINE
  8
0
  6
CONTINUOUS
 62
     6
 10
898.066666667
 20
703.937554159
 30
0.0
 11
899.36666622
 21
705.237553713
 31
0.0
  0
LINE
  8
0
  6
CONTINUOUS
 62
     6
 10
899.36666622
 20
703.937554159
 30
0.0
 11
898.066666667
 21
702.637554606
 31
0.0
  0
LINE
  8
0
  6
CONTINUOUS
 62
     1
 10
941.566666667
 20
724.5
 30
0.0
 11
927.066666667
 21
724.5
 31
0.0
  0
ARC
  8
0
  6
CONTINUOUS
 62
     1
 10
941.566666667
 20
726.0
 30
0.0
 40
1.5
 50
270.0
 51
0.0
  0
LINE
  8
0
  6
CONTINUOUS
 62
     1
 10
734.066666667
 20
740.0
 30
0.0
 11
734.066666667
 21
683.0
 31
0.0
  0
ARC
  8
0
  6
CONTINUOUS
 62
     1
 10
729.566666667
 20
681.5
 30
0.0
 40
1.5
 50
90.0
 51
180.0
  0
ARC
  8
0
  6
CONTINUOUS
 62
     1
 10
896.566666667
 20
684.5
 30
0.0
 40
1.5
 50
270.000504757
 51
0.0
  0
LINE
  8
0
  6
CONTINUOUS
 62
     1
 10
896.566679881
 20
683.0
 30
0.0
 11
729.566666667
 21
683.0
 31
0.0
  0
TEXT
  8
0
  6
CONTINUOUS
 62
     2
 10
744.606676122
 20
717.0
 30
0.0
 40
18.0
  1
日本電産
 50
0.0
 41
0.9
 51
0.0
  7
KANJI31
  0
TEXT
  8
0
  6
CONTINUOUS
 62
     2
 10
744.606676122
 20
698.0
 30
0.0
 40
18.0
  1
エコノストップモータ
 50
0.0
 41
0.766666667
 51
0.0
  7
KANJI42
  0
LINE
  8
2
  6
CONTINUOUS
 62
     2
 10
990.066666667
 20
683.0
 30
0.0
 11
993.948952343
 21
697.488887394
 31
0.0
  0
LINE
  8
2
  6
CONTINUOUS
 62
     2
 10
990.066666667
 20
683.0
 30
0.0
 11
986.18438099
 21
697.488887394
 31
0.0
  0
LINE
  8
2
  6
CONTINUOUS
 62
     2
 10
899.066666667
 20
683.0
 30
0.0
 11
996.066666667
 21
683.0
 31
0.0
  0
LINE
  8
0
  6
CONTINUOUS
 62
     1
 10
728.066666667
 20
681.5
 30
0.0
 11
728.066666667
 21
680.5
 31
0.0
  0
LINE
  8
0
  6
CONTINUOUS
 62
     1
 10
728.066666667
 20
740.0
 30
0.0
 11
728.066666667
 21
680.9
 31
0.0
  0
ARC
  8
0
  6
CONTINUOUS
 62
     1
 10
726.566666667
 20
680.5
 30
0.0
 40
1.5
 50
270.000291421
 51
0.0
  0
LINE
  8
0
  6
CONTINUOUS
 62
     1
 10
726.566674296
 20
679.0
 30
0.0
 11
721.066666667
 21
679.0
 31
0.0
  0
LINE
  8
0
  6
CONTINUOUS
 62
     6
 10
928.066666667
 20
743.8
 30
0.0
 11
927.066666667
 21
743.8
 31
0.0
  0
LINE
  8
0
  6
CONTINUOUS
 62
     6
 10
928.066666667
 20
740.0
 30
0.0
 11
927.066666667
 21
741.0
 31
0.0
  0
LINE
  8
0
  6
CONTINUOUS
 62
     6
 10
930.549124019
 20
744.05
 30
0.0
 11
928.066666667
 21
744.05
 31
0.0
  0
LINE
  8
0
  6
CONTINUOUS
 62
     6
 10
930.866666667
 20
743.5
 30
0.0
 11
930.549124019
 21
744.05
 31
0.0
  0
LINE
  8
0
  6
CONTINUOUS
 62
     6
 10
930.549124019
 20
742.025
 30
0.0
 11
928.066666667
 21
742.025
 31
0.0
  0
ARC
  8
0
  6
CONTINUOUS
 62
     6
 10
929.093692878
 20
743.0375
 30
0.0
 40
1.772973788
 50
325.174816769
 51
34.825183231
  0
LINE
  8
0
  6
CONTINUOUS
 62
     6
 10
928.066666667
 20
736.2
 30
0.0
 11
927.066666667
 21
736.2
 31
0.0
  0
LINE
  8
0
  6
CONTINUOUS
 62
     6
 10
928.066666667
 20
739.0
 30
0.0
 11
927.066666667
 21
740.0
 31
0.0
  0
LINE
  8
0
  6
CONTINUOUS
 62
     6
 10
930.866666667
 20
736.5
 30
0.0
 11
930.549124019
 21
735.95
 31
0.0
  0
LINE
  8
0
  6
CONTINUOUS
 62
     6
 10
930.549124019
 20
735.95
 30
0.0
 11
928.066666667
 21
735.95
 31
0.0
  0
LINE
  8
0
  6
CONTINUOUS
 62
     6
 10
930.549124019
 20
737.975
 30
0.0
 11
928.066666667
 21
737.975
 31
0.0
  0
ARC
  8
0
  6
CONTINUOUS
 62
     6
 10
929.093692878
 20
736.9625
 30
0.0
 40
1.772973788
 50
325.174816769
 51
34.825183231
  0
LINE
  8
0
  6
CONTINUOUS
 62
     6
 10
928.066666667
 20
744.05
 30
0.0
 11
928.066666667
 21
735.95
 31
0.0
  0
LINE
  8
0
  6
CONTINUOUS
 62
     6
 10
930.866666667
 20
743.5
 30
0.0
 11
930.866666667
 21
736.5
 31
0.0
  0
ARC
  8
0
  6
CONTINUOUS
 62
     6
 10
924.251085486
 20
740.0
 30
0.0
 40
6.615581181
 50
342.175912681
 51
17.824087319
  0
LINE
  8
0
  6
CONTINUOUS
 62
     2
 10
721.066666667
 20
897.8
 30
0.0
 11
721.066666667
 21
913.3
 31
0.0
  0
LINE
  8
0
  6
CONTINUOUS
 62
     2
 10
721.066666667
 20
901.3
 30
0.0
 11
735.555554061
 21
897.417714323
 31
0.0
  0
LINE
  8
0
  6
CONTINUOUS
 62
     2
 10
721.066666667
 20
901.3
 30
0.0
 11
735.555554061
 21
905.182285677
 31
0.0
  0
LINE
  8
0
  6
CONTINUOUS
 62
     2
 10
721.066666667
 20
901.3
 30
0.0
 11
943.066666667
 21
901.3
 31
0.0
  0
LINE
  8
0
  6
CONTINUOUS
 62
     2
 10
943.066666667
 20
901.3
 30
0.0
 11
928.577779272
 21
905.182285677
 31
0.0
  0
LINE
  8
0
  6
CONTINUOUS
 62
     2
 10
943.066666667
 20
901.3
 30
0.0
 11
928.577779272
 21
897.417714323
 31
0.0
  0
LINE
  8
0
  6
CONTINUOUS
 62
     2
 10
943.066666667
 20
760.0
 30
0.0
 11
943.066666667
 21
913.3
 31
0.0
  0
TEXT
  8
0
  6
CONTINUOUS
 62
     2
 10
805.066666667
 20
907.3
 30
1.8
 40
18.0
  1
２２２
 50
0.0
 41
0.933333333
 51
0.0
  7
KANJI43
  0
LINE
  8
0
  6
LTYPE2
 62
     2
 10
459.866666667
 20
740.0
 30
0.0
 11
943.066666667
 21
740.0
 31
0.0
  0
ARC
  8
0
  6
CONTINUOUS
 62
     2
 10
408.0
 20
736.84
 30
0.0
 40
24.0
 50
231.952957468
 51
156.801409486
  0
LINE
  8
0
  6
CONTINUOUS
 62
     2
 10
385.94051928
 20
746.294063166
 30
0.0
 11
388.694150532
 21
758.098989698
 31
0.0
  0
LINE
  8
0
  6
CONTINUOUS
 62
     2
 10
385.94051928
 20
746.294063166
 30
0.0
 11
395.862312933
 21
752.182867008
 31
0.0
  0
TEXT
  8
0
  6
CONTINUOUS
 62
     2
 10
365.54051928
 20
683.894063166
 30
0.0
 40
18.0
  1
前進方向
 50
0.0
 41
0.9
 51
0.0
  7
KANJI31
  0
TEXT
  8
0
  6
CONTINUOUS
 62
     2
 10
675.566666667
 20
669.0
 30
5.0
 40
20.0
  1
銘板
 50
270.0
 41
0.925
 51
0.0
  7
KANJI44
  0
LINE
  8
0
  6
CONTINUOUS
 62
     1
 10
670.566666667
 20
680.0
 30
0.0
 11
670.566666667
 21
610.0
 31
0.0
  0
LINE
  8
0
  6
CONTINUOUS
 62
     1
 10
713.566666667
 20
680.0
 30
0.0
 11
670.566666667
 21
680.0
 31
0.0
  0
LINE
  8
0
  6
CONTINUOUS
 62
     1
 10
713.566666667
 20
680.0
 30
0.0
 11
713.566666667
 21
610.0
 31
0.0
  0
LINE
  8
0
  6
CONTINUOUS
 62
     1
 10
713.566666667
 20
610.0
 30
0.0
 11
670.566666667
 21
610.0
 31
0.0
  0
LINE
  8
0
  6
CONTINUOUS
 62
     1
 10
794.606676122
 20
494.0
 30
0.0
 11
784.006676122
 21
494.0
 31
0.0
  0
ARC
  8
0
  6
CONTINUOUS
 62
     1
 10
789.706676122
 20
495.0
 30
0.0
 40
5.0
 50
272.3
 51
348.5
  0
ARC
  8
0
  6
CONTINUOUS
 62
     1
 10
788.906676122
 20
495.0
 30
0.0
 40
5.0
 50
191.5
 51
267.7
  0
LINE
  8
0
  6
CONTINUOUS
 62
     1
 10
789.906676122
 20
490.0
 30
0.0
 11
788.706676122
 21
490.0
 31
0.0
  0
LINE
  8
0
  6
LTYPE6
 62
     2
 10
789.306676122
 20
486.6
 30
0.0
 11
789.306676122
 21
500.0
 31
0.0
  0
LINE
  8
0
  6
CONTINUOUS
 62
     1
 10
904.606676122
 20
494.0
 30
0.0
 11
894.006676122
 21
494.0
 31
0.0
  0
ARC
  8
0
  6
CONTINUOUS
 62
     1
 10
899.706676122
 20
495.0
 30
0.0
 40
5.0
 50
272.3
 51
348.5
  0
ARC
  8
0
  6
CONTINUOUS
 62
     1
 10
898.906676122
 20
495.0
 30
0.0
 40
5.0
 50
191.5
 51
267.7
  0
LINE
  8
0
  6
CONTINUOUS
 62
     1
 10
899.906676122
 20
490.0
 30
0.0
 11
898.706676122
 21
490.0
 31
0.0
  0
LINE
  8
0
  6
LTYPE6
 62
     2
 10
899.306676122
 20
486.6
 30
0.0
 11
899.306676122
 21
500.0
 31
0.0
  0
TEXT
  8
0
  6
CONTINUOUS
 62
     2
 10
1260.516666667
 20
839.25
 30
0.0
 40
18.0
  1
２５
 50
90.0
 41
0.9
 51
0.0
  7
KANJI31
  0
TEXT
  8
0
  6
CONTINUOUS
 62
     2
 10
770.899258263
 20
987.588190451
 30
0.0
 40
20.0
  1
ブレーキ解放装置はありません。
 50
0.0
 41
0.925
 51
0.0
  7
KANJI45
  0
TEXT
  8
0
  6
CONTINUOUS
 62
     2
 10
771.899258263
 20
962.588190451
 30
0.0
 40
20.0
  1
そのまま手動操作をして下さい．
 50
0.0
 41
0.925
 51
0.0
  7
KANJI45
  0
LINE
  8
0
  6
CONTINUOUS
 62
     2
 10
1196.426675788
 20
941.895817
 30
0.0
 11
1184.35260296
 21
945.131055064
 31
0.0
  0
LINE
  8
0
  6
CONTINUOUS
 62
     2
 10
1196.426675788
 20
941.895817
 30
0.0
 11
1184.35260296
 21
938.660578936
 31
0.0
  0
LINE
  8
0
  6
CONTINUOUS
 62
     2
 10
1196.426675788
 20
941.895817
 30
0.0
 11
1155.426675788
 21
941.895817
 31
0.0
  0
TEXT
  8
0
  6
CONTINUOUS
 62
     3
 10
1162.426675788
 20
951.895817
 30
0.0
 40
20.0
  1
前進
 50
0.0
 41
0.925
 51
0.0
  7
KANJI45
  0
ARC
  8
0
  6
CONTINUOUS
 62
     1
 10
1346.306676122
 20
534.0
 30
0.0
 40
6.0
 50
180.0
 51
270.0
  0
LINE
  8
0
  6
CONTINUOUS
 62
     1
 10
1340.306676122
 20
534.0
 30
0.0
 11
1340.306676122
 21
583.639279073
 31
0.0
  0
LINE
  8
0
  6
LTYPE1
 62
     2
 10
1362.306676122
 20
615.0
 30
0.0
 11
1337.306676122
 21
615.0
 31
0.0
  0
LINE
  8
0
  6
LTYPE1
 62
     2
 10
1362.306676122
 20
595.0
 30
0.0
 11
1337.306676122
 21
595.0
 31
0.0
  0
LINE
  8
0
  6
LTYPE4
 62
     2
 10
1322.306676122
 20
605.0
 30
0.0
 11
1567.566666667
 21
605.0
 31
0.0
  0
LINE
  8
0
  6
CONTINUOUS
 62
     1
 10
1337.306676122
 20
584.0
 30
0.0
 11
1337.306676122
 21
592.2
 31
0.0
  0
LINE
  8
0
  6
CONTINUOUS
 62
     1
 10
1337.306676122
 20
626.0
 30
0.0
 11
1370.57339034
 21
630.0
 31
0.0
  0
LINE
  8
0
  6
CONTINUOUS
 62
     1
 10
1337.306676122
 20
592.2
 30
0.0
 11
1337.306676122
 21
626.0
 31
0.0
  0
LINE
  8
0
  6
CONTINUOUS
 62
     1
 10
1340.306676122
 20
626.360720927
 30
0.0
 11
1340.306676122
 21
657.1
 31
0.0
  0
LINE
  8
0
  6
CONTINUOUS
 62
     1
 10
1307.306676122
 20
523.3
 30
0.0
 11
1307.306676122
 21
755.3
 31
0.0
  0
ARC
  8
0
  6
CONTINUOUS
 62
     1
 10
1317.306676122
 20
755.3
 30
0.0
 40
10.0
 50
90.0
 51
180.0
  0
ARC
  8
0
  6
CONTINUOUS
 62
     1
 10
1136.920294171
 20
659.0
 30
0.0
 40
1.0
 50
15.0
 51
90.0
  0
ARC
  8
0
  6
CONTINUOUS
 62
     1
 10
1136.920293345
 20
659.0
 30
0.0
 40
1.0
 50
90.0
 51
165.0
  0
LINE
  8
0
  6
CONTINUOUS
 62
     1
 10
1132.332327309
 20
645.741180955
 30
0.0
 11
1135.954367519
 21
659.258819045
 31
0.0
  0
ARC
  8
0
  6
CONTINUOUS
 62
     1
 10
1131.366401483
 20
646.0
 30
0.0
 40
1.0
 50
270.0
 51
345.0
  0
ARC
  8
0
  6
CONTINUOUS
 62
     1
 10
1131.366400808
 20
646.0
 30
0.0
 40
1.0
 50
195.0
 51
270.0
  0
LINE
  8
0
  6
CONTINUOUS
 62
     1
 10
1130.400474982
 20
645.741180955
 30
0.0
 11
1126.778434772
 21
659.258819045
 31
0.0
  0
ARC
  8
0
  6
CONTINUOUS
 62
     1
 10
1125.812508946
 20
659.0
 30
0.0
 40
1.0
 50
15.0
 51
90.0
  0
ARC
  8
0
  6
CONTINUOUS
 62
     1
 10
1125.812507294
 20
659.0
 30
0.0
 40
1.0
 50
90.0
 51
165.0
  0
ARC
  8
0
  6
CONTINUOUS
 62
     1
 10
1120.258616258
 20
646.0
 30
0.0
 40
1.0
 50
270.0
 51
345.0
  0
LINE
  8
0
  6
CONTINUOUS
 62
     1
 10
1121.224542084
 20
645.741180955
 30
0.0
 11
1124.846582294
 21
659.258819045
 31
0.0
  0
LINE
  8
0
  6
CONTINUOUS
 62
     1
 10
1120.258616258
 20
645.0
 30
0.0
 11
1120.258616258
 21
605.0
 31
0.0
  0
LINE
  8
0
  6
CONTINUOUS
 62
     1
 10
1125.81250812
 20
660.0
 30
0.0
 11
1125.81250812
 21
605.0
 31
0.0
  0
LINE
  8
0
  6
CONTINUOUS
 62
     1
 10
1136.920294171
 20
660.0
 30
0.0
 11
1136.920294171
 21
605.0
 31
0.0
  0
LINE
  8
0
  6
CONTINUOUS
 62
     1
 10
1131.366401483
 20
605.0
 30
0.0
 11
1131.366401483
 21
645.0
 31
0.0
  0
LINE
  8
0
  6
CONTINUOUS
 62
     1
 10
1141.666666667
 20
645.15
 30
0.0
 11
1137.886219997
 21
659.258819045
 31
0.0
  0
LINE
  8
0
  6
CONTINUOUS
 62
     1
 10
1141.666666667
 20
605.0
 30
0.0
 11
1141.666666667
 21
645.15
 31
0.0
  0
ARC
  8
0
  6
CONTINUOUS
 62
     1
 10
1136.920294171
 20
551.0
 30
0.0
 40
1.0
 50
270.0
 51
345.0
  0
ARC
  8
0
  6
CONTINUOUS
 62
     1
 10
1136.920293345
 20
551.0
 30
0.0
 40
1.0
 50
195.0
 51
270.0
  0
LINE
  8
0
  6
CONTINUOUS
 62
     1
 10
1132.332327309
 20
564.258819045
 30
0.0
 11
1135.954367519
 21
550.741180955
 31
0.0
  0
ARC
  8
0
  6
CONTINUOUS
 62
     1
 10
1131.366401483
 20
564.0
 30
0.0
 40
1.0
 50
15.0
 51
90.0
  0
ARC
  8
0
  6
CONTINUOUS
 62
     1
 10
1131.366400808
 20
564.0
 30
0.0
 40
1.0
 50
90.0
 51
165.0
  0
LINE
  8
0
  6
CONTINUOUS
 62
     1
 10
1130.400474982
 20
564.258819045
 30
0.0
 11
1126.778434772
 21
550.741180955
 31
0.0
  0
ARC
  8
0
  6
CONTINUOUS
 62
     1
 10
1125.812508946
 20
551.0
 30
0.0
 40
1.0
 50
270.0
 51
345.0
  0
ARC
  8
0
  6
CONTINUOUS
 62
     1
 10
1125.812507294
 20
551.0
 30
0.0
 40
1.0
 50
195.0
 51
270.0
  0
ARC
  8
0
  6
CONTINUOUS
 62
     1
 10
1120.258616258
 20
564.0
 30
0.0
 40
1.0
 50
15.0
 51
90.0
  0
LINE
  8
0
  6
CONTINUOUS
 62
     1
 10
1121.224542084
 20
564.258819045
 30
0.0
 11
1124.846582294
 21
550.741180955
 31
0.0
  0
LINE
  8
0
  6
CONTINUOUS
 62
     1
 10
1141.666666667
 20
564.85
 30
0.0
 11
1137.886219997
 21
550.741180955
 31
0.0
  0
LINE
  8
0
  6
CONTINUOUS
 62
     1
 10
1141.666666667
 20
564.85
 30
0.0
 11
1141.666666667
 21
579.85
 31
0.0
  0
ARC
  8
0
  6
CONTINUOUS
 62
     1
 10
1135.004457445
 20
862.0
 30
0.0
 40
1.0
 50
15.0
 51
90.0
  0
ARC
  8
0
  6
CONTINUOUS
 62
     1
 10
1135.004456619
 20
862.0
 30
0.0
 40
1.0
 50
90.0
 51
165.0
  0
LINE
  8
0
  6
CONTINUOUS
 62
     1
 10
1130.416490583
 20
848.741180955
 30
0.0
 11
1134.038530793
 21
862.258819045
 31
0.0
  0
ARC
  8
0
  6
CONTINUOUS
 62
     1
 10
1129.450564757
 20
849.0
 30
0.0
 40
1.0
 50
270.0
 51
345.0
  0
ARC
  8
0
  6
CONTINUOUS
 62
     1
 10
1129.450564083
 20
849.0
 30
0.0
 40
1.0
 50
195.0
 51
270.0
  0
LINE
  8
0
  6
CONTINUOUS
 62
     1
 10
1128.484638256
 20
848.741180955
 30
0.0
 11
1124.862598046
 21
862.258819045
 31
0.0
  0
ARC
  8
0
  6
CONTINUOUS
 62
     1
 10
1123.89667222
 20
862.0
 30
0.0
 40
1.0
 50
15.0
 51
90.0
  0
ARC
  8
0
  6
CONTINUOUS
 62
     1
 10
1123.896670568
 20
862.0
 30
0.0
 40
1.0
 50
90.0
 51
165.0
  0
ARC
  8
0
  6
CONTINUOUS
 62
     1
 10
1118.342779532
 20
849.0
 30
0.0
 40
1.0
 50
270.0
 51
345.0
  0
LINE
  8
0
  6
CONTINUOUS
 62
     1
 10
1119.308705358
 20
848.741180955
 30
0.0
 11
1122.930745568
 21
862.258819045
 31
0.0
  0
LINE
  8
0
  6
CONTINUOUS
 62
     1
 10
1141.666666667
 20
841.0
 30
0.0
 11
1135.970383271
 21
862.258819045
 31
0.0
  0
LINE
  8
0
  6
CONTINUOUS
 62
     1
 10
1154.166666667
 20
843.0
 30
0.0
 11
1144.166666667
 21
843.0
 31
0.0
  0
LINE
  8
0
  6
CONTINUOUS
 62
     1
 10
1141.666666667
 20
808.0
 30
0.0
 11
1141.666666667
 21
841.0
 31
0.0
  0
LINE
  8
0
  6
CONTINUOUS
 62
     1
 10
1118.342779532
 20
848.0
 30
0.0
 11
1118.342779532
 21
808.0
 31
0.0
  0
LINE
  8
0
  6
CONTINUOUS
 62
     1
 10
1123.896671394
 20
863.0
 30
0.0
 11
1123.896671394
 21
808.0
 31
0.0
  0
LINE
  8
0
  6
CONTINUOUS
 62
     1
 10
1135.004457445
 20
863.0
 30
0.0
 11
1135.004457445
 21
808.0
 31
0.0
  0
LINE
  8
0
  6
CONTINUOUS
 62
     1
 10
1129.450564757
 20
808.0
 30
0.0
 11
1129.450564757
 21
848.0
 31
0.0
  0
ARC
  8
0
  6
CONTINUOUS
 62
     1
 10
1135.004457445
 20
754.0
 30
0.0
 40
1.0
 50
270.0
 51
345.0
  0
ARC
  8
0
  6
CONTINUOUS
 62
     1
 10
1135.004456619
 20
754.0
 30
0.0
 40
1.0
 50
195.0
 51
270.0
  0
LINE
  8
0
  6
CONTINUOUS
 62
     1
 10
1130.416490583
 20
767.258819045
 30
0.0
 11
1134.038530793
 21
753.741180955
 31
0.0
  0
ARC
  8
0
  6
CONTINUOUS
 62
     1
 10
1129.450564757
 20
767.0
 30
0.0
 40
1.0
 50
15.0
 51
90.0
  0
ARC
  8
0
  6
CONTINUOUS
 62
     1
 10
1129.450564083
 20
767.0
 30
0.0
 40
1.0
 50
90.0
 51
165.0
  0
LINE
  8
0
  6
CONTINUOUS
 62
     1
 10
1128.484638256
 20
767.258819045
 30
0.0
 11
1124.862598046
 21
753.741180955
 31
0.0
  0
ARC
  8
0
  6
CONTINUOUS
 62
     1
 10
1123.89667222
 20
754.0
 30
0.0
 40
1.0
 50
270.0
 51
345.0
  0
ARC
  8
0
  6
CONTINUOUS
 62
     1
 10
1123.896670568
 20
754.0
 30
0.0
 40
1.0
 50
195.0
 51
270.0
  0
ARC
  8
0
  6
CONTINUOUS
 62
     1
 10
1118.342779532
 20
767.0
 30
0.0
 40
1.0
 50
15.0
 51
90.0
  0
LINE
  8
0
  6
CONTINUOUS
 62
     1
 10
1119.308705358
 20
767.258819045
 30
0.0
 11
1122.930745568
 21
753.741180955
 31
0.0
  0
LINE
  8
0
  6
CONTINUOUS
 62
     1
 10
1141.666666667
 20
775.0
 30
0.0
 11
1135.970383271
 21
753.741180955
 31
0.0
  0
LINE
  8
0
  6
CONTINUOUS
 62
     1
 10
1154.166666667
 20
773.0
 30
0.0
 11
1144.166666667
 21
773.0
 31
0.0
  0
LINE
  8
0
  6
CONTINUOUS
 62
     1
 10
1154.166666667
 20
775.0
 30
0.0
 11
1154.166666667
 21
773.0
 31
0.0
  0
LINE
  8
0
  6
CONTINUOUS
 62
     1
 10
1144.166666667
 20
775.0
 30
0.0
 11
1144.166666667
 21
773.0
 31
0.0
  0
LINE
  8
0
  6
CONTINUOUS
 62
     1
 10
1141.666666667
 20
808.0
 30
0.0
 11
1141.666666667
 21
775.0
 31
0.0
  0
LINE
  8
0
  6
CONTINUOUS
 62
     1
 10
1118.342779532
 20
768.0
 30
0.0
 11
1118.342779532
 21
808.0
 31
0.0
  0
LINE
  8
0
  6
CONTINUOUS
 62
     1
 10
1123.896671394
 20
753.0
 30
0.0
 11
1123.896671394
 21
808.0
 31
0.0
  0
LINE
  8
0
  6
CONTINUOUS
 62
     1
 10
1135.004457445
 20
753.0
 30
0.0
 11
1135.004457445
 21
808.0
 31
0.0
  0
LINE
  8
0
  6
CONTINUOUS
 62
     1
 10
1129.450564757
 20
808.0
 30
0.0
 11
1129.450564757
 21
768.0
 31
0.0
  0
LINE
  8
0
  6
CONTINUOUS
 62
     1
 10
1156.666666667
 20
808.0
 30
0.0
 11
1156.666666667
 21
775.0
 31
0.0
  0
LINE
  8
0
  6
CONTINUOUS
 62
     1
 10
1156.666666667
 20
808.0
 30
0.0
 11
1156.666666667
 21
841.0
 31
0.0
  0
LINE
  8
0
  6
CONTINUOUS
 62
     1
 10
1144.166666667
 20
775.15
 30
0.0
 11
1144.166666667
 21
843.0
 31
0.0
  0
LINE
  8
0
  6
CONTINUOUS
 62
     1
 10
1154.166666667
 20
775.0
 30
0.0
 11
1154.166666667
 21
843.0
 31
0.0
  0
LINE
  8
0
  6
CONTINUOUS
 62
     1
 10
1144.866666667
 20
775.0
 30
0.0
 11
1141.666666667
 21
775.0
 31
0.0
  0
LINE
  8
0
  6
CONTINUOUS
 62
     1
 10
1156.666666667
 20
775.0
 30
0.0
 11
1153.566666667
 21
775.0
 31
0.0
  0
LINE
  8
0
  6
CONTINUOUS
 62
     1
 10
1144.066666667
 20
841.0
 30
0.0
 11
1141.666666667
 21
841.0
 31
0.0
  0
LINE
  8
0
  6
CONTINUOUS
 62
     1
 10
1156.666666667
 20
841.0
 30
0.0
 11
1154.066666667
 21
841.0
 31
0.0
  0
TEXT
  8
0
  6
CONTINUOUS
 62
     2
 10
1154.106676122
 20
677.2875
 30
1.5
 40
15.0
  1
φ２５Ｈ１０
 50
0.0
 41
0.9
 51
0.0
  7
KANJI46
  0
LINE
  8
0
  6
CONTINUOUS
 62
     1
 10
1171.666666667
 20
795.5
 30
0.0
 11
1231.666666667
 21
795.5
 31
0.0
  0
LINE
  8
0
  6
CONTINUOUS
 62
     1
 10
1231.666666667
 20
780.5
 30
0.0
 11
1231.666666667
 21
795.5
 31
0.0
  0
LINE
  8
0
  6
CONTINUOUS
 62
     1
 10
1156.666666667
 20
780.5
 30
0.0
 11
1231.666666667
 21
780.5
 31
0.0
  0
LINE
  8
0
  6
CONTINUOUS
 62
     1
 10
1184.666666667
 20
776.0
 30
0.0
 11
1228.666666667
 21
776.0
 31
0.0
  0
LINE
  8
0
  6
CONTINUOUS
 62
     1
 10
1194.166666667
 20
770.0
 30
0.0
 11
1219.166666667
 21
770.0
 31
0.0
  0
LINE
  8
0
  6
CONTINUOUS
 62
     1
 10
1219.166666667
 20
770.0
 30
0.0
 11
1219.166666667
 21
776.0
 31
0.0
  0
LINE
  8
0
  6
CONTINUOUS
 62
     1
 10
1194.166666667
 20
770.0
 30
0.0
 11
1194.166666667
 21
776.0
 31
0.0
  0
LINE
  8
0
  6
CONTINUOUS
 62
     1
 10
1228.666666667
 20
776.0
 30
0.0
 11
1228.666666667
 21
780.5
 31
0.0
  0
LINE
  8
0
  6
CONTINUOUS
 62
     1
 10
1184.666666667
 20
776.0
 30
0.0
 11
1184.666666667
 21
780.5
 31
0.0
  0
CIRCLE
  8
0
  6
CONTINUOUS
 62
     1
 10
1206.666666667
 20
774.0
 30
0.0
 40
2.0
  0
LINE
  8
0
  6
CONTINUOUS
 62
     1
 10
1171.666666667
 20
820.5
 30
0.0
 11
1231.666666667
 21
820.5
 31
0.0
  0
LINE
  8
0
  6
CONTINUOUS
 62
     1
 10
1231.666666667
 20
835.5
 30
0.0
 11
1231.666666667
 21
820.5
 31
0.0
  0
LINE
  8
0
  6
CONTINUOUS
 62
     1
 10
1156.666666667
 20
835.5
 30
0.0
 11
1231.666666667
 21
835.5
 31
0.0
  0
LINE
  8
0
  6
CONTINUOUS
 62
     1
 10
1184.666666667
 20
840.0
 30
0.0
 11
1228.666666667
 21
840.0
 31
0.0
  0
LINE
  8
0
  6
CONTINUOUS
 62
     1
 10
1194.166666667
 20
846.0
 30
0.0
 11
1219.166666667
 21
846.0
 31
0.0
  0
LINE
  8
0
  6
CONTINUOUS
 62
     1
 10
1219.166666667
 20
846.0
 30
0.0
 11
1219.166666667
 21
840.0
 31
0.0
  0
LINE
  8
0
  6
CONTINUOUS
 62
     1
 10
1194.166666667
 20
846.0
 30
0.0
 11
1194.166666667
 21
840.0
 31
0.0
  0
LINE
  8
0
  6
CONTINUOUS
 62
     1
 10
1228.666666667
 20
840.0
 30
0.0
 11
1228.666666667
 21
835.5
 31
0.0
  0
LINE
  8
0
  6
CONTINUOUS
 62
     1
 10
1184.666666667
 20
840.0
 30
0.0
 11
1184.666666667
 21
835.5
 31
0.0
  0
CIRCLE
  8
0
  6
CONTINUOUS
 62
     1
 10
1206.666666667
 20
842.0
 30
0.0
 40
2.0
  0
LINE
  8
0
  6
CONTINUOUS
 62
     1
 10
1171.666666667
 20
795.5
 30
0.0
 11
1171.666666667
 21
820.5
 31
0.0
  0
LINE
  8
0
  6
CONTINUOUS
 62
     1
 10
1194.166666667
 20
820.5
 30
0.0
 11
1194.166666667
 21
795.5
 31
0.0
  0
LINE
  8
0
  6
CONTINUOUS
 62
     1
 10
1219.166666667
 20
820.5
 30
0.0
 11
1219.166666667
 21
795.5
 31
0.0
  0
LINE
  8
0
  6
LTYPE5
 62
     2
 10
1202.666666667
 20
774.1
 30
0.0
 11
1210.866666667
 21
774.1
 31
0.0
  0
LINE
  8
0
  6
LTYPE1
 62
     2
 10
1219.166666667
 20
776.0
 30
0.0
 11
1219.166666667
 21
795.5
 31
0.0
  0
LINE
  8
0
  6
LTYPE1
 62
     2
 10
1194.166666667
 20
776.0
 30
0.0
 11
1194.166666667
 21
795.5
 31
0.0
  0
LINE
  8
0
  6
LTYPE5
 62
     2
 10
1202.666666667
 20
841.9
 30
0.0
 11
1210.866666667
 21
841.9
 31
0.0
  0
LINE
  8
0
  6
LTYPE1
 62
     2
 10
1219.166666667
 20
840.0
 30
0.0
 11
1219.166666667
 21
820.5
 31
0.0
  0
LINE
  8
0
  6
LTYPE1
 62
     2
 10
1194.166666667
 20
840.0
 30
0.0
 11
1194.166666667
 21
820.5
 31
0.0
  0
LINE
  8
0
  6
LTYPE5
 62
     2
 10
1206.666666667
 20
765.0
 30
0.0
 11
1206.666666667
 21
846.0
 31
0.0
  0
LINE
  8
0
  6
LTYPE5
 62
     2
 10
1206.666666667
 20
851.0
 30
0.0
 11
1206.666666667
 21
770.0
 31
0.0
  0
LINE
  8
0
  6
CONTINUOUS
 62
     2
 10
1239.166666667
 20
820.5
 30
0.0
 11
1273.016666667
 21
820.5
 31
0.0
  0
LINE
  8
0
  6
CONTINUOUS
 62
     2
 10
1265.516666667
 20
820.5
 30
0.0
 11
1268.75190473
 21
832.574072829
 31
0.0
  0
LINE
  8
0
  6
CONTINUOUS
 62
     2
 10
1265.516666667
 20
820.5
 30
0.0
 11
1262.281428603
 21
832.574072829
 31
0.0
  0
LINE
  8
0
  6
CONTINUOUS
 62
     2
 10
1265.516666667
 20
867.75
 30
0.0
 11
1265.516666667
 21
776.75
 31
0.0
  0
LINE
  8
0
  6
CONTINUOUS
 62
     2
 10
1265.516666667
 20
795.5
 30
0.0
 11
1262.281428603
 21
783.425927171
 31
0.0
  0
LINE
  8
0
  6
CONTINUOUS
 62
     2
 10
1265.516666667
 20
795.5
 30
0.0
 11
1268.75190473
 21
783.425927171
 31
0.0
  0
LINE
  8
0
  6
CONTINUOUS
 62
     2
 10
1239.166666667
 20
795.5
 30
0.0
 11
1273.016666667
 21
795.5
 31
0.0
  0
LINE
  8
0
  6
CONTINUOUS
 62
     2
 10
1239.166666667
 20
780.5
 30
0.0
 11
1303.016666667
 21
780.5
 31
0.0
  0
LINE
  8
0
  6
CONTINUOUS
 62
     2
 10
1295.516666667
 20
780.5
 30
0.0
 11
1298.75190473
 21
792.574072829
 31
0.0
  0
LINE
  8
0
  6
CONTINUOUS
 62
     2
 10
1295.516666667
 20
780.5
 30
0.0
 11
1292.281428603
 21
792.574072829
 31
0.0
  0
LINE
  8
0
  6
CONTINUOUS
 62
     2
 10
1295.516666667
 20
780.5
 30
0.0
 11
1295.516666667
 21
835.5
 31
0.0
  0
LINE
  8
0
  6
CONTINUOUS
 62
     2
 10
1295.516666667
 20
835.5
 30
0.0
 11
1292.281428603
 21
823.425927171
 31
0.0
  0
LINE
  8
0
  6
CONTINUOUS
 62
     2
 10
1295.516666667
 20
835.5
 30
0.0
 11
1298.75190473
 21
823.425927171
 31
0.0
  0
LINE
  8
0
  6
CONTINUOUS
 62
     2
 10
1239.166666667
 20
835.5
 30
0.0
 11
1303.016666667
 21
835.5
 31
0.0
  0
LINE
  8
0
  6
CONTINUOUS
 62
     2
 10
1206.666666667
 20
757.5
 30
0.0
 11
1206.666666667
 21
723.0
 31
0.0
  0
LINE
  8
0
  6
CONTINUOUS
 62
     2
 10
1206.666666667
 20
730.5
 30
0.0
 11
1194.592593838
 21
733.735238064
 31
0.0
  0
LINE
  8
0
  6
CONTINUOUS
 62
     2
 10
1206.666666667
 20
730.5
 30
0.0
 11
1194.592593838
 21
727.264761936
 31
0.0
  0
LINE
  8
0
  6
CONTINUOUS
 62
     2
 10
1206.666666667
 20
730.5
 30
0.0
 11
1171.666666667
 21
730.5
 31
0.0
  0
LINE
  8
0
  6
CONTINUOUS
 62
     2
 10
1171.666666667
 20
788.0
 30
0.0
 11
1171.666666667
 21
723.0
 31
0.0
  0
LINE
  8
0
  6
CONTINUOUS
 62
     2
 10
1171.666666667
 20
730.5
 30
0.0
 11
1183.740739495
 21
727.264761936
 31
0.0
  0
LINE
  8
0
  6
CONTINUOUS
 62
     2
 10
1171.666666667
 20
730.5
 30
0.0
 11
1183.740739495
 21
733.735238064
 31
0.0
  0
LINE
  8
0
  6
CONTINUOUS
 62
     2
 10
1156.666666667
 20
730.5
 30
0.0
 11
1144.592593838
 21
733.735238064
 31
0.0
  0
LINE
  8
0
  6
CONTINUOUS
 62
     2
 10
1156.666666667
 20
730.5
 30
0.0
 11
1144.592593838
 21
727.264761936
 31
0.0
  0
LINE
  8
0
  6
CONTINUOUS
 62
     2
 10
1156.666666667
 20
755.5
 30
0.0
 11
1156.666666667
 21
723.0
 31
0.0
  0
LINE
  8
0
  6
CONTINUOUS
 62
     2
 10
1171.666666667
 20
730.5
 30
0.0
 11
1109.416666667
 21
730.5
 31
0.0
  0
LINE
  8
0
  6
CONTINUOUS
 62
     1
 10
1156.666666667
 20
578.0
 30
0.0
 11
1223.666666667
 21
578.0
 31
0.0
  0
ARC
  8
0
  6
CONTINUOUS
 62
     1
 10
1223.666666667
 20
586.0
 30
0.0
 40
8.0
 50
270.0
 51
0.0
  0
LINE
  8
0
  6
CONTINUOUS
 62
     1
 10
1156.666666667
 20
628.0
 30
0.0
 11
1223.666666667
 21
628.0
 31
0.0
  0
LINE
  8
0
  6
CONTINUOUS
 62
     1
 10
1231.666666667
 20
586.0
 30
0.0
 11
1231.666666667
 21
620.0
 31
0.0
  0
ARC
  8
0
  6
CONTINUOUS
 62
     1
 10
1223.666666667
 20
620.0
 30
0.0
 40
8.0
 50
0.0
 51
90.0
  0
CIRCLE
  8
0
  6
CONTINUOUS
 62
     1
 10
1206.666666667
 20
603.0
 30
0.0
 40
12.5
  0
CIRCLE
  8
0
  6
CONTINUOUS
 62
     1
 10
1206.666666667
 20
603.0
 30
0.0
 40
22.0
  0
CIRCLE
  8
0
  6
CONTINUOUS
 62
     1
 10
1206.666666667
 20
618.5
 30
0.0
 40
3.0
  0
LINE
  8
0
  6
CONTINUOUS
 62
     1
 10
1202.466666667
 20
586.2
 30
0.0
 11
1204.466666667
 21
585.9
 31
0.0
  0
LINE
  8
0
  6
CONTINUOUS
 62
     1
 10
1204.966666667
 20
590.6
 30
0.0
 11
1204.731282051
 21
589.030769231
 31
0.0
  0
LINE
  8
0
  6
CONTINUOUS
 62
     1
 10
1204.731282051
 20
589.030769231
 30
0.0
 11
1202.466666667
 21
586.2
 31
0.0
  0
LINE
  8
0
  6
CONTINUOUS
 62
     1
 10
1206.666666667
 20
588.6
 30
0.0
 11
1204.466666667
 21
585.9
 31
0.0
  0
LINE
  8
0
  6
CONTINUOUS
 62
     1
 10
1210.866666667
 20
586.2
 30
0.0
 11
1208.866666667
 21
585.9
 31
0.0
  0
LINE
  8
0
  6
CONTINUOUS
 62
     1
 10
1208.366666667
 20
590.6
 30
0.0
 11
1208.602051282
 21
589.030769231
 31
0.0
  0
LINE
  8
0
  6
CONTINUOUS
 62
     1
 10
1208.602051282
 20
589.030769231
 30
0.0
 11
1210.866666667
 21
586.2
 31
0.0
  0
LINE
  8
0
  6
CONTINUOUS
 62
     1
 10
1206.666666667
 20
588.6
 30
0.0
 11
1208.866666667
 21
585.9
 31
0.0
  0
LINE
  8
0
  6
LTYPE5
 62
     2
 10
1206.666666667
 20
578.0
 30
0.0
 11
1206.666666667
 21
628.0
 31
0.0
  0
LINE
  8
0
  6
LTYPE1
 62
     2
 10
1171.666666667
 20
578.0
 30
0.0
 11
1171.666666667
 21
628.0
 31
0.0
  0
LINE
  8
0
  6
CONTINUOUS
 62
     2
 10
1223.666666667
 20
578.0
 30
0.0
 11
1287.166666667
 21
578.0
 31
0.0
  0
LINE
  8
0
  6
CONTINUOUS
 62
     2
 10
1279.666666667
 20
578.0
 30
0.0
 11
1282.90190473
 21
590.074072829
 31
0.0
  0
LINE
  8
0
  6
CONTINUOUS
 62
     2
 10
1279.666666667
 20
578.0
 30
0.0
 11
1276.431428603
 21
590.074072829
 31
0.0
  0
LINE
  8
0
  6
CONTINUOUS
 62
     2
 10
1279.666666667
 20
578.0
 30
0.0
 11
1279.666666667
 21
628.0
 31
0.0
  0
LINE
  8
0
  6
CONTINUOUS
 62
     2
 10
1279.666666667
 20
628.0
 30
0.0
 11
1276.431428603
 21
615.925927171
 31
0.0
  0
LINE
  8
0
  6
CONTINUOUS
 62
     2
 10
1279.666666667
 20
628.0
 30
0.0
 11
1282.90190473
 21
615.925927171
 31
0.0
  0
LINE
  8
0
  6
CONTINUOUS
 62
     2
 10
1223.666666667
 20
628.0
 30
0.0
 11
1287.166666667
 21
628.0
 31
0.0
  0
LINE
  8
0
  6
CONTINUOUS
 62
     2
 10
1156.666666667
 20
578.0
 30
0.0
 11
1156.666666667
 21
401.0625
 31
0.0
  0
LINE
  8
0
  6
CONTINUOUS
 62
     2
 10
1206.666666667
 20
578.0
 30
0.0
 11
1206.666666667
 21
417.8375
 31
0.0
  0
LINE
  8
0
  6
CONTINUOUS
 62
     2
 10
1210.606676122
 20
613.2875
 30
0.0
 11
1216.889317791
 21
624.093906139
 31
0.0
  0
LINE
  8
0
  6
CONTINUOUS
 62
     2
 10
1210.606676122
 20
613.2875
 30
0.0
 11
1210.644400341
 21
625.787443075
 31
0.0
  0
LINE
  8
0
  6
CONTINUOUS
 62
     2
 10
1210.606676122
 20
613.2875
 30
0.0
 11
1226.606676122
 21
672.2875
 31
0.0
  0
TEXT
  8
0
  6
CONTINUOUS
 62
     2
 10
1185.306676122
 20
655.1875
 30
1.5
 40
15.0
  1
ｄ９
 50
0.0
 41
0.9
 51
0.0
  7
KANJI46
  0
LINE
  8
0
  6
CONTINUOUS
 62
     2
 10
1154.106676122
 20
672.2875
 30
0.0
 11
1226.606676122
 21
672.2875
 31
0.0
  0
LINE
  8
0
  6
CONTINUOUS
 62
     1
 10
1307.306676122
 20
560.85
 30
0.0
 11
1307.306676122
 21
533.15
 31
0.0
  0
ARC
  8
0
  6
CONTINUOUS
 62
     1
 10
1317.306676122
 20
523.3
 30
0.0
 40
10.0
 50
180.0
 51
214.508522988
  0
LINE
  8
0
  6
CONTINUOUS
 62
     1
 10
1337.306676122
 20
584.0
 30
0.0
 11
1368.766666667
 21
580.217241013
 31
0.0
  0
LINE
  8
0
  6
CONTINUOUS
 62
     1
 10
1154.166666667
 20
642.15
 30
0.0
 11
1144.166666667
 21
642.15
 31
0.0
  0
LINE
  8
0
  6
CONTINUOUS
 62
     1
 10
1154.166666667
 20
640.15
 30
0.0
 11
1154.166666667
 21
642.15
 31
0.0
  0
LINE
  8
0
  6
CONTINUOUS
 62
     1
 10
1144.166666667
 20
640.15
 30
0.0
 11
1144.166666667
 21
642.15
 31
0.0
  0
LINE
  8
0
  6
CONTINUOUS
 62
     1
 10
1154.166666667
 20
567.85
 30
0.0
 11
1144.166666667
 21
567.85
 31
0.0
  0
LINE
  8
0
  6
CONTINUOUS
 62
     1
 10
1154.166666667
 20
569.85
 30
0.0
 11
1154.166666667
 21
567.85
 31
0.0
  0
LINE
  8
0
  6
CONTINUOUS
 62
     1
 10
1144.166666667
 20
569.85
 30
0.0
 11
1144.166666667
 21
567.85
 31
0.0
  0
LINE
  8
0
  6
CONTINUOUS
 62
     1
 10
1156.666666667
 20
640.15
 30
0.0
 11
1141.666666667
 21
640.15
 31
0.0
  0
LINE
  8
0
  6
CONTINUOUS
 62
     1
 10
1156.666666667
 20
569.85
 30
0.0
 11
1156.666666667
 21
640.15
 31
0.0
  0
LINE
  8
0
  6
CONTINUOUS
 62
     1
 10
1156.666666667
 20
569.85
 30
0.0
 11
1141.666666667
 21
569.85
 31
0.0
  0
LINE
  8
0
  6
CONTINUOUS
 62
     1
 10
1341.313255354
 20
765.3
 30
0.0
 11
1317.306676122
 21
765.3
 31
0.0
  0
LINE
  8
0
  6
CONTINUOUS
 62
     2
 10
1340.306676122
 20
526.5
 30
0.0
 11
1340.306676122
 21
433.875
 31
0.0
  0
LINE
  8
0
  6
CONTINUOUS
 62
     2
 10
1337.306676122
 20
576.5
 30
0.0
 11
1337.306676122
 21
395.775
 31
0.0
  0
LINE
  8
2
  6
CONTINUOUS
 62
     2
 10
1307.306676122
 20
518.300015259
 30
0.0
 11
1307.306676122
 21
468.5
 31
0.0
  0
LINE
  8
2
  6
CONTINUOUS
 62
     2
 10
1307.306676122
 20
473.5
 30
0.0
 11
1295.232603293
 21
476.735238064
 31
0.0
  0
LINE
  8
2
  6
CONTINUOUS
 62
     2
 10
1307.306676122
 20
473.5
 30
0.0
 11
1295.232603293
 21
470.264761936
 31
0.0
  0
LINE
  8
2
  6
CONTINUOUS
 62
     2
 10
1307.306676122
 20
473.5
 30
0.0
 11
1247.306676122
 21
473.5
 31
0.0
  0
LINE
  8
2
  6
CONTINUOUS
 62
     2
 10
1247.306676122
 20
473.5
 30
0.0
 11
1259.38074895
 21
470.264761936
 31
0.0
  0
LINE
  8
2
  6
CONTINUOUS
 62
     2
 10
1247.306676122
 20
473.5
 30
0.0
 11
1259.38074895
 21
476.735238064
 31
0.0
  0
LINE
  8
2
  6
CONTINUOUS
 62
     2
 10
1247.306676122
 20
519.000018688
 30
0.0
 11
1247.306676122
 21
468.5
 31
0.0
  0
LINE
  8
0
  6
CONTINUOUS
 62
     1
 10
1444.806676122
 20
630.0
 30
0.0
 11
1429.806676122
 21
630.0
 31
0.0
  0
LINE
  8
0
  6
CONTINUOUS
 62
     1
 10
1449.306676122
 20
583.0
 30
0.0
 11
1449.306676122
 21
627.0
 31
0.0
  0
LINE
  8
0
  6
CONTINUOUS
 62
     1
 10
1455.306676122
 20
592.5
 30
0.0
 11
1455.306676122
 21
617.5
 31
0.0
  0
LINE
  8
0
  6
CONTINUOUS
 62
     1
 10
1455.306676122
 20
617.5
 30
0.0
 11
1449.306676122
 21
617.5
 31
0.0
  0
LINE
  8
0
  6
CONTINUOUS
 62
     1
 10
1455.306676122
 20
592.5
 30
0.0
 11
1449.306676122
 21
592.5
 31
0.0
  0
LINE
  8
0
  6
CONTINUOUS
 62
     1
 10
1449.306676122
 20
627.0
 30
0.0
 11
1444.806676122
 21
627.0
 31
0.0
  0
LINE
  8
0
  6
CONTINUOUS
 62
     1
 10
1449.306676122
 20
583.0
 30
0.0
 11
1444.806676122
 21
583.0
 31
0.0
  0
CIRCLE
  8
0
  6
CONTINUOUS
 62
     1
 10
1451.306676122
 20
605.0
 30
0.0
 40
2.0
  0
LINE
  8
0
  6
CONTINUOUS
 62
     1
 10
1385.306676122
 20
583.0
 30
0.0
 11
1385.306676122
 21
627.0
 31
0.0
  0
LINE
  8
0
  6
CONTINUOUS
 62
     1
 10
1379.306676122
 20
592.5
 30
0.0
 11
1379.306676122
 21
617.5
 31
0.0
  0
LINE
  8
0
  6
CONTINUOUS
 62
     1
 10
1379.306676122
 20
617.5
 30
0.0
 11
1385.306676122
 21
617.5
 31
0.0
  0
LINE
  8
0
  6
CONTINUOUS
 62
     1
 10
1379.306676122
 20
592.5
 30
0.0
 11
1385.306676122
 21
592.5
 31
0.0
  0
LINE
  8
0
  6
CONTINUOUS
 62
     1
 10
1385.306676122
 20
627.0
 30
0.0
 11
1389.806676122
 21
627.0
 31
0.0
  0
LINE
  8
0
  6
CONTINUOUS
 62
     1
 10
1385.306676122
 20
583.0
 30
0.0
 11
1389.806676122
 21
583.0
 31
0.0
  0
CIRCLE
  8
0
  6
CONTINUOUS
 62
     1
 10
1383.306676122
 20
605.0
 30
0.0
 40
2.0
  0
LINE
  8
0
  6
CONTINUOUS
 62
     1
 10
1404.806676122
 20
592.5
 30
0.0
 11
1429.806676122
 21
592.5
 31
0.0
  0
LINE
  8
0
  6
CONTINUOUS
 62
     1
 10
1404.806676122
 20
617.5
 30
0.0
 11
1429.806676122
 21
617.5
 31
0.0
  0
LINE
  8
0
  6
CONTINUOUS
 62
     1
 10
1389.806676122
 20
630.0
 30
0.0
 11
1429.806676122
 21
630.0
 31
0.0
  0
LINE
  8
0
  6
CONTINUOUS
 62
     1
 10
1444.806676122
 20
580.0
 30
0.0
 11
1444.806676122
 21
630.0
 31
0.0
  0
LINE
  8
0
  6
CONTINUOUS
 62
     1
 10
1389.806676122
 20
580.0
 30
0.0
 11
1444.806676122
 21
580.0
 31
0.0
  0
LINE
  8
0
  6
CONTINUOUS
 62
     1
 10
1429.806676122
 20
580.0
 30
0.0
 11
1429.806676122
 21
630.0
 31
0.0
  0
LINE
  8
0
  6
CONTINUOUS
 62
     1
 10
1404.806676122
 20
580.0
 30
0.0
 11
1404.806676122
 21
630.0
 31
0.0
  0
LINE
  8
0
  6
CONTINUOUS
 62
     1
 10
1389.806676122
 20
580.0
 30
0.0
 11
1389.806676122
 21
630.0
 31
0.0
  0
LINE
  8
0
  6
CONTINUOUS
 62
     1
 10
1497.306676122
 20
584.0
 30
0.0
 11
1464.039961904
 21
580.0
 31
0.0
  0
LINE
  8
0
  6
CONTINUOUS
 62
     1
 10
1497.306676122
 20
584.0
 30
0.0
 11
1497.306676122
 21
626.0
 31
0.0
  0
LINE
  8
0
  6
CONTINUOUS
 62
     1
 10
1497.306676122
 20
626.0
 30
0.0
 11
1464.039961904
 21
630.0
 31
0.0
  0
ARC
  8
0
  6
CONTINUOUS
 62
     1
 10
1369.306676122
 20
542.5
 30
0.0
 40
3.0
 50
90.0
 51
180.0
  0
LINE
  8
0
  6
CONTINUOUS
 62
     1
 10
1366.306676122
 20
496.0
 30
0.0
 11
1366.306676122
 21
542.5
 31
0.0
  0
ARC
  8
0
  6
CONTINUOUS
 62
     1
 10
1367.306676122
 20
496.0
 30
0.0
 40
1.0
 50
180.0
 51
270.0
  0
ARC
  8
0
  6
CONTINUOUS
 62
     1
 10
1370.306676122
 20
495.0
 30
0.0
 40
1.0
 50
180.0
 51
270.0
  0
ARC
  8
0
  6
CONTINUOUS
 62
     1
 10
1465.306676122
 20
542.5
 30
0.0
 40
3.0
 50
0.0
 51
90.0
  0
LINE
  8
0
  6
CONTINUOUS
 62
     1
 10
1468.306676122
 20
496.0
 30
0.0
 11
1468.306676122
 21
542.5
 31
0.0
  0
ARC
  8
0
  6
CONTINUOUS
 62
     1
 10
1467.306676122
 20
496.0
 30
0.0
 40
1.0
 50
270.0
 51
0.0
  0
ARC
  8
0
  6
CONTINUOUS
 62
     1
 10
1464.306676122
 20
495.0
 30
0.0
 40
1.0
 50
270.0
 51
0.0
  0
LINE
  8
0
  6
CONTINUOUS
 62
     1
 10
1468.306676122
 20
501.0
 30
0.0
 11
1366.306676122
 21
501.0
 31
0.0
  0
LINE
  8
0
  6
CONTINUOUS
 62
     1
 10
1468.306676122
 20
502.5
 30
0.0
 11
1366.306676122
 21
502.5
 31
0.0
  0
LINE
  8
0
  6
CONTINUOUS
 62
     1
 10
1369.306676122
 20
545.5
 30
0.0
 11
1465.306676122
 21
545.5
 31
0.0
  0
LINE
  8
0
  6
CONTINUOUS
 62
     1
 10
1464.306676122
 20
494.0
 30
0.0
 11
1370.306676122
 21
494.0
 31
0.0
  0
LINE
  8
0
  6
CONTINUOUS
 62
     1
 10
1467.306676122
 20
495.0
 30
0.0
 11
1367.306676122
 21
495.0
 31
0.0
  0
LINE
  8
0
  6
CONTINUOUS
 62
     1
 10
1462.306676122
 20
545.5
 30
0.0
 11
1462.306676122
 21
577.0
 31
0.0
  0
LINE
  8
0
  6
CONTINUOUS
 62
     1
 10
1372.306676122
 20
547.0
 30
0.0
 11
1462.306676122
 21
547.0
 31
0.0
  0
ARC
  8
0
  6
CONTINUOUS
 62
     1
 10
1471.306676122
 20
659.0
 30
0.0
 40
5.0
 50
0.0
 51
90.0
  0
CIRCLE
  8
0
  6
CONTINUOUS
 62
     1
 10
1464.306676122
 20
652.0
 30
0.0
 40
9.0
  0
ARC
  8
0
  6
CONTINUOUS
 62
     1
 10
1471.306676122
 20
551.0
 30
0.0
 40
5.0
 50
270.0
 51
360.0
  0
ARC
  8
0
  6
CONTINUOUS
 62
     1
 10
1363.306676122
 20
551.0
 30
0.0
 40
5.0
 50
180.0
 51
270.0
  0
LINE
  8
0
  6
CONTINUOUS
 62
     1
 10
1358.306676122
 20
581.474953509
 30
0.0
 11
1358.306676122
 21
551.0
 31
0.0
  0
LINE
  8
0
  6
CONTINUOUS
 62
     1
 10
1476.306676122
 20
628.525046491
 30
0.0
 11
1476.306676122
 21
659.0
 31
0.0
  0
LINE
  8
0
  6
CONTINUOUS
 62
     1
 10
1476.306676122
 20
581.474953509
 30
0.0
 11
1476.306676122
 21
551.0
 31
0.0
  0
LINE
  8
0
  6
CONTINUOUS
 62
     1
 10
1462.306676122
 20
546.0
 30
0.0
 11
1471.306676122
 21
546.0
 31
0.0
  0
LINE
  8
0
  6
CONTINUOUS
 62
     1
 10
1372.306676122
 20
546.0
 30
0.0
 11
1363.306676122
 21
546.0
 31
0.0
  0
ARC
  8
0
  6
CONTINUOUS
 62
     1
 10
1370.306676122
 20
558.0
 30
0.0
 40
9.0
 50
77.327684064
 51
282.116861929
  0
ARC
  8
0
  6
CONTINUOUS
 62
     1
 10
1464.306676122
 20
558.0
 30
0.0
 40
9.0
 50
257.883138071
 51
102.672315936
  0
ARC
  8
0
  6
CONTINUOUS
 62
     1
 10
1488.306676122
 20
534.0
 30
0.0
 40
6.0
 50
270.0
 51
0.0
  0
LINE
  8
0
  6
CONTINUOUS
 62
     1
 10
1468.306676122
 20
528.0
 30
0.0
 11
1488.306676122
 21
528.0
 31
0.0
  0
LINE
  8
0
  6
CONTINUOUS
 62
     1
 10
1346.306676122
 20
528.0
 30
0.0
 11
1366.306676122
 21
528.0
 31
0.0
  0
LINE
  8
0
  6
CONTINUOUS
 62
     1
 10
1494.306676122
 20
534.0
 30
0.0
 11
1494.306676122
 21
583.639279073
 31
0.0
  0
LINE
  8
0
  6
LTYPE5
 62
     2
 10
1451.206676122
 20
601.0
 30
0.0
 11
1451.206676122
 21
609.2
 31
0.0
  0
LINE
  8
0
  6
LTYPE1
 62
     2
 10
1449.306676122
 20
617.5
 30
0.0
 11
1429.806676122
 21
617.5
 31
0.0
  0
LINE
  8
0
  6
LTYPE1
 62
     2
 10
1449.306676122
 20
592.5
 30
0.0
 11
1429.806676122
 21
592.5
 31
0.0
  0
LINE
  8
0
  6
LTYPE5
 62
     2
 10
1383.406676122
 20
601.0
 30
0.0
 11
1383.406676122
 21
609.2
 31
0.0
  0
LINE
  8
0
  6
LTYPE1
 62
     2
 10
1385.306676122
 20
617.5
 30
0.0
 11
1404.806676122
 21
617.5
 31
0.0
  0
LINE
  8
0
  6
LTYPE1
 62
     2
 10
1385.306676122
 20
592.5
 30
0.0
 11
1404.806676122
 21
592.5
 31
0.0
  0
LINE
  8
0
  6
LTYPE1
 62
     2
 10
1362.306676122
 20
595.0
 30
0.0
 11
1362.306676122
 21
615.0
 31
0.0
  0
LINE
  8
0
  6
LTYPE1
 62
     2
 10
1472.306676122
 20
595.0
 30
0.0
 11
1472.306676122
 21
615.0
 31
0.0
  0
LINE
  8
0
  6
LTYPE1
 62
     2
 10
1472.306676122
 20
615.0
 30
0.0
 11
1497.306676122
 21
615.0
 31
0.0
  0
LINE
  8
0
  6
LTYPE1
 62
     2
 10
1472.306676122
 20
595.0
 30
0.0
 11
1497.306676122
 21
595.0
 31
0.0
  0
LINE
  8
0
  6
LTYPE4
 62
     2
 10
1462.306676122
 20
490.3
 30
0.0
 11
1462.306676122
 21
509.0
 31
0.0
  0
LINE
  8
0
  6
LTYPE4
 62
     2
 10
1372.306676122
 20
490.3
 30
0.0
 11
1372.306676122
 21
509.0
 31
0.0
  0
LINE
  8
0
  6
LTYPE4
 62
     2
 10
1382.706676122
 20
652.0
 30
0.0
 11
1358.906676122
 21
652.0
 31
0.0
  0
LINE
  8
0
  6
LTYPE4
 62
     2
 10
1370.306676122
 20
640.665527109
 30
0.0
 11
1370.306676122
 21
662.765527109
 31
0.0
  0
LINE
  8
0
  6
LTYPE4
 62
     2
 10
1451.906676122
 20
652.0
 30
0.0
 11
1475.706676122
 21
652.0
 31
0.0
  0
LINE
  8
0
  6
LTYPE4
 62
     2
 10
1464.306676122
 20
640.665527109
 30
0.0
 11
1464.306676122
 21
662.765527109
 31
0.0
  0
LINE
  8
0
  6
LTYPE4
 62
     2
 10
1451.906676122
 20
558.0
 30
0.0
 11
1475.706676122
 21
558.0
 31
0.0
  0
LINE
  8
0
  6
LTYPE4
 62
     2
 10
1382.706676122
 20
558.0
 30
0.0
 11
1358.906676122
 21
558.0
 31
0.0
  0
LINE
  8
0
  6
LTYPE4
 62
     2
 10
1370.306676122
 20
548.15
 30
0.0
 11
1370.306676122
 21
571.25
 31
0.0
  0
LINE
  8
0
  6
LTYPE4
 62
     2
 10
1451.906676122
 20
558.0
 30
0.0
 11
1475.706676122
 21
558.0
 31
0.0
  0
LINE
  8
0
  6
LTYPE4
 62
     2
 10
1464.306676122
 20
548.15
 30
0.0
 11
1464.306676122
 21
571.25
 31
0.0
  0
LINE
  8
0
  6
LTYPE4
 62
     2
 10
1411.706676122
 20
740.3
 30
0.0
 11
1423.706676122
 21
740.3
 31
0.0
  0
LINE
  8
0
  6
CONTINUOUS
 62
     1
 10
1372.306676122
 20
545.5
 30
0.0
 11
1372.306676122
 21
573.2
 31
0.0
  0
ARC
  8
0
  6
CONTINUOUS
 62
     1
 10
1370.306676122
 20
652.0
 30
0.0
 40
9.0
 50
23.286064918
 51
152.850318302
  0
LINE
  8
0
  6
CONTINUOUS
 62
     1
 10
1358.306676122
 20
656.2
 30
0.0
 11
1358.306676122
 21
659.0
 31
0.0
  0
LINE
  8
0
  6
CONTINUOUS
 62
     2
 10
1471.806676122
 20
494.0
 30
0.0
 11
1583.706676122
 21
494.0
 31
0.0
  0
LINE
  8
0
  6
CONTINUOUS
 62
     1
 10
1358.306676122
 20
628.525046491
 30
0.0
 11
1358.306676122
 21
656.2
 31
0.0
  0
ARC
  8
0
  6
CONTINUOUS
 62
     1
 10
1370.306676122
 20
652.0
 30
0.0
 40
9.0
 50
152.850318302
 51
0.0
  0
ARC
  8
0
  6
CONTINUOUS
 62
     1
 10
1370.306676122
 20
652.0
 30
0.0
 40
9.0
 50
0.0
 51
23.286064918
  0
LINE
  8
0
  6
CONTINUOUS
 62
     2
 10
1504.806676122
 20
615.0
 30
0.0
 11
1570.256676122
 21
615.0
 31
0.0
  0
LINE
  8
0
  6
CONTINUOUS
 62
     2
 10
1504.806676122
 20
595.0
 30
0.0
 11
1571.756676122
 21
595.0
 31
0.0
  0
ARC
  8
0
  6
CONTINUOUS
 62
     1
 10
1517.306676122
 20
755.3
 30
0.0
 40
10.0
 50
0.0
 51
90.0
  0
LINE
  8
0
  6
CONTINUOUS
 62
     1
 10
1468.306676122
 20
513.3
 30
0.0
 11
1517.306676122
 21
513.3
 31
0.0
  0
ARC
  8
0
  6
CONTINUOUS
 62
     1
 10
1517.306676122
 20
523.3
 30
0.0
 40
10.0
 50
270.0
 51
0.0
  0
CIRCLE
  8
0
  6
LTYPE1
 62
     2
 10
1417.306676122
 20
519.5
 30
0.0
 40
10.4775
  0
CIRCLE
  8
0
  6
LTYPE1
 62
     2
 10
1417.306676122
 20
519.5
 30
0.0
 40
9.3155
  0
LINE
  8
0
  6
LTYPE2
 62
     2
 10
1437.206676122
 20
519.5
 30
0.0
 11
1396.506676122
 21
519.5
 31
0.0
  0
LINE
  8
0
  6
CONTINUOUS
 62
     1
 10
1343.306676122
 20
518.0
 30
0.0
 11
1366.306676122
 21
518.0
 31
0.0
  0
CIRCLE
  8
0
  6
CONTINUOUS
 62
     1
 10
1417.306676122
 20
605.0
 30
0.0
 40
55.0
  0
LINE
  8
0
  6
LTYPE4
 62
     2
 10
1417.306676122
 20
855.3
 30
0.0
 11
1417.306676122
 21
786.3
 31
0.0
  0
LINE
  8
0
  6
CONTINUOUS
 62
     1
 10
1493.30009689
 20
765.3
 30
0.0
 11
1517.306676122
 21
765.3
 31
0.0
  0
LINE
  8
0
  6
CONTINUOUS
 62
     2
 10
1497.306676122
 20
576.5
 30
0.0
 11
1497.306676122
 21
395.775
 31
0.0
  0
LINE
  8
0
  6
CONTINUOUS
 62
     2
 10
1494.306676122
 20
526.5
 30
0.0
 11
1494.306676122
 21
433.875
 31
0.0
  0
LINE
  8
0
  6
LTYPE4
 62
     2
 10
1417.306676122
 20
855.3
 30
0.0
 11
1417.306676122
 21
486.5
 31
0.0
  0
TEXT
  8
0
  6
CONTINUOUS
 62
     2
 10
1125.416666667
 20
735.5
 30
0.0
 40
18.0
  1
１５
 50
0.0
 41
0.9
 51
0.0
  7
KANJI31
  0
TEXT
  8
0
  6
CONTINUOUS
 62
     2
 10
1174.916666667
 20
735.5
 30
0.0
 40
18.0
  1
３５
 50
0.0
 41
0.9
 51
0.0
  7
KANJI31
  0
TEXT
  8
0
  6
CONTINUOUS
 62
     2
 10
1290.516666667
 20
793.75
 30
0.0
 40
18.0
  1
５５
 50
90.0
 41
0.9
 51
0.0
  7
KANJI31
  0
TEXT
  8
0
  6
CONTINUOUS
 62
     2
 10
1274.666666667
 20
589.25
 30
0.0
 40
18.0
  1
５０
 50
90.0
 41
0.9
 51
0.0
  7
KANJI31
  0
TEXT
  8
2
  6
CONTINUOUS
 62
     2
 10
1261.556676122
 20
478.5
 30
0.0
 40
18.0
  1
６０
 50
0.0
 41
0.9
 51
0.0
  7
KANJI31
  0
LINE
  8
2
  6
CONTINUOUS
 62
     2
 10
1206.666666667
 20
733.5
 30
0.0
 11
1206.666666667
 21
724.5
 31
0.0
  0
LINE
  8
2
  6
CONTINUOUS
 62
     2
 10
1206.666666667
 20
730.5
 30
0.0
 11
1192.177779272
 21
734.382285677
 31
0.0
  0
LINE
  8
2
  6
CONTINUOUS
 62
     2
 10
1206.666666667
 20
730.5
 30
0.0
 11
1192.177779272
 21
726.617714323
 31
0.0
  0
LINE
  8
2
  6
CONTINUOUS
 62
     2
 10
1184.166666667
 20
730.5
 30
0.0
 11
1206.666666667
 21
730.5
 31
0.0
  0
LINE
  8
2
  6
CONTINUOUS
 62
     2
 10
1206.666666667
 20
730.5
 30
0.0
 11
1231.666666667
 21
730.5
 31
0.0
  0
LINE
  8
2
  6
CONTINUOUS
 62
     2
 10
1231.666666667
 20
730.5
 30
0.0
 11
1286.566666667
 21
730.5
 31
0.0
  0
LINE
  8
2
  6
CONTINUOUS
 62
     2
 10
1231.666666667
 20
730.5
 30
0.0
 11
1246.155554061
 21
726.617714323
 31
0.0
  0
LINE
  8
2
  6
CONTINUOUS
 62
     2
 10
1231.666666667
 20
730.5
 30
0.0
 11
1246.155554061
 21
734.382285677
 31
0.0
  0
LINE
  8
2
  6
CONTINUOUS
 62
     2
 10
1231.666666667
 20
774.5
 30
0.0
 11
1231.666666667
 21
724.5
 31
0.0
  0
TEXT
  8
2
  6
CONTINUOUS
 62
     3
 10
1254.166666667
 20
736.5
 30
0.0
 40
18.0
  1
２５
 50
0.0
 41
0.9
 51
0.0
  7
KANJI31
  0
LINE
  8
0
  6
LTYPE2
 62
     2
 10
1327.606676122
 20
740.3
 30
0.0
 11
1531.666666667
 21
740.3
 31
0.0
  0
ARC
  8
0
  6
CONTINUOUS
 62
     1
 10
1363.306676122
 20
659.0
 30
0.0
 40
5.0
 50
90.0
 51
180.0
  0
LINE
  8
0
  6
CONTINUOUS
 62
     1
 10
1363.306676122
 20
664.0
 30
0.0
 11
1471.306676122
 21
664.0
 31
0.0
  0
LINE
  8
0
  6
CONTINUOUS
 62
     1
 10
1356.306676122
 20
684.3
 30
0.0
 11
1356.306676122
 21
796.3
 31
0.0
  0
ARC
  8
0
  6
CONTINUOUS
 62
     1
 10
1361.306676122
 20
684.3
 30
0.0
 40
5.0
 50
180.0
 51
270.0
  0
LINE
  8
0
  6
CONTINUOUS
 62
     1
 10
1361.306676122
 20
679.3
 30
0.0
 11
1473.306676122
 21
679.3
 31
0.0
  0
CIRCLE
  8
0
  6
CONTINUOUS
 62
     1
 10
1417.306676122
 20
740.3
 30
0.0
 40
57.0
  0
CIRCLE
  8
0
  6
CONTINUOUS
 62
     1
 10
1417.306676122
 20
740.3
 30
0.0
 40
42.0
  0
CIRCLE
  8
0
  6
CONTINUOUS
 62
     1
 10
1417.306676122
 20
740.3
 30
0.0
 40
36.5
  0
CIRCLE
  8
0
  6
CONTINUOUS
 62
     1
 10
1417.306676122
 20
740.3
 30
0.0
 40
15.5
  0
LINE
  8
0
  6
CONTINUOUS
 62
     1
 10
1412.353845933
 20
723.515499021
 30
0.0
 11
1387.976487442
 21
730.708856583
 31
0.0
  0
ARC
  8
0
  6
CONTINUOUS
 62
     1
 10
1390.806676122
 20
740.3
 30
0.0
 40
10.0
 50
180.0
 51
330.0
  0
LINE
  8
0
  6
CONTINUOUS
 62
     1
 10
1402.635275371
 20
735.3
 30
0.0
 11
1399.46693016
 21
735.3
 31
0.0
  0
ARC
  8
0
  6
LTYPE2
 62
     2
 10
1417.306676122
 20
740.3
 30
0.0
 40
26.5
 50
165.284928349
 51
194.036243468
  0
ARC
  8
0
  6
CONTINUOUS
 62
     1
 10
1417.306676122
 20
740.3
 30
0.0
 40
17.5
 50
196.601549599
 51
343.398450401
  0
ARC
  8
0
  6
LTYPE2
 62
     2
 10
1417.306676122
 20
740.3
 30
0.0
 40
25.0
 50
245.376435214
 51
296.565051177
  0
ARC
  8
0
  6
LTYPE2
 62
     2
 10
1417.306676122
 20
740.3
 30
0.0
 40
51.0
 50
217.303948278
 51
235.097504384
  0
LINE
  8
0
  6
LTYPE2
 62
     2
 10
1385.306676122
 20
708.3
 30
0.0
 11
1376.306676122
 21
699.3
 31
0.0
  0
LINE
  8
0
  6
LTYPE2
 62
     2
 10
1375.306676122
 20
689.3
 30
0.0
 11
1358.306676122
 21
689.3
 31
0.0
  0
LINE
  8
0
  6
LTYPE2
 62
     2
 10
1366.306676122
 20
681.3
 30
0.0
 11
1366.306676122
 21
697.8
 31
0.0
  0
CIRCLE
  8
0
  6
CONTINUOUS
 62
     6
 10
1417.306676122
 20
715.3
 30
0.0
 40
3.999998
  0
LINE
  8
0
  6
CONTINUOUS
 62
     6
 10
1413.306678122
 20
712.9941188
 30
0.0
 11
1413.306678122
 21
717.6058812
 31
0.0
  0
LINE
  8
0
  6
CONTINUOUS
 62
     6
 10
1413.306678122
 20
717.6058812
 30
0.0
 11
1417.306676122
 21
719.9117624
 31
0.0
  0
LINE
  8
0
  6
CONTINUOUS
 62
     6
 10
1413.306678122
 20
712.9941188
 30
0.0
 11
1417.306676122
 21
710.6882376
 31
0.0
  0
CIRCLE
  8
0
  6
CONTINUOUS
 62
     6
 10
1390.806676122
 20
740.3
 30
0.0
 40
3.5
  0
LINE
  8
0
  6
CONTINUOUS
 62
     6
 10
1394.314079007
 20
738.275
 30
0.0
 11
1390.806676122
 21
736.25
 31
0.0
  0
LINE
  8
0
  6
CONTINUOUS
 62
     6
 10
1390.806676122
 20
736.25
 30
0.0
 11
1387.299273236
 21
738.275
 31
0.0
  0
LINE
  8
0
  6
CONTINUOUS
 62
     6
 10
1378.938349081
 20
700.237556159
 30
0.0
 11
1383.550111481
 21
700.237556159
 31
0.0
  0
LINE
  8
0
  6
CONTINUOUS
 62
     6
 10
1383.550111481
 20
700.237556159
 30
0.0
 11
1385.855992681
 21
704.237554159
 31
0.0
  0
LINE
  8
0
  6
CONTINUOUS
 62
     6
 10
1383.550111481
 20
708.237552159
 30
0.0
 11
1385.855992681
 21
704.237554159
 31
0.0
  0
LINE
  8
0
  6
CONTINUOUS
 62
     6
 10
1378.938349081
 20
708.237552159
 30
0.0
 11
1383.550111481
 21
708.237552159
 31
0.0
  0
LINE
  8
0
  6
CONTINUOUS
 62
     6
 10
1378.938349081
 20
700.237556159
 30
0.0
 11
1376.632467881
 21
704.237554159
 31
0.0
  0
LINE
  8
0
  6
CONTINUOUS
 62
     6
 10
1378.938349081
 20
708.237552159
 30
0.0
 11
1376.632467881
 21
704.237554159
 31
0.0
  0
CIRCLE
  8
0
  6
CONTINUOUS
 62
     6
 10
1381.244230281
 20
704.237554159
 30
0.0
 40
3.999998
  0
LINE
  8
0
  6
CONTINUOUS
 62
     6
 10
1372.806626122
 20
685.55297
 30
0.0
 11
1372.806626122
 21
693.04703
 31
0.0
  0
LINE
  8
0
  6
CONTINUOUS
 62
     6
 10
1372.806626122
 20
693.04703
 30
0.0
 11
1366.306676122
 21
696.79406
 31
0.0
  0
LINE
  8
0
  6
CONTINUOUS
 62
     6
 10
1359.806726122
 20
685.55297
 30
0.0
 11
1366.306676122
 21
681.80594
 31
0.0
  0
LINE
  8
0
  6
CONTINUOUS
 62
     6
 10
1372.806626122
 20
685.55297
 30
0.0
 11
1366.306676122
 21
681.80594
 31
0.0
  0
LINE
  8
0
  6
CONTINUOUS
 62
     6
 10
1359.806726122
 20
693.04703
 30
0.0
 11
1366.306676122
 21
696.79406
 31
0.0
  0
LINE
  8
0
  6
CONTINUOUS
 62
     6
 10
1359.806726122
 20
685.55297
 30
0.0
 11
1359.806726122
 21
693.04703
 31
0.0
  0
CIRCLE
  8
0
  6
CONTINUOUS
 62
     6
 10
1366.306676122
 20
689.3
 30
0.0
 40
6.49995
  0
LINE
  8
0
  6
CONTINUOUS
 62
     1
 10
1478.306676122
 20
684.3
 30
0.0
 11
1478.306676122
 21
796.3
 31
0.0
  0
ARC
  8
0
  6
CONTINUOUS
 62
     1
 10
1473.306676122
 20
684.3
 30
0.0
 40
5.0
 50
270.0
 51
0.0
  0
LINE
  8
0
  6
CONTINUOUS
 62
     1
 10
1422.25950631
 20
723.515499021
 30
0.0
 11
1446.636864801
 21
730.708856583
 31
0.0
  0
ARC
  8
0
  6
CONTINUOUS
 62
     1
 10
1443.806676122
 20
740.3
 30
0.0
 40
10.0
 50
210.0
 51
0.0
  0
LINE
  8
0
  6
CONTINUOUS
 62
     1
 10
1431.978076873
 20
735.3
 30
0.0
 11
1435.146422084
 21
735.3
 31
0.0
  0
ARC
  8
0
  6
LTYPE2
 62
     2
 10
1417.306676122
 20
740.3
 30
0.0
 40
26.5
 50
345.963756532
 51
14.715071651
  0
ARC
  8
0
  6
LTYPE2
 62
     2
 10
1417.306676122
 20
740.3
 30
0.0
 40
51.0
 50
307.303948278
 51
325.097504384
  0
LINE
  8
0
  6
LTYPE2
 62
     2
 10
1449.306676122
 20
708.3
 30
0.0
 11
1458.306676122
 21
699.3
 31
0.0
  0
LINE
  8
0
  6
LTYPE2
 62
     2
 10
1459.306676122
 20
689.3
 30
0.0
 11
1476.306676122
 21
689.3
 31
0.0
  0
LINE
  8
0
  6
LTYPE2
 62
     2
 10
1468.306676122
 20
681.3
 30
0.0
 11
1468.306676122
 21
697.8
 31
0.0
  0
LINE
  8
0
  6
CONTINUOUS
 62
     6
 10
1421.306674122
 20
712.9941188
 30
0.0
 11
1421.306674122
 21
717.6058812
 31
0.0
  0
LINE
  8
0
  6
CONTINUOUS
 62
     6
 10
1421.306674122
 20
717.6058812
 30
0.0
 11
1417.306676122
 21
719.9117624
 31
0.0
  0
LINE
  8
0
  6
CONTINUOUS
 62
     6
 10
1421.306674122
 20
712.9941188
 30
0.0
 11
1417.306676122
 21
710.6882376
 31
0.0
  0
CIRCLE
  8
0
  6
CONTINUOUS
 62
     6
 10
1443.806676122
 20
740.3
 30
0.0
 40
3.5
  0
LINE
  8
0
  6
CONTINUOUS
 62
     6
 10
1440.299273236
 20
742.325
 30
0.0
 11
1440.299273236
 21
738.275
 31
0.0
  0
LINE
  8
0
  6
CONTINUOUS
 62
     6
 10
1440.299273236
 20
738.275
 30
0.0
 11
1443.806676122
 21
736.25
 31
0.0
  0
LINE
  8
0
  6
CONTINUOUS
 62
     6
 10
1443.806676122
 20
736.25
 30
0.0
 11
1447.314079007
 21
738.275
 31
0.0
  0
LINE
  8
0
  6
CONTINUOUS
 62
     6
 10
1447.314079007
 20
738.275
 30
0.0
 11
1447.314079007
 21
742.325
 31
0.0
  0
LINE
  8
0
  6
CONTINUOUS
 62
     6
 10
1449.369123962
 20
701.931672959
 30
0.0
 11
1449.369123962
 21
706.543435359
 31
0.0
  0
LINE
  8
0
  6
CONTINUOUS
 62
     6
 10
1457.369119962
 20
706.543435359
 30
0.0
 11
1453.369121962
 21
708.849316559
 31
0.0
  0
LINE
  8
0
  6
CONTINUOUS
 62
     6
 10
1449.369123962
 20
706.543435359
 30
0.0
 11
1453.369121962
 21
708.849316559
 31
0.0
  0
LINE
  8
0
  6
CONTINUOUS
 62
     6
 10
1457.369119962
 20
701.931672959
 30
0.0
 11
1453.369121962
 21
699.625791759
 31
0.0
  0
LINE
  8
0
  6
CONTINUOUS
 62
     6
 10
1449.369123962
 20
701.931672959
 30
0.0
 11
1453.369121962
 21
699.625791759
 31
0.0
  0
LINE
  8
0
  6
CONTINUOUS
 62
     6
 10
1457.369119962
 20
701.931672959
 30
0.0
 11
1457.369119962
 21
706.543435359
 31
0.0
  0
CIRCLE
  8
0
  6
CONTINUOUS
 62
     6
 10
1453.369121962
 20
704.237554159
 30
0.0
 40
3.999998
  0
LINE
  8
0
  6
CONTINUOUS
 62
     6
 10
1461.806726122
 20
685.55297
 30
0.0
 11
1461.806726122
 21
693.04703
 31
0.0
  0
LINE
  8
0
  6
CONTINUOUS
 62
     6
 10
1461.806726122
 20
685.55297
 30
0.0
 11
1468.306676122
 21
681.80594
 31
0.0
  0
LINE
  8
0
  6
CONTINUOUS
 62
     6
 10
1474.806626122
 20
685.55297
 30
0.0
 11
1474.806626122
 21
693.04703
 31
0.0
  0
LINE
  8
0
  6
CONTINUOUS
 62
     6
 10
1474.806626122
 20
685.55297
 30
0.0
 11
1468.306676122
 21
681.80594
 31
0.0
  0
LINE
  8
0
  6
CONTINUOUS
 62
     6
 10
1474.806626122
 20
693.04703
 30
0.0
 11
1468.306676122
 21
696.79406
 31
0.0
  0
LINE
  8
0
  6
CONTINUOUS
 62
     6
 10
1461.806726122
 20
693.04703
 30
0.0
 11
1468.306676122
 21
696.79406
 31
0.0
  0
CIRCLE
  8
0
  6
CONTINUOUS
 62
     6
 10
1468.306676122
 20
689.3
 30
0.0
 40
6.49995
  0
LINE
  8
0
  6
CONTINUOUS
 62
     1
 10
1422.25950631
 20
757.084500979
 30
0.0
 11
1446.636864801
 21
749.891143417
 31
0.0
  0
ARC
  8
0
  6
CONTINUOUS
 62
     1
 10
1443.806676122
 20
740.3
 30
0.0
 40
10.0
 50
0.0
 51
150.0
  0
LINE
  8
0
  6
CONTINUOUS
 62
     1
 10
1431.978076873
 20
745.3
 30
0.0
 11
1435.146422084
 21
745.3
 31
0.0
  0
ARC
  8
0
  6
CONTINUOUS
 62
     1
 10
1417.306676122
 20
740.3
 30
0.0
 40
17.5
 50
16.601549599
 51
163.398450401
  0
ARC
  8
0
  6
LTYPE2
 62
     2
 10
1417.306676122
 20
740.3
 30
0.0
 40
51.0
 50
34.902495616
 51
52.696051722
  0
LINE
  8
0
  6
LTYPE2
 62
     2
 10
1449.306676122
 20
772.3
 30
0.0
 11
1458.306676122
 21
781.3
 31
0.0
  0
ARC
  8
0
  6
LTYPE2
 62
     2
 10
1417.306676122
 20
740.3
 30
0.0
 40
25.0
 50
63.434948823
 51
114.623564786
  0
LINE
  8
0
  6
LTYPE2
 62
     2
 10
1468.306676122
 20
799.3
 30
0.0
 11
1468.306676122
 21
782.8
 31
0.0
  0
CIRCLE
  8
0
  6
CONTINUOUS
 62
     6
 10
1417.306676122
 20
765.3
 30
0.0
 40
3.999998
  0
LINE
  8
0
  6
CONTINUOUS
 62
     6
 10
1421.306674122
 20
767.6058812
 30
0.0
 11
1421.306674122
 21
762.9941188
 31
0.0
  0
LINE
  8
0
  6
CONTINUOUS
 62
     6
 10
1421.306674122
 20
762.9941188
 30
0.0
 11
1417.306676122
 21
760.6882376
 31
0.0
  0
LINE
  8
0
  6
CONTINUOUS
 62
     6
 10
1421.306674122
 20
767.6058812
 30
0.0
 11
1417.306676122
 21
769.9117624
 31
0.0
  0
LINE
  8
0
  6
CONTINUOUS
 62
     6
 10
1447.314079007
 20
742.325
 30
0.0
 11
1443.806676122
 21
744.35
 31
0.0
  0
LINE
  8
0
  6
CONTINUOUS
 62
     6
 10
1443.806676122
 20
744.35
 30
0.0
 11
1440.299273236
 21
742.325
 31
0.0
  0
LINE
  8
0
  6
CONTINUOUS
 62
     6
 10
1457.369119962
 20
778.668327041
 30
0.0
 11
1453.369121962
 21
780.974208241
 31
0.0
  0
LINE
  8
0
  6
CONTINUOUS
 62
     6
 10
1449.369123962
 20
778.668327041
 30
0.0
 11
1453.369121962
 21
780.974208241
 31
0.0
  0
LINE
  8
0
  6
CONTINUOUS
 62
     6
 10
1457.369119962
 20
778.668327041
 30
0.0
 11
1457.369119962
 21
774.056564641
 31
0.0
  0
LINE
  8
0
  6
CONTINUOUS
 62
     6
 10
1457.369119962
 20
774.056564641
 30
0.0
 11
1453.369121962
 21
771.750683441
 31
0.0
  0
LINE
  8
0
  6
CONTINUOUS
 62
     6
 10
1449.369123962
 20
774.056564641
 30
0.0
 11
1453.369121962
 21
771.750683441
 31
0.0
  0
LINE
  8
0
  6
CONTINUOUS
 62
     6
 10
1449.369123962
 20
778.668327041
 30
0.0
 11
1449.369123962
 21
774.056564641
 31
0.0
  0
CIRCLE
  8
0
  6
CONTINUOUS
 62
     6
 10
1453.369121962
 20
776.362445841
 30
0.0
 40
3.999998
  0
LINE
  8
0
  6
CONTINUOUS
 62
     6
 10
1461.806726122
 20
795.04703
 30
0.0
 11
1461.806726122
 21
787.55297
 31
0.0
  0
LINE
  8
0
  6
CONTINUOUS
 62
     6
 10
1461.806726122
 20
787.55297
 30
0.0
 11
1468.306676122
 21
783.80594
 31
0.0
  0
LINE
  8
0
  6
CONTINUOUS
 62
     6
 10
1474.806626122
 20
795.04703
 30
0.0
 11
1474.806626122
 21
787.55297
 31
0.0
  0
LINE
  8
0
  6
CONTINUOUS
 62
     6
 10
1474.806626122
 20
787.55297
 30
0.0
 11
1468.306676122
 21
783.80594
 31
0.0
  0
CIRCLE
  8
0
  6
CONTINUOUS
 62
     6
 10
1468.306676122
 20
791.3
 30
0.0
 40
6.49995
  0
LINE
  8
0
  6
CONTINUOUS
 62
     1
 10
1412.353845933
 20
757.084500979
 30
0.0
 11
1387.976487442
 21
749.891143417
 31
0.0
  0
ARC
  8
0
  6
CONTINUOUS
 62
     1
 10
1390.806676122
 20
740.3
 30
0.0
 40
10.0
 50
30.0
 51
180.0
  0
LINE
  8
0
  6
CONTINUOUS
 62
     1
 10
1402.635275371
 20
745.3
 30
0.0
 11
1399.46693016
 21
745.3
 31
0.0
  0
ARC
  8
0
  6
LTYPE2
 62
     2
 10
1417.306676122
 20
740.3
 30
0.0
 40
51.0
 50
124.902495616
 51
142.696051722
  0
LINE
  8
0
  6
LTYPE2
 62
     2
 10
1385.306676122
 20
772.3
 30
0.0
 11
1376.306676122
 21
781.3
 31
0.0
  0
LINE
  8
0
  6
LTYPE2
 62
     2
 10
1375.306676122
 20
791.3
 30
0.0
 11
1358.306676122
 21
791.3
 31
0.0
  0
LINE
  8
0
  6
LTYPE2
 62
     2
 10
1366.306676122
 20
799.3
 30
0.0
 11
1366.306676122
 21
782.8
 31
0.0
  0
LINE
  8
0
  6
CONTINUOUS
 62
     6
 10
1413.306678122
 20
767.6058812
 30
0.0
 11
1413.306678122
 21
762.9941188
 31
0.0
  0
LINE
  8
0
  6
CONTINUOUS
 62
     6
 10
1413.306678122
 20
762.9941188
 30
0.0
 11
1417.306676122
 21
760.6882376
 31
0.0
  0
LINE
  8
0
  6
CONTINUOUS
 62
     6
 10
1413.306678122
 20
767.6058812
 30
0.0
 11
1417.306676122
 21
769.9117624
 31
0.0
  0
LINE
  8
0
  6
CONTINUOUS
 62
     6
 10
1387.299273236
 20
742.325
 30
0.0
 11
1390.806676122
 21
744.35
 31
0.0
  0
LINE
  8
0
  6
CONTINUOUS
 62
     6
 10
1390.806676122
 20
744.35
 30
0.0
 11
1394.314079007
 21
742.325
 31
0.0
  0
LINE
  8
0
  6
CONTINUOUS
 62
     6
 10
1359.806726122
 20
795.04703
 30
0.0
 11
1359.806726122
 21
787.55297
 31
0.0
  0
LINE
  8
0
  6
CONTINUOUS
 62
     6
 10
1372.806626122
 20
795.04703
 30
0.0
 11
1372.806626122
 21
787.55297
 31
0.0
  0
LINE
  8
0
  6
CONTINUOUS
 62
     6
 10
1359.806726122
 20
787.55297
 30
0.0
 11
1366.306676122
 21
783.80594
 31
0.0
  0
CIRCLE
  8
0
  6
CONTINUOUS
 62
     6
 10
1366.306676122
 20
791.3
 30
0.0
 40
6.49995
  0
LINE
  8
0
  6
CONTINUOUS
 62
     6
 10
1372.806626122
 20
787.55297
 30
0.0
 11
1366.306676122
 21
783.80594
 31
0.0
  0
LINE
  8
0
  6
CONTINUOUS
 62
     6
 10
1378.938349081
 20
780.362443841
 30
0.0
 11
1383.550111481
 21
780.362443841
 31
0.0
  0
LINE
  8
0
  6
CONTINUOUS
 62
     6
 10
1383.550111481
 20
780.362443841
 30
0.0
 11
1385.855992681
 21
776.362445841
 31
0.0
  0
LINE
  8
0
  6
CONTINUOUS
 62
     6
 10
1383.550111481
 20
772.362447841
 30
0.0
 11
1385.855992681
 21
776.362445841
 31
0.0
  0
LINE
  8
0
  6
CONTINUOUS
 62
     6
 10
1378.938349081
 20
780.362443841
 30
0.0
 11
1376.632467881
 21
776.362445841
 31
0.0
  0
LINE
  8
0
  6
CONTINUOUS
 62
     6
 10
1378.938349081
 20
772.362447841
 30
0.0
 11
1376.632467881
 21
776.362445841
 31
0.0
  0
LINE
  8
0
  6
CONTINUOUS
 62
     6
 10
1378.938349081
 20
772.362447841
 30
0.0
 11
1383.550111481
 21
772.362447841
 31
0.0
  0
CIRCLE
  8
0
  6
CONTINUOUS
 62
     6
 10
1381.244230281
 20
776.362445841
 30
0.0
 40
3.999998
  0
ARC
  8
0
  6
CONTINUOUS
 62
     1
 10
1361.306676122
 20
796.3
 30
0.0
 40
5.0
 50
90.0
 51
180.0
  0
LINE
  8
0
  6
CONTINUOUS
 62
     1
 10
1361.306676122
 20
801.3
 30
0.0
 11
1394.306676122
 21
801.3
 31
0.0
  0
LINE
  8
0
  6
CONTINUOUS
 62
     6
 10
1372.806626122
 20
795.04703
 30
0.0
 11
1366.306676122
 21
798.79406
 31
0.0
  0
LINE
  8
0
  6
CONTINUOUS
 62
     6
 10
1359.806726122
 20
795.04703
 30
0.0
 11
1366.306676122
 21
798.79406
 31
0.0
  0
ARC
  8
0
  6
CONTINUOUS
 62
     1
 10
1391.306676122
 20
807.3
 30
0.0
 40
3.0
 50
0.0
 51
90.0
  0
LINE
  8
0
  6
CONTINUOUS
 62
     1
 10
1394.306676122
 20
796.453619242
 30
0.0
 11
1394.306676122
 21
807.3
 31
0.0
  0
ARC
  8
0
  6
CONTINUOUS
 62
     1
 10
1398.306676122
 20
796.453619242
 30
0.0
 40
4.0
 50
180.0
 51
235.063855112
  0
LINE
  8
0
  6
CONTINUOUS
 62
     1
 10
1387.306676122
 20
810.3
 30
0.0
 11
1447.306676122
 21
810.3
 31
0.0
  0
LINE
  8
0
  6
CONTINUOUS
 62
     1
 10
1387.306676122
 20
810.3
 30
0.0
 11
1387.306676122
 21
813.3
 31
0.0
  0
LINE
  8
0
  6
CONTINUOUS
 62
     1
 10
1383.306676122
 20
813.3
 30
0.0
 11
1451.306676122
 21
813.3
 31
0.0
  0
LINE
  8
0
  6
CONTINUOUS
 62
     1
 10
1381.306676122
 20
815.3
 30
0.0
 11
1381.306676122
 21
854.3
 31
0.0
  0
ARC
  8
0
  6
CONTINUOUS
 62
     1
 10
1383.306676122
 20
815.3
 30
0.0
 40
2.0
 50
180.0
 51
270.0
  0
LINE
  8
0
  6
CONTINUOUS
 62
     1
 10
1381.306676122
 20
815.3
 30
0.0
 11
1375.306676122
 21
815.3
 31
0.0
  0
LINE
  8
0
  6
CONTINUOUS
 62
     1
 10
1373.306676122
 20
817.3
 30
0.0
 11
1373.306676122
 21
861.320045888
 31
0.0
  0
ARC
  8
0
  6
CONTINUOUS
 62
     1
 10
1375.306676122
 20
817.3
 30
0.0
 40
2.0
 50
180.0
 51
270.0
  0
LINE
  8
0
  6
CONTINUOUS
 62
     1
 10
1447.306676122
 20
810.3
 30
0.0
 11
1447.306676122
 21
813.3
 31
0.0
  0
ARC
  8
0
  6
CONTINUOUS
 62
     1
 10
1443.306676122
 20
807.3
 30
0.0
 40
3.0
 50
90.0
 51
180.0
  0
LINE
  8
0
  6
CONTINUOUS
 62
     1
 10
1440.306676122
 20
796.453619242
 30
0.0
 11
1440.306676122
 21
807.3
 31
0.0
  0
LINE
  8
0
  6
CONTINUOUS
 62
     1
 10
1453.306676122
 20
815.3
 30
0.0
 11
1459.306676122
 21
815.3
 31
0.0
  0
LINE
  8
0
  6
CONTINUOUS
 62
     1
 10
1461.306676122
 20
817.3
 30
0.0
 11
1461.306676122
 21
861.320045888
 31
0.0
  0
ARC
  8
0
  6
CONTINUOUS
 62
     1
 10
1459.306676122
 20
817.3
 30
0.0
 40
2.0
 50
270.0
 51
0.0
  0
LINE
  8
0
  6
CONTINUOUS
 62
     1
 10
1453.306676122
 20
815.3
 30
0.0
 11
1453.306676122
 21
854.3
 31
0.0
  0
ARC
  8
0
  6
CONTINUOUS
 62
     1
 10
1451.306676122
 20
815.3
 30
0.0
 40
2.0
 50
270.0
 51
0.0
  0
ARC
  8
0
  6
CONTINUOUS
 62
     1
 10
1436.306676122
 20
796.453619242
 30
0.0
 40
4.0
 50
304.936144888
 51
0.0
  0
LINE
  8
0
  6
CONTINUOUS
 62
     1
 10
1440.306676122
 20
801.3
 30
0.0
 11
1473.306676122
 21
801.3
 31
0.0
  0
LINE
  8
0
  6
CONTINUOUS
 62
     6
 10
1474.806626122
 20
795.04703
 30
0.0
 11
1468.306676122
 21
798.79406
 31
0.0
  0
LINE
  8
0
  6
CONTINUOUS
 62
     6
 10
1461.806726122
 20
795.04703
 30
0.0
 11
1468.306676122
 21
798.79406
 31
0.0
  0
ARC
  8
0
  6
CONTINUOUS
 62
     1
 10
1473.306676122
 20
796.3
 30
0.0
 40
5.0
 50
0.0
 51
90.0
  0
CIRCLE
  8
0
  6
CONTINUOUS
 62
     1
 10
1417.306676122
 20
835.3
 30
0.0
 40
17.0
  0
ARC
  8
0
  6
CONTINUOUS
 62
     1
 10
1375.306676122
 20
857.320045888
 30
0.0
 40
2.0
 50
90.0
 51
180.0
  0
ARC
  8
0
  6
CONTINUOUS
 62
     1
 10
1383.306676122
 20
863.3
 30
0.0
 40
2.0
 50
90.0
 51
180.0
  0
LINE
  8
0
  6
CONTINUOUS
 62
     1
 10
1383.306676122
 20
865.3
 30
0.0
 11
1451.306676122
 21
865.3
 31
0.0
  0
LINE
  8
0
  6
CONTINUOUS
 62
     1
 10
1459.306676122
 20
859.320045888
 30
0.0
 11
1375.306676122
 21
859.320045888
 31
0.0
  0
ARC
  8
0
  6
CONTINUOUS
 62
     1
 10
1375.306676122
 20
861.320045888
 30
0.0
 40
2.0
 50
90.0
 51
180.0
  0
ARC
  8
0
  6
CONTINUOUS
 62
     1
 10
1383.306676122
 20
854.3
 30
0.0
 40
2.0
 50
90.0
 51
180.0
  0
LINE
  8
0
  6
CONTINUOUS
 62
     1
 10
1383.306676122
 20
856.3
 30
0.0
 11
1451.306676122
 21
856.3
 31
0.0
  0
LINE
  8
0
  6
CONTINUOUS
 62
     1
 10
1459.306676122
 20
863.320045888
 30
0.0
 11
1375.306676122
 21
863.320045888
 31
0.0
  0
CIRCLE
  8
0
  6
CONTINUOUS
 62
     2
 10
1417.306676122
 20
835.3
 30
0.0
 40
15.0
  0
LINE
  8
0
  6
LTYPE2
 62
     2
 10
1394.306676122
 20
835.3
 30
0.0
 11
1440.306676122
 21
835.3
 31
0.0
  0
ARC
  8
0
  6
CONTINUOUS
 62
     1
 10
1451.306676122
 20
863.3
 30
0.0
 40
2.0
 50
0.0
 51
90.0
  0
ARC
  8
0
  6
CONTINUOUS
 62
     1
 10
1459.306676122
 20
857.320045888
 30
0.0
 40
2.0
 50
0.0
 51
90.0
  0
ARC
  8
0
  6
CONTINUOUS
 62
     1
 10
1451.306676122
 20
854.3
 30
0.0
 40
2.0
 50
0.0
 51
90.0
  0
ARC
  8
0
  6
CONTINUOUS
 62
     1
 10
1459.306676122
 20
861.320045888
 30
0.0
 40
2.0
 50
0.0
 51
90.0
  0
LINE
  8
0
  6
LTYPE2
 62
     2
 10
1459.306676122
 20
791.3
 30
0.0
 11
1476.306676122
 21
791.3
 31
0.0
  0
LINE
  8
0
  6
CONTINUOUS
 62
     1
 10
1494.306676122
 20
626.360720927
 30
0.0
 11
1494.306676122
 21
762.002534414
 31
0.0
  0
ARC
  8
0
  6
CONTINUOUS
 62
     1
 10
1417.306676122
 20
740.3
 30
0.0
 40
80.0
 50
49.685090825
 51
66.184328845
  0
ARC
  8
0
  6
CONTINUOUS
 62
     1
 10
1417.306676122
 20
740.3
 30
0.0
 40
80.0
 50
15.740548525
 51
40.314909175
  0
ARC
  8
0
  6
CONTINUOUS
 62
     1
 10
1417.306676122
 20
740.3
 30
0.0
 40
80.0
 50
113.815671155
 51
130.314909175
  0
ARC
  8
0
  6
CONTINUOUS
 62
     1
 10
1417.306676122
 20
740.3
 30
0.0
 40
80.0
 50
139.685090825
 51
164.259451475
  0
LINE
  8
0
  6
CONTINUOUS
 62
     1
 10
1340.306676122
 20
657.1
 30
0.0
 11
1340.306676122
 21
762.002534414
 31
0.0
  0
LINE
  8
0
  6
CONTINUOUS
 62
     2
 10
1457.306676122
 20
865.3
 30
0.0
 11
1601.706676122
 21
865.3
 31
0.0
  0
LINE
  8
0
  6
CONTINUOUS
 62
     2
 10
1589.706676122
 20
605.0
 30
0.0
 11
1586.471438058
 21
592.925927171
 31
0.0
  0
LINE
  8
0
  6
CONTINUOUS
 62
     2
 10
1589.706676122
 20
605.0
 30
0.0
 11
1592.941914186
 21
592.925927171
 31
0.0
  0
LINE
  8
0
  6
CONTINUOUS
 62
     2
 10
1589.706676122
 20
605.0
 30
0.0
 11
1589.706676122
 21
494.0
 31
0.0
  0
LINE
  8
0
  6
CONTINUOUS
 62
     2
 10
1589.706676122
 20
494.0
 30
0.0
 11
1592.941914186
 21
506.074072829
 31
0.0
  0
LINE
  8
0
  6
CONTINUOUS
 62
     2
 10
1589.706676122
 20
494.0
 30
0.0
 11
1586.471438058
 21
506.074072829
 31
0.0
  0
LINE
  8
0
  6
CONTINUOUS
 62
     2
 10
1589.706676122
 20
605.0
 30
0.0
 11
1592.941914186
 21
617.074072829
 31
0.0
  0
LINE
  8
0
  6
CONTINUOUS
 62
     2
 10
1589.706676122
 20
605.0
 30
0.0
 11
1586.471438058
 21
617.074072829
 31
0.0
  0
LINE
  8
0
  6
CONTINUOUS
 62
     2
 10
1589.706676122
 20
605.0
 30
0.0
 11
1589.706676122
 21
740.3
 31
0.0
  0
LINE
  8
0
  6
CONTINUOUS
 62
     2
 10
1589.706676122
 20
740.3
 30
0.0
 11
1586.471438058
 21
728.225927171
 31
0.0
  0
LINE
  8
0
  6
CONTINUOUS
 62
     2
 10
1589.706676122
 20
740.3
 30
0.0
 11
1592.941914186
 21
728.225927171
 31
0.0
  0
LINE
  8
0
  6
CONTINUOUS
 62
     2
 10
1575.066666667
 20
605.0
 30
0.0
 11
1596.206676122
 21
605.0
 31
0.0
  0
LINE
  8
0
  6
CONTINUOUS
 62
     2
 10
1562.766666667
 20
740.3
 30
0.0
 11
1597.706676122
 21
740.3
 31
0.0
  0
LINE
  8
0
  6
CONTINUOUS
 62
     2
 10
1589.206676122
 20
740.3
 30
0.0
 11
1601.706676122
 21
740.3
 31
0.0
  0
LINE
  8
0
  6
CONTINUOUS
 62
     2
 10
1589.706676122
 20
740.3
 30
0.0
 11
1593.588961798
 21
754.788887394
 31
0.0
  0
LINE
  8
0
  6
CONTINUOUS
 62
     2
 10
1589.706676122
 20
740.3
 30
0.0
 11
1585.824390445
 21
754.788887394
 31
0.0
  0
LINE
  8
0
  6
CONTINUOUS
 62
     2
 10
1589.706676122
 20
740.3
 30
0.0
 11
1589.706676122
 21
865.3
 31
0.0
  0
LINE
  8
0
  6
CONTINUOUS
 62
     2
 10
1589.706676122
 20
865.3
 30
0.0
 11
1585.824390445
 21
850.811112606
 31
0.0
  0
LINE
  8
0
  6
CONTINUOUS
 62
     2
 10
1589.706676122
 20
865.3
 30
0.0
 11
1593.588961798
 21
850.811112606
 31
0.0
  0
LINE
  8
0
  6
CONTINUOUS
 62
     2
 10
1585.0
 20
494.0
 30
0.0
 11
1639.0
 21
494.0
 31
0.0
  0
LINE
  8
0
  6
CONTINUOUS
 62
     2
 10
1627.0
 20
494.0
 30
0.0
 11
1630.882285677
 21
508.488887394
 31
0.0
  0
LINE
  8
0
  6
CONTINUOUS
 62
     2
 10
1627.0
 20
494.0
 30
0.0
 11
1623.117714323
 21
508.488887394
 31
0.0
  0
LINE
  8
0
  6
CONTINUOUS
 62
     2
 10
1627.0
 20
494.0
 30
0.0
 11
1627.0
 21
865.3
 31
0.0
  0
LINE
  8
0
  6
CONTINUOUS
 62
     2
 10
1627.0
 20
865.3
 30
0.0
 11
1623.117714323
 21
850.811112606
 31
0.0
  0
LINE
  8
0
  6
CONTINUOUS
 62
     2
 10
1627.0
 20
865.3
 30
0.0
 11
1630.882285677
 21
850.811112606
 31
0.0
  0
LINE
  8
0
  6
CONTINUOUS
 62
     2
 10
1577.0
 20
865.3
 30
0.0
 11
1639.0
 21
865.3
 31
0.0
  0
TEXT
  8
0
  6
CONTINUOUS
 62
     2
 10
1621.0
 20
634.05
 30
1.8
 40
18.0
  1
３７１
 50
90.0
 41
0.933333333
 51
0.0
  7
KANJI43
  0
LINE
  8
0
  6
CONTINUOUS
 62
     2
 10
1562.256676122
 20
615.0
 30
0.0
 11
1565.491914186
 21
627.074072829
 31
0.0
  0
LINE
  8
0
  6
CONTINUOUS
 62
     2
 10
1562.256676122
 20
615.0
 30
0.0
 11
1559.021438058
 21
627.074072829
 31
0.0
  0
LINE
  8
0
  6
CONTINUOUS
 62
     2
 10
1562.256676122
 20
595.0
 30
0.0
 11
1559.021438058
 21
582.925927171
 31
0.0
  0
LINE
  8
0
  6
CONTINUOUS
 62
     2
 10
1562.256676122
 20
595.0
 30
0.0
 11
1565.491914186
 21
582.925927171
 31
0.0
  0
LINE
  8
0
  6
CONTINUOUS
 62
     1
 10
1527.306676122
 20
523.3
 30
0.0
 11
1527.306676122
 21
755.3
 31
0.0
  0
TEXT
  8
0
  6
CONTINUOUS
 62
     2
 10
1584.706676122
 20
527.75
 30
0.0
 40
18.0
  1
１１１
 50
90.0
 41
0.9
 51
0.0
  7
KANJI31
  0
TEXT
  8
0
  6
CONTINUOUS
 62
     2
 10
1584.706676122
 20
650.9
 30
0.0
 40
18.0
  1
１３５
 50
90.0
 41
0.9
 51
0.0
  7
KANJI31
  0
TEXT
  8
0
  6
CONTINUOUS
 62
     2
 10
1557.256676122
 20
616.75
 30
0.0
 40
18.0
  1
φ２０Ｈ１０深２５
 50
90.0
 41
0.9
 51
0.0
  7
KANJI31
  0
LINE
  8
0
  6
CONTINUOUS
 62
     2
 10
1562.256676122
 20
576.25
 30
0.0
 11
1562.256676122
 21
760.5
 31
0.0
  0
TEXT
  8
0
  6
CONTINUOUS
 62
     2
 10
1583.706676122
 20
784.8
 30
1.8
 40
18.0
  1
１２５
 50
90.0
 41
0.933333333
 51
0.0
  7
KANJI43
  0
LINE
  8
0
  6
CONTINUOUS
 62
     1
 10
1377.606676122
 20
494.0
 30
0.0
 11
1367.006676122
 21
494.0
 31
0.0
  0
ARC
  8
0
  6
CONTINUOUS
 62
     1
 10
1372.706676122
 20
495.0
 30
0.0
 40
5.0
 50
272.3
 51
348.5
  0
ARC
  8
0
  6
CONTINUOUS
 62
     1
 10
1371.906676122
 20
495.0
 30
0.0
 40
5.0
 50
191.5
 51
267.7
  0
LINE
  8
0
  6
CONTINUOUS
 62
     1
 10
1372.906676122
 20
490.0
 30
0.0
 11
1371.706676122
 21
490.0
 31
0.0
  0
LINE
  8
0
  6
LTYPE6
 62
     2
 10
1372.306676122
 20
486.6
 30
0.0
 11
1372.306676122
 21
500.0
 31
0.0
  0
LINE
  8
0
  6
CONTINUOUS
 62
     1
 10
1467.606676122
 20
494.0
 30
0.0
 11
1457.006676122
 21
494.0
 31
0.0
  0
ARC
  8
0
  6
CONTINUOUS
 62
     1
 10
1462.706676122
 20
495.0
 30
0.0
 40
5.0
 50
272.3
 51
348.5
  0
ARC
  8
0
  6
CONTINUOUS
 62
     1
 10
1461.906676122
 20
495.0
 30
0.0
 40
5.0
 50
191.5
 51
267.7
  0
LINE
  8
0
  6
CONTINUOUS
 62
     1
 10
1462.906676122
 20
490.0
 30
0.0
 11
1461.706676122
 21
490.0
 31
0.0
  0
LINE
  8
0
  6
LTYPE6
 62
     2
 10
1462.306676122
 20
486.6
 30
0.0
 11
1462.306676122
 21
500.0
 31
0.0
  0
LINE
  8
0
  6
CONTINUOUS
 62
     2
 10
1340.306676122
 20
439.475
 30
0.0
 11
1352.38074895
 21
436.239761936
 31
0.0
  0
LINE
  8
0
  6
CONTINUOUS
 62
     2
 10
1340.306676122
 20
439.475
 30
0.0
 11
1352.38074895
 21
442.710238064
 31
0.0
  0
LINE
  8
0
  6
CONTINUOUS
 62
     2
 10
1340.306676122
 20
439.475
 30
0.0
 11
1494.306676122
 21
439.475
 31
0.0
  0
LINE
  8
0
  6
CONTINUOUS
 62
     2
 10
1497.306676122
 20
402.5
 30
0.0
 11
1337.306676122
 21
402.5
 31
0.0
  0
LINE
  8
0
  6
CONTINUOUS
 62
     2
 10
1337.306676122
 20
402.5
 30
0.0
 11
1349.38074895
 21
399.264761936
 31
0.0
  0
LINE
  8
0
  6
CONTINUOUS
 62
     2
 10
1337.306676122
 20
402.5
 30
0.0
 11
1349.38074895
 21
405.735238064
 31
0.0
  0
LINE
  8
0
  6
CONTINUOUS
 62
     2
 10
1494.306676122
 20
439.475
 30
0.0
 11
1482.232603293
 21
442.710238064
 31
0.0
  0
LINE
  8
0
  6
CONTINUOUS
 62
     2
 10
1494.306676122
 20
439.475
 30
0.0
 11
1482.232603293
 21
436.239761936
 31
0.0
  0
LINE
  8
0
  6
CONTINUOUS
 62
     2
 10
1497.306676122
 20
402.5
 30
0.0
 11
1485.232603293
 21
405.735238064
 31
0.0
  0
LINE
  8
0
  6
CONTINUOUS
 62
     2
 10
1497.306676122
 20
402.5
 30
0.0
 11
1485.232603293
 21
399.264761936
 31
0.0
  0
TEXT
  8
0
  6
CONTINUOUS
 62
     2
 10
1395.556676122
 20
444.475
 30
0.0
 40
18.0
  1
１５４
 50
0.0
 41
0.9
 51
0.0
  7
KANJI31
  0
TEXT
  8
0
  6
CONTINUOUS
 62
     2
 10
1395.556676122
 20
407.5
 30
0.0
 40
18.0
  1
１６０
 50
0.0
 41
0.9
 51
0.0
  7
KANJI31
  0
LINE
  8
0
  6
CONTINUOUS
 62
     2
 10
781.066666667
 20
375.7
 30
0.0
 11
793.140739495
 21
372.464761936
 31
0.0
  0
LINE
  8
0
  6
CONTINUOUS
 62
     2
 10
781.066666667
 20
375.7
 30
0.0
 11
793.140739495
 21
378.935238064
 31
0.0
  0
LINE
  8
0
  6
CONTINUOUS
 62
     2
 10
1156.666666667
 20
410.8
 30
0.0
 11
1144.592593838
 21
414.035238064
 31
0.0
  0
LINE
  8
0
  6
CONTINUOUS
 62
     2
 10
1156.666666667
 20
410.8
 30
0.0
 11
1144.592593838
 21
407.564761936
 31
0.0
  0
LINE
  8
0
  6
CONTINUOUS
 62
     2
 10
1156.666666667
 20
410.8
 30
0.0
 11
1168.740739495
 21
407.564761936
 31
0.0
  0
LINE
  8
0
  6
CONTINUOUS
 62
     2
 10
1156.666666667
 20
410.8
 30
0.0
 11
1168.740739495
 21
414.035238064
 31
0.0
  0
LINE
  8
0
  6
CONTINUOUS
 62
     2
 10
1206.666666667
 20
410.8
 30
0.0
 11
1194.592593838
 21
414.035238064
 31
0.0
  0
LINE
  8
0
  6
CONTINUOUS
 62
     2
 10
1206.666666667
 20
410.8
 30
0.0
 11
1194.592593838
 21
407.564761936
 31
0.0
  0
LINE
  8
0
  6
CONTINUOUS
 62
     2
 10
1206.666666667
 20
375.7
 30
0.0
 11
1194.592593838
 21
378.935238064
 31
0.0
  0
LINE
  8
0
  6
CONTINUOUS
 62
     2
 10
1206.666666667
 20
375.7
 30
0.0
 11
1194.592593838
 21
372.464761936
 31
0.0
  0
LINE
  8
0
  6
CONTINUOUS
 62
     2
 10
1206.666666667
 20
417.8
 30
0.0
 11
1206.666666667
 21
368.2
 31
0.0
  0
LINE
  8
0
  6
CONTINUOUS
 62
     2
 10
1206.666666667
 20
342.0375
 30
0.0
 11
1194.592593838
 21
345.272738064
 31
0.0
  0
LINE
  8
0
  6
CONTINUOUS
 62
     2
 10
1206.666666667
 20
342.0375
 30
0.0
 11
1194.592593838
 21
338.802261936
 31
0.0
  0
LINE
  8
0
  6
CONTINUOUS
 62
     2
 10
1206.666666667
 20
368.2
 30
0.0
 11
1206.666666667
 21
334.5375
 31
0.0
  0
LINE
  8
0
  6
CONTINUOUS
 62
     2
 10
781.066666667
 20
375.7
 30
0.0
 11
1206.666666667
 21
375.7
 31
0.0
  0
LINE
  8
0
  6
CONTINUOUS
 62
     2
 10
781.066666667
 20
375.7
 30
0.0
 11
768.992593838
 21
378.935238064
 31
0.0
  0
LINE
  8
0
  6
CONTINUOUS
 62
     2
 10
781.066666667
 20
375.7
 30
0.0
 11
768.992593838
 21
372.464761936
 31
0.0
  0
LINE
  8
0
  6
CONTINUOUS
 62
     2
 10
781.066666667
 20
375.7
 30
0.0
 11
650.066666667
 21
375.7
 31
0.0
  0
LINE
  8
0
  6
CONTINUOUS
 62
     2
 10
650.066666667
 20
375.7
 30
0.0
 11
662.140739495
 21
372.464761936
 31
0.0
  0
LINE
  8
0
  6
CONTINUOUS
 62
     2
 10
650.066666667
 20
375.7
 30
0.0
 11
662.140739495
 21
378.935238064
 31
0.0
  0
LINE
  8
0
  6
CONTINUOUS
 62
     2
 10
650.066666667
 20
375.7
 30
0.0
 11
637.992593838
 21
378.935238064
 31
0.0
  0
LINE
  8
0
  6
CONTINUOUS
 62
     2
 10
650.066666667
 20
375.7
 30
0.0
 11
637.992593838
 21
372.464761936
 31
0.0
  0
LINE
  8
0
  6
CONTINUOUS
 62
     2
 10
650.066666667
 20
375.7
 30
0.0
 11
463.066666667
 21
375.7
 31
0.0
  0
LINE
  8
0
  6
CONTINUOUS
 62
     2
 10
463.066666667
 20
375.7
 30
0.0
 11
475.140739495
 21
372.464761936
 31
0.0
  0
LINE
  8
0
  6
CONTINUOUS
 62
     2
 10
463.066666667
 20
375.7
 30
0.0
 11
475.140739495
 21
378.935238064
 31
0.0
  0
LINE
  8
0
  6
CONTINUOUS
 62
     2
 10
463.066666667
 20
341.5375
 30
0.0
 11
475.140739495
 21
338.302261936
 31
0.0
  0
LINE
  8
0
  6
CONTINUOUS
 62
     2
 10
463.066666667
 20
341.5375
 30
0.0
 11
475.140739495
 21
344.772738064
 31
0.0
  0
LINE
  8
0
  6
CONTINUOUS
 62
     2
 10
463.066666667
 20
342.0375
 30
0.0
 11
1206.666666667
 21
342.0375
 31
0.0
  0
TEXT
  8
0
  6
CONTINUOUS
 62
     2
 10
1167.916666667
 20
415.8
 30
0.0
 40
18.0
  1
５０
 50
0.0
 41
0.9
 51
0.0
  7
KANJI31
  0
TEXT
  8
0
  6
CONTINUOUS
 62
     2
 10
785.166666667
 20
347.0375
 30
0.0
 40
18.0
  1
ｍｉｎ．ＡＬ
 50
0.0
 41
0.9
 51
0.0
  7
KANJI31
  0
LINE
  8
0
  6
CONTINUOUS
 62
     2
 10
537.936652456
 20
221.233311846
 30
0.0
 11
545.664059067
 21
219.162759485
 31
0.0
  0
LINE
  8
0
  6
CONTINUOUS
 62
     2
 10
537.936652456
 20
221.233311846
 30
0.0
 11
545.664059067
 21
223.303864207
 31
0.0
  0
LINE
  8
0
  6
CONTINUOUS
 62
     2
 10
537.936652456
 20
221.233311846
 30
0.0
 11
675.536652456
 21
221.233311846
 31
0.0
  0
LINE
  8
0
  6
CONTINUOUS
 62
     2
 10
675.536652456
 20
221.233311846
 30
0.0
 11
667.809245846
 21
223.303864207
 31
0.0
  0
LINE
  8
0
  6
CONTINUOUS
 62
     2
 10
675.536652456
 20
221.233311846
 30
0.0
 11
667.809245846
 21
219.162759485
 31
0.0
  0
LINE
  8
0
  6
CONTINUOUS
 62
     2
 10
675.536652456
 20
220.033311846
 30
0.0
 11
675.536652456
 21
217.233311846
 31
0.0
  0
LINE
  8
0
  6
CONTINUOUS
 62
     2
 10
675.536652456
 20
221.233311846
 30
0.0
 11
683.264059067
 21
219.162759485
 31
0.0
  0
LINE
  8
0
  6
CONTINUOUS
 62
     2
 10
675.536652456
 20
221.233311846
 30
0.0
 11
683.264059067
 21
223.303864207
 31
0.0
  0
LINE
  8
0
  6
CONTINUOUS
 62
     2
 10
675.536652456
 20
221.233311846
 30
0.0
 11
877.936652456
 21
221.233311846
 31
0.0
  0
LINE
  8
0
  6
CONTINUOUS
 62
     2
 10
877.936652456
 20
221.233311846
 30
0.0
 11
870.209245846
 21
223.303864207
 31
0.0
  0
LINE
  8
0
  6
CONTINUOUS
 62
     2
 10
877.936652456
 20
221.233311846
 30
0.0
 11
870.209245846
 21
219.162759485
 31
0.0
  0
LINE
  8
0
  6
CONTINUOUS
 62
     2
 10
675.536652456
 20
194.903864207
 30
0.0
 11
667.809245846
 21
196.974416568
 31
0.0
  0
LINE
  8
0
  6
CONTINUOUS
 62
     2
 10
675.536652456
 20
194.903864207
 30
0.0
 11
667.809245846
 21
192.833311846
 31
0.0
  0
LINE
  8
0
  6
CONTINUOUS
 62
     2
 10
663.536652456
 20
194.903864207
 30
0.0
 11
675.536652456
 21
194.903864207
 31
0.0
  0
LINE
  8
0
  6
CONTINUOUS
 62
     2
 10
675.536652456
 20
194.903864207
 30
0.0
 11
696.336652456
 21
194.903864207
 31
0.0
  0
LINE
  8
0
  6
CONTINUOUS
 62
     2
 10
696.336652456
 20
194.903864207
 30
0.0
 11
704.064059067
 21
192.833311846
 31
0.0
  0
LINE
  8
0
  6
CONTINUOUS
 62
     2
 10
696.336652456
 20
194.903864207
 30
0.0
 11
704.064059067
 21
196.974416568
 31
0.0
  0
LINE
  8
0
  6
CONTINUOUS
 62
     2
 10
537.936652456
 20
169.633311846
 30
0.0
 11
537.936652456
 21
163.633311846
 31
0.0
  0
LINE
  8
0
  6
CONTINUOUS
 62
     2
 10
537.936652456
 20
167.633311846
 30
0.0
 11
545.664059067
 21
165.562759485
 31
0.0
  0
LINE
  8
0
  6
CONTINUOUS
 62
     2
 10
537.936652456
 20
167.633311846
 30
0.0
 11
545.664059067
 21
169.703864207
 31
0.0
  0
LINE
  8
0
  6
CONTINUOUS
 62
     2
 10
537.936652456
 20
167.633311846
 30
0.0
 11
696.336652456
 21
167.633311846
 31
0.0
  0
LINE
  8
0
  6
CONTINUOUS
 62
     2
 10
696.336652456
 20
167.633311846
 30
0.0
 11
688.609245846
 21
169.703864207
 31
0.0
  0
LINE
  8
0
  6
CONTINUOUS
 62
     2
 10
696.336652456
 20
167.633311846
 30
0.0
 11
688.609245846
 21
165.562759485
 31
0.0
  0
LINE
  8
0
  6
CONTINUOUS
 62
     2
 10
696.336652456
 20
168.833311846
 30
0.0
 11
696.336652456
 21
163.633311846
 31
0.0
  0
LINE
  8
0
  6
CONTINUOUS
 62
     2
 10
696.336652456
 20
167.633311846
 30
0.0
 11
704.064059067
 21
165.562759485
 31
0.0
  0
LINE
  8
0
  6
CONTINUOUS
 62
     2
 10
696.336652456
 20
167.633311846
 30
0.0
 11
704.064059067
 21
169.703864207
 31
0.0
  0
LINE
  8
0
  6
CONTINUOUS
 62
     2
 10
877.936652456
 20
164.033311846
 30
0.0
 11
877.936652456
 21
163.633311846
 31
0.0
  0
LINE
  8
0
  6
CONTINUOUS
 62
     2
 10
537.936652456
 20
138.433311846
 30
0.0
 11
545.664059067
 21
136.362759485
 31
0.0
  0
LINE
  8
0
  6
CONTINUOUS
 62
     2
 10
537.936652456
 20
138.433311846
 30
0.0
 11
545.664059067
 21
140.503864207
 31
0.0
  0
LINE
  8
0
  6
CONTINUOUS
 62
     2
 10
537.936652456
 20
138.433311846
 30
0.0
 11
855.536652456
 21
138.433311846
 31
0.0
  0
LINE
  8
0
  6
CONTINUOUS
 62
     2
 10
855.536652456
 20
138.433311846
 30
0.0
 11
847.809245846
 21
140.503864207
 31
0.0
  0
LINE
  8
0
  6
CONTINUOUS
 62
     2
 10
855.536652456
 20
138.433311846
 30
0.0
 11
847.809245846
 21
136.362759485
 31
0.0
  0
LINE
  8
0
  6
CONTINUOUS
 62
     2
 10
855.536652456
 20
139.233311846
 30
0.0
 11
855.536652456
 21
134.433311846
 31
0.0
  0
LINE
  8
0
  6
CONTINUOUS
 62
     2
 10
855.536652456
 20
138.433311846
 30
0.0
 11
847.809245846
 21
140.503864207
 31
0.0
  0
LINE
  8
0
  6
CONTINUOUS
 62
     2
 10
855.536652456
 20
138.433311846
 30
0.0
 11
847.809245846
 21
136.362759485
 31
0.0
  0
LINE
  8
0
  6
CONTINUOUS
 62
     2
 10
843.536652456
 20
138.433311846
 30
0.0
 11
855.536652456
 21
138.433311846
 31
0.0
  0
LINE
  8
0
  6
CONTINUOUS
 62
     2
 10
855.536652456
 20
138.433311846
 30
0.0
 11
877.936652456
 21
138.433311846
 31
0.0
  0
LINE
  8
0
  6
CONTINUOUS
 62
     2
 10
877.936652456
 20
138.433311846
 30
0.0
 11
885.664059067
 21
136.362759485
 31
0.0
  0
LINE
  8
0
  6
CONTINUOUS
 62
     2
 10
877.936652456
 20
138.433311846
 30
0.0
 11
885.664059067
 21
140.503864207
 31
0.0
  0
LINE
  8
0
  6
CONTINUOUS
 62
     2
 10
537.936652456
 20
232.033311846
 30
0.0
 11
537.936652456
 21
217.233311846
 31
0.0
  0
LINE
  8
0
  6
CONTINUOUS
 62
     2
 10
877.936652456
 20
232.033311846
 30
0.0
 11
877.936652456
 21
217.233311846
 31
0.0
  0
LINE
  8
0
  6
CONTINUOUS
 62
     2
 10
675.536652456
 20
220.833311846
 30
0.0
 11
675.536652456
 21
232.033311846
 31
0.0
  0
LINE
  8
0
  6
CONTINUOUS
 62
     2
 10
696.336652456
 20
207.703864207
 30
0.0
 11
696.336652456
 21
190.903864207
 31
0.0
  0
LINE
  8
0
  6
CONTINUOUS
 62
     2
 10
537.936652456
 20
217.233311846
 30
0.0
 11
537.936652456
 21
125.233311846
 31
0.0
  0
LINE
  8
0
  6
CONTINUOUS
 62
     2
 10
877.936652456
 20
221.233311846
 30
0.0
 11
877.936652456
 21
126.433311846
 31
0.0
  0
LINE
  8
0
  6
CONTINUOUS
 62
     2
 10
696.336652456
 20
194.903864207
 30
0.0
 11
696.336652456
 21
158.433311846
 31
0.0
  0
LINE
  8
0
  6
CONTINUOUS
 62
     2
 10
675.536652456
 20
221.233311846
 30
0.0
 11
675.536652456
 21
185.633311846
 31
0.0
  0
TEXT
  8
0
  6
CONTINUOUS
 62
     3
 10
579.736652456
 20
223.233311846
 30
0.0
 40
15.0
  1
ｍｉｎ．Ｌ
 50
0.0
 41
0.9
 51
0.0
  7
KANJI47
  0
TEXT
  8
0
  6
CONTINUOUS
 62
     3
 10
733.536652456
 20
223.233311846
 30
0.0
 40
15.0
  1
機械的ストローク
 50
0.0
 41
0.9
 51
0.0
  7
KANJI47
  0
TEXT
  8
0
  6
CONTINUOUS
 62
     3
 10
708.336652456
 20
196.903864207
 30
0.0
 40
15.0
  1
余裕
 50
0.0
 41
0.9
 51
0.0
  7
KANJI47
  0
TEXT
  8
0
  6
CONTINUOUS
 62
     3
 10
590.136652456
 20
169.633311846
 30
0.0
 40
15.0
  1
常用ｍｉｎ
 50
0.0
 41
0.9
 51
0.0
  7
KANJI47
  0
TEXT
  8
0
  6
CONTINUOUS
 62
     3
 10
669.736652456
 20
140.433311846
 30
0.0
 40
15.0
  1
常用ｍａｘ
 50
0.0
 41
0.9
 51
0.0
  7
KANJI47
  0
TEXT
  8
0
  6
CONTINUOUS
 62
     3
 10
889.936652456
 20
140.433311846
 30
0.0
 40
15.0
  1
余裕
 50
0.0
 41
0.9
 51
0.0
  7
KANJI47
  0
LINE
  8
0
  6
CONTINUOUS
 62
     2
 10
696.336652456
 20
194.903864207
 30
0.0
 11
736.436652456
 21
194.903864207
 31
0.0
  0
LINE
  8
0
  6
CONTINUOUS
 62
     2
 10
877.936652456
 20
138.433311846
 30
0.0
 11
920.436652456
 21
138.433311846
 31
0.0
  0
LINE
  8
0
  6
CONTINUOUS
 62
     2
 10
551.485924596
 20
268.471507451
 30
0.0
 11
965.485924596
 21
268.471507451
 31
0.0
  0
TEXT
  8
0
  6
CONTINUOUS
 62
     2
 10
553.485924596
 20
276.471507451
 30
0.0
 40
20.0
  1
推力リミッタの作動値は、約６００ｋｇ（設計値）
 50
0.0
 41
0.925
 51
0.0
  7
KANJI45
  0
LINE
  8
0
  6
CONTINUOUS
 62
     1
 10
992.12
 20
1504.14
 30
0.0
 11
1769.72
 21
1504.14
 31
0.0
  0
LINE
  8
0
  6
CONTINUOUS
 62
     1
 10
992.12
 20
1470.54
 30
0.0
 11
1769.72
 21
1470.54
 31
0.0
  0
TEXT
  8
0
  6
CONTINUOUS
 62
     2
 10
1040.12
 20
1480.14
 30
1.536
 40
15.36
  1
形
 50
0.0
 41
0.9
 51
0.0
  7
KANJI48
  0
TEXT
  8
0
  6
CONTINUOUS
 62
     2
 10
1133.72
 20
1480.14
 30
1.536
 40
15.36
  1
式
 50
0.0
 41
0.9
 51
0.0
  7
KANJI48
  0
TEXT
  8
0
  6
CONTINUOUS
 62
     2
 10
1206.2
 20
1479.18
 30
1.44
 40
14.4
  1
ストローク
 50
0.0
 41
0.9
 51
0.0
  7
KANJI49
  0
TEXT
  8
0
  6
CONTINUOUS
 62
     2
 10
1298.36
 20
1478.22
 30
0.0
 40
14.4
  1
ｍｉｎ　
 50
0.0
 41
0.9
 51
0.0
  7
KANJI50
  0
TEXT
  8
0
  6
CONTINUOUS
 62
     2
 10
1394.36
 20
1478.22
 30
0.0
 40
14.4
  1
ｍｉｎ　
 50
0.0
 41
0.9
 51
0.0
  7
KANJI50
  0
TEXT
  8
0
  6
CONTINUOUS
 62
     2
 10
1586.36
 20
1478.22
 30
0.0
 40
14.4
  1
ｍｉｎ　
 50
0.0
 41
0.9
 51
0.0
  7
KANJI50
  0
TEXT
  8
0
  6
CONTINUOUS
 62
     2
 10
1347.32
 20
1479.18
 30
1.68
 40
16.8
  1
ＡＬ
 50
0.0
 41
0.9
 51
0.0
  7
KANJI51
  0
TEXT
  8
0
  6
CONTINUOUS
 62
     2
 10
1443.32
 20
1479.18
 30
1.68
 40
16.8
  1
Ｌ
 50
0.0
 41
0.9
 51
0.0
  7
KANJI51
  0
TEXT
  8
0
  6
CONTINUOUS
 62
     2
 10
1524.92
 20
1479.18
 30
1.68
 40
16.8
  1
Ｃ
 50
0.0
 41
0.9
 51
0.0
  7
KANJI51
  0
TEXT
  8
0
  6
CONTINUOUS
 62
     2
 10
1635.32
 20
1479.18
 30
1.68
 40
16.8
  1
Ｐ
 50
0.0
 41
0.9
 51
0.0
  7
KANJI51
  0
TEXT
  8
0
  6
CONTINUOUS
 62
     2
 10
1734.08
 20
1478.82
 30
0.0
 40
12.96
  1
（ｋｇ）
 50
0.0
 41
0.740740741
 51
0.0
  7
KANJI52
  0
TEXT
  8
0
  6
CONTINUOUS
 62
     2
 10
1676.48
 20
1478.58
 30
1.44
 40
16.8
  1
概算重量
 50
0.0
 41
0.857142857
 51
0.0
  7
KANJI53
  0
TEXT
  8
0
  6
CONTINUOUS
 62
     2
 10
1215.32
 20
1449.98
 30
1.44
 40
14.4
  1
　２００
 50
0.0
 41
0.9
 51
0.0
  7
KANJI49
  0
TEXT
  8
0
  6
CONTINUOUS
 62
     2
 10
1215.32
 20
1421.38
 30
1.44
 40
14.4
  1
　３００
 50
0.0
 41
0.9
 51
0.0
  7
KANJI49
  0
TEXT
  8
0
  6
CONTINUOUS
 62
     2
 10
1215.32
 20
1392.78
 30
1.44
 40
14.4
  1
　４００
 50
0.0
 41
0.9
 51
0.0
  7
KANJI49
  0
TEXT
  8
0
  6
CONTINUOUS
 62
     2
 10
1215.32
 20
1364.18
 30
1.44
 40
14.4
  1
　５００
 50
0.0
 41
0.9
 51
0.0
  7
KANJI49
  0
TEXT
  8
0
  6
CONTINUOUS
 62
     2
 10
1215.32
 20
1335.58
 30
1.44
 40
14.4
  1
　６００
 50
0.0
 41
0.9
 51
0.0
  7
KANJI49
  0
TEXT
  8
0
  6
CONTINUOUS
 62
     2
 10
1215.32
 20
1306.98
 30
1.44
 40
14.4
  1
　７００
 50
0.0
 41
0.9
 51
0.0
  7
KANJI49
  0
TEXT
  8
0
  6
CONTINUOUS
 62
     2
 10
1215.32
 20
1278.38
 30
1.44
 40
14.4
  1
　８００
 50
0.0
 41
0.9
 51
0.0
  7
KANJI49
  0
TEXT
  8
0
  6
CONTINUOUS
 62
     2
 10
1215.32
 20
1249.78
 30
1.44
 40
14.4
  1
　９００
 50
0.0
 41
0.9
 51
0.0
  7
KANJI49
  0
TEXT
  8
0
  6
CONTINUOUS
 62
     2
 10
1215.32
 20
1221.18
 30
1.44
 40
14.4
  1
１０００
 50
0.0
 41
0.9
 51
0.0
  7
KANJI49
  0
LINE
  8
0
  6
CONTINUOUS
 62
     1
 10
992.12
 20
1041.14
 30
0.0
 11
1769.72
 21
1041.14
 31
0.0
  0
LINE
  8
0
  6
CONTINUOUS
 62
     1
 10
992.12
 20
1504.14
 30
0.0
 11
992.12
 21
1041.14
 31
0.0
  0
LINE
  8
0
  6
CONTINUOUS
 62
     1
 10
1769.72
 20
1504.14
 30
0.0
 11
1769.72
 21
1041.14
 31
0.0
  0
LINE
  8
0
  6
CONTINUOUS
 62
     1
 10
1193.72
 20
1504.14
 30
0.0
 11
1193.72
 21
1041.14
 31
0.0
  0
LINE
  8
0
  6
CONTINUOUS
 62
     2
 10
1289.72
 20
1504.14
 30
0.0
 11
1289.72
 21
1041.14
 31
0.0
  0
LINE
  8
0
  6
CONTINUOUS
 62
     2
 10
1385.72
 20
1504.14
 30
0.0
 11
1385.72
 21
1041.14
 31
0.0
  0
LINE
  8
0
  6
CONTINUOUS
 62
     2
 10
1481.72
 20
1504.14
 30
0.0
 11
1481.72
 21
1041.14
 31
0.0
  0
LINE
  8
0
  6
CONTINUOUS
 62
     2
 10
1577.72
 20
1504.14
 30
0.0
 11
1577.72
 21
1041.14
 31
0.0
  0
LINE
  8
0
  6
CONTINUOUS
 62
     2
 10
1673.72
 20
1504.14
 30
0.0
 11
1673.72
 21
1041.14
 31
0.0
  0
TEXT
  8
0
  6
CONTINUOUS
 62
     2
 10
1215.32
 20
1192.58
 30
1.44
 40
14.4
  1
１１００
 50
0.0
 41
0.9
 51
0.0
  7
KANJI49
  0
TEXT
  8
0
  6
CONTINUOUS
 62
     2
 10
1215.32
 20
1163.98
 30
1.44
 40
14.4
  1
１２００
 50
0.0
 41
0.9
 51
0.0
  7
KANJI49
  0
TEXT
  8
0
  6
CONTINUOUS
 62
     2
 10
1215.32
 20
1135.38
 30
1.44
 40
14.4
  1
１３００
 50
0.0
 41
0.9
 51
0.0
  7
KANJI49
  0
TEXT
  8
0
  6
CONTINUOUS
 62
     2
 10
1215.32
 20
1106.78
 30
1.44
 40
14.4
  1
１４００
 50
0.0
 41
0.9
 51
0.0
  7
KANJI49
  0
TEXT
  8
0
  6
CONTINUOUS
 62
     2
 10
1215.32
 20
1078.18
 30
1.44
 40
14.4
  1
１５００
 50
0.0
 41
0.9
 51
0.0
  7
KANJI49
  0
TEXT
  8
0
  6
CONTINUOUS
 62
     2
 10
1407.32
 20
1450.38
 30
1.44
 40
14.4
  1
　４７３
 50
0.0
 41
0.9
 51
0.0
  7
KANJI49
  0
TEXT
  8
0
  6
CONTINUOUS
 62
     2
 10
1407.32
 20
1421.78
 30
1.44
 40
14.4
  1
　５７３
 50
0.0
 41
0.9
 51
0.0
  7
KANJI49
  0
TEXT
  8
0
  6
CONTINUOUS
 62
     2
 10
1503.32
 20
1450.38
 30
1.44
 40
14.4
  1
　３７８
 50
0.0
 41
0.9
 51
0.0
  7
KANJI49
  0
TEXT
  8
0
  6
CONTINUOUS
 62
     2
 10
1503.32
 20
1421.78
 30
1.44
 40
14.4
  1
　４７８
 50
0.0
 41
0.9
 51
0.0
  7
KANJI49
  0
TEXT
  8
0
  6
CONTINUOUS
 62
     2
 10
1503.32
 20
1393.18
 30
1.44
 40
14.4
  1
　５７８
 50
0.0
 41
0.9
 51
0.0
  7
KANJI49
  0
TEXT
  8
0
  6
CONTINUOUS
 62
     2
 10
1503.32
 20
1364.58
 30
1.44
 40
14.4
  1
　６７８
 50
0.0
 41
0.9
 51
0.0
  7
KANJI49
  0
TEXT
  8
0
  6
CONTINUOUS
 62
     2
 10
1503.32
 20
1335.98
 30
1.44
 40
14.4
  1
　８１８
 50
0.0
 41
0.9
 51
0.0
  7
KANJI49
  0
TEXT
  8
0
  6
CONTINUOUS
 62
     2
 10
1503.32
 20
1307.38
 30
1.44
 40
14.4
  1
　９１８
 50
0.0
 41
0.9
 51
0.0
  7
KANJI49
  0
TEXT
  8
0
  6
CONTINUOUS
 62
     2
 10
1503.32
 20
1278.78
 30
1.44
 40
14.4
  1
１０１８
 50
0.0
 41
0.9
 51
0.0
  7
KANJI49
  0
TEXT
  8
0
  6
CONTINUOUS
 62
     2
 10
1503.32
 20
1250.18
 30
1.44
 40
14.4
  1
１１１８
 50
0.0
 41
0.9
 51
0.0
  7
KANJI49
  0
TEXT
  8
0
  6
CONTINUOUS
 62
     2
 10
1503.32
 20
1221.58
 30
1.44
 40
14.4
  1
１２１８
 50
0.0
 41
0.9
 51
0.0
  7
KANJI49
  0
TEXT
  8
0
  6
CONTINUOUS
 62
     2
 10
1503.32
 20
1192.98
 30
1.44
 40
14.4
  1
１３１８
 50
0.0
 41
0.9
 51
0.0
  7
KANJI49
  0
TEXT
  8
0
  6
CONTINUOUS
 62
     2
 10
1503.32
 20
1164.38
 30
1.44
 40
14.4
  1
１４１８
 50
0.0
 41
0.9
 51
0.0
  7
KANJI49
  0
TEXT
  8
0
  6
CONTINUOUS
 62
     2
 10
1503.32
 20
1135.78
 30
1.44
 40
14.4
  1
１５１８
 50
0.0
 41
0.9
 51
0.0
  7
KANJI49
  0
TEXT
  8
0
  6
CONTINUOUS
 62
     2
 10
1503.32
 20
1107.18
 30
1.44
 40
14.4
  1
１６１８
 50
0.0
 41
0.9
 51
0.0
  7
KANJI49
  0
TEXT
  8
0
  6
CONTINUOUS
 62
     2
 10
1503.32
 20
1078.58
 30
1.44
 40
14.4
  1
１７１８
 50
0.0
 41
0.9
 51
0.0
  7
KANJI49
  0
TEXT
  8
0
  6
CONTINUOUS
 62
     2
 10
1600.74
 20
1450.23
 30
1.44
 40
14.4
  1
　　４５
 50
0.0
 41
0.9
 51
0.0
  7
KANJI49
  0
LINE
  8
0
  6
CONTINUOUS
 62
     2
 10
993.54
 20
1442.59
 30
0.0
 11
1771.14
 21
1442.59
 31
0.0
  0
TEXT
  8
0
  6
CONTINUOUS
 62
     2
 10
1600.74
 20
1421.63
 30
1.44
 40
14.4
  1
　　４５
 50
0.0
 41
0.9
 51
0.0
  7
KANJI49
  0
LINE
  8
0
  6
CONTINUOUS
 62
     2
 10
993.54
 20
1413.99
 30
0.0
 11
1771.14
 21
1413.99
 31
0.0
  0
TEXT
  8
0
  6
CONTINUOUS
 62
     2
 10
1600.74
 20
1393.03
 30
1.44
 40
14.4
  1
　　８５
 50
0.0
 41
0.9
 51
0.0
  7
KANJI49
  0
LINE
  8
0
  6
CONTINUOUS
 62
     2
 10
993.54
 20
1385.39
 30
0.0
 11
1771.14
 21
1385.39
 31
0.0
  0
TEXT
  8
0
  6
CONTINUOUS
 62
     2
 10
1600.74
 20
1364.43
 30
1.44
 40
14.4
  1
　１１２
 50
0.0
 41
0.9
 51
0.0
  7
KANJI49
  0
LINE
  8
0
  6
CONTINUOUS
 62
     2
 10
993.54
 20
1356.79
 30
0.0
 11
1771.14
 21
1356.79
 31
0.0
  0
TEXT
  8
0
  6
CONTINUOUS
 62
     2
 10
1600.74
 20
1335.83
 30
1.44
 40
14.4
  1
　１２８
 50
0.0
 41
0.9
 51
0.0
  7
KANJI49
  0
LINE
  8
0
  6
CONTINUOUS
 62
     2
 10
993.54
 20
1328.19
 30
0.0
 11
1771.14
 21
1328.19
 31
0.0
  0
TEXT
  8
0
  6
CONTINUOUS
 62
     2
 10
1600.74
 20
1307.23
 30
1.44
 40
14.4
  1
　１４８
 50
0.0
 41
0.9
 51
0.0
  7
KANJI49
  0
LINE
  8
0
  6
CONTINUOUS
 62
     2
 10
993.54
 20
1299.59
 30
0.0
 11
1771.14
 21
1299.59
 31
0.0
  0
TEXT
  8
0
  6
CONTINUOUS
 62
     2
 10
1600.74
 20
1278.63
 30
1.44
 40
14.4
  1
　１６８
 50
0.0
 41
0.9
 51
0.0
  7
KANJI49
  0
LINE
  8
0
  6
CONTINUOUS
 62
     2
 10
993.54
 20
1270.99
 30
0.0
 11
1771.14
 21
1270.99
 31
0.0
  0
TEXT
  8
0
  6
CONTINUOUS
 62
     2
 10
1600.74
 20
1250.03
 30
1.44
 40
14.4
  1
　１９８
 50
0.0
 41
0.9
 51
0.0
  7
KANJI49
  0
LINE
  8
0
  6
CONTINUOUS
 62
     2
 10
993.54
 20
1242.39
 30
0.0
 11
1771.14
 21
1242.39
 31
0.0
  0
TEXT
  8
0
  6
CONTINUOUS
 62
     2
 10
1600.74
 20
1221.43
 30
1.44
 40
14.4
  1
　２３１
 50
0.0
 41
0.9
 51
0.0
  7
KANJI49
  0
LINE
  8
0
  6
CONTINUOUS
 62
     2
 10
993.54
 20
1213.79
 30
0.0
 11
1771.14
 21
1213.79
 31
0.0
  0
LINE
  8
0
  6
CONTINUOUS
 62
     2
 10
993.54
 20
1185.19
 30
0.0
 11
1771.14
 21
1185.19
 31
0.0
  0
LINE
  8
0
  6
CONTINUOUS
 62
     2
 10
993.54
 20
1156.59
 30
0.0
 11
1771.14
 21
1156.59
 31
0.0
  0
LINE
  8
0
  6
CONTINUOUS
 62
     2
 10
993.54
 20
1127.99
 30
0.0
 11
1771.14
 21
1127.99
 31
0.0
  0
LINE
  8
0
  6
CONTINUOUS
 62
     2
 10
993.54
 20
1099.39
 30
0.0
 11
1771.14
 21
1099.39
 31
0.0
  0
LINE
  8
0
  6
CONTINUOUS
 62
     2
 10
993.54
 20
1070.79
 30
0.0
 11
1771.14
 21
1070.79
 31
0.0
  0
TEXT
  8
0
  6
CONTINUOUS
 62
     2
 10
1600.74
 20
1192.83
 30
1.44
 40
14.4
  1
　２４５
 50
0.0
 41
0.9
 51
0.0
  7
KANJI49
  0
TEXT
  8
0
  6
CONTINUOUS
 62
     2
 10
1600.74
 20
1164.23
 30
1.44
 40
14.4
  1
　２６８
 50
0.0
 41
0.9
 51
0.0
  7
KANJI49
  0
TEXT
  8
0
  6
CONTINUOUS
 62
     2
 10
1600.74
 20
1135.63
 30
1.44
 40
14.4
  1
　２８８
 50
0.0
 41
0.9
 51
0.0
  7
KANJI49
  0
TEXT
  8
0
  6
CONTINUOUS
 62
     2
 10
1600.74
 20
1107.03
 30
1.44
 40
14.4
  1
　３１０
 50
0.0
 41
0.9
 51
0.0
  7
KANJI49
  0
TEXT
  8
0
  6
CONTINUOUS
 62
     2
 10
1600.74
 20
1078.43
 30
1.44
 40
14.4
  1
　３５０
 50
0.0
 41
0.9
 51
0.0
  7
KANJI49
  0
TEXT
  8
0
  6
CONTINUOUS
 62
     2
 10
1407.32
 20
1393.18
 30
1.44
 40
14.4
  1
　７１３
 50
0.0
 41
0.9
 51
0.0
  7
KANJI49
  0
TEXT
  8
0
  6
CONTINUOUS
 62
     2
 10
1407.32
 20
1364.58
 30
1.44
 40
14.4
  1
　８４０
 50
0.0
 41
0.9
 51
0.0
  7
KANJI49
  0
TEXT
  8
0
  6
CONTINUOUS
 62
     2
 10
1407.32
 20
1335.98
 30
1.44
 40
14.4
  1
　９９６
 50
0.0
 41
0.9
 51
0.0
  7
KANJI49
  0
TEXT
  8
0
  6
CONTINUOUS
 62
     2
 10
1407.32
 20
1307.38
 30
1.44
 40
14.4
  1
１１１６
 50
0.0
 41
0.9
 51
0.0
  7
KANJI49
  0
TEXT
  8
0
  6
CONTINUOUS
 62
     2
 10
1407.32
 20
1278.78
 30
1.44
 40
14.4
  1
１２３６
 50
0.0
 41
0.9
 51
0.0
  7
KANJI49
  0
TEXT
  8
0
  6
CONTINUOUS
 62
     2
 10
1407.32
 20
1250.18
 30
1.44
 40
14.4
  1
１３６６
 50
0.0
 41
0.9
 51
0.0
  7
KANJI49
  0
TEXT
  8
0
  6
CONTINUOUS
 62
     2
 10
1407.32
 20
1221.58
 30
1.44
 40
14.4
  1
１４９９
 50
0.0
 41
0.9
 51
0.0
  7
KANJI49
  0
TEXT
  8
0
  6
CONTINUOUS
 62
     2
 10
1407.32
 20
1192.98
 30
1.44
 40
14.4
  1
１５６３
 50
0.0
 41
0.9
 51
0.0
  7
KANJI49
  0
TEXT
  8
0
  6
CONTINUOUS
 62
     2
 10
1407.32
 20
1164.38
 30
1.44
 40
14.4
  1
１７３６
 50
0.0
 41
0.9
 51
0.0
  7
KANJI49
  0
TEXT
  8
0
  6
CONTINUOUS
 62
     2
 10
1407.32
 20
1135.78
 30
1.44
 40
14.4
  1
１８５６
 50
0.0
 41
0.9
 51
0.0
  7
KANJI49
  0
TEXT
  8
0
  6
CONTINUOUS
 62
     2
 10
1407.32
 20
1107.18
 30
1.44
 40
14.4
  1
１９７８
 50
0.0
 41
0.9
 51
0.0
  7
KANJI49
  0
TEXT
  8
0
  6
CONTINUOUS
 62
     2
 10
1407.32
 20
1078.58
 30
1.44
 40
14.4
  1
２１１８
 50
0.0
 41
0.9
 51
0.0
  7
KANJI49
  0
TEXT
  8
0
  6
CONTINUOUS
 62
     2
 10
1311.32
 20
1450.38
 30
1.44
 40
14.4
  1
　７９１
 50
0.0
 41
0.9
 51
0.0
  7
KANJI49
  0
TEXT
  8
0
  6
CONTINUOUS
 62
     2
 10
1311.32
 20
1421.78
 30
1.44
 40
14.4
  1
　８９１
 50
0.0
 41
0.9
 51
0.0
  7
KANJI49
  0
TEXT
  8
0
  6
CONTINUOUS
 62
     2
 10
1311.32
 20
1393.18
 30
1.44
 40
14.4
  1
１０３１
 50
0.0
 41
0.9
 51
0.0
  7
KANJI49
  0
TEXT
  8
0
  6
CONTINUOUS
 62
     2
 10
1311.32
 20
1364.58
 30
1.44
 40
14.4
  1
１１５８
 50
0.0
 41
0.9
 51
0.0
  7
KANJI49
  0
TEXT
  8
0
  6
CONTINUOUS
 62
     2
 10
1311.32
 20
1335.98
 30
1.44
 40
14.4
  1
１３１４
 50
0.0
 41
0.9
 51
0.0
  7
KANJI49
  0
TEXT
  8
0
  6
CONTINUOUS
 62
     2
 10
1311.32
 20
1307.38
 30
1.44
 40
14.4
  1
１４３４
 50
0.0
 41
0.9
 51
0.0
  7
KANJI49
  0
TEXT
  8
0
  6
CONTINUOUS
 62
     2
 10
1311.32
 20
1278.78
 30
1.44
 40
14.4
  1
１５５４
 50
0.0
 41
0.9
 51
0.0
  7
KANJI49
  0
TEXT
  8
0
  6
CONTINUOUS
 62
     2
 10
1311.32
 20
1250.18
 30
1.44
 40
14.4
  1
１６８４
 50
0.0
 41
0.9
 51
0.0
  7
KANJI49
  0
TEXT
  8
0
  6
CONTINUOUS
 62
     2
 10
1311.32
 20
1221.58
 30
1.44
 40
14.4
  1
１８１７
 50
0.0
 41
0.9
 51
0.0
  7
KANJI49
  0
TEXT
  8
0
  6
CONTINUOUS
 62
     2
 10
1311.32
 20
1192.98
 30
1.44
 40
14.4
  1
１８８１
 50
0.0
 41
0.9
 51
0.0
  7
KANJI49
  0
TEXT
  8
0
  6
CONTINUOUS
 62
     2
 10
1311.32
 20
1164.38
 30
1.44
 40
14.4
  1
２０５４
 50
0.0
 41
0.9
 51
0.0
  7
KANJI49
  0
TEXT
  8
0
  6
CONTINUOUS
 62
     2
 10
1311.32
 20
1135.78
 30
1.44
 40
14.4
  1
２１７４
 50
0.0
 41
0.9
 51
0.0
  7
KANJI49
  0
TEXT
  8
0
  6
CONTINUOUS
 62
     2
 10
1311.32
 20
1107.18
 30
1.44
 40
14.4
  1
２２９６
 50
0.0
 41
0.9
 51
0.0
  7
KANJI49
  0
TEXT
  8
0
  6
CONTINUOUS
 62
     2
 10
1311.32
 20
1078.58
 30
1.44
 40
14.4
  1
２４３６
 50
0.0
 41
0.9
 51
0.0
  7
KANJI49
  0
TEXT
  8
0
  6
CONTINUOUS
 62
     2
 10
1695.32
 20
1449.98
 30
1.44
 40
14.4
  1
　４６
 50
0.0
 41
0.9
 51
0.0
  7
KANJI49
  0
TEXT
  8
0
  6
CONTINUOUS
 62
     2
 10
1695.32
 20
1421.38
 30
1.44
 40
14.4
  1
　４９
 50
0.0
 41
0.9
 51
0.0
  7
KANJI49
  0
TEXT
  8
0
  6
CONTINUOUS
 62
     2
 10
1695.32
 20
1392.78
 30
1.44
 40
14.4
  1
　５１
 50
0.0
 41
0.9
 51
0.0
  7
KANJI49
  0
TEXT
  8
0
  6
CONTINUOUS
 62
     2
 10
1695.32
 20
1364.18
 30
1.44
 40
14.4
  1
　５３
 50
0.0
 41
0.9
 51
0.0
  7
KANJI49
  0
TEXT
  8
0
  6
CONTINUOUS
 62
     2
 10
1695.32
 20
1335.58
 30
1.44
 40
14.4
  1
　５５
 50
0.0
 41
0.9
 51
0.0
  7
KANJI49
  0
TEXT
  8
0
  6
CONTINUOUS
 62
     2
 10
1695.32
 20
1306.98
 30
1.44
 40
14.4
  1
　５８
 50
0.0
 41
0.9
 51
0.0
  7
KANJI49
  0
TEXT
  8
0
  6
CONTINUOUS
 62
     2
 10
1695.32
 20
1278.38
 30
1.44
 40
14.4
  1
　６１
 50
0.0
 41
0.9
 51
0.0
  7
KANJI49
  0
TEXT
  8
0
  6
CONTINUOUS
 62
     2
 10
1695.32
 20
1249.78
 30
1.44
 40
14.4
  1
　６３
 50
0.0
 41
0.9
 51
0.0
  7
KANJI49
  0
TEXT
  8
0
  6
CONTINUOUS
 62
     2
 10
1695.32
 20
1221.18
 30
1.44
 40
14.4
  1
　６５
 50
0.0
 41
0.9
 51
0.0
  7
KANJI49
  0
TEXT
  8
0
  6
CONTINUOUS
 62
     2
 10
1695.32
 20
1192.58
 30
1.44
 40
14.4
  1
　６７
 50
0.0
 41
0.9
 51
0.0
  7
KANJI49
  0
TEXT
  8
0
  6
CONTINUOUS
 62
     2
 10
1695.32
 20
1163.98
 30
1.44
 40
14.4
  1
　６９
 50
0.0
 41
0.9
 51
0.0
  7
KANJI49
  0
TEXT
  8
0
  6
CONTINUOUS
 62
     2
 10
1695.32
 20
1135.38
 30
1.44
 40
14.4
  1
　７１
 50
0.0
 41
0.9
 51
0.0
  7
KANJI49
  0
TEXT
  8
0
  6
CONTINUOUS
 62
     2
 10
1695.32
 20
1106.78
 30
1.44
 40
14.4
  1
　７３
 50
0.0
 41
0.9
 51
0.0
  7
KANJI49
  0
TEXT
  8
0
  6
CONTINUOUS
 62
     2
 10
1695.32
 20
1078.18
 30
1.44
 40
14.4
  1
　７５
 50
0.0
 41
0.9
 51
0.0
  7
KANJI49
  0
TEXT
  8
0
  6
CONTINUOUS
 62
     2
 10
1007.72
 20
1449.62
 30
0.96
 40
14.4
  1
ＭＤ０５－　　２ＪＰＮ
 50
0.0
 41
0.833333333
 51
0.0
  7
KANJI54
  0
TEXT
  8
0
  6
CONTINUOUS
 62
     2
 10
1007.72
 20
1421.02
 30
0.96
 40
14.4
  1
ＭＤ０５－　　３ＪＰＮ
 50
0.0
 41
0.833333333
 51
0.0
  7
KANJI54
  0
TEXT
  8
0
  6
CONTINUOUS
 62
     2
 10
1007.72
 20
1392.42
 30
0.96
 40
14.4
  1
ＭＤ０５－　　４ＪＰＮ
 50
0.0
 41
0.833333333
 51
0.0
  7
KANJI54
  0
TEXT
  8
0
  6
CONTINUOUS
 62
     2
 10
1007.72
 20
1363.82
 30
0.96
 40
14.4
  1
ＭＤ０５－　　５ＪＰＮ
 50
0.0
 41
0.833333333
 51
0.0
  7
KANJI54
  0
TEXT
  8
0
  6
CONTINUOUS
 62
     2
 10
1007.72
 20
1335.22
 30
0.96
 40
14.4
  1
ＭＤ０５－　　６ＪＰＮ
 50
0.0
 41
0.833333333
 51
0.0
  7
KANJI54
  0
TEXT
  8
0
  6
CONTINUOUS
 62
     2
 10
1007.72
 20
1306.62
 30
0.96
 40
14.4
  1
ＭＤ０５－　　７ＪＰＮ
 50
0.0
 41
0.833333333
 51
0.0
  7
KANJI54
  0
TEXT
  8
0
  6
CONTINUOUS
 62
     2
 10
1007.72
 20
1278.02
 30
0.96
 40
14.4
  1
ＭＤ０５－　　８ＪＰＮ
 50
0.0
 41
0.833333333
 51
0.0
  7
KANJI54
  0
TEXT
  8
0
  6
CONTINUOUS
 62
     2
 10
1007.72
 20
1249.42
 30
0.96
 40
14.4
  1
ＭＤ０５－　　９ＪＰＮ
 50
0.0
 41
0.833333333
 51
0.0
  7
KANJI54
  0
TEXT
  8
0
  6
CONTINUOUS
 62
     2
 10
1007.72
 20
1220.82
 30
0.96
 40
14.4
  1
ＭＤ０５－　１０ＪＰＮ
 50
0.0
 41
0.833333333
 51
0.0
  7
KANJI54
  0
TEXT
  8
0
  6
CONTINUOUS
 62
     2
 10
1007.72
 20
1192.22
 30
0.96
 40
14.4
  1
ＭＤ０５－　１１ＪＰＮ
 50
0.0
 41
0.833333333
 51
0.0
  7
KANJI54
  0
TEXT
  8
0
  6
CONTINUOUS
 62
     2
 10
1007.72
 20
1163.62
 30
0.96
 40
14.4
  1
ＭＤ０５－　１２ＪＰＮ
 50
0.0
 41
0.833333333
 51
0.0
  7
KANJI54
  0
TEXT
  8
0
  6
CONTINUOUS
 62
     2
 10
1007.72
 20
1135.02
 30
0.96
 40
14.4
  1
ＭＤ０５－　１３ＪＰＮ
 50
0.0
 41
0.833333333
 51
0.0
  7
KANJI54
  0
TEXT
  8
0
  6
CONTINUOUS
 62
     2
 10
1007.72
 20
1106.42
 30
0.96
 40
14.4
  1
ＭＤ０５－　１４ＪＰＮ
 50
0.0
 41
0.833333333
 51
0.0
  7
KANJI54
  0
TEXT
  8
0
  6
CONTINUOUS
 62
     2
 10
1007.72
 20
1077.82
 30
0.96
 40
14.4
  1
ＭＤ０５－　１５ＪＰＮ
 50
0.0
 41
0.833333333
 51
0.0
  7
KANJI54
  0
TEXT
  8
0
  6
CONTINUOUS
 62
     2
 10
1007.72
 20
1048.82
 30
0.96
 40
14.4
  1
ＭＤ０５－　　　ＪＰＮ
 50
0.0
 41
0.833333333
 51
0.0
  7
KANJI54
  0
TEXT
  8
0
  6
CONTINUOUS
 62
     3
 10
357.7000004
 20
803.5200196
 30
1.8
 40
18.0
  1
手動軸□８
 50
0.0
 41
0.9
 51
0.0
  7
KANJI55
  0
LINE
  8
0
  6
CONTINUOUS
 62
     2
 10
855.536652456
 20
180.933311846
 30
0.0
 11
855.536652456
 21
125.633311846
 31
0.0
  0
LINE
  8
0
  6
CONTINUOUS
 62
     2
 10
696.336652456
 20
167.633311846
 30
0.0
 11
855.536652456
 21
167.633311846
 31
0.0
  0
LINE
  8
0
  6
CONTINUOUS
 62
     2
 10
855.536652456
 20
167.633311846
 30
0.0
 11
847.809245846
 21
169.703864207
 31
0.0
  0
LINE
  8
0
  6
CONTINUOUS
 62
     2
 10
855.536652456
 20
167.633311846
 30
0.0
 11
847.809245846
 21
165.562759485
 31
0.0
  0
TEXT
  8
0
  6
CONTINUOUS
 62
     3
 10
736.086652456
 20
169.633311846
 30
0.0
 40
15.0
  1
常用ストローク
 50
0.0
 41
0.9
 51
0.0
  7
KANJI47
  0
TEXT
  8
0
  6
CONTINUOUS
 62
     2
 10
1689.92
 20
622.6
 30
5.985
 40
21.0
  1
２．モートル：全閉自冷かご形３０分定格
 50
0.0
 41
0.857222222
 51
0.0
  7
KANJI33
  0
LINE
  8
0
  6
LTYPE2
 62
     2
 10
1275.866666667
 20
547.0
 30
0.0
 11
1331.566666667
 21
547.0
 31
0.0
  0
LINE
  8
0
  6
LTYPE2
 62
     2
 10
1264.206676122
 20
547.0
 30
0.0
 11
1313.206676122
 21
547.0
 31
0.0
  0
LINE
  8
0
  6
CONTINUOUS
 62
     1
 10
1302.506676122
 20
560.85
 30
0.0
 11
1302.506676122
 21
533.15
 31
0.0
  0
LINE
  8
0
  6
CONTINUOUS
 62
     1
 10
1307.306676122
 20
553.9
 30
0.0
 11
1302.506676122
 21
553.9
 31
0.0
  0
LINE
  8
0
  6
CONTINUOUS
 62
     1
 10
1307.306676122
 20
540.1
 30
0.0
 11
1302.506676122
 21
540.1
 31
0.0
  0
LINE
  8
0
  6
CONTINUOUS
 62
     1
 10
1307.306676122
 20
533.15
 30
0.0
 11
1302.506676122
 21
533.15
 31
0.0
  0
LINE
  8
0
  6
CONTINUOUS
 62
     1
 10
1307.306676122
 20
560.85
 30
0.0
 11
1302.506676122
 21
560.85
 31
0.0
  0
LINE
  8
0
  6
CONTINUOUS
 62
     1
 10
1297.306676122
 20
561.65
 30
0.0
 11
1297.306676122
 21
532.35
 31
0.0
  0
LINE
  8
0
  6
CONTINUOUS
 62
     1
 10
1297.306676122
 20
561.65
 30
0.0
 11
1284.306676122
 21
561.65
 31
0.0
  0
ARC
  8
0
  6
CONTINUOUS
 62
     1
 10
1284.306676122
 20
559.65
 30
0.0
 40
2.0
 50
90.0
 51
180.0
  0
LINE
  8
0
  6
CONTINUOUS
 62
     1
 10
1297.306676122
 20
532.35
 30
0.0
 11
1284.306676122
 21
532.35
 31
0.0
  0
LINE
  8
0
  6
CONTINUOUS
 62
     1
 10
1282.306676122
 20
559.65
 30
0.0
 11
1282.306676122
 21
534.35
 31
0.0
  0
ARC
  8
0
  6
CONTINUOUS
 62
     1
 10
1284.306676122
 20
534.35
 30
0.0
 40
2.0
 50
180.0
 51
270.0
  0
LINE
  8
0
  6
CONTINUOUS
 62
     1
 10
1286.306676122
 20
534.35
 30
0.0
 11
1297.306676122
 21
534.35
 31
0.0
  0
LINE
  8
0
  6
CONTINUOUS
 62
     1
 10
1286.306676122
 20
543.25
 30
0.0
 11
1297.306676122
 21
543.25
 31
0.0
  0
LINE
  8
0
  6
CONTINUOUS
 62
     1
 10
1286.306676122
 20
539.15
 30
0.0
 11
1297.306676122
 21
539.15
 31
0.0
  0
LINE
  8
0
  6
CONTINUOUS
 62
     1
 10
1286.306676122
 20
539.15
 30
0.0
 11
1286.306676122
 21
534.35
 31
0.0
  0
LINE
  8
0
  6
CONTINUOUS
 62
     1
 10
1286.306676122
 20
547.0
 30
0.0
 11
1286.306676122
 21
543.25
 31
0.0
  0
LINE
  8
0
  6
CONTINUOUS
 62
     1
 10
1286.306676122
 20
559.65
 30
0.0
 11
1297.306676122
 21
559.65
 31
0.0
  0
LINE
  8
0
  6
CONTINUOUS
 62
     1
 10
1286.306676122
 20
550.75
 30
0.0
 11
1297.306676122
 21
550.75
 31
0.0
  0
LINE
  8
0
  6
CONTINUOUS
 62
     1
 10
1286.306676122
 20
554.85
 30
0.0
 11
1297.306676122
 21
554.85
 31
0.0
  0
LINE
  8
0
  6
CONTINUOUS
 62
     1
 10
1286.306676122
 20
554.85
 30
0.0
 11
1286.306676122
 21
559.65
 31
0.0
  0
LINE
  8
0
  6
CONTINUOUS
 62
     1
 10
1286.306676122
 20
547.0
 30
0.0
 11
1286.306676122
 21
550.75
 31
0.0
  0
LINE
  8
0
  6
CONTINUOUS
 62
     1
 10
1302.606676122
 20
534.3
 30
0.0
 11
1297.306676122
 21
534.3
 31
0.0
  0
LINE
  8
0
  6
CONTINUOUS
 62
     1
 10
1302.606676122
 20
535.1
 30
0.0
 11
1297.306676122
 21
535.1
 31
0.0
  0
LINE
  8
0
  6
CONTINUOUS
 62
     1
 10
1302.606676122
 20
559.7
 30
0.0
 11
1297.306676122
 21
559.7
 31
0.0
  0
LINE
  8
0
  6
CONTINUOUS
 62
     1
 10
1302.606676122
 20
558.9
 30
0.0
 11
1297.306676122
 21
558.9
 31
0.0
  0
LINE
  8
0
  6
CONTINUOUS
 62
     1
 10
1282.306676122
 20
551.5
 30
0.0
 11
1262.306676122
 21
551.5
 31
0.0
  0
LINE
  8
0
  6
CONTINUOUS
 62
     1
 10
1282.306676122
 20
542.5
 30
0.0
 11
1262.306676122
 21
542.5
 31
0.0
  0
ARC
  8
0
  6
CONTINUOUS
 62
     1
 10
1262.306676122
 20
536.5
 30
0.0
 40
6.0
 50
90.0
 51
180.0
  0
LINE
  8
0
  6
CONTINUOUS
 62
     1
 10
1256.306676122
 20
524.0
 30
0.0
 11
1256.306676122
 21
536.5
 31
0.0
  0
ARC
  8
0
  6
CONTINUOUS
 62
     1
 10
1262.306676122
 20
536.5
 30
0.0
 40
15.0
 50
90.0
 51
180.0
  0
LINE
  8
0
  6
CONTINUOUS
 62
     1
 10
1247.306676122
 20
524.0
 30
0.0
 11
1247.306676122
 21
536.5
 31
0.0
  0
LINE
  8
0
  6
LTYPE2
 62
     2
 10
1251.806676122
 20
524.0
 30
0.0
 11
1251.806676122
 21
536.5
 31
0.0
  0
ARC
  8
0
  6
LTYPE2
 62
     2
 10
1262.306676122
 20
536.5
 30
0.0
 40
10.5
 50
90.0
 51
180.0
  0
ARC
  8
0
  6
CONTINUOUS
 62
     1
 10
1262.306676122
 20
524.0
 30
0.0
 40
6.0
 50
180.0
 51
270.0
  0
ARC
  8
0
  6
CONTINUOUS
 62
     1
 10
1262.306676122
 20
524.0
 30
0.0
 40
15.0
 50
180.0
 51
270.0
  0
ARC
  8
0
  6
LTYPE2
 62
     2
 10
1262.306676122
 20
524.0
 30
0.0
 40
10.5
 50
180.0
 51
270.0
  0
LINE
  8
0
  6
CONTINUOUS
 62
     1
 10
1342.706676122
 20
518.0
 30
0.0
 11
1262.306676122
 21
518.0
 31
0.0
  0
LINE
  8
0
  6
CONTINUOUS
 62
     1
 10
1366.306676122
 20
509.0
 30
0.0
 11
1262.306676122
 21
509.0
 31
0.0
  0
LINE
  8
0
  6
LTYPE2
 62
     2
 10
1366.306676122
 20
513.5
 30
0.0
 11
1262.306676122
 21
513.5
 31
0.0
  0
ARC
  8
0
  6
CONTINUOUS
 62
     1
 10
129.306676122
 20
816.9
 30
0.0
 40
6.0
 50
270.0
 51
0.0
  0
LINE
  8
0
  6
CONTINUOUS
 62
     1
 10
129.306676122
 20
810.9
 30
0.0
 11
128.206676122
 21
810.9
 31
0.0
  0
LINE
  8
0
  6
LTYPE4
 62
     2
 10
86.706676122
 20
740.3
 30
0.0
 11
98.706676122
 21
740.3
 31
0.0
  0
LINE
  8
0
  6
LTYPE4
 62
     2
 10
92.306676122
 20
855.3
 30
0.0
 11
92.306676122
 21
786.3
 31
0.0
  0
ARC
  8
0
  6
CONTINUOUS
 62
     1
 10
124.306676122
 20
810.8
 30
0.0
 40
4.0
 50
337.976702835
 51
0.0
  0
ARC
  8
0
  6
CONTINUOUS
 62
     1
 10
92.306676122
 20
740.3
 30
0.0
 40
78.0
 50
18.671706895
 51
73.994043093
  0
LINE
  8
0
  6
CONTINUOUS
 62
     1
 10
107.306676122
 20
779.75
 30
0.0
 11
107.306676122
 21
815.3
 31
0.0
  0
LINE
  8
0
  6
CONTINUOUS
 62
     1
 10
92.306676122
 20
814.3
 30
0.0
 11
102.306676122
 21
814.3
 31
0.0
  0
LINE
  8
0
  6
CONTINUOUS
 62
     1
 10
102.067261275
 20
816.394879912
 30
0.0
 11
101.506676122
 21
821.3
 31
0.0
  0
LINE
  8
0
  6
CONTINUOUS
 62
     1
 10
102.306676122
 20
814.3
 30
0.0
 11
102.067261275
 21
816.394879912
 31
0.0
  0
LINE
  8
0
  6
CONTINUOUS
 62
     1
 10
92.306676122
 20
814.3
 30
0.0
 11
82.306676122
 21
814.3
 31
0.0
  0
LINE
  8
0
  6
CONTINUOUS
 62
     1
 10
82.546090969
 20
816.394879912
 30
0.0
 11
83.106676122
 21
821.3
 31
0.0
  0
LINE
  8
0
  6
CONTINUOUS
 62
     1
 10
82.306676122
 20
814.3
 30
0.0
 11
82.546090969
 21
816.394879912
 31
0.0
  0
ARC
  8
0
  6
CONTINUOUS
 62
     1
 10
92.306676122
 20
851.8
 30
0.0
 40
4.0
 50
0.0
 51
180.0
  0
LINE
  8
0
  6
LTYPE2
 62
     2
 10
85.606676122
 20
835.3
 30
0.0
 11
102.306676122
 21
835.3
 31
0.0
  0
ARC
  8
0
  6
LTYPE1
 62
     2
 10
92.306676122
 20
851.8
 30
0.0
 40
4.0
 50
180.0
 51
0.0
  0
LINE
  8
0
  6
CONTINUOUS
 62
     1
 10
88.306676122
 20
818.3
 30
0.0
 11
88.306676122
 21
851.8
 31
0.0
  0
LINE
  8
0
  6
CONTINUOUS
 62
     1
 10
96.306676122
 20
818.3
 30
0.0
 11
96.306676122
 21
851.8
 31
0.0
  0
ARC
  8
0
  6
CONTINUOUS
 62
     1
 10
98.306676122
 20
818.3
 30
0.0
 40
2.0
 50
180.0
 51
270.0
  0
ARC
  8
0
  6
CONTINUOUS
 62
     1
 10
86.306676122
 20
818.3
 30
0.0
 40
2.0
 50
270.0
 51
0.0
  0
LINE
  8
0
  6
CONTINUOUS
 62
     1
 10
88.306676122
 20
822.147826087
 30
0.0
 11
83.106676122
 21
821.3
 31
0.0
  0
LINE
  8
0
  6
CONTINUOUS
 62
     1
 10
96.306676122
 20
822.147826087
 30
0.0
 11
101.506676122
 21
821.3
 31
0.0
  0
LINE
  8
0
  6
LTYPE1
 62
     2
 10
92.306676122
 20
822.8
 30
0.0
 11
88.306676122
 21
822.147826087
 31
0.0
  0
LINE
  8
0
  6
LTYPE1
 62
     2
 10
92.306676122
 20
822.8
 30
0.0
 11
96.306676122
 21
822.147826087
 31
0.0
  0
ARC
  8
0
  6
CONTINUOUS
 62
     1
 10
124.306676122
 20
862.0
 30
0.0
 40
4.0
 50
360.0
 51
90.0
  0
ARC
  8
0
  6
CONTINUOUS
 62
     1
 10
129.306676122
 20
864.0
 30
0.0
 40
6.0
 50
0.0
 51
90.0
  0
LINE
  8
0
  6
CONTINUOUS
 62
     1
 10
128.306676122
 20
862.0
 30
0.0
 11
128.306676122
 21
812.1
 31
0.0
  0
ARC
  8
0
  6
CONTINUOUS
 62
     1
 10
92.306676122
 20
740.3
 30
0.0
 40
80.0
 50
18.209956864
 51
62.341889553
  0
LINE
  8
0
  6
LTYPE5
 62
     2
 10
92.306676122
 20
480.4375
 30
0.0
 11
92.306676122
 21
880.9
 31
0.0
  0
LINE
  8
0
  6
CONTINUOUS
 62
     1
 10
135.306676122
 20
864.0
 30
0.0
 11
135.306676122
 21
816.7
 31
0.0
  0
ARC
  8
0
  6
CONTINUOUS
 62
     1
 10
192.306676122
 20
755.3
 30
0.0
 40
10.0
 50
0.0
 51
90.0
  0
LINE
  8
0
  6
CONTINUOUS
 62
     1
 10
202.306676122
 20
523.3
 30
0.0
 11
202.306676122
 21
755.3
 31
0.0
  0
ARC
  8
0
  6
CONTINUOUS
 62
     1
 10
190.306676122
 20
752.7
 30
0.0
 40
12.0
 50
180.0
 51
270.0
  0
LINE
  8
0
  6
CONTINUOUS
 62
     1
 10
190.306676122
 20
740.7
 30
0.0
 11
197.806676122
 21
740.7
 31
0.0
  0
ARC
  8
0
  6
CONTINUOUS
 62
     1
 10
173.306676122
 20
759.7
 30
0.0
 40
5.0
 50
0.0
 51
90.0
  0
ARC
  8
0
  6
CONTINUOUS
 62
     1
 10
197.306676122
 20
735.7
 30
0.0
 40
5.0
 50
0.0
 51
90.0
  0
LINE
  8
0
  6
CONTINUOUS
 62
     1
 10
178.306676122
 20
752.7
 30
0.0
 11
178.306676122
 21
759.7
 31
0.0
  0
LINE
  8
0
  6
LTYPE2
 62
     2
 10
179.306676122
 20
752.7
 30
0.0
 11
200.306676122
 21
752.7
 31
0.0
  0
LINE
  8
0
  6
LTYPE2
 62
     2
 10
190.306676122
 20
763.7
 30
0.0
 11
190.306676122
 21
742.2
 31
0.0
  0
CIRCLE
  8
0
  6
CONTINUOUS
 62
     1
 10
190.306676122
 20
752.7
 30
0.0
 40
8.5
  0
LINE
  8
0
  6
CONTINUOUS
 62
     1
 10
198.806676122
 20
747.8
 30
0.0
 11
198.806676122
 21
757.6
 31
0.0
  0
LINE
  8
0
  6
CONTINUOUS
 62
     1
 10
198.806676122
 20
757.6
 30
0.0
 11
190.306676122
 21
762.5
 31
0.0
  0
LINE
  8
0
  6
CONTINUOUS
 62
     1
 10
181.806676122
 20
747.8
 30
0.0
 11
181.806676122
 21
757.6
 31
0.0
  0
LINE
  8
0
  6
CONTINUOUS
 62
     1
 10
181.806676122
 20
757.6
 30
0.0
 11
190.306676122
 21
762.5
 31
0.0
  0
LINE
  8
0
  6
CONTINUOUS
 62
     1
 10
198.806676122
 20
747.8
 30
0.0
 11
190.306676122
 21
742.9
 31
0.0
  0
LINE
  8
0
  6
CONTINUOUS
 62
     1
 10
181.806676122
 20
747.8
 30
0.0
 11
190.306676122
 21
742.9
 31
0.0
  0
ARC
  8
0
  6
CONTINUOUS
 62
     1
 10
157.306676122
 20
558.3
 30
0.0
 40
35.0
 50
270.0
 51
0.0
  0
ARC
  8
0
  6
CONTINUOUS
 62
     1
 10
157.306676122
 20
675.5
 30
0.0
 40
35.0
 50
0.0
 51
90.0
  0
LINE
  8
0
  6
CONTINUOUS
 62
     1
 10
192.306676122
 20
558.3
 30
0.0
 11
192.306676122
 21
720.3
 31
0.0
  0
ARC
  8
0
  6
CONTINUOUS
 62
     1
 10
157.306676122
 20
720.3
 30
0.0
 40
35.0
 50
0.0
 51
90.0
  0
LINE
  8
0
  6
CONTINUOUS
 62
     1
 10
207.106676122
 20
560.35
 30
0.0
 11
207.106676122
 21
532.65
 31
0.0
  0
LINE
  8
0
  6
CONTINUOUS
 62
     1
 10
202.306676122
 20
560.35
 30
0.0
 11
207.106676122
 21
560.35
 31
0.0
  0
LINE
  8
0
  6
CONTINUOUS
 62
     1
 10
212.306676122
 20
561.15
 30
0.0
 11
212.306676122
 21
531.85
 31
0.0
  0
LINE
  8
0
  6
CONTINUOUS
 62
     1
 10
212.306676122
 20
561.15
 30
0.0
 11
225.306676122
 21
561.15
 31
0.0
  0
LINE
  8
0
  6
CONTINUOUS
 62
     1
 10
223.306676122
 20
559.15
 30
0.0
 11
212.306676122
 21
559.15
 31
0.0
  0
LINE
  8
0
  6
CONTINUOUS
 62
     1
 10
223.306676122
 20
554.35
 30
0.0
 11
212.306676122
 21
554.35
 31
0.0
  0
LINE
  8
0
  6
CONTINUOUS
 62
     1
 10
207.006676122
 20
559.2
 30
0.0
 11
212.306676122
 21
559.2
 31
0.0
  0
LINE
  8
0
  6
CONTINUOUS
 62
     1
 10
207.006676122
 20
558.4
 30
0.0
 11
212.306676122
 21
558.4
 31
0.0
  0
ARC
  8
0
  6
CONTINUOUS
 62
     1
 10
142.306676122
 20
496.0
 30
0.0
 40
1.0
 50
270.0
 51
0.0
  0
ARC
  8
0
  6
CONTINUOUS
 62
     1
 10
139.306676122
 20
495.0
 30
0.0
 40
1.0
 50
270.0
 51
0.0
  0
LINE
  8
0
  6
LTYPE4
 62
     2
 10
137.306676122
 20
490.3
 30
0.0
 11
137.306676122
 21
509.0
 31
0.0
  0
LINE
  8
0
  6
CONTINUOUS
 62
     1
 10
143.306676122
 20
496.0
 30
0.0
 11
143.306676122
 21
513.3
 31
0.0
  0
ARC
  8
0
  6
CONTINUOUS
 62
     1
 10
192.306676122
 20
523.3
 30
0.0
 40
10.0
 50
270.0
 51
0.0
  0
ARC
  8
0
  6
CONTINUOUS
 62
     1
 10
190.306676122
 20
525.3
 30
0.0
 40
12.0
 50
90.0
 51
180.0
  0
LINE
  8
0
  6
CONTINUOUS
 62
     1
 10
190.306676122
 20
537.3
 30
0.0
 11
197.806676122
 21
537.3
 31
0.0
  0
ARC
  8
0
  6
CONTINUOUS
 62
     1
 10
173.306676122
 20
518.3
 30
0.0
 40
5.0
 50
270.0
 51
0.0
  0
ARC
  8
0
  6
CONTINUOUS
 62
     1
 10
197.306676122
 20
542.3
 30
0.0
 40
5.0
 50
270.0
 51
0.0
  0
LINE
  8
0
  6
CONTINUOUS
 62
     1
 10
178.306676122
 20
525.3
 30
0.0
 11
178.306676122
 21
518.3
 31
0.0
  0
LINE
  8
0
  6
LTYPE2
 62
     2
 10
179.306676122
 20
525.3
 30
0.0
 11
200.306676122
 21
525.3
 31
0.0
  0
LINE
  8
0
  6
LTYPE2
 62
     2
 10
190.306676122
 20
514.3
 30
0.0
 11
190.306676122
 21
535.8
 31
0.0
  0
CIRCLE
  8
0
  6
CONTINUOUS
 62
     1
 10
190.306676122
 20
525.3
 30
0.0
 40
8.5
  0
LINE
  8
0
  6
CONTINUOUS
 62
     1
 10
198.806676122
 20
530.2
 30
0.0
 11
198.806676122
 21
520.4
 31
0.0
  0
LINE
  8
0
  6
CONTINUOUS
 62
     1
 10
198.806676122
 20
520.4
 30
0.0
 11
190.306676122
 21
515.5
 31
0.0
  0
LINE
  8
0
  6
CONTINUOUS
 62
     1
 10
181.806676122
 20
530.2
 30
0.0
 11
181.806676122
 21
520.4
 31
0.0
  0
LINE
  8
0
  6
CONTINUOUS
 62
     1
 10
181.806676122
 20
520.4
 30
0.0
 11
190.306676122
 21
515.5
 31
0.0
  0
LINE
  8
0
  6
CONTINUOUS
 62
     1
 10
198.806676122
 20
530.2
 30
0.0
 11
190.306676122
 21
535.1
 31
0.0
  0
LINE
  8
0
  6
CONTINUOUS
 62
     1
 10
181.806676122
 20
530.2
 30
0.0
 11
190.306676122
 21
535.1
 31
0.0
  0
LINE
  8
0
  6
CONTINUOUS
 62
     2
 10
202.306676122
 20
413.05
 30
0.0
 11
190.232603293
 21
416.285238064
 31
0.0
  0
LINE
  8
0
  6
CONTINUOUS
 62
     2
 10
202.306676122
 20
413.05
 30
0.0
 11
190.232603293
 21
409.814761936
 31
0.0
  0
LINE
  8
0
  6
CONTINUOUS
 62
     2
 10
202.306676122
 20
515.8
 30
0.0
 11
202.306676122
 21
405.55
 31
0.0
  0
LINE
  8
0
  6
CONTINUOUS
 62
     1
 10
142.606676122
 20
494.0
 30
0.0
 11
132.006676122
 21
494.0
 31
0.0
  0
ARC
  8
0
  6
CONTINUOUS
 62
     1
 10
137.706676122
 20
495.0
 30
0.0
 40
5.0
 50
272.3
 51
348.5
  0
ARC
  8
0
  6
CONTINUOUS
 62
     1
 10
136.906676122
 20
495.0
 30
0.0
 40
5.0
 50
191.5
 51
267.7
  0
LINE
  8
0
  6
CONTINUOUS
 62
     1
 10
137.906676122
 20
490.0
 30
0.0
 11
136.706676122
 21
490.0
 31
0.0
  0
LINE
  8
0
  6
LTYPE6
 62
     2
 10
137.306676122
 20
486.6
 30
0.0
 11
137.306676122
 21
500.0
 31
0.0
  0
LINE
  8
0
  6
CONTINUOUS
 62
     1
 10
202.306676122
 20
553.4
 30
0.0
 11
207.106676122
 21
553.4
 31
0.0
  0
LINE
  8
0
  6
CONTINUOUS
 62
     1
 10
202.306676122
 20
539.6
 30
0.0
 11
207.106676122
 21
539.6
 31
0.0
  0
LINE
  8
0
  6
CONTINUOUS
 62
     1
 10
202.306676122
 20
532.65
 30
0.0
 11
207.106676122
 21
532.65
 31
0.0
  0
ARC
  8
0
  6
CONTINUOUS
 62
     1
 10
225.306676122
 20
559.15
 30
0.0
 40
2.0
 50
0.0
 51
90.0
  0
LINE
  8
0
  6
CONTINUOUS
 62
     1
 10
212.306676122
 20
531.85
 30
0.0
 11
225.306676122
 21
531.85
 31
0.0
  0
LINE
  8
0
  6
CONTINUOUS
 62
     1
 10
227.306676122
 20
559.15
 30
0.0
 11
227.306676122
 21
533.85
 31
0.0
  0
ARC
  8
0
  6
CONTINUOUS
 62
     1
 10
225.306676122
 20
533.85
 30
0.0
 40
2.0
 50
270.0
 51
0.0
  0
LINE
  8
0
  6
CONTINUOUS
 62
     1
 10
223.306676122
 20
533.85
 30
0.0
 11
212.306676122
 21
533.85
 31
0.0
  0
LINE
  8
0
  6
CONTINUOUS
 62
     1
 10
223.306676122
 20
542.75
 30
0.0
 11
212.306676122
 21
542.75
 31
0.0
  0
LINE
  8
0
  6
CONTINUOUS
 62
     1
 10
223.306676122
 20
538.65
 30
0.0
 11
212.306676122
 21
538.65
 31
0.0
  0
LINE
  8
0
  6
CONTINUOUS
 62
     1
 10
223.306676122
 20
538.65
 30
0.0
 11
223.306676122
 21
533.85
 31
0.0
  0
LINE
  8
0
  6
CONTINUOUS
 62
     1
 10
223.306676122
 20
546.5
 30
0.0
 11
223.306676122
 21
542.75
 31
0.0
  0
LINE
  8
0
  6
CONTINUOUS
 62
     1
 10
223.306676122
 20
550.25
 30
0.0
 11
212.306676122
 21
550.25
 31
0.0
  0
LINE
  8
0
  6
CONTINUOUS
 62
     1
 10
223.306676122
 20
554.35
 30
0.0
 11
223.306676122
 21
559.15
 31
0.0
  0
LINE
  8
0
  6
CONTINUOUS
 62
     1
 10
223.306676122
 20
546.5
 30
0.0
 11
223.306676122
 21
550.25
 31
0.0
  0
LINE
  8
0
  6
CONTINUOUS
 62
     1
 10
207.006676122
 20
533.8
 30
0.0
 11
212.306676122
 21
533.8
 31
0.0
  0
LINE
  8
0
  6
CONTINUOUS
 62
     1
 10
207.006676122
 20
534.6
 30
0.0
 11
212.306676122
 21
534.6
 31
0.0
  0
LINE
  8
0
  6
CONTINUOUS
 62
     1
 10
227.306676122
 20
551.0
 30
0.0
 11
247.306676122
 21
551.0
 31
0.0
  0
LINE
  8
0
  6
CONTINUOUS
 62
     1
 10
227.306676122
 20
542.0
 30
0.0
 11
247.306676122
 21
542.0
 31
0.0
  0
ARC
  8
0
  6
CONTINUOUS
 62
     1
 10
247.306676122
 20
536.0
 30
0.0
 40
6.0
 50
0.0
 51
90.0
  0
LINE
  8
0
  6
CONTINUOUS
 62
     1
 10
253.306676122
 20
523.5
 30
0.0
 11
253.306676122
 21
536.0
 31
0.0
  0
ARC
  8
0
  6
CONTINUOUS
 62
     1
 10
247.306676122
 20
536.0
 30
0.0
 40
15.0
 50
0.0
 51
90.0
  0
LINE
  8
0
  6
CONTINUOUS
 62
     1
 10
262.306676122
 20
523.5
 30
0.0
 11
262.306676122
 21
536.0
 31
0.0
  0
ARC
  8
0
  6
CONTINUOUS
 62
     1
 10
247.306676122
 20
523.5
 30
0.0
 40
6.0
 50
270.0
 51
0.0
  0
ARC
  8
0
  6
CONTINUOUS
 62
     1
 10
247.306676122
 20
523.5
 30
0.0
 40
15.0
 50
270.0
 51
0.0
  0
LINE
  8
0
  6
CONTINUOUS
 62
     1
 10
143.306676122
 20
508.5
 30
0.0
 11
247.306676122
 21
508.5
 31
0.0
  0
ARC
  8
0
  6
CONTINUOUS
 62
     1
 10
92.306676122
 20
740.3
 30
0.0
 40
15.0
 50
0.0
 51
133.401910795
  0
ARC
  8
0
  6
CONTINUOUS
 62
     1
 10
92.306676122
 20
740.3
 30
0.0
 40
15.0
 50
226.598089205
 51
0.0
  0
LINE
  8
0
  6
LTYPE4
 62
     2
 10
82.0
 20
740.3
 30
0.0
 11
145.40775477
 21
740.3
 31
0.0
  0
LINE
  8
0
  6
CONTINUOUS
 62
     1
 10
82.0
 20
765.3
 30
0.0
 11
192.306676122
 21
765.3
 31
0.0
  0
LINE
  8
0
  6
LTYPE2
 62
     2
 10
213.066666667
 20
604.5
 30
0.0
 11
82.0
 21
604.5
 31
0.0
  0
ARC
  8
0
  6
CONTINUOUS
 62
     1
 10
92.306676122
 20
740.3
 30
0.0
 40
43.0
 50
36.415496979
 51
103.868253042
  0
LINE
  8
0
  6
CONTINUOUS
 62
     1
 10
82.0
 20
815.3
 30
0.0
 11
113.806676122
 21
815.3
 31
0.0
  0
LINE
  8
0
  6
CONTINUOUS
 62
     1
 10
157.306676122
 20
710.5
 30
0.0
 11
82.0
 21
710.5
 31
0.0
  0
LINE
  8
0
  6
CONTINUOUS
 62
     1
 10
82.0
 20
755.3
 30
0.0
 11
157.306676122
 21
755.3
 31
0.0
  0
LINE
  8
0
  6
CONTINUOUS
 62
     1
 10
82.0
 20
866.0
 30
0.0
 11
124.306676122
 21
866.0
 31
0.0
  0
LINE
  8
0
  6
CONTINUOUS
 62
     1
 10
82.0
 20
870.0
 30
0.0
 11
129.306676122
 21
870.0
 31
0.0
  0
ARC
  8
0
  6
LTYPE1
 62
     1
 10
92.306676122
 20
740.3
 30
0.0
 40
80.0
 50
62.341889553
 51
97.40218715
  0
LINE
  8
0
  6
CONTINUOUS
 62
     1
 10
143.306676122
 20
501.0
 30
0.0
 11
82.0
 21
501.0
 31
0.0
  0
LINE
  8
0
  6
CONTINUOUS
 62
     1
 10
143.306676122
 20
502.5
 30
0.0
 11
82.0
 21
502.5
 31
0.0
  0
LINE
  8
0
  6
CONTINUOUS
 62
     1
 10
139.306676122
 20
494.0
 30
0.0
 11
82.0
 21
494.0
 31
0.0
  0
LINE
  8
0
  6
CONTINUOUS
 62
     1
 10
142.306676122
 20
495.0
 30
0.0
 11
82.0
 21
495.0
 31
0.0
  0
LINE
  8
0
  6
CONTINUOUS
 62
     1
 10
82.0
 20
513.3
 30
0.0
 11
192.306676122
 21
513.3
 31
0.0
  0
LINE
  8
0
  6
CONTINUOUS
 62
     1
 10
82.0
 20
523.3
 30
0.0
 11
157.306676122
 21
523.3
 31
0.0
  0
LINE
  8
0
  6
CONTINUOUS
 62
     2
 10
82.0
 20
413.05
 30
0.0
 11
202.306676122
 21
413.05
 31
0.0
  0
LINE
  8
0
  6
CONTINUOUS
 62
     2
 10
317.306676122
 20
513.3
 30
0.0
 11
317.306676122
 21
765.3
 31
0.0
  0
LINE
  8
0
  6
CONTINUOUS
 62
     2
 10
317.306676122
 20
765.3
 30
0.0
 11
314.071438058
 21
753.225927171
 31
0.0
  0
LINE
  8
0
  6
CONTINUOUS
 62
     2
 10
317.306676122
 20
765.3
 30
0.0
 11
320.541914185
 21
753.225927171
 31
0.0
  0
TEXT
  8
0
  6
CONTINUOUS
 62
     2
 10
312.306676122
 20
618.05
 30
0.0
 40
18.0
  1
２５２
 50
90.0
 41
0.9
 51
0.0
  7
KANJI31
  0
LINE
  8
0
  6
CONTINUOUS
 62
     2
 10
294.306676122
 20
513.3
 30
0.0
 11
294.306676122
 21
604.5
 31
0.0
  0
LINE
  8
0
  6
CONTINUOUS
 62
     2
 10
294.306676122
 20
604.5
 30
0.0
 11
291.071438058
 21
592.425927171
 31
0.0
  0
LINE
  8
0
  6
CONTINUOUS
 62
     2
 10
294.306676122
 20
604.5
 30
0.0
 11
297.541914185
 21
592.425927171
 31
0.0
  0
TEXT
  8
0
  6
CONTINUOUS
 62
     2
 10
289.306676122
 20
548.9
 30
0.0
 40
18.0
  1
９２　　
 50
90.0
 41
0.9
 51
0.0
  7
KANJI31
  0
LINE
  8
0
  6
CONTINUOUS
 62
     2
 10
294.306676122
 20
513.3
 30
0.0
 11
297.541914185
 21
525.374072829
 31
0.0
  0
LINE
  8
0
  6
CONTINUOUS
 62
     2
 10
294.306676122
 20
513.3
 30
0.0
 11
291.071438058
 21
525.374072829
 31
0.0
  0
LINE
  8
0
  6
CONTINUOUS
 62
     2
 10
317.306676122
 20
513.3
 30
0.0
 11
320.541914185
 21
525.374072829
 31
0.0
  0
LINE
  8
0
  6
CONTINUOUS
 62
     2
 10
317.306676122
 20
513.3
 30
0.0
 11
314.071438058
 21
525.374072829
 31
0.0
  0
LINE
  8
0
  6
CONTINUOUS
 62
     1
 10
201.0
 20
517.5
 30
0.0
 11
247.306676122
 21
517.5
 31
0.0
  0
LINE
  8
0
  6
CONTINUOUS
 62
     2
 10
196.0
 20
513.3
 30
0.0
 11
324.806676122
 21
513.3
 31
0.0
  0
LINE
  8
0
  6
CONTINUOUS
 62
     2
 10
217.0
 20
604.5
 30
0.0
 11
301.806676122
 21
604.5
 31
0.0
  0
LINE
  8
0
  6
CONTINUOUS
 62
     2
 10
201.0
 20
765.3
 30
0.0
 11
324.806676122
 21
765.3
 31
0.0
  0
TEXT
  8
0
  6
CONTINUOUS
 62
     2
 10
83.056676122
 20
418.05
 30
0.0
 40
18.0
  1
２２０
 50
0.0
 41
0.9
 51
0.0
  7
KANJI31
  0
LINE
  8
0
  6
CONTINUOUS
 62
     1
 10
709.066666667
 20
716.0
 30
0.0
 11
709.066666667
 21
783.0
 31
0.0
  0
LINE
  8
0
  6
CONTINUOUS
 62
     1
 10
713.066666667
 20
716.0
 30
0.0
 11
713.066666667
 21
815.0
 31
0.0
  0
LINE
  8
0
  6
CONTINUOUS
 62
     1
 10
709.066666667
 20
783.0
 30
0.0
 11
713.066666667
 21
815.0
 31
0.0
  0
ARC
  8
0
  6
CONTINUOUS
 62
     1
 10
703.066666667
 20
716.0
 30
0.0
 40
6.0
 50
270.0
 51
0.0
  0
LINE
  8
0
  6
CONTINUOUS
 62
     1
 10
707.066666667
 20
710.0
 30
0.0
 11
650.066666667
 21
710.0
 31
0.0
  0
ARC
  8
0
  6
CONTINUOUS
 62
     1
 10
707.066666667
 20
716.0
 30
0.0
 40
6.0
 50
270.0
 51
0.0
  0
LINE
  8
0
  6
CONTINUOUS
 62
     1
 10
709.066666667
 20
783.0
 30
0.0
 11
650.066666667
 21
783.0
 31
0.0
  0
LINE
  8
0
  6
CONTINUOUS
 62
     1
 10
650.066666667
 20
539.77
 30
0.0
 11
650.066666667
 21
783.0
 31
0.0
  0
TEXT
  8
0
  6
CONTINUOUS
 62
     6
 10
516.92
 20
1646.8
 30
0.0
 40
216.0
  1
｝
 50
0.0
 41
0.180555556
 51
0.0
  7
KANJI56
  0
TEXT
  8
0
  6
CONTINUOUS
 62
     6
 10
502.578537984
 20
1553.723705827
 30
1.77482448
 40
18.98208
  1
電気定格　　　
 50
0.0
 41
0.85
 51
0.0
  7
KANJI57
  0
TEXT
  8
0
  6
CONTINUOUS
 62
     6
 10
521.012679411
 20
1509.697934761
 30
0.0
 40
16.8
  1
ＤＣ１２５Ｖ　０．６Ａ　，ＤＣ２５０Ｖ　０．３Ａ　
 50
0.0
 41
0.714285714
 51
0.0
  7
KANJI58
  0
TEXT
  8
0
  6
CONTINUOUS
 62
     6
 10
521.012679411
 20
1532.370696145
 30
0.0
 40
16.8
  1
ＡＣ１００Ｖ　１２５Ｖ　２５０Ｖ　－１０Ａ
 50
0.0
 41
0.714285714
 51
0.0
  7
KANJI58
  0
LINE
  8
0
  6
CONTINUOUS
 62
     2
 10
1851.92
 20
889.6
 30
0.0
 11
2376.92
 21
889.6
 31
0.0
  0
LINE
  8
0
  6
CONTINUOUS
 62
     2
 10
1851.92
 20
847.6
 30
0.0
 11
2376.92
 21
847.6
 31
0.0
  0
LINE
  8
0
  6
CONTINUOUS
 62
     2
 10
1899.92
 20
1225.6
 30
0.0
 11
1899.92
 21
889.6
 31
0.0
  0
TEXT
  8
0
  6
CONTINUOUS
 62
     2
 10
1884.92
 20
858.4
 30
79.962857143
 40
22.8
  1
付属品
 50
0.0
 41
0.9
 51
0.0
  7
KANJI59
  0
TEXT
  8
0
  6
CONTINUOUS
 62
     2
 10
1884.92
 20
816.4
 30
180.445714286
 40
22.8
  1
台数
 50
0.0
 41
0.9
 51
0.0
  7
KANJI60
  0
LINE
  8
0
  6
CONTINUOUS
 62
     1
 10
1851.92
 20
1621.6
 30
0.0
 11
2376.92
 21
1621.6
 31
0.0
  0
TEXT
  8
0
  6
CONTINUOUS
 62
     2
 10
1926.92
 20
1577.8
 30
17.09964
 40
27.0
  1
マイティシリンダ仕様
 50
0.0
 41
0.9
 51
0.0
  7
KANJI61
  0
LINE
  8
0
  6
CONTINUOUS
 62
     2
 10
1899.92
 20
931.6
 30
0.0
 11
2376.92
 21
931.6
 31
0.0
  0
LINE
  8
0
  6
CONTINUOUS
 62
     2
 10
1899.92
 20
1057.6
 30
0.0
 11
2376.92
 21
1057.6
 31
0.0
  0
LINE
  8
0
  6
CONTINUOUS
 62
     2
 10
1899.92
 20
1099.6
 30
0.0
 11
2376.92
 21
1099.6
 31
0.0
  0
LINE
  8
0
  6
CONTINUOUS
 62
     2
 10
1851.92
 20
1309.6
 30
0.0
 11
2376.92
 21
1309.6
 31
0.0
  0
LINE
  8
0
  6
CONTINUOUS
 62
     2
 10
1851.92
 20
1267.6
 30
0.0
 11
2376.92
 21
1267.6
 31
0.0
  0
LINE
  8
0
  6
CONTINUOUS
 62
     2
 10
1851.92
 20
1225.6
 30
0.0
 11
2376.92
 21
1225.6
 31
0.0
  0
LINE
  8
0
  6
CONTINUOUS
 62
     2
 10
1899.92
 20
1141.6
 30
0.0
 11
2376.92
 21
1141.6
 31
0.0
  0
LINE
  8
0
  6
CONTINUOUS
 62
     2
 10
1899.92
 20
1183.6
 30
0.0
 11
2376.92
 21
1183.6
 31
0.0
  0
LINE
  8
0
  6
CONTINUOUS
 62
     2
 10
1851.92
 20
1519.6
 30
0.0
 11
2376.92
 21
1519.6
 31
0.0
  0
LINE
  8
0
  6
CONTINUOUS
 62
     2
 10
1851.92
 20
1477.6
 30
0.0
 11
2376.92
 21
1477.6
 31
0.0
  0
LINE
  8
0
  6
CONTINUOUS
 62
     2
 10
1851.92
 20
1435.6
 30
0.0
 11
2376.92
 21
1435.6
 31
0.0
  0
LINE
  8
0
  6
CONTINUOUS
 62
     2
 10
1851.92
 20
1393.6
 30
0.0
 11
2376.92
 21
1393.6
 31
0.0
  0
LINE
  8
0
  6
CONTINUOUS
 62
     2
 10
1851.92
 20
1351.6
 30
0.0
 11
2376.92
 21
1351.6
 31
0.0
  0
LINE
  8
0
  6
CONTINUOUS
 62
     2
 10
1851.92
 20
1561.6
 30
0.0
 11
2376.92
 21
1561.6
 31
0.0
  0
TEXT
  8
0
  6
CONTINUOUS
 62
     2
 10
1926.92
 20
1152.4
 30
33.439782857
 40
22.8
  1
電源電圧
 50
0.0
 41
0.9
 51
0.0
  7
KANJI62
  0
TEXT
  8
0
  6
CONTINUOUS
 62
     2
 10
1926.92
 20
1110.4
 30
60.42
 40
22.8
  1
周波数
 50
0.0
 41
0.9
 51
0.0
  7
KANJI63
  0
TEXT
  8
0
  6
CONTINUOUS
 62
     2
 10
1926.92
 20
1068.4
 30
141.36
 40
22.8
  1
電流
 50
0.0
 41
0.9
 51
0.0
  7
KANJI64
  0
TEXT
  8
0
  6
CONTINUOUS
 62
     2
 10
1926.92
 20
1026.4
 30
60.42
 40
22.8
  1
絶縁級
 50
0.0
 41
0.9
 51
0.0
  7
KANJI63
  0
TEXT
  8
0
  6
CONTINUOUS
 62
     2
 10
1884.92
 20
1530.4
 30
180.445714286
 40
22.8
  1
形式
 50
0.0
 41
0.9
 51
0.0
  7
KANJI60
  0
TEXT
  8
0
  6
CONTINUOUS
 62
     2
 10
1884.92
 20
1488.4
 30
180.445714286
 40
22.8
  1
推力
 50
0.0
 41
0.9
 51
0.0
  7
KANJI60
  0
TEXT
  8
0
  6
CONTINUOUS
 62
     2
 10
1884.92
 20
1446.4
 30
29.721428571
 40
22.8
  1
ストローク
 50
0.0
 41
0.9
 51
0.0
  7
KANJI65
  0
TEXT
  8
0
  6
CONTINUOUS
 62
     2
 10
1884.92
 20
1320.4
 30
180.445714286
 40
22.8
  1
構造
 50
0.0
 41
0.9
 51
0.0
  7
KANJI60
  0
TEXT
  8
0
  6
CONTINUOUS
 62
     2
 10
1884.92
 20
1278.4
 30
12.973851429
 40
22.8
  1
過負荷安全装置
 50
0.0
 41
0.9
 51
0.0
  7
KANJI66
  0
TEXT
  8
0
  6
CONTINUOUS
 62
     2
 10
1884.92
 20
1236.4
 30
79.962857143
 40
22.8
  1
塗装色
 50
0.0
 41
0.9
 51
0.0
  7
KANJI59
  0
TEXT
  8
0
  6
CONTINUOUS
 62
     2
 10
1860.92
 20
1362.4
 30
1.954285714
 40
22.8
  1
ピストンロッド回転トルク
 50
0.0
 41
0.9
 51
0.0
  7
KANJI67
  0
LINE
  8
0
  6
CONTINUOUS
 62
     2
 10
1851.92
 20
1015.6
 30
0.0
 11
2376.92
 21
1015.6
 31
0.0
  0
LINE
  8
0
  6
CONTINUOUS
 62
     2
 10
1899.92
 20
973.6
 30
0.0
 11
2376.92
 21
973.6
 31
0.0
  0
TEXT
  8
0
  6
CONTINUOUS
 62
     2
 10
1876.37
 20
1219.6
 30
13.2
 40
21.0
  1
モ　トル仕様
 50
0.0
 41
0.9
 51
0.0
  7
KANJI68
  0
TEXT
  8
0
  6
CONTINUOUS
 62
     2
 10
1876.37
 20
997.6
 30
1.2
 40
21.0
  1
ブレ　キ
 50
0.0
 41
0.9
 51
0.0
  7
KANJI69
  0
LINE
  8
0
  6
CONTINUOUS
 62
     2
 10
1874.72
 20
947.8
 30
0.0
 11
1874.72
 21
935.2
 31
0.0
  0
TEXT
  8
0
  6
CONTINUOUS
 62
     2
 10
2186.42
 20
1279.6
 30
9.0
 40
21.0
  1
推力リミッタ
 50
0.0
 41
0.9
 51
0.0
  7
KANJI70
  0
TEXT
  8
0
  6
CONTINUOUS
 62
     2
 10
2243.42
 20
1027.6
 30
1.8
 40
18.0
  1
Ｅ
 50
0.0
 41
0.9
 51
0.0
  7
KANJI71
  0
TEXT
  8
0
  6
CONTINUOUS
 62
     2
 10
2199.92
 20
942.4
 30
12.0
 40
21.0
  1
同時切り
 50
0.0
 41
0.9
 51
0.0
  7
KANJI72
  0
TEXT
  8
0
  6
CONTINUOUS
 62
     2
 10
1926.92
 20
984.4
 30
141.36
 40
22.8
  1
形式
 50
0.0
 41
0.9
 51
0.0
  7
KANJI64
  0
TEXT
  8
0
  6
CONTINUOUS
 62
     2
 10
1926.92
 20
942.4
 30
33.439782857
 40
22.8
  1
操作方式
 50
0.0
 41
0.9
 51
0.0
  7
KANJI62
  0
LINE
  8
0
  6
CONTINUOUS
 62
     2
 10
1874.72
 20
1183.0
 30
0.0
 11
1874.72
 21
1169.2
 31
0.0
  0
TEXT
  8
0
  6
CONTINUOUS
 62
     2
 10
1926.92
 20
1194.4
 30
3.0
 40
22.8
  1
出力　相数　極数
 50
0.0
 41
0.9
 51
0.0
  7
KANJI73
  0
TEXT
  8
0
  6
CONTINUOUS
 62
     2
 10
1884.92
 20
1404.4
 30
12.0
 40
22.8
  1
公称速度
 50
0.0
 41
0.9
 51
0.0
  7
KANJI74
  0
TEXT
  8
0
  6
CONTINUOUS
 62
     2
 10
2008.82
 20
1403.2
 30
0.0
 40
21.0
  1
（５０／６０Ｈｚ）
 50
0.0
 41
0.628571429
 51
0.0
  7
KANJI75
  0
TEXT
  8
0
  6
CONTINUOUS
 62
     2
 10
2129.42
 20
984.85
 30
3.3
 40
20.4
  1
スプリング制動式電磁ブレーキ
 50
0.0
 41
0.705882353
 51
0.0
  7
KANJI76
  0
TEXT
  8
0
  6
CONTINUOUS
 62
     2
 10
2348.42
 20
1152.4
 30
0.216
 40
18.0
  1
Ｖ
 50
0.0
 41
0.8
 51
0.0
  7
KANJI77
  0
TEXT
  8
0
  6
CONTINUOUS
 62
     2
 10
2337.62
 20
1110.4
 30
0.216
 40
18.0
  1
Ｈｚ
 50
0.0
 41
0.8
 51
0.0
  7
KANJI77
  0
TEXT
  8
0
  6
CONTINUOUS
 62
     2
 10
2348.42
 20
1068.4
 30
0.216
 40
18.0
  1
Ａ
 50
0.0
 41
0.8
 51
0.0
  7
KANJI77
  0
TEXT
  8
0
  6
CONTINUOUS
 62
     2
 10
2269.52
 20
1195.6
 30
1.8
 40
18.0
  1
３φ
 50
0.0
 41
0.9
 51
0.0
  7
KANJI71
  0
TEXT
  8
0
  6
CONTINUOUS
 62
     2
 10
2329.52
 20
1195.6
 30
1.8
 40
18.0
  1
４Ｐ
 50
0.0
 41
0.9
 51
0.0
  7
KANJI71
  0
TEXT
  8
0
  6
CONTINUOUS
 62
     2
 10
2127.92
 20
1237.6
 30
1.2
 40
19.2
  1
マンセル　７．５ＧＹ　５／４．５
 50
0.0
 41
0.71875
 51
0.0
  7
KANJI78
  0
TEXT
  8
0
  6
CONTINUOUS
 62
     2
 10
2127.92
 20
1153.6
 30
1.8
 40
18.0
  1
　　　　　　　／　　　
 50
0.0
 41
0.9
 51
0.0
  7
KANJI71
  0
TEXT
  8
0
  6
CONTINUOUS
 62
     2
 10
2127.92
 20
1111.6
 30
1.8
 40
18.0
  1
　　　　５０／　６０
 50
0.0
 41
0.9
 51
0.0
  7
KANJI71
  0
TEXT
  8
0
  6
CONTINUOUS
 62
     2
 10
2127.92
 20
1069.6
 30
1.8
 40
18.0
  1
　　　　　　　／　　　
 50
0.0
 41
0.9
 51
0.0
  7
KANJI71
  0
TEXT
  8
0
  6
CONTINUOUS
 62
     2
 10
2332.52
 20
1448.8
 30
0.1536
 40
19.2
  1
ｍｍ
 50
0.0
 41
0.8
 51
0.0
  7
KANJI79
  0
TEXT
  8
0
  6
CONTINUOUS
 62
     2
 10
2293.52
 20
1405.6
 30
0.0
 40
21.0
  1
ｍｍ／ｓｅｃ
 50
0.0
 41
0.571428571
 51
0.0
  7
KANJI80
  0
TEXT
  8
0
  6
CONTINUOUS
 62
     2
 10
2186.42
 20
1321.6
 30
9.0
 40
21.0
  1
全閉屋外形
 50
0.0
 41
0.9
 51
0.0
  7
KANJI70
  0
TEXT
  8
0
  6
CONTINUOUS
 62
     2
 10
2133.92
 20
1195.6
 30
1.8
 40
18.0
  1
　０．３ＫＷ
 50
0.0
 41
0.9
 51
0.0
  7
KANJI71
  0
TEXT
  8
0
  6
CONTINUOUS
 62
     2
 10
2141.42
 20
1529.5
 30
1.2
 40
18.0
  1
ＭＤ０５－　ＪＰＮ
 50
0.0
 41
0.833333333
 51
0.0
  7
KANJI81
  0
TEXT
  8
0
  6
CONTINUOUS
 62
     2
 10
2130.92
 20
1405.6
 30
1.8
 40
18.0
  1
　９．４／１１．２
 50
0.0
 41
0.9
 51
0.0
  7
KANJI71
  0
TEXT
  8
0
  6
CONTINUOUS
 62
     2
 10
2150.87
 20
1490.37
 30
1.8
 40
18.0
  1
４．９ＫＮ（５００ｋｇ）
 50
0.0
 41
0.9
 51
0.0
  7
KANJI71
  0
TEXT
  8
0
  6
CONTINUOUS
 62
     2
 10
2153.0
 20
854.0
 30
0.0
 40
18.0
  1
手動ハンドル
 50
0.0
 41
0.9
 51
0.0
  7
KANJI31
  0
LINE
  8
0
  6
CONTINUOUS
 62
     1
 10
1851.92
 20
763.6
 30
0.0
 11
2376.92
 21
763.6
 31
0.0
  0
LINE
  8
0
  6
CONTINUOUS
 62
     2
 10
1851.92
 20
805.6
 30
0.0
 11
2376.92
 21
805.6
 31
0.0
  0
TEXT
  8
0
  6
CONTINUOUS
 62
     2
 10
2321.72
 20
775.78
 30
0.0
 40
21.0
  1
ｋｇ
 50
0.0
 41
0.9
 51
0.0
  7
KANJI82
  0
TEXT
  8
0
  6
CONTINUOUS
 62
     2
 10
1883.72
 20
774.4
 30
6.0
 40
21.0
  1
概算重量（１台当り）
 50
0.0
 41
0.857142857
 51
0.0
  7
KANJI83
  0
LINE
  8
0
  6
CONTINUOUS
 62
     1
 10
1851.92
 20
1621.6
 30
0.0
 11
1851.92
 21
763.6
 31
0.0
  0
LINE
  8
0
  6
CONTINUOUS
 62
     2
 10
2127.92
 20
1561.6
 30
0.0
 11
2127.92
 21
763.6
 31
0.0
  0
LINE
  8
0
  6
CONTINUOUS
 62
     1
 10
2376.92
 20
1621.6
 30
0.0
 11
2376.92
 21
763.6
 31
0.0
  0
TEXT
  8
0
  6
CONTINUOUS
 62
     2
 10
692.766666667
 20
454.0
 30
0.0
 40
18.0
  1
２－ＰＦ１
 50
0.0
 41
0.9
 51
0.0
  7
KANJI31
  0
TEXT
  8
0
  6
CONTINUOUS
 62
     2
 10
1626.5200334
 20
119.799994
 30
1.8
 40
21.0
  1
０７．１０．０５
 50
0.0
 41
0.571428571
 51
0.0
  7
KANJI84
  0
TEXT
  8
0
  6
CONTINUOUS
 62
     2
 10
1690.52
 20
458.8
 30
5.985
 40
21.0
  1
　　必ず、常用はストローク両端に余裕を取って下さい。
 50
0.0
 41
0.857222222
 51
0.0
  7
KANJI33
  0
TEXT
  8
0
  6
CONTINUOUS
 62
     2
 10
2142.92
 20
1363.6
 30
0.0
 40
18.0
  1
１３．７Ｎ・ｍ（１．４ｋｇ・ｍ）
 50
0.0
 41
0.833333333
 51
0.0
  7
KANJI85
  0
ENDSEC
  0
EOF
