  0
SECTION
  2
HEADER
  9
$EXTMIN
 10
0.0
 20
0.0
 30
0.0
  9
$EXTMAX
 10
2520.0
 20
1782.0
 30
0.0
  9
$LIMMIN
 10
0.0
 20
0.0
  9
$LIMMAX
 10
2520.0
 20
1782.0
  9
$LTSCALE
 40
1.0
  9
$PDMODE
 70
     0
  0
ENDSEC
  0
SECTION
  2
TABLES
  0
TABLE
  2
LTYPE
 70
     6
  0
LTYPE
  2
CONTINUOUS
 70
    64
  3
Solid line
 72
    65
 73
     0
 40
0.0
  0
LTYPE
  2
LTYPE1
 70
    64
  3
HIDDEN
 72
    65
 73
     2
 40
18.0
 49
10.8
 49
-7.2
  0
LTYPE
  2
LTYPE2
 70
    64
  3
CENTER
 72
    65
 73
     4
 40
60.0
 49
42.0
 49
-6.0
 49
6.0
 49
-6.0
  0
LTYPE
  2
LTYPE3
 70
    64
  3
CENTER
 72
    65
 73
     4
 40
90.0
 49
63.0
 49
-9.0
 49
9.0
 49
-9.0
  0
LTYPE
  2
LTYPE4
 70
    64
  3
CENTER
 72
    65
 73
     4
 40
120.0
 49
84.0
 49
-12.0
 49
12.0
 49
-12.0
  0
LTYPE
  2
LTYPE5
 70
    64
  3
CENTER
 72
    65
 73
     4
 40
54.0
 49
37.8
 49
-5.4
 49
5.4
 49
-5.4
  0
ENDTAB
  0
TABLE
  2
LAYER
 70
   128
  0
LAYER
  2
0
 70
     0
 62
     7
  6
CONTINUOUS
  0
LAYER
  2
2
 70
     0
 62
     7
  6
CONTINUOUS
  0
LAYER
  2
3
 70
     0
 62
     7
  6
CONTINUOUS
  0
LAYER
  2
4
 70
     0
 62
     7
  6
CONTINUOUS
  0
LAYER
  2
5
 70
     0
 62
     7
  6
CONTINUOUS
  0
LAYER
  2
6
 70
     0
 62
     7
  6
CONTINUOUS
  0
LAYER
  2
7
 70
     0
 62
     7
  6
CONTINUOUS
  0
LAYER
  2
8
 70
     0
 62
     7
  6
CONTINUOUS
  0
LAYER
  2
9
 70
     0
 62
     7
  6
CONTINUOUS
  0
LAYER
  2
10
 70
     0
 62
     7
  6
CONTINUOUS
  0
LAYER
  2
11
 70
     0
 62
     7
  6
CONTINUOUS
  0
LAYER
  2
12
 70
     0
 62
     7
  6
CONTINUOUS
  0
LAYER
  2
13
 70
     0
 62
     7
  6
CONTINUOUS
  0
LAYER
  2
14
 70
     0
 62
     7
  6
CONTINUOUS
  0
LAYER
  2
15
 70
     0
 62
     7
  6
CONTINUOUS
  0
LAYER
  2
16
 70
     0
 62
     7
  6
CONTINUOUS
  0
LAYER
  2
17
 70
     0
 62
     7
  6
CONTINUOUS
  0
LAYER
  2
18
 70
     0
 62
     7
  6
CONTINUOUS
  0
LAYER
  2
19
 70
     0
 62
     7
  6
CONTINUOUS
  0
LAYER
  2
20
 70
     0
 62
     7
  6
CONTINUOUS
  0
LAYER
  2
21
 70
     0
 62
     7
  6
CONTINUOUS
  0
LAYER
  2
22
 70
     0
 62
     7
  6
CONTINUOUS
  0
LAYER
  2
23
 70
     0
 62
     7
  6
CONTINUOUS
  0
LAYER
  2
24
 70
     0
 62
     7
  6
CONTINUOUS
  0
LAYER
  2
25
 70
     0
 62
     7
  6
CONTINUOUS
  0
LAYER
  2
26
 70
     0
 62
     7
  6
CONTINUOUS
  0
LAYER
  2
27
 70
     0
 62
     7
  6
CONTINUOUS
  0
LAYER
  2
28
 70
     0
 62
     7
  6
CONTINUOUS
  0
LAYER
  2
29
 70
     0
 62
     7
  6
CONTINUOUS
  0
LAYER
  2
30
 70
     0
 62
     7
  6
CONTINUOUS
  0
LAYER
  2
31
 70
     0
 62
     7
  6
CONTINUOUS
  0
LAYER
  2
32
 70
     0
 62
     7
  6
CONTINUOUS
  0
LAYER
  2
33
 70
     0
 62
     7
  6
CONTINUOUS
  0
LAYER
  2
34
 70
     0
 62
     7
  6
CONTINUOUS
  0
LAYER
  2
35
 70
     0
 62
     7
  6
CONTINUOUS
  0
LAYER
  2
36
 70
     0
 62
     7
  6
CONTINUOUS
  0
LAYER
  2
37
 70
     0
 62
     7
  6
CONTINUOUS
  0
LAYER
  2
38
 70
     0
 62
     7
  6
CONTINUOUS
  0
LAYER
  2
39
 70
     0
 62
     7
  6
CONTINUOUS
  0
LAYER
  2
40
 70
     0
 62
     7
  6
CONTINUOUS
  0
LAYER
  2
41
 70
     0
 62
     7
  6
CONTINUOUS
  0
LAYER
  2
42
 70
     0
 62
     7
  6
CONTINUOUS
  0
LAYER
  2
43
 70
     0
 62
     7
  6
CONTINUOUS
  0
LAYER
  2
44
 70
     0
 62
     7
  6
CONTINUOUS
  0
LAYER
  2
45
 70
     0
 62
     7
  6
CONTINUOUS
  0
LAYER
  2
46
 70
     0
 62
     7
  6
CONTINUOUS
  0
LAYER
  2
47
 70
     0
 62
     7
  6
CONTINUOUS
  0
LAYER
  2
48
 70
     0
 62
     7
  6
CONTINUOUS
  0
LAYER
  2
49
 70
     0
 62
     7
  6
CONTINUOUS
  0
LAYER
  2
50
 70
     0
 62
     7
  6
CONTINUOUS
  0
LAYER
  2
51
 70
     0
 62
     7
  6
CONTINUOUS
  0
LAYER
  2
52
 70
     0
 62
     7
  6
CONTINUOUS
  0
LAYER
  2
53
 70
     0
 62
     7
  6
CONTINUOUS
  0
LAYER
  2
54
 70
     0
 62
     7
  6
CONTINUOUS
  0
LAYER
  2
55
 70
     0
 62
     7
  6
CONTINUOUS
  0
LAYER
  2
56
 70
     0
 62
     7
  6
CONTINUOUS
  0
LAYER
  2
57
 70
     0
 62
     7
  6
CONTINUOUS
  0
LAYER
  2
58
 70
     0
 62
     7
  6
CONTINUOUS
  0
LAYER
  2
59
 70
     0
 62
     7
  6
CONTINUOUS
  0
LAYER
  2
60
 70
     0
 62
     7
  6
CONTINUOUS
  0
LAYER
  2
61
 70
     0
 62
     7
  6
CONTINUOUS
  0
LAYER
  2
62
 70
     0
 62
     7
  6
CONTINUOUS
  0
LAYER
  2
63
 70
     0
 62
     7
  6
CONTINUOUS
  0
LAYER
  2
64
 70
     0
 62
     7
  6
CONTINUOUS
  0
LAYER
  2
65
 70
     0
 62
     7
  6
CONTINUOUS
  0
LAYER
  2
66
 70
     0
 62
     7
  6
CONTINUOUS
  0
LAYER
  2
67
 70
     0
 62
     7
  6
CONTINUOUS
  0
LAYER
  2
68
 70
     0
 62
     7
  6
CONTINUOUS
  0
LAYER
  2
69
 70
     0
 62
     7
  6
CONTINUOUS
  0
LAYER
  2
70
 70
     0
 62
     7
  6
CONTINUOUS
  0
LAYER
  2
71
 70
     0
 62
     7
  6
CONTINUOUS
  0
LAYER
  2
72
 70
     0
 62
     7
  6
CONTINUOUS
  0
LAYER
  2
73
 70
     0
 62
     7
  6
CONTINUOUS
  0
LAYER
  2
74
 70
     0
 62
     7
  6
CONTINUOUS
  0
LAYER
  2
75
 70
     0
 62
     7
  6
CONTINUOUS
  0
LAYER
  2
76
 70
     0
 62
     7
  6
CONTINUOUS
  0
LAYER
  2
77
 70
     0
 62
     7
  6
CONTINUOUS
  0
LAYER
  2
78
 70
     0
 62
     7
  6
CONTINUOUS
  0
LAYER
  2
79
 70
     0
 62
     7
  6
CONTINUOUS
  0
LAYER
  2
80
 70
     0
 62
     7
  6
CONTINUOUS
  0
LAYER
  2
81
 70
     0
 62
     7
  6
CONTINUOUS
  0
LAYER
  2
82
 70
     0
 62
     7
  6
CONTINUOUS
  0
LAYER
  2
83
 70
     0
 62
     7
  6
CONTINUOUS
  0
LAYER
  2
84
 70
     0
 62
     7
  6
CONTINUOUS
  0
LAYER
  2
85
 70
     0
 62
     7
  6
CONTINUOUS
  0
LAYER
  2
86
 70
     0
 62
     7
  6
CONTINUOUS
  0
LAYER
  2
87
 70
     0
 62
     7
  6
CONTINUOUS
  0
LAYER
  2
88
 70
     0
 62
     7
  6
CONTINUOUS
  0
LAYER
  2
89
 70
     0
 62
     7
  6
CONTINUOUS
  0
LAYER
  2
90
 70
     0
 62
     7
  6
CONTINUOUS
  0
LAYER
  2
91
 70
     0
 62
     7
  6
CONTINUOUS
  0
LAYER
  2
92
 70
     0
 62
     7
  6
CONTINUOUS
  0
LAYER
  2
93
 70
     0
 62
     7
  6
CONTINUOUS
  0
LAYER
  2
94
 70
     0
 62
     7
  6
CONTINUOUS
  0
LAYER
  2
95
 70
     0
 62
     7
  6
CONTINUOUS
  0
LAYER
  2
96
 70
     0
 62
     7
  6
CONTINUOUS
  0
LAYER
  2
97
 70
     0
 62
     7
  6
CONTINUOUS
  0
LAYER
  2
98
 70
     0
 62
     7
  6
CONTINUOUS
  0
LAYER
  2
99
 70
     0
 62
     7
  6
CONTINUOUS
  0
LAYER
  2
100
 70
     0
 62
     7
  6
CONTINUOUS
  0
LAYER
  2
101
 70
     0
 62
     7
  6
CONTINUOUS
  0
LAYER
  2
102
 70
     0
 62
     7
  6
CONTINUOUS
  0
LAYER
  2
103
 70
     0
 62
     7
  6
CONTINUOUS
  0
LAYER
  2
104
 70
     0
 62
     7
  6
CONTINUOUS
  0
LAYER
  2
105
 70
     0
 62
     7
  6
CONTINUOUS
  0
LAYER
  2
106
 70
     0
 62
     7
  6
CONTINUOUS
  0
LAYER
  2
107
 70
     0
 62
     7
  6
CONTINUOUS
  0
LAYER
  2
108
 70
     0
 62
     7
  6
CONTINUOUS
  0
LAYER
  2
109
 70
     0
 62
     7
  6
CONTINUOUS
  0
LAYER
  2
110
 70
     0
 62
     7
  6
CONTINUOUS
  0
LAYER
  2
111
 70
     0
 62
     7
  6
CONTINUOUS
  0
LAYER
  2
112
 70
     0
 62
     7
  6
CONTINUOUS
  0
LAYER
  2
113
 70
     0
 62
     7
  6
CONTINUOUS
  0
LAYER
  2
114
 70
     0
 62
     7
  6
CONTINUOUS
  0
LAYER
  2
115
 70
     0
 62
     7
  6
CONTINUOUS
  0
LAYER
  2
116
 70
     0
 62
     7
  6
CONTINUOUS
  0
LAYER
  2
117
 70
     0
 62
     7
  6
CONTINUOUS
  0
LAYER
  2
118
 70
     0
 62
     7
  6
CONTINUOUS
  0
LAYER
  2
119
 70
     0
 62
     7
  6
CONTINUOUS
  0
LAYER
  2
120
 70
     0
 62
     7
  6
CONTINUOUS
  0
LAYER
  2
121
 70
     0
 62
     7
  6
CONTINUOUS
  0
LAYER
  2
122
 70
     0
 62
     7
  6
CONTINUOUS
  0
LAYER
  2
123
 70
     0
 62
     7
  6
CONTINUOUS
  0
LAYER
  2
124
 70
     0
 62
     7
  6
CONTINUOUS
  0
LAYER
  2
125
 70
     0
 62
     7
  6
CONTINUOUS
  0
LAYER
  2
126
 70
     0
 62
     7
  6
CONTINUOUS
  0
LAYER
  2
127
 70
     0
 62
     7
  6
CONTINUOUS
  0
LAYER
  2
128
 70
     0
 62
     7
  6
CONTINUOUS
  0
ENDTAB
  0
TABLE
  2
STYLE
 70
    81
  0
STYLE
  2
STANDARD
 70
     0
 40
0.0
 41
1.0
 50
0.0
 71
     0
 42
0.2
  3
txt
  4

  0
STYLE
  2
KANJI0
 70
     0
 40
15.5999988
 41
0.75
 50
0.0
 71
     0
 42
15.5999988
  3

  4
bigfont
  0
STYLE
  2
KANJI1
 70
     0
 40
11.999997477
 41
0.6
 50
0.0
 71
     0
 42
11.999997477
  3

  4
bigfont
  0
STYLE
  2
KANJI2
 70
     0
 40
14.399996972
 41
0.9
 50
0.0
 71
     0
 42
14.399996972
  3

  4
bigfont
  0
STYLE
  2
KANJI3
 70
     0
 40
17.999996215
 41
0.9
 50
0.0
 71
     0
 42
17.999996215
  3

  4
bigfont
  0
STYLE
  2
KANJI4
 70
     0
 40
10.3999992
 41
0.6
 50
0.0
 71
     0
 42
10.3999992
  3

  4
bigfont
  0
STYLE
  2
KANJI5
 70
     0
 40
12.47999904
 41
0.6
 50
0.0
 71
     0
 42
12.47999904
  3

  4
bigfont
  0
STYLE
  2
KANJI6
 70
     0
 40
18.1999986
 41
0.42031746
 50
0.0
 71
     0
 42
18.1999986
  3

  4
bigfont
  0
STYLE
  2
KANJI7
 70
     0
 40
31.1999976
 41
0.9
 50
0.0
 71
     0
 42
31.1999976
  3

  4
bigfont
  0
STYLE
  2
KANJI8
 70
     0
 40
21.6
 41
1.111111111
 50
0.0
 71
     0
 42
21.6
  3

  4
bigfont
  0
STYLE
  2
KANJI9
 70
     0
 40
10.3999992
 41
0.8
 50
0.0
 71
     0
 42
10.3999992
  3

  4
bigfont
  0
STYLE
  2
KANJI10
 70
     0
 40
12.47999904
 41
0.8
 50
0.0
 71
     0
 42
12.47999904
  3

  4
bigfont
  0
STYLE
  2
KANJI11
 70
     0
 40
30.0
 41
1.0
 50
0.0
 71
     0
 42
30.0
  3

  4
bigfont
  0
STYLE
  2
KANJI12
 70
     0
 40
30.0
 41
1.0
 50
0.0
 71
     0
 42
30.0
  3

  4
bigfont
  0
STYLE
  2
KANJI13
 70
     0
 40
30.0
 41
0.8
 50
0.0
 71
     0
 42
30.0
  3

  4
bigfont
  0
STYLE
  2
KANJI14
 70
     0
 40
24.0
 41
1.0
 50
0.0
 71
     0
 42
24.0
  3

  4
bigfont
  0
STYLE
  2
KANJI15
 70
     0
 40
21.0
 41
0.857142857
 50
0.0
 71
     0
 42
21.0
  3

  4
bigfont
  0
STYLE
  2
KANJI16
 70
     0
 40
27.0
 41
0.666666667
 50
0.0
 71
     0
 42
27.0
  3

  4
bigfont
  0
STYLE
  2
KANJI17
 70
     0
 40
18.0
 41
0.9
 50
0.0
 71
     0
 42
18.0
  3

  4
bigfont
  0
STYLE
  2
KANJI18
 70
     0
 40
24.0
 41
0.9
 50
0.0
 71
     0
 42
24.0
  3

  4
bigfont
  0
STYLE
  2
KANJI19
 70
     0
 40
21.6
 41
0.857142857
 50
0.0
 71
     0
 42
21.6
  3

  4
bigfont
  0
STYLE
  2
KANJI20
 70
     0
 40
21.6
 41
0.857222222
 50
0.0
 71
     0
 42
21.6
  3

  4
bigfont
  0
STYLE
  2
KANJI21
 70
     0
 40
18.0
 41
0.833333333
 50
0.0
 71
     0
 42
18.0
  3

  4
bigfont
  0
STYLE
  2
KANJI22
 70
     0
 40
20.0
 41
0.925
 50
0.0
 71
     0
 42
20.0
  3

  4
bigfont
  0
STYLE
  2
KANJI23
 70
     0
 40
15.0
 41
0.9
 50
0.0
 71
     0
 42
15.0
  3

  4
bigfont
  0
STYLE
  2
KANJI24
 70
     0
 40
20.0
 41
0.925
 50
0.0
 71
     0
 42
20.0
  3

  4
bigfont
  0
STYLE
  2
KANJI25
 70
     0
 40
13.182
 41
0.85
 50
0.0
 71
     0
 42
13.182
  3

  4
bigfont
  0
STYLE
  2
KANJI26
 70
     0
 40
11.661
 41
0.822608696
 50
0.0
 71
     0
 42
11.661
  3

  4
bigfont
  0
STYLE
  2
KANJI27
 70
     0
 40
11.8638
 41
0.726495726
 50
0.0
 71
     0
 42
11.8638
  3

  4
bigfont
  0
STYLE
  2
KANJI28
 70
     4
 40
45.0
 41
0.538166667
 50
0.0
 71
     0
 42
45.0
  3

  4
bigfont
  0
STYLE
  2
KANJI29
 70
     0
 40
17.740702234
 41
0.880962996
 50
0.0
 71
     0
 42
17.740702234
  3

  4
bigfont
  0
STYLE
  2
KANJI30
 70
     0
 40
11.7
 41
0.8
 50
0.0
 71
     0
 42
11.7
  3

  4
bigfont
  0
STYLE
  2
KANJI31
 70
     0
 40
15.0
 41
0.911
 50
0.0
 71
     0
 42
15.0
  3

  4
bigfont
  0
STYLE
  2
KANJI32
 70
     0
 40
15.36
 41
0.9
 50
0.0
 71
     0
 42
15.36
  3

  4
bigfont
  0
STYLE
  2
KANJI33
 70
     0
 40
14.4
 41
0.9
 50
0.0
 71
     0
 42
14.4
  3

  4
bigfont
  0
STYLE
  2
KANJI34
 70
     0
 40
14.4
 41
0.9
 50
0.0
 71
     0
 42
14.4
  3

  4
bigfont
  0
STYLE
  2
KANJI35
 70
     0
 40
16.8
 41
0.9
 50
0.0
 71
     0
 42
16.8
  3

  4
bigfont
  0
STYLE
  2
KANJI36
 70
     0
 40
12.96
 41
0.740740741
 50
0.0
 71
     0
 42
12.96
  3

  4
bigfont
  0
STYLE
  2
KANJI37
 70
     0
 40
16.8
 41
0.857142857
 50
0.0
 71
     0
 42
16.8
  3

  4
bigfont
  0
STYLE
  2
KANJI38
 70
     0
 40
22.8
 41
0.9
 50
0.0
 71
     0
 42
22.8
  3

  4
bigfont
  0
STYLE
  2
KANJI39
 70
     0
 40
22.8
 41
0.9
 50
0.0
 71
     0
 42
22.8
  3

  4
bigfont
  0
STYLE
  2
KANJI40
 70
     0
 40
27.0
 41
0.9
 50
0.0
 71
     0
 42
27.0
  3

  4
bigfont
  0
STYLE
  2
KANJI41
 70
     0
 40
22.8
 41
0.9
 50
0.0
 71
     0
 42
22.8
  3

  4
bigfont
  0
STYLE
  2
KANJI42
 70
     0
 40
22.8
 41
0.9
 50
0.0
 71
     0
 42
22.8
  3

  4
bigfont
  0
STYLE
  2
KANJI43
 70
     0
 40
22.8
 41
0.9
 50
0.0
 71
     0
 42
22.8
  3

  4
bigfont
  0
STYLE
  2
KANJI44
 70
     0
 40
22.8
 41
0.9
 50
0.0
 71
     0
 42
22.8
  3

  4
bigfont
  0
STYLE
  2
KANJI45
 70
     0
 40
22.8
 41
0.9
 50
0.0
 71
     0
 42
22.8
  3

  4
bigfont
  0
STYLE
  2
KANJI46
 70
     0
 40
22.8
 41
0.9
 50
0.0
 71
     0
 42
22.8
  3

  4
bigfont
  0
STYLE
  2
KANJI47
 70
     4
 40
21.0
 41
0.9
 50
0.0
 71
     0
 42
21.0
  3

  4
bigfont
  0
STYLE
  2
KANJI48
 70
     4
 40
21.0
 41
0.9
 50
0.0
 71
     0
 42
21.0
  3

  4
bigfont
  0
STYLE
  2
KANJI49
 70
     0
 40
21.0
 41
0.9
 50
0.0
 71
     0
 42
21.0
  3

  4
bigfont
  0
STYLE
  2
KANJI50
 70
     0
 40
18.0
 41
0.9
 50
0.0
 71
     0
 42
18.0
  3

  4
bigfont
  0
STYLE
  2
KANJI51
 70
     0
 40
21.0
 41
0.9
 50
0.0
 71
     0
 42
21.0
  3

  4
bigfont
  0
STYLE
  2
KANJI52
 70
     0
 40
22.8
 41
0.9
 50
0.0
 71
     0
 42
22.8
  3

  4
bigfont
  0
STYLE
  2
KANJI53
 70
     0
 40
22.8
 41
0.9
 50
0.0
 71
     0
 42
22.8
  3

  4
bigfont
  0
STYLE
  2
KANJI54
 70
     0
 40
21.0
 41
0.628571429
 50
0.0
 71
     0
 42
21.0
  3

  4
bigfont
  0
STYLE
  2
KANJI55
 70
     0
 40
20.4
 41
0.705882353
 50
0.0
 71
     0
 42
20.4
  3

  4
bigfont
  0
STYLE
  2
KANJI56
 70
     0
 40
18.0
 41
0.8
 50
0.0
 71
     0
 42
18.0
  3

  4
bigfont
  0
STYLE
  2
KANJI57
 70
     0
 40
19.2
 41
0.71875
 50
0.0
 71
     0
 42
19.2
  3

  4
bigfont
  0
STYLE
  2
KANJI58
 70
     0
 40
19.2
 41
0.8
 50
0.0
 71
     0
 42
19.2
  3

  4
bigfont
  0
STYLE
  2
KANJI59
 70
     0
 40
21.0
 41
0.571428571
 50
0.0
 71
     0
 42
21.0
  3

  4
bigfont
  0
STYLE
  2
KANJI60
 70
     0
 40
21.0
 41
0.9
 50
0.0
 71
     0
 42
21.0
  3

  4
bigfont
  0
STYLE
  2
KANJI61
 70
     0
 40
21.0
 41
0.857142857
 50
0.0
 71
     0
 42
21.0
  3

  4
bigfont
  0
STYLE
  2
KANJI62
 70
     0
 40
15.0
 41
0.9
 50
0.0
 71
     0
 42
15.0
  3

  4
bigfont
  0
STYLE
  2
KANJI63
 70
     0
 40
16.17
 41
0.9
 50
0.0
 71
     0
 42
16.17
  3

  4
bigfont
  0
STYLE
  2
KANJI64
 70
     0
 40
14.99994
 41
0.9
 50
0.0
 71
     0
 42
14.99994
  3

  4
bigfont
  0
STYLE
  2
KANJI65
 70
     0
 40
18.0
 41
0.833333333
 50
0.0
 71
     0
 42
18.0
  3

  4
bigfont
  0
STYLE
  2
KANJI66
 70
     0
 40
18.0
 41
0.833333333
 50
0.0
 71
     0
 42
18.0
  3

  4
bigfont
  0
STYLE
  2
KANJI67
 70
     0
 40
21.0
 41
0.793650794
 50
0.0
 71
     0
 42
21.0
  3

  4
bigfont
  0
STYLE
  2
KANJI68
 70
     0
 40
30.0
 41
0.8
 50
0.0
 71
     0
 42
30.0
  3

  4
bigfont
  0
STYLE
  2
KANJI69
 70
     0
 40
21.0
 41
0.571428571
 50
0.0
 71
     0
 42
21.0
  3

  4
bigfont
  0
STYLE
  2
KANJI70
 70
     0
 40
18.0
 41
0.9
 50
0.0
 71
     0
 42
18.0
  3

  4
bigfont
  0
STYLE
  2
KANJI71
 70
     0
 40
14.4
 41
0.833333333
 50
0.0
 71
     0
 42
14.4
  3

  4
bigfont
  0
STYLE
  2
KANJI72
 70
     0
 40
17.5
 41
0.914285714
 50
0.0
 71
     0
 42
17.5
  3

  4
bigfont
  0
STYLE
  2
KANJI73
 70
     0
 40
16.8
 41
0.964285714
 50
0.0
 71
     0
 42
16.8
  3

  4
bigfont
  0
STYLE
  2
KANJI74
 70
     0
 40
16.8
 41
0.821428571
 50
0.0
 71
     0
 42
16.8
  3

  4
bigfont
  0
STYLE
  2
KANJI75
 70
     0
 40
18.223173404
 41
0.66671875
 50
0.0
 71
     0
 42
18.223173404
  3

  4
bigfont
  0
STYLE
  2
KANJI76
 70
     0
 40
21.6
 41
0.9
 50
0.0
 71
     0
 42
21.6
  3

  4
bigfont
  0
STYLE
  2
KANJI77
 70
     0
 40
12.96
 41
0.9
 50
0.0
 71
     0
 42
12.96
  3

  4
bigfont
  0
STYLE
  2
KANJI78
 70
     0
 40
17.28
 41
0.9
 50
0.0
 71
     0
 42
17.28
  3

  4
bigfont
  0
STYLE
  2
KANJI79
 70
     0
 40
18.72
 41
0.925
 50
0.0
 71
     0
 42
18.72
  3

  4
bigfont
  0
ENDTAB
  0
TABLE
  2
VIEW
 70
     0
  0
ENDTAB
  0
ENDSEC
  0
SECTION
  2
BLOCKS
  0
ENDSEC
  0
SECTION
  2
ENTITIES
  0
POLYLINE
  8
0
  6
CONTINUOUS
 62
     6
 66
     1
  0
VERTEX
  8
0
  6
CONTINUOUS
 62
     6
 10
82.92
 20
71.7
  0
VERTEX
  8
0
  6
CONTINUOUS
 62
     6
 10
82.92
 20
1685.7
  0
VERTEX
  8
0
  6
CONTINUOUS
 62
     6
 10
2404.92
 20
1685.7
  0
SEQEND
  0
LINE
  8
0
  6
CONTINUOUS
 62
     6
 10
88.919998738
 20
161.699981077
 11
478.919916738
 21
161.699981077
  0
LINE
  8
0
  6
CONTINUOUS
 62
     6
 10
88.919998738
 20
77.699998738
 11
478.919916738
 21
77.699998738
  0
LINE
  8
0
  6
CONTINUOUS
 62
     6
 10
88.919998738
 20
77.699998738
 11
88.919998738
 21
161.699981077
  0
LINE
  8
0
  6
CONTINUOUS
 62
     6
 10
88.919998738
 20
119.699989908
 11
478.919916738
 21
119.699989908
  0
LINE
  8
0
  6
CONTINUOUS
 62
     4
 10
14.6199996
 20
76.8999996
 11
77.0199948
 21
76.8999996
  0
LINE
  8
0
  6
CONTINUOUS
 62
     4
 10
14.6199996
 20
108.0999972
 11
77.0199948
 21
108.0999972
  0
LINE
  8
0
  6
CONTINUOUS
 62
     4
 10
14.6199996
 20
139.2999948
 11
77.0199948
 21
139.2999948
  0
LINE
  8
0
  6
CONTINUOUS
 62
     4
 10
14.6199996
 20
170.4999924
 11
77.0199948
 21
170.4999924
  0
LINE
  8
0
  6
CONTINUOUS
 62
     4
 10
14.6199996
 20
201.69999
 11
77.0199948
 21
201.69999
  0
LINE
  8
0
  6
CONTINUOUS
 62
     4
 10
14.6199996
 20
232.8999876
 11
77.0199948
 21
232.8999876
  0
LINE
  8
0
  6
CONTINUOUS
 62
     4
 10
14.6199996
 20
264.0999852
 11
77.0199948
 21
264.0999852
  0
LINE
  8
0
  6
CONTINUOUS
 62
     4
 10
14.6199996
 20
295.2999828
 11
77.0199948
 21
295.2999828
  0
LINE
  8
0
  6
CONTINUOUS
 62
     4
 10
14.6199996
 20
326.4999804
 11
77.0199948
 21
326.4999804
  0
LINE
  8
0
  6
CONTINUOUS
 62
     4
 10
14.6199996
 20
357.699978
 11
77.0199948
 21
357.699978
  0
LINE
  8
0
  6
CONTINUOUS
 62
     4
 10
77.0199948
 20
76.8999996
 11
77.0199948
 21
357.699978
  0
LINE
  8
0
  6
CONTINUOUS
 62
     4
 10
45.8199972
 20
76.8999996
 11
45.8199972
 21
326.4999804
  0
TEXT
  8
0
  6
CONTINUOUS
 62
     4
 10
25.27999878
 20
85.9999989
 30
1.55999988
 40
15.5999988
  1
計
 50
0.0
 41
0.75
 51
0.0
  7
KANJI0
  0
TEXT
  8
0
  6
CONTINUOUS
 62
     4
 10
25.27999878
 20
148.91999406
 30
1.55999988
 40
15.5999988
  1
設
 50
0.0
 41
0.75
 51
0.0
  7
KANJI0
  0
TEXT
  8
0
  6
CONTINUOUS
 62
     4
 10
25.27999878
 20
179.5999917
 30
1.55999988
 40
15.5999988
  1
管
 50
0.0
 41
0.75
 51
0.0
  7
KANJI0
  0
TEXT
  8
0
  6
CONTINUOUS
 62
     4
 10
25.27999878
 20
210.7999893
 30
1.55999988
 40
15.5999988
  1
製
 50
0.0
 41
0.75
 51
0.0
  7
KANJI0
  0
TEXT
  8
0
  6
CONTINUOUS
 62
     4
 10
25.27999878
 20
241.9999869
 30
1.55999988
 40
15.5999988
  1
資
 50
0.0
 41
0.75
 51
0.0
  7
KANJI0
  0
TEXT
  8
0
  6
CONTINUOUS
 62
     4
 10
25.27999878
 20
273.1999845
 30
1.55999988
 40
15.5999988
  1
営
 50
0.0
 41
0.75
 51
0.0
  7
KANJI0
  0
TEXT
  8
0
  6
CONTINUOUS
 62
     4
 10
25.27999878
 20
304.3999821
 30
1.55999988
 40
15.5999988
  1
客
 50
0.0
 41
0.75
 51
0.0
  7
KANJI0
  0
TEXT
  8
0
  6
CONTINUOUS
 62
     4
 10
25.0199988
 20
336.8999796
 30
1.55999988
 40
15.5999988
  1
出　図
 50
0.0
 41
0.75
 51
0.0
  7
KANJI0
  0
LINE
  8
0
  6
CONTINUOUS
 62
     4
 10
14.6199996
 20
76.8999996
 11
14.6199996
 21
357.699978
  0
LINE
  8
0
  6
CONTINUOUS
 62
     6
 10
2404.92
 20
71.7
 11
82.92
 21
71.7
  0
TEXT
  8
0
  6
CONTINUOUS
 62
     4
 10
100.919996215
 20
101.699993692
 30
1.199999748
 40
11.999997477
  1
ＰＡＲＴＳ　ＬＩＳＴ
 50
0.0
 41
0.6
 51
0.0
  7
KANJI1
  0
TEXT
  8
0
  6
CONTINUOUS
 62
     4
 10
100.919996215
 20
83.699997477
 30
1.439999697
 40
14.399996972
  1
部品表
 50
0.0
 41
0.9
 51
0.0
  7
KANJI2
  0
TEXT
  8
0
  6
CONTINUOUS
 62
     3
 10
100.919996215
 20
131.699987385
 30
1.799999622
 40
17.999996215
  1
ＰＬ
 50
0.0
 41
0.9
 51
0.0
  7
KANJI3
  0
TEXT
  8
0
  6
CONTINUOUS
 62
     4
 10
370.919939446
 20
101.699993692
 30
1.199999748
 40
11.999997477
  1
Ｎ０．
 50
0.0
 41
0.6
 51
0.0
  7
KANJI1
  0
TEXT
  8
0
  6
CONTINUOUS
 62
     4
 10
370.919939446
 20
83.699997477
 30
1.439999697
 40
14.399996972
  1
項番
 50
0.0
 41
0.9
 51
0.0
  7
KANJI2
  0
LINE
  8
0
  6
CONTINUOUS
 62
     6
 10
478.919916738
 20
77.699998738
 11
478.919916738
 21
161.699981077
  0
LINE
  8
0
  6
CONTINUOUS
 62
     6
 10
358.919941969
 20
77.699998738
 11
358.919941969
 21
161.699981077
  0
LINE
  8
0
  6
CONTINUOUS
 62
     6
 10
2404.92
 20
1685.7
 11
2404.92
 21
71.7
  0
LINE
  8
0
  6
CONTINUOUS
 62
     6
 10
1598.920062
 20
76.8999996
 11
1598.920062
 21
409.699974
  0
LINE
  8
0
  6
CONTINUOUS
 62
     6
 10
2399.7200004
 20
76.8999996
 11
2399.7200004
 21
409.699974
  0
LINE
  8
0
  6
CONTINUOUS
 62
     4
 10
1788.7200474
 20
76.8999996
 11
1788.7200474
 21
409.699974
  0
LINE
  8
0
  6
CONTINUOUS
 62
     4
 10
1598.920062
 20
118.4999964
 11
1788.7200474
 21
118.4999964
  0
TEXT
  8
0
  6
CONTINUOUS
 62
     4
 10
1609.3200612
 20
100.2999978
 30
1.03999992
 40
10.3999992
  1
ＳＣＡＬＥ
 50
0.0
 41
0.6
 51
0.0
  7
KANJI4
  0
TEXT
  8
0
  6
CONTINUOUS
 62
     4
 10
1609.3200612
 20
84.699999
 30
1.247999904
 40
12.47999904
  1
尺度
 50
0.0
 41
0.6
 51
0.0
  7
KANJI5
  0
LINE
  8
0
  6
CONTINUOUS
 62
     6
 10
1188.1200936
 20
118.4999964
 11
1598.920062
 21
118.4999964
  0
LINE
  8
0
  6
CONTINUOUS
 62
     6
 10
1188.1200936
 20
76.8999996
 11
2399.7200004
 21
76.8999996
  0
TEXT
  8
0
  6
CONTINUOUS
 62
     6
 10
1793.920047
 20
100.2999978
 30
0.0
 40
18.1999986
  1
ＵＮＩＴＥＣ　ＩＮＤＵＳＴＲＹ　ＣＯ．，ＬＴＤ．
 50
0.0
 41
0.42031746
 51
0.0
  7
KANJI6
  0
TEXT
  8
0
  6
CONTINUOUS
 62
     6
 10
2049.175027365
 20
93.53999832
 30
3.11999976
 40
31.1999976
  1
ユニテック工業株式会社
 50
0.0
 41
0.9
 51
0.0
  7
KANJI7
  0
LINE
  8
0
  6
CONTINUOUS
 62
     6
 10
2007.575030565
 20
104.45999748
 11
1993.847031621
 21
104.45999748
  0
LINE
  8
0
  6
CONTINUOUS
 62
     6
 10
2007.575030565
 20
106.955997288
 11
1993.847031621
 21
106.955997288
  0
LINE
  8
0
  6
CONTINUOUS
 62
     6
 10
2007.575030565
 20
104.45999748
 11
2021.303029509
 21
104.45999748
  0
LINE
  8
0
  6
CONTINUOUS
 62
     6
 10
2007.575030565
 20
106.955997288
 11
2021.303029509
 21
106.955997288
  0
LINE
  8
0
  6
CONTINUOUS
 62
     6
 10
2021.303029509
 20
106.955997288
 11
2021.303029509
 21
104.45999748
  0
ARC
  8
0
  6
CONTINUOUS
 62
     6
 10
2024.423029269
 20
105.707997384
 40
12.47999904
 50
185.739170477
 51
90.0
  0
ARC
  8
0
  6
CONTINUOUS
 62
     6
 10
2024.423029269
 20
105.707997384
 40
14.975998848
 50
184.780191847
 51
90.0
  0
LINE
  8
0
  6
CONTINUOUS
 62
     6
 10
1993.847031621
 20
104.45999748
 11
1993.847031621
 21
106.955997288
  0
ARC
  8
0
  6
CONTINUOUS
 62
     6
 10
1990.727031861
 20
105.707997384
 40
12.47999904
 50
90.0
 51
354.260829523
  0
ARC
  8
0
  6
CONTINUOUS
 62
     6
 10
1990.727031861
 20
105.707997384
 40
14.975998848
 50
90.0
 51
355.219808153
  0
LINE
  8
0
  6
CONTINUOUS
 62
     6
 10
2005.703030709
 20
120.683996232
 11
2005.703030709
 21
118.187996424
  0
LINE
  8
0
  6
CONTINUOUS
 62
     6
 10
1990.727031861
 20
118.187996424
 11
2005.703030709
 21
118.187996424
  0
LINE
  8
0
  6
CONTINUOUS
 62
     6
 10
2009.447030421
 20
120.683996232
 11
2009.447030421
 21
118.187996424
  0
LINE
  8
0
  6
CONTINUOUS
 62
     6
 10
2024.423029269
 20
118.187996424
 11
2009.447030421
 21
118.187996424
  0
TEXT
  8
0
  6
CONTINUOUS
 62
     4
 10
1320.7200834
 20
100.2999978
 30
1.03999992
 40
10.3999992
  1
ＢＹ
 50
0.0
 41
0.6
 51
0.0
  7
KANJI4
  0
TEXT
  8
0
  6
CONTINUOUS
 62
     4
 10
1435.1200746
 20
100.2999978
 30
1.03999992
 40
10.3999992
  1
ＤＥＳＣＲＩＰＴＩＯＮ
 50
0.0
 41
0.6
 51
0.0
  7
KANJI4
  0
TEXT
  8
0
  6
CONTINUOUS
 62
     4
 10
1320.7200834
 20
84.699999
 30
1.247999904
 40
12.47999904
  1
担当
 50
0.0
 41
0.6
 51
0.0
  7
KANJI5
  0
TEXT
  8
0
  6
CONTINUOUS
 62
     4
 10
1450.7200734
 20
84.699999
 30
1.247999904
 40
12.47999904
  1
記　　　　事
 50
0.0
 41
0.6
 51
0.0
  7
KANJI5
  0
LINE
  8
0
  6
CONTINUOUS
 62
     4
 10
1210.2200919
 20
110.699997
 11
1193.3200932
 21
84.699999
  0
TEXT
  8
0
  6
CONTINUOUS
 62
     4
 10
1253.1200886
 20
100.2999978
 30
1.03999992
 40
10.3999992
  1
ＤＡＴＥ
 50
0.0
 41
0.6
 51
0.0
  7
KANJI4
  0
TEXT
  8
0
  6
CONTINUOUS
 62
     4
 10
1260.920088
 20
84.699999
 30
1.247999904
 40
12.47999904
  1
日付
 50
0.0
 41
0.6
 51
0.0
  7
KANJI5
  0
LINE
  8
0
  6
CONTINUOUS
 62
     4
 10
1193.3200932
 20
84.699999
 11
1227.1200906
 21
84.699999
  0
LINE
  8
0
  6
CONTINUOUS
 62
     4
 10
1210.2200919
 20
110.699997
 11
1227.1200906
 21
84.699999
  0
LINE
  8
0
  6
CONTINUOUS
 62
     6
 10
1188.1200936
 20
76.8999996
 11
1188.1200936
 21
118.4999964
  0
LINE
  8
0
  6
CONTINUOUS
 62
     4
 10
1232.3200902
 20
76.8999996
 11
1232.3200902
 21
118.4999964
  0
LINE
  8
0
  6
CONTINUOUS
 62
     4
 10
1305.1200846
 20
76.8999996
 11
1305.1200846
 21
118.4999964
  0
LINE
  8
0
  6
CONTINUOUS
 62
     4
 10
1351.920081
 20
76.8999996
 11
1351.920081
 21
118.4999964
  0
TEXT
  8
0
  6
CONTINUOUS
 62
     4
 10
1609.3200612
 20
308.2999818
 30
1.03999992
 40
10.3999992
  1
ＣＯＤＥ
 50
0.0
 41
0.6
 51
0.0
  7
KANJI4
  0
LINE
  8
0
  6
CONTINUOUS
 62
     4
 10
1598.920062
 20
326.4999804
 11
2399.7200004
 21
326.4999804
  0
TEXT
  8
0
  6
CONTINUOUS
 62
     4
 10
1609.3200612
 20
292.699983
 30
1.247999904
 40
12.47999904
  1
分類
 50
0.0
 41
0.6
 51
0.0
  7
KANJI5
  0
TEXT
  8
0
  6
CONTINUOUS
 62
     4
 10
1617.42
 20
332.7
 30
6.0
 40
21.6
  1
ご注文主
 50
0.0
 41
1.111111111
 51
0.0
  7
KANJI8
  0
TEXT
  8
0
  6
CONTINUOUS
 62
     4
 10
1609.3200612
 20
183.4999914
 30
1.03999992
 40
10.3999992
  1
ＤＲＡＷＮ
 50
0.0
 41
0.6
 51
0.0
  7
KANJI4
  0
TEXT
  8
0
  6
CONTINUOUS
 62
     4
 10
1609.3200612
 20
225.0999882
 30
1.03999992
 40
10.3999992
  1
ＤＥＳＩＧＮ
 50
0.0
 41
0.6
 51
0.0
  7
KANJI4
  0
TEXT
  8
0
  6
CONTINUOUS
 62
     4
 10
1609.3200612
 20
266.699985
 30
1.03999992
 40
10.3999992
  1
ＣＨＥＣＫ
 50
0.0
 41
0.6
 51
0.0
  7
KANJI4
  0
LINE
  8
0
  6
CONTINUOUS
 62
     4
 10
1598.920062
 20
243.2999868
 11
1788.7200474
 21
243.2999868
  0
LINE
  8
0
  6
CONTINUOUS
 62
     4
 10
1598.920062
 20
201.69999
 11
1788.7200474
 21
201.69999
  0
LINE
  8
0
  6
CONTINUOUS
 62
     4
 10
1598.920062
 20
284.8999836
 11
1788.7200474
 21
284.8999836
  0
TEXT
  8
0
  6
CONTINUOUS
 62
     4
 10
1609.3200612
 20
209.4999894
 30
1.247999904
 40
12.47999904
  1
設計
 50
0.0
 41
0.6
 51
0.0
  7
KANJI5
  0
TEXT
  8
0
  6
CONTINUOUS
 62
     4
 10
1609.3200612
 20
251.0999862
 30
1.247999904
 40
12.47999904
  1
検図
 50
0.0
 41
0.6
 51
0.0
  7
KANJI5
  0
LINE
  8
0
  6
CONTINUOUS
 62
     4
 10
1804.06004622
 20
284.8999836
 11
2399.7200004
 21
284.8999836
  0
LINE
  8
0
  6
CONTINUOUS
 62
     4
 10
1788.7200474
 20
201.69999
 11
2399.7200004
 21
201.69999
  0
TEXT
  8
0
  6
CONTINUOUS
 62
     4
 10
1799.1200466
 20
183.4999914
 30
1.03999992
 40
10.3999992
  1
ＤＲＡＷＩＮＧ　ＮＯ．
 50
0.0
 41
0.8
 51
0.0
  7
KANJI9
  0
TEXT
  8
0
  6
CONTINUOUS
 62
     4
 10
1799.1200466
 20
225.0999882
 30
1.03999992
 40
10.3999992
  1
ＭＦＧ　ＮＯ．
 50
0.0
 41
0.8
 51
0.0
  7
KANJI9
  0
TEXT
  8
0
  6
CONTINUOUS
 62
     4
 10
1799.1200466
 20
266.699985
 30
1.03999992
 40
10.3999992
  1
ＴＹＰＥ
 50
0.0
 41
0.8
 51
0.0
  7
KANJI9
  0
LINE
  8
0
  6
CONTINUOUS
 62
     4
 10
1804.3200462
 20
243.2999868
 11
2043.5200278
 21
243.2999868
  0
TEXT
  8
0
  6
CONTINUOUS
 62
     4
 10
1799.1200466
 20
165.2999928
 30
1.247999904
 40
12.47999904
  1
図　面　番　号
 50
0.0
 41
0.8
 51
0.0
  7
KANJI10
  0
TEXT
  8
0
  6
CONTINUOUS
 62
     4
 10
1799.1200466
 20
206.8999896
 30
1.247999904
 40
12.47999904
  1
製番
 50
0.0
 41
0.8
 51
0.0
  7
KANJI10
  0
TEXT
  8
0
  6
CONTINUOUS
 62
     4
 10
1799.1200466
 20
248.4999864
 30
1.247999904
 40
12.47999904
  1
機種
 50
0.0
 41
0.8
 51
0.0
  7
KANJI10
  0
LINE
  8
0
  6
CONTINUOUS
 62
     4
 10
1598.920062
 20
160.0999932
 11
1788.7200474
 21
160.0999932
  0
TEXT
  8
0
  6
CONTINUOUS
 62
     4
 10
1609.3200612
 20
141.8999946
 30
1.03999992
 40
10.3999992
  1
ＤＡＴＥ
 50
0.0
 41
0.6
 51
0.0
  7
KANJI4
  0
TEXT
  8
0
  6
CONTINUOUS
 62
     4
 10
1609.3200612
 20
126.2999958
 30
1.247999904
 40
12.47999904
  1
日付
 50
0.0
 41
0.6
 51
0.0
  7
KANJI5
  0
TEXT
  8
0
  6
CONTINUOUS
 62
     4
 10
1609.3200612
 20
167.8999926
 30
1.247999904
 40
12.47999904
  1
作図
 50
0.0
 41
0.6
 51
0.0
  7
KANJI5
  0
LINE
  8
0
  6
CONTINUOUS
 62
     4
 10
1788.7200474
 20
141.8999946
 11
2399.7200004
 21
141.8999946
  0
LINE
  8
0
  6
LTYPE1
 62
     4
 10
2225.5200138
 20
149.699994
 11
2225.5200138
 21
191.2999908
  0
LINE
  8
0
  6
LTYPE1
 62
     4
 10
2189.1200166
 20
149.699994
 11
2189.1200166
 21
191.2999908
  0
LINE
  8
0
  6
LTYPE1
 62
     4
 10
2152.7200194
 20
149.699994
 11
2152.7200194
 21
191.2999908
  0
LINE
  8
0
  6
LTYPE1
 62
     4
 10
2116.3200222
 20
149.699994
 11
2116.3200222
 21
191.2999908
  0
LINE
  8
0
  6
LTYPE1
 62
     4
 10
2079.920025
 20
149.699994
 11
2079.920025
 21
191.2999908
  0
LINE
  8
0
  6
LTYPE1
 62
     4
 10
2043.5200278
 20
149.699994
 11
2043.5200278
 21
191.2999908
  0
LINE
  8
0
  6
LTYPE1
 62
     4
 10
2007.1200306
 20
149.699994
 11
2007.1200306
 21
191.2999908
  0
LINE
  8
0
  6
LTYPE1
 62
     4
 10
1970.7200334
 20
149.699994
 11
1970.7200334
 21
191.2999908
  0
LINE
  8
0
  6
LTYPE1
 62
     4
 10
1970.7200334
 20
191.2999908
 11
2225.5200138
 21
191.2999908
  0
LINE
  8
0
  6
LTYPE1
 62
     4
 10
1970.7200334
 20
149.699994
 11
2225.5200138
 21
149.699994
  0
LINE
  8
0
  6
CONTINUOUS
 62
     4
 10
2246.3200122
 20
171.7999923
 11
2256.7200114
 21
171.7999923
  0
LINE
  8
0
  6
CONTINUOUS
 62
     4
 10
2311.3200072
 20
156.1999935
 11
2274.92001
 21
156.1999935
  0
LINE
  8
0
  6
CONTINUOUS
 62
     4
 10
2274.92001
 20
156.1999935
 11
2293.1200086
 21
187.3999911
  0
LINE
  8
0
  6
CONTINUOUS
 62
     4
 10
2293.1200086
 20
187.3999911
 11
2311.3200072
 21
156.1999935
  0
TEXT
  8
0
  6
CONTINUOUS
 62
     4
 10
2059.1200266
 20
266.699985
 30
1.03999992
 40
10.3999992
  1
ＴＩＴＬＥ
 50
0.0
 41
0.8
 51
0.0
  7
KANJI9
  0
TEXT
  8
0
  6
CONTINUOUS
 62
     4
 10
2059.1200266
 20
248.4999864
 30
1.247999904
 40
12.47999904
  1
名称
 50
0.0
 41
0.8
 51
0.0
  7
KANJI10
  0
TEXT
  8
0
  6
CONTINUOUS
 62
     2
 10
2143.92
 20
209.7
 30
15.0
 40
30.0
  1
外形寸法図
 50
0.0
 41
1.0
 51
0.0
  7
KANJI11
  0
TEXT
  8
0
  6
CONTINUOUS
 62
     2
 10
2107.92
 20
245.7
 30
4.285714286
 40
30.0
  1
マイティシリンダ
 50
0.0
 41
1.0
 51
0.0
  7
KANJI12
  0
TEXT
  8
0
  6
CONTINUOUS
 62
     2
 10
1939.2200334
 20
155.699994
 30
1.8
 40
30.0
  1
Ａ
 50
0.0
 41
0.8
 51
0.0
  7
KANJI13
  0
CIRCLE
  8
0
  6
CONTINUOUS
 62
     2
 10
1900.2200334
 20
220.199994
 40
15.0
  0
TEXT
  8
0
  6
CONTINUOUS
 62
     2
 10
1888.9700334
 20
208.949994
 30
1.8
 40
24.0
  1
Ｓ
 50
0.0
 41
1.0
 51
0.0
  7
KANJI14
  0
LINE
  8
0
  6
CONTINUOUS
 62
     6
 10
2005.703030709
 20
120.683996232
 11
1990.727031861
 21
120.683996232
  0
LINE
  8
0
  6
CONTINUOUS
 62
     6
 10
2009.447030421
 20
120.683996232
 11
2024.423029269
 21
120.683996232
  0
TEXT
  8
0
  6
CONTINUOUS
 62
     2
 10
1665.9200334
 20
170.699994
 30
6.0
 40
21.0
  1
岡田
 50
0.0
 41
0.857142857
 51
0.0
  7
KANJI15
  0
LINE
  8
0
  6
CONTINUOUS
 62
     4
 10
2399.7200004
 20
368.0999772
 11
2399.7200004
 21
409.699974
  0
LINE
  8
0
  6
CONTINUOUS
 62
     6
 10
1599.670062
 20
368.0999772
 11
2400.4700004
 21
368.0999772
  0
LINE
  8
0
  6
CONTINUOUS
 62
     6
 10
1598.920062
 20
409.699974
 11
2399.7200004
 21
409.699974
  0
TEXT
  8
0
  6
CONTINUOUS
 62
     4
 10
1617.42
 20
374.2999968
 30
6.0
 40
21.6
  1
ご用途
 50
0.0
 41
1.111111111
 51
0.0
  7
KANJI8
  0
TEXT
  8
0
  6
CONTINUOUS
 62
     2
 10
1708.92
 20
83.7
 30
1.8
 40
27.0
  1
１／６
 50
0.0
 41
0.666666667
 51
0.0
  7
KANJI16
  0
LINE
  8
0
  6
CONTINUOUS
 62
     1
 10
360.0
 20
581.0
 11
274.0
 21
581.0
  0
LINE
  8
0
  6
CONTINUOUS
 62
     1
 10
274.0
 20
594.5
 11
274.0
 21
583.55046
  0
LINE
  8
0
  6
CONTINUOUS
 62
     1
 10
274.0
 20
594.5
 11
274.0
 21
605.44954
  0
LINE
  8
0
  6
CONTINUOUS
 62
     1
 10
265.9789
 20
586.23198
 11
267.527076294
 21
583.55046
  0
LINE
  8
0
  6
CONTINUOUS
 62
     1
 10
265.9789
 20
594.5
 11
265.9789
 21
586.23198
  0
LINE
  8
0
  6
CONTINUOUS
 62
     1
 10
265.9789
 20
602.76802
 11
267.527076294
 21
605.44954
  0
LINE
  8
0
  6
CONTINUOUS
 62
     1
 10
265.9789
 20
594.5
 11
265.9789
 21
602.76802
  0
ARC
  8
0
  6
CONTINUOUS
 62
     1
 10
276.433121693
 20
594.5
 40
10.454221693
 50
148.419912243
 51
211.580087757
  0
ARC
  8
0
  6
CONTINUOUS
 62
     1
 10
269.172013606
 20
586.287845
 40
3.193602261
 50
121.002313915
 51
182.989498403
  0
LINE
  8
0
  6
CONTINUOUS
 62
     1
 10
265.9789
 20
602.76802
 11
267.527076294
 21
605.44954
  0
ARC
  8
0
  6
CONTINUOUS
 62
     1
 10
269.172013606
 20
602.712155
 40
3.193602261
 50
177.010501597
 51
238.997686085
  0
LINE
  8
0
  6
CONTINUOUS
 62
     1
 10
274.0
 20
583.55046
 11
267.527076294
 21
583.55046
  0
LINE
  8
0
  6
CONTINUOUS
 62
     1
 10
274.0
 20
589.02523
 11
267.527076294
 21
589.02523
  0
LINE
  8
0
  6
CONTINUOUS
 62
     1
 10
274.0
 20
599.97477
 11
267.527076294
 21
599.97477
  0
LINE
  8
0
  6
CONTINUOUS
 62
     1
 10
274.0
 20
605.44954
 11
267.527076294
 21
605.44954
  0
LINE
  8
0
  6
CONTINUOUS
 62
     1
 10
274.0
 20
722.5
 11
274.0
 21
711.55046
  0
LINE
  8
0
  6
CONTINUOUS
 62
     1
 10
274.0
 20
722.5
 11
274.0
 21
733.44954
  0
LINE
  8
0
  6
CONTINUOUS
 62
     1
 10
265.9789
 20
714.23198
 11
267.527076294
 21
711.55046
  0
LINE
  8
0
  6
CONTINUOUS
 62
     1
 10
265.9789
 20
722.5
 11
265.9789
 21
714.23198
  0
LINE
  8
0
  6
CONTINUOUS
 62
     1
 10
265.9789
 20
730.76802
 11
267.527076294
 21
733.44954
  0
LINE
  8
0
  6
CONTINUOUS
 62
     1
 10
265.9789
 20
722.5
 11
265.9789
 21
730.76802
  0
ARC
  8
0
  6
CONTINUOUS
 62
     1
 10
276.433121693
 20
722.5
 40
10.454221693
 50
148.419912243
 51
211.580087757
  0
ARC
  8
0
  6
CONTINUOUS
 62
     1
 10
269.172013606
 20
714.287845
 40
3.193602261
 50
121.002313915
 51
182.989498403
  0
LINE
  8
0
  6
CONTINUOUS
 62
     1
 10
265.9789
 20
730.76802
 11
267.527076294
 21
733.44954
  0
ARC
  8
0
  6
CONTINUOUS
 62
     1
 10
269.172013606
 20
730.712155
 40
3.193602261
 50
177.010501597
 51
238.997686085
  0
LINE
  8
0
  6
CONTINUOUS
 62
     1
 10
274.0
 20
711.55046
 11
267.527076294
 21
711.55046
  0
LINE
  8
0
  6
CONTINUOUS
 62
     1
 10
274.0
 20
717.02523
 11
267.527076294
 21
717.02523
  0
LINE
  8
0
  6
CONTINUOUS
 62
     1
 10
274.0
 20
727.97477
 11
267.527076294
 21
727.97477
  0
LINE
  8
0
  6
CONTINUOUS
 62
     1
 10
274.0
 20
733.44954
 11
267.527076294
 21
733.44954
  0
LINE
  8
0
  6
CONTINUOUS
 62
     1
 10
274.0
 20
581.0
 11
274.0
 21
796.0
  0
LINE
  8
0
  6
CONTINUOUS
 62
     1
 10
289.0
 20
796.0
 11
274.0
 21
796.0
  0
LINE
  8
0
  6
CONTINUOUS
 62
     1
 10
274.0
 20
787.0
 11
274.0
 21
779.50594
  0
LINE
  8
0
  6
CONTINUOUS
 62
     1
 10
274.0
 20
787.0
 11
274.0
 21
794.49406
  0
LINE
  8
0
  6
CONTINUOUS
 62
     1
 10
268.5001
 20
781.34122
 11
269.559699402
 21
779.50594
  0
LINE
  8
0
  6
CONTINUOUS
 62
     1
 10
268.5001
 20
787.0
 11
268.5001
 21
781.34122
  0
LINE
  8
0
  6
CONTINUOUS
 62
     1
 10
268.5001
 20
792.65878
 11
269.559699402
 21
794.49406
  0
LINE
  8
0
  6
CONTINUOUS
 62
     1
 10
268.5001
 20
787.0
 11
268.5001
 21
792.65878
  0
ARC
  8
0
  6
CONTINUOUS
 62
     1
 10
275.655155337
 20
787.0
 40
7.155055337
 50
148.419912243
 51
211.580087757
  0
ARC
  8
0
  6
CONTINUOUS
 62
     1
 10
270.685523767
 20
781.379455
 40
2.185758211
 50
121.002313915
 51
182.989498403
  0
LINE
  8
0
  6
CONTINUOUS
 62
     1
 10
268.5001
 20
792.65878
 11
269.559699402
 21
794.49406
  0
ARC
  8
0
  6
CONTINUOUS
 62
     1
 10
270.685523767
 20
792.620545
 40
2.185758211
 50
177.010501597
 51
238.997686085
  0
LINE
  8
0
  6
CONTINUOUS
 62
     1
 10
274.0
 20
779.50594
 11
269.559699402
 21
779.50594
  0
LINE
  8
0
  6
CONTINUOUS
 62
     1
 10
274.0
 20
783.25297
 11
269.559699402
 21
783.25297
  0
LINE
  8
0
  6
CONTINUOUS
 62
     1
 10
274.0
 20
790.74703
 11
269.559699402
 21
790.74703
  0
LINE
  8
0
  6
CONTINUOUS
 62
     1
 10
274.0
 20
794.49406
 11
269.559699402
 21
794.49406
  0
LINE
  8
0
  6
CONTINUOUS
 62
     1
 10
468.0
 20
600.5
 11
542.0
 21
600.5
  0
LINE
  8
0
  6
CONTINUOUS
 62
     1
 10
375.0
 20
601.5
 11
375.0
 21
715.5
  0
CIRCLE
  8
0
  6
CONTINUOUS
 62
     1
 10
420.0
 20
658.5
 40
10.0
  0
CIRCLE
  8
0
  6
CONTINUOUS
 62
     1
 10
420.0
 20
658.5
 40
21.0
  0
CIRCLE
  8
0
  6
CONTINUOUS
 62
     1
 10
420.0
 20
658.5
 40
25.0
  0
LINE
  8
0
  6
CONTINUOUS
 62
     1
 10
360.0
 20
715.5
 11
375.0
 21
715.5
  0
LINE
  8
0
  6
CONTINUOUS
 62
     1
 10
388.9
 20
711.5
 11
542.0
 21
711.5
  0
LINE
  8
0
  6
CONTINUOUS
 62
     1
 10
468.0
 20
600.5
 11
468.0
 21
652.9
  0
LINE
  8
0
  6
CONTINUOUS
 62
     1
 10
550.0
 20
599.0
 11
550.0
 21
598.0
  0
ARC
  8
0
  6
CONTINUOUS
 62
     1
 10
463.0
 20
596.0
 40
3.0
 50
90.0
 51
180.0
  0
LINE
  8
0
  6
CONTINUOUS
 62
     1
 10
589.0
 20
556.0
 11
460.0
 21
556.0
  0
LINE
  8
0
  6
CONTINUOUS
 62
     1
 10
550.0
 20
598.0
 11
586.0
 21
598.0
  0
ARC
  8
0
  6
CONTINUOUS
 62
     1
 10
586.0
 20
595.0
 40
3.0
 50
0.0
 51
90.0
  0
LINE
  8
0
  6
CONTINUOUS
 62
     1
 10
589.0
 20
554.5
 11
460.0
 21
554.5
  0
LINE
  8
0
  6
CONTINUOUS
 62
     1
 10
589.0
 20
549.5
 11
589.0
 21
595.0
  0
ARC
  8
0
  6
CONTINUOUS
 62
     1
 10
588.0
 20
549.5
 40
1.0
 50
270.0
 51
0.0
  0
LINE
  8
0
  6
CONTINUOUS
 62
     1
 10
586.0
 20
548.5
 11
586.0
 21
548.5
  0
ARC
  8
0
  6
CONTINUOUS
 62
     1
 10
585.0
 20
548.5
 40
1.0
 50
270.0
 51
0.0
  0
LINE
  8
0
  6
CONTINUOUS
 62
     1
 10
460.0
 20
549.5
 11
460.0
 21
596.0
  0
LINE
  8
0
  6
CONTINUOUS
 62
     1
 10
588.0
 20
548.5
 11
461.0
 21
548.5
  0
ARC
  8
0
  6
CONTINUOUS
 62
     1
 10
461.0
 20
549.5
 40
1.0
 50
180.0
 51
270.0
  0
ARC
  8
0
  6
CONTINUOUS
 62
     1
 10
464.0
 20
548.5
 40
1.0
 50
180.0
 51
270.0
  0
LINE
  8
0
  6
CONTINUOUS
 62
     1
 10
585.0
 20
547.5
 11
464.1
 21
547.5
  0
LINE
  8
0
  6
CONTINUOUS
 62
     1
 10
463.0
 20
599.0
 11
550.0
 21
599.0
  0
LINE
  8
0
  6
CONTINUOUS
 62
     1
 10
463.0
 20
600.5
 11
550.0
 21
600.5
  0
LINE
  8
0
  6
CONTINUOUS
 62
     1
 10
378.0
 20
703.5
 11
378.0
 21
714.44954
  0
LINE
  8
0
  6
CONTINUOUS
 62
     1
 10
378.0
 20
703.5
 11
378.0
 21
692.55046
  0
LINE
  8
0
  6
CONTINUOUS
 62
     1
 10
375.0
 20
714.25
 11
378.0
 21
714.25
  0
LINE
  8
0
  6
CONTINUOUS
 62
     1
 10
375.0
 20
703.5
 11
378.000254073
 21
706.500254073
  0
LINE
  8
0
  6
CONTINUOUS
 62
     1
 10
378.000254073
 20
703.5
 11
375.0
 21
700.499745927
  0
LINE
  8
0
  6
CONTINUOUS
 62
     1
 10
375.0
 20
692.75
 11
378.0
 21
692.75
  0
LINE
  8
0
  6
CONTINUOUS
 62
     1
 10
378.0
 20
714.25
 11
389.3
 21
714.25
  0
LINE
  8
0
  6
CONTINUOUS
 62
     1
 10
389.3
 20
703.5
 11
389.3
 21
714.25
  0
LINE
  8
0
  6
CONTINUOUS
 62
     1
 10
389.3
 20
714.25
 11
390.0
 21
713.037564435
  0
LINE
  8
0
  6
CONTINUOUS
 62
     1
 10
390.0
 20
703.5
 11
390.0
 21
713.037564435
  0
LINE
  8
0
  6
CONTINUOUS
 62
     1
 10
378.0
 20
692.75
 11
389.3
 21
692.75
  0
LINE
  8
0
  6
CONTINUOUS
 62
     1
 10
389.3
 20
703.5
 11
389.3
 21
692.75
  0
LINE
  8
0
  6
CONTINUOUS
 62
     1
 10
389.3
 20
692.75
 11
390.0
 21
693.962435565
  0
LINE
  8
0
  6
CONTINUOUS
 62
     1
 10
390.0
 20
703.5
 11
390.0
 21
693.962435565
  0
LINE
  8
0
  6
CONTINUOUS
 62
     1
 10
378.0
 20
613.5
 11
378.0
 21
602.55046
  0
LINE
  8
0
  6
CONTINUOUS
 62
     1
 10
378.0
 20
613.5
 11
378.0
 21
624.44954
  0
LINE
  8
0
  6
CONTINUOUS
 62
     1
 10
375.0
 20
602.75
 11
378.0
 21
602.75
  0
LINE
  8
0
  6
CONTINUOUS
 62
     1
 10
375.0
 20
613.5
 11
378.000254073
 21
610.499745927
  0
LINE
  8
0
  6
CONTINUOUS
 62
     1
 10
378.000254073
 20
613.5
 11
375.0
 21
616.500254073
  0
LINE
  8
0
  6
CONTINUOUS
 62
     1
 10
375.0
 20
624.25
 11
378.0
 21
624.25
  0
LINE
  8
0
  6
CONTINUOUS
 62
     1
 10
378.0
 20
602.75
 11
389.3
 21
602.75
  0
LINE
  8
0
  6
CONTINUOUS
 62
     1
 10
389.3
 20
613.5
 11
389.3
 21
602.75
  0
LINE
  8
0
  6
CONTINUOUS
 62
     1
 10
389.3
 20
602.75
 11
390.0
 21
603.962435565
  0
LINE
  8
0
  6
CONTINUOUS
 62
     1
 10
390.0
 20
613.5
 11
390.0
 21
603.962435565
  0
LINE
  8
0
  6
CONTINUOUS
 62
     1
 10
378.0
 20
624.25
 11
389.3
 21
624.25
  0
LINE
  8
0
  6
CONTINUOUS
 62
     1
 10
389.3
 20
613.5
 11
389.3
 21
624.25
  0
LINE
  8
0
  6
CONTINUOUS
 62
     1
 10
389.3
 20
624.25
 11
390.0
 21
623.037564435
  0
LINE
  8
0
  6
CONTINUOUS
 62
     1
 10
390.0
 20
613.5
 11
390.0
 21
623.037564435
  0
LINE
  8
0
  6
CONTINUOUS
 62
     1
 10
360.0
 20
601.5
 11
375.0
 21
601.5
  0
POINT
  8
0
  6
CONTINUOUS
 62
     1
 10
360.0
 20
601.5
  0
LINE
  8
0
  6
CONTINUOUS
 62
     1
 10
360.0
 20
601.5
 11
360.0
 21
715.5
  0
LINE
  8
0
  6
CONTINUOUS
 62
     1
 10
551.0
 20
654.5
 11
542.0
 21
654.5
  0
LINE
  8
0
  6
CONTINUOUS
 62
     1
 10
551.0
 20
662.5
 11
542.0
 21
662.5
  0
LINE
  8
0
  6
LTYPE2
 62
     2
 10
299.1
 20
594.5
 11
264.9
 21
594.5
  0
LINE
  8
0
  6
LTYPE2
 62
     2
 10
300.1
 20
722.5
 11
264.9
 21
722.5
  0
LINE
  8
0
  6
LTYPE2
 62
     2
 10
304.6
 20
787.0
 11
265.3
 21
787.0
  0
LINE
  8
0
  6
LTYPE2
 62
     2
 10
339.0
 20
703.5
 11
392.0
 21
703.5
  0
LINE
  8
0
  6
LTYPE2
 62
     2
 10
420.0
 20
627.0
 11
420.0
 21
690.0
  0
LINE
  8
0
  6
LTYPE2
 62
     2
 10
339.0
 20
613.5
 11
392.0
 21
613.5
  0
LINE
  8
0
  6
LTYPE1
 62
     2
 10
589.0
 20
582.3
 11
579.0
 21
582.3
  0
LINE
  8
0
  6
LTYPE1
 62
     2
 10
589.0
 20
583.5
 11
579.0
 21
583.5
  0
LINE
  8
0
  6
LTYPE1
 62
     2
 10
589.0
 20
563.7
 11
579.0
 21
563.7
  0
LINE
  8
0
  6
LTYPE1
 62
     2
 10
589.0
 20
562.5
 11
579.0
 21
562.5
  0
LINE
  8
0
  6
LTYPE3
 62
     2
 10
595.2
 20
573.0
 11
575.5
 21
573.0
  0
LINE
  8
0
  6
LTYPE3
 62
     2
 10
504.0
 20
587.3
 11
504.0
 21
602.15
  0
LINE
  8
0
  6
CONTINUOUS
 62
     2
 10
589.0
 20
573.0
 11
591.506004628
 21
560.753778509
  0
LINE
  8
0
  6
CONTINUOUS
 62
     2
 10
589.0
 20
573.0
 11
597.293374416
 21
563.647463403
  0
LINE
  8
0
  6
CONTINUOUS
 62
     2
 10
589.0
 20
573.0
 11
614.0
 21
523.0
  0
LINE
  8
0
  6
CONTINUOUS
 62
     2
 10
614.0
 20
523.0
 11
681.5
 21
523.0
  0
LINE
  8
0
  6
CONTINUOUS
 62
     2
 10
274.0
 20
408.3625
 11
286.074072829
 21
405.127261936
  0
LINE
  8
0
  6
CONTINUOUS
 62
     2
 10
274.0
 20
408.3625
 11
286.074072829
 21
411.597738064
  0
LINE
  8
0
  6
CONTINUOUS
 62
     2
 10
274.0
 20
408.3625
 11
360.0
 21
408.3625
  0
LINE
  8
0
  6
CONTINUOUS
 62
     2
 10
360.0
 20
408.3625
 11
347.925927171
 21
411.597738064
  0
LINE
  8
0
  6
CONTINUOUS
 62
     2
 10
360.0
 20
408.3625
 11
347.925927171
 21
405.127261936
  0
LINE
  8
0
  6
CONTINUOUS
 62
     2
 10
360.0
 20
408.3625
 11
372.074072829
 21
405.127261936
  0
LINE
  8
0
  6
CONTINUOUS
 62
     2
 10
360.0
 20
408.3625
 11
372.074072829
 21
411.597738064
  0
LINE
  8
0
  6
CONTINUOUS
 62
     2
 10
360.0
 20
408.3625
 11
420.0
 21
408.3625
  0
LINE
  8
0
  6
CONTINUOUS
 62
     2
 10
420.0
 20
408.3625
 11
407.925927171
 21
411.597738064
  0
LINE
  8
0
  6
CONTINUOUS
 62
     2
 10
420.0
 20
408.3625
 11
407.925927171
 21
405.127261936
  0
LINE
  8
0
  6
CONTINUOUS
 62
     2
 10
420.0
 20
408.3625
 11
432.074072829
 21
405.127261936
  0
LINE
  8
0
  6
CONTINUOUS
 62
     2
 10
420.0
 20
408.3625
 11
432.074072829
 21
411.597738064
  0
LINE
  8
0
  6
CONTINUOUS
 62
     2
 10
420.0
 20
408.3625
 11
1051.0
 21
408.3625
  0
LINE
  8
0
  6
CONTINUOUS
 62
     2
 10
420.0
 20
451.7
 11
432.074072829
 21
448.464761936
  0
LINE
  8
0
  6
CONTINUOUS
 62
     2
 10
420.0
 20
451.7
 11
432.074072829
 21
454.935238064
  0
LINE
  8
0
  6
CONTINUOUS
 62
     2
 10
274.0
 20
400.8625
 11
274.0
 21
356.5
  0
LINE
  8
0
  6
CONTINUOUS
 62
     2
 10
274.0
 20
364.0
 11
286.074072829
 21
360.764761936
  0
LINE
  8
0
  6
CONTINUOUS
 62
     2
 10
274.0
 20
364.0
 11
286.074072829
 21
367.235238064
  0
LINE
  8
0
  6
CONTINUOUS
 62
     2
 10
274.0
 20
364.0
 11
1051.0
 21
364.0
  0
LINE
  8
0
  6
CONTINUOUS
 62
     2
 10
274.0
 20
572.875
 11
274.0
 21
400.8625
  0
LINE
  8
0
  6
CONTINUOUS
 62
     2
 10
360.0
 20
576.875
 11
360.0
 21
400.8625
  0
LINE
  8
0
  6
CONTINUOUS
 62
     2
 10
420.0
 20
630.375
 11
420.0
 21
400.8625
  0
LINE
  8
0
  6
LTYPE2
 62
     2
 10
620.325
 20
658.5
 11
248.9
 21
658.5
  0
LINE
  8
0
  6
LTYPE2
 62
     2
 10
1069.283472275
 20
658.5
 11
661.525
 21
658.5
  0
LINE
  8
0
  6
LTYPE2
 62
     2
 10
1069.283472275
 20
658.5
 11
661.525
 21
658.5
  0
LINE
  8
0
  6
CONTINUOUS
 62
     2
 10
477.5
 20
549.0
 11
470.955006676
 21
538.35044309
  0
LINE
  8
0
  6
CONTINUOUS
 62
     2
 10
477.5
 20
549.0
 11
477.156647969
 21
536.504716515
  0
LINE
  8
0
  6
CONTINUOUS
 62
     2
 10
477.5
 20
549.0
 11
452.5
 21
465.0
  0
LINE
  8
0
  6
CONTINUOUS
 62
     2
 10
452.5
 20
465.0
 11
454.0
 21
465.0
  0
LINE
  8
0
  6
CONTINUOUS
 62
     2
 10
452.5
 20
465.0
 11
542.0
 21
465.0
  0
CIRCLE
  8
0
  6
CONTINUOUS
 62
     1
 10
703.0
 20
658.5
 40
19.5
  0
LINE
  8
0
  6
CONTINUOUS
 62
     1
 10
723.0
 20
638.5
 11
723.0
 21
678.5
  0
LINE
  8
0
  6
CONTINUOUS
 62
     1
 10
683.0
 20
638.5
 11
683.0
 21
678.5
  0
LINE
  8
0
  6
LTYPE2
 62
     2
 10
703.0
 20
633.4
 11
703.0
 21
683.3
  0
LINE
  8
0
  6
CONTINUOUS
 62
     1
 10
683.0
 20
638.5
 11
723.0
 21
638.5
  0
LINE
  8
2
  6
CONTINUOUS
 62
     2
 10
708.5
 20
641.5
 11
709.415486016
 21
634.056084004
  0
LINE
  8
2
  6
CONTINUOUS
 62
     2
 10
708.5
 20
641.5
 11
713.014792145
 21
635.511122652
  0
LINE
  8
2
  6
CONTINUOUS
 62
     2
 10
708.5
 20
641.5
 11
737.0
 21
571.0
  0
LINE
  8
0
  6
CONTINUOUS
 62
     1
 10
683.0
 20
678.5
 11
723.0
 21
678.5
  0
LINE
  8
0
  6
CONTINUOUS
 62
     2
 10
420.0
 20
451.7
 11
956.0
 21
451.7
  0
CIRCLE
  8
0
  6
CONTINUOUS
 62
     1
 10
1051.0
 20
658.0
 40
12.5
  0
CIRCLE
  8
0
  6
CONTINUOUS
 62
     1
 10
1051.0
 20
658.0
 40
22.0
  0
CIRCLE
  8
0
  6
CONTINUOUS
 62
     1
 10
1051.0
 20
673.5
 40
3.0
  0
LINE
  8
0
  6
CONTINUOUS
 62
     1
 10
1046.8
 20
641.2
 11
1048.8
 21
640.9
  0
LINE
  8
0
  6
CONTINUOUS
 62
     1
 10
1049.3
 20
645.6
 11
1049.064615385
 21
644.030769231
  0
LINE
  8
0
  6
CONTINUOUS
 62
     1
 10
1049.064615385
 20
644.030769231
 11
1046.8
 21
641.2
  0
LINE
  8
0
  6
CONTINUOUS
 62
     1
 10
1051.0
 20
643.6
 11
1048.8
 21
640.9
  0
LINE
  8
0
  6
CONTINUOUS
 62
     1
 10
1055.2
 20
641.2
 11
1053.2
 21
640.9
  0
LINE
  8
0
  6
CONTINUOUS
 62
     1
 10
1052.7
 20
645.6
 11
1052.935384615
 21
644.030769231
  0
LINE
  8
0
  6
CONTINUOUS
 62
     1
 10
1052.935384615
 20
644.030769231
 11
1055.2
 21
641.2
  0
LINE
  8
0
  6
CONTINUOUS
 62
     1
 10
1051.0
 20
643.6
 11
1053.2
 21
640.9
  0
LINE
  8
0
  6
LTYPE1
 62
     2
 10
1016.0
 20
633.0
 11
1016.0
 21
683.0
  0
LINE
  8
0
  6
CONTINUOUS
 62
     2
 10
1075.5
 20
683.0
 11
1139.1
 21
683.0
  0
LINE
  8
0
  6
CONTINUOUS
 62
     2
 10
1131.6
 20
683.0
 11
1128.364761936
 21
670.925927171
  0
LINE
  8
0
  6
CONTINUOUS
 62
     2
 10
1131.6
 20
683.0
 11
1134.835238064
 21
670.925927171
  0
LINE
  8
0
  6
CONTINUOUS
 62
     2
 10
1131.6
 20
683.0
 11
1131.6
 21
633.0
  0
LINE
  8
0
  6
CONTINUOUS
 62
     2
 10
1131.6
 20
633.0
 11
1134.835238064
 21
645.074072829
  0
LINE
  8
0
  6
CONTINUOUS
 62
     2
 10
1131.6
 20
633.0
 11
1128.364761936
 21
645.074072829
  0
LINE
  8
0
  6
CONTINUOUS
 62
     2
 10
1075.5
 20
633.0
 11
1139.1
 21
633.0
  0
LINE
  8
0
  6
LTYPE4
 62
     2
 10
1051.0
 20
633.0
 11
1051.0
 21
690.1
  0
LINE
  8
0
  6
CONTINUOUS
 62
     2
 10
1058.5
 20
667.6
 11
1067.413448812
 21
676.363585469
  0
LINE
  8
0
  6
CONTINUOUS
 62
     2
 10
1058.5
 20
667.6
 11
1061.837480372
 21
679.64621205
  0
LINE
  8
0
  6
CONTINUOUS
 62
     2
 10
1058.5
 20
667.6
 11
1095.0
 21
729.6
  0
LINE
  8
0
  6
CONTINUOUS
 62
     2
 10
1095.0
 20
729.6
 11
1183.5
 21
729.6
  0
LINE
  8
0
  6
CONTINUOUS
 62
     2
 10
1051.0
 20
408.3625
 11
1038.925927171
 21
411.597738064
  0
LINE
  8
0
  6
CONTINUOUS
 62
     2
 10
1051.0
 20
408.3625
 11
1038.925927171
 21
405.127261936
  0
LINE
  8
0
  6
CONTINUOUS
 62
     2
 10
1001.0
 20
451.7
 11
988.925927171
 21
454.935238064
  0
LINE
  8
0
  6
CONTINUOUS
 62
     2
 10
1001.0
 20
451.7
 11
988.925927171
 21
448.464761936
  0
LINE
  8
0
  6
CONTINUOUS
 62
     2
 10
1001.0
 20
451.7
 11
1013.074072829
 21
448.464761936
  0
LINE
  8
0
  6
CONTINUOUS
 62
     2
 10
1001.0
 20
451.7
 11
1013.074072829
 21
454.935238064
  0
LINE
  8
0
  6
CONTINUOUS
 62
     2
 10
1001.0
 20
451.7
 11
1051.0
 21
451.7
  0
LINE
  8
0
  6
CONTINUOUS
 62
     2
 10
1051.0
 20
451.7
 11
1038.925927171
 21
454.935238064
  0
LINE
  8
0
  6
CONTINUOUS
 62
     2
 10
1051.0
 20
451.7
 11
1038.925927171
 21
448.464761936
  0
LINE
  8
0
  6
CONTINUOUS
 62
     2
 10
1051.0
 20
364.0
 11
1038.925927171
 21
367.235238064
  0
LINE
  8
0
  6
CONTINUOUS
 62
     2
 10
1051.0
 20
364.0
 11
1038.925927171
 21
360.764761936
  0
LINE
  8
0
  6
CONTINUOUS
 62
     2
 10
1051.0
 20
400.8625
 11
1051.0
 21
356.5
  0
LINE
  8
0
  6
CONTINUOUS
 62
     2
 10
1051.0
 20
632.375
 11
1051.0
 21
400.8625
  0
LINE
  8
0
  6
CONTINUOUS
 62
     1
 10
1001.0
 20
683.5
 11
1068.0
 21
683.5
  0
LINE
  8
0
  6
CONTINUOUS
 62
     1
 10
1001.0
 20
633.5
 11
1068.0
 21
633.5
  0
ARC
  8
0
  6
CONTINUOUS
 62
     1
 10
1068.0
 20
641.5
 40
8.0
 50
270.0
 51
0.0
  0
LINE
  8
0
  6
CONTINUOUS
 62
     1
 10
1076.0
 20
641.5
 11
1076.0
 21
675.5
  0
ARC
  8
0
  6
CONTINUOUS
 62
     1
 10
1068.0
 20
675.5
 40
8.0
 50
0.0
 51
90.0
  0
LINE
  8
0
  6
LTYPE1
 62
     2
 10
1016.0
 20
633.0
 11
1016.0
 21
683.0
  0
LINE
  8
0
  6
CONTINUOUS
 62
     1
 10
1001.0
 20
633.0
 11
1001.0
 21
683.5
  0
LINE
  8
0
  6
CONTINUOUS
 62
     2
 10
1001.0
 20
633.5
 11
1001.0
 21
446.0
  0
LINE
  8
0
  6
CONTINUOUS
 62
     2
 10
737.0
 20
571.0
 11
777.5
 21
571.0
  0
LINE
  8
0
  6
CONTINUOUS
 62
     1
 10
1001.0
 20
683.5
 11
956.0
 21
683.5
  0
LINE
  8
0
  6
CONTINUOUS
 62
     1
 10
1001.0
 20
633.5
 11
956.0
 21
633.5
  0
LINE
  8
0
  6
CONTINUOUS
 62
     2
 10
956.0
 20
451.7
 11
943.925927171
 21
454.935238064
  0
LINE
  8
0
  6
CONTINUOUS
 62
     2
 10
956.0
 20
451.7
 11
968.074072829
 21
454.935238064
  0
LINE
  8
0
  6
CONTINUOUS
 62
     2
 10
956.0
 20
620.875
 11
956.0
 21
444.2
  0
LINE
  8
0
  6
CONTINUOUS
 62
     2
 10
956.0
 20
451.7
 11
943.925927171
 21
448.464761936
  0
LINE
  8
0
  6
CONTINUOUS
 62
     2
 10
956.0
 20
451.7
 11
968.074072829
 21
448.464761936
  0
LINE
  8
0
  6
CONTINUOUS
 62
     2
 10
956.0
 20
451.7
 11
1001.0
 21
451.7
  0
ARC
  8
0
  6
CONTINUOUS
 62
     1
 10
1285.0
 20
587.0
 40
6.0
 50
180.0
 51
270.0
  0
ARC
  8
0
  6
CONTINUOUS
 62
     1
 10
1427.0
 20
587.0
 40
6.0
 50
270.0
 51
0.0
  0
LINE
  8
0
  6
CONTINUOUS
 62
     1
 10
1436.0
 20
637.5
 11
1436.0
 21
679.5
  0
ARC
  8
0
  6
CONTINUOUS
 62
     1
 10
1308.0
 20
596.0
 40
3.0
 50
90.0
 51
180.0
  0
LINE
  8
0
  6
CONTINUOUS
 62
     1
 10
1305.0
 20
549.5
 11
1305.0
 21
596.0
  0
ARC
  8
0
  6
CONTINUOUS
 62
     1
 10
1306.0
 20
549.5
 40
1.0
 50
180.0
 51
270.0
  0
ARC
  8
0
  6
CONTINUOUS
 62
     1
 10
1309.0
 20
548.5
 40
1.0
 50
180.0
 51
270.0
  0
ARC
  8
0
  6
CONTINUOUS
 62
     1
 10
1404.0
 20
596.0
 40
3.0
 50
0.0
 51
90.0
  0
LINE
  8
0
  6
CONTINUOUS
 62
     1
 10
1407.0
 20
549.5
 11
1407.0
 21
596.0
  0
ARC
  8
0
  6
CONTINUOUS
 62
     1
 10
1406.0
 20
549.5
 40
1.0
 50
270.0
 51
0.0
  0
ARC
  8
0
  6
CONTINUOUS
 62
     1
 10
1403.0
 20
548.5
 40
1.0
 50
270.0
 51
0.0
  0
LINE
  8
0
  6
CONTINUOUS
 62
     1
 10
1407.0
 20
554.5
 11
1305.0
 21
554.5
  0
LINE
  8
0
  6
CONTINUOUS
 62
     1
 10
1407.0
 20
556.0
 11
1305.0
 21
556.0
  0
LINE
  8
0
  6
CONTINUOUS
 62
     1
 10
1308.0
 20
599.0
 11
1404.0
 21
599.0
  0
LINE
  8
0
  6
CONTINUOUS
 62
     1
 10
1403.0
 20
547.5
 11
1309.0
 21
547.5
  0
LINE
  8
0
  6
CONTINUOUS
 62
     1
 10
1406.0
 20
548.5
 11
1306.0
 21
548.5
  0
LINE
  8
0
  6
CONTINUOUS
 62
     1
 10
1311.0
 20
600.5
 11
1401.0
 21
600.5
  0
ARC
  8
0
  6
CONTINUOUS
 62
     1
 10
1302.0
 20
712.5
 40
5.0
 50
90.0
 51
180.0
  0
ARC
  8
0
  6
CONTINUOUS
 62
     1
 10
1410.0
 20
712.5
 40
5.0
 50
0.0
 51
90.0
  0
CIRCLE
  8
0
  6
CONTINUOUS
 62
     1
 10
1403.0
 20
705.5
 40
9.0
  0
ARC
  8
0
  6
CONTINUOUS
 62
     1
 10
1410.0
 20
604.5
 40
5.0
 50
270.0
 51
360.0
  0
ARC
  8
0
  6
CONTINUOUS
 62
     1
 10
1302.0
 20
604.5
 40
5.0
 50
180.0
 51
270.0
  0
LINE
  8
0
  6
CONTINUOUS
 62
     1
 10
1415.0
 20
682.025046491
 11
1415.0
 21
712.5
  0
LINE
  8
0
  6
CONTINUOUS
 62
     1
 10
1415.0
 20
634.974953509
 11
1415.0
 21
604.5
  0
LINE
  8
0
  6
CONTINUOUS
 62
     1
 10
1401.0
 20
599.5
 11
1410.0
 21
599.5
  0
LINE
  8
0
  6
CONTINUOUS
 62
     1
 10
1311.0
 20
599.5
 11
1302.0
 21
599.5
  0
LINE
  8
0
  6
CONTINUOUS
 62
     1
 10
1383.5
 20
683.5
 11
1368.5
 21
683.5
  0
LINE
  8
0
  6
CONTINUOUS
 62
     1
 10
1388.0
 20
636.5
 11
1388.0
 21
680.5
  0
LINE
  8
0
  6
CONTINUOUS
 62
     1
 10
1394.0
 20
646.0
 11
1394.0
 21
671.0
  0
LINE
  8
0
  6
CONTINUOUS
 62
     1
 10
1394.0
 20
671.0
 11
1388.0
 21
671.0
  0
LINE
  8
0
  6
CONTINUOUS
 62
     1
 10
1394.0
 20
646.0
 11
1388.0
 21
646.0
  0
LINE
  8
0
  6
CONTINUOUS
 62
     1
 10
1388.0
 20
680.5
 11
1383.5
 21
680.5
  0
LINE
  8
0
  6
CONTINUOUS
 62
     1
 10
1388.0
 20
636.5
 11
1383.5
 21
636.5
  0
CIRCLE
  8
0
  6
CONTINUOUS
 62
     1
 10
1390.0
 20
658.5
 40
2.0
  0
LINE
  8
0
  6
CONTINUOUS
 62
     1
 10
1324.0
 20
636.5
 11
1324.0
 21
680.5
  0
LINE
  8
0
  6
CONTINUOUS
 62
     1
 10
1318.0
 20
646.0
 11
1318.0
 21
671.0
  0
LINE
  8
0
  6
CONTINUOUS
 62
     1
 10
1318.0
 20
671.0
 11
1324.0
 21
671.0
  0
LINE
  8
0
  6
CONTINUOUS
 62
     1
 10
1318.0
 20
646.0
 11
1324.0
 21
646.0
  0
LINE
  8
0
  6
CONTINUOUS
 62
     1
 10
1324.0
 20
680.5
 11
1328.5
 21
680.5
  0
LINE
  8
0
  6
CONTINUOUS
 62
     1
 10
1324.0
 20
636.5
 11
1328.5
 21
636.5
  0
CIRCLE
  8
0
  6
CONTINUOUS
 62
     1
 10
1322.0
 20
658.5
 40
2.0
  0
LINE
  8
0
  6
CONTINUOUS
 62
     1
 10
1368.5
 20
646.0
 11
1343.5
 21
646.0
  0
LINE
  8
0
  6
CONTINUOUS
 62
     1
 10
1368.5
 20
671.0
 11
1343.5
 21
671.0
  0
LINE
  8
0
  6
CONTINUOUS
 62
     1
 10
1343.5
 20
646.0
 11
1368.5
 21
646.0
  0
LINE
  8
0
  6
CONTINUOUS
 62
     1
 10
1343.5
 20
671.0
 11
1368.5
 21
671.0
  0
LINE
  8
0
  6
CONTINUOUS
 62
     1
 10
1328.5
 20
683.5
 11
1368.5
 21
683.5
  0
LINE
  8
0
  6
CONTINUOUS
 62
     1
 10
1383.5
 20
633.5
 11
1383.5
 21
683.5
  0
LINE
  8
0
  6
CONTINUOUS
 62
     1
 10
1328.5
 20
633.5
 11
1383.5
 21
633.5
  0
LINE
  8
0
  6
CONTINUOUS
 62
     1
 10
1368.5
 20
633.5
 11
1368.5
 21
683.5
  0
LINE
  8
0
  6
CONTINUOUS
 62
     1
 10
1343.5
 20
633.5
 11
1343.5
 21
683.5
  0
LINE
  8
0
  6
CONTINUOUS
 62
     1
 10
1328.5
 20
633.5
 11
1328.5
 21
683.5
  0
LINE
  8
0
  6
CONTINUOUS
 62
     1
 10
1407.0
 20
581.0
 11
1427.0
 21
581.0
  0
LINE
  8
0
  6
CONTINUOUS
 62
     1
 10
1285.0
 20
581.0
 11
1305.0
 21
581.0
  0
LINE
  8
0
  6
CONTINUOUS
 62
     1
 10
1433.0
 20
587.0
 11
1433.0
 21
637.139279073
  0
LINE
  8
0
  6
CONTINUOUS
 62
     1
 10
1279.0
 20
587.0
 11
1279.0
 21
637.139279073
  0
LINE
  8
0
  6
LTYPE1
 62
     2
 10
1301.0
 20
648.5
 11
1301.0
 21
668.5
  0
LINE
  8
0
  6
LTYPE1
 62
     2
 10
1301.0
 20
668.5
 11
1276.0
 21
668.5
  0
LINE
  8
0
  6
LTYPE1
 62
     2
 10
1301.0
 20
648.5
 11
1276.0
 21
648.5
  0
LINE
  8
0
  6
LTYPE1
 62
     2
 10
1411.0
 20
648.5
 11
1411.0
 21
668.5
  0
LINE
  8
0
  6
LTYPE1
 62
     2
 10
1411.0
 20
668.5
 11
1436.0
 21
668.5
  0
LINE
  8
0
  6
LTYPE1
 62
     2
 10
1411.0
 20
648.5
 11
1436.0
 21
648.5
  0
LINE
  8
0
  6
LTYPE2
 62
     2
 10
1401.0
 20
543.8
 11
1401.0
 21
562.5
  0
LINE
  8
0
  6
LTYPE2
 62
     2
 10
1311.0
 20
543.8
 11
1311.0
 21
562.5
  0
LINE
  8
0
  6
LTYPE2
 62
     2
 10
1321.4
 20
705.5
 11
1297.6
 21
705.5
  0
LINE
  8
0
  6
LTYPE2
 62
     2
 10
1309.0
 20
694.165527109
 11
1309.0
 21
716.265527109
  0
LINE
  8
0
  6
LTYPE2
 62
     2
 10
1390.6
 20
705.5
 11
1414.4
 21
705.5
  0
LINE
  8
0
  6
LTYPE2
 62
     2
 10
1403.0
 20
694.165527109
 11
1403.0
 21
716.265527109
  0
LINE
  8
0
  6
LTYPE2
 62
     2
 10
1390.6
 20
611.5
 11
1414.4
 21
611.5
  0
LINE
  8
0
  6
LTYPE2
 62
     2
 10
1321.4
 20
611.5
 11
1297.6
 21
611.5
  0
LINE
  8
0
  6
LTYPE2
 62
     2
 10
1309.0
 20
601.65
 11
1309.0
 21
624.75
  0
LINE
  8
0
  6
LTYPE2
 62
     2
 10
1390.6
 20
611.5
 11
1414.4
 21
611.5
  0
LINE
  8
0
  6
LTYPE2
 62
     2
 10
1403.0
 20
601.65
 11
1403.0
 21
624.75
  0
LINE
  8
0
  6
LTYPE4
 62
     2
 10
1389.9
 20
654.5
 11
1389.9
 21
662.7
  0
LINE
  8
0
  6
LTYPE1
 62
     2
 10
1388.0
 20
671.0
 11
1368.5
 21
671.0
  0
LINE
  8
0
  6
LTYPE1
 62
     2
 10
1388.0
 20
646.0
 11
1368.5
 21
646.0
  0
LINE
  8
0
  6
LTYPE4
 62
     2
 10
1322.1
 20
654.5
 11
1322.1
 21
662.7
  0
LINE
  8
0
  6
LTYPE1
 62
     2
 10
1324.0
 20
671.0
 11
1343.5
 21
671.0
  0
LINE
  8
0
  6
LTYPE1
 62
     2
 10
1324.0
 20
646.0
 11
1343.5
 21
646.0
  0
LINE
  8
0
  6
LTYPE2
 62
     3
 10
1356.0
 20
556.9875
 11
1356.0
 21
602.15
  0
LINE
  8
0
  6
CONTINUOUS
 62
     2
 10
1279.0
 20
579.5
 11
1279.0
 21
491.8
  0
LINE
  8
0
  6
CONTINUOUS
 62
     2
 10
1279.0
 20
499.3
 11
1291.074072829
 21
496.064761936
  0
LINE
  8
0
  6
CONTINUOUS
 62
     2
 10
1279.0
 20
499.3
 11
1291.074072829
 21
502.535238064
  0
LINE
  8
0
  6
CONTINUOUS
 62
     2
 10
1279.0
 20
499.3
 11
1433.0
 21
499.3
  0
LINE
  8
0
  6
CONTINUOUS
 62
     2
 10
1433.0
 20
499.3
 11
1420.925927171
 21
502.535238064
  0
LINE
  8
0
  6
CONTINUOUS
 62
     2
 10
1433.0
 20
499.3
 11
1420.925927171
 21
496.064761936
  0
LINE
  8
0
  6
CONTINUOUS
 62
     2
 10
1433.0
 20
579.5
 11
1433.0
 21
491.8
  0
LINE
  8
0
  6
CONTINUOUS
 62
     2
 10
1276.0
 20
630.0
 11
1276.0
 21
451.3375
  0
LINE
  8
0
  6
CONTINUOUS
 62
     2
 10
1436.0
 20
630.0
 11
1436.0
 21
451.3375
  0
LINE
  8
0
  6
LTYPE4
 62
     2
 10
1266.7
 20
658.5
 11
1394.0
 21
658.5
  0
LINE
  8
0
  6
LTYPE4
 62
     2
 10
1465.0
 20
658.5
 11
1318.0
 21
658.5
  0
CIRCLE
  8
0
  6
CONTINUOUS
 62
     2
 10
1356.0
 20
573.0
 40
10.4775
  0
CIRCLE
  8
0
  6
CONTINUOUS
 62
     2
 10
1356.0
 20
573.0
 40
9.3155
  0
LINE
  8
0
  6
LTYPE3
 62
     2
 10
1375.9
 20
573.0
 11
1335.2
 21
573.0
  0
LINE
  8
0
  6
CONTINUOUS
 62
     1
 10
1297.0
 20
705.6
 11
1297.0
 21
712.5
  0
ARC
  8
0
  6
CONTINUOUS
 62
     1
 10
1309.0
 20
705.5
 40
9.0
 50
4.497151615
 51
179.370401392
  0
ARC
  8
0
  6
CONTINUOUS
 62
     1
 10
1309.0
 20
705.5
 40
9.0
 50
0.0
 51
4.497151615
  0
ARC
  8
0
  6
CONTINUOUS
 62
     1
 10
1356.0
 20
658.5
 40
55.0
 50
46.933927913
 51
47.005647371
  0
LINE
  8
0
  6
CONTINUOUS
 62
     1
 10
1279.0
 20
679.860720927
 11
1279.0
 21
704.776980495
  0
ARC
  8
0
  6
CONTINUOUS
 62
     1
 10
1309.0
 20
705.5
 40
9.0
 50
179.370401392
 51
0.0
  0
LINE
  8
0
  6
CONTINUOUS
 62
     1
 10
1297.0
 20
682.025046491
 11
1297.0
 21
705.6
  0
LINE
  8
0
  6
CONTINUOUS
 62
     1
 10
1276.0
 20
637.5
 11
1276.0
 21
679.5
  0
LINE
  8
0
  6
CONTINUOUS
 62
     1
 10
1297.0
 20
634.4
 11
1297.0
 21
604.5
  0
ARC
  8
0
  6
CONTINUOUS
 62
     1
 10
1403.0
 20
611.5
 40
9.0
 50
257.160411593
 51
102.672315936
  0
ARC
  8
0
  6
CONTINUOUS
 62
     1
 10
1309.0
 20
611.5
 40
9.0
 50
77.327684064
 51
280.30484647
  0
LINE
  8
0
  6
CONTINUOUS
 62
     2
 10
1276.0
 20
458.8375
 11
1288.074072829
 21
455.602261936
  0
LINE
  8
0
  6
CONTINUOUS
 62
     2
 10
1276.0
 20
458.8375
 11
1288.074072829
 21
462.072738064
  0
LINE
  8
0
  6
CONTINUOUS
 62
     2
 10
1276.0
 20
458.8375
 11
1436.0
 21
458.8375
  0
LINE
  8
0
  6
CONTINUOUS
 62
     2
 10
1436.0
 20
458.8375
 11
1423.925927171
 21
462.072738064
  0
LINE
  8
0
  6
CONTINUOUS
 62
     2
 10
1436.0
 20
458.8375
 11
1423.925927171
 21
455.602261936
  0
TEXT
  8
0
  6
CONTINUOUS
 62
     2
 10
1126.6
 20
643.75
 30
0.0
 40
18.0
  1
５０
 50
90.0
 41
0.9
 51
0.0
  7
KANJI17
  0
TEXT
  8
0
  6
CONTINUOUS
 62
     2
 10
1095.0
 20
734.6
 30
0.0
 40
18.0
  1
φ２５Ｈ１０
 50
0.0
 41
0.9
 51
0.0
  7
KANJI17
  0
TEXT
  8
0
  6
CONTINUOUS
 62
     2
 10
1139.5
 20
710.1
 30
0.0
 40
18.0
  1
ｄ９
 50
0.0
 41
0.9
 51
0.0
  7
KANJI17
  0
TEXT
  8
0
  6
CONTINUOUS
 62
     2
 10
1334.25
 20
504.3
 30
0.0
 40
18.0
  1
１５４
 50
0.0
 41
0.9
 51
0.0
  7
KANJI17
  0
TEXT
  8
0
  6
CONTINUOUS
 62
     2
 10
1334.25
 20
463.8375
 30
0.0
 40
18.0
  1
１６０
 50
0.0
 41
0.9
 51
0.0
  7
KANJI17
  0
LINE
  8
0
  6
CONTINUOUS
 62
     1
 10
1016.0
 20
846.6
 11
1076.0
 21
846.6
  0
LINE
  8
0
  6
CONTINUOUS
 62
     1
 10
1076.0
 20
831.6
 11
1076.0
 21
846.6
  0
LINE
  8
0
  6
CONTINUOUS
 62
     1
 10
1001.0
 20
831.6
 11
1076.0
 21
831.6
  0
LINE
  8
0
  6
CONTINUOUS
 62
     1
 10
1029.0
 20
827.1
 11
1073.0
 21
827.1
  0
LINE
  8
0
  6
CONTINUOUS
 62
     1
 10
1073.0
 20
827.1
 11
1073.0
 21
831.6
  0
LINE
  8
0
  6
CONTINUOUS
 62
     1
 10
1016.0
 20
871.6
 11
1076.0
 21
871.6
  0
LINE
  8
0
  6
CONTINUOUS
 62
     1
 10
1076.0
 20
886.6
 11
1076.0
 21
871.6
  0
LINE
  8
0
  6
CONTINUOUS
 62
     1
 10
1001.0
 20
886.6
 11
1076.0
 21
886.6
  0
LINE
  8
0
  6
CONTINUOUS
 62
     1
 10
1029.0
 20
891.1
 11
1073.0
 21
891.1
  0
LINE
  8
0
  6
CONTINUOUS
 62
     1
 10
1073.0
 20
891.1
 11
1073.0
 21
886.6
  0
LINE
  8
0
  6
CONTINUOUS
 62
     2
 10
1083.5
 20
831.6
 11
1161.0
 21
831.6
  0
LINE
  8
0
  6
CONTINUOUS
 62
     2
 10
1153.5
 20
831.6
 11
1156.735238064
 21
843.674072829
  0
LINE
  8
0
  6
CONTINUOUS
 62
     2
 10
1153.5
 20
831.6
 11
1150.264761936
 21
843.674072829
  0
LINE
  8
0
  6
CONTINUOUS
 62
     2
 10
1153.5
 20
831.6
 11
1153.5
 21
886.6
  0
LINE
  8
0
  6
CONTINUOUS
 62
     2
 10
1153.5
 20
886.6
 11
1150.264761936
 21
874.525927171
  0
LINE
  8
0
  6
CONTINUOUS
 62
     2
 10
1153.5
 20
886.6
 11
1156.735238064
 21
874.525927171
  0
LINE
  8
0
  6
CONTINUOUS
 62
     2
 10
1083.5
 20
886.6
 11
1161.0
 21
886.6
  0
LINE
  8
0
  6
CONTINUOUS
 62
     2
 10
1083.5
 20
846.6
 11
1132.5
 21
846.6
  0
LINE
  8
0
  6
CONTINUOUS
 62
     2
 10
1125.0
 20
846.6
 11
1121.764761936
 21
834.525927171
  0
LINE
  8
0
  6
CONTINUOUS
 62
     2
 10
1125.0
 20
846.6
 11
1128.235238064
 21
834.525927171
  0
LINE
  8
0
  6
CONTINUOUS
 62
     2
 10
1125.0
 20
827.85
 11
1125.0
 21
918.85
  0
LINE
  8
0
  6
CONTINUOUS
 62
     2
 10
1125.0
 20
871.6
 11
1128.235238064
 21
883.674072829
  0
LINE
  8
0
  6
CONTINUOUS
 62
     2
 10
1125.0
 20
871.6
 11
1121.764761936
 21
883.674072829
  0
LINE
  8
0
  6
CONTINUOUS
 62
     2
 10
1083.5
 20
871.6
 11
1132.5
 21
871.6
  0
LINE
  8
0
  6
LTYPE3
 62
     2
 10
933.7
 20
859.1
 11
1096.0
 21
859.1
  0
TEXT
  8
0
  6
CONTINUOUS
 62
     2
 10
1148.5
 20
844.85
 30
0.0
 40
18.0
  1
５５
 50
90.0
 41
0.9
 51
0.0
  7
KANJI17
  0
TEXT
  8
0
  6
CONTINUOUS
 62
     2
 10
1120.0
 20
890.35
 30
0.0
 40
18.0
  1
２５
 50
90.0
 41
0.9
 51
0.0
  7
KANJI17
  0
LINE
  8
2
  6
CONTINUOUS
 62
     2
 10
1051.0
 20
786.6
 11
1076.0
 21
786.6
  0
LINE
  8
2
  6
CONTINUOUS
 62
     2
 10
1076.0
 20
786.6
 11
1130.9
 21
786.6
  0
LINE
  8
2
  6
CONTINUOUS
 62
     2
 10
1076.0
 20
786.6
 11
1090.488887394
 21
782.717714323
  0
LINE
  8
2
  6
CONTINUOUS
 62
     2
 10
1076.0
 20
786.6
 11
1090.488887394
 21
790.482285677
  0
LINE
  8
2
  6
CONTINUOUS
 62
     2
 10
1076.0
 20
825.6
 11
1076.0
 21
780.6
  0
TEXT
  8
2
  6
CONTINUOUS
 62
     3
 10
1098.5
 20
792.6
 30
0.0
 40
18.0
  1
２５
 50
0.0
 41
0.9
 51
0.0
  7
KANJI17
  0
LINE
  8
0
  6
CONTINUOUS
 62
     1
 10
1316.3
 20
547.5
 11
1305.7
 21
547.5
  0
ARC
  8
0
  6
CONTINUOUS
 62
     1
 10
1311.4
 20
548.5
 40
5.0
 50
272.3
 51
348.5
  0
ARC
  8
0
  6
CONTINUOUS
 62
     1
 10
1310.6
 20
548.5
 40
5.0
 50
191.5
 51
267.7
  0
LINE
  8
0
  6
CONTINUOUS
 62
     1
 10
1311.6
 20
543.5
 11
1310.4
 21
543.5
  0
LINE
  8
0
  6
LTYPE5
 62
     2
 10
1311.0
 20
540.1
 11
1311.0
 21
553.5
  0
LINE
  8
0
  6
CONTINUOUS
 62
     1
 10
1406.3
 20
547.5
 11
1395.7
 21
547.5
  0
ARC
  8
0
  6
CONTINUOUS
 62
     1
 10
1401.4
 20
548.5
 40
5.0
 50
272.3
 51
348.5
  0
ARC
  8
0
  6
CONTINUOUS
 62
     1
 10
1400.6
 20
548.5
 40
5.0
 50
191.5
 51
267.7
  0
LINE
  8
0
  6
CONTINUOUS
 62
     1
 10
1401.6
 20
543.5
 11
1400.4
 21
543.5
  0
LINE
  8
0
  6
LTYPE5
 62
     2
 10
1401.0
 20
540.1
 11
1401.0
 21
553.5
  0
TEXT
  8
0
  6
CONTINUOUS
 62
     2
 10
1786.92
 20
675.9
 30
12.0
 40
24.0
  1
特記事項
 50
0.0
 41
0.9
 51
0.0
  7
KANJI18
  0
TEXT
  8
0
  6
CONTINUOUS
 62
     2
 10
1702.92
 20
627.9
 30
6.171428571
 40
21.6
  1
１。運転時は必ずピストンロッドの回転防止を行って下さい。
 50
0.0
 41
0.857142857
 51
0.0
  7
KANJI19
  0
TEXT
  8
0
  6
CONTINUOUS
 62
     2
 10
1702.92
 20
587.1
 30
6.156
 40
21.6
  1
２。モートル：全閉自冷かご形３０分定格
 50
0.0
 41
0.857222222
 51
0.0
  7
KANJI20
  0
TEXT
  8
0
  6
CONTINUOUS
 62
     2
 10
1702.5199098
 20
546.3000036
 30
6.156
 40
21.6
  1
３。呼称ストロークは、機械的ストロークです。
 50
0.0
 41
0.857222222
 51
0.0
  7
KANJI20
  0
TEXT
  8
0
  6
CONTINUOUS
 62
     2
 10
1702.5199098
 20
511.8000036
 30
6.156
 40
21.6
  1
　　必ず、常用はストローク両端に余裕を取って下さい。
 50
0.0
 41
0.857222222
 51
0.0
  7
KANJI20
  0
LINE
  8
0
  6
CONTINUOUS
 62
     2
 10
1770.12
 20
669.3
 11
1916.52
 21
669.3
  0
TEXT
  8
0
  6
CONTINUOUS
 62
     2
 10
698.75
 20
413.3625
 30
0.0
 40
18.0
  1
ｍｉｎ．Ｌ
 50
0.0
 41
0.9
 51
0.0
  7
KANJI17
  0
TEXT
  8
0
  6
CONTINUOUS
 62
     2
 10
1011.75
 20
456.7
 30
0.0
 40
18.0
  1
５０
 50
0.0
 41
0.9
 51
0.0
  7
KANJI17
  0
TEXT
  8
0
  6
CONTINUOUS
 62
     2
 10
742.0
 20
576.0
 30
0.0
 40
18.0
  1
給脂口
 50
0.0
 41
0.9
 51
0.0
  7
KANJI17
  0
TEXT
  8
0
  6
CONTINUOUS
 62
     2
 10
980.625927171
 20
456.485238064
 30
0.0
 40
18.0
  1
Ｐ
 50
0.0
 41
0.9
 51
0.0
  7
KANJI17
  0
TEXT
  8
0
  6
CONTINUOUS
 62
     2
 10
957.625927171
 20
473.485238064
 30
-1.8
 40
18.0
  1
ｍｉｎ
 50
0.0
 41
0.833333333
 51
0.0
  7
KANJI21
  0
LINE
  8
0
  6
CONTINUOUS
 62
     1
 10
1038.5
 20
821.1
 11
1063.5
 21
821.1
  0
LINE
  8
0
  6
CONTINUOUS
 62
     1
 10
1063.5
 20
821.1
 11
1063.5
 21
827.1
  0
LINE
  8
0
  6
CONTINUOUS
 62
     1
 10
1038.5
 20
821.1
 11
1038.5
 21
827.1
  0
LINE
  8
0
  6
CONTINUOUS
 62
     1
 10
1029.0
 20
827.1
 11
1029.0
 21
831.6
  0
CIRCLE
  8
0
  6
CONTINUOUS
 62
     1
 10
1051.0
 20
825.1
 40
2.0
  0
LINE
  8
0
  6
LTYPE4
 62
     2
 10
1047.0
 20
825.2
 11
1055.2
 21
825.2
  0
LINE
  8
0
  6
LTYPE1
 62
     2
 10
1063.5
 20
827.1
 11
1063.5
 21
846.6
  0
LINE
  8
0
  6
LTYPE1
 62
     2
 10
1038.5
 20
827.1
 11
1038.5
 21
846.6
  0
LINE
  8
0
  6
CONTINUOUS
 62
     1
 10
1038.5
 20
897.1
 11
1063.5
 21
897.1
  0
LINE
  8
0
  6
CONTINUOUS
 62
     1
 10
1063.5
 20
897.1
 11
1063.5
 21
891.1
  0
LINE
  8
0
  6
CONTINUOUS
 62
     1
 10
1038.5
 20
897.1
 11
1038.5
 21
891.1
  0
LINE
  8
0
  6
CONTINUOUS
 62
     1
 10
1029.0
 20
891.1
 11
1029.0
 21
886.6
  0
CIRCLE
  8
0
  6
CONTINUOUS
 62
     1
 10
1051.0
 20
893.1
 40
2.0
  0
LINE
  8
0
  6
LTYPE4
 62
     2
 10
1047.0
 20
893.0
 11
1055.2
 21
893.0
  0
LINE
  8
0
  6
LTYPE1
 62
     2
 10
1063.5
 20
891.1
 11
1063.5
 21
871.6
  0
LINE
  8
0
  6
LTYPE1
 62
     2
 10
1038.5
 20
891.1
 11
1038.5
 21
871.6
  0
LINE
  8
0
  6
CONTINUOUS
 62
     1
 10
1016.0
 20
846.6
 11
1016.0
 21
871.6
  0
LINE
  8
0
  6
CONTINUOUS
 62
     1
 10
1001.0
 20
831.6
 11
1001.0
 21
886.6
  0
LINE
  8
0
  6
CONTINUOUS
 62
     1
 10
1038.5
 20
846.6
 11
1038.5
 21
871.6
  0
LINE
  8
0
  6
CONTINUOUS
 62
     1
 10
1063.5
 20
846.6
 11
1063.5
 21
871.6
  0
LINE
  8
0
  6
LTYPE4
 62
     2
 10
1051.0
 20
816.1
 11
1051.0
 21
897.1
  0
LINE
  8
0
  6
LTYPE4
 62
     2
 10
1051.0
 20
902.1
 11
1051.0
 21
821.1
  0
LINE
  8
0
  6
CONTINUOUS
 62
     1
 10
1038.5
 20
871.6
 11
1038.5
 21
846.6
  0
LINE
  8
0
  6
CONTINUOUS
 62
     1
 10
1063.5
 20
871.6
 11
1063.5
 21
846.6
  0
LINE
  8
0
  6
CONTINUOUS
 62
     2
 10
1016.0
 20
839.1
 11
1016.0
 21
779.1
  0
LINE
  8
0
  6
CONTINUOUS
 62
     2
 10
1016.0
 20
786.6
 11
1028.074072829
 21
783.364761936
  0
LINE
  8
0
  6
CONTINUOUS
 62
     2
 10
1016.0
 20
786.6
 11
1028.074072829
 21
789.835238064
  0
LINE
  8
0
  6
CONTINUOUS
 62
     2
 10
1016.0
 20
786.6
 11
1051.0
 21
786.6
  0
LINE
  8
0
  6
CONTINUOUS
 62
     2
 10
1051.0
 20
786.6
 11
1038.925927171
 21
789.835238064
  0
LINE
  8
0
  6
CONTINUOUS
 62
     2
 10
1051.0
 20
786.6
 11
1038.925927171
 21
783.364761936
  0
LINE
  8
0
  6
CONTINUOUS
 62
     2
 10
1051.0
 20
808.6
 11
1051.0
 21
779.1
  0
LINE
  8
0
  6
CONTINUOUS
 62
     2
 10
1016.0
 20
786.6
 11
1028.074072829
 21
783.364761936
  0
LINE
  8
0
  6
CONTINUOUS
 62
     2
 10
1016.0
 20
786.6
 11
1028.074072829
 21
789.835238064
  0
LINE
  8
0
  6
CONTINUOUS
 62
     2
 10
1034.75
 20
786.6
 11
953.75
 21
786.6
  0
LINE
  8
0
  6
CONTINUOUS
 62
     2
 10
1001.0
 20
786.6
 11
988.925927171
 21
789.835238064
  0
LINE
  8
0
  6
CONTINUOUS
 62
     2
 10
1001.0
 20
786.6
 11
988.925927171
 21
783.364761936
  0
LINE
  8
0
  6
CONTINUOUS
 62
     2
 10
1001.0
 20
824.1
 11
1001.0
 21
779.1
  0
LINE
  8
0
  6
CONTINUOUS
 62
     1
 10
964.776112865
 20
884.1
 11
1001.0
 21
884.1
  0
LINE
  8
0
  6
CONTINUOUS
 62
     1
 10
964.776112865
 20
834.1
 11
1001.0
 21
834.1
  0
TEXT
  8
0
  6
CONTINUOUS
 62
     2
 10
1019.25
 20
791.6
 30
0.0
 40
18.0
  1
３５
 50
0.0
 41
0.9
 51
0.0
  7
KANJI17
  0
TEXT
  8
0
  6
CONTINUOUS
 62
     2
 10
954.75
 20
789.6
 30
0.0
 40
18.0
  1
１５
 50
0.0
 41
0.9
 51
0.0
  7
KANJI17
  0
LINE
  8
2
  6
CONTINUOUS
 62
     2
 10
1051.0
 20
794.6
 11
1051.0
 21
780.6
  0
LINE
  8
2
  6
CONTINUOUS
 62
     2
 10
1051.0
 20
786.6
 11
1036.511112606
 21
790.482285677
  0
LINE
  8
2
  6
CONTINUOUS
 62
     2
 10
1051.0
 20
786.6
 11
1036.511112606
 21
782.717714323
  0
LINE
  8
2
  6
CONTINUOUS
 62
     2
 10
1028.5
 20
786.6
 11
1051.0
 21
786.6
  0
TEXT
  8
0
  6
CONTINUOUS
 62
     2
 10
415.712591263
 20
315.671507451
 30
0.0
 40
20.0
  1
推力リミッタの作動値は、約１２００ｋｇ（設計値）
 50
0.0
 41
0.925
 51
0.0
  7
KANJI22
  0
LINE
  8
0
  6
CONTINUOUS
 62
     2
 10
413.712591263
 20
307.671507451
 11
846.0
 21
307.671507451
  0
LINE
  8
0
  6
CONTINUOUS
 62
     2
 10
697.603319123
 20
189.833311846
 11
900.003319123
 21
189.833311846
  0
LINE
  8
0
  6
CONTINUOUS
 62
     2
 10
900.003319123
 20
189.833311846
 11
892.275912513
 21
191.903864207
  0
LINE
  8
0
  6
CONTINUOUS
 62
     2
 10
900.003319123
 20
189.833311846
 11
892.275912513
 21
187.762759485
  0
LINE
  8
0
  6
CONTINUOUS
 62
     2
 10
718.403319123
 20
163.503864207
 11
726.130725733
 21
161.433311846
  0
LINE
  8
0
  6
CONTINUOUS
 62
     2
 10
718.403319123
 20
163.503864207
 11
726.130725733
 21
165.574416568
  0
LINE
  8
0
  6
CONTINUOUS
 62
     2
 10
718.403319123
 20
136.233311846
 11
726.130725733
 21
134.162759485
  0
LINE
  8
0
  6
CONTINUOUS
 62
     2
 10
718.403319123
 20
136.233311846
 11
726.130725733
 21
138.303864207
  0
LINE
  8
0
  6
CONTINUOUS
 62
     2
 10
900.003319123
 20
132.633311846
 11
900.003319123
 21
132.233311846
  0
LINE
  8
0
  6
CONTINUOUS
 62
     2
 10
560.003319123
 20
107.033311846
 11
877.603319123
 21
107.033311846
  0
LINE
  8
0
  6
CONTINUOUS
 62
     2
 10
877.603319123
 20
107.033311846
 11
869.875912513
 21
109.103864207
  0
LINE
  8
0
  6
CONTINUOUS
 62
     2
 10
877.603319123
 20
107.033311846
 11
869.875912513
 21
104.962759485
  0
LINE
  8
0
  6
CONTINUOUS
 62
     2
 10
877.603319123
 20
107.833311846
 11
877.603319123
 21
103.033311846
  0
LINE
  8
0
  6
CONTINUOUS
 62
     2
 10
877.603319123
 20
107.033311846
 11
869.875912513
 21
109.103864207
  0
LINE
  8
0
  6
CONTINUOUS
 62
     2
 10
877.603319123
 20
107.033311846
 11
869.875912513
 21
104.962759485
  0
LINE
  8
0
  6
CONTINUOUS
 62
     2
 10
865.603319123
 20
107.033311846
 11
877.603319123
 21
107.033311846
  0
LINE
  8
0
  6
CONTINUOUS
 62
     2
 10
877.603319123
 20
107.033311846
 11
900.003319123
 21
107.033311846
  0
LINE
  8
0
  6
CONTINUOUS
 62
     2
 10
900.003319123
 20
107.033311846
 11
907.730725733
 21
104.962759485
  0
LINE
  8
0
  6
CONTINUOUS
 62
     2
 10
900.003319123
 20
107.033311846
 11
907.730725733
 21
109.103864207
  0
LINE
  8
0
  6
CONTINUOUS
 62
     2
 10
900.003319123
 20
200.633311846
 11
900.003319123
 21
185.833311846
  0
LINE
  8
0
  6
CONTINUOUS
 62
     2
 10
900.003319123
 20
189.833311846
 11
900.003319123
 21
95.033311846
  0
TEXT
  8
0
  6
CONTINUOUS
 62
     3
 10
755.603319123
 20
191.833311846
 30
0.0
 40
15.0
  1
機械的ストローク
 50
0.0
 41
0.9
 51
0.0
  7
KANJI23
  0
TEXT
  8
0
  6
CONTINUOUS
 62
     3
 10
730.403319123
 20
165.503864207
 30
0.0
 40
15.0
  1
余裕
 50
0.0
 41
0.9
 51
0.0
  7
KANJI23
  0
TEXT
  8
0
  6
CONTINUOUS
 62
     3
 10
691.803319123
 20
109.033311846
 30
0.0
 40
15.0
  1
常用ｍａｘ
 50
0.0
 41
0.9
 51
0.0
  7
KANJI23
  0
TEXT
  8
0
  6
CONTINUOUS
 62
     3
 10
912.003319123
 20
109.033311846
 30
0.0
 40
15.0
  1
余裕
 50
0.0
 41
0.9
 51
0.0
  7
KANJI23
  0
LINE
  8
0
  6
CONTINUOUS
 62
     2
 10
718.403319123
 20
163.503864207
 11
758.503319123
 21
163.503864207
  0
LINE
  8
0
  6
CONTINUOUS
 62
     2
 10
900.003319123
 20
107.033311846
 11
942.503319123
 21
107.033311846
  0
LINE
  8
0
  6
CONTINUOUS
 62
     2
 10
1067.413333
 20
990.633317
 11
1055.339260171
 21
993.868555064
  0
LINE
  8
0
  6
CONTINUOUS
 62
     2
 10
1067.413333
 20
990.633317
 11
1055.339260171
 21
987.398078936
  0
LINE
  8
0
  6
CONTINUOUS
 62
     2
 10
1067.413333
 20
990.633317
 11
1026.413333
 21
990.633317
  0
TEXT
  8
0
  6
CONTINUOUS
 62
     3
 10
1033.413333
 20
1000.633317
 30
0.0
 40
20.0
  1
前進
 50
0.0
 41
0.925
 51
0.0
  7
KANJI22
  0
TEXT
  8
0
  6
CONTINUOUS
 62
     2
 10
614.0
 20
528.0
 30
0.0
 40
18.0
  1
ＰＦ１／２
 50
0.0
 41
0.9
 51
0.0
  7
KANJI17
  0
TEXT
  8
0
  6
CONTINUOUS
 62
     2
 10
618.25
 20
369.0
 30
0.0
 40
18.0
  1
ｍｉｎ．ＡＬ
 50
0.0
 41
0.9
 51
0.0
  7
KANJI17
  0
TEXT
  8
0
  6
CONTINUOUS
 62
     2
 10
676.25
 20
456.7
 30
0.0
 40
18.0
  1
Ｃ
 50
0.0
 41
0.9
 51
0.0
  7
KANJI17
  0
TEXT
  8
0
  6
CONTINUOUS
 62
     2
 10
462.007352941
 20
471.5
 30
0.0
 40
18.0
  1
推力リミッタ
 50
0.0
 41
0.9
 51
0.0
  7
KANJI17
  0
LINE
  8
0
  6
CONTINUOUS
 62
     2
 10
560.003319123
 20
189.833311846
 11
567.730725733
 21
187.762759485
  0
LINE
  8
0
  6
CONTINUOUS
 62
     2
 10
560.003319123
 20
189.833311846
 11
567.730725733
 21
191.903864207
  0
LINE
  8
0
  6
CONTINUOUS
 62
     2
 10
560.003319123
 20
189.833311846
 11
697.603319123
 21
189.833311846
  0
LINE
  8
0
  6
CONTINUOUS
 62
     2
 10
697.603319123
 20
189.833311846
 11
689.875912513
 21
191.903864207
  0
LINE
  8
0
  6
CONTINUOUS
 62
     2
 10
697.603319123
 20
189.833311846
 11
689.875912513
 21
187.762759485
  0
LINE
  8
0
  6
CONTINUOUS
 62
     2
 10
697.603319123
 20
188.633311846
 11
697.603319123
 21
185.833311846
  0
LINE
  8
0
  6
CONTINUOUS
 62
     2
 10
697.603319123
 20
189.833311846
 11
705.330725733
 21
187.762759485
  0
LINE
  8
0
  6
CONTINUOUS
 62
     2
 10
697.603319123
 20
189.833311846
 11
705.330725733
 21
191.903864207
  0
LINE
  8
0
  6
CONTINUOUS
 62
     2
 10
697.603319123
 20
163.503864207
 11
689.875912513
 21
165.574416568
  0
LINE
  8
0
  6
CONTINUOUS
 62
     2
 10
697.603319123
 20
163.503864207
 11
689.875912513
 21
161.433311846
  0
LINE
  8
0
  6
CONTINUOUS
 62
     2
 10
685.603319123
 20
163.503864207
 11
697.603319123
 21
163.503864207
  0
LINE
  8
0
  6
CONTINUOUS
 62
     2
 10
697.603319123
 20
163.503864207
 11
718.403319123
 21
163.503864207
  0
LINE
  8
0
  6
CONTINUOUS
 62
     2
 10
560.003319123
 20
138.233311846
 11
560.003319123
 21
132.233311846
  0
LINE
  8
0
  6
CONTINUOUS
 62
     2
 10
560.003319123
 20
136.233311846
 11
567.730725733
 21
134.162759485
  0
LINE
  8
0
  6
CONTINUOUS
 62
     2
 10
560.003319123
 20
136.233311846
 11
567.730725733
 21
138.303864207
  0
LINE
  8
0
  6
CONTINUOUS
 62
     2
 10
560.003319123
 20
136.233311846
 11
718.403319123
 21
136.233311846
  0
LINE
  8
0
  6
CONTINUOUS
 62
     2
 10
718.403319123
 20
136.233311846
 11
710.675912513
 21
138.303864207
  0
LINE
  8
0
  6
CONTINUOUS
 62
     2
 10
718.403319123
 20
136.233311846
 11
710.675912513
 21
134.162759485
  0
LINE
  8
0
  6
CONTINUOUS
 62
     2
 10
718.403319123
 20
137.433311846
 11
718.403319123
 21
132.233311846
  0
LINE
  8
0
  6
CONTINUOUS
 62
     2
 10
560.003319123
 20
107.033311846
 11
567.730725733
 21
104.962759485
  0
LINE
  8
0
  6
CONTINUOUS
 62
     2
 10
560.003319123
 20
107.033311846
 11
567.730725733
 21
109.103864207
  0
LINE
  8
0
  6
CONTINUOUS
 62
     2
 10
560.003319123
 20
200.633311846
 11
560.003319123
 21
185.833311846
  0
LINE
  8
0
  6
CONTINUOUS
 62
     2
 10
697.603319123
 20
189.433311846
 11
697.603319123
 21
200.633311846
  0
LINE
  8
0
  6
CONTINUOUS
 62
     2
 10
718.403319123
 20
176.303864207
 11
718.403319123
 21
159.503864207
  0
LINE
  8
0
  6
CONTINUOUS
 62
     2
 10
560.003319123
 20
185.833311846
 11
560.003319123
 21
93.833311846
  0
LINE
  8
0
  6
CONTINUOUS
 62
     2
 10
718.403319123
 20
163.503864207
 11
718.403319123
 21
127.033311846
  0
LINE
  8
0
  6
CONTINUOUS
 62
     2
 10
697.603319123
 20
189.833311846
 11
697.603319123
 21
154.233311846
  0
TEXT
  8
0
  6
CONTINUOUS
 62
     3
 10
601.803319123
 20
191.833311846
 30
0.0
 40
15.0
  1
ｍｉｎ．Ｌ
 50
0.0
 41
0.9
 51
0.0
  7
KANJI23
  0
TEXT
  8
0
  6
CONTINUOUS
 62
     3
 10
612.203319123
 20
138.233311846
 30
0.0
 40
15.0
  1
常用ｍｉｎ
 50
0.0
 41
0.9
 51
0.0
  7
KANJI23
  0
LINE
  8
0
  6
CONTINUOUS
 62
     1
 10
585.3
 20
547.5
 11
574.7
 21
547.5
  0
ARC
  8
0
  6
CONTINUOUS
 62
     1
 10
580.4
 20
548.5
 40
5.0
 50
272.3
 51
348.5
  0
ARC
  8
0
  6
CONTINUOUS
 62
     1
 10
579.6
 20
548.5
 40
5.0
 50
191.5
 51
267.7
  0
LINE
  8
0
  6
CONTINUOUS
 62
     1
 10
580.6
 20
543.5
 11
579.4
 21
543.5
  0
LINE
  8
0
  6
LTYPE5
 62
     2
 10
580.0
 20
540.1
 11
580.0
 21
553.5
  0
TEXT
  8
0
  6
CONTINUOUS
 62
     2
 10
302.75
 20
413.3625
 30
0.0
 40
18.0
  1
８６
 50
0.0
 41
0.9
 51
0.0
  7
KANJI17
  0
TEXT
  8
0
  6
CONTINUOUS
 62
     2
 10
375.75
 20
413.3625
 30
0.0
 40
18.0
  1
６０
 50
0.0
 41
0.9
 51
0.0
  7
KANJI17
  0
TEXT
  8
0
  6
CONTINUOUS
 62
     2
 10
314.5
 20
722.5
 30
5.0
 40
20.0
  1
銘板
 50
270.0
 41
0.925
 51
0.0
  7
KANJI24
  0
LINE
  8
0
  6
CONTINUOUS
 62
     1
 10
352.5
 20
733.5
 11
309.5
 21
733.5
  0
LINE
  8
0
  6
CONTINUOUS
 62
     1
 10
352.5
 20
733.5
 11
352.5
 21
663.5
  0
LINE
  8
0
  6
CONTINUOUS
 62
     1
 10
309.5
 20
733.5
 11
309.5
 21
663.5
  0
LINE
  8
0
  6
CONTINUOUS
 62
     1
 10
352.5
 20
663.5
 11
309.5
 21
663.5
  0
LINE
  8
0
  6
CONTINUOUS
 62
     1
 10
475.3
 20
547.5
 11
464.7
 21
547.5
  0
ARC
  8
0
  6
CONTINUOUS
 62
     1
 10
470.4
 20
548.5
 40
5.0
 50
272.3
 51
348.5
  0
ARC
  8
0
  6
CONTINUOUS
 62
     1
 10
469.6
 20
548.5
 40
5.0
 50
191.5
 51
267.7
  0
LINE
  8
0
  6
CONTINUOUS
 62
     1
 10
470.6
 20
543.5
 11
469.4
 21
543.5
  0
LINE
  8
0
  6
LTYPE5
 62
     2
 10
470.0
 20
540.1
 11
470.0
 21
553.5
  0
LINE
  8
0
  6
CONTINUOUS
 62
     6
 10
356.629425053
 20
1631.447759827
 11
124.584646507
 21
1631.447759827
  0
LINE
  8
0
  6
CONTINUOUS
 62
     3
 10
356.629425053
 20
1603.985259827
 11
124.584646507
 21
1603.985259827
  0
LINE
  8
0
  6
CONTINUOUS
 62
     6
 10
356.629425053
 20
1603.985259827
 11
124.584646507
 21
1603.985259827
  0
TEXT
  8
0
  6
CONTINUOUS
 62
     6
 10
382.212228
 20
1628.900410728
 30
1.232517
 40
13.182
  1
電気定格　　　
 50
0.0
 41
0.85
 51
0.0
  7
KANJI25
  0
TEXT
  8
0
  6
CONTINUOUS
 62
     6
 10
128.493517202
 20
1634.64592676
 30
1.0647
 40
11.661
  1
ＬＳ０１　　　：推力リミッタ（前進時過負荷用）
 50
0.0
 41
0.822608696
 51
0.0
  7
KANJI26
  0
TEXT
  8
0
  6
CONTINUOUS
 62
     6
 10
128.493517202
 20
1607.18342676
 30
1.0647
 40
11.661
  1
ＬＳ０２　　　：推力リミッタ（後進時過負荷用）
 50
0.0
 41
0.822608696
 51
0.0
  7
KANJI26
  0
TEXT
  8
0
  6
CONTINUOUS
 62
     6
 10
395.013715102
 20
1598.326958599
 30
0.0
 40
11.8638
  1
ＤＣ１２５Ｖ　０．６Ａ　，ＤＣ２５０Ｖ　０．３Ａ　
 50
0.0
 41
0.726495726
 51
0.0
  7
KANJI27
  0
LINE
  8
0
  6
LTYPE3
 62
     6
 10
655.02
 20
1658.9
 11
106.62
 21
1658.9
  0
TEXT
  8
0
  6
CONTINUOUS
 62
     6
 10
389.757132178
 20
1646.661726126
 30
0.0
 40
45.0
  1
｝
 50
0.0
 41
0.538166667
 51
0.0
  7
KANJI28
  0
TEXT
  8
0
  6
CONTINUOUS
 62
     6
 10
319.632791539
 20
1417.92382165
 30
0.0
 40
17.740702234
  1
端子台　接続図
 50
0.0
 41
0.880962996
 51
0.0
  7
KANJI29
  0
LINE
  8
0
  6
LTYPE3
 62
     6
 10
655.02
 20
1399.9
 11
655.02
 21
1658.9
  0
LINE
  8
0
  6
LTYPE3
 62
     6
 10
106.62
 20
1399.9
 11
655.02
 21
1399.9
  0
LINE
  8
0
  6
LTYPE3
 62
     6
 10
106.62
 20
1658.9
 11
106.62
 21
1399.9
  0
LINE
  8
0
  6
CONTINUOUS
 62
     2
 10
354.597373465
 20
1468.928121884
 11
354.597373465
 21
1446.149155128
  0
LINE
  8
0
  6
CONTINUOUS
 62
     2
 10
381.17283468
 20
1468.928121884
 11
381.17283468
 21
1446.149155128
  0
LINE
  8
0
  6
CONTINUOUS
 62
     2
 10
407.748295894
 20
1468.928121884
 11
407.748295894
 21
1446.149155128
  0
LINE
  8
0
  6
CONTINUOUS
 62
     2
 10
434.323757109
 20
1468.928121884
 11
434.323757109
 21
1446.149155128
  0
CIRCLE
  8
0
  6
CONTINUOUS
 62
     6
 10
426.404269667
 20
1492.407921517
 40
4.100214016
  0
LINE
  8
0
  6
CONTINUOUS
 62
     6
 10
422.304055651
 20
1492.407921517
 11
421.036026502
 21
1492.407921517
  0
LINE
  8
0
  6
CONTINUOUS
 62
     6
 10
447.358027433
 20
1506.094562742
 11
443.443558096
 21
1483.759507138
  0
LINE
  8
0
  6
CONTINUOUS
 62
     6
 10
442.631699663
 20
1506.882284037
 11
438.716922494
 21
1484.547279739
  0
LINE
  8
0
  6
CONTINUOUS
 62
     6
 10
443.443558096
 20
1483.759507138
 11
438.716922494
 21
1484.547279739
  0
CIRCLE
  8
0
  6
CONTINUOUS
 62
     6
 10
447.611487717
 20
1482.939464335
 40
4.100214016
  0
LINE
  8
0
  6
CONTINUOUS
 62
     6
 10
447.611487717
 20
1478.839250319
 11
447.611487717
 21
1468.928121884
  0
LINE
  8
0
  6
CONTINUOUS
 62
     6
 10
421.036026502
 20
1492.407921517
 11
421.036026502
 21
1468.928121884
  0
LINE
  8
0
  6
CONTINUOUS
 62
     6
 10
394.460565287
 20
1468.928121884
 11
394.460565287
 21
1522.633332504
  0
LINE
  8
0
  6
CONTINUOUS
 62
     6
 10
314.987641926
 20
1506.094562742
 11
318.902111263
 21
1483.759507138
  0
LINE
  8
0
  6
CONTINUOUS
 62
     6
 10
319.713969696
 20
1506.882284037
 11
323.628746865
 21
1484.547279739
  0
LINE
  8
0
  6
CONTINUOUS
 62
     6
 10
318.902111263
 20
1483.759507138
 11
323.628746865
 21
1484.547279739
  0
CIRCLE
  8
0
  6
CONTINUOUS
 62
     6
 10
314.734181642
 20
1482.939464335
 40
4.100214016
  0
CIRCLE
  8
0
  6
CONTINUOUS
 62
     6
 10
335.941399692
 20
1492.407921517
 40
4.100214016
  0
LINE
  8
0
  6
CONTINUOUS
 62
     6
 10
340.041613708
 20
1492.407921517
 11
341.309642857
 21
1492.407921517
  0
LINE
  8
0
  6
CONTINUOUS
 62
     6
 10
314.734181642
 20
1478.839250319
 11
314.734181642
 21
1468.928121884
  0
LINE
  8
0
  6
CONTINUOUS
 62
     6
 10
341.309642857
 20
1492.407921517
 11
341.309642857
 21
1468.928121884
  0
LINE
  8
0
  6
CONTINUOUS
 62
     6
 10
367.885104072
 20
1468.928121884
 11
367.885104072
 21
1522.633332504
  0
LINE
  8
0
  6
CONTINUOUS
 62
     2
 10
460.899218324
 20
1468.928121884
 11
460.899218324
 21
1446.149155128
  0
LINE
  8
0
  6
CONTINUOUS
 62
     2
 10
301.446451035
 20
1468.928121884
 11
301.446451035
 21
1446.149155128
  0
LINE
  8
0
  6
CONTINUOUS
 62
     2
 10
328.02191225
 20
1468.928121884
 11
328.02191225
 21
1446.149155128
  0
LINE
  8
0
  6
CONTINUOUS
 62
     6
 10
447.611487717
 20
1522.633332504
 11
394.460565287
 21
1522.633332504
  0
CIRCLE
  8
0
  6
CONTINUOUS
 62
     6
 10
447.611487717
 20
1510.28941042
 40
4.100214016
  0
LINE
  8
0
  6
CONTINUOUS
 62
     6
 10
447.358027433
 20
1506.094562742
 11
442.631699663
 21
1506.882284037
  0
LINE
  8
0
  6
CONTINUOUS
 62
     6
 10
447.611487717
 20
1514.389624436
 11
447.611487717
 21
1522.633332504
  0
CIRCLE
  8
0
  6
CONTINUOUS
 62
     6
 10
314.734181642
 20
1510.28941042
 40
4.100214016
  0
LINE
  8
0
  6
CONTINUOUS
 62
     6
 10
314.987641926
 20
1506.094562742
 11
319.713969696
 21
1506.882284037
  0
LINE
  8
0
  6
CONTINUOUS
 62
     6
 10
314.734181642
 20
1514.389624436
 11
314.734181642
 21
1522.633332504
  0
LINE
  8
0
  6
CONTINUOUS
 62
     6
 10
367.885104072
 20
1522.633332504
 11
314.734181642
 21
1522.633332504
  0
TEXT
  8
0
  6
CONTINUOUS
 62
     6
 10
319.4972152
 20
1527.152473273
 30
0.819
 40
11.7
  1
ＬＳ０１
 50
0.0
 41
0.8
 51
0.0
  7
KANJI30
  0
TEXT
  8
0
  6
CONTINUOUS
 62
     6
 10
402.117398844
 20
1527.152473273
 30
0.819
 40
11.7
  1
ＬＳ０２
 50
0.0
 41
0.8
 51
0.0
  7
KANJI30
  0
TEXT
  8
0
  6
CONTINUOUS
 62
     3
 10
147.308775989
 20
1449.945649587
 30
0.0
 40
15.0
  1
　　　　　　　　　　　　　　　　　　１　　２　　　３　　　４　　　５　　　６
 50
0.0
 41
0.911
 51
0.0
  7
KANJI31
  0
LINE
  8
0
  6
CONTINUOUS
 62
     2
 10
301.446451035
 20
1468.928121884
 11
460.899218324
 21
1468.928121884
  0
LINE
  8
0
  6
CONTINUOUS
 62
     2
 10
301.446451035
 20
1446.149155128
 11
460.899218324
 21
1446.149155128
  0
TEXT
  8
0
  6
CONTINUOUS
 62
     6
 10
293.132791539
 20
1556.92382165
 30
0.0
 40
17.740702234
  1
推力リミッタ端子台配列
 50
0.0
 41
0.880962996
 51
0.0
  7
KANJI29
  0
TEXT
  8
0
  6
CONTINUOUS
 62
     6
 10
395.013715102
 20
1614.071931782
 30
0.0
 40
11.8638
  1
ＡＣ１００Ｖ　１２５Ｖ　２５０Ｖ　－１０Ａ
 50
0.0
 41
0.726495726
 51
0.0
  7
KANJI27
  0
LINE
  8
0
  6
CONTINUOUS
 62
     1
 10
1014.12
 20
1491.24
 11
1791.72
 21
1491.24
  0
LINE
  8
0
  6
CONTINUOUS
 62
     1
 10
1014.12
 20
1457.64
 11
1791.72
 21
1457.64
  0
TEXT
  8
0
  6
CONTINUOUS
 62
     2
 10
1062.12
 20
1467.24
 30
1.536
 40
15.36
  1
形
 50
0.0
 41
0.9
 51
0.0
  7
KANJI32
  0
TEXT
  8
0
  6
CONTINUOUS
 62
     2
 10
1155.72
 20
1467.24
 30
1.536
 40
15.36
  1
式
 50
0.0
 41
0.9
 51
0.0
  7
KANJI32
  0
TEXT
  8
0
  6
CONTINUOUS
 62
     2
 10
1228.2
 20
1466.28
 30
1.44
 40
14.4
  1
ストローク
 50
0.0
 41
0.9
 51
0.0
  7
KANJI33
  0
TEXT
  8
0
  6
CONTINUOUS
 62
     2
 10
1320.36
 20
1465.32
 30
0.0
 40
14.4
  1
ｍｉｎ　
 50
0.0
 41
0.9
 51
0.0
  7
KANJI34
  0
TEXT
  8
0
  6
CONTINUOUS
 62
     2
 10
1416.36
 20
1465.32
 30
0.0
 40
14.4
  1
ｍｉｎ　
 50
0.0
 41
0.9
 51
0.0
  7
KANJI34
  0
TEXT
  8
0
  6
CONTINUOUS
 62
     2
 10
1608.36
 20
1465.32
 30
0.0
 40
14.4
  1
ｍｉｎ　
 50
0.0
 41
0.9
 51
0.0
  7
KANJI34
  0
TEXT
  8
0
  6
CONTINUOUS
 62
     2
 10
1369.32
 20
1466.28
 30
1.68
 40
16.8
  1
ＡＬ
 50
0.0
 41
0.9
 51
0.0
  7
KANJI35
  0
TEXT
  8
0
  6
CONTINUOUS
 62
     2
 10
1465.32
 20
1466.28
 30
1.68
 40
16.8
  1
Ｌ
 50
0.0
 41
0.9
 51
0.0
  7
KANJI35
  0
TEXT
  8
0
  6
CONTINUOUS
 62
     2
 10
1546.92
 20
1466.28
 30
1.68
 40
16.8
  1
Ｃ
 50
0.0
 41
0.9
 51
0.0
  7
KANJI35
  0
TEXT
  8
0
  6
CONTINUOUS
 62
     2
 10
1657.32
 20
1466.28
 30
1.68
 40
16.8
  1
Ｐ
 50
0.0
 41
0.9
 51
0.0
  7
KANJI35
  0
TEXT
  8
0
  6
CONTINUOUS
 62
     2
 10
1756.08
 20
1465.92
 30
0.0
 40
12.96
  1
（ｋｇ）
 50
0.0
 41
0.740740741
 51
0.0
  7
KANJI36
  0
TEXT
  8
0
  6
CONTINUOUS
 62
     2
 10
1698.48
 20
1465.68
 30
1.44
 40
16.8
  1
概算重量
 50
0.0
 41
0.857142857
 51
0.0
  7
KANJI37
  0
LINE
  8
0
  6
CONTINUOUS
 62
     2
 10
1014.12
 20
1424.04
 11
1791.72
 21
1424.04
  0
LINE
  8
0
  6
CONTINUOUS
 62
     2
 10
1014.12
 20
1390.44
 11
1791.72
 21
1390.44
  0
TEXT
  8
0
  6
CONTINUOUS
 62
     2
 10
1237.32
 20
1432.08
 30
1.44
 40
14.4
  1
　２００
 50
0.0
 41
0.9
 51
0.0
  7
KANJI33
  0
TEXT
  8
0
  6
CONTINUOUS
 62
     2
 10
1237.32
 20
1398.48
 30
1.44
 40
14.4
  1
　３００
 50
0.0
 41
0.9
 51
0.0
  7
KANJI33
  0
TEXT
  8
0
  6
CONTINUOUS
 62
     2
 10
1237.32
 20
1264.08
 30
1.44
 40
14.4
  1
　７００
 50
0.0
 41
0.9
 51
0.0
  7
KANJI33
  0
LINE
  8
0
  6
CONTINUOUS
 62
     2
 10
1014.12
 20
1222.44
 11
1791.72
 21
1222.44
  0
LINE
  8
0
  6
CONTINUOUS
 62
     2
 10
1014.12
 20
1323.24
 11
1791.72
 21
1323.24
  0
LINE
  8
0
  6
CONTINUOUS
 62
     2
 10
1014.12
 20
1356.84
 11
1791.72
 21
1356.84
  0
LINE
  8
0
  6
CONTINUOUS
 62
     2
 10
1014.12
 20
1256.04
 11
1791.72
 21
1256.04
  0
LINE
  8
0
  6
CONTINUOUS
 62
     2
 10
1014.12
 20
1289.64
 11
1791.72
 21
1289.64
  0
TEXT
  8
0
  6
CONTINUOUS
 62
     2
 10
1237.32
 20
1331.28
 30
1.44
 40
14.4
  1
　５００
 50
0.0
 41
0.9
 51
0.0
  7
KANJI33
  0
TEXT
  8
0
  6
CONTINUOUS
 62
     2
 10
1237.32
 20
1364.88
 30
1.44
 40
14.4
  1
　４００
 50
0.0
 41
0.9
 51
0.0
  7
KANJI33
  0
TEXT
  8
0
  6
CONTINUOUS
 62
     2
 10
1237.32
 20
1297.68
 30
1.44
 40
14.4
  1
　６００
 50
0.0
 41
0.9
 51
0.0
  7
KANJI33
  0
TEXT
  8
0
  6
CONTINUOUS
 62
     2
 10
1237.32
 20
1230.48
 30
1.44
 40
14.4
  1
　８００
 50
0.0
 41
0.9
 51
0.0
  7
KANJI33
  0
TEXT
  8
0
  6
CONTINUOUS
 62
     2
 10
1621.32
 20
1432.08
 30
1.44
 40
14.4
  1
　　４５
 50
0.0
 41
0.9
 51
0.0
  7
KANJI33
  0
TEXT
  8
0
  6
CONTINUOUS
 62
     2
 10
1621.32
 20
1398.48
 30
1.44
 40
14.4
  1
　　４５
 50
0.0
 41
0.9
 51
0.0
  7
KANJI33
  0
TEXT
  8
0
  6
CONTINUOUS
 62
     2
 10
1621.32
 20
1364.88
 30
1.44
 40
14.4
  1
　　４５
 50
0.0
 41
0.9
 51
0.0
  7
KANJI33
  0
TEXT
  8
0
  6
CONTINUOUS
 62
     2
 10
1621.32
 20
1331.28
 30
1.44
 40
14.4
  1
　　４５
 50
0.0
 41
0.9
 51
0.0
  7
KANJI33
  0
TEXT
  8
0
  6
CONTINUOUS
 62
     2
 10
1621.32
 20
1297.68
 30
1.44
 40
14.4
  1
　　４５
 50
0.0
 41
0.9
 51
0.0
  7
KANJI33
  0
TEXT
  8
0
  6
CONTINUOUS
 62
     2
 10
1621.32
 20
1264.08
 30
1.44
 40
14.4
  1
　　４５
 50
0.0
 41
0.9
 51
0.0
  7
KANJI33
  0
TEXT
  8
0
  6
CONTINUOUS
 62
     2
 10
1621.32
 20
1230.48
 30
1.44
 40
14.4
  1
　　４５
 50
0.0
 41
0.9
 51
0.0
  7
KANJI33
  0
LINE
  8
0
  6
CONTINUOUS
 62
     1
 10
1014.12
 20
1055.04
 11
1791.72
 21
1055.04
  0
LINE
  8
0
  6
CONTINUOUS
 62
     2
 10
1014.12
 20
1088.64
 11
1791.72
 21
1088.64
  0
LINE
  8
0
  6
CONTINUOUS
 62
     1
 10
1014.12
 20
1491.24
 11
1014.12
 21
1055.04
  0
LINE
  8
0
  6
CONTINUOUS
 62
     1
 10
1215.72
 20
1491.24
 11
1215.72
 21
1055.04
  0
LINE
  8
0
  6
CONTINUOUS
 62
     2
 10
1311.72
 20
1491.24
 11
1311.72
 21
1055.04
  0
LINE
  8
0
  6
CONTINUOUS
 62
     2
 10
1407.72
 20
1491.24
 11
1407.72
 21
1055.04
  0
LINE
  8
0
  6
CONTINUOUS
 62
     2
 10
1503.72
 20
1491.24
 11
1503.72
 21
1055.04
  0
LINE
  8
0
  6
CONTINUOUS
 62
     2
 10
1599.72
 20
1491.24
 11
1599.72
 21
1055.04
  0
LINE
  8
0
  6
CONTINUOUS
 62
     2
 10
1695.72
 20
1491.24
 11
1695.72
 21
1055.04
  0
LINE
  8
0
  6
CONTINUOUS
 62
     1
 10
1791.72
 20
1491.24
 11
1791.72
 21
1055.04
  0
LINE
  8
0
  6
CONTINUOUS
 62
     2
 10
1014.12
 20
1154.84
 11
1791.72
 21
1154.84
  0
LINE
  8
0
  6
CONTINUOUS
 62
     2
 10
1014.12
 20
1188.84
 11
1791.72
 21
1188.84
  0
TEXT
  8
0
  6
CONTINUOUS
 62
     2
 10
1237.32
 20
1163.28
 30
1.44
 40
14.4
  1
１０００
 50
0.0
 41
0.9
 51
0.0
  7
KANJI33
  0
TEXT
  8
0
  6
CONTINUOUS
 62
     2
 10
1237.32
 20
1196.88
 30
1.44
 40
14.4
  1
　９００
 50
0.0
 41
0.9
 51
0.0
  7
KANJI33
  0
TEXT
  8
0
  6
CONTINUOUS
 62
     2
 10
1621.32
 20
1196.88
 30
1.44
 40
14.4
  1
　　４５
 50
0.0
 41
0.9
 51
0.0
  7
KANJI33
  0
TEXT
  8
0
  6
CONTINUOUS
 62
     2
 10
1621.32
 20
1163.28
 30
1.44
 40
14.4
  1
　　４５
 50
0.0
 41
0.9
 51
0.0
  7
KANJI33
  0
LINE
  8
0
  6
CONTINUOUS
 62
     2
 10
1014.12
 20
1121.84
 11
1791.72
 21
1121.84
  0
TEXT
  8
0
  6
CONTINUOUS
 62
     2
 10
1621.32
 20
1129.88
 30
1.44
 40
14.4
  1
　　４５
 50
0.0
 41
0.9
 51
0.0
  7
KANJI33
  0
TEXT
  8
0
  6
CONTINUOUS
 62
     2
 10
1621.32
 20
1096.28
 30
1.44
 40
14.4
  1
　　４５
 50
0.0
 41
0.9
 51
0.0
  7
KANJI33
  0
TEXT
  8
0
  6
CONTINUOUS
 62
     2
 10
1237.32
 20
1129.88
 30
1.44
 40
14.4
  1
１１００
 50
0.0
 41
0.9
 51
0.0
  7
KANJI33
  0
TEXT
  8
0
  6
CONTINUOUS
 62
     2
 10
1237.32
 20
1096.28
 30
1.44
 40
14.4
  1
１２００
 50
0.0
 41
0.9
 51
0.0
  7
KANJI33
  0
LINE
  8
0
  6
LTYPE2
 62
     2
 10
661.0
 20
813.5
 11
245.6
 21
813.5
  0
LINE
  8
0
  6
CONTINUOUS
 62
     1
 10
348.0
 20
789.5
 11
348.0
 21
847.8
  0
ARC
  8
0
  6
CONTINUOUS
 62
     1
 10
342.0
 20
789.5
 40
6.0
 50
270.0
 51
0.0
  0
LINE
  8
0
  6
CONTINUOUS
 62
     1
 10
352.0
 20
789.5
 11
352.0
 21
908.5
  0
LINE
  8
0
  6
CONTINUOUS
 62
     1
 10
346.0
 20
783.5
 11
289.0
 21
783.5
  0
ARC
  8
0
  6
CONTINUOUS
 62
     1
 10
346.0
 20
789.5
 40
6.0
 50
270.0
 51
0.0
  0
ARC
  8
0
  6
CONTINUOUS
 62
     2
 10
201.0
 20
812.0
 40
20.0
 50
231.952957468
 51
156.801409486
  0
LINE
  8
0
  6
CONTINUOUS
 62
     2
 10
182.6170994
 20
819.878385972
 11
184.91179211
 21
829.715824749
  0
TEXT
  8
0
  6
CONTINUOUS
 62
     2
 10
120.6170994
 20
802.878385972
 30
0.0
 40
15.0
  1
前進方向
 50
0.0
 41
0.9
 51
0.0
  7
KANJI23
  0
LINE
  8
0
  6
CONTINUOUS
 62
     2
 10
182.6170994
 20
819.878385972
 11
190.885260778
 21
824.785722507
  0
LINE
  8
0
  6
CONTINUOUS
 62
     1
 10
285.0
 20
796.5
 11
285.0
 21
830.5
  0
LINE
  8
0
  6
CONTINUOUS
 62
     1
 10
323.0
 20
862.5
 11
323.0
 21
905.5
  0
LINE
  8
0
  6
CONTINUOUS
 62
     1
 10
317.0
 20
856.5
 11
289.0
 21
856.5
  0
ARC
  8
0
  6
CONTINUOUS
 62
     1
 10
317.0
 20
862.5
 40
6.0
 50
270.0
 51
360.0
  0
LINE
  8
0
  6
CONTINUOUS
 62
     1
 10
348.0
 20
856.5
 11
317.0
 21
856.5
  0
LINE
  8
0
  6
CONTINUOUS
 62
     1
 10
336.0
 20
914.5
 11
345.2
 21
914.5
  0
CIRCLE
  8
0
  6
CONTINUOUS
 62
     1
 10
336.0
 20
928.5
 40
12.5
  0
LINE
  8
0
  6
CONTINUOUS
 62
     1
 10
336.0
 20
916.0
 11
345.2
 21
914.5
  0
ARC
  8
0
  6
CONTINUOUS
 62
     1
 10
336.0
 20
928.5
 40
20.5
 50
300.423432294
 51
0.0
  0
LINE
  8
0
  6
CONTINUOUS
 62
     1
 10
345.760585153
 20
909.594879912
 11
345.2
 21
914.5
  0
ARC
  8
0
  6
CONTINUOUS
 62
     1
 10
346.947984073
 20
909.773488336
 40
1.2
 50
118.393405187
 51
188.554293104
  0
LINE
  8
0
  6
CONTINUOUS
 62
     1
 10
336.0
 20
914.5
 11
326.8
 21
914.5
  0
LINE
  8
0
  6
CONTINUOUS
 62
     1
 10
336.0
 20
916.0
 11
326.8
 21
914.5
  0
LINE
  8
0
  6
CONTINUOUS
 62
     1
 10
326.239414847
 20
909.594879912
 11
326.8
 21
914.5
  0
ARC
  8
0
  6
CONTINUOUS
 62
     1
 10
325.052015927
 20
909.773488336
 40
1.2
 50
351.445706896
 51
61.606594813
  0
ARC
  8
0
  6
CONTINUOUS
 62
     1
 10
336.0
 20
928.5
 40
20.5
 50
0.0
 51
239.707348078
  0
LINE
  8
0
  6
CONTINUOUS
 62
     1
 10
326.114285714
 20
908.5
 11
326.239414847
 21
909.594879912
  0
LINE
  8
0
  6
CONTINUOUS
 62
     1
 10
345.885714286
 20
908.5
 11
345.760585153
 21
909.594879912
  0
ARC
  8
0
  6
CONTINUOUS
 62
     1
 10
326.0
 20
905.5
 40
3.0
 50
90.0
 51
180.0
  0
LINE
  8
0
  6
CONTINUOUS
 62
     1
 10
352.0
 20
908.5
 11
348.0
 21
856.5
  0
LINE
  8
0
  6
CONTINUOUS
 62
     1
 10
348.0
 20
850.9
 11
348.0
 21
856.5
  0
LINE
  8
0
  6
LTYPE2
 62
     2
 10
359.5
 20
928.5
 11
310.5
 21
928.5
  0
LINE
  8
0
  6
LTYPE2
 62
     2
 10
336.0
 20
894.6
 11
336.0
 21
957.3
  0
LINE
  8
0
  6
CONTINUOUS
 62
     1
 10
289.0
 20
581.0
 11
289.0
 21
856.5
  0
LINE
  8
0
  6
CONTINUOUS
 62
     1
 10
360.0
 20
581.0
 11
360.0
 21
908.5
  0
LINE
  8
0
  6
CONTINUOUS
 62
     2
 10
877.603319123
 20
150.483311846
 11
877.603319123
 21
94.233311846
  0
LINE
  8
0
  6
CONTINUOUS
 62
     2
 10
718.403319123
 20
136.233311846
 11
877.603319123
 21
136.233311846
  0
LINE
  8
0
  6
CONTINUOUS
 62
     2
 10
877.603319123
 20
136.233311846
 11
869.875912513
 21
138.303864207
  0
LINE
  8
0
  6
CONTINUOUS
 62
     2
 10
877.603319123
 20
136.233311846
 11
869.875912513
 21
134.162759485
  0
TEXT
  8
0
  6
CONTINUOUS
 62
     3
 10
758.203319123
 20
138.233311846
 30
0.0
 40
15.0
  1
常用ストローク
 50
0.0
 41
0.9
 51
0.0
  7
KANJI23
  0
LINE
  8
0
  6
CONTINUOUS
 62
     2
 10
1873.92
 20
896.7
 11
2398.92
 21
896.7
  0
LINE
  8
0
  6
CONTINUOUS
 62
     2
 10
1873.92
 20
854.7
 11
2398.92
 21
854.7
  0
LINE
  8
0
  6
CONTINUOUS
 62
     2
 10
1921.92
 20
1232.7
 11
1921.92
 21
896.7
  0
TEXT
  8
0
  6
CONTINUOUS
 62
     2
 10
1906.92
 20
865.5
 30
79.962857143
 40
22.8
  1
付属品
 50
0.0
 41
0.9
 51
0.0
  7
KANJI38
  0
TEXT
  8
0
  6
CONTINUOUS
 62
     2
 10
1906.92
 20
823.5
 30
180.445714286
 40
22.8
  1
台数
 50
0.0
 41
0.9
 51
0.0
  7
KANJI39
  0
LINE
  8
0
  6
CONTINUOUS
 62
     1
 10
1873.92
 20
1628.7
 11
2398.92
 21
1628.7
  0
TEXT
  8
0
  6
CONTINUOUS
 62
     2
 10
1948.92
 20
1584.9
 30
17.09964
 40
27.0
  1
マイティシリンダ仕様
 50
0.0
 41
0.9
 51
0.0
  7
KANJI40
  0
LINE
  8
0
  6
CONTINUOUS
 62
     2
 10
1921.92
 20
938.7
 11
2398.92
 21
938.7
  0
LINE
  8
0
  6
CONTINUOUS
 62
     2
 10
1921.92
 20
1064.7
 11
2398.92
 21
1064.7
  0
LINE
  8
0
  6
CONTINUOUS
 62
     2
 10
1921.92
 20
1106.7
 11
2398.92
 21
1106.7
  0
LINE
  8
0
  6
CONTINUOUS
 62
     2
 10
1873.92
 20
1316.7
 11
2398.92
 21
1316.7
  0
LINE
  8
0
  6
CONTINUOUS
 62
     2
 10
1873.92
 20
1274.7
 11
2398.92
 21
1274.7
  0
LINE
  8
0
  6
CONTINUOUS
 62
     2
 10
1873.92
 20
1232.7
 11
2398.92
 21
1232.7
  0
LINE
  8
0
  6
CONTINUOUS
 62
     2
 10
1921.92
 20
1148.7
 11
2398.92
 21
1148.7
  0
LINE
  8
0
  6
CONTINUOUS
 62
     2
 10
1921.92
 20
1190.7
 11
2398.92
 21
1190.7
  0
LINE
  8
0
  6
CONTINUOUS
 62
     2
 10
1873.92
 20
1526.7
 11
2398.92
 21
1526.7
  0
LINE
  8
0
  6
CONTINUOUS
 62
     2
 10
1873.92
 20
1484.7
 11
2398.92
 21
1484.7
  0
LINE
  8
0
  6
CONTINUOUS
 62
     2
 10
1873.92
 20
1442.7
 11
2398.92
 21
1442.7
  0
LINE
  8
0
  6
CONTINUOUS
 62
     2
 10
1873.92
 20
1400.7
 11
2398.92
 21
1400.7
  0
LINE
  8
0
  6
CONTINUOUS
 62
     2
 10
1873.92
 20
1358.7
 11
2398.92
 21
1358.7
  0
LINE
  8
0
  6
CONTINUOUS
 62
     2
 10
1873.92
 20
1568.7
 11
2398.92
 21
1568.7
  0
TEXT
  8
0
  6
CONTINUOUS
 62
     2
 10
1948.92
 20
1159.5
 30
33.439782857
 40
22.8
  1
電源電圧
 50
0.0
 41
0.9
 51
0.0
  7
KANJI41
  0
TEXT
  8
0
  6
CONTINUOUS
 62
     2
 10
1948.92
 20
1117.5
 30
60.42
 40
22.8
  1
周波数
 50
0.0
 41
0.9
 51
0.0
  7
KANJI42
  0
TEXT
  8
0
  6
CONTINUOUS
 62
     2
 10
1948.92
 20
1075.5
 30
141.36
 40
22.8
  1
電流
 50
0.0
 41
0.9
 51
0.0
  7
KANJI43
  0
TEXT
  8
0
  6
CONTINUOUS
 62
     2
 10
1948.92
 20
1033.5
 30
60.42
 40
22.8
  1
絶縁級
 50
0.0
 41
0.9
 51
0.0
  7
KANJI42
  0
TEXT
  8
0
  6
CONTINUOUS
 62
     2
 10
1906.92
 20
1537.5
 30
180.445714286
 40
22.8
  1
形式
 50
0.0
 41
0.9
 51
0.0
  7
KANJI39
  0
TEXT
  8
0
  6
CONTINUOUS
 62
     2
 10
1906.92
 20
1495.5
 30
180.445714286
 40
22.8
  1
推力
 50
0.0
 41
0.9
 51
0.0
  7
KANJI39
  0
TEXT
  8
0
  6
CONTINUOUS
 62
     2
 10
1906.92
 20
1453.5
 30
29.721428571
 40
22.8
  1
ストローク
 50
0.0
 41
0.9
 51
0.0
  7
KANJI44
  0
TEXT
  8
0
  6
CONTINUOUS
 62
     2
 10
1906.92
 20
1327.5
 30
180.445714286
 40
22.8
  1
構造
 50
0.0
 41
0.9
 51
0.0
  7
KANJI39
  0
TEXT
  8
0
  6
CONTINUOUS
 62
     2
 10
1906.92
 20
1285.5
 30
12.973851429
 40
22.8
  1
過負荷安全装置
 50
0.0
 41
0.9
 51
0.0
  7
KANJI45
  0
TEXT
  8
0
  6
CONTINUOUS
 62
     2
 10
1906.92
 20
1243.5
 30
79.962857143
 40
22.8
  1
塗装色
 50
0.0
 41
0.9
 51
0.0
  7
KANJI38
  0
TEXT
  8
0
  6
CONTINUOUS
 62
     2
 10
1882.92
 20
1369.5
 30
1.954285714
 40
22.8
  1
ピストンロッド回転トルク
 50
0.0
 41
0.9
 51
0.0
  7
KANJI46
  0
LINE
  8
0
  6
CONTINUOUS
 62
     2
 10
1873.92
 20
1022.7
 11
2398.92
 21
1022.7
  0
LINE
  8
0
  6
CONTINUOUS
 62
     2
 10
1921.92
 20
980.7
 11
2398.92
 21
980.7
  0
TEXT
  8
0
  6
CONTINUOUS
 62
     2
 10
1898.37
 20
1226.7
 30
13.2
 40
21.0
  1
モ　トル仕様
 50
0.0
 41
0.9
 51
0.0
  7
KANJI47
  0
TEXT
  8
0
  6
CONTINUOUS
 62
     2
 10
1898.37
 20
1004.7
 30
1.2
 40
21.0
  1
ブレ　キ
 50
0.0
 41
0.9
 51
0.0
  7
KANJI48
  0
LINE
  8
0
  6
CONTINUOUS
 62
     2
 10
1896.72
 20
954.9
 11
1896.72
 21
942.3
  0
TEXT
  8
0
  6
CONTINUOUS
 62
     2
 10
2208.42
 20
1286.7
 30
9.0
 40
21.0
  1
推力リミッタ
 50
0.0
 41
0.9
 51
0.0
  7
KANJI49
  0
TEXT
  8
0
  6
CONTINUOUS
 62
     2
 10
2265.42
 20
1034.7
 30
1.8
 40
18.0
  1
Ｅ
 50
0.0
 41
0.9
 51
0.0
  7
KANJI50
  0
TEXT
  8
0
  6
CONTINUOUS
 62
     2
 10
2221.92
 20
949.5
 30
12.0
 40
21.0
  1
同時切り
 50
0.0
 41
0.9
 51
0.0
  7
KANJI51
  0
TEXT
  8
0
  6
CONTINUOUS
 62
     2
 10
1948.92
 20
991.5
 30
141.36
 40
22.8
  1
形式
 50
0.0
 41
0.9
 51
0.0
  7
KANJI43
  0
TEXT
  8
0
  6
CONTINUOUS
 62
     2
 10
1948.92
 20
949.5
 30
33.439782857
 40
22.8
  1
操作方式
 50
0.0
 41
0.9
 51
0.0
  7
KANJI41
  0
LINE
  8
0
  6
CONTINUOUS
 62
     2
 10
1896.72
 20
1190.1
 11
1896.72
 21
1176.3
  0
TEXT
  8
0
  6
CONTINUOUS
 62
     2
 10
1948.92
 20
1201.5
 30
3.0
 40
22.8
  1
出力　相数　極数
 50
0.0
 41
0.9
 51
0.0
  7
KANJI52
  0
TEXT
  8
0
  6
CONTINUOUS
 62
     2
 10
1906.92
 20
1411.5
 30
12.0
 40
22.8
  1
公称速度
 50
0.0
 41
0.9
 51
0.0
  7
KANJI53
  0
TEXT
  8
0
  6
CONTINUOUS
 62
     2
 10
2030.82
 20
1410.3
 30
0.0
 40
21.0
  1
（５０／６０Ｈｚ）
 50
0.0
 41
0.628571429
 51
0.0
  7
KANJI54
  0
TEXT
  8
0
  6
CONTINUOUS
 62
     2
 10
2151.42
 20
991.95
 30
3.3
 40
20.4
  1
スプリング制動式電磁ブレーキ
 50
0.0
 41
0.705882353
 51
0.0
  7
KANJI55
  0
TEXT
  8
0
  6
CONTINUOUS
 62
     2
 10
2370.42
 20
1159.5
 30
0.216
 40
18.0
  1
Ｖ
 50
0.0
 41
0.8
 51
0.0
  7
KANJI56
  0
TEXT
  8
0
  6
CONTINUOUS
 62
     2
 10
2359.62
 20
1117.5
 30
0.216
 40
18.0
  1
Ｈｚ
 50
0.0
 41
0.8
 51
0.0
  7
KANJI56
  0
TEXT
  8
0
  6
CONTINUOUS
 62
     2
 10
2370.42
 20
1075.5
 30
0.216
 40
18.0
  1
Ａ
 50
0.0
 41
0.8
 51
0.0
  7
KANJI56
  0
TEXT
  8
0
  6
CONTINUOUS
 62
     2
 10
2291.52
 20
1202.7
 30
1.8
 40
18.0
  1
３φ
 50
0.0
 41
0.9
 51
0.0
  7
KANJI50
  0
TEXT
  8
0
  6
CONTINUOUS
 62
     2
 10
2351.52
 20
1202.7
 30
1.8
 40
18.0
  1
４Ｐ
 50
0.0
 41
0.9
 51
0.0
  7
KANJI50
  0
TEXT
  8
0
  6
CONTINUOUS
 62
     2
 10
2149.92
 20
1244.7
 30
1.2
 40
19.2
  1
マンセル　７．５ＧＹ　５／４．５
 50
0.0
 41
0.71875
 51
0.0
  7
KANJI57
  0
TEXT
  8
0
  6
CONTINUOUS
 62
     2
 10
2149.92
 20
1160.7
 30
1.8
 40
18.0
  1
　　　　　　　／　　　
 50
0.0
 41
0.9
 51
0.0
  7
KANJI50
  0
TEXT
  8
0
  6
CONTINUOUS
 62
     2
 10
2149.92
 20
1118.7
 30
1.8
 40
18.0
  1
　　　　５０／　６０
 50
0.0
 41
0.9
 51
0.0
  7
KANJI50
  0
TEXT
  8
0
  6
CONTINUOUS
 62
     2
 10
2149.92
 20
1076.7
 30
1.8
 40
18.0
  1
　　　　　　　／　　　
 50
0.0
 41
0.9
 51
0.0
  7
KANJI50
  0
TEXT
  8
0
  6
CONTINUOUS
 62
     2
 10
2354.52
 20
1455.9
 30
0.1536
 40
19.2
  1
ｍｍ
 50
0.0
 41
0.8
 51
0.0
  7
KANJI58
  0
TEXT
  8
0
  6
CONTINUOUS
 62
     2
 10
2208.42
 20
1328.7
 30
9.0
 40
21.0
  1
全閉屋内形
 50
0.0
 41
0.9
 51
0.0
  7
KANJI49
  0
TEXT
  8
0
  6
CONTINUOUS
 62
     2
 10
2315.52
 20
1412.7
 30
0.0
 40
21.0
  1
ｍｍ／ｓｅｃ
 50
0.0
 41
0.571428571
 51
0.0
  7
KANJI59
  0
TEXT
  8
0
  6
CONTINUOUS
 62
     2
 10
2193.72
 20
1496.7
 30
1.8
 40
18.0
  1
９．８ＫＮ（１ｔｏｎ）
 50
0.0
 41
0.9
 51
0.0
  7
KANJI50
  0
LINE
  8
0
  6
CONTINUOUS
 62
     1
 10
1873.92
 20
1628.7
 11
1873.92
 21
770.7
  0
LINE
  8
0
  6
CONTINUOUS
 62
     2
 10
2149.92
 20
1568.7
 11
2149.92
 21
770.7
  0
LINE
  8
0
  6
CONTINUOUS
 62
     1
 10
2398.92
 20
1628.7
 11
2398.92
 21
770.7
  0
LINE
  8
0
  6
CONTINUOUS
 62
     1
 10
1873.92
 20
770.7
 11
2398.92
 21
770.7
  0
LINE
  8
0
  6
CONTINUOUS
 62
     2
 10
1873.92
 20
812.7
 11
2398.92
 21
812.7
  0
TEXT
  8
0
  6
CONTINUOUS
 62
     2
 10
2343.72
 20
782.88
 30
0.0
 40
21.0
  1
ｋｇ
 50
0.0
 41
0.9
 51
0.0
  7
KANJI60
  0
TEXT
  8
0
  6
CONTINUOUS
 62
     2
 10
1905.72
 20
781.5
 30
6.0
 40
21.0
  1
概算重量（１台当り）
 50
0.0
 41
0.857142857
 51
0.0
  7
KANJI61
  0
CIRCLE
  8
0
  6
CONTINUOUS
 62
     1
 10
1356.0
 20
813.5
 40
19.0
  0
LINE
  8
0
  6
CONTINUOUS
 62
     1
 10
1273.5
 20
793.5
 11
1344.452994616
 21
793.5
  0
LINE
  8
0
  6
CONTINUOUS
 62
     1
 10
1379.929491924
 20
732.052904188
 11
1344.452994616
 21
793.5
  0
ARC
  8
0
  6
CONTINUOUS
 62
     1
 10
1356.0
 20
813.5
 40
20.0
 50
80.405931773
 51
279.594068227
  0
CIRCLE
  8
0
  6
CONTINUOUS
 62
     1
 10
1342.9
 20
813.5
 40
4.0
  0
CIRCLE
  8
0
  6
CONTINUOUS
 62
     1
 10
1356.0
 20
800.4
 40
4.0
  0
CIRCLE
  8
0
  6
CONTINUOUS
 62
     1
 10
1356.0
 20
813.5
 40
4.0
  0
CIRCLE
  8
0
  6
CONTINUOUS
 62
     1
 10
1356.0
 20
813.5
 40
102.5
  0
CIRCLE
  8
0
  6
LTYPE1
 62
     2
 10
1356.0
 20
813.5
 40
100.0
  0
ARC
  8
0
  6
CONTINUOUS
 62
     1
 10
1273.5
 20
813.5
 40
20.0
 50
180.0
 51
270.0
  0
LINE
  8
0
  6
CONTINUOUS
 62
     1
 10
1379.929491924
 20
894.947095812
 11
1344.452994616
 21
833.5
  0
LINE
  8
0
  6
CONTINUOUS
 62
     1
 10
1273.5
 20
833.5
 11
1344.452994616
 21
833.5
  0
ARC
  8
0
  6
CONTINUOUS
 62
     1
 10
1273.5
 20
813.5
 40
20.0
 50
90.0
 51
180.0
  0
CIRCLE
  8
0
  6
CONTINUOUS
 62
     1
 10
1356.0
 20
826.6
 40
4.0
  0
LINE
  8
0
  6
CONTINUOUS
 62
     1
 10
1359.333333333
 20
833.220265944
 11
1417.666666667
 21
823.360132972
  0
LINE
  8
0
  6
LTYPE3
 62
     2
 10
1416.0
 20
798.5
 11
1416.0
 21
833.5
  0
ARC
  8
0
  6
CONTINUOUS
 62
     1
 10
1416.0
 20
813.5
 40
10.0
 50
279.594068227
 51
80.405931773
  0
CIRCLE
  8
0
  6
CONTINUOUS
 62
     1
 10
1416.0
 20
813.5
 40
9.0
  0
LINE
  8
0
  6
CONTINUOUS
 62
     1
 10
1414.570508076
 20
874.947095812
 11
1387.710211838
 21
828.423698023
  0
CIRCLE
  8
0
  6
CONTINUOUS
 62
     1
 10
1369.1
 20
813.5
 40
4.0
  0
LINE
  8
0
  6
CONTINUOUS
 62
     1
 10
1359.333333333
 20
793.779734056
 11
1417.666666667
 21
803.639867028
  0
LINE
  8
0
  6
CONTINUOUS
 62
     1
 10
1414.570508076
 20
752.052904188
 11
1387.710211838
 21
798.576301977
  0
ARC
  8
0
  6
CONTINUOUS
 62
     1
 10
1397.25
 20
742.052904188
 40
20.0
 50
300.0
 51
30.0
  0
ARC
  8
0
  6
CONTINUOUS
 62
     1
 10
1397.25
 20
742.052904188
 40
20.0
 50
210.0
 51
300.0
  0
CIRCLE
  8
0
  6
CONTINUOUS
 62
     1
 10
1356.0
 20
952.0
 40
25.0
  0
ARC
  8
0
  6
CONTINUOUS
 62
     1
 10
1386.0
 20
927.5
 40
10.0
 50
270.0
 51
0.0
  0
LINE
  8
0
  6
CONTINUOUS
 62
     1
 10
1356.0
 20
917.5
 11
1396.0
 21
917.5
  0
LINE
  8
0
  6
CONTINUOUS
 62
     1
 10
1386.360126607
 20
917.506486662
 11
1386.360126607
 21
912.006486662
  0
LINE
  8
0
  6
CONTINUOUS
 62
     1
 10
1396.0
 20
927.5
 11
1396.0
 21
986.5
  0
LINE
  8
0
  6
CONTINUOUS
 62
     1
 10
1406.0
 20
927.5
 11
1406.0
 21
991.5
  0
ARC
  8
0
  6
CONTINUOUS
 62
     1
 10
1396.0
 20
927.5
 40
10.0
 50
270.0
 51
0.0
  0
ARC
  8
0
  6
CONTINUOUS
 62
     1
 10
1397.25
 20
884.947095812
 40
20.0
 50
330.0
 51
60.0
  0
ARC
  8
0
  6
CONTINUOUS
 62
     1
 10
1397.25
 20
884.947095812
 40
20.0
 50
60.0
 51
150.0
  0
CIRCLE
  8
0
  6
CONTINUOUS
 62
     1
 10
1356.0
 20
952.0
 40
12.055
  0
CIRCLE
  8
0
  6
CONTINUOUS
 62
     1
 10
1356.0
 20
952.0
 40
20.0
  0
CIRCLE
  8
0
  6
CONTINUOUS
 62
     2
 10
1356.0
 20
952.0
 40
13.221
  0
LINE
  8
0
  6
LTYPE3
 62
     2
 10
1319.5
 20
952.0
 11
1391.5
 21
952.0
  0
LINE
  8
0
  6
CONTINUOUS
 62
     1
 10
1356.0
 20
996.5
 11
1326.0
 21
996.5
  0
LINE
  8
0
  6
CONTINUOUS
 62
     1
 10
1316.0
 20
927.5
 11
1316.0
 21
986.5
  0
ARC
  8
0
  6
CONTINUOUS
 62
     1
 10
1326.0
 20
986.5
 40
10.0
 50
90.0
 51
180.0
  0
LINE
  8
0
  6
CONTINUOUS
 62
     1
 10
1356.0
 20
1001.5
 11
1316.0
 21
1001.5
  0
ARC
  8
0
  6
CONTINUOUS
 62
     1
 10
1316.0
 20
991.5
 40
10.0
 50
90.0
 51
180.0
  0
LINE
  8
0
  6
CONTINUOUS
 62
     1
 10
1306.0
 20
927.5
 11
1306.0
 21
991.5
  0
ARC
  8
0
  6
CONTINUOUS
 62
     1
 10
1326.0
 20
927.5
 40
10.0
 50
180.0
 51
270.0
  0
LINE
  8
0
  6
CONTINUOUS
 62
     1
 10
1356.0
 20
917.5
 11
1316.0
 21
917.5
  0
ARC
  8
0
  6
CONTINUOUS
 62
     1
 10
1316.0
 20
927.5
 40
10.0
 50
180.0
 51
270.0
  0
LINE
  8
0
  6
CONTINUOUS
 62
     1
 10
1325.639873393
 20
917.506486662
 11
1325.639873393
 21
912.006486662
  0
LINE
  8
0
  6
CONTINUOUS
 62
     1
 10
1356.0
 20
996.5
 11
1386.0
 21
996.5
  0
ARC
  8
0
  6
CONTINUOUS
 62
     1
 10
1386.0
 20
986.5
 40
10.0
 50
0.0
 51
90.0
  0
LINE
  8
0
  6
CONTINUOUS
 62
     1
 10
1356.0
 20
1001.5
 11
1396.0
 21
1001.5
  0
ARC
  8
0
  6
CONTINUOUS
 62
     1
 10
1396.0
 20
991.5
 40
10.0
 50
0.0
 51
90.0
  0
LINE
  8
0
  6
CONTINUOUS
 62
     1
 10
289.0
 20
830.5
 11
247.0
 21
830.5
  0
LINE
  8
0
  6
CONTINUOUS
 62
     1
 10
247.0
 20
796.5
 11
247.0
 21
830.5
  0
LINE
  8
0
  6
CONTINUOUS
 62
     1
 10
289.0
 20
796.5
 11
247.0
 21
796.5
  0
LINE
  8
0
  6
CONTINUOUS
 62
     2
 10
219.58
 20
930.1
 11
138.6
 21
930.1
  0
TEXT
  8
0
  6
CONTINUOUS
 62
     2
 10
138.6
 20
935.1
 30
0.0
 40
18.0
  1
手動軸カバー
 50
0.0
 41
0.9
 51
0.0
  7
KANJI17
  0
TEXT
  8
0
  6
CONTINUOUS
 62
     3
 10
140.466667
 20
910.766683
 30
1.5
 40
15.0
  1
手動軸□８
 50
0.0
 41
0.9
 51
0.0
  7
KANJI62
  0
LINE
  8
0
  6
CONTINUOUS
 62
     2
 10
259.5
 20
830.3
 11
258.019645058
 21
842.712032438
  0
LINE
  8
0
  6
CONTINUOUS
 62
     2
 10
259.5
 20
830.3
 11
252.011958794
 21
840.308957933
  0
LINE
  8
0
  6
CONTINUOUS
 62
     2
 10
259.5
 20
830.3
 11
219.58
 21
930.1
  0
LINE
  8
0
  6
CONTINUOUS
 62
     2
 10
360.0
 20
914.5
 11
360.0
 21
1059.2
  0
LINE
  8
0
  6
CONTINUOUS
 62
     2
 10
360.0
 20
1053.2
 11
345.511112606
 21
1057.082285677
  0
LINE
  8
0
  6
CONTINUOUS
 62
     2
 10
360.0
 20
1053.2
 11
345.511112606
 21
1049.317714323
  0
LINE
  8
0
  6
CONTINUOUS
 62
     2
 10
360.0
 20
1053.2
 11
247.0
 21
1053.2
  0
LINE
  8
0
  6
CONTINUOUS
 62
     2
 10
247.0
 20
1053.2
 11
261.488887394
 21
1049.317714323
  0
LINE
  8
0
  6
CONTINUOUS
 62
     2
 10
247.0
 20
1053.2
 11
261.488887394
 21
1057.082285677
  0
LINE
  8
0
  6
CONTINUOUS
 62
     2
 10
247.0
 20
836.5
 11
247.0
 21
1059.2
  0
TEXT
  8
0
  6
CONTINUOUS
 62
     3
 10
275.2
 20
1056.2
 30
0.0
 40
18.0
  1
１１３
 50
0.0
 41
0.9
 51
0.0
  7
KANJI17
  0
LINE
  8
0
  6
CONTINUOUS
 62
     1
 10
956.0
 20
706.0
 11
551.0
 21
706.0
  0
LINE
  8
0
  6
CONTINUOUS
 62
     1
 10
956.0
 20
611.0
 11
551.0
 21
611.0
  0
LINE
  8
0
  6
CONTINUOUS
 62
     1
 10
956.0
 20
611.0
 11
956.0
 21
706.0
  0
LINE
  8
0
  6
CONTINUOUS
 62
     1
 10
921.0
 20
611.0
 11
921.0
 21
706.0
  0
LINE
  8
0
  6
CONTINUOUS
 62
     2
 10
649.0
 20
706.0
 11
645.117714323
 21
691.511112606
  0
LINE
  8
0
  6
CONTINUOUS
 62
     2
 10
649.0
 20
706.0
 11
652.882285677
 21
691.511112606
  0
LINE
  8
0
  6
CONTINUOUS
 62
     2
 10
649.0
 20
706.0
 11
649.0
 21
611.0
  0
LINE
  8
0
  6
CONTINUOUS
 62
     2
 10
649.0
 20
611.0
 11
652.882285677
 21
625.488887394
  0
LINE
  8
0
  6
CONTINUOUS
 62
     2
 10
649.0
 20
611.0
 11
645.117714323
 21
625.488887394
  0
LINE
  8
0
  6
CONTINUOUS
 62
     2
 10
654.0
 20
611.0
 11
655.0
 21
611.0
  0
TEXT
  8
0
  6
CONTINUOUS
 62
     3
 10
646.0
 20
634.2
 30
0.0
 40
18.0
  1
φ９５
 50
90.0
 41
0.9
 51
0.0
  7
KANJI17
  0
LINE
  8
0
  6
CONTINUOUS
 62
     1
 10
1320.079949889
 20
717.5
 11
1302.0
 21
717.5
  0
LINE
  8
0
  6
CONTINUOUS
 62
     1
 10
1391.920050111
 20
717.5
 11
1410.0
 21
717.5
  0
LINE
  8
0
  6
CONTINUOUS
 62
     1
 10
1279.0
 20
703.776980495
 11
1279.0
 21
745.844623274
  0
LINE
  8
0
  6
CONTINUOUS
 62
     1
 10
1433.0
 20
679.860720927
 11
1433.0
 21
745.844623274
  0
LINE
  8
0
  6
CONTINUOUS
 62
     2
 10
1549.872218677
 20
658.5
 11
1546.636980613
 21
646.425927171
  0
LINE
  8
0
  6
CONTINUOUS
 62
     2
 10
1549.872218677
 20
658.5
 11
1553.10745674
 21
646.425927171
  0
LINE
  8
0
  6
CONTINUOUS
 62
     2
 10
1549.872218677
 20
658.5
 11
1549.872218677
 21
547.5
  0
LINE
  8
0
  6
CONTINUOUS
 62
     2
 10
1549.872218677
 20
547.5
 11
1553.10745674
 21
559.574072829
  0
LINE
  8
0
  6
CONTINUOUS
 62
     2
 10
1549.872218677
 20
547.5
 11
1546.636980613
 21
559.574072829
  0
LINE
  8
0
  6
CONTINUOUS
 62
     2
 10
1549.872218677
 20
658.5
 11
1553.10745674
 21
670.574072829
  0
LINE
  8
0
  6
CONTINUOUS
 62
     2
 10
1549.872218677
 20
658.5
 11
1546.636980613
 21
670.574072829
  0
LINE
  8
0
  6
CONTINUOUS
 62
     2
 10
1512.5
 20
668.5
 11
1515.735238064
 21
680.574072829
  0
LINE
  8
0
  6
CONTINUOUS
 62
     2
 10
1512.5
 20
668.5
 11
1509.264761936
 21
680.574072829
  0
LINE
  8
0
  6
CONTINUOUS
 62
     2
 10
1512.5
 20
648.5
 11
1509.264761936
 21
636.425927171
  0
LINE
  8
0
  6
CONTINUOUS
 62
     2
 10
1512.5
 20
648.5
 11
1515.735238064
 21
636.425927171
  0
TEXT
  8
0
  6
CONTINUOUS
 62
     2
 10
1544.872218677
 20
581.25
 30
0.0
 40
18.0
  1
１１１
 50
90.0
 41
0.9
 51
0.0
  7
KANJI17
  0
LINE
  8
0
  6
CONTINUOUS
 62
     2
 10
1549.872218677
 20
813.5
 11
1546.636980613
 21
801.425927171
  0
LINE
  8
0
  6
CONTINUOUS
 62
     2
 10
1549.872218677
 20
813.5
 11
1553.10745674
 21
801.425927171
  0
TEXT
  8
0
  6
CONTINUOUS
 62
     2
 10
1507.222218677
 20
673.25
 30
0.0
 40
18.0
  1
φ２０Ｈ１０深さ２５
 50
90.0
 41
0.9
 51
0.0
  7
KANJI17
  0
LINE
  8
0
  6
CONTINUOUS
 62
     2
 10
1512.5
 20
827.0
 11
1512.5
 21
628.75
  0
LINE
  8
0
  6
CONTINUOUS
 62
     2
 10
1549.872218677
 20
658.5
 11
1549.872218677
 21
813.5
  0
TEXT
  8
0
  6
CONTINUOUS
 62
     2
 10
1544.872218677
 20
714.75
 30
0.0
 40
18.0
  1
１５５
 50
90.0
 41
0.9
 51
0.0
  7
KANJI17
  0
LINE
  8
0
  6
CONTINUOUS
 62
     2
 10
1510.872218677
 20
813.5
 11
1557.372218677
 21
813.5
  0
LINE
  8
0
  6
CONTINUOUS
 62
     2
 10
1547.872218677
 20
813.5
 11
1555.872218677
 21
813.5
  0
LINE
  8
0
  6
CONTINUOUS
 62
     2
 10
1549.872218677
 20
813.5
 11
1553.754504353
 21
827.988887394
  0
LINE
  8
0
  6
CONTINUOUS
 62
     2
 10
1549.872218677
 20
813.5
 11
1545.989933
 21
827.988887394
  0
LINE
  8
0
  6
CONTINUOUS
 62
     2
 10
1549.872218677
 20
813.5
 11
1549.872218677
 21
1001.5
  0
LINE
  8
0
  6
CONTINUOUS
 62
     2
 10
1549.872218677
 20
1001.5
 11
1545.989933
 21
987.011112606
  0
LINE
  8
0
  6
CONTINUOUS
 62
     2
 10
1549.872218677
 20
1001.5
 11
1553.754504353
 21
987.011112606
  0
TEXT
  8
0
  6
CONTINUOUS
 62
     3
 10
1546.872218677
 20
883.2
 30
0.0
 40
18.0
  1
１８８
 50
90.0
 41
0.9
 51
0.0
  7
KANJI17
  0
LINE
  8
0
  6
CONTINUOUS
 62
     2
 10
1542.000015259
 20
547.5
 11
1602.000015259
 21
547.5
  0
LINE
  8
0
  6
CONTINUOUS
 62
     2
 10
1596.000015259
 20
547.5
 11
1599.882300935
 21
561.988887394
  0
LINE
  8
0
  6
CONTINUOUS
 62
     2
 10
1596.000015259
 20
547.5
 11
1592.117729582
 21
561.988887394
  0
LINE
  8
0
  6
CONTINUOUS
 62
     2
 10
1596.000015259
 20
547.5
 11
1596.000015259
 21
1001.5
  0
LINE
  8
0
  6
CONTINUOUS
 62
     2
 10
1596.000015259
 20
1001.5
 11
1592.117729582
 21
987.011112606
  0
LINE
  8
0
  6
CONTINUOUS
 62
     2
 10
1596.000015259
 20
1001.5
 11
1599.882300935
 21
987.011112606
  0
LINE
  8
0
  6
CONTINUOUS
 62
     2
 10
1527.5
 20
1001.5
 11
1602.000015259
 21
1001.5
  0
TEXT
  8
0
  6
CONTINUOUS
 62
     3
 10
1593.000015259
 20
750.2
 30
0.0
 40
18.0
  1
４５４
 50
90.0
 41
0.9
 51
0.0
  7
KANJI17
  0
LINE
  8
0
  6
CONTINUOUS
 62
     2
 10
1408.0
 20
1001.5
 11
1555.872218677
 21
1001.5
  0
LINE
  8
0
  6
LTYPE4
 62
     2
 10
1236.5
 20
813.5
 11
1487.0
 21
813.5
  0
LINE
  8
0
  6
CONTINUOUS
 62
     2
 10
1443.0
 20
668.5
 11
1520.0
 21
668.5
  0
LINE
  8
0
  6
CONTINUOUS
 62
     2
 10
1442.0
 20
648.5
 11
1520.0
 21
648.5
  0
LINE
  8
0
  6
CONTINUOUS
 62
     2
 10
1468.0
 20
658.5
 11
1557.372218677
 21
658.5
  0
LINE
  8
0
  6
CONTINUOUS
 62
     2
 10
1413.0
 20
547.5
 11
1542.372218677
 21
547.5
  0
TEXT
  8
0
  6
CONTINUOUS
 62
     2
 10
1055.133
 20
1515.99
 30
1.617
 40
16.17
  1
注意：サーマルリレー等の選定は、上記の値で選定して下さい。
 50
0.0
 41
0.9
 51
0.0
  7
KANJI63
  0
LINE
  8
0
  6
CONTINUOUS
 62
     2
 10
1045.893
 20
1511.37
 11
1500.92
 21
1511.37
  0
LINE
  8
0
  6
CONTINUOUS
 62
     1
 10
1559.640933
 20
1671.03602
 11
1559.640933
 21
1541.03654
  0
LINE
  8
0
  6
CONTINUOUS
 62
     2
 10
1484.641233
 20
1671.03602
 11
1484.641233
 21
1541.03654
  0
LINE
  8
0
  6
CONTINUOUS
 62
     2
 10
1409.641533
 20
1671.03602
 11
1409.641533
 21
1541.03654
  0
LINE
  8
0
  6
CONTINUOUS
 62
     1
 10
1309.641933
 20
1671.03602
 11
1309.641933
 21
1541.03654
  0
LINE
  8
0
  6
CONTINUOUS
 62
     1
 10
1309.641933
 20
1671.03602
 11
1559.640933
 21
1671.03602
  0
LINE
  8
0
  6
CONTINUOUS
 62
     1
 10
1309.641933
 20
1631.03618
 11
1559.640933
 21
1631.03618
  0
LINE
  8
0
  6
CONTINUOUS
 62
     2
 10
1309.641933
 20
1601.0363
 11
1559.640933
 21
1601.0363
  0
LINE
  8
0
  6
CONTINUOUS
 62
     2
 10
1309.641933
 20
1571.03642
 11
1559.640933
 21
1571.03642
  0
LINE
  8
0
  6
CONTINUOUS
 62
     1
 10
1309.641933
 20
1541.03654
 11
1559.640933
 21
1541.03654
  0
TEXT
  8
0
  6
CONTINUOUS
 62
     2
 10
1494.641193
 20
1653.53609
 30
1.499994
 40
14.99994
  1
起動電流
 50
0.0
 41
0.9
 51
0.0
  7
KANJI64
  0
TEXT
  8
0
  6
CONTINUOUS
 62
     2
 10
1494.641193
 20
1636.03616
 30
1.499994
 40
14.99994
  1
　　　Ａ
 50
0.0
 41
0.9
 51
0.0
  7
KANJI64
  0
TEXT
  8
0
  6
CONTINUOUS
 62
     2
 10
1419.641493
 20
1653.53609
 30
1.499994
 40
14.99994
  1
定格電流
 50
0.0
 41
0.9
 51
0.0
  7
KANJI64
  0
TEXT
  8
0
  6
CONTINUOUS
 62
     2
 10
1419.641493
 20
1636.03616
 30
1.499994
 40
14.99994
  1
　　　Ａ
 50
0.0
 41
0.9
 51
0.0
  7
KANJI64
  0
TEXT
  8
0
  6
CONTINUOUS
 62
     2
 10
1318.141899
 20
1578.53639
 30
1.499994
 40
14.99994
  1
２００／６０
 50
0.0
 41
0.9
 51
0.0
  7
KANJI64
  0
TEXT
  8
0
  6
CONTINUOUS
 62
     2
 10
1318.141899
 20
1653.53609
 30
1.499994
 40
14.99994
  1
電圧／周波数
 50
0.0
 41
0.9
 51
0.0
  7
KANJI64
  0
TEXT
  8
0
  6
CONTINUOUS
 62
     2
 10
1318.141899
 20
1636.03616
 30
1.499994
 40
14.99994
  1
　Ｖ／Ｈｚ
 50
0.0
 41
0.9
 51
0.0
  7
KANJI64
  0
TEXT
  8
0
  6
CONTINUOUS
 62
     2
 10
1318.141899
 20
1608.53627
 30
1.499994
 40
14.99994
  1
２００／５０
 50
0.0
 41
0.9
 51
0.0
  7
KANJI64
  0
TEXT
  8
0
  6
CONTINUOUS
 62
     2
 10
1318.141899
 20
1548.53651
 30
1.499994
 40
14.99994
  1
２２０／６０
 50
0.0
 41
0.9
 51
0.0
  7
KANJI64
  0
LINE
  8
0
  6
CONTINUOUS
 62
     1
 10
1259.642133
 20
1671.03602
 11
1259.642133
 21
1541.03654
  0
LINE
  8
0
  6
CONTINUOUS
 62
     2
 10
1184.642433
 20
1671.03602
 11
1184.642433
 21
1541.03654
  0
LINE
  8
0
  6
CONTINUOUS
 62
     2
 10
1109.642733
 20
1671.03602
 11
1109.642733
 21
1541.03654
  0
LINE
  8
0
  6
CONTINUOUS
 62
     1
 10
1009.643133
 20
1671.03602
 11
1259.642133
 21
1671.03602
  0
LINE
  8
0
  6
CONTINUOUS
 62
     1
 10
1009.643133
 20
1631.03618
 11
1259.642133
 21
1631.03618
  0
LINE
  8
0
  6
CONTINUOUS
 62
     2
 10
1009.643133
 20
1601.0363
 11
1259.642133
 21
1601.0363
  0
LINE
  8
0
  6
CONTINUOUS
 62
     2
 10
1009.643133
 20
1571.03642
 11
1259.642133
 21
1571.03642
  0
LINE
  8
0
  6
CONTINUOUS
 62
     1
 10
1009.643133
 20
1541.03654
 11
1259.642133
 21
1541.03654
  0
TEXT
  8
0
  6
CONTINUOUS
 62
     2
 10
1194.642393
 20
1653.53609
 30
1.499994
 40
14.99994
  1
起動電流
 50
0.0
 41
0.9
 51
0.0
  7
KANJI64
  0
TEXT
  8
0
  6
CONTINUOUS
 62
     2
 10
1194.642393
 20
1636.03616
 30
1.499994
 40
14.99994
  1
　　　Ａ
 50
0.0
 41
0.9
 51
0.0
  7
KANJI64
  0
TEXT
  8
0
  6
CONTINUOUS
 62
     2
 10
1119.642693
 20
1653.53609
 30
1.499994
 40
14.99994
  1
定格電流
 50
0.0
 41
0.9
 51
0.0
  7
KANJI64
  0
TEXT
  8
0
  6
CONTINUOUS
 62
     2
 10
1119.642693
 20
1636.03616
 30
1.499994
 40
14.99994
  1
　　　Ａ
 50
0.0
 41
0.9
 51
0.0
  7
KANJI64
  0
TEXT
  8
0
  6
CONTINUOUS
 62
     2
 10
1018.143099
 20
1653.53609
 30
1.499994
 40
14.99994
  1
電圧／周波数
 50
0.0
 41
0.9
 51
0.0
  7
KANJI64
  0
TEXT
  8
0
  6
CONTINUOUS
 62
     2
 10
1018.143099
 20
1636.03616
 30
1.499994
 40
14.99994
  1
　Ｖ／Ｈｚ
 50
0.0
 41
0.9
 51
0.0
  7
KANJI64
  0
TEXT
  8
0
  6
CONTINUOUS
 62
     2
 10
1018.143099
 20
1608.53627
 30
1.499994
 40
14.99994
  1
４００／５０
 50
0.0
 41
0.9
 51
0.0
  7
KANJI64
  0
TEXT
  8
0
  6
CONTINUOUS
 62
     2
 10
1018.143099
 20
1578.53639
 30
1.499994
 40
14.99994
  1
４００／６０
 50
0.0
 41
0.9
 51
0.0
  7
KANJI64
  0
TEXT
  8
0
  6
CONTINUOUS
 62
     2
 10
1018.143099
 20
1548.53651
 30
1.499994
 40
14.99994
  1
４４０／６０
 50
0.0
 41
0.9
 51
0.0
  7
KANJI64
  0
TEXT
  8
0
  6
CONTINUOUS
 62
     2
 10
1119.642693
 20
1608.53627
 30
1.499994
 40
14.99994
  1
　　３．４
 50
0.0
 41
0.9
 51
0.0
  7
KANJI64
  0
TEXT
  8
0
  6
CONTINUOUS
 62
     2
 10
1119.642693
 20
1548.53651
 30
1.499994
 40
14.99994
  1
　　３．０
 50
0.0
 41
0.9
 51
0.0
  7
KANJI64
  0
TEXT
  8
0
  6
CONTINUOUS
 62
     2
 10
1419.641493
 20
1608.53627
 30
1.499994
 40
14.99994
  1
　　６．８
 50
0.0
 41
0.9
 51
0.0
  7
KANJI64
  0
TEXT
  8
0
  6
CONTINUOUS
 62
     2
 10
1419.641493
 20
1548.53651
 30
1.499994
 40
14.99994
  1
　　６．０
 50
0.0
 41
0.9
 51
0.0
  7
KANJI64
  0
TEXT
  8
0
  6
CONTINUOUS
 62
     2
 10
1494.641193
 20
1608.53627
 30
1.499994
 40
14.99994
  1
４４．０
 50
0.0
 41
0.9
 51
0.0
  7
KANJI64
  0
LINE
  8
0
  6
CONTINUOUS
 62
     1
 10
1009.643133
 20
1671.03602
 11
1009.643133
 21
1541.03654
  0
TEXT
  8
0
  6
CONTINUOUS
 62
     2
 10
1119.642693
 20
1578.53639
 30
1.499994
 40
14.99994
  1
　　３．１
 50
0.0
 41
0.9
 51
0.0
  7
KANJI64
  0
TEXT
  8
0
  6
CONTINUOUS
 62
     2
 10
1419.641493
 20
1578.53639
 30
1.499994
 40
14.99994
  1
　　６．２
 50
0.0
 41
0.9
 51
0.0
  7
KANJI64
  0
TEXT
  8
0
  6
CONTINUOUS
 62
     2
 10
1194.642393
 20
1608.53627
 30
1.499994
 40
14.99994
  1
２２．１
 50
0.0
 41
0.9
 51
0.0
  7
KANJI64
  0
TEXT
  8
0
  6
CONTINUOUS
 62
     2
 10
1194.642393
 20
1578.53639
 30
1.499994
 40
14.99994
  1
１９．２
 50
0.0
 41
0.9
 51
0.0
  7
KANJI64
  0
TEXT
  8
0
  6
CONTINUOUS
 62
     2
 10
1194.642393
 20
1548.53651
 30
1.499994
 40
14.99994
  1
２１．１
 50
0.0
 41
0.9
 51
0.0
  7
KANJI64
  0
TEXT
  8
0
  6
CONTINUOUS
 62
     2
 10
1494.099556333
 20
1576.2447275
 30
1.499994
 40
14.99994
  1
３８．２
 50
0.0
 41
0.9
 51
0.0
  7
KANJI64
  0
TEXT
  8
0
  6
CONTINUOUS
 62
     2
 10
1495.349551333
 20
1547.9115075
 30
1.499994
 40
14.99994
  1
４２．１
 50
0.0
 41
0.9
 51
0.0
  7
KANJI64
  0
TEXT
  8
0
  6
CONTINUOUS
 62
     2
 10
2163.42
 20
1536.6
 30
1.2
 40
18.0
  1
ＭＣＬＥ１Ｂ２－　
 50
0.0
 41
0.833333333
 51
0.0
  7
KANJI65
  0
TEXT
  8
0
  6
CONTINUOUS
 62
     2
 10
2152.92
 20
1412.7
 30
1.8
 40
18.0
  1
１００／１２０
 50
0.0
 41
0.9
 51
0.0
  7
KANJI50
  0
TEXT
  8
0
  6
CONTINUOUS
 62
     2
 10
2164.92
 20
1370.7
 30
0.0
 40
18.0
  1
１７Ｎ・ｍ（１．８ｋｇ・ｍ）
 50
0.0
 41
0.833333333
 51
0.0
  7
KANJI66
  0
TEXT
  8
0
  6
CONTINUOUS
 62
     2
 10
2155.92
 20
1202.7
 30
1.8
 40
18.0
  1
　１．５ＫＷ
 50
0.0
 41
0.9
 51
0.0
  7
KANJI50
  0
TEXT
  8
0
  6
CONTINUOUS
 62
     2
 10
1703.4319098
 20
472.1520036
 30
6.156
 40
21.6
  1
　　前後の推奨余裕寸法は、各々５０ｍｍです。
 50
0.0
 41
0.857222222
 51
0.0
  7
KANJI20
  0
TEXT
  8
0
  6
CONTINUOUS
 62
     2
 10
1861.92
 20
251.7
 30
0.0
 40
21.0
  1
ＭＣＬＥ１Ｂ２－
 50
0.0
 41
0.793650794
 51
0.0
  7
KANJI67
  0
TEXT
  8
0
  6
CONTINUOUS
 62
     2
 10
1976.7200334
 20
155.699994
 30
13.0
 40
30.0
  1
３００２７４８
 50
0.0
 41
0.8
 51
0.0
  7
KANJI68
  0
TEXT
  8
0
  6
CONTINUOUS
 62
     2
 10
1648.5200334
 20
126.899994
 30
1.8
 40
21.0
  1
０８．０８．０６
 50
0.0
 41
0.571428571
 51
0.0
  7
KANJI69
  0
TEXT
  8
0
  6
CONTINUOUS
 62
     2
 10
176.4
 20
26.4
 30
0.0
 40
18.0
  1
ＦＤ　Ｎｏ．ＭＣ２６０
 50
0.0
 41
0.9
 51
0.0
  7
KANJI70
  0
TEXT
  8
0
  6
CONTINUOUS
 62
     2
 10
1029.72
 20
1431.72
 30
0.96
 40
14.4
  1
ＭＣＬＥ１Ｂ２－　　２
 50
0.0
 41
0.833333333
 51
0.0
  7
KANJI71
  0
LINE
  8
0
  6
CONTINUOUS
 62
     1
 10
551.0
 20
715.5
 11
542.0
 21
715.5
  0
LINE
  8
0
  6
CONTINUOUS
 62
     1
 10
542.0
 20
601.5
 11
542.0
 21
715.5
  0
LINE
  8
0
  6
CONTINUOUS
 62
     1
 10
551.0
 20
601.5
 11
551.0
 21
715.5
  0
LINE
  8
0
  6
CONTINUOUS
 62
     1
 10
551.0
 20
601.5
 11
542.0
 21
601.5
  0
LINE
  8
0
  6
CONTINUOUS
 62
     1
 10
388.9
 20
605.5
 11
468.0
 21
605.5
  0
LINE
  8
0
  6
CONTINUOUS
 62
     1
 10
1276.0
 20
679.5
 11
1304.499186039
 21
682.926750938
  0
LINE
  8
0
  6
CONTINUOUS
 62
     1
 10
1312.600653599
 20
627.669872981
 11
1307.600653599
 21
636.330127019
  0
LINE
  8
0
  6
CONTINUOUS
 62
     1
 10
1404.399346401
 20
636.330127019
 11
1399.399346401
 21
627.669872981
  0
LINE
  8
0
  6
CONTINUOUS
 62
     1
 10
1307.600653599
 20
636.330127019
 11
1304.326836587
 21
634.439987886
  0
LINE
  8
0
  6
CONTINUOUS
 62
     1
 10
1312.600653599
 20
627.669872981
 11
1309.326836587
 21
625.779733848
  0
LINE
  8
0
  6
CONTINUOUS
 62
     1
 10
1276.0
 20
637.5
 11
1309.232234593
 21
633.504145841
  0
LINE
  8
0
  6
CONTINUOUS
 62
     1
 10
1311.0
 20
626.745735195
 11
1311.0
 21
630.442286341
  0
LINE
  8
0
  6
CONTINUOUS
 62
     1
 10
1311.0
 20
599.0
 11
1311.0
 21
623.514288631
  0
LINE
  8
0
  6
CONTINUOUS
 62
     1
 10
1436.0
 20
637.5
 11
1402.767765407
 21
633.504145841
  0
LINE
  8
0
  6
CONTINUOUS
 62
     1
 10
1401.0
 20
626.745735195
 11
1401.0
 21
630.442286341
  0
LINE
  8
0
  6
CONTINUOUS
 62
     1
 10
1401.0
 20
599.0
 11
1401.0
 21
623.745735195
  0
ARC
  8
0
  6
CONTINUOUS
 62
     1
 10
1356.0
 20
658.5
 40
57.0
 50
215.032413496
 51
324.967586504
  0
LINE
  8
0
  6
CONTINUOUS
 62
     1
 10
1399.399346401
 20
627.669872981
 11
1402.673163413
 21
625.779733848
  0
LINE
  8
0
  6
CONTINUOUS
 62
     1
 10
1404.399346401
 20
636.330127019
 11
1407.673163413
 21
634.439987886
  0
LINE
  8
0
  6
CONTINUOUS
 62
     1
 10
1436.0
 20
679.5
 11
1407.500813961
 21
682.926750938
  0
CIRCLE
  8
0
  6
CONTINUOUS
 62
     1
 10
1356.0
 20
658.5
 40
47.5
  0
ARC
  8
0
  6
CONTINUOUS
 62
     1
 10
1356.0
 20
658.5
 40
57.0
 50
108.388584982
 51
204.967586504
  0
ARC
  8
0
  6
CONTINUOUS
 62
     1
 10
1356.0
 20
658.5
 40
57.0
 50
335.032413496
 51
71.611415018
  0
TEXT
  8
0
  6
CONTINUOUS
 62
     2
 10
1029.72
 20
1398.12
 30
0.96
 40
14.4
  1
ＭＣＬＥ１Ｂ２－　　３
 50
0.0
 41
0.833333333
 51
0.0
  7
KANJI71
  0
TEXT
  8
0
  6
CONTINUOUS
 62
     2
 10
1029.72
 20
1364.52
 30
0.96
 40
14.4
  1
ＭＣＬＥ１Ｂ２－　　４
 50
0.0
 41
0.833333333
 51
0.0
  7
KANJI71
  0
TEXT
  8
0
  6
CONTINUOUS
 62
     2
 10
1029.72
 20
1330.92
 30
0.96
 40
14.4
  1
ＭＣＬＥ１Ｂ２－　　５
 50
0.0
 41
0.833333333
 51
0.0
  7
KANJI71
  0
TEXT
  8
0
  6
CONTINUOUS
 62
     2
 10
1029.72
 20
1297.32
 30
0.96
 40
14.4
  1
ＭＣＬＥ１Ｂ２－　　６
 50
0.0
 41
0.833333333
 51
0.0
  7
KANJI71
  0
TEXT
  8
0
  6
CONTINUOUS
 62
     2
 10
1029.72
 20
1263.72
 30
0.96
 40
14.4
  1
ＭＣＬＥ１Ｂ２－　　７
 50
0.0
 41
0.833333333
 51
0.0
  7
KANJI71
  0
TEXT
  8
0
  6
CONTINUOUS
 62
     2
 10
1029.72
 20
1230.12
 30
0.96
 40
14.4
  1
ＭＣＬＥ１Ｂ２－　　８
 50
0.0
 41
0.833333333
 51
0.0
  7
KANJI71
  0
TEXT
  8
0
  6
CONTINUOUS
 62
     2
 10
1029.72
 20
1196.52
 30
0.96
 40
14.4
  1
ＭＣＬＥ１Ｂ２－　　９
 50
0.0
 41
0.833333333
 51
0.0
  7
KANJI71
  0
TEXT
  8
0
  6
CONTINUOUS
 62
     2
 10
1029.72
 20
1162.92
 30
0.96
 40
14.4
  1
ＭＣＬＥ１Ｂ２ー　１０
 50
0.0
 41
0.833333333
 51
0.0
  7
KANJI71
  0
TEXT
  8
0
  6
CONTINUOUS
 62
     2
 10
1029.72
 20
1129.52
 30
0.96
 40
14.4
  1
ＭＣＬＥ１Ｂ２－　１１
 50
0.0
 41
0.833333333
 51
0.0
  7
KANJI71
  0
TEXT
  8
0
  6
CONTINUOUS
 62
     2
 10
1029.72
 20
1095.92
 30
0.96
 40
14.4
  1
ＭＣＬＥ１Ｂ２－　１２
 50
0.0
 41
0.833333333
 51
0.0
  7
KANJI71
  0
TEXT
  8
0
  6
CONTINUOUS
 62
     2
 10
1029.72
 20
1062.12
 30
0.96
 40
14.4
  1
ＭＣＬＥ１Ｂ２－　　
 50
0.0
 41
0.833333333
 51
0.0
  7
KANJI71
  0
TEXT
  8
0
  6
CONTINUOUS
 62
     2
 10
1525.32
 20
1432.08
 30
1.44
 40
14.4
  1
　４６０
 50
0.0
 41
0.9
 51
0.0
  7
KANJI33
  0
TEXT
  8
0
  6
CONTINUOUS
 62
     2
 10
1525.32
 20
1398.48
 30
1.44
 40
14.4
  1
　５６０
 50
0.0
 41
0.9
 51
0.0
  7
KANJI33
  0
TEXT
  8
0
  6
CONTINUOUS
 62
     2
 10
1525.32
 20
1364.88
 30
1.44
 40
14.4
  1
　６６０
 50
0.0
 41
0.9
 51
0.0
  7
KANJI33
  0
TEXT
  8
0
  6
CONTINUOUS
 62
     2
 10
1525.32
 20
1331.28
 30
1.44
 40
14.4
  1
　７６０
 50
0.0
 41
0.9
 51
0.0
  7
KANJI33
  0
TEXT
  8
0
  6
CONTINUOUS
 62
     2
 10
1525.32
 20
1297.68
 30
1.44
 40
14.4
  1
　９００
 50
0.0
 41
0.9
 51
0.0
  7
KANJI33
  0
TEXT
  8
0
  6
CONTINUOUS
 62
     2
 10
1525.32
 20
1264.08
 30
1.44
 40
14.4
  1
１０００
 50
0.0
 41
0.9
 51
0.0
  7
KANJI33
  0
TEXT
  8
0
  6
CONTINUOUS
 62
     2
 10
1525.32
 20
1230.48
 30
1.44
 40
14.4
  1
１１００
 50
0.0
 41
0.9
 51
0.0
  7
KANJI33
  0
TEXT
  8
0
  6
CONTINUOUS
 62
     2
 10
1525.32
 20
1196.88
 30
1.44
 40
14.4
  1
１２００
 50
0.0
 41
0.9
 51
0.0
  7
KANJI33
  0
TEXT
  8
0
  6
CONTINUOUS
 62
     2
 10
1525.32
 20
1163.28
 30
1.44
 40
14.4
  1
１３００
 50
0.0
 41
0.9
 51
0.0
  7
KANJI33
  0
TEXT
  8
0
  6
CONTINUOUS
 62
     2
 10
1525.32
 20
1129.88
 30
1.44
 40
14.4
  1
１４００
 50
0.0
 41
0.9
 51
0.0
  7
KANJI33
  0
TEXT
  8
0
  6
CONTINUOUS
 62
     2
 10
1525.32
 20
1096.28
 30
1.44
 40
14.4
  1
１５００
 50
0.0
 41
0.9
 51
0.0
  7
KANJI33
  0
TEXT
  8
0
  6
CONTINUOUS
 62
     2
 10
1429.32
 20
1432.08
 30
1.44
 40
14.4
  1
　５５５
 50
0.0
 41
0.9
 51
0.0
  7
KANJI33
  0
TEXT
  8
0
  6
CONTINUOUS
 62
     2
 10
1429.32
 20
1398.48
 30
1.44
 40
14.4
  1
　６５５
 50
0.0
 41
0.9
 51
0.0
  7
KANJI33
  0
TEXT
  8
0
  6
CONTINUOUS
 62
     2
 10
1429.32
 20
1364.88
 30
1.44
 40
14.4
  1
　７５５
 50
0.0
 41
0.9
 51
0.0
  7
KANJI33
  0
TEXT
  8
0
  6
CONTINUOUS
 62
     2
 10
1429.32
 20
1331.28
 30
1.44
 40
14.4
  1
　８５５
 50
0.0
 41
0.9
 51
0.0
  7
KANJI33
  0
TEXT
  8
0
  6
CONTINUOUS
 62
     2
 10
1429.32
 20
1297.68
 30
1.44
 40
14.4
  1
　９９５
 50
0.0
 41
0.9
 51
0.0
  7
KANJI33
  0
TEXT
  8
0
  6
CONTINUOUS
 62
     2
 10
1429.32
 20
1264.08
 30
1.44
 40
14.4
  1
１０９５
 50
0.0
 41
0.9
 51
0.0
  7
KANJI33
  0
TEXT
  8
0
  6
CONTINUOUS
 62
     2
 10
1429.32
 20
1230.48
 30
1.44
 40
14.4
  1
１１９５
 50
0.0
 41
0.9
 51
0.0
  7
KANJI33
  0
TEXT
  8
0
  6
CONTINUOUS
 62
     2
 10
1429.32
 20
1196.88
 30
1.44
 40
14.4
  1
１２９５
 50
0.0
 41
0.9
 51
0.0
  7
KANJI33
  0
TEXT
  8
0
  6
CONTINUOUS
 62
     2
 10
1429.32
 20
1163.28
 30
1.44
 40
14.4
  1
１３９５
 50
0.0
 41
0.9
 51
0.0
  7
KANJI33
  0
TEXT
  8
0
  6
CONTINUOUS
 62
     2
 10
1429.32
 20
1129.88
 30
1.44
 40
14.4
  1
１４９５
 50
0.0
 41
0.9
 51
0.0
  7
KANJI33
  0
TEXT
  8
0
  6
CONTINUOUS
 62
     2
 10
1429.32
 20
1096.28
 30
1.44
 40
14.4
  1
１５９５
 50
0.0
 41
0.9
 51
0.0
  7
KANJI33
  0
TEXT
  8
0
  6
CONTINUOUS
 62
     2
 10
1333.32
 20
1432.08
 30
1.44
 40
14.4
  1
　７０１
 50
0.0
 41
0.9
 51
0.0
  7
KANJI33
  0
TEXT
  8
0
  6
CONTINUOUS
 62
     2
 10
1333.32
 20
1398.48
 30
1.44
 40
14.4
  1
　８０１
 50
0.0
 41
0.9
 51
0.0
  7
KANJI33
  0
TEXT
  8
0
  6
CONTINUOUS
 62
     2
 10
1333.32
 20
1364.88
 30
1.44
 40
14.4
  1
　９０１
 50
0.0
 41
0.9
 51
0.0
  7
KANJI33
  0
TEXT
  8
0
  6
CONTINUOUS
 62
     2
 10
1333.32
 20
1331.28
 30
1.44
 40
14.4
  1
１００１
 50
0.0
 41
0.9
 51
0.0
  7
KANJI33
  0
TEXT
  8
0
  6
CONTINUOUS
 62
     2
 10
1333.32
 20
1297.68
 30
1.44
 40
14.4
  1
１１４１
 50
0.0
 41
0.9
 51
0.0
  7
KANJI33
  0
TEXT
  8
0
  6
CONTINUOUS
 62
     2
 10
1333.32
 20
1264.08
 30
1.44
 40
14.4
  1
１２４１
 50
0.0
 41
0.9
 51
0.0
  7
KANJI33
  0
TEXT
  8
0
  6
CONTINUOUS
 62
     2
 10
1333.32
 20
1230.48
 30
1.44
 40
14.4
  1
１３４１
 50
0.0
 41
0.9
 51
0.0
  7
KANJI33
  0
TEXT
  8
0
  6
CONTINUOUS
 62
     2
 10
1333.32
 20
1196.88
 30
1.44
 40
14.4
  1
１４４１
 50
0.0
 41
0.9
 51
0.0
  7
KANJI33
  0
TEXT
  8
0
  6
CONTINUOUS
 62
     2
 10
1333.32
 20
1163.28
 30
1.44
 40
14.4
  1
１５４１
 50
0.0
 41
0.9
 51
0.0
  7
KANJI33
  0
TEXT
  8
0
  6
CONTINUOUS
 62
     2
 10
1333.32
 20
1129.88
 30
1.44
 40
14.4
  1
１６４１
 50
0.0
 41
0.9
 51
0.0
  7
KANJI33
  0
TEXT
  8
0
  6
CONTINUOUS
 62
     2
 10
1333.32
 20
1096.28
 30
1.44
 40
14.4
  1
１７４１
 50
0.0
 41
0.9
 51
0.0
  7
KANJI33
  0
LINE
  8
0
  6
LTYPE3
 62
     2
 10
1356.0
 20
538.5
 11
1356.0
 21
1017.84
  0
LINE
  8
0
  6
CONTINUOUS
 62
     1
 10
540.0
 20
600.5
 11
540.0
 21
605.5
  0
LINE
  8
0
  6
CONTINUOUS
 62
     1
 10
542.0
 20
605.5
 11
540.0
 21
605.5
  0
TEXT
  8
0
  6
CONTINUOUS
 62
     2
 10
1717.32
 20
1432.08
 30
1.44
 40
14.4
  1
　７７
 50
0.0
 41
0.9
 51
0.0
  7
KANJI33
  0
TEXT
  8
0
  6
CONTINUOUS
 62
     2
 10
1717.32
 20
1398.48
 30
1.44
 40
14.4
  1
　７９
 50
0.0
 41
0.9
 51
0.0
  7
KANJI33
  0
TEXT
  8
0
  6
CONTINUOUS
 62
     2
 10
1717.32
 20
1364.88
 30
1.44
 40
14.4
  1
　８１
 50
0.0
 41
0.9
 51
0.0
  7
KANJI33
  0
TEXT
  8
0
  6
CONTINUOUS
 62
     2
 10
1717.32
 20
1331.28
 30
1.44
 40
14.4
  1
　８４
 50
0.0
 41
0.9
 51
0.0
  7
KANJI33
  0
TEXT
  8
0
  6
CONTINUOUS
 62
     2
 10
1717.32
 20
1297.68
 30
1.44
 40
14.4
  1
　８７
 50
0.0
 41
0.9
 51
0.0
  7
KANJI33
  0
TEXT
  8
0
  6
CONTINUOUS
 62
     2
 10
1717.32
 20
1264.08
 30
1.44
 40
14.4
  1
　８９
 50
0.0
 41
0.9
 51
0.0
  7
KANJI33
  0
TEXT
  8
0
  6
CONTINUOUS
 62
     2
 10
1717.32
 20
1230.48
 30
1.44
 40
14.4
  1
　９１
 50
0.0
 41
0.9
 51
0.0
  7
KANJI33
  0
TEXT
  8
0
  6
CONTINUOUS
 62
     2
 10
1717.32
 20
1196.88
 30
1.44
 40
14.4
  1
　９２
 50
0.0
 41
0.9
 51
0.0
  7
KANJI33
  0
TEXT
  8
0
  6
CONTINUOUS
 62
     2
 10
1717.32
 20
1163.28
 30
1.44
 40
14.4
  1
　９４
 50
0.0
 41
0.9
 51
0.0
  7
KANJI33
  0
TEXT
  8
0
  6
CONTINUOUS
 62
     2
 10
1717.32
 20
1129.88
 30
1.44
 40
14.4
  1
　９６
 50
0.0
 41
0.9
 51
0.0
  7
KANJI33
  0
TEXT
  8
0
  6
CONTINUOUS
 62
     2
 10
1717.32
 20
1096.28
 30
1.44
 40
14.4
  1
　９８
 50
0.0
 41
0.9
 51
0.0
  7
KANJI33
  0
LINE
  8
0
  6
CONTINUOUS
 62
     1
 10
370.0
 20
712.7
 11
370.0
 21
912.7
  0
LINE
  8
0
  6
CONTINUOUS
 62
     1
 10
382.0
 20
895.47572809
 11
434.672135955
 21
895.47572809
  0
LINE
  8
0
  6
CONTINUOUS
 62
     1
 10
384.5
 20
871.136
 11
384.5
 21
880.936
  0
LINE
  8
0
  6
CONTINUOUS
 62
     1
 10
384.5
 20
880.936
 11
390.114359354
 21
880.936
  0
LINE
  8
0
  6
CONTINUOUS
 62
     1
 10
391.5
 20
878.536
 11
390.114359354
 21
880.936
  0
LINE
  8
0
  6
CONTINUOUS
 62
     1
 10
391.5
 20
871.136
 11
391.5
 21
878.536
  0
LINE
  8
0
  6
CONTINUOUS
 62
     1
 10
384.5
 20
876.036
 11
390.114359354
 21
876.036
  0
LINE
  8
0
  6
CONTINUOUS
 62
     1
 10
384.5
 20
871.136
 11
384.5
 21
861.336
  0
LINE
  8
0
  6
CONTINUOUS
 62
     1
 10
384.5
 20
861.336
 11
390.114359354
 21
861.336
  0
LINE
  8
0
  6
CONTINUOUS
 62
     1
 10
391.5
 20
863.736
 11
390.114359354
 21
861.336
  0
LINE
  8
0
  6
CONTINUOUS
 62
     1
 10
391.5
 20
871.136
 11
391.5
 21
863.736
  0
LINE
  8
0
  6
CONTINUOUS
 62
     1
 10
384.5
 20
866.236
 11
390.114359354
 21
866.236
  0
ARC
  8
0
  6
CONTINUOUS
 62
     1
 10
382.1433172
 20
871.136
 40
9.3566828
 50
328.419912243
 51
31.580087757
  0
ARC
  8
0
  6
CONTINUOUS
 62
     1
 10
388.642116168
 20
878.486
 40
2.858321186
 50
301.002313915
 51
2.989498403
  0
LINE
  8
0
  6
CONTINUOUS
 62
     1
 10
391.5
 20
863.736
 11
390.114359354
 21
861.336
  0
ARC
  8
0
  6
CONTINUOUS
 62
     1
 10
388.642116168
 20
863.786
 40
2.858321186
 50
357.010501597
 51
58.997686085
  0
LINE
  8
0
  6
CONTINUOUS
 62
     1
 10
382.0
 20
880.336
 11
384.5
 21
880.336
  0
LINE
  8
0
  6
CONTINUOUS
 62
     1
 10
382.0
 20
871.136
 11
384.499999996
 21
873.635999996
  0
LINE
  8
0
  6
CONTINUOUS
 62
     1
 10
384.499999996
 20
871.136
 11
382.0
 21
868.636000004
  0
LINE
  8
0
  6
CONTINUOUS
 62
     1
 10
382.0
 20
861.936
 11
384.5
 21
861.936
  0
LINE
  8
0
  6
CONTINUOUS
 62
     1
 10
592.0
 20
872.8
 11
445.0
 21
872.8
  0
LINE
  8
0
  6
CONTINUOUS
 62
     1
 10
592.0
 20
852.8
 11
445.0
 21
852.8
  0
LINE
  8
0
  6
CONTINUOUS
 62
     1
 10
382.0
 20
712.8
 11
382.0
 21
912.8
  0
LINE
  8
0
  6
CONTINUOUS
 62
     1
 10
592.0
 20
892.8
 11
445.0
 21
892.8
  0
LINE
  8
0
  6
CONTINUOUS
 62
     1
 10
563.5
 20
914.8
 11
473.5
 21
914.8
  0
LINE
  8
0
  6
CONTINUOUS
 62
     1
 10
602.0
 20
903.5
 11
435.0
 21
903.5
  0
LINE
  8
0
  6
CONTINUOUS
 62
     1
 10
435.0
 20
722.1
 11
435.0
 21
903.5
  0
LINE
  8
0
  6
LTYPE3
 62
     2
 10
374.5
 20
871.136
 11
400.114359354
 21
871.136
  0
LINE
  8
0
  6
CONTINUOUS
 62
     1
 10
382.0
 20
912.8
 11
370.0
 21
912.8
  0
LINE
  8
0
  6
CONTINUOUS
 62
     1
 10
602.0
 20
710.3
 11
602.0
 21
915.3
  0
ARC
  8
0
  6
CONTINUOUS
 62
     1
 10
310.0
 20
812.8
 40
410.0
 50
347.629566941
 51
12.370433059
  0
LINE
  8
2
  6
CONTINUOUS
 62
     2
 10
775.519226439
 20
710.3
 11
775.519226439
 21
915.3
  0
LINE
  8
2
  6
CONTINUOUS
 62
     2
 10
732.675628035
 20
809.654967949
 11
790.4
 21
974.0
  0
LINE
  8
2
  6
CONTINUOUS
 62
     2
 10
740.0
 20
811.2
 11
740.0
 21
1063.2
  0
TEXT
  8
2
  6
CONTINUOUS
 62
     3
 10
770.519226439
 20
778.55
 30
1.5
 40
17.5
  1
φ２０５
 50
90.0
 41
0.914285714
 51
0.0
  7
KANJI72
  0
ARC
  8
0
  6
CONTINUOUS
 62
     1
 10
709.874980463
 20
822.8
 40
10.0
 50
1.432543738
 51
90.0
  0
LINE
  8
0
  6
CONTINUOUS
 62
     1
 10
709.874999151
 20
832.8
 11
602.0
 21
832.8
  0
LINE
  8
2
  6
CONTINUOUS
 62
     2
 10
740.0
 20
831.2
 11
740.0
 21
1032.64
  0
LINE
  8
0
  6
CONTINUOUS
 62
     1
 10
592.0
 20
832.8
 11
445.0
 21
832.8
  0
LINE
  8
0
  6
CONTINUOUS
 62
     1
 10
608.5
 20
925.8
 11
608.5
 21
965.8
  0
LINE
  8
0
  6
CONTINUOUS
 62
     1
 10
589.5
 20
1000.8
 11
441.5
 21
926.8
  0
LINE
  8
0
  6
CONTINUOUS
 62
     1
 10
593.972135955
 20
991.85572809
 11
445.972135955
 21
917.85572809
  0
ARC
  8
0
  6
CONTINUOUS
 62
     1
 10
563.5
 20
924.8
 40
10.0
 50
270.0
 51
0.0
  0
ARC
  8
0
  6
CONTINUOUS
 62
     1
 10
473.5
 20
924.8
 40
10.0
 50
180.0
 51
270.0
  0
LINE
  8
0
  6
CONTINUOUS
 62
     1
 10
441.5
 20
926.8
 11
445.972135955
 21
917.85572809
  0
LINE
  8
0
  6
CONTINUOUS
 62
     1
 10
463.5
 20
924.8
 11
463.5
 21
926.71572809
  0
LINE
  8
0
  6
CONTINUOUS
 62
     1
 10
573.5
 20
924.8
 11
573.5
 21
980.71572809
  0
LINE
  8
0
  6
CONTINUOUS
 62
     1
 10
608.5
 20
925.8
 11
573.5
 21
925.8
  0
LINE
  8
0
  6
CONTINUOUS
 62
     1
 10
602.0
 20
912.8
 11
697.814388593
 21
912.8
  0
ARC
  8
0
  6
CONTINUOUS
 62
     1
 10
695.814388593
 20
897.8
 40
15.0
 50
10.945397096
 51
90.0
  0
ARC
  8
0
  6
CONTINUOUS
 62
     1
 10
695.923513917
 20
900.493940371
 40
15.0
 50
10.945397096
 51
90.0
  0
LINE
  8
0
  6
CONTINUOUS
 62
     1
 10
602.0
 20
915.3
 11
697.814388593
 21
915.3
  0
LINE
  8
0
  6
CONTINUOUS
 62
     1
 10
553.4
 20
914.8
 11
553.4
 21
903.5
  0
LINE
  8
0
  6
CONTINUOUS
 62
     1
 10
483.6
 20
914.8
 11
483.6
 21
903.5
  0
LINE
  8
2
  6
CONTINUOUS
 62
     2
 10
775.519226439
 20
915.3
 11
772.283988375
 21
903.225927171
  0
LINE
  8
2
  6
CONTINUOUS
 62
     2
 10
775.519226439
 20
915.3
 11
778.754464503
 21
903.225927171
  0
LINE
  8
2
  6
CONTINUOUS
 62
     2
 10
696.519226439
 20
915.3
 11
785.519226439
 21
915.3
  0
LINE
  8
0
  6
LTYPE3
 62
     2
 10
518.5
 20
901.55
 11
518.5
 21
1010.6
  0
TEXT
  8
2
  6
CONTINUOUS
 62
     3
 10
529.5
 20
1058.2
 30
1.5
 40
17.5
  1
３７０
 50
0.0
 41
0.914285714
 51
0.0
  7
KANJI72
  0
ARC
  8
0
  6
CONTINUOUS
 62
     1
 10
563.5
 20
990.8
 40
10.0
 50
0.0
 51
90.0
  0
LINE
  8
0
  6
CONTINUOUS
 62
     1
 10
563.5
 20
1000.8
 11
473.5
 21
1000.8
  0
ARC
  8
0
  6
CONTINUOUS
 62
     1
 10
473.5
 20
990.8
 40
10.0
 50
90.0
 51
180.0
  0
LINE
  8
0
  6
CONTINUOUS
 62
     1
 10
463.5
 20
937.71572809
 11
463.5
 21
990.8
  0
LINE
  8
0
  6
CONTINUOUS
 62
     1
 10
589.712135955
 20
1001.59572809
 11
594.512135955
 21
992.39572809
  0
LINE
  8
0
  6
CONTINUOUS
 62
     1
 10
608.5
 20
965.8
 11
573.5
 21
965.8
  0
TEXT
  8
2
  6
CONTINUOUS
 62
     3
 10
618.0
 20
1004.2
 30
1.5
 40
17.5
  1
ＰＦ３／４
 50
0.0
 41
0.914285714
 51
0.0
  7
KANJI72
  0
LINE
  8
2
  6
CONTINUOUS
 62
     2
 10
618.0
 20
996.2
 11
735.6
 21
996.2
  0
LINE
  8
2
  6
CONTINUOUS
 62
     2
 10
370.0
 20
1053.2
 11
740.0
 21
1053.2
  0
LINE
  8
2
  6
CONTINUOUS
 62
     2
 10
740.0
 20
1053.2
 11
727.925927171
 21
1056.435238064
  0
LINE
  8
2
  6
CONTINUOUS
 62
     2
 10
740.0
 20
1053.2
 11
727.925927171
 21
1049.964761936
  0
LINE
  8
2
  6
CONTINUOUS
 62
     2
 10
609.5
 20
952.2
 11
618.246652882
 21
970.185996313
  0
LINE
  8
2
  6
CONTINUOUS
 62
     2
 10
609.5
 20
952.2
 11
608.081825437
 21
972.14965616
  0
LINE
  8
2
  6
CONTINUOUS
 62
     2
 10
609.5
 20
952.2
 11
618.0
 21
996.2
  0
LINE
  8
2
  6
CONTINUOUS
 62
     2
 10
370.0
 20
1053.2
 11
382.074072829
 21
1049.964761936
  0
LINE
  8
2
  6
CONTINUOUS
 62
     2
 10
370.0
 20
1053.2
 11
382.074072829
 21
1056.435238064
  0
LINE
  8
0
  6
LTYPE3
 62
     2
 10
614.652135955
 20
945.8
 11
563.552135955
 21
945.8
  0
TEXT
  8
0
  6
CONTINUOUS
 62
     2
 10
791.9
 20
979.0
 30
0.0
 40
18.0
  1
手動開放装置
 50
0.0
 41
0.9
 51
0.0
  7
KANJI17
  0
LINE
  8
0
  6
CONTINUOUS
 62
     2
 10
790.4
 20
974.0
 11
891.0
 21
974.0
  0
LINE
  8
0
  6
CONTINUOUS
 62
     1
 10
382.0
 20
730.12427191
 11
434.672135955
 21
730.12427191
  0
LINE
  8
0
  6
CONTINUOUS
 62
     1
 10
384.5
 20
754.464
 11
384.5
 21
744.664
  0
LINE
  8
0
  6
CONTINUOUS
 62
     1
 10
384.5
 20
744.664
 11
390.114359354
 21
744.664
  0
LINE
  8
0
  6
CONTINUOUS
 62
     1
 10
391.5
 20
747.064
 11
390.114359354
 21
744.664
  0
LINE
  8
0
  6
CONTINUOUS
 62
     1
 10
391.5
 20
754.464
 11
391.5
 21
747.064
  0
LINE
  8
0
  6
CONTINUOUS
 62
     1
 10
384.5
 20
749.564
 11
390.114359354
 21
749.564
  0
LINE
  8
0
  6
CONTINUOUS
 62
     1
 10
384.5
 20
754.464
 11
384.5
 21
764.264
  0
LINE
  8
0
  6
CONTINUOUS
 62
     1
 10
384.5
 20
764.264
 11
390.114359354
 21
764.264
  0
LINE
  8
0
  6
CONTINUOUS
 62
     1
 10
391.5
 20
761.864
 11
390.114359354
 21
764.264
  0
LINE
  8
0
  6
CONTINUOUS
 62
     1
 10
391.5
 20
754.464
 11
391.5
 21
761.864
  0
LINE
  8
0
  6
CONTINUOUS
 62
     1
 10
384.5
 20
759.364
 11
390.114359354
 21
759.364
  0
ARC
  8
0
  6
CONTINUOUS
 62
     1
 10
382.1433172
 20
754.464
 40
9.3566828
 50
328.419912243
 51
31.580087757
  0
ARC
  8
0
  6
CONTINUOUS
 62
     1
 10
388.642116168
 20
747.114
 40
2.858321186
 50
357.010501597
 51
58.997686085
  0
LINE
  8
0
  6
CONTINUOUS
 62
     1
 10
391.5
 20
761.864
 11
390.114359354
 21
764.264
  0
ARC
  8
0
  6
CONTINUOUS
 62
     1
 10
388.642116168
 20
761.814
 40
2.858321186
 50
301.002313915
 51
2.989498403
  0
LINE
  8
0
  6
CONTINUOUS
 62
     1
 10
382.0
 20
745.264
 11
384.5
 21
745.264
  0
LINE
  8
0
  6
CONTINUOUS
 62
     1
 10
382.0
 20
754.464
 11
384.499999996
 21
751.964000004
  0
LINE
  8
0
  6
CONTINUOUS
 62
     1
 10
384.499999996
 20
754.464
 11
382.0
 21
756.963999996
  0
LINE
  8
0
  6
CONTINUOUS
 62
     1
 10
382.0
 20
763.664
 11
384.5
 21
763.664
  0
LINE
  8
0
  6
CONTINUOUS
 62
     1
 10
592.0
 20
792.8
 11
445.0
 21
792.8
  0
LINE
  8
0
  6
CONTINUOUS
 62
     1
 10
592.0
 20
772.8
 11
445.0
 21
772.8
  0
LINE
  8
0
  6
CONTINUOUS
 62
     1
 10
592.0
 20
752.8
 11
445.0
 21
752.8
  0
LINE
  8
0
  6
CONTINUOUS
 62
     1
 10
592.0
 20
732.8
 11
445.0
 21
732.8
  0
LINE
  8
0
  6
CONTINUOUS
 62
     1
 10
602.0
 20
792.8
 11
710.374999151
 21
792.8
  0
LINE
  8
0
  6
CONTINUOUS
 62
     1
 10
602.0
 20
722.1
 11
435.0
 21
722.1
  0
LINE
  8
0
  6
CONTINUOUS
 62
     1
 10
602.0
 20
712.8
 11
697.814388593
 21
712.8
  0
LINE
  8
0
  6
LTYPE3
 62
     2
 10
374.5
 20
754.464
 11
400.114359354
 21
754.464
  0
LINE
  8
0
  6
CONTINUOUS
 62
     1
 10
382.0
 20
712.8
 11
370.0
 21
712.8
  0
TEXT
  8
0
  6
CONTINUOUS
 62
     2
 10
446.190009455
 20
795.35
 30
0.0
 40
16.8
  1
日本電産
 50
0.0
 41
0.964285714
 51
0.0
  7
KANJI73
  0
TEXT
  8
0
  6
CONTINUOUS
 62
     2
 10
446.190009455
 20
773.35
 30
0.0
 40
16.8
  1
クイックブレーキモータ
 50
0.0
 41
0.821428571
 51
0.0
  7
KANJI74
  0
ARC
  8
0
  6
CONTINUOUS
 62
     1
 10
695.814388593
 20
727.8
 40
15.0
 50
270.0
 51
349.054602904
  0
ARC
  8
0
  6
CONTINUOUS
 62
     1
 10
695.923513917
 20
725.106059629
 40
15.0
 50
270.0
 51
349.054602904
  0
LINE
  8
0
  6
CONTINUOUS
 62
     1
 10
602.0
 20
710.3
 11
697.814388593
 21
710.3
  0
LINE
  8
2
  6
CONTINUOUS
 62
     2
 10
695.519226439
 20
710.3
 11
785.519226439
 21
710.3
  0
LINE
  8
0
  6
CONTINUOUS
 62
     1
 10
726.741517274
 20
828.748101266
 11
726.741517274
 21
759.748101266
  0
POINT
  8
0
  6
CONTINUOUS
 62
     1
 10
726.741517274
 20
759.748101266
  0
LINE
  8
0
  6
CONTINUOUS
 62
     1
 10
726.741517274
 20
759.748101266
 11
731.741517274
 21
759.748101266
  0
POINT
  8
0
  6
CONTINUOUS
 62
     1
 10
731.741517274
 20
759.748101266
  0
LINE
  8
0
  6
CONTINUOUS
 62
     1
 10
731.741517274
 20
759.748101266
 11
731.741517274
 21
828.748101266
  0
LINE
  8
0
  6
CONTINUOUS
 62
     1
 10
737.141517274
 20
772.55
 11
737.141517274
 21
763.75
  0
POINT
  8
0
  6
CONTINUOUS
 62
     1
 10
737.141517274
 20
763.75
  0
LINE
  8
0
  6
CONTINUOUS
 62
     1
 10
737.141517274
 20
763.75
 11
731.841517274
 21
763.75
  0
LINE
  8
0
  6
CONTINUOUS
 62
     1
 10
726.741517274
 20
769.75
 11
717.841517274
 21
769.75
  0
LINE
  8
0
  6
CONTINUOUS
 62
     1
 10
726.741517274
 20
766.65
 11
717.541517274
 21
766.65
  0
LINE
  8
0
  6
LTYPE3
 62
     2
 10
712.841517274
 20
768.25
 11
742.841517274
 21
768.25
  0
LINE
  8
2
  6
CONTINUOUS
 62
     2
 10
775.519226439
 20
710.3
 11
778.754464503
 21
722.374072829
  0
LINE
  8
2
  6
CONTINUOUS
 62
     2
 10
775.519226439
 20
710.3
 11
772.283988375
 21
722.374072829
  0
LINE
  8
2
  6
CONTINUOUS
 62
     2
 10
732.675628035
 20
809.654967949
 11
739.729299494
 21
819.974644249
  0
LINE
  8
2
  6
CONTINUOUS
 62
     2
 10
732.675628035
 20
809.654967949
 11
733.624448559
 21
822.118905513
  0
LINE
  8
0
  6
CONTINUOUS
 62
     1
 10
736.541517274
 20
796.851898734
 11
736.541517274
 21
828.748101266
  0
LINE
  8
0
  6
CONTINUOUS
 62
     1
 10
731.741517274
 20
796.851898734
 11
736.541517274
 21
796.851898734
  0
LINE
  8
0
  6
CONTINUOUS
 62
     1
 10
726.741517274
 20
808.6
 11
720.041517274
 21
808.6
  0
LINE
  8
0
  6
CONTINUOUS
 62
     1
 10
731.741517274
 20
772.55
 11
737.141517274
 21
772.55
  0
POINT
  8
0
  6
CONTINUOUS
 62
     1
 10
737.141517274
 20
772.55
  0
LINE
  8
0
  6
CONTINUOUS
 62
     1
 10
736.541517274
 20
799.4
 11
740.0
 21
799.4
  0
LINE
  8
0
  6
CONTINUOUS
 62
     1
 10
740.0
 20
799.4
 11
740.0
 21
804.0
  0
LINE
  8
0
  6
CONTINUOUS
 62
     1
 10
736.541517274
 20
804.0
 11
740.0
 21
804.0
  0
LINE
  8
0
  6
CONTINUOUS
 62
     1
 10
736.541517274
 20
810.5
 11
740.0
 21
810.5
  0
LINE
  8
0
  6
CONTINUOUS
 62
     1
 10
740.0
 20
810.5
 11
740.0
 21
815.1
  0
ARC
  8
0
  6
CONTINUOUS
 62
     1
 10
709.874980463
 20
802.8
 40
10.0
 50
270.0
 51
358.567456262
  0
LINE
  8
0
  6
CONTINUOUS
 62
     1
 10
726.741517274
 20
828.748101266
 11
736.541517274
 21
828.748101266
  0
LINE
  8
0
  6
CONTINUOUS
 62
     1
 10
736.541517274
 20
826.2
 11
740.0
 21
826.2
  0
LINE
  8
0
  6
CONTINUOUS
 62
     1
 10
740.0
 20
826.2
 11
740.0
 21
821.6
  0
LINE
  8
0
  6
CONTINUOUS
 62
     1
 10
736.541517274
 20
821.6
 11
740.0
 21
821.6
  0
LINE
  8
0
  6
CONTINUOUS
 62
     1
 10
726.741517274
 20
817.0
 11
720.041517274
 21
817.0
  0
LINE
  8
0
  6
CONTINUOUS
 62
     1
 10
736.541517274
 20
815.1
 11
740.0
 21
815.1
  0
LINE
  8
0
  6
CONTINUOUS
 62
     1
 10
360.0
 20
908.5
 11
326.0
 21
908.5
  0
LINE
  8
0
  6
CONTINUOUS
 62
     1
 10
360.0
 20
712.7
 11
360.0
 21
908.5
  0
LINE
  8
0
  6
CONTINUOUS
 62
     1
 10
370.0
 20
907.5
 11
360.0
 21
907.5
  0
LINE
  8
0
  6
CONTINUOUS
 62
     1
 10
370.0
 20
719.5
 11
360.0
 21
719.5
  0
LINE
  8
0
  6
CONTINUOUS
 62
     2
 10
360.0
 20
1008.2
 11
360.0
 21
1059.2
  0
LINE
  8
0
  6
CONTINUOUS
 62
     2
 10
360.0
 20
1053.2
 11
345.511112606
 21
1057.082285677
  0
LINE
  8
0
  6
CONTINUOUS
 62
     2
 10
360.0
 20
1053.2
 11
345.511112606
 21
1049.317714323
  0
LINE
  8
0
  6
CONTINUOUS
 62
     2
 10
337.5
 20
1053.2
 11
360.0
 21
1053.2
  0
LINE
  8
0
  6
CONTINUOUS
 62
     2
 10
360.0
 20
1053.2
 11
370.0
 21
1053.2
  0
LINE
  8
0
  6
CONTINUOUS
 62
     2
 10
370.0
 20
1053.2
 11
392.5
 21
1053.2
  0
LINE
  8
0
  6
CONTINUOUS
 62
     2
 10
370.0
 20
1053.2
 11
384.488887394
 21
1049.317714323
  0
LINE
  8
0
  6
CONTINUOUS
 62
     2
 10
370.0
 20
1053.2
 11
384.488887394
 21
1057.082285677
  0
LINE
  8
0
  6
CONTINUOUS
 62
     2
 10
370.0
 20
918.8
 11
370.0
 21
1059.2
  0
TEXT
  8
0
  6
CONTINUOUS
 62
     3
 10
348.8
 20
1056.2
 30
0.0
 40
18.0
  1
１０
 50
0.0
 41
0.9
 51
0.0
  7
KANJI17
  0
TEXT
  8
0
  6
CONTINUOUS
 62
     6
 10
153.19234898
 20
1353.165383027
 30
1.82231734
 40
18.223173404
  1
クイックブレーキモータ
 50
0.0
 41
0.66671875
 51
0.0
  7
KANJI75
  0
CIRCLE
  8
0
  6
CONTINUOUS
 62
     6
 10
197.633781323
 20
1291.198025404
 40
21.6
  0
TEXT
  8
0
  6
CONTINUOUS
 62
     6
 10
188.561781323
 20
1280.830025404
 30
2.16
 40
21.6
  1
Ｍ
 50
0.0
 41
0.9
 51
0.0
  7
KANJI76
  0
LINE
  8
0
  6
CONTINUOUS
 62
     6
 10
169.121781323
 20
1260.958025404
 11
182.513781323
 21
1276.510025404
  0
LINE
  8
0
  6
CONTINUOUS
 62
     6
 10
169.121781323
 20
1321.438025404
 11
182.513781323
 21
1305.886025404
  0
CIRCLE
  8
0
  6
CONTINUOUS
 62
     6
 10
144.497781323
 20
1321.438025404
 40
5.184
  0
LINE
  8
0
  6
CONTINUOUS
 62
     6
 10
138.541885208
 20
1315.482129288
 11
150.637885208
 21
1327.578129288
  0
CIRCLE
  8
0
  6
CONTINUOUS
 62
     6
 10
144.497781323
 20
1291.198025404
 40
5.184
  0
LINE
  8
0
  6
CONTINUOUS
 62
     6
 10
138.541885208
 20
1285.242129288
 11
150.637885208
 21
1297.338129288
  0
CIRCLE
  8
0
  6
CONTINUOUS
 62
     6
 10
144.497781323
 20
1260.958025404
 40
5.184
  0
LINE
  8
0
  6
CONTINUOUS
 62
     6
 10
138.541885208
 20
1255.002129288
 11
150.637885208
 21
1267.098129288
  0
LINE
  8
0
  6
CONTINUOUS
 62
     6
 10
169.121781323
 20
1321.438025404
 11
149.681781323
 21
1321.438025404
  0
LINE
  8
0
  6
CONTINUOUS
 62
     6
 10
176.465781323
 20
1291.198025404
 11
149.681781323
 21
1291.198025404
  0
LINE
  8
0
  6
CONTINUOUS
 62
     6
 10
169.121781323
 20
1260.958025404
 11
149.681781323
 21
1260.958025404
  0
LINE
  8
0
  6
LTYPE3
 62
     6
 10
144.497781323
 20
1344.766025404
 11
144.497781323
 21
1325.326025404
  0
LINE
  8
0
  6
LTYPE3
 62
     6
 10
144.497781323
 20
1316.686025404
 11
144.497781323
 21
1295.086025404
  0
LINE
  8
0
  6
LTYPE3
 62
     6
 10
144.497781323
 20
1286.446025404
 11
144.497781323
 21
1265.278025404
  0
TEXT
  8
0
  6
CONTINUOUS
 62
     6
 10
123.713781323
 20
1328.782025404
 30
1.296
 40
12.96
  1
Ｕ
 50
0.0
 41
0.9
 51
0.0
  7
KANJI77
  0
TEXT
  8
0
  6
CONTINUOUS
 62
     6
 10
125.009781323
 20
1298.110025404
 30
1.296
 40
12.96
  1
Ｖ
 50
0.0
 41
0.9
 51
0.0
  7
KANJI77
  0
TEXT
  8
0
  6
CONTINUOUS
 62
     6
 10
126.305781323
 20
1267.438025404
 30
1.296
 40
12.96
  1
Ｗ
 50
0.0
 41
0.9
 51
0.0
  7
KANJI77
  0
LINE
  8
0
  6
LTYPE3
 62
     6
 10
299.057781323
 20
1344.766025404
 11
144.497781323
 21
1344.766025404
  0
TEXT
  8
0
  6
CONTINUOUS
 62
     6
 10
228.737781323
 20
1281.413225404
 30
1.728
 40
17.28
  1
Ｂ
 50
0.0
 41
0.9
 51
0.0
  7
KANJI78
  0
CIRCLE
  8
0
  6
CONTINUOUS
 62
     6
 10
236.513781323
 20
1291.198025404
 40
17.28
  0
LINE
  8
0
  6
CONTINUOUS
 62
     6
 10
264.113781323
 20
1260.785225404
 11
245.134765754
 21
1276.222143879
  0
LINE
  8
0
  6
CONTINUOUS
 62
     6
 10
227.529106398
 20
1276.437469301
 11
208.433781323
 21
1260.785225404
  0
CIRCLE
  8
0
  6
CONTINUOUS
 62
     6
 10
208.433781323
 20
1211.753225404
 40
5.184
  0
LINE
  8
0
  6
CONTINUOUS
 62
     6
 10
202.477885208
 20
1205.797329288
 11
214.573885208
 21
1217.893329288
  0
CIRCLE
  8
0
  6
CONTINUOUS
 62
     6
 10
236.273781323
 20
1211.753225404
 40
5.184
  0
LINE
  8
0
  6
CONTINUOUS
 62
     6
 10
230.317885208
 20
1205.797329288
 11
242.413885208
 21
1217.893329288
  0
LINE
  8
0
  6
LTYPE3
 62
     6
 10
213.617781323
 20
1211.753225404
 11
230.993781323
 21
1211.753225404
  0
CIRCLE
  8
0
  6
CONTINUOUS
 62
     6
 10
264.113781323
 20
1211.753225404
 40
5.184
  0
LINE
  8
0
  6
CONTINUOUS
 62
     6
 10
258.157885208
 20
1205.797329288
 11
270.253885208
 21
1217.893329288
  0
LINE
  8
0
  6
LTYPE3
 62
     6
 10
241.073781323
 20
1211.753225404
 11
259.313781323
 21
1211.753225404
  0
TEXT
  8
0
  6
CONTINUOUS
 62
     6
 10
221.537781323
 20
1214.585225404
 30
1.296
 40
12.96
  1
ｖ
 50
0.0
 41
0.9
 51
0.0
  7
KANJI77
  0
TEXT
  8
0
  6
CONTINUOUS
 62
     6
 10
249.377781323
 20
1214.585225404
 30
1.296
 40
12.96
  1
ｗ
 50
0.0
 41
0.9
 51
0.0
  7
KANJI77
  0
TEXT
  8
0
  6
CONTINUOUS
 62
     6
 10
194.513781323
 20
1215.449225404
 30
1.296
 40
12.96
  1
ｕ
 50
0.0
 41
0.9
 51
0.0
  7
KANJI77
  0
LINE
  8
0
  6
CONTINUOUS
 62
     6
 10
208.433781323
 20
1216.937225404
 11
208.433781323
 21
1260.785225404
  0
LINE
  8
0
  6
CONTINUOUS
 62
     6
 10
236.273781323
 20
1216.937225404
 11
236.273781323
 21
1274.206025404
  0
LINE
  8
0
  6
CONTINUOUS
 62
     6
 10
264.113781323
 20
1216.937225404
 11
264.113781323
 21
1260.785225404
  0
LINE
  8
0
  6
LTYPE3
 62
     6
 10
269.873781323
 20
1211.753225404
 11
299.057781323
 21
1211.753225404
  0
LINE
  8
0
  6
LTYPE3
 62
     6
 10
299.057781323
 20
1211.753225404
 11
299.057781323
 21
1344.766025404
  0
LINE
  8
0
  6
LTYPE3
 62
     6
 10
144.497781323
 20
1211.753225404
 11
203.249781323
 21
1211.753225404
  0
LINE
  8
0
  6
LTYPE3
 62
     6
 10
144.497781323
 20
1255.774025404
 11
144.497781323
 21
1211.753225404
  0
TEXT
  8
0
  6
CONTINUOUS
 62
     2
 10
160.912253361
 20
1176.720711177
 30
0.0
 40
18.72
  1
モーター結線図
 50
0.0
 41
0.925
 51
0.0
  7
KANJI79
  0
ENDSEC
  0
EOF
