  0
SECTION
  2
HEADER
  9
$EXTMIN
 10
0.0
 20
0.0
 30
0.0
  9
$EXTMAX
 10
2520.0
 20
1782.0
 30
0.0
  9
$LIMMIN
 10
0.0
 20
0.0
  9
$LIMMAX
 10
2520.0
 20
1782.0
  9
$LTSCALE
 40
1.0
  9
$PDMODE
 70
     0
  0
ENDSEC
  0
SECTION
  2
TABLES
  0
TABLE
  2
LTYPE
 70
     6
  0
LTYPE
  2
CONTINUOUS
 70
    64
  3
Solid line
 72
    65
 73
     0
 40
0.0
  0
LTYPE
  2
LTYPE1
 70
    64
  3
HIDDEN
 72
    65
 73
     2
 40
18.0
 49
10.8
 49
-7.2
  0
LTYPE
  2
LTYPE2
 70
    64
  3
CENTER
 72
    65
 73
     4
 40
90.0
 49
63.0
 49
-9.0
 49
9.0
 49
-9.0
  0
LTYPE
  2
LTYPE3
 70
    64
  3
CENTER
 72
    65
 73
     4
 40
60.0
 49
42.0
 49
-6.0
 49
6.0
 49
-6.0
  0
LTYPE
  2
LTYPE4
 70
    64
  3
CENTER
 72
    65
 73
     4
 40
54.0
 49
37.8
 49
-5.4
 49
5.4
 49
-5.4
  0
LTYPE
  2
LTYPE5
 70
    64
  3
CENTER
 72
    65
 73
     4
 40
120.0
 49
84.0
 49
-12.0
 49
12.0
 49
-12.0
  0
ENDTAB
  0
TABLE
  2
LAYER
 70
   128
  0
LAYER
  2
0
 70
     0
 62
     7
  6
CONTINUOUS
  0
LAYER
  2
2
 70
     0
 62
     7
  6
CONTINUOUS
  0
LAYER
  2
3
 70
     0
 62
     7
  6
CONTINUOUS
  0
LAYER
  2
4
 70
     0
 62
     7
  6
CONTINUOUS
  0
LAYER
  2
5
 70
     0
 62
     7
  6
CONTINUOUS
  0
LAYER
  2
6
 70
     0
 62
     7
  6
CONTINUOUS
  0
LAYER
  2
7
 70
     0
 62
     7
  6
CONTINUOUS
  0
LAYER
  2
8
 70
     0
 62
     7
  6
CONTINUOUS
  0
LAYER
  2
9
 70
     0
 62
     7
  6
CONTINUOUS
  0
LAYER
  2
10
 70
     0
 62
     7
  6
CONTINUOUS
  0
LAYER
  2
11
 70
     0
 62
     7
  6
CONTINUOUS
  0
LAYER
  2
12
 70
     0
 62
     7
  6
CONTINUOUS
  0
LAYER
  2
13
 70
     0
 62
     7
  6
CONTINUOUS
  0
LAYER
  2
14
 70
     0
 62
     7
  6
CONTINUOUS
  0
LAYER
  2
15
 70
     0
 62
     7
  6
CONTINUOUS
  0
LAYER
  2
16
 70
     0
 62
     7
  6
CONTINUOUS
  0
LAYER
  2
17
 70
     0
 62
     7
  6
CONTINUOUS
  0
LAYER
  2
18
 70
     0
 62
     7
  6
CONTINUOUS
  0
LAYER
  2
19
 70
     0
 62
     7
  6
CONTINUOUS
  0
LAYER
  2
20
 70
     0
 62
     7
  6
CONTINUOUS
  0
LAYER
  2
21
 70
     0
 62
     7
  6
CONTINUOUS
  0
LAYER
  2
22
 70
     0
 62
     7
  6
CONTINUOUS
  0
LAYER
  2
23
 70
     0
 62
     7
  6
CONTINUOUS
  0
LAYER
  2
24
 70
     0
 62
     7
  6
CONTINUOUS
  0
LAYER
  2
25
 70
     0
 62
     7
  6
CONTINUOUS
  0
LAYER
  2
26
 70
     0
 62
     7
  6
CONTINUOUS
  0
LAYER
  2
27
 70
     0
 62
     7
  6
CONTINUOUS
  0
LAYER
  2
28
 70
     0
 62
     7
  6
CONTINUOUS
  0
LAYER
  2
29
 70
     0
 62
     7
  6
CONTINUOUS
  0
LAYER
  2
30
 70
     0
 62
     7
  6
CONTINUOUS
  0
LAYER
  2
31
 70
     0
 62
     7
  6
CONTINUOUS
  0
LAYER
  2
32
 70
     0
 62
     7
  6
CONTINUOUS
  0
LAYER
  2
33
 70
     0
 62
     7
  6
CONTINUOUS
  0
LAYER
  2
34
 70
     0
 62
     7
  6
CONTINUOUS
  0
LAYER
  2
35
 70
     0
 62
     7
  6
CONTINUOUS
  0
LAYER
  2
36
 70
     0
 62
     7
  6
CONTINUOUS
  0
LAYER
  2
37
 70
     0
 62
     7
  6
CONTINUOUS
  0
LAYER
  2
38
 70
     0
 62
     7
  6
CONTINUOUS
  0
LAYER
  2
39
 70
     0
 62
     7
  6
CONTINUOUS
  0
LAYER
  2
40
 70
     0
 62
     7
  6
CONTINUOUS
  0
LAYER
  2
41
 70
     0
 62
     7
  6
CONTINUOUS
  0
LAYER
  2
42
 70
     0
 62
     7
  6
CONTINUOUS
  0
LAYER
  2
43
 70
     0
 62
     7
  6
CONTINUOUS
  0
LAYER
  2
44
 70
     0
 62
     7
  6
CONTINUOUS
  0
LAYER
  2
45
 70
     0
 62
     7
  6
CONTINUOUS
  0
LAYER
  2
46
 70
     0
 62
     7
  6
CONTINUOUS
  0
LAYER
  2
47
 70
     0
 62
     7
  6
CONTINUOUS
  0
LAYER
  2
48
 70
     0
 62
     7
  6
CONTINUOUS
  0
LAYER
  2
49
 70
     0
 62
     7
  6
CONTINUOUS
  0
LAYER
  2
50
 70
     0
 62
     7
  6
CONTINUOUS
  0
LAYER
  2
51
 70
     0
 62
     7
  6
CONTINUOUS
  0
LAYER
  2
52
 70
     0
 62
     7
  6
CONTINUOUS
  0
LAYER
  2
53
 70
     0
 62
     7
  6
CONTINUOUS
  0
LAYER
  2
54
 70
     0
 62
     7
  6
CONTINUOUS
  0
LAYER
  2
55
 70
     0
 62
     7
  6
CONTINUOUS
  0
LAYER
  2
56
 70
     0
 62
     7
  6
CONTINUOUS
  0
LAYER
  2
57
 70
     0
 62
     7
  6
CONTINUOUS
  0
LAYER
  2
58
 70
     0
 62
     7
  6
CONTINUOUS
  0
LAYER
  2
59
 70
     0
 62
     7
  6
CONTINUOUS
  0
LAYER
  2
60
 70
     0
 62
     7
  6
CONTINUOUS
  0
LAYER
  2
61
 70
     0
 62
     7
  6
CONTINUOUS
  0
LAYER
  2
62
 70
     0
 62
     7
  6
CONTINUOUS
  0
LAYER
  2
63
 70
     0
 62
     7
  6
CONTINUOUS
  0
LAYER
  2
64
 70
     0
 62
     7
  6
CONTINUOUS
  0
LAYER
  2
65
 70
     0
 62
     7
  6
CONTINUOUS
  0
LAYER
  2
66
 70
     0
 62
     7
  6
CONTINUOUS
  0
LAYER
  2
67
 70
     0
 62
     7
  6
CONTINUOUS
  0
LAYER
  2
68
 70
     0
 62
     7
  6
CONTINUOUS
  0
LAYER
  2
69
 70
     0
 62
     7
  6
CONTINUOUS
  0
LAYER
  2
70
 70
     0
 62
     7
  6
CONTINUOUS
  0
LAYER
  2
71
 70
     0
 62
     7
  6
CONTINUOUS
  0
LAYER
  2
72
 70
     0
 62
     7
  6
CONTINUOUS
  0
LAYER
  2
73
 70
     0
 62
     7
  6
CONTINUOUS
  0
LAYER
  2
74
 70
     0
 62
     7
  6
CONTINUOUS
  0
LAYER
  2
75
 70
     0
 62
     7
  6
CONTINUOUS
  0
LAYER
  2
76
 70
     0
 62
     7
  6
CONTINUOUS
  0
LAYER
  2
77
 70
     0
 62
     7
  6
CONTINUOUS
  0
LAYER
  2
78
 70
     0
 62
     7
  6
CONTINUOUS
  0
LAYER
  2
79
 70
     0
 62
     7
  6
CONTINUOUS
  0
LAYER
  2
80
 70
     0
 62
     7
  6
CONTINUOUS
  0
LAYER
  2
81
 70
     0
 62
     7
  6
CONTINUOUS
  0
LAYER
  2
82
 70
     0
 62
     7
  6
CONTINUOUS
  0
LAYER
  2
83
 70
     0
 62
     7
  6
CONTINUOUS
  0
LAYER
  2
84
 70
     0
 62
     7
  6
CONTINUOUS
  0
LAYER
  2
85
 70
     0
 62
     7
  6
CONTINUOUS
  0
LAYER
  2
86
 70
     0
 62
     7
  6
CONTINUOUS
  0
LAYER
  2
87
 70
     0
 62
     7
  6
CONTINUOUS
  0
LAYER
  2
88
 70
     0
 62
     7
  6
CONTINUOUS
  0
LAYER
  2
89
 70
     0
 62
     7
  6
CONTINUOUS
  0
LAYER
  2
90
 70
     0
 62
     7
  6
CONTINUOUS
  0
LAYER
  2
91
 70
     0
 62
     7
  6
CONTINUOUS
  0
LAYER
  2
92
 70
     0
 62
     7
  6
CONTINUOUS
  0
LAYER
  2
93
 70
     0
 62
     7
  6
CONTINUOUS
  0
LAYER
  2
94
 70
     0
 62
     7
  6
CONTINUOUS
  0
LAYER
  2
95
 70
     0
 62
     7
  6
CONTINUOUS
  0
LAYER
  2
96
 70
     0
 62
     7
  6
CONTINUOUS
  0
LAYER
  2
97
 70
     0
 62
     7
  6
CONTINUOUS
  0
LAYER
  2
98
 70
     0
 62
     7
  6
CONTINUOUS
  0
LAYER
  2
99
 70
     0
 62
     7
  6
CONTINUOUS
  0
LAYER
  2
100
 70
     0
 62
     7
  6
CONTINUOUS
  0
LAYER
  2
101
 70
     0
 62
     7
  6
CONTINUOUS
  0
LAYER
  2
102
 70
     0
 62
     7
  6
CONTINUOUS
  0
LAYER
  2
103
 70
     0
 62
     7
  6
CONTINUOUS
  0
LAYER
  2
104
 70
     0
 62
     7
  6
CONTINUOUS
  0
LAYER
  2
105
 70
     0
 62
     7
  6
CONTINUOUS
  0
LAYER
  2
106
 70
     0
 62
     7
  6
CONTINUOUS
  0
LAYER
  2
107
 70
     0
 62
     7
  6
CONTINUOUS
  0
LAYER
  2
108
 70
     0
 62
     7
  6
CONTINUOUS
  0
LAYER
  2
109
 70
     0
 62
     7
  6
CONTINUOUS
  0
LAYER
  2
110
 70
     0
 62
     7
  6
CONTINUOUS
  0
LAYER
  2
111
 70
     0
 62
     7
  6
CONTINUOUS
  0
LAYER
  2
112
 70
     0
 62
     7
  6
CONTINUOUS
  0
LAYER
  2
113
 70
     0
 62
     7
  6
CONTINUOUS
  0
LAYER
  2
114
 70
     0
 62
     7
  6
CONTINUOUS
  0
LAYER
  2
115
 70
     0
 62
     7
  6
CONTINUOUS
  0
LAYER
  2
116
 70
     0
 62
     7
  6
CONTINUOUS
  0
LAYER
  2
117
 70
     0
 62
     7
  6
CONTINUOUS
  0
LAYER
  2
118
 70
     0
 62
     7
  6
CONTINUOUS
  0
LAYER
  2
119
 70
     0
 62
     7
  6
CONTINUOUS
  0
LAYER
  2
120
 70
     0
 62
     7
  6
CONTINUOUS
  0
LAYER
  2
121
 70
     0
 62
     7
  6
CONTINUOUS
  0
LAYER
  2
122
 70
     0
 62
     7
  6
CONTINUOUS
  0
LAYER
  2
123
 70
     0
 62
     7
  6
CONTINUOUS
  0
LAYER
  2
124
 70
     0
 62
     7
  6
CONTINUOUS
  0
LAYER
  2
125
 70
     0
 62
     7
  6
CONTINUOUS
  0
LAYER
  2
126
 70
     0
 62
     7
  6
CONTINUOUS
  0
LAYER
  2
127
 70
     0
 62
     7
  6
CONTINUOUS
  0
LAYER
  2
128
 70
     0
 62
     7
  6
CONTINUOUS
  0
ENDTAB
  0
TABLE
  2
STYLE
 70
    84
  0
STYLE
  2
STANDARD
 70
     0
 40
0.0
 41
1.0
 50
0.0
 71
     0
 42
0.2
  3
txt
  4

  0
STYLE
  2
KANJI0
 70
     0
 40
15.5999988
 41
0.75
 50
0.0
 71
     0
 42
15.5999988
  3

  4
bigfont
  0
STYLE
  2
KANJI1
 70
     0
 40
11.999997477
 41
0.6
 50
0.0
 71
     0
 42
11.999997477
  3

  4
bigfont
  0
STYLE
  2
KANJI2
 70
     0
 40
14.399996972
 41
0.9
 50
0.0
 71
     0
 42
14.399996972
  3

  4
bigfont
  0
STYLE
  2
KANJI3
 70
     0
 40
17.999996215
 41
0.9
 50
0.0
 71
     0
 42
17.999996215
  3

  4
bigfont
  0
STYLE
  2
KANJI4
 70
     0
 40
10.3999992
 41
0.6
 50
0.0
 71
     0
 42
10.3999992
  3

  4
bigfont
  0
STYLE
  2
KANJI5
 70
     0
 40
12.47999904
 41
0.6
 50
0.0
 71
     0
 42
12.47999904
  3

  4
bigfont
  0
STYLE
  2
KANJI6
 70
     0
 40
18.1999986
 41
0.42031746
 50
0.0
 71
     0
 42
18.1999986
  3

  4
bigfont
  0
STYLE
  2
KANJI7
 70
     0
 40
31.1999976
 41
0.9
 50
0.0
 71
     0
 42
31.1999976
  3

  4
bigfont
  0
STYLE
  2
KANJI8
 70
     0
 40
21.6
 41
1.111111111
 50
0.0
 71
     0
 42
21.6
  3

  4
bigfont
  0
STYLE
  2
KANJI9
 70
     0
 40
10.3999992
 41
0.8
 50
0.0
 71
     0
 42
10.3999992
  3

  4
bigfont
  0
STYLE
  2
KANJI10
 70
     0
 40
12.47999904
 41
0.8
 50
0.0
 71
     0
 42
12.47999904
  3

  4
bigfont
  0
STYLE
  2
KANJI11
 70
     0
 40
30.0
 41
1.0
 50
0.0
 71
     0
 42
30.0
  3

  4
bigfont
  0
STYLE
  2
KANJI12
 70
     0
 40
30.0
 41
1.0
 50
0.0
 71
     0
 42
30.0
  3

  4
bigfont
  0
STYLE
  2
KANJI13
 70
     0
 40
30.0
 41
0.8
 50
0.0
 71
     0
 42
30.0
  3

  4
bigfont
  0
STYLE
  2
KANJI14
 70
     0
 40
24.0
 41
1.0
 50
0.0
 71
     0
 42
24.0
  3

  4
bigfont
  0
STYLE
  2
KANJI15
 70
     0
 40
21.0
 41
0.857142857
 50
0.0
 71
     0
 42
21.0
  3

  4
bigfont
  0
STYLE
  2
KANJI16
 70
     0
 40
27.0
 41
0.666666667
 50
0.0
 71
     0
 42
27.0
  3

  4
bigfont
  0
STYLE
  2
KANJI17
 70
     0
 40
11.661
 41
0.822608696
 50
0.0
 71
     0
 42
11.661
  3

  4
bigfont
  0
STYLE
  2
KANJI18
 70
     0
 40
13.182
 41
0.85
 50
0.0
 71
     0
 42
13.182
  3

  4
bigfont
  0
STYLE
  2
KANJI19
 70
     0
 40
11.8638
 41
0.726495726
 50
0.0
 71
     0
 42
11.8638
  3

  4
bigfont
  0
STYLE
  2
KANJI20
 70
     4
 40
55.0
 41
0.440318182
 50
0.0
 71
     0
 42
55.0
  3

  4
bigfont
  0
STYLE
  2
KANJI21
 70
     0
 40
17.740702234
 41
0.880962996
 50
0.0
 71
     0
 42
17.740702234
  3

  4
bigfont
  0
STYLE
  2
KANJI22
 70
     0
 40
11.7
 41
0.8
 50
0.0
 71
     0
 42
11.7
  3

  4
bigfont
  0
STYLE
  2
KANJI23
 70
     0
 40
15.0
 41
0.911
 50
0.0
 71
     0
 42
15.0
  3

  4
bigfont
  0
STYLE
  2
KANJI24
 70
     0
 40
15.0
 41
0.9
 50
0.0
 71
     0
 42
15.0
  3

  4
bigfont
  0
STYLE
  2
KANJI25
 70
     0
 40
18.0
 41
0.9
 50
0.0
 71
     0
 42
18.0
  3

  4
bigfont
  0
STYLE
  2
KANJI26
 70
     0
 40
20.0
 41
0.925
 50
0.0
 71
     0
 42
20.0
  3

  4
bigfont
  0
STYLE
  2
KANJI27
 70
     0
 40
20.0
 41
0.925
 50
0.0
 71
     0
 42
20.0
  3

  4
bigfont
  0
STYLE
  2
KANJI28
 70
     0
 40
15.0
 41
0.92
 50
0.0
 71
     0
 42
15.0
  3

  4
bigfont
  0
STYLE
  2
KANJI29
 70
     0
 40
24.0
 41
0.925
 50
0.0
 71
     0
 42
24.0
  3

  4
bigfont
  0
STYLE
  2
KANJI30
 70
     0
 40
24.0
 41
0.9
 50
0.0
 71
     0
 42
24.0
  3

  4
bigfont
  0
STYLE
  2
KANJI31
 70
     0
 40
21.0
 41
0.857142857
 50
0.0
 71
     0
 42
21.0
  3

  4
bigfont
  0
STYLE
  2
KANJI32
 70
     0
 40
15.36
 41
0.9
 50
0.0
 71
     0
 42
15.36
  3

  4
bigfont
  0
STYLE
  2
KANJI33
 70
     0
 40
14.4
 41
0.9
 50
0.0
 71
     0
 42
14.4
  3

  4
bigfont
  0
STYLE
  2
KANJI34
 70
     0
 40
14.4
 41
0.9
 50
0.0
 71
     0
 42
14.4
  3

  4
bigfont
  0
STYLE
  2
KANJI35
 70
     0
 40
16.8
 41
0.9
 50
0.0
 71
     0
 42
16.8
  3

  4
bigfont
  0
STYLE
  2
KANJI36
 70
     0
 40
12.96
 41
0.740740741
 50
0.0
 71
     0
 42
12.96
  3

  4
bigfont
  0
STYLE
  2
KANJI37
 70
     0
 40
16.8
 41
0.857142857
 50
0.0
 71
     0
 42
16.8
  3

  4
bigfont
  0
STYLE
  2
KANJI38
 70
     0
 40
22.8
 41
0.9
 50
0.0
 71
     0
 42
22.8
  3

  4
bigfont
  0
STYLE
  2
KANJI39
 70
     0
 40
22.8
 41
0.9
 50
0.0
 71
     0
 42
22.8
  3

  4
bigfont
  0
STYLE
  2
KANJI40
 70
     0
 40
27.0
 41
0.9
 50
0.0
 71
     0
 42
27.0
  3

  4
bigfont
  0
STYLE
  2
KANJI41
 70
     0
 40
22.8
 41
0.9
 50
0.0
 71
     0
 42
22.8
  3

  4
bigfont
  0
STYLE
  2
KANJI42
 70
     0
 40
22.8
 41
0.9
 50
0.0
 71
     0
 42
22.8
  3

  4
bigfont
  0
STYLE
  2
KANJI43
 70
     0
 40
22.8
 41
0.9
 50
0.0
 71
     0
 42
22.8
  3

  4
bigfont
  0
STYLE
  2
KANJI44
 70
     0
 40
22.8
 41
0.9
 50
0.0
 71
     0
 42
22.8
  3

  4
bigfont
  0
STYLE
  2
KANJI45
 70
     0
 40
22.8
 41
0.9
 50
0.0
 71
     0
 42
22.8
  3

  4
bigfont
  0
STYLE
  2
KANJI46
 70
     0
 40
22.8
 41
0.9
 50
0.0
 71
     0
 42
22.8
  3

  4
bigfont
  0
STYLE
  2
KANJI47
 70
     4
 40
21.0
 41
0.9
 50
0.0
 71
     0
 42
21.0
  3

  4
bigfont
  0
STYLE
  2
KANJI48
 70
     4
 40
21.0
 41
0.9
 50
0.0
 71
     0
 42
21.0
  3

  4
bigfont
  0
STYLE
  2
KANJI49
 70
     0
 40
21.0
 41
0.9
 50
0.0
 71
     0
 42
21.0
  3

  4
bigfont
  0
STYLE
  2
KANJI50
 70
     0
 40
18.0
 41
0.9
 50
0.0
 71
     0
 42
18.0
  3

  4
bigfont
  0
STYLE
  2
KANJI51
 70
     0
 40
21.0
 41
0.9
 50
0.0
 71
     0
 42
21.0
  3

  4
bigfont
  0
STYLE
  2
KANJI52
 70
     0
 40
22.8
 41
0.9
 50
0.0
 71
     0
 42
22.8
  3

  4
bigfont
  0
STYLE
  2
KANJI53
 70
     0
 40
22.8
 41
0.9
 50
0.0
 71
     0
 42
22.8
  3

  4
bigfont
  0
STYLE
  2
KANJI54
 70
     0
 40
21.0
 41
0.628571429
 50
0.0
 71
     0
 42
21.0
  3

  4
bigfont
  0
STYLE
  2
KANJI55
 70
     0
 40
20.4
 41
0.705882353
 50
0.0
 71
     0
 42
20.4
  3

  4
bigfont
  0
STYLE
  2
KANJI56
 70
     0
 40
18.0
 41
0.8
 50
0.0
 71
     0
 42
18.0
  3

  4
bigfont
  0
STYLE
  2
KANJI57
 70
     0
 40
19.2
 41
0.71875
 50
0.0
 71
     0
 42
19.2
  3

  4
bigfont
  0
STYLE
  2
KANJI58
 70
     0
 40
19.2
 41
0.8
 50
0.0
 71
     0
 42
19.2
  3

  4
bigfont
  0
STYLE
  2
KANJI59
 70
     0
 40
21.0
 41
0.571428571
 50
0.0
 71
     0
 42
21.0
  3

  4
bigfont
  0
STYLE
  2
KANJI60
 70
     0
 40
21.0
 41
0.9
 50
0.0
 71
     0
 42
21.0
  3

  4
bigfont
  0
STYLE
  2
KANJI61
 70
     0
 40
21.0
 41
0.857142857
 50
0.0
 71
     0
 42
21.0
  3

  4
bigfont
  0
STYLE
  2
KANJI62
 70
     0
 40
15.0
 41
0.9
 50
0.0
 71
     0
 42
15.0
  3

  4
bigfont
  0
STYLE
  2
KANJI63
 70
     0
 40
17.5
 41
0.914285714
 50
0.0
 71
     0
 42
17.5
  3

  4
bigfont
  0
STYLE
  2
KANJI64
 70
     0
 40
16.8
 41
0.964285714
 50
0.0
 71
     0
 42
16.8
  3

  4
bigfont
  0
STYLE
  2
KANJI65
 70
     0
 40
16.8
 41
0.821428571
 50
0.0
 71
     0
 42
16.8
  3

  4
bigfont
  0
STYLE
  2
KANJI66
 70
     0
 40
16.17
 41
0.9
 50
0.0
 71
     0
 42
16.17
  3

  4
bigfont
  0
STYLE
  2
KANJI67
 70
     0
 40
14.99994
 41
0.9
 50
0.0
 71
     0
 42
14.99994
  3

  4
bigfont
  0
STYLE
  2
KANJI68
 70
     0
 40
14.4
 41
0.833333333
 50
0.0
 71
     0
 42
14.4
  3

  4
bigfont
  0
STYLE
  2
KANJI69
 70
     0
 40
18.0
 41
0.833333333
 50
0.0
 71
     0
 42
18.0
  3

  4
bigfont
  0
STYLE
  2
KANJI70
 70
     0
 40
18.0
 41
0.833333333
 50
0.0
 71
     0
 42
18.0
  3

  4
bigfont
  0
STYLE
  2
KANJI71
 70
     0
 40
21.0
 41
0.793650794
 50
0.0
 71
     0
 42
21.0
  3

  4
bigfont
  0
STYLE
  2
KANJI72
 70
     0
 40
30.0
 41
0.8
 50
0.0
 71
     0
 42
30.0
  3

  4
bigfont
  0
STYLE
  2
KANJI73
 70
     0
 40
21.0
 41
0.571428571
 50
0.0
 71
     0
 42
21.0
  3

  4
bigfont
  0
STYLE
  2
KANJI74
 70
     0
 40
18.0
 41
0.9
 50
0.0
 71
     0
 42
18.0
  3

  4
bigfont
  0
STYLE
  2
KANJI75
 70
     0
 40
12.0
 41
0.9
 50
0.0
 71
     0
 42
12.0
  3

  4
bigfont
  0
STYLE
  2
KANJI76
 70
     0
 40
10.0
 41
0.85
 50
0.0
 71
     0
 42
10.0
  3

  4
bigfont
  0
STYLE
  2
KANJI77
 70
     0
 40
10.0
 41
0.75
 50
0.0
 71
     0
 42
10.0
  3

  4
bigfont
  0
STYLE
  2
KANJI78
 70
     0
 40
18.223173404
 41
0.66671875
 50
0.0
 71
     0
 42
18.223173404
  3

  4
bigfont
  0
STYLE
  2
KANJI79
 70
     0
 40
21.6
 41
0.9
 50
0.0
 71
     0
 42
21.6
  3

  4
bigfont
  0
STYLE
  2
KANJI80
 70
     0
 40
12.96
 41
0.9
 50
0.0
 71
     0
 42
12.96
  3

  4
bigfont
  0
STYLE
  2
KANJI81
 70
     0
 40
17.28
 41
0.9
 50
0.0
 71
     0
 42
17.28
  3

  4
bigfont
  0
STYLE
  2
KANJI82
 70
     0
 40
18.72
 41
0.925
 50
0.0
 71
     0
 42
18.72
  3

  4
bigfont
  0
ENDTAB
  0
TABLE
  2
VIEW
 70
     0
  0
ENDTAB
  0
ENDSEC
  0
SECTION
  2
BLOCKS
  0
ENDSEC
  0
SECTION
  2
ENTITIES
  0
POLYLINE
  8
0
  6
CONTINUOUS
 62
     6
 66
     1
  0
VERTEX
  8
0
  6
CONTINUOUS
 62
     6
 10
77.92
 20
71.7
  0
VERTEX
  8
0
  6
CONTINUOUS
 62
     6
 10
77.92
 20
1685.7
  0
VERTEX
  8
0
  6
CONTINUOUS
 62
     6
 10
2399.92
 20
1685.7
  0
SEQEND
  0
LINE
  8
0
  6
CONTINUOUS
 62
     6
 10
83.919998738
 20
161.699981077
 11
473.919916738
 21
161.699981077
  0
LINE
  8
0
  6
CONTINUOUS
 62
     6
 10
83.919998738
 20
77.699998738
 11
473.919916738
 21
77.699998738
  0
LINE
  8
0
  6
CONTINUOUS
 62
     6
 10
83.919998738
 20
77.699998738
 11
83.919998738
 21
161.699981077
  0
LINE
  8
0
  6
CONTINUOUS
 62
     6
 10
83.919998738
 20
119.699989908
 11
473.919916738
 21
119.699989908
  0
LINE
  8
0
  6
CONTINUOUS
 62
     4
 10
9.6199996
 20
76.8999996
 11
72.0199948
 21
76.8999996
  0
LINE
  8
0
  6
CONTINUOUS
 62
     4
 10
9.6199996
 20
108.0999972
 11
72.0199948
 21
108.0999972
  0
LINE
  8
0
  6
CONTINUOUS
 62
     4
 10
9.6199996
 20
139.2999948
 11
72.0199948
 21
139.2999948
  0
LINE
  8
0
  6
CONTINUOUS
 62
     4
 10
9.6199996
 20
170.4999924
 11
72.0199948
 21
170.4999924
  0
LINE
  8
0
  6
CONTINUOUS
 62
     4
 10
9.6199996
 20
201.69999
 11
72.0199948
 21
201.69999
  0
LINE
  8
0
  6
CONTINUOUS
 62
     4
 10
9.6199996
 20
232.8999876
 11
72.0199948
 21
232.8999876
  0
LINE
  8
0
  6
CONTINUOUS
 62
     4
 10
9.6199996
 20
264.0999852
 11
72.0199948
 21
264.0999852
  0
LINE
  8
0
  6
CONTINUOUS
 62
     4
 10
9.6199996
 20
295.2999828
 11
72.0199948
 21
295.2999828
  0
LINE
  8
0
  6
CONTINUOUS
 62
     4
 10
9.6199996
 20
326.4999804
 11
72.0199948
 21
326.4999804
  0
LINE
  8
0
  6
CONTINUOUS
 62
     4
 10
9.6199996
 20
357.699978
 11
72.0199948
 21
357.699978
  0
LINE
  8
0
  6
CONTINUOUS
 62
     4
 10
72.0199948
 20
76.8999996
 11
72.0199948
 21
357.699978
  0
LINE
  8
0
  6
CONTINUOUS
 62
     4
 10
40.8199972
 20
76.8999996
 11
40.8199972
 21
326.4999804
  0
TEXT
  8
0
  6
CONTINUOUS
 62
     4
 10
20.27999878
 20
85.9999989
 30
1.55999988
 40
15.5999988
  1
計
 50
0.0
 41
0.75
 51
0.0
  7
KANJI0
  0
TEXT
  8
0
  6
CONTINUOUS
 62
     4
 10
20.27999878
 20
148.91999406
 30
1.55999988
 40
15.5999988
  1
設
 50
0.0
 41
0.75
 51
0.0
  7
KANJI0
  0
TEXT
  8
0
  6
CONTINUOUS
 62
     4
 10
20.27999878
 20
179.5999917
 30
1.55999988
 40
15.5999988
  1
管
 50
0.0
 41
0.75
 51
0.0
  7
KANJI0
  0
TEXT
  8
0
  6
CONTINUOUS
 62
     4
 10
20.27999878
 20
210.7999893
 30
1.55999988
 40
15.5999988
  1
製
 50
0.0
 41
0.75
 51
0.0
  7
KANJI0
  0
TEXT
  8
0
  6
CONTINUOUS
 62
     4
 10
20.27999878
 20
241.9999869
 30
1.55999988
 40
15.5999988
  1
資
 50
0.0
 41
0.75
 51
0.0
  7
KANJI0
  0
TEXT
  8
0
  6
CONTINUOUS
 62
     4
 10
20.27999878
 20
273.1999845
 30
1.55999988
 40
15.5999988
  1
営
 50
0.0
 41
0.75
 51
0.0
  7
KANJI0
  0
TEXT
  8
0
  6
CONTINUOUS
 62
     4
 10
20.27999878
 20
304.3999821
 30
1.55999988
 40
15.5999988
  1
客
 50
0.0
 41
0.75
 51
0.0
  7
KANJI0
  0
TEXT
  8
0
  6
CONTINUOUS
 62
     4
 10
20.0199988
 20
336.8999796
 30
1.55999988
 40
15.5999988
  1
出　図
 50
0.0
 41
0.75
 51
0.0
  7
KANJI0
  0
LINE
  8
0
  6
CONTINUOUS
 62
     4
 10
9.6199996
 20
76.8999996
 11
9.6199996
 21
357.699978
  0
LINE
  8
0
  6
CONTINUOUS
 62
     6
 10
2399.92
 20
71.7
 11
77.92
 21
71.7
  0
TEXT
  8
0
  6
CONTINUOUS
 62
     4
 10
95.919996215
 20
101.699993692
 30
1.199999748
 40
11.999997477
  1
ＰＡＲＴＳ　ＬＩＳＴ
 50
0.0
 41
0.6
 51
0.0
  7
KANJI1
  0
TEXT
  8
0
  6
CONTINUOUS
 62
     4
 10
95.919996215
 20
83.699997477
 30
1.439999697
 40
14.399996972
  1
部品表
 50
0.0
 41
0.9
 51
0.0
  7
KANJI2
  0
TEXT
  8
0
  6
CONTINUOUS
 62
     3
 10
95.919996215
 20
131.699987385
 30
1.799999622
 40
17.999996215
  1
ＰＬ
 50
0.0
 41
0.9
 51
0.0
  7
KANJI3
  0
TEXT
  8
0
  6
CONTINUOUS
 62
     4
 10
365.919939446
 20
101.699993692
 30
1.199999748
 40
11.999997477
  1
Ｎ０．
 50
0.0
 41
0.6
 51
0.0
  7
KANJI1
  0
TEXT
  8
0
  6
CONTINUOUS
 62
     4
 10
365.919939446
 20
83.699997477
 30
1.439999697
 40
14.399996972
  1
項番
 50
0.0
 41
0.9
 51
0.0
  7
KANJI2
  0
LINE
  8
0
  6
CONTINUOUS
 62
     6
 10
473.919916738
 20
77.699998738
 11
473.919916738
 21
161.699981077
  0
LINE
  8
0
  6
CONTINUOUS
 62
     6
 10
353.919941969
 20
77.699998738
 11
353.919941969
 21
161.699981077
  0
LINE
  8
0
  6
CONTINUOUS
 62
     6
 10
2399.92
 20
1685.7
 11
2399.92
 21
71.7
  0
LINE
  8
0
  6
CONTINUOUS
 62
     6
 10
1593.920062
 20
76.8999996
 11
1593.920062
 21
409.699974
  0
LINE
  8
0
  6
CONTINUOUS
 62
     6
 10
2394.7200004
 20
76.8999996
 11
2394.7200004
 21
409.699974
  0
LINE
  8
0
  6
CONTINUOUS
 62
     4
 10
1783.7200474
 20
76.8999996
 11
1783.7200474
 21
409.699974
  0
LINE
  8
0
  6
CONTINUOUS
 62
     4
 10
1593.920062
 20
118.4999964
 11
1783.7200474
 21
118.4999964
  0
TEXT
  8
0
  6
CONTINUOUS
 62
     4
 10
1604.3200612
 20
100.2999978
 30
1.03999992
 40
10.3999992
  1
ＳＣＡＬＥ
 50
0.0
 41
0.6
 51
0.0
  7
KANJI4
  0
TEXT
  8
0
  6
CONTINUOUS
 62
     4
 10
1604.3200612
 20
84.699999
 30
1.247999904
 40
12.47999904
  1
尺度
 50
0.0
 41
0.6
 51
0.0
  7
KANJI5
  0
LINE
  8
0
  6
CONTINUOUS
 62
     6
 10
1183.1200936
 20
118.4999964
 11
1593.920062
 21
118.4999964
  0
LINE
  8
0
  6
CONTINUOUS
 62
     6
 10
1183.1200936
 20
76.8999996
 11
2394.7200004
 21
76.8999996
  0
TEXT
  8
0
  6
CONTINUOUS
 62
     6
 10
1788.920047
 20
100.2999978
 30
0.0
 40
18.1999986
  1
ＵＮＩＴＥＣ　ＩＮＤＵＳＴＲＹ　ＣＯ．，ＬＴＤ．
 50
0.0
 41
0.42031746
 51
0.0
  7
KANJI6
  0
TEXT
  8
0
  6
CONTINUOUS
 62
     6
 10
2044.175027365
 20
93.53999832
 30
3.11999976
 40
31.1999976
  1
ユニテック工業株式会社
 50
0.0
 41
0.9
 51
0.0
  7
KANJI7
  0
LINE
  8
0
  6
CONTINUOUS
 62
     6
 10
2002.575030565
 20
104.45999748
 11
1988.847031621
 21
104.45999748
  0
LINE
  8
0
  6
CONTINUOUS
 62
     6
 10
2002.575030565
 20
106.955997288
 11
1988.847031621
 21
106.955997288
  0
LINE
  8
0
  6
CONTINUOUS
 62
     6
 10
2002.575030565
 20
104.45999748
 11
2016.303029509
 21
104.45999748
  0
LINE
  8
0
  6
CONTINUOUS
 62
     6
 10
2002.575030565
 20
106.955997288
 11
2016.303029509
 21
106.955997288
  0
LINE
  8
0
  6
CONTINUOUS
 62
     6
 10
2016.303029509
 20
106.955997288
 11
2016.303029509
 21
104.45999748
  0
ARC
  8
0
  6
CONTINUOUS
 62
     6
 10
2019.423029269
 20
105.707997384
 40
12.47999904
 50
185.739170477
 51
90.0
  0
ARC
  8
0
  6
CONTINUOUS
 62
     6
 10
2019.423029269
 20
105.707997384
 40
14.975998848
 50
184.780191847
 51
90.0
  0
LINE
  8
0
  6
CONTINUOUS
 62
     6
 10
1988.847031621
 20
104.45999748
 11
1988.847031621
 21
106.955997288
  0
ARC
  8
0
  6
CONTINUOUS
 62
     6
 10
1985.727031861
 20
105.707997384
 40
12.47999904
 50
90.0
 51
354.260829523
  0
ARC
  8
0
  6
CONTINUOUS
 62
     6
 10
1985.727031861
 20
105.707997384
 40
14.975998848
 50
90.0
 51
355.219808153
  0
LINE
  8
0
  6
CONTINUOUS
 62
     6
 10
2000.703030709
 20
120.683996232
 11
2000.703030709
 21
118.187996424
  0
LINE
  8
0
  6
CONTINUOUS
 62
     6
 10
1985.727031861
 20
118.187996424
 11
2000.703030709
 21
118.187996424
  0
LINE
  8
0
  6
CONTINUOUS
 62
     6
 10
2004.447030421
 20
120.683996232
 11
2004.447030421
 21
118.187996424
  0
LINE
  8
0
  6
CONTINUOUS
 62
     6
 10
2019.423029269
 20
118.187996424
 11
2004.447030421
 21
118.187996424
  0
TEXT
  8
0
  6
CONTINUOUS
 62
     4
 10
1315.7200834
 20
100.2999978
 30
1.03999992
 40
10.3999992
  1
ＢＹ
 50
0.0
 41
0.6
 51
0.0
  7
KANJI4
  0
TEXT
  8
0
  6
CONTINUOUS
 62
     4
 10
1430.1200746
 20
100.2999978
 30
1.03999992
 40
10.3999992
  1
ＤＥＳＣＲＩＰＴＩＯＮ
 50
0.0
 41
0.6
 51
0.0
  7
KANJI4
  0
TEXT
  8
0
  6
CONTINUOUS
 62
     4
 10
1315.7200834
 20
84.699999
 30
1.247999904
 40
12.47999904
  1
担当
 50
0.0
 41
0.6
 51
0.0
  7
KANJI5
  0
TEXT
  8
0
  6
CONTINUOUS
 62
     4
 10
1445.7200734
 20
84.699999
 30
1.247999904
 40
12.47999904
  1
記　　　　事
 50
0.0
 41
0.6
 51
0.0
  7
KANJI5
  0
LINE
  8
0
  6
CONTINUOUS
 62
     4
 10
1205.2200919
 20
110.699997
 11
1188.3200932
 21
84.699999
  0
TEXT
  8
0
  6
CONTINUOUS
 62
     4
 10
1248.1200886
 20
100.2999978
 30
1.03999992
 40
10.3999992
  1
ＤＡＴＥ
 50
0.0
 41
0.6
 51
0.0
  7
KANJI4
  0
TEXT
  8
0
  6
CONTINUOUS
 62
     4
 10
1255.920088
 20
84.699999
 30
1.247999904
 40
12.47999904
  1
日付
 50
0.0
 41
0.6
 51
0.0
  7
KANJI5
  0
LINE
  8
0
  6
CONTINUOUS
 62
     4
 10
1188.3200932
 20
84.699999
 11
1222.1200906
 21
84.699999
  0
LINE
  8
0
  6
CONTINUOUS
 62
     4
 10
1205.2200919
 20
110.699997
 11
1222.1200906
 21
84.699999
  0
LINE
  8
0
  6
CONTINUOUS
 62
     6
 10
1183.1200936
 20
76.8999996
 11
1183.1200936
 21
118.4999964
  0
LINE
  8
0
  6
CONTINUOUS
 62
     4
 10
1227.3200902
 20
76.8999996
 11
1227.3200902
 21
118.4999964
  0
LINE
  8
0
  6
CONTINUOUS
 62
     4
 10
1300.1200846
 20
76.8999996
 11
1300.1200846
 21
118.4999964
  0
LINE
  8
0
  6
CONTINUOUS
 62
     4
 10
1346.920081
 20
76.8999996
 11
1346.920081
 21
118.4999964
  0
TEXT
  8
0
  6
CONTINUOUS
 62
     4
 10
1604.3200612
 20
308.2999818
 30
1.03999992
 40
10.3999992
  1
ＣＯＤＥ
 50
0.0
 41
0.6
 51
0.0
  7
KANJI4
  0
LINE
  8
0
  6
CONTINUOUS
 62
     4
 10
1593.920062
 20
326.4999804
 11
2394.7200004
 21
326.4999804
  0
TEXT
  8
0
  6
CONTINUOUS
 62
     4
 10
1604.3200612
 20
292.699983
 30
1.247999904
 40
12.47999904
  1
分類
 50
0.0
 41
0.6
 51
0.0
  7
KANJI5
  0
TEXT
  8
0
  6
CONTINUOUS
 62
     4
 10
1612.42
 20
332.7
 30
6.0
 40
21.6
  1
ご注文主
 50
0.0
 41
1.111111111
 51
0.0
  7
KANJI8
  0
TEXT
  8
0
  6
CONTINUOUS
 62
     4
 10
1604.3200612
 20
183.4999914
 30
1.03999992
 40
10.3999992
  1
ＤＲＡＷＮ
 50
0.0
 41
0.6
 51
0.0
  7
KANJI4
  0
TEXT
  8
0
  6
CONTINUOUS
 62
     4
 10
1604.3200612
 20
225.0999882
 30
1.03999992
 40
10.3999992
  1
ＤＥＳＩＧＮ
 50
0.0
 41
0.6
 51
0.0
  7
KANJI4
  0
TEXT
  8
0
  6
CONTINUOUS
 62
     4
 10
1604.3200612
 20
266.699985
 30
1.03999992
 40
10.3999992
  1
ＣＨＥＣＫ
 50
0.0
 41
0.6
 51
0.0
  7
KANJI4
  0
LINE
  8
0
  6
CONTINUOUS
 62
     4
 10
1593.920062
 20
243.2999868
 11
1783.7200474
 21
243.2999868
  0
LINE
  8
0
  6
CONTINUOUS
 62
     4
 10
1593.920062
 20
201.69999
 11
1783.7200474
 21
201.69999
  0
LINE
  8
0
  6
CONTINUOUS
 62
     4
 10
1593.920062
 20
284.8999836
 11
1783.7200474
 21
284.8999836
  0
TEXT
  8
0
  6
CONTINUOUS
 62
     4
 10
1604.3200612
 20
209.4999894
 30
1.247999904
 40
12.47999904
  1
設計
 50
0.0
 41
0.6
 51
0.0
  7
KANJI5
  0
TEXT
  8
0
  6
CONTINUOUS
 62
     4
 10
1604.3200612
 20
251.0999862
 30
1.247999904
 40
12.47999904
  1
検図
 50
0.0
 41
0.6
 51
0.0
  7
KANJI5
  0
LINE
  8
0
  6
CONTINUOUS
 62
     4
 10
1799.06004622
 20
284.8999836
 11
2394.7200004
 21
284.8999836
  0
LINE
  8
0
  6
CONTINUOUS
 62
     4
 10
1783.7200474
 20
201.69999
 11
2394.7200004
 21
201.69999
  0
TEXT
  8
0
  6
CONTINUOUS
 62
     4
 10
1794.1200466
 20
183.4999914
 30
1.03999992
 40
10.3999992
  1
ＤＲＡＷＩＮＧ　ＮＯ．
 50
0.0
 41
0.8
 51
0.0
  7
KANJI9
  0
TEXT
  8
0
  6
CONTINUOUS
 62
     4
 10
1794.1200466
 20
225.0999882
 30
1.03999992
 40
10.3999992
  1
ＭＦＧ　ＮＯ．
 50
0.0
 41
0.8
 51
0.0
  7
KANJI9
  0
TEXT
  8
0
  6
CONTINUOUS
 62
     4
 10
1794.1200466
 20
266.699985
 30
1.03999992
 40
10.3999992
  1
ＴＹＰＥ
 50
0.0
 41
0.8
 51
0.0
  7
KANJI9
  0
LINE
  8
0
  6
CONTINUOUS
 62
     4
 10
1799.3200462
 20
243.2999868
 11
2038.5200278
 21
243.2999868
  0
TEXT
  8
0
  6
CONTINUOUS
 62
     4
 10
1794.1200466
 20
165.2999928
 30
1.247999904
 40
12.47999904
  1
図　面　番　号
 50
0.0
 41
0.8
 51
0.0
  7
KANJI10
  0
TEXT
  8
0
  6
CONTINUOUS
 62
     4
 10
1794.1200466
 20
206.8999896
 30
1.247999904
 40
12.47999904
  1
製番
 50
0.0
 41
0.8
 51
0.0
  7
KANJI10
  0
TEXT
  8
0
  6
CONTINUOUS
 62
     4
 10
1794.1200466
 20
248.4999864
 30
1.247999904
 40
12.47999904
  1
機種
 50
0.0
 41
0.8
 51
0.0
  7
KANJI10
  0
LINE
  8
0
  6
CONTINUOUS
 62
     4
 10
1593.920062
 20
160.0999932
 11
1783.7200474
 21
160.0999932
  0
TEXT
  8
0
  6
CONTINUOUS
 62
     4
 10
1604.3200612
 20
141.8999946
 30
1.03999992
 40
10.3999992
  1
ＤＡＴＥ
 50
0.0
 41
0.6
 51
0.0
  7
KANJI4
  0
TEXT
  8
0
  6
CONTINUOUS
 62
     4
 10
1604.3200612
 20
126.2999958
 30
1.247999904
 40
12.47999904
  1
日付
 50
0.0
 41
0.6
 51
0.0
  7
KANJI5
  0
TEXT
  8
0
  6
CONTINUOUS
 62
     4
 10
1604.3200612
 20
167.8999926
 30
1.247999904
 40
12.47999904
  1
作図
 50
0.0
 41
0.6
 51
0.0
  7
KANJI5
  0
LINE
  8
0
  6
CONTINUOUS
 62
     4
 10
1783.7200474
 20
141.8999946
 11
2394.7200004
 21
141.8999946
  0
LINE
  8
0
  6
LTYPE1
 62
     4
 10
2220.5200138
 20
149.699994
 11
2220.5200138
 21
191.2999908
  0
LINE
  8
0
  6
LTYPE1
 62
     4
 10
2184.1200166
 20
149.699994
 11
2184.1200166
 21
191.2999908
  0
LINE
  8
0
  6
LTYPE1
 62
     4
 10
2147.7200194
 20
149.699994
 11
2147.7200194
 21
191.2999908
  0
LINE
  8
0
  6
LTYPE1
 62
     4
 10
2111.3200222
 20
149.699994
 11
2111.3200222
 21
191.2999908
  0
LINE
  8
0
  6
LTYPE1
 62
     4
 10
2074.920025
 20
149.699994
 11
2074.920025
 21
191.2999908
  0
LINE
  8
0
  6
LTYPE1
 62
     4
 10
2038.5200278
 20
149.699994
 11
2038.5200278
 21
191.2999908
  0
LINE
  8
0
  6
LTYPE1
 62
     4
 10
2002.1200306
 20
149.699994
 11
2002.1200306
 21
191.2999908
  0
LINE
  8
0
  6
LTYPE1
 62
     4
 10
1965.7200334
 20
149.699994
 11
1965.7200334
 21
191.2999908
  0
LINE
  8
0
  6
LTYPE1
 62
     4
 10
1965.7200334
 20
191.2999908
 11
2220.5200138
 21
191.2999908
  0
LINE
  8
0
  6
LTYPE1
 62
     4
 10
1965.7200334
 20
149.699994
 11
2220.5200138
 21
149.699994
  0
LINE
  8
0
  6
CONTINUOUS
 62
     4
 10
2241.3200122
 20
171.7999923
 11
2251.7200114
 21
171.7999923
  0
LINE
  8
0
  6
CONTINUOUS
 62
     4
 10
2306.3200072
 20
156.1999935
 11
2269.92001
 21
156.1999935
  0
LINE
  8
0
  6
CONTINUOUS
 62
     4
 10
2269.92001
 20
156.1999935
 11
2288.1200086
 21
187.3999911
  0
LINE
  8
0
  6
CONTINUOUS
 62
     4
 10
2288.1200086
 20
187.3999911
 11
2306.3200072
 21
156.1999935
  0
TEXT
  8
0
  6
CONTINUOUS
 62
     4
 10
2054.1200266
 20
266.699985
 30
1.03999992
 40
10.3999992
  1
ＴＩＴＬＥ
 50
0.0
 41
0.8
 51
0.0
  7
KANJI9
  0
TEXT
  8
0
  6
CONTINUOUS
 62
     4
 10
2054.1200266
 20
248.4999864
 30
1.247999904
 40
12.47999904
  1
名称
 50
0.0
 41
0.8
 51
0.0
  7
KANJI10
  0
TEXT
  8
0
  6
CONTINUOUS
 62
     2
 10
2138.92
 20
209.7
 30
15.0
 40
30.0
  1
外形寸法図
 50
0.0
 41
1.0
 51
0.0
  7
KANJI11
  0
TEXT
  8
0
  6
CONTINUOUS
 62
     2
 10
2102.92
 20
245.7
 30
4.285714286
 40
30.0
  1
マイティシリンダ
 50
0.0
 41
1.0
 51
0.0
  7
KANJI12
  0
TEXT
  8
0
  6
CONTINUOUS
 62
     2
 10
1934.2200334
 20
155.699994
 30
1.8
 40
30.0
  1
Ａ
 50
0.0
 41
0.8
 51
0.0
  7
KANJI13
  0
CIRCLE
  8
0
  6
CONTINUOUS
 62
     2
 10
1895.2200334
 20
220.199994
 40
15.0
  0
TEXT
  8
0
  6
CONTINUOUS
 62
     2
 10
1883.9700334
 20
208.949994
 30
1.8
 40
24.0
  1
Ｓ
 50
0.0
 41
1.0
 51
0.0
  7
KANJI14
  0
LINE
  8
0
  6
CONTINUOUS
 62
     6
 10
2000.703030709
 20
120.683996232
 11
1985.727031861
 21
120.683996232
  0
LINE
  8
0
  6
CONTINUOUS
 62
     6
 10
2004.447030421
 20
120.683996232
 11
2019.423029269
 21
120.683996232
  0
TEXT
  8
0
  6
CONTINUOUS
 62
     2
 10
1660.9200334
 20
170.699994
 30
6.0
 40
21.0
  1
岡田
 50
0.0
 41
0.857142857
 51
0.0
  7
KANJI15
  0
LINE
  8
0
  6
CONTINUOUS
 62
     4
 10
2394.7200004
 20
368.0999772
 11
2394.7200004
 21
409.699974
  0
LINE
  8
0
  6
CONTINUOUS
 62
     6
 10
1594.670062
 20
368.0999772
 11
2395.4700004
 21
368.0999772
  0
LINE
  8
0
  6
CONTINUOUS
 62
     6
 10
1593.920062
 20
409.699974
 11
2394.7200004
 21
409.699974
  0
TEXT
  8
0
  6
CONTINUOUS
 62
     4
 10
1612.42
 20
374.2999968
 30
6.0
 40
21.6
  1
ご用途
 50
0.0
 41
1.111111111
 51
0.0
  7
KANJI8
  0
TEXT
  8
0
  6
CONTINUOUS
 62
     2
 10
1703.92
 20
83.7
 30
1.8
 40
27.0
  1
１／６
 50
0.0
 41
0.666666667
 51
0.0
  7
KANJI16
  0
LINE
  8
0
  6
CONTINUOUS
 62
     6
 10
351.629425053
 20
1631.447759827
 11
119.584646507
 21
1631.447759827
  0
TEXT
  8
0
  6
CONTINUOUS
 62
     6
 10
123.493517202
 20
1634.64592676
 30
1.0647
 40
11.661
  1
ＬＳ０１　　　：推力リミッタ（前進時過負荷用）
 50
0.0
 41
0.822608696
 51
0.0
  7
KANJI17
  0
TEXT
  8
0
  6
CONTINUOUS
 62
     6
 10
123.493517202
 20
1607.18342676
 30
1.0647
 40
11.661
  1
ＬＳ０２　　　：推力リミッタ（後進時過負荷用）
 50
0.0
 41
0.822608696
 51
0.0
  7
KANJI17
  0
LINE
  8
0
  6
CONTINUOUS
 62
     3
 10
351.629425053
 20
1603.985259827
 11
119.584646507
 21
1603.985259827
  0
LINE
  8
0
  6
CONTINUOUS
 62
     6
 10
351.629425053
 20
1603.985259827
 11
119.584646507
 21
1603.985259827
  0
TEXT
  8
0
  6
CONTINUOUS
 62
     6
 10
377.212228
 20
1628.900410728
 30
1.232517
 40
13.182
  1
電気定格　　　
 50
0.0
 41
0.85
 51
0.0
  7
KANJI18
  0
TEXT
  8
0
  6
CONTINUOUS
 62
     6
 10
390.013715102
 20
1598.326958599
 30
0.0
 40
11.8638
  1
ＤＣ１２５Ｖ　０．６Ａ　，ＤＣ２５０Ｖ　０．３Ａ　
 50
0.0
 41
0.726495726
 51
0.0
  7
KANJI19
  0
TEXT
  8
0
  6
CONTINUOUS
 62
     6
 10
384.757132178
 20
1646.661726126
 30
0.0
 40
55.0
  1
｝
 50
0.0
 41
0.440318182
 51
0.0
  7
KANJI20
  0
LINE
  8
0
  6
LTYPE2
 62
     6
 10
103.42
 20
1358.3
 11
624.02
 21
1358.3
  0
LINE
  8
0
  6
LTYPE2
 62
     6
 10
624.02
 20
1358.3
 11
624.02
 21
1661.4
  0
LINE
  8
0
  6
LTYPE2
 62
     6
 10
624.02
 20
1661.4
 11
103.42
 21
1661.4
  0
LINE
  8
0
  6
LTYPE2
 62
     6
 10
103.42
 20
1661.4
 11
103.42
 21
1358.3
  0
TEXT
  8
0
  6
CONTINUOUS
 62
     6
 10
288.632791539
 20
1376.32382165
 30
0.0
 40
17.740702234
  1
端子台　接続図
 50
0.0
 41
0.880962996
 51
0.0
  7
KANJI21
  0
LINE
  8
0
  6
CONTINUOUS
 62
     2
 10
323.597373465
 20
1427.328121884
 11
323.597373465
 21
1404.549155128
  0
LINE
  8
0
  6
CONTINUOUS
 62
     2
 10
350.17283468
 20
1427.328121884
 11
350.17283468
 21
1404.549155128
  0
LINE
  8
0
  6
CONTINUOUS
 62
     2
 10
376.748295894
 20
1427.328121884
 11
376.748295894
 21
1404.549155128
  0
LINE
  8
0
  6
CONTINUOUS
 62
     2
 10
403.323757109
 20
1427.328121884
 11
403.323757109
 21
1404.549155128
  0
CIRCLE
  8
0
  6
CONTINUOUS
 62
     6
 10
395.404269667
 20
1450.807921517
 40
4.100214016
  0
LINE
  8
0
  6
CONTINUOUS
 62
     6
 10
391.304055651
 20
1450.807921517
 11
390.036026502
 21
1450.807921517
  0
LINE
  8
0
  6
CONTINUOUS
 62
     6
 10
416.358027433
 20
1464.494562742
 11
412.443558096
 21
1442.159507138
  0
LINE
  8
0
  6
CONTINUOUS
 62
     6
 10
411.631699663
 20
1465.282284037
 11
407.716922494
 21
1442.947279739
  0
LINE
  8
0
  6
CONTINUOUS
 62
     6
 10
412.443558096
 20
1442.159507138
 11
407.716922494
 21
1442.947279739
  0
CIRCLE
  8
0
  6
CONTINUOUS
 62
     6
 10
416.611487717
 20
1441.339464335
 40
4.100214016
  0
LINE
  8
0
  6
CONTINUOUS
 62
     6
 10
416.611487717
 20
1437.239250319
 11
416.611487717
 21
1427.328121884
  0
LINE
  8
0
  6
CONTINUOUS
 62
     6
 10
390.036026502
 20
1450.807921517
 11
390.036026502
 21
1427.328121884
  0
LINE
  8
0
  6
CONTINUOUS
 62
     6
 10
363.460565287
 20
1427.328121884
 11
363.460565287
 21
1481.033332504
  0
LINE
  8
0
  6
CONTINUOUS
 62
     6
 10
283.987641926
 20
1464.494562742
 11
287.902111263
 21
1442.159507138
  0
LINE
  8
0
  6
CONTINUOUS
 62
     6
 10
288.713969696
 20
1465.282284037
 11
292.628746865
 21
1442.947279739
  0
LINE
  8
0
  6
CONTINUOUS
 62
     6
 10
287.902111263
 20
1442.159507138
 11
292.628746865
 21
1442.947279739
  0
CIRCLE
  8
0
  6
CONTINUOUS
 62
     6
 10
283.734181642
 20
1441.339464335
 40
4.100214016
  0
CIRCLE
  8
0
  6
CONTINUOUS
 62
     6
 10
304.941399692
 20
1450.807921517
 40
4.100214016
  0
LINE
  8
0
  6
CONTINUOUS
 62
     6
 10
309.041613708
 20
1450.807921517
 11
310.309642857
 21
1450.807921517
  0
LINE
  8
0
  6
CONTINUOUS
 62
     6
 10
283.734181642
 20
1437.239250319
 11
283.734181642
 21
1427.328121884
  0
LINE
  8
0
  6
CONTINUOUS
 62
     6
 10
310.309642857
 20
1450.807921517
 11
310.309642857
 21
1427.328121884
  0
LINE
  8
0
  6
CONTINUOUS
 62
     6
 10
336.885104072
 20
1427.328121884
 11
336.885104072
 21
1481.033332504
  0
LINE
  8
0
  6
CONTINUOUS
 62
     2
 10
429.899218324
 20
1427.328121884
 11
429.899218324
 21
1404.549155128
  0
LINE
  8
0
  6
CONTINUOUS
 62
     2
 10
270.446451035
 20
1427.328121884
 11
270.446451035
 21
1404.549155128
  0
LINE
  8
0
  6
CONTINUOUS
 62
     2
 10
297.02191225
 20
1427.328121884
 11
297.02191225
 21
1404.549155128
  0
LINE
  8
0
  6
CONTINUOUS
 62
     6
 10
416.611487717
 20
1481.033332504
 11
363.460565287
 21
1481.033332504
  0
CIRCLE
  8
0
  6
CONTINUOUS
 62
     6
 10
416.611487717
 20
1468.68941042
 40
4.100214016
  0
LINE
  8
0
  6
CONTINUOUS
 62
     6
 10
416.358027433
 20
1464.494562742
 11
411.631699663
 21
1465.282284037
  0
LINE
  8
0
  6
CONTINUOUS
 62
     6
 10
416.611487717
 20
1472.789624436
 11
416.611487717
 21
1481.033332504
  0
CIRCLE
  8
0
  6
CONTINUOUS
 62
     6
 10
283.734181642
 20
1468.68941042
 40
4.100214016
  0
LINE
  8
0
  6
CONTINUOUS
 62
     6
 10
283.987641926
 20
1464.494562742
 11
288.713969696
 21
1465.282284037
  0
LINE
  8
0
  6
CONTINUOUS
 62
     6
 10
283.734181642
 20
1472.789624436
 11
283.734181642
 21
1481.033332504
  0
LINE
  8
0
  6
CONTINUOUS
 62
     6
 10
336.885104072
 20
1481.033332504
 11
283.734181642
 21
1481.033332504
  0
TEXT
  8
0
  6
CONTINUOUS
 62
     6
 10
288.4972152
 20
1485.552473273
 30
0.819
 40
11.7
  1
ＬＳ０１
 50
0.0
 41
0.8
 51
0.0
  7
KANJI22
  0
TEXT
  8
0
  6
CONTINUOUS
 62
     6
 10
371.117398844
 20
1485.552473273
 30
0.819
 40
11.7
  1
ＬＳ０２
 50
0.0
 41
0.8
 51
0.0
  7
KANJI22
  0
TEXT
  8
0
  6
CONTINUOUS
 62
     3
 10
116.308775989
 20
1408.345649587
 30
0.0
 40
15.0
  1
　　　　　　　　　　　　　　　　　　１　　２　　　３　　　４　　　５　　　６
 50
0.0
 41
0.911
 51
0.0
  7
KANJI23
  0
LINE
  8
0
  6
CONTINUOUS
 62
     2
 10
270.446451035
 20
1427.328121884
 11
429.899218324
 21
1427.328121884
  0
LINE
  8
0
  6
CONTINUOUS
 62
     2
 10
270.446451035
 20
1404.549155128
 11
429.899218324
 21
1404.549155128
  0
TEXT
  8
0
  6
CONTINUOUS
 62
     6
 10
262.132791539
 20
1515.32382165
 30
0.0
 40
17.740702234
  1
推力リミッタ端子台配列
 50
0.0
 41
0.880962996
 51
0.0
  7
KANJI21
  0
TEXT
  8
0
  6
CONTINUOUS
 62
     6
 10
390.013715102
 20
1614.071931782
 30
0.0
 40
11.8638
  1
ＡＣ１００Ｖ　１２５Ｖ　２５０Ｖ　－１０Ａ
 50
0.0
 41
0.726495726
 51
0.0
  7
KANJI19
  0
LINE
  8
0
  6
CONTINUOUS
 62
     2
 10
132.6199996
 20
278.6999876
 11
140.34740621
 21
276.629435239
  0
LINE
  8
0
  6
CONTINUOUS
 62
     2
 10
132.6199996
 20
278.6999876
 11
140.34740621
 21
280.770539961
  0
LINE
  8
0
  6
CONTINUOUS
 62
     2
 10
132.6199996
 20
278.6999876
 11
270.2199996
 21
278.6999876
  0
LINE
  8
0
  6
CONTINUOUS
 62
     2
 10
270.2199996
 20
278.6999876
 11
262.49259299
 21
280.770539961
  0
LINE
  8
0
  6
CONTINUOUS
 62
     2
 10
270.2199996
 20
278.6999876
 11
262.49259299
 21
276.629435239
  0
LINE
  8
0
  6
CONTINUOUS
 62
     2
 10
270.2199996
 20
277.4999876
 11
270.2199996
 21
274.6999876
  0
LINE
  8
0
  6
CONTINUOUS
 62
     2
 10
270.2199996
 20
278.6999876
 11
277.94740621
 21
276.629435239
  0
LINE
  8
0
  6
CONTINUOUS
 62
     2
 10
270.2199996
 20
278.6999876
 11
277.94740621
 21
280.770539961
  0
LINE
  8
0
  6
CONTINUOUS
 62
     2
 10
270.2199996
 20
278.6999876
 11
472.6199996
 21
278.6999876
  0
LINE
  8
0
  6
CONTINUOUS
 62
     2
 10
472.6199996
 20
278.6999876
 11
464.89259299
 21
280.770539961
  0
LINE
  8
0
  6
CONTINUOUS
 62
     2
 10
472.6199996
 20
278.6999876
 11
464.89259299
 21
276.629435239
  0
LINE
  8
0
  6
CONTINUOUS
 62
     2
 10
270.2199996
 20
252.370539961
 11
262.49259299
 21
254.441092322
  0
LINE
  8
0
  6
CONTINUOUS
 62
     2
 10
270.2199996
 20
252.370539961
 11
262.49259299
 21
250.2999876
  0
LINE
  8
0
  6
CONTINUOUS
 62
     2
 10
258.2199996
 20
252.370539961
 11
270.2199996
 21
252.370539961
  0
LINE
  8
0
  6
CONTINUOUS
 62
     2
 10
270.2199996
 20
252.370539961
 11
291.0199996
 21
252.370539961
  0
LINE
  8
0
  6
CONTINUOUS
 62
     2
 10
291.0199996
 20
252.370539961
 11
298.74740621
 21
250.2999876
  0
LINE
  8
0
  6
CONTINUOUS
 62
     2
 10
291.0199996
 20
252.370539961
 11
298.74740621
 21
254.441092322
  0
LINE
  8
0
  6
CONTINUOUS
 62
     2
 10
132.6199996
 20
227.0999876
 11
132.6199996
 21
221.0999876
  0
LINE
  8
0
  6
CONTINUOUS
 62
     2
 10
132.6199996
 20
225.0999876
 11
140.34740621
 21
223.029435239
  0
LINE
  8
0
  6
CONTINUOUS
 62
     2
 10
132.6199996
 20
225.0999876
 11
140.34740621
 21
227.170539961
  0
LINE
  8
0
  6
CONTINUOUS
 62
     2
 10
132.6199996
 20
225.0999876
 11
291.0199996
 21
225.0999876
  0
LINE
  8
0
  6
CONTINUOUS
 62
     2
 10
291.0199996
 20
225.0999876
 11
283.29259299
 21
227.170539961
  0
LINE
  8
0
  6
CONTINUOUS
 62
     2
 10
291.0199996
 20
225.0999876
 11
283.29259299
 21
223.029435239
  0
LINE
  8
0
  6
CONTINUOUS
 62
     2
 10
291.0199996
 20
226.2999876
 11
291.0199996
 21
221.0999876
  0
LINE
  8
0
  6
CONTINUOUS
 62
     2
 10
291.0199996
 20
225.0999876
 11
298.74740621
 21
223.029435239
  0
LINE
  8
0
  6
CONTINUOUS
 62
     2
 10
291.0199996
 20
225.0999876
 11
298.74740621
 21
227.170539961
  0
LINE
  8
0
  6
CONTINUOUS
 62
     2
 10
472.6199996
 20
221.4999876
 11
472.6199996
 21
221.0999876
  0
LINE
  8
0
  6
CONTINUOUS
 62
     2
 10
132.6199996
 20
195.8999876
 11
140.34740621
 21
193.829435239
  0
LINE
  8
0
  6
CONTINUOUS
 62
     2
 10
132.6199996
 20
195.8999876
 11
140.34740621
 21
197.970539961
  0
LINE
  8
0
  6
CONTINUOUS
 62
     2
 10
132.6199996
 20
195.8999876
 11
450.2199996
 21
195.8999876
  0
LINE
  8
0
  6
CONTINUOUS
 62
     2
 10
450.2199996
 20
195.8999876
 11
442.49259299
 21
197.970539961
  0
LINE
  8
0
  6
CONTINUOUS
 62
     2
 10
450.2199996
 20
195.8999876
 11
442.49259299
 21
193.829435239
  0
LINE
  8
0
  6
CONTINUOUS
 62
     2
 10
450.2199996
 20
196.6999876
 11
450.2199996
 21
191.8999876
  0
LINE
  8
0
  6
CONTINUOUS
 62
     2
 10
450.2199996
 20
195.8999876
 11
442.49259299
 21
197.970539961
  0
LINE
  8
0
  6
CONTINUOUS
 62
     2
 10
450.2199996
 20
195.8999876
 11
442.49259299
 21
193.829435239
  0
LINE
  8
0
  6
CONTINUOUS
 62
     2
 10
438.2199996
 20
195.8999876
 11
450.2199996
 21
195.8999876
  0
LINE
  8
0
  6
CONTINUOUS
 62
     2
 10
450.2199996
 20
195.8999876
 11
472.6199996
 21
195.8999876
  0
LINE
  8
0
  6
CONTINUOUS
 62
     2
 10
472.6199996
 20
195.8999876
 11
480.34740621
 21
193.829435239
  0
LINE
  8
0
  6
CONTINUOUS
 62
     2
 10
472.6199996
 20
195.8999876
 11
480.34740621
 21
197.970539961
  0
LINE
  8
0
  6
CONTINUOUS
 62
     2
 10
132.6199996
 20
289.4999876
 11
132.6199996
 21
274.6999876
  0
LINE
  8
0
  6
CONTINUOUS
 62
     2
 10
472.6199996
 20
289.4999876
 11
472.6199996
 21
274.6999876
  0
LINE
  8
0
  6
CONTINUOUS
 62
     2
 10
270.2199996
 20
278.2999876
 11
270.2199996
 21
289.4999876
  0
LINE
  8
0
  6
CONTINUOUS
 62
     2
 10
291.0199996
 20
265.170539961
 11
291.0199996
 21
248.370539961
  0
LINE
  8
0
  6
CONTINUOUS
 62
     2
 10
132.6199996
 20
274.6999876
 11
132.6199996
 21
182.6999876
  0
LINE
  8
0
  6
CONTINUOUS
 62
     2
 10
472.6199996
 20
278.6999876
 11
472.6199996
 21
183.8999876
  0
LINE
  8
0
  6
CONTINUOUS
 62
     2
 10
291.0199996
 20
252.370539961
 11
291.0199996
 21
215.8999876
  0
LINE
  8
0
  6
CONTINUOUS
 62
     2
 10
270.2199996
 20
278.6999876
 11
270.2199996
 21
243.0999876
  0
TEXT
  8
0
  6
CONTINUOUS
 62
     3
 10
174.4199996
 20
280.6999876
 30
0.0
 40
15.0
  1
ｍｉｎ．Ｌ
 50
0.0
 41
0.9
 51
0.0
  7
KANJI24
  0
TEXT
  8
0
  6
CONTINUOUS
 62
     3
 10
328.2199996
 20
280.6999876
 30
0.0
 40
15.0
  1
機械的ストローク
 50
0.0
 41
0.9
 51
0.0
  7
KANJI24
  0
TEXT
  8
0
  6
CONTINUOUS
 62
     3
 10
303.0199996
 20
254.370539961
 30
0.0
 40
15.0
  1
余裕
 50
0.0
 41
0.9
 51
0.0
  7
KANJI24
  0
TEXT
  8
0
  6
CONTINUOUS
 62
     3
 10
184.8199996
 20
227.0999876
 30
0.0
 40
15.0
  1
常用ｍｉｎ
 50
0.0
 41
0.9
 51
0.0
  7
KANJI24
  0
TEXT
  8
0
  6
CONTINUOUS
 62
     3
 10
264.4199996
 20
197.8999876
 30
0.0
 40
15.0
  1
常用ｍａｘ
 50
0.0
 41
0.9
 51
0.0
  7
KANJI24
  0
TEXT
  8
0
  6
CONTINUOUS
 62
     3
 10
484.6199996
 20
197.8999876
 30
0.0
 40
15.0
  1
余裕
 50
0.0
 41
0.9
 51
0.0
  7
KANJI24
  0
LINE
  8
0
  6
CONTINUOUS
 62
     2
 10
291.0199996
 20
252.370539961
 11
331.1199996
 21
252.370539961
  0
LINE
  8
0
  6
CONTINUOUS
 62
     2
 10
472.6199996
 20
195.8999876
 11
515.1199996
 21
195.8999876
  0
LINE
  8
0
  6
CONTINUOUS
 62
     1
 10
403.0
 20
616.5
 11
317.0
 21
616.5
  0
LINE
  8
0
  6
CONTINUOUS
 62
     1
 10
317.0
 20
630.0
 11
317.0
 21
619.05046
  0
LINE
  8
0
  6
CONTINUOUS
 62
     1
 10
317.0
 20
630.0
 11
317.0
 21
640.94954
  0
LINE
  8
0
  6
CONTINUOUS
 62
     1
 10
308.9789
 20
621.73198
 11
310.527076294
 21
619.05046
  0
LINE
  8
0
  6
CONTINUOUS
 62
     1
 10
308.9789
 20
630.0
 11
308.9789
 21
621.73198
  0
LINE
  8
0
  6
CONTINUOUS
 62
     1
 10
308.9789
 20
638.26802
 11
310.527076294
 21
640.94954
  0
LINE
  8
0
  6
CONTINUOUS
 62
     1
 10
308.9789
 20
630.0
 11
308.9789
 21
638.26802
  0
ARC
  8
0
  6
CONTINUOUS
 62
     1
 10
319.433121693
 20
630.0
 40
10.454221693
 50
148.419912243
 51
211.580087757
  0
ARC
  8
0
  6
CONTINUOUS
 62
     1
 10
312.172013606
 20
621.787845
 40
3.193602261
 50
121.002313915
 51
182.989498403
  0
LINE
  8
0
  6
CONTINUOUS
 62
     1
 10
308.9789
 20
638.26802
 11
310.527076294
 21
640.94954
  0
ARC
  8
0
  6
CONTINUOUS
 62
     1
 10
312.172013606
 20
638.212155
 40
3.193602261
 50
177.010501597
 51
238.997686085
  0
LINE
  8
0
  6
CONTINUOUS
 62
     1
 10
317.0
 20
619.05046
 11
310.527076294
 21
619.05046
  0
LINE
  8
0
  6
CONTINUOUS
 62
     1
 10
317.0
 20
624.52523
 11
310.527076294
 21
624.52523
  0
LINE
  8
0
  6
CONTINUOUS
 62
     1
 10
317.0
 20
635.47477
 11
310.527076294
 21
635.47477
  0
LINE
  8
0
  6
CONTINUOUS
 62
     1
 10
317.0
 20
640.94954
 11
310.527076294
 21
640.94954
  0
LINE
  8
0
  6
CONTINUOUS
 62
     1
 10
317.0
 20
758.0
 11
317.0
 21
747.05046
  0
LINE
  8
0
  6
CONTINUOUS
 62
     1
 10
317.0
 20
758.0
 11
317.0
 21
768.94954
  0
LINE
  8
0
  6
CONTINUOUS
 62
     1
 10
308.9789
 20
749.73198
 11
310.527076294
 21
747.05046
  0
LINE
  8
0
  6
CONTINUOUS
 62
     1
 10
308.9789
 20
758.0
 11
308.9789
 21
749.73198
  0
LINE
  8
0
  6
CONTINUOUS
 62
     1
 10
308.9789
 20
766.26802
 11
310.527076294
 21
768.94954
  0
LINE
  8
0
  6
CONTINUOUS
 62
     1
 10
308.9789
 20
758.0
 11
308.9789
 21
766.26802
  0
ARC
  8
0
  6
CONTINUOUS
 62
     1
 10
319.433121693
 20
758.0
 40
10.454221693
 50
148.419912243
 51
211.580087757
  0
ARC
  8
0
  6
CONTINUOUS
 62
     1
 10
312.172013606
 20
749.787845
 40
3.193602261
 50
121.002313915
 51
182.989498403
  0
LINE
  8
0
  6
CONTINUOUS
 62
     1
 10
308.9789
 20
766.26802
 11
310.527076294
 21
768.94954
  0
ARC
  8
0
  6
CONTINUOUS
 62
     1
 10
312.172013606
 20
766.212155
 40
3.193602261
 50
177.010501597
 51
238.997686085
  0
LINE
  8
0
  6
CONTINUOUS
 62
     1
 10
317.0
 20
747.05046
 11
310.527076294
 21
747.05046
  0
LINE
  8
0
  6
CONTINUOUS
 62
     1
 10
317.0
 20
752.52523
 11
310.527076294
 21
752.52523
  0
LINE
  8
0
  6
CONTINUOUS
 62
     1
 10
317.0
 20
763.47477
 11
310.527076294
 21
763.47477
  0
LINE
  8
0
  6
CONTINUOUS
 62
     1
 10
317.0
 20
768.94954
 11
310.527076294
 21
768.94954
  0
LINE
  8
0
  6
CONTINUOUS
 62
     1
 10
317.0
 20
616.5
 11
317.0
 21
831.5
  0
LINE
  8
0
  6
CONTINUOUS
 62
     1
 10
332.0
 20
831.5
 11
317.0
 21
831.5
  0
LINE
  8
0
  6
CONTINUOUS
 62
     1
 10
317.0
 20
822.5
 11
317.0
 21
815.00594
  0
LINE
  8
0
  6
CONTINUOUS
 62
     1
 10
317.0
 20
822.5
 11
317.0
 21
829.99406
  0
LINE
  8
0
  6
CONTINUOUS
 62
     1
 10
311.5001
 20
816.84122
 11
312.559699402
 21
815.00594
  0
LINE
  8
0
  6
CONTINUOUS
 62
     1
 10
311.5001
 20
822.5
 11
311.5001
 21
816.84122
  0
LINE
  8
0
  6
CONTINUOUS
 62
     1
 10
311.5001
 20
828.15878
 11
312.559699402
 21
829.99406
  0
LINE
  8
0
  6
CONTINUOUS
 62
     1
 10
311.5001
 20
822.5
 11
311.5001
 21
828.15878
  0
ARC
  8
0
  6
CONTINUOUS
 62
     1
 10
318.655155337
 20
822.5
 40
7.155055337
 50
148.419912243
 51
211.580087757
  0
ARC
  8
0
  6
CONTINUOUS
 62
     1
 10
313.685523767
 20
816.879455
 40
2.185758211
 50
121.002313915
 51
182.989498403
  0
LINE
  8
0
  6
CONTINUOUS
 62
     1
 10
311.5001
 20
828.15878
 11
312.559699402
 21
829.99406
  0
ARC
  8
0
  6
CONTINUOUS
 62
     1
 10
313.685523767
 20
828.120545
 40
2.185758211
 50
177.010501597
 51
238.997686085
  0
LINE
  8
0
  6
CONTINUOUS
 62
     1
 10
317.0
 20
815.00594
 11
312.559699402
 21
815.00594
  0
LINE
  8
0
  6
CONTINUOUS
 62
     1
 10
317.0
 20
818.75297
 11
312.559699402
 21
818.75297
  0
LINE
  8
0
  6
CONTINUOUS
 62
     1
 10
317.0
 20
826.24703
 11
312.559699402
 21
826.24703
  0
LINE
  8
0
  6
CONTINUOUS
 62
     1
 10
317.0
 20
829.99406
 11
312.559699402
 21
829.99406
  0
LINE
  8
0
  6
CONTINUOUS
 62
     1
 10
511.0
 20
636.0
 11
585.0
 21
636.0
  0
LINE
  8
0
  6
CONTINUOUS
 62
     1
 10
418.0
 20
637.0
 11
418.0
 21
751.0
  0
CIRCLE
  8
0
  6
CONTINUOUS
 62
     1
 10
463.0
 20
694.0
 40
10.0
  0
CIRCLE
  8
0
  6
CONTINUOUS
 62
     1
 10
463.0
 20
694.0
 40
21.0
  0
CIRCLE
  8
0
  6
CONTINUOUS
 62
     1
 10
463.0
 20
694.0
 40
25.0
  0
LINE
  8
0
  6
CONTINUOUS
 62
     1
 10
403.0
 20
751.0
 11
418.0
 21
751.0
  0
LINE
  8
0
  6
CONTINUOUS
 62
     1
 10
431.9
 20
747.0
 11
585.0
 21
747.0
  0
LINE
  8
0
  6
CONTINUOUS
 62
     1
 10
511.0
 20
636.0
 11
511.0
 21
688.4
  0
LINE
  8
0
  6
CONTINUOUS
 62
     1
 10
431.9
 20
641.0
 11
508.5
 21
641.0
  0
LINE
  8
0
  6
CONTINUOUS
 62
     1
 10
593.0
 20
634.5
 11
593.0
 21
633.5
  0
ARC
  8
0
  6
CONTINUOUS
 62
     1
 10
506.0
 20
631.5
 40
3.0
 50
90.0
 51
180.0
  0
LINE
  8
0
  6
CONTINUOUS
 62
     1
 10
593.0
 20
633.5
 11
629.0
 21
633.5
  0
ARC
  8
0
  6
CONTINUOUS
 62
     1
 10
629.0
 20
630.5
 40
3.0
 50
0.0
 51
90.0
  0
LINE
  8
0
  6
CONTINUOUS
 62
     1
 10
506.0
 20
634.5
 11
593.0
 21
634.5
  0
LINE
  8
0
  6
CONTINUOUS
 62
     1
 10
506.0
 20
636.0
 11
593.0
 21
636.0
  0
LINE
  8
0
  6
CONTINUOUS
 62
     1
 10
421.0
 20
739.0
 11
421.0
 21
749.94954
  0
LINE
  8
0
  6
CONTINUOUS
 62
     1
 10
421.0
 20
739.0
 11
421.0
 21
728.05046
  0
LINE
  8
0
  6
CONTINUOUS
 62
     1
 10
418.0
 20
749.75
 11
421.0
 21
749.75
  0
LINE
  8
0
  6
CONTINUOUS
 62
     1
 10
418.0
 20
739.0
 11
421.000254073
 21
742.000254073
  0
LINE
  8
0
  6
CONTINUOUS
 62
     1
 10
421.000254073
 20
739.0
 11
418.0
 21
735.999745927
  0
LINE
  8
0
  6
CONTINUOUS
 62
     1
 10
418.0
 20
728.25
 11
421.0
 21
728.25
  0
LINE
  8
0
  6
CONTINUOUS
 62
     1
 10
421.0
 20
749.75
 11
432.3
 21
749.75
  0
LINE
  8
0
  6
CONTINUOUS
 62
     1
 10
432.3
 20
739.0
 11
432.3
 21
749.75
  0
LINE
  8
0
  6
CONTINUOUS
 62
     1
 10
432.3
 20
749.75
 11
433.0
 21
748.537564435
  0
LINE
  8
0
  6
CONTINUOUS
 62
     1
 10
433.0
 20
739.0
 11
433.0
 21
748.537564435
  0
LINE
  8
0
  6
CONTINUOUS
 62
     1
 10
421.0
 20
728.25
 11
432.3
 21
728.25
  0
LINE
  8
0
  6
CONTINUOUS
 62
     1
 10
432.3
 20
739.0
 11
432.3
 21
728.25
  0
LINE
  8
0
  6
CONTINUOUS
 62
     1
 10
432.3
 20
728.25
 11
433.0
 21
729.462435565
  0
LINE
  8
0
  6
CONTINUOUS
 62
     1
 10
433.0
 20
739.0
 11
433.0
 21
729.462435565
  0
LINE
  8
0
  6
CONTINUOUS
 62
     1
 10
421.0
 20
649.0
 11
421.0
 21
638.05046
  0
LINE
  8
0
  6
CONTINUOUS
 62
     1
 10
421.0
 20
649.0
 11
421.0
 21
659.94954
  0
LINE
  8
0
  6
CONTINUOUS
 62
     1
 10
418.0
 20
638.25
 11
421.0
 21
638.25
  0
LINE
  8
0
  6
CONTINUOUS
 62
     1
 10
418.0
 20
649.0
 11
421.000254073
 21
645.999745927
  0
LINE
  8
0
  6
CONTINUOUS
 62
     1
 10
421.000254073
 20
649.0
 11
418.0
 21
652.000254073
  0
LINE
  8
0
  6
CONTINUOUS
 62
     1
 10
418.0
 20
659.75
 11
421.0
 21
659.75
  0
LINE
  8
0
  6
CONTINUOUS
 62
     1
 10
421.0
 20
638.25
 11
432.3
 21
638.25
  0
LINE
  8
0
  6
CONTINUOUS
 62
     1
 10
432.3
 20
649.0
 11
432.3
 21
638.25
  0
LINE
  8
0
  6
CONTINUOUS
 62
     1
 10
432.3
 20
638.25
 11
433.0
 21
639.462435565
  0
LINE
  8
0
  6
CONTINUOUS
 62
     1
 10
433.0
 20
649.0
 11
433.0
 21
639.462435565
  0
LINE
  8
0
  6
CONTINUOUS
 62
     1
 10
421.0
 20
659.75
 11
432.3
 21
659.75
  0
LINE
  8
0
  6
CONTINUOUS
 62
     1
 10
432.3
 20
649.0
 11
432.3
 21
659.75
  0
LINE
  8
0
  6
CONTINUOUS
 62
     1
 10
432.3
 20
659.75
 11
433.0
 21
658.537564435
  0
LINE
  8
0
  6
CONTINUOUS
 62
     1
 10
433.0
 20
649.0
 11
433.0
 21
658.537564435
  0
LINE
  8
0
  6
CONTINUOUS
 62
     1
 10
403.0
 20
637.0
 11
418.0
 21
637.0
  0
POINT
  8
0
  6
CONTINUOUS
 62
     1
 10
403.0
 20
637.0
  0
LINE
  8
0
  6
CONTINUOUS
 62
     1
 10
403.0
 20
637.0
 11
403.0
 21
751.0
  0
LINE
  8
0
  6
CONTINUOUS
 62
     1
 10
594.0
 20
690.0
 11
585.0
 21
690.0
  0
LINE
  8
0
  6
CONTINUOUS
 62
     1
 10
594.0
 20
698.0
 11
585.0
 21
698.0
  0
LINE
  8
0
  6
LTYPE3
 62
     2
 10
342.1
 20
630.0
 11
307.9
 21
630.0
  0
LINE
  8
0
  6
LTYPE3
 62
     2
 10
343.1
 20
758.0
 11
307.9
 21
758.0
  0
LINE
  8
0
  6
LTYPE3
 62
     2
 10
347.6
 20
822.5
 11
308.3
 21
822.5
  0
LINE
  8
0
  6
LTYPE3
 62
     2
 10
382.0
 20
739.0
 11
435.0
 21
739.0
  0
LINE
  8
0
  6
LTYPE3
 62
     2
 10
463.0
 20
662.5
 11
463.0
 21
725.5
  0
LINE
  8
0
  6
LTYPE3
 62
     2
 10
382.0
 20
649.0
 11
435.0
 21
649.0
  0
LINE
  8
0
  6
CONTINUOUS
 62
     2
 10
317.0
 20
443.8625
 11
329.074072829
 21
440.627261936
  0
LINE
  8
0
  6
CONTINUOUS
 62
     2
 10
317.0
 20
443.8625
 11
329.074072829
 21
447.097738064
  0
LINE
  8
0
  6
CONTINUOUS
 62
     2
 10
317.0
 20
443.8625
 11
403.0
 21
443.8625
  0
LINE
  8
0
  6
CONTINUOUS
 62
     2
 10
403.0
 20
443.8625
 11
390.925927171
 21
447.097738064
  0
LINE
  8
0
  6
CONTINUOUS
 62
     2
 10
403.0
 20
443.8625
 11
390.925927171
 21
440.627261936
  0
LINE
  8
0
  6
CONTINUOUS
 62
     2
 10
403.0
 20
443.8625
 11
415.074072829
 21
440.627261936
  0
LINE
  8
0
  6
CONTINUOUS
 62
     2
 10
403.0
 20
443.8625
 11
415.074072829
 21
447.097738064
  0
LINE
  8
0
  6
CONTINUOUS
 62
     2
 10
403.0
 20
443.8625
 11
463.0
 21
443.8625
  0
LINE
  8
0
  6
CONTINUOUS
 62
     2
 10
463.0
 20
443.8625
 11
450.925927171
 21
447.097738064
  0
LINE
  8
0
  6
CONTINUOUS
 62
     2
 10
463.0
 20
443.8625
 11
450.925927171
 21
440.627261936
  0
LINE
  8
0
  6
CONTINUOUS
 62
     2
 10
463.0
 20
443.8625
 11
475.074072829
 21
440.627261936
  0
LINE
  8
0
  6
CONTINUOUS
 62
     2
 10
463.0
 20
443.8625
 11
475.074072829
 21
447.097738064
  0
LINE
  8
0
  6
CONTINUOUS
 62
     2
 10
463.0
 20
443.8625
 11
1094.0
 21
443.8625
  0
LINE
  8
0
  6
CONTINUOUS
 62
     2
 10
463.0
 20
487.2
 11
475.074072829
 21
483.964761936
  0
LINE
  8
0
  6
CONTINUOUS
 62
     2
 10
463.0
 20
487.2
 11
475.074072829
 21
490.435238064
  0
LINE
  8
0
  6
CONTINUOUS
 62
     2
 10
317.0
 20
436.3625
 11
317.0
 21
392.0
  0
LINE
  8
0
  6
CONTINUOUS
 62
     2
 10
317.0
 20
399.5
 11
329.074072829
 21
396.264761936
  0
LINE
  8
0
  6
CONTINUOUS
 62
     2
 10
317.0
 20
399.5
 11
329.074072829
 21
402.735238064
  0
LINE
  8
0
  6
CONTINUOUS
 62
     2
 10
317.0
 20
399.5
 11
1094.0
 21
399.5
  0
LINE
  8
0
  6
CONTINUOUS
 62
     2
 10
317.0
 20
608.375
 11
317.0
 21
436.3625
  0
LINE
  8
0
  6
CONTINUOUS
 62
     2
 10
403.0
 20
612.375
 11
403.0
 21
436.3625
  0
LINE
  8
0
  6
CONTINUOUS
 62
     2
 10
463.0
 20
665.875
 11
463.0
 21
436.3625
  0
LINE
  8
0
  6
LTYPE3
 62
     2
 10
1112.283472275
 20
694.0
 11
704.525
 21
694.0
  0
CIRCLE
  8
0
  6
CONTINUOUS
 62
     1
 10
746.0
 20
694.0
 40
19.5
  0
LINE
  8
0
  6
CONTINUOUS
 62
     1
 10
726.0
 20
714.0
 11
766.0
 21
714.0
  0
LINE
  8
0
  6
CONTINUOUS
 62
     1
 10
766.0
 20
674.0
 11
766.0
 21
714.0
  0
LINE
  8
0
  6
CONTINUOUS
 62
     1
 10
726.0
 20
674.0
 11
726.0
 21
714.0
  0
LINE
  8
0
  6
LTYPE3
 62
     2
 10
746.0
 20
668.9
 11
746.0
 21
718.8
  0
LINE
  8
0
  6
CONTINUOUS
 62
     1
 10
726.0
 20
674.0
 11
766.0
 21
674.0
  0
LINE
  8
0
  6
CONTINUOUS
 62
     2
 10
463.0
 20
487.2
 11
999.0
 21
487.2
  0
TEXT
  8
0
  6
CONTINUOUS
 62
     2
 10
345.75
 20
448.8625
 30
0.0
 40
18.0
  1
８６
 50
0.0
 41
0.9
 51
0.0
  7
KANJI25
  0
TEXT
  8
0
  6
CONTINUOUS
 62
     2
 10
418.75
 20
448.8625
 30
0.0
 40
18.0
  1
６０
 50
0.0
 41
0.9
 51
0.0
  7
KANJI25
  0
TEXT
  8
0
  6
CONTINUOUS
 62
     2
 10
741.75
 20
448.8625
 30
0.0
 40
18.0
  1
ｍｉｎ．Ｌ
 50
0.0
 41
0.9
 51
0.0
  7
KANJI25
  0
TEXT
  8
0
  6
CONTINUOUS
 62
     2
 10
661.25
 20
404.5
 30
0.0
 40
18.0
  1
ｍｉｎ．ＡＬ
 50
0.0
 41
0.9
 51
0.0
  7
KANJI25
  0
TEXT
  8
0
  6
CONTINUOUS
 62
     2
 10
691.25
 20
492.2
 30
0.0
 40
18.0
  1
Ｃ
 50
0.0
 41
0.9
 51
0.0
  7
KANJI25
  0
LINE
  8
0
  6
CONTINUOUS
 62
     1
 10
395.5
 20
769.0
 11
352.5
 21
769.0
  0
TEXT
  8
0
  6
CONTINUOUS
 62
     2
 10
357.5
 20
758.0
 30
5.0
 40
20.0
  1
銘板
 50
270.0
 41
0.925
 51
0.0
  7
KANJI26
  0
LINE
  8
0
  6
CONTINUOUS
 62
     1
 10
352.5
 20
769.0
 11
352.5
 21
699.0
  0
LINE
  8
0
  6
CONTINUOUS
 62
     1
 10
395.5
 20
699.0
 11
352.5
 21
699.0
  0
LINE
  8
0
  6
CONTINUOUS
 62
     1
 10
395.5
 20
769.0
 11
395.5
 21
699.0
  0
TEXT
  8
0
  6
CONTINUOUS
 62
     2
 10
312.632591263
 20
352.371507451
 30
0.0
 40
20.0
  1
推力リミッタの作動値は、約１２００ｋｇ（設計値）
 50
0.0
 41
0.925
 51
0.0
  7
KANJI27
  0
LINE
  8
0
  6
CONTINUOUS
 62
     2
 10
310.632591263
 20
344.371507451
 11
749.92
 21
344.371507451
  0
LINE
  8
0
  6
CONTINUOUS
 62
     1
 10
632.0
 20
591.5
 11
503.0
 21
591.5
  0
LINE
  8
0
  6
CONTINUOUS
 62
     1
 10
632.0
 20
590.0
 11
503.0
 21
590.0
  0
LINE
  8
0
  6
CONTINUOUS
 62
     1
 10
503.0
 20
585.0
 11
503.0
 21
631.5
  0
LINE
  8
0
  6
CONTINUOUS
 62
     1
 10
631.0
 20
584.0
 11
504.0
 21
584.0
  0
ARC
  8
0
  6
CONTINUOUS
 62
     1
 10
504.0
 20
585.0
 40
1.0
 50
180.0
 51
270.0
  0
ARC
  8
0
  6
CONTINUOUS
 62
     1
 10
507.0
 20
584.0
 40
1.0
 50
180.0
 51
270.0
  0
LINE
  8
0
  6
CONTINUOUS
 62
     1
 10
628.0
 20
583.0
 11
507.1
 21
583.0
  0
LINE
  8
0
  6
CONTINUOUS
 62
     1
 10
517.8
 20
583.0
 11
507.2
 21
583.0
  0
ARC
  8
0
  6
CONTINUOUS
 62
     1
 10
512.9
 20
584.0
 40
5.0
 50
272.3
 51
348.5
  0
ARC
  8
0
  6
CONTINUOUS
 62
     1
 10
512.1
 20
584.0
 40
5.0
 50
191.5
 51
267.7
  0
LINE
  8
0
  6
CONTINUOUS
 62
     1
 10
513.1
 20
579.0
 11
511.9
 21
579.0
  0
LINE
  8
0
  6
LTYPE4
 62
     2
 10
512.5
 20
575.6
 11
512.5
 21
589.0
  0
LINE
  8
0
  6
CONTINUOUS
 62
     2
 10
512.292647059
 20
601.7
 11
591.8
 21
601.7
  0
TEXT
  8
0
  6
CONTINUOUS
 62
     2
 10
512.3
 20
603.7
 30
0.0
 40
15.0
  1
推力リミッタ
 50
0.0
 41
0.92
 51
0.0
  7
KANJI28
  0
LINE
  8
0
  6
LTYPE1
 62
     2
 10
632.0
 20
617.8
 11
622.0
 21
617.8
  0
LINE
  8
0
  6
LTYPE1
 62
     2
 10
632.0
 20
619.0
 11
622.0
 21
619.0
  0
LINE
  8
0
  6
LTYPE1
 62
     2
 10
632.0
 20
599.2
 11
622.0
 21
599.2
  0
LINE
  8
0
  6
LTYPE1
 62
     2
 10
632.0
 20
598.0
 11
622.0
 21
598.0
  0
LINE
  8
0
  6
LTYPE2
 62
     2
 10
638.2
 20
608.5
 11
618.5
 21
608.5
  0
LINE
  8
0
  6
CONTINUOUS
 62
     1
 10
632.0
 20
585.0
 11
632.0
 21
630.5
  0
ARC
  8
0
  6
CONTINUOUS
 62
     1
 10
631.0
 20
585.0
 40
1.0
 50
270.0
 51
0.0
  0
LINE
  8
0
  6
CONTINUOUS
 62
     1
 10
629.0
 20
584.0
 11
629.0
 21
584.0
  0
ARC
  8
0
  6
CONTINUOUS
 62
     1
 10
628.0
 20
584.0
 40
1.0
 50
270.0
 51
0.0
  0
LINE
  8
0
  6
CONTINUOUS
 62
     1
 10
628.3
 20
583.0
 11
617.7
 21
583.0
  0
ARC
  8
0
  6
CONTINUOUS
 62
     1
 10
623.4
 20
584.0
 40
5.0
 50
272.3
 51
348.5
  0
ARC
  8
0
  6
CONTINUOUS
 62
     1
 10
622.6
 20
584.0
 40
5.0
 50
191.5
 51
267.7
  0
LINE
  8
0
  6
CONTINUOUS
 62
     1
 10
623.6
 20
579.0
 11
622.4
 21
579.0
  0
LINE
  8
0
  6
LTYPE4
 62
     2
 10
623.0
 20
575.6
 11
623.0
 21
589.0
  0
LINE
  8
0
  6
CONTINUOUS
 62
     2
 10
632.0
 20
608.5
 11
642.714022707
 21
613.904601506
  0
LINE
  8
0
  6
CONTINUOUS
 62
     2
 10
632.0
 20
608.5
 11
643.980916594
 21
607.823510848
  0
LINE
  8
0
  6
LTYPE3
 62
     2
 10
1112.283472275
 20
694.0
 11
645.0
 21
694.0
  0
LINE
  8
0
  6
CONTINUOUS
 62
     2
 10
999.0
 20
487.2
 11
986.925927171
 21
490.435238064
  0
LINE
  8
0
  6
CONTINUOUS
 62
     2
 10
999.0
 20
487.2
 11
986.925927171
 21
483.964761936
  0
LINE
  8
0
  6
LTYPE2
 62
     2
 10
976.7
 20
894.6
 11
1139.0
 21
894.6
  0
TEXT
  8
0
  6
CONTINUOUS
 62
     2
 10
979.949814306
 20
463.414761936
 30
0.0
 40
18.0
  1
ｍｉｎ．Ｐ
 50
0.0
 41
0.9
 51
0.0
  7
KANJI25
  0
LINE
  8
0
  6
CONTINUOUS
 62
     2
 10
1094.0
 20
443.8625
 11
1081.925927171
 21
447.097738064
  0
LINE
  8
0
  6
CONTINUOUS
 62
     2
 10
1094.0
 20
443.8625
 11
1081.925927171
 21
440.627261936
  0
LINE
  8
0
  6
CONTINUOUS
 62
     2
 10
1044.0
 20
487.2
 11
1031.925927171
 21
490.435238064
  0
LINE
  8
0
  6
CONTINUOUS
 62
     2
 10
1044.0
 20
487.2
 11
1031.925927171
 21
483.964761936
  0
LINE
  8
0
  6
CONTINUOUS
 62
     2
 10
1044.0
 20
487.2
 11
1056.074072829
 21
483.964761936
  0
LINE
  8
0
  6
CONTINUOUS
 62
     2
 10
1044.0
 20
487.2
 11
1056.074072829
 21
490.435238064
  0
LINE
  8
0
  6
CONTINUOUS
 62
     2
 10
1044.0
 20
487.2
 11
1094.0
 21
487.2
  0
LINE
  8
0
  6
CONTINUOUS
 62
     2
 10
1094.0
 20
487.2
 11
1081.925927171
 21
490.435238064
  0
LINE
  8
0
  6
CONTINUOUS
 62
     2
 10
1094.0
 20
487.2
 11
1081.925927171
 21
483.964761936
  0
LINE
  8
0
  6
CONTINUOUS
 62
     2
 10
1094.0
 20
399.5
 11
1081.925927171
 21
402.735238064
  0
LINE
  8
0
  6
CONTINUOUS
 62
     2
 10
1094.0
 20
399.5
 11
1081.925927171
 21
396.264761936
  0
LINE
  8
0
  6
CONTINUOUS
 62
     2
 10
1094.0
 20
436.3625
 11
1094.0
 21
392.0
  0
LINE
  8
0
  6
CONTINUOUS
 62
     2
 10
1094.0
 20
667.875
 11
1094.0
 21
436.3625
  0
LINE
  8
0
  6
CONTINUOUS
 62
     2
 10
1044.0
 20
531.0
 11
1044.0
 21
480.5
  0
LINE
  8
0
  6
CONTINUOUS
 62
     2
 10
999.0
 20
487.2
 11
1011.074072829
 21
490.435238064
  0
LINE
  8
0
  6
CONTINUOUS
 62
     2
 10
999.0
 20
487.2
 11
1011.074072829
 21
483.964761936
  0
LINE
  8
0
  6
CONTINUOUS
 62
     2
 10
999.0
 20
646.5
 11
999.0
 21
479.7
  0
LINE
  8
0
  6
CONTINUOUS
 62
     2
 10
999.0
 20
487.2
 11
1044.0
 21
487.2
  0
TEXT
  8
0
  6
CONTINUOUS
 62
     2
 10
1054.75
 20
492.2
 30
0.0
 40
18.0
  1
５０
 50
0.0
 41
0.9
 51
0.0
  7
KANJI25
  0
LINE
  8
0
  6
CONTINUOUS
 62
     2
 10
1044.0
 20
609.5
 11
1044.0
 21
479.7
  0
LINE
  8
0
  6
CONTINUOUS
 62
     1
 10
1044.0
 20
544.0
 11
1044.0
 21
551.49406
  0
LINE
  8
0
  6
CONTINUOUS
 62
     1
 10
1044.0
 20
544.0
 11
1044.0
 21
536.50594
  0
LINE
  8
0
  6
CONTINUOUS
 62
     2
 10
999.532501379
 20
528.0
 11
1146.0
 21
528.0
  0
CIRCLE
  8
0
  6
CONTINUOUS
 62
     1
 10
1094.0
 20
693.5
 40
12.5
  0
CIRCLE
  8
0
  6
CONTINUOUS
 62
     1
 10
1094.0
 20
693.5
 40
22.0
  0
CIRCLE
  8
0
  6
CONTINUOUS
 62
     1
 10
1094.0
 20
709.0
 40
3.0
  0
LINE
  8
0
  6
CONTINUOUS
 62
     1
 10
1089.8
 20
676.7
 11
1091.8
 21
676.4
  0
LINE
  8
0
  6
CONTINUOUS
 62
     1
 10
1092.3
 20
681.1
 11
1092.064615385
 21
679.530769231
  0
LINE
  8
0
  6
CONTINUOUS
 62
     1
 10
1092.064615385
 20
679.530769231
 11
1089.8
 21
676.7
  0
LINE
  8
0
  6
CONTINUOUS
 62
     1
 10
1094.0
 20
679.1
 11
1091.8
 21
676.4
  0
LINE
  8
0
  6
CONTINUOUS
 62
     1
 10
1098.2
 20
676.7
 11
1096.2
 21
676.4
  0
LINE
  8
0
  6
CONTINUOUS
 62
     1
 10
1095.7
 20
681.1
 11
1095.935384615
 21
679.530769231
  0
LINE
  8
0
  6
CONTINUOUS
 62
     1
 10
1095.935384615
 20
679.530769231
 11
1098.2
 21
676.7
  0
LINE
  8
0
  6
CONTINUOUS
 62
     1
 10
1094.0
 20
679.1
 11
1096.2
 21
676.4
  0
LINE
  8
0
  6
LTYPE1
 62
     2
 10
1059.0
 20
668.5
 11
1059.0
 21
718.5
  0
LINE
  8
0
  6
CONTINUOUS
 62
     2
 10
1118.5
 20
718.5
 11
1182.1
 21
718.5
  0
LINE
  8
0
  6
CONTINUOUS
 62
     2
 10
1118.5
 20
668.5
 11
1182.1
 21
668.5
  0
LINE
  8
0
  6
LTYPE5
 62
     2
 10
1094.0
 20
668.5
 11
1094.0
 21
725.6
  0
LINE
  8
0
  6
CONTINUOUS
 62
     2
 10
1101.5
 20
703.1
 11
1110.413448812
 21
711.863585469
  0
LINE
  8
0
  6
CONTINUOUS
 62
     2
 10
1101.5
 20
703.1
 11
1104.837480372
 21
715.14621205
  0
LINE
  8
0
  6
CONTINUOUS
 62
     2
 10
1101.5
 20
703.1
 11
1138.0
 21
765.1
  0
LINE
  8
0
  6
CONTINUOUS
 62
     2
 10
1138.0
 20
765.1
 11
1226.5
 21
765.1
  0
LINE
  8
0
  6
CONTINUOUS
 62
     1
 10
1044.0
 20
719.0
 11
1111.0
 21
719.0
  0
LINE
  8
0
  6
CONTINUOUS
 62
     1
 10
1044.0
 20
669.0
 11
1111.0
 21
669.0
  0
LINE
  8
0
  6
CONTINUOUS
 62
     1
 10
1044.0
 20
669.0
 11
1044.0
 21
719.0
  0
ARC
  8
0
  6
CONTINUOUS
 62
     1
 10
1111.0
 20
677.0
 40
8.0
 50
270.0
 51
0.0
  0
LINE
  8
0
  6
CONTINUOUS
 62
     1
 10
1119.0
 20
677.0
 11
1119.0
 21
711.0
  0
ARC
  8
0
  6
CONTINUOUS
 62
     1
 10
1111.0
 20
711.0
 40
8.0
 50
0.0
 51
90.0
  0
LINE
  8
0
  6
CONTINUOUS
 62
     1
 10
1044.0
 20
693.5
 11
1044.0
 21
668.5
  0
LINE
  8
0
  6
LTYPE1
 62
     2
 10
1059.0
 20
668.5
 11
1059.0
 21
718.5
  0
LINE
  8
0
  6
CONTINUOUS
 62
     1
 10
1044.0
 20
661.0
 11
1044.0
 21
718.5
  0
LINE
  8
0
  6
CONTINUOUS
 62
     1
 10
1044.0
 20
681.0
 11
1044.0
 21
711.0
  0
LINE
  8
0
  6
CONTINUOUS
 62
     1
 10
1028.0
 20
669.0
 11
999.0
 21
669.0
  0
LINE
  8
0
  6
CONTINUOUS
 62
     1
 10
1028.0
 20
719.0
 11
999.0
 21
719.0
  0
TEXT
  8
0
  6
CONTINUOUS
 62
     2
 10
1169.6
 20
679.25
 30
0.0
 40
18.0
  1
５０
 50
90.0
 41
0.9
 51
0.0
  7
KANJI25
  0
TEXT
  8
0
  6
CONTINUOUS
 62
     2
 10
1138.0
 20
770.1
 30
0.0
 40
18.0
  1
φ２５Ｈ１０
 50
0.0
 41
0.9
 51
0.0
  7
KANJI25
  0
LINE
  8
0
  6
CONTINUOUS
 62
     1
 10
1059.0
 20
882.1
 11
1119.0
 21
882.1
  0
LINE
  8
0
  6
CONTINUOUS
 62
     1
 10
1119.0
 20
867.1
 11
1119.0
 21
882.1
  0
LINE
  8
0
  6
CONTINUOUS
 62
     1
 10
1044.0
 20
867.1
 11
1119.0
 21
867.1
  0
LINE
  8
0
  6
CONTINUOUS
 62
     1
 10
1072.0
 20
862.6
 11
1116.0
 21
862.6
  0
LINE
  8
0
  6
CONTINUOUS
 62
     1
 10
1081.5
 20
856.6
 11
1106.5
 21
856.6
  0
LINE
  8
0
  6
CONTINUOUS
 62
     1
 10
1106.5
 20
856.6
 11
1106.5
 21
862.6
  0
LINE
  8
0
  6
CONTINUOUS
 62
     1
 10
1081.5
 20
856.6
 11
1081.5
 21
862.6
  0
LINE
  8
0
  6
CONTINUOUS
 62
     1
 10
1116.0
 20
862.6
 11
1116.0
 21
867.1
  0
LINE
  8
0
  6
CONTINUOUS
 62
     1
 10
1072.0
 20
862.6
 11
1072.0
 21
867.1
  0
CIRCLE
  8
0
  6
CONTINUOUS
 62
     1
 10
1094.0
 20
860.6
 40
2.0
  0
LINE
  8
0
  6
LTYPE5
 62
     2
 10
1090.0
 20
860.7
 11
1098.2
 21
860.7
  0
LINE
  8
0
  6
LTYPE1
 62
     2
 10
1106.5
 20
862.6
 11
1106.5
 21
882.1
  0
LINE
  8
0
  6
LTYPE1
 62
     2
 10
1081.5
 20
862.6
 11
1081.5
 21
882.1
  0
LINE
  8
0
  6
CONTINUOUS
 62
     1
 10
1059.0
 20
907.1
 11
1119.0
 21
907.1
  0
LINE
  8
0
  6
CONTINUOUS
 62
     1
 10
1119.0
 20
922.1
 11
1119.0
 21
907.1
  0
LINE
  8
0
  6
CONTINUOUS
 62
     1
 10
1044.0
 20
922.1
 11
1119.0
 21
922.1
  0
LINE
  8
0
  6
CONTINUOUS
 62
     1
 10
1072.0
 20
926.6
 11
1116.0
 21
926.6
  0
LINE
  8
0
  6
CONTINUOUS
 62
     1
 10
1081.5
 20
932.6
 11
1106.5
 21
932.6
  0
LINE
  8
0
  6
CONTINUOUS
 62
     1
 10
1106.5
 20
932.6
 11
1106.5
 21
926.6
  0
LINE
  8
0
  6
CONTINUOUS
 62
     1
 10
1081.5
 20
932.6
 11
1081.5
 21
926.6
  0
LINE
  8
0
  6
CONTINUOUS
 62
     1
 10
1116.0
 20
926.6
 11
1116.0
 21
922.1
  0
LINE
  8
0
  6
CONTINUOUS
 62
     1
 10
1072.0
 20
926.6
 11
1072.0
 21
922.1
  0
CIRCLE
  8
0
  6
CONTINUOUS
 62
     1
 10
1094.0
 20
928.6
 40
2.0
  0
LINE
  8
0
  6
LTYPE5
 62
     2
 10
1090.0
 20
928.5
 11
1098.2
 21
928.5
  0
LINE
  8
0
  6
LTYPE1
 62
     2
 10
1106.5
 20
926.6
 11
1106.5
 21
907.1
  0
LINE
  8
0
  6
LTYPE1
 62
     2
 10
1081.5
 20
926.6
 11
1081.5
 21
907.1
  0
LINE
  8
0
  6
CONTINUOUS
 62
     1
 10
1059.0
 20
882.1
 11
1059.0
 21
907.1
  0
LINE
  8
0
  6
CONTINUOUS
 62
     1
 10
1044.0
 20
867.1
 11
1044.0
 21
922.1
  0
LINE
  8
0
  6
CONTINUOUS
 62
     1
 10
1081.5
 20
882.1
 11
1081.5
 21
907.1
  0
LINE
  8
0
  6
CONTINUOUS
 62
     1
 10
1106.5
 20
882.1
 11
1106.5
 21
907.1
  0
LINE
  8
0
  6
LTYPE5
 62
     2
 10
1094.0
 20
851.6
 11
1094.0
 21
932.6
  0
LINE
  8
0
  6
LTYPE5
 62
     2
 10
1094.0
 20
937.6
 11
1094.0
 21
856.6
  0
LINE
  8
0
  6
CONTINUOUS
 62
     1
 10
1081.5
 20
907.1
 11
1081.5
 21
882.1
  0
LINE
  8
0
  6
CONTINUOUS
 62
     1
 10
1106.5
 20
907.1
 11
1106.5
 21
882.1
  0
LINE
  8
0
  6
CONTINUOUS
 62
     2
 10
1126.5
 20
867.1
 11
1204.0
 21
867.1
  0
LINE
  8
0
  6
CONTINUOUS
 62
     2
 10
1126.5
 20
922.1
 11
1204.0
 21
922.1
  0
LINE
  8
0
  6
CONTINUOUS
 62
     2
 10
1126.5
 20
882.1
 11
1175.5
 21
882.1
  0
LINE
  8
0
  6
CONTINUOUS
 62
     2
 10
1126.5
 20
907.1
 11
1175.5
 21
907.1
  0
LINE
  8
0
  6
CONTINUOUS
 62
     2
 10
1059.0
 20
874.6
 11
1059.0
 21
814.6
  0
LINE
  8
0
  6
CONTINUOUS
 62
     2
 10
1059.0
 20
822.1
 11
1071.074072829
 21
818.864761936
  0
LINE
  8
0
  6
CONTINUOUS
 62
     2
 10
1059.0
 20
822.1
 11
1071.074072829
 21
825.335238064
  0
LINE
  8
0
  6
CONTINUOUS
 62
     2
 10
1059.0
 20
822.1
 11
1094.0
 21
822.1
  0
LINE
  8
0
  6
CONTINUOUS
 62
     2
 10
1094.0
 20
822.1
 11
1081.925927171
 21
825.335238064
  0
LINE
  8
0
  6
CONTINUOUS
 62
     2
 10
1094.0
 20
822.1
 11
1081.925927171
 21
818.864761936
  0
LINE
  8
0
  6
CONTINUOUS
 62
     2
 10
1094.0
 20
844.1
 11
1094.0
 21
814.6
  0
LINE
  8
0
  6
CONTINUOUS
 62
     2
 10
1059.0
 20
822.1
 11
1071.074072829
 21
818.864761936
  0
LINE
  8
0
  6
CONTINUOUS
 62
     2
 10
1059.0
 20
822.1
 11
1071.074072829
 21
825.335238064
  0
LINE
  8
0
  6
CONTINUOUS
 62
     2
 10
1077.75
 20
822.1
 11
996.75
 21
822.1
  0
LINE
  8
0
  6
CONTINUOUS
 62
     2
 10
1044.0
 20
822.1
 11
1031.925927171
 21
825.335238064
  0
LINE
  8
0
  6
CONTINUOUS
 62
     2
 10
1044.0
 20
822.1
 11
1031.925927171
 21
818.864761936
  0
LINE
  8
0
  6
CONTINUOUS
 62
     2
 10
1044.0
 20
859.6
 11
1044.0
 21
814.6
  0
LINE
  8
0
  6
CONTINUOUS
 62
     1
 10
1007.776112865
 20
919.6
 11
1044.0
 21
919.6
  0
LINE
  8
0
  6
CONTINUOUS
 62
     1
 10
1007.776112865
 20
869.6
 11
1044.0
 21
869.6
  0
TEXT
  8
0
  6
CONTINUOUS
 62
     2
 10
1163.0
 20
925.85
 30
0.0
 40
18.0
  1
２５
 50
90.0
 41
0.9
 51
0.0
  7
KANJI25
  0
TEXT
  8
0
  6
CONTINUOUS
 62
     2
 10
1062.25
 20
827.1
 30
0.0
 40
18.0
  1
３５
 50
0.0
 41
0.9
 51
0.0
  7
KANJI25
  0
TEXT
  8
0
  6
CONTINUOUS
 62
     2
 10
997.75
 20
825.1
 30
0.0
 40
18.0
  1
１５
 50
0.0
 41
0.9
 51
0.0
  7
KANJI25
  0
LINE
  8
2
  6
CONTINUOUS
 62
     2
 10
1094.0
 20
820.1
 11
1094.0
 21
816.1
  0
LINE
  8
2
  6
CONTINUOUS
 62
     2
 10
1094.0
 20
822.1
 11
1079.511112606
 21
825.982285677
  0
LINE
  8
2
  6
CONTINUOUS
 62
     2
 10
1094.0
 20
822.1
 11
1079.511112606
 21
818.217714323
  0
LINE
  8
2
  6
CONTINUOUS
 62
     2
 10
1071.5
 20
822.1
 11
1094.0
 21
822.1
  0
LINE
  8
2
  6
CONTINUOUS
 62
     2
 10
1094.0
 20
822.1
 11
1119.0
 21
822.1
  0
LINE
  8
2
  6
CONTINUOUS
 62
     2
 10
1119.0
 20
822.1
 11
1173.9
 21
822.1
  0
LINE
  8
2
  6
CONTINUOUS
 62
     2
 10
1119.0
 20
822.1
 11
1133.488887394
 21
818.217714323
  0
LINE
  8
2
  6
CONTINUOUS
 62
     2
 10
1119.0
 20
822.1
 11
1133.488887394
 21
825.982285677
  0
LINE
  8
2
  6
CONTINUOUS
 62
     2
 10
1119.0
 20
861.1
 11
1119.0
 21
816.1
  0
TEXT
  8
2
  6
CONTINUOUS
 62
     3
 10
1141.5
 20
828.1
 30
0.0
 40
18.0
  1
２５
 50
0.0
 41
0.9
 51
0.0
  7
KANJI25
  0
LINE
  8
0
  6
CONTINUOUS
 62
     2
 10
1117.0
 20
694.0
 11
1146.0
 21
694.0
  0
LINE
  8
0
  6
CONTINUOUS
 62
     2
 10
1140.0
 20
694.0
 11
1136.894171459
 21
682.408890085
  0
LINE
  8
0
  6
CONTINUOUS
 62
     2
 10
1140.0
 20
694.0
 11
1143.105828541
 21
682.408890085
  0
LINE
  8
0
  6
CONTINUOUS
 62
     2
 10
1140.0
 20
694.0
 11
1140.0
 21
528.0
  0
LINE
  8
0
  6
CONTINUOUS
 62
     2
 10
1140.0
 20
528.0
 11
1143.105828541
 21
539.591109915
  0
LINE
  8
0
  6
CONTINUOUS
 62
     2
 10
1140.0
 20
528.0
 11
1136.894171459
 21
539.591109915
  0
TEXT
  8
0
  6
CONTINUOUS
 62
     3
 10
1137.0
 20
586.7
 30
0.0
 40
18.0
  1
１６６
 50
90.0
 41
0.9
 51
0.0
  7
KANJI25
  0
LINE
  8
0
  6
CONTINUOUS
 62
     2
 10
1196.5
 20
867.1
 11
1199.735238064
 21
879.174072829
  0
LINE
  8
0
  6
CONTINUOUS
 62
     2
 10
1196.5
 20
867.1
 11
1193.264761936
 21
879.174072829
  0
LINE
  8
0
  6
CONTINUOUS
 62
     2
 10
1196.5
 20
867.1
 11
1196.5
 21
922.1
  0
LINE
  8
0
  6
CONTINUOUS
 62
     2
 10
1196.5
 20
922.1
 11
1193.264761936
 21
910.025927171
  0
LINE
  8
0
  6
CONTINUOUS
 62
     2
 10
1196.5
 20
922.1
 11
1199.735238064
 21
910.025927171
  0
LINE
  8
0
  6
CONTINUOUS
 62
     2
 10
1168.0
 20
882.1
 11
1164.764761936
 21
870.025927171
  0
LINE
  8
0
  6
CONTINUOUS
 62
     2
 10
1168.0
 20
882.1
 11
1171.235238064
 21
870.025927171
  0
LINE
  8
0
  6
CONTINUOUS
 62
     2
 10
1168.0
 20
863.35
 11
1168.0
 21
954.35
  0
LINE
  8
0
  6
CONTINUOUS
 62
     2
 10
1168.0
 20
907.1
 11
1171.235238064
 21
919.174072829
  0
LINE
  8
0
  6
CONTINUOUS
 62
     2
 10
1168.0
 20
907.1
 11
1164.764761936
 21
919.174072829
  0
TEXT
  8
0
  6
CONTINUOUS
 62
     2
 10
1191.5
 20
880.35
 30
0.0
 40
18.0
  1
５５
 50
90.0
 41
0.9
 51
0.0
  7
KANJI25
  0
LINE
  8
0
  6
CONTINUOUS
 62
     2
 10
1174.6
 20
718.5
 11
1171.364761936
 21
706.425927171
  0
LINE
  8
0
  6
CONTINUOUS
 62
     2
 10
1174.6
 20
718.5
 11
1177.835238064
 21
706.425927171
  0
LINE
  8
0
  6
CONTINUOUS
 62
     2
 10
1174.6
 20
718.5
 11
1174.6
 21
668.5
  0
LINE
  8
0
  6
CONTINUOUS
 62
     2
 10
1174.6
 20
668.5
 11
1177.835238064
 21
680.574072829
  0
LINE
  8
0
  6
CONTINUOUS
 62
     2
 10
1174.6
 20
668.5
 11
1171.364761936
 21
680.574072829
  0
TEXT
  8
0
  6
CONTINUOUS
 62
     2
 10
1182.5
 20
745.6
 30
0.0
 40
18.0
  1
ｄ９
 50
0.0
 41
0.9
 51
0.0
  7
KANJI25
  0
LINE
  8
0
  6
LTYPE5
 62
     2
 10
1287.0
 20
694.0
 11
1583.0
 21
694.0
  0
LINE
  8
0
  6
CONTINUOUS
 62
     2
 10
1100.0
 20
1001.5
 11
1085.511112606
 21
1005.382285677
  0
LINE
  8
0
  6
CONTINUOUS
 62
     2
 10
1100.0
 20
1001.5
 11
1085.511112606
 21
997.617714323
  0
LINE
  8
0
  6
CONTINUOUS
 62
     2
 10
1100.0
 20
1001.5
 11
1050.8
 21
1001.5
  0
TEXT
  8
0
  6
CONTINUOUS
 62
     3
 10
1059.2
 20
1013.5
 30
0.0
 40
24.0
  1
前進
 50
0.0
 41
0.925
 51
0.0
  7
KANJI29
  0
LINE
  8
0
  6
CONTINUOUS
 62
     2
 10
1724.32
 20
706.5
 11
1868.32
 21
706.5
  0
TEXT
  8
0
  6
CONTINUOUS
 62
     2
 10
1736.92
 20
714.9
 30
12.0
 40
24.0
  1
特記事項
 50
0.0
 41
0.9
 51
0.0
  7
KANJI30
  0
TEXT
  8
0
  6
CONTINUOUS
 62
     2
 10
1730.92
 20
595.2
 30
1.8
 40
21.0
  1
３．ＬＳユニット
 50
0.0
 41
0.857142857
 51
0.0
  7
KANJI31
  0
TEXT
  8
0
  6
CONTINUOUS
 62
     2
 10
1730.92
 20
670.2
 30
1.8
 40
21.0
  1
１．運転時は必ずピストンロッドの回転防止を行って下さい。
 50
0.0
 41
0.857142857
 51
0.0
  7
KANJI31
  0
TEXT
  8
0
  6
CONTINUOUS
 62
     2
 10
1730.92
 20
632.7
 30
1.8
 40
21.0
  1
２．モートル：全閉自冷かご形３０分定格
 50
0.0
 41
0.857142857
 51
0.0
  7
KANJI31
  0
TEXT
  8
0
  6
CONTINUOUS
 62
     2
 10
1730.92
 20
502.2
 30
1.8
 40
21.0
  1
４．呼称ストロークは、機械的ストロークです。
 50
0.0
 41
0.857142857
 51
0.0
  7
KANJI31
  0
LINE
  8
0
  6
LTYPE3
 62
     3
 10
1499.0
 20
592.4875
 11
1499.0
 21
637.65
  0
ARC
  8
0
  6
CONTINUOUS
 62
     1
 10
1428.0
 20
622.5
 40
6.0
 50
180.0
 51
270.0
  0
ARC
  8
0
  6
CONTINUOUS
 62
     1
 10
1449.0
 20
585.0
 40
1.0
 50
180.0
 51
270.0
  0
ARC
  8
0
  6
CONTINUOUS
 62
     1
 10
1452.0
 20
584.0
 40
1.0
 50
180.0
 51
270.0
  0
ARC
  8
0
  6
CONTINUOUS
 62
     1
 10
1549.0
 20
585.0
 40
1.0
 50
270.0
 51
0.0
  0
ARC
  8
0
  6
CONTINUOUS
 62
     1
 10
1546.0
 20
584.0
 40
1.0
 50
270.0
 51
0.0
  0
LINE
  8
0
  6
CONTINUOUS
 62
     1
 10
1550.0
 20
590.0
 11
1448.0
 21
590.0
  0
LINE
  8
0
  6
CONTINUOUS
 62
     1
 10
1550.0
 20
591.5
 11
1448.0
 21
591.5
  0
LINE
  8
0
  6
CONTINUOUS
 62
     1
 10
1546.0
 20
583.0
 11
1452.0
 21
583.0
  0
LINE
  8
0
  6
CONTINUOUS
 62
     1
 10
1549.0
 20
584.0
 11
1449.0
 21
584.0
  0
LINE
  8
0
  6
CONTINUOUS
 62
     1
 10
1550.0
 20
616.5
 11
1570.0
 21
616.5
  0
LINE
  8
0
  6
CONTINUOUS
 62
     1
 10
1428.0
 20
616.5
 11
1448.0
 21
616.5
  0
LINE
  8
0
  6
LTYPE3
 62
     2
 10
1544.0
 20
579.3
 11
1544.0
 21
598.0
  0
LINE
  8
0
  6
LTYPE3
 62
     2
 10
1454.0
 20
579.3
 11
1454.0
 21
598.0
  0
LINE
  8
0
  6
LTYPE3
 62
     3
 10
1499.0
 20
592.4875
 11
1499.0
 21
637.65
  0
LINE
  8
0
  6
CONTINUOUS
 62
     2
 10
1422.0
 20
615.0
 11
1422.0
 21
527.3
  0
LINE
  8
0
  6
CONTINUOUS
 62
     2
 10
1422.0
 20
534.8
 11
1434.074072829
 21
531.564761936
  0
LINE
  8
0
  6
CONTINUOUS
 62
     2
 10
1422.0
 20
534.8
 11
1434.074072829
 21
538.035238064
  0
LINE
  8
0
  6
CONTINUOUS
 62
     2
 10
1422.0
 20
534.8
 11
1576.0
 21
534.8
  0
LINE
  8
0
  6
CONTINUOUS
 62
     2
 10
1419.0
 20
494.3375
 11
1431.074072829
 21
491.102261936
  0
LINE
  8
0
  6
CONTINUOUS
 62
     2
 10
1419.0
 20
494.3375
 11
1431.074072829
 21
497.572738064
  0
LINE
  8
0
  6
CONTINUOUS
 62
     2
 10
1419.0
 20
494.3375
 11
1579.0
 21
494.3375
  0
CIRCLE
  8
0
  6
CONTINUOUS
 62
     2
 10
1499.0
 20
608.5
 40
10.4775
  0
CIRCLE
  8
0
  6
CONTINUOUS
 62
     2
 10
1499.0
 20
608.5
 40
9.3155
  0
LINE
  8
0
  6
LTYPE2
 62
     2
 10
1518.9
 20
608.5
 11
1478.2
 21
608.5
  0
ARC
  8
0
  6
CONTINUOUS
 62
     1
 10
1570.0
 20
622.5
 40
6.0
 50
270.0
 51
0.0
  0
LINE
  8
0
  6
CONTINUOUS
 62
     1
 10
1576.0
 20
622.5
 11
1576.0
 21
672.639279073
  0
LINE
  8
0
  6
CONTINUOUS
 62
     2
 10
1576.0
 20
534.8
 11
1563.925927171
 21
538.035238064
  0
LINE
  8
0
  6
CONTINUOUS
 62
     2
 10
1576.0
 20
534.8
 11
1563.925927171
 21
531.564761936
  0
LINE
  8
0
  6
CONTINUOUS
 62
     2
 10
1576.0
 20
615.0
 11
1576.0
 21
527.3
  0
LINE
  8
0
  6
CONTINUOUS
 62
     2
 10
1579.0
 20
494.3375
 11
1566.925927171
 21
497.572738064
  0
LINE
  8
0
  6
CONTINUOUS
 62
     2
 10
1579.0
 20
494.3375
 11
1566.925927171
 21
491.102261936
  0
TEXT
  8
0
  6
CONTINUOUS
 62
     2
 10
1477.25
 20
539.8
 30
0.0
 40
18.0
  1
１５４
 50
0.0
 41
0.9
 51
0.0
  7
KANJI25
  0
TEXT
  8
0
  6
CONTINUOUS
 62
     2
 10
1477.25
 20
499.3375
 30
0.0
 40
18.0
  1
１６０
 50
0.0
 41
0.9
 51
0.0
  7
KANJI25
  0
LINE
  8
0
  6
CONTINUOUS
 62
     1
 10
1499.0
 20
753.0
 11
1499.0
 21
753.0
  0
LINE
  8
0
  6
CONTINUOUS
 62
     1
 10
1579.0
 20
673.0
 11
1579.0
 21
715.0
  0
LINE
  8
0
  6
CONTINUOUS
 62
     2
 10
1579.0
 20
665.5
 11
1579.0
 21
486.8375
  0
ARC
  8
0
  6
CONTINUOUS
 62
     1
 10
1452.0
 20
741.0
 40
9.0
 50
0.0
 51
4.497151615
  0
LINE
  8
0
  6
CONTINUOUS
 62
     1
 10
1422.0
 20
622.5
 11
1422.0
 21
672.639279073
  0
LINE
  8
0
  6
CONTINUOUS
 62
     2
 10
1419.0
 20
665.5
 11
1419.0
 21
486.8375
  0
TEXT
  8
0
  6
CONTINUOUS
 62
     2
 10
1730.92
 20
535.2
 30
1.8
 40
21.0
  1
　　ストローク７００ｍｍ以上の場合２ロッド方式となります。
 50
0.0
 41
0.857142857
 51
0.0
  7
KANJI31
  0
TEXT
  8
0
  6
CONTINUOUS
 62
     2
 10
1730.92
 20
565.2
 30
1.8
 40
21.0
  1
　　リミットスイッチ：１ＬＳ１－Ｊｘ２ケ（山武）
 50
0.0
 41
0.857142857
 51
0.0
  7
KANJI31
  0
TEXT
  8
0
  6
CONTINUOUS
 62
     2
 10
1730.92
 20
465.24
 30
1.8
 40
21.0
  1
　　必ず、常用はストローク両端に必ず余裕を取って下さい。
 50
0.0
 41
0.857142857
 51
0.0
  7
KANJI31
  0
LINE
  8
0
  6
CONTINUOUS
 62
     1
 10
1009.12
 20
1493.24
 11
1786.72
 21
1493.24
  0
LINE
  8
0
  6
CONTINUOUS
 62
     1
 10
1009.12
 20
1459.64
 11
1786.72
 21
1459.64
  0
TEXT
  8
0
  6
CONTINUOUS
 62
     2
 10
1057.12
 20
1469.24
 30
1.536
 40
15.36
  1
形
 50
0.0
 41
0.9
 51
0.0
  7
KANJI32
  0
TEXT
  8
0
  6
CONTINUOUS
 62
     2
 10
1150.72
 20
1469.24
 30
1.536
 40
15.36
  1
式
 50
0.0
 41
0.9
 51
0.0
  7
KANJI32
  0
TEXT
  8
0
  6
CONTINUOUS
 62
     2
 10
1223.2
 20
1468.28
 30
1.44
 40
14.4
  1
ストローク
 50
0.0
 41
0.9
 51
0.0
  7
KANJI33
  0
TEXT
  8
0
  6
CONTINUOUS
 62
     2
 10
1315.36
 20
1467.32
 30
0.0
 40
14.4
  1
ｍｉｎ　
 50
0.0
 41
0.9
 51
0.0
  7
KANJI34
  0
TEXT
  8
0
  6
CONTINUOUS
 62
     2
 10
1411.36
 20
1467.32
 30
0.0
 40
14.4
  1
ｍｉｎ　
 50
0.0
 41
0.9
 51
0.0
  7
KANJI34
  0
TEXT
  8
0
  6
CONTINUOUS
 62
     2
 10
1603.36
 20
1467.32
 30
0.0
 40
14.4
  1
ｍｉｎ　
 50
0.0
 41
0.9
 51
0.0
  7
KANJI34
  0
TEXT
  8
0
  6
CONTINUOUS
 62
     2
 10
1364.32
 20
1468.28
 30
1.68
 40
16.8
  1
ＡＬ
 50
0.0
 41
0.9
 51
0.0
  7
KANJI35
  0
TEXT
  8
0
  6
CONTINUOUS
 62
     2
 10
1460.32
 20
1468.28
 30
1.68
 40
16.8
  1
Ｌ
 50
0.0
 41
0.9
 51
0.0
  7
KANJI35
  0
TEXT
  8
0
  6
CONTINUOUS
 62
     2
 10
1541.92
 20
1468.28
 30
1.68
 40
16.8
  1
Ｃ
 50
0.0
 41
0.9
 51
0.0
  7
KANJI35
  0
TEXT
  8
0
  6
CONTINUOUS
 62
     2
 10
1652.32
 20
1468.28
 30
1.68
 40
16.8
  1
Ｐ
 50
0.0
 41
0.9
 51
0.0
  7
KANJI35
  0
TEXT
  8
0
  6
CONTINUOUS
 62
     2
 10
1751.08
 20
1467.92
 30
0.0
 40
12.96
  1
（ｋｇ）
 50
0.0
 41
0.740740741
 51
0.0
  7
KANJI36
  0
TEXT
  8
0
  6
CONTINUOUS
 62
     2
 10
1693.48
 20
1467.68
 30
1.44
 40
16.8
  1
概算重量
 50
0.0
 41
0.857142857
 51
0.0
  7
KANJI37
  0
TEXT
  8
0
  6
CONTINUOUS
 62
     2
 10
1232.32
 20
1434.08
 30
1.44
 40
14.4
  1
　２００
 50
0.0
 41
0.9
 51
0.0
  7
KANJI33
  0
TEXT
  8
0
  6
CONTINUOUS
 62
     2
 10
1232.32
 20
1400.48
 30
1.44
 40
14.4
  1
　３００
 50
0.0
 41
0.9
 51
0.0
  7
KANJI33
  0
TEXT
  8
0
  6
CONTINUOUS
 62
     2
 10
1232.32
 20
1266.08
 30
1.44
 40
14.4
  1
　７００
 50
0.0
 41
0.9
 51
0.0
  7
KANJI33
  0
TEXT
  8
0
  6
CONTINUOUS
 62
     2
 10
1232.32
 20
1333.28
 30
1.44
 40
14.4
  1
　５００
 50
0.0
 41
0.9
 51
0.0
  7
KANJI33
  0
TEXT
  8
0
  6
CONTINUOUS
 62
     2
 10
1232.32
 20
1366.88
 30
1.44
 40
14.4
  1
　４００
 50
0.0
 41
0.9
 51
0.0
  7
KANJI33
  0
TEXT
  8
0
  6
CONTINUOUS
 62
     2
 10
1232.32
 20
1299.68
 30
1.44
 40
14.4
  1
　６００
 50
0.0
 41
0.9
 51
0.0
  7
KANJI33
  0
TEXT
  8
0
  6
CONTINUOUS
 62
     2
 10
1232.32
 20
1232.48
 30
1.44
 40
14.4
  1
　８００
 50
0.0
 41
0.9
 51
0.0
  7
KANJI33
  0
LINE
  8
0
  6
CONTINUOUS
 62
     1
 10
1009.12
 20
1057.04
 11
1786.72
 21
1057.04
  0
LINE
  8
0
  6
CONTINUOUS
 62
     1
 10
1009.12
 20
1493.24
 11
1009.12
 21
1057.04
  0
LINE
  8
0
  6
CONTINUOUS
 62
     1
 10
1210.72
 20
1493.24
 11
1210.72
 21
1057.04
  0
LINE
  8
0
  6
CONTINUOUS
 62
     2
 10
1306.72
 20
1493.24
 11
1306.72
 21
1057.04
  0
LINE
  8
0
  6
CONTINUOUS
 62
     1
 10
1786.72
 20
1493.24
 11
1786.72
 21
1057.04
  0
TEXT
  8
0
  6
CONTINUOUS
 62
     2
 10
1232.32
 20
1165.28
 30
1.44
 40
14.4
  1
１０００
 50
0.0
 41
0.9
 51
0.0
  7
KANJI33
  0
TEXT
  8
0
  6
CONTINUOUS
 62
     2
 10
1232.32
 20
1198.88
 30
1.44
 40
14.4
  1
　９００
 50
0.0
 41
0.9
 51
0.0
  7
KANJI33
  0
TEXT
  8
0
  6
CONTINUOUS
 62
     2
 10
1232.32
 20
1131.88
 30
1.44
 40
14.4
  1
１１００
 50
0.0
 41
0.9
 51
0.0
  7
KANJI33
  0
TEXT
  8
0
  6
CONTINUOUS
 62
     2
 10
1232.32
 20
1098.28
 30
1.44
 40
14.4
  1
１２００
 50
0.0
 41
0.9
 51
0.0
  7
KANJI33
  0
LINE
  8
0
  6
CONTINUOUS
 62
     1
 10
1459.3
 20
583.0
 11
1448.7
 21
583.0
  0
ARC
  8
0
  6
CONTINUOUS
 62
     1
 10
1454.4
 20
584.0
 40
5.0
 50
272.3
 51
348.5
  0
ARC
  8
0
  6
CONTINUOUS
 62
     1
 10
1453.6
 20
584.0
 40
5.0
 50
191.5
 51
267.7
  0
LINE
  8
0
  6
CONTINUOUS
 62
     1
 10
1454.6
 20
579.0
 11
1453.4
 21
579.0
  0
LINE
  8
0
  6
LTYPE4
 62
     2
 10
1454.0
 20
575.6
 11
1454.0
 21
589.0
  0
LINE
  8
0
  6
CONTINUOUS
 62
     1
 10
1549.3
 20
583.0
 11
1538.7
 21
583.0
  0
ARC
  8
0
  6
CONTINUOUS
 62
     1
 10
1544.4
 20
584.0
 40
5.0
 50
272.3
 51
348.5
  0
ARC
  8
0
  6
CONTINUOUS
 62
     1
 10
1543.6
 20
584.0
 40
5.0
 50
191.5
 51
267.7
  0
LINE
  8
0
  6
CONTINUOUS
 62
     1
 10
1544.6
 20
579.0
 11
1543.4
 21
579.0
  0
LINE
  8
0
  6
LTYPE4
 62
     2
 10
1544.0
 20
575.6
 11
1544.0
 21
589.0
  0
LINE
  8
0
  6
CONTINUOUS
 62
     1
 10
379.0
 20
950.0
 11
388.2
 21
950.0
  0
CIRCLE
  8
0
  6
CONTINUOUS
 62
     1
 10
379.0
 20
964.0
 40
12.5
  0
LINE
  8
0
  6
CONTINUOUS
 62
     1
 10
379.0
 20
951.5
 11
388.2
 21
950.0
  0
ARC
  8
0
  6
CONTINUOUS
 62
     1
 10
379.0
 20
964.0
 40
20.5
 50
300.423432294
 51
0.0
  0
LINE
  8
0
  6
CONTINUOUS
 62
     1
 10
388.760585153
 20
945.094879912
 11
388.2
 21
950.0
  0
ARC
  8
0
  6
CONTINUOUS
 62
     1
 10
389.947984073
 20
945.273488336
 40
1.2
 50
118.393405187
 51
188.554293104
  0
LINE
  8
0
  6
CONTINUOUS
 62
     1
 10
379.0
 20
950.0
 11
369.8
 21
950.0
  0
LINE
  8
0
  6
CONTINUOUS
 62
     1
 10
379.0
 20
951.5
 11
369.8
 21
950.0
  0
LINE
  8
0
  6
CONTINUOUS
 62
     1
 10
369.239414847
 20
945.094879912
 11
369.8
 21
950.0
  0
ARC
  8
0
  6
CONTINUOUS
 62
     1
 10
368.052015927
 20
945.273488336
 40
1.2
 50
351.445706896
 51
61.606594813
  0
ARC
  8
0
  6
CONTINUOUS
 62
     1
 10
379.0
 20
964.0
 40
20.5
 50
0.0
 51
239.707348078
  0
LINE
  8
0
  6
CONTINUOUS
 62
     1
 10
369.114285714
 20
944.0
 11
369.239414847
 21
945.094879912
  0
LINE
  8
0
  6
CONTINUOUS
 62
     1
 10
388.885714286
 20
944.0
 11
388.760585153
 21
945.094879912
  0
ARC
  8
0
  6
CONTINUOUS
 62
     1
 10
369.0
 20
941.0
 40
3.0
 50
90.0
 51
180.0
  0
LINE
  8
0
  6
CONTINUOUS
 62
     1
 10
395.0
 20
944.0
 11
391.0
 21
892.0
  0
LINE
  8
0
  6
CONTINUOUS
 62
     1
 10
395.0
 20
825.0
 11
395.0
 21
944.0
  0
LINE
  8
0
  6
CONTINUOUS
 62
     1
 10
366.0
 20
898.0
 11
366.0
 21
941.0
  0
LINE
  8
0
  6
LTYPE3
 62
     2
 10
402.5
 20
964.0
 11
353.5
 21
964.0
  0
LINE
  8
0
  6
LTYPE3
 62
     2
 10
379.0
 20
930.1
 11
379.0
 21
992.8
  0
LINE
  8
0
  6
CONTINUOUS
 62
     1
 10
391.0
 20
886.4
 11
391.0
 21
892.0
  0
LINE
  8
0
  6
CONTINUOUS
 62
     1
 10
328.0
 20
832.0
 11
328.0
 21
866.0
  0
LINE
  8
0
  6
CONTINUOUS
 62
     1
 10
391.0
 20
825.0
 11
391.0
 21
883.3
  0
LINE
  8
0
  6
CONTINUOUS
 62
     1
 10
360.0
 20
892.0
 11
332.0
 21
892.0
  0
ARC
  8
0
  6
CONTINUOUS
 62
     1
 10
360.0
 20
898.0
 40
6.0
 50
270.0
 51
360.0
  0
LINE
  8
0
  6
CONTINUOUS
 62
     1
 10
391.0
 20
892.0
 11
360.0
 21
892.0
  0
LINE
  8
0
  6
LTYPE3
 62
     2
 10
700.0
 20
849.0
 11
288.6
 21
849.0
  0
ARC
  8
0
  6
CONTINUOUS
 62
     2
 10
257.0
 20
850.0
 40
20.0
 50
231.952957468
 51
156.801409486
  0
LINE
  8
0
  6
CONTINUOUS
 62
     2
 10
238.6170994
 20
857.878385972
 11
240.91179211
 21
867.715824749
  0
TEXT
  8
0
  6
CONTINUOUS
 62
     2
 10
176.6170994
 20
840.878385972
 30
0.0
 40
15.0
  1
前進方向
 50
0.0
 41
0.9
 51
0.0
  7
KANJI24
  0
LINE
  8
0
  6
CONTINUOUS
 62
     2
 10
238.6170994
 20
857.878385972
 11
246.885260778
 21
862.785722507
  0
ARC
  8
0
  6
CONTINUOUS
 62
     1
 10
385.0
 20
825.0
 40
6.0
 50
270.0
 51
0.0
  0
LINE
  8
0
  6
CONTINUOUS
 62
     1
 10
389.0
 20
819.0
 11
332.0
 21
819.0
  0
ARC
  8
0
  6
CONTINUOUS
 62
     1
 10
389.0
 20
825.0
 40
6.0
 50
270.0
 51
0.0
  0
LINE
  8
0
  6
CONTINUOUS
 62
     1
 10
332.0
 20
616.5
 11
332.0
 21
892.0
  0
LINE
  8
0
  6
CONTINUOUS
 62
     1
 10
403.0
 20
616.5
 11
403.0
 21
944.0
  0
LINE
  8
0
  6
CONTINUOUS
 62
     2
 10
450.2199996
 20
236.6999876
 11
450.2199996
 21
183.0999876
  0
LINE
  8
0
  6
CONTINUOUS
 62
     2
 10
291.0199996
 20
225.0999876
 11
450.2199996
 21
225.0999876
  0
LINE
  8
0
  6
CONTINUOUS
 62
     2
 10
450.2199996
 20
225.0999876
 11
442.49259299
 21
227.170539961
  0
LINE
  8
0
  6
CONTINUOUS
 62
     2
 10
450.2199996
 20
225.0999876
 11
442.49259299
 21
223.029435239
  0
TEXT
  8
0
  6
CONTINUOUS
 62
     3
 10
333.0199996
 20
227.0999876
 30
0.0
 40
15.0
  1
常用ストローク
 50
0.0
 41
0.9
 51
0.0
  7
KANJI24
  0
LINE
  8
0
  6
CONTINUOUS
 62
     2
 10
1499.0
 20
560.776926248
 11
1499.0
 21
558.276926248
  0
TEXT
  8
2
  6
CONTINUOUS
 62
     2
 10
1248.928145063
 20
872.226926248
 30
0.0
 40
18.0
  1
２－ＰＦ１／２
 50
0.0
 41
0.9
 51
0.0
  7
KANJI25
  0
LINE
  8
2
  6
CONTINUOUS
 62
     2
 10
1357.949982657
 20
868.226926248
 11
1249.949982657
 21
868.226926248
  0
LINE
  8
0
  6
CONTINUOUS
 62
     2
 10
1868.92
 20
896.7
 11
2393.92
 21
896.7
  0
LINE
  8
0
  6
CONTINUOUS
 62
     2
 10
1868.92
 20
854.7
 11
2393.92
 21
854.7
  0
LINE
  8
0
  6
CONTINUOUS
 62
     2
 10
1916.92
 20
1232.7
 11
1916.92
 21
896.7
  0
TEXT
  8
0
  6
CONTINUOUS
 62
     2
 10
1901.92
 20
865.5
 30
79.962857143
 40
22.8
  1
付属品
 50
0.0
 41
0.9
 51
0.0
  7
KANJI38
  0
TEXT
  8
0
  6
CONTINUOUS
 62
     2
 10
1901.92
 20
823.5
 30
180.445714286
 40
22.8
  1
台数
 50
0.0
 41
0.9
 51
0.0
  7
KANJI39
  0
LINE
  8
0
  6
CONTINUOUS
 62
     1
 10
1868.92
 20
1628.7
 11
2393.92
 21
1628.7
  0
TEXT
  8
0
  6
CONTINUOUS
 62
     2
 10
1943.92
 20
1584.9
 30
17.09964
 40
27.0
  1
マイティシリンダ仕様
 50
0.0
 41
0.9
 51
0.0
  7
KANJI40
  0
LINE
  8
0
  6
CONTINUOUS
 62
     2
 10
1916.92
 20
938.7
 11
2393.92
 21
938.7
  0
LINE
  8
0
  6
CONTINUOUS
 62
     2
 10
1916.92
 20
1064.7
 11
2393.92
 21
1064.7
  0
LINE
  8
0
  6
CONTINUOUS
 62
     2
 10
1916.92
 20
1106.7
 11
2393.92
 21
1106.7
  0
LINE
  8
0
  6
CONTINUOUS
 62
     2
 10
1868.92
 20
1316.7
 11
2393.92
 21
1316.7
  0
LINE
  8
0
  6
CONTINUOUS
 62
     2
 10
1868.92
 20
1274.7
 11
2393.92
 21
1274.7
  0
LINE
  8
0
  6
CONTINUOUS
 62
     2
 10
1868.92
 20
1232.7
 11
2393.92
 21
1232.7
  0
LINE
  8
0
  6
CONTINUOUS
 62
     2
 10
1916.92
 20
1148.7
 11
2393.92
 21
1148.7
  0
LINE
  8
0
  6
CONTINUOUS
 62
     2
 10
1916.92
 20
1190.7
 11
2393.92
 21
1190.7
  0
LINE
  8
0
  6
CONTINUOUS
 62
     2
 10
1868.92
 20
1526.7
 11
2393.92
 21
1526.7
  0
LINE
  8
0
  6
CONTINUOUS
 62
     2
 10
1868.92
 20
1484.7
 11
2393.92
 21
1484.7
  0
LINE
  8
0
  6
CONTINUOUS
 62
     2
 10
1868.92
 20
1442.7
 11
2393.92
 21
1442.7
  0
LINE
  8
0
  6
CONTINUOUS
 62
     2
 10
1868.92
 20
1400.7
 11
2393.92
 21
1400.7
  0
LINE
  8
0
  6
CONTINUOUS
 62
     2
 10
1868.92
 20
1358.7
 11
2393.92
 21
1358.7
  0
LINE
  8
0
  6
CONTINUOUS
 62
     2
 10
1868.92
 20
1568.7
 11
2393.92
 21
1568.7
  0
TEXT
  8
0
  6
CONTINUOUS
 62
     2
 10
1943.92
 20
1159.5
 30
33.439782857
 40
22.8
  1
電源電圧
 50
0.0
 41
0.9
 51
0.0
  7
KANJI41
  0
TEXT
  8
0
  6
CONTINUOUS
 62
     2
 10
1943.92
 20
1117.5
 30
60.42
 40
22.8
  1
周波数
 50
0.0
 41
0.9
 51
0.0
  7
KANJI42
  0
TEXT
  8
0
  6
CONTINUOUS
 62
     2
 10
1943.92
 20
1075.5
 30
141.36
 40
22.8
  1
電流
 50
0.0
 41
0.9
 51
0.0
  7
KANJI43
  0
TEXT
  8
0
  6
CONTINUOUS
 62
     2
 10
1943.92
 20
1033.5
 30
60.42
 40
22.8
  1
絶縁級
 50
0.0
 41
0.9
 51
0.0
  7
KANJI42
  0
TEXT
  8
0
  6
CONTINUOUS
 62
     2
 10
1901.92
 20
1537.5
 30
180.445714286
 40
22.8
  1
形式
 50
0.0
 41
0.9
 51
0.0
  7
KANJI39
  0
TEXT
  8
0
  6
CONTINUOUS
 62
     2
 10
1901.92
 20
1495.5
 30
180.445714286
 40
22.8
  1
推力
 50
0.0
 41
0.9
 51
0.0
  7
KANJI39
  0
TEXT
  8
0
  6
CONTINUOUS
 62
     2
 10
1901.92
 20
1453.5
 30
29.721428571
 40
22.8
  1
ストローク
 50
0.0
 41
0.9
 51
0.0
  7
KANJI44
  0
TEXT
  8
0
  6
CONTINUOUS
 62
     2
 10
1901.92
 20
1327.5
 30
180.445714286
 40
22.8
  1
構造
 50
0.0
 41
0.9
 51
0.0
  7
KANJI39
  0
TEXT
  8
0
  6
CONTINUOUS
 62
     2
 10
1901.92
 20
1285.5
 30
12.973851429
 40
22.8
  1
過負荷安全装置
 50
0.0
 41
0.9
 51
0.0
  7
KANJI45
  0
TEXT
  8
0
  6
CONTINUOUS
 62
     2
 10
1901.92
 20
1243.5
 30
79.962857143
 40
22.8
  1
塗装色
 50
0.0
 41
0.9
 51
0.0
  7
KANJI38
  0
TEXT
  8
0
  6
CONTINUOUS
 62
     2
 10
1877.92
 20
1369.5
 30
1.954285714
 40
22.8
  1
ピストンロッド回転トルク
 50
0.0
 41
0.9
 51
0.0
  7
KANJI46
  0
LINE
  8
0
  6
CONTINUOUS
 62
     2
 10
1868.92
 20
1022.7
 11
2393.92
 21
1022.7
  0
LINE
  8
0
  6
CONTINUOUS
 62
     2
 10
1916.92
 20
980.7
 11
2393.92
 21
980.7
  0
TEXT
  8
0
  6
CONTINUOUS
 62
     2
 10
1893.37
 20
1226.7
 30
13.2
 40
21.0
  1
モ　トル仕様
 50
0.0
 41
0.9
 51
0.0
  7
KANJI47
  0
TEXT
  8
0
  6
CONTINUOUS
 62
     2
 10
1893.37
 20
1004.7
 30
1.2
 40
21.0
  1
ブレ　キ
 50
0.0
 41
0.9
 51
0.0
  7
KANJI48
  0
LINE
  8
0
  6
CONTINUOUS
 62
     2
 10
1891.72
 20
954.9
 11
1891.72
 21
942.3
  0
TEXT
  8
0
  6
CONTINUOUS
 62
     2
 10
2203.42
 20
1286.7
 30
9.0
 40
21.0
  1
推力リミッタ
 50
0.0
 41
0.9
 51
0.0
  7
KANJI49
  0
TEXT
  8
0
  6
CONTINUOUS
 62
     2
 10
2260.42
 20
1034.7
 30
1.8
 40
18.0
  1
Ｅ
 50
0.0
 41
0.9
 51
0.0
  7
KANJI50
  0
TEXT
  8
0
  6
CONTINUOUS
 62
     2
 10
2216.92
 20
949.5
 30
12.0
 40
21.0
  1
同時切り
 50
0.0
 41
0.9
 51
0.0
  7
KANJI51
  0
TEXT
  8
0
  6
CONTINUOUS
 62
     2
 10
1943.92
 20
991.5
 30
141.36
 40
22.8
  1
形式
 50
0.0
 41
0.9
 51
0.0
  7
KANJI43
  0
TEXT
  8
0
  6
CONTINUOUS
 62
     2
 10
1943.92
 20
949.5
 30
33.439782857
 40
22.8
  1
操作方式
 50
0.0
 41
0.9
 51
0.0
  7
KANJI41
  0
LINE
  8
0
  6
CONTINUOUS
 62
     2
 10
1891.72
 20
1190.1
 11
1891.72
 21
1176.3
  0
TEXT
  8
0
  6
CONTINUOUS
 62
     2
 10
1943.92
 20
1201.5
 30
3.0
 40
22.8
  1
出力　相数　極数
 50
0.0
 41
0.9
 51
0.0
  7
KANJI52
  0
TEXT
  8
0
  6
CONTINUOUS
 62
     2
 10
1901.92
 20
1411.5
 30
12.0
 40
22.8
  1
公称速度
 50
0.0
 41
0.9
 51
0.0
  7
KANJI53
  0
TEXT
  8
0
  6
CONTINUOUS
 62
     2
 10
2025.82
 20
1410.3
 30
0.0
 40
21.0
  1
（５０／６０Ｈｚ）
 50
0.0
 41
0.628571429
 51
0.0
  7
KANJI54
  0
TEXT
  8
0
  6
CONTINUOUS
 62
     2
 10
2146.42
 20
991.95
 30
3.3
 40
20.4
  1
スプリング制動式電磁ブレーキ
 50
0.0
 41
0.705882353
 51
0.0
  7
KANJI55
  0
TEXT
  8
0
  6
CONTINUOUS
 62
     2
 10
2365.42
 20
1159.5
 30
0.216
 40
18.0
  1
Ｖ
 50
0.0
 41
0.8
 51
0.0
  7
KANJI56
  0
TEXT
  8
0
  6
CONTINUOUS
 62
     2
 10
2354.62
 20
1117.5
 30
0.216
 40
18.0
  1
Ｈｚ
 50
0.0
 41
0.8
 51
0.0
  7
KANJI56
  0
TEXT
  8
0
  6
CONTINUOUS
 62
     2
 10
2365.42
 20
1075.5
 30
0.216
 40
18.0
  1
Ａ
 50
0.0
 41
0.8
 51
0.0
  7
KANJI56
  0
TEXT
  8
0
  6
CONTINUOUS
 62
     2
 10
2286.52
 20
1202.7
 30
1.8
 40
18.0
  1
３φ
 50
0.0
 41
0.9
 51
0.0
  7
KANJI50
  0
TEXT
  8
0
  6
CONTINUOUS
 62
     2
 10
2346.52
 20
1202.7
 30
1.8
 40
18.0
  1
４Ｐ
 50
0.0
 41
0.9
 51
0.0
  7
KANJI50
  0
TEXT
  8
0
  6
CONTINUOUS
 62
     2
 10
2144.92
 20
1244.7
 30
1.2
 40
19.2
  1
マンセル　７．５ＧＹ　５／４．５
 50
0.0
 41
0.71875
 51
0.0
  7
KANJI57
  0
TEXT
  8
0
  6
CONTINUOUS
 62
     2
 10
2144.92
 20
1160.7
 30
1.8
 40
18.0
  1
　　　　　　　／　　　
 50
0.0
 41
0.9
 51
0.0
  7
KANJI50
  0
TEXT
  8
0
  6
CONTINUOUS
 62
     2
 10
2144.92
 20
1118.7
 30
1.8
 40
18.0
  1
　　　　５０／　６０
 50
0.0
 41
0.9
 51
0.0
  7
KANJI50
  0
TEXT
  8
0
  6
CONTINUOUS
 62
     2
 10
2144.92
 20
1076.7
 30
1.8
 40
18.0
  1
　　　　　　　／　　　
 50
0.0
 41
0.9
 51
0.0
  7
KANJI50
  0
TEXT
  8
0
  6
CONTINUOUS
 62
     2
 10
2349.52
 20
1455.9
 30
0.1536
 40
19.2
  1
ｍｍ
 50
0.0
 41
0.8
 51
0.0
  7
KANJI58
  0
TEXT
  8
0
  6
CONTINUOUS
 62
     2
 10
2203.42
 20
1328.7
 30
9.0
 40
21.0
  1
全閉屋内形
 50
0.0
 41
0.9
 51
0.0
  7
KANJI49
  0
TEXT
  8
0
  6
CONTINUOUS
 62
     2
 10
2310.52
 20
1412.7
 30
0.0
 40
21.0
  1
ｍｍ／ｓｅｃ
 50
0.0
 41
0.571428571
 51
0.0
  7
KANJI59
  0
TEXT
  8
0
  6
CONTINUOUS
 62
     2
 10
2188.72
 20
1496.7
 30
1.8
 40
18.0
  1
９．８ＫＮ（１ｔｏｎ）
 50
0.0
 41
0.9
 51
0.0
  7
KANJI50
  0
LINE
  8
0
  6
CONTINUOUS
 62
     1
 10
1868.92
 20
770.7
 11
2393.92
 21
770.7
  0
LINE
  8
0
  6
CONTINUOUS
 62
     2
 10
1868.92
 20
812.7
 11
2393.92
 21
812.7
  0
TEXT
  8
0
  6
CONTINUOUS
 62
     2
 10
2338.72
 20
782.88
 30
0.0
 40
21.0
  1
ｋｇ
 50
0.0
 41
0.9
 51
0.0
  7
KANJI60
  0
TEXT
  8
0
  6
CONTINUOUS
 62
     2
 10
1900.72
 20
781.5
 30
6.0
 40
21.0
  1
概算重量（１台当り）
 50
0.0
 41
0.857142857
 51
0.0
  7
KANJI61
  0
LINE
  8
0
  6
CONTINUOUS
 62
     1
 10
1868.92
 20
1628.7
 11
1868.92
 21
770.7
  0
LINE
  8
0
  6
CONTINUOUS
 62
     2
 10
2144.92
 20
1568.7
 11
2144.92
 21
770.7
  0
LINE
  8
0
  6
CONTINUOUS
 62
     1
 10
2393.92
 20
1628.7
 11
2393.92
 21
770.7
  0
LINE
  8
0
  6
CONTINUOUS
 62
     2
 10
265.58
 20
965.8
 11
184.6
 21
965.8
  0
LINE
  8
0
  6
CONTINUOUS
 62
     2
 10
305.5
 20
866.0
 11
265.58
 21
965.8
  0
TEXT
  8
0
  6
CONTINUOUS
 62
     2
 10
184.6
 20
970.8
 30
0.0
 40
18.0
  1
手動軸カバー
 50
0.0
 41
0.9
 51
0.0
  7
KANJI25
  0
TEXT
  8
0
  6
CONTINUOUS
 62
     3
 10
187.466667
 20
943.966683
 30
1.5
 40
15.0
  1
手動軸□８
 50
0.0
 41
0.9
 51
0.0
  7
KANJI62
  0
LINE
  8
0
  6
CONTINUOUS
 62
     2
 10
305.5
 20
866.0
 11
304.019645058
 21
878.412032438
  0
LINE
  8
0
  6
CONTINUOUS
 62
     2
 10
305.5
 20
866.0
 11
298.011958794
 21
876.008957933
  0
LINE
  8
0
  6
CONTINUOUS
 62
     1
 10
332.0
 20
866.0
 11
290.0
 21
866.0
  0
LINE
  8
0
  6
CONTINUOUS
 62
     1
 10
290.0
 20
832.0
 11
290.0
 21
866.0
  0
LINE
  8
0
  6
CONTINUOUS
 62
     1
 10
332.0
 20
832.0
 11
290.0
 21
832.0
  0
LINE
  8
0
  6
CONTINUOUS
 62
     1
 10
585.0
 20
636.0
 11
585.0
 21
751.0
  0
LINE
  8
0
  6
CONTINUOUS
 62
     1
 10
594.0
 20
751.0
 11
585.0
 21
751.0
  0
LINE
  8
0
  6
CONTINUOUS
 62
     1
 10
594.0
 20
637.0
 11
594.0
 21
751.0
  0
LINE
  8
0
  6
CONTINUOUS
 62
     1
 10
594.0
 20
637.0
 11
585.0
 21
637.0
  0
LINE
  8
0
  6
CONTINUOUS
 62
     2
 10
641.5
 20
741.5
 11
643.5
 21
741.5
  0
LINE
  8
0
  6
CONTINUOUS
 62
     2
 10
637.5
 20
741.5
 11
633.617714323
 21
727.011112606
  0
LINE
  8
0
  6
CONTINUOUS
 62
     2
 10
637.5
 20
741.5
 11
641.382285677
 21
727.011112606
  0
LINE
  8
0
  6
CONTINUOUS
 62
     2
 10
637.5
 20
741.5
 11
637.5
 21
646.5
  0
LINE
  8
0
  6
CONTINUOUS
 62
     2
 10
637.5
 20
646.5
 11
641.382285677
 21
660.988887394
  0
LINE
  8
0
  6
CONTINUOUS
 62
     2
 10
637.5
 20
646.5
 11
633.617714323
 21
660.988887394
  0
LINE
  8
0
  6
CONTINUOUS
 62
     2
 10
641.5
 20
646.5
 11
643.5
 21
646.5
  0
TEXT
  8
0
  6
CONTINUOUS
 62
     3
 10
634.5
 20
669.7
 30
0.0
 40
18.0
  1
φ９５
 50
90.0
 41
0.9
 51
0.0
  7
KANJI25
  0
LINE
  8
0
  6
LTYPE3
 62
     2
 10
614.5
 20
694.0
 11
291.9
 21
694.0
  0
LINE
  8
0
  6
CONTINUOUS
 62
     1
 10
413.0
 20
748.2
 11
413.0
 21
948.2
  0
LINE
  8
0
  6
CONTINUOUS
 62
     1
 10
425.0
 20
930.97572809
 11
477.672135955
 21
930.97572809
  0
LINE
  8
0
  6
CONTINUOUS
 62
     1
 10
427.5
 20
906.636
 11
427.5
 21
916.436
  0
LINE
  8
0
  6
CONTINUOUS
 62
     1
 10
427.5
 20
916.436
 11
433.114359354
 21
916.436
  0
LINE
  8
0
  6
CONTINUOUS
 62
     1
 10
434.5
 20
914.036
 11
433.114359354
 21
916.436
  0
LINE
  8
0
  6
CONTINUOUS
 62
     1
 10
434.5
 20
906.636
 11
434.5
 21
914.036
  0
LINE
  8
0
  6
CONTINUOUS
 62
     1
 10
427.5
 20
911.536
 11
433.114359354
 21
911.536
  0
LINE
  8
0
  6
CONTINUOUS
 62
     1
 10
427.5
 20
906.636
 11
427.5
 21
896.836
  0
LINE
  8
0
  6
CONTINUOUS
 62
     1
 10
427.5
 20
896.836
 11
433.114359354
 21
896.836
  0
LINE
  8
0
  6
CONTINUOUS
 62
     1
 10
434.5
 20
899.236
 11
433.114359354
 21
896.836
  0
LINE
  8
0
  6
CONTINUOUS
 62
     1
 10
434.5
 20
906.636
 11
434.5
 21
899.236
  0
LINE
  8
0
  6
CONTINUOUS
 62
     1
 10
427.5
 20
901.736
 11
433.114359354
 21
901.736
  0
ARC
  8
0
  6
CONTINUOUS
 62
     1
 10
425.1433172
 20
906.636
 40
9.3566828
 50
328.419912243
 51
31.580087757
  0
ARC
  8
0
  6
CONTINUOUS
 62
     1
 10
431.642116168
 20
913.986
 40
2.858321186
 50
301.002313915
 51
2.989498403
  0
LINE
  8
0
  6
CONTINUOUS
 62
     1
 10
434.5
 20
899.236
 11
433.114359354
 21
896.836
  0
ARC
  8
0
  6
CONTINUOUS
 62
     1
 10
431.642116168
 20
899.286
 40
2.858321186
 50
357.010501597
 51
58.997686085
  0
LINE
  8
0
  6
CONTINUOUS
 62
     1
 10
425.0
 20
915.836
 11
427.5
 21
915.836
  0
LINE
  8
0
  6
CONTINUOUS
 62
     1
 10
425.0
 20
906.636
 11
427.499999996
 21
909.135999996
  0
LINE
  8
0
  6
CONTINUOUS
 62
     1
 10
427.499999996
 20
906.636
 11
425.0
 21
904.136000004
  0
LINE
  8
0
  6
CONTINUOUS
 62
     1
 10
425.0
 20
897.436
 11
427.5
 21
897.436
  0
LINE
  8
0
  6
CONTINUOUS
 62
     1
 10
635.0
 20
908.3
 11
488.0
 21
908.3
  0
LINE
  8
0
  6
CONTINUOUS
 62
     1
 10
635.0
 20
888.3
 11
488.0
 21
888.3
  0
LINE
  8
0
  6
CONTINUOUS
 62
     1
 10
425.0
 20
748.3
 11
425.0
 21
948.3
  0
LINE
  8
0
  6
CONTINUOUS
 62
     1
 10
635.0
 20
928.3
 11
488.0
 21
928.3
  0
LINE
  8
0
  6
CONTINUOUS
 62
     1
 10
606.5
 20
950.3
 11
516.5
 21
950.3
  0
LINE
  8
0
  6
CONTINUOUS
 62
     1
 10
645.0
 20
939.0
 11
478.0
 21
939.0
  0
LINE
  8
0
  6
CONTINUOUS
 62
     1
 10
478.0
 20
757.6
 11
478.0
 21
939.0
  0
LINE
  8
0
  6
LTYPE2
 62
     2
 10
417.5
 20
906.636
 11
443.114359354
 21
906.636
  0
LINE
  8
0
  6
CONTINUOUS
 62
     1
 10
425.0
 20
948.3
 11
413.0
 21
948.3
  0
LINE
  8
0
  6
CONTINUOUS
 62
     1
 10
645.0
 20
745.8
 11
645.0
 21
950.8
  0
ARC
  8
0
  6
CONTINUOUS
 62
     1
 10
353.0
 20
848.3
 40
410.0
 50
347.629566941
 51
12.370433059
  0
LINE
  8
2
  6
CONTINUOUS
 62
     2
 10
818.519226439
 20
745.8
 11
818.519226439
 21
950.8
  0
LINE
  8
2
  6
CONTINUOUS
 62
     2
 10
775.675628035
 20
845.154967949
 11
833.4
 21
1009.5
  0
LINE
  8
2
  6
CONTINUOUS
 62
     2
 10
783.0
 20
846.7
 11
783.0
 21
1098.7
  0
TEXT
  8
2
  6
CONTINUOUS
 62
     3
 10
813.519226439
 20
814.05
 30
1.5
 40
17.5
  1
φ２０５
 50
90.0
 41
0.914285714
 51
0.0
  7
KANJI63
  0
ARC
  8
0
  6
CONTINUOUS
 62
     1
 10
752.874980463
 20
858.3
 40
10.0
 50
1.432543738
 51
90.0
  0
LINE
  8
0
  6
CONTINUOUS
 62
     1
 10
752.874999151
 20
868.3
 11
645.0
 21
868.3
  0
LINE
  8
2
  6
CONTINUOUS
 62
     2
 10
783.0
 20
866.7
 11
783.0
 21
1068.14
  0
LINE
  8
0
  6
CONTINUOUS
 62
     1
 10
635.0
 20
868.3
 11
488.0
 21
868.3
  0
LINE
  8
0
  6
CONTINUOUS
 62
     1
 10
651.5
 20
961.3
 11
651.5
 21
1001.3
  0
LINE
  8
0
  6
CONTINUOUS
 62
     1
 10
632.5
 20
1036.3
 11
484.5
 21
962.3
  0
LINE
  8
0
  6
CONTINUOUS
 62
     1
 10
636.972135955
 20
1027.35572809
 11
488.972135955
 21
953.35572809
  0
ARC
  8
0
  6
CONTINUOUS
 62
     1
 10
606.5
 20
960.3
 40
10.0
 50
270.0
 51
0.0
  0
ARC
  8
0
  6
CONTINUOUS
 62
     1
 10
516.5
 20
960.3
 40
10.0
 50
180.0
 51
270.0
  0
LINE
  8
0
  6
CONTINUOUS
 62
     1
 10
484.5
 20
962.3
 11
488.972135955
 21
953.35572809
  0
LINE
  8
0
  6
CONTINUOUS
 62
     1
 10
506.5
 20
960.3
 11
506.5
 21
962.21572809
  0
LINE
  8
0
  6
CONTINUOUS
 62
     1
 10
616.5
 20
960.3
 11
616.5
 21
1016.21572809
  0
LINE
  8
0
  6
CONTINUOUS
 62
     1
 10
651.5
 20
961.3
 11
616.5
 21
961.3
  0
LINE
  8
0
  6
CONTINUOUS
 62
     1
 10
645.0
 20
948.3
 11
740.814388593
 21
948.3
  0
ARC
  8
0
  6
CONTINUOUS
 62
     1
 10
738.814388593
 20
933.3
 40
15.0
 50
10.945397096
 51
90.0
  0
ARC
  8
0
  6
CONTINUOUS
 62
     1
 10
738.923513917
 20
935.993940371
 40
15.0
 50
10.945397096
 51
90.0
  0
LINE
  8
0
  6
CONTINUOUS
 62
     1
 10
645.0
 20
950.8
 11
740.814388593
 21
950.8
  0
LINE
  8
0
  6
CONTINUOUS
 62
     1
 10
596.4
 20
950.3
 11
596.4
 21
939.0
  0
LINE
  8
0
  6
CONTINUOUS
 62
     1
 10
526.6
 20
950.3
 11
526.6
 21
939.0
  0
LINE
  8
2
  6
CONTINUOUS
 62
     2
 10
818.519226439
 20
950.8
 11
815.283988375
 21
938.725927171
  0
LINE
  8
2
  6
CONTINUOUS
 62
     2
 10
818.519226439
 20
950.8
 11
821.754464503
 21
938.725927171
  0
LINE
  8
2
  6
CONTINUOUS
 62
     2
 10
739.519226439
 20
950.8
 11
828.519226439
 21
950.8
  0
LINE
  8
0
  6
LTYPE2
 62
     2
 10
561.5
 20
937.05
 11
561.5
 21
1046.1
  0
TEXT
  8
2
  6
CONTINUOUS
 62
     3
 10
572.5
 20
1093.7
 30
1.5
 40
17.5
  1
３７０
 50
0.0
 41
0.914285714
 51
0.0
  7
KANJI63
  0
ARC
  8
0
  6
CONTINUOUS
 62
     1
 10
606.5
 20
1026.3
 40
10.0
 50
0.0
 51
90.0
  0
LINE
  8
0
  6
CONTINUOUS
 62
     1
 10
606.5
 20
1036.3
 11
516.5
 21
1036.3
  0
ARC
  8
0
  6
CONTINUOUS
 62
     1
 10
516.5
 20
1026.3
 40
10.0
 50
90.0
 51
180.0
  0
LINE
  8
0
  6
CONTINUOUS
 62
     1
 10
506.5
 20
973.21572809
 11
506.5
 21
1026.3
  0
LINE
  8
0
  6
CONTINUOUS
 62
     1
 10
632.712135955
 20
1037.09572809
 11
637.512135955
 21
1027.89572809
  0
LINE
  8
0
  6
CONTINUOUS
 62
     1
 10
651.5
 20
1001.3
 11
616.5
 21
1001.3
  0
TEXT
  8
2
  6
CONTINUOUS
 62
     3
 10
661.0
 20
1039.7
 30
1.5
 40
17.5
  1
ＰＦ３／４
 50
0.0
 41
0.914285714
 51
0.0
  7
KANJI63
  0
LINE
  8
2
  6
CONTINUOUS
 62
     2
 10
661.0
 20
1031.7
 11
778.6
 21
1031.7
  0
LINE
  8
2
  6
CONTINUOUS
 62
     2
 10
413.0
 20
1088.7
 11
783.0
 21
1088.7
  0
LINE
  8
2
  6
CONTINUOUS
 62
     2
 10
783.0
 20
1088.7
 11
770.925927171
 21
1091.935238064
  0
LINE
  8
2
  6
CONTINUOUS
 62
     2
 10
783.0
 20
1088.7
 11
770.925927171
 21
1085.464761936
  0
LINE
  8
2
  6
CONTINUOUS
 62
     2
 10
652.5
 20
987.7
 11
661.246652882
 21
1005.685996313
  0
LINE
  8
2
  6
CONTINUOUS
 62
     2
 10
652.5
 20
987.7
 11
651.081825437
 21
1007.64965616
  0
LINE
  8
2
  6
CONTINUOUS
 62
     2
 10
652.5
 20
987.7
 11
661.0
 21
1031.7
  0
LINE
  8
2
  6
CONTINUOUS
 62
     2
 10
413.0
 20
1088.7
 11
425.074072829
 21
1085.464761936
  0
LINE
  8
2
  6
CONTINUOUS
 62
     2
 10
413.0
 20
1088.7
 11
425.074072829
 21
1091.935238064
  0
LINE
  8
0
  6
LTYPE2
 62
     2
 10
657.652135955
 20
981.3
 11
606.552135955
 21
981.3
  0
TEXT
  8
0
  6
CONTINUOUS
 62
     2
 10
834.9
 20
1014.5
 30
0.0
 40
18.0
  1
手動開放装置
 50
0.0
 41
0.9
 51
0.0
  7
KANJI25
  0
LINE
  8
0
  6
CONTINUOUS
 62
     2
 10
833.4
 20
1009.5
 11
934.0
 21
1009.5
  0
LINE
  8
0
  6
CONTINUOUS
 62
     1
 10
425.0
 20
765.62427191
 11
477.672135955
 21
765.62427191
  0
LINE
  8
0
  6
CONTINUOUS
 62
     1
 10
427.5
 20
789.964
 11
427.5
 21
780.164
  0
LINE
  8
0
  6
CONTINUOUS
 62
     1
 10
427.5
 20
780.164
 11
433.114359354
 21
780.164
  0
LINE
  8
0
  6
CONTINUOUS
 62
     1
 10
434.5
 20
782.564
 11
433.114359354
 21
780.164
  0
LINE
  8
0
  6
CONTINUOUS
 62
     1
 10
434.5
 20
789.964
 11
434.5
 21
782.564
  0
LINE
  8
0
  6
CONTINUOUS
 62
     1
 10
427.5
 20
785.064
 11
433.114359354
 21
785.064
  0
LINE
  8
0
  6
CONTINUOUS
 62
     1
 10
427.5
 20
789.964
 11
427.5
 21
799.764
  0
LINE
  8
0
  6
CONTINUOUS
 62
     1
 10
427.5
 20
799.764
 11
433.114359354
 21
799.764
  0
LINE
  8
0
  6
CONTINUOUS
 62
     1
 10
434.5
 20
797.364
 11
433.114359354
 21
799.764
  0
LINE
  8
0
  6
CONTINUOUS
 62
     1
 10
434.5
 20
789.964
 11
434.5
 21
797.364
  0
LINE
  8
0
  6
CONTINUOUS
 62
     1
 10
427.5
 20
794.864
 11
433.114359354
 21
794.864
  0
ARC
  8
0
  6
CONTINUOUS
 62
     1
 10
425.1433172
 20
789.964
 40
9.3566828
 50
328.419912243
 51
31.580087757
  0
ARC
  8
0
  6
CONTINUOUS
 62
     1
 10
431.642116168
 20
782.614
 40
2.858321186
 50
357.010501597
 51
58.997686085
  0
LINE
  8
0
  6
CONTINUOUS
 62
     1
 10
434.5
 20
797.364
 11
433.114359354
 21
799.764
  0
ARC
  8
0
  6
CONTINUOUS
 62
     1
 10
431.642116168
 20
797.314
 40
2.858321186
 50
301.002313915
 51
2.989498403
  0
LINE
  8
0
  6
CONTINUOUS
 62
     1
 10
425.0
 20
780.764
 11
427.5
 21
780.764
  0
LINE
  8
0
  6
CONTINUOUS
 62
     1
 10
425.0
 20
789.964
 11
427.499999996
 21
787.464000004
  0
LINE
  8
0
  6
CONTINUOUS
 62
     1
 10
427.499999996
 20
789.964
 11
425.0
 21
792.463999996
  0
LINE
  8
0
  6
CONTINUOUS
 62
     1
 10
425.0
 20
799.164
 11
427.5
 21
799.164
  0
LINE
  8
0
  6
CONTINUOUS
 62
     1
 10
635.0
 20
828.3
 11
488.0
 21
828.3
  0
LINE
  8
0
  6
CONTINUOUS
 62
     1
 10
635.0
 20
808.3
 11
488.0
 21
808.3
  0
LINE
  8
0
  6
CONTINUOUS
 62
     1
 10
635.0
 20
788.3
 11
488.0
 21
788.3
  0
LINE
  8
0
  6
CONTINUOUS
 62
     1
 10
635.0
 20
768.3
 11
488.0
 21
768.3
  0
LINE
  8
0
  6
CONTINUOUS
 62
     1
 10
645.0
 20
828.3
 11
753.374999151
 21
828.3
  0
LINE
  8
0
  6
CONTINUOUS
 62
     1
 10
645.0
 20
757.6
 11
478.0
 21
757.6
  0
LINE
  8
0
  6
CONTINUOUS
 62
     1
 10
645.0
 20
748.3
 11
740.814388593
 21
748.3
  0
LINE
  8
0
  6
LTYPE2
 62
     2
 10
417.5
 20
789.964
 11
443.114359354
 21
789.964
  0
LINE
  8
0
  6
CONTINUOUS
 62
     1
 10
425.0
 20
748.3
 11
413.0
 21
748.3
  0
TEXT
  8
0
  6
CONTINUOUS
 62
     2
 10
489.190009455
 20
830.85
 30
0.0
 40
16.8
  1
日本電産
 50
0.0
 41
0.964285714
 51
0.0
  7
KANJI64
  0
TEXT
  8
0
  6
CONTINUOUS
 62
     2
 10
489.190009455
 20
808.85
 30
0.0
 40
16.8
  1
クイックブレーキモータ
 50
0.0
 41
0.821428571
 51
0.0
  7
KANJI65
  0
ARC
  8
0
  6
CONTINUOUS
 62
     1
 10
738.814388593
 20
763.3
 40
15.0
 50
270.0
 51
349.054602904
  0
ARC
  8
0
  6
CONTINUOUS
 62
     1
 10
738.923513917
 20
760.606059629
 40
15.0
 50
270.0
 51
349.054602904
  0
LINE
  8
0
  6
CONTINUOUS
 62
     1
 10
645.0
 20
745.8
 11
740.814388593
 21
745.8
  0
LINE
  8
2
  6
CONTINUOUS
 62
     2
 10
738.519226439
 20
745.8
 11
828.519226439
 21
745.8
  0
LINE
  8
0
  6
CONTINUOUS
 62
     1
 10
769.741517274
 20
864.248101266
 11
769.741517274
 21
795.248101266
  0
POINT
  8
0
  6
CONTINUOUS
 62
     1
 10
769.741517274
 20
795.248101266
  0
LINE
  8
0
  6
CONTINUOUS
 62
     1
 10
769.741517274
 20
795.248101266
 11
774.741517274
 21
795.248101266
  0
POINT
  8
0
  6
CONTINUOUS
 62
     1
 10
774.741517274
 20
795.248101266
  0
LINE
  8
0
  6
CONTINUOUS
 62
     1
 10
774.741517274
 20
795.248101266
 11
774.741517274
 21
864.248101266
  0
LINE
  8
0
  6
CONTINUOUS
 62
     1
 10
780.141517274
 20
808.05
 11
780.141517274
 21
799.25
  0
POINT
  8
0
  6
CONTINUOUS
 62
     1
 10
780.141517274
 20
799.25
  0
LINE
  8
0
  6
CONTINUOUS
 62
     1
 10
780.141517274
 20
799.25
 11
774.841517274
 21
799.25
  0
LINE
  8
0
  6
CONTINUOUS
 62
     1
 10
769.741517274
 20
805.25
 11
760.841517274
 21
805.25
  0
LINE
  8
0
  6
CONTINUOUS
 62
     1
 10
769.741517274
 20
802.15
 11
760.541517274
 21
802.15
  0
LINE
  8
0
  6
LTYPE2
 62
     2
 10
755.841517274
 20
803.75
 11
785.841517274
 21
803.75
  0
LINE
  8
2
  6
CONTINUOUS
 62
     2
 10
818.519226439
 20
745.8
 11
821.754464503
 21
757.874072829
  0
LINE
  8
2
  6
CONTINUOUS
 62
     2
 10
818.519226439
 20
745.8
 11
815.283988375
 21
757.874072829
  0
LINE
  8
2
  6
CONTINUOUS
 62
     2
 10
775.675628035
 20
845.154967949
 11
782.729299494
 21
855.474644249
  0
LINE
  8
2
  6
CONTINUOUS
 62
     2
 10
775.675628035
 20
845.154967949
 11
776.624448559
 21
857.618905513
  0
LINE
  8
0
  6
CONTINUOUS
 62
     1
 10
779.541517274
 20
832.351898734
 11
779.541517274
 21
864.248101266
  0
LINE
  8
0
  6
CONTINUOUS
 62
     1
 10
774.741517274
 20
832.351898734
 11
779.541517274
 21
832.351898734
  0
LINE
  8
0
  6
CONTINUOUS
 62
     1
 10
769.741517274
 20
844.1
 11
763.041517274
 21
844.1
  0
LINE
  8
0
  6
CONTINUOUS
 62
     1
 10
774.741517274
 20
808.05
 11
780.141517274
 21
808.05
  0
POINT
  8
0
  6
CONTINUOUS
 62
     1
 10
780.141517274
 20
808.05
  0
LINE
  8
0
  6
CONTINUOUS
 62
     1
 10
779.541517274
 20
834.9
 11
783.0
 21
834.9
  0
LINE
  8
0
  6
CONTINUOUS
 62
     1
 10
783.0
 20
834.9
 11
783.0
 21
839.5
  0
LINE
  8
0
  6
CONTINUOUS
 62
     1
 10
779.541517274
 20
839.5
 11
783.0
 21
839.5
  0
LINE
  8
0
  6
CONTINUOUS
 62
     1
 10
779.541517274
 20
846.0
 11
783.0
 21
846.0
  0
LINE
  8
0
  6
CONTINUOUS
 62
     1
 10
783.0
 20
846.0
 11
783.0
 21
850.6
  0
ARC
  8
0
  6
CONTINUOUS
 62
     1
 10
752.874980463
 20
838.3
 40
10.0
 50
270.0
 51
358.567456262
  0
LINE
  8
0
  6
CONTINUOUS
 62
     1
 10
769.741517274
 20
864.248101266
 11
779.541517274
 21
864.248101266
  0
LINE
  8
0
  6
CONTINUOUS
 62
     1
 10
779.541517274
 20
861.7
 11
783.0
 21
861.7
  0
LINE
  8
0
  6
CONTINUOUS
 62
     1
 10
783.0
 20
861.7
 11
783.0
 21
857.1
  0
LINE
  8
0
  6
CONTINUOUS
 62
     1
 10
779.541517274
 20
857.1
 11
783.0
 21
857.1
  0
LINE
  8
0
  6
CONTINUOUS
 62
     1
 10
769.741517274
 20
852.5
 11
763.041517274
 21
852.5
  0
LINE
  8
0
  6
CONTINUOUS
 62
     1
 10
779.541517274
 20
850.6
 11
783.0
 21
850.6
  0
LINE
  8
0
  6
CONTINUOUS
 62
     1
 10
403.0
 20
944.0
 11
369.0
 21
944.0
  0
LINE
  8
0
  6
CONTINUOUS
 62
     1
 10
403.0
 20
748.2
 11
403.0
 21
944.0
  0
LINE
  8
0
  6
CONTINUOUS
 62
     1
 10
413.0
 20
943.0
 11
403.0
 21
943.0
  0
LINE
  8
0
  6
CONTINUOUS
 62
     1
 10
413.0
 20
755.0
 11
403.0
 21
755.0
  0
LINE
  8
0
  6
CONTINUOUS
 62
     1
 10
999.0
 20
646.5
 11
999.0
 21
741.5
  0
LINE
  8
0
  6
CONTINUOUS
 62
     1
 10
999.0
 20
646.5
 11
594.0
 21
646.5
  0
LINE
  8
0
  6
CONTINUOUS
 62
     1
 10
964.0
 20
646.5
 11
964.0
 21
741.5
  0
LINE
  8
0
  6
CONTINUOUS
 62
     2
 10
766.0
 20
704.464
 11
777.963193346
 21
713.512867607
  0
LINE
  8
0
  6
CONTINUOUS
 62
     2
 10
766.0
 20
704.464
 11
771.835995544
 21
718.282145896
  0
LINE
  8
0
  6
CONTINUOUS
 62
     2
 10
766.0
 20
704.464
 11
838.0
 21
796.964
  0
LINE
  8
0
  6
CONTINUOUS
 62
     2
 10
838.0
 20
796.964
 11
904.6
 21
796.964
  0
TEXT
  8
0
  6
CONTINUOUS
 62
     3
 10
838.0
 20
799.964
 30
0.0
 40
24.0
  1
給脂口
 50
0.0
 41
0.925
 51
0.0
  7
KANJI29
  0
CIRCLE
  8
0
  6
CONTINUOUS
 62
     1
 10
1499.0
 20
849.0
 40
19.0
  0
LINE
  8
0
  6
CONTINUOUS
 62
     1
 10
1416.5
 20
829.0
 11
1487.452994616
 21
829.0
  0
LINE
  8
0
  6
CONTINUOUS
 62
     1
 10
1522.929491924
 20
767.552904188
 11
1487.452994616
 21
829.0
  0
ARC
  8
0
  6
CONTINUOUS
 62
     1
 10
1499.0
 20
849.0
 40
20.0
 50
80.405931773
 51
279.594068227
  0
CIRCLE
  8
0
  6
CONTINUOUS
 62
     1
 10
1485.9
 20
849.0
 40
4.0
  0
CIRCLE
  8
0
  6
CONTINUOUS
 62
     1
 10
1499.0
 20
835.9
 40
4.0
  0
CIRCLE
  8
0
  6
CONTINUOUS
 62
     1
 10
1499.0
 20
849.0
 40
4.0
  0
CIRCLE
  8
0
  6
LTYPE1
 62
     2
 10
1499.0
 20
849.0
 40
100.0
  0
ARC
  8
0
  6
CONTINUOUS
 62
     1
 10
1416.5
 20
849.0
 40
20.0
 50
180.0
 51
270.0
  0
LINE
  8
0
  6
CONTINUOUS
 62
     1
 10
1522.929491924
 20
930.447095812
 11
1487.452994616
 21
869.0
  0
LINE
  8
0
  6
CONTINUOUS
 62
     1
 10
1416.5
 20
869.0
 11
1487.452994616
 21
869.0
  0
ARC
  8
0
  6
CONTINUOUS
 62
     1
 10
1416.5
 20
849.0
 40
20.0
 50
90.0
 51
180.0
  0
CIRCLE
  8
0
  6
CONTINUOUS
 62
     1
 10
1499.0
 20
862.1
 40
4.0
  0
LINE
  8
0
  6
CONTINUOUS
 62
     1
 10
1502.333333333
 20
868.720265944
 11
1560.666666667
 21
858.860132972
  0
LINE
  8
0
  6
LTYPE2
 62
     2
 10
1559.0
 20
834.0
 11
1559.0
 21
869.0
  0
ARC
  8
0
  6
CONTINUOUS
 62
     1
 10
1559.0
 20
849.0
 40
10.0
 50
279.594068227
 51
80.405931773
  0
CIRCLE
  8
0
  6
CONTINUOUS
 62
     1
 10
1559.0
 20
849.0
 40
9.0
  0
LINE
  8
0
  6
CONTINUOUS
 62
     1
 10
1557.570508076
 20
910.447095812
 11
1530.710211838
 21
863.923698023
  0
CIRCLE
  8
0
  6
CONTINUOUS
 62
     1
 10
1512.1
 20
849.0
 40
4.0
  0
LINE
  8
0
  6
CONTINUOUS
 62
     1
 10
1502.333333333
 20
829.279734056
 11
1560.666666667
 21
839.139867028
  0
LINE
  8
0
  6
CONTINUOUS
 62
     1
 10
1557.570508076
 20
787.552904188
 11
1530.710211838
 21
834.076301977
  0
ARC
  8
0
  6
CONTINUOUS
 62
     1
 10
1540.25
 20
777.552904188
 40
20.0
 50
300.0
 51
30.0
  0
ARC
  8
0
  6
CONTINUOUS
 62
     1
 10
1540.25
 20
777.552904188
 40
20.0
 50
210.0
 51
300.0
  0
CIRCLE
  8
0
  6
CONTINUOUS
 62
     1
 10
1499.0
 20
987.5
 40
25.0
  0
ARC
  8
0
  6
CONTINUOUS
 62
     1
 10
1529.0
 20
963.0
 40
10.0
 50
270.0
 51
0.0
  0
LINE
  8
0
  6
CONTINUOUS
 62
     1
 10
1499.0
 20
953.0
 11
1539.0
 21
953.0
  0
LINE
  8
0
  6
CONTINUOUS
 62
     1
 10
1529.360126607
 20
953.006486662
 11
1529.360126607
 21
947.506486662
  0
LINE
  8
0
  6
CONTINUOUS
 62
     1
 10
1539.0
 20
963.0
 11
1539.0
 21
1022.0
  0
LINE
  8
0
  6
CONTINUOUS
 62
     1
 10
1549.0
 20
963.0
 11
1549.0
 21
1027.0
  0
ARC
  8
0
  6
CONTINUOUS
 62
     1
 10
1539.0
 20
963.0
 40
10.0
 50
270.0
 51
0.0
  0
ARC
  8
0
  6
CONTINUOUS
 62
     1
 10
1540.25
 20
920.447095812
 40
20.0
 50
330.0
 51
60.0
  0
ARC
  8
0
  6
CONTINUOUS
 62
     1
 10
1540.25
 20
920.447095812
 40
20.0
 50
60.0
 51
150.0
  0
CIRCLE
  8
0
  6
CONTINUOUS
 62
     1
 10
1499.0
 20
987.5
 40
12.055
  0
CIRCLE
  8
0
  6
CONTINUOUS
 62
     1
 10
1499.0
 20
987.5
 40
20.0
  0
CIRCLE
  8
0
  6
CONTINUOUS
 62
     2
 10
1499.0
 20
987.5
 40
13.221
  0
LINE
  8
0
  6
LTYPE2
 62
     2
 10
1462.5
 20
987.5
 11
1534.5
 21
987.5
  0
LINE
  8
0
  6
CONTINUOUS
 62
     1
 10
1499.0
 20
1032.0
 11
1469.0
 21
1032.0
  0
LINE
  8
0
  6
CONTINUOUS
 62
     1
 10
1459.0
 20
963.0
 11
1459.0
 21
1022.0
  0
ARC
  8
0
  6
CONTINUOUS
 62
     1
 10
1469.0
 20
1022.0
 40
10.0
 50
90.0
 51
180.0
  0
LINE
  8
0
  6
CONTINUOUS
 62
     1
 10
1499.0
 20
1037.0
 11
1459.0
 21
1037.0
  0
ARC
  8
0
  6
CONTINUOUS
 62
     1
 10
1459.0
 20
1027.0
 40
10.0
 50
90.0
 51
180.0
  0
LINE
  8
0
  6
CONTINUOUS
 62
     1
 10
1449.0
 20
963.0
 11
1449.0
 21
1027.0
  0
ARC
  8
0
  6
CONTINUOUS
 62
     1
 10
1469.0
 20
963.0
 40
10.0
 50
180.0
 51
270.0
  0
LINE
  8
0
  6
CONTINUOUS
 62
     1
 10
1499.0
 20
953.0
 11
1459.0
 21
953.0
  0
ARC
  8
0
  6
CONTINUOUS
 62
     1
 10
1459.0
 20
963.0
 40
10.0
 50
180.0
 51
270.0
  0
LINE
  8
0
  6
CONTINUOUS
 62
     1
 10
1468.639873393
 20
953.006486662
 11
1468.639873393
 21
947.506486662
  0
LINE
  8
0
  6
CONTINUOUS
 62
     1
 10
1499.0
 20
1032.0
 11
1529.0
 21
1032.0
  0
ARC
  8
0
  6
CONTINUOUS
 62
     1
 10
1529.0
 20
1022.0
 40
10.0
 50
0.0
 51
90.0
  0
LINE
  8
0
  6
CONTINUOUS
 62
     1
 10
1499.0
 20
1037.0
 11
1539.0
 21
1037.0
  0
ARC
  8
0
  6
CONTINUOUS
 62
     1
 10
1539.0
 20
1027.0
 40
10.0
 50
0.0
 51
90.0
  0
LINE
  8
0
  6
CONTINUOUS
 62
     1
 10
830.182501379
 20
741.5
 11
594.0
 21
741.5
  0
LINE
  8
0
  6
CONTINUOUS
 62
     1
 10
890.182501379
 20
741.5
 11
846.182501379
 21
741.5
  0
LINE
  8
0
  6
CONTINUOUS
 62
     1
 10
999.0
 20
741.5
 11
906.182501379
 21
741.5
  0
LINE
  8
0
  6
CONTINUOUS
 62
     1
 10
1419.0
 20
673.0
 11
1419.0
 21
674.024888178
  0
LINE
  8
0
  6
CONTINUOUS
 62
     1
 10
1419.0
 20
673.0
 11
1426.0
 21
672.158317836
  0
ARC
  8
0
  6
CONTINUOUS
 62
     1
 10
1499.0
 20
849.0
 40
102.5
 50
217.261561913
 51
250.947092926
  0
ARC
  8
0
  6
CONTINUOUS
 62
     1
 10
1499.0
 20
849.0
 40
102.5
 50
288.962195715
 51
209.433682175
  0
LINE
  8
0
  6
CONTINUOUS
 62
     1
 10
1422.0
 20
756.043135034
 11
1422.0
 21
781.0
  0
LINE
  8
0
  6
CONTINUOUS
 62
     1
 10
1576.0
 20
715.360720927
 11
1576.0
 21
781.5
  0
LINE
  8
0
  6
CONTINUOUS
 62
     2
 10
1640.5
 20
694.0
 11
1685.372218677
 21
694.0
  0
LINE
  8
0
  6
CONTINUOUS
 62
     2
 10
1640.5
 20
704.0
 11
1643.735238064
 21
716.074072829
  0
LINE
  8
0
  6
CONTINUOUS
 62
     2
 10
1640.5
 20
704.0
 11
1637.264761936
 21
716.074072829
  0
LINE
  8
0
  6
CONTINUOUS
 62
     2
 10
1640.5
 20
684.0
 11
1637.264761936
 21
671.925927171
  0
LINE
  8
0
  6
CONTINUOUS
 62
     2
 10
1640.5
 20
684.0
 11
1643.735238064
 21
671.925927171
  0
LINE
  8
0
  6
CONTINUOUS
 62
     2
 10
1677.872218677
 20
694.0
 11
1674.636980613
 21
681.925927171
  0
LINE
  8
0
  6
CONTINUOUS
 62
     2
 10
1677.872218677
 20
694.0
 11
1681.10745674
 21
681.925927171
  0
LINE
  8
0
  6
CONTINUOUS
 62
     2
 10
1677.872218677
 20
694.0
 11
1677.872218677
 21
583.0
  0
LINE
  8
0
  6
CONTINUOUS
 62
     2
 10
1677.872218677
 20
583.0
 11
1681.10745674
 21
595.074072829
  0
LINE
  8
0
  6
CONTINUOUS
 62
     2
 10
1677.872218677
 20
583.0
 11
1674.636980613
 21
595.074072829
  0
LINE
  8
0
  6
CONTINUOUS
 62
     2
 10
1677.872218677
 20
694.0
 11
1681.10745674
 21
706.074072829
  0
LINE
  8
0
  6
CONTINUOUS
 62
     2
 10
1677.872218677
 20
694.0
 11
1674.636980613
 21
706.074072829
  0
TEXT
  8
0
  6
CONTINUOUS
 62
     2
 10
1635.222218677
 20
709.75
 30
0.0
 40
18.0
  1
φ２０Ｈ１０深さ２５
 50
90.0
 41
0.9
 51
0.0
  7
KANJI25
  0
TEXT
  8
0
  6
CONTINUOUS
 62
     2
 10
1672.872218677
 20
616.75
 30
0.0
 40
18.0
  1
１１１
 50
90.0
 41
0.9
 51
0.0
  7
KANJI25
  0
LINE
  8
0
  6
CONTINUOUS
 62
     2
 10
1640.5
 20
870.0
 11
1640.5
 21
665.25
  0
LINE
  8
0
  6
CONTINUOUS
 62
     2
 10
1677.872218677
 20
849.0
 11
1674.636980613
 21
836.925927171
  0
LINE
  8
0
  6
CONTINUOUS
 62
     2
 10
1677.872218677
 20
849.0
 11
1681.10745674
 21
836.925927171
  0
LINE
  8
0
  6
CONTINUOUS
 62
     2
 10
1640.182501379
 20
849.0
 11
1685.372218677
 21
849.0
  0
LINE
  8
0
  6
CONTINUOUS
 62
     2
 10
1677.872218677
 20
694.0
 11
1677.872218677
 21
849.0
  0
TEXT
  8
0
  6
CONTINUOUS
 62
     2
 10
1672.872218677
 20
749.25
 30
0.0
 40
18.0
  1
１５５
 50
90.0
 41
0.9
 51
0.0
  7
KANJI25
  0
LINE
  8
0
  6
CONTINUOUS
 62
     2
 10
1664.5
 20
583.0
 11
1721.0
 21
583.0
  0
LINE
  8
0
  6
CONTINUOUS
 62
     2
 10
1715.0
 20
583.0
 11
1718.882285677
 21
597.488887394
  0
LINE
  8
0
  6
CONTINUOUS
 62
     2
 10
1715.0
 20
583.0
 11
1711.117714323
 21
597.488887394
  0
LINE
  8
0
  6
CONTINUOUS
 62
     2
 10
1715.0
 20
583.0
 11
1715.0
 21
1037.0
  0
LINE
  8
0
  6
CONTINUOUS
 62
     2
 10
1715.0
 20
1037.0
 11
1711.117714323
 21
1022.511112606
  0
LINE
  8
0
  6
CONTINUOUS
 62
     2
 10
1715.0
 20
1037.0
 11
1718.882285677
 21
1022.511112606
  0
LINE
  8
0
  6
CONTINUOUS
 62
     2
 10
1545.0
 20
1037.0
 11
1721.0
 21
1037.0
  0
TEXT
  8
0
  6
CONTINUOUS
 62
     3
 10
1712.0
 20
785.7
 30
0.0
 40
18.0
  1
４５４
 50
90.0
 41
0.9
 51
0.0
  7
KANJI25
  0
LINE
  8
0
  6
CONTINUOUS
 62
     2
 10
1668.872218677
 20
849.0
 11
1683.872218677
 21
849.0
  0
LINE
  8
0
  6
CONTINUOUS
 62
     2
 10
1677.872218677
 20
849.0
 11
1681.754504353
 21
863.488887394
  0
LINE
  8
0
  6
CONTINUOUS
 62
     2
 10
1677.872218677
 20
849.0
 11
1673.989933
 21
863.488887394
  0
LINE
  8
0
  6
CONTINUOUS
 62
     2
 10
1677.872218677
 20
849.0
 11
1677.872218677
 21
1037.0
  0
LINE
  8
0
  6
CONTINUOUS
 62
     2
 10
1677.872218677
 20
1037.0
 11
1673.989933
 21
1022.511112606
  0
LINE
  8
0
  6
CONTINUOUS
 62
     2
 10
1677.872218677
 20
1037.0
 11
1681.754504353
 21
1022.511112606
  0
LINE
  8
0
  6
CONTINUOUS
 62
     2
 10
1674.372218677
 20
1037.0
 11
1683.872218677
 21
1037.0
  0
TEXT
  8
0
  6
CONTINUOUS
 62
     3
 10
1674.872218677
 20
918.7
 30
0.0
 40
18.0
  1
１８８
 50
90.0
 41
0.9
 51
0.0
  7
KANJI25
  0
LINE
  8
0
  6
LTYPE5
 62
     2
 10
1379.5
 20
849.0
 11
1616.372218677
 21
849.0
  0
LINE
  8
0
  6
CONTINUOUS
 62
     2
 10
1582.372218677
 20
704.0
 11
1648.0
 21
704.0
  0
LINE
  8
0
  6
CONTINUOUS
 62
     2
 10
1582.372218677
 20
684.0
 11
1648.0
 21
684.0
  0
LINE
  8
0
  6
CONTINUOUS
 62
     2
 10
1589.372218677
 20
694.0
 11
1685.372218677
 21
694.0
  0
LINE
  8
0
  6
CONTINUOUS
 62
     2
 10
1552.372218677
 20
583.0
 11
1670.372218677
 21
583.0
  0
TEXT
  8
0
  6
CONTINUOUS
 62
     2
 10
1050.133
 20
1517.99
 30
1.617
 40
16.17
  1
注意：サーマルリレー等の選定は、上記の値で選定して下さい。
 50
0.0
 41
0.9
 51
0.0
  7
KANJI66
  0
LINE
  8
0
  6
CONTINUOUS
 62
     2
 10
1040.893
 20
1513.37
 11
1495.92
 21
1513.37
  0
LINE
  8
0
  6
CONTINUOUS
 62
     1
 10
1554.640933
 20
1673.03602
 11
1554.640933
 21
1543.03654
  0
LINE
  8
0
  6
CONTINUOUS
 62
     2
 10
1479.641233
 20
1673.03602
 11
1479.641233
 21
1543.03654
  0
LINE
  8
0
  6
CONTINUOUS
 62
     2
 10
1404.641533
 20
1673.03602
 11
1404.641533
 21
1543.03654
  0
LINE
  8
0
  6
CONTINUOUS
 62
     1
 10
1304.641933
 20
1673.03602
 11
1304.641933
 21
1543.03654
  0
LINE
  8
0
  6
CONTINUOUS
 62
     1
 10
1304.641933
 20
1673.03602
 11
1554.640933
 21
1673.03602
  0
LINE
  8
0
  6
CONTINUOUS
 62
     1
 10
1304.641933
 20
1633.03618
 11
1554.640933
 21
1633.03618
  0
LINE
  8
0
  6
CONTINUOUS
 62
     2
 10
1304.641933
 20
1603.0363
 11
1554.640933
 21
1603.0363
  0
LINE
  8
0
  6
CONTINUOUS
 62
     2
 10
1304.641933
 20
1573.03642
 11
1554.640933
 21
1573.03642
  0
LINE
  8
0
  6
CONTINUOUS
 62
     1
 10
1304.641933
 20
1543.03654
 11
1554.640933
 21
1543.03654
  0
TEXT
  8
0
  6
CONTINUOUS
 62
     2
 10
1489.641193
 20
1655.53609
 30
1.499994
 40
14.99994
  1
起動電流
 50
0.0
 41
0.9
 51
0.0
  7
KANJI67
  0
TEXT
  8
0
  6
CONTINUOUS
 62
     2
 10
1489.641193
 20
1638.03616
 30
1.499994
 40
14.99994
  1
　　　Ａ
 50
0.0
 41
0.9
 51
0.0
  7
KANJI67
  0
TEXT
  8
0
  6
CONTINUOUS
 62
     2
 10
1414.641493
 20
1655.53609
 30
1.499994
 40
14.99994
  1
定格電流
 50
0.0
 41
0.9
 51
0.0
  7
KANJI67
  0
TEXT
  8
0
  6
CONTINUOUS
 62
     2
 10
1414.641493
 20
1638.03616
 30
1.499994
 40
14.99994
  1
　　　Ａ
 50
0.0
 41
0.9
 51
0.0
  7
KANJI67
  0
TEXT
  8
0
  6
CONTINUOUS
 62
     2
 10
1313.141899
 20
1580.53639
 30
1.499994
 40
14.99994
  1
２００／６０
 50
0.0
 41
0.9
 51
0.0
  7
KANJI67
  0
TEXT
  8
0
  6
CONTINUOUS
 62
     2
 10
1313.141899
 20
1655.53609
 30
1.499994
 40
14.99994
  1
電圧／周波数
 50
0.0
 41
0.9
 51
0.0
  7
KANJI67
  0
TEXT
  8
0
  6
CONTINUOUS
 62
     2
 10
1313.141899
 20
1638.03616
 30
1.499994
 40
14.99994
  1
　Ｖ／Ｈｚ
 50
0.0
 41
0.9
 51
0.0
  7
KANJI67
  0
TEXT
  8
0
  6
CONTINUOUS
 62
     2
 10
1313.141899
 20
1610.53627
 30
1.499994
 40
14.99994
  1
２００／５０
 50
0.0
 41
0.9
 51
0.0
  7
KANJI67
  0
TEXT
  8
0
  6
CONTINUOUS
 62
     2
 10
1313.141899
 20
1550.53651
 30
1.499994
 40
14.99994
  1
２２０／６０
 50
0.0
 41
0.9
 51
0.0
  7
KANJI67
  0
LINE
  8
0
  6
CONTINUOUS
 62
     1
 10
1254.642133
 20
1673.03602
 11
1254.642133
 21
1543.03654
  0
LINE
  8
0
  6
CONTINUOUS
 62
     2
 10
1179.642433
 20
1673.03602
 11
1179.642433
 21
1543.03654
  0
LINE
  8
0
  6
CONTINUOUS
 62
     2
 10
1104.642733
 20
1673.03602
 11
1104.642733
 21
1543.03654
  0
LINE
  8
0
  6
CONTINUOUS
 62
     1
 10
1004.643133
 20
1673.03602
 11
1254.642133
 21
1673.03602
  0
LINE
  8
0
  6
CONTINUOUS
 62
     1
 10
1004.643133
 20
1633.03618
 11
1254.642133
 21
1633.03618
  0
LINE
  8
0
  6
CONTINUOUS
 62
     2
 10
1004.643133
 20
1603.0363
 11
1254.642133
 21
1603.0363
  0
LINE
  8
0
  6
CONTINUOUS
 62
     2
 10
1004.643133
 20
1573.03642
 11
1254.642133
 21
1573.03642
  0
LINE
  8
0
  6
CONTINUOUS
 62
     1
 10
1004.643133
 20
1543.03654
 11
1254.642133
 21
1543.03654
  0
TEXT
  8
0
  6
CONTINUOUS
 62
     2
 10
1189.642393
 20
1655.53609
 30
1.499994
 40
14.99994
  1
起動電流
 50
0.0
 41
0.9
 51
0.0
  7
KANJI67
  0
TEXT
  8
0
  6
CONTINUOUS
 62
     2
 10
1189.642393
 20
1638.03616
 30
1.499994
 40
14.99994
  1
　　　Ａ
 50
0.0
 41
0.9
 51
0.0
  7
KANJI67
  0
TEXT
  8
0
  6
CONTINUOUS
 62
     2
 10
1114.642693
 20
1655.53609
 30
1.499994
 40
14.99994
  1
定格電流
 50
0.0
 41
0.9
 51
0.0
  7
KANJI67
  0
TEXT
  8
0
  6
CONTINUOUS
 62
     2
 10
1114.642693
 20
1638.03616
 30
1.499994
 40
14.99994
  1
　　　Ａ
 50
0.0
 41
0.9
 51
0.0
  7
KANJI67
  0
TEXT
  8
0
  6
CONTINUOUS
 62
     2
 10
1013.143099
 20
1655.53609
 30
1.499994
 40
14.99994
  1
電圧／周波数
 50
0.0
 41
0.9
 51
0.0
  7
KANJI67
  0
TEXT
  8
0
  6
CONTINUOUS
 62
     2
 10
1013.143099
 20
1638.03616
 30
1.499994
 40
14.99994
  1
　Ｖ／Ｈｚ
 50
0.0
 41
0.9
 51
0.0
  7
KANJI67
  0
TEXT
  8
0
  6
CONTINUOUS
 62
     2
 10
1013.143099
 20
1610.53627
 30
1.499994
 40
14.99994
  1
４００／５０
 50
0.0
 41
0.9
 51
0.0
  7
KANJI67
  0
TEXT
  8
0
  6
CONTINUOUS
 62
     2
 10
1013.143099
 20
1580.53639
 30
1.499994
 40
14.99994
  1
４００／６０
 50
0.0
 41
0.9
 51
0.0
  7
KANJI67
  0
TEXT
  8
0
  6
CONTINUOUS
 62
     2
 10
1013.143099
 20
1550.53651
 30
1.499994
 40
14.99994
  1
４４０／６０
 50
0.0
 41
0.9
 51
0.0
  7
KANJI67
  0
TEXT
  8
0
  6
CONTINUOUS
 62
     2
 10
1114.642693
 20
1610.53627
 30
1.499994
 40
14.99994
  1
　　３．４
 50
0.0
 41
0.9
 51
0.0
  7
KANJI67
  0
TEXT
  8
0
  6
CONTINUOUS
 62
     2
 10
1114.642693
 20
1550.53651
 30
1.499994
 40
14.99994
  1
　　３．０
 50
0.0
 41
0.9
 51
0.0
  7
KANJI67
  0
TEXT
  8
0
  6
CONTINUOUS
 62
     2
 10
1414.641493
 20
1610.53627
 30
1.499994
 40
14.99994
  1
　　６．８
 50
0.0
 41
0.9
 51
0.0
  7
KANJI67
  0
TEXT
  8
0
  6
CONTINUOUS
 62
     2
 10
1414.641493
 20
1550.53651
 30
1.499994
 40
14.99994
  1
　　６．０
 50
0.0
 41
0.9
 51
0.0
  7
KANJI67
  0
TEXT
  8
0
  6
CONTINUOUS
 62
     2
 10
1489.641193
 20
1610.53627
 30
1.499994
 40
14.99994
  1
４４．０
 50
0.0
 41
0.9
 51
0.0
  7
KANJI67
  0
LINE
  8
0
  6
CONTINUOUS
 62
     1
 10
1004.643133
 20
1673.03602
 11
1004.643133
 21
1543.03654
  0
TEXT
  8
0
  6
CONTINUOUS
 62
     2
 10
1114.642693
 20
1580.53639
 30
1.499994
 40
14.99994
  1
　　３．１
 50
0.0
 41
0.9
 51
0.0
  7
KANJI67
  0
TEXT
  8
0
  6
CONTINUOUS
 62
     2
 10
1414.641493
 20
1580.53639
 30
1.499994
 40
14.99994
  1
　　６．２
 50
0.0
 41
0.9
 51
0.0
  7
KANJI67
  0
TEXT
  8
0
  6
CONTINUOUS
 62
     2
 10
1189.642393
 20
1610.53627
 30
1.499994
 40
14.99994
  1
２２．１
 50
0.0
 41
0.9
 51
0.0
  7
KANJI67
  0
TEXT
  8
0
  6
CONTINUOUS
 62
     2
 10
1189.642393
 20
1580.53639
 30
1.499994
 40
14.99994
  1
１９．２
 50
0.0
 41
0.9
 51
0.0
  7
KANJI67
  0
TEXT
  8
0
  6
CONTINUOUS
 62
     2
 10
1189.642393
 20
1550.53651
 30
1.499994
 40
14.99994
  1
２１．１
 50
0.0
 41
0.9
 51
0.0
  7
KANJI67
  0
TEXT
  8
0
  6
CONTINUOUS
 62
     2
 10
1489.099556333
 20
1578.2447275
 30
1.499994
 40
14.99994
  1
３８．２
 50
0.0
 41
0.9
 51
0.0
  7
KANJI67
  0
TEXT
  8
0
  6
CONTINUOUS
 62
     2
 10
1490.349551333
 20
1549.9115075
 30
1.499994
 40
14.99994
  1
４２．１
 50
0.0
 41
0.9
 51
0.0
  7
KANJI67
  0
TEXT
  8
0
  6
CONTINUOUS
 62
     2
 10
1024.72
 20
1433.72
 30
0.96
 40
14.4
  1
ＭＣＬＥ１Ｂ２－　　２Ｌ
 50
0.0
 41
0.833333333
 51
0.0
  7
KANJI68
  0
TEXT
  8
0
  6
CONTINUOUS
 62
     2
 10
1024.72
 20
1400.12
 30
0.96
 40
14.4
  1
ＭＣＬＥ１Ｂ２－　　３Ｌ
 50
0.0
 41
0.833333333
 51
0.0
  7
KANJI68
  0
TEXT
  8
0
  6
CONTINUOUS
 62
     2
 10
1024.72
 20
1366.52
 30
0.96
 40
14.4
  1
ＭＣＬＥ１Ｂ２－　　４Ｌ
 50
0.0
 41
0.833333333
 51
0.0
  7
KANJI68
  0
TEXT
  8
0
  6
CONTINUOUS
 62
     2
 10
1024.72
 20
1332.92
 30
0.96
 40
14.4
  1
ＭＣＬＥ１Ｂ２－　　５Ｌ
 50
0.0
 41
0.833333333
 51
0.0
  7
KANJI68
  0
TEXT
  8
0
  6
CONTINUOUS
 62
     2
 10
1024.72
 20
1299.32
 30
0.96
 40
14.4
  1
ＭＣＬＥ１Ｂ２－　　６Ｌ
 50
0.0
 41
0.833333333
 51
0.0
  7
KANJI68
  0
TEXT
  8
0
  6
CONTINUOUS
 62
     2
 10
1024.72
 20
1265.72
 30
0.96
 40
14.4
  1
ＭＣＬＥ１Ｂ２－　　７Ｌ
 50
0.0
 41
0.833333333
 51
0.0
  7
KANJI68
  0
TEXT
  8
0
  6
CONTINUOUS
 62
     2
 10
1024.72
 20
1232.12
 30
0.96
 40
14.4
  1
ＭＣＬＥ１Ｂ２－　　８Ｌ
 50
0.0
 41
0.833333333
 51
0.0
  7
KANJI68
  0
TEXT
  8
0
  6
CONTINUOUS
 62
     2
 10
1024.72
 20
1198.52
 30
0.96
 40
14.4
  1
ＭＣＬＥ１Ｂ２－　　９Ｌ
 50
0.0
 41
0.833333333
 51
0.0
  7
KANJI68
  0
TEXT
  8
0
  6
CONTINUOUS
 62
     2
 10
1024.72
 20
1164.92
 30
0.96
 40
14.4
  1
ＭＣＬＥ１Ｂ２ー　１０Ｌ
 50
0.0
 41
0.833333333
 51
0.0
  7
KANJI68
  0
TEXT
  8
0
  6
CONTINUOUS
 62
     2
 10
1024.72
 20
1131.52
 30
0.96
 40
14.4
  1
ＭＣＬＥ１Ｂ２－　１１Ｌ
 50
0.0
 41
0.833333333
 51
0.0
  7
KANJI68
  0
TEXT
  8
0
  6
CONTINUOUS
 62
     2
 10
1024.72
 20
1097.92
 30
0.96
 40
14.4
  1
ＭＣＬＥ１Ｂ２－　１２Ｌ
 50
0.0
 41
0.833333333
 51
0.0
  7
KANJI68
  0
TEXT
  8
0
  6
CONTINUOUS
 62
     2
 10
1024.72
 20
1064.12
 30
0.96
 40
14.4
  1
ＭＣＬＥ１Ｂ２－　　　Ｌ
 50
0.0
 41
0.833333333
 51
0.0
  7
KANJI68
  0
LINE
  8
0
  6
CONTINUOUS
 62
     2
 10
1009.12
 20
1426.04
 11
1786.72
 21
1426.04
  0
LINE
  8
0
  6
CONTINUOUS
 62
     2
 10
1009.12
 20
1392.44
 11
1786.72
 21
1392.44
  0
LINE
  8
0
  6
CONTINUOUS
 62
     2
 10
1009.12
 20
1224.44
 11
1786.72
 21
1224.44
  0
LINE
  8
0
  6
CONTINUOUS
 62
     2
 10
1009.12
 20
1325.24
 11
1786.72
 21
1325.24
  0
LINE
  8
0
  6
CONTINUOUS
 62
     2
 10
1009.12
 20
1358.84
 11
1786.72
 21
1358.84
  0
LINE
  8
0
  6
CONTINUOUS
 62
     2
 10
1009.12
 20
1258.04
 11
1786.72
 21
1258.04
  0
LINE
  8
0
  6
CONTINUOUS
 62
     2
 10
1009.12
 20
1291.64
 11
1786.72
 21
1291.64
  0
TEXT
  8
0
  6
CONTINUOUS
 62
     2
 10
1616.32
 20
1434.08
 30
1.44
 40
14.4
  1
　　４５
 50
0.0
 41
0.9
 51
0.0
  7
KANJI33
  0
TEXT
  8
0
  6
CONTINUOUS
 62
     2
 10
1616.32
 20
1400.48
 30
1.44
 40
14.4
  1
　　４５
 50
0.0
 41
0.9
 51
0.0
  7
KANJI33
  0
TEXT
  8
0
  6
CONTINUOUS
 62
     2
 10
1616.32
 20
1366.88
 30
1.44
 40
14.4
  1
　　４５
 50
0.0
 41
0.9
 51
0.0
  7
KANJI33
  0
TEXT
  8
0
  6
CONTINUOUS
 62
     2
 10
1616.32
 20
1333.28
 30
1.44
 40
14.4
  1
　　４５
 50
0.0
 41
0.9
 51
0.0
  7
KANJI33
  0
TEXT
  8
0
  6
CONTINUOUS
 62
     2
 10
1616.32
 20
1299.68
 30
1.44
 40
14.4
  1
　　４５
 50
0.0
 41
0.9
 51
0.0
  7
KANJI33
  0
TEXT
  8
0
  6
CONTINUOUS
 62
     2
 10
1616.32
 20
1266.08
 30
1.44
 40
14.4
  1
　　４５
 50
0.0
 41
0.9
 51
0.0
  7
KANJI33
  0
TEXT
  8
0
  6
CONTINUOUS
 62
     2
 10
1616.32
 20
1232.48
 30
1.44
 40
14.4
  1
　　４５
 50
0.0
 41
0.9
 51
0.0
  7
KANJI33
  0
LINE
  8
0
  6
CONTINUOUS
 62
     2
 10
1009.12
 20
1090.64
 11
1786.72
 21
1090.64
  0
LINE
  8
0
  6
CONTINUOUS
 62
     2
 10
1402.72
 20
1493.24
 11
1402.72
 21
1057.04
  0
LINE
  8
0
  6
CONTINUOUS
 62
     2
 10
1498.72
 20
1493.24
 11
1498.72
 21
1057.04
  0
LINE
  8
0
  6
CONTINUOUS
 62
     2
 10
1594.72
 20
1493.24
 11
1594.72
 21
1057.04
  0
LINE
  8
0
  6
CONTINUOUS
 62
     2
 10
1690.72
 20
1493.24
 11
1690.72
 21
1057.04
  0
LINE
  8
0
  6
CONTINUOUS
 62
     2
 10
1009.12
 20
1156.84
 11
1786.72
 21
1156.84
  0
LINE
  8
0
  6
CONTINUOUS
 62
     2
 10
1009.12
 20
1190.84
 11
1786.72
 21
1190.84
  0
TEXT
  8
0
  6
CONTINUOUS
 62
     2
 10
1616.32
 20
1198.88
 30
1.44
 40
14.4
  1
　　４５
 50
0.0
 41
0.9
 51
0.0
  7
KANJI33
  0
TEXT
  8
0
  6
CONTINUOUS
 62
     2
 10
1616.32
 20
1165.28
 30
1.44
 40
14.4
  1
　　４５
 50
0.0
 41
0.9
 51
0.0
  7
KANJI33
  0
LINE
  8
0
  6
CONTINUOUS
 62
     2
 10
1009.12
 20
1123.84
 11
1786.72
 21
1123.84
  0
TEXT
  8
0
  6
CONTINUOUS
 62
     2
 10
1616.32
 20
1131.88
 30
1.44
 40
14.4
  1
　　４５
 50
0.0
 41
0.9
 51
0.0
  7
KANJI33
  0
TEXT
  8
0
  6
CONTINUOUS
 62
     2
 10
1616.32
 20
1098.28
 30
1.44
 40
14.4
  1
　　４５
 50
0.0
 41
0.9
 51
0.0
  7
KANJI33
  0
TEXT
  8
0
  6
CONTINUOUS
 62
     2
 10
1520.32
 20
1434.08
 30
1.44
 40
14.4
  1
　４６０
 50
0.0
 41
0.9
 51
0.0
  7
KANJI33
  0
TEXT
  8
0
  6
CONTINUOUS
 62
     2
 10
1520.32
 20
1400.48
 30
1.44
 40
14.4
  1
　５６０
 50
0.0
 41
0.9
 51
0.0
  7
KANJI33
  0
TEXT
  8
0
  6
CONTINUOUS
 62
     2
 10
1520.32
 20
1366.88
 30
1.44
 40
14.4
  1
　６６０
 50
0.0
 41
0.9
 51
0.0
  7
KANJI33
  0
TEXT
  8
0
  6
CONTINUOUS
 62
     2
 10
1520.32
 20
1333.28
 30
1.44
 40
14.4
  1
　７６０
 50
0.0
 41
0.9
 51
0.0
  7
KANJI33
  0
TEXT
  8
0
  6
CONTINUOUS
 62
     2
 10
1520.32
 20
1299.68
 30
1.44
 40
14.4
  1
　９００
 50
0.0
 41
0.9
 51
0.0
  7
KANJI33
  0
TEXT
  8
0
  6
CONTINUOUS
 62
     2
 10
1520.32
 20
1266.08
 30
1.44
 40
14.4
  1
１０００
 50
0.0
 41
0.9
 51
0.0
  7
KANJI33
  0
TEXT
  8
0
  6
CONTINUOUS
 62
     2
 10
1520.32
 20
1232.48
 30
1.44
 40
14.4
  1
１１００
 50
0.0
 41
0.9
 51
0.0
  7
KANJI33
  0
TEXT
  8
0
  6
CONTINUOUS
 62
     2
 10
1520.32
 20
1198.88
 30
1.44
 40
14.4
  1
１２００
 50
0.0
 41
0.9
 51
0.0
  7
KANJI33
  0
TEXT
  8
0
  6
CONTINUOUS
 62
     2
 10
1520.32
 20
1165.28
 30
1.44
 40
14.4
  1
１３００
 50
0.0
 41
0.9
 51
0.0
  7
KANJI33
  0
TEXT
  8
0
  6
CONTINUOUS
 62
     2
 10
1520.32
 20
1131.88
 30
1.44
 40
14.4
  1
１４００
 50
0.0
 41
0.9
 51
0.0
  7
KANJI33
  0
TEXT
  8
0
  6
CONTINUOUS
 62
     2
 10
1520.32
 20
1098.28
 30
1.44
 40
14.4
  1
１５００
 50
0.0
 41
0.9
 51
0.0
  7
KANJI33
  0
TEXT
  8
0
  6
CONTINUOUS
 62
     2
 10
1424.32
 20
1434.08
 30
1.44
 40
14.4
  1
　５５５
 50
0.0
 41
0.9
 51
0.0
  7
KANJI33
  0
TEXT
  8
0
  6
CONTINUOUS
 62
     2
 10
1424.32
 20
1400.48
 30
1.44
 40
14.4
  1
　６５５
 50
0.0
 41
0.9
 51
0.0
  7
KANJI33
  0
TEXT
  8
0
  6
CONTINUOUS
 62
     2
 10
1424.32
 20
1366.88
 30
1.44
 40
14.4
  1
　７５５
 50
0.0
 41
0.9
 51
0.0
  7
KANJI33
  0
TEXT
  8
0
  6
CONTINUOUS
 62
     2
 10
1424.32
 20
1333.28
 30
1.44
 40
14.4
  1
　８５５
 50
0.0
 41
0.9
 51
0.0
  7
KANJI33
  0
TEXT
  8
0
  6
CONTINUOUS
 62
     2
 10
1424.32
 20
1299.68
 30
1.44
 40
14.4
  1
　９９５
 50
0.0
 41
0.9
 51
0.0
  7
KANJI33
  0
TEXT
  8
0
  6
CONTINUOUS
 62
     2
 10
1424.32
 20
1266.08
 30
1.44
 40
14.4
  1
１０９５
 50
0.0
 41
0.9
 51
0.0
  7
KANJI33
  0
TEXT
  8
0
  6
CONTINUOUS
 62
     2
 10
1424.32
 20
1232.48
 30
1.44
 40
14.4
  1
１１９５
 50
0.0
 41
0.9
 51
0.0
  7
KANJI33
  0
TEXT
  8
0
  6
CONTINUOUS
 62
     2
 10
1424.32
 20
1198.88
 30
1.44
 40
14.4
  1
１２９５
 50
0.0
 41
0.9
 51
0.0
  7
KANJI33
  0
TEXT
  8
0
  6
CONTINUOUS
 62
     2
 10
1424.32
 20
1165.28
 30
1.44
 40
14.4
  1
１３９５
 50
0.0
 41
0.9
 51
0.0
  7
KANJI33
  0
TEXT
  8
0
  6
CONTINUOUS
 62
     2
 10
1424.32
 20
1131.88
 30
1.44
 40
14.4
  1
１４９５
 50
0.0
 41
0.9
 51
0.0
  7
KANJI33
  0
TEXT
  8
0
  6
CONTINUOUS
 62
     2
 10
1424.32
 20
1098.28
 30
1.44
 40
14.4
  1
１５９５
 50
0.0
 41
0.9
 51
0.0
  7
KANJI33
  0
TEXT
  8
0
  6
CONTINUOUS
 62
     2
 10
1328.32
 20
1434.08
 30
1.44
 40
14.4
  1
　７０１
 50
0.0
 41
0.9
 51
0.0
  7
KANJI33
  0
TEXT
  8
0
  6
CONTINUOUS
 62
     2
 10
1328.32
 20
1400.48
 30
1.44
 40
14.4
  1
　８０１
 50
0.0
 41
0.9
 51
0.0
  7
KANJI33
  0
TEXT
  8
0
  6
CONTINUOUS
 62
     2
 10
1328.32
 20
1366.88
 30
1.44
 40
14.4
  1
　９０１
 50
0.0
 41
0.9
 51
0.0
  7
KANJI33
  0
TEXT
  8
0
  6
CONTINUOUS
 62
     2
 10
1328.32
 20
1333.28
 30
1.44
 40
14.4
  1
１００１
 50
0.0
 41
0.9
 51
0.0
  7
KANJI33
  0
TEXT
  8
0
  6
CONTINUOUS
 62
     2
 10
1328.32
 20
1299.68
 30
1.44
 40
14.4
  1
１１４１
 50
0.0
 41
0.9
 51
0.0
  7
KANJI33
  0
TEXT
  8
0
  6
CONTINUOUS
 62
     2
 10
1328.32
 20
1266.08
 30
1.44
 40
14.4
  1
１２４１
 50
0.0
 41
0.9
 51
0.0
  7
KANJI33
  0
TEXT
  8
0
  6
CONTINUOUS
 62
     2
 10
1328.32
 20
1232.48
 30
1.44
 40
14.4
  1
１３４１
 50
0.0
 41
0.9
 51
0.0
  7
KANJI33
  0
TEXT
  8
0
  6
CONTINUOUS
 62
     2
 10
1328.32
 20
1198.88
 30
1.44
 40
14.4
  1
１４４１
 50
0.0
 41
0.9
 51
0.0
  7
KANJI33
  0
TEXT
  8
0
  6
CONTINUOUS
 62
     2
 10
1328.32
 20
1165.28
 30
1.44
 40
14.4
  1
１５４１
 50
0.0
 41
0.9
 51
0.0
  7
KANJI33
  0
TEXT
  8
0
  6
CONTINUOUS
 62
     2
 10
1328.32
 20
1131.88
 30
1.44
 40
14.4
  1
１６４１
 50
0.0
 41
0.9
 51
0.0
  7
KANJI33
  0
TEXT
  8
0
  6
CONTINUOUS
 62
     2
 10
1328.32
 20
1098.28
 30
1.44
 40
14.4
  1
１７４１
 50
0.0
 41
0.9
 51
0.0
  7
KANJI33
  0
TEXT
  8
0
  6
CONTINUOUS
 62
     2
 10
1712.32
 20
1434.08
 30
1.44
 40
14.4
  1
　８０
 50
0.0
 41
0.9
 51
0.0
  7
KANJI33
  0
TEXT
  8
0
  6
CONTINUOUS
 62
     2
 10
1712.32
 20
1400.48
 30
1.44
 40
14.4
  1
　８２
 50
0.0
 41
0.9
 51
0.0
  7
KANJI33
  0
TEXT
  8
0
  6
CONTINUOUS
 62
     2
 10
1712.32
 20
1366.88
 30
1.44
 40
14.4
  1
　８４
 50
0.0
 41
0.9
 51
0.0
  7
KANJI33
  0
TEXT
  8
0
  6
CONTINUOUS
 62
     2
 10
1712.32
 20
1333.28
 30
1.44
 40
14.4
  1
　８７
 50
0.0
 41
0.9
 51
0.0
  7
KANJI33
  0
TEXT
  8
0
  6
CONTINUOUS
 62
     2
 10
1712.32
 20
1299.68
 30
1.44
 40
14.4
  1
　９０
 50
0.0
 41
0.9
 51
0.0
  7
KANJI33
  0
TEXT
  8
0
  6
CONTINUOUS
 62
     2
 10
1712.32
 20
1266.08
 30
1.44
 40
14.4
  1
　９２
 50
0.0
 41
0.9
 51
0.0
  7
KANJI33
  0
TEXT
  8
0
  6
CONTINUOUS
 62
     2
 10
1712.32
 20
1232.48
 30
1.44
 40
14.4
  1
　９４
 50
0.0
 41
0.9
 51
0.0
  7
KANJI33
  0
TEXT
  8
0
  6
CONTINUOUS
 62
     2
 10
1712.32
 20
1198.88
 30
1.44
 40
14.4
  1
　９５
 50
0.0
 41
0.9
 51
0.0
  7
KANJI33
  0
TEXT
  8
0
  6
CONTINUOUS
 62
     2
 10
1712.32
 20
1165.28
 30
1.44
 40
14.4
  1
　９７
 50
0.0
 41
0.9
 51
0.0
  7
KANJI33
  0
TEXT
  8
0
  6
CONTINUOUS
 62
     2
 10
1712.32
 20
1131.88
 30
1.44
 40
14.4
  1
　９９
 50
0.0
 41
0.9
 51
0.0
  7
KANJI33
  0
TEXT
  8
0
  6
CONTINUOUS
 62
     2
 10
1712.32
 20
1098.28
 30
1.44
 40
14.4
  1
１０１
 50
0.0
 41
0.9
 51
0.0
  7
KANJI33
  0
TEXT
  8
0
  6
CONTINUOUS
 62
     2
 10
2158.42
 20
1536.6
 30
1.2
 40
18.0
  1
ＭＣＬＥ１Ｂ２－　Ｌ
 50
0.0
 41
0.833333333
 51
0.0
  7
KANJI69
  0
TEXT
  8
0
  6
CONTINUOUS
 62
     2
 10
2147.92
 20
1412.7
 30
1.8
 40
18.0
  1
１００／１２０
 50
0.0
 41
0.9
 51
0.0
  7
KANJI50
  0
TEXT
  8
0
  6
CONTINUOUS
 62
     2
 10
2159.92
 20
1370.7
 30
0.0
 40
18.0
  1
１７Ｎ・ｍ（１．８ｋｇ・ｍ）
 50
0.0
 41
0.833333333
 51
0.0
  7
KANJI70
  0
TEXT
  8
0
  6
CONTINUOUS
 62
     2
 10
2150.92
 20
1202.7
 30
1.8
 40
18.0
  1
　１．５ＫＷ
 50
0.0
 41
0.9
 51
0.0
  7
KANJI50
  0
TEXT
  8
0
  6
CONTINUOUS
 62
     2
 10
1730.92
 20
427.464
 30
1.8
 40
21.0
  1
　　前後の推奨余裕寸法は、各々５０ｍｍです。
 50
0.0
 41
0.857142857
 51
0.0
  7
KANJI31
  0
TEXT
  8
0
  6
CONTINUOUS
 62
     2
 10
1856.92
 20
251.7
 30
0.0
 40
21.0
  1
ＭＣＬＥ１Ｂ２－Ｌ
 50
0.0
 41
0.793650794
 51
0.0
  7
KANJI71
  0
TEXT
  8
0
  6
CONTINUOUS
 62
     2
 10
1971.7200334
 20
155.699994
 30
13.0
 40
30.0
  1
３００２７５０
 50
0.0
 41
0.8
 51
0.0
  7
KANJI72
  0
TEXT
  8
0
  6
CONTINUOUS
 62
     2
 10
1643.5200334
 20
126.899994
 30
1.8
 40
21.0
  1
０８．０８．０６
 50
0.0
 41
0.571428571
 51
0.0
  7
KANJI73
  0
TEXT
  8
0
  6
CONTINUOUS
 62
     2
 10
171.4
 20
26.4
 30
0.0
 40
18.0
  1
ＦＤ　Ｎｏ．ＭＣ２６０
 50
0.0
 41
0.9
 51
0.0
  7
KANJI74
  0
TEXT
  8
0
  6
CONTINUOUS
 62
     3
 10
707.5
 20
627.0
 30
0.0
 40
18.0
  1
ＰＦ１／２
 50
0.0
 41
0.9
 51
0.0
  7
KANJI25
  0
LINE
  8
0
  6
CONTINUOUS
 62
     2
 10
706.4
 20
624.0
 11
788.5
 21
624.0
  0
LINE
  8
0
  6
CONTINUOUS
 62
     2
 10
632.0
 20
608.5
 11
706.4
 21
624.0
  0
LINE
  8
0
  6
CONTINUOUS
 62
     2
 10
413.0
 20
954.3
 11
413.0
 21
1094.7
  0
LINE
  8
0
  6
CONTINUOUS
 62
     2
 10
413.0
 20
1088.7
 11
427.488887394
 21
1084.817714323
  0
LINE
  8
0
  6
CONTINUOUS
 62
     2
 10
413.0
 20
1088.7
 11
427.488887394
 21
1092.582285677
  0
LINE
  8
0
  6
CONTINUOUS
 62
     2
 10
435.5
 20
1088.7
 11
413.0
 21
1088.7
  0
LINE
  8
0
  6
CONTINUOUS
 62
     2
 10
413.0
 20
1088.7
 11
403.0
 21
1088.7
  0
LINE
  8
0
  6
CONTINUOUS
 62
     2
 10
403.0
 20
1088.7
 11
380.5
 21
1088.7
  0
LINE
  8
0
  6
CONTINUOUS
 62
     2
 10
403.0
 20
1088.7
 11
388.511112606
 21
1092.582285677
  0
LINE
  8
0
  6
CONTINUOUS
 62
     2
 10
403.0
 20
1088.7
 11
388.511112606
 21
1084.817714323
  0
LINE
  8
0
  6
CONTINUOUS
 62
     2
 10
403.0
 20
950.0
 11
403.0
 21
1094.7
  0
TEXT
  8
0
  6
CONTINUOUS
 62
     3
 10
391.8
 20
1091.7
 30
0.0
 40
18.0
  1
１０
 50
0.0
 41
0.9
 51
0.0
  7
KANJI25
  0
LINE
  8
0
  6
CONTINUOUS
 62
     2
 10
403.0
 20
1078.7
 11
403.0
 21
1094.7
  0
LINE
  8
0
  6
CONTINUOUS
 62
     2
 10
403.0
 20
1088.7
 11
388.511112606
 21
1092.582285677
  0
LINE
  8
0
  6
CONTINUOUS
 62
     2
 10
403.0
 20
1088.7
 11
388.511112606
 21
1084.817714323
  0
LINE
  8
0
  6
CONTINUOUS
 62
     2
 10
403.0
 20
1088.7
 11
290.0
 21
1088.7
  0
LINE
  8
0
  6
CONTINUOUS
 62
     2
 10
290.0
 20
1088.7
 11
304.488887394
 21
1084.817714323
  0
LINE
  8
0
  6
CONTINUOUS
 62
     2
 10
290.0
 20
1088.7
 11
304.488887394
 21
1092.582285677
  0
LINE
  8
0
  6
CONTINUOUS
 62
     2
 10
290.0
 20
872.0
 11
290.0
 21
1094.7
  0
TEXT
  8
0
  6
CONTINUOUS
 62
     3
 10
322.2
 20
1091.7
 30
0.0
 40
18.0
  1
１１３
 50
0.0
 41
0.9
 51
0.0
  7
KANJI25
  0
LINE
  8
0
  6
CONTINUOUS
 62
     1
 10
1028.0
 20
531.0
 11
1044.0
 21
531.0
  0
LINE
  8
0
  6
CONTINUOUS
 62
     1
 10
1028.0
 20
531.0
 11
1028.0
 21
732.0
  0
LINE
  8
0
  6
CONTINUOUS
 62
     1
 10
1002.182501379
 20
550.0
 11
1028.0
 21
550.0
  0
LINE
  8
0
  6
CONTINUOUS
 62
     1
 10
1002.182501379
 20
538.0
 11
1028.0
 21
538.0
  0
LINE
  8
0
  6
CONTINUOUS
 62
     1
 10
1049.4999
 20
549.65878
 11
1048.440300598
 21
551.49406
  0
LINE
  8
0
  6
CONTINUOUS
 62
     1
 10
1049.4999
 20
544.0
 11
1049.4999
 21
549.65878
  0
LINE
  8
0
  6
CONTINUOUS
 62
     1
 10
1049.4999
 20
538.34122
 11
1048.440300598
 21
536.50594
  0
LINE
  8
0
  6
CONTINUOUS
 62
     1
 10
1049.4999
 20
544.0
 11
1049.4999
 21
538.34122
  0
ARC
  8
0
  6
CONTINUOUS
 62
     1
 10
1042.344844663
 20
544.0
 40
7.155055337
 50
328.419912243
 51
31.580087757
  0
ARC
  8
0
  6
CONTINUOUS
 62
     1
 10
1047.314476233
 20
549.620545
 40
2.185758211
 50
301.002313915
 51
2.989498403
  0
LINE
  8
0
  6
CONTINUOUS
 62
     1
 10
1049.4999
 20
538.34122
 11
1048.440300598
 21
536.50594
  0
ARC
  8
0
  6
CONTINUOUS
 62
     1
 10
1047.314476233
 20
538.379455
 40
2.185758211
 50
357.010501597
 51
58.997686085
  0
LINE
  8
0
  6
CONTINUOUS
 62
     1
 10
1044.0
 20
551.49406
 11
1048.440300598
 21
551.49406
  0
LINE
  8
0
  6
CONTINUOUS
 62
     1
 10
1044.0
 20
547.74703
 11
1048.440300598
 21
547.74703
  0
LINE
  8
0
  6
CONTINUOUS
 62
     1
 10
1044.0
 20
540.25297
 11
1048.440300598
 21
540.25297
  0
LINE
  8
0
  6
CONTINUOUS
 62
     1
 10
1044.0
 20
536.50594
 11
1048.440300598
 21
536.50594
  0
LINE
  8
0
  6
CONTINUOUS
 62
     1
 10
1049.4999
 20
540.0
 11
1054.4999
 21
540.0
  0
LINE
  8
0
  6
CONTINUOUS
 62
     1
 10
1049.4999
 20
548.0
 11
1054.4999
 21
548.0
  0
LINE
  8
0
  6
CONTINUOUS
 62
     1
 10
1054.4999
 20
540.0
 11
1054.4999
 21
548.0
  0
LINE
  8
0
  6
CONTINUOUS
 62
     2
 10
1049.4999
 20
547.2
 11
1054.4999
 21
547.2
  0
LINE
  8
0
  6
CONTINUOUS
 62
     2
 10
1049.4999
 20
540.8
 11
1054.4999
 21
540.8
  0
LINE
  8
0
  6
CONTINUOUS
 62
     1
 10
1044.0
 20
531.0
 11
1044.0
 21
701.0
  0
LINE
  8
0
  6
CONTINUOUS
 62
     1
 10
1044.0
 20
694.0
 11
1044.0
 21
732.0
  0
LINE
  8
0
  6
CONTINUOUS
 62
     1
 10
1028.0
 20
732.0
 11
1044.0
 21
732.0
  0
LINE
  8
0
  6
LTYPE1
 62
     2
 10
960.182501379
 20
550.0
 11
1002.182501379
 21
550.0
  0
LINE
  8
0
  6
CONTINUOUS
 62
     1
 10
1002.182501379
 20
555.0
 11
993.522247342
 21
560.0
  0
LINE
  8
0
  6
CONTINUOUS
 62
     1
 10
1002.182501379
 20
533.0
 11
1002.182501379
 21
555.0
  0
LINE
  8
0
  6
CONTINUOUS
 62
     1
 10
1002.182501379
 20
533.0
 11
993.522247342
 21
528.0
  0
LINE
  8
0
  6
CONTINUOUS
 62
     1
 10
968.832501379
 20
528.0
 11
968.832501379
 21
560.0
  0
LINE
  8
0
  6
CONTINUOUS
 62
     1
 10
960.182501379
 20
533.0
 11
960.182501379
 21
555.0
  0
LINE
  8
0
  6
CONTINUOUS
 62
     1
 10
993.532501379
 20
528.0
 11
993.532501379
 21
560.0
  0
LINE
  8
0
  6
CONTINUOUS
 62
     1
 10
968.832501379
 20
528.0
 11
993.532501379
 21
528.0
  0
LINE
  8
0
  6
CONTINUOUS
 62
     1
 10
960.182501379
 20
533.0
 11
968.842755417
 21
528.0
  0
LINE
  8
0
  6
CONTINUOUS
 62
     1
 10
884.182501379
 20
538.0
 11
960.182501379
 21
538.0
  0
LINE
  8
0
  6
CONTINUOUS
 62
     1
 10
915.482501379
 20
550.0
 11
960.182501379
 21
550.0
  0
LINE
  8
0
  6
LTYPE1
 62
     2
 10
960.182501379
 20
538.0
 11
1002.182501379
 21
538.0
  0
CIRCLE
  8
0
  6
CONTINUOUS
 62
     2
 10
981.182501379
 20
544.0
 40
5.0
  0
CIRCLE
  8
0
  6
CONTINUOUS
 62
     2
 10
981.182501379
 20
544.0
 40
4.0
  0
LINE
  8
0
  6
LTYPE2
 62
     2
 10
981.032501379
 20
534.0
 11
981.032501379
 21
554.0
  0
LINE
  8
0
  6
CONTINUOUS
 62
     1
 10
960.182501379
 20
555.0
 11
968.842755417
 21
560.0
  0
LINE
  8
0
  6
CONTINUOUS
 62
     1
 10
968.832501379
 20
560.0
 11
993.532501379
 21
560.0
  0
LINE
  8
0
  6
CONTINUOUS
 62
     1
 10
803.182501379
 20
592.0
 11
933.182501379
 21
592.0
  0
LINE
  8
0
  6
CONTINUOUS
 62
     1
 10
915.482501379
 20
585.0
 11
940.882501379
 21
585.0
  0
LINE
  8
0
  6
CONTINUOUS
 62
     1
 10
803.182501379
 20
586.0
 11
803.182501379
 21
592.0
  0
LINE
  8
0
  6
CONTINUOUS
 62
     1
 10
803.182501379
 20
586.0
 11
933.182501379
 21
586.0
  0
LINE
  8
0
  6
CONTINUOUS
 62
     1
 10
915.482501379
 20
559.6
 11
940.882501379
 21
559.6
  0
LINE
  8
0
  6
CONTINUOUS
 62
     1
 10
846.782501379
 20
586.0
 11
846.782501379
 21
546.0
  0
LINE
  8
0
  6
CONTINUOUS
 62
     1
 10
915.482501379
 20
586.0
 11
915.482501379
 21
546.0
  0
LINE
  8
0
  6
LTYPE1
 62
     2
 10
851.882501379
 20
576.17
 11
846.882501379
 21
576.17
  0
LINE
  8
0
  6
LTYPE1
 62
     2
 10
851.882501379
 20
575.015
 11
846.882501379
 21
575.015
  0
LINE
  8
0
  6
LTYPE1
 62
     2
 10
851.882501379
 20
576.17
 11
846.882501379
 21
576.17
  0
LINE
  8
0
  6
LTYPE3
 62
     2
 10
868.182501379
 20
530.0
 11
868.182501379
 21
595.3
  0
LINE
  8
0
  6
LTYPE3
 62
     2
 10
925.182501379
 20
571.1875
 11
925.182501379
 21
531.2
  0
LINE
  8
0
  6
CONTINUOUS
 62
     1
 10
795.482501379
 20
585.0
 11
795.482501379
 21
559.6
  0
LINE
  8
0
  6
CONTINUOUS
 62
     1
 10
820.882501379
 20
585.0
 11
795.482501379
 21
585.0
  0
LINE
  8
0
  6
CONTINUOUS
 62
     1
 10
820.882501379
 20
559.6
 11
795.482501379
 21
559.6
  0
LINE
  8
0
  6
CONTINUOUS
 62
     1
 10
820.882501379
 20
586.0
 11
820.882501379
 21
546.0
  0
LINE
  8
0
  6
LTYPE5
 62
     2
 10
851.882501379
 20
564.7
 11
842.782501379
 21
564.7
  0
LINE
  8
0
  6
LTYPE2
 62
     2
 10
440.532501379
 20
572.0
 11
827.792501379
 21
572.0
  0
LINE
  8
0
  6
LTYPE1
 62
     2
 10
523.032501379
 20
580.0
 11
795.482501379
 21
580.0
  0
LINE
  8
0
  6
LTYPE1
 62
     2
 10
523.032501379
 20
564.0
 11
795.482501379
 21
564.0
  0
LINE
  8
0
  6
CONTINUOUS
 62
     1
 10
940.882501379
 20
585.0
 11
940.882501379
 21
559.6
  0
LINE
  8
0
  6
CONTINUOUS
 62
     1
 10
933.182501379
 20
586.0
 11
933.182501379
 21
592.0
  0
LINE
  8
0
  6
CONTINUOUS
 62
     1
 10
846.182501379
 20
592.0
 11
846.182501379
 21
751.5
  0
LINE
  8
0
  6
CONTINUOUS
 62
     1
 10
830.182501379
 20
592.0
 11
830.182501379
 21
751.5
  0
LINE
  8
0
  6
CONTINUOUS
 62
     1
 10
906.182501379
 20
592.0
 11
906.182501379
 21
751.5
  0
LINE
  8
0
  6
CONTINUOUS
 62
     1
 10
890.182501379
 20
592.0
 11
890.182501379
 21
751.5
  0
LINE
  8
0
  6
CONTINUOUS
 62
     1
 10
852.182501379
 20
531.0
 11
884.182501379
 21
531.0
  0
LINE
  8
0
  6
CONTINUOUS
 62
     1
 10
884.182501379
 20
531.0
 11
884.182501379
 21
546.0
  0
LINE
  8
0
  6
CONTINUOUS
 62
     1
 10
852.182501379
 20
531.0
 11
852.182501379
 21
546.0
  0
LINE
  8
0
  6
CONTINUOUS
 62
     2
 10
860.0
 20
533.875
 11
850.458760731
 21
525.799434806
  0
LINE
  8
0
  6
CONTINUOUS
 62
     2
 10
860.0
 20
533.875
 11
855.774827007
 21
522.110735757
  0
LINE
  8
0
  6
CONTINUOUS
 62
     2
 10
860.0
 20
533.875
 11
843.0
 21
509.375
  0
TEXT
  8
0
  6
CONTINUOUS
 62
     2
 10
754.5
 20
514.375
 30
1.5
 40
15.0
  1
ＬＳユニット
 50
0.0
 41
0.9
 51
0.0
  7
KANJI62
  0
LINE
  8
0
  6
CONTINUOUS
 62
     2
 10
843.0
 20
509.375
 11
754.5
 21
509.375
  0
LINE
  8
0
  6
CONTINUOUS
 62
     1
 10
565.032501379
 20
536.0
 11
852.182501379
 21
536.0
  0
LINE
  8
0
  6
LTYPE1
 62
     2
 10
851.882501379
 20
555.23
 11
846.882501379
 21
555.23
  0
LINE
  8
0
  6
LTYPE1
 62
     2
 10
851.882501379
 20
556.385
 11
846.882501379
 21
556.385
  0
LINE
  8
0
  6
CONTINUOUS
 62
     1
 10
820.882501379
 20
552.0
 11
915.482501379
 21
552.0
  0
LINE
  8
0
  6
CONTINUOUS
 62
     1
 10
820.882501379
 20
546.0
 11
915.482501379
 21
546.0
  0
LINE
  8
0
  6
CONTINUOUS
 62
     1
 10
565.032501379
 20
552.0
 11
820.882501379
 21
552.0
  0
LINE
  8
0
  6
CONTINUOUS
 62
     1
 10
906.182501379
 20
751.5
 11
890.182501379
 21
751.5
  0
LINE
  8
0
  6
CONTINUOUS
 62
     1
 10
846.182501379
 20
751.5
 11
830.182501379
 21
751.5
  0
LINE
  8
0
  6
LTYPE2
 62
     2
 10
838.182501379
 20
631.25
 11
838.182501379
 21
736.9
  0
LINE
  8
0
  6
LTYPE2
 62
     2
 10
898.182501379
 20
631.25
 11
898.182501379
 21
736.9
  0
LINE
  8
0
  6
LTYPE1
 62
     2
 10
696.032501379
 20
592.0
 11
696.032501379
 21
751.5
  0
LINE
  8
0
  6
LTYPE1
 62
     2
 10
696.032501379
 20
751.5
 11
680.032501379
 21
751.5
  0
LINE
  8
0
  6
LTYPE3
 62
     2
 10
688.032501379
 20
631.25
 11
688.032501379
 21
736.9
  0
LINE
  8
0
  6
LTYPE1
 62
     2
 10
680.032501379
 20
592.0
 11
680.032501379
 21
751.5
  0
LINE
  8
0
  6
LTYPE1
 62
     2
 10
695.032501379
 20
586.0
 11
460.032501379
 21
586.0
  0
LINE
  8
0
  6
LTYPE1
 62
     2
 10
695.032501379
 20
592.0
 11
460.032501379
 21
592.0
  0
LINE
  8
0
  6
LTYPE1
 62
     2
 10
694.532501379
 20
586.0
 11
694.532501379
 21
581.4
  0
LINE
  8
0
  6
LTYPE1
 62
     2
 10
679.532501379
 20
586.0
 11
679.532501379
 21
581.4
  0
LINE
  8
0
  6
LTYPE1
 62
     2
 10
683.232501379
 20
586.0
 11
683.232501379
 21
581.4
  0
LINE
  8
0
  6
LTYPE1
 62
     2
 10
690.832501379
 20
586.0
 11
690.832501379
 21
581.4
  0
ARC
  8
0
  6
LTYPE1
 62
     2
 10
681.332501379
 20
583.5
 40
2.8
 50
228.5
 51
311.5
  0
ARC
  8
0
  6
LTYPE1
 62
     2
 10
687.032501379
 20
591.4
 40
10.7
 50
249.1
 51
290.9
  0
ARC
  8
0
  6
LTYPE1
 62
     2
 10
692.732501379
 20
583.5
 40
2.8
 50
228.5
 51
311.5
  0
LINE
  8
0
  6
LTYPE1
 62
     2
 10
687.032501379
 20
577.2
 11
687.032501379
 21
589.0
  0
LINE
  8
0
  6
LTYPE2
 62
     2
 10
687.032501379
 20
573.35
 11
687.032501379
 21
597.65
  0
LINE
  8
0
  6
LTYPE1
 62
     2
 10
692.732501379
 20
580.7
 11
681.332501379
 21
580.7
  0
LINE
  8
0
  6
LTYPE1
 62
     2
 10
460.032501379
 20
559.0
 11
476.032501379
 21
559.0
  0
LINE
  8
0
  6
LTYPE3
 62
     2
 10
479.032501379
 20
572.0
 11
490.532501379
 21
572.0
  0
LINE
  8
0
  6
LTYPE1
 62
     2
 10
476.032501379
 20
582.4
 11
482.532501379
 21
582.4
  0
ARC
  8
0
  6
LTYPE1
 62
     2
 10
479.632501379
 20
579.8
 40
3.9
 50
317.9
 51
42.1
  0
LINE
  8
0
  6
LTYPE1
 62
     2
 10
482.532501379
 20
577.2
 11
476.032501379
 21
577.2
  0
LINE
  8
0
  6
LTYPE1
 62
     2
 10
483.532501379
 20
576.0
 11
491.032501379
 21
576.0
  0
LINE
  8
0
  6
LTYPE1
 62
     2
 10
483.532501379
 20
575.0
 11
491.032501379
 21
575.0
  0
LINE
  8
0
  6
LTYPE1
 62
     2
 10
471.779531379
 20
592.0
 11
471.779531379
 21
596.440300598
  0
LINE
  8
0
  6
LTYPE1
 62
     2
 10
475.526561379
 20
592.0
 11
475.526561379
 21
596.440300598
  0
LINE
  8
0
  6
LTYPE1
 62
     2
 10
476.032501379
 20
561.6
 11
482.532501379
 21
561.6
  0
ARC
  8
0
  6
LTYPE1
 62
     2
 10
479.632501379
 20
564.2
 40
3.9
 50
317.9
 51
42.1
  0
LINE
  8
0
  6
LTYPE1
 62
     2
 10
476.032501379
 20
566.8
 11
482.532501379
 21
566.8
  0
LINE
  8
0
  6
LTYPE1
 62
     2
 10
483.532501379
 20
569.0
 11
491.032501379
 21
569.0
  0
LINE
  8
0
  6
LTYPE1
 62
     2
 10
483.532501379
 20
568.0
 11
491.032501379
 21
568.0
  0
LINE
  8
0
  6
LTYPE1
 62
     2
 10
476.032501379
 20
559.0
 11
476.032501379
 21
586.0
  0
LINE
  8
0
  6
LTYPE1
 62
     2
 10
476.032501379
 20
582.4
 11
476.032501379
 21
561.6
  0
ARC
  8
0
  6
LTYPE1
 62
     2
 10
469.532501379
 20
572.0
 40
14.0
 50
338.2
 51
21.8
  0
LINE
  8
0
  6
LTYPE1
 62
     2
 10
483.532501379
 20
564.2
 11
483.532501379
 21
579.8
  0
LINE
  8
0
  6
LTYPE1
 62
     2
 10
523.032501379
 20
584.0
 11
491.032501379
 21
584.0
  0
LINE
  8
0
  6
LTYPE1
 62
     2
 10
523.032501379
 20
578.0
 11
491.032501379
 21
578.0
  0
LINE
  8
0
  6
LTYPE1
 62
     2
 10
491.032501379
 20
566.0
 11
523.032501379
 21
566.0
  0
LINE
  8
0
  6
LTYPE1
 62
     2
 10
491.032501379
 20
576.0
 11
496.032501379
 21
576.0
  0
LINE
  8
0
  6
LTYPE1
 62
     2
 10
491.032501379
 20
575.0
 11
496.032501379
 21
575.0
  0
LINE
  8
0
  6
LTYPE1
 62
     2
 10
491.032501379
 20
568.0
 11
496.032501379
 21
568.0
  0
LINE
  8
0
  6
LTYPE1
 62
     2
 10
491.032501379
 20
569.0
 11
496.032501379
 21
569.0
  0
LINE
  8
0
  6
LTYPE1
 62
     2
 10
491.032501379
 20
531.0
 11
491.032501379
 21
584.0
  0
ARC
  8
0
  6
LTYPE1
 62
     2
 10
468.032501379
 20
590.344844663
 40
7.155055337
 50
58.419912243
 51
121.580087757
  0
LINE
  8
0
  6
LTYPE1
 62
     2
 10
473.691281379
 20
597.4999
 11
475.526561379
 21
596.440300598
  0
LINE
  8
0
  6
LTYPE1
 62
     2
 10
468.032501379
 20
597.4999
 11
473.691281379
 21
597.4999
  0
LINE
  8
0
  6
LTYPE1
 62
     2
 10
473.691281379
 20
597.4999
 11
475.526561379
 21
596.440300598
  0
ARC
  8
0
  6
LTYPE1
 62
     2
 10
473.653046379
 20
595.314476233
 40
2.185758211
 50
87.010501597
 51
148.997686085
  0
LINE
  8
0
  6
LTYPE1
 62
     2
 10
488.532501379
 20
553.8
 11
482.918142025
 21
553.8
  0
LINE
  8
0
  6
LTYPE1
 62
     2
 10
481.532501379
 20
551.4
 11
482.918142025
 21
553.8
  0
LINE
  8
0
  6
LTYPE1
 62
     2
 10
481.532501379
 20
551.4
 11
482.918142025
 21
553.8
  0
LINE
  8
0
  6
LTYPE1
 62
     2
 10
481.532501379
 20
544.0
 11
481.532501379
 21
551.4
  0
LINE
  8
0
  6
LTYPE1
 62
     2
 10
488.532501379
 20
548.9
 11
482.918142025
 21
548.9
  0
ARC
  8
0
  6
LTYPE1
 62
     2
 10
484.390385212
 20
551.35
 40
2.858321186
 50
177.010501597
 51
238.997686085
  0
LINE
  8
0
  6
LTYPE1
 62
     2
 10
473.032501379
 20
548.0
 11
481.532501379
 21
548.0
  0
ARC
  8
0
  6
LTYPE1
 62
     2
 10
490.889184179
 20
544.0
 40
9.3566828
 50
148.419912243
 51
211.580087757
  0
LINE
  8
0
  6
LTYPE1
 62
     2
 10
473.032501379
 20
540.0
 11
473.032501379
 21
548.0
  0
LINE
  8
0
  6
LTYPE1
 62
     2
 10
473.032501379
 20
547.0
 11
481.532501379
 21
547.0
  0
LINE
  8
0
  6
LTYPE1
 62
     2
 10
491.032501379
 20
553.2
 11
488.532501379
 21
553.2
  0
LINE
  8
0
  6
LTYPE1
 62
     2
 10
488.532501379
 20
544.0
 11
488.532501379
 21
553.8
  0
LINE
  8
0
  6
LTYPE1
 62
     2
 10
488.532501379
 20
534.2
 11
482.918142025
 21
534.2
  0
LINE
  8
0
  6
LTYPE1
 62
     2
 10
481.532501379
 20
536.6
 11
482.918142025
 21
534.2
  0
LINE
  8
0
  6
LTYPE1
 62
     2
 10
481.532501379
 20
544.0
 11
481.532501379
 21
536.6
  0
LINE
  8
0
  6
LTYPE1
 62
     2
 10
488.532501379
 20
539.1
 11
482.918142025
 21
539.1
  0
ARC
  8
0
  6
LTYPE1
 62
     2
 10
484.390385212
 20
536.65
 40
2.858321186
 50
121.002313915
 51
182.989498403
  0
LINE
  8
0
  6
LTYPE1
 62
     2
 10
473.032501379
 20
540.0
 11
481.532501379
 21
540.0
  0
LINE
  8
0
  6
LTYPE1
 62
     2
 10
473.032501379
 20
541.0
 11
481.532501379
 21
541.0
  0
LINE
  8
0
  6
LTYPE1
 62
     2
 10
491.032501379
 20
531.0
 11
523.032501379
 21
531.0
  0
LINE
  8
0
  6
LTYPE1
 62
     2
 10
488.532501379
 20
544.0
 11
488.532501379
 21
534.2
  0
LINE
  8
0
  6
LTYPE1
 62
     2
 10
491.032501379
 20
534.8
 11
488.532501379
 21
534.8
  0
LINE
  8
0
  6
LTYPE1
 62
     2
 10
491.032501379
 20
544.0
 11
488.532501384
 21
541.500000004
  0
LINE
  8
0
  6
LTYPE1
 62
     2
 10
488.532501384
 20
544.0
 11
491.032501379
 21
546.499999996
  0
LINE
  8
0
  6
LTYPE3
 62
     2
 10
468.682501379
 20
544.0
 11
1060.032501379
 21
544.0
  0
LINE
  8
0
  6
LTYPE1
 62
     2
 10
468.032501379
 20
597.4999
 11
462.373721379
 21
597.4999
  0
LINE
  8
0
  6
LTYPE1
 62
     2
 10
468.032501379
 20
582.0
 11
468.032501379
 21
598.0
  0
ARC
  8
0
  6
LTYPE1
 62
     2
 10
462.411956379
 20
595.314476233
 40
2.185758211
 50
31.002313915
 51
92.989498403
  0
LINE
  8
0
  6
LTYPE1
 62
     2
 10
464.285471379
 20
592.0
 11
464.285471379
 21
596.440300598
  0
LINE
  8
0
  6
LTYPE1
 62
     2
 10
457.532501379
 20
581.8
 11
451.918142025
 21
581.8
  0
LINE
  8
0
  6
LTYPE1
 62
     2
 10
457.532501379
 20
576.9
 11
451.918142025
 21
576.9
  0
LINE
  8
0
  6
LTYPE1
 62
     2
 10
457.532501379
 20
572.0
 11
457.532501379
 21
581.8
  0
LINE
  8
0
  6
LTYPE1
 62
     2
 10
460.032501379
 20
581.2
 11
457.532501379
 21
581.2
  0
LINE
  8
0
  6
LTYPE1
 62
     2
 10
457.532501384
 20
572.0
 11
460.032501379
 21
574.499999996
  0
LINE
  8
0
  6
LTYPE1
 62
     2
 10
457.532501379
 20
562.2
 11
451.918142025
 21
562.2
  0
LINE
  8
0
  6
LTYPE1
 62
     2
 10
457.532501379
 20
567.1
 11
451.918142025
 21
567.1
  0
LINE
  8
0
  6
LTYPE1
 62
     2
 10
457.532501379
 20
572.0
 11
457.532501379
 21
562.2
  0
LINE
  8
0
  6
LTYPE1
 62
     2
 10
460.032501379
 20
572.0
 11
457.532501384
 21
569.500000004
  0
LINE
  8
0
  6
LTYPE1
 62
     2
 10
460.032501379
 20
562.8
 11
457.532501379
 21
562.8
  0
LINE
  8
0
  6
LTYPE1
 62
     2
 10
450.532501379
 20
572.0
 11
450.532501379
 21
579.4
  0
LINE
  8
0
  6
LTYPE1
 62
     2
 10
450.532501379
 20
579.4
 11
451.918142025
 21
581.8
  0
LINE
  8
0
  6
LTYPE1
 62
     2
 10
450.532501379
 20
579.4
 11
451.918142025
 21
581.8
  0
ARC
  8
0
  6
LTYPE1
 62
     2
 10
453.390385212
 20
579.35
 40
2.858321186
 50
177.010501597
 51
238.997686085
  0
LINE
  8
0
  6
LTYPE1
 62
     2
 10
446.032501379
 20
576.0
 11
450.532501379
 21
576.0
  0
LINE
  8
0
  6
LTYPE1
 62
     2
 10
446.032501379
 20
575.0
 11
450.532501379
 21
575.0
  0
LINE
  8
0
  6
LTYPE1
 62
     2
 10
450.532501379
 20
564.6
 11
451.918142025
 21
562.2
  0
LINE
  8
0
  6
LTYPE1
 62
     2
 10
450.532501379
 20
572.0
 11
450.532501379
 21
564.6
  0
ARC
  8
0
  6
LTYPE1
 62
     2
 10
453.390385212
 20
564.65
 40
2.858321186
 50
121.002313915
 51
182.989498403
  0
LINE
  8
0
  6
LTYPE1
 62
     2
 10
446.032501379
 20
568.0
 11
450.532501379
 21
568.0
  0
LINE
  8
0
  6
LTYPE1
 62
     2
 10
446.032501379
 20
569.0
 11
450.532501379
 21
569.0
  0
ARC
  8
0
  6
LTYPE1
 62
     2
 10
459.889184179
 20
572.0
 40
9.3566828
 50
148.419912243
 51
211.580087757
  0
LINE
  8
0
  6
LTYPE1
 62
     2
 10
446.032501379
 20
568.0
 11
446.032501379
 21
576.0
  0
LINE
  8
0
  6
LTYPE1
 62
     2
 10
460.032501379
 20
559.0
 11
460.032501379
 21
592.0
  0
LINE
  8
0
  6
LTYPE1
 62
     2
 10
462.373721379
 20
597.4999
 11
460.538441379
 21
596.440300598
  0
LINE
  8
0
  6
LTYPE1
 62
     2
 10
460.538441379
 20
592.0
 11
460.538441379
 21
596.440300598
  0
LINE
  8
0
  6
LTYPE1
 62
     2
 10
496.032501379
 20
566.0
 11
496.032501379
 21
578.0
  0
LINE
  8
0
  6
LTYPE1
 62
     2
 10
523.032501379
 20
531.0
 11
523.032501379
 21
584.0
  0
LINE
  8
0
  6
CONTINUOUS
 62
     1
 10
509.532501379
 20
552.55
 11
509.532501379
 21
536.55
  0
LINE
  8
0
  6
CONTINUOUS
 62
     1
 10
509.532501379
 20
552.55
 11
523.032501379
 21
552.55
  0
LINE
  8
0
  6
CONTINUOUS
 62
     1
 10
523.032501379
 20
555.0
 11
531.692755417
 21
560.0
  0
LINE
  8
0
  6
CONTINUOUS
 62
     1
 10
523.032501379
 20
533.0
 11
523.032501379
 21
555.0
  0
LINE
  8
0
  6
CONTINUOUS
 62
     1
 10
556.382501379
 20
528.0
 11
556.382501379
 21
560.0
  0
LINE
  8
0
  6
LTYPE2
 62
     2
 10
544.032501379
 20
534.0
 11
544.032501379
 21
554.0
  0
LINE
  8
0
  6
CONTINUOUS
 62
     1
 10
531.682501379
 20
560.0
 11
556.382501379
 21
560.0
  0
LINE
  8
0
  6
CONTINUOUS
 62
     1
 10
565.032501379
 20
555.0
 11
556.372247342
 21
560.0
  0
CIRCLE
  8
0
  6
CONTINUOUS
 62
     2
 10
544.032501379
 20
544.0
 40
5.0
  0
CIRCLE
  8
0
  6
CONTINUOUS
 62
     2
 10
544.032501379
 20
544.0
 40
4.0
  0
LINE
  8
0
  6
CONTINUOUS
 62
     1
 10
565.032501379
 20
533.0
 11
565.032501379
 21
555.0
  0
LINE
  8
0
  6
CONTINUOUS
 62
     1
 10
531.682501379
 20
528.0
 11
531.682501379
 21
560.0
  0
LINE
  8
0
  6
CONTINUOUS
 62
     1
 10
509.532501379
 20
536.55
 11
523.032501379
 21
536.55
  0
LINE
  8
0
  6
CONTINUOUS
 62
     1
 10
523.032501379
 20
533.0
 11
531.692755417
 21
528.0
  0
LINE
  8
0
  6
CONTINUOUS
 62
     1
 10
531.682501379
 20
528.0
 11
556.382501379
 21
528.0
  0
LINE
  8
0
  6
CONTINUOUS
 62
     1
 10
565.032501379
 20
533.0
 11
556.372247342
 21
528.0
  0
ARC
  8
0
  6
CONTINUOUS
 62
     1
 10
813.182501379
 20
311.6
 40
10.0
 50
90.0
 51
180.0
  0
LINE
  8
0
  6
CONTINUOUS
 62
     1
 10
813.182501379
 20
321.6
 11
923.182501379
 21
321.6
  0
LINE
  8
0
  6
LTYPE3
 62
     2
 10
851.782501379
 20
316.1
 11
851.782501379
 21
307.12
  0
LINE
  8
0
  6
CONTINUOUS
 62
     1
 10
913.482501379
 20
317.1
 11
848.782501379
 21
317.1
  0
LINE
  8
0
  6
CONTINUOUS
 62
     1
 10
846.782501379
 20
315.1
 11
846.782501379
 21
279.1
  0
ARC
  8
0
  6
CONTINUOUS
 62
     1
 10
848.782501379
 20
315.1
 40
2.0
 50
90.0
 51
180.0
  0
LINE
  8
0
  6
CONTINUOUS
 62
     2
 10
807.182501379
 20
321.6
 11
746.0
 21
321.6
  0
LINE
  8
0
  6
CONTINUOUS
 62
     2
 10
752.0
 20
321.6
 11
748.894171459
 21
310.008890085
  0
LINE
  8
0
  6
CONTINUOUS
 62
     2
 10
752.0
 20
321.6
 11
755.105828541
 21
310.008890085
  0
LINE
  8
0
  6
CONTINUOUS
 62
     2
 10
752.0
 20
321.6
 11
752.0
 21
156.6
  0
ARC
  8
0
  6
CONTINUOUS
 62
     1
 10
923.182501379
 20
311.6
 40
10.0
 50
0.0
 51
90.0
  0
LINE
  8
0
  6
LTYPE3
 62
     2
 10
910.482501379
 20
316.1
 11
910.482501379
 21
308.22
  0
ARC
  8
0
  6
CONTINUOUS
 62
     1
 10
913.482501379
 20
315.1
 40
2.0
 50
0.0
 51
90.0
  0
LINE
  8
0
  6
CONTINUOUS
 62
     1
 10
915.482501379
 20
315.1
 11
915.482501379
 21
279.1
  0
LINE
  8
0
  6
LTYPE2
 62
     2
 10
868.182501379
 20
207.5
 11
868.182501379
 21
546.0
  0
LINE
  8
0
  6
CONTINUOUS
 62
     1
 10
852.182501379
 20
255.1
 11
884.182501379
 21
255.1
  0
LINE
  8
0
  6
CONTINUOUS
 62
     1
 10
852.182501379
 20
223.1
 11
852.182501379
 21
255.1
  0
LINE
  8
0
  6
LTYPE3
 62
     2
 10
934.443522596
 20
297.1
 11
843.182501379
 21
297.1
  0
LINE
  8
7
  6
CONTINUOUS
 62
     2
 10
846.782501379
 20
297.1
 11
838.47402349
 21
291.535002681
  0
LINE
  8
7
  6
CONTINUOUS
 62
     2
 10
846.782501379
 20
297.1
 11
842.36964712
 21
288.126332005
  0
LINE
  8
7
  6
CONTINUOUS
 62
     2
 10
846.782501379
 20
297.1
 11
835.582501379
 21
284.3
  0
LINE
  8
7
  6
CONTINUOUS
 62
     2
 10
835.582501379
 20
284.3
 11
776.782501379
 21
284.3
  0
TEXT
  8
7
  6
CONTINUOUS
 62
     2
 10
776.782501379
 20
288.3
 30
1.2
 40
12.0
  1
ＰＦ１／２
 50
0.0
 41
0.9
 51
0.0
  7
KANJI75
  0
LINE
  8
0
  6
CONTINUOUS
 62
     1
 10
803.182501379
 20
301.3
 11
803.182501379
 21
311.6
  0
LINE
  8
0
  6
CONTINUOUS
 62
     1
 10
803.182501379
 20
247.1
 11
803.182501379
 21
281.3
  0
LINE
  8
0
  6
LTYPE3
 62
     2
 10
858.222501379
 20
312.2
 11
846.782501379
 21
312.2
  0
LINE
  8
0
  6
LTYPE3
 62
     2
 10
857.682501379
 20
282.0
 11
846.782501379
 21
282.0
  0
LINE
  8
0
  6
LTYPE3
 62
     2
 10
851.782501379
 20
288.02
 11
851.782501379
 21
278.1
  0
LINE
  8
0
  6
CONTINUOUS
 62
     1
 10
913.482501379
 20
277.1
 11
848.782501379
 21
277.1
  0
ARC
  8
0
  6
CONTINUOUS
 62
     1
 10
848.782501379
 20
279.1
 40
2.0
 50
180.0
 51
270.0
  0
TEXT
  8
0
  6
CONTINUOUS
 62
     3
 10
749.0
 20
214.8
 30
0.0
 40
18.0
  1
１６５
 50
90.0
 41
0.9
 51
0.0
  7
KANJI25
  0
LINE
  8
0
  6
CONTINUOUS
 62
     1
 10
884.182501379
 20
223.1
 11
852.182501379
 21
223.1
  0
LINE
  8
0
  6
LTYPE3
 62
     2
 10
825.882501379
 20
162.1
 11
825.882501379
 21
169.98
  0
LINE
  8
0
  6
LTYPE3
 62
     2
 10
820.882501379
 20
196.2
 11
830.682501379
 21
196.2
  0
LINE
  8
0
  6
LTYPE3
 62
     2
 10
825.882501379
 20
190.08
 11
825.882501379
 21
200.1
  0
LINE
  8
0
  6
LTYPE3
 62
     2
 10
822.182501379
 20
219.1
 11
799.182501379
 21
219.1
  0
ARC
  8
0
  6
CONTINUOUS
 62
     1
 10
797.482501379
 20
170.4
 40
2.0
 50
180.0
 51
270.0
  0
LINE
  8
0
  6
CONTINUOUS
 62
     1
 10
795.482501379
 20
170.4
 11
795.482501379
 21
191.8
  0
ARC
  8
0
  6
CONTINUOUS
 62
     1
 10
797.482501379
 20
191.8
 40
2.0
 50
90.0
 51
180.0
  0
LINE
  8
0
  6
CONTINUOUS
 62
     1
 10
820.882501379
 20
163.1
 11
820.882501379
 21
199.1
  0
ARC
  8
0
  6
CONTINUOUS
 62
     1
 10
822.882501379
 20
199.1
 40
2.0
 50
90.0
 51
180.0
  0
LINE
  8
0
  6
CONTINUOUS
 62
     1
 10
822.882501379
 20
201.1
 11
887.582501379
 21
201.1
  0
LINE
  8
0
  6
CONTINUOUS
 62
     1
 10
805.190817392
 20
181.415789474
 11
807.188045388
 21
219.310526316
  0
LINE
  8
0
  6
CONTINUOUS
 62
     1
 10
817.174185367
 20
181.415789474
 11
815.176957371
 21
219.310526316
  0
ARC
  8
0
  6
CONTINUOUS
 62
     1
 10
811.182501379
 20
219.1
 40
4.0
 50
356.983042101
 51
183.016952287
  0
ARC
  8
0
  6
CONTINUOUS
 62
     1
 10
811.182501379
 20
219.1
 40
8.75
 50
300.219855722
 51
239.780144278
  0
ARC
  8
0
  6
CONTINUOUS
 62
     1
 10
811.182501379
 20
181.1
 40
6.0
 50
176.983045121
 51
3.016954879
  0
LINE
  8
0
  6
CONTINUOUS
 62
     1
 10
816.521480162
 20
193.8
 11
820.882501379
 21
193.8
  0
LINE
  8
0
  6
CONTINUOUS
 62
     1
 10
797.482501379
 20
193.8
 11
805.843522596
 21
193.8
  0
LINE
  8
0
  6
LTYPE3
 62
     2
 10
811.182501379
 20
172.0
 11
811.182501379
 21
229.5
  0
LINE
  8
0
  6
LTYPE3
 62
     2
 10
801.921480162
 20
181.1
 11
893.182501379
 21
181.1
  0
LINE
  8
0
  6
CONTINUOUS
 62
     1
 10
803.182501379
 20
215.55563828
 11
803.182501379
 21
193.75
  0
LINE
  8
0
  6
CONTINUOUS
 62
     1
 10
803.182501379
 20
231.1
 11
803.182501379
 21
222.64436172
  0
LINE
  8
0
  6
CONTINUOUS
 62
     1
 10
786.803444363
 20
231.1
 11
852.182501379
 21
231.1
  0
LINE
  8
0
  6
CONTINUOUS
 62
     1
 10
852.182501379
 20
247.1
 11
786.873079342
 21
247.1
  0
ARC
  8
0
  6
CONTINUOUS
 62
     1
 10
792.427969957
 20
243.1
 40
6.845203412
 50
144.242860688
 51
215.757139312
  0
ARC
  8
0
  6
CONTINUOUS
 62
     1
 10
781.318188727
 20
243.1
 40
6.845203412
 50
324.242860688
 51
35.757139312
  0
ARC
  8
0
  6
CONTINUOUS
 62
     1
 10
781.318188727
 20
235.1
 40
6.845203412
 50
324.242860688
 51
35.757139312
  0
LINE
  8
0
  6
LTYPE2
 62
     2
 10
1016.682501379
 20
239.1
 11
781.838261852
 21
239.1
  0
LINE
  8
0
  6
CONTINUOUS
 62
     1
 10
933.182501379
 20
309.8
 11
933.182501379
 21
311.6
  0
LINE
  8
0
  6
LTYPE3
 62
     2
 10
878.682501379
 20
196.2
 11
889.582501379
 21
196.2
  0
LINE
  8
0
  6
LTYPE3
 62
     2
 10
884.582501379
 20
190.18
 11
884.582501379
 21
200.1
  0
LINE
  8
0
  6
LTYPE3
 62
     2
 10
884.582501379
 20
162.1
 11
884.582501379
 21
171.08
  0
ARC
  8
0
  6
CONTINUOUS
 62
     1
 10
887.582501379
 20
199.1
 40
2.0
 50
0.0
 51
90.0
  0
LINE
  8
0
  6
CONTINUOUS
 62
     1
 10
889.582501379
 20
163.1
 11
889.582501379
 21
199.1
  0
LINE
  8
0
  6
CONTINUOUS
 62
     1
 10
884.182501379
 20
223.1
 11
884.182501379
 21
255.1
  0
LINE
  8
0
  6
CONTINUOUS
 62
     1
 10
933.182501379
 20
262.64436172
 11
933.182501379
 21
284.45
  0
LINE
  8
0
  6
CONTINUOUS
 62
     1
 10
933.182501379
 20
247.1
 11
933.182501379
 21
255.55563828
  0
LINE
  8
0
  6
LTYPE2
 62
     2
 10
964.682501379
 20
229.1
 11
964.682501379
 21
249.1
  0
CIRCLE
  8
0
  6
CONTINUOUS
 62
     2
 10
964.682501379
 20
239.1
 40
5.0
  0
CIRCLE
  8
0
  6
CONTINUOUS
 62
     2
 10
964.682501379
 20
239.1
 40
4.0
  0
LINE
  8
7
  6
CONTINUOUS
 62
     2
 10
889.582501379
 20
181.1
 11
897.949808964
 21
186.576144975
  0
LINE
  8
7
  6
CONTINUOUS
 62
     2
 10
889.582501379
 20
181.1
 11
894.090729822
 21
190.026134455
  0
LINE
  8
7
  6
CONTINUOUS
 62
     2
 10
889.582501379
 20
181.1
 11
902.232501379
 21
195.25
  0
LINE
  8
7
  6
CONTINUOUS
 62
     2
 10
902.232501379
 20
195.25
 11
961.032501379
 21
195.25
  0
TEXT
  8
7
  6
CONTINUOUS
 62
     2
 10
902.232501379
 20
199.25
 30
1.2
 40
12.0
  1
ＰＦ１／２
 50
0.0
 41
0.9
 51
0.0
  7
KANJI75
  0
LINE
  8
0
  6
CONTINUOUS
 62
     1
 10
933.182501379
 20
192.3
 11
933.182501379
 21
166.6
  0
LINE
  8
0
  6
LTYPE3
 62
     2
 10
915.482501379
 20
312.2
 11
905.522501379
 21
312.2
  0
LINE
  8
0
  6
CONTINUOUS
 62
     1
 10
938.882501379
 20
309.8
 11
915.482501379
 21
309.8
  0
LINE
  8
0
  6
LTYPE3
 62
     2
 10
915.482501379
 20
282.0
 11
905.682501379
 21
282.0
  0
LINE
  8
0
  6
LTYPE3
 62
     2
 10
910.482501379
 20
288.12
 11
910.482501379
 21
278.1
  0
ARC
  8
0
  6
CONTINUOUS
 62
     1
 10
913.482501379
 20
279.1
 40
2.0
 50
270.0
 51
0.0
  0
LINE
  8
0
  6
CONTINUOUS
 62
     1
 10
919.843522596
 20
284.4
 11
915.482501379
 21
284.4
  0
ARC
  8
0
  6
CONTINUOUS
 62
     1
 10
938.882501379
 20
307.8
 40
2.0
 50
0.0
 51
90.0
  0
LINE
  8
0
  6
CONTINUOUS
 62
     1
 10
940.882501379
 20
307.8
 11
940.882501379
 21
286.4
  0
ARC
  8
0
  6
CONTINUOUS
 62
     1
 10
925.182501379
 20
297.1
 40
6.0
 50
356.983045121
 51
183.016954879
  0
LINE
  8
0
  6
LTYPE3
 62
     2
 10
925.182501379
 20
306.2
 11
925.182501379
 21
248.7
  0
LINE
  8
0
  6
CONTINUOUS
 62
     1
 10
931.174185367
 20
296.784210526
 11
929.176957371
 21
258.889473684
  0
LINE
  8
0
  6
CONTINUOUS
 62
     1
 10
919.190817392
 20
296.784210526
 11
921.188045388
 21
258.889473684
  0
ARC
  8
0
  6
CONTINUOUS
 62
     1
 10
938.882501379
 20
286.4
 40
2.0
 50
270.0
 51
0.0
  0
LINE
  8
0
  6
CONTINUOUS
 62
     1
 10
938.882501379
 20
284.4
 11
930.521480162
 21
284.4
  0
LINE
  8
0
  6
LTYPE3
 62
     2
 10
914.182501379
 20
259.1
 11
937.182501379
 21
259.1
  0
ARC
  8
0
  6
CONTINUOUS
 62
     1
 10
925.182501379
 20
259.1
 40
8.75
 50
120.219855722
 51
59.780144278
  0
ARC
  8
0
  6
CONTINUOUS
 62
     1
 10
925.182501379
 20
259.1
 40
4.0
 50
176.983042101
 51
3.016952287
  0
LINE
  8
0
  6
LTYPE3
 62
     2
 10
820.882501379
 20
166.0
 11
830.842501379
 21
166.0
  0
ARC
  8
0
  6
CONTINUOUS
 62
     1
 10
822.882501379
 20
163.1
 40
2.0
 50
180.0
 51
270.0
  0
LINE
  8
0
  6
CONTINUOUS
 62
     1
 10
797.482501379
 20
168.4
 11
820.882501379
 21
168.4
  0
LINE
  8
0
  6
CONTINUOUS
 62
     1
 10
822.882501379
 20
161.1
 11
887.582501379
 21
161.1
  0
LINE
  8
0
  6
CONTINUOUS
 62
     1
 10
803.182501379
 20
168.4
 11
803.182501379
 21
166.6
  0
LINE
  8
0
  6
CONTINUOUS
 62
     1
 10
923.182501379
 20
156.6
 11
813.182501379
 21
156.6
  0
ARC
  8
0
  6
CONTINUOUS
 62
     1
 10
813.182501379
 20
166.6
 40
10.0
 50
180.0
 51
270.0
  0
LINE
  8
0
  6
LTYPE3
 62
     2
 10
878.142501379
 20
166.0
 11
889.582501379
 21
166.0
  0
ARC
  8
0
  6
CONTINUOUS
 62
     1
 10
887.582501379
 20
163.1
 40
2.0
 50
270.0
 51
0.0
  0
ARC
  8
0
  6
CONTINUOUS
 62
     1
 10
923.182501379
 20
166.6
 40
10.0
 50
270.0
 51
0.0
  0
LINE
  8
0
  6
CONTINUOUS
 62
     2
 10
752.0
 20
156.6
 11
755.105828541
 21
168.191109915
  0
LINE
  8
0
  6
CONTINUOUS
 62
     2
 10
752.0
 20
156.6
 11
748.894171459
 21
168.191109915
  0
LINE
  8
0
  6
CONTINUOUS
 62
     2
 10
807.182512169
 20
156.6
 11
746.0
 21
156.6
  0
LINE
  8
0
  6
CONTINUOUS
 62
     2
 10
803.182501379
 20
162.4
 11
803.182501379
 21
117.6
  0
LINE
  8
0
  6
CONTINUOUS
 62
     2
 10
803.182501379
 20
123.6
 11
814.773611295
 21
120.494171459
  0
LINE
  8
0
  6
CONTINUOUS
 62
     2
 10
803.182501379
 20
123.6
 11
814.773611295
 21
126.705828541
  0
LINE
  8
0
  6
CONTINUOUS
 62
     2
 10
803.182501379
 20
123.6
 11
933.182501379
 21
123.6
  0
LINE
  8
0
  6
CONTINUOUS
 62
     2
 10
933.182501379
 20
123.6
 11
921.591391464
 21
126.705828541
  0
LINE
  8
0
  6
CONTINUOUS
 62
     2
 10
933.182501379
 20
123.6
 11
921.591391464
 21
120.494171459
  0
LINE
  8
0
  6
CONTINUOUS
 62
     2
 10
933.182501379
 20
160.600010093
 11
933.182501379
 21
117.6
  0
TEXT
  8
0
  6
CONTINUOUS
 62
     3
 10
843.882501379
 20
126.6
 30
0.0
 40
18.0
  1
１３０
 50
0.0
 41
0.9
 51
0.0
  7
KANJI25
  0
LINE
  8
0
  6
CONTINUOUS
 62
     1
 10
943.832501379
 20
250.1
 11
952.492755417
 21
255.1
  0
LINE
  8
0
  6
CONTINUOUS
 62
     1
 10
952.482501379
 20
223.1
 11
952.482501379
 21
255.1
  0
LINE
  8
0
  6
CONTINUOUS
 62
     1
 10
943.832501379
 20
228.1
 11
943.832501379
 21
250.1
  0
LINE
  8
0
  6
CONTINUOUS
 62
     1
 10
952.482501379
 20
255.1
 11
977.182501379
 21
255.1
  0
LINE
  8
0
  6
CONTINUOUS
 62
     1
 10
985.832501379
 20
250.1
 11
977.172247342
 21
255.1
  0
LINE
  8
0
  6
CONTINUOUS
 62
     1
 10
977.182501379
 20
223.1
 11
977.182501379
 21
255.1
  0
LINE
  8
0
  6
CONTINUOUS
 62
     1
 10
985.832501379
 20
228.1
 11
977.172247342
 21
223.1
  0
LINE
  8
0
  6
CONTINUOUS
 62
     1
 10
952.482501379
 20
223.1
 11
977.182501379
 21
223.1
  0
LINE
  8
0
  6
CONTINUOUS
 62
     1
 10
943.832501379
 20
228.1
 11
952.492755417
 21
223.1
  0
LINE
  8
0
  6
CONTINUOUS
 62
     1
 10
943.832501379
 20
231.1
 11
884.182501379
 21
231.1
  0
LINE
  8
0
  6
CONTINUOUS
 62
     1
 10
884.182501379
 20
247.1
 11
943.832501379
 21
247.1
  0
LINE
  8
0
  6
CONTINUOUS
 62
     1
 10
933.182501379
 20
231.1
 11
933.182501379
 21
213.3
  0
LINE
  8
0
  6
CONTINUOUS
 62
     1
 10
1078.482501379
 20
304.6
 11
1078.482501379
 21
239.9
  0
LINE
  8
0
  6
CONTINUOUS
 62
     1
 10
1080.482501379
 20
237.9
 11
1116.482501379
 21
237.9
  0
ARC
  8
0
  6
CONTINUOUS
 62
     1
 10
1080.482501379
 20
239.9
 40
2.0
 50
180.0
 51
270.0
  0
ARC
  8
0
  6
CONTINUOUS
 62
     1
 10
1080.482501379
 20
304.6
 40
2.0
 50
90.0
 51
180.0
  0
LINE
  8
0
  6
CONTINUOUS
 62
     1
 10
1085.782501379
 20
330.0
 11
1085.782501379
 21
306.6
  0
LINE
  8
0
  6
CONTINUOUS
 62
     1
 10
1080.482501379
 20
306.6
 11
1116.482501379
 21
306.6
  0
ARC
  8
0
  6
CONTINUOUS
 62
     1
 10
1087.782501379
 20
330.0
 40
2.0
 50
90.0
 51
180.0
  0
ARC
  8
0
  6
CONTINUOUS
 62
     1
 10
1098.482501379
 20
316.3
 40
6.0
 50
131.983045121
 51
318.016954879
  0
LINE
  8
0
  6
LTYPE3
 62
     2
 10
1092.047829671
 20
309.865328291
 11
1132.706469589
 21
350.523968209
  0
LINE
  8
0
  6
CONTINUOUS
 62
     1
 10
1094.469037879
 20
320.760057257
 11
1122.676916731
 21
346.14342919
  0
LINE
  8
0
  6
CONTINUOUS
 62
     1
 10
1102.942558636
 20
312.2865365
 11
1128.325930569
 21
340.494415352
  0
LINE
  8
0
  6
CONTINUOUS
 62
     1
 10
1087.782501379
 20
332.0
 11
1106.959692944
 21
332.0
  0
LINE
  8
0
  6
LTYPE2
 62
     2
 10
1083.607501379
 20
283.1
 11
1113.607501379
 21
283.1
  0
LINE
  8
0
  6
LTYPE2
 62
     2
 10
1113.607501379
 20
292.6
 11
1083.607501379
 21
292.6
  0
LINE
  8
0
  6
LTYPE2
 62
     2
 10
1083.607501379
 20
292.6
 11
1083.607501379
 21
283.1
  0
LINE
  8
0
  6
CONTINUOUS
 62
     1
 10
1083.607501379
 20
253.1
 11
1113.607501379
 21
253.1
  0
LINE
  8
0
  6
CONTINUOUS
 62
     1
 10
1113.607501379
 20
262.6
 11
1083.607501379
 21
262.6
  0
LINE
  8
0
  6
CONTINUOUS
 62
     1
 10
1083.607501379
 20
262.6
 11
1083.607501379
 21
253.1
  0
TEXT
  8
0
  6
CONTINUOUS
 62
     2
 10
1082.382501379
 20
295.9
 30
0.0
 40
10.0
  1
４
 50
0.0
 41
0.85
 51
0.0
  7
KANJI76
  0
POLYLINE
  8
0
  6
CONTINUOUS
 62
     2
 66
     1
 70
     1
  0
VERTEX
  8
0
  6
CONTINUOUS
 62
     2
 10
1093.382501379
 20
295.15
 42
0.021820078
  0
VERTEX
  8
0
  6
CONTINUOUS
 62
     2
 10
1093.37393945
 20
295.346100421
 42
0.021820078
  0
VERTEX
  8
0
  6
CONTINUOUS
 62
     2
 10
1093.348318824
 20
295.5407084
 42
0.021820078
  0
VERTEX
  8
0
  6
CONTINUOUS
 62
     2
 10
1093.305834489
 20
295.732342851
 42
0.021820078
  0
VERTEX
  8
0
  6
CONTINUOUS
 62
     2
 10
1093.246809776
 20
295.919545322
 42
0.021820078
  0
VERTEX
  8
0
  6
CONTINUOUS
 62
     2
 10
1093.1716939
 20
296.100891089
 42
0.021820078
  0
VERTEX
  8
0
  6
CONTINUOUS
 62
     2
 10
1093.081058538
 20
296.275
 42
0.021820078
  0
VERTEX
  8
0
  6
CONTINUOUS
 62
     2
 10
1092.975593479
 20
296.440546982
 42
0.021820078
  0
VERTEX
  8
0
  6
CONTINUOUS
 62
     2
 10
1092.856101376
 20
296.596272122
 42
0.021820078
  0
VERTEX
  8
0
  6
CONTINUOUS
 62
     2
 10
1092.723491637
 20
296.740990258
 42
0.021820078
  0
VERTEX
  8
0
  6
CONTINUOUS
 62
     2
 10
1092.578773501
 20
296.873599997
 42
0.021820078
  0
VERTEX
  8
0
  6
CONTINUOUS
 62
     2
 10
1092.423048361
 20
296.9930921
 42
0.021820078
  0
VERTEX
  8
0
  6
CONTINUOUS
 62
     2
 10
1092.257501379
 20
297.098557159
 42
0.021820078
  0
VERTEX
  8
0
  6
CONTINUOUS
 62
     2
 10
1092.083392468
 20
297.189192521
 42
0.021820078
  0
VERTEX
  8
0
  6
CONTINUOUS
 62
     2
 10
1091.902046702
 20
297.264308397
 42
0.021820078
  0
VERTEX
  8
0
  6
CONTINUOUS
 62
     2
 10
1091.714844231
 20
297.323333109
 42
0.021820078
  0
VERTEX
  8
0
  6
CONTINUOUS
 62
     2
 10
1091.523209779
 20
297.365817444
 42
0.021820078
  0
VERTEX
  8
0
  6
CONTINUOUS
 62
     2
 10
1091.328601801
 20
297.391438071
 42
0.021820078
  0
VERTEX
  8
0
  6
CONTINUOUS
 62
     2
 10
1091.132501379
 20
297.4
 42
0.021820078
  0
VERTEX
  8
0
  6
CONTINUOUS
 62
     2
 10
1090.936400958
 20
297.391438071
 42
0.021820078
  0
VERTEX
  8
0
  6
CONTINUOUS
 62
     2
 10
1090.74179298
 20
297.365817444
 42
0.021820078
  0
VERTEX
  8
0
  6
CONTINUOUS
 62
     2
 10
1090.550158528
 20
297.323333109
 42
0.021820078
  0
VERTEX
  8
0
  6
CONTINUOUS
 62
     2
 10
1090.362956057
 20
297.264308397
 42
0.021820078
  0
VERTEX
  8
0
  6
CONTINUOUS
 62
     2
 10
1090.18161029
 20
297.189192521
 42
0.021820078
  0
VERTEX
  8
0
  6
CONTINUOUS
 62
     2
 10
1090.007501379
 20
297.098557159
 42
0.021820078
  0
VERTEX
  8
0
  6
CONTINUOUS
 62
     2
 10
1089.841954398
 20
296.9930921
 42
0.021820078
  0
VERTEX
  8
0
  6
CONTINUOUS
 62
     2
 10
1089.686229258
 20
296.873599997
 42
0.021820078
  0
VERTEX
  8
0
  6
CONTINUOUS
 62
     2
 10
1089.541511122
 20
296.740990258
 42
0.021820078
  0
VERTEX
  8
0
  6
CONTINUOUS
 62
     2
 10
1089.408901382
 20
296.596272122
 42
0.021820078
  0
VERTEX
  8
0
  6
CONTINUOUS
 62
     2
 10
1089.28940928
 20
296.440546982
 42
0.021820078
  0
VERTEX
  8
0
  6
CONTINUOUS
 62
     2
 10
1089.183944221
 20
296.275
 42
0.021820078
  0
VERTEX
  8
0
  6
CONTINUOUS
 62
     2
 10
1089.093308859
 20
296.100891089
 42
0.021820078
  0
VERTEX
  8
0
  6
CONTINUOUS
 62
     2
 10
1089.018192983
 20
295.919545322
 42
0.021820078
  0
VERTEX
  8
0
  6
CONTINUOUS
 62
     2
 10
1088.95916827
 20
295.732342851
 42
0.021820078
  0
VERTEX
  8
0
  6
CONTINUOUS
 62
     2
 10
1088.916683935
 20
295.5407084
 42
0.021820078
  0
VERTEX
  8
0
  6
CONTINUOUS
 62
     2
 10
1088.891063309
 20
295.346100421
 42
0.021820078
  0
VERTEX
  8
0
  6
CONTINUOUS
 62
     2
 10
1088.882501379
 20
295.15
 42
0.021820078
  0
VERTEX
  8
0
  6
CONTINUOUS
 62
     2
 10
1088.891063309
 20
294.953899579
 42
0.021820078
  0
VERTEX
  8
0
  6
CONTINUOUS
 62
     2
 10
1088.916683935
 20
294.7592916
 42
0.021820078
  0
VERTEX
  8
0
  6
CONTINUOUS
 62
     2
 10
1088.95916827
 20
294.567657149
 42
0.021820078
  0
VERTEX
  8
0
  6
CONTINUOUS
 62
     2
 10
1089.018192983
 20
294.380454678
 42
0.021820078
  0
VERTEX
  8
0
  6
CONTINUOUS
 62
     2
 10
1089.093308859
 20
294.199108911
 42
0.021820078
  0
VERTEX
  8
0
  6
CONTINUOUS
 62
     2
 10
1089.183944221
 20
294.025
 42
0.021820078
  0
VERTEX
  8
0
  6
CONTINUOUS
 62
     2
 10
1089.28940928
 20
293.859453018
 42
0.021820078
  0
VERTEX
  8
0
  6
CONTINUOUS
 62
     2
 10
1089.408901382
 20
293.703727878
 42
0.021820078
  0
VERTEX
  8
0
  6
CONTINUOUS
 62
     2
 10
1089.541511122
 20
293.559009742
 42
0.021820078
  0
VERTEX
  8
0
  6
CONTINUOUS
 62
     2
 10
1089.686229258
 20
293.426400003
 42
0.021820078
  0
VERTEX
  8
0
  6
CONTINUOUS
 62
     2
 10
1089.841954398
 20
293.3069079
 42
0.021820078
  0
VERTEX
  8
0
  6
CONTINUOUS
 62
     2
 10
1090.007501379
 20
293.201442841
 42
0.021820078
  0
VERTEX
  8
0
  6
CONTINUOUS
 62
     2
 10
1090.18161029
 20
293.110807479
 42
0.021820078
  0
VERTEX
  8
0
  6
CONTINUOUS
 62
     2
 10
1090.362956057
 20
293.035691603
 42
0.021820078
  0
VERTEX
  8
0
  6
CONTINUOUS
 62
     2
 10
1090.550158528
 20
292.976666891
 42
0.021820078
  0
VERTEX
  8
0
  6
CONTINUOUS
 62
     2
 10
1090.74179298
 20
292.934182556
 42
0.021820078
  0
VERTEX
  8
0
  6
CONTINUOUS
 62
     2
 10
1090.936400958
 20
292.908561929
 42
0.021820078
  0
VERTEX
  8
0
  6
CONTINUOUS
 62
     2
 10
1091.132501379
 20
292.9
 42
0.021820078
  0
VERTEX
  8
0
  6
CONTINUOUS
 62
     2
 10
1091.328601801
 20
292.908561929
 42
0.021820078
  0
VERTEX
  8
0
  6
CONTINUOUS
 62
     2
 10
1091.523209779
 20
292.934182556
 42
0.021820078
  0
VERTEX
  8
0
  6
CONTINUOUS
 62
     2
 10
1091.714844231
 20
292.976666891
 42
0.021820078
  0
VERTEX
  8
0
  6
CONTINUOUS
 62
     2
 10
1091.902046702
 20
293.035691603
 42
0.021820078
  0
VERTEX
  8
0
  6
CONTINUOUS
 62
     2
 10
1092.083392468
 20
293.110807479
 42
0.021820078
  0
VERTEX
  8
0
  6
CONTINUOUS
 62
     2
 10
1092.257501379
 20
293.201442841
 42
0.021820078
  0
VERTEX
  8
0
  6
CONTINUOUS
 62
     2
 10
1092.423048361
 20
293.3069079
 42
0.021820078
  0
VERTEX
  8
0
  6
CONTINUOUS
 62
     2
 10
1092.578773501
 20
293.426400003
 42
0.021820078
  0
VERTEX
  8
0
  6
CONTINUOUS
 62
     2
 10
1092.723491637
 20
293.559009742
 42
0.021820078
  0
VERTEX
  8
0
  6
CONTINUOUS
 62
     2
 10
1092.856101376
 20
293.703727878
 42
0.021820078
  0
VERTEX
  8
0
  6
CONTINUOUS
 62
     2
 10
1092.975593479
 20
293.859453018
 42
0.021820078
  0
VERTEX
  8
0
  6
CONTINUOUS
 62
     2
 10
1093.081058538
 20
294.025
 42
0.021820078
  0
VERTEX
  8
0
  6
CONTINUOUS
 62
     2
 10
1093.1716939
 20
294.199108911
 42
0.021820078
  0
VERTEX
  8
0
  6
CONTINUOUS
 62
     2
 10
1093.246809776
 20
294.380454678
 42
0.021820078
  0
VERTEX
  8
0
  6
CONTINUOUS
 62
     2
 10
1093.305834489
 20
294.567657149
 42
0.021820078
  0
VERTEX
  8
0
  6
CONTINUOUS
 62
     2
 10
1093.348318824
 20
294.7592916
 42
0.021820078
  0
VERTEX
  8
0
  6
CONTINUOUS
 62
     2
 10
1093.37393945
 20
294.953899579
 42
0.021820078
  0
SEQEND
  8
0
  6
CONTINUOUS
 62
     2
  0
POLYLINE
  8
0
  6
CONTINUOUS
 62
     2
 66
     1
 70
     1
  0
VERTEX
  8
0
  6
CONTINUOUS
 62
     2
 10
1108.382501379
 20
295.15
 42
0.021820078
  0
VERTEX
  8
0
  6
CONTINUOUS
 62
     2
 10
1108.37393945
 20
295.346100421
 42
0.021820078
  0
VERTEX
  8
0
  6
CONTINUOUS
 62
     2
 10
1108.348318824
 20
295.5407084
 42
0.021820078
  0
VERTEX
  8
0
  6
CONTINUOUS
 62
     2
 10
1108.305834489
 20
295.732342851
 42
0.021820078
  0
VERTEX
  8
0
  6
CONTINUOUS
 62
     2
 10
1108.246809776
 20
295.919545322
 42
0.021820078
  0
VERTEX
  8
0
  6
CONTINUOUS
 62
     2
 10
1108.1716939
 20
296.100891089
 42
0.021820078
  0
VERTEX
  8
0
  6
CONTINUOUS
 62
     2
 10
1108.081058538
 20
296.275
 42
0.021820078
  0
VERTEX
  8
0
  6
CONTINUOUS
 62
     2
 10
1107.975593479
 20
296.440546982
 42
0.021820078
  0
VERTEX
  8
0
  6
CONTINUOUS
 62
     2
 10
1107.856101376
 20
296.596272122
 42
0.021820078
  0
VERTEX
  8
0
  6
CONTINUOUS
 62
     2
 10
1107.723491637
 20
296.740990258
 42
0.021820078
  0
VERTEX
  8
0
  6
CONTINUOUS
 62
     2
 10
1107.578773501
 20
296.873599997
 42
0.021820078
  0
VERTEX
  8
0
  6
CONTINUOUS
 62
     2
 10
1107.423048361
 20
296.9930921
 42
0.021820078
  0
VERTEX
  8
0
  6
CONTINUOUS
 62
     2
 10
1107.257501379
 20
297.098557159
 42
0.021820078
  0
VERTEX
  8
0
  6
CONTINUOUS
 62
     2
 10
1107.083392468
 20
297.189192521
 42
0.021820078
  0
VERTEX
  8
0
  6
CONTINUOUS
 62
     2
 10
1106.902046702
 20
297.264308397
 42
0.021820078
  0
VERTEX
  8
0
  6
CONTINUOUS
 62
     2
 10
1106.714844231
 20
297.323333109
 42
0.021820078
  0
VERTEX
  8
0
  6
CONTINUOUS
 62
     2
 10
1106.523209779
 20
297.365817444
 42
0.021820078
  0
VERTEX
  8
0
  6
CONTINUOUS
 62
     2
 10
1106.328601801
 20
297.391438071
 42
0.021820078
  0
VERTEX
  8
0
  6
CONTINUOUS
 62
     2
 10
1106.132501379
 20
297.4
 42
0.021820078
  0
VERTEX
  8
0
  6
CONTINUOUS
 62
     2
 10
1105.936400958
 20
297.391438071
 42
0.021820078
  0
VERTEX
  8
0
  6
CONTINUOUS
 62
     2
 10
1105.74179298
 20
297.365817444
 42
0.021820078
  0
VERTEX
  8
0
  6
CONTINUOUS
 62
     2
 10
1105.550158528
 20
297.323333109
 42
0.021820078
  0
VERTEX
  8
0
  6
CONTINUOUS
 62
     2
 10
1105.362956057
 20
297.264308397
 42
0.021820078
  0
VERTEX
  8
0
  6
CONTINUOUS
 62
     2
 10
1105.18161029
 20
297.189192521
 42
0.021820078
  0
VERTEX
  8
0
  6
CONTINUOUS
 62
     2
 10
1105.007501379
 20
297.098557159
 42
0.021820078
  0
VERTEX
  8
0
  6
CONTINUOUS
 62
     2
 10
1104.841954398
 20
296.9930921
 42
0.021820078
  0
VERTEX
  8
0
  6
CONTINUOUS
 62
     2
 10
1104.686229258
 20
296.873599997
 42
0.021820078
  0
VERTEX
  8
0
  6
CONTINUOUS
 62
     2
 10
1104.541511122
 20
296.740990258
 42
0.021820078
  0
VERTEX
  8
0
  6
CONTINUOUS
 62
     2
 10
1104.408901382
 20
296.596272122
 42
0.021820078
  0
VERTEX
  8
0
  6
CONTINUOUS
 62
     2
 10
1104.28940928
 20
296.440546982
 42
0.021820078
  0
VERTEX
  8
0
  6
CONTINUOUS
 62
     2
 10
1104.183944221
 20
296.275
 42
0.021820078
  0
VERTEX
  8
0
  6
CONTINUOUS
 62
     2
 10
1104.093308859
 20
296.100891089
 42
0.021820078
  0
VERTEX
  8
0
  6
CONTINUOUS
 62
     2
 10
1104.018192983
 20
295.919545322
 42
0.021820078
  0
VERTEX
  8
0
  6
CONTINUOUS
 62
     2
 10
1103.95916827
 20
295.732342851
 42
0.021820078
  0
VERTEX
  8
0
  6
CONTINUOUS
 62
     2
 10
1103.916683935
 20
295.5407084
 42
0.021820078
  0
VERTEX
  8
0
  6
CONTINUOUS
 62
     2
 10
1103.891063309
 20
295.346100421
 42
0.021820078
  0
VERTEX
  8
0
  6
CONTINUOUS
 62
     2
 10
1103.882501379
 20
295.15
 42
0.021820078
  0
VERTEX
  8
0
  6
CONTINUOUS
 62
     2
 10
1103.891063309
 20
294.953899579
 42
0.021820078
  0
VERTEX
  8
0
  6
CONTINUOUS
 62
     2
 10
1103.916683935
 20
294.7592916
 42
0.021820078
  0
VERTEX
  8
0
  6
CONTINUOUS
 62
     2
 10
1103.95916827
 20
294.567657149
 42
0.021820078
  0
VERTEX
  8
0
  6
CONTINUOUS
 62
     2
 10
1104.018192983
 20
294.380454678
 42
0.021820078
  0
VERTEX
  8
0
  6
CONTINUOUS
 62
     2
 10
1104.093308859
 20
294.199108911
 42
0.021820078
  0
VERTEX
  8
0
  6
CONTINUOUS
 62
     2
 10
1104.183944221
 20
294.025
 42
0.021820078
  0
VERTEX
  8
0
  6
CONTINUOUS
 62
     2
 10
1104.28940928
 20
293.859453018
 42
0.021820078
  0
VERTEX
  8
0
  6
CONTINUOUS
 62
     2
 10
1104.408901382
 20
293.703727878
 42
0.021820078
  0
VERTEX
  8
0
  6
CONTINUOUS
 62
     2
 10
1104.541511122
 20
293.559009742
 42
0.021820078
  0
VERTEX
  8
0
  6
CONTINUOUS
 62
     2
 10
1104.686229258
 20
293.426400003
 42
0.021820078
  0
VERTEX
  8
0
  6
CONTINUOUS
 62
     2
 10
1104.841954398
 20
293.3069079
 42
0.021820078
  0
VERTEX
  8
0
  6
CONTINUOUS
 62
     2
 10
1105.007501379
 20
293.201442841
 42
0.021820078
  0
VERTEX
  8
0
  6
CONTINUOUS
 62
     2
 10
1105.18161029
 20
293.110807479
 42
0.021820078
  0
VERTEX
  8
0
  6
CONTINUOUS
 62
     2
 10
1105.362956057
 20
293.035691603
 42
0.021820078
  0
VERTEX
  8
0
  6
CONTINUOUS
 62
     2
 10
1105.550158528
 20
292.976666891
 42
0.021820078
  0
VERTEX
  8
0
  6
CONTINUOUS
 62
     2
 10
1105.74179298
 20
292.934182556
 42
0.021820078
  0
VERTEX
  8
0
  6
CONTINUOUS
 62
     2
 10
1105.936400958
 20
292.908561929
 42
0.021820078
  0
VERTEX
  8
0
  6
CONTINUOUS
 62
     2
 10
1106.132501379
 20
292.9
 42
0.021820078
  0
VERTEX
  8
0
  6
CONTINUOUS
 62
     2
 10
1106.328601801
 20
292.908561929
 42
0.021820078
  0
VERTEX
  8
0
  6
CONTINUOUS
 62
     2
 10
1106.523209779
 20
292.934182556
 42
0.021820078
  0
VERTEX
  8
0
  6
CONTINUOUS
 62
     2
 10
1106.714844231
 20
292.976666891
 42
0.021820078
  0
VERTEX
  8
0
  6
CONTINUOUS
 62
     2
 10
1106.902046702
 20
293.035691603
 42
0.021820078
  0
VERTEX
  8
0
  6
CONTINUOUS
 62
     2
 10
1107.083392468
 20
293.110807479
 42
0.021820078
  0
VERTEX
  8
0
  6
CONTINUOUS
 62
     2
 10
1107.257501379
 20
293.201442841
 42
0.021820078
  0
VERTEX
  8
0
  6
CONTINUOUS
 62
     2
 10
1107.423048361
 20
293.3069079
 42
0.021820078
  0
VERTEX
  8
0
  6
CONTINUOUS
 62
     2
 10
1107.578773501
 20
293.426400003
 42
0.021820078
  0
VERTEX
  8
0
  6
CONTINUOUS
 62
     2
 10
1107.723491637
 20
293.559009742
 42
0.021820078
  0
VERTEX
  8
0
  6
CONTINUOUS
 62
     2
 10
1107.856101376
 20
293.703727878
 42
0.021820078
  0
VERTEX
  8
0
  6
CONTINUOUS
 62
     2
 10
1107.975593479
 20
293.859453018
 42
0.021820078
  0
VERTEX
  8
0
  6
CONTINUOUS
 62
     2
 10
1108.081058538
 20
294.025
 42
0.021820078
  0
VERTEX
  8
0
  6
CONTINUOUS
 62
     2
 10
1108.1716939
 20
294.199108911
 42
0.021820078
  0
VERTEX
  8
0
  6
CONTINUOUS
 62
     2
 10
1108.246809776
 20
294.380454678
 42
0.021820078
  0
VERTEX
  8
0
  6
CONTINUOUS
 62
     2
 10
1108.305834489
 20
294.567657149
 42
0.021820078
  0
VERTEX
  8
0
  6
CONTINUOUS
 62
     2
 10
1108.348318824
 20
294.7592916
 42
0.021820078
  0
VERTEX
  8
0
  6
CONTINUOUS
 62
     2
 10
1108.37393945
 20
294.953899579
 42
0.021820078
  0
SEQEND
  8
0
  6
CONTINUOUS
 62
     2
  0
POLYLINE
  8
0
  6
CONTINUOUS
 62
     2
 66
     1
 70
     1
  0
VERTEX
  8
0
  6
CONTINUOUS
 62
     2
 10
1093.382501379
 20
250.8
 42
-0.021820078
  0
VERTEX
  8
0
  6
CONTINUOUS
 62
     2
 10
1093.37393945
 20
250.603899579
 42
-0.021820078
  0
VERTEX
  8
0
  6
CONTINUOUS
 62
     2
 10
1093.348318824
 20
250.4092916
 42
-0.021820078
  0
VERTEX
  8
0
  6
CONTINUOUS
 62
     2
 10
1093.305834489
 20
250.217657149
 42
-0.021820078
  0
VERTEX
  8
0
  6
CONTINUOUS
 62
     2
 10
1093.246809776
 20
250.030454678
 42
-0.021820078
  0
VERTEX
  8
0
  6
CONTINUOUS
 62
     2
 10
1093.1716939
 20
249.849108911
 42
-0.021820078
  0
VERTEX
  8
0
  6
CONTINUOUS
 62
     2
 10
1093.081058538
 20
249.675
 42
-0.021820078
  0
VERTEX
  8
0
  6
CONTINUOUS
 62
     2
 10
1092.975593479
 20
249.509453018
 42
-0.021820078
  0
VERTEX
  8
0
  6
CONTINUOUS
 62
     2
 10
1092.856101376
 20
249.353727878
 42
-0.021820078
  0
VERTEX
  8
0
  6
CONTINUOUS
 62
     2
 10
1092.723491637
 20
249.209009742
 42
-0.021820078
  0
VERTEX
  8
0
  6
CONTINUOUS
 62
     2
 10
1092.578773501
 20
249.076400003
 42
-0.021820078
  0
VERTEX
  8
0
  6
CONTINUOUS
 62
     2
 10
1092.423048361
 20
248.9569079
 42
-0.021820078
  0
VERTEX
  8
0
  6
CONTINUOUS
 62
     2
 10
1092.257501379
 20
248.851442841
 42
-0.021820078
  0
VERTEX
  8
0
  6
CONTINUOUS
 62
     2
 10
1092.083392468
 20
248.760807479
 42
-0.021820078
  0
VERTEX
  8
0
  6
CONTINUOUS
 62
     2
 10
1091.902046702
 20
248.685691603
 42
-0.021820078
  0
VERTEX
  8
0
  6
CONTINUOUS
 62
     2
 10
1091.714844231
 20
248.626666891
 42
-0.021820078
  0
VERTEX
  8
0
  6
CONTINUOUS
 62
     2
 10
1091.523209779
 20
248.584182556
 42
-0.021820078
  0
VERTEX
  8
0
  6
CONTINUOUS
 62
     2
 10
1091.328601801
 20
248.558561929
 42
-0.021820078
  0
VERTEX
  8
0
  6
CONTINUOUS
 62
     2
 10
1091.132501379
 20
248.55
 42
-0.021820078
  0
VERTEX
  8
0
  6
CONTINUOUS
 62
     2
 10
1090.936400958
 20
248.558561929
 42
-0.021820078
  0
VERTEX
  8
0
  6
CONTINUOUS
 62
     2
 10
1090.74179298
 20
248.584182556
 42
-0.021820078
  0
VERTEX
  8
0
  6
CONTINUOUS
 62
     2
 10
1090.550158528
 20
248.626666891
 42
-0.021820078
  0
VERTEX
  8
0
  6
CONTINUOUS
 62
     2
 10
1090.362956057
 20
248.685691603
 42
-0.021820078
  0
VERTEX
  8
0
  6
CONTINUOUS
 62
     2
 10
1090.18161029
 20
248.760807479
 42
-0.021820078
  0
VERTEX
  8
0
  6
CONTINUOUS
 62
     2
 10
1090.007501379
 20
248.851442841
 42
-0.021820078
  0
VERTEX
  8
0
  6
CONTINUOUS
 62
     2
 10
1089.841954398
 20
248.9569079
 42
-0.021820078
  0
VERTEX
  8
0
  6
CONTINUOUS
 62
     2
 10
1089.686229258
 20
249.076400003
 42
-0.021820078
  0
VERTEX
  8
0
  6
CONTINUOUS
 62
     2
 10
1089.541511122
 20
249.209009742
 42
-0.021820078
  0
VERTEX
  8
0
  6
CONTINUOUS
 62
     2
 10
1089.408901382
 20
249.353727878
 42
-0.021820078
  0
VERTEX
  8
0
  6
CONTINUOUS
 62
     2
 10
1089.28940928
 20
249.509453018
 42
-0.021820078
  0
VERTEX
  8
0
  6
CONTINUOUS
 62
     2
 10
1089.183944221
 20
249.675
 42
-0.021820078
  0
VERTEX
  8
0
  6
CONTINUOUS
 62
     2
 10
1089.093308859
 20
249.849108911
 42
-0.021820078
  0
VERTEX
  8
0
  6
CONTINUOUS
 62
     2
 10
1089.018192983
 20
250.030454678
 42
-0.021820078
  0
VERTEX
  8
0
  6
CONTINUOUS
 62
     2
 10
1088.95916827
 20
250.217657149
 42
-0.021820078
  0
VERTEX
  8
0
  6
CONTINUOUS
 62
     2
 10
1088.916683935
 20
250.4092916
 42
-0.021820078
  0
VERTEX
  8
0
  6
CONTINUOUS
 62
     2
 10
1088.891063309
 20
250.603899579
 42
-0.021820078
  0
VERTEX
  8
0
  6
CONTINUOUS
 62
     2
 10
1088.882501379
 20
250.8
 42
-0.021820078
  0
VERTEX
  8
0
  6
CONTINUOUS
 62
     2
 10
1088.891063309
 20
250.996100421
 42
-0.021820078
  0
VERTEX
  8
0
  6
CONTINUOUS
 62
     2
 10
1088.916683935
 20
251.1907084
 42
-0.021820078
  0
VERTEX
  8
0
  6
CONTINUOUS
 62
     2
 10
1088.95916827
 20
251.382342851
 42
-0.021820078
  0
VERTEX
  8
0
  6
CONTINUOUS
 62
     2
 10
1089.018192983
 20
251.569545322
 42
-0.021820078
  0
VERTEX
  8
0
  6
CONTINUOUS
 62
     2
 10
1089.093308859
 20
251.750891089
 42
-0.021820078
  0
VERTEX
  8
0
  6
CONTINUOUS
 62
     2
 10
1089.183944221
 20
251.925
 42
-0.021820078
  0
VERTEX
  8
0
  6
CONTINUOUS
 62
     2
 10
1089.28940928
 20
252.090546982
 42
-0.021820078
  0
VERTEX
  8
0
  6
CONTINUOUS
 62
     2
 10
1089.408901382
 20
252.246272122
 42
-0.021820078
  0
VERTEX
  8
0
  6
CONTINUOUS
 62
     2
 10
1089.541511122
 20
252.390990258
 42
-0.021820078
  0
VERTEX
  8
0
  6
CONTINUOUS
 62
     2
 10
1089.686229258
 20
252.523599997
 42
-0.021820078
  0
VERTEX
  8
0
  6
CONTINUOUS
 62
     2
 10
1089.841954398
 20
252.6430921
 42
-0.021820078
  0
VERTEX
  8
0
  6
CONTINUOUS
 62
     2
 10
1090.007501379
 20
252.748557159
 42
-0.021820078
  0
VERTEX
  8
0
  6
CONTINUOUS
 62
     2
 10
1090.18161029
 20
252.839192521
 42
-0.021820078
  0
VERTEX
  8
0
  6
CONTINUOUS
 62
     2
 10
1090.362956057
 20
252.914308397
 42
-0.021820078
  0
VERTEX
  8
0
  6
CONTINUOUS
 62
     2
 10
1090.550158528
 20
252.973333109
 42
-0.021820078
  0
VERTEX
  8
0
  6
CONTINUOUS
 62
     2
 10
1090.74179298
 20
253.015817444
 42
-0.021820078
  0
VERTEX
  8
0
  6
CONTINUOUS
 62
     2
 10
1090.936400958
 20
253.041438071
 42
-0.021820078
  0
VERTEX
  8
0
  6
CONTINUOUS
 62
     2
 10
1091.132501379
 20
253.05
 42
-0.021820078
  0
VERTEX
  8
0
  6
CONTINUOUS
 62
     2
 10
1091.328601801
 20
253.041438071
 42
-0.021820078
  0
VERTEX
  8
0
  6
CONTINUOUS
 62
     2
 10
1091.523209779
 20
253.015817444
 42
-0.021820078
  0
VERTEX
  8
0
  6
CONTINUOUS
 62
     2
 10
1091.714844231
 20
252.973333109
 42
-0.021820078
  0
VERTEX
  8
0
  6
CONTINUOUS
 62
     2
 10
1091.902046702
 20
252.914308397
 42
-0.021820078
  0
VERTEX
  8
0
  6
CONTINUOUS
 62
     2
 10
1092.083392468
 20
252.839192521
 42
-0.021820078
  0
VERTEX
  8
0
  6
CONTINUOUS
 62
     2
 10
1092.257501379
 20
252.748557159
 42
-0.021820078
  0
VERTEX
  8
0
  6
CONTINUOUS
 62
     2
 10
1092.423048361
 20
252.6430921
 42
-0.021820078
  0
VERTEX
  8
0
  6
CONTINUOUS
 62
     2
 10
1092.578773501
 20
252.523599997
 42
-0.021820078
  0
VERTEX
  8
0
  6
CONTINUOUS
 62
     2
 10
1092.723491637
 20
252.390990258
 42
-0.021820078
  0
VERTEX
  8
0
  6
CONTINUOUS
 62
     2
 10
1092.856101376
 20
252.246272122
 42
-0.021820078
  0
VERTEX
  8
0
  6
CONTINUOUS
 62
     2
 10
1092.975593479
 20
252.090546982
 42
-0.021820078
  0
VERTEX
  8
0
  6
CONTINUOUS
 62
     2
 10
1093.081058538
 20
251.925
 42
-0.021820078
  0
VERTEX
  8
0
  6
CONTINUOUS
 62
     2
 10
1093.1716939
 20
251.750891089
 42
-0.021820078
  0
VERTEX
  8
0
  6
CONTINUOUS
 62
     2
 10
1093.246809776
 20
251.569545322
 42
-0.021820078
  0
VERTEX
  8
0
  6
CONTINUOUS
 62
     2
 10
1093.305834489
 20
251.382342851
 42
-0.021820078
  0
VERTEX
  8
0
  6
CONTINUOUS
 62
     2
 10
1093.348318824
 20
251.1907084
 42
-0.021820078
  0
VERTEX
  8
0
  6
CONTINUOUS
 62
     2
 10
1093.37393945
 20
250.996100421
 42
-0.021820078
  0
SEQEND
  8
0
  6
CONTINUOUS
 62
     2
  0
POLYLINE
  8
0
  6
CONTINUOUS
 62
     2
 66
     1
 70
     1
  0
VERTEX
  8
0
  6
CONTINUOUS
 62
     2
 10
1108.382501379
 20
250.8
 42
-0.021820078
  0
VERTEX
  8
0
  6
CONTINUOUS
 62
     2
 10
1108.37393945
 20
250.603899579
 42
-0.021820078
  0
VERTEX
  8
0
  6
CONTINUOUS
 62
     2
 10
1108.348318824
 20
250.4092916
 42
-0.021820078
  0
VERTEX
  8
0
  6
CONTINUOUS
 62
     2
 10
1108.305834489
 20
250.217657149
 42
-0.021820078
  0
VERTEX
  8
0
  6
CONTINUOUS
 62
     2
 10
1108.246809776
 20
250.030454678
 42
-0.021820078
  0
VERTEX
  8
0
  6
CONTINUOUS
 62
     2
 10
1108.1716939
 20
249.849108911
 42
-0.021820078
  0
VERTEX
  8
0
  6
CONTINUOUS
 62
     2
 10
1108.081058538
 20
249.675
 42
-0.021820078
  0
VERTEX
  8
0
  6
CONTINUOUS
 62
     2
 10
1107.975593479
 20
249.509453018
 42
-0.021820078
  0
VERTEX
  8
0
  6
CONTINUOUS
 62
     2
 10
1107.856101376
 20
249.353727878
 42
-0.021820078
  0
VERTEX
  8
0
  6
CONTINUOUS
 62
     2
 10
1107.723491637
 20
249.209009742
 42
-0.021820078
  0
VERTEX
  8
0
  6
CONTINUOUS
 62
     2
 10
1107.578773501
 20
249.076400003
 42
-0.021820078
  0
VERTEX
  8
0
  6
CONTINUOUS
 62
     2
 10
1107.423048361
 20
248.9569079
 42
-0.021820078
  0
VERTEX
  8
0
  6
CONTINUOUS
 62
     2
 10
1107.257501379
 20
248.851442841
 42
-0.021820078
  0
VERTEX
  8
0
  6
CONTINUOUS
 62
     2
 10
1107.083392468
 20
248.760807479
 42
-0.021820078
  0
VERTEX
  8
0
  6
CONTINUOUS
 62
     2
 10
1106.902046702
 20
248.685691603
 42
-0.021820078
  0
VERTEX
  8
0
  6
CONTINUOUS
 62
     2
 10
1106.714844231
 20
248.626666891
 42
-0.021820078
  0
VERTEX
  8
0
  6
CONTINUOUS
 62
     2
 10
1106.523209779
 20
248.584182556
 42
-0.021820078
  0
VERTEX
  8
0
  6
CONTINUOUS
 62
     2
 10
1106.328601801
 20
248.558561929
 42
-0.021820078
  0
VERTEX
  8
0
  6
CONTINUOUS
 62
     2
 10
1106.132501379
 20
248.55
 42
-0.021820078
  0
VERTEX
  8
0
  6
CONTINUOUS
 62
     2
 10
1105.936400958
 20
248.558561929
 42
-0.021820078
  0
VERTEX
  8
0
  6
CONTINUOUS
 62
     2
 10
1105.74179298
 20
248.584182556
 42
-0.021820078
  0
VERTEX
  8
0
  6
CONTINUOUS
 62
     2
 10
1105.550158528
 20
248.626666891
 42
-0.021820078
  0
VERTEX
  8
0
  6
CONTINUOUS
 62
     2
 10
1105.362956057
 20
248.685691603
 42
-0.021820078
  0
VERTEX
  8
0
  6
CONTINUOUS
 62
     2
 10
1105.18161029
 20
248.760807479
 42
-0.021820078
  0
VERTEX
  8
0
  6
CONTINUOUS
 62
     2
 10
1105.007501379
 20
248.851442841
 42
-0.021820078
  0
VERTEX
  8
0
  6
CONTINUOUS
 62
     2
 10
1104.841954398
 20
248.9569079
 42
-0.021820078
  0
VERTEX
  8
0
  6
CONTINUOUS
 62
     2
 10
1104.686229258
 20
249.076400003
 42
-0.021820078
  0
VERTEX
  8
0
  6
CONTINUOUS
 62
     2
 10
1104.541511122
 20
249.209009742
 42
-0.021820078
  0
VERTEX
  8
0
  6
CONTINUOUS
 62
     2
 10
1104.408901382
 20
249.353727878
 42
-0.021820078
  0
VERTEX
  8
0
  6
CONTINUOUS
 62
     2
 10
1104.28940928
 20
249.509453018
 42
-0.021820078
  0
VERTEX
  8
0
  6
CONTINUOUS
 62
     2
 10
1104.183944221
 20
249.675
 42
-0.021820078
  0
VERTEX
  8
0
  6
CONTINUOUS
 62
     2
 10
1104.093308859
 20
249.849108911
 42
-0.021820078
  0
VERTEX
  8
0
  6
CONTINUOUS
 62
     2
 10
1104.018192983
 20
250.030454678
 42
-0.021820078
  0
VERTEX
  8
0
  6
CONTINUOUS
 62
     2
 10
1103.95916827
 20
250.217657149
 42
-0.021820078
  0
VERTEX
  8
0
  6
CONTINUOUS
 62
     2
 10
1103.916683935
 20
250.4092916
 42
-0.021820078
  0
VERTEX
  8
0
  6
CONTINUOUS
 62
     2
 10
1103.891063309
 20
250.603899579
 42
-0.021820078
  0
VERTEX
  8
0
  6
CONTINUOUS
 62
     2
 10
1103.882501379
 20
250.8
 42
-0.021820078
  0
VERTEX
  8
0
  6
CONTINUOUS
 62
     2
 10
1103.891063309
 20
250.996100421
 42
-0.021820078
  0
VERTEX
  8
0
  6
CONTINUOUS
 62
     2
 10
1103.916683935
 20
251.1907084
 42
-0.021820078
  0
VERTEX
  8
0
  6
CONTINUOUS
 62
     2
 10
1103.95916827
 20
251.382342851
 42
-0.021820078
  0
VERTEX
  8
0
  6
CONTINUOUS
 62
     2
 10
1104.018192983
 20
251.569545322
 42
-0.021820078
  0
VERTEX
  8
0
  6
CONTINUOUS
 62
     2
 10
1104.093308859
 20
251.750891089
 42
-0.021820078
  0
VERTEX
  8
0
  6
CONTINUOUS
 62
     2
 10
1104.183944221
 20
251.925
 42
-0.021820078
  0
VERTEX
  8
0
  6
CONTINUOUS
 62
     2
 10
1104.28940928
 20
252.090546982
 42
-0.021820078
  0
VERTEX
  8
0
  6
CONTINUOUS
 62
     2
 10
1104.408901382
 20
252.246272122
 42
-0.021820078
  0
VERTEX
  8
0
  6
CONTINUOUS
 62
     2
 10
1104.541511122
 20
252.390990258
 42
-0.021820078
  0
VERTEX
  8
0
  6
CONTINUOUS
 62
     2
 10
1104.686229258
 20
252.523599997
 42
-0.021820078
  0
VERTEX
  8
0
  6
CONTINUOUS
 62
     2
 10
1104.841954398
 20
252.6430921
 42
-0.021820078
  0
VERTEX
  8
0
  6
CONTINUOUS
 62
     2
 10
1105.007501379
 20
252.748557159
 42
-0.021820078
  0
VERTEX
  8
0
  6
CONTINUOUS
 62
     2
 10
1105.18161029
 20
252.839192521
 42
-0.021820078
  0
VERTEX
  8
0
  6
CONTINUOUS
 62
     2
 10
1105.362956057
 20
252.914308397
 42
-0.021820078
  0
VERTEX
  8
0
  6
CONTINUOUS
 62
     2
 10
1105.550158528
 20
252.973333109
 42
-0.021820078
  0
VERTEX
  8
0
  6
CONTINUOUS
 62
     2
 10
1105.74179298
 20
253.015817444
 42
-0.021820078
  0
VERTEX
  8
0
  6
CONTINUOUS
 62
     2
 10
1105.936400958
 20
253.041438071
 42
-0.021820078
  0
VERTEX
  8
0
  6
CONTINUOUS
 62
     2
 10
1106.132501379
 20
253.05
 42
-0.021820078
  0
VERTEX
  8
0
  6
CONTINUOUS
 62
     2
 10
1106.328601801
 20
253.041438071
 42
-0.021820078
  0
VERTEX
  8
0
  6
CONTINUOUS
 62
     2
 10
1106.523209779
 20
253.015817444
 42
-0.021820078
  0
VERTEX
  8
0
  6
CONTINUOUS
 62
     2
 10
1106.714844231
 20
252.973333109
 42
-0.021820078
  0
VERTEX
  8
0
  6
CONTINUOUS
 62
     2
 10
1106.902046702
 20
252.914308397
 42
-0.021820078
  0
VERTEX
  8
0
  6
CONTINUOUS
 62
     2
 10
1107.083392468
 20
252.839192521
 42
-0.021820078
  0
VERTEX
  8
0
  6
CONTINUOUS
 62
     2
 10
1107.257501379
 20
252.748557159
 42
-0.021820078
  0
VERTEX
  8
0
  6
CONTINUOUS
 62
     2
 10
1107.423048361
 20
252.6430921
 42
-0.021820078
  0
VERTEX
  8
0
  6
CONTINUOUS
 62
     2
 10
1107.578773501
 20
252.523599997
 42
-0.021820078
  0
VERTEX
  8
0
  6
CONTINUOUS
 62
     2
 10
1107.723491637
 20
252.390990258
 42
-0.021820078
  0
VERTEX
  8
0
  6
CONTINUOUS
 62
     2
 10
1107.856101376
 20
252.246272122
 42
-0.021820078
  0
VERTEX
  8
0
  6
CONTINUOUS
 62
     2
 10
1107.975593479
 20
252.090546982
 42
-0.021820078
  0
VERTEX
  8
0
  6
CONTINUOUS
 62
     2
 10
1108.081058538
 20
251.925
 42
-0.021820078
  0
VERTEX
  8
0
  6
CONTINUOUS
 62
     2
 10
1108.1716939
 20
251.750891089
 42
-0.021820078
  0
VERTEX
  8
0
  6
CONTINUOUS
 62
     2
 10
1108.246809776
 20
251.569545322
 42
-0.021820078
  0
VERTEX
  8
0
  6
CONTINUOUS
 62
     2
 10
1108.305834489
 20
251.382342851
 42
-0.021820078
  0
VERTEX
  8
0
  6
CONTINUOUS
 62
     2
 10
1108.348318824
 20
251.1907084
 42
-0.021820078
  0
VERTEX
  8
0
  6
CONTINUOUS
 62
     2
 10
1108.37393945
 20
250.996100421
 42
-0.021820078
  0
SEQEND
  8
0
  6
CONTINUOUS
 62
     2
  0
TEXT
  8
0
  6
CONTINUOUS
 62
     2
 10
1082.382501379
 20
240.4
 30
0.0
 40
10.0
  1
１
 50
0.0
 41
0.85
 51
0.0
  7
KANJI76
  0
TEXT
  8
0
  6
CONTINUOUS
 62
     2
 10
1050.482501379
 20
295.1
 30
0.0
 40
10.0
  1
（ＮＯ）
 50
0.0
 41
0.75
 51
0.0
  7
KANJI77
  0
TEXT
  8
0
  6
CONTINUOUS
 62
     2
 10
1050.482501379
 20
237.6
 30
0.0
 40
10.0
  1
（ＮＣ）
 50
0.0
 41
0.75
 51
0.0
  7
KANJI77
  0
TEXT
  8
0
  6
CONTINUOUS
 62
     2
 10
1034.357501379
 20
208.6
 30
0.0
 40
15.0
  1
外部ＬＳリミットＳＷ
 50
0.0
 41
0.9
 51
0.0
  7
KANJI24
  0
TEXT
  8
0
  6
CONTINUOUS
 62
     2
 10
1071.607501379
 20
189.6
 30
0.0
 40
15.0
  1
端子符号
 50
0.0
 41
0.9
 51
0.0
  7
KANJI24
  0
LINE
  8
0
  6
CONTINUOUS
 62
     2
 10
1176.107501379
 20
365.85
 11
1022.857501379
 21
365.85
  0
LINE
  8
0
  6
CONTINUOUS
 62
     2
 10
1022.857501379
 20
365.85
 11
1022.857501379
 21
196.1
  0
LINE
  8
0
  6
CONTINUOUS
 62
     2
 10
1022.857501379
 20
196.1
 11
1061.857501379
 21
196.1
  0
ARC
  8
0
  6
CONTINUOUS
 62
     1
 10
1006.437032801
 20
243.1
 40
6.845203412
 50
324.242860688
 51
35.757139312
  0
ARC
  8
0
  6
CONTINUOUS
 62
     1
 10
1017.546814032
 20
243.1
 40
6.845203412
 50
144.242860688
 51
215.757139312
  0
ARC
  8
0
  6
CONTINUOUS
 62
     1
 10
1017.546814032
 20
235.1
 40
6.845203412
 50
144.242860688
 51
215.757139312
  0
LINE
  8
0
  6
CONTINUOUS
 62
     1
 10
1118.482501379
 20
304.6
 11
1118.482501379
 21
239.9
  0
ARC
  8
0
  6
CONTINUOUS
 62
     1
 10
1116.482501379
 20
239.9
 40
2.0
 50
270.0
 51
0.0
  0
ARC
  8
0
  6
CONTINUOUS
 62
     1
 10
1116.482501379
 20
304.6
 40
2.0
 50
0.0
 51
90.0
  0
LINE
  8
0
  6
LTYPE3
 62
     2
 10
1133.130733658
 20
335.391883092
 11
1116.86727769
 21
351.655339059
  0
ARC
  8
0
  6
CONTINUOUS
 62
     1
 10
1125.352559064
 20
343.170057685
 40
8.75
 50
255.219855722
 51
194.780144278
  0
ARC
  8
0
  6
CONTINUOUS
 62
     1
 10
1125.352559064
 20
343.170057685
 40
4.0
 50
311.983042101
 51
138.016952287
  0
LINE
  8
0
  6
CONTINUOUS
 62
     1
 10
1111.182501379
 20
321.44336985
 11
1111.182501379
 21
306.6
  0
LINE
  8
0
  6
LTYPE2
 62
     2
 10
1113.607501379
 20
283.1
 11
1113.607501379
 21
292.6
  0
LINE
  8
0
  6
CONTINUOUS
 62
     1
 10
1113.607501379
 20
253.1
 11
1113.607501379
 21
262.6
  0
TEXT
  8
0
  6
CONTINUOUS
 62
     2
 10
1107.382501379
 20
295.9
 30
0.0
 40
10.0
  1
３
 50
0.0
 41
0.85
 51
0.0
  7
KANJI76
  0
TEXT
  8
0
  6
CONTINUOUS
 62
     2
 10
1107.382501379
 20
240.4
 30
0.0
 40
10.0
  1
２
 50
0.0
 41
0.85
 51
0.0
  7
KANJI76
  0
TEXT
  8
0
  6
CONTINUOUS
 62
     2
 10
1116.482501379
 20
295.1
 30
0.0
 40
10.0
  1
（ＮＯ）
 50
0.0
 41
0.75
 51
0.0
  7
KANJI77
  0
TEXT
  8
0
  6
CONTINUOUS
 62
     2
 10
1116.482501379
 20
237.6
 30
0.0
 40
10.0
  1
（ＮＣ）
 50
0.0
 41
0.75
 51
0.0
  7
KANJI77
  0
LINE
  8
0
  6
CONTINUOUS
 62
     2
 10
1176.107501379
 20
196.1
 11
1176.107501379
 21
365.85
  0
LINE
  8
0
  6
CONTINUOUS
 62
     2
 10
1131.107501379
 20
196.1
 11
1176.107501379
 21
196.1
  0
LINE
  8
0
  6
CONTINUOUS
 62
     1
 10
985.832501379
 20
228.1
 11
985.832501379
 21
250.1
  0
LINE
  8
0
  6
CONTINUOUS
 62
     1
 10
985.832501379
 20
247.1
 11
1011.991923417
 21
247.1
  0
LINE
  8
0
  6
CONTINUOUS
 62
     1
 10
1011.991923417
 20
231.1
 11
985.832501379
 21
231.1
  0
LINE
  8
0
  6
CONTINUOUS
 62
     1
 10
1571.363972943
 20
741.903083615
 11
1537.71749708
 21
616.332726198
  0
LINE
  8
0
  6
CONTINUOUS
 62
     1
 10
1517.272126671
 20
756.396950141
 11
1571.363972943
 21
741.903083615
  0
LINE
  8
0
  6
CONTINUOUS
 62
     1
 10
1517.272126671
 20
756.396950141
 11
1512.736661928
 21
739.470365284
  0
LINE
  8
0
  6
CONTINUOUS
 62
     1
 10
1514.374349192
 20
757.173407276
 11
1509.838884449
 21
740.246822419
  0
LINE
  8
0
  6
CONTINUOUS
 62
     1
 10
1469.941761183
 20
769.079083351
 11
1514.374349192
 21
757.173407276
  0
LINE
  8
0
  6
CONTINUOUS
 62
     1
 10
1469.941761183
 20
769.079083351
 11
1463.471285055
 21
744.930937694
  0
LINE
  8
0
  6
CONTINUOUS
 62
     1
 10
1410.345364609
 20
759.165985175
 11
1463.471285055
 21
744.930937694
  0
LINE
  8
0
  6
CONTINUOUS
 62
     1
 10
1410.345364609
 20
759.165985175
 11
1389.639841001
 21
681.891919071
  0
LINE
  8
0
  6
CONTINUOUS
 62
     1
 10
1488.161115551
 20
647.753177581
 11
1483.625650808
 21
630.826592724
  0
LINE
  8
0
  6
CONTINUOUS
 62
     1
 10
1483.625650808
 20
630.826592724
 11
1537.71749708
 21
616.332726198
  0
LINE
  8
0
  6
CONTINUOUS
 62
     1
 10
1485.263338072
 20
648.529634716
 11
1480.727873329
 21
631.603049859
  0
LINE
  8
0
  6
CONTINUOUS
 62
     1
 10
1389.639841001
 20
681.891919071
 11
1442.765761447
 21
667.656871591
  0
LINE
  8
0
  6
CONTINUOUS
 62
     1
 10
1442.765761447
 20
667.656871591
 11
1436.29528532
 21
643.508725934
  0
LINE
  8
0
  6
CONTINUOUS
 62
     1
 10
1436.29528532
 20
643.508725934
 11
1480.727873329
 21
631.603049859
  0
LINE
  8
0
  6
CONTINUOUS
 62
     1
 10
1420.862211113
 20
800.347242314
 11
1405.951983515
 21
744.701515365
  0
LINE
  8
0
  6
CONTINUOUS
 62
     1
 10
1415.066656155
 20
801.900156585
 11
1420.862211113
 21
800.347242314
  0
LINE
  8
0
  6
CONTINUOUS
 62
     1
 10
1399.835718001
 20
745.057521547
 11
1415.066656155
 21
801.900156585
  0
LINE
  8
7
  6
CONTINUOUS
 62
     2
 10
1336.917646349
 20
737.429835768
 11
1300.117646349
 21
819.429835768
  0
LINE
  8
0
  6
LTYPE5
 62
     2
 10
1347.433594693
 20
707.901970447
 11
1360.374546948
 21
756.198261762
  0
LINE
  8
0
  6
LTYPE3
 62
     2
 10
1344.219064069
 20
756.178950395
 11
1365.083061916
 21
750.588459021
  0
LINE
  8
0
  6
CONTINUOUS
 62
     1
 10
1346.717737529
 20
751.594794802
 11
1359.472663595
 21
799.196826929
  0
LINE
  8
0
  6
CONTINUOUS
 62
     1
 10
1406.461672308
 20
744.671848183
 11
1409.051269384
 21
754.336356043
  0
LINE
  8
0
  6
LTYPE3
 62
     2
 10
1352.12233613
 20
793.401769884
 11
1408.146034055
 21
778.390265268
  0
CIRCLE
  8
0
  6
CONTINUOUS
 62
     1
 10
1387.861591703
 20
783.825465215
 40
9.36
  0
LINE
  8
0
  6
LTYPE3
 62
     2
 10
1391.226239289
 20
796.382500957
 11
1384.496944116
 21
771.268429473
  0
CIRCLE
  8
0
  6
CONTINUOUS
 62
     2
 10
1387.861591703
 20
783.825465215
 40
10.47
  0
LINE
  8
0
  6
CONTINUOUS
 62
     1
 10
1354.898077468
 20
751.214612637
 11
1357.688470298
 21
761.628500452
  0
LINE
  8
0
  6
LTYPE1
 62
     1
 10
1354.129708428
 20
748.34702034
 11
1354.898077468
 21
751.214612637
  0
LINE
  8
0
  6
CONTINUOUS
 62
     1
 10
1358.171433211
 20
761.499090929
 11
1364.932913995
 21
759.687357613
  0
LINE
  8
0
  6
CONTINUOUS
 62
     1
 10
1357.591877716
 20
761.654382356
 11
1362.014398118
 21
770.045676255
  0
LINE
  8
0
  6
CONTINUOUS
 62
     1
 10
1364.932913995
 20
759.687357613
 11
1361.638898324
 21
747.393923767
  0
LINE
  8
0
  6
CONTINUOUS
 62
     1
 10
1355.590377919
 20
784.707939534
 11
1368.147413661
 21
781.343291948
  0
LINE
  8
0
  6
CONTINUOUS
 62
     1
 10
1362.014398118
 20
770.045676255
 11
1365.249636182
 21
782.119749083
  0
LINE
  8
0
  6
CONTINUOUS
 62
     1
 10
1380.094566532
 20
806.612156945
 11
1369.741804728
 21
767.975123894
  0
LINE
  8
0
  6
CONTINUOUS
 62
     1
 10
1378.782218313
 20
801.714406712
 11
1369.741804728
 21
767.975123894
  0
LINE
  8
0
  6
CONTINUOUS
 62
     1
 10
1375.264937401
 20
807.906252171
 11
1364.912175597
 21
769.269219119
  0
LINE
  8
0
  6
LTYPE3
 62
     2
 10
1408.101569779
 20
762.769509111
 11
1362.703055943
 21
774.93400423
  0
LINE
  8
0
  6
CONTINUOUS
 62
     1
 10
1364.912175597
 20
769.269219119
 11
1403.549208648
 21
758.916457315
  0
LINE
  8
0
  6
CONTINUOUS
 62
     1
 10
1390.363707665
 20
775.390453911
 11
1402.920743407
 21
772.025806324
  0
LINE
  8
0
  6
CONTINUOUS
 62
     1
 10
1410.038267147
 20
798.588766547
 11
1399.685505343
 21
759.951733496
  0
LINE
  8
0
  6
CONTINUOUS
 62
     1
 10
1394.245993342
 20
789.879341305
 11
1406.803029084
 21
786.514693719
  0
LINE
  8
0
  6
CONTINUOUS
 62
     1
 10
1396.787727864
 20
760.728190631
 11
1400.022965928
 21
772.802263459
  0
LINE
  8
0
  6
CONTINUOUS
 62
     1
 10
1358.171433211
 20
761.499090929
 11
1354.473415442
 21
747.697900726
  0
LINE
  8
0
  6
LTYPE3
 62
     2
 10
1371.485316932
 20
803.846145139
 11
1416.883830767
 21
791.681650019
  0
LINE
  8
0
  6
CONTINUOUS
 62
     1
 10
1413.901970452
 20
797.553490367
 11
1375.264937401
 21
807.906252171
  0
LINE
  8
0
  6
CONTINUOUS
 62
     1
 10
1359.472663595
 20
799.196826929
 11
1372.029699337
 21
795.832179342
  0
LINE
  8
0
  6
CONTINUOUS
 62
     2
 10
1389.017964258
 20
794.064647586
 11
1357.949982657
 21
868.226926248
  0
LINE
  8
0
  6
CONTINUOUS
 62
     2
 10
1389.017964258
 20
794.064647586
 11
1382.898588842
 21
801.973708498
  0
LINE
  8
0
  6
CONTINUOUS
 62
     2
 10
1389.017964258
 20
794.064647586
 11
1387.672960148
 21
803.973782965
  0
TEXT
  8
7
  6
CONTINUOUS
 62
     2
 10
1311.623822488
 20
702.829880312
 30
0.0
 40
15.0
  1
約１５゜
 50
82.5
 41
0.9
 51
0.0
  7
KANJI24
  0
LINE
  8
0
  6
CONTINUOUS
 62
     2
 10
1324.704445042
 20
740.702353195
 11
1318.101913185
 21
742.471496274
  0
LINE
  8
0
  6
CONTINUOUS
 62
     2
 10
1323.897468143
 20
740.918582004
 11
1317.897468143
 21
730.526277158
  0
ARC
  8
0
  6
CONTINUOUS
 62
     2
 10
1499.0
 20
694.0
 40
181.279480361
 50
165.0
 51
180.0
  0
LINE
  8
0
  6
CONTINUOUS
 62
     2
 10
1317.720519639
 20
694.0
 11
1320.82634818
 21
705.591109915
  0
LINE
  8
0
  6
CONTINUOUS
 62
     2
 10
1317.720519639
 20
694.0
 11
1314.614691098
 21
705.591109915
  0
LINE
  8
0
  6
CONTINUOUS
 62
     1
 10
1338.322294753
 20
720.262575811
 11
1325.567368687
 21
672.660543685
  0
ARC
  8
0
  6
LTYPE1
 62
     1
 10
1354.111126057
 20
732.822856765
 40
16.0
 50
255.0
 51
129.340912304
  0
ARC
  8
0
  6
CONTINUOUS
 62
     1
 10
1354.111126057
 20
732.822856765
 40
16.0
 50
129.340912304
 51
200.659087696
  0
LINE
  8
0
  6
CONTINUOUS
 62
     1
 10
1345.596768035
 20
716.501653255
 11
1342.806375205
 21
706.08776544
  0
LINE
  8
0
  6
LTYPE3
 62
     2
 10
1336.184524248
 20
716.920751635
 11
1354.730300112
 21
711.951425969
  0
LINE
  8
0
  6
LTYPE1
 62
     2
 10
1347.818671407
 20
722.862057877
 11
1354.580152191
 21
721.050324562
  0
ARC
  8
0
  6
LTYPE1
 62
     1
 10
1354.111126057
 20
732.822856765
 40
16.0
 50
200.659087696
 51
255.0
  0
LINE
  8
0
  6
LTYPE1
 62
     1
 10
1338.637730465
 20
721.439797912
 11
1338.322294753
 21
720.262575811
  0
LINE
  8
0
  6
LTYPE1
 62
     1
 10
1346.365137075
 20
719.369245551
 11
1345.596768035
 21
716.501653255
  0
LINE
  8
0
  6
LTYPE1
 62
     1
 10
1338.637730465
 20
721.439797912
 11
1348.216494909
 21
718.873175715
  0
CIRCLE
  8
0
  6
CONTINUOUS
 62
     1
 10
1354.111126057
 20
732.822856765
 40
6.49995
  0
CIRCLE
  8
0
  6
LTYPE1
 62
     2
 10
1354.111126057
 20
732.822856765
 40
3.2
  0
CIRCLE
  8
0
  6
CONTINUOUS
 62
     1
 10
1354.111126057
 20
732.822856765
 40
4.0
  0
LINE
  8
0
  6
CONTINUOUS
 62
     1
 10
1356.048168253
 20
725.574584464
 11
1348.809462156
 21
727.514189917
  0
LINE
  8
0
  6
CONTINUOUS
 62
     1
 10
1348.809462156
 20
727.514189917
 11
1346.872419959
 21
734.762462219
  0
LINE
  8
0
  6
CONTINUOUS
 62
     1
 10
1352.630921258
 20
713.775695683
 11
1350.050818902
 21
704.146622602
  0
LINE
  8
0
  6
CONTINUOUS
 62
     1
 10
1352.17408386
 20
740.071129067
 11
1346.872419959
 21
734.762462219
  0
LINE
  8
7
  6
CONTINUOUS
 62
     2
 10
1336.917646349
 20
737.429835768
 11
1335.324070101
 21
747.302044981
  0
LINE
  8
7
  6
CONTINUOUS
 62
     2
 10
1336.917646349
 20
737.429835768
 11
1330.601464229
 21
745.182631614
  0
LINE
  8
0
  6
CONTINUOUS
 62
     1
 10
1338.318852251
 20
724.113431523
 11
1344.789328379
 21
748.26157718
  0
LINE
  8
0
  6
CONTINUOUS
 62
     1
 10
1346.987355887
 20
719.75954612
 11
1343.289338118
 21
705.958355917
  0
LINE
  8
0
  6
LTYPE1
 62
     2
 10
1347.818671407
 20
722.862057877
 11
1346.987355887
 21
719.75954612
  0
LINE
  8
0
  6
CONTINUOUS
 62
     1
 10
1344.789328379
 20
748.26157718
 11
1485.463435192
 21
740.073435005
  0
LINE
  8
0
  6
CONTINUOUS
 62
     1
 10
1338.318852251
 20
724.113431523
 11
1464.240273494
 21
660.86751725
  0
LINE
  8
0
  6
CONTINUOUS
 62
     1
 10
1342.709782622
 20
706.113647344
 11
1342.34415069
 21
696.635313457
  0
LINE
  8
0
  6
CONTINUOUS
 62
     1
 10
1343.289338118
 20
705.958355917
 11
1350.050818902
 21
704.146622602
  0
LINE
  8
0
  6
LTYPE1
 62
     1
 10
1346.402301818
 20
750.417572701
 11
1355.981066262
 21
747.850950504
  0
LINE
  8
0
  6
CONTINUOUS
 62
     2
 10
1323.897468143
 20
740.918582004
 11
1323.897468143
 21
728.918582004
  0
LINE
  8
0
  6
LTYPE5
 62
     2
 10
1324.0
 20
740.891108675
 11
1506.163497148
 21
692.080546724
  0
LINE
  8
0
  6
LTYPE1
 62
     2
 10
1354.580152191
 20
721.050324562
 11
1352.630921258
 21
713.775695683
  0
LINE
  8
0
  6
CONTINUOUS
 62
     1
 10
1356.048168253
 20
725.574584464
 11
1361.349832154
 21
730.883251312
  0
LINE
  8
0
  6
CONTINUOUS
 62
     1
 10
1359.412789958
 20
738.131523613
 11
1361.349832154
 21
730.883251312
  0
LINE
  8
0
  6
CONTINUOUS
 62
     1
 10
1359.412789958
 20
738.131523613
 11
1352.17408386
 21
740.071129067
  0
LINE
  8
0
  6
LTYPE1
 62
     2
 10
1353.642099922
 20
744.595388969
 11
1360.403580706
 21
742.783655653
  0
LINE
  8
0
  6
LTYPE1
 62
     2
 10
1362.352811639
 20
750.058284533
 11
1360.403580706
 21
742.783655653
  0
LINE
  8
0
  6
CONTINUOUS
 62
     1
 10
1372.361513714
 20
642.522395247
 11
1387.592451868
 21
699.365030286
  0
LINE
  8
0
  6
LTYPE1
 62
     2
 10
1355.176141971
 20
750.320511835
 11
1354.612671341
 21
748.217610818
  0
LINE
  8
0
  6
LTYPE1
 62
     1
 10
1358.959337559
 20
747.052925115
 11
1359.274773271
 21
748.230147215
  0
LINE
  8
0
  6
LTYPE3
 62
     2
 10
1324.031178551
 20
680.836735944
 11
1380.054876475
 21
665.825231328
  0
LINE
  8
0
  6
CONTINUOUS
 62
     1
 10
1329.449654363
 20
687.149431079
 11
1355.722836839
 21
680.109553052
  0
LINE
  8
0
  6
CONTINUOUS
 62
     1
 10
1325.567368687
 20
672.660543685
 11
1351.840551162
 21
665.620665658
  0
LINE
  8
0
  6
LTYPE3
 62
     2
 10
1378.078560547
 20
650.722113261
 11
1332.680046711
 21
662.886608381
  0
LINE
  8
0
  6
LTYPE3
 62
     2
 10
1341.4623077
 20
691.79874929
 11
1386.860821535
 21
679.63425417
  0
LINE
  8
0
  6
CONTINUOUS
 62
     1
 10
1334.889166365
 20
657.22182327
 11
1373.526199416
 21
646.869061466
  0
LINE
  8
0
  6
CONTINUOUS
 62
     1
 10
1383.878961221
 20
685.506094517
 11
1345.241928169
 21
695.858856321
  0
LINE
  8
0
  6
CONTINUOUS
 62
     1
 10
1342.34415069
 20
696.635313457
 11
1339.108912626
 21
684.561240628
  0
LINE
  8
0
  6
CONTINUOUS
 62
     1
 10
1350.0715573
 20
694.564761096
 11
1346.810437332
 21
682.394095685
  0
LINE
  8
0
  6
CONTINUOUS
 62
     1
 10
1345.241928169
 20
695.858856321
 11
1342.006690105
 21
683.784783493
  0
LINE
  8
0
  6
CONTINUOUS
 62
     1
 10
1339.108912626
 20
684.561240628
 11
1335.22662695
 21
670.072353234
  0
LINE
  8
0
  6
CONTINUOUS
 62
     1
 10
1342.95403356
 20
668.001800873
 11
1339.718795496
 21
655.927728044
  0
LINE
  8
0
  6
CONTINUOUS
 62
     1
 10
1338.098522524
 20
669.199303516
 11
1334.889166365
 21
657.22182327
  0
LINE
  8
0
  6
CONTINUOUS
 62
     1
 10
1390.933936227
 20
686.721548203
 11
1393.550259183
 21
696.485798403
  0
LINE
  8
0
  6
CONTINUOUS
 62
     1
 10
1383.878961221
 20
685.506094517
 11
1373.526199416
 21
646.869061466
  0
LINE
  8
0
  6
CONTINUOUS
 62
     1
 10
1356.551057783
 20
683.200515696
 11
1351.012330218
 21
662.529703014
  0
ARC
  8
0
  6
CONTINUOUS
 62
     1
 10
1358.482909435
 20
682.682877606
 40
2.0
 50
75.0
 51
165.0
  0
LINE
  8
0
  6
LTYPE3
 62
     2
 10
1362.399603458
 20
655.958553332
 11
1369.750064339
 21
683.390846798
  0
LINE
  8
0
  6
CONTINUOUS
 62
     1
 10
1359.000547526
 20
684.614729259
 11
1379.671360208
 21
679.076001694
  0
LINE
  8
0
  6
CONTINUOUS
 62
     1
 10
1381.085573771
 20
676.626511951
 11
1375.546846205
 21
655.955699268
  0
ARC
  8
0
  6
CONTINUOUS
 62
     1
 10
1379.153722118
 20
677.144150041
 40
2.0
 50
345.0
 51
75.0
  0
LINE
  8
0
  6
CONTINUOUS
 62
     1
 10
1393.06729627
 20
696.615207926
 11
1378.157068671
 21
640.969480977
  0
LINE
  8
0
  6
CONTINUOUS
 62
     1
 10
1372.361513714
 20
642.522395247
 11
1378.157068671
 21
640.969480977
  0
LINE
  8
0
  6
CONTINUOUS
 62
     1
 10
1373.526199416
 20
646.869061466
 11
1373.622791999
 21
646.843179561
  0
LINE
  8
0
  6
CONTINUOUS
 62
     1
 10
1352.42654378
 20
660.080213271
 11
1373.097356463
 21
654.541485706
  0
ARC
  8
0
  6
CONTINUOUS
 62
     1
 10
1373.614994553
 20
656.473337358
 40
2.0
 50
255.0
 51
345.0
  0
ARC
  8
0
  6
CONTINUOUS
 62
     1
 10
1352.94418187
 20
662.012064924
 40
2.0
 50
165.0
 51
255.0
  0
LINE
  8
0
  6
CONTINUOUS
 62
     2
 10
1499.0
 20
564.276926248
 11
1324.0
 21
564.276926248
  0
LINE
  8
0
  6
CONTINUOUS
 62
     2
 10
1324.0
 20
564.276926248
 11
1335.591109915
 21
561.171097707
  0
LINE
  8
0
  6
CONTINUOUS
 62
     2
 10
1324.0
 20
564.276926248
 11
1335.591109915
 21
567.382754789
  0
LINE
  8
0
  6
CONTINUOUS
 62
     2
 10
1324.0
 20
665.226926248
 11
1324.0
 21
558.276926248
  0
TEXT
  8
0
  6
CONTINUOUS
 62
     3
 10
1364.1
 20
569.526926248
 30
0.0
 40
18.0
  1
１７５
 50
0.0
 41
0.9
 51
0.0
  7
KANJI25
  0
LINE
  8
0
  6
CONTINUOUS
 62
     2
 10
1499.0
 20
564.276926248
 11
1487.408890085
 21
567.382754789
  0
LINE
  8
0
  6
CONTINUOUS
 62
     2
 10
1499.0
 20
564.276926248
 11
1487.408890085
 21
561.171097707
  0
LINE
  8
0
  6
LTYPE2
 62
     2
 10
1486.004464167
 20
645.5
 11
1510.882308775
 21
738.34538006
  0
ARC
  8
0
  6
CONTINUOUS
 62
     1
 10
1499.0
 20
694.0
 40
47.5
 50
224.562636132
 51
253.190358738
  0
ARC
  8
0
  6
CONTINUOUS
 62
     1
 10
1499.0
 20
694.0
 40
47.5
 50
256.809641262
 51
284.774550275
  0
LINE
  8
0
  6
CONTINUOUS
 62
     1
 10
1454.0
 20
636.0
 11
1464.0
 21
636.0
  0
LINE
  8
0
  6
CONTINUOUS
 62
     1
 10
1451.0
 20
634.5
 11
1469.5
 21
634.5
  0
LINE
  8
0
  6
CONTINUOUS
 62
     1
 10
1481.5
 20
634.5
 11
1484.5
 21
634.5
  0
LINE
  8
0
  6
CONTINUOUS
 62
     1
 10
1482.0
 20
636.0
 11
1485.0
 21
636.0
  0
LINE
  8
0
  6
LTYPE1
 62
     2
 10
1470.0
 20
634.5
 11
1481.5
 21
634.5
  0
LINE
  8
0
  6
LTYPE1
 62
     2
 10
1464.0
 20
636.0
 11
1481.5
 21
636.0
  0
LINE
  8
0
  6
LTYPE1
 62
     2
 10
1485.0
 20
636.0
 11
1543.0
 21
636.0
  0
LINE
  8
0
  6
LTYPE1
 62
     2
 10
1485.0
 20
634.5
 11
1542.5
 21
634.5
  0
LINE
  8
0
  6
LTYPE3
 62
     2
 10
1464.4
 20
647.0
 11
1440.6
 21
647.0
  0
LINE
  8
0
  6
LTYPE3
 62
     2
 10
1452.0
 20
637.15
 11
1452.0
 21
660.25
  0
ARC
  8
0
  6
CONTINUOUS
 62
     1
 10
1445.0
 20
640.0
 40
5.0
 50
180.0
 51
270.0
  0
ARC
  8
0
  6
CONTINUOUS
 62
     1
 10
1452.0
 20
647.0
 40
9.0
 50
218.157226587
 51
282.116861929
  0
LINE
  8
0
  6
CONTINUOUS
 62
     1
 10
1440.0
 20
642.5
 11
1440.0
 21
640.0
  0
LINE
  8
0
  6
CONTINUOUS
 62
     1
 10
1454.0
 20
634.5
 11
1454.0
 21
638.5
  0
LINE
  8
0
  6
LTYPE1
 62
     2
 10
1440.0
 20
657.5
 11
1440.0
 21
642.5
  0
LINE
  8
0
  6
LTYPE1
 62
     2
 10
1454.0
 20
639.0
 11
1454.0
 21
665.5
  0
LINE
  8
0
  6
LTYPE1
 62
     2
 10
1440.0
 20
670.474953509
 11
1440.0
 21
668.5
  0
LINE
  8
0
  6
LTYPE1
 62
     2
 10
1426.0
 20
672.158317836
 11
1446.721040822
 21
669.666813483
  0
LINE
  8
0
  6
CONTINUOUS
 62
     1
 10
1440.0
 20
668.5
 11
1440.0
 21
657.5
  0
LINE
  8
0
  6
CONTINUOUS
 62
     1
 10
1531.0
 20
672.0
 11
1531.0
 21
716.0
  0
LINE
  8
0
  6
CONTINUOUS
 62
     1
 10
1537.0
 20
681.5
 11
1537.0
 21
706.5
  0
LINE
  8
0
  6
CONTINUOUS
 62
     1
 10
1537.0
 20
681.5
 11
1531.0
 21
681.5
  0
LINE
  8
0
  6
CONTINUOUS
 62
     1
 10
1531.0
 20
672.0
 11
1526.5
 21
672.0
  0
LINE
  8
0
  6
CONTINUOUS
 62
     1
 10
1511.5
 20
681.5
 11
1486.5
 21
681.5
  0
LINE
  8
0
  6
CONTINUOUS
 62
     1
 10
1486.5
 20
681.5
 11
1511.5
 21
681.5
  0
LINE
  8
0
  6
CONTINUOUS
 62
     1
 10
1526.5
 20
669.0
 11
1526.5
 21
719.0
  0
LINE
  8
0
  6
CONTINUOUS
 62
     1
 10
1471.5
 20
669.0
 11
1526.5
 21
669.0
  0
LINE
  8
0
  6
CONTINUOUS
 62
     1
 10
1511.5
 20
669.0
 11
1511.5
 21
719.0
  0
LINE
  8
0
  6
LTYPE1
 62
     2
 10
1531.0
 20
681.5
 11
1511.5
 21
681.5
  0
LINE
  8
0
  6
CONTINUOUS
 62
     1
 10
1489.83730789
 20
654.008812554
 11
1522.195823071
 21
645.338374544
  0
LINE
  8
0
  6
CONTINUOUS
 62
     1
 10
1522.195823071
 20
645.338374544
 11
1529.339784081
 21
672.0
  0
ARC
  8
0
  6
CONTINUOUS
 62
     1
 10
1499.0
 20
694.0
 40
47.5
 50
302.517510615
 51
27.108122871
  0
LINE
  8
0
  6
LTYPE2
 62
     2
 10
1531.0
 20
647.0
 11
1561.0
 21
647.0
  0
LINE
  8
0
  6
CONTINUOUS
 62
     1
 10
1544.0
 20
635.0
 11
1553.0
 21
635.0
  0
ARC
  8
0
  6
CONTINUOUS
 62
     1
 10
1553.0
 20
640.0
 40
5.0
 50
270.0
 51
360.0
  0
LINE
  8
0
  6
CONTINUOUS
 62
     1
 10
1558.0
 20
670.474953509
 11
1558.0
 21
640.0
  0
ARC
  8
0
  6
CONTINUOUS
 62
     1
 10
1546.0
 20
647.0
 40
9.0
 50
257.883138071
 51
73.610459666
  0
LINE
  8
0
  6
LTYPE2
 62
     2
 10
1546.0
 20
632.0
 11
1546.0
 21
662.0
  0
LINE
  8
0
  6
LTYPE1
 62
     2
 10
1544.0
 20
639.5
 11
1544.0
 21
666.0
  0
ARC
  8
0
  6
CONTINUOUS
 62
     1
 10
1451.0
 20
631.5
 40
3.0
 50
90.0
 51
180.0
  0
LINE
  8
0
  6
CONTINUOUS
 62
     1
 10
1448.0
 20
585.0
 11
1448.0
 21
631.5
  0
LINE
  8
0
  6
CONTINUOUS
 62
     1
 10
1454.0
 20
635.0
 11
1445.0
 21
635.0
  0
ARC
  8
0
  6
CONTINUOUS
 62
     1
 10
1547.0
 20
631.5
 40
3.0
 50
0.0
 51
90.0
  0
LINE
  8
0
  6
CONTINUOUS
 62
     1
 10
1550.0
 20
585.0
 11
1550.0
 21
631.5
  0
LINE
  8
0
  6
CONTINUOUS
 62
     1
 10
1543.0
 20
636.0
 11
1544.0
 21
636.0
  0
LINE
  8
0
  6
CONTINUOUS
 62
     1
 10
1542.5
 20
634.5
 11
1547.0
 21
634.5
  0
LINE
  8
0
  6
CONTINUOUS
 62
     1
 10
1544.0
 20
634.5
 11
1544.0
 21
639.5
  0
LINE
  8
0
  6
CONTINUOUS
 62
     1
 10
1467.0
 20
672.0
 11
1467.0
 21
716.0
  0
LINE
  8
0
  6
CONTINUOUS
 62
     1
 10
1461.0
 20
681.5
 11
1461.0
 21
706.5
  0
LINE
  8
0
  6
CONTINUOUS
 62
     1
 10
1461.0
 20
681.5
 11
1467.0
 21
681.5
  0
LINE
  8
0
  6
CONTINUOUS
 62
     1
 10
1467.0
 20
672.0
 11
1471.5
 21
672.0
  0
LINE
  8
0
  6
CONTINUOUS
 62
     1
 10
1486.5
 20
669.0
 11
1486.5
 21
719.0
  0
LINE
  8
0
  6
CONTINUOUS
 62
     1
 10
1471.5
 20
669.0
 11
1471.5
 21
719.0
  0
LINE
  8
0
  6
LTYPE1
 62
     2
 10
1467.0
 20
681.5
 11
1486.5
 21
681.5
  0
LINE
  8
0
  6
CONTINUOUS
 62
     1
 10
1464.240273494
 20
660.86751725
 11
1486.939530411
 21
654.78526969
  0
LINE
  8
0
  6
CONTINUOUS
 62
     1
 10
1486.939530411
 20
654.78526969
 11
1490.748355919
 21
669.0
  0
LINE
  8
0
  6
CONTINUOUS
 62
     1
 10
1489.83730789
 20
654.008812554
 11
1493.85418446
 21
669.0
  0
LINE
  8
0
  6
LTYPE5
 62
     2
 10
1465.1
 20
690.0
 11
1465.1
 21
698.2
  0
LINE
  8
0
  6
LTYPE1
 62
     2
 10
1444.0
 20
684.0
 11
1419.0
 21
684.0
  0
LINE
  8
0
  6
LTYPE1
 62
     2
 10
1444.0
 20
684.0
 11
1444.0
 21
704.0
  0
CIRCLE
  8
0
  6
CONTINUOUS
 62
     1
 10
1465.0
 20
694.0
 40
2.0
  0
LINE
  8
0
  6
LTYPE1
 62
     2
 10
1444.0
 20
704.0
 11
1419.0
 21
704.0
  0
LINE
  8
0
  6
LTYPE1
 62
     2
 10
1419.0
 20
715.0
 11
1452.266714218
 21
719.0
  0
LINE
  8
0
  6
LTYPE3
 62
     2
 10
1452.0
 20
729.665527109
 11
1452.0
 21
751.765527109
  0
LINE
  8
0
  6
LTYPE1
 62
     2
 10
1440.0
 20
717.525046491
 11
1440.0
 21
742.021223203
  0
LINE
  8
0
  6
LTYPE1
 62
     2
 10
1422.0
 20
715.360720927
 11
1422.0
 21
756.043135034
  0
LINE
  8
0
  6
LTYPE1
 62
     2
 10
1419.0
 20
674.024888178
 11
1419.0
 21
715.0
  0
LINE
  8
0
  6
LTYPE3
 62
     2
 10
1464.4
 20
741.0
 11
1440.6
 21
741.0
  0
ARC
  8
0
  6
CONTINUOUS
 62
     1
 10
1445.0
 20
748.0
 40
5.0
 50
90.0
 51
139.398705355
  0
LINE
  8
0
  6
LTYPE1
 62
     2
 10
1440.0
 20
742.719700758
 11
1440.0
 21
748.00001079
  0
ARC
  8
0
  6
LTYPE1
 62
     2
 10
1445.0
 20
748.0
 40
5.0
 50
143.130102353
 51
179.999876362
  0
ARC
  8
0
  6
CONTINUOUS
 62
     1
 10
1452.0
 20
741.0
 40
9.0
 50
35.537677792
 51
116.565051177
  0
LINE
  8
0
  6
CONTINUOUS
 62
     1
 10
1463.5
 20
753.0
 11
1445.0
 21
753.0
  0
ARC
  8
0
  6
CONTINUOUS
 62
     1
 10
1499.0
 20
694.0
 40
47.5
 50
44.144902604
 51
73.190358738
  0
ARC
  8
0
  6
CONTINUOUS
 62
     1
 10
1499.0
 20
849.0
 40
102.5
 50
276.986704537
 51
278.914926957
  0
LINE
  8
0
  6
CONTINUOUS
 62
     1
 10
1526.5
 20
719.0
 11
1511.5
 21
719.0
  0
LINE
  8
0
  6
CONTINUOUS
 62
     1
 10
1537.0
 20
706.5
 11
1531.0
 21
706.5
  0
LINE
  8
0
  6
CONTINUOUS
 62
     1
 10
1531.0
 20
716.0
 11
1526.5
 21
716.0
  0
LINE
  8
0
  6
CONTINUOUS
 62
     1
 10
1461.0
 20
706.5
 11
1467.0
 21
706.5
  0
LINE
  8
0
  6
CONTINUOUS
 62
     1
 10
1467.0
 20
716.0
 11
1471.5
 21
716.0
  0
LINE
  8
0
  6
CONTINUOUS
 62
     1
 10
1511.5
 20
706.5
 11
1486.5
 21
706.5
  0
LINE
  8
0
  6
CONTINUOUS
 62
     1
 10
1486.5
 20
706.5
 11
1511.5
 21
706.5
  0
LINE
  8
0
  6
CONTINUOUS
 62
     1
 10
1471.5
 20
719.0
 11
1511.5
 21
719.0
  0
LINE
  8
0
  6
LTYPE3
 62
     2
 10
1533.6
 20
741.0
 11
1557.4
 21
741.0
  0
LINE
  8
0
  6
LTYPE3
 62
     2
 10
1546.0
 20
729.665527109
 11
1546.0
 21
751.765527109
  0
LINE
  8
0
  6
LTYPE1
 62
     2
 10
1531.0
 20
706.5
 11
1511.5
 21
706.5
  0
LINE
  8
0
  6
LTYPE1
 62
     2
 10
1467.0
 20
706.5
 11
1486.5
 21
706.5
  0
LINE
  8
0
  6
LTYPE1
 62
     2
 10
1554.0
 20
684.0
 11
1554.0
 21
704.0
  0
LINE
  8
0
  6
LTYPE1
 62
     2
 10
1554.0
 20
704.0
 11
1579.0
 21
704.0
  0
LINE
  8
0
  6
CONTINUOUS
 62
     1
 10
1537.0
 20
700.588315007
 11
1543.418984769
 21
724.544292299
  0
LINE
  8
0
  6
CONTINUOUS
 62
     1
 10
1511.060469589
 20
733.21473031
 11
1543.418984769
 21
724.544292299
  0
LINE
  8
0
  6
CONTINUOUS
 62
     1
 10
1485.463435192
 20
740.073435005
 11
1508.16269211
 21
733.991187446
  0
LINE
  8
0
  6
CONTINUOUS
 62
     1
 10
1504.14581554
 20
719.0
 11
1508.16269211
 21
733.991187446
  0
LINE
  8
0
  6
CONTINUOUS
 62
     1
 10
1507.251644081
 20
719.0
 11
1511.060469589
 21
733.21473031
  0
ARC
  8
0
  6
CONTINUOUS
 62
     1
 10
1499.0
 20
694.0
 40
47.5
 50
76.809641262
 51
104.620873989
  0
LINE
  8
0
  6
LTYPE1
 62
     2
 10
1558.0
 20
717.525046491
 11
1558.0
 21
746.0
  0
LINE
  8
0
  6
CONTINUOUS
 62
     1
 10
1579.0
 20
715.0
 11
1564.5
 21
716.743484482
  0
LINE
  8
0
  6
LTYPE1
 62
     2
 10
1564.5
 20
716.743484482
 11
1544.0
 21
719.208410818
  0
LINE
  8
0
  6
LTYPE2
 62
     2
 10
1499.0
 20
561.0
 11
1499.0
 21
1046.24
  0
ARC
  8
0
  6
CONTINUOUS
 62
     1
 10
1553.0
 20
748.0
 40
5.0
 50
0.0
 51
90.0
  0
LINE
  8
0
  6
CONTINUOUS
 62
     1
 10
1534.0
 20
753.0
 11
1553.0
 21
753.0
  0
ARC
  8
0
  6
CONTINUOUS
 62
     1
 10
1546.0
 20
741.0
 40
9.0
 50
42.709389957
 51
109.440034828
  0
LINE
  8
0
  6
CONTINUOUS
 62
     1
 10
1558.0
 20
746.0
 11
1558.0
 21
748.0
  0
LINE
  8
0
  6
LTYPE5
 62
     2
 10
1532.9
 20
690.0
 11
1532.9
 21
698.2
  0
CIRCLE
  8
0
  6
CONTINUOUS
 62
     1
 10
1533.0
 20
694.0
 40
2.0
  0
LINE
  8
0
  6
CONTINUOUS
 62
     1
 10
1579.0
 20
673.0
 11
1552.0
 21
669.753511655
  0
LINE
  8
0
  6
LTYPE1
 62
     2
 10
1552.0
 20
669.753511655
 11
1543.0
 21
668.671348873
  0
LINE
  8
0
  6
LTYPE1
 62
     2
 10
1554.0
 20
684.0
 11
1579.0
 21
684.0
  0
TEXT
  8
7
  6
CONTINUOUS
 62
     2
 10
1233.517091025
 20
823.429835768
 30
0.0
 40
15.0
  1
ＬＳユニット組付位置
 50
0.0
 41
0.9
 51
0.0
  7
KANJI24
  0
LINE
  8
7
  6
CONTINUOUS
 62
     2
 10
1370.967964258
 20
819.429835768
 11
1224.283705995
 21
819.429835768
  0
TEXT
  8
0
  6
CONTINUOUS
 62
     6
 10
149.99234898
 20
1311.565383027
 30
1.82231734
 40
18.223173404
  1
クイックブレーキモータ
 50
0.0
 41
0.66671875
 51
0.0
  7
KANJI78
  0
CIRCLE
  8
0
  6
CONTINUOUS
 62
     6
 10
194.433781323
 20
1249.598025404
 40
21.6
  0
TEXT
  8
0
  6
CONTINUOUS
 62
     6
 10
185.361781323
 20
1239.230025404
 30
2.16
 40
21.6
  1
Ｍ
 50
0.0
 41
0.9
 51
0.0
  7
KANJI79
  0
LINE
  8
0
  6
CONTINUOUS
 62
     6
 10
165.921781323
 20
1219.358025404
 11
179.313781323
 21
1234.910025404
  0
LINE
  8
0
  6
CONTINUOUS
 62
     6
 10
165.921781323
 20
1279.838025404
 11
179.313781323
 21
1264.286025404
  0
CIRCLE
  8
0
  6
CONTINUOUS
 62
     6
 10
141.297781323
 20
1279.838025404
 40
5.184
  0
LINE
  8
0
  6
CONTINUOUS
 62
     6
 10
135.341885208
 20
1273.882129288
 11
147.437885208
 21
1285.978129288
  0
CIRCLE
  8
0
  6
CONTINUOUS
 62
     6
 10
141.297781323
 20
1249.598025404
 40
5.184
  0
LINE
  8
0
  6
CONTINUOUS
 62
     6
 10
135.341885208
 20
1243.642129288
 11
147.437885208
 21
1255.738129288
  0
CIRCLE
  8
0
  6
CONTINUOUS
 62
     6
 10
141.297781323
 20
1219.358025404
 40
5.184
  0
LINE
  8
0
  6
CONTINUOUS
 62
     6
 10
135.341885208
 20
1213.402129288
 11
147.437885208
 21
1225.498129288
  0
LINE
  8
0
  6
CONTINUOUS
 62
     6
 10
165.921781323
 20
1279.838025404
 11
146.481781323
 21
1279.838025404
  0
LINE
  8
0
  6
CONTINUOUS
 62
     6
 10
173.265781323
 20
1249.598025404
 11
146.481781323
 21
1249.598025404
  0
LINE
  8
0
  6
CONTINUOUS
 62
     6
 10
165.921781323
 20
1219.358025404
 11
146.481781323
 21
1219.358025404
  0
LINE
  8
0
  6
LTYPE2
 62
     6
 10
141.297781323
 20
1303.166025404
 11
141.297781323
 21
1283.726025404
  0
LINE
  8
0
  6
LTYPE2
 62
     6
 10
141.297781323
 20
1275.086025404
 11
141.297781323
 21
1253.486025404
  0
LINE
  8
0
  6
LTYPE2
 62
     6
 10
141.297781323
 20
1244.846025404
 11
141.297781323
 21
1223.678025404
  0
TEXT
  8
0
  6
CONTINUOUS
 62
     6
 10
120.513781323
 20
1287.182025404
 30
1.296
 40
12.96
  1
Ｕ
 50
0.0
 41
0.9
 51
0.0
  7
KANJI80
  0
TEXT
  8
0
  6
CONTINUOUS
 62
     6
 10
121.809781323
 20
1256.510025404
 30
1.296
 40
12.96
  1
Ｖ
 50
0.0
 41
0.9
 51
0.0
  7
KANJI80
  0
TEXT
  8
0
  6
CONTINUOUS
 62
     6
 10
123.105781323
 20
1225.838025404
 30
1.296
 40
12.96
  1
Ｗ
 50
0.0
 41
0.9
 51
0.0
  7
KANJI80
  0
LINE
  8
0
  6
LTYPE2
 62
     6
 10
295.857781323
 20
1303.166025404
 11
141.297781323
 21
1303.166025404
  0
TEXT
  8
0
  6
CONTINUOUS
 62
     6
 10
225.537781323
 20
1239.813225404
 30
1.728
 40
17.28
  1
Ｂ
 50
0.0
 41
0.9
 51
0.0
  7
KANJI81
  0
CIRCLE
  8
0
  6
CONTINUOUS
 62
     6
 10
233.313781323
 20
1249.598025404
 40
17.28
  0
LINE
  8
0
  6
CONTINUOUS
 62
     6
 10
260.913781323
 20
1219.185225404
 11
241.934765754
 21
1234.622143879
  0
LINE
  8
0
  6
CONTINUOUS
 62
     6
 10
224.329106398
 20
1234.837469301
 11
205.233781323
 21
1219.185225404
  0
CIRCLE
  8
0
  6
CONTINUOUS
 62
     6
 10
205.233781323
 20
1170.153225404
 40
5.184
  0
LINE
  8
0
  6
CONTINUOUS
 62
     6
 10
199.277885208
 20
1164.197329288
 11
211.373885208
 21
1176.293329288
  0
CIRCLE
  8
0
  6
CONTINUOUS
 62
     6
 10
233.073781323
 20
1170.153225404
 40
5.184
  0
LINE
  8
0
  6
CONTINUOUS
 62
     6
 10
227.117885208
 20
1164.197329288
 11
239.213885208
 21
1176.293329288
  0
LINE
  8
0
  6
LTYPE2
 62
     6
 10
210.417781323
 20
1170.153225404
 11
227.793781323
 21
1170.153225404
  0
CIRCLE
  8
0
  6
CONTINUOUS
 62
     6
 10
260.913781323
 20
1170.153225404
 40
5.184
  0
LINE
  8
0
  6
CONTINUOUS
 62
     6
 10
254.957885208
 20
1164.197329288
 11
267.053885208
 21
1176.293329288
  0
LINE
  8
0
  6
LTYPE2
 62
     6
 10
237.873781323
 20
1170.153225404
 11
256.113781323
 21
1170.153225404
  0
TEXT
  8
0
  6
CONTINUOUS
 62
     6
 10
218.337781323
 20
1172.985225404
 30
1.296
 40
12.96
  1
ｖ
 50
0.0
 41
0.9
 51
0.0
  7
KANJI80
  0
TEXT
  8
0
  6
CONTINUOUS
 62
     6
 10
246.177781323
 20
1172.985225404
 30
1.296
 40
12.96
  1
ｗ
 50
0.0
 41
0.9
 51
0.0
  7
KANJI80
  0
TEXT
  8
0
  6
CONTINUOUS
 62
     6
 10
191.313781323
 20
1173.849225404
 30
1.296
 40
12.96
  1
ｕ
 50
0.0
 41
0.9
 51
0.0
  7
KANJI80
  0
LINE
  8
0
  6
CONTINUOUS
 62
     6
 10
205.233781323
 20
1175.337225404
 11
205.233781323
 21
1219.185225404
  0
LINE
  8
0
  6
CONTINUOUS
 62
     6
 10
233.073781323
 20
1175.337225404
 11
233.073781323
 21
1232.606025404
  0
LINE
  8
0
  6
CONTINUOUS
 62
     6
 10
260.913781323
 20
1175.337225404
 11
260.913781323
 21
1219.185225404
  0
LINE
  8
0
  6
LTYPE2
 62
     6
 10
266.673781323
 20
1170.153225404
 11
295.857781323
 21
1170.153225404
  0
LINE
  8
0
  6
LTYPE2
 62
     6
 10
295.857781323
 20
1170.153225404
 11
295.857781323
 21
1303.166025404
  0
LINE
  8
0
  6
LTYPE2
 62
     6
 10
141.297781323
 20
1170.153225404
 11
200.049781323
 21
1170.153225404
  0
LINE
  8
0
  6
LTYPE2
 62
     6
 10
141.297781323
 20
1214.174025404
 11
141.297781323
 21
1170.153225404
  0
TEXT
  8
0
  6
CONTINUOUS
 62
     2
 10
157.712253361
 20
1135.120711177
 30
0.0
 40
18.72
  1
モーター結線図
 50
0.0
 41
0.925
 51
0.0
  7
KANJI82
  0
ENDSEC
  0
EOF
