  0
SECTION
  2
HEADER
  9
$EXTMIN
 10
0.0
 20
0.0
 30
0.0
  9
$EXTMAX
 10
2520.0
 20
1782.0
 30
0.0
  9
$LIMMIN
 10
0.0
 20
0.0
  9
$LIMMAX
 10
2520.0
 20
1782.0
  9
$LTSCALE
 40
1.0
  9
$PDMODE
 70
     0
  0
ENDSEC
  0
SECTION
  2
TABLES
  0
TABLE
  2
LTYPE
 70
     7
  0
LTYPE
  2
CONTINUOUS
 70
    64
  3
Solid line
 72
    65
 73
     0
 40
0.0
  0
LTYPE
  2
LTYPE1
 70
    64
  3
HIDDEN
 72
    65
 73
     2
 40
18.0
 49
10.8
 49
-7.2
  0
LTYPE
  2
LTYPE2
 70
    64
  3
CENTER
 72
    65
 73
     4
 40
90.0
 49
63.0
 49
-9.0
 49
9.0
 49
-9.0
  0
LTYPE
  2
LTYPE3
 70
    64
  3
CENTER
 72
    65
 73
     4
 40
60.0
 49
42.0
 49
-6.0
 49
6.0
 49
-6.0
  0
LTYPE
  2
LTYPE4
 70
    64
  3
CENTER
 72
    65
 73
     4
 40
54.0
 49
37.8
 49
-5.4
 49
5.4
 49
-5.4
  0
LTYPE
  2
LTYPE5
 70
    64
  3
PHANTOM
 72
    65
 73
     6
 40
90.0
 49
67.5
 49
-4.5
 49
4.5
 49
-4.5
 49
4.5
 49
-4.5
  0
LTYPE
  2
LTYPE6
 70
    64
  3
CENTER
 72
    65
 73
     4
 40
120.0
 49
84.0
 49
-12.0
 49
12.0
 49
-12.0
  0
ENDTAB
  0
TABLE
  2
LAYER
 70
   128
  0
LAYER
  2
0
 70
     0
 62
     7
  6
CONTINUOUS
  0
LAYER
  2
2
 70
     0
 62
     7
  6
CONTINUOUS
  0
LAYER
  2
3
 70
     0
 62
     7
  6
CONTINUOUS
  0
LAYER
  2
4
 70
     0
 62
     7
  6
CONTINUOUS
  0
LAYER
  2
5
 70
     0
 62
     7
  6
CONTINUOUS
  0
LAYER
  2
6
 70
     0
 62
     7
  6
CONTINUOUS
  0
LAYER
  2
7
 70
     0
 62
     7
  6
CONTINUOUS
  0
LAYER
  2
8
 70
     0
 62
     7
  6
CONTINUOUS
  0
LAYER
  2
9
 70
     0
 62
     7
  6
CONTINUOUS
  0
LAYER
  2
10
 70
     0
 62
     7
  6
CONTINUOUS
  0
LAYER
  2
11
 70
     0
 62
     7
  6
CONTINUOUS
  0
LAYER
  2
12
 70
     0
 62
     7
  6
CONTINUOUS
  0
LAYER
  2
13
 70
     0
 62
     7
  6
CONTINUOUS
  0
LAYER
  2
14
 70
     0
 62
     7
  6
CONTINUOUS
  0
LAYER
  2
15
 70
     0
 62
     7
  6
CONTINUOUS
  0
LAYER
  2
16
 70
     0
 62
     7
  6
CONTINUOUS
  0
LAYER
  2
17
 70
     0
 62
     7
  6
CONTINUOUS
  0
LAYER
  2
18
 70
     0
 62
     7
  6
CONTINUOUS
  0
LAYER
  2
19
 70
     0
 62
     7
  6
CONTINUOUS
  0
LAYER
  2
20
 70
     0
 62
     7
  6
CONTINUOUS
  0
LAYER
  2
21
 70
     0
 62
     7
  6
CONTINUOUS
  0
LAYER
  2
22
 70
     0
 62
     7
  6
CONTINUOUS
  0
LAYER
  2
23
 70
     0
 62
     7
  6
CONTINUOUS
  0
LAYER
  2
24
 70
     0
 62
     7
  6
CONTINUOUS
  0
LAYER
  2
25
 70
     0
 62
     7
  6
CONTINUOUS
  0
LAYER
  2
26
 70
     0
 62
     7
  6
CONTINUOUS
  0
LAYER
  2
27
 70
     0
 62
     7
  6
CONTINUOUS
  0
LAYER
  2
28
 70
     0
 62
     7
  6
CONTINUOUS
  0
LAYER
  2
29
 70
     0
 62
     7
  6
CONTINUOUS
  0
LAYER
  2
30
 70
     0
 62
     7
  6
CONTINUOUS
  0
LAYER
  2
31
 70
     0
 62
     7
  6
CONTINUOUS
  0
LAYER
  2
32
 70
     0
 62
     7
  6
CONTINUOUS
  0
LAYER
  2
33
 70
     0
 62
     7
  6
CONTINUOUS
  0
LAYER
  2
34
 70
     0
 62
     7
  6
CONTINUOUS
  0
LAYER
  2
35
 70
     0
 62
     7
  6
CONTINUOUS
  0
LAYER
  2
36
 70
     0
 62
     7
  6
CONTINUOUS
  0
LAYER
  2
37
 70
     0
 62
     7
  6
CONTINUOUS
  0
LAYER
  2
38
 70
     0
 62
     7
  6
CONTINUOUS
  0
LAYER
  2
39
 70
     0
 62
     7
  6
CONTINUOUS
  0
LAYER
  2
40
 70
     0
 62
     7
  6
CONTINUOUS
  0
LAYER
  2
41
 70
     0
 62
     7
  6
CONTINUOUS
  0
LAYER
  2
42
 70
     0
 62
     7
  6
CONTINUOUS
  0
LAYER
  2
43
 70
     0
 62
     7
  6
CONTINUOUS
  0
LAYER
  2
44
 70
     0
 62
     7
  6
CONTINUOUS
  0
LAYER
  2
45
 70
     0
 62
     7
  6
CONTINUOUS
  0
LAYER
  2
46
 70
     0
 62
     7
  6
CONTINUOUS
  0
LAYER
  2
47
 70
     0
 62
     7
  6
CONTINUOUS
  0
LAYER
  2
48
 70
     0
 62
     7
  6
CONTINUOUS
  0
LAYER
  2
49
 70
     0
 62
     7
  6
CONTINUOUS
  0
LAYER
  2
50
 70
     0
 62
     7
  6
CONTINUOUS
  0
LAYER
  2
51
 70
     0
 62
     7
  6
CONTINUOUS
  0
LAYER
  2
52
 70
     0
 62
     7
  6
CONTINUOUS
  0
LAYER
  2
53
 70
     0
 62
     7
  6
CONTINUOUS
  0
LAYER
  2
54
 70
     0
 62
     7
  6
CONTINUOUS
  0
LAYER
  2
55
 70
     0
 62
     7
  6
CONTINUOUS
  0
LAYER
  2
56
 70
     0
 62
     7
  6
CONTINUOUS
  0
LAYER
  2
57
 70
     0
 62
     7
  6
CONTINUOUS
  0
LAYER
  2
58
 70
     0
 62
     7
  6
CONTINUOUS
  0
LAYER
  2
59
 70
     0
 62
     7
  6
CONTINUOUS
  0
LAYER
  2
60
 70
     0
 62
     7
  6
CONTINUOUS
  0
LAYER
  2
61
 70
     0
 62
     7
  6
CONTINUOUS
  0
LAYER
  2
62
 70
     0
 62
     7
  6
CONTINUOUS
  0
LAYER
  2
63
 70
     0
 62
     7
  6
CONTINUOUS
  0
LAYER
  2
64
 70
     0
 62
     7
  6
CONTINUOUS
  0
LAYER
  2
65
 70
     0
 62
     7
  6
CONTINUOUS
  0
LAYER
  2
66
 70
     0
 62
     7
  6
CONTINUOUS
  0
LAYER
  2
67
 70
     0
 62
     7
  6
CONTINUOUS
  0
LAYER
  2
68
 70
     0
 62
     7
  6
CONTINUOUS
  0
LAYER
  2
69
 70
     0
 62
     7
  6
CONTINUOUS
  0
LAYER
  2
70
 70
     0
 62
     7
  6
CONTINUOUS
  0
LAYER
  2
71
 70
     0
 62
     7
  6
CONTINUOUS
  0
LAYER
  2
72
 70
     0
 62
     7
  6
CONTINUOUS
  0
LAYER
  2
73
 70
     0
 62
     7
  6
CONTINUOUS
  0
LAYER
  2
74
 70
     0
 62
     7
  6
CONTINUOUS
  0
LAYER
  2
75
 70
     0
 62
     7
  6
CONTINUOUS
  0
LAYER
  2
76
 70
     0
 62
     7
  6
CONTINUOUS
  0
LAYER
  2
77
 70
     0
 62
     7
  6
CONTINUOUS
  0
LAYER
  2
78
 70
     0
 62
     7
  6
CONTINUOUS
  0
LAYER
  2
79
 70
     0
 62
     7
  6
CONTINUOUS
  0
LAYER
  2
80
 70
     0
 62
     7
  6
CONTINUOUS
  0
LAYER
  2
81
 70
     0
 62
     7
  6
CONTINUOUS
  0
LAYER
  2
82
 70
     0
 62
     7
  6
CONTINUOUS
  0
LAYER
  2
83
 70
     0
 62
     7
  6
CONTINUOUS
  0
LAYER
  2
84
 70
     0
 62
     7
  6
CONTINUOUS
  0
LAYER
  2
85
 70
     0
 62
     7
  6
CONTINUOUS
  0
LAYER
  2
86
 70
     0
 62
     7
  6
CONTINUOUS
  0
LAYER
  2
87
 70
     0
 62
     7
  6
CONTINUOUS
  0
LAYER
  2
88
 70
     0
 62
     7
  6
CONTINUOUS
  0
LAYER
  2
89
 70
     0
 62
     7
  6
CONTINUOUS
  0
LAYER
  2
90
 70
     0
 62
     7
  6
CONTINUOUS
  0
LAYER
  2
91
 70
     0
 62
     7
  6
CONTINUOUS
  0
LAYER
  2
92
 70
     0
 62
     7
  6
CONTINUOUS
  0
LAYER
  2
93
 70
     0
 62
     7
  6
CONTINUOUS
  0
LAYER
  2
94
 70
     0
 62
     7
  6
CONTINUOUS
  0
LAYER
  2
95
 70
     0
 62
     7
  6
CONTINUOUS
  0
LAYER
  2
96
 70
     0
 62
     7
  6
CONTINUOUS
  0
LAYER
  2
97
 70
     0
 62
     7
  6
CONTINUOUS
  0
LAYER
  2
98
 70
     0
 62
     7
  6
CONTINUOUS
  0
LAYER
  2
99
 70
     0
 62
     7
  6
CONTINUOUS
  0
LAYER
  2
100
 70
     0
 62
     7
  6
CONTINUOUS
  0
LAYER
  2
101
 70
     0
 62
     7
  6
CONTINUOUS
  0
LAYER
  2
102
 70
     0
 62
     7
  6
CONTINUOUS
  0
LAYER
  2
103
 70
     0
 62
     7
  6
CONTINUOUS
  0
LAYER
  2
104
 70
     0
 62
     7
  6
CONTINUOUS
  0
LAYER
  2
105
 70
     0
 62
     7
  6
CONTINUOUS
  0
LAYER
  2
106
 70
     0
 62
     7
  6
CONTINUOUS
  0
LAYER
  2
107
 70
     0
 62
     7
  6
CONTINUOUS
  0
LAYER
  2
108
 70
     0
 62
     7
  6
CONTINUOUS
  0
LAYER
  2
109
 70
     0
 62
     7
  6
CONTINUOUS
  0
LAYER
  2
110
 70
     0
 62
     7
  6
CONTINUOUS
  0
LAYER
  2
111
 70
     0
 62
     7
  6
CONTINUOUS
  0
LAYER
  2
112
 70
     0
 62
     7
  6
CONTINUOUS
  0
LAYER
  2
113
 70
     0
 62
     7
  6
CONTINUOUS
  0
LAYER
  2
114
 70
     0
 62
     7
  6
CONTINUOUS
  0
LAYER
  2
115
 70
     0
 62
     7
  6
CONTINUOUS
  0
LAYER
  2
116
 70
     0
 62
     7
  6
CONTINUOUS
  0
LAYER
  2
117
 70
     0
 62
     7
  6
CONTINUOUS
  0
LAYER
  2
118
 70
     0
 62
     7
  6
CONTINUOUS
  0
LAYER
  2
119
 70
     0
 62
     7
  6
CONTINUOUS
  0
LAYER
  2
120
 70
     0
 62
     7
  6
CONTINUOUS
  0
LAYER
  2
121
 70
     0
 62
     7
  6
CONTINUOUS
  0
LAYER
  2
122
 70
     0
 62
     7
  6
CONTINUOUS
  0
LAYER
  2
123
 70
     0
 62
     7
  6
CONTINUOUS
  0
LAYER
  2
124
 70
     0
 62
     7
  6
CONTINUOUS
  0
LAYER
  2
125
 70
     0
 62
     7
  6
CONTINUOUS
  0
LAYER
  2
126
 70
     0
 62
     7
  6
CONTINUOUS
  0
LAYER
  2
127
 70
     0
 62
     7
  6
CONTINUOUS
  0
LAYER
  2
128
 70
     0
 62
     7
  6
CONTINUOUS
  0
ENDTAB
  0
TABLE
  2
STYLE
 70
    83
  0
STYLE
  2
STANDARD
 70
     0
 40
0.0
 41
1.0
 50
0.0
 71
     0
 42
0.2
  3
txt
  4

  0
STYLE
  2
KANJI0
 70
     0
 40
15.5999988
 41
0.75
 50
0.0
 71
     0
 42
15.5999988
  3

  4
bigfont
  0
STYLE
  2
KANJI1
 70
     0
 40
11.999997477
 41
0.6
 50
0.0
 71
     0
 42
11.999997477
  3

  4
bigfont
  0
STYLE
  2
KANJI2
 70
     0
 40
14.399996972
 41
0.9
 50
0.0
 71
     0
 42
14.399996972
  3

  4
bigfont
  0
STYLE
  2
KANJI3
 70
     0
 40
17.999996215
 41
0.9
 50
0.0
 71
     0
 42
17.999996215
  3

  4
bigfont
  0
STYLE
  2
KANJI4
 70
     0
 40
10.3999992
 41
0.6
 50
0.0
 71
     0
 42
10.3999992
  3

  4
bigfont
  0
STYLE
  2
KANJI5
 70
     0
 40
12.47999904
 41
0.6
 50
0.0
 71
     0
 42
12.47999904
  3

  4
bigfont
  0
STYLE
  2
KANJI6
 70
     0
 40
18.1999986
 41
0.42031746
 50
0.0
 71
     0
 42
18.1999986
  3

  4
bigfont
  0
STYLE
  2
KANJI7
 70
     0
 40
31.1999976
 41
0.9
 50
0.0
 71
     0
 42
31.1999976
  3

  4
bigfont
  0
STYLE
  2
KANJI8
 70
     0
 40
21.6
 41
1.111111111
 50
0.0
 71
     0
 42
21.6
  3

  4
bigfont
  0
STYLE
  2
KANJI9
 70
     0
 40
10.3999992
 41
0.8
 50
0.0
 71
     0
 42
10.3999992
  3

  4
bigfont
  0
STYLE
  2
KANJI10
 70
     0
 40
12.47999904
 41
0.8
 50
0.0
 71
     0
 42
12.47999904
  3

  4
bigfont
  0
STYLE
  2
KANJI11
 70
     0
 40
30.0
 41
1.0
 50
0.0
 71
     0
 42
30.0
  3

  4
bigfont
  0
STYLE
  2
KANJI12
 70
     0
 40
30.0
 41
1.0
 50
0.0
 71
     0
 42
30.0
  3

  4
bigfont
  0
STYLE
  2
KANJI13
 70
     0
 40
30.0
 41
0.8
 50
0.0
 71
     0
 42
30.0
  3

  4
bigfont
  0
STYLE
  2
KANJI14
 70
     0
 40
24.0
 41
1.0
 50
0.0
 71
     0
 42
24.0
  3

  4
bigfont
  0
STYLE
  2
KANJI15
 70
     0
 40
21.0
 41
0.857142857
 50
0.0
 71
     0
 42
21.0
  3

  4
bigfont
  0
STYLE
  2
KANJI16
 70
     0
 40
27.0
 41
0.666666667
 50
0.0
 71
     0
 42
27.0
  3

  4
bigfont
  0
STYLE
  2
KANJI17
 70
     0
 40
13.182
 41
0.85
 50
0.0
 71
     0
 42
13.182
  3

  4
bigfont
  0
STYLE
  2
KANJI18
 70
     0
 40
11.661
 41
0.822608696
 50
0.0
 71
     0
 42
11.661
  3

  4
bigfont
  0
STYLE
  2
KANJI19
 70
     0
 40
11.8638
 41
0.726495726
 50
0.0
 71
     0
 42
11.8638
  3

  4
bigfont
  0
STYLE
  2
KANJI20
 70
     4
 40
45.0
 41
0.538166667
 50
0.0
 71
     0
 42
45.0
  3

  4
bigfont
  0
STYLE
  2
KANJI21
 70
     0
 40
17.740702234
 41
0.880962996
 50
0.0
 71
     0
 42
17.740702234
  3

  4
bigfont
  0
STYLE
  2
KANJI22
 70
     0
 40
11.7
 41
0.8
 50
0.0
 71
     0
 42
11.7
  3

  4
bigfont
  0
STYLE
  2
KANJI23
 70
     0
 40
15.0
 41
0.911
 50
0.0
 71
     0
 42
15.0
  3

  4
bigfont
  0
STYLE
  2
KANJI24
 70
     0
 40
15.36
 41
0.9
 50
0.0
 71
     0
 42
15.36
  3

  4
bigfont
  0
STYLE
  2
KANJI25
 70
     0
 40
14.4
 41
0.9
 50
0.0
 71
     0
 42
14.4
  3

  4
bigfont
  0
STYLE
  2
KANJI26
 70
     0
 40
14.4
 41
0.9
 50
0.0
 71
     0
 42
14.4
  3

  4
bigfont
  0
STYLE
  2
KANJI27
 70
     0
 40
16.8
 41
0.9
 50
0.0
 71
     0
 42
16.8
  3

  4
bigfont
  0
STYLE
  2
KANJI28
 70
     0
 40
12.96
 41
0.740740741
 50
0.0
 71
     0
 42
12.96
  3

  4
bigfont
  0
STYLE
  2
KANJI29
 70
     0
 40
16.8
 41
0.857142857
 50
0.0
 71
     0
 42
16.8
  3

  4
bigfont
  0
STYLE
  2
KANJI30
 70
     0
 40
22.8
 41
0.9
 50
0.0
 71
     0
 42
22.8
  3

  4
bigfont
  0
STYLE
  2
KANJI31
 70
     0
 40
22.8
 41
0.9
 50
0.0
 71
     0
 42
22.8
  3

  4
bigfont
  0
STYLE
  2
KANJI32
 70
     0
 40
27.0
 41
0.9
 50
0.0
 71
     0
 42
27.0
  3

  4
bigfont
  0
STYLE
  2
KANJI33
 70
     0
 40
22.8
 41
0.9
 50
0.0
 71
     0
 42
22.8
  3

  4
bigfont
  0
STYLE
  2
KANJI34
 70
     0
 40
22.8
 41
0.9
 50
0.0
 71
     0
 42
22.8
  3

  4
bigfont
  0
STYLE
  2
KANJI35
 70
     0
 40
22.8
 41
0.9
 50
0.0
 71
     0
 42
22.8
  3

  4
bigfont
  0
STYLE
  2
KANJI36
 70
     0
 40
22.8
 41
0.9
 50
0.0
 71
     0
 42
22.8
  3

  4
bigfont
  0
STYLE
  2
KANJI37
 70
     0
 40
22.8
 41
0.9
 50
0.0
 71
     0
 42
22.8
  3

  4
bigfont
  0
STYLE
  2
KANJI38
 70
     0
 40
22.8
 41
0.9
 50
0.0
 71
     0
 42
22.8
  3

  4
bigfont
  0
STYLE
  2
KANJI39
 70
     4
 40
21.0
 41
0.9
 50
0.0
 71
     0
 42
21.0
  3

  4
bigfont
  0
STYLE
  2
KANJI40
 70
     4
 40
21.0
 41
0.9
 50
0.0
 71
     0
 42
21.0
  3

  4
bigfont
  0
STYLE
  2
KANJI41
 70
     0
 40
21.0
 41
0.9
 50
0.0
 71
     0
 42
21.0
  3

  4
bigfont
  0
STYLE
  2
KANJI42
 70
     0
 40
18.0
 41
0.9
 50
0.0
 71
     0
 42
18.0
  3

  4
bigfont
  0
STYLE
  2
KANJI43
 70
     0
 40
21.0
 41
0.9
 50
0.0
 71
     0
 42
21.0
  3

  4
bigfont
  0
STYLE
  2
KANJI44
 70
     0
 40
22.8
 41
0.9
 50
0.0
 71
     0
 42
22.8
  3

  4
bigfont
  0
STYLE
  2
KANJI45
 70
     0
 40
22.8
 41
0.9
 50
0.0
 71
     0
 42
22.8
  3

  4
bigfont
  0
STYLE
  2
KANJI46
 70
     0
 40
21.0
 41
0.628571429
 50
0.0
 71
     0
 42
21.0
  3

  4
bigfont
  0
STYLE
  2
KANJI47
 70
     0
 40
20.4
 41
0.705882353
 50
0.0
 71
     0
 42
20.4
  3

  4
bigfont
  0
STYLE
  2
KANJI48
 70
     0
 40
18.0
 41
0.8
 50
0.0
 71
     0
 42
18.0
  3

  4
bigfont
  0
STYLE
  2
KANJI49
 70
     0
 40
19.2
 41
0.71875
 50
0.0
 71
     0
 42
19.2
  3

  4
bigfont
  0
STYLE
  2
KANJI50
 70
     0
 40
19.2
 41
0.8
 50
0.0
 71
     0
 42
19.2
  3

  4
bigfont
  0
STYLE
  2
KANJI51
 70
     0
 40
21.0
 41
0.571428571
 50
0.0
 71
     0
 42
21.0
  3

  4
bigfont
  0
STYLE
  2
KANJI52
 70
     0
 40
21.0
 41
0.9
 50
0.0
 71
     0
 42
21.0
  3

  4
bigfont
  0
STYLE
  2
KANJI53
 70
     0
 40
21.0
 41
0.857142857
 50
0.0
 71
     0
 42
21.0
  3

  4
bigfont
  0
STYLE
  2
KANJI54
 70
     0
 40
18.0
 41
0.9
 50
0.0
 71
     0
 42
18.0
  3

  4
bigfont
  0
STYLE
  2
KANJI55
 70
     0
 40
21.0
 41
0.571428571
 50
0.0
 71
     0
 42
21.0
  3

  4
bigfont
  0
STYLE
  2
KANJI56
 70
     0
 40
18.0
 41
0.833333333
 50
0.0
 71
     0
 42
18.0
  3

  4
bigfont
  0
STYLE
  2
KANJI57
 70
     0
 40
16.17
 41
0.9
 50
0.0
 71
     0
 42
16.17
  3

  4
bigfont
  0
STYLE
  2
KANJI58
 70
     0
 40
14.99994
 41
0.9
 50
0.0
 71
     0
 42
14.99994
  3

  4
bigfont
  0
STYLE
  2
KANJI59
 70
     0
 40
15.0
 41
0.9
 50
0.0
 71
     0
 42
15.0
  3

  4
bigfont
  0
STYLE
  2
KANJI60
 70
     0
 40
18.0
 41
0.9
 50
0.0
 71
     0
 42
18.0
  3

  4
bigfont
  0
STYLE
  2
KANJI61
 70
     0
 40
20.0
 41
0.925
 50
0.0
 71
     0
 42
20.0
  3

  4
bigfont
  0
STYLE
  2
KANJI62
 70
     0
 40
20.0
 41
0.925
 50
0.0
 71
     0
 42
20.0
  3

  4
bigfont
  0
STYLE
  2
KANJI63
 70
     0
 40
15.0
 41
0.9
 50
0.0
 71
     0
 42
15.0
  3

  4
bigfont
  0
STYLE
  2
KANJI64
 70
     0
 40
17.5
 41
0.914285714
 50
0.0
 71
     0
 42
17.5
  3

  4
bigfont
  0
STYLE
  2
KANJI65
 70
     0
 40
16.8
 41
0.964285714
 50
0.0
 71
     0
 42
16.8
  3

  4
bigfont
  0
STYLE
  2
KANJI66
 70
     0
 40
16.8
 41
0.821428571
 50
0.0
 71
     0
 42
16.8
  3

  4
bigfont
  0
STYLE
  2
KANJI67
 70
     0
 40
24.0
 41
0.925
 50
0.0
 71
     0
 42
24.0
  3

  4
bigfont
  0
STYLE
  2
KANJI68
 70
     0
 40
12.0
 41
0.9
 50
0.0
 71
     0
 42
12.0
  3

  4
bigfont
  0
STYLE
  2
KANJI69
 70
     0
 40
10.0
 41
0.85
 50
0.0
 71
     0
 42
10.0
  3

  4
bigfont
  0
STYLE
  2
KANJI70
 70
     0
 40
10.0
 41
0.75
 50
0.0
 71
     0
 42
10.0
  3

  4
bigfont
  0
STYLE
  2
KANJI71
 70
     0
 40
14.4
 41
0.833333333
 50
0.0
 71
     0
 42
14.4
  3

  4
bigfont
  0
STYLE
  2
KANJI72
 70
     0
 40
18.0
 41
0.833333333
 50
0.0
 71
     0
 42
18.0
  3

  4
bigfont
  0
STYLE
  2
KANJI73
 70
     0
 40
21.0
 41
0.793650794
 50
0.0
 71
     0
 42
21.0
  3

  4
bigfont
  0
STYLE
  2
KANJI74
 70
     0
 40
30.0
 41
0.8
 50
0.0
 71
     0
 42
30.0
  3

  4
bigfont
  0
STYLE
  2
KANJI75
 70
     0
 40
24.0
 41
0.9
 50
0.0
 71
     0
 42
24.0
  3

  4
bigfont
  0
STYLE
  2
KANJI76
 70
     0
 40
21.0
 41
0.857142857
 50
0.0
 71
     0
 42
21.0
  3

  4
bigfont
  0
STYLE
  2
KANJI77
 70
     0
 40
18.223173404
 41
0.66671875
 50
0.0
 71
     0
 42
18.223173404
  3

  4
bigfont
  0
STYLE
  2
KANJI78
 70
     0
 40
21.6
 41
0.9
 50
0.0
 71
     0
 42
21.6
  3

  4
bigfont
  0
STYLE
  2
KANJI79
 70
     0
 40
12.96
 41
0.9
 50
0.0
 71
     0
 42
12.96
  3

  4
bigfont
  0
STYLE
  2
KANJI80
 70
     0
 40
17.28
 41
0.9
 50
0.0
 71
     0
 42
17.28
  3

  4
bigfont
  0
STYLE
  2
KANJI81
 70
     0
 40
18.72
 41
0.925
 50
0.0
 71
     0
 42
18.72
  3

  4
bigfont
  0
ENDTAB
  0
TABLE
  2
VIEW
 70
     0
  0
ENDTAB
  0
ENDSEC
  0
SECTION
  2
BLOCKS
  0
ENDSEC
  0
SECTION
  2
ENTITIES
  0
POLYLINE
  8
0
  6
CONTINUOUS
 62
     6
 66
     1
  0
VERTEX
  8
0
  6
CONTINUOUS
 62
     6
 10
77.92
 20
82.7
  0
VERTEX
  8
0
  6
CONTINUOUS
 62
     6
 10
77.92
 20
1696.7
  0
VERTEX
  8
0
  6
CONTINUOUS
 62
     6
 10
2399.92
 20
1696.7
  0
SEQEND
  0
LINE
  8
0
  6
CONTINUOUS
 62
     6
 10
83.919998738
 20
172.699981077
 11
473.919916738
 21
172.699981077
  0
LINE
  8
0
  6
CONTINUOUS
 62
     6
 10
83.919998738
 20
88.699998738
 11
473.919916738
 21
88.699998738
  0
LINE
  8
0
  6
CONTINUOUS
 62
     6
 10
83.919998738
 20
88.699998738
 11
83.919998738
 21
172.699981077
  0
LINE
  8
0
  6
CONTINUOUS
 62
     6
 10
83.919998738
 20
130.699989908
 11
473.919916738
 21
130.699989908
  0
LINE
  8
0
  6
CONTINUOUS
 62
     4
 10
9.6199996
 20
87.8999996
 11
72.0199948
 21
87.8999996
  0
LINE
  8
0
  6
CONTINUOUS
 62
     4
 10
9.6199996
 20
119.0999972
 11
72.0199948
 21
119.0999972
  0
LINE
  8
0
  6
CONTINUOUS
 62
     4
 10
9.6199996
 20
150.2999948
 11
72.0199948
 21
150.2999948
  0
LINE
  8
0
  6
CONTINUOUS
 62
     4
 10
9.6199996
 20
181.4999924
 11
72.0199948
 21
181.4999924
  0
LINE
  8
0
  6
CONTINUOUS
 62
     4
 10
9.6199996
 20
212.69999
 11
72.0199948
 21
212.69999
  0
LINE
  8
0
  6
CONTINUOUS
 62
     4
 10
9.6199996
 20
243.8999876
 11
72.0199948
 21
243.8999876
  0
LINE
  8
0
  6
CONTINUOUS
 62
     4
 10
9.6199996
 20
275.0999852
 11
72.0199948
 21
275.0999852
  0
LINE
  8
0
  6
CONTINUOUS
 62
     4
 10
9.6199996
 20
306.2999828
 11
72.0199948
 21
306.2999828
  0
LINE
  8
0
  6
CONTINUOUS
 62
     4
 10
9.6199996
 20
337.4999804
 11
72.0199948
 21
337.4999804
  0
LINE
  8
0
  6
CONTINUOUS
 62
     4
 10
9.6199996
 20
368.699978
 11
72.0199948
 21
368.699978
  0
LINE
  8
0
  6
CONTINUOUS
 62
     4
 10
72.0199948
 20
87.8999996
 11
72.0199948
 21
368.699978
  0
LINE
  8
0
  6
CONTINUOUS
 62
     4
 10
40.8199972
 20
87.8999996
 11
40.8199972
 21
337.4999804
  0
TEXT
  8
0
  6
CONTINUOUS
 62
     4
 10
20.27999878
 20
96.9999989
 30
1.55999988
 40
15.5999988
  1
計
 50
0.0
 41
0.75
 51
0.0
  7
KANJI0
  0
TEXT
  8
0
  6
CONTINUOUS
 62
     4
 10
20.27999878
 20
159.91999406
 30
1.55999988
 40
15.5999988
  1
設
 50
0.0
 41
0.75
 51
0.0
  7
KANJI0
  0
TEXT
  8
0
  6
CONTINUOUS
 62
     4
 10
20.27999878
 20
190.5999917
 30
1.55999988
 40
15.5999988
  1
管
 50
0.0
 41
0.75
 51
0.0
  7
KANJI0
  0
TEXT
  8
0
  6
CONTINUOUS
 62
     4
 10
20.27999878
 20
221.7999893
 30
1.55999988
 40
15.5999988
  1
製
 50
0.0
 41
0.75
 51
0.0
  7
KANJI0
  0
TEXT
  8
0
  6
CONTINUOUS
 62
     4
 10
20.27999878
 20
252.9999869
 30
1.55999988
 40
15.5999988
  1
資
 50
0.0
 41
0.75
 51
0.0
  7
KANJI0
  0
TEXT
  8
0
  6
CONTINUOUS
 62
     4
 10
20.27999878
 20
284.1999845
 30
1.55999988
 40
15.5999988
  1
営
 50
0.0
 41
0.75
 51
0.0
  7
KANJI0
  0
TEXT
  8
0
  6
CONTINUOUS
 62
     4
 10
20.27999878
 20
315.3999821
 30
1.55999988
 40
15.5999988
  1
客
 50
0.0
 41
0.75
 51
0.0
  7
KANJI0
  0
TEXT
  8
0
  6
CONTINUOUS
 62
     4
 10
20.0199988
 20
347.8999796
 30
1.55999988
 40
15.5999988
  1
出　図
 50
0.0
 41
0.75
 51
0.0
  7
KANJI0
  0
LINE
  8
0
  6
CONTINUOUS
 62
     4
 10
9.6199996
 20
87.8999996
 11
9.6199996
 21
368.699978
  0
LINE
  8
0
  6
CONTINUOUS
 62
     6
 10
2399.92
 20
82.7
 11
77.92
 21
82.7
  0
TEXT
  8
0
  6
CONTINUOUS
 62
     4
 10
95.919996215
 20
112.699993692
 30
1.199999748
 40
11.999997477
  1
ＰＡＲＴＳ　ＬＩＳＴ
 50
0.0
 41
0.6
 51
0.0
  7
KANJI1
  0
TEXT
  8
0
  6
CONTINUOUS
 62
     4
 10
95.919996215
 20
94.699997477
 30
1.439999697
 40
14.399996972
  1
部品表
 50
0.0
 41
0.9
 51
0.0
  7
KANJI2
  0
TEXT
  8
0
  6
CONTINUOUS
 62
     3
 10
95.919996215
 20
142.699987385
 30
1.799999622
 40
17.999996215
  1
ＰＬ
 50
0.0
 41
0.9
 51
0.0
  7
KANJI3
  0
TEXT
  8
0
  6
CONTINUOUS
 62
     4
 10
365.919939446
 20
112.699993692
 30
1.199999748
 40
11.999997477
  1
Ｎ０．
 50
0.0
 41
0.6
 51
0.0
  7
KANJI1
  0
TEXT
  8
0
  6
CONTINUOUS
 62
     4
 10
365.919939446
 20
94.699997477
 30
1.439999697
 40
14.399996972
  1
項番
 50
0.0
 41
0.9
 51
0.0
  7
KANJI2
  0
LINE
  8
0
  6
CONTINUOUS
 62
     6
 10
473.919916738
 20
88.699998738
 11
473.919916738
 21
172.699981077
  0
LINE
  8
0
  6
CONTINUOUS
 62
     6
 10
353.919941969
 20
88.699998738
 11
353.919941969
 21
172.699981077
  0
LINE
  8
0
  6
CONTINUOUS
 62
     6
 10
2399.92
 20
1696.7
 11
2399.92
 21
82.7
  0
LINE
  8
0
  6
CONTINUOUS
 62
     6
 10
1593.920062
 20
87.8999996
 11
1593.920062
 21
420.699974
  0
LINE
  8
0
  6
CONTINUOUS
 62
     6
 10
2394.7200004
 20
87.8999996
 11
2394.7200004
 21
420.699974
  0
LINE
  8
0
  6
CONTINUOUS
 62
     4
 10
1783.7200474
 20
87.8999996
 11
1783.7200474
 21
420.699974
  0
LINE
  8
0
  6
CONTINUOUS
 62
     4
 10
1593.920062
 20
129.4999964
 11
1783.7200474
 21
129.4999964
  0
TEXT
  8
0
  6
CONTINUOUS
 62
     4
 10
1604.3200612
 20
111.2999978
 30
1.03999992
 40
10.3999992
  1
ＳＣＡＬＥ
 50
0.0
 41
0.6
 51
0.0
  7
KANJI4
  0
TEXT
  8
0
  6
CONTINUOUS
 62
     4
 10
1604.3200612
 20
95.699999
 30
1.247999904
 40
12.47999904
  1
尺度
 50
0.0
 41
0.6
 51
0.0
  7
KANJI5
  0
LINE
  8
0
  6
CONTINUOUS
 62
     6
 10
1183.1200936
 20
129.4999964
 11
1593.920062
 21
129.4999964
  0
LINE
  8
0
  6
CONTINUOUS
 62
     6
 10
1183.1200936
 20
87.8999996
 11
2394.7200004
 21
87.8999996
  0
TEXT
  8
0
  6
CONTINUOUS
 62
     6
 10
1788.920047
 20
111.2999978
 30
0.0
 40
18.1999986
  1
ＵＮＩＴＥＣ　ＩＮＤＵＳＴＲＹ　ＣＯ．，ＬＴＤ．
 50
0.0
 41
0.42031746
 51
0.0
  7
KANJI6
  0
TEXT
  8
0
  6
CONTINUOUS
 62
     6
 10
2044.175027365
 20
104.53999832
 30
3.11999976
 40
31.1999976
  1
ユニテック工業株式会社
 50
0.0
 41
0.9
 51
0.0
  7
KANJI7
  0
LINE
  8
0
  6
CONTINUOUS
 62
     6
 10
2002.575030565
 20
115.45999748
 11
1988.847031621
 21
115.45999748
  0
LINE
  8
0
  6
CONTINUOUS
 62
     6
 10
2002.575030565
 20
117.955997288
 11
1988.847031621
 21
117.955997288
  0
LINE
  8
0
  6
CONTINUOUS
 62
     6
 10
2002.575030565
 20
115.45999748
 11
2016.303029509
 21
115.45999748
  0
LINE
  8
0
  6
CONTINUOUS
 62
     6
 10
2002.575030565
 20
117.955997288
 11
2016.303029509
 21
117.955997288
  0
LINE
  8
0
  6
CONTINUOUS
 62
     6
 10
2016.303029509
 20
117.955997288
 11
2016.303029509
 21
115.45999748
  0
ARC
  8
0
  6
CONTINUOUS
 62
     6
 10
2019.423029269
 20
116.707997384
 40
12.47999904
 50
185.739170477
 51
90.0
  0
ARC
  8
0
  6
CONTINUOUS
 62
     6
 10
2019.423029269
 20
116.707997384
 40
14.975998848
 50
184.780191847
 51
90.0
  0
LINE
  8
0
  6
CONTINUOUS
 62
     6
 10
1988.847031621
 20
115.45999748
 11
1988.847031621
 21
117.955997288
  0
ARC
  8
0
  6
CONTINUOUS
 62
     6
 10
1985.727031861
 20
116.707997384
 40
12.47999904
 50
90.0
 51
354.260829523
  0
ARC
  8
0
  6
CONTINUOUS
 62
     6
 10
1985.727031861
 20
116.707997384
 40
14.975998848
 50
90.0
 51
355.219808153
  0
LINE
  8
0
  6
CONTINUOUS
 62
     6
 10
2000.703030709
 20
131.683996232
 11
2000.703030709
 21
129.187996424
  0
LINE
  8
0
  6
CONTINUOUS
 62
     6
 10
1985.727031861
 20
129.187996424
 11
2000.703030709
 21
129.187996424
  0
LINE
  8
0
  6
CONTINUOUS
 62
     6
 10
2004.447030421
 20
131.683996232
 11
2004.447030421
 21
129.187996424
  0
LINE
  8
0
  6
CONTINUOUS
 62
     6
 10
2019.423029269
 20
129.187996424
 11
2004.447030421
 21
129.187996424
  0
TEXT
  8
0
  6
CONTINUOUS
 62
     4
 10
1315.7200834
 20
111.2999978
 30
1.03999992
 40
10.3999992
  1
ＢＹ
 50
0.0
 41
0.6
 51
0.0
  7
KANJI4
  0
TEXT
  8
0
  6
CONTINUOUS
 62
     4
 10
1430.1200746
 20
111.2999978
 30
1.03999992
 40
10.3999992
  1
ＤＥＳＣＲＩＰＴＩＯＮ
 50
0.0
 41
0.6
 51
0.0
  7
KANJI4
  0
TEXT
  8
0
  6
CONTINUOUS
 62
     4
 10
1315.7200834
 20
95.699999
 30
1.247999904
 40
12.47999904
  1
担当
 50
0.0
 41
0.6
 51
0.0
  7
KANJI5
  0
TEXT
  8
0
  6
CONTINUOUS
 62
     4
 10
1445.7200734
 20
95.699999
 30
1.247999904
 40
12.47999904
  1
記　　　　事
 50
0.0
 41
0.6
 51
0.0
  7
KANJI5
  0
LINE
  8
0
  6
CONTINUOUS
 62
     4
 10
1205.2200919
 20
121.699997
 11
1188.3200932
 21
95.699999
  0
TEXT
  8
0
  6
CONTINUOUS
 62
     4
 10
1248.1200886
 20
111.2999978
 30
1.03999992
 40
10.3999992
  1
ＤＡＴＥ
 50
0.0
 41
0.6
 51
0.0
  7
KANJI4
  0
TEXT
  8
0
  6
CONTINUOUS
 62
     4
 10
1255.920088
 20
95.699999
 30
1.247999904
 40
12.47999904
  1
日付
 50
0.0
 41
0.6
 51
0.0
  7
KANJI5
  0
LINE
  8
0
  6
CONTINUOUS
 62
     4
 10
1188.3200932
 20
95.699999
 11
1222.1200906
 21
95.699999
  0
LINE
  8
0
  6
CONTINUOUS
 62
     4
 10
1205.2200919
 20
121.699997
 11
1222.1200906
 21
95.699999
  0
LINE
  8
0
  6
CONTINUOUS
 62
     6
 10
1183.1200936
 20
87.8999996
 11
1183.1200936
 21
129.4999964
  0
LINE
  8
0
  6
CONTINUOUS
 62
     4
 10
1227.3200902
 20
87.8999996
 11
1227.3200902
 21
129.4999964
  0
LINE
  8
0
  6
CONTINUOUS
 62
     4
 10
1300.1200846
 20
87.8999996
 11
1300.1200846
 21
129.4999964
  0
LINE
  8
0
  6
CONTINUOUS
 62
     4
 10
1346.920081
 20
87.8999996
 11
1346.920081
 21
129.4999964
  0
TEXT
  8
0
  6
CONTINUOUS
 62
     4
 10
1604.3200612
 20
319.2999818
 30
1.03999992
 40
10.3999992
  1
ＣＯＤＥ
 50
0.0
 41
0.6
 51
0.0
  7
KANJI4
  0
LINE
  8
0
  6
CONTINUOUS
 62
     4
 10
1593.920062
 20
337.4999804
 11
2394.7200004
 21
337.4999804
  0
TEXT
  8
0
  6
CONTINUOUS
 62
     4
 10
1604.3200612
 20
303.699983
 30
1.247999904
 40
12.47999904
  1
分類
 50
0.0
 41
0.6
 51
0.0
  7
KANJI5
  0
TEXT
  8
0
  6
CONTINUOUS
 62
     4
 10
1612.42
 20
343.7
 30
6.0
 40
21.6
  1
ご注文主
 50
0.0
 41
1.111111111
 51
0.0
  7
KANJI8
  0
TEXT
  8
0
  6
CONTINUOUS
 62
     4
 10
1604.3200612
 20
194.4999914
 30
1.03999992
 40
10.3999992
  1
ＤＲＡＷＮ
 50
0.0
 41
0.6
 51
0.0
  7
KANJI4
  0
TEXT
  8
0
  6
CONTINUOUS
 62
     4
 10
1604.3200612
 20
236.0999882
 30
1.03999992
 40
10.3999992
  1
ＤＥＳＩＧＮ
 50
0.0
 41
0.6
 51
0.0
  7
KANJI4
  0
TEXT
  8
0
  6
CONTINUOUS
 62
     4
 10
1604.3200612
 20
277.699985
 30
1.03999992
 40
10.3999992
  1
ＣＨＥＣＫ
 50
0.0
 41
0.6
 51
0.0
  7
KANJI4
  0
LINE
  8
0
  6
CONTINUOUS
 62
     4
 10
1593.920062
 20
254.2999868
 11
1783.7200474
 21
254.2999868
  0
LINE
  8
0
  6
CONTINUOUS
 62
     4
 10
1593.920062
 20
212.69999
 11
1783.7200474
 21
212.69999
  0
LINE
  8
0
  6
CONTINUOUS
 62
     4
 10
1593.920062
 20
295.8999836
 11
1783.7200474
 21
295.8999836
  0
TEXT
  8
0
  6
CONTINUOUS
 62
     4
 10
1604.3200612
 20
220.4999894
 30
1.247999904
 40
12.47999904
  1
設計
 50
0.0
 41
0.6
 51
0.0
  7
KANJI5
  0
TEXT
  8
0
  6
CONTINUOUS
 62
     4
 10
1604.3200612
 20
262.0999862
 30
1.247999904
 40
12.47999904
  1
検図
 50
0.0
 41
0.6
 51
0.0
  7
KANJI5
  0
LINE
  8
0
  6
CONTINUOUS
 62
     4
 10
1799.06004622
 20
295.8999836
 11
2394.7200004
 21
295.8999836
  0
LINE
  8
0
  6
CONTINUOUS
 62
     4
 10
1783.7200474
 20
212.69999
 11
2394.7200004
 21
212.69999
  0
TEXT
  8
0
  6
CONTINUOUS
 62
     4
 10
1794.1200466
 20
194.4999914
 30
1.03999992
 40
10.3999992
  1
ＤＲＡＷＩＮＧ　ＮＯ．
 50
0.0
 41
0.8
 51
0.0
  7
KANJI9
  0
TEXT
  8
0
  6
CONTINUOUS
 62
     4
 10
1794.1200466
 20
236.0999882
 30
1.03999992
 40
10.3999992
  1
ＭＦＧ　ＮＯ．
 50
0.0
 41
0.8
 51
0.0
  7
KANJI9
  0
TEXT
  8
0
  6
CONTINUOUS
 62
     4
 10
1794.1200466
 20
277.699985
 30
1.03999992
 40
10.3999992
  1
ＴＹＰＥ
 50
0.0
 41
0.8
 51
0.0
  7
KANJI9
  0
LINE
  8
0
  6
CONTINUOUS
 62
     4
 10
1799.3200462
 20
254.2999868
 11
2038.5200278
 21
254.2999868
  0
TEXT
  8
0
  6
CONTINUOUS
 62
     4
 10
1794.1200466
 20
176.2999928
 30
1.247999904
 40
12.47999904
  1
図　面　番　号
 50
0.0
 41
0.8
 51
0.0
  7
KANJI10
  0
TEXT
  8
0
  6
CONTINUOUS
 62
     4
 10
1794.1200466
 20
217.8999896
 30
1.247999904
 40
12.47999904
  1
製番
 50
0.0
 41
0.8
 51
0.0
  7
KANJI10
  0
TEXT
  8
0
  6
CONTINUOUS
 62
     4
 10
1794.1200466
 20
259.4999864
 30
1.247999904
 40
12.47999904
  1
機種
 50
0.0
 41
0.8
 51
0.0
  7
KANJI10
  0
LINE
  8
0
  6
CONTINUOUS
 62
     4
 10
1593.920062
 20
171.0999932
 11
1783.7200474
 21
171.0999932
  0
TEXT
  8
0
  6
CONTINUOUS
 62
     4
 10
1604.3200612
 20
152.8999946
 30
1.03999992
 40
10.3999992
  1
ＤＡＴＥ
 50
0.0
 41
0.6
 51
0.0
  7
KANJI4
  0
TEXT
  8
0
  6
CONTINUOUS
 62
     4
 10
1604.3200612
 20
137.2999958
 30
1.247999904
 40
12.47999904
  1
日付
 50
0.0
 41
0.6
 51
0.0
  7
KANJI5
  0
TEXT
  8
0
  6
CONTINUOUS
 62
     4
 10
1604.3200612
 20
178.8999926
 30
1.247999904
 40
12.47999904
  1
作図
 50
0.0
 41
0.6
 51
0.0
  7
KANJI5
  0
LINE
  8
0
  6
CONTINUOUS
 62
     4
 10
1783.7200474
 20
152.8999946
 11
2394.7200004
 21
152.8999946
  0
LINE
  8
0
  6
LTYPE1
 62
     4
 10
2220.5200138
 20
160.699994
 11
2220.5200138
 21
202.2999908
  0
LINE
  8
0
  6
LTYPE1
 62
     4
 10
2184.1200166
 20
160.699994
 11
2184.1200166
 21
202.2999908
  0
LINE
  8
0
  6
LTYPE1
 62
     4
 10
2147.7200194
 20
160.699994
 11
2147.7200194
 21
202.2999908
  0
LINE
  8
0
  6
LTYPE1
 62
     4
 10
2111.3200222
 20
160.699994
 11
2111.3200222
 21
202.2999908
  0
LINE
  8
0
  6
LTYPE1
 62
     4
 10
2074.920025
 20
160.699994
 11
2074.920025
 21
202.2999908
  0
LINE
  8
0
  6
LTYPE1
 62
     4
 10
2038.5200278
 20
160.699994
 11
2038.5200278
 21
202.2999908
  0
LINE
  8
0
  6
LTYPE1
 62
     4
 10
2002.1200306
 20
160.699994
 11
2002.1200306
 21
202.2999908
  0
LINE
  8
0
  6
LTYPE1
 62
     4
 10
1965.7200334
 20
160.699994
 11
1965.7200334
 21
202.2999908
  0
LINE
  8
0
  6
LTYPE1
 62
     4
 10
1965.7200334
 20
202.2999908
 11
2220.5200138
 21
202.2999908
  0
LINE
  8
0
  6
LTYPE1
 62
     4
 10
1965.7200334
 20
160.699994
 11
2220.5200138
 21
160.699994
  0
LINE
  8
0
  6
CONTINUOUS
 62
     4
 10
2241.3200122
 20
182.7999923
 11
2251.7200114
 21
182.7999923
  0
LINE
  8
0
  6
CONTINUOUS
 62
     4
 10
2306.3200072
 20
167.1999935
 11
2269.92001
 21
167.1999935
  0
LINE
  8
0
  6
CONTINUOUS
 62
     4
 10
2269.92001
 20
167.1999935
 11
2288.1200086
 21
198.3999911
  0
LINE
  8
0
  6
CONTINUOUS
 62
     4
 10
2288.1200086
 20
198.3999911
 11
2306.3200072
 21
167.1999935
  0
TEXT
  8
0
  6
CONTINUOUS
 62
     4
 10
2054.1200266
 20
277.699985
 30
1.03999992
 40
10.3999992
  1
ＴＩＴＬＥ
 50
0.0
 41
0.8
 51
0.0
  7
KANJI9
  0
TEXT
  8
0
  6
CONTINUOUS
 62
     4
 10
2054.1200266
 20
259.4999864
 30
1.247999904
 40
12.47999904
  1
名称
 50
0.0
 41
0.8
 51
0.0
  7
KANJI10
  0
TEXT
  8
0
  6
CONTINUOUS
 62
     2
 10
2138.92
 20
220.7
 30
15.0
 40
30.0
  1
外形寸法図
 50
0.0
 41
1.0
 51
0.0
  7
KANJI11
  0
TEXT
  8
0
  6
CONTINUOUS
 62
     2
 10
2102.92
 20
256.7
 30
4.285714286
 40
30.0
  1
マイティシリンダ
 50
0.0
 41
1.0
 51
0.0
  7
KANJI12
  0
TEXT
  8
0
  6
CONTINUOUS
 62
     2
 10
1934.2200334
 20
166.699994
 30
1.8
 40
30.0
  1
Ａ
 50
0.0
 41
0.8
 51
0.0
  7
KANJI13
  0
CIRCLE
  8
0
  6
CONTINUOUS
 62
     2
 10
1895.2200334
 20
231.199994
 40
15.0
  0
TEXT
  8
0
  6
CONTINUOUS
 62
     2
 10
1883.9700334
 20
219.949994
 30
1.8
 40
24.0
  1
Ｓ
 50
0.0
 41
1.0
 51
0.0
  7
KANJI14
  0
LINE
  8
0
  6
CONTINUOUS
 62
     6
 10
2000.703030709
 20
131.683996232
 11
1985.727031861
 21
131.683996232
  0
LINE
  8
0
  6
CONTINUOUS
 62
     6
 10
2004.447030421
 20
131.683996232
 11
2019.423029269
 21
131.683996232
  0
TEXT
  8
0
  6
CONTINUOUS
 62
     2
 10
1660.9200334
 20
181.699994
 30
6.0
 40
21.0
  1
岡田
 50
0.0
 41
0.857142857
 51
0.0
  7
KANJI15
  0
LINE
  8
0
  6
CONTINUOUS
 62
     4
 10
2394.7200004
 20
379.0999772
 11
2394.7200004
 21
420.699974
  0
LINE
  8
0
  6
CONTINUOUS
 62
     6
 10
1594.670062
 20
379.0999772
 11
2395.4700004
 21
379.0999772
  0
LINE
  8
0
  6
CONTINUOUS
 62
     6
 10
1593.920062
 20
420.699974
 11
2394.7200004
 21
420.699974
  0
TEXT
  8
0
  6
CONTINUOUS
 62
     4
 10
1612.42
 20
385.2999968
 30
6.0
 40
21.6
  1
ご用途
 50
0.0
 41
1.111111111
 51
0.0
  7
KANJI8
  0
TEXT
  8
0
  6
CONTINUOUS
 62
     2
 10
1703.92
 20
94.7
 30
1.8
 40
27.0
  1
１／６
 50
0.0
 41
0.666666667
 51
0.0
  7
KANJI16
  0
LINE
  8
0
  6
CONTINUOUS
 62
     6
 10
351.629425053
 20
1642.447759827
 11
119.584646507
 21
1642.447759827
  0
LINE
  8
0
  6
CONTINUOUS
 62
     3
 10
351.629425053
 20
1614.985259827
 11
119.584646507
 21
1614.985259827
  0
LINE
  8
0
  6
CONTINUOUS
 62
     6
 10
351.629425053
 20
1614.985259827
 11
119.584646507
 21
1614.985259827
  0
TEXT
  8
0
  6
CONTINUOUS
 62
     6
 10
377.212228
 20
1639.900410728
 30
1.232517
 40
13.182
  1
電気定格　　　
 50
0.0
 41
0.85
 51
0.0
  7
KANJI17
  0
TEXT
  8
0
  6
CONTINUOUS
 62
     6
 10
123.493517202
 20
1645.64592676
 30
1.0647
 40
11.661
  1
ＬＳ０１　　　：推力リミッタ（前進時過負荷用）
 50
0.0
 41
0.822608696
 51
0.0
  7
KANJI18
  0
TEXT
  8
0
  6
CONTINUOUS
 62
     6
 10
123.493517202
 20
1618.18342676
 30
1.0647
 40
11.661
  1
ＬＳ０２　　　：推力リミッタ（後進時過負荷用）
 50
0.0
 41
0.822608696
 51
0.0
  7
KANJI18
  0
TEXT
  8
0
  6
CONTINUOUS
 62
     6
 10
390.013715102
 20
1609.326958599
 30
0.0
 40
11.8638
  1
ＤＣ１２５Ｖ　０．６Ａ　，ＤＣ２５０Ｖ　０．３Ａ　
 50
0.0
 41
0.726495726
 51
0.0
  7
KANJI19
  0
LINE
  8
0
  6
LTYPE2
 62
     6
 10
650.02
 20
1669.9
 11
101.62
 21
1669.9
  0
TEXT
  8
0
  6
CONTINUOUS
 62
     6
 10
384.757132178
 20
1657.661726126
 30
0.0
 40
45.0
  1
｝
 50
0.0
 41
0.538166667
 51
0.0
  7
KANJI20
  0
TEXT
  8
0
  6
CONTINUOUS
 62
     6
 10
314.632791539
 20
1428.92382165
 30
0.0
 40
17.740702234
  1
端子台　接続図
 50
0.0
 41
0.880962996
 51
0.0
  7
KANJI21
  0
LINE
  8
0
  6
LTYPE2
 62
     6
 10
650.02
 20
1410.9
 11
650.02
 21
1669.9
  0
LINE
  8
0
  6
LTYPE2
 62
     6
 10
101.62
 20
1410.9
 11
650.02
 21
1410.9
  0
LINE
  8
0
  6
LTYPE2
 62
     6
 10
101.62
 20
1669.9
 11
101.62
 21
1410.9
  0
LINE
  8
0
  6
CONTINUOUS
 62
     2
 10
349.597373465
 20
1479.928121884
 11
349.597373465
 21
1457.149155128
  0
LINE
  8
0
  6
CONTINUOUS
 62
     2
 10
376.17283468
 20
1479.928121884
 11
376.17283468
 21
1457.149155128
  0
LINE
  8
0
  6
CONTINUOUS
 62
     2
 10
402.748295894
 20
1479.928121884
 11
402.748295894
 21
1457.149155128
  0
LINE
  8
0
  6
CONTINUOUS
 62
     2
 10
429.323757109
 20
1479.928121884
 11
429.323757109
 21
1457.149155128
  0
CIRCLE
  8
0
  6
CONTINUOUS
 62
     6
 10
421.404269667
 20
1503.407921517
 40
4.100214016
  0
LINE
  8
0
  6
CONTINUOUS
 62
     6
 10
417.304055651
 20
1503.407921517
 11
416.036026502
 21
1503.407921517
  0
LINE
  8
0
  6
CONTINUOUS
 62
     6
 10
442.358027433
 20
1517.094562742
 11
438.443558096
 21
1494.759507138
  0
LINE
  8
0
  6
CONTINUOUS
 62
     6
 10
437.631699663
 20
1517.882284037
 11
433.716922494
 21
1495.547279739
  0
LINE
  8
0
  6
CONTINUOUS
 62
     6
 10
438.443558096
 20
1494.759507138
 11
433.716922494
 21
1495.547279739
  0
CIRCLE
  8
0
  6
CONTINUOUS
 62
     6
 10
442.611487717
 20
1493.939464335
 40
4.100214016
  0
LINE
  8
0
  6
CONTINUOUS
 62
     6
 10
442.611487717
 20
1489.839250319
 11
442.611487717
 21
1479.928121884
  0
LINE
  8
0
  6
CONTINUOUS
 62
     6
 10
416.036026502
 20
1503.407921517
 11
416.036026502
 21
1479.928121884
  0
LINE
  8
0
  6
CONTINUOUS
 62
     6
 10
389.460565287
 20
1479.928121884
 11
389.460565287
 21
1533.633332504
  0
LINE
  8
0
  6
CONTINUOUS
 62
     6
 10
309.987641926
 20
1517.094562742
 11
313.902111263
 21
1494.759507138
  0
LINE
  8
0
  6
CONTINUOUS
 62
     6
 10
314.713969696
 20
1517.882284037
 11
318.628746865
 21
1495.547279739
  0
LINE
  8
0
  6
CONTINUOUS
 62
     6
 10
313.902111263
 20
1494.759507138
 11
318.628746865
 21
1495.547279739
  0
CIRCLE
  8
0
  6
CONTINUOUS
 62
     6
 10
309.734181642
 20
1493.939464335
 40
4.100214016
  0
CIRCLE
  8
0
  6
CONTINUOUS
 62
     6
 10
330.941399692
 20
1503.407921517
 40
4.100214016
  0
LINE
  8
0
  6
CONTINUOUS
 62
     6
 10
335.041613708
 20
1503.407921517
 11
336.309642857
 21
1503.407921517
  0
LINE
  8
0
  6
CONTINUOUS
 62
     6
 10
309.734181642
 20
1489.839250319
 11
309.734181642
 21
1479.928121884
  0
LINE
  8
0
  6
CONTINUOUS
 62
     6
 10
336.309642857
 20
1503.407921517
 11
336.309642857
 21
1479.928121884
  0
LINE
  8
0
  6
CONTINUOUS
 62
     6
 10
362.885104072
 20
1479.928121884
 11
362.885104072
 21
1533.633332504
  0
LINE
  8
0
  6
CONTINUOUS
 62
     2
 10
455.899218324
 20
1479.928121884
 11
455.899218324
 21
1457.149155128
  0
LINE
  8
0
  6
CONTINUOUS
 62
     2
 10
296.446451035
 20
1479.928121884
 11
296.446451035
 21
1457.149155128
  0
LINE
  8
0
  6
CONTINUOUS
 62
     2
 10
323.02191225
 20
1479.928121884
 11
323.02191225
 21
1457.149155128
  0
LINE
  8
0
  6
CONTINUOUS
 62
     6
 10
442.611487717
 20
1533.633332504
 11
389.460565287
 21
1533.633332504
  0
CIRCLE
  8
0
  6
CONTINUOUS
 62
     6
 10
442.611487717
 20
1521.28941042
 40
4.100214016
  0
LINE
  8
0
  6
CONTINUOUS
 62
     6
 10
442.358027433
 20
1517.094562742
 11
437.631699663
 21
1517.882284037
  0
LINE
  8
0
  6
CONTINUOUS
 62
     6
 10
442.611487717
 20
1525.389624436
 11
442.611487717
 21
1533.633332504
  0
CIRCLE
  8
0
  6
CONTINUOUS
 62
     6
 10
309.734181642
 20
1521.28941042
 40
4.100214016
  0
LINE
  8
0
  6
CONTINUOUS
 62
     6
 10
309.987641926
 20
1517.094562742
 11
314.713969696
 21
1517.882284037
  0
LINE
  8
0
  6
CONTINUOUS
 62
     6
 10
309.734181642
 20
1525.389624436
 11
309.734181642
 21
1533.633332504
  0
LINE
  8
0
  6
CONTINUOUS
 62
     6
 10
362.885104072
 20
1533.633332504
 11
309.734181642
 21
1533.633332504
  0
TEXT
  8
0
  6
CONTINUOUS
 62
     6
 10
314.4972152
 20
1538.152473273
 30
0.819
 40
11.7
  1
ＬＳ０１
 50
0.0
 41
0.8
 51
0.0
  7
KANJI22
  0
TEXT
  8
0
  6
CONTINUOUS
 62
     6
 10
397.117398844
 20
1538.152473273
 30
0.819
 40
11.7
  1
ＬＳ０２
 50
0.0
 41
0.8
 51
0.0
  7
KANJI22
  0
TEXT
  8
0
  6
CONTINUOUS
 62
     3
 10
142.308775989
 20
1460.945649587
 30
0.0
 40
15.0
  1
　　　　　　　　　　　　　　　　　　１　　２　　　３　　　４　　　５　　　６
 50
0.0
 41
0.911
 51
0.0
  7
KANJI23
  0
LINE
  8
0
  6
CONTINUOUS
 62
     2
 10
296.446451035
 20
1479.928121884
 11
455.899218324
 21
1479.928121884
  0
LINE
  8
0
  6
CONTINUOUS
 62
     2
 10
296.446451035
 20
1457.149155128
 11
455.899218324
 21
1457.149155128
  0
TEXT
  8
0
  6
CONTINUOUS
 62
     6
 10
288.132791539
 20
1567.92382165
 30
0.0
 40
17.740702234
  1
推力リミッタ端子台配列
 50
0.0
 41
0.880962996
 51
0.0
  7
KANJI21
  0
TEXT
  8
0
  6
CONTINUOUS
 62
     6
 10
390.013715102
 20
1625.071931782
 30
0.0
 40
11.8638
  1
ＡＣ１００Ｖ　１２５Ｖ　２５０Ｖ　－１０Ａ
 50
0.0
 41
0.726495726
 51
0.0
  7
KANJI19
  0
LINE
  8
0
  6
CONTINUOUS
 62
     1
 10
1009.12
 20
1502.24
 11
1786.72
 21
1502.24
  0
LINE
  8
0
  6
CONTINUOUS
 62
     1
 10
1009.12
 20
1468.64
 11
1786.72
 21
1468.64
  0
TEXT
  8
0
  6
CONTINUOUS
 62
     2
 10
1057.12
 20
1478.24
 30
1.536
 40
15.36
  1
形
 50
0.0
 41
0.9
 51
0.0
  7
KANJI24
  0
TEXT
  8
0
  6
CONTINUOUS
 62
     2
 10
1150.72
 20
1478.24
 30
1.536
 40
15.36
  1
式
 50
0.0
 41
0.9
 51
0.0
  7
KANJI24
  0
TEXT
  8
0
  6
CONTINUOUS
 62
     2
 10
1223.2
 20
1477.28
 30
1.44
 40
14.4
  1
ストローク
 50
0.0
 41
0.9
 51
0.0
  7
KANJI25
  0
TEXT
  8
0
  6
CONTINUOUS
 62
     2
 10
1315.36
 20
1476.32
 30
0.0
 40
14.4
  1
ｍｉｎ　
 50
0.0
 41
0.9
 51
0.0
  7
KANJI26
  0
TEXT
  8
0
  6
CONTINUOUS
 62
     2
 10
1411.36
 20
1476.32
 30
0.0
 40
14.4
  1
ｍｉｎ　
 50
0.0
 41
0.9
 51
0.0
  7
KANJI26
  0
TEXT
  8
0
  6
CONTINUOUS
 62
     2
 10
1603.36
 20
1476.32
 30
0.0
 40
14.4
  1
ｍｉｎ　
 50
0.0
 41
0.9
 51
0.0
  7
KANJI26
  0
TEXT
  8
0
  6
CONTINUOUS
 62
     2
 10
1364.32
 20
1477.28
 30
1.68
 40
16.8
  1
ＡＬ
 50
0.0
 41
0.9
 51
0.0
  7
KANJI27
  0
TEXT
  8
0
  6
CONTINUOUS
 62
     2
 10
1460.32
 20
1477.28
 30
1.68
 40
16.8
  1
Ｌ
 50
0.0
 41
0.9
 51
0.0
  7
KANJI27
  0
TEXT
  8
0
  6
CONTINUOUS
 62
     2
 10
1541.92
 20
1477.28
 30
1.68
 40
16.8
  1
Ｃ
 50
0.0
 41
0.9
 51
0.0
  7
KANJI27
  0
TEXT
  8
0
  6
CONTINUOUS
 62
     2
 10
1652.32
 20
1477.28
 30
1.68
 40
16.8
  1
Ｐ
 50
0.0
 41
0.9
 51
0.0
  7
KANJI27
  0
TEXT
  8
0
  6
CONTINUOUS
 62
     2
 10
1751.08
 20
1476.92
 30
0.0
 40
12.96
  1
（ｋｇ）
 50
0.0
 41
0.740740741
 51
0.0
  7
KANJI28
  0
TEXT
  8
0
  6
CONTINUOUS
 62
     2
 10
1693.48
 20
1476.68
 30
1.44
 40
16.8
  1
概算重量
 50
0.0
 41
0.857142857
 51
0.0
  7
KANJI29
  0
TEXT
  8
0
  6
CONTINUOUS
 62
     2
 10
1232.32
 20
1443.08
 30
1.44
 40
14.4
  1
　２００
 50
0.0
 41
0.9
 51
0.0
  7
KANJI25
  0
TEXT
  8
0
  6
CONTINUOUS
 62
     2
 10
1232.32
 20
1409.48
 30
1.44
 40
14.4
  1
　３００
 50
0.0
 41
0.9
 51
0.0
  7
KANJI25
  0
TEXT
  8
0
  6
CONTINUOUS
 62
     2
 10
1232.32
 20
1275.08
 30
1.44
 40
14.4
  1
　７００
 50
0.0
 41
0.9
 51
0.0
  7
KANJI25
  0
TEXT
  8
0
  6
CONTINUOUS
 62
     2
 10
1232.32
 20
1342.28
 30
1.44
 40
14.4
  1
　５００
 50
0.0
 41
0.9
 51
0.0
  7
KANJI25
  0
TEXT
  8
0
  6
CONTINUOUS
 62
     2
 10
1232.32
 20
1375.88
 30
1.44
 40
14.4
  1
　４００
 50
0.0
 41
0.9
 51
0.0
  7
KANJI25
  0
TEXT
  8
0
  6
CONTINUOUS
 62
     2
 10
1232.32
 20
1308.68
 30
1.44
 40
14.4
  1
　６００
 50
0.0
 41
0.9
 51
0.0
  7
KANJI25
  0
TEXT
  8
0
  6
CONTINUOUS
 62
     2
 10
1232.32
 20
1241.48
 30
1.44
 40
14.4
  1
　８００
 50
0.0
 41
0.9
 51
0.0
  7
KANJI25
  0
LINE
  8
0
  6
CONTINUOUS
 62
     1
 10
1009.12
 20
1066.04
 11
1786.72
 21
1066.04
  0
LINE
  8
0
  6
CONTINUOUS
 62
     1
 10
1009.12
 20
1502.24
 11
1009.12
 21
1066.04
  0
LINE
  8
0
  6
CONTINUOUS
 62
     1
 10
1210.72
 20
1502.24
 11
1210.72
 21
1066.04
  0
LINE
  8
0
  6
CONTINUOUS
 62
     2
 10
1306.72
 20
1502.24
 11
1306.72
 21
1066.04
  0
LINE
  8
0
  6
CONTINUOUS
 62
     2
 10
1402.72
 20
1502.24
 11
1402.72
 21
1066.04
  0
LINE
  8
0
  6
CONTINUOUS
 62
     2
 10
1498.72
 20
1502.24
 11
1498.72
 21
1066.04
  0
LINE
  8
0
  6
CONTINUOUS
 62
     2
 10
1594.72
 20
1502.24
 11
1594.72
 21
1066.04
  0
LINE
  8
0
  6
CONTINUOUS
 62
     2
 10
1690.72
 20
1502.24
 11
1690.72
 21
1066.04
  0
LINE
  8
0
  6
CONTINUOUS
 62
     1
 10
1786.72
 20
1502.24
 11
1786.72
 21
1066.04
  0
TEXT
  8
0
  6
CONTINUOUS
 62
     2
 10
1232.32
 20
1174.28
 30
1.44
 40
14.4
  1
１０００
 50
0.0
 41
0.9
 51
0.0
  7
KANJI25
  0
TEXT
  8
0
  6
CONTINUOUS
 62
     2
 10
1232.32
 20
1207.88
 30
1.44
 40
14.4
  1
　９００
 50
0.0
 41
0.9
 51
0.0
  7
KANJI25
  0
TEXT
  8
0
  6
CONTINUOUS
 62
     2
 10
1232.32
 20
1140.88
 30
1.44
 40
14.4
  1
１１００
 50
0.0
 41
0.9
 51
0.0
  7
KANJI25
  0
TEXT
  8
0
  6
CONTINUOUS
 62
     2
 10
1232.32
 20
1107.28
 30
1.44
 40
14.4
  1
１２００
 50
0.0
 41
0.9
 51
0.0
  7
KANJI25
  0
LINE
  8
0
  6
CONTINUOUS
 62
     2
 10
1009.12
 20
1435.04
 11
1786.72
 21
1435.04
  0
LINE
  8
0
  6
CONTINUOUS
 62
     2
 10
1009.12
 20
1401.44
 11
1786.72
 21
1401.44
  0
LINE
  8
0
  6
CONTINUOUS
 62
     2
 10
1009.12
 20
1233.44
 11
1786.72
 21
1233.44
  0
LINE
  8
0
  6
CONTINUOUS
 62
     2
 10
1009.12
 20
1334.24
 11
1786.72
 21
1334.24
  0
LINE
  8
0
  6
CONTINUOUS
 62
     2
 10
1009.12
 20
1367.84
 11
1786.72
 21
1367.84
  0
LINE
  8
0
  6
CONTINUOUS
 62
     2
 10
1009.12
 20
1267.04
 11
1786.72
 21
1267.04
  0
LINE
  8
0
  6
CONTINUOUS
 62
     2
 10
1009.12
 20
1300.64
 11
1786.72
 21
1300.64
  0
TEXT
  8
0
  6
CONTINUOUS
 62
     2
 10
1616.32
 20
1443.08
 30
1.44
 40
14.4
  1
　　４５
 50
0.0
 41
0.9
 51
0.0
  7
KANJI25
  0
TEXT
  8
0
  6
CONTINUOUS
 62
     2
 10
1616.32
 20
1409.48
 30
1.44
 40
14.4
  1
　　４５
 50
0.0
 41
0.9
 51
0.0
  7
KANJI25
  0
TEXT
  8
0
  6
CONTINUOUS
 62
     2
 10
1616.32
 20
1375.88
 30
1.44
 40
14.4
  1
　　８５
 50
0.0
 41
0.9
 51
0.0
  7
KANJI25
  0
TEXT
  8
0
  6
CONTINUOUS
 62
     2
 10
1616.32
 20
1342.28
 30
1.44
 40
14.4
  1
　１１２
 50
0.0
 41
0.9
 51
0.0
  7
KANJI25
  0
TEXT
  8
0
  6
CONTINUOUS
 62
     2
 10
1616.32
 20
1308.68
 30
1.44
 40
14.4
  1
　１２８
 50
0.0
 41
0.9
 51
0.0
  7
KANJI25
  0
TEXT
  8
0
  6
CONTINUOUS
 62
     2
 10
1616.32
 20
1275.08
 30
1.44
 40
14.4
  1
　１４８
 50
0.0
 41
0.9
 51
0.0
  7
KANJI25
  0
TEXT
  8
0
  6
CONTINUOUS
 62
     2
 10
1616.32
 20
1241.48
 30
1.44
 40
14.4
  1
　１６８
 50
0.0
 41
0.9
 51
0.0
  7
KANJI25
  0
LINE
  8
0
  6
CONTINUOUS
 62
     2
 10
1009.12
 20
1199.84
 11
1786.72
 21
1199.84
  0
LINE
  8
0
  6
CONTINUOUS
 62
     2
 10
1009.12
 20
1166.24
 11
1786.72
 21
1166.24
  0
TEXT
  8
0
  6
CONTINUOUS
 62
     2
 10
1616.32
 20
1207.88
 30
1.44
 40
14.4
  1
　１９８
 50
0.0
 41
0.9
 51
0.0
  7
KANJI25
  0
TEXT
  8
0
  6
CONTINUOUS
 62
     2
 10
1616.32
 20
1174.28
 30
1.44
 40
14.4
  1
　２３１
 50
0.0
 41
0.9
 51
0.0
  7
KANJI25
  0
LINE
  8
0
  6
CONTINUOUS
 62
     2
 10
1009.12
 20
1132.64
 11
1786.72
 21
1132.64
  0
LINE
  8
0
  6
CONTINUOUS
 62
     2
 10
1009.12
 20
1099.04
 11
1786.72
 21
1099.04
  0
TEXT
  8
0
  6
CONTINUOUS
 62
     2
 10
1616.32
 20
1140.68
 30
1.44
 40
14.4
  1
　２４５
 50
0.0
 41
0.9
 51
0.0
  7
KANJI25
  0
TEXT
  8
0
  6
CONTINUOUS
 62
     2
 10
1616.32
 20
1107.08
 30
1.44
 40
14.4
  1
　２６８
 50
0.0
 41
0.9
 51
0.0
  7
KANJI25
  0
LINE
  8
0
  6
CONTINUOUS
 62
     2
 10
1868.92
 20
907.7
 11
2393.92
 21
907.7
  0
LINE
  8
0
  6
CONTINUOUS
 62
     2
 10
1868.92
 20
865.7
 11
2393.92
 21
865.7
  0
LINE
  8
0
  6
CONTINUOUS
 62
     2
 10
1916.92
 20
1243.7
 11
1916.92
 21
907.7
  0
TEXT
  8
0
  6
CONTINUOUS
 62
     2
 10
1901.92
 20
876.5
 30
79.962857143
 40
22.8
  1
付属品
 50
0.0
 41
0.9
 51
0.0
  7
KANJI30
  0
TEXT
  8
0
  6
CONTINUOUS
 62
     2
 10
1901.92
 20
834.5
 30
180.445714286
 40
22.8
  1
台数
 50
0.0
 41
0.9
 51
0.0
  7
KANJI31
  0
LINE
  8
0
  6
CONTINUOUS
 62
     1
 10
1868.92
 20
1639.7
 11
2393.92
 21
1639.7
  0
TEXT
  8
0
  6
CONTINUOUS
 62
     2
 10
1943.92
 20
1595.9
 30
17.09964
 40
27.0
  1
マイティシリンダ仕様
 50
0.0
 41
0.9
 51
0.0
  7
KANJI32
  0
LINE
  8
0
  6
CONTINUOUS
 62
     2
 10
1916.92
 20
949.7
 11
2393.92
 21
949.7
  0
LINE
  8
0
  6
CONTINUOUS
 62
     2
 10
1916.92
 20
1075.7
 11
2393.92
 21
1075.7
  0
LINE
  8
0
  6
CONTINUOUS
 62
     2
 10
1916.92
 20
1117.7
 11
2393.92
 21
1117.7
  0
LINE
  8
0
  6
CONTINUOUS
 62
     2
 10
1868.92
 20
1327.7
 11
2393.92
 21
1327.7
  0
LINE
  8
0
  6
CONTINUOUS
 62
     2
 10
1868.92
 20
1285.7
 11
2393.92
 21
1285.7
  0
LINE
  8
0
  6
CONTINUOUS
 62
     2
 10
1868.92
 20
1243.7
 11
2393.92
 21
1243.7
  0
LINE
  8
0
  6
CONTINUOUS
 62
     2
 10
1916.92
 20
1159.7
 11
2393.92
 21
1159.7
  0
LINE
  8
0
  6
CONTINUOUS
 62
     2
 10
1916.92
 20
1201.7
 11
2393.92
 21
1201.7
  0
LINE
  8
0
  6
CONTINUOUS
 62
     2
 10
1868.92
 20
1537.7
 11
2393.92
 21
1537.7
  0
LINE
  8
0
  6
CONTINUOUS
 62
     2
 10
1868.92
 20
1495.7
 11
2393.92
 21
1495.7
  0
LINE
  8
0
  6
CONTINUOUS
 62
     2
 10
1868.92
 20
1453.7
 11
2393.92
 21
1453.7
  0
LINE
  8
0
  6
CONTINUOUS
 62
     2
 10
1868.92
 20
1411.7
 11
2393.92
 21
1411.7
  0
LINE
  8
0
  6
CONTINUOUS
 62
     2
 10
1868.92
 20
1369.7
 11
2393.92
 21
1369.7
  0
LINE
  8
0
  6
CONTINUOUS
 62
     2
 10
1868.92
 20
1579.7
 11
2393.92
 21
1579.7
  0
TEXT
  8
0
  6
CONTINUOUS
 62
     2
 10
1943.92
 20
1170.5
 30
33.439782857
 40
22.8
  1
電源電圧
 50
0.0
 41
0.9
 51
0.0
  7
KANJI33
  0
TEXT
  8
0
  6
CONTINUOUS
 62
     2
 10
1943.92
 20
1128.5
 30
60.42
 40
22.8
  1
周波数
 50
0.0
 41
0.9
 51
0.0
  7
KANJI34
  0
TEXT
  8
0
  6
CONTINUOUS
 62
     2
 10
1943.92
 20
1086.5
 30
141.36
 40
22.8
  1
電流
 50
0.0
 41
0.9
 51
0.0
  7
KANJI35
  0
TEXT
  8
0
  6
CONTINUOUS
 62
     2
 10
1943.92
 20
1044.5
 30
60.42
 40
22.8
  1
絶縁級
 50
0.0
 41
0.9
 51
0.0
  7
KANJI34
  0
TEXT
  8
0
  6
CONTINUOUS
 62
     2
 10
1901.92
 20
1548.5
 30
180.445714286
 40
22.8
  1
形式
 50
0.0
 41
0.9
 51
0.0
  7
KANJI31
  0
TEXT
  8
0
  6
CONTINUOUS
 62
     2
 10
1901.92
 20
1506.5
 30
180.445714286
 40
22.8
  1
推力
 50
0.0
 41
0.9
 51
0.0
  7
KANJI31
  0
TEXT
  8
0
  6
CONTINUOUS
 62
     2
 10
1901.92
 20
1464.5
 30
29.721428571
 40
22.8
  1
ストローク
 50
0.0
 41
0.9
 51
0.0
  7
KANJI36
  0
TEXT
  8
0
  6
CONTINUOUS
 62
     2
 10
1901.92
 20
1338.5
 30
180.445714286
 40
22.8
  1
構造
 50
0.0
 41
0.9
 51
0.0
  7
KANJI31
  0
TEXT
  8
0
  6
CONTINUOUS
 62
     2
 10
1901.92
 20
1296.5
 30
12.973851429
 40
22.8
  1
過負荷安全装置
 50
0.0
 41
0.9
 51
0.0
  7
KANJI37
  0
TEXT
  8
0
  6
CONTINUOUS
 62
     2
 10
1901.92
 20
1254.5
 30
79.962857143
 40
22.8
  1
塗装色
 50
0.0
 41
0.9
 51
0.0
  7
KANJI30
  0
TEXT
  8
0
  6
CONTINUOUS
 62
     2
 10
1877.92
 20
1380.5
 30
1.954285714
 40
22.8
  1
ピストンロッド回転トルク
 50
0.0
 41
0.9
 51
0.0
  7
KANJI38
  0
LINE
  8
0
  6
CONTINUOUS
 62
     2
 10
1868.92
 20
1033.7
 11
2393.92
 21
1033.7
  0
LINE
  8
0
  6
CONTINUOUS
 62
     2
 10
1916.92
 20
991.7
 11
2393.92
 21
991.7
  0
TEXT
  8
0
  6
CONTINUOUS
 62
     2
 10
1893.37
 20
1237.7
 30
13.2
 40
21.0
  1
モ　トル仕様
 50
0.0
 41
0.9
 51
0.0
  7
KANJI39
  0
TEXT
  8
0
  6
CONTINUOUS
 62
     2
 10
1893.37
 20
1015.7
 30
1.2
 40
21.0
  1
ブレ　キ
 50
0.0
 41
0.9
 51
0.0
  7
KANJI40
  0
LINE
  8
0
  6
CONTINUOUS
 62
     2
 10
1891.72
 20
965.9
 11
1891.72
 21
953.3
  0
TEXT
  8
0
  6
CONTINUOUS
 62
     2
 10
2203.42
 20
1297.7
 30
9.0
 40
21.0
  1
推力リミッタ
 50
0.0
 41
0.9
 51
0.0
  7
KANJI41
  0
TEXT
  8
0
  6
CONTINUOUS
 62
     2
 10
2260.42
 20
1045.7
 30
1.8
 40
18.0
  1
Ｅ
 50
0.0
 41
0.9
 51
0.0
  7
KANJI42
  0
TEXT
  8
0
  6
CONTINUOUS
 62
     2
 10
2216.92
 20
960.5
 30
12.0
 40
21.0
  1
同時切り
 50
0.0
 41
0.9
 51
0.0
  7
KANJI43
  0
TEXT
  8
0
  6
CONTINUOUS
 62
     2
 10
1943.92
 20
1002.5
 30
141.36
 40
22.8
  1
形式
 50
0.0
 41
0.9
 51
0.0
  7
KANJI35
  0
TEXT
  8
0
  6
CONTINUOUS
 62
     2
 10
1943.92
 20
960.5
 30
33.439782857
 40
22.8
  1
操作方式
 50
0.0
 41
0.9
 51
0.0
  7
KANJI33
  0
LINE
  8
0
  6
CONTINUOUS
 62
     2
 10
1891.72
 20
1201.1
 11
1891.72
 21
1187.3
  0
TEXT
  8
0
  6
CONTINUOUS
 62
     2
 10
1943.92
 20
1212.5
 30
3.0
 40
22.8
  1
出力　相数　極数
 50
0.0
 41
0.9
 51
0.0
  7
KANJI44
  0
TEXT
  8
0
  6
CONTINUOUS
 62
     2
 10
1901.92
 20
1422.5
 30
12.0
 40
22.8
  1
公称速度
 50
0.0
 41
0.9
 51
0.0
  7
KANJI45
  0
TEXT
  8
0
  6
CONTINUOUS
 62
     2
 10
2025.82
 20
1421.3
 30
0.0
 40
21.0
  1
（５０／６０Ｈｚ）
 50
0.0
 41
0.628571429
 51
0.0
  7
KANJI46
  0
TEXT
  8
0
  6
CONTINUOUS
 62
     2
 10
2146.42
 20
1002.95
 30
3.3
 40
20.4
  1
スプリング制動式電磁ブレーキ
 50
0.0
 41
0.705882353
 51
0.0
  7
KANJI47
  0
TEXT
  8
0
  6
CONTINUOUS
 62
     2
 10
2365.42
 20
1170.5
 30
0.216
 40
18.0
  1
Ｖ
 50
0.0
 41
0.8
 51
0.0
  7
KANJI48
  0
TEXT
  8
0
  6
CONTINUOUS
 62
     2
 10
2354.62
 20
1128.5
 30
0.216
 40
18.0
  1
Ｈｚ
 50
0.0
 41
0.8
 51
0.0
  7
KANJI48
  0
TEXT
  8
0
  6
CONTINUOUS
 62
     2
 10
2365.42
 20
1086.5
 30
0.216
 40
18.0
  1
Ａ
 50
0.0
 41
0.8
 51
0.0
  7
KANJI48
  0
TEXT
  8
0
  6
CONTINUOUS
 62
     2
 10
2286.52
 20
1213.7
 30
1.8
 40
18.0
  1
３φ
 50
0.0
 41
0.9
 51
0.0
  7
KANJI42
  0
TEXT
  8
0
  6
CONTINUOUS
 62
     2
 10
2346.52
 20
1213.7
 30
1.8
 40
18.0
  1
４Ｐ
 50
0.0
 41
0.9
 51
0.0
  7
KANJI42
  0
TEXT
  8
0
  6
CONTINUOUS
 62
     2
 10
2144.92
 20
1255.7
 30
1.2
 40
19.2
  1
マンセル　７．５ＧＹ　５／４．５
 50
0.0
 41
0.71875
 51
0.0
  7
KANJI49
  0
TEXT
  8
0
  6
CONTINUOUS
 62
     2
 10
2144.92
 20
1171.7
 30
1.8
 40
18.0
  1
　　　　　　　／　　　
 50
0.0
 41
0.9
 51
0.0
  7
KANJI42
  0
TEXT
  8
0
  6
CONTINUOUS
 62
     2
 10
2144.92
 20
1129.7
 30
1.8
 40
18.0
  1
　　　　５０／　６０
 50
0.0
 41
0.9
 51
0.0
  7
KANJI42
  0
TEXT
  8
0
  6
CONTINUOUS
 62
     2
 10
2144.92
 20
1087.7
 30
1.8
 40
18.0
  1
　　　　　　　／　　　
 50
0.0
 41
0.9
 51
0.0
  7
KANJI42
  0
TEXT
  8
0
  6
CONTINUOUS
 62
     2
 10
2349.52
 20
1466.9
 30
0.1536
 40
19.2
  1
ｍｍ
 50
0.0
 41
0.8
 51
0.0
  7
KANJI50
  0
TEXT
  8
0
  6
CONTINUOUS
 62
     2
 10
2310.52
 20
1423.7
 30
0.0
 40
21.0
  1
ｍｍ／ｓｅｃ
 50
0.0
 41
0.571428571
 51
0.0
  7
KANJI51
  0
TEXT
  8
0
  6
CONTINUOUS
 62
     2
 10
2203.42
 20
1339.7
 30
9.0
 40
21.0
  1
全閉屋外形
 50
0.0
 41
0.9
 51
0.0
  7
KANJI41
  0
TEXT
  8
0
  6
CONTINUOUS
 62
     2
 10
2188.72
 20
1507.7
 30
1.8
 40
18.0
  1
９．８ＫＮ（１ｔｏｎ）
 50
0.0
 41
0.9
 51
0.0
  7
KANJI42
  0
LINE
  8
0
  6
CONTINUOUS
 62
     1
 10
1868.92
 20
781.7
 11
2393.92
 21
781.7
  0
LINE
  8
0
  6
CONTINUOUS
 62
     2
 10
1868.92
 20
823.7
 11
2393.92
 21
823.7
  0
TEXT
  8
0
  6
CONTINUOUS
 62
     2
 10
2338.72
 20
793.88
 30
0.0
 40
21.0
  1
ｋｇ
 50
0.0
 41
0.9
 51
0.0
  7
KANJI52
  0
TEXT
  8
0
  6
CONTINUOUS
 62
     2
 10
1900.72
 20
792.5
 30
6.0
 40
21.0
  1
概算重量（１台当り）
 50
0.0
 41
0.857142857
 51
0.0
  7
KANJI53
  0
LINE
  8
0
  6
CONTINUOUS
 62
     1
 10
1868.92
 20
1639.7
 11
1868.92
 21
781.7
  0
LINE
  8
0
  6
CONTINUOUS
 62
     2
 10
2144.92
 20
1579.7
 11
2144.92
 21
781.7
  0
LINE
  8
0
  6
CONTINUOUS
 62
     1
 10
2393.92
 20
1639.7
 11
2393.92
 21
781.7
  0
TEXT
  8
0
  6
CONTINUOUS
 62
     2
 10
171.4
 20
37.4
 30
0.0
 40
18.0
  1
ＦＤ　Ｎｏ．ＭＣ２６０
 50
0.0
 41
0.9
 51
0.0
  7
KANJI54
  0
TEXT
  8
0
  6
CONTINUOUS
 62
     2
 10
1643.5200334
 20
137.899994
 30
1.8
 40
21.0
  1
０８．０８．０６
 50
0.0
 41
0.571428571
 51
0.0
  7
KANJI55
  0
TEXT
  8
0
  6
CONTINUOUS
 62
     2
 10
2147.92
 20
1423.7
 30
1.8
 40
18.0
  1
１００／１２０
 50
0.0
 41
0.9
 51
0.0
  7
KANJI42
  0
TEXT
  8
0
  6
CONTINUOUS
 62
     2
 10
2159.92
 20
1381.7
 30
0.0
 40
18.0
  1
１７Ｎ・ｍ（１．８ｋｇ・ｍ）
 50
0.0
 41
0.833333333
 51
0.0
  7
KANJI56
  0
TEXT
  8
0
  6
CONTINUOUS
 62
     2
 10
2150.92
 20
1213.7
 30
1.8
 40
18.0
  1
　１．５ＫＷ
 50
0.0
 41
0.9
 51
0.0
  7
KANJI42
  0
TEXT
  8
0
  6
CONTINUOUS
 62
     2
 10
1050.133
 20
1526.99
 30
1.617
 40
16.17
  1
注意：サーマルリレー等の選定は、上記の値で選定して下さい。
 50
0.0
 41
0.9
 51
0.0
  7
KANJI57
  0
LINE
  8
0
  6
CONTINUOUS
 62
     2
 10
1040.893
 20
1522.37
 11
1495.92
 21
1522.37
  0
LINE
  8
0
  6
CONTINUOUS
 62
     1
 10
1554.640933
 20
1682.03602
 11
1554.640933
 21
1552.03654
  0
LINE
  8
0
  6
CONTINUOUS
 62
     2
 10
1479.641233
 20
1682.03602
 11
1479.641233
 21
1552.03654
  0
LINE
  8
0
  6
CONTINUOUS
 62
     2
 10
1404.641533
 20
1682.03602
 11
1404.641533
 21
1552.03654
  0
LINE
  8
0
  6
CONTINUOUS
 62
     1
 10
1304.641933
 20
1682.03602
 11
1304.641933
 21
1552.03654
  0
LINE
  8
0
  6
CONTINUOUS
 62
     1
 10
1304.641933
 20
1682.03602
 11
1554.640933
 21
1682.03602
  0
LINE
  8
0
  6
CONTINUOUS
 62
     1
 10
1304.641933
 20
1642.03618
 11
1554.640933
 21
1642.03618
  0
LINE
  8
0
  6
CONTINUOUS
 62
     2
 10
1304.641933
 20
1612.0363
 11
1554.640933
 21
1612.0363
  0
LINE
  8
0
  6
CONTINUOUS
 62
     2
 10
1304.641933
 20
1582.03642
 11
1554.640933
 21
1582.03642
  0
LINE
  8
0
  6
CONTINUOUS
 62
     1
 10
1304.641933
 20
1552.03654
 11
1554.640933
 21
1552.03654
  0
TEXT
  8
0
  6
CONTINUOUS
 62
     2
 10
1489.641193
 20
1664.53609
 30
1.499994
 40
14.99994
  1
起動電流
 50
0.0
 41
0.9
 51
0.0
  7
KANJI58
  0
TEXT
  8
0
  6
CONTINUOUS
 62
     2
 10
1489.641193
 20
1647.03616
 30
1.499994
 40
14.99994
  1
　　　Ａ
 50
0.0
 41
0.9
 51
0.0
  7
KANJI58
  0
TEXT
  8
0
  6
CONTINUOUS
 62
     2
 10
1414.641493
 20
1664.53609
 30
1.499994
 40
14.99994
  1
定格電流
 50
0.0
 41
0.9
 51
0.0
  7
KANJI58
  0
TEXT
  8
0
  6
CONTINUOUS
 62
     2
 10
1414.641493
 20
1647.03616
 30
1.499994
 40
14.99994
  1
　　　Ａ
 50
0.0
 41
0.9
 51
0.0
  7
KANJI58
  0
TEXT
  8
0
  6
CONTINUOUS
 62
     2
 10
1313.141899
 20
1589.53639
 30
1.499994
 40
14.99994
  1
２００／６０
 50
0.0
 41
0.9
 51
0.0
  7
KANJI58
  0
TEXT
  8
0
  6
CONTINUOUS
 62
     2
 10
1313.141899
 20
1664.53609
 30
1.499994
 40
14.99994
  1
電圧／周波数
 50
0.0
 41
0.9
 51
0.0
  7
KANJI58
  0
TEXT
  8
0
  6
CONTINUOUS
 62
     2
 10
1313.141899
 20
1647.03616
 30
1.499994
 40
14.99994
  1
　Ｖ／Ｈｚ
 50
0.0
 41
0.9
 51
0.0
  7
KANJI58
  0
TEXT
  8
0
  6
CONTINUOUS
 62
     2
 10
1313.141899
 20
1619.53627
 30
1.499994
 40
14.99994
  1
２００／５０
 50
0.0
 41
0.9
 51
0.0
  7
KANJI58
  0
TEXT
  8
0
  6
CONTINUOUS
 62
     2
 10
1313.141899
 20
1559.53651
 30
1.499994
 40
14.99994
  1
２２０／６０
 50
0.0
 41
0.9
 51
0.0
  7
KANJI58
  0
LINE
  8
0
  6
CONTINUOUS
 62
     1
 10
1254.642133
 20
1682.03602
 11
1254.642133
 21
1552.03654
  0
LINE
  8
0
  6
CONTINUOUS
 62
     2
 10
1179.642433
 20
1682.03602
 11
1179.642433
 21
1552.03654
  0
LINE
  8
0
  6
CONTINUOUS
 62
     2
 10
1104.642733
 20
1682.03602
 11
1104.642733
 21
1552.03654
  0
LINE
  8
0
  6
CONTINUOUS
 62
     1
 10
1004.643133
 20
1682.03602
 11
1254.642133
 21
1682.03602
  0
LINE
  8
0
  6
CONTINUOUS
 62
     1
 10
1004.643133
 20
1642.03618
 11
1254.642133
 21
1642.03618
  0
LINE
  8
0
  6
CONTINUOUS
 62
     2
 10
1004.643133
 20
1612.0363
 11
1254.642133
 21
1612.0363
  0
LINE
  8
0
  6
CONTINUOUS
 62
     2
 10
1004.643133
 20
1582.03642
 11
1254.642133
 21
1582.03642
  0
LINE
  8
0
  6
CONTINUOUS
 62
     1
 10
1004.643133
 20
1552.03654
 11
1254.642133
 21
1552.03654
  0
TEXT
  8
0
  6
CONTINUOUS
 62
     2
 10
1189.642393
 20
1664.53609
 30
1.499994
 40
14.99994
  1
起動電流
 50
0.0
 41
0.9
 51
0.0
  7
KANJI58
  0
TEXT
  8
0
  6
CONTINUOUS
 62
     2
 10
1189.642393
 20
1647.03616
 30
1.499994
 40
14.99994
  1
　　　Ａ
 50
0.0
 41
0.9
 51
0.0
  7
KANJI58
  0
TEXT
  8
0
  6
CONTINUOUS
 62
     2
 10
1114.642693
 20
1664.53609
 30
1.499994
 40
14.99994
  1
定格電流
 50
0.0
 41
0.9
 51
0.0
  7
KANJI58
  0
TEXT
  8
0
  6
CONTINUOUS
 62
     2
 10
1114.642693
 20
1647.03616
 30
1.499994
 40
14.99994
  1
　　　Ａ
 50
0.0
 41
0.9
 51
0.0
  7
KANJI58
  0
TEXT
  8
0
  6
CONTINUOUS
 62
     2
 10
1013.143099
 20
1664.53609
 30
1.499994
 40
14.99994
  1
電圧／周波数
 50
0.0
 41
0.9
 51
0.0
  7
KANJI58
  0
TEXT
  8
0
  6
CONTINUOUS
 62
     2
 10
1013.143099
 20
1647.03616
 30
1.499994
 40
14.99994
  1
　Ｖ／Ｈｚ
 50
0.0
 41
0.9
 51
0.0
  7
KANJI58
  0
TEXT
  8
0
  6
CONTINUOUS
 62
     2
 10
1013.143099
 20
1619.53627
 30
1.499994
 40
14.99994
  1
４００／５０
 50
0.0
 41
0.9
 51
0.0
  7
KANJI58
  0
TEXT
  8
0
  6
CONTINUOUS
 62
     2
 10
1013.143099
 20
1589.53639
 30
1.499994
 40
14.99994
  1
４００／６０
 50
0.0
 41
0.9
 51
0.0
  7
KANJI58
  0
TEXT
  8
0
  6
CONTINUOUS
 62
     2
 10
1013.143099
 20
1559.53651
 30
1.499994
 40
14.99994
  1
４４０／６０
 50
0.0
 41
0.9
 51
0.0
  7
KANJI58
  0
TEXT
  8
0
  6
CONTINUOUS
 62
     2
 10
1114.642693
 20
1619.53627
 30
1.499994
 40
14.99994
  1
　　３．４
 50
0.0
 41
0.9
 51
0.0
  7
KANJI58
  0
TEXT
  8
0
  6
CONTINUOUS
 62
     2
 10
1114.642693
 20
1559.53651
 30
1.499994
 40
14.99994
  1
　　３．０
 50
0.0
 41
0.9
 51
0.0
  7
KANJI58
  0
TEXT
  8
0
  6
CONTINUOUS
 62
     2
 10
1414.641493
 20
1619.53627
 30
1.499994
 40
14.99994
  1
　　６．８
 50
0.0
 41
0.9
 51
0.0
  7
KANJI58
  0
TEXT
  8
0
  6
CONTINUOUS
 62
     2
 10
1414.641493
 20
1559.53651
 30
1.499994
 40
14.99994
  1
　　６．０
 50
0.0
 41
0.9
 51
0.0
  7
KANJI58
  0
TEXT
  8
0
  6
CONTINUOUS
 62
     2
 10
1489.641193
 20
1619.53627
 30
1.499994
 40
14.99994
  1
４４．０
 50
0.0
 41
0.9
 51
0.0
  7
KANJI58
  0
LINE
  8
0
  6
CONTINUOUS
 62
     1
 10
1004.643133
 20
1682.03602
 11
1004.643133
 21
1552.03654
  0
TEXT
  8
0
  6
CONTINUOUS
 62
     2
 10
1114.642693
 20
1589.53639
 30
1.499994
 40
14.99994
  1
　　３．１
 50
0.0
 41
0.9
 51
0.0
  7
KANJI58
  0
TEXT
  8
0
  6
CONTINUOUS
 62
     2
 10
1414.641493
 20
1589.53639
 30
1.499994
 40
14.99994
  1
　　６．２
 50
0.0
 41
0.9
 51
0.0
  7
KANJI58
  0
TEXT
  8
0
  6
CONTINUOUS
 62
     2
 10
1189.642393
 20
1619.53627
 30
1.499994
 40
14.99994
  1
２２．１
 50
0.0
 41
0.9
 51
0.0
  7
KANJI58
  0
TEXT
  8
0
  6
CONTINUOUS
 62
     2
 10
1189.642393
 20
1589.53639
 30
1.499994
 40
14.99994
  1
１９．２
 50
0.0
 41
0.9
 51
0.0
  7
KANJI58
  0
TEXT
  8
0
  6
CONTINUOUS
 62
     2
 10
1189.642393
 20
1559.53651
 30
1.499994
 40
14.99994
  1
２１．１
 50
0.0
 41
0.9
 51
0.0
  7
KANJI58
  0
TEXT
  8
0
  6
CONTINUOUS
 62
     2
 10
1489.099556333
 20
1587.2447275
 30
1.499994
 40
14.99994
  1
３８．２
 50
0.0
 41
0.9
 51
0.0
  7
KANJI58
  0
TEXT
  8
0
  6
CONTINUOUS
 62
     2
 10
1490.349551333
 20
1558.9115075
 30
1.499994
 40
14.99994
  1
４２．１
 50
0.0
 41
0.9
 51
0.0
  7
KANJI58
  0
TEXT
  8
0
  6
CONTINUOUS
 62
     2
 10
1520.32
 20
1443.08
 30
1.44
 40
14.4
  1
　４６０
 50
0.0
 41
0.9
 51
0.0
  7
KANJI25
  0
TEXT
  8
0
  6
CONTINUOUS
 62
     2
 10
1520.32
 20
1409.48
 30
1.44
 40
14.4
  1
　５６０
 50
0.0
 41
0.9
 51
0.0
  7
KANJI25
  0
TEXT
  8
0
  6
CONTINUOUS
 62
     2
 10
1520.32
 20
1375.88
 30
1.44
 40
14.4
  1
　６６０
 50
0.0
 41
0.9
 51
0.0
  7
KANJI25
  0
TEXT
  8
0
  6
CONTINUOUS
 62
     2
 10
1520.32
 20
1342.28
 30
1.44
 40
14.4
  1
　７６０
 50
0.0
 41
0.9
 51
0.0
  7
KANJI25
  0
TEXT
  8
0
  6
CONTINUOUS
 62
     2
 10
1520.32
 20
1308.68
 30
1.44
 40
14.4
  1
　９００
 50
0.0
 41
0.9
 51
0.0
  7
KANJI25
  0
TEXT
  8
0
  6
CONTINUOUS
 62
     2
 10
1520.32
 20
1275.08
 30
1.44
 40
14.4
  1
１０００
 50
0.0
 41
0.9
 51
0.0
  7
KANJI25
  0
TEXT
  8
0
  6
CONTINUOUS
 62
     2
 10
1520.32
 20
1241.48
 30
1.44
 40
14.4
  1
１１００
 50
0.0
 41
0.9
 51
0.0
  7
KANJI25
  0
TEXT
  8
0
  6
CONTINUOUS
 62
     2
 10
1520.32
 20
1207.88
 30
1.44
 40
14.4
  1
１２００
 50
0.0
 41
0.9
 51
0.0
  7
KANJI25
  0
TEXT
  8
0
  6
CONTINUOUS
 62
     2
 10
1520.32
 20
1174.28
 30
1.44
 40
14.4
  1
１３００
 50
0.0
 41
0.9
 51
0.0
  7
KANJI25
  0
TEXT
  8
0
  6
CONTINUOUS
 62
     2
 10
1520.32
 20
1140.88
 30
1.44
 40
14.4
  1
１４００
 50
0.0
 41
0.9
 51
0.0
  7
KANJI25
  0
TEXT
  8
0
  6
CONTINUOUS
 62
     2
 10
1520.32
 20
1107.28
 30
1.44
 40
14.4
  1
１５００
 50
0.0
 41
0.9
 51
0.0
  7
KANJI25
  0
TEXT
  8
0
  6
CONTINUOUS
 62
     2
 10
1424.32
 20
1443.08
 30
1.44
 40
14.4
  1
　５５５
 50
0.0
 41
0.9
 51
0.0
  7
KANJI25
  0
TEXT
  8
0
  6
CONTINUOUS
 62
     2
 10
1424.32
 20
1409.48
 30
1.44
 40
14.4
  1
　６５５
 50
0.0
 41
0.9
 51
0.0
  7
KANJI25
  0
TEXT
  8
0
  6
CONTINUOUS
 62
     2
 10
1424.32
 20
1375.88
 30
1.44
 40
14.4
  1
　７９５
 50
0.0
 41
0.9
 51
0.0
  7
KANJI25
  0
TEXT
  8
0
  6
CONTINUOUS
 62
     2
 10
1424.32
 20
1342.28
 30
1.44
 40
14.4
  1
　９２２
 50
0.0
 41
0.9
 51
0.0
  7
KANJI25
  0
TEXT
  8
0
  6
CONTINUOUS
 62
     2
 10
1424.32
 20
1308.68
 30
1.44
 40
14.4
  1
１０７８
 50
0.0
 41
0.9
 51
0.0
  7
KANJI25
  0
TEXT
  8
0
  6
CONTINUOUS
 62
     2
 10
1424.32
 20
1275.08
 30
1.44
 40
14.4
  1
１１９８
 50
0.0
 41
0.9
 51
0.0
  7
KANJI25
  0
TEXT
  8
0
  6
CONTINUOUS
 62
     2
 10
1424.32
 20
1241.48
 30
1.44
 40
14.4
  1
１３１８
 50
0.0
 41
0.9
 51
0.0
  7
KANJI25
  0
TEXT
  8
0
  6
CONTINUOUS
 62
     2
 10
1424.32
 20
1207.88
 30
1.44
 40
14.4
  1
１４４８
 50
0.0
 41
0.9
 51
0.0
  7
KANJI25
  0
TEXT
  8
0
  6
CONTINUOUS
 62
     2
 10
1424.32
 20
1174.28
 30
1.44
 40
14.4
  1
１５８１
 50
0.0
 41
0.9
 51
0.0
  7
KANJI25
  0
TEXT
  8
0
  6
CONTINUOUS
 62
     2
 10
1424.32
 20
1140.88
 30
1.44
 40
14.4
  1
１６９５
 50
0.0
 41
0.9
 51
0.0
  7
KANJI25
  0
TEXT
  8
0
  6
CONTINUOUS
 62
     2
 10
1424.32
 20
1107.28
 30
1.44
 40
14.4
  1
１８１８
 50
0.0
 41
0.9
 51
0.0
  7
KANJI25
  0
TEXT
  8
0
  6
CONTINUOUS
 62
     2
 10
1328.32
 20
1443.08
 30
1.44
 40
14.4
  1
　７０１
 50
0.0
 41
0.9
 51
0.0
  7
KANJI25
  0
TEXT
  8
0
  6
CONTINUOUS
 62
     2
 10
1328.32
 20
1409.48
 30
1.44
 40
14.4
  1
　８０１
 50
0.0
 41
0.9
 51
0.0
  7
KANJI25
  0
TEXT
  8
0
  6
CONTINUOUS
 62
     2
 10
1328.32
 20
1375.88
 30
1.44
 40
14.4
  1
　９４１
 50
0.0
 41
0.9
 51
0.0
  7
KANJI25
  0
TEXT
  8
0
  6
CONTINUOUS
 62
     2
 10
1328.32
 20
1342.28
 30
1.44
 40
14.4
  1
１０６８
 50
0.0
 41
0.9
 51
0.0
  7
KANJI25
  0
TEXT
  8
0
  6
CONTINUOUS
 62
     2
 10
1328.32
 20
1308.68
 30
1.44
 40
14.4
  1
１２２４
 50
0.0
 41
0.9
 51
0.0
  7
KANJI25
  0
TEXT
  8
0
  6
CONTINUOUS
 62
     2
 10
1328.32
 20
1275.08
 30
1.44
 40
14.4
  1
１３４４
 50
0.0
 41
0.9
 51
0.0
  7
KANJI25
  0
TEXT
  8
0
  6
CONTINUOUS
 62
     2
 10
1328.32
 20
1241.48
 30
1.44
 40
14.4
  1
１４６４
 50
0.0
 41
0.9
 51
0.0
  7
KANJI25
  0
TEXT
  8
0
  6
CONTINUOUS
 62
     2
 10
1328.32
 20
1207.88
 30
1.44
 40
14.4
  1
１５９４
 50
0.0
 41
0.9
 51
0.0
  7
KANJI25
  0
TEXT
  8
0
  6
CONTINUOUS
 62
     2
 10
1328.32
 20
1174.28
 30
1.44
 40
14.4
  1
１７２７
 50
0.0
 41
0.9
 51
0.0
  7
KANJI25
  0
TEXT
  8
0
  6
CONTINUOUS
 62
     2
 10
1328.32
 20
1140.88
 30
1.44
 40
14.4
  1
１８４１
 50
0.0
 41
0.9
 51
0.0
  7
KANJI25
  0
TEXT
  8
0
  6
CONTINUOUS
 62
     2
 10
1328.32
 20
1107.28
 30
1.44
 40
14.4
  1
１９６４
 50
0.0
 41
0.9
 51
0.0
  7
KANJI25
  0
LINE
  8
0
  6
CONTINUOUS
 62
     2
 10
418.503319123
 20
1203.833311846
 11
426.230725733
 21
1201.762759485
  0
LINE
  8
0
  6
CONTINUOUS
 62
     2
 10
418.503319123
 20
1203.833311846
 11
426.230725733
 21
1205.903864207
  0
LINE
  8
0
  6
CONTINUOUS
 62
     2
 10
418.503319123
 20
1203.833311846
 11
556.103319123
 21
1203.833311846
  0
LINE
  8
0
  6
CONTINUOUS
 62
     2
 10
556.103319123
 20
1203.833311846
 11
548.375912513
 21
1205.903864207
  0
LINE
  8
0
  6
CONTINUOUS
 62
     2
 10
556.103319123
 20
1203.833311846
 11
548.375912513
 21
1201.762759485
  0
LINE
  8
0
  6
CONTINUOUS
 62
     2
 10
556.103319123
 20
1202.633311846
 11
556.103319123
 21
1199.833311846
  0
LINE
  8
0
  6
CONTINUOUS
 62
     2
 10
556.103319123
 20
1203.833311846
 11
563.830725733
 21
1201.762759485
  0
LINE
  8
0
  6
CONTINUOUS
 62
     2
 10
556.103319123
 20
1203.833311846
 11
563.830725733
 21
1205.903864207
  0
LINE
  8
0
  6
CONTINUOUS
 62
     2
 10
556.103319123
 20
1203.833311846
 11
758.503319123
 21
1203.833311846
  0
LINE
  8
0
  6
CONTINUOUS
 62
     2
 10
758.503319123
 20
1203.833311846
 11
750.775912513
 21
1205.903864207
  0
LINE
  8
0
  6
CONTINUOUS
 62
     2
 10
758.503319123
 20
1203.833311846
 11
750.775912513
 21
1201.762759485
  0
LINE
  8
0
  6
CONTINUOUS
 62
     2
 10
418.503319123
 20
1214.633311846
 11
418.503319123
 21
1199.833311846
  0
LINE
  8
0
  6
CONTINUOUS
 62
     2
 10
758.503319123
 20
1214.633311846
 11
758.503319123
 21
1199.833311846
  0
LINE
  8
0
  6
CONTINUOUS
 62
     2
 10
556.103319123
 20
1203.433311846
 11
556.103319123
 21
1214.633311846
  0
LINE
  8
0
  6
CONTINUOUS
 62
     2
 10
758.503319123
 20
1203.833311846
 11
758.503319123
 21
1109.033311846
  0
LINE
  8
0
  6
CONTINUOUS
 62
     2
 10
556.103319123
 20
1203.833311846
 11
556.103319123
 21
1168.233311846
  0
TEXT
  8
0
  6
CONTINUOUS
 62
     3
 10
460.303319123
 20
1205.833311846
 30
0.0
 40
15.0
  1
ｍｉｎ．Ｌ
 50
0.0
 41
0.9
 51
0.0
  7
KANJI59
  0
TEXT
  8
0
  6
CONTINUOUS
 62
     3
 10
614.103319123
 20
1205.833311846
 30
0.0
 40
15.0
  1
機械的ストローク
 50
0.0
 41
0.9
 51
0.0
  7
KANJI59
  0
LINE
  8
0
  6
CONTINUOUS
 62
     2
 10
556.103319123
 20
1177.503864207
 11
548.375912513
 21
1179.574416568
  0
LINE
  8
0
  6
CONTINUOUS
 62
     2
 10
556.103319123
 20
1177.503864207
 11
548.375912513
 21
1175.433311846
  0
LINE
  8
0
  6
CONTINUOUS
 62
     2
 10
544.103319123
 20
1177.503864207
 11
556.103319123
 21
1177.503864207
  0
LINE
  8
0
  6
CONTINUOUS
 62
     2
 10
556.103319123
 20
1177.503864207
 11
576.903319123
 21
1177.503864207
  0
LINE
  8
0
  6
CONTINUOUS
 62
     2
 10
576.903319123
 20
1177.503864207
 11
584.630725733
 21
1175.433311846
  0
LINE
  8
0
  6
CONTINUOUS
 62
     2
 10
576.903319123
 20
1177.503864207
 11
584.630725733
 21
1179.574416568
  0
LINE
  8
0
  6
CONTINUOUS
 62
     2
 10
418.503319123
 20
1152.233311846
 11
418.503319123
 21
1146.233311846
  0
LINE
  8
0
  6
CONTINUOUS
 62
     2
 10
418.503319123
 20
1150.233311846
 11
426.230725733
 21
1148.162759485
  0
LINE
  8
0
  6
CONTINUOUS
 62
     2
 10
418.503319123
 20
1150.233311846
 11
426.230725733
 21
1152.303864207
  0
LINE
  8
0
  6
CONTINUOUS
 62
     2
 10
418.503319123
 20
1150.233311846
 11
576.903319123
 21
1150.233311846
  0
LINE
  8
0
  6
CONTINUOUS
 62
     2
 10
576.903319123
 20
1150.233311846
 11
569.175912513
 21
1152.303864207
  0
LINE
  8
0
  6
CONTINUOUS
 62
     2
 10
576.903319123
 20
1150.233311846
 11
569.175912513
 21
1148.162759485
  0
LINE
  8
0
  6
CONTINUOUS
 62
     2
 10
576.903319123
 20
1151.433311846
 11
576.903319123
 21
1146.233311846
  0
LINE
  8
0
  6
CONTINUOUS
 62
     2
 10
576.903319123
 20
1150.233311846
 11
584.630725733
 21
1148.162759485
  0
LINE
  8
0
  6
CONTINUOUS
 62
     2
 10
576.903319123
 20
1150.233311846
 11
584.630725733
 21
1152.303864207
  0
LINE
  8
0
  6
CONTINUOUS
 62
     2
 10
758.503319123
 20
1146.633311846
 11
758.503319123
 21
1146.233311846
  0
LINE
  8
0
  6
CONTINUOUS
 62
     2
 10
418.503319123
 20
1121.033311846
 11
426.230725733
 21
1118.962759485
  0
LINE
  8
0
  6
CONTINUOUS
 62
     2
 10
418.503319123
 20
1121.033311846
 11
426.230725733
 21
1123.103864207
  0
LINE
  8
0
  6
CONTINUOUS
 62
     2
 10
418.503319123
 20
1121.033311846
 11
736.103319123
 21
1121.033311846
  0
LINE
  8
0
  6
CONTINUOUS
 62
     2
 10
736.103319123
 20
1121.033311846
 11
728.375912513
 21
1123.103864207
  0
LINE
  8
0
  6
CONTINUOUS
 62
     2
 10
736.103319123
 20
1121.033311846
 11
728.375912513
 21
1118.962759485
  0
LINE
  8
0
  6
CONTINUOUS
 62
     2
 10
736.103319123
 20
1121.833311846
 11
736.103319123
 21
1117.033311846
  0
LINE
  8
0
  6
CONTINUOUS
 62
     2
 10
736.103319123
 20
1121.033311846
 11
728.375912513
 21
1123.103864207
  0
LINE
  8
0
  6
CONTINUOUS
 62
     2
 10
736.103319123
 20
1121.033311846
 11
728.375912513
 21
1118.962759485
  0
LINE
  8
0
  6
CONTINUOUS
 62
     2
 10
724.103319123
 20
1121.033311846
 11
736.103319123
 21
1121.033311846
  0
LINE
  8
0
  6
CONTINUOUS
 62
     2
 10
736.103319123
 20
1121.033311846
 11
758.503319123
 21
1121.033311846
  0
LINE
  8
0
  6
CONTINUOUS
 62
     2
 10
758.503319123
 20
1121.033311846
 11
766.230725733
 21
1118.962759485
  0
LINE
  8
0
  6
CONTINUOUS
 62
     2
 10
758.503319123
 20
1121.033311846
 11
766.230725733
 21
1123.103864207
  0
LINE
  8
0
  6
CONTINUOUS
 62
     2
 10
576.903319123
 20
1190.303864207
 11
576.903319123
 21
1173.503864207
  0
LINE
  8
0
  6
CONTINUOUS
 62
     2
 10
418.503319123
 20
1199.833311846
 11
418.503319123
 21
1107.833311846
  0
LINE
  8
0
  6
CONTINUOUS
 62
     2
 10
576.903319123
 20
1177.503864207
 11
576.903319123
 21
1141.033311846
  0
TEXT
  8
0
  6
CONTINUOUS
 62
     3
 10
588.903319123
 20
1179.503864207
 30
0.0
 40
15.0
  1
余裕
 50
0.0
 41
0.9
 51
0.0
  7
KANJI59
  0
TEXT
  8
0
  6
CONTINUOUS
 62
     3
 10
470.703319123
 20
1152.233311846
 30
0.0
 40
15.0
  1
常用ｍｉｎ
 50
0.0
 41
0.9
 51
0.0
  7
KANJI59
  0
TEXT
  8
0
  6
CONTINUOUS
 62
     3
 10
550.303319123
 20
1123.033311846
 30
0.0
 40
15.0
  1
常用ｍａｘ
 50
0.0
 41
0.9
 51
0.0
  7
KANJI59
  0
TEXT
  8
0
  6
CONTINUOUS
 62
     3
 10
770.503319123
 20
1123.033311846
 30
0.0
 40
15.0
  1
余裕
 50
0.0
 41
0.9
 51
0.0
  7
KANJI59
  0
LINE
  8
0
  6
CONTINUOUS
 62
     2
 10
576.903319123
 20
1177.503864207
 11
617.003319123
 21
1177.503864207
  0
LINE
  8
0
  6
CONTINUOUS
 62
     2
 10
758.503319123
 20
1121.033311846
 11
801.003319123
 21
1121.033311846
  0
LINE
  8
0
  6
CONTINUOUS
 62
     2
 10
736.103319123
 20
1163.683311846
 11
736.103319123
 21
1108.233311846
  0
LINE
  8
0
  6
CONTINUOUS
 62
     2
 10
576.903319123
 20
1150.233311846
 11
736.103319123
 21
1150.233311846
  0
LINE
  8
0
  6
CONTINUOUS
 62
     2
 10
736.103319123
 20
1150.233311846
 11
728.375912513
 21
1152.303864207
  0
LINE
  8
0
  6
CONTINUOUS
 62
     2
 10
736.103319123
 20
1150.233311846
 11
728.375912513
 21
1148.162759485
  0
TEXT
  8
0
  6
CONTINUOUS
 62
     3
 10
615.903319123
 20
1152.233311846
 30
0.0
 40
15.0
  1
常用ストローク
 50
0.0
 41
0.9
 51
0.0
  7
KANJI59
  0
LINE
  8
0
  6
CONTINUOUS
 62
     1
 10
324.12
 20
574.74
 11
238.12
 21
574.74
  0
LINE
  8
0
  6
CONTINUOUS
 62
     1
 10
238.12
 20
588.24
 11
238.12
 21
577.29046
  0
LINE
  8
0
  6
CONTINUOUS
 62
     1
 10
238.12
 20
588.24
 11
238.12
 21
599.18954
  0
LINE
  8
0
  6
CONTINUOUS
 62
     1
 10
230.0989
 20
579.97198
 11
231.647076294
 21
577.29046
  0
LINE
  8
0
  6
CONTINUOUS
 62
     1
 10
230.0989
 20
588.24
 11
230.0989
 21
579.97198
  0
LINE
  8
0
  6
CONTINUOUS
 62
     1
 10
230.0989
 20
596.50802
 11
231.647076294
 21
599.18954
  0
LINE
  8
0
  6
CONTINUOUS
 62
     1
 10
230.0989
 20
588.24
 11
230.0989
 21
596.50802
  0
ARC
  8
0
  6
CONTINUOUS
 62
     1
 10
240.553121693
 20
588.24
 40
10.454221693
 50
148.419912243
 51
211.580087757
  0
ARC
  8
0
  6
CONTINUOUS
 62
     1
 10
233.292013606
 20
580.027845
 40
3.193602261
 50
121.002313915
 51
182.989498403
  0
LINE
  8
0
  6
CONTINUOUS
 62
     1
 10
230.0989
 20
596.50802
 11
231.647076294
 21
599.18954
  0
ARC
  8
0
  6
CONTINUOUS
 62
     1
 10
233.292013606
 20
596.452155
 40
3.193602261
 50
177.010501597
 51
238.997686085
  0
LINE
  8
0
  6
CONTINUOUS
 62
     1
 10
238.12
 20
577.29046
 11
231.647076294
 21
577.29046
  0
LINE
  8
0
  6
CONTINUOUS
 62
     1
 10
238.12
 20
582.76523
 11
231.647076294
 21
582.76523
  0
LINE
  8
0
  6
CONTINUOUS
 62
     1
 10
238.12
 20
593.71477
 11
231.647076294
 21
593.71477
  0
LINE
  8
0
  6
CONTINUOUS
 62
     1
 10
238.12
 20
599.18954
 11
231.647076294
 21
599.18954
  0
LINE
  8
0
  6
CONTINUOUS
 62
     1
 10
238.12
 20
716.24
 11
238.12
 21
705.29046
  0
LINE
  8
0
  6
CONTINUOUS
 62
     1
 10
238.12
 20
716.24
 11
238.12
 21
727.18954
  0
LINE
  8
0
  6
CONTINUOUS
 62
     1
 10
230.0989
 20
707.97198
 11
231.647076294
 21
705.29046
  0
LINE
  8
0
  6
CONTINUOUS
 62
     1
 10
230.0989
 20
716.24
 11
230.0989
 21
707.97198
  0
LINE
  8
0
  6
CONTINUOUS
 62
     1
 10
230.0989
 20
724.50802
 11
231.647076294
 21
727.18954
  0
LINE
  8
0
  6
CONTINUOUS
 62
     1
 10
230.0989
 20
716.24
 11
230.0989
 21
724.50802
  0
ARC
  8
0
  6
CONTINUOUS
 62
     1
 10
240.553121693
 20
716.24
 40
10.454221693
 50
148.419912243
 51
211.580087757
  0
ARC
  8
0
  6
CONTINUOUS
 62
     1
 10
233.292013606
 20
708.027845
 40
3.193602261
 50
121.002313915
 51
182.989498403
  0
LINE
  8
0
  6
CONTINUOUS
 62
     1
 10
230.0989
 20
724.50802
 11
231.647076294
 21
727.18954
  0
ARC
  8
0
  6
CONTINUOUS
 62
     1
 10
233.292013606
 20
724.452155
 40
3.193602261
 50
177.010501597
 51
238.997686085
  0
LINE
  8
0
  6
CONTINUOUS
 62
     1
 10
238.12
 20
705.29046
 11
231.647076294
 21
705.29046
  0
LINE
  8
0
  6
CONTINUOUS
 62
     1
 10
238.12
 20
710.76523
 11
231.647076294
 21
710.76523
  0
LINE
  8
0
  6
CONTINUOUS
 62
     1
 10
238.12
 20
721.71477
 11
231.647076294
 21
721.71477
  0
LINE
  8
0
  6
CONTINUOUS
 62
     1
 10
238.12
 20
727.18954
 11
231.647076294
 21
727.18954
  0
LINE
  8
0
  6
CONTINUOUS
 62
     1
 10
238.12
 20
574.74
 11
238.12
 21
789.74
  0
LINE
  8
0
  6
CONTINUOUS
 62
     1
 10
253.12
 20
789.74
 11
238.12
 21
789.74
  0
LINE
  8
0
  6
CONTINUOUS
 62
     1
 10
238.12
 20
780.74
 11
238.12
 21
773.24594
  0
LINE
  8
0
  6
CONTINUOUS
 62
     1
 10
238.12
 20
780.74
 11
238.12
 21
788.23406
  0
LINE
  8
0
  6
CONTINUOUS
 62
     1
 10
232.6201
 20
775.08122
 11
233.679699402
 21
773.24594
  0
LINE
  8
0
  6
CONTINUOUS
 62
     1
 10
232.6201
 20
780.74
 11
232.6201
 21
775.08122
  0
LINE
  8
0
  6
CONTINUOUS
 62
     1
 10
232.6201
 20
786.39878
 11
233.679699402
 21
788.23406
  0
LINE
  8
0
  6
CONTINUOUS
 62
     1
 10
232.6201
 20
780.74
 11
232.6201
 21
786.39878
  0
ARC
  8
0
  6
CONTINUOUS
 62
     1
 10
239.775155337
 20
780.74
 40
7.155055337
 50
148.419912243
 51
211.580087757
  0
ARC
  8
0
  6
CONTINUOUS
 62
     1
 10
234.805523767
 20
775.119455
 40
2.185758211
 50
121.002313915
 51
182.989498403
  0
LINE
  8
0
  6
CONTINUOUS
 62
     1
 10
232.6201
 20
786.39878
 11
233.679699402
 21
788.23406
  0
ARC
  8
0
  6
CONTINUOUS
 62
     1
 10
234.805523767
 20
786.360545
 40
2.185758211
 50
177.010501597
 51
238.997686085
  0
LINE
  8
0
  6
CONTINUOUS
 62
     1
 10
238.12
 20
773.24594
 11
233.679699402
 21
773.24594
  0
LINE
  8
0
  6
CONTINUOUS
 62
     1
 10
238.12
 20
776.99297
 11
233.679699402
 21
776.99297
  0
LINE
  8
0
  6
CONTINUOUS
 62
     1
 10
238.12
 20
784.48703
 11
233.679699402
 21
784.48703
  0
LINE
  8
0
  6
CONTINUOUS
 62
     1
 10
238.12
 20
788.23406
 11
233.679699402
 21
788.23406
  0
LINE
  8
0
  6
CONTINUOUS
 62
     1
 10
432.12
 20
594.24
 11
506.12
 21
594.24
  0
LINE
  8
0
  6
CONTINUOUS
 62
     1
 10
339.12
 20
595.24
 11
339.12
 21
709.24
  0
CIRCLE
  8
0
  6
CONTINUOUS
 62
     1
 10
384.12
 20
652.24
 40
10.0
  0
CIRCLE
  8
0
  6
CONTINUOUS
 62
     1
 10
384.12
 20
652.24
 40
21.0
  0
CIRCLE
  8
0
  6
CONTINUOUS
 62
     1
 10
384.12
 20
652.24
 40
25.0
  0
LINE
  8
0
  6
CONTINUOUS
 62
     1
 10
324.12
 20
709.24
 11
339.12
 21
709.24
  0
LINE
  8
0
  6
CONTINUOUS
 62
     1
 10
353.02
 20
705.24
 11
506.12
 21
705.24
  0
LINE
  8
0
  6
CONTINUOUS
 62
     1
 10
432.12
 20
594.24
 11
432.12
 21
646.64
  0
LINE
  8
0
  6
CONTINUOUS
 62
     1
 10
514.12
 20
592.74
 11
514.12
 21
591.74
  0
ARC
  8
0
  6
CONTINUOUS
 62
     1
 10
427.12
 20
589.74
 40
3.0
 50
90.0
 51
180.0
  0
LINE
  8
0
  6
CONTINUOUS
 62
     1
 10
553.12
 20
549.74
 11
424.12
 21
549.74
  0
LINE
  8
0
  6
CONTINUOUS
 62
     1
 10
514.12
 20
591.74
 11
550.12
 21
591.74
  0
ARC
  8
0
  6
CONTINUOUS
 62
     1
 10
550.12
 20
588.74
 40
3.0
 50
0.0
 51
90.0
  0
LINE
  8
0
  6
CONTINUOUS
 62
     1
 10
553.12
 20
548.24
 11
424.12
 21
548.24
  0
LINE
  8
0
  6
CONTINUOUS
 62
     1
 10
553.12
 20
543.24
 11
553.12
 21
588.74
  0
ARC
  8
0
  6
CONTINUOUS
 62
     1
 10
552.12
 20
543.24
 40
1.0
 50
270.0
 51
0.0
  0
LINE
  8
0
  6
CONTINUOUS
 62
     1
 10
550.12
 20
542.24
 11
550.12
 21
542.24
  0
ARC
  8
0
  6
CONTINUOUS
 62
     1
 10
549.12
 20
542.24
 40
1.0
 50
270.0
 51
0.0
  0
LINE
  8
0
  6
CONTINUOUS
 62
     1
 10
424.12
 20
543.24
 11
424.12
 21
589.74
  0
LINE
  8
0
  6
CONTINUOUS
 62
     1
 10
552.12
 20
542.24
 11
425.12
 21
542.24
  0
ARC
  8
0
  6
CONTINUOUS
 62
     1
 10
425.12
 20
543.24
 40
1.0
 50
180.0
 51
270.0
  0
ARC
  8
0
  6
CONTINUOUS
 62
     1
 10
428.12
 20
542.24
 40
1.0
 50
180.0
 51
270.0
  0
LINE
  8
0
  6
CONTINUOUS
 62
     1
 10
549.12
 20
541.24
 11
428.22
 21
541.24
  0
LINE
  8
0
  6
CONTINUOUS
 62
     1
 10
427.12
 20
592.74
 11
514.12
 21
592.74
  0
LINE
  8
0
  6
CONTINUOUS
 62
     1
 10
427.12
 20
594.24
 11
514.12
 21
594.24
  0
LINE
  8
0
  6
CONTINUOUS
 62
     1
 10
342.12
 20
697.24
 11
342.12
 21
708.18954
  0
LINE
  8
0
  6
CONTINUOUS
 62
     1
 10
342.12
 20
697.24
 11
342.12
 21
686.29046
  0
LINE
  8
0
  6
CONTINUOUS
 62
     1
 10
339.12
 20
707.99
 11
342.12
 21
707.99
  0
LINE
  8
0
  6
CONTINUOUS
 62
     1
 10
339.12
 20
697.24
 11
342.120254073
 21
700.240254073
  0
LINE
  8
0
  6
CONTINUOUS
 62
     1
 10
342.120254073
 20
697.24
 11
339.12
 21
694.239745927
  0
LINE
  8
0
  6
CONTINUOUS
 62
     1
 10
339.12
 20
686.49
 11
342.12
 21
686.49
  0
LINE
  8
0
  6
CONTINUOUS
 62
     1
 10
342.12
 20
707.99
 11
353.42
 21
707.99
  0
LINE
  8
0
  6
CONTINUOUS
 62
     1
 10
353.42
 20
697.24
 11
353.42
 21
707.99
  0
LINE
  8
0
  6
CONTINUOUS
 62
     1
 10
353.42
 20
707.99
 11
354.12
 21
706.777564435
  0
LINE
  8
0
  6
CONTINUOUS
 62
     1
 10
354.12
 20
697.24
 11
354.12
 21
706.777564435
  0
LINE
  8
0
  6
CONTINUOUS
 62
     1
 10
342.12
 20
686.49
 11
353.42
 21
686.49
  0
LINE
  8
0
  6
CONTINUOUS
 62
     1
 10
353.42
 20
697.24
 11
353.42
 21
686.49
  0
LINE
  8
0
  6
CONTINUOUS
 62
     1
 10
353.42
 20
686.49
 11
354.12
 21
687.702435565
  0
LINE
  8
0
  6
CONTINUOUS
 62
     1
 10
354.12
 20
697.24
 11
354.12
 21
687.702435565
  0
LINE
  8
0
  6
CONTINUOUS
 62
     1
 10
342.12
 20
607.24
 11
342.12
 21
596.29046
  0
LINE
  8
0
  6
CONTINUOUS
 62
     1
 10
342.12
 20
607.24
 11
342.12
 21
618.18954
  0
LINE
  8
0
  6
CONTINUOUS
 62
     1
 10
339.12
 20
596.49
 11
342.12
 21
596.49
  0
LINE
  8
0
  6
CONTINUOUS
 62
     1
 10
339.12
 20
607.24
 11
342.120254073
 21
604.239745927
  0
LINE
  8
0
  6
CONTINUOUS
 62
     1
 10
342.120254073
 20
607.24
 11
339.12
 21
610.240254073
  0
LINE
  8
0
  6
CONTINUOUS
 62
     1
 10
339.12
 20
617.99
 11
342.12
 21
617.99
  0
LINE
  8
0
  6
CONTINUOUS
 62
     1
 10
342.12
 20
596.49
 11
353.42
 21
596.49
  0
LINE
  8
0
  6
CONTINUOUS
 62
     1
 10
353.42
 20
607.24
 11
353.42
 21
596.49
  0
LINE
  8
0
  6
CONTINUOUS
 62
     1
 10
353.42
 20
596.49
 11
354.12
 21
597.702435565
  0
LINE
  8
0
  6
CONTINUOUS
 62
     1
 10
354.12
 20
607.24
 11
354.12
 21
597.702435565
  0
LINE
  8
0
  6
CONTINUOUS
 62
     1
 10
342.12
 20
617.99
 11
353.42
 21
617.99
  0
LINE
  8
0
  6
CONTINUOUS
 62
     1
 10
353.42
 20
607.24
 11
353.42
 21
617.99
  0
LINE
  8
0
  6
CONTINUOUS
 62
     1
 10
353.42
 20
617.99
 11
354.12
 21
616.777564435
  0
LINE
  8
0
  6
CONTINUOUS
 62
     1
 10
354.12
 20
607.24
 11
354.12
 21
616.777564435
  0
LINE
  8
0
  6
CONTINUOUS
 62
     1
 10
324.12
 20
595.24
 11
339.12
 21
595.24
  0
POINT
  8
0
  6
CONTINUOUS
 62
     1
 10
324.12
 20
595.24
  0
LINE
  8
0
  6
CONTINUOUS
 62
     1
 10
324.12
 20
595.24
 11
324.12
 21
709.24
  0
LINE
  8
0
  6
CONTINUOUS
 62
     1
 10
515.12
 20
648.24
 11
506.12
 21
648.24
  0
LINE
  8
0
  6
CONTINUOUS
 62
     1
 10
515.12
 20
656.24
 11
506.12
 21
656.24
  0
LINE
  8
0
  6
LTYPE3
 62
     2
 10
263.22
 20
588.24
 11
229.02
 21
588.24
  0
LINE
  8
0
  6
LTYPE3
 62
     2
 10
264.22
 20
716.24
 11
229.02
 21
716.24
  0
LINE
  8
0
  6
LTYPE3
 62
     2
 10
268.72
 20
780.74
 11
229.42
 21
780.74
  0
LINE
  8
0
  6
LTYPE3
 62
     2
 10
303.12
 20
697.24
 11
356.12
 21
697.24
  0
LINE
  8
0
  6
LTYPE3
 62
     2
 10
384.12
 20
620.74
 11
384.12
 21
683.74
  0
LINE
  8
0
  6
LTYPE3
 62
     2
 10
303.12
 20
607.24
 11
356.12
 21
607.24
  0
LINE
  8
0
  6
LTYPE1
 62
     2
 10
553.12
 20
576.04
 11
543.12
 21
576.04
  0
LINE
  8
0
  6
LTYPE1
 62
     2
 10
553.12
 20
577.24
 11
543.12
 21
577.24
  0
LINE
  8
0
  6
LTYPE1
 62
     2
 10
553.12
 20
557.44
 11
543.12
 21
557.44
  0
LINE
  8
0
  6
LTYPE1
 62
     2
 10
553.12
 20
556.24
 11
543.12
 21
556.24
  0
LINE
  8
0
  6
LTYPE2
 62
     2
 10
559.32
 20
566.74
 11
539.62
 21
566.74
  0
LINE
  8
0
  6
LTYPE2
 62
     2
 10
468.12
 20
581.04
 11
468.12
 21
595.89
  0
LINE
  8
0
  6
CONTINUOUS
 62
     2
 10
450.92
 20
543.44
 11
453.569054108
 21
531.223924021
  0
LINE
  8
0
  6
CONTINUOUS
 62
     2
 10
450.92
 20
543.44
 11
459.322186143
 21
534.185094921
  0
LINE
  8
0
  6
CONTINUOUS
 62
     2
 10
238.12
 20
402.1025
 11
250.194072829
 21
398.867261936
  0
LINE
  8
0
  6
CONTINUOUS
 62
     2
 10
238.12
 20
402.1025
 11
250.194072829
 21
405.337738064
  0
LINE
  8
0
  6
CONTINUOUS
 62
     2
 10
238.12
 20
402.1025
 11
324.12
 21
402.1025
  0
LINE
  8
0
  6
CONTINUOUS
 62
     2
 10
324.12
 20
402.1025
 11
312.045927171
 21
405.337738064
  0
LINE
  8
0
  6
CONTINUOUS
 62
     2
 10
324.12
 20
402.1025
 11
312.045927171
 21
398.867261936
  0
LINE
  8
0
  6
CONTINUOUS
 62
     2
 10
324.12
 20
402.1025
 11
336.194072829
 21
398.867261936
  0
LINE
  8
0
  6
CONTINUOUS
 62
     2
 10
324.12
 20
402.1025
 11
336.194072829
 21
405.337738064
  0
LINE
  8
0
  6
CONTINUOUS
 62
     2
 10
324.12
 20
402.1025
 11
384.12
 21
402.1025
  0
LINE
  8
0
  6
CONTINUOUS
 62
     2
 10
384.12
 20
402.1025
 11
372.045927171
 21
405.337738064
  0
LINE
  8
0
  6
CONTINUOUS
 62
     2
 10
384.12
 20
402.1025
 11
372.045927171
 21
398.867261936
  0
LINE
  8
0
  6
CONTINUOUS
 62
     2
 10
384.12
 20
402.1025
 11
396.194072829
 21
398.867261936
  0
LINE
  8
0
  6
CONTINUOUS
 62
     2
 10
384.12
 20
402.1025
 11
396.194072829
 21
405.337738064
  0
LINE
  8
0
  6
CONTINUOUS
 62
     2
 10
238.12
 20
394.6025
 11
238.12
 21
350.24
  0
LINE
  8
0
  6
CONTINUOUS
 62
     2
 10
238.12
 20
357.74
 11
250.194072829
 21
354.504761936
  0
LINE
  8
0
  6
CONTINUOUS
 62
     2
 10
238.12
 20
357.74
 11
250.194072829
 21
360.975238064
  0
LINE
  8
0
  6
CONTINUOUS
 62
     2
 10
238.12
 20
566.615
 11
238.12
 21
394.6025
  0
LINE
  8
0
  6
CONTINUOUS
 62
     2
 10
324.12
 20
570.615
 11
324.12
 21
394.6025
  0
LINE
  8
0
  6
CONTINUOUS
 62
     2
 10
384.12
 20
624.115
 11
384.12
 21
394.6025
  0
LINE
  8
0
  6
CONTINUOUS
 62
     2
 10
450.92
 20
543.44
 11
494.412647059
 21
458.94
  0
LINE
  8
0
  6
CONTINUOUS
 62
     2
 10
494.412647059
 20
458.94
 11
573.92
 21
458.94
  0
LINE
  8
2
  6
CONTINUOUS
 62
     2
 10
384.12
 20
442.14
 11
396.194072829
 21
438.904761936
  0
LINE
  8
2
  6
CONTINUOUS
 62
     2
 10
384.12
 20
442.14
 11
396.194072829
 21
445.375238064
  0
LINE
  8
2
  6
CONTINUOUS
 62
     2
 10
384.12
 20
407.1025
 11
384.12
 21
452.14
  0
LINE
  8
2
  6
CONTINUOUS
 62
     2
 10
920.12
 20
442.14
 11
384.12
 21
442.14
  0
CIRCLE
  8
0
  6
CONTINUOUS
 62
     1
 10
690.12
 20
652.24
 40
19.5
  0
LINE
  8
0
  6
CONTINUOUS
 62
     1
 10
670.12
 20
672.24
 11
710.12
 21
672.24
  0
LINE
  8
0
  6
CONTINUOUS
 62
     1
 10
670.12
 20
632.24
 11
670.12
 21
672.24
  0
LINE
  8
0
  6
LTYPE3
 62
     2
 10
690.12
 20
627.14
 11
690.12
 21
677.04
  0
LINE
  8
0
  6
CONTINUOUS
 62
     1
 10
670.12
 20
632.24
 11
710.12
 21
632.24
  0
LINE
  8
0
  6
CONTINUOUS
 62
     1
 10
710.12
 20
632.24
 11
710.12
 21
672.24
  0
TEXT
  8
0
  6
CONTINUOUS
 62
     2
 10
266.87
 20
407.1025
 30
0.0
 40
18.0
  1
８６
 50
0.0
 41
0.9
 51
0.0
  7
KANJI60
  0
TEXT
  8
0
  6
CONTINUOUS
 62
     2
 10
339.87
 20
407.1025
 30
0.0
 40
18.0
  1
６０
 50
0.0
 41
0.9
 51
0.0
  7
KANJI60
  0
TEXT
  8
0
  6
CONTINUOUS
 62
     2
 10
662.87
 20
407.1025
 30
0.0
 40
18.0
  1
ｍｉｎ．Ｌ
 50
0.0
 41
0.9
 51
0.0
  7
KANJI60
  0
TEXT
  8
0
  6
CONTINUOUS
 62
     2
 10
582.37
 20
362.74
 30
0.0
 40
18.0
  1
ｍｉｎ．ＡＬ
 50
0.0
 41
0.9
 51
0.0
  7
KANJI60
  0
TEXT
  8
0
  6
CONTINUOUS
 62
     2
 10
497.92
 20
465.44
 30
0.0
 40
18.0
  1
推力リミッタ
 50
0.0
 41
0.9
 51
0.0
  7
KANJI60
  0
TEXT
  8
0
  6
CONTINUOUS
 62
     2
 10
882.245927171
 20
419.125238064
 30
0.0
 40
18.0
  1
ｍｉｎ．Ｐ
 50
0.0
 41
0.9
 51
0.0
  7
KANJI60
  0
LINE
  8
0
  6
CONTINUOUS
 62
     1
 10
438.3
 20
541.24
 11
427.7
 21
541.24
  0
ARC
  8
0
  6
CONTINUOUS
 62
     1
 10
433.4
 20
542.24
 40
5.0
 50
272.3
 51
348.5
  0
ARC
  8
0
  6
CONTINUOUS
 62
     1
 10
432.6
 20
542.24
 40
5.0
 50
191.5
 51
267.7
  0
LINE
  8
0
  6
CONTINUOUS
 62
     1
 10
433.6
 20
537.24
 11
432.4
 21
537.24
  0
LINE
  8
0
  6
LTYPE4
 62
     2
 10
433.0
 20
533.84
 11
433.0
 21
547.24
  0
LINE
  8
0
  6
CONTINUOUS
 62
     1
 10
549.3
 20
541.24
 11
538.7
 21
541.24
  0
ARC
  8
0
  6
CONTINUOUS
 62
     1
 10
544.4
 20
542.24
 40
5.0
 50
272.3
 51
348.5
  0
ARC
  8
0
  6
CONTINUOUS
 62
     1
 10
543.6
 20
542.24
 40
5.0
 50
191.5
 51
267.7
  0
LINE
  8
0
  6
CONTINUOUS
 62
     1
 10
544.6
 20
537.24
 11
543.4
 21
537.24
  0
LINE
  8
0
  6
LTYPE4
 62
     2
 10
544.0
 20
533.84
 11
544.0
 21
547.24
  0
LINE
  8
0
  6
CONTINUOUS
 62
     1
 10
273.62
 20
727.24
 11
273.62
 21
657.24
  0
TEXT
  8
0
  6
CONTINUOUS
 62
     2
 10
278.62
 20
716.24
 30
5.0
 40
20.0
  1
銘板
 50
270.0
 41
0.925
 51
0.0
  7
KANJI61
  0
LINE
  8
0
  6
CONTINUOUS
 62
     1
 10
316.62
 20
727.24
 11
273.62
 21
727.24
  0
LINE
  8
0
  6
CONTINUOUS
 62
     1
 10
316.62
 20
727.24
 11
316.62
 21
657.24
  0
LINE
  8
0
  6
CONTINUOUS
 62
     1
 10
316.62
 20
657.24
 11
273.62
 21
657.24
  0
LINE
  8
0
  6
CONTINUOUS
 62
     1
 10
965.12
 20
651.74
 11
965.12
 21
626.74
  0
LINE
  8
2
  6
CONTINUOUS
 62
     2
 10
920.12
 20
442.14
 11
932.194072829
 21
445.375238064
  0
LINE
  8
2
  6
CONTINUOUS
 62
     2
 10
920.12
 20
442.14
 11
908.045927171
 21
445.375238064
  0
LINE
  8
2
  6
CONTINUOUS
 62
     2
 10
920.12
 20
442.14
 11
932.194072829
 21
438.904761936
  0
LINE
  8
2
  6
CONTINUOUS
 62
     2
 10
920.12
 20
442.14
 11
908.045927171
 21
438.904761936
  0
LINE
  8
2
  6
CONTINUOUS
 62
     2
 10
920.12
 20
604.74
 11
920.12
 21
432.14
  0
LINE
  8
0
  6
CONTINUOUS
 62
     1
 10
965.12
 20
639.24
 11
965.12
 21
677.24
  0
LINE
  8
0
  6
CONTINUOUS
 62
     1
 10
965.12
 20
619.24
 11
965.12
 21
685.24
  0
LINE
  8
0
  6
CONTINUOUS
 62
     1
 10
965.12
 20
627.24
 11
910.12
 21
627.24
  0
LINE
  8
0
  6
CONTINUOUS
 62
     2
 10
1034.333333
 20
1008.833317
 11
1022.259260171
 21
1012.068555064
  0
LINE
  8
0
  6
CONTINUOUS
 62
     2
 10
1034.333333
 20
1008.833317
 11
1022.259260171
 21
1005.598078936
  0
LINE
  8
0
  6
CONTINUOUS
 62
     2
 10
1034.333333
 20
1008.833317
 11
993.333333
 21
1008.833317
  0
TEXT
  8
0
  6
CONTINUOUS
 62
     3
 10
1000.333333
 20
1018.833317
 30
0.0
 40
20.0
  1
前進
 50
0.0
 41
0.925
 51
0.0
  7
KANJI62
  0
LINE
  8
0
  6
LTYPE3
 62
     2
 10
624.0
 20
807.24
 11
209.72
 21
807.24
  0
LINE
  8
0
  6
CONTINUOUS
 62
     1
 10
300.12
 20
908.24
 11
309.32
 21
908.24
  0
CIRCLE
  8
0
  6
CONTINUOUS
 62
     1
 10
300.12
 20
922.24
 40
12.5
  0
LINE
  8
0
  6
CONTINUOUS
 62
     1
 10
300.12
 20
909.74
 11
309.32
 21
908.24
  0
ARC
  8
0
  6
CONTINUOUS
 62
     1
 10
300.12
 20
922.24
 40
20.5
 50
300.423432294
 51
0.0
  0
LINE
  8
0
  6
CONTINUOUS
 62
     1
 10
309.880585153
 20
903.334879912
 11
309.32
 21
908.24
  0
ARC
  8
0
  6
CONTINUOUS
 62
     1
 10
311.067984073
 20
903.513488336
 40
1.2
 50
118.393405187
 51
188.554293104
  0
ARC
  8
0
  6
CONTINUOUS
 62
     1
 10
300.12
 20
922.24
 40
20.5
 50
0.0
 51
239.707348078
  0
LINE
  8
0
  6
CONTINUOUS
 62
     1
 10
310.005714286
 20
902.24
 11
309.880585153
 21
903.334879912
  0
LINE
  8
0
  6
CONTINUOUS
 62
     1
 10
316.12
 20
902.24
 11
312.12
 21
850.24
  0
LINE
  8
0
  6
CONTINUOUS
 62
     1
 10
312.12
 20
844.64
 11
312.12
 21
850.24
  0
LINE
  8
0
  6
CONTINUOUS
 62
     1
 10
312.12
 20
783.24
 11
312.12
 21
841.54
  0
ARC
  8
0
  6
CONTINUOUS
 62
     1
 10
306.12
 20
783.24
 40
6.0
 50
270.0
 51
0.0
  0
LINE
  8
0
  6
CONTINUOUS
 62
     1
 10
316.12
 20
783.24
 11
316.12
 21
902.24
  0
LINE
  8
0
  6
CONTINUOUS
 62
     1
 10
310.12
 20
777.24
 11
253.12
 21
777.24
  0
ARC
  8
0
  6
CONTINUOUS
 62
     1
 10
310.12
 20
783.24
 40
6.0
 50
270.0
 51
0.0
  0
LINE
  8
0
  6
CONTINUOUS
 62
     1
 10
312.12
 20
850.24
 11
281.12
 21
850.24
  0
LINE
  8
0
  6
LTYPE3
 62
     2
 10
323.62
 20
922.24
 11
274.62
 21
922.24
  0
LINE
  8
0
  6
CONTINUOUS
 62
     1
 10
300.12
 20
908.24
 11
290.92
 21
908.24
  0
LINE
  8
0
  6
CONTINUOUS
 62
     1
 10
300.12
 20
909.74
 11
290.92
 21
908.24
  0
LINE
  8
0
  6
CONTINUOUS
 62
     1
 10
290.359414847
 20
903.334879912
 11
290.92
 21
908.24
  0
ARC
  8
0
  6
CONTINUOUS
 62
     1
 10
289.172015927
 20
903.513488336
 40
1.2
 50
351.445706896
 51
61.606594813
  0
LINE
  8
0
  6
CONTINUOUS
 62
     1
 10
290.234285714
 20
902.24
 11
290.359414847
 21
903.334879912
  0
ARC
  8
0
  6
CONTINUOUS
 62
     1
 10
290.12
 20
899.24
 40
3.0
 50
90.0
 51
180.0
  0
LINE
  8
0
  6
CONTINUOUS
 62
     1
 10
249.12
 20
790.24
 11
249.12
 21
824.24
  0
LINE
  8
0
  6
CONTINUOUS
 62
     1
 10
287.12
 20
856.24
 11
287.12
 21
899.24
  0
LINE
  8
0
  6
CONTINUOUS
 62
     1
 10
281.12
 20
850.24
 11
253.12
 21
850.24
  0
ARC
  8
0
  6
CONTINUOUS
 62
     1
 10
281.12
 20
856.24
 40
6.0
 50
270.0
 51
360.0
  0
LINE
  8
0
  6
LTYPE3
 62
     2
 10
300.12
 20
888.34
 11
300.12
 21
951.04
  0
ARC
  8
0
  6
CONTINUOUS
 62
     2
 10
187.0
 20
807.0
 40
20.0
 50
231.952957468
 51
156.801409486
  0
LINE
  8
0
  6
CONTINUOUS
 62
     2
 10
168.6170994
 20
814.878385972
 11
170.91179211
 21
824.715824749
  0
TEXT
  8
0
  6
CONTINUOUS
 62
     2
 10
106.6170994
 20
797.878385972
 30
0.0
 40
15.0
  1
前進方向
 50
0.0
 41
0.9
 51
0.0
  7
KANJI59
  0
LINE
  8
0
  6
CONTINUOUS
 62
     2
 10
168.6170994
 20
814.878385972
 11
176.885260778
 21
819.785722507
  0
LINE
  8
0
  6
CONTINUOUS
 62
     1
 10
253.12
 20
574.74
 11
253.12
 21
850.24
  0
LINE
  8
0
  6
CONTINUOUS
 62
     1
 10
324.12
 20
574.74
 11
324.12
 21
902.24
  0
LINE
  8
0
  6
CONTINUOUS
 62
     1
 10
253.12
 20
824.24
 11
211.12
 21
824.24
  0
LINE
  8
0
  6
CONTINUOUS
 62
     1
 10
211.12
 20
790.24
 11
211.12
 21
824.24
  0
LINE
  8
0
  6
CONTINUOUS
 62
     1
 10
253.12
 20
790.24
 11
211.12
 21
790.24
  0
LINE
  8
0
  6
CONTINUOUS
 62
     2
 10
223.62
 20
824.04
 11
222.139645058
 21
836.452032438
  0
LINE
  8
0
  6
CONTINUOUS
 62
     2
 10
223.62
 20
824.04
 11
216.131958794
 21
834.048957933
  0
LINE
  8
0
  6
CONTINUOUS
 62
     2
 10
183.7
 20
923.84
 11
102.72
 21
923.84
  0
LINE
  8
0
  6
CONTINUOUS
 62
     2
 10
223.62
 20
824.04
 11
183.7
 21
923.84
  0
TEXT
  8
0
  6
CONTINUOUS
 62
     2
 10
102.72
 20
928.84
 30
0.0
 40
18.0
  1
手動軸カバー
 50
0.0
 41
0.9
 51
0.0
  7
KANJI60
  0
TEXT
  8
0
  6
CONTINUOUS
 62
     3
 10
107.466667
 20
901.766683
 30
1.5
 40
15.0
  1
手動軸□８
 50
0.0
 41
0.9
 51
0.0
  7
KANJI63
  0
LINE
  8
0
  6
CONTINUOUS
 62
     1
 10
353.02
 20
599.24
 11
432.12
 21
599.24
  0
LINE
  8
0
  6
CONTINUOUS
 62
     1
 10
515.12
 20
709.24
 11
506.12
 21
709.24
  0
LINE
  8
0
  6
CONTINUOUS
 62
     1
 10
515.12
 20
595.24
 11
515.12
 21
709.24
  0
LINE
  8
0
  6
CONTINUOUS
 62
     1
 10
506.12
 20
595.24
 11
506.12
 21
709.24
  0
LINE
  8
0
  6
CONTINUOUS
 62
     1
 10
515.12
 20
595.24
 11
506.12
 21
595.24
  0
LINE
  8
0
  6
CONTINUOUS
 62
     1
 10
875.12
 20
604.74
 11
875.12
 21
652.24
  0
LINE
  8
0
  6
CONTINUOUS
 62
     1
 10
910.12
 20
604.74
 11
515.12
 21
604.74
  0
LINE
  8
0
  6
CONTINUOUS
 62
     2
 10
615.107365108
 20
699.74
 11
622.607365108
 21
699.74
  0
LINE
  8
0
  6
CONTINUOUS
 62
     2
 10
618.607365108
 20
604.74
 11
622.607365108
 21
604.74
  0
LINE
  8
0
  6
CONTINUOUS
 62
     1
 10
324.12
 20
706.44
 11
324.12
 21
902.24
  0
LINE
  8
0
  6
CONTINUOUS
 62
     1
 10
324.12
 20
902.24
 11
290.12
 21
902.24
  0
LINE
  8
0
  6
CONTINUOUS
 62
     1
 10
334.12
 20
901.24
 11
324.12
 21
901.24
  0
LINE
  8
0
  6
CONTINUOUS
 62
     1
 10
334.12
 20
713.24
 11
324.12
 21
713.24
  0
LINE
  8
0
  6
CONTINUOUS
 62
     1
 10
346.12
 20
889.21572809
 11
398.792135955
 21
889.21572809
  0
LINE
  8
0
  6
CONTINUOUS
 62
     1
 10
348.62
 20
864.876
 11
348.62
 21
874.676
  0
LINE
  8
0
  6
CONTINUOUS
 62
     1
 10
348.62
 20
874.676
 11
354.234359354
 21
874.676
  0
LINE
  8
0
  6
CONTINUOUS
 62
     1
 10
355.62
 20
872.276
 11
354.234359354
 21
874.676
  0
LINE
  8
0
  6
CONTINUOUS
 62
     1
 10
355.62
 20
864.876
 11
355.62
 21
872.276
  0
LINE
  8
0
  6
CONTINUOUS
 62
     1
 10
348.62
 20
869.776
 11
354.234359354
 21
869.776
  0
LINE
  8
0
  6
CONTINUOUS
 62
     1
 10
348.62
 20
864.876
 11
348.62
 21
855.076
  0
LINE
  8
0
  6
CONTINUOUS
 62
     1
 10
348.62
 20
855.076
 11
354.234359354
 21
855.076
  0
LINE
  8
0
  6
CONTINUOUS
 62
     1
 10
355.62
 20
857.476
 11
354.234359354
 21
855.076
  0
LINE
  8
0
  6
CONTINUOUS
 62
     1
 10
355.62
 20
864.876
 11
355.62
 21
857.476
  0
LINE
  8
0
  6
CONTINUOUS
 62
     1
 10
348.62
 20
859.976
 11
354.234359354
 21
859.976
  0
ARC
  8
0
  6
CONTINUOUS
 62
     1
 10
346.2633172
 20
864.876
 40
9.3566828
 50
328.419912243
 51
31.580087757
  0
ARC
  8
0
  6
CONTINUOUS
 62
     1
 10
352.762116168
 20
872.226
 40
2.858321186
 50
301.002313915
 51
2.989498403
  0
LINE
  8
0
  6
CONTINUOUS
 62
     1
 10
355.62
 20
857.476
 11
354.234359354
 21
855.076
  0
ARC
  8
0
  6
CONTINUOUS
 62
     1
 10
352.762116168
 20
857.526
 40
2.858321186
 50
357.010501597
 51
58.997686085
  0
LINE
  8
0
  6
CONTINUOUS
 62
     1
 10
346.12
 20
874.076
 11
348.62
 21
874.076
  0
LINE
  8
0
  6
CONTINUOUS
 62
     1
 10
346.12
 20
864.876
 11
348.619999996
 21
867.375999996
  0
LINE
  8
0
  6
CONTINUOUS
 62
     1
 10
348.619999996
 20
864.876
 11
346.12
 21
862.376000004
  0
LINE
  8
0
  6
CONTINUOUS
 62
     1
 10
346.12
 20
855.676
 11
348.62
 21
855.676
  0
LINE
  8
0
  6
CONTINUOUS
 62
     1
 10
556.12
 20
866.54
 11
409.12
 21
866.54
  0
LINE
  8
0
  6
CONTINUOUS
 62
     1
 10
556.12
 20
846.54
 11
409.12
 21
846.54
  0
LINE
  8
0
  6
CONTINUOUS
 62
     1
 10
346.12
 20
706.54
 11
346.12
 21
906.54
  0
LINE
  8
0
  6
CONTINUOUS
 62
     1
 10
556.12
 20
886.54
 11
409.12
 21
886.54
  0
LINE
  8
0
  6
CONTINUOUS
 62
     1
 10
527.62
 20
908.54
 11
437.62
 21
908.54
  0
LINE
  8
0
  6
CONTINUOUS
 62
     1
 10
566.12
 20
897.24
 11
399.12
 21
897.24
  0
LINE
  8
0
  6
CONTINUOUS
 62
     1
 10
399.12
 20
715.84
 11
399.12
 21
897.24
  0
LINE
  8
0
  6
LTYPE2
 62
     2
 10
338.62
 20
864.876
 11
364.234359354
 21
864.876
  0
LINE
  8
0
  6
CONTINUOUS
 62
     1
 10
566.12
 20
704.04
 11
566.12
 21
909.04
  0
ARC
  8
0
  6
CONTINUOUS
 62
     1
 10
274.12
 20
806.54
 40
410.0
 50
347.629566941
 51
12.370433059
  0
LINE
  8
2
  6
CONTINUOUS
 62
     2
 10
739.639226439
 20
704.04
 11
739.639226439
 21
909.04
  0
LINE
  8
2
  6
CONTINUOUS
 62
     2
 10
696.795628035
 20
803.394967949
 11
754.52
 21
967.74
  0
LINE
  8
2
  6
CONTINUOUS
 62
     2
 10
704.12
 20
804.94
 11
704.12
 21
1056.94
  0
TEXT
  8
2
  6
CONTINUOUS
 62
     3
 10
734.639226439
 20
772.29
 30
1.5
 40
17.5
  1
φ２０５
 50
90.0
 41
0.914285714
 51
0.0
  7
KANJI64
  0
ARC
  8
0
  6
CONTINUOUS
 62
     1
 10
673.994980463
 20
816.54
 40
10.0
 50
1.432543738
 51
90.0
  0
LINE
  8
0
  6
CONTINUOUS
 62
     1
 10
673.994999151
 20
826.54
 11
566.12
 21
826.54
  0
LINE
  8
2
  6
CONTINUOUS
 62
     2
 10
704.12
 20
824.94
 11
704.12
 21
1026.38
  0
LINE
  8
0
  6
CONTINUOUS
 62
     1
 10
556.12
 20
826.54
 11
409.12
 21
826.54
  0
LINE
  8
0
  6
CONTINUOUS
 62
     1
 10
572.62
 20
919.54
 11
572.62
 21
959.54
  0
LINE
  8
0
  6
CONTINUOUS
 62
     1
 10
553.62
 20
994.54
 11
405.62
 21
920.54
  0
LINE
  8
0
  6
CONTINUOUS
 62
     1
 10
558.092135955
 20
985.59572809
 11
410.092135955
 21
911.59572809
  0
ARC
  8
0
  6
CONTINUOUS
 62
     1
 10
527.62
 20
918.54
 40
10.0
 50
270.0
 51
0.0
  0
ARC
  8
0
  6
CONTINUOUS
 62
     1
 10
437.62
 20
918.54
 40
10.0
 50
180.0
 51
270.0
  0
LINE
  8
0
  6
CONTINUOUS
 62
     1
 10
405.62
 20
920.54
 11
410.092135955
 21
911.59572809
  0
LINE
  8
0
  6
CONTINUOUS
 62
     1
 10
427.62
 20
918.54
 11
427.62
 21
920.45572809
  0
LINE
  8
0
  6
CONTINUOUS
 62
     1
 10
537.62
 20
918.54
 11
537.62
 21
974.45572809
  0
LINE
  8
0
  6
CONTINUOUS
 62
     1
 10
572.62
 20
919.54
 11
537.62
 21
919.54
  0
LINE
  8
0
  6
CONTINUOUS
 62
     1
 10
566.12
 20
906.54
 11
661.934388593
 21
906.54
  0
ARC
  8
0
  6
CONTINUOUS
 62
     1
 10
659.934388593
 20
891.54
 40
15.0
 50
10.945397096
 51
90.0
  0
ARC
  8
0
  6
CONTINUOUS
 62
     1
 10
660.043513917
 20
894.233940371
 40
15.0
 50
10.945397096
 51
90.0
  0
LINE
  8
0
  6
CONTINUOUS
 62
     1
 10
566.12
 20
909.04
 11
661.934388593
 21
909.04
  0
LINE
  8
0
  6
CONTINUOUS
 62
     1
 10
517.52
 20
908.54
 11
517.52
 21
897.24
  0
LINE
  8
0
  6
CONTINUOUS
 62
     1
 10
447.72
 20
908.54
 11
447.72
 21
897.24
  0
LINE
  8
2
  6
CONTINUOUS
 62
     2
 10
739.639226439
 20
909.04
 11
736.403988375
 21
896.965927171
  0
LINE
  8
2
  6
CONTINUOUS
 62
     2
 10
739.639226439
 20
909.04
 11
742.874464503
 21
896.965927171
  0
LINE
  8
2
  6
CONTINUOUS
 62
     2
 10
660.639226439
 20
909.04
 11
749.639226439
 21
909.04
  0
LINE
  8
0
  6
LTYPE2
 62
     2
 10
482.62
 20
895.29
 11
482.62
 21
1004.34
  0
TEXT
  8
2
  6
CONTINUOUS
 62
     3
 10
493.62
 20
1051.94
 30
1.5
 40
17.5
  1
３７０
 50
0.0
 41
0.914285714
 51
0.0
  7
KANJI64
  0
ARC
  8
0
  6
CONTINUOUS
 62
     1
 10
527.62
 20
984.54
 40
10.0
 50
0.0
 51
90.0
  0
LINE
  8
0
  6
CONTINUOUS
 62
     1
 10
527.62
 20
994.54
 11
437.62
 21
994.54
  0
ARC
  8
0
  6
CONTINUOUS
 62
     1
 10
437.62
 20
984.54
 40
10.0
 50
90.0
 51
180.0
  0
LINE
  8
0
  6
CONTINUOUS
 62
     1
 10
427.62
 20
931.45572809
 11
427.62
 21
984.54
  0
LINE
  8
0
  6
CONTINUOUS
 62
     1
 10
553.832135955
 20
995.33572809
 11
558.632135955
 21
986.13572809
  0
LINE
  8
0
  6
CONTINUOUS
 62
     1
 10
572.62
 20
959.54
 11
537.62
 21
959.54
  0
TEXT
  8
2
  6
CONTINUOUS
 62
     3
 10
582.12
 20
997.94
 30
1.5
 40
17.5
  1
ＰＦ３／４
 50
0.0
 41
0.914285714
 51
0.0
  7
KANJI64
  0
LINE
  8
2
  6
CONTINUOUS
 62
     2
 10
582.12
 20
989.94
 11
699.72
 21
989.94
  0
LINE
  8
2
  6
CONTINUOUS
 62
     2
 10
334.12
 20
1046.94
 11
704.12
 21
1046.94
  0
LINE
  8
2
  6
CONTINUOUS
 62
     2
 10
704.12
 20
1046.94
 11
692.045927171
 21
1050.175238064
  0
LINE
  8
2
  6
CONTINUOUS
 62
     2
 10
704.12
 20
1046.94
 11
692.045927171
 21
1043.704761936
  0
LINE
  8
2
  6
CONTINUOUS
 62
     2
 10
573.62
 20
945.94
 11
582.366652882
 21
963.925996313
  0
LINE
  8
2
  6
CONTINUOUS
 62
     2
 10
573.62
 20
945.94
 11
572.201825437
 21
965.88965616
  0
LINE
  8
2
  6
CONTINUOUS
 62
     2
 10
573.62
 20
945.94
 11
582.12
 21
989.94
  0
LINE
  8
2
  6
CONTINUOUS
 62
     2
 10
334.12
 20
1046.94
 11
346.194072829
 21
1043.704761936
  0
LINE
  8
2
  6
CONTINUOUS
 62
     2
 10
334.12
 20
1046.94
 11
346.194072829
 21
1050.175238064
  0
LINE
  8
0
  6
LTYPE2
 62
     2
 10
578.772135955
 20
939.54
 11
527.672135955
 21
939.54
  0
TEXT
  8
0
  6
CONTINUOUS
 62
     2
 10
756.02
 20
972.74
 30
0.0
 40
18.0
  1
手動開放装置
 50
0.0
 41
0.9
 51
0.0
  7
KANJI60
  0
LINE
  8
0
  6
CONTINUOUS
 62
     2
 10
754.52
 20
967.74
 11
855.12
 21
967.74
  0
LINE
  8
0
  6
CONTINUOUS
 62
     1
 10
346.12
 20
723.86427191
 11
398.792135955
 21
723.86427191
  0
LINE
  8
0
  6
CONTINUOUS
 62
     1
 10
348.62
 20
748.204
 11
348.62
 21
738.404
  0
LINE
  8
0
  6
CONTINUOUS
 62
     1
 10
348.62
 20
738.404
 11
354.234359354
 21
738.404
  0
LINE
  8
0
  6
CONTINUOUS
 62
     1
 10
355.62
 20
740.804
 11
354.234359354
 21
738.404
  0
LINE
  8
0
  6
CONTINUOUS
 62
     1
 10
355.62
 20
748.204
 11
355.62
 21
740.804
  0
LINE
  8
0
  6
CONTINUOUS
 62
     1
 10
348.62
 20
743.304
 11
354.234359354
 21
743.304
  0
LINE
  8
0
  6
CONTINUOUS
 62
     1
 10
348.62
 20
748.204
 11
348.62
 21
758.004
  0
LINE
  8
0
  6
CONTINUOUS
 62
     1
 10
348.62
 20
758.004
 11
354.234359354
 21
758.004
  0
LINE
  8
0
  6
CONTINUOUS
 62
     1
 10
355.62
 20
755.604
 11
354.234359354
 21
758.004
  0
LINE
  8
0
  6
CONTINUOUS
 62
     1
 10
355.62
 20
748.204
 11
355.62
 21
755.604
  0
LINE
  8
0
  6
CONTINUOUS
 62
     1
 10
348.62
 20
753.104
 11
354.234359354
 21
753.104
  0
ARC
  8
0
  6
CONTINUOUS
 62
     1
 10
346.2633172
 20
748.204
 40
9.3566828
 50
328.419912243
 51
31.580087757
  0
ARC
  8
0
  6
CONTINUOUS
 62
     1
 10
352.762116168
 20
740.854
 40
2.858321186
 50
357.010501597
 51
58.997686085
  0
LINE
  8
0
  6
CONTINUOUS
 62
     1
 10
355.62
 20
755.604
 11
354.234359354
 21
758.004
  0
ARC
  8
0
  6
CONTINUOUS
 62
     1
 10
352.762116168
 20
755.554
 40
2.858321186
 50
301.002313915
 51
2.989498403
  0
LINE
  8
0
  6
CONTINUOUS
 62
     1
 10
346.12
 20
739.004
 11
348.62
 21
739.004
  0
LINE
  8
0
  6
CONTINUOUS
 62
     1
 10
346.12
 20
748.204
 11
348.619999996
 21
745.704000004
  0
LINE
  8
0
  6
CONTINUOUS
 62
     1
 10
348.619999996
 20
748.204
 11
346.12
 21
750.703999996
  0
LINE
  8
0
  6
CONTINUOUS
 62
     1
 10
346.12
 20
757.404
 11
348.62
 21
757.404
  0
LINE
  8
0
  6
CONTINUOUS
 62
     1
 10
556.12
 20
786.54
 11
409.12
 21
786.54
  0
LINE
  8
0
  6
CONTINUOUS
 62
     1
 10
556.12
 20
766.54
 11
409.12
 21
766.54
  0
LINE
  8
0
  6
CONTINUOUS
 62
     1
 10
556.12
 20
746.54
 11
409.12
 21
746.54
  0
LINE
  8
0
  6
CONTINUOUS
 62
     1
 10
556.12
 20
726.54
 11
409.12
 21
726.54
  0
LINE
  8
0
  6
CONTINUOUS
 62
     1
 10
566.12
 20
786.54
 11
674.494999151
 21
786.54
  0
LINE
  8
0
  6
CONTINUOUS
 62
     1
 10
566.12
 20
715.84
 11
399.12
 21
715.84
  0
LINE
  8
0
  6
CONTINUOUS
 62
     1
 10
566.12
 20
706.54
 11
661.934388593
 21
706.54
  0
LINE
  8
0
  6
LTYPE2
 62
     2
 10
338.62
 20
748.204
 11
364.234359354
 21
748.204
  0
TEXT
  8
0
  6
CONTINUOUS
 62
     2
 10
410.310009455
 20
789.09
 30
0.0
 40
16.8
  1
日本電産
 50
0.0
 41
0.964285714
 51
0.0
  7
KANJI65
  0
TEXT
  8
0
  6
CONTINUOUS
 62
     2
 10
410.310009455
 20
767.09
 30
0.0
 40
16.8
  1
クイックブレーキモータ
 50
0.0
 41
0.821428571
 51
0.0
  7
KANJI66
  0
ARC
  8
0
  6
CONTINUOUS
 62
     1
 10
659.934388593
 20
721.54
 40
15.0
 50
270.0
 51
349.054602904
  0
ARC
  8
0
  6
CONTINUOUS
 62
     1
 10
660.043513917
 20
718.846059629
 40
15.0
 50
270.0
 51
349.054602904
  0
LINE
  8
0
  6
CONTINUOUS
 62
     1
 10
566.12
 20
704.04
 11
661.934388593
 21
704.04
  0
LINE
  8
2
  6
CONTINUOUS
 62
     2
 10
659.639226439
 20
704.04
 11
749.639226439
 21
704.04
  0
LINE
  8
0
  6
CONTINUOUS
 62
     1
 10
690.861517274
 20
822.488101266
 11
690.861517274
 21
753.488101266
  0
POINT
  8
0
  6
CONTINUOUS
 62
     1
 10
690.861517274
 20
753.488101266
  0
LINE
  8
0
  6
CONTINUOUS
 62
     1
 10
690.861517274
 20
753.488101266
 11
695.861517274
 21
753.488101266
  0
POINT
  8
0
  6
CONTINUOUS
 62
     1
 10
695.861517274
 20
753.488101266
  0
LINE
  8
0
  6
CONTINUOUS
 62
     1
 10
695.861517274
 20
753.488101266
 11
695.861517274
 21
822.488101266
  0
LINE
  8
0
  6
CONTINUOUS
 62
     1
 10
701.261517274
 20
766.29
 11
701.261517274
 21
757.49
  0
POINT
  8
0
  6
CONTINUOUS
 62
     1
 10
701.261517274
 20
757.49
  0
LINE
  8
0
  6
CONTINUOUS
 62
     1
 10
701.261517274
 20
757.49
 11
695.961517274
 21
757.49
  0
LINE
  8
0
  6
CONTINUOUS
 62
     1
 10
690.861517274
 20
763.49
 11
681.961517274
 21
763.49
  0
LINE
  8
0
  6
CONTINUOUS
 62
     1
 10
690.861517274
 20
760.39
 11
681.661517274
 21
760.39
  0
LINE
  8
0
  6
LTYPE2
 62
     2
 10
676.961517274
 20
761.99
 11
706.961517274
 21
761.99
  0
LINE
  8
2
  6
CONTINUOUS
 62
     2
 10
739.639226439
 20
704.04
 11
742.874464503
 21
716.114072829
  0
LINE
  8
2
  6
CONTINUOUS
 62
     2
 10
739.639226439
 20
704.04
 11
736.403988375
 21
716.114072829
  0
LINE
  8
2
  6
CONTINUOUS
 62
     2
 10
696.795628035
 20
803.394967949
 11
703.849299494
 21
813.714644249
  0
LINE
  8
2
  6
CONTINUOUS
 62
     2
 10
696.795628035
 20
803.394967949
 11
697.744448559
 21
815.858905513
  0
LINE
  8
0
  6
CONTINUOUS
 62
     1
 10
700.661517274
 20
790.591898734
 11
700.661517274
 21
822.488101266
  0
LINE
  8
0
  6
CONTINUOUS
 62
     1
 10
695.861517274
 20
790.591898734
 11
700.661517274
 21
790.591898734
  0
LINE
  8
0
  6
CONTINUOUS
 62
     1
 10
690.861517274
 20
802.34
 11
684.161517274
 21
802.34
  0
LINE
  8
0
  6
CONTINUOUS
 62
     1
 10
695.861517274
 20
766.29
 11
701.261517274
 21
766.29
  0
POINT
  8
0
  6
CONTINUOUS
 62
     1
 10
701.261517274
 20
766.29
  0
LINE
  8
0
  6
CONTINUOUS
 62
     1
 10
700.661517274
 20
793.14
 11
704.12
 21
793.14
  0
LINE
  8
0
  6
CONTINUOUS
 62
     1
 10
704.12
 20
793.14
 11
704.12
 21
797.74
  0
LINE
  8
0
  6
CONTINUOUS
 62
     1
 10
700.661517274
 20
797.74
 11
704.12
 21
797.74
  0
LINE
  8
0
  6
CONTINUOUS
 62
     1
 10
700.661517274
 20
804.24
 11
704.12
 21
804.24
  0
LINE
  8
0
  6
CONTINUOUS
 62
     1
 10
704.12
 20
804.24
 11
704.12
 21
808.84
  0
ARC
  8
0
  6
CONTINUOUS
 62
     1
 10
673.994980463
 20
796.54
 40
10.0
 50
270.0
 51
358.567456262
  0
LINE
  8
0
  6
CONTINUOUS
 62
     1
 10
690.861517274
 20
822.488101266
 11
700.661517274
 21
822.488101266
  0
LINE
  8
0
  6
CONTINUOUS
 62
     1
 10
700.661517274
 20
819.94
 11
704.12
 21
819.94
  0
LINE
  8
0
  6
CONTINUOUS
 62
     1
 10
704.12
 20
819.94
 11
704.12
 21
815.34
  0
LINE
  8
0
  6
CONTINUOUS
 62
     1
 10
700.661517274
 20
815.34
 11
704.12
 21
815.34
  0
LINE
  8
0
  6
CONTINUOUS
 62
     1
 10
690.861517274
 20
810.74
 11
684.161517274
 21
810.74
  0
LINE
  8
0
  6
CONTINUOUS
 62
     1
 10
700.661517274
 20
808.84
 11
704.12
 21
808.84
  0
LINE
  8
0
  6
CONTINUOUS
 62
     1
 10
346.12
 20
906.54
 11
334.12
 21
906.54
  0
LINE
  8
0
  6
CONTINUOUS
 62
     1
 10
334.12
 20
706.54
 11
334.12
 21
906.54
  0
LINE
  8
0
  6
CONTINUOUS
 62
     1
 10
346.12
 20
706.54
 11
334.12
 21
706.54
  0
ARC
  8
0
  6
CONTINUOUS
 62
     1
 10
941.98407022
 20
590.74
 40
1.0
 50
270.0
 51
345.0
  0
ARC
  8
0
  6
CONTINUOUS
 62
     1
 10
941.984069394
 20
590.74
 40
1.0
 50
195.0
 51
270.0
  0
ARC
  8
0
  6
CONTINUOUS
 62
     1
 10
930.876284995
 20
590.74
 40
1.0
 50
270.0
 51
345.0
  0
ARC
  8
0
  6
CONTINUOUS
 62
     1
 10
930.876283343
 20
590.74
 40
1.0
 50
195.0
 51
270.0
  0
ARC
  8
0
  6
CONTINUOUS
 62
     1
 10
941.98407022
 20
713.74
 40
1.0
 50
15.0
 51
90.0
  0
ARC
  8
0
  6
CONTINUOUS
 62
     1
 10
941.984069394
 20
713.74
 40
1.0
 50
90.0
 51
165.0
  0
ARC
  8
0
  6
CONTINUOUS
 62
     1
 10
930.876284995
 20
713.74
 40
1.0
 50
15.0
 51
90.0
  0
ARC
  8
0
  6
CONTINUOUS
 62
     1
 10
930.876283343
 20
713.74
 40
1.0
 50
90.0
 51
165.0
  0
LINE
  8
0
  6
CONTINUOUS
 62
     1
 10
930.876284169
 20
714.74
 11
930.876284169
 21
652.24
  0
LINE
  8
0
  6
CONTINUOUS
 62
     1
 10
941.98407022
 20
714.74
 11
941.98407022
 21
652.24
  0
LINE
  8
0
  6
CONTINUOUS
 62
     1
 10
950.12
 20
617.24
 11
942.949996046
 21
590.481180955
  0
LINE
  8
0
  6
CONTINUOUS
 62
     1
 10
950.12
 20
687.24
 11
942.949996046
 21
713.998819045
  0
LINE
  8
0
  6
CONTINUOUS
 62
     1
 10
962.62
 20
689.24
 11
952.62
 21
689.24
  0
LINE
  8
0
  6
CONTINUOUS
 62
     1
 10
952.87
 20
687.24
 11
950.12
 21
687.24
  0
LINE
  8
0
  6
CONTINUOUS
 62
     1
 10
965.12
 20
687.24
 11
962.57
 21
687.24
  0
LINE
  8
0
  6
CONTINUOUS
 62
     1
 10
952.62
 20
652.24
 11
952.62
 21
689.24
  0
LINE
  8
0
  6
CONTINUOUS
 62
     1
 10
962.62
 20
652.24
 11
962.62
 21
689.24
  0
LINE
  8
0
  6
CONTINUOUS
 62
     1
 10
950.12
 20
617.24
 11
965.12
 21
617.24
  0
LINE
  8
0
  6
CONTINUOUS
 62
     1
 10
965.12
 20
687.24
 11
965.12
 21
617.24
  0
LINE
  8
0
  6
CONTINUOUS
 62
     1
 10
962.62
 20
615.24
 11
952.62
 21
615.24
  0
LINE
  8
0
  6
CONTINUOUS
 62
     1
 10
962.62
 20
617.24
 11
962.62
 21
615.24
  0
LINE
  8
0
  6
CONTINUOUS
 62
     1
 10
952.62
 20
617.24
 11
952.62
 21
615.24
  0
LINE
  8
0
  6
CONTINUOUS
 62
     1
 10
954.038342309
 20
617.24
 11
953.038342309
 21
618.24
  0
LINE
  8
0
  6
CONTINUOUS
 62
     1
 10
956.866769433
 20
617.24
 11
955.866769433
 21
618.24
  0
LINE
  8
0
  6
CONTINUOUS
 62
     1
 10
959.695196558
 20
617.24
 11
958.695196558
 21
618.24
  0
LINE
  8
0
  6
CONTINUOUS
 62
     1
 10
962.523623683
 20
617.24
 11
961.523623683
 21
618.24
  0
LINE
  8
0
  6
CONTINUOUS
 62
     1
 10
964.831190098
 20
617.76086071
 11
964.352050808
 21
618.24
  0
LINE
  8
0
  6
CONTINUOUS
 62
     1
 10
931.842210821
 20
590.481180955
 11
935.959672307
 21
601.931558255
  0
ARC
  8
0
  6
CONTINUOUS
 62
     1
 10
936.430177195
 20
601.762368568
 40
0.5
 50
19.778167542
 51
160.221832458
  0
LINE
  8
0
  6
CONTINUOUS
 62
     1
 10
941.018143568
 20
590.481180955
 11
936.900682083
 21
601.931558255
  0
ARC
  8
0
  6
CONTINUOUS
 62
     1
 10
925.322391144
 20
601.762368568
 40
0.5
 50
19.778167542
 51
160.221832458
  0
LINE
  8
0
  6
CONTINUOUS
 62
     1
 10
929.910357517
 20
590.481180955
 11
925.792896032
 21
601.931558255
  0
LINE
  8
0
  6
CONTINUOUS
 62
     1
 10
931.842210821
 20
713.998819045
 11
935.959672307
 21
702.548441745
  0
ARC
  8
0
  6
CONTINUOUS
 62
     1
 10
936.430177195
 20
702.717631432
 40
0.5
 50
199.778167542
 51
340.221832458
  0
LINE
  8
0
  6
CONTINUOUS
 62
     1
 10
941.018143568
 20
713.998819045
 11
936.900682083
 21
702.548441745
  0
ARC
  8
0
  6
CONTINUOUS
 62
     1
 10
925.322391144
 20
702.717631432
 40
0.5
 50
199.778167542
 51
340.221832458
  0
LINE
  8
0
  6
CONTINUOUS
 62
     1
 10
929.910357517
 20
713.998819045
 11
925.792896032
 21
702.548441745
  0
LINE
  8
0
  6
CONTINUOUS
 62
     1
 10
925.322392307
 20
702.24
 11
925.322392307
 21
652.24
  0
LINE
  8
0
  6
CONTINUOUS
 62
     1
 10
936.430177532
 20
652.24
 11
936.430177532
 21
702.34
  0
ARC
  8
0
  6
CONTINUOUS
 62
     1
 10
872.240539471
 20
713.74
 40
1.0
 50
90.0
 51
165.0
  0
ARC
  8
0
  6
CONTINUOUS
 62
     1
 10
872.240540297
 20
713.74
 40
1.0
 50
15.0
 51
90.0
  0
ARC
  8
0
  6
CONTINUOUS
 62
     1
 10
883.348324696
 20
713.74
 40
1.0
 50
90.0
 51
165.0
  0
ARC
  8
0
  6
CONTINUOUS
 62
     1
 10
883.348326348
 20
713.74
 40
1.0
 50
15.0
 51
90.0
  0
LINE
  8
0
  6
CONTINUOUS
 62
     1
 10
867.587949192
 20
700.24
 11
871.274613644
 21
713.998819045
  0
LINE
  8
0
  6
CONTINUOUS
 62
     1
 10
872.240539471
 20
714.74
 11
872.240539471
 21
652.24
  0
LINE
  8
0
  6
CONTINUOUS
 62
     1
 10
883.348325522
 20
714.74
 11
883.348325522
 21
652.24
  0
LINE
  8
0
  6
CONTINUOUS
 62
     1
 10
865.12
 20
700.74
 11
867.62
 21
700.74
  0
LINE
  8
0
  6
CONTINUOUS
 62
     1
 10
852.62
 20
700.74
 11
855.12
 21
700.74
  0
LINE
  8
0
  6
CONTINUOUS
 62
     1
 10
865.12
 20
652.24
 11
865.12
 21
702.74
  0
LINE
  8
0
  6
CONTINUOUS
 62
     1
 10
855.12
 20
702.74
 11
865.12
 21
702.74
  0
LINE
  8
0
  6
CONTINUOUS
 62
     1
 10
855.12
 20
652.24
 11
855.12
 21
702.74
  0
LINE
  8
0
  6
CONTINUOUS
 62
     1
 10
873.206466123
 20
713.998819045
 11
877.323927608
 21
702.548441745
  0
LINE
  8
0
  6
CONTINUOUS
 62
     1
 10
878.264937384
 20
702.548441745
 11
882.382398869
 21
713.998819045
  0
ARC
  8
0
  6
CONTINUOUS
 62
     1
 10
877.794432496
 20
702.717631432
 40
0.5
 50
199.778167542
 51
340.221832458
  0
LINE
  8
0
  6
CONTINUOUS
 62
     1
 10
884.314252174
 20
713.998819045
 11
888.431713659
 21
702.548441745
  0
ARC
  8
0
  6
CONTINUOUS
 62
     1
 10
888.902218547
 20
702.717631432
 40
0.5
 50
199.778167542
 51
340.221832458
  0
LINE
  8
0
  6
CONTINUOUS
 62
     1
 10
877.794432159
 20
652.24
 11
877.794432159
 21
702.34
  0
LINE
  8
0
  6
CONTINUOUS
 62
     1
 10
888.902217384
 20
702.34
 11
888.902217384
 21
652.24
  0
ARC
  8
0
  6
CONTINUOUS
 62
     1
 10
872.240539471
 20
590.74
 40
1.0
 50
195.0
 51
270.0
  0
ARC
  8
0
  6
CONTINUOUS
 62
     1
 10
872.240540297
 20
590.74
 40
1.0
 50
270.0
 51
345.0
  0
ARC
  8
0
  6
CONTINUOUS
 62
     1
 10
883.348324696
 20
590.74
 40
1.0
 50
195.0
 51
270.0
  0
ARC
  8
0
  6
CONTINUOUS
 62
     1
 10
883.348326348
 20
590.74
 40
1.0
 50
270.0
 51
345.0
  0
LINE
  8
0
  6
CONTINUOUS
 62
     1
 10
867.587949192
 20
604.24
 11
871.274613644
 21
590.481180955
  0
LINE
  8
0
  6
CONTINUOUS
 62
     1
 10
854.79913929
 20
601.74
 11
864.79913929
 21
601.74
  0
LINE
  8
0
  6
CONTINUOUS
 62
     1
 10
854.79913929
 20
603.74
 11
854.79913929
 21
601.74
  0
LINE
  8
0
  6
CONTINUOUS
 62
     1
 10
864.79913929
 20
603.74
 11
864.79913929
 21
601.74
  0
LINE
  8
0
  6
CONTINUOUS
 62
     1
 10
856.506291501
 20
603.74
 11
855.506291501
 21
604.74
  0
LINE
  8
0
  6
CONTINUOUS
 62
     1
 10
859.334718626
 20
603.74
 11
858.334718626
 21
604.74
  0
LINE
  8
0
  6
CONTINUOUS
 62
     1
 10
862.163145751
 20
603.74
 11
861.163145751
 21
604.74
  0
LINE
  8
0
  6
CONTINUOUS
 62
     1
 10
864.991572875
 20
603.74
 11
863.991572875
 21
604.74
  0
LINE
  8
0
  6
CONTINUOUS
 62
     1
 10
867.29913929
 20
604.26086071
 11
866.82
 21
604.74
  0
LINE
  8
0
  6
CONTINUOUS
 62
     1
 10
852.62
 20
603.74
 11
867.587949192
 21
603.74
  0
LINE
  8
0
  6
CONTINUOUS
 62
     1
 10
852.877864376
 20
604.54
 11
852.677864376
 21
604.74
  0
LINE
  8
0
  6
CONTINUOUS
 62
     1
 10
873.206466123
 20
590.481180955
 11
877.323927608
 21
601.931558255
  0
LINE
  8
0
  6
CONTINUOUS
 62
     1
 10
878.264937384
 20
601.931558255
 11
882.382398869
 21
590.481180955
  0
ARC
  8
0
  6
CONTINUOUS
 62
     1
 10
877.794432496
 20
601.762368568
 40
0.5
 50
19.778167542
 51
160.221832458
  0
LINE
  8
0
  6
CONTINUOUS
 62
     1
 10
884.314252174
 20
590.481180955
 11
888.431713659
 21
601.931558255
  0
ARC
  8
0
  6
CONTINUOUS
 62
     1
 10
888.902218547
 20
601.762368568
 40
0.5
 50
19.778167542
 51
160.221832458
  0
LINE
  8
0
  6
LTYPE5
 62
     2
 10
888.902217384
 20
702.217631432
 11
925.322392307
 21
702.217631432
  0
LINE
  8
0
  6
LTYPE5
 62
     2
 10
888.902217384
 20
602.217631432
 11
925.322392307
 21
602.217631432
  0
LINE
  8
0
  6
LTYPE5
 62
     2
 10
930.876284995
 20
714.74
 11
883.348325522
 21
714.74
  0
LINE
  8
0
  6
LTYPE5
 62
     2
 10
930.876284995
 20
589.74
 11
883.348325522
 21
589.74
  0
LINE
  8
0
  6
CONTINUOUS
 62
     1
 10
867.62
 20
652.24
 11
867.62
 21
700.74
  0
LINE
  8
0
  6
CONTINUOUS
 62
     1
 10
852.62
 20
652.24
 11
852.62
 21
700.74
  0
LINE
  8
0
  6
CONTINUOUS
 62
     1
 10
950.12
 20
687.24
 11
950.12
 21
652.24
  0
LINE
  8
0
  6
CONTINUOUS
 62
     1
 10
910.12
 20
604.74
 11
910.12
 21
652.24
  0
ARC
  8
0
  6
CONTINUOUS
 62
     1
 10
941.98407022
 20
899.34
 40
1.0
 50
15.0
 51
90.0
  0
ARC
  8
0
  6
CONTINUOUS
 62
     1
 10
941.984069394
 20
899.34
 40
1.0
 50
90.0
 51
165.0
  0
ARC
  8
0
  6
CONTINUOUS
 62
     1
 10
930.876284995
 20
899.34
 40
1.0
 50
15.0
 51
90.0
  0
ARC
  8
0
  6
CONTINUOUS
 62
     1
 10
930.876283343
 20
899.34
 40
1.0
 50
90.0
 51
165.0
  0
ARC
  8
0
  6
CONTINUOUS
 62
     1
 10
941.98407022
 20
776.34
 40
1.0
 50
270.0
 51
345.0
  0
ARC
  8
0
  6
CONTINUOUS
 62
     1
 10
941.984069394
 20
776.34
 40
1.0
 50
195.0
 51
270.0
  0
ARC
  8
0
  6
CONTINUOUS
 62
     1
 10
930.876284995
 20
776.34
 40
1.0
 50
270.0
 51
345.0
  0
ARC
  8
0
  6
CONTINUOUS
 62
     1
 10
930.876283343
 20
776.34
 40
1.0
 50
195.0
 51
270.0
  0
LINE
  8
0
  6
CONTINUOUS
 62
     1
 10
950.12
 20
872.84
 11
942.949996046
 21
899.598819045
  0
LINE
  8
0
  6
CONTINUOUS
 62
     1
 10
950.12
 20
802.84
 11
942.949996046
 21
776.081180955
  0
LINE
  8
0
  6
CONTINUOUS
 62
     1
 10
962.62
 20
800.84
 11
952.62
 21
800.84
  0
LINE
  8
0
  6
CONTINUOUS
 62
     1
 10
950.12
 20
872.84
 11
965.12
 21
872.84
  0
LINE
  8
0
  6
CONTINUOUS
 62
     1
 10
962.62
 20
874.84
 11
952.62
 21
874.84
  0
LINE
  8
0
  6
CONTINUOUS
 62
     1
 10
962.62
 20
872.84
 11
962.62
 21
874.84
  0
LINE
  8
0
  6
CONTINUOUS
 62
     1
 10
952.62
 20
872.84
 11
952.62
 21
874.84
  0
LINE
  8
0
  6
CONTINUOUS
 62
     1
 10
950.12
 20
802.84
 11
950.12
 21
872.84
  0
LINE
  8
0
  6
CONTINUOUS
 62
     1
 10
931.842210821
 20
899.598819045
 11
935.959672307
 21
888.148441745
  0
ARC
  8
0
  6
CONTINUOUS
 62
     1
 10
936.430177195
 20
888.317631432
 40
0.5
 50
199.778167542
 51
340.221832458
  0
LINE
  8
0
  6
CONTINUOUS
 62
     1
 10
941.018143568
 20
899.598819045
 11
936.900682083
 21
888.148441745
  0
ARC
  8
0
  6
CONTINUOUS
 62
     1
 10
925.322391144
 20
888.317631432
 40
0.5
 50
199.778167542
 51
340.221832458
  0
LINE
  8
0
  6
CONTINUOUS
 62
     1
 10
929.910357517
 20
899.598819045
 11
925.792896032
 21
888.148441745
  0
LINE
  8
0
  6
CONTINUOUS
 62
     1
 10
931.842210821
 20
776.081180955
 11
935.959672307
 21
787.531558255
  0
ARC
  8
0
  6
CONTINUOUS
 62
     1
 10
936.430177195
 20
787.362368568
 40
0.5
 50
19.778167542
 51
160.221832458
  0
LINE
  8
0
  6
CONTINUOUS
 62
     1
 10
941.018143568
 20
776.081180955
 11
936.900682083
 21
787.531558255
  0
ARC
  8
0
  6
CONTINUOUS
 62
     1
 10
925.322391144
 20
787.362368568
 40
0.5
 50
19.778167542
 51
160.221832458
  0
LINE
  8
0
  6
CONTINUOUS
 62
     1
 10
929.910357517
 20
776.081180955
 11
925.792896032
 21
787.531558255
  0
LINE
  8
0
  6
CONTINUOUS
 62
     1
 10
941.98407022
 20
775.34
 11
941.98407022
 21
900.34
  0
LINE
  8
0
  6
CONTINUOUS
 62
     1
 10
930.876284169
 20
775.34
 11
930.876284169
 21
900.34
  0
LINE
  8
0
  6
CONTINUOUS
 62
     1
 10
925.322392307
 20
787.84
 11
925.322392307
 21
887.862368568
  0
LINE
  8
0
  6
CONTINUOUS
 62
     1
 10
936.430177532
 20
887.862368568
 11
936.430177532
 21
787.74
  0
LINE
  8
0
  6
LTYPE5
 62
     2
 10
930.876284995
 20
900.34
 11
902.12
 21
900.34
  0
LINE
  8
0
  6
LTYPE5
 62
     2
 10
902.12
 20
887.862368568
 11
925.322392307
 21
887.862368568
  0
LINE
  8
0
  6
LTYPE5
 62
     2
 10
930.876284995
 20
775.34
 11
902.12
 21
775.34
  0
LINE
  8
0
  6
LTYPE5
 62
     2
 10
902.12
 20
787.862368568
 11
925.322392307
 21
787.862368568
  0
LINE
  8
0
  6
CONTINUOUS
 62
     2
 10
898.12
 20
900.34
 11
879.12
 21
900.34
  0
LINE
  8
0
  6
CONTINUOUS
 62
     2
 10
885.12
 20
900.34
 11
881.237714323
 21
885.851112606
  0
LINE
  8
0
  6
CONTINUOUS
 62
     2
 10
885.12
 20
900.34
 11
889.002285677
 21
885.851112606
  0
LINE
  8
0
  6
CONTINUOUS
 62
     2
 10
885.12
 20
900.34
 11
885.12
 21
775.34
  0
LINE
  8
0
  6
CONTINUOUS
 62
     2
 10
885.12
 20
775.34
 11
889.002285677
 21
789.828887394
  0
LINE
  8
0
  6
CONTINUOUS
 62
     2
 10
885.12
 20
775.34
 11
881.237714323
 21
789.828887394
  0
LINE
  8
0
  6
CONTINUOUS
 62
     2
 10
898.12
 20
775.34
 11
879.12
 21
775.34
  0
TEXT
  8
0
  6
CONTINUOUS
 62
     3
 10
882.12
 20
805.44
 30
0.0
 40
18.0
  1
φ１２５
 50
90.0
 41
0.9
 51
0.0
  7
KANJI60
  0
LINE
  8
0
  6
CONTINUOUS
 62
     1
 10
952.62
 20
802.84
 11
952.62
 21
800.84
  0
LINE
  8
0
  6
CONTINUOUS
 62
     1
 10
962.62
 20
802.84
 11
962.62
 21
800.84
  0
LINE
  8
0
  6
CONTINUOUS
 62
     1
 10
965.12
 20
802.84
 11
950.12
 21
802.84
  0
LINE
  8
0
  6
CONTINUOUS
 62
     2
 10
334.12
 20
912.54
 11
334.12
 21
1052.94
  0
LINE
  8
0
  6
CONTINUOUS
 62
     2
 10
334.12
 20
1046.94
 11
348.608887394
 21
1043.057714323
  0
LINE
  8
0
  6
CONTINUOUS
 62
     2
 10
334.12
 20
1046.94
 11
348.608887394
 21
1050.822285677
  0
LINE
  8
0
  6
CONTINUOUS
 62
     2
 10
356.62
 20
1046.94
 11
334.12
 21
1046.94
  0
LINE
  8
0
  6
CONTINUOUS
 62
     2
 10
334.12
 20
1046.94
 11
324.12
 21
1046.94
  0
LINE
  8
0
  6
CONTINUOUS
 62
     2
 10
324.12
 20
1046.94
 11
301.62
 21
1046.94
  0
LINE
  8
0
  6
CONTINUOUS
 62
     2
 10
324.12
 20
1046.94
 11
309.631112606
 21
1050.822285677
  0
LINE
  8
0
  6
CONTINUOUS
 62
     2
 10
324.12
 20
1046.94
 11
309.631112606
 21
1043.057714323
  0
LINE
  8
0
  6
CONTINUOUS
 62
     2
 10
324.12
 20
908.24
 11
324.12
 21
1052.94
  0
TEXT
  8
0
  6
CONTINUOUS
 62
     3
 10
312.92
 20
1049.94
 30
0.0
 40
18.0
  1
１０
 50
0.0
 41
0.9
 51
0.0
  7
KANJI60
  0
LINE
  8
0
  6
CONTINUOUS
 62
     2
 10
324.12
 20
1038.44
 11
324.12
 21
1052.94
  0
LINE
  8
0
  6
CONTINUOUS
 62
     2
 10
324.12
 20
1046.94
 11
309.631112606
 21
1050.822285677
  0
LINE
  8
0
  6
CONTINUOUS
 62
     2
 10
324.12
 20
1046.94
 11
309.631112606
 21
1043.057714323
  0
LINE
  8
0
  6
CONTINUOUS
 62
     2
 10
324.12
 20
1046.94
 11
211.12
 21
1046.94
  0
LINE
  8
0
  6
CONTINUOUS
 62
     2
 10
211.12
 20
1046.94
 11
225.608887394
 21
1043.057714323
  0
LINE
  8
0
  6
CONTINUOUS
 62
     2
 10
211.12
 20
1046.94
 11
225.608887394
 21
1050.822285677
  0
LINE
  8
0
  6
CONTINUOUS
 62
     2
 10
211.12
 20
830.24
 11
211.12
 21
1052.94
  0
TEXT
  8
0
  6
CONTINUOUS
 62
     3
 10
243.32
 20
1049.94
 30
0.0
 40
18.0
  1
１１３
 50
0.0
 41
0.9
 51
0.0
  7
KANJI60
  0
LINE
  8
0
  6
LTYPE1
 62
     2
 10
981.12
 20
689.24
 11
981.12
 21
579.24
  0
LINE
  8
0
  6
LTYPE1
 62
     2
 10
996.12
 20
626.74
 11
996.12
 21
676.74
  0
CIRCLE
  8
0
  6
CONTINUOUS
 62
     1
 10
1031.12
 20
651.74
 40
12.5
  0
CIRCLE
  8
0
  6
CONTINUOUS
 62
     1
 10
1031.12
 20
651.74
 40
22.0
  0
CIRCLE
  8
0
  6
CONTINUOUS
 62
     1
 10
1031.12
 20
667.24
 40
3.0
  0
LINE
  8
0
  6
LTYPE6
 62
     2
 10
1031.12
 20
626.74
 11
1031.12
 21
683.84
  0
LINE
  8
0
  6
CONTINUOUS
 62
     2
 10
1038.62
 20
661.34
 11
1047.533448812
 21
670.103585469
  0
LINE
  8
0
  6
CONTINUOUS
 62
     2
 10
1038.62
 20
661.34
 11
1041.957480372
 21
673.38621205
  0
LINE
  8
0
  6
CONTINUOUS
 62
     2
 10
1038.62
 20
661.34
 11
1075.12
 21
723.34
  0
ARC
  8
0
  6
CONTINUOUS
 62
     1
 10
1048.12
 20
669.24
 40
8.0
 50
0.0
 51
90.0
  0
LINE
  8
0
  6
CONTINUOUS
 62
     1
 10
981.12
 20
677.24
 11
1048.12
 21
677.24
  0
LINE
  8
0
  6
CONTINUOUS
 62
     1
 10
1035.32
 20
634.94
 11
1033.32
 21
634.64
  0
LINE
  8
0
  6
CONTINUOUS
 62
     1
 10
1033.055384615
 20
637.770769231
 11
1035.32
 21
634.94
  0
LINE
  8
0
  6
CONTINUOUS
 62
     1
 10
981.12
 20
627.24
 11
1048.12
 21
627.24
  0
ARC
  8
0
  6
CONTINUOUS
 62
     1
 10
1048.12
 20
635.24
 40
8.0
 50
270.0
 51
0.0
  0
LINE
  8
0
  6
CONTINUOUS
 62
     1
 10
1026.92
 20
634.94
 11
1028.92
 21
634.64
  0
LINE
  8
0
  6
CONTINUOUS
 62
     1
 10
1029.42
 20
639.34
 11
1029.184615385
 21
637.770769231
  0
LINE
  8
0
  6
CONTINUOUS
 62
     1
 10
1029.184615385
 20
637.770769231
 11
1026.92
 21
634.94
  0
LINE
  8
0
  6
CONTINUOUS
 62
     1
 10
1031.12
 20
637.34
 11
1028.92
 21
634.64
  0
LINE
  8
0
  6
CONTINUOUS
 62
     1
 10
1032.82
 20
639.34
 11
1033.055384615
 21
637.770769231
  0
LINE
  8
0
  6
CONTINUOUS
 62
     1
 10
1031.12
 20
637.34
 11
1033.32
 21
634.64
  0
LINE
  8
2
  6
CONTINUOUS
 62
     2
 10
981.12
 20
622.24
 11
981.12
 21
432.14
  0
LINE
  8
0
  6
CONTINUOUS
 62
     2
 10
1031.12
 20
626.115
 11
1031.12
 21
394.6025
  0
LINE
  8
2
  6
CONTINUOUS
 62
     2
 10
981.12
 20
442.14
 11
969.045927171
 21
445.375238064
  0
LINE
  8
2
  6
CONTINUOUS
 62
     2
 10
981.12
 20
442.14
 11
969.045927171
 21
438.904761936
  0
LINE
  8
2
  6
CONTINUOUS
 62
     2
 10
981.12
 20
442.14
 11
993.194072829
 21
438.904761936
  0
LINE
  8
2
  6
CONTINUOUS
 62
     2
 10
981.12
 20
442.14
 11
993.194072829
 21
445.375238064
  0
LINE
  8
2
  6
CONTINUOUS
 62
     2
 10
981.12
 20
442.14
 11
1031.12
 21
442.14
  0
LINE
  8
2
  6
CONTINUOUS
 62
     2
 10
1031.12
 20
442.14
 11
1019.045927171
 21
445.375238064
  0
LINE
  8
2
  6
CONTINUOUS
 62
     2
 10
1031.12
 20
442.14
 11
1019.045927171
 21
438.904761936
  0
LINE
  8
2
  6
CONTINUOUS
 62
     2
 10
1031.12
 20
407.1025
 11
1031.12
 21
452.14
  0
TEXT
  8
2
  6
CONTINUOUS
 62
     2
 10
989.37
 20
447.14
 30
0.0
 40
18.0
  1
５０
 50
0.0
 41
0.9
 51
0.0
  7
KANJI60
  0
LINE
  8
0
  6
CONTINUOUS
 62
     2
 10
1031.12
 20
402.1025
 11
1019.045927171
 21
405.337738064
  0
LINE
  8
0
  6
CONTINUOUS
 62
     2
 10
1031.12
 20
402.1025
 11
1019.045927171
 21
398.867261936
  0
LINE
  8
0
  6
CONTINUOUS
 62
     2
 10
1031.12
 20
357.74
 11
1019.045927171
 21
360.975238064
  0
LINE
  8
0
  6
CONTINUOUS
 62
     2
 10
1031.12
 20
394.6025
 11
1031.12
 21
350.24
  0
LINE
  8
0
  6
CONTINUOUS
 62
     2
 10
1031.12
 20
357.74
 11
1019.045927171
 21
354.504761936
  0
LINE
  8
0
  6
CONTINUOUS
 62
     2
 10
1024.87
 20
755.34
 11
943.87
 21
755.34
  0
LINE
  8
0
  6
CONTINUOUS
 62
     2
 10
996.12
 20
755.34
 11
1008.194072829
 21
752.104761936
  0
LINE
  8
0
  6
CONTINUOUS
 62
     2
 10
996.12
 20
755.34
 11
1008.194072829
 21
758.575238064
  0
LINE
  8
0
  6
CONTINUOUS
 62
     2
 10
996.12
 20
755.34
 11
1031.12
 21
755.34
  0
LINE
  8
0
  6
CONTINUOUS
 62
     2
 10
1031.12
 20
755.34
 11
1019.045927171
 21
758.575238064
  0
LINE
  8
0
  6
CONTINUOUS
 62
     2
 10
1031.12
 20
755.34
 11
1019.045927171
 21
752.104761936
  0
LINE
  8
0
  6
CONTINUOUS
 62
     2
 10
996.12
 20
755.34
 11
1008.194072829
 21
752.104761936
  0
LINE
  8
0
  6
CONTINUOUS
 62
     2
 10
996.12
 20
755.34
 11
1008.194072829
 21
758.575238064
  0
LINE
  8
0
  6
CONTINUOUS
 62
     2
 10
981.12
 20
755.34
 11
969.045927171
 21
758.575238064
  0
LINE
  8
0
  6
CONTINUOUS
 62
     2
 10
981.12
 20
755.34
 11
969.045927171
 21
752.104761936
  0
LINE
  8
0
  6
CONTINUOUS
 62
     2
 10
1031.12
 20
790.24
 11
1031.12
 21
747.84
  0
LINE
  8
0
  6
CONTINUOUS
 62
     2
 10
996.12
 20
822.74
 11
996.12
 21
747.84
  0
LINE
  8
0
  6
CONTINUOUS
 62
     2
 10
981.12
 20
798.74
 11
981.12
 21
747.84
  0
TEXT
  8
0
  6
CONTINUOUS
 62
     2
 10
944.87
 20
758.34
 30
0.0
 40
18.0
  1
１５
 50
0.0
 41
0.9
 51
0.0
  7
KANJI60
  0
TEXT
  8
0
  6
CONTINUOUS
 62
     2
 10
999.37
 20
760.34
 30
0.0
 40
18.0
  1
３５
 50
0.0
 41
0.9
 51
0.0
  7
KANJI60
  0
LINE
  8
2
  6
CONTINUOUS
 62
     2
 10
1031.12
 20
761.34
 11
1031.12
 21
749.34
  0
LINE
  8
2
  6
CONTINUOUS
 62
     2
 10
1031.12
 20
755.34
 11
1016.631112606
 21
759.222285677
  0
LINE
  8
2
  6
CONTINUOUS
 62
     2
 10
1031.12
 20
755.34
 11
1016.631112606
 21
751.457714323
  0
LINE
  8
2
  6
CONTINUOUS
 62
     2
 10
1008.62
 20
755.34
 11
1031.12
 21
755.34
  0
LINE
  8
2
  6
CONTINUOUS
 62
     2
 10
1031.12
 20
755.34
 11
1056.12
 21
755.34
  0
LINE
  8
0
  6
LTYPE2
 62
     2
 10
941.62
 20
837.84
 11
1086.12
 21
837.84
  0
LINE
  8
0
  6
CONTINUOUS
 62
     1
 10
996.12
 20
825.34
 11
1056.12
 21
825.34
  0
LINE
  8
0
  6
CONTINUOUS
 62
     1
 10
1009.12
 20
805.84
 11
1053.12
 21
805.84
  0
LINE
  8
0
  6
CONTINUOUS
 62
     1
 10
1018.62
 20
799.84
 11
1043.62
 21
799.84
  0
LINE
  8
0
  6
CONTINUOUS
 62
     1
 10
1043.62
 20
799.84
 11
1043.62
 21
805.84
  0
LINE
  8
0
  6
CONTINUOUS
 62
     1
 10
1018.62
 20
799.84
 11
1018.62
 21
805.84
  0
LINE
  8
0
  6
CONTINUOUS
 62
     1
 10
1053.12
 20
805.84
 11
1053.12
 21
810.34
  0
LINE
  8
0
  6
CONTINUOUS
 62
     1
 10
1009.12
 20
805.84
 11
1009.12
 21
810.34
  0
CIRCLE
  8
0
  6
CONTINUOUS
 62
     1
 10
1031.12
 20
803.84
 40
2.0
  0
LINE
  8
0
  6
LTYPE6
 62
     2
 10
1027.12
 20
803.94
 11
1035.32
 21
803.94
  0
LINE
  8
0
  6
LTYPE1
 62
     2
 10
1043.62
 20
805.84
 11
1043.62
 21
825.34
  0
LINE
  8
0
  6
LTYPE1
 62
     2
 10
1018.62
 20
805.84
 11
1018.62
 21
825.34
  0
LINE
  8
0
  6
CONTINUOUS
 62
     1
 10
996.12
 20
825.34
 11
996.12
 21
850.34
  0
LINE
  8
0
  6
CONTINUOUS
 62
     1
 10
1018.62
 20
825.34
 11
1018.62
 21
850.34
  0
LINE
  8
0
  6
CONTINUOUS
 62
     1
 10
1043.62
 20
825.34
 11
1043.62
 21
850.34
  0
LINE
  8
0
  6
LTYPE6
 62
     2
 10
1031.12
 20
794.84
 11
1031.12
 21
875.84
  0
LINE
  8
0
  6
LTYPE6
 62
     2
 10
1031.12
 20
880.84
 11
1031.12
 21
799.84
  0
LINE
  8
0
  6
CONTINUOUS
 62
     1
 10
1018.62
 20
850.34
 11
1018.62
 21
825.34
  0
LINE
  8
0
  6
CONTINUOUS
 62
     1
 10
1043.62
 20
850.34
 11
1043.62
 21
825.34
  0
LINE
  8
0
  6
CONTINUOUS
 62
     1
 10
981.12
 20
810.34
 11
1056.12
 21
810.34
  0
LINE
  8
0
  6
CONTINUOUS
 62
     1
 10
996.12
 20
850.34
 11
1056.12
 21
850.34
  0
LINE
  8
0
  6
CONTINUOUS
 62
     1
 10
1009.12
 20
869.84
 11
1053.12
 21
869.84
  0
LINE
  8
0
  6
CONTINUOUS
 62
     1
 10
1018.62
 20
875.84
 11
1043.62
 21
875.84
  0
LINE
  8
0
  6
CONTINUOUS
 62
     1
 10
1043.62
 20
875.84
 11
1043.62
 21
869.84
  0
LINE
  8
0
  6
CONTINUOUS
 62
     1
 10
1018.62
 20
875.84
 11
1018.62
 21
869.84
  0
LINE
  8
0
  6
CONTINUOUS
 62
     1
 10
1053.12
 20
869.84
 11
1053.12
 21
865.34
  0
LINE
  8
0
  6
CONTINUOUS
 62
     1
 10
1009.12
 20
869.84
 11
1009.12
 21
865.34
  0
CIRCLE
  8
0
  6
CONTINUOUS
 62
     1
 10
1031.12
 20
871.84
 40
2.0
  0
LINE
  8
0
  6
LTYPE6
 62
     2
 10
1027.12
 20
871.74
 11
1035.32
 21
871.74
  0
LINE
  8
0
  6
LTYPE1
 62
     2
 10
1043.62
 20
869.84
 11
1043.62
 21
850.34
  0
LINE
  8
0
  6
LTYPE1
 62
     2
 10
1018.62
 20
869.84
 11
1018.62
 21
850.34
  0
LINE
  8
0
  6
CONTINUOUS
 62
     1
 10
981.12
 20
865.34
 11
1056.12
 21
865.34
  0
LINE
  8
0
  6
CONTINUOUS
 62
     1
 10
981.12
 20
796.84
 11
981.12
 21
878.84
  0
LINE
  8
0
  6
CONTINUOUS
 62
     1
 10
965.12
 20
796.84
 11
981.12
 21
796.84
  0
LINE
  8
0
  6
CONTINUOUS
 62
     1
 10
965.12
 20
796.84
 11
965.12
 21
865.34
  0
LINE
  8
0
  6
CONTINUOUS
 62
     1
 10
965.12
 20
802.84
 11
965.12
 21
878.84
  0
LINE
  8
0
  6
CONTINUOUS
 62
     1
 10
965.12
 20
878.84
 11
981.12
 21
878.84
  0
LINE
  8
0
  6
LTYPE3
 62
     2
 10
405.802501379
 20
502.24
 11
997.152501379
 21
502.24
  0
LINE
  8
0
  6
CONTINUOUS
 62
     1
 10
965.12
 20
489.24
 11
981.12
 21
489.24
  0
LINE
  8
0
  6
CONTINUOUS
 62
     1
 10
965.12
 20
489.24
 11
965.12
 21
690.24
  0
LINE
  8
0
  6
CONTINUOUS
 62
     1
 10
939.302501379
 20
508.24
 11
965.12
 21
508.24
  0
LINE
  8
0
  6
CONTINUOUS
 62
     1
 10
939.302501379
 20
496.24
 11
965.12
 21
496.24
  0
LINE
  8
0
  6
CONTINUOUS
 62
     1
 10
986.6199
 20
507.89878
 11
985.560300598
 21
509.73406
  0
LINE
  8
0
  6
CONTINUOUS
 62
     1
 10
986.6199
 20
502.24
 11
986.6199
 21
507.89878
  0
LINE
  8
0
  6
CONTINUOUS
 62
     1
 10
986.6199
 20
496.58122
 11
985.560300598
 21
494.74594
  0
LINE
  8
0
  6
CONTINUOUS
 62
     1
 10
986.6199
 20
502.24
 11
986.6199
 21
496.58122
  0
ARC
  8
0
  6
CONTINUOUS
 62
     1
 10
979.464844663
 20
502.24
 40
7.155055337
 50
328.419912243
 51
31.580087757
  0
ARC
  8
0
  6
CONTINUOUS
 62
     1
 10
984.434476233
 20
507.860545
 40
2.185758211
 50
301.002313915
 51
2.989498403
  0
LINE
  8
0
  6
CONTINUOUS
 62
     1
 10
986.6199
 20
496.58122
 11
985.560300598
 21
494.74594
  0
ARC
  8
0
  6
CONTINUOUS
 62
     1
 10
984.434476233
 20
496.619455
 40
2.185758211
 50
357.010501597
 51
58.997686085
  0
LINE
  8
0
  6
CONTINUOUS
 62
     1
 10
981.12
 20
509.73406
 11
985.560300598
 21
509.73406
  0
LINE
  8
0
  6
CONTINUOUS
 62
     1
 10
981.12
 20
505.98703
 11
985.560300598
 21
505.98703
  0
LINE
  8
0
  6
CONTINUOUS
 62
     1
 10
981.12
 20
498.49297
 11
985.560300598
 21
498.49297
  0
LINE
  8
0
  6
CONTINUOUS
 62
     1
 10
981.12
 20
494.74594
 11
985.560300598
 21
494.74594
  0
LINE
  8
0
  6
CONTINUOUS
 62
     1
 10
986.6199
 20
498.24
 11
991.6199
 21
498.24
  0
LINE
  8
0
  6
CONTINUOUS
 62
     1
 10
986.6199
 20
506.24
 11
991.6199
 21
506.24
  0
LINE
  8
0
  6
CONTINUOUS
 62
     1
 10
991.6199
 20
498.24
 11
991.6199
 21
506.24
  0
LINE
  8
0
  6
CONTINUOUS
 62
     2
 10
986.6199
 20
505.44
 11
991.6199
 21
505.44
  0
LINE
  8
0
  6
CONTINUOUS
 62
     2
 10
986.6199
 20
499.04
 11
991.6199
 21
499.04
  0
LINE
  8
0
  6
CONTINUOUS
 62
     1
 10
981.12
 20
489.24
 11
981.12
 21
659.24
  0
LINE
  8
0
  6
CONTINUOUS
 62
     1
 10
981.12
 20
652.24
 11
981.12
 21
690.24
  0
LINE
  8
0
  6
CONTINUOUS
 62
     1
 10
965.12
 20
690.24
 11
981.12
 21
690.24
  0
LINE
  8
0
  6
LTYPE1
 62
     2
 10
897.302501379
 20
508.24
 11
939.302501379
 21
508.24
  0
LINE
  8
0
  6
CONTINUOUS
 62
     1
 10
939.302501379
 20
513.24
 11
930.642247342
 21
518.24
  0
LINE
  8
0
  6
CONTINUOUS
 62
     1
 10
939.302501379
 20
491.24
 11
939.302501379
 21
513.24
  0
LINE
  8
0
  6
CONTINUOUS
 62
     1
 10
939.302501379
 20
491.24
 11
930.642247342
 21
486.24
  0
LINE
  8
0
  6
CONTINUOUS
 62
     1
 10
905.952501379
 20
486.24
 11
905.952501379
 21
518.24
  0
LINE
  8
0
  6
CONTINUOUS
 62
     1
 10
897.302501379
 20
491.24
 11
897.302501379
 21
513.24
  0
LINE
  8
0
  6
CONTINUOUS
 62
     1
 10
930.652501379
 20
486.24
 11
930.652501379
 21
518.24
  0
LINE
  8
0
  6
CONTINUOUS
 62
     1
 10
905.952501379
 20
486.24
 11
930.652501379
 21
486.24
  0
LINE
  8
0
  6
CONTINUOUS
 62
     1
 10
897.302501379
 20
491.24
 11
905.962755417
 21
486.24
  0
LINE
  8
0
  6
LTYPE1
 62
     2
 10
897.302501379
 20
496.24
 11
939.302501379
 21
496.24
  0
CIRCLE
  8
0
  6
CONTINUOUS
 62
     2
 10
918.302501379
 20
502.24
 40
5.0
  0
CIRCLE
  8
0
  6
CONTINUOUS
 62
     2
 10
918.302501379
 20
502.24
 40
4.0
  0
LINE
  8
0
  6
LTYPE2
 62
     2
 10
918.152501379
 20
492.24
 11
918.152501379
 21
512.24
  0
LINE
  8
0
  6
CONTINUOUS
 62
     1
 10
897.302501379
 20
513.24
 11
905.962755417
 21
518.24
  0
LINE
  8
0
  6
CONTINUOUS
 62
     1
 10
905.952501379
 20
518.24
 11
930.652501379
 21
518.24
  0
LINE
  8
2
  6
CONTINUOUS
 62
     2
 10
920.12
 20
442.14
 11
981.12
 21
442.14
  0
LINE
  8
0
  6
CONTINUOUS
 62
     2
 10
384.12
 20
402.1025
 11
1031.12
 21
402.1025
  0
LINE
  8
0
  6
CONTINUOUS
 62
     2
 10
238.12
 20
357.74
 11
1031.12
 21
357.74
  0
LINE
  8
0
  6
CONTINUOUS
 62
     1
 10
714.302501379
 20
550.24
 11
844.302501379
 21
550.24
  0
LINE
  8
0
  6
CONTINUOUS
 62
     1
 10
826.602501379
 20
543.24
 11
852.002501379
 21
543.24
  0
LINE
  8
0
  6
CONTINUOUS
 62
     1
 10
714.302501379
 20
544.24
 11
714.302501379
 21
550.24
  0
LINE
  8
0
  6
CONTINUOUS
 62
     1
 10
714.302501379
 20
544.24
 11
844.302501379
 21
544.24
  0
LINE
  8
0
  6
CONTINUOUS
 62
     1
 10
826.602501379
 20
517.84
 11
852.002501379
 21
517.84
  0
LINE
  8
0
  6
CONTINUOUS
 62
     1
 10
757.902501379
 20
544.24
 11
757.902501379
 21
504.24
  0
LINE
  8
0
  6
CONTINUOUS
 62
     1
 10
826.602501379
 20
544.24
 11
826.602501379
 21
504.24
  0
LINE
  8
0
  6
LTYPE1
 62
     2
 10
763.002501379
 20
534.41
 11
758.002501379
 21
534.41
  0
LINE
  8
0
  6
LTYPE1
 62
     2
 10
763.002501379
 20
533.255
 11
758.002501379
 21
533.255
  0
LINE
  8
0
  6
LTYPE1
 62
     2
 10
763.002501379
 20
534.41
 11
758.002501379
 21
534.41
  0
LINE
  8
0
  6
LTYPE3
 62
     2
 10
779.302501379
 20
488.24
 11
779.302501379
 21
553.54
  0
LINE
  8
0
  6
LTYPE3
 62
     2
 10
836.302501379
 20
529.4275
 11
836.302501379
 21
489.44
  0
LINE
  8
0
  6
CONTINUOUS
 62
     1
 10
706.602501379
 20
543.24
 11
706.602501379
 21
517.84
  0
LINE
  8
0
  6
CONTINUOUS
 62
     1
 10
732.002501379
 20
543.24
 11
706.602501379
 21
543.24
  0
LINE
  8
0
  6
CONTINUOUS
 62
     1
 10
732.002501379
 20
517.84
 11
706.602501379
 21
517.84
  0
LINE
  8
0
  6
CONTINUOUS
 62
     1
 10
732.002501379
 20
544.24
 11
732.002501379
 21
504.24
  0
LINE
  8
0
  6
LTYPE6
 62
     2
 10
763.002501379
 20
522.94
 11
753.902501379
 21
522.94
  0
LINE
  8
0
  6
LTYPE2
 62
     2
 10
351.652501379
 20
530.24
 11
738.912501379
 21
530.24
  0
LINE
  8
0
  6
LTYPE1
 62
     2
 10
434.152501379
 20
538.24
 11
706.602501379
 21
538.24
  0
LINE
  8
0
  6
LTYPE1
 62
     2
 10
434.152501379
 20
522.24
 11
706.602501379
 21
522.24
  0
LINE
  8
0
  6
CONTINUOUS
 62
     1
 10
852.002501379
 20
543.24
 11
852.002501379
 21
517.84
  0
LINE
  8
0
  6
CONTINUOUS
 62
     1
 10
844.302501379
 20
544.24
 11
844.302501379
 21
550.24
  0
LINE
  8
0
  6
CONTINUOUS
 62
     1
 10
757.302501379
 20
550.24
 11
757.302501379
 21
709.74
  0
LINE
  8
0
  6
CONTINUOUS
 62
     1
 10
741.302501379
 20
550.24
 11
741.302501379
 21
709.74
  0
LINE
  8
0
  6
CONTINUOUS
 62
     1
 10
817.302501379
 20
550.24
 11
817.302501379
 21
709.74
  0
LINE
  8
0
  6
CONTINUOUS
 62
     1
 10
801.302501379
 20
550.24
 11
801.302501379
 21
709.74
  0
LINE
  8
0
  6
CONTINUOUS
 62
     1
 10
763.302501379
 20
489.24
 11
795.302501379
 21
489.24
  0
LINE
  8
0
  6
CONTINUOUS
 62
     1
 10
795.302501379
 20
489.24
 11
795.302501379
 21
504.24
  0
LINE
  8
0
  6
CONTINUOUS
 62
     1
 10
763.302501379
 20
489.24
 11
763.302501379
 21
504.24
  0
LINE
  8
0
  6
CONTINUOUS
 62
     2
 10
771.12
 20
492.115
 11
761.578760731
 21
484.039434806
  0
LINE
  8
0
  6
CONTINUOUS
 62
     2
 10
771.12
 20
492.115
 11
766.894827007
 21
480.350735757
  0
LINE
  8
0
  6
CONTINUOUS
 62
     2
 10
771.12
 20
492.115
 11
754.12
 21
467.615
  0
TEXT
  8
0
  6
CONTINUOUS
 62
     2
 10
665.62
 20
472.615
 30
1.5
 40
15.0
  1
ＬＳユニット
 50
0.0
 41
0.9
 51
0.0
  7
KANJI63
  0
LINE
  8
0
  6
CONTINUOUS
 62
     2
 10
754.12
 20
467.615
 11
665.62
 21
467.615
  0
LINE
  8
0
  6
CONTINUOUS
 62
     1
 10
476.152501379
 20
494.24
 11
763.302501379
 21
494.24
  0
LINE
  8
0
  6
LTYPE1
 62
     2
 10
763.002501379
 20
513.47
 11
758.002501379
 21
513.47
  0
LINE
  8
0
  6
LTYPE1
 62
     2
 10
763.002501379
 20
514.625
 11
758.002501379
 21
514.625
  0
LINE
  8
0
  6
CONTINUOUS
 62
     1
 10
732.002501379
 20
510.24
 11
826.602501379
 21
510.24
  0
LINE
  8
0
  6
CONTINUOUS
 62
     1
 10
732.002501379
 20
504.24
 11
826.602501379
 21
504.24
  0
LINE
  8
0
  6
CONTINUOUS
 62
     1
 10
476.152501379
 20
510.24
 11
732.002501379
 21
510.24
  0
LINE
  8
0
  6
CONTINUOUS
 62
     1
 10
817.302501379
 20
709.74
 11
801.302501379
 21
709.74
  0
LINE
  8
0
  6
CONTINUOUS
 62
     1
 10
757.302501379
 20
709.74
 11
741.302501379
 21
709.74
  0
LINE
  8
0
  6
LTYPE2
 62
     2
 10
749.302501379
 20
589.49
 11
749.302501379
 21
695.14
  0
LINE
  8
0
  6
LTYPE2
 62
     2
 10
809.302501379
 20
589.49
 11
809.302501379
 21
695.14
  0
LINE
  8
0
  6
LTYPE1
 62
     2
 10
607.152501379
 20
550.24
 11
607.152501379
 21
709.74
  0
LINE
  8
0
  6
LTYPE1
 62
     2
 10
607.152501379
 20
709.74
 11
591.152501379
 21
709.74
  0
LINE
  8
0
  6
LTYPE3
 62
     2
 10
599.152501379
 20
589.49
 11
599.152501379
 21
695.14
  0
LINE
  8
0
  6
LTYPE1
 62
     2
 10
591.152501379
 20
550.24
 11
591.152501379
 21
709.74
  0
LINE
  8
0
  6
LTYPE1
 62
     2
 10
606.152501379
 20
544.24
 11
371.152501379
 21
544.24
  0
LINE
  8
0
  6
LTYPE1
 62
     2
 10
606.152501379
 20
550.24
 11
371.152501379
 21
550.24
  0
LINE
  8
0
  6
LTYPE1
 62
     2
 10
605.652501379
 20
544.24
 11
605.652501379
 21
539.64
  0
LINE
  8
0
  6
LTYPE1
 62
     2
 10
590.652501379
 20
544.24
 11
590.652501379
 21
539.64
  0
LINE
  8
0
  6
LTYPE1
 62
     2
 10
594.352501379
 20
544.24
 11
594.352501379
 21
539.64
  0
LINE
  8
0
  6
LTYPE1
 62
     2
 10
601.952501379
 20
544.24
 11
601.952501379
 21
539.64
  0
ARC
  8
0
  6
LTYPE1
 62
     2
 10
592.452501379
 20
541.74
 40
2.8
 50
228.5
 51
311.5
  0
ARC
  8
0
  6
LTYPE1
 62
     2
 10
598.152501379
 20
549.64
 40
10.7
 50
249.1
 51
290.9
  0
ARC
  8
0
  6
LTYPE1
 62
     2
 10
603.852501379
 20
541.74
 40
2.8
 50
228.5
 51
311.5
  0
LINE
  8
0
  6
LTYPE1
 62
     2
 10
598.152501379
 20
535.44
 11
598.152501379
 21
547.24
  0
LINE
  8
0
  6
LTYPE2
 62
     2
 10
598.152501379
 20
531.59
 11
598.152501379
 21
555.89
  0
LINE
  8
0
  6
LTYPE1
 62
     2
 10
603.852501379
 20
538.94
 11
592.452501379
 21
538.94
  0
LINE
  8
0
  6
LTYPE1
 62
     2
 10
371.152501379
 20
517.24
 11
387.152501379
 21
517.24
  0
LINE
  8
0
  6
LTYPE3
 62
     2
 10
390.152501379
 20
530.24
 11
401.652501379
 21
530.24
  0
LINE
  8
0
  6
LTYPE1
 62
     2
 10
387.152501379
 20
540.64
 11
393.652501379
 21
540.64
  0
ARC
  8
0
  6
LTYPE1
 62
     2
 10
390.752501379
 20
538.04
 40
3.9
 50
317.9
 51
42.1
  0
LINE
  8
0
  6
LTYPE1
 62
     2
 10
393.652501379
 20
535.44
 11
387.152501379
 21
535.44
  0
LINE
  8
0
  6
LTYPE1
 62
     2
 10
394.652501379
 20
534.24
 11
402.152501379
 21
534.24
  0
LINE
  8
0
  6
LTYPE1
 62
     2
 10
394.652501379
 20
533.24
 11
402.152501379
 21
533.24
  0
LINE
  8
0
  6
LTYPE1
 62
     2
 10
382.899531379
 20
550.24
 11
382.899531379
 21
554.680300598
  0
LINE
  8
0
  6
LTYPE1
 62
     2
 10
386.646561379
 20
550.24
 11
386.646561379
 21
554.680300598
  0
LINE
  8
0
  6
LTYPE1
 62
     2
 10
387.152501379
 20
519.84
 11
393.652501379
 21
519.84
  0
ARC
  8
0
  6
LTYPE1
 62
     2
 10
390.752501379
 20
522.44
 40
3.9
 50
317.9
 51
42.1
  0
LINE
  8
0
  6
LTYPE1
 62
     2
 10
387.152501379
 20
525.04
 11
393.652501379
 21
525.04
  0
LINE
  8
0
  6
LTYPE1
 62
     2
 10
394.652501379
 20
527.24
 11
402.152501379
 21
527.24
  0
LINE
  8
0
  6
LTYPE1
 62
     2
 10
394.652501379
 20
526.24
 11
402.152501379
 21
526.24
  0
LINE
  8
0
  6
LTYPE1
 62
     2
 10
387.152501379
 20
517.24
 11
387.152501379
 21
544.24
  0
LINE
  8
0
  6
LTYPE1
 62
     2
 10
387.152501379
 20
540.64
 11
387.152501379
 21
519.84
  0
ARC
  8
0
  6
LTYPE1
 62
     2
 10
380.652501379
 20
530.24
 40
14.0
 50
338.2
 51
21.8
  0
LINE
  8
0
  6
LTYPE1
 62
     2
 10
394.652501379
 20
522.44
 11
394.652501379
 21
538.04
  0
LINE
  8
0
  6
LTYPE1
 62
     2
 10
434.152501379
 20
542.24
 11
402.152501379
 21
542.24
  0
LINE
  8
0
  6
LTYPE1
 62
     2
 10
434.152501379
 20
536.24
 11
402.152501379
 21
536.24
  0
LINE
  8
0
  6
LTYPE1
 62
     2
 10
402.152501379
 20
524.24
 11
434.152501379
 21
524.24
  0
LINE
  8
0
  6
LTYPE1
 62
     2
 10
402.152501379
 20
534.24
 11
407.152501379
 21
534.24
  0
LINE
  8
0
  6
LTYPE1
 62
     2
 10
402.152501379
 20
533.24
 11
407.152501379
 21
533.24
  0
LINE
  8
0
  6
LTYPE1
 62
     2
 10
402.152501379
 20
526.24
 11
407.152501379
 21
526.24
  0
LINE
  8
0
  6
LTYPE1
 62
     2
 10
402.152501379
 20
527.24
 11
407.152501379
 21
527.24
  0
LINE
  8
0
  6
LTYPE1
 62
     2
 10
402.152501379
 20
489.24
 11
402.152501379
 21
542.24
  0
ARC
  8
0
  6
LTYPE1
 62
     2
 10
379.152501379
 20
548.584844663
 40
7.155055337
 50
58.419912243
 51
121.580087757
  0
LINE
  8
0
  6
LTYPE1
 62
     2
 10
384.811281379
 20
555.7399
 11
386.646561379
 21
554.680300598
  0
LINE
  8
0
  6
LTYPE1
 62
     2
 10
379.152501379
 20
555.7399
 11
384.811281379
 21
555.7399
  0
LINE
  8
0
  6
LTYPE1
 62
     2
 10
384.811281379
 20
555.7399
 11
386.646561379
 21
554.680300598
  0
ARC
  8
0
  6
LTYPE1
 62
     2
 10
384.773046379
 20
553.554476233
 40
2.185758211
 50
87.010501597
 51
148.997686085
  0
LINE
  8
0
  6
LTYPE1
 62
     2
 10
399.652501379
 20
512.04
 11
394.038142025
 21
512.04
  0
LINE
  8
0
  6
LTYPE1
 62
     2
 10
392.652501379
 20
509.64
 11
394.038142025
 21
512.04
  0
LINE
  8
0
  6
LTYPE1
 62
     2
 10
392.652501379
 20
509.64
 11
394.038142025
 21
512.04
  0
LINE
  8
0
  6
LTYPE1
 62
     2
 10
392.652501379
 20
502.24
 11
392.652501379
 21
509.64
  0
LINE
  8
0
  6
LTYPE1
 62
     2
 10
399.652501379
 20
507.14
 11
394.038142025
 21
507.14
  0
ARC
  8
0
  6
LTYPE1
 62
     2
 10
395.510385212
 20
509.59
 40
2.858321186
 50
177.010501597
 51
238.997686085
  0
LINE
  8
0
  6
LTYPE1
 62
     2
 10
384.152501379
 20
506.24
 11
392.652501379
 21
506.24
  0
ARC
  8
0
  6
LTYPE1
 62
     2
 10
402.009184179
 20
502.24
 40
9.3566828
 50
148.419912243
 51
211.580087757
  0
LINE
  8
0
  6
LTYPE1
 62
     2
 10
384.152501379
 20
498.24
 11
384.152501379
 21
506.24
  0
LINE
  8
0
  6
LTYPE1
 62
     2
 10
384.152501379
 20
505.24
 11
392.652501379
 21
505.24
  0
LINE
  8
0
  6
LTYPE1
 62
     2
 10
402.152501379
 20
511.44
 11
399.652501379
 21
511.44
  0
LINE
  8
0
  6
LTYPE1
 62
     2
 10
399.652501379
 20
502.24
 11
399.652501379
 21
512.04
  0
LINE
  8
0
  6
LTYPE1
 62
     2
 10
399.652501379
 20
492.44
 11
394.038142025
 21
492.44
  0
LINE
  8
0
  6
LTYPE1
 62
     2
 10
392.652501379
 20
494.84
 11
394.038142025
 21
492.44
  0
LINE
  8
0
  6
LTYPE1
 62
     2
 10
392.652501379
 20
502.24
 11
392.652501379
 21
494.84
  0
LINE
  8
0
  6
LTYPE1
 62
     2
 10
399.652501379
 20
497.34
 11
394.038142025
 21
497.34
  0
ARC
  8
0
  6
LTYPE1
 62
     2
 10
395.510385212
 20
494.89
 40
2.858321186
 50
121.002313915
 51
182.989498403
  0
LINE
  8
0
  6
LTYPE1
 62
     2
 10
384.152501379
 20
498.24
 11
392.652501379
 21
498.24
  0
LINE
  8
0
  6
LTYPE1
 62
     2
 10
384.152501379
 20
499.24
 11
392.652501379
 21
499.24
  0
LINE
  8
0
  6
LTYPE1
 62
     2
 10
402.152501379
 20
489.24
 11
434.152501379
 21
489.24
  0
LINE
  8
0
  6
LTYPE1
 62
     2
 10
399.652501379
 20
502.24
 11
399.652501379
 21
492.44
  0
LINE
  8
0
  6
LTYPE1
 62
     2
 10
402.152501379
 20
493.04
 11
399.652501379
 21
493.04
  0
LINE
  8
0
  6
LTYPE1
 62
     2
 10
402.152501379
 20
502.24
 11
399.652501384
 21
499.740000004
  0
LINE
  8
0
  6
LTYPE1
 62
     2
 10
399.652501384
 20
502.24
 11
402.152501379
 21
504.739999996
  0
LINE
  8
0
  6
LTYPE3
 62
     2
 10
379.802501379
 20
502.24
 11
971.152501379
 21
502.24
  0
LINE
  8
0
  6
LTYPE1
 62
     2
 10
379.152501379
 20
555.7399
 11
373.493721379
 21
555.7399
  0
LINE
  8
0
  6
LTYPE1
 62
     2
 10
379.152501379
 20
540.24
 11
379.152501379
 21
556.24
  0
ARC
  8
0
  6
LTYPE1
 62
     2
 10
373.531956379
 20
553.554476233
 40
2.185758211
 50
31.002313915
 51
92.989498403
  0
LINE
  8
0
  6
LTYPE1
 62
     2
 10
375.405471379
 20
550.24
 11
375.405471379
 21
554.680300598
  0
LINE
  8
0
  6
LTYPE1
 62
     2
 10
368.652501379
 20
540.04
 11
363.038142025
 21
540.04
  0
LINE
  8
0
  6
LTYPE1
 62
     2
 10
368.652501379
 20
535.14
 11
363.038142025
 21
535.14
  0
LINE
  8
0
  6
LTYPE1
 62
     2
 10
368.652501379
 20
530.24
 11
368.652501379
 21
540.04
  0
LINE
  8
0
  6
LTYPE1
 62
     2
 10
371.152501379
 20
539.44
 11
368.652501379
 21
539.44
  0
LINE
  8
0
  6
LTYPE1
 62
     2
 10
368.652501384
 20
530.24
 11
371.152501379
 21
532.739999996
  0
LINE
  8
0
  6
LTYPE1
 62
     2
 10
368.652501379
 20
520.44
 11
363.038142025
 21
520.44
  0
LINE
  8
0
  6
LTYPE1
 62
     2
 10
368.652501379
 20
525.34
 11
363.038142025
 21
525.34
  0
LINE
  8
0
  6
LTYPE1
 62
     2
 10
368.652501379
 20
530.24
 11
368.652501379
 21
520.44
  0
LINE
  8
0
  6
LTYPE1
 62
     2
 10
371.152501379
 20
530.24
 11
368.652501384
 21
527.740000004
  0
LINE
  8
0
  6
LTYPE1
 62
     2
 10
371.152501379
 20
521.04
 11
368.652501379
 21
521.04
  0
LINE
  8
0
  6
LTYPE1
 62
     2
 10
361.652501379
 20
530.24
 11
361.652501379
 21
537.64
  0
LINE
  8
0
  6
LTYPE1
 62
     2
 10
361.652501379
 20
537.64
 11
363.038142025
 21
540.04
  0
LINE
  8
0
  6
LTYPE1
 62
     2
 10
361.652501379
 20
537.64
 11
363.038142025
 21
540.04
  0
ARC
  8
0
  6
LTYPE1
 62
     2
 10
364.510385212
 20
537.59
 40
2.858321186
 50
177.010501597
 51
238.997686085
  0
LINE
  8
0
  6
LTYPE1
 62
     2
 10
357.152501379
 20
534.24
 11
361.652501379
 21
534.24
  0
LINE
  8
0
  6
LTYPE1
 62
     2
 10
357.152501379
 20
533.24
 11
361.652501379
 21
533.24
  0
LINE
  8
0
  6
LTYPE1
 62
     2
 10
361.652501379
 20
522.84
 11
363.038142025
 21
520.44
  0
LINE
  8
0
  6
LTYPE1
 62
     2
 10
361.652501379
 20
530.24
 11
361.652501379
 21
522.84
  0
ARC
  8
0
  6
LTYPE1
 62
     2
 10
364.510385212
 20
522.89
 40
2.858321186
 50
121.002313915
 51
182.989498403
  0
LINE
  8
0
  6
LTYPE1
 62
     2
 10
357.152501379
 20
526.24
 11
361.652501379
 21
526.24
  0
LINE
  8
0
  6
LTYPE1
 62
     2
 10
357.152501379
 20
527.24
 11
361.652501379
 21
527.24
  0
ARC
  8
0
  6
LTYPE1
 62
     2
 10
371.009184179
 20
530.24
 40
9.3566828
 50
148.419912243
 51
211.580087757
  0
LINE
  8
0
  6
LTYPE1
 62
     2
 10
357.152501379
 20
526.24
 11
357.152501379
 21
534.24
  0
LINE
  8
0
  6
LTYPE1
 62
     2
 10
371.152501379
 20
517.24
 11
371.152501379
 21
550.24
  0
LINE
  8
0
  6
LTYPE1
 62
     2
 10
373.493721379
 20
555.7399
 11
371.658441379
 21
554.680300598
  0
LINE
  8
0
  6
LTYPE1
 62
     2
 10
371.658441379
 20
550.24
 11
371.658441379
 21
554.680300598
  0
LINE
  8
0
  6
LTYPE1
 62
     2
 10
407.152501379
 20
524.24
 11
407.152501379
 21
536.24
  0
LINE
  8
0
  6
LTYPE1
 62
     2
 10
434.152501379
 20
489.24
 11
434.152501379
 21
542.24
  0
LINE
  8
0
  6
CONTINUOUS
 62
     1
 10
420.652501379
 20
510.79
 11
420.652501379
 21
494.79
  0
LINE
  8
0
  6
CONTINUOUS
 62
     1
 10
420.652501379
 20
510.79
 11
434.152501379
 21
510.79
  0
LINE
  8
0
  6
CONTINUOUS
 62
     1
 10
434.152501379
 20
513.24
 11
442.812755417
 21
518.24
  0
LINE
  8
0
  6
CONTINUOUS
 62
     1
 10
434.152501379
 20
491.24
 11
434.152501379
 21
513.24
  0
LINE
  8
0
  6
CONTINUOUS
 62
     1
 10
467.502501379
 20
486.24
 11
467.502501379
 21
518.24
  0
LINE
  8
0
  6
LTYPE2
 62
     2
 10
455.152501379
 20
492.24
 11
455.152501379
 21
512.24
  0
LINE
  8
0
  6
CONTINUOUS
 62
     1
 10
442.802501379
 20
518.24
 11
467.502501379
 21
518.24
  0
LINE
  8
0
  6
CONTINUOUS
 62
     1
 10
476.152501379
 20
513.24
 11
467.492247342
 21
518.24
  0
CIRCLE
  8
0
  6
CONTINUOUS
 62
     2
 10
455.152501379
 20
502.24
 40
5.0
  0
CIRCLE
  8
0
  6
CONTINUOUS
 62
     2
 10
455.152501379
 20
502.24
 40
4.0
  0
LINE
  8
0
  6
CONTINUOUS
 62
     1
 10
476.152501379
 20
491.24
 11
476.152501379
 21
513.24
  0
LINE
  8
0
  6
CONTINUOUS
 62
     1
 10
442.802501379
 20
486.24
 11
442.802501379
 21
518.24
  0
LINE
  8
0
  6
CONTINUOUS
 62
     1
 10
420.652501379
 20
494.79
 11
434.152501379
 21
494.79
  0
LINE
  8
0
  6
CONTINUOUS
 62
     1
 10
434.152501379
 20
491.24
 11
442.812755417
 21
486.24
  0
LINE
  8
0
  6
CONTINUOUS
 62
     1
 10
442.802501379
 20
486.24
 11
467.502501379
 21
486.24
  0
LINE
  8
0
  6
CONTINUOUS
 62
     1
 10
476.152501379
 20
491.24
 11
467.492247342
 21
486.24
  0
LINE
  8
0
  6
CONTINUOUS
 62
     1
 10
826.602501379
 20
508.24
 11
897.302501379
 21
508.24
  0
LINE
  8
0
  6
CONTINUOUS
 62
     1
 10
795.302501379
 20
496.24
 11
897.302501379
 21
496.24
  0
LINE
  8
0
  6
CONTINUOUS
 62
     2
 10
699.62
 20
672.24
 11
711.236533527
 21
681.729791822
  0
LINE
  8
0
  6
CONTINUOUS
 62
     2
 10
699.62
 20
672.24
 11
704.935317227
 21
686.266667558
  0
LINE
  8
0
  6
CONTINUOUS
 62
     2
 10
699.62
 20
672.24
 11
762.62
 21
759.74
  0
LINE
  8
0
  6
CONTINUOUS
 62
     2
 10
762.62
 20
759.74
 11
829.22
 21
759.74
  0
TEXT
  8
0
  6
CONTINUOUS
 62
     3
 10
762.62
 20
762.74
 30
0.0
 40
24.0
  1
給脂口
 50
0.0
 41
0.925
 51
0.0
  7
KANJI67
  0
LINE
  8
0
  6
CONTINUOUS
 62
     2
 10
636.607365108
 20
699.74
 11
632.725079431
 21
685.251112606
  0
LINE
  8
0
  6
CONTINUOUS
 62
     2
 10
636.607365108
 20
699.74
 11
640.489650785
 21
685.251112606
  0
LINE
  8
0
  6
CONTINUOUS
 62
     2
 10
636.607365108
 20
699.74
 11
636.607365108
 21
604.74
  0
LINE
  8
0
  6
CONTINUOUS
 62
     2
 10
636.607365108
 20
604.74
 11
640.489650785
 21
619.228887394
  0
LINE
  8
0
  6
CONTINUOUS
 62
     2
 10
636.607365108
 20
604.74
 11
632.725079431
 21
619.228887394
  0
TEXT
  8
0
  6
CONTINUOUS
 62
     3
 10
633.607365108
 20
627.94
 30
0.0
 40
18.0
  1
φ９５
 50
90.0
 41
0.9
 51
0.0
  7
KANJI60
  0
LINE
  8
0
  6
LTYPE3
 62
     2
 10
1062.12
 20
652.24
 11
637.12
 21
652.24
  0
LINE
  8
0
  6
LTYPE3
 62
     2
 10
613.12
 20
652.24
 11
213.02
 21
652.24
  0
LINE
  8
0
  6
CONTINUOUS
 62
     2
 10
553.12
 20
566.74
 11
567.043124926
 21
561.159086786
  0
LINE
  8
0
  6
CONTINUOUS
 62
     2
 10
553.12
 20
566.74
 11
567.968236493
 21
568.868349844
  0
LINE
  8
0
  6
CONTINUOUS
 62
     2
 10
553.12
 20
566.74
 11
628.12
 21
557.74
  0
LINE
  8
0
  6
CONTINUOUS
 62
     2
 10
628.12
 20
557.74
 11
709.12
 21
557.74
  0
TEXT
  8
0
  6
CONTINUOUS
 62
     3
 10
628.12
 20
560.74
 30
0.0
 40
18.0
  1
ＰＦ１／２
 50
0.0
 41
0.9
 51
0.0
  7
KANJI60
  0
TEXT
  8
0
  6
CONTINUOUS
 62
     2
 10
629.37
 20
449.44
 30
0.0
 40
18.0
  1
Ｃ
 50
0.0
 41
0.9
 51
0.0
  7
KANJI60
  0
LINE
  8
0
  6
CONTINUOUS
 62
     2
 10
1059.12
 20
723.34
 11
1147.62
 21
723.34
  0
TEXT
  8
0
  6
CONTINUOUS
 62
     2
 10
1059.12
 20
728.34
 30
0.0
 40
18.0
  1
φ２５Ｈ１０
 50
0.0
 41
0.9
 51
0.0
  7
KANJI60
  0
TEXT
  8
0
  6
CONTINUOUS
 62
     2
 10
1103.62
 20
703.84
 30
0.0
 40
18.0
  1
ｄ９
 50
0.0
 41
0.9
 51
0.0
  7
KANJI60
  0
LINE
  8
0
  6
CONTINUOUS
 62
     2
 10
1055.62
 20
676.74
 11
1119.22
 21
676.74
  0
LINE
  8
0
  6
CONTINUOUS
 62
     2
 10
1111.72
 20
676.74
 11
1108.484761936
 21
664.665927171
  0
LINE
  8
0
  6
CONTINUOUS
 62
     2
 10
1111.72
 20
676.74
 11
1114.955238064
 21
664.665927171
  0
LINE
  8
0
  6
CONTINUOUS
 62
     2
 10
1111.72
 20
676.74
 11
1111.72
 21
626.74
  0
LINE
  8
0
  6
CONTINUOUS
 62
     1
 10
1056.12
 20
635.24
 11
1056.12
 21
669.24
  0
TEXT
  8
0
  6
CONTINUOUS
 62
     2
 10
1106.72
 20
637.49
 30
0.0
 40
18.0
  1
５０
 50
90.0
 41
0.9
 51
0.0
  7
KANJI60
  0
LINE
  8
0
  6
CONTINUOUS
 62
     2
 10
1111.72
 20
626.74
 11
1114.955238064
 21
638.814072829
  0
LINE
  8
0
  6
CONTINUOUS
 62
     2
 10
1111.72
 20
626.74
 11
1108.484761936
 21
638.814072829
  0
LINE
  8
0
  6
CONTINUOUS
 62
     2
 10
1055.62
 20
626.74
 11
1119.22
 21
626.74
  0
LINE
  8
2
  6
CONTINUOUS
 62
     2
 10
1056.12
 20
755.34
 11
1111.02
 21
755.34
  0
LINE
  8
2
  6
CONTINUOUS
 62
     2
 10
1056.12
 20
755.34
 11
1070.608887394
 21
751.457714323
  0
LINE
  8
2
  6
CONTINUOUS
 62
     2
 10
1056.12
 20
755.34
 11
1070.608887394
 21
759.222285677
  0
LINE
  8
2
  6
CONTINUOUS
 62
     2
 10
1056.12
 20
804.34
 11
1056.12
 21
749.34
  0
TEXT
  8
2
  6
CONTINUOUS
 62
     3
 10
1078.62
 20
761.34
 30
0.0
 40
18.0
  1
２５
 50
0.0
 41
0.9
 51
0.0
  7
KANJI60
  0
LINE
  8
0
  6
CONTINUOUS
 62
     1
 10
1056.12
 20
810.34
 11
1056.12
 21
825.34
  0
LINE
  8
0
  6
CONTINUOUS
 62
     2
 10
1063.62
 20
810.34
 11
1141.12
 21
810.34
  0
LINE
  8
0
  6
CONTINUOUS
 62
     2
 10
1063.62
 20
825.34
 11
1112.62
 21
825.34
  0
LINE
  8
0
  6
CONTINUOUS
 62
     2
 10
1105.12
 20
825.34
 11
1101.884761936
 21
813.265927171
  0
LINE
  8
0
  6
CONTINUOUS
 62
     1
 10
1056.12
 20
865.34
 11
1056.12
 21
850.34
  0
LINE
  8
0
  6
CONTINUOUS
 62
     2
 10
1063.62
 20
865.34
 11
1141.12
 21
865.34
  0
LINE
  8
0
  6
CONTINUOUS
 62
     2
 10
1105.12
 20
850.34
 11
1101.884761936
 21
862.414072829
  0
LINE
  8
0
  6
CONTINUOUS
 62
     2
 10
1063.62
 20
850.34
 11
1112.62
 21
850.34
  0
TEXT
  8
0
  6
CONTINUOUS
 62
     2
 10
1100.12
 20
869.09
 30
0.0
 40
18.0
  1
２５
 50
90.0
 41
0.9
 51
0.0
  7
KANJI60
  0
LINE
  8
0
  6
CONTINUOUS
 62
     2
 10
1133.62
 20
810.34
 11
1130.384761936
 21
822.414072829
  0
LINE
  8
0
  6
CONTINUOUS
 62
     2
 10
1105.12
 20
825.34
 11
1108.355238064
 21
813.265927171
  0
LINE
  8
0
  6
CONTINUOUS
 62
     2
 10
1105.12
 20
815.34
 11
1105.12
 21
901.84
  0
LINE
  8
0
  6
CONTINUOUS
 62
     2
 10
1133.62
 20
865.34
 11
1130.384761936
 21
853.265927171
  0
LINE
  8
0
  6
CONTINUOUS
 62
     2
 10
1105.12
 20
850.34
 11
1108.355238064
 21
862.414072829
  0
TEXT
  8
0
  6
CONTINUOUS
 62
     2
 10
1128.62
 20
823.59
 30
0.0
 40
18.0
  1
５５
 50
90.0
 41
0.9
 51
0.0
  7
KANJI60
  0
LINE
  8
0
  6
CONTINUOUS
 62
     2
 10
1133.62
 20
810.34
 11
1136.855238064
 21
822.414072829
  0
LINE
  8
0
  6
CONTINUOUS
 62
     2
 10
1133.62
 20
810.34
 11
1133.62
 21
865.34
  0
LINE
  8
0
  6
CONTINUOUS
 62
     2
 10
1133.62
 20
865.34
 11
1136.855238064
 21
853.265927171
  0
LINE
  8
0
  6
CONTINUOUS
 62
     1
 10
1468.392126671
 20
714.636950141
 11
1522.483972943
 21
700.143083615
  0
LINE
  8
0
  6
CONTINUOUS
 62
     1
 10
1421.061761183
 20
727.319083351
 11
1465.494349192
 21
715.413407276
  0
LINE
  8
0
  6
CONTINUOUS
 62
     1
 10
1421.061761183
 20
727.319083351
 11
1414.591285055
 21
703.170937694
  0
LINE
  8
0
  6
CONTINUOUS
 62
     1
 10
1361.465364609
 20
717.405985175
 11
1414.591285055
 21
703.170937694
  0
LINE
  8
0
  6
CONTINUOUS
 62
     1
 10
1361.465364609
 20
717.405985175
 11
1340.759841001
 21
640.131919071
  0
LINE
  8
0
  6
CONTINUOUS
 62
     1
 10
1434.745650808
 20
589.066592724
 11
1488.83749708
 21
574.572726198
  0
LINE
  8
0
  6
CONTINUOUS
 62
     1
 10
1340.759841001
 20
640.131919071
 11
1393.885761447
 21
625.896871591
  0
LINE
  8
0
  6
CONTINUOUS
 62
     1
 10
1393.885761447
 20
625.896871591
 11
1387.41528532
 21
601.748725934
  0
LINE
  8
0
  6
CONTINUOUS
 62
     1
 10
1387.41528532
 20
601.748725934
 11
1431.847873329
 21
589.843049859
  0
LINE
  8
0
  6
CONTINUOUS
 62
     1
 10
1371.982211113
 20
758.587242314
 11
1357.071983515
 21
702.941515365
  0
LINE
  8
0
  6
CONTINUOUS
 62
     1
 10
1366.186656155
 20
760.140156585
 11
1371.982211113
 21
758.587242314
  0
LINE
  8
0
  6
CONTINUOUS
 62
     1
 10
1350.955718001
 20
703.297521547
 11
1366.186656155
 21
760.140156585
  0
LINE
  8
7
  6
CONTINUOUS
 62
     2
 10
1288.037646349
 20
695.669835768
 11
1251.237646349
 21
777.669835768
  0
LINE
  8
0
  6
LTYPE6
 62
     2
 10
1298.553594693
 20
666.141970447
 11
1311.494546948
 21
714.438261762
  0
LINE
  8
0
  6
LTYPE3
 62
     2
 10
1295.339064069
 20
714.418950395
 11
1316.203061916
 21
708.828459021
  0
LINE
  8
0
  6
CONTINUOUS
 62
     1
 10
1297.837737529
 20
709.834794802
 11
1310.592663595
 21
757.436826929
  0
LINE
  8
0
  6
CONTINUOUS
 62
     1
 10
1357.581672308
 20
702.911848183
 11
1360.171269384
 21
712.576356043
  0
LINE
  8
0
  6
LTYPE3
 62
     2
 10
1303.24233613
 20
751.641769884
 11
1359.266034055
 21
736.630265268
  0
CIRCLE
  8
0
  6
CONTINUOUS
 62
     1
 10
1338.981591703
 20
742.065465215
 40
9.36
  0
LINE
  8
0
  6
LTYPE3
 62
     2
 10
1342.346239289
 20
754.622500957
 11
1335.616944116
 21
729.508429473
  0
CIRCLE
  8
0
  6
CONTINUOUS
 62
     2
 10
1338.981591703
 20
742.065465215
 40
10.47
  0
LINE
  8
0
  6
CONTINUOUS
 62
     1
 10
1306.018077468
 20
709.454612637
 11
1308.808470298
 21
719.868500452
  0
LINE
  8
0
  6
LTYPE1
 62
     1
 10
1305.249708428
 20
706.58702034
 11
1306.018077468
 21
709.454612637
  0
LINE
  8
0
  6
CONTINUOUS
 62
     1
 10
1309.291433211
 20
719.739090929
 11
1316.052913995
 21
717.927357613
  0
LINE
  8
0
  6
CONTINUOUS
 62
     1
 10
1308.711877716
 20
719.894382356
 11
1313.134398118
 21
728.285676255
  0
LINE
  8
0
  6
CONTINUOUS
 62
     1
 10
1316.052913995
 20
717.927357613
 11
1312.758898324
 21
705.633923767
  0
LINE
  8
0
  6
CONTINUOUS
 62
     1
 10
1306.710377919
 20
742.947939534
 11
1319.267413661
 21
739.583291948
  0
LINE
  8
0
  6
CONTINUOUS
 62
     1
 10
1313.134398118
 20
728.285676255
 11
1316.369636182
 21
740.359749083
  0
LINE
  8
0
  6
CONTINUOUS
 62
     1
 10
1331.214566532
 20
764.852156945
 11
1320.861804728
 21
726.215123894
  0
LINE
  8
0
  6
CONTINUOUS
 62
     1
 10
1329.902218313
 20
759.954406712
 11
1320.861804728
 21
726.215123894
  0
LINE
  8
0
  6
CONTINUOUS
 62
     1
 10
1326.384937401
 20
766.146252171
 11
1316.032175597
 21
727.509219119
  0
LINE
  8
0
  6
LTYPE3
 62
     2
 10
1359.221569779
 20
721.009509111
 11
1313.823055943
 21
733.17400423
  0
LINE
  8
0
  6
CONTINUOUS
 62
     1
 10
1316.032175597
 20
727.509219119
 11
1354.669208648
 21
717.156457315
  0
LINE
  8
0
  6
CONTINUOUS
 62
     1
 10
1341.483707665
 20
733.630453911
 11
1354.040743407
 21
730.265806324
  0
LINE
  8
0
  6
CONTINUOUS
 62
     1
 10
1361.158267147
 20
756.828766547
 11
1350.805505343
 21
718.191733496
  0
LINE
  8
0
  6
CONTINUOUS
 62
     1
 10
1345.365993342
 20
748.119341305
 11
1357.923029084
 21
744.754693719
  0
LINE
  8
0
  6
CONTINUOUS
 62
     1
 10
1347.907727864
 20
718.968190631
 11
1351.142965928
 21
731.042263459
  0
LINE
  8
0
  6
CONTINUOUS
 62
     1
 10
1309.291433211
 20
719.739090929
 11
1305.593415442
 21
705.937900726
  0
LINE
  8
0
  6
LTYPE3
 62
     2
 10
1322.605316932
 20
762.086145139
 11
1368.003830767
 21
749.921650019
  0
LINE
  8
0
  6
CONTINUOUS
 62
     1
 10
1365.021970452
 20
755.793490367
 11
1326.384937401
 21
766.146252171
  0
LINE
  8
0
  6
CONTINUOUS
 62
     1
 10
1310.592663595
 20
757.436826929
 11
1323.149699337
 21
754.072179342
  0
LINE
  8
0
  6
CONTINUOUS
 62
     2
 10
1340.137964258
 20
752.304647586
 11
1309.069982657
 21
826.466926248
  0
LINE
  8
0
  6
CONTINUOUS
 62
     2
 10
1340.137964258
 20
752.304647586
 11
1334.018588842
 21
760.213708498
  0
LINE
  8
0
  6
CONTINUOUS
 62
     2
 10
1340.137964258
 20
752.304647586
 11
1338.792960148
 21
762.213782965
  0
TEXT
  8
7
  6
CONTINUOUS
 62
     2
 10
1262.743822488
 20
661.069880312
 30
0.0
 40
15.0
  1
約１５゜
 50
82.5
 41
0.9
 51
0.0
  7
KANJI59
  0
LINE
  8
0
  6
CONTINUOUS
 62
     2
 10
1275.824445042
 20
698.942353195
 11
1269.221913185
 21
700.711496274
  0
LINE
  8
0
  6
CONTINUOUS
 62
     2
 10
1275.017468143
 20
699.158582004
 11
1269.017468143
 21
688.766277158
  0
ARC
  8
0
  6
CONTINUOUS
 62
     2
 10
1450.12
 20
652.24
 40
181.279480361
 50
165.0
 51
180.0
  0
LINE
  8
0
  6
CONTINUOUS
 62
     2
 10
1268.840519639
 20
652.24
 11
1271.94634818
 21
663.831109915
  0
LINE
  8
0
  6
CONTINUOUS
 62
     2
 10
1268.840519639
 20
652.24
 11
1265.734691098
 21
663.831109915
  0
LINE
  8
0
  6
CONTINUOUS
 62
     1
 10
1289.442294753
 20
678.502575811
 11
1276.687368687
 21
630.900543685
  0
ARC
  8
0
  6
LTYPE1
 62
     1
 10
1305.231126057
 20
691.062856765
 40
16.0
 50
255.0
 51
129.340912304
  0
ARC
  8
0
  6
CONTINUOUS
 62
     1
 10
1305.231126057
 20
691.062856765
 40
16.0
 50
129.340912304
 51
200.659087696
  0
LINE
  8
0
  6
CONTINUOUS
 62
     1
 10
1296.716768035
 20
674.741653255
 11
1293.926375205
 21
664.32776544
  0
LINE
  8
0
  6
LTYPE3
 62
     2
 10
1287.304524248
 20
675.160751635
 11
1305.850300112
 21
670.191425969
  0
LINE
  8
0
  6
LTYPE1
 62
     2
 10
1298.938671407
 20
681.102057877
 11
1305.700152191
 21
679.290324562
  0
ARC
  8
0
  6
LTYPE1
 62
     1
 10
1305.231126057
 20
691.062856765
 40
16.0
 50
200.659087696
 51
255.0
  0
LINE
  8
0
  6
LTYPE1
 62
     1
 10
1289.757730465
 20
679.679797912
 11
1289.442294753
 21
678.502575811
  0
LINE
  8
0
  6
LTYPE1
 62
     1
 10
1297.485137075
 20
677.609245551
 11
1296.716768035
 21
674.741653255
  0
LINE
  8
0
  6
LTYPE1
 62
     1
 10
1289.757730465
 20
679.679797912
 11
1299.336494909
 21
677.113175715
  0
CIRCLE
  8
0
  6
CONTINUOUS
 62
     1
 10
1305.231126057
 20
691.062856765
 40
6.49995
  0
CIRCLE
  8
0
  6
LTYPE1
 62
     2
 10
1305.231126057
 20
691.062856765
 40
3.2
  0
CIRCLE
  8
0
  6
CONTINUOUS
 62
     1
 10
1305.231126057
 20
691.062856765
 40
4.0
  0
LINE
  8
0
  6
CONTINUOUS
 62
     1
 10
1307.168168253
 20
683.814584464
 11
1299.929462156
 21
685.754189917
  0
LINE
  8
0
  6
CONTINUOUS
 62
     1
 10
1299.929462156
 20
685.754189917
 11
1297.992419959
 21
693.002462219
  0
LINE
  8
0
  6
CONTINUOUS
 62
     1
 10
1303.750921258
 20
672.015695683
 11
1301.170818902
 21
662.386622602
  0
LINE
  8
0
  6
CONTINUOUS
 62
     1
 10
1303.29408386
 20
698.311129067
 11
1297.992419959
 21
693.002462219
  0
LINE
  8
7
  6
CONTINUOUS
 62
     2
 10
1288.037646349
 20
695.669835768
 11
1286.444070101
 21
705.542044981
  0
LINE
  8
7
  6
CONTINUOUS
 62
     2
 10
1288.037646349
 20
695.669835768
 11
1281.721464229
 21
703.422631614
  0
LINE
  8
0
  6
CONTINUOUS
 62
     1
 10
1289.438852251
 20
682.353431523
 11
1295.909328379
 21
706.50157718
  0
LINE
  8
0
  6
CONTINUOUS
 62
     1
 10
1298.107355887
 20
677.99954612
 11
1294.409338118
 21
664.198355917
  0
LINE
  8
0
  6
LTYPE1
 62
     2
 10
1298.938671407
 20
681.102057877
 11
1298.107355887
 21
677.99954612
  0
LINE
  8
0
  6
CONTINUOUS
 62
     1
 10
1295.909328379
 20
706.50157718
 11
1436.583435192
 21
698.313435005
  0
LINE
  8
0
  6
CONTINUOUS
 62
     1
 10
1289.438852251
 20
682.353431523
 11
1415.360273494
 21
619.10751725
  0
LINE
  8
0
  6
CONTINUOUS
 62
     1
 10
1293.829782622
 20
664.353647344
 11
1293.46415069
 21
654.875313457
  0
LINE
  8
0
  6
CONTINUOUS
 62
     1
 10
1294.409338118
 20
664.198355917
 11
1301.170818902
 21
662.386622602
  0
LINE
  8
0
  6
LTYPE1
 62
     1
 10
1297.522301818
 20
708.657572701
 11
1307.101066262
 21
706.090950504
  0
LINE
  8
0
  6
CONTINUOUS
 62
     2
 10
1275.017468143
 20
699.158582004
 11
1275.017468143
 21
687.158582004
  0
LINE
  8
0
  6
LTYPE6
 62
     2
 10
1275.12
 20
699.131108675
 11
1457.283497148
 21
650.320546724
  0
LINE
  8
0
  6
LTYPE1
 62
     2
 10
1305.700152191
 20
679.290324562
 11
1303.750921258
 21
672.015695683
  0
LINE
  8
0
  6
CONTINUOUS
 62
     1
 10
1307.168168253
 20
683.814584464
 11
1312.469832154
 21
689.123251312
  0
LINE
  8
0
  6
CONTINUOUS
 62
     1
 10
1310.532789958
 20
696.371523613
 11
1312.469832154
 21
689.123251312
  0
LINE
  8
0
  6
CONTINUOUS
 62
     1
 10
1310.532789958
 20
696.371523613
 11
1303.29408386
 21
698.311129067
  0
LINE
  8
0
  6
LTYPE1
 62
     2
 10
1304.762099922
 20
702.835388969
 11
1311.523580706
 21
701.023655653
  0
LINE
  8
0
  6
LTYPE1
 62
     2
 10
1313.472811639
 20
708.298284533
 11
1311.523580706
 21
701.023655653
  0
LINE
  8
0
  6
CONTINUOUS
 62
     1
 10
1323.481513714
 20
600.762395247
 11
1338.712451868
 21
657.605030286
  0
LINE
  8
0
  6
LTYPE1
 62
     2
 10
1306.296141971
 20
708.560511835
 11
1305.732671341
 21
706.457610818
  0
LINE
  8
0
  6
LTYPE1
 62
     1
 10
1310.079337559
 20
705.292925115
 11
1310.394773271
 21
706.470147215
  0
LINE
  8
0
  6
LTYPE3
 62
     2
 10
1275.151178551
 20
639.076735944
 11
1331.174876475
 21
624.065231328
  0
LINE
  8
0
  6
CONTINUOUS
 62
     1
 10
1280.569654363
 20
645.389431079
 11
1306.842836839
 21
638.349553052
  0
LINE
  8
0
  6
CONTINUOUS
 62
     1
 10
1276.687368687
 20
630.900543685
 11
1302.960551162
 21
623.860665658
  0
LINE
  8
0
  6
LTYPE3
 62
     2
 10
1329.198560547
 20
608.962113261
 11
1283.800046711
 21
621.126608381
  0
LINE
  8
0
  6
LTYPE3
 62
     2
 10
1292.5823077
 20
650.03874929
 11
1337.980821535
 21
637.87425417
  0
LINE
  8
0
  6
CONTINUOUS
 62
     1
 10
1286.009166365
 20
615.46182327
 11
1324.646199416
 21
605.109061466
  0
LINE
  8
0
  6
CONTINUOUS
 62
     1
 10
1334.998961221
 20
643.746094517
 11
1296.361928169
 21
654.098856321
  0
LINE
  8
0
  6
CONTINUOUS
 62
     1
 10
1293.46415069
 20
654.875313457
 11
1290.228912626
 21
642.801240628
  0
LINE
  8
0
  6
CONTINUOUS
 62
     1
 10
1301.1915573
 20
652.804761096
 11
1297.930437332
 21
640.634095685
  0
LINE
  8
0
  6
CONTINUOUS
 62
     1
 10
1296.361928169
 20
654.098856321
 11
1293.126690105
 21
642.024783493
  0
LINE
  8
0
  6
CONTINUOUS
 62
     1
 10
1290.228912626
 20
642.801240628
 11
1286.34662695
 21
628.312353234
  0
LINE
  8
0
  6
CONTINUOUS
 62
     1
 10
1294.07403356
 20
626.241800873
 11
1290.838795496
 21
614.167728044
  0
LINE
  8
0
  6
CONTINUOUS
 62
     1
 10
1289.218522524
 20
627.439303516
 11
1286.009166365
 21
615.46182327
  0
LINE
  8
0
  6
CONTINUOUS
 62
     1
 10
1342.053936227
 20
644.961548203
 11
1344.670259183
 21
654.725798403
  0
LINE
  8
0
  6
CONTINUOUS
 62
     1
 10
1334.998961221
 20
643.746094517
 11
1324.646199416
 21
605.109061466
  0
LINE
  8
0
  6
CONTINUOUS
 62
     1
 10
1307.671057783
 20
641.440515696
 11
1302.132330218
 21
620.769703014
  0
ARC
  8
0
  6
CONTINUOUS
 62
     1
 10
1309.602909435
 20
640.922877606
 40
2.0
 50
75.0
 51
165.0
  0
LINE
  8
0
  6
LTYPE3
 62
     2
 10
1313.519603458
 20
614.198553332
 11
1320.870064339
 21
641.630846798
  0
LINE
  8
0
  6
CONTINUOUS
 62
     1
 10
1310.120547526
 20
642.854729259
 11
1330.791360208
 21
637.316001694
  0
LINE
  8
0
  6
CONTINUOUS
 62
     1
 10
1332.205573771
 20
634.866511951
 11
1326.666846205
 21
614.195699268
  0
ARC
  8
0
  6
CONTINUOUS
 62
     1
 10
1330.273722118
 20
635.384150041
 40
2.0
 50
345.0
 51
75.0
  0
LINE
  8
0
  6
CONTINUOUS
 62
     1
 10
1344.18729627
 20
654.855207926
 11
1329.277068671
 21
599.209480977
  0
LINE
  8
0
  6
CONTINUOUS
 62
     1
 10
1323.481513714
 20
600.762395247
 11
1329.277068671
 21
599.209480977
  0
LINE
  8
0
  6
CONTINUOUS
 62
     1
 10
1324.646199416
 20
605.109061466
 11
1324.742791999
 21
605.083179561
  0
LINE
  8
0
  6
CONTINUOUS
 62
     1
 10
1303.54654378
 20
618.320213271
 11
1324.217356463
 21
612.781485706
  0
ARC
  8
0
  6
CONTINUOUS
 62
     1
 10
1324.734994553
 20
614.713337358
 40
2.0
 50
255.0
 51
345.0
  0
ARC
  8
0
  6
CONTINUOUS
 62
     1
 10
1304.06418187
 20
620.252064924
 40
2.0
 50
165.0
 51
255.0
  0
LINE
  8
0
  6
CONTINUOUS
 62
     2
 10
1450.12
 20
522.516926248
 11
1275.12
 21
522.516926248
  0
LINE
  8
0
  6
CONTINUOUS
 62
     2
 10
1275.12
 20
522.516926248
 11
1286.711109915
 21
519.411097707
  0
LINE
  8
0
  6
CONTINUOUS
 62
     2
 10
1275.12
 20
522.516926248
 11
1286.711109915
 21
525.622754789
  0
LINE
  8
0
  6
CONTINUOUS
 62
     2
 10
1275.12
 20
623.466926248
 11
1275.12
 21
516.516926248
  0
TEXT
  8
0
  6
CONTINUOUS
 62
     3
 10
1315.22
 20
527.766926248
 30
0.0
 40
18.0
  1
１７５
 50
0.0
 41
0.9
 51
0.0
  7
KANJI60
  0
LINE
  8
0
  6
CONTINUOUS
 62
     2
 10
1450.12
 20
522.516926248
 11
1438.528890085
 21
525.622754789
  0
LINE
  8
0
  6
CONTINUOUS
 62
     2
 10
1450.12
 20
522.516926248
 11
1438.528890085
 21
519.411097707
  0
LINE
  8
0
  6
LTYPE2
 62
     2
 10
1437.124464167
 20
603.74
 11
1462.002308775
 21
696.58538006
  0
LINE
  8
0
  6
CONTINUOUS
 62
     1
 10
1405.12
 20
594.24
 11
1415.12
 21
594.24
  0
LINE
  8
0
  6
CONTINUOUS
 62
     1
 10
1402.12
 20
592.74
 11
1420.62
 21
592.74
  0
LINE
  8
0
  6
CONTINUOUS
 62
     1
 10
1432.62
 20
592.74
 11
1435.62
 21
592.74
  0
LINE
  8
0
  6
LTYPE1
 62
     2
 10
1421.12
 20
592.74
 11
1432.62
 21
592.74
  0
LINE
  8
0
  6
LTYPE1
 62
     2
 10
1415.12
 20
594.24
 11
1432.62
 21
594.24
  0
LINE
  8
0
  6
LTYPE1
 62
     2
 10
1436.12
 20
592.74
 11
1493.62
 21
592.74
  0
LINE
  8
0
  6
LTYPE3
 62
     2
 10
1415.52
 20
605.24
 11
1391.72
 21
605.24
  0
LINE
  8
0
  6
LTYPE3
 62
     2
 10
1403.12
 20
595.39
 11
1403.12
 21
618.49
  0
ARC
  8
0
  6
CONTINUOUS
 62
     1
 10
1396.12
 20
598.24
 40
5.0
 50
180.0
 51
270.0
  0
ARC
  8
0
  6
CONTINUOUS
 62
     1
 10
1403.12
 20
605.24
 40
9.0
 50
218.157226587
 51
282.116861929
  0
LINE
  8
0
  6
CONTINUOUS
 62
     1
 10
1391.12
 20
600.74
 11
1391.12
 21
598.24
  0
LINE
  8
0
  6
CONTINUOUS
 62
     1
 10
1405.12
 20
592.74
 11
1405.12
 21
596.74
  0
LINE
  8
0
  6
LTYPE1
 62
     2
 10
1391.12
 20
615.74
 11
1391.12
 21
600.74
  0
LINE
  8
0
  6
LTYPE1
 62
     2
 10
1405.12
 20
597.24
 11
1405.12
 21
623.74
  0
LINE
  8
0
  6
LTYPE1
 62
     2
 10
1391.12
 20
628.714953509
 11
1391.12
 21
626.74
  0
LINE
  8
0
  6
LTYPE1
 62
     2
 10
1377.12
 20
630.398317836
 11
1397.841040822
 21
627.906813483
  0
LINE
  8
0
  6
CONTINUOUS
 62
     1
 10
1391.12
 20
626.74
 11
1391.12
 21
615.74
  0
LINE
  8
0
  6
CONTINUOUS
 62
     1
 10
1482.12
 20
630.24
 11
1482.12
 21
674.24
  0
LINE
  8
0
  6
CONTINUOUS
 62
     1
 10
1488.12
 20
639.74
 11
1488.12
 21
664.74
  0
LINE
  8
0
  6
CONTINUOUS
 62
     1
 10
1488.12
 20
639.74
 11
1482.12
 21
639.74
  0
LINE
  8
0
  6
CONTINUOUS
 62
     1
 10
1482.12
 20
630.24
 11
1477.62
 21
630.24
  0
LINE
  8
0
  6
CONTINUOUS
 62
     1
 10
1462.62
 20
639.74
 11
1437.62
 21
639.74
  0
LINE
  8
0
  6
CONTINUOUS
 62
     1
 10
1437.62
 20
639.74
 11
1462.62
 21
639.74
  0
LINE
  8
0
  6
CONTINUOUS
 62
     1
 10
1477.62
 20
627.24
 11
1477.62
 21
677.24
  0
LINE
  8
0
  6
CONTINUOUS
 62
     1
 10
1422.62
 20
627.24
 11
1477.62
 21
627.24
  0
LINE
  8
0
  6
CONTINUOUS
 62
     1
 10
1462.62
 20
627.24
 11
1462.62
 21
677.24
  0
LINE
  8
0
  6
LTYPE1
 62
     2
 10
1482.12
 20
639.74
 11
1462.62
 21
639.74
  0
LINE
  8
0
  6
CONTINUOUS
 62
     1
 10
1440.95730789
 20
612.248812554
 11
1473.315823071
 21
603.578374544
  0
LINE
  8
0
  6
CONTINUOUS
 62
     1
 10
1473.315823071
 20
603.578374544
 11
1480.459784081
 21
630.24
  0
LINE
  8
0
  6
LTYPE2
 62
     2
 10
1482.12
 20
605.24
 11
1512.12
 21
605.24
  0
LINE
  8
0
  6
CONTINUOUS
 62
     1
 10
1495.12
 20
593.24
 11
1504.12
 21
593.24
  0
ARC
  8
0
  6
CONTINUOUS
 62
     1
 10
1504.12
 20
598.24
 40
5.0
 50
270.0
 51
360.0
  0
LINE
  8
0
  6
CONTINUOUS
 62
     1
 10
1509.12
 20
628.714953509
 11
1509.12
 21
598.24
  0
ARC
  8
0
  6
CONTINUOUS
 62
     1
 10
1497.12
 20
605.24
 40
9.0
 50
257.883138071
 51
73.610459666
  0
LINE
  8
0
  6
LTYPE2
 62
     2
 10
1497.12
 20
590.24
 11
1497.12
 21
620.24
  0
LINE
  8
0
  6
LTYPE1
 62
     2
 10
1495.12
 20
597.74
 11
1495.12
 21
624.24
  0
ARC
  8
0
  6
CONTINUOUS
 62
     1
 10
1402.12
 20
589.74
 40
3.0
 50
90.0
 51
180.0
  0
LINE
  8
0
  6
CONTINUOUS
 62
     1
 10
1399.12
 20
543.24
 11
1399.12
 21
589.74
  0
LINE
  8
0
  6
CONTINUOUS
 62
     1
 10
1405.12
 20
593.24
 11
1396.12
 21
593.24
  0
ARC
  8
0
  6
CONTINUOUS
 62
     1
 10
1498.12
 20
589.74
 40
3.0
 50
0.0
 51
90.0
  0
LINE
  8
0
  6
CONTINUOUS
 62
     1
 10
1501.12
 20
543.24
 11
1501.12
 21
589.74
  0
LINE
  8
0
  6
CONTINUOUS
 62
     1
 10
1494.12
 20
594.24
 11
1495.12
 21
594.24
  0
LINE
  8
0
  6
CONTINUOUS
 62
     1
 10
1493.62
 20
592.74
 11
1498.12
 21
592.74
  0
LINE
  8
0
  6
CONTINUOUS
 62
     1
 10
1495.12
 20
592.74
 11
1495.12
 21
597.74
  0
LINE
  8
0
  6
CONTINUOUS
 62
     1
 10
1418.12
 20
630.24
 11
1418.12
 21
674.24
  0
LINE
  8
0
  6
CONTINUOUS
 62
     1
 10
1412.12
 20
639.74
 11
1412.12
 21
664.74
  0
LINE
  8
0
  6
CONTINUOUS
 62
     1
 10
1412.12
 20
639.74
 11
1418.12
 21
639.74
  0
LINE
  8
0
  6
CONTINUOUS
 62
     1
 10
1418.12
 20
630.24
 11
1422.62
 21
630.24
  0
LINE
  8
0
  6
CONTINUOUS
 62
     1
 10
1437.62
 20
627.24
 11
1437.62
 21
677.24
  0
LINE
  8
0
  6
CONTINUOUS
 62
     1
 10
1422.62
 20
627.24
 11
1422.62
 21
677.24
  0
LINE
  8
0
  6
LTYPE1
 62
     2
 10
1418.12
 20
639.74
 11
1437.62
 21
639.74
  0
LINE
  8
0
  6
CONTINUOUS
 62
     1
 10
1415.360273494
 20
619.10751725
 11
1438.059530411
 21
613.02526969
  0
LINE
  8
0
  6
CONTINUOUS
 62
     1
 10
1438.059530411
 20
613.02526969
 11
1441.868355919
 21
627.24
  0
LINE
  8
0
  6
CONTINUOUS
 62
     1
 10
1440.95730789
 20
612.248812554
 11
1444.97418446
 21
627.24
  0
LINE
  8
0
  6
LTYPE6
 62
     2
 10
1416.22
 20
648.24
 11
1416.22
 21
656.44
  0
LINE
  8
0
  6
LTYPE1
 62
     2
 10
1395.12
 20
642.24
 11
1370.12
 21
642.24
  0
LINE
  8
0
  6
LTYPE1
 62
     2
 10
1395.12
 20
642.24
 11
1395.12
 21
662.24
  0
CIRCLE
  8
0
  6
CONTINUOUS
 62
     1
 10
1416.12
 20
652.24
 40
2.0
  0
LINE
  8
0
  6
LTYPE1
 62
     2
 10
1395.12
 20
662.24
 11
1370.12
 21
662.24
  0
LINE
  8
0
  6
LTYPE1
 62
     2
 10
1370.12
 20
673.24
 11
1403.386714218
 21
677.24
  0
LINE
  8
0
  6
LTYPE3
 62
     2
 10
1403.12
 20
687.905527109
 11
1403.12
 21
710.005527109
  0
LINE
  8
0
  6
LTYPE1
 62
     2
 10
1391.12
 20
675.765046491
 11
1391.12
 21
700.261223203
  0
LINE
  8
0
  6
LTYPE1
 62
     2
 10
1373.12
 20
673.600720927
 11
1373.12
 21
714.283135034
  0
LINE
  8
0
  6
LTYPE1
 62
     2
 10
1370.12
 20
632.264888178
 11
1370.12
 21
673.24
  0
LINE
  8
0
  6
LTYPE3
 62
     2
 10
1415.52
 20
699.24
 11
1391.72
 21
699.24
  0
ARC
  8
0
  6
CONTINUOUS
 62
     1
 10
1396.12
 20
706.24
 40
5.0
 50
90.0
 51
139.398705355
  0
LINE
  8
0
  6
LTYPE1
 62
     2
 10
1391.12
 20
700.959700758
 11
1391.12
 21
706.24001079
  0
ARC
  8
0
  6
LTYPE1
 62
     2
 10
1396.12
 20
706.24
 40
5.0
 50
143.130102353
 51
179.999876362
  0
ARC
  8
0
  6
CONTINUOUS
 62
     1
 10
1403.12
 20
699.24
 40
9.0
 50
35.537677792
 51
116.565051177
  0
LINE
  8
0
  6
CONTINUOUS
 62
     1
 10
1414.62
 20
711.24
 11
1396.12
 21
711.24
  0
LINE
  8
0
  6
CONTINUOUS
 62
     1
 10
1477.62
 20
677.24
 11
1462.62
 21
677.24
  0
LINE
  8
0
  6
CONTINUOUS
 62
     1
 10
1488.12
 20
664.74
 11
1482.12
 21
664.74
  0
LINE
  8
0
  6
CONTINUOUS
 62
     1
 10
1482.12
 20
674.24
 11
1477.62
 21
674.24
  0
LINE
  8
0
  6
CONTINUOUS
 62
     1
 10
1412.12
 20
664.74
 11
1418.12
 21
664.74
  0
LINE
  8
0
  6
CONTINUOUS
 62
     1
 10
1418.12
 20
674.24
 11
1422.62
 21
674.24
  0
LINE
  8
0
  6
CONTINUOUS
 62
     1
 10
1462.62
 20
664.74
 11
1437.62
 21
664.74
  0
LINE
  8
0
  6
CONTINUOUS
 62
     1
 10
1437.62
 20
664.74
 11
1462.62
 21
664.74
  0
LINE
  8
0
  6
CONTINUOUS
 62
     1
 10
1422.62
 20
677.24
 11
1462.62
 21
677.24
  0
LINE
  8
0
  6
LTYPE3
 62
     2
 10
1484.72
 20
699.24
 11
1508.52
 21
699.24
  0
LINE
  8
0
  6
LTYPE3
 62
     2
 10
1497.12
 20
687.905527109
 11
1497.12
 21
710.005527109
  0
LINE
  8
0
  6
LTYPE1
 62
     2
 10
1482.12
 20
664.74
 11
1462.62
 21
664.74
  0
LINE
  8
0
  6
LTYPE1
 62
     2
 10
1418.12
 20
664.74
 11
1437.62
 21
664.74
  0
LINE
  8
0
  6
LTYPE1
 62
     2
 10
1505.12
 20
642.24
 11
1505.12
 21
662.24
  0
LINE
  8
0
  6
LTYPE1
 62
     2
 10
1505.12
 20
662.24
 11
1530.12
 21
662.24
  0
LINE
  8
0
  6
CONTINUOUS
 62
     1
 10
1488.12
 20
658.828315007
 11
1494.538984769
 21
682.784292299
  0
LINE
  8
0
  6
CONTINUOUS
 62
     1
 10
1462.180469589
 20
691.45473031
 11
1494.538984769
 21
682.784292299
  0
LINE
  8
0
  6
CONTINUOUS
 62
     1
 10
1436.583435192
 20
698.313435005
 11
1459.28269211
 21
692.231187446
  0
LINE
  8
0
  6
CONTINUOUS
 62
     1
 10
1455.26581554
 20
677.24
 11
1459.28269211
 21
692.231187446
  0
LINE
  8
0
  6
CONTINUOUS
 62
     1
 10
1458.371644081
 20
677.24
 11
1462.180469589
 21
691.45473031
  0
LINE
  8
0
  6
LTYPE1
 62
     2
 10
1509.12
 20
675.765046491
 11
1509.12
 21
704.24
  0
LINE
  8
0
  6
CONTINUOUS
 62
     1
 10
1530.12
 20
673.24
 11
1515.62
 21
674.983484482
  0
LINE
  8
0
  6
LTYPE1
 62
     2
 10
1515.62
 20
674.983484482
 11
1495.12
 21
677.448410818
  0
ARC
  8
0
  6
CONTINUOUS
 62
     1
 10
1504.12
 20
706.24
 40
5.0
 50
0.0
 51
90.0
  0
LINE
  8
0
  6
CONTINUOUS
 62
     1
 10
1485.12
 20
711.24
 11
1504.12
 21
711.24
  0
ARC
  8
0
  6
CONTINUOUS
 62
     1
 10
1497.12
 20
699.24
 40
9.0
 50
42.709389957
 51
109.440034828
  0
LINE
  8
0
  6
CONTINUOUS
 62
     1
 10
1509.12
 20
704.24
 11
1509.12
 21
706.24
  0
LINE
  8
0
  6
LTYPE6
 62
     2
 10
1484.02
 20
648.24
 11
1484.02
 21
656.44
  0
CIRCLE
  8
0
  6
CONTINUOUS
 62
     1
 10
1484.12
 20
652.24
 40
2.0
  0
LINE
  8
0
  6
LTYPE1
 62
     2
 10
1505.12
 20
642.24
 11
1530.12
 21
642.24
  0
TEXT
  8
7
  6
CONTINUOUS
 62
     2
 10
1184.637091025
 20
781.669835768
 30
0.0
 40
15.0
  1
ＬＳユニット組付位置
 50
0.0
 41
0.9
 51
0.0
  7
KANJI59
  0
LINE
  8
7
  6
CONTINUOUS
 62
     2
 10
1322.087964258
 20
777.669835768
 11
1175.403705995
 21
777.669835768
  0
ARC
  8
0
  6
CONTINUOUS
 62
     1
 10
1379.12
 20
580.74
 40
6.0
 50
180.0
 51
270.0
  0
LINE
  8
0
  6
CONTINUOUS
 62
     1
 10
1379.12
 20
574.74
 11
1399.12
 21
574.74
  0
LINE
  8
0
  6
CONTINUOUS
 62
     1
 10
1373.12
 20
580.74
 11
1373.12
 21
630.879279073
  0
LINE
  8
0
  6
CONTINUOUS
 62
     2
 10
1373.12
 20
573.24
 11
1373.12
 21
485.54
  0
LINE
  8
0
  6
CONTINUOUS
 62
     2
 10
1370.12
 20
623.74
 11
1370.12
 21
445.0775
  0
ARC
  8
0
  6
CONTINUOUS
 62
     1
 10
1521.12
 20
580.74
 40
6.0
 50
270.0
 51
0.0
  0
ARC
  8
0
  6
CONTINUOUS
 62
     1
 10
1400.12
 20
543.24
 40
1.0
 50
180.0
 51
270.0
  0
ARC
  8
0
  6
CONTINUOUS
 62
     1
 10
1403.12
 20
542.24
 40
1.0
 50
180.0
 51
270.0
  0
ARC
  8
0
  6
CONTINUOUS
 62
     1
 10
1500.12
 20
543.24
 40
1.0
 50
270.0
 51
0.0
  0
ARC
  8
0
  6
CONTINUOUS
 62
     1
 10
1497.12
 20
542.24
 40
1.0
 50
270.0
 51
0.0
  0
LINE
  8
0
  6
CONTINUOUS
 62
     1
 10
1501.12
 20
548.24
 11
1399.12
 21
548.24
  0
LINE
  8
0
  6
CONTINUOUS
 62
     1
 10
1501.12
 20
549.74
 11
1399.12
 21
549.74
  0
LINE
  8
0
  6
CONTINUOUS
 62
     1
 10
1497.12
 20
541.24
 11
1403.12
 21
541.24
  0
LINE
  8
0
  6
CONTINUOUS
 62
     1
 10
1500.12
 20
542.24
 11
1400.12
 21
542.24
  0
LINE
  8
0
  6
CONTINUOUS
 62
     1
 10
1501.12
 20
574.74
 11
1521.12
 21
574.74
  0
LINE
  8
0
  6
CONTINUOUS
 62
     1
 10
1527.12
 20
580.74
 11
1527.12
 21
630.879279073
  0
LINE
  8
0
  6
LTYPE3
 62
     2
 10
1495.12
 20
537.54
 11
1495.12
 21
556.24
  0
LINE
  8
0
  6
LTYPE3
 62
     2
 10
1405.12
 20
537.54
 11
1405.12
 21
556.24
  0
LINE
  8
0
  6
LTYPE3
 62
     3
 10
1450.12
 20
550.7275
 11
1450.12
 21
595.89
  0
LINE
  8
0
  6
CONTINUOUS
 62
     2
 10
1527.12
 20
573.24
 11
1527.12
 21
485.54
  0
LINE
  8
0
  6
CONTINUOUS
 62
     2
 10
1530.12
 20
623.74
 11
1530.12
 21
445.0775
  0
CIRCLE
  8
0
  6
CONTINUOUS
 62
     2
 10
1450.12
 20
566.74
 40
10.4775
  0
CIRCLE
  8
0
  6
CONTINUOUS
 62
     2
 10
1450.12
 20
566.74
 40
9.3155
  0
LINE
  8
0
  6
LTYPE2
 62
     2
 10
1470.02
 20
566.74
 11
1429.32
 21
566.74
  0
LINE
  8
0
  6
CONTINUOUS
 62
     1
 10
1410.42
 20
541.24
 11
1399.82
 21
541.24
  0
ARC
  8
0
  6
CONTINUOUS
 62
     1
 10
1405.52
 20
542.24
 40
5.0
 50
272.3
 51
348.5
  0
ARC
  8
0
  6
CONTINUOUS
 62
     1
 10
1404.72
 20
542.24
 40
5.0
 50
191.5
 51
267.7
  0
LINE
  8
0
  6
CONTINUOUS
 62
     1
 10
1405.72
 20
537.24
 11
1404.52
 21
537.24
  0
LINE
  8
0
  6
LTYPE4
 62
     2
 10
1405.12
 20
533.84
 11
1405.12
 21
547.24
  0
LINE
  8
0
  6
CONTINUOUS
 62
     1
 10
1500.42
 20
541.24
 11
1489.82
 21
541.24
  0
ARC
  8
0
  6
CONTINUOUS
 62
     1
 10
1495.52
 20
542.24
 40
5.0
 50
272.3
 51
348.5
  0
ARC
  8
0
  6
CONTINUOUS
 62
     1
 10
1494.72
 20
542.24
 40
5.0
 50
191.5
 51
267.7
  0
LINE
  8
0
  6
CONTINUOUS
 62
     1
 10
1495.72
 20
537.24
 11
1494.52
 21
537.24
  0
LINE
  8
0
  6
LTYPE4
 62
     2
 10
1495.12
 20
533.84
 11
1495.12
 21
547.24
  0
LINE
  8
0
  6
CONTINUOUS
 62
     2
 10
1504.62
 20
541.24
 11
1616.492218677
 21
541.24
  0
LINE
  8
0
  6
LTYPE2
 62
     2
 10
1450.12
 20
529.24
 11
1450.12
 21
1009.24
  0
TEXT
  8
0
  6
CONTINUOUS
 62
     2
 10
1428.37
 20
498.04
 30
0.0
 40
18.0
  1
１５４
 50
0.0
 41
0.9
 51
0.0
  7
KANJI60
  0
LINE
  8
0
  6
CONTINUOUS
 62
     2
 10
1373.12
 20
493.04
 11
1385.194072829
 21
489.804761936
  0
LINE
  8
0
  6
CONTINUOUS
 62
     2
 10
1373.12
 20
493.04
 11
1385.194072829
 21
496.275238064
  0
LINE
  8
0
  6
CONTINUOUS
 62
     2
 10
1373.12
 20
493.04
 11
1527.12
 21
493.04
  0
LINE
  8
0
  6
CONTINUOUS
 62
     2
 10
1527.12
 20
493.04
 11
1515.045927171
 21
496.275238064
  0
LINE
  8
0
  6
CONTINUOUS
 62
     2
 10
1527.12
 20
493.04
 11
1515.045927171
 21
489.804761936
  0
LINE
  8
0
  6
CONTINUOUS
 62
     2
 10
1370.12
 20
452.5775
 11
1382.194072829
 21
449.342261936
  0
LINE
  8
0
  6
CONTINUOUS
 62
     2
 10
1370.12
 20
452.5775
 11
1382.194072829
 21
455.812738064
  0
LINE
  8
0
  6
CONTINUOUS
 62
     2
 10
1370.12
 20
452.5775
 11
1530.12
 21
452.5775
  0
LINE
  8
0
  6
CONTINUOUS
 62
     2
 10
1530.12
 20
452.5775
 11
1518.045927171
 21
455.812738064
  0
LINE
  8
0
  6
CONTINUOUS
 62
     2
 10
1530.12
 20
452.5775
 11
1518.045927171
 21
449.342261936
  0
TEXT
  8
0
  6
CONTINUOUS
 62
     2
 10
1428.37
 20
457.5775
 30
0.0
 40
18.0
  1
１６０
 50
0.0
 41
0.9
 51
0.0
  7
KANJI60
  0
LINE
  8
0
  6
CONTINUOUS
 62
     1
 10
1530.12
 20
631.24
 11
1530.12
 21
673.24
  0
LINE
  8
0
  6
LTYPE6
 62
     2
 10
1360.82
 20
652.24
 11
1488.12
 21
652.24
  0
LINE
  8
0
  6
LTYPE6
 62
     2
 10
1559.12
 20
652.24
 11
1412.12
 21
652.24
  0
LINE
  8
0
  6
CONTINUOUS
 62
     2
 10
1538.62
 20
662.24
 11
1594.12
 21
662.24
  0
LINE
  8
0
  6
CONTINUOUS
 62
     2
 10
1539.62
 20
642.24
 11
1594.12
 21
642.24
  0
LINE
  8
0
  6
CONTINUOUS
 62
     1
 10
1474.049491924
 20
725.792904188
 11
1438.572994616
 21
787.24
  0
CIRCLE
  8
0
  6
LTYPE1
 62
     2
 10
1450.12
 20
807.24
 40
100.0
  0
LINE
  8
0
  6
CONTINUOUS
 62
     1
 10
1508.690508076
 20
745.792904188
 11
1481.830211838
 21
792.316301977
  0
ARC
  8
0
  6
CONTINUOUS
 62
     1
 10
1491.37
 20
735.792904188
 40
20.0
 50
300.0
 51
30.0
  0
ARC
  8
0
  6
CONTINUOUS
 62
     1
 10
1491.37
 20
735.792904188
 40
20.0
 50
210.0
 51
300.0
  0
LINE
  8
0
  6
CONTINUOUS
 62
     1
 10
1414.199949889
 20
711.24
 11
1396.12
 21
711.24
  0
LINE
  8
0
  6
CONTINUOUS
 62
     1
 10
1527.12
 20
673.600720927
 11
1527.12
 21
739.584623274
  0
ARC
  8
0
  6
CONTINUOUS
 62
     1
 10
1450.12
 20
807.24
 40
102.5
 50
288.879093256
 51
250.947092926
  0
ARC
  8
0
  6
CONTINUOUS
 62
     1
 10
1396.12
 20
706.24
 40
5.0
 50
90.0
 51
135.0
  0
LINE
  8
0
  6
CONTINUOUS
 62
     1
 10
1373.12
 20
715.24
 11
1373.12
 21
740.016980495
  0
LINE
  8
0
  6
LTYPE6
 62
     2
 10
1330.62
 20
807.24
 11
1558.0
 21
807.24
  0
CIRCLE
  8
0
  6
CONTINUOUS
 62
     1
 10
1450.12
 20
807.24
 40
19.0
  0
LINE
  8
0
  6
CONTINUOUS
 62
     1
 10
1367.62
 20
787.24
 11
1438.572994616
 21
787.24
  0
ARC
  8
0
  6
CONTINUOUS
 62
     1
 10
1450.12
 20
807.24
 40
20.0
 50
80.405931773
 51
279.594068227
  0
CIRCLE
  8
0
  6
CONTINUOUS
 62
     1
 10
1437.02
 20
807.24
 40
4.0
  0
CIRCLE
  8
0
  6
CONTINUOUS
 62
     1
 10
1450.12
 20
794.14
 40
4.0
  0
CIRCLE
  8
0
  6
CONTINUOUS
 62
     1
 10
1450.12
 20
807.24
 40
4.0
  0
ARC
  8
0
  6
CONTINUOUS
 62
     1
 10
1367.62
 20
807.24
 40
20.0
 50
180.0
 51
270.0
  0
LINE
  8
0
  6
CONTINUOUS
 62
     1
 10
1474.049491924
 20
888.687095812
 11
1438.572994616
 21
827.24
  0
LINE
  8
0
  6
CONTINUOUS
 62
     1
 10
1367.62
 20
827.24
 11
1438.572994616
 21
827.24
  0
ARC
  8
0
  6
CONTINUOUS
 62
     1
 10
1367.62
 20
807.24
 40
20.0
 50
90.0
 51
180.0
  0
CIRCLE
  8
0
  6
CONTINUOUS
 62
     1
 10
1450.12
 20
820.34
 40
4.0
  0
LINE
  8
0
  6
CONTINUOUS
 62
     1
 10
1453.453333333
 20
826.960265944
 11
1511.786666667
 21
817.100132972
  0
LINE
  8
0
  6
LTYPE2
 62
     2
 10
1510.12
 20
792.24
 11
1510.12
 21
827.24
  0
ARC
  8
0
  6
CONTINUOUS
 62
     1
 10
1510.12
 20
807.24
 40
10.0
 50
279.594068227
 51
80.405931773
  0
CIRCLE
  8
0
  6
CONTINUOUS
 62
     1
 10
1510.12
 20
807.24
 40
9.0
  0
LINE
  8
0
  6
CONTINUOUS
 62
     1
 10
1508.690508076
 20
868.687095812
 11
1481.830211838
 21
822.163698023
  0
CIRCLE
  8
0
  6
CONTINUOUS
 62
     1
 10
1463.22
 20
807.24
 40
4.0
  0
LINE
  8
0
  6
CONTINUOUS
 62
     1
 10
1453.453333333
 20
787.519734056
 11
1511.786666667
 21
797.379867028
  0
LINE
  8
0
  6
CONTINUOUS
 62
     1
 10
1480.480126607
 20
911.246486662
 11
1480.480126607
 21
905.746486662
  0
ARC
  8
0
  6
CONTINUOUS
 62
     1
 10
1491.37
 20
878.687095812
 40
20.0
 50
330.0
 51
60.0
  0
ARC
  8
0
  6
CONTINUOUS
 62
     1
 10
1491.37
 20
878.687095812
 40
20.0
 50
60.0
 51
150.0
  0
LINE
  8
0
  6
CONTINUOUS
 62
     1
 10
1419.759873393
 20
911.246486662
 11
1419.759873393
 21
905.746486662
  0
TEXT
  8
2
  6
CONTINUOUS
 62
     2
 10
1200.048145063
 20
830.466926248
 30
0.0
 40
18.0
  1
２－ＰＦ１／２
 50
0.0
 41
0.9
 51
0.0
  7
KANJI60
  0
LINE
  8
2
  6
CONTINUOUS
 62
     2
 10
1309.069982657
 20
826.466926248
 11
1201.069982657
 21
826.466926248
  0
LINE
  8
0
  6
CONTINUOUS
 62
     2
 10
1586.62
 20
662.24
 11
1589.855238064
 21
674.314072829
  0
LINE
  8
0
  6
CONTINUOUS
 62
     2
 10
1586.62
 20
662.24
 11
1583.384761936
 21
674.314072829
  0
LINE
  8
0
  6
CONTINUOUS
 62
     2
 10
1586.62
 20
642.24
 11
1583.384761936
 21
630.165927171
  0
LINE
  8
0
  6
CONTINUOUS
 62
     2
 10
1586.62
 20
642.24
 11
1589.855238064
 21
630.165927171
  0
LINE
  8
0
  6
CONTINUOUS
 62
     2
 10
1569.12
 20
652.24
 11
1631.492218677
 21
652.24
  0
LINE
  8
0
  6
CONTINUOUS
 62
     2
 10
1623.992218677
 20
652.24
 11
1620.756980613
 21
640.165927171
  0
LINE
  8
0
  6
CONTINUOUS
 62
     2
 10
1623.992218677
 20
652.24
 11
1627.22745674
 21
640.165927171
  0
LINE
  8
0
  6
CONTINUOUS
 62
     2
 10
1623.992218677
 20
652.24
 11
1623.992218677
 21
541.24
  0
LINE
  8
0
  6
CONTINUOUS
 62
     2
 10
1623.992218677
 20
541.24
 11
1627.22745674
 21
553.314072829
  0
LINE
  8
0
  6
CONTINUOUS
 62
     2
 10
1623.992218677
 20
541.24
 11
1620.756980613
 21
553.314072829
  0
LINE
  8
0
  6
CONTINUOUS
 62
     2
 10
1623.992218677
 20
652.24
 11
1627.22745674
 21
664.314072829
  0
LINE
  8
0
  6
CONTINUOUS
 62
     2
 10
1623.992218677
 20
652.24
 11
1620.756980613
 21
664.314072829
  0
TEXT
  8
0
  6
CONTINUOUS
 62
     2
 10
1618.992218677
 20
574.99
 30
0.0
 40
18.0
  1
１１１
 50
90.0
 41
0.9
 51
0.0
  7
KANJI60
  0
LINE
  8
0
  6
CONTINUOUS
 62
     2
 10
1586.62
 20
799.314072829
 11
1586.62
 21
622.49
  0
TEXT
  8
0
  6
CONTINUOUS
 62
     2
 10
1581.342218677
 20
666.99
 30
0.0
 40
18.0
  1
φ２０Ｈ１０深さ２５
 50
90.0
 41
0.9
 51
0.0
  7
KANJI60
  0
LINE
  8
0
  6
CONTINUOUS
 62
     2
 10
1623.992218677
 20
652.24
 11
1623.992218677
 21
807.24
  0
TEXT
  8
0
  6
CONTINUOUS
 62
     2
 10
1618.992218677
 20
708.49
 30
0.0
 40
18.0
  1
１５５
 50
90.0
 41
0.9
 51
0.0
  7
KANJI60
  0
LINE
  8
0
  6
CONTINUOUS
 62
     2
 10
1612.120015259
 20
541.24
 11
1683.120015259
 21
541.24
  0
LINE
  8
0
  6
CONTINUOUS
 62
     2
 10
1677.120015259
 20
541.24
 11
1681.002300935
 21
555.728887394
  0
LINE
  8
0
  6
CONTINUOUS
 62
     2
 10
1677.120015259
 20
541.24
 11
1673.237729582
 21
555.728887394
  0
LINE
  8
0
  6
CONTINUOUS
 62
     2
 10
1677.120015259
 20
541.24
 11
1677.120015259
 21
995.24
  0
TEXT
  8
0
  6
CONTINUOUS
 62
     3
 10
1674.120015259
 20
743.94
 30
0.0
 40
18.0
  1
４５４
 50
90.0
 41
0.9
 51
0.0
  7
KANJI60
  0
LINE
  8
0
  6
CONTINUOUS
 62
     2
 10
1623.992218677
 20
807.24
 11
1620.756980613
 21
795.165927171
  0
LINE
  8
0
  6
CONTINUOUS
 62
     2
 10
1623.992218677
 20
807.24
 11
1627.22745674
 21
795.165927171
  0
LINE
  8
0
  6
CONTINUOUS
 62
     2
 10
1588.12
 20
807.24
 11
1631.492218677
 21
807.24
  0
CIRCLE
  8
0
  6
CONTINUOUS
 62
     1
 10
1450.12
 20
945.74
 40
25.0
  0
ARC
  8
0
  6
CONTINUOUS
 62
     1
 10
1480.12
 20
921.24
 40
10.0
 50
270.0
 51
0.0
  0
LINE
  8
0
  6
CONTINUOUS
 62
     1
 10
1450.12
 20
911.24
 11
1490.12
 21
911.24
  0
LINE
  8
0
  6
CONTINUOUS
 62
     1
 10
1490.12
 20
921.24
 11
1490.12
 21
980.24
  0
LINE
  8
0
  6
CONTINUOUS
 62
     1
 10
1500.12
 20
921.24
 11
1500.12
 21
985.24
  0
ARC
  8
0
  6
CONTINUOUS
 62
     1
 10
1490.12
 20
921.24
 40
10.0
 50
270.0
 51
0.0
  0
CIRCLE
  8
0
  6
CONTINUOUS
 62
     1
 10
1450.12
 20
945.74
 40
12.055
  0
CIRCLE
  8
0
  6
CONTINUOUS
 62
     1
 10
1450.12
 20
945.74
 40
20.0
  0
CIRCLE
  8
0
  6
CONTINUOUS
 62
     2
 10
1450.12
 20
945.74
 40
13.221
  0
LINE
  8
0
  6
LTYPE2
 62
     2
 10
1413.62
 20
945.74
 11
1485.62
 21
945.74
  0
LINE
  8
0
  6
CONTINUOUS
 62
     1
 10
1450.12
 20
990.24
 11
1420.12
 21
990.24
  0
LINE
  8
0
  6
CONTINUOUS
 62
     1
 10
1410.12
 20
921.24
 11
1410.12
 21
980.24
  0
ARC
  8
0
  6
CONTINUOUS
 62
     1
 10
1420.12
 20
980.24
 40
10.0
 50
90.0
 51
180.0
  0
LINE
  8
0
  6
CONTINUOUS
 62
     1
 10
1450.12
 20
995.24
 11
1410.12
 21
995.24
  0
ARC
  8
0
  6
CONTINUOUS
 62
     1
 10
1410.12
 20
985.24
 40
10.0
 50
90.0
 51
180.0
  0
LINE
  8
0
  6
CONTINUOUS
 62
     1
 10
1400.12
 20
921.24
 11
1400.12
 21
985.24
  0
ARC
  8
0
  6
CONTINUOUS
 62
     1
 10
1420.12
 20
921.24
 40
10.0
 50
180.0
 51
270.0
  0
LINE
  8
0
  6
CONTINUOUS
 62
     1
 10
1450.12
 20
911.24
 11
1410.12
 21
911.24
  0
ARC
  8
0
  6
CONTINUOUS
 62
     1
 10
1410.12
 20
921.24
 40
10.0
 50
180.0
 51
270.0
  0
LINE
  8
0
  6
CONTINUOUS
 62
     1
 10
1450.12
 20
990.24
 11
1480.12
 21
990.24
  0
ARC
  8
0
  6
CONTINUOUS
 62
     1
 10
1480.12
 20
980.24
 40
10.0
 50
0.0
 51
90.0
  0
LINE
  8
0
  6
CONTINUOUS
 62
     1
 10
1450.12
 20
995.24
 11
1490.12
 21
995.24
  0
ARC
  8
0
  6
CONTINUOUS
 62
     1
 10
1490.12
 20
985.24
 40
10.0
 50
0.0
 51
90.0
  0
LINE
  8
0
  6
CONTINUOUS
 62
     2
 10
1616.992218677
 20
807.24
 11
1629.992218677
 21
807.24
  0
LINE
  8
0
  6
CONTINUOUS
 62
     2
 10
1623.992218677
 20
807.24
 11
1627.874504353
 21
821.728887394
  0
LINE
  8
0
  6
CONTINUOUS
 62
     2
 10
1623.992218677
 20
807.24
 11
1620.109933
 21
821.728887394
  0
LINE
  8
0
  6
CONTINUOUS
 62
     2
 10
1623.992218677
 20
807.24
 11
1623.992218677
 21
995.24
  0
LINE
  8
0
  6
CONTINUOUS
 62
     2
 10
1623.992218677
 20
995.24
 11
1620.109933
 21
980.751112606
  0
LINE
  8
0
  6
CONTINUOUS
 62
     2
 10
1623.992218677
 20
995.24
 11
1627.874504353
 21
980.751112606
  0
LINE
  8
0
  6
CONTINUOUS
 62
     2
 10
1496.120015259
 20
995.24
 11
1629.992218677
 21
995.24
  0
TEXT
  8
0
  6
CONTINUOUS
 62
     3
 10
1620.992218677
 20
876.94
 30
0.0
 40
18.0
  1
１８８
 50
90.0
 41
0.9
 51
0.0
  7
KANJI60
  0
LINE
  8
0
  6
CONTINUOUS
 62
     2
 10
1677.120015259
 20
995.24
 11
1673.237729582
 21
980.751112606
  0
LINE
  8
0
  6
CONTINUOUS
 62
     2
 10
1677.120015259
 20
995.24
 11
1681.002300935
 21
980.751112606
  0
LINE
  8
0
  6
CONTINUOUS
 62
     2
 10
1607.12
 20
995.24
 11
1683.120015259
 21
995.24
  0
ARC
  8
0
  6
CONTINUOUS
 62
     1
 10
724.302501379
 20
284.84
 40
10.0
 50
90.0
 51
180.0
  0
LINE
  8
0
  6
CONTINUOUS
 62
     1
 10
724.302501379
 20
294.84
 11
834.302501379
 21
294.84
  0
LINE
  8
0
  6
LTYPE3
 62
     2
 10
762.902501379
 20
289.34
 11
762.902501379
 21
280.36
  0
LINE
  8
0
  6
CONTINUOUS
 62
     1
 10
824.602501379
 20
290.34
 11
759.902501379
 21
290.34
  0
LINE
  8
0
  6
CONTINUOUS
 62
     1
 10
757.902501379
 20
288.34
 11
757.902501379
 21
252.34
  0
ARC
  8
0
  6
CONTINUOUS
 62
     1
 10
759.902501379
 20
288.34
 40
2.0
 50
90.0
 51
180.0
  0
LINE
  8
0
  6
CONTINUOUS
 62
     2
 10
718.302501379
 20
294.84
 11
657.12
 21
294.84
  0
LINE
  8
0
  6
CONTINUOUS
 62
     2
 10
663.12
 20
294.84
 11
660.014171459
 21
283.248890085
  0
LINE
  8
0
  6
CONTINUOUS
 62
     2
 10
663.12
 20
294.84
 11
666.225828541
 21
283.248890085
  0
LINE
  8
0
  6
CONTINUOUS
 62
     2
 10
663.12
 20
294.84
 11
663.12
 21
129.84
  0
ARC
  8
0
  6
CONTINUOUS
 62
     1
 10
834.302501379
 20
284.84
 40
10.0
 50
0.0
 51
90.0
  0
LINE
  8
0
  6
LTYPE3
 62
     2
 10
821.602501379
 20
289.34
 11
821.602501379
 21
281.46
  0
ARC
  8
0
  6
CONTINUOUS
 62
     1
 10
824.602501379
 20
288.34
 40
2.0
 50
0.0
 51
90.0
  0
LINE
  8
0
  6
CONTINUOUS
 62
     1
 10
826.602501379
 20
288.34
 11
826.602501379
 21
252.34
  0
LINE
  8
0
  6
LTYPE2
 62
     2
 10
779.302501379
 20
180.74
 11
779.302501379
 21
519.24
  0
LINE
  8
0
  6
CONTINUOUS
 62
     1
 10
763.302501379
 20
228.34
 11
795.302501379
 21
228.34
  0
LINE
  8
0
  6
CONTINUOUS
 62
     1
 10
763.302501379
 20
196.34
 11
763.302501379
 21
228.34
  0
LINE
  8
0
  6
LTYPE3
 62
     2
 10
845.563522596
 20
270.34
 11
754.302501379
 21
270.34
  0
LINE
  8
7
  6
CONTINUOUS
 62
     2
 10
757.902501379
 20
270.34
 11
749.59402349
 21
264.775002681
  0
LINE
  8
7
  6
CONTINUOUS
 62
     2
 10
757.902501379
 20
270.34
 11
753.48964712
 21
261.366332005
  0
LINE
  8
7
  6
CONTINUOUS
 62
     2
 10
757.902501379
 20
270.34
 11
746.702501379
 21
257.54
  0
LINE
  8
7
  6
CONTINUOUS
 62
     2
 10
746.702501379
 20
257.54
 11
687.902501379
 21
257.54
  0
TEXT
  8
7
  6
CONTINUOUS
 62
     2
 10
687.902501379
 20
261.54
 30
1.2
 40
12.0
  1
ＰＦ１／２
 50
0.0
 41
0.9
 51
0.0
  7
KANJI68
  0
LINE
  8
0
  6
CONTINUOUS
 62
     1
 10
714.302501379
 20
274.54
 11
714.302501379
 21
284.84
  0
LINE
  8
0
  6
CONTINUOUS
 62
     1
 10
714.302501379
 20
220.34
 11
714.302501379
 21
254.54
  0
LINE
  8
0
  6
LTYPE3
 62
     2
 10
769.342501379
 20
285.44
 11
757.902501379
 21
285.44
  0
LINE
  8
0
  6
LTYPE3
 62
     2
 10
768.802501379
 20
255.24
 11
757.902501379
 21
255.24
  0
LINE
  8
0
  6
LTYPE3
 62
     2
 10
762.902501379
 20
261.26
 11
762.902501379
 21
251.34
  0
LINE
  8
0
  6
CONTINUOUS
 62
     1
 10
824.602501379
 20
250.34
 11
759.902501379
 21
250.34
  0
ARC
  8
0
  6
CONTINUOUS
 62
     1
 10
759.902501379
 20
252.34
 40
2.0
 50
180.0
 51
270.0
  0
TEXT
  8
0
  6
CONTINUOUS
 62
     3
 10
660.12
 20
188.04
 30
0.0
 40
18.0
  1
１６５
 50
90.0
 41
0.9
 51
0.0
  7
KANJI60
  0
LINE
  8
0
  6
CONTINUOUS
 62
     1
 10
795.302501379
 20
196.34
 11
763.302501379
 21
196.34
  0
LINE
  8
0
  6
LTYPE3
 62
     2
 10
737.002501379
 20
135.34
 11
737.002501379
 21
143.22
  0
LINE
  8
0
  6
LTYPE3
 62
     2
 10
732.002501379
 20
169.44
 11
741.802501379
 21
169.44
  0
LINE
  8
0
  6
LTYPE3
 62
     2
 10
737.002501379
 20
163.32
 11
737.002501379
 21
173.34
  0
LINE
  8
0
  6
LTYPE3
 62
     2
 10
733.302501379
 20
192.34
 11
710.302501379
 21
192.34
  0
ARC
  8
0
  6
CONTINUOUS
 62
     1
 10
708.602501379
 20
143.64
 40
2.0
 50
180.0
 51
270.0
  0
LINE
  8
0
  6
CONTINUOUS
 62
     1
 10
706.602501379
 20
143.64
 11
706.602501379
 21
165.04
  0
ARC
  8
0
  6
CONTINUOUS
 62
     1
 10
708.602501379
 20
165.04
 40
2.0
 50
90.0
 51
180.0
  0
LINE
  8
0
  6
CONTINUOUS
 62
     1
 10
732.002501379
 20
136.34
 11
732.002501379
 21
172.34
  0
ARC
  8
0
  6
CONTINUOUS
 62
     1
 10
734.002501379
 20
172.34
 40
2.0
 50
90.0
 51
180.0
  0
LINE
  8
0
  6
CONTINUOUS
 62
     1
 10
734.002501379
 20
174.34
 11
798.702501379
 21
174.34
  0
LINE
  8
0
  6
CONTINUOUS
 62
     1
 10
716.310817392
 20
154.655789474
 11
718.308045388
 21
192.550526316
  0
LINE
  8
0
  6
CONTINUOUS
 62
     1
 10
728.294185367
 20
154.655789474
 11
726.296957371
 21
192.550526316
  0
ARC
  8
0
  6
CONTINUOUS
 62
     1
 10
722.302501379
 20
192.34
 40
4.0
 50
356.983042101
 51
183.016952287
  0
ARC
  8
0
  6
CONTINUOUS
 62
     1
 10
722.302501379
 20
192.34
 40
8.75
 50
300.219855722
 51
239.780144278
  0
ARC
  8
0
  6
CONTINUOUS
 62
     1
 10
722.302501379
 20
154.34
 40
6.0
 50
176.983045121
 51
3.016954879
  0
LINE
  8
0
  6
CONTINUOUS
 62
     1
 10
727.641480162
 20
167.04
 11
732.002501379
 21
167.04
  0
LINE
  8
0
  6
CONTINUOUS
 62
     1
 10
708.602501379
 20
167.04
 11
716.963522596
 21
167.04
  0
LINE
  8
0
  6
LTYPE3
 62
     2
 10
722.302501379
 20
145.24
 11
722.302501379
 21
202.74
  0
LINE
  8
0
  6
LTYPE3
 62
     2
 10
713.041480162
 20
154.34
 11
804.302501379
 21
154.34
  0
LINE
  8
0
  6
CONTINUOUS
 62
     1
 10
714.302501379
 20
188.79563828
 11
714.302501379
 21
166.99
  0
LINE
  8
0
  6
CONTINUOUS
 62
     1
 10
714.302501379
 20
204.34
 11
714.302501379
 21
195.88436172
  0
LINE
  8
0
  6
CONTINUOUS
 62
     1
 10
697.923444363
 20
204.34
 11
763.302501379
 21
204.34
  0
LINE
  8
0
  6
CONTINUOUS
 62
     1
 10
763.302501379
 20
220.34
 11
697.993079342
 21
220.34
  0
ARC
  8
0
  6
CONTINUOUS
 62
     1
 10
703.547969957
 20
216.34
 40
6.845203412
 50
144.242860688
 51
215.757139312
  0
ARC
  8
0
  6
CONTINUOUS
 62
     1
 10
692.438188727
 20
216.34
 40
6.845203412
 50
324.242860688
 51
35.757139312
  0
ARC
  8
0
  6
CONTINUOUS
 62
     1
 10
692.438188727
 20
208.34
 40
6.845203412
 50
324.242860688
 51
35.757139312
  0
LINE
  8
0
  6
LTYPE2
 62
     2
 10
927.802501379
 20
212.34
 11
692.958261852
 21
212.34
  0
LINE
  8
0
  6
CONTINUOUS
 62
     1
 10
844.302501379
 20
283.04
 11
844.302501379
 21
284.84
  0
LINE
  8
0
  6
LTYPE3
 62
     2
 10
789.802501379
 20
169.44
 11
800.702501379
 21
169.44
  0
LINE
  8
0
  6
LTYPE3
 62
     2
 10
795.702501379
 20
163.42
 11
795.702501379
 21
173.34
  0
LINE
  8
0
  6
LTYPE3
 62
     2
 10
795.702501379
 20
135.34
 11
795.702501379
 21
144.32
  0
ARC
  8
0
  6
CONTINUOUS
 62
     1
 10
798.702501379
 20
172.34
 40
2.0
 50
0.0
 51
90.0
  0
LINE
  8
0
  6
CONTINUOUS
 62
     1
 10
800.702501379
 20
136.34
 11
800.702501379
 21
172.34
  0
LINE
  8
0
  6
CONTINUOUS
 62
     1
 10
795.302501379
 20
196.34
 11
795.302501379
 21
228.34
  0
LINE
  8
0
  6
CONTINUOUS
 62
     1
 10
844.302501379
 20
235.88436172
 11
844.302501379
 21
257.69
  0
LINE
  8
0
  6
CONTINUOUS
 62
     1
 10
844.302501379
 20
220.34
 11
844.302501379
 21
228.79563828
  0
LINE
  8
0
  6
LTYPE2
 62
     2
 10
875.802501379
 20
202.34
 11
875.802501379
 21
222.34
  0
CIRCLE
  8
0
  6
CONTINUOUS
 62
     2
 10
875.802501379
 20
212.34
 40
5.0
  0
CIRCLE
  8
0
  6
CONTINUOUS
 62
     2
 10
875.802501379
 20
212.34
 40
4.0
  0
LINE
  8
7
  6
CONTINUOUS
 62
     2
 10
800.702501379
 20
154.34
 11
809.069808964
 21
159.816144975
  0
LINE
  8
7
  6
CONTINUOUS
 62
     2
 10
800.702501379
 20
154.34
 11
805.210729822
 21
163.266134455
  0
LINE
  8
7
  6
CONTINUOUS
 62
     2
 10
800.702501379
 20
154.34
 11
813.352501379
 21
168.49
  0
LINE
  8
7
  6
CONTINUOUS
 62
     2
 10
813.352501379
 20
168.49
 11
872.152501379
 21
168.49
  0
TEXT
  8
7
  6
CONTINUOUS
 62
     2
 10
813.352501379
 20
172.49
 30
1.2
 40
12.0
  1
ＰＦ１／２
 50
0.0
 41
0.9
 51
0.0
  7
KANJI68
  0
LINE
  8
0
  6
CONTINUOUS
 62
     1
 10
844.302501379
 20
165.54
 11
844.302501379
 21
139.84
  0
LINE
  8
0
  6
LTYPE3
 62
     2
 10
826.602501379
 20
285.44
 11
816.642501379
 21
285.44
  0
LINE
  8
0
  6
CONTINUOUS
 62
     1
 10
850.002501379
 20
283.04
 11
826.602501379
 21
283.04
  0
LINE
  8
0
  6
LTYPE3
 62
     2
 10
826.602501379
 20
255.24
 11
816.802501379
 21
255.24
  0
LINE
  8
0
  6
LTYPE3
 62
     2
 10
821.602501379
 20
261.36
 11
821.602501379
 21
251.34
  0
ARC
  8
0
  6
CONTINUOUS
 62
     1
 10
824.602501379
 20
252.34
 40
2.0
 50
270.0
 51
0.0
  0
LINE
  8
0
  6
CONTINUOUS
 62
     1
 10
830.963522596
 20
257.64
 11
826.602501379
 21
257.64
  0
ARC
  8
0
  6
CONTINUOUS
 62
     1
 10
850.002501379
 20
281.04
 40
2.0
 50
0.0
 51
90.0
  0
LINE
  8
0
  6
CONTINUOUS
 62
     1
 10
852.002501379
 20
281.04
 11
852.002501379
 21
259.64
  0
ARC
  8
0
  6
CONTINUOUS
 62
     1
 10
836.302501379
 20
270.34
 40
6.0
 50
356.983045121
 51
183.016954879
  0
LINE
  8
0
  6
LTYPE3
 62
     2
 10
836.302501379
 20
279.44
 11
836.302501379
 21
221.94
  0
LINE
  8
0
  6
CONTINUOUS
 62
     1
 10
842.294185367
 20
270.024210526
 11
840.296957371
 21
232.129473684
  0
LINE
  8
0
  6
CONTINUOUS
 62
     1
 10
830.310817392
 20
270.024210526
 11
832.308045388
 21
232.129473684
  0
ARC
  8
0
  6
CONTINUOUS
 62
     1
 10
850.002501379
 20
259.64
 40
2.0
 50
270.0
 51
0.0
  0
LINE
  8
0
  6
CONTINUOUS
 62
     1
 10
850.002501379
 20
257.64
 11
841.641480162
 21
257.64
  0
LINE
  8
0
  6
LTYPE3
 62
     2
 10
825.302501379
 20
232.34
 11
848.302501379
 21
232.34
  0
ARC
  8
0
  6
CONTINUOUS
 62
     1
 10
836.302501379
 20
232.34
 40
8.75
 50
120.219855722
 51
59.780144278
  0
ARC
  8
0
  6
CONTINUOUS
 62
     1
 10
836.302501379
 20
232.34
 40
4.0
 50
176.983042101
 51
3.016952287
  0
LINE
  8
0
  6
LTYPE3
 62
     2
 10
732.002501379
 20
139.24
 11
741.962501379
 21
139.24
  0
ARC
  8
0
  6
CONTINUOUS
 62
     1
 10
734.002501379
 20
136.34
 40
2.0
 50
180.0
 51
270.0
  0
LINE
  8
0
  6
CONTINUOUS
 62
     1
 10
708.602501379
 20
141.64
 11
732.002501379
 21
141.64
  0
LINE
  8
0
  6
CONTINUOUS
 62
     1
 10
734.002501379
 20
134.34
 11
798.702501379
 21
134.34
  0
LINE
  8
0
  6
CONTINUOUS
 62
     1
 10
714.302501379
 20
141.64
 11
714.302501379
 21
139.84
  0
LINE
  8
0
  6
CONTINUOUS
 62
     1
 10
834.302501379
 20
129.84
 11
724.302501379
 21
129.84
  0
ARC
  8
0
  6
CONTINUOUS
 62
     1
 10
724.302501379
 20
139.84
 40
10.0
 50
180.0
 51
270.0
  0
LINE
  8
0
  6
LTYPE3
 62
     2
 10
789.262501379
 20
139.24
 11
800.702501379
 21
139.24
  0
ARC
  8
0
  6
CONTINUOUS
 62
     1
 10
798.702501379
 20
136.34
 40
2.0
 50
270.0
 51
0.0
  0
ARC
  8
0
  6
CONTINUOUS
 62
     1
 10
834.302501379
 20
139.84
 40
10.0
 50
270.0
 51
0.0
  0
LINE
  8
0
  6
CONTINUOUS
 62
     2
 10
663.12
 20
129.84
 11
666.225828541
 21
141.431109915
  0
LINE
  8
0
  6
CONTINUOUS
 62
     2
 10
663.12
 20
129.84
 11
660.014171459
 21
141.431109915
  0
LINE
  8
0
  6
CONTINUOUS
 62
     2
 10
718.302512169
 20
129.84
 11
657.12
 21
129.84
  0
LINE
  8
0
  6
CONTINUOUS
 62
     2
 10
714.302501379
 20
135.64
 11
714.302501379
 21
90.84
  0
LINE
  8
0
  6
CONTINUOUS
 62
     2
 10
714.302501379
 20
96.84
 11
725.893611295
 21
93.734171459
  0
LINE
  8
0
  6
CONTINUOUS
 62
     2
 10
714.302501379
 20
96.84
 11
725.893611295
 21
99.945828541
  0
LINE
  8
0
  6
CONTINUOUS
 62
     2
 10
714.302501379
 20
96.84
 11
844.302501379
 21
96.84
  0
LINE
  8
0
  6
CONTINUOUS
 62
     2
 10
844.302501379
 20
96.84
 11
832.711391464
 21
99.945828541
  0
LINE
  8
0
  6
CONTINUOUS
 62
     2
 10
844.302501379
 20
96.84
 11
832.711391464
 21
93.734171459
  0
LINE
  8
0
  6
CONTINUOUS
 62
     2
 10
844.302501379
 20
133.840010093
 11
844.302501379
 21
90.84
  0
TEXT
  8
0
  6
CONTINUOUS
 62
     3
 10
755.002501379
 20
99.84
 30
0.0
 40
18.0
  1
１３０
 50
0.0
 41
0.9
 51
0.0
  7
KANJI60
  0
LINE
  8
0
  6
CONTINUOUS
 62
     1
 10
854.952501379
 20
223.34
 11
863.612755417
 21
228.34
  0
LINE
  8
0
  6
CONTINUOUS
 62
     1
 10
863.602501379
 20
196.34
 11
863.602501379
 21
228.34
  0
LINE
  8
0
  6
CONTINUOUS
 62
     1
 10
854.952501379
 20
201.34
 11
854.952501379
 21
223.34
  0
LINE
  8
0
  6
CONTINUOUS
 62
     1
 10
863.602501379
 20
228.34
 11
888.302501379
 21
228.34
  0
LINE
  8
0
  6
CONTINUOUS
 62
     1
 10
896.952501379
 20
223.34
 11
888.292247342
 21
228.34
  0
LINE
  8
0
  6
CONTINUOUS
 62
     1
 10
888.302501379
 20
196.34
 11
888.302501379
 21
228.34
  0
LINE
  8
0
  6
CONTINUOUS
 62
     1
 10
896.952501379
 20
201.34
 11
888.292247342
 21
196.34
  0
LINE
  8
0
  6
CONTINUOUS
 62
     1
 10
863.602501379
 20
196.34
 11
888.302501379
 21
196.34
  0
LINE
  8
0
  6
CONTINUOUS
 62
     1
 10
854.952501379
 20
201.34
 11
863.612755417
 21
196.34
  0
LINE
  8
0
  6
CONTINUOUS
 62
     1
 10
854.952501379
 20
204.34
 11
795.302501379
 21
204.34
  0
LINE
  8
0
  6
CONTINUOUS
 62
     1
 10
795.302501379
 20
220.34
 11
854.952501379
 21
220.34
  0
LINE
  8
0
  6
CONTINUOUS
 62
     1
 10
844.302501379
 20
204.34
 11
844.302501379
 21
186.54
  0
LINE
  8
0
  6
CONTINUOUS
 62
     1
 10
989.602501379
 20
277.84
 11
989.602501379
 21
213.14
  0
LINE
  8
0
  6
CONTINUOUS
 62
     1
 10
991.602501379
 20
211.14
 11
1027.602501379
 21
211.14
  0
ARC
  8
0
  6
CONTINUOUS
 62
     1
 10
991.602501379
 20
213.14
 40
2.0
 50
180.0
 51
270.0
  0
ARC
  8
0
  6
CONTINUOUS
 62
     1
 10
991.602501379
 20
277.84
 40
2.0
 50
90.0
 51
180.0
  0
LINE
  8
0
  6
CONTINUOUS
 62
     1
 10
996.902501379
 20
303.24
 11
996.902501379
 21
279.84
  0
LINE
  8
0
  6
CONTINUOUS
 62
     1
 10
991.602501379
 20
279.84
 11
1027.602501379
 21
279.84
  0
ARC
  8
0
  6
CONTINUOUS
 62
     1
 10
998.902501379
 20
303.24
 40
2.0
 50
90.0
 51
180.0
  0
ARC
  8
0
  6
CONTINUOUS
 62
     1
 10
1009.602501379
 20
289.54
 40
6.0
 50
131.983045121
 51
318.016954879
  0
LINE
  8
0
  6
LTYPE3
 62
     2
 10
1003.167829671
 20
283.105328291
 11
1043.826469589
 21
323.763968209
  0
LINE
  8
0
  6
CONTINUOUS
 62
     1
 10
1005.589037879
 20
294.000057257
 11
1033.796916731
 21
319.38342919
  0
LINE
  8
0
  6
CONTINUOUS
 62
     1
 10
1014.062558636
 20
285.5265365
 11
1039.445930569
 21
313.734415352
  0
LINE
  8
0
  6
CONTINUOUS
 62
     1
 10
998.902501379
 20
305.24
 11
1018.079692944
 21
305.24
  0
LINE
  8
0
  6
LTYPE2
 62
     2
 10
994.727501379
 20
256.34
 11
1024.727501379
 21
256.34
  0
LINE
  8
0
  6
LTYPE2
 62
     2
 10
1024.727501379
 20
265.84
 11
994.727501379
 21
265.84
  0
LINE
  8
0
  6
LTYPE2
 62
     2
 10
994.727501379
 20
265.84
 11
994.727501379
 21
256.34
  0
LINE
  8
0
  6
CONTINUOUS
 62
     1
 10
994.727501379
 20
226.34
 11
1024.727501379
 21
226.34
  0
LINE
  8
0
  6
CONTINUOUS
 62
     1
 10
1024.727501379
 20
235.84
 11
994.727501379
 21
235.84
  0
LINE
  8
0
  6
CONTINUOUS
 62
     1
 10
994.727501379
 20
235.84
 11
994.727501379
 21
226.34
  0
TEXT
  8
0
  6
CONTINUOUS
 62
     2
 10
993.502501379
 20
269.14
 30
0.0
 40
10.0
  1
４
 50
0.0
 41
0.85
 51
0.0
  7
KANJI69
  0
POLYLINE
  8
0
  6
CONTINUOUS
 62
     2
 66
     1
 70
     1
  0
VERTEX
  8
0
  6
CONTINUOUS
 62
     2
 10
1004.502501379
 20
268.39
 42
0.021820078
  0
VERTEX
  8
0
  6
CONTINUOUS
 62
     2
 10
1004.49393945
 20
268.586100421
 42
0.021820078
  0
VERTEX
  8
0
  6
CONTINUOUS
 62
     2
 10
1004.468318824
 20
268.7807084
 42
0.021820078
  0
VERTEX
  8
0
  6
CONTINUOUS
 62
     2
 10
1004.425834489
 20
268.972342851
 42
0.021820078
  0
VERTEX
  8
0
  6
CONTINUOUS
 62
     2
 10
1004.366809776
 20
269.159545322
 42
0.021820078
  0
VERTEX
  8
0
  6
CONTINUOUS
 62
     2
 10
1004.2916939
 20
269.340891089
 42
0.021820078
  0
VERTEX
  8
0
  6
CONTINUOUS
 62
     2
 10
1004.201058538
 20
269.515
 42
0.021820078
  0
VERTEX
  8
0
  6
CONTINUOUS
 62
     2
 10
1004.095593479
 20
269.680546982
 42
0.021820078
  0
VERTEX
  8
0
  6
CONTINUOUS
 62
     2
 10
1003.976101376
 20
269.836272122
 42
0.021820078
  0
VERTEX
  8
0
  6
CONTINUOUS
 62
     2
 10
1003.843491637
 20
269.980990258
 42
0.021820078
  0
VERTEX
  8
0
  6
CONTINUOUS
 62
     2
 10
1003.698773501
 20
270.113599997
 42
0.021820078
  0
VERTEX
  8
0
  6
CONTINUOUS
 62
     2
 10
1003.543048361
 20
270.2330921
 42
0.021820078
  0
VERTEX
  8
0
  6
CONTINUOUS
 62
     2
 10
1003.377501379
 20
270.338557159
 42
0.021820078
  0
VERTEX
  8
0
  6
CONTINUOUS
 62
     2
 10
1003.203392468
 20
270.429192521
 42
0.021820078
  0
VERTEX
  8
0
  6
CONTINUOUS
 62
     2
 10
1003.022046702
 20
270.504308397
 42
0.021820078
  0
VERTEX
  8
0
  6
CONTINUOUS
 62
     2
 10
1002.834844231
 20
270.563333109
 42
0.021820078
  0
VERTEX
  8
0
  6
CONTINUOUS
 62
     2
 10
1002.643209779
 20
270.605817444
 42
0.021820078
  0
VERTEX
  8
0
  6
CONTINUOUS
 62
     2
 10
1002.448601801
 20
270.631438071
 42
0.021820078
  0
VERTEX
  8
0
  6
CONTINUOUS
 62
     2
 10
1002.252501379
 20
270.64
 42
0.021820078
  0
VERTEX
  8
0
  6
CONTINUOUS
 62
     2
 10
1002.056400958
 20
270.631438071
 42
0.021820078
  0
VERTEX
  8
0
  6
CONTINUOUS
 62
     2
 10
1001.86179298
 20
270.605817444
 42
0.021820078
  0
VERTEX
  8
0
  6
CONTINUOUS
 62
     2
 10
1001.670158528
 20
270.563333109
 42
0.021820078
  0
VERTEX
  8
0
  6
CONTINUOUS
 62
     2
 10
1001.482956057
 20
270.504308397
 42
0.021820078
  0
VERTEX
  8
0
  6
CONTINUOUS
 62
     2
 10
1001.30161029
 20
270.429192521
 42
0.021820078
  0
VERTEX
  8
0
  6
CONTINUOUS
 62
     2
 10
1001.127501379
 20
270.338557159
 42
0.021820078
  0
VERTEX
  8
0
  6
CONTINUOUS
 62
     2
 10
1000.961954398
 20
270.2330921
 42
0.021820078
  0
VERTEX
  8
0
  6
CONTINUOUS
 62
     2
 10
1000.806229258
 20
270.113599997
 42
0.021820078
  0
VERTEX
  8
0
  6
CONTINUOUS
 62
     2
 10
1000.661511122
 20
269.980990258
 42
0.021820078
  0
VERTEX
  8
0
  6
CONTINUOUS
 62
     2
 10
1000.528901382
 20
269.836272122
 42
0.021820078
  0
VERTEX
  8
0
  6
CONTINUOUS
 62
     2
 10
1000.40940928
 20
269.680546982
 42
0.021820078
  0
VERTEX
  8
0
  6
CONTINUOUS
 62
     2
 10
1000.303944221
 20
269.515
 42
0.021820078
  0
VERTEX
  8
0
  6
CONTINUOUS
 62
     2
 10
1000.213308859
 20
269.340891089
 42
0.021820078
  0
VERTEX
  8
0
  6
CONTINUOUS
 62
     2
 10
1000.138192983
 20
269.159545322
 42
0.021820078
  0
VERTEX
  8
0
  6
CONTINUOUS
 62
     2
 10
1000.07916827
 20
268.972342851
 42
0.021820078
  0
VERTEX
  8
0
  6
CONTINUOUS
 62
     2
 10
1000.036683935
 20
268.7807084
 42
0.021820078
  0
VERTEX
  8
0
  6
CONTINUOUS
 62
     2
 10
1000.011063309
 20
268.586100421
 42
0.021820078
  0
VERTEX
  8
0
  6
CONTINUOUS
 62
     2
 10
1000.002501379
 20
268.39
 42
0.021820078
  0
VERTEX
  8
0
  6
CONTINUOUS
 62
     2
 10
1000.011063309
 20
268.193899579
 42
0.021820078
  0
VERTEX
  8
0
  6
CONTINUOUS
 62
     2
 10
1000.036683935
 20
267.9992916
 42
0.021820078
  0
VERTEX
  8
0
  6
CONTINUOUS
 62
     2
 10
1000.07916827
 20
267.807657149
 42
0.021820078
  0
VERTEX
  8
0
  6
CONTINUOUS
 62
     2
 10
1000.138192983
 20
267.620454678
 42
0.021820078
  0
VERTEX
  8
0
  6
CONTINUOUS
 62
     2
 10
1000.213308859
 20
267.439108911
 42
0.021820078
  0
VERTEX
  8
0
  6
CONTINUOUS
 62
     2
 10
1000.303944221
 20
267.265
 42
0.021820078
  0
VERTEX
  8
0
  6
CONTINUOUS
 62
     2
 10
1000.40940928
 20
267.099453018
 42
0.021820078
  0
VERTEX
  8
0
  6
CONTINUOUS
 62
     2
 10
1000.528901382
 20
266.943727878
 42
0.021820078
  0
VERTEX
  8
0
  6
CONTINUOUS
 62
     2
 10
1000.661511122
 20
266.799009742
 42
0.021820078
  0
VERTEX
  8
0
  6
CONTINUOUS
 62
     2
 10
1000.806229258
 20
266.666400003
 42
0.021820078
  0
VERTEX
  8
0
  6
CONTINUOUS
 62
     2
 10
1000.961954398
 20
266.5469079
 42
0.021820078
  0
VERTEX
  8
0
  6
CONTINUOUS
 62
     2
 10
1001.127501379
 20
266.441442841
 42
0.021820078
  0
VERTEX
  8
0
  6
CONTINUOUS
 62
     2
 10
1001.30161029
 20
266.350807479
 42
0.021820078
  0
VERTEX
  8
0
  6
CONTINUOUS
 62
     2
 10
1001.482956057
 20
266.275691603
 42
0.021820078
  0
VERTEX
  8
0
  6
CONTINUOUS
 62
     2
 10
1001.670158528
 20
266.216666891
 42
0.021820078
  0
VERTEX
  8
0
  6
CONTINUOUS
 62
     2
 10
1001.86179298
 20
266.174182556
 42
0.021820078
  0
VERTEX
  8
0
  6
CONTINUOUS
 62
     2
 10
1002.056400958
 20
266.148561929
 42
0.021820078
  0
VERTEX
  8
0
  6
CONTINUOUS
 62
     2
 10
1002.252501379
 20
266.14
 42
0.021820078
  0
VERTEX
  8
0
  6
CONTINUOUS
 62
     2
 10
1002.448601801
 20
266.148561929
 42
0.021820078
  0
VERTEX
  8
0
  6
CONTINUOUS
 62
     2
 10
1002.643209779
 20
266.174182556
 42
0.021820078
  0
VERTEX
  8
0
  6
CONTINUOUS
 62
     2
 10
1002.834844231
 20
266.216666891
 42
0.021820078
  0
VERTEX
  8
0
  6
CONTINUOUS
 62
     2
 10
1003.022046702
 20
266.275691603
 42
0.021820078
  0
VERTEX
  8
0
  6
CONTINUOUS
 62
     2
 10
1003.203392468
 20
266.350807479
 42
0.021820078
  0
VERTEX
  8
0
  6
CONTINUOUS
 62
     2
 10
1003.377501379
 20
266.441442841
 42
0.021820078
  0
VERTEX
  8
0
  6
CONTINUOUS
 62
     2
 10
1003.543048361
 20
266.5469079
 42
0.021820078
  0
VERTEX
  8
0
  6
CONTINUOUS
 62
     2
 10
1003.698773501
 20
266.666400003
 42
0.021820078
  0
VERTEX
  8
0
  6
CONTINUOUS
 62
     2
 10
1003.843491637
 20
266.799009742
 42
0.021820078
  0
VERTEX
  8
0
  6
CONTINUOUS
 62
     2
 10
1003.976101376
 20
266.943727878
 42
0.021820078
  0
VERTEX
  8
0
  6
CONTINUOUS
 62
     2
 10
1004.095593479
 20
267.099453018
 42
0.021820078
  0
VERTEX
  8
0
  6
CONTINUOUS
 62
     2
 10
1004.201058538
 20
267.265
 42
0.021820078
  0
VERTEX
  8
0
  6
CONTINUOUS
 62
     2
 10
1004.2916939
 20
267.439108911
 42
0.021820078
  0
VERTEX
  8
0
  6
CONTINUOUS
 62
     2
 10
1004.366809776
 20
267.620454678
 42
0.021820078
  0
VERTEX
  8
0
  6
CONTINUOUS
 62
     2
 10
1004.425834489
 20
267.807657149
 42
0.021820078
  0
VERTEX
  8
0
  6
CONTINUOUS
 62
     2
 10
1004.468318824
 20
267.9992916
 42
0.021820078
  0
VERTEX
  8
0
  6
CONTINUOUS
 62
     2
 10
1004.49393945
 20
268.193899579
 42
0.021820078
  0
SEQEND
  8
0
  6
CONTINUOUS
 62
     2
  0
POLYLINE
  8
0
  6
CONTINUOUS
 62
     2
 66
     1
 70
     1
  0
VERTEX
  8
0
  6
CONTINUOUS
 62
     2
 10
1019.502501379
 20
268.39
 42
0.021820078
  0
VERTEX
  8
0
  6
CONTINUOUS
 62
     2
 10
1019.49393945
 20
268.586100421
 42
0.021820078
  0
VERTEX
  8
0
  6
CONTINUOUS
 62
     2
 10
1019.468318824
 20
268.7807084
 42
0.021820078
  0
VERTEX
  8
0
  6
CONTINUOUS
 62
     2
 10
1019.425834489
 20
268.972342851
 42
0.021820078
  0
VERTEX
  8
0
  6
CONTINUOUS
 62
     2
 10
1019.366809776
 20
269.159545322
 42
0.021820078
  0
VERTEX
  8
0
  6
CONTINUOUS
 62
     2
 10
1019.2916939
 20
269.340891089
 42
0.021820078
  0
VERTEX
  8
0
  6
CONTINUOUS
 62
     2
 10
1019.201058538
 20
269.515
 42
0.021820078
  0
VERTEX
  8
0
  6
CONTINUOUS
 62
     2
 10
1019.095593479
 20
269.680546982
 42
0.021820078
  0
VERTEX
  8
0
  6
CONTINUOUS
 62
     2
 10
1018.976101376
 20
269.836272122
 42
0.021820078
  0
VERTEX
  8
0
  6
CONTINUOUS
 62
     2
 10
1018.843491637
 20
269.980990258
 42
0.021820078
  0
VERTEX
  8
0
  6
CONTINUOUS
 62
     2
 10
1018.698773501
 20
270.113599997
 42
0.021820078
  0
VERTEX
  8
0
  6
CONTINUOUS
 62
     2
 10
1018.543048361
 20
270.2330921
 42
0.021820078
  0
VERTEX
  8
0
  6
CONTINUOUS
 62
     2
 10
1018.377501379
 20
270.338557159
 42
0.021820078
  0
VERTEX
  8
0
  6
CONTINUOUS
 62
     2
 10
1018.203392468
 20
270.429192521
 42
0.021820078
  0
VERTEX
  8
0
  6
CONTINUOUS
 62
     2
 10
1018.022046702
 20
270.504308397
 42
0.021820078
  0
VERTEX
  8
0
  6
CONTINUOUS
 62
     2
 10
1017.834844231
 20
270.563333109
 42
0.021820078
  0
VERTEX
  8
0
  6
CONTINUOUS
 62
     2
 10
1017.643209779
 20
270.605817444
 42
0.021820078
  0
VERTEX
  8
0
  6
CONTINUOUS
 62
     2
 10
1017.448601801
 20
270.631438071
 42
0.021820078
  0
VERTEX
  8
0
  6
CONTINUOUS
 62
     2
 10
1017.252501379
 20
270.64
 42
0.021820078
  0
VERTEX
  8
0
  6
CONTINUOUS
 62
     2
 10
1017.056400958
 20
270.631438071
 42
0.021820078
  0
VERTEX
  8
0
  6
CONTINUOUS
 62
     2
 10
1016.86179298
 20
270.605817444
 42
0.021820078
  0
VERTEX
  8
0
  6
CONTINUOUS
 62
     2
 10
1016.670158528
 20
270.563333109
 42
0.021820078
  0
VERTEX
  8
0
  6
CONTINUOUS
 62
     2
 10
1016.482956057
 20
270.504308397
 42
0.021820078
  0
VERTEX
  8
0
  6
CONTINUOUS
 62
     2
 10
1016.30161029
 20
270.429192521
 42
0.021820078
  0
VERTEX
  8
0
  6
CONTINUOUS
 62
     2
 10
1016.127501379
 20
270.338557159
 42
0.021820078
  0
VERTEX
  8
0
  6
CONTINUOUS
 62
     2
 10
1015.961954398
 20
270.2330921
 42
0.021820078
  0
VERTEX
  8
0
  6
CONTINUOUS
 62
     2
 10
1015.806229258
 20
270.113599997
 42
0.021820078
  0
VERTEX
  8
0
  6
CONTINUOUS
 62
     2
 10
1015.661511122
 20
269.980990258
 42
0.021820078
  0
VERTEX
  8
0
  6
CONTINUOUS
 62
     2
 10
1015.528901382
 20
269.836272122
 42
0.021820078
  0
VERTEX
  8
0
  6
CONTINUOUS
 62
     2
 10
1015.40940928
 20
269.680546982
 42
0.021820078
  0
VERTEX
  8
0
  6
CONTINUOUS
 62
     2
 10
1015.303944221
 20
269.515
 42
0.021820078
  0
VERTEX
  8
0
  6
CONTINUOUS
 62
     2
 10
1015.213308859
 20
269.340891089
 42
0.021820078
  0
VERTEX
  8
0
  6
CONTINUOUS
 62
     2
 10
1015.138192983
 20
269.159545322
 42
0.021820078
  0
VERTEX
  8
0
  6
CONTINUOUS
 62
     2
 10
1015.07916827
 20
268.972342851
 42
0.021820078
  0
VERTEX
  8
0
  6
CONTINUOUS
 62
     2
 10
1015.036683935
 20
268.7807084
 42
0.021820078
  0
VERTEX
  8
0
  6
CONTINUOUS
 62
     2
 10
1015.011063309
 20
268.586100421
 42
0.021820078
  0
VERTEX
  8
0
  6
CONTINUOUS
 62
     2
 10
1015.002501379
 20
268.39
 42
0.021820078
  0
VERTEX
  8
0
  6
CONTINUOUS
 62
     2
 10
1015.011063309
 20
268.193899579
 42
0.021820078
  0
VERTEX
  8
0
  6
CONTINUOUS
 62
     2
 10
1015.036683935
 20
267.9992916
 42
0.021820078
  0
VERTEX
  8
0
  6
CONTINUOUS
 62
     2
 10
1015.07916827
 20
267.807657149
 42
0.021820078
  0
VERTEX
  8
0
  6
CONTINUOUS
 62
     2
 10
1015.138192983
 20
267.620454678
 42
0.021820078
  0
VERTEX
  8
0
  6
CONTINUOUS
 62
     2
 10
1015.213308859
 20
267.439108911
 42
0.021820078
  0
VERTEX
  8
0
  6
CONTINUOUS
 62
     2
 10
1015.303944221
 20
267.265
 42
0.021820078
  0
VERTEX
  8
0
  6
CONTINUOUS
 62
     2
 10
1015.40940928
 20
267.099453018
 42
0.021820078
  0
VERTEX
  8
0
  6
CONTINUOUS
 62
     2
 10
1015.528901382
 20
266.943727878
 42
0.021820078
  0
VERTEX
  8
0
  6
CONTINUOUS
 62
     2
 10
1015.661511122
 20
266.799009742
 42
0.021820078
  0
VERTEX
  8
0
  6
CONTINUOUS
 62
     2
 10
1015.806229258
 20
266.666400003
 42
0.021820078
  0
VERTEX
  8
0
  6
CONTINUOUS
 62
     2
 10
1015.961954398
 20
266.5469079
 42
0.021820078
  0
VERTEX
  8
0
  6
CONTINUOUS
 62
     2
 10
1016.127501379
 20
266.441442841
 42
0.021820078
  0
VERTEX
  8
0
  6
CONTINUOUS
 62
     2
 10
1016.30161029
 20
266.350807479
 42
0.021820078
  0
VERTEX
  8
0
  6
CONTINUOUS
 62
     2
 10
1016.482956057
 20
266.275691603
 42
0.021820078
  0
VERTEX
  8
0
  6
CONTINUOUS
 62
     2
 10
1016.670158528
 20
266.216666891
 42
0.021820078
  0
VERTEX
  8
0
  6
CONTINUOUS
 62
     2
 10
1016.86179298
 20
266.174182556
 42
0.021820078
  0
VERTEX
  8
0
  6
CONTINUOUS
 62
     2
 10
1017.056400958
 20
266.148561929
 42
0.021820078
  0
VERTEX
  8
0
  6
CONTINUOUS
 62
     2
 10
1017.252501379
 20
266.14
 42
0.021820078
  0
VERTEX
  8
0
  6
CONTINUOUS
 62
     2
 10
1017.448601801
 20
266.148561929
 42
0.021820078
  0
VERTEX
  8
0
  6
CONTINUOUS
 62
     2
 10
1017.643209779
 20
266.174182556
 42
0.021820078
  0
VERTEX
  8
0
  6
CONTINUOUS
 62
     2
 10
1017.834844231
 20
266.216666891
 42
0.021820078
  0
VERTEX
  8
0
  6
CONTINUOUS
 62
     2
 10
1018.022046702
 20
266.275691603
 42
0.021820078
  0
VERTEX
  8
0
  6
CONTINUOUS
 62
     2
 10
1018.203392468
 20
266.350807479
 42
0.021820078
  0
VERTEX
  8
0
  6
CONTINUOUS
 62
     2
 10
1018.377501379
 20
266.441442841
 42
0.021820078
  0
VERTEX
  8
0
  6
CONTINUOUS
 62
     2
 10
1018.543048361
 20
266.5469079
 42
0.021820078
  0
VERTEX
  8
0
  6
CONTINUOUS
 62
     2
 10
1018.698773501
 20
266.666400003
 42
0.021820078
  0
VERTEX
  8
0
  6
CONTINUOUS
 62
     2
 10
1018.843491637
 20
266.799009742
 42
0.021820078
  0
VERTEX
  8
0
  6
CONTINUOUS
 62
     2
 10
1018.976101376
 20
266.943727878
 42
0.021820078
  0
VERTEX
  8
0
  6
CONTINUOUS
 62
     2
 10
1019.095593479
 20
267.099453018
 42
0.021820078
  0
VERTEX
  8
0
  6
CONTINUOUS
 62
     2
 10
1019.201058538
 20
267.265
 42
0.021820078
  0
VERTEX
  8
0
  6
CONTINUOUS
 62
     2
 10
1019.2916939
 20
267.439108911
 42
0.021820078
  0
VERTEX
  8
0
  6
CONTINUOUS
 62
     2
 10
1019.366809776
 20
267.620454678
 42
0.021820078
  0
VERTEX
  8
0
  6
CONTINUOUS
 62
     2
 10
1019.425834489
 20
267.807657149
 42
0.021820078
  0
VERTEX
  8
0
  6
CONTINUOUS
 62
     2
 10
1019.468318824
 20
267.9992916
 42
0.021820078
  0
VERTEX
  8
0
  6
CONTINUOUS
 62
     2
 10
1019.49393945
 20
268.193899579
 42
0.021820078
  0
SEQEND
  8
0
  6
CONTINUOUS
 62
     2
  0
POLYLINE
  8
0
  6
CONTINUOUS
 62
     2
 66
     1
 70
     1
  0
VERTEX
  8
0
  6
CONTINUOUS
 62
     2
 10
1004.502501379
 20
224.04
 42
-0.021820078
  0
VERTEX
  8
0
  6
CONTINUOUS
 62
     2
 10
1004.49393945
 20
223.843899579
 42
-0.021820078
  0
VERTEX
  8
0
  6
CONTINUOUS
 62
     2
 10
1004.468318824
 20
223.6492916
 42
-0.021820078
  0
VERTEX
  8
0
  6
CONTINUOUS
 62
     2
 10
1004.425834489
 20
223.457657149
 42
-0.021820078
  0
VERTEX
  8
0
  6
CONTINUOUS
 62
     2
 10
1004.366809776
 20
223.270454678
 42
-0.021820078
  0
VERTEX
  8
0
  6
CONTINUOUS
 62
     2
 10
1004.2916939
 20
223.089108911
 42
-0.021820078
  0
VERTEX
  8
0
  6
CONTINUOUS
 62
     2
 10
1004.201058538
 20
222.915
 42
-0.021820078
  0
VERTEX
  8
0
  6
CONTINUOUS
 62
     2
 10
1004.095593479
 20
222.749453018
 42
-0.021820078
  0
VERTEX
  8
0
  6
CONTINUOUS
 62
     2
 10
1003.976101376
 20
222.593727878
 42
-0.021820078
  0
VERTEX
  8
0
  6
CONTINUOUS
 62
     2
 10
1003.843491637
 20
222.449009742
 42
-0.021820078
  0
VERTEX
  8
0
  6
CONTINUOUS
 62
     2
 10
1003.698773501
 20
222.316400003
 42
-0.021820078
  0
VERTEX
  8
0
  6
CONTINUOUS
 62
     2
 10
1003.543048361
 20
222.1969079
 42
-0.021820078
  0
VERTEX
  8
0
  6
CONTINUOUS
 62
     2
 10
1003.377501379
 20
222.091442841
 42
-0.021820078
  0
VERTEX
  8
0
  6
CONTINUOUS
 62
     2
 10
1003.203392468
 20
222.000807479
 42
-0.021820078
  0
VERTEX
  8
0
  6
CONTINUOUS
 62
     2
 10
1003.022046702
 20
221.925691603
 42
-0.021820078
  0
VERTEX
  8
0
  6
CONTINUOUS
 62
     2
 10
1002.834844231
 20
221.866666891
 42
-0.021820078
  0
VERTEX
  8
0
  6
CONTINUOUS
 62
     2
 10
1002.643209779
 20
221.824182556
 42
-0.021820078
  0
VERTEX
  8
0
  6
CONTINUOUS
 62
     2
 10
1002.448601801
 20
221.798561929
 42
-0.021820078
  0
VERTEX
  8
0
  6
CONTINUOUS
 62
     2
 10
1002.252501379
 20
221.79
 42
-0.021820078
  0
VERTEX
  8
0
  6
CONTINUOUS
 62
     2
 10
1002.056400958
 20
221.798561929
 42
-0.021820078
  0
VERTEX
  8
0
  6
CONTINUOUS
 62
     2
 10
1001.86179298
 20
221.824182556
 42
-0.021820078
  0
VERTEX
  8
0
  6
CONTINUOUS
 62
     2
 10
1001.670158528
 20
221.866666891
 42
-0.021820078
  0
VERTEX
  8
0
  6
CONTINUOUS
 62
     2
 10
1001.482956057
 20
221.925691603
 42
-0.021820078
  0
VERTEX
  8
0
  6
CONTINUOUS
 62
     2
 10
1001.30161029
 20
222.000807479
 42
-0.021820078
  0
VERTEX
  8
0
  6
CONTINUOUS
 62
     2
 10
1001.127501379
 20
222.091442841
 42
-0.021820078
  0
VERTEX
  8
0
  6
CONTINUOUS
 62
     2
 10
1000.961954398
 20
222.1969079
 42
-0.021820078
  0
VERTEX
  8
0
  6
CONTINUOUS
 62
     2
 10
1000.806229258
 20
222.316400003
 42
-0.021820078
  0
VERTEX
  8
0
  6
CONTINUOUS
 62
     2
 10
1000.661511122
 20
222.449009742
 42
-0.021820078
  0
VERTEX
  8
0
  6
CONTINUOUS
 62
     2
 10
1000.528901382
 20
222.593727878
 42
-0.021820078
  0
VERTEX
  8
0
  6
CONTINUOUS
 62
     2
 10
1000.40940928
 20
222.749453018
 42
-0.021820078
  0
VERTEX
  8
0
  6
CONTINUOUS
 62
     2
 10
1000.303944221
 20
222.915
 42
-0.021820078
  0
VERTEX
  8
0
  6
CONTINUOUS
 62
     2
 10
1000.213308859
 20
223.089108911
 42
-0.021820078
  0
VERTEX
  8
0
  6
CONTINUOUS
 62
     2
 10
1000.138192983
 20
223.270454678
 42
-0.021820078
  0
VERTEX
  8
0
  6
CONTINUOUS
 62
     2
 10
1000.07916827
 20
223.457657149
 42
-0.021820078
  0
VERTEX
  8
0
  6
CONTINUOUS
 62
     2
 10
1000.036683935
 20
223.6492916
 42
-0.021820078
  0
VERTEX
  8
0
  6
CONTINUOUS
 62
     2
 10
1000.011063309
 20
223.843899579
 42
-0.021820078
  0
VERTEX
  8
0
  6
CONTINUOUS
 62
     2
 10
1000.002501379
 20
224.04
 42
-0.021820078
  0
VERTEX
  8
0
  6
CONTINUOUS
 62
     2
 10
1000.011063309
 20
224.236100421
 42
-0.021820078
  0
VERTEX
  8
0
  6
CONTINUOUS
 62
     2
 10
1000.036683935
 20
224.4307084
 42
-0.021820078
  0
VERTEX
  8
0
  6
CONTINUOUS
 62
     2
 10
1000.07916827
 20
224.622342851
 42
-0.021820078
  0
VERTEX
  8
0
  6
CONTINUOUS
 62
     2
 10
1000.138192983
 20
224.809545322
 42
-0.021820078
  0
VERTEX
  8
0
  6
CONTINUOUS
 62
     2
 10
1000.213308859
 20
224.990891089
 42
-0.021820078
  0
VERTEX
  8
0
  6
CONTINUOUS
 62
     2
 10
1000.303944221
 20
225.165
 42
-0.021820078
  0
VERTEX
  8
0
  6
CONTINUOUS
 62
     2
 10
1000.40940928
 20
225.330546982
 42
-0.021820078
  0
VERTEX
  8
0
  6
CONTINUOUS
 62
     2
 10
1000.528901382
 20
225.486272122
 42
-0.021820078
  0
VERTEX
  8
0
  6
CONTINUOUS
 62
     2
 10
1000.661511122
 20
225.630990258
 42
-0.021820078
  0
VERTEX
  8
0
  6
CONTINUOUS
 62
     2
 10
1000.806229258
 20
225.763599997
 42
-0.021820078
  0
VERTEX
  8
0
  6
CONTINUOUS
 62
     2
 10
1000.961954398
 20
225.8830921
 42
-0.021820078
  0
VERTEX
  8
0
  6
CONTINUOUS
 62
     2
 10
1001.127501379
 20
225.988557159
 42
-0.021820078
  0
VERTEX
  8
0
  6
CONTINUOUS
 62
     2
 10
1001.30161029
 20
226.079192521
 42
-0.021820078
  0
VERTEX
  8
0
  6
CONTINUOUS
 62
     2
 10
1001.482956057
 20
226.154308397
 42
-0.021820078
  0
VERTEX
  8
0
  6
CONTINUOUS
 62
     2
 10
1001.670158528
 20
226.213333109
 42
-0.021820078
  0
VERTEX
  8
0
  6
CONTINUOUS
 62
     2
 10
1001.86179298
 20
226.255817444
 42
-0.021820078
  0
VERTEX
  8
0
  6
CONTINUOUS
 62
     2
 10
1002.056400958
 20
226.281438071
 42
-0.021820078
  0
VERTEX
  8
0
  6
CONTINUOUS
 62
     2
 10
1002.252501379
 20
226.29
 42
-0.021820078
  0
VERTEX
  8
0
  6
CONTINUOUS
 62
     2
 10
1002.448601801
 20
226.281438071
 42
-0.021820078
  0
VERTEX
  8
0
  6
CONTINUOUS
 62
     2
 10
1002.643209779
 20
226.255817444
 42
-0.021820078
  0
VERTEX
  8
0
  6
CONTINUOUS
 62
     2
 10
1002.834844231
 20
226.213333109
 42
-0.021820078
  0
VERTEX
  8
0
  6
CONTINUOUS
 62
     2
 10
1003.022046702
 20
226.154308397
 42
-0.021820078
  0
VERTEX
  8
0
  6
CONTINUOUS
 62
     2
 10
1003.203392468
 20
226.079192521
 42
-0.021820078
  0
VERTEX
  8
0
  6
CONTINUOUS
 62
     2
 10
1003.377501379
 20
225.988557159
 42
-0.021820078
  0
VERTEX
  8
0
  6
CONTINUOUS
 62
     2
 10
1003.543048361
 20
225.8830921
 42
-0.021820078
  0
VERTEX
  8
0
  6
CONTINUOUS
 62
     2
 10
1003.698773501
 20
225.763599997
 42
-0.021820078
  0
VERTEX
  8
0
  6
CONTINUOUS
 62
     2
 10
1003.843491637
 20
225.630990258
 42
-0.021820078
  0
VERTEX
  8
0
  6
CONTINUOUS
 62
     2
 10
1003.976101376
 20
225.486272122
 42
-0.021820078
  0
VERTEX
  8
0
  6
CONTINUOUS
 62
     2
 10
1004.095593479
 20
225.330546982
 42
-0.021820078
  0
VERTEX
  8
0
  6
CONTINUOUS
 62
     2
 10
1004.201058538
 20
225.165
 42
-0.021820078
  0
VERTEX
  8
0
  6
CONTINUOUS
 62
     2
 10
1004.2916939
 20
224.990891089
 42
-0.021820078
  0
VERTEX
  8
0
  6
CONTINUOUS
 62
     2
 10
1004.366809776
 20
224.809545322
 42
-0.021820078
  0
VERTEX
  8
0
  6
CONTINUOUS
 62
     2
 10
1004.425834489
 20
224.622342851
 42
-0.021820078
  0
VERTEX
  8
0
  6
CONTINUOUS
 62
     2
 10
1004.468318824
 20
224.4307084
 42
-0.021820078
  0
VERTEX
  8
0
  6
CONTINUOUS
 62
     2
 10
1004.49393945
 20
224.236100421
 42
-0.021820078
  0
SEQEND
  8
0
  6
CONTINUOUS
 62
     2
  0
POLYLINE
  8
0
  6
CONTINUOUS
 62
     2
 66
     1
 70
     1
  0
VERTEX
  8
0
  6
CONTINUOUS
 62
     2
 10
1019.502501379
 20
224.04
 42
-0.021820078
  0
VERTEX
  8
0
  6
CONTINUOUS
 62
     2
 10
1019.49393945
 20
223.843899579
 42
-0.021820078
  0
VERTEX
  8
0
  6
CONTINUOUS
 62
     2
 10
1019.468318824
 20
223.6492916
 42
-0.021820078
  0
VERTEX
  8
0
  6
CONTINUOUS
 62
     2
 10
1019.425834489
 20
223.457657149
 42
-0.021820078
  0
VERTEX
  8
0
  6
CONTINUOUS
 62
     2
 10
1019.366809776
 20
223.270454678
 42
-0.021820078
  0
VERTEX
  8
0
  6
CONTINUOUS
 62
     2
 10
1019.2916939
 20
223.089108911
 42
-0.021820078
  0
VERTEX
  8
0
  6
CONTINUOUS
 62
     2
 10
1019.201058538
 20
222.915
 42
-0.021820078
  0
VERTEX
  8
0
  6
CONTINUOUS
 62
     2
 10
1019.095593479
 20
222.749453018
 42
-0.021820078
  0
VERTEX
  8
0
  6
CONTINUOUS
 62
     2
 10
1018.976101376
 20
222.593727878
 42
-0.021820078
  0
VERTEX
  8
0
  6
CONTINUOUS
 62
     2
 10
1018.843491637
 20
222.449009742
 42
-0.021820078
  0
VERTEX
  8
0
  6
CONTINUOUS
 62
     2
 10
1018.698773501
 20
222.316400003
 42
-0.021820078
  0
VERTEX
  8
0
  6
CONTINUOUS
 62
     2
 10
1018.543048361
 20
222.1969079
 42
-0.021820078
  0
VERTEX
  8
0
  6
CONTINUOUS
 62
     2
 10
1018.377501379
 20
222.091442841
 42
-0.021820078
  0
VERTEX
  8
0
  6
CONTINUOUS
 62
     2
 10
1018.203392468
 20
222.000807479
 42
-0.021820078
  0
VERTEX
  8
0
  6
CONTINUOUS
 62
     2
 10
1018.022046702
 20
221.925691603
 42
-0.021820078
  0
VERTEX
  8
0
  6
CONTINUOUS
 62
     2
 10
1017.834844231
 20
221.866666891
 42
-0.021820078
  0
VERTEX
  8
0
  6
CONTINUOUS
 62
     2
 10
1017.643209779
 20
221.824182556
 42
-0.021820078
  0
VERTEX
  8
0
  6
CONTINUOUS
 62
     2
 10
1017.448601801
 20
221.798561929
 42
-0.021820078
  0
VERTEX
  8
0
  6
CONTINUOUS
 62
     2
 10
1017.252501379
 20
221.79
 42
-0.021820078
  0
VERTEX
  8
0
  6
CONTINUOUS
 62
     2
 10
1017.056400958
 20
221.798561929
 42
-0.021820078
  0
VERTEX
  8
0
  6
CONTINUOUS
 62
     2
 10
1016.86179298
 20
221.824182556
 42
-0.021820078
  0
VERTEX
  8
0
  6
CONTINUOUS
 62
     2
 10
1016.670158528
 20
221.866666891
 42
-0.021820078
  0
VERTEX
  8
0
  6
CONTINUOUS
 62
     2
 10
1016.482956057
 20
221.925691603
 42
-0.021820078
  0
VERTEX
  8
0
  6
CONTINUOUS
 62
     2
 10
1016.30161029
 20
222.000807479
 42
-0.021820078
  0
VERTEX
  8
0
  6
CONTINUOUS
 62
     2
 10
1016.127501379
 20
222.091442841
 42
-0.021820078
  0
VERTEX
  8
0
  6
CONTINUOUS
 62
     2
 10
1015.961954398
 20
222.1969079
 42
-0.021820078
  0
VERTEX
  8
0
  6
CONTINUOUS
 62
     2
 10
1015.806229258
 20
222.316400003
 42
-0.021820078
  0
VERTEX
  8
0
  6
CONTINUOUS
 62
     2
 10
1015.661511122
 20
222.449009742
 42
-0.021820078
  0
VERTEX
  8
0
  6
CONTINUOUS
 62
     2
 10
1015.528901382
 20
222.593727878
 42
-0.021820078
  0
VERTEX
  8
0
  6
CONTINUOUS
 62
     2
 10
1015.40940928
 20
222.749453018
 42
-0.021820078
  0
VERTEX
  8
0
  6
CONTINUOUS
 62
     2
 10
1015.303944221
 20
222.915
 42
-0.021820078
  0
VERTEX
  8
0
  6
CONTINUOUS
 62
     2
 10
1015.213308859
 20
223.089108911
 42
-0.021820078
  0
VERTEX
  8
0
  6
CONTINUOUS
 62
     2
 10
1015.138192983
 20
223.270454678
 42
-0.021820078
  0
VERTEX
  8
0
  6
CONTINUOUS
 62
     2
 10
1015.07916827
 20
223.457657149
 42
-0.021820078
  0
VERTEX
  8
0
  6
CONTINUOUS
 62
     2
 10
1015.036683935
 20
223.6492916
 42
-0.021820078
  0
VERTEX
  8
0
  6
CONTINUOUS
 62
     2
 10
1015.011063309
 20
223.843899579
 42
-0.021820078
  0
VERTEX
  8
0
  6
CONTINUOUS
 62
     2
 10
1015.002501379
 20
224.04
 42
-0.021820078
  0
VERTEX
  8
0
  6
CONTINUOUS
 62
     2
 10
1015.011063309
 20
224.236100421
 42
-0.021820078
  0
VERTEX
  8
0
  6
CONTINUOUS
 62
     2
 10
1015.036683935
 20
224.4307084
 42
-0.021820078
  0
VERTEX
  8
0
  6
CONTINUOUS
 62
     2
 10
1015.07916827
 20
224.622342851
 42
-0.021820078
  0
VERTEX
  8
0
  6
CONTINUOUS
 62
     2
 10
1015.138192983
 20
224.809545322
 42
-0.021820078
  0
VERTEX
  8
0
  6
CONTINUOUS
 62
     2
 10
1015.213308859
 20
224.990891089
 42
-0.021820078
  0
VERTEX
  8
0
  6
CONTINUOUS
 62
     2
 10
1015.303944221
 20
225.165
 42
-0.021820078
  0
VERTEX
  8
0
  6
CONTINUOUS
 62
     2
 10
1015.40940928
 20
225.330546982
 42
-0.021820078
  0
VERTEX
  8
0
  6
CONTINUOUS
 62
     2
 10
1015.528901382
 20
225.486272122
 42
-0.021820078
  0
VERTEX
  8
0
  6
CONTINUOUS
 62
     2
 10
1015.661511122
 20
225.630990258
 42
-0.021820078
  0
VERTEX
  8
0
  6
CONTINUOUS
 62
     2
 10
1015.806229258
 20
225.763599997
 42
-0.021820078
  0
VERTEX
  8
0
  6
CONTINUOUS
 62
     2
 10
1015.961954398
 20
225.8830921
 42
-0.021820078
  0
VERTEX
  8
0
  6
CONTINUOUS
 62
     2
 10
1016.127501379
 20
225.988557159
 42
-0.021820078
  0
VERTEX
  8
0
  6
CONTINUOUS
 62
     2
 10
1016.30161029
 20
226.079192521
 42
-0.021820078
  0
VERTEX
  8
0
  6
CONTINUOUS
 62
     2
 10
1016.482956057
 20
226.154308397
 42
-0.021820078
  0
VERTEX
  8
0
  6
CONTINUOUS
 62
     2
 10
1016.670158528
 20
226.213333109
 42
-0.021820078
  0
VERTEX
  8
0
  6
CONTINUOUS
 62
     2
 10
1016.86179298
 20
226.255817444
 42
-0.021820078
  0
VERTEX
  8
0
  6
CONTINUOUS
 62
     2
 10
1017.056400958
 20
226.281438071
 42
-0.021820078
  0
VERTEX
  8
0
  6
CONTINUOUS
 62
     2
 10
1017.252501379
 20
226.29
 42
-0.021820078
  0
VERTEX
  8
0
  6
CONTINUOUS
 62
     2
 10
1017.448601801
 20
226.281438071
 42
-0.021820078
  0
VERTEX
  8
0
  6
CONTINUOUS
 62
     2
 10
1017.643209779
 20
226.255817444
 42
-0.021820078
  0
VERTEX
  8
0
  6
CONTINUOUS
 62
     2
 10
1017.834844231
 20
226.213333109
 42
-0.021820078
  0
VERTEX
  8
0
  6
CONTINUOUS
 62
     2
 10
1018.022046702
 20
226.154308397
 42
-0.021820078
  0
VERTEX
  8
0
  6
CONTINUOUS
 62
     2
 10
1018.203392468
 20
226.079192521
 42
-0.021820078
  0
VERTEX
  8
0
  6
CONTINUOUS
 62
     2
 10
1018.377501379
 20
225.988557159
 42
-0.021820078
  0
VERTEX
  8
0
  6
CONTINUOUS
 62
     2
 10
1018.543048361
 20
225.8830921
 42
-0.021820078
  0
VERTEX
  8
0
  6
CONTINUOUS
 62
     2
 10
1018.698773501
 20
225.763599997
 42
-0.021820078
  0
VERTEX
  8
0
  6
CONTINUOUS
 62
     2
 10
1018.843491637
 20
225.630990258
 42
-0.021820078
  0
VERTEX
  8
0
  6
CONTINUOUS
 62
     2
 10
1018.976101376
 20
225.486272122
 42
-0.021820078
  0
VERTEX
  8
0
  6
CONTINUOUS
 62
     2
 10
1019.095593479
 20
225.330546982
 42
-0.021820078
  0
VERTEX
  8
0
  6
CONTINUOUS
 62
     2
 10
1019.201058538
 20
225.165
 42
-0.021820078
  0
VERTEX
  8
0
  6
CONTINUOUS
 62
     2
 10
1019.2916939
 20
224.990891089
 42
-0.021820078
  0
VERTEX
  8
0
  6
CONTINUOUS
 62
     2
 10
1019.366809776
 20
224.809545322
 42
-0.021820078
  0
VERTEX
  8
0
  6
CONTINUOUS
 62
     2
 10
1019.425834489
 20
224.622342851
 42
-0.021820078
  0
VERTEX
  8
0
  6
CONTINUOUS
 62
     2
 10
1019.468318824
 20
224.4307084
 42
-0.021820078
  0
VERTEX
  8
0
  6
CONTINUOUS
 62
     2
 10
1019.49393945
 20
224.236100421
 42
-0.021820078
  0
SEQEND
  8
0
  6
CONTINUOUS
 62
     2
  0
TEXT
  8
0
  6
CONTINUOUS
 62
     2
 10
993.502501379
 20
213.64
 30
0.0
 40
10.0
  1
１
 50
0.0
 41
0.85
 51
0.0
  7
KANJI69
  0
TEXT
  8
0
  6
CONTINUOUS
 62
     2
 10
961.602501379
 20
268.34
 30
0.0
 40
10.0
  1
（ＮＯ）
 50
0.0
 41
0.75
 51
0.0
  7
KANJI70
  0
TEXT
  8
0
  6
CONTINUOUS
 62
     2
 10
961.602501379
 20
210.84
 30
0.0
 40
10.0
  1
（ＮＣ）
 50
0.0
 41
0.75
 51
0.0
  7
KANJI70
  0
TEXT
  8
0
  6
CONTINUOUS
 62
     2
 10
945.477501379
 20
181.84
 30
0.0
 40
15.0
  1
外部ＬＳリミットＳＷ
 50
0.0
 41
0.9
 51
0.0
  7
KANJI59
  0
TEXT
  8
0
  6
CONTINUOUS
 62
     2
 10
982.727501379
 20
162.84
 30
0.0
 40
15.0
  1
端子符号
 50
0.0
 41
0.9
 51
0.0
  7
KANJI59
  0
LINE
  8
0
  6
CONTINUOUS
 62
     2
 10
1087.227501379
 20
339.09
 11
933.977501379
 21
339.09
  0
LINE
  8
0
  6
CONTINUOUS
 62
     2
 10
933.977501379
 20
339.09
 11
933.977501379
 21
169.34
  0
LINE
  8
0
  6
CONTINUOUS
 62
     2
 10
933.977501379
 20
169.34
 11
972.977501379
 21
169.34
  0
ARC
  8
0
  6
CONTINUOUS
 62
     1
 10
917.557032801
 20
216.34
 40
6.845203412
 50
324.242860688
 51
35.757139312
  0
ARC
  8
0
  6
CONTINUOUS
 62
     1
 10
928.666814032
 20
216.34
 40
6.845203412
 50
144.242860688
 51
215.757139312
  0
ARC
  8
0
  6
CONTINUOUS
 62
     1
 10
928.666814032
 20
208.34
 40
6.845203412
 50
144.242860688
 51
215.757139312
  0
LINE
  8
0
  6
CONTINUOUS
 62
     1
 10
1029.602501379
 20
277.84
 11
1029.602501379
 21
213.14
  0
ARC
  8
0
  6
CONTINUOUS
 62
     1
 10
1027.602501379
 20
213.14
 40
2.0
 50
270.0
 51
0.0
  0
ARC
  8
0
  6
CONTINUOUS
 62
     1
 10
1027.602501379
 20
277.84
 40
2.0
 50
0.0
 51
90.0
  0
LINE
  8
0
  6
LTYPE3
 62
     2
 10
1044.250733658
 20
308.631883092
 11
1027.98727769
 21
324.895339059
  0
ARC
  8
0
  6
CONTINUOUS
 62
     1
 10
1036.472559064
 20
316.410057685
 40
8.75
 50
255.219855722
 51
194.780144278
  0
ARC
  8
0
  6
CONTINUOUS
 62
     1
 10
1036.472559064
 20
316.410057685
 40
4.0
 50
311.983042101
 51
138.016952287
  0
LINE
  8
0
  6
CONTINUOUS
 62
     1
 10
1022.302501379
 20
294.68336985
 11
1022.302501379
 21
279.84
  0
LINE
  8
0
  6
LTYPE2
 62
     2
 10
1024.727501379
 20
256.34
 11
1024.727501379
 21
265.84
  0
LINE
  8
0
  6
CONTINUOUS
 62
     1
 10
1024.727501379
 20
226.34
 11
1024.727501379
 21
235.84
  0
TEXT
  8
0
  6
CONTINUOUS
 62
     2
 10
1018.502501379
 20
269.14
 30
0.0
 40
10.0
  1
３
 50
0.0
 41
0.85
 51
0.0
  7
KANJI69
  0
TEXT
  8
0
  6
CONTINUOUS
 62
     2
 10
1018.502501379
 20
213.64
 30
0.0
 40
10.0
  1
２
 50
0.0
 41
0.85
 51
0.0
  7
KANJI69
  0
TEXT
  8
0
  6
CONTINUOUS
 62
     2
 10
1027.602501379
 20
268.34
 30
0.0
 40
10.0
  1
（ＮＯ）
 50
0.0
 41
0.75
 51
0.0
  7
KANJI70
  0
TEXT
  8
0
  6
CONTINUOUS
 62
     2
 10
1027.602501379
 20
210.84
 30
0.0
 40
10.0
  1
（ＮＣ）
 50
0.0
 41
0.75
 51
0.0
  7
KANJI70
  0
LINE
  8
0
  6
CONTINUOUS
 62
     2
 10
1087.227501379
 20
169.34
 11
1087.227501379
 21
339.09
  0
LINE
  8
0
  6
CONTINUOUS
 62
     2
 10
1042.227501379
 20
169.34
 11
1087.227501379
 21
169.34
  0
LINE
  8
0
  6
CONTINUOUS
 62
     1
 10
896.952501379
 20
201.34
 11
896.952501379
 21
223.34
  0
LINE
  8
0
  6
CONTINUOUS
 62
     1
 10
896.952501379
 20
220.34
 11
923.111923417
 21
220.34
  0
LINE
  8
0
  6
CONTINUOUS
 62
     1
 10
923.111923417
 20
204.34
 11
896.952501379
 21
204.34
  0
LINE
  8
0
  6
CONTINUOUS
 62
     1
 10
741.569982657
 20
699.74
 11
515.12
 21
699.74
  0
LINE
  8
0
  6
CONTINUOUS
 62
     1
 10
801.069982657
 20
699.74
 11
757.069982657
 21
699.74
  0
LINE
  8
0
  6
CONTINUOUS
 62
     1
 10
852.62
 20
699.74
 11
817.569982657
 21
699.74
  0
LINE
  8
0
  6
CONTINUOUS
 62
     1
 10
1465.494349192
 20
715.413407276
 11
1464.10813889
 21
710.24
  0
LINE
  8
0
  6
CONTINUOUS
 62
     1
 10
1468.392126671
 20
714.636950141
 11
1467.079992835
 21
709.74
  0
ARC
  8
0
  6
CONTINUOUS
 62
     1
 10
1450.12
 20
652.24
 40
60.0
 50
201.623196128
 51
126.869897646
  0
LINE
  8
0
  6
CONTINUOUS
 62
     1
 10
1433.160007165
 20
594.74
 11
1431.847873329
 21
589.843049859
  0
LINE
  8
0
  6
CONTINUOUS
 62
     1
 10
1435.997886513
 20
593.74
 11
1434.745650808
 21
589.066592724
  0
LINE
  8
0
  6
CONTINUOUS
 62
     1
 10
1433.12
 20
594.24
 11
1434.62
 21
594.24
  0
LINE
  8
0
  6
LTYPE1
 62
     2
 10
1434.62
 20
594.24
 11
1494.12
 21
594.24
  0
LINE
  8
0
  6
CONTINUOUS
 62
     1
 10
1501.224800069
 20
620.80277032
 11
1488.83749708
 21
574.572726198
  0
LINE
  8
0
  6
CONTINUOUS
 62
     1
 10
1522.483972943
 20
700.143083615
 11
1509.799174226
 21
652.80277032
  0
LINE
  8
0
  6
CONTINUOUS
 62
     1
 10
1530.12
 20
631.24
 11
1505.224800069
 21
628.246593465
  0
LINE
  8
0
  6
LTYPE1
 62
     2
 10
1505.224800069
 20
628.246593465
 11
1494.12
 21
626.911348873
  0
TEXT
  8
0
  6
CONTINUOUS
 62
     2
 10
1024.72
 20
1442.72
 30
0.96
 40
14.4
  1
ＭＣＬＥ１Ｂ２－　　２ＪＬ
 50
0.0
 41
0.833333333
 51
0.0
  7
KANJI71
  0
TEXT
  8
0
  6
CONTINUOUS
 62
     2
 10
1024.72
 20
1409.12
 30
0.96
 40
14.4
  1
ＭＣＬＥ１Ｂ２－　　３ＪＬ
 50
0.0
 41
0.833333333
 51
0.0
  7
KANJI71
  0
TEXT
  8
0
  6
CONTINUOUS
 62
     2
 10
1024.72
 20
1375.52
 30
0.96
 40
14.4
  1
ＭＣＬＥ１Ｂ２－　　４ＪＬ
 50
0.0
 41
0.833333333
 51
0.0
  7
KANJI71
  0
TEXT
  8
0
  6
CONTINUOUS
 62
     2
 10
1024.72
 20
1341.92
 30
0.96
 40
14.4
  1
ＭＣＬＥ１Ｂ２－　　５ＪＬ
 50
0.0
 41
0.833333333
 51
0.0
  7
KANJI71
  0
TEXT
  8
0
  6
CONTINUOUS
 62
     2
 10
1024.72
 20
1308.32
 30
0.96
 40
14.4
  1
ＭＣＬＥ１Ｂ２－　　６ＪＬ
 50
0.0
 41
0.833333333
 51
0.0
  7
KANJI71
  0
TEXT
  8
0
  6
CONTINUOUS
 62
     2
 10
1024.72
 20
1274.72
 30
0.96
 40
14.4
  1
ＭＣＬＥ１Ｂ２－　　７ＪＬ
 50
0.0
 41
0.833333333
 51
0.0
  7
KANJI71
  0
TEXT
  8
0
  6
CONTINUOUS
 62
     2
 10
1024.72
 20
1241.12
 30
0.96
 40
14.4
  1
ＭＣＬＥ１Ｂ２－　　８ＪＬ
 50
0.0
 41
0.833333333
 51
0.0
  7
KANJI71
  0
TEXT
  8
0
  6
CONTINUOUS
 62
     2
 10
1024.72
 20
1207.52
 30
0.96
 40
14.4
  1
ＭＣＬＥ１Ｂ２－　　９ＪＬ
 50
0.0
 41
0.833333333
 51
0.0
  7
KANJI71
  0
TEXT
  8
0
  6
CONTINUOUS
 62
     2
 10
1024.72
 20
1173.92
 30
0.96
 40
14.4
  1
ＭＣＬＥ１Ｂ２ー　１０ＪＬ
 50
0.0
 41
0.833333333
 51
0.0
  7
KANJI71
  0
TEXT
  8
0
  6
CONTINUOUS
 62
     2
 10
1024.72
 20
1140.52
 30
0.96
 40
14.4
  1
ＭＣＬＥ１Ｂ２－　１１ＪＬ
 50
0.0
 41
0.833333333
 51
0.0
  7
KANJI71
  0
TEXT
  8
0
  6
CONTINUOUS
 62
     2
 10
1024.72
 20
1106.92
 30
0.96
 40
14.4
  1
ＭＣＬＥ１Ｂ２－　１２ＪＬ
 50
0.0
 41
0.833333333
 51
0.0
  7
KANJI71
  0
TEXT
  8
0
  6
CONTINUOUS
 62
     2
 10
1024.72
 20
1073.12
 30
0.96
 40
14.4
  1
ＭＣＬＥ１Ｂ２－　　　ＪＬ
 50
0.0
 41
0.833333333
 51
0.0
  7
KANJI71
  0
TEXT
  8
0
  6
CONTINUOUS
 62
     2
 10
1712.32
 20
1443.08
 30
1.44
 40
14.4
  1
　８０
 50
0.0
 41
0.9
 51
0.0
  7
KANJI25
  0
TEXT
  8
0
  6
CONTINUOUS
 62
     2
 10
1712.32
 20
1409.48
 30
1.44
 40
14.4
  1
　８２
 50
0.0
 41
0.9
 51
0.0
  7
KANJI25
  0
TEXT
  8
0
  6
CONTINUOUS
 62
     2
 10
1712.32
 20
1375.88
 30
1.44
 40
14.4
  1
　８４
 50
0.0
 41
0.9
 51
0.0
  7
KANJI25
  0
TEXT
  8
0
  6
CONTINUOUS
 62
     2
 10
1712.32
 20
1342.28
 30
1.44
 40
14.4
  1
　８７
 50
0.0
 41
0.9
 51
0.0
  7
KANJI25
  0
TEXT
  8
0
  6
CONTINUOUS
 62
     2
 10
1712.32
 20
1308.68
 30
1.44
 40
14.4
  1
　９１
 50
0.0
 41
0.9
 51
0.0
  7
KANJI25
  0
TEXT
  8
0
  6
CONTINUOUS
 62
     2
 10
1712.32
 20
1275.08
 30
1.44
 40
14.4
  1
　９３
 50
0.0
 41
0.9
 51
0.0
  7
KANJI25
  0
TEXT
  8
0
  6
CONTINUOUS
 62
     2
 10
1712.32
 20
1241.48
 30
1.44
 40
14.4
  1
　９５
 50
0.0
 41
0.9
 51
0.0
  7
KANJI25
  0
TEXT
  8
0
  6
CONTINUOUS
 62
     2
 10
1712.32
 20
1207.88
 30
1.44
 40
14.4
  1
　９６
 50
0.0
 41
0.9
 51
0.0
  7
KANJI25
  0
TEXT
  8
0
  6
CONTINUOUS
 62
     2
 10
1712.32
 20
1174.28
 30
1.44
 40
14.4
  1
　９８
 50
0.0
 41
0.9
 51
0.0
  7
KANJI25
  0
TEXT
  8
0
  6
CONTINUOUS
 62
     2
 10
1712.32
 20
1140.88
 30
1.44
 40
14.4
  1
１００
 50
0.0
 41
0.9
 51
0.0
  7
KANJI25
  0
TEXT
  8
0
  6
CONTINUOUS
 62
     2
 10
1712.32
 20
1107.28
 30
1.44
 40
14.4
  1
１０２
 50
0.0
 41
0.9
 51
0.0
  7
KANJI25
  0
TEXT
  8
0
  6
CONTINUOUS
 62
     2
 10
2158.42
 20
1547.6
 30
1.2
 40
18.0
  1
ＭＣＬＥ１Ｂ２－　ＪＬ
 50
0.0
 41
0.833333333
 51
0.0
  7
KANJI72
  0
TEXT
  8
0
  6
CONTINUOUS
 62
     2
 10
1856.92
 20
262.7
 30
0.0
 40
21.0
  1
ＭＣＬＥ１Ｂ２－ＪＬ
 50
0.0
 41
0.793650794
 51
0.0
  7
KANJI73
  0
TEXT
  8
0
  6
CONTINUOUS
 62
     2
 10
1971.7200334
 20
166.699994
 30
13.0
 40
30.0
  1
３００２７５１
 50
0.0
 41
0.8
 51
0.0
  7
KANJI74
  0
LINE
  8
0
  6
CONTINUOUS
 62
     2
 10
1724.32
 20
717.5
 11
1868.32
 21
717.5
  0
TEXT
  8
0
  6
CONTINUOUS
 62
     2
 10
1736.92
 20
725.9
 30
12.0
 40
24.0
  1
特記事項
 50
0.0
 41
0.9
 51
0.0
  7
KANJI75
  0
TEXT
  8
0
  6
CONTINUOUS
 62
     2
 10
1730.92
 20
606.2
 30
1.8
 40
21.0
  1
３．ＬＳユニット
 50
0.0
 41
0.857142857
 51
0.0
  7
KANJI76
  0
TEXT
  8
0
  6
CONTINUOUS
 62
     2
 10
1730.92
 20
681.2
 30
1.8
 40
21.0
  1
１．運転時は必ずピストンロッドの回転防止を行って下さい。
 50
0.0
 41
0.857142857
 51
0.0
  7
KANJI76
  0
TEXT
  8
0
  6
CONTINUOUS
 62
     2
 10
1730.92
 20
643.7
 30
1.8
 40
21.0
  1
２．モートル：全閉自冷かご形３０分定格
 50
0.0
 41
0.857142857
 51
0.0
  7
KANJI76
  0
TEXT
  8
0
  6
CONTINUOUS
 62
     2
 10
1730.92
 20
513.2
 30
1.8
 40
21.0
  1
４．呼称ストロークは、機械的ストロークです。
 50
0.0
 41
0.857142857
 51
0.0
  7
KANJI76
  0
TEXT
  8
0
  6
CONTINUOUS
 62
     2
 10
1730.92
 20
546.2
 30
1.8
 40
21.0
  1
　　ストローク７００ｍｍ以上の場合２ロッド方式となります。
 50
0.0
 41
0.857142857
 51
0.0
  7
KANJI76
  0
TEXT
  8
0
  6
CONTINUOUS
 62
     2
 10
1730.92
 20
576.2
 30
1.8
 40
21.0
  1
　　リミットスイッチ：１ＬＳ１－Ｊｘ２ケ（山武）
 50
0.0
 41
0.857142857
 51
0.0
  7
KANJI76
  0
TEXT
  8
0
  6
CONTINUOUS
 62
     2
 10
1730.92
 20
476.24
 30
1.8
 40
21.0
  1
　　必ず、常用はストローク両端に必ず余裕を取って下さい。
 50
0.0
 41
0.857142857
 51
0.0
  7
KANJI76
  0
TEXT
  8
0
  6
CONTINUOUS
 62
     2
 10
1730.92
 20
438.464
 30
1.8
 40
21.0
  1
　　前後の推奨余裕寸法は、各々５０ｍｍです。
 50
0.0
 41
0.857142857
 51
0.0
  7
KANJI76
  0
TEXT
  8
0
  6
CONTINUOUS
 62
     2
 10
119.332591263
 20
275.911507451
 30
0.0
 40
20.0
  1
推力リミッタの作動値は、約１２００ｋｇ（設計値）
 50
0.0
 41
0.925
 51
0.0
  7
KANJI62
  0
LINE
  8
0
  6
CONTINUOUS
 62
     2
 10
117.332591263
 20
267.911507451
 11
544.54
 21
267.911507451
  0
TEXT
  8
0
  6
CONTINUOUS
 62
     6
 10
148.19234898
 20
1364.165383027
 30
1.82231734
 40
18.223173404
  1
クイックブレーキモータ
 50
0.0
 41
0.66671875
 51
0.0
  7
KANJI77
  0
CIRCLE
  8
0
  6
CONTINUOUS
 62
     6
 10
192.633781323
 20
1302.198025404
 40
21.6
  0
TEXT
  8
0
  6
CONTINUOUS
 62
     6
 10
183.561781323
 20
1291.830025404
 30
2.16
 40
21.6
  1
Ｍ
 50
0.0
 41
0.9
 51
0.0
  7
KANJI78
  0
LINE
  8
0
  6
CONTINUOUS
 62
     6
 10
164.121781323
 20
1271.958025404
 11
177.513781323
 21
1287.510025404
  0
LINE
  8
0
  6
CONTINUOUS
 62
     6
 10
164.121781323
 20
1332.438025404
 11
177.513781323
 21
1316.886025404
  0
CIRCLE
  8
0
  6
CONTINUOUS
 62
     6
 10
139.497781323
 20
1332.438025404
 40
5.184
  0
LINE
  8
0
  6
CONTINUOUS
 62
     6
 10
133.541885208
 20
1326.482129288
 11
145.637885208
 21
1338.578129288
  0
CIRCLE
  8
0
  6
CONTINUOUS
 62
     6
 10
139.497781323
 20
1302.198025404
 40
5.184
  0
LINE
  8
0
  6
CONTINUOUS
 62
     6
 10
133.541885208
 20
1296.242129288
 11
145.637885208
 21
1308.338129288
  0
CIRCLE
  8
0
  6
CONTINUOUS
 62
     6
 10
139.497781323
 20
1271.958025404
 40
5.184
  0
LINE
  8
0
  6
CONTINUOUS
 62
     6
 10
133.541885208
 20
1266.002129288
 11
145.637885208
 21
1278.098129288
  0
LINE
  8
0
  6
CONTINUOUS
 62
     6
 10
164.121781323
 20
1332.438025404
 11
144.681781323
 21
1332.438025404
  0
LINE
  8
0
  6
CONTINUOUS
 62
     6
 10
171.465781323
 20
1302.198025404
 11
144.681781323
 21
1302.198025404
  0
LINE
  8
0
  6
CONTINUOUS
 62
     6
 10
164.121781323
 20
1271.958025404
 11
144.681781323
 21
1271.958025404
  0
LINE
  8
0
  6
LTYPE2
 62
     6
 10
139.497781323
 20
1355.766025404
 11
139.497781323
 21
1336.326025404
  0
LINE
  8
0
  6
LTYPE2
 62
     6
 10
139.497781323
 20
1327.686025404
 11
139.497781323
 21
1306.086025404
  0
LINE
  8
0
  6
LTYPE2
 62
     6
 10
139.497781323
 20
1297.446025404
 11
139.497781323
 21
1276.278025404
  0
TEXT
  8
0
  6
CONTINUOUS
 62
     6
 10
118.713781323
 20
1339.782025404
 30
1.296
 40
12.96
  1
Ｕ
 50
0.0
 41
0.9
 51
0.0
  7
KANJI79
  0
TEXT
  8
0
  6
CONTINUOUS
 62
     6
 10
120.009781323
 20
1309.110025404
 30
1.296
 40
12.96
  1
Ｖ
 50
0.0
 41
0.9
 51
0.0
  7
KANJI79
  0
TEXT
  8
0
  6
CONTINUOUS
 62
     6
 10
121.305781323
 20
1278.438025404
 30
1.296
 40
12.96
  1
Ｗ
 50
0.0
 41
0.9
 51
0.0
  7
KANJI79
  0
LINE
  8
0
  6
LTYPE2
 62
     6
 10
294.057781323
 20
1355.766025404
 11
139.497781323
 21
1355.766025404
  0
TEXT
  8
0
  6
CONTINUOUS
 62
     6
 10
223.737781323
 20
1292.413225404
 30
1.728
 40
17.28
  1
Ｂ
 50
0.0
 41
0.9
 51
0.0
  7
KANJI80
  0
CIRCLE
  8
0
  6
CONTINUOUS
 62
     6
 10
231.513781323
 20
1302.198025404
 40
17.28
  0
LINE
  8
0
  6
CONTINUOUS
 62
     6
 10
259.113781323
 20
1271.785225404
 11
240.134765754
 21
1287.222143879
  0
LINE
  8
0
  6
CONTINUOUS
 62
     6
 10
222.529106398
 20
1287.437469301
 11
203.433781323
 21
1271.785225404
  0
CIRCLE
  8
0
  6
CONTINUOUS
 62
     6
 10
203.433781323
 20
1222.753225404
 40
5.184
  0
LINE
  8
0
  6
CONTINUOUS
 62
     6
 10
197.477885208
 20
1216.797329288
 11
209.573885208
 21
1228.893329288
  0
CIRCLE
  8
0
  6
CONTINUOUS
 62
     6
 10
231.273781323
 20
1222.753225404
 40
5.184
  0
LINE
  8
0
  6
CONTINUOUS
 62
     6
 10
225.317885208
 20
1216.797329288
 11
237.413885208
 21
1228.893329288
  0
LINE
  8
0
  6
LTYPE2
 62
     6
 10
208.617781323
 20
1222.753225404
 11
225.993781323
 21
1222.753225404
  0
CIRCLE
  8
0
  6
CONTINUOUS
 62
     6
 10
259.113781323
 20
1222.753225404
 40
5.184
  0
LINE
  8
0
  6
CONTINUOUS
 62
     6
 10
253.157885208
 20
1216.797329288
 11
265.253885208
 21
1228.893329288
  0
LINE
  8
0
  6
LTYPE2
 62
     6
 10
236.073781323
 20
1222.753225404
 11
254.313781323
 21
1222.753225404
  0
TEXT
  8
0
  6
CONTINUOUS
 62
     6
 10
216.537781323
 20
1225.585225404
 30
1.296
 40
12.96
  1
ｖ
 50
0.0
 41
0.9
 51
0.0
  7
KANJI79
  0
TEXT
  8
0
  6
CONTINUOUS
 62
     6
 10
244.377781323
 20
1225.585225404
 30
1.296
 40
12.96
  1
ｗ
 50
0.0
 41
0.9
 51
0.0
  7
KANJI79
  0
TEXT
  8
0
  6
CONTINUOUS
 62
     6
 10
189.513781323
 20
1226.449225404
 30
1.296
 40
12.96
  1
ｕ
 50
0.0
 41
0.9
 51
0.0
  7
KANJI79
  0
LINE
  8
0
  6
CONTINUOUS
 62
     6
 10
203.433781323
 20
1227.937225404
 11
203.433781323
 21
1271.785225404
  0
LINE
  8
0
  6
CONTINUOUS
 62
     6
 10
231.273781323
 20
1227.937225404
 11
231.273781323
 21
1285.206025404
  0
LINE
  8
0
  6
CONTINUOUS
 62
     6
 10
259.113781323
 20
1227.937225404
 11
259.113781323
 21
1271.785225404
  0
LINE
  8
0
  6
LTYPE2
 62
     6
 10
264.873781323
 20
1222.753225404
 11
294.057781323
 21
1222.753225404
  0
LINE
  8
0
  6
LTYPE2
 62
     6
 10
294.057781323
 20
1222.753225404
 11
294.057781323
 21
1355.766025404
  0
LINE
  8
0
  6
LTYPE2
 62
     6
 10
139.497781323
 20
1222.753225404
 11
198.249781323
 21
1222.753225404
  0
LINE
  8
0
  6
LTYPE2
 62
     6
 10
139.497781323
 20
1266.774025404
 11
139.497781323
 21
1222.753225404
  0
TEXT
  8
0
  6
CONTINUOUS
 62
     2
 10
155.912253361
 20
1187.720711177
 30
0.0
 40
18.72
  1
モーター結線図
 50
0.0
 41
0.925
 51
0.0
  7
KANJI81
  0
ENDSEC
  0
EOF
