  0
SECTION
  2
HEADER
  9
$EXTMIN
 10
0.0
 20
0.0
 30
0.0
  9
$EXTMAX
 10
2520.0
 20
1782.0
 30
0.0
  9
$LIMMIN
 10
0.0
 20
0.0
  9
$LIMMAX
 10
2520.0
 20
1782.0
  9
$LTSCALE
 40
1.0
  9
$PDMODE
 70
     0
  0
ENDSEC
  0
SECTION
  2
TABLES
  0
TABLE
  2
LTYPE
 70
     7
  0
LTYPE
  2
CONTINUOUS
 70
    64
  3
Solid line
 72
    65
 73
     0
 40
0.0
  0
LTYPE
  2
LTYPE1
 70
    64
  3
HIDDEN
 72
    65
 73
     2
 40
18.0
 49
10.8
 49
-7.2
  0
LTYPE
  2
LTYPE2
 70
    64
  3
CENTER
 72
    65
 73
     4
 40
60.0
 49
42.0
 49
-6.0
 49
6.0
 49
-6.0
  0
LTYPE
  2
LTYPE3
 70
    64
  3
CENTER
 72
    65
 73
     4
 40
90.0
 49
63.0
 49
-9.0
 49
9.0
 49
-9.0
  0
LTYPE
  2
LTYPE4
 70
    64
  3
CENTER
 72
    65
 73
     4
 40
54.0
 49
37.8
 49
-5.4
 49
5.4
 49
-5.4
  0
LTYPE
  2
LTYPE5
 70
    64
  3
CENTER
 72
    65
 73
     4
 40
120.0
 49
84.0
 49
-12.0
 49
12.0
 49
-12.0
  0
LTYPE
  2
LTYPE6
 70
    64
  3
PHANTOM
 72
    65
 73
     6
 40
90.0
 49
67.5
 49
-4.5
 49
4.5
 49
-4.5
 49
4.5
 49
-4.5
  0
ENDTAB
  0
TABLE
  2
LAYER
 70
   128
  0
LAYER
  2
0
 70
     0
 62
     7
  6
CONTINUOUS
  0
LAYER
  2
2
 70
     0
 62
     7
  6
CONTINUOUS
  0
LAYER
  2
3
 70
     0
 62
     7
  6
CONTINUOUS
  0
LAYER
  2
4
 70
     0
 62
     7
  6
CONTINUOUS
  0
LAYER
  2
5
 70
     0
 62
     7
  6
CONTINUOUS
  0
LAYER
  2
6
 70
     0
 62
     7
  6
CONTINUOUS
  0
LAYER
  2
7
 70
     0
 62
     7
  6
CONTINUOUS
  0
LAYER
  2
8
 70
     0
 62
     7
  6
CONTINUOUS
  0
LAYER
  2
9
 70
     0
 62
     7
  6
CONTINUOUS
  0
LAYER
  2
10
 70
     0
 62
     7
  6
CONTINUOUS
  0
LAYER
  2
11
 70
     0
 62
     7
  6
CONTINUOUS
  0
LAYER
  2
12
 70
     0
 62
     7
  6
CONTINUOUS
  0
LAYER
  2
13
 70
     0
 62
     7
  6
CONTINUOUS
  0
LAYER
  2
14
 70
     0
 62
     7
  6
CONTINUOUS
  0
LAYER
  2
15
 70
     0
 62
     7
  6
CONTINUOUS
  0
LAYER
  2
16
 70
     0
 62
     7
  6
CONTINUOUS
  0
LAYER
  2
17
 70
     0
 62
     7
  6
CONTINUOUS
  0
LAYER
  2
18
 70
     0
 62
     7
  6
CONTINUOUS
  0
LAYER
  2
19
 70
     0
 62
     7
  6
CONTINUOUS
  0
LAYER
  2
20
 70
     0
 62
     7
  6
CONTINUOUS
  0
LAYER
  2
21
 70
     0
 62
     7
  6
CONTINUOUS
  0
LAYER
  2
22
 70
     0
 62
     7
  6
CONTINUOUS
  0
LAYER
  2
23
 70
     0
 62
     7
  6
CONTINUOUS
  0
LAYER
  2
24
 70
     0
 62
     7
  6
CONTINUOUS
  0
LAYER
  2
25
 70
     0
 62
     7
  6
CONTINUOUS
  0
LAYER
  2
26
 70
     0
 62
     7
  6
CONTINUOUS
  0
LAYER
  2
27
 70
     0
 62
     7
  6
CONTINUOUS
  0
LAYER
  2
28
 70
     0
 62
     7
  6
CONTINUOUS
  0
LAYER
  2
29
 70
     0
 62
     7
  6
CONTINUOUS
  0
LAYER
  2
30
 70
     0
 62
     7
  6
CONTINUOUS
  0
LAYER
  2
31
 70
     0
 62
     7
  6
CONTINUOUS
  0
LAYER
  2
32
 70
     0
 62
     7
  6
CONTINUOUS
  0
LAYER
  2
33
 70
     0
 62
     7
  6
CONTINUOUS
  0
LAYER
  2
34
 70
     0
 62
     7
  6
CONTINUOUS
  0
LAYER
  2
35
 70
     0
 62
     7
  6
CONTINUOUS
  0
LAYER
  2
36
 70
     0
 62
     7
  6
CONTINUOUS
  0
LAYER
  2
37
 70
     0
 62
     7
  6
CONTINUOUS
  0
LAYER
  2
38
 70
     0
 62
     7
  6
CONTINUOUS
  0
LAYER
  2
39
 70
     0
 62
     7
  6
CONTINUOUS
  0
LAYER
  2
40
 70
     0
 62
     7
  6
CONTINUOUS
  0
LAYER
  2
41
 70
     0
 62
     7
  6
CONTINUOUS
  0
LAYER
  2
42
 70
     0
 62
     7
  6
CONTINUOUS
  0
LAYER
  2
43
 70
     0
 62
     7
  6
CONTINUOUS
  0
LAYER
  2
44
 70
     0
 62
     7
  6
CONTINUOUS
  0
LAYER
  2
45
 70
     0
 62
     7
  6
CONTINUOUS
  0
LAYER
  2
46
 70
     0
 62
     7
  6
CONTINUOUS
  0
LAYER
  2
47
 70
     0
 62
     7
  6
CONTINUOUS
  0
LAYER
  2
48
 70
     0
 62
     7
  6
CONTINUOUS
  0
LAYER
  2
49
 70
     0
 62
     7
  6
CONTINUOUS
  0
LAYER
  2
50
 70
     0
 62
     7
  6
CONTINUOUS
  0
LAYER
  2
51
 70
     0
 62
     7
  6
CONTINUOUS
  0
LAYER
  2
52
 70
     0
 62
     7
  6
CONTINUOUS
  0
LAYER
  2
53
 70
     0
 62
     7
  6
CONTINUOUS
  0
LAYER
  2
54
 70
     0
 62
     7
  6
CONTINUOUS
  0
LAYER
  2
55
 70
     0
 62
     7
  6
CONTINUOUS
  0
LAYER
  2
56
 70
     0
 62
     7
  6
CONTINUOUS
  0
LAYER
  2
57
 70
     0
 62
     7
  6
CONTINUOUS
  0
LAYER
  2
58
 70
     0
 62
     7
  6
CONTINUOUS
  0
LAYER
  2
59
 70
     0
 62
     7
  6
CONTINUOUS
  0
LAYER
  2
60
 70
     0
 62
     7
  6
CONTINUOUS
  0
LAYER
  2
61
 70
     0
 62
     7
  6
CONTINUOUS
  0
LAYER
  2
62
 70
     0
 62
     7
  6
CONTINUOUS
  0
LAYER
  2
63
 70
     0
 62
     7
  6
CONTINUOUS
  0
LAYER
  2
64
 70
     0
 62
     7
  6
CONTINUOUS
  0
LAYER
  2
65
 70
     0
 62
     7
  6
CONTINUOUS
  0
LAYER
  2
66
 70
     0
 62
     7
  6
CONTINUOUS
  0
LAYER
  2
67
 70
     0
 62
     7
  6
CONTINUOUS
  0
LAYER
  2
68
 70
     0
 62
     7
  6
CONTINUOUS
  0
LAYER
  2
69
 70
     0
 62
     7
  6
CONTINUOUS
  0
LAYER
  2
70
 70
     0
 62
     7
  6
CONTINUOUS
  0
LAYER
  2
71
 70
     0
 62
     7
  6
CONTINUOUS
  0
LAYER
  2
72
 70
     0
 62
     7
  6
CONTINUOUS
  0
LAYER
  2
73
 70
     0
 62
     7
  6
CONTINUOUS
  0
LAYER
  2
74
 70
     0
 62
     7
  6
CONTINUOUS
  0
LAYER
  2
75
 70
     0
 62
     7
  6
CONTINUOUS
  0
LAYER
  2
76
 70
     0
 62
     7
  6
CONTINUOUS
  0
LAYER
  2
77
 70
     0
 62
     7
  6
CONTINUOUS
  0
LAYER
  2
78
 70
     0
 62
     7
  6
CONTINUOUS
  0
LAYER
  2
79
 70
     0
 62
     7
  6
CONTINUOUS
  0
LAYER
  2
80
 70
     0
 62
     7
  6
CONTINUOUS
  0
LAYER
  2
81
 70
     0
 62
     7
  6
CONTINUOUS
  0
LAYER
  2
82
 70
     0
 62
     7
  6
CONTINUOUS
  0
LAYER
  2
83
 70
     0
 62
     7
  6
CONTINUOUS
  0
LAYER
  2
84
 70
     0
 62
     7
  6
CONTINUOUS
  0
LAYER
  2
85
 70
     0
 62
     7
  6
CONTINUOUS
  0
LAYER
  2
86
 70
     0
 62
     7
  6
CONTINUOUS
  0
LAYER
  2
87
 70
     0
 62
     7
  6
CONTINUOUS
  0
LAYER
  2
88
 70
     0
 62
     7
  6
CONTINUOUS
  0
LAYER
  2
89
 70
     0
 62
     7
  6
CONTINUOUS
  0
LAYER
  2
90
 70
     0
 62
     7
  6
CONTINUOUS
  0
LAYER
  2
91
 70
     0
 62
     7
  6
CONTINUOUS
  0
LAYER
  2
92
 70
     0
 62
     7
  6
CONTINUOUS
  0
LAYER
  2
93
 70
     0
 62
     7
  6
CONTINUOUS
  0
LAYER
  2
94
 70
     0
 62
     7
  6
CONTINUOUS
  0
LAYER
  2
95
 70
     0
 62
     7
  6
CONTINUOUS
  0
LAYER
  2
96
 70
     0
 62
     7
  6
CONTINUOUS
  0
LAYER
  2
97
 70
     0
 62
     7
  6
CONTINUOUS
  0
LAYER
  2
98
 70
     0
 62
     7
  6
CONTINUOUS
  0
LAYER
  2
99
 70
     0
 62
     7
  6
CONTINUOUS
  0
LAYER
  2
100
 70
     0
 62
     7
  6
CONTINUOUS
  0
LAYER
  2
101
 70
     0
 62
     7
  6
CONTINUOUS
  0
LAYER
  2
102
 70
     0
 62
     7
  6
CONTINUOUS
  0
LAYER
  2
103
 70
     0
 62
     7
  6
CONTINUOUS
  0
LAYER
  2
104
 70
     0
 62
     7
  6
CONTINUOUS
  0
LAYER
  2
105
 70
     0
 62
     7
  6
CONTINUOUS
  0
LAYER
  2
106
 70
     0
 62
     7
  6
CONTINUOUS
  0
LAYER
  2
107
 70
     0
 62
     7
  6
CONTINUOUS
  0
LAYER
  2
108
 70
     0
 62
     7
  6
CONTINUOUS
  0
LAYER
  2
109
 70
     0
 62
     7
  6
CONTINUOUS
  0
LAYER
  2
110
 70
     0
 62
     7
  6
CONTINUOUS
  0
LAYER
  2
111
 70
     0
 62
     7
  6
CONTINUOUS
  0
LAYER
  2
112
 70
     0
 62
     7
  6
CONTINUOUS
  0
LAYER
  2
113
 70
     0
 62
     7
  6
CONTINUOUS
  0
LAYER
  2
114
 70
     0
 62
     7
  6
CONTINUOUS
  0
LAYER
  2
115
 70
     0
 62
     7
  6
CONTINUOUS
  0
LAYER
  2
116
 70
     0
 62
     7
  6
CONTINUOUS
  0
LAYER
  2
117
 70
     0
 62
     7
  6
CONTINUOUS
  0
LAYER
  2
118
 70
     0
 62
     7
  6
CONTINUOUS
  0
LAYER
  2
119
 70
     0
 62
     7
  6
CONTINUOUS
  0
LAYER
  2
120
 70
     0
 62
     7
  6
CONTINUOUS
  0
LAYER
  2
121
 70
     0
 62
     7
  6
CONTINUOUS
  0
LAYER
  2
122
 70
     0
 62
     7
  6
CONTINUOUS
  0
LAYER
  2
123
 70
     0
 62
     7
  6
CONTINUOUS
  0
LAYER
  2
124
 70
     0
 62
     7
  6
CONTINUOUS
  0
LAYER
  2
125
 70
     0
 62
     7
  6
CONTINUOUS
  0
LAYER
  2
126
 70
     0
 62
     7
  6
CONTINUOUS
  0
LAYER
  2
127
 70
     0
 62
     7
  6
CONTINUOUS
  0
LAYER
  2
128
 70
     0
 62
     7
  6
CONTINUOUS
  0
ENDTAB
  0
TABLE
  2
STYLE
 70
    81
  0
STYLE
  2
STANDARD
 70
     0
 40
0.0
 41
1.0
 50
0.0
 71
     0
 42
0.2
  3
txt
  4

  0
STYLE
  2
KANJI0
 70
     0
 40
15.5999988
 41
0.75
 50
0.0
 71
     0
 42
15.5999988
  3

  4
bigfont
  0
STYLE
  2
KANJI1
 70
     0
 40
11.999997477
 41
0.6
 50
0.0
 71
     0
 42
11.999997477
  3

  4
bigfont
  0
STYLE
  2
KANJI2
 70
     0
 40
14.399996972
 41
0.9
 50
0.0
 71
     0
 42
14.399996972
  3

  4
bigfont
  0
STYLE
  2
KANJI3
 70
     0
 40
17.999996215
 41
0.9
 50
0.0
 71
     0
 42
17.999996215
  3

  4
bigfont
  0
STYLE
  2
KANJI4
 70
     0
 40
10.3999992
 41
0.6
 50
0.0
 71
     0
 42
10.3999992
  3

  4
bigfont
  0
STYLE
  2
KANJI5
 70
     0
 40
12.47999904
 41
0.6
 50
0.0
 71
     0
 42
12.47999904
  3

  4
bigfont
  0
STYLE
  2
KANJI6
 70
     0
 40
18.1999986
 41
0.42031746
 50
0.0
 71
     0
 42
18.1999986
  3

  4
bigfont
  0
STYLE
  2
KANJI7
 70
     0
 40
31.1999976
 41
0.9
 50
0.0
 71
     0
 42
31.1999976
  3

  4
bigfont
  0
STYLE
  2
KANJI8
 70
     0
 40
21.6
 41
1.111111111
 50
0.0
 71
     0
 42
21.6
  3

  4
bigfont
  0
STYLE
  2
KANJI9
 70
     0
 40
10.3999992
 41
0.8
 50
0.0
 71
     0
 42
10.3999992
  3

  4
bigfont
  0
STYLE
  2
KANJI10
 70
     0
 40
12.47999904
 41
0.8
 50
0.0
 71
     0
 42
12.47999904
  3

  4
bigfont
  0
STYLE
  2
KANJI11
 70
     0
 40
30.0
 41
1.0
 50
0.0
 71
     0
 42
30.0
  3

  4
bigfont
  0
STYLE
  2
KANJI12
 70
     0
 40
30.0
 41
1.0
 50
0.0
 71
     0
 42
30.0
  3

  4
bigfont
  0
STYLE
  2
KANJI13
 70
     0
 40
30.0
 41
0.8
 50
0.0
 71
     0
 42
30.0
  3

  4
bigfont
  0
STYLE
  2
KANJI14
 70
     0
 40
24.0
 41
1.0
 50
0.0
 71
     0
 42
24.0
  3

  4
bigfont
  0
STYLE
  2
KANJI15
 70
     0
 40
21.0
 41
0.857142857
 50
0.0
 71
     0
 42
21.0
  3

  4
bigfont
  0
STYLE
  2
KANJI16
 70
     0
 40
27.0
 41
0.666666667
 50
0.0
 71
     0
 42
27.0
  3

  4
bigfont
  0
STYLE
  2
KANJI17
 70
     0
 40
18.0
 41
0.9
 50
0.0
 71
     0
 42
18.0
  3

  4
bigfont
  0
STYLE
  2
KANJI18
 70
     0
 40
13.182
 41
0.85
 50
0.0
 71
     0
 42
13.182
  3

  4
bigfont
  0
STYLE
  2
KANJI19
 70
     0
 40
11.661
 41
0.822608696
 50
0.0
 71
     0
 42
11.661
  3

  4
bigfont
  0
STYLE
  2
KANJI20
 70
     0
 40
11.8638
 41
0.726495726
 50
0.0
 71
     0
 42
11.8638
  3

  4
bigfont
  0
STYLE
  2
KANJI21
 70
     4
 40
45.0
 41
0.538166667
 50
0.0
 71
     0
 42
45.0
  3

  4
bigfont
  0
STYLE
  2
KANJI22
 70
     0
 40
17.740702234
 41
0.880962996
 50
0.0
 71
     0
 42
17.740702234
  3

  4
bigfont
  0
STYLE
  2
KANJI23
 70
     0
 40
11.7
 41
0.8
 50
0.0
 71
     0
 42
11.7
  3

  4
bigfont
  0
STYLE
  2
KANJI24
 70
     0
 40
15.0
 41
0.911
 50
0.0
 71
     0
 42
15.0
  3

  4
bigfont
  0
STYLE
  2
KANJI25
 70
     0
 40
20.0
 41
0.925
 50
0.0
 71
     0
 42
20.0
  3

  4
bigfont
  0
STYLE
  2
KANJI26
 70
     0
 40
20.0
 41
0.925
 50
0.0
 71
     0
 42
20.0
  3

  4
bigfont
  0
STYLE
  2
KANJI27
 70
     0
 40
15.0
 41
0.9
 50
0.0
 71
     0
 42
15.0
  3

  4
bigfont
  0
STYLE
  2
KANJI28
 70
     0
 40
24.0
 41
0.9
 50
0.0
 71
     0
 42
24.0
  3

  4
bigfont
  0
STYLE
  2
KANJI29
 70
     0
 40
21.6
 41
0.857142857
 50
0.0
 71
     0
 42
21.6
  3

  4
bigfont
  0
STYLE
  2
KANJI30
 70
     0
 40
21.6
 41
0.857222222
 50
0.0
 71
     0
 42
21.6
  3

  4
bigfont
  0
STYLE
  2
KANJI31
 70
     0
 40
15.36
 41
0.9
 50
0.0
 71
     0
 42
15.36
  3

  4
bigfont
  0
STYLE
  2
KANJI32
 70
     0
 40
14.4
 41
0.9
 50
0.0
 71
     0
 42
14.4
  3

  4
bigfont
  0
STYLE
  2
KANJI33
 70
     0
 40
14.4
 41
0.9
 50
0.0
 71
     0
 42
14.4
  3

  4
bigfont
  0
STYLE
  2
KANJI34
 70
     0
 40
16.8
 41
0.9
 50
0.0
 71
     0
 42
16.8
  3

  4
bigfont
  0
STYLE
  2
KANJI35
 70
     0
 40
12.96
 41
0.740740741
 50
0.0
 71
     0
 42
12.96
  3

  4
bigfont
  0
STYLE
  2
KANJI36
 70
     0
 40
16.8
 41
0.857142857
 50
0.0
 71
     0
 42
16.8
  3

  4
bigfont
  0
STYLE
  2
KANJI37
 70
     0
 40
22.8
 41
0.9
 50
0.0
 71
     0
 42
22.8
  3

  4
bigfont
  0
STYLE
  2
KANJI38
 70
     0
 40
22.8
 41
0.9
 50
0.0
 71
     0
 42
22.8
  3

  4
bigfont
  0
STYLE
  2
KANJI39
 70
     0
 40
27.0
 41
0.9
 50
0.0
 71
     0
 42
27.0
  3

  4
bigfont
  0
STYLE
  2
KANJI40
 70
     0
 40
22.8
 41
0.9
 50
0.0
 71
     0
 42
22.8
  3

  4
bigfont
  0
STYLE
  2
KANJI41
 70
     0
 40
22.8
 41
0.9
 50
0.0
 71
     0
 42
22.8
  3

  4
bigfont
  0
STYLE
  2
KANJI42
 70
     0
 40
22.8
 41
0.9
 50
0.0
 71
     0
 42
22.8
  3

  4
bigfont
  0
STYLE
  2
KANJI43
 70
     0
 40
22.8
 41
0.9
 50
0.0
 71
     0
 42
22.8
  3

  4
bigfont
  0
STYLE
  2
KANJI44
 70
     0
 40
22.8
 41
0.9
 50
0.0
 71
     0
 42
22.8
  3

  4
bigfont
  0
STYLE
  2
KANJI45
 70
     0
 40
22.8
 41
0.9
 50
0.0
 71
     0
 42
22.8
  3

  4
bigfont
  0
STYLE
  2
KANJI46
 70
     4
 40
21.0
 41
0.9
 50
0.0
 71
     0
 42
21.0
  3

  4
bigfont
  0
STYLE
  2
KANJI47
 70
     4
 40
21.0
 41
0.9
 50
0.0
 71
     0
 42
21.0
  3

  4
bigfont
  0
STYLE
  2
KANJI48
 70
     0
 40
21.0
 41
0.9
 50
0.0
 71
     0
 42
21.0
  3

  4
bigfont
  0
STYLE
  2
KANJI49
 70
     0
 40
18.0
 41
0.9
 50
0.0
 71
     0
 42
18.0
  3

  4
bigfont
  0
STYLE
  2
KANJI50
 70
     0
 40
21.0
 41
0.9
 50
0.0
 71
     0
 42
21.0
  3

  4
bigfont
  0
STYLE
  2
KANJI51
 70
     0
 40
22.8
 41
0.9
 50
0.0
 71
     0
 42
22.8
  3

  4
bigfont
  0
STYLE
  2
KANJI52
 70
     0
 40
22.8
 41
0.9
 50
0.0
 71
     0
 42
22.8
  3

  4
bigfont
  0
STYLE
  2
KANJI53
 70
     0
 40
21.0
 41
0.628571429
 50
0.0
 71
     0
 42
21.0
  3

  4
bigfont
  0
STYLE
  2
KANJI54
 70
     0
 40
20.4
 41
0.705882353
 50
0.0
 71
     0
 42
20.4
  3

  4
bigfont
  0
STYLE
  2
KANJI55
 70
     0
 40
18.0
 41
0.8
 50
0.0
 71
     0
 42
18.0
  3

  4
bigfont
  0
STYLE
  2
KANJI56
 70
     0
 40
19.2
 41
0.71875
 50
0.0
 71
     0
 42
19.2
  3

  4
bigfont
  0
STYLE
  2
KANJI57
 70
     0
 40
19.2
 41
0.8
 50
0.0
 71
     0
 42
19.2
  3

  4
bigfont
  0
STYLE
  2
KANJI58
 70
     0
 40
21.0
 41
0.571428571
 50
0.0
 71
     0
 42
21.0
  3

  4
bigfont
  0
STYLE
  2
KANJI59
 70
     0
 40
21.0
 41
0.9
 50
0.0
 71
     0
 42
21.0
  3

  4
bigfont
  0
STYLE
  2
KANJI60
 70
     0
 40
21.0
 41
0.857142857
 50
0.0
 71
     0
 42
21.0
  3

  4
bigfont
  0
STYLE
  2
KANJI61
 70
     0
 40
15.0
 41
0.9
 50
0.0
 71
     0
 42
15.0
  3

  4
bigfont
  0
STYLE
  2
KANJI62
 70
     0
 40
17.5
 41
0.914285714
 50
0.0
 71
     0
 42
17.5
  3

  4
bigfont
  0
STYLE
  2
KANJI63
 70
     0
 40
16.8
 41
0.964285714
 50
0.0
 71
     0
 42
16.8
  3

  4
bigfont
  0
STYLE
  2
KANJI64
 70
     0
 40
16.8
 41
0.821428571
 50
0.0
 71
     0
 42
16.8
  3

  4
bigfont
  0
STYLE
  2
KANJI65
 70
     0
 40
24.0
 41
0.925
 50
0.0
 71
     0
 42
24.0
  3

  4
bigfont
  0
STYLE
  2
KANJI66
 70
     0
 40
18.0
 41
0.9
 50
0.0
 71
     0
 42
18.0
  3

  4
bigfont
  0
STYLE
  2
KANJI67
 70
     0
 40
21.0
 41
0.571428571
 50
0.0
 71
     0
 42
21.0
  3

  4
bigfont
  0
STYLE
  2
KANJI68
 70
     0
 40
21.0
 41
0.793650794
 50
0.0
 71
     0
 42
21.0
  3

  4
bigfont
  0
STYLE
  2
KANJI69
 70
     0
 40
30.0
 41
0.8
 50
0.0
 71
     0
 42
30.0
  3

  4
bigfont
  0
STYLE
  2
KANJI70
 70
     0
 40
18.0
 41
0.833333333
 50
0.0
 71
     0
 42
18.0
  3

  4
bigfont
  0
STYLE
  2
KANJI71
 70
     0
 40
18.0
 41
0.833333333
 50
0.0
 71
     0
 42
18.0
  3

  4
bigfont
  0
STYLE
  2
KANJI72
 70
     0
 40
16.17
 41
0.9
 50
0.0
 71
     0
 42
16.17
  3

  4
bigfont
  0
STYLE
  2
KANJI73
 70
     0
 40
14.99994
 41
0.9
 50
0.0
 71
     0
 42
14.99994
  3

  4
bigfont
  0
STYLE
  2
KANJI74
 70
     0
 40
14.4
 41
0.833333333
 50
0.0
 71
     0
 42
14.4
  3

  4
bigfont
  0
STYLE
  2
KANJI75
 70
     0
 40
18.223173404
 41
0.66671875
 50
0.0
 71
     0
 42
18.223173404
  3

  4
bigfont
  0
STYLE
  2
KANJI76
 70
     0
 40
21.6
 41
0.9
 50
0.0
 71
     0
 42
21.6
  3

  4
bigfont
  0
STYLE
  2
KANJI77
 70
     0
 40
12.96
 41
0.9
 50
0.0
 71
     0
 42
12.96
  3

  4
bigfont
  0
STYLE
  2
KANJI78
 70
     0
 40
17.28
 41
0.9
 50
0.0
 71
     0
 42
17.28
  3

  4
bigfont
  0
STYLE
  2
KANJI79
 70
     0
 40
18.72
 41
0.925
 50
0.0
 71
     0
 42
18.72
  3

  4
bigfont
  0
ENDTAB
  0
TABLE
  2
VIEW
 70
     0
  0
ENDTAB
  0
ENDSEC
  0
SECTION
  2
BLOCKS
  0
ENDSEC
  0
SECTION
  2
ENTITIES
  0
POLYLINE
  8
0
  6
CONTINUOUS
 62
     6
 66
     1
  0
VERTEX
  8
0
  6
CONTINUOUS
 62
     6
 10
77.92
 20
82.7
  0
VERTEX
  8
0
  6
CONTINUOUS
 62
     6
 10
77.92
 20
1696.7
  0
VERTEX
  8
0
  6
CONTINUOUS
 62
     6
 10
2399.92
 20
1696.7
  0
SEQEND
  0
LINE
  8
0
  6
CONTINUOUS
 62
     6
 10
83.919998738
 20
172.699981077
 11
473.919916738
 21
172.699981077
  0
LINE
  8
0
  6
CONTINUOUS
 62
     6
 10
83.919998738
 20
88.699998738
 11
473.919916738
 21
88.699998738
  0
LINE
  8
0
  6
CONTINUOUS
 62
     6
 10
83.919998738
 20
88.699998738
 11
83.919998738
 21
172.699981077
  0
LINE
  8
0
  6
CONTINUOUS
 62
     6
 10
83.919998738
 20
130.699989908
 11
473.919916738
 21
130.699989908
  0
LINE
  8
0
  6
CONTINUOUS
 62
     4
 10
9.6199996
 20
87.8999996
 11
72.0199948
 21
87.8999996
  0
LINE
  8
0
  6
CONTINUOUS
 62
     4
 10
9.6199996
 20
119.0999972
 11
72.0199948
 21
119.0999972
  0
LINE
  8
0
  6
CONTINUOUS
 62
     4
 10
9.6199996
 20
150.2999948
 11
72.0199948
 21
150.2999948
  0
LINE
  8
0
  6
CONTINUOUS
 62
     4
 10
9.6199996
 20
181.4999924
 11
72.0199948
 21
181.4999924
  0
LINE
  8
0
  6
CONTINUOUS
 62
     4
 10
9.6199996
 20
212.69999
 11
72.0199948
 21
212.69999
  0
LINE
  8
0
  6
CONTINUOUS
 62
     4
 10
9.6199996
 20
243.8999876
 11
72.0199948
 21
243.8999876
  0
LINE
  8
0
  6
CONTINUOUS
 62
     4
 10
9.6199996
 20
275.0999852
 11
72.0199948
 21
275.0999852
  0
LINE
  8
0
  6
CONTINUOUS
 62
     4
 10
9.6199996
 20
306.2999828
 11
72.0199948
 21
306.2999828
  0
LINE
  8
0
  6
CONTINUOUS
 62
     4
 10
9.6199996
 20
337.4999804
 11
72.0199948
 21
337.4999804
  0
LINE
  8
0
  6
CONTINUOUS
 62
     4
 10
9.6199996
 20
368.699978
 11
72.0199948
 21
368.699978
  0
LINE
  8
0
  6
CONTINUOUS
 62
     4
 10
72.0199948
 20
87.8999996
 11
72.0199948
 21
368.699978
  0
LINE
  8
0
  6
CONTINUOUS
 62
     4
 10
40.8199972
 20
87.8999996
 11
40.8199972
 21
337.4999804
  0
TEXT
  8
0
  6
CONTINUOUS
 62
     4
 10
20.27999878
 20
96.9999989
 30
1.55999988
 40
15.5999988
  1
計
 50
0.0
 41
0.75
 51
0.0
  7
KANJI0
  0
TEXT
  8
0
  6
CONTINUOUS
 62
     4
 10
20.27999878
 20
159.91999406
 30
1.55999988
 40
15.5999988
  1
設
 50
0.0
 41
0.75
 51
0.0
  7
KANJI0
  0
TEXT
  8
0
  6
CONTINUOUS
 62
     4
 10
20.27999878
 20
190.5999917
 30
1.55999988
 40
15.5999988
  1
管
 50
0.0
 41
0.75
 51
0.0
  7
KANJI0
  0
TEXT
  8
0
  6
CONTINUOUS
 62
     4
 10
20.27999878
 20
221.7999893
 30
1.55999988
 40
15.5999988
  1
製
 50
0.0
 41
0.75
 51
0.0
  7
KANJI0
  0
TEXT
  8
0
  6
CONTINUOUS
 62
     4
 10
20.27999878
 20
252.9999869
 30
1.55999988
 40
15.5999988
  1
資
 50
0.0
 41
0.75
 51
0.0
  7
KANJI0
  0
TEXT
  8
0
  6
CONTINUOUS
 62
     4
 10
20.27999878
 20
284.1999845
 30
1.55999988
 40
15.5999988
  1
営
 50
0.0
 41
0.75
 51
0.0
  7
KANJI0
  0
TEXT
  8
0
  6
CONTINUOUS
 62
     4
 10
20.27999878
 20
315.3999821
 30
1.55999988
 40
15.5999988
  1
客
 50
0.0
 41
0.75
 51
0.0
  7
KANJI0
  0
TEXT
  8
0
  6
CONTINUOUS
 62
     4
 10
20.0199988
 20
347.8999796
 30
1.55999988
 40
15.5999988
  1
出　図
 50
0.0
 41
0.75
 51
0.0
  7
KANJI0
  0
LINE
  8
0
  6
CONTINUOUS
 62
     4
 10
9.6199996
 20
87.8999996
 11
9.6199996
 21
368.699978
  0
LINE
  8
0
  6
CONTINUOUS
 62
     6
 10
2399.92
 20
82.7
 11
77.92
 21
82.7
  0
TEXT
  8
0
  6
CONTINUOUS
 62
     4
 10
95.919996215
 20
112.699993692
 30
1.199999748
 40
11.999997477
  1
ＰＡＲＴＳ　ＬＩＳＴ
 50
0.0
 41
0.6
 51
0.0
  7
KANJI1
  0
TEXT
  8
0
  6
CONTINUOUS
 62
     4
 10
95.919996215
 20
94.699997477
 30
1.439999697
 40
14.399996972
  1
部品表
 50
0.0
 41
0.9
 51
0.0
  7
KANJI2
  0
TEXT
  8
0
  6
CONTINUOUS
 62
     3
 10
95.919996215
 20
142.699987385
 30
1.799999622
 40
17.999996215
  1
ＰＬ
 50
0.0
 41
0.9
 51
0.0
  7
KANJI3
  0
TEXT
  8
0
  6
CONTINUOUS
 62
     4
 10
365.919939446
 20
112.699993692
 30
1.199999748
 40
11.999997477
  1
Ｎ０．
 50
0.0
 41
0.6
 51
0.0
  7
KANJI1
  0
TEXT
  8
0
  6
CONTINUOUS
 62
     4
 10
365.919939446
 20
94.699997477
 30
1.439999697
 40
14.399996972
  1
項番
 50
0.0
 41
0.9
 51
0.0
  7
KANJI2
  0
LINE
  8
0
  6
CONTINUOUS
 62
     6
 10
473.919916738
 20
88.699998738
 11
473.919916738
 21
172.699981077
  0
LINE
  8
0
  6
CONTINUOUS
 62
     6
 10
353.919941969
 20
88.699998738
 11
353.919941969
 21
172.699981077
  0
LINE
  8
0
  6
CONTINUOUS
 62
     6
 10
2399.92
 20
1696.7
 11
2399.92
 21
82.7
  0
LINE
  8
0
  6
CONTINUOUS
 62
     6
 10
1593.920062
 20
87.8999996
 11
1593.920062
 21
420.699974
  0
LINE
  8
0
  6
CONTINUOUS
 62
     6
 10
2394.7200004
 20
87.8999996
 11
2394.7200004
 21
420.699974
  0
LINE
  8
0
  6
CONTINUOUS
 62
     4
 10
1783.7200474
 20
87.8999996
 11
1783.7200474
 21
420.699974
  0
LINE
  8
0
  6
CONTINUOUS
 62
     4
 10
1593.920062
 20
129.4999964
 11
1783.7200474
 21
129.4999964
  0
TEXT
  8
0
  6
CONTINUOUS
 62
     4
 10
1604.3200612
 20
111.2999978
 30
1.03999992
 40
10.3999992
  1
ＳＣＡＬＥ
 50
0.0
 41
0.6
 51
0.0
  7
KANJI4
  0
TEXT
  8
0
  6
CONTINUOUS
 62
     4
 10
1604.3200612
 20
95.699999
 30
1.247999904
 40
12.47999904
  1
尺度
 50
0.0
 41
0.6
 51
0.0
  7
KANJI5
  0
LINE
  8
0
  6
CONTINUOUS
 62
     6
 10
1183.1200936
 20
129.4999964
 11
1593.920062
 21
129.4999964
  0
LINE
  8
0
  6
CONTINUOUS
 62
     6
 10
1183.1200936
 20
87.8999996
 11
2394.7200004
 21
87.8999996
  0
TEXT
  8
0
  6
CONTINUOUS
 62
     6
 10
1788.920047
 20
111.2999978
 30
0.0
 40
18.1999986
  1
ＵＮＩＴＥＣ　ＩＮＤＵＳＴＲＹ　ＣＯ．，ＬＴＤ．
 50
0.0
 41
0.42031746
 51
0.0
  7
KANJI6
  0
TEXT
  8
0
  6
CONTINUOUS
 62
     6
 10
2044.175027365
 20
104.53999832
 30
3.11999976
 40
31.1999976
  1
ユニテック工業株式会社
 50
0.0
 41
0.9
 51
0.0
  7
KANJI7
  0
LINE
  8
0
  6
CONTINUOUS
 62
     6
 10
2002.575030565
 20
115.45999748
 11
1988.847031621
 21
115.45999748
  0
LINE
  8
0
  6
CONTINUOUS
 62
     6
 10
2002.575030565
 20
117.955997288
 11
1988.847031621
 21
117.955997288
  0
LINE
  8
0
  6
CONTINUOUS
 62
     6
 10
2002.575030565
 20
115.45999748
 11
2016.303029509
 21
115.45999748
  0
LINE
  8
0
  6
CONTINUOUS
 62
     6
 10
2002.575030565
 20
117.955997288
 11
2016.303029509
 21
117.955997288
  0
LINE
  8
0
  6
CONTINUOUS
 62
     6
 10
2016.303029509
 20
117.955997288
 11
2016.303029509
 21
115.45999748
  0
ARC
  8
0
  6
CONTINUOUS
 62
     6
 10
2019.423029269
 20
116.707997384
 40
12.47999904
 50
185.739170477
 51
90.0
  0
ARC
  8
0
  6
CONTINUOUS
 62
     6
 10
2019.423029269
 20
116.707997384
 40
14.975998848
 50
184.780191847
 51
90.0
  0
LINE
  8
0
  6
CONTINUOUS
 62
     6
 10
1988.847031621
 20
115.45999748
 11
1988.847031621
 21
117.955997288
  0
ARC
  8
0
  6
CONTINUOUS
 62
     6
 10
1985.727031861
 20
116.707997384
 40
12.47999904
 50
90.0
 51
354.260829523
  0
ARC
  8
0
  6
CONTINUOUS
 62
     6
 10
1985.727031861
 20
116.707997384
 40
14.975998848
 50
90.0
 51
355.219808153
  0
LINE
  8
0
  6
CONTINUOUS
 62
     6
 10
2000.703030709
 20
131.683996232
 11
2000.703030709
 21
129.187996424
  0
LINE
  8
0
  6
CONTINUOUS
 62
     6
 10
1985.727031861
 20
129.187996424
 11
2000.703030709
 21
129.187996424
  0
LINE
  8
0
  6
CONTINUOUS
 62
     6
 10
2004.447030421
 20
131.683996232
 11
2004.447030421
 21
129.187996424
  0
LINE
  8
0
  6
CONTINUOUS
 62
     6
 10
2019.423029269
 20
129.187996424
 11
2004.447030421
 21
129.187996424
  0
TEXT
  8
0
  6
CONTINUOUS
 62
     4
 10
1315.7200834
 20
111.2999978
 30
1.03999992
 40
10.3999992
  1
ＢＹ
 50
0.0
 41
0.6
 51
0.0
  7
KANJI4
  0
TEXT
  8
0
  6
CONTINUOUS
 62
     4
 10
1430.1200746
 20
111.2999978
 30
1.03999992
 40
10.3999992
  1
ＤＥＳＣＲＩＰＴＩＯＮ
 50
0.0
 41
0.6
 51
0.0
  7
KANJI4
  0
TEXT
  8
0
  6
CONTINUOUS
 62
     4
 10
1315.7200834
 20
95.699999
 30
1.247999904
 40
12.47999904
  1
担当
 50
0.0
 41
0.6
 51
0.0
  7
KANJI5
  0
TEXT
  8
0
  6
CONTINUOUS
 62
     4
 10
1445.7200734
 20
95.699999
 30
1.247999904
 40
12.47999904
  1
記　　　　事
 50
0.0
 41
0.6
 51
0.0
  7
KANJI5
  0
LINE
  8
0
  6
CONTINUOUS
 62
     4
 10
1205.2200919
 20
121.699997
 11
1188.3200932
 21
95.699999
  0
TEXT
  8
0
  6
CONTINUOUS
 62
     4
 10
1248.1200886
 20
111.2999978
 30
1.03999992
 40
10.3999992
  1
ＤＡＴＥ
 50
0.0
 41
0.6
 51
0.0
  7
KANJI4
  0
TEXT
  8
0
  6
CONTINUOUS
 62
     4
 10
1255.920088
 20
95.699999
 30
1.247999904
 40
12.47999904
  1
日付
 50
0.0
 41
0.6
 51
0.0
  7
KANJI5
  0
LINE
  8
0
  6
CONTINUOUS
 62
     4
 10
1188.3200932
 20
95.699999
 11
1222.1200906
 21
95.699999
  0
LINE
  8
0
  6
CONTINUOUS
 62
     4
 10
1205.2200919
 20
121.699997
 11
1222.1200906
 21
95.699999
  0
LINE
  8
0
  6
CONTINUOUS
 62
     6
 10
1183.1200936
 20
87.8999996
 11
1183.1200936
 21
129.4999964
  0
LINE
  8
0
  6
CONTINUOUS
 62
     4
 10
1227.3200902
 20
87.8999996
 11
1227.3200902
 21
129.4999964
  0
LINE
  8
0
  6
CONTINUOUS
 62
     4
 10
1300.1200846
 20
87.8999996
 11
1300.1200846
 21
129.4999964
  0
LINE
  8
0
  6
CONTINUOUS
 62
     4
 10
1346.920081
 20
87.8999996
 11
1346.920081
 21
129.4999964
  0
TEXT
  8
0
  6
CONTINUOUS
 62
     4
 10
1604.3200612
 20
319.2999818
 30
1.03999992
 40
10.3999992
  1
ＣＯＤＥ
 50
0.0
 41
0.6
 51
0.0
  7
KANJI4
  0
LINE
  8
0
  6
CONTINUOUS
 62
     4
 10
1593.920062
 20
337.4999804
 11
2394.7200004
 21
337.4999804
  0
TEXT
  8
0
  6
CONTINUOUS
 62
     4
 10
1604.3200612
 20
303.699983
 30
1.247999904
 40
12.47999904
  1
分類
 50
0.0
 41
0.6
 51
0.0
  7
KANJI5
  0
TEXT
  8
0
  6
CONTINUOUS
 62
     4
 10
1612.42
 20
343.7
 30
6.0
 40
21.6
  1
ご注文主
 50
0.0
 41
1.111111111
 51
0.0
  7
KANJI8
  0
TEXT
  8
0
  6
CONTINUOUS
 62
     4
 10
1604.3200612
 20
194.4999914
 30
1.03999992
 40
10.3999992
  1
ＤＲＡＷＮ
 50
0.0
 41
0.6
 51
0.0
  7
KANJI4
  0
TEXT
  8
0
  6
CONTINUOUS
 62
     4
 10
1604.3200612
 20
236.0999882
 30
1.03999992
 40
10.3999992
  1
ＤＥＳＩＧＮ
 50
0.0
 41
0.6
 51
0.0
  7
KANJI4
  0
TEXT
  8
0
  6
CONTINUOUS
 62
     4
 10
1604.3200612
 20
277.699985
 30
1.03999992
 40
10.3999992
  1
ＣＨＥＣＫ
 50
0.0
 41
0.6
 51
0.0
  7
KANJI4
  0
LINE
  8
0
  6
CONTINUOUS
 62
     4
 10
1593.920062
 20
254.2999868
 11
1783.7200474
 21
254.2999868
  0
LINE
  8
0
  6
CONTINUOUS
 62
     4
 10
1593.920062
 20
212.69999
 11
1783.7200474
 21
212.69999
  0
LINE
  8
0
  6
CONTINUOUS
 62
     4
 10
1593.920062
 20
295.8999836
 11
1783.7200474
 21
295.8999836
  0
TEXT
  8
0
  6
CONTINUOUS
 62
     4
 10
1604.3200612
 20
220.4999894
 30
1.247999904
 40
12.47999904
  1
設計
 50
0.0
 41
0.6
 51
0.0
  7
KANJI5
  0
TEXT
  8
0
  6
CONTINUOUS
 62
     4
 10
1604.3200612
 20
262.0999862
 30
1.247999904
 40
12.47999904
  1
検図
 50
0.0
 41
0.6
 51
0.0
  7
KANJI5
  0
LINE
  8
0
  6
CONTINUOUS
 62
     4
 10
1799.06004622
 20
295.8999836
 11
2394.7200004
 21
295.8999836
  0
LINE
  8
0
  6
CONTINUOUS
 62
     4
 10
1783.7200474
 20
212.69999
 11
2394.7200004
 21
212.69999
  0
TEXT
  8
0
  6
CONTINUOUS
 62
     4
 10
1794.1200466
 20
194.4999914
 30
1.03999992
 40
10.3999992
  1
ＤＲＡＷＩＮＧ　ＮＯ．
 50
0.0
 41
0.8
 51
0.0
  7
KANJI9
  0
TEXT
  8
0
  6
CONTINUOUS
 62
     4
 10
1794.1200466
 20
236.0999882
 30
1.03999992
 40
10.3999992
  1
ＭＦＧ　ＮＯ．
 50
0.0
 41
0.8
 51
0.0
  7
KANJI9
  0
TEXT
  8
0
  6
CONTINUOUS
 62
     4
 10
1794.1200466
 20
277.699985
 30
1.03999992
 40
10.3999992
  1
ＴＹＰＥ
 50
0.0
 41
0.8
 51
0.0
  7
KANJI9
  0
LINE
  8
0
  6
CONTINUOUS
 62
     4
 10
1799.3200462
 20
254.2999868
 11
2038.5200278
 21
254.2999868
  0
TEXT
  8
0
  6
CONTINUOUS
 62
     4
 10
1794.1200466
 20
176.2999928
 30
1.247999904
 40
12.47999904
  1
図　面　番　号
 50
0.0
 41
0.8
 51
0.0
  7
KANJI10
  0
TEXT
  8
0
  6
CONTINUOUS
 62
     4
 10
1794.1200466
 20
217.8999896
 30
1.247999904
 40
12.47999904
  1
製番
 50
0.0
 41
0.8
 51
0.0
  7
KANJI10
  0
TEXT
  8
0
  6
CONTINUOUS
 62
     4
 10
1794.1200466
 20
259.4999864
 30
1.247999904
 40
12.47999904
  1
機種
 50
0.0
 41
0.8
 51
0.0
  7
KANJI10
  0
LINE
  8
0
  6
CONTINUOUS
 62
     4
 10
1593.920062
 20
171.0999932
 11
1783.7200474
 21
171.0999932
  0
TEXT
  8
0
  6
CONTINUOUS
 62
     4
 10
1604.3200612
 20
152.8999946
 30
1.03999992
 40
10.3999992
  1
ＤＡＴＥ
 50
0.0
 41
0.6
 51
0.0
  7
KANJI4
  0
TEXT
  8
0
  6
CONTINUOUS
 62
     4
 10
1604.3200612
 20
137.2999958
 30
1.247999904
 40
12.47999904
  1
日付
 50
0.0
 41
0.6
 51
0.0
  7
KANJI5
  0
TEXT
  8
0
  6
CONTINUOUS
 62
     4
 10
1604.3200612
 20
178.8999926
 30
1.247999904
 40
12.47999904
  1
作図
 50
0.0
 41
0.6
 51
0.0
  7
KANJI5
  0
LINE
  8
0
  6
CONTINUOUS
 62
     4
 10
1783.7200474
 20
152.8999946
 11
2394.7200004
 21
152.8999946
  0
LINE
  8
0
  6
LTYPE1
 62
     4
 10
2220.5200138
 20
160.699994
 11
2220.5200138
 21
202.2999908
  0
LINE
  8
0
  6
LTYPE1
 62
     4
 10
2184.1200166
 20
160.699994
 11
2184.1200166
 21
202.2999908
  0
LINE
  8
0
  6
LTYPE1
 62
     4
 10
2147.7200194
 20
160.699994
 11
2147.7200194
 21
202.2999908
  0
LINE
  8
0
  6
LTYPE1
 62
     4
 10
2111.3200222
 20
160.699994
 11
2111.3200222
 21
202.2999908
  0
LINE
  8
0
  6
LTYPE1
 62
     4
 10
2074.920025
 20
160.699994
 11
2074.920025
 21
202.2999908
  0
LINE
  8
0
  6
LTYPE1
 62
     4
 10
2038.5200278
 20
160.699994
 11
2038.5200278
 21
202.2999908
  0
LINE
  8
0
  6
LTYPE1
 62
     4
 10
2002.1200306
 20
160.699994
 11
2002.1200306
 21
202.2999908
  0
LINE
  8
0
  6
LTYPE1
 62
     4
 10
1965.7200334
 20
160.699994
 11
1965.7200334
 21
202.2999908
  0
LINE
  8
0
  6
LTYPE1
 62
     4
 10
1965.7200334
 20
202.2999908
 11
2220.5200138
 21
202.2999908
  0
LINE
  8
0
  6
LTYPE1
 62
     4
 10
1965.7200334
 20
160.699994
 11
2220.5200138
 21
160.699994
  0
LINE
  8
0
  6
CONTINUOUS
 62
     4
 10
2241.3200122
 20
182.7999923
 11
2251.7200114
 21
182.7999923
  0
LINE
  8
0
  6
CONTINUOUS
 62
     4
 10
2306.3200072
 20
167.1999935
 11
2269.92001
 21
167.1999935
  0
LINE
  8
0
  6
CONTINUOUS
 62
     4
 10
2269.92001
 20
167.1999935
 11
2288.1200086
 21
198.3999911
  0
LINE
  8
0
  6
CONTINUOUS
 62
     4
 10
2288.1200086
 20
198.3999911
 11
2306.3200072
 21
167.1999935
  0
TEXT
  8
0
  6
CONTINUOUS
 62
     4
 10
2054.1200266
 20
277.699985
 30
1.03999992
 40
10.3999992
  1
ＴＩＴＬＥ
 50
0.0
 41
0.8
 51
0.0
  7
KANJI9
  0
TEXT
  8
0
  6
CONTINUOUS
 62
     4
 10
2054.1200266
 20
259.4999864
 30
1.247999904
 40
12.47999904
  1
名称
 50
0.0
 41
0.8
 51
0.0
  7
KANJI10
  0
TEXT
  8
0
  6
CONTINUOUS
 62
     2
 10
2138.92
 20
220.7
 30
15.0
 40
30.0
  1
外形寸法図
 50
0.0
 41
1.0
 51
0.0
  7
KANJI11
  0
TEXT
  8
0
  6
CONTINUOUS
 62
     2
 10
2102.92
 20
256.7
 30
4.285714286
 40
30.0
  1
マイティシリンダ
 50
0.0
 41
1.0
 51
0.0
  7
KANJI12
  0
TEXT
  8
0
  6
CONTINUOUS
 62
     2
 10
1934.2200334
 20
166.699994
 30
1.8
 40
30.0
  1
Ａ
 50
0.0
 41
0.8
 51
0.0
  7
KANJI13
  0
CIRCLE
  8
0
  6
CONTINUOUS
 62
     2
 10
1895.2200334
 20
231.199994
 40
15.0
  0
TEXT
  8
0
  6
CONTINUOUS
 62
     2
 10
1883.9700334
 20
219.949994
 30
1.8
 40
24.0
  1
Ｓ
 50
0.0
 41
1.0
 51
0.0
  7
KANJI14
  0
LINE
  8
0
  6
CONTINUOUS
 62
     6
 10
2000.703030709
 20
131.683996232
 11
1985.727031861
 21
131.683996232
  0
LINE
  8
0
  6
CONTINUOUS
 62
     6
 10
2004.447030421
 20
131.683996232
 11
2019.423029269
 21
131.683996232
  0
TEXT
  8
0
  6
CONTINUOUS
 62
     2
 10
1660.9200334
 20
181.699994
 30
6.0
 40
21.0
  1
岡田
 50
0.0
 41
0.857142857
 51
0.0
  7
KANJI15
  0
LINE
  8
0
  6
CONTINUOUS
 62
     4
 10
2394.7200004
 20
379.0999772
 11
2394.7200004
 21
420.699974
  0
LINE
  8
0
  6
CONTINUOUS
 62
     6
 10
1594.670062
 20
379.0999772
 11
2395.4700004
 21
379.0999772
  0
LINE
  8
0
  6
CONTINUOUS
 62
     6
 10
1593.920062
 20
420.699974
 11
2394.7200004
 21
420.699974
  0
TEXT
  8
0
  6
CONTINUOUS
 62
     4
 10
1612.42
 20
385.2999968
 30
6.0
 40
21.6
  1
ご用途
 50
0.0
 41
1.111111111
 51
0.0
  7
KANJI8
  0
TEXT
  8
0
  6
CONTINUOUS
 62
     2
 10
1703.92
 20
94.7
 30
1.8
 40
27.0
  1
１／６
 50
0.0
 41
0.666666667
 51
0.0
  7
KANJI16
  0
LINE
  8
0
  6
CONTINUOUS
 62
     1
 10
399.12
 20
519.74
 11
313.12
 21
519.74
  0
LINE
  8
0
  6
CONTINUOUS
 62
     1
 10
313.12
 20
533.24
 11
313.12
 21
522.29046
  0
LINE
  8
0
  6
CONTINUOUS
 62
     1
 10
313.12
 20
533.24
 11
313.12
 21
544.18954
  0
LINE
  8
0
  6
CONTINUOUS
 62
     1
 10
305.0989
 20
524.97198
 11
306.647076294
 21
522.29046
  0
LINE
  8
0
  6
CONTINUOUS
 62
     1
 10
305.0989
 20
533.24
 11
305.0989
 21
524.97198
  0
LINE
  8
0
  6
CONTINUOUS
 62
     1
 10
305.0989
 20
541.50802
 11
306.647076294
 21
544.18954
  0
LINE
  8
0
  6
CONTINUOUS
 62
     1
 10
305.0989
 20
533.24
 11
305.0989
 21
541.50802
  0
ARC
  8
0
  6
CONTINUOUS
 62
     1
 10
315.553121693
 20
533.24
 40
10.454221693
 50
148.419912243
 51
211.580087757
  0
ARC
  8
0
  6
CONTINUOUS
 62
     1
 10
308.292013606
 20
525.027845
 40
3.193602261
 50
121.002313915
 51
182.989498403
  0
LINE
  8
0
  6
CONTINUOUS
 62
     1
 10
305.0989
 20
541.50802
 11
306.647076294
 21
544.18954
  0
ARC
  8
0
  6
CONTINUOUS
 62
     1
 10
308.292013606
 20
541.452155
 40
3.193602261
 50
177.010501597
 51
238.997686085
  0
LINE
  8
0
  6
CONTINUOUS
 62
     1
 10
313.12
 20
522.29046
 11
306.647076294
 21
522.29046
  0
LINE
  8
0
  6
CONTINUOUS
 62
     1
 10
313.12
 20
527.76523
 11
306.647076294
 21
527.76523
  0
LINE
  8
0
  6
CONTINUOUS
 62
     1
 10
313.12
 20
538.71477
 11
306.647076294
 21
538.71477
  0
LINE
  8
0
  6
CONTINUOUS
 62
     1
 10
313.12
 20
544.18954
 11
306.647076294
 21
544.18954
  0
LINE
  8
0
  6
CONTINUOUS
 62
     1
 10
313.12
 20
661.24
 11
313.12
 21
650.29046
  0
LINE
  8
0
  6
CONTINUOUS
 62
     1
 10
313.12
 20
661.24
 11
313.12
 21
672.18954
  0
LINE
  8
0
  6
CONTINUOUS
 62
     1
 10
305.0989
 20
652.97198
 11
306.647076294
 21
650.29046
  0
LINE
  8
0
  6
CONTINUOUS
 62
     1
 10
305.0989
 20
661.24
 11
305.0989
 21
652.97198
  0
LINE
  8
0
  6
CONTINUOUS
 62
     1
 10
305.0989
 20
669.50802
 11
306.647076294
 21
672.18954
  0
LINE
  8
0
  6
CONTINUOUS
 62
     1
 10
305.0989
 20
661.24
 11
305.0989
 21
669.50802
  0
ARC
  8
0
  6
CONTINUOUS
 62
     1
 10
315.553121693
 20
661.24
 40
10.454221693
 50
148.419912243
 51
211.580087757
  0
ARC
  8
0
  6
CONTINUOUS
 62
     1
 10
308.292013606
 20
653.027845
 40
3.193602261
 50
121.002313915
 51
182.989498403
  0
LINE
  8
0
  6
CONTINUOUS
 62
     1
 10
305.0989
 20
669.50802
 11
306.647076294
 21
672.18954
  0
ARC
  8
0
  6
CONTINUOUS
 62
     1
 10
308.292013606
 20
669.452155
 40
3.193602261
 50
177.010501597
 51
238.997686085
  0
LINE
  8
0
  6
CONTINUOUS
 62
     1
 10
313.12
 20
650.29046
 11
306.647076294
 21
650.29046
  0
LINE
  8
0
  6
CONTINUOUS
 62
     1
 10
313.12
 20
655.76523
 11
306.647076294
 21
655.76523
  0
LINE
  8
0
  6
CONTINUOUS
 62
     1
 10
313.12
 20
666.71477
 11
306.647076294
 21
666.71477
  0
LINE
  8
0
  6
CONTINUOUS
 62
     1
 10
313.12
 20
672.18954
 11
306.647076294
 21
672.18954
  0
LINE
  8
0
  6
CONTINUOUS
 62
     1
 10
313.12
 20
519.74
 11
313.12
 21
734.74
  0
LINE
  8
0
  6
CONTINUOUS
 62
     1
 10
328.12
 20
734.74
 11
313.12
 21
734.74
  0
LINE
  8
0
  6
CONTINUOUS
 62
     1
 10
313.12
 20
725.74
 11
313.12
 21
718.24594
  0
LINE
  8
0
  6
CONTINUOUS
 62
     1
 10
313.12
 20
725.74
 11
313.12
 21
733.23406
  0
LINE
  8
0
  6
CONTINUOUS
 62
     1
 10
307.6201
 20
720.08122
 11
308.679699402
 21
718.24594
  0
LINE
  8
0
  6
CONTINUOUS
 62
     1
 10
307.6201
 20
725.74
 11
307.6201
 21
720.08122
  0
LINE
  8
0
  6
CONTINUOUS
 62
     1
 10
307.6201
 20
731.39878
 11
308.679699402
 21
733.23406
  0
LINE
  8
0
  6
CONTINUOUS
 62
     1
 10
307.6201
 20
725.74
 11
307.6201
 21
731.39878
  0
ARC
  8
0
  6
CONTINUOUS
 62
     1
 10
314.775155337
 20
725.74
 40
7.155055337
 50
148.419912243
 51
211.580087757
  0
ARC
  8
0
  6
CONTINUOUS
 62
     1
 10
309.805523767
 20
720.119455
 40
2.185758211
 50
121.002313915
 51
182.989498403
  0
LINE
  8
0
  6
CONTINUOUS
 62
     1
 10
307.6201
 20
731.39878
 11
308.679699402
 21
733.23406
  0
ARC
  8
0
  6
CONTINUOUS
 62
     1
 10
309.805523767
 20
731.360545
 40
2.185758211
 50
177.010501597
 51
238.997686085
  0
LINE
  8
0
  6
CONTINUOUS
 62
     1
 10
313.12
 20
718.24594
 11
308.679699402
 21
718.24594
  0
LINE
  8
0
  6
CONTINUOUS
 62
     1
 10
313.12
 20
721.99297
 11
308.679699402
 21
721.99297
  0
LINE
  8
0
  6
CONTINUOUS
 62
     1
 10
313.12
 20
729.48703
 11
308.679699402
 21
729.48703
  0
LINE
  8
0
  6
CONTINUOUS
 62
     1
 10
313.12
 20
733.23406
 11
308.679699402
 21
733.23406
  0
LINE
  8
0
  6
CONTINUOUS
 62
     1
 10
507.12
 20
539.24
 11
581.12
 21
539.24
  0
LINE
  8
0
  6
CONTINUOUS
 62
     1
 10
414.12
 20
540.24
 11
414.12
 21
654.24
  0
CIRCLE
  8
0
  6
CONTINUOUS
 62
     1
 10
459.12
 20
597.24
 40
10.0
  0
CIRCLE
  8
0
  6
CONTINUOUS
 62
     1
 10
459.12
 20
597.24
 40
21.0
  0
CIRCLE
  8
0
  6
CONTINUOUS
 62
     1
 10
459.12
 20
597.24
 40
25.0
  0
LINE
  8
0
  6
CONTINUOUS
 62
     1
 10
399.12
 20
654.24
 11
414.12
 21
654.24
  0
LINE
  8
0
  6
CONTINUOUS
 62
     1
 10
428.02
 20
650.24
 11
581.12
 21
650.24
  0
LINE
  8
0
  6
CONTINUOUS
 62
     1
 10
507.12
 20
539.24
 11
507.12
 21
591.64
  0
LINE
  8
0
  6
CONTINUOUS
 62
     1
 10
589.12
 20
537.74
 11
589.12
 21
536.74
  0
ARC
  8
0
  6
CONTINUOUS
 62
     1
 10
502.12
 20
534.74
 40
3.0
 50
90.0
 51
180.0
  0
LINE
  8
0
  6
CONTINUOUS
 62
     1
 10
628.12
 20
494.74
 11
499.12
 21
494.74
  0
LINE
  8
0
  6
CONTINUOUS
 62
     1
 10
589.12
 20
536.74
 11
625.12
 21
536.74
  0
ARC
  8
0
  6
CONTINUOUS
 62
     1
 10
625.12
 20
533.74
 40
3.0
 50
0.0
 51
90.0
  0
LINE
  8
0
  6
CONTINUOUS
 62
     1
 10
628.12
 20
493.24
 11
499.12
 21
493.24
  0
LINE
  8
0
  6
CONTINUOUS
 62
     1
 10
628.12
 20
488.24
 11
628.12
 21
533.74
  0
ARC
  8
0
  6
CONTINUOUS
 62
     1
 10
627.12
 20
488.24
 40
1.0
 50
270.0
 51
0.0
  0
LINE
  8
0
  6
CONTINUOUS
 62
     1
 10
625.12
 20
487.24
 11
625.12
 21
487.24
  0
ARC
  8
0
  6
CONTINUOUS
 62
     1
 10
624.12
 20
487.24
 40
1.0
 50
270.0
 51
0.0
  0
LINE
  8
0
  6
CONTINUOUS
 62
     1
 10
499.12
 20
488.24
 11
499.12
 21
534.74
  0
LINE
  8
0
  6
CONTINUOUS
 62
     1
 10
627.12
 20
487.24
 11
500.12
 21
487.24
  0
ARC
  8
0
  6
CONTINUOUS
 62
     1
 10
500.12
 20
488.24
 40
1.0
 50
180.0
 51
270.0
  0
ARC
  8
0
  6
CONTINUOUS
 62
     1
 10
503.12
 20
487.24
 40
1.0
 50
180.0
 51
270.0
  0
LINE
  8
0
  6
CONTINUOUS
 62
     1
 10
624.12
 20
486.24
 11
503.22
 21
486.24
  0
LINE
  8
0
  6
CONTINUOUS
 62
     1
 10
502.12
 20
537.74
 11
589.12
 21
537.74
  0
LINE
  8
0
  6
CONTINUOUS
 62
     1
 10
502.12
 20
539.24
 11
589.12
 21
539.24
  0
LINE
  8
0
  6
CONTINUOUS
 62
     1
 10
417.12
 20
642.24
 11
417.12
 21
653.18954
  0
LINE
  8
0
  6
CONTINUOUS
 62
     1
 10
417.12
 20
642.24
 11
417.12
 21
631.29046
  0
LINE
  8
0
  6
CONTINUOUS
 62
     1
 10
414.12
 20
652.99
 11
417.12
 21
652.99
  0
LINE
  8
0
  6
CONTINUOUS
 62
     1
 10
414.12
 20
642.24
 11
417.120254073
 21
645.240254073
  0
LINE
  8
0
  6
CONTINUOUS
 62
     1
 10
417.120254073
 20
642.24
 11
414.12
 21
639.239745927
  0
LINE
  8
0
  6
CONTINUOUS
 62
     1
 10
414.12
 20
631.49
 11
417.12
 21
631.49
  0
LINE
  8
0
  6
CONTINUOUS
 62
     1
 10
417.12
 20
652.99
 11
428.42
 21
652.99
  0
LINE
  8
0
  6
CONTINUOUS
 62
     1
 10
428.42
 20
642.24
 11
428.42
 21
652.99
  0
LINE
  8
0
  6
CONTINUOUS
 62
     1
 10
428.42
 20
652.99
 11
429.12
 21
651.777564435
  0
LINE
  8
0
  6
CONTINUOUS
 62
     1
 10
429.12
 20
642.24
 11
429.12
 21
651.777564435
  0
LINE
  8
0
  6
CONTINUOUS
 62
     1
 10
417.12
 20
631.49
 11
428.42
 21
631.49
  0
LINE
  8
0
  6
CONTINUOUS
 62
     1
 10
428.42
 20
642.24
 11
428.42
 21
631.49
  0
LINE
  8
0
  6
CONTINUOUS
 62
     1
 10
428.42
 20
631.49
 11
429.12
 21
632.702435565
  0
LINE
  8
0
  6
CONTINUOUS
 62
     1
 10
429.12
 20
642.24
 11
429.12
 21
632.702435565
  0
LINE
  8
0
  6
CONTINUOUS
 62
     1
 10
417.12
 20
552.24
 11
417.12
 21
541.29046
  0
LINE
  8
0
  6
CONTINUOUS
 62
     1
 10
417.12
 20
552.24
 11
417.12
 21
563.18954
  0
LINE
  8
0
  6
CONTINUOUS
 62
     1
 10
414.12
 20
541.49
 11
417.12
 21
541.49
  0
LINE
  8
0
  6
CONTINUOUS
 62
     1
 10
414.12
 20
552.24
 11
417.120254073
 21
549.239745927
  0
LINE
  8
0
  6
CONTINUOUS
 62
     1
 10
417.120254073
 20
552.24
 11
414.12
 21
555.240254073
  0
LINE
  8
0
  6
CONTINUOUS
 62
     1
 10
414.12
 20
562.99
 11
417.12
 21
562.99
  0
LINE
  8
0
  6
CONTINUOUS
 62
     1
 10
417.12
 20
541.49
 11
428.42
 21
541.49
  0
LINE
  8
0
  6
CONTINUOUS
 62
     1
 10
428.42
 20
552.24
 11
428.42
 21
541.49
  0
LINE
  8
0
  6
CONTINUOUS
 62
     1
 10
428.42
 20
541.49
 11
429.12
 21
542.702435565
  0
LINE
  8
0
  6
CONTINUOUS
 62
     1
 10
429.12
 20
552.24
 11
429.12
 21
542.702435565
  0
LINE
  8
0
  6
CONTINUOUS
 62
     1
 10
417.12
 20
562.99
 11
428.42
 21
562.99
  0
LINE
  8
0
  6
CONTINUOUS
 62
     1
 10
428.42
 20
552.24
 11
428.42
 21
562.99
  0
LINE
  8
0
  6
CONTINUOUS
 62
     1
 10
428.42
 20
562.99
 11
429.12
 21
561.777564435
  0
LINE
  8
0
  6
CONTINUOUS
 62
     1
 10
429.12
 20
552.24
 11
429.12
 21
561.777564435
  0
LINE
  8
0
  6
CONTINUOUS
 62
     1
 10
399.12
 20
540.24
 11
414.12
 21
540.24
  0
POINT
  8
0
  6
CONTINUOUS
 62
     1
 10
399.12
 20
540.24
  0
LINE
  8
0
  6
CONTINUOUS
 62
     1
 10
399.12
 20
540.24
 11
399.12
 21
654.24
  0
LINE
  8
0
  6
CONTINUOUS
 62
     1
 10
590.12
 20
593.24
 11
581.12
 21
593.24
  0
LINE
  8
0
  6
CONTINUOUS
 62
     1
 10
590.12
 20
601.24
 11
581.12
 21
601.24
  0
LINE
  8
0
  6
LTYPE2
 62
     2
 10
338.22
 20
533.24
 11
304.02
 21
533.24
  0
LINE
  8
0
  6
LTYPE2
 62
     2
 10
339.22
 20
661.24
 11
304.02
 21
661.24
  0
LINE
  8
0
  6
LTYPE2
 62
     2
 10
343.72
 20
725.74
 11
304.42
 21
725.74
  0
LINE
  8
0
  6
LTYPE2
 62
     2
 10
378.12
 20
642.24
 11
431.12
 21
642.24
  0
LINE
  8
0
  6
LTYPE2
 62
     2
 10
459.12
 20
565.74
 11
459.12
 21
628.74
  0
LINE
  8
0
  6
LTYPE2
 62
     2
 10
378.12
 20
552.24
 11
431.12
 21
552.24
  0
LINE
  8
0
  6
LTYPE1
 62
     2
 10
628.12
 20
521.04
 11
618.12
 21
521.04
  0
LINE
  8
0
  6
LTYPE1
 62
     2
 10
628.12
 20
522.24
 11
618.12
 21
522.24
  0
LINE
  8
0
  6
LTYPE1
 62
     2
 10
628.12
 20
502.44
 11
618.12
 21
502.44
  0
LINE
  8
0
  6
LTYPE1
 62
     2
 10
628.12
 20
501.24
 11
618.12
 21
501.24
  0
LINE
  8
0
  6
LTYPE3
 62
     2
 10
634.32
 20
511.74
 11
614.62
 21
511.74
  0
LINE
  8
0
  6
LTYPE3
 62
     2
 10
543.12
 20
526.04
 11
543.12
 21
540.89
  0
LINE
  8
0
  6
CONTINUOUS
 62
     2
 10
628.12
 20
511.74
 11
630.626004628
 21
499.493778509
  0
LINE
  8
0
  6
CONTINUOUS
 62
     2
 10
628.12
 20
511.74
 11
636.413374416
 21
502.387463403
  0
LINE
  8
0
  6
CONTINUOUS
 62
     2
 10
628.12
 20
511.74
 11
653.12
 21
461.74
  0
LINE
  8
0
  6
CONTINUOUS
 62
     2
 10
653.12
 20
461.74
 11
720.62
 21
461.74
  0
LINE
  8
0
  6
CONTINUOUS
 62
     2
 10
525.92
 20
488.44
 11
528.569054108
 21
476.223924021
  0
LINE
  8
0
  6
CONTINUOUS
 62
     2
 10
525.92
 20
488.44
 11
534.322186143
 21
479.185094921
  0
LINE
  8
0
  6
CONTINUOUS
 62
     2
 10
313.12
 20
347.1025
 11
325.194072829
 21
343.867261936
  0
LINE
  8
0
  6
CONTINUOUS
 62
     2
 10
313.12
 20
347.1025
 11
325.194072829
 21
350.337738064
  0
LINE
  8
0
  6
CONTINUOUS
 62
     2
 10
313.12
 20
347.1025
 11
399.12
 21
347.1025
  0
LINE
  8
0
  6
CONTINUOUS
 62
     2
 10
399.12
 20
347.1025
 11
387.045927171
 21
350.337738064
  0
LINE
  8
0
  6
CONTINUOUS
 62
     2
 10
399.12
 20
347.1025
 11
387.045927171
 21
343.867261936
  0
LINE
  8
0
  6
CONTINUOUS
 62
     2
 10
399.12
 20
347.1025
 11
411.194072829
 21
343.867261936
  0
LINE
  8
0
  6
CONTINUOUS
 62
     2
 10
399.12
 20
347.1025
 11
411.194072829
 21
350.337738064
  0
LINE
  8
0
  6
CONTINUOUS
 62
     2
 10
399.12
 20
347.1025
 11
459.12
 21
347.1025
  0
LINE
  8
0
  6
CONTINUOUS
 62
     2
 10
459.12
 20
347.1025
 11
447.045927171
 21
350.337738064
  0
LINE
  8
0
  6
CONTINUOUS
 62
     2
 10
459.12
 20
347.1025
 11
447.045927171
 21
343.867261936
  0
LINE
  8
0
  6
CONTINUOUS
 62
     2
 10
459.12
 20
347.1025
 11
471.194072829
 21
343.867261936
  0
LINE
  8
0
  6
CONTINUOUS
 62
     2
 10
459.12
 20
347.1025
 11
471.194072829
 21
350.337738064
  0
LINE
  8
0
  6
CONTINUOUS
 62
     2
 10
459.12
 20
347.1025
 11
1090.12
 21
347.1025
  0
LINE
  8
0
  6
CONTINUOUS
 62
     2
 10
313.12
 20
339.6025
 11
313.12
 21
295.24
  0
LINE
  8
0
  6
CONTINUOUS
 62
     2
 10
313.12
 20
302.74
 11
325.194072829
 21
299.504761936
  0
LINE
  8
0
  6
CONTINUOUS
 62
     2
 10
313.12
 20
302.74
 11
325.194072829
 21
305.975238064
  0
LINE
  8
0
  6
CONTINUOUS
 62
     2
 10
313.12
 20
302.74
 11
1090.12
 21
302.74
  0
LINE
  8
0
  6
CONTINUOUS
 62
     2
 10
313.12
 20
511.615
 11
313.12
 21
339.6025
  0
LINE
  8
0
  6
CONTINUOUS
 62
     2
 10
399.12
 20
515.615
 11
399.12
 21
339.6025
  0
LINE
  8
0
  6
CONTINUOUS
 62
     2
 10
459.12
 20
569.115
 11
459.12
 21
339.6025
  0
LINE
  8
0
  6
CONTINUOUS
 62
     2
 10
525.92
 20
488.44
 11
569.412647059
 21
403.94
  0
LINE
  8
0
  6
CONTINUOUS
 62
     2
 10
569.412647059
 20
403.94
 11
648.92
 21
403.94
  0
LINE
  8
0
  6
LTYPE2
 62
     2
 10
659.445
 20
597.24
 11
288.02
 21
597.24
  0
LINE
  8
0
  6
LTYPE2
 62
     2
 10
1108.403472275
 20
597.24
 11
700.645
 21
597.24
  0
LINE
  8
2
  6
CONTINUOUS
 62
     2
 10
459.12
 20
387.14
 11
471.194072829
 21
383.904761936
  0
LINE
  8
2
  6
CONTINUOUS
 62
     2
 10
459.12
 20
387.14
 11
471.194072829
 21
390.375238064
  0
LINE
  8
2
  6
CONTINUOUS
 62
     2
 10
459.12
 20
352.1025
 11
459.12
 21
397.14
  0
LINE
  8
2
  6
CONTINUOUS
 62
     2
 10
995.12
 20
387.14
 11
459.12
 21
387.14
  0
CIRCLE
  8
0
  6
CONTINUOUS
 62
     1
 10
765.12
 20
597.24
 40
19.5
  0
LINE
  8
0
  6
CONTINUOUS
 62
     1
 10
745.12
 20
617.24
 11
785.12
 21
617.24
  0
LINE
  8
0
  6
CONTINUOUS
 62
     1
 10
745.12
 20
577.24
 11
745.12
 21
617.24
  0
LINE
  8
0
  6
LTYPE2
 62
     2
 10
765.12
 20
572.14
 11
765.12
 21
622.04
  0
LINE
  8
0
  6
CONTINUOUS
 62
     1
 10
745.12
 20
577.24
 11
785.12
 21
577.24
  0
LINE
  8
0
  6
CONTINUOUS
 62
     1
 10
785.12
 20
577.24
 11
785.12
 21
617.24
  0
TEXT
  8
0
  6
CONTINUOUS
 62
     2
 10
653.12
 20
466.74
 30
0.0
 40
18.0
  1
ＰＦ１／２
 50
0.0
 41
0.9
 51
0.0
  7
KANJI17
  0
TEXT
  8
0
  6
CONTINUOUS
 62
     2
 10
341.87
 20
352.1025
 30
0.0
 40
18.0
  1
８６
 50
0.0
 41
0.9
 51
0.0
  7
KANJI17
  0
TEXT
  8
0
  6
CONTINUOUS
 62
     2
 10
414.87
 20
352.1025
 30
0.0
 40
18.0
  1
６０
 50
0.0
 41
0.9
 51
0.0
  7
KANJI17
  0
TEXT
  8
0
  6
CONTINUOUS
 62
     2
 10
737.87
 20
352.1025
 30
0.0
 40
18.0
  1
ｍｉｎ．Ｌ
 50
0.0
 41
0.9
 51
0.0
  7
KANJI17
  0
TEXT
  8
0
  6
CONTINUOUS
 62
     2
 10
657.37
 20
307.74
 30
0.0
 40
18.0
  1
ｍｉｎ．ＡＬ
 50
0.0
 41
0.9
 51
0.0
  7
KANJI17
  0
TEXT
  8
0
  6
CONTINUOUS
 62
     2
 10
715.37
 20
395.44
 30
0.0
 40
18.0
  1
Ｃ
 50
0.0
 41
0.9
 51
0.0
  7
KANJI17
  0
TEXT
  8
0
  6
CONTINUOUS
 62
     2
 10
572.92
 20
410.44
 30
0.0
 40
18.0
  1
推力リミッタ
 50
0.0
 41
0.9
 51
0.0
  7
KANJI17
  0
TEXT
  8
0
  6
CONTINUOUS
 62
     2
 10
957.245927171
 20
364.125238064
 30
0.0
 40
18.0
  1
ｍｉｎ．Ｐ
 50
0.0
 41
0.9
 51
0.0
  7
KANJI17
  0
LINE
  8
0
  6
CONTINUOUS
 62
     1
 10
513.3
 20
486.24
 11
502.7
 21
486.24
  0
ARC
  8
0
  6
CONTINUOUS
 62
     1
 10
508.4
 20
487.24
 40
5.0
 50
272.3
 51
348.5
  0
ARC
  8
0
  6
CONTINUOUS
 62
     1
 10
507.6
 20
487.24
 40
5.0
 50
191.5
 51
267.7
  0
LINE
  8
0
  6
CONTINUOUS
 62
     1
 10
508.6
 20
482.24
 11
507.4
 21
482.24
  0
LINE
  8
0
  6
LTYPE4
 62
     2
 10
508.0
 20
478.84
 11
508.0
 21
492.24
  0
LINE
  8
0
  6
CONTINUOUS
 62
     1
 10
624.3
 20
486.24
 11
613.7
 21
486.24
  0
ARC
  8
0
  6
CONTINUOUS
 62
     1
 10
619.4
 20
487.24
 40
5.0
 50
272.3
 51
348.5
  0
ARC
  8
0
  6
CONTINUOUS
 62
     1
 10
618.6
 20
487.24
 40
5.0
 50
191.5
 51
267.7
  0
LINE
  8
0
  6
CONTINUOUS
 62
     1
 10
619.6
 20
482.24
 11
618.4
 21
482.24
  0
LINE
  8
0
  6
LTYPE4
 62
     2
 10
619.0
 20
478.84
 11
619.0
 21
492.24
  0
LINE
  8
0
  6
CONTINUOUS
 62
     6
 10
351.629425053
 20
1642.447759827
 11
119.584646507
 21
1642.447759827
  0
LINE
  8
0
  6
CONTINUOUS
 62
     3
 10
351.629425053
 20
1614.985259827
 11
119.584646507
 21
1614.985259827
  0
LINE
  8
0
  6
CONTINUOUS
 62
     6
 10
351.629425053
 20
1614.985259827
 11
119.584646507
 21
1614.985259827
  0
TEXT
  8
0
  6
CONTINUOUS
 62
     6
 10
377.212228
 20
1639.900410728
 30
1.232517
 40
13.182
  1
電気定格　　　
 50
0.0
 41
0.85
 51
0.0
  7
KANJI18
  0
TEXT
  8
0
  6
CONTINUOUS
 62
     6
 10
123.493517202
 20
1645.64592676
 30
1.0647
 40
11.661
  1
ＬＳ０１　　　：推力リミッタ（前進時過負荷用）
 50
0.0
 41
0.822608696
 51
0.0
  7
KANJI19
  0
TEXT
  8
0
  6
CONTINUOUS
 62
     6
 10
123.493517202
 20
1618.18342676
 30
1.0647
 40
11.661
  1
ＬＳ０２　　　：推力リミッタ（後進時過負荷用）
 50
0.0
 41
0.822608696
 51
0.0
  7
KANJI19
  0
TEXT
  8
0
  6
CONTINUOUS
 62
     6
 10
390.013715102
 20
1609.326958599
 30
0.0
 40
11.8638
  1
ＤＣ１２５Ｖ　０．６Ａ　，ＤＣ２５０Ｖ　０．３Ａ　
 50
0.0
 41
0.726495726
 51
0.0
  7
KANJI20
  0
LINE
  8
0
  6
LTYPE3
 62
     6
 10
650.02
 20
1669.9
 11
101.62
 21
1669.9
  0
TEXT
  8
0
  6
CONTINUOUS
 62
     6
 10
384.757132178
 20
1657.661726126
 30
0.0
 40
45.0
  1
｝
 50
0.0
 41
0.538166667
 51
0.0
  7
KANJI21
  0
TEXT
  8
0
  6
CONTINUOUS
 62
     6
 10
314.632791539
 20
1428.92382165
 30
0.0
 40
17.740702234
  1
端子台　接続図
 50
0.0
 41
0.880962996
 51
0.0
  7
KANJI22
  0
LINE
  8
0
  6
LTYPE3
 62
     6
 10
650.02
 20
1410.9
 11
650.02
 21
1669.9
  0
LINE
  8
0
  6
LTYPE3
 62
     6
 10
101.62
 20
1410.9
 11
650.02
 21
1410.9
  0
LINE
  8
0
  6
LTYPE3
 62
     6
 10
101.62
 20
1669.9
 11
101.62
 21
1410.9
  0
LINE
  8
0
  6
CONTINUOUS
 62
     2
 10
349.597373465
 20
1479.928121884
 11
349.597373465
 21
1457.149155128
  0
LINE
  8
0
  6
CONTINUOUS
 62
     2
 10
376.17283468
 20
1479.928121884
 11
376.17283468
 21
1457.149155128
  0
LINE
  8
0
  6
CONTINUOUS
 62
     2
 10
402.748295894
 20
1479.928121884
 11
402.748295894
 21
1457.149155128
  0
LINE
  8
0
  6
CONTINUOUS
 62
     2
 10
429.323757109
 20
1479.928121884
 11
429.323757109
 21
1457.149155128
  0
CIRCLE
  8
0
  6
CONTINUOUS
 62
     6
 10
421.404269667
 20
1503.407921517
 40
4.100214016
  0
LINE
  8
0
  6
CONTINUOUS
 62
     6
 10
417.304055651
 20
1503.407921517
 11
416.036026502
 21
1503.407921517
  0
LINE
  8
0
  6
CONTINUOUS
 62
     6
 10
442.358027433
 20
1517.094562742
 11
438.443558096
 21
1494.759507138
  0
LINE
  8
0
  6
CONTINUOUS
 62
     6
 10
437.631699663
 20
1517.882284037
 11
433.716922494
 21
1495.547279739
  0
LINE
  8
0
  6
CONTINUOUS
 62
     6
 10
438.443558096
 20
1494.759507138
 11
433.716922494
 21
1495.547279739
  0
CIRCLE
  8
0
  6
CONTINUOUS
 62
     6
 10
442.611487717
 20
1493.939464335
 40
4.100214016
  0
LINE
  8
0
  6
CONTINUOUS
 62
     6
 10
442.611487717
 20
1489.839250319
 11
442.611487717
 21
1479.928121884
  0
LINE
  8
0
  6
CONTINUOUS
 62
     6
 10
416.036026502
 20
1503.407921517
 11
416.036026502
 21
1479.928121884
  0
LINE
  8
0
  6
CONTINUOUS
 62
     6
 10
389.460565287
 20
1479.928121884
 11
389.460565287
 21
1533.633332504
  0
LINE
  8
0
  6
CONTINUOUS
 62
     6
 10
309.987641926
 20
1517.094562742
 11
313.902111263
 21
1494.759507138
  0
LINE
  8
0
  6
CONTINUOUS
 62
     6
 10
314.713969696
 20
1517.882284037
 11
318.628746865
 21
1495.547279739
  0
LINE
  8
0
  6
CONTINUOUS
 62
     6
 10
313.902111263
 20
1494.759507138
 11
318.628746865
 21
1495.547279739
  0
CIRCLE
  8
0
  6
CONTINUOUS
 62
     6
 10
309.734181642
 20
1493.939464335
 40
4.100214016
  0
CIRCLE
  8
0
  6
CONTINUOUS
 62
     6
 10
330.941399692
 20
1503.407921517
 40
4.100214016
  0
LINE
  8
0
  6
CONTINUOUS
 62
     6
 10
335.041613708
 20
1503.407921517
 11
336.309642857
 21
1503.407921517
  0
LINE
  8
0
  6
CONTINUOUS
 62
     6
 10
309.734181642
 20
1489.839250319
 11
309.734181642
 21
1479.928121884
  0
LINE
  8
0
  6
CONTINUOUS
 62
     6
 10
336.309642857
 20
1503.407921517
 11
336.309642857
 21
1479.928121884
  0
LINE
  8
0
  6
CONTINUOUS
 62
     6
 10
362.885104072
 20
1479.928121884
 11
362.885104072
 21
1533.633332504
  0
LINE
  8
0
  6
CONTINUOUS
 62
     2
 10
455.899218324
 20
1479.928121884
 11
455.899218324
 21
1457.149155128
  0
LINE
  8
0
  6
CONTINUOUS
 62
     2
 10
296.446451035
 20
1479.928121884
 11
296.446451035
 21
1457.149155128
  0
LINE
  8
0
  6
CONTINUOUS
 62
     2
 10
323.02191225
 20
1479.928121884
 11
323.02191225
 21
1457.149155128
  0
LINE
  8
0
  6
CONTINUOUS
 62
     6
 10
442.611487717
 20
1533.633332504
 11
389.460565287
 21
1533.633332504
  0
CIRCLE
  8
0
  6
CONTINUOUS
 62
     6
 10
442.611487717
 20
1521.28941042
 40
4.100214016
  0
LINE
  8
0
  6
CONTINUOUS
 62
     6
 10
442.358027433
 20
1517.094562742
 11
437.631699663
 21
1517.882284037
  0
LINE
  8
0
  6
CONTINUOUS
 62
     6
 10
442.611487717
 20
1525.389624436
 11
442.611487717
 21
1533.633332504
  0
CIRCLE
  8
0
  6
CONTINUOUS
 62
     6
 10
309.734181642
 20
1521.28941042
 40
4.100214016
  0
LINE
  8
0
  6
CONTINUOUS
 62
     6
 10
309.987641926
 20
1517.094562742
 11
314.713969696
 21
1517.882284037
  0
LINE
  8
0
  6
CONTINUOUS
 62
     6
 10
309.734181642
 20
1525.389624436
 11
309.734181642
 21
1533.633332504
  0
LINE
  8
0
  6
CONTINUOUS
 62
     6
 10
362.885104072
 20
1533.633332504
 11
309.734181642
 21
1533.633332504
  0
TEXT
  8
0
  6
CONTINUOUS
 62
     6
 10
314.4972152
 20
1538.152473273
 30
0.819
 40
11.7
  1
ＬＳ０１
 50
0.0
 41
0.8
 51
0.0
  7
KANJI23
  0
TEXT
  8
0
  6
CONTINUOUS
 62
     6
 10
397.117398844
 20
1538.152473273
 30
0.819
 40
11.7
  1
ＬＳ０２
 50
0.0
 41
0.8
 51
0.0
  7
KANJI23
  0
TEXT
  8
0
  6
CONTINUOUS
 62
     3
 10
142.308775989
 20
1460.945649587
 30
0.0
 40
15.0
  1
　　　　　　　　　　　　　　　　　　１　　２　　　３　　　４　　　５　　　６
 50
0.0
 41
0.911
 51
0.0
  7
KANJI24
  0
LINE
  8
0
  6
CONTINUOUS
 62
     2
 10
296.446451035
 20
1479.928121884
 11
455.899218324
 21
1479.928121884
  0
LINE
  8
0
  6
CONTINUOUS
 62
     2
 10
296.446451035
 20
1457.149155128
 11
455.899218324
 21
1457.149155128
  0
TEXT
  8
0
  6
CONTINUOUS
 62
     6
 10
288.132791539
 20
1567.92382165
 30
0.0
 40
17.740702234
  1
推力リミッタ端子台配列
 50
0.0
 41
0.880962996
 51
0.0
  7
KANJI22
  0
TEXT
  8
0
  6
CONTINUOUS
 62
     6
 10
390.013715102
 20
1625.071931782
 30
0.0
 40
11.8638
  1
ＡＣ１００Ｖ　１２５Ｖ　２５０Ｖ　－１０Ａ
 50
0.0
 41
0.726495726
 51
0.0
  7
KANJI20
  0
LINE
  8
0
  6
CONTINUOUS
 62
     1
 10
348.62
 20
672.24
 11
348.62
 21
602.24
  0
TEXT
  8
0
  6
CONTINUOUS
 62
     2
 10
353.62
 20
661.24
 30
5.0
 40
20.0
  1
銘板
 50
270.0
 41
0.925
 51
0.0
  7
KANJI25
  0
LINE
  8
0
  6
CONTINUOUS
 62
     1
 10
391.62
 20
672.24
 11
348.62
 21
672.24
  0
LINE
  8
0
  6
CONTINUOUS
 62
     1
 10
391.62
 20
672.24
 11
391.62
 21
602.24
  0
LINE
  8
0
  6
CONTINUOUS
 62
     1
 10
391.62
 20
602.24
 11
348.62
 21
602.24
  0
TEXT
  8
0
  6
CONTINUOUS
 62
     2
 10
454.832591263
 20
254.411507451
 30
0.0
 40
20.0
  1
推力リミッタの作動値は、約１２００ｋｇ（設計値）
 50
0.0
 41
0.925
 51
0.0
  7
KANJI26
  0
LINE
  8
0
  6
CONTINUOUS
 62
     2
 10
452.832591263
 20
246.411507451
 11
880.04
 21
246.411507451
  0
LINE
  8
0
  6
CONTINUOUS
 62
     2
 10
555.003319123
 20
200.833311846
 11
562.730725733
 21
198.762759485
  0
LINE
  8
0
  6
CONTINUOUS
 62
     2
 10
555.003319123
 20
200.833311846
 11
562.730725733
 21
202.903864207
  0
LINE
  8
0
  6
CONTINUOUS
 62
     2
 10
555.003319123
 20
200.833311846
 11
692.603319123
 21
200.833311846
  0
LINE
  8
0
  6
CONTINUOUS
 62
     2
 10
692.603319123
 20
200.833311846
 11
684.875912513
 21
202.903864207
  0
LINE
  8
0
  6
CONTINUOUS
 62
     2
 10
692.603319123
 20
200.833311846
 11
684.875912513
 21
198.762759485
  0
LINE
  8
0
  6
CONTINUOUS
 62
     2
 10
692.603319123
 20
199.633311846
 11
692.603319123
 21
196.833311846
  0
LINE
  8
0
  6
CONTINUOUS
 62
     2
 10
692.603319123
 20
200.833311846
 11
700.330725733
 21
198.762759485
  0
LINE
  8
0
  6
CONTINUOUS
 62
     2
 10
692.603319123
 20
200.833311846
 11
700.330725733
 21
202.903864207
  0
LINE
  8
0
  6
CONTINUOUS
 62
     2
 10
692.603319123
 20
200.833311846
 11
895.003319123
 21
200.833311846
  0
LINE
  8
0
  6
CONTINUOUS
 62
     2
 10
895.003319123
 20
200.833311846
 11
887.275912513
 21
202.903864207
  0
LINE
  8
0
  6
CONTINUOUS
 62
     2
 10
895.003319123
 20
200.833311846
 11
887.275912513
 21
198.762759485
  0
LINE
  8
0
  6
CONTINUOUS
 62
     2
 10
555.003319123
 20
211.633311846
 11
555.003319123
 21
196.833311846
  0
LINE
  8
0
  6
CONTINUOUS
 62
     2
 10
895.003319123
 20
211.633311846
 11
895.003319123
 21
196.833311846
  0
LINE
  8
0
  6
CONTINUOUS
 62
     2
 10
692.603319123
 20
200.433311846
 11
692.603319123
 21
211.633311846
  0
LINE
  8
0
  6
CONTINUOUS
 62
     2
 10
895.003319123
 20
200.833311846
 11
895.003319123
 21
106.033311846
  0
LINE
  8
0
  6
CONTINUOUS
 62
     2
 10
692.603319123
 20
200.833311846
 11
692.603319123
 21
165.233311846
  0
TEXT
  8
0
  6
CONTINUOUS
 62
     3
 10
596.803319123
 20
202.833311846
 30
0.0
 40
15.0
  1
ｍｉｎ．Ｌ
 50
0.0
 41
0.9
 51
0.0
  7
KANJI27
  0
TEXT
  8
0
  6
CONTINUOUS
 62
     3
 10
750.603319123
 20
202.833311846
 30
0.0
 40
15.0
  1
機械的ストローク
 50
0.0
 41
0.9
 51
0.0
  7
KANJI27
  0
LINE
  8
0
  6
CONTINUOUS
 62
     2
 10
692.603319123
 20
174.503864207
 11
684.875912513
 21
176.574416568
  0
LINE
  8
0
  6
CONTINUOUS
 62
     2
 10
692.603319123
 20
174.503864207
 11
684.875912513
 21
172.433311846
  0
LINE
  8
0
  6
CONTINUOUS
 62
     2
 10
680.603319123
 20
174.503864207
 11
692.603319123
 21
174.503864207
  0
LINE
  8
0
  6
CONTINUOUS
 62
     2
 10
692.603319123
 20
174.503864207
 11
713.403319123
 21
174.503864207
  0
LINE
  8
0
  6
CONTINUOUS
 62
     2
 10
713.403319123
 20
174.503864207
 11
721.130725733
 21
172.433311846
  0
LINE
  8
0
  6
CONTINUOUS
 62
     2
 10
713.403319123
 20
174.503864207
 11
721.130725733
 21
176.574416568
  0
LINE
  8
0
  6
CONTINUOUS
 62
     2
 10
555.003319123
 20
149.233311846
 11
555.003319123
 21
143.233311846
  0
LINE
  8
0
  6
CONTINUOUS
 62
     2
 10
555.003319123
 20
147.233311846
 11
562.730725733
 21
145.162759485
  0
LINE
  8
0
  6
CONTINUOUS
 62
     2
 10
555.003319123
 20
147.233311846
 11
562.730725733
 21
149.303864207
  0
LINE
  8
0
  6
CONTINUOUS
 62
     2
 10
555.003319123
 20
147.233311846
 11
713.403319123
 21
147.233311846
  0
LINE
  8
0
  6
CONTINUOUS
 62
     2
 10
713.403319123
 20
147.233311846
 11
705.675912513
 21
149.303864207
  0
LINE
  8
0
  6
CONTINUOUS
 62
     2
 10
713.403319123
 20
147.233311846
 11
705.675912513
 21
145.162759485
  0
LINE
  8
0
  6
CONTINUOUS
 62
     2
 10
713.403319123
 20
148.433311846
 11
713.403319123
 21
143.233311846
  0
LINE
  8
0
  6
CONTINUOUS
 62
     2
 10
713.403319123
 20
147.233311846
 11
721.130725733
 21
145.162759485
  0
LINE
  8
0
  6
CONTINUOUS
 62
     2
 10
713.403319123
 20
147.233311846
 11
721.130725733
 21
149.303864207
  0
LINE
  8
0
  6
CONTINUOUS
 62
     2
 10
895.003319123
 20
143.633311846
 11
895.003319123
 21
143.233311846
  0
LINE
  8
0
  6
CONTINUOUS
 62
     2
 10
555.003319123
 20
118.033311846
 11
562.730725733
 21
115.962759485
  0
LINE
  8
0
  6
CONTINUOUS
 62
     2
 10
555.003319123
 20
118.033311846
 11
562.730725733
 21
120.103864207
  0
LINE
  8
0
  6
CONTINUOUS
 62
     2
 10
555.003319123
 20
118.033311846
 11
872.603319123
 21
118.033311846
  0
LINE
  8
0
  6
CONTINUOUS
 62
     2
 10
872.603319123
 20
118.033311846
 11
864.875912513
 21
120.103864207
  0
LINE
  8
0
  6
CONTINUOUS
 62
     2
 10
872.603319123
 20
118.033311846
 11
864.875912513
 21
115.962759485
  0
LINE
  8
0
  6
CONTINUOUS
 62
     2
 10
872.603319123
 20
118.833311846
 11
872.603319123
 21
114.033311846
  0
LINE
  8
0
  6
CONTINUOUS
 62
     2
 10
872.603319123
 20
118.033311846
 11
864.875912513
 21
120.103864207
  0
LINE
  8
0
  6
CONTINUOUS
 62
     2
 10
872.603319123
 20
118.033311846
 11
864.875912513
 21
115.962759485
  0
LINE
  8
0
  6
CONTINUOUS
 62
     2
 10
860.603319123
 20
118.033311846
 11
872.603319123
 21
118.033311846
  0
LINE
  8
0
  6
CONTINUOUS
 62
     2
 10
872.603319123
 20
118.033311846
 11
895.003319123
 21
118.033311846
  0
LINE
  8
0
  6
CONTINUOUS
 62
     2
 10
895.003319123
 20
118.033311846
 11
902.730725733
 21
115.962759485
  0
LINE
  8
0
  6
CONTINUOUS
 62
     2
 10
895.003319123
 20
118.033311846
 11
902.730725733
 21
120.103864207
  0
LINE
  8
0
  6
CONTINUOUS
 62
     2
 10
713.403319123
 20
187.303864207
 11
713.403319123
 21
170.503864207
  0
LINE
  8
0
  6
CONTINUOUS
 62
     2
 10
555.003319123
 20
196.833311846
 11
555.003319123
 21
104.833311846
  0
LINE
  8
0
  6
CONTINUOUS
 62
     2
 10
713.403319123
 20
174.503864207
 11
713.403319123
 21
138.033311846
  0
TEXT
  8
0
  6
CONTINUOUS
 62
     3
 10
725.403319123
 20
176.503864207
 30
0.0
 40
15.0
  1
余裕
 50
0.0
 41
0.9
 51
0.0
  7
KANJI27
  0
TEXT
  8
0
  6
CONTINUOUS
 62
     3
 10
607.203319123
 20
149.233311846
 30
0.0
 40
15.0
  1
常用ｍｉｎ
 50
0.0
 41
0.9
 51
0.0
  7
KANJI27
  0
TEXT
  8
0
  6
CONTINUOUS
 62
     3
 10
686.803319123
 20
120.033311846
 30
0.0
 40
15.0
  1
常用ｍａｘ
 50
0.0
 41
0.9
 51
0.0
  7
KANJI27
  0
TEXT
  8
0
  6
CONTINUOUS
 62
     3
 10
907.003319123
 20
120.033311846
 30
0.0
 40
15.0
  1
余裕
 50
0.0
 41
0.9
 51
0.0
  7
KANJI27
  0
LINE
  8
0
  6
CONTINUOUS
 62
     2
 10
713.403319123
 20
174.503864207
 11
753.503319123
 21
174.503864207
  0
LINE
  8
0
  6
CONTINUOUS
 62
     2
 10
895.003319123
 20
118.033311846
 11
937.503319123
 21
118.033311846
  0
LINE
  8
0
  6
CONTINUOUS
 62
     1
 10
1040.12
 20
596.74
 11
1040.12
 21
571.74
  0
CIRCLE
  8
0
  6
CONTINUOUS
 62
     1
 10
1090.12
 20
596.74
 40
12.5
  0
CIRCLE
  8
0
  6
CONTINUOUS
 62
     1
 10
1090.12
 20
596.74
 40
22.0
  0
CIRCLE
  8
0
  6
CONTINUOUS
 62
     1
 10
1090.12
 20
612.24
 40
3.0
  0
LINE
  8
0
  6
CONTINUOUS
 62
     1
 10
1085.92
 20
579.94
 11
1087.92
 21
579.64
  0
LINE
  8
0
  6
CONTINUOUS
 62
     1
 10
1088.42
 20
584.34
 11
1088.184615385
 21
582.770769231
  0
LINE
  8
0
  6
CONTINUOUS
 62
     1
 10
1088.184615385
 20
582.770769231
 11
1085.92
 21
579.94
  0
LINE
  8
0
  6
CONTINUOUS
 62
     1
 10
1090.12
 20
582.34
 11
1087.92
 21
579.64
  0
LINE
  8
0
  6
CONTINUOUS
 62
     1
 10
1094.32
 20
579.94
 11
1092.32
 21
579.64
  0
LINE
  8
0
  6
CONTINUOUS
 62
     1
 10
1091.82
 20
584.34
 11
1092.055384615
 21
582.770769231
  0
LINE
  8
0
  6
CONTINUOUS
 62
     1
 10
1092.055384615
 20
582.770769231
 11
1094.32
 21
579.94
  0
LINE
  8
0
  6
CONTINUOUS
 62
     1
 10
1090.12
 20
582.34
 11
1092.32
 21
579.64
  0
LINE
  8
0
  6
LTYPE1
 62
     2
 10
1055.12
 20
571.74
 11
1055.12
 21
621.74
  0
LINE
  8
0
  6
CONTINUOUS
 62
     2
 10
1114.62
 20
621.74
 11
1178.22
 21
621.74
  0
LINE
  8
0
  6
CONTINUOUS
 62
     2
 10
1170.72
 20
621.74
 11
1167.484761936
 21
609.665927171
  0
LINE
  8
0
  6
CONTINUOUS
 62
     2
 10
1170.72
 20
621.74
 11
1173.955238064
 21
609.665927171
  0
LINE
  8
0
  6
CONTINUOUS
 62
     2
 10
1170.72
 20
621.74
 11
1170.72
 21
571.74
  0
LINE
  8
0
  6
CONTINUOUS
 62
     2
 10
1170.72
 20
571.74
 11
1173.955238064
 21
583.814072829
  0
LINE
  8
0
  6
CONTINUOUS
 62
     2
 10
1170.72
 20
571.74
 11
1167.484761936
 21
583.814072829
  0
LINE
  8
0
  6
CONTINUOUS
 62
     2
 10
1114.62
 20
571.74
 11
1178.22
 21
571.74
  0
LINE
  8
0
  6
LTYPE5
 62
     2
 10
1090.12
 20
571.74
 11
1090.12
 21
628.84
  0
LINE
  8
0
  6
CONTINUOUS
 62
     2
 10
1097.62
 20
606.34
 11
1106.533448812
 21
615.103585469
  0
LINE
  8
0
  6
CONTINUOUS
 62
     2
 10
1097.62
 20
606.34
 11
1100.957480372
 21
618.38621205
  0
LINE
  8
0
  6
CONTINUOUS
 62
     2
 10
1097.62
 20
606.34
 11
1134.12
 21
668.34
  0
LINE
  8
0
  6
CONTINUOUS
 62
     2
 10
1134.12
 20
668.34
 11
1222.62
 21
668.34
  0
LINE
  8
0
  6
CONTINUOUS
 62
     2
 10
1090.12
 20
347.1025
 11
1078.045927171
 21
350.337738064
  0
LINE
  8
0
  6
CONTINUOUS
 62
     2
 10
1090.12
 20
347.1025
 11
1078.045927171
 21
343.867261936
  0
LINE
  8
0
  6
CONTINUOUS
 62
     2
 10
1090.12
 20
302.74
 11
1078.045927171
 21
305.975238064
  0
LINE
  8
0
  6
CONTINUOUS
 62
     2
 10
1090.12
 20
302.74
 11
1078.045927171
 21
299.504761936
  0
LINE
  8
0
  6
CONTINUOUS
 62
     2
 10
1090.12
 20
339.6025
 11
1090.12
 21
295.24
  0
LINE
  8
0
  6
CONTINUOUS
 62
     2
 10
1090.12
 20
571.115
 11
1090.12
 21
339.6025
  0
LINE
  8
0
  6
CONTINUOUS
 62
     1
 10
1040.12
 20
572.24
 11
1107.12
 21
572.24
  0
ARC
  8
0
  6
CONTINUOUS
 62
     1
 10
1107.12
 20
580.24
 40
8.0
 50
270.0
 51
0.0
  0
LINE
  8
0
  6
CONTINUOUS
 62
     1
 10
1115.12
 20
580.24
 11
1115.12
 21
614.24
  0
ARC
  8
0
  6
CONTINUOUS
 62
     1
 10
1107.12
 20
614.24
 40
8.0
 50
0.0
 51
90.0
  0
LINE
  8
2
  6
CONTINUOUS
 62
     2
 10
1040.12
 20
387.14
 11
1028.045927171
 21
390.375238064
  0
LINE
  8
2
  6
CONTINUOUS
 62
     2
 10
1040.12
 20
387.14
 11
1028.045927171
 21
383.904761936
  0
LINE
  8
2
  6
CONTINUOUS
 62
     2
 10
1040.12
 20
567.24
 11
1040.12
 21
377.14
  0
LINE
  8
2
  6
CONTINUOUS
 62
     2
 10
1040.12
 20
387.14
 11
1052.194072829
 21
383.904761936
  0
LINE
  8
2
  6
CONTINUOUS
 62
     2
 10
1040.12
 20
387.14
 11
1052.194072829
 21
390.375238064
  0
LINE
  8
2
  6
CONTINUOUS
 62
     2
 10
1040.12
 20
387.14
 11
1090.12
 21
387.14
  0
LINE
  8
2
  6
CONTINUOUS
 62
     2
 10
1090.12
 20
387.14
 11
1078.045927171
 21
390.375238064
  0
LINE
  8
2
  6
CONTINUOUS
 62
     2
 10
1090.12
 20
387.14
 11
1078.045927171
 21
383.904761936
  0
LINE
  8
2
  6
CONTINUOUS
 62
     2
 10
1090.12
 20
352.1025
 11
1090.12
 21
397.14
  0
LINE
  8
0
  6
CONTINUOUS
 62
     2
 10
1083.87
 20
700.34
 11
1002.87
 21
700.34
  0
LINE
  8
0
  6
LTYPE3
 62
     2
 10
1000.62
 20
782.84
 11
1145.12
 21
782.84
  0
LINE
  8
0
  6
CONTINUOUS
 62
     1
 10
1055.12
 20
770.34
 11
1115.12
 21
770.34
  0
LINE
  8
0
  6
CONTINUOUS
 62
     1
 10
1115.12
 20
755.34
 11
1115.12
 21
770.34
  0
LINE
  8
0
  6
CONTINUOUS
 62
     1
 10
1068.12
 20
750.84
 11
1112.12
 21
750.84
  0
LINE
  8
0
  6
CONTINUOUS
 62
     1
 10
1077.62
 20
744.84
 11
1102.62
 21
744.84
  0
LINE
  8
0
  6
CONTINUOUS
 62
     1
 10
1102.62
 20
744.84
 11
1102.62
 21
750.84
  0
LINE
  8
0
  6
CONTINUOUS
 62
     1
 10
1077.62
 20
744.84
 11
1077.62
 21
750.84
  0
LINE
  8
0
  6
CONTINUOUS
 62
     1
 10
1112.12
 20
750.84
 11
1112.12
 21
755.34
  0
LINE
  8
0
  6
CONTINUOUS
 62
     1
 10
1068.12
 20
750.84
 11
1068.12
 21
755.34
  0
CIRCLE
  8
0
  6
CONTINUOUS
 62
     1
 10
1090.12
 20
748.84
 40
2.0
  0
LINE
  8
0
  6
LTYPE5
 62
     2
 10
1086.12
 20
748.94
 11
1094.32
 21
748.94
  0
LINE
  8
0
  6
LTYPE1
 62
     2
 10
1102.62
 20
750.84
 11
1102.62
 21
770.34
  0
LINE
  8
0
  6
LTYPE1
 62
     2
 10
1077.62
 20
750.84
 11
1077.62
 21
770.34
  0
LINE
  8
0
  6
CONTINUOUS
 62
     1
 10
1055.12
 20
770.34
 11
1055.12
 21
795.34
  0
LINE
  8
0
  6
CONTINUOUS
 62
     1
 10
1077.62
 20
770.34
 11
1077.62
 21
795.34
  0
LINE
  8
0
  6
CONTINUOUS
 62
     1
 10
1102.62
 20
770.34
 11
1102.62
 21
795.34
  0
LINE
  8
0
  6
LTYPE5
 62
     2
 10
1090.12
 20
739.84
 11
1090.12
 21
820.84
  0
LINE
  8
0
  6
LTYPE5
 62
     2
 10
1090.12
 20
825.84
 11
1090.12
 21
744.84
  0
LINE
  8
0
  6
CONTINUOUS
 62
     1
 10
1077.62
 20
795.34
 11
1077.62
 21
770.34
  0
LINE
  8
0
  6
CONTINUOUS
 62
     1
 10
1102.62
 20
795.34
 11
1102.62
 21
770.34
  0
LINE
  8
0
  6
CONTINUOUS
 62
     2
 10
1122.62
 20
755.34
 11
1200.12
 21
755.34
  0
LINE
  8
0
  6
CONTINUOUS
 62
     2
 10
1192.62
 20
755.34
 11
1195.855238064
 21
767.414072829
  0
LINE
  8
0
  6
CONTINUOUS
 62
     2
 10
1192.62
 20
755.34
 11
1189.384761936
 21
767.414072829
  0
LINE
  8
0
  6
CONTINUOUS
 62
     2
 10
1192.62
 20
755.34
 11
1192.62
 21
810.34
  0
LINE
  8
0
  6
CONTINUOUS
 62
     2
 10
1122.62
 20
770.34
 11
1171.62
 21
770.34
  0
LINE
  8
0
  6
CONTINUOUS
 62
     2
 10
1164.12
 20
770.34
 11
1160.884761936
 21
758.265927171
  0
LINE
  8
0
  6
CONTINUOUS
 62
     2
 10
1164.12
 20
770.34
 11
1167.355238064
 21
758.265927171
  0
LINE
  8
0
  6
CONTINUOUS
 62
     2
 10
1055.12
 20
700.34
 11
1067.194072829
 21
697.104761936
  0
LINE
  8
0
  6
CONTINUOUS
 62
     2
 10
1055.12
 20
700.34
 11
1067.194072829
 21
703.575238064
  0
LINE
  8
0
  6
CONTINUOUS
 62
     2
 10
1055.12
 20
700.34
 11
1090.12
 21
700.34
  0
LINE
  8
0
  6
CONTINUOUS
 62
     2
 10
1090.12
 20
700.34
 11
1078.045927171
 21
703.575238064
  0
LINE
  8
0
  6
CONTINUOUS
 62
     2
 10
1090.12
 20
700.34
 11
1078.045927171
 21
697.104761936
  0
LINE
  8
0
  6
CONTINUOUS
 62
     2
 10
1055.12
 20
700.34
 11
1067.194072829
 21
697.104761936
  0
LINE
  8
0
  6
CONTINUOUS
 62
     2
 10
1055.12
 20
700.34
 11
1067.194072829
 21
703.575238064
  0
LINE
  8
0
  6
CONTINUOUS
 62
     2
 10
1040.12
 20
700.34
 11
1028.045927171
 21
703.575238064
  0
LINE
  8
0
  6
CONTINUOUS
 62
     2
 10
1040.12
 20
700.34
 11
1028.045927171
 21
697.104761936
  0
LINE
  8
0
  6
CONTINUOUS
 62
     2
 10
1090.12
 20
735.24
 11
1090.12
 21
692.84
  0
LINE
  8
0
  6
CONTINUOUS
 62
     2
 10
1055.12
 20
767.74
 11
1055.12
 21
692.84
  0
LINE
  8
0
  6
CONTINUOUS
 62
     2
 10
1040.12
 20
743.74
 11
1040.12
 21
692.84
  0
LINE
  8
0
  6
CONTINUOUS
 62
     1
 10
1040.12
 20
755.34
 11
1115.12
 21
755.34
  0
LINE
  8
0
  6
CONTINUOUS
 62
     2
 10
1164.12
 20
760.34
 11
1164.12
 21
846.84
  0
LINE
  8
0
  6
CONTINUOUS
 62
     1
 10
1055.12
 20
795.34
 11
1115.12
 21
795.34
  0
LINE
  8
0
  6
CONTINUOUS
 62
     1
 10
1115.12
 20
810.34
 11
1115.12
 21
795.34
  0
LINE
  8
0
  6
CONTINUOUS
 62
     1
 10
1068.12
 20
814.84
 11
1112.12
 21
814.84
  0
LINE
  8
0
  6
CONTINUOUS
 62
     1
 10
1077.62
 20
820.84
 11
1102.62
 21
820.84
  0
LINE
  8
0
  6
CONTINUOUS
 62
     1
 10
1102.62
 20
820.84
 11
1102.62
 21
814.84
  0
LINE
  8
0
  6
CONTINUOUS
 62
     1
 10
1077.62
 20
820.84
 11
1077.62
 21
814.84
  0
LINE
  8
0
  6
CONTINUOUS
 62
     1
 10
1112.12
 20
814.84
 11
1112.12
 21
810.34
  0
LINE
  8
0
  6
CONTINUOUS
 62
     1
 10
1068.12
 20
814.84
 11
1068.12
 21
810.34
  0
CIRCLE
  8
0
  6
CONTINUOUS
 62
     1
 10
1090.12
 20
816.84
 40
2.0
  0
LINE
  8
0
  6
LTYPE5
 62
     2
 10
1086.12
 20
816.74
 11
1094.32
 21
816.74
  0
LINE
  8
0
  6
LTYPE1
 62
     2
 10
1102.62
 20
814.84
 11
1102.62
 21
795.34
  0
LINE
  8
0
  6
LTYPE1
 62
     2
 10
1077.62
 20
814.84
 11
1077.62
 21
795.34
  0
LINE
  8
0
  6
CONTINUOUS
 62
     2
 10
1192.62
 20
810.34
 11
1189.384761936
 21
798.265927171
  0
LINE
  8
0
  6
CONTINUOUS
 62
     2
 10
1192.62
 20
810.34
 11
1195.855238064
 21
798.265927171
  0
LINE
  8
0
  6
CONTINUOUS
 62
     2
 10
1122.62
 20
810.34
 11
1200.12
 21
810.34
  0
LINE
  8
0
  6
CONTINUOUS
 62
     2
 10
1164.12
 20
795.34
 11
1167.355238064
 21
807.414072829
  0
LINE
  8
0
  6
CONTINUOUS
 62
     2
 10
1164.12
 20
795.34
 11
1160.884761936
 21
807.414072829
  0
LINE
  8
0
  6
CONTINUOUS
 62
     2
 10
1122.62
 20
795.34
 11
1171.62
 21
795.34
  0
LINE
  8
0
  6
CONTINUOUS
 62
     1
 10
1040.12
 20
810.34
 11
1115.12
 21
810.34
  0
LINE
  8
0
  6
CONTINUOUS
 62
     1
 10
1040.12
 20
749.84
 11
1040.12
 21
810.34
  0
LINE
  8
2
  6
CONTINUOUS
 62
     2
 10
995.12
 20
387.14
 11
1007.194072829
 21
390.375238064
  0
LINE
  8
2
  6
CONTINUOUS
 62
     2
 10
995.12
 20
387.14
 11
983.045927171
 21
390.375238064
  0
LINE
  8
2
  6
CONTINUOUS
 62
     2
 10
995.12
 20
387.14
 11
1007.194072829
 21
383.904761936
  0
LINE
  8
2
  6
CONTINUOUS
 62
     2
 10
995.12
 20
387.14
 11
983.045927171
 21
383.904761936
  0
LINE
  8
2
  6
CONTINUOUS
 62
     2
 10
995.12
 20
549.74
 11
995.12
 21
377.14
  0
LINE
  8
2
  6
CONTINUOUS
 62
     2
 10
995.12
 20
387.14
 11
1040.12
 21
387.14
  0
TEXT
  8
0
  6
CONTINUOUS
 62
     2
 10
1165.72
 20
582.49
 30
0.0
 40
18.0
  1
５０
 50
90.0
 41
0.9
 51
0.0
  7
KANJI17
  0
TEXT
  8
0
  6
CONTINUOUS
 62
     2
 10
1134.12
 20
673.34
 30
0.0
 40
18.0
  1
φ２５Ｈ１０
 50
0.0
 41
0.9
 51
0.0
  7
KANJI17
  0
TEXT
  8
0
  6
CONTINUOUS
 62
     2
 10
1178.62
 20
648.84
 30
0.0
 40
18.0
  1
ｄ９
 50
0.0
 41
0.9
 51
0.0
  7
KANJI17
  0
TEXT
  8
2
  6
CONTINUOUS
 62
     2
 10
1048.37
 20
392.14
 30
0.0
 40
18.0
  1
５０
 50
0.0
 41
0.9
 51
0.0
  7
KANJI17
  0
TEXT
  8
0
  6
CONTINUOUS
 62
     2
 10
1003.87
 20
703.34
 30
0.0
 40
18.0
  1
１５
 50
0.0
 41
0.9
 51
0.0
  7
KANJI17
  0
TEXT
  8
0
  6
CONTINUOUS
 62
     2
 10
1187.62
 20
768.59
 30
0.0
 40
18.0
  1
５５
 50
90.0
 41
0.9
 51
0.0
  7
KANJI17
  0
TEXT
  8
0
  6
CONTINUOUS
 62
     2
 10
1058.37
 20
705.34
 30
0.0
 40
18.0
  1
３５
 50
0.0
 41
0.9
 51
0.0
  7
KANJI17
  0
TEXT
  8
0
  6
CONTINUOUS
 62
     2
 10
1159.12
 20
814.09
 30
0.0
 40
18.0
  1
２５
 50
90.0
 41
0.9
 51
0.0
  7
KANJI17
  0
LINE
  8
2
  6
CONTINUOUS
 62
     2
 10
1090.12
 20
706.34
 11
1090.12
 21
694.34
  0
LINE
  8
2
  6
CONTINUOUS
 62
     2
 10
1090.12
 20
700.34
 11
1075.631112606
 21
704.222285677
  0
LINE
  8
2
  6
CONTINUOUS
 62
     2
 10
1090.12
 20
700.34
 11
1075.631112606
 21
696.457714323
  0
LINE
  8
2
  6
CONTINUOUS
 62
     2
 10
1067.62
 20
700.34
 11
1090.12
 21
700.34
  0
LINE
  8
2
  6
CONTINUOUS
 62
     2
 10
1090.12
 20
700.34
 11
1115.12
 21
700.34
  0
LINE
  8
2
  6
CONTINUOUS
 62
     2
 10
1115.12
 20
700.34
 11
1170.02
 21
700.34
  0
LINE
  8
2
  6
CONTINUOUS
 62
     2
 10
1115.12
 20
700.34
 11
1129.608887394
 21
696.457714323
  0
LINE
  8
2
  6
CONTINUOUS
 62
     2
 10
1115.12
 20
700.34
 11
1129.608887394
 21
704.222285677
  0
LINE
  8
2
  6
CONTINUOUS
 62
     2
 10
1115.12
 20
749.34
 11
1115.12
 21
694.34
  0
TEXT
  8
2
  6
CONTINUOUS
 62
     3
 10
1137.62
 20
706.34
 30
0.0
 40
18.0
  1
２５
 50
0.0
 41
0.9
 51
0.0
  7
KANJI17
  0
LINE
  8
0
  6
CONTINUOUS
 62
     1
 10
1040.12
 20
622.24
 11
1107.12
 21
622.24
  0
LINE
  8
0
  6
CONTINUOUS
 62
     1
 10
1040.12
 20
584.24
 11
1040.12
 21
622.24
  0
LINE
  8
0
  6
CONTINUOUS
 62
     1
 10
1040.12
 20
564.24
 11
1040.12
 21
630.24
  0
LINE
  8
0
  6
CONTINUOUS
 62
     1
 10
1040.12
 20
572.24
 11
985.12
 21
572.24
  0
LINE
  8
0
  6
CONTINUOUS
 62
     2
 10
1109.333333
 20
953.833317
 11
1097.259260171
 21
957.068555064
  0
LINE
  8
0
  6
CONTINUOUS
 62
     2
 10
1109.333333
 20
953.833317
 11
1097.259260171
 21
950.598078936
  0
LINE
  8
0
  6
CONTINUOUS
 62
     2
 10
1109.333333
 20
953.833317
 11
1068.333333
 21
953.833317
  0
TEXT
  8
0
  6
CONTINUOUS
 62
     3
 10
1075.333333
 20
963.833317
 30
0.0
 40
20.0
  1
前進
 50
0.0
 41
0.925
 51
0.0
  7
KANJI26
  0
ARC
  8
0
  6
CONTINUOUS
 62
     1
 10
1324.12
 20
525.74
 40
6.0
 50
180.0
 51
270.0
  0
ARC
  8
0
  6
CONTINUOUS
 62
     1
 10
1466.12
 20
525.74
 40
6.0
 50
270.0
 51
0.0
  0
LINE
  8
0
  6
CONTINUOUS
 62
     1
 10
1475.12
 20
576.24
 11
1475.12
 21
618.24
  0
LINE
  8
0
  6
CONTINUOUS
 62
     1
 10
1344.12
 20
488.24
 11
1344.12
 21
534.74
  0
ARC
  8
0
  6
CONTINUOUS
 62
     1
 10
1345.12
 20
488.24
 40
1.0
 50
180.0
 51
270.0
  0
ARC
  8
0
  6
CONTINUOUS
 62
     1
 10
1348.12
 20
487.24
 40
1.0
 50
180.0
 51
270.0
  0
ARC
  8
0
  6
CONTINUOUS
 62
     1
 10
1443.12
 20
534.74
 40
3.0
 50
0.0
 51
90.0
  0
LINE
  8
0
  6
CONTINUOUS
 62
     1
 10
1446.12
 20
488.24
 11
1446.12
 21
534.74
  0
ARC
  8
0
  6
CONTINUOUS
 62
     1
 10
1445.12
 20
488.24
 40
1.0
 50
270.0
 51
0.0
  0
ARC
  8
0
  6
CONTINUOUS
 62
     1
 10
1442.12
 20
487.24
 40
1.0
 50
270.0
 51
0.0
  0
LINE
  8
0
  6
CONTINUOUS
 62
     1
 10
1446.12
 20
493.24
 11
1344.12
 21
493.24
  0
LINE
  8
0
  6
CONTINUOUS
 62
     1
 10
1446.12
 20
494.74
 11
1344.12
 21
494.74
  0
LINE
  8
0
  6
CONTINUOUS
 62
     1
 10
1442.12
 20
486.24
 11
1348.12
 21
486.24
  0
LINE
  8
0
  6
CONTINUOUS
 62
     1
 10
1445.12
 20
487.24
 11
1345.12
 21
487.24
  0
ARC
  8
0
  6
CONTINUOUS
 62
     1
 10
1341.12
 20
651.24
 40
5.0
 50
90.0
 51
180.0
  0
ARC
  8
0
  6
CONTINUOUS
 62
     1
 10
1449.12
 20
651.24
 40
5.0
 50
0.0
 51
90.0
  0
ARC
  8
0
  6
CONTINUOUS
 62
     1
 10
1449.12
 20
543.24
 40
5.0
 50
270.0
 51
360.0
  0
ARC
  8
0
  6
CONTINUOUS
 62
     1
 10
1341.12
 20
543.24
 40
5.0
 50
180.0
 51
270.0
  0
LINE
  8
0
  6
CONTINUOUS
 62
     1
 10
1454.12
 20
620.765046491
 11
1454.12
 21
651.24
  0
LINE
  8
0
  6
CONTINUOUS
 62
     1
 10
1454.12
 20
573.714953509
 11
1454.12
 21
543.24
  0
LINE
  8
0
  6
CONTINUOUS
 62
     1
 10
1440.12
 20
538.24
 11
1449.12
 21
538.24
  0
LINE
  8
0
  6
CONTINUOUS
 62
     1
 10
1350.12
 20
538.24
 11
1341.12
 21
538.24
  0
ARC
  8
0
  6
CONTINUOUS
 62
     1
 10
1348.12
 20
550.24
 40
9.0
 50
77.327684064
 51
282.116861929
  0
ARC
  8
0
  6
CONTINUOUS
 62
     1
 10
1442.12
 20
550.24
 40
9.0
 50
257.883138071
 51
102.672315936
  0
LINE
  8
0
  6
CONTINUOUS
 62
     1
 10
1422.62
 20
622.24
 11
1407.62
 21
622.24
  0
LINE
  8
0
  6
CONTINUOUS
 62
     1
 10
1427.12
 20
575.24
 11
1427.12
 21
619.24
  0
LINE
  8
0
  6
CONTINUOUS
 62
     1
 10
1433.12
 20
584.74
 11
1433.12
 21
609.74
  0
LINE
  8
0
  6
CONTINUOUS
 62
     1
 10
1433.12
 20
609.74
 11
1427.12
 21
609.74
  0
LINE
  8
0
  6
CONTINUOUS
 62
     1
 10
1433.12
 20
584.74
 11
1427.12
 21
584.74
  0
LINE
  8
0
  6
CONTINUOUS
 62
     1
 10
1427.12
 20
619.24
 11
1422.62
 21
619.24
  0
LINE
  8
0
  6
CONTINUOUS
 62
     1
 10
1427.12
 20
575.24
 11
1422.62
 21
575.24
  0
CIRCLE
  8
0
  6
CONTINUOUS
 62
     1
 10
1429.12
 20
597.24
 40
2.0
  0
LINE
  8
0
  6
CONTINUOUS
 62
     1
 10
1363.12
 20
575.24
 11
1363.12
 21
619.24
  0
LINE
  8
0
  6
CONTINUOUS
 62
     1
 10
1357.12
 20
584.74
 11
1357.12
 21
609.74
  0
LINE
  8
0
  6
CONTINUOUS
 62
     1
 10
1357.12
 20
609.74
 11
1363.12
 21
609.74
  0
LINE
  8
0
  6
CONTINUOUS
 62
     1
 10
1357.12
 20
584.74
 11
1363.12
 21
584.74
  0
LINE
  8
0
  6
CONTINUOUS
 62
     1
 10
1363.12
 20
619.24
 11
1367.62
 21
619.24
  0
LINE
  8
0
  6
CONTINUOUS
 62
     1
 10
1363.12
 20
575.24
 11
1367.62
 21
575.24
  0
CIRCLE
  8
0
  6
CONTINUOUS
 62
     1
 10
1361.12
 20
597.24
 40
2.0
  0
LINE
  8
0
  6
CONTINUOUS
 62
     1
 10
1407.62
 20
584.74
 11
1382.62
 21
584.74
  0
LINE
  8
0
  6
CONTINUOUS
 62
     1
 10
1407.62
 20
609.74
 11
1382.62
 21
609.74
  0
LINE
  8
0
  6
CONTINUOUS
 62
     1
 10
1382.62
 20
584.74
 11
1407.62
 21
584.74
  0
LINE
  8
0
  6
CONTINUOUS
 62
     1
 10
1382.62
 20
609.74
 11
1407.62
 21
609.74
  0
LINE
  8
0
  6
CONTINUOUS
 62
     1
 10
1367.62
 20
622.24
 11
1407.62
 21
622.24
  0
LINE
  8
0
  6
CONTINUOUS
 62
     1
 10
1422.62
 20
572.24
 11
1422.62
 21
622.24
  0
LINE
  8
0
  6
CONTINUOUS
 62
     1
 10
1367.62
 20
572.24
 11
1422.62
 21
572.24
  0
LINE
  8
0
  6
CONTINUOUS
 62
     1
 10
1407.62
 20
572.24
 11
1407.62
 21
622.24
  0
LINE
  8
0
  6
CONTINUOUS
 62
     1
 10
1382.62
 20
572.24
 11
1382.62
 21
622.24
  0
LINE
  8
0
  6
CONTINUOUS
 62
     1
 10
1367.62
 20
572.24
 11
1367.62
 21
622.24
  0
LINE
  8
0
  6
CONTINUOUS
 62
     1
 10
1446.12
 20
519.74
 11
1466.12
 21
519.74
  0
LINE
  8
0
  6
CONTINUOUS
 62
     1
 10
1324.12
 20
519.74
 11
1344.12
 21
519.74
  0
LINE
  8
0
  6
CONTINUOUS
 62
     1
 10
1472.12
 20
525.74
 11
1472.12
 21
575.879279073
  0
LINE
  8
0
  6
CONTINUOUS
 62
     1
 10
1318.12
 20
525.74
 11
1318.12
 21
575.879279073
  0
LINE
  8
0
  6
LTYPE1
 62
     2
 10
1340.12
 20
587.24
 11
1340.12
 21
607.24
  0
LINE
  8
0
  6
LTYPE1
 62
     2
 10
1340.12
 20
607.24
 11
1315.12
 21
607.24
  0
LINE
  8
0
  6
LTYPE1
 62
     2
 10
1340.12
 20
587.24
 11
1315.12
 21
587.24
  0
LINE
  8
0
  6
LTYPE1
 62
     2
 10
1450.12
 20
587.24
 11
1450.12
 21
607.24
  0
LINE
  8
0
  6
LTYPE1
 62
     2
 10
1450.12
 20
607.24
 11
1475.12
 21
607.24
  0
LINE
  8
0
  6
LTYPE1
 62
     2
 10
1450.12
 20
587.24
 11
1475.12
 21
587.24
  0
LINE
  8
0
  6
LTYPE2
 62
     2
 10
1440.12
 20
482.54
 11
1440.12
 21
501.24
  0
LINE
  8
0
  6
LTYPE2
 62
     2
 10
1350.12
 20
482.54
 11
1350.12
 21
501.24
  0
LINE
  8
0
  6
LTYPE2
 62
     2
 10
1360.52
 20
644.24
 11
1336.72
 21
644.24
  0
LINE
  8
0
  6
LTYPE2
 62
     2
 10
1348.12
 20
632.905527109
 11
1348.12
 21
655.005527109
  0
LINE
  8
0
  6
LTYPE2
 62
     2
 10
1429.72
 20
644.24
 11
1453.52
 21
644.24
  0
LINE
  8
0
  6
LTYPE2
 62
     2
 10
1442.12
 20
632.905527109
 11
1442.12
 21
655.005527109
  0
LINE
  8
0
  6
LTYPE2
 62
     2
 10
1429.72
 20
550.24
 11
1453.52
 21
550.24
  0
LINE
  8
0
  6
LTYPE2
 62
     2
 10
1360.52
 20
550.24
 11
1336.72
 21
550.24
  0
LINE
  8
0
  6
LTYPE2
 62
     2
 10
1348.12
 20
540.39
 11
1348.12
 21
563.49
  0
LINE
  8
0
  6
LTYPE2
 62
     2
 10
1429.72
 20
550.24
 11
1453.52
 21
550.24
  0
LINE
  8
0
  6
LTYPE2
 62
     2
 10
1442.12
 20
540.39
 11
1442.12
 21
563.49
  0
LINE
  8
0
  6
LTYPE5
 62
     2
 10
1429.02
 20
593.24
 11
1429.02
 21
601.44
  0
LINE
  8
0
  6
LTYPE1
 62
     2
 10
1427.12
 20
609.74
 11
1407.62
 21
609.74
  0
LINE
  8
0
  6
LTYPE1
 62
     2
 10
1427.12
 20
584.74
 11
1407.62
 21
584.74
  0
LINE
  8
0
  6
LTYPE5
 62
     2
 10
1361.22
 20
593.24
 11
1361.22
 21
601.44
  0
LINE
  8
0
  6
LTYPE1
 62
     2
 10
1363.12
 20
609.74
 11
1382.62
 21
609.74
  0
LINE
  8
0
  6
LTYPE1
 62
     2
 10
1363.12
 20
584.74
 11
1382.62
 21
584.74
  0
LINE
  8
0
  6
LTYPE2
 62
     3
 10
1395.12
 20
495.7275
 11
1395.12
 21
540.89
  0
LINE
  8
0
  6
CONTINUOUS
 62
     2
 10
1318.12
 20
518.24
 11
1318.12
 21
430.54
  0
LINE
  8
0
  6
CONTINUOUS
 62
     2
 10
1472.12
 20
518.24
 11
1472.12
 21
430.54
  0
LINE
  8
0
  6
CONTINUOUS
 62
     2
 10
1315.12
 20
568.74
 11
1315.12
 21
390.0775
  0
LINE
  8
0
  6
CONTINUOUS
 62
     2
 10
1475.12
 20
568.74
 11
1475.12
 21
390.0775
  0
LINE
  8
0
  6
LTYPE5
 62
     2
 10
1305.82
 20
597.24
 11
1433.12
 21
597.24
  0
LINE
  8
0
  6
LTYPE5
 62
     2
 10
1504.12
 20
597.24
 11
1357.12
 21
597.24
  0
CIRCLE
  8
0
  6
CONTINUOUS
 62
     2
 10
1395.12
 20
511.74
 40
10.4775
  0
CIRCLE
  8
0
  6
CONTINUOUS
 62
     2
 10
1395.12
 20
511.74
 40
9.3155
  0
LINE
  8
0
  6
LTYPE3
 62
     2
 10
1415.02
 20
511.74
 11
1374.32
 21
511.74
  0
LINE
  8
0
  6
CONTINUOUS
 62
     1
 10
1336.12
 20
644.34
 11
1336.12
 21
651.24
  0
ARC
  8
0
  6
CONTINUOUS
 62
     1
 10
1348.12
 20
644.24
 40
9.0
 50
0.0
 51
4.497151615
  0
LINE
  8
0
  6
CONTINUOUS
 62
     1
 10
1336.12
 20
620.765046491
 11
1336.12
 21
644.34
  0
LINE
  8
0
  6
CONTINUOUS
 62
     1
 10
1315.12
 20
576.24
 11
1315.12
 21
618.24
  0
LINE
  8
0
  6
CONTINUOUS
 62
     1
 10
1336.12
 20
573.54
 11
1336.12
 21
543.24
  0
ARC
  8
0
  6
CONTINUOUS
 62
     1
 10
1348.12
 20
644.24
 40
9.0
 50
179.370401392
 51
255.963756532
  0
ARC
  8
0
  6
CONTINUOUS
 62
     1
 10
1348.12
 20
644.24
 40
9.0
 50
12.528807709
 51
179.370401392
  0
ARC
  8
0
  6
CONTINUOUS
 62
     1
 10
1442.12
 20
644.24
 40
9.0
 50
281.309932473
 51
167.471192291
  0
TEXT
  8
0
  6
CONTINUOUS
 62
     2
 10
1373.37
 20
443.04
 30
0.0
 40
18.0
  1
１５４
 50
0.0
 41
0.9
 51
0.0
  7
KANJI17
  0
LINE
  8
0
  6
CONTINUOUS
 62
     1
 10
1347.120015259
 20
537.74
 11
1443.12
 21
537.74
  0
ARC
  8
0
  6
CONTINUOUS
 62
     1
 10
1347.12
 20
534.74
 40
3.0
 50
89.999708579
 51
180.0
  0
LINE
  8
0
  6
CONTINUOUS
 62
     1
 10
1350.12
 20
539.24
 11
1440.12
 21
539.24
  0
LINE
  8
0
  6
CONTINUOUS
 62
     1
 10
1355.42
 20
486.24
 11
1344.82
 21
486.24
  0
ARC
  8
0
  6
CONTINUOUS
 62
     1
 10
1350.52
 20
487.24
 40
5.0
 50
272.3
 51
348.5
  0
ARC
  8
0
  6
CONTINUOUS
 62
     1
 10
1349.72
 20
487.24
 40
5.0
 50
191.5
 51
267.7
  0
LINE
  8
0
  6
CONTINUOUS
 62
     1
 10
1350.72
 20
482.24
 11
1349.52
 21
482.24
  0
LINE
  8
0
  6
LTYPE4
 62
     2
 10
1350.12
 20
478.84
 11
1350.12
 21
492.24
  0
LINE
  8
0
  6
CONTINUOUS
 62
     1
 10
1445.42
 20
486.24
 11
1434.82
 21
486.24
  0
ARC
  8
0
  6
CONTINUOUS
 62
     1
 10
1440.52
 20
487.24
 40
5.0
 50
272.3
 51
348.5
  0
ARC
  8
0
  6
CONTINUOUS
 62
     1
 10
1439.72
 20
487.24
 40
5.0
 50
191.5
 51
267.7
  0
LINE
  8
0
  6
CONTINUOUS
 62
     1
 10
1440.72
 20
482.24
 11
1439.52
 21
482.24
  0
LINE
  8
0
  6
LTYPE4
 62
     2
 10
1440.12
 20
478.84
 11
1440.12
 21
492.24
  0
LINE
  8
0
  6
CONTINUOUS
 62
     2
 10
1318.12
 20
438.04
 11
1330.194072829
 21
434.804761936
  0
LINE
  8
0
  6
CONTINUOUS
 62
     2
 10
1318.12
 20
438.04
 11
1330.194072829
 21
441.275238064
  0
LINE
  8
0
  6
CONTINUOUS
 62
     2
 10
1318.12
 20
438.04
 11
1472.12
 21
438.04
  0
LINE
  8
0
  6
CONTINUOUS
 62
     2
 10
1472.12
 20
438.04
 11
1460.045927171
 21
441.275238064
  0
LINE
  8
0
  6
CONTINUOUS
 62
     2
 10
1472.12
 20
438.04
 11
1460.045927171
 21
434.804761936
  0
LINE
  8
0
  6
CONTINUOUS
 62
     2
 10
1315.12
 20
397.5775
 11
1327.194072829
 21
394.342261936
  0
LINE
  8
0
  6
CONTINUOUS
 62
     2
 10
1315.12
 20
397.5775
 11
1327.194072829
 21
400.812738064
  0
LINE
  8
0
  6
CONTINUOUS
 62
     2
 10
1315.12
 20
397.5775
 11
1475.12
 21
397.5775
  0
LINE
  8
0
  6
CONTINUOUS
 62
     2
 10
1475.12
 20
397.5775
 11
1463.045927171
 21
400.812738064
  0
LINE
  8
0
  6
CONTINUOUS
 62
     2
 10
1475.12
 20
397.5775
 11
1463.045927171
 21
394.342261936
  0
TEXT
  8
0
  6
CONTINUOUS
 62
     2
 10
1373.37
 20
402.5775
 30
0.0
 40
18.0
  1
１６０
 50
0.0
 41
0.9
 51
0.0
  7
KANJI17
  0
TEXT
  8
0
  6
CONTINUOUS
 62
     2
 10
1781.92
 20
686.9
 30
12.0
 40
24.0
  1
特記事項
 50
0.0
 41
0.9
 51
0.0
  7
KANJI28
  0
TEXT
  8
0
  6
CONTINUOUS
 62
     2
 10
1697.92
 20
638.9
 30
6.171428571
 40
21.6
  1
１。運転時は必ずピストンロッドの回転防止を行って下さい。
 50
0.0
 41
0.857142857
 51
0.0
  7
KANJI29
  0
TEXT
  8
0
  6
CONTINUOUS
 62
     2
 10
1697.92
 20
598.1
 30
6.156
 40
21.6
  1
２。モートル：全閉自冷かご形３０分定格
 50
0.0
 41
0.857222222
 51
0.0
  7
KANJI30
  0
TEXT
  8
0
  6
CONTINUOUS
 62
     2
 10
1697.5199098
 20
557.3000036
 30
6.156
 40
21.6
  1
３。呼称ストロークは、機械的ストロークです。
 50
0.0
 41
0.857222222
 51
0.0
  7
KANJI30
  0
TEXT
  8
0
  6
CONTINUOUS
 62
     2
 10
1697.5199098
 20
522.8000036
 30
6.156
 40
21.6
  1
　　必ず、常用はストローク両端に余裕を取って下さい。
 50
0.0
 41
0.857222222
 51
0.0
  7
KANJI30
  0
LINE
  8
0
  6
CONTINUOUS
 62
     2
 10
1765.12
 20
680.3
 11
1911.52
 21
680.3
  0
LINE
  8
0
  6
CONTINUOUS
 62
     1
 10
1009.12
 20
1502.24
 11
1786.72
 21
1502.24
  0
LINE
  8
0
  6
CONTINUOUS
 62
     1
 10
1009.12
 20
1468.64
 11
1786.72
 21
1468.64
  0
TEXT
  8
0
  6
CONTINUOUS
 62
     2
 10
1057.12
 20
1478.24
 30
1.536
 40
15.36
  1
形
 50
0.0
 41
0.9
 51
0.0
  7
KANJI31
  0
TEXT
  8
0
  6
CONTINUOUS
 62
     2
 10
1150.72
 20
1478.24
 30
1.536
 40
15.36
  1
式
 50
0.0
 41
0.9
 51
0.0
  7
KANJI31
  0
TEXT
  8
0
  6
CONTINUOUS
 62
     2
 10
1223.2
 20
1477.28
 30
1.44
 40
14.4
  1
ストローク
 50
0.0
 41
0.9
 51
0.0
  7
KANJI32
  0
TEXT
  8
0
  6
CONTINUOUS
 62
     2
 10
1315.36
 20
1476.32
 30
0.0
 40
14.4
  1
ｍｉｎ　
 50
0.0
 41
0.9
 51
0.0
  7
KANJI33
  0
TEXT
  8
0
  6
CONTINUOUS
 62
     2
 10
1411.36
 20
1476.32
 30
0.0
 40
14.4
  1
ｍｉｎ　
 50
0.0
 41
0.9
 51
0.0
  7
KANJI33
  0
TEXT
  8
0
  6
CONTINUOUS
 62
     2
 10
1603.36
 20
1476.32
 30
0.0
 40
14.4
  1
ｍｉｎ　
 50
0.0
 41
0.9
 51
0.0
  7
KANJI33
  0
TEXT
  8
0
  6
CONTINUOUS
 62
     2
 10
1364.32
 20
1477.28
 30
1.68
 40
16.8
  1
ＡＬ
 50
0.0
 41
0.9
 51
0.0
  7
KANJI34
  0
TEXT
  8
0
  6
CONTINUOUS
 62
     2
 10
1460.32
 20
1477.28
 30
1.68
 40
16.8
  1
Ｌ
 50
0.0
 41
0.9
 51
0.0
  7
KANJI34
  0
TEXT
  8
0
  6
CONTINUOUS
 62
     2
 10
1541.92
 20
1477.28
 30
1.68
 40
16.8
  1
Ｃ
 50
0.0
 41
0.9
 51
0.0
  7
KANJI34
  0
TEXT
  8
0
  6
CONTINUOUS
 62
     2
 10
1652.32
 20
1477.28
 30
1.68
 40
16.8
  1
Ｐ
 50
0.0
 41
0.9
 51
0.0
  7
KANJI34
  0
TEXT
  8
0
  6
CONTINUOUS
 62
     2
 10
1751.08
 20
1476.92
 30
0.0
 40
12.96
  1
（ｋｇ）
 50
0.0
 41
0.740740741
 51
0.0
  7
KANJI35
  0
TEXT
  8
0
  6
CONTINUOUS
 62
     2
 10
1693.48
 20
1476.68
 30
1.44
 40
16.8
  1
概算重量
 50
0.0
 41
0.857142857
 51
0.0
  7
KANJI36
  0
TEXT
  8
0
  6
CONTINUOUS
 62
     2
 10
1232.32
 20
1443.08
 30
1.44
 40
14.4
  1
　２００
 50
0.0
 41
0.9
 51
0.0
  7
KANJI32
  0
TEXT
  8
0
  6
CONTINUOUS
 62
     2
 10
1232.32
 20
1409.48
 30
1.44
 40
14.4
  1
　３００
 50
0.0
 41
0.9
 51
0.0
  7
KANJI32
  0
TEXT
  8
0
  6
CONTINUOUS
 62
     2
 10
1232.32
 20
1275.08
 30
1.44
 40
14.4
  1
　７００
 50
0.0
 41
0.9
 51
0.0
  7
KANJI32
  0
TEXT
  8
0
  6
CONTINUOUS
 62
     2
 10
1232.32
 20
1342.28
 30
1.44
 40
14.4
  1
　５００
 50
0.0
 41
0.9
 51
0.0
  7
KANJI32
  0
TEXT
  8
0
  6
CONTINUOUS
 62
     2
 10
1232.32
 20
1375.88
 30
1.44
 40
14.4
  1
　４００
 50
0.0
 41
0.9
 51
0.0
  7
KANJI32
  0
TEXT
  8
0
  6
CONTINUOUS
 62
     2
 10
1232.32
 20
1308.68
 30
1.44
 40
14.4
  1
　６００
 50
0.0
 41
0.9
 51
0.0
  7
KANJI32
  0
TEXT
  8
0
  6
CONTINUOUS
 62
     2
 10
1232.32
 20
1241.48
 30
1.44
 40
14.4
  1
　８００
 50
0.0
 41
0.9
 51
0.0
  7
KANJI32
  0
LINE
  8
0
  6
CONTINUOUS
 62
     1
 10
1009.12
 20
1066.04
 11
1786.72
 21
1066.04
  0
LINE
  8
0
  6
CONTINUOUS
 62
     1
 10
1009.12
 20
1502.24
 11
1009.12
 21
1066.04
  0
LINE
  8
0
  6
CONTINUOUS
 62
     1
 10
1210.72
 20
1502.24
 11
1210.72
 21
1066.04
  0
LINE
  8
0
  6
CONTINUOUS
 62
     2
 10
1306.72
 20
1502.24
 11
1306.72
 21
1066.04
  0
LINE
  8
0
  6
CONTINUOUS
 62
     2
 10
1402.72
 20
1502.24
 11
1402.72
 21
1066.04
  0
LINE
  8
0
  6
CONTINUOUS
 62
     2
 10
1498.72
 20
1502.24
 11
1498.72
 21
1066.04
  0
LINE
  8
0
  6
CONTINUOUS
 62
     2
 10
1594.72
 20
1502.24
 11
1594.72
 21
1066.04
  0
LINE
  8
0
  6
CONTINUOUS
 62
     2
 10
1690.72
 20
1502.24
 11
1690.72
 21
1066.04
  0
LINE
  8
0
  6
CONTINUOUS
 62
     1
 10
1786.72
 20
1502.24
 11
1786.72
 21
1066.04
  0
TEXT
  8
0
  6
CONTINUOUS
 62
     2
 10
1232.32
 20
1174.28
 30
1.44
 40
14.4
  1
１０００
 50
0.0
 41
0.9
 51
0.0
  7
KANJI32
  0
TEXT
  8
0
  6
CONTINUOUS
 62
     2
 10
1232.32
 20
1207.88
 30
1.44
 40
14.4
  1
　９００
 50
0.0
 41
0.9
 51
0.0
  7
KANJI32
  0
TEXT
  8
0
  6
CONTINUOUS
 62
     2
 10
1232.32
 20
1140.88
 30
1.44
 40
14.4
  1
１１００
 50
0.0
 41
0.9
 51
0.0
  7
KANJI32
  0
TEXT
  8
0
  6
CONTINUOUS
 62
     2
 10
1232.32
 20
1107.28
 30
1.44
 40
14.4
  1
１２００
 50
0.0
 41
0.9
 51
0.0
  7
KANJI32
  0
LINE
  8
0
  6
CONTINUOUS
 62
     2
 10
1009.12
 20
1435.04
 11
1786.72
 21
1435.04
  0
LINE
  8
0
  6
CONTINUOUS
 62
     2
 10
1009.12
 20
1401.44
 11
1786.72
 21
1401.44
  0
LINE
  8
0
  6
CONTINUOUS
 62
     2
 10
1009.12
 20
1233.44
 11
1786.72
 21
1233.44
  0
LINE
  8
0
  6
CONTINUOUS
 62
     2
 10
1009.12
 20
1334.24
 11
1786.72
 21
1334.24
  0
LINE
  8
0
  6
CONTINUOUS
 62
     2
 10
1009.12
 20
1367.84
 11
1786.72
 21
1367.84
  0
LINE
  8
0
  6
CONTINUOUS
 62
     2
 10
1009.12
 20
1267.04
 11
1786.72
 21
1267.04
  0
LINE
  8
0
  6
CONTINUOUS
 62
     2
 10
1009.12
 20
1300.64
 11
1786.72
 21
1300.64
  0
TEXT
  8
0
  6
CONTINUOUS
 62
     2
 10
1616.32
 20
1443.08
 30
1.44
 40
14.4
  1
　　４５
 50
0.0
 41
0.9
 51
0.0
  7
KANJI32
  0
TEXT
  8
0
  6
CONTINUOUS
 62
     2
 10
1616.32
 20
1409.48
 30
1.44
 40
14.4
  1
　　４５
 50
0.0
 41
0.9
 51
0.0
  7
KANJI32
  0
TEXT
  8
0
  6
CONTINUOUS
 62
     2
 10
1616.32
 20
1375.88
 30
1.44
 40
14.4
  1
　　８５
 50
0.0
 41
0.9
 51
0.0
  7
KANJI32
  0
TEXT
  8
0
  6
CONTINUOUS
 62
     2
 10
1616.32
 20
1342.28
 30
1.44
 40
14.4
  1
　１１２
 50
0.0
 41
0.9
 51
0.0
  7
KANJI32
  0
TEXT
  8
0
  6
CONTINUOUS
 62
     2
 10
1616.32
 20
1308.68
 30
1.44
 40
14.4
  1
　１２８
 50
0.0
 41
0.9
 51
0.0
  7
KANJI32
  0
TEXT
  8
0
  6
CONTINUOUS
 62
     2
 10
1616.32
 20
1275.08
 30
1.44
 40
14.4
  1
　１４８
 50
0.0
 41
0.9
 51
0.0
  7
KANJI32
  0
TEXT
  8
0
  6
CONTINUOUS
 62
     2
 10
1616.32
 20
1241.48
 30
1.44
 40
14.4
  1
　１６８
 50
0.0
 41
0.9
 51
0.0
  7
KANJI32
  0
LINE
  8
0
  6
CONTINUOUS
 62
     2
 10
1009.12
 20
1199.84
 11
1786.72
 21
1199.84
  0
LINE
  8
0
  6
CONTINUOUS
 62
     2
 10
1009.12
 20
1166.24
 11
1786.72
 21
1166.24
  0
TEXT
  8
0
  6
CONTINUOUS
 62
     2
 10
1616.32
 20
1207.88
 30
1.44
 40
14.4
  1
　１９８
 50
0.0
 41
0.9
 51
0.0
  7
KANJI32
  0
TEXT
  8
0
  6
CONTINUOUS
 62
     2
 10
1616.32
 20
1174.28
 30
1.44
 40
14.4
  1
　２３１
 50
0.0
 41
0.9
 51
0.0
  7
KANJI32
  0
LINE
  8
0
  6
CONTINUOUS
 62
     2
 10
1009.12
 20
1132.64
 11
1786.72
 21
1132.64
  0
LINE
  8
0
  6
CONTINUOUS
 62
     2
 10
1009.12
 20
1099.04
 11
1786.72
 21
1099.04
  0
TEXT
  8
0
  6
CONTINUOUS
 62
     2
 10
1616.32
 20
1140.68
 30
1.44
 40
14.4
  1
　２４５
 50
0.0
 41
0.9
 51
0.0
  7
KANJI32
  0
TEXT
  8
0
  6
CONTINUOUS
 62
     2
 10
1616.32
 20
1107.08
 30
1.44
 40
14.4
  1
　２６８
 50
0.0
 41
0.9
 51
0.0
  7
KANJI32
  0
LINE
  8
0
  6
LTYPE2
 62
     2
 10
699.0
 20
752.24
 11
284.72
 21
752.24
  0
LINE
  8
0
  6
CONTINUOUS
 62
     1
 10
375.12
 20
853.24
 11
384.32
 21
853.24
  0
CIRCLE
  8
0
  6
CONTINUOUS
 62
     1
 10
375.12
 20
867.24
 40
12.5
  0
LINE
  8
0
  6
CONTINUOUS
 62
     1
 10
375.12
 20
854.74
 11
384.32
 21
853.24
  0
ARC
  8
0
  6
CONTINUOUS
 62
     1
 10
375.12
 20
867.24
 40
20.5
 50
300.423432294
 51
0.0
  0
LINE
  8
0
  6
CONTINUOUS
 62
     1
 10
384.880585153
 20
848.334879912
 11
384.32
 21
853.24
  0
ARC
  8
0
  6
CONTINUOUS
 62
     1
 10
386.067984073
 20
848.513488336
 40
1.2
 50
118.393405187
 51
188.554293104
  0
ARC
  8
0
  6
CONTINUOUS
 62
     1
 10
375.12
 20
867.24
 40
20.5
 50
0.0
 51
239.707348078
  0
LINE
  8
0
  6
CONTINUOUS
 62
     1
 10
385.005714286
 20
847.24
 11
384.880585153
 21
848.334879912
  0
LINE
  8
0
  6
CONTINUOUS
 62
     1
 10
391.12
 20
847.24
 11
387.12
 21
795.24
  0
LINE
  8
0
  6
CONTINUOUS
 62
     1
 10
387.12
 20
789.64
 11
387.12
 21
795.24
  0
LINE
  8
0
  6
CONTINUOUS
 62
     1
 10
387.12
 20
728.24
 11
387.12
 21
786.54
  0
ARC
  8
0
  6
CONTINUOUS
 62
     1
 10
381.12
 20
728.24
 40
6.0
 50
270.0
 51
0.0
  0
LINE
  8
0
  6
CONTINUOUS
 62
     1
 10
391.12
 20
728.24
 11
391.12
 21
847.24
  0
LINE
  8
0
  6
CONTINUOUS
 62
     1
 10
385.12
 20
722.24
 11
328.12
 21
722.24
  0
ARC
  8
0
  6
CONTINUOUS
 62
     1
 10
385.12
 20
728.24
 40
6.0
 50
270.0
 51
0.0
  0
LINE
  8
0
  6
CONTINUOUS
 62
     1
 10
387.12
 20
795.24
 11
356.12
 21
795.24
  0
LINE
  8
0
  6
LTYPE2
 62
     2
 10
398.62
 20
867.24
 11
349.62
 21
867.24
  0
LINE
  8
0
  6
CONTINUOUS
 62
     1
 10
375.12
 20
853.24
 11
365.92
 21
853.24
  0
LINE
  8
0
  6
CONTINUOUS
 62
     1
 10
375.12
 20
854.74
 11
365.92
 21
853.24
  0
LINE
  8
0
  6
CONTINUOUS
 62
     1
 10
365.359414847
 20
848.334879912
 11
365.92
 21
853.24
  0
ARC
  8
0
  6
CONTINUOUS
 62
     1
 10
364.172015927
 20
848.513488336
 40
1.2
 50
351.445706896
 51
61.606594813
  0
LINE
  8
0
  6
CONTINUOUS
 62
     1
 10
365.234285714
 20
847.24
 11
365.359414847
 21
848.334879912
  0
ARC
  8
0
  6
CONTINUOUS
 62
     1
 10
365.12
 20
844.24
 40
3.0
 50
90.0
 51
180.0
  0
LINE
  8
0
  6
CONTINUOUS
 62
     1
 10
324.12
 20
735.24
 11
324.12
 21
769.24
  0
LINE
  8
0
  6
CONTINUOUS
 62
     1
 10
362.12
 20
801.24
 11
362.12
 21
844.24
  0
LINE
  8
0
  6
CONTINUOUS
 62
     1
 10
356.12
 20
795.24
 11
328.12
 21
795.24
  0
ARC
  8
0
  6
CONTINUOUS
 62
     1
 10
356.12
 20
801.24
 40
6.0
 50
270.0
 51
360.0
  0
LINE
  8
0
  6
LTYPE2
 62
     2
 10
375.12
 20
833.34
 11
375.12
 21
896.04
  0
ARC
  8
0
  6
CONTINUOUS
 62
     2
 10
262.0
 20
752.0
 40
20.0
 50
231.952957468
 51
156.801409486
  0
LINE
  8
0
  6
CONTINUOUS
 62
     2
 10
243.6170994
 20
759.878385972
 11
245.91179211
 21
769.715824749
  0
TEXT
  8
0
  6
CONTINUOUS
 62
     2
 10
181.6170994
 20
742.878385972
 30
0.0
 40
15.0
  1
前進方向
 50
0.0
 41
0.9
 51
0.0
  7
KANJI27
  0
LINE
  8
0
  6
CONTINUOUS
 62
     2
 10
243.6170994
 20
759.878385972
 11
251.885260778
 21
764.785722507
  0
LINE
  8
0
  6
CONTINUOUS
 62
     1
 10
328.12
 20
519.74
 11
328.12
 21
795.24
  0
LINE
  8
0
  6
CONTINUOUS
 62
     1
 10
399.12
 20
519.74
 11
399.12
 21
847.24
  0
LINE
  8
0
  6
CONTINUOUS
 62
     2
 10
872.603319123
 20
160.683311846
 11
872.603319123
 21
105.233311846
  0
LINE
  8
0
  6
CONTINUOUS
 62
     2
 10
713.403319123
 20
147.233311846
 11
872.603319123
 21
147.233311846
  0
LINE
  8
0
  6
CONTINUOUS
 62
     2
 10
872.603319123
 20
147.233311846
 11
864.875912513
 21
149.303864207
  0
LINE
  8
0
  6
CONTINUOUS
 62
     2
 10
872.603319123
 20
147.233311846
 11
864.875912513
 21
145.162759485
  0
TEXT
  8
0
  6
CONTINUOUS
 62
     3
 10
752.403319123
 20
149.233311846
 30
0.0
 40
15.0
  1
常用ストローク
 50
0.0
 41
0.9
 51
0.0
  7
KANJI27
  0
LINE
  8
0
  6
CONTINUOUS
 62
     2
 10
1531.62
 20
607.24
 11
1534.855238064
 21
619.314072829
  0
LINE
  8
0
  6
CONTINUOUS
 62
     2
 10
1531.62
 20
607.24
 11
1528.384761936
 21
619.314072829
  0
LINE
  8
0
  6
CONTINUOUS
 62
     2
 10
1531.62
 20
587.24
 11
1528.384761936
 21
575.165927171
  0
LINE
  8
0
  6
CONTINUOUS
 62
     2
 10
1531.62
 20
587.24
 11
1534.855238064
 21
575.165927171
  0
LINE
  8
0
  6
CONTINUOUS
 62
     2
 10
1514.12
 20
597.24
 11
1576.492218677
 21
597.24
  0
LINE
  8
0
  6
CONTINUOUS
 62
     2
 10
1568.992218677
 20
597.24
 11
1565.756980613
 21
585.165927171
  0
LINE
  8
0
  6
CONTINUOUS
 62
     2
 10
1568.992218677
 20
597.24
 11
1572.22745674
 21
585.165927171
  0
LINE
  8
0
  6
CONTINUOUS
 62
     2
 10
1568.992218677
 20
597.24
 11
1568.992218677
 21
486.24
  0
LINE
  8
0
  6
CONTINUOUS
 62
     2
 10
1568.992218677
 20
486.24
 11
1572.22745674
 21
498.314072829
  0
LINE
  8
0
  6
CONTINUOUS
 62
     2
 10
1568.992218677
 20
486.24
 11
1565.756980613
 21
498.314072829
  0
LINE
  8
0
  6
CONTINUOUS
 62
     2
 10
1568.992218677
 20
597.24
 11
1572.22745674
 21
609.314072829
  0
LINE
  8
0
  6
CONTINUOUS
 62
     2
 10
1568.992218677
 20
597.24
 11
1565.756980613
 21
609.314072829
  0
TEXT
  8
0
  6
CONTINUOUS
 62
     2
 10
1563.992218677
 20
519.99
 30
0.0
 40
18.0
  1
１１１
 50
90.0
 41
0.9
 51
0.0
  7
KANJI17
  0
LINE
  8
0
  6
CONTINUOUS
 62
     2
 10
1531.62
 20
744.314072829
 11
1531.62
 21
567.49
  0
LINE
  8
0
  6
CONTINUOUS
 62
     2
 10
1568.992218677
 20
752.24
 11
1565.756980613
 21
740.165927171
  0
LINE
  8
0
  6
CONTINUOUS
 62
     2
 10
1568.992218677
 20
752.24
 11
1572.22745674
 21
740.165927171
  0
TEXT
  8
0
  6
CONTINUOUS
 62
     2
 10
1526.342218677
 20
611.99
 30
0.0
 40
18.0
  1
φ２０Ｈ１０深さ２５
 50
90.0
 41
0.9
 51
0.0
  7
KANJI17
  0
LINE
  8
0
  6
CONTINUOUS
 62
     2
 10
1533.12
 20
752.24
 11
1576.492218677
 21
752.24
  0
LINE
  8
0
  6
CONTINUOUS
 62
     2
 10
1568.992218677
 20
597.24
 11
1568.992218677
 21
752.24
  0
TEXT
  8
0
  6
CONTINUOUS
 62
     2
 10
1563.992218677
 20
653.49
 30
0.0
 40
18.0
  1
１５５
 50
90.0
 41
0.9
 51
0.0
  7
KANJI17
  0
LINE
  8
0
  6
LTYPE5
 62
     2
 10
1275.62
 20
752.24
 11
1503.0
 21
752.24
  0
LINE
  8
0
  6
CONTINUOUS
 62
     2
 10
1483.62
 20
607.24
 11
1539.12
 21
607.24
  0
LINE
  8
0
  6
CONTINUOUS
 62
     2
 10
1484.62
 20
587.24
 11
1539.12
 21
587.24
  0
LINE
  8
0
  6
CONTINUOUS
 62
     2
 10
1449.62
 20
486.24
 11
1561.492218677
 21
486.24
  0
LINE
  8
0
  6
CONTINUOUS
 62
     2
 10
1868.92
 20
907.7
 11
2393.92
 21
907.7
  0
LINE
  8
0
  6
CONTINUOUS
 62
     2
 10
1868.92
 20
865.7
 11
2393.92
 21
865.7
  0
LINE
  8
0
  6
CONTINUOUS
 62
     2
 10
1916.92
 20
1243.7
 11
1916.92
 21
907.7
  0
TEXT
  8
0
  6
CONTINUOUS
 62
     2
 10
1901.92
 20
876.5
 30
79.962857143
 40
22.8
  1
付属品
 50
0.0
 41
0.9
 51
0.0
  7
KANJI37
  0
TEXT
  8
0
  6
CONTINUOUS
 62
     2
 10
1901.92
 20
834.5
 30
180.445714286
 40
22.8
  1
台数
 50
0.0
 41
0.9
 51
0.0
  7
KANJI38
  0
LINE
  8
0
  6
CONTINUOUS
 62
     1
 10
1868.92
 20
1639.7
 11
2393.92
 21
1639.7
  0
TEXT
  8
0
  6
CONTINUOUS
 62
     2
 10
1943.92
 20
1595.9
 30
17.09964
 40
27.0
  1
マイティシリンダ仕様
 50
0.0
 41
0.9
 51
0.0
  7
KANJI39
  0
LINE
  8
0
  6
CONTINUOUS
 62
     2
 10
1916.92
 20
949.7
 11
2393.92
 21
949.7
  0
LINE
  8
0
  6
CONTINUOUS
 62
     2
 10
1916.92
 20
1075.7
 11
2393.92
 21
1075.7
  0
LINE
  8
0
  6
CONTINUOUS
 62
     2
 10
1916.92
 20
1117.7
 11
2393.92
 21
1117.7
  0
LINE
  8
0
  6
CONTINUOUS
 62
     2
 10
1868.92
 20
1327.7
 11
2393.92
 21
1327.7
  0
LINE
  8
0
  6
CONTINUOUS
 62
     2
 10
1868.92
 20
1285.7
 11
2393.92
 21
1285.7
  0
LINE
  8
0
  6
CONTINUOUS
 62
     2
 10
1868.92
 20
1243.7
 11
2393.92
 21
1243.7
  0
LINE
  8
0
  6
CONTINUOUS
 62
     2
 10
1916.92
 20
1159.7
 11
2393.92
 21
1159.7
  0
LINE
  8
0
  6
CONTINUOUS
 62
     2
 10
1916.92
 20
1201.7
 11
2393.92
 21
1201.7
  0
LINE
  8
0
  6
CONTINUOUS
 62
     2
 10
1868.92
 20
1537.7
 11
2393.92
 21
1537.7
  0
LINE
  8
0
  6
CONTINUOUS
 62
     2
 10
1868.92
 20
1495.7
 11
2393.92
 21
1495.7
  0
LINE
  8
0
  6
CONTINUOUS
 62
     2
 10
1868.92
 20
1453.7
 11
2393.92
 21
1453.7
  0
LINE
  8
0
  6
CONTINUOUS
 62
     2
 10
1868.92
 20
1411.7
 11
2393.92
 21
1411.7
  0
LINE
  8
0
  6
CONTINUOUS
 62
     2
 10
1868.92
 20
1369.7
 11
2393.92
 21
1369.7
  0
LINE
  8
0
  6
CONTINUOUS
 62
     2
 10
1868.92
 20
1579.7
 11
2393.92
 21
1579.7
  0
TEXT
  8
0
  6
CONTINUOUS
 62
     2
 10
1943.92
 20
1170.5
 30
33.439782857
 40
22.8
  1
電源電圧
 50
0.0
 41
0.9
 51
0.0
  7
KANJI40
  0
TEXT
  8
0
  6
CONTINUOUS
 62
     2
 10
1943.92
 20
1128.5
 30
60.42
 40
22.8
  1
周波数
 50
0.0
 41
0.9
 51
0.0
  7
KANJI41
  0
TEXT
  8
0
  6
CONTINUOUS
 62
     2
 10
1943.92
 20
1086.5
 30
141.36
 40
22.8
  1
電流
 50
0.0
 41
0.9
 51
0.0
  7
KANJI42
  0
TEXT
  8
0
  6
CONTINUOUS
 62
     2
 10
1943.92
 20
1044.5
 30
60.42
 40
22.8
  1
絶縁級
 50
0.0
 41
0.9
 51
0.0
  7
KANJI41
  0
TEXT
  8
0
  6
CONTINUOUS
 62
     2
 10
1901.92
 20
1548.5
 30
180.445714286
 40
22.8
  1
形式
 50
0.0
 41
0.9
 51
0.0
  7
KANJI38
  0
TEXT
  8
0
  6
CONTINUOUS
 62
     2
 10
1901.92
 20
1506.5
 30
180.445714286
 40
22.8
  1
推力
 50
0.0
 41
0.9
 51
0.0
  7
KANJI38
  0
TEXT
  8
0
  6
CONTINUOUS
 62
     2
 10
1901.92
 20
1464.5
 30
29.721428571
 40
22.8
  1
ストローク
 50
0.0
 41
0.9
 51
0.0
  7
KANJI43
  0
TEXT
  8
0
  6
CONTINUOUS
 62
     2
 10
1901.92
 20
1338.5
 30
180.445714286
 40
22.8
  1
構造
 50
0.0
 41
0.9
 51
0.0
  7
KANJI38
  0
TEXT
  8
0
  6
CONTINUOUS
 62
     2
 10
1901.92
 20
1296.5
 30
12.973851429
 40
22.8
  1
過負荷安全装置
 50
0.0
 41
0.9
 51
0.0
  7
KANJI44
  0
TEXT
  8
0
  6
CONTINUOUS
 62
     2
 10
1901.92
 20
1254.5
 30
79.962857143
 40
22.8
  1
塗装色
 50
0.0
 41
0.9
 51
0.0
  7
KANJI37
  0
TEXT
  8
0
  6
CONTINUOUS
 62
     2
 10
1877.92
 20
1380.5
 30
1.954285714
 40
22.8
  1
ピストンロッド回転トルク
 50
0.0
 41
0.9
 51
0.0
  7
KANJI45
  0
LINE
  8
0
  6
CONTINUOUS
 62
     2
 10
1868.92
 20
1033.7
 11
2393.92
 21
1033.7
  0
LINE
  8
0
  6
CONTINUOUS
 62
     2
 10
1916.92
 20
991.7
 11
2393.92
 21
991.7
  0
TEXT
  8
0
  6
CONTINUOUS
 62
     2
 10
1893.37
 20
1237.7
 30
13.2
 40
21.0
  1
モ　トル仕様
 50
0.0
 41
0.9
 51
0.0
  7
KANJI46
  0
TEXT
  8
0
  6
CONTINUOUS
 62
     2
 10
1893.37
 20
1015.7
 30
1.2
 40
21.0
  1
ブレ　キ
 50
0.0
 41
0.9
 51
0.0
  7
KANJI47
  0
LINE
  8
0
  6
CONTINUOUS
 62
     2
 10
1891.72
 20
965.9
 11
1891.72
 21
953.3
  0
TEXT
  8
0
  6
CONTINUOUS
 62
     2
 10
2203.42
 20
1297.7
 30
9.0
 40
21.0
  1
推力リミッタ
 50
0.0
 41
0.9
 51
0.0
  7
KANJI48
  0
TEXT
  8
0
  6
CONTINUOUS
 62
     2
 10
2260.42
 20
1045.7
 30
1.8
 40
18.0
  1
Ｅ
 50
0.0
 41
0.9
 51
0.0
  7
KANJI49
  0
TEXT
  8
0
  6
CONTINUOUS
 62
     2
 10
2216.92
 20
960.5
 30
12.0
 40
21.0
  1
同時切り
 50
0.0
 41
0.9
 51
0.0
  7
KANJI50
  0
TEXT
  8
0
  6
CONTINUOUS
 62
     2
 10
1943.92
 20
1002.5
 30
141.36
 40
22.8
  1
形式
 50
0.0
 41
0.9
 51
0.0
  7
KANJI42
  0
TEXT
  8
0
  6
CONTINUOUS
 62
     2
 10
1943.92
 20
960.5
 30
33.439782857
 40
22.8
  1
操作方式
 50
0.0
 41
0.9
 51
0.0
  7
KANJI40
  0
LINE
  8
0
  6
CONTINUOUS
 62
     2
 10
1891.72
 20
1201.1
 11
1891.72
 21
1187.3
  0
TEXT
  8
0
  6
CONTINUOUS
 62
     2
 10
1943.92
 20
1212.5
 30
3.0
 40
22.8
  1
出力　相数　極数
 50
0.0
 41
0.9
 51
0.0
  7
KANJI51
  0
TEXT
  8
0
  6
CONTINUOUS
 62
     2
 10
1901.92
 20
1422.5
 30
12.0
 40
22.8
  1
公称速度
 50
0.0
 41
0.9
 51
0.0
  7
KANJI52
  0
TEXT
  8
0
  6
CONTINUOUS
 62
     2
 10
2025.82
 20
1421.3
 30
0.0
 40
21.0
  1
（５０／６０Ｈｚ）
 50
0.0
 41
0.628571429
 51
0.0
  7
KANJI53
  0
TEXT
  8
0
  6
CONTINUOUS
 62
     2
 10
2146.42
 20
1002.95
 30
3.3
 40
20.4
  1
スプリング制動式電磁ブレーキ
 50
0.0
 41
0.705882353
 51
0.0
  7
KANJI54
  0
TEXT
  8
0
  6
CONTINUOUS
 62
     2
 10
2365.42
 20
1170.5
 30
0.216
 40
18.0
  1
Ｖ
 50
0.0
 41
0.8
 51
0.0
  7
KANJI55
  0
TEXT
  8
0
  6
CONTINUOUS
 62
     2
 10
2354.62
 20
1128.5
 30
0.216
 40
18.0
  1
Ｈｚ
 50
0.0
 41
0.8
 51
0.0
  7
KANJI55
  0
TEXT
  8
0
  6
CONTINUOUS
 62
     2
 10
2365.42
 20
1086.5
 30
0.216
 40
18.0
  1
Ａ
 50
0.0
 41
0.8
 51
0.0
  7
KANJI55
  0
TEXT
  8
0
  6
CONTINUOUS
 62
     2
 10
2286.52
 20
1213.7
 30
1.8
 40
18.0
  1
３φ
 50
0.0
 41
0.9
 51
0.0
  7
KANJI49
  0
TEXT
  8
0
  6
CONTINUOUS
 62
     2
 10
2346.52
 20
1213.7
 30
1.8
 40
18.0
  1
４Ｐ
 50
0.0
 41
0.9
 51
0.0
  7
KANJI49
  0
TEXT
  8
0
  6
CONTINUOUS
 62
     2
 10
2144.92
 20
1255.7
 30
1.2
 40
19.2
  1
マンセル　７．５ＧＹ　５／４．５
 50
0.0
 41
0.71875
 51
0.0
  7
KANJI56
  0
TEXT
  8
0
  6
CONTINUOUS
 62
     2
 10
2144.92
 20
1171.7
 30
1.8
 40
18.0
  1
　　　　　　　／　　　
 50
0.0
 41
0.9
 51
0.0
  7
KANJI49
  0
TEXT
  8
0
  6
CONTINUOUS
 62
     2
 10
2144.92
 20
1129.7
 30
1.8
 40
18.0
  1
　　　　５０／　６０
 50
0.0
 41
0.9
 51
0.0
  7
KANJI49
  0
TEXT
  8
0
  6
CONTINUOUS
 62
     2
 10
2144.92
 20
1087.7
 30
1.8
 40
18.0
  1
　　　　　　　／　　　
 50
0.0
 41
0.9
 51
0.0
  7
KANJI49
  0
TEXT
  8
0
  6
CONTINUOUS
 62
     2
 10
2349.52
 20
1466.9
 30
0.1536
 40
19.2
  1
ｍｍ
 50
0.0
 41
0.8
 51
0.0
  7
KANJI57
  0
TEXT
  8
0
  6
CONTINUOUS
 62
     2
 10
2310.52
 20
1423.7
 30
0.0
 40
21.0
  1
ｍｍ／ｓｅｃ
 50
0.0
 41
0.571428571
 51
0.0
  7
KANJI58
  0
TEXT
  8
0
  6
CONTINUOUS
 62
     2
 10
2203.42
 20
1339.7
 30
9.0
 40
21.0
  1
全閉屋外形
 50
0.0
 41
0.9
 51
0.0
  7
KANJI48
  0
TEXT
  8
0
  6
CONTINUOUS
 62
     2
 10
2188.72
 20
1507.7
 30
1.8
 40
18.0
  1
９．８ＫＮ（１ｔｏｎ）
 50
0.0
 41
0.9
 51
0.0
  7
KANJI49
  0
LINE
  8
0
  6
CONTINUOUS
 62
     1
 10
1868.92
 20
781.7
 11
2393.92
 21
781.7
  0
LINE
  8
0
  6
CONTINUOUS
 62
     2
 10
1868.92
 20
823.7
 11
2393.92
 21
823.7
  0
TEXT
  8
0
  6
CONTINUOUS
 62
     2
 10
2338.72
 20
793.88
 30
0.0
 40
21.0
  1
ｋｇ
 50
0.0
 41
0.9
 51
0.0
  7
KANJI59
  0
TEXT
  8
0
  6
CONTINUOUS
 62
     2
 10
1900.72
 20
792.5
 30
6.0
 40
21.0
  1
概算重量（１台当り）
 50
0.0
 41
0.857142857
 51
0.0
  7
KANJI60
  0
LINE
  8
0
  6
CONTINUOUS
 62
     1
 10
1868.92
 20
1639.7
 11
1868.92
 21
781.7
  0
LINE
  8
0
  6
CONTINUOUS
 62
     2
 10
2144.92
 20
1579.7
 11
2144.92
 21
781.7
  0
LINE
  8
0
  6
CONTINUOUS
 62
     1
 10
2393.92
 20
1639.7
 11
2393.92
 21
781.7
  0
LINE
  8
0
  6
CONTINUOUS
 62
     1
 10
328.12
 20
769.24
 11
286.12
 21
769.24
  0
LINE
  8
0
  6
CONTINUOUS
 62
     1
 10
286.12
 20
735.24
 11
286.12
 21
769.24
  0
LINE
  8
0
  6
CONTINUOUS
 62
     1
 10
328.12
 20
735.24
 11
286.12
 21
735.24
  0
LINE
  8
0
  6
CONTINUOUS
 62
     2
 10
298.62
 20
769.04
 11
297.139645058
 21
781.452032438
  0
LINE
  8
0
  6
CONTINUOUS
 62
     2
 10
298.62
 20
769.04
 11
291.131958794
 21
779.048957933
  0
LINE
  8
0
  6
CONTINUOUS
 62
     2
 10
258.7
 20
868.84
 11
177.72
 21
868.84
  0
LINE
  8
0
  6
CONTINUOUS
 62
     2
 10
298.62
 20
769.04
 11
258.7
 21
868.84
  0
TEXT
  8
0
  6
CONTINUOUS
 62
     2
 10
177.72
 20
873.84
 30
0.0
 40
18.0
  1
手動軸カバー
 50
0.0
 41
0.9
 51
0.0
  7
KANJI17
  0
TEXT
  8
0
  6
CONTINUOUS
 62
     3
 10
182.466667
 20
846.766683
 30
1.5
 40
15.0
  1
手動軸□８
 50
0.0
 41
0.9
 51
0.0
  7
KANJI61
  0
LINE
  8
0
  6
CONTINUOUS
 62
     1
 10
428.02
 20
544.24
 11
507.12
 21
544.24
  0
LINE
  8
0
  6
CONTINUOUS
 62
     1
 10
590.12
 20
654.24
 11
581.12
 21
654.24
  0
LINE
  8
0
  6
CONTINUOUS
 62
     1
 10
590.12
 20
540.24
 11
590.12
 21
654.24
  0
LINE
  8
0
  6
CONTINUOUS
 62
     1
 10
581.12
 20
540.24
 11
581.12
 21
654.24
  0
LINE
  8
0
  6
CONTINUOUS
 62
     1
 10
590.12
 20
540.24
 11
581.12
 21
540.24
  0
LINE
  8
0
  6
CONTINUOUS
 62
     1
 10
950.12
 20
549.74
 11
950.12
 21
597.24
  0
LINE
  8
0
  6
CONTINUOUS
 62
     1
 10
985.12
 20
549.74
 11
590.12
 21
549.74
  0
LINE
  8
0
  6
CONTINUOUS
 62
     2
 10
690.107365108
 20
644.74
 11
697.607365108
 21
644.74
  0
LINE
  8
0
  6
CONTINUOUS
 62
     2
 10
691.607365108
 20
644.74
 11
687.725079431
 21
630.251112606
  0
LINE
  8
0
  6
CONTINUOUS
 62
     2
 10
691.607365108
 20
644.74
 11
695.489650785
 21
630.251112606
  0
LINE
  8
0
  6
CONTINUOUS
 62
     2
 10
691.607365108
 20
644.74
 11
691.607365108
 21
549.74
  0
LINE
  8
0
  6
CONTINUOUS
 62
     2
 10
691.607365108
 20
549.74
 11
695.489650785
 21
564.228887394
  0
LINE
  8
0
  6
CONTINUOUS
 62
     2
 10
691.607365108
 20
549.74
 11
687.725079431
 21
564.228887394
  0
LINE
  8
0
  6
CONTINUOUS
 62
     2
 10
693.607365108
 20
549.74
 11
697.607365108
 21
549.74
  0
TEXT
  8
0
  6
CONTINUOUS
 62
     3
 10
688.607365108
 20
572.94
 30
0.0
 40
18.0
  1
φ９５
 50
90.0
 41
0.9
 51
0.0
  7
KANJI17
  0
CIRCLE
  8
0
  6
CONTINUOUS
 62
     1
 10
1395.12
 20
752.24
 40
19.0
  0
LINE
  8
0
  6
CONTINUOUS
 62
     1
 10
1312.62
 20
732.24
 11
1383.572994616
 21
732.24
  0
LINE
  8
0
  6
CONTINUOUS
 62
     1
 10
1419.049491924
 20
670.792904188
 11
1383.572994616
 21
732.24
  0
ARC
  8
0
  6
CONTINUOUS
 62
     1
 10
1395.12
 20
752.24
 40
20.0
 50
80.405931773
 51
279.594068227
  0
CIRCLE
  8
0
  6
CONTINUOUS
 62
     1
 10
1382.02
 20
752.24
 40
4.0
  0
CIRCLE
  8
0
  6
CONTINUOUS
 62
     1
 10
1395.12
 20
739.14
 40
4.0
  0
CIRCLE
  8
0
  6
CONTINUOUS
 62
     1
 10
1395.12
 20
752.24
 40
4.0
  0
CIRCLE
  8
0
  6
LTYPE1
 62
     2
 10
1395.12
 20
752.24
 40
100.0
  0
ARC
  8
0
  6
CONTINUOUS
 62
     1
 10
1312.62
 20
752.24
 40
20.0
 50
180.0
 51
270.0
  0
LINE
  8
0
  6
CONTINUOUS
 62
     1
 10
1419.049491924
 20
833.687095812
 11
1383.572994616
 21
772.24
  0
LINE
  8
0
  6
CONTINUOUS
 62
     1
 10
1312.62
 20
772.24
 11
1383.572994616
 21
772.24
  0
ARC
  8
0
  6
CONTINUOUS
 62
     1
 10
1312.62
 20
752.24
 40
20.0
 50
90.0
 51
180.0
  0
CIRCLE
  8
0
  6
CONTINUOUS
 62
     1
 10
1395.12
 20
765.34
 40
4.0
  0
LINE
  8
0
  6
CONTINUOUS
 62
     1
 10
1398.453333333
 20
771.960265944
 11
1456.786666667
 21
762.100132972
  0
LINE
  8
0
  6
LTYPE3
 62
     2
 10
1455.12
 20
737.24
 11
1455.12
 21
772.24
  0
ARC
  8
0
  6
CONTINUOUS
 62
     1
 10
1455.12
 20
752.24
 40
10.0
 50
279.594068227
 51
80.405931773
  0
CIRCLE
  8
0
  6
CONTINUOUS
 62
     1
 10
1455.12
 20
752.24
 40
9.0
  0
LINE
  8
0
  6
CONTINUOUS
 62
     1
 10
1453.690508076
 20
813.687095812
 11
1426.830211838
 21
767.163698023
  0
CIRCLE
  8
0
  6
CONTINUOUS
 62
     1
 10
1408.22
 20
752.24
 40
4.0
  0
LINE
  8
0
  6
CONTINUOUS
 62
     1
 10
1398.453333333
 20
732.519734056
 11
1456.786666667
 21
742.379867028
  0
LINE
  8
0
  6
CONTINUOUS
 62
     1
 10
1453.690508076
 20
690.792904188
 11
1426.830211838
 21
737.316301977
  0
ARC
  8
0
  6
CONTINUOUS
 62
     1
 10
1436.37
 20
680.792904188
 40
20.0
 50
300.0
 51
30.0
  0
ARC
  8
0
  6
CONTINUOUS
 62
     1
 10
1436.37
 20
680.792904188
 40
20.0
 50
210.0
 51
300.0
  0
CIRCLE
  8
0
  6
CONTINUOUS
 62
     1
 10
1395.12
 20
890.74
 40
25.0
  0
ARC
  8
0
  6
CONTINUOUS
 62
     1
 10
1425.12
 20
866.24
 40
10.0
 50
270.0
 51
0.0
  0
LINE
  8
0
  6
CONTINUOUS
 62
     1
 10
1395.12
 20
856.24
 11
1435.12
 21
856.24
  0
LINE
  8
0
  6
CONTINUOUS
 62
     1
 10
1425.480126607
 20
856.246486662
 11
1425.480126607
 21
850.746486662
  0
LINE
  8
0
  6
CONTINUOUS
 62
     1
 10
1435.12
 20
866.24
 11
1435.12
 21
925.24
  0
LINE
  8
0
  6
CONTINUOUS
 62
     1
 10
1445.12
 20
866.24
 11
1445.12
 21
930.24
  0
ARC
  8
0
  6
CONTINUOUS
 62
     1
 10
1435.12
 20
866.24
 40
10.0
 50
270.0
 51
0.0
  0
ARC
  8
0
  6
CONTINUOUS
 62
     1
 10
1436.37
 20
823.687095812
 40
20.0
 50
330.0
 51
60.0
  0
ARC
  8
0
  6
CONTINUOUS
 62
     1
 10
1436.37
 20
823.687095812
 40
20.0
 50
60.0
 51
150.0
  0
CIRCLE
  8
0
  6
CONTINUOUS
 62
     1
 10
1395.12
 20
890.74
 40
12.055
  0
CIRCLE
  8
0
  6
CONTINUOUS
 62
     1
 10
1395.12
 20
890.74
 40
20.0
  0
CIRCLE
  8
0
  6
CONTINUOUS
 62
     2
 10
1395.12
 20
890.74
 40
13.221
  0
LINE
  8
0
  6
LTYPE3
 62
     2
 10
1358.62
 20
890.74
 11
1430.62
 21
890.74
  0
LINE
  8
0
  6
CONTINUOUS
 62
     1
 10
1395.12
 20
935.24
 11
1365.12
 21
935.24
  0
LINE
  8
0
  6
CONTINUOUS
 62
     1
 10
1355.12
 20
866.24
 11
1355.12
 21
925.24
  0
ARC
  8
0
  6
CONTINUOUS
 62
     1
 10
1365.12
 20
925.24
 40
10.0
 50
90.0
 51
180.0
  0
LINE
  8
0
  6
CONTINUOUS
 62
     1
 10
1395.12
 20
940.24
 11
1355.12
 21
940.24
  0
ARC
  8
0
  6
CONTINUOUS
 62
     1
 10
1355.12
 20
930.24
 40
10.0
 50
90.0
 51
180.0
  0
LINE
  8
0
  6
CONTINUOUS
 62
     1
 10
1345.12
 20
866.24
 11
1345.12
 21
930.24
  0
ARC
  8
0
  6
CONTINUOUS
 62
     1
 10
1365.12
 20
866.24
 40
10.0
 50
180.0
 51
270.0
  0
LINE
  8
0
  6
CONTINUOUS
 62
     1
 10
1395.12
 20
856.24
 11
1355.12
 21
856.24
  0
ARC
  8
0
  6
CONTINUOUS
 62
     1
 10
1355.12
 20
866.24
 40
10.0
 50
180.0
 51
270.0
  0
LINE
  8
0
  6
CONTINUOUS
 62
     1
 10
1364.759873393
 20
856.246486662
 11
1364.759873393
 21
850.746486662
  0
LINE
  8
0
  6
CONTINUOUS
 62
     1
 10
1395.12
 20
935.24
 11
1425.12
 21
935.24
  0
ARC
  8
0
  6
CONTINUOUS
 62
     1
 10
1425.12
 20
925.24
 40
10.0
 50
0.0
 51
90.0
  0
LINE
  8
0
  6
CONTINUOUS
 62
     1
 10
1395.12
 20
940.24
 11
1435.12
 21
940.24
  0
ARC
  8
0
  6
CONTINUOUS
 62
     1
 10
1435.12
 20
930.24
 40
10.0
 50
0.0
 51
90.0
  0
POLYLINE
  8
0
  6
CONTINUOUS
 62
     1
 66
     1
  0
VERTEX
  8
0
  6
CONTINUOUS
 62
     1
 10
399.12
 20
651.44
  0
VERTEX
  8
0
  6
CONTINUOUS
 62
     1
 10
399.12
 20
847.24
  0
VERTEX
  8
0
  6
CONTINUOUS
 62
     1
 10
365.12
 20
847.24
  0
SEQEND
  0
LINE
  8
0
  6
CONTINUOUS
 62
     1
 10
409.12
 20
846.24
 11
399.12
 21
846.24
  0
LINE
  8
0
  6
CONTINUOUS
 62
     1
 10
409.12
 20
658.24
 11
399.12
 21
658.24
  0
LINE
  8
0
  6
CONTINUOUS
 62
     1
 10
421.12
 20
834.21572809
 11
473.792135955
 21
834.21572809
  0
LINE
  8
0
  6
CONTINUOUS
 62
     1
 10
423.62
 20
809.876
 11
423.62
 21
819.676
  0
LINE
  8
0
  6
CONTINUOUS
 62
     1
 10
423.62
 20
819.676
 11
429.234359354
 21
819.676
  0
LINE
  8
0
  6
CONTINUOUS
 62
     1
 10
430.62
 20
817.276
 11
429.234359354
 21
819.676
  0
LINE
  8
0
  6
CONTINUOUS
 62
     1
 10
430.62
 20
809.876
 11
430.62
 21
817.276
  0
LINE
  8
0
  6
CONTINUOUS
 62
     1
 10
423.62
 20
814.776
 11
429.234359354
 21
814.776
  0
LINE
  8
0
  6
CONTINUOUS
 62
     1
 10
423.62
 20
809.876
 11
423.62
 21
800.076
  0
LINE
  8
0
  6
CONTINUOUS
 62
     1
 10
423.62
 20
800.076
 11
429.234359354
 21
800.076
  0
LINE
  8
0
  6
CONTINUOUS
 62
     1
 10
430.62
 20
802.476
 11
429.234359354
 21
800.076
  0
LINE
  8
0
  6
CONTINUOUS
 62
     1
 10
430.62
 20
809.876
 11
430.62
 21
802.476
  0
LINE
  8
0
  6
CONTINUOUS
 62
     1
 10
423.62
 20
804.976
 11
429.234359354
 21
804.976
  0
ARC
  8
0
  6
CONTINUOUS
 62
     1
 10
421.2633172
 20
809.876
 40
9.3566828
 50
328.419912243
 51
31.580087757
  0
ARC
  8
0
  6
CONTINUOUS
 62
     1
 10
427.762116168
 20
817.226
 40
2.858321186
 50
301.002313915
 51
2.989498403
  0
LINE
  8
0
  6
CONTINUOUS
 62
     1
 10
430.62
 20
802.476
 11
429.234359354
 21
800.076
  0
ARC
  8
0
  6
CONTINUOUS
 62
     1
 10
427.762116168
 20
802.526
 40
2.858321186
 50
357.010501597
 51
58.997686085
  0
LINE
  8
0
  6
CONTINUOUS
 62
     1
 10
421.12
 20
819.076
 11
423.62
 21
819.076
  0
LINE
  8
0
  6
CONTINUOUS
 62
     1
 10
421.12
 20
809.876
 11
423.619999996
 21
812.375999996
  0
LINE
  8
0
  6
CONTINUOUS
 62
     1
 10
423.619999996
 20
809.876
 11
421.12
 21
807.376000004
  0
LINE
  8
0
  6
CONTINUOUS
 62
     1
 10
421.12
 20
800.676
 11
423.62
 21
800.676
  0
LINE
  8
0
  6
CONTINUOUS
 62
     1
 10
631.12
 20
811.54
 11
484.12
 21
811.54
  0
LINE
  8
0
  6
CONTINUOUS
 62
     1
 10
631.12
 20
791.54
 11
484.12
 21
791.54
  0
LINE
  8
0
  6
CONTINUOUS
 62
     1
 10
421.12
 20
651.54
 11
421.12
 21
851.54
  0
LINE
  8
0
  6
CONTINUOUS
 62
     1
 10
631.12
 20
831.54
 11
484.12
 21
831.54
  0
LINE
  8
0
  6
CONTINUOUS
 62
     1
 10
602.62
 20
853.54
 11
512.62
 21
853.54
  0
LINE
  8
0
  6
CONTINUOUS
 62
     1
 10
641.12
 20
842.24
 11
474.12
 21
842.24
  0
LINE
  8
0
  6
CONTINUOUS
 62
     1
 10
474.12
 20
660.84
 11
474.12
 21
842.24
  0
LINE
  8
0
  6
LTYPE3
 62
     2
 10
413.62
 20
809.876
 11
439.234359354
 21
809.876
  0
LINE
  8
0
  6
CONTINUOUS
 62
     1
 10
641.12
 20
649.04
 11
641.12
 21
854.04
  0
ARC
  8
0
  6
CONTINUOUS
 62
     1
 10
349.12
 20
751.54
 40
410.0
 50
347.629566941
 51
12.370433059
  0
LINE
  8
2
  6
CONTINUOUS
 62
     2
 10
814.639226439
 20
649.04
 11
814.639226439
 21
854.04
  0
LINE
  8
2
  6
CONTINUOUS
 62
     2
 10
771.795628035
 20
748.394967949
 11
829.52
 21
912.74
  0
LINE
  8
2
  6
CONTINUOUS
 62
     2
 10
779.12
 20
749.94
 11
779.12
 21
1001.94
  0
TEXT
  8
2
  6
CONTINUOUS
 62
     3
 10
809.639226439
 20
717.29
 30
1.5
 40
17.5
  1
φ２０５
 50
90.0
 41
0.914285714
 51
0.0
  7
KANJI62
  0
ARC
  8
0
  6
CONTINUOUS
 62
     1
 10
748.994980463
 20
761.54
 40
10.0
 50
1.432543738
 51
90.0
  0
LINE
  8
0
  6
CONTINUOUS
 62
     1
 10
748.994999151
 20
771.54
 11
641.12
 21
771.54
  0
LINE
  8
2
  6
CONTINUOUS
 62
     2
 10
779.12
 20
769.94
 11
779.12
 21
971.38
  0
LINE
  8
0
  6
CONTINUOUS
 62
     1
 10
631.12
 20
771.54
 11
484.12
 21
771.54
  0
LINE
  8
0
  6
CONTINUOUS
 62
     1
 10
647.62
 20
864.54
 11
647.62
 21
904.54
  0
LINE
  8
0
  6
CONTINUOUS
 62
     1
 10
628.62
 20
939.54
 11
480.62
 21
865.54
  0
LINE
  8
0
  6
CONTINUOUS
 62
     1
 10
633.092135955
 20
930.59572809
 11
485.092135955
 21
856.59572809
  0
ARC
  8
0
  6
CONTINUOUS
 62
     1
 10
602.62
 20
863.54
 40
10.0
 50
270.0
 51
0.0
  0
ARC
  8
0
  6
CONTINUOUS
 62
     1
 10
512.62
 20
863.54
 40
10.0
 50
180.0
 51
270.0
  0
LINE
  8
0
  6
CONTINUOUS
 62
     1
 10
480.62
 20
865.54
 11
485.092135955
 21
856.59572809
  0
LINE
  8
0
  6
CONTINUOUS
 62
     1
 10
502.62
 20
863.54
 11
502.62
 21
865.45572809
  0
LINE
  8
0
  6
CONTINUOUS
 62
     1
 10
612.62
 20
863.54
 11
612.62
 21
919.45572809
  0
LINE
  8
0
  6
CONTINUOUS
 62
     1
 10
647.62
 20
864.54
 11
612.62
 21
864.54
  0
LINE
  8
0
  6
CONTINUOUS
 62
     1
 10
641.12
 20
851.54
 11
736.934388593
 21
851.54
  0
ARC
  8
0
  6
CONTINUOUS
 62
     1
 10
734.934388593
 20
836.54
 40
15.0
 50
10.945397096
 51
90.0
  0
ARC
  8
0
  6
CONTINUOUS
 62
     1
 10
735.043513917
 20
839.233940371
 40
15.0
 50
10.945397096
 51
90.0
  0
LINE
  8
0
  6
CONTINUOUS
 62
     1
 10
641.12
 20
854.04
 11
736.934388593
 21
854.04
  0
LINE
  8
0
  6
CONTINUOUS
 62
     1
 10
592.52
 20
853.54
 11
592.52
 21
842.24
  0
LINE
  8
0
  6
CONTINUOUS
 62
     1
 10
522.72
 20
853.54
 11
522.72
 21
842.24
  0
LINE
  8
2
  6
CONTINUOUS
 62
     2
 10
814.639226439
 20
854.04
 11
811.403988375
 21
841.965927171
  0
LINE
  8
2
  6
CONTINUOUS
 62
     2
 10
814.639226439
 20
854.04
 11
817.874464503
 21
841.965927171
  0
LINE
  8
2
  6
CONTINUOUS
 62
     2
 10
735.639226439
 20
854.04
 11
824.639226439
 21
854.04
  0
LINE
  8
0
  6
LTYPE3
 62
     2
 10
557.62
 20
840.29
 11
557.62
 21
949.34
  0
TEXT
  8
2
  6
CONTINUOUS
 62
     3
 10
568.62
 20
996.94
 30
1.5
 40
17.5
  1
３７０
 50
0.0
 41
0.914285714
 51
0.0
  7
KANJI62
  0
ARC
  8
0
  6
CONTINUOUS
 62
     1
 10
602.62
 20
929.54
 40
10.0
 50
0.0
 51
90.0
  0
LINE
  8
0
  6
CONTINUOUS
 62
     1
 10
602.62
 20
939.54
 11
512.62
 21
939.54
  0
ARC
  8
0
  6
CONTINUOUS
 62
     1
 10
512.62
 20
929.54
 40
10.0
 50
90.0
 51
180.0
  0
LINE
  8
0
  6
CONTINUOUS
 62
     1
 10
502.62
 20
876.45572809
 11
502.62
 21
929.54
  0
LINE
  8
0
  6
CONTINUOUS
 62
     1
 10
628.832135955
 20
940.33572809
 11
633.632135955
 21
931.13572809
  0
LINE
  8
0
  6
CONTINUOUS
 62
     1
 10
647.62
 20
904.54
 11
612.62
 21
904.54
  0
TEXT
  8
2
  6
CONTINUOUS
 62
     3
 10
657.12
 20
942.94
 30
1.5
 40
17.5
  1
ＰＦ３／４
 50
0.0
 41
0.914285714
 51
0.0
  7
KANJI62
  0
LINE
  8
2
  6
CONTINUOUS
 62
     2
 10
657.12
 20
934.94
 11
774.72
 21
934.94
  0
LINE
  8
2
  6
CONTINUOUS
 62
     2
 10
409.12
 20
991.94
 11
779.12
 21
991.94
  0
LINE
  8
2
  6
CONTINUOUS
 62
     2
 10
779.12
 20
991.94
 11
767.045927171
 21
995.175238064
  0
LINE
  8
2
  6
CONTINUOUS
 62
     2
 10
779.12
 20
991.94
 11
767.045927171
 21
988.704761936
  0
LINE
  8
2
  6
CONTINUOUS
 62
     2
 10
648.62
 20
890.94
 11
657.366652882
 21
908.925996313
  0
LINE
  8
2
  6
CONTINUOUS
 62
     2
 10
648.62
 20
890.94
 11
647.201825437
 21
910.88965616
  0
LINE
  8
2
  6
CONTINUOUS
 62
     2
 10
648.62
 20
890.94
 11
657.12
 21
934.94
  0
LINE
  8
2
  6
CONTINUOUS
 62
     2
 10
409.12
 20
991.94
 11
421.194072829
 21
988.704761936
  0
LINE
  8
2
  6
CONTINUOUS
 62
     2
 10
409.12
 20
991.94
 11
421.194072829
 21
995.175238064
  0
LINE
  8
0
  6
LTYPE3
 62
     2
 10
653.772135955
 20
884.54
 11
602.672135955
 21
884.54
  0
TEXT
  8
0
  6
CONTINUOUS
 62
     2
 10
831.02
 20
917.74
 30
0.0
 40
18.0
  1
手動開放装置
 50
0.0
 41
0.9
 51
0.0
  7
KANJI17
  0
LINE
  8
0
  6
CONTINUOUS
 62
     2
 10
829.52
 20
912.74
 11
930.12
 21
912.74
  0
LINE
  8
0
  6
CONTINUOUS
 62
     1
 10
421.12
 20
668.86427191
 11
473.792135955
 21
668.86427191
  0
LINE
  8
0
  6
CONTINUOUS
 62
     1
 10
423.62
 20
693.204
 11
423.62
 21
683.404
  0
LINE
  8
0
  6
CONTINUOUS
 62
     1
 10
423.62
 20
683.404
 11
429.234359354
 21
683.404
  0
LINE
  8
0
  6
CONTINUOUS
 62
     1
 10
430.62
 20
685.804
 11
429.234359354
 21
683.404
  0
LINE
  8
0
  6
CONTINUOUS
 62
     1
 10
430.62
 20
693.204
 11
430.62
 21
685.804
  0
LINE
  8
0
  6
CONTINUOUS
 62
     1
 10
423.62
 20
688.304
 11
429.234359354
 21
688.304
  0
LINE
  8
0
  6
CONTINUOUS
 62
     1
 10
423.62
 20
693.204
 11
423.62
 21
703.004
  0
LINE
  8
0
  6
CONTINUOUS
 62
     1
 10
423.62
 20
703.004
 11
429.234359354
 21
703.004
  0
LINE
  8
0
  6
CONTINUOUS
 62
     1
 10
430.62
 20
700.604
 11
429.234359354
 21
703.004
  0
LINE
  8
0
  6
CONTINUOUS
 62
     1
 10
430.62
 20
693.204
 11
430.62
 21
700.604
  0
LINE
  8
0
  6
CONTINUOUS
 62
     1
 10
423.62
 20
698.104
 11
429.234359354
 21
698.104
  0
ARC
  8
0
  6
CONTINUOUS
 62
     1
 10
421.2633172
 20
693.204
 40
9.3566828
 50
328.419912243
 51
31.580087757
  0
ARC
  8
0
  6
CONTINUOUS
 62
     1
 10
427.762116168
 20
685.854
 40
2.858321186
 50
357.010501597
 51
58.997686085
  0
LINE
  8
0
  6
CONTINUOUS
 62
     1
 10
430.62
 20
700.604
 11
429.234359354
 21
703.004
  0
ARC
  8
0
  6
CONTINUOUS
 62
     1
 10
427.762116168
 20
700.554
 40
2.858321186
 50
301.002313915
 51
2.989498403
  0
LINE
  8
0
  6
CONTINUOUS
 62
     1
 10
421.12
 20
684.004
 11
423.62
 21
684.004
  0
LINE
  8
0
  6
CONTINUOUS
 62
     1
 10
421.12
 20
693.204
 11
423.619999996
 21
690.704000004
  0
LINE
  8
0
  6
CONTINUOUS
 62
     1
 10
423.619999996
 20
693.204
 11
421.12
 21
695.703999996
  0
LINE
  8
0
  6
CONTINUOUS
 62
     1
 10
421.12
 20
702.404
 11
423.62
 21
702.404
  0
LINE
  8
0
  6
CONTINUOUS
 62
     1
 10
631.12
 20
731.54
 11
484.12
 21
731.54
  0
LINE
  8
0
  6
CONTINUOUS
 62
     1
 10
631.12
 20
711.54
 11
484.12
 21
711.54
  0
LINE
  8
0
  6
CONTINUOUS
 62
     1
 10
631.12
 20
691.54
 11
484.12
 21
691.54
  0
LINE
  8
0
  6
CONTINUOUS
 62
     1
 10
631.12
 20
671.54
 11
484.12
 21
671.54
  0
LINE
  8
0
  6
CONTINUOUS
 62
     1
 10
641.12
 20
731.54
 11
749.494999151
 21
731.54
  0
LINE
  8
0
  6
CONTINUOUS
 62
     1
 10
641.12
 20
660.84
 11
474.12
 21
660.84
  0
LINE
  8
0
  6
CONTINUOUS
 62
     1
 10
641.12
 20
651.54
 11
736.934388593
 21
651.54
  0
LINE
  8
0
  6
LTYPE3
 62
     2
 10
413.62
 20
693.204
 11
439.234359354
 21
693.204
  0
TEXT
  8
0
  6
CONTINUOUS
 62
     2
 10
485.310009455
 20
734.09
 30
0.0
 40
16.8
  1
日本電産
 50
0.0
 41
0.964285714
 51
0.0
  7
KANJI63
  0
TEXT
  8
0
  6
CONTINUOUS
 62
     2
 10
485.310009455
 20
712.09
 30
0.0
 40
16.8
  1
クイックブレーキモータ
 50
0.0
 41
0.821428571
 51
0.0
  7
KANJI64
  0
ARC
  8
0
  6
CONTINUOUS
 62
     1
 10
734.934388593
 20
666.54
 40
15.0
 50
270.0
 51
349.054602904
  0
ARC
  8
0
  6
CONTINUOUS
 62
     1
 10
735.043513917
 20
663.846059629
 40
15.0
 50
270.0
 51
349.054602904
  0
LINE
  8
0
  6
CONTINUOUS
 62
     1
 10
641.12
 20
649.04
 11
736.934388593
 21
649.04
  0
LINE
  8
2
  6
CONTINUOUS
 62
     2
 10
734.639226439
 20
649.04
 11
824.639226439
 21
649.04
  0
LINE
  8
0
  6
CONTINUOUS
 62
     1
 10
765.861517274
 20
767.488101266
 11
765.861517274
 21
698.488101266
  0
POINT
  8
0
  6
CONTINUOUS
 62
     1
 10
765.861517274
 20
698.488101266
  0
LINE
  8
0
  6
CONTINUOUS
 62
     1
 10
765.861517274
 20
698.488101266
 11
770.861517274
 21
698.488101266
  0
POINT
  8
0
  6
CONTINUOUS
 62
     1
 10
770.861517274
 20
698.488101266
  0
LINE
  8
0
  6
CONTINUOUS
 62
     1
 10
770.861517274
 20
698.488101266
 11
770.861517274
 21
767.488101266
  0
LINE
  8
0
  6
CONTINUOUS
 62
     1
 10
776.261517274
 20
711.29
 11
776.261517274
 21
702.49
  0
POINT
  8
0
  6
CONTINUOUS
 62
     1
 10
776.261517274
 20
702.49
  0
LINE
  8
0
  6
CONTINUOUS
 62
     1
 10
776.261517274
 20
702.49
 11
770.961517274
 21
702.49
  0
LINE
  8
0
  6
CONTINUOUS
 62
     1
 10
765.861517274
 20
708.49
 11
756.961517274
 21
708.49
  0
LINE
  8
0
  6
CONTINUOUS
 62
     1
 10
765.861517274
 20
705.39
 11
756.661517274
 21
705.39
  0
LINE
  8
0
  6
LTYPE3
 62
     2
 10
751.961517274
 20
706.99
 11
781.961517274
 21
706.99
  0
LINE
  8
2
  6
CONTINUOUS
 62
     2
 10
814.639226439
 20
649.04
 11
817.874464503
 21
661.114072829
  0
LINE
  8
2
  6
CONTINUOUS
 62
     2
 10
814.639226439
 20
649.04
 11
811.403988375
 21
661.114072829
  0
LINE
  8
2
  6
CONTINUOUS
 62
     2
 10
771.795628035
 20
748.394967949
 11
778.849299494
 21
758.714644249
  0
LINE
  8
2
  6
CONTINUOUS
 62
     2
 10
771.795628035
 20
748.394967949
 11
772.744448559
 21
760.858905513
  0
LINE
  8
0
  6
CONTINUOUS
 62
     1
 10
775.661517274
 20
735.591898734
 11
775.661517274
 21
767.488101266
  0
LINE
  8
0
  6
CONTINUOUS
 62
     1
 10
770.861517274
 20
735.591898734
 11
775.661517274
 21
735.591898734
  0
LINE
  8
0
  6
CONTINUOUS
 62
     1
 10
765.861517274
 20
747.34
 11
759.161517274
 21
747.34
  0
LINE
  8
0
  6
CONTINUOUS
 62
     1
 10
770.861517274
 20
711.29
 11
776.261517274
 21
711.29
  0
POINT
  8
0
  6
CONTINUOUS
 62
     1
 10
776.261517274
 20
711.29
  0
LINE
  8
0
  6
CONTINUOUS
 62
     1
 10
775.661517274
 20
738.14
 11
779.12
 21
738.14
  0
LINE
  8
0
  6
CONTINUOUS
 62
     1
 10
779.12
 20
738.14
 11
779.12
 21
742.74
  0
LINE
  8
0
  6
CONTINUOUS
 62
     1
 10
775.661517274
 20
742.74
 11
779.12
 21
742.74
  0
LINE
  8
0
  6
CONTINUOUS
 62
     1
 10
775.661517274
 20
749.24
 11
779.12
 21
749.24
  0
LINE
  8
0
  6
CONTINUOUS
 62
     1
 10
779.12
 20
749.24
 11
779.12
 21
753.84
  0
ARC
  8
0
  6
CONTINUOUS
 62
     1
 10
748.994980463
 20
741.54
 40
10.0
 50
270.0
 51
358.567456262
  0
LINE
  8
0
  6
CONTINUOUS
 62
     1
 10
765.861517274
 20
767.488101266
 11
775.661517274
 21
767.488101266
  0
LINE
  8
0
  6
CONTINUOUS
 62
     1
 10
775.661517274
 20
764.94
 11
779.12
 21
764.94
  0
LINE
  8
0
  6
CONTINUOUS
 62
     1
 10
779.12
 20
764.94
 11
779.12
 21
760.34
  0
LINE
  8
0
  6
CONTINUOUS
 62
     1
 10
775.661517274
 20
760.34
 11
779.12
 21
760.34
  0
LINE
  8
0
  6
CONTINUOUS
 62
     1
 10
765.861517274
 20
755.74
 11
759.161517274
 21
755.74
  0
LINE
  8
0
  6
CONTINUOUS
 62
     1
 10
775.661517274
 20
753.84
 11
779.12
 21
753.84
  0
LINE
  8
0
  6
CONTINUOUS
 62
     1
 10
421.12
 20
851.54
 11
409.12
 21
851.54
  0
LINE
  8
0
  6
CONTINUOUS
 62
     1
 10
409.12
 20
651.54
 11
409.12
 21
851.54
  0
LINE
  8
0
  6
CONTINUOUS
 62
     1
 10
421.12
 20
651.54
 11
409.12
 21
651.54
  0
CIRCLE
  8
0
  6
CONTINUOUS
 62
     1
 10
1395.12
 20
597.24
 40
60.0
  0
LINE
  8
0
  6
CONTINUOUS
 62
     1
 10
1315.12
 20
618.24
 11
1340.132363033
 21
621.247494262
  0
LINE
  8
0
  6
CONTINUOUS
 62
     1
 10
1315.12
 20
576.24
 11
1340.132363033
 21
573.232505738
  0
LINE
  8
0
  6
CONTINUOUS
 62
     1
 10
1350.12
 20
537.74
 11
1350.12
 21
559.24
  0
LINE
  8
0
  6
CONTINUOUS
 62
     1
 10
1440.12
 20
537.74
 11
1440.12
 21
557.553730334
  0
LINE
  8
0
  6
CONTINUOUS
 62
     1
 10
1475.12
 20
576.24
 11
1450.12
 21
573.233992273
  0
LINE
  8
0
  6
CONTINUOUS
 62
     1
 10
1475.12
 20
618.24
 11
1450.107636967
 21
621.247494262
  0
LINE
  8
0
  6
CONTINUOUS
 62
     1
 10
1359.199949889
 20
656.24
 11
1341.12
 21
656.24
  0
LINE
  8
0
  6
CONTINUOUS
 62
     1
 10
1428.699949889
 20
656.24
 11
1449.12
 21
656.24
  0
ARC
  8
0
  6
CONTINUOUS
 62
     1
 10
1395.12
 20
752.24
 40
102.5
 50
282.120914043
 51
256.766720845
  0
LINE
  8
0
  6
CONTINUOUS
 62
     1
 10
1318.12
 20
618.600720927
 11
1318.12
 21
685.016980495
  0
LINE
  8
0
  6
CONTINUOUS
 62
     1
 10
1472.12
 20
618.600720927
 11
1472.12
 21
684.584623274
  0
LINE
  8
0
  6
CONTINUOUS
 62
     2
 10
1561.992218677
 20
752.24
 11
1574.992218677
 21
752.24
  0
LINE
  8
0
  6
CONTINUOUS
 62
     2
 10
1568.992218677
 20
752.24
 11
1572.874504353
 21
766.728887394
  0
LINE
  8
0
  6
CONTINUOUS
 62
     2
 10
1568.992218677
 20
752.24
 11
1565.109933
 21
766.728887394
  0
LINE
  8
0
  6
CONTINUOUS
 62
     2
 10
1568.992218677
 20
752.24
 11
1568.992218677
 21
940.24
  0
LINE
  8
0
  6
CONTINUOUS
 62
     2
 10
1568.992218677
 20
940.24
 11
1565.109933
 21
925.751112606
  0
LINE
  8
0
  6
CONTINUOUS
 62
     2
 10
1568.992218677
 20
940.24
 11
1572.874504353
 21
925.751112606
  0
LINE
  8
0
  6
CONTINUOUS
 62
     2
 10
1441.120015259
 20
940.24
 11
1574.992218677
 21
940.24
  0
TEXT
  8
0
  6
CONTINUOUS
 62
     3
 10
1565.992218677
 20
821.94
 30
0.0
 40
18.0
  1
１８８
 50
90.0
 41
0.9
 51
0.0
  7
KANJI17
  0
LINE
  8
0
  6
CONTINUOUS
 62
     2
 10
1557.120015259
 20
486.24
 11
1628.120015259
 21
486.24
  0
LINE
  8
0
  6
CONTINUOUS
 62
     2
 10
1622.120015259
 20
486.24
 11
1626.002300935
 21
500.728887394
  0
LINE
  8
0
  6
CONTINUOUS
 62
     2
 10
1622.120015259
 20
486.24
 11
1618.237729582
 21
500.728887394
  0
LINE
  8
0
  6
CONTINUOUS
 62
     2
 10
1622.120015259
 20
486.24
 11
1622.120015259
 21
940.24
  0
LINE
  8
0
  6
CONTINUOUS
 62
     2
 10
1622.120015259
 20
940.24
 11
1618.237729582
 21
925.751112606
  0
LINE
  8
0
  6
CONTINUOUS
 62
     2
 10
1622.120015259
 20
940.24
 11
1626.002300935
 21
925.751112606
  0
LINE
  8
0
  6
CONTINUOUS
 62
     2
 10
1552.12
 20
940.24
 11
1628.120015259
 21
940.24
  0
TEXT
  8
0
  6
CONTINUOUS
 62
     3
 10
1619.120015259
 20
688.94
 30
0.0
 40
18.0
  1
４５４
 50
90.0
 41
0.9
 51
0.0
  7
KANJI17
  0
ARC
  8
0
  6
CONTINUOUS
 62
     1
 10
1016.98407022
 20
535.74
 40
1.0
 50
270.0
 51
345.0
  0
ARC
  8
0
  6
CONTINUOUS
 62
     1
 10
1016.984069394
 20
535.74
 40
1.0
 50
195.0
 51
270.0
  0
ARC
  8
0
  6
CONTINUOUS
 62
     1
 10
1005.876284995
 20
535.74
 40
1.0
 50
270.0
 51
345.0
  0
ARC
  8
0
  6
CONTINUOUS
 62
     1
 10
1005.876283343
 20
535.74
 40
1.0
 50
195.0
 51
270.0
  0
ARC
  8
0
  6
CONTINUOUS
 62
     1
 10
1016.98407022
 20
658.74
 40
1.0
 50
15.0
 51
90.0
  0
ARC
  8
0
  6
CONTINUOUS
 62
     1
 10
1016.984069394
 20
658.74
 40
1.0
 50
90.0
 51
165.0
  0
ARC
  8
0
  6
CONTINUOUS
 62
     1
 10
1005.876284995
 20
658.74
 40
1.0
 50
15.0
 51
90.0
  0
ARC
  8
0
  6
CONTINUOUS
 62
     1
 10
1005.876283343
 20
658.74
 40
1.0
 50
90.0
 51
165.0
  0
LINE
  8
0
  6
CONTINUOUS
 62
     1
 10
1005.876284169
 20
659.74
 11
1005.876284169
 21
597.24
  0
LINE
  8
0
  6
CONTINUOUS
 62
     1
 10
1016.98407022
 20
659.74
 11
1016.98407022
 21
597.24
  0
LINE
  8
0
  6
CONTINUOUS
 62
     1
 10
1025.12
 20
562.24
 11
1017.949996046
 21
535.481180955
  0
LINE
  8
0
  6
CONTINUOUS
 62
     1
 10
1025.12
 20
632.24
 11
1017.949996046
 21
658.998819045
  0
LINE
  8
0
  6
CONTINUOUS
 62
     1
 10
1037.62
 20
634.24
 11
1027.62
 21
634.24
  0
LINE
  8
0
  6
CONTINUOUS
 62
     1
 10
1027.87
 20
632.24
 11
1025.12
 21
632.24
  0
LINE
  8
0
  6
CONTINUOUS
 62
     1
 10
1040.12
 20
632.24
 11
1037.57
 21
632.24
  0
LINE
  8
0
  6
CONTINUOUS
 62
     1
 10
1027.62
 20
597.24
 11
1027.62
 21
634.24
  0
LINE
  8
0
  6
CONTINUOUS
 62
     1
 10
1037.62
 20
597.24
 11
1037.62
 21
634.24
  0
LINE
  8
0
  6
CONTINUOUS
 62
     1
 10
1025.12
 20
562.24
 11
1040.12
 21
562.24
  0
LINE
  8
0
  6
CONTINUOUS
 62
     1
 10
1040.12
 20
632.24
 11
1040.12
 21
562.24
  0
LINE
  8
0
  6
CONTINUOUS
 62
     1
 10
1037.62
 20
560.24
 11
1027.62
 21
560.24
  0
LINE
  8
0
  6
CONTINUOUS
 62
     1
 10
1037.62
 20
562.24
 11
1037.62
 21
560.24
  0
LINE
  8
0
  6
CONTINUOUS
 62
     1
 10
1027.62
 20
562.24
 11
1027.62
 21
560.24
  0
LINE
  8
0
  6
CONTINUOUS
 62
     1
 10
1029.038342309
 20
562.24
 11
1028.038342309
 21
563.24
  0
LINE
  8
0
  6
CONTINUOUS
 62
     1
 10
1031.866769433
 20
562.24
 11
1030.866769433
 21
563.24
  0
LINE
  8
0
  6
CONTINUOUS
 62
     1
 10
1034.695196558
 20
562.24
 11
1033.695196558
 21
563.24
  0
LINE
  8
0
  6
CONTINUOUS
 62
     1
 10
1037.523623683
 20
562.24
 11
1036.523623683
 21
563.24
  0
LINE
  8
0
  6
CONTINUOUS
 62
     1
 10
1039.831190098
 20
562.76086071
 11
1039.352050808
 21
563.24
  0
LINE
  8
0
  6
CONTINUOUS
 62
     1
 10
1006.842210821
 20
535.481180955
 11
1010.959672307
 21
546.931558255
  0
ARC
  8
0
  6
CONTINUOUS
 62
     1
 10
1011.430177195
 20
546.762368568
 40
0.5
 50
19.778167542
 51
160.221832458
  0
LINE
  8
0
  6
CONTINUOUS
 62
     1
 10
1016.018143568
 20
535.481180955
 11
1011.900682083
 21
546.931558255
  0
ARC
  8
0
  6
CONTINUOUS
 62
     1
 10
1000.322391144
 20
546.762368568
 40
0.5
 50
19.778167542
 51
160.221832458
  0
LINE
  8
0
  6
CONTINUOUS
 62
     1
 10
1004.910357517
 20
535.481180955
 11
1000.792896032
 21
546.931558255
  0
LINE
  8
0
  6
CONTINUOUS
 62
     1
 10
1006.842210821
 20
658.998819045
 11
1010.959672307
 21
647.548441745
  0
ARC
  8
0
  6
CONTINUOUS
 62
     1
 10
1011.430177195
 20
647.717631432
 40
0.5
 50
199.778167542
 51
340.221832458
  0
LINE
  8
0
  6
CONTINUOUS
 62
     1
 10
1016.018143568
 20
658.998819045
 11
1011.900682083
 21
647.548441745
  0
ARC
  8
0
  6
CONTINUOUS
 62
     1
 10
1000.322391144
 20
647.717631432
 40
0.5
 50
199.778167542
 51
340.221832458
  0
LINE
  8
0
  6
CONTINUOUS
 62
     1
 10
1004.910357517
 20
658.998819045
 11
1000.792896032
 21
647.548441745
  0
LINE
  8
0
  6
CONTINUOUS
 62
     1
 10
1000.322392307
 20
647.24
 11
1000.322392307
 21
597.24
  0
LINE
  8
0
  6
CONTINUOUS
 62
     1
 10
1011.430177532
 20
597.24
 11
1011.430177532
 21
647.34
  0
ARC
  8
0
  6
CONTINUOUS
 62
     1
 10
947.240539471
 20
658.74
 40
1.0
 50
90.0
 51
165.0
  0
ARC
  8
0
  6
CONTINUOUS
 62
     1
 10
947.240540297
 20
658.74
 40
1.0
 50
15.0
 51
90.0
  0
ARC
  8
0
  6
CONTINUOUS
 62
     1
 10
958.348324696
 20
658.74
 40
1.0
 50
90.0
 51
165.0
  0
ARC
  8
0
  6
CONTINUOUS
 62
     1
 10
958.348326348
 20
658.74
 40
1.0
 50
15.0
 51
90.0
  0
LINE
  8
0
  6
CONTINUOUS
 62
     1
 10
942.587949192
 20
645.24
 11
946.274613644
 21
658.998819045
  0
LINE
  8
0
  6
CONTINUOUS
 62
     1
 10
947.240539471
 20
659.74
 11
947.240539471
 21
597.24
  0
LINE
  8
0
  6
CONTINUOUS
 62
     1
 10
958.348325522
 20
659.74
 11
958.348325522
 21
597.24
  0
LINE
  8
0
  6
CONTINUOUS
 62
     1
 10
940.12
 20
645.74
 11
942.62
 21
645.74
  0
LINE
  8
0
  6
CONTINUOUS
 62
     1
 10
927.62
 20
645.74
 11
930.12
 21
645.74
  0
LINE
  8
0
  6
CONTINUOUS
 62
     1
 10
940.12
 20
597.24
 11
940.12
 21
647.74
  0
LINE
  8
0
  6
CONTINUOUS
 62
     1
 10
930.12
 20
647.74
 11
940.12
 21
647.74
  0
LINE
  8
0
  6
CONTINUOUS
 62
     1
 10
930.12
 20
597.24
 11
930.12
 21
647.74
  0
LINE
  8
0
  6
CONTINUOUS
 62
     1
 10
948.206466123
 20
658.998819045
 11
952.323927608
 21
647.548441745
  0
LINE
  8
0
  6
CONTINUOUS
 62
     1
 10
953.264937384
 20
647.548441745
 11
957.382398869
 21
658.998819045
  0
ARC
  8
0
  6
CONTINUOUS
 62
     1
 10
952.794432496
 20
647.717631432
 40
0.5
 50
199.778167542
 51
340.221832458
  0
LINE
  8
0
  6
CONTINUOUS
 62
     1
 10
959.314252174
 20
658.998819045
 11
963.431713659
 21
647.548441745
  0
ARC
  8
0
  6
CONTINUOUS
 62
     1
 10
963.902218547
 20
647.717631432
 40
0.5
 50
199.778167542
 51
340.221832458
  0
LINE
  8
0
  6
CONTINUOUS
 62
     1
 10
952.794432159
 20
597.24
 11
952.794432159
 21
647.34
  0
LINE
  8
0
  6
CONTINUOUS
 62
     1
 10
963.902217384
 20
647.34
 11
963.902217384
 21
597.24
  0
ARC
  8
0
  6
CONTINUOUS
 62
     1
 10
947.240539471
 20
535.74
 40
1.0
 50
195.0
 51
270.0
  0
ARC
  8
0
  6
CONTINUOUS
 62
     1
 10
947.240540297
 20
535.74
 40
1.0
 50
270.0
 51
345.0
  0
ARC
  8
0
  6
CONTINUOUS
 62
     1
 10
958.348324696
 20
535.74
 40
1.0
 50
195.0
 51
270.0
  0
ARC
  8
0
  6
CONTINUOUS
 62
     1
 10
958.348326348
 20
535.74
 40
1.0
 50
270.0
 51
345.0
  0
LINE
  8
0
  6
CONTINUOUS
 62
     1
 10
942.587949192
 20
549.24
 11
946.274613644
 21
535.481180955
  0
LINE
  8
0
  6
CONTINUOUS
 62
     1
 10
929.79913929
 20
546.74
 11
939.79913929
 21
546.74
  0
LINE
  8
0
  6
CONTINUOUS
 62
     1
 10
929.79913929
 20
548.74
 11
929.79913929
 21
546.74
  0
LINE
  8
0
  6
CONTINUOUS
 62
     1
 10
939.79913929
 20
548.74
 11
939.79913929
 21
546.74
  0
LINE
  8
0
  6
CONTINUOUS
 62
     1
 10
931.506291501
 20
548.74
 11
930.506291501
 21
549.74
  0
LINE
  8
0
  6
CONTINUOUS
 62
     1
 10
934.334718626
 20
548.74
 11
933.334718626
 21
549.74
  0
LINE
  8
0
  6
CONTINUOUS
 62
     1
 10
937.163145751
 20
548.74
 11
936.163145751
 21
549.74
  0
LINE
  8
0
  6
CONTINUOUS
 62
     1
 10
939.991572875
 20
548.74
 11
938.991572875
 21
549.74
  0
LINE
  8
0
  6
CONTINUOUS
 62
     1
 10
942.29913929
 20
549.26086071
 11
941.82
 21
549.74
  0
LINE
  8
0
  6
CONTINUOUS
 62
     1
 10
927.62
 20
548.74
 11
942.587949192
 21
548.74
  0
LINE
  8
0
  6
CONTINUOUS
 62
     1
 10
927.877864376
 20
549.54
 11
927.677864376
 21
549.74
  0
LINE
  8
0
  6
CONTINUOUS
 62
     1
 10
948.206466123
 20
535.481180955
 11
952.323927608
 21
546.931558255
  0
LINE
  8
0
  6
CONTINUOUS
 62
     1
 10
953.264937384
 20
546.931558255
 11
957.382398869
 21
535.481180955
  0
ARC
  8
0
  6
CONTINUOUS
 62
     1
 10
952.794432496
 20
546.762368568
 40
0.5
 50
19.778167542
 51
160.221832458
  0
LINE
  8
0
  6
CONTINUOUS
 62
     1
 10
959.314252174
 20
535.481180955
 11
963.431713659
 21
546.931558255
  0
ARC
  8
0
  6
CONTINUOUS
 62
     1
 10
963.902218547
 20
546.762368568
 40
0.5
 50
19.778167542
 51
160.221832458
  0
LINE
  8
0
  6
LTYPE6
 62
     2
 10
963.902217384
 20
647.217631432
 11
1000.322392307
 21
647.217631432
  0
LINE
  8
0
  6
LTYPE6
 62
     2
 10
963.902217384
 20
547.217631432
 11
1000.322392307
 21
547.217631432
  0
LINE
  8
0
  6
LTYPE6
 62
     2
 10
1005.876284995
 20
659.74
 11
958.348325522
 21
659.74
  0
LINE
  8
0
  6
LTYPE6
 62
     2
 10
1005.876284995
 20
534.74
 11
958.348325522
 21
534.74
  0
LINE
  8
0
  6
CONTINUOUS
 62
     1
 10
942.62
 20
597.24
 11
942.62
 21
645.74
  0
LINE
  8
0
  6
CONTINUOUS
 62
     1
 10
927.62
 20
597.24
 11
927.62
 21
645.74
  0
LINE
  8
0
  6
CONTINUOUS
 62
     1
 10
1025.12
 20
632.24
 11
1025.12
 21
597.24
  0
LINE
  8
0
  6
CONTINUOUS
 62
     1
 10
985.12
 20
549.74
 11
985.12
 21
597.24
  0
LINE
  8
0
  6
CONTINUOUS
 62
     1
 10
927.62
 20
644.74
 11
590.12
 21
644.74
  0
ARC
  8
0
  6
CONTINUOUS
 62
     1
 10
1016.98407022
 20
844.34
 40
1.0
 50
15.0
 51
90.0
  0
ARC
  8
0
  6
CONTINUOUS
 62
     1
 10
1016.984069394
 20
844.34
 40
1.0
 50
90.0
 51
165.0
  0
ARC
  8
0
  6
CONTINUOUS
 62
     1
 10
1005.876284995
 20
844.34
 40
1.0
 50
15.0
 51
90.0
  0
ARC
  8
0
  6
CONTINUOUS
 62
     1
 10
1005.876283343
 20
844.34
 40
1.0
 50
90.0
 51
165.0
  0
ARC
  8
0
  6
CONTINUOUS
 62
     1
 10
1016.98407022
 20
721.34
 40
1.0
 50
270.0
 51
345.0
  0
ARC
  8
0
  6
CONTINUOUS
 62
     1
 10
1016.984069394
 20
721.34
 40
1.0
 50
195.0
 51
270.0
  0
ARC
  8
0
  6
CONTINUOUS
 62
     1
 10
1005.876284995
 20
721.34
 40
1.0
 50
270.0
 51
345.0
  0
ARC
  8
0
  6
CONTINUOUS
 62
     1
 10
1005.876283343
 20
721.34
 40
1.0
 50
195.0
 51
270.0
  0
LINE
  8
0
  6
CONTINUOUS
 62
     1
 10
1025.12
 20
817.84
 11
1017.949996046
 21
844.598819045
  0
LINE
  8
0
  6
CONTINUOUS
 62
     1
 10
1025.12
 20
747.84
 11
1017.949996046
 21
721.081180955
  0
LINE
  8
0
  6
CONTINUOUS
 62
     1
 10
1037.62
 20
745.84
 11
1027.62
 21
745.84
  0
LINE
  8
0
  6
CONTINUOUS
 62
     1
 10
1025.12
 20
817.84
 11
1040.12
 21
817.84
  0
LINE
  8
0
  6
CONTINUOUS
 62
     1
 10
1037.62
 20
819.84
 11
1027.62
 21
819.84
  0
LINE
  8
0
  6
CONTINUOUS
 62
     1
 10
1037.62
 20
817.84
 11
1037.62
 21
819.84
  0
LINE
  8
0
  6
CONTINUOUS
 62
     1
 10
1027.62
 20
817.84
 11
1027.62
 21
819.84
  0
LINE
  8
0
  6
CONTINUOUS
 62
     1
 10
1025.12
 20
747.84
 11
1025.12
 21
817.84
  0
LINE
  8
0
  6
CONTINUOUS
 62
     1
 10
1006.842210821
 20
844.598819045
 11
1010.959672307
 21
833.148441745
  0
ARC
  8
0
  6
CONTINUOUS
 62
     1
 10
1011.430177195
 20
833.317631432
 40
0.5
 50
199.778167542
 51
340.221832458
  0
LINE
  8
0
  6
CONTINUOUS
 62
     1
 10
1016.018143568
 20
844.598819045
 11
1011.900682083
 21
833.148441745
  0
ARC
  8
0
  6
CONTINUOUS
 62
     1
 10
1000.322391144
 20
833.317631432
 40
0.5
 50
199.778167542
 51
340.221832458
  0
LINE
  8
0
  6
CONTINUOUS
 62
     1
 10
1004.910357517
 20
844.598819045
 11
1000.792896032
 21
833.148441745
  0
LINE
  8
0
  6
CONTINUOUS
 62
     1
 10
1006.842210821
 20
721.081180955
 11
1010.959672307
 21
732.531558255
  0
ARC
  8
0
  6
CONTINUOUS
 62
     1
 10
1011.430177195
 20
732.362368568
 40
0.5
 50
19.778167542
 51
160.221832458
  0
LINE
  8
0
  6
CONTINUOUS
 62
     1
 10
1016.018143568
 20
721.081180955
 11
1011.900682083
 21
732.531558255
  0
ARC
  8
0
  6
CONTINUOUS
 62
     1
 10
1000.322391144
 20
732.362368568
 40
0.5
 50
19.778167542
 51
160.221832458
  0
LINE
  8
0
  6
CONTINUOUS
 62
     1
 10
1004.910357517
 20
721.081180955
 11
1000.792896032
 21
732.531558255
  0
LINE
  8
0
  6
CONTINUOUS
 62
     1
 10
1016.98407022
 20
720.34
 11
1016.98407022
 21
845.34
  0
LINE
  8
0
  6
CONTINUOUS
 62
     1
 10
1005.876284169
 20
720.34
 11
1005.876284169
 21
845.34
  0
LINE
  8
0
  6
CONTINUOUS
 62
     1
 10
1000.322392307
 20
732.84
 11
1000.322392307
 21
832.862368568
  0
LINE
  8
0
  6
CONTINUOUS
 62
     1
 10
1011.430177532
 20
832.862368568
 11
1011.430177532
 21
732.74
  0
LINE
  8
0
  6
LTYPE6
 62
     2
 10
1005.876284995
 20
845.34
 11
977.12
 21
845.34
  0
LINE
  8
0
  6
LTYPE6
 62
     2
 10
977.12
 20
832.862368568
 11
1000.322392307
 21
832.862368568
  0
LINE
  8
0
  6
LTYPE6
 62
     2
 10
1005.876284995
 20
720.34
 11
977.12
 21
720.34
  0
LINE
  8
0
  6
LTYPE6
 62
     2
 10
977.12
 20
732.862368568
 11
1000.322392307
 21
732.862368568
  0
LINE
  8
0
  6
CONTINUOUS
 62
     2
 10
973.12
 20
845.34
 11
954.12
 21
845.34
  0
LINE
  8
0
  6
CONTINUOUS
 62
     2
 10
960.12
 20
845.34
 11
956.237714323
 21
830.851112606
  0
LINE
  8
0
  6
CONTINUOUS
 62
     2
 10
960.12
 20
845.34
 11
964.002285677
 21
830.851112606
  0
LINE
  8
0
  6
CONTINUOUS
 62
     2
 10
960.12
 20
845.34
 11
960.12
 21
720.34
  0
LINE
  8
0
  6
CONTINUOUS
 62
     2
 10
960.12
 20
720.34
 11
964.002285677
 21
734.828887394
  0
LINE
  8
0
  6
CONTINUOUS
 62
     2
 10
960.12
 20
720.34
 11
956.237714323
 21
734.828887394
  0
LINE
  8
0
  6
CONTINUOUS
 62
     2
 10
973.12
 20
720.34
 11
954.12
 21
720.34
  0
TEXT
  8
0
  6
CONTINUOUS
 62
     3
 10
957.12
 20
750.44
 30
0.0
 40
18.0
  1
φ１２５
 50
90.0
 41
0.9
 51
0.0
  7
KANJI17
  0
LINE
  8
0
  6
CONTINUOUS
 62
     1
 10
1027.62
 20
747.84
 11
1027.62
 21
745.84
  0
LINE
  8
0
  6
CONTINUOUS
 62
     1
 10
1037.62
 20
747.84
 11
1037.62
 21
745.84
  0
LINE
  8
0
  6
CONTINUOUS
 62
     1
 10
1040.12
 20
747.84
 11
1040.12
 21
817.84
  0
LINE
  8
0
  6
CONTINUOUS
 62
     1
 10
1040.12
 20
747.84
 11
1025.12
 21
747.84
  0
LINE
  8
0
  6
CONTINUOUS
 62
     2
 10
772.62
 20
577.34
 11
773.954271389
 21
562.399460523
  0
LINE
  8
0
  6
CONTINUOUS
 62
     2
 10
772.62
 20
577.34
 11
781.245782656
 21
565.068248961
  0
LINE
  8
0
  6
CONTINUOUS
 62
     2
 10
772.62
 20
577.34
 11
800.62
 21
500.84
  0
LINE
  8
0
  6
CONTINUOUS
 62
     2
 10
800.62
 20
500.84
 11
867.22
 21
500.84
  0
TEXT
  8
0
  6
CONTINUOUS
 62
     3
 10
800.62
 20
503.84
 30
0.0
 40
24.0
  1
給脂口
 50
0.0
 41
0.925
 51
0.0
  7
KANJI65
  0
TEXT
  8
0
  6
CONTINUOUS
 62
     2
 10
171.4
 20
37.4
 30
0.0
 40
18.0
  1
ＦＤ　Ｎｏ．ＭＣ２６０
 50
0.0
 41
0.9
 51
0.0
  7
KANJI66
  0
TEXT
  8
0
  6
CONTINUOUS
 62
     2
 10
1643.5200334
 20
137.899994
 30
1.8
 40
21.0
  1
０８．０８．０６
 50
0.0
 41
0.571428571
 51
0.0
  7
KANJI67
  0
TEXT
  8
0
  6
CONTINUOUS
 62
     2
 10
1856.92
 20
262.7
 30
0.0
 40
21.0
  1
ＭＣＬＥ１Ｂ２－Ｊ
 50
0.0
 41
0.793650794
 51
0.0
  7
KANJI68
  0
TEXT
  8
0
  6
CONTINUOUS
 62
     2
 10
1971.7200334
 20
166.699994
 30
13.0
 40
30.0
  1
３００２７４９
 50
0.0
 41
0.8
 51
0.0
  7
KANJI69
  0
TEXT
  8
0
  6
CONTINUOUS
 62
     2
 10
1698.4319098
 20
483.1520036
 30
6.156
 40
21.6
  1
　　前後の推奨余裕寸法は、各々５０ｍｍです。
 50
0.0
 41
0.857222222
 51
0.0
  7
KANJI30
  0
TEXT
  8
0
  6
CONTINUOUS
 62
     2
 10
2158.42
 20
1547.6
 30
1.2
 40
18.0
  1
ＭＣＬＥ１Ｂ２－　Ｊ
 50
0.0
 41
0.833333333
 51
0.0
  7
KANJI70
  0
TEXT
  8
0
  6
CONTINUOUS
 62
     2
 10
2147.92
 20
1423.7
 30
1.8
 40
18.0
  1
１００／１２０
 50
0.0
 41
0.9
 51
0.0
  7
KANJI49
  0
TEXT
  8
0
  6
CONTINUOUS
 62
     2
 10
2159.92
 20
1381.7
 30
0.0
 40
18.0
  1
１７Ｎ・ｍ（１．８ｋｇ・ｍ）
 50
0.0
 41
0.833333333
 51
0.0
  7
KANJI71
  0
TEXT
  8
0
  6
CONTINUOUS
 62
     2
 10
2150.92
 20
1213.7
 30
1.8
 40
18.0
  1
　１．５ＫＷ
 50
0.0
 41
0.9
 51
0.0
  7
KANJI49
  0
TEXT
  8
0
  6
CONTINUOUS
 62
     2
 10
1050.133
 20
1526.99
 30
1.617
 40
16.17
  1
注意：サーマルリレー等の選定は、上記の値で選定して下さい。
 50
0.0
 41
0.9
 51
0.0
  7
KANJI72
  0
LINE
  8
0
  6
CONTINUOUS
 62
     2
 10
1040.893
 20
1522.37
 11
1495.92
 21
1522.37
  0
LINE
  8
0
  6
CONTINUOUS
 62
     1
 10
1554.640933
 20
1682.03602
 11
1554.640933
 21
1552.03654
  0
LINE
  8
0
  6
CONTINUOUS
 62
     2
 10
1479.641233
 20
1682.03602
 11
1479.641233
 21
1552.03654
  0
LINE
  8
0
  6
CONTINUOUS
 62
     2
 10
1404.641533
 20
1682.03602
 11
1404.641533
 21
1552.03654
  0
LINE
  8
0
  6
CONTINUOUS
 62
     1
 10
1304.641933
 20
1682.03602
 11
1304.641933
 21
1552.03654
  0
LINE
  8
0
  6
CONTINUOUS
 62
     1
 10
1304.641933
 20
1682.03602
 11
1554.640933
 21
1682.03602
  0
LINE
  8
0
  6
CONTINUOUS
 62
     1
 10
1304.641933
 20
1642.03618
 11
1554.640933
 21
1642.03618
  0
LINE
  8
0
  6
CONTINUOUS
 62
     2
 10
1304.641933
 20
1612.0363
 11
1554.640933
 21
1612.0363
  0
LINE
  8
0
  6
CONTINUOUS
 62
     2
 10
1304.641933
 20
1582.03642
 11
1554.640933
 21
1582.03642
  0
LINE
  8
0
  6
CONTINUOUS
 62
     1
 10
1304.641933
 20
1552.03654
 11
1554.640933
 21
1552.03654
  0
TEXT
  8
0
  6
CONTINUOUS
 62
     2
 10
1489.641193
 20
1664.53609
 30
1.499994
 40
14.99994
  1
起動電流
 50
0.0
 41
0.9
 51
0.0
  7
KANJI73
  0
TEXT
  8
0
  6
CONTINUOUS
 62
     2
 10
1489.641193
 20
1647.03616
 30
1.499994
 40
14.99994
  1
　　　Ａ
 50
0.0
 41
0.9
 51
0.0
  7
KANJI73
  0
TEXT
  8
0
  6
CONTINUOUS
 62
     2
 10
1414.641493
 20
1664.53609
 30
1.499994
 40
14.99994
  1
定格電流
 50
0.0
 41
0.9
 51
0.0
  7
KANJI73
  0
TEXT
  8
0
  6
CONTINUOUS
 62
     2
 10
1414.641493
 20
1647.03616
 30
1.499994
 40
14.99994
  1
　　　Ａ
 50
0.0
 41
0.9
 51
0.0
  7
KANJI73
  0
TEXT
  8
0
  6
CONTINUOUS
 62
     2
 10
1313.141899
 20
1589.53639
 30
1.499994
 40
14.99994
  1
２００／６０
 50
0.0
 41
0.9
 51
0.0
  7
KANJI73
  0
TEXT
  8
0
  6
CONTINUOUS
 62
     2
 10
1313.141899
 20
1664.53609
 30
1.499994
 40
14.99994
  1
電圧／周波数
 50
0.0
 41
0.9
 51
0.0
  7
KANJI73
  0
TEXT
  8
0
  6
CONTINUOUS
 62
     2
 10
1313.141899
 20
1647.03616
 30
1.499994
 40
14.99994
  1
　Ｖ／Ｈｚ
 50
0.0
 41
0.9
 51
0.0
  7
KANJI73
  0
TEXT
  8
0
  6
CONTINUOUS
 62
     2
 10
1313.141899
 20
1619.53627
 30
1.499994
 40
14.99994
  1
２００／５０
 50
0.0
 41
0.9
 51
0.0
  7
KANJI73
  0
TEXT
  8
0
  6
CONTINUOUS
 62
     2
 10
1313.141899
 20
1559.53651
 30
1.499994
 40
14.99994
  1
２２０／６０
 50
0.0
 41
0.9
 51
0.0
  7
KANJI73
  0
LINE
  8
0
  6
CONTINUOUS
 62
     1
 10
1254.642133
 20
1682.03602
 11
1254.642133
 21
1552.03654
  0
LINE
  8
0
  6
CONTINUOUS
 62
     2
 10
1179.642433
 20
1682.03602
 11
1179.642433
 21
1552.03654
  0
LINE
  8
0
  6
CONTINUOUS
 62
     2
 10
1104.642733
 20
1682.03602
 11
1104.642733
 21
1552.03654
  0
LINE
  8
0
  6
CONTINUOUS
 62
     1
 10
1004.643133
 20
1682.03602
 11
1254.642133
 21
1682.03602
  0
LINE
  8
0
  6
CONTINUOUS
 62
     1
 10
1004.643133
 20
1642.03618
 11
1254.642133
 21
1642.03618
  0
LINE
  8
0
  6
CONTINUOUS
 62
     2
 10
1004.643133
 20
1612.0363
 11
1254.642133
 21
1612.0363
  0
LINE
  8
0
  6
CONTINUOUS
 62
     2
 10
1004.643133
 20
1582.03642
 11
1254.642133
 21
1582.03642
  0
LINE
  8
0
  6
CONTINUOUS
 62
     1
 10
1004.643133
 20
1552.03654
 11
1254.642133
 21
1552.03654
  0
TEXT
  8
0
  6
CONTINUOUS
 62
     2
 10
1189.642393
 20
1664.53609
 30
1.499994
 40
14.99994
  1
起動電流
 50
0.0
 41
0.9
 51
0.0
  7
KANJI73
  0
TEXT
  8
0
  6
CONTINUOUS
 62
     2
 10
1189.642393
 20
1647.03616
 30
1.499994
 40
14.99994
  1
　　　Ａ
 50
0.0
 41
0.9
 51
0.0
  7
KANJI73
  0
TEXT
  8
0
  6
CONTINUOUS
 62
     2
 10
1114.642693
 20
1664.53609
 30
1.499994
 40
14.99994
  1
定格電流
 50
0.0
 41
0.9
 51
0.0
  7
KANJI73
  0
TEXT
  8
0
  6
CONTINUOUS
 62
     2
 10
1114.642693
 20
1647.03616
 30
1.499994
 40
14.99994
  1
　　　Ａ
 50
0.0
 41
0.9
 51
0.0
  7
KANJI73
  0
TEXT
  8
0
  6
CONTINUOUS
 62
     2
 10
1013.143099
 20
1664.53609
 30
1.499994
 40
14.99994
  1
電圧／周波数
 50
0.0
 41
0.9
 51
0.0
  7
KANJI73
  0
TEXT
  8
0
  6
CONTINUOUS
 62
     2
 10
1013.143099
 20
1647.03616
 30
1.499994
 40
14.99994
  1
　Ｖ／Ｈｚ
 50
0.0
 41
0.9
 51
0.0
  7
KANJI73
  0
TEXT
  8
0
  6
CONTINUOUS
 62
     2
 10
1013.143099
 20
1619.53627
 30
1.499994
 40
14.99994
  1
４００／５０
 50
0.0
 41
0.9
 51
0.0
  7
KANJI73
  0
TEXT
  8
0
  6
CONTINUOUS
 62
     2
 10
1013.143099
 20
1589.53639
 30
1.499994
 40
14.99994
  1
４００／６０
 50
0.0
 41
0.9
 51
0.0
  7
KANJI73
  0
TEXT
  8
0
  6
CONTINUOUS
 62
     2
 10
1013.143099
 20
1559.53651
 30
1.499994
 40
14.99994
  1
４４０／６０
 50
0.0
 41
0.9
 51
0.0
  7
KANJI73
  0
TEXT
  8
0
  6
CONTINUOUS
 62
     2
 10
1114.642693
 20
1619.53627
 30
1.499994
 40
14.99994
  1
　　３．４
 50
0.0
 41
0.9
 51
0.0
  7
KANJI73
  0
TEXT
  8
0
  6
CONTINUOUS
 62
     2
 10
1114.642693
 20
1559.53651
 30
1.499994
 40
14.99994
  1
　　３．０
 50
0.0
 41
0.9
 51
0.0
  7
KANJI73
  0
TEXT
  8
0
  6
CONTINUOUS
 62
     2
 10
1414.641493
 20
1619.53627
 30
1.499994
 40
14.99994
  1
　　６．８
 50
0.0
 41
0.9
 51
0.0
  7
KANJI73
  0
TEXT
  8
0
  6
CONTINUOUS
 62
     2
 10
1414.641493
 20
1559.53651
 30
1.499994
 40
14.99994
  1
　　６．０
 50
0.0
 41
0.9
 51
0.0
  7
KANJI73
  0
TEXT
  8
0
  6
CONTINUOUS
 62
     2
 10
1489.641193
 20
1619.53627
 30
1.499994
 40
14.99994
  1
４４．０
 50
0.0
 41
0.9
 51
0.0
  7
KANJI73
  0
LINE
  8
0
  6
CONTINUOUS
 62
     1
 10
1004.643133
 20
1682.03602
 11
1004.643133
 21
1552.03654
  0
TEXT
  8
0
  6
CONTINUOUS
 62
     2
 10
1114.642693
 20
1589.53639
 30
1.499994
 40
14.99994
  1
　　３．１
 50
0.0
 41
0.9
 51
0.0
  7
KANJI73
  0
TEXT
  8
0
  6
CONTINUOUS
 62
     2
 10
1414.641493
 20
1589.53639
 30
1.499994
 40
14.99994
  1
　　６．２
 50
0.0
 41
0.9
 51
0.0
  7
KANJI73
  0
TEXT
  8
0
  6
CONTINUOUS
 62
     2
 10
1189.642393
 20
1619.53627
 30
1.499994
 40
14.99994
  1
２２．１
 50
0.0
 41
0.9
 51
0.0
  7
KANJI73
  0
TEXT
  8
0
  6
CONTINUOUS
 62
     2
 10
1189.642393
 20
1589.53639
 30
1.499994
 40
14.99994
  1
１９．２
 50
0.0
 41
0.9
 51
0.0
  7
KANJI73
  0
TEXT
  8
0
  6
CONTINUOUS
 62
     2
 10
1189.642393
 20
1559.53651
 30
1.499994
 40
14.99994
  1
２１．１
 50
0.0
 41
0.9
 51
0.0
  7
KANJI73
  0
TEXT
  8
0
  6
CONTINUOUS
 62
     2
 10
1489.099556333
 20
1587.2447275
 30
1.499994
 40
14.99994
  1
３８．２
 50
0.0
 41
0.9
 51
0.0
  7
KANJI73
  0
TEXT
  8
0
  6
CONTINUOUS
 62
     2
 10
1490.349551333
 20
1558.9115075
 30
1.499994
 40
14.99994
  1
４２．１
 50
0.0
 41
0.9
 51
0.0
  7
KANJI73
  0
TEXT
  8
0
  6
CONTINUOUS
 62
     2
 10
1024.72
 20
1442.72
 30
0.96
 40
14.4
  1
ＭＣＬＥ１Ｂ２－　　２Ｊ
 50
0.0
 41
0.833333333
 51
0.0
  7
KANJI74
  0
TEXT
  8
0
  6
CONTINUOUS
 62
     2
 10
1024.72
 20
1409.12
 30
0.96
 40
14.4
  1
ＭＣＬＥ１Ｂ２－　　３Ｊ
 50
0.0
 41
0.833333333
 51
0.0
  7
KANJI74
  0
TEXT
  8
0
  6
CONTINUOUS
 62
     2
 10
1024.72
 20
1375.52
 30
0.96
 40
14.4
  1
ＭＣＬＥ１Ｂ２－　　４Ｊ
 50
0.0
 41
0.833333333
 51
0.0
  7
KANJI74
  0
TEXT
  8
0
  6
CONTINUOUS
 62
     2
 10
1024.72
 20
1341.92
 30
0.96
 40
14.4
  1
ＭＣＬＥ１Ｂ２－　　５Ｊ
 50
0.0
 41
0.833333333
 51
0.0
  7
KANJI74
  0
TEXT
  8
0
  6
CONTINUOUS
 62
     2
 10
1024.72
 20
1308.32
 30
0.96
 40
14.4
  1
ＭＣＬＥ１Ｂ２－　　６Ｊ
 50
0.0
 41
0.833333333
 51
0.0
  7
KANJI74
  0
TEXT
  8
0
  6
CONTINUOUS
 62
     2
 10
1024.72
 20
1274.72
 30
0.96
 40
14.4
  1
ＭＣＬＥ１Ｂ２－　　７Ｊ
 50
0.0
 41
0.833333333
 51
0.0
  7
KANJI74
  0
TEXT
  8
0
  6
CONTINUOUS
 62
     2
 10
1024.72
 20
1241.12
 30
0.96
 40
14.4
  1
ＭＣＬＥ１Ｂ２－　　８Ｊ
 50
0.0
 41
0.833333333
 51
0.0
  7
KANJI74
  0
TEXT
  8
0
  6
CONTINUOUS
 62
     2
 10
1024.72
 20
1207.52
 30
0.96
 40
14.4
  1
ＭＣＬＥ１Ｂ２－　　９Ｊ
 50
0.0
 41
0.833333333
 51
0.0
  7
KANJI74
  0
TEXT
  8
0
  6
CONTINUOUS
 62
     2
 10
1024.72
 20
1173.92
 30
0.96
 40
14.4
  1
ＭＣＬＥ１Ｂ２ー　１０Ｊ
 50
0.0
 41
0.833333333
 51
0.0
  7
KANJI74
  0
TEXT
  8
0
  6
CONTINUOUS
 62
     2
 10
1024.72
 20
1140.52
 30
0.96
 40
14.4
  1
ＭＣＬＥ１Ｂ２－　１１Ｊ
 50
0.0
 41
0.833333333
 51
0.0
  7
KANJI74
  0
TEXT
  8
0
  6
CONTINUOUS
 62
     2
 10
1024.72
 20
1106.92
 30
0.96
 40
14.4
  1
ＭＣＬＥ１Ｂ２－　１２Ｊ
 50
0.0
 41
0.833333333
 51
0.0
  7
KANJI74
  0
TEXT
  8
0
  6
CONTINUOUS
 62
     2
 10
1024.72
 20
1073.12
 30
0.96
 40
14.4
  1
ＭＣＬＥ１Ｂ２－　　　Ｊ
 50
0.0
 41
0.833333333
 51
0.0
  7
KANJI74
  0
TEXT
  8
0
  6
CONTINUOUS
 62
     2
 10
1520.32
 20
1443.08
 30
1.44
 40
14.4
  1
　４６０
 50
0.0
 41
0.9
 51
0.0
  7
KANJI32
  0
TEXT
  8
0
  6
CONTINUOUS
 62
     2
 10
1520.32
 20
1409.48
 30
1.44
 40
14.4
  1
　５６０
 50
0.0
 41
0.9
 51
0.0
  7
KANJI32
  0
TEXT
  8
0
  6
CONTINUOUS
 62
     2
 10
1520.32
 20
1375.88
 30
1.44
 40
14.4
  1
　６６０
 50
0.0
 41
0.9
 51
0.0
  7
KANJI32
  0
TEXT
  8
0
  6
CONTINUOUS
 62
     2
 10
1520.32
 20
1342.28
 30
1.44
 40
14.4
  1
　７６０
 50
0.0
 41
0.9
 51
0.0
  7
KANJI32
  0
TEXT
  8
0
  6
CONTINUOUS
 62
     2
 10
1520.32
 20
1308.68
 30
1.44
 40
14.4
  1
　９００
 50
0.0
 41
0.9
 51
0.0
  7
KANJI32
  0
TEXT
  8
0
  6
CONTINUOUS
 62
     2
 10
1520.32
 20
1275.08
 30
1.44
 40
14.4
  1
１０００
 50
0.0
 41
0.9
 51
0.0
  7
KANJI32
  0
TEXT
  8
0
  6
CONTINUOUS
 62
     2
 10
1520.32
 20
1241.48
 30
1.44
 40
14.4
  1
１１００
 50
0.0
 41
0.9
 51
0.0
  7
KANJI32
  0
TEXT
  8
0
  6
CONTINUOUS
 62
     2
 10
1520.32
 20
1207.88
 30
1.44
 40
14.4
  1
１２００
 50
0.0
 41
0.9
 51
0.0
  7
KANJI32
  0
TEXT
  8
0
  6
CONTINUOUS
 62
     2
 10
1520.32
 20
1174.28
 30
1.44
 40
14.4
  1
１３００
 50
0.0
 41
0.9
 51
0.0
  7
KANJI32
  0
TEXT
  8
0
  6
CONTINUOUS
 62
     2
 10
1520.32
 20
1140.88
 30
1.44
 40
14.4
  1
１４００
 50
0.0
 41
0.9
 51
0.0
  7
KANJI32
  0
TEXT
  8
0
  6
CONTINUOUS
 62
     2
 10
1520.32
 20
1107.28
 30
1.44
 40
14.4
  1
１５００
 50
0.0
 41
0.9
 51
0.0
  7
KANJI32
  0
TEXT
  8
0
  6
CONTINUOUS
 62
     2
 10
1424.32
 20
1443.08
 30
1.44
 40
14.4
  1
　５５５
 50
0.0
 41
0.9
 51
0.0
  7
KANJI32
  0
TEXT
  8
0
  6
CONTINUOUS
 62
     2
 10
1424.32
 20
1409.48
 30
1.44
 40
14.4
  1
　６５５
 50
0.0
 41
0.9
 51
0.0
  7
KANJI32
  0
TEXT
  8
0
  6
CONTINUOUS
 62
     2
 10
1424.32
 20
1375.88
 30
1.44
 40
14.4
  1
　７９５
 50
0.0
 41
0.9
 51
0.0
  7
KANJI32
  0
TEXT
  8
0
  6
CONTINUOUS
 62
     2
 10
1424.32
 20
1342.28
 30
1.44
 40
14.4
  1
　９２２
 50
0.0
 41
0.9
 51
0.0
  7
KANJI32
  0
TEXT
  8
0
  6
CONTINUOUS
 62
     2
 10
1424.32
 20
1308.68
 30
1.44
 40
14.4
  1
１０７８
 50
0.0
 41
0.9
 51
0.0
  7
KANJI32
  0
TEXT
  8
0
  6
CONTINUOUS
 62
     2
 10
1424.32
 20
1275.08
 30
1.44
 40
14.4
  1
１１９８
 50
0.0
 41
0.9
 51
0.0
  7
KANJI32
  0
TEXT
  8
0
  6
CONTINUOUS
 62
     2
 10
1424.32
 20
1241.48
 30
1.44
 40
14.4
  1
１３１８
 50
0.0
 41
0.9
 51
0.0
  7
KANJI32
  0
TEXT
  8
0
  6
CONTINUOUS
 62
     2
 10
1424.32
 20
1207.88
 30
1.44
 40
14.4
  1
１４４８
 50
0.0
 41
0.9
 51
0.0
  7
KANJI32
  0
TEXT
  8
0
  6
CONTINUOUS
 62
     2
 10
1424.32
 20
1174.28
 30
1.44
 40
14.4
  1
１５８１
 50
0.0
 41
0.9
 51
0.0
  7
KANJI32
  0
TEXT
  8
0
  6
CONTINUOUS
 62
     2
 10
1424.32
 20
1140.88
 30
1.44
 40
14.4
  1
１６９５
 50
0.0
 41
0.9
 51
0.0
  7
KANJI32
  0
TEXT
  8
0
  6
CONTINUOUS
 62
     2
 10
1424.32
 20
1107.28
 30
1.44
 40
14.4
  1
１８１８
 50
0.0
 41
0.9
 51
0.0
  7
KANJI32
  0
TEXT
  8
0
  6
CONTINUOUS
 62
     2
 10
1328.32
 20
1443.08
 30
1.44
 40
14.4
  1
　７０１
 50
0.0
 41
0.9
 51
0.0
  7
KANJI32
  0
TEXT
  8
0
  6
CONTINUOUS
 62
     2
 10
1328.32
 20
1409.48
 30
1.44
 40
14.4
  1
　８０１
 50
0.0
 41
0.9
 51
0.0
  7
KANJI32
  0
TEXT
  8
0
  6
CONTINUOUS
 62
     2
 10
1328.32
 20
1375.88
 30
1.44
 40
14.4
  1
　９４１
 50
0.0
 41
0.9
 51
0.0
  7
KANJI32
  0
TEXT
  8
0
  6
CONTINUOUS
 62
     2
 10
1328.32
 20
1342.28
 30
1.44
 40
14.4
  1
１０６８
 50
0.0
 41
0.9
 51
0.0
  7
KANJI32
  0
TEXT
  8
0
  6
CONTINUOUS
 62
     2
 10
1328.32
 20
1308.68
 30
1.44
 40
14.4
  1
１２２４
 50
0.0
 41
0.9
 51
0.0
  7
KANJI32
  0
TEXT
  8
0
  6
CONTINUOUS
 62
     2
 10
1328.32
 20
1275.08
 30
1.44
 40
14.4
  1
１３４４
 50
0.0
 41
0.9
 51
0.0
  7
KANJI32
  0
TEXT
  8
0
  6
CONTINUOUS
 62
     2
 10
1328.32
 20
1241.48
 30
1.44
 40
14.4
  1
１４６４
 50
0.0
 41
0.9
 51
0.0
  7
KANJI32
  0
TEXT
  8
0
  6
CONTINUOUS
 62
     2
 10
1328.32
 20
1207.88
 30
1.44
 40
14.4
  1
１５９４
 50
0.0
 41
0.9
 51
0.0
  7
KANJI32
  0
TEXT
  8
0
  6
CONTINUOUS
 62
     2
 10
1328.32
 20
1174.28
 30
1.44
 40
14.4
  1
１７２７
 50
0.0
 41
0.9
 51
0.0
  7
KANJI32
  0
TEXT
  8
0
  6
CONTINUOUS
 62
     2
 10
1328.32
 20
1140.88
 30
1.44
 40
14.4
  1
１８４１
 50
0.0
 41
0.9
 51
0.0
  7
KANJI32
  0
TEXT
  8
0
  6
CONTINUOUS
 62
     2
 10
1328.32
 20
1107.28
 30
1.44
 40
14.4
  1
１９６４
 50
0.0
 41
0.9
 51
0.0
  7
KANJI32
  0
TEXT
  8
0
  6
CONTINUOUS
 62
     2
 10
1712.32
 20
1443.08
 30
1.44
 40
14.4
  1
　７７
 50
0.0
 41
0.9
 51
0.0
  7
KANJI32
  0
TEXT
  8
0
  6
CONTINUOUS
 62
     2
 10
1712.32
 20
1409.48
 30
1.44
 40
14.4
  1
　７９
 50
0.0
 41
0.9
 51
0.0
  7
KANJI32
  0
TEXT
  8
0
  6
CONTINUOUS
 62
     2
 10
1712.32
 20
1375.88
 30
1.44
 40
14.4
  1
　８１
 50
0.0
 41
0.9
 51
0.0
  7
KANJI32
  0
TEXT
  8
0
  6
CONTINUOUS
 62
     2
 10
1712.32
 20
1342.28
 30
1.44
 40
14.4
  1
　８４
 50
0.0
 41
0.9
 51
0.0
  7
KANJI32
  0
TEXT
  8
0
  6
CONTINUOUS
 62
     2
 10
1712.32
 20
1308.68
 30
1.44
 40
14.4
  1
　８８
 50
0.0
 41
0.9
 51
0.0
  7
KANJI32
  0
TEXT
  8
0
  6
CONTINUOUS
 62
     2
 10
1712.32
 20
1275.08
 30
1.44
 40
14.4
  1
　９０
 50
0.0
 41
0.9
 51
0.0
  7
KANJI32
  0
TEXT
  8
0
  6
CONTINUOUS
 62
     2
 10
1712.32
 20
1241.48
 30
1.44
 40
14.4
  1
　９２
 50
0.0
 41
0.9
 51
0.0
  7
KANJI32
  0
TEXT
  8
0
  6
CONTINUOUS
 62
     2
 10
1712.32
 20
1207.88
 30
1.44
 40
14.4
  1
　９３
 50
0.0
 41
0.9
 51
0.0
  7
KANJI32
  0
TEXT
  8
0
  6
CONTINUOUS
 62
     2
 10
1712.32
 20
1174.28
 30
1.44
 40
14.4
  1
　９５
 50
0.0
 41
0.9
 51
0.0
  7
KANJI32
  0
TEXT
  8
0
  6
CONTINUOUS
 62
     2
 10
1712.32
 20
1140.88
 30
1.44
 40
14.4
  1
　９７
 50
0.0
 41
0.9
 51
0.0
  7
KANJI32
  0
TEXT
  8
0
  6
CONTINUOUS
 62
     2
 10
1712.32
 20
1107.28
 30
1.44
 40
14.4
  1
　９９
 50
0.0
 41
0.9
 51
0.0
  7
KANJI32
  0
LINE
  8
0
  6
CONTINUOUS
 62
     2
 10
409.12
 20
857.54
 11
409.12
 21
997.94
  0
LINE
  8
0
  6
CONTINUOUS
 62
     2
 10
409.12
 20
991.94
 11
423.608887394
 21
988.057714323
  0
LINE
  8
0
  6
CONTINUOUS
 62
     2
 10
409.12
 20
991.94
 11
423.608887394
 21
995.822285677
  0
LINE
  8
0
  6
CONTINUOUS
 62
     2
 10
431.62
 20
991.94
 11
409.12
 21
991.94
  0
LINE
  8
0
  6
CONTINUOUS
 62
     2
 10
409.12
 20
991.94
 11
399.12
 21
991.94
  0
LINE
  8
0
  6
CONTINUOUS
 62
     2
 10
399.12
 20
991.94
 11
376.62
 21
991.94
  0
LINE
  8
0
  6
CONTINUOUS
 62
     2
 10
399.12
 20
991.94
 11
384.631112606
 21
995.822285677
  0
LINE
  8
0
  6
CONTINUOUS
 62
     2
 10
399.12
 20
991.94
 11
384.631112606
 21
988.057714323
  0
LINE
  8
0
  6
CONTINUOUS
 62
     2
 10
399.12
 20
853.24
 11
399.12
 21
997.94
  0
TEXT
  8
0
  6
CONTINUOUS
 62
     3
 10
387.92
 20
994.94
 30
0.0
 40
18.0
  1
１０
 50
0.0
 41
0.9
 51
0.0
  7
KANJI17
  0
LINE
  8
0
  6
CONTINUOUS
 62
     2
 10
399.12
 20
983.44
 11
399.12
 21
997.94
  0
LINE
  8
0
  6
CONTINUOUS
 62
     2
 10
399.12
 20
991.94
 11
384.631112606
 21
995.822285677
  0
LINE
  8
0
  6
CONTINUOUS
 62
     2
 10
399.12
 20
991.94
 11
384.631112606
 21
988.057714323
  0
LINE
  8
0
  6
CONTINUOUS
 62
     2
 10
399.12
 20
991.94
 11
286.12
 21
991.94
  0
LINE
  8
0
  6
CONTINUOUS
 62
     2
 10
286.12
 20
991.94
 11
300.608887394
 21
988.057714323
  0
LINE
  8
0
  6
CONTINUOUS
 62
     2
 10
286.12
 20
991.94
 11
300.608887394
 21
995.822285677
  0
LINE
  8
0
  6
CONTINUOUS
 62
     2
 10
286.12
 20
775.24
 11
286.12
 21
997.94
  0
TEXT
  8
0
  6
CONTINUOUS
 62
     3
 10
318.32
 20
994.94
 30
0.0
 40
18.0
  1
１１３
 50
0.0
 41
0.9
 51
0.0
  7
KANJI17
  0
LINE
  8
0
  6
LTYPE3
 62
     2
 10
1395.12
 20
474.24
 11
1395.12
 21
954.24
  0
TEXT
  8
0
  6
CONTINUOUS
 62
     6
 10
148.19234898
 20
1364.165383027
 30
1.82231734
 40
18.223173404
  1
クイックブレーキモータ
 50
0.0
 41
0.66671875
 51
0.0
  7
KANJI75
  0
CIRCLE
  8
0
  6
CONTINUOUS
 62
     6
 10
192.633781323
 20
1302.198025404
 40
21.6
  0
TEXT
  8
0
  6
CONTINUOUS
 62
     6
 10
183.561781323
 20
1291.830025404
 30
2.16
 40
21.6
  1
Ｍ
 50
0.0
 41
0.9
 51
0.0
  7
KANJI76
  0
LINE
  8
0
  6
CONTINUOUS
 62
     6
 10
164.121781323
 20
1271.958025404
 11
177.513781323
 21
1287.510025404
  0
LINE
  8
0
  6
CONTINUOUS
 62
     6
 10
164.121781323
 20
1332.438025404
 11
177.513781323
 21
1316.886025404
  0
CIRCLE
  8
0
  6
CONTINUOUS
 62
     6
 10
139.497781323
 20
1332.438025404
 40
5.184
  0
LINE
  8
0
  6
CONTINUOUS
 62
     6
 10
133.541885208
 20
1326.482129288
 11
145.637885208
 21
1338.578129288
  0
CIRCLE
  8
0
  6
CONTINUOUS
 62
     6
 10
139.497781323
 20
1302.198025404
 40
5.184
  0
LINE
  8
0
  6
CONTINUOUS
 62
     6
 10
133.541885208
 20
1296.242129288
 11
145.637885208
 21
1308.338129288
  0
CIRCLE
  8
0
  6
CONTINUOUS
 62
     6
 10
139.497781323
 20
1271.958025404
 40
5.184
  0
LINE
  8
0
  6
CONTINUOUS
 62
     6
 10
133.541885208
 20
1266.002129288
 11
145.637885208
 21
1278.098129288
  0
LINE
  8
0
  6
CONTINUOUS
 62
     6
 10
164.121781323
 20
1332.438025404
 11
144.681781323
 21
1332.438025404
  0
LINE
  8
0
  6
CONTINUOUS
 62
     6
 10
171.465781323
 20
1302.198025404
 11
144.681781323
 21
1302.198025404
  0
LINE
  8
0
  6
CONTINUOUS
 62
     6
 10
164.121781323
 20
1271.958025404
 11
144.681781323
 21
1271.958025404
  0
LINE
  8
0
  6
LTYPE3
 62
     6
 10
139.497781323
 20
1355.766025404
 11
139.497781323
 21
1336.326025404
  0
LINE
  8
0
  6
LTYPE3
 62
     6
 10
139.497781323
 20
1327.686025404
 11
139.497781323
 21
1306.086025404
  0
LINE
  8
0
  6
LTYPE3
 62
     6
 10
139.497781323
 20
1297.446025404
 11
139.497781323
 21
1276.278025404
  0
TEXT
  8
0
  6
CONTINUOUS
 62
     6
 10
118.713781323
 20
1339.782025404
 30
1.296
 40
12.96
  1
Ｕ
 50
0.0
 41
0.9
 51
0.0
  7
KANJI77
  0
TEXT
  8
0
  6
CONTINUOUS
 62
     6
 10
120.009781323
 20
1309.110025404
 30
1.296
 40
12.96
  1
Ｖ
 50
0.0
 41
0.9
 51
0.0
  7
KANJI77
  0
TEXT
  8
0
  6
CONTINUOUS
 62
     6
 10
121.305781323
 20
1278.438025404
 30
1.296
 40
12.96
  1
Ｗ
 50
0.0
 41
0.9
 51
0.0
  7
KANJI77
  0
LINE
  8
0
  6
LTYPE3
 62
     6
 10
294.057781323
 20
1355.766025404
 11
139.497781323
 21
1355.766025404
  0
TEXT
  8
0
  6
CONTINUOUS
 62
     6
 10
223.737781323
 20
1292.413225404
 30
1.728
 40
17.28
  1
Ｂ
 50
0.0
 41
0.9
 51
0.0
  7
KANJI78
  0
CIRCLE
  8
0
  6
CONTINUOUS
 62
     6
 10
231.513781323
 20
1302.198025404
 40
17.28
  0
LINE
  8
0
  6
CONTINUOUS
 62
     6
 10
259.113781323
 20
1271.785225404
 11
240.134765754
 21
1287.222143879
  0
LINE
  8
0
  6
CONTINUOUS
 62
     6
 10
222.529106398
 20
1287.437469301
 11
203.433781323
 21
1271.785225404
  0
CIRCLE
  8
0
  6
CONTINUOUS
 62
     6
 10
203.433781323
 20
1222.753225404
 40
5.184
  0
LINE
  8
0
  6
CONTINUOUS
 62
     6
 10
197.477885208
 20
1216.797329288
 11
209.573885208
 21
1228.893329288
  0
CIRCLE
  8
0
  6
CONTINUOUS
 62
     6
 10
231.273781323
 20
1222.753225404
 40
5.184
  0
LINE
  8
0
  6
CONTINUOUS
 62
     6
 10
225.317885208
 20
1216.797329288
 11
237.413885208
 21
1228.893329288
  0
LINE
  8
0
  6
LTYPE3
 62
     6
 10
208.617781323
 20
1222.753225404
 11
225.993781323
 21
1222.753225404
  0
CIRCLE
  8
0
  6
CONTINUOUS
 62
     6
 10
259.113781323
 20
1222.753225404
 40
5.184
  0
LINE
  8
0
  6
CONTINUOUS
 62
     6
 10
253.157885208
 20
1216.797329288
 11
265.253885208
 21
1228.893329288
  0
LINE
  8
0
  6
LTYPE3
 62
     6
 10
236.073781323
 20
1222.753225404
 11
254.313781323
 21
1222.753225404
  0
TEXT
  8
0
  6
CONTINUOUS
 62
     6
 10
216.537781323
 20
1225.585225404
 30
1.296
 40
12.96
  1
ｖ
 50
0.0
 41
0.9
 51
0.0
  7
KANJI77
  0
TEXT
  8
0
  6
CONTINUOUS
 62
     6
 10
244.377781323
 20
1225.585225404
 30
1.296
 40
12.96
  1
ｗ
 50
0.0
 41
0.9
 51
0.0
  7
KANJI77
  0
TEXT
  8
0
  6
CONTINUOUS
 62
     6
 10
189.513781323
 20
1226.449225404
 30
1.296
 40
12.96
  1
ｕ
 50
0.0
 41
0.9
 51
0.0
  7
KANJI77
  0
LINE
  8
0
  6
CONTINUOUS
 62
     6
 10
203.433781323
 20
1227.937225404
 11
203.433781323
 21
1271.785225404
  0
LINE
  8
0
  6
CONTINUOUS
 62
     6
 10
231.273781323
 20
1227.937225404
 11
231.273781323
 21
1285.206025404
  0
LINE
  8
0
  6
CONTINUOUS
 62
     6
 10
259.113781323
 20
1227.937225404
 11
259.113781323
 21
1271.785225404
  0
LINE
  8
0
  6
LTYPE3
 62
     6
 10
264.873781323
 20
1222.753225404
 11
294.057781323
 21
1222.753225404
  0
LINE
  8
0
  6
LTYPE3
 62
     6
 10
294.057781323
 20
1222.753225404
 11
294.057781323
 21
1355.766025404
  0
LINE
  8
0
  6
LTYPE3
 62
     6
 10
139.497781323
 20
1222.753225404
 11
198.249781323
 21
1222.753225404
  0
LINE
  8
0
  6
LTYPE3
 62
     6
 10
139.497781323
 20
1266.774025404
 11
139.497781323
 21
1222.753225404
  0
TEXT
  8
0
  6
CONTINUOUS
 62
     2
 10
155.912253361
 20
1187.720711177
 30
0.0
 40
18.72
  1
モーター結線図
 50
0.0
 41
0.925
 51
0.0
  7
KANJI79
  0
ENDSEC
  0
EOF
