  0
SECTION
  2
HEADER
  9
$ACADVER
  1
AC1009
  9
$DWGCODEPAGE
  3
dos932
  9
$EXTMIN
 10
0.0
 20
0.0
 30
0.0
  9
$EXTMAX
 10
2520.0
 20
1782.0
 30
0.0
  9
$LIMMIN
 10
0.0
 20
0.0
  9
$LIMMAX
 10
2520.0
 20
1782.0
  9
$LTSCALE
 40
1.0
  9
$PDMODE
 70
     0
  0
ENDSEC
  0
SECTION
  2
TABLES
  0
TABLE
  2
VPORT
 70
     1
  0
VPORT
  2
*ACTIVE
 70
     0
 10
0.0
 20
0.0
 11
1.0
 21
1.0
 12
1260.0
 22
891.0
 13
0.0
 23
0.0
 14
10.0
 24
10.0
 15
10.0
 25
10.0
 16
0.0
 26
0.0
 36
1.0
 17
0.0
 27
0.0
 37
0.0
 40
2520.0
 41
1.414141414
 42
50.0
 43
0.0
 44
0.0
 50
0.0
 51
0.0
 71
     0
 72
  1000
 73
     1
 74
     3
 75
     0
 76
     0
 77
     0
 78
     0
  0
ENDTAB
  0
TABLE
  2
LTYPE
 70
     6
  0
LTYPE
  2
CONTINUOUS
 70
    64
  3
Solid line
 72
    65
 73
     0
 40
0.0
  0
LTYPE
  2
LTYPE1
 70
    64
  3
HIDDEN
 72
    65
 73
     2
 40
18.0
 49
10.8
 49
-7.2
  0
LTYPE
  2
LTYPE2
 70
    64
  3
CENTER
 72
    65
 73
     4
 40
60.0
 49
42.0
 49
-6.0
 49
6.0
 49
-6.0
  0
LTYPE
  2
LTYPE3
 70
    64
  3
CENTER
 72
    65
 73
     4
 40
90.0
 49
63.0
 49
-9.0
 49
9.0
 49
-9.0
  0
LTYPE
  2
LTYPE4
 70
    64
  3
CENTER
 72
    65
 73
     4
 40
120.0
 49
84.0
 49
-12.0
 49
12.0
 49
-12.0
  0
LTYPE
  2
LTYPE5
 70
    64
  3
CENTER
 72
    65
 73
     4
 40
54.0
 49
37.8
 49
-5.4
 49
5.4
 49
-5.4
  0
ENDTAB
  0
TABLE
  2
LAYER
 70
   128
  0
LAYER
  2
0
 70
     0
 62
     7
  6
CONTINUOUS
  0
LAYER
  2
2
 70
     0
 62
     7
  6
CONTINUOUS
  0
LAYER
  2
3
 70
     0
 62
     7
  6
CONTINUOUS
  0
LAYER
  2
4
 70
     0
 62
     7
  6
CONTINUOUS
  0
LAYER
  2
5
 70
     0
 62
     7
  6
CONTINUOUS
  0
LAYER
  2
6
 70
     0
 62
     7
  6
CONTINUOUS
  0
LAYER
  2
7
 70
     0
 62
     7
  6
CONTINUOUS
  0
LAYER
  2
8
 70
     0
 62
     7
  6
CONTINUOUS
  0
LAYER
  2
9
 70
     0
 62
     7
  6
CONTINUOUS
  0
LAYER
  2
10
 70
     0
 62
     7
  6
CONTINUOUS
  0
LAYER
  2
11
 70
     0
 62
     7
  6
CONTINUOUS
  0
LAYER
  2
12
 70
     0
 62
     7
  6
CONTINUOUS
  0
LAYER
  2
13
 70
     0
 62
     7
  6
CONTINUOUS
  0
LAYER
  2
14
 70
     0
 62
     7
  6
CONTINUOUS
  0
LAYER
  2
15
 70
     0
 62
     7
  6
CONTINUOUS
  0
LAYER
  2
16
 70
     0
 62
     7
  6
CONTINUOUS
  0
LAYER
  2
17
 70
     0
 62
     7
  6
CONTINUOUS
  0
LAYER
  2
18
 70
     0
 62
     7
  6
CONTINUOUS
  0
LAYER
  2
19
 70
     0
 62
     7
  6
CONTINUOUS
  0
LAYER
  2
20
 70
     0
 62
     7
  6
CONTINUOUS
  0
LAYER
  2
21
 70
     0
 62
     7
  6
CONTINUOUS
  0
LAYER
  2
22
 70
     0
 62
     7
  6
CONTINUOUS
  0
LAYER
  2
23
 70
     0
 62
     7
  6
CONTINUOUS
  0
LAYER
  2
24
 70
     0
 62
     7
  6
CONTINUOUS
  0
LAYER
  2
25
 70
     0
 62
     7
  6
CONTINUOUS
  0
LAYER
  2
26
 70
     0
 62
     7
  6
CONTINUOUS
  0
LAYER
  2
27
 70
     0
 62
     7
  6
CONTINUOUS
  0
LAYER
  2
28
 70
     0
 62
     7
  6
CONTINUOUS
  0
LAYER
  2
29
 70
     0
 62
     7
  6
CONTINUOUS
  0
LAYER
  2
30
 70
     0
 62
     7
  6
CONTINUOUS
  0
LAYER
  2
31
 70
     0
 62
     7
  6
CONTINUOUS
  0
LAYER
  2
32
 70
     0
 62
     7
  6
CONTINUOUS
  0
LAYER
  2
33
 70
     0
 62
     7
  6
CONTINUOUS
  0
LAYER
  2
34
 70
     0
 62
     7
  6
CONTINUOUS
  0
LAYER
  2
35
 70
     0
 62
     7
  6
CONTINUOUS
  0
LAYER
  2
36
 70
     0
 62
     7
  6
CONTINUOUS
  0
LAYER
  2
37
 70
     0
 62
     7
  6
CONTINUOUS
  0
LAYER
  2
38
 70
     0
 62
     7
  6
CONTINUOUS
  0
LAYER
  2
39
 70
     0
 62
     7
  6
CONTINUOUS
  0
LAYER
  2
40
 70
     0
 62
     7
  6
CONTINUOUS
  0
LAYER
  2
41
 70
     0
 62
     7
  6
CONTINUOUS
  0
LAYER
  2
42
 70
     0
 62
     7
  6
CONTINUOUS
  0
LAYER
  2
43
 70
     0
 62
     7
  6
CONTINUOUS
  0
LAYER
  2
44
 70
     0
 62
     7
  6
CONTINUOUS
  0
LAYER
  2
45
 70
     0
 62
     7
  6
CONTINUOUS
  0
LAYER
  2
46
 70
     0
 62
     7
  6
CONTINUOUS
  0
LAYER
  2
47
 70
     0
 62
     7
  6
CONTINUOUS
  0
LAYER
  2
48
 70
     0
 62
     7
  6
CONTINUOUS
  0
LAYER
  2
49
 70
     0
 62
     7
  6
CONTINUOUS
  0
LAYER
  2
50
 70
     0
 62
     7
  6
CONTINUOUS
  0
LAYER
  2
51
 70
     0
 62
     7
  6
CONTINUOUS
  0
LAYER
  2
52
 70
     0
 62
     7
  6
CONTINUOUS
  0
LAYER
  2
53
 70
     0
 62
     7
  6
CONTINUOUS
  0
LAYER
  2
54
 70
     0
 62
     7
  6
CONTINUOUS
  0
LAYER
  2
55
 70
     0
 62
     7
  6
CONTINUOUS
  0
LAYER
  2
56
 70
     0
 62
     7
  6
CONTINUOUS
  0
LAYER
  2
57
 70
     0
 62
     7
  6
CONTINUOUS
  0
LAYER
  2
58
 70
     0
 62
     7
  6
CONTINUOUS
  0
LAYER
  2
59
 70
     0
 62
     7
  6
CONTINUOUS
  0
LAYER
  2
60
 70
     0
 62
     7
  6
CONTINUOUS
  0
LAYER
  2
61
 70
     0
 62
     7
  6
CONTINUOUS
  0
LAYER
  2
62
 70
     0
 62
     7
  6
CONTINUOUS
  0
LAYER
  2
63
 70
     0
 62
     7
  6
CONTINUOUS
  0
LAYER
  2
64
 70
     0
 62
     7
  6
CONTINUOUS
  0
LAYER
  2
65
 70
     0
 62
     7
  6
CONTINUOUS
  0
LAYER
  2
66
 70
     0
 62
     7
  6
CONTINUOUS
  0
LAYER
  2
67
 70
     0
 62
     7
  6
CONTINUOUS
  0
LAYER
  2
68
 70
     0
 62
     7
  6
CONTINUOUS
  0
LAYER
  2
69
 70
     0
 62
     7
  6
CONTINUOUS
  0
LAYER
  2
70
 70
     0
 62
     7
  6
CONTINUOUS
  0
LAYER
  2
71
 70
     0
 62
     7
  6
CONTINUOUS
  0
LAYER
  2
72
 70
     0
 62
     7
  6
CONTINUOUS
  0
LAYER
  2
73
 70
     0
 62
     7
  6
CONTINUOUS
  0
LAYER
  2
74
 70
     0
 62
     7
  6
CONTINUOUS
  0
LAYER
  2
75
 70
     0
 62
     7
  6
CONTINUOUS
  0
LAYER
  2
76
 70
     0
 62
     7
  6
CONTINUOUS
  0
LAYER
  2
77
 70
     0
 62
     7
  6
CONTINUOUS
  0
LAYER
  2
78
 70
     0
 62
     7
  6
CONTINUOUS
  0
LAYER
  2
79
 70
     0
 62
     7
  6
CONTINUOUS
  0
LAYER
  2
80
 70
     0
 62
     7
  6
CONTINUOUS
  0
LAYER
  2
81
 70
     0
 62
     7
  6
CONTINUOUS
  0
LAYER
  2
82
 70
     0
 62
     7
  6
CONTINUOUS
  0
LAYER
  2
83
 70
     0
 62
     7
  6
CONTINUOUS
  0
LAYER
  2
84
 70
     0
 62
     7
  6
CONTINUOUS
  0
LAYER
  2
85
 70
     0
 62
     7
  6
CONTINUOUS
  0
LAYER
  2
86
 70
     0
 62
     7
  6
CONTINUOUS
  0
LAYER
  2
87
 70
     0
 62
     7
  6
CONTINUOUS
  0
LAYER
  2
88
 70
     0
 62
     7
  6
CONTINUOUS
  0
LAYER
  2
89
 70
     0
 62
     7
  6
CONTINUOUS
  0
LAYER
  2
90
 70
     0
 62
     7
  6
CONTINUOUS
  0
LAYER
  2
91
 70
     0
 62
     7
  6
CONTINUOUS
  0
LAYER
  2
92
 70
     0
 62
     7
  6
CONTINUOUS
  0
LAYER
  2
93
 70
     0
 62
     7
  6
CONTINUOUS
  0
LAYER
  2
94
 70
     0
 62
     7
  6
CONTINUOUS
  0
LAYER
  2
95
 70
     0
 62
     7
  6
CONTINUOUS
  0
LAYER
  2
96
 70
     0
 62
     7
  6
CONTINUOUS
  0
LAYER
  2
97
 70
     0
 62
     7
  6
CONTINUOUS
  0
LAYER
  2
98
 70
     0
 62
     7
  6
CONTINUOUS
  0
LAYER
  2
99
 70
     0
 62
     7
  6
CONTINUOUS
  0
LAYER
  2
100
 70
     0
 62
     7
  6
CONTINUOUS
  0
LAYER
  2
101
 70
     0
 62
     7
  6
CONTINUOUS
  0
LAYER
  2
102
 70
     0
 62
     7
  6
CONTINUOUS
  0
LAYER
  2
103
 70
     0
 62
     7
  6
CONTINUOUS
  0
LAYER
  2
104
 70
     0
 62
     7
  6
CONTINUOUS
  0
LAYER
  2
105
 70
     0
 62
     7
  6
CONTINUOUS
  0
LAYER
  2
106
 70
     0
 62
     7
  6
CONTINUOUS
  0
LAYER
  2
107
 70
     0
 62
     7
  6
CONTINUOUS
  0
LAYER
  2
108
 70
     0
 62
     7
  6
CONTINUOUS
  0
LAYER
  2
109
 70
     0
 62
     7
  6
CONTINUOUS
  0
LAYER
  2
110
 70
     0
 62
     7
  6
CONTINUOUS
  0
LAYER
  2
111
 70
     0
 62
     7
  6
CONTINUOUS
  0
LAYER
  2
112
 70
     0
 62
     7
  6
CONTINUOUS
  0
LAYER
  2
113
 70
     0
 62
     7
  6
CONTINUOUS
  0
LAYER
  2
114
 70
     0
 62
     7
  6
CONTINUOUS
  0
LAYER
  2
115
 70
     0
 62
     7
  6
CONTINUOUS
  0
LAYER
  2
116
 70
     0
 62
     7
  6
CONTINUOUS
  0
LAYER
  2
117
 70
     0
 62
     7
  6
CONTINUOUS
  0
LAYER
  2
118
 70
     0
 62
     7
  6
CONTINUOUS
  0
LAYER
  2
119
 70
     0
 62
     7
  6
CONTINUOUS
  0
LAYER
  2
120
 70
     0
 62
     7
  6
CONTINUOUS
  0
LAYER
  2
121
 70
     0
 62
     7
  6
CONTINUOUS
  0
LAYER
  2
122
 70
     0
 62
     7
  6
CONTINUOUS
  0
LAYER
  2
123
 70
     0
 62
     7
  6
CONTINUOUS
  0
LAYER
  2
124
 70
     0
 62
     7
  6
CONTINUOUS
  0
LAYER
  2
125
 70
     0
 62
     7
  6
CONTINUOUS
  0
LAYER
  2
126
 70
     0
 62
     7
  6
CONTINUOUS
  0
LAYER
  2
127
 70
     0
 62
     7
  6
CONTINUOUS
  0
LAYER
  2
128
 70
     0
 62
     7
  6
CONTINUOUS
  0
ENDTAB
  0
TABLE
  2
STYLE
 70
    78
  0
STYLE
  2
STANDARD
 70
     0
 40
0.0
 41
1.0
 50
0.0
 71
     0
 42
0.2
  3
txt.shx
  4
extfont.shx
  0
STYLE
  2
KANJI0
 70
     0
 40
15.5999988
 41
0.75
 50
0.0
 71
     0
 42
15.5999988
  3
txt.shx
  4
extfont.shx
  0
STYLE
  2
KANJI1
 70
     0
 40
11.999997477
 41
0.6
 50
0.0
 71
     0
 42
11.999997477
  3
txt.shx
  4
extfont.shx
  0
STYLE
  2
KANJI2
 70
     0
 40
14.399996972
 41
0.9
 50
0.0
 71
     0
 42
14.399996972
  3
txt.shx
  4
extfont.shx
  0
STYLE
  2
KANJI3
 70
     0
 40
17.999996215
 41
0.9
 50
0.0
 71
     0
 42
17.999996215
  3
txt.shx
  4
extfont.shx
  0
STYLE
  2
KANJI4
 70
     0
 40
10.3999992
 41
0.6
 50
0.0
 71
     0
 42
10.3999992
  3
txt.shx
  4
extfont.shx
  0
STYLE
  2
KANJI5
 70
     0
 40
12.47999904
 41
0.6
 50
0.0
 71
     0
 42
12.47999904
  3
txt.shx
  4
extfont.shx
  0
STYLE
  2
KANJI6
 70
     0
 40
18.1999986
 41
0.42031746
 50
0.0
 71
     0
 42
18.1999986
  3
txt.shx
  4
extfont.shx
  0
STYLE
  2
KANJI7
 70
     0
 40
31.1999976
 41
0.9
 50
0.0
 71
     0
 42
31.1999976
  3
txt.shx
  4
extfont.shx
  0
STYLE
  2
KANJI8
 70
     0
 40
21.6
 41
1.111111111
 50
0.0
 71
     0
 42
21.6
  3
txt.shx
  4
extfont.shx
  0
STYLE
  2
KANJI9
 70
     0
 40
10.3999992
 41
0.8
 50
0.0
 71
     0
 42
10.3999992
  3
txt.shx
  4
extfont.shx
  0
STYLE
  2
KANJI10
 70
     0
 40
12.47999904
 41
0.8
 50
0.0
 71
     0
 42
12.47999904
  3
txt.shx
  4
extfont.shx
  0
STYLE
  2
KANJI11
 70
     0
 40
30.0
 41
1.0
 50
0.0
 71
     0
 42
30.0
  3
txt.shx
  4
extfont.shx
  0
STYLE
  2
KANJI12
 70
     0
 40
30.0
 41
1.0
 50
0.0
 71
     0
 42
30.0
  3
txt.shx
  4
extfont.shx
  0
STYLE
  2
KANJI13
 70
     0
 40
30.0
 41
0.8
 50
0.0
 71
     0
 42
30.0
  3
txt.shx
  4
extfont.shx
  0
STYLE
  2
KANJI14
 70
     0
 40
24.0
 41
1.0
 50
0.0
 71
     0
 42
24.0
  3
txt.shx
  4
extfont.shx
  0
STYLE
  2
KANJI15
 70
     0
 40
21.0
 41
0.857142857
 50
0.0
 71
     0
 42
21.0
  3
txt.shx
  4
extfont.shx
  0
STYLE
  2
KANJI16
 70
     0
 40
27.0
 41
0.666666667
 50
0.0
 71
     0
 42
27.0
  3
txt.shx
  4
extfont.shx
  0
STYLE
  2
KANJI17
 70
     0
 40
18.0
 41
0.9
 50
0.0
 71
     0
 42
18.0
  3
txt.shx
  4
extfont.shx
  0
STYLE
  2
KANJI18
 70
     0
 40
18.0
 41
0.833333333
 50
0.0
 71
     0
 42
18.0
  3
txt.shx
  4
extfont.shx
  0
STYLE
  2
KANJI19
 70
     0
 40
13.86
 41
0.9
 50
0.0
 71
     0
 42
13.86
  3
txt.shx
  4
extfont.shx
  0
STYLE
  2
KANJI20
 70
     0
 40
21.0
 41
0.793650794
 50
0.0
 71
     0
 42
21.0
  3
txt.shx
  4
extfont.shx
  0
STYLE
  2
KANJI21
 70
     0
 40
30.0
 41
0.8
 50
0.0
 71
     0
 42
30.0
  3
txt.shx
  4
extfont.shx
  0
STYLE
  2
KANJI22
 70
     0
 40
18.0
 41
0.9
 50
0.0
 71
     0
 42
18.0
  3
txt.shx
  4
extfont.shx
  0
STYLE
  2
KANJI23
 70
     0
 40
13.182
 41
0.85
 50
0.0
 71
     0
 42
13.182
  3
txt.shx
  4
extfont.shx
  0
STYLE
  2
KANJI24
 70
     0
 40
11.661
 41
0.822608696
 50
0.0
 71
     0
 42
11.661
  3
txt.shx
  4
extfont.shx
  0
STYLE
  2
KANJI25
 70
     0
 40
11.8638
 41
0.726495726
 50
0.0
 71
     0
 42
11.8638
  3
txt.shx
  4
extfont.shx
  0
STYLE
  2
KANJI26
 70
     4
 40
45.0
 41
0.538166667
 50
0.0
 71
     0
 42
45.0
  3
txt.shx
  4
extfont.shx
  0
STYLE
  2
KANJI27
 70
     0
 40
17.740702234
 41
0.880962996
 50
0.0
 71
     0
 42
17.740702234
  3
txt.shx
  4
extfont.shx
  0
STYLE
  2
KANJI28
 70
     0
 40
11.7
 41
0.8
 50
0.0
 71
     0
 42
11.7
  3
txt.shx
  4
extfont.shx
  0
STYLE
  2
KANJI29
 70
     0
 40
15.0
 41
0.911
 50
0.0
 71
     0
 42
15.0
  3
txt.shx
  4
extfont.shx
  0
STYLE
  2
KANJI30
 70
     0
 40
10.933904043
 41
0.9
 50
0.0
 71
     0
 42
10.933904043
  3
txt.shx
  4
extfont.shx
  0
STYLE
  2
KANJI31
 70
     0
 40
15.185977837
 41
0.66671875
 50
0.0
 71
     0
 42
15.185977837
  3
txt.shx
  4
extfont.shx
  0
STYLE
  2
KANJI32
 70
     0
 40
18.223173404
 41
0.9
 50
0.0
 71
     0
 42
18.223173404
  3
txt.shx
  4
extfont.shx
  0
STYLE
  2
KANJI33
 70
     0
 40
14.578538724
 41
0.9
 50
0.0
 71
     0
 42
14.578538724
  3
txt.shx
  4
extfont.shx
  0
STYLE
  2
KANJI34
 70
     0
 40
15.6
 41
0.925
 50
0.0
 71
     0
 42
15.6
  3
txt.shx
  4
extfont.shx
  0
STYLE
  2
KANJI35
 70
     0
 40
20.0
 41
0.925
 50
0.0
 71
     0
 42
20.0
  3
txt.shx
  4
extfont.shx
  0
STYLE
  2
KANJI36
 70
     0
 40
20.0
 41
0.925
 50
0.0
 71
     0
 42
20.0
  3
txt.shx
  4
extfont.shx
  0
STYLE
  2
KANJI37
 70
     0
 40
15.0
 41
0.9
 50
0.0
 71
     0
 42
15.0
  3
txt.shx
  4
extfont.shx
  0
STYLE
  2
KANJI38
 70
     0
 40
24.0
 41
0.9
 50
0.0
 71
     0
 42
24.0
  3
txt.shx
  4
extfont.shx
  0
STYLE
  2
KANJI39
 70
     0
 40
21.6
 41
0.857142857
 50
0.0
 71
     0
 42
21.6
  3
txt.shx
  4
extfont.shx
  0
STYLE
  2
KANJI40
 70
     0
 40
21.6
 41
0.857222222
 50
0.0
 71
     0
 42
21.6
  3
txt.shx
  4
extfont.shx
  0
STYLE
  2
KANJI41
 70
     0
 40
16.17
 41
0.9
 50
0.0
 71
     0
 42
16.17
  3
txt.shx
  4
extfont.shx
  0
STYLE
  2
KANJI42
 70
     0
 40
15.0
 41
0.9
 50
0.0
 71
     0
 42
15.0
  3
txt.shx
  4
extfont.shx
  0
STYLE
  2
KANJI43
 70
     0
 40
15.36
 41
0.9
 50
0.0
 71
     0
 42
15.36
  3
txt.shx
  4
extfont.shx
  0
STYLE
  2
KANJI44
 70
     0
 40
14.4
 41
0.9
 50
0.0
 71
     0
 42
14.4
  3
txt.shx
  4
extfont.shx
  0
STYLE
  2
KANJI45
 70
     0
 40
14.4
 41
0.9
 50
0.0
 71
     0
 42
14.4
  3
txt.shx
  4
extfont.shx
  0
STYLE
  2
KANJI46
 70
     0
 40
16.8
 41
0.9
 50
0.0
 71
     0
 42
16.8
  3
txt.shx
  4
extfont.shx
  0
STYLE
  2
KANJI47
 70
     0
 40
12.96
 41
0.740740741
 50
0.0
 71
     0
 42
12.96
  3
txt.shx
  4
extfont.shx
  0
STYLE
  2
KANJI48
 70
     0
 40
16.8
 41
0.857142857
 50
0.0
 71
     0
 42
16.8
  3
txt.shx
  4
extfont.shx
  0
STYLE
  2
KANJI49
 70
     0
 40
14.4
 41
0.833333333
 50
0.0
 71
     0
 42
14.4
  3
txt.shx
  4
extfont.shx
  0
STYLE
  2
KANJI50
 70
     0
 40
21.0
 41
0.571428571
 50
0.0
 71
     0
 42
21.0
  3
txt.shx
  4
extfont.shx
  0
STYLE
  2
KANJI51
 70
     0
 40
22.8
 41
0.9
 50
0.0
 71
     0
 42
22.8
  3
txt.shx
  4
extfont.shx
  0
STYLE
  2
KANJI52
 70
     0
 40
22.8
 41
0.9
 50
0.0
 71
     0
 42
22.8
  3
txt.shx
  4
extfont.shx
  0
STYLE
  2
KANJI53
 70
     0
 40
27.0
 41
0.9
 50
0.0
 71
     0
 42
27.0
  3
txt.shx
  4
extfont.shx
  0
STYLE
  2
KANJI54
 70
     0
 40
22.8
 41
0.9
 50
0.0
 71
     0
 42
22.8
  3
txt.shx
  4
extfont.shx
  0
STYLE
  2
KANJI55
 70
     0
 40
22.8
 41
0.9
 50
0.0
 71
     0
 42
22.8
  3
txt.shx
  4
extfont.shx
  0
STYLE
  2
KANJI56
 70
     0
 40
22.8
 41
0.9
 50
0.0
 71
     0
 42
22.8
  3
txt.shx
  4
extfont.shx
  0
STYLE
  2
KANJI57
 70
     0
 40
22.8
 41
0.9
 50
0.0
 71
     0
 42
22.8
  3
txt.shx
  4
extfont.shx
  0
STYLE
  2
KANJI58
 70
     0
 40
22.8
 41
0.9
 50
0.0
 71
     0
 42
22.8
  3
txt.shx
  4
extfont.shx
  0
STYLE
  2
KANJI59
 70
     0
 40
22.8
 41
0.9
 50
0.0
 71
     0
 42
22.8
  3
txt.shx
  4
extfont.shx
  0
STYLE
  2
KANJI60
 70
     4
 40
21.0
 41
0.9
 50
0.0
 71
     0
 42
21.0
  3
txt.shx
  4
extfont.shx
  0
STYLE
  2
KANJI61
 70
     4
 40
21.0
 41
0.9
 50
0.0
 71
     0
 42
21.0
  3
txt.shx
  4
extfont.shx
  0
STYLE
  2
KANJI62
 70
     0
 40
21.0
 41
0.9
 50
0.0
 71
     0
 42
21.0
  3
txt.shx
  4
extfont.shx
  0
STYLE
  2
KANJI63
 70
     0
 40
18.0
 41
0.9
 50
0.0
 71
     0
 42
18.0
  3
txt.shx
  4
extfont.shx
  0
STYLE
  2
KANJI64
 70
     0
 40
21.0
 41
0.9
 50
0.0
 71
     0
 42
21.0
  3
txt.shx
  4
extfont.shx
  0
STYLE
  2
KANJI65
 70
     0
 40
22.8
 41
0.9
 50
0.0
 71
     0
 42
22.8
  3
txt.shx
  4
extfont.shx
  0
STYLE
  2
KANJI66
 70
     0
 40
22.8
 41
0.9
 50
0.0
 71
     0
 42
22.8
  3
txt.shx
  4
extfont.shx
  0
STYLE
  2
KANJI67
 70
     0
 40
21.0
 41
0.628571429
 50
0.0
 71
     0
 42
21.0
  3
txt.shx
  4
extfont.shx
  0
STYLE
  2
KANJI68
 70
     0
 40
20.4
 41
0.705882353
 50
0.0
 71
     0
 42
20.4
  3
txt.shx
  4
extfont.shx
  0
STYLE
  2
KANJI69
 70
     0
 40
18.0
 41
0.8
 50
0.0
 71
     0
 42
18.0
  3
txt.shx
  4
extfont.shx
  0
STYLE
  2
KANJI70
 70
     0
 40
19.2
 41
0.71875
 50
0.0
 71
     0
 42
19.2
  3
txt.shx
  4
extfont.shx
  0
STYLE
  2
KANJI71
 70
     0
 40
19.2
 41
0.8
 50
0.0
 71
     0
 42
19.2
  3
txt.shx
  4
extfont.shx
  0
STYLE
  2
KANJI72
 70
     0
 40
21.0
 41
0.571428571
 50
0.0
 71
     0
 42
21.0
  3
txt.shx
  4
extfont.shx
  0
STYLE
  2
KANJI73
 70
     0
 40
18.0
 41
0.833333333
 50
0.0
 71
     0
 42
18.0
  3
txt.shx
  4
extfont.shx
  0
STYLE
  2
KANJI74
 70
     0
 40
21.0
 41
0.9
 50
0.0
 71
     0
 42
21.0
  3
txt.shx
  4
extfont.shx
  0
STYLE
  2
KANJI75
 70
     0
 40
21.0
 41
0.857142857
 50
0.0
 71
     0
 42
21.0
  3
txt.shx
  4
extfont.shx
  0
STYLE
  2
KANJI76
 70
     0
 40
18.0
 41
0.833333333
 50
0.0
 71
     0
 42
18.0
  3
txt.shx
  4
extfont.shx
  0
ENDTAB
  0
TABLE
  2
VIEW
 70
     0
  0
ENDTAB
  0
ENDSEC
  0
SECTION
  2
BLOCKS
  0
ENDSEC
  0
SECTION
  2
ENTITIES
  0
POLYLINE
  8
0
  6
CONTINUOUS
 62
     6
 66
     1
  0
VERTEX
  8
0
  6
CONTINUOUS
 62
     6
 10
82.92
 20
71.7
 30
0.0
  0
VERTEX
  8
0
  6
CONTINUOUS
 62
     6
 10
82.92
 20
1685.7
 30
0.0
  0
VERTEX
  8
0
  6
CONTINUOUS
 62
     6
 10
2404.92
 20
1685.7
 30
0.0
  0
SEQEND
  0
LINE
  8
0
  6
CONTINUOUS
 62
     6
 10
88.919998738
 20
161.699981077
 30
0.0
 11
478.919916738
 21
161.699981077
 31
0.0
  0
LINE
  8
0
  6
CONTINUOUS
 62
     6
 10
88.919998738
 20
77.699998738
 30
0.0
 11
478.919916738
 21
77.699998738
 31
0.0
  0
LINE
  8
0
  6
CONTINUOUS
 62
     6
 10
88.919998738
 20
77.699998738
 30
0.0
 11
88.919998738
 21
161.699981077
 31
0.0
  0
LINE
  8
0
  6
CONTINUOUS
 62
     6
 10
88.919998738
 20
119.699989908
 30
0.0
 11
478.919916738
 21
119.699989908
 31
0.0
  0
LINE
  8
0
  6
CONTINUOUS
 62
     4
 10
14.6199996
 20
76.8999996
 30
0.0
 11
77.0199948
 21
76.8999996
 31
0.0
  0
LINE
  8
0
  6
CONTINUOUS
 62
     4
 10
14.6199996
 20
108.0999972
 30
0.0
 11
77.0199948
 21
108.0999972
 31
0.0
  0
LINE
  8
0
  6
CONTINUOUS
 62
     4
 10
14.6199996
 20
139.2999948
 30
0.0
 11
77.0199948
 21
139.2999948
 31
0.0
  0
LINE
  8
0
  6
CONTINUOUS
 62
     4
 10
14.6199996
 20
170.4999924
 30
0.0
 11
77.0199948
 21
170.4999924
 31
0.0
  0
LINE
  8
0
  6
CONTINUOUS
 62
     4
 10
14.6199996
 20
201.69999
 30
0.0
 11
77.0199948
 21
201.69999
 31
0.0
  0
LINE
  8
0
  6
CONTINUOUS
 62
     4
 10
14.6199996
 20
232.8999876
 30
0.0
 11
77.0199948
 21
232.8999876
 31
0.0
  0
LINE
  8
0
  6
CONTINUOUS
 62
     4
 10
14.6199996
 20
264.0999852
 30
0.0
 11
77.0199948
 21
264.0999852
 31
0.0
  0
LINE
  8
0
  6
CONTINUOUS
 62
     4
 10
14.6199996
 20
295.2999828
 30
0.0
 11
77.0199948
 21
295.2999828
 31
0.0
  0
LINE
  8
0
  6
CONTINUOUS
 62
     4
 10
14.6199996
 20
326.4999804
 30
0.0
 11
77.0199948
 21
326.4999804
 31
0.0
  0
LINE
  8
0
  6
CONTINUOUS
 62
     4
 10
14.6199996
 20
357.699978
 30
0.0
 11
77.0199948
 21
357.699978
 31
0.0
  0
LINE
  8
0
  6
CONTINUOUS
 62
     4
 10
77.0199948
 20
76.8999996
 30
0.0
 11
77.0199948
 21
357.699978
 31
0.0
  0
LINE
  8
0
  6
CONTINUOUS
 62
     4
 10
45.8199972
 20
76.8999996
 30
0.0
 11
45.8199972
 21
326.4999804
 31
0.0
  0
TEXT
  8
0
  6
CONTINUOUS
 62
     4
 10
25.27999878
 20
85.9999989
 30
1.55999988
 40
15.5999988
  1
計
 50
0.0
 41
0.75
 51
0.0
  7
KANJI0
  0
TEXT
  8
0
  6
CONTINUOUS
 62
     4
 10
25.27999878
 20
148.91999406
 30
1.55999988
 40
15.5999988
  1
設
 50
0.0
 41
0.75
 51
0.0
  7
KANJI0
  0
TEXT
  8
0
  6
CONTINUOUS
 62
     4
 10
25.27999878
 20
179.5999917
 30
1.55999988
 40
15.5999988
  1
管
 50
0.0
 41
0.75
 51
0.0
  7
KANJI0
  0
TEXT
  8
0
  6
CONTINUOUS
 62
     4
 10
25.27999878
 20
210.7999893
 30
1.55999988
 40
15.5999988
  1
製
 50
0.0
 41
0.75
 51
0.0
  7
KANJI0
  0
TEXT
  8
0
  6
CONTINUOUS
 62
     4
 10
25.27999878
 20
241.9999869
 30
1.55999988
 40
15.5999988
  1
資
 50
0.0
 41
0.75
 51
0.0
  7
KANJI0
  0
TEXT
  8
0
  6
CONTINUOUS
 62
     4
 10
25.27999878
 20
273.1999845
 30
1.55999988
 40
15.5999988
  1
営
 50
0.0
 41
0.75
 51
0.0
  7
KANJI0
  0
TEXT
  8
0
  6
CONTINUOUS
 62
     4
 10
25.27999878
 20
304.3999821
 30
1.55999988
 40
15.5999988
  1
客
 50
0.0
 41
0.75
 51
0.0
  7
KANJI0
  0
TEXT
  8
0
  6
CONTINUOUS
 62
     4
 10
25.0199988
 20
336.8999796
 30
1.55999988
 40
15.5999988
  1
出　図
 50
0.0
 41
0.75
 51
0.0
  7
KANJI0
  0
LINE
  8
0
  6
CONTINUOUS
 62
     4
 10
14.6199996
 20
76.8999996
 30
0.0
 11
14.6199996
 21
357.699978
 31
0.0
  0
LINE
  8
0
  6
CONTINUOUS
 62
     6
 10
2404.92
 20
71.7
 30
0.0
 11
82.92
 21
71.7
 31
0.0
  0
TEXT
  8
0
  6
CONTINUOUS
 62
     4
 10
100.919996215
 20
101.699993692
 30
1.199999748
 40
11.999997477
  1
ＰＡＲＴＳ　ＬＩＳＴ
 50
0.0
 41
0.6
 51
0.0
  7
KANJI1
  0
TEXT
  8
0
  6
CONTINUOUS
 62
     4
 10
100.919996215
 20
83.699997477
 30
1.439999697
 40
14.399996972
  1
部品表
 50
0.0
 41
0.9
 51
0.0
  7
KANJI2
  0
TEXT
  8
0
  6
CONTINUOUS
 62
     3
 10
100.919996215
 20
131.699987385
 30
1.799999622
 40
17.999996215
  1
ＰＬ
 50
0.0
 41
0.9
 51
0.0
  7
KANJI3
  0
TEXT
  8
0
  6
CONTINUOUS
 62
     4
 10
370.919939446
 20
101.699993692
 30
1.199999748
 40
11.999997477
  1
Ｎ０．
 50
0.0
 41
0.6
 51
0.0
  7
KANJI1
  0
TEXT
  8
0
  6
CONTINUOUS
 62
     4
 10
370.919939446
 20
83.699997477
 30
1.439999697
 40
14.399996972
  1
項番
 50
0.0
 41
0.9
 51
0.0
  7
KANJI2
  0
LINE
  8
0
  6
CONTINUOUS
 62
     6
 10
478.919916738
 20
77.699998738
 30
0.0
 11
478.919916738
 21
161.699981077
 31
0.0
  0
LINE
  8
0
  6
CONTINUOUS
 62
     6
 10
358.919941969
 20
77.699998738
 30
0.0
 11
358.919941969
 21
161.699981077
 31
0.0
  0
LINE
  8
0
  6
CONTINUOUS
 62
     6
 10
2404.92
 20
1685.7
 30
0.0
 11
2404.92
 21
71.7
 31
0.0
  0
LINE
  8
0
  6
CONTINUOUS
 62
     6
 10
1598.920062
 20
76.8999996
 30
0.0
 11
1598.920062
 21
409.699974
 31
0.0
  0
LINE
  8
0
  6
CONTINUOUS
 62
     6
 10
2399.7200004
 20
76.8999996
 30
0.0
 11
2399.7200004
 21
409.699974
 31
0.0
  0
LINE
  8
0
  6
CONTINUOUS
 62
     4
 10
1788.7200474
 20
76.8999996
 30
0.0
 11
1788.7200474
 21
409.699974
 31
0.0
  0
LINE
  8
0
  6
CONTINUOUS
 62
     4
 10
1598.920062
 20
118.4999964
 30
0.0
 11
1788.7200474
 21
118.4999964
 31
0.0
  0
TEXT
  8
0
  6
CONTINUOUS
 62
     4
 10
1609.3200612
 20
100.2999978
 30
1.03999992
 40
10.3999992
  1
ＳＣＡＬＥ
 50
0.0
 41
0.6
 51
0.0
  7
KANJI4
  0
TEXT
  8
0
  6
CONTINUOUS
 62
     4
 10
1609.3200612
 20
84.699999
 30
1.247999904
 40
12.47999904
  1
尺度
 50
0.0
 41
0.6
 51
0.0
  7
KANJI5
  0
LINE
  8
0
  6
CONTINUOUS
 62
     6
 10
1188.1200936
 20
118.4999964
 30
0.0
 11
1598.920062
 21
118.4999964
 31
0.0
  0
LINE
  8
0
  6
CONTINUOUS
 62
     6
 10
1188.1200936
 20
76.8999996
 30
0.0
 11
2399.7200004
 21
76.8999996
 31
0.0
  0
TEXT
  8
0
  6
CONTINUOUS
 62
     6
 10
1793.920047
 20
100.2999978
 30
0.0
 40
18.1999986
  1
ＵＮＩＴＥＣ　ＩＮＤＵＳＴＲＹ　ＣＯ．，ＬＴＤ．
 50
0.0
 41
0.42031746
 51
0.0
  7
KANJI6
  0
TEXT
  8
0
  6
CONTINUOUS
 62
     6
 10
2049.175027365
 20
93.53999832
 30
3.11999976
 40
31.1999976
  1
ユニテック工業株式会社
 50
0.0
 41
0.9
 51
0.0
  7
KANJI7
  0
LINE
  8
0
  6
CONTINUOUS
 62
     6
 10
2007.575030565
 20
104.45999748
 30
0.0
 11
1993.847031621
 21
104.45999748
 31
0.0
  0
LINE
  8
0
  6
CONTINUOUS
 62
     6
 10
2007.575030565
 20
106.955997288
 30
0.0
 11
1993.847031621
 21
106.955997288
 31
0.0
  0
LINE
  8
0
  6
CONTINUOUS
 62
     6
 10
2007.575030565
 20
104.45999748
 30
0.0
 11
2021.303029509
 21
104.45999748
 31
0.0
  0
LINE
  8
0
  6
CONTINUOUS
 62
     6
 10
2007.575030565
 20
106.955997288
 30
0.0
 11
2021.303029509
 21
106.955997288
 31
0.0
  0
LINE
  8
0
  6
CONTINUOUS
 62
     6
 10
2021.303029509
 20
106.955997288
 30
0.0
 11
2021.303029509
 21
104.45999748
 31
0.0
  0
ARC
  8
0
  6
CONTINUOUS
 62
     6
 10
2024.423029269
 20
105.707997384
 30
0.0
 40
12.47999904
 50
185.739170477
 51
90.0
  0
ARC
  8
0
  6
CONTINUOUS
 62
     6
 10
2024.423029269
 20
105.707997384
 30
0.0
 40
14.975998848
 50
184.780191847
 51
90.0
  0
LINE
  8
0
  6
CONTINUOUS
 62
     6
 10
1993.847031621
 20
104.45999748
 30
0.0
 11
1993.847031621
 21
106.955997288
 31
0.0
  0
ARC
  8
0
  6
CONTINUOUS
 62
     6
 10
1990.727031861
 20
105.707997384
 30
0.0
 40
12.47999904
 50
90.0
 51
354.260829523
  0
ARC
  8
0
  6
CONTINUOUS
 62
     6
 10
1990.727031861
 20
105.707997384
 30
0.0
 40
14.975998848
 50
90.0
 51
355.219808153
  0
LINE
  8
0
  6
CONTINUOUS
 62
     6
 10
2005.703030709
 20
120.683996232
 30
0.0
 11
2005.703030709
 21
118.187996424
 31
0.0
  0
LINE
  8
0
  6
CONTINUOUS
 62
     6
 10
1990.727031861
 20
118.187996424
 30
0.0
 11
2005.703030709
 21
118.187996424
 31
0.0
  0
LINE
  8
0
  6
CONTINUOUS
 62
     6
 10
2009.447030421
 20
120.683996232
 30
0.0
 11
2009.447030421
 21
118.187996424
 31
0.0
  0
LINE
  8
0
  6
CONTINUOUS
 62
     6
 10
2024.423029269
 20
118.187996424
 30
0.0
 11
2009.447030421
 21
118.187996424
 31
0.0
  0
TEXT
  8
0
  6
CONTINUOUS
 62
     4
 10
1320.7200834
 20
100.2999978
 30
1.03999992
 40
10.3999992
  1
ＢＹ
 50
0.0
 41
0.6
 51
0.0
  7
KANJI4
  0
TEXT
  8
0
  6
CONTINUOUS
 62
     4
 10
1435.1200746
 20
100.2999978
 30
1.03999992
 40
10.3999992
  1
ＤＥＳＣＲＩＰＴＩＯＮ
 50
0.0
 41
0.6
 51
0.0
  7
KANJI4
  0
TEXT
  8
0
  6
CONTINUOUS
 62
     4
 10
1320.7200834
 20
84.699999
 30
1.247999904
 40
12.47999904
  1
担当
 50
0.0
 41
0.6
 51
0.0
  7
KANJI5
  0
TEXT
  8
0
  6
CONTINUOUS
 62
     4
 10
1450.7200734
 20
84.699999
 30
1.247999904
 40
12.47999904
  1
記　　　　事
 50
0.0
 41
0.6
 51
0.0
  7
KANJI5
  0
LINE
  8
0
  6
CONTINUOUS
 62
     4
 10
1210.2200919
 20
110.699997
 30
0.0
 11
1193.3200932
 21
84.699999
 31
0.0
  0
TEXT
  8
0
  6
CONTINUOUS
 62
     4
 10
1253.1200886
 20
100.2999978
 30
1.03999992
 40
10.3999992
  1
ＤＡＴＥ
 50
0.0
 41
0.6
 51
0.0
  7
KANJI4
  0
TEXT
  8
0
  6
CONTINUOUS
 62
     4
 10
1260.920088
 20
84.699999
 30
1.247999904
 40
12.47999904
  1
日付
 50
0.0
 41
0.6
 51
0.0
  7
KANJI5
  0
LINE
  8
0
  6
CONTINUOUS
 62
     4
 10
1193.3200932
 20
84.699999
 30
0.0
 11
1227.1200906
 21
84.699999
 31
0.0
  0
LINE
  8
0
  6
CONTINUOUS
 62
     4
 10
1210.2200919
 20
110.699997
 30
0.0
 11
1227.1200906
 21
84.699999
 31
0.0
  0
LINE
  8
0
  6
CONTINUOUS
 62
     6
 10
1188.1200936
 20
76.8999996
 30
0.0
 11
1188.1200936
 21
118.4999964
 31
0.0
  0
LINE
  8
0
  6
CONTINUOUS
 62
     4
 10
1232.3200902
 20
76.8999996
 30
0.0
 11
1232.3200902
 21
118.4999964
 31
0.0
  0
LINE
  8
0
  6
CONTINUOUS
 62
     4
 10
1305.1200846
 20
76.8999996
 30
0.0
 11
1305.1200846
 21
118.4999964
 31
0.0
  0
LINE
  8
0
  6
CONTINUOUS
 62
     4
 10
1351.920081
 20
76.8999996
 30
0.0
 11
1351.920081
 21
118.4999964
 31
0.0
  0
TEXT
  8
0
  6
CONTINUOUS
 62
     4
 10
1609.3200612
 20
308.2999818
 30
1.03999992
 40
10.3999992
  1
ＣＯＤＥ
 50
0.0
 41
0.6
 51
0.0
  7
KANJI4
  0
LINE
  8
0
  6
CONTINUOUS
 62
     4
 10
1598.920062
 20
326.4999804
 30
0.0
 11
2399.7200004
 21
326.4999804
 31
0.0
  0
TEXT
  8
0
  6
CONTINUOUS
 62
     4
 10
1609.3200612
 20
292.699983
 30
1.247999904
 40
12.47999904
  1
分類
 50
0.0
 41
0.6
 51
0.0
  7
KANJI5
  0
TEXT
  8
0
  6
CONTINUOUS
 62
     4
 10
1617.42
 20
332.7
 30
6.0
 40
21.6
  1
ご注文主
 50
0.0
 41
1.111111111
 51
0.0
  7
KANJI8
  0
TEXT
  8
0
  6
CONTINUOUS
 62
     4
 10
1609.3200612
 20
183.4999914
 30
1.03999992
 40
10.3999992
  1
ＤＲＡＷＮ
 50
0.0
 41
0.6
 51
0.0
  7
KANJI4
  0
TEXT
  8
0
  6
CONTINUOUS
 62
     4
 10
1609.3200612
 20
225.0999882
 30
1.03999992
 40
10.3999992
  1
ＤＥＳＩＧＮ
 50
0.0
 41
0.6
 51
0.0
  7
KANJI4
  0
TEXT
  8
0
  6
CONTINUOUS
 62
     4
 10
1609.3200612
 20
266.699985
 30
1.03999992
 40
10.3999992
  1
ＣＨＥＣＫ
 50
0.0
 41
0.6
 51
0.0
  7
KANJI4
  0
LINE
  8
0
  6
CONTINUOUS
 62
     4
 10
1598.920062
 20
243.2999868
 30
0.0
 11
1788.7200474
 21
243.2999868
 31
0.0
  0
LINE
  8
0
  6
CONTINUOUS
 62
     4
 10
1598.920062
 20
201.69999
 30
0.0
 11
1788.7200474
 21
201.69999
 31
0.0
  0
LINE
  8
0
  6
CONTINUOUS
 62
     4
 10
1598.920062
 20
284.8999836
 30
0.0
 11
1788.7200474
 21
284.8999836
 31
0.0
  0
TEXT
  8
0
  6
CONTINUOUS
 62
     4
 10
1609.3200612
 20
209.4999894
 30
1.247999904
 40
12.47999904
  1
設計
 50
0.0
 41
0.6
 51
0.0
  7
KANJI5
  0
TEXT
  8
0
  6
CONTINUOUS
 62
     4
 10
1609.3200612
 20
251.0999862
 30
1.247999904
 40
12.47999904
  1
検図
 50
0.0
 41
0.6
 51
0.0
  7
KANJI5
  0
LINE
  8
0
  6
CONTINUOUS
 62
     4
 10
1804.06004622
 20
284.8999836
 30
0.0
 11
2399.7200004
 21
284.8999836
 31
0.0
  0
LINE
  8
0
  6
CONTINUOUS
 62
     4
 10
1788.7200474
 20
201.69999
 30
0.0
 11
2399.7200004
 21
201.69999
 31
0.0
  0
TEXT
  8
0
  6
CONTINUOUS
 62
     4
 10
1799.1200466
 20
183.4999914
 30
1.03999992
 40
10.3999992
  1
ＤＲＡＷＩＮＧ　ＮＯ．
 50
0.0
 41
0.8
 51
0.0
  7
KANJI9
  0
TEXT
  8
0
  6
CONTINUOUS
 62
     4
 10
1799.1200466
 20
225.0999882
 30
1.03999992
 40
10.3999992
  1
ＭＦＧ　ＮＯ．
 50
0.0
 41
0.8
 51
0.0
  7
KANJI9
  0
TEXT
  8
0
  6
CONTINUOUS
 62
     4
 10
1799.1200466
 20
266.699985
 30
1.03999992
 40
10.3999992
  1
ＴＹＰＥ
 50
0.0
 41
0.8
 51
0.0
  7
KANJI9
  0
LINE
  8
0
  6
CONTINUOUS
 62
     4
 10
1804.3200462
 20
243.2999868
 30
0.0
 11
2043.5200278
 21
243.2999868
 31
0.0
  0
TEXT
  8
0
  6
CONTINUOUS
 62
     4
 10
1799.1200466
 20
165.2999928
 30
1.247999904
 40
12.47999904
  1
図　面　番　号
 50
0.0
 41
0.8
 51
0.0
  7
KANJI10
  0
TEXT
  8
0
  6
CONTINUOUS
 62
     4
 10
1799.1200466
 20
206.8999896
 30
1.247999904
 40
12.47999904
  1
製番
 50
0.0
 41
0.8
 51
0.0
  7
KANJI10
  0
TEXT
  8
0
  6
CONTINUOUS
 62
     4
 10
1799.1200466
 20
248.4999864
 30
1.247999904
 40
12.47999904
  1
機種
 50
0.0
 41
0.8
 51
0.0
  7
KANJI10
  0
LINE
  8
0
  6
CONTINUOUS
 62
     4
 10
1598.920062
 20
160.0999932
 30
0.0
 11
1788.7200474
 21
160.0999932
 31
0.0
  0
TEXT
  8
0
  6
CONTINUOUS
 62
     4
 10
1609.3200612
 20
141.8999946
 30
1.03999992
 40
10.3999992
  1
ＤＡＴＥ
 50
0.0
 41
0.6
 51
0.0
  7
KANJI4
  0
TEXT
  8
0
  6
CONTINUOUS
 62
     4
 10
1609.3200612
 20
126.2999958
 30
1.247999904
 40
12.47999904
  1
日付
 50
0.0
 41
0.6
 51
0.0
  7
KANJI5
  0
TEXT
  8
0
  6
CONTINUOUS
 62
     4
 10
1609.3200612
 20
167.8999926
 30
1.247999904
 40
12.47999904
  1
作図
 50
0.0
 41
0.6
 51
0.0
  7
KANJI5
  0
LINE
  8
0
  6
CONTINUOUS
 62
     4
 10
1788.7200474
 20
141.8999946
 30
0.0
 11
2399.7200004
 21
141.8999946
 31
0.0
  0
LINE
  8
0
  6
LTYPE1
 62
     4
 10
2225.5200138
 20
149.699994
 30
0.0
 11
2225.5200138
 21
191.2999908
 31
0.0
  0
LINE
  8
0
  6
LTYPE1
 62
     4
 10
2189.1200166
 20
149.699994
 30
0.0
 11
2189.1200166
 21
191.2999908
 31
0.0
  0
LINE
  8
0
  6
LTYPE1
 62
     4
 10
2152.7200194
 20
149.699994
 30
0.0
 11
2152.7200194
 21
191.2999908
 31
0.0
  0
LINE
  8
0
  6
LTYPE1
 62
     4
 10
2116.3200222
 20
149.699994
 30
0.0
 11
2116.3200222
 21
191.2999908
 31
0.0
  0
LINE
  8
0
  6
LTYPE1
 62
     4
 10
2079.920025
 20
149.699994
 30
0.0
 11
2079.920025
 21
191.2999908
 31
0.0
  0
LINE
  8
0
  6
LTYPE1
 62
     4
 10
2043.5200278
 20
149.699994
 30
0.0
 11
2043.5200278
 21
191.2999908
 31
0.0
  0
LINE
  8
0
  6
LTYPE1
 62
     4
 10
2007.1200306
 20
149.699994
 30
0.0
 11
2007.1200306
 21
191.2999908
 31
0.0
  0
LINE
  8
0
  6
LTYPE1
 62
     4
 10
1970.7200334
 20
149.699994
 30
0.0
 11
1970.7200334
 21
191.2999908
 31
0.0
  0
LINE
  8
0
  6
LTYPE1
 62
     4
 10
1970.7200334
 20
191.2999908
 30
0.0
 11
2225.5200138
 21
191.2999908
 31
0.0
  0
LINE
  8
0
  6
LTYPE1
 62
     4
 10
1970.7200334
 20
149.699994
 30
0.0
 11
2225.5200138
 21
149.699994
 31
0.0
  0
LINE
  8
0
  6
CONTINUOUS
 62
     4
 10
2246.3200122
 20
171.7999923
 30
0.0
 11
2256.7200114
 21
171.7999923
 31
0.0
  0
LINE
  8
0
  6
CONTINUOUS
 62
     4
 10
2311.3200072
 20
156.1999935
 30
0.0
 11
2274.92001
 21
156.1999935
 31
0.0
  0
LINE
  8
0
  6
CONTINUOUS
 62
     4
 10
2274.92001
 20
156.1999935
 30
0.0
 11
2293.1200086
 21
187.3999911
 31
0.0
  0
LINE
  8
0
  6
CONTINUOUS
 62
     4
 10
2293.1200086
 20
187.3999911
 30
0.0
 11
2311.3200072
 21
156.1999935
 31
0.0
  0
TEXT
  8
0
  6
CONTINUOUS
 62
     4
 10
2059.1200266
 20
266.699985
 30
1.03999992
 40
10.3999992
  1
ＴＩＴＬＥ
 50
0.0
 41
0.8
 51
0.0
  7
KANJI9
  0
TEXT
  8
0
  6
CONTINUOUS
 62
     4
 10
2059.1200266
 20
248.4999864
 30
1.247999904
 40
12.47999904
  1
名称
 50
0.0
 41
0.8
 51
0.0
  7
KANJI10
  0
TEXT
  8
0
  6
CONTINUOUS
 62
     2
 10
2143.92
 20
209.7
 30
15.0
 40
30.0
  1
外形寸法図
 50
0.0
 41
1.0
 51
0.0
  7
KANJI11
  0
TEXT
  8
0
  6
CONTINUOUS
 62
     2
 10
2107.92
 20
245.7
 30
4.285714286
 40
30.0
  1
マイティシリンダ
 50
0.0
 41
1.0
 51
0.0
  7
KANJI12
  0
TEXT
  8
0
  6
CONTINUOUS
 62
     2
 10
1939.2200334
 20
155.699994
 30
1.8
 40
30.0
  1
Ａ
 50
0.0
 41
0.8
 51
0.0
  7
KANJI13
  0
CIRCLE
  8
0
  6
CONTINUOUS
 62
     2
 10
1900.2200334
 20
220.199994
 30
0.0
 40
15.0
  0
TEXT
  8
0
  6
CONTINUOUS
 62
     2
 10
1888.9700334
 20
208.949994
 30
1.8
 40
24.0
  1
Ｓ
 50
0.0
 41
1.0
 51
0.0
  7
KANJI14
  0
LINE
  8
0
  6
CONTINUOUS
 62
     6
 10
2005.703030709
 20
120.683996232
 30
0.0
 11
1990.727031861
 21
120.683996232
 31
0.0
  0
LINE
  8
0
  6
CONTINUOUS
 62
     6
 10
2009.447030421
 20
120.683996232
 30
0.0
 11
2024.423029269
 21
120.683996232
 31
0.0
  0
TEXT
  8
0
  6
CONTINUOUS
 62
     2
 10
1665.9200334
 20
170.699994
 30
6.0
 40
21.0
  1
岡田
 50
0.0
 41
0.857142857
 51
0.0
  7
KANJI15
  0
LINE
  8
0
  6
CONTINUOUS
 62
     4
 10
2399.7200004
 20
368.0999772
 30
0.0
 11
2399.7200004
 21
409.699974
 31
0.0
  0
LINE
  8
0
  6
CONTINUOUS
 62
     6
 10
1599.670062
 20
368.0999772
 30
0.0
 11
2400.4700004
 21
368.0999772
 31
0.0
  0
LINE
  8
0
  6
CONTINUOUS
 62
     6
 10
1598.920062
 20
409.699974
 30
0.0
 11
2399.7200004
 21
409.699974
 31
0.0
  0
TEXT
  8
0
  6
CONTINUOUS
 62
     4
 10
1617.42
 20
374.2999968
 30
6.0
 40
21.6
  1
ご用途
 50
0.0
 41
1.111111111
 51
0.0
  7
KANJI8
  0
TEXT
  8
0
  6
CONTINUOUS
 62
     2
 10
1708.92
 20
83.7
 30
1.8
 40
27.0
  1
１／６
 50
0.0
 41
0.666666667
 51
0.0
  7
KANJI16
  0
LINE
  8
0
  6
CONTINUOUS
 62
     1
 10
360.0
 20
581.0
 30
0.0
 11
274.0
 21
581.0
 31
0.0
  0
LINE
  8
0
  6
CONTINUOUS
 62
     1
 10
274.0
 20
594.5
 30
0.0
 11
274.0
 21
583.55046
 31
0.0
  0
LINE
  8
0
  6
CONTINUOUS
 62
     1
 10
274.0
 20
594.5
 30
0.0
 11
274.0
 21
605.44954
 31
0.0
  0
LINE
  8
0
  6
CONTINUOUS
 62
     1
 10
265.9789
 20
586.23198
 30
0.0
 11
267.527076294
 21
583.55046
 31
0.0
  0
LINE
  8
0
  6
CONTINUOUS
 62
     1
 10
265.9789
 20
594.5
 30
0.0
 11
265.9789
 21
586.23198
 31
0.0
  0
LINE
  8
0
  6
CONTINUOUS
 62
     1
 10
265.9789
 20
602.76802
 30
0.0
 11
267.527076294
 21
605.44954
 31
0.0
  0
LINE
  8
0
  6
CONTINUOUS
 62
     1
 10
265.9789
 20
594.5
 30
0.0
 11
265.9789
 21
602.76802
 31
0.0
  0
ARC
  8
0
  6
CONTINUOUS
 62
     1
 10
276.433121693
 20
594.5
 30
0.0
 40
10.454221693
 50
148.419912243
 51
211.580087757
  0
ARC
  8
0
  6
CONTINUOUS
 62
     1
 10
269.172013606
 20
586.287845
 30
0.0
 40
3.193602261
 50
121.002313915
 51
182.989498403
  0
LINE
  8
0
  6
CONTINUOUS
 62
     1
 10
265.9789
 20
602.76802
 30
0.0
 11
267.527076294
 21
605.44954
 31
0.0
  0
ARC
  8
0
  6
CONTINUOUS
 62
     1
 10
269.172013606
 20
602.712155
 30
0.0
 40
3.193602261
 50
177.010501597
 51
238.997686085
  0
LINE
  8
0
  6
CONTINUOUS
 62
     1
 10
274.0
 20
583.55046
 30
0.0
 11
267.527076294
 21
583.55046
 31
0.0
  0
LINE
  8
0
  6
CONTINUOUS
 62
     1
 10
274.0
 20
589.02523
 30
0.0
 11
267.527076294
 21
589.02523
 31
0.0
  0
LINE
  8
0
  6
CONTINUOUS
 62
     1
 10
274.0
 20
599.97477
 30
0.0
 11
267.527076294
 21
599.97477
 31
0.0
  0
LINE
  8
0
  6
CONTINUOUS
 62
     1
 10
274.0
 20
605.44954
 30
0.0
 11
267.527076294
 21
605.44954
 31
0.0
  0
LINE
  8
0
  6
CONTINUOUS
 62
     1
 10
274.0
 20
722.5
 30
0.0
 11
274.0
 21
711.55046
 31
0.0
  0
LINE
  8
0
  6
CONTINUOUS
 62
     1
 10
274.0
 20
722.5
 30
0.0
 11
274.0
 21
733.44954
 31
0.0
  0
LINE
  8
0
  6
CONTINUOUS
 62
     1
 10
265.9789
 20
714.23198
 30
0.0
 11
267.527076294
 21
711.55046
 31
0.0
  0
LINE
  8
0
  6
CONTINUOUS
 62
     1
 10
265.9789
 20
722.5
 30
0.0
 11
265.9789
 21
714.23198
 31
0.0
  0
LINE
  8
0
  6
CONTINUOUS
 62
     1
 10
265.9789
 20
730.76802
 30
0.0
 11
267.527076294
 21
733.44954
 31
0.0
  0
LINE
  8
0
  6
CONTINUOUS
 62
     1
 10
265.9789
 20
722.5
 30
0.0
 11
265.9789
 21
730.76802
 31
0.0
  0
ARC
  8
0
  6
CONTINUOUS
 62
     1
 10
276.433121693
 20
722.5
 30
0.0
 40
10.454221693
 50
148.419912243
 51
211.580087757
  0
ARC
  8
0
  6
CONTINUOUS
 62
     1
 10
269.172013606
 20
714.287845
 30
0.0
 40
3.193602261
 50
121.002313915
 51
182.989498403
  0
LINE
  8
0
  6
CONTINUOUS
 62
     1
 10
265.9789
 20
730.76802
 30
0.0
 11
267.527076294
 21
733.44954
 31
0.0
  0
ARC
  8
0
  6
CONTINUOUS
 62
     1
 10
269.172013606
 20
730.712155
 30
0.0
 40
3.193602261
 50
177.010501597
 51
238.997686085
  0
LINE
  8
0
  6
CONTINUOUS
 62
     1
 10
274.0
 20
711.55046
 30
0.0
 11
267.527076294
 21
711.55046
 31
0.0
  0
LINE
  8
0
  6
CONTINUOUS
 62
     1
 10
274.0
 20
717.02523
 30
0.0
 11
267.527076294
 21
717.02523
 31
0.0
  0
LINE
  8
0
  6
CONTINUOUS
 62
     1
 10
274.0
 20
727.97477
 30
0.0
 11
267.527076294
 21
727.97477
 31
0.0
  0
LINE
  8
0
  6
CONTINUOUS
 62
     1
 10
274.0
 20
733.44954
 30
0.0
 11
267.527076294
 21
733.44954
 31
0.0
  0
LINE
  8
0
  6
CONTINUOUS
 62
     1
 10
274.0
 20
581.0
 30
0.0
 11
274.0
 21
796.0
 31
0.0
  0
LINE
  8
0
  6
CONTINUOUS
 62
     1
 10
289.0
 20
796.0
 30
0.0
 11
274.0
 21
796.0
 31
0.0
  0
LINE
  8
0
  6
CONTINUOUS
 62
     1
 10
274.0
 20
787.0
 30
0.0
 11
274.0
 21
779.50594
 31
0.0
  0
LINE
  8
0
  6
CONTINUOUS
 62
     1
 10
274.0
 20
787.0
 30
0.0
 11
274.0
 21
794.49406
 31
0.0
  0
LINE
  8
0
  6
CONTINUOUS
 62
     1
 10
268.5001
 20
781.34122
 30
0.0
 11
269.559699402
 21
779.50594
 31
0.0
  0
LINE
  8
0
  6
CONTINUOUS
 62
     1
 10
268.5001
 20
787.0
 30
0.0
 11
268.5001
 21
781.34122
 31
0.0
  0
LINE
  8
0
  6
CONTINUOUS
 62
     1
 10
268.5001
 20
792.65878
 30
0.0
 11
269.559699402
 21
794.49406
 31
0.0
  0
LINE
  8
0
  6
CONTINUOUS
 62
     1
 10
268.5001
 20
787.0
 30
0.0
 11
268.5001
 21
792.65878
 31
0.0
  0
ARC
  8
0
  6
CONTINUOUS
 62
     1
 10
275.655155337
 20
787.0
 30
0.0
 40
7.155055337
 50
148.419912243
 51
211.580087757
  0
ARC
  8
0
  6
CONTINUOUS
 62
     1
 10
270.685523767
 20
781.379455
 30
0.0
 40
2.185758211
 50
121.002313915
 51
182.989498403
  0
LINE
  8
0
  6
CONTINUOUS
 62
     1
 10
268.5001
 20
792.65878
 30
0.0
 11
269.559699402
 21
794.49406
 31
0.0
  0
ARC
  8
0
  6
CONTINUOUS
 62
     1
 10
270.685523767
 20
792.620545
 30
0.0
 40
2.185758211
 50
177.010501597
 51
238.997686085
  0
LINE
  8
0
  6
CONTINUOUS
 62
     1
 10
274.0
 20
779.50594
 30
0.0
 11
269.559699402
 21
779.50594
 31
0.0
  0
LINE
  8
0
  6
CONTINUOUS
 62
     1
 10
274.0
 20
783.25297
 30
0.0
 11
269.559699402
 21
783.25297
 31
0.0
  0
LINE
  8
0
  6
CONTINUOUS
 62
     1
 10
274.0
 20
790.74703
 30
0.0
 11
269.559699402
 21
790.74703
 31
0.0
  0
LINE
  8
0
  6
CONTINUOUS
 62
     1
 10
274.0
 20
794.49406
 30
0.0
 11
269.559699402
 21
794.49406
 31
0.0
  0
LINE
  8
0
  6
CONTINUOUS
 62
     1
 10
468.0
 20
600.5
 30
0.0
 11
542.0
 21
600.5
 31
0.0
  0
LINE
  8
0
  6
CONTINUOUS
 62
     1
 10
542.0
 20
600.5
 30
0.0
 11
542.0
 21
711.5
 31
0.0
  0
LINE
  8
0
  6
CONTINUOUS
 62
     1
 10
375.0
 20
601.5
 30
0.0
 11
375.0
 21
715.5
 31
0.0
  0
CIRCLE
  8
0
  6
CONTINUOUS
 62
     1
 10
420.0
 20
658.5
 30
0.0
 40
10.0
  0
CIRCLE
  8
0
  6
CONTINUOUS
 62
     1
 10
420.0
 20
658.5
 30
0.0
 40
21.0
  0
CIRCLE
  8
0
  6
CONTINUOUS
 62
     1
 10
420.0
 20
658.5
 30
0.0
 40
25.0
  0
LINE
  8
0
  6
CONTINUOUS
 62
     1
 10
360.0
 20
715.5
 30
0.0
 11
375.0
 21
715.5
 31
0.0
  0
LINE
  8
0
  6
CONTINUOUS
 62
     1
 10
388.9
 20
711.5
 30
0.0
 11
542.0
 21
711.5
 31
0.0
  0
LINE
  8
0
  6
CONTINUOUS
 62
     1
 10
468.0
 20
600.5
 30
0.0
 11
468.0
 21
652.9
 31
0.0
  0
LINE
  8
0
  6
CONTINUOUS
 62
     1
 10
388.9
 20
605.5
 30
0.0
 11
465.5
 21
605.5
 31
0.0
  0
LINE
  8
0
  6
CONTINUOUS
 62
     1
 10
550.0
 20
599.0
 30
0.0
 11
550.0
 21
598.0
 31
0.0
  0
ARC
  8
0
  6
CONTINUOUS
 62
     1
 10
463.0
 20
596.0
 30
0.0
 40
3.0
 50
90.0
 51
180.0
  0
LINE
  8
0
  6
CONTINUOUS
 62
     1
 10
589.0
 20
556.0
 30
0.0
 11
460.0
 21
556.0
 31
0.0
  0
LINE
  8
0
  6
CONTINUOUS
 62
     1
 10
550.0
 20
598.0
 30
0.0
 11
586.0
 21
598.0
 31
0.0
  0
ARC
  8
0
  6
CONTINUOUS
 62
     1
 10
586.0
 20
595.0
 30
0.0
 40
3.0
 50
0.0
 51
90.0
  0
LINE
  8
0
  6
CONTINUOUS
 62
     1
 10
589.0
 20
554.5
 30
0.0
 11
460.0
 21
554.5
 31
0.0
  0
LINE
  8
0
  6
CONTINUOUS
 62
     1
 10
589.0
 20
549.5
 30
0.0
 11
589.0
 21
595.0
 31
0.0
  0
ARC
  8
0
  6
CONTINUOUS
 62
     1
 10
588.0
 20
549.5
 30
0.0
 40
1.0
 50
270.0
 51
0.0
  0
LINE
  8
0
  6
CONTINUOUS
 62
     1
 10
586.0
 20
548.5
 30
0.0
 11
586.0
 21
548.5
 31
0.0
  0
ARC
  8
0
  6
CONTINUOUS
 62
     1
 10
585.0
 20
548.5
 30
0.0
 40
1.0
 50
270.0
 51
0.0
  0
LINE
  8
0
  6
CONTINUOUS
 62
     1
 10
460.0
 20
549.5
 30
0.0
 11
460.0
 21
596.0
 31
0.0
  0
LINE
  8
0
  6
CONTINUOUS
 62
     1
 10
588.0
 20
548.5
 30
0.0
 11
461.0
 21
548.5
 31
0.0
  0
ARC
  8
0
  6
CONTINUOUS
 62
     1
 10
461.0
 20
549.5
 30
0.0
 40
1.0
 50
180.0
 51
270.0
  0
ARC
  8
0
  6
CONTINUOUS
 62
     1
 10
464.0
 20
548.5
 30
0.0
 40
1.0
 50
180.0
 51
270.0
  0
LINE
  8
0
  6
CONTINUOUS
 62
     1
 10
585.0
 20
547.5
 30
0.0
 11
464.1
 21
547.5
 31
0.0
  0
LINE
  8
0
  6
CONTINUOUS
 62
     1
 10
463.0
 20
599.0
 30
0.0
 11
550.0
 21
599.0
 31
0.0
  0
LINE
  8
0
  6
CONTINUOUS
 62
     1
 10
463.0
 20
600.5
 30
0.0
 11
550.0
 21
600.5
 31
0.0
  0
LINE
  8
0
  6
CONTINUOUS
 62
     1
 10
378.0
 20
703.5
 30
0.0
 11
378.0
 21
714.44954
 31
0.0
  0
LINE
  8
0
  6
CONTINUOUS
 62
     1
 10
378.0
 20
703.5
 30
0.0
 11
378.0
 21
692.55046
 31
0.0
  0
LINE
  8
0
  6
CONTINUOUS
 62
     1
 10
375.0
 20
714.25
 30
0.0
 11
378.0
 21
714.25
 31
0.0
  0
LINE
  8
0
  6
CONTINUOUS
 62
     1
 10
375.0
 20
703.5
 30
0.0
 11
378.000254073
 21
706.500254073
 31
0.0
  0
LINE
  8
0
  6
CONTINUOUS
 62
     1
 10
378.000254073
 20
703.5
 30
0.0
 11
375.0
 21
700.499745927
 31
0.0
  0
LINE
  8
0
  6
CONTINUOUS
 62
     1
 10
375.0
 20
692.75
 30
0.0
 11
378.0
 21
692.75
 31
0.0
  0
LINE
  8
0
  6
CONTINUOUS
 62
     1
 10
378.0
 20
714.25
 30
0.0
 11
389.3
 21
714.25
 31
0.0
  0
LINE
  8
0
  6
CONTINUOUS
 62
     1
 10
389.3
 20
703.5
 30
0.0
 11
389.3
 21
714.25
 31
0.0
  0
LINE
  8
0
  6
CONTINUOUS
 62
     1
 10
389.3
 20
714.25
 30
0.0
 11
390.0
 21
713.037564435
 31
0.0
  0
LINE
  8
0
  6
CONTINUOUS
 62
     1
 10
390.0
 20
703.5
 30
0.0
 11
390.0
 21
713.037564435
 31
0.0
  0
LINE
  8
0
  6
CONTINUOUS
 62
     1
 10
378.0
 20
692.75
 30
0.0
 11
389.3
 21
692.75
 31
0.0
  0
LINE
  8
0
  6
CONTINUOUS
 62
     1
 10
389.3
 20
703.5
 30
0.0
 11
389.3
 21
692.75
 31
0.0
  0
LINE
  8
0
  6
CONTINUOUS
 62
     1
 10
389.3
 20
692.75
 30
0.0
 11
390.0
 21
693.962435565
 31
0.0
  0
LINE
  8
0
  6
CONTINUOUS
 62
     1
 10
390.0
 20
703.5
 30
0.0
 11
390.0
 21
693.962435565
 31
0.0
  0
LINE
  8
0
  6
CONTINUOUS
 62
     1
 10
378.0
 20
613.5
 30
0.0
 11
378.0
 21
602.55046
 31
0.0
  0
LINE
  8
0
  6
CONTINUOUS
 62
     1
 10
378.0
 20
613.5
 30
0.0
 11
378.0
 21
624.44954
 31
0.0
  0
LINE
  8
0
  6
CONTINUOUS
 62
     1
 10
375.0
 20
602.75
 30
0.0
 11
378.0
 21
602.75
 31
0.0
  0
LINE
  8
0
  6
CONTINUOUS
 62
     1
 10
375.0
 20
613.5
 30
0.0
 11
378.000254073
 21
610.499745927
 31
0.0
  0
LINE
  8
0
  6
CONTINUOUS
 62
     1
 10
378.000254073
 20
613.5
 30
0.0
 11
375.0
 21
616.500254073
 31
0.0
  0
LINE
  8
0
  6
CONTINUOUS
 62
     1
 10
375.0
 20
624.25
 30
0.0
 11
378.0
 21
624.25
 31
0.0
  0
LINE
  8
0
  6
CONTINUOUS
 62
     1
 10
378.0
 20
602.75
 30
0.0
 11
389.3
 21
602.75
 31
0.0
  0
LINE
  8
0
  6
CONTINUOUS
 62
     1
 10
389.3
 20
613.5
 30
0.0
 11
389.3
 21
602.75
 31
0.0
  0
LINE
  8
0
  6
CONTINUOUS
 62
     1
 10
389.3
 20
602.75
 30
0.0
 11
390.0
 21
603.962435565
 31
0.0
  0
LINE
  8
0
  6
CONTINUOUS
 62
     1
 10
390.0
 20
613.5
 30
0.0
 11
390.0
 21
603.962435565
 31
0.0
  0
LINE
  8
0
  6
CONTINUOUS
 62
     1
 10
378.0
 20
624.25
 30
0.0
 11
389.3
 21
624.25
 31
0.0
  0
LINE
  8
0
  6
CONTINUOUS
 62
     1
 10
389.3
 20
613.5
 30
0.0
 11
389.3
 21
624.25
 31
0.0
  0
LINE
  8
0
  6
CONTINUOUS
 62
     1
 10
389.3
 20
624.25
 30
0.0
 11
390.0
 21
623.037564435
 31
0.0
  0
LINE
  8
0
  6
CONTINUOUS
 62
     1
 10
390.0
 20
613.5
 30
0.0
 11
390.0
 21
623.037564435
 31
0.0
  0
LINE
  8
0
  6
CONTINUOUS
 62
     1
 10
360.0
 20
601.5
 30
0.0
 11
375.0
 21
601.5
 31
0.0
  0
POINT
  8
0
  6
CONTINUOUS
 62
     1
 10
360.0
 20
601.5
 30
0.0
  0
LINE
  8
0
  6
CONTINUOUS
 62
     1
 10
551.0
 20
607.5
 30
0.0
 11
551.0
 21
709.5
 31
0.0
  0
LINE
  8
0
  6
CONTINUOUS
 62
     1
 10
551.0
 20
709.5
 30
0.0
 11
542.0
 21
709.5
 31
0.0
  0
LINE
  8
0
  6
CONTINUOUS
 62
     1
 10
551.0
 20
607.5
 30
0.0
 11
542.0
 21
607.5
 31
0.0
  0
LINE
  8
0
  6
CONTINUOUS
 62
     1
 10
551.0
 20
706.0
 30
0.0
 11
542.0
 21
706.0
 31
0.0
  0
LINE
  8
0
  6
CONTINUOUS
 62
     1
 10
551.0
 20
611.0
 30
0.0
 11
542.0
 21
611.0
 31
0.0
  0
LINE
  8
0
  6
CONTINUOUS
 62
     1
 10
551.0
 20
654.5
 30
0.0
 11
542.0
 21
654.5
 31
0.0
  0
LINE
  8
0
  6
CONTINUOUS
 62
     1
 10
551.0
 20
662.5
 30
0.0
 11
542.0
 21
662.5
 31
0.0
  0
LINE
  8
0
  6
LTYPE2
 62
     2
 10
299.1
 20
594.5
 30
0.0
 11
264.9
 21
594.5
 31
0.0
  0
LINE
  8
0
  6
LTYPE2
 62
     2
 10
300.1
 20
722.5
 30
0.0
 11
264.9
 21
722.5
 31
0.0
  0
LINE
  8
0
  6
LTYPE2
 62
     2
 10
304.6
 20
787.0
 30
0.0
 11
265.3
 21
787.0
 31
0.0
  0
LINE
  8
0
  6
LTYPE2
 62
     2
 10
339.0
 20
703.5
 30
0.0
 11
392.0
 21
703.5
 31
0.0
  0
LINE
  8
0
  6
LTYPE2
 62
     2
 10
420.0
 20
627.0
 30
0.0
 11
420.0
 21
690.0
 31
0.0
  0
LINE
  8
0
  6
LTYPE2
 62
     2
 10
339.0
 20
613.5
 30
0.0
 11
392.0
 21
613.5
 31
0.0
  0
LINE
  8
0
  6
LTYPE1
 62
     2
 10
589.0
 20
582.3
 30
0.0
 11
579.0
 21
582.3
 31
0.0
  0
LINE
  8
0
  6
LTYPE1
 62
     2
 10
589.0
 20
583.5
 30
0.0
 11
579.0
 21
583.5
 31
0.0
  0
LINE
  8
0
  6
LTYPE1
 62
     2
 10
589.0
 20
563.7
 30
0.0
 11
579.0
 21
563.7
 31
0.0
  0
LINE
  8
0
  6
LTYPE1
 62
     2
 10
589.0
 20
562.5
 30
0.0
 11
579.0
 21
562.5
 31
0.0
  0
LINE
  8
0
  6
LTYPE3
 62
     2
 10
595.2
 20
573.0
 30
0.0
 11
575.5
 21
573.0
 31
0.0
  0
LINE
  8
0
  6
LTYPE3
 62
     2
 10
504.0
 20
587.3
 30
0.0
 11
504.0
 21
602.15
 31
0.0
  0
LINE
  8
0
  6
CONTINUOUS
 62
     2
 10
589.0
 20
573.0
 30
0.0
 11
591.506004628
 21
560.753778509
 31
0.0
  0
LINE
  8
0
  6
CONTINUOUS
 62
     2
 10
589.0
 20
573.0
 30
0.0
 11
597.293374416
 21
563.647463403
 31
0.0
  0
LINE
  8
0
  6
CONTINUOUS
 62
     2
 10
589.0
 20
573.0
 30
0.0
 11
614.0
 21
523.0
 31
0.0
  0
LINE
  8
0
  6
CONTINUOUS
 62
     2
 10
614.0
 20
523.0
 30
0.0
 11
681.5
 21
523.0
 31
0.0
  0
LINE
  8
0
  6
CONTINUOUS
 62
     2
 10
274.0
 20
408.3625
 30
0.0
 11
286.074072829
 21
405.127261936
 31
0.0
  0
LINE
  8
0
  6
CONTINUOUS
 62
     2
 10
274.0
 20
408.3625
 30
0.0
 11
286.074072829
 21
411.597738064
 31
0.0
  0
LINE
  8
0
  6
CONTINUOUS
 62
     2
 10
274.0
 20
408.3625
 30
0.0
 11
360.0
 21
408.3625
 31
0.0
  0
LINE
  8
0
  6
CONTINUOUS
 62
     2
 10
360.0
 20
408.3625
 30
0.0
 11
347.925927171
 21
411.597738064
 31
0.0
  0
LINE
  8
0
  6
CONTINUOUS
 62
     2
 10
360.0
 20
408.3625
 30
0.0
 11
347.925927171
 21
405.127261936
 31
0.0
  0
LINE
  8
0
  6
CONTINUOUS
 62
     2
 10
360.0
 20
408.3625
 30
0.0
 11
372.074072829
 21
405.127261936
 31
0.0
  0
LINE
  8
0
  6
CONTINUOUS
 62
     2
 10
360.0
 20
408.3625
 30
0.0
 11
372.074072829
 21
411.597738064
 31
0.0
  0
LINE
  8
0
  6
CONTINUOUS
 62
     2
 10
360.0
 20
408.3625
 30
0.0
 11
420.0
 21
408.3625
 31
0.0
  0
LINE
  8
0
  6
CONTINUOUS
 62
     2
 10
420.0
 20
408.3625
 30
0.0
 11
407.925927171
 21
411.597738064
 31
0.0
  0
LINE
  8
0
  6
CONTINUOUS
 62
     2
 10
420.0
 20
408.3625
 30
0.0
 11
407.925927171
 21
405.127261936
 31
0.0
  0
LINE
  8
0
  6
CONTINUOUS
 62
     2
 10
420.0
 20
408.3625
 30
0.0
 11
432.074072829
 21
405.127261936
 31
0.0
  0
LINE
  8
0
  6
CONTINUOUS
 62
     2
 10
420.0
 20
408.3625
 30
0.0
 11
432.074072829
 21
411.597738064
 31
0.0
  0
LINE
  8
0
  6
CONTINUOUS
 62
     2
 10
420.0
 20
408.3625
 30
0.0
 11
1051.0
 21
408.3625
 31
0.0
  0
LINE
  8
0
  6
CONTINUOUS
 62
     2
 10
420.0
 20
451.7
 30
0.0
 11
432.074072829
 21
448.464761936
 31
0.0
  0
LINE
  8
0
  6
CONTINUOUS
 62
     2
 10
420.0
 20
451.7
 30
0.0
 11
432.074072829
 21
454.935238064
 31
0.0
  0
LINE
  8
0
  6
CONTINUOUS
 62
     2
 10
274.0
 20
400.8625
 30
0.0
 11
274.0
 21
356.5
 31
0.0
  0
LINE
  8
0
  6
CONTINUOUS
 62
     2
 10
274.0
 20
364.0
 30
0.0
 11
286.074072829
 21
360.764761936
 31
0.0
  0
LINE
  8
0
  6
CONTINUOUS
 62
     2
 10
274.0
 20
364.0
 30
0.0
 11
286.074072829
 21
367.235238064
 31
0.0
  0
LINE
  8
0
  6
CONTINUOUS
 62
     2
 10
274.0
 20
364.0
 30
0.0
 11
1051.0
 21
364.0
 31
0.0
  0
LINE
  8
0
  6
CONTINUOUS
 62
     2
 10
274.0
 20
572.875
 30
0.0
 11
274.0
 21
400.8625
 31
0.0
  0
LINE
  8
0
  6
CONTINUOUS
 62
     2
 10
360.0
 20
576.875
 30
0.0
 11
360.0
 21
400.8625
 31
0.0
  0
LINE
  8
0
  6
CONTINUOUS
 62
     2
 10
420.0
 20
630.375
 30
0.0
 11
420.0
 21
400.8625
 31
0.0
  0
LINE
  8
0
  6
LTYPE2
 62
     2
 10
620.325
 20
658.5
 30
0.0
 11
248.9
 21
658.5
 31
0.0
  0
LINE
  8
0
  6
LTYPE2
 62
     2
 10
1069.283472275
 20
658.5
 30
0.0
 11
661.525
 21
658.5
 31
0.0
  0
LINE
  8
0
  6
LTYPE2
 62
     2
 10
1069.283472275
 20
658.5
 30
0.0
 11
661.525
 21
658.5
 31
0.0
  0
LINE
  8
0
  6
CONTINUOUS
 62
     2
 10
477.5
 20
549.0
 30
0.0
 11
470.955006676
 21
538.35044309
 31
0.0
  0
LINE
  8
0
  6
CONTINUOUS
 62
     2
 10
477.5
 20
549.0
 30
0.0
 11
477.156647969
 21
536.504716515
 31
0.0
  0
LINE
  8
0
  6
CONTINUOUS
 62
     2
 10
477.5
 20
549.0
 30
0.0
 11
452.5
 21
465.0
 31
0.0
  0
LINE
  8
0
  6
CONTINUOUS
 62
     2
 10
452.5
 20
465.0
 30
0.0
 11
454.0
 21
465.0
 31
0.0
  0
LINE
  8
0
  6
CONTINUOUS
 62
     2
 10
452.5
 20
465.0
 30
0.0
 11
542.0
 21
465.0
 31
0.0
  0
CIRCLE
  8
0
  6
CONTINUOUS
 62
     1
 10
703.0
 20
658.5
 30
0.0
 40
19.5
  0
LINE
  8
0
  6
CONTINUOUS
 62
     1
 10
723.0
 20
638.5
 30
0.0
 11
723.0
 21
678.5
 31
0.0
  0
LINE
  8
0
  6
CONTINUOUS
 62
     1
 10
683.0
 20
638.5
 30
0.0
 11
683.0
 21
678.5
 31
0.0
  0
LINE
  8
0
  6
LTYPE2
 62
     2
 10
703.0
 20
633.4
 30
0.0
 11
703.0
 21
683.3
 31
0.0
  0
LINE
  8
0
  6
CONTINUOUS
 62
     1
 10
683.0
 20
638.5
 30
0.0
 11
723.0
 21
638.5
 31
0.0
  0
LINE
  8
2
  6
CONTINUOUS
 62
     2
 10
708.5
 20
641.5
 30
0.0
 11
709.415486016
 21
634.056084004
 31
0.0
  0
LINE
  8
2
  6
CONTINUOUS
 62
     2
 10
708.5
 20
641.5
 30
0.0
 11
713.014792145
 21
635.511122652
 31
0.0
  0
LINE
  8
2
  6
CONTINUOUS
 62
     2
 10
708.5
 20
641.5
 30
0.0
 11
737.0
 21
571.0
 31
0.0
  0
LINE
  8
0
  6
CONTINUOUS
 62
     1
 10
683.0
 20
678.5
 30
0.0
 11
723.0
 21
678.5
 31
0.0
  0
LINE
  8
0
  6
CONTINUOUS
 62
     2
 10
420.0
 20
451.7
 30
0.0
 11
956.0
 21
451.7
 31
0.0
  0
CIRCLE
  8
0
  6
CONTINUOUS
 62
     1
 10
1051.0
 20
658.0
 30
0.0
 40
12.5
  0
CIRCLE
  8
0
  6
CONTINUOUS
 62
     1
 10
1051.0
 20
658.0
 30
0.0
 40
22.0
  0
CIRCLE
  8
0
  6
CONTINUOUS
 62
     1
 10
1051.0
 20
673.5
 30
0.0
 40
3.0
  0
LINE
  8
0
  6
CONTINUOUS
 62
     1
 10
1046.8
 20
641.2
 30
0.0
 11
1048.8
 21
640.9
 31
0.0
  0
LINE
  8
0
  6
CONTINUOUS
 62
     1
 10
1049.3
 20
645.6
 30
0.0
 11
1049.064615385
 21
644.030769231
 31
0.0
  0
LINE
  8
0
  6
CONTINUOUS
 62
     1
 10
1049.064615385
 20
644.030769231
 30
0.0
 11
1046.8
 21
641.2
 31
0.0
  0
LINE
  8
0
  6
CONTINUOUS
 62
     1
 10
1051.0
 20
643.6
 30
0.0
 11
1048.8
 21
640.9
 31
0.0
  0
LINE
  8
0
  6
CONTINUOUS
 62
     1
 10
1055.2
 20
641.2
 30
0.0
 11
1053.2
 21
640.9
 31
0.0
  0
LINE
  8
0
  6
CONTINUOUS
 62
     1
 10
1052.7
 20
645.6
 30
0.0
 11
1052.935384615
 21
644.030769231
 31
0.0
  0
LINE
  8
0
  6
CONTINUOUS
 62
     1
 10
1052.935384615
 20
644.030769231
 30
0.0
 11
1055.2
 21
641.2
 31
0.0
  0
LINE
  8
0
  6
CONTINUOUS
 62
     1
 10
1051.0
 20
643.6
 30
0.0
 11
1053.2
 21
640.9
 31
0.0
  0
LINE
  8
0
  6
LTYPE1
 62
     2
 10
1016.0
 20
633.0
 30
0.0
 11
1016.0
 21
683.0
 31
0.0
  0
LINE
  8
0
  6
CONTINUOUS
 62
     2
 10
1075.5
 20
683.0
 30
0.0
 11
1139.1
 21
683.0
 31
0.0
  0
LINE
  8
0
  6
CONTINUOUS
 62
     2
 10
1131.6
 20
683.0
 30
0.0
 11
1128.364761936
 21
670.925927171
 31
0.0
  0
LINE
  8
0
  6
CONTINUOUS
 62
     2
 10
1131.6
 20
683.0
 30
0.0
 11
1134.835238064
 21
670.925927171
 31
0.0
  0
LINE
  8
0
  6
CONTINUOUS
 62
     2
 10
1131.6
 20
683.0
 30
0.0
 11
1131.6
 21
633.0
 31
0.0
  0
LINE
  8
0
  6
CONTINUOUS
 62
     2
 10
1131.6
 20
633.0
 30
0.0
 11
1134.835238064
 21
645.074072829
 31
0.0
  0
LINE
  8
0
  6
CONTINUOUS
 62
     2
 10
1131.6
 20
633.0
 30
0.0
 11
1128.364761936
 21
645.074072829
 31
0.0
  0
LINE
  8
0
  6
CONTINUOUS
 62
     2
 10
1075.5
 20
633.0
 30
0.0
 11
1139.1
 21
633.0
 31
0.0
  0
LINE
  8
0
  6
LTYPE4
 62
     2
 10
1051.0
 20
633.0
 30
0.0
 11
1051.0
 21
690.1
 31
0.0
  0
LINE
  8
0
  6
CONTINUOUS
 62
     2
 10
1058.5
 20
667.6
 30
0.0
 11
1067.413448812
 21
676.363585469
 31
0.0
  0
LINE
  8
0
  6
CONTINUOUS
 62
     2
 10
1058.5
 20
667.6
 30
0.0
 11
1061.837480372
 21
679.64621205
 31
0.0
  0
LINE
  8
0
  6
CONTINUOUS
 62
     2
 10
1058.5
 20
667.6
 30
0.0
 11
1095.0
 21
729.6
 31
0.0
  0
LINE
  8
0
  6
CONTINUOUS
 62
     2
 10
1095.0
 20
729.6
 30
0.0
 11
1183.5
 21
729.6
 31
0.0
  0
LINE
  8
0
  6
CONTINUOUS
 62
     2
 10
1051.0
 20
408.3625
 30
0.0
 11
1038.925927171
 21
411.597738064
 31
0.0
  0
LINE
  8
0
  6
CONTINUOUS
 62
     2
 10
1051.0
 20
408.3625
 30
0.0
 11
1038.925927171
 21
405.127261936
 31
0.0
  0
LINE
  8
0
  6
CONTINUOUS
 62
     2
 10
1001.0
 20
451.7
 30
0.0
 11
988.925927171
 21
454.935238064
 31
0.0
  0
LINE
  8
0
  6
CONTINUOUS
 62
     2
 10
1001.0
 20
451.7
 30
0.0
 11
988.925927171
 21
448.464761936
 31
0.0
  0
LINE
  8
0
  6
CONTINUOUS
 62
     2
 10
1001.0
 20
451.7
 30
0.0
 11
1013.074072829
 21
448.464761936
 31
0.0
  0
LINE
  8
0
  6
CONTINUOUS
 62
     2
 10
1001.0
 20
451.7
 30
0.0
 11
1013.074072829
 21
454.935238064
 31
0.0
  0
LINE
  8
0
  6
CONTINUOUS
 62
     2
 10
1001.0
 20
451.7
 30
0.0
 11
1051.0
 21
451.7
 31
0.0
  0
LINE
  8
0
  6
CONTINUOUS
 62
     2
 10
1051.0
 20
451.7
 30
0.0
 11
1038.925927171
 21
454.935238064
 31
0.0
  0
LINE
  8
0
  6
CONTINUOUS
 62
     2
 10
1051.0
 20
451.7
 30
0.0
 11
1038.925927171
 21
448.464761936
 31
0.0
  0
LINE
  8
0
  6
CONTINUOUS
 62
     2
 10
1051.0
 20
364.0
 30
0.0
 11
1038.925927171
 21
367.235238064
 31
0.0
  0
LINE
  8
0
  6
CONTINUOUS
 62
     2
 10
1051.0
 20
364.0
 30
0.0
 11
1038.925927171
 21
360.764761936
 31
0.0
  0
LINE
  8
0
  6
CONTINUOUS
 62
     2
 10
1051.0
 20
400.8625
 30
0.0
 11
1051.0
 21
356.5
 31
0.0
  0
LINE
  8
0
  6
CONTINUOUS
 62
     2
 10
1051.0
 20
632.375
 30
0.0
 11
1051.0
 21
400.8625
 31
0.0
  0
LINE
  8
0
  6
CONTINUOUS
 62
     1
 10
1001.0
 20
683.5
 30
0.0
 11
1068.0
 21
683.5
 31
0.0
  0
LINE
  8
0
  6
CONTINUOUS
 62
     1
 10
1001.0
 20
633.5
 30
0.0
 11
1068.0
 21
633.5
 31
0.0
  0
ARC
  8
0
  6
CONTINUOUS
 62
     1
 10
1068.0
 20
641.5
 30
0.0
 40
8.0
 50
270.0
 51
0.0
  0
LINE
  8
0
  6
CONTINUOUS
 62
     1
 10
1076.0
 20
641.5
 30
0.0
 11
1076.0
 21
675.5
 31
0.0
  0
ARC
  8
0
  6
CONTINUOUS
 62
     1
 10
1068.0
 20
675.5
 30
0.0
 40
8.0
 50
0.0
 51
90.0
  0
LINE
  8
0
  6
LTYPE1
 62
     2
 10
1016.0
 20
633.0
 30
0.0
 11
1016.0
 21
683.0
 31
0.0
  0
LINE
  8
0
  6
CONTINUOUS
 62
     1
 10
1001.0
 20
633.0
 30
0.0
 11
1001.0
 21
683.5
 31
0.0
  0
LINE
  8
0
  6
CONTINUOUS
 62
     2
 10
1001.0
 20
633.5
 30
0.0
 11
1001.0
 21
446.0
 31
0.0
  0
LINE
  8
0
  6
CONTINUOUS
 62
     2
 10
737.0
 20
571.0
 30
0.0
 11
777.5
 21
571.0
 31
0.0
  0
LINE
  8
0
  6
CONTINUOUS
 62
     1
 10
1001.0
 20
683.5
 30
0.0
 11
956.0
 21
683.5
 31
0.0
  0
LINE
  8
0
  6
CONTINUOUS
 62
     1
 10
1001.0
 20
633.5
 30
0.0
 11
956.0
 21
633.5
 31
0.0
  0
LINE
  8
0
  6
CONTINUOUS
 62
     2
 10
956.0
 20
451.7
 30
0.0
 11
943.925927171
 21
454.935238064
 31
0.0
  0
LINE
  8
0
  6
CONTINUOUS
 62
     2
 10
956.0
 20
451.7
 30
0.0
 11
968.074072829
 21
454.935238064
 31
0.0
  0
LINE
  8
0
  6
CONTINUOUS
 62
     2
 10
956.0
 20
620.875
 30
0.0
 11
956.0
 21
444.2
 31
0.0
  0
LINE
  8
0
  6
CONTINUOUS
 62
     2
 10
956.0
 20
451.7
 30
0.0
 11
943.925927171
 21
448.464761936
 31
0.0
  0
LINE
  8
0
  6
CONTINUOUS
 62
     2
 10
956.0
 20
451.7
 30
0.0
 11
968.074072829
 21
448.464761936
 31
0.0
  0
LINE
  8
0
  6
CONTINUOUS
 62
     2
 10
956.0
 20
451.7
 30
0.0
 11
1001.0
 21
451.7
 31
0.0
  0
ARC
  8
0
  6
CONTINUOUS
 62
     1
 10
1285.0
 20
587.0
 30
0.0
 40
6.0
 50
180.0
 51
270.0
  0
ARC
  8
0
  6
CONTINUOUS
 62
     1
 10
1427.0
 20
587.0
 30
0.0
 40
6.0
 50
270.0
 51
0.0
  0
LINE
  8
0
  6
CONTINUOUS
 62
     1
 10
1436.0
 20
637.5
 30
0.0
 11
1436.0
 21
679.5
 31
0.0
  0
ARC
  8
0
  6
CONTINUOUS
 62
     1
 10
1308.0
 20
596.0
 30
0.0
 40
3.0
 50
90.0
 51
180.0
  0
LINE
  8
0
  6
CONTINUOUS
 62
     1
 10
1305.0
 20
549.5
 30
0.0
 11
1305.0
 21
596.0
 31
0.0
  0
ARC
  8
0
  6
CONTINUOUS
 62
     1
 10
1306.0
 20
549.5
 30
0.0
 40
1.0
 50
180.0
 51
270.0
  0
ARC
  8
0
  6
CONTINUOUS
 62
     1
 10
1309.0
 20
548.5
 30
0.0
 40
1.0
 50
180.0
 51
270.0
  0
ARC
  8
0
  6
CONTINUOUS
 62
     1
 10
1404.0
 20
596.0
 30
0.0
 40
3.0
 50
0.0
 51
90.0
  0
LINE
  8
0
  6
CONTINUOUS
 62
     1
 10
1407.0
 20
549.5
 30
0.0
 11
1407.0
 21
596.0
 31
0.0
  0
ARC
  8
0
  6
CONTINUOUS
 62
     1
 10
1406.0
 20
549.5
 30
0.0
 40
1.0
 50
270.0
 51
0.0
  0
ARC
  8
0
  6
CONTINUOUS
 62
     1
 10
1403.0
 20
548.5
 30
0.0
 40
1.0
 50
270.0
 51
0.0
  0
LINE
  8
0
  6
CONTINUOUS
 62
     1
 10
1407.0
 20
554.5
 30
0.0
 11
1305.0
 21
554.5
 31
0.0
  0
LINE
  8
0
  6
CONTINUOUS
 62
     1
 10
1407.0
 20
556.0
 30
0.0
 11
1305.0
 21
556.0
 31
0.0
  0
LINE
  8
0
  6
CONTINUOUS
 62
     1
 10
1308.0
 20
599.0
 30
0.0
 11
1404.0
 21
599.0
 31
0.0
  0
LINE
  8
0
  6
CONTINUOUS
 62
     1
 10
1403.0
 20
547.5
 30
0.0
 11
1309.0
 21
547.5
 31
0.0
  0
LINE
  8
0
  6
CONTINUOUS
 62
     1
 10
1406.0
 20
548.5
 30
0.0
 11
1306.0
 21
548.5
 31
0.0
  0
LINE
  8
0
  6
CONTINUOUS
 62
     1
 10
1311.0
 20
600.5
 30
0.0
 11
1401.0
 21
600.5
 31
0.0
  0
ARC
  8
0
  6
CONTINUOUS
 62
     1
 10
1302.0
 20
712.5
 30
0.0
 40
5.0
 50
90.0
 51
180.0
  0
ARC
  8
0
  6
CONTINUOUS
 62
     1
 10
1410.0
 20
712.5
 30
0.0
 40
5.0
 50
0.0
 51
90.0
  0
CIRCLE
  8
0
  6
CONTINUOUS
 62
     1
 10
1403.0
 20
705.5
 30
0.0
 40
9.0
  0
ARC
  8
0
  6
CONTINUOUS
 62
     1
 10
1410.0
 20
604.5
 30
0.0
 40
5.0
 50
270.0
 51
360.0
  0
ARC
  8
0
  6
CONTINUOUS
 62
     1
 10
1302.0
 20
604.5
 30
0.0
 40
5.0
 50
180.0
 51
270.0
  0
LINE
  8
0
  6
CONTINUOUS
 62
     1
 10
1415.0
 20
682.025046491
 30
0.0
 11
1415.0
 21
712.5
 31
0.0
  0
LINE
  8
0
  6
CONTINUOUS
 62
     1
 10
1415.0
 20
634.974953509
 30
0.0
 11
1415.0
 21
604.5
 31
0.0
  0
LINE
  8
0
  6
CONTINUOUS
 62
     1
 10
1401.0
 20
599.5
 30
0.0
 11
1410.0
 21
599.5
 31
0.0
  0
LINE
  8
0
  6
CONTINUOUS
 62
     1
 10
1311.0
 20
599.5
 30
0.0
 11
1302.0
 21
599.5
 31
0.0
  0
LINE
  8
0
  6
CONTINUOUS
 62
     1
 10
1383.5
 20
683.5
 30
0.0
 11
1368.5
 21
683.5
 31
0.0
  0
LINE
  8
0
  6
CONTINUOUS
 62
     1
 10
1388.0
 20
636.5
 30
0.0
 11
1388.0
 21
680.5
 31
0.0
  0
LINE
  8
0
  6
CONTINUOUS
 62
     1
 10
1394.0
 20
646.0
 30
0.0
 11
1394.0
 21
671.0
 31
0.0
  0
LINE
  8
0
  6
CONTINUOUS
 62
     1
 10
1394.0
 20
671.0
 30
0.0
 11
1388.0
 21
671.0
 31
0.0
  0
LINE
  8
0
  6
CONTINUOUS
 62
     1
 10
1394.0
 20
646.0
 30
0.0
 11
1388.0
 21
646.0
 31
0.0
  0
LINE
  8
0
  6
CONTINUOUS
 62
     1
 10
1388.0
 20
680.5
 30
0.0
 11
1383.5
 21
680.5
 31
0.0
  0
LINE
  8
0
  6
CONTINUOUS
 62
     1
 10
1388.0
 20
636.5
 30
0.0
 11
1383.5
 21
636.5
 31
0.0
  0
CIRCLE
  8
0
  6
CONTINUOUS
 62
     1
 10
1390.0
 20
658.5
 30
0.0
 40
2.0
  0
LINE
  8
0
  6
CONTINUOUS
 62
     1
 10
1324.0
 20
636.5
 30
0.0
 11
1324.0
 21
680.5
 31
0.0
  0
LINE
  8
0
  6
CONTINUOUS
 62
     1
 10
1318.0
 20
646.0
 30
0.0
 11
1318.0
 21
671.0
 31
0.0
  0
LINE
  8
0
  6
CONTINUOUS
 62
     1
 10
1318.0
 20
671.0
 30
0.0
 11
1324.0
 21
671.0
 31
0.0
  0
LINE
  8
0
  6
CONTINUOUS
 62
     1
 10
1318.0
 20
646.0
 30
0.0
 11
1324.0
 21
646.0
 31
0.0
  0
LINE
  8
0
  6
CONTINUOUS
 62
     1
 10
1324.0
 20
680.5
 30
0.0
 11
1328.5
 21
680.5
 31
0.0
  0
LINE
  8
0
  6
CONTINUOUS
 62
     1
 10
1324.0
 20
636.5
 30
0.0
 11
1328.5
 21
636.5
 31
0.0
  0
CIRCLE
  8
0
  6
CONTINUOUS
 62
     1
 10
1322.0
 20
658.5
 30
0.0
 40
2.0
  0
LINE
  8
0
  6
CONTINUOUS
 62
     1
 10
1368.5
 20
646.0
 30
0.0
 11
1343.5
 21
646.0
 31
0.0
  0
LINE
  8
0
  6
CONTINUOUS
 62
     1
 10
1368.5
 20
671.0
 30
0.0
 11
1343.5
 21
671.0
 31
0.0
  0
LINE
  8
0
  6
CONTINUOUS
 62
     1
 10
1343.5
 20
646.0
 30
0.0
 11
1368.5
 21
646.0
 31
0.0
  0
LINE
  8
0
  6
CONTINUOUS
 62
     1
 10
1343.5
 20
671.0
 30
0.0
 11
1368.5
 21
671.0
 31
0.0
  0
LINE
  8
0
  6
CONTINUOUS
 62
     1
 10
1328.5
 20
683.5
 30
0.0
 11
1368.5
 21
683.5
 31
0.0
  0
LINE
  8
0
  6
CONTINUOUS
 62
     1
 10
1383.5
 20
633.5
 30
0.0
 11
1383.5
 21
683.5
 31
0.0
  0
LINE
  8
0
  6
CONTINUOUS
 62
     1
 10
1328.5
 20
633.5
 30
0.0
 11
1383.5
 21
633.5
 31
0.0
  0
LINE
  8
0
  6
CONTINUOUS
 62
     1
 10
1368.5
 20
633.5
 30
0.0
 11
1368.5
 21
683.5
 31
0.0
  0
LINE
  8
0
  6
CONTINUOUS
 62
     1
 10
1343.5
 20
633.5
 30
0.0
 11
1343.5
 21
683.5
 31
0.0
  0
LINE
  8
0
  6
CONTINUOUS
 62
     1
 10
1328.5
 20
633.5
 30
0.0
 11
1328.5
 21
683.5
 31
0.0
  0
LINE
  8
0
  6
CONTINUOUS
 62
     1
 10
1407.0
 20
581.0
 30
0.0
 11
1427.0
 21
581.0
 31
0.0
  0
LINE
  8
0
  6
CONTINUOUS
 62
     1
 10
1285.0
 20
581.0
 30
0.0
 11
1305.0
 21
581.0
 31
0.0
  0
LINE
  8
0
  6
CONTINUOUS
 62
     1
 10
1433.0
 20
587.0
 30
0.0
 11
1433.0
 21
637.139279073
 31
0.0
  0
LINE
  8
0
  6
CONTINUOUS
 62
     1
 10
1279.0
 20
587.0
 30
0.0
 11
1279.0
 21
637.139279073
 31
0.0
  0
LINE
  8
0
  6
LTYPE1
 62
     2
 10
1301.0
 20
648.5
 30
0.0
 11
1301.0
 21
668.5
 31
0.0
  0
LINE
  8
0
  6
LTYPE1
 62
     2
 10
1301.0
 20
668.5
 30
0.0
 11
1276.0
 21
668.5
 31
0.0
  0
LINE
  8
0
  6
LTYPE1
 62
     2
 10
1301.0
 20
648.5
 30
0.0
 11
1276.0
 21
648.5
 31
0.0
  0
LINE
  8
0
  6
LTYPE1
 62
     2
 10
1411.0
 20
648.5
 30
0.0
 11
1411.0
 21
668.5
 31
0.0
  0
LINE
  8
0
  6
LTYPE1
 62
     2
 10
1411.0
 20
668.5
 30
0.0
 11
1436.0
 21
668.5
 31
0.0
  0
LINE
  8
0
  6
LTYPE1
 62
     2
 10
1411.0
 20
648.5
 30
0.0
 11
1436.0
 21
648.5
 31
0.0
  0
LINE
  8
0
  6
LTYPE2
 62
     2
 10
1401.0
 20
543.8
 30
0.0
 11
1401.0
 21
562.5
 31
0.0
  0
LINE
  8
0
  6
LTYPE2
 62
     2
 10
1311.0
 20
543.8
 30
0.0
 11
1311.0
 21
562.5
 31
0.0
  0
LINE
  8
0
  6
LTYPE2
 62
     2
 10
1321.4
 20
705.5
 30
0.0
 11
1297.6
 21
705.5
 31
0.0
  0
LINE
  8
0
  6
LTYPE2
 62
     2
 10
1309.0
 20
694.165527109
 30
0.0
 11
1309.0
 21
716.265527109
 31
0.0
  0
LINE
  8
0
  6
LTYPE2
 62
     2
 10
1390.6
 20
705.5
 30
0.0
 11
1414.4
 21
705.5
 31
0.0
  0
LINE
  8
0
  6
LTYPE2
 62
     2
 10
1403.0
 20
694.165527109
 30
0.0
 11
1403.0
 21
716.265527109
 31
0.0
  0
LINE
  8
0
  6
LTYPE2
 62
     2
 10
1390.6
 20
611.5
 30
0.0
 11
1414.4
 21
611.5
 31
0.0
  0
LINE
  8
0
  6
LTYPE2
 62
     2
 10
1321.4
 20
611.5
 30
0.0
 11
1297.6
 21
611.5
 31
0.0
  0
LINE
  8
0
  6
LTYPE2
 62
     2
 10
1309.0
 20
601.65
 30
0.0
 11
1309.0
 21
624.75
 31
0.0
  0
LINE
  8
0
  6
LTYPE2
 62
     2
 10
1390.6
 20
611.5
 30
0.0
 11
1414.4
 21
611.5
 31
0.0
  0
LINE
  8
0
  6
LTYPE2
 62
     2
 10
1403.0
 20
601.65
 30
0.0
 11
1403.0
 21
624.75
 31
0.0
  0
LINE
  8
0
  6
LTYPE4
 62
     2
 10
1389.9
 20
654.5
 30
0.0
 11
1389.9
 21
662.7
 31
0.0
  0
LINE
  8
0
  6
LTYPE1
 62
     2
 10
1388.0
 20
671.0
 30
0.0
 11
1368.5
 21
671.0
 31
0.0
  0
LINE
  8
0
  6
LTYPE1
 62
     2
 10
1388.0
 20
646.0
 30
0.0
 11
1368.5
 21
646.0
 31
0.0
  0
LINE
  8
0
  6
LTYPE4
 62
     2
 10
1322.1
 20
654.5
 30
0.0
 11
1322.1
 21
662.7
 31
0.0
  0
LINE
  8
0
  6
LTYPE1
 62
     2
 10
1324.0
 20
671.0
 30
0.0
 11
1343.5
 21
671.0
 31
0.0
  0
LINE
  8
0
  6
LTYPE1
 62
     2
 10
1324.0
 20
646.0
 30
0.0
 11
1343.5
 21
646.0
 31
0.0
  0
LINE
  8
0
  6
LTYPE2
 62
     3
 10
1356.0
 20
556.9875
 30
0.0
 11
1356.0
 21
602.15
 31
0.0
  0
LINE
  8
0
  6
CONTINUOUS
 62
     2
 10
1410.5
 20
547.5
 30
0.0
 11
1512.372218677
 21
547.5
 31
0.0
  0
LINE
  8
0
  6
CONTINUOUS
 62
     2
 10
1512.372218677
 20
547.5
 30
0.0
 11
1563.122218677
 21
547.5
 31
0.0
  0
LINE
  8
0
  6
CONTINUOUS
 62
     2
 10
1555.622218677
 20
547.5
 30
0.0
 11
1558.85745674
 21
559.574072829
 31
0.0
  0
LINE
  8
0
  6
CONTINUOUS
 62
     2
 10
1555.622218677
 20
547.5
 30
0.0
 11
1552.386980613
 21
559.574072829
 31
0.0
  0
LINE
  8
0
  6
CONTINUOUS
 62
     2
 10
1279.0
 20
579.5
 30
0.0
 11
1279.0
 21
491.8
 31
0.0
  0
LINE
  8
0
  6
CONTINUOUS
 62
     2
 10
1279.0
 20
499.3
 30
0.0
 11
1291.074072829
 21
496.064761936
 31
0.0
  0
LINE
  8
0
  6
CONTINUOUS
 62
     2
 10
1279.0
 20
499.3
 30
0.0
 11
1291.074072829
 21
502.535238064
 31
0.0
  0
LINE
  8
0
  6
CONTINUOUS
 62
     2
 10
1279.0
 20
499.3
 30
0.0
 11
1433.0
 21
499.3
 31
0.0
  0
LINE
  8
0
  6
CONTINUOUS
 62
     2
 10
1433.0
 20
499.3
 30
0.0
 11
1420.925927171
 21
502.535238064
 31
0.0
  0
LINE
  8
0
  6
CONTINUOUS
 62
     2
 10
1433.0
 20
499.3
 30
0.0
 11
1420.925927171
 21
496.064761936
 31
0.0
  0
LINE
  8
0
  6
CONTINUOUS
 62
     2
 10
1433.0
 20
579.5
 30
0.0
 11
1433.0
 21
491.8
 31
0.0
  0
LINE
  8
0
  6
CONTINUOUS
 62
     2
 10
1276.0
 20
630.0
 30
0.0
 11
1276.0
 21
451.3375
 31
0.0
  0
LINE
  8
0
  6
CONTINUOUS
 62
     2
 10
1436.0
 20
630.0
 30
0.0
 11
1436.0
 21
451.3375
 31
0.0
  0
LINE
  8
0
  6
LTYPE4
 62
     2
 10
1266.7
 20
658.5
 30
0.0
 11
1394.0
 21
658.5
 31
0.0
  0
LINE
  8
0
  6
LTYPE4
 62
     2
 10
1465.0
 20
658.5
 30
0.0
 11
1318.0
 21
658.5
 31
0.0
  0
CIRCLE
  8
0
  6
CONTINUOUS
 62
     2
 10
1356.0
 20
573.0
 30
0.0
 40
10.4775
  0
CIRCLE
  8
0
  6
CONTINUOUS
 62
     2
 10
1356.0
 20
573.0
 30
0.0
 40
9.3155
  0
LINE
  8
0
  6
LTYPE3
 62
     2
 10
1375.9
 20
573.0
 30
0.0
 11
1335.2
 21
573.0
 31
0.0
  0
LINE
  8
0
  6
CONTINUOUS
 62
     1
 10
1297.0
 20
705.6
 30
0.0
 11
1297.0
 21
712.5
 31
0.0
  0
ARC
  8
0
  6
CONTINUOUS
 62
     1
 10
1309.0
 20
705.5
 30
0.0
 40
9.0
 50
4.497151615
 51
179.370401392
  0
ARC
  8
0
  6
CONTINUOUS
 62
     1
 10
1309.0
 20
705.5
 30
0.0
 40
9.0
 50
0.0
 51
4.497151615
  0
ARC
  8
0
  6
CONTINUOUS
 62
     1
 10
1356.0
 20
658.5
 30
0.0
 40
55.0
 50
46.933927913
 51
47.005647371
  0
LINE
  8
0
  6
CONTINUOUS
 62
     2
 10
1519.872218677
 20
658.5
 30
0.0
 11
1516.636980613
 21
646.425927171
 31
0.0
  0
LINE
  8
0
  6
CONTINUOUS
 62
     2
 10
1519.872218677
 20
658.5
 30
0.0
 11
1523.10745674
 21
646.425927171
 31
0.0
  0
LINE
  8
0
  6
CONTINUOUS
 62
     2
 10
1519.872218677
 20
658.5
 30
0.0
 11
1519.872218677
 21
547.5
 31
0.0
  0
LINE
  8
0
  6
CONTINUOUS
 62
     2
 10
1519.872218677
 20
547.5
 30
0.0
 11
1523.10745674
 21
559.574072829
 31
0.0
  0
LINE
  8
0
  6
CONTINUOUS
 62
     2
 10
1519.872218677
 20
547.5
 30
0.0
 11
1516.636980613
 21
559.574072829
 31
0.0
  0
LINE
  8
0
  6
CONTINUOUS
 62
     2
 10
1519.872218677
 20
658.5
 30
0.0
 11
1523.10745674
 21
670.574072829
 31
0.0
  0
LINE
  8
0
  6
CONTINUOUS
 62
     2
 10
1519.872218677
 20
658.5
 30
0.0
 11
1516.636980613
 21
670.574072829
 31
0.0
  0
LINE
  8
0
  6
CONTINUOUS
 62
     2
 10
1443.5
 20
668.5
 30
0.0
 11
1490.0
 21
668.5
 31
0.0
  0
LINE
  8
0
  6
CONTINUOUS
 62
     2
 10
1482.5
 20
668.5
 30
0.0
 11
1485.735238064
 21
680.574072829
 31
0.0
  0
LINE
  8
0
  6
CONTINUOUS
 62
     2
 10
1482.5
 20
668.5
 30
0.0
 11
1479.264761936
 21
680.574072829
 31
0.0
  0
LINE
  8
0
  6
CONTINUOUS
 62
     2
 10
1482.5
 20
648.5
 30
0.0
 11
1479.264761936
 21
636.425927171
 31
0.0
  0
LINE
  8
0
  6
CONTINUOUS
 62
     2
 10
1482.5
 20
648.5
 30
0.0
 11
1485.735238064
 21
636.425927171
 31
0.0
  0
LINE
  8
0
  6
CONTINUOUS
 62
     2
 10
1443.5
 20
648.5
 30
0.0
 11
1490.0
 21
648.5
 31
0.0
  0
ARC
  8
0
  6
CONTINUOUS
 62
     1
 10
1309.0
 20
705.5
 30
0.0
 40
9.0
 50
179.370401392
 51
0.0
  0
LINE
  8
0
  6
CONTINUOUS
 62
     1
 10
1297.0
 20
682.025046491
 30
0.0
 11
1297.0
 21
705.6
 31
0.0
  0
LINE
  8
0
  6
CONTINUOUS
 62
     1
 10
1276.0
 20
637.5
 30
0.0
 11
1276.0
 21
679.5
 31
0.0
  0
LINE
  8
0
  6
CONTINUOUS
 62
     1
 10
1297.0
 20
634.4
 30
0.0
 11
1297.0
 21
604.5
 31
0.0
  0
LINE
  8
0
  6
CONTINUOUS
 62
     1
 10
1331.689508438
 20
717.5
 30
0.0
 11
1302.0
 21
717.5
 31
0.0
  0
LINE
  8
0
  6
CONTINUOUS
 62
     1
 10
1380.310491562
 20
717.5
 30
0.0
 11
1410.0
 21
717.5
 31
0.0
  0
LINE
  8
0
  6
LTYPE1
 62
     2
 10
1331.689508438
 20
717.5
 30
0.0
 11
1380.310491562
 21
717.5
 31
0.0
  0
ARC
  8
0
  6
CONTINUOUS
 62
     1
 10
1403.0
 20
611.5
 30
0.0
 40
9.0
 50
257.160411593
 51
102.672315936
  0
ARC
  8
0
  6
CONTINUOUS
 62
     1
 10
1309.0
 20
611.5
 30
0.0
 40
9.0
 50
77.327684064
 51
280.30484647
  0
LINE
  8
0
  6
CONTINUOUS
 62
     2
 10
1467.5
 20
658.5
 30
0.0
 11
1527.372218677
 21
658.5
 31
0.0
  0
CIRCLE
  8
0
  6
CONTINUOUS
 62
     1
 10
1356.0
 20
658.5
 30
0.0
 40
53.0
  0
LINE
  8
0
  6
CONTINUOUS
 62
     1
 10
1276.0
 20
679.5
 30
0.0
 11
1309.0
 21
683.4679302
 31
0.0
  0
LINE
  8
0
  6
CONTINUOUS
 62
     1
 10
1276.0
 20
637.5
 30
0.0
 11
1310.0
 21
633.411829491
 31
0.0
  0
LINE
  8
0
  6
CONTINUOUS
 62
     1
 10
1311.0
 20
599.0
 30
0.0
 11
1311.0
 21
632.0
 31
0.0
  0
LINE
  8
0
  6
CONTINUOUS
 62
     1
 10
1436.0
 20
637.5
 30
0.0
 11
1402.0
 21
633.411829491
 31
0.0
  0
LINE
  8
0
  6
CONTINUOUS
 62
     1
 10
1401.0
 20
599.0
 30
0.0
 11
1401.0
 21
630.0
 31
0.0
  0
LINE
  8
0
  6
CONTINUOUS
 62
     1
 10
1436.0
 20
679.5
 30
0.0
 11
1402.0
 21
683.588170509
 31
0.0
  0
LINE
  8
0
  6
CONTINUOUS
 62
     2
 10
1276.0
 20
458.8375
 30
0.0
 11
1288.074072829
 21
455.602261936
 31
0.0
  0
LINE
  8
0
  6
CONTINUOUS
 62
     2
 10
1276.0
 20
458.8375
 30
0.0
 11
1288.074072829
 21
462.072738064
 31
0.0
  0
LINE
  8
0
  6
CONTINUOUS
 62
     2
 10
1276.0
 20
458.8375
 30
0.0
 11
1436.0
 21
458.8375
 31
0.0
  0
LINE
  8
0
  6
CONTINUOUS
 62
     2
 10
1436.0
 20
458.8375
 30
0.0
 11
1423.925927171
 21
462.072738064
 31
0.0
  0
LINE
  8
0
  6
CONTINUOUS
 62
     2
 10
1436.0
 20
458.8375
 30
0.0
 11
1423.925927171
 21
455.602261936
 31
0.0
  0
TEXT
  8
0
  6
CONTINUOUS
 62
     2
 10
614.0
 20
528.0
 30
0.0
 40
18.0
  1
ＰＦ１／２
 50
0.0
 41
0.9
 51
0.0
  7
KANJI17
  0
TEXT
  8
0
  6
CONTINUOUS
 62
     2
 10
302.75
 20
413.3625
 30
0.0
 40
18.0
  1
８６
 50
0.0
 41
0.9
 51
0.0
  7
KANJI17
  0
TEXT
  8
0
  6
CONTINUOUS
 62
     2
 10
375.75
 20
413.3625
 30
0.0
 40
18.0
  1
６０
 50
0.0
 41
0.9
 51
0.0
  7
KANJI17
  0
TEXT
  8
0
  6
CONTINUOUS
 62
     2
 10
698.75
 20
413.3625
 30
0.0
 40
18.0
  1
ｍｉｎ．Ｌ
 50
0.0
 41
0.9
 51
0.0
  7
KANJI17
  0
TEXT
  8
0
  6
CONTINUOUS
 62
     2
 10
618.25
 20
369.0
 30
0.0
 40
18.0
  1
ｍｉｎ．ＡＬ
 50
0.0
 41
0.9
 51
0.0
  7
KANJI17
  0
TEXT
  8
0
  6
CONTINUOUS
 62
     2
 10
676.25
 20
456.7
 30
0.0
 40
18.0
  1
Ｃ
 50
0.0
 41
0.9
 51
0.0
  7
KANJI17
  0
TEXT
  8
0
  6
CONTINUOUS
 62
     2
 10
462.007352941
 20
471.5
 30
0.0
 40
18.0
  1
推力リミッタ
 50
0.0
 41
0.9
 51
0.0
  7
KANJI17
  0
TEXT
  8
0
  6
CONTINUOUS
 62
     2
 10
1126.6
 20
643.75
 30
0.0
 40
18.0
  1
５０
 50
90.0
 41
0.9
 51
0.0
  7
KANJI17
  0
TEXT
  8
0
  6
CONTINUOUS
 62
     2
 10
1095.0
 20
734.6
 30
0.0
 40
18.0
  1
φ２５Ｈ１０
 50
0.0
 41
0.9
 51
0.0
  7
KANJI17
  0
TEXT
  8
0
  6
CONTINUOUS
 62
     2
 10
1139.5
 20
710.1
 30
0.0
 40
18.0
  1
ｄ９
 50
0.0
 41
0.9
 51
0.0
  7
KANJI17
  0
TEXT
  8
0
  6
CONTINUOUS
 62
     2
 10
1011.75
 20
456.7
 30
0.0
 40
18.0
  1
５０
 50
0.0
 41
0.9
 51
0.0
  7
KANJI17
  0
TEXT
  8
0
  6
CONTINUOUS
 62
     2
 10
742.0
 20
576.0
 30
0.0
 40
18.0
  1
給脂口
 50
0.0
 41
0.9
 51
0.0
  7
KANJI17
  0
TEXT
  8
0
  6
CONTINUOUS
 62
     2
 10
980.625927171
 20
456.485238064
 30
0.0
 40
18.0
  1
Ｐ
 50
0.0
 41
0.9
 51
0.0
  7
KANJI17
  0
TEXT
  8
0
  6
CONTINUOUS
 62
     2
 10
1334.25
 20
504.3
 30
0.0
 40
18.0
  1
１５４
 50
0.0
 41
0.9
 51
0.0
  7
KANJI17
  0
TEXT
  8
0
  6
CONTINUOUS
 62
     2
 10
1334.25
 20
463.8375
 30
0.0
 40
18.0
  1
１６０
 50
0.0
 41
0.9
 51
0.0
  7
KANJI17
  0
TEXT
  8
0
  6
CONTINUOUS
 62
     2
 10
1514.872218677
 20
581.25
 30
0.0
 40
18.0
  1
１１１
 50
90.0
 41
0.9
 51
0.0
  7
KANJI17
  0
TEXT
  8
0
  6
CONTINUOUS
 62
     2
 10
957.625927171
 20
473.485238064
 30
-1.8
 40
18.0
  1
ｍｉｎ
 50
0.0
 41
0.833333333
 51
0.0
  7
KANJI18
  0
LINE
  8
0
  6
CONTINUOUS
 62
     1
 10
1523.37
 20
1674.9
 30
0.0
 11
1523.37
 21
1554.78
 31
0.0
  0
LINE
  8
0
  6
CONTINUOUS
 62
     2
 10
1454.07
 20
1674.9
 30
0.0
 11
1454.07
 21
1554.78
 31
0.0
  0
LINE
  8
0
  6
CONTINUOUS
 62
     2
 10
1384.77
 20
1674.9
 30
0.0
 11
1384.77
 21
1554.78
 31
0.0
  0
LINE
  8
0
  6
CONTINUOUS
 62
     1
 10
1292.37
 20
1674.9
 30
0.0
 11
1292.37
 21
1554.78
 31
0.0
  0
LINE
  8
0
  6
CONTINUOUS
 62
     1
 10
1292.37
 20
1674.9
 30
0.0
 11
1523.37
 21
1674.9
 31
0.0
  0
LINE
  8
0
  6
CONTINUOUS
 62
     1
 10
1292.37
 20
1637.94
 30
0.0
 11
1523.37
 21
1637.94
 31
0.0
  0
LINE
  8
0
  6
CONTINUOUS
 62
     2
 10
1292.37
 20
1610.22
 30
0.0
 11
1523.37
 21
1610.22
 31
0.0
  0
LINE
  8
0
  6
CONTINUOUS
 62
     2
 10
1292.37
 20
1582.5
 30
0.0
 11
1523.37
 21
1582.5
 31
0.0
  0
LINE
  8
0
  6
CONTINUOUS
 62
     1
 10
1292.37
 20
1554.78
 30
0.0
 11
1523.37
 21
1554.78
 31
0.0
  0
TEXT
  8
0
  6
CONTINUOUS
 62
     2
 10
1463.31
 20
1658.73
 30
1.386
 40
13.86
  1
起動電流
 50
0.0
 41
0.9
 51
0.0
  7
KANJI19
  0
TEXT
  8
0
  6
CONTINUOUS
 62
     2
 10
1463.31
 20
1642.56
 30
1.386
 40
13.86
  1
　　　Ａ
 50
0.0
 41
0.9
 51
0.0
  7
KANJI19
  0
TEXT
  8
0
  6
CONTINUOUS
 62
     2
 10
1394.01
 20
1658.73
 30
1.386
 40
13.86
  1
定格電流
 50
0.0
 41
0.9
 51
0.0
  7
KANJI19
  0
TEXT
  8
0
  6
CONTINUOUS
 62
     2
 10
1394.01
 20
1642.56
 30
1.386
 40
13.86
  1
　　　Ａ
 50
0.0
 41
0.9
 51
0.0
  7
KANJI19
  0
TEXT
  8
0
  6
CONTINUOUS
 62
     2
 10
1300.224
 20
1589.43
 30
1.386
 40
13.86
  1
２００／６０
 50
0.0
 41
0.9
 51
0.0
  7
KANJI19
  0
TEXT
  8
0
  6
CONTINUOUS
 62
     2
 10
1300.224
 20
1658.73
 30
1.386
 40
13.86
  1
電圧／周波数
 50
0.0
 41
0.9
 51
0.0
  7
KANJI19
  0
TEXT
  8
0
  6
CONTINUOUS
 62
     2
 10
1300.224
 20
1642.56
 30
1.386
 40
13.86
  1
　Ｖ／Ｈｚ
 50
0.0
 41
0.9
 51
0.0
  7
KANJI19
  0
TEXT
  8
0
  6
CONTINUOUS
 62
     2
 10
1300.224
 20
1617.15
 30
1.386
 40
13.86
  1
２００／５０
 50
0.0
 41
0.9
 51
0.0
  7
KANJI19
  0
TEXT
  8
0
  6
CONTINUOUS
 62
     2
 10
1300.224
 20
1561.71
 30
1.386
 40
13.86
  1
２２０／６０
 50
0.0
 41
0.9
 51
0.0
  7
KANJI19
  0
LINE
  8
0
  6
CONTINUOUS
 62
     1
 10
1246.17
 20
1674.9
 30
0.0
 11
1246.17
 21
1554.78
 31
0.0
  0
LINE
  8
0
  6
CONTINUOUS
 62
     2
 10
1176.87
 20
1674.9
 30
0.0
 11
1176.87
 21
1554.78
 31
0.0
  0
LINE
  8
0
  6
CONTINUOUS
 62
     2
 10
1107.57
 20
1674.9
 30
0.0
 11
1107.57
 21
1554.78
 31
0.0
  0
LINE
  8
0
  6
CONTINUOUS
 62
     1
 10
1015.17
 20
1674.9
 30
0.0
 11
1015.17
 21
1554.78
 31
0.0
  0
LINE
  8
0
  6
CONTINUOUS
 62
     1
 10
1015.17
 20
1674.9
 30
0.0
 11
1246.17
 21
1674.9
 31
0.0
  0
LINE
  8
0
  6
CONTINUOUS
 62
     1
 10
1015.17
 20
1637.94
 30
0.0
 11
1246.17
 21
1637.94
 31
0.0
  0
LINE
  8
0
  6
CONTINUOUS
 62
     2
 10
1015.17
 20
1610.22
 30
0.0
 11
1246.17
 21
1610.22
 31
0.0
  0
LINE
  8
0
  6
CONTINUOUS
 62
     2
 10
1015.17
 20
1582.5
 30
0.0
 11
1246.17
 21
1582.5
 31
0.0
  0
LINE
  8
0
  6
CONTINUOUS
 62
     1
 10
1015.17
 20
1554.78
 30
0.0
 11
1246.17
 21
1554.78
 31
0.0
  0
TEXT
  8
0
  6
CONTINUOUS
 62
     2
 10
1186.11
 20
1658.73
 30
1.386
 40
13.86
  1
起動電流
 50
0.0
 41
0.9
 51
0.0
  7
KANJI19
  0
TEXT
  8
0
  6
CONTINUOUS
 62
     2
 10
1186.11
 20
1642.56
 30
1.386
 40
13.86
  1
　　　Ａ
 50
0.0
 41
0.9
 51
0.0
  7
KANJI19
  0
TEXT
  8
0
  6
CONTINUOUS
 62
     2
 10
1116.81
 20
1658.73
 30
1.386
 40
13.86
  1
定格電流
 50
0.0
 41
0.9
 51
0.0
  7
KANJI19
  0
TEXT
  8
0
  6
CONTINUOUS
 62
     2
 10
1116.81
 20
1642.56
 30
1.386
 40
13.86
  1
　　　Ａ
 50
0.0
 41
0.9
 51
0.0
  7
KANJI19
  0
TEXT
  8
0
  6
CONTINUOUS
 62
     2
 10
1023.024
 20
1658.73
 30
1.386
 40
13.86
  1
電圧／周波数
 50
0.0
 41
0.9
 51
0.0
  7
KANJI19
  0
TEXT
  8
0
  6
CONTINUOUS
 62
     2
 10
1023.024
 20
1642.56
 30
1.386
 40
13.86
  1
　Ｖ／Ｈｚ
 50
0.0
 41
0.9
 51
0.0
  7
KANJI19
  0
TEXT
  8
0
  6
CONTINUOUS
 62
     2
 10
1023.024
 20
1617.15
 30
1.386
 40
13.86
  1
４００／５０
 50
0.0
 41
0.9
 51
0.0
  7
KANJI19
  0
TEXT
  8
0
  6
CONTINUOUS
 62
     2
 10
1023.024
 20
1589.43
 30
1.386
 40
13.86
  1
４００／６０
 50
0.0
 41
0.9
 51
0.0
  7
KANJI19
  0
TEXT
  8
0
  6
CONTINUOUS
 62
     2
 10
1023.024
 20
1561.71
 30
1.386
 40
13.86
  1
４４０／６０
 50
0.0
 41
0.9
 51
0.0
  7
KANJI19
  0
TEXT
  8
0
  6
CONTINUOUS
 62
     2
 10
1119.267493476
 20
1615.15
 30
1.386
 40
13.86
  1
　３．２
 50
0.0
 41
0.9
 51
0.0
  7
KANJI19
  0
TEXT
  8
0
  6
CONTINUOUS
 62
     2
 10
1119.267493476
 20
1587.43
 30
1.386
 40
13.86
  1
　２．８
 50
0.0
 41
0.9
 51
0.0
  7
KANJI19
  0
TEXT
  8
0
  6
CONTINUOUS
 62
     2
 10
1119.267493476
 20
1559.71
 30
1.386
 40
13.86
  1
　２．７
 50
0.0
 41
0.9
 51
0.0
  7
KANJI19
  0
TEXT
  8
0
  6
CONTINUOUS
 62
     2
 10
1396.467493476
 20
1559.71
 30
1.386
 40
13.86
  1
　５．３
 50
0.0
 41
0.9
 51
0.0
  7
KANJI19
  0
TEXT
  8
0
  6
CONTINUOUS
 62
     2
 10
1396.467493476
 20
1587.43
 30
1.386
 40
13.86
  1
　５．２
 50
0.0
 41
0.9
 51
0.0
  7
KANJI19
  0
TEXT
  8
0
  6
CONTINUOUS
 62
     2
 10
1396.467493476
 20
1615.15
 30
1.386
 40
13.86
  1
　６．１
 50
0.0
 41
0.9
 51
0.0
  7
KANJI19
  0
TEXT
  8
0
  6
CONTINUOUS
 62
     2
 10
1465.767493476
 20
1615.15
 30
1.386
 40
13.86
  1
２５．１
 50
0.0
 41
0.9
 51
0.0
  7
KANJI19
  0
TEXT
  8
0
  6
CONTINUOUS
 62
     2
 10
1465.767493476
 20
1587.43
 30
1.386
 40
13.86
  1
２２．５
 50
0.0
 41
0.9
 51
0.0
  7
KANJI19
  0
TEXT
  8
0
  6
CONTINUOUS
 62
     2
 10
1465.767493476
 20
1559.71
 30
1.386
 40
13.86
  1
２４．８
 50
0.0
 41
0.9
 51
0.0
  7
KANJI19
  0
TEXT
  8
0
  6
CONTINUOUS
 62
     2
 10
1188.567493476
 20
1615.15
 30
1.386
 40
13.86
  1
１２．５
 50
0.0
 41
0.9
 51
0.0
  7
KANJI19
  0
TEXT
  8
0
  6
CONTINUOUS
 62
     2
 10
1188.567493476
 20
1587.43
 30
1.386
 40
13.86
  1
１１．３
 50
0.0
 41
0.9
 51
0.0
  7
KANJI19
  0
TEXT
  8
0
  6
CONTINUOUS
 62
     2
 10
1188.567493476
 20
1559.71
 30
1.386
 40
13.86
  1
１２．４
 50
0.0
 41
0.9
 51
0.0
  7
KANJI19
  0
LINE
  8
0
  6
CONTINUOUS
 62
     1
 10
956.0
 20
693.5
 30
0.0
 11
551.0
 21
693.5
 31
0.0
  0
LINE
  8
0
  6
CONTINUOUS
 62
     1
 10
956.0
 20
623.5
 30
0.0
 11
956.0
 21
693.5
 31
0.0
  0
LINE
  8
0
  6
CONTINUOUS
 62
     1
 10
956.0
 20
623.5
 30
0.0
 11
551.0
 21
623.5
 31
0.0
  0
LINE
  8
0
  6
CONTINUOUS
 62
     1
 10
921.0
 20
623.5
 30
0.0
 11
921.0
 21
693.5
 31
0.0
  0
LINE
  8
2
  6
CONTINUOUS
 62
     2
 10
645.5
 20
693.5
 30
0.0
 11
642.0
 21
693.5
 31
0.0
  0
LINE
  8
2
  6
CONTINUOUS
 62
     2
 10
648.0
 20
693.5
 30
0.0
 11
644.117714323
 21
679.011112606
 31
0.0
  0
LINE
  8
2
  6
CONTINUOUS
 62
     2
 10
648.0
 20
693.5
 30
0.0
 11
651.882285677
 21
679.011112606
 31
0.0
  0
LINE
  8
2
  6
CONTINUOUS
 62
     2
 10
648.0
 20
693.5
 30
0.0
 11
648.0
 21
623.5
 31
0.0
  0
LINE
  8
2
  6
CONTINUOUS
 62
     2
 10
648.0
 20
623.5
 30
0.0
 11
651.882285677
 21
637.988887394
 31
0.0
  0
LINE
  8
2
  6
CONTINUOUS
 62
     2
 10
648.0
 20
623.5
 30
0.0
 11
644.117714323
 21
637.988887394
 31
0.0
  0
LINE
  8
2
  6
CONTINUOUS
 62
     2
 10
654.0
 20
623.5
 30
0.0
 11
654.0
 21
623.5
 31
0.0
  0
TEXT
  8
2
  6
CONTINUOUS
 62
     3
 10
642.0
 20
634.2
 30
0.0
 40
18.0
  1
φ７０
 50
90.0
 41
0.9
 51
0.0
  7
KANJI17
  0
LINE
  8
0
  6
CONTINUOUS
 62
     1
 10
1016.0
 20
846.6
 30
0.0
 11
1076.0
 21
846.6
 31
0.0
  0
LINE
  8
0
  6
CONTINUOUS
 62
     1
 10
1076.0
 20
831.6
 30
0.0
 11
1076.0
 21
846.6
 31
0.0
  0
LINE
  8
0
  6
CONTINUOUS
 62
     1
 10
1001.0
 20
831.6
 30
0.0
 11
1076.0
 21
831.6
 31
0.0
  0
LINE
  8
0
  6
CONTINUOUS
 62
     1
 10
1029.0
 20
827.1
 30
0.0
 11
1073.0
 21
827.1
 31
0.0
  0
LINE
  8
0
  6
CONTINUOUS
 62
     1
 10
1038.5
 20
821.1
 30
0.0
 11
1063.5
 21
821.1
 31
0.0
  0
LINE
  8
0
  6
CONTINUOUS
 62
     1
 10
1063.5
 20
821.1
 30
0.0
 11
1063.5
 21
827.1
 31
0.0
  0
LINE
  8
0
  6
CONTINUOUS
 62
     1
 10
1038.5
 20
821.1
 30
0.0
 11
1038.5
 21
827.1
 31
0.0
  0
LINE
  8
0
  6
CONTINUOUS
 62
     1
 10
1073.0
 20
827.1
 30
0.0
 11
1073.0
 21
831.6
 31
0.0
  0
LINE
  8
0
  6
CONTINUOUS
 62
     1
 10
1029.0
 20
827.1
 30
0.0
 11
1029.0
 21
831.6
 31
0.0
  0
CIRCLE
  8
0
  6
CONTINUOUS
 62
     1
 10
1051.0
 20
825.1
 30
0.0
 40
2.0
  0
LINE
  8
0
  6
LTYPE4
 62
     2
 10
1047.0
 20
825.2
 30
0.0
 11
1055.2
 21
825.2
 31
0.0
  0
LINE
  8
0
  6
LTYPE1
 62
     2
 10
1063.5
 20
827.1
 30
0.0
 11
1063.5
 21
846.6
 31
0.0
  0
LINE
  8
0
  6
LTYPE1
 62
     2
 10
1038.5
 20
827.1
 30
0.0
 11
1038.5
 21
846.6
 31
0.0
  0
LINE
  8
0
  6
CONTINUOUS
 62
     1
 10
1016.0
 20
871.6
 30
0.0
 11
1076.0
 21
871.6
 31
0.0
  0
LINE
  8
0
  6
CONTINUOUS
 62
     1
 10
1076.0
 20
886.6
 30
0.0
 11
1076.0
 21
871.6
 31
0.0
  0
LINE
  8
0
  6
CONTINUOUS
 62
     1
 10
1001.0
 20
886.6
 30
0.0
 11
1076.0
 21
886.6
 31
0.0
  0
LINE
  8
0
  6
CONTINUOUS
 62
     1
 10
1029.0
 20
891.1
 30
0.0
 11
1073.0
 21
891.1
 31
0.0
  0
LINE
  8
0
  6
CONTINUOUS
 62
     1
 10
1038.5
 20
897.1
 30
0.0
 11
1063.5
 21
897.1
 31
0.0
  0
LINE
  8
0
  6
CONTINUOUS
 62
     1
 10
1063.5
 20
897.1
 30
0.0
 11
1063.5
 21
891.1
 31
0.0
  0
LINE
  8
0
  6
CONTINUOUS
 62
     1
 10
1038.5
 20
897.1
 30
0.0
 11
1038.5
 21
891.1
 31
0.0
  0
LINE
  8
0
  6
CONTINUOUS
 62
     1
 10
1073.0
 20
891.1
 30
0.0
 11
1073.0
 21
886.6
 31
0.0
  0
LINE
  8
0
  6
CONTINUOUS
 62
     1
 10
1029.0
 20
891.1
 30
0.0
 11
1029.0
 21
886.6
 31
0.0
  0
CIRCLE
  8
0
  6
CONTINUOUS
 62
     1
 10
1051.0
 20
893.1
 30
0.0
 40
2.0
  0
LINE
  8
0
  6
LTYPE4
 62
     2
 10
1047.0
 20
893.0
 30
0.0
 11
1055.2
 21
893.0
 31
0.0
  0
LINE
  8
0
  6
LTYPE1
 62
     2
 10
1063.5
 20
891.1
 30
0.0
 11
1063.5
 21
871.6
 31
0.0
  0
LINE
  8
0
  6
LTYPE1
 62
     2
 10
1038.5
 20
891.1
 30
0.0
 11
1038.5
 21
871.6
 31
0.0
  0
LINE
  8
0
  6
CONTINUOUS
 62
     1
 10
1016.0
 20
846.6
 30
0.0
 11
1016.0
 21
871.6
 31
0.0
  0
LINE
  8
0
  6
CONTINUOUS
 62
     1
 10
1001.0
 20
831.6
 30
0.0
 11
1001.0
 21
886.6
 31
0.0
  0
LINE
  8
0
  6
CONTINUOUS
 62
     1
 10
1038.5
 20
846.6
 30
0.0
 11
1038.5
 21
871.6
 31
0.0
  0
LINE
  8
0
  6
CONTINUOUS
 62
     1
 10
1063.5
 20
846.6
 30
0.0
 11
1063.5
 21
871.6
 31
0.0
  0
LINE
  8
0
  6
LTYPE4
 62
     2
 10
1051.0
 20
816.1
 30
0.0
 11
1051.0
 21
897.1
 31
0.0
  0
LINE
  8
0
  6
LTYPE4
 62
     2
 10
1051.0
 20
902.1
 30
0.0
 11
1051.0
 21
821.1
 31
0.0
  0
LINE
  8
0
  6
CONTINUOUS
 62
     1
 10
1038.5
 20
871.6
 30
0.0
 11
1038.5
 21
846.6
 31
0.0
  0
LINE
  8
0
  6
CONTINUOUS
 62
     1
 10
1063.5
 20
871.6
 30
0.0
 11
1063.5
 21
846.6
 31
0.0
  0
LINE
  8
0
  6
CONTINUOUS
 62
     2
 10
1083.5
 20
831.6
 30
0.0
 11
1161.0
 21
831.6
 31
0.0
  0
LINE
  8
0
  6
CONTINUOUS
 62
     2
 10
1153.5
 20
831.6
 30
0.0
 11
1156.735238064
 21
843.674072829
 31
0.0
  0
LINE
  8
0
  6
CONTINUOUS
 62
     2
 10
1153.5
 20
831.6
 30
0.0
 11
1150.264761936
 21
843.674072829
 31
0.0
  0
LINE
  8
0
  6
CONTINUOUS
 62
     2
 10
1153.5
 20
831.6
 30
0.0
 11
1153.5
 21
886.6
 31
0.0
  0
LINE
  8
0
  6
CONTINUOUS
 62
     2
 10
1153.5
 20
886.6
 30
0.0
 11
1150.264761936
 21
874.525927171
 31
0.0
  0
LINE
  8
0
  6
CONTINUOUS
 62
     2
 10
1153.5
 20
886.6
 30
0.0
 11
1156.735238064
 21
874.525927171
 31
0.0
  0
LINE
  8
0
  6
CONTINUOUS
 62
     2
 10
1083.5
 20
886.6
 30
0.0
 11
1161.0
 21
886.6
 31
0.0
  0
LINE
  8
0
  6
CONTINUOUS
 62
     2
 10
1083.5
 20
846.6
 30
0.0
 11
1132.5
 21
846.6
 31
0.0
  0
LINE
  8
0
  6
CONTINUOUS
 62
     2
 10
1125.0
 20
846.6
 30
0.0
 11
1121.764761936
 21
834.525927171
 31
0.0
  0
LINE
  8
0
  6
CONTINUOUS
 62
     2
 10
1125.0
 20
846.6
 30
0.0
 11
1128.235238064
 21
834.525927171
 31
0.0
  0
LINE
  8
0
  6
CONTINUOUS
 62
     2
 10
1125.0
 20
827.85
 30
0.0
 11
1125.0
 21
918.85
 31
0.0
  0
LINE
  8
0
  6
CONTINUOUS
 62
     2
 10
1125.0
 20
871.6
 30
0.0
 11
1128.235238064
 21
883.674072829
 31
0.0
  0
LINE
  8
0
  6
CONTINUOUS
 62
     2
 10
1125.0
 20
871.6
 30
0.0
 11
1121.764761936
 21
883.674072829
 31
0.0
  0
LINE
  8
0
  6
CONTINUOUS
 62
     2
 10
1083.5
 20
871.6
 30
0.0
 11
1132.5
 21
871.6
 31
0.0
  0
LINE
  8
0
  6
CONTINUOUS
 62
     2
 10
1016.0
 20
839.1
 30
0.0
 11
1016.0
 21
779.1
 31
0.0
  0
LINE
  8
0
  6
CONTINUOUS
 62
     2
 10
1016.0
 20
786.6
 30
0.0
 11
1028.074072829
 21
783.364761936
 31
0.0
  0
LINE
  8
0
  6
CONTINUOUS
 62
     2
 10
1016.0
 20
786.6
 30
0.0
 11
1028.074072829
 21
789.835238064
 31
0.0
  0
LINE
  8
0
  6
CONTINUOUS
 62
     2
 10
1016.0
 20
786.6
 30
0.0
 11
1051.0
 21
786.6
 31
0.0
  0
LINE
  8
0
  6
CONTINUOUS
 62
     2
 10
1051.0
 20
786.6
 30
0.0
 11
1038.925927171
 21
789.835238064
 31
0.0
  0
LINE
  8
0
  6
CONTINUOUS
 62
     2
 10
1051.0
 20
786.6
 30
0.0
 11
1038.925927171
 21
783.364761936
 31
0.0
  0
LINE
  8
0
  6
CONTINUOUS
 62
     2
 10
1051.0
 20
808.6
 30
0.0
 11
1051.0
 21
779.1
 31
0.0
  0
LINE
  8
0
  6
CONTINUOUS
 62
     2
 10
1016.0
 20
786.6
 30
0.0
 11
1028.074072829
 21
783.364761936
 31
0.0
  0
LINE
  8
0
  6
CONTINUOUS
 62
     2
 10
1016.0
 20
786.6
 30
0.0
 11
1028.074072829
 21
789.835238064
 31
0.0
  0
LINE
  8
0
  6
CONTINUOUS
 62
     2
 10
1034.75
 20
786.6
 30
0.0
 11
953.75
 21
786.6
 31
0.0
  0
LINE
  8
0
  6
CONTINUOUS
 62
     2
 10
1001.0
 20
786.6
 30
0.0
 11
988.925927171
 21
789.835238064
 31
0.0
  0
LINE
  8
0
  6
CONTINUOUS
 62
     2
 10
1001.0
 20
786.6
 30
0.0
 11
988.925927171
 21
783.364761936
 31
0.0
  0
LINE
  8
0
  6
CONTINUOUS
 62
     2
 10
1001.0
 20
824.1
 30
0.0
 11
1001.0
 21
779.1
 31
0.0
  0
LINE
  8
0
  6
LTYPE3
 62
     2
 10
933.7
 20
859.1
 30
0.0
 11
1096.0
 21
859.1
 31
0.0
  0
LINE
  8
0
  6
CONTINUOUS
 62
     1
 10
964.776112865
 20
884.1
 30
0.0
 11
1001.0
 21
884.1
 31
0.0
  0
LINE
  8
0
  6
CONTINUOUS
 62
     1
 10
964.776112865
 20
834.1
 30
0.0
 11
1001.0
 21
834.1
 31
0.0
  0
TEXT
  8
0
  6
CONTINUOUS
 62
     2
 10
1148.5
 20
844.85
 30
0.0
 40
18.0
  1
５５
 50
90.0
 41
0.9
 51
0.0
  7
KANJI17
  0
TEXT
  8
0
  6
CONTINUOUS
 62
     2
 10
1120.0
 20
890.35
 30
0.0
 40
18.0
  1
２５
 50
90.0
 41
0.9
 51
0.0
  7
KANJI17
  0
TEXT
  8
0
  6
CONTINUOUS
 62
     2
 10
1019.25
 20
791.6
 30
0.0
 40
18.0
  1
３５
 50
0.0
 41
0.9
 51
0.0
  7
KANJI17
  0
TEXT
  8
0
  6
CONTINUOUS
 62
     2
 10
954.75
 20
789.6
 30
0.0
 40
18.0
  1
１５
 50
0.0
 41
0.9
 51
0.0
  7
KANJI17
  0
LINE
  8
2
  6
CONTINUOUS
 62
     2
 10
1051.0
 20
794.6
 30
0.0
 11
1051.0
 21
780.6
 31
0.0
  0
LINE
  8
2
  6
CONTINUOUS
 62
     2
 10
1051.0
 20
786.6
 30
0.0
 11
1036.511112606
 21
790.482285677
 31
0.0
  0
LINE
  8
2
  6
CONTINUOUS
 62
     2
 10
1051.0
 20
786.6
 30
0.0
 11
1036.511112606
 21
782.717714323
 31
0.0
  0
LINE
  8
2
  6
CONTINUOUS
 62
     2
 10
1028.5
 20
786.6
 30
0.0
 11
1051.0
 21
786.6
 31
0.0
  0
LINE
  8
2
  6
CONTINUOUS
 62
     2
 10
1051.0
 20
786.6
 30
0.0
 11
1076.0
 21
786.6
 31
0.0
  0
LINE
  8
2
  6
CONTINUOUS
 62
     2
 10
1076.0
 20
786.6
 30
0.0
 11
1130.9
 21
786.6
 31
0.0
  0
LINE
  8
2
  6
CONTINUOUS
 62
     2
 10
1076.0
 20
786.6
 30
0.0
 11
1090.488887394
 21
782.717714323
 31
0.0
  0
LINE
  8
2
  6
CONTINUOUS
 62
     2
 10
1076.0
 20
786.6
 30
0.0
 11
1090.488887394
 21
790.482285677
 31
0.0
  0
LINE
  8
2
  6
CONTINUOUS
 62
     2
 10
1076.0
 20
825.6
 30
0.0
 11
1076.0
 21
780.6
 31
0.0
  0
TEXT
  8
2
  6
CONTINUOUS
 62
     3
 10
1098.5
 20
792.6
 30
0.0
 40
18.0
  1
２５
 50
0.0
 41
0.9
 51
0.0
  7
KANJI17
  0
ARC
  8
0
  6
CONTINUOUS
 62
     1
 10
1356.0
 20
658.5
 30
0.0
 40
35.0
 50
226.169139328
 51
312.709389957
  0
ARC
  8
0
  6
CONTINUOUS
 62
     1
 10
1356.0
 20
658.5
 30
0.0
 40
35.0
 50
45.590657215
 51
133.22853026
  0
TEXT
  8
0
  6
CONTINUOUS
 62
     2
 10
1861.92
 20
251.7
 30
0.0
 40
21.0
  1
ＭＣＬＤ１－
 50
0.0
 41
0.793650794
 51
0.0
  7
KANJI20
  0
TEXT
  8
0
  6
CONTINUOUS
 62
     2
 10
1976.7200334
 20
155.699994
 30
13.0
 40
30.0
  1
３００２４４６
 50
0.0
 41
0.8
 51
0.0
  7
KANJI21
  0
TEXT
  8
0
  6
CONTINUOUS
 62
     2
 10
176.4
 20
26.4
 30
0.0
 40
18.0
  1
ＦＤ　Ｎｏ．ＭＣ１９２
 50
0.0
 41
0.9
 51
0.0
  7
KANJI22
  0
LINE
  8
0
  6
CONTINUOUS
 62
     1
 10
1352.5
 20
703.0
 30
0.0
 11
1359.5
 21
703.0
 31
0.0
  0
LINE
  8
0
  6
CONTINUOUS
 62
     1
 10
1352.5
 20
703.0
 30
0.0
 11
1352.5
 21
705.870877129
 31
0.0
  0
LINE
  8
0
  6
CONTINUOUS
 62
     1
 10
1359.5
 20
703.0
 30
0.0
 11
1359.5
 21
705.870877129
 31
0.0
  0
LINE
  8
0
  6
CONTINUOUS
 62
     1
 10
1319.211869532
 20
633.218911087
 30
0.0
 11
1315.711869532
 21
639.281088913
 31
0.0
  0
LINE
  8
0
  6
CONTINUOUS
 62
     1
 10
1396.288130468
 20
639.281088913
 30
0.0
 11
1392.788130468
 21
633.218911087
 31
0.0
  0
ARC
  8
0
  6
CONTINUOUS
 62
     1
 10
1356.0
 20
658.5
 30
0.0
 40
47.5
 50
94.225623919
 51
205.774376081
  0
LINE
  8
0
  6
CONTINUOUS
 62
     1
 10
1315.711869532
 20
639.281088913
 30
0.0
 11
1313.225617006
 21
637.845650349
 31
0.0
  0
LINE
  8
0
  6
CONTINUOUS
 62
     1
 10
1319.211869532
 20
633.218911087
 30
0.0
 11
1316.725617006
 21
631.783472522
 31
0.0
  0
ARC
  8
0
  6
CONTINUOUS
 62
     1
 10
1356.0
 20
658.5
 30
0.0
 40
47.5
 50
334.225623919
 51
85.774376081
  0
LINE
  8
0
  6
CONTINUOUS
 62
     1
 10
1396.288130468
 20
639.281088913
 30
0.0
 11
1398.774382994
 21
637.845650349
 31
0.0
  0
LINE
  8
0
  6
CONTINUOUS
 62
     1
 10
1392.788130468
 20
633.218911087
 30
0.0
 11
1395.274382994
 21
631.783472522
 31
0.0
  0
ARC
  8
0
  6
CONTINUOUS
 62
     1
 10
1356.0
 20
658.5
 30
0.0
 40
47.5
 50
214.225623919
 51
325.774376081
  0
LINE
  8
0
  6
CONTINUOUS
 62
     6
 10
356.629425053
 20
1631.447759827
 30
0.0
 11
124.584646507
 21
1631.447759827
 31
0.0
  0
LINE
  8
0
  6
CONTINUOUS
 62
     3
 10
356.629425053
 20
1603.985259827
 30
0.0
 11
124.584646507
 21
1603.985259827
 31
0.0
  0
LINE
  8
0
  6
CONTINUOUS
 62
     6
 10
356.629425053
 20
1603.985259827
 30
0.0
 11
124.584646507
 21
1603.985259827
 31
0.0
  0
TEXT
  8
0
  6
CONTINUOUS
 62
     6
 10
382.212228
 20
1628.900410728
 30
1.232517
 40
13.182
  1
電気定格　　　
 50
0.0
 41
0.85
 51
0.0
  7
KANJI23
  0
TEXT
  8
0
  6
CONTINUOUS
 62
     6
 10
128.493517202
 20
1634.64592676
 30
1.0647
 40
11.661
  1
ＬＳ０１　　　：推力リミッタ（前進時過負荷用）
 50
0.0
 41
0.822608696
 51
0.0
  7
KANJI24
  0
TEXT
  8
0
  6
CONTINUOUS
 62
     6
 10
128.493517202
 20
1607.18342676
 30
1.0647
 40
11.661
  1
ＬＳ０２　　　：推力リミッタ（後進時過負荷用）
 50
0.0
 41
0.822608696
 51
0.0
  7
KANJI24
  0
TEXT
  8
0
  6
CONTINUOUS
 62
     6
 10
395.013715102
 20
1598.326958599
 30
0.0
 40
11.8638
  1
ＤＣ１２５Ｖ　０．６Ａ　，ＤＣ２５０Ｖ　０．３Ａ　
 50
0.0
 41
0.726495726
 51
0.0
  7
KANJI25
  0
LINE
  8
0
  6
LTYPE3
 62
     6
 10
655.02
 20
1658.9
 30
0.0
 11
106.62
 21
1658.9
 31
0.0
  0
TEXT
  8
0
  6
CONTINUOUS
 62
     6
 10
389.757132178
 20
1646.661726126
 30
0.0
 40
45.0
  1
｝
 50
0.0
 41
0.538166667
 51
0.0
  7
KANJI26
  0
TEXT
  8
0
  6
CONTINUOUS
 62
     6
 10
319.632791539
 20
1417.92382165
 30
0.0
 40
17.740702234
  1
端子台　接続図
 50
0.0
 41
0.880962996
 51
0.0
  7
KANJI27
  0
LINE
  8
0
  6
LTYPE3
 62
     6
 10
655.02
 20
1399.9
 30
0.0
 11
655.02
 21
1658.9
 31
0.0
  0
LINE
  8
0
  6
LTYPE3
 62
     6
 10
106.62
 20
1399.9
 30
0.0
 11
655.02
 21
1399.9
 31
0.0
  0
LINE
  8
0
  6
LTYPE3
 62
     6
 10
106.62
 20
1658.9
 30
0.0
 11
106.62
 21
1399.9
 31
0.0
  0
LINE
  8
0
  6
CONTINUOUS
 62
     2
 10
354.597373465
 20
1468.928121884
 30
0.0
 11
354.597373465
 21
1446.149155128
 31
0.0
  0
LINE
  8
0
  6
CONTINUOUS
 62
     2
 10
381.17283468
 20
1468.928121884
 30
0.0
 11
381.17283468
 21
1446.149155128
 31
0.0
  0
LINE
  8
0
  6
CONTINUOUS
 62
     2
 10
407.748295894
 20
1468.928121884
 30
0.0
 11
407.748295894
 21
1446.149155128
 31
0.0
  0
LINE
  8
0
  6
CONTINUOUS
 62
     2
 10
434.323757109
 20
1468.928121884
 30
0.0
 11
434.323757109
 21
1446.149155128
 31
0.0
  0
CIRCLE
  8
0
  6
CONTINUOUS
 62
     6
 10
426.404269667
 20
1492.407921517
 30
0.0
 40
4.100214016
  0
LINE
  8
0
  6
CONTINUOUS
 62
     6
 10
422.304055651
 20
1492.407921517
 30
0.0
 11
421.036026502
 21
1492.407921517
 31
0.0
  0
LINE
  8
0
  6
CONTINUOUS
 62
     6
 10
447.358027433
 20
1506.094562742
 30
0.0
 11
443.443558096
 21
1483.759507138
 31
0.0
  0
LINE
  8
0
  6
CONTINUOUS
 62
     6
 10
442.631699663
 20
1506.882284037
 30
0.0
 11
438.716922494
 21
1484.547279739
 31
0.0
  0
LINE
  8
0
  6
CONTINUOUS
 62
     6
 10
443.443558096
 20
1483.759507138
 30
0.0
 11
438.716922494
 21
1484.547279739
 31
0.0
  0
CIRCLE
  8
0
  6
CONTINUOUS
 62
     6
 10
447.611487717
 20
1482.939464335
 30
0.0
 40
4.100214016
  0
LINE
  8
0
  6
CONTINUOUS
 62
     6
 10
447.611487717
 20
1478.839250319
 30
0.0
 11
447.611487717
 21
1468.928121884
 31
0.0
  0
LINE
  8
0
  6
CONTINUOUS
 62
     6
 10
421.036026502
 20
1492.407921517
 30
0.0
 11
421.036026502
 21
1468.928121884
 31
0.0
  0
LINE
  8
0
  6
CONTINUOUS
 62
     6
 10
394.460565287
 20
1468.928121884
 30
0.0
 11
394.460565287
 21
1522.633332504
 31
0.0
  0
LINE
  8
0
  6
CONTINUOUS
 62
     6
 10
314.987641926
 20
1506.094562742
 30
0.0
 11
318.902111263
 21
1483.759507138
 31
0.0
  0
LINE
  8
0
  6
CONTINUOUS
 62
     6
 10
319.713969696
 20
1506.882284037
 30
0.0
 11
323.628746865
 21
1484.547279739
 31
0.0
  0
LINE
  8
0
  6
CONTINUOUS
 62
     6
 10
318.902111263
 20
1483.759507138
 30
0.0
 11
323.628746865
 21
1484.547279739
 31
0.0
  0
CIRCLE
  8
0
  6
CONTINUOUS
 62
     6
 10
314.734181642
 20
1482.939464335
 30
0.0
 40
4.100214016
  0
CIRCLE
  8
0
  6
CONTINUOUS
 62
     6
 10
335.941399692
 20
1492.407921517
 30
0.0
 40
4.100214016
  0
LINE
  8
0
  6
CONTINUOUS
 62
     6
 10
340.041613708
 20
1492.407921517
 30
0.0
 11
341.309642857
 21
1492.407921517
 31
0.0
  0
LINE
  8
0
  6
CONTINUOUS
 62
     6
 10
314.734181642
 20
1478.839250319
 30
0.0
 11
314.734181642
 21
1468.928121884
 31
0.0
  0
LINE
  8
0
  6
CONTINUOUS
 62
     6
 10
341.309642857
 20
1492.407921517
 30
0.0
 11
341.309642857
 21
1468.928121884
 31
0.0
  0
LINE
  8
0
  6
CONTINUOUS
 62
     6
 10
367.885104072
 20
1468.928121884
 30
0.0
 11
367.885104072
 21
1522.633332504
 31
0.0
  0
LINE
  8
0
  6
CONTINUOUS
 62
     2
 10
460.899218324
 20
1468.928121884
 30
0.0
 11
460.899218324
 21
1446.149155128
 31
0.0
  0
LINE
  8
0
  6
CONTINUOUS
 62
     2
 10
301.446451035
 20
1468.928121884
 30
0.0
 11
301.446451035
 21
1446.149155128
 31
0.0
  0
LINE
  8
0
  6
CONTINUOUS
 62
     2
 10
328.02191225
 20
1468.928121884
 30
0.0
 11
328.02191225
 21
1446.149155128
 31
0.0
  0
LINE
  8
0
  6
CONTINUOUS
 62
     6
 10
447.611487717
 20
1522.633332504
 30
0.0
 11
394.460565287
 21
1522.633332504
 31
0.0
  0
CIRCLE
  8
0
  6
CONTINUOUS
 62
     6
 10
447.611487717
 20
1510.28941042
 30
0.0
 40
4.100214016
  0
LINE
  8
0
  6
CONTINUOUS
 62
     6
 10
447.358027433
 20
1506.094562742
 30
0.0
 11
442.631699663
 21
1506.882284037
 31
0.0
  0
LINE
  8
0
  6
CONTINUOUS
 62
     6
 10
447.611487717
 20
1514.389624436
 30
0.0
 11
447.611487717
 21
1522.633332504
 31
0.0
  0
CIRCLE
  8
0
  6
CONTINUOUS
 62
     6
 10
314.734181642
 20
1510.28941042
 30
0.0
 40
4.100214016
  0
LINE
  8
0
  6
CONTINUOUS
 62
     6
 10
314.987641926
 20
1506.094562742
 30
0.0
 11
319.713969696
 21
1506.882284037
 31
0.0
  0
LINE
  8
0
  6
CONTINUOUS
 62
     6
 10
314.734181642
 20
1514.389624436
 30
0.0
 11
314.734181642
 21
1522.633332504
 31
0.0
  0
LINE
  8
0
  6
CONTINUOUS
 62
     6
 10
367.885104072
 20
1522.633332504
 30
0.0
 11
314.734181642
 21
1522.633332504
 31
0.0
  0
TEXT
  8
0
  6
CONTINUOUS
 62
     6
 10
319.4972152
 20
1527.152473273
 30
0.819
 40
11.7
  1
ＬＳ０１
 50
0.0
 41
0.8
 51
0.0
  7
KANJI28
  0
TEXT
  8
0
  6
CONTINUOUS
 62
     6
 10
402.117398844
 20
1527.152473273
 30
0.819
 40
11.7
  1
ＬＳ０２
 50
0.0
 41
0.8
 51
0.0
  7
KANJI28
  0
TEXT
  8
0
  6
CONTINUOUS
 62
     3
 10
147.308775989
 20
1449.945649587
 30
0.0
 40
15.0
  1
　　　　　　　　　　　　　　　　　　１　　２　　　３　　　４　　　５　　　６
 50
0.0
 41
0.911
 51
0.0
  7
KANJI29
  0
LINE
  8
0
  6
CONTINUOUS
 62
     2
 10
301.446451035
 20
1468.928121884
 30
0.0
 11
460.899218324
 21
1468.928121884
 31
0.0
  0
LINE
  8
0
  6
CONTINUOUS
 62
     2
 10
301.446451035
 20
1446.149155128
 30
0.0
 11
460.899218324
 21
1446.149155128
 31
0.0
  0
TEXT
  8
0
  6
CONTINUOUS
 62
     6
 10
293.132791539
 20
1556.92382165
 30
0.0
 40
17.740702234
  1
推力リミッタ端子台配列
 50
0.0
 41
0.880962996
 51
0.0
  7
KANJI27
  0
TEXT
  8
0
  6
CONTINUOUS
 62
     6
 10
395.013715102
 20
1614.071931782
 30
0.0
 40
11.8638
  1
ＡＣ１００Ｖ　１２５Ｖ　２５０Ｖ　－１０Ａ
 50
0.0
 41
0.726495726
 51
0.0
  7
KANJI25
  0
LINE
  8
0
  6
LTYPE3
 62
     6
 10
148.708333
 20
1243.133317
 30
0.0
 11
148.708333
 21
1226.732460936
 31
0.0
  0
LINE
  8
0
  6
LTYPE3
 62
     6
 10
279.105262694
 20
1243.133317
 30
0.0
 11
148.708333
 21
1243.133317
 31
0.0
  0
TEXT
  8
0
  6
CONTINUOUS
 62
     6
 10
131.173590591
 20
1229.648168681
 30
1.093390404
 40
10.933904043
  1
Ｕ
 50
0.0
 41
0.9
 51
0.0
  7
KANJI30
  0
CIRCLE
  8
0
  6
CONTINUOUS
 62
     6
 10
148.708333
 20
1223.452289723
 30
0.0
 40
4.373561617
  0
LINE
  8
0
  6
CONTINUOUS
 62
     6
 10
143.68354931
 20
1218.427506033
 30
0.0
 11
153.888526417
 21
1228.63248314
 31
0.0
  0
TEXT
  8
0
  6
CONTINUOUS
 62
     6
 10
158.953806047
 20
1251.799448352
 30
1.518597784
 40
15.185977837
  1
エコノストップモータ
 50
0.0
 41
0.66671875
 51
0.0
  7
KANJI31
  0
CIRCLE
  8
0
  6
CONTINUOUS
 62
     6
 10
193.537339575
 20
1197.939846957
 30
0.0
 40
18.223173404
  0
TEXT
  8
0
  6
CONTINUOUS
 62
     6
 10
185.883606745
 20
1189.192723723
 30
1.82231734
 40
18.223173404
  1
Ｍ
 50
0.0
 41
0.9
 51
0.0
  7
KANJI32
  0
LINE
  8
0
  6
CONTINUOUS
 62
     6
 10
169.482750681
 20
1172.427404191
 30
0.0
 11
180.781118192
 21
1185.548089042
 31
0.0
  0
LINE
  8
0
  6
CONTINUOUS
 62
     6
 10
169.482750681
 20
1223.452289723
 30
0.0
 11
180.781118192
 21
1210.331604872
 31
0.0
  0
LINE
  8
0
  6
CONTINUOUS
 62
     6
 10
169.482750681
 20
1223.452289723
 30
0.0
 11
153.081894617
 21
1223.452289723
 31
0.0
  0
LINE
  8
0
  6
CONTINUOUS
 62
     6
 10
175.678629639
 20
1197.939846957
 30
0.0
 11
153.081894617
 21
1197.939846957
 31
0.0
  0
LINE
  8
0
  6
CONTINUOUS
 62
     6
 10
169.482750681
 20
1172.427404191
 30
0.0
 11
153.081894617
 21
1172.427404191
 31
0.0
  0
TEXT
  8
0
  6
CONTINUOUS
 62
     6
 10
132.266980995
 20
1203.771262446
 30
1.093390404
 40
10.933904043
  1
Ｖ
 50
0.0
 41
0.9
 51
0.0
  7
KANJI30
  0
TEXT
  8
0
  6
CONTINUOUS
 62
     6
 10
133.360371399
 20
1177.894356212
 30
1.093390404
 40
10.933904043
  1
Ｗ
 50
0.0
 41
0.9
 51
0.0
  7
KANJI30
  0
CIRCLE
  8
0
  6
CONTINUOUS
 62
     6
 10
148.708333
 20
1197.939846957
 30
0.0
 40
4.373561617
  0
LINE
  8
0
  6
CONTINUOUS
 62
     6
 10
143.68354931
 20
1192.915063267
 30
0.0
 11
153.888526417
 21
1203.120040374
 31
0.0
  0
LINE
  8
0
  6
LTYPE3
 62
     6
 10
148.708333
 20
1219.443191574
 30
0.0
 11
148.708333
 21
1201.22001817
 31
0.0
  0
CIRCLE
  8
0
  6
CONTINUOUS
 62
     6
 10
148.708333
 20
1172.427404191
 30
0.0
 40
4.373561617
  0
LINE
  8
0
  6
CONTINUOUS
 62
     6
 10
143.68354931
 20
1167.402620501
 30
0.0
 11
153.888526417
 21
1177.607597607
 31
0.0
  0
LINE
  8
0
  6
LTYPE3
 62
     6
 10
148.708333
 20
1193.930748808
 30
0.0
 11
148.708333
 21
1176.800965808
 31
0.0
  0
LINE
  8
0
  6
LTYPE3
 62
     6
 10
148.708333
 20
1168.053842574
 30
0.0
 11
148.708333
 21
1147.721584891
 31
0.0
  0
TEXT
  8
0
  6
CONTINUOUS
 62
     6
 10
219.778709277
 20
1189.684749405
 30
1.457853872
 40
14.578538724
  1
Ｂ
 50
0.0
 41
0.9
 51
0.0
  7
KANJI33
  0
CIRCLE
  8
0
  6
CONTINUOUS
 62
     6
 10
226.339051703
 20
1197.939846957
 30
0.0
 40
14.578538724
  0
LINE
  8
0
  6
LTYPE3
 62
     6
 10
279.105262694
 20
1147.721584891
 30
0.0
 11
148.708333
 21
1147.721584891
 31
0.0
  0
LINE
  8
0
  6
LTYPE3
 62
     6
 10
279.105262694
 20
1147.721584891
 30
0.0
 11
279.105262694
 21
1243.133317
 31
0.0
  0
TEXT
  8
0
  6
CONTINUOUS
 62
     2
 10
153.803726364
 20
1122.512221811
 30
0.0
 40
15.6
  1
モーター結線図
 50
0.0
 41
0.925
 51
0.0
  7
KANJI34
  0
TEXT
  8
0
  6
CONTINUOUS
 62
     2
 10
314.5
 20
722.5
 30
5.0
 40
20.0
  1
銘板
 50
270.0
 41
0.925
 51
0.0
  7
KANJI35
  0
LINE
  8
0
  6
CONTINUOUS
 62
     1
 10
352.5
 20
733.5
 30
0.0
 11
309.5
 21
733.5
 31
0.0
  0
LINE
  8
0
  6
CONTINUOUS
 62
     1
 10
352.5
 20
733.5
 30
0.0
 11
352.5
 21
663.5
 31
0.0
  0
LINE
  8
0
  6
CONTINUOUS
 62
     1
 10
309.5
 20
733.5
 30
0.0
 11
309.5
 21
663.5
 31
0.0
  0
LINE
  8
0
  6
CONTINUOUS
 62
     1
 10
352.5
 20
663.5
 30
0.0
 11
309.5
 21
663.5
 31
0.0
  0
TEXT
  8
0
  6
CONTINUOUS
 62
     2
 10
415.712591263
 20
315.671507451
 30
0.0
 40
20.0
  1
推力リミッタの作動値は、約１２００ｋｇ（設計値）
 50
0.0
 41
0.925
 51
0.0
  7
KANJI36
  0
LINE
  8
0
  6
CONTINUOUS
 62
     2
 10
413.712591263
 20
307.671507451
 30
0.0
 11
846.0
 21
307.671507451
 31
0.0
  0
LINE
  8
0
  6
CONTINUOUS
 62
     2
 10
560.003319123
 20
189.833311846
 30
0.0
 11
567.730725733
 21
187.762759485
 31
0.0
  0
LINE
  8
0
  6
CONTINUOUS
 62
     2
 10
560.003319123
 20
189.833311846
 30
0.0
 11
567.730725733
 21
191.903864207
 31
0.0
  0
LINE
  8
0
  6
CONTINUOUS
 62
     2
 10
560.003319123
 20
189.833311846
 30
0.0
 11
697.603319123
 21
189.833311846
 31
0.0
  0
LINE
  8
0
  6
CONTINUOUS
 62
     2
 10
697.603319123
 20
189.833311846
 30
0.0
 11
689.875912513
 21
191.903864207
 31
0.0
  0
LINE
  8
0
  6
CONTINUOUS
 62
     2
 10
697.603319123
 20
189.833311846
 30
0.0
 11
689.875912513
 21
187.762759485
 31
0.0
  0
LINE
  8
0
  6
CONTINUOUS
 62
     2
 10
697.603319123
 20
188.633311846
 30
0.0
 11
697.603319123
 21
185.833311846
 31
0.0
  0
LINE
  8
0
  6
CONTINUOUS
 62
     2
 10
697.603319123
 20
189.833311846
 30
0.0
 11
705.330725733
 21
187.762759485
 31
0.0
  0
LINE
  8
0
  6
CONTINUOUS
 62
     2
 10
697.603319123
 20
189.833311846
 30
0.0
 11
705.330725733
 21
191.903864207
 31
0.0
  0
LINE
  8
0
  6
CONTINUOUS
 62
     2
 10
697.603319123
 20
189.833311846
 30
0.0
 11
900.003319123
 21
189.833311846
 31
0.0
  0
LINE
  8
0
  6
CONTINUOUS
 62
     2
 10
900.003319123
 20
189.833311846
 30
0.0
 11
892.275912513
 21
191.903864207
 31
0.0
  0
LINE
  8
0
  6
CONTINUOUS
 62
     2
 10
900.003319123
 20
189.833311846
 30
0.0
 11
892.275912513
 21
187.762759485
 31
0.0
  0
LINE
  8
0
  6
CONTINUOUS
 62
     2
 10
697.603319123
 20
163.503864207
 30
0.0
 11
689.875912513
 21
165.574416568
 31
0.0
  0
LINE
  8
0
  6
CONTINUOUS
 62
     2
 10
697.603319123
 20
163.503864207
 30
0.0
 11
689.875912513
 21
161.433311846
 31
0.0
  0
LINE
  8
0
  6
CONTINUOUS
 62
     2
 10
685.603319123
 20
163.503864207
 30
0.0
 11
697.603319123
 21
163.503864207
 31
0.0
  0
LINE
  8
0
  6
CONTINUOUS
 62
     2
 10
697.603319123
 20
163.503864207
 30
0.0
 11
718.403319123
 21
163.503864207
 31
0.0
  0
LINE
  8
0
  6
CONTINUOUS
 62
     2
 10
718.403319123
 20
163.503864207
 30
0.0
 11
726.130725733
 21
161.433311846
 31
0.0
  0
LINE
  8
0
  6
CONTINUOUS
 62
     2
 10
718.403319123
 20
163.503864207
 30
0.0
 11
726.130725733
 21
165.574416568
 31
0.0
  0
LINE
  8
0
  6
CONTINUOUS
 62
     2
 10
560.003319123
 20
138.233311846
 30
0.0
 11
560.003319123
 21
132.233311846
 31
0.0
  0
LINE
  8
0
  6
CONTINUOUS
 62
     2
 10
560.003319123
 20
136.233311846
 30
0.0
 11
567.730725733
 21
134.162759485
 31
0.0
  0
LINE
  8
0
  6
CONTINUOUS
 62
     2
 10
560.003319123
 20
136.233311846
 30
0.0
 11
567.730725733
 21
138.303864207
 31
0.0
  0
LINE
  8
0
  6
CONTINUOUS
 62
     2
 10
560.003319123
 20
136.233311846
 30
0.0
 11
718.403319123
 21
136.233311846
 31
0.0
  0
LINE
  8
0
  6
CONTINUOUS
 62
     2
 10
718.403319123
 20
136.233311846
 30
0.0
 11
710.675912513
 21
138.303864207
 31
0.0
  0
LINE
  8
0
  6
CONTINUOUS
 62
     2
 10
718.403319123
 20
136.233311846
 30
0.0
 11
710.675912513
 21
134.162759485
 31
0.0
  0
LINE
  8
0
  6
CONTINUOUS
 62
     2
 10
718.403319123
 20
137.433311846
 30
0.0
 11
718.403319123
 21
132.233311846
 31
0.0
  0
LINE
  8
0
  6
CONTINUOUS
 62
     2
 10
718.403319123
 20
136.233311846
 30
0.0
 11
726.130725733
 21
134.162759485
 31
0.0
  0
LINE
  8
0
  6
CONTINUOUS
 62
     2
 10
718.403319123
 20
136.233311846
 30
0.0
 11
726.130725733
 21
138.303864207
 31
0.0
  0
LINE
  8
0
  6
CONTINUOUS
 62
     2
 10
900.003319123
 20
132.633311846
 30
0.0
 11
900.003319123
 21
132.233311846
 31
0.0
  0
LINE
  8
0
  6
CONTINUOUS
 62
     2
 10
560.003319123
 20
107.033311846
 30
0.0
 11
567.730725733
 21
104.962759485
 31
0.0
  0
LINE
  8
0
  6
CONTINUOUS
 62
     2
 10
560.003319123
 20
107.033311846
 30
0.0
 11
567.730725733
 21
109.103864207
 31
0.0
  0
LINE
  8
0
  6
CONTINUOUS
 62
     2
 10
560.003319123
 20
107.033311846
 30
0.0
 11
877.603319123
 21
107.033311846
 31
0.0
  0
LINE
  8
0
  6
CONTINUOUS
 62
     2
 10
877.603319123
 20
107.033311846
 30
0.0
 11
869.875912513
 21
109.103864207
 31
0.0
  0
LINE
  8
0
  6
CONTINUOUS
 62
     2
 10
877.603319123
 20
107.033311846
 30
0.0
 11
869.875912513
 21
104.962759485
 31
0.0
  0
LINE
  8
0
  6
CONTINUOUS
 62
     2
 10
877.603319123
 20
107.833311846
 30
0.0
 11
877.603319123
 21
103.033311846
 31
0.0
  0
LINE
  8
0
  6
CONTINUOUS
 62
     2
 10
877.603319123
 20
107.033311846
 30
0.0
 11
869.875912513
 21
109.103864207
 31
0.0
  0
LINE
  8
0
  6
CONTINUOUS
 62
     2
 10
877.603319123
 20
107.033311846
 30
0.0
 11
869.875912513
 21
104.962759485
 31
0.0
  0
LINE
  8
0
  6
CONTINUOUS
 62
     2
 10
865.603319123
 20
107.033311846
 30
0.0
 11
877.603319123
 21
107.033311846
 31
0.0
  0
LINE
  8
0
  6
CONTINUOUS
 62
     2
 10
877.603319123
 20
107.033311846
 30
0.0
 11
900.003319123
 21
107.033311846
 31
0.0
  0
LINE
  8
0
  6
CONTINUOUS
 62
     2
 10
900.003319123
 20
107.033311846
 30
0.0
 11
907.730725733
 21
104.962759485
 31
0.0
  0
LINE
  8
0
  6
CONTINUOUS
 62
     2
 10
900.003319123
 20
107.033311846
 30
0.0
 11
907.730725733
 21
109.103864207
 31
0.0
  0
LINE
  8
0
  6
CONTINUOUS
 62
     2
 10
560.003319123
 20
200.633311846
 30
0.0
 11
560.003319123
 21
185.833311846
 31
0.0
  0
LINE
  8
0
  6
CONTINUOUS
 62
     2
 10
900.003319123
 20
200.633311846
 30
0.0
 11
900.003319123
 21
185.833311846
 31
0.0
  0
LINE
  8
0
  6
CONTINUOUS
 62
     2
 10
697.603319123
 20
189.433311846
 30
0.0
 11
697.603319123
 21
200.633311846
 31
0.0
  0
LINE
  8
0
  6
CONTINUOUS
 62
     2
 10
718.403319123
 20
176.303864207
 30
0.0
 11
718.403319123
 21
159.503864207
 31
0.0
  0
LINE
  8
0
  6
CONTINUOUS
 62
     2
 10
560.003319123
 20
185.833311846
 30
0.0
 11
560.003319123
 21
93.833311846
 31
0.0
  0
LINE
  8
0
  6
CONTINUOUS
 62
     2
 10
900.003319123
 20
189.833311846
 30
0.0
 11
900.003319123
 21
95.033311846
 31
0.0
  0
LINE
  8
0
  6
CONTINUOUS
 62
     2
 10
718.403319123
 20
163.503864207
 30
0.0
 11
718.403319123
 21
127.033311846
 31
0.0
  0
LINE
  8
0
  6
CONTINUOUS
 62
     2
 10
697.603319123
 20
189.833311846
 30
0.0
 11
697.603319123
 21
154.233311846
 31
0.0
  0
TEXT
  8
0
  6
CONTINUOUS
 62
     3
 10
601.803319123
 20
191.833311846
 30
0.0
 40
15.0
  1
ｍｉｎ．Ｌ
 50
0.0
 41
0.9
 51
0.0
  7
KANJI37
  0
TEXT
  8
0
  6
CONTINUOUS
 62
     3
 10
755.603319123
 20
191.833311846
 30
0.0
 40
15.0
  1
機械的ストローク
 50
0.0
 41
0.9
 51
0.0
  7
KANJI37
  0
TEXT
  8
0
  6
CONTINUOUS
 62
     3
 10
730.403319123
 20
165.503864207
 30
0.0
 40
15.0
  1
余裕
 50
0.0
 41
0.9
 51
0.0
  7
KANJI37
  0
TEXT
  8
0
  6
CONTINUOUS
 62
     3
 10
612.203319123
 20
138.233311846
 30
0.0
 40
15.0
  1
常用ｍｉｎ
 50
0.0
 41
0.9
 51
0.0
  7
KANJI37
  0
TEXT
  8
0
  6
CONTINUOUS
 62
     3
 10
691.803319123
 20
109.033311846
 30
0.0
 40
15.0
  1
常用ｍａｘ
 50
0.0
 41
0.9
 51
0.0
  7
KANJI37
  0
TEXT
  8
0
  6
CONTINUOUS
 62
     3
 10
912.003319123
 20
109.033311846
 30
0.0
 40
15.0
  1
余裕
 50
0.0
 41
0.9
 51
0.0
  7
KANJI37
  0
LINE
  8
0
  6
CONTINUOUS
 62
     2
 10
718.403319123
 20
163.503864207
 30
0.0
 11
758.503319123
 21
163.503864207
 31
0.0
  0
LINE
  8
0
  6
CONTINUOUS
 62
     2
 10
900.003319123
 20
107.033311846
 30
0.0
 11
942.503319123
 21
107.033311846
 31
0.0
  0
TEXT
  8
0
  6
CONTINUOUS
 62
     2
 10
1786.92
 20
675.9
 30
12.0
 40
24.0
  1
特記事項
 50
0.0
 41
0.9
 51
0.0
  7
KANJI38
  0
TEXT
  8
0
  6
CONTINUOUS
 62
     2
 10
1702.92
 20
627.9
 30
6.171428571
 40
21.6
  1
１。運転時は必ずピストンロッドの回転防止を行って下さい。
 50
0.0
 41
0.857142857
 51
0.0
  7
KANJI39
  0
TEXT
  8
0
  6
CONTINUOUS
 62
     2
 10
1702.92
 20
587.1
 30
6.156
 40
21.6
  1
２。モートル：全閉自冷かご形３０分定格
 50
0.0
 41
0.857222222
 51
0.0
  7
KANJI40
  0
TEXT
  8
0
  6
CONTINUOUS
 62
     2
 10
1702.5199098
 20
546.3000036
 30
6.156
 40
21.6
  1
３。呼称ストロークは、機械的ストロークです。
 50
0.0
 41
0.857222222
 51
0.0
  7
KANJI40
  0
TEXT
  8
0
  6
CONTINUOUS
 62
     2
 10
1702.5199098
 20
511.8000036
 30
6.156
 40
21.6
  1
　　必ず、常用はストローク両端に余裕を取って下さい。
 50
0.0
 41
0.857222222
 51
0.0
  7
KANJI40
  0
LINE
  8
0
  6
CONTINUOUS
 62
     2
 10
1770.12
 20
669.3
 30
0.0
 11
1916.52
 21
669.3
 31
0.0
  0
TEXT
  8
0
  6
CONTINUOUS
 62
     2
 10
1055.133
 20
1533.99
 30
1.617
 40
16.17
  1
注意：サーマルリレー等の選定は、上記の値で選定して下さい。
 50
0.0
 41
0.9
 51
0.0
  7
KANJI41
  0
LINE
  8
0
  6
CONTINUOUS
 62
     2
 10
1045.893
 20
1529.37
 30
0.0
 11
1504.0
 21
1529.37
 31
0.0
  0
LINE
  8
0
  6
CONTINUOUS
 62
     1
 10
1316.3
 20
547.5
 30
0.0
 11
1305.7
 21
547.5
 31
0.0
  0
ARC
  8
0
  6
CONTINUOUS
 62
     1
 10
1311.4
 20
548.5
 30
0.0
 40
5.0
 50
272.3
 51
348.5
  0
ARC
  8
0
  6
CONTINUOUS
 62
     1
 10
1310.6
 20
548.5
 30
0.0
 40
5.0
 50
191.5
 51
267.7
  0
LINE
  8
0
  6
CONTINUOUS
 62
     1
 10
1311.6
 20
543.5
 30
0.0
 11
1310.4
 21
543.5
 31
0.0
  0
LINE
  8
0
  6
LTYPE5
 62
     2
 10
1311.0
 20
540.1
 30
0.0
 11
1311.0
 21
553.5
 31
0.0
  0
LINE
  8
0
  6
CONTINUOUS
 62
     1
 10
1406.3
 20
547.5
 30
0.0
 11
1395.7
 21
547.5
 31
0.0
  0
ARC
  8
0
  6
CONTINUOUS
 62
     1
 10
1401.4
 20
548.5
 30
0.0
 40
5.0
 50
272.3
 51
348.5
  0
ARC
  8
0
  6
CONTINUOUS
 62
     1
 10
1400.6
 20
548.5
 30
0.0
 40
5.0
 50
191.5
 51
267.7
  0
LINE
  8
0
  6
CONTINUOUS
 62
     1
 10
1401.6
 20
543.5
 30
0.0
 11
1400.4
 21
543.5
 31
0.0
  0
LINE
  8
0
  6
LTYPE5
 62
     2
 10
1401.0
 20
540.1
 30
0.0
 11
1401.0
 21
553.5
 31
0.0
  0
LINE
  8
0
  6
CONTINUOUS
 62
     1
 10
475.3
 20
547.5
 30
0.0
 11
464.7
 21
547.5
 31
0.0
  0
ARC
  8
0
  6
CONTINUOUS
 62
     1
 10
470.4
 20
548.5
 30
0.0
 40
5.0
 50
272.3
 51
348.5
  0
ARC
  8
0
  6
CONTINUOUS
 62
     1
 10
469.6
 20
548.5
 30
0.0
 40
5.0
 50
191.5
 51
267.7
  0
LINE
  8
0
  6
CONTINUOUS
 62
     1
 10
470.6
 20
543.5
 30
0.0
 11
469.4
 21
543.5
 31
0.0
  0
LINE
  8
0
  6
LTYPE5
 62
     2
 10
470.0
 20
540.1
 30
0.0
 11
470.0
 21
553.5
 31
0.0
  0
LINE
  8
0
  6
CONTINUOUS
 62
     1
 10
585.3
 20
547.5
 30
0.0
 11
574.7
 21
547.5
 31
0.0
  0
ARC
  8
0
  6
CONTINUOUS
 62
     1
 10
580.4
 20
548.5
 30
0.0
 40
5.0
 50
272.3
 51
348.5
  0
ARC
  8
0
  6
CONTINUOUS
 62
     1
 10
579.6
 20
548.5
 30
0.0
 40
5.0
 50
191.5
 51
267.7
  0
LINE
  8
0
  6
CONTINUOUS
 62
     1
 10
580.6
 20
543.5
 30
0.0
 11
579.4
 21
543.5
 31
0.0
  0
LINE
  8
0
  6
LTYPE5
 62
     2
 10
580.0
 20
540.1
 30
0.0
 11
580.0
 21
553.5
 31
0.0
  0
TEXT
  8
0
  6
CONTINUOUS
 62
     2
 10
1703.4319098
 20
472.1520036
 30
6.156
 40
21.6
  1
　　前後の推奨余裕寸法は、各々２５ｍｍです。
 50
0.0
 41
0.857222222
 51
0.0
  7
KANJI40
  0
LINE
  8
0
  6
CONTINUOUS
 62
     2
 10
1067.413333
 20
990.633317
 30
0.0
 11
1055.339260171
 21
993.868555064
 31
0.0
  0
LINE
  8
0
  6
CONTINUOUS
 62
     2
 10
1067.413333
 20
990.633317
 30
0.0
 11
1055.339260171
 21
987.398078936
 31
0.0
  0
LINE
  8
0
  6
CONTINUOUS
 62
     2
 10
1067.413333
 20
990.633317
 30
0.0
 11
1026.413333
 21
990.633317
 31
0.0
  0
TEXT
  8
0
  6
CONTINUOUS
 62
     3
 10
1033.413333
 20
1000.633317
 30
0.0
 40
20.0
  1
前進
 50
0.0
 41
0.925
 51
0.0
  7
KANJI36
  0
LINE
  8
0
  6
CONTINUOUS
 62
     1
 10
360.5
 20
712.6
 30
0.0
 11
369.5
 21
712.6
 31
0.0
  0
ARC
  8
0
  6
CONTINUOUS
 62
     1
 10
369.5
 20
715.6
 30
0.0
 40
3.0
 50
270.0
 51
0.0
  0
LINE
  8
0
  6
CONTINUOUS
 62
     1
 10
372.5
 20
715.6
 30
0.0
 11
372.5
 21
883.6
 31
0.0
  0
ARC
  8
0
  6
CONTINUOUS
 62
     1
 10
374.5
 20
885.6
 30
0.0
 40
2.0
 50
180.0
 51
270.0
  0
LINE
  8
0
  6
CONTINUOUS
 62
     1
 10
407.5
 20
741.6
 30
0.0
 11
407.5
 21
883.5
 31
0.0
  0
ARC
  8
0
  6
CONTINUOUS
 62
     1
 10
374.5
 20
739.6
 30
0.0
 40
2.0
 50
90.0
 51
180.0
  0
LINE
  8
0
  6
CONTINUOUS
 62
     1
 10
511.05
 20
902.6
 30
0.0
 11
511.05
 21
936.6
 31
0.0
  0
LINE
  8
0
  6
CONTINUOUS
 62
     1
 10
511.05
 20
902.6
 30
0.0
 11
485.05
 21
902.6
 31
0.0
  0
LINE
  8
0
  6
CONTINUOUS
 62
     1
 10
511.05
 20
936.6
 30
0.0
 11
485.05
 21
936.6
 31
0.0
  0
LINE
  8
0
  6
LTYPE3
 62
     2
 10
517.979475845
 20
919.6
 30
0.0
 11
477.979475845
 21
919.6
 31
0.0
  0
LINE
  8
0
  6
CONTINUOUS
 62
     1
 10
415.05
 20
894.6
 30
0.0
 11
415.05
 21
897.6
 31
0.0
  0
ARC
  8
0
  6
CONTINUOUS
 62
     1
 10
419.05
 20
891.6
 30
0.0
 40
3.0
 50
0.0
 51
90.0
  0
LINE
  8
0
  6
CONTINUOUS
 62
     1
 10
475.05
 20
894.6
 30
0.0
 11
475.05
 21
897.6
 31
0.0
  0
ARC
  8
0
  6
CONTINUOUS
 62
     1
 10
471.05
 20
891.6
 30
0.0
 40
3.0
 50
90.0
 51
180.0
  0
LINE
  8
0
  6
CONTINUOUS
 62
     1
 10
475.05
 20
894.6
 30
0.0
 11
415.05
 21
894.6
 31
0.0
  0
LINE
  8
0
  6
CONTINUOUS
 62
     1
 10
399.962087912
 20
899.6
 30
0.0
 11
492.05
 21
943.620045888
 31
0.0
  0
LINE
  8
0
  6
CONTINUOUS
 62
     1
 10
398.05
 20
903.6
 30
0.0
 11
399.962087912
 21
899.6
 31
0.0
  0
LINE
  8
0
  6
CONTINUOUS
 62
     1
 10
398.05
 20
903.6
 30
0.0
 11
490.137912088
 21
947.620045888
 31
0.0
  0
LINE
  8
0
  6
CONTINUOUS
 62
     1
 10
490.137912088
 20
947.620045888
 30
0.0
 11
492.05
 21
943.620045888
 31
0.0
  0
LINE
  8
0
  6
CONTINUOUS
 62
     1
 10
405.05
 20
906.946153846
 30
0.0
 11
405.05
 21
946.6
 31
0.0
  0
ARC
  8
0
  6
CONTINUOUS
 62
     1
 10
408.05
 20
946.6
 30
0.0
 40
3.0
 50
90.0
 51
180.0
  0
LINE
  8
0
  6
CONTINUOUS
 62
     1
 10
405.05
 20
900.6
 30
0.0
 11
405.05
 21
902.0321338
 31
0.0
  0
ARC
  8
0
  6
CONTINUOUS
 62
     1
 10
408.05
 20
900.6
 30
0.0
 40
3.0
 50
180.0
 51
270.0
  0
LINE
  8
0
  6
CONTINUOUS
 62
     1
 10
485.05
 20
900.6
 30
0.0
 11
485.05
 21
940.273892042
 31
0.0
  0
LINE
  8
0
  6
CONTINUOUS
 62
     1
 10
482.05
 20
897.6
 30
0.0
 11
408.05
 21
897.6
 31
0.0
  0
ARC
  8
0
  6
CONTINUOUS
 62
     1
 10
482.05
 20
900.6
 30
0.0
 40
3.0
 50
270.0
 51
0.0
  0
LINE
  8
0
  6
CONTINUOUS
 62
     1
 10
485.05
 20
945.187912088
 30
0.0
 11
485.05
 21
946.6
 31
0.0
  0
LINE
  8
0
  6
CONTINUOUS
 62
     1
 10
482.05
 20
949.6
 30
0.0
 11
408.05
 21
949.6
 31
0.0
  0
ARC
  8
0
  6
CONTINUOUS
 62
     1
 10
482.05
 20
946.6
 30
0.0
 40
3.0
 50
0.0
 51
90.0
  0
ARC
  8
0
  6
CONTINUOUS
 62
     1
 10
425.05
 20
886.1
 30
0.0
 40
3.0
 50
180.0
 51
270.0
  0
ARC
  8
0
  6
CONTINUOUS
 62
     1
 10
465.05
 20
886.1
 30
0.0
 40
3.0
 50
270.0
 51
0.0
  0
LINE
  8
0
  6
CONTINUOUS
 62
     1
 10
468.05
 20
886.100005395
 30
0.0
 11
468.05
 21
891.6
 31
0.0
  0
LINE
  8
0
  6
CONTINUOUS
 62
     1
 10
422.05
 20
886.100005395
 30
0.0
 11
422.05
 21
891.6
 31
0.0
  0
LINE
  8
0
  6
LTYPE3
 62
     2
 10
445.0
 20
876.6
 30
0.0
 11
445.0
 21
951.6
 31
0.0
  0
LINE
  8
0
  6
CONTINUOUS
 62
     1
 10
612.310381815
 20
864.427582684
 30
0.0
 11
629.689618185
 21
862.772417316
 31
0.0
  0
ARC
  8
0
  6
CONTINUOUS
 62
     1
 10
612.5
 20
866.418573629
 30
0.0
 40
2.0
 50
180.0
 51
264.559667969
  0
ARC
  8
0
  6
CONTINUOUS
 62
     1
 10
633.5
 20
837.6
 30
0.0
 40
2.0
 50
180.0
 51
270.0
  0
LINE
  8
0
  6
CONTINUOUS
 62
     1
 10
642.5
 20
835.6
 30
0.0
 11
633.5
 21
835.6
 31
0.0
  0
ARC
  8
0
  6
CONTINUOUS
 62
     1
 10
642.5
 20
833.6
 30
0.0
 40
2.0
 50
0.0
 51
90.0
  0
LINE
  8
0
  6
CONTINUOUS
 62
     1
 10
644.5
 20
833.6
 30
0.0
 11
644.5
 21
791.6
 31
0.0
  0
ARC
  8
0
  6
CONTINUOUS
 62
     1
 10
642.5
 20
791.6
 30
0.0
 40
2.0
 50
270.0
 51
0.0
  0
ARC
  8
0
  6
CONTINUOUS
 62
     1
 10
633.5
 20
787.6
 30
0.0
 40
2.0
 50
90.0
 51
180.0
  0
LINE
  8
0
  6
CONTINUOUS
 62
     1
 10
642.5
 20
789.6
 30
0.0
 11
633.5
 21
789.6
 31
0.0
  0
LINE
  8
0
  6
CONTINUOUS
 62
     1
 10
647.5
 20
824.1
 30
0.0
 11
644.5
 21
824.1
 31
0.0
  0
LINE
  8
0
  6
CONTINUOUS
 62
     1
 10
647.5
 20
801.1
 30
0.0
 11
644.5
 21
801.1
 31
0.0
  0
LINE
  8
0
  6
CONTINUOUS
 62
     1
 10
647.5
 20
824.1
 30
0.0
 11
647.5
 21
801.1
 31
0.0
  0
LINE
  8
0
  6
LTYPE3
 62
     2
 10
624.0
 20
855.6
 30
0.0
 11
637.2
 21
855.6
 31
0.0
  0
LINE
  8
0
  6
CONTINUOUS
 62
     1
 10
612.310381815
 20
760.772417316
 30
0.0
 11
629.689618185
 21
762.427582684
 31
0.0
  0
LINE
  8
0
  6
LTYPE3
 62
     2
 10
624.0
 20
769.6
 30
0.0
 11
637.2
 21
769.6
 31
0.0
  0
ARC
  8
0
  6
CONTINUOUS
 62
     1
 10
612.5
 20
758.781426371
 30
0.0
 40
2.0
 50
95.440332031
 51
180.0
  0
LINE
  8
0
  6
CONTINUOUS
 62
     1
 10
631.5
 20
860.781426371
 30
0.0
 11
631.5
 21
764.98812
 31
0.0
  0
ARC
  8
0
  6
CONTINUOUS
 62
     1
 10
629.5
 20
860.781426371
 30
0.0
 40
2.0
 50
0.0
 51
84.559667969
  0
LINE
  8
0
  6
CONTINUOUS
 62
     1
 10
635.0002
 20
859.08244
 30
0.0
 11
634.348117512
 21
860.21188
 31
0.0
  0
LINE
  8
0
  6
CONTINUOUS
 62
     1
 10
635.0002
 20
852.11756
 30
0.0
 11
634.348117512
 21
850.98812
 31
0.0
  0
ARC
  8
0
  6
CONTINUOUS
 62
     1
 10
630.596945074
 20
855.6
 30
0.0
 40
4.403254926
 50
328.419912243
 51
31.580087757
  0
ARC
  8
0
  6
CONTINUOUS
 62
     1
 10
633.655279868
 20
859.05891
 30
0.0
 40
1.34512595
 50
301.002313915
 51
2.989498403
  0
LINE
  8
0
  6
CONTINUOUS
 62
     1
 10
635.0002
 20
852.11756
 30
0.0
 11
634.348117512
 21
850.98812
 31
0.0
  0
ARC
  8
0
  6
CONTINUOUS
 62
     1
 10
633.655279868
 20
852.14109
 30
0.0
 40
1.34512595
 50
357.010501597
 51
58.997686085
  0
LINE
  8
0
  6
CONTINUOUS
 62
     1
 10
631.5
 20
860.21188
 30
0.0
 11
634.348117512
 21
860.21188
 31
0.0
  0
LINE
  8
0
  6
CONTINUOUS
 62
     1
 10
631.5
 20
857.90594
 30
0.0
 11
634.348117512
 21
857.90594
 31
0.0
  0
LINE
  8
0
  6
CONTINUOUS
 62
     1
 10
631.5
 20
853.29406
 30
0.0
 11
634.348117512
 21
853.29406
 31
0.0
  0
LINE
  8
0
  6
CONTINUOUS
 62
     1
 10
631.5
 20
850.98812
 30
0.0
 11
634.348117512
 21
850.98812
 31
0.0
  0
LINE
  8
0
  6
CONTINUOUS
 62
     1
 10
635.0002
 20
859.08244
 30
0.0
 11
635.0002
 21
852.11756
 31
0.0
  0
LINE
  8
0
  6
CONTINUOUS
 62
     1
 10
652.5
 20
816.952902
 30
0.0
 11
651.684924603
 21
818.364654
 31
0.0
  0
LINE
  8
0
  6
CONTINUOUS
 62
     1
 10
652.5
 20
808.247098
 30
0.0
 11
651.684924603
 21
806.835346
 31
0.0
  0
ARC
  8
0
  6
CONTINUOUS
 62
     1
 10
646.996118477
 20
812.6
 30
0.0
 40
5.503881523
 50
328.419912243
 51
31.580087757
  0
ARC
  8
0
  6
CONTINUOUS
 62
     1
 10
650.818906993
 20
816.9234905
 30
0.0
 40
1.681350271
 50
301.002313915
 51
2.989498403
  0
LINE
  8
0
  6
CONTINUOUS
 62
     1
 10
652.5
 20
808.247098
 30
0.0
 11
651.684924603
 21
806.835346
 31
0.0
  0
ARC
  8
0
  6
CONTINUOUS
 62
     1
 10
650.818906993
 20
808.2765095
 30
0.0
 40
1.681350271
 50
357.010501597
 51
58.997686085
  0
LINE
  8
0
  6
CONTINUOUS
 62
     1
 10
648.50039
 20
815.482327
 30
0.0
 11
651.684924603
 21
815.482327
 31
0.0
  0
LINE
  8
0
  6
CONTINUOUS
 62
     1
 10
648.50039
 20
818.364654
 30
0.0
 11
651.684924603
 21
818.364654
 31
0.0
  0
LINE
  8
0
  6
CONTINUOUS
 62
     1
 10
648.50039
 20
809.717673
 30
0.0
 11
651.684924603
 21
809.717673
 31
0.0
  0
LINE
  8
0
  6
CONTINUOUS
 62
     1
 10
648.50039
 20
806.835346
 30
0.0
 11
651.684924603
 21
806.835346
 31
0.0
  0
LINE
  8
0
  6
CONTINUOUS
 62
     1
 10
652.5
 20
808.247098
 30
0.0
 11
652.5
 21
816.952902
 31
0.0
  0
LINE
  8
0
  6
CONTINUOUS
 62
     1
 10
648.50039
 20
819.1
 30
0.0
 11
647.5
 21
819.1
 31
0.0
  0
LINE
  8
0
  6
CONTINUOUS
 62
     1
 10
648.50039
 20
819.1
 30
0.0
 11
648.50039
 21
806.1
 31
0.0
  0
LINE
  8
0
  6
CONTINUOUS
 62
     1
 10
648.50039
 20
806.1
 30
0.0
 11
647.5
 21
806.1
 31
0.0
  0
LINE
  8
0
  6
CONTINUOUS
 62
     1
 10
635.0002
 20
766.11756
 30
0.0
 11
634.348117512
 21
764.98812
 31
0.0
  0
LINE
  8
0
  6
CONTINUOUS
 62
     1
 10
635.0002
 20
773.08244
 30
0.0
 11
634.348117512
 21
774.21188
 31
0.0
  0
ARC
  8
0
  6
CONTINUOUS
 62
     1
 10
630.596945074
 20
769.6
 30
0.0
 40
4.403254926
 50
328.419912243
 51
31.580087757
  0
ARC
  8
0
  6
CONTINUOUS
 62
     1
 10
633.655279868
 20
766.14109
 30
0.0
 40
1.34512595
 50
357.010501597
 51
58.997686085
  0
LINE
  8
0
  6
CONTINUOUS
 62
     1
 10
635.0002
 20
773.08244
 30
0.0
 11
634.348117512
 21
774.21188
 31
0.0
  0
ARC
  8
0
  6
CONTINUOUS
 62
     1
 10
633.655279868
 20
773.05891
 30
0.0
 40
1.34512595
 50
301.002313915
 51
2.989498403
  0
LINE
  8
0
  6
CONTINUOUS
 62
     1
 10
631.5
 20
764.98812
 30
0.0
 11
634.348117512
 21
764.98812
 31
0.0
  0
LINE
  8
0
  6
CONTINUOUS
 62
     1
 10
631.5
 20
767.29406
 30
0.0
 11
634.348117512
 21
767.29406
 31
0.0
  0
LINE
  8
0
  6
CONTINUOUS
 62
     1
 10
631.5
 20
771.90594
 30
0.0
 11
634.348117512
 21
771.90594
 31
0.0
  0
LINE
  8
0
  6
CONTINUOUS
 62
     1
 10
631.5
 20
774.21188
 30
0.0
 11
634.348117512
 21
774.21188
 31
0.0
  0
LINE
  8
0
  6
CONTINUOUS
 62
     1
 10
635.0002
 20
766.11756
 30
0.0
 11
635.0002
 21
773.08244
 31
0.0
  0
ARC
  8
0
  6
CONTINUOUS
 62
     1
 10
629.5
 20
764.418573629
 30
0.0
 40
2.0
 50
275.440332031
 51
0.0
  0
LINE
  8
0
  6
LTYPE1
 62
     1
 10
639.6
 20
827.1
 30
0.0
 11
631.5
 21
817.9
 31
0.0
  0
ARC
  8
0
  6
LTYPE1
 62
     1
 10
643.0
 20
824.1
 30
0.0
 40
4.5
 50
290.9
 51
137.7
  0
LINE
  8
0
  6
LTYPE1
 62
     1
 10
637.5
 20
817.1
 30
0.0
 11
631.5
 21
817.9
 31
0.0
  0
LINE
  8
0
  6
LTYPE1
 62
     1
 10
644.6
 20
819.9
 30
0.0
 11
637.5
 21
817.1
 31
0.0
  0
LINE
  8
0
  6
LTYPE1
 62
     1
 10
637.5
 20
808.1
 30
0.0
 11
631.5
 21
807.3
 31
0.0
  0
ARC
  8
0
  6
LTYPE1
 62
     1
 10
643.0
 20
801.1
 30
0.0
 40
4.5
 50
222.3
 51
69.1
  0
LINE
  8
0
  6
LTYPE1
 62
     1
 10
639.6
 20
798.1
 30
0.0
 11
631.5
 21
807.3
 31
0.0
  0
LINE
  8
0
  6
LTYPE1
 62
     1
 10
644.6
 20
805.3
 30
0.0
 11
637.5
 21
808.1
 31
0.0
  0
LINE
  8
0
  6
LTYPE1
 62
     1
 10
637.5
 20
817.1
 30
0.0
 11
637.5
 21
808.1
 31
0.0
  0
LINE
  8
0
  6
CONTINUOUS
 62
     1
 10
602.5
 20
741.6
 30
0.0
 11
602.5
 21
883.6
 31
0.0
  0
LINE
  8
0
  6
CONTINUOUS
 62
     1
 10
374.5
 20
883.6
 30
0.0
 11
607.5
 21
883.6
 31
0.0
  0
ARC
  8
0
  6
CONTINUOUS
 62
     1
 10
607.5
 20
880.6
 30
0.0
 40
3.0
 50
0.0
 51
90.0
  0
LINE
  8
0
  6
CONTINUOUS
 62
     1
 10
374.5
 20
741.6
 30
0.0
 11
607.5
 21
741.6
 31
0.0
  0
LINE
  8
0
  6
CONTINUOUS
 62
     1
 10
610.5
 20
880.6
 30
0.0
 11
610.5
 21
744.6
 31
0.0
  0
ARC
  8
0
  6
CONTINUOUS
 62
     1
 10
607.5
 20
744.6
 30
0.0
 40
3.0
 50
270.0
 51
0.0
  0
LINE
  8
0
  6
CONTINUOUS
 62
     2
 10
357.5
 20
870.936309448
 30
0.0
 11
387.5
 21
870.936309448
 31
0.0
  0
LINE
  8
0
  6
CONTINUOUS
 62
     1
 10
379.5
 20
860.936309448
 30
0.0
 11
379.5
 21
880.936309448
 31
0.0
  0
LINE
  8
0
  6
CONTINUOUS
 62
     1
 10
372.5
 20
880.936309448
 30
0.0
 11
379.5
 21
880.936309448
 31
0.0
  0
LINE
  8
0
  6
CONTINUOUS
 62
     1
 10
372.5
 20
860.936309448
 30
0.0
 11
379.5
 21
860.936309448
 31
0.0
  0
LINE
  8
0
  6
CONTINUOUS
 62
     1
 10
372.5
 20
875.936309448
 30
0.0
 11
379.5
 21
875.936309448
 31
0.0
  0
LINE
  8
0
  6
CONTINUOUS
 62
     1
 10
372.5
 20
865.936309448
 30
0.0
 11
379.5
 21
865.936309448
 31
0.0
  0
LINE
  8
0
  6
CONTINUOUS
 62
     2
 10
357.5
 20
754.263690552
 30
0.0
 11
387.5
 21
754.263690552
 31
0.0
  0
LINE
  8
0
  6
CONTINUOUS
 62
     1
 10
379.5
 20
764.263690552
 30
0.0
 11
379.5
 21
744.263690552
 31
0.0
  0
LINE
  8
0
  6
CONTINUOUS
 62
     1
 10
372.5
 20
744.263690552
 30
0.0
 11
379.5
 21
744.263690552
 31
0.0
  0
LINE
  8
0
  6
CONTINUOUS
 62
     1
 10
372.5
 20
764.263690552
 30
0.0
 11
379.5
 21
764.263690552
 31
0.0
  0
LINE
  8
0
  6
CONTINUOUS
 62
     1
 10
372.5
 20
749.263690552
 30
0.0
 11
379.5
 21
749.263690552
 31
0.0
  0
LINE
  8
0
  6
CONTINUOUS
 62
     1
 10
372.5
 20
759.263690552
 30
0.0
 11
379.5
 21
759.263690552
 31
0.0
  0
LINE
  8
0
  6
CONTINUOUS
 62
     2
 10
647.3
 20
830.1
 30
0.0
 11
655.593374416
 21
839.452536597
 31
0.0
  0
LINE
  8
0
  6
CONTINUOUS
 62
     2
 10
647.3
 20
830.1
 30
0.0
 11
649.806004628
 21
842.346221491
 31
0.0
  0
LINE
  8
0
  6
CONTINUOUS
 62
     2
 10
647.3
 20
830.1
 30
0.0
 11
720.3
 21
976.1
 31
0.0
  0
LINE
  8
0
  6
CONTINUOUS
 62
     2
 10
511.05
 20
919.6
 30
0.0
 11
519.343374416
 21
928.952536597
 31
0.0
  0
LINE
  8
0
  6
CONTINUOUS
 62
     2
 10
511.05
 20
919.6
 30
0.0
 11
513.556004628
 21
931.846221491
 31
0.0
  0
LINE
  8
2
  6
CONTINUOUS
 62
     2
 10
608.5
 20
883.6
 30
0.0
 11
704.5
 21
883.6
 31
0.0
  0
LINE
  8
2
  6
CONTINUOUS
 62
     2
 10
698.5
 20
883.6
 30
0.0
 11
694.617714323
 21
869.111112606
 31
0.0
  0
LINE
  8
2
  6
CONTINUOUS
 62
     2
 10
698.5
 20
883.6
 30
0.0
 11
702.382285677
 21
869.111112606
 31
0.0
  0
LINE
  8
2
  6
CONTINUOUS
 62
     2
 10
698.5
 20
883.6
 30
0.0
 11
698.5
 21
741.6
 31
0.0
  0
LINE
  8
2
  6
CONTINUOUS
 62
     2
 10
698.5
 20
741.6
 30
0.0
 11
702.382285677
 21
756.088887394
 31
0.0
  0
LINE
  8
2
  6
CONTINUOUS
 62
     2
 10
698.5
 20
741.6
 30
0.0
 11
694.617714323
 21
756.088887394
 31
0.0
  0
LINE
  8
2
  6
CONTINUOUS
 62
     2
 10
608.5
 20
741.6
 30
0.0
 11
704.5
 21
741.6
 31
0.0
  0
LINE
  8
0
  6
CONTINUOUS
 62
     2
 10
511.05
 20
919.6
 30
0.0
 11
534.68
 21
966.86
 31
0.0
  0
LINE
  8
0
  6
CONTINUOUS
 62
     2
 10
534.68
 20
966.86
 30
0.0
 11
618.08
 21
966.86
 31
0.0
  0
LINE
  8
0
  6
CONTINUOUS
 62
     2
 10
720.3
 20
976.1
 30
0.0
 11
873.15
 21
976.1
 31
0.0
  0
TEXT
  8
0
  6
CONTINUOUS
 62
     2
 10
534.68
 20
971.86
 30
0.0
 40
18.0
  1
ＰＦ３／４
 50
0.0
 41
0.9
 51
0.0
  7
KANJI17
  0
TEXT
  8
2
  6
CONTINUOUS
 62
     2
 10
692.5
 20
773.9
 30
0.0
 40
18.0
  1
φ１４２
 50
90.0
 41
0.9
 51
0.0
  7
KANJI17
  0
TEXT
  8
0
  6
CONTINUOUS
 62
     2
 10
721.8
 20
981.1
 30
0.0
 40
18.0
  1
ブレ－キ開放レバ－
 50
0.0
 41
0.9
 51
0.0
  7
KANJI17
  0
TEXT
  8
0
  6
CONTINUOUS
 62
     2
 10
420.040009455
 20
789.6
 30
0.0
 40
18.0
  1
日本電産
 50
0.0
 41
0.9
 51
0.0
  7
KANJI17
  0
TEXT
  8
0
  6
CONTINUOUS
 62
     2
 10
420.040009455
 20
765.6
 30
0.0
 40
18.0
  1
エコノストップモータ
 50
0.0
 41
0.9
 51
0.0
  7
KANJI17
  0
LINE
  8
0
  6
LTYPE2
 62
     2
 10
661.0
 20
813.5
 30
0.0
 11
245.6
 21
813.5
 31
0.0
  0
LINE
  8
0
  6
CONTINUOUS
 62
     1
 10
336.0
 20
914.5
 30
0.0
 11
345.2
 21
914.5
 31
0.0
  0
CIRCLE
  8
0
  6
CONTINUOUS
 62
     1
 10
336.0
 20
928.5
 30
0.0
 40
12.5
  0
LINE
  8
0
  6
CONTINUOUS
 62
     1
 10
336.0
 20
916.0
 30
0.0
 11
345.2
 21
914.5
 31
0.0
  0
ARC
  8
0
  6
CONTINUOUS
 62
     1
 10
336.0
 20
928.5
 30
0.0
 40
20.5
 50
300.423432294
 51
0.0
  0
LINE
  8
0
  6
CONTINUOUS
 62
     1
 10
345.760585153
 20
909.594879912
 30
0.0
 11
345.2
 21
914.5
 31
0.0
  0
ARC
  8
0
  6
CONTINUOUS
 62
     1
 10
346.947984073
 20
909.773488336
 30
0.0
 40
1.2
 50
118.393405187
 51
188.554293104
  0
LINE
  8
0
  6
CONTINUOUS
 62
     1
 10
336.0
 20
914.5
 30
0.0
 11
326.8
 21
914.5
 31
0.0
  0
LINE
  8
0
  6
CONTINUOUS
 62
     1
 10
336.0
 20
916.0
 30
0.0
 11
326.8
 21
914.5
 31
0.0
  0
LINE
  8
0
  6
CONTINUOUS
 62
     1
 10
326.239414847
 20
909.594879912
 30
0.0
 11
326.8
 21
914.5
 31
0.0
  0
ARC
  8
0
  6
CONTINUOUS
 62
     1
 10
325.052015927
 20
909.773488336
 30
0.0
 40
1.2
 50
351.445706896
 51
61.606594813
  0
ARC
  8
0
  6
CONTINUOUS
 62
     1
 10
336.0
 20
928.5
 30
0.0
 40
20.5
 50
0.0
 51
239.707348078
  0
LINE
  8
0
  6
CONTINUOUS
 62
     1
 10
326.114285714
 20
908.5
 30
0.0
 11
326.239414847
 21
909.594879912
 31
0.0
  0
LINE
  8
0
  6
CONTINUOUS
 62
     1
 10
345.885714286
 20
908.5
 30
0.0
 11
345.760585153
 21
909.594879912
 31
0.0
  0
LINE
  8
0
  6
CONTINUOUS
 62
     1
 10
360.0
 20
908.5
 30
0.0
 11
326.0
 21
908.5
 31
0.0
  0
ARC
  8
0
  6
CONTINUOUS
 62
     1
 10
326.0
 20
905.5
 30
0.0
 40
3.0
 50
90.0
 51
180.0
  0
LINE
  8
0
  6
CONTINUOUS
 62
     1
 10
352.0
 20
908.5
 30
0.0
 11
348.0
 21
856.5
 31
0.0
  0
LINE
  8
0
  6
CONTINUOUS
 62
     1
 10
348.0
 20
850.9
 30
0.0
 11
348.0
 21
856.5
 31
0.0
  0
LINE
  8
0
  6
CONTINUOUS
 62
     1
 10
348.0
 20
789.5
 30
0.0
 11
348.0
 21
847.8
 31
0.0
  0
ARC
  8
0
  6
CONTINUOUS
 62
     1
 10
342.0
 20
789.5
 30
0.0
 40
6.0
 50
270.0
 51
0.0
  0
LINE
  8
0
  6
CONTINUOUS
 62
     1
 10
352.0
 20
789.5
 30
0.0
 11
352.0
 21
908.5
 31
0.0
  0
LINE
  8
0
  6
CONTINUOUS
 62
     1
 10
346.0
 20
783.5
 30
0.0
 11
289.0
 21
783.5
 31
0.0
  0
ARC
  8
0
  6
CONTINUOUS
 62
     1
 10
346.0
 20
789.5
 30
0.0
 40
6.0
 50
270.0
 51
0.0
  0
LINE
  8
0
  6
CONTINUOUS
 62
     1
 10
323.0
 20
862.5
 30
0.0
 11
323.0
 21
905.5
 31
0.0
  0
ARC
  8
0
  6
CONTINUOUS
 62
     1
 10
317.0
 20
862.5
 30
0.0
 40
6.0
 50
270.0
 51
360.0
  0
LINE
  8
0
  6
CONTINUOUS
 62
     1
 10
348.0
 20
856.5
 30
0.0
 11
317.0
 21
856.5
 31
0.0
  0
LINE
  8
0
  6
CONTINUOUS
 62
     1
 10
360.0
 20
912.7
 30
0.0
 11
370.0
 21
912.7
 31
0.0
  0
LINE
  8
0
  6
CONTINUOUS
 62
     1
 10
360.0
 20
712.7
 30
0.0
 11
360.0
 21
912.7
 31
0.0
  0
LINE
  8
0
  6
LTYPE2
 62
     2
 10
359.5
 20
928.5
 30
0.0
 11
310.5
 21
928.5
 31
0.0
  0
LINE
  8
0
  6
LTYPE2
 62
     2
 10
336.0
 20
894.6
 30
0.0
 11
336.0
 21
957.3
 31
0.0
  0
LINE
  8
0
  6
CONTINUOUS
 62
     1
 10
360.5
 20
912.6
 30
0.0
 11
369.5
 21
912.6
 31
0.0
  0
ARC
  8
0
  6
CONTINUOUS
 62
     1
 10
369.5
 20
909.6
 30
0.0
 40
3.0
 50
0.0
 51
90.0
  0
LINE
  8
0
  6
CONTINUOUS
 62
     1
 10
372.5
 20
883.6
 30
0.0
 11
372.5
 21
909.6
 31
0.0
  0
LINE
  8
0
  6
CONTINUOUS
 62
     1
 10
255.0
 20
796.5
 30
0.0
 11
255.0
 21
830.5
 31
0.0
  0
LINE
  8
0
  6
CONTINUOUS
 62
     1
 10
285.0
 20
796.5
 30
0.0
 11
285.0
 21
830.5
 31
0.0
  0
LINE
  8
0
  6
CONTINUOUS
 62
     1
 10
289.0
 20
830.5
 30
0.0
 11
255.0
 21
830.5
 31
0.0
  0
LINE
  8
0
  6
CONTINUOUS
 62
     1
 10
317.0
 20
856.5
 30
0.0
 11
289.0
 21
856.5
 31
0.0
  0
LINE
  8
0
  6
CONTINUOUS
 62
     2
 10
279.5
 20
830.3
 30
0.0
 11
278.019645058
 21
842.712032438
 31
0.0
  0
LINE
  8
0
  6
CONTINUOUS
 62
     2
 10
279.5
 20
830.3
 30
0.0
 11
272.011958794
 21
840.308957933
 31
0.0
  0
LINE
  8
0
  6
CONTINUOUS
 62
     2
 10
239.58
 20
930.1
 30
0.0
 11
158.6
 21
930.1
 31
0.0
  0
LINE
  8
0
  6
CONTINUOUS
 62
     2
 10
279.5
 20
830.3
 30
0.0
 11
239.58
 21
930.1
 31
0.0
  0
TEXT
  8
0
  6
CONTINUOUS
 62
     2
 10
158.6
 20
935.1
 30
0.0
 40
18.0
  1
手動軸カバー
 50
0.0
 41
0.9
 51
0.0
  7
KANJI17
  0
TEXT
  8
0
  6
CONTINUOUS
 62
     3
 10
160.466667
 20
910.766683
 30
1.5
 40
15.0
  1
手動軸□８
 50
0.0
 41
0.9
 51
0.0
  7
KANJI42
  0
ARC
  8
0
  6
CONTINUOUS
 62
     2
 10
201.0
 20
812.0
 30
0.0
 40
20.0
 50
231.952957468
 51
156.801409486
  0
LINE
  8
0
  6
CONTINUOUS
 62
     2
 10
182.6170994
 20
819.878385972
 30
0.0
 11
184.91179211
 21
829.715824749
 31
0.0
  0
TEXT
  8
0
  6
CONTINUOUS
 62
     2
 10
120.6170994
 20
802.878385972
 30
0.0
 40
15.0
  1
前進方向
 50
0.0
 41
0.9
 51
0.0
  7
KANJI37
  0
LINE
  8
0
  6
CONTINUOUS
 62
     2
 10
182.6170994
 20
819.878385972
 30
0.0
 11
190.885260778
 21
824.785722507
 31
0.0
  0
LINE
  8
0
  6
CONTINUOUS
 62
     1
 10
289.0
 20
796.5
 30
0.0
 11
255.0
 21
796.5
 31
0.0
  0
LINE
  8
0
  6
CONTINUOUS
 62
     1
 10
289.0
 20
581.0
 30
0.0
 11
289.0
 21
856.5
 31
0.0
  0
LINE
  8
0
  6
CONTINUOUS
 62
     1
 10
360.0
 20
581.0
 30
0.0
 11
360.0
 21
715.5
 31
0.0
  0
LINE
  8
0
  6
CONTINUOUS
 62
     1
 10
360.0
 20
581.0
 30
0.0
 11
360.0
 21
908.5
 31
0.0
  0
LINE
  8
0
  6
CONTINUOUS
 62
     2
 10
360.0
 20
918.7
 30
0.0
 11
360.0
 21
1056.02
 31
0.0
  0
LINE
  8
0
  6
CONTINUOUS
 62
     2
 10
360.0
 20
1050.02
 30
0.0
 11
371.591109915
 21
1046.914171459
 31
0.0
  0
LINE
  8
0
  6
CONTINUOUS
 62
     2
 10
360.0
 20
1050.02
 30
0.0
 11
371.591109915
 21
1053.125828541
 31
0.0
  0
LINE
  8
0
  6
CONTINUOUS
 62
     2
 10
360.0
 20
1050.02
 30
0.0
 11
652.0
 21
1050.02
 31
0.0
  0
LINE
  8
0
  6
CONTINUOUS
 62
     2
 10
652.0
 20
1050.02
 30
0.0
 11
640.408890085
 21
1053.125828541
 31
0.0
  0
LINE
  8
0
  6
CONTINUOUS
 62
     2
 10
652.0
 20
1050.02
 30
0.0
 11
640.408890085
 21
1046.914171459
 31
0.0
  0
TEXT
  8
0
  6
CONTINUOUS
 62
     3
 10
481.7
 20
1059.02
 30
0.0
 40
18.0
  1
２９２
 50
0.0
 41
0.9
 51
0.0
  7
KANJI17
  0
LINE
  8
0
  6
CONTINUOUS
 62
     2
 10
360.0
 20
1033.12
 30
0.0
 11
360.0
 21
1056.02
 31
0.0
  0
LINE
  8
0
  6
CONTINUOUS
 62
     2
 10
360.0
 20
1050.02
 30
0.0
 11
348.408890085
 21
1053.125828541
 31
0.0
  0
LINE
  8
0
  6
CONTINUOUS
 62
     2
 10
360.0
 20
1050.02
 30
0.0
 11
348.408890085
 21
1046.914171459
 31
0.0
  0
LINE
  8
0
  6
CONTINUOUS
 62
     2
 10
360.0
 20
1050.02
 30
0.0
 11
255.0
 21
1050.02
 31
0.0
  0
LINE
  8
0
  6
CONTINUOUS
 62
     2
 10
255.0
 20
1050.02
 30
0.0
 11
266.591109915
 21
1046.914171459
 31
0.0
  0
LINE
  8
0
  6
CONTINUOUS
 62
     2
 10
255.0
 20
1050.02
 30
0.0
 11
266.591109915
 21
1053.125828541
 31
0.0
  0
LINE
  8
0
  6
CONTINUOUS
 62
     2
 10
255.0
 20
836.5
 30
0.0
 11
255.0
 21
1056.02
 31
0.0
  0
TEXT
  8
0
  6
CONTINUOUS
 62
     3
 10
285.34
 20
1058.42
 30
0.0
 40
18.0
  1
１１３
 50
0.0
 41
0.9
 51
0.0
  7
KANJI17
  0
LINE
  8
0
  6
CONTINUOUS
 62
     2
 10
652.0
 20
821.08
 30
0.0
 11
652.0
 21
1056.02
 31
0.0
  0
LINE
  8
0
  6
CONTINUOUS
 62
     2
 10
1519.872218677
 20
813.5
 30
0.0
 11
1516.636980613
 21
801.425927171
 31
0.0
  0
LINE
  8
0
  6
CONTINUOUS
 62
     2
 10
1519.872218677
 20
813.5
 30
0.0
 11
1523.10745674
 21
801.425927171
 31
0.0
  0
LINE
  8
0
  6
CONTINUOUS
 62
     2
 10
1519.872218677
 20
813.5
 30
0.0
 11
1523.10745674
 21
825.574072829
 31
0.0
  0
LINE
  8
0
  6
CONTINUOUS
 62
     2
 10
1519.872218677
 20
813.5
 30
0.0
 11
1516.636980613
 21
825.574072829
 31
0.0
  0
LINE
  8
0
  6
CONTINUOUS
 62
     1
 10
1263.5
 20
850.0
 30
0.0
 11
1263.5
 21
873.029404499
 31
0.0
  0
LINE
  8
0
  6
CONTINUOUS
 62
     1
 10
1448.5
 20
848.5
 30
0.0
 11
1448.5
 21
873.029404499
 31
0.0
  0
LINE
  8
0
  6
CONTINUOUS
 62
     1
 10
1386.0
 20
895.5
 30
0.0
 11
1386.0
 21
898.5
 31
0.0
  0
ARC
  8
0
  6
CONTINUOUS
 62
     1
 10
1382.0
 20
892.5
 30
0.0
 40
3.0
 50
90.0
 51
180.0
  0
LINE
  8
0
  6
CONTINUOUS
 62
     1
 10
1379.0
 20
881.653619242
 30
0.0
 11
1379.0
 21
892.5
 31
0.0
  0
ARC
  8
0
  6
CONTINUOUS
 62
     1
 10
1375.0
 20
881.653619242
 30
0.0
 40
4.0
 50
304.936144888
 51
0.0
  0
ARC
  8
0
  6
CONTINUOUS
 62
     1
 10
1330.0
 20
892.5
 30
0.0
 40
3.0
 50
0.0
 51
90.0
  0
LINE
  8
0
  6
CONTINUOUS
 62
     1
 10
1333.0
 20
881.653619242
 30
0.0
 11
1333.0
 21
892.5
 31
0.0
  0
ARC
  8
0
  6
CONTINUOUS
 62
     1
 10
1337.0
 20
881.653619242
 30
0.0
 40
4.0
 50
180.0
 51
235.063855112
  0
CIRCLE
  8
0
  6
CONTINUOUS
 62
     1
 10
1356.0
 20
920.5
 30
0.0
 40
17.0
  0
LINE
  8
0
  6
LTYPE3
 62
     2
 10
1333.0
 20
920.5
 30
0.0
 11
1379.0
 21
920.5
 31
0.0
  0
ARC
  8
0
  6
CONTINUOUS
 62
     1
 10
1314.0
 20
942.520045888
 30
0.0
 40
2.0
 50
90.0
 51
180.0
  0
ARC
  8
0
  6
CONTINUOUS
 62
     1
 10
1322.0
 20
948.5
 30
0.0
 40
2.0
 50
90.0
 51
180.0
  0
LINE
  8
0
  6
CONTINUOUS
 62
     1
 10
1322.0
 20
950.5
 30
0.0
 11
1390.0
 21
950.5
 31
0.0
  0
ARC
  8
0
  6
CONTINUOUS
 62
     1
 10
1390.0
 20
948.5
 30
0.0
 40
2.0
 50
0.0
 51
90.0
  0
LINE
  8
0
  6
CONTINUOUS
 62
     1
 10
1398.0
 20
944.520045888
 30
0.0
 11
1314.0
 21
944.520045888
 31
0.0
  0
ARC
  8
0
  6
CONTINUOUS
 62
     1
 10
1398.0
 20
942.520045888
 30
0.0
 40
2.0
 50
0.0
 51
90.0
  0
ARC
  8
0
  6
CONTINUOUS
 62
     1
 10
1314.0
 20
946.520045888
 30
0.0
 40
2.0
 50
90.0
 51
180.0
  0
ARC
  8
0
  6
CONTINUOUS
 62
     1
 10
1322.0
 20
939.5
 30
0.0
 40
2.0
 50
90.0
 51
180.0
  0
LINE
  8
0
  6
CONTINUOUS
 62
     1
 10
1322.0
 20
941.5
 30
0.0
 11
1390.0
 21
941.5
 31
0.0
  0
ARC
  8
0
  6
CONTINUOUS
 62
     1
 10
1390.0
 20
939.5
 30
0.0
 40
2.0
 50
0.0
 51
90.0
  0
LINE
  8
0
  6
CONTINUOUS
 62
     1
 10
1398.0
 20
948.520045888
 30
0.0
 11
1314.0
 21
948.520045888
 31
0.0
  0
ARC
  8
0
  6
CONTINUOUS
 62
     1
 10
1398.0
 20
946.520045888
 30
0.0
 40
2.0
 50
0.0
 51
90.0
  0
LINE
  8
0
  6
CONTINUOUS
 62
     1
 10
1326.0
 20
895.5
 30
0.0
 11
1386.0
 21
895.5
 31
0.0
  0
LINE
  8
0
  6
CONTINUOUS
 62
     1
 10
1326.0
 20
895.5
 30
0.0
 11
1326.0
 21
898.5
 31
0.0
  0
LINE
  8
0
  6
CONTINUOUS
 62
     1
 10
1392.0
 20
900.5
 30
0.0
 11
1398.0
 21
900.5
 31
0.0
  0
LINE
  8
0
  6
CONTINUOUS
 62
     1
 10
1400.0
 20
902.5
 30
0.0
 11
1400.0
 21
946.520045888
 31
0.0
  0
ARC
  8
0
  6
CONTINUOUS
 62
     1
 10
1398.0
 20
902.5
 30
0.0
 40
2.0
 50
270.0
 51
0.0
  0
LINE
  8
0
  6
CONTINUOUS
 62
     1
 10
1392.0
 20
900.5
 30
0.0
 11
1392.0
 21
939.5
 31
0.0
  0
ARC
  8
0
  6
CONTINUOUS
 62
     1
 10
1390.0
 20
900.5
 30
0.0
 40
2.0
 50
270.0
 51
0.0
  0
LINE
  8
0
  6
CONTINUOUS
 62
     1
 10
1320.0
 20
900.5
 30
0.0
 11
1320.0
 21
939.5
 31
0.0
  0
LINE
  8
0
  6
CONTINUOUS
 62
     1
 10
1322.0
 20
898.5
 30
0.0
 11
1390.0
 21
898.5
 31
0.0
  0
ARC
  8
0
  6
CONTINUOUS
 62
     1
 10
1322.0
 20
900.5
 30
0.0
 40
2.0
 50
180.0
 51
270.0
  0
LINE
  8
0
  6
CONTINUOUS
 62
     1
 10
1320.0
 20
900.5
 30
0.0
 11
1314.0
 21
900.5
 31
0.0
  0
LINE
  8
0
  6
CONTINUOUS
 62
     1
 10
1312.0
 20
902.5
 30
0.0
 11
1312.0
 21
946.520045888
 31
0.0
  0
ARC
  8
0
  6
CONTINUOUS
 62
     1
 10
1314.0
 20
902.5
 30
0.0
 40
2.0
 50
180.0
 51
270.0
  0
CIRCLE
  8
0
  6
CONTINUOUS
 62
     2
 10
1356.0
 20
920.5
 30
0.0
 40
15.0
  0
CIRCLE
  8
0
  6
CONTINUOUS
 62
     1
 10
1356.0
 20
813.5
 30
0.0
 40
71.0
  0
ARC
  8
0
  6
CONTINUOUS
 62
     1
 10
1356.0
 20
813.5
 30
0.0
 40
100.0
 50
116.103881137
 51
63.896118863
  0
LINE
  8
0
  6
LTYPE3
 62
     2
 10
1306.0
 20
863.5
 30
0.0
 11
1290.0
 21
879.5
 31
0.0
  0
LINE
  8
0
  6
CONTINUOUS
 62
     1
 10
1302.663690552
 20
880.496563486
 30
0.0
 11
1292.663690552
 21
880.496563486
 31
0.0
  0
LINE
  8
0
  6
CONTINUOUS
 62
     1
 10
1292.663690552
 20
880.496563486
 30
0.0
 11
1287.663690552
 21
871.836309448
 31
0.0
  0
LINE
  8
0
  6
CONTINUOUS
 62
     1
 10
1287.663690552
 20
871.836309448
 30
0.0
 11
1292.663690552
 21
863.17605541
 31
0.0
  0
LINE
  8
0
  6
CONTINUOUS
 62
     1
 10
1292.663690552
 20
863.17605541
 30
0.0
 11
1302.663690552
 21
863.17605541
 31
0.0
  0
LINE
  8
0
  6
CONTINUOUS
 62
     1
 10
1302.663690552
 20
863.17605541
 30
0.0
 11
1307.663690552
 21
871.836309448
 31
0.0
  0
LINE
  8
0
  6
CONTINUOUS
 62
     1
 10
1307.663690552
 20
871.836309448
 30
0.0
 11
1302.663690552
 21
880.496563486
 31
0.0
  0
LINE
  8
0
  6
LTYPE3
 62
     2
 10
1406.0
 20
863.5
 30
0.0
 11
1422.0
 21
879.5
 31
0.0
  0
LINE
  8
0
  6
CONTINUOUS
 62
     1
 10
1409.336309448
 20
880.496563486
 30
0.0
 11
1419.336309448
 21
880.496563486
 31
0.0
  0
LINE
  8
0
  6
CONTINUOUS
 62
     1
 10
1419.336309448
 20
880.496563486
 30
0.0
 11
1424.336309448
 21
871.836309448
 31
0.0
  0
LINE
  8
0
  6
CONTINUOUS
 62
     1
 10
1424.336309448
 20
871.836309448
 30
0.0
 11
1419.336309448
 21
863.17605541
 31
0.0
  0
LINE
  8
0
  6
CONTINUOUS
 62
     1
 10
1419.336309448
 20
863.17605541
 30
0.0
 11
1409.336309448
 21
863.17605541
 31
0.0
  0
LINE
  8
0
  6
CONTINUOUS
 62
     1
 10
1409.336309448
 20
863.17605541
 30
0.0
 11
1404.336309448
 21
871.836309448
 31
0.0
  0
LINE
  8
0
  6
CONTINUOUS
 62
     1
 10
1404.336309448
 20
871.836309448
 30
0.0
 11
1409.336309448
 21
880.496563486
 31
0.0
  0
LINE
  8
0
  6
LTYPE3
 62
     2
 10
1306.0
 20
763.5
 30
0.0
 11
1290.0
 21
747.5
 31
0.0
  0
LINE
  8
0
  6
CONTINUOUS
 62
     1
 10
1287.663690552
 20
755.163690552
 30
0.0
 11
1292.663690552
 21
763.82394459
 31
0.0
  0
LINE
  8
0
  6
CONTINUOUS
 62
     1
 10
1292.663690552
 20
763.82394459
 30
0.0
 11
1302.663690552
 21
763.82394459
 31
0.0
  0
LINE
  8
0
  6
CONTINUOUS
 62
     1
 10
1302.663690552
 20
763.82394459
 30
0.0
 11
1307.663690552
 21
755.163690552
 31
0.0
  0
LINE
  8
0
  6
LTYPE3
 62
     2
 10
1406.0
 20
763.5
 30
0.0
 11
1422.0
 21
747.5
 31
0.0
  0
LINE
  8
0
  6
CONTINUOUS
 62
     1
 10
1424.336309448
 20
755.163690552
 30
0.0
 11
1419.336309448
 21
763.82394459
 31
0.0
  0
LINE
  8
0
  6
CONTINUOUS
 62
     1
 10
1419.336309448
 20
763.82394459
 30
0.0
 11
1409.336309448
 21
763.82394459
 31
0.0
  0
LINE
  8
0
  6
CONTINUOUS
 62
     1
 10
1409.336309448
 20
763.82394459
 30
0.0
 11
1404.336309448
 21
755.163690552
 31
0.0
  0
ARC
  8
0
  6
LTYPE3
 62
     2
 10
1356.0
 20
813.5
 30
0.0
 40
82.5
 50
213.899731785
 51
235.960335446
  0
ARC
  8
0
  6
LTYPE3
 62
     2
 10
1356.0
 20
813.5
 30
0.0
 40
82.5
 50
300.927939213
 51
327.087998905
  0
ARC
  8
0
  6
LTYPE3
 62
     2
 10
1356.0
 20
813.5
 30
0.0
 40
82.5
 50
122.095648245
 51
145.904134413
  0
ARC
  8
0
  6
LTYPE3
 62
     2
 10
1356.0
 20
813.5
 30
0.0
 40
82.5
 50
35.204140887
 51
56.44447448
  0
ARC
  8
0
  6
CONTINUOUS
 62
     1
 10
1356.0
 20
813.5
 30
0.0
 40
110.0
 50
113.578178478
 51
147.236242241
  0
ARC
  8
0
  6
CONTINUOUS
 62
     1
 10
1356.0
 20
813.5
 30
0.0
 40
110.0
 50
32.763757759
 51
66.421821522
  0
LINE
  8
0
  6
CONTINUOUS
 62
     2
 10
1366.872218677
 20
950.5
 30
0.0
 11
1512.372218677
 21
950.5
 31
0.0
  0
LINE
  8
0
  6
CONTINUOUS
 62
     2
 10
1555.622218677
 20
950.5
 30
0.0
 11
1552.386980613
 21
938.425927171
 31
0.0
  0
LINE
  8
0
  6
CONTINUOUS
 62
     2
 10
1555.622218677
 20
950.5
 30
0.0
 11
1558.85745674
 21
938.425927171
 31
0.0
  0
LINE
  8
0
  6
CONTINUOUS
 62
     2
 10
1512.372218677
 20
950.5
 30
0.0
 11
1563.122218677
 21
950.5
 31
0.0
  0
LINE
  8
0
  6
CONTINUOUS
 62
     2
 10
1519.872218677
 20
786.3
 30
0.0
 11
1519.872218677
 21
950.5
 31
0.0
  0
LINE
  8
0
  6
CONTINUOUS
 62
     2
 10
1519.872218677
 20
950.5
 30
0.0
 11
1516.636980613
 21
938.425927171
 31
0.0
  0
LINE
  8
0
  6
CONTINUOUS
 62
     2
 10
1519.872218677
 20
950.5
 30
0.0
 11
1523.10745674
 21
938.425927171
 31
0.0
  0
ARC
  8
0
  6
CONTINUOUS
 62
     1
 10
1370.987995196
 20
859.1
 30
0.0
 40
8.0
 50
200.487315115
 51
251.805127661
  0
ARC
  8
0
  6
CONTINUOUS
 62
     1
 10
1341.012004804
 20
859.1
 30
0.0
 40
8.0
 50
288.194872339
 51
339.512684885
  0
ARC
  8
0
  6
CONTINUOUS
 62
     1
 10
1356.0
 20
853.5
 30
0.0
 40
8.0
 50
20.487315115
 51
159.512540111
  0
ARC
  8
0
  6
CONTINUOUS
 62
     1
 10
1370.987995196
 20
767.9
 30
0.0
 40
8.0
 50
108.194872339
 51
159.512684885
  0
ARC
  8
0
  6
CONTINUOUS
 62
     1
 10
1341.012004804
 20
767.9
 30
0.0
 40
8.0
 50
20.487315115
 51
71.805127661
  0
ARC
  8
0
  6
CONTINUOUS
 62
     1
 10
1356.0
 20
773.5
 30
0.0
 40
8.0
 50
200.487459889
 51
339.512684885
  0
ARC
  8
0
  6
CONTINUOUS
 62
     1
 10
1356.0
 20
813.5
 30
0.0
 40
40.0
 50
108.194872339
 51
251.805127661
  0
ARC
  8
0
  6
CONTINUOUS
 62
     1
 10
1402.0
 20
813.5
 30
0.0
 40
9.0
 50
278.674045508
 51
81.325934821
  0
CIRCLE
  8
0
  6
CONTINUOUS
 62
     1
 10
1356.0
 20
813.5
 30
0.0
 40
23.0
  0
ARC
  8
0
  6
CONTINUOUS
 62
     1
 10
1356.0
 20
813.5
 30
0.0
 40
40.0
 50
25.554707728
 51
71.805142343
  0
ARC
  8
0
  6
CONTINUOUS
 62
     1
 10
1356.0
 20
813.5
 30
0.0
 40
40.0
 50
288.194857657
 51
334.445306215
  0
LINE
  8
0
  6
CONTINUOUS
 62
     2
 10
1399.0
 20
830.5
 30
0.0
 11
1399.0
 21
794.5
 31
0.0
  0
LINE
  8
0
  6
CONTINUOUS
 62
     1
 10
1400.0
 20
829.6
 30
0.0
 11
1398.0
 21
829.6
 31
0.0
  0
LINE
  8
0
  6
CONTINUOUS
 62
     1
 10
1398.0
 20
829.6
 30
0.0
 11
1396.0
 21
818.0
 31
0.0
  0
LINE
  8
0
  6
CONTINUOUS
 62
     1
 10
1400.0
 20
829.6
 30
0.0
 11
1402.0
 21
818.0
 31
0.0
  0
LINE
  8
0
  6
CONTINUOUS
 62
     1
 10
1400.0
 20
797.4
 30
0.0
 11
1398.0
 21
797.4
 31
0.0
  0
LINE
  8
0
  6
CONTINUOUS
 62
     1
 10
1398.0
 20
797.4
 30
0.0
 11
1396.0
 21
809.0
 31
0.0
  0
LINE
  8
0
  6
CONTINUOUS
 62
     1
 10
1400.0
 20
797.4
 30
0.0
 11
1402.0
 21
809.0
 31
0.0
  0
ARC
  8
0
  6
CONTINUOUS
 62
     1
 10
1405.619565217
 20
837.2254873
 30
0.0
 40
15.0
 50
205.554693785
 51
235.747997449
  0
ARC
  8
0
  6
CONTINUOUS
 62
     1
 10
1405.619565217
 20
837.2254873
 30
0.0
 40
15.0
 50
252.681090544
 51
261.325827457
  0
ARC
  8
0
  6
CONTINUOUS
 62
     1
 10
1405.619565217
 20
789.7745127
 30
0.0
 40
15.0
 50
124.468179449
 51
154.445306215
  0
ARC
  8
0
  6
CONTINUOUS
 62
     1
 10
1405.619565217
 20
789.7745127
 30
0.0
 40
15.0
 50
98.674172543
 51
107.318909456
  0
CIRCLE
  8
0
  6
CONTINUOUS
 62
     1
 10
1399.0
 20
813.5
 30
0.0
 40
3.0
  0
LINE
  8
0
  6
CONTINUOUS
 62
     1
 10
1396.021304702
 20
818.123567272
 30
0.0
 11
1395.978695298
 21
808.876432728
 31
0.0
  0
LINE
  8
0
  6
CONTINUOUS
 62
     1
 10
1402.021304702
 20
808.876432728
 30
0.0
 11
1401.978695298
 21
818.123567272
 31
0.0
  0
ARC
  8
0
  6
CONTINUOUS
 62
     1
 10
1399.0
 20
813.5
 30
0.0
 40
5.5
 50
304.570397879
 51
57.208673154
  0
ARC
  8
0
  6
CONTINUOUS
 62
     1
 10
1399.0
 20
813.5
 30
0.0
 40
5.5
 50
122.791326846
 51
235.429602121
  0
LINE
  8
0
  6
CONTINUOUS
 62
     1
 10
1358.35
 20
860.570319398
 30
0.0
 11
1353.65
 21
860.570319398
 31
0.0
  0
LINE
  8
0
  6
CONTINUOUS
 62
     1
 10
1353.65
 20
860.570319398
 30
0.0
 11
1351.3
 21
856.5
 31
0.0
  0
LINE
  8
0
  6
CONTINUOUS
 62
     1
 10
1351.3
 20
856.5
 30
0.0
 11
1353.65
 21
852.429680602
 31
0.0
  0
LINE
  8
0
  6
CONTINUOUS
 62
     1
 10
1353.65
 20
852.429680602
 30
0.0
 11
1358.35
 21
852.429680602
 31
0.0
  0
LINE
  8
0
  6
CONTINUOUS
 62
     1
 10
1358.35
 20
852.429680602
 30
0.0
 11
1360.7
 21
856.5
 31
0.0
  0
LINE
  8
0
  6
CONTINUOUS
 62
     1
 10
1360.7
 20
856.5
 30
0.0
 11
1358.35
 21
860.570319398
 31
0.0
  0
LINE
  8
0
  6
CONTINUOUS
 62
     2
 10
1362.0
 20
856.5
 30
0.0
 11
1350.0
 21
856.5
 31
0.0
  0
LINE
  8
0
  6
CONTINUOUS
 62
     1
 10
1353.65
 20
766.429680602
 30
0.0
 11
1351.3
 21
770.5
 31
0.0
  0
LINE
  8
0
  6
CONTINUOUS
 62
     1
 10
1351.3
 20
770.5
 30
0.0
 11
1353.65
 21
774.570319398
 31
0.0
  0
LINE
  8
0
  6
CONTINUOUS
 62
     1
 10
1353.65
 20
774.570319398
 30
0.0
 11
1358.35
 21
774.570319398
 31
0.0
  0
LINE
  8
0
  6
CONTINUOUS
 62
     1
 10
1358.35
 20
774.570319398
 30
0.0
 11
1360.7
 21
770.5
 31
0.0
  0
LINE
  8
0
  6
CONTINUOUS
 62
     1
 10
1360.7
 20
770.5
 30
0.0
 11
1358.35
 21
766.429680602
 31
0.0
  0
LINE
  8
0
  6
CONTINUOUS
 62
     2
 10
1362.0
 20
770.5
 30
0.0
 11
1350.0
 21
770.5
 31
0.0
  0
LINE
  8
0
  6
CONTINUOUS
 62
     1
 10
1351.063655198
 20
816.35
 30
0.0
 11
1351.063655198
 21
810.65
 31
0.0
  0
LINE
  8
0
  6
CONTINUOUS
 62
     1
 10
1351.063655198
 20
810.65
 30
0.0
 11
1356.0
 21
807.8
 31
0.0
  0
LINE
  8
0
  6
CONTINUOUS
 62
     1
 10
1356.0
 20
807.8
 30
0.0
 11
1360.936344802
 21
810.65
 31
0.0
  0
LINE
  8
0
  6
CONTINUOUS
 62
     1
 10
1360.936344802
 20
810.65
 30
0.0
 11
1360.936344802
 21
816.35
 31
0.0
  0
LINE
  8
0
  6
CONTINUOUS
 62
     1
 10
1360.936344802
 20
816.35
 30
0.0
 11
1356.0
 21
819.2
 31
0.0
  0
LINE
  8
0
  6
CONTINUOUS
 62
     1
 10
1356.0
 20
819.2
 30
0.0
 11
1351.063655198
 21
816.35
 31
0.0
  0
CIRCLE
  8
0
  6
CONTINUOUS
 62
     1
 10
1356.0
 20
813.5
 30
0.0
 40
6.5
  0
LINE
  8
0
  6
LTYPE3
 62
     2
 10
1356.0
 20
538.5
 30
0.0
 11
1356.0
 21
956.5
 31
0.0
  0
TEXT
  8
0
  6
CONTINUOUS
 62
     2
 10
1514.872218677
 20
858.85
 30
0.0
 40
18.0
  1
１３７
 50
90.0
 41
0.9
 51
0.0
  7
KANJI17
  0
TEXT
  8
0
  6
CONTINUOUS
 62
     2
 10
1477.222218677
 20
673.25
 30
0.0
 40
18.0
  1
φ２０Ｈ１０深さ２５
 50
90.0
 41
0.9
 51
0.0
  7
KANJI17
  0
LINE
  8
0
  6
CONTINUOUS
 62
     2
 10
1482.5
 20
827.0
 30
0.0
 11
1482.5
 21
628.75
 31
0.0
  0
LINE
  8
0
  6
LTYPE4
 62
     2
 10
1236.5
 20
813.5
 30
0.0
 11
1457.0
 21
813.5
 31
0.0
  0
LINE
  8
0
  6
CONTINUOUS
 62
     1
 10
1302.663690552
 20
746.503436514
 30
0.0
 11
1292.663690552
 21
746.503436514
 31
0.0
  0
LINE
  8
0
  6
CONTINUOUS
 62
     1
 10
1292.663690552
 20
746.503436514
 30
0.0
 11
1287.663690552
 21
755.163690552
 31
0.0
  0
LINE
  8
0
  6
CONTINUOUS
 62
     1
 10
1307.663690552
 20
755.163690552
 30
0.0
 11
1302.663690552
 21
746.503436514
 31
0.0
  0
LINE
  8
0
  6
CONTINUOUS
 62
     1
 10
1409.336309448
 20
746.503436514
 30
0.0
 11
1419.336309448
 21
746.503436514
 31
0.0
  0
LINE
  8
0
  6
CONTINUOUS
 62
     1
 10
1419.336309448
 20
746.503436514
 30
0.0
 11
1424.336309448
 21
755.163690552
 31
0.0
  0
LINE
  8
0
  6
CONTINUOUS
 62
     1
 10
1404.336309448
 20
755.163690552
 30
0.0
 11
1409.336309448
 21
746.503436514
 31
0.0
  0
LINE
  8
0
  6
CONTINUOUS
 62
     2
 10
1519.872218677
 20
658.5
 30
0.0
 11
1519.872218677
 21
813.5
 31
0.0
  0
LINE
  8
0
  6
CONTINUOUS
 62
     2
 10
1555.622218677
 20
547.5
 30
0.0
 11
1555.622218677
 21
950.5
 31
0.0
  0
LINE
  8
0
  6
CONTINUOUS
 62
     1
 10
1279.0
 20
679.860720927
 30
0.0
 11
1279.0
 21
750.481752852
 31
0.0
  0
LINE
  8
0
  6
CONTINUOUS
 62
     1
 10
1433.0
 20
679.860720927
 30
0.0
 11
1433.0
 21
751.231405856
 31
0.0
  0
TEXT
  8
0
  6
CONTINUOUS
 62
     2
 10
1514.872218677
 20
713.75
 30
0.0
 40
18.0
  1
１５５
 50
90.0
 41
0.9
 51
0.0
  7
KANJI17
  0
TEXT
  8
0
  6
CONTINUOUS
 62
     2
 10
1550.622218677
 20
725.35
 30
0.0
 40
18.0
  1
４０３
 50
90.0
 41
0.9
 51
0.0
  7
KANJI17
  0
LINE
  8
0
  6
CONTINUOUS
 62
     1
 10
1014.12
 20
1491.24
 30
0.0
 11
1791.72
 21
1491.24
 31
0.0
  0
LINE
  8
0
  6
CONTINUOUS
 62
     1
 10
1014.12
 20
1457.64
 30
0.0
 11
1791.72
 21
1457.64
 31
0.0
  0
TEXT
  8
0
  6
CONTINUOUS
 62
     2
 10
1062.12
 20
1467.24
 30
1.536
 40
15.36
  1
形
 50
0.0
 41
0.9
 51
0.0
  7
KANJI43
  0
TEXT
  8
0
  6
CONTINUOUS
 62
     2
 10
1155.72
 20
1467.24
 30
1.536
 40
15.36
  1
式
 50
0.0
 41
0.9
 51
0.0
  7
KANJI43
  0
TEXT
  8
0
  6
CONTINUOUS
 62
     2
 10
1228.2
 20
1466.28
 30
1.44
 40
14.4
  1
ストローク
 50
0.0
 41
0.9
 51
0.0
  7
KANJI44
  0
TEXT
  8
0
  6
CONTINUOUS
 62
     2
 10
1320.36
 20
1465.32
 30
0.0
 40
14.4
  1
ｍｉｎ　
 50
0.0
 41
0.9
 51
0.0
  7
KANJI45
  0
TEXT
  8
0
  6
CONTINUOUS
 62
     2
 10
1416.36
 20
1465.32
 30
0.0
 40
14.4
  1
ｍｉｎ　
 50
0.0
 41
0.9
 51
0.0
  7
KANJI45
  0
TEXT
  8
0
  6
CONTINUOUS
 62
     2
 10
1608.36
 20
1465.32
 30
0.0
 40
14.4
  1
ｍｉｎ　
 50
0.0
 41
0.9
 51
0.0
  7
KANJI45
  0
TEXT
  8
0
  6
CONTINUOUS
 62
     2
 10
1369.32
 20
1466.28
 30
1.68
 40
16.8
  1
ＡＬ
 50
0.0
 41
0.9
 51
0.0
  7
KANJI46
  0
TEXT
  8
0
  6
CONTINUOUS
 62
     2
 10
1465.32
 20
1466.28
 30
1.68
 40
16.8
  1
Ｌ
 50
0.0
 41
0.9
 51
0.0
  7
KANJI46
  0
TEXT
  8
0
  6
CONTINUOUS
 62
     2
 10
1546.92
 20
1466.28
 30
1.68
 40
16.8
  1
Ｃ
 50
0.0
 41
0.9
 51
0.0
  7
KANJI46
  0
TEXT
  8
0
  6
CONTINUOUS
 62
     2
 10
1657.32
 20
1466.28
 30
1.68
 40
16.8
  1
Ｐ
 50
0.0
 41
0.9
 51
0.0
  7
KANJI46
  0
TEXT
  8
0
  6
CONTINUOUS
 62
     2
 10
1756.08
 20
1465.92
 30
0.0
 40
12.96
  1
（ｋｇ）
 50
0.0
 41
0.740740741
 51
0.0
  7
KANJI47
  0
TEXT
  8
0
  6
CONTINUOUS
 62
     2
 10
1698.48
 20
1465.68
 30
1.44
 40
16.8
  1
概算重量
 50
0.0
 41
0.857142857
 51
0.0
  7
KANJI48
  0
LINE
  8
0
  6
CONTINUOUS
 62
     2
 10
1014.12
 20
1424.04
 30
0.0
 11
1791.72
 21
1424.04
 31
0.0
  0
LINE
  8
0
  6
CONTINUOUS
 62
     2
 10
1014.12
 20
1390.44
 30
0.0
 11
1791.72
 21
1390.44
 31
0.0
  0
TEXT
  8
0
  6
CONTINUOUS
 62
     2
 10
1237.32
 20
1432.08
 30
1.44
 40
14.4
  1
　２００
 50
0.0
 41
0.9
 51
0.0
  7
KANJI44
  0
TEXT
  8
0
  6
CONTINUOUS
 62
     2
 10
1237.32
 20
1398.48
 30
1.44
 40
14.4
  1
　３００
 50
0.0
 41
0.9
 51
0.0
  7
KANJI44
  0
TEXT
  8
0
  6
CONTINUOUS
 62
     2
 10
1237.32
 20
1264.08
 30
1.44
 40
14.4
  1
　７００
 50
0.0
 41
0.9
 51
0.0
  7
KANJI44
  0
LINE
  8
0
  6
CONTINUOUS
 62
     2
 10
1014.12
 20
1222.44
 30
0.0
 11
1791.72
 21
1222.44
 31
0.0
  0
LINE
  8
0
  6
CONTINUOUS
 62
     2
 10
1014.12
 20
1323.24
 30
0.0
 11
1791.72
 21
1323.24
 31
0.0
  0
LINE
  8
0
  6
CONTINUOUS
 62
     2
 10
1014.12
 20
1356.84
 30
0.0
 11
1791.72
 21
1356.84
 31
0.0
  0
LINE
  8
0
  6
CONTINUOUS
 62
     2
 10
1014.12
 20
1256.04
 30
0.0
 11
1791.72
 21
1256.04
 31
0.0
  0
LINE
  8
0
  6
CONTINUOUS
 62
     2
 10
1014.12
 20
1289.64
 30
0.0
 11
1791.72
 21
1289.64
 31
0.0
  0
TEXT
  8
0
  6
CONTINUOUS
 62
     2
 10
1237.32
 20
1331.28
 30
1.44
 40
14.4
  1
　５００
 50
0.0
 41
0.9
 51
0.0
  7
KANJI44
  0
TEXT
  8
0
  6
CONTINUOUS
 62
     2
 10
1237.32
 20
1364.88
 30
1.44
 40
14.4
  1
　４００
 50
0.0
 41
0.9
 51
0.0
  7
KANJI44
  0
TEXT
  8
0
  6
CONTINUOUS
 62
     2
 10
1237.32
 20
1297.68
 30
1.44
 40
14.4
  1
　６００
 50
0.0
 41
0.9
 51
0.0
  7
KANJI44
  0
TEXT
  8
0
  6
CONTINUOUS
 62
     2
 10
1237.32
 20
1230.48
 30
1.44
 40
14.4
  1
　８００
 50
0.0
 41
0.9
 51
0.0
  7
KANJI44
  0
TEXT
  8
0
  6
CONTINUOUS
 62
     2
 10
1621.32
 20
1432.08
 30
1.44
 40
14.4
  1
　　４５
 50
0.0
 41
0.9
 51
0.0
  7
KANJI44
  0
TEXT
  8
0
  6
CONTINUOUS
 62
     2
 10
1621.32
 20
1398.48
 30
1.44
 40
14.4
  1
　　４５
 50
0.0
 41
0.9
 51
0.0
  7
KANJI44
  0
TEXT
  8
0
  6
CONTINUOUS
 62
     2
 10
1621.32
 20
1364.88
 30
1.44
 40
14.4
  1
　　４５
 50
0.0
 41
0.9
 51
0.0
  7
KANJI44
  0
TEXT
  8
0
  6
CONTINUOUS
 62
     2
 10
1621.32
 20
1331.28
 30
1.44
 40
14.4
  1
　　４５
 50
0.0
 41
0.9
 51
0.0
  7
KANJI44
  0
TEXT
  8
0
  6
CONTINUOUS
 62
     2
 10
1621.32
 20
1297.68
 30
1.44
 40
14.4
  1
　　４５
 50
0.0
 41
0.9
 51
0.0
  7
KANJI44
  0
TEXT
  8
0
  6
CONTINUOUS
 62
     2
 10
1621.32
 20
1264.08
 30
1.44
 40
14.4
  1
　　４５
 50
0.0
 41
0.9
 51
0.0
  7
KANJI44
  0
TEXT
  8
0
  6
CONTINUOUS
 62
     2
 10
1621.32
 20
1230.48
 30
1.44
 40
14.4
  1
　　４５
 50
0.0
 41
0.9
 51
0.0
  7
KANJI44
  0
TEXT
  8
0
  6
CONTINUOUS
 62
     2
 10
1525.32
 20
1432.08
 30
1.44
 40
14.4
  1
　３７８
 50
0.0
 41
0.9
 51
0.0
  7
KANJI44
  0
TEXT
  8
0
  6
CONTINUOUS
 62
     2
 10
1525.32
 20
1398.48
 30
1.44
 40
14.4
  1
　４７８
 50
0.0
 41
0.9
 51
0.0
  7
KANJI44
  0
TEXT
  8
0
  6
CONTINUOUS
 62
     2
 10
1525.32
 20
1364.88
 30
1.44
 40
14.4
  1
　５７８
 50
0.0
 41
0.9
 51
0.0
  7
KANJI44
  0
TEXT
  8
0
  6
CONTINUOUS
 62
     2
 10
1525.32
 20
1331.28
 30
1.44
 40
14.4
  1
　６７８
 50
0.0
 41
0.9
 51
0.0
  7
KANJI44
  0
TEXT
  8
0
  6
CONTINUOUS
 62
     2
 10
1525.32
 20
1297.68
 30
1.44
 40
14.4
  1
　８１８
 50
0.0
 41
0.9
 51
0.0
  7
KANJI44
  0
TEXT
  8
0
  6
CONTINUOUS
 62
     2
 10
1525.32
 20
1264.08
 30
1.44
 40
14.4
  1
　９１８
 50
0.0
 41
0.9
 51
0.0
  7
KANJI44
  0
TEXT
  8
0
  6
CONTINUOUS
 62
     2
 10
1525.32
 20
1230.48
 30
1.44
 40
14.4
  1
１０１８
 50
0.0
 41
0.9
 51
0.0
  7
KANJI44
  0
TEXT
  8
0
  6
CONTINUOUS
 62
     2
 10
1429.32
 20
1432.08
 30
1.44
 40
14.4
  1
　４７３
 50
0.0
 41
0.9
 51
0.0
  7
KANJI44
  0
TEXT
  8
0
  6
CONTINUOUS
 62
     2
 10
1429.32
 20
1398.48
 30
1.44
 40
14.4
  1
　５７３
 50
0.0
 41
0.9
 51
0.0
  7
KANJI44
  0
TEXT
  8
0
  6
CONTINUOUS
 62
     2
 10
1429.32
 20
1364.88
 30
1.44
 40
14.4
  1
　６７３
 50
0.0
 41
0.9
 51
0.0
  7
KANJI44
  0
TEXT
  8
0
  6
CONTINUOUS
 62
     2
 10
1429.32
 20
1331.28
 30
1.44
 40
14.4
  1
　７７３
 50
0.0
 41
0.9
 51
0.0
  7
KANJI44
  0
TEXT
  8
0
  6
CONTINUOUS
 62
     2
 10
1429.32
 20
1297.68
 30
1.44
 40
14.4
  1
　９１３
 50
0.0
 41
0.9
 51
0.0
  7
KANJI44
  0
TEXT
  8
0
  6
CONTINUOUS
 62
     2
 10
1429.32
 20
1264.08
 30
1.44
 40
14.4
  1
１０１３
 50
0.0
 41
0.9
 51
0.0
  7
KANJI44
  0
TEXT
  8
0
  6
CONTINUOUS
 62
     2
 10
1429.32
 20
1230.48
 30
1.44
 40
14.4
  1
１１１３
 50
0.0
 41
0.9
 51
0.0
  7
KANJI44
  0
TEXT
  8
0
  6
CONTINUOUS
 62
     2
 10
1333.32
 20
1432.08
 30
1.44
 40
14.4
  1
　６１９
 50
0.0
 41
0.9
 51
0.0
  7
KANJI44
  0
TEXT
  8
0
  6
CONTINUOUS
 62
     2
 10
1333.32
 20
1398.48
 30
1.44
 40
14.4
  1
　７１９
 50
0.0
 41
0.9
 51
0.0
  7
KANJI44
  0
TEXT
  8
0
  6
CONTINUOUS
 62
     2
 10
1333.32
 20
1364.88
 30
1.44
 40
14.4
  1
　８１９
 50
0.0
 41
0.9
 51
0.0
  7
KANJI44
  0
TEXT
  8
0
  6
CONTINUOUS
 62
     2
 10
1333.32
 20
1331.28
 30
1.44
 40
14.4
  1
　９１９
 50
0.0
 41
0.9
 51
0.0
  7
KANJI44
  0
TEXT
  8
0
  6
CONTINUOUS
 62
     2
 10
1333.32
 20
1297.68
 30
1.44
 40
14.4
  1
１０５９
 50
0.0
 41
0.9
 51
0.0
  7
KANJI44
  0
TEXT
  8
0
  6
CONTINUOUS
 62
     2
 10
1333.32
 20
1264.08
 30
1.44
 40
14.4
  1
１１５９
 50
0.0
 41
0.9
 51
0.0
  7
KANJI44
  0
TEXT
  8
0
  6
CONTINUOUS
 62
     2
 10
1333.32
 20
1230.48
 30
1.44
 40
14.4
  1
１２５９
 50
0.0
 41
0.9
 51
0.0
  7
KANJI44
  0
LINE
  8
0
  6
CONTINUOUS
 62
     1
 10
1014.12
 20
1055.04
 30
0.0
 11
1791.72
 21
1055.04
 31
0.0
  0
LINE
  8
0
  6
CONTINUOUS
 62
     2
 10
1014.12
 20
1088.64
 30
0.0
 11
1791.72
 21
1088.64
 31
0.0
  0
LINE
  8
0
  6
CONTINUOUS
 62
     1
 10
1014.12
 20
1491.24
 30
0.0
 11
1014.12
 21
1055.04
 31
0.0
  0
LINE
  8
0
  6
CONTINUOUS
 62
     1
 10
1215.72
 20
1491.24
 30
0.0
 11
1215.72
 21
1055.04
 31
0.0
  0
LINE
  8
0
  6
CONTINUOUS
 62
     2
 10
1311.72
 20
1491.24
 30
0.0
 11
1311.72
 21
1055.04
 31
0.0
  0
LINE
  8
0
  6
CONTINUOUS
 62
     2
 10
1407.72
 20
1491.24
 30
0.0
 11
1407.72
 21
1055.04
 31
0.0
  0
LINE
  8
0
  6
CONTINUOUS
 62
     2
 10
1503.72
 20
1491.24
 30
0.0
 11
1503.72
 21
1055.04
 31
0.0
  0
LINE
  8
0
  6
CONTINUOUS
 62
     2
 10
1599.72
 20
1491.24
 30
0.0
 11
1599.72
 21
1055.04
 31
0.0
  0
LINE
  8
0
  6
CONTINUOUS
 62
     2
 10
1695.72
 20
1491.24
 30
0.0
 11
1695.72
 21
1055.04
 31
0.0
  0
LINE
  8
0
  6
CONTINUOUS
 62
     1
 10
1791.72
 20
1491.24
 30
0.0
 11
1791.72
 21
1055.04
 31
0.0
  0
LINE
  8
0
  6
CONTINUOUS
 62
     2
 10
1014.12
 20
1154.84
 30
0.0
 11
1791.72
 21
1154.84
 31
0.0
  0
LINE
  8
0
  6
CONTINUOUS
 62
     2
 10
1014.12
 20
1188.84
 30
0.0
 11
1791.72
 21
1188.84
 31
0.0
  0
TEXT
  8
0
  6
CONTINUOUS
 62
     2
 10
1237.32
 20
1163.28
 30
1.44
 40
14.4
  1
１０００
 50
0.0
 41
0.9
 51
0.0
  7
KANJI44
  0
TEXT
  8
0
  6
CONTINUOUS
 62
     2
 10
1237.32
 20
1196.88
 30
1.44
 40
14.4
  1
　９００
 50
0.0
 41
0.9
 51
0.0
  7
KANJI44
  0
TEXT
  8
0
  6
CONTINUOUS
 62
     2
 10
1333.32
 20
1196.88
 30
1.44
 40
14.4
  1
１３５９
 50
0.0
 41
0.9
 51
0.0
  7
KANJI44
  0
TEXT
  8
0
  6
CONTINUOUS
 62
     2
 10
1333.32
 20
1163.28
 30
1.44
 40
14.4
  1
１４５９
 50
0.0
 41
0.9
 51
0.0
  7
KANJI44
  0
TEXT
  8
0
  6
CONTINUOUS
 62
     2
 10
1429.32
 20
1196.88
 30
1.44
 40
14.4
  1
１２１３
 50
0.0
 41
0.9
 51
0.0
  7
KANJI44
  0
TEXT
  8
0
  6
CONTINUOUS
 62
     2
 10
1429.32
 20
1163.28
 30
1.44
 40
14.4
  1
１３１３
 50
0.0
 41
0.9
 51
0.0
  7
KANJI44
  0
TEXT
  8
0
  6
CONTINUOUS
 62
     2
 10
1525.32
 20
1196.88
 30
1.44
 40
14.4
  1
１１１８
 50
0.0
 41
0.9
 51
0.0
  7
KANJI44
  0
TEXT
  8
0
  6
CONTINUOUS
 62
     2
 10
1525.32
 20
1163.28
 30
1.44
 40
14.4
  1
１２１８
 50
0.0
 41
0.9
 51
0.0
  7
KANJI44
  0
TEXT
  8
0
  6
CONTINUOUS
 62
     2
 10
1621.32
 20
1196.88
 30
1.44
 40
14.4
  1
　　４５
 50
0.0
 41
0.9
 51
0.0
  7
KANJI44
  0
TEXT
  8
0
  6
CONTINUOUS
 62
     2
 10
1621.32
 20
1163.28
 30
1.44
 40
14.4
  1
　　４５
 50
0.0
 41
0.9
 51
0.0
  7
KANJI44
  0
LINE
  8
0
  6
CONTINUOUS
 62
     2
 10
1014.12
 20
1121.84
 30
0.0
 11
1791.72
 21
1121.84
 31
0.0
  0
TEXT
  8
0
  6
CONTINUOUS
 62
     2
 10
1621.32
 20
1129.88
 30
1.44
 40
14.4
  1
　　４５
 50
0.0
 41
0.9
 51
0.0
  7
KANJI44
  0
TEXT
  8
0
  6
CONTINUOUS
 62
     2
 10
1621.32
 20
1096.28
 30
1.44
 40
14.4
  1
　　４５
 50
0.0
 41
0.9
 51
0.0
  7
KANJI44
  0
TEXT
  8
0
  6
CONTINUOUS
 62
     2
 10
1237.32
 20
1129.88
 30
1.44
 40
14.4
  1
１１００
 50
0.0
 41
0.9
 51
0.0
  7
KANJI44
  0
TEXT
  8
0
  6
CONTINUOUS
 62
     2
 10
1237.32
 20
1096.28
 30
1.44
 40
14.4
  1
１２００
 50
0.0
 41
0.9
 51
0.0
  7
KANJI44
  0
TEXT
  8
0
  6
CONTINUOUS
 62
     2
 10
1525.32
 20
1129.88
 30
1.44
 40
14.4
  1
１３１８
 50
0.0
 41
0.9
 51
0.0
  7
KANJI44
  0
TEXT
  8
0
  6
CONTINUOUS
 62
     2
 10
1525.32
 20
1096.28
 30
1.44
 40
14.4
  1
１４１８
 50
0.0
 41
0.9
 51
0.0
  7
KANJI44
  0
TEXT
  8
0
  6
CONTINUOUS
 62
     2
 10
1429.32
 20
1129.88
 30
1.44
 40
14.4
  1
１４１３
 50
0.0
 41
0.9
 51
0.0
  7
KANJI44
  0
TEXT
  8
0
  6
CONTINUOUS
 62
     2
 10
1429.32
 20
1096.28
 30
1.44
 40
14.4
  1
１５１３
 50
0.0
 41
0.9
 51
0.0
  7
KANJI44
  0
TEXT
  8
0
  6
CONTINUOUS
 62
     2
 10
1333.32
 20
1129.88
 30
1.44
 40
14.4
  1
１５５９
 50
0.0
 41
0.9
 51
0.0
  7
KANJI44
  0
TEXT
  8
0
  6
CONTINUOUS
 62
     2
 10
1333.32
 20
1096.28
 30
1.44
 40
14.4
  1
１６５９
 50
0.0
 41
0.9
 51
0.0
  7
KANJI44
  0
TEXT
  8
0
  6
CONTINUOUS
 62
     2
 10
1029.72
 20
1431.72
 30
0.96
 40
14.4
  1
ＭＣＬＤ１－　　２
 50
0.0
 41
0.833333333
 51
0.0
  7
KANJI49
  0
TEXT
  8
0
  6
CONTINUOUS
 62
     2
 10
1029.72
 20
1398.12
 30
0.96
 40
14.4
  1
ＭＣＬＤ１－　　３
 50
0.0
 41
0.833333333
 51
0.0
  7
KANJI49
  0
TEXT
  8
0
  6
CONTINUOUS
 62
     2
 10
1029.72
 20
1364.52
 30
0.96
 40
14.4
  1
ＭＣＬＤ１－　　４
 50
0.0
 41
0.833333333
 51
0.0
  7
KANJI49
  0
TEXT
  8
0
  6
CONTINUOUS
 62
     2
 10
1029.72
 20
1330.92
 30
0.96
 40
14.4
  1
ＭＣＬＤ１－　　５
 50
0.0
 41
0.833333333
 51
0.0
  7
KANJI49
  0
TEXT
  8
0
  6
CONTINUOUS
 62
     2
 10
1029.72
 20
1297.32
 30
0.96
 40
14.4
  1
ＭＣＬＤ１－　　６
 50
0.0
 41
0.833333333
 51
0.0
  7
KANJI49
  0
TEXT
  8
0
  6
CONTINUOUS
 62
     2
 10
1029.72
 20
1263.72
 30
0.96
 40
14.4
  1
ＭＣＬＤ１－　　７
 50
0.0
 41
0.833333333
 51
0.0
  7
KANJI49
  0
TEXT
  8
0
  6
CONTINUOUS
 62
     2
 10
1029.72
 20
1230.12
 30
0.96
 40
14.4
  1
ＭＣＬＤ１－　　８
 50
0.0
 41
0.833333333
 51
0.0
  7
KANJI49
  0
TEXT
  8
0
  6
CONTINUOUS
 62
     2
 10
1029.72
 20
1196.52
 30
0.96
 40
14.4
  1
ＭＣＬＤ１－　　９
 50
0.0
 41
0.833333333
 51
0.0
  7
KANJI49
  0
TEXT
  8
0
  6
CONTINUOUS
 62
     2
 10
1029.72
 20
1162.92
 30
0.96
 40
14.4
  1
ＭＣＬＤ１－　１０
 50
0.0
 41
0.833333333
 51
0.0
  7
KANJI49
  0
TEXT
  8
0
  6
CONTINUOUS
 62
     2
 10
1029.72
 20
1129.52
 30
0.96
 40
14.4
  1
ＭＣＬＤ１－　１１
 50
0.0
 41
0.833333333
 51
0.0
  7
KANJI49
  0
TEXT
  8
0
  6
CONTINUOUS
 62
     2
 10
1029.72
 20
1095.92
 30
0.96
 40
14.4
  1
ＭＣＬＤ１－　１２
 50
0.0
 41
0.833333333
 51
0.0
  7
KANJI49
  0
TEXT
  8
0
  6
CONTINUOUS
 62
     2
 10
1029.72
 20
1062.12
 30
0.96
 40
14.4
  1
ＭＣＬＤ１－　　
 50
0.0
 41
0.833333333
 51
0.0
  7
KANJI49
  0
TEXT
  8
0
  6
CONTINUOUS
 62
     2
 10
1717.32
 20
1432.08
 30
1.44
 40
14.4
  1
　５５
 50
0.0
 41
0.9
 51
0.0
  7
KANJI44
  0
TEXT
  8
0
  6
CONTINUOUS
 62
     2
 10
1717.32
 20
1398.48
 30
1.44
 40
14.4
  1
　５７
 50
0.0
 41
0.9
 51
0.0
  7
KANJI44
  0
TEXT
  8
0
  6
CONTINUOUS
 62
     2
 10
1717.32
 20
1364.88
 30
1.44
 40
14.4
  1
　５８
 50
0.0
 41
0.9
 51
0.0
  7
KANJI44
  0
TEXT
  8
0
  6
CONTINUOUS
 62
     2
 10
1717.32
 20
1331.28
 30
1.44
 40
14.4
  1
　５９
 50
0.0
 41
0.9
 51
0.0
  7
KANJI44
  0
TEXT
  8
0
  6
CONTINUOUS
 62
     2
 10
1717.32
 20
1297.68
 30
1.44
 40
14.4
  1
　６０
 50
0.0
 41
0.9
 51
0.0
  7
KANJI44
  0
TEXT
  8
0
  6
CONTINUOUS
 62
     2
 10
1717.32
 20
1264.08
 30
1.44
 40
14.4
  1
　６３
 50
0.0
 41
0.9
 51
0.0
  7
KANJI44
  0
TEXT
  8
0
  6
CONTINUOUS
 62
     2
 10
1717.32
 20
1230.48
 30
1.44
 40
14.4
  1
　６５
 50
0.0
 41
0.9
 51
0.0
  7
KANJI44
  0
TEXT
  8
0
  6
CONTINUOUS
 62
     2
 10
1717.32
 20
1196.88
 30
1.44
 40
14.4
  1
　６７
 50
0.0
 41
0.9
 51
0.0
  7
KANJI44
  0
TEXT
  8
0
  6
CONTINUOUS
 62
     2
 10
1717.32
 20
1163.28
 30
1.44
 40
14.4
  1
　６８
 50
0.0
 41
0.9
 51
0.0
  7
KANJI44
  0
TEXT
  8
0
  6
CONTINUOUS
 62
     2
 10
1717.32
 20
1129.88
 30
1.44
 40
14.4
  1
　７０
 50
0.0
 41
0.9
 51
0.0
  7
KANJI44
  0
TEXT
  8
0
  6
CONTINUOUS
 62
     2
 10
1717.32
 20
1096.28
 30
1.44
 40
14.4
  1
　７８
 50
0.0
 41
0.9
 51
0.0
  7
KANJI44
  0
LINE
  8
0
  6
CONTINUOUS
 62
     2
 10
877.603319123
 20
149.733311846
 30
0.0
 11
877.603319123
 21
94.233311846
 31
0.0
  0
LINE
  8
0
  6
CONTINUOUS
 62
     2
 10
718.403319123
 20
136.233311846
 30
0.0
 11
877.603319123
 21
136.233311846
 31
0.0
  0
LINE
  8
0
  6
CONTINUOUS
 62
     2
 10
877.603319123
 20
136.233311846
 30
0.0
 11
869.875912513
 21
138.303864207
 31
0.0
  0
LINE
  8
0
  6
CONTINUOUS
 62
     2
 10
877.603319123
 20
136.233311846
 30
0.0
 11
869.875912513
 21
134.162759485
 31
0.0
  0
TEXT
  8
0
  6
CONTINUOUS
 62
     3
 10
757.853319123
 20
138.233311846
 30
0.0
 40
15.0
  1
常用ストローク
 50
0.0
 41
0.9
 51
0.0
  7
KANJI37
  0
LINE
  8
0
  6
CONTINUOUS
 62
     2
 10
1480.1
 20
813.5
 30
0.0
 11
1527.372218677
 21
813.5
 31
0.0
  0
TEXT
  8
0
  6
CONTINUOUS
 62
     2
 10
1648.5200334
 20
126.899994
 30
1.8
 40
21.0
  1
０７．１０．０２
 50
0.0
 41
0.571428571
 51
0.0
  7
KANJI50
  0
LINE
  8
0
  6
CONTINUOUS
 62
     2
 10
1873.92
 20
896.7
 30
0.0
 11
2398.92
 21
896.7
 31
0.0
  0
LINE
  8
0
  6
CONTINUOUS
 62
     2
 10
1873.92
 20
854.7
 30
0.0
 11
2398.92
 21
854.7
 31
0.0
  0
LINE
  8
0
  6
CONTINUOUS
 62
     2
 10
1921.92
 20
1232.7
 30
0.0
 11
1921.92
 21
896.7
 31
0.0
  0
TEXT
  8
0
  6
CONTINUOUS
 62
     2
 10
1906.92
 20
865.5
 30
79.962857143
 40
22.8
  1
付属品
 50
0.0
 41
0.9
 51
0.0
  7
KANJI51
  0
TEXT
  8
0
  6
CONTINUOUS
 62
     2
 10
1906.92
 20
823.5
 30
180.445714286
 40
22.8
  1
台数
 50
0.0
 41
0.9
 51
0.0
  7
KANJI52
  0
LINE
  8
0
  6
CONTINUOUS
 62
     1
 10
1873.92
 20
1628.7
 30
0.0
 11
2398.92
 21
1628.7
 31
0.0
  0
TEXT
  8
0
  6
CONTINUOUS
 62
     2
 10
1948.92
 20
1584.9
 30
17.09964
 40
27.0
  1
マイティシリンダ仕様
 50
0.0
 41
0.9
 51
0.0
  7
KANJI53
  0
LINE
  8
0
  6
CONTINUOUS
 62
     2
 10
1921.92
 20
938.7
 30
0.0
 11
2398.92
 21
938.7
 31
0.0
  0
LINE
  8
0
  6
CONTINUOUS
 62
     2
 10
1921.92
 20
1064.7
 30
0.0
 11
2398.92
 21
1064.7
 31
0.0
  0
LINE
  8
0
  6
CONTINUOUS
 62
     2
 10
1921.92
 20
1106.7
 30
0.0
 11
2398.92
 21
1106.7
 31
0.0
  0
LINE
  8
0
  6
CONTINUOUS
 62
     2
 10
1873.92
 20
1316.7
 30
0.0
 11
2398.92
 21
1316.7
 31
0.0
  0
LINE
  8
0
  6
CONTINUOUS
 62
     2
 10
1873.92
 20
1274.7
 30
0.0
 11
2398.92
 21
1274.7
 31
0.0
  0
LINE
  8
0
  6
CONTINUOUS
 62
     2
 10
1873.92
 20
1232.7
 30
0.0
 11
2398.92
 21
1232.7
 31
0.0
  0
LINE
  8
0
  6
CONTINUOUS
 62
     2
 10
1921.92
 20
1148.7
 30
0.0
 11
2398.92
 21
1148.7
 31
0.0
  0
LINE
  8
0
  6
CONTINUOUS
 62
     2
 10
1921.92
 20
1190.7
 30
0.0
 11
2398.92
 21
1190.7
 31
0.0
  0
LINE
  8
0
  6
CONTINUOUS
 62
     2
 10
1873.92
 20
1526.7
 30
0.0
 11
2398.92
 21
1526.7
 31
0.0
  0
LINE
  8
0
  6
CONTINUOUS
 62
     2
 10
1873.92
 20
1484.7
 30
0.0
 11
2398.92
 21
1484.7
 31
0.0
  0
LINE
  8
0
  6
CONTINUOUS
 62
     2
 10
1873.92
 20
1442.7
 30
0.0
 11
2398.92
 21
1442.7
 31
0.0
  0
LINE
  8
0
  6
CONTINUOUS
 62
     2
 10
1873.92
 20
1400.7
 30
0.0
 11
2398.92
 21
1400.7
 31
0.0
  0
LINE
  8
0
  6
CONTINUOUS
 62
     2
 10
1873.92
 20
1358.7
 30
0.0
 11
2398.92
 21
1358.7
 31
0.0
  0
LINE
  8
0
  6
CONTINUOUS
 62
     2
 10
1873.92
 20
1568.7
 30
0.0
 11
2398.92
 21
1568.7
 31
0.0
  0
TEXT
  8
0
  6
CONTINUOUS
 62
     2
 10
1948.92
 20
1159.5
 30
33.439782857
 40
22.8
  1
電源電圧
 50
0.0
 41
0.9
 51
0.0
  7
KANJI54
  0
TEXT
  8
0
  6
CONTINUOUS
 62
     2
 10
1948.92
 20
1117.5
 30
60.42
 40
22.8
  1
周波数
 50
0.0
 41
0.9
 51
0.0
  7
KANJI55
  0
TEXT
  8
0
  6
CONTINUOUS
 62
     2
 10
1948.92
 20
1075.5
 30
141.36
 40
22.8
  1
電流
 50
0.0
 41
0.9
 51
0.0
  7
KANJI56
  0
TEXT
  8
0
  6
CONTINUOUS
 62
     2
 10
1948.92
 20
1033.5
 30
60.42
 40
22.8
  1
絶縁級
 50
0.0
 41
0.9
 51
0.0
  7
KANJI55
  0
TEXT
  8
0
  6
CONTINUOUS
 62
     2
 10
1906.92
 20
1537.5
 30
180.445714286
 40
22.8
  1
形式
 50
0.0
 41
0.9
 51
0.0
  7
KANJI52
  0
TEXT
  8
0
  6
CONTINUOUS
 62
     2
 10
1906.92
 20
1495.5
 30
180.445714286
 40
22.8
  1
推力
 50
0.0
 41
0.9
 51
0.0
  7
KANJI52
  0
TEXT
  8
0
  6
CONTINUOUS
 62
     2
 10
1906.92
 20
1453.5
 30
29.721428571
 40
22.8
  1
ストローク
 50
0.0
 41
0.9
 51
0.0
  7
KANJI57
  0
TEXT
  8
0
  6
CONTINUOUS
 62
     2
 10
1906.92
 20
1327.5
 30
180.445714286
 40
22.8
  1
構造
 50
0.0
 41
0.9
 51
0.0
  7
KANJI52
  0
TEXT
  8
0
  6
CONTINUOUS
 62
     2
 10
1906.92
 20
1285.5
 30
12.973851429
 40
22.8
  1
過負荷安全装置
 50
0.0
 41
0.9
 51
0.0
  7
KANJI58
  0
TEXT
  8
0
  6
CONTINUOUS
 62
     2
 10
1906.92
 20
1243.5
 30
79.962857143
 40
22.8
  1
塗装色
 50
0.0
 41
0.9
 51
0.0
  7
KANJI51
  0
TEXT
  8
0
  6
CONTINUOUS
 62
     2
 10
1882.92
 20
1369.5
 30
1.954285714
 40
22.8
  1
ピストンロッド回転トルク
 50
0.0
 41
0.9
 51
0.0
  7
KANJI59
  0
LINE
  8
0
  6
CONTINUOUS
 62
     2
 10
1873.92
 20
1022.7
 30
0.0
 11
2398.92
 21
1022.7
 31
0.0
  0
LINE
  8
0
  6
CONTINUOUS
 62
     2
 10
1921.92
 20
980.7
 30
0.0
 11
2398.92
 21
980.7
 31
0.0
  0
TEXT
  8
0
  6
CONTINUOUS
 62
     2
 10
1898.37
 20
1226.7
 30
13.2
 40
21.0
  1
モ　トル仕様
 50
0.0
 41
0.9
 51
0.0
  7
KANJI60
  0
TEXT
  8
0
  6
CONTINUOUS
 62
     2
 10
1898.37
 20
1004.7
 30
1.2
 40
21.0
  1
ブレ　キ
 50
0.0
 41
0.9
 51
0.0
  7
KANJI61
  0
LINE
  8
0
  6
CONTINUOUS
 62
     2
 10
1896.72
 20
954.9
 30
0.0
 11
1896.72
 21
942.3
 31
0.0
  0
TEXT
  8
0
  6
CONTINUOUS
 62
     2
 10
2208.42
 20
1286.7
 30
9.0
 40
21.0
  1
推力リミッタ
 50
0.0
 41
0.9
 51
0.0
  7
KANJI62
  0
TEXT
  8
0
  6
CONTINUOUS
 62
     2
 10
2265.42
 20
1034.7
 30
1.8
 40
18.0
  1
Ｅ
 50
0.0
 41
0.9
 51
0.0
  7
KANJI63
  0
TEXT
  8
0
  6
CONTINUOUS
 62
     2
 10
2221.92
 20
949.5
 30
12.0
 40
21.0
  1
同時切り
 50
0.0
 41
0.9
 51
0.0
  7
KANJI64
  0
TEXT
  8
0
  6
CONTINUOUS
 62
     2
 10
1948.92
 20
991.5
 30
141.36
 40
22.8
  1
形式
 50
0.0
 41
0.9
 51
0.0
  7
KANJI56
  0
TEXT
  8
0
  6
CONTINUOUS
 62
     2
 10
1948.92
 20
949.5
 30
33.439782857
 40
22.8
  1
操作方式
 50
0.0
 41
0.9
 51
0.0
  7
KANJI54
  0
LINE
  8
0
  6
CONTINUOUS
 62
     2
 10
1896.72
 20
1190.1
 30
0.0
 11
1896.72
 21
1176.3
 31
0.0
  0
TEXT
  8
0
  6
CONTINUOUS
 62
     2
 10
1948.92
 20
1201.5
 30
3.0
 40
22.8
  1
出力　相数　極数
 50
0.0
 41
0.9
 51
0.0
  7
KANJI65
  0
TEXT
  8
0
  6
CONTINUOUS
 62
     2
 10
1906.92
 20
1411.5
 30
12.0
 40
22.8
  1
公称速度
 50
0.0
 41
0.9
 51
0.0
  7
KANJI66
  0
TEXT
  8
0
  6
CONTINUOUS
 62
     2
 10
2030.82
 20
1410.3
 30
0.0
 40
21.0
  1
（５０／６０Ｈｚ）
 50
0.0
 41
0.628571429
 51
0.0
  7
KANJI67
  0
TEXT
  8
0
  6
CONTINUOUS
 62
     2
 10
2151.42
 20
991.95
 30
3.3
 40
20.4
  1
スプリング制動式電磁ブレーキ
 50
0.0
 41
0.705882353
 51
0.0
  7
KANJI68
  0
TEXT
  8
0
  6
CONTINUOUS
 62
     2
 10
2370.42
 20
1159.5
 30
0.216
 40
18.0
  1
Ｖ
 50
0.0
 41
0.8
 51
0.0
  7
KANJI69
  0
TEXT
  8
0
  6
CONTINUOUS
 62
     2
 10
2359.62
 20
1117.5
 30
0.216
 40
18.0
  1
Ｈｚ
 50
0.0
 41
0.8
 51
0.0
  7
KANJI69
  0
TEXT
  8
0
  6
CONTINUOUS
 62
     2
 10
2370.42
 20
1075.5
 30
0.216
 40
18.0
  1
Ａ
 50
0.0
 41
0.8
 51
0.0
  7
KANJI69
  0
TEXT
  8
0
  6
CONTINUOUS
 62
     2
 10
2291.52
 20
1202.7
 30
1.8
 40
18.0
  1
３φ
 50
0.0
 41
0.9
 51
0.0
  7
KANJI63
  0
TEXT
  8
0
  6
CONTINUOUS
 62
     2
 10
2351.52
 20
1202.7
 30
1.8
 40
18.0
  1
４Ｐ
 50
0.0
 41
0.9
 51
0.0
  7
KANJI63
  0
TEXT
  8
0
  6
CONTINUOUS
 62
     2
 10
2149.92
 20
1244.7
 30
1.2
 40
19.2
  1
マンセル　７．５ＧＹ　５／４．５
 50
0.0
 41
0.71875
 51
0.0
  7
KANJI70
  0
TEXT
  8
0
  6
CONTINUOUS
 62
     2
 10
2149.92
 20
1160.7
 30
1.8
 40
18.0
  1
　　　　　　　／　　　
 50
0.0
 41
0.9
 51
0.0
  7
KANJI63
  0
TEXT
  8
0
  6
CONTINUOUS
 62
     2
 10
2149.92
 20
1118.7
 30
1.8
 40
18.0
  1
　　　　５０／　６０
 50
0.0
 41
0.9
 51
0.0
  7
KANJI63
  0
TEXT
  8
0
  6
CONTINUOUS
 62
     2
 10
2149.92
 20
1076.7
 30
1.8
 40
18.0
  1
　　　　　　　／　　　
 50
0.0
 41
0.9
 51
0.0
  7
KANJI63
  0
TEXT
  8
0
  6
CONTINUOUS
 62
     2
 10
2354.52
 20
1455.9
 30
0.1536
 40
19.2
  1
ｍｍ
 50
0.0
 41
0.8
 51
0.0
  7
KANJI71
  0
TEXT
  8
0
  6
CONTINUOUS
 62
     2
 10
2208.42
 20
1328.7
 30
9.0
 40
21.0
  1
全閉屋内形
 50
0.0
 41
0.9
 51
0.0
  7
KANJI62
  0
TEXT
  8
0
  6
CONTINUOUS
 62
     2
 10
2315.52
 20
1412.7
 30
0.0
 40
21.0
  1
ｍｍ／ｓｅｃ
 50
0.0
 41
0.571428571
 51
0.0
  7
KANJI72
  0
TEXT
  8
0
  6
CONTINUOUS
 62
     2
 10
2155.92
 20
1202.7
 30
1.8
 40
18.0
  1
　１．１ＫＷ
 50
0.0
 41
0.9
 51
0.0
  7
KANJI63
  0
TEXT
  8
0
  6
CONTINUOUS
 62
     2
 10
2163.42
 20
1536.6
 30
1.2
 40
18.0
  1
ＭＣＬＤ１－　
 50
0.0
 41
0.833333333
 51
0.0
  7
KANJI73
  0
TEXT
  8
0
  6
CONTINUOUS
 62
     2
 10
2193.72
 20
1496.7
 30
1.8
 40
18.0
  1
９．８ＫＮ（１ｔｏｎ）
 50
0.0
 41
0.9
 51
0.0
  7
KANJI63
  0
TEXT
  8
0
  6
CONTINUOUS
 62
     2
 10
2152.92
 20
1412.7
 30
1.8
 40
18.0
  1
　４３／５１．５
 50
0.0
 41
0.9
 51
0.0
  7
KANJI63
  0
LINE
  8
0
  6
CONTINUOUS
 62
     1
 10
1873.92
 20
1628.7
 30
0.0
 11
1873.92
 21
770.7
 31
0.0
  0
LINE
  8
0
  6
CONTINUOUS
 62
     2
 10
2149.92
 20
1568.7
 30
0.0
 11
2149.92
 21
770.7
 31
0.0
  0
LINE
  8
0
  6
CONTINUOUS
 62
     1
 10
2398.92
 20
1628.7
 30
0.0
 11
2398.92
 21
770.7
 31
0.0
  0
LINE
  8
0
  6
CONTINUOUS
 62
     1
 10
1873.92
 20
770.7
 30
0.0
 11
2398.92
 21
770.7
 31
0.0
  0
LINE
  8
0
  6
CONTINUOUS
 62
     2
 10
1873.92
 20
812.7
 30
0.0
 11
2398.92
 21
812.7
 31
0.0
  0
TEXT
  8
0
  6
CONTINUOUS
 62
     2
 10
2343.72
 20
782.88
 30
0.0
 40
21.0
  1
ｋｇ
 50
0.0
 41
0.9
 51
0.0
  7
KANJI74
  0
TEXT
  8
0
  6
CONTINUOUS
 62
     2
 10
1905.72
 20
781.5
 30
6.0
 40
21.0
  1
概算重量（１台当り）
 50
0.0
 41
0.857142857
 51
0.0
  7
KANJI75
  0
TEXT
  8
0
  6
CONTINUOUS
 62
     2
 10
2164.92
 20
1370.7
 30
0.0
 40
18.0
  1
３９．２Ｎ・ｍ（４ｋｇ・ｍ）
 50
0.0
 41
0.833333333
 51
0.0
  7
KANJI76
  0
ENDSEC
  0
EOF
