  0
SECTION
  2
HEADER
  9
$ACADVER
  1
AC1009
  9
$DWGCODEPAGE
  3
dos932
  9
$EXTMIN
 10
0.0
 20
0.0
 30
0.0
  9
$EXTMAX
 10
2520.0
 20
1782.0
 30
0.0
  9
$LIMMIN
 10
0.0
 20
0.0
  9
$LIMMAX
 10
2520.0
 20
1782.0
  9
$LTSCALE
 40
1.0
  9
$PDMODE
 70
     0
  0
ENDSEC
  0
SECTION
  2
TABLES
  0
TABLE
  2
VPORT
 70
     1
  0
VPORT
  2
*ACTIVE
 70
     0
 10
0.0
 20
0.0
 11
1.0
 21
1.0
 12
1260.0
 22
891.0
 13
0.0
 23
0.0
 14
10.0
 24
10.0
 15
10.0
 25
10.0
 16
0.0
 26
0.0
 36
1.0
 17
0.0
 27
0.0
 37
0.0
 40
2520.0
 41
1.414141414
 42
50.0
 43
0.0
 44
0.0
 50
0.0
 51
0.0
 71
     0
 72
  1000
 73
     1
 74
     3
 75
     0
 76
     0
 77
     0
 78
     0
  0
ENDTAB
  0
TABLE
  2
LTYPE
 70
     6
  0
LTYPE
  2
CONTINUOUS
 70
    64
  3
Solid line
 72
    65
 73
     0
 40
0.0
  0
LTYPE
  2
LTYPE1
 70
    64
  3
HIDDEN
 72
    65
 73
     2
 40
18.0
 49
10.8
 49
-7.2
  0
LTYPE
  2
LTYPE2
 70
    64
  3
CENTER
 72
    65
 73
     4
 40
90.0
 49
63.0
 49
-9.0
 49
9.0
 49
-9.0
  0
LTYPE
  2
LTYPE3
 70
    64
  3
CENTER
 72
    65
 73
     4
 40
60.0
 49
42.0
 49
-6.0
 49
6.0
 49
-6.0
  0
LTYPE
  2
LTYPE4
 70
    64
  3
CENTER
 72
    65
 73
     4
 40
120.0
 49
84.0
 49
-12.0
 49
12.0
 49
-12.0
  0
LTYPE
  2
LTYPE5
 70
    64
  3
CENTER
 72
    65
 73
     4
 40
54.0
 49
37.8
 49
-5.4
 49
5.4
 49
-5.4
  0
ENDTAB
  0
TABLE
  2
LAYER
 70
   128
  0
LAYER
  2
0
 70
     0
 62
     7
  6
CONTINUOUS
  0
LAYER
  2
2
 70
     0
 62
     7
  6
CONTINUOUS
  0
LAYER
  2
3
 70
     0
 62
     7
  6
CONTINUOUS
  0
LAYER
  2
4
 70
     0
 62
     7
  6
CONTINUOUS
  0
LAYER
  2
5
 70
     0
 62
     7
  6
CONTINUOUS
  0
LAYER
  2
6
 70
     0
 62
     7
  6
CONTINUOUS
  0
LAYER
  2
7
 70
     0
 62
     7
  6
CONTINUOUS
  0
LAYER
  2
8
 70
     0
 62
     7
  6
CONTINUOUS
  0
LAYER
  2
9
 70
     0
 62
     7
  6
CONTINUOUS
  0
LAYER
  2
10
 70
     0
 62
     7
  6
CONTINUOUS
  0
LAYER
  2
11
 70
     0
 62
     7
  6
CONTINUOUS
  0
LAYER
  2
12
 70
     0
 62
     7
  6
CONTINUOUS
  0
LAYER
  2
13
 70
     0
 62
     7
  6
CONTINUOUS
  0
LAYER
  2
14
 70
     0
 62
     7
  6
CONTINUOUS
  0
LAYER
  2
15
 70
     0
 62
     7
  6
CONTINUOUS
  0
LAYER
  2
16
 70
     0
 62
     7
  6
CONTINUOUS
  0
LAYER
  2
17
 70
     0
 62
     7
  6
CONTINUOUS
  0
LAYER
  2
18
 70
     0
 62
     7
  6
CONTINUOUS
  0
LAYER
  2
19
 70
     0
 62
     7
  6
CONTINUOUS
  0
LAYER
  2
20
 70
     0
 62
     7
  6
CONTINUOUS
  0
LAYER
  2
21
 70
     0
 62
     7
  6
CONTINUOUS
  0
LAYER
  2
22
 70
     0
 62
     7
  6
CONTINUOUS
  0
LAYER
  2
23
 70
     0
 62
     7
  6
CONTINUOUS
  0
LAYER
  2
24
 70
     0
 62
     7
  6
CONTINUOUS
  0
LAYER
  2
25
 70
     0
 62
     7
  6
CONTINUOUS
  0
LAYER
  2
26
 70
     0
 62
     7
  6
CONTINUOUS
  0
LAYER
  2
27
 70
     0
 62
     7
  6
CONTINUOUS
  0
LAYER
  2
28
 70
     0
 62
     7
  6
CONTINUOUS
  0
LAYER
  2
29
 70
     0
 62
     7
  6
CONTINUOUS
  0
LAYER
  2
30
 70
     0
 62
     7
  6
CONTINUOUS
  0
LAYER
  2
31
 70
     0
 62
     7
  6
CONTINUOUS
  0
LAYER
  2
32
 70
     0
 62
     7
  6
CONTINUOUS
  0
LAYER
  2
33
 70
     0
 62
     7
  6
CONTINUOUS
  0
LAYER
  2
34
 70
     0
 62
     7
  6
CONTINUOUS
  0
LAYER
  2
35
 70
     0
 62
     7
  6
CONTINUOUS
  0
LAYER
  2
36
 70
     0
 62
     7
  6
CONTINUOUS
  0
LAYER
  2
37
 70
     0
 62
     7
  6
CONTINUOUS
  0
LAYER
  2
38
 70
     0
 62
     7
  6
CONTINUOUS
  0
LAYER
  2
39
 70
     0
 62
     7
  6
CONTINUOUS
  0
LAYER
  2
40
 70
     0
 62
     7
  6
CONTINUOUS
  0
LAYER
  2
41
 70
     0
 62
     7
  6
CONTINUOUS
  0
LAYER
  2
42
 70
     0
 62
     7
  6
CONTINUOUS
  0
LAYER
  2
43
 70
     0
 62
     7
  6
CONTINUOUS
  0
LAYER
  2
44
 70
     0
 62
     7
  6
CONTINUOUS
  0
LAYER
  2
45
 70
     0
 62
     7
  6
CONTINUOUS
  0
LAYER
  2
46
 70
     0
 62
     7
  6
CONTINUOUS
  0
LAYER
  2
47
 70
     0
 62
     7
  6
CONTINUOUS
  0
LAYER
  2
48
 70
     0
 62
     7
  6
CONTINUOUS
  0
LAYER
  2
49
 70
     0
 62
     7
  6
CONTINUOUS
  0
LAYER
  2
50
 70
     0
 62
     7
  6
CONTINUOUS
  0
LAYER
  2
51
 70
     0
 62
     7
  6
CONTINUOUS
  0
LAYER
  2
52
 70
     0
 62
     7
  6
CONTINUOUS
  0
LAYER
  2
53
 70
     0
 62
     7
  6
CONTINUOUS
  0
LAYER
  2
54
 70
     0
 62
     7
  6
CONTINUOUS
  0
LAYER
  2
55
 70
     0
 62
     7
  6
CONTINUOUS
  0
LAYER
  2
56
 70
     0
 62
     7
  6
CONTINUOUS
  0
LAYER
  2
57
 70
     0
 62
     7
  6
CONTINUOUS
  0
LAYER
  2
58
 70
     0
 62
     7
  6
CONTINUOUS
  0
LAYER
  2
59
 70
     0
 62
     7
  6
CONTINUOUS
  0
LAYER
  2
60
 70
     0
 62
     7
  6
CONTINUOUS
  0
LAYER
  2
61
 70
     0
 62
     7
  6
CONTINUOUS
  0
LAYER
  2
62
 70
     0
 62
     7
  6
CONTINUOUS
  0
LAYER
  2
63
 70
     0
 62
     7
  6
CONTINUOUS
  0
LAYER
  2
64
 70
     0
 62
     7
  6
CONTINUOUS
  0
LAYER
  2
65
 70
     0
 62
     7
  6
CONTINUOUS
  0
LAYER
  2
66
 70
     0
 62
     7
  6
CONTINUOUS
  0
LAYER
  2
67
 70
     0
 62
     7
  6
CONTINUOUS
  0
LAYER
  2
68
 70
     0
 62
     7
  6
CONTINUOUS
  0
LAYER
  2
69
 70
     0
 62
     7
  6
CONTINUOUS
  0
LAYER
  2
70
 70
     0
 62
     7
  6
CONTINUOUS
  0
LAYER
  2
71
 70
     0
 62
     7
  6
CONTINUOUS
  0
LAYER
  2
72
 70
     0
 62
     7
  6
CONTINUOUS
  0
LAYER
  2
73
 70
     0
 62
     7
  6
CONTINUOUS
  0
LAYER
  2
74
 70
     0
 62
     7
  6
CONTINUOUS
  0
LAYER
  2
75
 70
     0
 62
     7
  6
CONTINUOUS
  0
LAYER
  2
76
 70
     0
 62
     7
  6
CONTINUOUS
  0
LAYER
  2
77
 70
     0
 62
     7
  6
CONTINUOUS
  0
LAYER
  2
78
 70
     0
 62
     7
  6
CONTINUOUS
  0
LAYER
  2
79
 70
     0
 62
     7
  6
CONTINUOUS
  0
LAYER
  2
80
 70
     0
 62
     7
  6
CONTINUOUS
  0
LAYER
  2
81
 70
     0
 62
     7
  6
CONTINUOUS
  0
LAYER
  2
82
 70
     0
 62
     7
  6
CONTINUOUS
  0
LAYER
  2
83
 70
     0
 62
     7
  6
CONTINUOUS
  0
LAYER
  2
84
 70
     0
 62
     7
  6
CONTINUOUS
  0
LAYER
  2
85
 70
     0
 62
     7
  6
CONTINUOUS
  0
LAYER
  2
86
 70
     0
 62
     7
  6
CONTINUOUS
  0
LAYER
  2
87
 70
     0
 62
     7
  6
CONTINUOUS
  0
LAYER
  2
88
 70
     0
 62
     7
  6
CONTINUOUS
  0
LAYER
  2
89
 70
     0
 62
     7
  6
CONTINUOUS
  0
LAYER
  2
90
 70
     0
 62
     7
  6
CONTINUOUS
  0
LAYER
  2
91
 70
     0
 62
     7
  6
CONTINUOUS
  0
LAYER
  2
92
 70
     0
 62
     7
  6
CONTINUOUS
  0
LAYER
  2
93
 70
     0
 62
     7
  6
CONTINUOUS
  0
LAYER
  2
94
 70
     0
 62
     7
  6
CONTINUOUS
  0
LAYER
  2
95
 70
     0
 62
     7
  6
CONTINUOUS
  0
LAYER
  2
96
 70
     0
 62
     7
  6
CONTINUOUS
  0
LAYER
  2
97
 70
     0
 62
     7
  6
CONTINUOUS
  0
LAYER
  2
98
 70
     0
 62
     7
  6
CONTINUOUS
  0
LAYER
  2
99
 70
     0
 62
     7
  6
CONTINUOUS
  0
LAYER
  2
100
 70
     0
 62
     7
  6
CONTINUOUS
  0
LAYER
  2
101
 70
     0
 62
     7
  6
CONTINUOUS
  0
LAYER
  2
102
 70
     0
 62
     7
  6
CONTINUOUS
  0
LAYER
  2
103
 70
     0
 62
     7
  6
CONTINUOUS
  0
LAYER
  2
104
 70
     0
 62
     7
  6
CONTINUOUS
  0
LAYER
  2
105
 70
     0
 62
     7
  6
CONTINUOUS
  0
LAYER
  2
106
 70
     0
 62
     7
  6
CONTINUOUS
  0
LAYER
  2
107
 70
     0
 62
     7
  6
CONTINUOUS
  0
LAYER
  2
108
 70
     0
 62
     7
  6
CONTINUOUS
  0
LAYER
  2
109
 70
     0
 62
     7
  6
CONTINUOUS
  0
LAYER
  2
110
 70
     0
 62
     7
  6
CONTINUOUS
  0
LAYER
  2
111
 70
     0
 62
     7
  6
CONTINUOUS
  0
LAYER
  2
112
 70
     0
 62
     7
  6
CONTINUOUS
  0
LAYER
  2
113
 70
     0
 62
     7
  6
CONTINUOUS
  0
LAYER
  2
114
 70
     0
 62
     7
  6
CONTINUOUS
  0
LAYER
  2
115
 70
     0
 62
     7
  6
CONTINUOUS
  0
LAYER
  2
116
 70
     0
 62
     7
  6
CONTINUOUS
  0
LAYER
  2
117
 70
     0
 62
     7
  6
CONTINUOUS
  0
LAYER
  2
118
 70
     0
 62
     7
  6
CONTINUOUS
  0
LAYER
  2
119
 70
     0
 62
     7
  6
CONTINUOUS
  0
LAYER
  2
120
 70
     0
 62
     7
  6
CONTINUOUS
  0
LAYER
  2
121
 70
     0
 62
     7
  6
CONTINUOUS
  0
LAYER
  2
122
 70
     0
 62
     7
  6
CONTINUOUS
  0
LAYER
  2
123
 70
     0
 62
     7
  6
CONTINUOUS
  0
LAYER
  2
124
 70
     0
 62
     7
  6
CONTINUOUS
  0
LAYER
  2
125
 70
     0
 62
     7
  6
CONTINUOUS
  0
LAYER
  2
126
 70
     0
 62
     7
  6
CONTINUOUS
  0
LAYER
  2
127
 70
     0
 62
     7
  6
CONTINUOUS
  0
LAYER
  2
128
 70
     0
 62
     7
  6
CONTINUOUS
  0
ENDTAB
  0
TABLE
  2
STYLE
 70
    81
  0
STYLE
  2
STANDARD
 70
     0
 40
0.0
 41
1.0
 50
0.0
 71
     0
 42
0.2
  3
txt.shx
  4
extfont.shx
  0
STYLE
  2
KANJI0
 70
     0
 40
15.5999988
 41
0.75
 50
0.0
 71
     0
 42
15.5999988
  3
txt.shx
  4
extfont.shx
  0
STYLE
  2
KANJI1
 70
     0
 40
11.999997477
 41
0.6
 50
0.0
 71
     0
 42
11.999997477
  3
txt.shx
  4
extfont.shx
  0
STYLE
  2
KANJI2
 70
     0
 40
14.399996972
 41
0.9
 50
0.0
 71
     0
 42
14.399996972
  3
txt.shx
  4
extfont.shx
  0
STYLE
  2
KANJI3
 70
     0
 40
17.999996215
 41
0.9
 50
0.0
 71
     0
 42
17.999996215
  3
txt.shx
  4
extfont.shx
  0
STYLE
  2
KANJI4
 70
     0
 40
10.3999992
 41
0.6
 50
0.0
 71
     0
 42
10.3999992
  3
txt.shx
  4
extfont.shx
  0
STYLE
  2
KANJI5
 70
     0
 40
12.47999904
 41
0.6
 50
0.0
 71
     0
 42
12.47999904
  3
txt.shx
  4
extfont.shx
  0
STYLE
  2
KANJI6
 70
     0
 40
18.1999986
 41
0.42031746
 50
0.0
 71
     0
 42
18.1999986
  3
txt.shx
  4
extfont.shx
  0
STYLE
  2
KANJI7
 70
     0
 40
31.1999976
 41
0.9
 50
0.0
 71
     0
 42
31.1999976
  3
txt.shx
  4
extfont.shx
  0
STYLE
  2
KANJI8
 70
     0
 40
21.6
 41
1.111111111
 50
0.0
 71
     0
 42
21.6
  3
txt.shx
  4
extfont.shx
  0
STYLE
  2
KANJI9
 70
     0
 40
10.3999992
 41
0.8
 50
0.0
 71
     0
 42
10.3999992
  3
txt.shx
  4
extfont.shx
  0
STYLE
  2
KANJI10
 70
     0
 40
12.47999904
 41
0.8
 50
0.0
 71
     0
 42
12.47999904
  3
txt.shx
  4
extfont.shx
  0
STYLE
  2
KANJI11
 70
     0
 40
30.0
 41
1.0
 50
0.0
 71
     0
 42
30.0
  3
txt.shx
  4
extfont.shx
  0
STYLE
  2
KANJI12
 70
     0
 40
30.0
 41
1.0
 50
0.0
 71
     0
 42
30.0
  3
txt.shx
  4
extfont.shx
  0
STYLE
  2
KANJI13
 70
     0
 40
30.0
 41
0.8
 50
0.0
 71
     0
 42
30.0
  3
txt.shx
  4
extfont.shx
  0
STYLE
  2
KANJI14
 70
     0
 40
24.0
 41
1.0
 50
0.0
 71
     0
 42
24.0
  3
txt.shx
  4
extfont.shx
  0
STYLE
  2
KANJI15
 70
     0
 40
21.0
 41
0.857142857
 50
0.0
 71
     0
 42
21.0
  3
txt.shx
  4
extfont.shx
  0
STYLE
  2
KANJI16
 70
     0
 40
27.0
 41
0.666666667
 50
0.0
 71
     0
 42
27.0
  3
txt.shx
  4
extfont.shx
  0
STYLE
  2
KANJI17
 70
     0
 40
13.86
 41
0.9
 50
0.0
 71
     0
 42
13.86
  3
txt.shx
  4
extfont.shx
  0
STYLE
  2
KANJI18
 70
     0
 40
21.0
 41
0.793650794
 50
0.0
 71
     0
 42
21.0
  3
txt.shx
  4
extfont.shx
  0
STYLE
  2
KANJI19
 70
     0
 40
30.0
 41
0.8
 50
0.0
 71
     0
 42
30.0
  3
txt.shx
  4
extfont.shx
  0
STYLE
  2
KANJI20
 70
     0
 40
18.0
 41
0.9
 50
0.0
 71
     0
 42
18.0
  3
txt.shx
  4
extfont.shx
  0
STYLE
  2
KANJI21
 70
     0
 40
11.661
 41
0.822608696
 50
0.0
 71
     0
 42
11.661
  3
txt.shx
  4
extfont.shx
  0
STYLE
  2
KANJI22
 70
     0
 40
13.182
 41
0.85
 50
0.0
 71
     0
 42
13.182
  3
txt.shx
  4
extfont.shx
  0
STYLE
  2
KANJI23
 70
     0
 40
11.8638
 41
0.726495726
 50
0.0
 71
     0
 42
11.8638
  3
txt.shx
  4
extfont.shx
  0
STYLE
  2
KANJI24
 70
     4
 40
55.0
 41
0.440318182
 50
0.0
 71
     0
 42
55.0
  3
txt.shx
  4
extfont.shx
  0
STYLE
  2
KANJI25
 70
     0
 40
17.740702234
 41
0.880962996
 50
0.0
 71
     0
 42
17.740702234
  3
txt.shx
  4
extfont.shx
  0
STYLE
  2
KANJI26
 70
     0
 40
11.7
 41
0.8
 50
0.0
 71
     0
 42
11.7
  3
txt.shx
  4
extfont.shx
  0
STYLE
  2
KANJI27
 70
     0
 40
15.0
 41
0.911
 50
0.0
 71
     0
 42
15.0
  3
txt.shx
  4
extfont.shx
  0
STYLE
  2
KANJI28
 70
     0
 40
15.6
 41
0.925
 50
0.0
 71
     0
 42
15.6
  3
txt.shx
  4
extfont.shx
  0
STYLE
  2
KANJI29
 70
     0
 40
10.933904043
 41
0.9
 50
0.0
 71
     0
 42
10.933904043
  3
txt.shx
  4
extfont.shx
  0
STYLE
  2
KANJI30
 70
     0
 40
15.185977837
 41
0.66671875
 50
0.0
 71
     0
 42
15.185977837
  3
txt.shx
  4
extfont.shx
  0
STYLE
  2
KANJI31
 70
     0
 40
18.223173404
 41
0.9
 50
0.0
 71
     0
 42
18.223173404
  3
txt.shx
  4
extfont.shx
  0
STYLE
  2
KANJI32
 70
     0
 40
14.578538724
 41
0.9
 50
0.0
 71
     0
 42
14.578538724
  3
txt.shx
  4
extfont.shx
  0
STYLE
  2
KANJI33
 70
     0
 40
15.0
 41
0.9
 50
0.0
 71
     0
 42
15.0
  3
txt.shx
  4
extfont.shx
  0
STYLE
  2
KANJI34
 70
     0
 40
24.0
 41
0.9
 50
0.0
 71
     0
 42
24.0
  3
txt.shx
  4
extfont.shx
  0
STYLE
  2
KANJI35
 70
     0
 40
21.0
 41
0.857142857
 50
0.0
 71
     0
 42
21.0
  3
txt.shx
  4
extfont.shx
  0
STYLE
  2
KANJI36
 70
     0
 40
16.17
 41
0.9
 50
0.0
 71
     0
 42
16.17
  3
txt.shx
  4
extfont.shx
  0
STYLE
  2
KANJI37
 70
     0
 40
18.0
 41
0.9
 50
0.0
 71
     0
 42
18.0
  3
txt.shx
  4
extfont.shx
  0
STYLE
  2
KANJI38
 70
     0
 40
15.0
 41
0.9
 50
0.0
 71
     0
 42
15.0
  3
txt.shx
  4
extfont.shx
  0
STYLE
  2
KANJI39
 70
     0
 40
20.0
 41
0.925
 50
0.0
 71
     0
 42
20.0
  3
txt.shx
  4
extfont.shx
  0
STYLE
  2
KANJI40
 70
     0
 40
20.0
 41
0.925
 50
0.0
 71
     0
 42
20.0
  3
txt.shx
  4
extfont.shx
  0
STYLE
  2
KANJI41
 70
     0
 40
15.0
 41
0.92
 50
0.0
 71
     0
 42
15.0
  3
txt.shx
  4
extfont.shx
  0
STYLE
  2
KANJI42
 70
     0
 40
10.0
 41
0.85
 50
0.0
 71
     0
 42
10.0
  3
txt.shx
  4
extfont.shx
  0
STYLE
  2
KANJI43
 70
     0
 40
10.0
 41
0.75
 50
0.0
 71
     0
 42
10.0
  3
txt.shx
  4
extfont.shx
  0
STYLE
  2
KANJI44
 70
     0
 40
12.0
 41
0.9
 50
0.0
 71
     0
 42
12.0
  3
txt.shx
  4
extfont.shx
  0
STYLE
  2
KANJI45
 70
     0
 40
24.0
 41
0.925
 50
0.0
 71
     0
 42
24.0
  3
txt.shx
  4
extfont.shx
  0
STYLE
  2
KANJI46
 70
     0
 40
15.36
 41
0.9
 50
0.0
 71
     0
 42
15.36
  3
txt.shx
  4
extfont.shx
  0
STYLE
  2
KANJI47
 70
     0
 40
14.4
 41
0.9
 50
0.0
 71
     0
 42
14.4
  3
txt.shx
  4
extfont.shx
  0
STYLE
  2
KANJI48
 70
     0
 40
14.4
 41
0.9
 50
0.0
 71
     0
 42
14.4
  3
txt.shx
  4
extfont.shx
  0
STYLE
  2
KANJI49
 70
     0
 40
16.8
 41
0.9
 50
0.0
 71
     0
 42
16.8
  3
txt.shx
  4
extfont.shx
  0
STYLE
  2
KANJI50
 70
     0
 40
12.96
 41
0.740740741
 50
0.0
 71
     0
 42
12.96
  3
txt.shx
  4
extfont.shx
  0
STYLE
  2
KANJI51
 70
     0
 40
16.8
 41
0.857142857
 50
0.0
 71
     0
 42
16.8
  3
txt.shx
  4
extfont.shx
  0
STYLE
  2
KANJI52
 70
     0
 40
14.4
 41
0.833333333
 50
0.0
 71
     0
 42
14.4
  3
txt.shx
  4
extfont.shx
  0
STYLE
  2
KANJI53
 70
     0
 40
21.0
 41
0.571428571
 50
0.0
 71
     0
 42
21.0
  3
txt.shx
  4
extfont.shx
  0
STYLE
  2
KANJI54
 70
     0
 40
22.8
 41
0.9
 50
0.0
 71
     0
 42
22.8
  3
txt.shx
  4
extfont.shx
  0
STYLE
  2
KANJI55
 70
     0
 40
22.8
 41
0.9
 50
0.0
 71
     0
 42
22.8
  3
txt.shx
  4
extfont.shx
  0
STYLE
  2
KANJI56
 70
     0
 40
27.0
 41
0.9
 50
0.0
 71
     0
 42
27.0
  3
txt.shx
  4
extfont.shx
  0
STYLE
  2
KANJI57
 70
     0
 40
22.8
 41
0.9
 50
0.0
 71
     0
 42
22.8
  3
txt.shx
  4
extfont.shx
  0
STYLE
  2
KANJI58
 70
     0
 40
22.8
 41
0.9
 50
0.0
 71
     0
 42
22.8
  3
txt.shx
  4
extfont.shx
  0
STYLE
  2
KANJI59
 70
     0
 40
22.8
 41
0.9
 50
0.0
 71
     0
 42
22.8
  3
txt.shx
  4
extfont.shx
  0
STYLE
  2
KANJI60
 70
     0
 40
22.8
 41
0.9
 50
0.0
 71
     0
 42
22.8
  3
txt.shx
  4
extfont.shx
  0
STYLE
  2
KANJI61
 70
     0
 40
22.8
 41
0.9
 50
0.0
 71
     0
 42
22.8
  3
txt.shx
  4
extfont.shx
  0
STYLE
  2
KANJI62
 70
     0
 40
22.8
 41
0.9
 50
0.0
 71
     0
 42
22.8
  3
txt.shx
  4
extfont.shx
  0
STYLE
  2
KANJI63
 70
     4
 40
21.0
 41
0.9
 50
0.0
 71
     0
 42
21.0
  3
txt.shx
  4
extfont.shx
  0
STYLE
  2
KANJI64
 70
     4
 40
21.0
 41
0.9
 50
0.0
 71
     0
 42
21.0
  3
txt.shx
  4
extfont.shx
  0
STYLE
  2
KANJI65
 70
     0
 40
21.0
 41
0.9
 50
0.0
 71
     0
 42
21.0
  3
txt.shx
  4
extfont.shx
  0
STYLE
  2
KANJI66
 70
     0
 40
18.0
 41
0.9
 50
0.0
 71
     0
 42
18.0
  3
txt.shx
  4
extfont.shx
  0
STYLE
  2
KANJI67
 70
     0
 40
21.0
 41
0.9
 50
0.0
 71
     0
 42
21.0
  3
txt.shx
  4
extfont.shx
  0
STYLE
  2
KANJI68
 70
     0
 40
22.8
 41
0.9
 50
0.0
 71
     0
 42
22.8
  3
txt.shx
  4
extfont.shx
  0
STYLE
  2
KANJI69
 70
     0
 40
22.8
 41
0.9
 50
0.0
 71
     0
 42
22.8
  3
txt.shx
  4
extfont.shx
  0
STYLE
  2
KANJI70
 70
     0
 40
21.0
 41
0.628571429
 50
0.0
 71
     0
 42
21.0
  3
txt.shx
  4
extfont.shx
  0
STYLE
  2
KANJI71
 70
     0
 40
20.4
 41
0.705882353
 50
0.0
 71
     0
 42
20.4
  3
txt.shx
  4
extfont.shx
  0
STYLE
  2
KANJI72
 70
     0
 40
18.0
 41
0.8
 50
0.0
 71
     0
 42
18.0
  3
txt.shx
  4
extfont.shx
  0
STYLE
  2
KANJI73
 70
     0
 40
19.2
 41
0.71875
 50
0.0
 71
     0
 42
19.2
  3
txt.shx
  4
extfont.shx
  0
STYLE
  2
KANJI74
 70
     0
 40
19.2
 41
0.8
 50
0.0
 71
     0
 42
19.2
  3
txt.shx
  4
extfont.shx
  0
STYLE
  2
KANJI75
 70
     0
 40
21.0
 41
0.571428571
 50
0.0
 71
     0
 42
21.0
  3
txt.shx
  4
extfont.shx
  0
STYLE
  2
KANJI76
 70
     0
 40
18.0
 41
0.833333333
 50
0.0
 71
     0
 42
18.0
  3
txt.shx
  4
extfont.shx
  0
STYLE
  2
KANJI77
 70
     0
 40
21.0
 41
0.9
 50
0.0
 71
     0
 42
21.0
  3
txt.shx
  4
extfont.shx
  0
STYLE
  2
KANJI78
 70
     0
 40
21.0
 41
0.857142857
 50
0.0
 71
     0
 42
21.0
  3
txt.shx
  4
extfont.shx
  0
STYLE
  2
KANJI79
 70
     0
 40
18.0
 41
0.833333333
 50
0.0
 71
     0
 42
18.0
  3
txt.shx
  4
extfont.shx
  0
ENDTAB
  0
TABLE
  2
VIEW
 70
     0
  0
ENDTAB
  0
ENDSEC
  0
SECTION
  2
BLOCKS
  0
ENDSEC
  0
SECTION
  2
ENTITIES
  0
POLYLINE
  8
0
  6
CONTINUOUS
 62
     6
 66
     1
  0
VERTEX
  8
0
  6
CONTINUOUS
 62
     6
 10
77.92
 20
71.7
 30
0.0
  0
VERTEX
  8
0
  6
CONTINUOUS
 62
     6
 10
77.92
 20
1685.7
 30
0.0
  0
VERTEX
  8
0
  6
CONTINUOUS
 62
     6
 10
2399.92
 20
1685.7
 30
0.0
  0
SEQEND
  0
LINE
  8
0
  6
CONTINUOUS
 62
     6
 10
83.919998738
 20
161.699981077
 30
0.0
 11
473.919916738
 21
161.699981077
 31
0.0
  0
LINE
  8
0
  6
CONTINUOUS
 62
     6
 10
83.919998738
 20
77.699998738
 30
0.0
 11
473.919916738
 21
77.699998738
 31
0.0
  0
LINE
  8
0
  6
CONTINUOUS
 62
     6
 10
83.919998738
 20
77.699998738
 30
0.0
 11
83.919998738
 21
161.699981077
 31
0.0
  0
LINE
  8
0
  6
CONTINUOUS
 62
     6
 10
83.919998738
 20
119.699989908
 30
0.0
 11
473.919916738
 21
119.699989908
 31
0.0
  0
LINE
  8
0
  6
CONTINUOUS
 62
     4
 10
9.6199996
 20
76.8999996
 30
0.0
 11
72.0199948
 21
76.8999996
 31
0.0
  0
LINE
  8
0
  6
CONTINUOUS
 62
     4
 10
9.6199996
 20
108.0999972
 30
0.0
 11
72.0199948
 21
108.0999972
 31
0.0
  0
LINE
  8
0
  6
CONTINUOUS
 62
     4
 10
9.6199996
 20
139.2999948
 30
0.0
 11
72.0199948
 21
139.2999948
 31
0.0
  0
LINE
  8
0
  6
CONTINUOUS
 62
     4
 10
9.6199996
 20
170.4999924
 30
0.0
 11
72.0199948
 21
170.4999924
 31
0.0
  0
LINE
  8
0
  6
CONTINUOUS
 62
     4
 10
9.6199996
 20
201.69999
 30
0.0
 11
72.0199948
 21
201.69999
 31
0.0
  0
LINE
  8
0
  6
CONTINUOUS
 62
     4
 10
9.6199996
 20
232.8999876
 30
0.0
 11
72.0199948
 21
232.8999876
 31
0.0
  0
LINE
  8
0
  6
CONTINUOUS
 62
     4
 10
9.6199996
 20
264.0999852
 30
0.0
 11
72.0199948
 21
264.0999852
 31
0.0
  0
LINE
  8
0
  6
CONTINUOUS
 62
     4
 10
9.6199996
 20
295.2999828
 30
0.0
 11
72.0199948
 21
295.2999828
 31
0.0
  0
LINE
  8
0
  6
CONTINUOUS
 62
     4
 10
9.6199996
 20
326.4999804
 30
0.0
 11
72.0199948
 21
326.4999804
 31
0.0
  0
LINE
  8
0
  6
CONTINUOUS
 62
     4
 10
9.6199996
 20
357.699978
 30
0.0
 11
72.0199948
 21
357.699978
 31
0.0
  0
LINE
  8
0
  6
CONTINUOUS
 62
     4
 10
72.0199948
 20
76.8999996
 30
0.0
 11
72.0199948
 21
357.699978
 31
0.0
  0
LINE
  8
0
  6
CONTINUOUS
 62
     4
 10
40.8199972
 20
76.8999996
 30
0.0
 11
40.8199972
 21
326.4999804
 31
0.0
  0
TEXT
  8
0
  6
CONTINUOUS
 62
     4
 10
20.27999878
 20
85.9999989
 30
1.55999988
 40
15.5999988
  1
計
 50
0.0
 41
0.75
 51
0.0
  7
KANJI0
  0
TEXT
  8
0
  6
CONTINUOUS
 62
     4
 10
20.27999878
 20
148.91999406
 30
1.55999988
 40
15.5999988
  1
設
 50
0.0
 41
0.75
 51
0.0
  7
KANJI0
  0
TEXT
  8
0
  6
CONTINUOUS
 62
     4
 10
20.27999878
 20
179.5999917
 30
1.55999988
 40
15.5999988
  1
管
 50
0.0
 41
0.75
 51
0.0
  7
KANJI0
  0
TEXT
  8
0
  6
CONTINUOUS
 62
     4
 10
20.27999878
 20
210.7999893
 30
1.55999988
 40
15.5999988
  1
製
 50
0.0
 41
0.75
 51
0.0
  7
KANJI0
  0
TEXT
  8
0
  6
CONTINUOUS
 62
     4
 10
20.27999878
 20
241.9999869
 30
1.55999988
 40
15.5999988
  1
資
 50
0.0
 41
0.75
 51
0.0
  7
KANJI0
  0
TEXT
  8
0
  6
CONTINUOUS
 62
     4
 10
20.27999878
 20
273.1999845
 30
1.55999988
 40
15.5999988
  1
営
 50
0.0
 41
0.75
 51
0.0
  7
KANJI0
  0
TEXT
  8
0
  6
CONTINUOUS
 62
     4
 10
20.27999878
 20
304.3999821
 30
1.55999988
 40
15.5999988
  1
客
 50
0.0
 41
0.75
 51
0.0
  7
KANJI0
  0
TEXT
  8
0
  6
CONTINUOUS
 62
     4
 10
20.0199988
 20
336.8999796
 30
1.55999988
 40
15.5999988
  1
出　図
 50
0.0
 41
0.75
 51
0.0
  7
KANJI0
  0
LINE
  8
0
  6
CONTINUOUS
 62
     4
 10
9.6199996
 20
76.8999996
 30
0.0
 11
9.6199996
 21
357.699978
 31
0.0
  0
LINE
  8
0
  6
CONTINUOUS
 62
     6
 10
2399.92
 20
71.7
 30
0.0
 11
77.92
 21
71.7
 31
0.0
  0
TEXT
  8
0
  6
CONTINUOUS
 62
     4
 10
95.919996215
 20
101.699993692
 30
1.199999748
 40
11.999997477
  1
ＰＡＲＴＳ　ＬＩＳＴ
 50
0.0
 41
0.6
 51
0.0
  7
KANJI1
  0
TEXT
  8
0
  6
CONTINUOUS
 62
     4
 10
95.919996215
 20
83.699997477
 30
1.439999697
 40
14.399996972
  1
部品表
 50
0.0
 41
0.9
 51
0.0
  7
KANJI2
  0
TEXT
  8
0
  6
CONTINUOUS
 62
     3
 10
95.919996215
 20
131.699987385
 30
1.799999622
 40
17.999996215
  1
ＰＬ
 50
0.0
 41
0.9
 51
0.0
  7
KANJI3
  0
TEXT
  8
0
  6
CONTINUOUS
 62
     4
 10
365.919939446
 20
101.699993692
 30
1.199999748
 40
11.999997477
  1
Ｎ０．
 50
0.0
 41
0.6
 51
0.0
  7
KANJI1
  0
TEXT
  8
0
  6
CONTINUOUS
 62
     4
 10
365.919939446
 20
83.699997477
 30
1.439999697
 40
14.399996972
  1
項番
 50
0.0
 41
0.9
 51
0.0
  7
KANJI2
  0
LINE
  8
0
  6
CONTINUOUS
 62
     6
 10
473.919916738
 20
77.699998738
 30
0.0
 11
473.919916738
 21
161.699981077
 31
0.0
  0
LINE
  8
0
  6
CONTINUOUS
 62
     6
 10
353.919941969
 20
77.699998738
 30
0.0
 11
353.919941969
 21
161.699981077
 31
0.0
  0
LINE
  8
0
  6
CONTINUOUS
 62
     6
 10
2399.92
 20
1685.7
 30
0.0
 11
2399.92
 21
71.7
 31
0.0
  0
LINE
  8
0
  6
CONTINUOUS
 62
     6
 10
1593.920062
 20
76.8999996
 30
0.0
 11
1593.920062
 21
409.699974
 31
0.0
  0
LINE
  8
0
  6
CONTINUOUS
 62
     6
 10
2394.7200004
 20
76.8999996
 30
0.0
 11
2394.7200004
 21
409.699974
 31
0.0
  0
LINE
  8
0
  6
CONTINUOUS
 62
     4
 10
1783.7200474
 20
76.8999996
 30
0.0
 11
1783.7200474
 21
409.699974
 31
0.0
  0
LINE
  8
0
  6
CONTINUOUS
 62
     4
 10
1593.920062
 20
118.4999964
 30
0.0
 11
1783.7200474
 21
118.4999964
 31
0.0
  0
TEXT
  8
0
  6
CONTINUOUS
 62
     4
 10
1604.3200612
 20
100.2999978
 30
1.03999992
 40
10.3999992
  1
ＳＣＡＬＥ
 50
0.0
 41
0.6
 51
0.0
  7
KANJI4
  0
TEXT
  8
0
  6
CONTINUOUS
 62
     4
 10
1604.3200612
 20
84.699999
 30
1.247999904
 40
12.47999904
  1
尺度
 50
0.0
 41
0.6
 51
0.0
  7
KANJI5
  0
LINE
  8
0
  6
CONTINUOUS
 62
     6
 10
1183.1200936
 20
118.4999964
 30
0.0
 11
1593.920062
 21
118.4999964
 31
0.0
  0
LINE
  8
0
  6
CONTINUOUS
 62
     6
 10
1183.1200936
 20
76.8999996
 30
0.0
 11
2394.7200004
 21
76.8999996
 31
0.0
  0
TEXT
  8
0
  6
CONTINUOUS
 62
     6
 10
1788.920047
 20
100.2999978
 30
0.0
 40
18.1999986
  1
ＵＮＩＴＥＣ　ＩＮＤＵＳＴＲＹ　ＣＯ．，ＬＴＤ．
 50
0.0
 41
0.42031746
 51
0.0
  7
KANJI6
  0
TEXT
  8
0
  6
CONTINUOUS
 62
     6
 10
2044.175027365
 20
93.53999832
 30
3.11999976
 40
31.1999976
  1
ユニテック工業株式会社
 50
0.0
 41
0.9
 51
0.0
  7
KANJI7
  0
LINE
  8
0
  6
CONTINUOUS
 62
     6
 10
2002.575030565
 20
104.45999748
 30
0.0
 11
1988.847031621
 21
104.45999748
 31
0.0
  0
LINE
  8
0
  6
CONTINUOUS
 62
     6
 10
2002.575030565
 20
106.955997288
 30
0.0
 11
1988.847031621
 21
106.955997288
 31
0.0
  0
LINE
  8
0
  6
CONTINUOUS
 62
     6
 10
2002.575030565
 20
104.45999748
 30
0.0
 11
2016.303029509
 21
104.45999748
 31
0.0
  0
LINE
  8
0
  6
CONTINUOUS
 62
     6
 10
2002.575030565
 20
106.955997288
 30
0.0
 11
2016.303029509
 21
106.955997288
 31
0.0
  0
LINE
  8
0
  6
CONTINUOUS
 62
     6
 10
2016.303029509
 20
106.955997288
 30
0.0
 11
2016.303029509
 21
104.45999748
 31
0.0
  0
ARC
  8
0
  6
CONTINUOUS
 62
     6
 10
2019.423029269
 20
105.707997384
 30
0.0
 40
12.47999904
 50
185.739170477
 51
90.0
  0
ARC
  8
0
  6
CONTINUOUS
 62
     6
 10
2019.423029269
 20
105.707997384
 30
0.0
 40
14.975998848
 50
184.780191847
 51
90.0
  0
LINE
  8
0
  6
CONTINUOUS
 62
     6
 10
1988.847031621
 20
104.45999748
 30
0.0
 11
1988.847031621
 21
106.955997288
 31
0.0
  0
ARC
  8
0
  6
CONTINUOUS
 62
     6
 10
1985.727031861
 20
105.707997384
 30
0.0
 40
12.47999904
 50
90.0
 51
354.260829523
  0
ARC
  8
0
  6
CONTINUOUS
 62
     6
 10
1985.727031861
 20
105.707997384
 30
0.0
 40
14.975998848
 50
90.0
 51
355.219808153
  0
LINE
  8
0
  6
CONTINUOUS
 62
     6
 10
2000.703030709
 20
120.683996232
 30
0.0
 11
2000.703030709
 21
118.187996424
 31
0.0
  0
LINE
  8
0
  6
CONTINUOUS
 62
     6
 10
1985.727031861
 20
118.187996424
 30
0.0
 11
2000.703030709
 21
118.187996424
 31
0.0
  0
LINE
  8
0
  6
CONTINUOUS
 62
     6
 10
2004.447030421
 20
120.683996232
 30
0.0
 11
2004.447030421
 21
118.187996424
 31
0.0
  0
LINE
  8
0
  6
CONTINUOUS
 62
     6
 10
2019.423029269
 20
118.187996424
 30
0.0
 11
2004.447030421
 21
118.187996424
 31
0.0
  0
TEXT
  8
0
  6
CONTINUOUS
 62
     4
 10
1315.7200834
 20
100.2999978
 30
1.03999992
 40
10.3999992
  1
ＢＹ
 50
0.0
 41
0.6
 51
0.0
  7
KANJI4
  0
TEXT
  8
0
  6
CONTINUOUS
 62
     4
 10
1430.1200746
 20
100.2999978
 30
1.03999992
 40
10.3999992
  1
ＤＥＳＣＲＩＰＴＩＯＮ
 50
0.0
 41
0.6
 51
0.0
  7
KANJI4
  0
TEXT
  8
0
  6
CONTINUOUS
 62
     4
 10
1315.7200834
 20
84.699999
 30
1.247999904
 40
12.47999904
  1
担当
 50
0.0
 41
0.6
 51
0.0
  7
KANJI5
  0
TEXT
  8
0
  6
CONTINUOUS
 62
     4
 10
1445.7200734
 20
84.699999
 30
1.247999904
 40
12.47999904
  1
記　　　　事
 50
0.0
 41
0.6
 51
0.0
  7
KANJI5
  0
LINE
  8
0
  6
CONTINUOUS
 62
     4
 10
1205.2200919
 20
110.699997
 30
0.0
 11
1188.3200932
 21
84.699999
 31
0.0
  0
TEXT
  8
0
  6
CONTINUOUS
 62
     4
 10
1248.1200886
 20
100.2999978
 30
1.03999992
 40
10.3999992
  1
ＤＡＴＥ
 50
0.0
 41
0.6
 51
0.0
  7
KANJI4
  0
TEXT
  8
0
  6
CONTINUOUS
 62
     4
 10
1255.920088
 20
84.699999
 30
1.247999904
 40
12.47999904
  1
日付
 50
0.0
 41
0.6
 51
0.0
  7
KANJI5
  0
LINE
  8
0
  6
CONTINUOUS
 62
     4
 10
1188.3200932
 20
84.699999
 30
0.0
 11
1222.1200906
 21
84.699999
 31
0.0
  0
LINE
  8
0
  6
CONTINUOUS
 62
     4
 10
1205.2200919
 20
110.699997
 30
0.0
 11
1222.1200906
 21
84.699999
 31
0.0
  0
LINE
  8
0
  6
CONTINUOUS
 62
     6
 10
1183.1200936
 20
76.8999996
 30
0.0
 11
1183.1200936
 21
118.4999964
 31
0.0
  0
LINE
  8
0
  6
CONTINUOUS
 62
     4
 10
1227.3200902
 20
76.8999996
 30
0.0
 11
1227.3200902
 21
118.4999964
 31
0.0
  0
LINE
  8
0
  6
CONTINUOUS
 62
     4
 10
1300.1200846
 20
76.8999996
 30
0.0
 11
1300.1200846
 21
118.4999964
 31
0.0
  0
LINE
  8
0
  6
CONTINUOUS
 62
     4
 10
1346.920081
 20
76.8999996
 30
0.0
 11
1346.920081
 21
118.4999964
 31
0.0
  0
TEXT
  8
0
  6
CONTINUOUS
 62
     4
 10
1604.3200612
 20
308.2999818
 30
1.03999992
 40
10.3999992
  1
ＣＯＤＥ
 50
0.0
 41
0.6
 51
0.0
  7
KANJI4
  0
LINE
  8
0
  6
CONTINUOUS
 62
     4
 10
1593.920062
 20
326.4999804
 30
0.0
 11
2394.7200004
 21
326.4999804
 31
0.0
  0
TEXT
  8
0
  6
CONTINUOUS
 62
     4
 10
1604.3200612
 20
292.699983
 30
1.247999904
 40
12.47999904
  1
分類
 50
0.0
 41
0.6
 51
0.0
  7
KANJI5
  0
TEXT
  8
0
  6
CONTINUOUS
 62
     4
 10
1612.42
 20
332.7
 30
6.0
 40
21.6
  1
ご注文主
 50
0.0
 41
1.111111111
 51
0.0
  7
KANJI8
  0
TEXT
  8
0
  6
CONTINUOUS
 62
     4
 10
1604.3200612
 20
183.4999914
 30
1.03999992
 40
10.3999992
  1
ＤＲＡＷＮ
 50
0.0
 41
0.6
 51
0.0
  7
KANJI4
  0
TEXT
  8
0
  6
CONTINUOUS
 62
     4
 10
1604.3200612
 20
225.0999882
 30
1.03999992
 40
10.3999992
  1
ＤＥＳＩＧＮ
 50
0.0
 41
0.6
 51
0.0
  7
KANJI4
  0
TEXT
  8
0
  6
CONTINUOUS
 62
     4
 10
1604.3200612
 20
266.699985
 30
1.03999992
 40
10.3999992
  1
ＣＨＥＣＫ
 50
0.0
 41
0.6
 51
0.0
  7
KANJI4
  0
LINE
  8
0
  6
CONTINUOUS
 62
     4
 10
1593.920062
 20
243.2999868
 30
0.0
 11
1783.7200474
 21
243.2999868
 31
0.0
  0
LINE
  8
0
  6
CONTINUOUS
 62
     4
 10
1593.920062
 20
201.69999
 30
0.0
 11
1783.7200474
 21
201.69999
 31
0.0
  0
LINE
  8
0
  6
CONTINUOUS
 62
     4
 10
1593.920062
 20
284.8999836
 30
0.0
 11
1783.7200474
 21
284.8999836
 31
0.0
  0
TEXT
  8
0
  6
CONTINUOUS
 62
     4
 10
1604.3200612
 20
209.4999894
 30
1.247999904
 40
12.47999904
  1
設計
 50
0.0
 41
0.6
 51
0.0
  7
KANJI5
  0
TEXT
  8
0
  6
CONTINUOUS
 62
     4
 10
1604.3200612
 20
251.0999862
 30
1.247999904
 40
12.47999904
  1
検図
 50
0.0
 41
0.6
 51
0.0
  7
KANJI5
  0
LINE
  8
0
  6
CONTINUOUS
 62
     4
 10
1799.06004622
 20
284.8999836
 30
0.0
 11
2394.7200004
 21
284.8999836
 31
0.0
  0
LINE
  8
0
  6
CONTINUOUS
 62
     4
 10
1783.7200474
 20
201.69999
 30
0.0
 11
2394.7200004
 21
201.69999
 31
0.0
  0
TEXT
  8
0
  6
CONTINUOUS
 62
     4
 10
1794.1200466
 20
183.4999914
 30
1.03999992
 40
10.3999992
  1
ＤＲＡＷＩＮＧ　ＮＯ．
 50
0.0
 41
0.8
 51
0.0
  7
KANJI9
  0
TEXT
  8
0
  6
CONTINUOUS
 62
     4
 10
1794.1200466
 20
225.0999882
 30
1.03999992
 40
10.3999992
  1
ＭＦＧ　ＮＯ．
 50
0.0
 41
0.8
 51
0.0
  7
KANJI9
  0
TEXT
  8
0
  6
CONTINUOUS
 62
     4
 10
1794.1200466
 20
266.699985
 30
1.03999992
 40
10.3999992
  1
ＴＹＰＥ
 50
0.0
 41
0.8
 51
0.0
  7
KANJI9
  0
LINE
  8
0
  6
CONTINUOUS
 62
     4
 10
1799.3200462
 20
243.2999868
 30
0.0
 11
2038.5200278
 21
243.2999868
 31
0.0
  0
TEXT
  8
0
  6
CONTINUOUS
 62
     4
 10
1794.1200466
 20
165.2999928
 30
1.247999904
 40
12.47999904
  1
図　面　番　号
 50
0.0
 41
0.8
 51
0.0
  7
KANJI10
  0
TEXT
  8
0
  6
CONTINUOUS
 62
     4
 10
1794.1200466
 20
206.8999896
 30
1.247999904
 40
12.47999904
  1
製番
 50
0.0
 41
0.8
 51
0.0
  7
KANJI10
  0
TEXT
  8
0
  6
CONTINUOUS
 62
     4
 10
1794.1200466
 20
248.4999864
 30
1.247999904
 40
12.47999904
  1
機種
 50
0.0
 41
0.8
 51
0.0
  7
KANJI10
  0
LINE
  8
0
  6
CONTINUOUS
 62
     4
 10
1593.920062
 20
160.0999932
 30
0.0
 11
1783.7200474
 21
160.0999932
 31
0.0
  0
TEXT
  8
0
  6
CONTINUOUS
 62
     4
 10
1604.3200612
 20
141.8999946
 30
1.03999992
 40
10.3999992
  1
ＤＡＴＥ
 50
0.0
 41
0.6
 51
0.0
  7
KANJI4
  0
TEXT
  8
0
  6
CONTINUOUS
 62
     4
 10
1604.3200612
 20
126.2999958
 30
1.247999904
 40
12.47999904
  1
日付
 50
0.0
 41
0.6
 51
0.0
  7
KANJI5
  0
TEXT
  8
0
  6
CONTINUOUS
 62
     4
 10
1604.3200612
 20
167.8999926
 30
1.247999904
 40
12.47999904
  1
作図
 50
0.0
 41
0.6
 51
0.0
  7
KANJI5
  0
LINE
  8
0
  6
CONTINUOUS
 62
     4
 10
1783.7200474
 20
141.8999946
 30
0.0
 11
2394.7200004
 21
141.8999946
 31
0.0
  0
LINE
  8
0
  6
LTYPE1
 62
     4
 10
2220.5200138
 20
149.699994
 30
0.0
 11
2220.5200138
 21
191.2999908
 31
0.0
  0
LINE
  8
0
  6
LTYPE1
 62
     4
 10
2184.1200166
 20
149.699994
 30
0.0
 11
2184.1200166
 21
191.2999908
 31
0.0
  0
LINE
  8
0
  6
LTYPE1
 62
     4
 10
2147.7200194
 20
149.699994
 30
0.0
 11
2147.7200194
 21
191.2999908
 31
0.0
  0
LINE
  8
0
  6
LTYPE1
 62
     4
 10
2111.3200222
 20
149.699994
 30
0.0
 11
2111.3200222
 21
191.2999908
 31
0.0
  0
LINE
  8
0
  6
LTYPE1
 62
     4
 10
2074.920025
 20
149.699994
 30
0.0
 11
2074.920025
 21
191.2999908
 31
0.0
  0
LINE
  8
0
  6
LTYPE1
 62
     4
 10
2038.5200278
 20
149.699994
 30
0.0
 11
2038.5200278
 21
191.2999908
 31
0.0
  0
LINE
  8
0
  6
LTYPE1
 62
     4
 10
2002.1200306
 20
149.699994
 30
0.0
 11
2002.1200306
 21
191.2999908
 31
0.0
  0
LINE
  8
0
  6
LTYPE1
 62
     4
 10
1965.7200334
 20
149.699994
 30
0.0
 11
1965.7200334
 21
191.2999908
 31
0.0
  0
LINE
  8
0
  6
LTYPE1
 62
     4
 10
1965.7200334
 20
191.2999908
 30
0.0
 11
2220.5200138
 21
191.2999908
 31
0.0
  0
LINE
  8
0
  6
LTYPE1
 62
     4
 10
1965.7200334
 20
149.699994
 30
0.0
 11
2220.5200138
 21
149.699994
 31
0.0
  0
LINE
  8
0
  6
CONTINUOUS
 62
     4
 10
2241.3200122
 20
171.7999923
 30
0.0
 11
2251.7200114
 21
171.7999923
 31
0.0
  0
LINE
  8
0
  6
CONTINUOUS
 62
     4
 10
2306.3200072
 20
156.1999935
 30
0.0
 11
2269.92001
 21
156.1999935
 31
0.0
  0
LINE
  8
0
  6
CONTINUOUS
 62
     4
 10
2269.92001
 20
156.1999935
 30
0.0
 11
2288.1200086
 21
187.3999911
 31
0.0
  0
LINE
  8
0
  6
CONTINUOUS
 62
     4
 10
2288.1200086
 20
187.3999911
 30
0.0
 11
2306.3200072
 21
156.1999935
 31
0.0
  0
TEXT
  8
0
  6
CONTINUOUS
 62
     4
 10
2054.1200266
 20
266.699985
 30
1.03999992
 40
10.3999992
  1
ＴＩＴＬＥ
 50
0.0
 41
0.8
 51
0.0
  7
KANJI9
  0
TEXT
  8
0
  6
CONTINUOUS
 62
     4
 10
2054.1200266
 20
248.4999864
 30
1.247999904
 40
12.47999904
  1
名称
 50
0.0
 41
0.8
 51
0.0
  7
KANJI10
  0
TEXT
  8
0
  6
CONTINUOUS
 62
     2
 10
2138.92
 20
209.7
 30
15.0
 40
30.0
  1
外形寸法図
 50
0.0
 41
1.0
 51
0.0
  7
KANJI11
  0
TEXT
  8
0
  6
CONTINUOUS
 62
     2
 10
2102.92
 20
245.7
 30
4.285714286
 40
30.0
  1
マイティシリンダ
 50
0.0
 41
1.0
 51
0.0
  7
KANJI12
  0
TEXT
  8
0
  6
CONTINUOUS
 62
     2
 10
1934.2200334
 20
155.699994
 30
1.8
 40
30.0
  1
Ａ
 50
0.0
 41
0.8
 51
0.0
  7
KANJI13
  0
CIRCLE
  8
0
  6
CONTINUOUS
 62
     2
 10
1895.2200334
 20
220.199994
 30
0.0
 40
15.0
  0
TEXT
  8
0
  6
CONTINUOUS
 62
     2
 10
1883.9700334
 20
208.949994
 30
1.8
 40
24.0
  1
Ｓ
 50
0.0
 41
1.0
 51
0.0
  7
KANJI14
  0
LINE
  8
0
  6
CONTINUOUS
 62
     6
 10
2000.703030709
 20
120.683996232
 30
0.0
 11
1985.727031861
 21
120.683996232
 31
0.0
  0
LINE
  8
0
  6
CONTINUOUS
 62
     6
 10
2004.447030421
 20
120.683996232
 30
0.0
 11
2019.423029269
 21
120.683996232
 31
0.0
  0
TEXT
  8
0
  6
CONTINUOUS
 62
     2
 10
1660.9200334
 20
170.699994
 30
6.0
 40
21.0
  1
岡田
 50
0.0
 41
0.857142857
 51
0.0
  7
KANJI15
  0
LINE
  8
0
  6
CONTINUOUS
 62
     4
 10
2394.7200004
 20
368.0999772
 30
0.0
 11
2394.7200004
 21
409.699974
 31
0.0
  0
LINE
  8
0
  6
CONTINUOUS
 62
     6
 10
1594.670062
 20
368.0999772
 30
0.0
 11
2395.4700004
 21
368.0999772
 31
0.0
  0
LINE
  8
0
  6
CONTINUOUS
 62
     6
 10
1593.920062
 20
409.699974
 30
0.0
 11
2394.7200004
 21
409.699974
 31
0.0
  0
TEXT
  8
0
  6
CONTINUOUS
 62
     4
 10
1612.42
 20
374.2999968
 30
6.0
 40
21.6
  1
ご用途
 50
0.0
 41
1.111111111
 51
0.0
  7
KANJI8
  0
TEXT
  8
0
  6
CONTINUOUS
 62
     2
 10
1703.92
 20
83.7
 30
1.8
 40
27.0
  1
１／６
 50
0.0
 41
0.666666667
 51
0.0
  7
KANJI16
  0
LINE
  8
0
  6
CONTINUOUS
 62
     1
 10
1518.37
 20
1676.9
 30
0.0
 11
1518.37
 21
1556.78
 31
0.0
  0
LINE
  8
0
  6
CONTINUOUS
 62
     2
 10
1449.07
 20
1676.9
 30
0.0
 11
1449.07
 21
1556.78
 31
0.0
  0
LINE
  8
0
  6
CONTINUOUS
 62
     2
 10
1379.77
 20
1676.9
 30
0.0
 11
1379.77
 21
1556.78
 31
0.0
  0
LINE
  8
0
  6
CONTINUOUS
 62
     1
 10
1287.37
 20
1676.9
 30
0.0
 11
1287.37
 21
1556.78
 31
0.0
  0
LINE
  8
0
  6
CONTINUOUS
 62
     1
 10
1287.37
 20
1676.9
 30
0.0
 11
1518.37
 21
1676.9
 31
0.0
  0
LINE
  8
0
  6
CONTINUOUS
 62
     1
 10
1287.37
 20
1639.94
 30
0.0
 11
1518.37
 21
1639.94
 31
0.0
  0
LINE
  8
0
  6
CONTINUOUS
 62
     2
 10
1287.37
 20
1612.22
 30
0.0
 11
1518.37
 21
1612.22
 31
0.0
  0
LINE
  8
0
  6
CONTINUOUS
 62
     2
 10
1287.37
 20
1584.5
 30
0.0
 11
1518.37
 21
1584.5
 31
0.0
  0
LINE
  8
0
  6
CONTINUOUS
 62
     1
 10
1287.37
 20
1556.78
 30
0.0
 11
1518.37
 21
1556.78
 31
0.0
  0
TEXT
  8
0
  6
CONTINUOUS
 62
     2
 10
1458.31
 20
1660.73
 30
1.386
 40
13.86
  1
起動電流
 50
0.0
 41
0.9
 51
0.0
  7
KANJI17
  0
TEXT
  8
0
  6
CONTINUOUS
 62
     2
 10
1458.31
 20
1644.56
 30
1.386
 40
13.86
  1
　　　Ａ
 50
0.0
 41
0.9
 51
0.0
  7
KANJI17
  0
TEXT
  8
0
  6
CONTINUOUS
 62
     2
 10
1389.01
 20
1660.73
 30
1.386
 40
13.86
  1
定格電流
 50
0.0
 41
0.9
 51
0.0
  7
KANJI17
  0
TEXT
  8
0
  6
CONTINUOUS
 62
     2
 10
1389.01
 20
1644.56
 30
1.386
 40
13.86
  1
　　　Ａ
 50
0.0
 41
0.9
 51
0.0
  7
KANJI17
  0
TEXT
  8
0
  6
CONTINUOUS
 62
     2
 10
1295.224
 20
1591.43
 30
1.386
 40
13.86
  1
２００／６０
 50
0.0
 41
0.9
 51
0.0
  7
KANJI17
  0
TEXT
  8
0
  6
CONTINUOUS
 62
     2
 10
1295.224
 20
1660.73
 30
1.386
 40
13.86
  1
電圧／周波数
 50
0.0
 41
0.9
 51
0.0
  7
KANJI17
  0
TEXT
  8
0
  6
CONTINUOUS
 62
     2
 10
1295.224
 20
1644.56
 30
1.386
 40
13.86
  1
　Ｖ／Ｈｚ
 50
0.0
 41
0.9
 51
0.0
  7
KANJI17
  0
TEXT
  8
0
  6
CONTINUOUS
 62
     2
 10
1295.224
 20
1619.15
 30
1.386
 40
13.86
  1
２００／５０
 50
0.0
 41
0.9
 51
0.0
  7
KANJI17
  0
TEXT
  8
0
  6
CONTINUOUS
 62
     2
 10
1295.224
 20
1563.71
 30
1.386
 40
13.86
  1
２２０／６０
 50
0.0
 41
0.9
 51
0.0
  7
KANJI17
  0
LINE
  8
0
  6
CONTINUOUS
 62
     1
 10
1241.17
 20
1676.9
 30
0.0
 11
1241.17
 21
1556.78
 31
0.0
  0
LINE
  8
0
  6
CONTINUOUS
 62
     2
 10
1171.87
 20
1676.9
 30
0.0
 11
1171.87
 21
1556.78
 31
0.0
  0
LINE
  8
0
  6
CONTINUOUS
 62
     2
 10
1102.57
 20
1676.9
 30
0.0
 11
1102.57
 21
1556.78
 31
0.0
  0
LINE
  8
0
  6
CONTINUOUS
 62
     1
 10
1010.17
 20
1676.9
 30
0.0
 11
1010.17
 21
1556.78
 31
0.0
  0
LINE
  8
0
  6
CONTINUOUS
 62
     1
 10
1010.17
 20
1676.9
 30
0.0
 11
1241.17
 21
1676.9
 31
0.0
  0
LINE
  8
0
  6
CONTINUOUS
 62
     1
 10
1010.17
 20
1639.94
 30
0.0
 11
1241.17
 21
1639.94
 31
0.0
  0
LINE
  8
0
  6
CONTINUOUS
 62
     2
 10
1010.17
 20
1612.22
 30
0.0
 11
1241.17
 21
1612.22
 31
0.0
  0
LINE
  8
0
  6
CONTINUOUS
 62
     2
 10
1010.17
 20
1584.5
 30
0.0
 11
1241.17
 21
1584.5
 31
0.0
  0
LINE
  8
0
  6
CONTINUOUS
 62
     1
 10
1010.17
 20
1556.78
 30
0.0
 11
1241.17
 21
1556.78
 31
0.0
  0
TEXT
  8
0
  6
CONTINUOUS
 62
     2
 10
1181.11
 20
1660.73
 30
1.386
 40
13.86
  1
起動電流
 50
0.0
 41
0.9
 51
0.0
  7
KANJI17
  0
TEXT
  8
0
  6
CONTINUOUS
 62
     2
 10
1181.11
 20
1644.56
 30
1.386
 40
13.86
  1
　　　Ａ
 50
0.0
 41
0.9
 51
0.0
  7
KANJI17
  0
TEXT
  8
0
  6
CONTINUOUS
 62
     2
 10
1111.81
 20
1660.73
 30
1.386
 40
13.86
  1
定格電流
 50
0.0
 41
0.9
 51
0.0
  7
KANJI17
  0
TEXT
  8
0
  6
CONTINUOUS
 62
     2
 10
1111.81
 20
1644.56
 30
1.386
 40
13.86
  1
　　　Ａ
 50
0.0
 41
0.9
 51
0.0
  7
KANJI17
  0
TEXT
  8
0
  6
CONTINUOUS
 62
     2
 10
1018.024
 20
1660.73
 30
1.386
 40
13.86
  1
電圧／周波数
 50
0.0
 41
0.9
 51
0.0
  7
KANJI17
  0
TEXT
  8
0
  6
CONTINUOUS
 62
     2
 10
1018.024
 20
1644.56
 30
1.386
 40
13.86
  1
　Ｖ／Ｈｚ
 50
0.0
 41
0.9
 51
0.0
  7
KANJI17
  0
TEXT
  8
0
  6
CONTINUOUS
 62
     2
 10
1018.024
 20
1619.15
 30
1.386
 40
13.86
  1
４００／５０
 50
0.0
 41
0.9
 51
0.0
  7
KANJI17
  0
TEXT
  8
0
  6
CONTINUOUS
 62
     2
 10
1018.024
 20
1591.43
 30
1.386
 40
13.86
  1
４００／６０
 50
0.0
 41
0.9
 51
0.0
  7
KANJI17
  0
TEXT
  8
0
  6
CONTINUOUS
 62
     2
 10
1018.024
 20
1563.71
 30
1.386
 40
13.86
  1
４４０／６０
 50
0.0
 41
0.9
 51
0.0
  7
KANJI17
  0
TEXT
  8
0
  6
CONTINUOUS
 62
     2
 10
1114.267493476
 20
1617.15
 30
1.386
 40
13.86
  1
　３．２
 50
0.0
 41
0.9
 51
0.0
  7
KANJI17
  0
TEXT
  8
0
  6
CONTINUOUS
 62
     2
 10
1114.267493476
 20
1589.43
 30
1.386
 40
13.86
  1
　２．８
 50
0.0
 41
0.9
 51
0.0
  7
KANJI17
  0
TEXT
  8
0
  6
CONTINUOUS
 62
     2
 10
1114.267493476
 20
1561.71
 30
1.386
 40
13.86
  1
　２．７
 50
0.0
 41
0.9
 51
0.0
  7
KANJI17
  0
TEXT
  8
0
  6
CONTINUOUS
 62
     2
 10
1391.467493476
 20
1561.71
 30
1.386
 40
13.86
  1
　５．３
 50
0.0
 41
0.9
 51
0.0
  7
KANJI17
  0
TEXT
  8
0
  6
CONTINUOUS
 62
     2
 10
1391.467493476
 20
1589.43
 30
1.386
 40
13.86
  1
　５．２
 50
0.0
 41
0.9
 51
0.0
  7
KANJI17
  0
TEXT
  8
0
  6
CONTINUOUS
 62
     2
 10
1391.467493476
 20
1617.15
 30
1.386
 40
13.86
  1
　６．１
 50
0.0
 41
0.9
 51
0.0
  7
KANJI17
  0
TEXT
  8
0
  6
CONTINUOUS
 62
     2
 10
1460.767493476
 20
1617.15
 30
1.386
 40
13.86
  1
２５．１
 50
0.0
 41
0.9
 51
0.0
  7
KANJI17
  0
TEXT
  8
0
  6
CONTINUOUS
 62
     2
 10
1460.767493476
 20
1589.43
 30
1.386
 40
13.86
  1
２２．５
 50
0.0
 41
0.9
 51
0.0
  7
KANJI17
  0
TEXT
  8
0
  6
CONTINUOUS
 62
     2
 10
1460.767493476
 20
1561.71
 30
1.386
 40
13.86
  1
２４．８
 50
0.0
 41
0.9
 51
0.0
  7
KANJI17
  0
TEXT
  8
0
  6
CONTINUOUS
 62
     2
 10
1183.567493476
 20
1617.15
 30
1.386
 40
13.86
  1
１２．５
 50
0.0
 41
0.9
 51
0.0
  7
KANJI17
  0
TEXT
  8
0
  6
CONTINUOUS
 62
     2
 10
1183.567493476
 20
1589.43
 30
1.386
 40
13.86
  1
１１．３
 50
0.0
 41
0.9
 51
0.0
  7
KANJI17
  0
TEXT
  8
0
  6
CONTINUOUS
 62
     2
 10
1183.567493476
 20
1561.71
 30
1.386
 40
13.86
  1
１２．４
 50
0.0
 41
0.9
 51
0.0
  7
KANJI17
  0
TEXT
  8
0
  6
CONTINUOUS
 62
     2
 10
1856.92
 20
251.7
 30
0.0
 40
21.0
  1
ＭＣＬＤ１－Ｌ
 50
0.0
 41
0.793650794
 51
0.0
  7
KANJI18
  0
TEXT
  8
0
  6
CONTINUOUS
 62
     2
 10
1971.7200334
 20
155.699994
 30
13.0
 40
30.0
  1
３００２４４８
 50
0.0
 41
0.8
 51
0.0
  7
KANJI19
  0
TEXT
  8
0
  6
CONTINUOUS
 62
     2
 10
171.4
 20
26.4
 30
0.0
 40
18.0
  1
ＦＤ　Ｎｏ．ＭＣ１９２
 50
0.0
 41
0.9
 51
0.0
  7
KANJI20
  0
LINE
  8
0
  6
CONTINUOUS
 62
     6
 10
351.629425053
 20
1631.447759827
 30
0.0
 11
119.584646507
 21
1631.447759827
 31
0.0
  0
TEXT
  8
0
  6
CONTINUOUS
 62
     6
 10
123.493517202
 20
1634.64592676
 30
1.0647
 40
11.661
  1
ＬＳ０１　　　：推力リミッタ（前進時過負荷用）
 50
0.0
 41
0.822608696
 51
0.0
  7
KANJI21
  0
TEXT
  8
0
  6
CONTINUOUS
 62
     6
 10
123.493517202
 20
1607.18342676
 30
1.0647
 40
11.661
  1
ＬＳ０２　　　：推力リミッタ（後進時過負荷用）
 50
0.0
 41
0.822608696
 51
0.0
  7
KANJI21
  0
LINE
  8
0
  6
CONTINUOUS
 62
     3
 10
351.629425053
 20
1603.985259827
 30
0.0
 11
119.584646507
 21
1603.985259827
 31
0.0
  0
LINE
  8
0
  6
CONTINUOUS
 62
     6
 10
351.629425053
 20
1603.985259827
 30
0.0
 11
119.584646507
 21
1603.985259827
 31
0.0
  0
TEXT
  8
0
  6
CONTINUOUS
 62
     6
 10
377.212228
 20
1628.900410728
 30
1.232517
 40
13.182
  1
電気定格　　　
 50
0.0
 41
0.85
 51
0.0
  7
KANJI22
  0
TEXT
  8
0
  6
CONTINUOUS
 62
     6
 10
390.013715102
 20
1598.326958599
 30
0.0
 40
11.8638
  1
ＤＣ１２５Ｖ　０．６Ａ　，ＤＣ２５０Ｖ　０．３Ａ　
 50
0.0
 41
0.726495726
 51
0.0
  7
KANJI23
  0
TEXT
  8
0
  6
CONTINUOUS
 62
     6
 10
384.757132178
 20
1646.661726126
 30
0.0
 40
55.0
  1
｝
 50
0.0
 41
0.440318182
 51
0.0
  7
KANJI24
  0
LINE
  8
0
  6
LTYPE2
 62
     6
 10
103.42
 20
1358.3
 30
0.0
 11
624.02
 21
1358.3
 31
0.0
  0
LINE
  8
0
  6
LTYPE2
 62
     6
 10
624.02
 20
1358.3
 30
0.0
 11
624.02
 21
1661.4
 31
0.0
  0
LINE
  8
0
  6
LTYPE2
 62
     6
 10
624.02
 20
1661.4
 30
0.0
 11
103.42
 21
1661.4
 31
0.0
  0
LINE
  8
0
  6
LTYPE2
 62
     6
 10
103.42
 20
1661.4
 30
0.0
 11
103.42
 21
1358.3
 31
0.0
  0
TEXT
  8
0
  6
CONTINUOUS
 62
     6
 10
288.632791539
 20
1376.32382165
 30
0.0
 40
17.740702234
  1
端子台　接続図
 50
0.0
 41
0.880962996
 51
0.0
  7
KANJI25
  0
LINE
  8
0
  6
CONTINUOUS
 62
     2
 10
323.597373465
 20
1427.328121884
 30
0.0
 11
323.597373465
 21
1404.549155128
 31
0.0
  0
LINE
  8
0
  6
CONTINUOUS
 62
     2
 10
350.17283468
 20
1427.328121884
 30
0.0
 11
350.17283468
 21
1404.549155128
 31
0.0
  0
LINE
  8
0
  6
CONTINUOUS
 62
     2
 10
376.748295894
 20
1427.328121884
 30
0.0
 11
376.748295894
 21
1404.549155128
 31
0.0
  0
LINE
  8
0
  6
CONTINUOUS
 62
     2
 10
403.323757109
 20
1427.328121884
 30
0.0
 11
403.323757109
 21
1404.549155128
 31
0.0
  0
CIRCLE
  8
0
  6
CONTINUOUS
 62
     6
 10
395.404269667
 20
1450.807921517
 30
0.0
 40
4.100214016
  0
LINE
  8
0
  6
CONTINUOUS
 62
     6
 10
391.304055651
 20
1450.807921517
 30
0.0
 11
390.036026502
 21
1450.807921517
 31
0.0
  0
LINE
  8
0
  6
CONTINUOUS
 62
     6
 10
416.358027433
 20
1464.494562742
 30
0.0
 11
412.443558096
 21
1442.159507138
 31
0.0
  0
LINE
  8
0
  6
CONTINUOUS
 62
     6
 10
411.631699663
 20
1465.282284037
 30
0.0
 11
407.716922494
 21
1442.947279739
 31
0.0
  0
LINE
  8
0
  6
CONTINUOUS
 62
     6
 10
412.443558096
 20
1442.159507138
 30
0.0
 11
407.716922494
 21
1442.947279739
 31
0.0
  0
CIRCLE
  8
0
  6
CONTINUOUS
 62
     6
 10
416.611487717
 20
1441.339464335
 30
0.0
 40
4.100214016
  0
LINE
  8
0
  6
CONTINUOUS
 62
     6
 10
416.611487717
 20
1437.239250319
 30
0.0
 11
416.611487717
 21
1427.328121884
 31
0.0
  0
LINE
  8
0
  6
CONTINUOUS
 62
     6
 10
390.036026502
 20
1450.807921517
 30
0.0
 11
390.036026502
 21
1427.328121884
 31
0.0
  0
LINE
  8
0
  6
CONTINUOUS
 62
     6
 10
363.460565287
 20
1427.328121884
 30
0.0
 11
363.460565287
 21
1481.033332504
 31
0.0
  0
LINE
  8
0
  6
CONTINUOUS
 62
     6
 10
283.987641926
 20
1464.494562742
 30
0.0
 11
287.902111263
 21
1442.159507138
 31
0.0
  0
LINE
  8
0
  6
CONTINUOUS
 62
     6
 10
288.713969696
 20
1465.282284037
 30
0.0
 11
292.628746865
 21
1442.947279739
 31
0.0
  0
LINE
  8
0
  6
CONTINUOUS
 62
     6
 10
287.902111263
 20
1442.159507138
 30
0.0
 11
292.628746865
 21
1442.947279739
 31
0.0
  0
CIRCLE
  8
0
  6
CONTINUOUS
 62
     6
 10
283.734181642
 20
1441.339464335
 30
0.0
 40
4.100214016
  0
CIRCLE
  8
0
  6
CONTINUOUS
 62
     6
 10
304.941399692
 20
1450.807921517
 30
0.0
 40
4.100214016
  0
LINE
  8
0
  6
CONTINUOUS
 62
     6
 10
309.041613708
 20
1450.807921517
 30
0.0
 11
310.309642857
 21
1450.807921517
 31
0.0
  0
LINE
  8
0
  6
CONTINUOUS
 62
     6
 10
283.734181642
 20
1437.239250319
 30
0.0
 11
283.734181642
 21
1427.328121884
 31
0.0
  0
LINE
  8
0
  6
CONTINUOUS
 62
     6
 10
310.309642857
 20
1450.807921517
 30
0.0
 11
310.309642857
 21
1427.328121884
 31
0.0
  0
LINE
  8
0
  6
CONTINUOUS
 62
     6
 10
336.885104072
 20
1427.328121884
 30
0.0
 11
336.885104072
 21
1481.033332504
 31
0.0
  0
LINE
  8
0
  6
CONTINUOUS
 62
     2
 10
429.899218324
 20
1427.328121884
 30
0.0
 11
429.899218324
 21
1404.549155128
 31
0.0
  0
LINE
  8
0
  6
CONTINUOUS
 62
     2
 10
270.446451035
 20
1427.328121884
 30
0.0
 11
270.446451035
 21
1404.549155128
 31
0.0
  0
LINE
  8
0
  6
CONTINUOUS
 62
     2
 10
297.02191225
 20
1427.328121884
 30
0.0
 11
297.02191225
 21
1404.549155128
 31
0.0
  0
LINE
  8
0
  6
CONTINUOUS
 62
     6
 10
416.611487717
 20
1481.033332504
 30
0.0
 11
363.460565287
 21
1481.033332504
 31
0.0
  0
CIRCLE
  8
0
  6
CONTINUOUS
 62
     6
 10
416.611487717
 20
1468.68941042
 30
0.0
 40
4.100214016
  0
LINE
  8
0
  6
CONTINUOUS
 62
     6
 10
416.358027433
 20
1464.494562742
 30
0.0
 11
411.631699663
 21
1465.282284037
 31
0.0
  0
LINE
  8
0
  6
CONTINUOUS
 62
     6
 10
416.611487717
 20
1472.789624436
 30
0.0
 11
416.611487717
 21
1481.033332504
 31
0.0
  0
CIRCLE
  8
0
  6
CONTINUOUS
 62
     6
 10
283.734181642
 20
1468.68941042
 30
0.0
 40
4.100214016
  0
LINE
  8
0
  6
CONTINUOUS
 62
     6
 10
283.987641926
 20
1464.494562742
 30
0.0
 11
288.713969696
 21
1465.282284037
 31
0.0
  0
LINE
  8
0
  6
CONTINUOUS
 62
     6
 10
283.734181642
 20
1472.789624436
 30
0.0
 11
283.734181642
 21
1481.033332504
 31
0.0
  0
LINE
  8
0
  6
CONTINUOUS
 62
     6
 10
336.885104072
 20
1481.033332504
 30
0.0
 11
283.734181642
 21
1481.033332504
 31
0.0
  0
TEXT
  8
0
  6
CONTINUOUS
 62
     6
 10
288.4972152
 20
1485.552473273
 30
0.819
 40
11.7
  1
ＬＳ０１
 50
0.0
 41
0.8
 51
0.0
  7
KANJI26
  0
TEXT
  8
0
  6
CONTINUOUS
 62
     6
 10
371.117398844
 20
1485.552473273
 30
0.819
 40
11.7
  1
ＬＳ０２
 50
0.0
 41
0.8
 51
0.0
  7
KANJI26
  0
TEXT
  8
0
  6
CONTINUOUS
 62
     3
 10
116.308775989
 20
1408.345649587
 30
0.0
 40
15.0
  1
　　　　　　　　　　　　　　　　　　１　　２　　　３　　　４　　　５　　　６
 50
0.0
 41
0.911
 51
0.0
  7
KANJI27
  0
LINE
  8
0
  6
CONTINUOUS
 62
     2
 10
270.446451035
 20
1427.328121884
 30
0.0
 11
429.899218324
 21
1427.328121884
 31
0.0
  0
LINE
  8
0
  6
CONTINUOUS
 62
     2
 10
270.446451035
 20
1404.549155128
 30
0.0
 11
429.899218324
 21
1404.549155128
 31
0.0
  0
TEXT
  8
0
  6
CONTINUOUS
 62
     6
 10
262.132791539
 20
1515.32382165
 30
0.0
 40
17.740702234
  1
推力リミッタ端子台配列
 50
0.0
 41
0.880962996
 51
0.0
  7
KANJI25
  0
TEXT
  8
0
  6
CONTINUOUS
 62
     6
 10
390.013715102
 20
1614.071931782
 30
0.0
 40
11.8638
  1
ＡＣ１００Ｖ　１２５Ｖ　２５０Ｖ　－１０Ａ
 50
0.0
 41
0.726495726
 51
0.0
  7
KANJI23
  0
TEXT
  8
0
  6
CONTINUOUS
 62
     2
 10
116.778726364
 20
1131.612221811
 30
0.0
 40
15.6
  1
モーター結線図
 50
0.0
 41
0.925
 51
0.0
  7
KANJI28
  0
LINE
  8
0
  6
LTYPE2
 62
     6
 10
111.683333
 20
1252.233317
 30
0.0
 11
111.683333
 21
1235.832460936
 31
0.0
  0
LINE
  8
0
  6
LTYPE2
 62
     6
 10
242.080262694
 20
1252.233317
 30
0.0
 11
111.683333
 21
1252.233317
 31
0.0
  0
TEXT
  8
0
  6
CONTINUOUS
 62
     6
 10
94.148590591
 20
1238.748168681
 30
1.093390404
 40
10.933904043
  1
Ｕ
 50
0.0
 41
0.9
 51
0.0
  7
KANJI29
  0
CIRCLE
  8
0
  6
CONTINUOUS
 62
     6
 10
111.683333
 20
1232.552289723
 30
0.0
 40
4.373561617
  0
LINE
  8
0
  6
CONTINUOUS
 62
     6
 10
106.65854931
 20
1227.527506033
 30
0.0
 11
116.863526417
 21
1237.73248314
 31
0.0
  0
TEXT
  8
0
  6
CONTINUOUS
 62
     6
 10
121.928806047
 20
1260.899448352
 30
1.518597784
 40
15.185977837
  1
エコノストップモータ
 50
0.0
 41
0.66671875
 51
0.0
  7
KANJI30
  0
CIRCLE
  8
0
  6
CONTINUOUS
 62
     6
 10
156.512339575
 20
1207.039846957
 30
0.0
 40
18.223173404
  0
TEXT
  8
0
  6
CONTINUOUS
 62
     6
 10
148.858606745
 20
1198.292723723
 30
1.82231734
 40
18.223173404
  1
Ｍ
 50
0.0
 41
0.9
 51
0.0
  7
KANJI31
  0
LINE
  8
0
  6
CONTINUOUS
 62
     6
 10
132.457750681
 20
1181.527404191
 30
0.0
 11
143.756118192
 21
1194.648089042
 31
0.0
  0
LINE
  8
0
  6
CONTINUOUS
 62
     6
 10
132.457750681
 20
1232.552289723
 30
0.0
 11
143.756118192
 21
1219.431604872
 31
0.0
  0
LINE
  8
0
  6
CONTINUOUS
 62
     6
 10
132.457750681
 20
1232.552289723
 30
0.0
 11
116.056894617
 21
1232.552289723
 31
0.0
  0
LINE
  8
0
  6
CONTINUOUS
 62
     6
 10
138.653629639
 20
1207.039846957
 30
0.0
 11
116.056894617
 21
1207.039846957
 31
0.0
  0
LINE
  8
0
  6
CONTINUOUS
 62
     6
 10
132.457750681
 20
1181.527404191
 30
0.0
 11
116.056894617
 21
1181.527404191
 31
0.0
  0
TEXT
  8
0
  6
CONTINUOUS
 62
     6
 10
95.241980995
 20
1212.871262446
 30
1.093390404
 40
10.933904043
  1
Ｖ
 50
0.0
 41
0.9
 51
0.0
  7
KANJI29
  0
TEXT
  8
0
  6
CONTINUOUS
 62
     6
 10
96.335371399
 20
1186.994356212
 30
1.093390404
 40
10.933904043
  1
Ｗ
 50
0.0
 41
0.9
 51
0.0
  7
KANJI29
  0
CIRCLE
  8
0
  6
CONTINUOUS
 62
     6
 10
111.683333
 20
1207.039846957
 30
0.0
 40
4.373561617
  0
LINE
  8
0
  6
CONTINUOUS
 62
     6
 10
106.65854931
 20
1202.015063267
 30
0.0
 11
116.863526417
 21
1212.220040374
 31
0.0
  0
LINE
  8
0
  6
LTYPE2
 62
     6
 10
111.683333
 20
1228.543191574
 30
0.0
 11
111.683333
 21
1210.32001817
 31
0.0
  0
CIRCLE
  8
0
  6
CONTINUOUS
 62
     6
 10
111.683333
 20
1181.527404191
 30
0.0
 40
4.373561617
  0
LINE
  8
0
  6
CONTINUOUS
 62
     6
 10
106.65854931
 20
1176.502620501
 30
0.0
 11
116.863526417
 21
1186.707597607
 31
0.0
  0
LINE
  8
0
  6
LTYPE2
 62
     6
 10
111.683333
 20
1203.030748808
 30
0.0
 11
111.683333
 21
1185.900965808
 31
0.0
  0
LINE
  8
0
  6
LTYPE2
 62
     6
 10
242.080262694
 20
1156.821584891
 30
0.0
 11
111.683333
 21
1156.821584891
 31
0.0
  0
LINE
  8
0
  6
LTYPE2
 62
     6
 10
111.683333
 20
1177.153842574
 30
0.0
 11
111.683333
 21
1156.821584891
 31
0.0
  0
TEXT
  8
0
  6
CONTINUOUS
 62
     6
 10
182.753709277
 20
1198.784749405
 30
1.457853872
 40
14.578538724
  1
Ｂ
 50
0.0
 41
0.9
 51
0.0
  7
KANJI32
  0
CIRCLE
  8
0
  6
CONTINUOUS
 62
     6
 10
189.314051703
 20
1207.039846957
 30
0.0
 40
14.578538724
  0
LINE
  8
0
  6
LTYPE2
 62
     6
 10
242.080262694
 20
1156.821584891
 30
0.0
 11
242.080262694
 21
1252.233317
 31
0.0
  0
LINE
  8
0
  6
CONTINUOUS
 62
     2
 10
132.6199996
 20
278.6999876
 30
0.0
 11
140.34740621
 21
276.629435239
 31
0.0
  0
LINE
  8
0
  6
CONTINUOUS
 62
     2
 10
132.6199996
 20
278.6999876
 30
0.0
 11
140.34740621
 21
280.770539961
 31
0.0
  0
LINE
  8
0
  6
CONTINUOUS
 62
     2
 10
132.6199996
 20
278.6999876
 30
0.0
 11
270.2199996
 21
278.6999876
 31
0.0
  0
LINE
  8
0
  6
CONTINUOUS
 62
     2
 10
270.2199996
 20
278.6999876
 30
0.0
 11
262.49259299
 21
280.770539961
 31
0.0
  0
LINE
  8
0
  6
CONTINUOUS
 62
     2
 10
270.2199996
 20
278.6999876
 30
0.0
 11
262.49259299
 21
276.629435239
 31
0.0
  0
LINE
  8
0
  6
CONTINUOUS
 62
     2
 10
270.2199996
 20
277.4999876
 30
0.0
 11
270.2199996
 21
274.6999876
 31
0.0
  0
LINE
  8
0
  6
CONTINUOUS
 62
     2
 10
270.2199996
 20
278.6999876
 30
0.0
 11
277.94740621
 21
276.629435239
 31
0.0
  0
LINE
  8
0
  6
CONTINUOUS
 62
     2
 10
270.2199996
 20
278.6999876
 30
0.0
 11
277.94740621
 21
280.770539961
 31
0.0
  0
LINE
  8
0
  6
CONTINUOUS
 62
     2
 10
270.2199996
 20
278.6999876
 30
0.0
 11
472.6199996
 21
278.6999876
 31
0.0
  0
LINE
  8
0
  6
CONTINUOUS
 62
     2
 10
472.6199996
 20
278.6999876
 30
0.0
 11
464.89259299
 21
280.770539961
 31
0.0
  0
LINE
  8
0
  6
CONTINUOUS
 62
     2
 10
472.6199996
 20
278.6999876
 30
0.0
 11
464.89259299
 21
276.629435239
 31
0.0
  0
LINE
  8
0
  6
CONTINUOUS
 62
     2
 10
270.2199996
 20
252.370539961
 30
0.0
 11
262.49259299
 21
254.441092322
 31
0.0
  0
LINE
  8
0
  6
CONTINUOUS
 62
     2
 10
270.2199996
 20
252.370539961
 30
0.0
 11
262.49259299
 21
250.2999876
 31
0.0
  0
LINE
  8
0
  6
CONTINUOUS
 62
     2
 10
258.2199996
 20
252.370539961
 30
0.0
 11
270.2199996
 21
252.370539961
 31
0.0
  0
LINE
  8
0
  6
CONTINUOUS
 62
     2
 10
270.2199996
 20
252.370539961
 30
0.0
 11
291.0199996
 21
252.370539961
 31
0.0
  0
LINE
  8
0
  6
CONTINUOUS
 62
     2
 10
291.0199996
 20
252.370539961
 30
0.0
 11
298.74740621
 21
250.2999876
 31
0.0
  0
LINE
  8
0
  6
CONTINUOUS
 62
     2
 10
291.0199996
 20
252.370539961
 30
0.0
 11
298.74740621
 21
254.441092322
 31
0.0
  0
LINE
  8
0
  6
CONTINUOUS
 62
     2
 10
132.6199996
 20
227.0999876
 30
0.0
 11
132.6199996
 21
221.0999876
 31
0.0
  0
LINE
  8
0
  6
CONTINUOUS
 62
     2
 10
132.6199996
 20
225.0999876
 30
0.0
 11
140.34740621
 21
223.029435239
 31
0.0
  0
LINE
  8
0
  6
CONTINUOUS
 62
     2
 10
132.6199996
 20
225.0999876
 30
0.0
 11
140.34740621
 21
227.170539961
 31
0.0
  0
LINE
  8
0
  6
CONTINUOUS
 62
     2
 10
132.6199996
 20
225.0999876
 30
0.0
 11
291.0199996
 21
225.0999876
 31
0.0
  0
LINE
  8
0
  6
CONTINUOUS
 62
     2
 10
291.0199996
 20
225.0999876
 30
0.0
 11
283.29259299
 21
227.170539961
 31
0.0
  0
LINE
  8
0
  6
CONTINUOUS
 62
     2
 10
291.0199996
 20
225.0999876
 30
0.0
 11
283.29259299
 21
223.029435239
 31
0.0
  0
LINE
  8
0
  6
CONTINUOUS
 62
     2
 10
291.0199996
 20
226.2999876
 30
0.0
 11
291.0199996
 21
221.0999876
 31
0.0
  0
LINE
  8
0
  6
CONTINUOUS
 62
     2
 10
291.0199996
 20
225.0999876
 30
0.0
 11
298.74740621
 21
223.029435239
 31
0.0
  0
LINE
  8
0
  6
CONTINUOUS
 62
     2
 10
291.0199996
 20
225.0999876
 30
0.0
 11
298.74740621
 21
227.170539961
 31
0.0
  0
LINE
  8
0
  6
CONTINUOUS
 62
     2
 10
472.6199996
 20
221.4999876
 30
0.0
 11
472.6199996
 21
221.0999876
 31
0.0
  0
LINE
  8
0
  6
CONTINUOUS
 62
     2
 10
132.6199996
 20
195.8999876
 30
0.0
 11
140.34740621
 21
193.829435239
 31
0.0
  0
LINE
  8
0
  6
CONTINUOUS
 62
     2
 10
132.6199996
 20
195.8999876
 30
0.0
 11
140.34740621
 21
197.970539961
 31
0.0
  0
LINE
  8
0
  6
CONTINUOUS
 62
     2
 10
132.6199996
 20
195.8999876
 30
0.0
 11
450.2199996
 21
195.8999876
 31
0.0
  0
LINE
  8
0
  6
CONTINUOUS
 62
     2
 10
450.2199996
 20
195.8999876
 30
0.0
 11
442.49259299
 21
197.970539961
 31
0.0
  0
LINE
  8
0
  6
CONTINUOUS
 62
     2
 10
450.2199996
 20
195.8999876
 30
0.0
 11
442.49259299
 21
193.829435239
 31
0.0
  0
LINE
  8
0
  6
CONTINUOUS
 62
     2
 10
450.2199996
 20
196.6999876
 30
0.0
 11
450.2199996
 21
191.8999876
 31
0.0
  0
LINE
  8
0
  6
CONTINUOUS
 62
     2
 10
450.2199996
 20
195.8999876
 30
0.0
 11
442.49259299
 21
197.970539961
 31
0.0
  0
LINE
  8
0
  6
CONTINUOUS
 62
     2
 10
450.2199996
 20
195.8999876
 30
0.0
 11
442.49259299
 21
193.829435239
 31
0.0
  0
LINE
  8
0
  6
CONTINUOUS
 62
     2
 10
438.2199996
 20
195.8999876
 30
0.0
 11
450.2199996
 21
195.8999876
 31
0.0
  0
LINE
  8
0
  6
CONTINUOUS
 62
     2
 10
450.2199996
 20
195.8999876
 30
0.0
 11
472.6199996
 21
195.8999876
 31
0.0
  0
LINE
  8
0
  6
CONTINUOUS
 62
     2
 10
472.6199996
 20
195.8999876
 30
0.0
 11
480.34740621
 21
193.829435239
 31
0.0
  0
LINE
  8
0
  6
CONTINUOUS
 62
     2
 10
472.6199996
 20
195.8999876
 30
0.0
 11
480.34740621
 21
197.970539961
 31
0.0
  0
LINE
  8
0
  6
CONTINUOUS
 62
     2
 10
132.6199996
 20
289.4999876
 30
0.0
 11
132.6199996
 21
274.6999876
 31
0.0
  0
LINE
  8
0
  6
CONTINUOUS
 62
     2
 10
472.6199996
 20
289.4999876
 30
0.0
 11
472.6199996
 21
274.6999876
 31
0.0
  0
LINE
  8
0
  6
CONTINUOUS
 62
     2
 10
270.2199996
 20
278.2999876
 30
0.0
 11
270.2199996
 21
289.4999876
 31
0.0
  0
LINE
  8
0
  6
CONTINUOUS
 62
     2
 10
291.0199996
 20
265.170539961
 30
0.0
 11
291.0199996
 21
248.370539961
 31
0.0
  0
LINE
  8
0
  6
CONTINUOUS
 62
     2
 10
132.6199996
 20
274.6999876
 30
0.0
 11
132.6199996
 21
182.6999876
 31
0.0
  0
LINE
  8
0
  6
CONTINUOUS
 62
     2
 10
472.6199996
 20
278.6999876
 30
0.0
 11
472.6199996
 21
183.8999876
 31
0.0
  0
LINE
  8
0
  6
CONTINUOUS
 62
     2
 10
291.0199996
 20
252.370539961
 30
0.0
 11
291.0199996
 21
215.8999876
 31
0.0
  0
LINE
  8
0
  6
CONTINUOUS
 62
     2
 10
270.2199996
 20
278.6999876
 30
0.0
 11
270.2199996
 21
243.0999876
 31
0.0
  0
TEXT
  8
0
  6
CONTINUOUS
 62
     3
 10
174.4199996
 20
280.6999876
 30
0.0
 40
15.0
  1
ｍｉｎ．Ｌ
 50
0.0
 41
0.9
 51
0.0
  7
KANJI33
  0
TEXT
  8
0
  6
CONTINUOUS
 62
     3
 10
328.2199996
 20
280.6999876
 30
0.0
 40
15.0
  1
機械的ストローク
 50
0.0
 41
0.9
 51
0.0
  7
KANJI33
  0
TEXT
  8
0
  6
CONTINUOUS
 62
     3
 10
303.0199996
 20
254.370539961
 30
0.0
 40
15.0
  1
余裕
 50
0.0
 41
0.9
 51
0.0
  7
KANJI33
  0
TEXT
  8
0
  6
CONTINUOUS
 62
     3
 10
184.8199996
 20
227.0999876
 30
0.0
 40
15.0
  1
常用ｍｉｎ
 50
0.0
 41
0.9
 51
0.0
  7
KANJI33
  0
TEXT
  8
0
  6
CONTINUOUS
 62
     3
 10
264.4199996
 20
197.8999876
 30
0.0
 40
15.0
  1
常用ｍａｘ
 50
0.0
 41
0.9
 51
0.0
  7
KANJI33
  0
TEXT
  8
0
  6
CONTINUOUS
 62
     3
 10
484.6199996
 20
197.8999876
 30
0.0
 40
15.0
  1
余裕
 50
0.0
 41
0.9
 51
0.0
  7
KANJI33
  0
LINE
  8
0
  6
CONTINUOUS
 62
     2
 10
291.0199996
 20
252.370539961
 30
0.0
 11
331.1199996
 21
252.370539961
 31
0.0
  0
LINE
  8
0
  6
CONTINUOUS
 62
     2
 10
472.6199996
 20
195.8999876
 30
0.0
 11
515.1199996
 21
195.8999876
 31
0.0
  0
LINE
  8
0
  6
CONTINUOUS
 62
     2
 10
1724.32
 20
706.5
 30
0.0
 11
1868.32
 21
706.5
 31
0.0
  0
TEXT
  8
0
  6
CONTINUOUS
 62
     2
 10
1736.92
 20
714.9
 30
12.0
 40
24.0
  1
特記事項
 50
0.0
 41
0.9
 51
0.0
  7
KANJI34
  0
TEXT
  8
0
  6
CONTINUOUS
 62
     2
 10
1730.92
 20
595.2
 30
1.8
 40
21.0
  1
３．ＬＳユニット
 50
0.0
 41
0.857142857
 51
0.0
  7
KANJI35
  0
TEXT
  8
0
  6
CONTINUOUS
 62
     2
 10
1730.92
 20
670.2
 30
1.8
 40
21.0
  1
１．運転時は必ずピストンロッドの回転防止を行って下さい。
 50
0.0
 41
0.857142857
 51
0.0
  7
KANJI35
  0
TEXT
  8
0
  6
CONTINUOUS
 62
     2
 10
1730.92
 20
632.7
 30
1.8
 40
21.0
  1
２．モートル：全閉自冷かご形３０分定格
 50
0.0
 41
0.857142857
 51
0.0
  7
KANJI35
  0
TEXT
  8
0
  6
CONTINUOUS
 62
     2
 10
1730.92
 20
502.2
 30
1.8
 40
21.0
  1
４．呼称ストロークは、機械的ストロークです。
 50
0.0
 41
0.857142857
 51
0.0
  7
KANJI35
  0
TEXT
  8
0
  6
CONTINUOUS
 62
     2
 10
1730.92
 20
535.2
 30
1.8
 40
21.0
  1
　　ストローク７００ｍｍ以上の場合２ロッド方式となります。
 50
0.0
 41
0.857142857
 51
0.0
  7
KANJI35
  0
TEXT
  8
0
  6
CONTINUOUS
 62
     2
 10
1730.92
 20
565.2
 30
1.8
 40
21.0
  1
　　リミットスイッチ：１ＬＳ１－Ｊｘ２ケ（山武）
 50
0.0
 41
0.857142857
 51
0.0
  7
KANJI35
  0
TEXT
  8
0
  6
CONTINUOUS
 62
     2
 10
1730.92
 20
465.24
 30
1.8
 40
21.0
  1
　　必ず、常用はストローク両端に必ず余裕を取って下さい。
 50
0.0
 41
0.857142857
 51
0.0
  7
KANJI35
  0
TEXT
  8
0
  6
CONTINUOUS
 62
     2
 10
1730.92
 20
427.464
 30
1.8
 40
21.0
  1
　　前後の推奨余裕寸法は、各々２５ｍｍです。
 50
0.0
 41
0.857142857
 51
0.0
  7
KANJI35
  0
TEXT
  8
0
  6
CONTINUOUS
 62
     2
 10
1050.133
 20
1535.99
 30
1.617
 40
16.17
  1
注意：サーマルリレー等の選定は、上記の値で選定して下さい。
 50
0.0
 41
0.9
 51
0.0
  7
KANJI36
  0
LINE
  8
0
  6
CONTINUOUS
 62
     2
 10
1040.893
 20
1531.37
 30
0.0
 11
1501.92
 21
1531.37
 31
0.0
  0
LINE
  8
0
  6
CONTINUOUS
 62
     1
 10
403.0
 20
616.5
 30
0.0
 11
317.0
 21
616.5
 31
0.0
  0
LINE
  8
0
  6
CONTINUOUS
 62
     1
 10
317.0
 20
630.0
 30
0.0
 11
317.0
 21
619.05046
 31
0.0
  0
LINE
  8
0
  6
CONTINUOUS
 62
     1
 10
317.0
 20
630.0
 30
0.0
 11
317.0
 21
640.94954
 31
0.0
  0
LINE
  8
0
  6
CONTINUOUS
 62
     1
 10
308.9789
 20
621.73198
 30
0.0
 11
310.527076294
 21
619.05046
 31
0.0
  0
LINE
  8
0
  6
CONTINUOUS
 62
     1
 10
308.9789
 20
630.0
 30
0.0
 11
308.9789
 21
621.73198
 31
0.0
  0
LINE
  8
0
  6
CONTINUOUS
 62
     1
 10
308.9789
 20
638.26802
 30
0.0
 11
310.527076294
 21
640.94954
 31
0.0
  0
LINE
  8
0
  6
CONTINUOUS
 62
     1
 10
308.9789
 20
630.0
 30
0.0
 11
308.9789
 21
638.26802
 31
0.0
  0
ARC
  8
0
  6
CONTINUOUS
 62
     1
 10
319.433121693
 20
630.0
 30
0.0
 40
10.454221693
 50
148.419912243
 51
211.580087757
  0
ARC
  8
0
  6
CONTINUOUS
 62
     1
 10
312.172013606
 20
621.787845
 30
0.0
 40
3.193602261
 50
121.002313915
 51
182.989498403
  0
LINE
  8
0
  6
CONTINUOUS
 62
     1
 10
308.9789
 20
638.26802
 30
0.0
 11
310.527076294
 21
640.94954
 31
0.0
  0
ARC
  8
0
  6
CONTINUOUS
 62
     1
 10
312.172013606
 20
638.212155
 30
0.0
 40
3.193602261
 50
177.010501597
 51
238.997686085
  0
LINE
  8
0
  6
CONTINUOUS
 62
     1
 10
317.0
 20
619.05046
 30
0.0
 11
310.527076294
 21
619.05046
 31
0.0
  0
LINE
  8
0
  6
CONTINUOUS
 62
     1
 10
317.0
 20
624.52523
 30
0.0
 11
310.527076294
 21
624.52523
 31
0.0
  0
LINE
  8
0
  6
CONTINUOUS
 62
     1
 10
317.0
 20
635.47477
 30
0.0
 11
310.527076294
 21
635.47477
 31
0.0
  0
LINE
  8
0
  6
CONTINUOUS
 62
     1
 10
317.0
 20
640.94954
 30
0.0
 11
310.527076294
 21
640.94954
 31
0.0
  0
LINE
  8
0
  6
CONTINUOUS
 62
     1
 10
317.0
 20
758.0
 30
0.0
 11
317.0
 21
747.05046
 31
0.0
  0
LINE
  8
0
  6
CONTINUOUS
 62
     1
 10
317.0
 20
758.0
 30
0.0
 11
317.0
 21
768.94954
 31
0.0
  0
LINE
  8
0
  6
CONTINUOUS
 62
     1
 10
308.9789
 20
749.73198
 30
0.0
 11
310.527076294
 21
747.05046
 31
0.0
  0
LINE
  8
0
  6
CONTINUOUS
 62
     1
 10
308.9789
 20
758.0
 30
0.0
 11
308.9789
 21
749.73198
 31
0.0
  0
LINE
  8
0
  6
CONTINUOUS
 62
     1
 10
308.9789
 20
766.26802
 30
0.0
 11
310.527076294
 21
768.94954
 31
0.0
  0
LINE
  8
0
  6
CONTINUOUS
 62
     1
 10
308.9789
 20
758.0
 30
0.0
 11
308.9789
 21
766.26802
 31
0.0
  0
ARC
  8
0
  6
CONTINUOUS
 62
     1
 10
319.433121693
 20
758.0
 30
0.0
 40
10.454221693
 50
148.419912243
 51
211.580087757
  0
ARC
  8
0
  6
CONTINUOUS
 62
     1
 10
312.172013606
 20
749.787845
 30
0.0
 40
3.193602261
 50
121.002313915
 51
182.989498403
  0
LINE
  8
0
  6
CONTINUOUS
 62
     1
 10
308.9789
 20
766.26802
 30
0.0
 11
310.527076294
 21
768.94954
 31
0.0
  0
ARC
  8
0
  6
CONTINUOUS
 62
     1
 10
312.172013606
 20
766.212155
 30
0.0
 40
3.193602261
 50
177.010501597
 51
238.997686085
  0
LINE
  8
0
  6
CONTINUOUS
 62
     1
 10
317.0
 20
747.05046
 30
0.0
 11
310.527076294
 21
747.05046
 31
0.0
  0
LINE
  8
0
  6
CONTINUOUS
 62
     1
 10
317.0
 20
752.52523
 30
0.0
 11
310.527076294
 21
752.52523
 31
0.0
  0
LINE
  8
0
  6
CONTINUOUS
 62
     1
 10
317.0
 20
763.47477
 30
0.0
 11
310.527076294
 21
763.47477
 31
0.0
  0
LINE
  8
0
  6
CONTINUOUS
 62
     1
 10
317.0
 20
768.94954
 30
0.0
 11
310.527076294
 21
768.94954
 31
0.0
  0
LINE
  8
0
  6
CONTINUOUS
 62
     1
 10
317.0
 20
616.5
 30
0.0
 11
317.0
 21
831.5
 31
0.0
  0
LINE
  8
0
  6
CONTINUOUS
 62
     1
 10
332.0
 20
831.5
 30
0.0
 11
317.0
 21
831.5
 31
0.0
  0
LINE
  8
0
  6
CONTINUOUS
 62
     1
 10
317.0
 20
822.5
 30
0.0
 11
317.0
 21
815.00594
 31
0.0
  0
LINE
  8
0
  6
CONTINUOUS
 62
     1
 10
317.0
 20
822.5
 30
0.0
 11
317.0
 21
829.99406
 31
0.0
  0
LINE
  8
0
  6
CONTINUOUS
 62
     1
 10
311.5001
 20
816.84122
 30
0.0
 11
312.559699402
 21
815.00594
 31
0.0
  0
LINE
  8
0
  6
CONTINUOUS
 62
     1
 10
311.5001
 20
822.5
 30
0.0
 11
311.5001
 21
816.84122
 31
0.0
  0
LINE
  8
0
  6
CONTINUOUS
 62
     1
 10
311.5001
 20
828.15878
 30
0.0
 11
312.559699402
 21
829.99406
 31
0.0
  0
LINE
  8
0
  6
CONTINUOUS
 62
     1
 10
311.5001
 20
822.5
 30
0.0
 11
311.5001
 21
828.15878
 31
0.0
  0
ARC
  8
0
  6
CONTINUOUS
 62
     1
 10
318.655155337
 20
822.5
 30
0.0
 40
7.155055337
 50
148.419912243
 51
211.580087757
  0
ARC
  8
0
  6
CONTINUOUS
 62
     1
 10
313.685523767
 20
816.879455
 30
0.0
 40
2.185758211
 50
121.002313915
 51
182.989498403
  0
LINE
  8
0
  6
CONTINUOUS
 62
     1
 10
311.5001
 20
828.15878
 30
0.0
 11
312.559699402
 21
829.99406
 31
0.0
  0
ARC
  8
0
  6
CONTINUOUS
 62
     1
 10
313.685523767
 20
828.120545
 30
0.0
 40
2.185758211
 50
177.010501597
 51
238.997686085
  0
LINE
  8
0
  6
CONTINUOUS
 62
     1
 10
317.0
 20
815.00594
 30
0.0
 11
312.559699402
 21
815.00594
 31
0.0
  0
LINE
  8
0
  6
CONTINUOUS
 62
     1
 10
317.0
 20
818.75297
 30
0.0
 11
312.559699402
 21
818.75297
 31
0.0
  0
LINE
  8
0
  6
CONTINUOUS
 62
     1
 10
317.0
 20
826.24703
 30
0.0
 11
312.559699402
 21
826.24703
 31
0.0
  0
LINE
  8
0
  6
CONTINUOUS
 62
     1
 10
317.0
 20
829.99406
 30
0.0
 11
312.559699402
 21
829.99406
 31
0.0
  0
LINE
  8
0
  6
CONTINUOUS
 62
     1
 10
511.0
 20
636.0
 30
0.0
 11
585.0
 21
636.0
 31
0.0
  0
LINE
  8
0
  6
CONTINUOUS
 62
     1
 10
585.0
 20
636.0
 30
0.0
 11
585.0
 21
747.0
 31
0.0
  0
LINE
  8
0
  6
CONTINUOUS
 62
     1
 10
418.0
 20
637.0
 30
0.0
 11
418.0
 21
751.0
 31
0.0
  0
CIRCLE
  8
0
  6
CONTINUOUS
 62
     1
 10
463.0
 20
694.0
 30
0.0
 40
10.0
  0
CIRCLE
  8
0
  6
CONTINUOUS
 62
     1
 10
463.0
 20
694.0
 30
0.0
 40
21.0
  0
CIRCLE
  8
0
  6
CONTINUOUS
 62
     1
 10
463.0
 20
694.0
 30
0.0
 40
25.0
  0
LINE
  8
0
  6
CONTINUOUS
 62
     1
 10
403.0
 20
751.0
 30
0.0
 11
418.0
 21
751.0
 31
0.0
  0
LINE
  8
0
  6
CONTINUOUS
 62
     1
 10
431.9
 20
747.0
 30
0.0
 11
585.0
 21
747.0
 31
0.0
  0
LINE
  8
0
  6
CONTINUOUS
 62
     1
 10
511.0
 20
636.0
 30
0.0
 11
511.0
 21
688.4
 31
0.0
  0
LINE
  8
0
  6
CONTINUOUS
 62
     1
 10
431.9
 20
641.0
 30
0.0
 11
508.5
 21
641.0
 31
0.0
  0
LINE
  8
0
  6
CONTINUOUS
 62
     1
 10
593.0
 20
634.5
 30
0.0
 11
593.0
 21
633.5
 31
0.0
  0
ARC
  8
0
  6
CONTINUOUS
 62
     1
 10
506.0
 20
631.5
 30
0.0
 40
3.0
 50
90.0
 51
180.0
  0
LINE
  8
0
  6
CONTINUOUS
 62
     1
 10
593.0
 20
633.5
 30
0.0
 11
629.0
 21
633.5
 31
0.0
  0
ARC
  8
0
  6
CONTINUOUS
 62
     1
 10
629.0
 20
630.5
 30
0.0
 40
3.0
 50
0.0
 51
90.0
  0
LINE
  8
0
  6
CONTINUOUS
 62
     1
 10
506.0
 20
634.5
 30
0.0
 11
593.0
 21
634.5
 31
0.0
  0
LINE
  8
0
  6
CONTINUOUS
 62
     1
 10
506.0
 20
636.0
 30
0.0
 11
593.0
 21
636.0
 31
0.0
  0
LINE
  8
0
  6
CONTINUOUS
 62
     1
 10
421.0
 20
739.0
 30
0.0
 11
421.0
 21
749.94954
 31
0.0
  0
LINE
  8
0
  6
CONTINUOUS
 62
     1
 10
421.0
 20
739.0
 30
0.0
 11
421.0
 21
728.05046
 31
0.0
  0
LINE
  8
0
  6
CONTINUOUS
 62
     1
 10
418.0
 20
749.75
 30
0.0
 11
421.0
 21
749.75
 31
0.0
  0
LINE
  8
0
  6
CONTINUOUS
 62
     1
 10
418.0
 20
739.0
 30
0.0
 11
421.000254073
 21
742.000254073
 31
0.0
  0
LINE
  8
0
  6
CONTINUOUS
 62
     1
 10
421.000254073
 20
739.0
 30
0.0
 11
418.0
 21
735.999745927
 31
0.0
  0
LINE
  8
0
  6
CONTINUOUS
 62
     1
 10
418.0
 20
728.25
 30
0.0
 11
421.0
 21
728.25
 31
0.0
  0
LINE
  8
0
  6
CONTINUOUS
 62
     1
 10
421.0
 20
749.75
 30
0.0
 11
432.3
 21
749.75
 31
0.0
  0
LINE
  8
0
  6
CONTINUOUS
 62
     1
 10
432.3
 20
739.0
 30
0.0
 11
432.3
 21
749.75
 31
0.0
  0
LINE
  8
0
  6
CONTINUOUS
 62
     1
 10
432.3
 20
749.75
 30
0.0
 11
433.0
 21
748.537564435
 31
0.0
  0
LINE
  8
0
  6
CONTINUOUS
 62
     1
 10
433.0
 20
739.0
 30
0.0
 11
433.0
 21
748.537564435
 31
0.0
  0
LINE
  8
0
  6
CONTINUOUS
 62
     1
 10
421.0
 20
728.25
 30
0.0
 11
432.3
 21
728.25
 31
0.0
  0
LINE
  8
0
  6
CONTINUOUS
 62
     1
 10
432.3
 20
739.0
 30
0.0
 11
432.3
 21
728.25
 31
0.0
  0
LINE
  8
0
  6
CONTINUOUS
 62
     1
 10
432.3
 20
728.25
 30
0.0
 11
433.0
 21
729.462435565
 31
0.0
  0
LINE
  8
0
  6
CONTINUOUS
 62
     1
 10
433.0
 20
739.0
 30
0.0
 11
433.0
 21
729.462435565
 31
0.0
  0
LINE
  8
0
  6
CONTINUOUS
 62
     1
 10
421.0
 20
649.0
 30
0.0
 11
421.0
 21
638.05046
 31
0.0
  0
LINE
  8
0
  6
CONTINUOUS
 62
     1
 10
421.0
 20
649.0
 30
0.0
 11
421.0
 21
659.94954
 31
0.0
  0
LINE
  8
0
  6
CONTINUOUS
 62
     1
 10
418.0
 20
638.25
 30
0.0
 11
421.0
 21
638.25
 31
0.0
  0
LINE
  8
0
  6
CONTINUOUS
 62
     1
 10
418.0
 20
649.0
 30
0.0
 11
421.000254073
 21
645.999745927
 31
0.0
  0
LINE
  8
0
  6
CONTINUOUS
 62
     1
 10
421.000254073
 20
649.0
 30
0.0
 11
418.0
 21
652.000254073
 31
0.0
  0
LINE
  8
0
  6
CONTINUOUS
 62
     1
 10
418.0
 20
659.75
 30
0.0
 11
421.0
 21
659.75
 31
0.0
  0
LINE
  8
0
  6
CONTINUOUS
 62
     1
 10
421.0
 20
638.25
 30
0.0
 11
432.3
 21
638.25
 31
0.0
  0
LINE
  8
0
  6
CONTINUOUS
 62
     1
 10
432.3
 20
649.0
 30
0.0
 11
432.3
 21
638.25
 31
0.0
  0
LINE
  8
0
  6
CONTINUOUS
 62
     1
 10
432.3
 20
638.25
 30
0.0
 11
433.0
 21
639.462435565
 31
0.0
  0
LINE
  8
0
  6
CONTINUOUS
 62
     1
 10
433.0
 20
649.0
 30
0.0
 11
433.0
 21
639.462435565
 31
0.0
  0
LINE
  8
0
  6
CONTINUOUS
 62
     1
 10
421.0
 20
659.75
 30
0.0
 11
432.3
 21
659.75
 31
0.0
  0
LINE
  8
0
  6
CONTINUOUS
 62
     1
 10
432.3
 20
649.0
 30
0.0
 11
432.3
 21
659.75
 31
0.0
  0
LINE
  8
0
  6
CONTINUOUS
 62
     1
 10
432.3
 20
659.75
 30
0.0
 11
433.0
 21
658.537564435
 31
0.0
  0
LINE
  8
0
  6
CONTINUOUS
 62
     1
 10
433.0
 20
649.0
 30
0.0
 11
433.0
 21
658.537564435
 31
0.0
  0
LINE
  8
0
  6
CONTINUOUS
 62
     1
 10
403.0
 20
637.0
 30
0.0
 11
418.0
 21
637.0
 31
0.0
  0
POINT
  8
0
  6
CONTINUOUS
 62
     1
 10
403.0
 20
637.0
 30
0.0
  0
LINE
  8
0
  6
CONTINUOUS
 62
     1
 10
594.0
 20
643.0
 30
0.0
 11
594.0
 21
745.0
 31
0.0
  0
LINE
  8
0
  6
CONTINUOUS
 62
     1
 10
594.0
 20
745.0
 30
0.0
 11
585.0
 21
745.0
 31
0.0
  0
LINE
  8
0
  6
CONTINUOUS
 62
     1
 10
594.0
 20
643.0
 30
0.0
 11
585.0
 21
643.0
 31
0.0
  0
LINE
  8
0
  6
CONTINUOUS
 62
     1
 10
594.0
 20
741.5
 30
0.0
 11
585.0
 21
741.5
 31
0.0
  0
LINE
  8
0
  6
CONTINUOUS
 62
     1
 10
594.0
 20
646.5
 30
0.0
 11
585.0
 21
646.5
 31
0.0
  0
LINE
  8
0
  6
CONTINUOUS
 62
     1
 10
594.0
 20
690.0
 30
0.0
 11
585.0
 21
690.0
 31
0.0
  0
LINE
  8
0
  6
CONTINUOUS
 62
     1
 10
594.0
 20
698.0
 30
0.0
 11
585.0
 21
698.0
 31
0.0
  0
LINE
  8
0
  6
LTYPE3
 62
     2
 10
342.1
 20
630.0
 30
0.0
 11
307.9
 21
630.0
 31
0.0
  0
LINE
  8
0
  6
LTYPE3
 62
     2
 10
343.1
 20
758.0
 30
0.0
 11
307.9
 21
758.0
 31
0.0
  0
LINE
  8
0
  6
LTYPE3
 62
     2
 10
347.6
 20
822.5
 30
0.0
 11
308.3
 21
822.5
 31
0.0
  0
LINE
  8
0
  6
LTYPE3
 62
     2
 10
382.0
 20
739.0
 30
0.0
 11
435.0
 21
739.0
 31
0.0
  0
LINE
  8
0
  6
LTYPE3
 62
     2
 10
463.0
 20
662.5
 30
0.0
 11
463.0
 21
725.5
 31
0.0
  0
LINE
  8
0
  6
LTYPE3
 62
     2
 10
382.0
 20
649.0
 30
0.0
 11
435.0
 21
649.0
 31
0.0
  0
LINE
  8
0
  6
CONTINUOUS
 62
     2
 10
317.0
 20
443.8625
 30
0.0
 11
329.074072829
 21
440.627261936
 31
0.0
  0
LINE
  8
0
  6
CONTINUOUS
 62
     2
 10
317.0
 20
443.8625
 30
0.0
 11
329.074072829
 21
447.097738064
 31
0.0
  0
LINE
  8
0
  6
CONTINUOUS
 62
     2
 10
317.0
 20
443.8625
 30
0.0
 11
403.0
 21
443.8625
 31
0.0
  0
LINE
  8
0
  6
CONTINUOUS
 62
     2
 10
403.0
 20
443.8625
 30
0.0
 11
390.925927171
 21
447.097738064
 31
0.0
  0
LINE
  8
0
  6
CONTINUOUS
 62
     2
 10
403.0
 20
443.8625
 30
0.0
 11
390.925927171
 21
440.627261936
 31
0.0
  0
LINE
  8
0
  6
CONTINUOUS
 62
     2
 10
403.0
 20
443.8625
 30
0.0
 11
415.074072829
 21
440.627261936
 31
0.0
  0
LINE
  8
0
  6
CONTINUOUS
 62
     2
 10
403.0
 20
443.8625
 30
0.0
 11
415.074072829
 21
447.097738064
 31
0.0
  0
LINE
  8
0
  6
CONTINUOUS
 62
     2
 10
403.0
 20
443.8625
 30
0.0
 11
463.0
 21
443.8625
 31
0.0
  0
LINE
  8
0
  6
CONTINUOUS
 62
     2
 10
463.0
 20
443.8625
 30
0.0
 11
450.925927171
 21
447.097738064
 31
0.0
  0
LINE
  8
0
  6
CONTINUOUS
 62
     2
 10
463.0
 20
443.8625
 30
0.0
 11
450.925927171
 21
440.627261936
 31
0.0
  0
LINE
  8
0
  6
CONTINUOUS
 62
     2
 10
463.0
 20
443.8625
 30
0.0
 11
475.074072829
 21
440.627261936
 31
0.0
  0
LINE
  8
0
  6
CONTINUOUS
 62
     2
 10
463.0
 20
443.8625
 30
0.0
 11
475.074072829
 21
447.097738064
 31
0.0
  0
LINE
  8
0
  6
CONTINUOUS
 62
     2
 10
463.0
 20
443.8625
 30
0.0
 11
1094.0
 21
443.8625
 31
0.0
  0
LINE
  8
0
  6
CONTINUOUS
 62
     2
 10
463.0
 20
487.2
 30
0.0
 11
475.074072829
 21
483.964761936
 31
0.0
  0
LINE
  8
0
  6
CONTINUOUS
 62
     2
 10
463.0
 20
487.2
 30
0.0
 11
475.074072829
 21
490.435238064
 31
0.0
  0
LINE
  8
0
  6
CONTINUOUS
 62
     2
 10
317.0
 20
436.3625
 30
0.0
 11
317.0
 21
392.0
 31
0.0
  0
LINE
  8
0
  6
CONTINUOUS
 62
     2
 10
317.0
 20
399.5
 30
0.0
 11
329.074072829
 21
396.264761936
 31
0.0
  0
LINE
  8
0
  6
CONTINUOUS
 62
     2
 10
317.0
 20
399.5
 30
0.0
 11
329.074072829
 21
402.735238064
 31
0.0
  0
LINE
  8
0
  6
CONTINUOUS
 62
     2
 10
317.0
 20
399.5
 30
0.0
 11
1094.0
 21
399.5
 31
0.0
  0
LINE
  8
0
  6
CONTINUOUS
 62
     2
 10
317.0
 20
608.375
 30
0.0
 11
317.0
 21
436.3625
 31
0.0
  0
LINE
  8
0
  6
CONTINUOUS
 62
     2
 10
403.0
 20
612.375
 30
0.0
 11
403.0
 21
436.3625
 31
0.0
  0
LINE
  8
0
  6
CONTINUOUS
 62
     2
 10
463.0
 20
665.875
 30
0.0
 11
463.0
 21
436.3625
 31
0.0
  0
LINE
  8
0
  6
LTYPE3
 62
     2
 10
1112.283472275
 20
694.0
 30
0.0
 11
704.525
 21
694.0
 31
0.0
  0
CIRCLE
  8
0
  6
CONTINUOUS
 62
     1
 10
746.0
 20
694.0
 30
0.0
 40
19.5
  0
LINE
  8
0
  6
CONTINUOUS
 62
     1
 10
726.0
 20
714.0
 30
0.0
 11
766.0
 21
714.0
 31
0.0
  0
LINE
  8
0
  6
CONTINUOUS
 62
     1
 10
766.0
 20
674.0
 30
0.0
 11
766.0
 21
714.0
 31
0.0
  0
LINE
  8
0
  6
CONTINUOUS
 62
     1
 10
726.0
 20
674.0
 30
0.0
 11
726.0
 21
714.0
 31
0.0
  0
LINE
  8
0
  6
LTYPE3
 62
     2
 10
746.0
 20
668.9
 30
0.0
 11
746.0
 21
718.8
 31
0.0
  0
LINE
  8
0
  6
CONTINUOUS
 62
     1
 10
726.0
 20
674.0
 30
0.0
 11
766.0
 21
674.0
 31
0.0
  0
LINE
  8
0
  6
CONTINUOUS
 62
     2
 10
463.0
 20
487.2
 30
0.0
 11
999.0
 21
487.2
 31
0.0
  0
TEXT
  8
0
  6
CONTINUOUS
 62
     2
 10
345.75
 20
448.8625
 30
0.0
 40
18.0
  1
８６
 50
0.0
 41
0.9
 51
0.0
  7
KANJI37
  0
TEXT
  8
0
  6
CONTINUOUS
 62
     2
 10
418.75
 20
448.8625
 30
0.0
 40
18.0
  1
６０
 50
0.0
 41
0.9
 51
0.0
  7
KANJI37
  0
TEXT
  8
0
  6
CONTINUOUS
 62
     2
 10
741.75
 20
448.8625
 30
0.0
 40
18.0
  1
ｍｉｎ．Ｌ
 50
0.0
 41
0.9
 51
0.0
  7
KANJI37
  0
TEXT
  8
0
  6
CONTINUOUS
 62
     2
 10
661.25
 20
404.5
 30
0.0
 40
18.0
  1
ｍｉｎ．ＡＬ
 50
0.0
 41
0.9
 51
0.0
  7
KANJI37
  0
TEXT
  8
0
  6
CONTINUOUS
 62
     2
 10
691.25
 20
492.2
 30
0.0
 40
18.0
  1
Ｃ
 50
0.0
 41
0.9
 51
0.0
  7
KANJI37
  0
LINE
  8
0
  6
CONTINUOUS
 62
     1
 10
803.182501379
 20
592.0
 30
0.0
 11
933.182501379
 21
592.0
 31
0.0
  0
LINE
  8
0
  6
CONTINUOUS
 62
     1
 10
915.482501379
 20
585.0
 30
0.0
 11
940.882501379
 21
585.0
 31
0.0
  0
LINE
  8
0
  6
CONTINUOUS
 62
     1
 10
803.182501379
 20
586.0
 30
0.0
 11
803.182501379
 21
592.0
 31
0.0
  0
LINE
  8
0
  6
CONTINUOUS
 62
     1
 10
803.182501379
 20
586.0
 30
0.0
 11
933.182501379
 21
586.0
 31
0.0
  0
LINE
  8
0
  6
CONTINUOUS
 62
     1
 10
915.482501379
 20
559.6
 30
0.0
 11
940.882501379
 21
559.6
 31
0.0
  0
LINE
  8
0
  6
CONTINUOUS
 62
     1
 10
846.782501379
 20
586.0
 30
0.0
 11
846.782501379
 21
546.0
 31
0.0
  0
LINE
  8
0
  6
CONTINUOUS
 62
     1
 10
915.482501379
 20
586.0
 30
0.0
 11
915.482501379
 21
546.0
 31
0.0
  0
LINE
  8
0
  6
LTYPE1
 62
     2
 10
851.882501379
 20
555.23
 30
0.0
 11
846.882501379
 21
555.23
 31
0.0
  0
LINE
  8
0
  6
LTYPE1
 62
     2
 10
851.882501379
 20
556.385
 30
0.0
 11
846.882501379
 21
556.385
 31
0.0
  0
LINE
  8
0
  6
LTYPE1
 62
     2
 10
851.882501379
 20
576.17
 30
0.0
 11
846.882501379
 21
576.17
 31
0.0
  0
LINE
  8
0
  6
LTYPE1
 62
     2
 10
851.882501379
 20
575.015
 30
0.0
 11
846.882501379
 21
575.015
 31
0.0
  0
LINE
  8
0
  6
LTYPE1
 62
     2
 10
851.882501379
 20
576.17
 30
0.0
 11
846.882501379
 21
576.17
 31
0.0
  0
LINE
  8
0
  6
LTYPE3
 62
     2
 10
868.182501379
 20
530.0
 30
0.0
 11
868.182501379
 21
595.3
 31
0.0
  0
LINE
  8
0
  6
LTYPE3
 62
     2
 10
925.182501379
 20
571.1875
 30
0.0
 11
925.182501379
 21
531.2
 31
0.0
  0
LINE
  8
0
  6
CONTINUOUS
 62
     1
 10
795.482501379
 20
585.0
 30
0.0
 11
795.482501379
 21
559.6
 31
0.0
  0
LINE
  8
0
  6
CONTINUOUS
 62
     1
 10
820.882501379
 20
585.0
 30
0.0
 11
795.482501379
 21
585.0
 31
0.0
  0
LINE
  8
0
  6
CONTINUOUS
 62
     1
 10
820.882501379
 20
559.6
 30
0.0
 11
795.482501379
 21
559.6
 31
0.0
  0
LINE
  8
0
  6
CONTINUOUS
 62
     1
 10
820.882501379
 20
586.0
 30
0.0
 11
820.882501379
 21
546.0
 31
0.0
  0
LINE
  8
0
  6
CONTINUOUS
 62
     1
 10
852.182501379
 20
531.0
 30
0.0
 11
852.182501379
 21
546.0
 31
0.0
  0
LINE
  8
0
  6
CONTINUOUS
 62
     1
 10
852.182501379
 20
531.0
 30
0.0
 11
884.182501379
 21
531.0
 31
0.0
  0
LINE
  8
0
  6
CONTINUOUS
 62
     1
 10
884.182501379
 20
531.0
 30
0.0
 11
884.182501379
 21
546.0
 31
0.0
  0
LINE
  8
0
  6
LTYPE4
 62
     2
 10
851.882501379
 20
564.7
 30
0.0
 11
842.782501379
 21
564.7
 31
0.0
  0
LINE
  8
0
  6
CONTINUOUS
 62
     1
 10
820.882501379
 20
552.0
 30
0.0
 11
915.482501379
 21
552.0
 31
0.0
  0
LINE
  8
0
  6
CONTINUOUS
 62
     1
 10
820.882501379
 20
546.0
 30
0.0
 11
915.482501379
 21
546.0
 31
0.0
  0
LINE
  8
0
  6
CONTINUOUS
 62
     2
 10
860.0
 20
533.875
 30
0.0
 11
850.458760731
 21
525.799434806
 31
0.0
  0
LINE
  8
0
  6
CONTINUOUS
 62
     2
 10
860.0
 20
533.875
 30
0.0
 11
855.774827007
 21
522.110735757
 31
0.0
  0
LINE
  8
0
  6
CONTINUOUS
 62
     2
 10
860.0
 20
533.875
 30
0.0
 11
843.0
 21
509.375
 31
0.0
  0
LINE
  8
0
  6
CONTINUOUS
 62
     2
 10
843.0
 20
509.375
 30
0.0
 11
754.5
 21
509.375
 31
0.0
  0
TEXT
  8
0
  6
CONTINUOUS
 62
     2
 10
754.5
 20
514.375
 30
1.5
 40
15.0
  1
ＬＳユニット
 50
0.0
 41
0.9
 51
0.0
  7
KANJI38
  0
LINE
  8
0
  6
CONTINUOUS
 62
     1
 10
830.182501379
 20
729.0
 30
0.0
 11
594.0
 21
729.0
 31
0.0
  0
LINE
  8
2
  6
CONTINUOUS
 62
     2
 10
687.0
 20
659.0
 30
0.0
 11
697.5
 21
659.0
 31
0.0
  0
LINE
  8
2
  6
CONTINUOUS
 62
     2
 10
690.0
 20
729.0
 30
0.0
 11
697.5
 21
729.0
 31
0.0
  0
LINE
  8
0
  6
CONTINUOUS
 62
     1
 10
395.5
 20
769.0
 30
0.0
 11
352.5
 21
769.0
 31
0.0
  0
TEXT
  8
0
  6
CONTINUOUS
 62
     2
 10
357.5
 20
758.0
 30
5.0
 40
20.0
  1
銘板
 50
270.0
 41
0.925
 51
0.0
  7
KANJI39
  0
LINE
  8
0
  6
CONTINUOUS
 62
     1
 10
352.5
 20
769.0
 30
0.0
 11
352.5
 21
699.0
 31
0.0
  0
LINE
  8
0
  6
CONTINUOUS
 62
     1
 10
395.5
 20
699.0
 30
0.0
 11
352.5
 21
699.0
 31
0.0
  0
LINE
  8
0
  6
CONTINUOUS
 62
     1
 10
395.5
 20
769.0
 30
0.0
 11
395.5
 21
699.0
 31
0.0
  0
TEXT
  8
0
  6
CONTINUOUS
 62
     2
 10
312.632591263
 20
352.371507451
 30
0.0
 40
20.0
  1
推力リミッタの作動値は、約１２００ｋｇ（設計値）
 50
0.0
 41
0.925
 51
0.0
  7
KANJI40
  0
LINE
  8
0
  6
CONTINUOUS
 62
     2
 10
310.632591263
 20
344.371507451
 30
0.0
 11
749.92
 21
344.371507451
 31
0.0
  0
LINE
  8
0
  6
LTYPE2
 62
     2
 10
440.532501379
 20
572.0
 30
0.0
 11
827.792501379
 21
572.0
 31
0.0
  0
LINE
  8
0
  6
LTYPE1
 62
     2
 10
695.032501379
 20
586.0
 30
0.0
 11
460.032501379
 21
586.0
 31
0.0
  0
LINE
  8
0
  6
LTYPE1
 62
     2
 10
695.032501379
 20
592.0
 30
0.0
 11
460.032501379
 21
592.0
 31
0.0
  0
LINE
  8
0
  6
LTYPE1
 62
     2
 10
460.032501379
 20
559.0
 30
0.0
 11
476.032501379
 21
559.0
 31
0.0
  0
LINE
  8
0
  6
LTYPE1
 62
     2
 10
457.532501379
 20
581.8
 30
0.0
 11
451.918142025
 21
581.8
 31
0.0
  0
LINE
  8
0
  6
LTYPE1
 62
     2
 10
457.532501379
 20
576.9
 30
0.0
 11
451.918142025
 21
576.9
 31
0.0
  0
LINE
  8
0
  6
LTYPE1
 62
     2
 10
457.532501379
 20
572.0
 30
0.0
 11
457.532501379
 21
581.8
 31
0.0
  0
LINE
  8
0
  6
LTYPE1
 62
     2
 10
460.032501379
 20
581.2
 30
0.0
 11
457.532501379
 21
581.2
 31
0.0
  0
LINE
  8
0
  6
LTYPE1
 62
     2
 10
457.532501384
 20
572.0
 30
0.0
 11
460.032501379
 21
574.499999996
 31
0.0
  0
LINE
  8
0
  6
LTYPE1
 62
     2
 10
457.532501379
 20
562.2
 30
0.0
 11
451.918142025
 21
562.2
 31
0.0
  0
LINE
  8
0
  6
LTYPE1
 62
     2
 10
457.532501379
 20
567.1
 30
0.0
 11
451.918142025
 21
567.1
 31
0.0
  0
LINE
  8
0
  6
LTYPE1
 62
     2
 10
457.532501379
 20
572.0
 30
0.0
 11
457.532501379
 21
562.2
 31
0.0
  0
LINE
  8
0
  6
LTYPE1
 62
     2
 10
460.032501379
 20
572.0
 30
0.0
 11
457.532501384
 21
569.500000004
 31
0.0
  0
LINE
  8
0
  6
LTYPE1
 62
     2
 10
460.032501379
 20
562.8
 30
0.0
 11
457.532501379
 21
562.8
 31
0.0
  0
LINE
  8
0
  6
LTYPE1
 62
     2
 10
450.532501379
 20
572.0
 30
0.0
 11
450.532501379
 21
579.4
 31
0.0
  0
LINE
  8
0
  6
LTYPE1
 62
     2
 10
450.532501379
 20
579.4
 30
0.0
 11
451.918142025
 21
581.8
 31
0.0
  0
LINE
  8
0
  6
LTYPE1
 62
     2
 10
450.532501379
 20
579.4
 30
0.0
 11
451.918142025
 21
581.8
 31
0.0
  0
ARC
  8
0
  6
LTYPE1
 62
     2
 10
453.390385212
 20
579.35
 30
0.0
 40
2.858321186
 50
177.010501597
 51
238.997686085
  0
LINE
  8
0
  6
LTYPE1
 62
     2
 10
446.032501379
 20
576.0
 30
0.0
 11
450.532501379
 21
576.0
 31
0.0
  0
LINE
  8
0
  6
LTYPE1
 62
     2
 10
446.032501379
 20
575.0
 30
0.0
 11
450.532501379
 21
575.0
 31
0.0
  0
LINE
  8
0
  6
LTYPE1
 62
     2
 10
450.532501379
 20
564.6
 30
0.0
 11
451.918142025
 21
562.2
 31
0.0
  0
LINE
  8
0
  6
LTYPE1
 62
     2
 10
450.532501379
 20
572.0
 30
0.0
 11
450.532501379
 21
564.6
 31
0.0
  0
ARC
  8
0
  6
LTYPE1
 62
     2
 10
453.390385212
 20
564.65
 30
0.0
 40
2.858321186
 50
121.002313915
 51
182.989498403
  0
LINE
  8
0
  6
LTYPE1
 62
     2
 10
446.032501379
 20
568.0
 30
0.0
 11
450.532501379
 21
568.0
 31
0.0
  0
LINE
  8
0
  6
LTYPE1
 62
     2
 10
446.032501379
 20
569.0
 30
0.0
 11
450.532501379
 21
569.0
 31
0.0
  0
ARC
  8
0
  6
LTYPE1
 62
     2
 10
459.889184179
 20
572.0
 30
0.0
 40
9.3566828
 50
148.419912243
 51
211.580087757
  0
LINE
  8
0
  6
LTYPE1
 62
     2
 10
446.032501379
 20
568.0
 30
0.0
 11
446.032501379
 21
576.0
 31
0.0
  0
LINE
  8
0
  6
LTYPE1
 62
     2
 10
460.032501379
 20
559.0
 30
0.0
 11
460.032501379
 21
592.0
 31
0.0
  0
LINE
  8
0
  6
LTYPE1
 62
     2
 10
462.373721379
 20
597.4999
 30
0.0
 11
460.538441379
 21
596.440300598
 31
0.0
  0
LINE
  8
0
  6
LTYPE1
 62
     2
 10
460.538441379
 20
592.0
 30
0.0
 11
460.538441379
 21
596.440300598
 31
0.0
  0
LINE
  8
0
  6
LTYPE3
 62
     2
 10
468.682501379
 20
544.0
 30
0.0
 11
1060.032501379
 21
544.0
 31
0.0
  0
LINE
  8
0
  6
LTYPE3
 62
     2
 10
479.032501379
 20
572.0
 30
0.0
 11
490.532501379
 21
572.0
 31
0.0
  0
LINE
  8
0
  6
LTYPE1
 62
     2
 10
476.032501379
 20
582.4
 30
0.0
 11
482.532501379
 21
582.4
 31
0.0
  0
ARC
  8
0
  6
LTYPE1
 62
     2
 10
479.632501379
 20
579.8
 30
0.0
 40
3.9
 50
317.9
 51
42.1
  0
LINE
  8
0
  6
LTYPE1
 62
     2
 10
482.532501379
 20
577.2
 30
0.0
 11
476.032501379
 21
577.2
 31
0.0
  0
LINE
  8
0
  6
LTYPE1
 62
     2
 10
483.532501379
 20
576.0
 30
0.0
 11
491.032501379
 21
576.0
 31
0.0
  0
LINE
  8
0
  6
LTYPE1
 62
     2
 10
483.532501379
 20
575.0
 30
0.0
 11
491.032501379
 21
575.0
 31
0.0
  0
LINE
  8
0
  6
LTYPE1
 62
     2
 10
471.779531379
 20
592.0
 30
0.0
 11
471.779531379
 21
596.440300598
 31
0.0
  0
LINE
  8
0
  6
LTYPE1
 62
     2
 10
475.526561379
 20
592.0
 30
0.0
 11
475.526561379
 21
596.440300598
 31
0.0
  0
LINE
  8
0
  6
LTYPE1
 62
     2
 10
476.032501379
 20
561.6
 30
0.0
 11
482.532501379
 21
561.6
 31
0.0
  0
ARC
  8
0
  6
LTYPE1
 62
     2
 10
479.632501379
 20
564.2
 30
0.0
 40
3.9
 50
317.9
 51
42.1
  0
LINE
  8
0
  6
LTYPE1
 62
     2
 10
476.032501379
 20
566.8
 30
0.0
 11
482.532501379
 21
566.8
 31
0.0
  0
LINE
  8
0
  6
LTYPE1
 62
     2
 10
483.532501379
 20
569.0
 30
0.0
 11
491.032501379
 21
569.0
 31
0.0
  0
LINE
  8
0
  6
LTYPE1
 62
     2
 10
483.532501379
 20
568.0
 30
0.0
 11
491.032501379
 21
568.0
 31
0.0
  0
LINE
  8
0
  6
LTYPE1
 62
     2
 10
476.032501379
 20
559.0
 30
0.0
 11
476.032501379
 21
586.0
 31
0.0
  0
LINE
  8
0
  6
LTYPE1
 62
     2
 10
476.032501379
 20
582.4
 30
0.0
 11
476.032501379
 21
561.6
 31
0.0
  0
ARC
  8
0
  6
LTYPE1
 62
     2
 10
469.532501379
 20
572.0
 30
0.0
 40
14.0
 50
338.2
 51
21.8
  0
LINE
  8
0
  6
LTYPE1
 62
     2
 10
483.532501379
 20
564.2
 30
0.0
 11
483.532501379
 21
579.8
 31
0.0
  0
LINE
  8
0
  6
LTYPE1
 62
     2
 10
523.032501379
 20
584.0
 30
0.0
 11
491.032501379
 21
584.0
 31
0.0
  0
LINE
  8
0
  6
LTYPE1
 62
     2
 10
523.032501379
 20
578.0
 30
0.0
 11
491.032501379
 21
578.0
 31
0.0
  0
LINE
  8
0
  6
LTYPE1
 62
     2
 10
491.032501379
 20
566.0
 30
0.0
 11
523.032501379
 21
566.0
 31
0.0
  0
LINE
  8
0
  6
LTYPE1
 62
     2
 10
491.032501379
 20
576.0
 30
0.0
 11
496.032501379
 21
576.0
 31
0.0
  0
LINE
  8
0
  6
LTYPE1
 62
     2
 10
491.032501379
 20
575.0
 30
0.0
 11
496.032501379
 21
575.0
 31
0.0
  0
LINE
  8
0
  6
LTYPE1
 62
     2
 10
491.032501379
 20
568.0
 30
0.0
 11
496.032501379
 21
568.0
 31
0.0
  0
LINE
  8
0
  6
LTYPE1
 62
     2
 10
491.032501379
 20
569.0
 30
0.0
 11
496.032501379
 21
569.0
 31
0.0
  0
LINE
  8
0
  6
LTYPE1
 62
     2
 10
491.032501379
 20
531.0
 30
0.0
 11
491.032501379
 21
584.0
 31
0.0
  0
ARC
  8
0
  6
LTYPE1
 62
     2
 10
468.032501379
 20
590.344844663
 30
0.0
 40
7.155055337
 50
58.419912243
 51
121.580087757
  0
LINE
  8
0
  6
LTYPE1
 62
     2
 10
473.691281379
 20
597.4999
 30
0.0
 11
475.526561379
 21
596.440300598
 31
0.0
  0
LINE
  8
0
  6
LTYPE1
 62
     2
 10
468.032501379
 20
597.4999
 30
0.0
 11
473.691281379
 21
597.4999
 31
0.0
  0
LINE
  8
0
  6
LTYPE1
 62
     2
 10
473.691281379
 20
597.4999
 30
0.0
 11
475.526561379
 21
596.440300598
 31
0.0
  0
ARC
  8
0
  6
LTYPE1
 62
     2
 10
473.653046379
 20
595.314476233
 30
0.0
 40
2.185758211
 50
87.010501597
 51
148.997686085
  0
LINE
  8
0
  6
LTYPE1
 62
     2
 10
468.032501379
 20
582.0
 30
0.0
 11
468.032501379
 21
598.0
 31
0.0
  0
LINE
  8
0
  6
LTYPE1
 62
     2
 10
468.032501379
 20
597.4999
 30
0.0
 11
462.373721379
 21
597.4999
 31
0.0
  0
LINE
  8
0
  6
LTYPE1
 62
     2
 10
488.532501379
 20
553.8
 30
0.0
 11
482.918142025
 21
553.8
 31
0.0
  0
LINE
  8
0
  6
LTYPE1
 62
     2
 10
481.532501379
 20
551.4
 30
0.0
 11
482.918142025
 21
553.8
 31
0.0
  0
LINE
  8
0
  6
LTYPE1
 62
     2
 10
481.532501379
 20
551.4
 30
0.0
 11
482.918142025
 21
553.8
 31
0.0
  0
LINE
  8
0
  6
LTYPE1
 62
     2
 10
481.532501379
 20
544.0
 30
0.0
 11
481.532501379
 21
551.4
 31
0.0
  0
LINE
  8
0
  6
LTYPE1
 62
     2
 10
488.532501379
 20
548.9
 30
0.0
 11
482.918142025
 21
548.9
 31
0.0
  0
ARC
  8
0
  6
LTYPE1
 62
     2
 10
484.390385212
 20
551.35
 30
0.0
 40
2.858321186
 50
177.010501597
 51
238.997686085
  0
LINE
  8
0
  6
LTYPE1
 62
     2
 10
473.032501379
 20
548.0
 30
0.0
 11
481.532501379
 21
548.0
 31
0.0
  0
ARC
  8
0
  6
LTYPE1
 62
     2
 10
490.889184179
 20
544.0
 30
0.0
 40
9.3566828
 50
148.419912243
 51
211.580087757
  0
LINE
  8
0
  6
LTYPE1
 62
     2
 10
473.032501379
 20
540.0
 30
0.0
 11
473.032501379
 21
548.0
 31
0.0
  0
LINE
  8
0
  6
LTYPE1
 62
     2
 10
473.032501379
 20
547.0
 30
0.0
 11
481.532501379
 21
547.0
 31
0.0
  0
LINE
  8
0
  6
LTYPE1
 62
     2
 10
491.032501379
 20
553.2
 30
0.0
 11
488.532501379
 21
553.2
 31
0.0
  0
LINE
  8
0
  6
LTYPE1
 62
     2
 10
488.532501379
 20
544.0
 30
0.0
 11
488.532501379
 21
553.8
 31
0.0
  0
LINE
  8
0
  6
LTYPE1
 62
     2
 10
488.532501379
 20
534.2
 30
0.0
 11
482.918142025
 21
534.2
 31
0.0
  0
LINE
  8
0
  6
LTYPE1
 62
     2
 10
481.532501379
 20
536.6
 30
0.0
 11
482.918142025
 21
534.2
 31
0.0
  0
LINE
  8
0
  6
LTYPE1
 62
     2
 10
481.532501379
 20
544.0
 30
0.0
 11
481.532501379
 21
536.6
 31
0.0
  0
LINE
  8
0
  6
LTYPE1
 62
     2
 10
488.532501379
 20
539.1
 30
0.0
 11
482.918142025
 21
539.1
 31
0.0
  0
ARC
  8
0
  6
LTYPE1
 62
     2
 10
484.390385212
 20
536.65
 30
0.0
 40
2.858321186
 50
121.002313915
 51
182.989498403
  0
LINE
  8
0
  6
LTYPE1
 62
     2
 10
473.032501379
 20
540.0
 30
0.0
 11
481.532501379
 21
540.0
 31
0.0
  0
LINE
  8
0
  6
LTYPE1
 62
     2
 10
473.032501379
 20
541.0
 30
0.0
 11
481.532501379
 21
541.0
 31
0.0
  0
LINE
  8
0
  6
LTYPE1
 62
     2
 10
491.032501379
 20
531.0
 30
0.0
 11
523.032501379
 21
531.0
 31
0.0
  0
LINE
  8
0
  6
LTYPE1
 62
     2
 10
488.532501379
 20
544.0
 30
0.0
 11
488.532501379
 21
534.2
 31
0.0
  0
LINE
  8
0
  6
LTYPE1
 62
     2
 10
491.032501379
 20
534.8
 30
0.0
 11
488.532501379
 21
534.8
 31
0.0
  0
LINE
  8
0
  6
LTYPE1
 62
     2
 10
491.032501379
 20
544.0
 30
0.0
 11
488.532501384
 21
541.500000004
 31
0.0
  0
LINE
  8
0
  6
LTYPE1
 62
     2
 10
488.532501384
 20
544.0
 30
0.0
 11
491.032501379
 21
546.499999996
 31
0.0
  0
ARC
  8
0
  6
LTYPE1
 62
     2
 10
462.411956379
 20
595.314476233
 30
0.0
 40
2.185758211
 50
31.002313915
 51
92.989498403
  0
LINE
  8
0
  6
LTYPE1
 62
     2
 10
464.285471379
 20
592.0
 30
0.0
 11
464.285471379
 21
596.440300598
 31
0.0
  0
LINE
  8
0
  6
LTYPE1
 62
     2
 10
496.032501379
 20
566.0
 30
0.0
 11
496.032501379
 21
578.0
 31
0.0
  0
LINE
  8
0
  6
LTYPE1
 62
     2
 10
523.032501379
 20
580.0
 30
0.0
 11
795.482501379
 21
580.0
 31
0.0
  0
LINE
  8
0
  6
LTYPE1
 62
     2
 10
523.032501379
 20
564.0
 30
0.0
 11
795.482501379
 21
564.0
 31
0.0
  0
LINE
  8
0
  6
CONTINUOUS
 62
     1
 10
632.0
 20
591.5
 30
0.0
 11
503.0
 21
591.5
 31
0.0
  0
LINE
  8
0
  6
CONTINUOUS
 62
     1
 10
632.0
 20
590.0
 30
0.0
 11
503.0
 21
590.0
 31
0.0
  0
LINE
  8
0
  6
CONTINUOUS
 62
     1
 10
503.0
 20
585.0
 30
0.0
 11
503.0
 21
631.5
 31
0.0
  0
LINE
  8
0
  6
CONTINUOUS
 62
     1
 10
631.0
 20
584.0
 30
0.0
 11
504.0
 21
584.0
 31
0.0
  0
ARC
  8
0
  6
CONTINUOUS
 62
     1
 10
504.0
 20
585.0
 30
0.0
 40
1.0
 50
180.0
 51
270.0
  0
ARC
  8
0
  6
CONTINUOUS
 62
     1
 10
507.0
 20
584.0
 30
0.0
 40
1.0
 50
180.0
 51
270.0
  0
LINE
  8
0
  6
CONTINUOUS
 62
     1
 10
628.0
 20
583.0
 30
0.0
 11
507.1
 21
583.0
 31
0.0
  0
LINE
  8
0
  6
LTYPE1
 62
     2
 10
523.032501379
 20
531.0
 30
0.0
 11
523.032501379
 21
584.0
 31
0.0
  0
LINE
  8
0
  6
CONTINUOUS
 62
     1
 10
517.8
 20
583.0
 30
0.0
 11
507.2
 21
583.0
 31
0.0
  0
ARC
  8
0
  6
CONTINUOUS
 62
     1
 10
512.9
 20
584.0
 30
0.0
 40
5.0
 50
272.3
 51
348.5
  0
ARC
  8
0
  6
CONTINUOUS
 62
     1
 10
512.1
 20
584.0
 30
0.0
 40
5.0
 50
191.5
 51
267.7
  0
LINE
  8
0
  6
CONTINUOUS
 62
     1
 10
513.1
 20
579.0
 30
0.0
 11
511.9
 21
579.0
 31
0.0
  0
LINE
  8
0
  6
LTYPE5
 62
     2
 10
512.5
 20
575.6
 30
0.0
 11
512.5
 21
589.0
 31
0.0
  0
LINE
  8
0
  6
CONTINUOUS
 62
     2
 10
512.292647059
 20
601.7
 30
0.0
 11
591.8
 21
601.7
 31
0.0
  0
TEXT
  8
0
  6
CONTINUOUS
 62
     2
 10
512.3
 20
603.7
 30
0.0
 40
15.0
  1
推力リミッタ
 50
0.0
 41
0.92
 51
0.0
  7
KANJI41
  0
LINE
  8
0
  6
CONTINUOUS
 62
     1
 10
565.032501379
 20
552.0
 30
0.0
 11
820.882501379
 21
552.0
 31
0.0
  0
LINE
  8
0
  6
CONTINUOUS
 62
     1
 10
509.532501379
 20
552.55
 30
0.0
 11
509.532501379
 21
536.55
 31
0.0
  0
LINE
  8
0
  6
CONTINUOUS
 62
     1
 10
509.532501379
 20
552.55
 30
0.0
 11
523.032501379
 21
552.55
 31
0.0
  0
LINE
  8
0
  6
CONTINUOUS
 62
     1
 10
523.032501379
 20
555.0
 30
0.0
 11
531.692755417
 21
560.0
 31
0.0
  0
LINE
  8
0
  6
CONTINUOUS
 62
     1
 10
523.032501379
 20
533.0
 30
0.0
 11
523.032501379
 21
555.0
 31
0.0
  0
LINE
  8
0
  6
CONTINUOUS
 62
     1
 10
556.382501379
 20
528.0
 30
0.0
 11
556.382501379
 21
560.0
 31
0.0
  0
LINE
  8
0
  6
LTYPE2
 62
     2
 10
544.032501379
 20
534.0
 30
0.0
 11
544.032501379
 21
554.0
 31
0.0
  0
LINE
  8
0
  6
CONTINUOUS
 62
     1
 10
531.682501379
 20
560.0
 30
0.0
 11
556.382501379
 21
560.0
 31
0.0
  0
LINE
  8
0
  6
CONTINUOUS
 62
     1
 10
565.032501379
 20
555.0
 30
0.0
 11
556.372247342
 21
560.0
 31
0.0
  0
CIRCLE
  8
0
  6
CONTINUOUS
 62
     2
 10
544.032501379
 20
544.0
 30
0.0
 40
5.0
  0
CIRCLE
  8
0
  6
CONTINUOUS
 62
     2
 10
544.032501379
 20
544.0
 30
0.0
 40
4.0
  0
LINE
  8
0
  6
CONTINUOUS
 62
     1
 10
565.032501379
 20
533.0
 30
0.0
 11
565.032501379
 21
555.0
 31
0.0
  0
LINE
  8
0
  6
CONTINUOUS
 62
     1
 10
531.682501379
 20
528.0
 30
0.0
 11
531.682501379
 21
560.0
 31
0.0
  0
LINE
  8
0
  6
CONTINUOUS
 62
     1
 10
565.032501379
 20
536.0
 30
0.0
 11
852.182501379
 21
536.0
 31
0.0
  0
LINE
  8
0
  6
CONTINUOUS
 62
     1
 10
509.532501379
 20
536.55
 30
0.0
 11
523.032501379
 21
536.55
 31
0.0
  0
LINE
  8
0
  6
CONTINUOUS
 62
     1
 10
523.032501379
 20
533.0
 30
0.0
 11
531.692755417
 21
528.0
 31
0.0
  0
LINE
  8
0
  6
CONTINUOUS
 62
     1
 10
531.682501379
 20
528.0
 30
0.0
 11
556.382501379
 21
528.0
 31
0.0
  0
LINE
  8
0
  6
CONTINUOUS
 62
     1
 10
565.032501379
 20
533.0
 30
0.0
 11
556.372247342
 21
528.0
 31
0.0
  0
LINE
  8
0
  6
CONTINUOUS
 62
     2
 10
632.0
 20
608.5
 30
0.0
 11
716.0
 21
626.0
 31
0.0
  0
LINE
  8
0
  6
LTYPE1
 62
     2
 10
632.0
 20
617.8
 30
0.0
 11
622.0
 21
617.8
 31
0.0
  0
LINE
  8
0
  6
LTYPE1
 62
     2
 10
632.0
 20
619.0
 30
0.0
 11
622.0
 21
619.0
 31
0.0
  0
LINE
  8
0
  6
LTYPE1
 62
     2
 10
632.0
 20
599.2
 30
0.0
 11
622.0
 21
599.2
 31
0.0
  0
LINE
  8
0
  6
LTYPE1
 62
     2
 10
632.0
 20
598.0
 30
0.0
 11
622.0
 21
598.0
 31
0.0
  0
LINE
  8
0
  6
LTYPE2
 62
     2
 10
638.2
 20
608.5
 30
0.0
 11
618.5
 21
608.5
 31
0.0
  0
LINE
  8
0
  6
CONTINUOUS
 62
     1
 10
632.0
 20
585.0
 30
0.0
 11
632.0
 21
630.5
 31
0.0
  0
ARC
  8
0
  6
CONTINUOUS
 62
     1
 10
631.0
 20
585.0
 30
0.0
 40
1.0
 50
270.0
 51
0.0
  0
LINE
  8
0
  6
CONTINUOUS
 62
     1
 10
629.0
 20
584.0
 30
0.0
 11
629.0
 21
584.0
 31
0.0
  0
ARC
  8
0
  6
CONTINUOUS
 62
     1
 10
628.0
 20
584.0
 30
0.0
 40
1.0
 50
270.0
 51
0.0
  0
LINE
  8
0
  6
CONTINUOUS
 62
     1
 10
628.3
 20
583.0
 30
0.0
 11
617.7
 21
583.0
 31
0.0
  0
ARC
  8
0
  6
CONTINUOUS
 62
     1
 10
623.4
 20
584.0
 30
0.0
 40
5.0
 50
272.3
 51
348.5
  0
ARC
  8
0
  6
CONTINUOUS
 62
     1
 10
622.6
 20
584.0
 30
0.0
 40
5.0
 50
191.5
 51
267.7
  0
LINE
  8
0
  6
CONTINUOUS
 62
     1
 10
623.6
 20
579.0
 30
0.0
 11
622.4
 21
579.0
 31
0.0
  0
LINE
  8
0
  6
LTYPE5
 62
     2
 10
623.0
 20
575.6
 30
0.0
 11
623.0
 21
589.0
 31
0.0
  0
LINE
  8
0
  6
CONTINUOUS
 62
     2
 10
632.0
 20
608.5
 30
0.0
 11
642.714022707
 21
613.904601506
 31
0.0
  0
LINE
  8
0
  6
CONTINUOUS
 62
     2
 10
632.0
 20
608.5
 30
0.0
 11
643.980916594
 21
607.823510848
 31
0.0
  0
LINE
  8
0
  6
CONTINUOUS
 62
     2
 10
716.0
 20
626.0
 30
0.0
 11
797.0
 21
626.0
 31
0.0
  0
TEXT
  8
0
  6
CONTINUOUS
 62
     3
 10
716.0
 20
629.0
 30
0.0
 40
18.0
  1
ＰＦ１／２
 50
0.0
 41
0.9
 51
0.0
  7
KANJI37
  0
LINE
  8
0
  6
LTYPE3
 62
     2
 10
688.032501379
 20
631.25
 30
0.0
 11
688.032501379
 21
736.9
 31
0.0
  0
LINE
  8
0
  6
LTYPE1
 62
     2
 10
695.032501379
 20
586.0
 30
0.0
 11
695.032501379
 21
677.0
 31
0.0
  0
LINE
  8
0
  6
LTYPE1
 62
     2
 10
681.032501379
 20
592.5
 30
0.0
 11
681.032501379
 21
677.0
 31
0.0
  0
LINE
  8
0
  6
LTYPE1
 62
     2
 10
694.532501379
 20
586.0
 30
0.0
 11
694.532501379
 21
581.4
 31
0.0
  0
LINE
  8
0
  6
LTYPE1
 62
     2
 10
679.532501379
 20
586.0
 30
0.0
 11
679.532501379
 21
581.4
 31
0.0
  0
LINE
  8
0
  6
LTYPE1
 62
     2
 10
683.232501379
 20
586.0
 30
0.0
 11
683.232501379
 21
581.4
 31
0.0
  0
LINE
  8
0
  6
LTYPE1
 62
     2
 10
690.832501379
 20
586.0
 30
0.0
 11
690.832501379
 21
581.4
 31
0.0
  0
ARC
  8
0
  6
LTYPE1
 62
     2
 10
681.332501379
 20
583.5
 30
0.0
 40
2.8
 50
228.5
 51
311.5
  0
ARC
  8
0
  6
LTYPE1
 62
     2
 10
687.032501379
 20
591.4
 30
0.0
 40
10.7
 50
249.1
 51
290.9
  0
ARC
  8
0
  6
LTYPE1
 62
     2
 10
692.732501379
 20
583.5
 30
0.0
 40
2.8
 50
228.5
 51
311.5
  0
LINE
  8
0
  6
LTYPE1
 62
     2
 10
687.032501379
 20
577.2
 30
0.0
 11
687.032501379
 21
589.0
 31
0.0
  0
LINE
  8
0
  6
LTYPE2
 62
     2
 10
687.032501379
 20
573.35
 30
0.0
 11
687.032501379
 21
597.65
 31
0.0
  0
LINE
  8
0
  6
LTYPE1
 62
     2
 10
692.732501379
 20
580.7
 30
0.0
 11
681.332501379
 21
580.7
 31
0.0
  0
LINE
  8
0
  6
LTYPE1
 62
     2
 10
695.032501379
 20
657.0
 30
0.0
 11
681.032501379
 21
657.0
 31
0.0
  0
LINE
  8
0
  6
LTYPE1
 62
     2
 10
692.032501379
 20
677.0
 30
0.0
 11
692.032501379
 21
733.50001079
 31
0.0
  0
LINE
  8
0
  6
LTYPE1
 62
     2
 10
684.032501379
 20
677.0
 30
0.0
 11
684.032501379
 21
733.50001079
 31
0.0
  0
LINE
  8
0
  6
LTYPE1
 62
     2
 10
695.032501379
 20
677.0
 30
0.0
 11
681.032501379
 21
677.0
 31
0.0
  0
ARC
  8
0
  6
LTYPE1
 62
     2
 10
688.032501379
 20
733.5
 30
0.0
 40
4.0
 50
0.00015455
 51
179.99984545
  0
LINE
  8
0
  6
LTYPE2
 62
     2
 10
838.182501379
 20
631.25
 30
0.0
 11
838.182501379
 21
736.9
 31
0.0
  0
LINE
  8
0
  6
CONTINUOUS
 62
     1
 10
842.182501379
 20
677.0
 30
0.0
 11
842.182501379
 21
733.50001079
 31
0.0
  0
LINE
  8
0
  6
CONTINUOUS
 62
     1
 10
834.182501379
 20
677.0
 30
0.0
 11
834.182501379
 21
733.50001079
 31
0.0
  0
ARC
  8
0
  6
CONTINUOUS
 62
     1
 10
838.182501379
 20
733.5
 30
0.0
 40
4.0
 50
0.00015455
 51
179.99984545
  0
LINE
  8
0
  6
CONTINUOUS
 62
     1
 10
894.182501379
 20
677.0
 30
0.0
 11
894.182501379
 21
733.50001079
 31
0.0
  0
LINE
  8
0
  6
LTYPE2
 62
     2
 10
898.182501379
 20
631.25
 30
0.0
 11
898.182501379
 21
736.9
 31
0.0
  0
LINE
  8
0
  6
CONTINUOUS
 62
     1
 10
902.182501379
 20
677.0
 30
0.0
 11
902.182501379
 21
733.50001079
 31
0.0
  0
ARC
  8
0
  6
CONTINUOUS
 62
     1
 10
898.182501379
 20
733.5
 30
0.0
 40
4.0
 50
0.00015455
 51
179.99984545
  0
LINE
  8
0
  6
CONTINUOUS
 62
     1
 10
831.182501379
 20
592.5
 30
0.0
 11
831.182501379
 21
677.0
 31
0.0
  0
LINE
  8
0
  6
CONTINUOUS
 62
     1
 10
845.182501379
 20
677.0
 30
0.0
 11
831.182501379
 21
677.0
 31
0.0
  0
LINE
  8
0
  6
CONTINUOUS
 62
     1
 10
845.182501379
 20
592.0
 30
0.0
 11
845.182501379
 21
677.0
 31
0.0
  0
LINE
  8
0
  6
CONTINUOUS
 62
     1
 10
891.182501379
 20
592.5
 30
0.0
 11
891.182501379
 21
677.0
 31
0.0
  0
LINE
  8
0
  6
CONTINUOUS
 62
     1
 10
905.182501379
 20
677.0
 30
0.0
 11
891.182501379
 21
677.0
 31
0.0
  0
LINE
  8
0
  6
CONTINUOUS
 62
     1
 10
905.182501379
 20
592.0
 30
0.0
 11
905.182501379
 21
677.0
 31
0.0
  0
LINE
  8
0
  6
CONTINUOUS
 62
     1
 10
845.182501379
 20
657.0
 30
0.0
 11
831.182501379
 21
657.0
 31
0.0
  0
LINE
  8
0
  6
CONTINUOUS
 62
     1
 10
905.182501379
 20
657.0
 30
0.0
 11
891.182501379
 21
657.0
 31
0.0
  0
LINE
  8
0
  6
CONTINUOUS
 62
     1
 10
884.182501379
 20
538.0
 30
0.0
 11
960.182501379
 21
538.0
 31
0.0
  0
LINE
  8
0
  6
CONTINUOUS
 62
     1
 10
915.482501379
 20
550.0
 30
0.0
 11
960.182501379
 21
550.0
 31
0.0
  0
LINE
  8
0
  6
CONTINUOUS
 62
     2
 10
765.1
 20
704.8
 30
0.0
 11
772.588041206
 21
714.808957933
 31
0.0
  0
LINE
  8
0
  6
CONTINUOUS
 62
     2
 10
765.1
 20
704.8
 30
0.0
 11
766.580354942
 21
717.212032438
 31
0.0
  0
LINE
  8
0
  6
CONTINUOUS
 62
     2
 10
765.1
 20
704.8
 30
0.0
 11
815.1
 21
829.8
 31
0.0
  0
TEXT
  8
0
  6
CONTINUOUS
 62
     2
 10
815.1
 20
834.8
 30
0.0
 40
18.0
  1
給脂口
 50
0.0
 41
0.9
 51
0.0
  7
KANJI37
  0
LINE
  8
0
  6
CONTINUOUS
 62
     2
 10
815.1
 20
829.8
 30
0.0
 11
871.0
 21
829.8
 31
0.0
  0
LINE
  8
0
  6
CONTINUOUS
 62
     1
 10
902.182501379
 20
729.0
 30
0.0
 11
999.0
 21
729.0
 31
0.0
  0
LINE
  8
0
  6
CONTINUOUS
 62
     1
 10
894.182501379
 20
729.0
 30
0.0
 11
842.182501379
 21
729.0
 31
0.0
  0
LINE
  8
0
  6
CONTINUOUS
 62
     1
 10
831.182501379
 20
659.0
 30
0.0
 11
594.0
 21
659.0
 31
0.0
  0
LINE
  8
0
  6
CONTINUOUS
 62
     1
 10
999.0
 20
659.0
 30
0.0
 11
905.182501379
 21
659.0
 31
0.0
  0
LINE
  8
0
  6
CONTINUOUS
 62
     1
 10
891.182501379
 20
659.0
 30
0.0
 11
845.182501379
 21
659.0
 31
0.0
  0
TEXT
  8
2
  6
CONTINUOUS
 62
     3
 10
638.5
 20
669.3
 30
0.0
 40
18.0
  1
φ７０
 50
90.0
 41
0.9
 51
0.0
  7
KANJI37
  0
LINE
  8
2
  6
CONTINUOUS
 62
     2
 10
641.5
 20
659.0
 30
0.0
 11
641.5
 21
729.0
 31
0.0
  0
LINE
  8
2
  6
CONTINUOUS
 62
     2
 10
641.5
 20
729.0
 30
0.0
 11
638.394171459
 21
717.408890085
 31
0.0
  0
LINE
  8
2
  6
CONTINUOUS
 62
     2
 10
641.5
 20
729.0
 30
0.0
 11
644.605828541
 21
717.408890085
 31
0.0
  0
LINE
  8
2
  6
CONTINUOUS
 62
     2
 10
641.5
 20
659.0
 30
0.0
 11
644.605828541
 21
670.591109915
 31
0.0
  0
LINE
  8
2
  6
CONTINUOUS
 62
     2
 10
641.5
 20
659.0
 30
0.0
 11
638.394171459
 21
670.591109915
 31
0.0
  0
LINE
  8
0
  6
LTYPE3
 62
     2
 10
618.0
 20
694.0
 30
0.0
 11
291.9
 21
694.0
 31
0.0
  0
LINE
  8
0
  6
LTYPE3
 62
     2
 10
1112.283472275
 20
694.0
 30
0.0
 11
645.0
 21
694.0
 31
0.0
  0
ARC
  8
0
  6
CONTINUOUS
 62
     1
 10
813.182501379
 20
311.6
 30
0.0
 40
10.0
 50
90.0
 51
180.0
  0
LINE
  8
0
  6
CONTINUOUS
 62
     1
 10
813.182501379
 20
321.6
 30
0.0
 11
923.182501379
 21
321.6
 31
0.0
  0
LINE
  8
0
  6
LTYPE3
 62
     2
 10
851.782501379
 20
316.1
 30
0.0
 11
851.782501379
 21
307.12
 31
0.0
  0
LINE
  8
0
  6
CONTINUOUS
 62
     1
 10
913.482501379
 20
317.1
 30
0.0
 11
848.782501379
 21
317.1
 31
0.0
  0
LINE
  8
0
  6
CONTINUOUS
 62
     1
 10
846.782501379
 20
315.1
 30
0.0
 11
846.782501379
 21
279.1
 31
0.0
  0
ARC
  8
0
  6
CONTINUOUS
 62
     1
 10
848.782501379
 20
315.1
 30
0.0
 40
2.0
 50
90.0
 51
180.0
  0
LINE
  8
0
  6
CONTINUOUS
 62
     2
 10
807.182501379
 20
321.6
 30
0.0
 11
746.0
 21
321.6
 31
0.0
  0
LINE
  8
0
  6
CONTINUOUS
 62
     2
 10
752.0
 20
321.6
 30
0.0
 11
748.894171459
 21
310.008890085
 31
0.0
  0
LINE
  8
0
  6
CONTINUOUS
 62
     2
 10
752.0
 20
321.6
 30
0.0
 11
755.105828541
 21
310.008890085
 31
0.0
  0
LINE
  8
0
  6
CONTINUOUS
 62
     2
 10
752.0
 20
321.6
 30
0.0
 11
752.0
 21
156.6
 31
0.0
  0
ARC
  8
0
  6
CONTINUOUS
 62
     1
 10
923.182501379
 20
311.6
 30
0.0
 40
10.0
 50
0.0
 51
90.0
  0
LINE
  8
0
  6
LTYPE3
 62
     2
 10
910.482501379
 20
316.1
 30
0.0
 11
910.482501379
 21
308.22
 31
0.0
  0
ARC
  8
0
  6
CONTINUOUS
 62
     1
 10
913.482501379
 20
315.1
 30
0.0
 40
2.0
 50
0.0
 51
90.0
  0
LINE
  8
0
  6
CONTINUOUS
 62
     1
 10
915.482501379
 20
315.1
 30
0.0
 11
915.482501379
 21
279.1
 31
0.0
  0
LINE
  8
0
  6
LTYPE2
 62
     2
 10
868.182501379
 20
207.5
 30
0.0
 11
868.182501379
 21
546.0
 31
0.0
  0
LINE
  8
0
  6
CONTINUOUS
 62
     2
 10
1094.0
 20
443.8625
 30
0.0
 11
1081.925927171
 21
447.097738064
 31
0.0
  0
LINE
  8
0
  6
CONTINUOUS
 62
     2
 10
1094.0
 20
443.8625
 30
0.0
 11
1081.925927171
 21
440.627261936
 31
0.0
  0
LINE
  8
0
  6
CONTINUOUS
 62
     2
 10
1044.0
 20
487.2
 30
0.0
 11
1031.925927171
 21
490.435238064
 31
0.0
  0
LINE
  8
0
  6
CONTINUOUS
 62
     2
 10
1044.0
 20
487.2
 30
0.0
 11
1031.925927171
 21
483.964761936
 31
0.0
  0
LINE
  8
0
  6
CONTINUOUS
 62
     2
 10
1044.0
 20
487.2
 30
0.0
 11
1056.074072829
 21
483.964761936
 31
0.0
  0
LINE
  8
0
  6
CONTINUOUS
 62
     2
 10
1044.0
 20
487.2
 30
0.0
 11
1056.074072829
 21
490.435238064
 31
0.0
  0
LINE
  8
0
  6
CONTINUOUS
 62
     2
 10
1044.0
 20
487.2
 30
0.0
 11
1094.0
 21
487.2
 31
0.0
  0
LINE
  8
0
  6
CONTINUOUS
 62
     2
 10
1094.0
 20
487.2
 30
0.0
 11
1081.925927171
 21
490.435238064
 31
0.0
  0
LINE
  8
0
  6
CONTINUOUS
 62
     2
 10
1094.0
 20
487.2
 30
0.0
 11
1081.925927171
 21
483.964761936
 31
0.0
  0
LINE
  8
0
  6
CONTINUOUS
 62
     2
 10
1094.0
 20
399.5
 30
0.0
 11
1081.925927171
 21
402.735238064
 31
0.0
  0
LINE
  8
0
  6
CONTINUOUS
 62
     2
 10
1094.0
 20
399.5
 30
0.0
 11
1081.925927171
 21
396.264761936
 31
0.0
  0
LINE
  8
0
  6
CONTINUOUS
 62
     2
 10
1094.0
 20
436.3625
 30
0.0
 11
1094.0
 21
392.0
 31
0.0
  0
LINE
  8
0
  6
CONTINUOUS
 62
     2
 10
1094.0
 20
667.875
 30
0.0
 11
1094.0
 21
436.3625
 31
0.0
  0
LINE
  8
0
  6
CONTINUOUS
 62
     2
 10
1044.0
 20
531.0
 30
0.0
 11
1044.0
 21
480.5
 31
0.0
  0
LINE
  8
0
  6
CONTINUOUS
 62
     2
 10
999.0
 20
487.2
 30
0.0
 11
1011.074072829
 21
490.435238064
 31
0.0
  0
LINE
  8
0
  6
CONTINUOUS
 62
     2
 10
999.0
 20
487.2
 30
0.0
 11
986.925927171
 21
490.435238064
 31
0.0
  0
LINE
  8
0
  6
CONTINUOUS
 62
     2
 10
999.0
 20
487.2
 30
0.0
 11
1011.074072829
 21
483.964761936
 31
0.0
  0
LINE
  8
0
  6
CONTINUOUS
 62
     2
 10
999.0
 20
487.2
 30
0.0
 11
986.925927171
 21
483.964761936
 31
0.0
  0
LINE
  8
0
  6
CONTINUOUS
 62
     2
 10
999.0
 20
646.5
 30
0.0
 11
999.0
 21
479.7
 31
0.0
  0
LINE
  8
0
  6
CONTINUOUS
 62
     2
 10
999.0
 20
487.2
 30
0.0
 11
1044.0
 21
487.2
 31
0.0
  0
TEXT
  8
0
  6
CONTINUOUS
 62
     2
 10
1054.75
 20
492.2
 30
0.0
 40
18.0
  1
５０
 50
0.0
 41
0.9
 51
0.0
  7
KANJI37
  0
LINE
  8
0
  6
CONTINUOUS
 62
     1
 10
940.882501379
 20
585.0
 30
0.0
 11
940.882501379
 21
559.6
 31
0.0
  0
LINE
  8
0
  6
CONTINUOUS
 62
     1
 10
1028.0
 20
531.0
 30
0.0
 11
1044.0
 21
531.0
 31
0.0
  0
LINE
  8
0
  6
CONTINUOUS
 62
     2
 10
1044.0
 20
609.5
 30
0.0
 11
1044.0
 21
479.7
 31
0.0
  0
LINE
  8
0
  6
CONTINUOUS
 62
     1
 10
1044.0
 20
531.0
 30
0.0
 11
1044.0
 21
701.0
 31
0.0
  0
LINE
  8
0
  6
CONTINUOUS
 62
     1
 10
1044.0
 20
544.0
 30
0.0
 11
1044.0
 21
551.49406
 31
0.0
  0
LINE
  8
0
  6
CONTINUOUS
 62
     1
 10
1044.0
 20
544.0
 30
0.0
 11
1044.0
 21
536.50594
 31
0.0
  0
LINE
  8
0
  6
CONTINUOUS
 62
     1
 10
1049.4999
 20
549.65878
 30
0.0
 11
1048.440300598
 21
551.49406
 31
0.0
  0
LINE
  8
0
  6
CONTINUOUS
 62
     1
 10
1049.4999
 20
544.0
 30
0.0
 11
1049.4999
 21
549.65878
 31
0.0
  0
LINE
  8
0
  6
CONTINUOUS
 62
     1
 10
1049.4999
 20
538.34122
 30
0.0
 11
1048.440300598
 21
536.50594
 31
0.0
  0
LINE
  8
0
  6
CONTINUOUS
 62
     1
 10
1049.4999
 20
544.0
 30
0.0
 11
1049.4999
 21
538.34122
 31
0.0
  0
ARC
  8
0
  6
CONTINUOUS
 62
     1
 10
1042.344844663
 20
544.0
 30
0.0
 40
7.155055337
 50
328.419912243
 51
31.580087757
  0
ARC
  8
0
  6
CONTINUOUS
 62
     1
 10
1047.314476233
 20
549.620545
 30
0.0
 40
2.185758211
 50
301.002313915
 51
2.989498403
  0
LINE
  8
0
  6
CONTINUOUS
 62
     1
 10
1049.4999
 20
538.34122
 30
0.0
 11
1048.440300598
 21
536.50594
 31
0.0
  0
ARC
  8
0
  6
CONTINUOUS
 62
     1
 10
1047.314476233
 20
538.379455
 30
0.0
 40
2.185758211
 50
357.010501597
 51
58.997686085
  0
LINE
  8
0
  6
CONTINUOUS
 62
     1
 10
1044.0
 20
551.49406
 30
0.0
 11
1048.440300598
 21
551.49406
 31
0.0
  0
LINE
  8
0
  6
CONTINUOUS
 62
     1
 10
1044.0
 20
547.74703
 30
0.0
 11
1048.440300598
 21
547.74703
 31
0.0
  0
LINE
  8
0
  6
CONTINUOUS
 62
     1
 10
1044.0
 20
540.25297
 30
0.0
 11
1048.440300598
 21
540.25297
 31
0.0
  0
LINE
  8
0
  6
CONTINUOUS
 62
     1
 10
1044.0
 20
536.50594
 30
0.0
 11
1048.440300598
 21
536.50594
 31
0.0
  0
LINE
  8
0
  6
CONTINUOUS
 62
     1
 10
1049.4999
 20
540.0
 30
0.0
 11
1054.4999
 21
540.0
 31
0.0
  0
LINE
  8
0
  6
CONTINUOUS
 62
     1
 10
1049.4999
 20
548.0
 30
0.0
 11
1054.4999
 21
548.0
 31
0.0
  0
LINE
  8
0
  6
CONTINUOUS
 62
     1
 10
1054.4999
 20
540.0
 30
0.0
 11
1054.4999
 21
548.0
 31
0.0
  0
LINE
  8
0
  6
CONTINUOUS
 62
     2
 10
1049.4999
 20
547.2
 30
0.0
 11
1054.4999
 21
547.2
 31
0.0
  0
LINE
  8
0
  6
CONTINUOUS
 62
     2
 10
1049.4999
 20
540.8
 30
0.0
 11
1054.4999
 21
540.8
 31
0.0
  0
LINE
  8
0
  6
CONTINUOUS
 62
     1
 10
1028.0
 20
531.0
 30
0.0
 11
1028.0
 21
732.0
 31
0.0
  0
LINE
  8
0
  6
CONTINUOUS
 62
     1
 10
1078.482501379
 20
304.6
 30
0.0
 11
1078.482501379
 21
239.9
 31
0.0
  0
LINE
  8
0
  6
CONTINUOUS
 62
     1
 10
1080.482501379
 20
237.9
 30
0.0
 11
1116.482501379
 21
237.9
 31
0.0
  0
ARC
  8
0
  6
CONTINUOUS
 62
     1
 10
1080.482501379
 20
239.9
 30
0.0
 40
2.0
 50
180.0
 51
270.0
  0
ARC
  8
0
  6
CONTINUOUS
 62
     1
 10
1080.482501379
 20
304.6
 30
0.0
 40
2.0
 50
90.0
 51
180.0
  0
LINE
  8
0
  6
CONTINUOUS
 62
     1
 10
1085.782501379
 20
330.0
 30
0.0
 11
1085.782501379
 21
306.6
 31
0.0
  0
LINE
  8
0
  6
CONTINUOUS
 62
     1
 10
1080.482501379
 20
306.6
 30
0.0
 11
1116.482501379
 21
306.6
 31
0.0
  0
ARC
  8
0
  6
CONTINUOUS
 62
     1
 10
1087.782501379
 20
330.0
 30
0.0
 40
2.0
 50
90.0
 51
180.0
  0
ARC
  8
0
  6
CONTINUOUS
 62
     1
 10
1098.482501379
 20
316.3
 30
0.0
 40
6.0
 50
131.983045121
 51
318.016954879
  0
LINE
  8
0
  6
LTYPE3
 62
     2
 10
1092.047829671
 20
309.865328291
 30
0.0
 11
1132.706469589
 21
350.523968209
 31
0.0
  0
LINE
  8
0
  6
CONTINUOUS
 62
     1
 10
1094.469037879
 20
320.760057257
 30
0.0
 11
1122.676916731
 21
346.14342919
 31
0.0
  0
LINE
  8
0
  6
CONTINUOUS
 62
     1
 10
1102.942558636
 20
312.2865365
 30
0.0
 11
1128.325930569
 21
340.494415352
 31
0.0
  0
LINE
  8
0
  6
CONTINUOUS
 62
     1
 10
1087.782501379
 20
332.0
 30
0.0
 11
1106.959692944
 21
332.0
 31
0.0
  0
LINE
  8
0
  6
LTYPE2
 62
     2
 10
1083.607501379
 20
283.1
 30
0.0
 11
1113.607501379
 21
283.1
 31
0.0
  0
LINE
  8
0
  6
LTYPE2
 62
     2
 10
1113.607501379
 20
292.6
 30
0.0
 11
1083.607501379
 21
292.6
 31
0.0
  0
LINE
  8
0
  6
LTYPE2
 62
     2
 10
1083.607501379
 20
292.6
 30
0.0
 11
1083.607501379
 21
283.1
 31
0.0
  0
LINE
  8
0
  6
CONTINUOUS
 62
     1
 10
1083.607501379
 20
253.1
 30
0.0
 11
1113.607501379
 21
253.1
 31
0.0
  0
LINE
  8
0
  6
CONTINUOUS
 62
     1
 10
1113.607501379
 20
262.6
 30
0.0
 11
1083.607501379
 21
262.6
 31
0.0
  0
LINE
  8
0
  6
CONTINUOUS
 62
     1
 10
1083.607501379
 20
262.6
 30
0.0
 11
1083.607501379
 21
253.1
 31
0.0
  0
TEXT
  8
0
  6
CONTINUOUS
 62
     2
 10
1082.382501379
 20
295.9
 30
0.0
 40
10.0
  1
４
 50
0.0
 41
0.85
 51
0.0
  7
KANJI42
  0
POLYLINE
  8
0
  6
CONTINUOUS
 62
     2
 66
     1
 70
     1
  0
VERTEX
  8
0
  6
CONTINUOUS
 62
     2
 10
1093.382501379
 20
295.15
 30
0.0
 42
0.021820078
  0
VERTEX
  8
0
  6
CONTINUOUS
 62
     2
 10
1093.37393945
 20
295.346100421
 30
0.0
 42
0.021820078
  0
VERTEX
  8
0
  6
CONTINUOUS
 62
     2
 10
1093.348318824
 20
295.5407084
 30
0.0
 42
0.021820078
  0
VERTEX
  8
0
  6
CONTINUOUS
 62
     2
 10
1093.305834489
 20
295.732342851
 30
0.0
 42
0.021820078
  0
VERTEX
  8
0
  6
CONTINUOUS
 62
     2
 10
1093.246809776
 20
295.919545322
 30
0.0
 42
0.021820078
  0
VERTEX
  8
0
  6
CONTINUOUS
 62
     2
 10
1093.1716939
 20
296.100891089
 30
0.0
 42
0.021820078
  0
VERTEX
  8
0
  6
CONTINUOUS
 62
     2
 10
1093.081058538
 20
296.275
 30
0.0
 42
0.021820078
  0
VERTEX
  8
0
  6
CONTINUOUS
 62
     2
 10
1092.975593479
 20
296.440546982
 30
0.0
 42
0.021820078
  0
VERTEX
  8
0
  6
CONTINUOUS
 62
     2
 10
1092.856101376
 20
296.596272122
 30
0.0
 42
0.021820078
  0
VERTEX
  8
0
  6
CONTINUOUS
 62
     2
 10
1092.723491637
 20
296.740990258
 30
0.0
 42
0.021820078
  0
VERTEX
  8
0
  6
CONTINUOUS
 62
     2
 10
1092.578773501
 20
296.873599997
 30
0.0
 42
0.021820078
  0
VERTEX
  8
0
  6
CONTINUOUS
 62
     2
 10
1092.423048361
 20
296.9930921
 30
0.0
 42
0.021820078
  0
VERTEX
  8
0
  6
CONTINUOUS
 62
     2
 10
1092.257501379
 20
297.098557159
 30
0.0
 42
0.021820078
  0
VERTEX
  8
0
  6
CONTINUOUS
 62
     2
 10
1092.083392468
 20
297.189192521
 30
0.0
 42
0.021820078
  0
VERTEX
  8
0
  6
CONTINUOUS
 62
     2
 10
1091.902046702
 20
297.264308397
 30
0.0
 42
0.021820078
  0
VERTEX
  8
0
  6
CONTINUOUS
 62
     2
 10
1091.714844231
 20
297.323333109
 30
0.0
 42
0.021820078
  0
VERTEX
  8
0
  6
CONTINUOUS
 62
     2
 10
1091.523209779
 20
297.365817444
 30
0.0
 42
0.021820078
  0
VERTEX
  8
0
  6
CONTINUOUS
 62
     2
 10
1091.328601801
 20
297.391438071
 30
0.0
 42
0.021820078
  0
VERTEX
  8
0
  6
CONTINUOUS
 62
     2
 10
1091.132501379
 20
297.4
 30
0.0
 42
0.021820078
  0
VERTEX
  8
0
  6
CONTINUOUS
 62
     2
 10
1090.936400958
 20
297.391438071
 30
0.0
 42
0.021820078
  0
VERTEX
  8
0
  6
CONTINUOUS
 62
     2
 10
1090.74179298
 20
297.365817444
 30
0.0
 42
0.021820078
  0
VERTEX
  8
0
  6
CONTINUOUS
 62
     2
 10
1090.550158528
 20
297.323333109
 30
0.0
 42
0.021820078
  0
VERTEX
  8
0
  6
CONTINUOUS
 62
     2
 10
1090.362956057
 20
297.264308397
 30
0.0
 42
0.021820078
  0
VERTEX
  8
0
  6
CONTINUOUS
 62
     2
 10
1090.18161029
 20
297.189192521
 30
0.0
 42
0.021820078
  0
VERTEX
  8
0
  6
CONTINUOUS
 62
     2
 10
1090.007501379
 20
297.098557159
 30
0.0
 42
0.021820078
  0
VERTEX
  8
0
  6
CONTINUOUS
 62
     2
 10
1089.841954398
 20
296.9930921
 30
0.0
 42
0.021820078
  0
VERTEX
  8
0
  6
CONTINUOUS
 62
     2
 10
1089.686229258
 20
296.873599997
 30
0.0
 42
0.021820078
  0
VERTEX
  8
0
  6
CONTINUOUS
 62
     2
 10
1089.541511122
 20
296.740990258
 30
0.0
 42
0.021820078
  0
VERTEX
  8
0
  6
CONTINUOUS
 62
     2
 10
1089.408901382
 20
296.596272122
 30
0.0
 42
0.021820078
  0
VERTEX
  8
0
  6
CONTINUOUS
 62
     2
 10
1089.28940928
 20
296.440546982
 30
0.0
 42
0.021820078
  0
VERTEX
  8
0
  6
CONTINUOUS
 62
     2
 10
1089.183944221
 20
296.275
 30
0.0
 42
0.021820078
  0
VERTEX
  8
0
  6
CONTINUOUS
 62
     2
 10
1089.093308859
 20
296.100891089
 30
0.0
 42
0.021820078
  0
VERTEX
  8
0
  6
CONTINUOUS
 62
     2
 10
1089.018192983
 20
295.919545322
 30
0.0
 42
0.021820078
  0
VERTEX
  8
0
  6
CONTINUOUS
 62
     2
 10
1088.95916827
 20
295.732342851
 30
0.0
 42
0.021820078
  0
VERTEX
  8
0
  6
CONTINUOUS
 62
     2
 10
1088.916683935
 20
295.5407084
 30
0.0
 42
0.021820078
  0
VERTEX
  8
0
  6
CONTINUOUS
 62
     2
 10
1088.891063309
 20
295.346100421
 30
0.0
 42
0.021820078
  0
VERTEX
  8
0
  6
CONTINUOUS
 62
     2
 10
1088.882501379
 20
295.15
 30
0.0
 42
0.021820078
  0
VERTEX
  8
0
  6
CONTINUOUS
 62
     2
 10
1088.891063309
 20
294.953899579
 30
0.0
 42
0.021820078
  0
VERTEX
  8
0
  6
CONTINUOUS
 62
     2
 10
1088.916683935
 20
294.7592916
 30
0.0
 42
0.021820078
  0
VERTEX
  8
0
  6
CONTINUOUS
 62
     2
 10
1088.95916827
 20
294.567657149
 30
0.0
 42
0.021820078
  0
VERTEX
  8
0
  6
CONTINUOUS
 62
     2
 10
1089.018192983
 20
294.380454678
 30
0.0
 42
0.021820078
  0
VERTEX
  8
0
  6
CONTINUOUS
 62
     2
 10
1089.093308859
 20
294.199108911
 30
0.0
 42
0.021820078
  0
VERTEX
  8
0
  6
CONTINUOUS
 62
     2
 10
1089.183944221
 20
294.025
 30
0.0
 42
0.021820078
  0
VERTEX
  8
0
  6
CONTINUOUS
 62
     2
 10
1089.28940928
 20
293.859453018
 30
0.0
 42
0.021820078
  0
VERTEX
  8
0
  6
CONTINUOUS
 62
     2
 10
1089.408901382
 20
293.703727878
 30
0.0
 42
0.021820078
  0
VERTEX
  8
0
  6
CONTINUOUS
 62
     2
 10
1089.541511122
 20
293.559009742
 30
0.0
 42
0.021820078
  0
VERTEX
  8
0
  6
CONTINUOUS
 62
     2
 10
1089.686229258
 20
293.426400003
 30
0.0
 42
0.021820078
  0
VERTEX
  8
0
  6
CONTINUOUS
 62
     2
 10
1089.841954398
 20
293.3069079
 30
0.0
 42
0.021820078
  0
VERTEX
  8
0
  6
CONTINUOUS
 62
     2
 10
1090.007501379
 20
293.201442841
 30
0.0
 42
0.021820078
  0
VERTEX
  8
0
  6
CONTINUOUS
 62
     2
 10
1090.18161029
 20
293.110807479
 30
0.0
 42
0.021820078
  0
VERTEX
  8
0
  6
CONTINUOUS
 62
     2
 10
1090.362956057
 20
293.035691603
 30
0.0
 42
0.021820078
  0
VERTEX
  8
0
  6
CONTINUOUS
 62
     2
 10
1090.550158528
 20
292.976666891
 30
0.0
 42
0.021820078
  0
VERTEX
  8
0
  6
CONTINUOUS
 62
     2
 10
1090.74179298
 20
292.934182556
 30
0.0
 42
0.021820078
  0
VERTEX
  8
0
  6
CONTINUOUS
 62
     2
 10
1090.936400958
 20
292.908561929
 30
0.0
 42
0.021820078
  0
VERTEX
  8
0
  6
CONTINUOUS
 62
     2
 10
1091.132501379
 20
292.9
 30
0.0
 42
0.021820078
  0
VERTEX
  8
0
  6
CONTINUOUS
 62
     2
 10
1091.328601801
 20
292.908561929
 30
0.0
 42
0.021820078
  0
VERTEX
  8
0
  6
CONTINUOUS
 62
     2
 10
1091.523209779
 20
292.934182556
 30
0.0
 42
0.021820078
  0
VERTEX
  8
0
  6
CONTINUOUS
 62
     2
 10
1091.714844231
 20
292.976666891
 30
0.0
 42
0.021820078
  0
VERTEX
  8
0
  6
CONTINUOUS
 62
     2
 10
1091.902046702
 20
293.035691603
 30
0.0
 42
0.021820078
  0
VERTEX
  8
0
  6
CONTINUOUS
 62
     2
 10
1092.083392468
 20
293.110807479
 30
0.0
 42
0.021820078
  0
VERTEX
  8
0
  6
CONTINUOUS
 62
     2
 10
1092.257501379
 20
293.201442841
 30
0.0
 42
0.021820078
  0
VERTEX
  8
0
  6
CONTINUOUS
 62
     2
 10
1092.423048361
 20
293.3069079
 30
0.0
 42
0.021820078
  0
VERTEX
  8
0
  6
CONTINUOUS
 62
     2
 10
1092.578773501
 20
293.426400003
 30
0.0
 42
0.021820078
  0
VERTEX
  8
0
  6
CONTINUOUS
 62
     2
 10
1092.723491637
 20
293.559009742
 30
0.0
 42
0.021820078
  0
VERTEX
  8
0
  6
CONTINUOUS
 62
     2
 10
1092.856101376
 20
293.703727878
 30
0.0
 42
0.021820078
  0
VERTEX
  8
0
  6
CONTINUOUS
 62
     2
 10
1092.975593479
 20
293.859453018
 30
0.0
 42
0.021820078
  0
VERTEX
  8
0
  6
CONTINUOUS
 62
     2
 10
1093.081058538
 20
294.025
 30
0.0
 42
0.021820078
  0
VERTEX
  8
0
  6
CONTINUOUS
 62
     2
 10
1093.1716939
 20
294.199108911
 30
0.0
 42
0.021820078
  0
VERTEX
  8
0
  6
CONTINUOUS
 62
     2
 10
1093.246809776
 20
294.380454678
 30
0.0
 42
0.021820078
  0
VERTEX
  8
0
  6
CONTINUOUS
 62
     2
 10
1093.305834489
 20
294.567657149
 30
0.0
 42
0.021820078
  0
VERTEX
  8
0
  6
CONTINUOUS
 62
     2
 10
1093.348318824
 20
294.7592916
 30
0.0
 42
0.021820078
  0
VERTEX
  8
0
  6
CONTINUOUS
 62
     2
 10
1093.37393945
 20
294.953899579
 30
0.0
 42
0.021820078
  0
SEQEND
  8
0
  6
CONTINUOUS
 62
     2
  0
POLYLINE
  8
0
  6
CONTINUOUS
 62
     2
 66
     1
 70
     1
  0
VERTEX
  8
0
  6
CONTINUOUS
 62
     2
 10
1108.382501379
 20
295.15
 30
0.0
 42
0.021820078
  0
VERTEX
  8
0
  6
CONTINUOUS
 62
     2
 10
1108.37393945
 20
295.346100421
 30
0.0
 42
0.021820078
  0
VERTEX
  8
0
  6
CONTINUOUS
 62
     2
 10
1108.348318824
 20
295.5407084
 30
0.0
 42
0.021820078
  0
VERTEX
  8
0
  6
CONTINUOUS
 62
     2
 10
1108.305834489
 20
295.732342851
 30
0.0
 42
0.021820078
  0
VERTEX
  8
0
  6
CONTINUOUS
 62
     2
 10
1108.246809776
 20
295.919545322
 30
0.0
 42
0.021820078
  0
VERTEX
  8
0
  6
CONTINUOUS
 62
     2
 10
1108.1716939
 20
296.100891089
 30
0.0
 42
0.021820078
  0
VERTEX
  8
0
  6
CONTINUOUS
 62
     2
 10
1108.081058538
 20
296.275
 30
0.0
 42
0.021820078
  0
VERTEX
  8
0
  6
CONTINUOUS
 62
     2
 10
1107.975593479
 20
296.440546982
 30
0.0
 42
0.021820078
  0
VERTEX
  8
0
  6
CONTINUOUS
 62
     2
 10
1107.856101376
 20
296.596272122
 30
0.0
 42
0.021820078
  0
VERTEX
  8
0
  6
CONTINUOUS
 62
     2
 10
1107.723491637
 20
296.740990258
 30
0.0
 42
0.021820078
  0
VERTEX
  8
0
  6
CONTINUOUS
 62
     2
 10
1107.578773501
 20
296.873599997
 30
0.0
 42
0.021820078
  0
VERTEX
  8
0
  6
CONTINUOUS
 62
     2
 10
1107.423048361
 20
296.9930921
 30
0.0
 42
0.021820078
  0
VERTEX
  8
0
  6
CONTINUOUS
 62
     2
 10
1107.257501379
 20
297.098557159
 30
0.0
 42
0.021820078
  0
VERTEX
  8
0
  6
CONTINUOUS
 62
     2
 10
1107.083392468
 20
297.189192521
 30
0.0
 42
0.021820078
  0
VERTEX
  8
0
  6
CONTINUOUS
 62
     2
 10
1106.902046702
 20
297.264308397
 30
0.0
 42
0.021820078
  0
VERTEX
  8
0
  6
CONTINUOUS
 62
     2
 10
1106.714844231
 20
297.323333109
 30
0.0
 42
0.021820078
  0
VERTEX
  8
0
  6
CONTINUOUS
 62
     2
 10
1106.523209779
 20
297.365817444
 30
0.0
 42
0.021820078
  0
VERTEX
  8
0
  6
CONTINUOUS
 62
     2
 10
1106.328601801
 20
297.391438071
 30
0.0
 42
0.021820078
  0
VERTEX
  8
0
  6
CONTINUOUS
 62
     2
 10
1106.132501379
 20
297.4
 30
0.0
 42
0.021820078
  0
VERTEX
  8
0
  6
CONTINUOUS
 62
     2
 10
1105.936400958
 20
297.391438071
 30
0.0
 42
0.021820078
  0
VERTEX
  8
0
  6
CONTINUOUS
 62
     2
 10
1105.74179298
 20
297.365817444
 30
0.0
 42
0.021820078
  0
VERTEX
  8
0
  6
CONTINUOUS
 62
     2
 10
1105.550158528
 20
297.323333109
 30
0.0
 42
0.021820078
  0
VERTEX
  8
0
  6
CONTINUOUS
 62
     2
 10
1105.362956057
 20
297.264308397
 30
0.0
 42
0.021820078
  0
VERTEX
  8
0
  6
CONTINUOUS
 62
     2
 10
1105.18161029
 20
297.189192521
 30
0.0
 42
0.021820078
  0
VERTEX
  8
0
  6
CONTINUOUS
 62
     2
 10
1105.007501379
 20
297.098557159
 30
0.0
 42
0.021820078
  0
VERTEX
  8
0
  6
CONTINUOUS
 62
     2
 10
1104.841954398
 20
296.9930921
 30
0.0
 42
0.021820078
  0
VERTEX
  8
0
  6
CONTINUOUS
 62
     2
 10
1104.686229258
 20
296.873599997
 30
0.0
 42
0.021820078
  0
VERTEX
  8
0
  6
CONTINUOUS
 62
     2
 10
1104.541511122
 20
296.740990258
 30
0.0
 42
0.021820078
  0
VERTEX
  8
0
  6
CONTINUOUS
 62
     2
 10
1104.408901382
 20
296.596272122
 30
0.0
 42
0.021820078
  0
VERTEX
  8
0
  6
CONTINUOUS
 62
     2
 10
1104.28940928
 20
296.440546982
 30
0.0
 42
0.021820078
  0
VERTEX
  8
0
  6
CONTINUOUS
 62
     2
 10
1104.183944221
 20
296.275
 30
0.0
 42
0.021820078
  0
VERTEX
  8
0
  6
CONTINUOUS
 62
     2
 10
1104.093308859
 20
296.100891089
 30
0.0
 42
0.021820078
  0
VERTEX
  8
0
  6
CONTINUOUS
 62
     2
 10
1104.018192983
 20
295.919545322
 30
0.0
 42
0.021820078
  0
VERTEX
  8
0
  6
CONTINUOUS
 62
     2
 10
1103.95916827
 20
295.732342851
 30
0.0
 42
0.021820078
  0
VERTEX
  8
0
  6
CONTINUOUS
 62
     2
 10
1103.916683935
 20
295.5407084
 30
0.0
 42
0.021820078
  0
VERTEX
  8
0
  6
CONTINUOUS
 62
     2
 10
1103.891063309
 20
295.346100421
 30
0.0
 42
0.021820078
  0
VERTEX
  8
0
  6
CONTINUOUS
 62
     2
 10
1103.882501379
 20
295.15
 30
0.0
 42
0.021820078
  0
VERTEX
  8
0
  6
CONTINUOUS
 62
     2
 10
1103.891063309
 20
294.953899579
 30
0.0
 42
0.021820078
  0
VERTEX
  8
0
  6
CONTINUOUS
 62
     2
 10
1103.916683935
 20
294.7592916
 30
0.0
 42
0.021820078
  0
VERTEX
  8
0
  6
CONTINUOUS
 62
     2
 10
1103.95916827
 20
294.567657149
 30
0.0
 42
0.021820078
  0
VERTEX
  8
0
  6
CONTINUOUS
 62
     2
 10
1104.018192983
 20
294.380454678
 30
0.0
 42
0.021820078
  0
VERTEX
  8
0
  6
CONTINUOUS
 62
     2
 10
1104.093308859
 20
294.199108911
 30
0.0
 42
0.021820078
  0
VERTEX
  8
0
  6
CONTINUOUS
 62
     2
 10
1104.183944221
 20
294.025
 30
0.0
 42
0.021820078
  0
VERTEX
  8
0
  6
CONTINUOUS
 62
     2
 10
1104.28940928
 20
293.859453018
 30
0.0
 42
0.021820078
  0
VERTEX
  8
0
  6
CONTINUOUS
 62
     2
 10
1104.408901382
 20
293.703727878
 30
0.0
 42
0.021820078
  0
VERTEX
  8
0
  6
CONTINUOUS
 62
     2
 10
1104.541511122
 20
293.559009742
 30
0.0
 42
0.021820078
  0
VERTEX
  8
0
  6
CONTINUOUS
 62
     2
 10
1104.686229258
 20
293.426400003
 30
0.0
 42
0.021820078
  0
VERTEX
  8
0
  6
CONTINUOUS
 62
     2
 10
1104.841954398
 20
293.3069079
 30
0.0
 42
0.021820078
  0
VERTEX
  8
0
  6
CONTINUOUS
 62
     2
 10
1105.007501379
 20
293.201442841
 30
0.0
 42
0.021820078
  0
VERTEX
  8
0
  6
CONTINUOUS
 62
     2
 10
1105.18161029
 20
293.110807479
 30
0.0
 42
0.021820078
  0
VERTEX
  8
0
  6
CONTINUOUS
 62
     2
 10
1105.362956057
 20
293.035691603
 30
0.0
 42
0.021820078
  0
VERTEX
  8
0
  6
CONTINUOUS
 62
     2
 10
1105.550158528
 20
292.976666891
 30
0.0
 42
0.021820078
  0
VERTEX
  8
0
  6
CONTINUOUS
 62
     2
 10
1105.74179298
 20
292.934182556
 30
0.0
 42
0.021820078
  0
VERTEX
  8
0
  6
CONTINUOUS
 62
     2
 10
1105.936400958
 20
292.908561929
 30
0.0
 42
0.021820078
  0
VERTEX
  8
0
  6
CONTINUOUS
 62
     2
 10
1106.132501379
 20
292.9
 30
0.0
 42
0.021820078
  0
VERTEX
  8
0
  6
CONTINUOUS
 62
     2
 10
1106.328601801
 20
292.908561929
 30
0.0
 42
0.021820078
  0
VERTEX
  8
0
  6
CONTINUOUS
 62
     2
 10
1106.523209779
 20
292.934182556
 30
0.0
 42
0.021820078
  0
VERTEX
  8
0
  6
CONTINUOUS
 62
     2
 10
1106.714844231
 20
292.976666891
 30
0.0
 42
0.021820078
  0
VERTEX
  8
0
  6
CONTINUOUS
 62
     2
 10
1106.902046702
 20
293.035691603
 30
0.0
 42
0.021820078
  0
VERTEX
  8
0
  6
CONTINUOUS
 62
     2
 10
1107.083392468
 20
293.110807479
 30
0.0
 42
0.021820078
  0
VERTEX
  8
0
  6
CONTINUOUS
 62
     2
 10
1107.257501379
 20
293.201442841
 30
0.0
 42
0.021820078
  0
VERTEX
  8
0
  6
CONTINUOUS
 62
     2
 10
1107.423048361
 20
293.3069079
 30
0.0
 42
0.021820078
  0
VERTEX
  8
0
  6
CONTINUOUS
 62
     2
 10
1107.578773501
 20
293.426400003
 30
0.0
 42
0.021820078
  0
VERTEX
  8
0
  6
CONTINUOUS
 62
     2
 10
1107.723491637
 20
293.559009742
 30
0.0
 42
0.021820078
  0
VERTEX
  8
0
  6
CONTINUOUS
 62
     2
 10
1107.856101376
 20
293.703727878
 30
0.0
 42
0.021820078
  0
VERTEX
  8
0
  6
CONTINUOUS
 62
     2
 10
1107.975593479
 20
293.859453018
 30
0.0
 42
0.021820078
  0
VERTEX
  8
0
  6
CONTINUOUS
 62
     2
 10
1108.081058538
 20
294.025
 30
0.0
 42
0.021820078
  0
VERTEX
  8
0
  6
CONTINUOUS
 62
     2
 10
1108.1716939
 20
294.199108911
 30
0.0
 42
0.021820078
  0
VERTEX
  8
0
  6
CONTINUOUS
 62
     2
 10
1108.246809776
 20
294.380454678
 30
0.0
 42
0.021820078
  0
VERTEX
  8
0
  6
CONTINUOUS
 62
     2
 10
1108.305834489
 20
294.567657149
 30
0.0
 42
0.021820078
  0
VERTEX
  8
0
  6
CONTINUOUS
 62
     2
 10
1108.348318824
 20
294.7592916
 30
0.0
 42
0.021820078
  0
VERTEX
  8
0
  6
CONTINUOUS
 62
     2
 10
1108.37393945
 20
294.953899579
 30
0.0
 42
0.021820078
  0
SEQEND
  8
0
  6
CONTINUOUS
 62
     2
  0
POLYLINE
  8
0
  6
CONTINUOUS
 62
     2
 66
     1
 70
     1
  0
VERTEX
  8
0
  6
CONTINUOUS
 62
     2
 10
1093.382501379
 20
250.8
 30
0.0
 42
-0.021820078
  0
VERTEX
  8
0
  6
CONTINUOUS
 62
     2
 10
1093.37393945
 20
250.603899579
 30
0.0
 42
-0.021820078
  0
VERTEX
  8
0
  6
CONTINUOUS
 62
     2
 10
1093.348318824
 20
250.4092916
 30
0.0
 42
-0.021820078
  0
VERTEX
  8
0
  6
CONTINUOUS
 62
     2
 10
1093.305834489
 20
250.217657149
 30
0.0
 42
-0.021820078
  0
VERTEX
  8
0
  6
CONTINUOUS
 62
     2
 10
1093.246809776
 20
250.030454678
 30
0.0
 42
-0.021820078
  0
VERTEX
  8
0
  6
CONTINUOUS
 62
     2
 10
1093.1716939
 20
249.849108911
 30
0.0
 42
-0.021820078
  0
VERTEX
  8
0
  6
CONTINUOUS
 62
     2
 10
1093.081058538
 20
249.675
 30
0.0
 42
-0.021820078
  0
VERTEX
  8
0
  6
CONTINUOUS
 62
     2
 10
1092.975593479
 20
249.509453018
 30
0.0
 42
-0.021820078
  0
VERTEX
  8
0
  6
CONTINUOUS
 62
     2
 10
1092.856101376
 20
249.353727878
 30
0.0
 42
-0.021820078
  0
VERTEX
  8
0
  6
CONTINUOUS
 62
     2
 10
1092.723491637
 20
249.209009742
 30
0.0
 42
-0.021820078
  0
VERTEX
  8
0
  6
CONTINUOUS
 62
     2
 10
1092.578773501
 20
249.076400003
 30
0.0
 42
-0.021820078
  0
VERTEX
  8
0
  6
CONTINUOUS
 62
     2
 10
1092.423048361
 20
248.9569079
 30
0.0
 42
-0.021820078
  0
VERTEX
  8
0
  6
CONTINUOUS
 62
     2
 10
1092.257501379
 20
248.851442841
 30
0.0
 42
-0.021820078
  0
VERTEX
  8
0
  6
CONTINUOUS
 62
     2
 10
1092.083392468
 20
248.760807479
 30
0.0
 42
-0.021820078
  0
VERTEX
  8
0
  6
CONTINUOUS
 62
     2
 10
1091.902046702
 20
248.685691603
 30
0.0
 42
-0.021820078
  0
VERTEX
  8
0
  6
CONTINUOUS
 62
     2
 10
1091.714844231
 20
248.626666891
 30
0.0
 42
-0.021820078
  0
VERTEX
  8
0
  6
CONTINUOUS
 62
     2
 10
1091.523209779
 20
248.584182556
 30
0.0
 42
-0.021820078
  0
VERTEX
  8
0
  6
CONTINUOUS
 62
     2
 10
1091.328601801
 20
248.558561929
 30
0.0
 42
-0.021820078
  0
VERTEX
  8
0
  6
CONTINUOUS
 62
     2
 10
1091.132501379
 20
248.55
 30
0.0
 42
-0.021820078
  0
VERTEX
  8
0
  6
CONTINUOUS
 62
     2
 10
1090.936400958
 20
248.558561929
 30
0.0
 42
-0.021820078
  0
VERTEX
  8
0
  6
CONTINUOUS
 62
     2
 10
1090.74179298
 20
248.584182556
 30
0.0
 42
-0.021820078
  0
VERTEX
  8
0
  6
CONTINUOUS
 62
     2
 10
1090.550158528
 20
248.626666891
 30
0.0
 42
-0.021820078
  0
VERTEX
  8
0
  6
CONTINUOUS
 62
     2
 10
1090.362956057
 20
248.685691603
 30
0.0
 42
-0.021820078
  0
VERTEX
  8
0
  6
CONTINUOUS
 62
     2
 10
1090.18161029
 20
248.760807479
 30
0.0
 42
-0.021820078
  0
VERTEX
  8
0
  6
CONTINUOUS
 62
     2
 10
1090.007501379
 20
248.851442841
 30
0.0
 42
-0.021820078
  0
VERTEX
  8
0
  6
CONTINUOUS
 62
     2
 10
1089.841954398
 20
248.9569079
 30
0.0
 42
-0.021820078
  0
VERTEX
  8
0
  6
CONTINUOUS
 62
     2
 10
1089.686229258
 20
249.076400003
 30
0.0
 42
-0.021820078
  0
VERTEX
  8
0
  6
CONTINUOUS
 62
     2
 10
1089.541511122
 20
249.209009742
 30
0.0
 42
-0.021820078
  0
VERTEX
  8
0
  6
CONTINUOUS
 62
     2
 10
1089.408901382
 20
249.353727878
 30
0.0
 42
-0.021820078
  0
VERTEX
  8
0
  6
CONTINUOUS
 62
     2
 10
1089.28940928
 20
249.509453018
 30
0.0
 42
-0.021820078
  0
VERTEX
  8
0
  6
CONTINUOUS
 62
     2
 10
1089.183944221
 20
249.675
 30
0.0
 42
-0.021820078
  0
VERTEX
  8
0
  6
CONTINUOUS
 62
     2
 10
1089.093308859
 20
249.849108911
 30
0.0
 42
-0.021820078
  0
VERTEX
  8
0
  6
CONTINUOUS
 62
     2
 10
1089.018192983
 20
250.030454678
 30
0.0
 42
-0.021820078
  0
VERTEX
  8
0
  6
CONTINUOUS
 62
     2
 10
1088.95916827
 20
250.217657149
 30
0.0
 42
-0.021820078
  0
VERTEX
  8
0
  6
CONTINUOUS
 62
     2
 10
1088.916683935
 20
250.4092916
 30
0.0
 42
-0.021820078
  0
VERTEX
  8
0
  6
CONTINUOUS
 62
     2
 10
1088.891063309
 20
250.603899579
 30
0.0
 42
-0.021820078
  0
VERTEX
  8
0
  6
CONTINUOUS
 62
     2
 10
1088.882501379
 20
250.8
 30
0.0
 42
-0.021820078
  0
VERTEX
  8
0
  6
CONTINUOUS
 62
     2
 10
1088.891063309
 20
250.996100421
 30
0.0
 42
-0.021820078
  0
VERTEX
  8
0
  6
CONTINUOUS
 62
     2
 10
1088.916683935
 20
251.1907084
 30
0.0
 42
-0.021820078
  0
VERTEX
  8
0
  6
CONTINUOUS
 62
     2
 10
1088.95916827
 20
251.382342851
 30
0.0
 42
-0.021820078
  0
VERTEX
  8
0
  6
CONTINUOUS
 62
     2
 10
1089.018192983
 20
251.569545322
 30
0.0
 42
-0.021820078
  0
VERTEX
  8
0
  6
CONTINUOUS
 62
     2
 10
1089.093308859
 20
251.750891089
 30
0.0
 42
-0.021820078
  0
VERTEX
  8
0
  6
CONTINUOUS
 62
     2
 10
1089.183944221
 20
251.925
 30
0.0
 42
-0.021820078
  0
VERTEX
  8
0
  6
CONTINUOUS
 62
     2
 10
1089.28940928
 20
252.090546982
 30
0.0
 42
-0.021820078
  0
VERTEX
  8
0
  6
CONTINUOUS
 62
     2
 10
1089.408901382
 20
252.246272122
 30
0.0
 42
-0.021820078
  0
VERTEX
  8
0
  6
CONTINUOUS
 62
     2
 10
1089.541511122
 20
252.390990258
 30
0.0
 42
-0.021820078
  0
VERTEX
  8
0
  6
CONTINUOUS
 62
     2
 10
1089.686229258
 20
252.523599997
 30
0.0
 42
-0.021820078
  0
VERTEX
  8
0
  6
CONTINUOUS
 62
     2
 10
1089.841954398
 20
252.6430921
 30
0.0
 42
-0.021820078
  0
VERTEX
  8
0
  6
CONTINUOUS
 62
     2
 10
1090.007501379
 20
252.748557159
 30
0.0
 42
-0.021820078
  0
VERTEX
  8
0
  6
CONTINUOUS
 62
     2
 10
1090.18161029
 20
252.839192521
 30
0.0
 42
-0.021820078
  0
VERTEX
  8
0
  6
CONTINUOUS
 62
     2
 10
1090.362956057
 20
252.914308397
 30
0.0
 42
-0.021820078
  0
VERTEX
  8
0
  6
CONTINUOUS
 62
     2
 10
1090.550158528
 20
252.973333109
 30
0.0
 42
-0.021820078
  0
VERTEX
  8
0
  6
CONTINUOUS
 62
     2
 10
1090.74179298
 20
253.015817444
 30
0.0
 42
-0.021820078
  0
VERTEX
  8
0
  6
CONTINUOUS
 62
     2
 10
1090.936400958
 20
253.041438071
 30
0.0
 42
-0.021820078
  0
VERTEX
  8
0
  6
CONTINUOUS
 62
     2
 10
1091.132501379
 20
253.05
 30
0.0
 42
-0.021820078
  0
VERTEX
  8
0
  6
CONTINUOUS
 62
     2
 10
1091.328601801
 20
253.041438071
 30
0.0
 42
-0.021820078
  0
VERTEX
  8
0
  6
CONTINUOUS
 62
     2
 10
1091.523209779
 20
253.015817444
 30
0.0
 42
-0.021820078
  0
VERTEX
  8
0
  6
CONTINUOUS
 62
     2
 10
1091.714844231
 20
252.973333109
 30
0.0
 42
-0.021820078
  0
VERTEX
  8
0
  6
CONTINUOUS
 62
     2
 10
1091.902046702
 20
252.914308397
 30
0.0
 42
-0.021820078
  0
VERTEX
  8
0
  6
CONTINUOUS
 62
     2
 10
1092.083392468
 20
252.839192521
 30
0.0
 42
-0.021820078
  0
VERTEX
  8
0
  6
CONTINUOUS
 62
     2
 10
1092.257501379
 20
252.748557159
 30
0.0
 42
-0.021820078
  0
VERTEX
  8
0
  6
CONTINUOUS
 62
     2
 10
1092.423048361
 20
252.6430921
 30
0.0
 42
-0.021820078
  0
VERTEX
  8
0
  6
CONTINUOUS
 62
     2
 10
1092.578773501
 20
252.523599997
 30
0.0
 42
-0.021820078
  0
VERTEX
  8
0
  6
CONTINUOUS
 62
     2
 10
1092.723491637
 20
252.390990258
 30
0.0
 42
-0.021820078
  0
VERTEX
  8
0
  6
CONTINUOUS
 62
     2
 10
1092.856101376
 20
252.246272122
 30
0.0
 42
-0.021820078
  0
VERTEX
  8
0
  6
CONTINUOUS
 62
     2
 10
1092.975593479
 20
252.090546982
 30
0.0
 42
-0.021820078
  0
VERTEX
  8
0
  6
CONTINUOUS
 62
     2
 10
1093.081058538
 20
251.925
 30
0.0
 42
-0.021820078
  0
VERTEX
  8
0
  6
CONTINUOUS
 62
     2
 10
1093.1716939
 20
251.750891089
 30
0.0
 42
-0.021820078
  0
VERTEX
  8
0
  6
CONTINUOUS
 62
     2
 10
1093.246809776
 20
251.569545322
 30
0.0
 42
-0.021820078
  0
VERTEX
  8
0
  6
CONTINUOUS
 62
     2
 10
1093.305834489
 20
251.382342851
 30
0.0
 42
-0.021820078
  0
VERTEX
  8
0
  6
CONTINUOUS
 62
     2
 10
1093.348318824
 20
251.1907084
 30
0.0
 42
-0.021820078
  0
VERTEX
  8
0
  6
CONTINUOUS
 62
     2
 10
1093.37393945
 20
250.996100421
 30
0.0
 42
-0.021820078
  0
SEQEND
  8
0
  6
CONTINUOUS
 62
     2
  0
POLYLINE
  8
0
  6
CONTINUOUS
 62
     2
 66
     1
 70
     1
  0
VERTEX
  8
0
  6
CONTINUOUS
 62
     2
 10
1108.382501379
 20
250.8
 30
0.0
 42
-0.021820078
  0
VERTEX
  8
0
  6
CONTINUOUS
 62
     2
 10
1108.37393945
 20
250.603899579
 30
0.0
 42
-0.021820078
  0
VERTEX
  8
0
  6
CONTINUOUS
 62
     2
 10
1108.348318824
 20
250.4092916
 30
0.0
 42
-0.021820078
  0
VERTEX
  8
0
  6
CONTINUOUS
 62
     2
 10
1108.305834489
 20
250.217657149
 30
0.0
 42
-0.021820078
  0
VERTEX
  8
0
  6
CONTINUOUS
 62
     2
 10
1108.246809776
 20
250.030454678
 30
0.0
 42
-0.021820078
  0
VERTEX
  8
0
  6
CONTINUOUS
 62
     2
 10
1108.1716939
 20
249.849108911
 30
0.0
 42
-0.021820078
  0
VERTEX
  8
0
  6
CONTINUOUS
 62
     2
 10
1108.081058538
 20
249.675
 30
0.0
 42
-0.021820078
  0
VERTEX
  8
0
  6
CONTINUOUS
 62
     2
 10
1107.975593479
 20
249.509453018
 30
0.0
 42
-0.021820078
  0
VERTEX
  8
0
  6
CONTINUOUS
 62
     2
 10
1107.856101376
 20
249.353727878
 30
0.0
 42
-0.021820078
  0
VERTEX
  8
0
  6
CONTINUOUS
 62
     2
 10
1107.723491637
 20
249.209009742
 30
0.0
 42
-0.021820078
  0
VERTEX
  8
0
  6
CONTINUOUS
 62
     2
 10
1107.578773501
 20
249.076400003
 30
0.0
 42
-0.021820078
  0
VERTEX
  8
0
  6
CONTINUOUS
 62
     2
 10
1107.423048361
 20
248.9569079
 30
0.0
 42
-0.021820078
  0
VERTEX
  8
0
  6
CONTINUOUS
 62
     2
 10
1107.257501379
 20
248.851442841
 30
0.0
 42
-0.021820078
  0
VERTEX
  8
0
  6
CONTINUOUS
 62
     2
 10
1107.083392468
 20
248.760807479
 30
0.0
 42
-0.021820078
  0
VERTEX
  8
0
  6
CONTINUOUS
 62
     2
 10
1106.902046702
 20
248.685691603
 30
0.0
 42
-0.021820078
  0
VERTEX
  8
0
  6
CONTINUOUS
 62
     2
 10
1106.714844231
 20
248.626666891
 30
0.0
 42
-0.021820078
  0
VERTEX
  8
0
  6
CONTINUOUS
 62
     2
 10
1106.523209779
 20
248.584182556
 30
0.0
 42
-0.021820078
  0
VERTEX
  8
0
  6
CONTINUOUS
 62
     2
 10
1106.328601801
 20
248.558561929
 30
0.0
 42
-0.021820078
  0
VERTEX
  8
0
  6
CONTINUOUS
 62
     2
 10
1106.132501379
 20
248.55
 30
0.0
 42
-0.021820078
  0
VERTEX
  8
0
  6
CONTINUOUS
 62
     2
 10
1105.936400958
 20
248.558561929
 30
0.0
 42
-0.021820078
  0
VERTEX
  8
0
  6
CONTINUOUS
 62
     2
 10
1105.74179298
 20
248.584182556
 30
0.0
 42
-0.021820078
  0
VERTEX
  8
0
  6
CONTINUOUS
 62
     2
 10
1105.550158528
 20
248.626666891
 30
0.0
 42
-0.021820078
  0
VERTEX
  8
0
  6
CONTINUOUS
 62
     2
 10
1105.362956057
 20
248.685691603
 30
0.0
 42
-0.021820078
  0
VERTEX
  8
0
  6
CONTINUOUS
 62
     2
 10
1105.18161029
 20
248.760807479
 30
0.0
 42
-0.021820078
  0
VERTEX
  8
0
  6
CONTINUOUS
 62
     2
 10
1105.007501379
 20
248.851442841
 30
0.0
 42
-0.021820078
  0
VERTEX
  8
0
  6
CONTINUOUS
 62
     2
 10
1104.841954398
 20
248.9569079
 30
0.0
 42
-0.021820078
  0
VERTEX
  8
0
  6
CONTINUOUS
 62
     2
 10
1104.686229258
 20
249.076400003
 30
0.0
 42
-0.021820078
  0
VERTEX
  8
0
  6
CONTINUOUS
 62
     2
 10
1104.541511122
 20
249.209009742
 30
0.0
 42
-0.021820078
  0
VERTEX
  8
0
  6
CONTINUOUS
 62
     2
 10
1104.408901382
 20
249.353727878
 30
0.0
 42
-0.021820078
  0
VERTEX
  8
0
  6
CONTINUOUS
 62
     2
 10
1104.28940928
 20
249.509453018
 30
0.0
 42
-0.021820078
  0
VERTEX
  8
0
  6
CONTINUOUS
 62
     2
 10
1104.183944221
 20
249.675
 30
0.0
 42
-0.021820078
  0
VERTEX
  8
0
  6
CONTINUOUS
 62
     2
 10
1104.093308859
 20
249.849108911
 30
0.0
 42
-0.021820078
  0
VERTEX
  8
0
  6
CONTINUOUS
 62
     2
 10
1104.018192983
 20
250.030454678
 30
0.0
 42
-0.021820078
  0
VERTEX
  8
0
  6
CONTINUOUS
 62
     2
 10
1103.95916827
 20
250.217657149
 30
0.0
 42
-0.021820078
  0
VERTEX
  8
0
  6
CONTINUOUS
 62
     2
 10
1103.916683935
 20
250.4092916
 30
0.0
 42
-0.021820078
  0
VERTEX
  8
0
  6
CONTINUOUS
 62
     2
 10
1103.891063309
 20
250.603899579
 30
0.0
 42
-0.021820078
  0
VERTEX
  8
0
  6
CONTINUOUS
 62
     2
 10
1103.882501379
 20
250.8
 30
0.0
 42
-0.021820078
  0
VERTEX
  8
0
  6
CONTINUOUS
 62
     2
 10
1103.891063309
 20
250.996100421
 30
0.0
 42
-0.021820078
  0
VERTEX
  8
0
  6
CONTINUOUS
 62
     2
 10
1103.916683935
 20
251.1907084
 30
0.0
 42
-0.021820078
  0
VERTEX
  8
0
  6
CONTINUOUS
 62
     2
 10
1103.95916827
 20
251.382342851
 30
0.0
 42
-0.021820078
  0
VERTEX
  8
0
  6
CONTINUOUS
 62
     2
 10
1104.018192983
 20
251.569545322
 30
0.0
 42
-0.021820078
  0
VERTEX
  8
0
  6
CONTINUOUS
 62
     2
 10
1104.093308859
 20
251.750891089
 30
0.0
 42
-0.021820078
  0
VERTEX
  8
0
  6
CONTINUOUS
 62
     2
 10
1104.183944221
 20
251.925
 30
0.0
 42
-0.021820078
  0
VERTEX
  8
0
  6
CONTINUOUS
 62
     2
 10
1104.28940928
 20
252.090546982
 30
0.0
 42
-0.021820078
  0
VERTEX
  8
0
  6
CONTINUOUS
 62
     2
 10
1104.408901382
 20
252.246272122
 30
0.0
 42
-0.021820078
  0
VERTEX
  8
0
  6
CONTINUOUS
 62
     2
 10
1104.541511122
 20
252.390990258
 30
0.0
 42
-0.021820078
  0
VERTEX
  8
0
  6
CONTINUOUS
 62
     2
 10
1104.686229258
 20
252.523599997
 30
0.0
 42
-0.021820078
  0
VERTEX
  8
0
  6
CONTINUOUS
 62
     2
 10
1104.841954398
 20
252.6430921
 30
0.0
 42
-0.021820078
  0
VERTEX
  8
0
  6
CONTINUOUS
 62
     2
 10
1105.007501379
 20
252.748557159
 30
0.0
 42
-0.021820078
  0
VERTEX
  8
0
  6
CONTINUOUS
 62
     2
 10
1105.18161029
 20
252.839192521
 30
0.0
 42
-0.021820078
  0
VERTEX
  8
0
  6
CONTINUOUS
 62
     2
 10
1105.362956057
 20
252.914308397
 30
0.0
 42
-0.021820078
  0
VERTEX
  8
0
  6
CONTINUOUS
 62
     2
 10
1105.550158528
 20
252.973333109
 30
0.0
 42
-0.021820078
  0
VERTEX
  8
0
  6
CONTINUOUS
 62
     2
 10
1105.74179298
 20
253.015817444
 30
0.0
 42
-0.021820078
  0
VERTEX
  8
0
  6
CONTINUOUS
 62
     2
 10
1105.936400958
 20
253.041438071
 30
0.0
 42
-0.021820078
  0
VERTEX
  8
0
  6
CONTINUOUS
 62
     2
 10
1106.132501379
 20
253.05
 30
0.0
 42
-0.021820078
  0
VERTEX
  8
0
  6
CONTINUOUS
 62
     2
 10
1106.328601801
 20
253.041438071
 30
0.0
 42
-0.021820078
  0
VERTEX
  8
0
  6
CONTINUOUS
 62
     2
 10
1106.523209779
 20
253.015817444
 30
0.0
 42
-0.021820078
  0
VERTEX
  8
0
  6
CONTINUOUS
 62
     2
 10
1106.714844231
 20
252.973333109
 30
0.0
 42
-0.021820078
  0
VERTEX
  8
0
  6
CONTINUOUS
 62
     2
 10
1106.902046702
 20
252.914308397
 30
0.0
 42
-0.021820078
  0
VERTEX
  8
0
  6
CONTINUOUS
 62
     2
 10
1107.083392468
 20
252.839192521
 30
0.0
 42
-0.021820078
  0
VERTEX
  8
0
  6
CONTINUOUS
 62
     2
 10
1107.257501379
 20
252.748557159
 30
0.0
 42
-0.021820078
  0
VERTEX
  8
0
  6
CONTINUOUS
 62
     2
 10
1107.423048361
 20
252.6430921
 30
0.0
 42
-0.021820078
  0
VERTEX
  8
0
  6
CONTINUOUS
 62
     2
 10
1107.578773501
 20
252.523599997
 30
0.0
 42
-0.021820078
  0
VERTEX
  8
0
  6
CONTINUOUS
 62
     2
 10
1107.723491637
 20
252.390990258
 30
0.0
 42
-0.021820078
  0
VERTEX
  8
0
  6
CONTINUOUS
 62
     2
 10
1107.856101376
 20
252.246272122
 30
0.0
 42
-0.021820078
  0
VERTEX
  8
0
  6
CONTINUOUS
 62
     2
 10
1107.975593479
 20
252.090546982
 30
0.0
 42
-0.021820078
  0
VERTEX
  8
0
  6
CONTINUOUS
 62
     2
 10
1108.081058538
 20
251.925
 30
0.0
 42
-0.021820078
  0
VERTEX
  8
0
  6
CONTINUOUS
 62
     2
 10
1108.1716939
 20
251.750891089
 30
0.0
 42
-0.021820078
  0
VERTEX
  8
0
  6
CONTINUOUS
 62
     2
 10
1108.246809776
 20
251.569545322
 30
0.0
 42
-0.021820078
  0
VERTEX
  8
0
  6
CONTINUOUS
 62
     2
 10
1108.305834489
 20
251.382342851
 30
0.0
 42
-0.021820078
  0
VERTEX
  8
0
  6
CONTINUOUS
 62
     2
 10
1108.348318824
 20
251.1907084
 30
0.0
 42
-0.021820078
  0
VERTEX
  8
0
  6
CONTINUOUS
 62
     2
 10
1108.37393945
 20
250.996100421
 30
0.0
 42
-0.021820078
  0
SEQEND
  8
0
  6
CONTINUOUS
 62
     2
  0
TEXT
  8
0
  6
CONTINUOUS
 62
     2
 10
1082.382501379
 20
240.4
 30
0.0
 40
10.0
  1
１
 50
0.0
 41
0.85
 51
0.0
  7
KANJI42
  0
TEXT
  8
0
  6
CONTINUOUS
 62
     2
 10
1050.482501379
 20
295.1
 30
0.0
 40
10.0
  1
（ＮＯ）
 50
0.0
 41
0.75
 51
0.0
  7
KANJI43
  0
TEXT
  8
0
  6
CONTINUOUS
 62
     2
 10
1050.482501379
 20
237.6
 30
0.0
 40
10.0
  1
（ＮＣ）
 50
0.0
 41
0.75
 51
0.0
  7
KANJI43
  0
TEXT
  8
0
  6
CONTINUOUS
 62
     2
 10
1034.357501379
 20
208.6
 30
0.0
 40
15.0
  1
外部ＬＳリミットＳＷ
 50
0.0
 41
0.9
 51
0.0
  7
KANJI33
  0
TEXT
  8
0
  6
CONTINUOUS
 62
     2
 10
1071.607501379
 20
189.6
 30
0.0
 40
15.0
  1
端子符号
 50
0.0
 41
0.9
 51
0.0
  7
KANJI33
  0
LINE
  8
0
  6
CONTINUOUS
 62
     2
 10
1176.107501379
 20
365.85
 30
0.0
 11
1022.857501379
 21
365.85
 31
0.0
  0
LINE
  8
0
  6
CONTINUOUS
 62
     2
 10
1022.857501379
 20
365.85
 30
0.0
 11
1022.857501379
 21
196.1
 31
0.0
  0
LINE
  8
0
  6
CONTINUOUS
 62
     2
 10
1022.857501379
 20
196.1
 30
0.0
 11
1061.857501379
 21
196.1
 31
0.0
  0
LINE
  8
0
  6
LTYPE1
 62
     2
 10
960.182501379
 20
550.0
 30
0.0
 11
1002.182501379
 21
550.0
 31
0.0
  0
LINE
  8
0
  6
LTYPE1
 62
     2
 10
960.182501379
 20
538.0
 30
0.0
 11
1002.182501379
 21
538.0
 31
0.0
  0
CIRCLE
  8
0
  6
CONTINUOUS
 62
     2
 10
981.182501379
 20
544.0
 30
0.0
 40
5.0
  0
CIRCLE
  8
0
  6
CONTINUOUS
 62
     2
 10
981.182501379
 20
544.0
 30
0.0
 40
4.0
  0
LINE
  8
0
  6
CONTINUOUS
 62
     1
 10
1002.182501379
 20
550.0
 30
0.0
 11
1028.0
 21
550.0
 31
0.0
  0
LINE
  8
0
  6
CONTINUOUS
 62
     1
 10
1002.182501379
 20
538.0
 30
0.0
 11
1028.0
 21
538.0
 31
0.0
  0
LINE
  8
0
  6
CONTINUOUS
 62
     2
 10
999.532501379
 20
528.0
 30
0.0
 11
1146.0
 21
528.0
 31
0.0
  0
LINE
  8
0
  6
CONTINUOUS
 62
     1
 10
852.182501379
 20
255.1
 30
0.0
 11
884.182501379
 21
255.1
 31
0.0
  0
LINE
  8
0
  6
CONTINUOUS
 62
     1
 10
852.182501379
 20
223.1
 30
0.0
 11
852.182501379
 21
255.1
 31
0.0
  0
LINE
  8
0
  6
LTYPE3
 62
     2
 10
934.443522596
 20
297.1
 30
0.0
 11
843.182501379
 21
297.1
 31
0.0
  0
LINE
  8
7
  6
CONTINUOUS
 62
     2
 10
846.782501379
 20
297.1
 30
0.0
 11
838.47402349
 21
291.535002681
 31
0.0
  0
LINE
  8
7
  6
CONTINUOUS
 62
     2
 10
846.782501379
 20
297.1
 30
0.0
 11
842.36964712
 21
288.126332005
 31
0.0
  0
LINE
  8
7
  6
CONTINUOUS
 62
     2
 10
846.782501379
 20
297.1
 30
0.0
 11
835.582501379
 21
284.3
 31
0.0
  0
LINE
  8
7
  6
CONTINUOUS
 62
     2
 10
835.582501379
 20
284.3
 30
0.0
 11
776.782501379
 21
284.3
 31
0.0
  0
TEXT
  8
7
  6
CONTINUOUS
 62
     2
 10
776.782501379
 20
288.3
 30
1.2
 40
12.0
  1
ＰＦ１／２
 50
0.0
 41
0.9
 51
0.0
  7
KANJI44
  0
LINE
  8
0
  6
CONTINUOUS
 62
     1
 10
803.182501379
 20
301.3
 30
0.0
 11
803.182501379
 21
311.6
 31
0.0
  0
LINE
  8
0
  6
CONTINUOUS
 62
     1
 10
803.182501379
 20
247.1
 30
0.0
 11
803.182501379
 21
281.3
 31
0.0
  0
LINE
  8
0
  6
LTYPE3
 62
     2
 10
858.222501379
 20
312.2
 30
0.0
 11
846.782501379
 21
312.2
 31
0.0
  0
LINE
  8
0
  6
LTYPE3
 62
     2
 10
857.682501379
 20
282.0
 30
0.0
 11
846.782501379
 21
282.0
 31
0.0
  0
LINE
  8
0
  6
LTYPE3
 62
     2
 10
851.782501379
 20
288.02
 30
0.0
 11
851.782501379
 21
278.1
 31
0.0
  0
LINE
  8
0
  6
CONTINUOUS
 62
     1
 10
913.482501379
 20
277.1
 30
0.0
 11
848.782501379
 21
277.1
 31
0.0
  0
ARC
  8
0
  6
CONTINUOUS
 62
     1
 10
848.782501379
 20
279.1
 30
0.0
 40
2.0
 50
180.0
 51
270.0
  0
TEXT
  8
0
  6
CONTINUOUS
 62
     3
 10
749.0
 20
214.8
 30
0.0
 40
18.0
  1
１６５
 50
90.0
 41
0.9
 51
0.0
  7
KANJI37
  0
LINE
  8
0
  6
CONTINUOUS
 62
     1
 10
884.182501379
 20
223.1
 30
0.0
 11
852.182501379
 21
223.1
 31
0.0
  0
LINE
  8
0
  6
LTYPE3
 62
     2
 10
820.882501379
 20
166.0
 30
0.0
 11
830.842501379
 21
166.0
 31
0.0
  0
LINE
  8
0
  6
LTYPE3
 62
     2
 10
825.882501379
 20
162.1
 30
0.0
 11
825.882501379
 21
169.98
 31
0.0
  0
LINE
  8
0
  6
LTYPE3
 62
     2
 10
820.882501379
 20
196.2
 30
0.0
 11
830.682501379
 21
196.2
 31
0.0
  0
LINE
  8
0
  6
LTYPE3
 62
     2
 10
825.882501379
 20
190.08
 30
0.0
 11
825.882501379
 21
200.1
 31
0.0
  0
LINE
  8
0
  6
LTYPE3
 62
     2
 10
822.182501379
 20
219.1
 30
0.0
 11
799.182501379
 21
219.1
 31
0.0
  0
ARC
  8
0
  6
CONTINUOUS
 62
     1
 10
822.882501379
 20
163.1
 30
0.0
 40
2.0
 50
180.0
 51
270.0
  0
LINE
  8
0
  6
CONTINUOUS
 62
     1
 10
797.482501379
 20
168.4
 30
0.0
 11
820.882501379
 21
168.4
 31
0.0
  0
ARC
  8
0
  6
CONTINUOUS
 62
     1
 10
797.482501379
 20
170.4
 30
0.0
 40
2.0
 50
180.0
 51
270.0
  0
LINE
  8
0
  6
CONTINUOUS
 62
     1
 10
795.482501379
 20
170.4
 30
0.0
 11
795.482501379
 21
191.8
 31
0.0
  0
ARC
  8
0
  6
CONTINUOUS
 62
     1
 10
797.482501379
 20
191.8
 30
0.0
 40
2.0
 50
90.0
 51
180.0
  0
LINE
  8
0
  6
CONTINUOUS
 62
     1
 10
820.882501379
 20
163.1
 30
0.0
 11
820.882501379
 21
199.1
 31
0.0
  0
ARC
  8
0
  6
CONTINUOUS
 62
     1
 10
822.882501379
 20
199.1
 30
0.0
 40
2.0
 50
90.0
 51
180.0
  0
LINE
  8
0
  6
CONTINUOUS
 62
     1
 10
822.882501379
 20
201.1
 30
0.0
 11
887.582501379
 21
201.1
 31
0.0
  0
LINE
  8
0
  6
CONTINUOUS
 62
     1
 10
822.882501379
 20
161.1
 30
0.0
 11
887.582501379
 21
161.1
 31
0.0
  0
LINE
  8
0
  6
CONTINUOUS
 62
     1
 10
803.182501379
 20
168.4
 30
0.0
 11
803.182501379
 21
166.6
 31
0.0
  0
LINE
  8
0
  6
CONTINUOUS
 62
     1
 10
923.182501379
 20
156.6
 30
0.0
 11
813.182501379
 21
156.6
 31
0.0
  0
ARC
  8
0
  6
CONTINUOUS
 62
     1
 10
813.182501379
 20
166.6
 30
0.0
 40
10.0
 50
180.0
 51
270.0
  0
LINE
  8
0
  6
CONTINUOUS
 62
     1
 10
805.190817392
 20
181.415789474
 30
0.0
 11
807.188045388
 21
219.310526316
 31
0.0
  0
LINE
  8
0
  6
CONTINUOUS
 62
     1
 10
817.174185367
 20
181.415789474
 30
0.0
 11
815.176957371
 21
219.310526316
 31
0.0
  0
ARC
  8
0
  6
CONTINUOUS
 62
     1
 10
811.182501379
 20
219.1
 30
0.0
 40
4.0
 50
356.983042101
 51
183.016952287
  0
ARC
  8
0
  6
CONTINUOUS
 62
     1
 10
811.182501379
 20
219.1
 30
0.0
 40
8.75
 50
300.219855722
 51
239.780144278
  0
ARC
  8
0
  6
CONTINUOUS
 62
     1
 10
811.182501379
 20
181.1
 30
0.0
 40
6.0
 50
176.983045121
 51
3.016954879
  0
LINE
  8
0
  6
CONTINUOUS
 62
     1
 10
816.521480162
 20
193.8
 30
0.0
 11
820.882501379
 21
193.8
 31
0.0
  0
LINE
  8
0
  6
CONTINUOUS
 62
     1
 10
797.482501379
 20
193.8
 30
0.0
 11
805.843522596
 21
193.8
 31
0.0
  0
LINE
  8
0
  6
LTYPE3
 62
     2
 10
811.182501379
 20
172.0
 30
0.0
 11
811.182501379
 21
229.5
 31
0.0
  0
LINE
  8
0
  6
LTYPE3
 62
     2
 10
801.921480162
 20
181.1
 30
0.0
 11
893.182501379
 21
181.1
 31
0.0
  0
LINE
  8
0
  6
CONTINUOUS
 62
     1
 10
803.182501379
 20
215.55563828
 30
0.0
 11
803.182501379
 21
193.75
 31
0.0
  0
LINE
  8
0
  6
CONTINUOUS
 62
     1
 10
803.182501379
 20
231.1
 30
0.0
 11
803.182501379
 21
222.64436172
 31
0.0
  0
LINE
  8
0
  6
CONTINUOUS
 62
     1
 10
786.803444363
 20
231.1
 30
0.0
 11
852.182501379
 21
231.1
 31
0.0
  0
LINE
  8
0
  6
CONTINUOUS
 62
     1
 10
852.182501379
 20
247.1
 30
0.0
 11
786.873079342
 21
247.1
 31
0.0
  0
ARC
  8
0
  6
CONTINUOUS
 62
     1
 10
792.427969957
 20
243.1
 30
0.0
 40
6.845203412
 50
144.242860688
 51
215.757139312
  0
ARC
  8
0
  6
CONTINUOUS
 62
     1
 10
781.318188727
 20
243.1
 30
0.0
 40
6.845203412
 50
324.242860688
 51
35.757139312
  0
ARC
  8
0
  6
CONTINUOUS
 62
     1
 10
781.318188727
 20
235.1
 30
0.0
 40
6.845203412
 50
324.242860688
 51
35.757139312
  0
LINE
  8
0
  6
LTYPE2
 62
     2
 10
1016.682501379
 20
239.1
 30
0.0
 11
781.838261852
 21
239.1
 31
0.0
  0
LINE
  8
0
  6
CONTINUOUS
 62
     1
 10
933.182501379
 20
309.8
 30
0.0
 11
933.182501379
 21
311.6
 31
0.0
  0
LINE
  8
0
  6
LTYPE3
 62
     2
 10
878.682501379
 20
196.2
 30
0.0
 11
889.582501379
 21
196.2
 31
0.0
  0
LINE
  8
0
  6
LTYPE3
 62
     2
 10
884.582501379
 20
190.18
 30
0.0
 11
884.582501379
 21
200.1
 31
0.0
  0
LINE
  8
0
  6
LTYPE3
 62
     2
 10
878.142501379
 20
166.0
 30
0.0
 11
889.582501379
 21
166.0
 31
0.0
  0
LINE
  8
0
  6
LTYPE3
 62
     2
 10
884.582501379
 20
162.1
 30
0.0
 11
884.582501379
 21
171.08
 31
0.0
  0
ARC
  8
0
  6
CONTINUOUS
 62
     1
 10
887.582501379
 20
199.1
 30
0.0
 40
2.0
 50
0.0
 51
90.0
  0
LINE
  8
0
  6
CONTINUOUS
 62
     1
 10
889.582501379
 20
163.1
 30
0.0
 11
889.582501379
 21
199.1
 31
0.0
  0
ARC
  8
0
  6
CONTINUOUS
 62
     1
 10
887.582501379
 20
163.1
 30
0.0
 40
2.0
 50
270.0
 51
0.0
  0
ARC
  8
0
  6
CONTINUOUS
 62
     1
 10
923.182501379
 20
166.6
 30
0.0
 40
10.0
 50
270.0
 51
0.0
  0
LINE
  8
0
  6
CONTINUOUS
 62
     1
 10
884.182501379
 20
223.1
 30
0.0
 11
884.182501379
 21
255.1
 31
0.0
  0
LINE
  8
0
  6
CONTINUOUS
 62
     1
 10
933.182501379
 20
262.64436172
 30
0.0
 11
933.182501379
 21
284.45
 31
0.0
  0
LINE
  8
0
  6
CONTINUOUS
 62
     1
 10
933.182501379
 20
247.1
 30
0.0
 11
933.182501379
 21
255.55563828
 31
0.0
  0
LINE
  8
0
  6
LTYPE2
 62
     2
 10
964.682501379
 20
229.1
 30
0.0
 11
964.682501379
 21
249.1
 31
0.0
  0
CIRCLE
  8
0
  6
CONTINUOUS
 62
     2
 10
964.682501379
 20
239.1
 30
0.0
 40
5.0
  0
CIRCLE
  8
0
  6
CONTINUOUS
 62
     2
 10
964.682501379
 20
239.1
 30
0.0
 40
4.0
  0
LINE
  8
7
  6
CONTINUOUS
 62
     2
 10
889.582501379
 20
181.1
 30
0.0
 11
897.949808964
 21
186.576144975
 31
0.0
  0
LINE
  8
7
  6
CONTINUOUS
 62
     2
 10
889.582501379
 20
181.1
 30
0.0
 11
894.090729822
 21
190.026134455
 31
0.0
  0
LINE
  8
7
  6
CONTINUOUS
 62
     2
 10
889.582501379
 20
181.1
 30
0.0
 11
902.232501379
 21
195.25
 31
0.0
  0
LINE
  8
7
  6
CONTINUOUS
 62
     2
 10
902.232501379
 20
195.25
 30
0.0
 11
961.032501379
 21
195.25
 31
0.0
  0
TEXT
  8
7
  6
CONTINUOUS
 62
     2
 10
902.232501379
 20
199.25
 30
1.2
 40
12.0
  1
ＰＦ１／２
 50
0.0
 41
0.9
 51
0.0
  7
KANJI44
  0
LINE
  8
0
  6
CONTINUOUS
 62
     1
 10
933.182501379
 20
192.3
 30
0.0
 11
933.182501379
 21
166.6
 31
0.0
  0
LINE
  8
0
  6
LTYPE3
 62
     2
 10
915.482501379
 20
312.2
 30
0.0
 11
905.522501379
 21
312.2
 31
0.0
  0
LINE
  8
0
  6
CONTINUOUS
 62
     1
 10
938.882501379
 20
309.8
 30
0.0
 11
915.482501379
 21
309.8
 31
0.0
  0
LINE
  8
0
  6
LTYPE3
 62
     2
 10
915.482501379
 20
282.0
 30
0.0
 11
905.682501379
 21
282.0
 31
0.0
  0
LINE
  8
0
  6
LTYPE3
 62
     2
 10
910.482501379
 20
288.12
 30
0.0
 11
910.482501379
 21
278.1
 31
0.0
  0
ARC
  8
0
  6
CONTINUOUS
 62
     1
 10
913.482501379
 20
279.1
 30
0.0
 40
2.0
 50
270.0
 51
0.0
  0
LINE
  8
0
  6
CONTINUOUS
 62
     1
 10
919.843522596
 20
284.4
 30
0.0
 11
915.482501379
 21
284.4
 31
0.0
  0
ARC
  8
0
  6
CONTINUOUS
 62
     1
 10
938.882501379
 20
307.8
 30
0.0
 40
2.0
 50
0.0
 51
90.0
  0
LINE
  8
0
  6
CONTINUOUS
 62
     1
 10
940.882501379
 20
307.8
 30
0.0
 11
940.882501379
 21
286.4
 31
0.0
  0
ARC
  8
0
  6
CONTINUOUS
 62
     1
 10
925.182501379
 20
297.1
 30
0.0
 40
6.0
 50
356.983045121
 51
183.016954879
  0
LINE
  8
0
  6
LTYPE3
 62
     2
 10
925.182501379
 20
306.2
 30
0.0
 11
925.182501379
 21
248.7
 31
0.0
  0
LINE
  8
0
  6
CONTINUOUS
 62
     1
 10
931.174185367
 20
296.784210526
 30
0.0
 11
929.176957371
 21
258.889473684
 31
0.0
  0
LINE
  8
0
  6
CONTINUOUS
 62
     1
 10
919.190817392
 20
296.784210526
 30
0.0
 11
921.188045388
 21
258.889473684
 31
0.0
  0
ARC
  8
0
  6
CONTINUOUS
 62
     1
 10
938.882501379
 20
286.4
 30
0.0
 40
2.0
 50
270.0
 51
0.0
  0
LINE
  8
0
  6
CONTINUOUS
 62
     1
 10
938.882501379
 20
284.4
 30
0.0
 11
930.521480162
 21
284.4
 31
0.0
  0
LINE
  8
0
  6
LTYPE3
 62
     2
 10
914.182501379
 20
259.1
 30
0.0
 11
937.182501379
 21
259.1
 31
0.0
  0
ARC
  8
0
  6
CONTINUOUS
 62
     1
 10
925.182501379
 20
259.1
 30
0.0
 40
8.75
 50
120.219855722
 51
59.780144278
  0
ARC
  8
0
  6
CONTINUOUS
 62
     1
 10
925.182501379
 20
259.1
 30
0.0
 40
4.0
 50
176.983042101
 51
3.016952287
  0
LINE
  8
0
  6
CONTINUOUS
 62
     2
 10
752.0
 20
156.6
 30
0.0
 11
755.105828541
 21
168.191109915
 31
0.0
  0
LINE
  8
0
  6
CONTINUOUS
 62
     2
 10
752.0
 20
156.6
 30
0.0
 11
748.894171459
 21
168.191109915
 31
0.0
  0
LINE
  8
0
  6
CONTINUOUS
 62
     2
 10
807.182512169
 20
156.6
 30
0.0
 11
746.0
 21
156.6
 31
0.0
  0
LINE
  8
0
  6
CONTINUOUS
 62
     2
 10
803.182501379
 20
162.4
 30
0.0
 11
803.182501379
 21
117.6
 31
0.0
  0
LINE
  8
0
  6
CONTINUOUS
 62
     2
 10
803.182501379
 20
123.6
 30
0.0
 11
814.773611295
 21
120.494171459
 31
0.0
  0
LINE
  8
0
  6
CONTINUOUS
 62
     2
 10
803.182501379
 20
123.6
 30
0.0
 11
814.773611295
 21
126.705828541
 31
0.0
  0
LINE
  8
0
  6
CONTINUOUS
 62
     2
 10
803.182501379
 20
123.6
 30
0.0
 11
933.182501379
 21
123.6
 31
0.0
  0
LINE
  8
0
  6
CONTINUOUS
 62
     2
 10
933.182501379
 20
123.6
 30
0.0
 11
921.591391464
 21
126.705828541
 31
0.0
  0
LINE
  8
0
  6
CONTINUOUS
 62
     2
 10
933.182501379
 20
123.6
 30
0.0
 11
921.591391464
 21
120.494171459
 31
0.0
  0
LINE
  8
0
  6
CONTINUOUS
 62
     2
 10
933.182501379
 20
160.600010093
 30
0.0
 11
933.182501379
 21
117.6
 31
0.0
  0
TEXT
  8
0
  6
CONTINUOUS
 62
     3
 10
843.882501379
 20
126.6
 30
0.0
 40
18.0
  1
１３０
 50
0.0
 41
0.9
 51
0.0
  7
KANJI37
  0
ARC
  8
0
  6
CONTINUOUS
 62
     1
 10
1006.437032801
 20
243.1
 30
0.0
 40
6.845203412
 50
324.242860688
 51
35.757139312
  0
ARC
  8
0
  6
CONTINUOUS
 62
     1
 10
1017.546814032
 20
243.1
 30
0.0
 40
6.845203412
 50
144.242860688
 51
215.757139312
  0
ARC
  8
0
  6
CONTINUOUS
 62
     1
 10
1017.546814032
 20
235.1
 30
0.0
 40
6.845203412
 50
144.242860688
 51
215.757139312
  0
LINE
  8
0
  6
CONTINUOUS
 62
     1
 10
1118.482501379
 20
304.6
 30
0.0
 11
1118.482501379
 21
239.9
 31
0.0
  0
ARC
  8
0
  6
CONTINUOUS
 62
     1
 10
1116.482501379
 20
239.9
 30
0.0
 40
2.0
 50
270.0
 51
0.0
  0
ARC
  8
0
  6
CONTINUOUS
 62
     1
 10
1116.482501379
 20
304.6
 30
0.0
 40
2.0
 50
0.0
 51
90.0
  0
LINE
  8
0
  6
LTYPE3
 62
     2
 10
1133.130733658
 20
335.391883092
 30
0.0
 11
1116.86727769
 21
351.655339059
 31
0.0
  0
ARC
  8
0
  6
CONTINUOUS
 62
     1
 10
1125.352559064
 20
343.170057685
 30
0.0
 40
8.75
 50
255.219855722
 51
194.780144278
  0
ARC
  8
0
  6
CONTINUOUS
 62
     1
 10
1125.352559064
 20
343.170057685
 30
0.0
 40
4.0
 50
311.983042101
 51
138.016952287
  0
LINE
  8
0
  6
CONTINUOUS
 62
     1
 10
1111.182501379
 20
321.44336985
 30
0.0
 11
1111.182501379
 21
306.6
 31
0.0
  0
LINE
  8
0
  6
LTYPE2
 62
     2
 10
1113.607501379
 20
283.1
 30
0.0
 11
1113.607501379
 21
292.6
 31
0.0
  0
LINE
  8
0
  6
CONTINUOUS
 62
     1
 10
1113.607501379
 20
253.1
 30
0.0
 11
1113.607501379
 21
262.6
 31
0.0
  0
TEXT
  8
0
  6
CONTINUOUS
 62
     2
 10
1107.382501379
 20
295.9
 30
0.0
 40
10.0
  1
３
 50
0.0
 41
0.85
 51
0.0
  7
KANJI42
  0
TEXT
  8
0
  6
CONTINUOUS
 62
     2
 10
1107.382501379
 20
240.4
 30
0.0
 40
10.0
  1
２
 50
0.0
 41
0.85
 51
0.0
  7
KANJI42
  0
TEXT
  8
0
  6
CONTINUOUS
 62
     2
 10
1116.482501379
 20
295.1
 30
0.0
 40
10.0
  1
（ＮＯ）
 50
0.0
 41
0.75
 51
0.0
  7
KANJI43
  0
TEXT
  8
0
  6
CONTINUOUS
 62
     2
 10
1116.482501379
 20
237.6
 30
0.0
 40
10.0
  1
（ＮＣ）
 50
0.0
 41
0.75
 51
0.0
  7
KANJI43
  0
LINE
  8
0
  6
CONTINUOUS
 62
     2
 10
1176.107501379
 20
196.1
 30
0.0
 11
1176.107501379
 21
365.85
 31
0.0
  0
LINE
  8
0
  6
CONTINUOUS
 62
     2
 10
1131.107501379
 20
196.1
 30
0.0
 11
1176.107501379
 21
196.1
 31
0.0
  0
CIRCLE
  8
0
  6
CONTINUOUS
 62
     1
 10
1094.0
 20
693.5
 30
0.0
 40
12.5
  0
CIRCLE
  8
0
  6
CONTINUOUS
 62
     1
 10
1094.0
 20
693.5
 30
0.0
 40
22.0
  0
CIRCLE
  8
0
  6
CONTINUOUS
 62
     1
 10
1094.0
 20
709.0
 30
0.0
 40
3.0
  0
LINE
  8
0
  6
CONTINUOUS
 62
     1
 10
1089.8
 20
676.7
 30
0.0
 11
1091.8
 21
676.4
 31
0.0
  0
LINE
  8
0
  6
CONTINUOUS
 62
     1
 10
1092.3
 20
681.1
 30
0.0
 11
1092.064615385
 21
679.530769231
 31
0.0
  0
LINE
  8
0
  6
CONTINUOUS
 62
     1
 10
1092.064615385
 20
679.530769231
 30
0.0
 11
1089.8
 21
676.7
 31
0.0
  0
LINE
  8
0
  6
CONTINUOUS
 62
     1
 10
1094.0
 20
679.1
 30
0.0
 11
1091.8
 21
676.4
 31
0.0
  0
LINE
  8
0
  6
CONTINUOUS
 62
     1
 10
1098.2
 20
676.7
 30
0.0
 11
1096.2
 21
676.4
 31
0.0
  0
LINE
  8
0
  6
CONTINUOUS
 62
     1
 10
1095.7
 20
681.1
 30
0.0
 11
1095.935384615
 21
679.530769231
 31
0.0
  0
LINE
  8
0
  6
CONTINUOUS
 62
     1
 10
1095.935384615
 20
679.530769231
 30
0.0
 11
1098.2
 21
676.7
 31
0.0
  0
LINE
  8
0
  6
CONTINUOUS
 62
     1
 10
1094.0
 20
679.1
 30
0.0
 11
1096.2
 21
676.4
 31
0.0
  0
LINE
  8
0
  6
LTYPE1
 62
     2
 10
1059.0
 20
668.5
 30
0.0
 11
1059.0
 21
718.5
 31
0.0
  0
LINE
  8
0
  6
CONTINUOUS
 62
     2
 10
1118.5
 20
718.5
 30
0.0
 11
1182.1
 21
718.5
 31
0.0
  0
LINE
  8
0
  6
CONTINUOUS
 62
     2
 10
1118.5
 20
668.5
 30
0.0
 11
1182.1
 21
668.5
 31
0.0
  0
LINE
  8
0
  6
LTYPE4
 62
     2
 10
1094.0
 20
668.5
 30
0.0
 11
1094.0
 21
725.6
 31
0.0
  0
LINE
  8
0
  6
CONTINUOUS
 62
     2
 10
1101.5
 20
703.1
 30
0.0
 11
1110.413448812
 21
711.863585469
 31
0.0
  0
LINE
  8
0
  6
CONTINUOUS
 62
     2
 10
1101.5
 20
703.1
 30
0.0
 11
1104.837480372
 21
715.14621205
 31
0.0
  0
LINE
  8
0
  6
CONTINUOUS
 62
     2
 10
1101.5
 20
703.1
 30
0.0
 11
1138.0
 21
765.1
 31
0.0
  0
LINE
  8
0
  6
CONTINUOUS
 62
     2
 10
1138.0
 20
765.1
 30
0.0
 11
1226.5
 21
765.1
 31
0.0
  0
LINE
  8
0
  6
CONTINUOUS
 62
     1
 10
1044.0
 20
719.0
 30
0.0
 11
1111.0
 21
719.0
 31
0.0
  0
LINE
  8
0
  6
CONTINUOUS
 62
     1
 10
1044.0
 20
669.0
 30
0.0
 11
1111.0
 21
669.0
 31
0.0
  0
LINE
  8
0
  6
CONTINUOUS
 62
     1
 10
1044.0
 20
669.0
 30
0.0
 11
1044.0
 21
719.0
 31
0.0
  0
ARC
  8
0
  6
CONTINUOUS
 62
     1
 10
1111.0
 20
677.0
 30
0.0
 40
8.0
 50
270.0
 51
0.0
  0
LINE
  8
0
  6
CONTINUOUS
 62
     1
 10
1119.0
 20
677.0
 30
0.0
 11
1119.0
 21
711.0
 31
0.0
  0
ARC
  8
0
  6
CONTINUOUS
 62
     1
 10
1111.0
 20
711.0
 30
0.0
 40
8.0
 50
0.0
 51
90.0
  0
LINE
  8
0
  6
CONTINUOUS
 62
     1
 10
1044.0
 20
693.5
 30
0.0
 11
1044.0
 21
668.5
 31
0.0
  0
LINE
  8
0
  6
LTYPE1
 62
     2
 10
1059.0
 20
668.5
 30
0.0
 11
1059.0
 21
718.5
 31
0.0
  0
LINE
  8
0
  6
CONTINUOUS
 62
     1
 10
1044.0
 20
661.0
 30
0.0
 11
1044.0
 21
718.5
 31
0.0
  0
LINE
  8
0
  6
CONTINUOUS
 62
     1
 10
1044.0
 20
681.0
 30
0.0
 11
1044.0
 21
711.0
 31
0.0
  0
LINE
  8
0
  6
CONTINUOUS
 62
     1
 10
1044.0
 20
694.0
 30
0.0
 11
1044.0
 21
732.0
 31
0.0
  0
LINE
  8
0
  6
CONTINUOUS
 62
     1
 10
1028.0
 20
669.0
 30
0.0
 11
999.0
 21
669.0
 31
0.0
  0
LINE
  8
0
  6
CONTINUOUS
 62
     1
 10
1028.0
 20
719.0
 30
0.0
 11
999.0
 21
719.0
 31
0.0
  0
TEXT
  8
0
  6
CONTINUOUS
 62
     2
 10
1169.6
 20
679.25
 30
0.0
 40
18.0
  1
５０
 50
90.0
 41
0.9
 51
0.0
  7
KANJI37
  0
TEXT
  8
0
  6
CONTINUOUS
 62
     2
 10
1138.0
 20
770.1
 30
0.0
 40
18.0
  1
φ２５Ｈ１０
 50
0.0
 41
0.9
 51
0.0
  7
KANJI37
  0
LINE
  8
0
  6
CONTINUOUS
 62
     1
 10
1059.0
 20
882.1
 30
0.0
 11
1119.0
 21
882.1
 31
0.0
  0
LINE
  8
0
  6
CONTINUOUS
 62
     1
 10
1119.0
 20
867.1
 30
0.0
 11
1119.0
 21
882.1
 31
0.0
  0
LINE
  8
0
  6
CONTINUOUS
 62
     1
 10
1044.0
 20
867.1
 30
0.0
 11
1119.0
 21
867.1
 31
0.0
  0
LINE
  8
0
  6
CONTINUOUS
 62
     1
 10
1072.0
 20
862.6
 30
0.0
 11
1116.0
 21
862.6
 31
0.0
  0
LINE
  8
0
  6
CONTINUOUS
 62
     1
 10
1081.5
 20
856.6
 30
0.0
 11
1106.5
 21
856.6
 31
0.0
  0
LINE
  8
0
  6
CONTINUOUS
 62
     1
 10
1106.5
 20
856.6
 30
0.0
 11
1106.5
 21
862.6
 31
0.0
  0
LINE
  8
0
  6
CONTINUOUS
 62
     1
 10
1081.5
 20
856.6
 30
0.0
 11
1081.5
 21
862.6
 31
0.0
  0
LINE
  8
0
  6
CONTINUOUS
 62
     1
 10
1116.0
 20
862.6
 30
0.0
 11
1116.0
 21
867.1
 31
0.0
  0
LINE
  8
0
  6
CONTINUOUS
 62
     1
 10
1072.0
 20
862.6
 30
0.0
 11
1072.0
 21
867.1
 31
0.0
  0
CIRCLE
  8
0
  6
CONTINUOUS
 62
     1
 10
1094.0
 20
860.6
 30
0.0
 40
2.0
  0
LINE
  8
0
  6
LTYPE4
 62
     2
 10
1090.0
 20
860.7
 30
0.0
 11
1098.2
 21
860.7
 31
0.0
  0
LINE
  8
0
  6
LTYPE1
 62
     2
 10
1106.5
 20
862.6
 30
0.0
 11
1106.5
 21
882.1
 31
0.0
  0
LINE
  8
0
  6
LTYPE1
 62
     2
 10
1081.5
 20
862.6
 30
0.0
 11
1081.5
 21
882.1
 31
0.0
  0
LINE
  8
0
  6
CONTINUOUS
 62
     1
 10
1059.0
 20
907.1
 30
0.0
 11
1119.0
 21
907.1
 31
0.0
  0
LINE
  8
0
  6
CONTINUOUS
 62
     1
 10
1119.0
 20
922.1
 30
0.0
 11
1119.0
 21
907.1
 31
0.0
  0
LINE
  8
0
  6
CONTINUOUS
 62
     1
 10
1044.0
 20
922.1
 30
0.0
 11
1119.0
 21
922.1
 31
0.0
  0
LINE
  8
0
  6
CONTINUOUS
 62
     1
 10
1072.0
 20
926.6
 30
0.0
 11
1116.0
 21
926.6
 31
0.0
  0
LINE
  8
0
  6
CONTINUOUS
 62
     1
 10
1081.5
 20
932.6
 30
0.0
 11
1106.5
 21
932.6
 31
0.0
  0
LINE
  8
0
  6
CONTINUOUS
 62
     1
 10
1106.5
 20
932.6
 30
0.0
 11
1106.5
 21
926.6
 31
0.0
  0
LINE
  8
0
  6
CONTINUOUS
 62
     1
 10
1081.5
 20
932.6
 30
0.0
 11
1081.5
 21
926.6
 31
0.0
  0
LINE
  8
0
  6
CONTINUOUS
 62
     1
 10
1116.0
 20
926.6
 30
0.0
 11
1116.0
 21
922.1
 31
0.0
  0
LINE
  8
0
  6
CONTINUOUS
 62
     1
 10
1072.0
 20
926.6
 30
0.0
 11
1072.0
 21
922.1
 31
0.0
  0
CIRCLE
  8
0
  6
CONTINUOUS
 62
     1
 10
1094.0
 20
928.6
 30
0.0
 40
2.0
  0
LINE
  8
0
  6
LTYPE4
 62
     2
 10
1090.0
 20
928.5
 30
0.0
 11
1098.2
 21
928.5
 31
0.0
  0
LINE
  8
0
  6
LTYPE1
 62
     2
 10
1106.5
 20
926.6
 30
0.0
 11
1106.5
 21
907.1
 31
0.0
  0
LINE
  8
0
  6
LTYPE1
 62
     2
 10
1081.5
 20
926.6
 30
0.0
 11
1081.5
 21
907.1
 31
0.0
  0
LINE
  8
0
  6
CONTINUOUS
 62
     1
 10
1059.0
 20
882.1
 30
0.0
 11
1059.0
 21
907.1
 31
0.0
  0
LINE
  8
0
  6
CONTINUOUS
 62
     1
 10
1044.0
 20
867.1
 30
0.0
 11
1044.0
 21
922.1
 31
0.0
  0
LINE
  8
0
  6
CONTINUOUS
 62
     1
 10
1081.5
 20
882.1
 30
0.0
 11
1081.5
 21
907.1
 31
0.0
  0
LINE
  8
0
  6
CONTINUOUS
 62
     1
 10
1106.5
 20
882.1
 30
0.0
 11
1106.5
 21
907.1
 31
0.0
  0
LINE
  8
0
  6
LTYPE4
 62
     2
 10
1094.0
 20
851.6
 30
0.0
 11
1094.0
 21
932.6
 31
0.0
  0
LINE
  8
0
  6
LTYPE4
 62
     2
 10
1094.0
 20
937.6
 30
0.0
 11
1094.0
 21
856.6
 31
0.0
  0
LINE
  8
0
  6
CONTINUOUS
 62
     1
 10
1081.5
 20
907.1
 30
0.0
 11
1081.5
 21
882.1
 31
0.0
  0
LINE
  8
0
  6
CONTINUOUS
 62
     1
 10
1106.5
 20
907.1
 30
0.0
 11
1106.5
 21
882.1
 31
0.0
  0
LINE
  8
0
  6
CONTINUOUS
 62
     2
 10
1126.5
 20
867.1
 30
0.0
 11
1204.0
 21
867.1
 31
0.0
  0
LINE
  8
0
  6
CONTINUOUS
 62
     2
 10
1126.5
 20
922.1
 30
0.0
 11
1204.0
 21
922.1
 31
0.0
  0
LINE
  8
0
  6
CONTINUOUS
 62
     2
 10
1126.5
 20
882.1
 30
0.0
 11
1175.5
 21
882.1
 31
0.0
  0
LINE
  8
0
  6
CONTINUOUS
 62
     2
 10
1126.5
 20
907.1
 30
0.0
 11
1175.5
 21
907.1
 31
0.0
  0
LINE
  8
0
  6
CONTINUOUS
 62
     2
 10
1059.0
 20
874.6
 30
0.0
 11
1059.0
 21
814.6
 31
0.0
  0
LINE
  8
0
  6
CONTINUOUS
 62
     2
 10
1059.0
 20
822.1
 30
0.0
 11
1071.074072829
 21
818.864761936
 31
0.0
  0
LINE
  8
0
  6
CONTINUOUS
 62
     2
 10
1059.0
 20
822.1
 30
0.0
 11
1071.074072829
 21
825.335238064
 31
0.0
  0
LINE
  8
0
  6
CONTINUOUS
 62
     2
 10
1059.0
 20
822.1
 30
0.0
 11
1094.0
 21
822.1
 31
0.0
  0
LINE
  8
0
  6
CONTINUOUS
 62
     2
 10
1094.0
 20
822.1
 30
0.0
 11
1081.925927171
 21
825.335238064
 31
0.0
  0
LINE
  8
0
  6
CONTINUOUS
 62
     2
 10
1094.0
 20
822.1
 30
0.0
 11
1081.925927171
 21
818.864761936
 31
0.0
  0
LINE
  8
0
  6
CONTINUOUS
 62
     2
 10
1094.0
 20
844.1
 30
0.0
 11
1094.0
 21
814.6
 31
0.0
  0
LINE
  8
0
  6
CONTINUOUS
 62
     2
 10
1059.0
 20
822.1
 30
0.0
 11
1071.074072829
 21
818.864761936
 31
0.0
  0
LINE
  8
0
  6
CONTINUOUS
 62
     2
 10
1059.0
 20
822.1
 30
0.0
 11
1071.074072829
 21
825.335238064
 31
0.0
  0
LINE
  8
0
  6
CONTINUOUS
 62
     2
 10
1077.75
 20
822.1
 30
0.0
 11
996.75
 21
822.1
 31
0.0
  0
LINE
  8
0
  6
CONTINUOUS
 62
     2
 10
1044.0
 20
822.1
 30
0.0
 11
1031.925927171
 21
825.335238064
 31
0.0
  0
LINE
  8
0
  6
CONTINUOUS
 62
     2
 10
1044.0
 20
822.1
 30
0.0
 11
1031.925927171
 21
818.864761936
 31
0.0
  0
LINE
  8
0
  6
CONTINUOUS
 62
     2
 10
1044.0
 20
859.6
 30
0.0
 11
1044.0
 21
814.6
 31
0.0
  0
LINE
  8
0
  6
LTYPE2
 62
     2
 10
976.7
 20
894.6
 30
0.0
 11
1139.0
 21
894.6
 31
0.0
  0
LINE
  8
0
  6
CONTINUOUS
 62
     1
 10
1007.776112865
 20
919.6
 30
0.0
 11
1044.0
 21
919.6
 31
0.0
  0
LINE
  8
0
  6
CONTINUOUS
 62
     1
 10
1007.776112865
 20
869.6
 30
0.0
 11
1044.0
 21
869.6
 31
0.0
  0
TEXT
  8
0
  6
CONTINUOUS
 62
     2
 10
1163.0
 20
925.85
 30
0.0
 40
18.0
  1
２５
 50
90.0
 41
0.9
 51
0.0
  7
KANJI37
  0
TEXT
  8
0
  6
CONTINUOUS
 62
     2
 10
1062.25
 20
827.1
 30
0.0
 40
18.0
  1
３５
 50
0.0
 41
0.9
 51
0.0
  7
KANJI37
  0
TEXT
  8
0
  6
CONTINUOUS
 62
     2
 10
997.75
 20
825.1
 30
0.0
 40
18.0
  1
１５
 50
0.0
 41
0.9
 51
0.0
  7
KANJI37
  0
LINE
  8
2
  6
CONTINUOUS
 62
     2
 10
1094.0
 20
820.1
 30
0.0
 11
1094.0
 21
816.1
 31
0.0
  0
LINE
  8
2
  6
CONTINUOUS
 62
     2
 10
1094.0
 20
822.1
 30
0.0
 11
1079.511112606
 21
825.982285677
 31
0.0
  0
LINE
  8
2
  6
CONTINUOUS
 62
     2
 10
1094.0
 20
822.1
 30
0.0
 11
1079.511112606
 21
818.217714323
 31
0.0
  0
LINE
  8
2
  6
CONTINUOUS
 62
     2
 10
1071.5
 20
822.1
 30
0.0
 11
1094.0
 21
822.1
 31
0.0
  0
LINE
  8
2
  6
CONTINUOUS
 62
     2
 10
1094.0
 20
822.1
 30
0.0
 11
1119.0
 21
822.1
 31
0.0
  0
LINE
  8
2
  6
CONTINUOUS
 62
     2
 10
1119.0
 20
822.1
 30
0.0
 11
1173.9
 21
822.1
 31
0.0
  0
LINE
  8
2
  6
CONTINUOUS
 62
     2
 10
1119.0
 20
822.1
 30
0.0
 11
1133.488887394
 21
818.217714323
 31
0.0
  0
LINE
  8
2
  6
CONTINUOUS
 62
     2
 10
1119.0
 20
822.1
 30
0.0
 11
1133.488887394
 21
825.982285677
 31
0.0
  0
LINE
  8
2
  6
CONTINUOUS
 62
     2
 10
1119.0
 20
861.1
 30
0.0
 11
1119.0
 21
816.1
 31
0.0
  0
TEXT
  8
2
  6
CONTINUOUS
 62
     3
 10
1141.5
 20
828.1
 30
0.0
 40
18.0
  1
２５
 50
0.0
 41
0.9
 51
0.0
  7
KANJI37
  0
LINE
  8
0
  6
CONTINUOUS
 62
     1
 10
964.0
 20
659.0
 30
0.0
 11
964.0
 21
729.0
 31
0.0
  0
LINE
  8
0
  6
CONTINUOUS
 62
     1
 10
999.0
 20
659.0
 30
0.0
 11
999.0
 21
729.0
 31
0.0
  0
LINE
  8
0
  6
CONTINUOUS
 62
     1
 10
1028.0
 20
732.0
 30
0.0
 11
1044.0
 21
732.0
 31
0.0
  0
LINE
  8
0
  6
CONTINUOUS
 62
     2
 10
1117.0
 20
694.0
 30
0.0
 11
1146.0
 21
694.0
 31
0.0
  0
LINE
  8
0
  6
CONTINUOUS
 62
     2
 10
1140.0
 20
694.0
 30
0.0
 11
1136.894171459
 21
682.408890085
 31
0.0
  0
LINE
  8
0
  6
CONTINUOUS
 62
     2
 10
1140.0
 20
694.0
 30
0.0
 11
1143.105828541
 21
682.408890085
 31
0.0
  0
LINE
  8
0
  6
CONTINUOUS
 62
     2
 10
1140.0
 20
694.0
 30
0.0
 11
1140.0
 21
528.0
 31
0.0
  0
LINE
  8
0
  6
CONTINUOUS
 62
     2
 10
1140.0
 20
528.0
 30
0.0
 11
1143.105828541
 21
539.591109915
 31
0.0
  0
LINE
  8
0
  6
CONTINUOUS
 62
     2
 10
1140.0
 20
528.0
 30
0.0
 11
1136.894171459
 21
539.591109915
 31
0.0
  0
TEXT
  8
0
  6
CONTINUOUS
 62
     3
 10
1137.0
 20
586.7
 30
0.0
 40
18.0
  1
１６６
 50
90.0
 41
0.9
 51
0.0
  7
KANJI37
  0
LINE
  8
0
  6
CONTINUOUS
 62
     2
 10
1196.5
 20
867.1
 30
0.0
 11
1199.735238064
 21
879.174072829
 31
0.0
  0
LINE
  8
0
  6
CONTINUOUS
 62
     2
 10
1196.5
 20
867.1
 30
0.0
 11
1193.264761936
 21
879.174072829
 31
0.0
  0
LINE
  8
0
  6
CONTINUOUS
 62
     2
 10
1196.5
 20
867.1
 30
0.0
 11
1196.5
 21
922.1
 31
0.0
  0
LINE
  8
0
  6
CONTINUOUS
 62
     2
 10
1196.5
 20
922.1
 30
0.0
 11
1193.264761936
 21
910.025927171
 31
0.0
  0
LINE
  8
0
  6
CONTINUOUS
 62
     2
 10
1196.5
 20
922.1
 30
0.0
 11
1199.735238064
 21
910.025927171
 31
0.0
  0
LINE
  8
0
  6
CONTINUOUS
 62
     2
 10
1168.0
 20
882.1
 30
0.0
 11
1164.764761936
 21
870.025927171
 31
0.0
  0
LINE
  8
0
  6
CONTINUOUS
 62
     2
 10
1168.0
 20
882.1
 30
0.0
 11
1171.235238064
 21
870.025927171
 31
0.0
  0
LINE
  8
0
  6
CONTINUOUS
 62
     2
 10
1168.0
 20
863.35
 30
0.0
 11
1168.0
 21
954.35
 31
0.0
  0
LINE
  8
0
  6
CONTINUOUS
 62
     2
 10
1168.0
 20
907.1
 30
0.0
 11
1171.235238064
 21
919.174072829
 31
0.0
  0
LINE
  8
0
  6
CONTINUOUS
 62
     2
 10
1168.0
 20
907.1
 30
0.0
 11
1164.764761936
 21
919.174072829
 31
0.0
  0
TEXT
  8
0
  6
CONTINUOUS
 62
     2
 10
1191.5
 20
880.35
 30
0.0
 40
18.0
  1
５５
 50
90.0
 41
0.9
 51
0.0
  7
KANJI37
  0
LINE
  8
0
  6
CONTINUOUS
 62
     2
 10
1174.6
 20
718.5
 30
0.0
 11
1171.364761936
 21
706.425927171
 31
0.0
  0
LINE
  8
0
  6
CONTINUOUS
 62
     2
 10
1174.6
 20
718.5
 30
0.0
 11
1177.835238064
 21
706.425927171
 31
0.0
  0
LINE
  8
0
  6
CONTINUOUS
 62
     2
 10
1174.6
 20
718.5
 30
0.0
 11
1174.6
 21
668.5
 31
0.0
  0
LINE
  8
0
  6
CONTINUOUS
 62
     2
 10
1174.6
 20
668.5
 30
0.0
 11
1177.835238064
 21
680.574072829
 31
0.0
  0
LINE
  8
0
  6
CONTINUOUS
 62
     2
 10
1174.6
 20
668.5
 30
0.0
 11
1171.364761936
 21
680.574072829
 31
0.0
  0
TEXT
  8
0
  6
CONTINUOUS
 62
     2
 10
1182.5
 20
745.6
 30
0.0
 40
18.0
  1
ｄ９
 50
0.0
 41
0.9
 51
0.0
  7
KANJI37
  0
LINE
  8
0
  6
LTYPE3
 62
     3
 10
1499.0
 20
592.4875
 30
0.0
 11
1499.0
 21
637.65
 31
0.0
  0
ARC
  8
0
  6
CONTINUOUS
 62
     1
 10
1428.0
 20
622.5
 30
0.0
 40
6.0
 50
180.0
 51
270.0
  0
ARC
  8
0
  6
CONTINUOUS
 62
     1
 10
1451.0
 20
631.5
 30
0.0
 40
3.0
 50
90.0
 51
180.0
  0
LINE
  8
0
  6
CONTINUOUS
 62
     1
 10
1448.0
 20
585.0
 30
0.0
 11
1448.0
 21
631.5
 31
0.0
  0
ARC
  8
0
  6
CONTINUOUS
 62
     1
 10
1449.0
 20
585.0
 30
0.0
 40
1.0
 50
180.0
 51
270.0
  0
ARC
  8
0
  6
CONTINUOUS
 62
     1
 10
1452.0
 20
584.0
 30
0.0
 40
1.0
 50
180.0
 51
270.0
  0
ARC
  8
0
  6
CONTINUOUS
 62
     1
 10
1547.0
 20
631.5
 30
0.0
 40
3.0
 50
0.0
 51
90.0
  0
LINE
  8
0
  6
CONTINUOUS
 62
     1
 10
1550.0
 20
585.0
 30
0.0
 11
1550.0
 21
631.5
 31
0.0
  0
ARC
  8
0
  6
CONTINUOUS
 62
     1
 10
1549.0
 20
585.0
 30
0.0
 40
1.0
 50
270.0
 51
0.0
  0
ARC
  8
0
  6
CONTINUOUS
 62
     1
 10
1546.0
 20
584.0
 30
0.0
 40
1.0
 50
270.0
 51
0.0
  0
LINE
  8
0
  6
CONTINUOUS
 62
     1
 10
1550.0
 20
590.0
 30
0.0
 11
1448.0
 21
590.0
 31
0.0
  0
LINE
  8
0
  6
CONTINUOUS
 62
     1
 10
1550.0
 20
591.5
 30
0.0
 11
1448.0
 21
591.5
 31
0.0
  0
LINE
  8
0
  6
CONTINUOUS
 62
     1
 10
1451.0
 20
634.5
 30
0.0
 11
1547.0
 21
634.5
 31
0.0
  0
LINE
  8
0
  6
CONTINUOUS
 62
     1
 10
1546.0
 20
583.0
 30
0.0
 11
1452.0
 21
583.0
 31
0.0
  0
LINE
  8
0
  6
CONTINUOUS
 62
     1
 10
1549.0
 20
584.0
 30
0.0
 11
1449.0
 21
584.0
 31
0.0
  0
LINE
  8
0
  6
CONTINUOUS
 62
     1
 10
1454.0
 20
636.0
 30
0.0
 11
1544.0
 21
636.0
 31
0.0
  0
LINE
  8
0
  6
CONTINUOUS
 62
     1
 10
1544.0
 20
635.0
 30
0.0
 11
1553.0
 21
635.0
 31
0.0
  0
LINE
  8
0
  6
CONTINUOUS
 62
     1
 10
1454.0
 20
635.0
 30
0.0
 11
1445.0
 21
635.0
 31
0.0
  0
LINE
  8
0
  6
CONTINUOUS
 62
     1
 10
1550.0
 20
616.5
 30
0.0
 11
1570.0
 21
616.5
 31
0.0
  0
LINE
  8
0
  6
CONTINUOUS
 62
     1
 10
1428.0
 20
616.5
 30
0.0
 11
1448.0
 21
616.5
 31
0.0
  0
LINE
  8
0
  6
LTYPE3
 62
     2
 10
1544.0
 20
579.3
 30
0.0
 11
1544.0
 21
598.0
 31
0.0
  0
LINE
  8
0
  6
LTYPE3
 62
     2
 10
1454.0
 20
579.3
 30
0.0
 11
1454.0
 21
598.0
 31
0.0
  0
LINE
  8
0
  6
LTYPE3
 62
     3
 10
1499.0
 20
592.4875
 30
0.0
 11
1499.0
 21
637.65
 31
0.0
  0
LINE
  8
0
  6
CONTINUOUS
 62
     2
 10
1422.0
 20
615.0
 30
0.0
 11
1422.0
 21
527.3
 31
0.0
  0
LINE
  8
0
  6
CONTINUOUS
 62
     2
 10
1422.0
 20
534.8
 30
0.0
 11
1434.074072829
 21
531.564761936
 31
0.0
  0
LINE
  8
0
  6
CONTINUOUS
 62
     2
 10
1422.0
 20
534.8
 30
0.0
 11
1434.074072829
 21
538.035238064
 31
0.0
  0
LINE
  8
0
  6
CONTINUOUS
 62
     2
 10
1422.0
 20
534.8
 30
0.0
 11
1576.0
 21
534.8
 31
0.0
  0
LINE
  8
0
  6
CONTINUOUS
 62
     2
 10
1419.0
 20
494.3375
 30
0.0
 11
1431.074072829
 21
491.102261936
 31
0.0
  0
LINE
  8
0
  6
CONTINUOUS
 62
     2
 10
1419.0
 20
494.3375
 30
0.0
 11
1431.074072829
 21
497.572738064
 31
0.0
  0
LINE
  8
0
  6
CONTINUOUS
 62
     2
 10
1419.0
 20
494.3375
 30
0.0
 11
1579.0
 21
494.3375
 31
0.0
  0
CIRCLE
  8
0
  6
CONTINUOUS
 62
     2
 10
1499.0
 20
608.5
 30
0.0
 40
10.4775
  0
CIRCLE
  8
0
  6
CONTINUOUS
 62
     2
 10
1499.0
 20
608.5
 30
0.0
 40
9.3155
  0
LINE
  8
0
  6
LTYPE2
 62
     2
 10
1518.9
 20
608.5
 30
0.0
 11
1478.2
 21
608.5
 31
0.0
  0
LINE
  8
0
  6
CONTINUOUS
 62
     2
 10
1499.0
 20
563.1
 30
0.0
 11
1486.925927171
 21
566.335238064
 31
0.0
  0
LINE
  8
0
  6
CONTINUOUS
 62
     2
 10
1499.0
 20
563.1
 30
0.0
 11
1486.925927171
 21
559.864761936
 31
0.0
  0
ARC
  8
0
  6
CONTINUOUS
 62
     1
 10
1570.0
 20
622.5
 30
0.0
 40
6.0
 50
270.0
 51
0.0
  0
ARC
  8
0
  6
CONTINUOUS
 62
     1
 10
1553.0
 20
640.0
 30
0.0
 40
5.0
 50
270.0
 51
360.0
  0
LINE
  8
0
  6
CONTINUOUS
 62
     1
 10
1558.0
 20
670.474953509
 30
0.0
 11
1558.0
 21
640.0
 31
0.0
  0
LINE
  8
0
  6
CONTINUOUS
 62
     1
 10
1576.0
 20
622.5
 30
0.0
 11
1576.0
 21
672.639279073
 31
0.0
  0
LINE
  8
0
  6
CONTINUOUS
 62
     2
 10
1553.5
 20
583.0
 30
0.0
 11
1655.372218677
 21
583.0
 31
0.0
  0
LINE
  8
0
  6
CONTINUOUS
 62
     2
 10
1576.0
 20
534.8
 30
0.0
 11
1563.925927171
 21
538.035238064
 31
0.0
  0
LINE
  8
0
  6
CONTINUOUS
 62
     2
 10
1576.0
 20
534.8
 30
0.0
 11
1563.925927171
 21
531.564761936
 31
0.0
  0
LINE
  8
0
  6
CONTINUOUS
 62
     2
 10
1576.0
 20
615.0
 30
0.0
 11
1576.0
 21
527.3
 31
0.0
  0
LINE
  8
0
  6
CONTINUOUS
 62
     2
 10
1579.0
 20
494.3375
 30
0.0
 11
1566.925927171
 21
497.572738064
 31
0.0
  0
LINE
  8
0
  6
CONTINUOUS
 62
     2
 10
1579.0
 20
494.3375
 30
0.0
 11
1566.925927171
 21
491.102261936
 31
0.0
  0
TEXT
  8
0
  6
CONTINUOUS
 62
     2
 10
1477.25
 20
539.8
 30
0.0
 40
18.0
  1
１５４
 50
0.0
 41
0.9
 51
0.0
  7
KANJI37
  0
TEXT
  8
0
  6
CONTINUOUS
 62
     2
 10
1477.25
 20
499.3375
 30
0.0
 40
18.0
  1
１６０
 50
0.0
 41
0.9
 51
0.0
  7
KANJI37
  0
TEXT
  8
0
  6
CONTINUOUS
 62
     2
 10
1361.043594187
 20
568.1
 30
0.0
 40
18.0
  1
１７５
 50
0.0
 41
0.9
 51
0.0
  7
KANJI37
  0
CIRCLE
  8
0
  6
CONTINUOUS
 62
     1
 10
1546.0
 20
741.0
 30
0.0
 40
9.0
  0
LINE
  8
0
  6
CONTINUOUS
 62
     1
 10
1526.5
 20
719.0
 30
0.0
 11
1511.5
 21
719.0
 31
0.0
  0
LINE
  8
0
  6
CONTINUOUS
 62
     1
 10
1531.0
 20
672.0
 30
0.0
 11
1531.0
 21
716.0
 31
0.0
  0
LINE
  8
0
  6
CONTINUOUS
 62
     1
 10
1537.0
 20
681.5
 30
0.0
 11
1537.0
 21
706.5
 31
0.0
  0
LINE
  8
0
  6
CONTINUOUS
 62
     1
 10
1537.0
 20
706.5
 30
0.0
 11
1531.0
 21
706.5
 31
0.0
  0
LINE
  8
0
  6
CONTINUOUS
 62
     1
 10
1537.0
 20
681.5
 30
0.0
 11
1531.0
 21
681.5
 31
0.0
  0
LINE
  8
0
  6
CONTINUOUS
 62
     1
 10
1531.0
 20
716.0
 30
0.0
 11
1526.5
 21
716.0
 31
0.0
  0
LINE
  8
0
  6
CONTINUOUS
 62
     1
 10
1531.0
 20
672.0
 30
0.0
 11
1526.5
 21
672.0
 31
0.0
  0
CIRCLE
  8
0
  6
CONTINUOUS
 62
     1
 10
1533.0
 20
694.0
 30
0.0
 40
2.0
  0
LINE
  8
0
  6
CONTINUOUS
 62
     1
 10
1467.0
 20
672.0
 30
0.0
 11
1467.0
 21
716.0
 31
0.0
  0
LINE
  8
0
  6
CONTINUOUS
 62
     1
 10
1461.0
 20
681.5
 30
0.0
 11
1461.0
 21
706.5
 31
0.0
  0
LINE
  8
0
  6
CONTINUOUS
 62
     1
 10
1461.0
 20
706.5
 30
0.0
 11
1467.0
 21
706.5
 31
0.0
  0
LINE
  8
0
  6
CONTINUOUS
 62
     1
 10
1461.0
 20
681.5
 30
0.0
 11
1467.0
 21
681.5
 31
0.0
  0
LINE
  8
0
  6
CONTINUOUS
 62
     1
 10
1467.0
 20
716.0
 30
0.0
 11
1471.5
 21
716.0
 31
0.0
  0
LINE
  8
0
  6
CONTINUOUS
 62
     1
 10
1467.0
 20
672.0
 30
0.0
 11
1471.5
 21
672.0
 31
0.0
  0
CIRCLE
  8
0
  6
CONTINUOUS
 62
     1
 10
1465.0
 20
694.0
 30
0.0
 40
2.0
  0
LINE
  8
0
  6
CONTINUOUS
 62
     1
 10
1511.5
 20
681.5
 30
0.0
 11
1486.5
 21
681.5
 31
0.0
  0
LINE
  8
0
  6
CONTINUOUS
 62
     1
 10
1511.5
 20
706.5
 30
0.0
 11
1486.5
 21
706.5
 31
0.0
  0
LINE
  8
0
  6
CONTINUOUS
 62
     1
 10
1486.5
 20
681.5
 30
0.0
 11
1511.5
 21
681.5
 31
0.0
  0
LINE
  8
0
  6
CONTINUOUS
 62
     1
 10
1486.5
 20
706.5
 30
0.0
 11
1511.5
 21
706.5
 31
0.0
  0
LINE
  8
0
  6
CONTINUOUS
 62
     1
 10
1471.5
 20
719.0
 30
0.0
 11
1511.5
 21
719.0
 31
0.0
  0
LINE
  8
0
  6
CONTINUOUS
 62
     1
 10
1526.5
 20
669.0
 30
0.0
 11
1526.5
 21
719.0
 31
0.0
  0
LINE
  8
0
  6
CONTINUOUS
 62
     1
 10
1471.5
 20
669.0
 30
0.0
 11
1526.5
 21
669.0
 31
0.0
  0
LINE
  8
0
  6
CONTINUOUS
 62
     1
 10
1511.5
 20
669.0
 30
0.0
 11
1511.5
 21
719.0
 31
0.0
  0
LINE
  8
0
  6
CONTINUOUS
 62
     1
 10
1486.5
 20
669.0
 30
0.0
 11
1486.5
 21
719.0
 31
0.0
  0
LINE
  8
0
  6
CONTINUOUS
 62
     1
 10
1471.5
 20
669.0
 30
0.0
 11
1471.5
 21
719.0
 31
0.0
  0
LINE
  8
0
  6
LTYPE3
 62
     2
 10
1533.6
 20
741.0
 30
0.0
 11
1557.4
 21
741.0
 31
0.0
  0
LINE
  8
0
  6
LTYPE3
 62
     2
 10
1546.0
 20
729.665527109
 30
0.0
 11
1546.0
 21
751.765527109
 31
0.0
  0
LINE
  8
0
  6
LTYPE4
 62
     2
 10
1532.9
 20
690.0
 30
0.0
 11
1532.9
 21
698.2
 31
0.0
  0
LINE
  8
0
  6
LTYPE1
 62
     2
 10
1531.0
 20
706.5
 30
0.0
 11
1511.5
 21
706.5
 31
0.0
  0
LINE
  8
0
  6
LTYPE1
 62
     2
 10
1531.0
 20
681.5
 30
0.0
 11
1511.5
 21
681.5
 31
0.0
  0
LINE
  8
0
  6
LTYPE4
 62
     2
 10
1465.1
 20
690.0
 30
0.0
 11
1465.1
 21
698.2
 31
0.0
  0
LINE
  8
0
  6
LTYPE1
 62
     2
 10
1467.0
 20
706.5
 30
0.0
 11
1486.5
 21
706.5
 31
0.0
  0
LINE
  8
0
  6
LTYPE1
 62
     2
 10
1467.0
 20
681.5
 30
0.0
 11
1486.5
 21
681.5
 31
0.0
  0
LINE
  8
0
  6
CONTINUOUS
 62
     1
 10
1524.0
 20
753.0
 30
0.0
 11
1553.0
 21
753.0
 31
0.0
  0
LINE
  8
0
  6
CONTINUOUS
 62
     1
 10
1499.0
 20
753.0
 30
0.0
 11
1499.0
 21
753.0
 31
0.0
  0
LINE
  8
0
  6
CONTINUOUS
 62
     1
 10
1579.0
 20
673.0
 30
0.0
 11
1579.0
 21
715.0
 31
0.0
  0
ARC
  8
0
  6
CONTINUOUS
 62
     1
 10
1553.0
 20
748.0
 30
0.0
 40
5.0
 50
0.0
 51
90.0
  0
LINE
  8
0
  6
CONTINUOUS
 62
     1
 10
1558.0
 20
717.525046491
 30
0.0
 11
1558.0
 21
748.0
 31
0.0
  0
LINE
  8
0
  6
LTYPE1
 62
     2
 10
1554.0
 20
684.0
 30
0.0
 11
1554.0
 21
704.0
 31
0.0
  0
LINE
  8
0
  6
LTYPE1
 62
     2
 10
1554.0
 20
704.0
 30
0.0
 11
1579.0
 21
704.0
 31
0.0
  0
LINE
  8
0
  6
LTYPE1
 62
     2
 10
1554.0
 20
684.0
 30
0.0
 11
1579.0
 21
684.0
 31
0.0
  0
LINE
  8
0
  6
CONTINUOUS
 62
     2
 10
1579.0
 20
665.5
 30
0.0
 11
1579.0
 21
486.8375
 31
0.0
  0
LINE
  8
0
  6
CONTINUOUS
 62
     2
 10
1625.5
 20
694.0
 30
0.0
 11
1670.372218677
 21
694.0
 31
0.0
  0
LINE
  8
0
  6
CONTINUOUS
 62
     2
 10
1586.5
 20
704.0
 30
0.0
 11
1633.0
 21
704.0
 31
0.0
  0
LINE
  8
0
  6
CONTINUOUS
 62
     2
 10
1625.5
 20
704.0
 30
0.0
 11
1628.735238064
 21
716.074072829
 31
0.0
  0
LINE
  8
0
  6
CONTINUOUS
 62
     2
 10
1625.5
 20
704.0
 30
0.0
 11
1622.264761936
 21
716.074072829
 31
0.0
  0
LINE
  8
0
  6
CONTINUOUS
 62
     2
 10
1625.5
 20
684.0
 30
0.0
 11
1622.264761936
 21
671.925927171
 31
0.0
  0
LINE
  8
0
  6
CONTINUOUS
 62
     2
 10
1625.5
 20
684.0
 30
0.0
 11
1628.735238064
 21
671.925927171
 31
0.0
  0
LINE
  8
0
  6
CONTINUOUS
 62
     2
 10
1586.5
 20
684.0
 30
0.0
 11
1633.0
 21
684.0
 31
0.0
  0
LINE
  8
0
  6
CONTINUOUS
 62
     2
 10
1599.5
 20
694.0
 30
0.0
 11
1670.372218677
 21
694.0
 31
0.0
  0
LINE
  8
0
  6
CONTINUOUS
 62
     2
 10
1655.372218677
 20
583.0
 30
0.0
 11
1706.122218677
 21
583.0
 31
0.0
  0
LINE
  8
0
  6
CONTINUOUS
 62
     2
 10
1698.622218677
 20
583.0
 30
0.0
 11
1701.85745674
 21
595.074072829
 31
0.0
  0
LINE
  8
0
  6
CONTINUOUS
 62
     2
 10
1698.622218677
 20
583.0
 30
0.0
 11
1695.386980613
 21
595.074072829
 31
0.0
  0
LINE
  8
0
  6
CONTINUOUS
 62
     2
 10
1662.872218677
 20
694.0
 30
0.0
 11
1659.636980613
 21
681.925927171
 31
0.0
  0
LINE
  8
0
  6
CONTINUOUS
 62
     2
 10
1662.872218677
 20
694.0
 30
0.0
 11
1666.10745674
 21
681.925927171
 31
0.0
  0
LINE
  8
0
  6
CONTINUOUS
 62
     2
 10
1662.872218677
 20
694.0
 30
0.0
 11
1662.872218677
 21
583.0
 31
0.0
  0
LINE
  8
0
  6
CONTINUOUS
 62
     2
 10
1662.872218677
 20
583.0
 30
0.0
 11
1666.10745674
 21
595.074072829
 31
0.0
  0
LINE
  8
0
  6
CONTINUOUS
 62
     2
 10
1662.872218677
 20
583.0
 30
0.0
 11
1659.636980613
 21
595.074072829
 31
0.0
  0
LINE
  8
0
  6
CONTINUOUS
 62
     2
 10
1662.872218677
 20
694.0
 30
0.0
 11
1666.10745674
 21
706.074072829
 31
0.0
  0
LINE
  8
0
  6
CONTINUOUS
 62
     2
 10
1662.872218677
 20
694.0
 30
0.0
 11
1659.636980613
 21
706.074072829
 31
0.0
  0
TEXT
  8
0
  6
CONTINUOUS
 62
     2
 10
1620.222218677
 20
709.75
 30
0.0
 40
18.0
  1
φ２０Ｈ１０深さ２５
 50
90.0
 41
0.9
 51
0.0
  7
KANJI37
  0
TEXT
  8
0
  6
CONTINUOUS
 62
     2
 10
1657.872218677
 20
616.75
 30
0.0
 40
18.0
  1
１１１
 50
90.0
 41
0.9
 51
0.0
  7
KANJI37
  0
LINE
  8
0
  6
CONTINUOUS
 62
     2
 10
1625.5
 20
870.0
 30
0.0
 11
1625.5
 21
665.25
 31
0.0
  0
LINE
  8
7
  6
CONTINUOUS
 62
     2
 10
1336.917646349
 20
737.429835768
 30
0.0
 11
1300.117646349
 21
819.429835768
 31
0.0
  0
TEXT
  8
7
  6
CONTINUOUS
 62
     2
 10
1311.623822488
 20
702.829880312
 30
0.0
 40
15.0
  1
約１５゜
 50
82.5
 41
0.9
 51
0.0
  7
KANJI33
  0
TEXT
  8
7
  6
CONTINUOUS
 62
     2
 10
1233.517091025
 20
823.429835768
 30
0.0
 40
15.0
  1
ＬＳユニット組付位置
 50
0.0
 41
0.9
 51
0.0
  7
KANJI33
  0
LINE
  8
0
  6
CONTINUOUS
 62
     2
 10
1328.087188375
 20
650.12609696
 30
0.0
 11
1328.087188375
 21
555.6
 31
0.0
  0
LINE
  8
0
  6
CONTINUOUS
 62
     2
 10
1328.087188375
 20
563.1
 30
0.0
 11
1340.161261203
 21
559.864761936
 31
0.0
  0
LINE
  8
0
  6
CONTINUOUS
 62
     2
 10
1328.087188375
 20
563.1
 30
0.0
 11
1340.161261203
 21
566.335238064
 31
0.0
  0
LINE
  8
0
  6
CONTINUOUS
 62
     2
 10
1328.087188375
 20
563.1
 30
0.0
 11
1499.0
 21
563.1
 31
0.0
  0
LINE
  8
0
  6
CONTINUOUS
 62
     1
 10
1338.322294753
 20
720.262575811
 30
0.0
 11
1325.567368687
 21
672.660543685
 31
0.0
  0
LINE
  8
0
  6
LTYPE4
 62
     2
 10
1347.433594693
 20
707.901970447
 30
0.0
 11
1360.374546948
 21
756.198261762
 31
0.0
  0
ARC
  8
0
  6
LTYPE1
 62
     1
 10
1354.111126057
 20
732.822856765
 30
0.0
 40
16.0
 50
255.0
 51
129.340912304
  0
ARC
  8
0
  6
CONTINUOUS
 62
     1
 10
1354.111126057
 20
732.822856765
 30
0.0
 40
16.0
 50
129.340912304
 51
200.659087696
  0
LINE
  8
0
  6
CONTINUOUS
 62
     1
 10
1345.596768035
 20
716.501653255
 30
0.0
 11
1342.806375205
 21
706.08776544
 31
0.0
  0
LINE
  8
0
  6
LTYPE3
 62
     2
 10
1336.184524248
 20
716.920751635
 30
0.0
 11
1354.730300112
 21
711.951425969
 31
0.0
  0
LINE
  8
0
  6
LTYPE1
 62
     2
 10
1347.818671407
 20
722.862057877
 30
0.0
 11
1354.580152191
 21
721.050324562
 31
0.0
  0
ARC
  8
0
  6
LTYPE1
 62
     1
 10
1354.111126057
 20
732.822856765
 30
0.0
 40
16.0
 50
200.659087696
 51
255.0
  0
LINE
  8
0
  6
LTYPE1
 62
     1
 10
1338.637730465
 20
721.439797912
 30
0.0
 11
1338.322294753
 21
720.262575811
 31
0.0
  0
LINE
  8
0
  6
LTYPE1
 62
     1
 10
1346.365137075
 20
719.369245551
 30
0.0
 11
1345.596768035
 21
716.501653255
 31
0.0
  0
LINE
  8
0
  6
LTYPE1
 62
     1
 10
1338.637730465
 20
721.439797912
 30
0.0
 11
1348.216494909
 21
718.873175715
 31
0.0
  0
CIRCLE
  8
0
  6
CONTINUOUS
 62
     1
 10
1354.111126057
 20
732.822856765
 30
0.0
 40
6.49995
  0
CIRCLE
  8
0
  6
LTYPE1
 62
     2
 10
1354.111126057
 20
732.822856765
 30
0.0
 40
3.2
  0
CIRCLE
  8
0
  6
CONTINUOUS
 62
     1
 10
1354.111126057
 20
732.822856765
 30
0.0
 40
4.0
  0
LINE
  8
0
  6
CONTINUOUS
 62
     1
 10
1356.048168253
 20
725.574584464
 30
0.0
 11
1348.809462156
 21
727.514189917
 31
0.0
  0
LINE
  8
0
  6
CONTINUOUS
 62
     1
 10
1348.809462156
 20
727.514189917
 30
0.0
 11
1346.872419959
 21
734.762462219
 31
0.0
  0
LINE
  8
0
  6
CONTINUOUS
 62
     1
 10
1352.630921258
 20
713.775695683
 30
0.0
 11
1350.050818902
 21
704.146622602
 31
0.0
  0
LINE
  8
0
  6
CONTINUOUS
 62
     1
 10
1352.17408386
 20
740.071129067
 30
0.0
 11
1346.872419959
 21
734.762462219
 31
0.0
  0
LINE
  8
7
  6
CONTINUOUS
 62
     2
 10
1336.917646349
 20
737.429835768
 30
0.0
 11
1335.324070101
 21
747.302044981
 31
0.0
  0
LINE
  8
7
  6
CONTINUOUS
 62
     2
 10
1336.917646349
 20
737.429835768
 30
0.0
 11
1330.601464229
 21
745.182631614
 31
0.0
  0
LINE
  8
0
  6
CONTINUOUS
 62
     1
 10
1338.318852251
 20
724.113431523
 30
0.0
 11
1344.789328379
 21
748.26157718
 31
0.0
  0
LINE
  8
0
  6
CONTINUOUS
 62
     1
 10
1346.987355887
 20
719.75954612
 30
0.0
 11
1343.289338118
 21
705.958355917
 31
0.0
  0
LINE
  8
0
  6
LTYPE1
 62
     2
 10
1347.818671407
 20
722.862057877
 30
0.0
 11
1346.987355887
 21
719.75954612
 31
0.0
  0
LINE
  8
0
  6
CONTINUOUS
 62
     1
 10
1344.789328379
 20
748.26157718
 30
0.0
 11
1485.463435192
 21
740.073435005
 31
0.0
  0
LINE
  8
0
  6
CONTINUOUS
 62
     1
 10
1338.318852251
 20
724.113431523
 30
0.0
 11
1464.240273494
 21
660.86751725
 31
0.0
  0
LINE
  8
0
  6
LTYPE3
 62
     2
 10
1324.031178551
 20
680.836735944
 30
0.0
 11
1380.054876475
 21
665.825231328
 31
0.0
  0
LINE
  8
0
  6
CONTINUOUS
 62
     1
 10
1329.449654363
 20
687.149431079
 30
0.0
 11
1355.722836839
 21
680.109553052
 31
0.0
  0
LINE
  8
0
  6
CONTINUOUS
 62
     1
 10
1325.567368687
 20
672.660543685
 30
0.0
 11
1351.840551162
 21
665.620665658
 31
0.0
  0
LINE
  8
0
  6
LTYPE3
 62
     2
 10
1378.078560547
 20
650.722113261
 30
0.0
 11
1332.680046711
 21
662.886608381
 31
0.0
  0
LINE
  8
0
  6
LTYPE3
 62
     2
 10
1341.4623077
 20
691.79874929
 30
0.0
 11
1386.860821535
 21
679.63425417
 31
0.0
  0
LINE
  8
0
  6
CONTINUOUS
 62
     1
 10
1334.889166365
 20
657.22182327
 30
0.0
 11
1373.526199416
 21
646.869061466
 31
0.0
  0
LINE
  8
0
  6
CONTINUOUS
 62
     1
 10
1383.878961221
 20
685.506094517
 30
0.0
 11
1345.241928169
 21
695.858856321
 31
0.0
  0
LINE
  8
0
  6
CONTINUOUS
 62
     1
 10
1342.34415069
 20
696.635313457
 30
0.0
 11
1339.108912626
 21
684.561240628
 31
0.0
  0
LINE
  8
0
  6
CONTINUOUS
 62
     1
 10
1350.0715573
 20
694.564761096
 30
0.0
 11
1346.810437332
 21
682.394095685
 31
0.0
  0
LINE
  8
0
  6
CONTINUOUS
 62
     1
 10
1345.241928169
 20
695.858856321
 30
0.0
 11
1342.006690105
 21
683.784783493
 31
0.0
  0
LINE
  8
0
  6
CONTINUOUS
 62
     1
 10
1339.108912626
 20
684.561240628
 30
0.0
 11
1335.22662695
 21
670.072353234
 31
0.0
  0
LINE
  8
0
  6
CONTINUOUS
 62
     1
 10
1342.95403356
 20
668.001800873
 30
0.0
 11
1339.718795496
 21
655.927728044
 31
0.0
  0
LINE
  8
0
  6
CONTINUOUS
 62
     1
 10
1338.098522524
 20
669.199303516
 30
0.0
 11
1334.889166365
 21
657.22182327
 31
0.0
  0
LINE
  8
0
  6
CONTINUOUS
 62
     1
 10
1342.709782622
 20
706.113647344
 30
0.0
 11
1342.34415069
 21
696.635313457
 31
0.0
  0
LINE
  8
0
  6
CONTINUOUS
 62
     1
 10
1343.289338118
 20
705.958355917
 30
0.0
 11
1350.050818902
 21
704.146622602
 31
0.0
  0
LINE
  8
0
  6
LTYPE3
 62
     2
 10
1344.219064069
 20
756.178950395
 30
0.0
 11
1365.083061916
 21
750.588459021
 31
0.0
  0
LINE
  8
0
  6
CONTINUOUS
 62
     1
 10
1346.717737529
 20
751.594794802
 30
0.0
 11
1359.472663595
 21
799.196826929
 31
0.0
  0
LINE
  8
0
  6
LTYPE1
 62
     1
 10
1346.402301818
 20
750.417572701
 30
0.0
 11
1355.981066262
 21
747.850950504
 31
0.0
  0
LINE
  8
0
  6
CONTINUOUS
 62
     2
 10
1324.704445042
 20
740.702353195
 30
0.0
 11
1318.101913185
 21
742.471496274
 31
0.0
  0
LINE
  8
0
  6
CONTINUOUS
 62
     2
 10
1323.897468143
 20
740.918582004
 30
0.0
 11
1317.897468143
 21
730.526277158
 31
0.0
  0
LINE
  8
0
  6
CONTINUOUS
 62
     2
 10
1323.897468143
 20
740.918582004
 30
0.0
 11
1323.897468143
 21
728.918582004
 31
0.0
  0
ARC
  8
0
  6
CONTINUOUS
 62
     2
 10
1499.0
 20
694.0
 30
0.0
 40
181.279480361
 50
165.0
 51
180.0
  0
LINE
  8
0
  6
CONTINUOUS
 62
     2
 10
1317.720519639
 20
694.0
 30
0.0
 11
1320.82634818
 21
705.591109915
 31
0.0
  0
LINE
  8
0
  6
CONTINUOUS
 62
     2
 10
1317.720519639
 20
694.0
 30
0.0
 11
1314.614691098
 21
705.591109915
 31
0.0
  0
LINE
  8
0
  6
LTYPE4
 62
     2
 10
1324.0
 20
740.891108675
 30
0.0
 11
1506.163497148
 21
692.080546724
 31
0.0
  0
LINE
  8
0
  6
LTYPE1
 62
     2
 10
1444.0
 20
704.0
 30
0.0
 11
1419.0
 21
704.0
 31
0.0
  0
LINE
  8
0
  6
LTYPE1
 62
     2
 10
1444.0
 20
684.0
 30
0.0
 11
1419.0
 21
684.0
 31
0.0
  0
LINE
  8
0
  6
LTYPE1
 62
     2
 10
1419.0
 20
715.0
 30
0.0
 11
1452.266714218
 21
719.0
 31
0.0
  0
LINE
  8
0
  6
CONTINUOUS
 62
     1
 10
1390.933936227
 20
686.721548203
 30
0.0
 11
1417.979859363
 21
679.47461494
 31
0.0
  0
ARC
  8
0
  6
CONTINUOUS
 62
     1
 10
1418.497497453
 20
681.406466593
 30
0.0
 40
2.0
 50
255.0
 51
345.0
  0
LINE
  8
0
  6
CONTINUOUS
 62
     1
 10
1390.933936227
 20
686.721548203
 30
0.0
 11
1393.550259183
 21
696.485798403
 31
0.0
  0
LINE
  8
0
  6
LTYPE1
 62
     2
 10
1419.0
 20
682.47461494
 30
0.0
 11
1419.0
 21
715.0
 31
0.0
  0
LINE
  8
0
  6
CONTINUOUS
 62
     1
 10
1419.0
 20
673.0
 30
0.0
 11
1419.0
 21
679.47461494
 31
0.0
  0
LINE
  8
0
  6
LTYPE1
 62
     2
 10
1354.580152191
 20
721.050324562
 30
0.0
 11
1352.630921258
 21
713.775695683
 31
0.0
  0
LINE
  8
0
  6
CONTINUOUS
 62
     1
 10
1356.048168253
 20
725.574584464
 30
0.0
 11
1361.349832154
 21
730.883251312
 31
0.0
  0
LINE
  8
0
  6
CONTINUOUS
 62
     1
 10
1359.412789958
 20
738.131523613
 30
0.0
 11
1361.349832154
 21
730.883251312
 31
0.0
  0
LINE
  8
0
  6
CONTINUOUS
 62
     1
 10
1359.412789958
 20
738.131523613
 30
0.0
 11
1352.17408386
 21
740.071129067
 31
0.0
  0
LINE
  8
0
  6
LTYPE1
 62
     2
 10
1353.642099922
 20
744.595388969
 30
0.0
 11
1360.403580706
 21
742.783655653
 31
0.0
  0
LINE
  8
0
  6
LTYPE1
 62
     2
 10
1362.352811639
 20
750.058284533
 30
0.0
 11
1360.403580706
 21
742.783655653
 31
0.0
  0
LINE
  8
0
  6
CONTINUOUS
 62
     1
 10
1399.835718001
 20
745.057521547
 30
0.0
 11
1415.066656155
 21
801.900156585
 31
0.0
  0
LINE
  8
0
  6
CONTINUOUS
 62
     1
 10
1420.862211113
 20
800.347242314
 30
0.0
 11
1405.951983515
 21
744.701515365
 31
0.0
  0
LINE
  8
0
  6
CONTINUOUS
 62
     1
 10
1406.461672308
 20
744.671848183
 30
0.0
 11
1409.051269384
 21
754.336356043
 31
0.0
  0
LINE
  8
0
  6
CONTINUOUS
 62
     1
 10
1383.878961221
 20
685.506094517
 30
0.0
 11
1373.526199416
 21
646.869061466
 31
0.0
  0
LINE
  8
0
  6
CONTINUOUS
 62
     1
 10
1356.551057783
 20
683.200515696
 30
0.0
 11
1351.012330218
 21
662.529703014
 31
0.0
  0
ARC
  8
0
  6
CONTINUOUS
 62
     1
 10
1358.482909435
 20
682.682877606
 30
0.0
 40
2.0
 50
75.0
 51
165.0
  0
LINE
  8
0
  6
LTYPE3
 62
     2
 10
1362.399603458
 20
655.958553332
 30
0.0
 11
1369.750064339
 21
683.390846798
 31
0.0
  0
LINE
  8
0
  6
CONTINUOUS
 62
     1
 10
1359.000547526
 20
684.614729259
 30
0.0
 11
1379.671360208
 21
679.076001694
 31
0.0
  0
LINE
  8
0
  6
CONTINUOUS
 62
     1
 10
1381.085573771
 20
676.626511951
 30
0.0
 11
1375.546846205
 21
655.955699268
 31
0.0
  0
ARC
  8
0
  6
CONTINUOUS
 62
     1
 10
1379.153722118
 20
677.144150041
 30
0.0
 40
2.0
 50
345.0
 51
75.0
  0
LINE
  8
0
  6
CONTINUOUS
 62
     1
 10
1393.06729627
 20
696.615207926
 30
0.0
 11
1378.157068671
 21
640.969480977
 31
0.0
  0
LINE
  8
0
  6
CONTINUOUS
 62
     1
 10
1372.361513714
 20
642.522395247
 30
0.0
 11
1387.592451868
 21
699.365030286
 31
0.0
  0
LINE
  8
0
  6
LTYPE3
 62
     2
 10
1352.12233613
 20
793.401769884
 30
0.0
 11
1408.146034055
 21
778.390265268
 31
0.0
  0
LINE
  8
0
  6
LTYPE3
 62
     2
 10
1371.485316932
 20
803.846145139
 30
0.0
 11
1416.883830767
 21
791.681650019
 31
0.0
  0
LINE
  8
0
  6
CONTINUOUS
 62
     1
 10
1413.901970452
 20
797.553490367
 30
0.0
 11
1375.264937401
 21
807.906252171
 31
0.0
  0
CIRCLE
  8
0
  6
CONTINUOUS
 62
     1
 10
1387.861591703
 20
783.825465215
 30
0.0
 40
9.36
  0
LINE
  8
0
  6
LTYPE3
 62
     2
 10
1391.226239289
 20
796.382500957
 30
0.0
 11
1384.496944116
 21
771.268429473
 31
0.0
  0
CIRCLE
  8
0
  6
CONTINUOUS
 62
     2
 10
1387.861591703
 20
783.825465215
 30
0.0
 40
10.47
  0
LINE
  8
0
  6
CONTINUOUS
 62
     1
 10
1354.898077468
 20
751.214612637
 30
0.0
 11
1357.688470298
 21
761.628500452
 31
0.0
  0
LINE
  8
0
  6
LTYPE1
 62
     1
 10
1354.129708428
 20
748.34702034
 30
0.0
 11
1354.898077468
 21
751.214612637
 31
0.0
  0
LINE
  8
0
  6
LTYPE1
 62
     2
 10
1355.176141971
 20
750.320511835
 30
0.0
 11
1354.612671341
 21
748.217610818
 31
0.0
  0
LINE
  8
0
  6
CONTINUOUS
 62
     1
 10
1358.171433211
 20
761.499090929
 30
0.0
 11
1364.932913995
 21
759.687357613
 31
0.0
  0
LINE
  8
0
  6
CONTINUOUS
 62
     1
 10
1357.591877716
 20
761.654382356
 30
0.0
 11
1362.014398118
 21
770.045676255
 31
0.0
  0
LINE
  8
0
  6
CONTINUOUS
 62
     1
 10
1364.932913995
 20
759.687357613
 30
0.0
 11
1361.638898324
 21
747.393923767
 31
0.0
  0
LINE
  8
0
  6
CONTINUOUS
 62
     1
 10
1355.590377919
 20
784.707939534
 30
0.0
 11
1368.147413661
 21
781.343291948
 31
0.0
  0
LINE
  8
0
  6
CONTINUOUS
 62
     1
 10
1362.014398118
 20
770.045676255
 30
0.0
 11
1365.249636182
 21
782.119749083
 31
0.0
  0
LINE
  8
0
  6
CONTINUOUS
 62
     1
 10
1380.094566532
 20
806.612156945
 30
0.0
 11
1369.741804728
 21
767.975123894
 31
0.0
  0
LINE
  8
0
  6
CONTINUOUS
 62
     1
 10
1378.782218313
 20
801.714406712
 30
0.0
 11
1369.741804728
 21
767.975123894
 31
0.0
  0
LINE
  8
0
  6
CONTINUOUS
 62
     1
 10
1375.264937401
 20
807.906252171
 30
0.0
 11
1364.912175597
 21
769.269219119
 31
0.0
  0
LINE
  8
0
  6
CONTINUOUS
 62
     1
 10
1359.472663595
 20
799.196826929
 30
0.0
 11
1372.029699337
 21
795.832179342
 31
0.0
  0
LINE
  8
0
  6
LTYPE3
 62
     2
 10
1408.101569779
 20
762.769509111
 30
0.0
 11
1362.703055943
 21
774.93400423
 31
0.0
  0
LINE
  8
0
  6
CONTINUOUS
 62
     1
 10
1364.912175597
 20
769.269219119
 30
0.0
 11
1403.549208648
 21
758.916457315
 31
0.0
  0
LINE
  8
0
  6
CONTINUOUS
 62
     1
 10
1390.363707665
 20
775.390453911
 30
0.0
 11
1402.920743407
 21
772.025806324
 31
0.0
  0
LINE
  8
0
  6
CONTINUOUS
 62
     1
 10
1410.038267147
 20
798.588766547
 30
0.0
 11
1399.685505343
 21
759.951733496
 31
0.0
  0
LINE
  8
0
  6
CONTINUOUS
 62
     1
 10
1394.245993342
 20
789.879341305
 30
0.0
 11
1406.803029084
 21
786.514693719
 31
0.0
  0
LINE
  8
0
  6
CONTINUOUS
 62
     1
 10
1396.787727864
 20
760.728190631
 30
0.0
 11
1400.022965928
 21
772.802263459
 31
0.0
  0
LINE
  8
0
  6
LTYPE1
 62
     1
 10
1358.959337559
 20
747.052925115
 30
0.0
 11
1359.274773271
 21
748.230147215
 31
0.0
  0
LINE
  8
0
  6
CONTINUOUS
 62
     1
 10
1358.171433211
 20
761.499090929
 30
0.0
 11
1354.473415442
 21
747.697900726
 31
0.0
  0
LINE
  8
0
  6
CONTINUOUS
 62
     1
 10
1415.066656155
 20
801.900156585
 30
0.0
 11
1420.862211113
 21
800.347242314
 31
0.0
  0
LINE
  8
0
  6
CONTINUOUS
 62
     1
 10
1409.051269384
 20
754.336356043
 30
0.0
 11
1436.09719252
 21
747.08942278
 31
0.0
  0
LINE
  8
0
  6
CONTINUOUS
 62
     1
 10
1372.361513714
 20
642.522395247
 30
0.0
 11
1378.157068671
 21
640.969480977
 31
0.0
  0
LINE
  8
0
  6
CONTINUOUS
 62
     1
 10
1373.526199416
 20
646.869061466
 30
0.0
 11
1373.622791999
 21
646.843179561
 31
0.0
  0
LINE
  8
0
  6
CONTINUOUS
 62
     1
 10
1352.42654378
 20
660.080213271
 30
0.0
 11
1373.097356463
 21
654.541485706
 31
0.0
  0
ARC
  8
0
  6
CONTINUOUS
 62
     1
 10
1373.614994553
 20
656.473337358
 30
0.0
 40
2.0
 50
255.0
 51
345.0
  0
ARC
  8
0
  6
CONTINUOUS
 62
     1
 10
1352.94418187
 20
662.012064924
 30
0.0
 40
2.0
 50
165.0
 51
255.0
  0
LINE
  8
0
  6
LTYPE1
 62
     2
 10
1444.0
 20
684.0
 30
0.0
 11
1444.0
 21
704.0
 31
0.0
  0
LINE
  8
0
  6
CONTINUOUS
 62
     1
 10
1419.0
 20
673.0
 30
0.0
 11
1446.721040822
 21
669.666813483
 31
0.0
  0
LINE
  8
0
  6
CONTINUOUS
 62
     1
 10
1420.429349106
 20
680.888828502
 30
0.0
 11
1420.897755312
 21
682.636944264
 31
0.0
  0
ARC
  8
0
  6
CONTINUOUS
 62
     1
 10
1452.0
 20
647.0
 30
0.0
 40
9.0
 50
77.327684064
 51
282.116861929
  0
LINE
  8
0
  6
LTYPE3
 62
     2
 10
1464.4
 20
647.0
 30
0.0
 11
1440.6
 21
647.0
 31
0.0
  0
LINE
  8
0
  6
LTYPE3
 62
     2
 10
1452.0
 20
637.15
 30
0.0
 11
1452.0
 21
660.25
 31
0.0
  0
ARC
  8
0
  6
CONTINUOUS
 62
     1
 10
1452.545138047
 20
657.789562266
 30
0.0
 40
2.0
 50
165.0
 51
255.0
  0
LINE
  8
0
  6
CONTINUOUS
 62
     1
 10
1452.027499957
 20
655.857710613
 30
0.0
 11
1467.482313177
 21
651.716605891
 31
0.0
  0
ARC
  8
0
  6
CONTINUOUS
 62
     1
 10
1467.999951268
 20
653.648457544
 30
0.0
 40
2.0
 50
255.0
 51
345.0
  0
LINE
  8
0
  6
CONTINUOUS
 62
     1
 10
1450.613286394
 20
658.307200356
 30
0.0
 11
1452.834347656
 21
666.596313832
 31
0.0
  0
LINE
  8
0
  6
CONTINUOUS
 62
     1
 10
1469.93180292
 20
653.130819454
 30
0.0
 11
1471.484717191
 21
658.926374411
 31
0.0
  0
ARC
  8
0
  6
CONTINUOUS
 62
     1
 10
1499.0
 20
694.0
 30
0.0
 40
43.5
 50
254.999979886
 51
274.519344521
  0
LINE
  8
0
  6
CONTINUOUS
 62
     1
 10
1470.837669578
 20
656.511559846
 30
0.0
 11
1487.741356799
 21
651.982230506
 31
0.0
  0
ARC
  8
0
  6
CONTINUOUS
 62
     1
 10
1499.0
 20
694.0
 30
0.0
 40
50.8
 50
234.264523985
 51
290.955776731
  0
LINE
  8
0
  6
CONTINUOUS
 62
     1
 10
1454.0
 20
634.5
 30
0.0
 11
1454.0
 21
655.329180819
 31
0.0
  0
LINE
  8
0
  6
LTYPE2
 62
     2
 10
1486.004464167
 20
645.5
 30
0.0
 11
1510.882308775
 21
738.34538006
 31
0.0
  0
LINE
  8
0
  6
CONTINUOUS
 62
     1
 10
1464.240273494
 20
660.86751725
 30
0.0
 11
1486.939530411
 21
654.78526969
 31
0.0
  0
LINE
  8
0
  6
CONTINUOUS
 62
     1
 10
1486.939530411
 20
654.78526969
 30
0.0
 11
1490.748355919
 21
669.0
 31
0.0
  0
LINE
  8
0
  6
CONTINUOUS
 62
     1
 10
1489.83730789
 20
654.008812554
 30
0.0
 11
1493.85418446
 21
669.0
 31
0.0
  0
LINE
  8
0
  6
CONTINUOUS
 62
     1
 10
1489.83730789
 20
654.008812554
 30
0.0
 11
1522.195823071
 21
645.338374544
 31
0.0
  0
ARC
  8
0
  6
CONTINUOUS
 62
     1
 10
1546.0
 20
647.0
 30
0.0
 40
9.0
 50
257.883138071
 51
102.672315936
  0
LINE
  8
0
  6
LTYPE3
 62
     2
 10
1546.0
 20
637.15
 30
0.0
 11
1546.0
 21
660.25
 31
0.0
  0
LINE
  8
0
  6
CONTINUOUS
 62
     1
 10
1544.0
 20
634.5
 30
0.0
 11
1544.0
 21
666.0
 31
0.0
  0
ARC
  8
0
  6
CONTINUOUS
 62
     1
 10
1499.0
 20
694.0
 30
0.0
 40
43.5
 50
308.024948378
 51
21.428579014
  0
ARC
  8
0
  6
CONTINUOUS
 62
     1
 10
1499.0
 20
694.0
 30
0.0
 40
50.8
 50
299.109855557
 51
326.049326357
  0
LINE
  8
0
  6
CONTINUOUS
 62
     1
 10
1522.195823071
 20
645.338374544
 30
0.0
 11
1529.339784081
 21
672.0
 31
0.0
  0
LINE
  8
0
  6
CONTINUOUS
 62
     1
 10
1542.146014301
 20
673.131088913
 30
0.0
 11
1538.646014301
 21
667.068911087
 31
0.0
  0
LINE
  8
0
  6
CONTINUOUS
 62
     1
 10
1544.63954887
 20
671.691446059
 30
0.0
 11
1542.146014301
 21
673.131088913
 31
0.0
  0
LINE
  8
0
  6
CONTINUOUS
 62
     1
 10
1541.13954887
 20
665.629268232
 30
0.0
 11
1538.646014301
 21
667.068911087
 31
0.0
  0
ARC
  8
0
  6
CONTINUOUS
 62
     1
 10
1499.0
 20
694.0
 30
0.0
 40
50.8
 50
333.950673643
 51
31.450865162
  0
LINE
  8
0
  6
CONTINUOUS
 62
     1
 10
1537.0
 20
700.588315007
 30
0.0
 11
1543.418984769
 21
724.544292299
 31
0.0
  0
ARC
  8
0
  6
CONTINUOUS
 62
     1
 10
1499.0
 20
694.0
 30
0.0
 40
43.5
 50
55.480655479
 51
75.000020114
  0
LINE
  8
0
  6
CONTINUOUS
 62
     1
 10
1493.354926502
 20
740.547106733
 30
0.0
 11
1510.258613723
 21
736.017777393
 31
0.0
  0
LINE
  8
0
  6
CONTINUOUS
 62
     1
 10
1495.5
 20
741.8
 30
0.0
 11
1502.5
 21
741.8
 31
0.0
  0
LINE
  8
0
  6
CONTINUOUS
 62
     1
 10
1502.5
 20
744.679285709
 30
0.0
 11
1502.5
 21
741.8
 31
0.0
  0
ARC
  8
0
  6
CONTINUOUS
 62
     1
 10
1499.0
 20
694.0
 30
0.0
 40
50.8
 50
38.812254591
 51
86.049326357
  0
LINE
  8
0
  6
CONTINUOUS
 62
     1
 10
1511.060469589
 20
733.21473031
 30
0.0
 11
1543.418984769
 21
724.544292299
 31
0.0
  0
LINE
  8
0
  6
CONTINUOUS
 62
     1
 10
1485.463435192
 20
740.073435005
 30
0.0
 11
1508.16269211
 21
733.991187446
 31
0.0
  0
LINE
  8
0
  6
CONTINUOUS
 62
     1
 10
1504.14581554
 20
719.0
 30
0.0
 11
1508.16269211
 21
733.991187446
 31
0.0
  0
LINE
  8
0
  6
CONTINUOUS
 62
     1
 10
1507.251644081
 20
719.0
 30
0.0
 11
1511.060469589
 21
733.21473031
 31
0.0
  0
ARC
  8
0
  6
CONTINUOUS
 62
     1
 10
1492.328941507
 20
744.445485215
 30
0.0
 40
2.0
 50
345.0
 51
75.0
  0
LINE
  8
0
  6
CONTINUOUS
 62
     1
 10
1492.707878889
 20
738.132292167
 30
0.0
 11
1494.26079316
 21
743.927847125
 31
0.0
  0
LINE
  8
0
  6
CONTINUOUS
 62
     1
 10
1495.5
 20
744.679285709
 30
0.0
 11
1495.5
 21
741.8
 31
0.0
  0
ARC
  8
0
  6
CONTINUOUS
 62
     1
 10
1499.0
 20
694.0
 30
0.0
 40
50.8
 50
93.950673643
 51
96.2156359
  0
LINE
  8
0
  6
CONTINUOUS
 62
     1
 10
1477.391766377
 20
750.518441589
 30
0.0
 11
1492.846579597
 21
746.377336868
 31
0.0
  0
LINE
  8
0
  6
LTYPE3
 62
     2
 10
1464.4
 20
741.0
 30
0.0
 11
1440.6
 21
741.0
 31
0.0
  0
LINE
  8
0
  6
LTYPE3
 62
     2
 10
1452.0
 20
729.665527109
 30
0.0
 11
1452.0
 21
751.765527109
 31
0.0
  0
ARC
  8
0
  6
CONTINUOUS
 62
     1
 10
1452.0
 20
741.0
 30
0.0
 40
9.0
 50
4.497151615
 51
179.370401392
  0
ARC
  8
0
  6
CONTINUOUS
 62
     1
 10
1452.0
 20
741.0
 30
0.0
 40
9.0
 50
0.0
 51
4.497151615
  0
LINE
  8
0
  6
CONTINUOUS
 62
     1
 10
1472.721215372
 20
740.81511455
 30
0.0
 11
1474.942276634
 21
749.104228027
 31
0.0
  0
ARC
  8
0
  6
CONTINUOUS
 62
     1
 10
1476.874128287
 20
748.586589937
 30
0.0
 40
2.0
 50
75.0
 51
165.0
  0
LINE
  8
0
  6
CONTINUOUS
 62
     1
 10
1474.020008006
 20
753.0
 30
0.0
 11
1445.0
 21
753.0
 31
0.0
  0
LINE
  8
0
  6
LTYPE4
 62
     2
 10
1287.0
 20
694.0
 30
0.0
 11
1583.0
 21
694.0
 31
0.0
  0
LINE
  8
0
  6
CONTINUOUS
 62
     1
 10
1579.0
 20
673.0
 30
0.0
 11
1543.0
 21
668.671348873
 31
0.0
  0
LINE
  8
0
  6
CONTINUOUS
 62
     1
 10
1579.0
 20
715.0
 30
0.0
 11
1544.0
 21
719.208410818
 31
0.0
  0
LINE
  8
0
  6
CONTINUOUS
 62
     1
 10
1422.0
 20
622.5
 30
0.0
 11
1422.0
 21
672.639279073
 31
0.0
  0
LINE
  8
0
  6
CONTINUOUS
 62
     2
 10
1419.0
 20
665.5
 30
0.0
 11
1419.0
 21
486.8375
 31
0.0
  0
LINE
  8
0
  6
CONTINUOUS
 62
     2
 10
1100.0
 20
1001.5
 30
0.0
 11
1085.511112606
 21
1005.382285677
 31
0.0
  0
LINE
  8
0
  6
CONTINUOUS
 62
     2
 10
1100.0
 20
1001.5
 30
0.0
 11
1085.511112606
 21
997.617714323
 31
0.0
  0
LINE
  8
0
  6
CONTINUOUS
 62
     2
 10
1100.0
 20
1001.5
 30
0.0
 11
1050.8
 21
1001.5
 31
0.0
  0
TEXT
  8
0
  6
CONTINUOUS
 62
     3
 10
1059.2
 20
1013.5
 30
0.0
 40
24.0
  1
前進
 50
0.0
 41
0.925
 51
0.0
  7
KANJI45
  0
TEXT
  8
0
  6
CONTINUOUS
 62
     2
 10
979.949814306
 20
463.414761936
 30
0.0
 40
18.0
  1
ｍｉｎ．Ｐ
 50
0.0
 41
0.9
 51
0.0
  7
KANJI37
  0
LINE
  8
0
  6
CONTINUOUS
 62
     1
 10
933.182501379
 20
586.0
 30
0.0
 11
933.182501379
 21
592.0
 31
0.0
  0
LINE
  8
0
  6
LTYPE2
 62
     2
 10
981.032501379
 20
534.0
 30
0.0
 11
981.032501379
 21
554.0
 31
0.0
  0
LINE
  8
0
  6
LTYPE2
 62
     2
 10
1499.0
 20
561.0
 30
0.0
 11
1499.0
 21
992.0
 31
0.0
  0
LINE
  8
0
  6
CONTINUOUS
 62
     1
 10
1406.5
 20
885.5
 30
0.0
 11
1406.5
 21
908.529404499
 31
0.0
  0
LINE
  8
0
  6
CONTINUOUS
 62
     1
 10
1529.0
 20
931.0
 30
0.0
 11
1529.0
 21
934.0
 31
0.0
  0
ARC
  8
0
  6
CONTINUOUS
 62
     1
 10
1525.0
 20
928.0
 30
0.0
 40
3.0
 50
90.0
 51
180.0
  0
LINE
  8
0
  6
CONTINUOUS
 62
     1
 10
1522.0
 20
917.153619242
 30
0.0
 11
1522.0
 21
928.0
 31
0.0
  0
ARC
  8
0
  6
CONTINUOUS
 62
     1
 10
1518.0
 20
917.153619242
 30
0.0
 40
4.0
 50
304.936144888
 51
0.0
  0
ARC
  8
0
  6
CONTINUOUS
 62
     1
 10
1473.0
 20
928.0
 30
0.0
 40
3.0
 50
0.0
 51
90.0
  0
LINE
  8
0
  6
CONTINUOUS
 62
     1
 10
1476.0
 20
917.153619242
 30
0.0
 11
1476.0
 21
928.0
 31
0.0
  0
ARC
  8
0
  6
CONTINUOUS
 62
     1
 10
1480.0
 20
917.153619242
 30
0.0
 40
4.0
 50
180.0
 51
235.063855112
  0
CIRCLE
  8
0
  6
CONTINUOUS
 62
     1
 10
1499.0
 20
956.0
 30
0.0
 40
17.0
  0
LINE
  8
0
  6
LTYPE2
 62
     2
 10
1476.0
 20
956.0
 30
0.0
 11
1522.0
 21
956.0
 31
0.0
  0
ARC
  8
0
  6
CONTINUOUS
 62
     1
 10
1457.0
 20
978.020045888
 30
0.0
 40
2.0
 50
90.0
 51
180.0
  0
ARC
  8
0
  6
CONTINUOUS
 62
     1
 10
1465.0
 20
984.0
 30
0.0
 40
2.0
 50
90.0
 51
180.0
  0
LINE
  8
0
  6
CONTINUOUS
 62
     1
 10
1465.0
 20
986.0
 30
0.0
 11
1533.0
 21
986.0
 31
0.0
  0
ARC
  8
0
  6
CONTINUOUS
 62
     1
 10
1533.0
 20
984.0
 30
0.0
 40
2.0
 50
0.0
 51
90.0
  0
LINE
  8
0
  6
CONTINUOUS
 62
     1
 10
1541.0
 20
980.020045888
 30
0.0
 11
1457.0
 21
980.020045888
 31
0.0
  0
ARC
  8
0
  6
CONTINUOUS
 62
     1
 10
1541.0
 20
978.020045888
 30
0.0
 40
2.0
 50
0.0
 51
90.0
  0
ARC
  8
0
  6
CONTINUOUS
 62
     1
 10
1457.0
 20
982.020045888
 30
0.0
 40
2.0
 50
90.0
 51
180.0
  0
ARC
  8
0
  6
CONTINUOUS
 62
     1
 10
1465.0
 20
975.0
 30
0.0
 40
2.0
 50
90.0
 51
180.0
  0
LINE
  8
0
  6
CONTINUOUS
 62
     1
 10
1465.0
 20
977.0
 30
0.0
 11
1533.0
 21
977.0
 31
0.0
  0
ARC
  8
0
  6
CONTINUOUS
 62
     1
 10
1533.0
 20
975.0
 30
0.0
 40
2.0
 50
0.0
 51
90.0
  0
LINE
  8
0
  6
CONTINUOUS
 62
     1
 10
1541.0
 20
984.020045888
 30
0.0
 11
1457.0
 21
984.020045888
 31
0.0
  0
ARC
  8
0
  6
CONTINUOUS
 62
     1
 10
1541.0
 20
982.020045888
 30
0.0
 40
2.0
 50
0.0
 51
90.0
  0
LINE
  8
0
  6
CONTINUOUS
 62
     1
 10
1469.0
 20
931.0
 30
0.0
 11
1529.0
 21
931.0
 31
0.0
  0
LINE
  8
0
  6
CONTINUOUS
 62
     1
 10
1469.0
 20
931.0
 30
0.0
 11
1469.0
 21
934.0
 31
0.0
  0
LINE
  8
0
  6
CONTINUOUS
 62
     1
 10
1535.0
 20
936.0
 30
0.0
 11
1541.0
 21
936.0
 31
0.0
  0
LINE
  8
0
  6
CONTINUOUS
 62
     1
 10
1543.0
 20
938.0
 30
0.0
 11
1543.0
 21
982.020045888
 31
0.0
  0
ARC
  8
0
  6
CONTINUOUS
 62
     1
 10
1541.0
 20
938.0
 30
0.0
 40
2.0
 50
270.0
 51
0.0
  0
LINE
  8
0
  6
CONTINUOUS
 62
     1
 10
1535.0
 20
936.0
 30
0.0
 11
1535.0
 21
975.0
 31
0.0
  0
ARC
  8
0
  6
CONTINUOUS
 62
     1
 10
1533.0
 20
936.0
 30
0.0
 40
2.0
 50
270.0
 51
0.0
  0
LINE
  8
0
  6
CONTINUOUS
 62
     1
 10
1463.0
 20
936.0
 30
0.0
 11
1463.0
 21
975.0
 31
0.0
  0
LINE
  8
0
  6
CONTINUOUS
 62
     1
 10
1465.0
 20
934.0
 30
0.0
 11
1533.0
 21
934.0
 31
0.0
  0
ARC
  8
0
  6
CONTINUOUS
 62
     1
 10
1465.0
 20
936.0
 30
0.0
 40
2.0
 50
180.0
 51
270.0
  0
LINE
  8
0
  6
CONTINUOUS
 62
     1
 10
1463.0
 20
936.0
 30
0.0
 11
1457.0
 21
936.0
 31
0.0
  0
LINE
  8
0
  6
CONTINUOUS
 62
     1
 10
1455.0
 20
938.0
 30
0.0
 11
1455.0
 21
982.020045888
 31
0.0
  0
ARC
  8
0
  6
CONTINUOUS
 62
     1
 10
1457.0
 20
938.0
 30
0.0
 40
2.0
 50
180.0
 51
270.0
  0
CIRCLE
  8
0
  6
CONTINUOUS
 62
     2
 10
1499.0
 20
956.0
 30
0.0
 40
15.0
  0
LINE
  8
0
  6
LTYPE2
 62
     2
 10
1449.0
 20
899.0
 30
0.0
 11
1433.0
 21
915.0
 31
0.0
  0
LINE
  8
0
  6
CONTINUOUS
 62
     1
 10
1445.663690552
 20
915.996563486
 30
0.0
 11
1435.663690552
 21
915.996563486
 31
0.0
  0
LINE
  8
0
  6
CONTINUOUS
 62
     1
 10
1435.663690552
 20
915.996563486
 30
0.0
 11
1430.663690552
 21
907.336309448
 31
0.0
  0
LINE
  8
0
  6
CONTINUOUS
 62
     1
 10
1430.663690552
 20
907.336309448
 30
0.0
 11
1435.663690552
 21
898.67605541
 31
0.0
  0
LINE
  8
0
  6
CONTINUOUS
 62
     1
 10
1435.663690552
 20
898.67605541
 30
0.0
 11
1445.663690552
 21
898.67605541
 31
0.0
  0
LINE
  8
0
  6
CONTINUOUS
 62
     1
 10
1445.663690552
 20
898.67605541
 30
0.0
 11
1450.663690552
 21
907.336309448
 31
0.0
  0
LINE
  8
0
  6
CONTINUOUS
 62
     1
 10
1450.663690552
 20
907.336309448
 30
0.0
 11
1445.663690552
 21
915.996563486
 31
0.0
  0
LINE
  8
0
  6
LTYPE2
 62
     2
 10
1549.0
 20
899.0
 30
0.0
 11
1565.0
 21
915.0
 31
0.0
  0
LINE
  8
0
  6
CONTINUOUS
 62
     1
 10
1552.336309448
 20
915.996563486
 30
0.0
 11
1562.336309448
 21
915.996563486
 31
0.0
  0
LINE
  8
0
  6
CONTINUOUS
 62
     1
 10
1562.336309448
 20
898.67605541
 30
0.0
 11
1552.336309448
 21
898.67605541
 31
0.0
  0
LINE
  8
0
  6
CONTINUOUS
 62
     1
 10
1552.336309448
 20
898.67605541
 30
0.0
 11
1547.336309448
 21
907.336309448
 31
0.0
  0
LINE
  8
0
  6
CONTINUOUS
 62
     1
 10
1547.336309448
 20
907.336309448
 30
0.0
 11
1552.336309448
 21
915.996563486
 31
0.0
  0
ARC
  8
0
  6
LTYPE2
 62
     2
 10
1499.0
 20
849.0
 30
0.0
 40
82.5
 50
122.095648245
 51
145.904134413
  0
ARC
  8
0
  6
LTYPE2
 62
     2
 10
1499.0
 20
849.0
 30
0.0
 40
82.5
 50
35.204140887
 51
56.44447448
  0
ARC
  8
0
  6
CONTINUOUS
 62
     1
 10
1499.0
 20
849.0
 30
0.0
 40
110.0
 50
113.578178478
 51
147.236242241
  0
ARC
  8
0
  6
CONTINUOUS
 62
     1
 10
1499.0
 20
849.0
 30
0.0
 40
110.0
 50
32.763757759
 51
66.421821522
  0
LINE
  8
0
  6
CONTINUOUS
 62
     2
 10
1509.872218677
 20
986.0
 30
0.0
 11
1655.372218677
 21
986.0
 31
0.0
  0
ARC
  8
0
  6
CONTINUOUS
 62
     1
 10
1513.987995196
 20
894.6
 30
0.0
 40
8.0
 50
200.487315115
 51
251.805127661
  0
ARC
  8
0
  6
CONTINUOUS
 62
     1
 10
1484.012004804
 20
894.6
 30
0.0
 40
8.0
 50
288.194872339
 51
339.512684885
  0
ARC
  8
0
  6
CONTINUOUS
 62
     1
 10
1499.0
 20
889.0
 30
0.0
 40
8.0
 50
20.487315115
 51
159.512540111
  0
ARC
  8
0
  6
CONTINUOUS
 62
     1
 10
1499.0
 20
849.0
 30
0.0
 40
40.0
 50
108.194872339
 51
251.805127661
  0
ARC
  8
0
  6
CONTINUOUS
 62
     1
 10
1499.0
 20
849.0
 30
0.0
 40
40.0
 50
25.554707728
 51
71.805142343
  0
LINE
  8
0
  6
CONTINUOUS
 62
     1
 10
1501.35
 20
896.070319398
 30
0.0
 11
1496.65
 21
896.070319398
 31
0.0
  0
LINE
  8
0
  6
CONTINUOUS
 62
     1
 10
1496.65
 20
896.070319398
 30
0.0
 11
1494.3
 21
892.0
 31
0.0
  0
LINE
  8
0
  6
CONTINUOUS
 62
     1
 10
1494.3
 20
892.0
 30
0.0
 11
1496.65
 21
887.929680602
 31
0.0
  0
LINE
  8
0
  6
CONTINUOUS
 62
     1
 10
1496.65
 20
887.929680602
 30
0.0
 11
1501.35
 21
887.929680602
 31
0.0
  0
LINE
  8
0
  6
CONTINUOUS
 62
     1
 10
1501.35
 20
887.929680602
 30
0.0
 11
1503.7
 21
892.0
 31
0.0
  0
LINE
  8
0
  6
CONTINUOUS
 62
     1
 10
1503.7
 20
892.0
 30
0.0
 11
1501.35
 21
896.070319398
 31
0.0
  0
LINE
  8
0
  6
CONTINUOUS
 62
     2
 10
1505.0
 20
892.0
 30
0.0
 11
1493.0
 21
892.0
 31
0.0
  0
LINE
  8
0
  6
LTYPE2
 62
     2
 10
1549.0
 20
899.0
 30
0.0
 11
1565.0
 21
915.0
 31
0.0
  0
LINE
  8
0
  6
CONTINUOUS
 62
     1
 10
1562.336309448
 20
915.996563486
 30
0.0
 11
1567.336309448
 21
907.336309448
 31
0.0
  0
LINE
  8
0
  6
CONTINUOUS
 62
     1
 10
1567.336309448
 20
907.336309448
 30
0.0
 11
1562.336309448
 21
898.67605541
 31
0.0
  0
LINE
  8
0
  6
CONTINUOUS
 62
     2
 10
1698.622218677
 20
986.0
 30
0.0
 11
1695.386980613
 21
973.925927171
 31
0.0
  0
LINE
  8
0
  6
CONTINUOUS
 62
     2
 10
1698.622218677
 20
986.0
 30
0.0
 11
1701.85745674
 21
973.925927171
 31
0.0
  0
LINE
  8
0
  6
CONTINUOUS
 62
     2
 10
1655.372218677
 20
986.0
 30
0.0
 11
1706.122218677
 21
986.0
 31
0.0
  0
LINE
  8
0
  6
CONTINUOUS
 62
     2
 10
1662.872218677
 20
821.8
 30
0.0
 11
1662.872218677
 21
986.0
 31
0.0
  0
LINE
  8
0
  6
CONTINUOUS
 62
     2
 10
1662.872218677
 20
986.0
 30
0.0
 11
1659.636980613
 21
973.925927171
 31
0.0
  0
LINE
  8
0
  6
CONTINUOUS
 62
     2
 10
1662.872218677
 20
986.0
 30
0.0
 11
1666.10745674
 21
973.925927171
 31
0.0
  0
TEXT
  8
0
  6
CONTINUOUS
 62
     2
 10
1657.872218677
 20
894.35
 30
0.0
 40
18.0
  1
１３７
 50
90.0
 41
0.9
 51
0.0
  7
KANJI37
  0
ARC
  8
0
  6
CONTINUOUS
 62
     1
 10
1499.0
 20
849.0
 30
0.0
 40
100.0
 50
116.103881137
 51
210.914743901
  0
LINE
  8
0
  6
LTYPE2
 62
     2
 10
1549.0
 20
799.0
 30
0.0
 11
1565.0
 21
783.0
 31
0.0
  0
LINE
  8
0
  6
CONTINUOUS
 62
     1
 10
1552.336309448
 20
782.003436514
 30
0.0
 11
1562.336309448
 21
782.003436514
 31
0.0
  0
LINE
  8
0
  6
CONTINUOUS
 62
     1
 10
1562.336309448
 20
799.32394459
 30
0.0
 11
1552.336309448
 21
799.32394459
 31
0.0
  0
LINE
  8
0
  6
CONTINUOUS
 62
     1
 10
1552.336309448
 20
799.32394459
 30
0.0
 11
1547.336309448
 21
790.663690552
 31
0.0
  0
LINE
  8
0
  6
CONTINUOUS
 62
     1
 10
1547.336309448
 20
790.663690552
 30
0.0
 11
1552.336309448
 21
782.003436514
 31
0.0
  0
ARC
  8
0
  6
LTYPE2
 62
     2
 10
1499.0
 20
849.0
 30
0.0
 40
82.5
 50
300.927939213
 51
327.087998905
  0
ARC
  8
0
  6
CONTINUOUS
 62
     1
 10
1513.987995196
 20
803.4
 30
0.0
 40
8.0
 50
108.194872339
 51
159.512684885
  0
ARC
  8
0
  6
CONTINUOUS
 62
     1
 10
1484.012004804
 20
803.4
 30
0.0
 40
8.0
 50
20.487315115
 51
71.805127661
  0
ARC
  8
0
  6
CONTINUOUS
 62
     1
 10
1499.0
 20
809.0
 30
0.0
 40
8.0
 50
200.487459889
 51
339.512684885
  0
ARC
  8
0
  6
CONTINUOUS
 62
     1
 10
1545.0
 20
849.0
 30
0.0
 40
9.0
 50
278.674045508
 51
81.325934821
  0
CIRCLE
  8
0
  6
CONTINUOUS
 62
     1
 10
1499.0
 20
849.0
 30
0.0
 40
23.0
  0
ARC
  8
0
  6
CONTINUOUS
 62
     1
 10
1499.0
 20
849.0
 30
0.0
 40
40.0
 50
288.194857657
 51
334.445306215
  0
LINE
  8
0
  6
CONTINUOUS
 62
     2
 10
1542.0
 20
866.0
 30
0.0
 11
1542.0
 21
830.0
 31
0.0
  0
LINE
  8
0
  6
CONTINUOUS
 62
     1
 10
1543.0
 20
865.1
 30
0.0
 11
1541.0
 21
865.1
 31
0.0
  0
LINE
  8
0
  6
CONTINUOUS
 62
     1
 10
1541.0
 20
865.1
 30
0.0
 11
1539.0
 21
853.5
 31
0.0
  0
LINE
  8
0
  6
CONTINUOUS
 62
     1
 10
1543.0
 20
865.1
 30
0.0
 11
1545.0
 21
853.5
 31
0.0
  0
LINE
  8
0
  6
CONTINUOUS
 62
     1
 10
1543.0
 20
832.9
 30
0.0
 11
1541.0
 21
832.9
 31
0.0
  0
LINE
  8
0
  6
CONTINUOUS
 62
     1
 10
1541.0
 20
832.9
 30
0.0
 11
1539.0
 21
844.5
 31
0.0
  0
LINE
  8
0
  6
CONTINUOUS
 62
     1
 10
1543.0
 20
832.9
 30
0.0
 11
1545.0
 21
844.5
 31
0.0
  0
ARC
  8
0
  6
CONTINUOUS
 62
     1
 10
1548.619565217
 20
872.7254873
 30
0.0
 40
15.0
 50
205.554693785
 51
235.747997449
  0
ARC
  8
0
  6
CONTINUOUS
 62
     1
 10
1548.619565217
 20
872.7254873
 30
0.0
 40
15.0
 50
252.681090544
 51
261.325827457
  0
ARC
  8
0
  6
CONTINUOUS
 62
     1
 10
1548.619565217
 20
825.2745127
 30
0.0
 40
15.0
 50
124.468179449
 51
154.445306215
  0
ARC
  8
0
  6
CONTINUOUS
 62
     1
 10
1548.619565217
 20
825.2745127
 30
0.0
 40
15.0
 50
98.674172543
 51
107.318909456
  0
CIRCLE
  8
0
  6
CONTINUOUS
 62
     1
 10
1542.0
 20
849.0
 30
0.0
 40
3.0
  0
LINE
  8
0
  6
CONTINUOUS
 62
     1
 10
1539.021304702
 20
853.623567272
 30
0.0
 11
1538.978695298
 21
844.376432728
 31
0.0
  0
LINE
  8
0
  6
CONTINUOUS
 62
     1
 10
1545.021304702
 20
844.376432728
 30
0.0
 11
1544.978695298
 21
853.623567272
 31
0.0
  0
ARC
  8
0
  6
CONTINUOUS
 62
     1
 10
1542.0
 20
849.0
 30
0.0
 40
5.5
 50
304.570397879
 51
57.208673154
  0
ARC
  8
0
  6
CONTINUOUS
 62
     1
 10
1542.0
 20
849.0
 30
0.0
 40
5.5
 50
122.791326846
 51
235.429602121
  0
LINE
  8
0
  6
CONTINUOUS
 62
     1
 10
1501.35
 20
801.929680602
 30
0.0
 11
1496.65
 21
801.929680602
 31
0.0
  0
LINE
  8
0
  6
CONTINUOUS
 62
     1
 10
1496.65
 20
801.929680602
 30
0.0
 11
1494.3
 21
806.0
 31
0.0
  0
LINE
  8
0
  6
CONTINUOUS
 62
     1
 10
1494.3
 20
806.0
 30
0.0
 11
1496.65
 21
810.070319398
 31
0.0
  0
LINE
  8
0
  6
CONTINUOUS
 62
     1
 10
1496.65
 20
810.070319398
 30
0.0
 11
1501.35
 21
810.070319398
 31
0.0
  0
LINE
  8
0
  6
CONTINUOUS
 62
     1
 10
1501.35
 20
810.070319398
 30
0.0
 11
1503.7
 21
806.0
 31
0.0
  0
LINE
  8
0
  6
CONTINUOUS
 62
     1
 10
1503.7
 20
806.0
 30
0.0
 11
1501.35
 21
801.929680602
 31
0.0
  0
LINE
  8
0
  6
CONTINUOUS
 62
     2
 10
1505.0
 20
806.0
 30
0.0
 11
1493.0
 21
806.0
 31
0.0
  0
LINE
  8
0
  6
CONTINUOUS
 62
     1
 10
1494.063655198
 20
851.85
 30
0.0
 11
1494.063655198
 21
846.15
 31
0.0
  0
LINE
  8
0
  6
CONTINUOUS
 62
     1
 10
1494.063655198
 20
846.15
 30
0.0
 11
1499.0
 21
843.3
 31
0.0
  0
LINE
  8
0
  6
CONTINUOUS
 62
     1
 10
1499.0
 20
843.3
 30
0.0
 11
1503.936344802
 21
846.15
 31
0.0
  0
LINE
  8
0
  6
CONTINUOUS
 62
     1
 10
1503.936344802
 20
846.15
 30
0.0
 11
1503.936344802
 21
851.85
 31
0.0
  0
LINE
  8
0
  6
CONTINUOUS
 62
     1
 10
1503.936344802
 20
851.85
 30
0.0
 11
1499.0
 21
854.7
 31
0.0
  0
LINE
  8
0
  6
CONTINUOUS
 62
     1
 10
1499.0
 20
854.7
 30
0.0
 11
1494.063655198
 21
851.85
 31
0.0
  0
CIRCLE
  8
0
  6
CONTINUOUS
 62
     1
 10
1499.0
 20
849.0
 30
0.0
 40
6.5
  0
LINE
  8
0
  6
CONTINUOUS
 62
     1
 10
1562.336309448
 20
782.003436514
 30
0.0
 11
1567.336309448
 21
790.663690552
 31
0.0
  0
LINE
  8
0
  6
CONTINUOUS
 62
     1
 10
1567.336309448
 20
790.663690552
 30
0.0
 11
1562.336309448
 21
799.32394459
 31
0.0
  0
LINE
  8
0
  6
LTYPE4
 62
     2
 10
1379.5
 20
849.0
 30
0.0
 11
1601.182501379
 21
849.0
 31
0.0
  0
LINE
  8
0
  6
CONTINUOUS
 62
     2
 10
1662.872218677
 20
849.0
 30
0.0
 11
1659.636980613
 21
836.925927171
 31
0.0
  0
LINE
  8
0
  6
CONTINUOUS
 62
     2
 10
1662.872218677
 20
849.0
 30
0.0
 11
1666.10745674
 21
836.925927171
 31
0.0
  0
LINE
  8
0
  6
CONTINUOUS
 62
     2
 10
1662.872218677
 20
849.0
 30
0.0
 11
1666.10745674
 21
861.074072829
 31
0.0
  0
LINE
  8
0
  6
CONTINUOUS
 62
     2
 10
1662.872218677
 20
849.0
 30
0.0
 11
1659.636980613
 21
861.074072829
 31
0.0
  0
LINE
  8
0
  6
CONTINUOUS
 62
     2
 10
1625.182501379
 20
849.0
 30
0.0
 11
1670.372218677
 21
849.0
 31
0.0
  0
LINE
  8
0
  6
CONTINUOUS
 62
     1
 10
1576.0
 20
715.360720927
 30
0.0
 11
1576.0
 21
786.731405856
 31
0.0
  0
LINE
  8
0
  6
CONTINUOUS
 62
     2
 10
1662.872218677
 20
694.0
 30
0.0
 11
1662.872218677
 21
849.0
 31
0.0
  0
LINE
  8
0
  6
CONTINUOUS
 62
     2
 10
1698.622218677
 20
583.0
 30
0.0
 11
1698.622218677
 21
986.0
 31
0.0
  0
TEXT
  8
0
  6
CONTINUOUS
 62
     2
 10
1657.872218677
 20
750.25
 30
0.0
 40
18.0
  1
１５５
 50
90.0
 41
0.9
 51
0.0
  7
KANJI37
  0
TEXT
  8
0
  6
CONTINUOUS
 62
     2
 10
1693.622218677
 20
761.85
 30
0.0
 40
18.0
  1
４０３
 50
90.0
 41
0.9
 51
0.0
  7
KANJI37
  0
LINE
  8
0
  6
CONTINUOUS
 62
     1
 10
960.182501379
 20
555.0
 30
0.0
 11
968.842755417
 21
560.0
 31
0.0
  0
LINE
  8
0
  6
CONTINUOUS
 62
     1
 10
968.832501379
 20
528.0
 30
0.0
 11
968.832501379
 21
560.0
 31
0.0
  0
LINE
  8
0
  6
CONTINUOUS
 62
     1
 10
968.832501379
 20
560.0
 30
0.0
 11
993.532501379
 21
560.0
 31
0.0
  0
LINE
  8
0
  6
CONTINUOUS
 62
     1
 10
1002.182501379
 20
555.0
 30
0.0
 11
993.522247342
 21
560.0
 31
0.0
  0
LINE
  8
0
  6
CONTINUOUS
 62
     1
 10
993.532501379
 20
528.0
 30
0.0
 11
993.532501379
 21
560.0
 31
0.0
  0
LINE
  8
0
  6
CONTINUOUS
 62
     1
 10
1002.182501379
 20
533.0
 30
0.0
 11
1002.182501379
 21
555.0
 31
0.0
  0
LINE
  8
0
  6
CONTINUOUS
 62
     1
 10
968.832501379
 20
528.0
 30
0.0
 11
993.532501379
 21
528.0
 31
0.0
  0
LINE
  8
0
  6
CONTINUOUS
 62
     1
 10
960.182501379
 20
533.0
 30
0.0
 11
968.842755417
 21
528.0
 31
0.0
  0
LINE
  8
0
  6
CONTINUOUS
 62
     1
 10
1002.182501379
 20
533.0
 30
0.0
 11
993.522247342
 21
528.0
 31
0.0
  0
LINE
  8
0
  6
CONTINUOUS
 62
     1
 10
960.182501379
 20
533.0
 30
0.0
 11
960.182501379
 21
555.0
 31
0.0
  0
LINE
  8
0
  6
CONTINUOUS
 62
     1
 10
943.832501379
 20
250.1
 30
0.0
 11
952.492755417
 21
255.1
 31
0.0
  0
LINE
  8
0
  6
CONTINUOUS
 62
     1
 10
952.482501379
 20
223.1
 30
0.0
 11
952.482501379
 21
255.1
 31
0.0
  0
LINE
  8
0
  6
CONTINUOUS
 62
     1
 10
952.482501379
 20
255.1
 30
0.0
 11
977.182501379
 21
255.1
 31
0.0
  0
LINE
  8
0
  6
CONTINUOUS
 62
     1
 10
985.832501379
 20
250.1
 30
0.0
 11
977.172247342
 21
255.1
 31
0.0
  0
LINE
  8
0
  6
CONTINUOUS
 62
     1
 10
977.182501379
 20
223.1
 30
0.0
 11
977.182501379
 21
255.1
 31
0.0
  0
LINE
  8
0
  6
CONTINUOUS
 62
     1
 10
985.832501379
 20
228.1
 30
0.0
 11
985.832501379
 21
250.1
 31
0.0
  0
LINE
  8
0
  6
CONTINUOUS
 62
     1
 10
952.482501379
 20
223.1
 30
0.0
 11
977.182501379
 21
223.1
 31
0.0
  0
LINE
  8
0
  6
CONTINUOUS
 62
     1
 10
943.832501379
 20
228.1
 30
0.0
 11
952.492755417
 21
223.1
 31
0.0
  0
LINE
  8
0
  6
CONTINUOUS
 62
     1
 10
985.832501379
 20
228.1
 30
0.0
 11
977.172247342
 21
223.1
 31
0.0
  0
LINE
  8
0
  6
CONTINUOUS
 62
     1
 10
943.832501379
 20
228.1
 30
0.0
 11
943.832501379
 21
250.1
 31
0.0
  0
LINE
  8
0
  6
CONTINUOUS
 62
     1
 10
985.832501379
 20
247.1
 30
0.0
 11
1011.991923417
 21
247.1
 31
0.0
  0
LINE
  8
0
  6
CONTINUOUS
 62
     1
 10
1011.991923417
 20
231.1
 30
0.0
 11
985.832501379
 21
231.1
 31
0.0
  0
LINE
  8
0
  6
CONTINUOUS
 62
     1
 10
943.832501379
 20
231.1
 30
0.0
 11
884.182501379
 21
231.1
 31
0.0
  0
LINE
  8
0
  6
CONTINUOUS
 62
     1
 10
884.182501379
 20
247.1
 30
0.0
 11
943.832501379
 21
247.1
 31
0.0
  0
LINE
  8
0
  6
CONTINUOUS
 62
     1
 10
403.5
 20
748.1
 30
0.0
 11
412.5
 21
748.1
 31
0.0
  0
ARC
  8
0
  6
CONTINUOUS
 62
     1
 10
412.5
 20
751.1
 30
0.0
 40
3.0
 50
270.0
 51
0.0
  0
LINE
  8
0
  6
CONTINUOUS
 62
     1
 10
415.5
 20
751.1
 30
0.0
 11
415.5
 21
919.1
 31
0.0
  0
LINE
  8
0
  6
CONTINUOUS
 62
     1
 10
415.5
 20
919.1
 30
0.0
 11
415.5
 21
945.1
 31
0.0
  0
ARC
  8
0
  6
CONTINUOUS
 62
     1
 10
417.5
 20
921.1
 30
0.0
 40
2.0
 50
180.0
 51
270.0
  0
LINE
  8
0
  6
CONTINUOUS
 62
     1
 10
450.5
 20
777.1
 30
0.0
 11
450.5
 21
919.0
 31
0.0
  0
ARC
  8
0
  6
CONTINUOUS
 62
     1
 10
417.5
 20
775.1
 30
0.0
 40
2.0
 50
90.0
 51
180.0
  0
ARC
  8
0
  6
CONTINUOUS
 62
     1
 10
468.05
 20
921.6
 30
0.0
 40
3.0
 50
180.0
 51
270.0
  0
ARC
  8
0
  6
CONTINUOUS
 62
     1
 10
508.05
 20
921.6
 30
0.0
 40
3.0
 50
270.0
 51
0.0
  0
LINE
  8
0
  6
CONTINUOUS
 62
     1
 10
511.05
 20
921.600005395
 30
0.0
 11
511.05
 21
927.1
 31
0.0
  0
LINE
  8
0
  6
CONTINUOUS
 62
     1
 10
465.05
 20
921.600005395
 30
0.0
 11
465.05
 21
927.1
 31
0.0
  0
LINE
  8
0
  6
LTYPE2
 62
     2
 10
488.0
 20
912.1
 30
0.0
 11
488.0
 21
987.1
 31
0.0
  0
LINE
  8
0
  6
CONTINUOUS
 62
     1
 10
655.310381815
 20
899.927582684
 30
0.0
 11
672.689618185
 21
898.272417316
 31
0.0
  0
ARC
  8
0
  6
CONTINUOUS
 62
     1
 10
655.5
 20
901.918573629
 30
0.0
 40
2.0
 50
180.0
 51
264.559667969
  0
ARC
  8
0
  6
CONTINUOUS
 62
     1
 10
676.5
 20
873.1
 30
0.0
 40
2.0
 50
180.0
 51
270.0
  0
LINE
  8
0
  6
CONTINUOUS
 62
     1
 10
685.5
 20
871.1
 30
0.0
 11
676.5
 21
871.1
 31
0.0
  0
ARC
  8
0
  6
CONTINUOUS
 62
     1
 10
685.5
 20
869.1
 30
0.0
 40
2.0
 50
0.0
 51
90.0
  0
LINE
  8
0
  6
CONTINUOUS
 62
     1
 10
687.5
 20
869.1
 30
0.0
 11
687.5
 21
827.1
 31
0.0
  0
ARC
  8
0
  6
CONTINUOUS
 62
     1
 10
685.5
 20
827.1
 30
0.0
 40
2.0
 50
270.0
 51
0.0
  0
ARC
  8
0
  6
CONTINUOUS
 62
     1
 10
676.5
 20
823.1
 30
0.0
 40
2.0
 50
90.0
 51
180.0
  0
LINE
  8
0
  6
CONTINUOUS
 62
     1
 10
685.5
 20
825.1
 30
0.0
 11
676.5
 21
825.1
 31
0.0
  0
LINE
  8
0
  6
CONTINUOUS
 62
     1
 10
690.5
 20
859.6
 30
0.0
 11
687.5
 21
859.6
 31
0.0
  0
LINE
  8
0
  6
CONTINUOUS
 62
     1
 10
690.5
 20
836.6
 30
0.0
 11
687.5
 21
836.6
 31
0.0
  0
LINE
  8
0
  6
CONTINUOUS
 62
     1
 10
690.5
 20
859.6
 30
0.0
 11
690.5
 21
836.6
 31
0.0
  0
LINE
  8
0
  6
LTYPE2
 62
     2
 10
667.0
 20
891.1
 30
0.0
 11
680.2
 21
891.1
 31
0.0
  0
LINE
  8
0
  6
CONTINUOUS
 62
     1
 10
655.310381815
 20
796.272417316
 30
0.0
 11
672.689618185
 21
797.927582684
 31
0.0
  0
LINE
  8
0
  6
LTYPE2
 62
     2
 10
667.0
 20
805.1
 30
0.0
 11
680.2
 21
805.1
 31
0.0
  0
ARC
  8
0
  6
CONTINUOUS
 62
     1
 10
655.5
 20
794.281426371
 30
0.0
 40
2.0
 50
95.440332031
 51
180.0
  0
LINE
  8
0
  6
CONTINUOUS
 62
     1
 10
674.5
 20
896.281426371
 30
0.0
 11
674.5
 21
800.48812
 31
0.0
  0
ARC
  8
0
  6
CONTINUOUS
 62
     1
 10
672.5
 20
896.281426371
 30
0.0
 40
2.0
 50
0.0
 51
84.559667969
  0
LINE
  8
0
  6
CONTINUOUS
 62
     1
 10
678.0002
 20
894.58244
 30
0.0
 11
677.348117512
 21
895.71188
 31
0.0
  0
LINE
  8
0
  6
CONTINUOUS
 62
     1
 10
678.0002
 20
887.61756
 30
0.0
 11
677.348117512
 21
886.48812
 31
0.0
  0
ARC
  8
0
  6
CONTINUOUS
 62
     1
 10
673.596945074
 20
891.1
 30
0.0
 40
4.403254926
 50
328.419912243
 51
31.580087757
  0
ARC
  8
0
  6
CONTINUOUS
 62
     1
 10
676.655279868
 20
894.55891
 30
0.0
 40
1.34512595
 50
301.002313915
 51
2.989498403
  0
LINE
  8
0
  6
CONTINUOUS
 62
     1
 10
678.0002
 20
887.61756
 30
0.0
 11
677.348117512
 21
886.48812
 31
0.0
  0
ARC
  8
0
  6
CONTINUOUS
 62
     1
 10
676.655279868
 20
887.64109
 30
0.0
 40
1.34512595
 50
357.010501597
 51
58.997686085
  0
LINE
  8
0
  6
CONTINUOUS
 62
     1
 10
674.5
 20
895.71188
 30
0.0
 11
677.348117512
 21
895.71188
 31
0.0
  0
LINE
  8
0
  6
CONTINUOUS
 62
     1
 10
674.5
 20
893.40594
 30
0.0
 11
677.348117512
 21
893.40594
 31
0.0
  0
LINE
  8
0
  6
CONTINUOUS
 62
     1
 10
674.5
 20
888.79406
 30
0.0
 11
677.348117512
 21
888.79406
 31
0.0
  0
LINE
  8
0
  6
CONTINUOUS
 62
     1
 10
674.5
 20
886.48812
 30
0.0
 11
677.348117512
 21
886.48812
 31
0.0
  0
LINE
  8
0
  6
CONTINUOUS
 62
     1
 10
678.0002
 20
894.58244
 30
0.0
 11
678.0002
 21
887.61756
 31
0.0
  0
LINE
  8
0
  6
CONTINUOUS
 62
     1
 10
695.5
 20
852.452902
 30
0.0
 11
694.684924603
 21
853.864654
 31
0.0
  0
LINE
  8
0
  6
CONTINUOUS
 62
     1
 10
695.5
 20
843.747098
 30
0.0
 11
694.684924603
 21
842.335346
 31
0.0
  0
ARC
  8
0
  6
CONTINUOUS
 62
     1
 10
689.996118477
 20
848.1
 30
0.0
 40
5.503881523
 50
328.419912243
 51
31.580087757
  0
ARC
  8
0
  6
CONTINUOUS
 62
     1
 10
693.818906993
 20
852.4234905
 30
0.0
 40
1.681350271
 50
301.002313915
 51
2.989498403
  0
LINE
  8
0
  6
CONTINUOUS
 62
     1
 10
695.5
 20
843.747098
 30
0.0
 11
694.684924603
 21
842.335346
 31
0.0
  0
ARC
  8
0
  6
CONTINUOUS
 62
     1
 10
693.818906993
 20
843.7765095
 30
0.0
 40
1.681350271
 50
357.010501597
 51
58.997686085
  0
LINE
  8
0
  6
CONTINUOUS
 62
     1
 10
691.50039
 20
850.982327
 30
0.0
 11
694.684924603
 21
850.982327
 31
0.0
  0
LINE
  8
0
  6
CONTINUOUS
 62
     1
 10
691.50039
 20
853.864654
 30
0.0
 11
694.684924603
 21
853.864654
 31
0.0
  0
LINE
  8
0
  6
CONTINUOUS
 62
     1
 10
691.50039
 20
845.217673
 30
0.0
 11
694.684924603
 21
845.217673
 31
0.0
  0
LINE
  8
0
  6
CONTINUOUS
 62
     1
 10
691.50039
 20
842.335346
 30
0.0
 11
694.684924603
 21
842.335346
 31
0.0
  0
LINE
  8
0
  6
CONTINUOUS
 62
     1
 10
695.5
 20
843.747098
 30
0.0
 11
695.5
 21
852.452902
 31
0.0
  0
LINE
  8
0
  6
CONTINUOUS
 62
     1
 10
691.50039
 20
854.6
 30
0.0
 11
690.5
 21
854.6
 31
0.0
  0
LINE
  8
0
  6
CONTINUOUS
 62
     1
 10
691.50039
 20
854.6
 30
0.0
 11
691.50039
 21
841.6
 31
0.0
  0
LINE
  8
0
  6
CONTINUOUS
 62
     1
 10
691.50039
 20
841.6
 30
0.0
 11
690.5
 21
841.6
 31
0.0
  0
LINE
  8
0
  6
CONTINUOUS
 62
     1
 10
678.0002
 20
801.61756
 30
0.0
 11
677.348117512
 21
800.48812
 31
0.0
  0
LINE
  8
0
  6
CONTINUOUS
 62
     1
 10
678.0002
 20
808.58244
 30
0.0
 11
677.348117512
 21
809.71188
 31
0.0
  0
ARC
  8
0
  6
CONTINUOUS
 62
     1
 10
673.596945074
 20
805.1
 30
0.0
 40
4.403254926
 50
328.419912243
 51
31.580087757
  0
ARC
  8
0
  6
CONTINUOUS
 62
     1
 10
676.655279868
 20
801.64109
 30
0.0
 40
1.34512595
 50
357.010501597
 51
58.997686085
  0
LINE
  8
0
  6
CONTINUOUS
 62
     1
 10
678.0002
 20
808.58244
 30
0.0
 11
677.348117512
 21
809.71188
 31
0.0
  0
ARC
  8
0
  6
CONTINUOUS
 62
     1
 10
676.655279868
 20
808.55891
 30
0.0
 40
1.34512595
 50
301.002313915
 51
2.989498403
  0
LINE
  8
0
  6
CONTINUOUS
 62
     1
 10
674.5
 20
800.48812
 30
0.0
 11
677.348117512
 21
800.48812
 31
0.0
  0
LINE
  8
0
  6
CONTINUOUS
 62
     1
 10
674.5
 20
802.79406
 30
0.0
 11
677.348117512
 21
802.79406
 31
0.0
  0
LINE
  8
0
  6
CONTINUOUS
 62
     1
 10
674.5
 20
807.40594
 30
0.0
 11
677.348117512
 21
807.40594
 31
0.0
  0
LINE
  8
0
  6
CONTINUOUS
 62
     1
 10
674.5
 20
809.71188
 30
0.0
 11
677.348117512
 21
809.71188
 31
0.0
  0
LINE
  8
0
  6
CONTINUOUS
 62
     1
 10
678.0002
 20
801.61756
 30
0.0
 11
678.0002
 21
808.58244
 31
0.0
  0
ARC
  8
0
  6
CONTINUOUS
 62
     1
 10
672.5
 20
799.918573629
 30
0.0
 40
2.0
 50
275.440332031
 51
0.0
  0
LINE
  8
0
  6
LTYPE1
 62
     1
 10
682.6
 20
862.6
 30
0.0
 11
674.5
 21
853.4
 31
0.0
  0
ARC
  8
0
  6
LTYPE1
 62
     1
 10
686.0
 20
859.6
 30
0.0
 40
4.5
 50
290.9
 51
137.7
  0
LINE
  8
0
  6
LTYPE1
 62
     1
 10
680.5
 20
852.6
 30
0.0
 11
674.5
 21
853.4
 31
0.0
  0
LINE
  8
0
  6
LTYPE1
 62
     1
 10
687.6
 20
855.4
 30
0.0
 11
680.5
 21
852.6
 31
0.0
  0
LINE
  8
0
  6
LTYPE1
 62
     1
 10
680.5
 20
843.6
 30
0.0
 11
674.5
 21
842.8
 31
0.0
  0
ARC
  8
0
  6
LTYPE1
 62
     1
 10
686.0
 20
836.6
 30
0.0
 40
4.5
 50
222.3
 51
69.1
  0
LINE
  8
0
  6
LTYPE1
 62
     1
 10
682.6
 20
833.6
 30
0.0
 11
674.5
 21
842.8
 31
0.0
  0
LINE
  8
0
  6
LTYPE1
 62
     1
 10
687.6
 20
840.8
 30
0.0
 11
680.5
 21
843.6
 31
0.0
  0
LINE
  8
0
  6
LTYPE1
 62
     1
 10
680.5
 20
852.6
 30
0.0
 11
680.5
 21
843.6
 31
0.0
  0
LINE
  8
0
  6
CONTINUOUS
 62
     1
 10
645.5
 20
777.1
 30
0.0
 11
645.5
 21
919.1
 31
0.0
  0
LINE
  8
0
  6
CONTINUOUS
 62
     1
 10
417.5
 20
919.1
 30
0.0
 11
650.5
 21
919.1
 31
0.0
  0
ARC
  8
0
  6
CONTINUOUS
 62
     1
 10
650.5
 20
916.1
 30
0.0
 40
3.0
 50
0.0
 51
90.0
  0
LINE
  8
0
  6
CONTINUOUS
 62
     1
 10
417.5
 20
777.1
 30
0.0
 11
650.5
 21
777.1
 31
0.0
  0
LINE
  8
0
  6
CONTINUOUS
 62
     1
 10
653.5
 20
916.1
 30
0.0
 11
653.5
 21
780.1
 31
0.0
  0
ARC
  8
0
  6
CONTINUOUS
 62
     1
 10
650.5
 20
780.1
 30
0.0
 40
3.0
 50
270.0
 51
0.0
  0
LINE
  8
0
  6
CONTINUOUS
 62
     2
 10
400.5
 20
906.436309448
 30
0.0
 11
430.5
 21
906.436309448
 31
0.0
  0
LINE
  8
0
  6
CONTINUOUS
 62
     1
 10
422.5
 20
896.436309448
 30
0.0
 11
422.5
 21
916.436309448
 31
0.0
  0
LINE
  8
0
  6
CONTINUOUS
 62
     1
 10
415.5
 20
916.436309448
 30
0.0
 11
422.5
 21
916.436309448
 31
0.0
  0
LINE
  8
0
  6
CONTINUOUS
 62
     1
 10
415.5
 20
896.436309448
 30
0.0
 11
422.5
 21
896.436309448
 31
0.0
  0
LINE
  8
0
  6
CONTINUOUS
 62
     1
 10
415.5
 20
911.436309448
 30
0.0
 11
422.5
 21
911.436309448
 31
0.0
  0
LINE
  8
0
  6
CONTINUOUS
 62
     1
 10
415.5
 20
901.436309448
 30
0.0
 11
422.5
 21
901.436309448
 31
0.0
  0
LINE
  8
0
  6
CONTINUOUS
 62
     2
 10
400.5
 20
789.763690552
 30
0.0
 11
430.5
 21
789.763690552
 31
0.0
  0
LINE
  8
0
  6
CONTINUOUS
 62
     1
 10
422.5
 20
799.763690552
 30
0.0
 11
422.5
 21
779.763690552
 31
0.0
  0
LINE
  8
0
  6
CONTINUOUS
 62
     1
 10
415.5
 20
779.763690552
 30
0.0
 11
422.5
 21
779.763690552
 31
0.0
  0
LINE
  8
0
  6
CONTINUOUS
 62
     1
 10
415.5
 20
799.763690552
 30
0.0
 11
422.5
 21
799.763690552
 31
0.0
  0
LINE
  8
0
  6
CONTINUOUS
 62
     1
 10
415.5
 20
784.763690552
 30
0.0
 11
422.5
 21
784.763690552
 31
0.0
  0
LINE
  8
0
  6
CONTINUOUS
 62
     1
 10
415.5
 20
794.763690552
 30
0.0
 11
422.5
 21
794.763690552
 31
0.0
  0
LINE
  8
0
  6
CONTINUOUS
 62
     2
 10
690.3
 20
865.6
 30
0.0
 11
698.593374416
 21
874.952536597
 31
0.0
  0
LINE
  8
0
  6
CONTINUOUS
 62
     2
 10
690.3
 20
865.6
 30
0.0
 11
692.806004628
 21
877.846221491
 31
0.0
  0
LINE
  8
0
  6
CONTINUOUS
 62
     2
 10
690.3
 20
865.6
 30
0.0
 11
763.3
 21
1011.6
 31
0.0
  0
LINE
  8
2
  6
CONTINUOUS
 62
     2
 10
651.5
 20
919.1
 30
0.0
 11
747.5
 21
919.1
 31
0.0
  0
LINE
  8
2
  6
CONTINUOUS
 62
     2
 10
651.5
 20
777.1
 30
0.0
 11
747.5
 21
777.1
 31
0.0
  0
TEXT
  8
0
  6
CONTINUOUS
 62
     2
 10
471.040009455
 20
805.1
 30
0.0
 40
18.0
  1
エコノストップモータ
 50
0.0
 41
0.9
 51
0.0
  7
KANJI37
  0
TEXT
  8
0
  6
CONTINUOUS
 62
     2
 10
471.040009455
 20
825.1
 30
0.0
 40
18.0
  1
日本電産
 50
0.0
 41
0.9
 51
0.0
  7
KANJI37
  0
LINE
  8
0
  6
LTYPE3
 62
     2
 10
700.0
 20
849.0
 30
0.0
 11
288.6
 21
849.0
 31
0.0
  0
LINE
  8
0
  6
CONTINUOUS
 62
     1
 10
391.0
 20
825.0
 30
0.0
 11
391.0
 21
883.3
 31
0.0
  0
ARC
  8
0
  6
CONTINUOUS
 62
     1
 10
385.0
 20
825.0
 30
0.0
 40
6.0
 50
270.0
 51
0.0
  0
LINE
  8
0
  6
CONTINUOUS
 62
     1
 10
395.0
 20
825.0
 30
0.0
 11
395.0
 21
944.0
 31
0.0
  0
LINE
  8
0
  6
CONTINUOUS
 62
     1
 10
389.0
 20
819.0
 30
0.0
 11
332.0
 21
819.0
 31
0.0
  0
ARC
  8
0
  6
CONTINUOUS
 62
     1
 10
389.0
 20
825.0
 30
0.0
 40
6.0
 50
270.0
 51
0.0
  0
LINE
  8
0
  6
CONTINUOUS
 62
     1
 10
403.0
 20
748.2
 30
0.0
 11
403.0
 21
948.2
 31
0.0
  0
LINE
  8
0
  6
CONTINUOUS
 62
     1
 10
395.0
 20
944.0
 30
0.0
 11
391.0
 21
892.0
 31
0.0
  0
LINE
  8
0
  6
CONTINUOUS
 62
     1
 10
391.0
 20
886.4
 30
0.0
 11
391.0
 21
892.0
 31
0.0
  0
LINE
  8
0
  6
CONTINUOUS
 62
     1
 10
298.0
 20
832.0
 30
0.0
 11
298.0
 21
866.0
 31
0.0
  0
LINE
  8
0
  6
CONTINUOUS
 62
     1
 10
328.0
 20
832.0
 30
0.0
 11
328.0
 21
866.0
 31
0.0
  0
LINE
  8
0
  6
CONTINUOUS
 62
     1
 10
332.0
 20
866.0
 30
0.0
 11
298.0
 21
866.0
 31
0.0
  0
LINE
  8
0
  6
CONTINUOUS
 62
     1
 10
332.0
 20
832.0
 30
0.0
 11
298.0
 21
832.0
 31
0.0
  0
LINE
  8
0
  6
CONTINUOUS
 62
     1
 10
366.0
 20
898.0
 30
0.0
 11
366.0
 21
941.0
 31
0.0
  0
LINE
  8
0
  6
CONTINUOUS
 62
     1
 10
360.0
 20
892.0
 30
0.0
 11
332.0
 21
892.0
 31
0.0
  0
ARC
  8
0
  6
CONTINUOUS
 62
     1
 10
360.0
 20
898.0
 30
0.0
 40
6.0
 50
270.0
 51
360.0
  0
LINE
  8
0
  6
CONTINUOUS
 62
     1
 10
391.0
 20
892.0
 30
0.0
 11
360.0
 21
892.0
 31
0.0
  0
LINE
  8
0
  6
CONTINUOUS
 62
     2
 10
322.5
 20
865.8
 30
0.0
 11
321.019645058
 21
878.212032438
 31
0.0
  0
LINE
  8
0
  6
CONTINUOUS
 62
     2
 10
322.5
 20
865.8
 30
0.0
 11
315.011958794
 21
875.808957933
 31
0.0
  0
LINE
  8
0
  6
CONTINUOUS
 62
     2
 10
322.5
 20
865.8
 30
0.0
 11
282.58
 21
965.6
 31
0.0
  0
ARC
  8
0
  6
CONTINUOUS
 62
     2
 10
257.0
 20
850.0
 30
0.0
 40
20.0
 50
231.952957468
 51
156.801409486
  0
LINE
  8
0
  6
CONTINUOUS
 62
     2
 10
238.6170994
 20
857.878385972
 30
0.0
 11
240.91179211
 21
867.715824749
 31
0.0
  0
TEXT
  8
0
  6
CONTINUOUS
 62
     2
 10
176.6170994
 20
840.878385972
 30
0.0
 40
15.0
  1
前進方向
 50
0.0
 41
0.9
 51
0.0
  7
KANJI33
  0
LINE
  8
0
  6
CONTINUOUS
 62
     2
 10
238.6170994
 20
857.878385972
 30
0.0
 11
246.885260778
 21
862.785722507
 31
0.0
  0
LINE
  8
0
  6
CONTINUOUS
 62
     1
 10
379.0
 20
950.0
 30
0.0
 11
388.2
 21
950.0
 31
0.0
  0
CIRCLE
  8
0
  6
CONTINUOUS
 62
     1
 10
379.0
 20
964.0
 30
0.0
 40
12.5
  0
LINE
  8
0
  6
CONTINUOUS
 62
     1
 10
379.0
 20
951.5
 30
0.0
 11
388.2
 21
950.0
 31
0.0
  0
ARC
  8
0
  6
CONTINUOUS
 62
     1
 10
379.0
 20
964.0
 30
0.0
 40
20.5
 50
300.423432294
 51
0.0
  0
LINE
  8
0
  6
CONTINUOUS
 62
     1
 10
388.760585153
 20
945.094879912
 30
0.0
 11
388.2
 21
950.0
 31
0.0
  0
ARC
  8
0
  6
CONTINUOUS
 62
     1
 10
389.947984073
 20
945.273488336
 30
0.0
 40
1.2
 50
118.393405187
 51
188.554293104
  0
LINE
  8
0
  6
CONTINUOUS
 62
     1
 10
379.0
 20
950.0
 30
0.0
 11
369.8
 21
950.0
 31
0.0
  0
LINE
  8
0
  6
CONTINUOUS
 62
     1
 10
379.0
 20
951.5
 30
0.0
 11
369.8
 21
950.0
 31
0.0
  0
LINE
  8
0
  6
CONTINUOUS
 62
     1
 10
369.239414847
 20
945.094879912
 30
0.0
 11
369.8
 21
950.0
 31
0.0
  0
ARC
  8
0
  6
CONTINUOUS
 62
     1
 10
368.052015927
 20
945.273488336
 30
0.0
 40
1.2
 50
351.445706896
 51
61.606594813
  0
ARC
  8
0
  6
CONTINUOUS
 62
     1
 10
379.0
 20
964.0
 30
0.0
 40
20.5
 50
0.0
 51
239.707348078
  0
LINE
  8
0
  6
CONTINUOUS
 62
     1
 10
369.114285714
 20
944.0
 30
0.0
 11
369.239414847
 21
945.094879912
 31
0.0
  0
LINE
  8
0
  6
CONTINUOUS
 62
     1
 10
388.885714286
 20
944.0
 30
0.0
 11
388.760585153
 21
945.094879912
 31
0.0
  0
LINE
  8
0
  6
CONTINUOUS
 62
     1
 10
403.0
 20
944.0
 30
0.0
 11
369.0
 21
944.0
 31
0.0
  0
ARC
  8
0
  6
CONTINUOUS
 62
     1
 10
369.0
 20
941.0
 30
0.0
 40
3.0
 50
90.0
 51
180.0
  0
LINE
  8
0
  6
CONTINUOUS
 62
     1
 10
403.0
 20
948.2
 30
0.0
 11
413.0
 21
948.2
 31
0.0
  0
LINE
  8
0
  6
LTYPE3
 62
     2
 10
402.5
 20
964.0
 30
0.0
 11
353.5
 21
964.0
 31
0.0
  0
LINE
  8
0
  6
LTYPE3
 62
     2
 10
379.0
 20
930.1
 30
0.0
 11
379.0
 21
992.8
 31
0.0
  0
LINE
  8
0
  6
CONTINUOUS
 62
     2
 10
282.58
 20
965.6
 30
0.0
 11
201.6
 21
965.6
 31
0.0
  0
LINE
  8
0
  6
CONTINUOUS
 62
     1
 10
403.5
 20
948.1
 30
0.0
 11
412.5
 21
948.1
 31
0.0
  0
ARC
  8
0
  6
CONTINUOUS
 62
     1
 10
412.5
 20
945.1
 30
0.0
 40
3.0
 50
0.0
 51
90.0
  0
LINE
  8
0
  6
CONTINUOUS
 62
     1
 10
554.05
 20
938.1
 30
0.0
 11
554.05
 21
972.1
 31
0.0
  0
LINE
  8
0
  6
CONTINUOUS
 62
     1
 10
554.05
 20
938.1
 30
0.0
 11
528.05
 21
938.1
 31
0.0
  0
LINE
  8
0
  6
CONTINUOUS
 62
     1
 10
554.05
 20
972.1
 30
0.0
 11
528.05
 21
972.1
 31
0.0
  0
LINE
  8
0
  6
LTYPE2
 62
     2
 10
560.979475845
 20
955.1
 30
0.0
 11
520.979475845
 21
955.1
 31
0.0
  0
LINE
  8
0
  6
CONTINUOUS
 62
     1
 10
458.05
 20
930.1
 30
0.0
 11
458.05
 21
933.1
 31
0.0
  0
ARC
  8
0
  6
CONTINUOUS
 62
     1
 10
462.05
 20
927.1
 30
0.0
 40
3.0
 50
0.0
 51
90.0
  0
LINE
  8
0
  6
CONTINUOUS
 62
     1
 10
518.05
 20
930.1
 30
0.0
 11
518.05
 21
933.1
 31
0.0
  0
ARC
  8
0
  6
CONTINUOUS
 62
     1
 10
514.05
 20
927.1
 30
0.0
 40
3.0
 50
90.0
 51
180.0
  0
LINE
  8
0
  6
CONTINUOUS
 62
     1
 10
518.05
 20
930.1
 30
0.0
 11
458.05
 21
930.1
 31
0.0
  0
LINE
  8
0
  6
CONTINUOUS
 62
     1
 10
442.962087912
 20
935.1
 30
0.0
 11
535.05
 21
979.120045888
 31
0.0
  0
LINE
  8
0
  6
CONTINUOUS
 62
     1
 10
441.05
 20
939.1
 30
0.0
 11
442.962087912
 21
935.1
 31
0.0
  0
LINE
  8
0
  6
CONTINUOUS
 62
     1
 10
441.05
 20
939.1
 30
0.0
 11
533.137912088
 21
983.120045888
 31
0.0
  0
LINE
  8
0
  6
CONTINUOUS
 62
     1
 10
533.137912088
 20
983.120045888
 30
0.0
 11
535.05
 21
979.120045888
 31
0.0
  0
LINE
  8
0
  6
CONTINUOUS
 62
     1
 10
448.05
 20
942.446153846
 30
0.0
 11
448.05
 21
982.1
 31
0.0
  0
ARC
  8
0
  6
CONTINUOUS
 62
     1
 10
451.05
 20
982.1
 30
0.0
 40
3.0
 50
90.0
 51
180.0
  0
LINE
  8
0
  6
CONTINUOUS
 62
     1
 10
448.05
 20
936.1
 30
0.0
 11
448.05
 21
937.5321338
 31
0.0
  0
ARC
  8
0
  6
CONTINUOUS
 62
     1
 10
451.05
 20
936.1
 30
0.0
 40
3.0
 50
180.0
 51
270.0
  0
LINE
  8
0
  6
CONTINUOUS
 62
     1
 10
528.05
 20
936.1
 30
0.0
 11
528.05
 21
975.773892042
 31
0.0
  0
LINE
  8
0
  6
CONTINUOUS
 62
     1
 10
525.05
 20
933.1
 30
0.0
 11
451.05
 21
933.1
 31
0.0
  0
ARC
  8
0
  6
CONTINUOUS
 62
     1
 10
525.05
 20
936.1
 30
0.0
 40
3.0
 50
270.0
 51
0.0
  0
LINE
  8
0
  6
CONTINUOUS
 62
     1
 10
528.05
 20
980.687912088
 30
0.0
 11
528.05
 21
982.1
 31
0.0
  0
LINE
  8
0
  6
CONTINUOUS
 62
     1
 10
525.05
 20
985.1
 30
0.0
 11
451.05
 21
985.1
 31
0.0
  0
ARC
  8
0
  6
CONTINUOUS
 62
     1
 10
525.05
 20
982.1
 30
0.0
 40
3.0
 50
0.0
 51
90.0
  0
LINE
  8
0
  6
CONTINUOUS
 62
     2
 10
554.05
 20
955.1
 30
0.0
 11
562.343374416
 21
964.452536597
 31
0.0
  0
LINE
  8
0
  6
CONTINUOUS
 62
     2
 10
554.05
 20
955.1
 30
0.0
 11
556.556004628
 21
967.346221491
 31
0.0
  0
LINE
  8
0
  6
CONTINUOUS
 62
     2
 10
554.05
 20
955.1
 30
0.0
 11
577.68
 21
1002.36
 31
0.0
  0
LINE
  8
0
  6
CONTINUOUS
 62
     2
 10
577.68
 20
1002.36
 30
0.0
 11
661.08
 21
1002.36
 31
0.0
  0
TEXT
  8
0
  6
CONTINUOUS
 62
     2
 10
201.6
 20
970.6
 30
0.0
 40
18.0
  1
手動軸カバー
 50
0.0
 41
0.9
 51
0.0
  7
KANJI37
  0
TEXT
  8
0
  6
CONTINUOUS
 62
     2
 10
577.68
 20
1007.36
 30
0.0
 40
18.0
  1
ＰＦ３／４
 50
0.0
 41
0.9
 51
0.0
  7
KANJI37
  0
TEXT
  8
0
  6
CONTINUOUS
 62
     3
 10
204.466667
 20
943.766683
 30
1.5
 40
15.0
  1
手動軸□８
 50
0.0
 41
0.9
 51
0.0
  7
KANJI38
  0
LINE
  8
0
  6
CONTINUOUS
 62
     2
 10
763.3
 20
1011.6
 30
0.0
 11
916.15
 21
1011.6
 31
0.0
  0
TEXT
  8
0
  6
CONTINUOUS
 62
     2
 10
764.8
 20
1016.6
 30
0.0
 40
18.0
  1
ブレ－キ開放レバ－
 50
0.0
 41
0.9
 51
0.0
  7
KANJI37
  0
LINE
  8
2
  6
CONTINUOUS
 62
     2
 10
741.5
 20
919.1
 30
0.0
 11
737.617714323
 21
904.611112606
 31
0.0
  0
LINE
  8
2
  6
CONTINUOUS
 62
     2
 10
741.5
 20
919.1
 30
0.0
 11
745.382285677
 21
904.611112606
 31
0.0
  0
LINE
  8
2
  6
CONTINUOUS
 62
     2
 10
741.5
 20
919.1
 30
0.0
 11
741.5
 21
777.1
 31
0.0
  0
LINE
  8
2
  6
CONTINUOUS
 62
     2
 10
741.5
 20
777.1
 30
0.0
 11
745.382285677
 21
791.588887394
 31
0.0
  0
LINE
  8
2
  6
CONTINUOUS
 62
     2
 10
741.5
 20
777.1
 30
0.0
 11
737.617714323
 21
791.588887394
 31
0.0
  0
TEXT
  8
2
  6
CONTINUOUS
 62
     2
 10
735.5
 20
809.4
 30
0.0
 40
18.0
  1
φ１４２
 50
90.0
 41
0.9
 51
0.0
  7
KANJI37
  0
LINE
  8
0
  6
CONTINUOUS
 62
     2
 10
403.0
 20
954.2
 30
0.0
 11
403.0
 21
1056.29
 31
0.0
  0
LINE
  8
0
  6
CONTINUOUS
 62
     2
 10
403.0
 20
1050.29
 30
0.0
 11
414.591109915
 21
1047.184171459
 31
0.0
  0
LINE
  8
0
  6
CONTINUOUS
 62
     2
 10
403.0
 20
1050.29
 30
0.0
 11
414.591109915
 21
1053.395828541
 31
0.0
  0
LINE
  8
0
  6
CONTINUOUS
 62
     2
 10
403.0
 20
1050.29
 30
0.0
 11
695.0
 21
1050.29
 31
0.0
  0
LINE
  8
0
  6
CONTINUOUS
 62
     2
 10
695.0
 20
1050.29
 30
0.0
 11
683.408890085
 21
1053.395828541
 31
0.0
  0
LINE
  8
0
  6
CONTINUOUS
 62
     2
 10
695.0
 20
1050.29
 30
0.0
 11
683.408890085
 21
1047.184171459
 31
0.0
  0
TEXT
  8
0
  6
CONTINUOUS
 62
     3
 10
524.7
 20
1059.29
 30
0.0
 40
18.0
  1
２９２
 50
0.0
 41
0.9
 51
0.0
  7
KANJI37
  0
LINE
  8
0
  6
CONTINUOUS
 62
     2
 10
403.0
 20
1041.95
 30
0.0
 11
403.0
 21
1056.29
 31
0.0
  0
LINE
  8
0
  6
CONTINUOUS
 62
     2
 10
403.0
 20
1050.29
 30
0.0
 11
391.408890085
 21
1053.395828541
 31
0.0
  0
LINE
  8
0
  6
CONTINUOUS
 62
     2
 10
403.0
 20
1050.29
 30
0.0
 11
391.408890085
 21
1047.184171459
 31
0.0
  0
LINE
  8
0
  6
CONTINUOUS
 62
     2
 10
403.0
 20
1050.29
 30
0.0
 11
298.0
 21
1050.29
 31
0.0
  0
LINE
  8
0
  6
CONTINUOUS
 62
     2
 10
298.0
 20
1050.29
 30
0.0
 11
309.591109915
 21
1047.184171459
 31
0.0
  0
LINE
  8
0
  6
CONTINUOUS
 62
     2
 10
298.0
 20
1050.29
 30
0.0
 11
309.591109915
 21
1053.395828541
 31
0.0
  0
LINE
  8
0
  6
CONTINUOUS
 62
     2
 10
298.0
 20
872.0
 30
0.0
 11
298.0
 21
1056.29
 31
0.0
  0
TEXT
  8
0
  6
CONTINUOUS
 62
     3
 10
326.2
 20
1059.29
 30
0.0
 40
18.0
  1
１１３
 50
0.0
 41
0.9
 51
0.0
  7
KANJI37
  0
LINE
  8
0
  6
CONTINUOUS
 62
     2
 10
695.0
 20
857.13
 30
0.0
 11
695.0
 21
1056.29
 31
0.0
  0
LINE
  8
0
  6
CONTINUOUS
 62
     1
 10
332.0
 20
616.5
 30
0.0
 11
332.0
 21
892.0
 31
0.0
  0
LINE
  8
0
  6
CONTINUOUS
 62
     1
 10
403.0
 20
616.5
 30
0.0
 11
403.0
 21
751.0
 31
0.0
  0
LINE
  8
0
  6
CONTINUOUS
 62
     1
 10
403.0
 20
616.5
 30
0.0
 11
403.0
 21
944.0
 31
0.0
  0
LINE
  8
0
  6
CONTINUOUS
 62
     1
 10
1009.12
 20
1493.24
 30
0.0
 11
1786.72
 21
1493.24
 31
0.0
  0
LINE
  8
0
  6
CONTINUOUS
 62
     1
 10
1009.12
 20
1459.64
 30
0.0
 11
1786.72
 21
1459.64
 31
0.0
  0
TEXT
  8
0
  6
CONTINUOUS
 62
     2
 10
1057.12
 20
1469.24
 30
1.536
 40
15.36
  1
形
 50
0.0
 41
0.9
 51
0.0
  7
KANJI46
  0
TEXT
  8
0
  6
CONTINUOUS
 62
     2
 10
1150.72
 20
1469.24
 30
1.536
 40
15.36
  1
式
 50
0.0
 41
0.9
 51
0.0
  7
KANJI46
  0
TEXT
  8
0
  6
CONTINUOUS
 62
     2
 10
1223.2
 20
1468.28
 30
1.44
 40
14.4
  1
ストローク
 50
0.0
 41
0.9
 51
0.0
  7
KANJI47
  0
TEXT
  8
0
  6
CONTINUOUS
 62
     2
 10
1315.36
 20
1467.32
 30
0.0
 40
14.4
  1
ｍｉｎ　
 50
0.0
 41
0.9
 51
0.0
  7
KANJI48
  0
TEXT
  8
0
  6
CONTINUOUS
 62
     2
 10
1411.36
 20
1467.32
 30
0.0
 40
14.4
  1
ｍｉｎ　
 50
0.0
 41
0.9
 51
0.0
  7
KANJI48
  0
TEXT
  8
0
  6
CONTINUOUS
 62
     2
 10
1603.36
 20
1467.32
 30
0.0
 40
14.4
  1
ｍｉｎ　
 50
0.0
 41
0.9
 51
0.0
  7
KANJI48
  0
TEXT
  8
0
  6
CONTINUOUS
 62
     2
 10
1364.32
 20
1468.28
 30
1.68
 40
16.8
  1
ＡＬ
 50
0.0
 41
0.9
 51
0.0
  7
KANJI49
  0
TEXT
  8
0
  6
CONTINUOUS
 62
     2
 10
1460.32
 20
1468.28
 30
1.68
 40
16.8
  1
Ｌ
 50
0.0
 41
0.9
 51
0.0
  7
KANJI49
  0
TEXT
  8
0
  6
CONTINUOUS
 62
     2
 10
1541.92
 20
1468.28
 30
1.68
 40
16.8
  1
Ｃ
 50
0.0
 41
0.9
 51
0.0
  7
KANJI49
  0
TEXT
  8
0
  6
CONTINUOUS
 62
     2
 10
1652.32
 20
1468.28
 30
1.68
 40
16.8
  1
Ｐ
 50
0.0
 41
0.9
 51
0.0
  7
KANJI49
  0
TEXT
  8
0
  6
CONTINUOUS
 62
     2
 10
1751.08
 20
1467.92
 30
0.0
 40
12.96
  1
（ｋｇ）
 50
0.0
 41
0.740740741
 51
0.0
  7
KANJI50
  0
TEXT
  8
0
  6
CONTINUOUS
 62
     2
 10
1693.48
 20
1467.68
 30
1.44
 40
16.8
  1
概算重量
 50
0.0
 41
0.857142857
 51
0.0
  7
KANJI51
  0
LINE
  8
0
  6
CONTINUOUS
 62
     2
 10
1009.12
 20
1426.04
 30
0.0
 11
1786.72
 21
1426.04
 31
0.0
  0
LINE
  8
0
  6
CONTINUOUS
 62
     2
 10
1009.12
 20
1392.44
 30
0.0
 11
1786.72
 21
1392.44
 31
0.0
  0
TEXT
  8
0
  6
CONTINUOUS
 62
     2
 10
1232.32
 20
1434.08
 30
1.44
 40
14.4
  1
　２００
 50
0.0
 41
0.9
 51
0.0
  7
KANJI47
  0
TEXT
  8
0
  6
CONTINUOUS
 62
     2
 10
1232.32
 20
1400.48
 30
1.44
 40
14.4
  1
　３００
 50
0.0
 41
0.9
 51
0.0
  7
KANJI47
  0
TEXT
  8
0
  6
CONTINUOUS
 62
     2
 10
1232.32
 20
1266.08
 30
1.44
 40
14.4
  1
　７００
 50
0.0
 41
0.9
 51
0.0
  7
KANJI47
  0
LINE
  8
0
  6
CONTINUOUS
 62
     2
 10
1009.12
 20
1224.44
 30
0.0
 11
1786.72
 21
1224.44
 31
0.0
  0
LINE
  8
0
  6
CONTINUOUS
 62
     2
 10
1009.12
 20
1325.24
 30
0.0
 11
1786.72
 21
1325.24
 31
0.0
  0
LINE
  8
0
  6
CONTINUOUS
 62
     2
 10
1009.12
 20
1358.84
 30
0.0
 11
1786.72
 21
1358.84
 31
0.0
  0
LINE
  8
0
  6
CONTINUOUS
 62
     2
 10
1009.12
 20
1258.04
 30
0.0
 11
1786.72
 21
1258.04
 31
0.0
  0
LINE
  8
0
  6
CONTINUOUS
 62
     2
 10
1009.12
 20
1291.64
 30
0.0
 11
1786.72
 21
1291.64
 31
0.0
  0
TEXT
  8
0
  6
CONTINUOUS
 62
     2
 10
1232.32
 20
1333.28
 30
1.44
 40
14.4
  1
　５００
 50
0.0
 41
0.9
 51
0.0
  7
KANJI47
  0
TEXT
  8
0
  6
CONTINUOUS
 62
     2
 10
1232.32
 20
1366.88
 30
1.44
 40
14.4
  1
　４００
 50
0.0
 41
0.9
 51
0.0
  7
KANJI47
  0
TEXT
  8
0
  6
CONTINUOUS
 62
     2
 10
1232.32
 20
1299.68
 30
1.44
 40
14.4
  1
　６００
 50
0.0
 41
0.9
 51
0.0
  7
KANJI47
  0
TEXT
  8
0
  6
CONTINUOUS
 62
     2
 10
1232.32
 20
1232.48
 30
1.44
 40
14.4
  1
　８００
 50
0.0
 41
0.9
 51
0.0
  7
KANJI47
  0
TEXT
  8
0
  6
CONTINUOUS
 62
     2
 10
1616.32
 20
1434.08
 30
1.44
 40
14.4
  1
　　４５
 50
0.0
 41
0.9
 51
0.0
  7
KANJI47
  0
TEXT
  8
0
  6
CONTINUOUS
 62
     2
 10
1616.32
 20
1400.48
 30
1.44
 40
14.4
  1
　　４５
 50
0.0
 41
0.9
 51
0.0
  7
KANJI47
  0
TEXT
  8
0
  6
CONTINUOUS
 62
     2
 10
1616.32
 20
1366.88
 30
1.44
 40
14.4
  1
　　４５
 50
0.0
 41
0.9
 51
0.0
  7
KANJI47
  0
TEXT
  8
0
  6
CONTINUOUS
 62
     2
 10
1616.32
 20
1333.28
 30
1.44
 40
14.4
  1
　　４５
 50
0.0
 41
0.9
 51
0.0
  7
KANJI47
  0
TEXT
  8
0
  6
CONTINUOUS
 62
     2
 10
1616.32
 20
1299.68
 30
1.44
 40
14.4
  1
　　４５
 50
0.0
 41
0.9
 51
0.0
  7
KANJI47
  0
TEXT
  8
0
  6
CONTINUOUS
 62
     2
 10
1616.32
 20
1266.08
 30
1.44
 40
14.4
  1
　　４５
 50
0.0
 41
0.9
 51
0.0
  7
KANJI47
  0
TEXT
  8
0
  6
CONTINUOUS
 62
     2
 10
1616.32
 20
1232.48
 30
1.44
 40
14.4
  1
　　４５
 50
0.0
 41
0.9
 51
0.0
  7
KANJI47
  0
TEXT
  8
0
  6
CONTINUOUS
 62
     2
 10
1520.32
 20
1434.08
 30
1.44
 40
14.4
  1
　３７８
 50
0.0
 41
0.9
 51
0.0
  7
KANJI47
  0
TEXT
  8
0
  6
CONTINUOUS
 62
     2
 10
1520.32
 20
1400.48
 30
1.44
 40
14.4
  1
　４７８
 50
0.0
 41
0.9
 51
0.0
  7
KANJI47
  0
TEXT
  8
0
  6
CONTINUOUS
 62
     2
 10
1520.32
 20
1366.88
 30
1.44
 40
14.4
  1
　５７８
 50
0.0
 41
0.9
 51
0.0
  7
KANJI47
  0
TEXT
  8
0
  6
CONTINUOUS
 62
     2
 10
1520.32
 20
1333.28
 30
1.44
 40
14.4
  1
　６７８
 50
0.0
 41
0.9
 51
0.0
  7
KANJI47
  0
TEXT
  8
0
  6
CONTINUOUS
 62
     2
 10
1520.32
 20
1299.68
 30
1.44
 40
14.4
  1
　８１８
 50
0.0
 41
0.9
 51
0.0
  7
KANJI47
  0
TEXT
  8
0
  6
CONTINUOUS
 62
     2
 10
1520.32
 20
1266.08
 30
1.44
 40
14.4
  1
　９１８
 50
0.0
 41
0.9
 51
0.0
  7
KANJI47
  0
TEXT
  8
0
  6
CONTINUOUS
 62
     2
 10
1520.32
 20
1232.48
 30
1.44
 40
14.4
  1
１０１８
 50
0.0
 41
0.9
 51
0.0
  7
KANJI47
  0
TEXT
  8
0
  6
CONTINUOUS
 62
     2
 10
1424.32
 20
1434.08
 30
1.44
 40
14.4
  1
　４７３
 50
0.0
 41
0.9
 51
0.0
  7
KANJI47
  0
TEXT
  8
0
  6
CONTINUOUS
 62
     2
 10
1424.32
 20
1400.48
 30
1.44
 40
14.4
  1
　５７３
 50
0.0
 41
0.9
 51
0.0
  7
KANJI47
  0
TEXT
  8
0
  6
CONTINUOUS
 62
     2
 10
1424.32
 20
1366.88
 30
1.44
 40
14.4
  1
　６７３
 50
0.0
 41
0.9
 51
0.0
  7
KANJI47
  0
TEXT
  8
0
  6
CONTINUOUS
 62
     2
 10
1424.32
 20
1333.28
 30
1.44
 40
14.4
  1
　７７３
 50
0.0
 41
0.9
 51
0.0
  7
KANJI47
  0
TEXT
  8
0
  6
CONTINUOUS
 62
     2
 10
1424.32
 20
1299.68
 30
1.44
 40
14.4
  1
　９１３
 50
0.0
 41
0.9
 51
0.0
  7
KANJI47
  0
TEXT
  8
0
  6
CONTINUOUS
 62
     2
 10
1424.32
 20
1266.08
 30
1.44
 40
14.4
  1
１０１３
 50
0.0
 41
0.9
 51
0.0
  7
KANJI47
  0
TEXT
  8
0
  6
CONTINUOUS
 62
     2
 10
1424.32
 20
1232.48
 30
1.44
 40
14.4
  1
１１１３
 50
0.0
 41
0.9
 51
0.0
  7
KANJI47
  0
TEXT
  8
0
  6
CONTINUOUS
 62
     2
 10
1328.32
 20
1434.08
 30
1.44
 40
14.4
  1
　６１９
 50
0.0
 41
0.9
 51
0.0
  7
KANJI47
  0
TEXT
  8
0
  6
CONTINUOUS
 62
     2
 10
1328.32
 20
1400.48
 30
1.44
 40
14.4
  1
　７１９
 50
0.0
 41
0.9
 51
0.0
  7
KANJI47
  0
TEXT
  8
0
  6
CONTINUOUS
 62
     2
 10
1328.32
 20
1366.88
 30
1.44
 40
14.4
  1
　８１９
 50
0.0
 41
0.9
 51
0.0
  7
KANJI47
  0
TEXT
  8
0
  6
CONTINUOUS
 62
     2
 10
1328.32
 20
1333.28
 30
1.44
 40
14.4
  1
　９１９
 50
0.0
 41
0.9
 51
0.0
  7
KANJI47
  0
TEXT
  8
0
  6
CONTINUOUS
 62
     2
 10
1328.32
 20
1299.68
 30
1.44
 40
14.4
  1
１０５９
 50
0.0
 41
0.9
 51
0.0
  7
KANJI47
  0
TEXT
  8
0
  6
CONTINUOUS
 62
     2
 10
1328.32
 20
1266.08
 30
1.44
 40
14.4
  1
１１５９
 50
0.0
 41
0.9
 51
0.0
  7
KANJI47
  0
TEXT
  8
0
  6
CONTINUOUS
 62
     2
 10
1328.32
 20
1232.48
 30
1.44
 40
14.4
  1
１２５９
 50
0.0
 41
0.9
 51
0.0
  7
KANJI47
  0
LINE
  8
0
  6
CONTINUOUS
 62
     1
 10
1009.12
 20
1057.04
 30
0.0
 11
1786.72
 21
1057.04
 31
0.0
  0
LINE
  8
0
  6
CONTINUOUS
 62
     2
 10
1009.12
 20
1090.64
 30
0.0
 11
1786.72
 21
1090.64
 31
0.0
  0
LINE
  8
0
  6
CONTINUOUS
 62
     1
 10
1009.12
 20
1493.24
 30
0.0
 11
1009.12
 21
1057.04
 31
0.0
  0
LINE
  8
0
  6
CONTINUOUS
 62
     1
 10
1210.72
 20
1493.24
 30
0.0
 11
1210.72
 21
1057.04
 31
0.0
  0
LINE
  8
0
  6
CONTINUOUS
 62
     2
 10
1306.72
 20
1493.24
 30
0.0
 11
1306.72
 21
1057.04
 31
0.0
  0
LINE
  8
0
  6
CONTINUOUS
 62
     2
 10
1402.72
 20
1493.24
 30
0.0
 11
1402.72
 21
1057.04
 31
0.0
  0
LINE
  8
0
  6
CONTINUOUS
 62
     2
 10
1498.72
 20
1493.24
 30
0.0
 11
1498.72
 21
1057.04
 31
0.0
  0
LINE
  8
0
  6
CONTINUOUS
 62
     2
 10
1594.72
 20
1493.24
 30
0.0
 11
1594.72
 21
1057.04
 31
0.0
  0
LINE
  8
0
  6
CONTINUOUS
 62
     2
 10
1690.72
 20
1493.24
 30
0.0
 11
1690.72
 21
1057.04
 31
0.0
  0
LINE
  8
0
  6
CONTINUOUS
 62
     1
 10
1786.72
 20
1493.24
 30
0.0
 11
1786.72
 21
1057.04
 31
0.0
  0
LINE
  8
0
  6
CONTINUOUS
 62
     2
 10
1009.12
 20
1156.84
 30
0.0
 11
1786.72
 21
1156.84
 31
0.0
  0
LINE
  8
0
  6
CONTINUOUS
 62
     2
 10
1009.12
 20
1190.84
 30
0.0
 11
1786.72
 21
1190.84
 31
0.0
  0
TEXT
  8
0
  6
CONTINUOUS
 62
     2
 10
1232.32
 20
1165.28
 30
1.44
 40
14.4
  1
１０００
 50
0.0
 41
0.9
 51
0.0
  7
KANJI47
  0
TEXT
  8
0
  6
CONTINUOUS
 62
     2
 10
1232.32
 20
1198.88
 30
1.44
 40
14.4
  1
　９００
 50
0.0
 41
0.9
 51
0.0
  7
KANJI47
  0
TEXT
  8
0
  6
CONTINUOUS
 62
     2
 10
1328.32
 20
1198.88
 30
1.44
 40
14.4
  1
１３５９
 50
0.0
 41
0.9
 51
0.0
  7
KANJI47
  0
TEXT
  8
0
  6
CONTINUOUS
 62
     2
 10
1328.32
 20
1165.28
 30
1.44
 40
14.4
  1
１４５９
 50
0.0
 41
0.9
 51
0.0
  7
KANJI47
  0
TEXT
  8
0
  6
CONTINUOUS
 62
     2
 10
1424.32
 20
1198.88
 30
1.44
 40
14.4
  1
１２１３
 50
0.0
 41
0.9
 51
0.0
  7
KANJI47
  0
TEXT
  8
0
  6
CONTINUOUS
 62
     2
 10
1424.32
 20
1165.28
 30
1.44
 40
14.4
  1
１３１３
 50
0.0
 41
0.9
 51
0.0
  7
KANJI47
  0
TEXT
  8
0
  6
CONTINUOUS
 62
     2
 10
1520.32
 20
1198.88
 30
1.44
 40
14.4
  1
１１１８
 50
0.0
 41
0.9
 51
0.0
  7
KANJI47
  0
TEXT
  8
0
  6
CONTINUOUS
 62
     2
 10
1520.32
 20
1165.28
 30
1.44
 40
14.4
  1
１２１８
 50
0.0
 41
0.9
 51
0.0
  7
KANJI47
  0
TEXT
  8
0
  6
CONTINUOUS
 62
     2
 10
1616.32
 20
1198.88
 30
1.44
 40
14.4
  1
　　４５
 50
0.0
 41
0.9
 51
0.0
  7
KANJI47
  0
TEXT
  8
0
  6
CONTINUOUS
 62
     2
 10
1616.32
 20
1165.28
 30
1.44
 40
14.4
  1
　　４５
 50
0.0
 41
0.9
 51
0.0
  7
KANJI47
  0
LINE
  8
0
  6
CONTINUOUS
 62
     2
 10
1009.12
 20
1123.84
 30
0.0
 11
1786.72
 21
1123.84
 31
0.0
  0
TEXT
  8
0
  6
CONTINUOUS
 62
     2
 10
1616.32
 20
1131.88
 30
1.44
 40
14.4
  1
　　４５
 50
0.0
 41
0.9
 51
0.0
  7
KANJI47
  0
TEXT
  8
0
  6
CONTINUOUS
 62
     2
 10
1616.32
 20
1098.28
 30
1.44
 40
14.4
  1
　　４５
 50
0.0
 41
0.9
 51
0.0
  7
KANJI47
  0
TEXT
  8
0
  6
CONTINUOUS
 62
     2
 10
1232.32
 20
1131.88
 30
1.44
 40
14.4
  1
１１００
 50
0.0
 41
0.9
 51
0.0
  7
KANJI47
  0
TEXT
  8
0
  6
CONTINUOUS
 62
     2
 10
1232.32
 20
1098.28
 30
1.44
 40
14.4
  1
１２００
 50
0.0
 41
0.9
 51
0.0
  7
KANJI47
  0
TEXT
  8
0
  6
CONTINUOUS
 62
     2
 10
1520.32
 20
1131.88
 30
1.44
 40
14.4
  1
１３１８
 50
0.0
 41
0.9
 51
0.0
  7
KANJI47
  0
TEXT
  8
0
  6
CONTINUOUS
 62
     2
 10
1520.32
 20
1098.28
 30
1.44
 40
14.4
  1
１４１８
 50
0.0
 41
0.9
 51
0.0
  7
KANJI47
  0
TEXT
  8
0
  6
CONTINUOUS
 62
     2
 10
1424.32
 20
1131.88
 30
1.44
 40
14.4
  1
１４１３
 50
0.0
 41
0.9
 51
0.0
  7
KANJI47
  0
TEXT
  8
0
  6
CONTINUOUS
 62
     2
 10
1424.32
 20
1098.28
 30
1.44
 40
14.4
  1
１５１３
 50
0.0
 41
0.9
 51
0.0
  7
KANJI47
  0
TEXT
  8
0
  6
CONTINUOUS
 62
     2
 10
1328.32
 20
1131.88
 30
1.44
 40
14.4
  1
１５５９
 50
0.0
 41
0.9
 51
0.0
  7
KANJI47
  0
TEXT
  8
0
  6
CONTINUOUS
 62
     2
 10
1328.32
 20
1098.28
 30
1.44
 40
14.4
  1
１６５９
 50
0.0
 41
0.9
 51
0.0
  7
KANJI47
  0
TEXT
  8
0
  6
CONTINUOUS
 62
     2
 10
1024.72
 20
1433.72
 30
0.96
 40
14.4
  1
ＭＣＬＤ１－　　２Ｌ
 50
0.0
 41
0.833333333
 51
0.0
  7
KANJI52
  0
TEXT
  8
0
  6
CONTINUOUS
 62
     2
 10
1024.72
 20
1400.12
 30
0.96
 40
14.4
  1
ＭＣＬＤ１－　　３Ｌ
 50
0.0
 41
0.833333333
 51
0.0
  7
KANJI52
  0
TEXT
  8
0
  6
CONTINUOUS
 62
     2
 10
1024.72
 20
1366.52
 30
0.96
 40
14.4
  1
ＭＣＬＤ１－　　４Ｌ
 50
0.0
 41
0.833333333
 51
0.0
  7
KANJI52
  0
TEXT
  8
0
  6
CONTINUOUS
 62
     2
 10
1024.72
 20
1332.92
 30
0.96
 40
14.4
  1
ＭＣＬＤ１－　　５Ｌ
 50
0.0
 41
0.833333333
 51
0.0
  7
KANJI52
  0
TEXT
  8
0
  6
CONTINUOUS
 62
     2
 10
1024.72
 20
1299.32
 30
0.96
 40
14.4
  1
ＭＣＬＤ１－　　６Ｌ
 50
0.0
 41
0.833333333
 51
0.0
  7
KANJI52
  0
TEXT
  8
0
  6
CONTINUOUS
 62
     2
 10
1024.72
 20
1265.72
 30
0.96
 40
14.4
  1
ＭＣＬＤ１－　　７Ｌ
 50
0.0
 41
0.833333333
 51
0.0
  7
KANJI52
  0
TEXT
  8
0
  6
CONTINUOUS
 62
     2
 10
1024.72
 20
1232.12
 30
0.96
 40
14.4
  1
ＭＣＬＤ１－　　８Ｌ
 50
0.0
 41
0.833333333
 51
0.0
  7
KANJI52
  0
TEXT
  8
0
  6
CONTINUOUS
 62
     2
 10
1024.72
 20
1198.52
 30
0.96
 40
14.4
  1
ＭＣＬＤ１－　　９Ｌ
 50
0.0
 41
0.833333333
 51
0.0
  7
KANJI52
  0
TEXT
  8
0
  6
CONTINUOUS
 62
     2
 10
1024.72
 20
1164.92
 30
0.96
 40
14.4
  1
ＭＣＬＤ１－　１０Ｌ
 50
0.0
 41
0.833333333
 51
0.0
  7
KANJI52
  0
TEXT
  8
0
  6
CONTINUOUS
 62
     2
 10
1024.72
 20
1131.52
 30
0.96
 40
14.4
  1
ＭＣＬＤ１－　１１Ｌ
 50
0.0
 41
0.833333333
 51
0.0
  7
KANJI52
  0
TEXT
  8
0
  6
CONTINUOUS
 62
     2
 10
1024.72
 20
1097.92
 30
0.96
 40
14.4
  1
ＭＣＬＤ１－　１２Ｌ
 50
0.0
 41
0.833333333
 51
0.0
  7
KANJI52
  0
TEXT
  8
0
  6
CONTINUOUS
 62
     2
 10
1024.72
 20
1064.12
 30
0.96
 40
14.4
  1
ＭＣＬＤ１－　　　Ｌ
 50
0.0
 41
0.833333333
 51
0.0
  7
KANJI52
  0
TEXT
  8
0
  6
CONTINUOUS
 62
     2
 10
1712.32
 20
1434.08
 30
1.44
 40
14.4
  1
　５８
 50
0.0
 41
0.9
 51
0.0
  7
KANJI47
  0
TEXT
  8
0
  6
CONTINUOUS
 62
     2
 10
1712.32
 20
1400.48
 30
1.44
 40
14.4
  1
　６０
 50
0.0
 41
0.9
 51
0.0
  7
KANJI47
  0
TEXT
  8
0
  6
CONTINUOUS
 62
     2
 10
1712.32
 20
1366.88
 30
1.44
 40
14.4
  1
　６１
 50
0.0
 41
0.9
 51
0.0
  7
KANJI47
  0
TEXT
  8
0
  6
CONTINUOUS
 62
     2
 10
1712.32
 20
1333.28
 30
1.44
 40
14.4
  1
　６２
 50
0.0
 41
0.9
 51
0.0
  7
KANJI47
  0
TEXT
  8
0
  6
CONTINUOUS
 62
     2
 10
1712.32
 20
1299.68
 30
1.44
 40
14.4
  1
　６３
 50
0.0
 41
0.9
 51
0.0
  7
KANJI47
  0
TEXT
  8
0
  6
CONTINUOUS
 62
     2
 10
1712.32
 20
1266.08
 30
1.44
 40
14.4
  1
　６６
 50
0.0
 41
0.9
 51
0.0
  7
KANJI47
  0
TEXT
  8
0
  6
CONTINUOUS
 62
     2
 10
1712.32
 20
1232.48
 30
1.44
 40
14.4
  1
　６８
 50
0.0
 41
0.9
 51
0.0
  7
KANJI47
  0
TEXT
  8
0
  6
CONTINUOUS
 62
     2
 10
1712.32
 20
1198.88
 30
1.44
 40
14.4
  1
　７０
 50
0.0
 41
0.9
 51
0.0
  7
KANJI47
  0
TEXT
  8
0
  6
CONTINUOUS
 62
     2
 10
1712.32
 20
1165.28
 30
1.44
 40
14.4
  1
　７１
 50
0.0
 41
0.9
 51
0.0
  7
KANJI47
  0
TEXT
  8
0
  6
CONTINUOUS
 62
     2
 10
1712.32
 20
1131.88
 30
1.44
 40
14.4
  1
　７３
 50
0.0
 41
0.9
 51
0.0
  7
KANJI47
  0
TEXT
  8
0
  6
CONTINUOUS
 62
     2
 10
1712.32
 20
1098.28
 30
1.44
 40
14.4
  1
　７５
 50
0.0
 41
0.9
 51
0.0
  7
KANJI47
  0
LINE
  8
0
  6
CONTINUOUS
 62
     2
 10
450.2199996
 20
236.9999876
 30
0.0
 11
450.2199996
 21
183.0999876
 31
0.0
  0
LINE
  8
0
  6
CONTINUOUS
 62
     2
 10
291.0199996
 20
225.0999876
 30
0.0
 11
450.2199996
 21
225.0999876
 31
0.0
  0
LINE
  8
0
  6
CONTINUOUS
 62
     2
 10
450.2199996
 20
225.0999876
 30
0.0
 11
442.49259299
 21
227.170539961
 31
0.0
  0
LINE
  8
0
  6
CONTINUOUS
 62
     2
 10
450.2199996
 20
225.0999876
 30
0.0
 11
442.49259299
 21
223.029435239
 31
0.0
  0
TEXT
  8
0
  6
CONTINUOUS
 62
     3
 10
332.2199996
 20
227.0999876
 30
0.0
 40
15.0
  1
常用ストローク
 50
0.0
 41
0.9
 51
0.0
  7
KANJI33
  0
LINE
  8
0
  6
CONTINUOUS
 62
     2
 10
1387.467964258
 20
794.564647586
 30
0.0
 11
1356.399982657
 21
868.726926248
 31
0.0
  0
LINE
  8
0
  6
CONTINUOUS
 62
     2
 10
1387.467964258
 20
794.564647586
 30
0.0
 11
1381.348588842
 21
802.473708498
 31
0.0
  0
LINE
  8
0
  6
CONTINUOUS
 62
     2
 10
1387.467964258
 20
794.564647586
 30
0.0
 11
1386.122960148
 21
804.473782965
 31
0.0
  0
CIRCLE
  8
0
  6
CONTINUOUS
 62
     1
 10
1499.0
 20
849.0
 30
0.0
 40
71.0
  0
LINE
  8
0
  6
LTYPE2
 62
     2
 10
1449.0
 20
799.0
 30
0.0
 11
1433.0
 21
783.0
 31
0.0
  0
LINE
  8
0
  6
CONTINUOUS
 62
     1
 10
1445.663690552
 20
782.003436514
 30
0.0
 11
1435.663690552
 21
782.003436514
 31
0.0
  0
LINE
  8
0
  6
CONTINUOUS
 62
     1
 10
1435.663690552
 20
799.32394459
 30
0.0
 11
1445.663690552
 21
799.32394459
 31
0.0
  0
LINE
  8
0
  6
CONTINUOUS
 62
     1
 10
1445.663690552
 20
799.32394459
 30
0.0
 11
1450.663690552
 21
790.663690552
 31
0.0
  0
LINE
  8
0
  6
CONTINUOUS
 62
     1
 10
1450.663690552
 20
790.663690552
 30
0.0
 11
1445.663690552
 21
782.003436514
 31
0.0
  0
ARC
  8
0
  6
LTYPE2
 62
     2
 10
1499.0
 20
849.0
 30
0.0
 40
82.5
 50
212.912001095
 51
239.072060787
  0
LINE
  8
0
  6
CONTINUOUS
 62
     1
 10
1435.663690552
 20
782.003436514
 30
0.0
 11
1430.663690552
 21
790.663690552
 31
0.0
  0
LINE
  8
0
  6
CONTINUOUS
 62
     1
 10
1430.663690552
 20
790.663690552
 30
0.0
 11
1435.663690552
 21
799.32394459
 31
0.0
  0
LINE
  8
0
  6
CONTINUOUS
 62
     1
 10
1422.0
 20
750.866754132
 30
0.0
 11
1422.0
 21
786.731405856
 31
0.0
  0
LINE
  8
0
  6
LTYPE1
 62
     2
 10
1422.0
 20
715.360720927
 30
0.0
 11
1422.0
 21
750.866754132
 31
0.0
  0
LINE
  8
0
  6
LTYPE1
 62
     2
 10
1440.0
 20
717.525046491
 30
0.0
 11
1440.0
 21
742.719700758
 31
0.0
  0
ARC
  8
0
  6
CONTINUOUS
 62
     1
 10
1445.0
 20
748.0
 30
0.0
 40
5.0
 50
90.0
 51
179.999876362
  0
LINE
  8
0
  6
CONTINUOUS
 62
     1
 10
1440.0
 20
742.719700758
 30
0.0
 11
1440.0
 21
748.00001079
 31
0.0
  0
ARC
  8
0
  6
CONTINUOUS
 62
     1
 10
1499.0
 20
850.0
 30
0.0
 40
100.0
 50
216.226573591
 51
63.970407808
  0
LINE
  8
0
  6
CONTINUOUS
 62
     1
 10
1591.5
 20
887.996710384
 30
0.0
 11
1591.5
 21
908.529404499
 31
0.0
  0
ARC
  8
0
  6
CONTINUOUS
 62
     1
 10
1445.0
 20
640.0
 30
0.0
 40
5.0
 50
180.0
 51
270.0
  0
LINE
  8
0
  6
CONTINUOUS
 62
     1
 10
1440.0
 20
670.474953509
 30
0.0
 11
1440.0
 21
640.0
 31
0.0
  0
LINE
  8
0
  6
CONTINUOUS
 62
     1
 10
1344.789328379
 20
748.26157718
 30
0.0
 11
1485.463435192
 21
740.073435005
 31
0.0
  0
ARC
  8
0
  6
CONTINUOUS
 62
     1
 10
1435.57955443
 20
745.157571128
 30
0.0
 40
2.0
 50
345.0
 51
75.0
  0
LINE
  8
0
  6
CONTINUOUS
 62
     1
 10
1437.511406082
 20
744.639933037
 30
0.0
 11
1437.042999876
 21
742.891817276
 31
0.0
  0
LINE
  8
7
  6
CONTINUOUS
 62
     2
 10
1369.661406082
 20
819.429835768
 30
0.0
 11
1224.283705995
 21
819.429835768
 31
0.0
  0
TEXT
  8
2
  6
CONTINUOUS
 62
     2
 10
1259.378145063
 20
872.726926248
 30
0.0
 40
15.0
  1
２－ＰＦ１／２
 50
0.0
 41
0.9
 51
0.0
  7
KANJI33
  0
LINE
  8
2
  6
CONTINUOUS
 62
     2
 10
1356.399982657
 20
868.726926248
 30
0.0
 11
1257.467964258
 21
868.726926248
 31
0.0
  0
LINE
  8
0
  6
CONTINUOUS
 62
     1
 10
1459.3
 20
583.0
 30
0.0
 11
1448.7
 21
583.0
 31
0.0
  0
ARC
  8
0
  6
CONTINUOUS
 62
     1
 10
1454.4
 20
584.0
 30
0.0
 40
5.0
 50
272.3
 51
348.5
  0
ARC
  8
0
  6
CONTINUOUS
 62
     1
 10
1453.6
 20
584.0
 30
0.0
 40
5.0
 50
191.5
 51
267.7
  0
LINE
  8
0
  6
CONTINUOUS
 62
     1
 10
1454.6
 20
579.0
 30
0.0
 11
1453.4
 21
579.0
 31
0.0
  0
LINE
  8
0
  6
LTYPE5
 62
     2
 10
1454.0
 20
575.6
 30
0.0
 11
1454.0
 21
589.0
 31
0.0
  0
LINE
  8
0
  6
CONTINUOUS
 62
     1
 10
1549.3
 20
583.0
 30
0.0
 11
1538.7
 21
583.0
 31
0.0
  0
ARC
  8
0
  6
CONTINUOUS
 62
     1
 10
1544.4
 20
584.0
 30
0.0
 40
5.0
 50
272.3
 51
348.5
  0
ARC
  8
0
  6
CONTINUOUS
 62
     1
 10
1543.6
 20
584.0
 30
0.0
 40
5.0
 50
191.5
 51
267.7
  0
LINE
  8
0
  6
CONTINUOUS
 62
     1
 10
1544.6
 20
579.0
 30
0.0
 11
1543.4
 21
579.0
 31
0.0
  0
LINE
  8
0
  6
LTYPE5
 62
     2
 10
1544.0
 20
575.6
 30
0.0
 11
1544.0
 21
589.0
 31
0.0
  0
TEXT
  8
0
  6
CONTINUOUS
 62
     2
 10
1643.5200334
 20
126.899994
 30
1.8
 40
21.0
  1
０７．１０．０２
 50
0.0
 41
0.571428571
 51
0.0
  7
KANJI53
  0
LINE
  8
0
  6
CONTINUOUS
 62
     2
 10
1868.92
 20
896.7
 30
0.0
 11
2393.92
 21
896.7
 31
0.0
  0
LINE
  8
0
  6
CONTINUOUS
 62
     2
 10
1868.92
 20
854.7
 30
0.0
 11
2393.92
 21
854.7
 31
0.0
  0
LINE
  8
0
  6
CONTINUOUS
 62
     2
 10
1916.92
 20
1232.7
 30
0.0
 11
1916.92
 21
896.7
 31
0.0
  0
TEXT
  8
0
  6
CONTINUOUS
 62
     2
 10
1901.92
 20
865.5
 30
79.962857143
 40
22.8
  1
付属品
 50
0.0
 41
0.9
 51
0.0
  7
KANJI54
  0
TEXT
  8
0
  6
CONTINUOUS
 62
     2
 10
1901.92
 20
823.5
 30
180.445714286
 40
22.8
  1
台数
 50
0.0
 41
0.9
 51
0.0
  7
KANJI55
  0
LINE
  8
0
  6
CONTINUOUS
 62
     1
 10
1868.92
 20
1628.7
 30
0.0
 11
2393.92
 21
1628.7
 31
0.0
  0
TEXT
  8
0
  6
CONTINUOUS
 62
     2
 10
1943.92
 20
1584.9
 30
17.09964
 40
27.0
  1
マイティシリンダ仕様
 50
0.0
 41
0.9
 51
0.0
  7
KANJI56
  0
LINE
  8
0
  6
CONTINUOUS
 62
     2
 10
1916.92
 20
938.7
 30
0.0
 11
2393.92
 21
938.7
 31
0.0
  0
LINE
  8
0
  6
CONTINUOUS
 62
     2
 10
1916.92
 20
1064.7
 30
0.0
 11
2393.92
 21
1064.7
 31
0.0
  0
LINE
  8
0
  6
CONTINUOUS
 62
     2
 10
1916.92
 20
1106.7
 30
0.0
 11
2393.92
 21
1106.7
 31
0.0
  0
LINE
  8
0
  6
CONTINUOUS
 62
     2
 10
1868.92
 20
1316.7
 30
0.0
 11
2393.92
 21
1316.7
 31
0.0
  0
LINE
  8
0
  6
CONTINUOUS
 62
     2
 10
1868.92
 20
1274.7
 30
0.0
 11
2393.92
 21
1274.7
 31
0.0
  0
LINE
  8
0
  6
CONTINUOUS
 62
     2
 10
1868.92
 20
1232.7
 30
0.0
 11
2393.92
 21
1232.7
 31
0.0
  0
LINE
  8
0
  6
CONTINUOUS
 62
     2
 10
1916.92
 20
1148.7
 30
0.0
 11
2393.92
 21
1148.7
 31
0.0
  0
LINE
  8
0
  6
CONTINUOUS
 62
     2
 10
1916.92
 20
1190.7
 30
0.0
 11
2393.92
 21
1190.7
 31
0.0
  0
LINE
  8
0
  6
CONTINUOUS
 62
     2
 10
1868.92
 20
1526.7
 30
0.0
 11
2393.92
 21
1526.7
 31
0.0
  0
LINE
  8
0
  6
CONTINUOUS
 62
     2
 10
1868.92
 20
1484.7
 30
0.0
 11
2393.92
 21
1484.7
 31
0.0
  0
LINE
  8
0
  6
CONTINUOUS
 62
     2
 10
1868.92
 20
1442.7
 30
0.0
 11
2393.92
 21
1442.7
 31
0.0
  0
LINE
  8
0
  6
CONTINUOUS
 62
     2
 10
1868.92
 20
1400.7
 30
0.0
 11
2393.92
 21
1400.7
 31
0.0
  0
LINE
  8
0
  6
CONTINUOUS
 62
     2
 10
1868.92
 20
1358.7
 30
0.0
 11
2393.92
 21
1358.7
 31
0.0
  0
LINE
  8
0
  6
CONTINUOUS
 62
     2
 10
1868.92
 20
1568.7
 30
0.0
 11
2393.92
 21
1568.7
 31
0.0
  0
TEXT
  8
0
  6
CONTINUOUS
 62
     2
 10
1943.92
 20
1159.5
 30
33.439782857
 40
22.8
  1
電源電圧
 50
0.0
 41
0.9
 51
0.0
  7
KANJI57
  0
TEXT
  8
0
  6
CONTINUOUS
 62
     2
 10
1943.92
 20
1117.5
 30
60.42
 40
22.8
  1
周波数
 50
0.0
 41
0.9
 51
0.0
  7
KANJI58
  0
TEXT
  8
0
  6
CONTINUOUS
 62
     2
 10
1943.92
 20
1075.5
 30
141.36
 40
22.8
  1
電流
 50
0.0
 41
0.9
 51
0.0
  7
KANJI59
  0
TEXT
  8
0
  6
CONTINUOUS
 62
     2
 10
1943.92
 20
1033.5
 30
60.42
 40
22.8
  1
絶縁級
 50
0.0
 41
0.9
 51
0.0
  7
KANJI58
  0
TEXT
  8
0
  6
CONTINUOUS
 62
     2
 10
1901.92
 20
1537.5
 30
180.445714286
 40
22.8
  1
形式
 50
0.0
 41
0.9
 51
0.0
  7
KANJI55
  0
TEXT
  8
0
  6
CONTINUOUS
 62
     2
 10
1901.92
 20
1495.5
 30
180.445714286
 40
22.8
  1
推力
 50
0.0
 41
0.9
 51
0.0
  7
KANJI55
  0
TEXT
  8
0
  6
CONTINUOUS
 62
     2
 10
1901.92
 20
1453.5
 30
29.721428571
 40
22.8
  1
ストローク
 50
0.0
 41
0.9
 51
0.0
  7
KANJI60
  0
TEXT
  8
0
  6
CONTINUOUS
 62
     2
 10
1901.92
 20
1327.5
 30
180.445714286
 40
22.8
  1
構造
 50
0.0
 41
0.9
 51
0.0
  7
KANJI55
  0
TEXT
  8
0
  6
CONTINUOUS
 62
     2
 10
1901.92
 20
1285.5
 30
12.973851429
 40
22.8
  1
過負荷安全装置
 50
0.0
 41
0.9
 51
0.0
  7
KANJI61
  0
TEXT
  8
0
  6
CONTINUOUS
 62
     2
 10
1901.92
 20
1243.5
 30
79.962857143
 40
22.8
  1
塗装色
 50
0.0
 41
0.9
 51
0.0
  7
KANJI54
  0
TEXT
  8
0
  6
CONTINUOUS
 62
     2
 10
1877.92
 20
1369.5
 30
1.954285714
 40
22.8
  1
ピストンロッド回転トルク
 50
0.0
 41
0.9
 51
0.0
  7
KANJI62
  0
LINE
  8
0
  6
CONTINUOUS
 62
     2
 10
1868.92
 20
1022.7
 30
0.0
 11
2393.92
 21
1022.7
 31
0.0
  0
LINE
  8
0
  6
CONTINUOUS
 62
     2
 10
1916.92
 20
980.7
 30
0.0
 11
2393.92
 21
980.7
 31
0.0
  0
TEXT
  8
0
  6
CONTINUOUS
 62
     2
 10
1893.37
 20
1226.7
 30
13.2
 40
21.0
  1
モ　トル仕様
 50
0.0
 41
0.9
 51
0.0
  7
KANJI63
  0
TEXT
  8
0
  6
CONTINUOUS
 62
     2
 10
1893.37
 20
1004.7
 30
1.2
 40
21.0
  1
ブレ　キ
 50
0.0
 41
0.9
 51
0.0
  7
KANJI64
  0
LINE
  8
0
  6
CONTINUOUS
 62
     2
 10
1891.72
 20
954.9
 30
0.0
 11
1891.72
 21
942.3
 31
0.0
  0
TEXT
  8
0
  6
CONTINUOUS
 62
     2
 10
2203.42
 20
1286.7
 30
9.0
 40
21.0
  1
推力リミッタ
 50
0.0
 41
0.9
 51
0.0
  7
KANJI65
  0
TEXT
  8
0
  6
CONTINUOUS
 62
     2
 10
2260.42
 20
1034.7
 30
1.8
 40
18.0
  1
Ｅ
 50
0.0
 41
0.9
 51
0.0
  7
KANJI66
  0
TEXT
  8
0
  6
CONTINUOUS
 62
     2
 10
2216.92
 20
949.5
 30
12.0
 40
21.0
  1
同時切り
 50
0.0
 41
0.9
 51
0.0
  7
KANJI67
  0
TEXT
  8
0
  6
CONTINUOUS
 62
     2
 10
1943.92
 20
991.5
 30
141.36
 40
22.8
  1
形式
 50
0.0
 41
0.9
 51
0.0
  7
KANJI59
  0
TEXT
  8
0
  6
CONTINUOUS
 62
     2
 10
1943.92
 20
949.5
 30
33.439782857
 40
22.8
  1
操作方式
 50
0.0
 41
0.9
 51
0.0
  7
KANJI57
  0
LINE
  8
0
  6
CONTINUOUS
 62
     2
 10
1891.72
 20
1190.1
 30
0.0
 11
1891.72
 21
1176.3
 31
0.0
  0
TEXT
  8
0
  6
CONTINUOUS
 62
     2
 10
1943.92
 20
1201.5
 30
3.0
 40
22.8
  1
出力　相数　極数
 50
0.0
 41
0.9
 51
0.0
  7
KANJI68
  0
TEXT
  8
0
  6
CONTINUOUS
 62
     2
 10
1901.92
 20
1411.5
 30
12.0
 40
22.8
  1
公称速度
 50
0.0
 41
0.9
 51
0.0
  7
KANJI69
  0
TEXT
  8
0
  6
CONTINUOUS
 62
     2
 10
2025.82
 20
1410.3
 30
0.0
 40
21.0
  1
（５０／６０Ｈｚ）
 50
0.0
 41
0.628571429
 51
0.0
  7
KANJI70
  0
TEXT
  8
0
  6
CONTINUOUS
 62
     2
 10
2146.42
 20
991.95
 30
3.3
 40
20.4
  1
スプリング制動式電磁ブレーキ
 50
0.0
 41
0.705882353
 51
0.0
  7
KANJI71
  0
TEXT
  8
0
  6
CONTINUOUS
 62
     2
 10
2365.42
 20
1159.5
 30
0.216
 40
18.0
  1
Ｖ
 50
0.0
 41
0.8
 51
0.0
  7
KANJI72
  0
TEXT
  8
0
  6
CONTINUOUS
 62
     2
 10
2354.62
 20
1117.5
 30
0.216
 40
18.0
  1
Ｈｚ
 50
0.0
 41
0.8
 51
0.0
  7
KANJI72
  0
TEXT
  8
0
  6
CONTINUOUS
 62
     2
 10
2365.42
 20
1075.5
 30
0.216
 40
18.0
  1
Ａ
 50
0.0
 41
0.8
 51
0.0
  7
KANJI72
  0
TEXT
  8
0
  6
CONTINUOUS
 62
     2
 10
2286.52
 20
1202.7
 30
1.8
 40
18.0
  1
３φ
 50
0.0
 41
0.9
 51
0.0
  7
KANJI66
  0
TEXT
  8
0
  6
CONTINUOUS
 62
     2
 10
2346.52
 20
1202.7
 30
1.8
 40
18.0
  1
４Ｐ
 50
0.0
 41
0.9
 51
0.0
  7
KANJI66
  0
TEXT
  8
0
  6
CONTINUOUS
 62
     2
 10
2144.92
 20
1244.7
 30
1.2
 40
19.2
  1
マンセル　７．５ＧＹ　５／４．５
 50
0.0
 41
0.71875
 51
0.0
  7
KANJI73
  0
TEXT
  8
0
  6
CONTINUOUS
 62
     2
 10
2144.92
 20
1160.7
 30
1.8
 40
18.0
  1
　　　　　　　／　　　
 50
0.0
 41
0.9
 51
0.0
  7
KANJI66
  0
TEXT
  8
0
  6
CONTINUOUS
 62
     2
 10
2144.92
 20
1118.7
 30
1.8
 40
18.0
  1
　　　　５０／　６０
 50
0.0
 41
0.9
 51
0.0
  7
KANJI66
  0
TEXT
  8
0
  6
CONTINUOUS
 62
     2
 10
2144.92
 20
1076.7
 30
1.8
 40
18.0
  1
　　　　　　　／　　　
 50
0.0
 41
0.9
 51
0.0
  7
KANJI66
  0
TEXT
  8
0
  6
CONTINUOUS
 62
     2
 10
2349.52
 20
1455.9
 30
0.1536
 40
19.2
  1
ｍｍ
 50
0.0
 41
0.8
 51
0.0
  7
KANJI74
  0
TEXT
  8
0
  6
CONTINUOUS
 62
     2
 10
2203.42
 20
1328.7
 30
9.0
 40
21.0
  1
全閉屋内形
 50
0.0
 41
0.9
 51
0.0
  7
KANJI65
  0
TEXT
  8
0
  6
CONTINUOUS
 62
     2
 10
2310.52
 20
1412.7
 30
0.0
 40
21.0
  1
ｍｍ／ｓｅｃ
 50
0.0
 41
0.571428571
 51
0.0
  7
KANJI75
  0
TEXT
  8
0
  6
CONTINUOUS
 62
     2
 10
2150.92
 20
1202.7
 30
1.8
 40
18.0
  1
　１．１ＫＷ
 50
0.0
 41
0.9
 51
0.0
  7
KANJI66
  0
TEXT
  8
0
  6
CONTINUOUS
 62
     2
 10
2158.42
 20
1536.6
 30
1.2
 40
18.0
  1
ＭＣＬＤ１－　Ｌ
 50
0.0
 41
0.833333333
 51
0.0
  7
KANJI76
  0
TEXT
  8
0
  6
CONTINUOUS
 62
     2
 10
2188.72
 20
1496.7
 30
1.8
 40
18.0
  1
９．８ＫＮ（１ｔｏｎ）
 50
0.0
 41
0.9
 51
0.0
  7
KANJI66
  0
TEXT
  8
0
  6
CONTINUOUS
 62
     2
 10
2147.92
 20
1412.7
 30
1.8
 40
18.0
  1
　４３／５１．５
 50
0.0
 41
0.9
 51
0.0
  7
KANJI66
  0
LINE
  8
0
  6
CONTINUOUS
 62
     1
 10
1868.92
 20
770.7
 30
0.0
 11
2393.92
 21
770.7
 31
0.0
  0
LINE
  8
0
  6
CONTINUOUS
 62
     2
 10
1868.92
 20
812.7
 30
0.0
 11
2393.92
 21
812.7
 31
0.0
  0
TEXT
  8
0
  6
CONTINUOUS
 62
     2
 10
2338.72
 20
782.88
 30
0.0
 40
21.0
  1
ｋｇ
 50
0.0
 41
0.9
 51
0.0
  7
KANJI77
  0
TEXT
  8
0
  6
CONTINUOUS
 62
     2
 10
1900.72
 20
781.5
 30
6.0
 40
21.0
  1
概算重量（１台当り）
 50
0.0
 41
0.857142857
 51
0.0
  7
KANJI78
  0
TEXT
  8
0
  6
CONTINUOUS
 62
     2
 10
2159.92
 20
1370.7
 30
0.0
 40
18.0
  1
３９．２Ｎ・ｍ（４ｋｇ・ｍ）
 50
0.0
 41
0.833333333
 51
0.0
  7
KANJI79
  0
LINE
  8
0
  6
CONTINUOUS
 62
     1
 10
1868.92
 20
1628.7
 30
0.0
 11
1868.92
 21
770.7
 31
0.0
  0
LINE
  8
0
  6
CONTINUOUS
 62
     2
 10
2144.92
 20
1568.7
 30
0.0
 11
2144.92
 21
770.7
 31
0.0
  0
LINE
  8
0
  6
CONTINUOUS
 62
     1
 10
2393.92
 20
1628.7
 30
0.0
 11
2393.92
 21
770.7
 31
0.0
  0
LINE
  8
0
  6
CONTINUOUS
 62
     1
 10
933.182501379
 20
231.1
 30
0.0
 11
933.182501379
 21
212.2
 31
0.0
  0
ENDSEC
  0
EOF
