  0
SECTION
  2
HEADER
  9
$ACADVER
  1
AC1009
  9
$DWGCODEPAGE
  3
dos932
  9
$EXTMIN
 10
0.0
 20
0.0
 30
0.0
  9
$EXTMAX
 10
2520.0
 20
1782.0
 30
0.0
  9
$LIMMIN
 10
0.0
 20
0.0
  9
$LIMMAX
 10
2520.0
 20
1782.0
  9
$LTSCALE
 40
1.0
  9
$PDMODE
 70
     0
  0
ENDSEC
  0
SECTION
  2
TABLES
  0
TABLE
  2
VPORT
 70
     1
  0
VPORT
  2
*ACTIVE
 70
     0
 10
0.0
 20
0.0
 11
1.0
 21
1.0
 12
1260.0
 22
891.0
 13
0.0
 23
0.0
 14
10.0
 24
10.0
 15
10.0
 25
10.0
 16
0.0
 26
0.0
 36
1.0
 17
0.0
 27
0.0
 37
0.0
 40
2520.0
 41
1.414141414
 42
50.0
 43
0.0
 44
0.0
 50
0.0
 51
0.0
 71
     0
 72
  1000
 73
     1
 74
     3
 75
     0
 76
     0
 77
     0
 78
     0
  0
ENDTAB
  0
TABLE
  2
LTYPE
 70
     7
  0
LTYPE
  2
CONTINUOUS
 70
    64
  3
Solid line
 72
    65
 73
     0
 40
0.0
  0
LTYPE
  2
LTYPE1
 70
    64
  3
HIDDEN
 72
    65
 73
     2
 40
18.0
 49
10.8
 49
-7.2
  0
LTYPE
  2
LTYPE2
 70
    64
  3
CENTER
 72
    65
 73
     4
 40
60.0
 49
42.0
 49
-6.0
 49
6.0
 49
-6.0
  0
LTYPE
  2
LTYPE3
 70
    64
  3
CENTER
 72
    65
 73
     4
 40
90.0
 49
63.0
 49
-9.0
 49
9.0
 49
-9.0
  0
LTYPE
  2
LTYPE4
 70
    64
  3
CENTER
 72
    65
 73
     4
 40
120.0
 49
84.0
 49
-12.0
 49
12.0
 49
-12.0
  0
LTYPE
  2
LTYPE5
 70
    64
  3
PHANTOM
 72
    65
 73
     6
 40
90.0
 49
67.5
 49
-4.5
 49
4.5
 49
-4.5
 49
4.5
 49
-4.5
  0
LTYPE
  2
LTYPE6
 70
    64
  3
CENTER
 72
    65
 73
     4
 40
54.0
 49
37.8
 49
-5.4
 49
5.4
 49
-5.4
  0
ENDTAB
  0
TABLE
  2
LAYER
 70
   128
  0
LAYER
  2
0
 70
     0
 62
     7
  6
CONTINUOUS
  0
LAYER
  2
2
 70
     0
 62
     7
  6
CONTINUOUS
  0
LAYER
  2
3
 70
     0
 62
     7
  6
CONTINUOUS
  0
LAYER
  2
4
 70
     0
 62
     7
  6
CONTINUOUS
  0
LAYER
  2
5
 70
     0
 62
     7
  6
CONTINUOUS
  0
LAYER
  2
6
 70
     0
 62
     7
  6
CONTINUOUS
  0
LAYER
  2
7
 70
     0
 62
     7
  6
CONTINUOUS
  0
LAYER
  2
8
 70
     0
 62
     7
  6
CONTINUOUS
  0
LAYER
  2
9
 70
     0
 62
     7
  6
CONTINUOUS
  0
LAYER
  2
10
 70
     0
 62
     7
  6
CONTINUOUS
  0
LAYER
  2
11
 70
     0
 62
     7
  6
CONTINUOUS
  0
LAYER
  2
12
 70
     0
 62
     7
  6
CONTINUOUS
  0
LAYER
  2
13
 70
     0
 62
     7
  6
CONTINUOUS
  0
LAYER
  2
14
 70
     0
 62
     7
  6
CONTINUOUS
  0
LAYER
  2
15
 70
     0
 62
     7
  6
CONTINUOUS
  0
LAYER
  2
16
 70
     0
 62
     7
  6
CONTINUOUS
  0
LAYER
  2
17
 70
     0
 62
     7
  6
CONTINUOUS
  0
LAYER
  2
18
 70
     0
 62
     7
  6
CONTINUOUS
  0
LAYER
  2
19
 70
     0
 62
     7
  6
CONTINUOUS
  0
LAYER
  2
20
 70
     0
 62
     7
  6
CONTINUOUS
  0
LAYER
  2
21
 70
     0
 62
     7
  6
CONTINUOUS
  0
LAYER
  2
22
 70
     0
 62
     7
  6
CONTINUOUS
  0
LAYER
  2
23
 70
     0
 62
     7
  6
CONTINUOUS
  0
LAYER
  2
24
 70
     0
 62
     7
  6
CONTINUOUS
  0
LAYER
  2
25
 70
     0
 62
     7
  6
CONTINUOUS
  0
LAYER
  2
26
 70
     0
 62
     7
  6
CONTINUOUS
  0
LAYER
  2
27
 70
     0
 62
     7
  6
CONTINUOUS
  0
LAYER
  2
28
 70
     0
 62
     7
  6
CONTINUOUS
  0
LAYER
  2
29
 70
     0
 62
     7
  6
CONTINUOUS
  0
LAYER
  2
30
 70
     0
 62
     7
  6
CONTINUOUS
  0
LAYER
  2
31
 70
     0
 62
     7
  6
CONTINUOUS
  0
LAYER
  2
32
 70
     0
 62
     7
  6
CONTINUOUS
  0
LAYER
  2
33
 70
     0
 62
     7
  6
CONTINUOUS
  0
LAYER
  2
34
 70
     0
 62
     7
  6
CONTINUOUS
  0
LAYER
  2
35
 70
     0
 62
     7
  6
CONTINUOUS
  0
LAYER
  2
36
 70
     0
 62
     7
  6
CONTINUOUS
  0
LAYER
  2
37
 70
     0
 62
     7
  6
CONTINUOUS
  0
LAYER
  2
38
 70
     0
 62
     7
  6
CONTINUOUS
  0
LAYER
  2
39
 70
     0
 62
     7
  6
CONTINUOUS
  0
LAYER
  2
40
 70
     0
 62
     7
  6
CONTINUOUS
  0
LAYER
  2
41
 70
     0
 62
     7
  6
CONTINUOUS
  0
LAYER
  2
42
 70
     0
 62
     7
  6
CONTINUOUS
  0
LAYER
  2
43
 70
     0
 62
     7
  6
CONTINUOUS
  0
LAYER
  2
44
 70
     0
 62
     7
  6
CONTINUOUS
  0
LAYER
  2
45
 70
     0
 62
     7
  6
CONTINUOUS
  0
LAYER
  2
46
 70
     0
 62
     7
  6
CONTINUOUS
  0
LAYER
  2
47
 70
     0
 62
     7
  6
CONTINUOUS
  0
LAYER
  2
48
 70
     0
 62
     7
  6
CONTINUOUS
  0
LAYER
  2
49
 70
     0
 62
     7
  6
CONTINUOUS
  0
LAYER
  2
50
 70
     0
 62
     7
  6
CONTINUOUS
  0
LAYER
  2
51
 70
     0
 62
     7
  6
CONTINUOUS
  0
LAYER
  2
52
 70
     0
 62
     7
  6
CONTINUOUS
  0
LAYER
  2
53
 70
     0
 62
     7
  6
CONTINUOUS
  0
LAYER
  2
54
 70
     0
 62
     7
  6
CONTINUOUS
  0
LAYER
  2
55
 70
     0
 62
     7
  6
CONTINUOUS
  0
LAYER
  2
56
 70
     0
 62
     7
  6
CONTINUOUS
  0
LAYER
  2
57
 70
     0
 62
     7
  6
CONTINUOUS
  0
LAYER
  2
58
 70
     0
 62
     7
  6
CONTINUOUS
  0
LAYER
  2
59
 70
     0
 62
     7
  6
CONTINUOUS
  0
LAYER
  2
60
 70
     0
 62
     7
  6
CONTINUOUS
  0
LAYER
  2
61
 70
     0
 62
     7
  6
CONTINUOUS
  0
LAYER
  2
62
 70
     0
 62
     7
  6
CONTINUOUS
  0
LAYER
  2
63
 70
     0
 62
     7
  6
CONTINUOUS
  0
LAYER
  2
64
 70
     0
 62
     7
  6
CONTINUOUS
  0
LAYER
  2
65
 70
     0
 62
     7
  6
CONTINUOUS
  0
LAYER
  2
66
 70
     0
 62
     7
  6
CONTINUOUS
  0
LAYER
  2
67
 70
     0
 62
     7
  6
CONTINUOUS
  0
LAYER
  2
68
 70
     0
 62
     7
  6
CONTINUOUS
  0
LAYER
  2
69
 70
     0
 62
     7
  6
CONTINUOUS
  0
LAYER
  2
70
 70
     0
 62
     7
  6
CONTINUOUS
  0
LAYER
  2
71
 70
     0
 62
     7
  6
CONTINUOUS
  0
LAYER
  2
72
 70
     0
 62
     7
  6
CONTINUOUS
  0
LAYER
  2
73
 70
     0
 62
     7
  6
CONTINUOUS
  0
LAYER
  2
74
 70
     0
 62
     7
  6
CONTINUOUS
  0
LAYER
  2
75
 70
     0
 62
     7
  6
CONTINUOUS
  0
LAYER
  2
76
 70
     0
 62
     7
  6
CONTINUOUS
  0
LAYER
  2
77
 70
     0
 62
     7
  6
CONTINUOUS
  0
LAYER
  2
78
 70
     0
 62
     7
  6
CONTINUOUS
  0
LAYER
  2
79
 70
     0
 62
     7
  6
CONTINUOUS
  0
LAYER
  2
80
 70
     0
 62
     7
  6
CONTINUOUS
  0
LAYER
  2
81
 70
     0
 62
     7
  6
CONTINUOUS
  0
LAYER
  2
82
 70
     0
 62
     7
  6
CONTINUOUS
  0
LAYER
  2
83
 70
     0
 62
     7
  6
CONTINUOUS
  0
LAYER
  2
84
 70
     0
 62
     7
  6
CONTINUOUS
  0
LAYER
  2
85
 70
     0
 62
     7
  6
CONTINUOUS
  0
LAYER
  2
86
 70
     0
 62
     7
  6
CONTINUOUS
  0
LAYER
  2
87
 70
     0
 62
     7
  6
CONTINUOUS
  0
LAYER
  2
88
 70
     0
 62
     7
  6
CONTINUOUS
  0
LAYER
  2
89
 70
     0
 62
     7
  6
CONTINUOUS
  0
LAYER
  2
90
 70
     0
 62
     7
  6
CONTINUOUS
  0
LAYER
  2
91
 70
     0
 62
     7
  6
CONTINUOUS
  0
LAYER
  2
92
 70
     0
 62
     7
  6
CONTINUOUS
  0
LAYER
  2
93
 70
     0
 62
     7
  6
CONTINUOUS
  0
LAYER
  2
94
 70
     0
 62
     7
  6
CONTINUOUS
  0
LAYER
  2
95
 70
     0
 62
     7
  6
CONTINUOUS
  0
LAYER
  2
96
 70
     0
 62
     7
  6
CONTINUOUS
  0
LAYER
  2
97
 70
     0
 62
     7
  6
CONTINUOUS
  0
LAYER
  2
98
 70
     0
 62
     7
  6
CONTINUOUS
  0
LAYER
  2
99
 70
     0
 62
     7
  6
CONTINUOUS
  0
LAYER
  2
100
 70
     0
 62
     7
  6
CONTINUOUS
  0
LAYER
  2
101
 70
     0
 62
     7
  6
CONTINUOUS
  0
LAYER
  2
102
 70
     0
 62
     7
  6
CONTINUOUS
  0
LAYER
  2
103
 70
     0
 62
     7
  6
CONTINUOUS
  0
LAYER
  2
104
 70
     0
 62
     7
  6
CONTINUOUS
  0
LAYER
  2
105
 70
     0
 62
     7
  6
CONTINUOUS
  0
LAYER
  2
106
 70
     0
 62
     7
  6
CONTINUOUS
  0
LAYER
  2
107
 70
     0
 62
     7
  6
CONTINUOUS
  0
LAYER
  2
108
 70
     0
 62
     7
  6
CONTINUOUS
  0
LAYER
  2
109
 70
     0
 62
     7
  6
CONTINUOUS
  0
LAYER
  2
110
 70
     0
 62
     7
  6
CONTINUOUS
  0
LAYER
  2
111
 70
     0
 62
     7
  6
CONTINUOUS
  0
LAYER
  2
112
 70
     0
 62
     7
  6
CONTINUOUS
  0
LAYER
  2
113
 70
     0
 62
     7
  6
CONTINUOUS
  0
LAYER
  2
114
 70
     0
 62
     7
  6
CONTINUOUS
  0
LAYER
  2
115
 70
     0
 62
     7
  6
CONTINUOUS
  0
LAYER
  2
116
 70
     0
 62
     7
  6
CONTINUOUS
  0
LAYER
  2
117
 70
     0
 62
     7
  6
CONTINUOUS
  0
LAYER
  2
118
 70
     0
 62
     7
  6
CONTINUOUS
  0
LAYER
  2
119
 70
     0
 62
     7
  6
CONTINUOUS
  0
LAYER
  2
120
 70
     0
 62
     7
  6
CONTINUOUS
  0
LAYER
  2
121
 70
     0
 62
     7
  6
CONTINUOUS
  0
LAYER
  2
122
 70
     0
 62
     7
  6
CONTINUOUS
  0
LAYER
  2
123
 70
     0
 62
     7
  6
CONTINUOUS
  0
LAYER
  2
124
 70
     0
 62
     7
  6
CONTINUOUS
  0
LAYER
  2
125
 70
     0
 62
     7
  6
CONTINUOUS
  0
LAYER
  2
126
 70
     0
 62
     7
  6
CONTINUOUS
  0
LAYER
  2
127
 70
     0
 62
     7
  6
CONTINUOUS
  0
LAYER
  2
128
 70
     0
 62
     7
  6
CONTINUOUS
  0
ENDTAB
  0
TABLE
  2
STYLE
 70
    79
  0
STYLE
  2
STANDARD
 70
     0
 40
0.0
 41
1.0
 50
0.0
 71
     0
 42
0.2
  3
txt.shx
  4
extfont.shx
  0
STYLE
  2
KANJI0
 70
     0
 40
15.5999988
 41
0.75
 50
0.0
 71
     0
 42
15.5999988
  3
txt.shx
  4
extfont.shx
  0
STYLE
  2
KANJI1
 70
     0
 40
11.999997477
 41
0.6
 50
0.0
 71
     0
 42
11.999997477
  3
txt.shx
  4
extfont.shx
  0
STYLE
  2
KANJI2
 70
     0
 40
14.399996972
 41
0.9
 50
0.0
 71
     0
 42
14.399996972
  3
txt.shx
  4
extfont.shx
  0
STYLE
  2
KANJI3
 70
     0
 40
17.999996215
 41
0.9
 50
0.0
 71
     0
 42
17.999996215
  3
txt.shx
  4
extfont.shx
  0
STYLE
  2
KANJI4
 70
     0
 40
10.3999992
 41
0.6
 50
0.0
 71
     0
 42
10.3999992
  3
txt.shx
  4
extfont.shx
  0
STYLE
  2
KANJI5
 70
     0
 40
12.47999904
 41
0.6
 50
0.0
 71
     0
 42
12.47999904
  3
txt.shx
  4
extfont.shx
  0
STYLE
  2
KANJI6
 70
     0
 40
18.1999986
 41
0.42031746
 50
0.0
 71
     0
 42
18.1999986
  3
txt.shx
  4
extfont.shx
  0
STYLE
  2
KANJI7
 70
     0
 40
31.1999976
 41
0.9
 50
0.0
 71
     0
 42
31.1999976
  3
txt.shx
  4
extfont.shx
  0
STYLE
  2
KANJI8
 70
     0
 40
21.6
 41
1.111111111
 50
0.0
 71
     0
 42
21.6
  3
txt.shx
  4
extfont.shx
  0
STYLE
  2
KANJI9
 70
     0
 40
10.3999992
 41
0.8
 50
0.0
 71
     0
 42
10.3999992
  3
txt.shx
  4
extfont.shx
  0
STYLE
  2
KANJI10
 70
     0
 40
12.47999904
 41
0.8
 50
0.0
 71
     0
 42
12.47999904
  3
txt.shx
  4
extfont.shx
  0
STYLE
  2
KANJI11
 70
     0
 40
30.0
 41
1.0
 50
0.0
 71
     0
 42
30.0
  3
txt.shx
  4
extfont.shx
  0
STYLE
  2
KANJI12
 70
     0
 40
30.0
 41
1.0
 50
0.0
 71
     0
 42
30.0
  3
txt.shx
  4
extfont.shx
  0
STYLE
  2
KANJI13
 70
     0
 40
30.0
 41
0.8
 50
0.0
 71
     0
 42
30.0
  3
txt.shx
  4
extfont.shx
  0
STYLE
  2
KANJI14
 70
     0
 40
24.0
 41
1.0
 50
0.0
 71
     0
 42
24.0
  3
txt.shx
  4
extfont.shx
  0
STYLE
  2
KANJI15
 70
     0
 40
21.0
 41
0.857142857
 50
0.0
 71
     0
 42
21.0
  3
txt.shx
  4
extfont.shx
  0
STYLE
  2
KANJI16
 70
     0
 40
22.8
 41
0.9
 50
0.0
 71
     0
 42
22.8
  3
txt.shx
  4
extfont.shx
  0
STYLE
  2
KANJI17
 70
     0
 40
22.8
 41
0.9
 50
0.0
 71
     0
 42
22.8
  3
txt.shx
  4
extfont.shx
  0
STYLE
  2
KANJI18
 70
     0
 40
27.0
 41
0.9
 50
0.0
 71
     0
 42
27.0
  3
txt.shx
  4
extfont.shx
  0
STYLE
  2
KANJI19
 70
     0
 40
22.8
 41
0.9
 50
0.0
 71
     0
 42
22.8
  3
txt.shx
  4
extfont.shx
  0
STYLE
  2
KANJI20
 70
     0
 40
22.8
 41
0.9
 50
0.0
 71
     0
 42
22.8
  3
txt.shx
  4
extfont.shx
  0
STYLE
  2
KANJI21
 70
     0
 40
22.8
 41
0.9
 50
0.0
 71
     0
 42
22.8
  3
txt.shx
  4
extfont.shx
  0
STYLE
  2
KANJI22
 70
     0
 40
22.8
 41
0.9
 50
0.0
 71
     0
 42
22.8
  3
txt.shx
  4
extfont.shx
  0
STYLE
  2
KANJI23
 70
     0
 40
22.8
 41
0.9
 50
0.0
 71
     0
 42
22.8
  3
txt.shx
  4
extfont.shx
  0
STYLE
  2
KANJI24
 70
     0
 40
22.8
 41
0.9
 50
0.0
 71
     0
 42
22.8
  3
txt.shx
  4
extfont.shx
  0
STYLE
  2
KANJI25
 70
     4
 40
21.0
 41
0.9
 50
0.0
 71
     0
 42
21.0
  3
txt.shx
  4
extfont.shx
  0
STYLE
  2
KANJI26
 70
     4
 40
21.0
 41
0.9
 50
0.0
 71
     0
 42
21.0
  3
txt.shx
  4
extfont.shx
  0
STYLE
  2
KANJI27
 70
     0
 40
21.0
 41
0.9
 50
0.0
 71
     0
 42
21.0
  3
txt.shx
  4
extfont.shx
  0
STYLE
  2
KANJI28
 70
     0
 40
18.0
 41
0.9
 50
0.0
 71
     0
 42
18.0
  3
txt.shx
  4
extfont.shx
  0
STYLE
  2
KANJI29
 70
     0
 40
21.0
 41
0.9
 50
0.0
 71
     0
 42
21.0
  3
txt.shx
  4
extfont.shx
  0
STYLE
  2
KANJI30
 70
     0
 40
22.8
 41
0.9
 50
0.0
 71
     0
 42
22.8
  3
txt.shx
  4
extfont.shx
  0
STYLE
  2
KANJI31
 70
     0
 40
22.8
 41
0.9
 50
0.0
 71
     0
 42
22.8
  3
txt.shx
  4
extfont.shx
  0
STYLE
  2
KANJI32
 70
     0
 40
21.0
 41
0.628571429
 50
0.0
 71
     0
 42
21.0
  3
txt.shx
  4
extfont.shx
  0
STYLE
  2
KANJI33
 70
     0
 40
20.4
 41
0.705882353
 50
0.0
 71
     0
 42
20.4
  3
txt.shx
  4
extfont.shx
  0
STYLE
  2
KANJI34
 70
     0
 40
18.0
 41
0.8
 50
0.0
 71
     0
 42
18.0
  3
txt.shx
  4
extfont.shx
  0
STYLE
  2
KANJI35
 70
     0
 40
19.2
 41
0.71875
 50
0.0
 71
     0
 42
19.2
  3
txt.shx
  4
extfont.shx
  0
STYLE
  2
KANJI36
 70
     0
 40
19.2
 41
0.8
 50
0.0
 71
     0
 42
19.2
  3
txt.shx
  4
extfont.shx
  0
STYLE
  2
KANJI37
 70
     0
 40
21.0
 41
0.571428571
 50
0.0
 71
     0
 42
21.0
  3
txt.shx
  4
extfont.shx
  0
STYLE
  2
KANJI38
 70
     0
 40
27.0
 41
0.666666667
 50
0.0
 71
     0
 42
27.0
  3
txt.shx
  4
extfont.shx
  0
STYLE
  2
KANJI39
 70
     0
 40
18.0
 41
0.9
 50
0.0
 71
     0
 42
18.0
  3
txt.shx
  4
extfont.shx
  0
STYLE
  2
KANJI40
 70
     0
 40
13.86
 41
0.9
 50
0.0
 71
     0
 42
13.86
  3
txt.shx
  4
extfont.shx
  0
STYLE
  2
KANJI41
 70
     0
 40
18.0
 41
0.9
 50
0.0
 71
     0
 42
18.0
  3
txt.shx
  4
extfont.shx
  0
STYLE
  2
KANJI42
 70
     0
 40
18.0
 41
0.833333333
 50
0.0
 71
     0
 42
18.0
  3
txt.shx
  4
extfont.shx
  0
STYLE
  2
KANJI43
 70
     0
 40
15.0
 41
0.9
 50
0.0
 71
     0
 42
15.0
  3
txt.shx
  4
extfont.shx
  0
STYLE
  2
KANJI44
 70
     0
 40
15.0
 41
0.9
 50
0.0
 71
     0
 42
15.0
  3
txt.shx
  4
extfont.shx
  0
STYLE
  2
KANJI45
 70
     0
 40
18.0
 41
0.833333333
 50
0.0
 71
     0
 42
18.0
  3
txt.shx
  4
extfont.shx
  0
STYLE
  2
KANJI46
 70
     0
 40
21.0
 41
0.793650794
 50
0.0
 71
     0
 42
21.0
  3
txt.shx
  4
extfont.shx
  0
STYLE
  2
KANJI47
 70
     0
 40
30.0
 41
0.8
 50
0.0
 71
     0
 42
30.0
  3
txt.shx
  4
extfont.shx
  0
STYLE
  2
KANJI48
 70
     0
 40
17.031074144
 41
0.880962996
 50
0.0
 71
     0
 42
17.031074144
  3
txt.shx
  4
extfont.shx
  0
STYLE
  2
KANJI49
 70
     0
 40
11.232
 41
0.8
 50
0.0
 71
     0
 42
11.232
  3
txt.shx
  4
extfont.shx
  0
STYLE
  2
KANJI50
 70
     0
 40
14.37696
 41
0.9125
 50
0.0
 71
     0
 42
14.37696
  3
txt.shx
  4
extfont.shx
  0
STYLE
  2
KANJI51
 70
     0
 40
14.4
 41
0.911
 50
0.0
 71
     0
 42
14.4
  3
txt.shx
  4
extfont.shx
  0
STYLE
  2
KANJI52
 70
     0
 40
13.9932
 41
0.943315325
 50
0.0
 71
     0
 42
13.9932
  3
txt.shx
  4
extfont.shx
  0
STYLE
  2
KANJI53
 70
     0
 40
18.223173404
 41
0.66671875
 50
0.0
 71
     0
 42
18.223173404
  3
txt.shx
  4
extfont.shx
  0
STYLE
  2
KANJI54
 70
     0
 40
21.867808085
 41
0.9
 50
0.0
 71
     0
 42
21.867808085
  3
txt.shx
  4
extfont.shx
  0
STYLE
  2
KANJI55
 70
     0
 40
18.72
 41
0.925
 50
0.0
 71
     0
 42
18.72
  3
txt.shx
  4
extfont.shx
  0
STYLE
  2
KANJI56
 70
     0
 40
17.494246468
 41
0.9
 50
0.0
 71
     0
 42
17.494246468
  3
txt.shx
  4
extfont.shx
  0
STYLE
  2
KANJI57
 70
     0
 40
13.120684851
 41
0.9
 50
0.0
 71
     0
 42
13.120684851
  3
txt.shx
  4
extfont.shx
  0
STYLE
  2
KANJI58
 70
     0
 40
20.0
 41
0.925
 50
0.0
 71
     0
 42
20.0
  3
txt.shx
  4
extfont.shx
  0
STYLE
  2
KANJI59
 70
     0
 40
15.0
 41
0.9
 50
0.0
 71
     0
 42
15.0
  3
txt.shx
  4
extfont.shx
  0
STYLE
  2
KANJI60
 70
     0
 40
20.0
 41
0.925
 50
0.0
 71
     0
 42
20.0
  3
txt.shx
  4
extfont.shx
  0
STYLE
  2
KANJI61
 70
     0
 40
21.0
 41
0.857222222
 50
0.0
 71
     0
 42
21.0
  3
txt.shx
  4
extfont.shx
  0
STYLE
  2
KANJI62
 70
     0
 40
24.0
 41
0.9
 50
0.0
 71
     0
 42
24.0
  3
txt.shx
  4
extfont.shx
  0
STYLE
  2
KANJI63
 70
     0
 40
21.0
 41
0.857142857
 50
0.0
 71
     0
 42
21.0
  3
txt.shx
  4
extfont.shx
  0
STYLE
  2
KANJI64
 70
     0
 40
16.17
 41
0.9
 50
0.0
 71
     0
 42
16.17
  3
txt.shx
  4
extfont.shx
  0
STYLE
  2
KANJI65
 70
     0
 40
15.36
 41
0.9
 50
0.0
 71
     0
 42
15.36
  3
txt.shx
  4
extfont.shx
  0
STYLE
  2
KANJI66
 70
     0
 40
14.4
 41
0.9
 50
0.0
 71
     0
 42
14.4
  3
txt.shx
  4
extfont.shx
  0
STYLE
  2
KANJI67
 70
     0
 40
14.4
 41
0.9
 50
0.0
 71
     0
 42
14.4
  3
txt.shx
  4
extfont.shx
  0
STYLE
  2
KANJI68
 70
     0
 40
16.8
 41
0.9
 50
0.0
 71
     0
 42
16.8
  3
txt.shx
  4
extfont.shx
  0
STYLE
  2
KANJI69
 70
     0
 40
12.96
 41
0.740740741
 50
0.0
 71
     0
 42
12.96
  3
txt.shx
  4
extfont.shx
  0
STYLE
  2
KANJI70
 70
     0
 40
16.8
 41
0.857142857
 50
0.0
 71
     0
 42
16.8
  3
txt.shx
  4
extfont.shx
  0
STYLE
  2
KANJI71
 70
     0
 40
14.4
 41
0.833333333
 50
0.0
 71
     0
 42
14.4
  3
txt.shx
  4
extfont.shx
  0
STYLE
  2
KANJI72
 70
     0
 40
18.0
 41
0.9
 50
0.0
 71
     0
 42
18.0
  3
txt.shx
  4
extfont.shx
  0
STYLE
  2
KANJI73
 70
     0
 40
18.98208
 41
0.85
 50
0.0
 71
     0
 42
18.98208
  3
txt.shx
  4
extfont.shx
  0
STYLE
  2
KANJI74
 70
     0
 40
16.8
 41
0.714285714
 50
0.0
 71
     0
 42
16.8
  3
txt.shx
  4
extfont.shx
  0
STYLE
  2
KANJI75
 70
     4
 40
180.0
 41
0.233333333
 50
0.0
 71
     0
 42
180.0
  3
txt.shx
  4
extfont.shx
  0
STYLE
  2
KANJI76
 70
     0
 40
24.0
 41
0.925
 50
0.0
 71
     0
 42
24.0
  3
txt.shx
  4
extfont.shx
  0
STYLE
  2
KANJI77
 70
     0
 40
21.0
 41
0.571428571
 50
0.0
 71
     0
 42
21.0
  3
txt.shx
  4
extfont.shx
  0
ENDTAB
  0
TABLE
  2
VIEW
 70
     0
  0
ENDTAB
  0
ENDSEC
  0
SECTION
  2
BLOCKS
  0
ENDSEC
  0
SECTION
  2
ENTITIES
  0
POLYLINE
  8
0
  6
CONTINUOUS
 62
     6
 66
     1
  0
VERTEX
  8
0
  6
CONTINUOUS
 62
     6
 10
77.92
 20
82.7
 30
0.0
  0
VERTEX
  8
0
  6
CONTINUOUS
 62
     6
 10
77.92
 20
1696.7
 30
0.0
  0
VERTEX
  8
0
  6
CONTINUOUS
 62
     6
 10
2399.92
 20
1696.7
 30
0.0
  0
SEQEND
  0
LINE
  8
0
  6
CONTINUOUS
 62
     6
 10
83.919998738
 20
172.699981077
 30
0.0
 11
473.919916738
 21
172.699981077
 31
0.0
  0
LINE
  8
0
  6
CONTINUOUS
 62
     6
 10
83.919998738
 20
88.699998738
 30
0.0
 11
473.919916738
 21
88.699998738
 31
0.0
  0
LINE
  8
0
  6
CONTINUOUS
 62
     6
 10
83.919998738
 20
88.699998738
 30
0.0
 11
83.919998738
 21
172.699981077
 31
0.0
  0
LINE
  8
0
  6
CONTINUOUS
 62
     6
 10
83.919998738
 20
130.699989908
 30
0.0
 11
473.919916738
 21
130.699989908
 31
0.0
  0
LINE
  8
0
  6
CONTINUOUS
 62
     4
 10
9.6199996
 20
87.8999996
 30
0.0
 11
72.0199948
 21
87.8999996
 31
0.0
  0
LINE
  8
0
  6
CONTINUOUS
 62
     4
 10
9.6199996
 20
119.0999972
 30
0.0
 11
72.0199948
 21
119.0999972
 31
0.0
  0
LINE
  8
0
  6
CONTINUOUS
 62
     4
 10
9.6199996
 20
150.2999948
 30
0.0
 11
72.0199948
 21
150.2999948
 31
0.0
  0
LINE
  8
0
  6
CONTINUOUS
 62
     4
 10
9.6199996
 20
181.4999924
 30
0.0
 11
72.0199948
 21
181.4999924
 31
0.0
  0
LINE
  8
0
  6
CONTINUOUS
 62
     4
 10
9.6199996
 20
212.69999
 30
0.0
 11
72.0199948
 21
212.69999
 31
0.0
  0
LINE
  8
0
  6
CONTINUOUS
 62
     4
 10
9.6199996
 20
243.8999876
 30
0.0
 11
72.0199948
 21
243.8999876
 31
0.0
  0
LINE
  8
0
  6
CONTINUOUS
 62
     4
 10
9.6199996
 20
275.0999852
 30
0.0
 11
72.0199948
 21
275.0999852
 31
0.0
  0
LINE
  8
0
  6
CONTINUOUS
 62
     4
 10
9.6199996
 20
306.2999828
 30
0.0
 11
72.0199948
 21
306.2999828
 31
0.0
  0
LINE
  8
0
  6
CONTINUOUS
 62
     4
 10
9.6199996
 20
337.4999804
 30
0.0
 11
72.0199948
 21
337.4999804
 31
0.0
  0
LINE
  8
0
  6
CONTINUOUS
 62
     4
 10
9.6199996
 20
368.699978
 30
0.0
 11
72.0199948
 21
368.699978
 31
0.0
  0
LINE
  8
0
  6
CONTINUOUS
 62
     4
 10
72.0199948
 20
87.8999996
 30
0.0
 11
72.0199948
 21
368.699978
 31
0.0
  0
LINE
  8
0
  6
CONTINUOUS
 62
     4
 10
40.8199972
 20
87.8999996
 30
0.0
 11
40.8199972
 21
337.4999804
 31
0.0
  0
TEXT
  8
0
  6
CONTINUOUS
 62
     4
 10
20.27999878
 20
96.9999989
 30
1.55999988
 40
15.5999988
  1
計
 50
0.0
 41
0.75
 51
0.0
  7
KANJI0
  0
TEXT
  8
0
  6
CONTINUOUS
 62
     4
 10
20.27999878
 20
159.91999406
 30
1.55999988
 40
15.5999988
  1
設
 50
0.0
 41
0.75
 51
0.0
  7
KANJI0
  0
TEXT
  8
0
  6
CONTINUOUS
 62
     4
 10
20.27999878
 20
190.5999917
 30
1.55999988
 40
15.5999988
  1
管
 50
0.0
 41
0.75
 51
0.0
  7
KANJI0
  0
TEXT
  8
0
  6
CONTINUOUS
 62
     4
 10
20.27999878
 20
221.7999893
 30
1.55999988
 40
15.5999988
  1
製
 50
0.0
 41
0.75
 51
0.0
  7
KANJI0
  0
TEXT
  8
0
  6
CONTINUOUS
 62
     4
 10
20.27999878
 20
252.9999869
 30
1.55999988
 40
15.5999988
  1
資
 50
0.0
 41
0.75
 51
0.0
  7
KANJI0
  0
TEXT
  8
0
  6
CONTINUOUS
 62
     4
 10
20.27999878
 20
284.1999845
 30
1.55999988
 40
15.5999988
  1
営
 50
0.0
 41
0.75
 51
0.0
  7
KANJI0
  0
TEXT
  8
0
  6
CONTINUOUS
 62
     4
 10
20.27999878
 20
315.3999821
 30
1.55999988
 40
15.5999988
  1
客
 50
0.0
 41
0.75
 51
0.0
  7
KANJI0
  0
TEXT
  8
0
  6
CONTINUOUS
 62
     4
 10
20.0199988
 20
347.8999796
 30
1.55999988
 40
15.5999988
  1
出　図
 50
0.0
 41
0.75
 51
0.0
  7
KANJI0
  0
LINE
  8
0
  6
CONTINUOUS
 62
     4
 10
9.6199996
 20
87.8999996
 30
0.0
 11
9.6199996
 21
368.699978
 31
0.0
  0
LINE
  8
0
  6
CONTINUOUS
 62
     6
 10
2399.92
 20
82.7
 30
0.0
 11
77.92
 21
82.7
 31
0.0
  0
TEXT
  8
0
  6
CONTINUOUS
 62
     4
 10
95.919996215
 20
112.699993692
 30
1.199999748
 40
11.999997477
  1
ＰＡＲＴＳ　ＬＩＳＴ
 50
0.0
 41
0.6
 51
0.0
  7
KANJI1
  0
TEXT
  8
0
  6
CONTINUOUS
 62
     4
 10
95.919996215
 20
94.699997477
 30
1.439999697
 40
14.399996972
  1
部品表
 50
0.0
 41
0.9
 51
0.0
  7
KANJI2
  0
TEXT
  8
0
  6
CONTINUOUS
 62
     3
 10
95.919996215
 20
142.699987385
 30
1.799999622
 40
17.999996215
  1
ＰＬ
 50
0.0
 41
0.9
 51
0.0
  7
KANJI3
  0
TEXT
  8
0
  6
CONTINUOUS
 62
     4
 10
365.919939446
 20
112.699993692
 30
1.199999748
 40
11.999997477
  1
Ｎ０．
 50
0.0
 41
0.6
 51
0.0
  7
KANJI1
  0
TEXT
  8
0
  6
CONTINUOUS
 62
     4
 10
365.919939446
 20
94.699997477
 30
1.439999697
 40
14.399996972
  1
項番
 50
0.0
 41
0.9
 51
0.0
  7
KANJI2
  0
LINE
  8
0
  6
CONTINUOUS
 62
     6
 10
473.919916738
 20
88.699998738
 30
0.0
 11
473.919916738
 21
172.699981077
 31
0.0
  0
LINE
  8
0
  6
CONTINUOUS
 62
     6
 10
353.919941969
 20
88.699998738
 30
0.0
 11
353.919941969
 21
172.699981077
 31
0.0
  0
LINE
  8
0
  6
CONTINUOUS
 62
     6
 10
2399.92
 20
1696.7
 30
0.0
 11
2399.92
 21
82.7
 31
0.0
  0
LINE
  8
0
  6
CONTINUOUS
 62
     6
 10
1593.920062
 20
87.8999996
 30
0.0
 11
1593.920062
 21
420.699974
 31
0.0
  0
LINE
  8
0
  6
CONTINUOUS
 62
     6
 10
2394.7200004
 20
87.8999996
 30
0.0
 11
2394.7200004
 21
420.699974
 31
0.0
  0
LINE
  8
0
  6
CONTINUOUS
 62
     4
 10
1783.7200474
 20
87.8999996
 30
0.0
 11
1783.7200474
 21
420.699974
 31
0.0
  0
LINE
  8
0
  6
CONTINUOUS
 62
     4
 10
1593.920062
 20
129.4999964
 30
0.0
 11
1783.7200474
 21
129.4999964
 31
0.0
  0
TEXT
  8
0
  6
CONTINUOUS
 62
     4
 10
1604.3200612
 20
111.2999978
 30
1.03999992
 40
10.3999992
  1
ＳＣＡＬＥ
 50
0.0
 41
0.6
 51
0.0
  7
KANJI4
  0
TEXT
  8
0
  6
CONTINUOUS
 62
     4
 10
1604.3200612
 20
95.699999
 30
1.247999904
 40
12.47999904
  1
尺度
 50
0.0
 41
0.6
 51
0.0
  7
KANJI5
  0
LINE
  8
0
  6
CONTINUOUS
 62
     6
 10
1183.1200936
 20
129.4999964
 30
0.0
 11
1593.920062
 21
129.4999964
 31
0.0
  0
LINE
  8
0
  6
CONTINUOUS
 62
     6
 10
1183.1200936
 20
87.8999996
 30
0.0
 11
2394.7200004
 21
87.8999996
 31
0.0
  0
TEXT
  8
0
  6
CONTINUOUS
 62
     6
 10
1788.920047
 20
111.2999978
 30
0.0
 40
18.1999986
  1
ＵＮＩＴＥＣ　ＩＮＤＵＳＴＲＹ　ＣＯ．，ＬＴＤ．
 50
0.0
 41
0.42031746
 51
0.0
  7
KANJI6
  0
TEXT
  8
0
  6
CONTINUOUS
 62
     6
 10
2044.175027365
 20
104.53999832
 30
3.11999976
 40
31.1999976
  1
ユニテック工業株式会社
 50
0.0
 41
0.9
 51
0.0
  7
KANJI7
  0
LINE
  8
0
  6
CONTINUOUS
 62
     6
 10
2002.575030565
 20
115.45999748
 30
0.0
 11
1988.847031621
 21
115.45999748
 31
0.0
  0
LINE
  8
0
  6
CONTINUOUS
 62
     6
 10
2002.575030565
 20
117.955997288
 30
0.0
 11
1988.847031621
 21
117.955997288
 31
0.0
  0
LINE
  8
0
  6
CONTINUOUS
 62
     6
 10
2002.575030565
 20
115.45999748
 30
0.0
 11
2016.303029509
 21
115.45999748
 31
0.0
  0
LINE
  8
0
  6
CONTINUOUS
 62
     6
 10
2002.575030565
 20
117.955997288
 30
0.0
 11
2016.303029509
 21
117.955997288
 31
0.0
  0
LINE
  8
0
  6
CONTINUOUS
 62
     6
 10
2016.303029509
 20
117.955997288
 30
0.0
 11
2016.303029509
 21
115.45999748
 31
0.0
  0
ARC
  8
0
  6
CONTINUOUS
 62
     6
 10
2019.423029269
 20
116.707997384
 30
0.0
 40
12.47999904
 50
185.739170477
 51
90.0
  0
ARC
  8
0
  6
CONTINUOUS
 62
     6
 10
2019.423029269
 20
116.707997384
 30
0.0
 40
14.975998848
 50
184.780191847
 51
90.0
  0
LINE
  8
0
  6
CONTINUOUS
 62
     6
 10
1988.847031621
 20
115.45999748
 30
0.0
 11
1988.847031621
 21
117.955997288
 31
0.0
  0
ARC
  8
0
  6
CONTINUOUS
 62
     6
 10
1985.727031861
 20
116.707997384
 30
0.0
 40
12.47999904
 50
90.0
 51
354.260829523
  0
ARC
  8
0
  6
CONTINUOUS
 62
     6
 10
1985.727031861
 20
116.707997384
 30
0.0
 40
14.975998848
 50
90.0
 51
355.219808153
  0
LINE
  8
0
  6
CONTINUOUS
 62
     6
 10
2000.703030709
 20
131.683996232
 30
0.0
 11
2000.703030709
 21
129.187996424
 31
0.0
  0
LINE
  8
0
  6
CONTINUOUS
 62
     6
 10
1985.727031861
 20
129.187996424
 30
0.0
 11
2000.703030709
 21
129.187996424
 31
0.0
  0
LINE
  8
0
  6
CONTINUOUS
 62
     6
 10
2004.447030421
 20
131.683996232
 30
0.0
 11
2004.447030421
 21
129.187996424
 31
0.0
  0
LINE
  8
0
  6
CONTINUOUS
 62
     6
 10
2019.423029269
 20
129.187996424
 30
0.0
 11
2004.447030421
 21
129.187996424
 31
0.0
  0
TEXT
  8
0
  6
CONTINUOUS
 62
     4
 10
1315.7200834
 20
111.2999978
 30
1.03999992
 40
10.3999992
  1
ＢＹ
 50
0.0
 41
0.6
 51
0.0
  7
KANJI4
  0
TEXT
  8
0
  6
CONTINUOUS
 62
     4
 10
1430.1200746
 20
111.2999978
 30
1.03999992
 40
10.3999992
  1
ＤＥＳＣＲＩＰＴＩＯＮ
 50
0.0
 41
0.6
 51
0.0
  7
KANJI4
  0
TEXT
  8
0
  6
CONTINUOUS
 62
     4
 10
1315.7200834
 20
95.699999
 30
1.247999904
 40
12.47999904
  1
担当
 50
0.0
 41
0.6
 51
0.0
  7
KANJI5
  0
TEXT
  8
0
  6
CONTINUOUS
 62
     4
 10
1445.7200734
 20
95.699999
 30
1.247999904
 40
12.47999904
  1
記　　　　事
 50
0.0
 41
0.6
 51
0.0
  7
KANJI5
  0
LINE
  8
0
  6
CONTINUOUS
 62
     4
 10
1205.2200919
 20
121.699997
 30
0.0
 11
1188.3200932
 21
95.699999
 31
0.0
  0
TEXT
  8
0
  6
CONTINUOUS
 62
     4
 10
1248.1200886
 20
111.2999978
 30
1.03999992
 40
10.3999992
  1
ＤＡＴＥ
 50
0.0
 41
0.6
 51
0.0
  7
KANJI4
  0
TEXT
  8
0
  6
CONTINUOUS
 62
     4
 10
1255.920088
 20
95.699999
 30
1.247999904
 40
12.47999904
  1
日付
 50
0.0
 41
0.6
 51
0.0
  7
KANJI5
  0
LINE
  8
0
  6
CONTINUOUS
 62
     4
 10
1188.3200932
 20
95.699999
 30
0.0
 11
1222.1200906
 21
95.699999
 31
0.0
  0
LINE
  8
0
  6
CONTINUOUS
 62
     4
 10
1205.2200919
 20
121.699997
 30
0.0
 11
1222.1200906
 21
95.699999
 31
0.0
  0
LINE
  8
0
  6
CONTINUOUS
 62
     6
 10
1183.1200936
 20
87.8999996
 30
0.0
 11
1183.1200936
 21
129.4999964
 31
0.0
  0
LINE
  8
0
  6
CONTINUOUS
 62
     4
 10
1227.3200902
 20
87.8999996
 30
0.0
 11
1227.3200902
 21
129.4999964
 31
0.0
  0
LINE
  8
0
  6
CONTINUOUS
 62
     4
 10
1300.1200846
 20
87.8999996
 30
0.0
 11
1300.1200846
 21
129.4999964
 31
0.0
  0
LINE
  8
0
  6
CONTINUOUS
 62
     4
 10
1346.920081
 20
87.8999996
 30
0.0
 11
1346.920081
 21
129.4999964
 31
0.0
  0
TEXT
  8
0
  6
CONTINUOUS
 62
     4
 10
1604.3200612
 20
319.2999818
 30
1.03999992
 40
10.3999992
  1
ＣＯＤＥ
 50
0.0
 41
0.6
 51
0.0
  7
KANJI4
  0
LINE
  8
0
  6
CONTINUOUS
 62
     4
 10
1593.920062
 20
337.4999804
 30
0.0
 11
2394.7200004
 21
337.4999804
 31
0.0
  0
TEXT
  8
0
  6
CONTINUOUS
 62
     4
 10
1604.3200612
 20
303.699983
 30
1.247999904
 40
12.47999904
  1
分類
 50
0.0
 41
0.6
 51
0.0
  7
KANJI5
  0
TEXT
  8
0
  6
CONTINUOUS
 62
     4
 10
1612.42
 20
343.7
 30
6.0
 40
21.6
  1
ご注文主
 50
0.0
 41
1.111111111
 51
0.0
  7
KANJI8
  0
TEXT
  8
0
  6
CONTINUOUS
 62
     4
 10
1604.3200612
 20
194.4999914
 30
1.03999992
 40
10.3999992
  1
ＤＲＡＷＮ
 50
0.0
 41
0.6
 51
0.0
  7
KANJI4
  0
TEXT
  8
0
  6
CONTINUOUS
 62
     4
 10
1604.3200612
 20
236.0999882
 30
1.03999992
 40
10.3999992
  1
ＤＥＳＩＧＮ
 50
0.0
 41
0.6
 51
0.0
  7
KANJI4
  0
TEXT
  8
0
  6
CONTINUOUS
 62
     4
 10
1604.3200612
 20
277.699985
 30
1.03999992
 40
10.3999992
  1
ＣＨＥＣＫ
 50
0.0
 41
0.6
 51
0.0
  7
KANJI4
  0
LINE
  8
0
  6
CONTINUOUS
 62
     4
 10
1593.920062
 20
254.2999868
 30
0.0
 11
1783.7200474
 21
254.2999868
 31
0.0
  0
LINE
  8
0
  6
CONTINUOUS
 62
     4
 10
1593.920062
 20
212.69999
 30
0.0
 11
1783.7200474
 21
212.69999
 31
0.0
  0
LINE
  8
0
  6
CONTINUOUS
 62
     4
 10
1593.920062
 20
295.8999836
 30
0.0
 11
1783.7200474
 21
295.8999836
 31
0.0
  0
TEXT
  8
0
  6
CONTINUOUS
 62
     4
 10
1604.3200612
 20
220.4999894
 30
1.247999904
 40
12.47999904
  1
設計
 50
0.0
 41
0.6
 51
0.0
  7
KANJI5
  0
TEXT
  8
0
  6
CONTINUOUS
 62
     4
 10
1604.3200612
 20
262.0999862
 30
1.247999904
 40
12.47999904
  1
検図
 50
0.0
 41
0.6
 51
0.0
  7
KANJI5
  0
LINE
  8
0
  6
CONTINUOUS
 62
     4
 10
1799.06004622
 20
295.8999836
 30
0.0
 11
2394.7200004
 21
295.8999836
 31
0.0
  0
LINE
  8
0
  6
CONTINUOUS
 62
     4
 10
1783.7200474
 20
212.69999
 30
0.0
 11
2394.7200004
 21
212.69999
 31
0.0
  0
TEXT
  8
0
  6
CONTINUOUS
 62
     4
 10
1794.1200466
 20
194.4999914
 30
1.03999992
 40
10.3999992
  1
ＤＲＡＷＩＮＧ　ＮＯ．
 50
0.0
 41
0.8
 51
0.0
  7
KANJI9
  0
TEXT
  8
0
  6
CONTINUOUS
 62
     4
 10
1794.1200466
 20
236.0999882
 30
1.03999992
 40
10.3999992
  1
ＭＦＧ　ＮＯ．
 50
0.0
 41
0.8
 51
0.0
  7
KANJI9
  0
TEXT
  8
0
  6
CONTINUOUS
 62
     4
 10
1794.1200466
 20
277.699985
 30
1.03999992
 40
10.3999992
  1
ＴＹＰＥ
 50
0.0
 41
0.8
 51
0.0
  7
KANJI9
  0
LINE
  8
0
  6
CONTINUOUS
 62
     4
 10
1799.3200462
 20
254.2999868
 30
0.0
 11
2038.5200278
 21
254.2999868
 31
0.0
  0
TEXT
  8
0
  6
CONTINUOUS
 62
     4
 10
1794.1200466
 20
176.2999928
 30
1.247999904
 40
12.47999904
  1
図　面　番　号
 50
0.0
 41
0.8
 51
0.0
  7
KANJI10
  0
TEXT
  8
0
  6
CONTINUOUS
 62
     4
 10
1794.1200466
 20
217.8999896
 30
1.247999904
 40
12.47999904
  1
製番
 50
0.0
 41
0.8
 51
0.0
  7
KANJI10
  0
TEXT
  8
0
  6
CONTINUOUS
 62
     4
 10
1794.1200466
 20
259.4999864
 30
1.247999904
 40
12.47999904
  1
機種
 50
0.0
 41
0.8
 51
0.0
  7
KANJI10
  0
LINE
  8
0
  6
CONTINUOUS
 62
     4
 10
1593.920062
 20
171.0999932
 30
0.0
 11
1783.7200474
 21
171.0999932
 31
0.0
  0
TEXT
  8
0
  6
CONTINUOUS
 62
     4
 10
1604.3200612
 20
152.8999946
 30
1.03999992
 40
10.3999992
  1
ＤＡＴＥ
 50
0.0
 41
0.6
 51
0.0
  7
KANJI4
  0
TEXT
  8
0
  6
CONTINUOUS
 62
     4
 10
1604.3200612
 20
137.2999958
 30
1.247999904
 40
12.47999904
  1
日付
 50
0.0
 41
0.6
 51
0.0
  7
KANJI5
  0
TEXT
  8
0
  6
CONTINUOUS
 62
     4
 10
1604.3200612
 20
178.8999926
 30
1.247999904
 40
12.47999904
  1
作図
 50
0.0
 41
0.6
 51
0.0
  7
KANJI5
  0
LINE
  8
0
  6
CONTINUOUS
 62
     4
 10
1783.7200474
 20
152.8999946
 30
0.0
 11
2394.7200004
 21
152.8999946
 31
0.0
  0
LINE
  8
0
  6
LTYPE1
 62
     4
 10
2220.5200138
 20
160.699994
 30
0.0
 11
2220.5200138
 21
202.2999908
 31
0.0
  0
LINE
  8
0
  6
LTYPE1
 62
     4
 10
2184.1200166
 20
160.699994
 30
0.0
 11
2184.1200166
 21
202.2999908
 31
0.0
  0
LINE
  8
0
  6
LTYPE1
 62
     4
 10
2147.7200194
 20
160.699994
 30
0.0
 11
2147.7200194
 21
202.2999908
 31
0.0
  0
LINE
  8
0
  6
LTYPE1
 62
     4
 10
2111.3200222
 20
160.699994
 30
0.0
 11
2111.3200222
 21
202.2999908
 31
0.0
  0
LINE
  8
0
  6
LTYPE1
 62
     4
 10
2074.920025
 20
160.699994
 30
0.0
 11
2074.920025
 21
202.2999908
 31
0.0
  0
LINE
  8
0
  6
LTYPE1
 62
     4
 10
2038.5200278
 20
160.699994
 30
0.0
 11
2038.5200278
 21
202.2999908
 31
0.0
  0
LINE
  8
0
  6
LTYPE1
 62
     4
 10
2002.1200306
 20
160.699994
 30
0.0
 11
2002.1200306
 21
202.2999908
 31
0.0
  0
LINE
  8
0
  6
LTYPE1
 62
     4
 10
1965.7200334
 20
160.699994
 30
0.0
 11
1965.7200334
 21
202.2999908
 31
0.0
  0
LINE
  8
0
  6
LTYPE1
 62
     4
 10
1965.7200334
 20
202.2999908
 30
0.0
 11
2220.5200138
 21
202.2999908
 31
0.0
  0
LINE
  8
0
  6
LTYPE1
 62
     4
 10
1965.7200334
 20
160.699994
 30
0.0
 11
2220.5200138
 21
160.699994
 31
0.0
  0
LINE
  8
0
  6
CONTINUOUS
 62
     4
 10
2241.3200122
 20
182.7999923
 30
0.0
 11
2251.7200114
 21
182.7999923
 31
0.0
  0
LINE
  8
0
  6
CONTINUOUS
 62
     4
 10
2306.3200072
 20
167.1999935
 30
0.0
 11
2269.92001
 21
167.1999935
 31
0.0
  0
LINE
  8
0
  6
CONTINUOUS
 62
     4
 10
2269.92001
 20
167.1999935
 30
0.0
 11
2288.1200086
 21
198.3999911
 31
0.0
  0
LINE
  8
0
  6
CONTINUOUS
 62
     4
 10
2288.1200086
 20
198.3999911
 30
0.0
 11
2306.3200072
 21
167.1999935
 31
0.0
  0
TEXT
  8
0
  6
CONTINUOUS
 62
     4
 10
2054.1200266
 20
277.699985
 30
1.03999992
 40
10.3999992
  1
ＴＩＴＬＥ
 50
0.0
 41
0.8
 51
0.0
  7
KANJI9
  0
TEXT
  8
0
  6
CONTINUOUS
 62
     4
 10
2054.1200266
 20
259.4999864
 30
1.247999904
 40
12.47999904
  1
名称
 50
0.0
 41
0.8
 51
0.0
  7
KANJI10
  0
TEXT
  8
0
  6
CONTINUOUS
 62
     2
 10
2138.92
 20
220.7
 30
15.0
 40
30.0
  1
外形寸法図
 50
0.0
 41
1.0
 51
0.0
  7
KANJI11
  0
TEXT
  8
0
  6
CONTINUOUS
 62
     2
 10
2102.92
 20
256.7
 30
4.285714286
 40
30.0
  1
マイティシリンダ
 50
0.0
 41
1.0
 51
0.0
  7
KANJI12
  0
TEXT
  8
0
  6
CONTINUOUS
 62
     2
 10
1934.2200334
 20
166.699994
 30
1.8
 40
30.0
  1
Ａ
 50
0.0
 41
0.8
 51
0.0
  7
KANJI13
  0
CIRCLE
  8
0
  6
CONTINUOUS
 62
     2
 10
1895.2200334
 20
231.199994
 30
0.0
 40
15.0
  0
TEXT
  8
0
  6
CONTINUOUS
 62
     2
 10
1883.9700334
 20
219.949994
 30
1.8
 40
24.0
  1
Ｓ
 50
0.0
 41
1.0
 51
0.0
  7
KANJI14
  0
LINE
  8
0
  6
CONTINUOUS
 62
     6
 10
2000.703030709
 20
131.683996232
 30
0.0
 11
1985.727031861
 21
131.683996232
 31
0.0
  0
LINE
  8
0
  6
CONTINUOUS
 62
     6
 10
2004.447030421
 20
131.683996232
 30
0.0
 11
2019.423029269
 21
131.683996232
 31
0.0
  0
TEXT
  8
0
  6
CONTINUOUS
 62
     2
 10
1660.9200334
 20
181.699994
 30
6.0
 40
21.0
  1
岡田
 50
0.0
 41
0.857142857
 51
0.0
  7
KANJI15
  0
LINE
  8
0
  6
CONTINUOUS
 62
     4
 10
2394.7200004
 20
379.0999772
 30
0.0
 11
2394.7200004
 21
420.699974
 31
0.0
  0
LINE
  8
0
  6
CONTINUOUS
 62
     6
 10
1594.670062
 20
379.0999772
 30
0.0
 11
2395.4700004
 21
379.0999772
 31
0.0
  0
LINE
  8
0
  6
CONTINUOUS
 62
     6
 10
1593.920062
 20
420.699974
 30
0.0
 11
2394.7200004
 21
420.699974
 31
0.0
  0
TEXT
  8
0
  6
CONTINUOUS
 62
     4
 10
1612.42
 20
385.2999968
 30
6.0
 40
21.6
  1
ご用途
 50
0.0
 41
1.111111111
 51
0.0
  7
KANJI8
  0
LINE
  8
0
  6
CONTINUOUS
 62
     1
 10
1868.92
 20
781.7
 30
0.0
 11
2393.92
 21
781.7
 31
0.0
  0
LINE
  8
0
  6
CONTINUOUS
 62
     2
 10
1868.92
 20
865.7
 30
0.0
 11
2393.92
 21
865.7
 31
0.0
  0
LINE
  8
0
  6
CONTINUOUS
 62
     2
 10
1868.92
 20
823.7
 30
0.0
 11
2393.92
 21
823.7
 31
0.0
  0
LINE
  8
0
  6
CONTINUOUS
 62
     2
 10
1916.92
 20
1201.7
 30
0.0
 11
1916.92
 21
865.7
 31
0.0
  0
TEXT
  8
0
  6
CONTINUOUS
 62
     2
 10
1901.92
 20
834.5
 30
79.962857143
 40
22.8
  1
付属品
 50
0.0
 41
0.9
 51
0.0
  7
KANJI16
  0
TEXT
  8
0
  6
CONTINUOUS
 62
     2
 10
1901.92
 20
792.5
 30
180.445714286
 40
22.8
  1
台数
 50
0.0
 41
0.9
 51
0.0
  7
KANJI17
  0
LINE
  8
0
  6
CONTINUOUS
 62
     1
 10
1868.92
 20
1597.7
 30
0.0
 11
1868.92
 21
781.7
 31
0.0
  0
LINE
  8
0
  6
CONTINUOUS
 62
     1
 10
1868.92
 20
1597.7
 30
0.0
 11
2393.92
 21
1597.7
 31
0.0
  0
TEXT
  8
0
  6
CONTINUOUS
 62
     2
 10
1943.92
 20
1553.9
 30
17.09964
 40
27.0
  1
マイティシリンダ仕様
 50
0.0
 41
0.9
 51
0.0
  7
KANJI18
  0
LINE
  8
0
  6
CONTINUOUS
 62
     2
 10
1916.92
 20
907.7
 30
0.0
 11
2393.92
 21
907.7
 31
0.0
  0
LINE
  8
0
  6
CONTINUOUS
 62
     2
 10
1916.92
 20
1033.7
 30
0.0
 11
2393.92
 21
1033.7
 31
0.0
  0
LINE
  8
0
  6
CONTINUOUS
 62
     2
 10
1916.92
 20
1075.7
 30
0.0
 11
2393.92
 21
1075.7
 31
0.0
  0
LINE
  8
0
  6
CONTINUOUS
 62
     2
 10
1868.92
 20
1285.7
 30
0.0
 11
2393.92
 21
1285.7
 31
0.0
  0
LINE
  8
0
  6
CONTINUOUS
 62
     2
 10
1868.92
 20
1243.7
 30
0.0
 11
2393.92
 21
1243.7
 31
0.0
  0
LINE
  8
0
  6
CONTINUOUS
 62
     2
 10
1868.92
 20
1201.7
 30
0.0
 11
2393.92
 21
1201.7
 31
0.0
  0
LINE
  8
0
  6
CONTINUOUS
 62
     2
 10
1916.92
 20
1117.7
 30
0.0
 11
2393.92
 21
1117.7
 31
0.0
  0
LINE
  8
0
  6
CONTINUOUS
 62
     2
 10
1916.92
 20
1159.7
 30
0.0
 11
2393.92
 21
1159.7
 31
0.0
  0
LINE
  8
0
  6
CONTINUOUS
 62
     2
 10
1868.92
 20
1495.7
 30
0.0
 11
2393.92
 21
1495.7
 31
0.0
  0
LINE
  8
0
  6
CONTINUOUS
 62
     2
 10
1868.92
 20
1453.7
 30
0.0
 11
2393.92
 21
1453.7
 31
0.0
  0
LINE
  8
0
  6
CONTINUOUS
 62
     2
 10
1868.92
 20
1411.7
 30
0.0
 11
2393.92
 21
1411.7
 31
0.0
  0
LINE
  8
0
  6
CONTINUOUS
 62
     2
 10
1868.92
 20
1369.7
 30
0.0
 11
2393.92
 21
1369.7
 31
0.0
  0
LINE
  8
0
  6
CONTINUOUS
 62
     2
 10
1868.92
 20
1327.7
 30
0.0
 11
2393.92
 21
1327.7
 31
0.0
  0
LINE
  8
0
  6
CONTINUOUS
 62
     2
 10
1868.92
 20
1537.7
 30
0.0
 11
2393.92
 21
1537.7
 31
0.0
  0
TEXT
  8
0
  6
CONTINUOUS
 62
     2
 10
1943.92
 20
1128.5
 30
33.439782857
 40
22.8
  1
電源電圧
 50
0.0
 41
0.9
 51
0.0
  7
KANJI19
  0
TEXT
  8
0
  6
CONTINUOUS
 62
     2
 10
1943.92
 20
1086.5
 30
60.42
 40
22.8
  1
周波数
 50
0.0
 41
0.9
 51
0.0
  7
KANJI20
  0
TEXT
  8
0
  6
CONTINUOUS
 62
     2
 10
1943.92
 20
1044.5
 30
141.36
 40
22.8
  1
電流
 50
0.0
 41
0.9
 51
0.0
  7
KANJI21
  0
TEXT
  8
0
  6
CONTINUOUS
 62
     2
 10
1943.92
 20
1002.5
 30
60.42
 40
22.8
  1
絶縁級
 50
0.0
 41
0.9
 51
0.0
  7
KANJI20
  0
LINE
  8
0
  6
CONTINUOUS
 62
     2
 10
2144.92
 20
1537.7
 30
0.0
 11
2144.92
 21
781.7
 31
0.0
  0
TEXT
  8
0
  6
CONTINUOUS
 62
     2
 10
1901.92
 20
1506.5
 30
180.445714286
 40
22.8
  1
形式
 50
0.0
 41
0.9
 51
0.0
  7
KANJI17
  0
TEXT
  8
0
  6
CONTINUOUS
 62
     2
 10
1901.92
 20
1464.5
 30
180.445714286
 40
22.8
  1
推力
 50
0.0
 41
0.9
 51
0.0
  7
KANJI17
  0
TEXT
  8
0
  6
CONTINUOUS
 62
     2
 10
1901.92
 20
1422.5
 30
29.721428571
 40
22.8
  1
ストローク
 50
0.0
 41
0.9
 51
0.0
  7
KANJI22
  0
TEXT
  8
0
  6
CONTINUOUS
 62
     2
 10
1901.92
 20
1296.5
 30
180.445714286
 40
22.8
  1
構造
 50
0.0
 41
0.9
 51
0.0
  7
KANJI17
  0
TEXT
  8
0
  6
CONTINUOUS
 62
     2
 10
1901.92
 20
1254.5
 30
12.973851429
 40
22.8
  1
過負荷安全装置
 50
0.0
 41
0.9
 51
0.0
  7
KANJI23
  0
TEXT
  8
0
  6
CONTINUOUS
 62
     2
 10
1901.92
 20
1212.5
 30
79.962857143
 40
22.8
  1
塗装色
 50
0.0
 41
0.9
 51
0.0
  7
KANJI16
  0
TEXT
  8
0
  6
CONTINUOUS
 62
     2
 10
1877.92
 20
1338.5
 30
1.954285714
 40
22.8
  1
ピストンロッド回転トルク
 50
0.0
 41
0.9
 51
0.0
  7
KANJI24
  0
LINE
  8
0
  6
CONTINUOUS
 62
     2
 10
1868.92
 20
991.7
 30
0.0
 11
2393.92
 21
991.7
 31
0.0
  0
LINE
  8
0
  6
CONTINUOUS
 62
     2
 10
1916.92
 20
949.7
 30
0.0
 11
2393.92
 21
949.7
 31
0.0
  0
TEXT
  8
0
  6
CONTINUOUS
 62
     2
 10
1893.37
 20
1195.7
 30
13.2
 40
21.0
  1
モ　トル仕様
 50
0.0
 41
0.9
 51
0.0
  7
KANJI25
  0
TEXT
  8
0
  6
CONTINUOUS
 62
     2
 10
1893.37
 20
973.7
 30
1.2
 40
21.0
  1
ブレ　キ
 50
0.0
 41
0.9
 51
0.0
  7
KANJI26
  0
LINE
  8
0
  6
CONTINUOUS
 62
     2
 10
1891.72
 20
923.9
 30
0.0
 11
1891.72
 21
911.3
 31
0.0
  0
TEXT
  8
0
  6
CONTINUOUS
 62
     2
 10
2203.42
 20
1255.7
 30
9.0
 40
21.0
  1
推力リミッタ
 50
0.0
 41
0.9
 51
0.0
  7
KANJI27
  0
TEXT
  8
0
  6
CONTINUOUS
 62
     2
 10
2260.42
 20
1003.7
 30
1.8
 40
18.0
  1
Ｅ
 50
0.0
 41
0.9
 51
0.0
  7
KANJI28
  0
TEXT
  8
0
  6
CONTINUOUS
 62
     2
 10
2216.92
 20
918.5
 30
12.0
 40
21.0
  1
同時切り
 50
0.0
 41
0.9
 51
0.0
  7
KANJI29
  0
TEXT
  8
0
  6
CONTINUOUS
 62
     2
 10
1943.92
 20
960.5
 30
141.36
 40
22.8
  1
形式
 50
0.0
 41
0.9
 51
0.0
  7
KANJI21
  0
TEXT
  8
0
  6
CONTINUOUS
 62
     2
 10
1943.92
 20
918.5
 30
33.439782857
 40
22.8
  1
操作方式
 50
0.0
 41
0.9
 51
0.0
  7
KANJI19
  0
LINE
  8
0
  6
CONTINUOUS
 62
     2
 10
1891.72
 20
1159.1
 30
0.0
 11
1891.72
 21
1145.3
 31
0.0
  0
LINE
  8
0
  6
CONTINUOUS
 62
     1
 10
2393.92
 20
1597.7
 30
0.0
 11
2393.92
 21
781.7
 31
0.0
  0
TEXT
  8
0
  6
CONTINUOUS
 62
     2
 10
1943.92
 20
1170.5
 30
3.0
 40
22.8
  1
出力　相数　極数
 50
0.0
 41
0.9
 51
0.0
  7
KANJI30
  0
TEXT
  8
0
  6
CONTINUOUS
 62
     2
 10
1901.92
 20
1380.5
 30
12.0
 40
22.8
  1
公称速度
 50
0.0
 41
0.9
 51
0.0
  7
KANJI31
  0
TEXT
  8
0
  6
CONTINUOUS
 62
     2
 10
2025.82
 20
1379.3
 30
0.0
 40
21.0
  1
（５０／６０Ｈｚ）
 50
0.0
 41
0.628571429
 51
0.0
  7
KANJI32
  0
TEXT
  8
0
  6
CONTINUOUS
 62
     2
 10
2146.42
 20
960.95
 30
3.3
 40
20.4
  1
スプリング制動式電磁ブレーキ
 50
0.0
 41
0.705882353
 51
0.0
  7
KANJI33
  0
TEXT
  8
0
  6
CONTINUOUS
 62
     2
 10
2365.42
 20
1128.5
 30
0.216
 40
18.0
  1
Ｖ
 50
0.0
 41
0.8
 51
0.0
  7
KANJI34
  0
TEXT
  8
0
  6
CONTINUOUS
 62
     2
 10
2354.62
 20
1086.5
 30
0.216
 40
18.0
  1
Ｈｚ
 50
0.0
 41
0.8
 51
0.0
  7
KANJI34
  0
TEXT
  8
0
  6
CONTINUOUS
 62
     2
 10
2365.42
 20
1044.5
 30
0.216
 40
18.0
  1
Ａ
 50
0.0
 41
0.8
 51
0.0
  7
KANJI34
  0
TEXT
  8
0
  6
CONTINUOUS
 62
     2
 10
2286.52
 20
1171.7
 30
1.8
 40
18.0
  1
３φ
 50
0.0
 41
0.9
 51
0.0
  7
KANJI28
  0
TEXT
  8
0
  6
CONTINUOUS
 62
     2
 10
2346.52
 20
1171.7
 30
1.8
 40
18.0
  1
４Ｐ
 50
0.0
 41
0.9
 51
0.0
  7
KANJI28
  0
TEXT
  8
0
  6
CONTINUOUS
 62
     2
 10
2144.92
 20
1213.7
 30
1.2
 40
19.2
  1
マンセル　７．５ＧＹ　５／４．５
 50
0.0
 41
0.71875
 51
0.0
  7
KANJI35
  0
TEXT
  8
0
  6
CONTINUOUS
 62
     2
 10
2144.92
 20
1129.7
 30
1.8
 40
18.0
  1
　　　　　　　／　　　
 50
0.0
 41
0.9
 51
0.0
  7
KANJI28
  0
TEXT
  8
0
  6
CONTINUOUS
 62
     2
 10
2144.92
 20
1087.7
 30
1.8
 40
18.0
  1
　　　　５０／　６０
 50
0.0
 41
0.9
 51
0.0
  7
KANJI28
  0
TEXT
  8
0
  6
CONTINUOUS
 62
     2
 10
2144.92
 20
1045.7
 30
1.8
 40
18.0
  1
　　　　　　　／　　　
 50
0.0
 41
0.9
 51
0.0
  7
KANJI28
  0
TEXT
  8
0
  6
CONTINUOUS
 62
     2
 10
2349.52
 20
1424.9
 30
0.1536
 40
19.2
  1
ｍｍ
 50
0.0
 41
0.8
 51
0.0
  7
KANJI36
  0
TEXT
  8
0
  6
CONTINUOUS
 62
     2
 10
2310.52
 20
1381.7
 30
0.0
 40
21.0
  1
ｍｍ／ｓｅｃ
 50
0.0
 41
0.571428571
 51
0.0
  7
KANJI37
  0
TEXT
  8
0
  6
CONTINUOUS
 62
     2
 10
1703.92
 20
94.7
 30
1.8
 40
27.0
  1
１／６
 50
0.0
 41
0.666666667
 51
0.0
  7
KANJI38
  0
TEXT
  8
0
  6
CONTINUOUS
 62
     2
 10
2203.42
 20
1297.7
 30
9.0
 40
21.0
  1
全閉屋外形
 50
0.0
 41
0.9
 51
0.0
  7
KANJI27
  0
TEXT
  8
0
  6
CONTINUOUS
 62
     2
 10
2150.92
 20
1171.7
 30
1.8
 40
18.0
  1
　１．１ＫＷ
 50
0.0
 41
0.9
 51
0.0
  7
KANJI28
  0
LINE
  8
0
  6
CONTINUOUS
 62
     1
 10
581.12
 20
539.24
 30
0.0
 11
581.12
 21
650.24
 31
0.0
  0
LINE
  8
0
  6
CONTINUOUS
 62
     1
 10
414.12
 20
540.24
 30
0.0
 11
414.12
 21
654.24
 31
0.0
  0
CIRCLE
  8
0
  6
CONTINUOUS
 62
     1
 10
459.12
 20
597.24
 30
0.0
 40
10.0
  0
CIRCLE
  8
0
  6
CONTINUOUS
 62
     1
 10
459.12
 20
597.24
 30
0.0
 40
21.0
  0
CIRCLE
  8
0
  6
CONTINUOUS
 62
     1
 10
459.12
 20
597.24
 30
0.0
 40
25.0
  0
LINE
  8
0
  6
CONTINUOUS
 62
     1
 10
399.12
 20
654.24
 30
0.0
 11
414.12
 21
654.24
 31
0.0
  0
LINE
  8
0
  6
CONTINUOUS
 62
     1
 10
428.02
 20
650.24
 30
0.0
 11
581.12
 21
650.24
 31
0.0
  0
LINE
  8
0
  6
CONTINUOUS
 62
     1
 10
507.12
 20
539.24
 30
0.0
 11
507.12
 21
591.64
 31
0.0
  0
LINE
  8
0
  6
CONTINUOUS
 62
     1
 10
428.02
 20
544.24
 30
0.0
 11
504.62
 21
544.24
 31
0.0
  0
ARC
  8
0
  6
CONTINUOUS
 62
     1
 10
503.12
 20
487.24
 30
0.0
 40
1.0
 50
180.0
 51
270.0
  0
LINE
  8
0
  6
CONTINUOUS
 62
     1
 10
417.12
 20
642.24
 30
0.0
 11
417.12
 21
653.18954
 31
0.0
  0
LINE
  8
0
  6
CONTINUOUS
 62
     1
 10
417.12
 20
642.24
 30
0.0
 11
417.12
 21
631.29046
 31
0.0
  0
LINE
  8
0
  6
CONTINUOUS
 62
     1
 10
414.12
 20
652.99
 30
0.0
 11
417.12
 21
652.99
 31
0.0
  0
LINE
  8
0
  6
CONTINUOUS
 62
     1
 10
414.12
 20
642.24
 30
0.0
 11
417.120254073
 21
645.240254073
 31
0.0
  0
LINE
  8
0
  6
CONTINUOUS
 62
     1
 10
417.120254073
 20
642.24
 30
0.0
 11
414.12
 21
639.239745927
 31
0.0
  0
LINE
  8
0
  6
CONTINUOUS
 62
     1
 10
414.12
 20
631.49
 30
0.0
 11
417.12
 21
631.49
 31
0.0
  0
LINE
  8
0
  6
CONTINUOUS
 62
     1
 10
417.12
 20
652.99
 30
0.0
 11
428.42
 21
652.99
 31
0.0
  0
LINE
  8
0
  6
CONTINUOUS
 62
     1
 10
428.42
 20
642.24
 30
0.0
 11
428.42
 21
652.99
 31
0.0
  0
LINE
  8
0
  6
CONTINUOUS
 62
     1
 10
428.42
 20
652.99
 30
0.0
 11
429.12
 21
651.777564435
 31
0.0
  0
LINE
  8
0
  6
CONTINUOUS
 62
     1
 10
429.12
 20
642.24
 30
0.0
 11
429.12
 21
651.777564435
 31
0.0
  0
LINE
  8
0
  6
CONTINUOUS
 62
     1
 10
417.12
 20
631.49
 30
0.0
 11
428.42
 21
631.49
 31
0.0
  0
LINE
  8
0
  6
CONTINUOUS
 62
     1
 10
428.42
 20
642.24
 30
0.0
 11
428.42
 21
631.49
 31
0.0
  0
LINE
  8
0
  6
CONTINUOUS
 62
     1
 10
428.42
 20
631.49
 30
0.0
 11
429.12
 21
632.702435565
 31
0.0
  0
LINE
  8
0
  6
CONTINUOUS
 62
     1
 10
429.12
 20
642.24
 30
0.0
 11
429.12
 21
632.702435565
 31
0.0
  0
LINE
  8
0
  6
CONTINUOUS
 62
     1
 10
417.12
 20
552.24
 30
0.0
 11
417.12
 21
541.29046
 31
0.0
  0
LINE
  8
0
  6
CONTINUOUS
 62
     1
 10
417.12
 20
552.24
 30
0.0
 11
417.12
 21
563.18954
 31
0.0
  0
LINE
  8
0
  6
CONTINUOUS
 62
     1
 10
414.12
 20
541.49
 30
0.0
 11
417.12
 21
541.49
 31
0.0
  0
LINE
  8
0
  6
CONTINUOUS
 62
     1
 10
414.12
 20
552.24
 30
0.0
 11
417.120254073
 21
549.239745927
 31
0.0
  0
LINE
  8
0
  6
CONTINUOUS
 62
     1
 10
417.120254073
 20
552.24
 30
0.0
 11
414.12
 21
555.240254073
 31
0.0
  0
LINE
  8
0
  6
CONTINUOUS
 62
     1
 10
414.12
 20
562.99
 30
0.0
 11
417.12
 21
562.99
 31
0.0
  0
LINE
  8
0
  6
CONTINUOUS
 62
     1
 10
417.12
 20
541.49
 30
0.0
 11
428.42
 21
541.49
 31
0.0
  0
LINE
  8
0
  6
CONTINUOUS
 62
     1
 10
428.42
 20
552.24
 30
0.0
 11
428.42
 21
541.49
 31
0.0
  0
LINE
  8
0
  6
CONTINUOUS
 62
     1
 10
428.42
 20
541.49
 30
0.0
 11
429.12
 21
542.702435565
 31
0.0
  0
LINE
  8
0
  6
CONTINUOUS
 62
     1
 10
429.12
 20
552.24
 30
0.0
 11
429.12
 21
542.702435565
 31
0.0
  0
LINE
  8
0
  6
CONTINUOUS
 62
     1
 10
417.12
 20
562.99
 30
0.0
 11
428.42
 21
562.99
 31
0.0
  0
LINE
  8
0
  6
CONTINUOUS
 62
     1
 10
428.42
 20
552.24
 30
0.0
 11
428.42
 21
562.99
 31
0.0
  0
LINE
  8
0
  6
CONTINUOUS
 62
     1
 10
428.42
 20
562.99
 30
0.0
 11
429.12
 21
561.777564435
 31
0.0
  0
LINE
  8
0
  6
CONTINUOUS
 62
     1
 10
429.12
 20
552.24
 30
0.0
 11
429.12
 21
561.777564435
 31
0.0
  0
LINE
  8
0
  6
CONTINUOUS
 62
     1
 10
399.12
 20
540.24
 30
0.0
 11
414.12
 21
540.24
 31
0.0
  0
POINT
  8
0
  6
CONTINUOUS
 62
     1
 10
399.12
 20
540.24
 30
0.0
  0
LINE
  8
0
  6
CONTINUOUS
 62
     1
 10
399.12
 20
540.24
 30
0.0
 11
399.12
 21
654.24
 31
0.0
  0
LINE
  8
0
  6
CONTINUOUS
 62
     1
 10
590.12
 20
546.24
 30
0.0
 11
590.12
 21
648.24
 31
0.0
  0
LINE
  8
0
  6
CONTINUOUS
 62
     1
 10
590.12
 20
648.24
 30
0.0
 11
581.12
 21
648.24
 31
0.0
  0
LINE
  8
0
  6
CONTINUOUS
 62
     1
 10
590.12
 20
546.24
 30
0.0
 11
581.12
 21
546.24
 31
0.0
  0
LINE
  8
0
  6
CONTINUOUS
 62
     1
 10
590.12
 20
644.74
 30
0.0
 11
581.12
 21
644.74
 31
0.0
  0
LINE
  8
0
  6
CONTINUOUS
 62
     1
 10
590.12
 20
549.74
 30
0.0
 11
581.12
 21
549.74
 31
0.0
  0
LINE
  8
0
  6
CONTINUOUS
 62
     1
 10
590.12
 20
593.24
 30
0.0
 11
581.12
 21
593.24
 31
0.0
  0
LINE
  8
0
  6
CONTINUOUS
 62
     1
 10
590.12
 20
601.24
 30
0.0
 11
581.12
 21
601.24
 31
0.0
  0
LINE
  8
0
  6
LTYPE2
 62
     2
 10
378.12
 20
642.24
 30
0.0
 11
431.12
 21
642.24
 31
0.0
  0
LINE
  8
0
  6
LTYPE2
 62
     2
 10
459.12
 20
565.74
 30
0.0
 11
459.12
 21
628.74
 31
0.0
  0
LINE
  8
0
  6
LTYPE2
 62
     2
 10
378.12
 20
552.24
 30
0.0
 11
431.12
 21
552.24
 31
0.0
  0
LINE
  8
0
  6
LTYPE3
 62
     2
 10
543.12
 20
526.04
 30
0.0
 11
543.12
 21
540.89
 31
0.0
  0
LINE
  8
0
  6
CONTINUOUS
 62
     2
 10
525.92
 20
488.44
 30
0.0
 11
528.569054108
 21
476.223924021
 31
0.0
  0
LINE
  8
0
  6
CONTINUOUS
 62
     2
 10
525.92
 20
488.44
 30
0.0
 11
534.322186143
 21
479.185094921
 31
0.0
  0
LINE
  8
0
  6
CONTINUOUS
 62
     2
 10
399.12
 20
347.1025
 30
0.0
 11
411.194072829
 21
343.867261936
 31
0.0
  0
LINE
  8
0
  6
CONTINUOUS
 62
     2
 10
399.12
 20
347.1025
 30
0.0
 11
411.194072829
 21
350.337738064
 31
0.0
  0
LINE
  8
0
  6
CONTINUOUS
 62
     2
 10
399.12
 20
347.1025
 30
0.0
 11
459.12
 21
347.1025
 31
0.0
  0
LINE
  8
0
  6
CONTINUOUS
 62
     2
 10
459.12
 20
347.1025
 30
0.0
 11
447.045927171
 21
350.337738064
 31
0.0
  0
LINE
  8
0
  6
CONTINUOUS
 62
     2
 10
459.12
 20
347.1025
 30
0.0
 11
447.045927171
 21
343.867261936
 31
0.0
  0
LINE
  8
0
  6
CONTINUOUS
 62
     2
 10
459.12
 20
347.1025
 30
0.0
 11
471.194072829
 21
343.867261936
 31
0.0
  0
LINE
  8
0
  6
CONTINUOUS
 62
     2
 10
459.12
 20
347.1025
 30
0.0
 11
471.194072829
 21
350.337738064
 31
0.0
  0
LINE
  8
0
  6
CONTINUOUS
 62
     2
 10
459.12
 20
347.1025
 30
0.0
 11
1090.12
 21
347.1025
 31
0.0
  0
LINE
  8
0
  6
CONTINUOUS
 62
     2
 10
399.12
 20
515.615
 30
0.0
 11
399.12
 21
339.6025
 31
0.0
  0
LINE
  8
0
  6
CONTINUOUS
 62
     2
 10
459.12
 20
569.115
 30
0.0
 11
459.12
 21
339.6025
 31
0.0
  0
LINE
  8
0
  6
CONTINUOUS
 62
     2
 10
525.92
 20
488.44
 30
0.0
 11
569.412647059
 21
403.94
 31
0.0
  0
LINE
  8
0
  6
CONTINUOUS
 62
     2
 10
569.412647059
 20
403.94
 30
0.0
 11
648.92
 21
403.94
 31
0.0
  0
LINE
  8
0
  6
LTYPE2
 62
     2
 10
659.445
 20
597.24
 30
0.0
 11
288.02
 21
597.24
 31
0.0
  0
LINE
  8
0
  6
LTYPE2
 62
     2
 10
1108.403472275
 20
597.24
 30
0.0
 11
700.645
 21
597.24
 31
0.0
  0
LINE
  8
2
  6
CONTINUOUS
 62
     2
 10
459.12
 20
387.14
 30
0.0
 11
471.194072829
 21
383.904761936
 31
0.0
  0
LINE
  8
2
  6
CONTINUOUS
 62
     2
 10
459.12
 20
387.14
 30
0.0
 11
471.194072829
 21
390.375238064
 31
0.0
  0
LINE
  8
2
  6
CONTINUOUS
 62
     2
 10
459.12
 20
352.1025
 30
0.0
 11
459.12
 21
397.14
 31
0.0
  0
LINE
  8
2
  6
CONTINUOUS
 62
     2
 10
995.12
 20
387.14
 30
0.0
 11
459.12
 21
387.14
 31
0.0
  0
CIRCLE
  8
0
  6
CONTINUOUS
 62
     1
 10
765.12
 20
597.24
 30
0.0
 40
19.5
  0
LINE
  8
0
  6
CONTINUOUS
 62
     1
 10
745.12
 20
617.24
 30
0.0
 11
785.12
 21
617.24
 31
0.0
  0
LINE
  8
0
  6
CONTINUOUS
 62
     1
 10
745.12
 20
577.24
 30
0.0
 11
745.12
 21
617.24
 31
0.0
  0
LINE
  8
0
  6
LTYPE2
 62
     2
 10
765.12
 20
572.14
 30
0.0
 11
765.12
 21
622.04
 31
0.0
  0
LINE
  8
0
  6
CONTINUOUS
 62
     1
 10
745.12
 20
577.24
 30
0.0
 11
785.12
 21
577.24
 31
0.0
  0
LINE
  8
0
  6
CONTINUOUS
 62
     1
 10
1040.12
 20
596.74
 30
0.0
 11
1040.12
 21
571.74
 31
0.0
  0
CIRCLE
  8
0
  6
CONTINUOUS
 62
     1
 10
1090.12
 20
596.74
 30
0.0
 40
12.5
  0
CIRCLE
  8
0
  6
CONTINUOUS
 62
     1
 10
1090.12
 20
596.74
 30
0.0
 40
22.0
  0
CIRCLE
  8
0
  6
CONTINUOUS
 62
     1
 10
1090.12
 20
612.24
 30
0.0
 40
3.0
  0
LINE
  8
0
  6
CONTINUOUS
 62
     1
 10
1085.92
 20
579.94
 30
0.0
 11
1087.92
 21
579.64
 31
0.0
  0
LINE
  8
0
  6
CONTINUOUS
 62
     1
 10
1088.42
 20
584.34
 30
0.0
 11
1088.184615385
 21
582.770769231
 31
0.0
  0
LINE
  8
0
  6
CONTINUOUS
 62
     1
 10
1088.184615385
 20
582.770769231
 30
0.0
 11
1085.92
 21
579.94
 31
0.0
  0
LINE
  8
0
  6
CONTINUOUS
 62
     1
 10
1090.12
 20
582.34
 30
0.0
 11
1087.92
 21
579.64
 31
0.0
  0
LINE
  8
0
  6
CONTINUOUS
 62
     1
 10
1094.32
 20
579.94
 30
0.0
 11
1092.32
 21
579.64
 31
0.0
  0
LINE
  8
0
  6
CONTINUOUS
 62
     1
 10
1091.82
 20
584.34
 30
0.0
 11
1092.055384615
 21
582.770769231
 31
0.0
  0
LINE
  8
0
  6
CONTINUOUS
 62
     1
 10
1092.055384615
 20
582.770769231
 30
0.0
 11
1094.32
 21
579.94
 31
0.0
  0
LINE
  8
0
  6
CONTINUOUS
 62
     1
 10
1090.12
 20
582.34
 30
0.0
 11
1092.32
 21
579.64
 31
0.0
  0
LINE
  8
0
  6
LTYPE1
 62
     2
 10
1055.12
 20
571.74
 30
0.0
 11
1055.12
 21
621.74
 31
0.0
  0
LINE
  8
0
  6
CONTINUOUS
 62
     2
 10
1170.72
 20
621.74
 30
0.0
 11
1167.484761936
 21
609.665927171
 31
0.0
  0
LINE
  8
0
  6
CONTINUOUS
 62
     2
 10
1170.72
 20
621.74
 30
0.0
 11
1173.955238064
 21
609.665927171
 31
0.0
  0
LINE
  8
0
  6
CONTINUOUS
 62
     2
 10
1170.72
 20
621.74
 30
0.0
 11
1170.72
 21
571.74
 31
0.0
  0
LINE
  8
0
  6
CONTINUOUS
 62
     2
 10
1170.72
 20
571.74
 30
0.0
 11
1173.955238064
 21
583.814072829
 31
0.0
  0
LINE
  8
0
  6
CONTINUOUS
 62
     2
 10
1170.72
 20
571.74
 30
0.0
 11
1167.484761936
 21
583.814072829
 31
0.0
  0
LINE
  8
0
  6
LTYPE4
 62
     2
 10
1090.12
 20
571.74
 30
0.0
 11
1090.12
 21
628.84
 31
0.0
  0
LINE
  8
0
  6
CONTINUOUS
 62
     2
 10
1097.62
 20
606.34
 30
0.0
 11
1106.533448812
 21
615.103585469
 31
0.0
  0
LINE
  8
0
  6
CONTINUOUS
 62
     2
 10
1097.62
 20
606.34
 30
0.0
 11
1100.957480372
 21
618.38621205
 31
0.0
  0
LINE
  8
0
  6
CONTINUOUS
 62
     2
 10
1097.62
 20
606.34
 30
0.0
 11
1134.12
 21
668.34
 31
0.0
  0
LINE
  8
0
  6
CONTINUOUS
 62
     2
 10
1134.12
 20
668.34
 30
0.0
 11
1222.62
 21
668.34
 31
0.0
  0
LINE
  8
0
  6
CONTINUOUS
 62
     2
 10
1090.12
 20
347.1025
 30
0.0
 11
1078.045927171
 21
350.337738064
 31
0.0
  0
LINE
  8
0
  6
CONTINUOUS
 62
     2
 10
1090.12
 20
347.1025
 30
0.0
 11
1078.045927171
 21
343.867261936
 31
0.0
  0
LINE
  8
0
  6
CONTINUOUS
 62
     2
 10
1090.12
 20
302.74
 30
0.0
 11
1078.045927171
 21
305.975238064
 31
0.0
  0
LINE
  8
0
  6
CONTINUOUS
 62
     2
 10
1090.12
 20
302.74
 30
0.0
 11
1078.045927171
 21
299.504761936
 31
0.0
  0
LINE
  8
0
  6
CONTINUOUS
 62
     2
 10
1090.12
 20
339.6025
 30
0.0
 11
1090.12
 21
295.24
 31
0.0
  0
LINE
  8
0
  6
CONTINUOUS
 62
     2
 10
1090.12
 20
571.115
 30
0.0
 11
1090.12
 21
339.6025
 31
0.0
  0
LINE
  8
0
  6
CONTINUOUS
 62
     1
 10
1040.12
 20
572.24
 30
0.0
 11
1107.12
 21
572.24
 31
0.0
  0
ARC
  8
0
  6
CONTINUOUS
 62
     1
 10
1107.12
 20
580.24
 30
0.0
 40
8.0
 50
270.0
 51
0.0
  0
LINE
  8
0
  6
CONTINUOUS
 62
     1
 10
1115.12
 20
580.24
 30
0.0
 11
1115.12
 21
614.24
 31
0.0
  0
ARC
  8
0
  6
CONTINUOUS
 62
     1
 10
1107.12
 20
614.24
 30
0.0
 40
8.0
 50
0.0
 51
90.0
  0
LINE
  8
2
  6
CONTINUOUS
 62
     2
 10
1040.12
 20
387.14
 30
0.0
 11
1028.045927171
 21
390.375238064
 31
0.0
  0
LINE
  8
2
  6
CONTINUOUS
 62
     2
 10
1040.12
 20
387.14
 30
0.0
 11
1028.045927171
 21
383.904761936
 31
0.0
  0
LINE
  8
2
  6
CONTINUOUS
 62
     2
 10
1040.12
 20
387.14
 30
0.0
 11
1052.194072829
 21
383.904761936
 31
0.0
  0
LINE
  8
2
  6
CONTINUOUS
 62
     2
 10
1040.12
 20
387.14
 30
0.0
 11
1052.194072829
 21
390.375238064
 31
0.0
  0
LINE
  8
2
  6
CONTINUOUS
 62
     2
 10
1040.12
 20
387.14
 30
0.0
 11
1090.12
 21
387.14
 31
0.0
  0
LINE
  8
2
  6
CONTINUOUS
 62
     2
 10
1090.12
 20
387.14
 30
0.0
 11
1078.045927171
 21
390.375238064
 31
0.0
  0
LINE
  8
2
  6
CONTINUOUS
 62
     2
 10
1090.12
 20
387.14
 30
0.0
 11
1078.045927171
 21
383.904761936
 31
0.0
  0
LINE
  8
2
  6
CONTINUOUS
 62
     2
 10
1090.12
 20
352.1025
 30
0.0
 11
1090.12
 21
397.14
 31
0.0
  0
LINE
  8
2
  6
CONTINUOUS
 62
     2
 10
995.12
 20
387.14
 30
0.0
 11
1007.194072829
 21
390.375238064
 31
0.0
  0
LINE
  8
2
  6
CONTINUOUS
 62
     2
 10
995.12
 20
387.14
 30
0.0
 11
983.045927171
 21
390.375238064
 31
0.0
  0
LINE
  8
2
  6
CONTINUOUS
 62
     2
 10
995.12
 20
387.14
 30
0.0
 11
1007.194072829
 21
383.904761936
 31
0.0
  0
LINE
  8
2
  6
CONTINUOUS
 62
     2
 10
995.12
 20
387.14
 30
0.0
 11
983.045927171
 21
383.904761936
 31
0.0
  0
LINE
  8
2
  6
CONTINUOUS
 62
     2
 10
995.12
 20
549.74
 30
0.0
 11
995.12
 21
377.14
 31
0.0
  0
LINE
  8
2
  6
CONTINUOUS
 62
     2
 10
995.12
 20
387.14
 30
0.0
 11
1040.12
 21
387.14
 31
0.0
  0
LINE
  8
0
  6
CONTINUOUS
 62
     1
 10
785.12
 20
577.24
 30
0.0
 11
785.12
 21
617.24
 31
0.0
  0
LINE
  8
0
  6
CONTINUOUS
 62
     2
 10
771.22
 20
608.04
 30
0.0
 11
778.708041206
 21
618.048957933
 31
0.0
  0
LINE
  8
0
  6
CONTINUOUS
 62
     2
 10
771.22
 20
608.04
 30
0.0
 11
772.700354942
 21
620.452032438
 31
0.0
  0
ARC
  8
0
  6
CONTINUOUS
 62
     1
 10
1324.12
 20
525.74
 30
0.0
 40
6.0
 50
180.0
 51
270.0
  0
ARC
  8
0
  6
CONTINUOUS
 62
     1
 10
1466.12
 20
525.74
 30
0.0
 40
6.0
 50
270.0
 51
0.0
  0
LINE
  8
0
  6
CONTINUOUS
 62
     1
 10
1475.12
 20
576.24
 30
0.0
 11
1475.12
 21
618.24
 31
0.0
  0
LINE
  8
0
  6
CONTINUOUS
 62
     1
 10
1344.12
 20
488.24
 30
0.0
 11
1344.12
 21
534.74
 31
0.0
  0
ARC
  8
0
  6
CONTINUOUS
 62
     1
 10
1345.12
 20
488.24
 30
0.0
 40
1.0
 50
180.0
 51
270.0
  0
ARC
  8
0
  6
CONTINUOUS
 62
     1
 10
1348.12
 20
487.24
 30
0.0
 40
1.0
 50
180.0
 51
270.0
  0
ARC
  8
0
  6
CONTINUOUS
 62
     1
 10
1443.12
 20
534.74
 30
0.0
 40
3.0
 50
0.0
 51
90.0
  0
LINE
  8
0
  6
CONTINUOUS
 62
     1
 10
1446.12
 20
488.24
 30
0.0
 11
1446.12
 21
534.74
 31
0.0
  0
ARC
  8
0
  6
CONTINUOUS
 62
     1
 10
1445.12
 20
488.24
 30
0.0
 40
1.0
 50
270.0
 51
0.0
  0
ARC
  8
0
  6
CONTINUOUS
 62
     1
 10
1442.12
 20
487.24
 30
0.0
 40
1.0
 50
270.0
 51
0.0
  0
LINE
  8
0
  6
CONTINUOUS
 62
     1
 10
1446.12
 20
493.24
 30
0.0
 11
1344.12
 21
493.24
 31
0.0
  0
LINE
  8
0
  6
CONTINUOUS
 62
     1
 10
1446.12
 20
494.74
 30
0.0
 11
1344.12
 21
494.74
 31
0.0
  0
LINE
  8
0
  6
CONTINUOUS
 62
     1
 10
1442.12
 20
486.24
 30
0.0
 11
1348.12
 21
486.24
 31
0.0
  0
LINE
  8
0
  6
CONTINUOUS
 62
     1
 10
1445.12
 20
487.24
 30
0.0
 11
1345.12
 21
487.24
 31
0.0
  0
ARC
  8
0
  6
CONTINUOUS
 62
     1
 10
1341.12
 20
651.24
 30
0.0
 40
5.0
 50
90.0
 51
180.0
  0
ARC
  8
0
  6
CONTINUOUS
 62
     1
 10
1449.12
 20
651.24
 30
0.0
 40
5.0
 50
0.0
 51
90.0
  0
ARC
  8
0
  6
CONTINUOUS
 62
     1
 10
1449.12
 20
543.24
 30
0.0
 40
5.0
 50
270.0
 51
360.0
  0
ARC
  8
0
  6
CONTINUOUS
 62
     1
 10
1341.12
 20
543.24
 30
0.0
 40
5.0
 50
180.0
 51
270.0
  0
LINE
  8
0
  6
CONTINUOUS
 62
     1
 10
1454.12
 20
620.765046491
 30
0.0
 11
1454.12
 21
651.24
 31
0.0
  0
LINE
  8
0
  6
CONTINUOUS
 62
     1
 10
1454.12
 20
573.714953509
 30
0.0
 11
1454.12
 21
543.24
 31
0.0
  0
LINE
  8
0
  6
CONTINUOUS
 62
     1
 10
1440.12
 20
538.24
 30
0.0
 11
1449.12
 21
538.24
 31
0.0
  0
LINE
  8
0
  6
CONTINUOUS
 62
     1
 10
1350.12
 20
538.24
 30
0.0
 11
1341.12
 21
538.24
 31
0.0
  0
ARC
  8
0
  6
CONTINUOUS
 62
     1
 10
1348.12
 20
550.24
 30
0.0
 40
9.0
 50
77.327684064
 51
282.116861929
  0
ARC
  8
0
  6
CONTINUOUS
 62
     1
 10
1442.12
 20
550.24
 30
0.0
 40
9.0
 50
257.883138071
 51
102.672315936
  0
LINE
  8
0
  6
CONTINUOUS
 62
     1
 10
1422.62
 20
622.24
 30
0.0
 11
1407.62
 21
622.24
 31
0.0
  0
LINE
  8
0
  6
CONTINUOUS
 62
     1
 10
1427.12
 20
575.24
 30
0.0
 11
1427.12
 21
619.24
 31
0.0
  0
LINE
  8
0
  6
CONTINUOUS
 62
     1
 10
1433.12
 20
584.74
 30
0.0
 11
1433.12
 21
609.74
 31
0.0
  0
LINE
  8
0
  6
CONTINUOUS
 62
     1
 10
1433.12
 20
609.74
 30
0.0
 11
1427.12
 21
609.74
 31
0.0
  0
LINE
  8
0
  6
CONTINUOUS
 62
     1
 10
1433.12
 20
584.74
 30
0.0
 11
1427.12
 21
584.74
 31
0.0
  0
LINE
  8
0
  6
CONTINUOUS
 62
     1
 10
1427.12
 20
619.24
 30
0.0
 11
1422.62
 21
619.24
 31
0.0
  0
LINE
  8
0
  6
CONTINUOUS
 62
     1
 10
1427.12
 20
575.24
 30
0.0
 11
1422.62
 21
575.24
 31
0.0
  0
CIRCLE
  8
0
  6
CONTINUOUS
 62
     1
 10
1429.12
 20
597.24
 30
0.0
 40
2.0
  0
LINE
  8
0
  6
CONTINUOUS
 62
     1
 10
1363.12
 20
575.24
 30
0.0
 11
1363.12
 21
619.24
 31
0.0
  0
LINE
  8
0
  6
CONTINUOUS
 62
     1
 10
1357.12
 20
584.74
 30
0.0
 11
1357.12
 21
609.74
 31
0.0
  0
LINE
  8
0
  6
CONTINUOUS
 62
     1
 10
1357.12
 20
609.74
 30
0.0
 11
1363.12
 21
609.74
 31
0.0
  0
LINE
  8
0
  6
CONTINUOUS
 62
     1
 10
1357.12
 20
584.74
 30
0.0
 11
1363.12
 21
584.74
 31
0.0
  0
LINE
  8
0
  6
CONTINUOUS
 62
     1
 10
1363.12
 20
619.24
 30
0.0
 11
1367.62
 21
619.24
 31
0.0
  0
LINE
  8
0
  6
CONTINUOUS
 62
     1
 10
1363.12
 20
575.24
 30
0.0
 11
1367.62
 21
575.24
 31
0.0
  0
CIRCLE
  8
0
  6
CONTINUOUS
 62
     1
 10
1361.12
 20
597.24
 30
0.0
 40
2.0
  0
LINE
  8
0
  6
CONTINUOUS
 62
     1
 10
1407.62
 20
584.74
 30
0.0
 11
1382.62
 21
584.74
 31
0.0
  0
LINE
  8
0
  6
CONTINUOUS
 62
     1
 10
1407.62
 20
609.74
 30
0.0
 11
1382.62
 21
609.74
 31
0.0
  0
LINE
  8
0
  6
CONTINUOUS
 62
     1
 10
1382.62
 20
584.74
 30
0.0
 11
1407.62
 21
584.74
 31
0.0
  0
LINE
  8
0
  6
CONTINUOUS
 62
     1
 10
1382.62
 20
609.74
 30
0.0
 11
1407.62
 21
609.74
 31
0.0
  0
LINE
  8
0
  6
CONTINUOUS
 62
     1
 10
1367.62
 20
622.24
 30
0.0
 11
1407.62
 21
622.24
 31
0.0
  0
LINE
  8
0
  6
CONTINUOUS
 62
     1
 10
1422.62
 20
572.24
 30
0.0
 11
1422.62
 21
622.24
 31
0.0
  0
LINE
  8
0
  6
CONTINUOUS
 62
     1
 10
1367.62
 20
572.24
 30
0.0
 11
1422.62
 21
572.24
 31
0.0
  0
LINE
  8
0
  6
CONTINUOUS
 62
     1
 10
1407.62
 20
572.24
 30
0.0
 11
1407.62
 21
622.24
 31
0.0
  0
LINE
  8
0
  6
CONTINUOUS
 62
     1
 10
1382.62
 20
572.24
 30
0.0
 11
1382.62
 21
622.24
 31
0.0
  0
LINE
  8
0
  6
CONTINUOUS
 62
     1
 10
1367.62
 20
572.24
 30
0.0
 11
1367.62
 21
622.24
 31
0.0
  0
LINE
  8
0
  6
CONTINUOUS
 62
     1
 10
1446.12
 20
519.74
 30
0.0
 11
1466.12
 21
519.74
 31
0.0
  0
LINE
  8
0
  6
CONTINUOUS
 62
     1
 10
1324.12
 20
519.74
 30
0.0
 11
1344.12
 21
519.74
 31
0.0
  0
LINE
  8
0
  6
CONTINUOUS
 62
     1
 10
1472.12
 20
525.74
 30
0.0
 11
1472.12
 21
575.879279073
 31
0.0
  0
LINE
  8
0
  6
CONTINUOUS
 62
     1
 10
1318.12
 20
525.74
 30
0.0
 11
1318.12
 21
575.879279073
 31
0.0
  0
LINE
  8
0
  6
LTYPE1
 62
     2
 10
1340.12
 20
587.24
 30
0.0
 11
1340.12
 21
607.24
 31
0.0
  0
LINE
  8
0
  6
LTYPE1
 62
     2
 10
1340.12
 20
607.24
 30
0.0
 11
1315.12
 21
607.24
 31
0.0
  0
LINE
  8
0
  6
LTYPE1
 62
     2
 10
1340.12
 20
587.24
 30
0.0
 11
1315.12
 21
587.24
 31
0.0
  0
LINE
  8
0
  6
LTYPE1
 62
     2
 10
1450.12
 20
587.24
 30
0.0
 11
1450.12
 21
607.24
 31
0.0
  0
LINE
  8
0
  6
LTYPE1
 62
     2
 10
1450.12
 20
607.24
 30
0.0
 11
1475.12
 21
607.24
 31
0.0
  0
LINE
  8
0
  6
LTYPE1
 62
     2
 10
1450.12
 20
587.24
 30
0.0
 11
1475.12
 21
587.24
 31
0.0
  0
LINE
  8
0
  6
LTYPE2
 62
     2
 10
1440.12
 20
482.54
 30
0.0
 11
1440.12
 21
501.24
 31
0.0
  0
LINE
  8
0
  6
LTYPE2
 62
     2
 10
1350.12
 20
482.54
 30
0.0
 11
1350.12
 21
501.24
 31
0.0
  0
LINE
  8
0
  6
LTYPE2
 62
     2
 10
1360.52
 20
644.24
 30
0.0
 11
1336.72
 21
644.24
 31
0.0
  0
LINE
  8
0
  6
LTYPE2
 62
     2
 10
1348.12
 20
632.905527109
 30
0.0
 11
1348.12
 21
655.005527109
 31
0.0
  0
LINE
  8
0
  6
LTYPE2
 62
     2
 10
1429.72
 20
644.24
 30
0.0
 11
1453.52
 21
644.24
 31
0.0
  0
LINE
  8
0
  6
LTYPE2
 62
     2
 10
1442.12
 20
632.905527109
 30
0.0
 11
1442.12
 21
655.005527109
 31
0.0
  0
LINE
  8
0
  6
LTYPE2
 62
     2
 10
1429.72
 20
550.24
 30
0.0
 11
1453.52
 21
550.24
 31
0.0
  0
LINE
  8
0
  6
LTYPE2
 62
     2
 10
1360.52
 20
550.24
 30
0.0
 11
1336.72
 21
550.24
 31
0.0
  0
LINE
  8
0
  6
LTYPE2
 62
     2
 10
1348.12
 20
540.39
 30
0.0
 11
1348.12
 21
563.49
 31
0.0
  0
LINE
  8
0
  6
LTYPE2
 62
     2
 10
1429.72
 20
550.24
 30
0.0
 11
1453.52
 21
550.24
 31
0.0
  0
LINE
  8
0
  6
LTYPE2
 62
     2
 10
1442.12
 20
540.39
 30
0.0
 11
1442.12
 21
563.49
 31
0.0
  0
LINE
  8
0
  6
LTYPE4
 62
     2
 10
1429.02
 20
593.24
 30
0.0
 11
1429.02
 21
601.44
 31
0.0
  0
LINE
  8
0
  6
LTYPE1
 62
     2
 10
1427.12
 20
609.74
 30
0.0
 11
1407.62
 21
609.74
 31
0.0
  0
LINE
  8
0
  6
LTYPE1
 62
     2
 10
1427.12
 20
584.74
 30
0.0
 11
1407.62
 21
584.74
 31
0.0
  0
LINE
  8
0
  6
LTYPE4
 62
     2
 10
1361.22
 20
593.24
 30
0.0
 11
1361.22
 21
601.44
 31
0.0
  0
LINE
  8
0
  6
LTYPE1
 62
     2
 10
1363.12
 20
609.74
 30
0.0
 11
1382.62
 21
609.74
 31
0.0
  0
LINE
  8
0
  6
LTYPE1
 62
     2
 10
1363.12
 20
584.74
 30
0.0
 11
1382.62
 21
584.74
 31
0.0
  0
LINE
  8
0
  6
LTYPE2
 62
     3
 10
1395.12
 20
495.7275
 30
0.0
 11
1395.12
 21
540.89
 31
0.0
  0
LINE
  8
0
  6
CONTINUOUS
 62
     2
 10
1318.12
 20
518.24
 30
0.0
 11
1318.12
 21
430.54
 31
0.0
  0
LINE
  8
0
  6
CONTINUOUS
 62
     2
 10
1318.12
 20
438.04
 30
0.0
 11
1330.194072829
 21
434.804761936
 31
0.0
  0
LINE
  8
0
  6
CONTINUOUS
 62
     2
 10
1318.12
 20
438.04
 30
0.0
 11
1330.194072829
 21
441.275238064
 31
0.0
  0
LINE
  8
0
  6
CONTINUOUS
 62
     2
 10
1318.12
 20
438.04
 30
0.0
 11
1472.12
 21
438.04
 31
0.0
  0
LINE
  8
0
  6
CONTINUOUS
 62
     2
 10
1472.12
 20
438.04
 30
0.0
 11
1460.045927171
 21
441.275238064
 31
0.0
  0
LINE
  8
0
  6
CONTINUOUS
 62
     2
 10
1472.12
 20
438.04
 30
0.0
 11
1460.045927171
 21
434.804761936
 31
0.0
  0
LINE
  8
0
  6
CONTINUOUS
 62
     2
 10
1472.12
 20
518.24
 30
0.0
 11
1472.12
 21
430.54
 31
0.0
  0
LINE
  8
0
  6
CONTINUOUS
 62
     2
 10
1315.12
 20
568.74
 30
0.0
 11
1315.12
 21
390.0775
 31
0.0
  0
LINE
  8
0
  6
CONTINUOUS
 62
     2
 10
1315.12
 20
397.5775
 30
0.0
 11
1327.194072829
 21
394.342261936
 31
0.0
  0
LINE
  8
0
  6
CONTINUOUS
 62
     2
 10
1315.12
 20
397.5775
 30
0.0
 11
1327.194072829
 21
400.812738064
 31
0.0
  0
LINE
  8
0
  6
CONTINUOUS
 62
     2
 10
1315.12
 20
397.5775
 30
0.0
 11
1475.12
 21
397.5775
 31
0.0
  0
LINE
  8
0
  6
CONTINUOUS
 62
     2
 10
1475.12
 20
397.5775
 30
0.0
 11
1463.045927171
 21
400.812738064
 31
0.0
  0
LINE
  8
0
  6
CONTINUOUS
 62
     2
 10
1475.12
 20
397.5775
 30
0.0
 11
1463.045927171
 21
394.342261936
 31
0.0
  0
LINE
  8
0
  6
CONTINUOUS
 62
     2
 10
1475.12
 20
568.74
 30
0.0
 11
1475.12
 21
390.0775
 31
0.0
  0
LINE
  8
0
  6
LTYPE3
 62
     2
 10
1415.02
 20
511.74
 30
0.0
 11
1374.32
 21
511.74
 31
0.0
  0
LINE
  8
0
  6
CONTINUOUS
 62
     1
 10
1336.12
 20
644.34
 30
0.0
 11
1336.12
 21
651.24
 31
0.0
  0
ARC
  8
0
  6
CONTINUOUS
 62
     1
 10
1348.12
 20
644.24
 30
0.0
 40
9.0
 50
0.0
 51
4.497151615
  0
LINE
  8
0
  6
CONTINUOUS
 62
     1
 10
1336.12
 20
620.765046491
 30
0.0
 11
1336.12
 21
644.34
 31
0.0
  0
LINE
  8
0
  6
CONTINUOUS
 62
     1
 10
1315.12
 20
576.24
 30
0.0
 11
1315.12
 21
618.24
 31
0.0
  0
LINE
  8
0
  6
CONTINUOUS
 62
     1
 10
1336.12
 20
573.54
 30
0.0
 11
1336.12
 21
543.24
 31
0.0
  0
LINE
  8
0
  6
CONTINUOUS
 62
     1
 10
1370.809508438
 20
656.24
 30
0.0
 11
1341.12
 21
656.24
 31
0.0
  0
LINE
  8
0
  6
CONTINUOUS
 62
     1
 10
1419.430491562
 20
656.24
 30
0.0
 11
1449.12
 21
656.24
 31
0.0
  0
LINE
  8
0
  6
CONTINUOUS
 62
     2
 10
1504.12
 20
597.24
 30
0.0
 11
1566.492218677
 21
597.24
 31
0.0
  0
ARC
  8
0
  6
CONTINUOUS
 62
     1
 10
1348.12
 20
644.24
 30
0.0
 40
9.0
 50
179.370401392
 51
255.963756532
  0
ARC
  8
0
  6
CONTINUOUS
 62
     1
 10
1348.12
 20
644.24
 30
0.0
 40
9.0
 50
12.528807709
 51
179.370401392
  0
ARC
  8
0
  6
CONTINUOUS
 62
     1
 10
1442.12
 20
644.24
 30
0.0
 40
9.0
 50
281.309932473
 51
167.471192291
  0
LINE
  8
0
  6
CONTINUOUS
 62
     2
 10
1558.992218677
 20
597.24
 30
0.0
 11
1562.22745674
 21
609.314072829
 31
0.0
  0
LINE
  8
0
  6
CONTINUOUS
 62
     2
 10
1558.992218677
 20
597.24
 30
0.0
 11
1555.756980613
 21
609.314072829
 31
0.0
  0
TEXT
  8
0
  6
CONTINUOUS
 62
     2
 10
414.87
 20
352.1025
 30
0.0
 40
18.0
  1
６０
 50
0.0
 41
0.9
 51
0.0
  7
KANJI39
  0
TEXT
  8
0
  6
CONTINUOUS
 62
     2
 10
737.87
 20
352.1025
 30
0.0
 40
18.0
  1
ｍｉｎ．Ｌ
 50
0.0
 41
0.9
 51
0.0
  7
KANJI39
  0
TEXT
  8
0
  6
CONTINUOUS
 62
     2
 10
657.37
 20
307.74
 30
0.0
 40
18.0
  1
ｍｉｎ．ＡＬ
 50
0.0
 41
0.9
 51
0.0
  7
KANJI39
  0
TEXT
  8
0
  6
CONTINUOUS
 62
     2
 10
715.37
 20
395.44
 30
0.0
 40
18.0
  1
Ｃ
 50
0.0
 41
0.9
 51
0.0
  7
KANJI39
  0
TEXT
  8
0
  6
CONTINUOUS
 62
     2
 10
572.92
 20
410.44
 30
0.0
 40
18.0
  1
推力リミッタ
 50
0.0
 41
0.9
 51
0.0
  7
KANJI39
  0
TEXT
  8
0
  6
CONTINUOUS
 62
     2
 10
1165.72
 20
582.49
 30
0.0
 40
18.0
  1
５０
 50
90.0
 41
0.9
 51
0.0
  7
KANJI39
  0
TEXT
  8
0
  6
CONTINUOUS
 62
     2
 10
1134.12
 20
673.34
 30
0.0
 40
18.0
  1
φ２５Ｈ１０
 50
0.0
 41
0.9
 51
0.0
  7
KANJI39
  0
TEXT
  8
0
  6
CONTINUOUS
 62
     2
 10
1178.62
 20
648.84
 30
0.0
 40
18.0
  1
ｄ９
 50
0.0
 41
0.9
 51
0.0
  7
KANJI39
  0
TEXT
  8
2
  6
CONTINUOUS
 62
     2
 10
1048.37
 20
392.14
 30
0.0
 40
18.0
  1
５０
 50
0.0
 41
0.9
 51
0.0
  7
KANJI39
  0
TEXT
  8
0
  6
CONTINUOUS
 62
     2
 10
957.245927171
 20
364.125238064
 30
0.0
 40
18.0
  1
ｍｉｎ．Ｐ
 50
0.0
 41
0.9
 51
0.0
  7
KANJI39
  0
TEXT
  8
0
  6
CONTINUOUS
 62
     2
 10
1373.37
 20
443.04
 30
0.0
 40
18.0
  1
１５４
 50
0.0
 41
0.9
 51
0.0
  7
KANJI39
  0
TEXT
  8
0
  6
CONTINUOUS
 62
     2
 10
1373.37
 20
402.5775
 30
0.0
 40
18.0
  1
１６０
 50
0.0
 41
0.9
 51
0.0
  7
KANJI39
  0
LINE
  8
0
  6
CONTINUOUS
 62
     1
 10
1518.37
 20
1685.9
 30
0.0
 11
1518.37
 21
1565.78
 31
0.0
  0
LINE
  8
0
  6
CONTINUOUS
 62
     2
 10
1449.07
 20
1685.9
 30
0.0
 11
1449.07
 21
1565.78
 31
0.0
  0
LINE
  8
0
  6
CONTINUOUS
 62
     2
 10
1379.77
 20
1685.9
 30
0.0
 11
1379.77
 21
1565.78
 31
0.0
  0
LINE
  8
0
  6
CONTINUOUS
 62
     1
 10
1287.37
 20
1685.9
 30
0.0
 11
1287.37
 21
1565.78
 31
0.0
  0
LINE
  8
0
  6
CONTINUOUS
 62
     1
 10
1287.37
 20
1685.9
 30
0.0
 11
1518.37
 21
1685.9
 31
0.0
  0
LINE
  8
0
  6
CONTINUOUS
 62
     1
 10
1287.37
 20
1648.94
 30
0.0
 11
1518.37
 21
1648.94
 31
0.0
  0
LINE
  8
0
  6
CONTINUOUS
 62
     2
 10
1287.37
 20
1621.22
 30
0.0
 11
1518.37
 21
1621.22
 31
0.0
  0
LINE
  8
0
  6
CONTINUOUS
 62
     2
 10
1287.37
 20
1593.5
 30
0.0
 11
1518.37
 21
1593.5
 31
0.0
  0
LINE
  8
0
  6
CONTINUOUS
 62
     1
 10
1287.37
 20
1565.78
 30
0.0
 11
1518.37
 21
1565.78
 31
0.0
  0
TEXT
  8
0
  6
CONTINUOUS
 62
     2
 10
1458.31
 20
1669.73
 30
1.386
 40
13.86
  1
起動電流
 50
0.0
 41
0.9
 51
0.0
  7
KANJI40
  0
TEXT
  8
0
  6
CONTINUOUS
 62
     2
 10
1458.31
 20
1653.56
 30
1.386
 40
13.86
  1
　　　Ａ
 50
0.0
 41
0.9
 51
0.0
  7
KANJI40
  0
TEXT
  8
0
  6
CONTINUOUS
 62
     2
 10
1389.01
 20
1669.73
 30
1.386
 40
13.86
  1
定格電流
 50
0.0
 41
0.9
 51
0.0
  7
KANJI40
  0
TEXT
  8
0
  6
CONTINUOUS
 62
     2
 10
1389.01
 20
1653.56
 30
1.386
 40
13.86
  1
　　　Ａ
 50
0.0
 41
0.9
 51
0.0
  7
KANJI40
  0
TEXT
  8
0
  6
CONTINUOUS
 62
     2
 10
1295.224
 20
1600.43
 30
1.386
 40
13.86
  1
２００／６０
 50
0.0
 41
0.9
 51
0.0
  7
KANJI40
  0
TEXT
  8
0
  6
CONTINUOUS
 62
     2
 10
1295.224
 20
1669.73
 30
1.386
 40
13.86
  1
電圧／周波数
 50
0.0
 41
0.9
 51
0.0
  7
KANJI40
  0
TEXT
  8
0
  6
CONTINUOUS
 62
     2
 10
1295.224
 20
1653.56
 30
1.386
 40
13.86
  1
　Ｖ／Ｈｚ
 50
0.0
 41
0.9
 51
0.0
  7
KANJI40
  0
TEXT
  8
0
  6
CONTINUOUS
 62
     2
 10
1295.224
 20
1628.15
 30
1.386
 40
13.86
  1
２００／５０
 50
0.0
 41
0.9
 51
0.0
  7
KANJI40
  0
TEXT
  8
0
  6
CONTINUOUS
 62
     2
 10
1295.224
 20
1572.71
 30
1.386
 40
13.86
  1
２２０／６０
 50
0.0
 41
0.9
 51
0.0
  7
KANJI40
  0
LINE
  8
0
  6
CONTINUOUS
 62
     1
 10
1241.17
 20
1685.9
 30
0.0
 11
1241.17
 21
1565.78
 31
0.0
  0
LINE
  8
0
  6
CONTINUOUS
 62
     2
 10
1171.87
 20
1685.9
 30
0.0
 11
1171.87
 21
1565.78
 31
0.0
  0
LINE
  8
0
  6
CONTINUOUS
 62
     2
 10
1102.57
 20
1685.9
 30
0.0
 11
1102.57
 21
1565.78
 31
0.0
  0
LINE
  8
0
  6
CONTINUOUS
 62
     1
 10
1010.17
 20
1685.9
 30
0.0
 11
1010.17
 21
1565.78
 31
0.0
  0
LINE
  8
0
  6
CONTINUOUS
 62
     1
 10
1010.17
 20
1685.9
 30
0.0
 11
1241.17
 21
1685.9
 31
0.0
  0
LINE
  8
0
  6
CONTINUOUS
 62
     1
 10
1010.17
 20
1648.94
 30
0.0
 11
1241.17
 21
1648.94
 31
0.0
  0
LINE
  8
0
  6
CONTINUOUS
 62
     2
 10
1010.17
 20
1621.22
 30
0.0
 11
1241.17
 21
1621.22
 31
0.0
  0
LINE
  8
0
  6
CONTINUOUS
 62
     2
 10
1010.17
 20
1593.5
 30
0.0
 11
1241.17
 21
1593.5
 31
0.0
  0
LINE
  8
0
  6
CONTINUOUS
 62
     1
 10
1010.17
 20
1565.78
 30
0.0
 11
1241.17
 21
1565.78
 31
0.0
  0
TEXT
  8
0
  6
CONTINUOUS
 62
     2
 10
1181.11
 20
1669.73
 30
1.386
 40
13.86
  1
起動電流
 50
0.0
 41
0.9
 51
0.0
  7
KANJI40
  0
TEXT
  8
0
  6
CONTINUOUS
 62
     2
 10
1181.11
 20
1653.56
 30
1.386
 40
13.86
  1
　　　Ａ
 50
0.0
 41
0.9
 51
0.0
  7
KANJI40
  0
TEXT
  8
0
  6
CONTINUOUS
 62
     2
 10
1111.81
 20
1669.73
 30
1.386
 40
13.86
  1
定格電流
 50
0.0
 41
0.9
 51
0.0
  7
KANJI40
  0
TEXT
  8
0
  6
CONTINUOUS
 62
     2
 10
1111.81
 20
1653.56
 30
1.386
 40
13.86
  1
　　　Ａ
 50
0.0
 41
0.9
 51
0.0
  7
KANJI40
  0
TEXT
  8
0
  6
CONTINUOUS
 62
     2
 10
1018.024
 20
1669.73
 30
1.386
 40
13.86
  1
電圧／周波数
 50
0.0
 41
0.9
 51
0.0
  7
KANJI40
  0
TEXT
  8
0
  6
CONTINUOUS
 62
     2
 10
1018.024
 20
1653.56
 30
1.386
 40
13.86
  1
　Ｖ／Ｈｚ
 50
0.0
 41
0.9
 51
0.0
  7
KANJI40
  0
TEXT
  8
0
  6
CONTINUOUS
 62
     2
 10
1018.024
 20
1628.15
 30
1.386
 40
13.86
  1
４００／５０
 50
0.0
 41
0.9
 51
0.0
  7
KANJI40
  0
TEXT
  8
0
  6
CONTINUOUS
 62
     2
 10
1018.024
 20
1600.43
 30
1.386
 40
13.86
  1
４００／６０
 50
0.0
 41
0.9
 51
0.0
  7
KANJI40
  0
TEXT
  8
0
  6
CONTINUOUS
 62
     2
 10
1018.024
 20
1572.71
 30
1.386
 40
13.86
  1
４４０／６０
 50
0.0
 41
0.9
 51
0.0
  7
KANJI40
  0
TEXT
  8
0
  6
CONTINUOUS
 62
     2
 10
1114.267493476
 20
1626.15
 30
1.386
 40
13.86
  1
　３．２
 50
0.0
 41
0.9
 51
0.0
  7
KANJI40
  0
TEXT
  8
0
  6
CONTINUOUS
 62
     2
 10
1114.267493476
 20
1598.43
 30
1.386
 40
13.86
  1
　２．８
 50
0.0
 41
0.9
 51
0.0
  7
KANJI40
  0
TEXT
  8
0
  6
CONTINUOUS
 62
     2
 10
1114.267493476
 20
1570.71
 30
1.386
 40
13.86
  1
　２．７
 50
0.0
 41
0.9
 51
0.0
  7
KANJI40
  0
TEXT
  8
0
  6
CONTINUOUS
 62
     2
 10
1391.467493476
 20
1570.71
 30
1.386
 40
13.86
  1
　５．３
 50
0.0
 41
0.9
 51
0.0
  7
KANJI40
  0
TEXT
  8
0
  6
CONTINUOUS
 62
     2
 10
1391.467493476
 20
1598.43
 30
1.386
 40
13.86
  1
　５．２
 50
0.0
 41
0.9
 51
0.0
  7
KANJI40
  0
TEXT
  8
0
  6
CONTINUOUS
 62
     2
 10
1391.467493476
 20
1626.15
 30
1.386
 40
13.86
  1
　６．１
 50
0.0
 41
0.9
 51
0.0
  7
KANJI40
  0
TEXT
  8
0
  6
CONTINUOUS
 62
     2
 10
1460.767493476
 20
1626.15
 30
1.386
 40
13.86
  1
２５．１
 50
0.0
 41
0.9
 51
0.0
  7
KANJI40
  0
TEXT
  8
0
  6
CONTINUOUS
 62
     2
 10
1460.767493476
 20
1598.43
 30
1.386
 40
13.86
  1
２２．５
 50
0.0
 41
0.9
 51
0.0
  7
KANJI40
  0
TEXT
  8
0
  6
CONTINUOUS
 62
     2
 10
1460.767493476
 20
1570.71
 30
1.386
 40
13.86
  1
２４．８
 50
0.0
 41
0.9
 51
0.0
  7
KANJI40
  0
TEXT
  8
0
  6
CONTINUOUS
 62
     2
 10
1183.567493476
 20
1626.15
 30
1.386
 40
13.86
  1
１２．５
 50
0.0
 41
0.9
 51
0.0
  7
KANJI40
  0
TEXT
  8
0
  6
CONTINUOUS
 62
     2
 10
1183.567493476
 20
1598.43
 30
1.386
 40
13.86
  1
１１．３
 50
0.0
 41
0.9
 51
0.0
  7
KANJI40
  0
TEXT
  8
0
  6
CONTINUOUS
 62
     2
 10
1183.567493476
 20
1570.71
 30
1.386
 40
13.86
  1
１２．４
 50
0.0
 41
0.9
 51
0.0
  7
KANJI40
  0
LINE
  8
0
  6
CONTINUOUS
 62
     1
 10
1040.12
 20
622.24
 30
0.0
 11
1107.12
 21
622.24
 31
0.0
  0
LINE
  8
0
  6
CONTINUOUS
 62
     1
 10
1040.12
 20
584.24
 30
0.0
 11
1040.12
 21
622.24
 31
0.0
  0
LINE
  8
0
  6
CONTINUOUS
 62
     1
 10
918.303009455
 20
597.24
 30
0.0
 11
918.303009455
 21
630.24
 31
0.0
  0
LINE
  8
0
  6
CONTINUOUS
 62
     1
 10
939.965218677
 20
652.24
 30
0.0
 11
939.965218677
 21
597.24
 31
0.0
  0
LINE
  8
0
  6
CONTINUOUS
 62
     1
 10
945.519111365
 20
597.24
 30
0.0
 11
945.519111365
 21
637.24
 31
0.0
  0
LINE
  8
0
  6
CONTINUOUS
 62
     1
 10
951.073004728
 20
652.24
 30
0.0
 11
951.073004728
 21
597.24
 31
0.0
  0
LINE
  8
0
  6
CONTINUOUS
 62
     1
 10
956.62689659
 20
637.24
 30
0.0
 11
956.62689659
 21
597.24
 31
0.0
  0
LINE
  8
0
  6
CONTINUOUS
 62
     1
 10
1025.12
 20
630.24
 30
0.0
 11
1019.423716605
 21
651.498819045
 31
0.0
  0
LINE
  8
0
  6
CONTINUOUS
 62
     1
 10
1037.62
 20
632.24
 30
0.0
 11
1027.62
 21
632.24
 31
0.0
  0
LINE
  8
0
  6
CONTINUOUS
 62
     1
 10
1040.12
 20
630.24
 30
0.0
 11
1025.12
 21
630.24
 31
0.0
  0
LINE
  8
0
  6
CONTINUOUS
 62
     1
 10
1037.62
 20
630.24
 30
0.0
 11
1037.62
 21
632.24
 31
0.0
  0
LINE
  8
0
  6
CONTINUOUS
 62
     1
 10
1027.62
 20
630.24
 30
0.0
 11
1027.62
 21
632.24
 31
0.0
  0
LINE
  8
0
  6
CONTINUOUS
 62
     1
 10
1025.12
 20
597.24
 30
0.0
 11
1025.12
 21
630.24
 31
0.0
  0
LINE
  8
0
  6
CONTINUOUS
 62
     1
 10
1001.796112865
 20
637.24
 30
0.0
 11
1001.796112865
 21
597.24
 31
0.0
  0
LINE
  8
0
  6
CONTINUOUS
 62
     1
 10
1007.350004728
 20
652.24
 30
0.0
 11
1007.350004728
 21
597.24
 31
0.0
  0
LINE
  8
0
  6
CONTINUOUS
 62
     1
 10
1018.457790779
 20
652.24
 30
0.0
 11
1018.457790779
 21
597.24
 31
0.0
  0
LINE
  8
0
  6
CONTINUOUS
 62
     1
 10
1012.90389809
 20
597.24
 30
0.0
 11
1012.90389809
 21
637.24
 31
0.0
  0
LINE
  8
0
  6
CONTINUOUS
 62
     1
 10
920.803009455
 20
634.24
 30
0.0
 11
930.803009455
 21
634.24
 31
0.0
  0
LINE
  8
0
  6
CONTINUOUS
 62
     1
 10
920.803009455
 20
632.24
 30
0.0
 11
920.803009455
 21
634.24
 31
0.0
  0
LINE
  8
0
  6
CONTINUOUS
 62
     1
 10
930.803009455
 20
632.24
 30
0.0
 11
930.803009455
 21
634.24
 31
0.0
  0
LINE
  8
0
  6
CONTINUOUS
 62
     1
 10
933.83890784
 20
632.24
 30
0.0
 11
918.302501379
 21
632.24
 31
0.0
  0
LINE
  8
0
  6
CONTINUOUS
 62
     1
 10
933.83890784
 20
632.24
 30
0.0
 11
938.99929285
 21
651.498819045
 31
0.0
  0
LINE
  8
0
  6
CONTINUOUS
 62
     1
 10
933.83890784
 20
632.24
 30
0.0
 11
933.83890784
 21
597.24
 31
0.0
  0
LINE
  8
0
  6
CONTINUOUS
 62
     1
 10
918.303472275
 20
597.24
 30
0.0
 11
918.303472275
 21
632.24
 31
0.0
  0
LINE
  8
0
  6
CONTINUOUS
 62
     1
 10
918.303472275
 20
632.24
 30
0.0
 11
933.303009455
 21
632.24
 31
0.0
  0
LINE
  8
0
  6
CONTINUOUS
 62
     1
 10
918.303009455
 20
632.24
 30
0.0
 11
590.12
 21
632.24
 31
0.0
  0
LINE
  8
0
  6
CONTINUOUS
 62
     1
 10
1040.12
 20
564.24
 30
0.0
 11
1040.12
 21
630.24
 31
0.0
  0
ARC
  8
0
  6
CONTINUOUS
 62
     1
 10
939.965218677
 20
651.24
 30
0.0
 40
1.0
 50
90.0
 51
165.0
  0
ARC
  8
0
  6
CONTINUOUS
 62
     1
 10
939.965219502
 20
651.24
 30
0.0
 40
1.0
 50
15.0
 51
90.0
  0
LINE
  8
0
  6
CONTINUOUS
 62
     1
 10
944.553185539
 20
637.981180955
 30
0.0
 11
940.931145329
 21
651.498819045
 31
0.0
  0
ARC
  8
0
  6
CONTINUOUS
 62
     1
 10
945.519111365
 20
638.24
 30
0.0
 40
1.0
 50
195.0
 51
270.0
  0
ARC
  8
0
  6
CONTINUOUS
 62
     1
 10
945.519112039
 20
638.24
 30
0.0
 40
1.0
 50
270.0
 51
345.0
  0
LINE
  8
0
  6
CONTINUOUS
 62
     1
 10
946.485037865
 20
637.981180955
 30
0.0
 11
950.107078075
 21
651.498819045
 31
0.0
  0
ARC
  8
0
  6
CONTINUOUS
 62
     1
 10
951.073003902
 20
651.24
 30
0.0
 40
1.0
 50
90.0
 51
165.0
  0
LINE
  8
0
  6
CONTINUOUS
 62
     1
 10
955.660970764
 20
637.981180955
 30
0.0
 11
952.038930554
 21
651.498819045
 31
0.0
  0
ARC
  8
0
  6
CONTINUOUS
 62
     1
 10
956.62689659
 20
638.24
 30
0.0
 40
1.0
 50
195.0
 51
270.0
  0
ARC
  8
0
  6
CONTINUOUS
 62
     1
 10
951.073005553
 20
651.24
 30
0.0
 40
1.0
 50
15.0
 51
90.0
  0
LINE
  8
0
  6
LTYPE5
 62
     2
 10
1001.796112865
 20
637.24
 30
0.0
 11
970.850004728
 21
637.24
 31
0.0
  0
LINE
  8
0
  6
LTYPE5
 62
     2
 10
1007.350005553
 20
652.24
 30
0.0
 11
970.850004728
 21
652.24
 31
0.0
  0
ARC
  8
0
  6
CONTINUOUS
 62
     1
 10
1018.457790779
 20
651.24
 30
0.0
 40
1.0
 50
15.0
 51
90.0
  0
ARC
  8
0
  6
CONTINUOUS
 62
     1
 10
1018.457789953
 20
651.24
 30
0.0
 40
1.0
 50
90.0
 51
165.0
  0
LINE
  8
0
  6
CONTINUOUS
 62
     1
 10
1013.869823916
 20
637.981180955
 30
0.0
 11
1017.491864126
 21
651.498819045
 31
0.0
  0
ARC
  8
0
  6
CONTINUOUS
 62
     1
 10
1012.90389809
 20
638.24
 30
0.0
 40
1.0
 50
270.0
 51
345.0
  0
ARC
  8
0
  6
CONTINUOUS
 62
     1
 10
1012.903897416
 20
638.24
 30
0.0
 40
1.0
 50
195.0
 51
270.0
  0
LINE
  8
0
  6
CONTINUOUS
 62
     1
 10
1011.93797159
 20
637.981180955
 30
0.0
 11
1008.31593138
 21
651.498819045
 31
0.0
  0
ARC
  8
0
  6
CONTINUOUS
 62
     1
 10
1007.350005553
 20
651.24
 30
0.0
 40
1.0
 50
15.0
 51
90.0
  0
ARC
  8
0
  6
CONTINUOUS
 62
     1
 10
1007.350003902
 20
651.24
 30
0.0
 40
1.0
 50
90.0
 51
165.0
  0
ARC
  8
0
  6
CONTINUOUS
 62
     1
 10
1001.796112865
 20
638.24
 30
0.0
 40
1.0
 50
270.0
 51
345.0
  0
LINE
  8
0
  6
CONTINUOUS
 62
     1
 10
1002.762038691
 20
637.981180955
 30
0.0
 11
1006.384078901
 21
651.498819045
 31
0.0
  0
LINE
  8
0
  6
LTYPE5
 62
     2
 10
956.62689659
 20
637.24
 30
0.0
 11
970.850004728
 21
637.24
 31
0.0
  0
LINE
  8
0
  6
LTYPE5
 62
     2
 10
951.073004728
 20
652.24
 30
0.0
 11
970.850004728
 21
652.24
 31
0.0
  0
LINE
  8
0
  6
CONTINUOUS
 62
     1
 10
950.12
 20
562.24
 30
0.0
 11
950.12
 21
597.24
 31
0.0
  0
LINE
  8
0
  6
CONTINUOUS
 62
     1
 10
985.12
 20
562.24
 30
0.0
 11
902.302501379
 21
562.24
 31
0.0
  0
ARC
  8
0
  6
CONTINUOUS
 62
     1
 10
939.965726752
 20
543.24
 30
0.0
 40
1.0
 50
195.0
 51
270.0
  0
ARC
  8
0
  6
CONTINUOUS
 62
     1
 10
939.965727578
 20
543.24
 30
0.0
 40
1.0
 50
270.0
 51
345.0
  0
LINE
  8
0
  6
CONTINUOUS
 62
     1
 10
944.553693614
 20
556.498819045
 30
0.0
 11
940.931653404
 21
542.981180955
 31
0.0
  0
ARC
  8
0
  6
CONTINUOUS
 62
     1
 10
945.519619441
 20
556.24
 30
0.0
 40
1.0
 50
90.0
 51
165.0
  0
ARC
  8
0
  6
CONTINUOUS
 62
     1
 10
945.519620115
 20
556.24
 30
0.0
 40
1.0
 50
15.0
 51
90.0
  0
LINE
  8
0
  6
CONTINUOUS
 62
     1
 10
946.485545941
 20
556.498819045
 30
0.0
 11
950.107586151
 21
542.981180955
 31
0.0
  0
ARC
  8
0
  6
CONTINUOUS
 62
     1
 10
951.073511977
 20
543.24
 30
0.0
 40
1.0
 50
195.0
 51
270.0
  0
LINE
  8
0
  6
CONTINUOUS
 62
     1
 10
955.661478839
 20
556.498819045
 30
0.0
 11
952.03943863
 21
542.981180955
 31
0.0
  0
ARC
  8
0
  6
CONTINUOUS
 62
     1
 10
956.627404666
 20
556.24
 30
0.0
 40
1.0
 50
90.0
 51
165.0
  0
ARC
  8
0
  6
CONTINUOUS
 62
     1
 10
951.073513629
 20
543.24
 30
0.0
 40
1.0
 50
270.0
 51
345.0
  0
LINE
  8
0
  6
CONTINUOUS
 62
     1
 10
920.803517531
 20
559.24
 30
0.0
 11
930.803517531
 21
559.24
 31
0.0
  0
LINE
  8
0
  6
CONTINUOUS
 62
     1
 10
920.803517531
 20
561.24
 30
0.0
 11
920.803517531
 21
559.24
 31
0.0
  0
LINE
  8
0
  6
CONTINUOUS
 62
     1
 10
930.803517531
 20
561.24
 30
0.0
 11
930.803517531
 21
559.24
 31
0.0
  0
LINE
  8
0
  6
CONTINUOUS
 62
     1
 10
934.107365108
 20
561.24
 30
0.0
 11
938.999800926
 21
542.981180955
 31
0.0
  0
LINE
  8
0
  6
CONTINUOUS
 62
     1
 10
918.303009455
 20
561.24
 30
0.0
 11
934.107365108
 21
561.24
 31
0.0
  0
LINE
  8
0
  6
CONTINUOUS
 62
     1
 10
918.303009455
 20
597.24
 30
0.0
 11
918.303009455
 21
561.24
 31
0.0
  0
LINE
  8
0
  6
LTYPE5
 62
     2
 10
1002.296112865
 20
557.24
 30
0.0
 11
957.796112865
 21
557.24
 31
0.0
  0
LINE
  8
0
  6
LTYPE5
 62
     2
 10
1007.350005553
 20
542.24
 30
0.0
 11
953.796112865
 21
542.24
 31
0.0
  0
LINE
  8
0
  6
CONTINUOUS
 62
     1
 10
918.303009455
 20
562.24
 30
0.0
 11
590.12
 21
562.24
 31
0.0
  0
LINE
  8
0
  6
CONTINUOUS
 62
     1
 10
1025.12
 20
564.24
 30
0.0
 11
1019.423716605
 21
542.981180955
 31
0.0
  0
LINE
  8
0
  6
CONTINUOUS
 62
     1
 10
1037.62
 20
564.24
 30
0.0
 11
1037.62
 21
562.24
 31
0.0
  0
LINE
  8
0
  6
CONTINUOUS
 62
     1
 10
1027.62
 20
564.24
 30
0.0
 11
1027.62
 21
562.24
 31
0.0
  0
LINE
  8
0
  6
CONTINUOUS
 62
     1
 10
1025.102501379
 20
564.34
 30
0.0
 11
1025.102501379
 21
572.14
 31
0.0
  0
LINE
  8
0
  6
CONTINUOUS
 62
     1
 10
1040.12
 20
564.24
 30
0.0
 11
1025.12
 21
564.24
 31
0.0
  0
ARC
  8
0
  6
CONTINUOUS
 62
     1
 10
1018.457790779
 20
543.24
 30
0.0
 40
1.0
 50
270.0
 51
345.0
  0
ARC
  8
0
  6
CONTINUOUS
 62
     1
 10
1018.457789953
 20
543.24
 30
0.0
 40
1.0
 50
195.0
 51
270.0
  0
LINE
  8
0
  6
CONTINUOUS
 62
     1
 10
1013.869823916
 20
556.498819045
 30
0.0
 11
1017.491864126
 21
542.981180955
 31
0.0
  0
ARC
  8
0
  6
CONTINUOUS
 62
     1
 10
1012.90389809
 20
556.24
 30
0.0
 40
1.0
 50
15.0
 51
90.0
  0
ARC
  8
0
  6
CONTINUOUS
 62
     1
 10
1012.903897416
 20
556.24
 30
0.0
 40
1.0
 50
90.0
 51
165.0
  0
LINE
  8
0
  6
CONTINUOUS
 62
     1
 10
1011.93797159
 20
556.498819045
 30
0.0
 11
1008.31593138
 21
542.981180955
 31
0.0
  0
ARC
  8
0
  6
CONTINUOUS
 62
     1
 10
1007.350005553
 20
543.24
 30
0.0
 40
1.0
 50
270.0
 51
345.0
  0
ARC
  8
0
  6
CONTINUOUS
 62
     1
 10
1007.350003902
 20
543.24
 30
0.0
 40
1.0
 50
195.0
 51
270.0
  0
LINE
  8
0
  6
CONTINUOUS
 62
     1
 10
1002.762038691
 20
556.498819045
 30
0.0
 11
1006.384078901
 21
542.981180955
 31
0.0
  0
ARC
  8
0
  6
CONTINUOUS
 62
     1
 10
1002.296112865
 20
556.24
 30
0.0
 40
1.0
 50
15.0
 51
90.0
  0
LINE
  8
0
  6
CONTINUOUS
 62
     1
 10
1040.12
 20
572.24
 30
0.0
 11
985.12
 21
572.24
 31
0.0
  0
LINE
  8
0
  6
CONTINUOUS
 62
     1
 10
985.12
 20
562.24
 30
0.0
 11
985.12
 21
597.24
 31
0.0
  0
LINE
  8
0
  6
CONTINUOUS
 62
     1
 10
1037.62
 20
562.24
 30
0.0
 11
1027.62
 21
562.24
 31
0.0
  0
LINE
  8
2
  6
CONTINUOUS
 62
     2
 10
684.12
 20
632.24
 30
0.0
 11
682.12
 21
632.24
 31
0.0
  0
LINE
  8
2
  6
CONTINUOUS
 62
     2
 10
688.12
 20
632.24
 30
0.0
 11
684.237714323
 21
617.751112606
 31
0.0
  0
LINE
  8
2
  6
CONTINUOUS
 62
     2
 10
688.12
 20
632.24
 30
0.0
 11
692.002285677
 21
617.751112606
 31
0.0
  0
LINE
  8
2
  6
CONTINUOUS
 62
     2
 10
688.12
 20
632.24
 30
0.0
 11
688.12
 21
562.24
 31
0.0
  0
LINE
  8
2
  6
CONTINUOUS
 62
     2
 10
688.12
 20
562.24
 30
0.0
 11
692.002285677
 21
576.728887394
 31
0.0
  0
LINE
  8
2
  6
CONTINUOUS
 62
     2
 10
688.12
 20
562.24
 30
0.0
 11
684.237714323
 21
576.728887394
 31
0.0
  0
LINE
  8
2
  6
CONTINUOUS
 62
     2
 10
683.62
 20
562.24
 30
0.0
 11
682.12
 21
562.24
 31
0.0
  0
TEXT
  8
2
  6
CONTINUOUS
 62
     3
 10
682.12
 20
572.94
 30
0.0
 40
18.0
  1
φ７０
 50
90.0
 41
0.9
 51
0.0
  7
KANJI39
  0
CIRCLE
  8
0
  6
CONTINUOUS
 62
     1
 10
1395.12
 20
597.24
 30
0.0
 40
55.0
  0
LINE
  8
0
  6
CONTINUOUS
 62
     1
 10
1475.12
 20
618.24
 30
0.0
 11
1443.0
 21
622.102118728
 31
0.0
  0
LINE
  8
0
  6
CONTINUOUS
 62
     1
 10
1475.12
 20
576.24
 30
0.0
 11
1443.0
 21
572.377881272
 31
0.0
  0
LINE
  8
0
  6
CONTINUOUS
 62
     1
 10
1440.12
 20
537.74
 30
0.0
 11
1440.12
 21
566.5
 31
0.0
  0
LINE
  8
0
  6
CONTINUOUS
 62
     1
 10
1350.12
 20
537.74
 30
0.0
 11
1350.12
 21
565.0
 31
0.0
  0
LINE
  8
0
  6
CONTINUOUS
 62
     1
 10
1315.12
 20
576.24
 30
0.0
 11
1346.5
 21
572.466859101
 31
0.0
  0
LINE
  8
0
  6
CONTINUOUS
 62
     1
 10
1315.12
 20
618.24
 30
0.0
 11
1347.0
 21
622.073261054
 31
0.0
  0
LINE
  8
0
  6
CONTINUOUS
 62
     1
 10
1347.120015259
 20
537.74
 30
0.0
 11
1443.12
 21
537.74
 31
0.0
  0
ARC
  8
0
  6
CONTINUOUS
 62
     1
 10
1347.12
 20
534.74
 30
0.0
 40
3.0
 50
89.999708579
 51
180.0
  0
LINE
  8
0
  6
CONTINUOUS
 62
     1
 10
1350.12
 20
539.24
 30
0.0
 11
1440.12
 21
539.24
 31
0.0
  0
TEXT
  8
0
  6
CONTINUOUS
 62
     2
 10
171.4
 20
37.4
 30
0.0
 40
18.0
  1
ＦＤ　Ｎｏ．ＭＣ１９２
 50
0.0
 41
0.9
 51
0.0
  7
KANJI41
  0
TEXT
  8
0
  6
CONTINUOUS
 62
     2
 10
2159.92
 20
1339.7
 30
0.0
 40
18.0
  1
３９．２Ｎ．ｍ（４ｋｇ．ｍ）
 50
0.0
 41
0.833333333
 51
0.0
  7
KANJI42
  0
TEXT
  8
0
  6
CONTINUOUS
 62
     2
 10
2188.72
 20
1465.7
 30
1.8
 40
18.0
  1
９．８ＫＮ（１ｔｏｎ）
 50
0.0
 41
0.9
 51
0.0
  7
KANJI28
  0
TEXT
  8
0
  6
CONTINUOUS
 62
     2
 10
2147.92
 20
1381.7
 30
1.8
 40
18.0
  1
　４３／５１．５
 50
0.0
 41
0.9
 51
0.0
  7
KANJI28
  0
LINE
  8
0
  6
CONTINUOUS
 62
     1
 10
253.12
 20
474.24
 30
0.0
 11
253.12
 21
726.24
 31
0.0
  0
LINE
  8
0
  6
CONTINUOUS
 62
     1
 10
253.12
 20
652.24
 30
0.0
 11
253.12
 21
641.29046
 31
0.0
  0
LINE
  8
0
  6
CONTINUOUS
 62
     1
 10
253.12
 20
652.24
 30
0.0
 11
253.12
 21
663.18954
 31
0.0
  0
LINE
  8
0
  6
CONTINUOUS
 62
     1
 10
253.62
 20
719.19
 30
0.0
 11
148.338048035
 21
708.849808289
 31
0.0
  0
ARC
  8
0
  6
CONTINUOUS
 62
     1
 10
149.12
 20
700.888115559
 30
0.0
 40
8.0
 50
95.609274446
 51
180.0
  0
LINE
  8
0
  6
CONTINUOUS
 62
     1
 10
141.12
 20
499.591884441
 30
0.0
 11
141.12
 21
700.888115559
 31
0.0
  0
LINE
  8
0
  6
CONTINUOUS
 62
     1
 10
253.62
 20
694.19
 30
0.0
 11
148.338048035
 21
683.849808289
 31
0.0
  0
ARC
  8
0
  6
CONTINUOUS
 62
     1
 10
149.12
 20
675.888115559
 30
0.0
 40
8.0
 50
95.609274446
 51
180.0
  0
LINE
  8
0
  6
CONTINUOUS
 62
     1
 10
253.62
 20
506.29
 30
0.0
 11
148.338048035
 21
516.630191711
 31
0.0
  0
ARC
  8
0
  6
CONTINUOUS
 62
     1
 10
149.12
 20
524.591884441
 30
0.0
 40
8.0
 50
180.0
 51
264.390725554
  0
LINE
  8
0
  6
CONTINUOUS
 62
     1
 10
245.0989
 20
716.50802
 30
0.0
 11
246.647076294
 21
719.18954
 31
0.0
  0
LINE
  8
0
  6
CONTINUOUS
 62
     1
 10
245.0989
 20
708.24
 30
0.0
 11
245.0989
 21
716.50802
 31
0.0
  0
LINE
  8
0
  6
CONTINUOUS
 62
     1
 10
245.0989
 20
699.97198
 30
0.0
 11
246.647076294
 21
697.29046
 31
0.0
  0
LINE
  8
0
  6
CONTINUOUS
 62
     1
 10
245.0989
 20
708.24
 30
0.0
 11
245.0989
 21
699.97198
 31
0.0
  0
ARC
  8
0
  6
CONTINUOUS
 62
     1
 10
255.553121693
 20
708.24
 30
0.0
 40
10.454221693
 50
148.419912243
 51
211.580087757
  0
ARC
  8
0
  6
CONTINUOUS
 62
     1
 10
248.292013606
 20
716.452155
 30
0.0
 40
3.193602261
 50
177.010501597
 51
238.997686085
  0
LINE
  8
0
  6
CONTINUOUS
 62
     1
 10
245.0989
 20
699.97198
 30
0.0
 11
246.647076294
 21
697.29046
 31
0.0
  0
ARC
  8
0
  6
CONTINUOUS
 62
     1
 10
248.292013606
 20
700.027845
 30
0.0
 40
3.193602261
 50
121.002313915
 51
182.989498403
  0
LINE
  8
0
  6
CONTINUOUS
 62
     1
 10
253.12
 20
719.18954
 30
0.0
 11
246.647076294
 21
719.18954
 31
0.0
  0
LINE
  8
0
  6
CONTINUOUS
 62
     1
 10
253.12
 20
713.71477
 30
0.0
 11
246.647076294
 21
713.71477
 31
0.0
  0
LINE
  8
0
  6
CONTINUOUS
 62
     1
 10
253.12
 20
702.76523
 30
0.0
 11
246.647076294
 21
702.76523
 31
0.0
  0
LINE
  8
0
  6
CONTINUOUS
 62
     1
 10
253.12
 20
697.29046
 30
0.0
 11
246.647076294
 21
697.29046
 31
0.0
  0
LINE
  8
0
  6
LTYPE2
 62
     2
 10
239.52
 20
708.24
 30
0.0
 11
288.22
 21
708.24
 31
0.0
  0
LINE
  8
0
  6
CONTINUOUS
 62
     1
 10
328.12
 20
726.24
 30
0.0
 11
253.12
 21
726.24
 31
0.0
  0
LINE
  8
0
  6
LTYPE3
 62
     2
 10
319.12
 20
527.24
 30
0.0
 11
269.62
 21
527.24
 31
0.0
  0
TEXT
  8
0
  6
CONTINUOUS
 62
     2
 10
163.92
 20
582.04
 30
1.5
 40
15.0
  1
ポジショナ
 50
0.0
 41
0.9
 51
0.0
  7
KANJI43
  0
LINE
  8
0
  6
CONTINUOUS
 62
     1
 10
253.62
 20
481.29
 30
0.0
 11
148.338048035
 21
491.630191711
 31
0.0
  0
LINE
  8
0
  6
CONTINUOUS
 62
     1
 10
245.0989
 20
483.97198
 30
0.0
 11
246.647076294
 21
481.29046
 31
0.0
  0
LINE
  8
0
  6
CONTINUOUS
 62
     1
 10
245.0989
 20
492.24
 30
0.0
 11
245.0989
 21
483.97198
 31
0.0
  0
LINE
  8
0
  6
CONTINUOUS
 62
     1
 10
245.0989
 20
500.50802
 30
0.0
 11
246.647076294
 21
503.18954
 31
0.0
  0
LINE
  8
0
  6
CONTINUOUS
 62
     1
 10
245.0989
 20
492.24
 30
0.0
 11
245.0989
 21
500.50802
 31
0.0
  0
ARC
  8
0
  6
CONTINUOUS
 62
     1
 10
255.553121693
 20
492.24
 30
0.0
 40
10.454221693
 50
148.419912243
 51
211.580087757
  0
ARC
  8
0
  6
CONTINUOUS
 62
     1
 10
248.292013606
 20
484.027845
 30
0.0
 40
3.193602261
 50
121.002313915
 51
182.989498403
  0
LINE
  8
0
  6
CONTINUOUS
 62
     1
 10
245.0989
 20
500.50802
 30
0.0
 11
246.647076294
 21
503.18954
 31
0.0
  0
ARC
  8
0
  6
CONTINUOUS
 62
     1
 10
248.292013606
 20
500.452155
 30
0.0
 40
3.193602261
 50
177.010501597
 51
238.997686085
  0
LINE
  8
0
  6
CONTINUOUS
 62
     1
 10
253.12
 20
481.29046
 30
0.0
 11
246.647076294
 21
481.29046
 31
0.0
  0
LINE
  8
0
  6
CONTINUOUS
 62
     1
 10
253.12
 20
486.76523
 30
0.0
 11
246.647076294
 21
486.76523
 31
0.0
  0
LINE
  8
0
  6
CONTINUOUS
 62
     1
 10
253.12
 20
497.71477
 30
0.0
 11
246.647076294
 21
497.71477
 31
0.0
  0
LINE
  8
0
  6
CONTINUOUS
 62
     1
 10
253.12
 20
503.18954
 30
0.0
 11
246.647076294
 21
503.18954
 31
0.0
  0
LINE
  8
0
  6
LTYPE2
 62
     2
 10
239.52
 20
492.24
 30
0.0
 11
288.22
 21
492.24
 31
0.0
  0
ARC
  8
0
  6
CONTINUOUS
 62
     1
 10
149.12
 20
499.591884441
 30
0.0
 40
8.0
 50
180.0
 51
264.390725554
  0
LINE
  8
0
  6
CONTINUOUS
 62
     2
 10
287.22
 20
512.34
 30
0.0
 11
259.22
 21
436.34
 31
0.0
  0
CIRCLE
  8
0
  6
LTYPE3
 62
     2
 10
293.12
 20
527.24
 30
0.0
 40
16.6
  0
LINE
  8
0
  6
LTYPE3
 62
     2
 10
293.12
 20
499.74
 30
0.0
 11
293.12
 21
552.24
 31
0.0
  0
CIRCLE
  8
0
  6
CONTINUOUS
 62
     1
 10
293.12
 20
527.24
 30
0.0
 40
15.15
  0
LINE
  8
0
  6
CONTINUOUS
 62
     2
 10
287.22
 20
512.34
 30
0.0
 11
280.010164952
 21
502.128816005
 31
0.0
  0
LINE
  8
0
  6
CONTINUOUS
 62
     2
 10
287.22
 20
512.34
 30
0.0
 11
286.081691689
 21
499.891937734
 31
0.0
  0
LINE
  8
0
  6
CONTINUOUS
 62
     1
 10
332.92
 20
485.79
 30
0.0
 11
332.92
 21
513.49
 31
0.0
  0
LINE
  8
0
  6
CONTINUOUS
 62
     1
 10
328.12
 20
492.74
 30
0.0
 11
332.92
 21
492.74
 31
0.0
  0
LINE
  8
0
  6
CONTINUOUS
 62
     1
 10
328.12
 20
506.54
 30
0.0
 11
332.92
 21
506.54
 31
0.0
  0
LINE
  8
0
  6
CONTINUOUS
 62
     1
 10
328.12
 20
513.49
 30
0.0
 11
332.92
 21
513.49
 31
0.0
  0
LINE
  8
0
  6
CONTINUOUS
 62
     1
 10
328.12
 20
485.79
 30
0.0
 11
332.92
 21
485.79
 31
0.0
  0
LINE
  8
0
  6
CONTINUOUS
 62
     1
 10
338.12
 20
484.99
 30
0.0
 11
338.12
 21
514.29
 31
0.0
  0
LINE
  8
0
  6
CONTINUOUS
 62
     1
 10
338.12
 20
484.99
 30
0.0
 11
351.12
 21
484.99
 31
0.0
  0
ARC
  8
0
  6
CONTINUOUS
 62
     1
 10
351.12
 20
486.99
 30
0.0
 40
2.0
 50
270.0
 51
0.0
  0
LINE
  8
0
  6
CONTINUOUS
 62
     1
 10
338.12
 20
514.29
 30
0.0
 11
351.12
 21
514.29
 31
0.0
  0
LINE
  8
0
  6
CONTINUOUS
 62
     1
 10
353.12
 20
486.99
 30
0.0
 11
353.12
 21
512.29
 31
0.0
  0
ARC
  8
0
  6
CONTINUOUS
 62
     1
 10
351.12
 20
512.29
 30
0.0
 40
2.0
 50
0.0
 51
90.0
  0
LINE
  8
0
  6
CONTINUOUS
 62
     1
 10
349.12
 20
512.29
 30
0.0
 11
338.12
 21
512.29
 31
0.0
  0
LINE
  8
0
  6
CONTINUOUS
 62
     1
 10
349.12
 20
503.39
 30
0.0
 11
338.12
 21
503.39
 31
0.0
  0
LINE
  8
0
  6
CONTINUOUS
 62
     1
 10
349.12
 20
507.49
 30
0.0
 11
338.12
 21
507.49
 31
0.0
  0
LINE
  8
0
  6
CONTINUOUS
 62
     1
 10
349.12
 20
507.49
 30
0.0
 11
349.12
 21
512.29
 31
0.0
  0
LINE
  8
0
  6
CONTINUOUS
 62
     1
 10
349.12
 20
499.64
 30
0.0
 11
349.12
 21
503.39
 31
0.0
  0
LINE
  8
0
  6
CONTINUOUS
 62
     1
 10
349.12
 20
486.99
 30
0.0
 11
338.12
 21
486.99
 31
0.0
  0
LINE
  8
0
  6
CONTINUOUS
 62
     1
 10
349.12
 20
495.89
 30
0.0
 11
338.12
 21
495.89
 31
0.0
  0
LINE
  8
0
  6
CONTINUOUS
 62
     1
 10
349.12
 20
491.79
 30
0.0
 11
338.12
 21
491.79
 31
0.0
  0
LINE
  8
0
  6
CONTINUOUS
 62
     1
 10
349.12
 20
491.79
 30
0.0
 11
349.12
 21
486.99
 31
0.0
  0
LINE
  8
0
  6
CONTINUOUS
 62
     1
 10
349.12
 20
499.64
 30
0.0
 11
349.12
 21
495.89
 31
0.0
  0
LINE
  8
0
  6
CONTINUOUS
 62
     1
 10
332.82
 20
512.34
 30
0.0
 11
338.12
 21
512.34
 31
0.0
  0
LINE
  8
0
  6
CONTINUOUS
 62
     1
 10
332.82
 20
511.54
 30
0.0
 11
338.12
 21
511.54
 31
0.0
  0
LINE
  8
0
  6
CONTINUOUS
 62
     1
 10
332.82
 20
486.94
 30
0.0
 11
338.12
 21
486.94
 31
0.0
  0
LINE
  8
0
  6
CONTINUOUS
 62
     1
 10
332.82
 20
487.74
 30
0.0
 11
338.12
 21
487.74
 31
0.0
  0
LINE
  8
0
  6
LTYPE3
 62
     2
 10
319.12
 20
499.64
 30
0.0
 11
372.353333333
 21
499.64
 31
0.0
  0
LINE
  8
0
  6
LTYPE3
 62
     2
 10
372.353333333
 20
499.64
 30
0.0
 11
406.636666667
 21
511.74
 31
0.0
  0
LINE
  8
0
  6
CONTINUOUS
 62
     1
 10
353.12
 20
495.14
 30
0.0
 11
371.325576956
 21
495.14
 31
0.0
  0
ARC
  8
0
  6
CONTINUOUS
 62
     1
 10
371.325576956
 20
505.64
 30
0.0
 40
10.5
 50
270.0
 51
289.440034828
  0
LINE
  8
0
  6
CONTINUOUS
 62
     1
 10
353.12
 20
504.14
 30
0.0
 11
370.554759673
 21
504.14
 31
0.0
  0
LINE
  8
0
  6
CONTINUOUS
 62
     1
 10
372.551680379
 20
504.482057998
 30
0.0
 11
404.169811808
 21
515.641398503
 31
0.0
  0
ARC
  8
0
  6
CONTINUOUS
 62
     1
 10
370.554759673
 20
510.14
 30
0.0
 40
6.0
 50
270.0
 51
289.440034828
  0
LINE
  8
0
  6
CONTINUOUS
 62
     1
 10
374.820188192
 20
495.738601497
 30
0.0
 11
406.438319621
 21
506.897942001
 31
0.0
  0
LINE
  8
0
  6
LTYPE3
 62
     2
 10
406.636666667
 20
511.74
 30
0.0
 11
471.62
 21
511.74
 31
0.0
  0
LINE
  8
0
  6
CONTINUOUS
 62
     1
 10
433.12
 20
516.24
 30
0.0
 11
407.664423044
 21
516.24
 31
0.0
  0
ARC
  8
0
  6
CONTINUOUS
 62
     1
 10
407.664423044
 20
505.74
 30
0.0
 40
10.5
 50
90.0
 51
109.440034828
  0
LINE
  8
0
  6
CONTINUOUS
 62
     1
 10
433.12
 20
507.24
 30
0.0
 11
408.435240327
 21
507.24
 31
0.0
  0
ARC
  8
0
  6
CONTINUOUS
 62
     1
 10
408.435240327
 20
501.24
 30
0.0
 40
6.0
 50
90.0
 51
109.440034828
  0
LINE
  8
0
  6
CONTINUOUS
 62
     1
 10
458.12
 20
494.74
 30
0.0
 11
587.12
 21
494.74
 31
0.0
  0
ARC
  8
0
  6
CONTINUOUS
 62
     1
 10
461.12
 20
533.74
 30
0.0
 40
3.0
 50
90.0
 51
180.0
  0
LINE
  8
0
  6
CONTINUOUS
 62
     1
 10
458.12
 20
493.24
 30
0.0
 11
587.12
 21
493.24
 31
0.0
  0
LINE
  8
0
  6
CONTINUOUS
 62
     1
 10
458.12
 20
488.24
 30
0.0
 11
458.12
 21
533.74
 31
0.0
  0
ARC
  8
0
  6
CONTINUOUS
 62
     1
 10
459.12
 20
488.24
 30
0.0
 40
1.0
 50
180.0
 51
270.0
  0
LINE
  8
0
  6
CONTINUOUS
 62
     1
 10
461.12
 20
487.24
 30
0.0
 11
461.12
 21
487.24
 31
0.0
  0
ARC
  8
0
  6
CONTINUOUS
 62
     1
 10
462.12
 20
487.24
 30
0.0
 40
1.0
 50
180.0
 51
270.0
  0
LINE
  8
0
  6
CONTINUOUS
 62
     1
 10
459.12
 20
487.24
 30
0.0
 11
586.12
 21
487.24
 31
0.0
  0
LINE
  8
0
  6
CONTINUOUS
 62
     1
 10
462.12
 20
486.24
 30
0.0
 11
583.02
 21
486.24
 31
0.0
  0
LINE
  8
0
  6
CONTINUOUS
 62
     1
 10
453.32
 20
525.59
 30
0.0
 11
453.32
 21
497.89
 31
0.0
  0
LINE
  8
0
  6
CONTINUOUS
 62
     1
 10
458.12
 20
518.64
 30
0.0
 11
453.32
 21
518.64
 31
0.0
  0
LINE
  8
0
  6
CONTINUOUS
 62
     1
 10
458.12
 20
504.84
 30
0.0
 11
453.32
 21
504.84
 31
0.0
  0
LINE
  8
0
  6
CONTINUOUS
 62
     1
 10
458.12
 20
497.89
 30
0.0
 11
453.32
 21
497.89
 31
0.0
  0
LINE
  8
0
  6
CONTINUOUS
 62
     1
 10
458.12
 20
525.59
 30
0.0
 11
458.12
 21
497.89
 31
0.0
  0
LINE
  8
0
  6
CONTINUOUS
 62
     1
 10
458.12
 20
525.59
 30
0.0
 11
453.32
 21
525.59
 31
0.0
  0
LINE
  8
0
  6
CONTINUOUS
 62
     1
 10
448.12
 20
526.39
 30
0.0
 11
448.12
 21
497.09
 31
0.0
  0
LINE
  8
0
  6
CONTINUOUS
 62
     1
 10
448.12
 20
526.39
 30
0.0
 11
435.12
 21
526.39
 31
0.0
  0
ARC
  8
0
  6
CONTINUOUS
 62
     1
 10
435.12
 20
524.39
 30
0.0
 40
2.0
 50
90.0
 51
180.0
  0
LINE
  8
0
  6
CONTINUOUS
 62
     1
 10
448.12
 20
497.09
 30
0.0
 11
435.12
 21
497.09
 31
0.0
  0
LINE
  8
0
  6
CONTINUOUS
 62
     1
 10
433.12
 20
524.39
 30
0.0
 11
433.12
 21
499.09
 31
0.0
  0
ARC
  8
0
  6
CONTINUOUS
 62
     1
 10
435.12
 20
499.09
 30
0.0
 40
2.0
 50
180.0
 51
270.0
  0
LINE
  8
0
  6
CONTINUOUS
 62
     1
 10
437.12
 20
499.09
 30
0.0
 11
448.12
 21
499.09
 31
0.0
  0
LINE
  8
0
  6
CONTINUOUS
 62
     1
 10
437.12
 20
507.99
 30
0.0
 11
448.12
 21
507.99
 31
0.0
  0
LINE
  8
0
  6
CONTINUOUS
 62
     1
 10
437.12
 20
503.89
 30
0.0
 11
448.12
 21
503.89
 31
0.0
  0
LINE
  8
0
  6
CONTINUOUS
 62
     1
 10
437.12
 20
503.89
 30
0.0
 11
437.12
 21
499.09
 31
0.0
  0
LINE
  8
0
  6
CONTINUOUS
 62
     1
 10
437.12
 20
511.74
 30
0.0
 11
437.12
 21
507.99
 31
0.0
  0
LINE
  8
0
  6
CONTINUOUS
 62
     1
 10
437.12
 20
524.39
 30
0.0
 11
448.12
 21
524.39
 31
0.0
  0
LINE
  8
0
  6
CONTINUOUS
 62
     1
 10
437.12
 20
515.49
 30
0.0
 11
448.12
 21
515.49
 31
0.0
  0
LINE
  8
0
  6
CONTINUOUS
 62
     1
 10
437.12
 20
519.59
 30
0.0
 11
448.12
 21
519.59
 31
0.0
  0
LINE
  8
0
  6
CONTINUOUS
 62
     1
 10
437.12
 20
519.59
 30
0.0
 11
437.12
 21
524.39
 31
0.0
  0
LINE
  8
0
  6
CONTINUOUS
 62
     1
 10
437.12
 20
511.74
 30
0.0
 11
437.12
 21
515.49
 31
0.0
  0
LINE
  8
0
  6
CONTINUOUS
 62
     1
 10
453.42
 20
499.04
 30
0.0
 11
448.12
 21
499.04
 31
0.0
  0
LINE
  8
0
  6
CONTINUOUS
 62
     1
 10
453.42
 20
499.84
 30
0.0
 11
448.12
 21
499.84
 31
0.0
  0
LINE
  8
0
  6
CONTINUOUS
 62
     1
 10
453.42
 20
524.44
 30
0.0
 11
448.12
 21
524.44
 31
0.0
  0
LINE
  8
0
  6
CONTINUOUS
 62
     1
 10
453.42
 20
523.64
 30
0.0
 11
448.12
 21
523.64
 31
0.0
  0
LINE
  8
0
  6
CONTINUOUS
 62
     1
 10
497.12
 20
537.74
 30
0.0
 11
497.12
 21
536.74
 31
0.0
  0
LINE
  8
0
  6
CONTINUOUS
 62
     1
 10
497.12
 20
536.74
 30
0.0
 11
461.12
 21
536.74
 31
0.0
  0
ARC
  8
0
  6
CONTINUOUS
 62
     1
 10
584.12
 20
534.74
 30
0.0
 40
3.0
 50
0.0
 51
90.0
  0
LINE
  8
0
  6
CONTINUOUS
 62
     1
 10
587.12
 20
488.24
 30
0.0
 11
587.12
 21
534.74
 31
0.0
  0
ARC
  8
0
  6
CONTINUOUS
 62
     1
 10
586.12
 20
488.24
 30
0.0
 40
1.0
 50
270.0
 51
0.0
  0
ARC
  8
0
  6
CONTINUOUS
 62
     1
 10
583.12
 20
487.24
 30
0.0
 40
1.0
 50
270.0
 51
0.0
  0
LINE
  8
0
  6
CONTINUOUS
 62
     1
 10
584.12
 20
537.74
 30
0.0
 11
497.12
 21
537.74
 31
0.0
  0
LINE
  8
0
  6
LTYPE1
 62
     2
 10
458.12
 20
521.04
 30
0.0
 11
468.12
 21
521.04
 31
0.0
  0
LINE
  8
0
  6
LTYPE1
 62
     2
 10
458.12
 20
522.24
 30
0.0
 11
468.12
 21
522.24
 31
0.0
  0
LINE
  8
0
  6
LTYPE1
 62
     2
 10
458.12
 20
502.44
 30
0.0
 11
468.12
 21
502.44
 31
0.0
  0
LINE
  8
0
  6
LTYPE1
 62
     2
 10
458.12
 20
501.24
 30
0.0
 11
468.12
 21
501.24
 31
0.0
  0
LINE
  8
0
  6
CONTINUOUS
 62
     1
 10
399.12
 20
519.74
 30
0.0
 11
328.12
 21
519.74
 31
0.0
  0
LINE
  8
0
  6
CONTINUOUS
 62
     1
 10
328.12
 20
474.24
 30
0.0
 11
253.12
 21
474.24
 31
0.0
  0
LINE
  8
2
  6
CONTINUOUS
 62
     2
 10
399.12
 20
365.1025
 30
0.0
 11
399.12
 21
341.1025
 31
0.0
  0
LINE
  8
2
  6
CONTINUOUS
 62
     2
 10
399.12
 20
347.1025
 30
0.0
 11
384.631112606
 21
350.984785677
 31
0.0
  0
LINE
  8
2
  6
CONTINUOUS
 62
     2
 10
399.12
 20
347.1025
 30
0.0
 11
384.631112606
 21
343.220214323
 31
0.0
  0
LINE
  8
2
  6
CONTINUOUS
 62
     2
 10
399.12
 20
347.1025
 30
0.0
 11
328.12
 21
347.1025
 31
0.0
  0
LINE
  8
2
  6
CONTINUOUS
 62
     2
 10
328.12
 20
347.1025
 30
0.0
 11
342.608887394
 21
343.220214323
 31
0.0
  0
LINE
  8
2
  6
CONTINUOUS
 62
     2
 10
328.12
 20
347.1025
 30
0.0
 11
342.608887394
 21
350.984785677
 31
0.0
  0
LINE
  8
2
  6
CONTINUOUS
 62
     2
 10
328.12
 20
468.24
 30
0.0
 11
328.12
 21
341.1025
 31
0.0
  0
TEXT
  8
2
  6
CONTINUOUS
 62
     3
 10
347.42
 20
353.1025
 30
0.0
 40
18.0
  1
７１
 50
0.0
 41
0.9
 51
0.0
  7
KANJI39
  0
LINE
  8
2
  6
CONTINUOUS
 62
     2
 10
328.12
 20
352.1025
 30
0.0
 11
328.12
 21
341.1025
 31
0.0
  0
LINE
  8
2
  6
CONTINUOUS
 62
     2
 10
328.12
 20
347.1025
 30
0.0
 11
313.631112606
 21
350.984785677
 31
0.0
  0
LINE
  8
2
  6
CONTINUOUS
 62
     2
 10
328.12
 20
347.1025
 30
0.0
 11
313.631112606
 21
343.220214323
 31
0.0
  0
LINE
  8
2
  6
CONTINUOUS
 62
     2
 10
328.12
 20
347.1025
 30
0.0
 11
141.12
 21
347.1025
 31
0.0
  0
LINE
  8
2
  6
CONTINUOUS
 62
     2
 10
141.12
 20
347.1025
 30
0.0
 11
155.608887394
 21
343.220214323
 31
0.0
  0
LINE
  8
2
  6
CONTINUOUS
 62
     2
 10
141.12
 20
347.1025
 30
0.0
 11
155.608887394
 21
350.984785677
 31
0.0
  0
TEXT
  8
2
  6
CONTINUOUS
 62
     3
 10
210.32
 20
353.1025
 30
0.0
 40
18.0
  1
１８７
 50
0.0
 41
0.9
 51
0.0
  7
KANJI39
  0
LINE
  8
2
  6
CONTINUOUS
 62
     2
 10
141.12
 20
493.591889835
 30
0.0
 11
141.12
 21
295.091889835
 31
0.0
  0
LINE
  8
0
  6
CONTINUOUS
 62
     2
 10
141.12
 20
302.24
 30
0.0
 11
153.194072829
 21
305.475238064
 31
0.0
  0
LINE
  8
0
  6
CONTINUOUS
 62
     2
 10
141.12
 20
302.24
 30
0.0
 11
153.194072829
 21
299.004761936
 31
0.0
  0
LINE
  8
0
  6
CONTINUOUS
 62
     2
 10
141.12
 20
302.74
 30
0.0
 11
1090.12
 21
302.74
 31
0.0
  0
LINE
  8
0
  6
CONTINUOUS
 62
     1
 10
497.12
 20
539.24
 30
0.0
 11
587.12
 21
539.24
 31
0.0
  0
LINE
  8
0
  6
CONTINUOUS
 62
     2
 10
1307.62
 20
607.24
 30
0.0
 11
1254.842218677
 21
607.24
 31
0.0
  0
LINE
  8
0
  6
CONTINUOUS
 62
     2
 10
1262.342218677
 20
607.24
 30
0.0
 11
1265.57745674
 21
619.314072829
 31
0.0
  0
LINE
  8
0
  6
CONTINUOUS
 62
     2
 10
1262.342218677
 20
607.24
 30
0.0
 11
1259.106980613
 21
619.314072829
 31
0.0
  0
LINE
  8
0
  6
CONTINUOUS
 62
     2
 10
1262.342218677
 20
587.24
 30
0.0
 11
1259.106980613
 21
575.165927171
 31
0.0
  0
LINE
  8
0
  6
CONTINUOUS
 62
     2
 10
1262.342218677
 20
587.24
 30
0.0
 11
1265.57745674
 21
575.165927171
 31
0.0
  0
LINE
  8
0
  6
CONTINUOUS
 62
     2
 10
1307.62
 20
587.24
 30
0.0
 11
1254.842218677
 21
587.24
 31
0.0
  0
TEXT
  8
0
  6
CONTINUOUS
 62
     2
 10
1257.342218677
 20
625.99
 30
1.5
 40
15.0
  1
φ２０Ｈ１０深さ２５
 50
90.0
 41
0.9
 51
0.0
  7
KANJI44
  0
ARC
  8
0
  6
CONTINUOUS
 62
     1
 10
1295.12
 20
716.24
 30
0.0
 40
10.0
 50
90.0
 51
180.0
  0
LINE
  8
0
  6
CONTINUOUS
 62
     1
 10
1285.12
 20
484.24
 30
0.0
 11
1285.12
 21
716.24
 31
0.0
  0
ARC
  8
0
  6
CONTINUOUS
 62
     1
 10
1295.12
 20
484.24
 30
0.0
 40
10.0
 50
180.0
 51
270.0
  0
LINE
  8
0
  6
CONTINUOUS
 62
     1
 10
1295.12
 20
474.24
 30
0.0
 11
1495.12
 21
474.24
 31
0.0
  0
ARC
  8
0
  6
CONTINUOUS
 62
     1
 10
1495.12
 20
484.24
 30
0.0
 40
10.0
 50
270.0
 51
0.0
  0
LINE
  8
0
  6
CONTINUOUS
 62
     1
 10
1505.12
 20
484.24
 30
0.0
 11
1505.12
 21
715.84
 31
0.0
  0
ARC
  8
0
  6
CONTINUOUS
 62
     1
 10
1495.12
 20
716.24
 30
0.0
 40
10.0
 50
0.0
 51
90.0
  0
LINE
  8
0
  6
LTYPE4
 62
     2
 10
1305.82
 20
597.24
 30
0.0
 11
1498.12
 21
597.24
 31
0.0
  0
LINE
  8
2
  6
CONTINUOUS
 62
     2
 10
1285.12
 20
478.240021579
 30
0.0
 11
1285.12
 21
350.24
 31
0.0
  0
LINE
  8
2
  6
CONTINUOUS
 62
     2
 10
1285.12
 20
356.24
 30
0.0
 11
1299.608887394
 21
352.357714323
 31
0.0
  0
LINE
  8
2
  6
CONTINUOUS
 62
     2
 10
1285.12
 20
356.24
 30
0.0
 11
1299.608887394
 21
360.122285677
 31
0.0
  0
LINE
  8
2
  6
CONTINUOUS
 62
     2
 10
1285.12
 20
356.24
 30
0.0
 11
1505.12
 21
356.24
 31
0.0
  0
LINE
  8
2
  6
CONTINUOUS
 62
     2
 10
1505.12
 20
356.24
 30
0.0
 11
1490.631112606
 21
360.122285677
 31
0.0
  0
LINE
  8
2
  6
CONTINUOUS
 62
     2
 10
1505.12
 20
356.24
 30
0.0
 11
1490.631112606
 21
352.357714323
 31
0.0
  0
LINE
  8
2
  6
CONTINUOUS
 62
     2
 10
1505.12
 20
478.240021579
 30
0.0
 11
1505.12
 21
350.24
 31
0.0
  0
TEXT
  8
2
  6
CONTINUOUS
 62
     3
 10
1370.82
 20
362.24
 30
0.0
 40
18.0
  1
２２０
 50
0.0
 41
0.9
 51
0.0
  7
KANJI39
  0
LINE
  8
2
  6
CONTINUOUS
 62
     2
 10
1554.492218677
 20
597.24
 30
0.0
 11
1564.992218677
 21
597.24
 31
0.0
  0
LINE
  8
2
  6
CONTINUOUS
 62
     2
 10
1558.992218677
 20
597.24
 30
0.0
 11
1555.109933
 21
582.751112606
 31
0.0
  0
LINE
  8
2
  6
CONTINUOUS
 62
     2
 10
1558.992218677
 20
597.24
 30
0.0
 11
1562.874504353
 21
582.751112606
 31
0.0
  0
LINE
  8
2
  6
CONTINUOUS
 62
     2
 10
1558.992218677
 20
597.24
 30
0.0
 11
1558.992218677
 21
474.24
 31
0.0
  0
LINE
  8
2
  6
CONTINUOUS
 62
     2
 10
1558.992218677
 20
474.24
 30
0.0
 11
1562.874504353
 21
488.728887394
 31
0.0
  0
LINE
  8
2
  6
CONTINUOUS
 62
     2
 10
1558.992218677
 20
474.24
 30
0.0
 11
1555.109933
 21
488.728887394
 31
0.0
  0
LINE
  8
2
  6
CONTINUOUS
 62
     2
 10
1501.120021579
 20
474.24
 30
0.0
 11
1564.992218677
 21
474.24
 31
0.0
  0
TEXT
  8
2
  6
CONTINUOUS
 62
     3
 10
1552.992218677
 20
511.44
 30
0.0
 40
18.0
  1
１２３
 50
90.0
 41
0.9
 51
0.0
  7
KANJI39
  0
LINE
  8
2
  6
CONTINUOUS
 62
     2
 10
1552.5
 20
474.24
 30
0.0
 11
1610.5
 21
474.24
 31
0.0
  0
LINE
  8
2
  6
CONTINUOUS
 62
     2
 10
1604.5
 20
474.24
 30
0.0
 11
1608.382285677
 21
488.728887394
 31
0.0
  0
LINE
  8
2
  6
CONTINUOUS
 62
     2
 10
1604.5
 20
474.24
 30
0.0
 11
1600.617714323
 21
488.728887394
 31
0.0
  0
TEXT
  8
0
  6
CONTINUOUS
 62
     2
 10
2158.42
 20
1505.6
 30
1.2
 40
18.0
  1
ＭＣＬＤ１－　ＪＮ
 50
0.0
 41
0.833333333
 51
0.0
  7
KANJI45
  0
TEXT
  8
0
  6
CONTINUOUS
 62
     2
 10
1856.92
 20
262.7
 30
0.0
 40
21.0
  1
ＭＣＬＤ１－ＪＮ
 50
0.0
 41
0.793650794
 51
0.0
  7
KANJI46
  0
TEXT
  8
0
  6
CONTINUOUS
 62
     2
 10
1971.7200334
 20
166.699994
 30
13.0
 40
30.0
  1
３００２４５１
 50
0.0
 41
0.8
 51
0.0
  7
KANJI47
  0
TEXT
  8
0
  6
CONTINUOUS
 62
     2
 10
798.22
 20
681.04
 30
0.0
 40
18.0
  1
給脂口
 50
0.0
 41
0.9
 51
0.0
  7
KANJI39
  0
LINE
  8
0
  6
CONTINUOUS
 62
     2
 10
798.42
 20
676.04
 30
0.0
 11
838.72
 21
676.04
 31
0.0
  0
LINE
  8
0
  6
CONTINUOUS
 62
     2
 10
771.22
 20
608.04
 30
0.0
 11
798.42
 21
676.04
 31
0.0
  0
LINE
  8
0
  6
CONTINUOUS
 62
     2
 10
1083.87
 20
713.34
 30
0.0
 11
1002.87
 21
713.34
 31
0.0
  0
LINE
  8
0
  6
LTYPE3
 62
     2
 10
1000.62
 20
795.84
 30
0.0
 11
1145.12
 21
795.84
 31
0.0
  0
LINE
  8
0
  6
CONTINUOUS
 62
     1
 10
1055.12
 20
783.34
 30
0.0
 11
1115.12
 21
783.34
 31
0.0
  0
LINE
  8
0
  6
CONTINUOUS
 62
     1
 10
1115.12
 20
768.34
 30
0.0
 11
1115.12
 21
783.34
 31
0.0
  0
LINE
  8
0
  6
CONTINUOUS
 62
     1
 10
1068.12
 20
763.84
 30
0.0
 11
1112.12
 21
763.84
 31
0.0
  0
LINE
  8
0
  6
CONTINUOUS
 62
     1
 10
1077.62
 20
757.84
 30
0.0
 11
1102.62
 21
757.84
 31
0.0
  0
LINE
  8
0
  6
CONTINUOUS
 62
     1
 10
1102.62
 20
757.84
 30
0.0
 11
1102.62
 21
763.84
 31
0.0
  0
LINE
  8
0
  6
CONTINUOUS
 62
     1
 10
1077.62
 20
757.84
 30
0.0
 11
1077.62
 21
763.84
 31
0.0
  0
LINE
  8
0
  6
CONTINUOUS
 62
     1
 10
1112.12
 20
763.84
 30
0.0
 11
1112.12
 21
768.34
 31
0.0
  0
LINE
  8
0
  6
CONTINUOUS
 62
     1
 10
1068.12
 20
763.84
 30
0.0
 11
1068.12
 21
768.34
 31
0.0
  0
CIRCLE
  8
0
  6
CONTINUOUS
 62
     1
 10
1090.12
 20
761.84
 30
0.0
 40
2.0
  0
LINE
  8
0
  6
LTYPE4
 62
     2
 10
1086.12
 20
761.94
 30
0.0
 11
1094.32
 21
761.94
 31
0.0
  0
LINE
  8
0
  6
LTYPE1
 62
     2
 10
1102.62
 20
763.84
 30
0.0
 11
1102.62
 21
783.34
 31
0.0
  0
LINE
  8
0
  6
LTYPE1
 62
     2
 10
1077.62
 20
763.84
 30
0.0
 11
1077.62
 21
783.34
 31
0.0
  0
LINE
  8
0
  6
CONTINUOUS
 62
     1
 10
1055.12
 20
783.34
 30
0.0
 11
1055.12
 21
808.34
 31
0.0
  0
LINE
  8
0
  6
CONTINUOUS
 62
     1
 10
1077.62
 20
783.34
 30
0.0
 11
1077.62
 21
808.34
 31
0.0
  0
LINE
  8
0
  6
CONTINUOUS
 62
     1
 10
1102.62
 20
783.34
 30
0.0
 11
1102.62
 21
808.34
 31
0.0
  0
LINE
  8
0
  6
LTYPE4
 62
     2
 10
1090.12
 20
752.84
 30
0.0
 11
1090.12
 21
833.84
 31
0.0
  0
LINE
  8
0
  6
LTYPE4
 62
     2
 10
1090.12
 20
838.84
 30
0.0
 11
1090.12
 21
757.84
 31
0.0
  0
LINE
  8
0
  6
CONTINUOUS
 62
     1
 10
1077.62
 20
808.34
 30
0.0
 11
1077.62
 21
783.34
 31
0.0
  0
LINE
  8
0
  6
CONTINUOUS
 62
     1
 10
1102.62
 20
808.34
 30
0.0
 11
1102.62
 21
783.34
 31
0.0
  0
LINE
  8
0
  6
CONTINUOUS
 62
     2
 10
1122.62
 20
768.34
 30
0.0
 11
1200.12
 21
768.34
 31
0.0
  0
LINE
  8
0
  6
CONTINUOUS
 62
     2
 10
1192.62
 20
768.34
 30
0.0
 11
1195.855238064
 21
780.414072829
 31
0.0
  0
LINE
  8
0
  6
CONTINUOUS
 62
     2
 10
1192.62
 20
768.34
 30
0.0
 11
1189.384761936
 21
780.414072829
 31
0.0
  0
LINE
  8
0
  6
CONTINUOUS
 62
     2
 10
1192.62
 20
768.34
 30
0.0
 11
1192.62
 21
823.34
 31
0.0
  0
LINE
  8
0
  6
CONTINUOUS
 62
     2
 10
1122.62
 20
783.34
 30
0.0
 11
1171.62
 21
783.34
 31
0.0
  0
LINE
  8
0
  6
CONTINUOUS
 62
     2
 10
1164.12
 20
783.34
 30
0.0
 11
1160.884761936
 21
771.265927171
 31
0.0
  0
LINE
  8
0
  6
CONTINUOUS
 62
     2
 10
1164.12
 20
783.34
 30
0.0
 11
1167.355238064
 21
771.265927171
 31
0.0
  0
LINE
  8
0
  6
CONTINUOUS
 62
     2
 10
1055.12
 20
713.34
 30
0.0
 11
1067.194072829
 21
710.104761936
 31
0.0
  0
LINE
  8
0
  6
CONTINUOUS
 62
     2
 10
1055.12
 20
713.34
 30
0.0
 11
1067.194072829
 21
716.575238064
 31
0.0
  0
LINE
  8
0
  6
CONTINUOUS
 62
     2
 10
1055.12
 20
713.34
 30
0.0
 11
1090.12
 21
713.34
 31
0.0
  0
LINE
  8
0
  6
CONTINUOUS
 62
     2
 10
1090.12
 20
713.34
 30
0.0
 11
1078.045927171
 21
716.575238064
 31
0.0
  0
LINE
  8
0
  6
CONTINUOUS
 62
     2
 10
1090.12
 20
713.34
 30
0.0
 11
1078.045927171
 21
710.104761936
 31
0.0
  0
LINE
  8
0
  6
CONTINUOUS
 62
     2
 10
1055.12
 20
713.34
 30
0.0
 11
1067.194072829
 21
710.104761936
 31
0.0
  0
LINE
  8
0
  6
CONTINUOUS
 62
     2
 10
1055.12
 20
713.34
 30
0.0
 11
1067.194072829
 21
716.575238064
 31
0.0
  0
LINE
  8
0
  6
CONTINUOUS
 62
     2
 10
1040.12
 20
713.34
 30
0.0
 11
1028.045927171
 21
716.575238064
 31
0.0
  0
LINE
  8
0
  6
CONTINUOUS
 62
     2
 10
1040.12
 20
713.34
 30
0.0
 11
1028.045927171
 21
710.104761936
 31
0.0
  0
LINE
  8
0
  6
CONTINUOUS
 62
     2
 10
1090.12
 20
748.24
 30
0.0
 11
1090.12
 21
705.84
 31
0.0
  0
LINE
  8
0
  6
CONTINUOUS
 62
     2
 10
1055.12
 20
780.74
 30
0.0
 11
1055.12
 21
705.84
 31
0.0
  0
LINE
  8
0
  6
CONTINUOUS
 62
     2
 10
1040.12
 20
756.74
 30
0.0
 11
1040.12
 21
705.84
 31
0.0
  0
LINE
  8
0
  6
CONTINUOUS
 62
     1
 10
1040.12
 20
768.34
 30
0.0
 11
1115.12
 21
768.34
 31
0.0
  0
LINE
  8
0
  6
CONTINUOUS
 62
     2
 10
1164.12
 20
773.34
 30
0.0
 11
1164.12
 21
859.84
 31
0.0
  0
LINE
  8
0
  6
CONTINUOUS
 62
     1
 10
1055.12
 20
808.34
 30
0.0
 11
1115.12
 21
808.34
 31
0.0
  0
LINE
  8
0
  6
CONTINUOUS
 62
     1
 10
1115.12
 20
823.34
 30
0.0
 11
1115.12
 21
808.34
 31
0.0
  0
LINE
  8
0
  6
CONTINUOUS
 62
     1
 10
1068.12
 20
827.84
 30
0.0
 11
1112.12
 21
827.84
 31
0.0
  0
LINE
  8
0
  6
CONTINUOUS
 62
     1
 10
1077.62
 20
833.84
 30
0.0
 11
1102.62
 21
833.84
 31
0.0
  0
LINE
  8
0
  6
CONTINUOUS
 62
     1
 10
1102.62
 20
833.84
 30
0.0
 11
1102.62
 21
827.84
 31
0.0
  0
LINE
  8
0
  6
CONTINUOUS
 62
     1
 10
1077.62
 20
833.84
 30
0.0
 11
1077.62
 21
827.84
 31
0.0
  0
LINE
  8
0
  6
CONTINUOUS
 62
     1
 10
1112.12
 20
827.84
 30
0.0
 11
1112.12
 21
823.34
 31
0.0
  0
LINE
  8
0
  6
CONTINUOUS
 62
     1
 10
1068.12
 20
827.84
 30
0.0
 11
1068.12
 21
823.34
 31
0.0
  0
CIRCLE
  8
0
  6
CONTINUOUS
 62
     1
 10
1090.12
 20
829.84
 30
0.0
 40
2.0
  0
LINE
  8
0
  6
LTYPE4
 62
     2
 10
1086.12
 20
829.74
 30
0.0
 11
1094.32
 21
829.74
 31
0.0
  0
LINE
  8
0
  6
LTYPE1
 62
     2
 10
1102.62
 20
827.84
 30
0.0
 11
1102.62
 21
808.34
 31
0.0
  0
LINE
  8
0
  6
LTYPE1
 62
     2
 10
1077.62
 20
827.84
 30
0.0
 11
1077.62
 21
808.34
 31
0.0
  0
LINE
  8
0
  6
CONTINUOUS
 62
     2
 10
1192.62
 20
823.34
 30
0.0
 11
1189.384761936
 21
811.265927171
 31
0.0
  0
LINE
  8
0
  6
CONTINUOUS
 62
     2
 10
1192.62
 20
823.34
 30
0.0
 11
1195.855238064
 21
811.265927171
 31
0.0
  0
LINE
  8
0
  6
CONTINUOUS
 62
     2
 10
1122.62
 20
823.34
 30
0.0
 11
1200.12
 21
823.34
 31
0.0
  0
LINE
  8
0
  6
CONTINUOUS
 62
     2
 10
1164.12
 20
808.34
 30
0.0
 11
1167.355238064
 21
820.414072829
 31
0.0
  0
LINE
  8
0
  6
CONTINUOUS
 62
     2
 10
1164.12
 20
808.34
 30
0.0
 11
1160.884761936
 21
820.414072829
 31
0.0
  0
LINE
  8
0
  6
CONTINUOUS
 62
     2
 10
1122.62
 20
808.34
 30
0.0
 11
1171.62
 21
808.34
 31
0.0
  0
LINE
  8
0
  6
CONTINUOUS
 62
     1
 10
1040.12
 20
823.34
 30
0.0
 11
1115.12
 21
823.34
 31
0.0
  0
LINE
  8
0
  6
CONTINUOUS
 62
     1
 10
1040.12
 20
762.84
 30
0.0
 11
1040.12
 21
823.34
 31
0.0
  0
TEXT
  8
0
  6
CONTINUOUS
 62
     2
 10
1003.87
 20
716.34
 30
0.0
 40
18.0
  1
１５
 50
0.0
 41
0.9
 51
0.0
  7
KANJI39
  0
TEXT
  8
0
  6
CONTINUOUS
 62
     2
 10
1187.62
 20
781.59
 30
0.0
 40
18.0
  1
５５
 50
90.0
 41
0.9
 51
0.0
  7
KANJI39
  0
TEXT
  8
0
  6
CONTINUOUS
 62
     2
 10
1058.37
 20
718.34
 30
0.0
 40
18.0
  1
３５
 50
0.0
 41
0.9
 51
0.0
  7
KANJI39
  0
TEXT
  8
0
  6
CONTINUOUS
 62
     2
 10
1159.12
 20
827.09
 30
0.0
 40
18.0
  1
２５
 50
90.0
 41
0.9
 51
0.0
  7
KANJI39
  0
LINE
  8
2
  6
CONTINUOUS
 62
     2
 10
1090.12
 20
719.34
 30
0.0
 11
1090.12
 21
707.34
 31
0.0
  0
LINE
  8
2
  6
CONTINUOUS
 62
     2
 10
1090.12
 20
713.34
 30
0.0
 11
1075.631112606
 21
717.222285677
 31
0.0
  0
LINE
  8
2
  6
CONTINUOUS
 62
     2
 10
1090.12
 20
713.34
 30
0.0
 11
1075.631112606
 21
709.457714323
 31
0.0
  0
LINE
  8
2
  6
CONTINUOUS
 62
     2
 10
1067.62
 20
713.34
 30
0.0
 11
1090.12
 21
713.34
 31
0.0
  0
LINE
  8
2
  6
CONTINUOUS
 62
     2
 10
1090.12
 20
713.34
 30
0.0
 11
1115.12
 21
713.34
 31
0.0
  0
LINE
  8
2
  6
CONTINUOUS
 62
     2
 10
1115.12
 20
713.34
 30
0.0
 11
1170.02
 21
713.34
 31
0.0
  0
LINE
  8
2
  6
CONTINUOUS
 62
     2
 10
1115.12
 20
713.34
 30
0.0
 11
1129.608887394
 21
709.457714323
 31
0.0
  0
LINE
  8
2
  6
CONTINUOUS
 62
     2
 10
1115.12
 20
713.34
 30
0.0
 11
1129.608887394
 21
717.222285677
 31
0.0
  0
LINE
  8
2
  6
CONTINUOUS
 62
     2
 10
1115.12
 20
762.34
 30
0.0
 11
1115.12
 21
707.34
 31
0.0
  0
TEXT
  8
2
  6
CONTINUOUS
 62
     3
 10
1137.62
 20
719.34
 30
0.0
 40
18.0
  1
２５
 50
0.0
 41
0.9
 51
0.0
  7
KANJI39
  0
LINE
  8
0
  6
LTYPE5
 62
     2
 10
1001.796112865
 20
835.84
 30
0.0
 11
970.850004728
 21
835.84
 31
0.0
  0
LINE
  8
0
  6
LTYPE5
 62
     2
 10
1007.350005553
 20
850.84
 30
0.0
 11
970.850004728
 21
850.84
 31
0.0
  0
ARC
  8
0
  6
CONTINUOUS
 62
     1
 10
1018.457790779
 20
849.84
 30
0.0
 40
1.0
 50
15.0
 51
90.0
  0
ARC
  8
0
  6
CONTINUOUS
 62
     1
 10
1018.457789953
 20
849.84
 30
0.0
 40
1.0
 50
90.0
 51
165.0
  0
LINE
  8
0
  6
CONTINUOUS
 62
     1
 10
1013.869823916
 20
836.581180955
 30
0.0
 11
1017.491864126
 21
850.098819045
 31
0.0
  0
ARC
  8
0
  6
CONTINUOUS
 62
     1
 10
1012.90389809
 20
836.84
 30
0.0
 40
1.0
 50
270.0
 51
345.0
  0
ARC
  8
0
  6
CONTINUOUS
 62
     1
 10
1012.903897416
 20
836.84
 30
0.0
 40
1.0
 50
195.0
 51
270.0
  0
LINE
  8
0
  6
CONTINUOUS
 62
     1
 10
1011.93797159
 20
836.581180955
 30
0.0
 11
1008.31593138
 21
850.098819045
 31
0.0
  0
ARC
  8
0
  6
CONTINUOUS
 62
     1
 10
1007.350005553
 20
849.84
 30
0.0
 40
1.0
 50
15.0
 51
90.0
  0
ARC
  8
0
  6
CONTINUOUS
 62
     1
 10
1007.350003902
 20
849.84
 30
0.0
 40
1.0
 50
90.0
 51
165.0
  0
ARC
  8
0
  6
CONTINUOUS
 62
     1
 10
1001.796112865
 20
836.84
 30
0.0
 40
1.0
 50
270.0
 51
345.0
  0
LINE
  8
0
  6
CONTINUOUS
 62
     1
 10
1002.762038691
 20
836.581180955
 30
0.0
 11
1006.384078901
 21
850.098819045
 31
0.0
  0
LINE
  8
0
  6
CONTINUOUS
 62
     1
 10
1025.12
 20
828.84
 30
0.0
 11
1019.423716605
 21
850.098819045
 31
0.0
  0
LINE
  8
0
  6
CONTINUOUS
 62
     1
 10
1037.62
 20
830.84
 30
0.0
 11
1027.62
 21
830.84
 31
0.0
  0
LINE
  8
0
  6
CONTINUOUS
 62
     1
 10
1037.62
 20
828.84
 30
0.0
 11
1037.62
 21
830.84
 31
0.0
  0
LINE
  8
0
  6
CONTINUOUS
 62
     1
 10
1027.62
 20
828.84
 30
0.0
 11
1027.62
 21
830.84
 31
0.0
  0
LINE
  8
0
  6
CONTINUOUS
 62
     1
 10
1001.796112865
 20
835.84
 30
0.0
 11
1001.796112865
 21
795.84
 31
0.0
  0
LINE
  8
0
  6
CONTINUOUS
 62
     1
 10
1007.350004728
 20
850.84
 30
0.0
 11
1007.350004728
 21
795.84
 31
0.0
  0
LINE
  8
0
  6
CONTINUOUS
 62
     1
 10
1018.457790779
 20
850.84
 30
0.0
 11
1018.457790779
 21
795.84
 31
0.0
  0
LINE
  8
0
  6
CONTINUOUS
 62
     1
 10
1012.90389809
 20
795.84
 30
0.0
 11
1012.90389809
 21
835.84
 31
0.0
  0
LINE
  8
0
  6
CONTINUOUS
 62
     2
 10
963.350004728
 20
850.84
 30
0.0
 11
951.02
 21
850.84
 31
0.0
  0
LINE
  8
0
  6
CONTINUOUS
 62
     2
 10
958.52
 20
850.84
 30
0.0
 11
955.284761936
 21
838.765927171
 31
0.0
  0
LINE
  8
0
  6
CONTINUOUS
 62
     2
 10
958.52
 20
850.84
 30
0.0
 11
961.755238064
 21
838.765927171
 31
0.0
  0
LINE
  8
0
  6
CONTINUOUS
 62
     2
 10
958.52
 20
850.84
 30
0.0
 11
958.52
 21
740.84
 31
0.0
  0
LINE
  8
0
  6
CONTINUOUS
 62
     1
 10
1040.12
 20
828.84
 30
0.0
 11
1025.12
 21
828.84
 31
0.0
  0
LINE
  8
0
  6
CONTINUOUS
 62
     1
 10
1025.12
 20
795.84
 30
0.0
 11
1025.12
 21
828.84
 31
0.0
  0
LINE
  8
0
  6
CONTINUOUS
 62
     1
 10
1025.12
 20
762.84
 30
0.0
 11
1019.423716605
 21
741.581180955
 31
0.0
  0
LINE
  8
0
  6
CONTINUOUS
 62
     1
 10
1037.62
 20
760.84
 30
0.0
 11
1027.62
 21
760.84
 31
0.0
  0
LINE
  8
0
  6
CONTINUOUS
 62
     1
 10
1037.62
 20
762.84
 30
0.0
 11
1037.62
 21
760.84
 31
0.0
  0
LINE
  8
0
  6
CONTINUOUS
 62
     1
 10
1027.62
 20
762.84
 30
0.0
 11
1027.62
 21
760.84
 31
0.0
  0
LINE
  8
0
  6
CONTINUOUS
 62
     1
 10
1001.796112865
 20
755.84
 30
0.0
 11
1001.796112865
 21
795.84
 31
0.0
  0
LINE
  8
0
  6
CONTINUOUS
 62
     1
 10
1007.350004728
 20
740.84
 30
0.0
 11
1007.350004728
 21
795.84
 31
0.0
  0
LINE
  8
0
  6
CONTINUOUS
 62
     1
 10
1018.457790779
 20
740.84
 30
0.0
 11
1018.457790779
 21
795.84
 31
0.0
  0
LINE
  8
0
  6
CONTINUOUS
 62
     1
 10
1012.90389809
 20
795.84
 30
0.0
 11
1012.90389809
 21
755.84
 31
0.0
  0
LINE
  8
0
  6
LTYPE5
 62
     2
 10
1001.796112865
 20
755.84
 30
0.0
 11
970.850004728
 21
755.84
 31
0.0
  0
LINE
  8
0
  6
LTYPE5
 62
     2
 10
1007.350005553
 20
740.84
 30
0.0
 11
970.850004728
 21
740.84
 31
0.0
  0
ARC
  8
0
  6
CONTINUOUS
 62
     1
 10
1018.457790779
 20
741.84
 30
0.0
 40
1.0
 50
270.0
 51
345.0
  0
ARC
  8
0
  6
CONTINUOUS
 62
     1
 10
1018.457789953
 20
741.84
 30
0.0
 40
1.0
 50
195.0
 51
270.0
  0
LINE
  8
0
  6
CONTINUOUS
 62
     1
 10
1013.869823916
 20
755.098819045
 30
0.0
 11
1017.491864126
 21
741.581180955
 31
0.0
  0
ARC
  8
0
  6
CONTINUOUS
 62
     1
 10
1012.90389809
 20
754.84
 30
0.0
 40
1.0
 50
15.0
 51
90.0
  0
ARC
  8
0
  6
CONTINUOUS
 62
     1
 10
1012.903897416
 20
754.84
 30
0.0
 40
1.0
 50
90.0
 51
165.0
  0
LINE
  8
0
  6
CONTINUOUS
 62
     1
 10
1011.93797159
 20
755.098819045
 30
0.0
 11
1008.31593138
 21
741.581180955
 31
0.0
  0
ARC
  8
0
  6
CONTINUOUS
 62
     1
 10
1007.350005553
 20
741.84
 30
0.0
 40
1.0
 50
270.0
 51
345.0
  0
ARC
  8
0
  6
CONTINUOUS
 62
     1
 10
1007.350003902
 20
741.84
 30
0.0
 40
1.0
 50
195.0
 51
270.0
  0
ARC
  8
0
  6
CONTINUOUS
 62
     1
 10
1001.796112865
 20
754.84
 30
0.0
 40
1.0
 50
15.0
 51
90.0
  0
LINE
  8
0
  6
CONTINUOUS
 62
     1
 10
1002.762038691
 20
755.098819045
 30
0.0
 11
1006.384078901
 21
741.581180955
 31
0.0
  0
LINE
  8
0
  6
CONTINUOUS
 62
     1
 10
1040.12
 20
762.84
 30
0.0
 11
1025.12
 21
762.84
 31
0.0
  0
LINE
  8
0
  6
CONTINUOUS
 62
     1
 10
1025.12
 20
795.84
 30
0.0
 11
1025.12
 21
762.84
 31
0.0
  0
LINE
  8
0
  6
CONTINUOUS
 62
     2
 10
958.52
 20
740.84
 30
0.0
 11
961.755238064
 21
752.914072829
 31
0.0
  0
LINE
  8
0
  6
CONTINUOUS
 62
     2
 10
958.52
 20
740.84
 30
0.0
 11
955.284761936
 21
752.914072829
 31
0.0
  0
LINE
  8
0
  6
CONTINUOUS
 62
     2
 10
963.350004728
 20
740.84
 30
0.0
 11
951.02
 21
740.84
 31
0.0
  0
TEXT
  8
0
  6
CONTINUOUS
 62
     2
 10
953.52
 20
767.34
 30
0.0
 40
18.0
  1
φ１１０
 50
90.0
 41
0.9
 51
0.0
  7
KANJI39
  0
LINE
  8
0
  6
CONTINUOUS
 62
     2
 10
1262.342218677
 20
771.5
 30
0.0
 11
1262.342218677
 21
568.49
 31
0.0
  0
LINE
  8
2
  6
CONTINUOUS
 62
     2
 10
1040.12
 20
556.498819045
 30
0.0
 11
1040.12
 21
377.14
 31
0.0
  0
LINE
  8
0
  6
CONTINUOUS
 62
     2
 10
1115.12
 20
571.74
 30
0.0
 11
1178.22
 21
571.74
 31
0.0
  0
LINE
  8
0
  6
CONTINUOUS
 62
     2
 10
1115.12
 20
621.74
 30
0.0
 11
1178.22
 21
621.74
 31
0.0
  0
LINE
  8
0
  6
CONTINUOUS
 62
     1
 10
472.3
 20
486.24
 30
0.0
 11
461.7
 21
486.24
 31
0.0
  0
ARC
  8
0
  6
CONTINUOUS
 62
     1
 10
467.4
 20
487.24
 30
0.0
 40
5.0
 50
272.3
 51
348.5
  0
ARC
  8
0
  6
CONTINUOUS
 62
     1
 10
466.6
 20
487.24
 30
0.0
 40
5.0
 50
191.5
 51
267.7
  0
LINE
  8
0
  6
CONTINUOUS
 62
     1
 10
467.6
 20
482.24
 30
0.0
 11
466.4
 21
482.24
 31
0.0
  0
LINE
  8
0
  6
LTYPE6
 62
     2
 10
467.0
 20
478.84
 30
0.0
 11
467.0
 21
492.24
 31
0.0
  0
LINE
  8
0
  6
CONTINUOUS
 62
     1
 10
582.3
 20
486.24
 30
0.0
 11
571.7
 21
486.24
 31
0.0
  0
ARC
  8
0
  6
CONTINUOUS
 62
     1
 10
577.4
 20
487.24
 30
0.0
 40
5.0
 50
272.3
 51
348.5
  0
ARC
  8
0
  6
CONTINUOUS
 62
     1
 10
576.6
 20
487.24
 30
0.0
 40
5.0
 50
191.5
 51
267.7
  0
LINE
  8
0
  6
CONTINUOUS
 62
     1
 10
577.6
 20
482.24
 30
0.0
 11
576.4
 21
482.24
 31
0.0
  0
LINE
  8
0
  6
LTYPE6
 62
     2
 10
577.0
 20
478.84
 30
0.0
 11
577.0
 21
492.24
 31
0.0
  0
LINE
  8
0
  6
CONTINUOUS
 62
     1
 10
1355.42
 20
486.24
 30
0.0
 11
1344.82
 21
486.24
 31
0.0
  0
ARC
  8
0
  6
CONTINUOUS
 62
     1
 10
1350.52
 20
487.24
 30
0.0
 40
5.0
 50
272.3
 51
348.5
  0
ARC
  8
0
  6
CONTINUOUS
 62
     1
 10
1349.72
 20
487.24
 30
0.0
 40
5.0
 50
191.5
 51
267.7
  0
LINE
  8
0
  6
CONTINUOUS
 62
     1
 10
1350.72
 20
482.24
 30
0.0
 11
1349.52
 21
482.24
 31
0.0
  0
LINE
  8
0
  6
LTYPE6
 62
     2
 10
1350.12
 20
478.84
 30
0.0
 11
1350.12
 21
492.24
 31
0.0
  0
LINE
  8
0
  6
CONTINUOUS
 62
     1
 10
1445.42
 20
486.24
 30
0.0
 11
1434.82
 21
486.24
 31
0.0
  0
ARC
  8
0
  6
CONTINUOUS
 62
     1
 10
1440.52
 20
487.24
 30
0.0
 40
5.0
 50
272.3
 51
348.5
  0
ARC
  8
0
  6
CONTINUOUS
 62
     1
 10
1439.72
 20
487.24
 30
0.0
 40
5.0
 50
191.5
 51
267.7
  0
LINE
  8
0
  6
CONTINUOUS
 62
     1
 10
1440.72
 20
482.24
 30
0.0
 11
1439.52
 21
482.24
 31
0.0
  0
LINE
  8
0
  6
LTYPE6
 62
     2
 10
1440.12
 20
478.84
 30
0.0
 11
1440.12
 21
492.24
 31
0.0
  0
LINE
  8
0
  6
LTYPE3
 62
     6
 10
112.36
 20
1664.54
 30
0.0
 11
112.36
 21
1158.14
 31
0.0
  0
TEXT
  8
0
  6
CONTINUOUS
 62
     6
 10
239.661963977
 20
1166.209618036
 30
0.0
 40
17.031074144
  1
２カム端子台　接続図
 50
0.0
 41
0.880962996
 51
0.0
  7
KANJI48
  0
LINE
  8
0
  6
LTYPE3
 62
     6
 10
867.64
 20
1664.54
 30
0.0
 11
112.36
 21
1664.54
 31
0.0
  0
LINE
  8
0
  6
LTYPE3
 62
     6
 10
112.36
 20
1158.14
 30
0.0
 11
867.64
 21
1158.14
 31
0.0
  0
CIRCLE
  8
0
  6
CONTINUOUS
 62
     6
 10
258.814412943
 20
1257.642753509
 30
0.0
 40
3.936205455
  0
LINE
  8
0
  6
CONTINUOUS
 62
     6
 10
259.057734816
 20
1253.615699739
 30
0.0
 11
262.815625379
 21
1232.174046359
 31
0.0
  0
LINE
  8
0
  6
CONTINUOUS
 62
     6
 10
259.057734816
 20
1253.615699739
 30
0.0
 11
263.595009475
 21
1254.371912182
 31
0.0
  0
LINE
  8
0
  6
CONTINUOUS
 62
     6
 10
263.595009475
 20
1254.371912182
 30
0.0
 11
267.353195556
 21
1232.930308055
 31
0.0
  0
LINE
  8
0
  6
CONTINUOUS
 62
     6
 10
258.814412943
 20
1261.578958964
 30
0.0
 11
258.814412943
 21
1269.492918711
 31
0.0
  0
LINE
  8
0
  6
CONTINUOUS
 62
     6
 10
309.839298476
 20
1269.492918711
 30
0.0
 11
258.814412943
 21
1269.492918711
 31
0.0
  0
LINE
  8
0
  6
CONTINUOUS
 62
     6
 10
309.839298476
 20
1217.935916515
 30
0.0
 11
309.839298476
 21
1269.492918711
 31
0.0
  0
CIRCLE
  8
0
  6
CONTINUOUS
 62
     6
 10
386.376626774
 20
1257.642753509
 30
0.0
 40
3.936205455
  0
LINE
  8
0
  6
CONTINUOUS
 62
     6
 10
386.133304902
 20
1253.615699739
 30
0.0
 11
382.375414339
 21
1232.174046359
 31
0.0
  0
LINE
  8
0
  6
CONTINUOUS
 62
     6
 10
386.133304902
 20
1253.615699739
 30
0.0
 11
381.596030243
 21
1254.371912182
 31
0.0
  0
LINE
  8
0
  6
CONTINUOUS
 62
     6
 10
381.596030243
 20
1254.371912182
 30
0.0
 11
377.837844161
 21
1232.930308055
 31
0.0
  0
LINE
  8
0
  6
CONTINUOUS
 62
     6
 10
386.376626774
 20
1261.578958964
 30
0.0
 11
386.376626774
 21
1269.492918711
 31
0.0
  0
LINE
  8
0
  6
CONTINUOUS
 62
     6
 10
335.351741242
 20
1269.492918711
 30
0.0
 11
386.376626774
 21
1269.492918711
 31
0.0
  0
LINE
  8
0
  6
CONTINUOUS
 62
     6
 10
335.351741242
 20
1217.935916515
 30
0.0
 11
335.351741242
 21
1269.492918711
 31
0.0
  0
LINE
  8
0
  6
CONTINUOUS
 62
     2
 10
348.107962625
 20
1318.373746261
 30
0.0
 11
348.107962625
 21
1296.505938175
 31
0.0
  0
LINE
  8
0
  6
CONTINUOUS
 62
     2
 10
373.620405391
 20
1318.373746261
 30
0.0
 11
373.620405391
 21
1296.505938175
 31
0.0
  0
LINE
  8
0
  6
CONTINUOUS
 62
     2
 10
399.132848158
 20
1318.373746261
 30
0.0
 11
399.132848158
 21
1296.505938175
 31
0.0
  0
LINE
  8
0
  6
CONTINUOUS
 62
     2
 10
424.645290924
 20
1318.373746261
 30
0.0
 11
424.645290924
 21
1296.505938175
 31
0.0
  0
CIRCLE
  8
0
  6
CONTINUOUS
 62
     6
 10
284.326855709
 20
1331.824635014
 30
0.0
 40
3.936205455
  0
LINE
  8
0
  6
CONTINUOUS
 62
     6
 10
284.083533837
 20
1354.053529485
 30
0.0
 11
280.325643274
 21
1332.611876105
 31
0.0
  0
LINE
  8
0
  6
CONTINUOUS
 62
     6
 10
279.546259178
 20
1354.809741928
 30
0.0
 11
275.788073096
 21
1333.368137801
 31
0.0
  0
LINE
  8
0
  6
CONTINUOUS
 62
     6
 10
280.325643274
 20
1332.611876105
 30
0.0
 11
275.788073096
 21
1333.368137801
 31
0.0
  0
CIRCLE
  8
0
  6
CONTINUOUS
 62
     6
 10
417.042582979
 20
1340.914353908
 30
0.0
 40
3.936205455
  0
LINE
  8
0
  6
CONTINUOUS
 62
     6
 10
413.106377524
 20
1340.914353908
 30
0.0
 11
411.889069541
 21
1340.914353908
 31
0.0
  0
LINE
  8
0
  6
CONTINUOUS
 62
     6
 10
437.158190434
 20
1354.053529485
 30
0.0
 11
433.400299871
 21
1332.611876105
 31
0.0
  0
LINE
  8
0
  6
CONTINUOUS
 62
     6
 10
432.620915776
 20
1354.809741928
 30
0.0
 11
428.862729694
 21
1333.368137801
 31
0.0
  0
LINE
  8
0
  6
CONTINUOUS
 62
     6
 10
433.400299871
 20
1332.611876105
 30
0.0
 11
428.862729694
 21
1333.368137801
 31
0.0
  0
CIRCLE
  8
0
  6
CONTINUOUS
 62
     6
 10
437.401512307
 20
1331.824635014
 30
0.0
 40
3.936205455
  0
LINE
  8
0
  6
CONTINUOUS
 62
     6
 10
284.326855709
 20
1327.888429558
 30
0.0
 11
284.326855709
 21
1318.373746261
 31
0.0
  0
LINE
  8
0
  6
CONTINUOUS
 62
     6
 10
258.814412943
 20
1369.930748456
 30
0.0
 11
258.814412943
 21
1318.373746261
 31
0.0
  0
LINE
  8
0
  6
CONTINUOUS
 62
     6
 10
437.401512307
 20
1327.888429558
 30
0.0
 11
437.401512307
 21
1318.373746261
 31
0.0
  0
LINE
  8
0
  6
CONTINUOUS
 62
     6
 10
411.889069541
 20
1340.914353908
 30
0.0
 11
411.889069541
 21
1318.373746261
 31
0.0
  0
LINE
  8
0
  6
CONTINUOUS
 62
     6
 10
386.376626774
 20
1318.373746261
 30
0.0
 11
386.376626774
 21
1369.930748456
 31
0.0
  0
LINE
  8
0
  6
CONTINUOUS
 62
     6
 10
310.082620348
 20
1354.053529485
 30
0.0
 11
313.840510911
 21
1332.611876105
 31
0.0
  0
LINE
  8
0
  6
CONTINUOUS
 62
     6
 10
314.619895007
 20
1354.809741928
 30
0.0
 11
318.378081089
 21
1333.368137801
 31
0.0
  0
LINE
  8
0
  6
CONTINUOUS
 62
     6
 10
313.840510911
 20
1332.611876105
 30
0.0
 11
318.378081089
 21
1333.368137801
 31
0.0
  0
CIRCLE
  8
0
  6
CONTINUOUS
 62
     6
 10
309.839298476
 20
1331.824635014
 30
0.0
 40
3.936205455
  0
CIRCLE
  8
0
  6
CONTINUOUS
 62
     6
 10
330.198227803
 20
1340.914353908
 30
0.0
 40
3.936205455
  0
LINE
  8
0
  6
CONTINUOUS
 62
     6
 10
334.134433259
 20
1340.914353908
 30
0.0
 11
335.351741242
 21
1340.914353908
 31
0.0
  0
LINE
  8
0
  6
CONTINUOUS
 62
     6
 10
309.839298476
 20
1327.888429558
 30
0.0
 11
309.839298476
 21
1318.373746261
 31
0.0
  0
LINE
  8
0
  6
CONTINUOUS
 62
     6
 10
335.351741242
 20
1340.914353908
 30
0.0
 11
335.351741242
 21
1318.373746261
 31
0.0
  0
LINE
  8
0
  6
CONTINUOUS
 62
     6
 10
360.864184008
 20
1318.373746261
 30
0.0
 11
360.864184008
 21
1369.930748456
 31
0.0
  0
LINE
  8
0
  6
CONTINUOUS
 62
     2
 10
450.15773369
 20
1318.373746261
 30
0.0
 11
450.15773369
 21
1296.505938175
 31
0.0
  0
LINE
  8
0
  6
CONTINUOUS
 62
     2
 10
246.05819156
 20
1318.373746261
 30
0.0
 11
246.05819156
 21
1296.505938175
 31
0.0
  0
LINE
  8
0
  6
CONTINUOUS
 62
     2
 10
271.570634326
 20
1318.373746261
 30
0.0
 11
271.570634326
 21
1296.505938175
 31
0.0
  0
LINE
  8
0
  6
CONTINUOUS
 62
     2
 10
297.083077093
 20
1318.373746261
 30
0.0
 11
297.083077093
 21
1296.505938175
 31
0.0
  0
LINE
  8
0
  6
CONTINUOUS
 62
     2
 10
322.595519859
 20
1318.373746261
 30
0.0
 11
322.595519859
 21
1296.505938175
 31
0.0
  0
LINE
  8
0
  6
CONTINUOUS
 62
     2
 10
195.033306028
 20
1318.373746261
 30
0.0
 11
195.033306028
 21
1296.505938175
 31
0.0
  0
LINE
  8
0
  6
CONTINUOUS
 62
     2
 10
220.545748794
 20
1318.373746261
 30
0.0
 11
220.545748794
 21
1296.505938175
 31
0.0
  0
LINE
  8
0
  6
CONTINUOUS
 62
     2
 10
144.008420495
 20
1318.373746261
 30
0.0
 11
450.15773369
 21
1318.373746261
 31
0.0
  0
LINE
  8
0
  6
CONTINUOUS
 62
     2
 10
144.008420495
 20
1296.505938175
 30
0.0
 11
450.15773369
 21
1296.505938175
 31
0.0
  0
CIRCLE
  8
0
  6
CONTINUOUS
 62
     6
 10
284.326855709
 20
1358.080583255
 30
0.0
 40
3.936205455
  0
LINE
  8
0
  6
CONTINUOUS
 62
     6
 10
284.083533837
 20
1354.053529485
 30
0.0
 11
279.546259178
 21
1354.809741928
 31
0.0
  0
LINE
  8
0
  6
CONTINUOUS
 62
     6
 10
284.326855709
 20
1362.01678871
 30
0.0
 11
284.326855709
 21
1369.930748456
 31
0.0
  0
LINE
  8
0
  6
CONTINUOUS
 62
     6
 10
284.326855709
 20
1369.930748456
 30
0.0
 11
258.814412943
 21
1369.930748456
 31
0.0
  0
LINE
  8
0
  6
CONTINUOUS
 62
     6
 10
437.401512307
 20
1369.930748456
 30
0.0
 11
386.376626774
 21
1369.930748456
 31
0.0
  0
CIRCLE
  8
0
  6
CONTINUOUS
 62
     6
 10
437.401512307
 20
1358.080583255
 30
0.0
 40
3.936205455
  0
LINE
  8
0
  6
CONTINUOUS
 62
     6
 10
437.158190434
 20
1354.053529485
 30
0.0
 11
432.620915776
 21
1354.809741928
 31
0.0
  0
LINE
  8
0
  6
CONTINUOUS
 62
     6
 10
437.401512307
 20
1362.01678871
 30
0.0
 11
437.401512307
 21
1369.930748456
 31
0.0
  0
CIRCLE
  8
0
  6
CONTINUOUS
 62
     6
 10
309.839298476
 20
1358.080583255
 30
0.0
 40
3.936205455
  0
LINE
  8
0
  6
CONTINUOUS
 62
     6
 10
310.082620348
 20
1354.053529485
 30
0.0
 11
314.619895007
 21
1354.809741928
 31
0.0
  0
LINE
  8
0
  6
CONTINUOUS
 62
     6
 10
309.839298476
 20
1362.01678871
 30
0.0
 11
309.839298476
 21
1369.930748456
 31
0.0
  0
LINE
  8
0
  6
CONTINUOUS
 62
     6
 10
360.864184008
 20
1369.930748456
 30
0.0
 11
309.839298476
 21
1369.930748456
 31
0.0
  0
TEXT
  8
0
  6
CONTINUOUS
 62
     6
 10
256.561199775
 20
1374.269123594
 30
0.78624
 40
11.232
  1
ＬＳＡ
 50
0.0
 41
0.8
 51
0.0
  7
KANJI49
  0
TEXT
  8
0
  6
CONTINUOUS
 62
     6
 10
314.411810691
 20
1374.269123594
 30
0.78624
 40
11.232
  1
ＬＳ０１
 50
0.0
 41
0.8
 51
0.0
  7
KANJI49
  0
TEXT
  8
0
  6
CONTINUOUS
 62
     6
 10
393.72718699
 20
1374.269123594
 30
0.78624
 40
11.232
  1
ＬＳ０２
 50
0.0
 41
0.8
 51
0.0
  7
KANJI49
  0
TEXT
  8
0
  6
CONTINUOUS
 62
     6
 10
343.338781457
 20
1273.486688026
 30
0.78624
 40
11.232
  1
ＬＳ１２
 50
0.0
 41
0.8
 51
0.0
  7
KANJI49
  0
TEXT
  8
0
  6
CONTINUOUS
 62
     6
 10
264.023405158
 20
1273.486688026
 30
0.78624
 40
11.232
  1
ＬＳ１１
 50
0.0
 41
0.8
 51
0.0
  7
KANJI49
  0
LINE
  8
0
  6
CONTINUOUS
 62
     2
 10
246.05819156
 20
1217.935916515
 30
0.0
 11
246.05819156
 21
1196.068108429
 31
0.0
  0
LINE
  8
0
  6
CONTINUOUS
 62
     2
 10
220.545748794
 20
1217.935916515
 30
0.0
 11
220.545748794
 21
1196.068108429
 31
0.0
  0
LINE
  8
0
  6
CONTINUOUS
 62
     2
 10
195.033306028
 20
1217.935916515
 30
0.0
 11
195.033306028
 21
1196.068108429
 31
0.0
  0
LINE
  8
0
  6
CONTINUOUS
 62
     2
 10
271.570634326
 20
1217.935916515
 30
0.0
 11
271.570634326
 21
1196.068108429
 31
0.0
  0
LINE
  8
0
  6
CONTINUOUS
 62
     2
 10
297.083077093
 20
1217.935916515
 30
0.0
 11
297.083077093
 21
1196.068108429
 31
0.0
  0
LINE
  8
0
  6
CONTINUOUS
 62
     2
 10
322.595519859
 20
1217.935916515
 30
0.0
 11
322.595519859
 21
1196.068108429
 31
0.0
  0
LINE
  8
0
  6
CONTINUOUS
 62
     2
 10
348.107962625
 20
1217.935916515
 30
0.0
 11
348.107962625
 21
1196.068108429
 31
0.0
  0
LINE
  8
0
  6
CONTINUOUS
 62
     2
 10
373.620405391
 20
1217.935916515
 30
0.0
 11
373.620405391
 21
1196.068108429
 31
0.0
  0
LINE
  8
0
  6
CONTINUOUS
 62
     6
 10
262.815625379
 20
1232.174046359
 30
0.0
 11
267.353195556
 21
1232.930308055
 31
0.0
  0
CIRCLE
  8
0
  6
CONTINUOUS
 62
     6
 10
258.814412943
 20
1231.386805268
 30
0.0
 40
3.936205455
  0
CIRCLE
  8
0
  6
CONTINUOUS
 62
     6
 10
279.173342271
 20
1240.476524162
 30
0.0
 40
3.936205455
  0
LINE
  8
0
  6
CONTINUOUS
 62
     6
 10
283.109547726
 20
1240.476524162
 30
0.0
 11
284.326855709
 21
1240.476524162
 31
0.0
  0
LINE
  8
0
  6
CONTINUOUS
 62
     6
 10
258.814412943
 20
1227.450599813
 30
0.0
 11
258.814412943
 21
1217.935916515
 31
0.0
  0
LINE
  8
0
  6
CONTINUOUS
 62
     6
 10
284.326855709
 20
1240.476524162
 30
0.0
 11
284.326855709
 21
1217.935916515
 31
0.0
  0
LINE
  8
0
  6
CONTINUOUS
 62
     6
 10
382.375414339
 20
1232.174046359
 30
0.0
 11
377.837844161
 21
1232.930308055
 31
0.0
  0
CIRCLE
  8
0
  6
CONTINUOUS
 62
     6
 10
386.376626774
 20
1231.386805268
 30
0.0
 40
3.936205455
  0
CIRCLE
  8
0
  6
CONTINUOUS
 62
     6
 10
366.017697447
 20
1240.476524162
 30
0.0
 40
3.936205455
  0
LINE
  8
0
  6
CONTINUOUS
 62
     6
 10
362.081491992
 20
1240.476524162
 30
0.0
 11
360.864184008
 21
1240.476524162
 31
0.0
  0
LINE
  8
0
  6
CONTINUOUS
 62
     6
 10
386.376626774
 20
1227.450599813
 30
0.0
 11
386.376626774
 21
1217.935916515
 31
0.0
  0
LINE
  8
0
  6
CONTINUOUS
 62
     6
 10
360.864184008
 20
1240.476524162
 30
0.0
 11
360.864184008
 21
1217.935916515
 31
0.0
  0
LINE
  8
0
  6
CONTINUOUS
 62
     2
 10
399.132848158
 20
1217.935916515
 30
0.0
 11
399.132848158
 21
1196.068108429
 31
0.0
  0
LINE
  8
0
  6
CONTINUOUS
 62
     2
 10
195.033306028
 20
1217.935916515
 30
0.0
 11
399.132848158
 21
1217.935916515
 31
0.0
  0
LINE
  8
0
  6
CONTINUOUS
 62
     2
 10
195.033306028
 20
1196.068108429
 30
0.0
 11
399.132848158
 21
1196.068108429
 31
0.0
  0
TEXT
  8
0
  6
CONTINUOUS
 62
     3
 10
252.997767516
 20
1199.02384711
 30
0.0
 40
14.37696
  1
２１　２２　２３　２４　　２５　　２６　　
 50
0.0
 41
0.9125
 51
0.0
  7
KANJI50
  0
LINE
  8
0
  6
CONTINUOUS
 62
     2
 10
144.008420495
 20
1318.373746261
 30
0.0
 11
144.008420495
 21
1296.505938175
 31
0.0
  0
LINE
  8
0
  6
CONTINUOUS
 62
     2
 10
169.520863261
 20
1318.373746261
 30
0.0
 11
169.520863261
 21
1296.505938175
 31
0.0
  0
TEXT
  8
0
  6
CONTINUOUS
 62
     3
 10
149.110909048
 20
1300.150572856
 30
0.0
 40
14.4
  1
　　　　　　　　　　　　４０　４１　１　　２　　　３　　　４　　　５　　　６
 50
0.0
 41
0.911
 51
0.0
  7
KANJI51
  0
TEXT
  8
0
  6
CONTINUOUS
 62
     6
 10
131.408220643
 20
1635.435112111
 30
0.0
 40
13.9932
  1
ＬＳ０１　　　：推力リミッタ（前進時過負荷用）
 50
0.0
 41
0.943315325
 51
0.0
  7
KANJI52
  0
TEXT
  8
0
  6
CONTINUOUS
 62
     6
 10
131.408220643
 20
1602.480112111
 30
0.0
 40
13.9932
  1
ＬＳ０２　　　：推力リミッタ（後進時過負荷用）
 50
0.0
 41
0.943315325
 51
0.0
  7
KANJI52
  0
TEXT
  8
0
  6
CONTINUOUS
 62
     6
 10
131.408220643
 20
1569.525112111
 30
0.0
 40
13.9932
  1
ＬＳＡ　　　　：安全リミットスイッチ
 50
0.0
 41
0.943315325
 51
0.0
  7
KANJI52
  0
TEXT
  8
0
  6
CONTINUOUS
 62
     6
 10
131.408220643
 20
1536.570112111
 30
0.0
 40
13.9932
  1
ＬＳ１１，１２：位置リミットスイッチ　［２カム用］
 50
0.0
 41
0.943315325
 51
0.0
  7
KANJI52
  0
TEXT
  8
0
  6
CONTINUOUS
 62
     6
 10
131.408220643
 20
1503.615112111
 30
0.0
 40
13.9932
  1
ＬＳ１１～１４：位置リミットスイッチ　［４カム用］
 50
0.0
 41
0.943315325
 51
0.0
  7
KANJI52
  0
LINE
  8
0
  6
CONTINUOUS
 62
     6
 10
466.259958074
 20
1631.597311792
 30
0.0
 11
126.717575809
 21
1631.597311792
 31
0.0
  0
LINE
  8
0
  6
CONTINUOUS
 62
     6
 10
466.259958074
 20
1598.642311792
 30
0.0
 11
126.717575809
 21
1598.642311792
 31
0.0
  0
LINE
  8
0
  6
CONTINUOUS
 62
     6
 10
466.259958074
 20
1565.687311792
 30
0.0
 11
126.717575809
 21
1565.687311792
 31
0.0
  0
LINE
  8
0
  6
CONTINUOUS
 62
     6
 10
466.259958074
 20
1532.732311792
 30
0.0
 11
126.717575809
 21
1532.732311792
 31
0.0
  0
LINE
  8
0
  6
CONTINUOUS
 62
     6
 10
466.259958074
 20
1499.777311792
 30
0.0
 11
126.717575809
 21
1499.777311792
 31
0.0
  0
TEXT
  8
0
  6
CONTINUOUS
 62
     6
 10
396.244011737
 20
1423.308448882
 30
0.0
 40
18.0
  1
ポジショナ内端子台配列
 50
0.0
 41
0.9
 51
0.0
  7
KANJI39
  0
TEXT
  8
0
  6
CONTINUOUS
 62
     6
 10
123.814567657
 20
1126.299357623
 30
1.82231734
 40
18.223173404
  1
エコノストップモータ
 50
0.0
 41
0.66671875
 51
0.0
  7
KANJI53
  0
TEXT
  8
0
  6
CONTINUOUS
 62
     6
 10
608.061963977
 20
1166.209618036
 30
0.0
 40
17.031074144
  1
４カム端子台　接続図
 50
0.0
 41
0.880962996
 51
0.0
  7
KANJI48
  0
LINE
  8
0
  6
LTYPE3
 62
     6
 10
867.64
 20
1158.14
 30
0.0
 11
867.64
 21
1664.54
 31
0.0
  0
LINE
  8
0
  6
CONTINUOUS
 62
     2
 10
716.507962625
 20
1318.373746261
 30
0.0
 11
716.507962625
 21
1296.505938175
 31
0.0
  0
LINE
  8
0
  6
CONTINUOUS
 62
     2
 10
742.020405391
 20
1318.373746261
 30
0.0
 11
742.020405391
 21
1296.505938175
 31
0.0
  0
LINE
  8
0
  6
CONTINUOUS
 62
     2
 10
767.532848158
 20
1318.373746261
 30
0.0
 11
767.532848158
 21
1296.505938175
 31
0.0
  0
LINE
  8
0
  6
CONTINUOUS
 62
     2
 10
793.045290924
 20
1318.373746261
 30
0.0
 11
793.045290924
 21
1296.505938175
 31
0.0
  0
LINE
  8
0
  6
CONTINUOUS
 62
     6
 10
652.726855709
 20
1327.888429558
 30
0.0
 11
652.726855709
 21
1318.373746261
 31
0.0
  0
LINE
  8
0
  6
CONTINUOUS
 62
     6
 10
627.214412943
 20
1369.930748456
 30
0.0
 11
627.214412943
 21
1318.373746261
 31
0.0
  0
LINE
  8
0
  6
CONTINUOUS
 62
     6
 10
805.801512307
 20
1327.888429558
 30
0.0
 11
805.801512307
 21
1318.373746261
 31
0.0
  0
LINE
  8
0
  6
CONTINUOUS
 62
     6
 10
780.289069541
 20
1340.914353908
 30
0.0
 11
780.289069541
 21
1318.373746261
 31
0.0
  0
LINE
  8
0
  6
CONTINUOUS
 62
     6
 10
754.776626774
 20
1318.373746261
 30
0.0
 11
754.776626774
 21
1369.930748456
 31
0.0
  0
LINE
  8
0
  6
CONTINUOUS
 62
     6
 10
678.239298476
 20
1327.888429558
 30
0.0
 11
678.239298476
 21
1318.373746261
 31
0.0
  0
LINE
  8
0
  6
CONTINUOUS
 62
     6
 10
703.751741242
 20
1340.914353908
 30
0.0
 11
703.751741242
 21
1318.373746261
 31
0.0
  0
LINE
  8
0
  6
CONTINUOUS
 62
     6
 10
729.264184008
 20
1318.373746261
 30
0.0
 11
729.264184008
 21
1369.930748456
 31
0.0
  0
LINE
  8
0
  6
CONTINUOUS
 62
     2
 10
818.55773369
 20
1318.373746261
 30
0.0
 11
818.55773369
 21
1296.505938175
 31
0.0
  0
LINE
  8
0
  6
CONTINUOUS
 62
     2
 10
614.45819156
 20
1318.373746261
 30
0.0
 11
614.45819156
 21
1296.505938175
 31
0.0
  0
LINE
  8
0
  6
CONTINUOUS
 62
     2
 10
639.970634326
 20
1318.373746261
 30
0.0
 11
639.970634326
 21
1296.505938175
 31
0.0
  0
LINE
  8
0
  6
CONTINUOUS
 62
     2
 10
665.483077093
 20
1318.373746261
 30
0.0
 11
665.483077093
 21
1296.505938175
 31
0.0
  0
LINE
  8
0
  6
CONTINUOUS
 62
     2
 10
690.995519859
 20
1318.373746261
 30
0.0
 11
690.995519859
 21
1296.505938175
 31
0.0
  0
LINE
  8
0
  6
CONTINUOUS
 62
     2
 10
563.433306028
 20
1318.373746261
 30
0.0
 11
563.433306028
 21
1296.505938175
 31
0.0
  0
LINE
  8
0
  6
CONTINUOUS
 62
     2
 10
588.945748794
 20
1318.373746261
 30
0.0
 11
588.945748794
 21
1296.505938175
 31
0.0
  0
LINE
  8
0
  6
CONTINUOUS
 62
     2
 10
512.408420495
 20
1318.373746261
 30
0.0
 11
818.55773369
 21
1318.373746261
 31
0.0
  0
LINE
  8
0
  6
CONTINUOUS
 62
     2
 10
512.408420495
 20
1296.505938175
 30
0.0
 11
818.55773369
 21
1296.505938175
 31
0.0
  0
LINE
  8
0
  6
CONTINUOUS
 62
     2
 10
512.408420495
 20
1318.373746261
 30
0.0
 11
512.408420495
 21
1296.505938175
 31
0.0
  0
LINE
  8
0
  6
CONTINUOUS
 62
     2
 10
537.920863261
 20
1318.373746261
 30
0.0
 11
537.920863261
 21
1296.505938175
 31
0.0
  0
CIRCLE
  8
0
  6
CONTINUOUS
 62
     6
 10
652.726855709
 20
1331.824635014
 30
0.0
 40
3.936205455
  0
LINE
  8
0
  6
CONTINUOUS
 62
     6
 10
652.483533837
 20
1354.053529485
 30
0.0
 11
648.725643274
 21
1332.611876105
 31
0.0
  0
LINE
  8
0
  6
CONTINUOUS
 62
     6
 10
647.946259178
 20
1354.809741928
 30
0.0
 11
644.188073096
 21
1333.368137801
 31
0.0
  0
LINE
  8
0
  6
CONTINUOUS
 62
     6
 10
648.725643274
 20
1332.611876105
 30
0.0
 11
644.188073096
 21
1333.368137801
 31
0.0
  0
CIRCLE
  8
0
  6
CONTINUOUS
 62
     6
 10
785.442582979
 20
1340.914353908
 30
0.0
 40
3.936205455
  0
LINE
  8
0
  6
CONTINUOUS
 62
     6
 10
781.506377524
 20
1340.914353908
 30
0.0
 11
780.289069541
 21
1340.914353908
 31
0.0
  0
LINE
  8
0
  6
CONTINUOUS
 62
     6
 10
805.558190434
 20
1354.053529485
 30
0.0
 11
801.800299871
 21
1332.611876105
 31
0.0
  0
LINE
  8
0
  6
CONTINUOUS
 62
     6
 10
801.020915776
 20
1354.809741928
 30
0.0
 11
797.262729694
 21
1333.368137801
 31
0.0
  0
LINE
  8
0
  6
CONTINUOUS
 62
     6
 10
801.800299871
 20
1332.611876105
 30
0.0
 11
797.262729694
 21
1333.368137801
 31
0.0
  0
CIRCLE
  8
0
  6
CONTINUOUS
 62
     6
 10
805.801512307
 20
1331.824635014
 30
0.0
 40
3.936205455
  0
LINE
  8
0
  6
CONTINUOUS
 62
     6
 10
678.482620348
 20
1354.053529485
 30
0.0
 11
682.240510911
 21
1332.611876105
 31
0.0
  0
LINE
  8
0
  6
CONTINUOUS
 62
     6
 10
683.019895007
 20
1354.809741928
 30
0.0
 11
686.778081089
 21
1333.368137801
 31
0.0
  0
LINE
  8
0
  6
CONTINUOUS
 62
     6
 10
682.240510911
 20
1332.611876105
 30
0.0
 11
686.778081089
 21
1333.368137801
 31
0.0
  0
CIRCLE
  8
0
  6
CONTINUOUS
 62
     6
 10
678.239298476
 20
1331.824635014
 30
0.0
 40
3.936205455
  0
CIRCLE
  8
0
  6
CONTINUOUS
 62
     6
 10
698.598227803
 20
1340.914353908
 30
0.0
 40
3.936205455
  0
LINE
  8
0
  6
CONTINUOUS
 62
     6
 10
702.534433259
 20
1340.914353908
 30
0.0
 11
703.751741242
 21
1340.914353908
 31
0.0
  0
CIRCLE
  8
0
  6
CONTINUOUS
 62
     6
 10
652.726855709
 20
1358.080583255
 30
0.0
 40
3.936205455
  0
LINE
  8
0
  6
CONTINUOUS
 62
     6
 10
652.483533837
 20
1354.053529485
 30
0.0
 11
647.946259178
 21
1354.809741928
 31
0.0
  0
LINE
  8
0
  6
CONTINUOUS
 62
     6
 10
652.726855709
 20
1362.01678871
 30
0.0
 11
652.726855709
 21
1369.930748456
 31
0.0
  0
LINE
  8
0
  6
CONTINUOUS
 62
     6
 10
652.726855709
 20
1369.930748456
 30
0.0
 11
627.214412943
 21
1369.930748456
 31
0.0
  0
LINE
  8
0
  6
CONTINUOUS
 62
     6
 10
805.801512307
 20
1369.930748456
 30
0.0
 11
754.776626774
 21
1369.930748456
 31
0.0
  0
CIRCLE
  8
0
  6
CONTINUOUS
 62
     6
 10
805.801512307
 20
1358.080583255
 30
0.0
 40
3.936205455
  0
LINE
  8
0
  6
CONTINUOUS
 62
     6
 10
805.558190434
 20
1354.053529485
 30
0.0
 11
801.020915776
 21
1354.809741928
 31
0.0
  0
LINE
  8
0
  6
CONTINUOUS
 62
     6
 10
805.801512307
 20
1362.01678871
 30
0.0
 11
805.801512307
 21
1369.930748456
 31
0.0
  0
CIRCLE
  8
0
  6
CONTINUOUS
 62
     6
 10
678.239298476
 20
1358.080583255
 30
0.0
 40
3.936205455
  0
LINE
  8
0
  6
CONTINUOUS
 62
     6
 10
678.482620348
 20
1354.053529485
 30
0.0
 11
683.019895007
 21
1354.809741928
 31
0.0
  0
LINE
  8
0
  6
CONTINUOUS
 62
     6
 10
678.239298476
 20
1362.01678871
 30
0.0
 11
678.239298476
 21
1369.930748456
 31
0.0
  0
LINE
  8
0
  6
CONTINUOUS
 62
     6
 10
729.264184008
 20
1369.930748456
 30
0.0
 11
678.239298476
 21
1369.930748456
 31
0.0
  0
TEXT
  8
0
  6
CONTINUOUS
 62
     6
 10
624.961199775
 20
1374.269123594
 30
0.78624
 40
11.232
  1
ＬＳＡ
 50
0.0
 41
0.8
 51
0.0
  7
KANJI49
  0
TEXT
  8
0
  6
CONTINUOUS
 62
     6
 10
682.811810691
 20
1374.269123594
 30
0.78624
 40
11.232
  1
ＬＳ０１
 50
0.0
 41
0.8
 51
0.0
  7
KANJI49
  0
TEXT
  8
0
  6
CONTINUOUS
 62
     6
 10
762.12718699
 20
1374.269123594
 30
0.78624
 40
11.232
  1
ＬＳ０２
 50
0.0
 41
0.8
 51
0.0
  7
KANJI49
  0
CIRCLE
  8
0
  6
CONTINUOUS
 62
     6
 10
525.164641878
 20
1257.642753509
 30
0.0
 40
3.936205455
  0
LINE
  8
0
  6
CONTINUOUS
 62
     6
 10
525.407963751
 20
1253.615699739
 30
0.0
 11
529.165854314
 21
1232.174046359
 31
0.0
  0
LINE
  8
0
  6
CONTINUOUS
 62
     6
 10
525.407963751
 20
1253.615699739
 30
0.0
 11
529.94523841
 21
1254.371912182
 31
0.0
  0
LINE
  8
0
  6
CONTINUOUS
 62
     6
 10
529.94523841
 20
1254.371912182
 30
0.0
 11
533.703424491
 21
1232.930308055
 31
0.0
  0
LINE
  8
0
  6
CONTINUOUS
 62
     6
 10
525.164641878
 20
1261.578958964
 30
0.0
 11
525.164641878
 21
1269.492918711
 31
0.0
  0
LINE
  8
0
  6
CONTINUOUS
 62
     6
 10
576.189527411
 20
1269.492918711
 30
0.0
 11
525.164641878
 21
1269.492918711
 31
0.0
  0
LINE
  8
0
  6
CONTINUOUS
 62
     6
 10
576.189527411
 20
1217.935916515
 30
0.0
 11
576.189527411
 21
1269.492918711
 31
0.0
  0
CIRCLE
  8
0
  6
CONTINUOUS
 62
     6
 10
652.726855709
 20
1257.642753509
 30
0.0
 40
3.936205455
  0
LINE
  8
0
  6
CONTINUOUS
 62
     6
 10
652.483533837
 20
1253.615699739
 30
0.0
 11
648.725643274
 21
1232.174046359
 31
0.0
  0
LINE
  8
0
  6
CONTINUOUS
 62
     6
 10
652.483533837
 20
1253.615699739
 30
0.0
 11
647.946259178
 21
1254.371912182
 31
0.0
  0
LINE
  8
0
  6
CONTINUOUS
 62
     6
 10
647.946259178
 20
1254.371912182
 30
0.0
 11
644.188073096
 21
1232.930308055
 31
0.0
  0
LINE
  8
0
  6
CONTINUOUS
 62
     6
 10
652.726855709
 20
1261.578958964
 30
0.0
 11
652.726855709
 21
1269.492918711
 31
0.0
  0
LINE
  8
0
  6
CONTINUOUS
 62
     6
 10
601.701970177
 20
1269.492918711
 30
0.0
 11
652.726855709
 21
1269.492918711
 31
0.0
  0
LINE
  8
0
  6
CONTINUOUS
 62
     6
 10
601.701970177
 20
1217.935916515
 30
0.0
 11
601.701970177
 21
1269.492918711
 31
0.0
  0
TEXT
  8
0
  6
CONTINUOUS
 62
     6
 10
609.689010392
 20
1273.486688026
 30
0.78624
 40
11.232
  1
ＬＳ１２
 50
0.0
 41
0.8
 51
0.0
  7
KANJI49
  0
TEXT
  8
0
  6
CONTINUOUS
 62
     6
 10
530.373634093
 20
1273.486688026
 30
0.78624
 40
11.232
  1
ＬＳ１１
 50
0.0
 41
0.8
 51
0.0
  7
KANJI49
  0
LINE
  8
0
  6
CONTINUOUS
 62
     2
 10
512.408420495
 20
1217.935916515
 30
0.0
 11
512.408420495
 21
1196.068108429
 31
0.0
  0
LINE
  8
0
  6
CONTINUOUS
 62
     2
 10
537.920863261
 20
1217.935916515
 30
0.0
 11
537.920863261
 21
1196.068108429
 31
0.0
  0
LINE
  8
0
  6
CONTINUOUS
 62
     2
 10
563.433306028
 20
1217.935916515
 30
0.0
 11
563.433306028
 21
1196.068108429
 31
0.0
  0
LINE
  8
0
  6
CONTINUOUS
 62
     2
 10
588.945748794
 20
1217.935916515
 30
0.0
 11
588.945748794
 21
1196.068108429
 31
0.0
  0
LINE
  8
0
  6
CONTINUOUS
 62
     2
 10
614.45819156
 20
1217.935916515
 30
0.0
 11
614.45819156
 21
1196.068108429
 31
0.0
  0
LINE
  8
0
  6
CONTINUOUS
 62
     2
 10
639.970634326
 20
1217.935916515
 30
0.0
 11
639.970634326
 21
1196.068108429
 31
0.0
  0
LINE
  8
0
  6
CONTINUOUS
 62
     6
 10
529.165854314
 20
1232.174046359
 30
0.0
 11
533.703424491
 21
1232.930308055
 31
0.0
  0
CIRCLE
  8
0
  6
CONTINUOUS
 62
     6
 10
525.164641878
 20
1231.386805268
 30
0.0
 40
3.936205455
  0
CIRCLE
  8
0
  6
CONTINUOUS
 62
     6
 10
545.523571206
 20
1240.476524162
 30
0.0
 40
3.936205455
  0
LINE
  8
0
  6
CONTINUOUS
 62
     6
 10
549.459776661
 20
1240.476524162
 30
0.0
 11
550.677084644
 21
1240.476524162
 31
0.0
  0
LINE
  8
0
  6
CONTINUOUS
 62
     6
 10
525.164641878
 20
1227.450599813
 30
0.0
 11
525.164641878
 21
1217.935916515
 31
0.0
  0
LINE
  8
0
  6
CONTINUOUS
 62
     6
 10
550.677084644
 20
1240.476524162
 30
0.0
 11
550.677084644
 21
1217.935916515
 31
0.0
  0
LINE
  8
0
  6
CONTINUOUS
 62
     6
 10
648.725643274
 20
1232.174046359
 30
0.0
 11
644.188073096
 21
1232.930308055
 31
0.0
  0
CIRCLE
  8
0
  6
CONTINUOUS
 62
     6
 10
652.726855709
 20
1231.386805268
 30
0.0
 40
3.936205455
  0
CIRCLE
  8
0
  6
CONTINUOUS
 62
     6
 10
632.367926382
 20
1240.476524162
 30
0.0
 40
3.936205455
  0
LINE
  8
0
  6
CONTINUOUS
 62
     6
 10
628.431720927
 20
1240.476524162
 30
0.0
 11
627.214412943
 21
1240.476524162
 31
0.0
  0
LINE
  8
0
  6
CONTINUOUS
 62
     6
 10
652.726855709
 20
1227.450599813
 30
0.0
 11
652.726855709
 21
1217.935916515
 31
0.0
  0
LINE
  8
0
  6
CONTINUOUS
 62
     6
 10
627.214412943
 20
1240.476524162
 30
0.0
 11
627.214412943
 21
1217.935916515
 31
0.0
  0
LINE
  8
0
  6
CONTINUOUS
 62
     2
 10
665.483077093
 20
1217.935916515
 30
0.0
 11
665.483077093
 21
1196.068108429
 31
0.0
  0
TEXT
  8
0
  6
CONTINUOUS
 62
     3
 10
519.347996451
 20
1199.02384711
 30
0.0
 40
14.37696
  1
２１　２２　２３　２４　　２５　　２６　　
 50
0.0
 41
0.9125
 51
0.0
  7
KANJI50
  0
LINE
  8
0
  6
CONTINUOUS
 62
     2
 10
512.408420495
 20
1196.068108429
 30
0.0
 11
665.483077093
 21
1196.068108429
 31
0.0
  0
LINE
  8
0
  6
CONTINUOUS
 62
     2
 10
512.408420495
 20
1217.935916515
 30
0.0
 11
665.483077093
 21
1217.935916515
 31
0.0
  0
CIRCLE
  8
0
  6
CONTINUOUS
 62
     6
 10
678.239298476
 20
1257.642753509
 30
0.0
 40
3.936205455
  0
LINE
  8
0
  6
CONTINUOUS
 62
     6
 10
678.482620348
 20
1253.615699739
 30
0.0
 11
682.240510911
 21
1232.174046359
 31
0.0
  0
LINE
  8
0
  6
CONTINUOUS
 62
     6
 10
678.482620348
 20
1253.615699739
 30
0.0
 11
683.019895007
 21
1254.371912182
 31
0.0
  0
LINE
  8
0
  6
CONTINUOUS
 62
     6
 10
683.019895007
 20
1254.371912182
 30
0.0
 11
686.778081089
 21
1232.930308055
 31
0.0
  0
LINE
  8
0
  6
CONTINUOUS
 62
     6
 10
678.239298476
 20
1261.578958964
 30
0.0
 11
678.239298476
 21
1269.492918711
 31
0.0
  0
LINE
  8
0
  6
CONTINUOUS
 62
     6
 10
729.264184008
 20
1269.492918711
 30
0.0
 11
678.239298476
 21
1269.492918711
 31
0.0
  0
LINE
  8
0
  6
CONTINUOUS
 62
     6
 10
729.264184008
 20
1217.935916515
 30
0.0
 11
729.264184008
 21
1269.492918711
 31
0.0
  0
CIRCLE
  8
0
  6
CONTINUOUS
 62
     6
 10
805.801512307
 20
1257.642753509
 30
0.0
 40
3.936205455
  0
LINE
  8
0
  6
CONTINUOUS
 62
     6
 10
805.558190434
 20
1253.615699739
 30
0.0
 11
801.800299871
 21
1232.174046359
 31
0.0
  0
LINE
  8
0
  6
CONTINUOUS
 62
     6
 10
805.558190434
 20
1253.615699739
 30
0.0
 11
801.020915776
 21
1254.371912182
 31
0.0
  0
LINE
  8
0
  6
CONTINUOUS
 62
     6
 10
801.020915776
 20
1254.371912182
 30
0.0
 11
797.262729694
 21
1232.930308055
 31
0.0
  0
LINE
  8
0
  6
CONTINUOUS
 62
     6
 10
805.801512307
 20
1261.578958964
 30
0.0
 11
805.801512307
 21
1269.492918711
 31
0.0
  0
LINE
  8
0
  6
CONTINUOUS
 62
     6
 10
754.776626774
 20
1269.492918711
 30
0.0
 11
805.801512307
 21
1269.492918711
 31
0.0
  0
LINE
  8
0
  6
CONTINUOUS
 62
     6
 10
754.776626774
 20
1217.935916515
 30
0.0
 11
754.776626774
 21
1269.492918711
 31
0.0
  0
LINE
  8
0
  6
CONTINUOUS
 62
     2
 10
690.995519859
 20
1217.935916515
 30
0.0
 11
690.995519859
 21
1196.068108429
 31
0.0
  0
LINE
  8
0
  6
CONTINUOUS
 62
     2
 10
716.507962625
 20
1217.935916515
 30
0.0
 11
716.507962625
 21
1196.068108429
 31
0.0
  0
LINE
  8
0
  6
CONTINUOUS
 62
     2
 10
742.020405391
 20
1217.935916515
 30
0.0
 11
742.020405391
 21
1196.068108429
 31
0.0
  0
LINE
  8
0
  6
CONTINUOUS
 62
     2
 10
767.532848158
 20
1217.935916515
 30
0.0
 11
767.532848158
 21
1196.068108429
 31
0.0
  0
LINE
  8
0
  6
CONTINUOUS
 62
     2
 10
793.045290924
 20
1217.935916515
 30
0.0
 11
793.045290924
 21
1196.068108429
 31
0.0
  0
LINE
  8
0
  6
CONTINUOUS
 62
     6
 10
682.240510911
 20
1232.174046359
 30
0.0
 11
686.778081089
 21
1232.930308055
 31
0.0
  0
CIRCLE
  8
0
  6
CONTINUOUS
 62
     6
 10
678.239298476
 20
1231.386805268
 30
0.0
 40
3.936205455
  0
CIRCLE
  8
0
  6
CONTINUOUS
 62
     6
 10
698.598227803
 20
1240.476524162
 30
0.0
 40
3.936205455
  0
LINE
  8
0
  6
CONTINUOUS
 62
     6
 10
702.534433259
 20
1240.476524162
 30
0.0
 11
703.751741242
 21
1240.476524162
 31
0.0
  0
LINE
  8
0
  6
CONTINUOUS
 62
     6
 10
678.239298476
 20
1227.450599813
 30
0.0
 11
678.239298476
 21
1217.935916515
 31
0.0
  0
LINE
  8
0
  6
CONTINUOUS
 62
     6
 10
703.751741242
 20
1240.476524162
 30
0.0
 11
703.751741242
 21
1217.935916515
 31
0.0
  0
LINE
  8
0
  6
CONTINUOUS
 62
     6
 10
801.800299871
 20
1232.174046359
 30
0.0
 11
797.262729694
 21
1232.930308055
 31
0.0
  0
CIRCLE
  8
0
  6
CONTINUOUS
 62
     6
 10
805.801512307
 20
1231.386805268
 30
0.0
 40
3.936205455
  0
CIRCLE
  8
0
  6
CONTINUOUS
 62
     6
 10
785.44258298
 20
1240.476524162
 30
0.0
 40
3.936205455
  0
LINE
  8
0
  6
CONTINUOUS
 62
     6
 10
781.506377524
 20
1240.476524162
 30
0.0
 11
780.289069541
 21
1240.476524162
 31
0.0
  0
LINE
  8
0
  6
CONTINUOUS
 62
     6
 10
805.801512307
 20
1227.450599813
 30
0.0
 11
805.801512307
 21
1217.935916515
 31
0.0
  0
LINE
  8
0
  6
CONTINUOUS
 62
     6
 10
780.289069541
 20
1240.476524162
 30
0.0
 11
780.289069541
 21
1217.935916515
 31
0.0
  0
LINE
  8
0
  6
CONTINUOUS
 62
     2
 10
818.55773369
 20
1217.935916515
 30
0.0
 11
818.55773369
 21
1196.068108429
 31
0.0
  0
LINE
  8
0
  6
CONTINUOUS
 62
     2
 10
665.483077093
 20
1196.068108429
 30
0.0
 11
818.55773369
 21
1196.068108429
 31
0.0
  0
LINE
  8
0
  6
CONTINUOUS
 62
     2
 10
665.483077093
 20
1217.935916515
 30
0.0
 11
818.55773369
 21
1217.935916515
 31
0.0
  0
TEXT
  8
0
  6
CONTINUOUS
 62
     3
 10
672.422653048
 20
1199.02384711
 30
0.0
 40
14.37696
  1
２７　２８　２９　３０　　３１　　３２　　
 50
0.0
 41
0.9125
 51
0.0
  7
KANJI50
  0
TEXT
  8
0
  6
CONTINUOUS
 62
     6
 10
683.448290691
 20
1273.486688026
 30
0.78624
 40
11.232
  1
ＬＳ１３
 50
0.0
 41
0.8
 51
0.0
  7
KANJI49
  0
TEXT
  8
0
  6
CONTINUOUS
 62
     6
 10
762.76366699
 20
1273.486688026
 30
0.78624
 40
11.232
  1
ＬＳ１４
 50
0.0
 41
0.8
 51
0.0
  7
KANJI49
  0
LINE
  8
0
  6
LTYPE3
 62
     2
 10
479.92
 20
1382.3
 30
0.0
 11
479.92
 21
1166.3
 31
0.0
  0
TEXT
  8
0
  6
CONTINUOUS
 62
     3
 10
517.510909048
 20
1300.150572856
 30
0.0
 40
14.4
  1
　　　　　　　　４０　４１　１　　２　　　３　　　４　　　５　　　６
 50
0.0
 41
0.911
 51
0.0
  7
KANJI51
  0
LINE
  8
0
  6
LTYPE3
 62
     6
 10
267.996315633
 20
1115.9
 30
0.0
 11
111.52
 21
1115.9
 31
0.0
  0
CIRCLE
  8
0
  6
CONTINUOUS
 62
     6
 10
111.52
 20
1092.282767268
 30
0.0
 40
5.24827394
  0
LINE
  8
0
  6
CONTINUOUS
 62
     6
 10
105.490259572
 20
1086.25302684
 30
0.0
 11
117.7362321
 21
1098.498999368
 31
0.0
  0
CIRCLE
  8
0
  6
CONTINUOUS
 62
     6
 10
165.31480789
 20
1061.667835948
 30
0.0
 40
21.867808085
  0
TEXT
  8
0
  6
CONTINUOUS
 62
     6
 10
156.130328494
 20
1051.171288067
 30
2.186780809
 40
21.867808085
  1
Ｍ
 50
0.0
 41
0.9
 51
0.0
  7
KANJI54
  0
LINE
  8
0
  6
CONTINUOUS
 62
     6
 10
136.449301217
 20
1031.052904629
 30
0.0
 11
150.00734223
 21
1046.79772645
 31
0.0
  0
LINE
  8
0
  6
CONTINUOUS
 62
     6
 10
136.449301217
 20
1092.282767268
 30
0.0
 11
150.00734223
 21
1076.537945446
 31
0.0
  0
LINE
  8
0
  6
CONTINUOUS
 62
     6
 10
136.449301217
 20
1092.282767268
 30
0.0
 11
116.76827394
 21
1092.282767268
 31
0.0
  0
LINE
  8
0
  6
CONTINUOUS
 62
     6
 10
143.884355966
 20
1061.667835948
 30
0.0
 11
116.76827394
 21
1061.667835948
 31
0.0
  0
LINE
  8
0
  6
CONTINUOUS
 62
     6
 10
136.449301217
 20
1031.052904629
 30
0.0
 11
116.76827394
 21
1031.052904629
 31
0.0
  0
CIRCLE
  8
0
  6
CONTINUOUS
 62
     6
 10
111.52
 20
1061.667835948
 30
0.0
 40
5.24827394
  0
LINE
  8
0
  6
CONTINUOUS
 62
     6
 10
105.490259572
 20
1055.638095521
 30
0.0
 11
117.7362321
 21
1067.884068048
 31
0.0
  0
CIRCLE
  8
0
  6
CONTINUOUS
 62
     6
 10
111.52
 20
1031.052904629
 30
0.0
 40
5.24827394
  0
LINE
  8
0
  6
CONTINUOUS
 62
     6
 10
105.490259572
 20
1025.023164201
 30
0.0
 11
117.7362321
 21
1037.269136729
 31
0.0
  0
LINE
  8
0
  6
LTYPE3
 62
     6
 10
267.996315633
 20
1001.405921469
 30
0.0
 11
111.52
 21
1001.405921469
 31
0.0
  0
TEXT
  8
0
  6
CONTINUOUS
 62
     2
 10
117.634472037
 20
971.154685773
 30
0.0
 40
18.72
  1
モーター結線図
 50
0.0
 41
0.925
 51
0.0
  7
KANJI55
  0
TEXT
  8
0
  6
CONTINUOUS
 62
     6
 10
196.804451533
 20
1051.761718886
 30
1.749424647
 40
17.494246468
  1
Ｂ
 50
0.0
 41
0.9
 51
0.0
  7
KANJI56
  0
CIRCLE
  8
0
  6
CONTINUOUS
 62
     6
 10
204.676862444
 20
1061.667835948
 30
0.0
 40
17.494246468
  0
LINE
  8
0
  6
LTYPE3
 62
     6
 10
267.996315633
 20
1001.405921469
 30
0.0
 11
267.996315633
 21
1115.9
 31
0.0
  0
LINE
  8
0
  6
LTYPE3
 62
     6
 10
111.52
 20
1115.9
 30
0.0
 11
111.52
 21
1096.218972723
 31
0.0
  0
TEXT
  8
0
  6
CONTINUOUS
 62
     6
 10
90.478309109
 20
1099.717822017
 30
1.312068485
 40
13.120684851
  1
Ｕ
 50
0.0
 41
0.9
 51
0.0
  7
KANJI57
  0
TEXT
  8
0
  6
CONTINUOUS
 62
     6
 10
91.790377594
 20
1068.665534536
 30
1.312068485
 40
13.120684851
  1
Ｖ
 50
0.0
 41
0.9
 51
0.0
  7
KANJI57
  0
TEXT
  8
0
  6
CONTINUOUS
 62
     6
 10
93.102446079
 20
1037.613247054
 30
1.312068485
 40
13.120684851
  1
Ｗ
 50
0.0
 41
0.9
 51
0.0
  7
KANJI57
  0
LINE
  8
0
  6
LTYPE3
 62
     6
 10
111.52
 20
1087.471849489
 30
0.0
 11
111.52
 21
1065.604041404
 31
0.0
  0
LINE
  8
0
  6
LTYPE3
 62
     6
 10
111.52
 20
1056.85691817
 30
0.0
 11
111.52
 21
1036.301178569
 31
0.0
  0
LINE
  8
0
  6
LTYPE3
 62
     6
 10
111.52
 20
1025.804630688
 30
0.0
 11
111.52
 21
1001.405921469
 31
0.0
  0
TEXT
  8
2
  6
CONTINUOUS
 62
     3
 10
100.8
 20
903.0
 30
0.0
 40
18.0
  1
手動軸カバー
 50
0.0
 41
0.9
 51
0.0
  7
KANJI39
  0
LINE
  8
2
  6
CONTINUOUS
 62
     2
 10
198.898203593
 20
897.0
 30
0.0
 11
100.8
 21
897.0
 31
0.0
  0
TEXT
  8
0
  6
CONTINUOUS
 62
     2
 10
353.62
 20
661.24
 30
5.0
 40
20.0
  1
銘板
 50
270.0
 41
0.925
 51
0.0
  7
KANJI58
  0
LINE
  8
0
  6
CONTINUOUS
 62
     1
 10
348.62
 20
672.24
 30
0.0
 11
348.62
 21
602.24
 31
0.0
  0
LINE
  8
0
  6
CONTINUOUS
 62
     1
 10
391.62
 20
672.24
 30
0.0
 11
348.62
 21
672.24
 31
0.0
  0
LINE
  8
0
  6
CONTINUOUS
 62
     1
 10
391.62
 20
602.24
 30
0.0
 11
348.62
 21
602.24
 31
0.0
  0
LINE
  8
0
  6
CONTINUOUS
 62
     1
 10
391.62
 20
672.24
 30
0.0
 11
391.62
 21
602.24
 31
0.0
  0
LINE
  8
0
  6
CONTINUOUS
 62
     2
 10
554.003319123
 20
196.733311846
 30
0.0
 11
561.730725733
 21
194.662759485
 31
0.0
  0
LINE
  8
0
  6
CONTINUOUS
 62
     2
 10
554.003319123
 20
196.733311846
 30
0.0
 11
561.730725733
 21
198.803864207
 31
0.0
  0
LINE
  8
0
  6
CONTINUOUS
 62
     2
 10
554.003319123
 20
196.733311846
 30
0.0
 11
691.603319123
 21
196.733311846
 31
0.0
  0
LINE
  8
0
  6
CONTINUOUS
 62
     2
 10
691.603319123
 20
196.733311846
 30
0.0
 11
683.875912513
 21
198.803864207
 31
0.0
  0
LINE
  8
0
  6
CONTINUOUS
 62
     2
 10
691.603319123
 20
196.733311846
 30
0.0
 11
683.875912513
 21
194.662759485
 31
0.0
  0
LINE
  8
0
  6
CONTINUOUS
 62
     2
 10
691.603319123
 20
195.533311846
 30
0.0
 11
691.603319123
 21
192.733311846
 31
0.0
  0
LINE
  8
0
  6
CONTINUOUS
 62
     2
 10
691.603319123
 20
196.733311846
 30
0.0
 11
699.330725733
 21
194.662759485
 31
0.0
  0
LINE
  8
0
  6
CONTINUOUS
 62
     2
 10
691.603319123
 20
196.733311846
 30
0.0
 11
699.330725733
 21
198.803864207
 31
0.0
  0
LINE
  8
0
  6
CONTINUOUS
 62
     2
 10
691.603319123
 20
196.733311846
 30
0.0
 11
894.003319123
 21
196.733311846
 31
0.0
  0
LINE
  8
0
  6
CONTINUOUS
 62
     2
 10
894.003319123
 20
196.733311846
 30
0.0
 11
886.275912513
 21
198.803864207
 31
0.0
  0
LINE
  8
0
  6
CONTINUOUS
 62
     2
 10
894.003319123
 20
196.733311846
 30
0.0
 11
886.275912513
 21
194.662759485
 31
0.0
  0
LINE
  8
0
  6
CONTINUOUS
 62
     2
 10
691.603319123
 20
170.403864207
 30
0.0
 11
683.875912513
 21
172.474416568
 31
0.0
  0
LINE
  8
0
  6
CONTINUOUS
 62
     2
 10
691.603319123
 20
170.403864207
 30
0.0
 11
683.875912513
 21
168.333311846
 31
0.0
  0
LINE
  8
0
  6
CONTINUOUS
 62
     2
 10
679.603319123
 20
170.403864207
 30
0.0
 11
691.603319123
 21
170.403864207
 31
0.0
  0
LINE
  8
0
  6
CONTINUOUS
 62
     2
 10
691.603319123
 20
170.403864207
 30
0.0
 11
712.403319123
 21
170.403864207
 31
0.0
  0
LINE
  8
0
  6
CONTINUOUS
 62
     2
 10
712.403319123
 20
170.403864207
 30
0.0
 11
720.130725733
 21
168.333311846
 31
0.0
  0
LINE
  8
0
  6
CONTINUOUS
 62
     2
 10
712.403319123
 20
170.403864207
 30
0.0
 11
720.130725733
 21
172.474416568
 31
0.0
  0
LINE
  8
0
  6
CONTINUOUS
 62
     2
 10
554.003319123
 20
145.133311846
 30
0.0
 11
554.003319123
 21
139.133311846
 31
0.0
  0
LINE
  8
0
  6
CONTINUOUS
 62
     2
 10
554.003319123
 20
143.133311846
 30
0.0
 11
561.730725733
 21
141.062759485
 31
0.0
  0
LINE
  8
0
  6
CONTINUOUS
 62
     2
 10
554.003319123
 20
143.133311846
 30
0.0
 11
561.730725733
 21
145.203864207
 31
0.0
  0
LINE
  8
0
  6
CONTINUOUS
 62
     2
 10
554.003319123
 20
143.133311846
 30
0.0
 11
712.403319123
 21
143.133311846
 31
0.0
  0
LINE
  8
0
  6
CONTINUOUS
 62
     2
 10
712.403319123
 20
143.133311846
 30
0.0
 11
704.675912513
 21
145.203864207
 31
0.0
  0
LINE
  8
0
  6
CONTINUOUS
 62
     2
 10
712.403319123
 20
143.133311846
 30
0.0
 11
704.675912513
 21
141.062759485
 31
0.0
  0
LINE
  8
0
  6
CONTINUOUS
 62
     2
 10
712.403319123
 20
144.333311846
 30
0.0
 11
712.403319123
 21
139.133311846
 31
0.0
  0
LINE
  8
0
  6
CONTINUOUS
 62
     2
 10
712.403319123
 20
143.133311846
 30
0.0
 11
720.130725733
 21
141.062759485
 31
0.0
  0
LINE
  8
0
  6
CONTINUOUS
 62
     2
 10
712.403319123
 20
143.133311846
 30
0.0
 11
720.130725733
 21
145.203864207
 31
0.0
  0
LINE
  8
0
  6
CONTINUOUS
 62
     2
 10
894.003319123
 20
139.533311846
 30
0.0
 11
894.003319123
 21
139.133311846
 31
0.0
  0
LINE
  8
0
  6
CONTINUOUS
 62
     2
 10
554.003319123
 20
113.933311846
 30
0.0
 11
561.730725733
 21
111.862759485
 31
0.0
  0
LINE
  8
0
  6
CONTINUOUS
 62
     2
 10
554.003319123
 20
113.933311846
 30
0.0
 11
561.730725733
 21
116.003864207
 31
0.0
  0
LINE
  8
0
  6
CONTINUOUS
 62
     2
 10
554.003319123
 20
113.933311846
 30
0.0
 11
871.603319123
 21
113.933311846
 31
0.0
  0
LINE
  8
0
  6
CONTINUOUS
 62
     2
 10
871.603319123
 20
113.933311846
 30
0.0
 11
863.875912513
 21
116.003864207
 31
0.0
  0
LINE
  8
0
  6
CONTINUOUS
 62
     2
 10
871.603319123
 20
113.933311846
 30
0.0
 11
863.875912513
 21
111.862759485
 31
0.0
  0
LINE
  8
0
  6
CONTINUOUS
 62
     2
 10
871.603319123
 20
114.733311846
 30
0.0
 11
871.603319123
 21
109.933311846
 31
0.0
  0
LINE
  8
0
  6
CONTINUOUS
 62
     2
 10
871.603319123
 20
113.933311846
 30
0.0
 11
863.875912513
 21
116.003864207
 31
0.0
  0
LINE
  8
0
  6
CONTINUOUS
 62
     2
 10
871.603319123
 20
113.933311846
 30
0.0
 11
863.875912513
 21
111.862759485
 31
0.0
  0
LINE
  8
0
  6
CONTINUOUS
 62
     2
 10
859.603319123
 20
113.933311846
 30
0.0
 11
871.603319123
 21
113.933311846
 31
0.0
  0
LINE
  8
0
  6
CONTINUOUS
 62
     2
 10
871.603319123
 20
113.933311846
 30
0.0
 11
894.003319123
 21
113.933311846
 31
0.0
  0
LINE
  8
0
  6
CONTINUOUS
 62
     2
 10
894.003319123
 20
113.933311846
 30
0.0
 11
901.730725733
 21
111.862759485
 31
0.0
  0
LINE
  8
0
  6
CONTINUOUS
 62
     2
 10
894.003319123
 20
113.933311846
 30
0.0
 11
901.730725733
 21
116.003864207
 31
0.0
  0
LINE
  8
0
  6
CONTINUOUS
 62
     2
 10
554.003319123
 20
207.533311846
 30
0.0
 11
554.003319123
 21
192.733311846
 31
0.0
  0
LINE
  8
0
  6
CONTINUOUS
 62
     2
 10
894.003319123
 20
207.533311846
 30
0.0
 11
894.003319123
 21
192.733311846
 31
0.0
  0
LINE
  8
0
  6
CONTINUOUS
 62
     2
 10
691.603319123
 20
196.333311846
 30
0.0
 11
691.603319123
 21
207.533311846
 31
0.0
  0
LINE
  8
0
  6
CONTINUOUS
 62
     2
 10
712.403319123
 20
183.203864207
 30
0.0
 11
712.403319123
 21
166.403864207
 31
0.0
  0
LINE
  8
0
  6
CONTINUOUS
 62
     2
 10
554.003319123
 20
192.733311846
 30
0.0
 11
554.003319123
 21
100.733311846
 31
0.0
  0
LINE
  8
0
  6
CONTINUOUS
 62
     2
 10
894.003319123
 20
196.733311846
 30
0.0
 11
894.003319123
 21
101.933311846
 31
0.0
  0
LINE
  8
0
  6
CONTINUOUS
 62
     2
 10
712.403319123
 20
170.403864207
 30
0.0
 11
712.403319123
 21
133.933311846
 31
0.0
  0
LINE
  8
0
  6
CONTINUOUS
 62
     2
 10
691.603319123
 20
196.733311846
 30
0.0
 11
691.603319123
 21
161.133311846
 31
0.0
  0
TEXT
  8
0
  6
CONTINUOUS
 62
     3
 10
595.803319123
 20
198.733311846
 30
0.0
 40
15.0
  1
ｍｉｎ．Ｌ
 50
0.0
 41
0.9
 51
0.0
  7
KANJI59
  0
TEXT
  8
0
  6
CONTINUOUS
 62
     3
 10
749.603319123
 20
198.733311846
 30
0.0
 40
15.0
  1
機械的ストローク
 50
0.0
 41
0.9
 51
0.0
  7
KANJI59
  0
TEXT
  8
0
  6
CONTINUOUS
 62
     3
 10
724.403319123
 20
172.403864207
 30
0.0
 40
15.0
  1
余裕
 50
0.0
 41
0.9
 51
0.0
  7
KANJI59
  0
TEXT
  8
0
  6
CONTINUOUS
 62
     3
 10
606.203319123
 20
145.133311846
 30
0.0
 40
15.0
  1
常用ｍｉｎ
 50
0.0
 41
0.9
 51
0.0
  7
KANJI59
  0
TEXT
  8
0
  6
CONTINUOUS
 62
     3
 10
685.803319123
 20
115.933311846
 30
0.0
 40
15.0
  1
常用ｍａｘ
 50
0.0
 41
0.9
 51
0.0
  7
KANJI59
  0
TEXT
  8
0
  6
CONTINUOUS
 62
     3
 10
906.003319123
 20
115.933311846
 30
0.0
 40
15.0
  1
余裕
 50
0.0
 41
0.9
 51
0.0
  7
KANJI59
  0
LINE
  8
0
  6
CONTINUOUS
 62
     2
 10
712.403319123
 20
170.403864207
 30
0.0
 11
752.503319123
 21
170.403864207
 31
0.0
  0
LINE
  8
0
  6
CONTINUOUS
 62
     2
 10
894.003319123
 20
113.933311846
 30
0.0
 11
936.503319123
 21
113.933311846
 31
0.0
  0
TEXT
  8
0
  6
CONTINUOUS
 62
     2
 10
566.552591263
 20
255.971507451
 30
0.0
 40
20.0
  1
推力リミッタの作動値は、約１２００ｋｇ（設計値）
 50
0.0
 41
0.925
 51
0.0
  7
KANJI60
  0
LINE
  8
0
  6
CONTINUOUS
 62
     2
 10
564.552591263
 20
247.971507451
 30
0.0
 11
995.92
 21
247.971507451
 31
0.0
  0
LINE
  8
0
  6
CONTINUOUS
 62
     2
 10
1700.32
 20
707.0
 30
0.0
 11
1844.32
 21
707.0
 31
0.0
  0
TEXT
  8
0
  6
CONTINUOUS
 62
     2
 10
1706.92
 20
573.2
 30
5.985
 40
21.0
  1
　　カム式位置リミットスイッチ：　４点　　　２点
 50
0.0
 41
0.857222222
 51
0.0
  7
KANJI61
  0
TEXT
  8
0
  6
CONTINUOUS
 62
     2
 10
1712.92
 20
715.4
 30
12.0
 40
24.0
  1
特記事項
 50
0.0
 41
0.9
 51
0.0
  7
KANJI62
  0
TEXT
  8
0
  6
CONTINUOUS
 62
     2
 10
1706.92
 20
678.2
 30
6.0
 40
21.0
  1
１．運転時は必ずピストンロッドの回転防止を行って下さい。
 50
0.0
 41
0.857142857
 51
0.0
  7
KANJI63
  0
TEXT
  8
0
  6
CONTINUOUS
 62
     2
 10
1706.92
 20
603.2
 30
5.985
 40
21.0
  1
３．ポジショナ
 50
0.0
 41
0.857222222
 51
0.0
  7
KANJI61
  0
TEXT
  8
0
  6
CONTINUOUS
 62
     2
 10
1706.92
 20
640.7
 30
5.985
 40
21.0
  1
２．モートル：全閉自冷かご形３０分定格
 50
0.0
 41
0.857222222
 51
0.0
  7
KANJI61
  0
TEXT
  8
0
  6
CONTINUOUS
 62
     2
 10
1706.92
 20
541.4
 30
5.985
 40
21.0
  1
４．呼称ストロークは、機械的ストロークです。
 50
0.0
 41
0.857222222
 51
0.0
  7
KANJI61
  0
TEXT
  8
0
  6
CONTINUOUS
 62
     2
 10
1706.92
 20
507.2
 30
5.985
 40
21.0
  1
　　必ず、常用はストローク両端に余裕を取って器下さい。
 50
0.0
 41
0.857222222
 51
0.0
  7
KANJI61
  0
TEXT
  8
0
  6
CONTINUOUS
 62
     2
 10
1706.92
 20
475.4
 30
5.985
 40
21.0
  1
　　前後の推奨余裕寸法は、各々２５ｍｍです。
 50
0.0
 41
0.857222222
 51
0.0
  7
KANJI61
  0
LINE
  8
0
  6
CONTINUOUS
 62
     2
 10
1099.806676122
 20
959.6
 30
0.0
 11
1087.732603293
 21
962.835238064
 31
0.0
  0
LINE
  8
0
  6
CONTINUOUS
 62
     2
 10
1099.806676122
 20
959.6
 30
0.0
 11
1087.732603293
 21
956.364761936
 31
0.0
  0
LINE
  8
0
  6
CONTINUOUS
 62
     2
 10
1099.806676122
 20
959.6
 30
0.0
 11
1058.806676122
 21
959.6
 31
0.0
  0
TEXT
  8
0
  6
CONTINUOUS
 62
     3
 10
1065.806676122
 20
969.6
 30
0.0
 40
20.0
  1
前進
 50
0.0
 41
0.925
 51
0.0
  7
KANJI60
  0
TEXT
  8
0
  6
CONTINUOUS
 62
     2
 10
1050.133
 20
1544.99
 30
1.617
 40
16.17
  1
注意：サーマルリレー等の選定は、上記の値で選定して下さい。
 50
0.0
 41
0.9
 51
0.0
  7
KANJI64
  0
LINE
  8
0
  6
CONTINUOUS
 62
     2
 10
1040.893
 20
1540.37
 30
0.0
 11
1510.0
 21
1540.37
 31
0.0
  0
LINE
  8
0
  6
CONTINUOUS
 62
     1
 10
1009.12
 20
1502.24
 30
0.0
 11
1786.72
 21
1502.24
 31
0.0
  0
LINE
  8
0
  6
CONTINUOUS
 62
     1
 10
1009.12
 20
1468.64
 30
0.0
 11
1786.72
 21
1468.64
 31
0.0
  0
TEXT
  8
0
  6
CONTINUOUS
 62
     2
 10
1057.12
 20
1478.24
 30
1.536
 40
15.36
  1
形
 50
0.0
 41
0.9
 51
0.0
  7
KANJI65
  0
TEXT
  8
0
  6
CONTINUOUS
 62
     2
 10
1150.72
 20
1478.24
 30
1.536
 40
15.36
  1
式
 50
0.0
 41
0.9
 51
0.0
  7
KANJI65
  0
TEXT
  8
0
  6
CONTINUOUS
 62
     2
 10
1223.2
 20
1477.28
 30
1.44
 40
14.4
  1
ストローク
 50
0.0
 41
0.9
 51
0.0
  7
KANJI66
  0
TEXT
  8
0
  6
CONTINUOUS
 62
     2
 10
1315.36
 20
1476.32
 30
0.0
 40
14.4
  1
ｍｉｎ　
 50
0.0
 41
0.9
 51
0.0
  7
KANJI67
  0
TEXT
  8
0
  6
CONTINUOUS
 62
     2
 10
1411.36
 20
1476.32
 30
0.0
 40
14.4
  1
ｍｉｎ　
 50
0.0
 41
0.9
 51
0.0
  7
KANJI67
  0
TEXT
  8
0
  6
CONTINUOUS
 62
     2
 10
1603.36
 20
1476.32
 30
0.0
 40
14.4
  1
ｍｉｎ　
 50
0.0
 41
0.9
 51
0.0
  7
KANJI67
  0
TEXT
  8
0
  6
CONTINUOUS
 62
     2
 10
1364.32
 20
1477.28
 30
1.68
 40
16.8
  1
ＡＬ
 50
0.0
 41
0.9
 51
0.0
  7
KANJI68
  0
TEXT
  8
0
  6
CONTINUOUS
 62
     2
 10
1460.32
 20
1477.28
 30
1.68
 40
16.8
  1
Ｌ
 50
0.0
 41
0.9
 51
0.0
  7
KANJI68
  0
TEXT
  8
0
  6
CONTINUOUS
 62
     2
 10
1541.92
 20
1477.28
 30
1.68
 40
16.8
  1
Ｃ
 50
0.0
 41
0.9
 51
0.0
  7
KANJI68
  0
TEXT
  8
0
  6
CONTINUOUS
 62
     2
 10
1652.32
 20
1477.28
 30
1.68
 40
16.8
  1
Ｐ
 50
0.0
 41
0.9
 51
0.0
  7
KANJI68
  0
TEXT
  8
0
  6
CONTINUOUS
 62
     2
 10
1751.08
 20
1476.92
 30
0.0
 40
12.96
  1
（ｋｇ）
 50
0.0
 41
0.740740741
 51
0.0
  7
KANJI69
  0
TEXT
  8
0
  6
CONTINUOUS
 62
     2
 10
1693.48
 20
1476.68
 30
1.44
 40
16.8
  1
概算重量
 50
0.0
 41
0.857142857
 51
0.0
  7
KANJI70
  0
TEXT
  8
0
  6
CONTINUOUS
 62
     2
 10
1232.32
 20
1443.08
 30
1.44
 40
14.4
  1
　２００
 50
0.0
 41
0.9
 51
0.0
  7
KANJI66
  0
TEXT
  8
0
  6
CONTINUOUS
 62
     2
 10
1232.32
 20
1409.48
 30
1.44
 40
14.4
  1
　３００
 50
0.0
 41
0.9
 51
0.0
  7
KANJI66
  0
TEXT
  8
0
  6
CONTINUOUS
 62
     2
 10
1232.32
 20
1275.08
 30
1.44
 40
14.4
  1
　７００
 50
0.0
 41
0.9
 51
0.0
  7
KANJI66
  0
TEXT
  8
0
  6
CONTINUOUS
 62
     2
 10
1232.32
 20
1342.28
 30
1.44
 40
14.4
  1
　５００
 50
0.0
 41
0.9
 51
0.0
  7
KANJI66
  0
TEXT
  8
0
  6
CONTINUOUS
 62
     2
 10
1232.32
 20
1375.88
 30
1.44
 40
14.4
  1
　４００
 50
0.0
 41
0.9
 51
0.0
  7
KANJI66
  0
TEXT
  8
0
  6
CONTINUOUS
 62
     2
 10
1232.32
 20
1308.68
 30
1.44
 40
14.4
  1
　６００
 50
0.0
 41
0.9
 51
0.0
  7
KANJI66
  0
TEXT
  8
0
  6
CONTINUOUS
 62
     2
 10
1232.32
 20
1241.48
 30
1.44
 40
14.4
  1
　８００
 50
0.0
 41
0.9
 51
0.0
  7
KANJI66
  0
TEXT
  8
0
  6
CONTINUOUS
 62
     2
 10
1616.32
 20
1443.08
 30
1.44
 40
14.4
  1
　　４５
 50
0.0
 41
0.9
 51
0.0
  7
KANJI66
  0
TEXT
  8
0
  6
CONTINUOUS
 62
     2
 10
1616.32
 20
1409.48
 30
1.44
 40
14.4
  1
　　４５
 50
0.0
 41
0.9
 51
0.0
  7
KANJI66
  0
TEXT
  8
0
  6
CONTINUOUS
 62
     2
 10
1520.32
 20
1443.08
 30
1.44
 40
14.4
  1
　３７８
 50
0.0
 41
0.9
 51
0.0
  7
KANJI66
  0
TEXT
  8
0
  6
CONTINUOUS
 62
     2
 10
1520.32
 20
1409.48
 30
1.44
 40
14.4
  1
　４７８
 50
0.0
 41
0.9
 51
0.0
  7
KANJI66
  0
TEXT
  8
0
  6
CONTINUOUS
 62
     2
 10
1520.32
 20
1375.88
 30
1.44
 40
14.4
  1
　５７８
 50
0.0
 41
0.9
 51
0.0
  7
KANJI66
  0
TEXT
  8
0
  6
CONTINUOUS
 62
     2
 10
1520.32
 20
1342.28
 30
1.44
 40
14.4
  1
　６７８
 50
0.0
 41
0.9
 51
0.0
  7
KANJI66
  0
TEXT
  8
0
  6
CONTINUOUS
 62
     2
 10
1520.32
 20
1308.68
 30
1.44
 40
14.4
  1
　８１８
 50
0.0
 41
0.9
 51
0.0
  7
KANJI66
  0
TEXT
  8
0
  6
CONTINUOUS
 62
     2
 10
1520.32
 20
1275.08
 30
1.44
 40
14.4
  1
　９１８
 50
0.0
 41
0.9
 51
0.0
  7
KANJI66
  0
TEXT
  8
0
  6
CONTINUOUS
 62
     2
 10
1520.32
 20
1241.48
 30
1.44
 40
14.4
  1
１０１８
 50
0.0
 41
0.9
 51
0.0
  7
KANJI66
  0
TEXT
  8
0
  6
CONTINUOUS
 62
     2
 10
1424.32
 20
1443.08
 30
1.44
 40
14.4
  1
　４７３
 50
0.0
 41
0.9
 51
0.0
  7
KANJI66
  0
TEXT
  8
0
  6
CONTINUOUS
 62
     2
 10
1424.32
 20
1409.48
 30
1.44
 40
14.4
  1
　５７３
 50
0.0
 41
0.9
 51
0.0
  7
KANJI66
  0
TEXT
  8
0
  6
CONTINUOUS
 62
     2
 10
1616.32
 20
1375.88
 30
1.44
 40
14.4
  1
　　８５
 50
0.0
 41
0.9
 51
0.0
  7
KANJI66
  0
TEXT
  8
0
  6
CONTINUOUS
 62
     2
 10
1616.32
 20
1342.28
 30
1.44
 40
14.4
  1
　１１２
 50
0.0
 41
0.9
 51
0.0
  7
KANJI66
  0
TEXT
  8
0
  6
CONTINUOUS
 62
     2
 10
1616.32
 20
1308.68
 30
1.44
 40
14.4
  1
　１２８
 50
0.0
 41
0.9
 51
0.0
  7
KANJI66
  0
TEXT
  8
0
  6
CONTINUOUS
 62
     2
 10
1616.32
 20
1275.08
 30
1.44
 40
14.4
  1
　１４８
 50
0.0
 41
0.9
 51
0.0
  7
KANJI66
  0
TEXT
  8
0
  6
CONTINUOUS
 62
     2
 10
1616.32
 20
1241.48
 30
1.44
 40
14.4
  1
　１６８
 50
0.0
 41
0.9
 51
0.0
  7
KANJI66
  0
TEXT
  8
0
  6
CONTINUOUS
 62
     2
 10
1424.32
 20
1375.88
 30
1.44
 40
14.4
  1
　７１３
 50
0.0
 41
0.9
 51
0.0
  7
KANJI66
  0
TEXT
  8
0
  6
CONTINUOUS
 62
     2
 10
1424.32
 20
1342.28
 30
1.44
 40
14.4
  1
　８４０
 50
0.0
 41
0.9
 51
0.0
  7
KANJI66
  0
TEXT
  8
0
  6
CONTINUOUS
 62
     2
 10
1424.32
 20
1308.68
 30
1.44
 40
14.4
  1
　９９６
 50
0.0
 41
0.9
 51
0.0
  7
KANJI66
  0
TEXT
  8
0
  6
CONTINUOUS
 62
     2
 10
1424.32
 20
1275.08
 30
1.44
 40
14.4
  1
１１１６
 50
0.0
 41
0.9
 51
0.0
  7
KANJI66
  0
TEXT
  8
0
  6
CONTINUOUS
 62
     2
 10
1424.32
 20
1241.48
 30
1.44
 40
14.4
  1
１２３６
 50
0.0
 41
0.9
 51
0.0
  7
KANJI66
  0
TEXT
  8
0
  6
CONTINUOUS
 62
     2
 10
1232.32
 20
1207.88
 30
1.44
 40
14.4
  1
　９００
 50
0.0
 41
0.9
 51
0.0
  7
KANJI66
  0
TEXT
  8
0
  6
CONTINUOUS
 62
     2
 10
1232.32
 20
1174.28
 30
1.44
 40
14.4
  1
１０００
 50
0.0
 41
0.9
 51
0.0
  7
KANJI66
  0
TEXT
  8
0
  6
CONTINUOUS
 62
     2
 10
1424.32
 20
1207.88
 30
1.44
 40
14.4
  1
１３６６
 50
0.0
 41
0.9
 51
0.0
  7
KANJI66
  0
TEXT
  8
0
  6
CONTINUOUS
 62
     2
 10
1424.32
 20
1174.28
 30
1.44
 40
14.4
  1
１４９９
 50
0.0
 41
0.9
 51
0.0
  7
KANJI66
  0
TEXT
  8
0
  6
CONTINUOUS
 62
     2
 10
1520.32
 20
1207.88
 30
1.44
 40
14.4
  1
１１１８
 50
0.0
 41
0.9
 51
0.0
  7
KANJI66
  0
TEXT
  8
0
  6
CONTINUOUS
 62
     2
 10
1520.32
 20
1174.28
 30
1.44
 40
14.4
  1
１２１８
 50
0.0
 41
0.9
 51
0.0
  7
KANJI66
  0
TEXT
  8
0
  6
CONTINUOUS
 62
     2
 10
1616.32
 20
1207.88
 30
1.44
 40
14.4
  1
　１９８
 50
0.0
 41
0.9
 51
0.0
  7
KANJI66
  0
TEXT
  8
0
  6
CONTINUOUS
 62
     2
 10
1616.32
 20
1174.28
 30
1.44
 40
14.4
  1
　２３１
 50
0.0
 41
0.9
 51
0.0
  7
KANJI66
  0
LINE
  8
0
  6
CONTINUOUS
 62
     1
 10
1009.12
 20
1065.44
 30
0.0
 11
1786.72
 21
1065.44
 31
0.0
  0
LINE
  8
0
  6
CONTINUOUS
 62
     1
 10
1009.12
 20
1502.24
 30
0.0
 11
1009.12
 21
1065.44
 31
0.0
  0
LINE
  8
0
  6
CONTINUOUS
 62
     1
 10
1210.72
 20
1502.24
 30
0.0
 11
1210.72
 21
1065.44
 31
0.0
  0
LINE
  8
0
  6
CONTINUOUS
 62
     2
 10
1306.72
 20
1502.24
 30
0.0
 11
1306.72
 21
1065.44
 31
0.0
  0
LINE
  8
0
  6
CONTINUOUS
 62
     2
 10
1402.72
 20
1502.24
 30
0.0
 11
1402.72
 21
1065.44
 31
0.0
  0
LINE
  8
0
  6
CONTINUOUS
 62
     2
 10
1498.72
 20
1502.24
 30
0.0
 11
1498.72
 21
1065.44
 31
0.0
  0
LINE
  8
0
  6
CONTINUOUS
 62
     2
 10
1594.72
 20
1502.24
 30
0.0
 11
1594.72
 21
1065.44
 31
0.0
  0
LINE
  8
0
  6
CONTINUOUS
 62
     2
 10
1690.72
 20
1502.24
 30
0.0
 11
1690.72
 21
1065.44
 31
0.0
  0
LINE
  8
0
  6
CONTINUOUS
 62
     1
 10
1786.72
 20
1502.24
 30
0.0
 11
1786.72
 21
1065.44
 31
0.0
  0
TEXT
  8
0
  6
CONTINUOUS
 62
     2
 10
1232.32
 20
1140.68
 30
1.44
 40
14.4
  1
１１００
 50
0.0
 41
0.9
 51
0.0
  7
KANJI66
  0
TEXT
  8
0
  6
CONTINUOUS
 62
     2
 10
1232.32
 20
1107.08
 30
1.44
 40
14.4
  1
１２００
 50
0.0
 41
0.9
 51
0.0
  7
KANJI66
  0
TEXT
  8
0
  6
CONTINUOUS
 62
     2
 10
1616.32
 20
1140.68
 30
1.44
 40
14.4
  1
　２４５
 50
0.0
 41
0.9
 51
0.0
  7
KANJI66
  0
TEXT
  8
0
  6
CONTINUOUS
 62
     2
 10
1616.32
 20
1107.08
 30
1.44
 40
14.4
  1
　２６８
 50
0.0
 41
0.9
 51
0.0
  7
KANJI66
  0
TEXT
  8
0
  6
CONTINUOUS
 62
     2
 10
1520.32
 20
1140.68
 30
1.44
 40
14.4
  1
１３１８
 50
0.0
 41
0.9
 51
0.0
  7
KANJI66
  0
TEXT
  8
0
  6
CONTINUOUS
 62
     2
 10
1520.32
 20
1107.08
 30
1.44
 40
14.4
  1
１４１８
 50
0.0
 41
0.9
 51
0.0
  7
KANJI66
  0
TEXT
  8
0
  6
CONTINUOUS
 62
     2
 10
1424.32
 20
1140.68
 30
1.44
 40
14.4
  1
１６１３
 50
0.0
 41
0.9
 51
0.0
  7
KANJI66
  0
TEXT
  8
0
  6
CONTINUOUS
 62
     2
 10
1424.32
 20
1107.08
 30
1.44
 40
14.4
  1
１７３６
 50
0.0
 41
0.9
 51
0.0
  7
KANJI66
  0
LINE
  8
0
  6
CONTINUOUS
 62
     2
 10
1009.12
 20
1435.04
 30
0.0
 11
1786.72
 21
1435.04
 31
0.0
  0
TEXT
  8
0
  6
CONTINUOUS
 62
     2
 10
1328.32
 20
1443.08
 30
1.44
 40
14.4
  1
　７９１
 50
0.0
 41
0.9
 51
0.0
  7
KANJI66
  0
LINE
  8
0
  6
CONTINUOUS
 62
     2
 10
1009.12
 20
1401.44
 30
0.0
 11
1786.72
 21
1401.44
 31
0.0
  0
LINE
  8
0
  6
CONTINUOUS
 62
     2
 10
1009.12
 20
1233.44
 30
0.0
 11
1786.72
 21
1233.44
 31
0.0
  0
LINE
  8
0
  6
CONTINUOUS
 62
     2
 10
1009.12
 20
1334.24
 30
0.0
 11
1786.72
 21
1334.24
 31
0.0
  0
LINE
  8
0
  6
CONTINUOUS
 62
     2
 10
1009.12
 20
1367.84
 30
0.0
 11
1786.72
 21
1367.84
 31
0.0
  0
LINE
  8
0
  6
CONTINUOUS
 62
     2
 10
1009.12
 20
1267.04
 30
0.0
 11
1786.72
 21
1267.04
 31
0.0
  0
LINE
  8
0
  6
CONTINUOUS
 62
     2
 10
1009.12
 20
1300.64
 30
0.0
 11
1786.72
 21
1300.64
 31
0.0
  0
LINE
  8
0
  6
CONTINUOUS
 62
     2
 10
1009.12
 20
1199.84
 30
0.0
 11
1786.72
 21
1199.84
 31
0.0
  0
LINE
  8
0
  6
CONTINUOUS
 62
     2
 10
1009.12
 20
1166.24
 30
0.0
 11
1786.72
 21
1166.24
 31
0.0
  0
LINE
  8
0
  6
CONTINUOUS
 62
     2
 10
1009.12
 20
1132.64
 30
0.0
 11
1786.72
 21
1132.64
 31
0.0
  0
LINE
  8
0
  6
CONTINUOUS
 62
     2
 10
1009.12
 20
1099.04
 30
0.0
 11
1786.72
 21
1099.04
 31
0.0
  0
TEXT
  8
0
  6
CONTINUOUS
 62
     2
 10
1328.32
 20
1409.48
 30
1.44
 40
14.4
  1
　８９１
 50
0.0
 41
0.9
 51
0.0
  7
KANJI66
  0
TEXT
  8
0
  6
CONTINUOUS
 62
     2
 10
1328.32
 20
1375.88
 30
1.44
 40
14.4
  1
１０３１
 50
0.0
 41
0.9
 51
0.0
  7
KANJI66
  0
TEXT
  8
0
  6
CONTINUOUS
 62
     2
 10
1328.32
 20
1342.28
 30
1.44
 40
14.4
  1
１１５８
 50
0.0
 41
0.9
 51
0.0
  7
KANJI66
  0
TEXT
  8
0
  6
CONTINUOUS
 62
     2
 10
1328.32
 20
1308.68
 30
1.44
 40
14.4
  1
１３１４
 50
0.0
 41
0.9
 51
0.0
  7
KANJI66
  0
TEXT
  8
0
  6
CONTINUOUS
 62
     2
 10
1328.32
 20
1275.08
 30
1.44
 40
14.4
  1
１４３４
 50
0.0
 41
0.9
 51
0.0
  7
KANJI66
  0
TEXT
  8
0
  6
CONTINUOUS
 62
     2
 10
1328.32
 20
1241.48
 30
1.44
 40
14.4
  1
１５５４
 50
0.0
 41
0.9
 51
0.0
  7
KANJI66
  0
TEXT
  8
0
  6
CONTINUOUS
 62
     2
 10
1328.32
 20
1207.88
 30
1.44
 40
14.4
  1
１６８４
 50
0.0
 41
0.9
 51
0.0
  7
KANJI66
  0
TEXT
  8
0
  6
CONTINUOUS
 62
     2
 10
1328.32
 20
1174.28
 30
1.44
 40
14.4
  1
１８１７
 50
0.0
 41
0.9
 51
0.0
  7
KANJI66
  0
TEXT
  8
0
  6
CONTINUOUS
 62
     2
 10
1328.32
 20
1140.68
 30
1.44
 40
14.4
  1
１９３１
 50
0.0
 41
0.9
 51
0.0
  7
KANJI66
  0
TEXT
  8
0
  6
CONTINUOUS
 62
     2
 10
1328.32
 20
1107.08
 30
1.44
 40
14.4
  1
２０５４
 50
0.0
 41
0.9
 51
0.0
  7
KANJI66
  0
TEXT
  8
0
  6
CONTINUOUS
 62
     2
 10
1712.32
 20
1443.08
 30
1.44
 40
14.4
  1
　６２
 50
0.0
 41
0.9
 51
0.0
  7
KANJI66
  0
TEXT
  8
0
  6
CONTINUOUS
 62
     2
 10
1712.32
 20
1409.48
 30
1.44
 40
14.4
  1
　６４
 50
0.0
 41
0.9
 51
0.0
  7
KANJI66
  0
TEXT
  8
0
  6
CONTINUOUS
 62
     2
 10
1712.32
 20
1375.88
 30
1.44
 40
14.4
  1
　６５
 50
0.0
 41
0.9
 51
0.0
  7
KANJI66
  0
TEXT
  8
0
  6
CONTINUOUS
 62
     2
 10
1712.32
 20
1342.28
 30
1.44
 40
14.4
  1
　６６
 50
0.0
 41
0.9
 51
0.0
  7
KANJI66
  0
TEXT
  8
0
  6
CONTINUOUS
 62
     2
 10
1712.32
 20
1308.68
 30
1.44
 40
14.4
  1
　６８
 50
0.0
 41
0.9
 51
0.0
  7
KANJI66
  0
TEXT
  8
0
  6
CONTINUOUS
 62
     2
 10
1712.32
 20
1275.08
 30
1.44
 40
14.4
  1
　７１
 50
0.0
 41
0.9
 51
0.0
  7
KANJI66
  0
TEXT
  8
0
  6
CONTINUOUS
 62
     2
 10
1712.32
 20
1241.48
 30
1.44
 40
14.4
  1
　７３
 50
0.0
 41
0.9
 51
0.0
  7
KANJI66
  0
TEXT
  8
0
  6
CONTINUOUS
 62
     2
 10
1712.32
 20
1207.88
 30
1.44
 40
14.4
  1
　７５
 50
0.0
 41
0.9
 51
0.0
  7
KANJI66
  0
TEXT
  8
0
  6
CONTINUOUS
 62
     2
 10
1712.32
 20
1174.28
 30
1.44
 40
14.4
  1
　７６
 50
0.0
 41
0.9
 51
0.0
  7
KANJI66
  0
TEXT
  8
0
  6
CONTINUOUS
 62
     2
 10
1712.32
 20
1140.68
 30
1.44
 40
14.4
  1
　７８
 50
0.0
 41
0.9
 51
0.0
  7
KANJI66
  0
TEXT
  8
0
  6
CONTINUOUS
 62
     2
 10
1712.32
 20
1107.08
 30
1.44
 40
14.4
  1
　８０
 50
0.0
 41
0.9
 51
0.0
  7
KANJI66
  0
TEXT
  8
0
  6
CONTINUOUS
 62
     2
 10
1024.72
 20
1442.72
 30
0.96
 40
14.4
  1
ＭＣＬＤ１－　　２ＪＮ
 50
0.0
 41
0.833333333
 51
0.0
  7
KANJI71
  0
TEXT
  8
0
  6
CONTINUOUS
 62
     2
 10
1024.72
 20
1409.12
 30
0.96
 40
14.4
  1
ＭＣＬＤ１－　　３ＪＮ
 50
0.0
 41
0.833333333
 51
0.0
  7
KANJI71
  0
TEXT
  8
0
  6
CONTINUOUS
 62
     2
 10
1024.72
 20
1375.52
 30
0.96
 40
14.4
  1
ＭＣＬＤ１－　　４ＪＮ
 50
0.0
 41
0.833333333
 51
0.0
  7
KANJI71
  0
TEXT
  8
0
  6
CONTINUOUS
 62
     2
 10
1024.72
 20
1341.92
 30
0.96
 40
14.4
  1
ＭＣＬＤ１－　　５ＪＮ
 50
0.0
 41
0.833333333
 51
0.0
  7
KANJI71
  0
TEXT
  8
0
  6
CONTINUOUS
 62
     2
 10
1024.72
 20
1308.32
 30
0.96
 40
14.4
  1
ＭＣＬＤ１－　　６ＪＮ
 50
0.0
 41
0.833333333
 51
0.0
  7
KANJI71
  0
TEXT
  8
0
  6
CONTINUOUS
 62
     2
 10
1024.72
 20
1274.72
 30
0.96
 40
14.4
  1
ＭＣＬＤ１－　　７ＪＮ
 50
0.0
 41
0.833333333
 51
0.0
  7
KANJI71
  0
TEXT
  8
0
  6
CONTINUOUS
 62
     2
 10
1024.72
 20
1241.12
 30
0.96
 40
14.4
  1
ＭＣＬＤ１－　　８ＪＮ
 50
0.0
 41
0.833333333
 51
0.0
  7
KANJI71
  0
TEXT
  8
0
  6
CONTINUOUS
 62
     2
 10
1024.72
 20
1207.52
 30
0.96
 40
14.4
  1
ＭＣＬＤ１－　　９ＪＮ
 50
0.0
 41
0.833333333
 51
0.0
  7
KANJI71
  0
TEXT
  8
0
  6
CONTINUOUS
 62
     2
 10
1024.72
 20
1173.92
 30
0.96
 40
14.4
  1
ＭＣＬＤ１－　１０ＪＮ
 50
0.0
 41
0.833333333
 51
0.0
  7
KANJI71
  0
TEXT
  8
0
  6
CONTINUOUS
 62
     2
 10
1024.72
 20
1140.32
 30
0.96
 40
14.4
  1
ＭＣＬＤ１－　１１ＪＮ
 50
0.0
 41
0.833333333
 51
0.0
  7
KANJI71
  0
TEXT
  8
0
  6
CONTINUOUS
 62
     2
 10
1024.72
 20
1106.72
 30
0.96
 40
14.4
  1
ＭＣＬＤ１－　１２ＪＮ
 50
0.0
 41
0.833333333
 51
0.0
  7
KANJI71
  0
TEXT
  8
0
  6
CONTINUOUS
 62
     2
 10
1024.72
 20
1073.12
 30
0.96
 40
14.4
  1
ＭＣＬＤ１－　　　ＪＮ
 50
0.0
 41
0.833333333
 51
0.0
  7
KANJI71
  0
LINE
  8
0
  6
CONTINUOUS
 62
     1
 10
1302.62
 20
788.74
 30
0.0
 11
1302.62
 21
811.769404499
 31
0.0
  0
LINE
  8
0
  6
CONTINUOUS
 62
     1
 10
1487.62
 20
787.24
 30
0.0
 11
1487.62
 21
811.769404499
 31
0.0
  0
CIRCLE
  8
0
  6
CONTINUOUS
 62
     1
 10
1395.12
 20
752.24
 30
0.0
 40
23.0
  0
LINE
  8
0
  6
CONTINUOUS
 62
     2
 10
1438.12
 20
769.24
 30
0.0
 11
1438.12
 21
733.24
 31
0.0
  0
LINE
  8
0
  6
CONTINUOUS
 62
     1
 10
1439.12
 20
768.34
 30
0.0
 11
1437.12
 21
768.34
 31
0.0
  0
LINE
  8
0
  6
CONTINUOUS
 62
     1
 10
1437.12
 20
768.34
 30
0.0
 11
1435.12
 21
756.74
 31
0.0
  0
LINE
  8
0
  6
CONTINUOUS
 62
     1
 10
1439.12
 20
768.34
 30
0.0
 11
1441.12
 21
756.74
 31
0.0
  0
LINE
  8
0
  6
CONTINUOUS
 62
     1
 10
1437.12
 20
736.14
 30
0.0
 11
1435.12
 21
747.74
 31
0.0
  0
LINE
  8
0
  6
CONTINUOUS
 62
     1
 10
1439.12
 20
736.14
 30
0.0
 11
1441.12
 21
747.74
 31
0.0
  0
CIRCLE
  8
0
  6
CONTINUOUS
 62
     1
 10
1438.12
 20
752.24
 30
0.0
 40
3.0
  0
LINE
  8
0
  6
CONTINUOUS
 62
     1
 10
1435.141304702
 20
756.863567272
 30
0.0
 11
1435.098695298
 21
747.616432728
 31
0.0
  0
LINE
  8
0
  6
CONTINUOUS
 62
     1
 10
1441.141304702
 20
747.616432728
 30
0.0
 11
1441.098695298
 21
756.863567272
 31
0.0
  0
ARC
  8
0
  6
CONTINUOUS
 62
     1
 10
1438.12
 20
752.24
 30
0.0
 40
5.5
 50
304.570397879
 51
57.208673154
  0
ARC
  8
0
  6
CONTINUOUS
 62
     1
 10
1438.12
 20
752.24
 30
0.0
 40
5.5
 50
122.791326846
 51
235.429602121
  0
LINE
  8
0
  6
CONTINUOUS
 62
     1
 10
1390.183655198
 20
755.09
 30
0.0
 11
1390.183655198
 21
749.39
 31
0.0
  0
LINE
  8
0
  6
CONTINUOUS
 62
     1
 10
1390.183655198
 20
749.39
 30
0.0
 11
1395.12
 21
746.54
 31
0.0
  0
LINE
  8
0
  6
CONTINUOUS
 62
     1
 10
1395.12
 20
746.54
 30
0.0
 11
1400.056344802
 21
749.39
 31
0.0
  0
LINE
  8
0
  6
CONTINUOUS
 62
     1
 10
1400.056344802
 20
749.39
 30
0.0
 11
1400.056344802
 21
755.09
 31
0.0
  0
LINE
  8
0
  6
CONTINUOUS
 62
     1
 10
1400.056344802
 20
755.09
 30
0.0
 11
1395.12
 21
757.94
 31
0.0
  0
LINE
  8
0
  6
CONTINUOUS
 62
     1
 10
1395.12
 20
757.94
 30
0.0
 11
1390.183655198
 21
755.09
 31
0.0
  0
CIRCLE
  8
0
  6
CONTINUOUS
 62
     1
 10
1395.12
 20
752.24
 30
0.0
 40
6.5
  0
LINE
  8
0
  6
CONTINUOUS
 62
     1
 10
1425.12
 20
834.24
 30
0.0
 11
1425.12
 21
837.24
 31
0.0
  0
ARC
  8
0
  6
CONTINUOUS
 62
     1
 10
1421.12
 20
831.24
 30
0.0
 40
3.0
 50
90.0
 51
180.0
  0
LINE
  8
0
  6
CONTINUOUS
 62
     1
 10
1418.12
 20
820.393619242
 30
0.0
 11
1418.12
 21
831.24
 31
0.0
  0
ARC
  8
0
  6
CONTINUOUS
 62
     1
 10
1414.12
 20
820.393619242
 30
0.0
 40
4.0
 50
304.936144888
 51
0.0
  0
ARC
  8
0
  6
CONTINUOUS
 62
     1
 10
1369.12
 20
831.24
 30
0.0
 40
3.0
 50
0.0
 51
90.0
  0
LINE
  8
0
  6
CONTINUOUS
 62
     1
 10
1372.12
 20
820.393619242
 30
0.0
 11
1372.12
 21
831.24
 31
0.0
  0
ARC
  8
0
  6
CONTINUOUS
 62
     1
 10
1376.12
 20
820.393619242
 30
0.0
 40
4.0
 50
180.0
 51
235.063855112
  0
CIRCLE
  8
0
  6
CONTINUOUS
 62
     1
 10
1395.12
 20
859.24
 30
0.0
 40
17.0
  0
LINE
  8
0
  6
LTYPE3
 62
     2
 10
1372.12
 20
859.24
 30
0.0
 11
1418.12
 21
859.24
 31
0.0
  0
ARC
  8
0
  6
CONTINUOUS
 62
     1
 10
1353.12
 20
881.260045888
 30
0.0
 40
2.0
 50
90.0
 51
180.0
  0
ARC
  8
0
  6
CONTINUOUS
 62
     1
 10
1361.12
 20
887.24
 30
0.0
 40
2.0
 50
90.0
 51
180.0
  0
LINE
  8
0
  6
CONTINUOUS
 62
     1
 10
1361.12
 20
889.24
 30
0.0
 11
1429.12
 21
889.24
 31
0.0
  0
ARC
  8
0
  6
CONTINUOUS
 62
     1
 10
1429.12
 20
887.24
 30
0.0
 40
2.0
 50
0.0
 51
90.0
  0
LINE
  8
0
  6
CONTINUOUS
 62
     1
 10
1437.12
 20
883.260045888
 30
0.0
 11
1353.12
 21
883.260045888
 31
0.0
  0
ARC
  8
0
  6
CONTINUOUS
 62
     1
 10
1437.12
 20
881.260045888
 30
0.0
 40
2.0
 50
0.0
 51
90.0
  0
ARC
  8
0
  6
CONTINUOUS
 62
     1
 10
1353.12
 20
885.260045888
 30
0.0
 40
2.0
 50
90.0
 51
180.0
  0
ARC
  8
0
  6
CONTINUOUS
 62
     1
 10
1361.12
 20
878.24
 30
0.0
 40
2.0
 50
90.0
 51
180.0
  0
LINE
  8
0
  6
CONTINUOUS
 62
     1
 10
1361.12
 20
880.24
 30
0.0
 11
1429.12
 21
880.24
 31
0.0
  0
ARC
  8
0
  6
CONTINUOUS
 62
     1
 10
1429.12
 20
878.24
 30
0.0
 40
2.0
 50
0.0
 51
90.0
  0
LINE
  8
0
  6
CONTINUOUS
 62
     1
 10
1437.12
 20
887.260045888
 30
0.0
 11
1353.12
 21
887.260045888
 31
0.0
  0
ARC
  8
0
  6
CONTINUOUS
 62
     1
 10
1437.12
 20
885.260045888
 30
0.0
 40
2.0
 50
0.0
 51
90.0
  0
LINE
  8
0
  6
CONTINUOUS
 62
     1
 10
1365.12
 20
834.24
 30
0.0
 11
1425.12
 21
834.24
 31
0.0
  0
LINE
  8
0
  6
CONTINUOUS
 62
     1
 10
1365.12
 20
834.24
 30
0.0
 11
1365.12
 21
837.24
 31
0.0
  0
LINE
  8
0
  6
CONTINUOUS
 62
     1
 10
1431.12
 20
839.24
 30
0.0
 11
1437.12
 21
839.24
 31
0.0
  0
LINE
  8
0
  6
CONTINUOUS
 62
     1
 10
1439.12
 20
841.24
 30
0.0
 11
1439.12
 21
885.260045888
 31
0.0
  0
ARC
  8
0
  6
CONTINUOUS
 62
     1
 10
1437.12
 20
841.24
 30
0.0
 40
2.0
 50
270.0
 51
0.0
  0
LINE
  8
0
  6
CONTINUOUS
 62
     1
 10
1431.12
 20
839.24
 30
0.0
 11
1431.12
 21
878.24
 31
0.0
  0
ARC
  8
0
  6
CONTINUOUS
 62
     1
 10
1429.12
 20
839.24
 30
0.0
 40
2.0
 50
270.0
 51
0.0
  0
LINE
  8
0
  6
CONTINUOUS
 62
     1
 10
1359.12
 20
839.24
 30
0.0
 11
1359.12
 21
878.24
 31
0.0
  0
LINE
  8
0
  6
CONTINUOUS
 62
     1
 10
1361.12
 20
837.24
 30
0.0
 11
1429.12
 21
837.24
 31
0.0
  0
ARC
  8
0
  6
CONTINUOUS
 62
     1
 10
1361.12
 20
839.24
 30
0.0
 40
2.0
 50
180.0
 51
270.0
  0
LINE
  8
0
  6
CONTINUOUS
 62
     1
 10
1359.12
 20
839.24
 30
0.0
 11
1353.12
 21
839.24
 31
0.0
  0
LINE
  8
0
  6
CONTINUOUS
 62
     1
 10
1351.12
 20
841.24
 30
0.0
 11
1351.12
 21
885.260045888
 31
0.0
  0
ARC
  8
0
  6
CONTINUOUS
 62
     1
 10
1353.12
 20
841.24
 30
0.0
 40
2.0
 50
180.0
 51
270.0
  0
CIRCLE
  8
0
  6
CONTINUOUS
 62
     2
 10
1395.12
 20
859.24
 30
0.0
 40
15.0
  0
CIRCLE
  8
0
  6
CONTINUOUS
 62
     1
 10
1395.12
 20
752.24
 30
0.0
 40
71.0
  0
LINE
  8
0
  6
LTYPE3
 62
     2
 10
1345.12
 20
802.24
 30
0.0
 11
1329.12
 21
818.24
 31
0.0
  0
LINE
  8
0
  6
CONTINUOUS
 62
     1
 10
1341.783690552
 20
819.236563486
 30
0.0
 11
1331.783690552
 21
819.236563486
 31
0.0
  0
LINE
  8
0
  6
CONTINUOUS
 62
     1
 10
1331.783690552
 20
819.236563486
 30
0.0
 11
1326.783690552
 21
810.576309448
 31
0.0
  0
LINE
  8
0
  6
CONTINUOUS
 62
     1
 10
1326.783690552
 20
810.576309448
 30
0.0
 11
1331.783690552
 21
801.91605541
 31
0.0
  0
LINE
  8
0
  6
CONTINUOUS
 62
     1
 10
1331.783690552
 20
801.91605541
 30
0.0
 11
1341.783690552
 21
801.91605541
 31
0.0
  0
LINE
  8
0
  6
CONTINUOUS
 62
     1
 10
1341.783690552
 20
801.91605541
 30
0.0
 11
1346.783690552
 21
810.576309448
 31
0.0
  0
LINE
  8
0
  6
CONTINUOUS
 62
     1
 10
1346.783690552
 20
810.576309448
 30
0.0
 11
1341.783690552
 21
819.236563486
 31
0.0
  0
LINE
  8
0
  6
LTYPE3
 62
     2
 10
1445.12
 20
802.24
 30
0.0
 11
1461.12
 21
818.24
 31
0.0
  0
LINE
  8
0
  6
CONTINUOUS
 62
     1
 10
1448.456309448
 20
819.236563486
 30
0.0
 11
1458.456309448
 21
819.236563486
 31
0.0
  0
LINE
  8
0
  6
CONTINUOUS
 62
     1
 10
1458.456309448
 20
819.236563486
 30
0.0
 11
1463.456309448
 21
810.576309448
 31
0.0
  0
LINE
  8
0
  6
CONTINUOUS
 62
     1
 10
1463.456309448
 20
810.576309448
 30
0.0
 11
1458.456309448
 21
801.91605541
 31
0.0
  0
LINE
  8
0
  6
CONTINUOUS
 62
     1
 10
1458.456309448
 20
801.91605541
 30
0.0
 11
1448.456309448
 21
801.91605541
 31
0.0
  0
LINE
  8
0
  6
CONTINUOUS
 62
     1
 10
1448.456309448
 20
801.91605541
 30
0.0
 11
1443.456309448
 21
810.576309448
 31
0.0
  0
LINE
  8
0
  6
CONTINUOUS
 62
     1
 10
1443.456309448
 20
810.576309448
 30
0.0
 11
1448.456309448
 21
819.236563486
 31
0.0
  0
ARC
  8
0
  6
LTYPE3
 62
     2
 10
1395.12
 20
752.24
 30
0.0
 40
82.5
 50
122.095648245
 51
145.904134413
  0
ARC
  8
0
  6
LTYPE3
 62
     2
 10
1395.12
 20
752.24
 30
0.0
 40
82.5
 50
35.204140887
 51
56.44447448
  0
ARC
  8
0
  6
CONTINUOUS
 62
     1
 10
1395.12
 20
752.24
 30
0.0
 40
110.0
 50
113.578178478
 51
147.236242241
  0
ARC
  8
0
  6
CONTINUOUS
 62
     1
 10
1395.12
 20
752.24
 30
0.0
 40
110.0
 50
32.763757759
 51
66.421821522
  0
LINE
  8
0
  6
CONTINUOUS
 62
     2
 10
1405.992218677
 20
889.24
 30
0.0
 11
1551.492218677
 21
889.24
 31
0.0
  0
LINE
  8
0
  6
LTYPE3
 62
     2
 10
1395.12
 20
474.24
 30
0.0
 11
1395.12
 21
918.24
 31
0.0
  0
ARC
  8
0
  6
CONTINUOUS
 62
     1
 10
1380.132004804
 20
797.84
 30
0.0
 40
8.0
 50
288.194872339
 51
339.512684885
  0
ARC
  8
0
  6
CONTINUOUS
 62
     1
 10
1395.12
 20
792.24
 30
0.0
 40
8.0
 50
20.487315115
 51
159.512540111
  0
ARC
  8
0
  6
CONTINUOUS
 62
     1
 10
1395.12
 20
752.24
 30
0.0
 40
40.0
 50
108.194872339
 51
251.805127661
  0
LINE
  8
0
  6
CONTINUOUS
 62
     1
 10
1397.47
 20
799.310319398
 30
0.0
 11
1392.77
 21
799.310319398
 31
0.0
  0
LINE
  8
0
  6
CONTINUOUS
 62
     1
 10
1392.77
 20
799.310319398
 30
0.0
 11
1390.42
 21
795.24
 31
0.0
  0
LINE
  8
0
  6
CONTINUOUS
 62
     1
 10
1390.42
 20
795.24
 30
0.0
 11
1392.77
 21
791.169680602
 31
0.0
  0
LINE
  8
0
  6
CONTINUOUS
 62
     1
 10
1392.77
 20
791.169680602
 30
0.0
 11
1397.47
 21
791.169680602
 31
0.0
  0
LINE
  8
0
  6
CONTINUOUS
 62
     2
 10
1401.12
 20
795.24
 30
0.0
 11
1389.12
 21
795.24
 31
0.0
  0
ARC
  8
0
  6
CONTINUOUS
 62
     1
 10
1395.12
 20
752.24
 30
0.0
 40
40.0
 50
25.554707728
 51
71.805142343
  0
ARC
  8
0
  6
CONTINUOUS
 62
     1
 10
1444.739565217
 20
728.5145127
 30
0.0
 40
15.0
 50
124.468179449
 51
154.445306215
  0
ARC
  8
0
  6
CONTINUOUS
 62
     1
 10
1441.12
 20
752.24
 30
0.0
 40
9.0
 50
278.674045508
 51
81.325934821
  0
ARC
  8
0
  6
CONTINUOUS
 62
     1
 10
1410.107995196
 20
797.84
 30
0.0
 40
8.0
 50
200.487315115
 51
251.805127661
  0
ARC
  8
0
  6
CONTINUOUS
 62
     1
 10
1444.739565217
 20
775.9654873
 30
0.0
 40
15.0
 50
205.554693785
 51
235.747997449
  0
ARC
  8
0
  6
CONTINUOUS
 62
     1
 10
1441.12
 20
752.24
 30
0.0
 40
9.0
 50
278.674045508
 51
81.325934821
  0
LINE
  8
0
  6
CONTINUOUS
 62
     1
 10
1399.82
 20
795.24
 30
0.0
 11
1397.47
 21
799.310319398
 31
0.0
  0
LINE
  8
0
  6
CONTINUOUS
 62
     1
 10
1397.47
 20
791.169680602
 30
0.0
 11
1399.82
 21
795.24
 31
0.0
  0
ARC
  8
0
  6
CONTINUOUS
 62
     1
 10
1444.739565217
 20
728.5145127
 30
0.0
 40
15.0
 50
98.674172543
 51
107.318909456
  0
ARC
  8
0
  6
CONTINUOUS
 62
     1
 10
1444.739565217
 20
775.9654873
 30
0.0
 40
15.0
 50
252.681090544
 51
261.325827457
  0
LINE
  8
0
  6
CONTINUOUS
 62
     2
 10
1558.992218677
 20
752.24
 30
0.0
 11
1555.756980613
 21
740.165927171
 31
0.0
  0
LINE
  8
0
  6
CONTINUOUS
 62
     2
 10
1558.992218677
 20
752.24
 30
0.0
 11
1562.22745674
 21
740.165927171
 31
0.0
  0
LINE
  8
0
  6
CONTINUOUS
 62
     2
 10
1558.992218677
 20
752.24
 30
0.0
 11
1562.22745674
 21
764.314072829
 31
0.0
  0
LINE
  8
0
  6
CONTINUOUS
 62
     2
 10
1558.992218677
 20
752.24
 30
0.0
 11
1555.756980613
 21
764.314072829
 31
0.0
  0
LINE
  8
0
  6
CONTINUOUS
 62
     2
 10
1558.992218677
 20
725.04
 30
0.0
 11
1558.992218677
 21
889.24
 31
0.0
  0
LINE
  8
0
  6
CONTINUOUS
 62
     2
 10
1558.992218677
 20
889.24
 30
0.0
 11
1555.756980613
 21
877.165927171
 31
0.0
  0
LINE
  8
0
  6
CONTINUOUS
 62
     2
 10
1558.992218677
 20
889.24
 30
0.0
 11
1562.22745674
 21
877.165927171
 31
0.0
  0
TEXT
  8
0
  6
CONTINUOUS
 62
     2
 10
1553.992218677
 20
797.59
 30
0.0
 40
18.0
  1
１３７
 50
90.0
 41
0.9
 51
0.0
  7
KANJI39
  0
LINE
  8
0
  6
LTYPE4
 62
     2
 10
1515.12
 20
752.24
 30
0.0
 11
1515.62
 21
752.24
 31
0.0
  0
LINE
  8
0
  6
LTYPE4
 62
     2
 10
1275.62
 20
752.24
 30
0.0
 11
1500.12
 21
752.24
 31
0.0
  0
LINE
  8
0
  6
CONTINUOUS
 62
     2
 10
1523.12
 20
752.24
 30
0.0
 11
1566.492218677
 21
752.24
 31
0.0
  0
ARC
  8
0
  6
CONTINUOUS
 62
     1
 10
1395.12
 20
752.24
 30
0.0
 40
100.0
 50
269.931409714
 51
63.896118863
  0
ARC
  8
0
  6
CONTINUOUS
 62
     1
 10
1395.12
 20
752.24
 30
0.0
 40
100.0
 50
116.103881137
 51
269.929293603
  0
LINE
  8
2
  6
CONTINUOUS
 62
     2
 10
1604.5
 20
889.24
 30
0.0
 11
1600.617714323
 21
874.751112606
 31
0.0
  0
LINE
  8
2
  6
CONTINUOUS
 62
     2
 10
1604.5
 20
889.24
 30
0.0
 11
1608.382285677
 21
874.751112606
 31
0.0
  0
LINE
  8
2
  6
CONTINUOUS
 62
     2
 10
1536.5
 20
889.24
 30
0.0
 11
1610.5
 21
889.24
 31
0.0
  0
LINE
  8
0
  6
CONTINUOUS
 62
     1
 10
1439.12
 20
736.14
 30
0.0
 11
1437.12
 21
736.14
 31
0.0
  0
LINE
  8
0
  6
LTYPE3
 62
     2
 10
1345.12
 20
702.24
 30
0.0
 11
1329.12
 21
686.24
 31
0.0
  0
LINE
  8
0
  6
CONTINUOUS
 62
     1
 10
1341.783690552
 20
685.243436514
 30
0.0
 11
1331.783690552
 21
685.243436514
 31
0.0
  0
LINE
  8
0
  6
CONTINUOUS
 62
     1
 10
1331.783690552
 20
685.243436514
 30
0.0
 11
1326.783690552
 21
693.903690552
 31
0.0
  0
LINE
  8
0
  6
CONTINUOUS
 62
     1
 10
1326.783690552
 20
693.903690552
 30
0.0
 11
1331.783690552
 21
702.56394459
 31
0.0
  0
LINE
  8
0
  6
CONTINUOUS
 62
     1
 10
1331.783690552
 20
702.56394459
 30
0.0
 11
1341.783690552
 21
702.56394459
 31
0.0
  0
LINE
  8
0
  6
CONTINUOUS
 62
     1
 10
1341.783690552
 20
702.56394459
 30
0.0
 11
1346.783690552
 21
693.903690552
 31
0.0
  0
LINE
  8
0
  6
CONTINUOUS
 62
     1
 10
1346.783690552
 20
693.903690552
 30
0.0
 11
1341.783690552
 21
685.243436514
 31
0.0
  0
LINE
  8
0
  6
LTYPE3
 62
     2
 10
1445.12
 20
702.24
 30
0.0
 11
1461.12
 21
686.24
 31
0.0
  0
LINE
  8
0
  6
CONTINUOUS
 62
     1
 10
1448.456309448
 20
685.243436514
 30
0.0
 11
1458.456309448
 21
685.243436514
 31
0.0
  0
LINE
  8
0
  6
CONTINUOUS
 62
     1
 10
1458.456309448
 20
685.243436514
 30
0.0
 11
1463.456309448
 21
693.903690552
 31
0.0
  0
LINE
  8
0
  6
CONTINUOUS
 62
     1
 10
1463.456309448
 20
693.903690552
 30
0.0
 11
1458.456309448
 21
702.56394459
 31
0.0
  0
LINE
  8
0
  6
CONTINUOUS
 62
     1
 10
1458.456309448
 20
702.56394459
 30
0.0
 11
1448.456309448
 21
702.56394459
 31
0.0
  0
LINE
  8
0
  6
CONTINUOUS
 62
     1
 10
1448.456309448
 20
702.56394459
 30
0.0
 11
1443.456309448
 21
693.903690552
 31
0.0
  0
LINE
  8
0
  6
CONTINUOUS
 62
     1
 10
1443.456309448
 20
693.903690552
 30
0.0
 11
1448.456309448
 21
685.243436514
 31
0.0
  0
ARC
  8
0
  6
LTYPE3
 62
     2
 10
1395.12
 20
752.24
 30
0.0
 40
82.5
 50
213.899731785
 51
235.960335446
  0
ARC
  8
0
  6
LTYPE3
 62
     2
 10
1395.12
 20
752.24
 30
0.0
 40
82.5
 50
300.927939213
 51
327.087998905
  0
ARC
  8
0
  6
CONTINUOUS
 62
     1
 10
1380.132004804
 20
706.64
 30
0.0
 40
8.0
 50
20.487315115
 51
71.805127661
  0
ARC
  8
0
  6
CONTINUOUS
 62
     1
 10
1395.12
 20
712.24
 30
0.0
 40
8.0
 50
200.487459889
 51
339.512684885
  0
LINE
  8
0
  6
CONTINUOUS
 62
     1
 10
1397.47
 20
705.169680602
 30
0.0
 11
1392.77
 21
705.169680602
 31
0.0
  0
LINE
  8
0
  6
CONTINUOUS
 62
     1
 10
1392.77
 20
705.169680602
 30
0.0
 11
1390.42
 21
709.24
 31
0.0
  0
LINE
  8
0
  6
CONTINUOUS
 62
     1
 10
1390.42
 20
709.24
 30
0.0
 11
1392.77
 21
713.310319398
 31
0.0
  0
LINE
  8
0
  6
CONTINUOUS
 62
     1
 10
1392.77
 20
713.310319398
 30
0.0
 11
1397.47
 21
713.310319398
 31
0.0
  0
LINE
  8
0
  6
CONTINUOUS
 62
     2
 10
1401.12
 20
709.24
 30
0.0
 11
1389.12
 21
709.24
 31
0.0
  0
ARC
  8
0
  6
CONTINUOUS
 62
     1
 10
1395.12
 20
752.24
 30
0.0
 40
40.0
 50
288.194857657
 51
334.445306215
  0
ARC
  8
0
  6
CONTINUOUS
 62
     1
 10
1410.107995196
 20
706.64
 30
0.0
 40
8.0
 50
108.194872339
 51
159.512684885
  0
LINE
  8
0
  6
CONTINUOUS
 62
     1
 10
1397.47
 20
713.310319398
 30
0.0
 11
1399.82
 21
709.24
 31
0.0
  0
LINE
  8
0
  6
CONTINUOUS
 62
     1
 10
1399.82
 20
709.24
 30
0.0
 11
1397.47
 21
705.169680602
 31
0.0
  0
LINE
  8
0
  6
CONTINUOUS
 62
     1
 10
1318.12
 20
618.600720927
 30
0.0
 11
1318.12
 21
689.221752852
 31
0.0
  0
LINE
  8
0
  6
CONTINUOUS
 62
     1
 10
1472.12
 20
618.600720927
 30
0.0
 11
1472.12
 21
689.971405856
 31
0.0
  0
LINE
  8
0
  6
CONTINUOUS
 62
     2
 10
1558.992218677
 20
597.24
 30
0.0
 11
1558.992218677
 21
752.24
 31
0.0
  0
LINE
  8
2
  6
CONTINUOUS
 62
     2
 10
1604.5
 20
474.24
 30
0.0
 11
1604.5
 21
889.24
 31
0.0
  0
TEXT
  8
0
  6
CONTINUOUS
 62
     2
 10
1553.992218677
 20
653.49
 30
0.0
 40
18.0
  1
１５５
 50
90.0
 41
0.9
 51
0.0
  7
KANJI39
  0
TEXT
  8
2
  6
CONTINUOUS
 62
     3
 10
1598.5
 20
657.94
 30
0.0
 40
18.0
  1
４１５
 50
90.0
 41
0.9
 51
0.0
  7
KANJI39
  0
TEXT
  8
0
  6
CONTINUOUS
 62
     2
 10
183.16
 20
441.34
 30
1.5
 40
15.0
  1
２－ＰＦ１
 50
0.0
 41
0.9
 51
0.0
  7
KANJI43
  0
LINE
  8
0
  6
CONTINUOUS
 62
     2
 10
259.22
 20
436.34
 30
0.0
 11
186.92
 21
436.34
 31
0.0
  0
LINE
  8
0
  6
CONTINUOUS
 62
     1
 10
399.12
 20
518.74
 30
0.0
 11
399.12
 21
847.24
 31
0.0
  0
LINE
  8
0
  6
CONTINUOUS
 62
     1
 10
375.12
 20
853.24
 30
0.0
 11
384.32
 21
853.24
 31
0.0
  0
CIRCLE
  8
0
  6
CONTINUOUS
 62
     1
 10
375.12
 20
867.24
 30
0.0
 40
12.5
  0
LINE
  8
0
  6
CONTINUOUS
 62
     1
 10
375.12
 20
854.74
 30
0.0
 11
384.32
 21
853.24
 31
0.0
  0
ARC
  8
0
  6
CONTINUOUS
 62
     1
 10
375.12
 20
867.24
 30
0.0
 40
20.5
 50
300.423432294
 51
0.0
  0
LINE
  8
0
  6
CONTINUOUS
 62
     1
 10
384.880585153
 20
848.334879912
 30
0.0
 11
384.32
 21
853.24
 31
0.0
  0
ARC
  8
0
  6
CONTINUOUS
 62
     1
 10
386.067984073
 20
848.513488336
 30
0.0
 40
1.2
 50
118.393405187
 51
188.554293104
  0
LINE
  8
0
  6
CONTINUOUS
 62
     1
 10
375.12
 20
853.24
 30
0.0
 11
365.92
 21
853.24
 31
0.0
  0
LINE
  8
0
  6
CONTINUOUS
 62
     1
 10
375.12
 20
854.74
 30
0.0
 11
365.92
 21
853.24
 31
0.0
  0
LINE
  8
0
  6
CONTINUOUS
 62
     1
 10
365.359414847
 20
848.334879912
 30
0.0
 11
365.92
 21
853.24
 31
0.0
  0
ARC
  8
0
  6
CONTINUOUS
 62
     1
 10
364.172015927
 20
848.513488336
 30
0.0
 40
1.2
 50
351.445706896
 51
61.606594813
  0
ARC
  8
0
  6
CONTINUOUS
 62
     1
 10
375.12
 20
867.24
 30
0.0
 40
20.5
 50
0.0
 51
239.707348078
  0
LINE
  8
0
  6
CONTINUOUS
 62
     1
 10
365.234285714
 20
847.24
 30
0.0
 11
365.359414847
 21
848.334879912
 31
0.0
  0
LINE
  8
0
  6
CONTINUOUS
 62
     1
 10
385.005714286
 20
847.24
 30
0.0
 11
384.880585153
 21
848.334879912
 31
0.0
  0
LINE
  8
0
  6
CONTINUOUS
 62
     1
 10
399.12
 20
847.24
 30
0.0
 11
365.12
 21
847.24
 31
0.0
  0
ARC
  8
0
  6
CONTINUOUS
 62
     1
 10
365.12
 20
844.24
 30
0.0
 40
3.0
 50
90.0
 51
180.0
  0
LINE
  8
0
  6
CONTINUOUS
 62
     1
 10
391.12
 20
847.24
 30
0.0
 11
387.12
 21
795.24
 31
0.0
  0
LINE
  8
0
  6
CONTINUOUS
 62
     1
 10
387.12
 20
789.64
 30
0.0
 11
387.12
 21
795.24
 31
0.0
  0
LINE
  8
0
  6
CONTINUOUS
 62
     1
 10
387.12
 20
728.24
 30
0.0
 11
387.12
 21
786.54
 31
0.0
  0
LINE
  8
0
  6
CONTINUOUS
 62
     1
 10
391.12
 20
728.24
 30
0.0
 11
391.12
 21
847.24
 31
0.0
  0
LINE
  8
0
  6
CONTINUOUS
 62
     1
 10
362.12
 20
801.24
 30
0.0
 11
362.12
 21
844.24
 31
0.0
  0
LINE
  8
0
  6
CONTINUOUS
 62
     1
 10
356.12
 20
795.24
 30
0.0
 11
328.12
 21
795.24
 31
0.0
  0
ARC
  8
0
  6
CONTINUOUS
 62
     1
 10
356.12
 20
801.24
 30
0.0
 40
6.0
 50
270.0
 51
360.0
  0
LINE
  8
0
  6
CONTINUOUS
 62
     1
 10
387.12
 20
795.24
 30
0.0
 11
356.12
 21
795.24
 31
0.0
  0
LINE
  8
0
  6
CONTINUOUS
 62
     1
 10
399.12
 20
851.44
 30
0.0
 11
409.12
 21
851.44
 31
0.0
  0
LINE
  8
0
  6
CONTINUOUS
 62
     1
 10
399.12
 20
651.44
 30
0.0
 11
399.12
 21
851.44
 31
0.0
  0
LINE
  8
0
  6
LTYPE2
 62
     2
 10
398.62
 20
867.24
 30
0.0
 11
349.62
 21
867.24
 31
0.0
  0
LINE
  8
0
  6
LTYPE2
 62
     2
 10
375.12
 20
833.34
 30
0.0
 11
375.12
 21
896.04
 31
0.0
  0
LINE
  8
0
  6
CONTINUOUS
 62
     1
 10
399.62
 20
851.34
 30
0.0
 11
408.62
 21
851.34
 31
0.0
  0
ARC
  8
0
  6
CONTINUOUS
 62
     1
 10
408.62
 20
848.34
 30
0.0
 40
3.0
 50
0.0
 51
90.0
  0
LINE
  8
0
  6
CONTINUOUS
 62
     1
 10
411.62
 20
822.34
 30
0.0
 11
411.62
 21
848.34
 31
0.0
  0
LINE
  8
0
  6
CONTINUOUS
 62
     1
 10
411.62
 20
654.34
 30
0.0
 11
411.62
 21
822.34
 31
0.0
  0
ARC
  8
0
  6
CONTINUOUS
 62
     1
 10
413.62
 20
824.34
 30
0.0
 40
2.0
 50
180.0
 51
270.0
  0
LINE
  8
0
  6
CONTINUOUS
 62
     1
 10
446.62
 20
680.34
 30
0.0
 11
446.62
 21
822.24
 31
0.0
  0
LINE
  8
0
  6
CONTINUOUS
 62
     1
 10
550.17
 20
841.34
 30
0.0
 11
550.17
 21
875.34
 31
0.0
  0
LINE
  8
0
  6
CONTINUOUS
 62
     1
 10
550.17
 20
841.34
 30
0.0
 11
524.17
 21
841.34
 31
0.0
  0
LINE
  8
0
  6
CONTINUOUS
 62
     1
 10
550.17
 20
875.34
 30
0.0
 11
524.17
 21
875.34
 31
0.0
  0
LINE
  8
0
  6
LTYPE3
 62
     2
 10
557.099475845
 20
858.34
 30
0.0
 11
517.099475845
 21
858.34
 31
0.0
  0
LINE
  8
0
  6
CONTINUOUS
 62
     1
 10
454.17
 20
833.34
 30
0.0
 11
454.17
 21
836.34
 31
0.0
  0
ARC
  8
0
  6
CONTINUOUS
 62
     1
 10
458.17
 20
830.34
 30
0.0
 40
3.0
 50
0.0
 51
90.0
  0
LINE
  8
0
  6
CONTINUOUS
 62
     1
 10
514.17
 20
833.34
 30
0.0
 11
514.17
 21
836.34
 31
0.0
  0
ARC
  8
0
  6
CONTINUOUS
 62
     1
 10
510.17
 20
830.34
 30
0.0
 40
3.0
 50
90.0
 51
180.0
  0
LINE
  8
0
  6
CONTINUOUS
 62
     1
 10
514.17
 20
833.34
 30
0.0
 11
454.17
 21
833.34
 31
0.0
  0
LINE
  8
0
  6
CONTINUOUS
 62
     1
 10
439.082087912
 20
838.34
 30
0.0
 11
531.17
 21
882.360045888
 31
0.0
  0
LINE
  8
0
  6
CONTINUOUS
 62
     1
 10
437.17
 20
842.34
 30
0.0
 11
439.082087912
 21
838.34
 31
0.0
  0
LINE
  8
0
  6
CONTINUOUS
 62
     1
 10
437.17
 20
842.34
 30
0.0
 11
529.257912088
 21
886.360045888
 31
0.0
  0
LINE
  8
0
  6
CONTINUOUS
 62
     1
 10
444.17
 20
845.686153846
 30
0.0
 11
444.17
 21
885.34
 31
0.0
  0
LINE
  8
0
  6
CONTINUOUS
 62
     1
 10
444.17
 20
839.34
 30
0.0
 11
444.17
 21
840.7721338
 31
0.0
  0
ARC
  8
0
  6
CONTINUOUS
 62
     1
 10
447.17
 20
839.34
 30
0.0
 40
3.0
 50
180.0
 51
270.0
  0
LINE
  8
0
  6
CONTINUOUS
 62
     1
 10
524.17
 20
839.34
 30
0.0
 11
524.17
 21
879.013892042
 31
0.0
  0
LINE
  8
0
  6
CONTINUOUS
 62
     1
 10
521.17
 20
836.34
 30
0.0
 11
447.17
 21
836.34
 31
0.0
  0
ARC
  8
0
  6
CONTINUOUS
 62
     1
 10
521.17
 20
839.34
 30
0.0
 40
3.0
 50
270.0
 51
0.0
  0
ARC
  8
0
  6
CONTINUOUS
 62
     1
 10
464.17
 20
824.84
 30
0.0
 40
3.0
 50
180.0
 51
270.0
  0
ARC
  8
0
  6
CONTINUOUS
 62
     1
 10
504.17
 20
824.84
 30
0.0
 40
3.0
 50
270.0
 51
0.0
  0
LINE
  8
0
  6
CONTINUOUS
 62
     1
 10
507.17
 20
824.840005395
 30
0.0
 11
507.17
 21
830.34
 31
0.0
  0
LINE
  8
0
  6
CONTINUOUS
 62
     1
 10
461.17
 20
824.840005395
 30
0.0
 11
461.17
 21
830.34
 31
0.0
  0
LINE
  8
0
  6
LTYPE3
 62
     2
 10
484.12
 20
815.34
 30
0.0
 11
484.12
 21
890.34
 31
0.0
  0
LINE
  8
0
  6
CONTINUOUS
 62
     1
 10
413.62
 20
822.34
 30
0.0
 11
646.62
 21
822.34
 31
0.0
  0
LINE
  8
0
  6
CONTINUOUS
 62
     2
 10
396.62
 20
809.676309448
 30
0.0
 11
426.62
 21
809.676309448
 31
0.0
  0
LINE
  8
0
  6
CONTINUOUS
 62
     1
 10
418.62
 20
799.676309448
 30
0.0
 11
418.62
 21
819.676309448
 31
0.0
  0
LINE
  8
0
  6
CONTINUOUS
 62
     1
 10
411.62
 20
819.676309448
 30
0.0
 11
418.62
 21
819.676309448
 31
0.0
  0
LINE
  8
0
  6
CONTINUOUS
 62
     1
 10
411.62
 20
799.676309448
 30
0.0
 11
418.62
 21
799.676309448
 31
0.0
  0
LINE
  8
0
  6
CONTINUOUS
 62
     1
 10
411.62
 20
814.676309448
 30
0.0
 11
418.62
 21
814.676309448
 31
0.0
  0
LINE
  8
0
  6
CONTINUOUS
 62
     1
 10
411.62
 20
804.676309448
 30
0.0
 11
418.62
 21
804.676309448
 31
0.0
  0
LINE
  8
0
  6
CONTINUOUS
 62
     2
 10
550.17
 20
858.34
 30
0.0
 11
558.463374416
 21
867.692536597
 31
0.0
  0
LINE
  8
0
  6
CONTINUOUS
 62
     2
 10
550.17
 20
858.34
 30
0.0
 11
552.676004628
 21
870.586221491
 31
0.0
  0
LINE
  8
0
  6
CONTINUOUS
 62
     2
 10
550.17
 20
858.34
 30
0.0
 11
573.8
 21
905.6
 31
0.0
  0
TEXT
  8
0
  6
CONTINUOUS
 62
     2
 10
458.160009455
 20
721.54
 30
0.0
 40
18.0
  1
日本電産
 50
0.0
 41
0.9
 51
0.0
  7
KANJI39
  0
LINE
  8
0
  6
CONTINUOUS
 62
     1
 10
217.12
 20
735.24
 30
0.0
 11
217.12
 21
769.24
 31
0.0
  0
LINE
  8
0
  6
CONTINUOUS
 62
     1
 10
249.12
 20
735.24
 30
0.0
 11
249.12
 21
769.24
 31
0.0
  0
LINE
  8
0
  6
CONTINUOUS
 62
     1
 10
217.12
 20
769.24
 30
0.0
 11
253.12
 21
769.24
 31
0.0
  0
LINE
  8
0
  6
CONTINUOUS
 62
     1
 10
253.12
 20
730.24
 30
0.0
 11
253.12
 21
792.24
 31
0.0
  0
LINE
  8
0
  6
CONTINUOUS
 62
     1
 10
253.12
 20
792.24
 30
0.0
 11
328.12
 21
792.24
 31
0.0
  0
LINE
  8
0
  6
CONTINUOUS
 62
     1
 10
217.12
 20
735.24
 30
0.0
 11
253.12
 21
735.24
 31
0.0
  0
LINE
  8
0
  6
CONTINUOUS
 62
     1
 10
263.12
 20
730.24
 30
0.0
 11
253.12
 21
730.24
 31
0.0
  0
LINE
  8
0
  6
CONTINUOUS
 62
     1
 10
263.12
 20
473.24
 30
0.0
 11
263.12
 21
730.24
 31
0.0
  0
LINE
  8
0
  6
CONTINUOUS
 62
     1
 10
328.12
 20
473.24
 30
0.0
 11
328.12
 21
795.24
 31
0.0
  0
LINE
  8
0
  6
LTYPE2
 62
     2
 10
699.0
 20
752.24
 30
0.0
 11
189.0
 21
752.24
 31
0.0
  0
LINE
  8
2
  6
CONTINUOUS
 62
     2
 10
234.5
 20
769.5
 30
0.0
 11
234.311882976
 21
784.498820353
 31
0.0
  0
LINE
  8
2
  6
CONTINUOUS
 62
     2
 10
234.5
 20
769.5
 30
0.0
 11
226.837675702
 21
782.395300941
 31
0.0
  0
ARC
  8
0
  6
CONTINUOUS
 62
     2
 10
144.0
 20
751.84
 30
0.0
 40
24.0
 50
231.952957468
 51
156.801409486
  0
LINE
  8
0
  6
CONTINUOUS
 62
     2
 10
121.94051928
 20
761.294063166
 30
0.0
 11
124.694150532
 21
773.098989698
 31
0.0
  0
LINE
  8
0
  6
CONTINUOUS
 62
     2
 10
121.94051928
 20
761.294063166
 30
0.0
 11
131.862312933
 21
767.182867008
 31
0.0
  0
TEXT
  8
0
  6
CONTINUOUS
 62
     3
 10
100.7000004
 20
869.5200196
 30
1.8
 40
18.0
  1
手動軸□８
 50
0.0
 41
0.9
 51
0.0
  7
KANJI72
  0
LINE
  8
2
  6
CONTINUOUS
 62
     2
 10
234.5
 20
769.5
 30
0.0
 11
198.898203593
 21
896.0
 31
0.0
  0
TEXT
  8
0
  6
CONTINUOUS
 62
     2
 10
101.54051928
 20
787.585936834
 30
0.0
 40
18.0
  1
前進方向
 50
0.0
 41
0.9
 51
0.0
  7
KANJI39
  0
ARC
  8
0
  6
CONTINUOUS
 62
     1
 10
381.12
 20
728.24
 30
0.0
 40
6.0
 50
270.0
 51
0.0
  0
LINE
  8
0
  6
CONTINUOUS
 62
     1
 10
385.12
 20
722.24
 30
0.0
 11
328.12
 21
722.24
 31
0.0
  0
ARC
  8
0
  6
CONTINUOUS
 62
     1
 10
385.12
 20
728.24
 30
0.0
 40
6.0
 50
270.0
 51
0.0
  0
ARC
  8
0
  6
CONTINUOUS
 62
     1
 10
413.62
 20
678.34
 30
0.0
 40
2.0
 50
90.0
 51
180.0
  0
LINE
  8
0
  6
CONTINUOUS
 62
     1
 10
413.62
 20
680.34
 30
0.0
 11
646.62
 21
680.34
 31
0.0
  0
LINE
  8
0
  6
CONTINUOUS
 62
     2
 10
396.62
 20
693.003690552
 30
0.0
 11
426.62
 21
693.003690552
 31
0.0
  0
LINE
  8
0
  6
CONTINUOUS
 62
     1
 10
418.62
 20
703.003690552
 30
0.0
 11
418.62
 21
683.003690552
 31
0.0
  0
LINE
  8
0
  6
CONTINUOUS
 62
     1
 10
411.62
 20
683.003690552
 30
0.0
 11
418.62
 21
683.003690552
 31
0.0
  0
LINE
  8
0
  6
CONTINUOUS
 62
     1
 10
411.62
 20
703.003690552
 30
0.0
 11
418.62
 21
703.003690552
 31
0.0
  0
LINE
  8
0
  6
CONTINUOUS
 62
     1
 10
411.62
 20
688.003690552
 30
0.0
 11
418.62
 21
688.003690552
 31
0.0
  0
LINE
  8
0
  6
CONTINUOUS
 62
     1
 10
411.62
 20
698.003690552
 30
0.0
 11
418.62
 21
698.003690552
 31
0.0
  0
TEXT
  8
0
  6
CONTINUOUS
 62
     2
 10
458.160009455
 20
698.54
 30
0.0
 40
18.0
  1
エコノストップモータ
 50
0.0
 41
0.9
 51
0.0
  7
KANJI39
  0
LINE
  8
0
  6
CONTINUOUS
 62
     1
 10
399.12
 20
651.44
 30
0.0
 11
409.12
 21
651.44
 31
0.0
  0
LINE
  8
0
  6
CONTINUOUS
 62
     1
 10
399.62
 20
651.34
 30
0.0
 11
408.62
 21
651.34
 31
0.0
  0
ARC
  8
0
  6
CONTINUOUS
 62
     1
 10
408.62
 20
654.34
 30
0.0
 40
3.0
 50
270.0
 51
0.0
  0
LINE
  8
0
  6
CONTINUOUS
 62
     1
 10
651.430381815
 20
803.167582684
 30
0.0
 11
668.809618185
 21
801.512417316
 31
0.0
  0
ARC
  8
0
  6
CONTINUOUS
 62
     1
 10
651.62
 20
805.158573629
 30
0.0
 40
2.0
 50
180.0
 51
264.559667969
  0
ARC
  8
0
  6
CONTINUOUS
 62
     1
 10
672.62
 20
776.34
 30
0.0
 40
2.0
 50
180.0
 51
270.0
  0
LINE
  8
0
  6
CONTINUOUS
 62
     1
 10
681.62
 20
774.34
 30
0.0
 11
672.62
 21
774.34
 31
0.0
  0
ARC
  8
0
  6
CONTINUOUS
 62
     1
 10
681.62
 20
772.34
 30
0.0
 40
2.0
 50
0.0
 51
90.0
  0
LINE
  8
0
  6
CONTINUOUS
 62
     1
 10
683.62
 20
772.34
 30
0.0
 11
683.62
 21
730.34
 31
0.0
  0
ARC
  8
0
  6
CONTINUOUS
 62
     1
 10
681.62
 20
730.34
 30
0.0
 40
2.0
 50
270.0
 51
0.0
  0
ARC
  8
0
  6
CONTINUOUS
 62
     1
 10
672.62
 20
726.34
 30
0.0
 40
2.0
 50
90.0
 51
180.0
  0
LINE
  8
0
  6
CONTINUOUS
 62
     1
 10
681.62
 20
728.34
 30
0.0
 11
672.62
 21
728.34
 31
0.0
  0
LINE
  8
0
  6
CONTINUOUS
 62
     1
 10
686.62
 20
762.84
 30
0.0
 11
683.62
 21
762.84
 31
0.0
  0
LINE
  8
0
  6
CONTINUOUS
 62
     1
 10
686.62
 20
739.84
 30
0.0
 11
683.62
 21
739.84
 31
0.0
  0
LINE
  8
0
  6
CONTINUOUS
 62
     1
 10
686.62
 20
762.84
 30
0.0
 11
686.62
 21
739.84
 31
0.0
  0
LINE
  8
0
  6
CONTINUOUS
 62
     1
 10
651.430381815
 20
699.512417316
 30
0.0
 11
668.809618185
 21
701.167582684
 31
0.0
  0
ARC
  8
0
  6
CONTINUOUS
 62
     1
 10
651.62
 20
697.52142637
 30
0.0
 40
2.0
 50
95.440332031
 51
180.0
  0
LINE
  8
0
  6
CONTINUOUS
 62
     1
 10
670.62
 20
799.52142637
 30
0.0
 11
670.62
 21
703.72812
 31
0.0
  0
ARC
  8
0
  6
CONTINUOUS
 62
     1
 10
668.62
 20
799.52142637
 30
0.0
 40
2.0
 50
0.0
 51
84.559667969
  0
LINE
  8
0
  6
CONTINUOUS
 62
     1
 10
691.62
 20
755.692902
 30
0.0
 11
690.804924603
 21
757.104654
 31
0.0
  0
LINE
  8
0
  6
CONTINUOUS
 62
     1
 10
691.62
 20
746.987098
 30
0.0
 11
690.804924603
 21
745.575346
 31
0.0
  0
ARC
  8
0
  6
CONTINUOUS
 62
     1
 10
686.116118477
 20
751.34
 30
0.0
 40
5.503881523
 50
328.419912243
 51
31.580087757
  0
ARC
  8
0
  6
CONTINUOUS
 62
     1
 10
689.938906993
 20
755.6634905
 30
0.0
 40
1.681350271
 50
301.002313915
 51
2.989498403
  0
LINE
  8
0
  6
CONTINUOUS
 62
     1
 10
691.62
 20
746.987098
 30
0.0
 11
690.804924603
 21
745.575346
 31
0.0
  0
ARC
  8
0
  6
CONTINUOUS
 62
     1
 10
689.938906993
 20
747.0165095
 30
0.0
 40
1.681350271
 50
357.010501597
 51
58.997686085
  0
LINE
  8
0
  6
CONTINUOUS
 62
     1
 10
687.62039
 20
754.222327
 30
0.0
 11
690.804924603
 21
754.222327
 31
0.0
  0
LINE
  8
0
  6
CONTINUOUS
 62
     1
 10
687.62039
 20
757.104654
 30
0.0
 11
690.804924603
 21
757.104654
 31
0.0
  0
LINE
  8
0
  6
CONTINUOUS
 62
     1
 10
687.62039
 20
748.457673
 30
0.0
 11
690.804924603
 21
748.457673
 31
0.0
  0
LINE
  8
0
  6
CONTINUOUS
 62
     1
 10
687.62039
 20
745.575346
 30
0.0
 11
690.804924603
 21
745.575346
 31
0.0
  0
LINE
  8
0
  6
CONTINUOUS
 62
     1
 10
691.62
 20
746.987098
 30
0.0
 11
691.62
 21
755.692902
 31
0.0
  0
LINE
  8
0
  6
CONTINUOUS
 62
     1
 10
687.62039
 20
757.84
 30
0.0
 11
686.62
 21
757.84
 31
0.0
  0
LINE
  8
0
  6
CONTINUOUS
 62
     1
 10
687.62039
 20
757.84
 30
0.0
 11
687.62039
 21
744.84
 31
0.0
  0
LINE
  8
0
  6
CONTINUOUS
 62
     1
 10
687.62039
 20
744.84
 30
0.0
 11
686.62
 21
744.84
 31
0.0
  0
ARC
  8
0
  6
CONTINUOUS
 62
     1
 10
668.62
 20
703.158573629
 30
0.0
 40
2.0
 50
275.440332031
 51
0.0
  0
LINE
  8
0
  6
LTYPE1
 62
     1
 10
678.72
 20
765.84
 30
0.0
 11
670.62
 21
756.64
 31
0.0
  0
ARC
  8
0
  6
LTYPE1
 62
     1
 10
682.12
 20
762.84
 30
0.0
 40
4.5
 50
290.9
 51
137.7
  0
LINE
  8
0
  6
LTYPE1
 62
     1
 10
676.62
 20
755.84
 30
0.0
 11
670.62
 21
756.64
 31
0.0
  0
LINE
  8
0
  6
LTYPE1
 62
     1
 10
683.72
 20
758.64
 30
0.0
 11
676.62
 21
755.84
 31
0.0
  0
LINE
  8
0
  6
LTYPE1
 62
     1
 10
676.62
 20
746.84
 30
0.0
 11
670.62
 21
746.04
 31
0.0
  0
ARC
  8
0
  6
LTYPE1
 62
     1
 10
682.12
 20
739.84
 30
0.0
 40
4.5
 50
222.3
 51
69.1
  0
LINE
  8
0
  6
LTYPE1
 62
     1
 10
678.72
 20
736.84
 30
0.0
 11
670.62
 21
746.04
 31
0.0
  0
LINE
  8
0
  6
LTYPE1
 62
     1
 10
683.72
 20
744.04
 30
0.0
 11
676.62
 21
746.84
 31
0.0
  0
LINE
  8
0
  6
LTYPE1
 62
     1
 10
676.62
 20
755.84
 30
0.0
 11
676.62
 21
746.84
 31
0.0
  0
LINE
  8
0
  6
CONTINUOUS
 62
     1
 10
641.62
 20
680.34
 30
0.0
 11
641.62
 21
822.34
 31
0.0
  0
ARC
  8
0
  6
CONTINUOUS
 62
     1
 10
646.62
 20
819.34
 30
0.0
 40
3.0
 50
0.0
 51
90.0
  0
LINE
  8
0
  6
CONTINUOUS
 62
     1
 10
649.62
 20
819.34
 30
0.0
 11
649.62
 21
683.34
 31
0.0
  0
ARC
  8
0
  6
CONTINUOUS
 62
     1
 10
646.62
 20
683.34
 30
0.0
 40
3.0
 50
270.0
 51
0.0
  0
LINE
  8
0
  6
CONTINUOUS
 62
     2
 10
686.42
 20
768.84
 30
0.0
 11
694.713374416
 21
778.192536597
 31
0.0
  0
LINE
  8
0
  6
CONTINUOUS
 62
     2
 10
686.42
 20
768.84
 30
0.0
 11
688.926004628
 21
781.086221491
 31
0.0
  0
LINE
  8
0
  6
CONTINUOUS
 62
     2
 10
686.42
 20
768.84
 30
0.0
 11
759.42
 21
914.84
 31
0.0
  0
LINE
  8
2
  6
CONTINUOUS
 62
     2
 10
737.62
 20
822.34
 30
0.0
 11
733.737714323
 21
807.851112606
 31
0.0
  0
LINE
  8
2
  6
CONTINUOUS
 62
     2
 10
737.62
 20
822.34
 30
0.0
 11
741.502285677
 21
807.851112606
 31
0.0
  0
LINE
  8
2
  6
CONTINUOUS
 62
     2
 10
737.62
 20
822.34
 30
0.0
 11
737.62
 21
680.34
 31
0.0
  0
LINE
  8
2
  6
CONTINUOUS
 62
     2
 10
737.62
 20
680.34
 30
0.0
 11
741.502285677
 21
694.828887394
 31
0.0
  0
LINE
  8
2
  6
CONTINUOUS
 62
     2
 10
737.62
 20
680.34
 30
0.0
 11
733.737714323
 21
694.828887394
 31
0.0
  0
TEXT
  8
2
  6
CONTINUOUS
 62
     2
 10
731.62
 20
712.64
 30
0.0
 40
18.0
  1
φ１４２
 50
90.0
 41
0.9
 51
0.0
  7
KANJI39
  0
LINE
  8
2
  6
CONTINUOUS
 62
     2
 10
656.54
 20
822.34
 30
0.0
 11
743.62
 21
822.34
 31
0.0
  0
LINE
  8
2
  6
CONTINUOUS
 62
     2
 10
656.54
 20
680.34
 30
0.0
 11
743.62
 21
680.34
 31
0.0
  0
LINE
  8
0
  6
CONTINUOUS
 62
     2
 10
759.42
 20
914.84
 30
0.0
 11
910.32
 21
914.84
 31
0.0
  0
TEXT
  8
0
  6
CONTINUOUS
 62
     2
 10
760.92
 20
919.84
 30
0.0
 40
18.0
  1
ブレ－キ開放レバ－
 50
0.0
 41
0.9
 51
0.0
  7
KANJI39
  0
LINE
  8
0
  6
CONTINUOUS
 62
     1
 10
529.257912088
 20
886.360045888
 30
0.0
 11
531.17
 21
882.360045888
 31
0.0
  0
ARC
  8
0
  6
CONTINUOUS
 62
     1
 10
447.17
 20
885.34
 30
0.0
 40
3.0
 50
90.0
 51
180.0
  0
LINE
  8
0
  6
CONTINUOUS
 62
     1
 10
524.17
 20
883.927912088
 30
0.0
 11
524.17
 21
885.34
 31
0.0
  0
LINE
  8
0
  6
CONTINUOUS
 62
     1
 10
521.17
 20
888.34
 30
0.0
 11
447.17
 21
888.34
 31
0.0
  0
ARC
  8
0
  6
CONTINUOUS
 62
     1
 10
521.17
 20
885.34
 30
0.0
 40
3.0
 50
0.0
 51
90.0
  0
LINE
  8
0
  6
CONTINUOUS
 62
     2
 10
573.8
 20
905.6
 30
0.0
 11
657.2
 21
905.6
 31
0.0
  0
TEXT
  8
0
  6
CONTINUOUS
 62
     2
 10
573.8
 20
910.6
 30
0.0
 40
18.0
  1
ＰＦ３／４
 50
0.0
 41
0.9
 51
0.0
  7
KANJI39
  0
LINE
  8
0
  6
CONTINUOUS
 62
     2
 10
399.12
 20
857.44
 30
0.0
 11
399.12
 21
976.55812
 31
0.0
  0
LINE
  8
0
  6
CONTINUOUS
 62
     2
 10
399.12
 20
970.55812
 30
0.0
 11
410.711109915
 21
967.452291459
 31
0.0
  0
LINE
  8
0
  6
CONTINUOUS
 62
     2
 10
399.12
 20
970.55812
 30
0.0
 11
410.711109915
 21
973.663948541
 31
0.0
  0
LINE
  8
0
  6
CONTINUOUS
 62
     2
 10
399.12
 20
970.55812
 30
0.0
 11
691.12
 21
970.55812
 31
0.0
  0
LINE
  8
0
  6
CONTINUOUS
 62
     2
 10
691.12
 20
970.55812
 30
0.0
 11
679.528890085
 21
973.663948541
 31
0.0
  0
LINE
  8
0
  6
CONTINUOUS
 62
     2
 10
691.12
 20
970.55812
 30
0.0
 11
679.528890085
 21
967.452291459
 31
0.0
  0
TEXT
  8
0
  6
CONTINUOUS
 62
     3
 10
520.82
 20
979.55812
 30
0.0
 40
18.0
  1
２９２
 50
0.0
 41
0.9
 51
0.0
  7
KANJI39
  0
LINE
  8
0
  6
CONTINUOUS
 62
     2
 10
691.12
 20
760.58
 30
0.0
 11
691.12
 21
976.55812
 31
0.0
  0
LINE
  8
0
  6
CONTINUOUS
 62
     2
 10
871.603319123
 20
154.233311846
 30
0.0
 11
871.603319123
 21
101.133311846
 31
0.0
  0
LINE
  8
0
  6
CONTINUOUS
 62
     2
 10
712.403319123
 20
143.133311846
 30
0.0
 11
871.603319123
 21
143.133311846
 31
0.0
  0
LINE
  8
0
  6
CONTINUOUS
 62
     2
 10
871.603319123
 20
143.133311846
 30
0.0
 11
863.875912513
 21
145.203864207
 31
0.0
  0
LINE
  8
0
  6
CONTINUOUS
 62
     2
 10
871.603319123
 20
143.133311846
 30
0.0
 11
863.875912513
 21
141.062759485
 31
0.0
  0
TEXT
  8
0
  6
CONTINUOUS
 62
     3
 10
754.453319123
 20
145.133311846
 30
0.0
 40
15.0
  1
常用ストローク
 50
0.0
 41
0.9
 51
0.0
  7
KANJI59
  0
TEXT
  8
0
  6
CONTINUOUS
 62
     2
 10
2174.0
 20
836.0
 30
0.0
 40
18.0
  1
手動ハンドル
 50
0.0
 41
0.9
 51
0.0
  7
KANJI39
  0
CIRCLE
  8
0
  6
LTYPE1
 62
     2
 10
1395.12
 20
511.74
 30
0.0
 40
10.4775
  0
CIRCLE
  8
0
  6
LTYPE1
 62
     2
 10
1395.12
 20
511.74
 30
0.0
 40
9.3155
  0
TEXT
  8
0
  6
CONTINUOUS
 62
     6
 10
517.128537984
 20
1591.523705827
 30
1.77482448
 40
18.98208
  1
電気定格　　　
 50
0.0
 41
0.85
 51
0.0
  7
KANJI73
  0
TEXT
  8
0
  6
CONTINUOUS
 62
     6
 10
535.562679411
 20
1547.497934761
 30
0.0
 40
16.8
  1
ＤＣ１２５Ｖ　０．６Ａ　，ＤＣ２５０Ｖ　０．３Ａ　
 50
0.0
 41
0.714285714
 51
0.0
  7
KANJI74
  0
TEXT
  8
0
  6
CONTINUOUS
 62
     6
 10
535.562679411
 20
1570.170696145
 30
0.0
 40
16.8
  1
ＡＣ１００Ｖ　１２５Ｖ　２５０Ｖ　－１０Ａ
 50
0.0
 41
0.714285714
 51
0.0
  7
KANJI74
  0
TEXT
  8
0
  6
CONTINUOUS
 62
     6
 10
536.12
 20
1666.9
 30
0.0
 40
180.0
  1
｝
 50
0.0
 41
0.233333333
 51
0.0
  7
KANJI75
  0
TEXT
  8
0
  6
CONTINUOUS
 62
     2
 10
2344.92
 20
789.7
 30
0.0
 40
24.0
  1
ｋｇ
 50
0.0
 41
0.925
 51
0.0
  7
KANJI76
  0
TEXT
  8
0
  6
CONTINUOUS
 62
     2
 10
1643.5200334
 20
137.899994
 30
1.8
 40
21.0
  1
０７．１０．０２
 50
0.0
 41
0.571428571
 51
0.0
  7
KANJI77
  0
ENDSEC
  0
EOF
