  0
SECTION
  2
HEADER
  9
$ACADVER
  1
AC1009
  9
$DWGCODEPAGE
  3
dos932
  9
$EXTMIN
 10
0.0
 20
0.0
 30
0.0
  9
$EXTMAX
 10
2520.0
 20
1782.0
 30
0.0
  9
$LIMMIN
 10
0.0
 20
0.0
  9
$LIMMAX
 10
2520.0
 20
1782.0
  9
$LTSCALE
 40
1.0
  9
$PDMODE
 70
     0
  0
ENDSEC
  0
SECTION
  2
TABLES
  0
TABLE
  2
VPORT
 70
     1
  0
VPORT
  2
*ACTIVE
 70
     0
 10
0.0
 20
0.0
 11
1.0
 21
1.0
 12
1260.0
 22
891.0
 13
0.0
 23
0.0
 14
10.0
 24
10.0
 15
10.0
 25
10.0
 16
0.0
 26
0.0
 36
1.0
 17
0.0
 27
0.0
 37
0.0
 40
2520.0
 41
1.414141414
 42
50.0
 43
0.0
 44
0.0
 50
0.0
 51
0.0
 71
     0
 72
  1000
 73
     1
 74
     3
 75
     0
 76
     0
 77
     0
 78
     0
  0
ENDTAB
  0
TABLE
  2
LTYPE
 70
     7
  0
LTYPE
  2
CONTINUOUS
 70
    64
  3
Solid line
 72
    65
 73
     0
 40
0.0
  0
LTYPE
  2
LTYPE1
 70
    64
  3
HIDDEN
 72
    65
 73
     2
 40
18.0
 49
10.8
 49
-7.2
  0
LTYPE
  2
LTYPE2
 70
    64
  3
CENTER
 72
    65
 73
     4
 40
90.0
 49
63.0
 49
-9.0
 49
9.0
 49
-9.0
  0
LTYPE
  2
LTYPE3
 70
    64
  3
CENTER
 72
    65
 73
     4
 40
60.0
 49
42.0
 49
-6.0
 49
6.0
 49
-6.0
  0
LTYPE
  2
LTYPE4
 70
    64
  3
CENTER
 72
    65
 73
     4
 40
54.0
 49
37.8
 49
-5.4
 49
5.4
 49
-5.4
  0
LTYPE
  2
LTYPE5
 70
    64
  3
CENTER
 72
    65
 73
     4
 40
120.0
 49
84.0
 49
-12.0
 49
12.0
 49
-12.0
  0
LTYPE
  2
LTYPE6
 70
    64
  3
PHANTOM
 72
    65
 73
     6
 40
90.0
 49
67.5
 49
-4.5
 49
4.5
 49
-4.5
 49
4.5
 49
-4.5
  0
ENDTAB
  0
TABLE
  2
LAYER
 70
   128
  0
LAYER
  2
0
 70
     0
 62
     7
  6
CONTINUOUS
  0
LAYER
  2
2
 70
     0
 62
     7
  6
CONTINUOUS
  0
LAYER
  2
3
 70
     0
 62
     7
  6
CONTINUOUS
  0
LAYER
  2
4
 70
     0
 62
     7
  6
CONTINUOUS
  0
LAYER
  2
5
 70
     0
 62
     7
  6
CONTINUOUS
  0
LAYER
  2
6
 70
     0
 62
     7
  6
CONTINUOUS
  0
LAYER
  2
7
 70
     0
 62
     7
  6
CONTINUOUS
  0
LAYER
  2
8
 70
     0
 62
     7
  6
CONTINUOUS
  0
LAYER
  2
9
 70
     0
 62
     7
  6
CONTINUOUS
  0
LAYER
  2
10
 70
     0
 62
     7
  6
CONTINUOUS
  0
LAYER
  2
11
 70
     0
 62
     7
  6
CONTINUOUS
  0
LAYER
  2
12
 70
     0
 62
     7
  6
CONTINUOUS
  0
LAYER
  2
13
 70
     0
 62
     7
  6
CONTINUOUS
  0
LAYER
  2
14
 70
     0
 62
     7
  6
CONTINUOUS
  0
LAYER
  2
15
 70
     0
 62
     7
  6
CONTINUOUS
  0
LAYER
  2
16
 70
     0
 62
     7
  6
CONTINUOUS
  0
LAYER
  2
17
 70
     0
 62
     7
  6
CONTINUOUS
  0
LAYER
  2
18
 70
     0
 62
     7
  6
CONTINUOUS
  0
LAYER
  2
19
 70
     0
 62
     7
  6
CONTINUOUS
  0
LAYER
  2
20
 70
     0
 62
     7
  6
CONTINUOUS
  0
LAYER
  2
21
 70
     0
 62
     7
  6
CONTINUOUS
  0
LAYER
  2
22
 70
     0
 62
     7
  6
CONTINUOUS
  0
LAYER
  2
23
 70
     0
 62
     7
  6
CONTINUOUS
  0
LAYER
  2
24
 70
     0
 62
     7
  6
CONTINUOUS
  0
LAYER
  2
25
 70
     0
 62
     7
  6
CONTINUOUS
  0
LAYER
  2
26
 70
     0
 62
     7
  6
CONTINUOUS
  0
LAYER
  2
27
 70
     0
 62
     7
  6
CONTINUOUS
  0
LAYER
  2
28
 70
     0
 62
     7
  6
CONTINUOUS
  0
LAYER
  2
29
 70
     0
 62
     7
  6
CONTINUOUS
  0
LAYER
  2
30
 70
     0
 62
     7
  6
CONTINUOUS
  0
LAYER
  2
31
 70
     0
 62
     7
  6
CONTINUOUS
  0
LAYER
  2
32
 70
     0
 62
     7
  6
CONTINUOUS
  0
LAYER
  2
33
 70
     0
 62
     7
  6
CONTINUOUS
  0
LAYER
  2
34
 70
     0
 62
     7
  6
CONTINUOUS
  0
LAYER
  2
35
 70
     0
 62
     7
  6
CONTINUOUS
  0
LAYER
  2
36
 70
     0
 62
     7
  6
CONTINUOUS
  0
LAYER
  2
37
 70
     0
 62
     7
  6
CONTINUOUS
  0
LAYER
  2
38
 70
     0
 62
     7
  6
CONTINUOUS
  0
LAYER
  2
39
 70
     0
 62
     7
  6
CONTINUOUS
  0
LAYER
  2
40
 70
     0
 62
     7
  6
CONTINUOUS
  0
LAYER
  2
41
 70
     0
 62
     7
  6
CONTINUOUS
  0
LAYER
  2
42
 70
     0
 62
     7
  6
CONTINUOUS
  0
LAYER
  2
43
 70
     0
 62
     7
  6
CONTINUOUS
  0
LAYER
  2
44
 70
     0
 62
     7
  6
CONTINUOUS
  0
LAYER
  2
45
 70
     0
 62
     7
  6
CONTINUOUS
  0
LAYER
  2
46
 70
     0
 62
     7
  6
CONTINUOUS
  0
LAYER
  2
47
 70
     0
 62
     7
  6
CONTINUOUS
  0
LAYER
  2
48
 70
     0
 62
     7
  6
CONTINUOUS
  0
LAYER
  2
49
 70
     0
 62
     7
  6
CONTINUOUS
  0
LAYER
  2
50
 70
     0
 62
     7
  6
CONTINUOUS
  0
LAYER
  2
51
 70
     0
 62
     7
  6
CONTINUOUS
  0
LAYER
  2
52
 70
     0
 62
     7
  6
CONTINUOUS
  0
LAYER
  2
53
 70
     0
 62
     7
  6
CONTINUOUS
  0
LAYER
  2
54
 70
     0
 62
     7
  6
CONTINUOUS
  0
LAYER
  2
55
 70
     0
 62
     7
  6
CONTINUOUS
  0
LAYER
  2
56
 70
     0
 62
     7
  6
CONTINUOUS
  0
LAYER
  2
57
 70
     0
 62
     7
  6
CONTINUOUS
  0
LAYER
  2
58
 70
     0
 62
     7
  6
CONTINUOUS
  0
LAYER
  2
59
 70
     0
 62
     7
  6
CONTINUOUS
  0
LAYER
  2
60
 70
     0
 62
     7
  6
CONTINUOUS
  0
LAYER
  2
61
 70
     0
 62
     7
  6
CONTINUOUS
  0
LAYER
  2
62
 70
     0
 62
     7
  6
CONTINUOUS
  0
LAYER
  2
63
 70
     0
 62
     7
  6
CONTINUOUS
  0
LAYER
  2
64
 70
     0
 62
     7
  6
CONTINUOUS
  0
LAYER
  2
65
 70
     0
 62
     7
  6
CONTINUOUS
  0
LAYER
  2
66
 70
     0
 62
     7
  6
CONTINUOUS
  0
LAYER
  2
67
 70
     0
 62
     7
  6
CONTINUOUS
  0
LAYER
  2
68
 70
     0
 62
     7
  6
CONTINUOUS
  0
LAYER
  2
69
 70
     0
 62
     7
  6
CONTINUOUS
  0
LAYER
  2
70
 70
     0
 62
     7
  6
CONTINUOUS
  0
LAYER
  2
71
 70
     0
 62
     7
  6
CONTINUOUS
  0
LAYER
  2
72
 70
     0
 62
     7
  6
CONTINUOUS
  0
LAYER
  2
73
 70
     0
 62
     7
  6
CONTINUOUS
  0
LAYER
  2
74
 70
     0
 62
     7
  6
CONTINUOUS
  0
LAYER
  2
75
 70
     0
 62
     7
  6
CONTINUOUS
  0
LAYER
  2
76
 70
     0
 62
     7
  6
CONTINUOUS
  0
LAYER
  2
77
 70
     0
 62
     7
  6
CONTINUOUS
  0
LAYER
  2
78
 70
     0
 62
     7
  6
CONTINUOUS
  0
LAYER
  2
79
 70
     0
 62
     7
  6
CONTINUOUS
  0
LAYER
  2
80
 70
     0
 62
     7
  6
CONTINUOUS
  0
LAYER
  2
81
 70
     0
 62
     7
  6
CONTINUOUS
  0
LAYER
  2
82
 70
     0
 62
     7
  6
CONTINUOUS
  0
LAYER
  2
83
 70
     0
 62
     7
  6
CONTINUOUS
  0
LAYER
  2
84
 70
     0
 62
     7
  6
CONTINUOUS
  0
LAYER
  2
85
 70
     0
 62
     7
  6
CONTINUOUS
  0
LAYER
  2
86
 70
     0
 62
     7
  6
CONTINUOUS
  0
LAYER
  2
87
 70
     0
 62
     7
  6
CONTINUOUS
  0
LAYER
  2
88
 70
     0
 62
     7
  6
CONTINUOUS
  0
LAYER
  2
89
 70
     0
 62
     7
  6
CONTINUOUS
  0
LAYER
  2
90
 70
     0
 62
     7
  6
CONTINUOUS
  0
LAYER
  2
91
 70
     0
 62
     7
  6
CONTINUOUS
  0
LAYER
  2
92
 70
     0
 62
     7
  6
CONTINUOUS
  0
LAYER
  2
93
 70
     0
 62
     7
  6
CONTINUOUS
  0
LAYER
  2
94
 70
     0
 62
     7
  6
CONTINUOUS
  0
LAYER
  2
95
 70
     0
 62
     7
  6
CONTINUOUS
  0
LAYER
  2
96
 70
     0
 62
     7
  6
CONTINUOUS
  0
LAYER
  2
97
 70
     0
 62
     7
  6
CONTINUOUS
  0
LAYER
  2
98
 70
     0
 62
     7
  6
CONTINUOUS
  0
LAYER
  2
99
 70
     0
 62
     7
  6
CONTINUOUS
  0
LAYER
  2
100
 70
     0
 62
     7
  6
CONTINUOUS
  0
LAYER
  2
101
 70
     0
 62
     7
  6
CONTINUOUS
  0
LAYER
  2
102
 70
     0
 62
     7
  6
CONTINUOUS
  0
LAYER
  2
103
 70
     0
 62
     7
  6
CONTINUOUS
  0
LAYER
  2
104
 70
     0
 62
     7
  6
CONTINUOUS
  0
LAYER
  2
105
 70
     0
 62
     7
  6
CONTINUOUS
  0
LAYER
  2
106
 70
     0
 62
     7
  6
CONTINUOUS
  0
LAYER
  2
107
 70
     0
 62
     7
  6
CONTINUOUS
  0
LAYER
  2
108
 70
     0
 62
     7
  6
CONTINUOUS
  0
LAYER
  2
109
 70
     0
 62
     7
  6
CONTINUOUS
  0
LAYER
  2
110
 70
     0
 62
     7
  6
CONTINUOUS
  0
LAYER
  2
111
 70
     0
 62
     7
  6
CONTINUOUS
  0
LAYER
  2
112
 70
     0
 62
     7
  6
CONTINUOUS
  0
LAYER
  2
113
 70
     0
 62
     7
  6
CONTINUOUS
  0
LAYER
  2
114
 70
     0
 62
     7
  6
CONTINUOUS
  0
LAYER
  2
115
 70
     0
 62
     7
  6
CONTINUOUS
  0
LAYER
  2
116
 70
     0
 62
     7
  6
CONTINUOUS
  0
LAYER
  2
117
 70
     0
 62
     7
  6
CONTINUOUS
  0
LAYER
  2
118
 70
     0
 62
     7
  6
CONTINUOUS
  0
LAYER
  2
119
 70
     0
 62
     7
  6
CONTINUOUS
  0
LAYER
  2
120
 70
     0
 62
     7
  6
CONTINUOUS
  0
LAYER
  2
121
 70
     0
 62
     7
  6
CONTINUOUS
  0
LAYER
  2
122
 70
     0
 62
     7
  6
CONTINUOUS
  0
LAYER
  2
123
 70
     0
 62
     7
  6
CONTINUOUS
  0
LAYER
  2
124
 70
     0
 62
     7
  6
CONTINUOUS
  0
LAYER
  2
125
 70
     0
 62
     7
  6
CONTINUOUS
  0
LAYER
  2
126
 70
     0
 62
     7
  6
CONTINUOUS
  0
LAYER
  2
127
 70
     0
 62
     7
  6
CONTINUOUS
  0
LAYER
  2
128
 70
     0
 62
     7
  6
CONTINUOUS
  0
ENDTAB
  0
TABLE
  2
STYLE
 70
    82
  0
STYLE
  2
STANDARD
 70
     0
 40
0.0
 41
1.0
 50
0.0
 71
     0
 42
0.2
  3
txt.shx
  4
extfont.shx
  0
STYLE
  2
KANJI0
 70
     0
 40
15.5999988
 41
0.75
 50
0.0
 71
     0
 42
15.5999988
  3
txt.shx
  4
extfont.shx
  0
STYLE
  2
KANJI1
 70
     0
 40
11.999997477
 41
0.6
 50
0.0
 71
     0
 42
11.999997477
  3
txt.shx
  4
extfont.shx
  0
STYLE
  2
KANJI2
 70
     0
 40
14.399996972
 41
0.9
 50
0.0
 71
     0
 42
14.399996972
  3
txt.shx
  4
extfont.shx
  0
STYLE
  2
KANJI3
 70
     0
 40
17.999996215
 41
0.9
 50
0.0
 71
     0
 42
17.999996215
  3
txt.shx
  4
extfont.shx
  0
STYLE
  2
KANJI4
 70
     0
 40
10.3999992
 41
0.6
 50
0.0
 71
     0
 42
10.3999992
  3
txt.shx
  4
extfont.shx
  0
STYLE
  2
KANJI5
 70
     0
 40
12.47999904
 41
0.6
 50
0.0
 71
     0
 42
12.47999904
  3
txt.shx
  4
extfont.shx
  0
STYLE
  2
KANJI6
 70
     0
 40
18.1999986
 41
0.42031746
 50
0.0
 71
     0
 42
18.1999986
  3
txt.shx
  4
extfont.shx
  0
STYLE
  2
KANJI7
 70
     0
 40
31.1999976
 41
0.9
 50
0.0
 71
     0
 42
31.1999976
  3
txt.shx
  4
extfont.shx
  0
STYLE
  2
KANJI8
 70
     0
 40
21.6
 41
1.111111111
 50
0.0
 71
     0
 42
21.6
  3
txt.shx
  4
extfont.shx
  0
STYLE
  2
KANJI9
 70
     0
 40
10.3999992
 41
0.8
 50
0.0
 71
     0
 42
10.3999992
  3
txt.shx
  4
extfont.shx
  0
STYLE
  2
KANJI10
 70
     0
 40
12.47999904
 41
0.8
 50
0.0
 71
     0
 42
12.47999904
  3
txt.shx
  4
extfont.shx
  0
STYLE
  2
KANJI11
 70
     0
 40
30.0
 41
1.0
 50
0.0
 71
     0
 42
30.0
  3
txt.shx
  4
extfont.shx
  0
STYLE
  2
KANJI12
 70
     0
 40
30.0
 41
1.0
 50
0.0
 71
     0
 42
30.0
  3
txt.shx
  4
extfont.shx
  0
STYLE
  2
KANJI13
 70
     0
 40
30.0
 41
0.8
 50
0.0
 71
     0
 42
30.0
  3
txt.shx
  4
extfont.shx
  0
STYLE
  2
KANJI14
 70
     0
 40
24.0
 41
1.0
 50
0.0
 71
     0
 42
24.0
  3
txt.shx
  4
extfont.shx
  0
STYLE
  2
KANJI15
 70
     0
 40
21.0
 41
0.857142857
 50
0.0
 71
     0
 42
21.0
  3
txt.shx
  4
extfont.shx
  0
STYLE
  2
KANJI16
 70
     0
 40
27.0
 41
0.666666667
 50
0.0
 71
     0
 42
27.0
  3
txt.shx
  4
extfont.shx
  0
STYLE
  2
KANJI17
 70
     0
 40
13.86
 41
0.9
 50
0.0
 71
     0
 42
13.86
  3
txt.shx
  4
extfont.shx
  0
STYLE
  2
KANJI18
 70
     0
 40
21.0
 41
0.793650794
 50
0.0
 71
     0
 42
21.0
  3
txt.shx
  4
extfont.shx
  0
STYLE
  2
KANJI19
 70
     0
 40
30.0
 41
0.8
 50
0.0
 71
     0
 42
30.0
  3
txt.shx
  4
extfont.shx
  0
STYLE
  2
KANJI20
 70
     0
 40
18.0
 41
0.9
 50
0.0
 71
     0
 42
18.0
  3
txt.shx
  4
extfont.shx
  0
STYLE
  2
KANJI21
 70
     0
 40
16.17
 41
0.9
 50
0.0
 71
     0
 42
16.17
  3
txt.shx
  4
extfont.shx
  0
STYLE
  2
KANJI22
 70
     0
 40
11.661
 41
0.822608696
 50
0.0
 71
     0
 42
11.661
  3
txt.shx
  4
extfont.shx
  0
STYLE
  2
KANJI23
 70
     0
 40
13.182
 41
0.85
 50
0.0
 71
     0
 42
13.182
  3
txt.shx
  4
extfont.shx
  0
STYLE
  2
KANJI24
 70
     0
 40
11.8638
 41
0.726495726
 50
0.0
 71
     0
 42
11.8638
  3
txt.shx
  4
extfont.shx
  0
STYLE
  2
KANJI25
 70
     4
 40
55.0
 41
0.440318182
 50
0.0
 71
     0
 42
55.0
  3
txt.shx
  4
extfont.shx
  0
STYLE
  2
KANJI26
 70
     0
 40
17.740702234
 41
0.880962996
 50
0.0
 71
     0
 42
17.740702234
  3
txt.shx
  4
extfont.shx
  0
STYLE
  2
KANJI27
 70
     0
 40
11.7
 41
0.8
 50
0.0
 71
     0
 42
11.7
  3
txt.shx
  4
extfont.shx
  0
STYLE
  2
KANJI28
 70
     0
 40
15.0
 41
0.911
 50
0.0
 71
     0
 42
15.0
  3
txt.shx
  4
extfont.shx
  0
STYLE
  2
KANJI29
 70
     0
 40
15.6
 41
0.925
 50
0.0
 71
     0
 42
15.6
  3
txt.shx
  4
extfont.shx
  0
STYLE
  2
KANJI30
 70
     0
 40
10.933904043
 41
0.9
 50
0.0
 71
     0
 42
10.933904043
  3
txt.shx
  4
extfont.shx
  0
STYLE
  2
KANJI31
 70
     0
 40
15.185977837
 41
0.66671875
 50
0.0
 71
     0
 42
15.185977837
  3
txt.shx
  4
extfont.shx
  0
STYLE
  2
KANJI32
 70
     0
 40
18.223173404
 41
0.9
 50
0.0
 71
     0
 42
18.223173404
  3
txt.shx
  4
extfont.shx
  0
STYLE
  2
KANJI33
 70
     0
 40
14.578538724
 41
0.9
 50
0.0
 71
     0
 42
14.578538724
  3
txt.shx
  4
extfont.shx
  0
STYLE
  2
KANJI34
 70
     0
 40
18.0
 41
0.9
 50
0.0
 71
     0
 42
18.0
  3
txt.shx
  4
extfont.shx
  0
STYLE
  2
KANJI35
 70
     0
 40
15.0
 41
0.9
 50
0.0
 71
     0
 42
15.0
  3
txt.shx
  4
extfont.shx
  0
STYLE
  2
KANJI36
 70
     0
 40
15.0
 41
0.9
 50
0.0
 71
     0
 42
15.0
  3
txt.shx
  4
extfont.shx
  0
STYLE
  2
KANJI37
 70
     0
 40
12.0
 41
0.9
 50
0.0
 71
     0
 42
12.0
  3
txt.shx
  4
extfont.shx
  0
STYLE
  2
KANJI38
 70
     0
 40
20.0
 41
0.925
 50
0.0
 71
     0
 42
20.0
  3
txt.shx
  4
extfont.shx
  0
STYLE
  2
KANJI39
 70
     0
 40
15.0
 41
0.9
 50
0.0
 71
     0
 42
15.0
  3
txt.shx
  4
extfont.shx
  0
STYLE
  2
KANJI40
 70
     0
 40
15.0
 41
0.92
 50
0.0
 71
     0
 42
15.0
  3
txt.shx
  4
extfont.shx
  0
STYLE
  2
KANJI41
 70
     0
 40
20.0
 41
0.925
 50
0.0
 71
     0
 42
20.0
  3
txt.shx
  4
extfont.shx
  0
STYLE
  2
KANJI42
 70
     0
 40
10.0
 41
0.85
 50
0.0
 71
     0
 42
10.0
  3
txt.shx
  4
extfont.shx
  0
STYLE
  2
KANJI43
 70
     0
 40
10.0
 41
0.75
 50
0.0
 71
     0
 42
10.0
  3
txt.shx
  4
extfont.shx
  0
STYLE
  2
KANJI44
 70
     0
 40
15.0
 41
0.9
 50
0.0
 71
     0
 42
15.0
  3
txt.shx
  4
extfont.shx
  0
STYLE
  2
KANJI45
 70
     0
 40
24.0
 41
0.9
 50
0.0
 71
     0
 42
24.0
  3
txt.shx
  4
extfont.shx
  0
STYLE
  2
KANJI46
 70
     0
 40
21.0
 41
0.857142857
 50
0.0
 71
     0
 42
21.0
  3
txt.shx
  4
extfont.shx
  0
STYLE
  2
KANJI47
 70
     0
 40
15.36
 41
0.9
 50
0.0
 71
     0
 42
15.36
  3
txt.shx
  4
extfont.shx
  0
STYLE
  2
KANJI48
 70
     0
 40
14.4
 41
0.9
 50
0.0
 71
     0
 42
14.4
  3
txt.shx
  4
extfont.shx
  0
STYLE
  2
KANJI49
 70
     0
 40
14.4
 41
0.9
 50
0.0
 71
     0
 42
14.4
  3
txt.shx
  4
extfont.shx
  0
STYLE
  2
KANJI50
 70
     0
 40
16.8
 41
0.9
 50
0.0
 71
     0
 42
16.8
  3
txt.shx
  4
extfont.shx
  0
STYLE
  2
KANJI51
 70
     0
 40
12.96
 41
0.740740741
 50
0.0
 71
     0
 42
12.96
  3
txt.shx
  4
extfont.shx
  0
STYLE
  2
KANJI52
 70
     0
 40
16.8
 41
0.857142857
 50
0.0
 71
     0
 42
16.8
  3
txt.shx
  4
extfont.shx
  0
STYLE
  2
KANJI53
 70
     0
 40
14.4
 41
0.833333333
 50
0.0
 71
     0
 42
14.4
  3
txt.shx
  4
extfont.shx
  0
STYLE
  2
KANJI54
 70
     0
 40
21.0
 41
0.571428571
 50
0.0
 71
     0
 42
21.0
  3
txt.shx
  4
extfont.shx
  0
STYLE
  2
KANJI55
 70
     0
 40
22.8
 41
0.9
 50
0.0
 71
     0
 42
22.8
  3
txt.shx
  4
extfont.shx
  0
STYLE
  2
KANJI56
 70
     0
 40
22.8
 41
0.9
 50
0.0
 71
     0
 42
22.8
  3
txt.shx
  4
extfont.shx
  0
STYLE
  2
KANJI57
 70
     0
 40
27.0
 41
0.9
 50
0.0
 71
     0
 42
27.0
  3
txt.shx
  4
extfont.shx
  0
STYLE
  2
KANJI58
 70
     0
 40
22.8
 41
0.9
 50
0.0
 71
     0
 42
22.8
  3
txt.shx
  4
extfont.shx
  0
STYLE
  2
KANJI59
 70
     0
 40
22.8
 41
0.9
 50
0.0
 71
     0
 42
22.8
  3
txt.shx
  4
extfont.shx
  0
STYLE
  2
KANJI60
 70
     0
 40
22.8
 41
0.9
 50
0.0
 71
     0
 42
22.8
  3
txt.shx
  4
extfont.shx
  0
STYLE
  2
KANJI61
 70
     0
 40
22.8
 41
0.9
 50
0.0
 71
     0
 42
22.8
  3
txt.shx
  4
extfont.shx
  0
STYLE
  2
KANJI62
 70
     0
 40
22.8
 41
0.9
 50
0.0
 71
     0
 42
22.8
  3
txt.shx
  4
extfont.shx
  0
STYLE
  2
KANJI63
 70
     0
 40
22.8
 41
0.9
 50
0.0
 71
     0
 42
22.8
  3
txt.shx
  4
extfont.shx
  0
STYLE
  2
KANJI64
 70
     4
 40
21.0
 41
0.9
 50
0.0
 71
     0
 42
21.0
  3
txt.shx
  4
extfont.shx
  0
STYLE
  2
KANJI65
 70
     4
 40
21.0
 41
0.9
 50
0.0
 71
     0
 42
21.0
  3
txt.shx
  4
extfont.shx
  0
STYLE
  2
KANJI66
 70
     0
 40
21.0
 41
0.9
 50
0.0
 71
     0
 42
21.0
  3
txt.shx
  4
extfont.shx
  0
STYLE
  2
KANJI67
 70
     0
 40
18.0
 41
0.9
 50
0.0
 71
     0
 42
18.0
  3
txt.shx
  4
extfont.shx
  0
STYLE
  2
KANJI68
 70
     0
 40
21.0
 41
0.9
 50
0.0
 71
     0
 42
21.0
  3
txt.shx
  4
extfont.shx
  0
STYLE
  2
KANJI69
 70
     0
 40
22.8
 41
0.9
 50
0.0
 71
     0
 42
22.8
  3
txt.shx
  4
extfont.shx
  0
STYLE
  2
KANJI70
 70
     0
 40
22.8
 41
0.9
 50
0.0
 71
     0
 42
22.8
  3
txt.shx
  4
extfont.shx
  0
STYLE
  2
KANJI71
 70
     0
 40
21.0
 41
0.628571429
 50
0.0
 71
     0
 42
21.0
  3
txt.shx
  4
extfont.shx
  0
STYLE
  2
KANJI72
 70
     0
 40
20.4
 41
0.705882353
 50
0.0
 71
     0
 42
20.4
  3
txt.shx
  4
extfont.shx
  0
STYLE
  2
KANJI73
 70
     0
 40
18.0
 41
0.8
 50
0.0
 71
     0
 42
18.0
  3
txt.shx
  4
extfont.shx
  0
STYLE
  2
KANJI74
 70
     0
 40
19.2
 41
0.71875
 50
0.0
 71
     0
 42
19.2
  3
txt.shx
  4
extfont.shx
  0
STYLE
  2
KANJI75
 70
     0
 40
19.2
 41
0.8
 50
0.0
 71
     0
 42
19.2
  3
txt.shx
  4
extfont.shx
  0
STYLE
  2
KANJI76
 70
     0
 40
21.0
 41
0.571428571
 50
0.0
 71
     0
 42
21.0
  3
txt.shx
  4
extfont.shx
  0
STYLE
  2
KANJI77
 70
     0
 40
18.0
 41
0.833333333
 50
0.0
 71
     0
 42
18.0
  3
txt.shx
  4
extfont.shx
  0
STYLE
  2
KANJI78
 70
     0
 40
21.0
 41
0.9
 50
0.0
 71
     0
 42
21.0
  3
txt.shx
  4
extfont.shx
  0
STYLE
  2
KANJI79
 70
     0
 40
21.0
 41
0.857142857
 50
0.0
 71
     0
 42
21.0
  3
txt.shx
  4
extfont.shx
  0
STYLE
  2
KANJI80
 70
     0
 40
18.0
 41
0.833333333
 50
0.0
 71
     0
 42
18.0
  3
txt.shx
  4
extfont.shx
  0
ENDTAB
  0
TABLE
  2
VIEW
 70
     0
  0
ENDTAB
  0
ENDSEC
  0
SECTION
  2
BLOCKS
  0
ENDSEC
  0
SECTION
  2
ENTITIES
  0
POLYLINE
  8
0
  6
CONTINUOUS
 62
     6
 66
     1
  0
VERTEX
  8
0
  6
CONTINUOUS
 62
     6
 10
77.92
 20
82.7
 30
0.0
  0
VERTEX
  8
0
  6
CONTINUOUS
 62
     6
 10
77.92
 20
1696.7
 30
0.0
  0
VERTEX
  8
0
  6
CONTINUOUS
 62
     6
 10
2399.92
 20
1696.7
 30
0.0
  0
SEQEND
  0
LINE
  8
0
  6
CONTINUOUS
 62
     6
 10
83.919998738
 20
172.699981077
 30
0.0
 11
473.919916738
 21
172.699981077
 31
0.0
  0
LINE
  8
0
  6
CONTINUOUS
 62
     6
 10
83.919998738
 20
88.699998738
 30
0.0
 11
473.919916738
 21
88.699998738
 31
0.0
  0
LINE
  8
0
  6
CONTINUOUS
 62
     6
 10
83.919998738
 20
88.699998738
 30
0.0
 11
83.919998738
 21
172.699981077
 31
0.0
  0
LINE
  8
0
  6
CONTINUOUS
 62
     6
 10
83.919998738
 20
130.699989908
 30
0.0
 11
473.919916738
 21
130.699989908
 31
0.0
  0
LINE
  8
0
  6
CONTINUOUS
 62
     4
 10
9.6199996
 20
87.8999996
 30
0.0
 11
72.0199948
 21
87.8999996
 31
0.0
  0
LINE
  8
0
  6
CONTINUOUS
 62
     4
 10
9.6199996
 20
119.0999972
 30
0.0
 11
72.0199948
 21
119.0999972
 31
0.0
  0
LINE
  8
0
  6
CONTINUOUS
 62
     4
 10
9.6199996
 20
150.2999948
 30
0.0
 11
72.0199948
 21
150.2999948
 31
0.0
  0
LINE
  8
0
  6
CONTINUOUS
 62
     4
 10
9.6199996
 20
181.4999924
 30
0.0
 11
72.0199948
 21
181.4999924
 31
0.0
  0
LINE
  8
0
  6
CONTINUOUS
 62
     4
 10
9.6199996
 20
212.69999
 30
0.0
 11
72.0199948
 21
212.69999
 31
0.0
  0
LINE
  8
0
  6
CONTINUOUS
 62
     4
 10
9.6199996
 20
243.8999876
 30
0.0
 11
72.0199948
 21
243.8999876
 31
0.0
  0
LINE
  8
0
  6
CONTINUOUS
 62
     4
 10
9.6199996
 20
275.0999852
 30
0.0
 11
72.0199948
 21
275.0999852
 31
0.0
  0
LINE
  8
0
  6
CONTINUOUS
 62
     4
 10
9.6199996
 20
306.2999828
 30
0.0
 11
72.0199948
 21
306.2999828
 31
0.0
  0
LINE
  8
0
  6
CONTINUOUS
 62
     4
 10
9.6199996
 20
337.4999804
 30
0.0
 11
72.0199948
 21
337.4999804
 31
0.0
  0
LINE
  8
0
  6
CONTINUOUS
 62
     4
 10
9.6199996
 20
368.699978
 30
0.0
 11
72.0199948
 21
368.699978
 31
0.0
  0
LINE
  8
0
  6
CONTINUOUS
 62
     4
 10
72.0199948
 20
87.8999996
 30
0.0
 11
72.0199948
 21
368.699978
 31
0.0
  0
LINE
  8
0
  6
CONTINUOUS
 62
     4
 10
40.8199972
 20
87.8999996
 30
0.0
 11
40.8199972
 21
337.4999804
 31
0.0
  0
TEXT
  8
0
  6
CONTINUOUS
 62
     4
 10
20.27999878
 20
96.9999989
 30
1.55999988
 40
15.5999988
  1
計
 50
0.0
 41
0.75
 51
0.0
  7
KANJI0
  0
TEXT
  8
0
  6
CONTINUOUS
 62
     4
 10
20.27999878
 20
159.91999406
 30
1.55999988
 40
15.5999988
  1
設
 50
0.0
 41
0.75
 51
0.0
  7
KANJI0
  0
TEXT
  8
0
  6
CONTINUOUS
 62
     4
 10
20.27999878
 20
190.5999917
 30
1.55999988
 40
15.5999988
  1
管
 50
0.0
 41
0.75
 51
0.0
  7
KANJI0
  0
TEXT
  8
0
  6
CONTINUOUS
 62
     4
 10
20.27999878
 20
221.7999893
 30
1.55999988
 40
15.5999988
  1
製
 50
0.0
 41
0.75
 51
0.0
  7
KANJI0
  0
TEXT
  8
0
  6
CONTINUOUS
 62
     4
 10
20.27999878
 20
252.9999869
 30
1.55999988
 40
15.5999988
  1
資
 50
0.0
 41
0.75
 51
0.0
  7
KANJI0
  0
TEXT
  8
0
  6
CONTINUOUS
 62
     4
 10
20.27999878
 20
284.1999845
 30
1.55999988
 40
15.5999988
  1
営
 50
0.0
 41
0.75
 51
0.0
  7
KANJI0
  0
TEXT
  8
0
  6
CONTINUOUS
 62
     4
 10
20.27999878
 20
315.3999821
 30
1.55999988
 40
15.5999988
  1
客
 50
0.0
 41
0.75
 51
0.0
  7
KANJI0
  0
TEXT
  8
0
  6
CONTINUOUS
 62
     4
 10
20.0199988
 20
347.8999796
 30
1.55999988
 40
15.5999988
  1
出　図
 50
0.0
 41
0.75
 51
0.0
  7
KANJI0
  0
LINE
  8
0
  6
CONTINUOUS
 62
     4
 10
9.6199996
 20
87.8999996
 30
0.0
 11
9.6199996
 21
368.699978
 31
0.0
  0
LINE
  8
0
  6
CONTINUOUS
 62
     6
 10
2399.92
 20
82.7
 30
0.0
 11
77.92
 21
82.7
 31
0.0
  0
TEXT
  8
0
  6
CONTINUOUS
 62
     4
 10
95.919996215
 20
112.699993692
 30
1.199999748
 40
11.999997477
  1
ＰＡＲＴＳ　ＬＩＳＴ
 50
0.0
 41
0.6
 51
0.0
  7
KANJI1
  0
TEXT
  8
0
  6
CONTINUOUS
 62
     4
 10
95.919996215
 20
94.699997477
 30
1.439999697
 40
14.399996972
  1
部品表
 50
0.0
 41
0.9
 51
0.0
  7
KANJI2
  0
TEXT
  8
0
  6
CONTINUOUS
 62
     3
 10
95.919996215
 20
142.699987385
 30
1.799999622
 40
17.999996215
  1
ＰＬ
 50
0.0
 41
0.9
 51
0.0
  7
KANJI3
  0
TEXT
  8
0
  6
CONTINUOUS
 62
     4
 10
365.919939446
 20
112.699993692
 30
1.199999748
 40
11.999997477
  1
Ｎ０．
 50
0.0
 41
0.6
 51
0.0
  7
KANJI1
  0
TEXT
  8
0
  6
CONTINUOUS
 62
     4
 10
365.919939446
 20
94.699997477
 30
1.439999697
 40
14.399996972
  1
項番
 50
0.0
 41
0.9
 51
0.0
  7
KANJI2
  0
LINE
  8
0
  6
CONTINUOUS
 62
     6
 10
473.919916738
 20
88.699998738
 30
0.0
 11
473.919916738
 21
172.699981077
 31
0.0
  0
LINE
  8
0
  6
CONTINUOUS
 62
     6
 10
353.919941969
 20
88.699998738
 30
0.0
 11
353.919941969
 21
172.699981077
 31
0.0
  0
LINE
  8
0
  6
CONTINUOUS
 62
     6
 10
2399.92
 20
1696.7
 30
0.0
 11
2399.92
 21
82.7
 31
0.0
  0
LINE
  8
0
  6
CONTINUOUS
 62
     6
 10
1593.920062
 20
87.8999996
 30
0.0
 11
1593.920062
 21
420.699974
 31
0.0
  0
LINE
  8
0
  6
CONTINUOUS
 62
     6
 10
2394.7200004
 20
87.8999996
 30
0.0
 11
2394.7200004
 21
420.699974
 31
0.0
  0
LINE
  8
0
  6
CONTINUOUS
 62
     4
 10
1783.7200474
 20
87.8999996
 30
0.0
 11
1783.7200474
 21
420.699974
 31
0.0
  0
LINE
  8
0
  6
CONTINUOUS
 62
     4
 10
1593.920062
 20
129.4999964
 30
0.0
 11
1783.7200474
 21
129.4999964
 31
0.0
  0
TEXT
  8
0
  6
CONTINUOUS
 62
     4
 10
1604.3200612
 20
111.2999978
 30
1.03999992
 40
10.3999992
  1
ＳＣＡＬＥ
 50
0.0
 41
0.6
 51
0.0
  7
KANJI4
  0
TEXT
  8
0
  6
CONTINUOUS
 62
     4
 10
1604.3200612
 20
95.699999
 30
1.247999904
 40
12.47999904
  1
尺度
 50
0.0
 41
0.6
 51
0.0
  7
KANJI5
  0
LINE
  8
0
  6
CONTINUOUS
 62
     6
 10
1183.1200936
 20
129.4999964
 30
0.0
 11
1593.920062
 21
129.4999964
 31
0.0
  0
LINE
  8
0
  6
CONTINUOUS
 62
     6
 10
1183.1200936
 20
87.8999996
 30
0.0
 11
2394.7200004
 21
87.8999996
 31
0.0
  0
TEXT
  8
0
  6
CONTINUOUS
 62
     6
 10
1788.920047
 20
111.2999978
 30
0.0
 40
18.1999986
  1
ＵＮＩＴＥＣ　ＩＮＤＵＳＴＲＹ　ＣＯ．，ＬＴＤ．
 50
0.0
 41
0.42031746
 51
0.0
  7
KANJI6
  0
TEXT
  8
0
  6
CONTINUOUS
 62
     6
 10
2044.175027365
 20
104.53999832
 30
3.11999976
 40
31.1999976
  1
ユニテック工業株式会社
 50
0.0
 41
0.9
 51
0.0
  7
KANJI7
  0
LINE
  8
0
  6
CONTINUOUS
 62
     6
 10
2002.575030565
 20
115.45999748
 30
0.0
 11
1988.847031621
 21
115.45999748
 31
0.0
  0
LINE
  8
0
  6
CONTINUOUS
 62
     6
 10
2002.575030565
 20
117.955997288
 30
0.0
 11
1988.847031621
 21
117.955997288
 31
0.0
  0
LINE
  8
0
  6
CONTINUOUS
 62
     6
 10
2002.575030565
 20
115.45999748
 30
0.0
 11
2016.303029509
 21
115.45999748
 31
0.0
  0
LINE
  8
0
  6
CONTINUOUS
 62
     6
 10
2002.575030565
 20
117.955997288
 30
0.0
 11
2016.303029509
 21
117.955997288
 31
0.0
  0
LINE
  8
0
  6
CONTINUOUS
 62
     6
 10
2016.303029509
 20
117.955997288
 30
0.0
 11
2016.303029509
 21
115.45999748
 31
0.0
  0
ARC
  8
0
  6
CONTINUOUS
 62
     6
 10
2019.423029269
 20
116.707997384
 30
0.0
 40
12.47999904
 50
185.739170477
 51
90.0
  0
ARC
  8
0
  6
CONTINUOUS
 62
     6
 10
2019.423029269
 20
116.707997384
 30
0.0
 40
14.975998848
 50
184.780191847
 51
90.0
  0
LINE
  8
0
  6
CONTINUOUS
 62
     6
 10
1988.847031621
 20
115.45999748
 30
0.0
 11
1988.847031621
 21
117.955997288
 31
0.0
  0
ARC
  8
0
  6
CONTINUOUS
 62
     6
 10
1985.727031861
 20
116.707997384
 30
0.0
 40
12.47999904
 50
90.0
 51
354.260829523
  0
ARC
  8
0
  6
CONTINUOUS
 62
     6
 10
1985.727031861
 20
116.707997384
 30
0.0
 40
14.975998848
 50
90.0
 51
355.219808153
  0
LINE
  8
0
  6
CONTINUOUS
 62
     6
 10
2000.703030709
 20
131.683996232
 30
0.0
 11
2000.703030709
 21
129.187996424
 31
0.0
  0
LINE
  8
0
  6
CONTINUOUS
 62
     6
 10
1985.727031861
 20
129.187996424
 30
0.0
 11
2000.703030709
 21
129.187996424
 31
0.0
  0
LINE
  8
0
  6
CONTINUOUS
 62
     6
 10
2004.447030421
 20
131.683996232
 30
0.0
 11
2004.447030421
 21
129.187996424
 31
0.0
  0
LINE
  8
0
  6
CONTINUOUS
 62
     6
 10
2019.423029269
 20
129.187996424
 30
0.0
 11
2004.447030421
 21
129.187996424
 31
0.0
  0
TEXT
  8
0
  6
CONTINUOUS
 62
     4
 10
1315.7200834
 20
111.2999978
 30
1.03999992
 40
10.3999992
  1
ＢＹ
 50
0.0
 41
0.6
 51
0.0
  7
KANJI4
  0
TEXT
  8
0
  6
CONTINUOUS
 62
     4
 10
1430.1200746
 20
111.2999978
 30
1.03999992
 40
10.3999992
  1
ＤＥＳＣＲＩＰＴＩＯＮ
 50
0.0
 41
0.6
 51
0.0
  7
KANJI4
  0
TEXT
  8
0
  6
CONTINUOUS
 62
     4
 10
1315.7200834
 20
95.699999
 30
1.247999904
 40
12.47999904
  1
担当
 50
0.0
 41
0.6
 51
0.0
  7
KANJI5
  0
TEXT
  8
0
  6
CONTINUOUS
 62
     4
 10
1445.7200734
 20
95.699999
 30
1.247999904
 40
12.47999904
  1
記　　　　事
 50
0.0
 41
0.6
 51
0.0
  7
KANJI5
  0
LINE
  8
0
  6
CONTINUOUS
 62
     4
 10
1205.2200919
 20
121.699997
 30
0.0
 11
1188.3200932
 21
95.699999
 31
0.0
  0
TEXT
  8
0
  6
CONTINUOUS
 62
     4
 10
1248.1200886
 20
111.2999978
 30
1.03999992
 40
10.3999992
  1
ＤＡＴＥ
 50
0.0
 41
0.6
 51
0.0
  7
KANJI4
  0
TEXT
  8
0
  6
CONTINUOUS
 62
     4
 10
1255.920088
 20
95.699999
 30
1.247999904
 40
12.47999904
  1
日付
 50
0.0
 41
0.6
 51
0.0
  7
KANJI5
  0
LINE
  8
0
  6
CONTINUOUS
 62
     4
 10
1188.3200932
 20
95.699999
 30
0.0
 11
1222.1200906
 21
95.699999
 31
0.0
  0
LINE
  8
0
  6
CONTINUOUS
 62
     4
 10
1205.2200919
 20
121.699997
 30
0.0
 11
1222.1200906
 21
95.699999
 31
0.0
  0
LINE
  8
0
  6
CONTINUOUS
 62
     6
 10
1183.1200936
 20
87.8999996
 30
0.0
 11
1183.1200936
 21
129.4999964
 31
0.0
  0
LINE
  8
0
  6
CONTINUOUS
 62
     4
 10
1227.3200902
 20
87.8999996
 30
0.0
 11
1227.3200902
 21
129.4999964
 31
0.0
  0
LINE
  8
0
  6
CONTINUOUS
 62
     4
 10
1300.1200846
 20
87.8999996
 30
0.0
 11
1300.1200846
 21
129.4999964
 31
0.0
  0
LINE
  8
0
  6
CONTINUOUS
 62
     4
 10
1346.920081
 20
87.8999996
 30
0.0
 11
1346.920081
 21
129.4999964
 31
0.0
  0
TEXT
  8
0
  6
CONTINUOUS
 62
     4
 10
1604.3200612
 20
319.2999818
 30
1.03999992
 40
10.3999992
  1
ＣＯＤＥ
 50
0.0
 41
0.6
 51
0.0
  7
KANJI4
  0
LINE
  8
0
  6
CONTINUOUS
 62
     4
 10
1593.920062
 20
337.4999804
 30
0.0
 11
2394.7200004
 21
337.4999804
 31
0.0
  0
TEXT
  8
0
  6
CONTINUOUS
 62
     4
 10
1604.3200612
 20
303.699983
 30
1.247999904
 40
12.47999904
  1
分類
 50
0.0
 41
0.6
 51
0.0
  7
KANJI5
  0
TEXT
  8
0
  6
CONTINUOUS
 62
     4
 10
1612.42
 20
343.7
 30
6.0
 40
21.6
  1
ご注文主
 50
0.0
 41
1.111111111
 51
0.0
  7
KANJI8
  0
TEXT
  8
0
  6
CONTINUOUS
 62
     4
 10
1604.3200612
 20
194.4999914
 30
1.03999992
 40
10.3999992
  1
ＤＲＡＷＮ
 50
0.0
 41
0.6
 51
0.0
  7
KANJI4
  0
TEXT
  8
0
  6
CONTINUOUS
 62
     4
 10
1604.3200612
 20
236.0999882
 30
1.03999992
 40
10.3999992
  1
ＤＥＳＩＧＮ
 50
0.0
 41
0.6
 51
0.0
  7
KANJI4
  0
TEXT
  8
0
  6
CONTINUOUS
 62
     4
 10
1604.3200612
 20
277.699985
 30
1.03999992
 40
10.3999992
  1
ＣＨＥＣＫ
 50
0.0
 41
0.6
 51
0.0
  7
KANJI4
  0
LINE
  8
0
  6
CONTINUOUS
 62
     4
 10
1593.920062
 20
254.2999868
 30
0.0
 11
1783.7200474
 21
254.2999868
 31
0.0
  0
LINE
  8
0
  6
CONTINUOUS
 62
     4
 10
1593.920062
 20
212.69999
 30
0.0
 11
1783.7200474
 21
212.69999
 31
0.0
  0
LINE
  8
0
  6
CONTINUOUS
 62
     4
 10
1593.920062
 20
295.8999836
 30
0.0
 11
1783.7200474
 21
295.8999836
 31
0.0
  0
TEXT
  8
0
  6
CONTINUOUS
 62
     4
 10
1604.3200612
 20
220.4999894
 30
1.247999904
 40
12.47999904
  1
設計
 50
0.0
 41
0.6
 51
0.0
  7
KANJI5
  0
TEXT
  8
0
  6
CONTINUOUS
 62
     4
 10
1604.3200612
 20
262.0999862
 30
1.247999904
 40
12.47999904
  1
検図
 50
0.0
 41
0.6
 51
0.0
  7
KANJI5
  0
LINE
  8
0
  6
CONTINUOUS
 62
     4
 10
1799.06004622
 20
295.8999836
 30
0.0
 11
2394.7200004
 21
295.8999836
 31
0.0
  0
LINE
  8
0
  6
CONTINUOUS
 62
     4
 10
1783.7200474
 20
212.69999
 30
0.0
 11
2394.7200004
 21
212.69999
 31
0.0
  0
TEXT
  8
0
  6
CONTINUOUS
 62
     4
 10
1794.1200466
 20
194.4999914
 30
1.03999992
 40
10.3999992
  1
ＤＲＡＷＩＮＧ　ＮＯ．
 50
0.0
 41
0.8
 51
0.0
  7
KANJI9
  0
TEXT
  8
0
  6
CONTINUOUS
 62
     4
 10
1794.1200466
 20
236.0999882
 30
1.03999992
 40
10.3999992
  1
ＭＦＧ　ＮＯ．
 50
0.0
 41
0.8
 51
0.0
  7
KANJI9
  0
TEXT
  8
0
  6
CONTINUOUS
 62
     4
 10
1794.1200466
 20
277.699985
 30
1.03999992
 40
10.3999992
  1
ＴＹＰＥ
 50
0.0
 41
0.8
 51
0.0
  7
KANJI9
  0
LINE
  8
0
  6
CONTINUOUS
 62
     4
 10
1799.3200462
 20
254.2999868
 30
0.0
 11
2038.5200278
 21
254.2999868
 31
0.0
  0
TEXT
  8
0
  6
CONTINUOUS
 62
     4
 10
1794.1200466
 20
176.2999928
 30
1.247999904
 40
12.47999904
  1
図　面　番　号
 50
0.0
 41
0.8
 51
0.0
  7
KANJI10
  0
TEXT
  8
0
  6
CONTINUOUS
 62
     4
 10
1794.1200466
 20
217.8999896
 30
1.247999904
 40
12.47999904
  1
製番
 50
0.0
 41
0.8
 51
0.0
  7
KANJI10
  0
TEXT
  8
0
  6
CONTINUOUS
 62
     4
 10
1794.1200466
 20
259.4999864
 30
1.247999904
 40
12.47999904
  1
機種
 50
0.0
 41
0.8
 51
0.0
  7
KANJI10
  0
LINE
  8
0
  6
CONTINUOUS
 62
     4
 10
1593.920062
 20
171.0999932
 30
0.0
 11
1783.7200474
 21
171.0999932
 31
0.0
  0
TEXT
  8
0
  6
CONTINUOUS
 62
     4
 10
1604.3200612
 20
152.8999946
 30
1.03999992
 40
10.3999992
  1
ＤＡＴＥ
 50
0.0
 41
0.6
 51
0.0
  7
KANJI4
  0
TEXT
  8
0
  6
CONTINUOUS
 62
     4
 10
1604.3200612
 20
137.2999958
 30
1.247999904
 40
12.47999904
  1
日付
 50
0.0
 41
0.6
 51
0.0
  7
KANJI5
  0
TEXT
  8
0
  6
CONTINUOUS
 62
     4
 10
1604.3200612
 20
178.8999926
 30
1.247999904
 40
12.47999904
  1
作図
 50
0.0
 41
0.6
 51
0.0
  7
KANJI5
  0
LINE
  8
0
  6
CONTINUOUS
 62
     4
 10
1783.7200474
 20
152.8999946
 30
0.0
 11
2394.7200004
 21
152.8999946
 31
0.0
  0
LINE
  8
0
  6
LTYPE1
 62
     4
 10
2220.5200138
 20
160.699994
 30
0.0
 11
2220.5200138
 21
202.2999908
 31
0.0
  0
LINE
  8
0
  6
LTYPE1
 62
     4
 10
2184.1200166
 20
160.699994
 30
0.0
 11
2184.1200166
 21
202.2999908
 31
0.0
  0
LINE
  8
0
  6
LTYPE1
 62
     4
 10
2147.7200194
 20
160.699994
 30
0.0
 11
2147.7200194
 21
202.2999908
 31
0.0
  0
LINE
  8
0
  6
LTYPE1
 62
     4
 10
2111.3200222
 20
160.699994
 30
0.0
 11
2111.3200222
 21
202.2999908
 31
0.0
  0
LINE
  8
0
  6
LTYPE1
 62
     4
 10
2074.920025
 20
160.699994
 30
0.0
 11
2074.920025
 21
202.2999908
 31
0.0
  0
LINE
  8
0
  6
LTYPE1
 62
     4
 10
2038.5200278
 20
160.699994
 30
0.0
 11
2038.5200278
 21
202.2999908
 31
0.0
  0
LINE
  8
0
  6
LTYPE1
 62
     4
 10
2002.1200306
 20
160.699994
 30
0.0
 11
2002.1200306
 21
202.2999908
 31
0.0
  0
LINE
  8
0
  6
LTYPE1
 62
     4
 10
1965.7200334
 20
160.699994
 30
0.0
 11
1965.7200334
 21
202.2999908
 31
0.0
  0
LINE
  8
0
  6
LTYPE1
 62
     4
 10
1965.7200334
 20
202.2999908
 30
0.0
 11
2220.5200138
 21
202.2999908
 31
0.0
  0
LINE
  8
0
  6
LTYPE1
 62
     4
 10
1965.7200334
 20
160.699994
 30
0.0
 11
2220.5200138
 21
160.699994
 31
0.0
  0
LINE
  8
0
  6
CONTINUOUS
 62
     4
 10
2241.3200122
 20
182.7999923
 30
0.0
 11
2251.7200114
 21
182.7999923
 31
0.0
  0
LINE
  8
0
  6
CONTINUOUS
 62
     4
 10
2306.3200072
 20
167.1999935
 30
0.0
 11
2269.92001
 21
167.1999935
 31
0.0
  0
LINE
  8
0
  6
CONTINUOUS
 62
     4
 10
2269.92001
 20
167.1999935
 30
0.0
 11
2288.1200086
 21
198.3999911
 31
0.0
  0
LINE
  8
0
  6
CONTINUOUS
 62
     4
 10
2288.1200086
 20
198.3999911
 30
0.0
 11
2306.3200072
 21
167.1999935
 31
0.0
  0
TEXT
  8
0
  6
CONTINUOUS
 62
     4
 10
2054.1200266
 20
277.699985
 30
1.03999992
 40
10.3999992
  1
ＴＩＴＬＥ
 50
0.0
 41
0.8
 51
0.0
  7
KANJI9
  0
TEXT
  8
0
  6
CONTINUOUS
 62
     4
 10
2054.1200266
 20
259.4999864
 30
1.247999904
 40
12.47999904
  1
名称
 50
0.0
 41
0.8
 51
0.0
  7
KANJI10
  0
TEXT
  8
0
  6
CONTINUOUS
 62
     2
 10
2138.92
 20
220.7
 30
15.0
 40
30.0
  1
外形寸法図
 50
0.0
 41
1.0
 51
0.0
  7
KANJI11
  0
TEXT
  8
0
  6
CONTINUOUS
 62
     2
 10
2102.92
 20
256.7
 30
4.285714286
 40
30.0
  1
マイティシリンダ
 50
0.0
 41
1.0
 51
0.0
  7
KANJI12
  0
TEXT
  8
0
  6
CONTINUOUS
 62
     2
 10
1934.2200334
 20
166.699994
 30
1.8
 40
30.0
  1
Ａ
 50
0.0
 41
0.8
 51
0.0
  7
KANJI13
  0
CIRCLE
  8
0
  6
CONTINUOUS
 62
     2
 10
1895.2200334
 20
231.199994
 30
0.0
 40
15.0
  0
TEXT
  8
0
  6
CONTINUOUS
 62
     2
 10
1883.9700334
 20
219.949994
 30
1.8
 40
24.0
  1
Ｓ
 50
0.0
 41
1.0
 51
0.0
  7
KANJI14
  0
LINE
  8
0
  6
CONTINUOUS
 62
     6
 10
2000.703030709
 20
131.683996232
 30
0.0
 11
1985.727031861
 21
131.683996232
 31
0.0
  0
LINE
  8
0
  6
CONTINUOUS
 62
     6
 10
2004.447030421
 20
131.683996232
 30
0.0
 11
2019.423029269
 21
131.683996232
 31
0.0
  0
TEXT
  8
0
  6
CONTINUOUS
 62
     2
 10
1660.9200334
 20
181.699994
 30
6.0
 40
21.0
  1
岡田
 50
0.0
 41
0.857142857
 51
0.0
  7
KANJI15
  0
LINE
  8
0
  6
CONTINUOUS
 62
     4
 10
2394.7200004
 20
379.0999772
 30
0.0
 11
2394.7200004
 21
420.699974
 31
0.0
  0
LINE
  8
0
  6
CONTINUOUS
 62
     6
 10
1594.670062
 20
379.0999772
 30
0.0
 11
2395.4700004
 21
379.0999772
 31
0.0
  0
LINE
  8
0
  6
CONTINUOUS
 62
     6
 10
1593.920062
 20
420.699974
 30
0.0
 11
2394.7200004
 21
420.699974
 31
0.0
  0
TEXT
  8
0
  6
CONTINUOUS
 62
     4
 10
1612.42
 20
385.2999968
 30
6.0
 40
21.6
  1
ご用途
 50
0.0
 41
1.111111111
 51
0.0
  7
KANJI8
  0
TEXT
  8
0
  6
CONTINUOUS
 62
     2
 10
1703.92
 20
94.7
 30
1.8
 40
27.0
  1
１／６
 50
0.0
 41
0.666666667
 51
0.0
  7
KANJI16
  0
LINE
  8
0
  6
CONTINUOUS
 62
     1
 10
1518.37
 20
1685.9
 30
0.0
 11
1518.37
 21
1565.78
 31
0.0
  0
LINE
  8
0
  6
CONTINUOUS
 62
     2
 10
1449.07
 20
1685.9
 30
0.0
 11
1449.07
 21
1565.78
 31
0.0
  0
LINE
  8
0
  6
CONTINUOUS
 62
     2
 10
1379.77
 20
1685.9
 30
0.0
 11
1379.77
 21
1565.78
 31
0.0
  0
LINE
  8
0
  6
CONTINUOUS
 62
     1
 10
1287.37
 20
1685.9
 30
0.0
 11
1287.37
 21
1565.78
 31
0.0
  0
LINE
  8
0
  6
CONTINUOUS
 62
     1
 10
1287.37
 20
1685.9
 30
0.0
 11
1518.37
 21
1685.9
 31
0.0
  0
LINE
  8
0
  6
CONTINUOUS
 62
     1
 10
1287.37
 20
1648.94
 30
0.0
 11
1518.37
 21
1648.94
 31
0.0
  0
LINE
  8
0
  6
CONTINUOUS
 62
     2
 10
1287.37
 20
1621.22
 30
0.0
 11
1518.37
 21
1621.22
 31
0.0
  0
LINE
  8
0
  6
CONTINUOUS
 62
     2
 10
1287.37
 20
1593.5
 30
0.0
 11
1518.37
 21
1593.5
 31
0.0
  0
LINE
  8
0
  6
CONTINUOUS
 62
     1
 10
1287.37
 20
1565.78
 30
0.0
 11
1518.37
 21
1565.78
 31
0.0
  0
TEXT
  8
0
  6
CONTINUOUS
 62
     2
 10
1458.31
 20
1669.73
 30
1.386
 40
13.86
  1
起動電流
 50
0.0
 41
0.9
 51
0.0
  7
KANJI17
  0
TEXT
  8
0
  6
CONTINUOUS
 62
     2
 10
1458.31
 20
1653.56
 30
1.386
 40
13.86
  1
　　　Ａ
 50
0.0
 41
0.9
 51
0.0
  7
KANJI17
  0
TEXT
  8
0
  6
CONTINUOUS
 62
     2
 10
1389.01
 20
1669.73
 30
1.386
 40
13.86
  1
定格電流
 50
0.0
 41
0.9
 51
0.0
  7
KANJI17
  0
TEXT
  8
0
  6
CONTINUOUS
 62
     2
 10
1389.01
 20
1653.56
 30
1.386
 40
13.86
  1
　　　Ａ
 50
0.0
 41
0.9
 51
0.0
  7
KANJI17
  0
TEXT
  8
0
  6
CONTINUOUS
 62
     2
 10
1295.224
 20
1600.43
 30
1.386
 40
13.86
  1
２００／６０
 50
0.0
 41
0.9
 51
0.0
  7
KANJI17
  0
TEXT
  8
0
  6
CONTINUOUS
 62
     2
 10
1295.224
 20
1669.73
 30
1.386
 40
13.86
  1
電圧／周波数
 50
0.0
 41
0.9
 51
0.0
  7
KANJI17
  0
TEXT
  8
0
  6
CONTINUOUS
 62
     2
 10
1295.224
 20
1653.56
 30
1.386
 40
13.86
  1
　Ｖ／Ｈｚ
 50
0.0
 41
0.9
 51
0.0
  7
KANJI17
  0
TEXT
  8
0
  6
CONTINUOUS
 62
     2
 10
1295.224
 20
1628.15
 30
1.386
 40
13.86
  1
２００／５０
 50
0.0
 41
0.9
 51
0.0
  7
KANJI17
  0
TEXT
  8
0
  6
CONTINUOUS
 62
     2
 10
1295.224
 20
1572.71
 30
1.386
 40
13.86
  1
２２０／６０
 50
0.0
 41
0.9
 51
0.0
  7
KANJI17
  0
LINE
  8
0
  6
CONTINUOUS
 62
     1
 10
1241.17
 20
1685.9
 30
0.0
 11
1241.17
 21
1565.78
 31
0.0
  0
LINE
  8
0
  6
CONTINUOUS
 62
     2
 10
1171.87
 20
1685.9
 30
0.0
 11
1171.87
 21
1565.78
 31
0.0
  0
LINE
  8
0
  6
CONTINUOUS
 62
     2
 10
1102.57
 20
1685.9
 30
0.0
 11
1102.57
 21
1565.78
 31
0.0
  0
LINE
  8
0
  6
CONTINUOUS
 62
     1
 10
1010.17
 20
1685.9
 30
0.0
 11
1010.17
 21
1565.78
 31
0.0
  0
LINE
  8
0
  6
CONTINUOUS
 62
     1
 10
1010.17
 20
1685.9
 30
0.0
 11
1241.17
 21
1685.9
 31
0.0
  0
LINE
  8
0
  6
CONTINUOUS
 62
     1
 10
1010.17
 20
1648.94
 30
0.0
 11
1241.17
 21
1648.94
 31
0.0
  0
LINE
  8
0
  6
CONTINUOUS
 62
     2
 10
1010.17
 20
1621.22
 30
0.0
 11
1241.17
 21
1621.22
 31
0.0
  0
LINE
  8
0
  6
CONTINUOUS
 62
     2
 10
1010.17
 20
1593.5
 30
0.0
 11
1241.17
 21
1593.5
 31
0.0
  0
LINE
  8
0
  6
CONTINUOUS
 62
     1
 10
1010.17
 20
1565.78
 30
0.0
 11
1241.17
 21
1565.78
 31
0.0
  0
TEXT
  8
0
  6
CONTINUOUS
 62
     2
 10
1181.11
 20
1669.73
 30
1.386
 40
13.86
  1
起動電流
 50
0.0
 41
0.9
 51
0.0
  7
KANJI17
  0
TEXT
  8
0
  6
CONTINUOUS
 62
     2
 10
1181.11
 20
1653.56
 30
1.386
 40
13.86
  1
　　　Ａ
 50
0.0
 41
0.9
 51
0.0
  7
KANJI17
  0
TEXT
  8
0
  6
CONTINUOUS
 62
     2
 10
1111.81
 20
1669.73
 30
1.386
 40
13.86
  1
定格電流
 50
0.0
 41
0.9
 51
0.0
  7
KANJI17
  0
TEXT
  8
0
  6
CONTINUOUS
 62
     2
 10
1111.81
 20
1653.56
 30
1.386
 40
13.86
  1
　　　Ａ
 50
0.0
 41
0.9
 51
0.0
  7
KANJI17
  0
TEXT
  8
0
  6
CONTINUOUS
 62
     2
 10
1018.024
 20
1669.73
 30
1.386
 40
13.86
  1
電圧／周波数
 50
0.0
 41
0.9
 51
0.0
  7
KANJI17
  0
TEXT
  8
0
  6
CONTINUOUS
 62
     2
 10
1018.024
 20
1653.56
 30
1.386
 40
13.86
  1
　Ｖ／Ｈｚ
 50
0.0
 41
0.9
 51
0.0
  7
KANJI17
  0
TEXT
  8
0
  6
CONTINUOUS
 62
     2
 10
1018.024
 20
1628.15
 30
1.386
 40
13.86
  1
４００／５０
 50
0.0
 41
0.9
 51
0.0
  7
KANJI17
  0
TEXT
  8
0
  6
CONTINUOUS
 62
     2
 10
1018.024
 20
1600.43
 30
1.386
 40
13.86
  1
４００／６０
 50
0.0
 41
0.9
 51
0.0
  7
KANJI17
  0
TEXT
  8
0
  6
CONTINUOUS
 62
     2
 10
1018.024
 20
1572.71
 30
1.386
 40
13.86
  1
４４０／６０
 50
0.0
 41
0.9
 51
0.0
  7
KANJI17
  0
TEXT
  8
0
  6
CONTINUOUS
 62
     2
 10
1114.267493476
 20
1626.15
 30
1.386
 40
13.86
  1
　３．２
 50
0.0
 41
0.9
 51
0.0
  7
KANJI17
  0
TEXT
  8
0
  6
CONTINUOUS
 62
     2
 10
1114.267493476
 20
1598.43
 30
1.386
 40
13.86
  1
　２．８
 50
0.0
 41
0.9
 51
0.0
  7
KANJI17
  0
TEXT
  8
0
  6
CONTINUOUS
 62
     2
 10
1114.267493476
 20
1570.71
 30
1.386
 40
13.86
  1
　２．７
 50
0.0
 41
0.9
 51
0.0
  7
KANJI17
  0
TEXT
  8
0
  6
CONTINUOUS
 62
     2
 10
1391.467493476
 20
1570.71
 30
1.386
 40
13.86
  1
　５．３
 50
0.0
 41
0.9
 51
0.0
  7
KANJI17
  0
TEXT
  8
0
  6
CONTINUOUS
 62
     2
 10
1391.467493476
 20
1598.43
 30
1.386
 40
13.86
  1
　５．２
 50
0.0
 41
0.9
 51
0.0
  7
KANJI17
  0
TEXT
  8
0
  6
CONTINUOUS
 62
     2
 10
1391.467493476
 20
1626.15
 30
1.386
 40
13.86
  1
　６．１
 50
0.0
 41
0.9
 51
0.0
  7
KANJI17
  0
TEXT
  8
0
  6
CONTINUOUS
 62
     2
 10
1460.767493476
 20
1626.15
 30
1.386
 40
13.86
  1
２５．１
 50
0.0
 41
0.9
 51
0.0
  7
KANJI17
  0
TEXT
  8
0
  6
CONTINUOUS
 62
     2
 10
1460.767493476
 20
1598.43
 30
1.386
 40
13.86
  1
２２．５
 50
0.0
 41
0.9
 51
0.0
  7
KANJI17
  0
TEXT
  8
0
  6
CONTINUOUS
 62
     2
 10
1460.767493476
 20
1570.71
 30
1.386
 40
13.86
  1
２４．８
 50
0.0
 41
0.9
 51
0.0
  7
KANJI17
  0
TEXT
  8
0
  6
CONTINUOUS
 62
     2
 10
1183.567493476
 20
1626.15
 30
1.386
 40
13.86
  1
１２．５
 50
0.0
 41
0.9
 51
0.0
  7
KANJI17
  0
TEXT
  8
0
  6
CONTINUOUS
 62
     2
 10
1183.567493476
 20
1598.43
 30
1.386
 40
13.86
  1
１１．３
 50
0.0
 41
0.9
 51
0.0
  7
KANJI17
  0
TEXT
  8
0
  6
CONTINUOUS
 62
     2
 10
1183.567493476
 20
1570.71
 30
1.386
 40
13.86
  1
１２．４
 50
0.0
 41
0.9
 51
0.0
  7
KANJI17
  0
TEXT
  8
0
  6
CONTINUOUS
 62
     2
 10
1856.92
 20
262.7
 30
0.0
 40
21.0
  1
ＭＣＬＤ１－ＪＬ
 50
0.0
 41
0.793650794
 51
0.0
  7
KANJI18
  0
TEXT
  8
0
  6
CONTINUOUS
 62
     2
 10
1971.7200334
 20
166.699994
 30
13.0
 40
30.0
  1
３００２４４９
 50
0.0
 41
0.8
 51
0.0
  7
KANJI19
  0
TEXT
  8
0
  6
CONTINUOUS
 62
     2
 10
171.4
 20
37.4
 30
0.0
 40
18.0
  1
ＦＤ　Ｎｏ．ＭＣ１９２
 50
0.0
 41
0.9
 51
0.0
  7
KANJI20
  0
TEXT
  8
0
  6
CONTINUOUS
 62
     2
 10
1050.133
 20
1544.99
 30
1.617
 40
16.17
  1
注意：サーマルリレー等の選定は、上記の値で選定して下さい。
 50
0.0
 41
0.9
 51
0.0
  7
KANJI21
  0
LINE
  8
0
  6
CONTINUOUS
 62
     2
 10
1040.893
 20
1540.37
 30
0.0
 11
1504.0
 21
1540.37
 31
0.0
  0
LINE
  8
0
  6
CONTINUOUS
 62
     6
 10
351.629425053
 20
1642.447759827
 30
0.0
 11
119.584646507
 21
1642.447759827
 31
0.0
  0
TEXT
  8
0
  6
CONTINUOUS
 62
     6
 10
123.493517202
 20
1645.64592676
 30
1.0647
 40
11.661
  1
ＬＳ０１　　　：推力リミッタ（前進時過負荷用）
 50
0.0
 41
0.822608696
 51
0.0
  7
KANJI22
  0
TEXT
  8
0
  6
CONTINUOUS
 62
     6
 10
123.493517202
 20
1618.18342676
 30
1.0647
 40
11.661
  1
ＬＳ０２　　　：推力リミッタ（後進時過負荷用）
 50
0.0
 41
0.822608696
 51
0.0
  7
KANJI22
  0
LINE
  8
0
  6
CONTINUOUS
 62
     3
 10
351.629425053
 20
1614.985259827
 30
0.0
 11
119.584646507
 21
1614.985259827
 31
0.0
  0
LINE
  8
0
  6
CONTINUOUS
 62
     6
 10
351.629425053
 20
1614.985259827
 30
0.0
 11
119.584646507
 21
1614.985259827
 31
0.0
  0
TEXT
  8
0
  6
CONTINUOUS
 62
     6
 10
377.212228
 20
1639.900410728
 30
1.232517
 40
13.182
  1
電気定格　　　
 50
0.0
 41
0.85
 51
0.0
  7
KANJI23
  0
TEXT
  8
0
  6
CONTINUOUS
 62
     6
 10
390.013715102
 20
1609.326958599
 30
0.0
 40
11.8638
  1
ＤＣ１２５Ｖ　０．６Ａ　，ＤＣ２５０Ｖ　０．３Ａ　
 50
0.0
 41
0.726495726
 51
0.0
  7
KANJI24
  0
TEXT
  8
0
  6
CONTINUOUS
 62
     6
 10
384.757132178
 20
1657.661726126
 30
0.0
 40
55.0
  1
｝
 50
0.0
 41
0.440318182
 51
0.0
  7
KANJI25
  0
LINE
  8
0
  6
LTYPE2
 62
     6
 10
103.42
 20
1369.3
 30
0.0
 11
624.02
 21
1369.3
 31
0.0
  0
LINE
  8
0
  6
LTYPE2
 62
     6
 10
624.02
 20
1369.3
 30
0.0
 11
624.02
 21
1672.4
 31
0.0
  0
LINE
  8
0
  6
LTYPE2
 62
     6
 10
624.02
 20
1672.4
 30
0.0
 11
103.42
 21
1672.4
 31
0.0
  0
LINE
  8
0
  6
LTYPE2
 62
     6
 10
103.42
 20
1672.4
 30
0.0
 11
103.42
 21
1369.3
 31
0.0
  0
TEXT
  8
0
  6
CONTINUOUS
 62
     6
 10
288.632791539
 20
1387.32382165
 30
0.0
 40
17.740702234
  1
端子台　接続図
 50
0.0
 41
0.880962996
 51
0.0
  7
KANJI26
  0
LINE
  8
0
  6
CONTINUOUS
 62
     2
 10
323.597373465
 20
1438.328121884
 30
0.0
 11
323.597373465
 21
1415.549155128
 31
0.0
  0
LINE
  8
0
  6
CONTINUOUS
 62
     2
 10
350.17283468
 20
1438.328121884
 30
0.0
 11
350.17283468
 21
1415.549155128
 31
0.0
  0
LINE
  8
0
  6
CONTINUOUS
 62
     2
 10
376.748295894
 20
1438.328121884
 30
0.0
 11
376.748295894
 21
1415.549155128
 31
0.0
  0
LINE
  8
0
  6
CONTINUOUS
 62
     2
 10
403.323757109
 20
1438.328121884
 30
0.0
 11
403.323757109
 21
1415.549155128
 31
0.0
  0
CIRCLE
  8
0
  6
CONTINUOUS
 62
     6
 10
395.404269667
 20
1461.807921517
 30
0.0
 40
4.100214016
  0
LINE
  8
0
  6
CONTINUOUS
 62
     6
 10
391.304055651
 20
1461.807921517
 30
0.0
 11
390.036026502
 21
1461.807921517
 31
0.0
  0
LINE
  8
0
  6
CONTINUOUS
 62
     6
 10
416.358027433
 20
1475.494562742
 30
0.0
 11
412.443558096
 21
1453.159507138
 31
0.0
  0
LINE
  8
0
  6
CONTINUOUS
 62
     6
 10
411.631699663
 20
1476.282284037
 30
0.0
 11
407.716922494
 21
1453.947279739
 31
0.0
  0
LINE
  8
0
  6
CONTINUOUS
 62
     6
 10
412.443558096
 20
1453.159507138
 30
0.0
 11
407.716922494
 21
1453.947279739
 31
0.0
  0
CIRCLE
  8
0
  6
CONTINUOUS
 62
     6
 10
416.611487717
 20
1452.339464335
 30
0.0
 40
4.100214016
  0
LINE
  8
0
  6
CONTINUOUS
 62
     6
 10
416.611487717
 20
1448.239250319
 30
0.0
 11
416.611487717
 21
1438.328121884
 31
0.0
  0
LINE
  8
0
  6
CONTINUOUS
 62
     6
 10
390.036026502
 20
1461.807921517
 30
0.0
 11
390.036026502
 21
1438.328121884
 31
0.0
  0
LINE
  8
0
  6
CONTINUOUS
 62
     6
 10
363.460565287
 20
1438.328121884
 30
0.0
 11
363.460565287
 21
1492.033332504
 31
0.0
  0
LINE
  8
0
  6
CONTINUOUS
 62
     6
 10
283.987641926
 20
1475.494562742
 30
0.0
 11
287.902111263
 21
1453.159507138
 31
0.0
  0
LINE
  8
0
  6
CONTINUOUS
 62
     6
 10
288.713969696
 20
1476.282284037
 30
0.0
 11
292.628746865
 21
1453.947279739
 31
0.0
  0
LINE
  8
0
  6
CONTINUOUS
 62
     6
 10
287.902111263
 20
1453.159507138
 30
0.0
 11
292.628746865
 21
1453.947279739
 31
0.0
  0
CIRCLE
  8
0
  6
CONTINUOUS
 62
     6
 10
283.734181642
 20
1452.339464335
 30
0.0
 40
4.100214016
  0
CIRCLE
  8
0
  6
CONTINUOUS
 62
     6
 10
304.941399692
 20
1461.807921517
 30
0.0
 40
4.100214016
  0
LINE
  8
0
  6
CONTINUOUS
 62
     6
 10
309.041613708
 20
1461.807921517
 30
0.0
 11
310.309642857
 21
1461.807921517
 31
0.0
  0
LINE
  8
0
  6
CONTINUOUS
 62
     6
 10
283.734181642
 20
1448.239250319
 30
0.0
 11
283.734181642
 21
1438.328121884
 31
0.0
  0
LINE
  8
0
  6
CONTINUOUS
 62
     6
 10
310.309642857
 20
1461.807921517
 30
0.0
 11
310.309642857
 21
1438.328121884
 31
0.0
  0
LINE
  8
0
  6
CONTINUOUS
 62
     6
 10
336.885104072
 20
1438.328121884
 30
0.0
 11
336.885104072
 21
1492.033332504
 31
0.0
  0
LINE
  8
0
  6
CONTINUOUS
 62
     2
 10
429.899218324
 20
1438.328121884
 30
0.0
 11
429.899218324
 21
1415.549155128
 31
0.0
  0
LINE
  8
0
  6
CONTINUOUS
 62
     2
 10
270.446451035
 20
1438.328121884
 30
0.0
 11
270.446451035
 21
1415.549155128
 31
0.0
  0
LINE
  8
0
  6
CONTINUOUS
 62
     2
 10
297.02191225
 20
1438.328121884
 30
0.0
 11
297.02191225
 21
1415.549155128
 31
0.0
  0
LINE
  8
0
  6
CONTINUOUS
 62
     6
 10
416.611487717
 20
1492.033332504
 30
0.0
 11
363.460565287
 21
1492.033332504
 31
0.0
  0
CIRCLE
  8
0
  6
CONTINUOUS
 62
     6
 10
416.611487717
 20
1479.68941042
 30
0.0
 40
4.100214016
  0
LINE
  8
0
  6
CONTINUOUS
 62
     6
 10
416.358027433
 20
1475.494562742
 30
0.0
 11
411.631699663
 21
1476.282284037
 31
0.0
  0
LINE
  8
0
  6
CONTINUOUS
 62
     6
 10
416.611487717
 20
1483.789624436
 30
0.0
 11
416.611487717
 21
1492.033332504
 31
0.0
  0
CIRCLE
  8
0
  6
CONTINUOUS
 62
     6
 10
283.734181642
 20
1479.68941042
 30
0.0
 40
4.100214016
  0
LINE
  8
0
  6
CONTINUOUS
 62
     6
 10
283.987641926
 20
1475.494562742
 30
0.0
 11
288.713969696
 21
1476.282284037
 31
0.0
  0
LINE
  8
0
  6
CONTINUOUS
 62
     6
 10
283.734181642
 20
1483.789624436
 30
0.0
 11
283.734181642
 21
1492.033332504
 31
0.0
  0
LINE
  8
0
  6
CONTINUOUS
 62
     6
 10
336.885104072
 20
1492.033332504
 30
0.0
 11
283.734181642
 21
1492.033332504
 31
0.0
  0
TEXT
  8
0
  6
CONTINUOUS
 62
     6
 10
288.4972152
 20
1496.552473273
 30
0.819
 40
11.7
  1
ＬＳ０１
 50
0.0
 41
0.8
 51
0.0
  7
KANJI27
  0
TEXT
  8
0
  6
CONTINUOUS
 62
     6
 10
371.117398844
 20
1496.552473273
 30
0.819
 40
11.7
  1
ＬＳ０２
 50
0.0
 41
0.8
 51
0.0
  7
KANJI27
  0
TEXT
  8
0
  6
CONTINUOUS
 62
     3
 10
116.308775989
 20
1419.345649587
 30
0.0
 40
15.0
  1
　　　　　　　　　　　　　　　　　　１　　２　　　３　　　４　　　５　　　６
 50
0.0
 41
0.911
 51
0.0
  7
KANJI28
  0
LINE
  8
0
  6
CONTINUOUS
 62
     2
 10
270.446451035
 20
1438.328121884
 30
0.0
 11
429.899218324
 21
1438.328121884
 31
0.0
  0
LINE
  8
0
  6
CONTINUOUS
 62
     2
 10
270.446451035
 20
1415.549155128
 30
0.0
 11
429.899218324
 21
1415.549155128
 31
0.0
  0
TEXT
  8
0
  6
CONTINUOUS
 62
     6
 10
262.132791539
 20
1526.32382165
 30
0.0
 40
17.740702234
  1
推力リミッタ端子台配列
 50
0.0
 41
0.880962996
 51
0.0
  7
KANJI26
  0
TEXT
  8
0
  6
CONTINUOUS
 62
     6
 10
390.013715102
 20
1625.071931782
 30
0.0
 40
11.8638
  1
ＡＣ１００Ｖ　１２５Ｖ　２５０Ｖ　－１０Ａ
 50
0.0
 41
0.726495726
 51
0.0
  7
KANJI24
  0
TEXT
  8
0
  6
CONTINUOUS
 62
     2
 10
131.778726364
 20
1119.612221811
 30
0.0
 40
15.6
  1
モーター結線図
 50
0.0
 41
0.925
 51
0.0
  7
KANJI29
  0
LINE
  8
0
  6
LTYPE2
 62
     6
 10
126.683333
 20
1240.233317
 30
0.0
 11
126.683333
 21
1223.832460936
 31
0.0
  0
LINE
  8
0
  6
LTYPE2
 62
     6
 10
257.080262694
 20
1240.233317
 30
0.0
 11
126.683333
 21
1240.233317
 31
0.0
  0
TEXT
  8
0
  6
CONTINUOUS
 62
     6
 10
109.148590591
 20
1226.748168681
 30
1.093390404
 40
10.933904043
  1
Ｕ
 50
0.0
 41
0.9
 51
0.0
  7
KANJI30
  0
CIRCLE
  8
0
  6
CONTINUOUS
 62
     6
 10
126.683333
 20
1220.552289723
 30
0.0
 40
4.373561617
  0
LINE
  8
0
  6
CONTINUOUS
 62
     6
 10
121.65854931
 20
1215.527506033
 30
0.0
 11
131.863526417
 21
1225.73248314
 31
0.0
  0
TEXT
  8
0
  6
CONTINUOUS
 62
     6
 10
136.928806047
 20
1248.899448352
 30
1.518597784
 40
15.185977837
  1
エコノストップモータ
 50
0.0
 41
0.66671875
 51
0.0
  7
KANJI31
  0
CIRCLE
  8
0
  6
CONTINUOUS
 62
     6
 10
171.512339575
 20
1195.039846957
 30
0.0
 40
18.223173404
  0
TEXT
  8
0
  6
CONTINUOUS
 62
     6
 10
163.858606745
 20
1186.292723723
 30
1.82231734
 40
18.223173404
  1
Ｍ
 50
0.0
 41
0.9
 51
0.0
  7
KANJI32
  0
LINE
  8
0
  6
CONTINUOUS
 62
     6
 10
147.457750681
 20
1169.527404191
 30
0.0
 11
158.756118192
 21
1182.648089042
 31
0.0
  0
LINE
  8
0
  6
CONTINUOUS
 62
     6
 10
147.457750681
 20
1220.552289723
 30
0.0
 11
158.756118192
 21
1207.431604872
 31
0.0
  0
LINE
  8
0
  6
CONTINUOUS
 62
     6
 10
147.457750681
 20
1220.552289723
 30
0.0
 11
131.056894617
 21
1220.552289723
 31
0.0
  0
LINE
  8
0
  6
CONTINUOUS
 62
     6
 10
153.653629639
 20
1195.039846957
 30
0.0
 11
131.056894617
 21
1195.039846957
 31
0.0
  0
LINE
  8
0
  6
CONTINUOUS
 62
     6
 10
147.457750681
 20
1169.527404191
 30
0.0
 11
131.056894617
 21
1169.527404191
 31
0.0
  0
TEXT
  8
0
  6
CONTINUOUS
 62
     6
 10
110.241980995
 20
1200.871262446
 30
1.093390404
 40
10.933904043
  1
Ｖ
 50
0.0
 41
0.9
 51
0.0
  7
KANJI30
  0
TEXT
  8
0
  6
CONTINUOUS
 62
     6
 10
111.335371399
 20
1174.994356212
 30
1.093390404
 40
10.933904043
  1
Ｗ
 50
0.0
 41
0.9
 51
0.0
  7
KANJI30
  0
CIRCLE
  8
0
  6
CONTINUOUS
 62
     6
 10
126.683333
 20
1195.039846957
 30
0.0
 40
4.373561617
  0
LINE
  8
0
  6
CONTINUOUS
 62
     6
 10
121.65854931
 20
1190.015063267
 30
0.0
 11
131.863526417
 21
1200.220040374
 31
0.0
  0
LINE
  8
0
  6
LTYPE2
 62
     6
 10
126.683333
 20
1216.543191574
 30
0.0
 11
126.683333
 21
1198.32001817
 31
0.0
  0
CIRCLE
  8
0
  6
CONTINUOUS
 62
     6
 10
126.683333
 20
1169.527404191
 30
0.0
 40
4.373561617
  0
LINE
  8
0
  6
CONTINUOUS
 62
     6
 10
121.65854931
 20
1164.502620501
 30
0.0
 11
131.863526417
 21
1174.707597607
 31
0.0
  0
LINE
  8
0
  6
LTYPE2
 62
     6
 10
126.683333
 20
1191.030748808
 30
0.0
 11
126.683333
 21
1173.900965808
 31
0.0
  0
LINE
  8
0
  6
LTYPE2
 62
     6
 10
257.080262694
 20
1144.821584891
 30
0.0
 11
126.683333
 21
1144.821584891
 31
0.0
  0
LINE
  8
0
  6
LTYPE2
 62
     6
 10
126.683333
 20
1165.153842574
 30
0.0
 11
126.683333
 21
1144.821584891
 31
0.0
  0
TEXT
  8
0
  6
CONTINUOUS
 62
     6
 10
197.753709277
 20
1186.784749405
 30
1.457853872
 40
14.578538724
  1
Ｂ
 50
0.0
 41
0.9
 51
0.0
  7
KANJI33
  0
CIRCLE
  8
0
  6
CONTINUOUS
 62
     6
 10
204.314051703
 20
1195.039846957
 30
0.0
 40
14.578538724
  0
LINE
  8
0
  6
LTYPE2
 62
     6
 10
257.080262694
 20
1144.821584891
 30
0.0
 11
257.080262694
 21
1240.233317
 31
0.0
  0
LINE
  8
0
  6
CONTINUOUS
 62
     2
 10
460.0
 20
434.8625
 30
0.0
 11
1091.0
 21
434.8625
 31
0.0
  0
LINE
  8
0
  6
CONTINUOUS
 62
     2
 10
314.0
 20
390.5
 30
0.0
 11
1091.0
 21
390.5
 31
0.0
  0
CIRCLE
  8
0
  6
CONTINUOUS
 62
     1
 10
727.0
 20
685.0
 30
0.0
 40
19.5
  0
LINE
  8
0
  6
CONTINUOUS
 62
     1
 10
707.0
 20
705.0
 30
0.0
 11
747.0
 21
705.0
 31
0.0
  0
LINE
  8
0
  6
LTYPE3
 62
     2
 10
727.0
 20
659.9
 30
0.0
 11
727.0
 21
709.8
 31
0.0
  0
LINE
  8
0
  6
CONTINUOUS
 62
     1
 10
747.0
 20
665.0
 30
0.0
 11
747.0
 21
705.0
 31
0.0
  0
LINE
  8
0
  6
CONTINUOUS
 62
     1
 10
707.0
 20
665.0
 30
0.0
 11
747.0
 21
665.0
 31
0.0
  0
TEXT
  8
0
  6
CONTINUOUS
 62
     2
 10
658.25
 20
395.5
 30
0.0
 40
18.0
  1
ｍｉｎ．ＡＬ
 50
0.0
 41
0.9
 51
0.0
  7
KANJI34
  0
TEXT
  8
0
  6
CONTINUOUS
 62
     2
 10
738.75
 20
439.8625
 30
0.0
 40
18.0
  1
ｍｉｎ．Ｌ
 50
0.0
 41
0.9
 51
0.0
  7
KANJI34
  0
LINE
  8
0
  6
CONTINUOUS
 62
     2
 10
840.0
 20
500.375
 30
0.0
 11
751.5
 21
500.375
 31
0.0
  0
TEXT
  8
0
  6
CONTINUOUS
 62
     2
 10
751.5
 20
505.375
 30
1.5
 40
15.0
  1
ＬＳユニット
 50
0.0
 41
0.9
 51
0.0
  7
KANJI35
  0
LINE
  8
0
  6
CONTINUOUS
 62
     2
 10
460.0
 20
478.2
 30
0.0
 11
986.0
 21
478.2
 31
0.0
  0
TEXT
  8
0
  6
CONTINUOUS
 62
     2
 10
716.25
 20
483.2
 30
1.5
 40
15.0
  1
Ｃ
 50
0.0
 41
0.9
 51
0.0
  7
KANJI36
  0
LINE
  8
0
  6
CONTINUOUS
 62
     1
 10
783.803444363
 20
254.1
 30
0.0
 11
849.182501379
 21
254.1
 31
0.0
  0
LINE
  8
0
  6
CONTINUOUS
 62
     1
 10
849.182501379
 20
270.1
 30
0.0
 11
783.873079342
 21
270.1
 31
0.0
  0
ARC
  8
0
  6
CONTINUOUS
 62
     1
 10
789.427969957
 20
266.1
 30
0.0
 40
6.845203412
 50
144.242860688
 51
215.757139312
  0
ARC
  8
0
  6
CONTINUOUS
 62
     1
 10
778.318188727
 20
266.1
 30
0.0
 40
6.845203412
 50
324.242860688
 51
35.757139312
  0
ARC
  8
0
  6
CONTINUOUS
 62
     1
 10
778.318188727
 20
258.1
 30
0.0
 40
6.845203412
 50
324.242860688
 51
35.757139312
  0
LINE
  8
0
  6
LTYPE2
 62
     2
 10
1013.682501379
 20
262.1
 30
0.0
 11
778.838261852
 21
262.1
 31
0.0
  0
LINE
  8
7
  6
CONTINUOUS
 62
     2
 10
832.582501379
 20
307.3
 30
0.0
 11
773.782501379
 21
307.3
 31
0.0
  0
TEXT
  8
7
  6
CONTINUOUS
 62
     2
 10
773.782501379
 20
311.3
 30
1.2
 40
12.0
  1
ＰＦ１／２
 50
0.0
 41
0.9
 51
0.0
  7
KANJI37
  0
LINE
  8
0
  6
CONTINUOUS
 62
     1
 10
400.0
 20
607.5
 30
0.0
 11
314.0
 21
607.5
 31
0.0
  0
LINE
  8
0
  6
CONTINUOUS
 62
     1
 10
314.0
 20
621.0
 30
0.0
 11
314.0
 21
610.05046
 31
0.0
  0
LINE
  8
0
  6
CONTINUOUS
 62
     1
 10
314.0
 20
621.0
 30
0.0
 11
314.0
 21
631.94954
 31
0.0
  0
LINE
  8
0
  6
CONTINUOUS
 62
     1
 10
305.9789
 20
612.73198
 30
0.0
 11
307.527076294
 21
610.05046
 31
0.0
  0
LINE
  8
0
  6
CONTINUOUS
 62
     1
 10
305.9789
 20
621.0
 30
0.0
 11
305.9789
 21
612.73198
 31
0.0
  0
LINE
  8
0
  6
CONTINUOUS
 62
     1
 10
305.9789
 20
629.26802
 30
0.0
 11
307.527076294
 21
631.94954
 31
0.0
  0
LINE
  8
0
  6
CONTINUOUS
 62
     1
 10
305.9789
 20
621.0
 30
0.0
 11
305.9789
 21
629.26802
 31
0.0
  0
ARC
  8
0
  6
CONTINUOUS
 62
     1
 10
316.433121693
 20
621.0
 30
0.0
 40
10.454221693
 50
148.419912243
 51
211.580087757
  0
ARC
  8
0
  6
CONTINUOUS
 62
     1
 10
309.172013606
 20
612.787845
 30
0.0
 40
3.193602261
 50
121.002313915
 51
182.989498403
  0
LINE
  8
0
  6
CONTINUOUS
 62
     1
 10
305.9789
 20
629.26802
 30
0.0
 11
307.527076294
 21
631.94954
 31
0.0
  0
ARC
  8
0
  6
CONTINUOUS
 62
     1
 10
309.172013606
 20
629.212155
 30
0.0
 40
3.193602261
 50
177.010501597
 51
238.997686085
  0
LINE
  8
0
  6
CONTINUOUS
 62
     1
 10
314.0
 20
610.05046
 30
0.0
 11
307.527076294
 21
610.05046
 31
0.0
  0
LINE
  8
0
  6
CONTINUOUS
 62
     1
 10
314.0
 20
615.52523
 30
0.0
 11
307.527076294
 21
615.52523
 31
0.0
  0
LINE
  8
0
  6
CONTINUOUS
 62
     1
 10
314.0
 20
626.47477
 30
0.0
 11
307.527076294
 21
626.47477
 31
0.0
  0
LINE
  8
0
  6
CONTINUOUS
 62
     1
 10
314.0
 20
631.94954
 30
0.0
 11
307.527076294
 21
631.94954
 31
0.0
  0
LINE
  8
0
  6
CONTINUOUS
 62
     1
 10
314.0
 20
749.0
 30
0.0
 11
314.0
 21
738.05046
 31
0.0
  0
LINE
  8
0
  6
CONTINUOUS
 62
     1
 10
314.0
 20
749.0
 30
0.0
 11
314.0
 21
759.94954
 31
0.0
  0
LINE
  8
0
  6
CONTINUOUS
 62
     1
 10
305.9789
 20
740.73198
 30
0.0
 11
307.527076294
 21
738.05046
 31
0.0
  0
LINE
  8
0
  6
CONTINUOUS
 62
     1
 10
305.9789
 20
749.0
 30
0.0
 11
305.9789
 21
740.73198
 31
0.0
  0
LINE
  8
0
  6
CONTINUOUS
 62
     1
 10
305.9789
 20
757.26802
 30
0.0
 11
307.527076294
 21
759.94954
 31
0.0
  0
LINE
  8
0
  6
CONTINUOUS
 62
     1
 10
305.9789
 20
749.0
 30
0.0
 11
305.9789
 21
757.26802
 31
0.0
  0
ARC
  8
0
  6
CONTINUOUS
 62
     1
 10
316.433121693
 20
749.0
 30
0.0
 40
10.454221693
 50
148.419912243
 51
211.580087757
  0
ARC
  8
0
  6
CONTINUOUS
 62
     1
 10
309.172013606
 20
740.787845
 30
0.0
 40
3.193602261
 50
121.002313915
 51
182.989498403
  0
LINE
  8
0
  6
CONTINUOUS
 62
     1
 10
305.9789
 20
757.26802
 30
0.0
 11
307.527076294
 21
759.94954
 31
0.0
  0
ARC
  8
0
  6
CONTINUOUS
 62
     1
 10
309.172013606
 20
757.212155
 30
0.0
 40
3.193602261
 50
177.010501597
 51
238.997686085
  0
LINE
  8
0
  6
CONTINUOUS
 62
     1
 10
314.0
 20
738.05046
 30
0.0
 11
307.527076294
 21
738.05046
 31
0.0
  0
LINE
  8
0
  6
CONTINUOUS
 62
     1
 10
314.0
 20
743.52523
 30
0.0
 11
307.527076294
 21
743.52523
 31
0.0
  0
LINE
  8
0
  6
CONTINUOUS
 62
     1
 10
314.0
 20
754.47477
 30
0.0
 11
307.527076294
 21
754.47477
 31
0.0
  0
LINE
  8
0
  6
CONTINUOUS
 62
     1
 10
314.0
 20
759.94954
 30
0.0
 11
307.527076294
 21
759.94954
 31
0.0
  0
LINE
  8
0
  6
CONTINUOUS
 62
     1
 10
314.0
 20
607.5
 30
0.0
 11
314.0
 21
822.5
 31
0.0
  0
LINE
  8
0
  6
CONTINUOUS
 62
     1
 10
329.0
 20
822.5
 30
0.0
 11
314.0
 21
822.5
 31
0.0
  0
LINE
  8
0
  6
CONTINUOUS
 62
     1
 10
314.0
 20
813.5
 30
0.0
 11
314.0
 21
806.00594
 31
0.0
  0
LINE
  8
0
  6
CONTINUOUS
 62
     1
 10
314.0
 20
813.5
 30
0.0
 11
314.0
 21
820.99406
 31
0.0
  0
LINE
  8
0
  6
CONTINUOUS
 62
     1
 10
308.5001
 20
807.84122
 30
0.0
 11
309.559699402
 21
806.00594
 31
0.0
  0
LINE
  8
0
  6
CONTINUOUS
 62
     1
 10
308.5001
 20
813.5
 30
0.0
 11
308.5001
 21
807.84122
 31
0.0
  0
LINE
  8
0
  6
CONTINUOUS
 62
     1
 10
308.5001
 20
819.15878
 30
0.0
 11
309.559699402
 21
820.99406
 31
0.0
  0
LINE
  8
0
  6
CONTINUOUS
 62
     1
 10
308.5001
 20
813.5
 30
0.0
 11
308.5001
 21
819.15878
 31
0.0
  0
ARC
  8
0
  6
CONTINUOUS
 62
     1
 10
315.655155337
 20
813.5
 30
0.0
 40
7.155055337
 50
148.419912243
 51
211.580087757
  0
ARC
  8
0
  6
CONTINUOUS
 62
     1
 10
310.685523767
 20
807.879455
 30
0.0
 40
2.185758211
 50
121.002313915
 51
182.989498403
  0
LINE
  8
0
  6
CONTINUOUS
 62
     1
 10
308.5001
 20
819.15878
 30
0.0
 11
309.559699402
 21
820.99406
 31
0.0
  0
ARC
  8
0
  6
CONTINUOUS
 62
     1
 10
310.685523767
 20
819.120545
 30
0.0
 40
2.185758211
 50
177.010501597
 51
238.997686085
  0
LINE
  8
0
  6
CONTINUOUS
 62
     1
 10
314.0
 20
806.00594
 30
0.0
 11
309.559699402
 21
806.00594
 31
0.0
  0
LINE
  8
0
  6
CONTINUOUS
 62
     1
 10
314.0
 20
809.75297
 30
0.0
 11
309.559699402
 21
809.75297
 31
0.0
  0
LINE
  8
0
  6
CONTINUOUS
 62
     1
 10
314.0
 20
817.24703
 30
0.0
 11
309.559699402
 21
817.24703
 31
0.0
  0
LINE
  8
0
  6
CONTINUOUS
 62
     1
 10
314.0
 20
820.99406
 30
0.0
 11
309.559699402
 21
820.99406
 31
0.0
  0
LINE
  8
0
  6
CONTINUOUS
 62
     1
 10
508.0
 20
627.0
 30
0.0
 11
582.0
 21
627.0
 31
0.0
  0
LINE
  8
0
  6
CONTINUOUS
 62
     1
 10
582.0
 20
627.0
 30
0.0
 11
582.0
 21
738.0
 31
0.0
  0
LINE
  8
0
  6
CONTINUOUS
 62
     1
 10
415.0
 20
628.0
 30
0.0
 11
415.0
 21
742.0
 31
0.0
  0
CIRCLE
  8
0
  6
CONTINUOUS
 62
     1
 10
460.0
 20
685.0
 30
0.0
 40
10.0
  0
CIRCLE
  8
0
  6
CONTINUOUS
 62
     1
 10
460.0
 20
685.0
 30
0.0
 40
21.0
  0
CIRCLE
  8
0
  6
CONTINUOUS
 62
     1
 10
460.0
 20
685.0
 30
0.0
 40
25.0
  0
LINE
  8
0
  6
CONTINUOUS
 62
     1
 10
400.0
 20
742.0
 30
0.0
 11
415.0
 21
742.0
 31
0.0
  0
LINE
  8
0
  6
CONTINUOUS
 62
     1
 10
428.9
 20
738.0
 30
0.0
 11
582.0
 21
738.0
 31
0.0
  0
LINE
  8
0
  6
CONTINUOUS
 62
     1
 10
508.0
 20
627.0
 30
0.0
 11
508.0
 21
679.4
 31
0.0
  0
LINE
  8
0
  6
CONTINUOUS
 62
     1
 10
428.9
 20
632.0
 30
0.0
 11
505.5
 21
632.0
 31
0.0
  0
LINE
  8
0
  6
CONTINUOUS
 62
     1
 10
590.0
 20
625.5
 30
0.0
 11
590.0
 21
624.5
 31
0.0
  0
ARC
  8
0
  6
CONTINUOUS
 62
     1
 10
503.0
 20
622.5
 30
0.0
 40
3.0
 50
90.0
 51
180.0
  0
LINE
  8
0
  6
CONTINUOUS
 62
     1
 10
590.0
 20
624.5
 30
0.0
 11
626.0
 21
624.5
 31
0.0
  0
ARC
  8
0
  6
CONTINUOUS
 62
     1
 10
626.0
 20
621.5
 30
0.0
 40
3.0
 50
0.0
 51
90.0
  0
LINE
  8
0
  6
CONTINUOUS
 62
     1
 10
503.0
 20
625.5
 30
0.0
 11
590.0
 21
625.5
 31
0.0
  0
LINE
  8
0
  6
CONTINUOUS
 62
     1
 10
503.0
 20
627.0
 30
0.0
 11
590.0
 21
627.0
 31
0.0
  0
LINE
  8
0
  6
CONTINUOUS
 62
     1
 10
418.0
 20
730.0
 30
0.0
 11
418.0
 21
740.94954
 31
0.0
  0
LINE
  8
0
  6
CONTINUOUS
 62
     1
 10
418.0
 20
730.0
 30
0.0
 11
418.0
 21
719.05046
 31
0.0
  0
LINE
  8
0
  6
CONTINUOUS
 62
     1
 10
415.0
 20
740.75
 30
0.0
 11
418.0
 21
740.75
 31
0.0
  0
LINE
  8
0
  6
CONTINUOUS
 62
     1
 10
415.0
 20
730.0
 30
0.0
 11
418.000254073
 21
733.000254073
 31
0.0
  0
LINE
  8
0
  6
CONTINUOUS
 62
     1
 10
418.000254073
 20
730.0
 30
0.0
 11
415.0
 21
726.999745927
 31
0.0
  0
LINE
  8
0
  6
CONTINUOUS
 62
     1
 10
415.0
 20
719.25
 30
0.0
 11
418.0
 21
719.25
 31
0.0
  0
LINE
  8
0
  6
CONTINUOUS
 62
     1
 10
418.0
 20
740.75
 30
0.0
 11
429.3
 21
740.75
 31
0.0
  0
LINE
  8
0
  6
CONTINUOUS
 62
     1
 10
429.3
 20
730.0
 30
0.0
 11
429.3
 21
740.75
 31
0.0
  0
LINE
  8
0
  6
CONTINUOUS
 62
     1
 10
429.3
 20
740.75
 30
0.0
 11
430.0
 21
739.537564435
 31
0.0
  0
LINE
  8
0
  6
CONTINUOUS
 62
     1
 10
430.0
 20
730.0
 30
0.0
 11
430.0
 21
739.537564435
 31
0.0
  0
LINE
  8
0
  6
CONTINUOUS
 62
     1
 10
418.0
 20
719.25
 30
0.0
 11
429.3
 21
719.25
 31
0.0
  0
LINE
  8
0
  6
CONTINUOUS
 62
     1
 10
429.3
 20
730.0
 30
0.0
 11
429.3
 21
719.25
 31
0.0
  0
LINE
  8
0
  6
CONTINUOUS
 62
     1
 10
429.3
 20
719.25
 30
0.0
 11
430.0
 21
720.462435565
 31
0.0
  0
LINE
  8
0
  6
CONTINUOUS
 62
     1
 10
430.0
 20
730.0
 30
0.0
 11
430.0
 21
720.462435565
 31
0.0
  0
LINE
  8
0
  6
CONTINUOUS
 62
     1
 10
418.0
 20
640.0
 30
0.0
 11
418.0
 21
629.05046
 31
0.0
  0
LINE
  8
0
  6
CONTINUOUS
 62
     1
 10
418.0
 20
640.0
 30
0.0
 11
418.0
 21
650.94954
 31
0.0
  0
LINE
  8
0
  6
CONTINUOUS
 62
     1
 10
415.0
 20
629.25
 30
0.0
 11
418.0
 21
629.25
 31
0.0
  0
LINE
  8
0
  6
CONTINUOUS
 62
     1
 10
415.0
 20
640.0
 30
0.0
 11
418.000254073
 21
636.999745927
 31
0.0
  0
LINE
  8
0
  6
CONTINUOUS
 62
     1
 10
418.000254073
 20
640.0
 30
0.0
 11
415.0
 21
643.000254073
 31
0.0
  0
LINE
  8
0
  6
CONTINUOUS
 62
     1
 10
415.0
 20
650.75
 30
0.0
 11
418.0
 21
650.75
 31
0.0
  0
LINE
  8
0
  6
CONTINUOUS
 62
     1
 10
418.0
 20
629.25
 30
0.0
 11
429.3
 21
629.25
 31
0.0
  0
LINE
  8
0
  6
CONTINUOUS
 62
     1
 10
429.3
 20
640.0
 30
0.0
 11
429.3
 21
629.25
 31
0.0
  0
LINE
  8
0
  6
CONTINUOUS
 62
     1
 10
429.3
 20
629.25
 30
0.0
 11
430.0
 21
630.462435565
 31
0.0
  0
LINE
  8
0
  6
CONTINUOUS
 62
     1
 10
430.0
 20
640.0
 30
0.0
 11
430.0
 21
630.462435565
 31
0.0
  0
LINE
  8
0
  6
CONTINUOUS
 62
     1
 10
418.0
 20
650.75
 30
0.0
 11
429.3
 21
650.75
 31
0.0
  0
LINE
  8
0
  6
CONTINUOUS
 62
     1
 10
429.3
 20
640.0
 30
0.0
 11
429.3
 21
650.75
 31
0.0
  0
LINE
  8
0
  6
CONTINUOUS
 62
     1
 10
429.3
 20
650.75
 30
0.0
 11
430.0
 21
649.537564435
 31
0.0
  0
LINE
  8
0
  6
CONTINUOUS
 62
     1
 10
430.0
 20
640.0
 30
0.0
 11
430.0
 21
649.537564435
 31
0.0
  0
LINE
  8
0
  6
CONTINUOUS
 62
     1
 10
400.0
 20
628.0
 30
0.0
 11
415.0
 21
628.0
 31
0.0
  0
POINT
  8
0
  6
CONTINUOUS
 62
     1
 10
400.0
 20
628.0
 30
0.0
  0
LINE
  8
0
  6
CONTINUOUS
 62
     1
 10
591.0
 20
634.0
 30
0.0
 11
591.0
 21
736.0
 31
0.0
  0
LINE
  8
0
  6
CONTINUOUS
 62
     1
 10
591.0
 20
736.0
 30
0.0
 11
582.0
 21
736.0
 31
0.0
  0
LINE
  8
0
  6
CONTINUOUS
 62
     1
 10
591.0
 20
634.0
 30
0.0
 11
582.0
 21
634.0
 31
0.0
  0
LINE
  8
0
  6
CONTINUOUS
 62
     1
 10
591.0
 20
732.5
 30
0.0
 11
582.0
 21
732.5
 31
0.0
  0
LINE
  8
0
  6
CONTINUOUS
 62
     1
 10
591.0
 20
637.5
 30
0.0
 11
582.0
 21
637.5
 31
0.0
  0
LINE
  8
0
  6
CONTINUOUS
 62
     1
 10
591.0
 20
681.0
 30
0.0
 11
582.0
 21
681.0
 31
0.0
  0
LINE
  8
0
  6
CONTINUOUS
 62
     1
 10
591.0
 20
689.0
 30
0.0
 11
582.0
 21
689.0
 31
0.0
  0
LINE
  8
0
  6
LTYPE3
 62
     2
 10
339.1
 20
621.0
 30
0.0
 11
304.9
 21
621.0
 31
0.0
  0
LINE
  8
0
  6
LTYPE3
 62
     2
 10
340.1
 20
749.0
 30
0.0
 11
304.9
 21
749.0
 31
0.0
  0
LINE
  8
0
  6
LTYPE3
 62
     2
 10
344.6
 20
813.5
 30
0.0
 11
305.3
 21
813.5
 31
0.0
  0
LINE
  8
0
  6
LTYPE3
 62
     2
 10
379.0
 20
730.0
 30
0.0
 11
432.0
 21
730.0
 31
0.0
  0
LINE
  8
0
  6
LTYPE3
 62
     2
 10
460.0
 20
653.5
 30
0.0
 11
460.0
 21
716.5
 31
0.0
  0
LINE
  8
0
  6
LTYPE3
 62
     2
 10
379.0
 20
640.0
 30
0.0
 11
432.0
 21
640.0
 31
0.0
  0
LINE
  8
0
  6
LTYPE2
 62
     2
 10
544.0
 20
613.8
 30
0.0
 11
544.0
 21
628.65
 31
0.0
  0
LINE
  8
0
  6
CONTINUOUS
 62
     2
 10
314.0
 20
434.8625
 30
0.0
 11
326.074072829
 21
431.627261936
 31
0.0
  0
LINE
  8
0
  6
CONTINUOUS
 62
     2
 10
314.0
 20
434.8625
 30
0.0
 11
326.074072829
 21
438.097738064
 31
0.0
  0
LINE
  8
0
  6
CONTINUOUS
 62
     2
 10
314.0
 20
434.8625
 30
0.0
 11
400.0
 21
434.8625
 31
0.0
  0
LINE
  8
0
  6
CONTINUOUS
 62
     2
 10
400.0
 20
434.8625
 30
0.0
 11
387.925927171
 21
438.097738064
 31
0.0
  0
LINE
  8
0
  6
CONTINUOUS
 62
     2
 10
400.0
 20
434.8625
 30
0.0
 11
387.925927171
 21
431.627261936
 31
0.0
  0
LINE
  8
0
  6
CONTINUOUS
 62
     2
 10
400.0
 20
434.8625
 30
0.0
 11
412.074072829
 21
431.627261936
 31
0.0
  0
LINE
  8
0
  6
CONTINUOUS
 62
     2
 10
400.0
 20
434.8625
 30
0.0
 11
412.074072829
 21
438.097738064
 31
0.0
  0
LINE
  8
0
  6
CONTINUOUS
 62
     2
 10
400.0
 20
434.8625
 30
0.0
 11
460.0
 21
434.8625
 31
0.0
  0
LINE
  8
0
  6
CONTINUOUS
 62
     2
 10
460.0
 20
434.8625
 30
0.0
 11
447.925927171
 21
438.097738064
 31
0.0
  0
LINE
  8
0
  6
CONTINUOUS
 62
     2
 10
460.0
 20
434.8625
 30
0.0
 11
447.925927171
 21
431.627261936
 31
0.0
  0
LINE
  8
0
  6
CONTINUOUS
 62
     2
 10
460.0
 20
434.8625
 30
0.0
 11
472.074072829
 21
431.627261936
 31
0.0
  0
LINE
  8
0
  6
CONTINUOUS
 62
     2
 10
460.0
 20
434.8625
 30
0.0
 11
472.074072829
 21
438.097738064
 31
0.0
  0
LINE
  8
0
  6
CONTINUOUS
 62
     2
 10
314.0
 20
427.3625
 30
0.0
 11
314.0
 21
383.0
 31
0.0
  0
LINE
  8
0
  6
CONTINUOUS
 62
     2
 10
314.0
 20
390.5
 30
0.0
 11
326.074072829
 21
387.264761936
 31
0.0
  0
LINE
  8
0
  6
CONTINUOUS
 62
     2
 10
314.0
 20
390.5
 30
0.0
 11
326.074072829
 21
393.735238064
 31
0.0
  0
LINE
  8
0
  6
CONTINUOUS
 62
     2
 10
314.0
 20
599.375
 30
0.0
 11
314.0
 21
427.3625
 31
0.0
  0
LINE
  8
0
  6
CONTINUOUS
 62
     2
 10
400.0
 20
603.375
 30
0.0
 11
400.0
 21
427.3625
 31
0.0
  0
LINE
  8
0
  6
CONTINUOUS
 62
     2
 10
460.0
 20
656.875
 30
0.0
 11
460.0
 21
427.3625
 31
0.0
  0
LINE
  8
0
  6
CONTINUOUS
 62
     1
 10
707.0
 20
665.0
 30
0.0
 11
707.0
 21
705.0
 31
0.0
  0
TEXT
  8
0
  6
CONTINUOUS
 62
     2
 10
342.75
 20
439.8625
 30
0.0
 40
18.0
  1
８６
 50
0.0
 41
0.9
 51
0.0
  7
KANJI34
  0
TEXT
  8
0
  6
CONTINUOUS
 62
     2
 10
415.75
 20
439.8625
 30
0.0
 40
18.0
  1
６０
 50
0.0
 41
0.9
 51
0.0
  7
KANJI34
  0
LINE
  8
0
  6
CONTINUOUS
 62
     2
 10
460.0
 20
478.2
 30
0.0
 11
472.074072829
 21
474.964761936
 31
0.0
  0
LINE
  8
0
  6
CONTINUOUS
 62
     2
 10
460.0
 20
478.2
 30
0.0
 11
472.074072829
 21
481.435238064
 31
0.0
  0
LINE
  8
0
  6
CONTINUOUS
 62
     1
 10
392.5
 20
760.0
 30
0.0
 11
349.5
 21
760.0
 31
0.0
  0
TEXT
  8
0
  6
CONTINUOUS
 62
     2
 10
354.5
 20
749.0
 30
5.0
 40
20.0
  1
銘板
 50
270.0
 41
0.925
 51
0.0
  7
KANJI38
  0
LINE
  8
0
  6
CONTINUOUS
 62
     1
 10
349.5
 20
760.0
 30
0.0
 11
349.5
 21
690.0
 31
0.0
  0
LINE
  8
0
  6
CONTINUOUS
 62
     1
 10
392.5
 20
760.0
 30
0.0
 11
392.5
 21
690.0
 31
0.0
  0
LINE
  8
0
  6
CONTINUOUS
 62
     1
 10
392.5
 20
690.0
 30
0.0
 11
349.5
 21
690.0
 31
0.0
  0
LINE
  8
0
  6
CONTINUOUS
 62
     2
 10
132.0
 20
291.8
 30
0.0
 11
139.72740661
 21
289.729447639
 31
0.0
  0
LINE
  8
0
  6
CONTINUOUS
 62
     2
 10
132.0
 20
291.8
 30
0.0
 11
139.72740661
 21
293.870552361
 31
0.0
  0
LINE
  8
0
  6
CONTINUOUS
 62
     2
 10
132.0
 20
291.8
 30
0.0
 11
269.6
 21
291.8
 31
0.0
  0
LINE
  8
0
  6
CONTINUOUS
 62
     2
 10
269.6
 20
291.8
 30
0.0
 11
261.87259339
 21
293.870552361
 31
0.0
  0
LINE
  8
0
  6
CONTINUOUS
 62
     2
 10
269.6
 20
291.8
 30
0.0
 11
261.87259339
 21
289.729447639
 31
0.0
  0
LINE
  8
0
  6
CONTINUOUS
 62
     2
 10
269.6
 20
290.6
 30
0.0
 11
269.6
 21
287.8
 31
0.0
  0
LINE
  8
0
  6
CONTINUOUS
 62
     2
 10
269.6
 20
291.8
 30
0.0
 11
277.32740661
 21
289.729447639
 31
0.0
  0
LINE
  8
0
  6
CONTINUOUS
 62
     2
 10
269.6
 20
291.8
 30
0.0
 11
277.32740661
 21
293.870552361
 31
0.0
  0
LINE
  8
0
  6
CONTINUOUS
 62
     2
 10
269.6
 20
291.8
 30
0.0
 11
472.0
 21
291.8
 31
0.0
  0
LINE
  8
0
  6
CONTINUOUS
 62
     2
 10
472.0
 20
291.8
 30
0.0
 11
464.27259339
 21
293.870552361
 31
0.0
  0
LINE
  8
0
  6
CONTINUOUS
 62
     2
 10
472.0
 20
291.8
 30
0.0
 11
464.27259339
 21
289.729447639
 31
0.0
  0
LINE
  8
0
  6
CONTINUOUS
 62
     2
 10
269.6
 20
265.470552361
 30
0.0
 11
261.87259339
 21
267.541104722
 31
0.0
  0
LINE
  8
0
  6
CONTINUOUS
 62
     2
 10
269.6
 20
265.470552361
 30
0.0
 11
261.87259339
 21
263.4
 31
0.0
  0
LINE
  8
0
  6
CONTINUOUS
 62
     2
 10
257.6
 20
265.470552361
 30
0.0
 11
269.6
 21
265.470552361
 31
0.0
  0
LINE
  8
0
  6
CONTINUOUS
 62
     2
 10
269.6
 20
265.470552361
 30
0.0
 11
290.4
 21
265.470552361
 31
0.0
  0
LINE
  8
0
  6
CONTINUOUS
 62
     2
 10
290.4
 20
265.470552361
 30
0.0
 11
298.12740661
 21
263.4
 31
0.0
  0
LINE
  8
0
  6
CONTINUOUS
 62
     2
 10
290.4
 20
265.470552361
 30
0.0
 11
298.12740661
 21
267.541104722
 31
0.0
  0
LINE
  8
0
  6
CONTINUOUS
 62
     2
 10
132.0
 20
240.2
 30
0.0
 11
132.0
 21
234.2
 31
0.0
  0
LINE
  8
0
  6
CONTINUOUS
 62
     2
 10
132.0
 20
238.2
 30
0.0
 11
139.72740661
 21
236.129447639
 31
0.0
  0
LINE
  8
0
  6
CONTINUOUS
 62
     2
 10
132.0
 20
238.2
 30
0.0
 11
139.72740661
 21
240.270552361
 31
0.0
  0
LINE
  8
0
  6
CONTINUOUS
 62
     2
 10
132.0
 20
238.2
 30
0.0
 11
290.4
 21
238.2
 31
0.0
  0
LINE
  8
0
  6
CONTINUOUS
 62
     2
 10
290.4
 20
238.2
 30
0.0
 11
282.67259339
 21
240.270552361
 31
0.0
  0
LINE
  8
0
  6
CONTINUOUS
 62
     2
 10
290.4
 20
238.2
 30
0.0
 11
282.67259339
 21
236.129447639
 31
0.0
  0
LINE
  8
0
  6
CONTINUOUS
 62
     2
 10
290.4
 20
239.4
 30
0.0
 11
290.4
 21
234.2
 31
0.0
  0
LINE
  8
0
  6
CONTINUOUS
 62
     2
 10
290.4
 20
238.2
 30
0.0
 11
298.12740661
 21
236.129447639
 31
0.0
  0
LINE
  8
0
  6
CONTINUOUS
 62
     2
 10
290.4
 20
238.2
 30
0.0
 11
298.12740661
 21
240.270552361
 31
0.0
  0
LINE
  8
0
  6
CONTINUOUS
 62
     2
 10
472.0
 20
234.6
 30
0.0
 11
472.0
 21
234.2
 31
0.0
  0
LINE
  8
0
  6
CONTINUOUS
 62
     2
 10
132.0
 20
209.0
 30
0.0
 11
139.72740661
 21
206.929447639
 31
0.0
  0
LINE
  8
0
  6
CONTINUOUS
 62
     2
 10
132.0
 20
209.0
 30
0.0
 11
139.72740661
 21
211.070552361
 31
0.0
  0
LINE
  8
0
  6
CONTINUOUS
 62
     2
 10
132.0
 20
209.0
 30
0.0
 11
449.6
 21
209.0
 31
0.0
  0
LINE
  8
0
  6
CONTINUOUS
 62
     2
 10
449.6
 20
209.0
 30
0.0
 11
441.87259339
 21
211.070552361
 31
0.0
  0
LINE
  8
0
  6
CONTINUOUS
 62
     2
 10
449.6
 20
209.0
 30
0.0
 11
441.87259339
 21
206.929447639
 31
0.0
  0
LINE
  8
0
  6
CONTINUOUS
 62
     2
 10
449.6
 20
209.8
 30
0.0
 11
449.6
 21
205.0
 31
0.0
  0
LINE
  8
0
  6
CONTINUOUS
 62
     2
 10
449.6
 20
209.0
 30
0.0
 11
441.87259339
 21
211.070552361
 31
0.0
  0
LINE
  8
0
  6
CONTINUOUS
 62
     2
 10
449.6
 20
209.0
 30
0.0
 11
441.87259339
 21
206.929447639
 31
0.0
  0
LINE
  8
0
  6
CONTINUOUS
 62
     2
 10
437.6
 20
209.0
 30
0.0
 11
449.6
 21
209.0
 31
0.0
  0
LINE
  8
0
  6
CONTINUOUS
 62
     2
 10
449.6
 20
209.0
 30
0.0
 11
472.0
 21
209.0
 31
0.0
  0
LINE
  8
0
  6
CONTINUOUS
 62
     2
 10
472.0
 20
209.0
 30
0.0
 11
479.72740661
 21
206.929447639
 31
0.0
  0
LINE
  8
0
  6
CONTINUOUS
 62
     2
 10
472.0
 20
209.0
 30
0.0
 11
479.72740661
 21
211.070552361
 31
0.0
  0
LINE
  8
0
  6
CONTINUOUS
 62
     2
 10
132.0
 20
302.6
 30
0.0
 11
132.0
 21
287.8
 31
0.0
  0
LINE
  8
0
  6
CONTINUOUS
 62
     2
 10
472.0
 20
302.6
 30
0.0
 11
472.0
 21
287.8
 31
0.0
  0
LINE
  8
0
  6
CONTINUOUS
 62
     2
 10
269.6
 20
291.4
 30
0.0
 11
269.6
 21
302.6
 31
0.0
  0
LINE
  8
0
  6
CONTINUOUS
 62
     2
 10
290.4
 20
278.270552361
 30
0.0
 11
290.4
 21
261.470552361
 31
0.0
  0
LINE
  8
0
  6
CONTINUOUS
 62
     2
 10
132.0
 20
287.8
 30
0.0
 11
132.0
 21
195.8
 31
0.0
  0
LINE
  8
0
  6
CONTINUOUS
 62
     2
 10
472.0
 20
291.8
 30
0.0
 11
472.0
 21
197.0
 31
0.0
  0
LINE
  8
0
  6
CONTINUOUS
 62
     2
 10
290.4
 20
265.470552361
 30
0.0
 11
290.4
 21
229.0
 31
0.0
  0
LINE
  8
0
  6
CONTINUOUS
 62
     2
 10
269.6
 20
291.8
 30
0.0
 11
269.6
 21
256.2
 31
0.0
  0
TEXT
  8
0
  6
CONTINUOUS
 62
     3
 10
173.8
 20
293.8
 30
0.0
 40
15.0
  1
ｍｉｎ．Ｌ
 50
0.0
 41
0.9
 51
0.0
  7
KANJI39
  0
TEXT
  8
0
  6
CONTINUOUS
 62
     3
 10
327.6
 20
293.8
 30
0.0
 40
15.0
  1
機械的ストローク
 50
0.0
 41
0.9
 51
0.0
  7
KANJI39
  0
TEXT
  8
0
  6
CONTINUOUS
 62
     3
 10
302.4
 20
267.470552361
 30
0.0
 40
15.0
  1
余裕
 50
0.0
 41
0.9
 51
0.0
  7
KANJI39
  0
TEXT
  8
0
  6
CONTINUOUS
 62
     3
 10
184.2
 20
240.2
 30
0.0
 40
15.0
  1
常用ｍｉｎ
 50
0.0
 41
0.9
 51
0.0
  7
KANJI39
  0
TEXT
  8
0
  6
CONTINUOUS
 62
     3
 10
263.8
 20
211.0
 30
0.0
 40
15.0
  1
常用ｍａｘ
 50
0.0
 41
0.9
 51
0.0
  7
KANJI39
  0
TEXT
  8
0
  6
CONTINUOUS
 62
     3
 10
484.0
 20
211.0
 30
0.0
 40
15.0
  1
余裕
 50
0.0
 41
0.9
 51
0.0
  7
KANJI39
  0
LINE
  8
0
  6
CONTINUOUS
 62
     2
 10
290.4
 20
265.470552361
 30
0.0
 11
330.5
 21
265.470552361
 31
0.0
  0
LINE
  8
0
  6
CONTINUOUS
 62
     2
 10
472.0
 20
209.0
 30
0.0
 11
514.5
 21
209.0
 31
0.0
  0
LINE
  8
0
  6
CONTINUOUS
 62
     2
 10
804.182512169
 20
344.6
 30
0.0
 11
745.0
 21
344.6
 31
0.0
  0
LINE
  8
0
  6
CONTINUOUS
 62
     2
 10
751.0
 20
344.6
 30
0.0
 11
747.894171459
 21
333.008890085
 31
0.0
  0
LINE
  8
0
  6
CONTINUOUS
 62
     2
 10
751.0
 20
344.6
 30
0.0
 11
754.105828541
 21
333.008890085
 31
0.0
  0
LINE
  8
0
  6
CONTINUOUS
 62
     2
 10
751.0
 20
344.6
 30
0.0
 11
751.0
 21
179.6
 31
0.0
  0
LINE
  8
0
  6
CONTINUOUS
 62
     2
 10
751.0
 20
179.6
 30
0.0
 11
754.105828541
 21
191.191109915
 31
0.0
  0
LINE
  8
0
  6
CONTINUOUS
 62
     2
 10
751.0
 20
179.6
 30
0.0
 11
747.894171459
 21
191.191109915
 31
0.0
  0
TEXT
  8
0
  6
CONTINUOUS
 62
     3
 10
748.0
 20
237.8
 30
0.0
 40
18.0
  1
１６５
 50
90.0
 41
0.9
 51
0.0
  7
KANJI34
  0
LINE
  8
0
  6
LTYPE2
 62
     2
 10
437.532501379
 20
563.0
 30
0.0
 11
824.792501379
 21
563.0
 31
0.0
  0
LINE
  8
0
  6
LTYPE1
 62
     2
 10
692.032501379
 20
577.0
 30
0.0
 11
457.032501379
 21
577.0
 31
0.0
  0
LINE
  8
0
  6
LTYPE1
 62
     2
 10
692.032501379
 20
583.0
 30
0.0
 11
457.032501379
 21
583.0
 31
0.0
  0
LINE
  8
0
  6
LTYPE1
 62
     2
 10
457.032501379
 20
550.0
 30
0.0
 11
473.032501379
 21
550.0
 31
0.0
  0
LINE
  8
0
  6
LTYPE1
 62
     2
 10
454.532501379
 20
572.8
 30
0.0
 11
448.918142025
 21
572.8
 31
0.0
  0
LINE
  8
0
  6
LTYPE1
 62
     2
 10
454.532501379
 20
567.9
 30
0.0
 11
448.918142025
 21
567.9
 31
0.0
  0
LINE
  8
0
  6
LTYPE1
 62
     2
 10
454.532501379
 20
563.0
 30
0.0
 11
454.532501379
 21
572.8
 31
0.0
  0
LINE
  8
0
  6
LTYPE1
 62
     2
 10
457.032501379
 20
572.2
 30
0.0
 11
454.532501379
 21
572.2
 31
0.0
  0
LINE
  8
0
  6
LTYPE1
 62
     2
 10
454.532501384
 20
563.0
 30
0.0
 11
457.032501379
 21
565.499999996
 31
0.0
  0
LINE
  8
0
  6
LTYPE1
 62
     2
 10
454.532501379
 20
553.2
 30
0.0
 11
448.918142025
 21
553.2
 31
0.0
  0
LINE
  8
0
  6
LTYPE1
 62
     2
 10
454.532501379
 20
558.1
 30
0.0
 11
448.918142025
 21
558.1
 31
0.0
  0
LINE
  8
0
  6
LTYPE1
 62
     2
 10
454.532501379
 20
563.0
 30
0.0
 11
454.532501379
 21
553.2
 31
0.0
  0
LINE
  8
0
  6
LTYPE1
 62
     2
 10
457.032501379
 20
563.0
 30
0.0
 11
454.532501384
 21
560.500000004
 31
0.0
  0
LINE
  8
0
  6
LTYPE1
 62
     2
 10
457.032501379
 20
553.8
 30
0.0
 11
454.532501379
 21
553.8
 31
0.0
  0
LINE
  8
0
  6
LTYPE1
 62
     2
 10
447.532501379
 20
563.0
 30
0.0
 11
447.532501379
 21
570.4
 31
0.0
  0
LINE
  8
0
  6
LTYPE1
 62
     2
 10
447.532501379
 20
570.4
 30
0.0
 11
448.918142025
 21
572.8
 31
0.0
  0
LINE
  8
0
  6
LTYPE1
 62
     2
 10
447.532501379
 20
570.4
 30
0.0
 11
448.918142025
 21
572.8
 31
0.0
  0
ARC
  8
0
  6
LTYPE1
 62
     2
 10
450.390385212
 20
570.35
 30
0.0
 40
2.858321186
 50
177.010501597
 51
238.997686085
  0
LINE
  8
0
  6
LTYPE1
 62
     2
 10
443.032501379
 20
567.0
 30
0.0
 11
447.532501379
 21
567.0
 31
0.0
  0
LINE
  8
0
  6
LTYPE1
 62
     2
 10
443.032501379
 20
566.0
 30
0.0
 11
447.532501379
 21
566.0
 31
0.0
  0
LINE
  8
0
  6
LTYPE1
 62
     2
 10
447.532501379
 20
555.6
 30
0.0
 11
448.918142025
 21
553.2
 31
0.0
  0
LINE
  8
0
  6
LTYPE1
 62
     2
 10
447.532501379
 20
563.0
 30
0.0
 11
447.532501379
 21
555.6
 31
0.0
  0
ARC
  8
0
  6
LTYPE1
 62
     2
 10
450.390385212
 20
555.65
 30
0.0
 40
2.858321186
 50
121.002313915
 51
182.989498403
  0
LINE
  8
0
  6
LTYPE1
 62
     2
 10
443.032501379
 20
559.0
 30
0.0
 11
447.532501379
 21
559.0
 31
0.0
  0
LINE
  8
0
  6
LTYPE1
 62
     2
 10
443.032501379
 20
560.0
 30
0.0
 11
447.532501379
 21
560.0
 31
0.0
  0
ARC
  8
0
  6
LTYPE1
 62
     2
 10
456.889184179
 20
563.0
 30
0.0
 40
9.3566828
 50
148.419912243
 51
211.580087757
  0
LINE
  8
0
  6
LTYPE1
 62
     2
 10
443.032501379
 20
559.0
 30
0.0
 11
443.032501379
 21
567.0
 31
0.0
  0
LINE
  8
0
  6
LTYPE1
 62
     2
 10
459.373721379
 20
588.4999
 30
0.0
 11
457.538441379
 21
587.440300598
 31
0.0
  0
LINE
  8
0
  6
LTYPE1
 62
     2
 10
457.538441379
 20
583.0
 30
0.0
 11
457.538441379
 21
587.440300598
 31
0.0
  0
LINE
  8
0
  6
LTYPE1
 62
     2
 10
457.032501379
 20
550.0
 30
0.0
 11
457.032501379
 21
583.0
 31
0.0
  0
LINE
  8
0
  6
LTYPE1
 62
     2
 10
465.032501379
 20
588.4999
 30
0.0
 11
459.373721379
 21
588.4999
 31
0.0
  0
ARC
  8
0
  6
LTYPE1
 62
     2
 10
459.411956379
 20
586.314476233
 30
0.0
 40
2.185758211
 50
31.002313915
 51
92.989498403
  0
LINE
  8
0
  6
LTYPE3
 62
     2
 10
465.682501379
 20
535.0
 30
0.0
 11
1057.032501379
 21
535.0
 31
0.0
  0
LINE
  8
0
  6
LTYPE3
 62
     2
 10
476.032501379
 20
563.0
 30
0.0
 11
487.532501379
 21
563.0
 31
0.0
  0
ARC
  8
0
  6
LTYPE1
 62
     2
 10
476.632501379
 20
570.8
 30
0.0
 40
3.9
 50
317.9
 51
42.1
  0
LINE
  8
0
  6
LTYPE1
 62
     2
 10
479.532501379
 20
568.2
 30
0.0
 11
473.032501379
 21
568.2
 31
0.0
  0
LINE
  8
0
  6
LTYPE1
 62
     2
 10
480.532501379
 20
567.0
 30
0.0
 11
488.032501379
 21
567.0
 31
0.0
  0
LINE
  8
0
  6
LTYPE1
 62
     2
 10
480.532501379
 20
566.0
 30
0.0
 11
488.032501379
 21
566.0
 31
0.0
  0
LINE
  8
0
  6
LTYPE1
 62
     2
 10
473.032501379
 20
552.6
 30
0.0
 11
479.532501379
 21
552.6
 31
0.0
  0
ARC
  8
0
  6
LTYPE1
 62
     2
 10
476.632501379
 20
555.2
 30
0.0
 40
3.9
 50
317.9
 51
42.1
  0
LINE
  8
0
  6
LTYPE1
 62
     2
 10
473.032501379
 20
557.8
 30
0.0
 11
479.532501379
 21
557.8
 31
0.0
  0
LINE
  8
0
  6
LTYPE1
 62
     2
 10
480.532501379
 20
560.0
 30
0.0
 11
488.032501379
 21
560.0
 31
0.0
  0
LINE
  8
0
  6
LTYPE1
 62
     2
 10
480.532501379
 20
559.0
 30
0.0
 11
488.032501379
 21
559.0
 31
0.0
  0
LINE
  8
0
  6
LTYPE1
 62
     2
 10
473.032501379
 20
550.0
 30
0.0
 11
473.032501379
 21
577.0
 31
0.0
  0
LINE
  8
0
  6
LTYPE1
 62
     2
 10
473.032501379
 20
573.4
 30
0.0
 11
473.032501379
 21
552.6
 31
0.0
  0
ARC
  8
0
  6
LTYPE1
 62
     2
 10
466.532501379
 20
563.0
 30
0.0
 40
14.0
 50
338.2
 51
21.8
  0
LINE
  8
0
  6
LTYPE1
 62
     2
 10
480.532501379
 20
555.2
 30
0.0
 11
480.532501379
 21
570.8
 31
0.0
  0
LINE
  8
0
  6
LTYPE1
 62
     2
 10
485.532501379
 20
544.8
 30
0.0
 11
479.918142025
 21
544.8
 31
0.0
  0
LINE
  8
0
  6
LTYPE1
 62
     2
 10
478.532501379
 20
542.4
 30
0.0
 11
479.918142025
 21
544.8
 31
0.0
  0
LINE
  8
0
  6
LTYPE1
 62
     2
 10
478.532501379
 20
542.4
 30
0.0
 11
479.918142025
 21
544.8
 31
0.0
  0
LINE
  8
0
  6
LTYPE1
 62
     2
 10
478.532501379
 20
535.0
 30
0.0
 11
478.532501379
 21
542.4
 31
0.0
  0
LINE
  8
0
  6
LTYPE1
 62
     2
 10
485.532501379
 20
539.9
 30
0.0
 11
479.918142025
 21
539.9
 31
0.0
  0
ARC
  8
0
  6
LTYPE1
 62
     2
 10
481.390385212
 20
542.35
 30
0.0
 40
2.858321186
 50
177.010501597
 51
238.997686085
  0
LINE
  8
0
  6
LTYPE1
 62
     2
 10
470.032501379
 20
539.0
 30
0.0
 11
478.532501379
 21
539.0
 31
0.0
  0
ARC
  8
0
  6
LTYPE1
 62
     2
 10
487.889184179
 20
535.0
 30
0.0
 40
9.3566828
 50
148.419912243
 51
211.580087757
  0
LINE
  8
0
  6
LTYPE1
 62
     2
 10
470.032501379
 20
531.0
 30
0.0
 11
470.032501379
 21
539.0
 31
0.0
  0
LINE
  8
0
  6
LTYPE1
 62
     2
 10
485.532501379
 20
525.2
 30
0.0
 11
479.918142025
 21
525.2
 31
0.0
  0
LINE
  8
0
  6
LTYPE1
 62
     2
 10
478.532501379
 20
527.6
 30
0.0
 11
479.918142025
 21
525.2
 31
0.0
  0
LINE
  8
0
  6
LTYPE1
 62
     2
 10
478.532501379
 20
535.0
 30
0.0
 11
478.532501379
 21
527.6
 31
0.0
  0
LINE
  8
0
  6
LTYPE1
 62
     2
 10
485.532501379
 20
530.1
 30
0.0
 11
479.918142025
 21
530.1
 31
0.0
  0
ARC
  8
0
  6
LTYPE1
 62
     2
 10
481.390385212
 20
527.65
 30
0.0
 40
2.858321186
 50
121.002313915
 51
182.989498403
  0
LINE
  8
0
  6
LTYPE1
 62
     2
 10
470.032501379
 20
531.0
 30
0.0
 11
478.532501379
 21
531.0
 31
0.0
  0
LINE
  8
0
  6
LTYPE1
 62
     2
 10
470.032501379
 20
532.0
 30
0.0
 11
478.532501379
 21
532.0
 31
0.0
  0
LINE
  8
0
  6
LTYPE1
 62
     2
 10
470.032501379
 20
538.0
 30
0.0
 11
478.532501379
 21
538.0
 31
0.0
  0
LINE
  8
0
  6
LTYPE1
 62
     2
 10
520.032501379
 20
569.0
 30
0.0
 11
488.032501379
 21
569.0
 31
0.0
  0
LINE
  8
0
  6
LTYPE1
 62
     2
 10
488.032501379
 20
557.0
 30
0.0
 11
520.032501379
 21
557.0
 31
0.0
  0
LINE
  8
0
  6
LTYPE1
 62
     2
 10
488.032501379
 20
522.0
 30
0.0
 11
520.032501379
 21
522.0
 31
0.0
  0
LINE
  8
0
  6
LTYPE1
 62
     2
 10
488.032501379
 20
567.0
 30
0.0
 11
493.032501379
 21
567.0
 31
0.0
  0
LINE
  8
0
  6
LTYPE1
 62
     2
 10
488.032501379
 20
566.0
 30
0.0
 11
493.032501379
 21
566.0
 31
0.0
  0
LINE
  8
0
  6
LTYPE1
 62
     2
 10
488.032501379
 20
559.0
 30
0.0
 11
493.032501379
 21
559.0
 31
0.0
  0
LINE
  8
0
  6
LTYPE1
 62
     2
 10
488.032501379
 20
560.0
 30
0.0
 11
493.032501379
 21
560.0
 31
0.0
  0
LINE
  8
0
  6
LTYPE1
 62
     2
 10
488.032501379
 20
544.2
 30
0.0
 11
485.532501379
 21
544.2
 31
0.0
  0
LINE
  8
0
  6
LTYPE1
 62
     2
 10
485.532501379
 20
535.0
 30
0.0
 11
485.532501379
 21
544.8
 31
0.0
  0
LINE
  8
0
  6
LTYPE1
 62
     2
 10
488.032501379
 20
522.0
 30
0.0
 11
488.032501379
 21
575.0
 31
0.0
  0
LINE
  8
0
  6
LTYPE1
 62
     2
 10
485.532501379
 20
535.0
 30
0.0
 11
485.532501379
 21
525.2
 31
0.0
  0
LINE
  8
0
  6
LTYPE1
 62
     2
 10
488.032501379
 20
525.8
 30
0.0
 11
485.532501379
 21
525.8
 31
0.0
  0
LINE
  8
0
  6
LTYPE1
 62
     2
 10
488.032501379
 20
535.0
 30
0.0
 11
485.532501384
 21
532.500000004
 31
0.0
  0
LINE
  8
0
  6
LTYPE1
 62
     2
 10
485.532501384
 20
535.0
 30
0.0
 11
488.032501379
 21
537.499999996
 31
0.0
  0
LINE
  8
0
  6
LTYPE1
 62
     2
 10
473.032501379
 20
573.4
 30
0.0
 11
479.532501379
 21
573.4
 31
0.0
  0
ARC
  8
0
  6
LTYPE1
 62
     2
 10
465.032501379
 20
581.344844663
 30
0.0
 40
7.155055337
 50
58.419912243
 51
121.580087757
  0
LINE
  8
0
  6
LTYPE1
 62
     2
 10
470.691281379
 20
588.4999
 30
0.0
 11
472.526561379
 21
587.440300598
 31
0.0
  0
LINE
  8
0
  6
LTYPE1
 62
     2
 10
465.032501379
 20
588.4999
 30
0.0
 11
470.691281379
 21
588.4999
 31
0.0
  0
LINE
  8
0
  6
LTYPE1
 62
     2
 10
470.691281379
 20
588.4999
 30
0.0
 11
472.526561379
 21
587.440300598
 31
0.0
  0
ARC
  8
0
  6
LTYPE1
 62
     2
 10
470.653046379
 20
586.314476233
 30
0.0
 40
2.185758211
 50
87.010501597
 51
148.997686085
  0
LINE
  8
0
  6
LTYPE1
 62
     2
 10
468.779531379
 20
583.0
 30
0.0
 11
468.779531379
 21
587.440300598
 31
0.0
  0
LINE
  8
0
  6
LTYPE1
 62
     2
 10
472.526561379
 20
583.0
 30
0.0
 11
472.526561379
 21
587.440300598
 31
0.0
  0
LINE
  8
0
  6
LTYPE1
 62
     2
 10
520.032501379
 20
575.0
 30
0.0
 11
488.032501379
 21
575.0
 31
0.0
  0
LINE
  8
0
  6
LTYPE1
 62
     2
 10
465.032501379
 20
573.0
 30
0.0
 11
465.032501379
 21
589.0
 31
0.0
  0
LINE
  8
0
  6
LTYPE1
 62
     2
 10
461.285471379
 20
583.0
 30
0.0
 11
461.285471379
 21
587.440300598
 31
0.0
  0
LINE
  8
0
  6
CONTINUOUS
 62
     1
 10
629.0
 20
582.5
 30
0.0
 11
500.0
 21
582.5
 31
0.0
  0
LINE
  8
0
  6
CONTINUOUS
 62
     1
 10
629.0
 20
581.0
 30
0.0
 11
500.0
 21
581.0
 31
0.0
  0
LINE
  8
0
  6
CONTINUOUS
 62
     1
 10
500.0
 20
576.0
 30
0.0
 11
500.0
 21
622.5
 31
0.0
  0
LINE
  8
0
  6
CONTINUOUS
 62
     1
 10
628.0
 20
575.0
 30
0.0
 11
501.0
 21
575.0
 31
0.0
  0
ARC
  8
0
  6
CONTINUOUS
 62
     1
 10
501.0
 20
576.0
 30
0.0
 40
1.0
 50
180.0
 51
270.0
  0
ARC
  8
0
  6
CONTINUOUS
 62
     1
 10
504.0
 20
575.0
 30
0.0
 40
1.0
 50
180.0
 51
270.0
  0
LINE
  8
0
  6
CONTINUOUS
 62
     1
 10
625.0
 20
574.0
 30
0.0
 11
504.1
 21
574.0
 31
0.0
  0
LINE
  8
0
  6
LTYPE1
 62
     2
 10
520.032501379
 20
571.0
 30
0.0
 11
792.482501379
 21
571.0
 31
0.0
  0
LINE
  8
0
  6
LTYPE1
 62
     2
 10
520.032501379
 20
555.0
 30
0.0
 11
792.482501379
 21
555.0
 31
0.0
  0
LINE
  8
0
  6
CONTINUOUS
 62
     1
 10
506.532501379
 20
543.55
 30
0.0
 11
506.532501379
 21
527.55
 31
0.0
  0
LINE
  8
0
  6
CONTINUOUS
 62
     1
 10
506.532501379
 20
543.55
 30
0.0
 11
520.032501379
 21
543.55
 31
0.0
  0
LINE
  8
0
  6
CONTINUOUS
 62
     1
 10
506.532501379
 20
527.55
 30
0.0
 11
520.032501379
 21
527.55
 31
0.0
  0
LINE
  8
0
  6
LTYPE1
 62
     2
 10
493.032501379
 20
557.0
 30
0.0
 11
493.032501379
 21
569.0
 31
0.0
  0
LINE
  8
0
  6
CONTINUOUS
 62
     1
 10
520.032501379
 20
546.0
 30
0.0
 11
528.692755417
 21
551.0
 31
0.0
  0
LINE
  8
0
  6
CONTINUOUS
 62
     1
 10
520.032501379
 20
524.0
 30
0.0
 11
520.032501379
 21
546.0
 31
0.0
  0
LINE
  8
0
  6
CONTINUOUS
 62
     1
 10
520.032501379
 20
524.0
 30
0.0
 11
528.692755417
 21
519.0
 31
0.0
  0
LINE
  8
0
  6
LTYPE1
 62
     2
 10
520.032501379
 20
522.0
 30
0.0
 11
520.032501379
 21
575.0
 31
0.0
  0
LINE
  8
0
  6
CONTINUOUS
 62
     1
 10
528.682501379
 20
519.0
 30
0.0
 11
553.382501379
 21
519.0
 31
0.0
  0
LINE
  8
0
  6
LTYPE2
 62
     2
 10
541.032501379
 20
525.0
 30
0.0
 11
541.032501379
 21
545.0
 31
0.0
  0
LINE
  8
0
  6
CONTINUOUS
 62
     1
 10
528.682501379
 20
551.0
 30
0.0
 11
553.382501379
 21
551.0
 31
0.0
  0
CIRCLE
  8
0
  6
CONTINUOUS
 62
     2
 10
541.032501379
 20
535.0
 30
0.0
 40
5.0
  0
CIRCLE
  8
0
  6
CONTINUOUS
 62
     2
 10
541.032501379
 20
535.0
 30
0.0
 40
4.0
  0
LINE
  8
0
  6
CONTINUOUS
 62
     1
 10
528.682501379
 20
519.0
 30
0.0
 11
528.682501379
 21
551.0
 31
0.0
  0
ARC
  8
0
  6
CONTINUOUS
 62
     1
 10
509.9
 20
575.0
 30
0.0
 40
5.0
 50
272.3
 51
348.5
  0
ARC
  8
0
  6
CONTINUOUS
 62
     1
 10
509.1
 20
575.0
 30
0.0
 40
5.0
 50
191.5
 51
267.7
  0
LINE
  8
0
  6
CONTINUOUS
 62
     1
 10
510.1
 20
570.0
 30
0.0
 11
508.9
 21
570.0
 31
0.0
  0
LINE
  8
0
  6
LTYPE4
 62
     2
 10
509.5
 20
566.6
 30
0.0
 11
509.5
 21
580.0
 31
0.0
  0
LINE
  8
0
  6
CONTINUOUS
 62
     2
 10
509.292647059
 20
592.7
 30
0.0
 11
588.8
 21
592.7
 31
0.0
  0
TEXT
  8
0
  6
CONTINUOUS
 62
     2
 10
509.3
 20
594.7
 30
0.0
 40
15.0
  1
推力リミッタ
 50
0.0
 41
0.92
 51
0.0
  7
KANJI40
  0
LINE
  8
0
  6
LTYPE1
 62
     2
 10
629.0
 20
590.2
 30
0.0
 11
619.0
 21
590.2
 31
0.0
  0
LINE
  8
0
  6
LTYPE1
 62
     2
 10
629.0
 20
589.0
 30
0.0
 11
619.0
 21
589.0
 31
0.0
  0
LINE
  8
0
  6
LTYPE2
 62
     2
 10
635.2
 20
599.5
 30
0.0
 11
615.5
 21
599.5
 31
0.0
  0
LINE
  8
0
  6
CONTINUOUS
 62
     1
 10
629.0
 20
576.0
 30
0.0
 11
629.0
 21
621.5
 31
0.0
  0
ARC
  8
0
  6
CONTINUOUS
 62
     1
 10
628.0
 20
576.0
 30
0.0
 40
1.0
 50
270.0
 51
0.0
  0
LINE
  8
0
  6
CONTINUOUS
 62
     1
 10
626.0
 20
575.0
 30
0.0
 11
626.0
 21
575.0
 31
0.0
  0
ARC
  8
0
  6
CONTINUOUS
 62
     1
 10
625.0
 20
575.0
 30
0.0
 40
1.0
 50
270.0
 51
0.0
  0
LINE
  8
0
  6
CONTINUOUS
 62
     1
 10
562.032501379
 20
543.0
 30
0.0
 11
817.882501379
 21
543.0
 31
0.0
  0
LINE
  8
0
  6
CONTINUOUS
 62
     1
 10
562.032501379
 20
527.0
 30
0.0
 11
849.182501379
 21
527.0
 31
0.0
  0
LINE
  8
0
  6
CONTINUOUS
 62
     1
 10
553.382501379
 20
519.0
 30
0.0
 11
553.382501379
 21
551.0
 31
0.0
  0
LINE
  8
0
  6
CONTINUOUS
 62
     1
 10
562.032501379
 20
524.0
 30
0.0
 11
553.372247342
 21
519.0
 31
0.0
  0
LINE
  8
0
  6
CONTINUOUS
 62
     1
 10
562.032501379
 20
546.0
 30
0.0
 11
553.372247342
 21
551.0
 31
0.0
  0
LINE
  8
0
  6
CONTINUOUS
 62
     1
 10
562.032501379
 20
524.0
 30
0.0
 11
562.032501379
 21
546.0
 31
0.0
  0
ARC
  8
0
  6
CONTINUOUS
 62
     1
 10
620.4
 20
575.0
 30
0.0
 40
5.0
 50
272.3
 51
348.5
  0
ARC
  8
0
  6
CONTINUOUS
 62
     1
 10
619.6
 20
575.0
 30
0.0
 40
5.0
 50
191.5
 51
267.7
  0
LINE
  8
0
  6
CONTINUOUS
 62
     1
 10
620.6
 20
570.0
 30
0.0
 11
619.4
 21
570.0
 31
0.0
  0
LINE
  8
0
  6
LTYPE4
 62
     2
 10
620.0
 20
566.6
 30
0.0
 11
620.0
 21
580.0
 31
0.0
  0
LINE
  8
0
  6
CONTINUOUS
 62
     2
 10
629.0
 20
599.5
 30
0.0
 11
640.980916594
 21
598.823510848
 31
0.0
  0
LINE
  8
0
  6
CONTINUOUS
 62
     2
 10
629.0
 20
599.5
 30
0.0
 11
639.714022707
 21
604.904601506
 31
0.0
  0
LINE
  8
0
  6
CONTINUOUS
 62
     2
 10
629.0
 20
599.5
 30
0.0
 11
713.0
 21
617.0
 31
0.0
  0
LINE
  8
0
  6
LTYPE1
 62
     2
 10
678.032501379
 20
583.5
 30
0.0
 11
678.032501379
 21
668.0
 31
0.0
  0
LINE
  8
0
  6
LTYPE1
 62
     2
 10
676.532501379
 20
577.0
 30
0.0
 11
676.532501379
 21
572.4
 31
0.0
  0
ARC
  8
0
  6
LTYPE1
 62
     2
 10
678.332501379
 20
574.5
 30
0.0
 40
2.8
 50
228.5
 51
311.5
  0
LINE
  8
0
  6
LTYPE1
 62
     2
 10
689.732501379
 20
571.7
 30
0.0
 11
678.332501379
 21
571.7
 31
0.0
  0
LINE
  8
0
  6
LTYPE1
 62
     2
 10
692.032501379
 20
577.0
 30
0.0
 11
692.032501379
 21
668.0
 31
0.0
  0
LINE
  8
0
  6
LTYPE1
 62
     2
 10
691.532501379
 20
577.0
 30
0.0
 11
691.532501379
 21
572.4
 31
0.0
  0
LINE
  8
0
  6
LTYPE1
 62
     2
 10
680.232501379
 20
577.0
 30
0.0
 11
680.232501379
 21
572.4
 31
0.0
  0
LINE
  8
0
  6
LTYPE1
 62
     2
 10
687.832501379
 20
577.0
 30
0.0
 11
687.832501379
 21
572.4
 31
0.0
  0
ARC
  8
0
  6
LTYPE1
 62
     2
 10
684.032501379
 20
582.4
 30
0.0
 40
10.7
 50
249.1
 51
290.9
  0
ARC
  8
0
  6
LTYPE1
 62
     2
 10
689.732501379
 20
574.5
 30
0.0
 40
2.8
 50
228.5
 51
311.5
  0
LINE
  8
0
  6
LTYPE1
 62
     2
 10
684.032501379
 20
568.2
 30
0.0
 11
684.032501379
 21
580.0
 31
0.0
  0
LINE
  8
0
  6
LTYPE2
 62
     2
 10
684.032501379
 20
564.35
 30
0.0
 11
684.032501379
 21
588.65
 31
0.0
  0
LINE
  8
0
  6
CONTINUOUS
 62
     2
 10
713.0
 20
617.0
 30
0.0
 11
794.0
 21
617.0
 31
0.0
  0
TEXT
  8
0
  6
CONTINUOUS
 62
     3
 10
713.0
 20
620.0
 30
0.0
 40
18.0
  1
ＰＦ１／２
 50
0.0
 41
0.9
 51
0.0
  7
KANJI34
  0
LINE
  8
0
  6
LTYPE3
 62
     2
 10
685.032501379
 20
622.25
 30
0.0
 11
685.032501379
 21
727.9
 31
0.0
  0
LINE
  8
0
  6
LTYPE1
 62
     2
 10
692.032501379
 20
648.0
 30
0.0
 11
678.032501379
 21
648.0
 31
0.0
  0
LINE
  8
0
  6
LTYPE1
 62
     2
 10
692.032501379
 20
668.0
 30
0.0
 11
678.032501379
 21
668.0
 31
0.0
  0
LINE
  8
0
  6
LTYPE1
 62
     2
 10
689.032501379
 20
668.0
 30
0.0
 11
689.032501379
 21
724.50001079
 31
0.0
  0
LINE
  8
0
  6
LTYPE1
 62
     2
 10
681.032501379
 20
668.0
 30
0.0
 11
681.032501379
 21
724.50001079
 31
0.0
  0
ARC
  8
0
  6
LTYPE1
 62
     2
 10
685.032501379
 20
724.5
 30
0.0
 40
4.0
 50
0.00015455
 51
179.99984545
  0
LINE
  8
0
  6
CONTINUOUS
 62
     1
 10
828.182501379
 20
650.0
 30
0.0
 11
591.0
 21
650.0
 31
0.0
  0
LINE
  8
0
  6
CONTINUOUS
 62
     1
 10
831.182501379
 20
720.0
 30
0.0
 11
591.0
 21
720.0
 31
0.0
  0
LINE
  8
0
  6
CONTINUOUS
 62
     2
 10
639.0
 20
650.0
 30
0.0
 11
639.0
 21
720.0
 31
0.0
  0
TEXT
  8
0
  6
CONTINUOUS
 62
     2
 10
634.0
 20
663.25
 30
0.0
 40
18.0
  1
φ７０
 50
90.0
 41
0.9
 51
0.0
  7
KANJI34
  0
LINE
  8
0
  6
CONTINUOUS
 62
     2
 10
639.0
 20
720.0
 30
0.0
 11
635.764761936
 21
707.925927171
 31
0.0
  0
LINE
  8
0
  6
CONTINUOUS
 62
     2
 10
639.0
 20
720.0
 30
0.0
 11
642.235238064
 21
707.925927171
 31
0.0
  0
LINE
  8
0
  6
CONTINUOUS
 62
     2
 10
639.0
 20
650.0
 30
0.0
 11
642.235238064
 21
662.074072829
 31
0.0
  0
LINE
  8
0
  6
CONTINUOUS
 62
     2
 10
639.0
 20
650.0
 30
0.0
 11
635.764761936
 21
662.074072829
 31
0.0
  0
LINE
  8
0
  6
LTYPE3
 62
     2
 10
615.0
 20
685.0
 30
0.0
 11
288.9
 21
685.0
 31
0.0
  0
LINE
  8
0
  6
LTYPE3
 62
     2
 10
1109.283472275
 20
685.0
 30
0.0
 11
637.0
 21
685.0
 31
0.0
  0
LINE
  8
0
  6
CONTINUOUS
 62
     2
 10
731.1
 20
704.8
 30
0.0
 11
738.588041206
 21
714.808957933
 31
0.0
  0
LINE
  8
0
  6
CONTINUOUS
 62
     2
 10
731.1
 20
704.8
 30
0.0
 11
732.580354942
 21
717.212032438
 31
0.0
  0
LINE
  8
0
  6
CONTINUOUS
 62
     2
 10
731.1
 20
704.8
 30
0.0
 11
781.1
 21
829.8
 31
0.0
  0
TEXT
  8
0
  6
CONTINUOUS
 62
     2
 10
781.1
 20
834.8
 30
0.0
 40
18.0
  1
給脂口
 50
0.0
 41
0.9
 51
0.0
  7
KANJI34
  0
LINE
  8
0
  6
CONTINUOUS
 62
     2
 10
781.1
 20
829.8
 30
0.0
 11
837.0
 21
829.8
 31
0.0
  0
TEXT
  8
0
  6
CONTINUOUS
 62
     2
 10
293.632591263
 20
353.871507451
 30
0.0
 40
20.0
  1
推力リミッタの作動値は、約１２００ｋｇ（設計値）
 50
0.0
 41
0.925
 51
0.0
  7
KANJI41
  0
LINE
  8
0
  6
CONTINUOUS
 62
     2
 10
291.632591263
 20
345.871507451
 30
0.0
 11
719.92
 21
345.871507451
 31
0.0
  0
ARC
  8
0
  6
CONTINUOUS
 62
     1
 10
1405.0
 20
613.5
 30
0.0
 40
6.0
 50
180.0
 51
270.0
  0
ARC
  8
0
  6
CONTINUOUS
 62
     1
 10
1547.0
 20
613.5
 30
0.0
 40
6.0
 50
270.0
 51
0.0
  0
LINE
  8
0
  6
CONTINUOUS
 62
     1
 10
1425.0
 20
576.0
 30
0.0
 11
1425.0
 21
622.5
 31
0.0
  0
ARC
  8
0
  6
CONTINUOUS
 62
     1
 10
1426.0
 20
576.0
 30
0.0
 40
1.0
 50
180.0
 51
270.0
  0
ARC
  8
0
  6
CONTINUOUS
 62
     1
 10
1429.0
 20
575.0
 30
0.0
 40
1.0
 50
180.0
 51
270.0
  0
ARC
  8
0
  6
CONTINUOUS
 62
     1
 10
1524.0
 20
622.5
 30
0.0
 40
3.0
 50
0.0
 51
90.0
  0
LINE
  8
0
  6
CONTINUOUS
 62
     1
 10
1527.0
 20
576.0
 30
0.0
 11
1527.0
 21
622.5
 31
0.0
  0
ARC
  8
0
  6
CONTINUOUS
 62
     1
 10
1526.0
 20
576.0
 30
0.0
 40
1.0
 50
270.0
 51
0.0
  0
ARC
  8
0
  6
CONTINUOUS
 62
     1
 10
1523.0
 20
575.0
 30
0.0
 40
1.0
 50
270.0
 51
0.0
  0
LINE
  8
0
  6
CONTINUOUS
 62
     1
 10
1527.0
 20
581.0
 30
0.0
 11
1425.0
 21
581.0
 31
0.0
  0
LINE
  8
0
  6
CONTINUOUS
 62
     1
 10
1527.0
 20
582.5
 30
0.0
 11
1425.0
 21
582.5
 31
0.0
  0
LINE
  8
0
  6
CONTINUOUS
 62
     1
 10
1523.0
 20
574.0
 30
0.0
 11
1429.0
 21
574.0
 31
0.0
  0
LINE
  8
0
  6
CONTINUOUS
 62
     1
 10
1526.0
 20
575.0
 30
0.0
 11
1426.0
 21
575.0
 31
0.0
  0
ARC
  8
0
  6
CONTINUOUS
 62
     1
 10
1530.0
 20
631.0
 30
0.0
 40
5.0
 50
270.0
 51
360.0
  0
ARC
  8
0
  6
CONTINUOUS
 62
     1
 10
1422.0
 20
631.0
 30
0.0
 40
5.0
 50
180.0
 51
270.0
  0
LINE
  8
0
  6
CONTINUOUS
 62
     1
 10
1535.0
 20
661.474953509
 30
0.0
 11
1535.0
 21
631.0
 31
0.0
  0
LINE
  8
0
  6
CONTINUOUS
 62
     1
 10
1521.0
 20
626.0
 30
0.0
 11
1530.0
 21
626.0
 31
0.0
  0
LINE
  8
0
  6
CONTINUOUS
 62
     1
 10
1431.0
 20
626.0
 30
0.0
 11
1422.0
 21
626.0
 31
0.0
  0
LINE
  8
0
  6
CONTINUOUS
 62
     1
 10
1527.0
 20
607.5
 30
0.0
 11
1547.0
 21
607.5
 31
0.0
  0
LINE
  8
0
  6
CONTINUOUS
 62
     1
 10
1405.0
 20
607.5
 30
0.0
 11
1425.0
 21
607.5
 31
0.0
  0
LINE
  8
0
  6
CONTINUOUS
 62
     1
 10
1553.0
 20
613.5
 30
0.0
 11
1553.0
 21
663.639279073
 31
0.0
  0
LINE
  8
0
  6
CONTINUOUS
 62
     1
 10
1399.0
 20
613.5
 30
0.0
 11
1399.0
 21
663.639279073
 31
0.0
  0
LINE
  8
0
  6
LTYPE3
 62
     2
 10
1521.0
 20
570.3
 30
0.0
 11
1521.0
 21
589.0
 31
0.0
  0
LINE
  8
0
  6
LTYPE3
 62
     2
 10
1431.0
 20
570.3
 30
0.0
 11
1431.0
 21
589.0
 31
0.0
  0
LINE
  8
0
  6
LTYPE3
 62
     3
 10
1476.0
 20
583.4875
 30
0.0
 11
1476.0
 21
628.65
 31
0.0
  0
LINE
  8
0
  6
CONTINUOUS
 62
     2
 10
1399.0
 20
606.0
 30
0.0
 11
1399.0
 21
518.3
 31
0.0
  0
LINE
  8
0
  6
CONTINUOUS
 62
     2
 10
1399.0
 20
525.8
 30
0.0
 11
1411.074072829
 21
522.564761936
 31
0.0
  0
LINE
  8
0
  6
CONTINUOUS
 62
     2
 10
1399.0
 20
525.8
 30
0.0
 11
1411.074072829
 21
529.035238064
 31
0.0
  0
LINE
  8
0
  6
CONTINUOUS
 62
     2
 10
1399.0
 20
525.8
 30
0.0
 11
1553.0
 21
525.8
 31
0.0
  0
LINE
  8
0
  6
CONTINUOUS
 62
     2
 10
1553.0
 20
525.8
 30
0.0
 11
1540.925927171
 21
529.035238064
 31
0.0
  0
LINE
  8
0
  6
CONTINUOUS
 62
     2
 10
1553.0
 20
525.8
 30
0.0
 11
1540.925927171
 21
522.564761936
 31
0.0
  0
LINE
  8
0
  6
CONTINUOUS
 62
     2
 10
1553.0
 20
606.0
 30
0.0
 11
1553.0
 21
518.3
 31
0.0
  0
LINE
  8
0
  6
CONTINUOUS
 62
     2
 10
1396.0
 20
656.5
 30
0.0
 11
1396.0
 21
477.8375
 31
0.0
  0
LINE
  8
0
  6
CONTINUOUS
 62
     2
 10
1396.0
 20
485.3375
 30
0.0
 11
1408.074072829
 21
482.102261936
 31
0.0
  0
LINE
  8
0
  6
CONTINUOUS
 62
     2
 10
1396.0
 20
485.3375
 30
0.0
 11
1408.074072829
 21
488.572738064
 31
0.0
  0
LINE
  8
0
  6
CONTINUOUS
 62
     2
 10
1396.0
 20
485.3375
 30
0.0
 11
1556.0
 21
485.3375
 31
0.0
  0
LINE
  8
0
  6
CONTINUOUS
 62
     2
 10
1556.0
 20
485.3375
 30
0.0
 11
1543.925927171
 21
488.572738064
 31
0.0
  0
LINE
  8
0
  6
CONTINUOUS
 62
     2
 10
1556.0
 20
485.3375
 30
0.0
 11
1543.925927171
 21
482.102261936
 31
0.0
  0
LINE
  8
0
  6
CONTINUOUS
 62
     2
 10
1556.0
 20
656.5
 30
0.0
 11
1556.0
 21
477.8375
 31
0.0
  0
CIRCLE
  8
0
  6
CONTINUOUS
 62
     2
 10
1476.0
 20
599.5
 30
0.0
 40
10.4775
  0
CIRCLE
  8
0
  6
CONTINUOUS
 62
     2
 10
1476.0
 20
599.5
 30
0.0
 40
9.3155
  0
LINE
  8
0
  6
LTYPE2
 62
     2
 10
1495.9
 20
599.5
 30
0.0
 11
1455.2
 21
599.5
 31
0.0
  0
LINE
  8
0
  6
CONTINUOUS
 62
     2
 10
1305.087188375
 20
641.12609696
 30
0.0
 11
1305.087188375
 21
546.6
 31
0.0
  0
LINE
  8
0
  6
CONTINUOUS
 62
     2
 10
1305.087188375
 20
554.1
 30
0.0
 11
1317.161261203
 21
550.864761936
 31
0.0
  0
LINE
  8
0
  6
CONTINUOUS
 62
     2
 10
1305.087188375
 20
554.1
 30
0.0
 11
1317.161261203
 21
557.335238064
 31
0.0
  0
LINE
  8
0
  6
CONTINUOUS
 62
     2
 10
1305.087188375
 20
554.1
 30
0.0
 11
1476.0
 21
554.1
 31
0.0
  0
LINE
  8
0
  6
CONTINUOUS
 62
     2
 10
1476.0
 20
554.1
 30
0.0
 11
1463.925927171
 21
557.335238064
 31
0.0
  0
LINE
  8
0
  6
CONTINUOUS
 62
     2
 10
1476.0
 20
554.1
 30
0.0
 11
1463.925927171
 21
550.864761936
 31
0.0
  0
LINE
  8
0
  6
CONTINUOUS
 62
     2
 10
1526.0
 20
574.0
 30
0.0
 11
1670.222218677
 21
574.0
 31
0.0
  0
TEXT
  8
0
  6
CONTINUOUS
 62
     2
 10
1454.25
 20
490.3375
 30
0.0
 40
18.0
  1
１６０
 50
0.0
 41
0.9
 51
0.0
  7
KANJI34
  0
TEXT
  8
0
  6
CONTINUOUS
 62
     2
 10
1454.25
 20
530.8
 30
0.0
 40
18.0
  1
１５４
 50
0.0
 41
0.9
 51
0.0
  7
KANJI34
  0
TEXT
  8
0
  6
CONTINUOUS
 62
     2
 10
1335.043594187
 20
559.1
 30
0.0
 40
18.0
  1
１７５
 50
0.0
 41
0.9
 51
0.0
  7
KANJI34
  0
LINE
  8
0
  6
CONTINUOUS
 62
     1
 10
1428.0
 20
625.5
 30
0.0
 11
1524.0
 21
625.5
 31
0.0
  0
ARC
  8
0
  6
CONTINUOUS
 62
     1
 10
1428.0
 20
622.5
 30
0.0
 40
3.0
 50
90.0
 51
180.0
  0
LINE
  8
0
  6
CONTINUOUS
 62
     1
 10
1431.0
 20
627.0
 30
0.0
 11
1521.0
 21
627.0
 31
0.0
  0
LINE
  8
0
  6
CONTINUOUS
 62
     1
 10
1556.0
 20
664.0
 30
0.0
 11
1556.0
 21
706.0
 31
0.0
  0
ARC
  8
0
  6
CONTINUOUS
 62
     1
 10
1530.0
 20
739.0
 30
0.0
 40
5.0
 50
0.0
 51
90.0
  0
LINE
  8
0
  6
CONTINUOUS
 62
     1
 10
1535.0
 20
708.525046491
 30
0.0
 11
1535.0
 21
739.0
 31
0.0
  0
LINE
  8
0
  6
CONTINUOUS
 62
     1
 10
1503.5
 20
710.0
 30
0.0
 11
1488.5
 21
710.0
 31
0.0
  0
LINE
  8
0
  6
CONTINUOUS
 62
     1
 10
1508.0
 20
663.0
 30
0.0
 11
1508.0
 21
707.0
 31
0.0
  0
LINE
  8
0
  6
CONTINUOUS
 62
     1
 10
1514.0
 20
672.5
 30
0.0
 11
1514.0
 21
697.5
 31
0.0
  0
LINE
  8
0
  6
CONTINUOUS
 62
     1
 10
1514.0
 20
697.5
 30
0.0
 11
1508.0
 21
697.5
 31
0.0
  0
LINE
  8
0
  6
CONTINUOUS
 62
     1
 10
1514.0
 20
672.5
 30
0.0
 11
1508.0
 21
672.5
 31
0.0
  0
LINE
  8
0
  6
CONTINUOUS
 62
     1
 10
1508.0
 20
707.0
 30
0.0
 11
1503.5
 21
707.0
 31
0.0
  0
LINE
  8
0
  6
CONTINUOUS
 62
     1
 10
1508.0
 20
663.0
 30
0.0
 11
1503.5
 21
663.0
 31
0.0
  0
CIRCLE
  8
0
  6
CONTINUOUS
 62
     1
 10
1510.0
 20
685.0
 30
0.0
 40
2.0
  0
LINE
  8
0
  6
CONTINUOUS
 62
     1
 10
1444.0
 20
663.0
 30
0.0
 11
1444.0
 21
707.0
 31
0.0
  0
LINE
  8
0
  6
CONTINUOUS
 62
     1
 10
1438.0
 20
672.5
 30
0.0
 11
1438.0
 21
697.5
 31
0.0
  0
LINE
  8
0
  6
CONTINUOUS
 62
     1
 10
1438.0
 20
697.5
 30
0.0
 11
1444.0
 21
697.5
 31
0.0
  0
LINE
  8
0
  6
CONTINUOUS
 62
     1
 10
1438.0
 20
672.5
 30
0.0
 11
1444.0
 21
672.5
 31
0.0
  0
LINE
  8
0
  6
CONTINUOUS
 62
     1
 10
1444.0
 20
707.0
 30
0.0
 11
1448.5
 21
707.0
 31
0.0
  0
LINE
  8
0
  6
CONTINUOUS
 62
     1
 10
1444.0
 20
663.0
 30
0.0
 11
1448.5
 21
663.0
 31
0.0
  0
CIRCLE
  8
0
  6
CONTINUOUS
 62
     1
 10
1442.0
 20
685.0
 30
0.0
 40
2.0
  0
LINE
  8
0
  6
CONTINUOUS
 62
     1
 10
1488.5
 20
672.5
 30
0.0
 11
1463.5
 21
672.5
 31
0.0
  0
LINE
  8
0
  6
CONTINUOUS
 62
     1
 10
1488.5
 20
697.5
 30
0.0
 11
1463.5
 21
697.5
 31
0.0
  0
LINE
  8
0
  6
CONTINUOUS
 62
     1
 10
1463.5
 20
672.5
 30
0.0
 11
1488.5
 21
672.5
 31
0.0
  0
LINE
  8
0
  6
CONTINUOUS
 62
     1
 10
1463.5
 20
697.5
 30
0.0
 11
1488.5
 21
697.5
 31
0.0
  0
LINE
  8
0
  6
CONTINUOUS
 62
     1
 10
1448.5
 20
710.0
 30
0.0
 11
1488.5
 21
710.0
 31
0.0
  0
LINE
  8
0
  6
CONTINUOUS
 62
     1
 10
1503.5
 20
660.0
 30
0.0
 11
1503.5
 21
710.0
 31
0.0
  0
LINE
  8
0
  6
CONTINUOUS
 62
     1
 10
1448.5
 20
660.0
 30
0.0
 11
1503.5
 21
660.0
 31
0.0
  0
LINE
  8
0
  6
CONTINUOUS
 62
     1
 10
1488.5
 20
660.0
 30
0.0
 11
1488.5
 21
710.0
 31
0.0
  0
LINE
  8
0
  6
CONTINUOUS
 62
     1
 10
1463.5
 20
660.0
 30
0.0
 11
1463.5
 21
710.0
 31
0.0
  0
LINE
  8
0
  6
CONTINUOUS
 62
     1
 10
1448.5
 20
660.0
 30
0.0
 11
1448.5
 21
710.0
 31
0.0
  0
LINE
  8
0
  6
LTYPE1
 62
     2
 10
1421.0
 20
675.0
 30
0.0
 11
1396.0
 21
675.0
 31
0.0
  0
LINE
  8
0
  6
LTYPE1
 62
     2
 10
1531.0
 20
675.0
 30
0.0
 11
1531.0
 21
695.0
 31
0.0
  0
LINE
  8
0
  6
LTYPE1
 62
     2
 10
1531.0
 20
695.0
 30
0.0
 11
1556.0
 21
695.0
 31
0.0
  0
LINE
  8
0
  6
LTYPE1
 62
     2
 10
1531.0
 20
675.0
 30
0.0
 11
1556.0
 21
675.0
 31
0.0
  0
LINE
  8
0
  6
LTYPE3
 62
     2
 10
1510.6
 20
732.0
 30
0.0
 11
1534.4
 21
732.0
 31
0.0
  0
LINE
  8
0
  6
LTYPE3
 62
     2
 10
1523.0
 20
720.665527109
 30
0.0
 11
1523.0
 21
742.765527109
 31
0.0
  0
LINE
  8
0
  6
LTYPE5
 62
     2
 10
1509.9
 20
681.0
 30
0.0
 11
1509.9
 21
689.2
 31
0.0
  0
LINE
  8
0
  6
LTYPE1
 62
     2
 10
1508.0
 20
697.5
 30
0.0
 11
1488.5
 21
697.5
 31
0.0
  0
LINE
  8
0
  6
LTYPE1
 62
     2
 10
1508.0
 20
672.5
 30
0.0
 11
1488.5
 21
672.5
 31
0.0
  0
LINE
  8
0
  6
LTYPE5
 62
     2
 10
1442.1
 20
681.0
 30
0.0
 11
1442.1
 21
689.2
 31
0.0
  0
LINE
  8
0
  6
LTYPE1
 62
     2
 10
1444.0
 20
697.5
 30
0.0
 11
1463.5
 21
697.5
 31
0.0
  0
LINE
  8
0
  6
LTYPE1
 62
     2
 10
1444.0
 20
672.5
 30
0.0
 11
1463.5
 21
672.5
 31
0.0
  0
LINE
  8
0
  6
CONTINUOUS
 62
     2
 10
1561.0
 20
675.0
 30
0.0
 11
1637.0
 21
675.0
 31
0.0
  0
LINE
  8
0
  6
CONTINUOUS
 62
     2
 10
1561.0
 20
695.0
 30
0.0
 11
1637.0
 21
695.0
 31
0.0
  0
LINE
  8
0
  6
CONTINUOUS
 62
     1
 10
1556.0
 20
664.0
 30
0.0
 11
1523.9
 21
660.140286078
 31
0.0
  0
LINE
  8
0
  6
CONTINUOUS
 62
     1
 10
1556.0
 20
706.0
 30
0.0
 11
1524.8
 21
709.751497644
 31
0.0
  0
LINE
  8
0
  6
CONTINUOUS
 62
     2
 10
1091.0
 20
434.8625
 30
0.0
 11
1078.925927171
 21
438.097738064
 31
0.0
  0
LINE
  8
0
  6
CONTINUOUS
 62
     2
 10
1091.0
 20
434.8625
 30
0.0
 11
1078.925927171
 21
431.627261936
 31
0.0
  0
LINE
  8
0
  6
CONTINUOUS
 62
     2
 10
1091.0
 20
390.5
 30
0.0
 11
1078.925927171
 21
393.735238064
 31
0.0
  0
LINE
  8
0
  6
CONTINUOUS
 62
     2
 10
1091.0
 20
390.5
 30
0.0
 11
1078.925927171
 21
387.264761936
 31
0.0
  0
LINE
  8
0
  6
CONTINUOUS
 62
     2
 10
1091.0
 20
657.0
 30
0.0
 11
1091.0
 21
383.0
 31
0.0
  0
LINE
  8
0
  6
CONTINUOUS
 62
     2
 10
1091.0
 20
479.8625
 30
0.0
 11
1091.0
 21
466.8625
 31
0.0
  0
LINE
  8
0
  6
CONTINUOUS
 62
     1
 10
1116.0
 20
668.0
 30
0.0
 11
1116.0
 21
702.0
 31
0.0
  0
CIRCLE
  8
0
  6
CONTINUOUS
 62
     1
 10
1091.0
 20
685.0
 30
0.0
 40
12.5
  0
CIRCLE
  8
0
  6
CONTINUOUS
 62
     1
 10
1091.0
 20
685.0
 30
0.0
 40
22.0
  0
LINE
  8
0
  6
CONTINUOUS
 62
     1
 10
1089.3
 20
672.6
 30
0.0
 11
1089.064615385
 21
671.030769231
 31
0.0
  0
LINE
  8
0
  6
CONTINUOUS
 62
     1
 10
1089.064615385
 20
671.030769231
 30
0.0
 11
1086.8
 21
668.2
 31
0.0
  0
LINE
  8
0
  6
CONTINUOUS
 62
     1
 10
1091.0
 20
670.6
 30
0.0
 11
1088.8
 21
667.9
 31
0.0
  0
LINE
  8
0
  6
CONTINUOUS
 62
     1
 10
1092.7
 20
672.6
 30
0.0
 11
1092.935384615
 21
671.030769231
 31
0.0
  0
LINE
  8
0
  6
CONTINUOUS
 62
     1
 10
1092.935384615
 20
671.030769231
 30
0.0
 11
1095.2
 21
668.2
 31
0.0
  0
LINE
  8
0
  6
CONTINUOUS
 62
     1
 10
1091.0
 20
670.6
 30
0.0
 11
1093.2
 21
667.9
 31
0.0
  0
LINE
  8
0
  6
LTYPE1
 62
     2
 10
1056.0
 20
660.0
 30
0.0
 11
1056.0
 21
710.0
 31
0.0
  0
LINE
  8
0
  6
LTYPE5
 62
     2
 10
1091.0
 20
660.0
 30
0.0
 11
1091.0
 21
717.1
 31
0.0
  0
ARC
  8
0
  6
CONTINUOUS
 62
     1
 10
1108.0
 20
668.0
 30
0.0
 40
8.0
 50
270.0
 51
0.0
  0
LINE
  8
0
  6
CONTINUOUS
 62
     2
 10
1115.5
 20
660.0
 30
0.0
 11
1179.1
 21
660.0
 31
0.0
  0
LINE
  8
0
  6
CONTINUOUS
 62
     1
 10
1086.8
 20
668.2
 30
0.0
 11
1088.8
 21
667.9
 31
0.0
  0
LINE
  8
0
  6
CONTINUOUS
 62
     1
 10
1095.2
 20
668.2
 30
0.0
 11
1093.2
 21
667.9
 31
0.0
  0
LINE
  8
0
  6
CONTINUOUS
 62
     1
 10
1041.0
 20
652.0
 30
0.0
 11
1041.0
 21
723.0
 31
0.0
  0
LINE
  8
0
  6
CONTINUOUS
 62
     1
 10
1041.0
 20
660.0
 30
0.0
 11
1108.0
 21
660.0
 31
0.0
  0
LINE
  8
0
  6
CONTINUOUS
 62
     2
 10
1135.0
 20
756.1
 30
0.0
 11
1223.5
 21
756.1
 31
0.0
  0
LINE
  8
0
  6
CONTINUOUS
 62
     2
 10
1115.5
 20
710.0
 30
0.0
 11
1179.1
 21
710.0
 31
0.0
  0
LINE
  8
0
  6
CONTINUOUS
 62
     2
 10
1171.6
 20
710.0
 30
0.0
 11
1168.364761936
 21
697.925927171
 31
0.0
  0
LINE
  8
0
  6
CONTINUOUS
 62
     2
 10
1171.6
 20
710.0
 30
0.0
 11
1174.835238064
 21
697.925927171
 31
0.0
  0
LINE
  8
0
  6
CONTINUOUS
 62
     2
 10
1171.6
 20
710.0
 30
0.0
 11
1171.6
 21
660.0
 31
0.0
  0
LINE
  8
0
  6
CONTINUOUS
 62
     2
 10
1171.6
 20
660.0
 30
0.0
 11
1174.835238064
 21
672.074072829
 31
0.0
  0
LINE
  8
0
  6
CONTINUOUS
 62
     2
 10
1171.6
 20
660.0
 30
0.0
 11
1168.364761936
 21
672.074072829
 31
0.0
  0
LINE
  8
0
  6
CONTINUOUS
 62
     2
 10
1098.5
 20
694.1
 30
0.0
 11
1135.0
 21
756.1
 31
0.0
  0
ARC
  8
0
  6
CONTINUOUS
 62
     1
 10
1108.0
 20
702.0
 30
0.0
 40
8.0
 50
0.0
 51
90.0
  0
LINE
  8
0
  6
CONTINUOUS
 62
     2
 10
1098.5
 20
694.6
 30
0.0
 11
1107.413448812
 21
703.363585469
 31
0.0
  0
CIRCLE
  8
0
  6
CONTINUOUS
 62
     1
 10
1091.0
 20
700.5
 30
0.0
 40
3.0
  0
LINE
  8
0
  6
CONTINUOUS
 62
     2
 10
1098.5
 20
694.6
 30
0.0
 11
1101.837480372
 21
706.64621205
 31
0.0
  0
LINE
  8
0
  6
CONTINUOUS
 62
     1
 10
1041.0
 20
710.0
 30
0.0
 11
1108.0
 21
710.0
 31
0.0
  0
TEXT
  8
0
  6
CONTINUOUS
 62
     2
 10
1135.0
 20
761.1
 30
0.0
 40
18.0
  1
φ２５Ｈ１０
 50
0.0
 41
0.9
 51
0.0
  7
KANJI34
  0
TEXT
  8
0
  6
CONTINUOUS
 62
     2
 10
1166.6
 20
670.75
 30
0.0
 40
18.0
  1
５０
 50
90.0
 41
0.9
 51
0.0
  7
KANJI34
  0
TEXT
  8
0
  6
CONTINUOUS
 62
     2
 10
1179.5
 20
736.6
 30
0.0
 40
18.0
  1
ｄ９
 50
0.0
 41
0.9
 51
0.0
  7
KANJI34
  0
LINE
  8
0
  6
CONTINUOUS
 62
     2
 10
1084.75
 20
818.1
 30
0.0
 11
1003.75
 21
818.1
 31
0.0
  0
LINE
  8
0
  6
CONTINUOUS
 62
     2
 10
1056.0
 20
818.1
 30
0.0
 11
1068.074072829
 21
814.864761936
 31
0.0
  0
LINE
  8
0
  6
CONTINUOUS
 62
     2
 10
1056.0
 20
818.1
 30
0.0
 11
1068.074072829
 21
821.335238064
 31
0.0
  0
LINE
  8
0
  6
CONTINUOUS
 62
     2
 10
1056.0
 20
818.1
 30
0.0
 11
1091.0
 21
818.1
 31
0.0
  0
LINE
  8
0
  6
CONTINUOUS
 62
     2
 10
1091.0
 20
818.1
 30
0.0
 11
1078.925927171
 21
821.335238064
 31
0.0
  0
LINE
  8
0
  6
CONTINUOUS
 62
     2
 10
1091.0
 20
818.1
 30
0.0
 11
1078.925927171
 21
814.864761936
 31
0.0
  0
LINE
  8
0
  6
CONTINUOUS
 62
     2
 10
1056.0
 20
818.1
 30
0.0
 11
1068.074072829
 21
814.864761936
 31
0.0
  0
LINE
  8
0
  6
CONTINUOUS
 62
     2
 10
1056.0
 20
818.1
 30
0.0
 11
1068.074072829
 21
821.335238064
 31
0.0
  0
LINE
  8
0
  6
CONTINUOUS
 62
     2
 10
1041.0
 20
818.1
 30
0.0
 11
1028.925927171
 21
821.335238064
 31
0.0
  0
LINE
  8
0
  6
CONTINUOUS
 62
     2
 10
1041.0
 20
818.1
 30
0.0
 11
1028.925927171
 21
814.864761936
 31
0.0
  0
LINE
  8
0
  6
CONTINUOUS
 62
     2
 10
1091.0
 20
853.0
 30
0.0
 11
1091.0
 21
810.6
 31
0.0
  0
LINE
  8
0
  6
CONTINUOUS
 62
     2
 10
1056.0
 20
885.5
 30
0.0
 11
1056.0
 21
810.6
 31
0.0
  0
LINE
  8
0
  6
CONTINUOUS
 62
     2
 10
1041.0
 20
861.5
 30
0.0
 11
1041.0
 21
810.6
 31
0.0
  0
TEXT
  8
0
  6
CONTINUOUS
 62
     2
 10
1004.75
 20
821.1
 30
0.0
 40
18.0
  1
１５
 50
0.0
 41
0.9
 51
0.0
  7
KANJI34
  0
TEXT
  8
0
  6
CONTINUOUS
 62
     2
 10
1059.25
 20
823.1
 30
0.0
 40
18.0
  1
３５
 50
0.0
 41
0.9
 51
0.0
  7
KANJI34
  0
LINE
  8
2
  6
CONTINUOUS
 62
     2
 10
1091.0
 20
815.1
 30
0.0
 11
1091.0
 21
812.1
 31
0.0
  0
LINE
  8
2
  6
CONTINUOUS
 62
     2
 10
1091.0
 20
818.1
 30
0.0
 11
1076.511112606
 21
821.982285677
 31
0.0
  0
LINE
  8
2
  6
CONTINUOUS
 62
     2
 10
1091.0
 20
818.1
 30
0.0
 11
1076.511112606
 21
814.217714323
 31
0.0
  0
LINE
  8
2
  6
CONTINUOUS
 62
     2
 10
1068.5
 20
818.1
 30
0.0
 11
1091.0
 21
818.1
 31
0.0
  0
LINE
  8
2
  6
CONTINUOUS
 62
     2
 10
1091.0
 20
818.1
 30
0.0
 11
1116.0
 21
818.1
 31
0.0
  0
LINE
  8
2
  6
CONTINUOUS
 62
     2
 10
1116.0
 20
818.1
 30
0.0
 11
1170.9
 21
818.1
 31
0.0
  0
LINE
  8
2
  6
CONTINUOUS
 62
     2
 10
1116.0
 20
818.1
 30
0.0
 11
1130.488887394
 21
814.217714323
 31
0.0
  0
LINE
  8
2
  6
CONTINUOUS
 62
     2
 10
1116.0
 20
818.1
 30
0.0
 11
1130.488887394
 21
821.982285677
 31
0.0
  0
LINE
  8
2
  6
CONTINUOUS
 62
     2
 10
1116.0
 20
867.1
 30
0.0
 11
1116.0
 21
812.1
 31
0.0
  0
TEXT
  8
2
  6
CONTINUOUS
 62
     3
 10
1138.5
 20
824.1
 30
0.0
 40
18.0
  1
２５
 50
0.0
 41
0.9
 51
0.0
  7
KANJI34
  0
LINE
  8
0
  6
CONTINUOUS
 62
     1
 10
951.0
 20
650.0
 30
0.0
 11
951.0
 21
685.0
 31
0.0
  0
ARC
  8
0
  6
CONTINUOUS
 62
     1
 10
924.845218677
 20
631.0
 30
0.0
 40
1.0
 50
195.0
 51
270.0
  0
ARC
  8
0
  6
CONTINUOUS
 62
     1
 10
924.845219502
 20
631.0
 30
0.0
 40
1.0
 50
270.0
 51
345.0
  0
LINE
  8
0
  6
CONTINUOUS
 62
     1
 10
929.433185539
 20
644.258819045
 30
0.0
 11
925.811145329
 21
630.741180955
 31
0.0
  0
ARC
  8
0
  6
CONTINUOUS
 62
     1
 10
930.399111365
 20
644.0
 30
0.0
 40
1.0
 50
90.0
 51
165.0
  0
ARC
  8
0
  6
CONTINUOUS
 62
     1
 10
930.399112039
 20
644.0
 30
0.0
 40
1.0
 50
15.0
 51
90.0
  0
LINE
  8
0
  6
CONTINUOUS
 62
     1
 10
931.365037865
 20
644.258819045
 30
0.0
 11
934.987078075
 21
630.741180955
 31
0.0
  0
ARC
  8
0
  6
CONTINUOUS
 62
     1
 10
935.953003902
 20
631.0
 30
0.0
 40
1.0
 50
195.0
 51
270.0
  0
LINE
  8
0
  6
CONTINUOUS
 62
     1
 10
940.540970764
 20
644.258819045
 30
0.0
 11
936.918930554
 21
630.741180955
 31
0.0
  0
ARC
  8
0
  6
CONTINUOUS
 62
     1
 10
941.50689659
 20
644.0
 30
0.0
 40
1.0
 50
90.0
 51
165.0
  0
ARC
  8
0
  6
CONTINUOUS
 62
     1
 10
935.953005553
 20
631.0
 30
0.0
 40
1.0
 50
270.0
 51
345.0
  0
LINE
  8
0
  6
LTYPE6
 62
     2
 10
941.50689659
 20
645.0
 30
0.0
 11
955.730004728
 21
645.0
 31
0.0
  0
LINE
  8
0
  6
LTYPE6
 62
     2
 10
935.953004728
 20
630.0
 30
0.0
 11
955.730004728
 21
630.0
 31
0.0
  0
LINE
  8
0
  6
CONTINUOUS
 62
     1
 10
905.683009455
 20
647.0
 30
0.0
 11
915.683009455
 21
647.0
 31
0.0
  0
LINE
  8
0
  6
CONTINUOUS
 62
     1
 10
905.683009455
 20
649.0
 30
0.0
 11
905.683009455
 21
647.0
 31
0.0
  0
LINE
  8
0
  6
CONTINUOUS
 62
     1
 10
915.683009455
 20
649.0
 30
0.0
 11
915.683009455
 21
647.0
 31
0.0
  0
LINE
  8
0
  6
CONTINUOUS
 62
     1
 10
903.183009455
 20
649.0
 30
0.0
 11
918.986857032
 21
649.0
 31
0.0
  0
LINE
  8
0
  6
CONTINUOUS
 62
     1
 10
918.986857032
 20
649.0
 30
0.0
 11
923.87929285
 21
630.741180955
 31
0.0
  0
ARC
  8
0
  6
CONTINUOUS
 62
     1
 10
924.845218677
 20
739.0
 30
0.0
 40
1.0
 50
90.0
 51
165.0
  0
ARC
  8
0
  6
CONTINUOUS
 62
     1
 10
924.845219502
 20
739.0
 30
0.0
 40
1.0
 50
15.0
 51
90.0
  0
LINE
  8
0
  6
CONTINUOUS
 62
     1
 10
929.433185539
 20
725.741180955
 30
0.0
 11
925.811145329
 21
739.258819045
 31
0.0
  0
ARC
  8
0
  6
CONTINUOUS
 62
     1
 10
930.399111365
 20
726.0
 30
0.0
 40
1.0
 50
195.0
 51
270.0
  0
ARC
  8
0
  6
CONTINUOUS
 62
     1
 10
930.399112039
 20
726.0
 30
0.0
 40
1.0
 50
270.0
 51
345.0
  0
LINE
  8
0
  6
CONTINUOUS
 62
     1
 10
931.365037865
 20
725.741180955
 30
0.0
 11
934.987078075
 21
739.258819045
 31
0.0
  0
ARC
  8
0
  6
CONTINUOUS
 62
     1
 10
935.953003902
 20
739.0
 30
0.0
 40
1.0
 50
90.0
 51
165.0
  0
LINE
  8
0
  6
CONTINUOUS
 62
     1
 10
940.540970764
 20
725.741180955
 30
0.0
 11
936.918930554
 21
739.258819045
 31
0.0
  0
ARC
  8
0
  6
CONTINUOUS
 62
     1
 10
941.50689659
 20
726.0
 30
0.0
 40
1.0
 50
195.0
 51
270.0
  0
ARC
  8
0
  6
CONTINUOUS
 62
     1
 10
935.953005553
 20
739.0
 30
0.0
 40
1.0
 50
15.0
 51
90.0
  0
LINE
  8
0
  6
CONTINUOUS
 62
     1
 10
924.845218677
 20
740.0
 30
0.0
 11
924.845218677
 21
685.0
 31
0.0
  0
LINE
  8
0
  6
CONTINUOUS
 62
     1
 10
930.399111365
 20
685.0
 30
0.0
 11
930.399111365
 21
725.0
 31
0.0
  0
LINE
  8
0
  6
CONTINUOUS
 62
     1
 10
935.953004728
 20
740.0
 30
0.0
 11
935.953004728
 21
685.0
 31
0.0
  0
LINE
  8
0
  6
CONTINUOUS
 62
     1
 10
941.50689659
 20
725.0
 30
0.0
 11
941.50689659
 21
685.0
 31
0.0
  0
LINE
  8
0
  6
LTYPE6
 62
     2
 10
941.50689659
 20
725.0
 30
0.0
 11
955.730004728
 21
725.0
 31
0.0
  0
LINE
  8
0
  6
LTYPE6
 62
     2
 10
935.953004728
 20
740.0
 30
0.0
 11
955.730004728
 21
740.0
 31
0.0
  0
LINE
  8
0
  6
CONTINUOUS
 62
     1
 10
905.683009455
 20
722.0
 30
0.0
 11
915.683009455
 21
722.0
 31
0.0
  0
LINE
  8
0
  6
CONTINUOUS
 62
     1
 10
905.683009455
 20
720.0
 30
0.0
 11
905.683009455
 21
722.0
 31
0.0
  0
LINE
  8
0
  6
CONTINUOUS
 62
     1
 10
915.683009455
 20
720.0
 30
0.0
 11
915.683009455
 21
722.0
 31
0.0
  0
LINE
  8
0
  6
CONTINUOUS
 62
     1
 10
918.71890784
 20
720.0
 30
0.0
 11
903.182501379
 21
720.0
 31
0.0
  0
LINE
  8
0
  6
CONTINUOUS
 62
     1
 10
918.71890784
 20
720.0
 30
0.0
 11
923.87929285
 21
739.258819045
 31
0.0
  0
LINE
  8
0
  6
CONTINUOUS
 62
     1
 10
918.71890784
 20
720.0
 30
0.0
 11
918.71890784
 21
685.0
 31
0.0
  0
LINE
  8
0
  6
LTYPE6
 62
     2
 10
986.676112865
 20
725.0
 30
0.0
 11
955.730004728
 21
725.0
 31
0.0
  0
LINE
  8
0
  6
LTYPE6
 62
     2
 10
992.230005553
 20
740.0
 30
0.0
 11
955.730004728
 21
740.0
 31
0.0
  0
ARC
  8
0
  6
CONTINUOUS
 62
     1
 10
1003.337790779
 20
739.0
 30
0.0
 40
1.0
 50
15.0
 51
90.0
  0
ARC
  8
0
  6
CONTINUOUS
 62
     1
 10
1003.337789953
 20
739.0
 30
0.0
 40
1.0
 50
90.0
 51
165.0
  0
LINE
  8
0
  6
CONTINUOUS
 62
     1
 10
998.749823916
 20
725.741180955
 30
0.0
 11
1002.371864126
 21
739.258819045
 31
0.0
  0
ARC
  8
0
  6
CONTINUOUS
 62
     1
 10
997.78389809
 20
726.0
 30
0.0
 40
1.0
 50
270.0
 51
345.0
  0
ARC
  8
0
  6
CONTINUOUS
 62
     1
 10
997.783897416
 20
726.0
 30
0.0
 40
1.0
 50
195.0
 51
270.0
  0
LINE
  8
0
  6
CONTINUOUS
 62
     1
 10
996.81797159
 20
725.741180955
 30
0.0
 11
993.19593138
 21
739.258819045
 31
0.0
  0
ARC
  8
0
  6
CONTINUOUS
 62
     1
 10
992.230005553
 20
739.0
 30
0.0
 40
1.0
 50
15.0
 51
90.0
  0
ARC
  8
0
  6
CONTINUOUS
 62
     1
 10
992.230003902
 20
739.0
 30
0.0
 40
1.0
 50
90.0
 51
165.0
  0
ARC
  8
0
  6
CONTINUOUS
 62
     1
 10
986.676112865
 20
726.0
 30
0.0
 40
1.0
 50
270.0
 51
345.0
  0
LINE
  8
0
  6
CONTINUOUS
 62
     1
 10
987.642038691
 20
725.741180955
 30
0.0
 11
991.264078901
 21
739.258819045
 31
0.0
  0
LINE
  8
0
  6
CONTINUOUS
 62
     1
 10
1010.0
 20
718.0
 30
0.0
 11
1004.303716605
 21
739.258819045
 31
0.0
  0
LINE
  8
0
  6
CONTINUOUS
 62
     1
 10
1022.5
 20
720.0
 30
0.0
 11
1012.5
 21
720.0
 31
0.0
  0
LINE
  8
0
  6
CONTINUOUS
 62
     1
 10
1025.0
 20
718.0
 30
0.0
 11
1010.0
 21
718.0
 31
0.0
  0
LINE
  8
0
  6
CONTINUOUS
 62
     1
 10
1022.5
 20
718.0
 30
0.0
 11
1022.5
 21
720.0
 31
0.0
  0
LINE
  8
0
  6
CONTINUOUS
 62
     1
 10
1012.5
 20
718.0
 30
0.0
 11
1012.5
 21
720.0
 31
0.0
  0
LINE
  8
0
  6
CONTINUOUS
 62
     1
 10
1010.0
 20
685.0
 30
0.0
 11
1010.0
 21
718.0
 31
0.0
  0
LINE
  8
0
  6
CONTINUOUS
 62
     1
 10
986.676112865
 20
725.0
 30
0.0
 11
986.676112865
 21
685.0
 31
0.0
  0
LINE
  8
0
  6
CONTINUOUS
 62
     1
 10
992.230004728
 20
740.0
 30
0.0
 11
992.230004728
 21
685.0
 31
0.0
  0
LINE
  8
0
  6
CONTINUOUS
 62
     1
 10
1003.337790779
 20
740.0
 30
0.0
 11
1003.337790779
 21
685.0
 31
0.0
  0
LINE
  8
0
  6
CONTINUOUS
 62
     1
 10
997.78389809
 20
685.0
 30
0.0
 11
997.78389809
 21
725.0
 31
0.0
  0
LINE
  8
0
  6
CONTINUOUS
 62
     1
 10
1025.0
 20
660.0
 30
0.0
 11
986.0
 21
660.0
 31
0.0
  0
LINE
  8
0
  6
LTYPE6
 62
     2
 10
992.230005553
 20
630.0
 30
0.0
 11
955.730004728
 21
630.0
 31
0.0
  0
ARC
  8
0
  6
CONTINUOUS
 62
     1
 10
1003.337790779
 20
631.0
 30
0.0
 40
1.0
 50
270.0
 51
345.0
  0
ARC
  8
0
  6
CONTINUOUS
 62
     1
 10
1003.337789953
 20
631.0
 30
0.0
 40
1.0
 50
195.0
 51
270.0
  0
LINE
  8
0
  6
CONTINUOUS
 62
     1
 10
998.749823916
 20
644.258819045
 30
0.0
 11
1002.371864126
 21
630.741180955
 31
0.0
  0
ARC
  8
0
  6
CONTINUOUS
 62
     1
 10
997.78389809
 20
644.0
 30
0.0
 40
1.0
 50
15.0
 51
90.0
  0
ARC
  8
0
  6
CONTINUOUS
 62
     1
 10
997.783897416
 20
644.0
 30
0.0
 40
1.0
 50
90.0
 51
165.0
  0
LINE
  8
0
  6
CONTINUOUS
 62
     1
 10
996.81797159
 20
644.258819045
 30
0.0
 11
993.19593138
 21
630.741180955
 31
0.0
  0
ARC
  8
0
  6
CONTINUOUS
 62
     1
 10
992.230005553
 20
631.0
 30
0.0
 40
1.0
 50
270.0
 51
345.0
  0
ARC
  8
0
  6
CONTINUOUS
 62
     1
 10
992.230003902
 20
631.0
 30
0.0
 40
1.0
 50
195.0
 51
270.0
  0
LINE
  8
0
  6
CONTINUOUS
 62
     1
 10
987.642038691
 20
644.258819045
 30
0.0
 11
991.264078901
 21
630.741180955
 31
0.0
  0
LINE
  8
0
  6
CONTINUOUS
 62
     1
 10
1010.0
 20
652.0
 30
0.0
 11
1004.303716605
 21
630.741180955
 31
0.0
  0
LINE
  8
0
  6
CONTINUOUS
 62
     1
 10
1022.5
 20
650.0
 30
0.0
 11
1012.5
 21
650.0
 31
0.0
  0
LINE
  8
0
  6
CONTINUOUS
 62
     1
 10
1025.0
 20
652.0
 30
0.0
 11
1010.0
 21
652.0
 31
0.0
  0
LINE
  8
0
  6
CONTINUOUS
 62
     1
 10
1022.5
 20
652.0
 30
0.0
 11
1022.5
 21
650.0
 31
0.0
  0
LINE
  8
0
  6
CONTINUOUS
 62
     1
 10
1012.5
 20
652.0
 30
0.0
 11
1012.5
 21
650.0
 31
0.0
  0
LINE
  8
0
  6
CONTINUOUS
 62
     1
 10
1009.982501379
 20
652.1
 30
0.0
 11
1009.982501379
 21
659.9
 31
0.0
  0
ARC
  8
0
  6
CONTINUOUS
 62
     1
 10
986.676112865
 20
644.0
 30
0.0
 40
1.0
 50
15.0
 51
90.0
  0
LINE
  8
0
  6
CONTINUOUS
 62
     1
 10
986.0
 20
650.0
 30
0.0
 11
986.0
 21
685.0
 31
0.0
  0
LINE
  8
0
  6
LTYPE6
 62
     2
 10
986.676112865
 20
645.0
 30
0.0
 11
955.730004728
 21
645.0
 31
0.0
  0
LINE
  8
0
  6
CONTINUOUS
 62
     1
 10
1046.4999
 20
540.65878
 30
0.0
 11
1045.440300598
 21
542.49406
 31
0.0
  0
LINE
  8
0
  6
CONTINUOUS
 62
     1
 10
1046.4999
 20
535.0
 30
0.0
 11
1046.4999
 21
540.65878
 31
0.0
  0
LINE
  8
0
  6
CONTINUOUS
 62
     1
 10
1046.4999
 20
535.0
 30
0.0
 11
1046.4999
 21
529.34122
 31
0.0
  0
ARC
  8
0
  6
CONTINUOUS
 62
     1
 10
1039.344844663
 20
535.0
 30
0.0
 40
7.155055337
 50
328.419912243
 51
31.580087757
  0
ARC
  8
0
  6
CONTINUOUS
 62
     1
 10
1044.314476233
 20
540.620545
 30
0.0
 40
2.185758211
 50
301.002313915
 51
2.989498403
  0
LINE
  8
0
  6
CONTINUOUS
 62
     1
 10
1041.0
 20
542.49406
 30
0.0
 11
1045.440300598
 21
542.49406
 31
0.0
  0
LINE
  8
0
  6
CONTINUOUS
 62
     1
 10
1041.0
 20
538.74703
 30
0.0
 11
1045.440300598
 21
538.74703
 31
0.0
  0
LINE
  8
0
  6
CONTINUOUS
 62
     1
 10
1046.4999
 20
539.0
 30
0.0
 11
1051.4999
 21
539.0
 31
0.0
  0
LINE
  8
0
  6
CONTINUOUS
 62
     1
 10
1051.4999
 20
531.0
 30
0.0
 11
1051.4999
 21
539.0
 31
0.0
  0
LINE
  8
0
  6
CONTINUOUS
 62
     2
 10
1046.4999
 20
538.2
 30
0.0
 11
1051.4999
 21
538.2
 31
0.0
  0
LINE
  8
0
  6
CONTINUOUS
 62
     1
 10
1046.4999
 20
529.34122
 30
0.0
 11
1045.440300598
 21
527.50594
 31
0.0
  0
LINE
  8
0
  6
CONTINUOUS
 62
     1
 10
1046.4999
 20
529.34122
 30
0.0
 11
1045.440300598
 21
527.50594
 31
0.0
  0
ARC
  8
0
  6
CONTINUOUS
 62
     1
 10
1044.314476233
 20
529.379455
 30
0.0
 40
2.185758211
 50
357.010501597
 51
58.997686085
  0
LINE
  8
0
  6
CONTINUOUS
 62
     1
 10
1046.4999
 20
531.0
 30
0.0
 11
1051.4999
 21
531.0
 31
0.0
  0
LINE
  8
0
  6
CONTINUOUS
 62
     2
 10
1046.4999
 20
531.8
 30
0.0
 11
1051.4999
 21
531.8
 31
0.0
  0
LINE
  8
0
  6
CONTINUOUS
 62
     2
 10
1041.0
 20
600.5
 30
0.0
 11
1041.0
 21
470.7
 31
0.0
  0
LINE
  8
0
  6
CONTINUOUS
 62
     1
 10
1041.0
 20
522.0
 30
0.0
 11
1041.0
 21
692.0
 31
0.0
  0
LINE
  8
0
  6
CONTINUOUS
 62
     1
 10
1041.0
 20
535.0
 30
0.0
 11
1041.0
 21
542.49406
 31
0.0
  0
LINE
  8
0
  6
CONTINUOUS
 62
     1
 10
1041.0
 20
535.0
 30
0.0
 11
1041.0
 21
527.50594
 31
0.0
  0
LINE
  8
0
  6
CONTINUOUS
 62
     1
 10
1041.0
 20
531.25297
 30
0.0
 11
1045.440300598
 21
531.25297
 31
0.0
  0
LINE
  8
0
  6
CONTINUOUS
 62
     1
 10
1041.0
 20
527.50594
 30
0.0
 11
1045.440300598
 21
527.50594
 31
0.0
  0
LINE
  8
0
  6
CONTINUOUS
 62
     1
 10
1025.0
 20
522.0
 30
0.0
 11
1041.0
 21
522.0
 31
0.0
  0
LINE
  8
0
  6
CONTINUOUS
 62
     2
 10
986.0
 20
647.375
 30
0.0
 11
986.0
 21
470.7
 31
0.0
  0
LINE
  8
0
  6
CONTINUOUS
 62
     1
 10
800.182501379
 20
583.0
 30
0.0
 11
930.182501379
 21
583.0
 31
0.0
  0
LINE
  8
0
  6
CONTINUOUS
 62
     1
 10
937.882501379
 20
576.0
 30
0.0
 11
937.882501379
 21
550.6
 31
0.0
  0
LINE
  8
0
  6
CONTINUOUS
 62
     1
 10
912.482501379
 20
576.0
 30
0.0
 11
937.882501379
 21
576.0
 31
0.0
  0
LINE
  8
0
  6
CONTINUOUS
 62
     1
 10
800.182501379
 20
577.0
 30
0.0
 11
800.182501379
 21
583.0
 31
0.0
  0
LINE
  8
0
  6
CONTINUOUS
 62
     1
 10
800.182501379
 20
577.0
 30
0.0
 11
930.182501379
 21
577.0
 31
0.0
  0
LINE
  8
0
  6
CONTINUOUS
 62
     1
 10
930.182501379
 20
577.0
 30
0.0
 11
930.182501379
 21
583.0
 31
0.0
  0
LINE
  8
0
  6
CONTINUOUS
 62
     1
 10
912.482501379
 20
550.6
 30
0.0
 11
937.882501379
 21
550.6
 31
0.0
  0
LINE
  8
0
  6
CONTINUOUS
 62
     1
 10
843.782501379
 20
577.0
 30
0.0
 11
843.782501379
 21
537.0
 31
0.0
  0
LINE
  8
0
  6
CONTINUOUS
 62
     1
 10
912.482501379
 20
577.0
 30
0.0
 11
912.482501379
 21
537.0
 31
0.0
  0
LINE
  8
0
  6
LTYPE1
 62
     2
 10
848.882501379
 20
546.23
 30
0.0
 11
843.882501379
 21
546.23
 31
0.0
  0
LINE
  8
0
  6
LTYPE1
 62
     2
 10
848.882501379
 20
547.385
 30
0.0
 11
843.882501379
 21
547.385
 31
0.0
  0
LINE
  8
0
  6
LTYPE1
 62
     2
 10
848.882501379
 20
567.17
 30
0.0
 11
843.882501379
 21
567.17
 31
0.0
  0
LINE
  8
0
  6
LTYPE1
 62
     2
 10
848.882501379
 20
566.015
 30
0.0
 11
843.882501379
 21
566.015
 31
0.0
  0
LINE
  8
0
  6
LTYPE1
 62
     2
 10
848.882501379
 20
567.17
 30
0.0
 11
843.882501379
 21
567.17
 31
0.0
  0
LINE
  8
0
  6
LTYPE3
 62
     2
 10
865.182501379
 20
521.0
 30
0.0
 11
865.182501379
 21
586.3
 31
0.0
  0
LINE
  8
0
  6
LTYPE3
 62
     2
 10
922.182501379
 20
562.1875
 30
0.0
 11
922.182501379
 21
522.2
 31
0.0
  0
LINE
  8
0
  6
CONTINUOUS
 62
     1
 10
792.482501379
 20
576.0
 30
0.0
 11
792.482501379
 21
550.6
 31
0.0
  0
LINE
  8
0
  6
CONTINUOUS
 62
     1
 10
817.882501379
 20
576.0
 30
0.0
 11
792.482501379
 21
576.0
 31
0.0
  0
LINE
  8
0
  6
CONTINUOUS
 62
     1
 10
817.882501379
 20
550.6
 30
0.0
 11
792.482501379
 21
550.6
 31
0.0
  0
LINE
  8
0
  6
CONTINUOUS
 62
     1
 10
817.882501379
 20
577.0
 30
0.0
 11
817.882501379
 21
537.0
 31
0.0
  0
LINE
  8
0
  6
CONTINUOUS
 62
     1
 10
849.182501379
 20
522.0
 30
0.0
 11
849.182501379
 21
537.0
 31
0.0
  0
LINE
  8
0
  6
CONTINUOUS
 62
     1
 10
849.182501379
 20
522.0
 30
0.0
 11
881.182501379
 21
522.0
 31
0.0
  0
LINE
  8
0
  6
CONTINUOUS
 62
     1
 10
881.182501379
 20
522.0
 30
0.0
 11
881.182501379
 21
537.0
 31
0.0
  0
LINE
  8
0
  6
LTYPE5
 62
     2
 10
848.882501379
 20
555.7
 30
0.0
 11
839.782501379
 21
555.7
 31
0.0
  0
LINE
  8
0
  6
CONTINUOUS
 62
     1
 10
817.882501379
 20
543.0
 30
0.0
 11
912.482501379
 21
543.0
 31
0.0
  0
LINE
  8
0
  6
CONTINUOUS
 62
     1
 10
817.882501379
 20
537.0
 30
0.0
 11
912.482501379
 21
537.0
 31
0.0
  0
LINE
  8
0
  6
CONTINUOUS
 62
     2
 10
857.0
 20
524.875
 30
0.0
 11
847.458760731
 21
516.799434806
 31
0.0
  0
LINE
  8
0
  6
CONTINUOUS
 62
     2
 10
857.0
 20
524.875
 30
0.0
 11
852.774827007
 21
513.110735757
 31
0.0
  0
LINE
  8
0
  6
CONTINUOUS
 62
     2
 10
857.0
 20
524.875
 30
0.0
 11
840.0
 21
500.375
 31
0.0
  0
LINE
  8
0
  6
CONTINUOUS
 62
     2
 10
986.0
 20
478.2
 30
0.0
 11
973.925927171
 21
481.435238064
 31
0.0
  0
LINE
  8
0
  6
CONTINUOUS
 62
     2
 10
986.0
 20
478.2
 30
0.0
 11
973.925927171
 21
474.964761936
 31
0.0
  0
LINE
  8
0
  6
CONTINUOUS
 62
     2
 10
986.0
 20
478.2
 30
0.0
 11
998.074072829
 21
474.964761936
 31
0.0
  0
LINE
  8
0
  6
CONTINUOUS
 62
     2
 10
986.0
 20
478.2
 30
0.0
 11
998.074072829
 21
481.435238064
 31
0.0
  0
LINE
  8
0
  6
CONTINUOUS
 62
     2
 10
986.0
 20
478.2
 30
0.0
 11
1041.0
 21
478.2
 31
0.0
  0
LINE
  8
0
  6
CONTINUOUS
 62
     2
 10
1041.0
 20
478.2
 30
0.0
 11
1028.925927171
 21
481.435238064
 31
0.0
  0
LINE
  8
0
  6
CONTINUOUS
 62
     2
 10
1041.0
 20
478.2
 30
0.0
 11
1028.925927171
 21
474.964761936
 31
0.0
  0
LINE
  8
0
  6
CONTINUOUS
 62
     1
 10
1025.0
 20
723.0
 30
0.0
 11
1041.0
 21
723.0
 31
0.0
  0
LINE
  8
0
  6
CONTINUOUS
 62
     1
 10
1025.0
 20
522.0
 30
0.0
 11
1025.0
 21
723.0
 31
0.0
  0
LINE
  8
2
  6
CONTINUOUS
 62
     2
 10
1041.0
 20
477.1
 30
0.0
 11
1041.0
 21
472.2
 31
0.0
  0
LINE
  8
2
  6
CONTINUOUS
 62
     2
 10
1041.0
 20
478.2
 30
0.0
 11
1052.591109915
 21
475.094171459
 31
0.0
  0
LINE
  8
2
  6
CONTINUOUS
 62
     2
 10
1041.0
 20
478.2
 30
0.0
 11
1052.591109915
 21
481.305828541
 31
0.0
  0
LINE
  8
2
  6
CONTINUOUS
 62
     2
 10
1041.0
 20
478.2
 30
0.0
 11
1091.0
 21
478.2
 31
0.0
  0
LINE
  8
2
  6
CONTINUOUS
 62
     2
 10
1091.0
 20
478.2
 30
0.0
 11
1079.408890085
 21
481.305828541
 31
0.0
  0
LINE
  8
2
  6
CONTINUOUS
 62
     2
 10
1091.0
 20
478.2
 30
0.0
 11
1079.408890085
 21
475.094171459
 31
0.0
  0
LINE
  8
2
  6
CONTINUOUS
 62
     2
 10
1091.0
 20
473.6
 30
0.0
 11
1091.0
 21
472.2
 31
0.0
  0
TEXT
  8
2
  6
CONTINUOUS
 62
     3
 10
1049.8
 20
481.2
 30
0.0
 40
18.0
  1
５０
 50
0.0
 41
0.9
 51
0.0
  7
KANJI34
  0
LINE
  8
0
  6
CONTINUOUS
 62
     1
 10
849.182501379
 20
278.1
 30
0.0
 11
881.182501379
 21
278.1
 31
0.0
  0
LINE
  8
0
  6
CONTINUOUS
 62
     1
 10
849.182501379
 20
246.1
 30
0.0
 11
849.182501379
 21
278.1
 31
0.0
  0
ARC
  8
0
  6
CONTINUOUS
 62
     1
 10
810.182501379
 20
334.6
 30
0.0
 40
10.0
 50
90.0
 51
180.0
  0
LINE
  8
0
  6
CONTINUOUS
 62
     1
 10
930.182501379
 20
332.8
 30
0.0
 11
930.182501379
 21
334.6
 31
0.0
  0
LINE
  8
0
  6
CONTINUOUS
 62
     1
 10
810.182501379
 20
344.6
 30
0.0
 11
920.182501379
 21
344.6
 31
0.0
  0
ARC
  8
0
  6
CONTINUOUS
 62
     1
 10
920.182501379
 20
334.6
 30
0.0
 40
10.0
 50
0.0
 51
90.0
  0
LINE
  8
0
  6
LTYPE3
 62
     2
 10
931.443522596
 20
320.1
 30
0.0
 11
840.182501379
 21
320.1
 31
0.0
  0
LINE
  8
0
  6
CONTINUOUS
 62
     1
 10
881.182501379
 20
246.1
 30
0.0
 11
849.182501379
 21
246.1
 31
0.0
  0
LINE
  8
0
  6
LTYPE3
 62
     2
 10
875.682501379
 20
219.2
 30
0.0
 11
886.582501379
 21
219.2
 31
0.0
  0
LINE
  8
0
  6
LTYPE3
 62
     2
 10
881.582501379
 20
213.18
 30
0.0
 11
881.582501379
 21
223.1
 31
0.0
  0
LINE
  8
0
  6
LTYPE3
 62
     2
 10
875.142501379
 20
189.0
 30
0.0
 11
886.582501379
 21
189.0
 31
0.0
  0
LINE
  8
0
  6
LTYPE3
 62
     2
 10
881.582501379
 20
185.1
 30
0.0
 11
881.582501379
 21
194.08
 31
0.0
  0
LINE
  8
0
  6
LTYPE3
 62
     2
 10
817.882501379
 20
189.0
 30
0.0
 11
827.842501379
 21
189.0
 31
0.0
  0
LINE
  8
0
  6
LTYPE3
 62
     2
 10
822.882501379
 20
185.1
 30
0.0
 11
822.882501379
 21
192.98
 31
0.0
  0
LINE
  8
0
  6
LTYPE3
 62
     2
 10
817.882501379
 20
219.2
 30
0.0
 11
827.682501379
 21
219.2
 31
0.0
  0
LINE
  8
0
  6
LTYPE3
 62
     2
 10
822.882501379
 20
213.08
 30
0.0
 11
822.882501379
 21
223.1
 31
0.0
  0
LINE
  8
0
  6
LTYPE3
 62
     2
 10
819.182501379
 20
242.1
 30
0.0
 11
796.182501379
 21
242.1
 31
0.0
  0
ARC
  8
0
  6
CONTINUOUS
 62
     1
 10
819.882501379
 20
186.1
 30
0.0
 40
2.0
 50
180.0
 51
270.0
  0
LINE
  8
0
  6
CONTINUOUS
 62
     1
 10
794.482501379
 20
191.4
 30
0.0
 11
817.882501379
 21
191.4
 31
0.0
  0
ARC
  8
0
  6
CONTINUOUS
 62
     1
 10
794.482501379
 20
193.4
 30
0.0
 40
2.0
 50
180.0
 51
270.0
  0
LINE
  8
0
  6
CONTINUOUS
 62
     1
 10
792.482501379
 20
193.4
 30
0.0
 11
792.482501379
 21
214.8
 31
0.0
  0
ARC
  8
0
  6
CONTINUOUS
 62
     1
 10
794.482501379
 20
214.8
 30
0.0
 40
2.0
 50
90.0
 51
180.0
  0
LINE
  8
0
  6
CONTINUOUS
 62
     1
 10
817.882501379
 20
186.1
 30
0.0
 11
817.882501379
 21
222.1
 31
0.0
  0
ARC
  8
0
  6
CONTINUOUS
 62
     1
 10
819.882501379
 20
222.1
 30
0.0
 40
2.0
 50
90.0
 51
180.0
  0
LINE
  8
0
  6
CONTINUOUS
 62
     1
 10
819.882501379
 20
224.1
 30
0.0
 11
884.582501379
 21
224.1
 31
0.0
  0
ARC
  8
0
  6
CONTINUOUS
 62
     1
 10
884.582501379
 20
222.1
 30
0.0
 40
2.0
 50
0.0
 51
90.0
  0
LINE
  8
0
  6
CONTINUOUS
 62
     1
 10
819.882501379
 20
184.1
 30
0.0
 11
884.582501379
 21
184.1
 31
0.0
  0
LINE
  8
0
  6
CONTINUOUS
 62
     1
 10
886.582501379
 20
186.1
 30
0.0
 11
886.582501379
 21
222.1
 31
0.0
  0
ARC
  8
0
  6
CONTINUOUS
 62
     1
 10
884.582501379
 20
186.1
 30
0.0
 40
2.0
 50
270.0
 51
0.0
  0
ARC
  8
0
  6
CONTINUOUS
 62
     1
 10
920.182501379
 20
189.6
 30
0.0
 40
10.0
 50
270.0
 51
0.0
  0
LINE
  8
0
  6
CONTINUOUS
 62
     1
 10
800.182501379
 20
191.4
 30
0.0
 11
800.182501379
 21
189.6
 31
0.0
  0
ARC
  8
0
  6
CONTINUOUS
 62
     1
 10
810.182501379
 20
189.6
 30
0.0
 40
10.0
 50
180.0
 51
270.0
  0
LINE
  8
0
  6
CONTINUOUS
 62
     1
 10
802.190817392
 20
204.415789474
 30
0.0
 11
804.188045388
 21
242.310526316
 31
0.0
  0
LINE
  8
0
  6
CONTINUOUS
 62
     1
 10
814.174185367
 20
204.415789474
 30
0.0
 11
812.176957371
 21
242.310526316
 31
0.0
  0
ARC
  8
0
  6
CONTINUOUS
 62
     1
 10
808.182501379
 20
242.1
 30
0.0
 40
4.0
 50
356.983042101
 51
183.016952287
  0
ARC
  8
0
  6
CONTINUOUS
 62
     1
 10
808.182501379
 20
242.1
 30
0.0
 40
8.75
 50
300.219855722
 51
239.780144278
  0
ARC
  8
0
  6
CONTINUOUS
 62
     1
 10
808.182501379
 20
204.1
 30
0.0
 40
6.0
 50
176.983045121
 51
3.016954879
  0
LINE
  8
0
  6
CONTINUOUS
 62
     1
 10
813.521480162
 20
216.8
 30
0.0
 11
817.882501379
 21
216.8
 31
0.0
  0
LINE
  8
0
  6
CONTINUOUS
 62
     1
 10
794.482501379
 20
216.8
 30
0.0
 11
802.843522596
 21
216.8
 31
0.0
  0
LINE
  8
0
  6
LTYPE3
 62
     2
 10
808.182501379
 20
195.0
 30
0.0
 11
808.182501379
 21
252.5
 31
0.0
  0
LINE
  8
0
  6
LTYPE3
 62
     2
 10
798.921480162
 20
204.1
 30
0.0
 11
890.182501379
 21
204.1
 31
0.0
  0
LINE
  8
0
  6
CONTINUOUS
 62
     1
 10
881.182501379
 20
246.1
 30
0.0
 11
881.182501379
 21
278.1
 31
0.0
  0
LINE
  8
0
  6
CONTINUOUS
 62
     1
 10
800.182501379
 20
238.55563828
 30
0.0
 11
800.182501379
 21
216.75
 31
0.0
  0
LINE
  8
0
  6
CONTINUOUS
 62
     1
 10
800.182501379
 20
254.1
 30
0.0
 11
800.182501379
 21
245.64436172
 31
0.0
  0
LINE
  8
0
  6
CONTINUOUS
 62
     1
 10
930.182501379
 20
285.64436172
 30
0.0
 11
930.182501379
 21
307.45
 31
0.0
  0
LINE
  8
0
  6
CONTINUOUS
 62
     1
 10
930.182501379
 20
270.1
 30
0.0
 11
930.182501379
 21
278.55563828
 31
0.0
  0
ARC
  8
0
  6
CONTINUOUS
 62
     1
 10
1003.437032801
 20
266.1
 30
0.0
 40
6.845203412
 50
324.242860688
 51
35.757139312
  0
ARC
  8
0
  6
CONTINUOUS
 62
     1
 10
1014.546814032
 20
266.1
 30
0.0
 40
6.845203412
 50
144.242860688
 51
215.757139312
  0
ARC
  8
0
  6
CONTINUOUS
 62
     1
 10
1014.546814032
 20
258.1
 30
0.0
 40
6.845203412
 50
144.242860688
 51
215.757139312
  0
LINE
  8
0
  6
LTYPE2
 62
     2
 10
961.682501379
 20
252.1
 30
0.0
 11
961.682501379
 21
272.1
 31
0.0
  0
CIRCLE
  8
0
  6
CONTINUOUS
 62
     2
 10
961.682501379
 20
262.1
 30
0.0
 40
5.0
  0
CIRCLE
  8
0
  6
CONTINUOUS
 62
     2
 10
961.682501379
 20
262.1
 30
0.0
 40
4.0
  0
LINE
  8
7
  6
CONTINUOUS
 62
     2
 10
886.582501379
 20
204.1
 30
0.0
 11
894.949808964
 21
209.576144975
 31
0.0
  0
LINE
  8
7
  6
CONTINUOUS
 62
     2
 10
886.582501379
 20
204.1
 30
0.0
 11
891.090729822
 21
213.026134455
 31
0.0
  0
LINE
  8
7
  6
CONTINUOUS
 62
     2
 10
886.582501379
 20
204.1
 30
0.0
 11
899.232501379
 21
218.25
 31
0.0
  0
LINE
  8
7
  6
CONTINUOUS
 62
     2
 10
899.232501379
 20
218.25
 30
0.0
 11
958.032501379
 21
218.25
 31
0.0
  0
TEXT
  8
7
  6
CONTINUOUS
 62
     2
 10
899.232501379
 20
222.25
 30
1.2
 40
12.0
  1
ＰＦ１／２
 50
0.0
 41
0.9
 51
0.0
  7
KANJI37
  0
LINE
  8
7
  6
CONTINUOUS
 62
     2
 10
843.782501379
 20
320.1
 30
0.0
 11
835.47402349
 21
314.535002681
 31
0.0
  0
LINE
  8
7
  6
CONTINUOUS
 62
     2
 10
843.782501379
 20
320.1
 30
0.0
 11
839.36964712
 21
311.126332005
 31
0.0
  0
LINE
  8
7
  6
CONTINUOUS
 62
     2
 10
843.782501379
 20
320.1
 30
0.0
 11
832.582501379
 21
307.3
 31
0.0
  0
LINE
  8
0
  6
CONTINUOUS
 62
     1
 10
800.182501379
 20
324.3
 30
0.0
 11
800.182501379
 21
334.6
 31
0.0
  0
LINE
  8
0
  6
CONTINUOUS
 62
     1
 10
800.182501379
 20
270.1
 30
0.0
 11
800.182501379
 21
304.3
 31
0.0
  0
LINE
  8
0
  6
CONTINUOUS
 62
     1
 10
930.182501379
 20
215.3
 30
0.0
 11
930.182501379
 21
189.6
 31
0.0
  0
LINE
  8
0
  6
LTYPE2
 62
     2
 10
865.182501379
 20
228.0
 30
0.0
 11
865.182501379
 21
539.0
 31
0.0
  0
LINE
  8
0
  6
LTYPE3
 62
     2
 10
855.222501379
 20
335.2
 30
0.0
 11
843.782501379
 21
335.2
 31
0.0
  0
LINE
  8
0
  6
LTYPE3
 62
     2
 10
848.782501379
 20
339.1
 30
0.0
 11
848.782501379
 21
330.12
 31
0.0
  0
LINE
  8
0
  6
CONTINUOUS
 62
     1
 10
910.482501379
 20
340.1
 30
0.0
 11
845.782501379
 21
340.1
 31
0.0
  0
LINE
  8
0
  6
CONTINUOUS
 62
     1
 10
843.782501379
 20
338.1
 30
0.0
 11
843.782501379
 21
302.1
 31
0.0
  0
ARC
  8
0
  6
CONTINUOUS
 62
     1
 10
845.782501379
 20
338.1
 30
0.0
 40
2.0
 50
90.0
 51
180.0
  0
LINE
  8
0
  6
LTYPE3
 62
     2
 10
854.682501379
 20
305.0
 30
0.0
 11
843.782501379
 21
305.0
 31
0.0
  0
LINE
  8
0
  6
LTYPE3
 62
     2
 10
848.782501379
 20
311.02
 30
0.0
 11
848.782501379
 21
301.1
 31
0.0
  0
LINE
  8
0
  6
CONTINUOUS
 62
     1
 10
910.482501379
 20
300.1
 30
0.0
 11
845.782501379
 21
300.1
 31
0.0
  0
ARC
  8
0
  6
CONTINUOUS
 62
     1
 10
845.782501379
 20
302.1
 30
0.0
 40
2.0
 50
180.0
 51
270.0
  0
LINE
  8
0
  6
LTYPE3
 62
     2
 10
912.482501379
 20
335.2
 30
0.0
 11
902.522501379
 21
335.2
 31
0.0
  0
LINE
  8
0
  6
LTYPE3
 62
     2
 10
907.482501379
 20
339.1
 30
0.0
 11
907.482501379
 21
331.22
 31
0.0
  0
ARC
  8
0
  6
CONTINUOUS
 62
     1
 10
910.482501379
 20
338.1
 30
0.0
 40
2.0
 50
0.0
 51
90.0
  0
LINE
  8
0
  6
CONTINUOUS
 62
     1
 10
935.882501379
 20
332.8
 30
0.0
 11
912.482501379
 21
332.8
 31
0.0
  0
LINE
  8
0
  6
CONTINUOUS
 62
     1
 10
912.482501379
 20
338.1
 30
0.0
 11
912.482501379
 21
302.1
 31
0.0
  0
LINE
  8
0
  6
LTYPE3
 62
     2
 10
912.482501379
 20
305.0
 30
0.0
 11
902.682501379
 21
305.0
 31
0.0
  0
LINE
  8
0
  6
LTYPE3
 62
     2
 10
907.482501379
 20
311.12
 30
0.0
 11
907.482501379
 21
301.1
 31
0.0
  0
ARC
  8
0
  6
CONTINUOUS
 62
     1
 10
910.482501379
 20
302.1
 30
0.0
 40
2.0
 50
270.0
 51
0.0
  0
LINE
  8
0
  6
CONTINUOUS
 62
     1
 10
916.843522596
 20
307.4
 30
0.0
 11
912.482501379
 21
307.4
 31
0.0
  0
ARC
  8
0
  6
CONTINUOUS
 62
     1
 10
935.882501379
 20
330.8
 30
0.0
 40
2.0
 50
0.0
 51
90.0
  0
LINE
  8
0
  6
CONTINUOUS
 62
     1
 10
937.882501379
 20
330.8
 30
0.0
 11
937.882501379
 21
309.4
 31
0.0
  0
ARC
  8
0
  6
CONTINUOUS
 62
     1
 10
922.182501379
 20
320.1
 30
0.0
 40
6.0
 50
356.983045121
 51
183.016954879
  0
LINE
  8
0
  6
LTYPE3
 62
     2
 10
922.182501379
 20
329.2
 30
0.0
 11
922.182501379
 21
271.7
 31
0.0
  0
LINE
  8
0
  6
CONTINUOUS
 62
     1
 10
928.174185367
 20
319.784210526
 30
0.0
 11
926.176957371
 21
281.889473684
 31
0.0
  0
LINE
  8
0
  6
CONTINUOUS
 62
     1
 10
916.190817392
 20
319.784210526
 30
0.0
 11
918.188045388
 21
281.889473684
 31
0.0
  0
ARC
  8
0
  6
CONTINUOUS
 62
     1
 10
935.882501379
 20
309.4
 30
0.0
 40
2.0
 50
270.0
 51
0.0
  0
LINE
  8
0
  6
CONTINUOUS
 62
     1
 10
935.882501379
 20
307.4
 30
0.0
 11
927.521480162
 21
307.4
 31
0.0
  0
LINE
  8
0
  6
LTYPE3
 62
     2
 10
911.182501379
 20
282.1
 30
0.0
 11
934.182501379
 21
282.1
 31
0.0
  0
ARC
  8
0
  6
CONTINUOUS
 62
     1
 10
922.182501379
 20
282.1
 30
0.0
 40
8.75
 50
120.219855722
 51
59.780144278
  0
ARC
  8
0
  6
CONTINUOUS
 62
     1
 10
922.182501379
 20
282.1
 30
0.0
 40
4.0
 50
176.983042101
 51
3.016952287
  0
LINE
  8
0
  6
CONTINUOUS
 62
     1
 10
1100.482501379
 20
304.6
 30
0.0
 11
1100.482501379
 21
239.9
 31
0.0
  0
LINE
  8
0
  6
CONTINUOUS
 62
     1
 10
1102.482501379
 20
237.9
 30
0.0
 11
1138.482501379
 21
237.9
 31
0.0
  0
ARC
  8
0
  6
CONTINUOUS
 62
     1
 10
1102.482501379
 20
239.9
 30
0.0
 40
2.0
 50
180.0
 51
270.0
  0
LINE
  8
0
  6
CONTINUOUS
 62
     1
 10
1140.482501379
 20
304.6
 30
0.0
 11
1140.482501379
 21
239.9
 31
0.0
  0
ARC
  8
0
  6
CONTINUOUS
 62
     1
 10
1138.482501379
 20
239.9
 30
0.0
 40
2.0
 50
270.0
 51
0.0
  0
ARC
  8
0
  6
CONTINUOUS
 62
     1
 10
1102.482501379
 20
304.6
 30
0.0
 40
2.0
 50
90.0
 51
180.0
  0
LINE
  8
0
  6
CONTINUOUS
 62
     1
 10
1107.782501379
 20
330.0
 30
0.0
 11
1107.782501379
 21
306.6
 31
0.0
  0
LINE
  8
0
  6
CONTINUOUS
 62
     1
 10
1102.482501379
 20
306.6
 30
0.0
 11
1138.482501379
 21
306.6
 31
0.0
  0
ARC
  8
0
  6
CONTINUOUS
 62
     1
 10
1138.482501379
 20
304.6
 30
0.0
 40
2.0
 50
0.0
 51
90.0
  0
ARC
  8
0
  6
CONTINUOUS
 62
     1
 10
1109.782501379
 20
330.0
 30
0.0
 40
2.0
 50
90.0
 51
180.0
  0
ARC
  8
0
  6
CONTINUOUS
 62
     1
 10
1120.482501379
 20
316.3
 30
0.0
 40
6.0
 50
131.983045121
 51
318.016954879
  0
LINE
  8
0
  6
LTYPE3
 62
     2
 10
1114.047829671
 20
309.865328291
 30
0.0
 11
1154.706469589
 21
350.523968209
 31
0.0
  0
LINE
  8
0
  6
CONTINUOUS
 62
     1
 10
1116.469037879
 20
320.760057257
 30
0.0
 11
1144.676916731
 21
346.14342919
 31
0.0
  0
LINE
  8
0
  6
CONTINUOUS
 62
     1
 10
1124.942558636
 20
312.2865365
 30
0.0
 11
1150.325930569
 21
340.494415352
 31
0.0
  0
LINE
  8
0
  6
LTYPE3
 62
     2
 10
1155.130733658
 20
335.391883092
 30
0.0
 11
1138.86727769
 21
351.655339059
 31
0.0
  0
ARC
  8
0
  6
CONTINUOUS
 62
     1
 10
1147.352559064
 20
343.170057685
 30
0.0
 40
8.75
 50
255.219855722
 51
194.780144278
  0
ARC
  8
0
  6
CONTINUOUS
 62
     1
 10
1147.352559064
 20
343.170057685
 30
0.0
 40
4.0
 50
311.983042101
 51
138.016952287
  0
LINE
  8
0
  6
CONTINUOUS
 62
     1
 10
1133.182501379
 20
321.44336985
 30
0.0
 11
1133.182501379
 21
306.6
 31
0.0
  0
LINE
  8
0
  6
CONTINUOUS
 62
     1
 10
1109.782501379
 20
332.0
 30
0.0
 11
1128.959692944
 21
332.0
 31
0.0
  0
LINE
  8
0
  6
LTYPE2
 62
     2
 10
1105.607501379
 20
283.1
 30
0.0
 11
1135.607501379
 21
283.1
 31
0.0
  0
LINE
  8
0
  6
LTYPE2
 62
     2
 10
1135.607501379
 20
283.1
 30
0.0
 11
1135.607501379
 21
292.6
 31
0.0
  0
LINE
  8
0
  6
LTYPE2
 62
     2
 10
1135.607501379
 20
292.6
 30
0.0
 11
1105.607501379
 21
292.6
 31
0.0
  0
LINE
  8
0
  6
LTYPE2
 62
     2
 10
1105.607501379
 20
292.6
 30
0.0
 11
1105.607501379
 21
283.1
 31
0.0
  0
LINE
  8
0
  6
CONTINUOUS
 62
     1
 10
1105.607501379
 20
253.1
 30
0.0
 11
1135.607501379
 21
253.1
 31
0.0
  0
LINE
  8
0
  6
CONTINUOUS
 62
     1
 10
1135.607501379
 20
253.1
 30
0.0
 11
1135.607501379
 21
262.6
 31
0.0
  0
LINE
  8
0
  6
CONTINUOUS
 62
     1
 10
1135.607501379
 20
262.6
 30
0.0
 11
1105.607501379
 21
262.6
 31
0.0
  0
LINE
  8
0
  6
CONTINUOUS
 62
     1
 10
1105.607501379
 20
262.6
 30
0.0
 11
1105.607501379
 21
253.1
 31
0.0
  0
TEXT
  8
0
  6
CONTINUOUS
 62
     2
 10
1104.382501379
 20
295.9
 30
0.0
 40
10.0
  1
４
 50
0.0
 41
0.85
 51
0.0
  7
KANJI42
  0
TEXT
  8
0
  6
CONTINUOUS
 62
     2
 10
1129.382501379
 20
295.9
 30
0.0
 40
10.0
  1
３
 50
0.0
 41
0.85
 51
0.0
  7
KANJI42
  0
POLYLINE
  8
0
  6
CONTINUOUS
 62
     2
 66
     1
 70
     1
  0
VERTEX
  8
0
  6
CONTINUOUS
 62
     2
 10
1115.382501379
 20
295.15
 30
0.0
 42
0.021820078
  0
VERTEX
  8
0
  6
CONTINUOUS
 62
     2
 10
1115.37393945
 20
295.346100421
 30
0.0
 42
0.021820078
  0
VERTEX
  8
0
  6
CONTINUOUS
 62
     2
 10
1115.348318824
 20
295.5407084
 30
0.0
 42
0.021820078
  0
VERTEX
  8
0
  6
CONTINUOUS
 62
     2
 10
1115.305834489
 20
295.732342851
 30
0.0
 42
0.021820078
  0
VERTEX
  8
0
  6
CONTINUOUS
 62
     2
 10
1115.246809776
 20
295.919545322
 30
0.0
 42
0.021820078
  0
VERTEX
  8
0
  6
CONTINUOUS
 62
     2
 10
1115.1716939
 20
296.100891089
 30
0.0
 42
0.021820078
  0
VERTEX
  8
0
  6
CONTINUOUS
 62
     2
 10
1115.081058538
 20
296.275
 30
0.0
 42
0.021820078
  0
VERTEX
  8
0
  6
CONTINUOUS
 62
     2
 10
1114.975593479
 20
296.440546982
 30
0.0
 42
0.021820078
  0
VERTEX
  8
0
  6
CONTINUOUS
 62
     2
 10
1114.856101376
 20
296.596272122
 30
0.0
 42
0.021820078
  0
VERTEX
  8
0
  6
CONTINUOUS
 62
     2
 10
1114.723491637
 20
296.740990258
 30
0.0
 42
0.021820078
  0
VERTEX
  8
0
  6
CONTINUOUS
 62
     2
 10
1114.578773501
 20
296.873599997
 30
0.0
 42
0.021820078
  0
VERTEX
  8
0
  6
CONTINUOUS
 62
     2
 10
1114.423048361
 20
296.9930921
 30
0.0
 42
0.021820078
  0
VERTEX
  8
0
  6
CONTINUOUS
 62
     2
 10
1114.257501379
 20
297.098557159
 30
0.0
 42
0.021820078
  0
VERTEX
  8
0
  6
CONTINUOUS
 62
     2
 10
1114.083392468
 20
297.189192521
 30
0.0
 42
0.021820078
  0
VERTEX
  8
0
  6
CONTINUOUS
 62
     2
 10
1113.902046702
 20
297.264308397
 30
0.0
 42
0.021820078
  0
VERTEX
  8
0
  6
CONTINUOUS
 62
     2
 10
1113.714844231
 20
297.323333109
 30
0.0
 42
0.021820078
  0
VERTEX
  8
0
  6
CONTINUOUS
 62
     2
 10
1113.523209779
 20
297.365817444
 30
0.0
 42
0.021820078
  0
VERTEX
  8
0
  6
CONTINUOUS
 62
     2
 10
1113.328601801
 20
297.391438071
 30
0.0
 42
0.021820078
  0
VERTEX
  8
0
  6
CONTINUOUS
 62
     2
 10
1113.132501379
 20
297.4
 30
0.0
 42
0.021820078
  0
VERTEX
  8
0
  6
CONTINUOUS
 62
     2
 10
1112.936400958
 20
297.391438071
 30
0.0
 42
0.021820078
  0
VERTEX
  8
0
  6
CONTINUOUS
 62
     2
 10
1112.74179298
 20
297.365817444
 30
0.0
 42
0.021820078
  0
VERTEX
  8
0
  6
CONTINUOUS
 62
     2
 10
1112.550158528
 20
297.323333109
 30
0.0
 42
0.021820078
  0
VERTEX
  8
0
  6
CONTINUOUS
 62
     2
 10
1112.362956057
 20
297.264308397
 30
0.0
 42
0.021820078
  0
VERTEX
  8
0
  6
CONTINUOUS
 62
     2
 10
1112.18161029
 20
297.189192521
 30
0.0
 42
0.021820078
  0
VERTEX
  8
0
  6
CONTINUOUS
 62
     2
 10
1112.007501379
 20
297.098557159
 30
0.0
 42
0.021820078
  0
VERTEX
  8
0
  6
CONTINUOUS
 62
     2
 10
1111.841954398
 20
296.9930921
 30
0.0
 42
0.021820078
  0
VERTEX
  8
0
  6
CONTINUOUS
 62
     2
 10
1111.686229258
 20
296.873599997
 30
0.0
 42
0.021820078
  0
VERTEX
  8
0
  6
CONTINUOUS
 62
     2
 10
1111.541511122
 20
296.740990258
 30
0.0
 42
0.021820078
  0
VERTEX
  8
0
  6
CONTINUOUS
 62
     2
 10
1111.408901382
 20
296.596272122
 30
0.0
 42
0.021820078
  0
VERTEX
  8
0
  6
CONTINUOUS
 62
     2
 10
1111.28940928
 20
296.440546982
 30
0.0
 42
0.021820078
  0
VERTEX
  8
0
  6
CONTINUOUS
 62
     2
 10
1111.183944221
 20
296.275
 30
0.0
 42
0.021820078
  0
VERTEX
  8
0
  6
CONTINUOUS
 62
     2
 10
1111.093308859
 20
296.100891089
 30
0.0
 42
0.021820078
  0
VERTEX
  8
0
  6
CONTINUOUS
 62
     2
 10
1111.018192983
 20
295.919545322
 30
0.0
 42
0.021820078
  0
VERTEX
  8
0
  6
CONTINUOUS
 62
     2
 10
1110.95916827
 20
295.732342851
 30
0.0
 42
0.021820078
  0
VERTEX
  8
0
  6
CONTINUOUS
 62
     2
 10
1110.916683935
 20
295.5407084
 30
0.0
 42
0.021820078
  0
VERTEX
  8
0
  6
CONTINUOUS
 62
     2
 10
1110.891063309
 20
295.346100421
 30
0.0
 42
0.021820078
  0
VERTEX
  8
0
  6
CONTINUOUS
 62
     2
 10
1110.882501379
 20
295.15
 30
0.0
 42
0.021820078
  0
VERTEX
  8
0
  6
CONTINUOUS
 62
     2
 10
1110.891063309
 20
294.953899579
 30
0.0
 42
0.021820078
  0
VERTEX
  8
0
  6
CONTINUOUS
 62
     2
 10
1110.916683935
 20
294.7592916
 30
0.0
 42
0.021820078
  0
VERTEX
  8
0
  6
CONTINUOUS
 62
     2
 10
1110.95916827
 20
294.567657149
 30
0.0
 42
0.021820078
  0
VERTEX
  8
0
  6
CONTINUOUS
 62
     2
 10
1111.018192983
 20
294.380454678
 30
0.0
 42
0.021820078
  0
VERTEX
  8
0
  6
CONTINUOUS
 62
     2
 10
1111.093308859
 20
294.199108911
 30
0.0
 42
0.021820078
  0
VERTEX
  8
0
  6
CONTINUOUS
 62
     2
 10
1111.183944221
 20
294.025
 30
0.0
 42
0.021820078
  0
VERTEX
  8
0
  6
CONTINUOUS
 62
     2
 10
1111.28940928
 20
293.859453018
 30
0.0
 42
0.021820078
  0
VERTEX
  8
0
  6
CONTINUOUS
 62
     2
 10
1111.408901382
 20
293.703727878
 30
0.0
 42
0.021820078
  0
VERTEX
  8
0
  6
CONTINUOUS
 62
     2
 10
1111.541511122
 20
293.559009742
 30
0.0
 42
0.021820078
  0
VERTEX
  8
0
  6
CONTINUOUS
 62
     2
 10
1111.686229258
 20
293.426400003
 30
0.0
 42
0.021820078
  0
VERTEX
  8
0
  6
CONTINUOUS
 62
     2
 10
1111.841954398
 20
293.3069079
 30
0.0
 42
0.021820078
  0
VERTEX
  8
0
  6
CONTINUOUS
 62
     2
 10
1112.007501379
 20
293.201442841
 30
0.0
 42
0.021820078
  0
VERTEX
  8
0
  6
CONTINUOUS
 62
     2
 10
1112.18161029
 20
293.110807479
 30
0.0
 42
0.021820078
  0
VERTEX
  8
0
  6
CONTINUOUS
 62
     2
 10
1112.362956057
 20
293.035691603
 30
0.0
 42
0.021820078
  0
VERTEX
  8
0
  6
CONTINUOUS
 62
     2
 10
1112.550158528
 20
292.976666891
 30
0.0
 42
0.021820078
  0
VERTEX
  8
0
  6
CONTINUOUS
 62
     2
 10
1112.74179298
 20
292.934182556
 30
0.0
 42
0.021820078
  0
VERTEX
  8
0
  6
CONTINUOUS
 62
     2
 10
1112.936400958
 20
292.908561929
 30
0.0
 42
0.021820078
  0
VERTEX
  8
0
  6
CONTINUOUS
 62
     2
 10
1113.132501379
 20
292.9
 30
0.0
 42
0.021820078
  0
VERTEX
  8
0
  6
CONTINUOUS
 62
     2
 10
1113.328601801
 20
292.908561929
 30
0.0
 42
0.021820078
  0
VERTEX
  8
0
  6
CONTINUOUS
 62
     2
 10
1113.523209779
 20
292.934182556
 30
0.0
 42
0.021820078
  0
VERTEX
  8
0
  6
CONTINUOUS
 62
     2
 10
1113.714844231
 20
292.976666891
 30
0.0
 42
0.021820078
  0
VERTEX
  8
0
  6
CONTINUOUS
 62
     2
 10
1113.902046702
 20
293.035691603
 30
0.0
 42
0.021820078
  0
VERTEX
  8
0
  6
CONTINUOUS
 62
     2
 10
1114.083392468
 20
293.110807479
 30
0.0
 42
0.021820078
  0
VERTEX
  8
0
  6
CONTINUOUS
 62
     2
 10
1114.257501379
 20
293.201442841
 30
0.0
 42
0.021820078
  0
VERTEX
  8
0
  6
CONTINUOUS
 62
     2
 10
1114.423048361
 20
293.3069079
 30
0.0
 42
0.021820078
  0
VERTEX
  8
0
  6
CONTINUOUS
 62
     2
 10
1114.578773501
 20
293.426400003
 30
0.0
 42
0.021820078
  0
VERTEX
  8
0
  6
CONTINUOUS
 62
     2
 10
1114.723491637
 20
293.559009742
 30
0.0
 42
0.021820078
  0
VERTEX
  8
0
  6
CONTINUOUS
 62
     2
 10
1114.856101376
 20
293.703727878
 30
0.0
 42
0.021820078
  0
VERTEX
  8
0
  6
CONTINUOUS
 62
     2
 10
1114.975593479
 20
293.859453018
 30
0.0
 42
0.021820078
  0
VERTEX
  8
0
  6
CONTINUOUS
 62
     2
 10
1115.081058538
 20
294.025
 30
0.0
 42
0.021820078
  0
VERTEX
  8
0
  6
CONTINUOUS
 62
     2
 10
1115.1716939
 20
294.199108911
 30
0.0
 42
0.021820078
  0
VERTEX
  8
0
  6
CONTINUOUS
 62
     2
 10
1115.246809776
 20
294.380454678
 30
0.0
 42
0.021820078
  0
VERTEX
  8
0
  6
CONTINUOUS
 62
     2
 10
1115.305834489
 20
294.567657149
 30
0.0
 42
0.021820078
  0
VERTEX
  8
0
  6
CONTINUOUS
 62
     2
 10
1115.348318824
 20
294.7592916
 30
0.0
 42
0.021820078
  0
VERTEX
  8
0
  6
CONTINUOUS
 62
     2
 10
1115.37393945
 20
294.953899579
 30
0.0
 42
0.021820078
  0
SEQEND
  8
0
  6
CONTINUOUS
 62
     2
  0
POLYLINE
  8
0
  6
CONTINUOUS
 62
     2
 66
     1
 70
     1
  0
VERTEX
  8
0
  6
CONTINUOUS
 62
     2
 10
1130.382501379
 20
295.15
 30
0.0
 42
0.021820078
  0
VERTEX
  8
0
  6
CONTINUOUS
 62
     2
 10
1130.37393945
 20
295.346100421
 30
0.0
 42
0.021820078
  0
VERTEX
  8
0
  6
CONTINUOUS
 62
     2
 10
1130.348318824
 20
295.5407084
 30
0.0
 42
0.021820078
  0
VERTEX
  8
0
  6
CONTINUOUS
 62
     2
 10
1130.305834489
 20
295.732342851
 30
0.0
 42
0.021820078
  0
VERTEX
  8
0
  6
CONTINUOUS
 62
     2
 10
1130.246809776
 20
295.919545322
 30
0.0
 42
0.021820078
  0
VERTEX
  8
0
  6
CONTINUOUS
 62
     2
 10
1130.1716939
 20
296.100891089
 30
0.0
 42
0.021820078
  0
VERTEX
  8
0
  6
CONTINUOUS
 62
     2
 10
1130.081058538
 20
296.275
 30
0.0
 42
0.021820078
  0
VERTEX
  8
0
  6
CONTINUOUS
 62
     2
 10
1129.975593479
 20
296.440546982
 30
0.0
 42
0.021820078
  0
VERTEX
  8
0
  6
CONTINUOUS
 62
     2
 10
1129.856101376
 20
296.596272122
 30
0.0
 42
0.021820078
  0
VERTEX
  8
0
  6
CONTINUOUS
 62
     2
 10
1129.723491637
 20
296.740990258
 30
0.0
 42
0.021820078
  0
VERTEX
  8
0
  6
CONTINUOUS
 62
     2
 10
1129.578773501
 20
296.873599997
 30
0.0
 42
0.021820078
  0
VERTEX
  8
0
  6
CONTINUOUS
 62
     2
 10
1129.423048361
 20
296.9930921
 30
0.0
 42
0.021820078
  0
VERTEX
  8
0
  6
CONTINUOUS
 62
     2
 10
1129.257501379
 20
297.098557159
 30
0.0
 42
0.021820078
  0
VERTEX
  8
0
  6
CONTINUOUS
 62
     2
 10
1129.083392468
 20
297.189192521
 30
0.0
 42
0.021820078
  0
VERTEX
  8
0
  6
CONTINUOUS
 62
     2
 10
1128.902046702
 20
297.264308397
 30
0.0
 42
0.021820078
  0
VERTEX
  8
0
  6
CONTINUOUS
 62
     2
 10
1128.714844231
 20
297.323333109
 30
0.0
 42
0.021820078
  0
VERTEX
  8
0
  6
CONTINUOUS
 62
     2
 10
1128.523209779
 20
297.365817444
 30
0.0
 42
0.021820078
  0
VERTEX
  8
0
  6
CONTINUOUS
 62
     2
 10
1128.328601801
 20
297.391438071
 30
0.0
 42
0.021820078
  0
VERTEX
  8
0
  6
CONTINUOUS
 62
     2
 10
1128.132501379
 20
297.4
 30
0.0
 42
0.021820078
  0
VERTEX
  8
0
  6
CONTINUOUS
 62
     2
 10
1127.936400958
 20
297.391438071
 30
0.0
 42
0.021820078
  0
VERTEX
  8
0
  6
CONTINUOUS
 62
     2
 10
1127.74179298
 20
297.365817444
 30
0.0
 42
0.021820078
  0
VERTEX
  8
0
  6
CONTINUOUS
 62
     2
 10
1127.550158528
 20
297.323333109
 30
0.0
 42
0.021820078
  0
VERTEX
  8
0
  6
CONTINUOUS
 62
     2
 10
1127.362956057
 20
297.264308397
 30
0.0
 42
0.021820078
  0
VERTEX
  8
0
  6
CONTINUOUS
 62
     2
 10
1127.18161029
 20
297.189192521
 30
0.0
 42
0.021820078
  0
VERTEX
  8
0
  6
CONTINUOUS
 62
     2
 10
1127.007501379
 20
297.098557159
 30
0.0
 42
0.021820078
  0
VERTEX
  8
0
  6
CONTINUOUS
 62
     2
 10
1126.841954398
 20
296.9930921
 30
0.0
 42
0.021820078
  0
VERTEX
  8
0
  6
CONTINUOUS
 62
     2
 10
1126.686229258
 20
296.873599997
 30
0.0
 42
0.021820078
  0
VERTEX
  8
0
  6
CONTINUOUS
 62
     2
 10
1126.541511122
 20
296.740990258
 30
0.0
 42
0.021820078
  0
VERTEX
  8
0
  6
CONTINUOUS
 62
     2
 10
1126.408901382
 20
296.596272122
 30
0.0
 42
0.021820078
  0
VERTEX
  8
0
  6
CONTINUOUS
 62
     2
 10
1126.28940928
 20
296.440546982
 30
0.0
 42
0.021820078
  0
VERTEX
  8
0
  6
CONTINUOUS
 62
     2
 10
1126.183944221
 20
296.275
 30
0.0
 42
0.021820078
  0
VERTEX
  8
0
  6
CONTINUOUS
 62
     2
 10
1126.093308859
 20
296.100891089
 30
0.0
 42
0.021820078
  0
VERTEX
  8
0
  6
CONTINUOUS
 62
     2
 10
1126.018192983
 20
295.919545322
 30
0.0
 42
0.021820078
  0
VERTEX
  8
0
  6
CONTINUOUS
 62
     2
 10
1125.95916827
 20
295.732342851
 30
0.0
 42
0.021820078
  0
VERTEX
  8
0
  6
CONTINUOUS
 62
     2
 10
1125.916683935
 20
295.5407084
 30
0.0
 42
0.021820078
  0
VERTEX
  8
0
  6
CONTINUOUS
 62
     2
 10
1125.891063309
 20
295.346100421
 30
0.0
 42
0.021820078
  0
VERTEX
  8
0
  6
CONTINUOUS
 62
     2
 10
1125.882501379
 20
295.15
 30
0.0
 42
0.021820078
  0
VERTEX
  8
0
  6
CONTINUOUS
 62
     2
 10
1125.891063309
 20
294.953899579
 30
0.0
 42
0.021820078
  0
VERTEX
  8
0
  6
CONTINUOUS
 62
     2
 10
1125.916683935
 20
294.7592916
 30
0.0
 42
0.021820078
  0
VERTEX
  8
0
  6
CONTINUOUS
 62
     2
 10
1125.95916827
 20
294.567657149
 30
0.0
 42
0.021820078
  0
VERTEX
  8
0
  6
CONTINUOUS
 62
     2
 10
1126.018192983
 20
294.380454678
 30
0.0
 42
0.021820078
  0
VERTEX
  8
0
  6
CONTINUOUS
 62
     2
 10
1126.093308859
 20
294.199108911
 30
0.0
 42
0.021820078
  0
VERTEX
  8
0
  6
CONTINUOUS
 62
     2
 10
1126.183944221
 20
294.025
 30
0.0
 42
0.021820078
  0
VERTEX
  8
0
  6
CONTINUOUS
 62
     2
 10
1126.28940928
 20
293.859453018
 30
0.0
 42
0.021820078
  0
VERTEX
  8
0
  6
CONTINUOUS
 62
     2
 10
1126.408901382
 20
293.703727878
 30
0.0
 42
0.021820078
  0
VERTEX
  8
0
  6
CONTINUOUS
 62
     2
 10
1126.541511122
 20
293.559009742
 30
0.0
 42
0.021820078
  0
VERTEX
  8
0
  6
CONTINUOUS
 62
     2
 10
1126.686229258
 20
293.426400003
 30
0.0
 42
0.021820078
  0
VERTEX
  8
0
  6
CONTINUOUS
 62
     2
 10
1126.841954398
 20
293.3069079
 30
0.0
 42
0.021820078
  0
VERTEX
  8
0
  6
CONTINUOUS
 62
     2
 10
1127.007501379
 20
293.201442841
 30
0.0
 42
0.021820078
  0
VERTEX
  8
0
  6
CONTINUOUS
 62
     2
 10
1127.18161029
 20
293.110807479
 30
0.0
 42
0.021820078
  0
VERTEX
  8
0
  6
CONTINUOUS
 62
     2
 10
1127.362956057
 20
293.035691603
 30
0.0
 42
0.021820078
  0
VERTEX
  8
0
  6
CONTINUOUS
 62
     2
 10
1127.550158528
 20
292.976666891
 30
0.0
 42
0.021820078
  0
VERTEX
  8
0
  6
CONTINUOUS
 62
     2
 10
1127.74179298
 20
292.934182556
 30
0.0
 42
0.021820078
  0
VERTEX
  8
0
  6
CONTINUOUS
 62
     2
 10
1127.936400958
 20
292.908561929
 30
0.0
 42
0.021820078
  0
VERTEX
  8
0
  6
CONTINUOUS
 62
     2
 10
1128.132501379
 20
292.9
 30
0.0
 42
0.021820078
  0
VERTEX
  8
0
  6
CONTINUOUS
 62
     2
 10
1128.328601801
 20
292.908561929
 30
0.0
 42
0.021820078
  0
VERTEX
  8
0
  6
CONTINUOUS
 62
     2
 10
1128.523209779
 20
292.934182556
 30
0.0
 42
0.021820078
  0
VERTEX
  8
0
  6
CONTINUOUS
 62
     2
 10
1128.714844231
 20
292.976666891
 30
0.0
 42
0.021820078
  0
VERTEX
  8
0
  6
CONTINUOUS
 62
     2
 10
1128.902046702
 20
293.035691603
 30
0.0
 42
0.021820078
  0
VERTEX
  8
0
  6
CONTINUOUS
 62
     2
 10
1129.083392468
 20
293.110807479
 30
0.0
 42
0.021820078
  0
VERTEX
  8
0
  6
CONTINUOUS
 62
     2
 10
1129.257501379
 20
293.201442841
 30
0.0
 42
0.021820078
  0
VERTEX
  8
0
  6
CONTINUOUS
 62
     2
 10
1129.423048361
 20
293.3069079
 30
0.0
 42
0.021820078
  0
VERTEX
  8
0
  6
CONTINUOUS
 62
     2
 10
1129.578773501
 20
293.426400003
 30
0.0
 42
0.021820078
  0
VERTEX
  8
0
  6
CONTINUOUS
 62
     2
 10
1129.723491637
 20
293.559009742
 30
0.0
 42
0.021820078
  0
VERTEX
  8
0
  6
CONTINUOUS
 62
     2
 10
1129.856101376
 20
293.703727878
 30
0.0
 42
0.021820078
  0
VERTEX
  8
0
  6
CONTINUOUS
 62
     2
 10
1129.975593479
 20
293.859453018
 30
0.0
 42
0.021820078
  0
VERTEX
  8
0
  6
CONTINUOUS
 62
     2
 10
1130.081058538
 20
294.025
 30
0.0
 42
0.021820078
  0
VERTEX
  8
0
  6
CONTINUOUS
 62
     2
 10
1130.1716939
 20
294.199108911
 30
0.0
 42
0.021820078
  0
VERTEX
  8
0
  6
CONTINUOUS
 62
     2
 10
1130.246809776
 20
294.380454678
 30
0.0
 42
0.021820078
  0
VERTEX
  8
0
  6
CONTINUOUS
 62
     2
 10
1130.305834489
 20
294.567657149
 30
0.0
 42
0.021820078
  0
VERTEX
  8
0
  6
CONTINUOUS
 62
     2
 10
1130.348318824
 20
294.7592916
 30
0.0
 42
0.021820078
  0
VERTEX
  8
0
  6
CONTINUOUS
 62
     2
 10
1130.37393945
 20
294.953899579
 30
0.0
 42
0.021820078
  0
SEQEND
  8
0
  6
CONTINUOUS
 62
     2
  0
POLYLINE
  8
0
  6
CONTINUOUS
 62
     2
 66
     1
 70
     1
  0
VERTEX
  8
0
  6
CONTINUOUS
 62
     2
 10
1115.382501379
 20
250.8
 30
0.0
 42
-0.021820078
  0
VERTEX
  8
0
  6
CONTINUOUS
 62
     2
 10
1115.37393945
 20
250.603899579
 30
0.0
 42
-0.021820078
  0
VERTEX
  8
0
  6
CONTINUOUS
 62
     2
 10
1115.348318824
 20
250.4092916
 30
0.0
 42
-0.021820078
  0
VERTEX
  8
0
  6
CONTINUOUS
 62
     2
 10
1115.305834489
 20
250.217657149
 30
0.0
 42
-0.021820078
  0
VERTEX
  8
0
  6
CONTINUOUS
 62
     2
 10
1115.246809776
 20
250.030454678
 30
0.0
 42
-0.021820078
  0
VERTEX
  8
0
  6
CONTINUOUS
 62
     2
 10
1115.1716939
 20
249.849108911
 30
0.0
 42
-0.021820078
  0
VERTEX
  8
0
  6
CONTINUOUS
 62
     2
 10
1115.081058538
 20
249.675
 30
0.0
 42
-0.021820078
  0
VERTEX
  8
0
  6
CONTINUOUS
 62
     2
 10
1114.975593479
 20
249.509453018
 30
0.0
 42
-0.021820078
  0
VERTEX
  8
0
  6
CONTINUOUS
 62
     2
 10
1114.856101376
 20
249.353727878
 30
0.0
 42
-0.021820078
  0
VERTEX
  8
0
  6
CONTINUOUS
 62
     2
 10
1114.723491637
 20
249.209009742
 30
0.0
 42
-0.021820078
  0
VERTEX
  8
0
  6
CONTINUOUS
 62
     2
 10
1114.578773501
 20
249.076400003
 30
0.0
 42
-0.021820078
  0
VERTEX
  8
0
  6
CONTINUOUS
 62
     2
 10
1114.423048361
 20
248.9569079
 30
0.0
 42
-0.021820078
  0
VERTEX
  8
0
  6
CONTINUOUS
 62
     2
 10
1114.257501379
 20
248.851442841
 30
0.0
 42
-0.021820078
  0
VERTEX
  8
0
  6
CONTINUOUS
 62
     2
 10
1114.083392468
 20
248.760807479
 30
0.0
 42
-0.021820078
  0
VERTEX
  8
0
  6
CONTINUOUS
 62
     2
 10
1113.902046702
 20
248.685691603
 30
0.0
 42
-0.021820078
  0
VERTEX
  8
0
  6
CONTINUOUS
 62
     2
 10
1113.714844231
 20
248.626666891
 30
0.0
 42
-0.021820078
  0
VERTEX
  8
0
  6
CONTINUOUS
 62
     2
 10
1113.523209779
 20
248.584182556
 30
0.0
 42
-0.021820078
  0
VERTEX
  8
0
  6
CONTINUOUS
 62
     2
 10
1113.328601801
 20
248.558561929
 30
0.0
 42
-0.021820078
  0
VERTEX
  8
0
  6
CONTINUOUS
 62
     2
 10
1113.132501379
 20
248.55
 30
0.0
 42
-0.021820078
  0
VERTEX
  8
0
  6
CONTINUOUS
 62
     2
 10
1112.936400958
 20
248.558561929
 30
0.0
 42
-0.021820078
  0
VERTEX
  8
0
  6
CONTINUOUS
 62
     2
 10
1112.74179298
 20
248.584182556
 30
0.0
 42
-0.021820078
  0
VERTEX
  8
0
  6
CONTINUOUS
 62
     2
 10
1112.550158528
 20
248.626666891
 30
0.0
 42
-0.021820078
  0
VERTEX
  8
0
  6
CONTINUOUS
 62
     2
 10
1112.362956057
 20
248.685691603
 30
0.0
 42
-0.021820078
  0
VERTEX
  8
0
  6
CONTINUOUS
 62
     2
 10
1112.18161029
 20
248.760807479
 30
0.0
 42
-0.021820078
  0
VERTEX
  8
0
  6
CONTINUOUS
 62
     2
 10
1112.007501379
 20
248.851442841
 30
0.0
 42
-0.021820078
  0
VERTEX
  8
0
  6
CONTINUOUS
 62
     2
 10
1111.841954398
 20
248.9569079
 30
0.0
 42
-0.021820078
  0
VERTEX
  8
0
  6
CONTINUOUS
 62
     2
 10
1111.686229258
 20
249.076400003
 30
0.0
 42
-0.021820078
  0
VERTEX
  8
0
  6
CONTINUOUS
 62
     2
 10
1111.541511122
 20
249.209009742
 30
0.0
 42
-0.021820078
  0
VERTEX
  8
0
  6
CONTINUOUS
 62
     2
 10
1111.408901382
 20
249.353727878
 30
0.0
 42
-0.021820078
  0
VERTEX
  8
0
  6
CONTINUOUS
 62
     2
 10
1111.28940928
 20
249.509453018
 30
0.0
 42
-0.021820078
  0
VERTEX
  8
0
  6
CONTINUOUS
 62
     2
 10
1111.183944221
 20
249.675
 30
0.0
 42
-0.021820078
  0
VERTEX
  8
0
  6
CONTINUOUS
 62
     2
 10
1111.093308859
 20
249.849108911
 30
0.0
 42
-0.021820078
  0
VERTEX
  8
0
  6
CONTINUOUS
 62
     2
 10
1111.018192983
 20
250.030454678
 30
0.0
 42
-0.021820078
  0
VERTEX
  8
0
  6
CONTINUOUS
 62
     2
 10
1110.95916827
 20
250.217657149
 30
0.0
 42
-0.021820078
  0
VERTEX
  8
0
  6
CONTINUOUS
 62
     2
 10
1110.916683935
 20
250.4092916
 30
0.0
 42
-0.021820078
  0
VERTEX
  8
0
  6
CONTINUOUS
 62
     2
 10
1110.891063309
 20
250.603899579
 30
0.0
 42
-0.021820078
  0
VERTEX
  8
0
  6
CONTINUOUS
 62
     2
 10
1110.882501379
 20
250.8
 30
0.0
 42
-0.021820078
  0
VERTEX
  8
0
  6
CONTINUOUS
 62
     2
 10
1110.891063309
 20
250.996100421
 30
0.0
 42
-0.021820078
  0
VERTEX
  8
0
  6
CONTINUOUS
 62
     2
 10
1110.916683935
 20
251.1907084
 30
0.0
 42
-0.021820078
  0
VERTEX
  8
0
  6
CONTINUOUS
 62
     2
 10
1110.95916827
 20
251.382342851
 30
0.0
 42
-0.021820078
  0
VERTEX
  8
0
  6
CONTINUOUS
 62
     2
 10
1111.018192983
 20
251.569545322
 30
0.0
 42
-0.021820078
  0
VERTEX
  8
0
  6
CONTINUOUS
 62
     2
 10
1111.093308859
 20
251.750891089
 30
0.0
 42
-0.021820078
  0
VERTEX
  8
0
  6
CONTINUOUS
 62
     2
 10
1111.183944221
 20
251.925
 30
0.0
 42
-0.021820078
  0
VERTEX
  8
0
  6
CONTINUOUS
 62
     2
 10
1111.28940928
 20
252.090546982
 30
0.0
 42
-0.021820078
  0
VERTEX
  8
0
  6
CONTINUOUS
 62
     2
 10
1111.408901382
 20
252.246272122
 30
0.0
 42
-0.021820078
  0
VERTEX
  8
0
  6
CONTINUOUS
 62
     2
 10
1111.541511122
 20
252.390990258
 30
0.0
 42
-0.021820078
  0
VERTEX
  8
0
  6
CONTINUOUS
 62
     2
 10
1111.686229258
 20
252.523599997
 30
0.0
 42
-0.021820078
  0
VERTEX
  8
0
  6
CONTINUOUS
 62
     2
 10
1111.841954398
 20
252.6430921
 30
0.0
 42
-0.021820078
  0
VERTEX
  8
0
  6
CONTINUOUS
 62
     2
 10
1112.007501379
 20
252.748557159
 30
0.0
 42
-0.021820078
  0
VERTEX
  8
0
  6
CONTINUOUS
 62
     2
 10
1112.18161029
 20
252.839192521
 30
0.0
 42
-0.021820078
  0
VERTEX
  8
0
  6
CONTINUOUS
 62
     2
 10
1112.362956057
 20
252.914308397
 30
0.0
 42
-0.021820078
  0
VERTEX
  8
0
  6
CONTINUOUS
 62
     2
 10
1112.550158528
 20
252.973333109
 30
0.0
 42
-0.021820078
  0
VERTEX
  8
0
  6
CONTINUOUS
 62
     2
 10
1112.74179298
 20
253.015817444
 30
0.0
 42
-0.021820078
  0
VERTEX
  8
0
  6
CONTINUOUS
 62
     2
 10
1112.936400958
 20
253.041438071
 30
0.0
 42
-0.021820078
  0
VERTEX
  8
0
  6
CONTINUOUS
 62
     2
 10
1113.132501379
 20
253.05
 30
0.0
 42
-0.021820078
  0
VERTEX
  8
0
  6
CONTINUOUS
 62
     2
 10
1113.328601801
 20
253.041438071
 30
0.0
 42
-0.021820078
  0
VERTEX
  8
0
  6
CONTINUOUS
 62
     2
 10
1113.523209779
 20
253.015817444
 30
0.0
 42
-0.021820078
  0
VERTEX
  8
0
  6
CONTINUOUS
 62
     2
 10
1113.714844231
 20
252.973333109
 30
0.0
 42
-0.021820078
  0
VERTEX
  8
0
  6
CONTINUOUS
 62
     2
 10
1113.902046702
 20
252.914308397
 30
0.0
 42
-0.021820078
  0
VERTEX
  8
0
  6
CONTINUOUS
 62
     2
 10
1114.083392468
 20
252.839192521
 30
0.0
 42
-0.021820078
  0
VERTEX
  8
0
  6
CONTINUOUS
 62
     2
 10
1114.257501379
 20
252.748557159
 30
0.0
 42
-0.021820078
  0
VERTEX
  8
0
  6
CONTINUOUS
 62
     2
 10
1114.423048361
 20
252.6430921
 30
0.0
 42
-0.021820078
  0
VERTEX
  8
0
  6
CONTINUOUS
 62
     2
 10
1114.578773501
 20
252.523599997
 30
0.0
 42
-0.021820078
  0
VERTEX
  8
0
  6
CONTINUOUS
 62
     2
 10
1114.723491637
 20
252.390990258
 30
0.0
 42
-0.021820078
  0
VERTEX
  8
0
  6
CONTINUOUS
 62
     2
 10
1114.856101376
 20
252.246272122
 30
0.0
 42
-0.021820078
  0
VERTEX
  8
0
  6
CONTINUOUS
 62
     2
 10
1114.975593479
 20
252.090546982
 30
0.0
 42
-0.021820078
  0
VERTEX
  8
0
  6
CONTINUOUS
 62
     2
 10
1115.081058538
 20
251.925
 30
0.0
 42
-0.021820078
  0
VERTEX
  8
0
  6
CONTINUOUS
 62
     2
 10
1115.1716939
 20
251.750891089
 30
0.0
 42
-0.021820078
  0
VERTEX
  8
0
  6
CONTINUOUS
 62
     2
 10
1115.246809776
 20
251.569545322
 30
0.0
 42
-0.021820078
  0
VERTEX
  8
0
  6
CONTINUOUS
 62
     2
 10
1115.305834489
 20
251.382342851
 30
0.0
 42
-0.021820078
  0
VERTEX
  8
0
  6
CONTINUOUS
 62
     2
 10
1115.348318824
 20
251.1907084
 30
0.0
 42
-0.021820078
  0
VERTEX
  8
0
  6
CONTINUOUS
 62
     2
 10
1115.37393945
 20
250.996100421
 30
0.0
 42
-0.021820078
  0
SEQEND
  8
0
  6
CONTINUOUS
 62
     2
  0
POLYLINE
  8
0
  6
CONTINUOUS
 62
     2
 66
     1
 70
     1
  0
VERTEX
  8
0
  6
CONTINUOUS
 62
     2
 10
1130.382501379
 20
250.8
 30
0.0
 42
-0.021820078
  0
VERTEX
  8
0
  6
CONTINUOUS
 62
     2
 10
1130.37393945
 20
250.603899579
 30
0.0
 42
-0.021820078
  0
VERTEX
  8
0
  6
CONTINUOUS
 62
     2
 10
1130.348318824
 20
250.4092916
 30
0.0
 42
-0.021820078
  0
VERTEX
  8
0
  6
CONTINUOUS
 62
     2
 10
1130.305834489
 20
250.217657149
 30
0.0
 42
-0.021820078
  0
VERTEX
  8
0
  6
CONTINUOUS
 62
     2
 10
1130.246809776
 20
250.030454678
 30
0.0
 42
-0.021820078
  0
VERTEX
  8
0
  6
CONTINUOUS
 62
     2
 10
1130.1716939
 20
249.849108911
 30
0.0
 42
-0.021820078
  0
VERTEX
  8
0
  6
CONTINUOUS
 62
     2
 10
1130.081058538
 20
249.675
 30
0.0
 42
-0.021820078
  0
VERTEX
  8
0
  6
CONTINUOUS
 62
     2
 10
1129.975593479
 20
249.509453018
 30
0.0
 42
-0.021820078
  0
VERTEX
  8
0
  6
CONTINUOUS
 62
     2
 10
1129.856101376
 20
249.353727878
 30
0.0
 42
-0.021820078
  0
VERTEX
  8
0
  6
CONTINUOUS
 62
     2
 10
1129.723491637
 20
249.209009742
 30
0.0
 42
-0.021820078
  0
VERTEX
  8
0
  6
CONTINUOUS
 62
     2
 10
1129.578773501
 20
249.076400003
 30
0.0
 42
-0.021820078
  0
VERTEX
  8
0
  6
CONTINUOUS
 62
     2
 10
1129.423048361
 20
248.9569079
 30
0.0
 42
-0.021820078
  0
VERTEX
  8
0
  6
CONTINUOUS
 62
     2
 10
1129.257501379
 20
248.851442841
 30
0.0
 42
-0.021820078
  0
VERTEX
  8
0
  6
CONTINUOUS
 62
     2
 10
1129.083392468
 20
248.760807479
 30
0.0
 42
-0.021820078
  0
VERTEX
  8
0
  6
CONTINUOUS
 62
     2
 10
1128.902046702
 20
248.685691603
 30
0.0
 42
-0.021820078
  0
VERTEX
  8
0
  6
CONTINUOUS
 62
     2
 10
1128.714844231
 20
248.626666891
 30
0.0
 42
-0.021820078
  0
VERTEX
  8
0
  6
CONTINUOUS
 62
     2
 10
1128.523209779
 20
248.584182556
 30
0.0
 42
-0.021820078
  0
VERTEX
  8
0
  6
CONTINUOUS
 62
     2
 10
1128.328601801
 20
248.558561929
 30
0.0
 42
-0.021820078
  0
VERTEX
  8
0
  6
CONTINUOUS
 62
     2
 10
1128.132501379
 20
248.55
 30
0.0
 42
-0.021820078
  0
VERTEX
  8
0
  6
CONTINUOUS
 62
     2
 10
1127.936400958
 20
248.558561929
 30
0.0
 42
-0.021820078
  0
VERTEX
  8
0
  6
CONTINUOUS
 62
     2
 10
1127.74179298
 20
248.584182556
 30
0.0
 42
-0.021820078
  0
VERTEX
  8
0
  6
CONTINUOUS
 62
     2
 10
1127.550158528
 20
248.626666891
 30
0.0
 42
-0.021820078
  0
VERTEX
  8
0
  6
CONTINUOUS
 62
     2
 10
1127.362956057
 20
248.685691603
 30
0.0
 42
-0.021820078
  0
VERTEX
  8
0
  6
CONTINUOUS
 62
     2
 10
1127.18161029
 20
248.760807479
 30
0.0
 42
-0.021820078
  0
VERTEX
  8
0
  6
CONTINUOUS
 62
     2
 10
1127.007501379
 20
248.851442841
 30
0.0
 42
-0.021820078
  0
VERTEX
  8
0
  6
CONTINUOUS
 62
     2
 10
1126.841954398
 20
248.9569079
 30
0.0
 42
-0.021820078
  0
VERTEX
  8
0
  6
CONTINUOUS
 62
     2
 10
1126.686229258
 20
249.076400003
 30
0.0
 42
-0.021820078
  0
VERTEX
  8
0
  6
CONTINUOUS
 62
     2
 10
1126.541511122
 20
249.209009742
 30
0.0
 42
-0.021820078
  0
VERTEX
  8
0
  6
CONTINUOUS
 62
     2
 10
1126.408901382
 20
249.353727878
 30
0.0
 42
-0.021820078
  0
VERTEX
  8
0
  6
CONTINUOUS
 62
     2
 10
1126.28940928
 20
249.509453018
 30
0.0
 42
-0.021820078
  0
VERTEX
  8
0
  6
CONTINUOUS
 62
     2
 10
1126.183944221
 20
249.675
 30
0.0
 42
-0.021820078
  0
VERTEX
  8
0
  6
CONTINUOUS
 62
     2
 10
1126.093308859
 20
249.849108911
 30
0.0
 42
-0.021820078
  0
VERTEX
  8
0
  6
CONTINUOUS
 62
     2
 10
1126.018192983
 20
250.030454678
 30
0.0
 42
-0.021820078
  0
VERTEX
  8
0
  6
CONTINUOUS
 62
     2
 10
1125.95916827
 20
250.217657149
 30
0.0
 42
-0.021820078
  0
VERTEX
  8
0
  6
CONTINUOUS
 62
     2
 10
1125.916683935
 20
250.4092916
 30
0.0
 42
-0.021820078
  0
VERTEX
  8
0
  6
CONTINUOUS
 62
     2
 10
1125.891063309
 20
250.603899579
 30
0.0
 42
-0.021820078
  0
VERTEX
  8
0
  6
CONTINUOUS
 62
     2
 10
1125.882501379
 20
250.8
 30
0.0
 42
-0.021820078
  0
VERTEX
  8
0
  6
CONTINUOUS
 62
     2
 10
1125.891063309
 20
250.996100421
 30
0.0
 42
-0.021820078
  0
VERTEX
  8
0
  6
CONTINUOUS
 62
     2
 10
1125.916683935
 20
251.1907084
 30
0.0
 42
-0.021820078
  0
VERTEX
  8
0
  6
CONTINUOUS
 62
     2
 10
1125.95916827
 20
251.382342851
 30
0.0
 42
-0.021820078
  0
VERTEX
  8
0
  6
CONTINUOUS
 62
     2
 10
1126.018192983
 20
251.569545322
 30
0.0
 42
-0.021820078
  0
VERTEX
  8
0
  6
CONTINUOUS
 62
     2
 10
1126.093308859
 20
251.750891089
 30
0.0
 42
-0.021820078
  0
VERTEX
  8
0
  6
CONTINUOUS
 62
     2
 10
1126.183944221
 20
251.925
 30
0.0
 42
-0.021820078
  0
VERTEX
  8
0
  6
CONTINUOUS
 62
     2
 10
1126.28940928
 20
252.090546982
 30
0.0
 42
-0.021820078
  0
VERTEX
  8
0
  6
CONTINUOUS
 62
     2
 10
1126.408901382
 20
252.246272122
 30
0.0
 42
-0.021820078
  0
VERTEX
  8
0
  6
CONTINUOUS
 62
     2
 10
1126.541511122
 20
252.390990258
 30
0.0
 42
-0.021820078
  0
VERTEX
  8
0
  6
CONTINUOUS
 62
     2
 10
1126.686229258
 20
252.523599997
 30
0.0
 42
-0.021820078
  0
VERTEX
  8
0
  6
CONTINUOUS
 62
     2
 10
1126.841954398
 20
252.6430921
 30
0.0
 42
-0.021820078
  0
VERTEX
  8
0
  6
CONTINUOUS
 62
     2
 10
1127.007501379
 20
252.748557159
 30
0.0
 42
-0.021820078
  0
VERTEX
  8
0
  6
CONTINUOUS
 62
     2
 10
1127.18161029
 20
252.839192521
 30
0.0
 42
-0.021820078
  0
VERTEX
  8
0
  6
CONTINUOUS
 62
     2
 10
1127.362956057
 20
252.914308397
 30
0.0
 42
-0.021820078
  0
VERTEX
  8
0
  6
CONTINUOUS
 62
     2
 10
1127.550158528
 20
252.973333109
 30
0.0
 42
-0.021820078
  0
VERTEX
  8
0
  6
CONTINUOUS
 62
     2
 10
1127.74179298
 20
253.015817444
 30
0.0
 42
-0.021820078
  0
VERTEX
  8
0
  6
CONTINUOUS
 62
     2
 10
1127.936400958
 20
253.041438071
 30
0.0
 42
-0.021820078
  0
VERTEX
  8
0
  6
CONTINUOUS
 62
     2
 10
1128.132501379
 20
253.05
 30
0.0
 42
-0.021820078
  0
VERTEX
  8
0
  6
CONTINUOUS
 62
     2
 10
1128.328601801
 20
253.041438071
 30
0.0
 42
-0.021820078
  0
VERTEX
  8
0
  6
CONTINUOUS
 62
     2
 10
1128.523209779
 20
253.015817444
 30
0.0
 42
-0.021820078
  0
VERTEX
  8
0
  6
CONTINUOUS
 62
     2
 10
1128.714844231
 20
252.973333109
 30
0.0
 42
-0.021820078
  0
VERTEX
  8
0
  6
CONTINUOUS
 62
     2
 10
1128.902046702
 20
252.914308397
 30
0.0
 42
-0.021820078
  0
VERTEX
  8
0
  6
CONTINUOUS
 62
     2
 10
1129.083392468
 20
252.839192521
 30
0.0
 42
-0.021820078
  0
VERTEX
  8
0
  6
CONTINUOUS
 62
     2
 10
1129.257501379
 20
252.748557159
 30
0.0
 42
-0.021820078
  0
VERTEX
  8
0
  6
CONTINUOUS
 62
     2
 10
1129.423048361
 20
252.6430921
 30
0.0
 42
-0.021820078
  0
VERTEX
  8
0
  6
CONTINUOUS
 62
     2
 10
1129.578773501
 20
252.523599997
 30
0.0
 42
-0.021820078
  0
VERTEX
  8
0
  6
CONTINUOUS
 62
     2
 10
1129.723491637
 20
252.390990258
 30
0.0
 42
-0.021820078
  0
VERTEX
  8
0
  6
CONTINUOUS
 62
     2
 10
1129.856101376
 20
252.246272122
 30
0.0
 42
-0.021820078
  0
VERTEX
  8
0
  6
CONTINUOUS
 62
     2
 10
1129.975593479
 20
252.090546982
 30
0.0
 42
-0.021820078
  0
VERTEX
  8
0
  6
CONTINUOUS
 62
     2
 10
1130.081058538
 20
251.925
 30
0.0
 42
-0.021820078
  0
VERTEX
  8
0
  6
CONTINUOUS
 62
     2
 10
1130.1716939
 20
251.750891089
 30
0.0
 42
-0.021820078
  0
VERTEX
  8
0
  6
CONTINUOUS
 62
     2
 10
1130.246809776
 20
251.569545322
 30
0.0
 42
-0.021820078
  0
VERTEX
  8
0
  6
CONTINUOUS
 62
     2
 10
1130.305834489
 20
251.382342851
 30
0.0
 42
-0.021820078
  0
VERTEX
  8
0
  6
CONTINUOUS
 62
     2
 10
1130.348318824
 20
251.1907084
 30
0.0
 42
-0.021820078
  0
VERTEX
  8
0
  6
CONTINUOUS
 62
     2
 10
1130.37393945
 20
250.996100421
 30
0.0
 42
-0.021820078
  0
SEQEND
  8
0
  6
CONTINUOUS
 62
     2
  0
TEXT
  8
0
  6
CONTINUOUS
 62
     2
 10
1104.382501379
 20
240.4
 30
0.0
 40
10.0
  1
１
 50
0.0
 41
0.85
 51
0.0
  7
KANJI42
  0
TEXT
  8
0
  6
CONTINUOUS
 62
     2
 10
1129.382501379
 20
240.4
 30
0.0
 40
10.0
  1
２
 50
0.0
 41
0.85
 51
0.0
  7
KANJI42
  0
TEXT
  8
0
  6
CONTINUOUS
 62
     2
 10
1072.482501379
 20
295.1
 30
0.0
 40
10.0
  1
（ＮＯ）
 50
0.0
 41
0.75
 51
0.0
  7
KANJI43
  0
TEXT
  8
0
  6
CONTINUOUS
 62
     2
 10
1138.482501379
 20
295.1
 30
0.0
 40
10.0
  1
（ＮＯ）
 50
0.0
 41
0.75
 51
0.0
  7
KANJI43
  0
TEXT
  8
0
  6
CONTINUOUS
 62
     2
 10
1072.482501379
 20
237.6
 30
0.0
 40
10.0
  1
（ＮＣ）
 50
0.0
 41
0.75
 51
0.0
  7
KANJI43
  0
TEXT
  8
0
  6
CONTINUOUS
 62
     2
 10
1138.482501379
 20
237.6
 30
0.0
 40
10.0
  1
（ＮＣ）
 50
0.0
 41
0.75
 51
0.0
  7
KANJI43
  0
TEXT
  8
0
  6
CONTINUOUS
 62
     2
 10
1056.357501379
 20
208.6
 30
0.0
 40
15.0
  1
外部ＬＳリミットＳＷ
 50
0.0
 41
0.9
 51
0.0
  7
KANJI39
  0
TEXT
  8
0
  6
CONTINUOUS
 62
     2
 10
1093.607501379
 20
189.6
 30
0.0
 40
15.0
  1
端子符号
 50
0.0
 41
0.9
 51
0.0
  7
KANJI39
  0
LINE
  8
0
  6
CONTINUOUS
 62
     2
 10
1198.107501379
 20
196.1
 30
0.0
 11
1198.107501379
 21
365.85
 31
0.0
  0
LINE
  8
0
  6
CONTINUOUS
 62
     2
 10
1198.107501379
 20
365.85
 30
0.0
 11
1044.857501379
 21
365.85
 31
0.0
  0
LINE
  8
0
  6
CONTINUOUS
 62
     2
 10
1044.857501379
 20
365.85
 30
0.0
 11
1044.857501379
 21
196.1
 31
0.0
  0
LINE
  8
0
  6
CONTINUOUS
 62
     2
 10
1153.107501379
 20
196.1
 30
0.0
 11
1198.107501379
 21
196.1
 31
0.0
  0
LINE
  8
0
  6
CONTINUOUS
 62
     2
 10
1044.857501379
 20
196.1
 30
0.0
 11
1083.857501379
 21
196.1
 31
0.0
  0
LINE
  8
0
  6
CONTINUOUS
 62
     1
 10
920.182501379
 20
179.6
 30
0.0
 11
810.182501379
 21
179.6
 31
0.0
  0
LINE
  8
0
  6
LTYPE2
 62
     2
 10
1001.5
 20
900.6
 30
0.0
 11
1146.0
 21
900.6
 31
0.0
  0
LINE
  8
0
  6
CONTINUOUS
 62
     1
 10
1056.0
 20
888.1
 30
0.0
 11
1116.0
 21
888.1
 31
0.0
  0
LINE
  8
0
  6
CONTINUOUS
 62
     1
 10
1116.0
 20
873.1
 30
0.0
 11
1116.0
 21
888.1
 31
0.0
  0
LINE
  8
0
  6
CONTINUOUS
 62
     1
 10
1069.0
 20
868.6
 30
0.0
 11
1113.0
 21
868.6
 31
0.0
  0
LINE
  8
0
  6
CONTINUOUS
 62
     1
 10
1078.5
 20
862.6
 30
0.0
 11
1103.5
 21
862.6
 31
0.0
  0
LINE
  8
0
  6
CONTINUOUS
 62
     1
 10
1103.5
 20
862.6
 30
0.0
 11
1103.5
 21
868.6
 31
0.0
  0
LINE
  8
0
  6
CONTINUOUS
 62
     1
 10
1078.5
 20
862.6
 30
0.0
 11
1078.5
 21
868.6
 31
0.0
  0
LINE
  8
0
  6
CONTINUOUS
 62
     1
 10
1113.0
 20
868.6
 30
0.0
 11
1113.0
 21
873.1
 31
0.0
  0
LINE
  8
0
  6
CONTINUOUS
 62
     1
 10
1069.0
 20
868.6
 30
0.0
 11
1069.0
 21
873.1
 31
0.0
  0
CIRCLE
  8
0
  6
CONTINUOUS
 62
     1
 10
1091.0
 20
866.6
 30
0.0
 40
2.0
  0
LINE
  8
0
  6
LTYPE5
 62
     2
 10
1087.0
 20
866.7
 30
0.0
 11
1095.2
 21
866.7
 31
0.0
  0
LINE
  8
0
  6
LTYPE1
 62
     2
 10
1103.5
 20
868.6
 30
0.0
 11
1103.5
 21
888.1
 31
0.0
  0
LINE
  8
0
  6
LTYPE1
 62
     2
 10
1078.5
 20
868.6
 30
0.0
 11
1078.5
 21
888.1
 31
0.0
  0
LINE
  8
0
  6
CONTINUOUS
 62
     1
 10
1056.0
 20
888.1
 30
0.0
 11
1056.0
 21
913.1
 31
0.0
  0
LINE
  8
0
  6
CONTINUOUS
 62
     1
 10
1078.5
 20
888.1
 30
0.0
 11
1078.5
 21
913.1
 31
0.0
  0
LINE
  8
0
  6
CONTINUOUS
 62
     1
 10
1103.5
 20
888.1
 30
0.0
 11
1103.5
 21
913.1
 31
0.0
  0
LINE
  8
0
  6
LTYPE5
 62
     2
 10
1091.0
 20
857.6
 30
0.0
 11
1091.0
 21
938.6
 31
0.0
  0
LINE
  8
0
  6
LTYPE5
 62
     2
 10
1091.0
 20
943.6
 30
0.0
 11
1091.0
 21
862.6
 31
0.0
  0
LINE
  8
0
  6
CONTINUOUS
 62
     1
 10
1078.5
 20
913.1
 30
0.0
 11
1078.5
 21
888.1
 31
0.0
  0
LINE
  8
0
  6
CONTINUOUS
 62
     1
 10
1103.5
 20
913.1
 30
0.0
 11
1103.5
 21
888.1
 31
0.0
  0
LINE
  8
0
  6
CONTINUOUS
 62
     2
 10
1123.5
 20
873.1
 30
0.0
 11
1201.0
 21
873.1
 31
0.0
  0
LINE
  8
0
  6
CONTINUOUS
 62
     2
 10
1123.5
 20
888.1
 30
0.0
 11
1172.5
 21
888.1
 31
0.0
  0
LINE
  8
0
  6
CONTINUOUS
 62
     1
 10
1041.0
 20
873.1
 30
0.0
 11
1116.0
 21
873.1
 31
0.0
  0
LINE
  8
0
  6
CONTINUOUS
 62
     1
 10
1056.0
 20
913.1
 30
0.0
 11
1116.0
 21
913.1
 31
0.0
  0
LINE
  8
0
  6
CONTINUOUS
 62
     1
 10
1116.0
 20
928.1
 30
0.0
 11
1116.0
 21
913.1
 31
0.0
  0
LINE
  8
0
  6
CONTINUOUS
 62
     1
 10
1069.0
 20
932.6
 30
0.0
 11
1113.0
 21
932.6
 31
0.0
  0
LINE
  8
0
  6
CONTINUOUS
 62
     1
 10
1078.5
 20
938.6
 30
0.0
 11
1103.5
 21
938.6
 31
0.0
  0
LINE
  8
0
  6
CONTINUOUS
 62
     1
 10
1103.5
 20
938.6
 30
0.0
 11
1103.5
 21
932.6
 31
0.0
  0
LINE
  8
0
  6
CONTINUOUS
 62
     1
 10
1078.5
 20
938.6
 30
0.0
 11
1078.5
 21
932.6
 31
0.0
  0
LINE
  8
0
  6
CONTINUOUS
 62
     1
 10
1113.0
 20
932.6
 30
0.0
 11
1113.0
 21
928.1
 31
0.0
  0
LINE
  8
0
  6
CONTINUOUS
 62
     1
 10
1069.0
 20
932.6
 30
0.0
 11
1069.0
 21
928.1
 31
0.0
  0
CIRCLE
  8
0
  6
CONTINUOUS
 62
     1
 10
1091.0
 20
934.6
 30
0.0
 40
2.0
  0
LINE
  8
0
  6
LTYPE5
 62
     2
 10
1087.0
 20
934.5
 30
0.0
 11
1095.2
 21
934.5
 31
0.0
  0
LINE
  8
0
  6
LTYPE1
 62
     2
 10
1103.5
 20
932.6
 30
0.0
 11
1103.5
 21
913.1
 31
0.0
  0
LINE
  8
0
  6
LTYPE1
 62
     2
 10
1078.5
 20
932.6
 30
0.0
 11
1078.5
 21
913.1
 31
0.0
  0
LINE
  8
0
  6
CONTINUOUS
 62
     2
 10
1123.5
 20
928.1
 30
0.0
 11
1201.0
 21
928.1
 31
0.0
  0
LINE
  8
0
  6
CONTINUOUS
 62
     2
 10
1123.5
 20
913.1
 30
0.0
 11
1172.5
 21
913.1
 31
0.0
  0
LINE
  8
0
  6
CONTINUOUS
 62
     1
 10
1041.0
 20
928.1
 30
0.0
 11
1116.0
 21
928.1
 31
0.0
  0
LINE
  8
0
  6
CONTINUOUS
 62
     2
 10
1193.5
 20
873.1
 30
0.0
 11
1196.735238064
 21
885.174072829
 31
0.0
  0
LINE
  8
0
  6
CONTINUOUS
 62
     2
 10
1193.5
 20
873.1
 30
0.0
 11
1190.264761936
 21
885.174072829
 31
0.0
  0
LINE
  8
0
  6
CONTINUOUS
 62
     2
 10
1193.5
 20
873.1
 30
0.0
 11
1193.5
 21
928.1
 31
0.0
  0
LINE
  8
0
  6
CONTINUOUS
 62
     2
 10
1165.0
 20
888.1
 30
0.0
 11
1161.764761936
 21
876.025927171
 31
0.0
  0
LINE
  8
0
  6
CONTINUOUS
 62
     2
 10
1165.0
 20
888.1
 30
0.0
 11
1168.235238064
 21
876.025927171
 31
0.0
  0
LINE
  8
0
  6
CONTINUOUS
 62
     2
 10
1165.0
 20
878.1
 30
0.0
 11
1165.0
 21
964.6
 31
0.0
  0
LINE
  8
0
  6
CONTINUOUS
 62
     2
 10
1193.5
 20
928.1
 30
0.0
 11
1190.264761936
 21
916.025927171
 31
0.0
  0
LINE
  8
0
  6
CONTINUOUS
 62
     2
 10
1193.5
 20
928.1
 30
0.0
 11
1196.735238064
 21
916.025927171
 31
0.0
  0
LINE
  8
0
  6
CONTINUOUS
 62
     2
 10
1165.0
 20
913.1
 30
0.0
 11
1168.235238064
 21
925.174072829
 31
0.0
  0
LINE
  8
0
  6
CONTINUOUS
 62
     2
 10
1165.0
 20
913.1
 30
0.0
 11
1161.764761936
 21
925.174072829
 31
0.0
  0
TEXT
  8
0
  6
CONTINUOUS
 62
     2
 10
1188.5
 20
886.35
 30
0.0
 40
18.0
  1
５５
 50
90.0
 41
0.9
 51
0.0
  7
KANJI34
  0
TEXT
  8
0
  6
CONTINUOUS
 62
     2
 10
1160.0
 20
931.85
 30
0.0
 40
18.0
  1
２５
 50
90.0
 41
0.9
 51
0.0
  7
KANJI34
  0
ARC
  8
0
  6
CONTINUOUS
 62
     1
 10
1003.337790779
 20
954.6
 30
0.0
 40
1.0
 50
15.0
 51
90.0
  0
ARC
  8
0
  6
CONTINUOUS
 62
     1
 10
1003.337789953
 20
954.6
 30
0.0
 40
1.0
 50
90.0
 51
165.0
  0
LINE
  8
0
  6
CONTINUOUS
 62
     1
 10
998.749823916
 20
941.341180955
 30
0.0
 11
1002.371864126
 21
954.858819045
 31
0.0
  0
ARC
  8
0
  6
CONTINUOUS
 62
     1
 10
997.78389809
 20
941.6
 30
0.0
 40
1.0
 50
270.0
 51
345.0
  0
ARC
  8
0
  6
CONTINUOUS
 62
     1
 10
997.783897416
 20
941.6
 30
0.0
 40
1.0
 50
195.0
 51
270.0
  0
LINE
  8
0
  6
CONTINUOUS
 62
     1
 10
996.81797159
 20
941.341180955
 30
0.0
 11
993.19593138
 21
954.858819045
 31
0.0
  0
ARC
  8
0
  6
CONTINUOUS
 62
     1
 10
992.230005553
 20
954.6
 30
0.0
 40
1.0
 50
15.0
 51
90.0
  0
ARC
  8
0
  6
CONTINUOUS
 62
     1
 10
992.230003902
 20
954.6
 30
0.0
 40
1.0
 50
90.0
 51
165.0
  0
ARC
  8
0
  6
CONTINUOUS
 62
     1
 10
986.676112865
 20
941.6
 30
0.0
 40
1.0
 50
270.0
 51
345.0
  0
LINE
  8
0
  6
CONTINUOUS
 62
     1
 10
987.642038691
 20
941.341180955
 30
0.0
 11
991.264078901
 21
954.858819045
 31
0.0
  0
LINE
  8
0
  6
CONTINUOUS
 62
     1
 10
1010.0
 20
933.6
 30
0.0
 11
1004.303716605
 21
954.858819045
 31
0.0
  0
LINE
  8
0
  6
CONTINUOUS
 62
     1
 10
1022.5
 20
935.6
 30
0.0
 11
1012.5
 21
935.6
 31
0.0
  0
LINE
  8
0
  6
CONTINUOUS
 62
     1
 10
1025.0
 20
933.6
 30
0.0
 11
1010.0
 21
933.6
 31
0.0
  0
LINE
  8
0
  6
CONTINUOUS
 62
     1
 10
1022.5
 20
933.6
 30
0.0
 11
1022.5
 21
935.6
 31
0.0
  0
LINE
  8
0
  6
CONTINUOUS
 62
     1
 10
1012.5
 20
933.6
 30
0.0
 11
1012.5
 21
935.6
 31
0.0
  0
LINE
  8
0
  6
CONTINUOUS
 62
     1
 10
1025.0
 20
900.6
 30
0.0
 11
1025.0
 21
933.6
 31
0.0
  0
LINE
  8
0
  6
CONTINUOUS
 62
     1
 10
1010.0
 20
900.6
 30
0.0
 11
1010.0
 21
933.6
 31
0.0
  0
LINE
  8
0
  6
CONTINUOUS
 62
     1
 10
986.676112865
 20
940.6
 30
0.0
 11
986.676112865
 21
900.6
 31
0.0
  0
LINE
  8
0
  6
CONTINUOUS
 62
     1
 10
992.230004728
 20
955.6
 30
0.0
 11
992.230004728
 21
900.6
 31
0.0
  0
LINE
  8
0
  6
CONTINUOUS
 62
     1
 10
1003.337790779
 20
955.6
 30
0.0
 11
1003.337790779
 21
900.6
 31
0.0
  0
LINE
  8
0
  6
CONTINUOUS
 62
     1
 10
997.78389809
 20
900.6
 30
0.0
 11
997.78389809
 21
940.6
 31
0.0
  0
LINE
  8
0
  6
CONTINUOUS
 62
     1
 10
1025.0
 20
867.6
 30
0.0
 11
1025.0
 21
928.1
 31
0.0
  0
LINE
  8
0
  6
CONTINUOUS
 62
     1
 10
1025.0
 20
925.35
 30
0.0
 11
1025.0
 21
877.85
 31
0.0
  0
LINE
  8
0
  6
CONTINUOUS
 62
     1
 10
1025.0
 20
935.6
 30
0.0
 11
1025.0
 21
865.6
 31
0.0
  0
LINE
  8
0
  6
LTYPE2
 62
     2
 10
1033.0
 20
933.6
 30
0.0
 11
1033.0
 21
919.6
 31
0.0
  0
LINE
  8
0
  6
LTYPE2
 62
     2
 10
1027.0
 20
926.6
 30
0.0
 11
1039.0
 21
926.6
 31
0.0
  0
LINE
  8
0
  6
LTYPE6
 62
     2
 10
986.676112865
 20
940.6
 30
0.0
 11
955.730004728
 21
940.6
 31
0.0
  0
LINE
  8
0
  6
LTYPE6
 62
     2
 10
992.230005553
 20
955.6
 30
0.0
 11
955.730004728
 21
955.6
 31
0.0
  0
LINE
  8
0
  6
CONTINUOUS
 62
     2
 10
948.230004728
 20
955.6
 30
0.0
 11
935.9
 21
955.6
 31
0.0
  0
LINE
  8
0
  6
CONTINUOUS
 62
     2
 10
943.4
 20
955.6
 30
0.0
 11
940.164761936
 21
943.525927171
 31
0.0
  0
LINE
  8
0
  6
CONTINUOUS
 62
     2
 10
943.4
 20
955.6
 30
0.0
 11
946.635238064
 21
943.525927171
 31
0.0
  0
LINE
  8
0
  6
CONTINUOUS
 62
     2
 10
943.4
 20
955.6
 30
0.0
 11
943.4
 21
845.6
 31
0.0
  0
TEXT
  8
0
  6
CONTINUOUS
 62
     2
 10
938.4
 20
872.1
 30
1.0
 40
15.0
  1
φ１１０
 50
90.0
 41
0.9
 51
0.0
  7
KANJI44
  0
LINE
  8
0
  6
CONTINUOUS
 62
     1
 10
998.749823916
 20
859.858819045
 30
0.0
 11
1002.371864126
 21
846.341180955
 31
0.0
  0
ARC
  8
0
  6
CONTINUOUS
 62
     1
 10
997.78389809
 20
859.6
 30
0.0
 40
1.0
 50
15.0
 51
90.0
  0
ARC
  8
0
  6
CONTINUOUS
 62
     1
 10
997.783897416
 20
859.6
 30
0.0
 40
1.0
 50
90.0
 51
165.0
  0
LINE
  8
0
  6
CONTINUOUS
 62
     1
 10
996.81797159
 20
859.858819045
 30
0.0
 11
993.19593138
 21
846.341180955
 31
0.0
  0
ARC
  8
0
  6
CONTINUOUS
 62
     1
 10
986.676112865
 20
859.6
 30
0.0
 40
1.0
 50
15.0
 51
90.0
  0
LINE
  8
0
  6
CONTINUOUS
 62
     1
 10
987.642038691
 20
859.858819045
 30
0.0
 11
991.264078901
 21
846.341180955
 31
0.0
  0
LINE
  8
0
  6
CONTINUOUS
 62
     1
 10
1010.0
 20
867.6
 30
0.0
 11
1004.303716605
 21
846.341180955
 31
0.0
  0
LINE
  8
0
  6
CONTINUOUS
 62
     1
 10
1022.5
 20
865.6
 30
0.0
 11
1012.5
 21
865.6
 31
0.0
  0
LINE
  8
0
  6
CONTINUOUS
 62
     1
 10
1025.0
 20
867.6
 30
0.0
 11
1010.0
 21
867.6
 31
0.0
  0
LINE
  8
0
  6
CONTINUOUS
 62
     1
 10
1022.5
 20
867.6
 30
0.0
 11
1022.5
 21
865.6
 31
0.0
  0
LINE
  8
0
  6
CONTINUOUS
 62
     1
 10
1012.5
 20
867.6
 30
0.0
 11
1012.5
 21
865.6
 31
0.0
  0
LINE
  8
0
  6
CONTINUOUS
 62
     1
 10
1010.0
 20
900.6
 30
0.0
 11
1010.0
 21
867.6
 31
0.0
  0
LINE
  8
0
  6
CONTINUOUS
 62
     1
 10
986.676112865
 20
860.6
 30
0.0
 11
986.676112865
 21
900.6
 31
0.0
  0
LINE
  8
0
  6
CONTINUOUS
 62
     1
 10
992.230004728
 20
845.6
 30
0.0
 11
992.230004728
 21
900.6
 31
0.0
  0
LINE
  8
0
  6
CONTINUOUS
 62
     1
 10
1003.337790779
 20
845.6
 30
0.0
 11
1003.337790779
 21
900.6
 31
0.0
  0
LINE
  8
0
  6
CONTINUOUS
 62
     1
 10
997.78389809
 20
900.6
 30
0.0
 11
997.78389809
 21
860.6
 31
0.0
  0
LINE
  8
0
  6
LTYPE2
 62
     2
 10
1033.0
 20
867.6
 30
0.0
 11
1033.0
 21
881.6
 31
0.0
  0
LINE
  8
0
  6
LTYPE2
 62
     2
 10
1027.0
 20
874.6
 30
0.0
 11
1039.0
 21
874.6
 31
0.0
  0
LINE
  8
0
  6
LTYPE6
 62
     2
 10
986.676112865
 20
860.6
 30
0.0
 11
955.730004728
 21
860.6
 31
0.0
  0
ARC
  8
0
  6
CONTINUOUS
 62
     1
 10
1003.337790779
 20
846.6
 30
0.0
 40
1.0
 50
270.0
 51
345.0
  0
ARC
  8
0
  6
CONTINUOUS
 62
     1
 10
1003.337789953
 20
846.6
 30
0.0
 40
1.0
 50
195.0
 51
270.0
  0
ARC
  8
0
  6
CONTINUOUS
 62
     1
 10
992.230005553
 20
846.6
 30
0.0
 40
1.0
 50
270.0
 51
345.0
  0
ARC
  8
0
  6
CONTINUOUS
 62
     1
 10
992.230003902
 20
846.6
 30
0.0
 40
1.0
 50
195.0
 51
270.0
  0
LINE
  8
0
  6
LTYPE6
 62
     2
 10
992.230005553
 20
845.6
 30
0.0
 11
955.730004728
 21
845.6
 31
0.0
  0
LINE
  8
0
  6
CONTINUOUS
 62
     2
 10
943.4
 20
845.6
 30
0.0
 11
946.635238064
 21
857.674072829
 31
0.0
  0
LINE
  8
0
  6
CONTINUOUS
 62
     2
 10
943.4
 20
845.6
 30
0.0
 11
940.164761936
 21
857.674072829
 31
0.0
  0
LINE
  8
0
  6
CONTINUOUS
 62
     2
 10
948.230004728
 20
845.6
 30
0.0
 11
935.9
 21
845.6
 31
0.0
  0
LINE
  8
0
  6
CONTINUOUS
 62
     1
 10
1041.0
 20
900.6
 30
0.0
 11
1041.0
 21
935.6
 31
0.0
  0
LINE
  8
0
  6
CONTINUOUS
 62
     1
 10
1025.0
 20
935.6
 30
0.0
 11
1041.0
 21
935.6
 31
0.0
  0
LINE
  8
0
  6
CONTINUOUS
 62
     1
 10
1025.0
 20
865.6
 30
0.0
 11
1041.0
 21
865.6
 31
0.0
  0
LINE
  8
0
  6
CONTINUOUS
 62
     1
 10
1041.0
 20
865.6
 30
0.0
 11
1041.0
 21
928.1
 31
0.0
  0
LINE
  8
0
  6
CONTINUOUS
 62
     2
 10
804.182516638
 20
179.6
 30
0.0
 11
745.0
 21
179.6
 31
0.0
  0
LINE
  8
0
  6
CONTINUOUS
 62
     2
 10
800.182501379
 20
185.4
 30
0.0
 11
800.182501379
 21
136.6
 31
0.0
  0
LINE
  8
0
  6
CONTINUOUS
 62
     2
 10
800.182501379
 20
142.6
 30
0.0
 11
811.773611295
 21
139.494171459
 31
0.0
  0
LINE
  8
0
  6
CONTINUOUS
 62
     2
 10
800.182501379
 20
142.6
 30
0.0
 11
811.773611295
 21
145.705828541
 31
0.0
  0
LINE
  8
0
  6
CONTINUOUS
 62
     2
 10
800.182501379
 20
142.6
 30
0.0
 11
930.182501379
 21
142.6
 31
0.0
  0
LINE
  8
0
  6
CONTINUOUS
 62
     2
 10
930.182501379
 20
142.6
 30
0.0
 11
918.591391464
 21
145.705828541
 31
0.0
  0
LINE
  8
0
  6
CONTINUOUS
 62
     2
 10
930.182501379
 20
142.6
 30
0.0
 11
918.591391464
 21
139.494171459
 31
0.0
  0
LINE
  8
0
  6
CONTINUOUS
 62
     2
 10
930.182501379
 20
183.6
 30
0.0
 11
930.182501379
 21
136.6
 31
0.0
  0
TEXT
  8
0
  6
CONTINUOUS
 62
     3
 10
840.882501379
 20
145.6
 30
0.0
 40
18.0
  1
１３０
 50
0.0
 41
0.9
 51
0.0
  7
KANJI34
  0
LINE
  8
0
  6
LTYPE2
 62
     2
 10
835.182501379
 20
622.25
 30
0.0
 11
835.182501379
 21
727.9
 31
0.0
  0
ARC
  8
0
  6
CONTINUOUS
 62
     1
 10
835.182501379
 20
724.5
 30
0.0
 40
4.0
 50
0.00015455
 51
179.99984545
  0
ARC
  8
0
  6
CONTINUOUS
 62
     1
 10
895.182501379
 20
724.5
 30
0.0
 40
4.0
 50
0.00015455
 51
179.99984545
  0
LINE
  8
0
  6
LTYPE2
 62
     2
 10
895.182501379
 20
622.25
 30
0.0
 11
895.182501379
 21
727.9
 31
0.0
  0
LINE
  8
0
  6
CONTINUOUS
 62
     1
 10
839.182501379
 20
668.0
 30
0.0
 11
839.182501379
 21
724.50001079
 31
0.0
  0
LINE
  8
0
  6
CONTINUOUS
 62
     1
 10
831.182501379
 20
668.0
 30
0.0
 11
831.182501379
 21
724.50001079
 31
0.0
  0
LINE
  8
0
  6
CONTINUOUS
 62
     1
 10
891.182501379
 20
668.0
 30
0.0
 11
891.182501379
 21
724.50001079
 31
0.0
  0
LINE
  8
0
  6
CONTINUOUS
 62
     1
 10
899.182501379
 20
668.0
 30
0.0
 11
899.182501379
 21
724.50001079
 31
0.0
  0
LINE
  8
0
  6
CONTINUOUS
 62
     1
 10
888.182501379
 20
583.5
 30
0.0
 11
888.182501379
 21
668.0
 31
0.0
  0
LINE
  8
0
  6
CONTINUOUS
 62
     1
 10
902.182501379
 20
668.0
 30
0.0
 11
888.182501379
 21
668.0
 31
0.0
  0
LINE
  8
0
  6
CONTINUOUS
 62
     1
 10
842.182501379
 20
668.0
 30
0.0
 11
828.182501379
 21
668.0
 31
0.0
  0
LINE
  8
0
  6
CONTINUOUS
 62
     1
 10
842.182501379
 20
583.0
 30
0.0
 11
842.182501379
 21
668.0
 31
0.0
  0
LINE
  8
0
  6
CONTINUOUS
 62
     1
 10
828.182501379
 20
583.5
 30
0.0
 11
828.182501379
 21
668.0
 31
0.0
  0
LINE
  8
0
  6
CONTINUOUS
 62
     1
 10
842.182501379
 20
648.0
 30
0.0
 11
828.182501379
 21
648.0
 31
0.0
  0
LINE
  8
0
  6
CONTINUOUS
 62
     1
 10
902.182501379
 20
648.0
 30
0.0
 11
888.182501379
 21
648.0
 31
0.0
  0
LINE
  8
0
  6
CONTINUOUS
 62
     1
 10
902.182501379
 20
583.0
 30
0.0
 11
902.182501379
 21
668.0
 31
0.0
  0
LINE
  8
0
  6
CONTINUOUS
 62
     1
 10
881.182501379
 20
529.0
 30
0.0
 11
957.182501379
 21
529.0
 31
0.0
  0
LINE
  8
0
  6
CONTINUOUS
 62
     1
 10
912.482501379
 20
541.0
 30
0.0
 11
957.182501379
 21
541.0
 31
0.0
  0
CIRCLE
  8
0
  6
CONTINUOUS
 62
     2
 10
978.182501379
 20
535.0
 30
0.0
 40
5.0
  0
CIRCLE
  8
0
  6
CONTINUOUS
 62
     2
 10
978.182501379
 20
535.0
 30
0.0
 40
4.0
  0
LINE
  8
0
  6
LTYPE3
 62
     2
 10
978.182501379
 20
525.0
 30
0.0
 11
978.182501379
 21
545.0
 31
0.0
  0
LINE
  8
0
  6
LTYPE1
 62
     2
 10
957.182501379
 20
541.0
 30
0.0
 11
999.182501379
 21
541.0
 31
0.0
  0
LINE
  8
0
  6
LTYPE1
 62
     2
 10
957.182501379
 20
529.0
 30
0.0
 11
999.182501379
 21
529.0
 31
0.0
  0
LINE
  8
0
  6
CONTINUOUS
 62
     1
 10
999.182501379
 20
541.0
 30
0.0
 11
1025.0
 21
541.0
 31
0.0
  0
LINE
  8
0
  6
CONTINUOUS
 62
     1
 10
999.182501379
 20
529.0
 30
0.0
 11
1025.0
 21
529.0
 31
0.0
  0
LINE
  8
0
  6
CONTINUOUS
 62
     1
 10
899.182501379
 20
720.0
 30
0.0
 11
918.183009455
 21
720.0
 31
0.0
  0
LINE
  8
0
  6
CONTINUOUS
 62
     1
 10
986.0
 20
650.0
 30
0.0
 11
902.182501379
 21
650.0
 31
0.0
  0
LINE
  8
0
  6
CONTINUOUS
 62
     1
 10
888.182501379
 20
650.0
 30
0.0
 11
842.182501379
 21
650.0
 31
0.0
  0
LINE
  8
0
  6
CONTINUOUS
 62
     1
 10
891.182501379
 20
720.0
 30
0.0
 11
839.182501379
 21
720.0
 31
0.0
  0
LINE
  8
0
  6
CONTINUOUS
 62
     2
 10
1109.5
 20
685.0
 30
0.0
 11
1144.1
 21
685.0
 31
0.0
  0
LINE
  8
0
  6
CONTINUOUS
 62
     2
 10
1138.1
 20
685.0
 30
0.0
 11
1134.994171459
 21
673.408890085
 31
0.0
  0
LINE
  8
0
  6
CONTINUOUS
 62
     2
 10
1138.1
 20
685.0
 30
0.0
 11
1141.205828541
 21
673.408890085
 31
0.0
  0
LINE
  8
0
  6
CONTINUOUS
 62
     2
 10
1138.1
 20
685.0
 30
0.0
 11
1138.1
 21
519.0
 31
0.0
  0
LINE
  8
0
  6
CONTINUOUS
 62
     2
 10
1138.1
 20
519.0
 30
0.0
 11
1141.205828541
 21
530.591109915
 31
0.0
  0
LINE
  8
0
  6
CONTINUOUS
 62
     2
 10
1138.1
 20
519.0
 30
0.0
 11
1134.994171459
 21
530.591109915
 31
0.0
  0
LINE
  8
0
  6
CONTINUOUS
 62
     2
 10
996.532501379
 20
519.0
 30
0.0
 11
1144.1
 21
519.0
 31
0.0
  0
TEXT
  8
0
  6
CONTINUOUS
 62
     3
 10
1135.1
 20
577.7
 30
0.0
 40
18.0
  1
１６６
 50
90.0
 41
0.9
 51
0.0
  7
KANJI34
  0
TEXT
  8
0
  6
CONTINUOUS
 62
     2
 10
979.625927171
 20
452.414761936
 30
1.5
 40
15.0
  1
ｍｉｎ．Ｐ
 50
0.0
 41
0.9
 51
0.0
  7
KANJI36
  0
LINE
  8
0
  6
CONTINUOUS
 62
     1
 10
1315.322294753
 20
711.262575811
 30
0.0
 11
1302.567368687
 21
663.660543685
 31
0.0
  0
LINE
  8
0
  6
CONTINUOUS
 62
     1
 10
1306.449654363
 20
678.149431079
 30
0.0
 11
1332.722836839
 21
671.109553052
 31
0.0
  0
LINE
  8
7
  6
CONTINUOUS
 62
     2
 10
1313.917646349
 20
728.429835768
 30
0.0
 11
1277.117646349
 21
810.429835768
 31
0.0
  0
LINE
  8
7
  6
CONTINUOUS
 62
     2
 10
1313.917646349
 20
728.429835768
 30
0.0
 11
1312.324070101
 21
738.302044981
 31
0.0
  0
LINE
  8
7
  6
CONTINUOUS
 62
     2
 10
1313.917646349
 20
728.429835768
 30
0.0
 11
1307.601464229
 21
736.182631614
 31
0.0
  0
TEXT
  8
7
  6
CONTINUOUS
 62
     2
 10
1288.623822488
 20
693.829880312
 30
0.0
 40
15.0
  1
約１５゜
 50
82.5
 41
0.9
 51
0.0
  7
KANJI39
  0
LINE
  8
0
  6
CONTINUOUS
 62
     2
 10
1301.704445042
 20
731.702353195
 30
0.0
 11
1295.69169234
 21
733.313465426
 31
0.0
  0
LINE
  8
0
  6
CONTINUOUS
 62
     2
 10
1301.487247298
 20
731.760551155
 30
0.0
 11
1295.487247298
 21
721.36824631
 31
0.0
  0
LINE
  8
0
  6
CONTINUOUS
 62
     2
 10
1301.487247298
 20
731.760551155
 30
0.0
 11
1301.487247298
 21
719.760551155
 31
0.0
  0
ARC
  8
0
  6
CONTINUOUS
 62
     2
 10
1476.0
 20
685.0
 30
0.0
 40
180.66889605
 50
165.0
 51
180.0
  0
LINE
  8
0
  6
CONTINUOUS
 62
     2
 10
1295.33110395
 20
685.0
 30
0.0
 11
1298.436932491
 21
696.591109915
 31
0.0
  0
LINE
  8
0
  6
CONTINUOUS
 62
     2
 10
1295.33110395
 20
685.0
 30
0.0
 11
1292.225275409
 21
696.591109915
 31
0.0
  0
LINE
  8
0
  6
LTYPE5
 62
     2
 10
1301.0
 20
731.891108675
 30
0.0
 11
1483.163497148
 21
683.080546724
 31
0.0
  0
LINE
  8
0
  6
LTYPE3
 62
     2
 10
1301.031178551
 20
671.836735944
 30
0.0
 11
1357.054876475
 21
656.825231328
 31
0.0
  0
LINE
  8
0
  6
CONTINUOUS
 62
     1
 10
1302.567368687
 20
663.660543685
 30
0.0
 11
1328.840551162
 21
656.620665658
 31
0.0
  0
LINE
  8
0
  6
LTYPE3
 62
     2
 10
1318.4623077
 20
682.79874929
 30
0.0
 11
1363.860821535
 21
670.63425417
 31
0.0
  0
LINE
  8
0
  6
CONTINUOUS
 62
     1
 10
1360.878961221
 20
676.506094517
 30
0.0
 11
1322.241928169
 21
686.858856321
 31
0.0
  0
LINE
  8
0
  6
CONTINUOUS
 62
     1
 10
1319.34415069
 20
687.635313457
 30
0.0
 11
1316.108912626
 21
675.561240628
 31
0.0
  0
LINE
  8
0
  6
CONTINUOUS
 62
     1
 10
1333.551057783
 20
674.200515696
 30
0.0
 11
1328.012330218
 21
653.529703014
 31
0.0
  0
ARC
  8
0
  6
CONTINUOUS
 62
     1
 10
1335.482909435
 20
673.682877606
 30
0.0
 40
2.0
 50
75.0
 51
165.0
  0
LINE
  8
0
  6
LTYPE3
 62
     2
 10
1339.399603458
 20
646.958553332
 30
0.0
 11
1346.750064339
 21
674.390846798
 31
0.0
  0
LINE
  8
0
  6
CONTINUOUS
 62
     1
 10
1327.0715573
 20
685.564761096
 30
0.0
 11
1323.810437332
 21
673.394095685
 31
0.0
  0
LINE
  8
0
  6
CONTINUOUS
 62
     1
 10
1322.241928169
 20
686.858856321
 30
0.0
 11
1319.006690105
 21
674.784783493
 31
0.0
  0
LINE
  8
0
  6
CONTINUOUS
 62
     1
 10
1336.000547526
 20
675.614729259
 30
0.0
 11
1356.671360208
 21
670.076001694
 31
0.0
  0
LINE
  8
0
  6
CONTINUOUS
 62
     1
 10
1316.108912626
 20
675.561240628
 30
0.0
 11
1312.22662695
 21
661.072353234
 31
0.0
  0
LINE
  8
0
  6
CONTINUOUS
 62
     1
 10
1319.709782622
 20
697.113647344
 30
0.0
 11
1319.34415069
 21
687.635313457
 31
0.0
  0
LINE
  8
0
  6
LTYPE5
 62
     2
 10
1324.433594693
 20
698.901970447
 30
0.0
 11
1337.374546948
 21
747.198261762
 31
0.0
  0
ARC
  8
0
  6
LTYPE1
 62
     1
 10
1331.111126057
 20
723.822856765
 30
0.0
 40
16.0
 50
255.0
 51
129.340912304
  0
ARC
  8
0
  6
CONTINUOUS
 62
     1
 10
1331.111126057
 20
723.822856765
 30
0.0
 40
16.0
 50
129.340912304
 51
200.659087696
  0
LINE
  8
0
  6
CONTINUOUS
 62
     1
 10
1322.596768035
 20
707.501653255
 30
0.0
 11
1319.806375205
 21
697.08776544
 31
0.0
  0
LINE
  8
0
  6
LTYPE3
 62
     2
 10
1313.184524248
 20
707.920751635
 30
0.0
 11
1331.730300112
 21
702.951425969
 31
0.0
  0
LINE
  8
0
  6
LTYPE1
 62
     2
 10
1324.818671407
 20
713.862057877
 30
0.0
 11
1331.580152191
 21
712.050324562
 31
0.0
  0
LINE
  8
0
  6
LTYPE1
 62
     2
 10
1331.580152191
 20
712.050324562
 30
0.0
 11
1329.630921258
 21
704.775695683
 31
0.0
  0
ARC
  8
0
  6
LTYPE1
 62
     1
 10
1331.111126057
 20
723.822856765
 30
0.0
 40
16.0
 50
200.659087696
 51
255.0
  0
LINE
  8
0
  6
LTYPE1
 62
     1
 10
1315.637730465
 20
712.439797912
 30
0.0
 11
1315.322294753
 21
711.262575811
 31
0.0
  0
LINE
  8
0
  6
LTYPE1
 62
     1
 10
1323.365137075
 20
710.369245551
 30
0.0
 11
1322.596768035
 21
707.501653255
 31
0.0
  0
LINE
  8
0
  6
LTYPE1
 62
     1
 10
1315.637730465
 20
712.439797912
 30
0.0
 11
1325.216494909
 21
709.873175715
 31
0.0
  0
CIRCLE
  8
0
  6
CONTINUOUS
 62
     1
 10
1331.111126057
 20
723.822856765
 30
0.0
 40
6.49995
  0
CIRCLE
  8
0
  6
LTYPE1
 62
     2
 10
1331.111126057
 20
723.822856765
 30
0.0
 40
3.2
  0
CIRCLE
  8
0
  6
CONTINUOUS
 62
     1
 10
1331.111126057
 20
723.822856765
 30
0.0
 40
4.0
  0
LINE
  8
0
  6
CONTINUOUS
 62
     1
 10
1333.048168253
 20
716.574584464
 30
0.0
 11
1325.809462156
 21
718.514189917
 31
0.0
  0
LINE
  8
0
  6
CONTINUOUS
 62
     1
 10
1325.809462156
 20
718.514189917
 30
0.0
 11
1323.872419959
 21
725.762462219
 31
0.0
  0
LINE
  8
0
  6
CONTINUOUS
 62
     1
 10
1333.048168253
 20
716.574584464
 30
0.0
 11
1338.349832154
 21
721.883251312
 31
0.0
  0
LINE
  8
0
  6
CONTINUOUS
 62
     1
 10
1329.630921258
 20
704.775695683
 30
0.0
 11
1327.050818902
 21
695.146622602
 31
0.0
  0
LINE
  8
0
  6
CONTINUOUS
 62
     1
 10
1320.289338118
 20
696.958355917
 30
0.0
 11
1327.050818902
 21
695.146622602
 31
0.0
  0
LINE
  8
0
  6
CONTINUOUS
 62
     1
 10
1329.17408386
 20
731.071129067
 30
0.0
 11
1323.872419959
 21
725.762462219
 31
0.0
  0
LINE
  8
0
  6
CONTINUOUS
 62
     1
 10
1336.412789958
 20
729.131523613
 30
0.0
 11
1338.349832154
 21
721.883251312
 31
0.0
  0
LINE
  8
0
  6
CONTINUOUS
 62
     1
 10
1336.412789958
 20
729.131523613
 30
0.0
 11
1329.17408386
 21
731.071129067
 31
0.0
  0
LINE
  8
0
  6
LTYPE1
 62
     2
 10
1330.642099922
 20
735.595388969
 30
0.0
 11
1337.403580706
 21
733.783655653
 31
0.0
  0
LINE
  8
0
  6
LTYPE1
 62
     2
 10
1339.352811639
 20
741.058284533
 30
0.0
 11
1337.403580706
 21
733.783655653
 31
0.0
  0
LINE
  8
0
  6
LTYPE3
 62
     2
 10
1321.219064069
 20
747.178950395
 30
0.0
 11
1342.083061916
 21
741.588459021
 31
0.0
  0
LINE
  8
0
  6
CONTINUOUS
 62
     1
 10
1331.898077468
 20
742.214612637
 30
0.0
 11
1334.688470298
 21
752.628500452
 31
0.0
  0
LINE
  8
0
  6
CONTINUOUS
 62
     1
 10
1323.717737529
 20
742.594794802
 30
0.0
 11
1336.472663595
 21
790.196826929
 31
0.0
  0
LINE
  8
0
  6
LTYPE1
 62
     1
 10
1331.129708428
 20
739.34702034
 30
0.0
 11
1331.898077468
 21
742.214612637
 31
0.0
  0
LINE
  8
0
  6
LTYPE1
 62
     1
 10
1323.402301818
 20
741.417572701
 30
0.0
 11
1332.981066262
 21
738.850950504
 31
0.0
  0
LINE
  8
0
  6
LTYPE1
 62
     2
 10
1332.176141971
 20
741.320511835
 30
0.0
 11
1331.612671341
 21
739.217610818
 31
0.0
  0
LINE
  8
0
  6
CONTINUOUS
 62
     1
 10
1335.171433211
 20
752.499090929
 30
0.0
 11
1341.932913995
 21
750.687357613
 31
0.0
  0
LINE
  8
0
  6
CONTINUOUS
 62
     1
 10
1334.591877716
 20
752.654382356
 30
0.0
 11
1339.014398118
 21
761.045676255
 31
0.0
  0
LINE
  8
0
  6
CONTINUOUS
 62
     1
 10
1341.932913995
 20
750.687357613
 30
0.0
 11
1338.638898324
 21
738.393923767
 31
0.0
  0
LINE
  8
0
  6
CONTINUOUS
 62
     1
 10
1357.094566532
 20
797.612156945
 30
0.0
 11
1346.741804728
 21
758.975123894
 31
0.0
  0
LINE
  8
0
  6
CONTINUOUS
 62
     1
 10
1355.782218313
 20
792.714406712
 30
0.0
 11
1346.741804728
 21
758.975123894
 31
0.0
  0
LINE
  8
0
  6
CONTINUOUS
 62
     1
 10
1341.912175597
 20
760.269219119
 30
0.0
 11
1380.549208648
 21
749.916457315
 31
0.0
  0
LINE
  8
0
  6
LTYPE1
 62
     1
 10
1335.959337559
 20
738.052925115
 30
0.0
 11
1336.274773271
 21
739.230147215
 31
0.0
  0
LINE
  8
0
  6
CONTINUOUS
 62
     1
 10
1315.318852251
 20
715.113431523
 30
0.0
 11
1321.789328379
 21
739.26157718
 31
0.0
  0
LINE
  8
0
  6
CONTINUOUS
 62
     1
 10
1323.987355887
 20
710.75954612
 30
0.0
 11
1320.289338118
 21
696.958355917
 31
0.0
  0
LINE
  8
0
  6
LTYPE1
 62
     2
 10
1324.818671407
 20
713.862057877
 30
0.0
 11
1323.987355887
 21
710.75954612
 31
0.0
  0
LINE
  8
0
  6
CONTINUOUS
 62
     1
 10
1335.171433211
 20
752.499090929
 30
0.0
 11
1331.473415442
 21
738.697900726
 31
0.0
  0
LINE
  8
0
  6
CONTINUOUS
 62
     1
 10
1321.789328379
 20
739.26157718
 30
0.0
 11
1462.463435192
 21
731.073435005
 31
0.0
  0
LINE
  8
0
  6
CONTINUOUS
 62
     1
 10
1315.318852251
 20
715.113431523
 30
0.0
 11
1441.240273494
 21
651.86751725
 31
0.0
  0
TEXT
  8
7
  6
CONTINUOUS
 62
     2
 10
1210.517091025
 20
814.429835768
 30
0.0
 40
15.0
  1
ＬＳユニット組付位置
 50
0.0
 41
0.9
 51
0.0
  7
KANJI39
  0
LINE
  8
0
  6
LTYPE3
 62
     2
 10
1329.12233613
 20
784.401769884
 30
0.0
 11
1385.146034055
 21
769.390265268
 31
0.0
  0
LINE
  8
0
  6
CONTINUOUS
 62
     1
 10
1332.590377919
 20
775.707939534
 30
0.0
 11
1345.147413661
 21
772.343291948
 31
0.0
  0
LINE
  8
0
  6
CONTINUOUS
 62
     1
 10
1339.014398118
 20
761.045676255
 30
0.0
 11
1342.249636182
 21
773.119749083
 31
0.0
  0
LINE
  8
0
  6
CONTINUOUS
 62
     1
 10
1352.264937401
 20
798.906252171
 30
0.0
 11
1341.912175597
 21
760.269219119
 31
0.0
  0
LINE
  8
0
  6
CONTINUOUS
 62
     1
 10
1336.472663595
 20
790.196826929
 30
0.0
 11
1349.029699337
 21
786.832179342
 31
0.0
  0
LINE
  8
0
  6
LTYPE3
 62
     2
 10
1385.101569779
 20
753.769509111
 30
0.0
 11
1339.703055943
 21
765.93400423
 31
0.0
  0
LINE
  8
0
  6
LTYPE1
 62
     2
 10
1396.0
 20
706.0
 30
0.0
 11
1429.266714218
 21
710.0
 31
0.0
  0
LINE
  8
0
  6
LTYPE3
 62
     2
 10
1348.485316932
 20
794.846145139
 30
0.0
 11
1393.883830767
 21
782.681650019
 31
0.0
  0
LINE
  8
0
  6
CONTINUOUS
 62
     1
 10
1390.901970452
 20
788.553490367
 30
0.0
 11
1352.264937401
 21
798.906252171
 31
0.0
  0
CIRCLE
  8
0
  6
CONTINUOUS
 62
     1
 10
1364.861591703
 20
774.825465215
 30
0.0
 40
9.36
  0
LINE
  8
0
  6
LTYPE3
 62
     2
 10
1368.226239289
 20
787.382500957
 30
0.0
 11
1361.496944116
 21
762.268429473
 31
0.0
  0
CIRCLE
  8
0
  6
CONTINUOUS
 62
     2
 10
1364.861591703
 20
774.825465215
 30
0.0
 40
10.47
  0
LINE
  8
0
  6
CONTINUOUS
 62
     1
 10
1367.363707665
 20
766.390453911
 30
0.0
 11
1379.920743407
 21
763.025806324
 31
0.0
  0
LINE
  8
0
  6
CONTINUOUS
 62
     1
 10
1387.038267147
 20
789.588766547
 30
0.0
 11
1376.685505343
 21
750.951733496
 31
0.0
  0
LINE
  8
0
  6
CONTINUOUS
 62
     1
 10
1371.245993342
 20
780.879341305
 30
0.0
 11
1383.803029084
 21
777.514693719
 31
0.0
  0
LINE
  8
0
  6
CONTINUOUS
 62
     1
 10
1373.787727864
 20
751.728190631
 30
0.0
 11
1377.022965928
 21
763.802263459
 31
0.0
  0
LINE
  8
0
  6
CONTINUOUS
 62
     1
 10
1392.066656155
 20
792.900156585
 30
0.0
 11
1397.862211113
 21
791.347242314
 31
0.0
  0
LINE
  8
0
  6
CONTINUOUS
 62
     1
 10
1376.835718001
 20
736.057521547
 30
0.0
 11
1392.066656155
 21
792.900156585
 31
0.0
  0
LINE
  8
0
  6
CONTINUOUS
 62
     1
 10
1397.862211113
 20
791.347242314
 30
0.0
 11
1382.951983515
 21
735.701515365
 31
0.0
  0
LINE
  8
0
  6
CONTINUOUS
 62
     1
 10
1386.051269384
 20
745.336356043
 30
0.0
 11
1413.09719252
 21
738.08942278
 31
0.0
  0
LINE
  8
0
  6
CONTINUOUS
 62
     1
 10
1383.461672308
 20
735.671848183
 30
0.0
 11
1386.051269384
 21
745.336356043
 31
0.0
  0
LINE
  8
0
  6
CONTINUOUS
 62
     1
 10
1349.361513714
 20
633.522395247
 30
0.0
 11
1355.157068671
 21
631.969480977
 31
0.0
  0
LINE
  8
0
  6
LTYPE3
 62
     2
 10
1355.078560547
 20
641.722113261
 30
0.0
 11
1309.680046711
 21
653.886608381
 31
0.0
  0
LINE
  8
0
  6
CONTINUOUS
 62
     1
 10
1360.878961221
 20
676.506094517
 30
0.0
 11
1350.526199416
 21
637.869061466
 31
0.0
  0
LINE
  8
0
  6
CONTINUOUS
 62
     1
 10
1350.526199416
 20
637.869061466
 30
0.0
 11
1350.622791999
 21
637.843179561
 31
0.0
  0
LINE
  8
0
  6
CONTINUOUS
 62
     1
 10
1311.889166365
 20
648.22182327
 30
0.0
 11
1350.526199416
 21
637.869061466
 31
0.0
  0
LINE
  8
0
  6
CONTINUOUS
 62
     1
 10
1329.42654378
 20
651.080213271
 30
0.0
 11
1350.097356463
 21
645.541485706
 31
0.0
  0
ARC
  8
0
  6
CONTINUOUS
 62
     1
 10
1350.614994553
 20
647.473337358
 30
0.0
 40
2.0
 50
255.0
 51
345.0
  0
LINE
  8
0
  6
CONTINUOUS
 62
     1
 10
1358.085573771
 20
667.626511951
 30
0.0
 11
1352.546846205
 21
646.955699268
 31
0.0
  0
ARC
  8
0
  6
CONTINUOUS
 62
     1
 10
1356.153722118
 20
668.144150041
 30
0.0
 40
2.0
 50
345.0
 51
75.0
  0
ARC
  8
0
  6
CONTINUOUS
 62
     1
 10
1329.94418187
 20
653.012064924
 30
0.0
 40
2.0
 50
165.0
 51
255.0
  0
LINE
  8
0
  6
CONTINUOUS
 62
     1
 10
1319.95403356
 20
659.001800873
 30
0.0
 11
1316.718795496
 21
646.927728044
 31
0.0
  0
LINE
  8
0
  6
CONTINUOUS
 62
     1
 10
1315.098522524
 20
660.199303516
 30
0.0
 11
1311.889166365
 21
648.22182327
 31
0.0
  0
LINE
  8
0
  6
CONTINUOUS
 62
     1
 10
1370.06729627
 20
687.615207926
 30
0.0
 11
1355.157068671
 21
631.969480977
 31
0.0
  0
LINE
  8
0
  6
CONTINUOUS
 62
     1
 10
1349.361513714
 20
633.522395247
 30
0.0
 11
1364.592451868
 21
690.365030286
 31
0.0
  0
LINE
  8
0
  6
CONTINUOUS
 62
     1
 10
1367.933936227
 20
677.721548203
 30
0.0
 11
1394.979859363
 21
670.47461494
 31
0.0
  0
LINE
  8
0
  6
CONTINUOUS
 62
     1
 10
1367.933936227
 20
677.721548203
 30
0.0
 11
1370.550259183
 21
687.485798403
 31
0.0
  0
LINE
  8
0
  6
CONTINUOUS
 62
     1
 10
1399.0
 20
613.5
 30
0.0
 11
1399.0
 21
663.639279073
 31
0.0
  0
LINE
  8
0
  6
LTYPE1
 62
     2
 10
1421.0
 20
675.0
 30
0.0
 11
1421.0
 21
695.0
 31
0.0
  0
LINE
  8
0
  6
LTYPE1
 62
     2
 10
1421.0
 20
675.0
 30
0.0
 11
1396.0
 21
675.0
 31
0.0
  0
ARC
  8
0
  6
CONTINUOUS
 62
     1
 10
1395.497497453
 20
672.406466593
 30
0.0
 40
2.0
 50
255.0
 51
345.0
  0
LINE
  8
0
  6
CONTINUOUS
 62
     1
 10
1397.429349106
 20
671.888828502
 30
0.0
 11
1397.897755312
 21
673.636944264
 31
0.0
  0
LINE
  8
0
  6
CONTINUOUS
 62
     1
 10
1396.0
 20
664.0
 30
0.0
 11
1423.0
 21
660.753511655
 31
0.0
  0
LINE
  8
0
  6
LTYPE1
 62
     2
 10
1421.0
 20
695.0
 30
0.0
 11
1396.0
 21
695.0
 31
0.0
  0
LINE
  8
0
  6
LTYPE3
 62
     2
 10
1441.4
 20
732.0
 30
0.0
 11
1417.6
 21
732.0
 31
0.0
  0
ARC
  8
0
  6
CONTINUOUS
 62
     1
 10
1429.0
 20
732.0
 30
0.0
 40
9.0
 50
4.497151615
 51
179.370401392
  0
ARC
  8
0
  6
CONTINUOUS
 62
     1
 10
1453.874128287
 20
739.586589937
 30
0.0
 40
2.0
 50
75.0
 51
165.0
  0
ARC
  8
0
  6
CONTINUOUS
 62
     1
 10
1476.0
 20
685.0
 30
0.0
 40
55.0
 50
209.179709638
 51
121.569008097
  0
LINE
  8
0
  6
CONTINUOUS
 62
     1
 10
1454.391766377
 20
741.518441589
 30
0.0
 11
1464.0
 21
738.943923149
 31
0.0
  0
LINE
  8
0
  6
CONTINUOUS
 62
     1
 10
1450.038704471
 20
733.0
 30
0.0
 11
1451.942276634
 21
740.104228027
 31
0.0
  0
LINE
  8
0
  6
LTYPE2
 62
     2
 10
1463.004464167
 20
636.5
 30
0.0
 11
1487.882308775
 21
729.34538006
 31
0.0
  0
LINE
  8
0
  6
CONTINUOUS
 62
     1
 10
1463.939530411
 20
645.78526969
 30
0.0
 11
1485.16269211
 21
724.991187446
 31
0.0
  0
LINE
  8
0
  6
CONTINUOUS
 62
     1
 10
1466.83730789
 20
645.008812554
 30
0.0
 11
1488.060469589
 21
724.21473031
 31
0.0
  0
LINE
  8
0
  6
CONTINUOUS
 62
     1
 10
1488.060469589
 20
724.21473031
 30
0.0
 11
1520.418984769
 21
715.544292299
 31
0.0
  0
LINE
  8
0
  6
CONTINUOUS
 62
     1
 10
1462.463435192
 20
731.073435005
 30
0.0
 11
1485.16269211
 21
724.991187446
 31
0.0
  0
LINE
  8
0
  6
CONTINUOUS
 62
     1
 10
1514.0
 20
691.588315007
 30
0.0
 11
1520.418984769
 21
715.544292299
 31
0.0
  0
LINE
  8
0
  6
CONTINUOUS
 62
     1
 10
1466.83730789
 20
645.008812554
 30
0.0
 11
1499.195823071
 21
636.338374544
 31
0.0
  0
LINE
  8
0
  6
CONTINUOUS
 62
     1
 10
1499.195823071
 20
636.338374544
 30
0.0
 11
1506.392304845
 21
663.196010162
 31
0.0
  0
LINE
  8
0
  6
CONTINUOUS
 62
     1
 10
1441.240273494
 20
651.86751725
 30
0.0
 11
1463.939530411
 21
645.78526969
 31
0.0
  0
LINE
  8
0
  6
LTYPE3
 62
     2
 10
1441.4
 20
638.0
 30
0.0
 11
1417.6
 21
638.0
 31
0.0
  0
LINE
  8
0
  6
LTYPE3
 62
     2
 10
1429.0
 20
628.15
 30
0.0
 11
1429.0
 21
651.25
 31
0.0
  0
ARC
  8
0
  6
CONTINUOUS
 62
     1
 10
1429.545138047
 20
648.789562266
 30
0.0
 40
2.0
 50
165.0
 51
255.0
  0
LINE
  8
0
  6
CONTINUOUS
 62
     1
 10
1429.027499957
 20
646.857710613
 30
0.0
 11
1440.0
 21
643.917638087
 31
0.0
  0
LINE
  8
0
  6
CONTINUOUS
 62
     1
 10
1535.0
 20
661.474953509
 30
0.0
 11
1535.0
 21
631.0
 31
0.0
  0
ARC
  8
0
  6
CONTINUOUS
 62
     1
 10
1523.0
 20
638.0
 30
0.0
 40
9.0
 50
257.883138071
 51
102.672315936
  0
LINE
  8
0
  6
LTYPE3
 62
     2
 10
1510.6
 20
638.0
 30
0.0
 11
1534.4
 21
638.0
 31
0.0
  0
LINE
  8
0
  6
LTYPE3
 62
     2
 10
1510.6
 20
638.0
 30
0.0
 11
1534.4
 21
638.0
 31
0.0
  0
LINE
  8
0
  6
LTYPE3
 62
     2
 10
1523.0
 20
628.15
 30
0.0
 11
1523.0
 21
651.25
 31
0.0
  0
LINE
  8
0
  6
CONTINUOUS
 62
     1
 10
1521.0
 20
625.5
 30
0.0
 11
1521.0
 21
654.280340307
 31
0.0
  0
LINE
  8
0
  6
LTYPE5
 62
     2
 10
1278.0
 20
685.0
 30
0.0
 11
1575.0
 21
685.0
 31
0.0
  0
CIRCLE
  8
0
  6
CONTINUOUS
 62
     1
 10
1523.0
 20
732.0
 30
0.0
 40
9.0
  0
LINE
  8
0
  6
CONTINUOUS
 62
     2
 10
1092.0
 20
1002.0
 30
0.0
 11
1079.925927171
 21
1005.235238064
 31
0.0
  0
LINE
  8
0
  6
CONTINUOUS
 62
     2
 10
1092.0
 20
1002.0
 30
0.0
 11
1079.925927171
 21
998.764761936
 31
0.0
  0
LINE
  8
0
  6
CONTINUOUS
 62
     2
 10
1092.0
 20
1002.0
 30
0.0
 11
1051.0
 21
1002.0
 31
0.0
  0
TEXT
  8
0
  6
CONTINUOUS
 62
     3
 10
1058.0
 20
1012.0
 30
0.0
 40
20.0
  1
前進
 50
0.0
 41
0.925
 51
0.0
  7
KANJI41
  0
LINE
  8
0
  6
CONTINUOUS
 62
     2
 10
1582.0
 20
685.0
 30
0.0
 11
1670.222218677
 21
685.0
 31
0.0
  0
LINE
  8
0
  6
CONTINUOUS
 62
     2
 10
1627.0
 20
675.0
 30
0.0
 11
1623.764761936
 21
662.925927171
 31
0.0
  0
LINE
  8
0
  6
CONTINUOUS
 62
     2
 10
1627.0
 20
675.0
 30
0.0
 11
1630.235238064
 21
662.925927171
 31
0.0
  0
LINE
  8
0
  6
CONTINUOUS
 62
     2
 10
1627.0
 20
656.25
 30
0.0
 11
1627.0
 21
675.0
 31
0.0
  0
LINE
  8
0
  6
CONTINUOUS
 62
     2
 10
1627.0
 20
675.0
 30
0.0
 11
1627.0
 21
695.0
 31
0.0
  0
LINE
  8
0
  6
CONTINUOUS
 62
     2
 10
1627.0
 20
695.0
 30
0.0
 11
1630.235238064
 21
707.074072829
 31
0.0
  0
LINE
  8
0
  6
CONTINUOUS
 62
     2
 10
1627.0
 20
695.0
 30
0.0
 11
1623.764761936
 21
707.074072829
 31
0.0
  0
LINE
  8
0
  6
CONTINUOUS
 62
     2
 10
1660.222218677
 20
685.0
 30
0.0
 11
1656.986980613
 21
672.925927171
 31
0.0
  0
LINE
  8
0
  6
CONTINUOUS
 62
     2
 10
1660.222218677
 20
685.0
 30
0.0
 11
1663.45745674
 21
672.925927171
 31
0.0
  0
LINE
  8
0
  6
CONTINUOUS
 62
     2
 10
1660.222218677
 20
685.0
 30
0.0
 11
1660.222218677
 21
574.0
 31
0.0
  0
LINE
  8
0
  6
CONTINUOUS
 62
     2
 10
1660.222218677
 20
574.0
 30
0.0
 11
1663.45745674
 21
586.074072829
 31
0.0
  0
LINE
  8
0
  6
CONTINUOUS
 62
     2
 10
1660.222218677
 20
574.0
 30
0.0
 11
1656.986980613
 21
586.074072829
 31
0.0
  0
LINE
  8
0
  6
CONTINUOUS
 62
     2
 10
1652.222218677
 20
685.0
 30
0.0
 11
1670.222218677
 21
685.0
 31
0.0
  0
LINE
  8
0
  6
CONTINUOUS
 62
     2
 10
1660.222218677
 20
685.0
 30
0.0
 11
1663.45745674
 21
697.074072829
 31
0.0
  0
LINE
  8
0
  6
CONTINUOUS
 62
     2
 10
1660.222218677
 20
685.0
 30
0.0
 11
1656.986980613
 21
697.074072829
 31
0.0
  0
LINE
  8
0
  6
CONTINUOUS
 62
     2
 10
1695.0
 20
574.0
 30
0.0
 11
1698.235238064
 21
586.074072829
 31
0.0
  0
LINE
  8
0
  6
CONTINUOUS
 62
     2
 10
1695.0
 20
574.0
 30
0.0
 11
1691.764761936
 21
586.074072829
 31
0.0
  0
LINE
  8
0
  6
CONTINUOUS
 62
     2
 10
1642.0
 20
574.0
 30
0.0
 11
1705.0
 21
574.0
 31
0.0
  0
TEXT
  8
0
  6
CONTINUOUS
 62
     3
 10
1655.222218677
 20
607.0
 30
0.0
 40
18.0
  1
１１１
 50
90.0
 41
0.9
 51
0.0
  7
KANJI34
  0
TEXT
  8
0
  6
CONTINUOUS
 62
     2
 10
1621.222218677
 20
696.75
 30
0.0
 40
18.0
  1
φ２０Ｈ１０深さ２５
 50
90.0
 41
0.9
 51
0.0
  7
KANJI34
  0
LINE
  8
0
  6
CONTINUOUS
 62
     2
 10
1627.0
 20
695.0
 30
0.0
 11
1627.0
 21
853.0
 31
0.0
  0
LINE
  8
0
  6
CONTINUOUS
 62
     2
 10
1724.32
 20
717.5
 30
0.0
 11
1868.32
 21
717.5
 31
0.0
  0
TEXT
  8
0
  6
CONTINUOUS
 62
     2
 10
1736.92
 20
725.9
 30
12.0
 40
24.0
  1
特記事項
 50
0.0
 41
0.9
 51
0.0
  7
KANJI45
  0
TEXT
  8
0
  6
CONTINUOUS
 62
     2
 10
1730.92
 20
606.2
 30
1.8
 40
21.0
  1
３．ＬＳユニット
 50
0.0
 41
0.857142857
 51
0.0
  7
KANJI46
  0
TEXT
  8
0
  6
CONTINUOUS
 62
     2
 10
1730.92
 20
681.2
 30
1.8
 40
21.0
  1
１．運転時は必ずピストンロッドの回転防止を行って下さい。
 50
0.0
 41
0.857142857
 51
0.0
  7
KANJI46
  0
TEXT
  8
0
  6
CONTINUOUS
 62
     2
 10
1730.92
 20
643.7
 30
1.8
 40
21.0
  1
２．モートル：全閉自冷かご形３０分定格
 50
0.0
 41
0.857142857
 51
0.0
  7
KANJI46
  0
TEXT
  8
0
  6
CONTINUOUS
 62
     2
 10
1730.92
 20
513.2
 30
1.8
 40
21.0
  1
４．呼称ストロークは、機械的ストロークです。
 50
0.0
 41
0.857142857
 51
0.0
  7
KANJI46
  0
TEXT
  8
0
  6
CONTINUOUS
 62
     2
 10
1730.92
 20
546.2
 30
1.8
 40
21.0
  1
　　ストローク７００ｍｍ以上の場合２ロッド方式となります。
 50
0.0
 41
0.857142857
 51
0.0
  7
KANJI46
  0
TEXT
  8
0
  6
CONTINUOUS
 62
     2
 10
1730.92
 20
576.2
 30
1.8
 40
21.0
  1
　　リミットスイッチ：１ＬＳ１－Ｊｘ２ケ（山武）
 50
0.0
 41
0.857142857
 51
0.0
  7
KANJI46
  0
TEXT
  8
0
  6
CONTINUOUS
 62
     2
 10
1730.92
 20
476.24
 30
1.8
 40
21.0
  1
　　必ず、常用はストローク両端に必ず余裕を取って下さい。
 50
0.0
 41
0.857142857
 51
0.0
  7
KANJI46
  0
TEXT
  8
0
  6
CONTINUOUS
 62
     2
 10
1730.92
 20
438.464
 30
1.8
 40
21.0
  1
　　前後の推奨余裕寸法は、各々２５ｍｍです。
 50
0.0
 41
0.857142857
 51
0.0
  7
KANJI46
  0
LINE
  8
0
  6
CONTINUOUS
 62
     1
 10
400.5
 20
739.1
 30
0.0
 11
409.5
 21
739.1
 31
0.0
  0
ARC
  8
0
  6
CONTINUOUS
 62
     1
 10
409.5
 20
742.1
 30
0.0
 40
3.0
 50
270.0
 51
0.0
  0
LINE
  8
0
  6
CONTINUOUS
 62
     1
 10
412.5
 20
742.1
 30
0.0
 11
412.5
 21
910.1
 31
0.0
  0
LINE
  8
2
  6
CONTINUOUS
 62
     2
 10
648.5
 20
768.1
 30
0.0
 11
744.5
 21
768.1
 31
0.0
  0
LINE
  8
0
  6
CONTINUOUS
 62
     1
 10
447.5
 20
768.1
 30
0.0
 11
447.5
 21
910.0
 31
0.0
  0
ARC
  8
0
  6
CONTINUOUS
 62
     1
 10
414.5
 20
766.1
 30
0.0
 40
2.0
 50
90.0
 51
180.0
  0
LINE
  8
0
  6
CONTINUOUS
 62
     1
 10
652.310381815
 20
797.272417316
 30
0.0
 11
669.689618185
 21
798.927582684
 31
0.0
  0
ARC
  8
0
  6
CONTINUOUS
 62
     1
 10
652.5
 20
795.28142637
 30
0.0
 40
2.0
 50
95.440332031
 51
180.0
  0
ARC
  8
0
  6
CONTINUOUS
 62
     1
 10
673.5
 20
864.1
 30
0.0
 40
2.0
 50
180.0
 51
270.0
  0
LINE
  8
0
  6
CONTINUOUS
 62
     1
 10
682.5
 20
862.1
 30
0.0
 11
673.5
 21
862.1
 31
0.0
  0
ARC
  8
0
  6
CONTINUOUS
 62
     1
 10
682.5
 20
860.1
 30
0.0
 40
2.0
 50
0.0
 51
90.0
  0
LINE
  8
0
  6
CONTINUOUS
 62
     1
 10
684.5
 20
860.1
 30
0.0
 11
684.5
 21
818.1
 31
0.0
  0
ARC
  8
0
  6
CONTINUOUS
 62
     1
 10
682.5
 20
818.1
 30
0.0
 40
2.0
 50
270.0
 51
0.0
  0
ARC
  8
0
  6
CONTINUOUS
 62
     1
 10
673.5
 20
814.1
 30
0.0
 40
2.0
 50
90.0
 51
180.0
  0
LINE
  8
0
  6
CONTINUOUS
 62
     1
 10
682.5
 20
816.1
 30
0.0
 11
673.5
 21
816.1
 31
0.0
  0
LINE
  8
0
  6
CONTINUOUS
 62
     1
 10
687.5
 20
850.6
 30
0.0
 11
684.5
 21
850.6
 31
0.0
  0
LINE
  8
0
  6
CONTINUOUS
 62
     1
 10
687.5
 20
827.6
 30
0.0
 11
684.5
 21
827.6
 31
0.0
  0
LINE
  8
0
  6
CONTINUOUS
 62
     1
 10
687.5
 20
850.6
 30
0.0
 11
687.5
 21
827.6
 31
0.0
  0
ARC
  8
0
  6
CONTINUOUS
 62
     1
 10
669.5
 20
831.918573629
 30
0.0
 40
2.0
 50
275.440332031
 51
0.0
  0
LINE
  8
0
  6
CONTINUOUS
 62
     1
 10
669.689618185
 20
829.927582684
 30
0.0
 11
652.310381815
 21
828.272417316
 31
0.0
  0
ARC
  8
0
  6
CONTINUOUS
 62
     1
 10
652.5
 20
826.28142637
 30
0.0
 40
2.0
 50
95.440332031
 51
180.0
  0
ARC
  8
0
  6
CONTINUOUS
 62
     1
 10
669.5
 20
846.28142637
 30
0.0
 40
2.0
 50
0.0
 51
84.559667969
  0
LINE
  8
0
  6
CONTINUOUS
 62
     1
 10
669.689618185
 20
848.272417316
 30
0.0
 11
652.310381815
 21
849.927582684
 31
0.0
  0
ARC
  8
0
  6
CONTINUOUS
 62
     1
 10
652.5
 20
851.918573629
 30
0.0
 40
2.0
 50
180.0
 51
264.559667969
  0
LINE
  8
0
  6
CONTINUOUS
 62
     1
 10
652.310381815
 20
787.272417316
 30
0.0
 11
669.689618185
 21
788.927582684
 31
0.0
  0
LINE
  8
0
  6
LTYPE2
 62
     2
 10
664.0
 20
796.1
 30
0.0
 11
677.2
 21
796.1
 31
0.0
  0
ARC
  8
0
  6
CONTINUOUS
 62
     1
 10
652.5
 20
785.28142637
 30
0.0
 40
2.0
 50
95.440332031
 51
180.0
  0
LINE
  8
0
  6
CONTINUOUS
 62
     1
 10
671.5
 20
887.28142637
 30
0.0
 11
671.5
 21
791.48812
 31
0.0
  0
LINE
  8
0
  6
CONTINUOUS
 62
     1
 10
692.5
 20
843.452902
 30
0.0
 11
691.684924603
 21
844.864654
 31
0.0
  0
LINE
  8
0
  6
CONTINUOUS
 62
     1
 10
692.5
 20
834.747098
 30
0.0
 11
691.684924603
 21
833.335346
 31
0.0
  0
ARC
  8
0
  6
CONTINUOUS
 62
     1
 10
686.996118477
 20
839.1
 30
0.0
 40
5.503881523
 50
328.419912243
 51
31.580087757
  0
ARC
  8
0
  6
CONTINUOUS
 62
     1
 10
690.818906993
 20
843.4234905
 30
0.0
 40
1.681350271
 50
301.002313915
 51
2.989498403
  0
LINE
  8
0
  6
CONTINUOUS
 62
     1
 10
692.5
 20
834.747098
 30
0.0
 11
691.684924603
 21
833.335346
 31
0.0
  0
ARC
  8
0
  6
CONTINUOUS
 62
     1
 10
690.818906993
 20
834.7765095
 30
0.0
 40
1.681350271
 50
357.010501597
 51
58.997686085
  0
LINE
  8
0
  6
CONTINUOUS
 62
     1
 10
688.50039
 20
841.982327
 30
0.0
 11
691.684924603
 21
841.982327
 31
0.0
  0
LINE
  8
0
  6
CONTINUOUS
 62
     1
 10
688.50039
 20
844.864654
 30
0.0
 11
691.684924603
 21
844.864654
 31
0.0
  0
LINE
  8
0
  6
CONTINUOUS
 62
     1
 10
688.50039
 20
836.217673
 30
0.0
 11
691.684924603
 21
836.217673
 31
0.0
  0
LINE
  8
0
  6
CONTINUOUS
 62
     1
 10
688.50039
 20
833.335346
 30
0.0
 11
691.684924603
 21
833.335346
 31
0.0
  0
LINE
  8
0
  6
CONTINUOUS
 62
     1
 10
692.5
 20
834.747098
 30
0.0
 11
692.5
 21
843.452902
 31
0.0
  0
LINE
  8
0
  6
CONTINUOUS
 62
     1
 10
688.50039
 20
845.6
 30
0.0
 11
687.5
 21
845.6
 31
0.0
  0
LINE
  8
0
  6
CONTINUOUS
 62
     1
 10
688.50039
 20
845.6
 30
0.0
 11
688.50039
 21
832.6
 31
0.0
  0
LINE
  8
0
  6
CONTINUOUS
 62
     1
 10
688.50039
 20
832.6
 30
0.0
 11
687.5
 21
832.6
 31
0.0
  0
ARC
  8
0
  6
CONTINUOUS
 62
     1
 10
669.5
 20
800.918573629
 30
0.0
 40
2.0
 50
275.440332031
 51
0.0
  0
LINE
  8
0
  6
CONTINUOUS
 62
     1
 10
675.0002
 20
792.61756
 30
0.0
 11
674.348117512
 21
791.48812
 31
0.0
  0
LINE
  8
0
  6
CONTINUOUS
 62
     1
 10
675.0002
 20
799.58244
 30
0.0
 11
674.348117512
 21
800.71188
 31
0.0
  0
ARC
  8
0
  6
CONTINUOUS
 62
     1
 10
670.596945074
 20
796.1
 30
0.0
 40
4.403254926
 50
328.419912243
 51
31.580087757
  0
ARC
  8
0
  6
CONTINUOUS
 62
     1
 10
673.655279868
 20
792.64109
 30
0.0
 40
1.34512595
 50
357.010501597
 51
58.997686085
  0
LINE
  8
0
  6
CONTINUOUS
 62
     1
 10
675.0002
 20
799.58244
 30
0.0
 11
674.348117512
 21
800.71188
 31
0.0
  0
ARC
  8
0
  6
CONTINUOUS
 62
     1
 10
673.655279868
 20
799.55891
 30
0.0
 40
1.34512595
 50
301.002313915
 51
2.989498403
  0
LINE
  8
0
  6
CONTINUOUS
 62
     1
 10
671.5
 20
791.48812
 30
0.0
 11
674.348117512
 21
791.48812
 31
0.0
  0
LINE
  8
0
  6
CONTINUOUS
 62
     1
 10
671.5
 20
793.79406
 30
0.0
 11
674.348117512
 21
793.79406
 31
0.0
  0
LINE
  8
0
  6
CONTINUOUS
 62
     1
 10
671.5
 20
798.40594
 30
0.0
 11
674.348117512
 21
798.40594
 31
0.0
  0
LINE
  8
0
  6
CONTINUOUS
 62
     1
 10
671.5
 20
800.71188
 30
0.0
 11
674.348117512
 21
800.71188
 31
0.0
  0
LINE
  8
0
  6
CONTINUOUS
 62
     1
 10
675.0002
 20
792.61756
 30
0.0
 11
675.0002
 21
799.58244
 31
0.0
  0
ARC
  8
0
  6
CONTINUOUS
 62
     1
 10
669.5
 20
790.918573629
 30
0.0
 40
2.0
 50
275.440332031
 51
0.0
  0
LINE
  8
0
  6
LTYPE1
 62
     1
 10
679.6
 20
853.6
 30
0.0
 11
671.5
 21
844.4
 31
0.0
  0
ARC
  8
0
  6
LTYPE1
 62
     1
 10
683.0
 20
850.6
 30
0.0
 40
4.5
 50
290.9
 51
137.7
  0
LINE
  8
0
  6
LTYPE1
 62
     1
 10
677.5
 20
843.6
 30
0.0
 11
671.5
 21
844.4
 31
0.0
  0
LINE
  8
0
  6
LTYPE1
 62
     1
 10
684.6
 20
846.4
 30
0.0
 11
677.5
 21
843.6
 31
0.0
  0
LINE
  8
0
  6
LTYPE1
 62
     1
 10
677.5
 20
834.6
 30
0.0
 11
671.5
 21
833.8
 31
0.0
  0
ARC
  8
0
  6
LTYPE1
 62
     1
 10
683.0
 20
827.6
 30
0.0
 40
4.5
 50
222.3
 51
69.1
  0
LINE
  8
0
  6
LTYPE1
 62
     1
 10
679.6
 20
824.6
 30
0.0
 11
671.5
 21
833.8
 31
0.0
  0
LINE
  8
0
  6
LTYPE1
 62
     1
 10
684.6
 20
831.8
 30
0.0
 11
677.5
 21
834.6
 31
0.0
  0
LINE
  8
0
  6
LTYPE1
 62
     1
 10
677.5
 20
843.6
 30
0.0
 11
677.5
 21
834.6
 31
0.0
  0
LINE
  8
0
  6
CONTINUOUS
 62
     1
 10
642.5
 20
768.1
 30
0.0
 11
642.5
 21
910.1
 31
0.0
  0
LINE
  8
0
  6
CONTINUOUS
 62
     1
 10
414.5
 20
768.1
 30
0.0
 11
647.5
 21
768.1
 31
0.0
  0
LINE
  8
0
  6
CONTINUOUS
 62
     1
 10
650.5
 20
907.1
 30
0.0
 11
650.5
 21
771.1
 31
0.0
  0
ARC
  8
0
  6
CONTINUOUS
 62
     1
 10
647.5
 20
771.1
 30
0.0
 40
3.0
 50
270.0
 51
0.0
  0
LINE
  8
0
  6
CONTINUOUS
 62
     2
 10
397.5
 20
780.763690552
 30
0.0
 11
427.5
 21
780.763690552
 31
0.0
  0
LINE
  8
0
  6
CONTINUOUS
 62
     1
 10
419.5
 20
790.763690552
 30
0.0
 11
419.5
 21
770.763690552
 31
0.0
  0
LINE
  8
0
  6
CONTINUOUS
 62
     1
 10
412.5
 20
770.763690552
 30
0.0
 11
419.5
 21
770.763690552
 31
0.0
  0
LINE
  8
0
  6
CONTINUOUS
 62
     1
 10
412.5
 20
790.763690552
 30
0.0
 11
419.5
 21
790.763690552
 31
0.0
  0
LINE
  8
0
  6
CONTINUOUS
 62
     1
 10
412.5
 20
775.763690552
 30
0.0
 11
419.5
 21
775.763690552
 31
0.0
  0
LINE
  8
0
  6
CONTINUOUS
 62
     1
 10
412.5
 20
785.763690552
 30
0.0
 11
419.5
 21
785.763690552
 31
0.0
  0
LINE
  8
0
  6
CONTINUOUS
 62
     2
 10
687.3
 20
856.6
 30
0.0
 11
695.593374416
 21
865.952536597
 31
0.0
  0
LINE
  8
0
  6
CONTINUOUS
 62
     2
 10
687.3
 20
856.6
 30
0.0
 11
689.806004628
 21
868.846221491
 31
0.0
  0
LINE
  8
0
  6
CONTINUOUS
 62
     2
 10
687.3
 20
856.6
 30
0.0
 11
760.3
 21
1002.6
 31
0.0
  0
TEXT
  8
0
  6
CONTINUOUS
 62
     2
 10
475.040009455
 20
816.1
 30
0.0
 40
18.0
  1
日本電産
 50
0.0
 41
0.9
 51
0.0
  7
KANJI34
  0
TEXT
  8
0
  6
CONTINUOUS
 62
     2
 10
475.040009455
 20
794.1
 30
0.0
 40
18.0
  1
エコノストップモータ
 50
0.0
 41
0.9
 51
0.0
  7
KANJI34
  0
LINE
  8
0
  6
LTYPE3
 62
     2
 10
701.182501379
 20
840.0
 30
0.0
 11
285.6
 21
840.0
 31
0.0
  0
LINE
  8
0
  6
CONTINUOUS
 62
     1
 10
376.0
 20
941.0
 30
0.0
 11
385.2
 21
941.0
 31
0.0
  0
CIRCLE
  8
0
  6
CONTINUOUS
 62
     1
 10
376.0
 20
955.0
 30
0.0
 40
12.5
  0
LINE
  8
0
  6
CONTINUOUS
 62
     1
 10
376.0
 20
942.5
 30
0.0
 11
385.2
 21
941.0
 31
0.0
  0
ARC
  8
0
  6
CONTINUOUS
 62
     1
 10
376.0
 20
955.0
 30
0.0
 40
20.5
 50
300.423432294
 51
0.0
  0
LINE
  8
0
  6
CONTINUOUS
 62
     1
 10
385.760585153
 20
936.094879912
 30
0.0
 11
385.2
 21
941.0
 31
0.0
  0
ARC
  8
0
  6
CONTINUOUS
 62
     1
 10
386.947984073
 20
936.273488336
 30
0.0
 40
1.2
 50
118.393405187
 51
188.554293104
  0
LINE
  8
0
  6
CONTINUOUS
 62
     1
 10
376.0
 20
941.0
 30
0.0
 11
366.8
 21
941.0
 31
0.0
  0
LINE
  8
0
  6
CONTINUOUS
 62
     1
 10
376.0
 20
942.5
 30
0.0
 11
366.8
 21
941.0
 31
0.0
  0
LINE
  8
0
  6
CONTINUOUS
 62
     1
 10
366.239414847
 20
936.094879912
 30
0.0
 11
366.8
 21
941.0
 31
0.0
  0
ARC
  8
0
  6
CONTINUOUS
 62
     1
 10
365.052015927
 20
936.273488336
 30
0.0
 40
1.2
 50
351.445706896
 51
61.606594813
  0
ARC
  8
0
  6
CONTINUOUS
 62
     1
 10
376.0
 20
955.0
 30
0.0
 40
20.5
 50
0.0
 51
239.707348078
  0
LINE
  8
0
  6
CONTINUOUS
 62
     1
 10
366.114285714
 20
935.0
 30
0.0
 11
366.239414847
 21
936.094879912
 31
0.0
  0
LINE
  8
0
  6
CONTINUOUS
 62
     1
 10
385.885714286
 20
935.0
 30
0.0
 11
385.760585153
 21
936.094879912
 31
0.0
  0
LINE
  8
0
  6
CONTINUOUS
 62
     1
 10
400.0
 20
935.0
 30
0.0
 11
366.0
 21
935.0
 31
0.0
  0
ARC
  8
0
  6
CONTINUOUS
 62
     1
 10
366.0
 20
932.0
 30
0.0
 40
3.0
 50
90.0
 51
180.0
  0
LINE
  8
0
  6
CONTINUOUS
 62
     1
 10
392.0
 20
935.0
 30
0.0
 11
388.0
 21
883.0
 31
0.0
  0
LINE
  8
0
  6
CONTINUOUS
 62
     1
 10
388.0
 20
877.4
 30
0.0
 11
388.0
 21
883.0
 31
0.0
  0
LINE
  8
0
  6
CONTINUOUS
 62
     1
 10
329.0
 20
857.0
 30
0.0
 11
295.0
 21
857.0
 31
0.0
  0
LINE
  8
0
  6
CONTINUOUS
 62
     1
 10
388.0
 20
816.0
 30
0.0
 11
388.0
 21
874.3
 31
0.0
  0
LINE
  8
0
  6
CONTINUOUS
 62
     1
 10
392.0
 20
816.0
 30
0.0
 11
392.0
 21
935.0
 31
0.0
  0
LINE
  8
0
  6
CONTINUOUS
 62
     1
 10
363.0
 20
889.0
 30
0.0
 11
363.0
 21
932.0
 31
0.0
  0
LINE
  8
0
  6
CONTINUOUS
 62
     1
 10
357.0
 20
883.0
 30
0.0
 11
329.0
 21
883.0
 31
0.0
  0
ARC
  8
0
  6
CONTINUOUS
 62
     1
 10
357.0
 20
889.0
 30
0.0
 40
6.0
 50
270.0
 51
360.0
  0
LINE
  8
0
  6
CONTINUOUS
 62
     1
 10
388.0
 20
883.0
 30
0.0
 11
357.0
 21
883.0
 31
0.0
  0
LINE
  8
0
  6
CONTINUOUS
 62
     1
 10
400.0
 20
939.2
 30
0.0
 11
410.0
 21
939.2
 31
0.0
  0
LINE
  8
0
  6
CONTINUOUS
 62
     1
 10
400.0
 20
739.2
 30
0.0
 11
400.0
 21
939.2
 31
0.0
  0
LINE
  8
0
  6
LTYPE3
 62
     2
 10
399.5
 20
955.0
 30
0.0
 11
350.5
 21
955.0
 31
0.0
  0
LINE
  8
0
  6
LTYPE3
 62
     2
 10
376.0
 20
921.1
 30
0.0
 11
376.0
 21
983.8
 31
0.0
  0
LINE
  8
0
  6
CONTINUOUS
 62
     1
 10
400.5
 20
939.1
 30
0.0
 11
409.5
 21
939.1
 31
0.0
  0
ARC
  8
0
  6
CONTINUOUS
 62
     1
 10
409.5
 20
936.1
 30
0.0
 40
3.0
 50
0.0
 51
90.0
  0
LINE
  8
0
  6
CONTINUOUS
 62
     1
 10
412.5
 20
910.1
 30
0.0
 11
412.5
 21
936.1
 31
0.0
  0
ARC
  8
0
  6
CONTINUOUS
 62
     1
 10
414.5
 20
912.1
 30
0.0
 40
2.0
 50
180.0
 51
270.0
  0
LINE
  8
0
  6
CONTINUOUS
 62
     1
 10
551.05
 20
929.1
 30
0.0
 11
551.05
 21
963.1
 31
0.0
  0
LINE
  8
0
  6
CONTINUOUS
 62
     1
 10
551.05
 20
929.1
 30
0.0
 11
525.05
 21
929.1
 31
0.0
  0
LINE
  8
0
  6
CONTINUOUS
 62
     1
 10
551.05
 20
963.1
 30
0.0
 11
525.05
 21
963.1
 31
0.0
  0
LINE
  8
0
  6
LTYPE2
 62
     2
 10
557.979475845
 20
946.1
 30
0.0
 11
517.979475845
 21
946.1
 31
0.0
  0
LINE
  8
0
  6
CONTINUOUS
 62
     1
 10
455.05
 20
921.1
 30
0.0
 11
455.05
 21
924.1
 31
0.0
  0
ARC
  8
0
  6
CONTINUOUS
 62
     1
 10
459.05
 20
918.1
 30
0.0
 40
3.0
 50
0.0
 51
90.0
  0
LINE
  8
0
  6
CONTINUOUS
 62
     1
 10
515.05
 20
921.1
 30
0.0
 11
515.05
 21
924.1
 31
0.0
  0
ARC
  8
0
  6
CONTINUOUS
 62
     1
 10
511.05
 20
918.1
 30
0.0
 40
3.0
 50
90.0
 51
180.0
  0
LINE
  8
0
  6
CONTINUOUS
 62
     1
 10
515.05
 20
921.1
 30
0.0
 11
455.05
 21
921.1
 31
0.0
  0
LINE
  8
0
  6
CONTINUOUS
 62
     1
 10
439.962087912
 20
926.1
 30
0.0
 11
532.05
 21
970.120045888
 31
0.0
  0
LINE
  8
0
  6
CONTINUOUS
 62
     1
 10
438.05
 20
930.1
 30
0.0
 11
439.962087912
 21
926.1
 31
0.0
  0
LINE
  8
0
  6
CONTINUOUS
 62
     1
 10
438.05
 20
930.1
 30
0.0
 11
530.137912088
 21
974.120045888
 31
0.0
  0
LINE
  8
0
  6
CONTINUOUS
 62
     1
 10
530.137912088
 20
974.120045888
 30
0.0
 11
532.05
 21
970.120045888
 31
0.0
  0
LINE
  8
0
  6
CONTINUOUS
 62
     1
 10
445.05
 20
933.446153846
 30
0.0
 11
445.05
 21
973.1
 31
0.0
  0
ARC
  8
0
  6
CONTINUOUS
 62
     1
 10
448.05
 20
973.1
 30
0.0
 40
3.0
 50
90.0
 51
180.0
  0
LINE
  8
0
  6
CONTINUOUS
 62
     1
 10
445.05
 20
927.1
 30
0.0
 11
445.05
 21
928.5321338
 31
0.0
  0
ARC
  8
0
  6
CONTINUOUS
 62
     1
 10
448.05
 20
927.1
 30
0.0
 40
3.0
 50
180.0
 51
270.0
  0
LINE
  8
0
  6
CONTINUOUS
 62
     1
 10
525.05
 20
927.1
 30
0.0
 11
525.05
 21
966.773892042
 31
0.0
  0
LINE
  8
0
  6
CONTINUOUS
 62
     1
 10
522.05
 20
924.1
 30
0.0
 11
448.05
 21
924.1
 31
0.0
  0
ARC
  8
0
  6
CONTINUOUS
 62
     1
 10
522.05
 20
927.1
 30
0.0
 40
3.0
 50
270.0
 51
0.0
  0
LINE
  8
0
  6
CONTINUOUS
 62
     1
 10
525.05
 20
971.687912088
 30
0.0
 11
525.05
 21
973.1
 31
0.0
  0
LINE
  8
0
  6
CONTINUOUS
 62
     1
 10
522.05
 20
976.1
 30
0.0
 11
448.05
 21
976.1
 31
0.0
  0
ARC
  8
0
  6
CONTINUOUS
 62
     1
 10
522.05
 20
973.1
 30
0.0
 40
3.0
 50
0.0
 51
90.0
  0
ARC
  8
0
  6
CONTINUOUS
 62
     1
 10
465.05
 20
912.6
 30
0.0
 40
3.0
 50
180.0
 51
270.0
  0
ARC
  8
0
  6
CONTINUOUS
 62
     1
 10
505.05
 20
912.6
 30
0.0
 40
3.0
 50
270.0
 51
0.0
  0
LINE
  8
0
  6
CONTINUOUS
 62
     1
 10
508.05
 20
912.600005395
 30
0.0
 11
508.05
 21
918.1
 31
0.0
  0
LINE
  8
0
  6
CONTINUOUS
 62
     1
 10
462.05
 20
912.600005395
 30
0.0
 11
462.05
 21
918.1
 31
0.0
  0
LINE
  8
0
  6
LTYPE2
 62
     2
 10
485.0
 20
903.1
 30
0.0
 11
485.0
 21
978.1
 31
0.0
  0
LINE
  8
0
  6
CONTINUOUS
 62
     1
 10
652.310381815
 20
880.927582684
 30
0.0
 11
669.689618185
 21
879.272417316
 31
0.0
  0
ARC
  8
0
  6
CONTINUOUS
 62
     1
 10
652.5
 20
882.918573629
 30
0.0
 40
2.0
 50
180.0
 51
264.559667969
  0
LINE
  8
0
  6
CONTINUOUS
 62
     1
 10
652.310381815
 20
890.927582684
 30
0.0
 11
669.689618185
 21
889.272417316
 31
0.0
  0
ARC
  8
0
  6
CONTINUOUS
 62
     1
 10
652.5
 20
892.918573629
 30
0.0
 40
2.0
 50
180.0
 51
264.559667969
  0
LINE
  8
0
  6
LTYPE2
 62
     2
 10
664.0
 20
882.1
 30
0.0
 11
677.2
 21
882.1
 31
0.0
  0
ARC
  8
0
  6
CONTINUOUS
 62
     1
 10
669.5
 20
877.28142637
 30
0.0
 40
2.0
 50
0.0
 51
84.559667969
  0
ARC
  8
0
  6
CONTINUOUS
 62
     1
 10
669.5
 20
887.28142637
 30
0.0
 40
2.0
 50
0.0
 51
84.559667969
  0
LINE
  8
0
  6
CONTINUOUS
 62
     1
 10
675.0002
 20
885.58244
 30
0.0
 11
674.348117512
 21
886.71188
 31
0.0
  0
LINE
  8
0
  6
CONTINUOUS
 62
     1
 10
675.0002
 20
878.61756
 30
0.0
 11
674.348117512
 21
877.48812
 31
0.0
  0
ARC
  8
0
  6
CONTINUOUS
 62
     1
 10
670.596945074
 20
882.1
 30
0.0
 40
4.403254926
 50
328.419912243
 51
31.580087757
  0
ARC
  8
0
  6
CONTINUOUS
 62
     1
 10
673.655279868
 20
885.55891
 30
0.0
 40
1.34512595
 50
301.002313915
 51
2.989498403
  0
LINE
  8
0
  6
CONTINUOUS
 62
     1
 10
675.0002
 20
878.61756
 30
0.0
 11
674.348117512
 21
877.48812
 31
0.0
  0
ARC
  8
0
  6
CONTINUOUS
 62
     1
 10
673.655279868
 20
878.64109
 30
0.0
 40
1.34512595
 50
357.010501597
 51
58.997686085
  0
LINE
  8
0
  6
CONTINUOUS
 62
     1
 10
671.5
 20
886.71188
 30
0.0
 11
674.348117512
 21
886.71188
 31
0.0
  0
LINE
  8
0
  6
CONTINUOUS
 62
     1
 10
671.5
 20
884.40594
 30
0.0
 11
674.348117512
 21
884.40594
 31
0.0
  0
LINE
  8
0
  6
CONTINUOUS
 62
     1
 10
671.5
 20
879.79406
 30
0.0
 11
674.348117512
 21
879.79406
 31
0.0
  0
LINE
  8
0
  6
CONTINUOUS
 62
     1
 10
671.5
 20
877.48812
 30
0.0
 11
674.348117512
 21
877.48812
 31
0.0
  0
LINE
  8
0
  6
CONTINUOUS
 62
     1
 10
675.0002
 20
885.58244
 30
0.0
 11
675.0002
 21
878.61756
 31
0.0
  0
LINE
  8
0
  6
CONTINUOUS
 62
     1
 10
414.5
 20
910.1
 30
0.0
 11
647.5
 21
910.1
 31
0.0
  0
ARC
  8
0
  6
CONTINUOUS
 62
     1
 10
647.5
 20
907.1
 30
0.0
 40
3.0
 50
0.0
 51
90.0
  0
LINE
  8
0
  6
CONTINUOUS
 62
     2
 10
397.5
 20
897.436309448
 30
0.0
 11
427.5
 21
897.436309448
 31
0.0
  0
LINE
  8
0
  6
CONTINUOUS
 62
     1
 10
419.5
 20
887.436309448
 30
0.0
 11
419.5
 21
907.436309448
 31
0.0
  0
LINE
  8
0
  6
CONTINUOUS
 62
     1
 10
412.5
 20
907.436309448
 30
0.0
 11
419.5
 21
907.436309448
 31
0.0
  0
LINE
  8
0
  6
CONTINUOUS
 62
     1
 10
412.5
 20
887.436309448
 30
0.0
 11
419.5
 21
887.436309448
 31
0.0
  0
LINE
  8
0
  6
CONTINUOUS
 62
     1
 10
412.5
 20
902.436309448
 30
0.0
 11
419.5
 21
902.436309448
 31
0.0
  0
LINE
  8
0
  6
CONTINUOUS
 62
     1
 10
412.5
 20
892.436309448
 30
0.0
 11
419.5
 21
892.436309448
 31
0.0
  0
LINE
  8
0
  6
CONTINUOUS
 62
     2
 10
551.05
 20
946.1
 30
0.0
 11
559.343374416
 21
955.452536597
 31
0.0
  0
LINE
  8
0
  6
CONTINUOUS
 62
     2
 10
551.05
 20
946.1
 30
0.0
 11
553.556004628
 21
958.346221491
 31
0.0
  0
LINE
  8
2
  6
CONTINUOUS
 62
     2
 10
648.5
 20
910.1
 30
0.0
 11
744.5
 21
910.1
 31
0.0
  0
LINE
  8
0
  6
CONTINUOUS
 62
     2
 10
551.05
 20
946.1
 30
0.0
 11
574.68
 21
993.36
 31
0.0
  0
LINE
  8
0
  6
CONTINUOUS
 62
     2
 10
574.68
 20
993.36
 30
0.0
 11
658.08
 21
993.36
 31
0.0
  0
TEXT
  8
0
  6
CONTINUOUS
 62
     2
 10
574.68
 20
998.36
 30
0.0
 40
18.0
  1
ＰＦ３／４
 50
0.0
 41
0.9
 51
0.0
  7
KANJI34
  0
ARC
  8
0
  6
CONTINUOUS
 62
     1
 10
382.0
 20
816.0
 30
0.0
 40
6.0
 50
270.0
 51
0.0
  0
LINE
  8
0
  6
CONTINUOUS
 62
     1
 10
386.0
 20
810.0
 30
0.0
 11
329.0
 21
810.0
 31
0.0
  0
ARC
  8
0
  6
CONTINUOUS
 62
     1
 10
386.0
 20
816.0
 30
0.0
 40
6.0
 50
270.0
 51
0.0
  0
LINE
  8
0
  6
CONTINUOUS
 62
     1
 10
295.0
 20
823.0
 30
0.0
 11
295.0
 21
857.0
 31
0.0
  0
LINE
  8
0
  6
CONTINUOUS
 62
     1
 10
329.0
 20
823.0
 30
0.0
 11
295.0
 21
823.0
 31
0.0
  0
LINE
  8
0
  6
CONTINUOUS
 62
     2
 10
279.58
 20
956.6
 30
0.0
 11
198.6
 21
956.6
 31
0.0
  0
LINE
  8
0
  6
CONTINUOUS
 62
     2
 10
319.5
 20
856.8
 30
0.0
 11
279.58
 21
956.6
 31
0.0
  0
TEXT
  8
0
  6
CONTINUOUS
 62
     2
 10
198.6
 20
961.6
 30
0.0
 40
18.0
  1
手動軸カバー
 50
0.0
 41
0.9
 51
0.0
  7
KANJI34
  0
TEXT
  8
0
  6
CONTINUOUS
 62
     3
 10
199.466667
 20
932.766683
 30
1.5
 40
15.0
  1
手動軸□８
 50
0.0
 41
0.9
 51
0.0
  7
KANJI35
  0
ARC
  8
0
  6
CONTINUOUS
 62
     2
 10
247.0
 20
838.0
 30
0.0
 40
20.0
 50
231.952957468
 51
156.801409486
  0
LINE
  8
0
  6
CONTINUOUS
 62
     2
 10
228.6170994
 20
845.878385972
 30
0.0
 11
230.91179211
 21
855.715824749
 31
0.0
  0
TEXT
  8
0
  6
CONTINUOUS
 62
     2
 10
166.6170994
 20
828.878385972
 30
0.0
 40
15.0
  1
前進方向
 50
0.0
 41
0.9
 51
0.0
  7
KANJI39
  0
LINE
  8
0
  6
CONTINUOUS
 62
     2
 10
228.6170994
 20
845.878385972
 30
0.0
 11
236.885260778
 21
850.785722507
 31
0.0
  0
LINE
  8
0
  6
CONTINUOUS
 62
     1
 10
325.0
 20
823.0
 30
0.0
 11
325.0
 21
857.0
 31
0.0
  0
LINE
  8
0
  6
CONTINUOUS
 62
     2
 10
319.5
 20
856.8
 30
0.0
 11
318.019645058
 21
869.212032438
 31
0.0
  0
LINE
  8
0
  6
CONTINUOUS
 62
     2
 10
319.5
 20
856.8
 30
0.0
 11
312.011958794
 21
866.808957933
 31
0.0
  0
LINE
  8
2
  6
CONTINUOUS
 62
     2
 10
738.5
 20
910.1
 30
0.0
 11
738.5
 21
768.1
 31
0.0
  0
LINE
  8
2
  6
CONTINUOUS
 62
     2
 10
738.5
 20
768.1
 30
0.0
 11
742.382285677
 21
782.588887394
 31
0.0
  0
LINE
  8
2
  6
CONTINUOUS
 62
     2
 10
738.5
 20
768.1
 30
0.0
 11
734.617714323
 21
782.588887394
 31
0.0
  0
TEXT
  8
2
  6
CONTINUOUS
 62
     2
 10
732.5
 20
800.4
 30
0.0
 40
18.0
  1
φ１４２
 50
90.0
 41
0.9
 51
0.0
  7
KANJI34
  0
LINE
  8
2
  6
CONTINUOUS
 62
     2
 10
738.5
 20
910.1
 30
0.0
 11
734.617714323
 21
895.611112606
 31
0.0
  0
LINE
  8
2
  6
CONTINUOUS
 62
     2
 10
738.5
 20
910.1
 30
0.0
 11
742.382285677
 21
895.611112606
 31
0.0
  0
LINE
  8
0
  6
CONTINUOUS
 62
     2
 10
760.3
 20
1002.6
 30
0.0
 11
911.2
 21
1002.6
 31
0.0
  0
TEXT
  8
0
  6
CONTINUOUS
 62
     2
 10
761.8
 20
1007.6
 30
0.0
 40
18.0
  1
ブレ－キ開放レバ－
 50
0.0
 41
0.9
 51
0.0
  7
KANJI34
  0
LINE
  8
0
  6
CONTINUOUS
 62
     1
 10
329.0
 20
607.5
 30
0.0
 11
329.0
 21
883.0
 31
0.0
  0
LINE
  8
0
  6
CONTINUOUS
 62
     1
 10
400.0
 20
607.5
 30
0.0
 11
400.0
 21
742.0
 31
0.0
  0
LINE
  8
0
  6
CONTINUOUS
 62
     1
 10
400.0
 20
607.5
 30
0.0
 11
400.0
 21
935.0
 31
0.0
  0
LINE
  8
0
  6
CONTINUOUS
 62
     2
 10
400.0
 20
945.2
 30
0.0
 11
400.0
 21
1056.09
 31
0.0
  0
LINE
  8
0
  6
CONTINUOUS
 62
     2
 10
400.0
 20
1050.09
 30
0.0
 11
411.591109915
 21
1046.984171459
 31
0.0
  0
LINE
  8
0
  6
CONTINUOUS
 62
     2
 10
400.0
 20
1050.09
 30
0.0
 11
411.591109915
 21
1053.195828541
 31
0.0
  0
LINE
  8
0
  6
CONTINUOUS
 62
     2
 10
400.0
 20
1050.09
 30
0.0
 11
692.0
 21
1050.09
 31
0.0
  0
LINE
  8
0
  6
CONTINUOUS
 62
     2
 10
692.0
 20
1050.09
 30
0.0
 11
680.408890085
 21
1053.195828541
 31
0.0
  0
LINE
  8
0
  6
CONTINUOUS
 62
     2
 10
692.0
 20
1050.09
 30
0.0
 11
680.408890085
 21
1046.984171459
 31
0.0
  0
TEXT
  8
0
  6
CONTINUOUS
 62
     3
 10
521.7
 20
1059.09
 30
0.0
 40
18.0
  1
２９２
 50
0.0
 41
0.9
 51
0.0
  7
KANJI34
  0
LINE
  8
0
  6
CONTINUOUS
 62
     2
 10
400.0
 20
1037.4
 30
0.0
 11
400.0
 21
1056.09
 31
0.0
  0
LINE
  8
0
  6
CONTINUOUS
 62
     2
 10
400.0
 20
1050.09
 30
0.0
 11
388.408890085
 21
1053.195828541
 31
0.0
  0
LINE
  8
0
  6
CONTINUOUS
 62
     2
 10
400.0
 20
1050.09
 30
0.0
 11
388.408890085
 21
1046.984171459
 31
0.0
  0
LINE
  8
0
  6
CONTINUOUS
 62
     2
 10
400.0
 20
1050.09
 30
0.0
 11
295.0
 21
1050.09
 31
0.0
  0
LINE
  8
0
  6
CONTINUOUS
 62
     2
 10
295.0
 20
1050.09
 30
0.0
 11
306.591109915
 21
1046.984171459
 31
0.0
  0
LINE
  8
0
  6
CONTINUOUS
 62
     2
 10
295.0
 20
1050.09
 30
0.0
 11
306.591109915
 21
1053.195828541
 31
0.0
  0
LINE
  8
0
  6
CONTINUOUS
 62
     2
 10
295.0
 20
863.0
 30
0.0
 11
295.0
 21
1056.09
 31
0.0
  0
TEXT
  8
0
  6
CONTINUOUS
 62
     3
 10
323.2
 20
1059.09
 30
0.0
 40
18.0
  1
１１３
 50
0.0
 41
0.9
 51
0.0
  7
KANJI34
  0
LINE
  8
0
  6
CONTINUOUS
 62
     2
 10
692.0
 20
847.59
 30
0.0
 11
692.0
 21
1056.09
 31
0.0
  0
LINE
  8
0
  6
CONTINUOUS
 62
     1
 10
957.182501379
 20
546.0
 30
0.0
 11
965.842755417
 21
551.0
 31
0.0
  0
LINE
  8
0
  6
CONTINUOUS
 62
     1
 10
965.832501379
 20
519.0
 30
0.0
 11
965.832501379
 21
551.0
 31
0.0
  0
LINE
  8
0
  6
CONTINUOUS
 62
     1
 10
965.832501379
 20
551.0
 30
0.0
 11
990.532501379
 21
551.0
 31
0.0
  0
LINE
  8
0
  6
CONTINUOUS
 62
     1
 10
957.182501379
 20
524.0
 30
0.0
 11
957.182501379
 21
546.0
 31
0.0
  0
LINE
  8
0
  6
CONTINUOUS
 62
     1
 10
990.532501379
 20
519.0
 30
0.0
 11
990.532501379
 21
551.0
 31
0.0
  0
LINE
  8
0
  6
CONTINUOUS
 62
     1
 10
999.182501379
 20
546.0
 30
0.0
 11
990.522247342
 21
551.0
 31
0.0
  0
LINE
  8
0
  6
CONTINUOUS
 62
     1
 10
999.182501379
 20
524.0
 30
0.0
 11
999.182501379
 21
546.0
 31
0.0
  0
LINE
  8
0
  6
CONTINUOUS
 62
     1
 10
999.182501379
 20
524.0
 30
0.0
 11
990.522247342
 21
519.0
 31
0.0
  0
LINE
  8
0
  6
CONTINUOUS
 62
     1
 10
965.832501379
 20
519.0
 30
0.0
 11
990.532501379
 21
519.0
 31
0.0
  0
LINE
  8
0
  6
CONTINUOUS
 62
     1
 10
957.182501379
 20
524.0
 30
0.0
 11
965.842755417
 21
519.0
 31
0.0
  0
LINE
  8
0
  6
CONTINUOUS
 62
     1
 10
940.682501379
 20
273.1
 30
0.0
 11
949.342755417
 21
278.1
 31
0.0
  0
LINE
  8
0
  6
CONTINUOUS
 62
     1
 10
949.332501379
 20
246.1
 30
0.0
 11
949.332501379
 21
278.1
 31
0.0
  0
LINE
  8
0
  6
CONTINUOUS
 62
     1
 10
949.332501379
 20
278.1
 30
0.0
 11
974.032501379
 21
278.1
 31
0.0
  0
LINE
  8
0
  6
CONTINUOUS
 62
     1
 10
940.682501379
 20
251.1
 30
0.0
 11
940.682501379
 21
273.1
 31
0.0
  0
LINE
  8
0
  6
CONTINUOUS
 62
     1
 10
974.032501379
 20
246.1
 30
0.0
 11
974.032501379
 21
278.1
 31
0.0
  0
LINE
  8
0
  6
CONTINUOUS
 62
     1
 10
982.682501379
 20
273.1
 30
0.0
 11
974.022247342
 21
278.1
 31
0.0
  0
LINE
  8
0
  6
CONTINUOUS
 62
     1
 10
982.682501379
 20
251.1
 30
0.0
 11
982.682501379
 21
273.1
 31
0.0
  0
LINE
  8
0
  6
CONTINUOUS
 62
     1
 10
982.682501379
 20
251.1
 30
0.0
 11
974.022247342
 21
246.1
 31
0.0
  0
LINE
  8
0
  6
CONTINUOUS
 62
     1
 10
949.332501379
 20
246.1
 30
0.0
 11
974.032501379
 21
246.1
 31
0.0
  0
LINE
  8
0
  6
CONTINUOUS
 62
     1
 10
940.682501379
 20
251.1
 30
0.0
 11
949.342755417
 21
246.1
 31
0.0
  0
LINE
  8
0
  6
CONTINUOUS
 62
     1
 10
982.682501379
 20
270.1
 30
0.0
 11
1008.991923417
 21
270.1
 31
0.0
  0
LINE
  8
0
  6
CONTINUOUS
 62
     1
 10
1008.991923417
 20
254.1
 30
0.0
 11
982.682501379
 21
254.1
 31
0.0
  0
LINE
  8
0
  6
CONTINUOUS
 62
     1
 10
881.182501379
 20
270.1
 30
0.0
 11
940.682501379
 21
270.1
 31
0.0
  0
LINE
  8
0
  6
CONTINUOUS
 62
     1
 10
940.682501379
 20
254.1
 30
0.0
 11
881.182501379
 21
254.1
 31
0.0
  0
LINE
  8
0
  6
LTYPE2
 62
     2
 10
1476.0
 20
551.0
 30
0.0
 11
1476.0
 21
983.0
 31
0.0
  0
LINE
  8
0
  6
CONTINUOUS
 62
     1
 10
1383.5
 20
876.5
 30
0.0
 11
1383.5
 21
899.529404499
 31
0.0
  0
ARC
  8
0
  6
CONTINUOUS
 62
     1
 10
1490.987995196
 20
885.6
 30
0.0
 40
8.0
 50
200.487315115
 51
251.805127661
  0
ARC
  8
0
  6
CONTINUOUS
 62
     1
 10
1461.012004804
 20
885.6
 30
0.0
 40
8.0
 50
288.194872339
 51
339.512684885
  0
ARC
  8
0
  6
CONTINUOUS
 62
     1
 10
1476.0
 20
880.0
 30
0.0
 40
8.0
 50
20.487315115
 51
159.512540111
  0
ARC
  8
0
  6
CONTINUOUS
 62
     1
 10
1476.0
 20
840.0
 30
0.0
 40
40.0
 50
108.194872339
 51
251.805127661
  0
CIRCLE
  8
0
  6
CONTINUOUS
 62
     1
 10
1476.0
 20
840.0
 30
0.0
 40
23.0
  0
ARC
  8
0
  6
CONTINUOUS
 62
     1
 10
1476.0
 20
840.0
 30
0.0
 40
40.0
 50
25.554707728
 51
71.805142343
  0
LINE
  8
0
  6
CONTINUOUS
 62
     1
 10
1478.35
 20
887.070319398
 30
0.0
 11
1473.65
 21
887.070319398
 31
0.0
  0
LINE
  8
0
  6
CONTINUOUS
 62
     1
 10
1473.65
 20
887.070319398
 30
0.0
 11
1471.3
 21
883.0
 31
0.0
  0
LINE
  8
0
  6
CONTINUOUS
 62
     1
 10
1471.3
 20
883.0
 30
0.0
 11
1473.65
 21
878.929680602
 31
0.0
  0
LINE
  8
0
  6
CONTINUOUS
 62
     1
 10
1473.65
 20
878.929680602
 30
0.0
 11
1478.35
 21
878.929680602
 31
0.0
  0
LINE
  8
0
  6
CONTINUOUS
 62
     1
 10
1478.35
 20
878.929680602
 30
0.0
 11
1480.7
 21
883.0
 31
0.0
  0
LINE
  8
0
  6
CONTINUOUS
 62
     1
 10
1480.7
 20
883.0
 30
0.0
 11
1478.35
 21
887.070319398
 31
0.0
  0
LINE
  8
0
  6
CONTINUOUS
 62
     2
 10
1482.0
 20
883.0
 30
0.0
 11
1470.0
 21
883.0
 31
0.0
  0
LINE
  8
0
  6
CONTINUOUS
 62
     1
 10
1506.0
 20
922.0
 30
0.0
 11
1506.0
 21
925.0
 31
0.0
  0
ARC
  8
0
  6
CONTINUOUS
 62
     1
 10
1502.0
 20
919.0
 30
0.0
 40
3.0
 50
90.0
 51
180.0
  0
LINE
  8
0
  6
CONTINUOUS
 62
     1
 10
1499.0
 20
908.153619242
 30
0.0
 11
1499.0
 21
919.0
 31
0.0
  0
ARC
  8
0
  6
CONTINUOUS
 62
     1
 10
1495.0
 20
908.153619242
 30
0.0
 40
4.0
 50
304.936144888
 51
0.0
  0
ARC
  8
0
  6
CONTINUOUS
 62
     1
 10
1450.0
 20
919.0
 30
0.0
 40
3.0
 50
0.0
 51
90.0
  0
LINE
  8
0
  6
CONTINUOUS
 62
     1
 10
1453.0
 20
908.153619242
 30
0.0
 11
1453.0
 21
919.0
 31
0.0
  0
ARC
  8
0
  6
CONTINUOUS
 62
     1
 10
1457.0
 20
908.153619242
 30
0.0
 40
4.0
 50
180.0
 51
235.063855112
  0
CIRCLE
  8
0
  6
CONTINUOUS
 62
     1
 10
1476.0
 20
947.0
 30
0.0
 40
17.0
  0
LINE
  8
0
  6
LTYPE2
 62
     2
 10
1453.0
 20
947.0
 30
0.0
 11
1499.0
 21
947.0
 31
0.0
  0
ARC
  8
0
  6
CONTINUOUS
 62
     1
 10
1434.0
 20
969.020045888
 30
0.0
 40
2.0
 50
90.0
 51
180.0
  0
ARC
  8
0
  6
CONTINUOUS
 62
     1
 10
1442.0
 20
975.0
 30
0.0
 40
2.0
 50
90.0
 51
180.0
  0
LINE
  8
0
  6
CONTINUOUS
 62
     1
 10
1442.0
 20
977.0
 30
0.0
 11
1510.0
 21
977.0
 31
0.0
  0
ARC
  8
0
  6
CONTINUOUS
 62
     1
 10
1510.0
 20
975.0
 30
0.0
 40
2.0
 50
0.0
 51
90.0
  0
LINE
  8
0
  6
CONTINUOUS
 62
     1
 10
1518.0
 20
971.020045888
 30
0.0
 11
1434.0
 21
971.020045888
 31
0.0
  0
ARC
  8
0
  6
CONTINUOUS
 62
     1
 10
1518.0
 20
969.020045888
 30
0.0
 40
2.0
 50
0.0
 51
90.0
  0
ARC
  8
0
  6
CONTINUOUS
 62
     1
 10
1434.0
 20
973.020045888
 30
0.0
 40
2.0
 50
90.0
 51
180.0
  0
ARC
  8
0
  6
CONTINUOUS
 62
     1
 10
1442.0
 20
966.0
 30
0.0
 40
2.0
 50
90.0
 51
180.0
  0
LINE
  8
0
  6
CONTINUOUS
 62
     1
 10
1442.0
 20
968.0
 30
0.0
 11
1510.0
 21
968.0
 31
0.0
  0
ARC
  8
0
  6
CONTINUOUS
 62
     1
 10
1510.0
 20
966.0
 30
0.0
 40
2.0
 50
0.0
 51
90.0
  0
LINE
  8
0
  6
CONTINUOUS
 62
     1
 10
1518.0
 20
975.020045888
 30
0.0
 11
1434.0
 21
975.020045888
 31
0.0
  0
ARC
  8
0
  6
CONTINUOUS
 62
     1
 10
1518.0
 20
973.020045888
 30
0.0
 40
2.0
 50
0.0
 51
90.0
  0
LINE
  8
0
  6
CONTINUOUS
 62
     1
 10
1446.0
 20
922.0
 30
0.0
 11
1506.0
 21
922.0
 31
0.0
  0
LINE
  8
0
  6
CONTINUOUS
 62
     1
 10
1446.0
 20
922.0
 30
0.0
 11
1446.0
 21
925.0
 31
0.0
  0
LINE
  8
0
  6
CONTINUOUS
 62
     1
 10
1512.0
 20
927.0
 30
0.0
 11
1518.0
 21
927.0
 31
0.0
  0
LINE
  8
0
  6
CONTINUOUS
 62
     1
 10
1520.0
 20
929.0
 30
0.0
 11
1520.0
 21
973.020045888
 31
0.0
  0
ARC
  8
0
  6
CONTINUOUS
 62
     1
 10
1518.0
 20
929.0
 30
0.0
 40
2.0
 50
270.0
 51
0.0
  0
LINE
  8
0
  6
CONTINUOUS
 62
     1
 10
1512.0
 20
927.0
 30
0.0
 11
1512.0
 21
966.0
 31
0.0
  0
ARC
  8
0
  6
CONTINUOUS
 62
     1
 10
1510.0
 20
927.0
 30
0.0
 40
2.0
 50
270.0
 51
0.0
  0
LINE
  8
0
  6
CONTINUOUS
 62
     1
 10
1440.0
 20
927.0
 30
0.0
 11
1440.0
 21
966.0
 31
0.0
  0
LINE
  8
0
  6
CONTINUOUS
 62
     1
 10
1442.0
 20
925.0
 30
0.0
 11
1510.0
 21
925.0
 31
0.0
  0
ARC
  8
0
  6
CONTINUOUS
 62
     1
 10
1442.0
 20
927.0
 30
0.0
 40
2.0
 50
180.0
 51
270.0
  0
LINE
  8
0
  6
CONTINUOUS
 62
     1
 10
1440.0
 20
927.0
 30
0.0
 11
1434.0
 21
927.0
 31
0.0
  0
LINE
  8
0
  6
CONTINUOUS
 62
     1
 10
1432.0
 20
929.0
 30
0.0
 11
1432.0
 21
973.020045888
 31
0.0
  0
ARC
  8
0
  6
CONTINUOUS
 62
     1
 10
1434.0
 20
929.0
 30
0.0
 40
2.0
 50
180.0
 51
270.0
  0
CIRCLE
  8
0
  6
CONTINUOUS
 62
     2
 10
1476.0
 20
947.0
 30
0.0
 40
15.0
  0
CIRCLE
  8
0
  6
CONTINUOUS
 62
     1
 10
1476.0
 20
840.0
 30
0.0
 40
71.0
  0
LINE
  8
0
  6
LTYPE2
 62
     2
 10
1426.0
 20
890.0
 30
0.0
 11
1410.0
 21
906.0
 31
0.0
  0
LINE
  8
0
  6
CONTINUOUS
 62
     1
 10
1422.663690552
 20
906.996563486
 30
0.0
 11
1412.663690552
 21
906.996563486
 31
0.0
  0
LINE
  8
0
  6
CONTINUOUS
 62
     1
 10
1412.663690552
 20
906.996563486
 30
0.0
 11
1407.663690552
 21
898.336309448
 31
0.0
  0
LINE
  8
0
  6
CONTINUOUS
 62
     1
 10
1407.663690552
 20
898.336309448
 30
0.0
 11
1412.663690552
 21
889.67605541
 31
0.0
  0
LINE
  8
0
  6
CONTINUOUS
 62
     1
 10
1412.663690552
 20
889.67605541
 30
0.0
 11
1422.663690552
 21
889.67605541
 31
0.0
  0
LINE
  8
0
  6
CONTINUOUS
 62
     1
 10
1422.663690552
 20
889.67605541
 30
0.0
 11
1427.663690552
 21
898.336309448
 31
0.0
  0
LINE
  8
0
  6
CONTINUOUS
 62
     1
 10
1427.663690552
 20
898.336309448
 30
0.0
 11
1422.663690552
 21
906.996563486
 31
0.0
  0
LINE
  8
0
  6
LTYPE2
 62
     2
 10
1526.0
 20
890.0
 30
0.0
 11
1542.0
 21
906.0
 31
0.0
  0
LINE
  8
0
  6
CONTINUOUS
 62
     1
 10
1529.336309448
 20
906.996563486
 30
0.0
 11
1539.336309448
 21
906.996563486
 31
0.0
  0
LINE
  8
0
  6
CONTINUOUS
 62
     1
 10
1539.336309448
 20
906.996563486
 30
0.0
 11
1544.336309448
 21
898.336309448
 31
0.0
  0
LINE
  8
0
  6
CONTINUOUS
 62
     1
 10
1544.336309448
 20
898.336309448
 30
0.0
 11
1539.336309448
 21
889.67605541
 31
0.0
  0
LINE
  8
0
  6
CONTINUOUS
 62
     1
 10
1539.336309448
 20
889.67605541
 30
0.0
 11
1529.336309448
 21
889.67605541
 31
0.0
  0
LINE
  8
0
  6
CONTINUOUS
 62
     1
 10
1529.336309448
 20
889.67605541
 30
0.0
 11
1524.336309448
 21
898.336309448
 31
0.0
  0
LINE
  8
0
  6
CONTINUOUS
 62
     1
 10
1524.336309448
 20
898.336309448
 30
0.0
 11
1529.336309448
 21
906.996563486
 31
0.0
  0
ARC
  8
0
  6
LTYPE2
 62
     2
 10
1476.0
 20
840.0
 30
0.0
 40
82.5
 50
122.095648245
 51
145.904134413
  0
ARC
  8
0
  6
LTYPE2
 62
     2
 10
1476.0
 20
840.0
 30
0.0
 40
82.5
 50
35.204140887
 51
56.44447448
  0
ARC
  8
0
  6
CONTINUOUS
 62
     1
 10
1476.0
 20
840.0
 30
0.0
 40
110.0
 50
113.578178478
 51
147.236242241
  0
ARC
  8
0
  6
CONTINUOUS
 62
     1
 10
1476.0
 20
840.0
 30
0.0
 40
110.0
 50
32.763757759
 51
66.421821522
  0
LINE
  8
0
  6
CONTINUOUS
 62
     2
 10
1515.0
 20
977.0
 30
0.0
 11
1670.222218677
 21
977.0
 31
0.0
  0
ARC
  8
0
  6
CONTINUOUS
 62
     1
 10
1476.0
 20
840.0
 30
0.0
 40
100.0
 50
282.08128121
 51
63.896118863
  0
ARC
  8
0
  6
CONTINUOUS
 62
     1
 10
1476.0
 20
840.0
 30
0.0
 40
100.0
 50
116.103881137
 51
211.944752776
  0
LINE
  8
0
  6
CONTINUOUS
 62
     1
 10
1568.5
 20
875.0
 30
0.0
 11
1568.5
 21
899.529404499
 31
0.0
  0
LINE
  8
0
  6
CONTINUOUS
 62
     2
 10
1660.222218677
 20
840.0
 30
0.0
 11
1660.222218677
 21
977.0
 31
0.0
  0
LINE
  8
0
  6
CONTINUOUS
 62
     2
 10
1660.222218677
 20
977.0
 30
0.0
 11
1656.986980613
 21
964.925927171
 31
0.0
  0
LINE
  8
0
  6
CONTINUOUS
 62
     2
 10
1660.222218677
 20
977.0
 30
0.0
 11
1663.45745674
 21
964.925927171
 31
0.0
  0
LINE
  8
0
  6
CONTINUOUS
 62
     2
 10
1642.0
 20
977.0
 30
0.0
 11
1705.0
 21
977.0
 31
0.0
  0
LINE
  8
0
  6
CONTINUOUS
 62
     2
 10
1695.0
 20
977.0
 30
0.0
 11
1691.764761936
 21
964.925927171
 31
0.0
  0
LINE
  8
0
  6
CONTINUOUS
 62
     2
 10
1695.0
 20
977.0
 30
0.0
 11
1698.235238064
 21
964.925927171
 31
0.0
  0
TEXT
  8
0
  6
CONTINUOUS
 62
     3
 10
1655.222218677
 20
886.0
 30
0.0
 40
18.0
  1
１３７
 50
90.0
 41
0.9
 51
0.0
  7
KANJI34
  0
LINE
  8
0
  6
LTYPE5
 62
     2
 10
1356.5
 20
840.0
 30
0.0
 11
1596.5
 21
840.0
 31
0.0
  0
ARC
  8
0
  6
CONTINUOUS
 62
     1
 10
1490.987995196
 20
794.4
 30
0.0
 40
8.0
 50
108.194872339
 51
159.512684885
  0
ARC
  8
0
  6
CONTINUOUS
 62
     1
 10
1461.012004804
 20
794.4
 30
0.0
 40
8.0
 50
20.487315115
 51
71.805127661
  0
ARC
  8
0
  6
CONTINUOUS
 62
     1
 10
1476.0
 20
800.0
 30
0.0
 40
8.0
 50
200.487459889
 51
339.512684885
  0
ARC
  8
0
  6
CONTINUOUS
 62
     1
 10
1522.0
 20
840.0
 30
0.0
 40
9.0
 50
278.674045508
 51
81.325934821
  0
ARC
  8
0
  6
CONTINUOUS
 62
     1
 10
1476.0
 20
840.0
 30
0.0
 40
40.0
 50
288.194857657
 51
334.445306215
  0
LINE
  8
0
  6
CONTINUOUS
 62
     2
 10
1519.0
 20
857.0
 30
0.0
 11
1519.0
 21
821.0
 31
0.0
  0
LINE
  8
0
  6
CONTINUOUS
 62
     1
 10
1520.0
 20
856.1
 30
0.0
 11
1518.0
 21
856.1
 31
0.0
  0
LINE
  8
0
  6
CONTINUOUS
 62
     1
 10
1518.0
 20
856.1
 30
0.0
 11
1516.0
 21
844.5
 31
0.0
  0
LINE
  8
0
  6
CONTINUOUS
 62
     1
 10
1520.0
 20
856.1
 30
0.0
 11
1522.0
 21
844.5
 31
0.0
  0
LINE
  8
0
  6
CONTINUOUS
 62
     1
 10
1520.0
 20
823.9
 30
0.0
 11
1518.0
 21
823.9
 31
0.0
  0
LINE
  8
0
  6
CONTINUOUS
 62
     1
 10
1518.0
 20
823.9
 30
0.0
 11
1516.0
 21
835.5
 31
0.0
  0
LINE
  8
0
  6
CONTINUOUS
 62
     1
 10
1520.0
 20
823.9
 30
0.0
 11
1522.0
 21
835.5
 31
0.0
  0
ARC
  8
0
  6
CONTINUOUS
 62
     1
 10
1525.619565217
 20
863.7254873
 30
0.0
 40
15.0
 50
205.554693785
 51
235.747997449
  0
ARC
  8
0
  6
CONTINUOUS
 62
     1
 10
1525.619565217
 20
863.7254873
 30
0.0
 40
15.0
 50
252.681090544
 51
261.325827457
  0
ARC
  8
0
  6
CONTINUOUS
 62
     1
 10
1525.619565217
 20
816.2745127
 30
0.0
 40
15.0
 50
124.468179449
 51
154.445306215
  0
ARC
  8
0
  6
CONTINUOUS
 62
     1
 10
1525.619565217
 20
816.2745127
 30
0.0
 40
15.0
 50
98.674172543
 51
107.318909456
  0
CIRCLE
  8
0
  6
CONTINUOUS
 62
     1
 10
1519.0
 20
840.0
 30
0.0
 40
3.0
  0
LINE
  8
0
  6
CONTINUOUS
 62
     1
 10
1516.021304702
 20
844.623567272
 30
0.0
 11
1515.978695298
 21
835.376432728
 31
0.0
  0
LINE
  8
0
  6
CONTINUOUS
 62
     1
 10
1522.021304702
 20
835.376432728
 30
0.0
 11
1521.978695298
 21
844.623567272
 31
0.0
  0
ARC
  8
0
  6
CONTINUOUS
 62
     1
 10
1519.0
 20
840.0
 30
0.0
 40
5.5
 50
304.570397879
 51
57.208673154
  0
ARC
  8
0
  6
CONTINUOUS
 62
     1
 10
1519.0
 20
840.0
 30
0.0
 40
5.5
 50
122.791326846
 51
235.429602121
  0
LINE
  8
0
  6
CONTINUOUS
 62
     1
 10
1473.65
 20
792.929680602
 30
0.0
 11
1471.3
 21
797.0
 31
0.0
  0
LINE
  8
0
  6
CONTINUOUS
 62
     1
 10
1471.3
 20
797.0
 30
0.0
 11
1473.65
 21
801.070319398
 31
0.0
  0
LINE
  8
0
  6
CONTINUOUS
 62
     1
 10
1473.65
 20
801.070319398
 30
0.0
 11
1478.35
 21
801.070319398
 31
0.0
  0
LINE
  8
0
  6
CONTINUOUS
 62
     1
 10
1478.35
 20
801.070319398
 30
0.0
 11
1480.7
 21
797.0
 31
0.0
  0
LINE
  8
0
  6
CONTINUOUS
 62
     1
 10
1480.7
 20
797.0
 30
0.0
 11
1478.35
 21
792.929680602
 31
0.0
  0
LINE
  8
0
  6
CONTINUOUS
 62
     2
 10
1482.0
 20
797.0
 30
0.0
 11
1470.0
 21
797.0
 31
0.0
  0
LINE
  8
0
  6
CONTINUOUS
 62
     1
 10
1471.063655198
 20
842.85
 30
0.0
 11
1471.063655198
 21
837.15
 31
0.0
  0
LINE
  8
0
  6
CONTINUOUS
 62
     1
 10
1471.063655198
 20
837.15
 30
0.0
 11
1476.0
 21
834.3
 31
0.0
  0
LINE
  8
0
  6
CONTINUOUS
 62
     1
 10
1476.0
 20
834.3
 30
0.0
 11
1480.936344802
 21
837.15
 31
0.0
  0
LINE
  8
0
  6
CONTINUOUS
 62
     1
 10
1480.936344802
 20
837.15
 30
0.0
 11
1480.936344802
 21
842.85
 31
0.0
  0
LINE
  8
0
  6
CONTINUOUS
 62
     1
 10
1480.936344802
 20
842.85
 30
0.0
 11
1476.0
 21
845.7
 31
0.0
  0
LINE
  8
0
  6
CONTINUOUS
 62
     1
 10
1476.0
 20
845.7
 30
0.0
 11
1471.063655198
 21
842.85
 31
0.0
  0
CIRCLE
  8
0
  6
CONTINUOUS
 62
     1
 10
1476.0
 20
840.0
 30
0.0
 40
6.5
  0
LINE
  8
0
  6
LTYPE3
 62
     2
 10
1432.5
 20
778.0
 30
0.0
 11
1517.5
 21
778.0
 31
0.0
  0
LINE
  8
0
  6
LTYPE2
 62
     2
 10
1526.0
 20
790.0
 30
0.0
 11
1542.0
 21
774.0
 31
0.0
  0
LINE
  8
0
  6
CONTINUOUS
 62
     1
 10
1529.336309448
 20
773.003436514
 30
0.0
 11
1539.336309448
 21
773.003436514
 31
0.0
  0
LINE
  8
0
  6
CONTINUOUS
 62
     1
 10
1539.336309448
 20
773.003436514
 30
0.0
 11
1544.336309448
 21
781.663690552
 31
0.0
  0
LINE
  8
0
  6
CONTINUOUS
 62
     1
 10
1544.336309448
 20
781.663690552
 30
0.0
 11
1539.336309448
 21
790.32394459
 31
0.0
  0
LINE
  8
0
  6
CONTINUOUS
 62
     1
 10
1539.336309448
 20
790.32394459
 30
0.0
 11
1529.336309448
 21
790.32394459
 31
0.0
  0
LINE
  8
0
  6
CONTINUOUS
 62
     1
 10
1529.336309448
 20
790.32394459
 30
0.0
 11
1524.336309448
 21
781.663690552
 31
0.0
  0
LINE
  8
0
  6
CONTINUOUS
 62
     1
 10
1524.336309448
 20
781.663690552
 30
0.0
 11
1529.336309448
 21
773.003436514
 31
0.0
  0
ARC
  8
0
  6
LTYPE2
 62
     2
 10
1476.0
 20
840.0
 30
0.0
 40
82.5
 50
300.927939213
 51
327.087998905
  0
LINE
  8
0
  6
CONTINUOUS
 62
     2
 10
1660.222218677
 20
840.0
 30
0.0
 11
1656.986980613
 21
827.925927171
 31
0.0
  0
LINE
  8
0
  6
CONTINUOUS
 62
     2
 10
1660.222218677
 20
840.0
 30
0.0
 11
1663.45745674
 21
827.925927171
 31
0.0
  0
LINE
  8
0
  6
CONTINUOUS
 62
     2
 10
1647.222218677
 20
840.0
 30
0.0
 11
1670.222218677
 21
840.0
 31
0.0
  0
LINE
  8
0
  6
CONTINUOUS
 62
     2
 10
1660.222218677
 20
840.0
 30
0.0
 11
1663.45745674
 21
852.074072829
 31
0.0
  0
LINE
  8
0
  6
CONTINUOUS
 62
     2
 10
1660.222218677
 20
840.0
 30
0.0
 11
1656.986980613
 21
852.074072829
 31
0.0
  0
LINE
  8
0
  6
CONTINUOUS
 62
     2
 10
1660.222218677
 20
685.0
 30
0.0
 11
1660.222218677
 21
840.0
 31
0.0
  0
LINE
  8
0
  6
CONTINUOUS
 62
     2
 10
1695.0
 20
977.0
 30
0.0
 11
1695.0
 21
574.0
 31
0.0
  0
TEXT
  8
0
  6
CONTINUOUS
 62
     3
 10
1655.222218677
 20
740.5
 30
0.0
 40
18.0
  1
１５５
 50
90.0
 41
0.9
 51
0.0
  7
KANJI34
  0
TEXT
  8
0
  6
CONTINUOUS
 62
     3
 10
1690.0
 20
753.5
 30
0.0
 40
18.0
  1
４０３
 50
90.0
 41
0.9
 51
0.0
  7
KANJI34
  0
LINE
  8
0
  6
CONTINUOUS
 62
     1
 10
1009.12
 20
1502.24
 30
0.0
 11
1786.72
 21
1502.24
 31
0.0
  0
LINE
  8
0
  6
CONTINUOUS
 62
     1
 10
1009.12
 20
1468.64
 30
0.0
 11
1786.72
 21
1468.64
 31
0.0
  0
TEXT
  8
0
  6
CONTINUOUS
 62
     2
 10
1057.12
 20
1478.24
 30
1.536
 40
15.36
  1
形
 50
0.0
 41
0.9
 51
0.0
  7
KANJI47
  0
TEXT
  8
0
  6
CONTINUOUS
 62
     2
 10
1150.72
 20
1478.24
 30
1.536
 40
15.36
  1
式
 50
0.0
 41
0.9
 51
0.0
  7
KANJI47
  0
TEXT
  8
0
  6
CONTINUOUS
 62
     2
 10
1223.2
 20
1477.28
 30
1.44
 40
14.4
  1
ストローク
 50
0.0
 41
0.9
 51
0.0
  7
KANJI48
  0
TEXT
  8
0
  6
CONTINUOUS
 62
     2
 10
1315.36
 20
1476.32
 30
0.0
 40
14.4
  1
ｍｉｎ　
 50
0.0
 41
0.9
 51
0.0
  7
KANJI49
  0
TEXT
  8
0
  6
CONTINUOUS
 62
     2
 10
1411.36
 20
1476.32
 30
0.0
 40
14.4
  1
ｍｉｎ　
 50
0.0
 41
0.9
 51
0.0
  7
KANJI49
  0
TEXT
  8
0
  6
CONTINUOUS
 62
     2
 10
1603.36
 20
1476.32
 30
0.0
 40
14.4
  1
ｍｉｎ　
 50
0.0
 41
0.9
 51
0.0
  7
KANJI49
  0
TEXT
  8
0
  6
CONTINUOUS
 62
     2
 10
1364.32
 20
1477.28
 30
1.68
 40
16.8
  1
ＡＬ
 50
0.0
 41
0.9
 51
0.0
  7
KANJI50
  0
TEXT
  8
0
  6
CONTINUOUS
 62
     2
 10
1460.32
 20
1477.28
 30
1.68
 40
16.8
  1
Ｌ
 50
0.0
 41
0.9
 51
0.0
  7
KANJI50
  0
TEXT
  8
0
  6
CONTINUOUS
 62
     2
 10
1541.92
 20
1477.28
 30
1.68
 40
16.8
  1
Ｃ
 50
0.0
 41
0.9
 51
0.0
  7
KANJI50
  0
TEXT
  8
0
  6
CONTINUOUS
 62
     2
 10
1652.32
 20
1477.28
 30
1.68
 40
16.8
  1
Ｐ
 50
0.0
 41
0.9
 51
0.0
  7
KANJI50
  0
TEXT
  8
0
  6
CONTINUOUS
 62
     2
 10
1751.08
 20
1476.92
 30
0.0
 40
12.96
  1
（ｋｇ）
 50
0.0
 41
0.740740741
 51
0.0
  7
KANJI51
  0
TEXT
  8
0
  6
CONTINUOUS
 62
     2
 10
1693.48
 20
1476.68
 30
1.44
 40
16.8
  1
概算重量
 50
0.0
 41
0.857142857
 51
0.0
  7
KANJI52
  0
LINE
  8
0
  6
CONTINUOUS
 62
     2
 10
1009.12
 20
1435.04
 30
0.0
 11
1786.72
 21
1435.04
 31
0.0
  0
LINE
  8
0
  6
CONTINUOUS
 62
     2
 10
1009.12
 20
1401.44
 30
0.0
 11
1786.72
 21
1401.44
 31
0.0
  0
TEXT
  8
0
  6
CONTINUOUS
 62
     2
 10
1232.32
 20
1443.08
 30
1.44
 40
14.4
  1
　２００
 50
0.0
 41
0.9
 51
0.0
  7
KANJI48
  0
TEXT
  8
0
  6
CONTINUOUS
 62
     2
 10
1232.32
 20
1409.48
 30
1.44
 40
14.4
  1
　３００
 50
0.0
 41
0.9
 51
0.0
  7
KANJI48
  0
TEXT
  8
0
  6
CONTINUOUS
 62
     2
 10
1232.32
 20
1275.08
 30
1.44
 40
14.4
  1
　７００
 50
0.0
 41
0.9
 51
0.0
  7
KANJI48
  0
LINE
  8
0
  6
CONTINUOUS
 62
     2
 10
1009.12
 20
1233.44
 30
0.0
 11
1786.72
 21
1233.44
 31
0.0
  0
LINE
  8
0
  6
CONTINUOUS
 62
     2
 10
1009.12
 20
1334.24
 30
0.0
 11
1786.72
 21
1334.24
 31
0.0
  0
LINE
  8
0
  6
CONTINUOUS
 62
     2
 10
1009.12
 20
1367.84
 30
0.0
 11
1786.72
 21
1367.84
 31
0.0
  0
LINE
  8
0
  6
CONTINUOUS
 62
     2
 10
1009.12
 20
1267.04
 30
0.0
 11
1786.72
 21
1267.04
 31
0.0
  0
LINE
  8
0
  6
CONTINUOUS
 62
     2
 10
1009.12
 20
1300.64
 30
0.0
 11
1786.72
 21
1300.64
 31
0.0
  0
TEXT
  8
0
  6
CONTINUOUS
 62
     2
 10
1232.32
 20
1342.28
 30
1.44
 40
14.4
  1
　５００
 50
0.0
 41
0.9
 51
0.0
  7
KANJI48
  0
TEXT
  8
0
  6
CONTINUOUS
 62
     2
 10
1232.32
 20
1375.88
 30
1.44
 40
14.4
  1
　４００
 50
0.0
 41
0.9
 51
0.0
  7
KANJI48
  0
TEXT
  8
0
  6
CONTINUOUS
 62
     2
 10
1232.32
 20
1308.68
 30
1.44
 40
14.4
  1
　６００
 50
0.0
 41
0.9
 51
0.0
  7
KANJI48
  0
TEXT
  8
0
  6
CONTINUOUS
 62
     2
 10
1232.32
 20
1241.48
 30
1.44
 40
14.4
  1
　８００
 50
0.0
 41
0.9
 51
0.0
  7
KANJI48
  0
TEXT
  8
0
  6
CONTINUOUS
 62
     2
 10
1616.32
 20
1443.08
 30
1.44
 40
14.4
  1
　　４５
 50
0.0
 41
0.9
 51
0.0
  7
KANJI48
  0
TEXT
  8
0
  6
CONTINUOUS
 62
     2
 10
1616.32
 20
1409.48
 30
1.44
 40
14.4
  1
　　４５
 50
0.0
 41
0.9
 51
0.0
  7
KANJI48
  0
TEXT
  8
0
  6
CONTINUOUS
 62
     2
 10
1520.32
 20
1443.08
 30
1.44
 40
14.4
  1
　３７８
 50
0.0
 41
0.9
 51
0.0
  7
KANJI48
  0
TEXT
  8
0
  6
CONTINUOUS
 62
     2
 10
1520.32
 20
1409.48
 30
1.44
 40
14.4
  1
　４７８
 50
0.0
 41
0.9
 51
0.0
  7
KANJI48
  0
TEXT
  8
0
  6
CONTINUOUS
 62
     2
 10
1520.32
 20
1375.88
 30
1.44
 40
14.4
  1
　５７８
 50
0.0
 41
0.9
 51
0.0
  7
KANJI48
  0
TEXT
  8
0
  6
CONTINUOUS
 62
     2
 10
1520.32
 20
1342.28
 30
1.44
 40
14.4
  1
　６７８
 50
0.0
 41
0.9
 51
0.0
  7
KANJI48
  0
TEXT
  8
0
  6
CONTINUOUS
 62
     2
 10
1520.32
 20
1308.68
 30
1.44
 40
14.4
  1
　８１８
 50
0.0
 41
0.9
 51
0.0
  7
KANJI48
  0
TEXT
  8
0
  6
CONTINUOUS
 62
     2
 10
1520.32
 20
1275.08
 30
1.44
 40
14.4
  1
　９１８
 50
0.0
 41
0.9
 51
0.0
  7
KANJI48
  0
TEXT
  8
0
  6
CONTINUOUS
 62
     2
 10
1520.32
 20
1241.48
 30
1.44
 40
14.4
  1
１０１８
 50
0.0
 41
0.9
 51
0.0
  7
KANJI48
  0
TEXT
  8
0
  6
CONTINUOUS
 62
     2
 10
1424.32
 20
1443.08
 30
1.44
 40
14.4
  1
　４７３
 50
0.0
 41
0.9
 51
0.0
  7
KANJI48
  0
TEXT
  8
0
  6
CONTINUOUS
 62
     2
 10
1424.32
 20
1409.48
 30
1.44
 40
14.4
  1
　５７３
 50
0.0
 41
0.9
 51
0.0
  7
KANJI48
  0
TEXT
  8
0
  6
CONTINUOUS
 62
     2
 10
1328.32
 20
1443.08
 30
1.44
 40
14.4
  1
　６１９
 50
0.0
 41
0.9
 51
0.0
  7
KANJI48
  0
TEXT
  8
0
  6
CONTINUOUS
 62
     2
 10
1328.32
 20
1409.48
 30
1.44
 40
14.4
  1
　７１９
 50
0.0
 41
0.9
 51
0.0
  7
KANJI48
  0
TEXT
  8
0
  6
CONTINUOUS
 62
     2
 10
1616.32
 20
1375.88
 30
1.44
 40
14.4
  1
　　８５
 50
0.0
 41
0.9
 51
0.0
  7
KANJI48
  0
TEXT
  8
0
  6
CONTINUOUS
 62
     2
 10
1616.32
 20
1342.28
 30
1.44
 40
14.4
  1
　１１２
 50
0.0
 41
0.9
 51
0.0
  7
KANJI48
  0
TEXT
  8
0
  6
CONTINUOUS
 62
     2
 10
1616.32
 20
1308.68
 30
1.44
 40
14.4
  1
　１２８
 50
0.0
 41
0.9
 51
0.0
  7
KANJI48
  0
TEXT
  8
0
  6
CONTINUOUS
 62
     2
 10
1616.32
 20
1275.08
 30
1.44
 40
14.4
  1
　１４８
 50
0.0
 41
0.9
 51
0.0
  7
KANJI48
  0
TEXT
  8
0
  6
CONTINUOUS
 62
     2
 10
1616.32
 20
1241.48
 30
1.44
 40
14.4
  1
　１６８
 50
0.0
 41
0.9
 51
0.0
  7
KANJI48
  0
TEXT
  8
0
  6
CONTINUOUS
 62
     2
 10
1424.32
 20
1375.88
 30
1.44
 40
14.4
  1
　７１３
 50
0.0
 41
0.9
 51
0.0
  7
KANJI48
  0
TEXT
  8
0
  6
CONTINUOUS
 62
     2
 10
1424.32
 20
1342.28
 30
1.44
 40
14.4
  1
　８４０
 50
0.0
 41
0.9
 51
0.0
  7
KANJI48
  0
TEXT
  8
0
  6
CONTINUOUS
 62
     2
 10
1424.32
 20
1308.68
 30
1.44
 40
14.4
  1
　９９６
 50
0.0
 41
0.9
 51
0.0
  7
KANJI48
  0
TEXT
  8
0
  6
CONTINUOUS
 62
     2
 10
1424.32
 20
1275.08
 30
1.44
 40
14.4
  1
１１１６
 50
0.0
 41
0.9
 51
0.0
  7
KANJI48
  0
TEXT
  8
0
  6
CONTINUOUS
 62
     2
 10
1424.32
 20
1241.48
 30
1.44
 40
14.4
  1
１２３６
 50
0.0
 41
0.9
 51
0.0
  7
KANJI48
  0
TEXT
  8
0
  6
CONTINUOUS
 62
     2
 10
1328.32
 20
1375.88
 30
1.44
 40
14.4
  1
　８５９
 50
0.0
 41
0.9
 51
0.0
  7
KANJI48
  0
TEXT
  8
0
  6
CONTINUOUS
 62
     2
 10
1328.32
 20
1342.28
 30
1.44
 40
14.4
  1
　９８６
 50
0.0
 41
0.9
 51
0.0
  7
KANJI48
  0
TEXT
  8
0
  6
CONTINUOUS
 62
     2
 10
1328.32
 20
1308.68
 30
1.44
 40
14.4
  1
１１４２
 50
0.0
 41
0.9
 51
0.0
  7
KANJI48
  0
TEXT
  8
0
  6
CONTINUOUS
 62
     2
 10
1328.32
 20
1275.08
 30
1.44
 40
14.4
  1
１２６２
 50
0.0
 41
0.9
 51
0.0
  7
KANJI48
  0
TEXT
  8
0
  6
CONTINUOUS
 62
     2
 10
1328.32
 20
1241.48
 30
1.44
 40
14.4
  1
１３８２
 50
0.0
 41
0.9
 51
0.0
  7
KANJI48
  0
LINE
  8
0
  6
CONTINUOUS
 62
     2
 10
1009.12
 20
1199.84
 30
0.0
 11
1786.72
 21
1199.84
 31
0.0
  0
LINE
  8
0
  6
CONTINUOUS
 62
     2
 10
1009.12
 20
1166.24
 30
0.0
 11
1786.72
 21
1166.24
 31
0.0
  0
TEXT
  8
0
  6
CONTINUOUS
 62
     2
 10
1232.32
 20
1207.88
 30
1.44
 40
14.4
  1
　９００
 50
0.0
 41
0.9
 51
0.0
  7
KANJI48
  0
TEXT
  8
0
  6
CONTINUOUS
 62
     2
 10
1232.32
 20
1174.28
 30
1.44
 40
14.4
  1
１０００
 50
0.0
 41
0.9
 51
0.0
  7
KANJI48
  0
TEXT
  8
0
  6
CONTINUOUS
 62
     2
 10
1328.32
 20
1207.88
 30
1.44
 40
14.4
  1
１５１２
 50
0.0
 41
0.9
 51
0.0
  7
KANJI48
  0
TEXT
  8
0
  6
CONTINUOUS
 62
     2
 10
1328.32
 20
1174.28
 30
1.44
 40
14.4
  1
１６４５
 50
0.0
 41
0.9
 51
0.0
  7
KANJI48
  0
TEXT
  8
0
  6
CONTINUOUS
 62
     2
 10
1424.32
 20
1207.88
 30
1.44
 40
14.4
  1
１３６６
 50
0.0
 41
0.9
 51
0.0
  7
KANJI48
  0
TEXT
  8
0
  6
CONTINUOUS
 62
     2
 10
1424.32
 20
1174.28
 30
1.44
 40
14.4
  1
１４９９
 50
0.0
 41
0.9
 51
0.0
  7
KANJI48
  0
TEXT
  8
0
  6
CONTINUOUS
 62
     2
 10
1520.32
 20
1207.88
 30
1.44
 40
14.4
  1
１１１８
 50
0.0
 41
0.9
 51
0.0
  7
KANJI48
  0
TEXT
  8
0
  6
CONTINUOUS
 62
     2
 10
1520.32
 20
1174.28
 30
1.44
 40
14.4
  1
１２１８
 50
0.0
 41
0.9
 51
0.0
  7
KANJI48
  0
TEXT
  8
0
  6
CONTINUOUS
 62
     2
 10
1616.32
 20
1207.88
 30
1.44
 40
14.4
  1
　１９８
 50
0.0
 41
0.9
 51
0.0
  7
KANJI48
  0
TEXT
  8
0
  6
CONTINUOUS
 62
     2
 10
1616.32
 20
1174.28
 30
1.44
 40
14.4
  1
　２３１
 50
0.0
 41
0.9
 51
0.0
  7
KANJI48
  0
LINE
  8
0
  6
CONTINUOUS
 62
     1
 10
1009.12
 20
1065.44
 30
0.0
 11
1786.72
 21
1065.44
 31
0.0
  0
LINE
  8
0
  6
CONTINUOUS
 62
     2
 10
1009.12
 20
1132.64
 30
0.0
 11
1786.72
 21
1132.64
 31
0.0
  0
LINE
  8
0
  6
CONTINUOUS
 62
     2
 10
1009.12
 20
1099.04
 30
0.0
 11
1786.72
 21
1099.04
 31
0.0
  0
LINE
  8
0
  6
CONTINUOUS
 62
     1
 10
1009.12
 20
1502.24
 30
0.0
 11
1009.12
 21
1065.44
 31
0.0
  0
LINE
  8
0
  6
CONTINUOUS
 62
     1
 10
1210.72
 20
1502.24
 30
0.0
 11
1210.72
 21
1065.44
 31
0.0
  0
LINE
  8
0
  6
CONTINUOUS
 62
     2
 10
1306.72
 20
1502.24
 30
0.0
 11
1306.72
 21
1065.44
 31
0.0
  0
LINE
  8
0
  6
CONTINUOUS
 62
     2
 10
1402.72
 20
1502.24
 30
0.0
 11
1402.72
 21
1065.44
 31
0.0
  0
LINE
  8
0
  6
CONTINUOUS
 62
     2
 10
1498.72
 20
1502.24
 30
0.0
 11
1498.72
 21
1065.44
 31
0.0
  0
LINE
  8
0
  6
CONTINUOUS
 62
     2
 10
1594.72
 20
1502.24
 30
0.0
 11
1594.72
 21
1065.44
 31
0.0
  0
LINE
  8
0
  6
CONTINUOUS
 62
     2
 10
1690.72
 20
1502.24
 30
0.0
 11
1690.72
 21
1065.44
 31
0.0
  0
LINE
  8
0
  6
CONTINUOUS
 62
     1
 10
1786.72
 20
1502.24
 30
0.0
 11
1786.72
 21
1065.44
 31
0.0
  0
TEXT
  8
0
  6
CONTINUOUS
 62
     2
 10
1232.32
 20
1140.68
 30
1.44
 40
14.4
  1
１１００
 50
0.0
 41
0.9
 51
0.0
  7
KANJI48
  0
TEXT
  8
0
  6
CONTINUOUS
 62
     2
 10
1232.32
 20
1107.08
 30
1.44
 40
14.4
  1
１２００
 50
0.0
 41
0.9
 51
0.0
  7
KANJI48
  0
TEXT
  8
0
  6
CONTINUOUS
 62
     2
 10
1616.32
 20
1140.68
 30
1.44
 40
14.4
  1
　２４５
 50
0.0
 41
0.9
 51
0.0
  7
KANJI48
  0
TEXT
  8
0
  6
CONTINUOUS
 62
     2
 10
1616.32
 20
1107.08
 30
1.44
 40
14.4
  1
　２６８
 50
0.0
 41
0.9
 51
0.0
  7
KANJI48
  0
TEXT
  8
0
  6
CONTINUOUS
 62
     2
 10
1520.32
 20
1140.68
 30
1.44
 40
14.4
  1
１３１８
 50
0.0
 41
0.9
 51
0.0
  7
KANJI48
  0
TEXT
  8
0
  6
CONTINUOUS
 62
     2
 10
1520.32
 20
1107.08
 30
1.44
 40
14.4
  1
１４１８
 50
0.0
 41
0.9
 51
0.0
  7
KANJI48
  0
TEXT
  8
0
  6
CONTINUOUS
 62
     2
 10
1424.32
 20
1140.68
 30
1.44
 40
14.4
  1
１６１３
 50
0.0
 41
0.9
 51
0.0
  7
KANJI48
  0
TEXT
  8
0
  6
CONTINUOUS
 62
     2
 10
1328.32
 20
1140.68
 30
1.44
 40
14.4
  1
１７５９
 50
0.0
 41
0.9
 51
0.0
  7
KANJI48
  0
TEXT
  8
0
  6
CONTINUOUS
 62
     2
 10
1424.32
 20
1107.08
 30
1.44
 40
14.4
  1
１７３６
 50
0.0
 41
0.9
 51
0.0
  7
KANJI48
  0
TEXT
  8
0
  6
CONTINUOUS
 62
     2
 10
1328.32
 20
1107.08
 30
1.44
 40
14.4
  1
１８８２
 50
0.0
 41
0.9
 51
0.0
  7
KANJI48
  0
TEXT
  8
0
  6
CONTINUOUS
 62
     2
 10
1024.72
 20
1442.72
 30
0.96
 40
14.4
  1
ＭＣＬＤ１－　　２ＪＬ
 50
0.0
 41
0.833333333
 51
0.0
  7
KANJI53
  0
TEXT
  8
0
  6
CONTINUOUS
 62
     2
 10
1024.72
 20
1409.12
 30
0.96
 40
14.4
  1
ＭＣＬＤ１－　　３ＪＬ
 50
0.0
 41
0.833333333
 51
0.0
  7
KANJI53
  0
TEXT
  8
0
  6
CONTINUOUS
 62
     2
 10
1024.72
 20
1375.52
 30
0.96
 40
14.4
  1
ＭＣＬＤ１－　　４ＪＬ
 50
0.0
 41
0.833333333
 51
0.0
  7
KANJI53
  0
TEXT
  8
0
  6
CONTINUOUS
 62
     2
 10
1024.72
 20
1341.92
 30
0.96
 40
14.4
  1
ＭＣＬＤ１－　　５ＪＬ
 50
0.0
 41
0.833333333
 51
0.0
  7
KANJI53
  0
TEXT
  8
0
  6
CONTINUOUS
 62
     2
 10
1024.72
 20
1308.32
 30
0.96
 40
14.4
  1
ＭＣＬＤ１－　　６ＪＬ
 50
0.0
 41
0.833333333
 51
0.0
  7
KANJI53
  0
TEXT
  8
0
  6
CONTINUOUS
 62
     2
 10
1024.72
 20
1274.72
 30
0.96
 40
14.4
  1
ＭＣＬＤ１－　　７ＪＬ
 50
0.0
 41
0.833333333
 51
0.0
  7
KANJI53
  0
TEXT
  8
0
  6
CONTINUOUS
 62
     2
 10
1024.72
 20
1241.12
 30
0.96
 40
14.4
  1
ＭＣＬＤ１－　　８ＪＬ
 50
0.0
 41
0.833333333
 51
0.0
  7
KANJI53
  0
TEXT
  8
0
  6
CONTINUOUS
 62
     2
 10
1024.72
 20
1207.52
 30
0.96
 40
14.4
  1
ＭＣＬＤ１－　　９ＪＬ
 50
0.0
 41
0.833333333
 51
0.0
  7
KANJI53
  0
TEXT
  8
0
  6
CONTINUOUS
 62
     2
 10
1024.72
 20
1173.92
 30
0.96
 40
14.4
  1
ＭＣＬＤ１－　１０ＪＬ
 50
0.0
 41
0.833333333
 51
0.0
  7
KANJI53
  0
TEXT
  8
0
  6
CONTINUOUS
 62
     2
 10
1024.72
 20
1140.32
 30
0.96
 40
14.4
  1
ＭＣＬＤ１－　１１ＪＬ
 50
0.0
 41
0.833333333
 51
0.0
  7
KANJI53
  0
TEXT
  8
0
  6
CONTINUOUS
 62
     2
 10
1024.72
 20
1106.72
 30
0.96
 40
14.4
  1
ＭＣＬＤ１－　１２ＪＬ
 50
0.0
 41
0.833333333
 51
0.0
  7
KANJI53
  0
TEXT
  8
0
  6
CONTINUOUS
 62
     2
 10
1024.72
 20
1073.12
 30
0.96
 40
14.4
  1
ＭＣＬＤ１－　　　ＪＬ
 50
0.0
 41
0.833333333
 51
0.0
  7
KANJI53
  0
TEXT
  8
0
  6
CONTINUOUS
 62
     2
 10
1712.32
 20
1443.08
 30
1.44
 40
14.4
  1
　５８
 50
0.0
 41
0.9
 51
0.0
  7
KANJI48
  0
TEXT
  8
0
  6
CONTINUOUS
 62
     2
 10
1712.32
 20
1409.48
 30
1.44
 40
14.4
  1
　６０
 50
0.0
 41
0.9
 51
0.0
  7
KANJI48
  0
TEXT
  8
0
  6
CONTINUOUS
 62
     2
 10
1712.32
 20
1375.88
 30
1.44
 40
14.4
  1
　６１
 50
0.0
 41
0.9
 51
0.0
  7
KANJI48
  0
TEXT
  8
0
  6
CONTINUOUS
 62
     2
 10
1712.32
 20
1342.28
 30
1.44
 40
14.4
  1
　６２
 50
0.0
 41
0.9
 51
0.0
  7
KANJI48
  0
TEXT
  8
0
  6
CONTINUOUS
 62
     2
 10
1712.32
 20
1308.68
 30
1.44
 40
14.4
  1
　６４
 50
0.0
 41
0.9
 51
0.0
  7
KANJI48
  0
TEXT
  8
0
  6
CONTINUOUS
 62
     2
 10
1712.32
 20
1275.08
 30
1.44
 40
14.4
  1
　６７
 50
0.0
 41
0.9
 51
0.0
  7
KANJI48
  0
TEXT
  8
0
  6
CONTINUOUS
 62
     2
 10
1712.32
 20
1241.48
 30
1.44
 40
14.4
  1
　６９
 50
0.0
 41
0.9
 51
0.0
  7
KANJI48
  0
TEXT
  8
0
  6
CONTINUOUS
 62
     2
 10
1712.32
 20
1207.88
 30
1.44
 40
14.4
  1
　７１
 50
0.0
 41
0.9
 51
0.0
  7
KANJI48
  0
TEXT
  8
0
  6
CONTINUOUS
 62
     2
 10
1712.32
 20
1174.28
 30
1.44
 40
14.4
  1
　７２
 50
0.0
 41
0.9
 51
0.0
  7
KANJI48
  0
TEXT
  8
0
  6
CONTINUOUS
 62
     2
 10
1712.32
 20
1140.68
 30
1.44
 40
14.4
  1
　７４
 50
0.0
 41
0.9
 51
0.0
  7
KANJI48
  0
TEXT
  8
0
  6
CONTINUOUS
 62
     2
 10
1712.32
 20
1107.08
 30
1.44
 40
14.4
  1
　７６
 50
0.0
 41
0.9
 51
0.0
  7
KANJI48
  0
LINE
  8
0
  6
CONTINUOUS
 62
     2
 10
449.6
 20
251.6
 30
0.0
 11
449.6
 21
196.2
 31
0.0
  0
LINE
  8
0
  6
CONTINUOUS
 62
     2
 10
290.4
 20
238.2
 30
0.0
 11
449.6
 21
238.2
 31
0.0
  0
LINE
  8
0
  6
CONTINUOUS
 62
     2
 10
449.6
 20
238.2
 30
0.0
 11
441.87259339
 21
240.270552361
 31
0.0
  0
LINE
  8
0
  6
CONTINUOUS
 62
     2
 10
449.6
 20
238.2
 30
0.0
 11
441.87259339
 21
236.129447639
 31
0.0
  0
TEXT
  8
0
  6
CONTINUOUS
 62
     3
 10
327.65
 20
240.2
 30
0.0
 40
15.0
  1
常用ストローク
 50
0.0
 41
0.9
 51
0.0
  7
KANJI39
  0
LINE
  8
0
  6
CONTINUOUS
 62
     2
 10
1365.917964258
 20
785.164647586
 30
0.0
 11
1334.849982657
 21
859.326926248
 31
0.0
  0
LINE
  8
0
  6
CONTINUOUS
 62
     2
 10
1365.917964258
 20
785.164647586
 30
0.0
 11
1359.798588841
 21
793.073708498
 31
0.0
  0
LINE
  8
0
  6
CONTINUOUS
 62
     2
 10
1365.917964258
 20
785.164647586
 30
0.0
 11
1364.572960148
 21
795.073782965
 31
0.0
  0
LINE
  8
0
  6
CONTINUOUS
 62
     1
 10
1448.0
 20
744.0
 30
0.0
 11
1422.0
 21
744.0
 31
0.0
  0
LINE
  8
0
  6
CONTINUOUS
 62
     1
 10
1504.0
 20
744.0
 30
0.0
 11
1530.0
 21
744.0
 31
0.0
  0
LINE
  8
0
  6
LTYPE1
 62
     2
 10
1417.0
 20
708.525046491
 30
0.0
 11
1417.0
 21
733.569700758
 31
0.0
  0
ARC
  8
0
  6
CONTINUOUS
 62
     1
 10
1422.0
 20
739.0
 30
0.0
 40
5.0
 50
90.0
 51
179.999825149
  0
LINE
  8
0
  6
CONTINUOUS
 62
     1
 10
1417.0
 20
733.719700758
 30
0.0
 11
1417.0
 21
739.000015259
 31
0.0
  0
ARC
  8
0
  6
CONTINUOUS
 62
     1
 10
1476.0
 20
840.0
 30
0.0
 40
100.0
 50
216.258601414
 51
283.897176315
  0
LINE
  8
0
  6
CONTINUOUS
 62
     1
 10
1478.35
 20
792.929680602
 30
0.0
 11
1473.65
 21
792.929680602
 31
0.0
  0
LINE
  8
0
  6
LTYPE2
 62
     2
 10
1426.0
 20
790.0
 30
0.0
 11
1410.0
 21
774.0
 31
0.0
  0
LINE
  8
0
  6
CONTINUOUS
 62
     1
 10
1422.663690552
 20
773.003436514
 30
0.0
 11
1412.663690552
 21
773.003436514
 31
0.0
  0
LINE
  8
0
  6
CONTINUOUS
 62
     1
 10
1412.663690552
 20
773.003436514
 30
0.0
 11
1407.663690552
 21
781.663690552
 31
0.0
  0
LINE
  8
0
  6
CONTINUOUS
 62
     1
 10
1407.663690552
 20
781.663690552
 30
0.0
 11
1412.663690552
 21
790.32394459
 31
0.0
  0
LINE
  8
0
  6
CONTINUOUS
 62
     1
 10
1412.663690552
 20
790.32394459
 30
0.0
 11
1422.663690552
 21
790.32394459
 31
0.0
  0
LINE
  8
0
  6
CONTINUOUS
 62
     1
 10
1422.663690552
 20
790.32394459
 30
0.0
 11
1427.663690552
 21
781.663690552
 31
0.0
  0
LINE
  8
0
  6
CONTINUOUS
 62
     1
 10
1427.663690552
 20
781.663690552
 30
0.0
 11
1422.663690552
 21
773.003436514
 31
0.0
  0
ARC
  8
0
  6
LTYPE2
 62
     2
 10
1476.0
 20
840.0
 30
0.0
 40
82.5
 50
212.912001095
 51
239.072060787
  0
LINE
  8
0
  6
LTYPE1
 62
     2
 10
1399.0
 20
706.360720927
 30
0.0
 11
1399.0
 21
741.866754132
 31
0.0
  0
LINE
  8
0
  6
CONTINUOUS
 62
     1
 10
1553.0
 20
706.360720927
 30
0.0
 11
1553.0
 21
776.195611436
 31
0.0
  0
LINE
  8
0
  6
CONTINUOUS
 62
     1
 10
1399.0
 20
741.866754132
 30
0.0
 11
1399.0
 21
776.195611436
 31
0.0
  0
LINE
  8
0
  6
CONTINUOUS
 62
     1
 10
1396.0
 20
664.0
 30
0.0
 11
1396.0
 21
670.4706228
 31
0.0
  0
LINE
  8
0
  6
LTYPE1
 62
     2
 10
1396.0
 20
670.4706228
 30
0.0
 11
1396.0
 21
706.0
 31
0.0
  0
LINE
  8
0
  6
CONTINUOUS
 62
     1
 10
1414.511406082
 20
735.639933037
 30
0.0
 11
1414.042999876
 21
733.891817276
 31
0.0
  0
ARC
  8
0
  6
CONTINUOUS
 62
     1
 10
1412.57955443
 20
736.157571128
 30
0.0
 40
2.0
 50
345.0
 51
75.0
  0
LINE
  8
0
  6
CONTINUOUS
 62
     1
 10
1417.0
 20
661.474953509
 30
0.0
 11
1417.0
 21
631.0
 31
0.0
  0
LINE
  8
0
  6
CONTINUOUS
 62
     1
 10
1431.0
 20
625.5
 30
0.0
 11
1431.0
 21
646.329180819
 31
0.0
  0
ARC
  8
0
  6
CONTINUOUS
 62
     1
 10
1429.0
 20
638.0
 30
0.0
 40
9.0
 50
89.822118161
 51
282.116861929
  0
LINE
  8
0
  6
CONTINUOUS
 62
     1
 10
1427.613286394
 20
649.307200356
 30
0.0
 11
1429.36453568
 21
655.842951665
 31
0.0
  0
LINE
  8
0
  6
LTYPE3
 62
     2
 10
1429.0
 20
720.665527109
 30
0.0
 11
1429.0
 21
742.765527109
 31
0.0
  0
LINE
  8
7
  6
CONTINUOUS
 62
     2
 10
1348.9
 20
810.429835768
 30
0.0
 11
1201.283705995
 21
810.429835768
 31
0.0
  0
TEXT
  8
2
  6
CONTINUOUS
 62
     2
 10
1237.828145063
 20
863.326926248
 30
0.0
 40
15.0
  1
２－ＰＦ１／２
 50
0.0
 41
0.9
 51
0.0
  7
KANJI39
  0
LINE
  8
2
  6
CONTINUOUS
 62
     2
 10
1334.849982657
 20
859.326926248
 30
0.0
 11
1235.917964258
 21
859.326926248
 31
0.0
  0
LINE
  8
0
  6
CONTINUOUS
 62
     1
 10
1436.3
 20
574.0
 30
0.0
 11
1425.7
 21
574.0
 31
0.0
  0
ARC
  8
0
  6
CONTINUOUS
 62
     1
 10
1431.4
 20
575.0
 30
0.0
 40
5.0
 50
272.3
 51
348.5
  0
ARC
  8
0
  6
CONTINUOUS
 62
     1
 10
1430.6
 20
575.0
 30
0.0
 40
5.0
 50
191.5
 51
267.7
  0
LINE
  8
0
  6
CONTINUOUS
 62
     1
 10
1431.6
 20
570.0
 30
0.0
 11
1430.4
 21
570.0
 31
0.0
  0
LINE
  8
0
  6
LTYPE4
 62
     2
 10
1431.0
 20
566.6
 30
0.0
 11
1431.0
 21
580.0
 31
0.0
  0
LINE
  8
0
  6
CONTINUOUS
 62
     1
 10
1526.3
 20
574.0
 30
0.0
 11
1515.7
 21
574.0
 31
0.0
  0
ARC
  8
0
  6
CONTINUOUS
 62
     1
 10
1521.4
 20
575.0
 30
0.0
 40
5.0
 50
272.3
 51
348.5
  0
ARC
  8
0
  6
CONTINUOUS
 62
     1
 10
1520.6
 20
575.0
 30
0.0
 40
5.0
 50
191.5
 51
267.7
  0
LINE
  8
0
  6
CONTINUOUS
 62
     1
 10
1521.6
 20
570.0
 30
0.0
 11
1520.4
 21
570.0
 31
0.0
  0
LINE
  8
0
  6
LTYPE4
 62
     2
 10
1521.0
 20
566.6
 30
0.0
 11
1521.0
 21
580.0
 31
0.0
  0
LINE
  8
0
  6
CONTINUOUS
 62
     1
 10
930.182501379
 20
254.1
 30
0.0
 11
930.182501379
 21
235.0
 31
0.0
  0
LINE
  8
0
  6
CONTINUOUS
 62
     2
 10
1624.722218677
 20
840.0
 30
0.0
 11
1670.222218677
 21
840.0
 31
0.0
  0
TEXT
  8
0
  6
CONTINUOUS
 62
     2
 10
1643.5200334
 20
137.899994
 30
1.8
 40
21.0
  1
０７．１０．０２
 50
0.0
 41
0.571428571
 51
0.0
  7
KANJI54
  0
LINE
  8
0
  6
CONTINUOUS
 62
     2
 10
1868.92
 20
907.7
 30
0.0
 11
2393.92
 21
907.7
 31
0.0
  0
LINE
  8
0
  6
CONTINUOUS
 62
     2
 10
1868.92
 20
865.7
 30
0.0
 11
2393.92
 21
865.7
 31
0.0
  0
LINE
  8
0
  6
CONTINUOUS
 62
     2
 10
1916.92
 20
1243.7
 30
0.0
 11
1916.92
 21
907.7
 31
0.0
  0
TEXT
  8
0
  6
CONTINUOUS
 62
     2
 10
1901.92
 20
876.5
 30
79.962857143
 40
22.8
  1
付属品
 50
0.0
 41
0.9
 51
0.0
  7
KANJI55
  0
TEXT
  8
0
  6
CONTINUOUS
 62
     2
 10
1901.92
 20
834.5
 30
180.445714286
 40
22.8
  1
台数
 50
0.0
 41
0.9
 51
0.0
  7
KANJI56
  0
LINE
  8
0
  6
CONTINUOUS
 62
     1
 10
1868.92
 20
1639.7
 30
0.0
 11
2393.92
 21
1639.7
 31
0.0
  0
TEXT
  8
0
  6
CONTINUOUS
 62
     2
 10
1943.92
 20
1595.9
 30
17.09964
 40
27.0
  1
マイティシリンダ仕様
 50
0.0
 41
0.9
 51
0.0
  7
KANJI57
  0
LINE
  8
0
  6
CONTINUOUS
 62
     2
 10
1916.92
 20
949.7
 30
0.0
 11
2393.92
 21
949.7
 31
0.0
  0
LINE
  8
0
  6
CONTINUOUS
 62
     2
 10
1916.92
 20
1075.7
 30
0.0
 11
2393.92
 21
1075.7
 31
0.0
  0
LINE
  8
0
  6
CONTINUOUS
 62
     2
 10
1916.92
 20
1117.7
 30
0.0
 11
2393.92
 21
1117.7
 31
0.0
  0
LINE
  8
0
  6
CONTINUOUS
 62
     2
 10
1868.92
 20
1327.7
 30
0.0
 11
2393.92
 21
1327.7
 31
0.0
  0
LINE
  8
0
  6
CONTINUOUS
 62
     2
 10
1868.92
 20
1285.7
 30
0.0
 11
2393.92
 21
1285.7
 31
0.0
  0
LINE
  8
0
  6
CONTINUOUS
 62
     2
 10
1868.92
 20
1243.7
 30
0.0
 11
2393.92
 21
1243.7
 31
0.0
  0
LINE
  8
0
  6
CONTINUOUS
 62
     2
 10
1916.92
 20
1159.7
 30
0.0
 11
2393.92
 21
1159.7
 31
0.0
  0
LINE
  8
0
  6
CONTINUOUS
 62
     2
 10
1916.92
 20
1201.7
 30
0.0
 11
2393.92
 21
1201.7
 31
0.0
  0
LINE
  8
0
  6
CONTINUOUS
 62
     2
 10
1868.92
 20
1537.7
 30
0.0
 11
2393.92
 21
1537.7
 31
0.0
  0
LINE
  8
0
  6
CONTINUOUS
 62
     2
 10
1868.92
 20
1495.7
 30
0.0
 11
2393.92
 21
1495.7
 31
0.0
  0
LINE
  8
0
  6
CONTINUOUS
 62
     2
 10
1868.92
 20
1453.7
 30
0.0
 11
2393.92
 21
1453.7
 31
0.0
  0
LINE
  8
0
  6
CONTINUOUS
 62
     2
 10
1868.92
 20
1411.7
 30
0.0
 11
2393.92
 21
1411.7
 31
0.0
  0
LINE
  8
0
  6
CONTINUOUS
 62
     2
 10
1868.92
 20
1369.7
 30
0.0
 11
2393.92
 21
1369.7
 31
0.0
  0
LINE
  8
0
  6
CONTINUOUS
 62
     2
 10
1868.92
 20
1579.7
 30
0.0
 11
2393.92
 21
1579.7
 31
0.0
  0
TEXT
  8
0
  6
CONTINUOUS
 62
     2
 10
1943.92
 20
1170.5
 30
33.439782857
 40
22.8
  1
電源電圧
 50
0.0
 41
0.9
 51
0.0
  7
KANJI58
  0
TEXT
  8
0
  6
CONTINUOUS
 62
     2
 10
1943.92
 20
1128.5
 30
60.42
 40
22.8
  1
周波数
 50
0.0
 41
0.9
 51
0.0
  7
KANJI59
  0
TEXT
  8
0
  6
CONTINUOUS
 62
     2
 10
1943.92
 20
1086.5
 30
141.36
 40
22.8
  1
電流
 50
0.0
 41
0.9
 51
0.0
  7
KANJI60
  0
TEXT
  8
0
  6
CONTINUOUS
 62
     2
 10
1943.92
 20
1044.5
 30
60.42
 40
22.8
  1
絶縁級
 50
0.0
 41
0.9
 51
0.0
  7
KANJI59
  0
TEXT
  8
0
  6
CONTINUOUS
 62
     2
 10
1901.92
 20
1548.5
 30
180.445714286
 40
22.8
  1
形式
 50
0.0
 41
0.9
 51
0.0
  7
KANJI56
  0
TEXT
  8
0
  6
CONTINUOUS
 62
     2
 10
1901.92
 20
1506.5
 30
180.445714286
 40
22.8
  1
推力
 50
0.0
 41
0.9
 51
0.0
  7
KANJI56
  0
TEXT
  8
0
  6
CONTINUOUS
 62
     2
 10
1901.92
 20
1464.5
 30
29.721428571
 40
22.8
  1
ストローク
 50
0.0
 41
0.9
 51
0.0
  7
KANJI61
  0
TEXT
  8
0
  6
CONTINUOUS
 62
     2
 10
1901.92
 20
1338.5
 30
180.445714286
 40
22.8
  1
構造
 50
0.0
 41
0.9
 51
0.0
  7
KANJI56
  0
TEXT
  8
0
  6
CONTINUOUS
 62
     2
 10
1901.92
 20
1296.5
 30
12.973851429
 40
22.8
  1
過負荷安全装置
 50
0.0
 41
0.9
 51
0.0
  7
KANJI62
  0
TEXT
  8
0
  6
CONTINUOUS
 62
     2
 10
1901.92
 20
1254.5
 30
79.962857143
 40
22.8
  1
塗装色
 50
0.0
 41
0.9
 51
0.0
  7
KANJI55
  0
TEXT
  8
0
  6
CONTINUOUS
 62
     2
 10
1877.92
 20
1380.5
 30
1.954285714
 40
22.8
  1
ピストンロッド回転トルク
 50
0.0
 41
0.9
 51
0.0
  7
KANJI63
  0
LINE
  8
0
  6
CONTINUOUS
 62
     2
 10
1868.92
 20
1033.7
 30
0.0
 11
2393.92
 21
1033.7
 31
0.0
  0
LINE
  8
0
  6
CONTINUOUS
 62
     2
 10
1916.92
 20
991.7
 30
0.0
 11
2393.92
 21
991.7
 31
0.0
  0
TEXT
  8
0
  6
CONTINUOUS
 62
     2
 10
1893.37
 20
1237.7
 30
13.2
 40
21.0
  1
モ　トル仕様
 50
0.0
 41
0.9
 51
0.0
  7
KANJI64
  0
TEXT
  8
0
  6
CONTINUOUS
 62
     2
 10
1893.37
 20
1015.7
 30
1.2
 40
21.0
  1
ブレ　キ
 50
0.0
 41
0.9
 51
0.0
  7
KANJI65
  0
LINE
  8
0
  6
CONTINUOUS
 62
     2
 10
1891.72
 20
965.9
 30
0.0
 11
1891.72
 21
953.3
 31
0.0
  0
TEXT
  8
0
  6
CONTINUOUS
 62
     2
 10
2203.42
 20
1297.7
 30
9.0
 40
21.0
  1
推力リミッタ
 50
0.0
 41
0.9
 51
0.0
  7
KANJI66
  0
TEXT
  8
0
  6
CONTINUOUS
 62
     2
 10
2260.42
 20
1045.7
 30
1.8
 40
18.0
  1
Ｅ
 50
0.0
 41
0.9
 51
0.0
  7
KANJI67
  0
TEXT
  8
0
  6
CONTINUOUS
 62
     2
 10
2216.92
 20
960.5
 30
12.0
 40
21.0
  1
同時切り
 50
0.0
 41
0.9
 51
0.0
  7
KANJI68
  0
TEXT
  8
0
  6
CONTINUOUS
 62
     2
 10
1943.92
 20
1002.5
 30
141.36
 40
22.8
  1
形式
 50
0.0
 41
0.9
 51
0.0
  7
KANJI60
  0
TEXT
  8
0
  6
CONTINUOUS
 62
     2
 10
1943.92
 20
960.5
 30
33.439782857
 40
22.8
  1
操作方式
 50
0.0
 41
0.9
 51
0.0
  7
KANJI58
  0
LINE
  8
0
  6
CONTINUOUS
 62
     2
 10
1891.72
 20
1201.1
 30
0.0
 11
1891.72
 21
1187.3
 31
0.0
  0
TEXT
  8
0
  6
CONTINUOUS
 62
     2
 10
1943.92
 20
1212.5
 30
3.0
 40
22.8
  1
出力　相数　極数
 50
0.0
 41
0.9
 51
0.0
  7
KANJI69
  0
TEXT
  8
0
  6
CONTINUOUS
 62
     2
 10
1901.92
 20
1422.5
 30
12.0
 40
22.8
  1
公称速度
 50
0.0
 41
0.9
 51
0.0
  7
KANJI70
  0
TEXT
  8
0
  6
CONTINUOUS
 62
     2
 10
2025.82
 20
1421.3
 30
0.0
 40
21.0
  1
（５０／６０Ｈｚ）
 50
0.0
 41
0.628571429
 51
0.0
  7
KANJI71
  0
TEXT
  8
0
  6
CONTINUOUS
 62
     2
 10
2146.42
 20
1002.95
 30
3.3
 40
20.4
  1
スプリング制動式電磁ブレーキ
 50
0.0
 41
0.705882353
 51
0.0
  7
KANJI72
  0
TEXT
  8
0
  6
CONTINUOUS
 62
     2
 10
2365.42
 20
1170.5
 30
0.216
 40
18.0
  1
Ｖ
 50
0.0
 41
0.8
 51
0.0
  7
KANJI73
  0
TEXT
  8
0
  6
CONTINUOUS
 62
     2
 10
2354.62
 20
1128.5
 30
0.216
 40
18.0
  1
Ｈｚ
 50
0.0
 41
0.8
 51
0.0
  7
KANJI73
  0
TEXT
  8
0
  6
CONTINUOUS
 62
     2
 10
2365.42
 20
1086.5
 30
0.216
 40
18.0
  1
Ａ
 50
0.0
 41
0.8
 51
0.0
  7
KANJI73
  0
TEXT
  8
0
  6
CONTINUOUS
 62
     2
 10
2286.52
 20
1213.7
 30
1.8
 40
18.0
  1
３φ
 50
0.0
 41
0.9
 51
0.0
  7
KANJI67
  0
TEXT
  8
0
  6
CONTINUOUS
 62
     2
 10
2346.52
 20
1213.7
 30
1.8
 40
18.0
  1
４Ｐ
 50
0.0
 41
0.9
 51
0.0
  7
KANJI67
  0
TEXT
  8
0
  6
CONTINUOUS
 62
     2
 10
2144.92
 20
1255.7
 30
1.2
 40
19.2
  1
マンセル　７．５ＧＹ　５／４．５
 50
0.0
 41
0.71875
 51
0.0
  7
KANJI74
  0
TEXT
  8
0
  6
CONTINUOUS
 62
     2
 10
2144.92
 20
1171.7
 30
1.8
 40
18.0
  1
　　　　　　　／　　　
 50
0.0
 41
0.9
 51
0.0
  7
KANJI67
  0
TEXT
  8
0
  6
CONTINUOUS
 62
     2
 10
2144.92
 20
1129.7
 30
1.8
 40
18.0
  1
　　　　５０／　６０
 50
0.0
 41
0.9
 51
0.0
  7
KANJI67
  0
TEXT
  8
0
  6
CONTINUOUS
 62
     2
 10
2144.92
 20
1087.7
 30
1.8
 40
18.0
  1
　　　　　　　／　　　
 50
0.0
 41
0.9
 51
0.0
  7
KANJI67
  0
TEXT
  8
0
  6
CONTINUOUS
 62
     2
 10
2349.52
 20
1466.9
 30
0.1536
 40
19.2
  1
ｍｍ
 50
0.0
 41
0.8
 51
0.0
  7
KANJI75
  0
TEXT
  8
0
  6
CONTINUOUS
 62
     2
 10
2310.52
 20
1423.7
 30
0.0
 40
21.0
  1
ｍｍ／ｓｅｃ
 50
0.0
 41
0.571428571
 51
0.0
  7
KANJI76
  0
TEXT
  8
0
  6
CONTINUOUS
 62
     2
 10
2203.42
 20
1339.7
 30
9.0
 40
21.0
  1
全閉屋外形
 50
0.0
 41
0.9
 51
0.0
  7
KANJI66
  0
TEXT
  8
0
  6
CONTINUOUS
 62
     2
 10
2150.92
 20
1213.7
 30
1.8
 40
18.0
  1
　１．１ＫＷ
 50
0.0
 41
0.9
 51
0.0
  7
KANJI67
  0
TEXT
  8
0
  6
CONTINUOUS
 62
     2
 10
2188.72
 20
1507.7
 30
1.8
 40
18.0
  1
９．８ＫＮ（１ｔｏｎ）
 50
0.0
 41
0.9
 51
0.0
  7
KANJI67
  0
TEXT
  8
0
  6
CONTINUOUS
 62
     2
 10
2147.92
 20
1423.7
 30
1.8
 40
18.0
  1
　４３／５１．５
 50
0.0
 41
0.9
 51
0.0
  7
KANJI67
  0
TEXT
  8
0
  6
CONTINUOUS
 62
     2
 10
2158.42
 20
1547.6
 30
1.2
 40
18.0
  1
ＭＣＬＤ１－　ＪＬ
 50
0.0
 41
0.833333333
 51
0.0
  7
KANJI77
  0
LINE
  8
0
  6
CONTINUOUS
 62
     1
 10
1868.92
 20
781.7
 30
0.0
 11
2393.92
 21
781.7
 31
0.0
  0
LINE
  8
0
  6
CONTINUOUS
 62
     2
 10
1868.92
 20
823.7
 30
0.0
 11
2393.92
 21
823.7
 31
0.0
  0
TEXT
  8
0
  6
CONTINUOUS
 62
     2
 10
2338.72
 20
793.88
 30
0.0
 40
21.0
  1
ｋｇ
 50
0.0
 41
0.9
 51
0.0
  7
KANJI78
  0
TEXT
  8
0
  6
CONTINUOUS
 62
     2
 10
1900.72
 20
792.5
 30
6.0
 40
21.0
  1
概算重量（１台当り）
 50
0.0
 41
0.857142857
 51
0.0
  7
KANJI79
  0
TEXT
  8
0
  6
CONTINUOUS
 62
     2
 10
2159.92
 20
1381.7
 30
0.0
 40
18.0
  1
３９．２Ｎ・ｍ（４ｋｇ・ｍ）
 50
0.0
 41
0.833333333
 51
0.0
  7
KANJI80
  0
LINE
  8
0
  6
CONTINUOUS
 62
     1
 10
1868.92
 20
1639.7
 30
0.0
 11
1868.92
 21
781.7
 31
0.0
  0
LINE
  8
0
  6
CONTINUOUS
 62
     2
 10
2144.92
 20
1579.7
 30
0.0
 11
2144.92
 21
781.7
 31
0.0
  0
LINE
  8
0
  6
CONTINUOUS
 62
     1
 10
2393.92
 20
1639.7
 30
0.0
 11
2393.92
 21
781.7
 31
0.0
  0
ENDSEC
  0
EOF
