  0
SECTION
  2
HEADER
  9
$ACADVER
  1
AC1009
  9
$DWGCODEPAGE
  3
dos932
  9
$EXTMIN
 10
0.0
 20
0.0
 30
0.0
  9
$EXTMAX
 10
2520.0
 20
1782.0
 30
0.0
  9
$LIMMIN
 10
0.0
 20
0.0
  9
$LIMMAX
 10
2520.0
 20
1782.0
  9
$LTSCALE
 40
1.0
  9
$PDMODE
 70
     0
  0
ENDSEC
  0
SECTION
  2
TABLES
  0
TABLE
  2
VPORT
 70
     1
  0
VPORT
  2
*ACTIVE
 70
     0
 10
0.0
 20
0.0
 11
1.0
 21
1.0
 12
1260.0
 22
891.0
 13
0.0
 23
0.0
 14
10.0
 24
10.0
 15
10.0
 25
10.0
 16
0.0
 26
0.0
 36
1.0
 17
0.0
 27
0.0
 37
0.0
 40
2520.0
 41
1.414141414
 42
50.0
 43
0.0
 44
0.0
 50
0.0
 51
0.0
 71
     0
 72
  1000
 73
     1
 74
     3
 75
     0
 76
     0
 77
     0
 78
     0
  0
ENDTAB
  0
TABLE
  2
LTYPE
 70
     6
  0
LTYPE
  2
CONTINUOUS
 70
    64
  3
Solid line
 72
    65
 73
     0
 40
0.0
  0
LTYPE
  2
LTYPE1
 70
    64
  3
HIDDEN
 72
    65
 73
     2
 40
18.0
 49
10.8
 49
-7.2
  0
LTYPE
  2
LTYPE2
 70
    64
  3
CENTER
 72
    65
 73
     4
 40
90.0
 49
63.0
 49
-9.0
 49
9.0
 49
-9.0
  0
LTYPE
  2
LTYPE3
 70
    64
  3
CENTER
 72
    65
 73
     4
 40
60.0
 49
42.0
 49
-6.0
 49
6.0
 49
-6.0
  0
LTYPE
  2
LTYPE4
 70
    64
  3
CENTER
 72
    65
 73
     4
 40
54.0
 49
37.8
 49
-5.4
 49
5.4
 49
-5.4
  0
LTYPE
  2
LTYPE5
 70
    64
  3
CENTER
 72
    65
 73
     4
 40
120.0
 49
84.0
 49
-12.0
 49
12.0
 49
-12.0
  0
ENDTAB
  0
TABLE
  2
LAYER
 70
   128
  0
LAYER
  2
0
 70
     0
 62
     7
  6
CONTINUOUS
  0
LAYER
  2
2
 70
     0
 62
     7
  6
CONTINUOUS
  0
LAYER
  2
3
 70
     0
 62
     7
  6
CONTINUOUS
  0
LAYER
  2
4
 70
     0
 62
     7
  6
CONTINUOUS
  0
LAYER
  2
5
 70
     0
 62
     7
  6
CONTINUOUS
  0
LAYER
  2
6
 70
     0
 62
     7
  6
CONTINUOUS
  0
LAYER
  2
7
 70
     0
 62
     7
  6
CONTINUOUS
  0
LAYER
  2
8
 70
     0
 62
     7
  6
CONTINUOUS
  0
LAYER
  2
9
 70
     0
 62
     7
  6
CONTINUOUS
  0
LAYER
  2
10
 70
     0
 62
     7
  6
CONTINUOUS
  0
LAYER
  2
11
 70
     0
 62
     7
  6
CONTINUOUS
  0
LAYER
  2
12
 70
     0
 62
     7
  6
CONTINUOUS
  0
LAYER
  2
13
 70
     0
 62
     7
  6
CONTINUOUS
  0
LAYER
  2
14
 70
     0
 62
     7
  6
CONTINUOUS
  0
LAYER
  2
15
 70
     0
 62
     7
  6
CONTINUOUS
  0
LAYER
  2
16
 70
     0
 62
     7
  6
CONTINUOUS
  0
LAYER
  2
17
 70
     0
 62
     7
  6
CONTINUOUS
  0
LAYER
  2
18
 70
     0
 62
     7
  6
CONTINUOUS
  0
LAYER
  2
19
 70
     0
 62
     7
  6
CONTINUOUS
  0
LAYER
  2
20
 70
     0
 62
     7
  6
CONTINUOUS
  0
LAYER
  2
21
 70
     0
 62
     7
  6
CONTINUOUS
  0
LAYER
  2
22
 70
     0
 62
     7
  6
CONTINUOUS
  0
LAYER
  2
23
 70
     0
 62
     7
  6
CONTINUOUS
  0
LAYER
  2
24
 70
     0
 62
     7
  6
CONTINUOUS
  0
LAYER
  2
25
 70
     0
 62
     7
  6
CONTINUOUS
  0
LAYER
  2
26
 70
     0
 62
     7
  6
CONTINUOUS
  0
LAYER
  2
27
 70
     0
 62
     7
  6
CONTINUOUS
  0
LAYER
  2
28
 70
     0
 62
     7
  6
CONTINUOUS
  0
LAYER
  2
29
 70
     0
 62
     7
  6
CONTINUOUS
  0
LAYER
  2
30
 70
     0
 62
     7
  6
CONTINUOUS
  0
LAYER
  2
31
 70
     0
 62
     7
  6
CONTINUOUS
  0
LAYER
  2
32
 70
     0
 62
     7
  6
CONTINUOUS
  0
LAYER
  2
33
 70
     0
 62
     7
  6
CONTINUOUS
  0
LAYER
  2
34
 70
     0
 62
     7
  6
CONTINUOUS
  0
LAYER
  2
35
 70
     0
 62
     7
  6
CONTINUOUS
  0
LAYER
  2
36
 70
     0
 62
     7
  6
CONTINUOUS
  0
LAYER
  2
37
 70
     0
 62
     7
  6
CONTINUOUS
  0
LAYER
  2
38
 70
     0
 62
     7
  6
CONTINUOUS
  0
LAYER
  2
39
 70
     0
 62
     7
  6
CONTINUOUS
  0
LAYER
  2
40
 70
     0
 62
     7
  6
CONTINUOUS
  0
LAYER
  2
41
 70
     0
 62
     7
  6
CONTINUOUS
  0
LAYER
  2
42
 70
     0
 62
     7
  6
CONTINUOUS
  0
LAYER
  2
43
 70
     0
 62
     7
  6
CONTINUOUS
  0
LAYER
  2
44
 70
     0
 62
     7
  6
CONTINUOUS
  0
LAYER
  2
45
 70
     0
 62
     7
  6
CONTINUOUS
  0
LAYER
  2
46
 70
     0
 62
     7
  6
CONTINUOUS
  0
LAYER
  2
47
 70
     0
 62
     7
  6
CONTINUOUS
  0
LAYER
  2
48
 70
     0
 62
     7
  6
CONTINUOUS
  0
LAYER
  2
49
 70
     0
 62
     7
  6
CONTINUOUS
  0
LAYER
  2
50
 70
     0
 62
     7
  6
CONTINUOUS
  0
LAYER
  2
51
 70
     0
 62
     7
  6
CONTINUOUS
  0
LAYER
  2
52
 70
     0
 62
     7
  6
CONTINUOUS
  0
LAYER
  2
53
 70
     0
 62
     7
  6
CONTINUOUS
  0
LAYER
  2
54
 70
     0
 62
     7
  6
CONTINUOUS
  0
LAYER
  2
55
 70
     0
 62
     7
  6
CONTINUOUS
  0
LAYER
  2
56
 70
     0
 62
     7
  6
CONTINUOUS
  0
LAYER
  2
57
 70
     0
 62
     7
  6
CONTINUOUS
  0
LAYER
  2
58
 70
     0
 62
     7
  6
CONTINUOUS
  0
LAYER
  2
59
 70
     0
 62
     7
  6
CONTINUOUS
  0
LAYER
  2
60
 70
     0
 62
     7
  6
CONTINUOUS
  0
LAYER
  2
61
 70
     0
 62
     7
  6
CONTINUOUS
  0
LAYER
  2
62
 70
     0
 62
     7
  6
CONTINUOUS
  0
LAYER
  2
63
 70
     0
 62
     7
  6
CONTINUOUS
  0
LAYER
  2
64
 70
     0
 62
     7
  6
CONTINUOUS
  0
LAYER
  2
65
 70
     0
 62
     7
  6
CONTINUOUS
  0
LAYER
  2
66
 70
     0
 62
     7
  6
CONTINUOUS
  0
LAYER
  2
67
 70
     0
 62
     7
  6
CONTINUOUS
  0
LAYER
  2
68
 70
     0
 62
     7
  6
CONTINUOUS
  0
LAYER
  2
69
 70
     0
 62
     7
  6
CONTINUOUS
  0
LAYER
  2
70
 70
     0
 62
     7
  6
CONTINUOUS
  0
LAYER
  2
71
 70
     0
 62
     7
  6
CONTINUOUS
  0
LAYER
  2
72
 70
     0
 62
     7
  6
CONTINUOUS
  0
LAYER
  2
73
 70
     0
 62
     7
  6
CONTINUOUS
  0
LAYER
  2
74
 70
     0
 62
     7
  6
CONTINUOUS
  0
LAYER
  2
75
 70
     0
 62
     7
  6
CONTINUOUS
  0
LAYER
  2
76
 70
     0
 62
     7
  6
CONTINUOUS
  0
LAYER
  2
77
 70
     0
 62
     7
  6
CONTINUOUS
  0
LAYER
  2
78
 70
     0
 62
     7
  6
CONTINUOUS
  0
LAYER
  2
79
 70
     0
 62
     7
  6
CONTINUOUS
  0
LAYER
  2
80
 70
     0
 62
     7
  6
CONTINUOUS
  0
LAYER
  2
81
 70
     0
 62
     7
  6
CONTINUOUS
  0
LAYER
  2
82
 70
     0
 62
     7
  6
CONTINUOUS
  0
LAYER
  2
83
 70
     0
 62
     7
  6
CONTINUOUS
  0
LAYER
  2
84
 70
     0
 62
     7
  6
CONTINUOUS
  0
LAYER
  2
85
 70
     0
 62
     7
  6
CONTINUOUS
  0
LAYER
  2
86
 70
     0
 62
     7
  6
CONTINUOUS
  0
LAYER
  2
87
 70
     0
 62
     7
  6
CONTINUOUS
  0
LAYER
  2
88
 70
     0
 62
     7
  6
CONTINUOUS
  0
LAYER
  2
89
 70
     0
 62
     7
  6
CONTINUOUS
  0
LAYER
  2
90
 70
     0
 62
     7
  6
CONTINUOUS
  0
LAYER
  2
91
 70
     0
 62
     7
  6
CONTINUOUS
  0
LAYER
  2
92
 70
     0
 62
     7
  6
CONTINUOUS
  0
LAYER
  2
93
 70
     0
 62
     7
  6
CONTINUOUS
  0
LAYER
  2
94
 70
     0
 62
     7
  6
CONTINUOUS
  0
LAYER
  2
95
 70
     0
 62
     7
  6
CONTINUOUS
  0
LAYER
  2
96
 70
     0
 62
     7
  6
CONTINUOUS
  0
LAYER
  2
97
 70
     0
 62
     7
  6
CONTINUOUS
  0
LAYER
  2
98
 70
     0
 62
     7
  6
CONTINUOUS
  0
LAYER
  2
99
 70
     0
 62
     7
  6
CONTINUOUS
  0
LAYER
  2
100
 70
     0
 62
     7
  6
CONTINUOUS
  0
LAYER
  2
101
 70
     0
 62
     7
  6
CONTINUOUS
  0
LAYER
  2
102
 70
     0
 62
     7
  6
CONTINUOUS
  0
LAYER
  2
103
 70
     0
 62
     7
  6
CONTINUOUS
  0
LAYER
  2
104
 70
     0
 62
     7
  6
CONTINUOUS
  0
LAYER
  2
105
 70
     0
 62
     7
  6
CONTINUOUS
  0
LAYER
  2
106
 70
     0
 62
     7
  6
CONTINUOUS
  0
LAYER
  2
107
 70
     0
 62
     7
  6
CONTINUOUS
  0
LAYER
  2
108
 70
     0
 62
     7
  6
CONTINUOUS
  0
LAYER
  2
109
 70
     0
 62
     7
  6
CONTINUOUS
  0
LAYER
  2
110
 70
     0
 62
     7
  6
CONTINUOUS
  0
LAYER
  2
111
 70
     0
 62
     7
  6
CONTINUOUS
  0
LAYER
  2
112
 70
     0
 62
     7
  6
CONTINUOUS
  0
LAYER
  2
113
 70
     0
 62
     7
  6
CONTINUOUS
  0
LAYER
  2
114
 70
     0
 62
     7
  6
CONTINUOUS
  0
LAYER
  2
115
 70
     0
 62
     7
  6
CONTINUOUS
  0
LAYER
  2
116
 70
     0
 62
     7
  6
CONTINUOUS
  0
LAYER
  2
117
 70
     0
 62
     7
  6
CONTINUOUS
  0
LAYER
  2
118
 70
     0
 62
     7
  6
CONTINUOUS
  0
LAYER
  2
119
 70
     0
 62
     7
  6
CONTINUOUS
  0
LAYER
  2
120
 70
     0
 62
     7
  6
CONTINUOUS
  0
LAYER
  2
121
 70
     0
 62
     7
  6
CONTINUOUS
  0
LAYER
  2
122
 70
     0
 62
     7
  6
CONTINUOUS
  0
LAYER
  2
123
 70
     0
 62
     7
  6
CONTINUOUS
  0
LAYER
  2
124
 70
     0
 62
     7
  6
CONTINUOUS
  0
LAYER
  2
125
 70
     0
 62
     7
  6
CONTINUOUS
  0
LAYER
  2
126
 70
     0
 62
     7
  6
CONTINUOUS
  0
LAYER
  2
127
 70
     0
 62
     7
  6
CONTINUOUS
  0
LAYER
  2
128
 70
     0
 62
     7
  6
CONTINUOUS
  0
ENDTAB
  0
TABLE
  2
STYLE
 70
    81
  0
STYLE
  2
STANDARD
 70
     0
 40
0.0
 41
1.0
 50
0.0
 71
     0
 42
0.2
  3
txt.shx
  4
extfont.shx
  0
STYLE
  2
KANJI0
 70
     0
 40
15.5999988
 41
0.75
 50
0.0
 71
     0
 42
15.5999988
  3
txt.shx
  4
extfont.shx
  0
STYLE
  2
KANJI1
 70
     0
 40
11.999997477
 41
0.6
 50
0.0
 71
     0
 42
11.999997477
  3
txt.shx
  4
extfont.shx
  0
STYLE
  2
KANJI2
 70
     0
 40
14.399996972
 41
0.9
 50
0.0
 71
     0
 42
14.399996972
  3
txt.shx
  4
extfont.shx
  0
STYLE
  2
KANJI3
 70
     0
 40
17.999996215
 41
0.9
 50
0.0
 71
     0
 42
17.999996215
  3
txt.shx
  4
extfont.shx
  0
STYLE
  2
KANJI4
 70
     0
 40
10.3999992
 41
0.6
 50
0.0
 71
     0
 42
10.3999992
  3
txt.shx
  4
extfont.shx
  0
STYLE
  2
KANJI5
 70
     0
 40
12.47999904
 41
0.6
 50
0.0
 71
     0
 42
12.47999904
  3
txt.shx
  4
extfont.shx
  0
STYLE
  2
KANJI6
 70
     0
 40
18.1999986
 41
0.42031746
 50
0.0
 71
     0
 42
18.1999986
  3
txt.shx
  4
extfont.shx
  0
STYLE
  2
KANJI7
 70
     0
 40
31.1999976
 41
0.9
 50
0.0
 71
     0
 42
31.1999976
  3
txt.shx
  4
extfont.shx
  0
STYLE
  2
KANJI8
 70
     0
 40
21.6
 41
1.111111111
 50
0.0
 71
     0
 42
21.6
  3
txt.shx
  4
extfont.shx
  0
STYLE
  2
KANJI9
 70
     0
 40
10.3999992
 41
0.8
 50
0.0
 71
     0
 42
10.3999992
  3
txt.shx
  4
extfont.shx
  0
STYLE
  2
KANJI10
 70
     0
 40
12.47999904
 41
0.8
 50
0.0
 71
     0
 42
12.47999904
  3
txt.shx
  4
extfont.shx
  0
STYLE
  2
KANJI11
 70
     0
 40
30.0
 41
1.0
 50
0.0
 71
     0
 42
30.0
  3
txt.shx
  4
extfont.shx
  0
STYLE
  2
KANJI12
 70
     0
 40
30.0
 41
1.0
 50
0.0
 71
     0
 42
30.0
  3
txt.shx
  4
extfont.shx
  0
STYLE
  2
KANJI13
 70
     0
 40
30.0
 41
0.8
 50
0.0
 71
     0
 42
30.0
  3
txt.shx
  4
extfont.shx
  0
STYLE
  2
KANJI14
 70
     0
 40
24.0
 41
1.0
 50
0.0
 71
     0
 42
24.0
  3
txt.shx
  4
extfont.shx
  0
STYLE
  2
KANJI15
 70
     0
 40
21.0
 41
0.857142857
 50
0.0
 71
     0
 42
21.0
  3
txt.shx
  4
extfont.shx
  0
STYLE
  2
KANJI16
 70
     0
 40
27.0
 41
0.666666667
 50
0.0
 71
     0
 42
27.0
  3
txt.shx
  4
extfont.shx
  0
STYLE
  2
KANJI17
 70
     0
 40
13.86
 41
0.9
 50
0.0
 71
     0
 42
13.86
  3
txt.shx
  4
extfont.shx
  0
STYLE
  2
KANJI18
 70
     0
 40
18.0
 41
0.9
 50
0.0
 71
     0
 42
18.0
  3
txt.shx
  4
extfont.shx
  0
STYLE
  2
KANJI19
 70
     0
 40
21.0
 41
0.793650794
 50
0.0
 71
     0
 42
21.0
  3
txt.shx
  4
extfont.shx
  0
STYLE
  2
KANJI20
 70
     0
 40
30.0
 41
0.8
 50
0.0
 71
     0
 42
30.0
  3
txt.shx
  4
extfont.shx
  0
STYLE
  2
KANJI21
 70
     0
 40
16.17
 41
0.9
 50
0.0
 71
     0
 42
16.17
  3
txt.shx
  4
extfont.shx
  0
STYLE
  2
KANJI22
 70
     0
 40
11.661
 41
0.822608696
 50
0.0
 71
     0
 42
11.661
  3
txt.shx
  4
extfont.shx
  0
STYLE
  2
KANJI23
 70
     0
 40
13.182
 41
0.85
 50
0.0
 71
     0
 42
13.182
  3
txt.shx
  4
extfont.shx
  0
STYLE
  2
KANJI24
 70
     0
 40
11.8638
 41
0.726495726
 50
0.0
 71
     0
 42
11.8638
  3
txt.shx
  4
extfont.shx
  0
STYLE
  2
KANJI25
 70
     4
 40
55.0
 41
0.440318182
 50
0.0
 71
     0
 42
55.0
  3
txt.shx
  4
extfont.shx
  0
STYLE
  2
KANJI26
 70
     0
 40
17.740702234
 41
0.880962996
 50
0.0
 71
     0
 42
17.740702234
  3
txt.shx
  4
extfont.shx
  0
STYLE
  2
KANJI27
 70
     0
 40
11.7
 41
0.8
 50
0.0
 71
     0
 42
11.7
  3
txt.shx
  4
extfont.shx
  0
STYLE
  2
KANJI28
 70
     0
 40
15.0
 41
0.911
 50
0.0
 71
     0
 42
15.0
  3
txt.shx
  4
extfont.shx
  0
STYLE
  2
KANJI29
 70
     0
 40
15.6
 41
0.925
 50
0.0
 71
     0
 42
15.6
  3
txt.shx
  4
extfont.shx
  0
STYLE
  2
KANJI30
 70
     0
 40
10.933904043
 41
0.9
 50
0.0
 71
     0
 42
10.933904043
  3
txt.shx
  4
extfont.shx
  0
STYLE
  2
KANJI31
 70
     0
 40
15.185977837
 41
0.66671875
 50
0.0
 71
     0
 42
15.185977837
  3
txt.shx
  4
extfont.shx
  0
STYLE
  2
KANJI32
 70
     0
 40
18.223173404
 41
0.9
 50
0.0
 71
     0
 42
18.223173404
  3
txt.shx
  4
extfont.shx
  0
STYLE
  2
KANJI33
 70
     0
 40
14.578538724
 41
0.9
 50
0.0
 71
     0
 42
14.578538724
  3
txt.shx
  4
extfont.shx
  0
STYLE
  2
KANJI34
 70
     0
 40
18.0
 41
0.9
 50
0.0
 71
     0
 42
18.0
  3
txt.shx
  4
extfont.shx
  0
STYLE
  2
KANJI35
 70
     0
 40
20.0
 41
0.925
 50
0.0
 71
     0
 42
20.0
  3
txt.shx
  4
extfont.shx
  0
STYLE
  2
KANJI36
 70
     0
 40
15.0
 41
0.9
 50
0.0
 71
     0
 42
15.0
  3
txt.shx
  4
extfont.shx
  0
STYLE
  2
KANJI37
 70
     0
 40
15.0
 41
0.92
 50
0.0
 71
     0
 42
15.0
  3
txt.shx
  4
extfont.shx
  0
STYLE
  2
KANJI38
 70
     0
 40
12.0
 41
0.9
 50
0.0
 71
     0
 42
12.0
  3
txt.shx
  4
extfont.shx
  0
STYLE
  2
KANJI39
 70
     0
 40
10.0
 41
0.85
 50
0.0
 71
     0
 42
10.0
  3
txt.shx
  4
extfont.shx
  0
STYLE
  2
KANJI40
 70
     0
 40
10.0
 41
0.75
 50
0.0
 71
     0
 42
10.0
  3
txt.shx
  4
extfont.shx
  0
STYLE
  2
KANJI41
 70
     0
 40
24.0
 41
0.925
 50
0.0
 71
     0
 42
24.0
  3
txt.shx
  4
extfont.shx
  0
STYLE
  2
KANJI42
 70
     0
 40
24.0
 41
0.9
 50
0.0
 71
     0
 42
24.0
  3
txt.shx
  4
extfont.shx
  0
STYLE
  2
KANJI43
 70
     0
 40
21.0
 41
0.857142857
 50
0.0
 71
     0
 42
21.0
  3
txt.shx
  4
extfont.shx
  0
STYLE
  2
KANJI44
 70
     0
 40
20.0
 41
0.925
 50
0.0
 71
     0
 42
20.0
  3
txt.shx
  4
extfont.shx
  0
STYLE
  2
KANJI45
 70
     0
 40
15.0
 41
0.9
 50
0.0
 71
     0
 42
15.0
  3
txt.shx
  4
extfont.shx
  0
STYLE
  2
KANJI46
 70
     0
 40
15.36
 41
0.9
 50
0.0
 71
     0
 42
15.36
  3
txt.shx
  4
extfont.shx
  0
STYLE
  2
KANJI47
 70
     0
 40
14.4
 41
0.9
 50
0.0
 71
     0
 42
14.4
  3
txt.shx
  4
extfont.shx
  0
STYLE
  2
KANJI48
 70
     0
 40
14.4
 41
0.9
 50
0.0
 71
     0
 42
14.4
  3
txt.shx
  4
extfont.shx
  0
STYLE
  2
KANJI49
 70
     0
 40
16.8
 41
0.9
 50
0.0
 71
     0
 42
16.8
  3
txt.shx
  4
extfont.shx
  0
STYLE
  2
KANJI50
 70
     0
 40
12.96
 41
0.740740741
 50
0.0
 71
     0
 42
12.96
  3
txt.shx
  4
extfont.shx
  0
STYLE
  2
KANJI51
 70
     0
 40
16.8
 41
0.857142857
 50
0.0
 71
     0
 42
16.8
  3
txt.shx
  4
extfont.shx
  0
STYLE
  2
KANJI52
 70
     0
 40
14.4
 41
0.833333333
 50
0.0
 71
     0
 42
14.4
  3
txt.shx
  4
extfont.shx
  0
STYLE
  2
KANJI53
 70
     0
 40
21.0
 41
0.571428571
 50
0.0
 71
     0
 42
21.0
  3
txt.shx
  4
extfont.shx
  0
STYLE
  2
KANJI54
 70
     0
 40
22.8
 41
0.9
 50
0.0
 71
     0
 42
22.8
  3
txt.shx
  4
extfont.shx
  0
STYLE
  2
KANJI55
 70
     0
 40
22.8
 41
0.9
 50
0.0
 71
     0
 42
22.8
  3
txt.shx
  4
extfont.shx
  0
STYLE
  2
KANJI56
 70
     0
 40
27.0
 41
0.9
 50
0.0
 71
     0
 42
27.0
  3
txt.shx
  4
extfont.shx
  0
STYLE
  2
KANJI57
 70
     0
 40
22.8
 41
0.9
 50
0.0
 71
     0
 42
22.8
  3
txt.shx
  4
extfont.shx
  0
STYLE
  2
KANJI58
 70
     0
 40
22.8
 41
0.9
 50
0.0
 71
     0
 42
22.8
  3
txt.shx
  4
extfont.shx
  0
STYLE
  2
KANJI59
 70
     0
 40
22.8
 41
0.9
 50
0.0
 71
     0
 42
22.8
  3
txt.shx
  4
extfont.shx
  0
STYLE
  2
KANJI60
 70
     0
 40
22.8
 41
0.9
 50
0.0
 71
     0
 42
22.8
  3
txt.shx
  4
extfont.shx
  0
STYLE
  2
KANJI61
 70
     0
 40
22.8
 41
0.9
 50
0.0
 71
     0
 42
22.8
  3
txt.shx
  4
extfont.shx
  0
STYLE
  2
KANJI62
 70
     0
 40
22.8
 41
0.9
 50
0.0
 71
     0
 42
22.8
  3
txt.shx
  4
extfont.shx
  0
STYLE
  2
KANJI63
 70
     4
 40
21.0
 41
0.9
 50
0.0
 71
     0
 42
21.0
  3
txt.shx
  4
extfont.shx
  0
STYLE
  2
KANJI64
 70
     4
 40
21.0
 41
0.9
 50
0.0
 71
     0
 42
21.0
  3
txt.shx
  4
extfont.shx
  0
STYLE
  2
KANJI65
 70
     0
 40
21.0
 41
0.9
 50
0.0
 71
     0
 42
21.0
  3
txt.shx
  4
extfont.shx
  0
STYLE
  2
KANJI66
 70
     0
 40
18.0
 41
0.9
 50
0.0
 71
     0
 42
18.0
  3
txt.shx
  4
extfont.shx
  0
STYLE
  2
KANJI67
 70
     0
 40
21.0
 41
0.9
 50
0.0
 71
     0
 42
21.0
  3
txt.shx
  4
extfont.shx
  0
STYLE
  2
KANJI68
 70
     0
 40
22.8
 41
0.9
 50
0.0
 71
     0
 42
22.8
  3
txt.shx
  4
extfont.shx
  0
STYLE
  2
KANJI69
 70
     0
 40
22.8
 41
0.9
 50
0.0
 71
     0
 42
22.8
  3
txt.shx
  4
extfont.shx
  0
STYLE
  2
KANJI70
 70
     0
 40
21.0
 41
0.628571429
 50
0.0
 71
     0
 42
21.0
  3
txt.shx
  4
extfont.shx
  0
STYLE
  2
KANJI71
 70
     0
 40
20.4
 41
0.705882353
 50
0.0
 71
     0
 42
20.4
  3
txt.shx
  4
extfont.shx
  0
STYLE
  2
KANJI72
 70
     0
 40
18.0
 41
0.8
 50
0.0
 71
     0
 42
18.0
  3
txt.shx
  4
extfont.shx
  0
STYLE
  2
KANJI73
 70
     0
 40
19.2
 41
0.71875
 50
0.0
 71
     0
 42
19.2
  3
txt.shx
  4
extfont.shx
  0
STYLE
  2
KANJI74
 70
     0
 40
19.2
 41
0.8
 50
0.0
 71
     0
 42
19.2
  3
txt.shx
  4
extfont.shx
  0
STYLE
  2
KANJI75
 70
     0
 40
21.0
 41
0.571428571
 50
0.0
 71
     0
 42
21.0
  3
txt.shx
  4
extfont.shx
  0
STYLE
  2
KANJI76
 70
     0
 40
18.0
 41
0.833333333
 50
0.0
 71
     0
 42
18.0
  3
txt.shx
  4
extfont.shx
  0
STYLE
  2
KANJI77
 70
     0
 40
21.0
 41
0.9
 50
0.0
 71
     0
 42
21.0
  3
txt.shx
  4
extfont.shx
  0
STYLE
  2
KANJI78
 70
     0
 40
21.0
 41
0.857142857
 50
0.0
 71
     0
 42
21.0
  3
txt.shx
  4
extfont.shx
  0
STYLE
  2
KANJI79
 70
     0
 40
18.0
 41
0.833333333
 50
0.0
 71
     0
 42
18.0
  3
txt.shx
  4
extfont.shx
  0
ENDTAB
  0
TABLE
  2
VIEW
 70
     0
  0
ENDTAB
  0
ENDSEC
  0
SECTION
  2
BLOCKS
  0
ENDSEC
  0
SECTION
  2
ENTITIES
  0
POLYLINE
  8
0
  6
CONTINUOUS
 62
     6
 66
     1
  0
VERTEX
  8
0
  6
CONTINUOUS
 62
     6
 10
77.92
 20
71.7
 30
0.0
  0
VERTEX
  8
0
  6
CONTINUOUS
 62
     6
 10
77.92
 20
1685.7
 30
0.0
  0
VERTEX
  8
0
  6
CONTINUOUS
 62
     6
 10
2399.92
 20
1685.7
 30
0.0
  0
SEQEND
  0
LINE
  8
0
  6
CONTINUOUS
 62
     6
 10
83.919998738
 20
161.699981077
 30
0.0
 11
473.919916738
 21
161.699981077
 31
0.0
  0
LINE
  8
0
  6
CONTINUOUS
 62
     6
 10
83.919998738
 20
77.699998738
 30
0.0
 11
473.919916738
 21
77.699998738
 31
0.0
  0
LINE
  8
0
  6
CONTINUOUS
 62
     6
 10
83.919998738
 20
77.699998738
 30
0.0
 11
83.919998738
 21
161.699981077
 31
0.0
  0
LINE
  8
0
  6
CONTINUOUS
 62
     6
 10
83.919998738
 20
119.699989908
 30
0.0
 11
473.919916738
 21
119.699989908
 31
0.0
  0
LINE
  8
0
  6
CONTINUOUS
 62
     4
 10
9.6199996
 20
76.8999996
 30
0.0
 11
72.0199948
 21
76.8999996
 31
0.0
  0
LINE
  8
0
  6
CONTINUOUS
 62
     4
 10
9.6199996
 20
108.0999972
 30
0.0
 11
72.0199948
 21
108.0999972
 31
0.0
  0
LINE
  8
0
  6
CONTINUOUS
 62
     4
 10
9.6199996
 20
139.2999948
 30
0.0
 11
72.0199948
 21
139.2999948
 31
0.0
  0
LINE
  8
0
  6
CONTINUOUS
 62
     4
 10
9.6199996
 20
170.4999924
 30
0.0
 11
72.0199948
 21
170.4999924
 31
0.0
  0
LINE
  8
0
  6
CONTINUOUS
 62
     4
 10
9.6199996
 20
201.69999
 30
0.0
 11
72.0199948
 21
201.69999
 31
0.0
  0
LINE
  8
0
  6
CONTINUOUS
 62
     4
 10
9.6199996
 20
232.8999876
 30
0.0
 11
72.0199948
 21
232.8999876
 31
0.0
  0
LINE
  8
0
  6
CONTINUOUS
 62
     4
 10
9.6199996
 20
264.0999852
 30
0.0
 11
72.0199948
 21
264.0999852
 31
0.0
  0
LINE
  8
0
  6
CONTINUOUS
 62
     4
 10
9.6199996
 20
295.2999828
 30
0.0
 11
72.0199948
 21
295.2999828
 31
0.0
  0
LINE
  8
0
  6
CONTINUOUS
 62
     4
 10
9.6199996
 20
326.4999804
 30
0.0
 11
72.0199948
 21
326.4999804
 31
0.0
  0
LINE
  8
0
  6
CONTINUOUS
 62
     4
 10
9.6199996
 20
357.699978
 30
0.0
 11
72.0199948
 21
357.699978
 31
0.0
  0
LINE
  8
0
  6
CONTINUOUS
 62
     4
 10
72.0199948
 20
76.8999996
 30
0.0
 11
72.0199948
 21
357.699978
 31
0.0
  0
LINE
  8
0
  6
CONTINUOUS
 62
     4
 10
40.8199972
 20
76.8999996
 30
0.0
 11
40.8199972
 21
326.4999804
 31
0.0
  0
TEXT
  8
0
  6
CONTINUOUS
 62
     4
 10
20.27999878
 20
85.9999989
 30
1.55999988
 40
15.5999988
  1
計
 50
0.0
 41
0.75
 51
0.0
  7
KANJI0
  0
TEXT
  8
0
  6
CONTINUOUS
 62
     4
 10
20.27999878
 20
148.91999406
 30
1.55999988
 40
15.5999988
  1
設
 50
0.0
 41
0.75
 51
0.0
  7
KANJI0
  0
TEXT
  8
0
  6
CONTINUOUS
 62
     4
 10
20.27999878
 20
179.5999917
 30
1.55999988
 40
15.5999988
  1
管
 50
0.0
 41
0.75
 51
0.0
  7
KANJI0
  0
TEXT
  8
0
  6
CONTINUOUS
 62
     4
 10
20.27999878
 20
210.7999893
 30
1.55999988
 40
15.5999988
  1
製
 50
0.0
 41
0.75
 51
0.0
  7
KANJI0
  0
TEXT
  8
0
  6
CONTINUOUS
 62
     4
 10
20.27999878
 20
241.9999869
 30
1.55999988
 40
15.5999988
  1
資
 50
0.0
 41
0.75
 51
0.0
  7
KANJI0
  0
TEXT
  8
0
  6
CONTINUOUS
 62
     4
 10
20.27999878
 20
273.1999845
 30
1.55999988
 40
15.5999988
  1
営
 50
0.0
 41
0.75
 51
0.0
  7
KANJI0
  0
TEXT
  8
0
  6
CONTINUOUS
 62
     4
 10
20.27999878
 20
304.3999821
 30
1.55999988
 40
15.5999988
  1
客
 50
0.0
 41
0.75
 51
0.0
  7
KANJI0
  0
TEXT
  8
0
  6
CONTINUOUS
 62
     4
 10
20.0199988
 20
336.8999796
 30
1.55999988
 40
15.5999988
  1
出　図
 50
0.0
 41
0.75
 51
0.0
  7
KANJI0
  0
LINE
  8
0
  6
CONTINUOUS
 62
     4
 10
9.6199996
 20
76.8999996
 30
0.0
 11
9.6199996
 21
357.699978
 31
0.0
  0
LINE
  8
0
  6
CONTINUOUS
 62
     6
 10
2399.92
 20
71.7
 30
0.0
 11
77.92
 21
71.7
 31
0.0
  0
TEXT
  8
0
  6
CONTINUOUS
 62
     4
 10
95.919996215
 20
101.699993692
 30
1.199999748
 40
11.999997477
  1
ＰＡＲＴＳ　ＬＩＳＴ
 50
0.0
 41
0.6
 51
0.0
  7
KANJI1
  0
TEXT
  8
0
  6
CONTINUOUS
 62
     4
 10
95.919996215
 20
83.699997477
 30
1.439999697
 40
14.399996972
  1
部品表
 50
0.0
 41
0.9
 51
0.0
  7
KANJI2
  0
TEXT
  8
0
  6
CONTINUOUS
 62
     3
 10
95.919996215
 20
131.699987385
 30
1.799999622
 40
17.999996215
  1
ＰＬ
 50
0.0
 41
0.9
 51
0.0
  7
KANJI3
  0
TEXT
  8
0
  6
CONTINUOUS
 62
     4
 10
365.919939446
 20
101.699993692
 30
1.199999748
 40
11.999997477
  1
Ｎ０．
 50
0.0
 41
0.6
 51
0.0
  7
KANJI1
  0
TEXT
  8
0
  6
CONTINUOUS
 62
     4
 10
365.919939446
 20
83.699997477
 30
1.439999697
 40
14.399996972
  1
項番
 50
0.0
 41
0.9
 51
0.0
  7
KANJI2
  0
LINE
  8
0
  6
CONTINUOUS
 62
     6
 10
473.919916738
 20
77.699998738
 30
0.0
 11
473.919916738
 21
161.699981077
 31
0.0
  0
LINE
  8
0
  6
CONTINUOUS
 62
     6
 10
353.919941969
 20
77.699998738
 30
0.0
 11
353.919941969
 21
161.699981077
 31
0.0
  0
LINE
  8
0
  6
CONTINUOUS
 62
     6
 10
2399.92
 20
1685.7
 30
0.0
 11
2399.92
 21
71.7
 31
0.0
  0
LINE
  8
0
  6
CONTINUOUS
 62
     6
 10
1593.920062
 20
76.8999996
 30
0.0
 11
1593.920062
 21
409.699974
 31
0.0
  0
LINE
  8
0
  6
CONTINUOUS
 62
     6
 10
2394.7200004
 20
76.8999996
 30
0.0
 11
2394.7200004
 21
409.699974
 31
0.0
  0
LINE
  8
0
  6
CONTINUOUS
 62
     4
 10
1783.7200474
 20
76.8999996
 30
0.0
 11
1783.7200474
 21
409.699974
 31
0.0
  0
LINE
  8
0
  6
CONTINUOUS
 62
     4
 10
1593.920062
 20
118.4999964
 30
0.0
 11
1783.7200474
 21
118.4999964
 31
0.0
  0
TEXT
  8
0
  6
CONTINUOUS
 62
     4
 10
1604.3200612
 20
100.2999978
 30
1.03999992
 40
10.3999992
  1
ＳＣＡＬＥ
 50
0.0
 41
0.6
 51
0.0
  7
KANJI4
  0
TEXT
  8
0
  6
CONTINUOUS
 62
     4
 10
1604.3200612
 20
84.699999
 30
1.247999904
 40
12.47999904
  1
尺度
 50
0.0
 41
0.6
 51
0.0
  7
KANJI5
  0
LINE
  8
0
  6
CONTINUOUS
 62
     6
 10
1183.1200936
 20
118.4999964
 30
0.0
 11
1593.920062
 21
118.4999964
 31
0.0
  0
LINE
  8
0
  6
CONTINUOUS
 62
     6
 10
1183.1200936
 20
76.8999996
 30
0.0
 11
2394.7200004
 21
76.8999996
 31
0.0
  0
TEXT
  8
0
  6
CONTINUOUS
 62
     6
 10
1788.920047
 20
100.2999978
 30
0.0
 40
18.1999986
  1
ＵＮＩＴＥＣ　ＩＮＤＵＳＴＲＹ　ＣＯ．，ＬＴＤ．
 50
0.0
 41
0.42031746
 51
0.0
  7
KANJI6
  0
TEXT
  8
0
  6
CONTINUOUS
 62
     6
 10
2044.175027365
 20
93.53999832
 30
3.11999976
 40
31.1999976
  1
ユニテック工業株式会社
 50
0.0
 41
0.9
 51
0.0
  7
KANJI7
  0
LINE
  8
0
  6
CONTINUOUS
 62
     6
 10
2002.575030565
 20
104.45999748
 30
0.0
 11
1988.847031621
 21
104.45999748
 31
0.0
  0
LINE
  8
0
  6
CONTINUOUS
 62
     6
 10
2002.575030565
 20
106.955997288
 30
0.0
 11
1988.847031621
 21
106.955997288
 31
0.0
  0
LINE
  8
0
  6
CONTINUOUS
 62
     6
 10
2002.575030565
 20
104.45999748
 30
0.0
 11
2016.303029509
 21
104.45999748
 31
0.0
  0
LINE
  8
0
  6
CONTINUOUS
 62
     6
 10
2002.575030565
 20
106.955997288
 30
0.0
 11
2016.303029509
 21
106.955997288
 31
0.0
  0
LINE
  8
0
  6
CONTINUOUS
 62
     6
 10
2016.303029509
 20
106.955997288
 30
0.0
 11
2016.303029509
 21
104.45999748
 31
0.0
  0
ARC
  8
0
  6
CONTINUOUS
 62
     6
 10
2019.423029269
 20
105.707997384
 30
0.0
 40
12.47999904
 50
185.739170477
 51
90.0
  0
ARC
  8
0
  6
CONTINUOUS
 62
     6
 10
2019.423029269
 20
105.707997384
 30
0.0
 40
14.975998848
 50
184.780191847
 51
90.0
  0
LINE
  8
0
  6
CONTINUOUS
 62
     6
 10
1988.847031621
 20
104.45999748
 30
0.0
 11
1988.847031621
 21
106.955997288
 31
0.0
  0
ARC
  8
0
  6
CONTINUOUS
 62
     6
 10
1985.727031861
 20
105.707997384
 30
0.0
 40
12.47999904
 50
90.0
 51
354.260829523
  0
ARC
  8
0
  6
CONTINUOUS
 62
     6
 10
1985.727031861
 20
105.707997384
 30
0.0
 40
14.975998848
 50
90.0
 51
355.219808153
  0
LINE
  8
0
  6
CONTINUOUS
 62
     6
 10
2000.703030709
 20
120.683996232
 30
0.0
 11
2000.703030709
 21
118.187996424
 31
0.0
  0
LINE
  8
0
  6
CONTINUOUS
 62
     6
 10
1985.727031861
 20
118.187996424
 30
0.0
 11
2000.703030709
 21
118.187996424
 31
0.0
  0
LINE
  8
0
  6
CONTINUOUS
 62
     6
 10
2004.447030421
 20
120.683996232
 30
0.0
 11
2004.447030421
 21
118.187996424
 31
0.0
  0
LINE
  8
0
  6
CONTINUOUS
 62
     6
 10
2019.423029269
 20
118.187996424
 30
0.0
 11
2004.447030421
 21
118.187996424
 31
0.0
  0
TEXT
  8
0
  6
CONTINUOUS
 62
     4
 10
1315.7200834
 20
100.2999978
 30
1.03999992
 40
10.3999992
  1
ＢＹ
 50
0.0
 41
0.6
 51
0.0
  7
KANJI4
  0
TEXT
  8
0
  6
CONTINUOUS
 62
     4
 10
1430.1200746
 20
100.2999978
 30
1.03999992
 40
10.3999992
  1
ＤＥＳＣＲＩＰＴＩＯＮ
 50
0.0
 41
0.6
 51
0.0
  7
KANJI4
  0
TEXT
  8
0
  6
CONTINUOUS
 62
     4
 10
1315.7200834
 20
84.699999
 30
1.247999904
 40
12.47999904
  1
担当
 50
0.0
 41
0.6
 51
0.0
  7
KANJI5
  0
TEXT
  8
0
  6
CONTINUOUS
 62
     4
 10
1445.7200734
 20
84.699999
 30
1.247999904
 40
12.47999904
  1
記　　　　事
 50
0.0
 41
0.6
 51
0.0
  7
KANJI5
  0
LINE
  8
0
  6
CONTINUOUS
 62
     4
 10
1205.2200919
 20
110.699997
 30
0.0
 11
1188.3200932
 21
84.699999
 31
0.0
  0
TEXT
  8
0
  6
CONTINUOUS
 62
     4
 10
1248.1200886
 20
100.2999978
 30
1.03999992
 40
10.3999992
  1
ＤＡＴＥ
 50
0.0
 41
0.6
 51
0.0
  7
KANJI4
  0
TEXT
  8
0
  6
CONTINUOUS
 62
     4
 10
1255.920088
 20
84.699999
 30
1.247999904
 40
12.47999904
  1
日付
 50
0.0
 41
0.6
 51
0.0
  7
KANJI5
  0
LINE
  8
0
  6
CONTINUOUS
 62
     4
 10
1188.3200932
 20
84.699999
 30
0.0
 11
1222.1200906
 21
84.699999
 31
0.0
  0
LINE
  8
0
  6
CONTINUOUS
 62
     4
 10
1205.2200919
 20
110.699997
 30
0.0
 11
1222.1200906
 21
84.699999
 31
0.0
  0
LINE
  8
0
  6
CONTINUOUS
 62
     6
 10
1183.1200936
 20
76.8999996
 30
0.0
 11
1183.1200936
 21
118.4999964
 31
0.0
  0
LINE
  8
0
  6
CONTINUOUS
 62
     4
 10
1227.3200902
 20
76.8999996
 30
0.0
 11
1227.3200902
 21
118.4999964
 31
0.0
  0
LINE
  8
0
  6
CONTINUOUS
 62
     4
 10
1300.1200846
 20
76.8999996
 30
0.0
 11
1300.1200846
 21
118.4999964
 31
0.0
  0
LINE
  8
0
  6
CONTINUOUS
 62
     4
 10
1346.920081
 20
76.8999996
 30
0.0
 11
1346.920081
 21
118.4999964
 31
0.0
  0
TEXT
  8
0
  6
CONTINUOUS
 62
     4
 10
1604.3200612
 20
308.2999818
 30
1.03999992
 40
10.3999992
  1
ＣＯＤＥ
 50
0.0
 41
0.6
 51
0.0
  7
KANJI4
  0
LINE
  8
0
  6
CONTINUOUS
 62
     4
 10
1593.920062
 20
326.4999804
 30
0.0
 11
2394.7200004
 21
326.4999804
 31
0.0
  0
TEXT
  8
0
  6
CONTINUOUS
 62
     4
 10
1604.3200612
 20
292.699983
 30
1.247999904
 40
12.47999904
  1
分類
 50
0.0
 41
0.6
 51
0.0
  7
KANJI5
  0
TEXT
  8
0
  6
CONTINUOUS
 62
     4
 10
1612.42
 20
332.7
 30
6.0
 40
21.6
  1
ご注文主
 50
0.0
 41
1.111111111
 51
0.0
  7
KANJI8
  0
TEXT
  8
0
  6
CONTINUOUS
 62
     4
 10
1604.3200612
 20
183.4999914
 30
1.03999992
 40
10.3999992
  1
ＤＲＡＷＮ
 50
0.0
 41
0.6
 51
0.0
  7
KANJI4
  0
TEXT
  8
0
  6
CONTINUOUS
 62
     4
 10
1604.3200612
 20
225.0999882
 30
1.03999992
 40
10.3999992
  1
ＤＥＳＩＧＮ
 50
0.0
 41
0.6
 51
0.0
  7
KANJI4
  0
TEXT
  8
0
  6
CONTINUOUS
 62
     4
 10
1604.3200612
 20
266.699985
 30
1.03999992
 40
10.3999992
  1
ＣＨＥＣＫ
 50
0.0
 41
0.6
 51
0.0
  7
KANJI4
  0
LINE
  8
0
  6
CONTINUOUS
 62
     4
 10
1593.920062
 20
243.2999868
 30
0.0
 11
1783.7200474
 21
243.2999868
 31
0.0
  0
LINE
  8
0
  6
CONTINUOUS
 62
     4
 10
1593.920062
 20
201.69999
 30
0.0
 11
1783.7200474
 21
201.69999
 31
0.0
  0
LINE
  8
0
  6
CONTINUOUS
 62
     4
 10
1593.920062
 20
284.8999836
 30
0.0
 11
1783.7200474
 21
284.8999836
 31
0.0
  0
TEXT
  8
0
  6
CONTINUOUS
 62
     4
 10
1604.3200612
 20
209.4999894
 30
1.247999904
 40
12.47999904
  1
設計
 50
0.0
 41
0.6
 51
0.0
  7
KANJI5
  0
TEXT
  8
0
  6
CONTINUOUS
 62
     4
 10
1604.3200612
 20
251.0999862
 30
1.247999904
 40
12.47999904
  1
検図
 50
0.0
 41
0.6
 51
0.0
  7
KANJI5
  0
LINE
  8
0
  6
CONTINUOUS
 62
     4
 10
1799.06004622
 20
284.8999836
 30
0.0
 11
2394.7200004
 21
284.8999836
 31
0.0
  0
LINE
  8
0
  6
CONTINUOUS
 62
     4
 10
1783.7200474
 20
201.69999
 30
0.0
 11
2394.7200004
 21
201.69999
 31
0.0
  0
TEXT
  8
0
  6
CONTINUOUS
 62
     4
 10
1794.1200466
 20
183.4999914
 30
1.03999992
 40
10.3999992
  1
ＤＲＡＷＩＮＧ　ＮＯ．
 50
0.0
 41
0.8
 51
0.0
  7
KANJI9
  0
TEXT
  8
0
  6
CONTINUOUS
 62
     4
 10
1794.1200466
 20
225.0999882
 30
1.03999992
 40
10.3999992
  1
ＭＦＧ　ＮＯ．
 50
0.0
 41
0.8
 51
0.0
  7
KANJI9
  0
TEXT
  8
0
  6
CONTINUOUS
 62
     4
 10
1794.1200466
 20
266.699985
 30
1.03999992
 40
10.3999992
  1
ＴＹＰＥ
 50
0.0
 41
0.8
 51
0.0
  7
KANJI9
  0
LINE
  8
0
  6
CONTINUOUS
 62
     4
 10
1799.3200462
 20
243.2999868
 30
0.0
 11
2038.5200278
 21
243.2999868
 31
0.0
  0
TEXT
  8
0
  6
CONTINUOUS
 62
     4
 10
1794.1200466
 20
165.2999928
 30
1.247999904
 40
12.47999904
  1
図　面　番　号
 50
0.0
 41
0.8
 51
0.0
  7
KANJI10
  0
TEXT
  8
0
  6
CONTINUOUS
 62
     4
 10
1794.1200466
 20
206.8999896
 30
1.247999904
 40
12.47999904
  1
製番
 50
0.0
 41
0.8
 51
0.0
  7
KANJI10
  0
TEXT
  8
0
  6
CONTINUOUS
 62
     4
 10
1794.1200466
 20
248.4999864
 30
1.247999904
 40
12.47999904
  1
機種
 50
0.0
 41
0.8
 51
0.0
  7
KANJI10
  0
LINE
  8
0
  6
CONTINUOUS
 62
     4
 10
1593.920062
 20
160.0999932
 30
0.0
 11
1783.7200474
 21
160.0999932
 31
0.0
  0
TEXT
  8
0
  6
CONTINUOUS
 62
     4
 10
1604.3200612
 20
141.8999946
 30
1.03999992
 40
10.3999992
  1
ＤＡＴＥ
 50
0.0
 41
0.6
 51
0.0
  7
KANJI4
  0
TEXT
  8
0
  6
CONTINUOUS
 62
     4
 10
1604.3200612
 20
126.2999958
 30
1.247999904
 40
12.47999904
  1
日付
 50
0.0
 41
0.6
 51
0.0
  7
KANJI5
  0
TEXT
  8
0
  6
CONTINUOUS
 62
     4
 10
1604.3200612
 20
167.8999926
 30
1.247999904
 40
12.47999904
  1
作図
 50
0.0
 41
0.6
 51
0.0
  7
KANJI5
  0
LINE
  8
0
  6
CONTINUOUS
 62
     4
 10
1783.7200474
 20
141.8999946
 30
0.0
 11
2394.7200004
 21
141.8999946
 31
0.0
  0
LINE
  8
0
  6
LTYPE1
 62
     4
 10
2220.5200138
 20
149.699994
 30
0.0
 11
2220.5200138
 21
191.2999908
 31
0.0
  0
LINE
  8
0
  6
LTYPE1
 62
     4
 10
2184.1200166
 20
149.699994
 30
0.0
 11
2184.1200166
 21
191.2999908
 31
0.0
  0
LINE
  8
0
  6
LTYPE1
 62
     4
 10
2147.7200194
 20
149.699994
 30
0.0
 11
2147.7200194
 21
191.2999908
 31
0.0
  0
LINE
  8
0
  6
LTYPE1
 62
     4
 10
2111.3200222
 20
149.699994
 30
0.0
 11
2111.3200222
 21
191.2999908
 31
0.0
  0
LINE
  8
0
  6
LTYPE1
 62
     4
 10
2074.920025
 20
149.699994
 30
0.0
 11
2074.920025
 21
191.2999908
 31
0.0
  0
LINE
  8
0
  6
LTYPE1
 62
     4
 10
2038.5200278
 20
149.699994
 30
0.0
 11
2038.5200278
 21
191.2999908
 31
0.0
  0
LINE
  8
0
  6
LTYPE1
 62
     4
 10
2002.1200306
 20
149.699994
 30
0.0
 11
2002.1200306
 21
191.2999908
 31
0.0
  0
LINE
  8
0
  6
LTYPE1
 62
     4
 10
1965.7200334
 20
149.699994
 30
0.0
 11
1965.7200334
 21
191.2999908
 31
0.0
  0
LINE
  8
0
  6
LTYPE1
 62
     4
 10
1965.7200334
 20
191.2999908
 30
0.0
 11
2220.5200138
 21
191.2999908
 31
0.0
  0
LINE
  8
0
  6
LTYPE1
 62
     4
 10
1965.7200334
 20
149.699994
 30
0.0
 11
2220.5200138
 21
149.699994
 31
0.0
  0
LINE
  8
0
  6
CONTINUOUS
 62
     4
 10
2241.3200122
 20
171.7999923
 30
0.0
 11
2251.7200114
 21
171.7999923
 31
0.0
  0
LINE
  8
0
  6
CONTINUOUS
 62
     4
 10
2306.3200072
 20
156.1999935
 30
0.0
 11
2269.92001
 21
156.1999935
 31
0.0
  0
LINE
  8
0
  6
CONTINUOUS
 62
     4
 10
2269.92001
 20
156.1999935
 30
0.0
 11
2288.1200086
 21
187.3999911
 31
0.0
  0
LINE
  8
0
  6
CONTINUOUS
 62
     4
 10
2288.1200086
 20
187.3999911
 30
0.0
 11
2306.3200072
 21
156.1999935
 31
0.0
  0
TEXT
  8
0
  6
CONTINUOUS
 62
     4
 10
2054.1200266
 20
266.699985
 30
1.03999992
 40
10.3999992
  1
ＴＩＴＬＥ
 50
0.0
 41
0.8
 51
0.0
  7
KANJI9
  0
TEXT
  8
0
  6
CONTINUOUS
 62
     4
 10
2054.1200266
 20
248.4999864
 30
1.247999904
 40
12.47999904
  1
名称
 50
0.0
 41
0.8
 51
0.0
  7
KANJI10
  0
TEXT
  8
0
  6
CONTINUOUS
 62
     2
 10
2138.92
 20
209.7
 30
15.0
 40
30.0
  1
外形寸法図
 50
0.0
 41
1.0
 51
0.0
  7
KANJI11
  0
TEXT
  8
0
  6
CONTINUOUS
 62
     2
 10
2102.92
 20
245.7
 30
4.285714286
 40
30.0
  1
マイティシリンダ
 50
0.0
 41
1.0
 51
0.0
  7
KANJI12
  0
TEXT
  8
0
  6
CONTINUOUS
 62
     2
 10
1934.2200334
 20
155.699994
 30
1.8
 40
30.0
  1
Ａ
 50
0.0
 41
0.8
 51
0.0
  7
KANJI13
  0
CIRCLE
  8
0
  6
CONTINUOUS
 62
     2
 10
1895.2200334
 20
220.199994
 30
0.0
 40
15.0
  0
TEXT
  8
0
  6
CONTINUOUS
 62
     2
 10
1883.9700334
 20
208.949994
 30
1.8
 40
24.0
  1
Ｓ
 50
0.0
 41
1.0
 51
0.0
  7
KANJI14
  0
LINE
  8
0
  6
CONTINUOUS
 62
     6
 10
2000.703030709
 20
120.683996232
 30
0.0
 11
1985.727031861
 21
120.683996232
 31
0.0
  0
LINE
  8
0
  6
CONTINUOUS
 62
     6
 10
2004.447030421
 20
120.683996232
 30
0.0
 11
2019.423029269
 21
120.683996232
 31
0.0
  0
TEXT
  8
0
  6
CONTINUOUS
 62
     2
 10
1660.9200334
 20
170.699994
 30
6.0
 40
21.0
  1
岡田
 50
0.0
 41
0.857142857
 51
0.0
  7
KANJI15
  0
LINE
  8
0
  6
CONTINUOUS
 62
     4
 10
2394.7200004
 20
368.0999772
 30
0.0
 11
2394.7200004
 21
409.699974
 31
0.0
  0
LINE
  8
0
  6
CONTINUOUS
 62
     6
 10
1594.670062
 20
368.0999772
 30
0.0
 11
2395.4700004
 21
368.0999772
 31
0.0
  0
LINE
  8
0
  6
CONTINUOUS
 62
     6
 10
1593.920062
 20
409.699974
 30
0.0
 11
2394.7200004
 21
409.699974
 31
0.0
  0
TEXT
  8
0
  6
CONTINUOUS
 62
     4
 10
1612.42
 20
374.2999968
 30
6.0
 40
21.6
  1
ご用途
 50
0.0
 41
1.111111111
 51
0.0
  7
KANJI8
  0
TEXT
  8
0
  6
CONTINUOUS
 62
     2
 10
1703.92
 20
83.7
 30
1.8
 40
27.0
  1
１／６
 50
0.0
 41
0.666666667
 51
0.0
  7
KANJI16
  0
LINE
  8
0
  6
CONTINUOUS
 62
     1
 10
1518.37
 20
1674.9
 30
0.0
 11
1518.37
 21
1554.78
 31
0.0
  0
LINE
  8
0
  6
CONTINUOUS
 62
     2
 10
1449.07
 20
1674.9
 30
0.0
 11
1449.07
 21
1554.78
 31
0.0
  0
LINE
  8
0
  6
CONTINUOUS
 62
     2
 10
1379.77
 20
1674.9
 30
0.0
 11
1379.77
 21
1554.78
 31
0.0
  0
LINE
  8
0
  6
CONTINUOUS
 62
     1
 10
1287.37
 20
1674.9
 30
0.0
 11
1287.37
 21
1554.78
 31
0.0
  0
LINE
  8
0
  6
CONTINUOUS
 62
     1
 10
1287.37
 20
1674.9
 30
0.0
 11
1518.37
 21
1674.9
 31
0.0
  0
LINE
  8
0
  6
CONTINUOUS
 62
     1
 10
1287.37
 20
1637.94
 30
0.0
 11
1518.37
 21
1637.94
 31
0.0
  0
LINE
  8
0
  6
CONTINUOUS
 62
     2
 10
1287.37
 20
1610.22
 30
0.0
 11
1518.37
 21
1610.22
 31
0.0
  0
LINE
  8
0
  6
CONTINUOUS
 62
     2
 10
1287.37
 20
1582.5
 30
0.0
 11
1518.37
 21
1582.5
 31
0.0
  0
LINE
  8
0
  6
CONTINUOUS
 62
     1
 10
1287.37
 20
1554.78
 30
0.0
 11
1518.37
 21
1554.78
 31
0.0
  0
TEXT
  8
0
  6
CONTINUOUS
 62
     2
 10
1458.31
 20
1658.73
 30
1.386
 40
13.86
  1
起動電流
 50
0.0
 41
0.9
 51
0.0
  7
KANJI17
  0
TEXT
  8
0
  6
CONTINUOUS
 62
     2
 10
1458.31
 20
1642.56
 30
1.386
 40
13.86
  1
　　　Ａ
 50
0.0
 41
0.9
 51
0.0
  7
KANJI17
  0
TEXT
  8
0
  6
CONTINUOUS
 62
     2
 10
1389.01
 20
1658.73
 30
1.386
 40
13.86
  1
定格電流
 50
0.0
 41
0.9
 51
0.0
  7
KANJI17
  0
TEXT
  8
0
  6
CONTINUOUS
 62
     2
 10
1389.01
 20
1642.56
 30
1.386
 40
13.86
  1
　　　Ａ
 50
0.0
 41
0.9
 51
0.0
  7
KANJI17
  0
TEXT
  8
0
  6
CONTINUOUS
 62
     2
 10
1295.224
 20
1589.43
 30
1.386
 40
13.86
  1
２００／６０
 50
0.0
 41
0.9
 51
0.0
  7
KANJI17
  0
TEXT
  8
0
  6
CONTINUOUS
 62
     2
 10
1295.224
 20
1658.73
 30
1.386
 40
13.86
  1
電圧／周波数
 50
0.0
 41
0.9
 51
0.0
  7
KANJI17
  0
TEXT
  8
0
  6
CONTINUOUS
 62
     2
 10
1295.224
 20
1642.56
 30
1.386
 40
13.86
  1
　Ｖ／Ｈｚ
 50
0.0
 41
0.9
 51
0.0
  7
KANJI17
  0
TEXT
  8
0
  6
CONTINUOUS
 62
     2
 10
1295.224
 20
1617.15
 30
1.386
 40
13.86
  1
２００／５０
 50
0.0
 41
0.9
 51
0.0
  7
KANJI17
  0
TEXT
  8
0
  6
CONTINUOUS
 62
     2
 10
1295.224
 20
1561.71
 30
1.386
 40
13.86
  1
２２０／６０
 50
0.0
 41
0.9
 51
0.0
  7
KANJI17
  0
LINE
  8
0
  6
CONTINUOUS
 62
     1
 10
1241.17
 20
1674.9
 30
0.0
 11
1241.17
 21
1554.78
 31
0.0
  0
LINE
  8
0
  6
CONTINUOUS
 62
     2
 10
1171.87
 20
1674.9
 30
0.0
 11
1171.87
 21
1554.78
 31
0.0
  0
LINE
  8
0
  6
CONTINUOUS
 62
     2
 10
1102.57
 20
1674.9
 30
0.0
 11
1102.57
 21
1554.78
 31
0.0
  0
LINE
  8
0
  6
CONTINUOUS
 62
     1
 10
1010.17
 20
1674.9
 30
0.0
 11
1010.17
 21
1554.78
 31
0.0
  0
LINE
  8
0
  6
CONTINUOUS
 62
     1
 10
1010.17
 20
1674.9
 30
0.0
 11
1241.17
 21
1674.9
 31
0.0
  0
LINE
  8
0
  6
CONTINUOUS
 62
     1
 10
1010.17
 20
1637.94
 30
0.0
 11
1241.17
 21
1637.94
 31
0.0
  0
LINE
  8
0
  6
CONTINUOUS
 62
     2
 10
1010.17
 20
1610.22
 30
0.0
 11
1241.17
 21
1610.22
 31
0.0
  0
LINE
  8
0
  6
CONTINUOUS
 62
     2
 10
1010.17
 20
1582.5
 30
0.0
 11
1241.17
 21
1582.5
 31
0.0
  0
LINE
  8
0
  6
CONTINUOUS
 62
     1
 10
1010.17
 20
1554.78
 30
0.0
 11
1241.17
 21
1554.78
 31
0.0
  0
TEXT
  8
0
  6
CONTINUOUS
 62
     2
 10
1181.11
 20
1658.73
 30
1.386
 40
13.86
  1
起動電流
 50
0.0
 41
0.9
 51
0.0
  7
KANJI17
  0
TEXT
  8
0
  6
CONTINUOUS
 62
     2
 10
1181.11
 20
1642.56
 30
1.386
 40
13.86
  1
　　　Ａ
 50
0.0
 41
0.9
 51
0.0
  7
KANJI17
  0
TEXT
  8
0
  6
CONTINUOUS
 62
     2
 10
1111.81
 20
1658.73
 30
1.386
 40
13.86
  1
定格電流
 50
0.0
 41
0.9
 51
0.0
  7
KANJI17
  0
TEXT
  8
0
  6
CONTINUOUS
 62
     2
 10
1111.81
 20
1642.56
 30
1.386
 40
13.86
  1
　　　Ａ
 50
0.0
 41
0.9
 51
0.0
  7
KANJI17
  0
TEXT
  8
0
  6
CONTINUOUS
 62
     2
 10
1018.024
 20
1658.73
 30
1.386
 40
13.86
  1
電圧／周波数
 50
0.0
 41
0.9
 51
0.0
  7
KANJI17
  0
TEXT
  8
0
  6
CONTINUOUS
 62
     2
 10
1018.024
 20
1642.56
 30
1.386
 40
13.86
  1
　Ｖ／Ｈｚ
 50
0.0
 41
0.9
 51
0.0
  7
KANJI17
  0
TEXT
  8
0
  6
CONTINUOUS
 62
     2
 10
1018.024
 20
1617.15
 30
1.386
 40
13.86
  1
４００／５０
 50
0.0
 41
0.9
 51
0.0
  7
KANJI17
  0
TEXT
  8
0
  6
CONTINUOUS
 62
     2
 10
1018.024
 20
1589.43
 30
1.386
 40
13.86
  1
４００／６０
 50
0.0
 41
0.9
 51
0.0
  7
KANJI17
  0
TEXT
  8
0
  6
CONTINUOUS
 62
     2
 10
1018.024
 20
1561.71
 30
1.386
 40
13.86
  1
４４０／６０
 50
0.0
 41
0.9
 51
0.0
  7
KANJI17
  0
TEXT
  8
0
  6
CONTINUOUS
 62
     2
 10
1111.81
 20
1617.15
 30
1.386
 40
13.86
  1
　２．０
 50
0.0
 41
0.9
 51
0.0
  7
KANJI17
  0
TEXT
  8
0
  6
CONTINUOUS
 62
     2
 10
1111.81
 20
1561.71
 30
1.386
 40
13.86
  1
　１．７
 50
0.0
 41
0.9
 51
0.0
  7
KANJI17
  0
TEXT
  8
0
  6
CONTINUOUS
 62
     2
 10
1111.81
 20
1589.43
 30
1.386
 40
13.86
  1
　１．８
 50
0.0
 41
0.9
 51
0.0
  7
KANJI17
  0
TEXT
  8
0
  6
CONTINUOUS
 62
     2
 10
1389.01
 20
1617.15
 30
1.386
 40
13.86
  1
　４．０
 50
0.0
 41
0.9
 51
0.0
  7
KANJI17
  0
TEXT
  8
0
  6
CONTINUOUS
 62
     2
 10
1389.01
 20
1589.43
 30
1.386
 40
13.86
  1
　３．２
 50
0.0
 41
0.9
 51
0.0
  7
KANJI17
  0
TEXT
  8
0
  6
CONTINUOUS
 62
     2
 10
1389.01
 20
1561.71
 30
1.386
 40
13.86
  1
　３．４
 50
0.0
 41
0.9
 51
0.0
  7
KANJI17
  0
TEXT
  8
0
  6
CONTINUOUS
 62
     2
 10
1181.11
 20
1617.15
 30
1.386
 40
13.86
  1
　６．６
 50
0.0
 41
0.9
 51
0.0
  7
KANJI17
  0
TEXT
  8
0
  6
CONTINUOUS
 62
     2
 10
1181.11
 20
1589.43
 30
1.386
 40
13.86
  1
　５．８
 50
0.0
 41
0.9
 51
0.0
  7
KANJI17
  0
TEXT
  8
0
  6
CONTINUOUS
 62
     2
 10
1181.11
 20
1561.71
 30
1.386
 40
13.86
  1
　６．４
 50
0.0
 41
0.9
 51
0.0
  7
KANJI17
  0
TEXT
  8
0
  6
CONTINUOUS
 62
     2
 10
1458.31
 20
1617.15
 30
1.386
 40
13.86
  1
１３．３
 50
0.0
 41
0.9
 51
0.0
  7
KANJI17
  0
TEXT
  8
0
  6
CONTINUOUS
 62
     2
 10
1458.31
 20
1589.43
 30
1.386
 40
13.86
  1
１１．６
 50
0.0
 41
0.9
 51
0.0
  7
KANJI17
  0
TEXT
  8
0
  6
CONTINUOUS
 62
     2
 10
1458.31
 20
1561.71
 30
1.386
 40
13.86
  1
１２．７
 50
0.0
 41
0.9
 51
0.0
  7
KANJI17
  0
TEXT
  8
0
  6
CONTINUOUS
 62
     2
 10
171.4
 20
26.4
 30
0.0
 40
18.0
  1
ＦＤ　Ｎｏ．ＭＣ１９１
 50
0.0
 41
0.9
 51
0.0
  7
KANJI18
  0
TEXT
  8
0
  6
CONTINUOUS
 62
     2
 10
1856.92
 20
251.7
 30
0.0
 40
21.0
  1
ＭＣＬＣ１Ｂ－Ｌ
 50
0.0
 41
0.793650794
 51
0.0
  7
KANJI19
  0
TEXT
  8
0
  6
CONTINUOUS
 62
     2
 10
1971.7200334
 20
155.699994
 30
13.0
 40
30.0
  1
３００２４４２
 50
0.0
 41
0.8
 51
0.0
  7
KANJI20
  0
TEXT
  8
0
  6
CONTINUOUS
 62
     2
 10
1050.133
 20
1533.99
 30
1.617
 40
16.17
  1
注意：サーマルリレー等の選定は、上記の値で選定して下さい。
 50
0.0
 41
0.9
 51
0.0
  7
KANJI21
  0
LINE
  8
0
  6
CONTINUOUS
 62
     2
 10
1040.893
 20
1529.37
 30
0.0
 11
1510.0
 21
1529.37
 31
0.0
  0
LINE
  8
0
  6
CONTINUOUS
 62
     6
 10
351.629425053
 20
1631.447759827
 30
0.0
 11
119.584646507
 21
1631.447759827
 31
0.0
  0
TEXT
  8
0
  6
CONTINUOUS
 62
     6
 10
123.493517202
 20
1634.64592676
 30
1.0647
 40
11.661
  1
ＬＳ０１　　　：推力リミッタ（前進時過負荷用）
 50
0.0
 41
0.822608696
 51
0.0
  7
KANJI22
  0
TEXT
  8
0
  6
CONTINUOUS
 62
     6
 10
123.493517202
 20
1607.18342676
 30
1.0647
 40
11.661
  1
ＬＳ０２　　　：推力リミッタ（後進時過負荷用）
 50
0.0
 41
0.822608696
 51
0.0
  7
KANJI22
  0
LINE
  8
0
  6
CONTINUOUS
 62
     3
 10
351.629425053
 20
1603.985259827
 30
0.0
 11
119.584646507
 21
1603.985259827
 31
0.0
  0
LINE
  8
0
  6
CONTINUOUS
 62
     6
 10
351.629425053
 20
1603.985259827
 30
0.0
 11
119.584646507
 21
1603.985259827
 31
0.0
  0
TEXT
  8
0
  6
CONTINUOUS
 62
     6
 10
377.212228
 20
1628.900410728
 30
1.232517
 40
13.182
  1
電気定格　　　
 50
0.0
 41
0.85
 51
0.0
  7
KANJI23
  0
TEXT
  8
0
  6
CONTINUOUS
 62
     6
 10
390.013715102
 20
1598.326958599
 30
0.0
 40
11.8638
  1
ＤＣ１２５Ｖ　０．６Ａ　，ＤＣ２５０Ｖ　０．３Ａ　
 50
0.0
 41
0.726495726
 51
0.0
  7
KANJI24
  0
TEXT
  8
0
  6
CONTINUOUS
 62
     6
 10
384.757132178
 20
1646.661726126
 30
0.0
 40
55.0
  1
｝
 50
0.0
 41
0.440318182
 51
0.0
  7
KANJI25
  0
LINE
  8
0
  6
LTYPE2
 62
     6
 10
103.42
 20
1358.3
 30
0.0
 11
624.02
 21
1358.3
 31
0.0
  0
LINE
  8
0
  6
LTYPE2
 62
     6
 10
624.02
 20
1358.3
 30
0.0
 11
624.02
 21
1661.4
 31
0.0
  0
LINE
  8
0
  6
LTYPE2
 62
     6
 10
624.02
 20
1661.4
 30
0.0
 11
103.42
 21
1661.4
 31
0.0
  0
LINE
  8
0
  6
LTYPE2
 62
     6
 10
103.42
 20
1661.4
 30
0.0
 11
103.42
 21
1358.3
 31
0.0
  0
TEXT
  8
0
  6
CONTINUOUS
 62
     6
 10
288.632791539
 20
1376.32382165
 30
0.0
 40
17.740702234
  1
端子台　接続図
 50
0.0
 41
0.880962996
 51
0.0
  7
KANJI26
  0
LINE
  8
0
  6
CONTINUOUS
 62
     2
 10
323.597373465
 20
1427.328121884
 30
0.0
 11
323.597373465
 21
1404.549155128
 31
0.0
  0
LINE
  8
0
  6
CONTINUOUS
 62
     2
 10
350.17283468
 20
1427.328121884
 30
0.0
 11
350.17283468
 21
1404.549155128
 31
0.0
  0
LINE
  8
0
  6
CONTINUOUS
 62
     2
 10
376.748295894
 20
1427.328121884
 30
0.0
 11
376.748295894
 21
1404.549155128
 31
0.0
  0
LINE
  8
0
  6
CONTINUOUS
 62
     2
 10
403.323757109
 20
1427.328121884
 30
0.0
 11
403.323757109
 21
1404.549155128
 31
0.0
  0
CIRCLE
  8
0
  6
CONTINUOUS
 62
     6
 10
395.404269667
 20
1450.807921517
 30
0.0
 40
4.100214016
  0
LINE
  8
0
  6
CONTINUOUS
 62
     6
 10
391.304055651
 20
1450.807921517
 30
0.0
 11
390.036026502
 21
1450.807921517
 31
0.0
  0
LINE
  8
0
  6
CONTINUOUS
 62
     6
 10
416.358027433
 20
1464.494562742
 30
0.0
 11
412.443558096
 21
1442.159507138
 31
0.0
  0
LINE
  8
0
  6
CONTINUOUS
 62
     6
 10
411.631699663
 20
1465.282284037
 30
0.0
 11
407.716922494
 21
1442.947279739
 31
0.0
  0
LINE
  8
0
  6
CONTINUOUS
 62
     6
 10
412.443558096
 20
1442.159507138
 30
0.0
 11
407.716922494
 21
1442.947279739
 31
0.0
  0
CIRCLE
  8
0
  6
CONTINUOUS
 62
     6
 10
416.611487717
 20
1441.339464335
 30
0.0
 40
4.100214016
  0
LINE
  8
0
  6
CONTINUOUS
 62
     6
 10
416.611487717
 20
1437.239250319
 30
0.0
 11
416.611487717
 21
1427.328121884
 31
0.0
  0
LINE
  8
0
  6
CONTINUOUS
 62
     6
 10
390.036026502
 20
1450.807921517
 30
0.0
 11
390.036026502
 21
1427.328121884
 31
0.0
  0
LINE
  8
0
  6
CONTINUOUS
 62
     6
 10
363.460565287
 20
1427.328121884
 30
0.0
 11
363.460565287
 21
1481.033332504
 31
0.0
  0
LINE
  8
0
  6
CONTINUOUS
 62
     6
 10
283.987641926
 20
1464.494562742
 30
0.0
 11
287.902111263
 21
1442.159507138
 31
0.0
  0
LINE
  8
0
  6
CONTINUOUS
 62
     6
 10
288.713969696
 20
1465.282284037
 30
0.0
 11
292.628746865
 21
1442.947279739
 31
0.0
  0
LINE
  8
0
  6
CONTINUOUS
 62
     6
 10
287.902111263
 20
1442.159507138
 30
0.0
 11
292.628746865
 21
1442.947279739
 31
0.0
  0
CIRCLE
  8
0
  6
CONTINUOUS
 62
     6
 10
283.734181642
 20
1441.339464335
 30
0.0
 40
4.100214016
  0
CIRCLE
  8
0
  6
CONTINUOUS
 62
     6
 10
304.941399692
 20
1450.807921517
 30
0.0
 40
4.100214016
  0
LINE
  8
0
  6
CONTINUOUS
 62
     6
 10
309.041613708
 20
1450.807921517
 30
0.0
 11
310.309642857
 21
1450.807921517
 31
0.0
  0
LINE
  8
0
  6
CONTINUOUS
 62
     6
 10
283.734181642
 20
1437.239250319
 30
0.0
 11
283.734181642
 21
1427.328121884
 31
0.0
  0
LINE
  8
0
  6
CONTINUOUS
 62
     6
 10
310.309642857
 20
1450.807921517
 30
0.0
 11
310.309642857
 21
1427.328121884
 31
0.0
  0
LINE
  8
0
  6
CONTINUOUS
 62
     6
 10
336.885104072
 20
1427.328121884
 30
0.0
 11
336.885104072
 21
1481.033332504
 31
0.0
  0
LINE
  8
0
  6
CONTINUOUS
 62
     2
 10
429.899218324
 20
1427.328121884
 30
0.0
 11
429.899218324
 21
1404.549155128
 31
0.0
  0
LINE
  8
0
  6
CONTINUOUS
 62
     2
 10
270.446451035
 20
1427.328121884
 30
0.0
 11
270.446451035
 21
1404.549155128
 31
0.0
  0
LINE
  8
0
  6
CONTINUOUS
 62
     2
 10
297.02191225
 20
1427.328121884
 30
0.0
 11
297.02191225
 21
1404.549155128
 31
0.0
  0
LINE
  8
0
  6
CONTINUOUS
 62
     6
 10
416.611487717
 20
1481.033332504
 30
0.0
 11
363.460565287
 21
1481.033332504
 31
0.0
  0
CIRCLE
  8
0
  6
CONTINUOUS
 62
     6
 10
416.611487717
 20
1468.68941042
 30
0.0
 40
4.100214016
  0
LINE
  8
0
  6
CONTINUOUS
 62
     6
 10
416.358027433
 20
1464.494562742
 30
0.0
 11
411.631699663
 21
1465.282284037
 31
0.0
  0
LINE
  8
0
  6
CONTINUOUS
 62
     6
 10
416.611487717
 20
1472.789624436
 30
0.0
 11
416.611487717
 21
1481.033332504
 31
0.0
  0
CIRCLE
  8
0
  6
CONTINUOUS
 62
     6
 10
283.734181642
 20
1468.68941042
 30
0.0
 40
4.100214016
  0
LINE
  8
0
  6
CONTINUOUS
 62
     6
 10
283.987641926
 20
1464.494562742
 30
0.0
 11
288.713969696
 21
1465.282284037
 31
0.0
  0
LINE
  8
0
  6
CONTINUOUS
 62
     6
 10
283.734181642
 20
1472.789624436
 30
0.0
 11
283.734181642
 21
1481.033332504
 31
0.0
  0
LINE
  8
0
  6
CONTINUOUS
 62
     6
 10
336.885104072
 20
1481.033332504
 30
0.0
 11
283.734181642
 21
1481.033332504
 31
0.0
  0
TEXT
  8
0
  6
CONTINUOUS
 62
     6
 10
288.4972152
 20
1485.552473273
 30
0.819
 40
11.7
  1
ＬＳ０１
 50
0.0
 41
0.8
 51
0.0
  7
KANJI27
  0
TEXT
  8
0
  6
CONTINUOUS
 62
     6
 10
371.117398844
 20
1485.552473273
 30
0.819
 40
11.7
  1
ＬＳ０２
 50
0.0
 41
0.8
 51
0.0
  7
KANJI27
  0
TEXT
  8
0
  6
CONTINUOUS
 62
     3
 10
116.308775989
 20
1408.345649587
 30
0.0
 40
15.0
  1
　　　　　　　　　　　　　　　　　　１　　２　　　３　　　４　　　５　　　６
 50
0.0
 41
0.911
 51
0.0
  7
KANJI28
  0
LINE
  8
0
  6
CONTINUOUS
 62
     2
 10
270.446451035
 20
1427.328121884
 30
0.0
 11
429.899218324
 21
1427.328121884
 31
0.0
  0
LINE
  8
0
  6
CONTINUOUS
 62
     2
 10
270.446451035
 20
1404.549155128
 30
0.0
 11
429.899218324
 21
1404.549155128
 31
0.0
  0
TEXT
  8
0
  6
CONTINUOUS
 62
     6
 10
262.132791539
 20
1515.32382165
 30
0.0
 40
17.740702234
  1
推力リミッタ端子台配列
 50
0.0
 41
0.880962996
 51
0.0
  7
KANJI26
  0
TEXT
  8
0
  6
CONTINUOUS
 62
     6
 10
390.013715102
 20
1614.071931782
 30
0.0
 40
11.8638
  1
ＡＣ１００Ｖ　１２５Ｖ　２５０Ｖ　－１０Ａ
 50
0.0
 41
0.726495726
 51
0.0
  7
KANJI24
  0
TEXT
  8
0
  6
CONTINUOUS
 62
     2
 10
140.778726364
 20
1054.612221811
 30
0.0
 40
15.6
  1
モーター結線図
 50
0.0
 41
0.925
 51
0.0
  7
KANJI29
  0
LINE
  8
0
  6
LTYPE2
 62
     6
 10
135.683333
 20
1175.233317
 30
0.0
 11
135.683333
 21
1158.832460936
 31
0.0
  0
LINE
  8
0
  6
LTYPE2
 62
     6
 10
266.080262694
 20
1175.233317
 30
0.0
 11
135.683333
 21
1175.233317
 31
0.0
  0
TEXT
  8
0
  6
CONTINUOUS
 62
     6
 10
118.148590591
 20
1161.748168681
 30
1.093390404
 40
10.933904043
  1
Ｕ
 50
0.0
 41
0.9
 51
0.0
  7
KANJI30
  0
CIRCLE
  8
0
  6
CONTINUOUS
 62
     6
 10
135.683333
 20
1155.552289723
 30
0.0
 40
4.373561617
  0
LINE
  8
0
  6
CONTINUOUS
 62
     6
 10
130.65854931
 20
1150.527506033
 30
0.0
 11
140.863526417
 21
1160.73248314
 31
0.0
  0
TEXT
  8
0
  6
CONTINUOUS
 62
     6
 10
145.928806047
 20
1183.899448352
 30
1.518597784
 40
15.185977837
  1
エコノストップモータ
 50
0.0
 41
0.66671875
 51
0.0
  7
KANJI31
  0
CIRCLE
  8
0
  6
CONTINUOUS
 62
     6
 10
180.512339575
 20
1130.039846957
 30
0.0
 40
18.223173404
  0
TEXT
  8
0
  6
CONTINUOUS
 62
     6
 10
172.858606745
 20
1121.292723723
 30
1.82231734
 40
18.223173404
  1
Ｍ
 50
0.0
 41
0.9
 51
0.0
  7
KANJI32
  0
LINE
  8
0
  6
CONTINUOUS
 62
     6
 10
156.457750681
 20
1104.527404191
 30
0.0
 11
167.756118192
 21
1117.648089042
 31
0.0
  0
LINE
  8
0
  6
CONTINUOUS
 62
     6
 10
156.457750681
 20
1155.552289723
 30
0.0
 11
167.756118192
 21
1142.431604872
 31
0.0
  0
LINE
  8
0
  6
CONTINUOUS
 62
     6
 10
156.457750681
 20
1155.552289723
 30
0.0
 11
140.056894617
 21
1155.552289723
 31
0.0
  0
LINE
  8
0
  6
CONTINUOUS
 62
     6
 10
162.653629639
 20
1130.039846957
 30
0.0
 11
140.056894617
 21
1130.039846957
 31
0.0
  0
LINE
  8
0
  6
CONTINUOUS
 62
     6
 10
156.457750681
 20
1104.527404191
 30
0.0
 11
140.056894617
 21
1104.527404191
 31
0.0
  0
TEXT
  8
0
  6
CONTINUOUS
 62
     6
 10
119.241980995
 20
1135.871262446
 30
1.093390404
 40
10.933904043
  1
Ｖ
 50
0.0
 41
0.9
 51
0.0
  7
KANJI30
  0
TEXT
  8
0
  6
CONTINUOUS
 62
     6
 10
120.335371399
 20
1109.994356212
 30
1.093390404
 40
10.933904043
  1
Ｗ
 50
0.0
 41
0.9
 51
0.0
  7
KANJI30
  0
CIRCLE
  8
0
  6
CONTINUOUS
 62
     6
 10
135.683333
 20
1130.039846957
 30
0.0
 40
4.373561617
  0
LINE
  8
0
  6
CONTINUOUS
 62
     6
 10
130.65854931
 20
1125.015063267
 30
0.0
 11
140.863526417
 21
1135.220040374
 31
0.0
  0
LINE
  8
0
  6
LTYPE2
 62
     6
 10
135.683333
 20
1151.543191574
 30
0.0
 11
135.683333
 21
1133.32001817
 31
0.0
  0
CIRCLE
  8
0
  6
CONTINUOUS
 62
     6
 10
135.683333
 20
1104.527404191
 30
0.0
 40
4.373561617
  0
LINE
  8
0
  6
CONTINUOUS
 62
     6
 10
130.65854931
 20
1099.502620501
 30
0.0
 11
140.863526417
 21
1109.707597607
 31
0.0
  0
LINE
  8
0
  6
LTYPE2
 62
     6
 10
135.683333
 20
1126.030748808
 30
0.0
 11
135.683333
 21
1108.900965808
 31
0.0
  0
LINE
  8
0
  6
LTYPE2
 62
     6
 10
266.080262694
 20
1079.821584891
 30
0.0
 11
135.683333
 21
1079.821584891
 31
0.0
  0
LINE
  8
0
  6
LTYPE2
 62
     6
 10
135.683333
 20
1100.153842574
 30
0.0
 11
135.683333
 21
1079.821584891
 31
0.0
  0
TEXT
  8
0
  6
CONTINUOUS
 62
     6
 10
206.753709277
 20
1121.784749405
 30
1.457853872
 40
14.578538724
  1
Ｂ
 50
0.0
 41
0.9
 51
0.0
  7
KANJI33
  0
CIRCLE
  8
0
  6
CONTINUOUS
 62
     6
 10
213.314051703
 20
1130.039846957
 30
0.0
 40
14.578538724
  0
LINE
  8
0
  6
LTYPE2
 62
     6
 10
266.080262694
 20
1079.821584891
 30
0.0
 11
266.080262694
 21
1175.233317
 31
0.0
  0
LINE
  8
0
  6
CONTINUOUS
 62
     1
 10
406.0
 20
610.0
 30
0.0
 11
320.0
 21
610.0
 31
0.0
  0
LINE
  8
0
  6
CONTINUOUS
 62
     1
 10
320.0
 20
623.5
 30
0.0
 11
320.0
 21
612.55046
 31
0.0
  0
LINE
  8
0
  6
CONTINUOUS
 62
     1
 10
320.0
 20
623.5
 30
0.0
 11
320.0
 21
634.44954
 31
0.0
  0
LINE
  8
0
  6
CONTINUOUS
 62
     1
 10
311.9789
 20
615.23198
 30
0.0
 11
313.527076294
 21
612.55046
 31
0.0
  0
LINE
  8
0
  6
CONTINUOUS
 62
     1
 10
311.9789
 20
623.5
 30
0.0
 11
311.9789
 21
615.23198
 31
0.0
  0
LINE
  8
0
  6
CONTINUOUS
 62
     1
 10
311.9789
 20
631.76802
 30
0.0
 11
313.527076294
 21
634.44954
 31
0.0
  0
LINE
  8
0
  6
CONTINUOUS
 62
     1
 10
311.9789
 20
623.5
 30
0.0
 11
311.9789
 21
631.76802
 31
0.0
  0
ARC
  8
0
  6
CONTINUOUS
 62
     1
 10
322.433121693
 20
623.5
 30
0.0
 40
10.454221693
 50
148.419912243
 51
211.580087757
  0
ARC
  8
0
  6
CONTINUOUS
 62
     1
 10
315.172013606
 20
615.287845
 30
0.0
 40
3.193602261
 50
121.002313915
 51
182.989498403
  0
LINE
  8
0
  6
CONTINUOUS
 62
     1
 10
311.9789
 20
631.76802
 30
0.0
 11
313.527076294
 21
634.44954
 31
0.0
  0
ARC
  8
0
  6
CONTINUOUS
 62
     1
 10
315.172013606
 20
631.712155
 30
0.0
 40
3.193602261
 50
177.010501597
 51
238.997686085
  0
LINE
  8
0
  6
CONTINUOUS
 62
     1
 10
320.0
 20
612.55046
 30
0.0
 11
313.527076294
 21
612.55046
 31
0.0
  0
LINE
  8
0
  6
CONTINUOUS
 62
     1
 10
320.0
 20
618.02523
 30
0.0
 11
313.527076294
 21
618.02523
 31
0.0
  0
LINE
  8
0
  6
CONTINUOUS
 62
     1
 10
320.0
 20
628.97477
 30
0.0
 11
313.527076294
 21
628.97477
 31
0.0
  0
LINE
  8
0
  6
CONTINUOUS
 62
     1
 10
320.0
 20
634.44954
 30
0.0
 11
313.527076294
 21
634.44954
 31
0.0
  0
LINE
  8
0
  6
CONTINUOUS
 62
     1
 10
320.0
 20
751.5
 30
0.0
 11
320.0
 21
740.55046
 31
0.0
  0
LINE
  8
0
  6
CONTINUOUS
 62
     1
 10
320.0
 20
751.5
 30
0.0
 11
320.0
 21
762.44954
 31
0.0
  0
LINE
  8
0
  6
CONTINUOUS
 62
     1
 10
311.9789
 20
743.23198
 30
0.0
 11
313.527076294
 21
740.55046
 31
0.0
  0
LINE
  8
0
  6
CONTINUOUS
 62
     1
 10
311.9789
 20
751.5
 30
0.0
 11
311.9789
 21
743.23198
 31
0.0
  0
LINE
  8
0
  6
CONTINUOUS
 62
     1
 10
311.9789
 20
759.76802
 30
0.0
 11
313.527076294
 21
762.44954
 31
0.0
  0
LINE
  8
0
  6
CONTINUOUS
 62
     1
 10
311.9789
 20
751.5
 30
0.0
 11
311.9789
 21
759.76802
 31
0.0
  0
ARC
  8
0
  6
CONTINUOUS
 62
     1
 10
322.433121693
 20
751.5
 30
0.0
 40
10.454221693
 50
148.419912243
 51
211.580087757
  0
ARC
  8
0
  6
CONTINUOUS
 62
     1
 10
315.172013606
 20
743.287845
 30
0.0
 40
3.193602261
 50
121.002313915
 51
182.989498403
  0
LINE
  8
0
  6
CONTINUOUS
 62
     1
 10
311.9789
 20
759.76802
 30
0.0
 11
313.527076294
 21
762.44954
 31
0.0
  0
ARC
  8
0
  6
CONTINUOUS
 62
     1
 10
315.172013606
 20
759.712155
 30
0.0
 40
3.193602261
 50
177.010501597
 51
238.997686085
  0
LINE
  8
0
  6
CONTINUOUS
 62
     1
 10
320.0
 20
740.55046
 30
0.0
 11
313.527076294
 21
740.55046
 31
0.0
  0
LINE
  8
0
  6
CONTINUOUS
 62
     1
 10
320.0
 20
746.02523
 30
0.0
 11
313.527076294
 21
746.02523
 31
0.0
  0
LINE
  8
0
  6
CONTINUOUS
 62
     1
 10
320.0
 20
756.97477
 30
0.0
 11
313.527076294
 21
756.97477
 31
0.0
  0
LINE
  8
0
  6
CONTINUOUS
 62
     1
 10
320.0
 20
762.44954
 30
0.0
 11
313.527076294
 21
762.44954
 31
0.0
  0
LINE
  8
0
  6
CONTINUOUS
 62
     1
 10
514.0
 20
629.5
 30
0.0
 11
588.0
 21
629.5
 31
0.0
  0
LINE
  8
0
  6
CONTINUOUS
 62
     1
 10
421.0
 20
630.5
 30
0.0
 11
421.0
 21
744.5
 31
0.0
  0
CIRCLE
  8
0
  6
CONTINUOUS
 62
     1
 10
466.0
 20
687.5
 30
0.0
 40
10.0
  0
CIRCLE
  8
0
  6
CONTINUOUS
 62
     1
 10
466.0
 20
687.5
 30
0.0
 40
21.0
  0
CIRCLE
  8
0
  6
CONTINUOUS
 62
     1
 10
466.0
 20
687.5
 30
0.0
 40
25.0
  0
LINE
  8
0
  6
CONTINUOUS
 62
     1
 10
406.0
 20
744.5
 30
0.0
 11
421.0
 21
744.5
 31
0.0
  0
LINE
  8
0
  6
CONTINUOUS
 62
     1
 10
434.9
 20
740.5
 30
0.0
 11
588.0
 21
740.5
 31
0.0
  0
LINE
  8
0
  6
CONTINUOUS
 62
     1
 10
514.0
 20
629.5
 30
0.0
 11
514.0
 21
681.9
 31
0.0
  0
LINE
  8
0
  6
CONTINUOUS
 62
     1
 10
434.9
 20
634.5
 30
0.0
 11
511.5
 21
634.5
 31
0.0
  0
ARC
  8
0
  6
CONTINUOUS
 62
     1
 10
509.0
 20
625.0
 30
0.0
 40
3.0
 50
90.0
 51
180.0
  0
LINE
  8
0
  6
CONTINUOUS
 62
     1
 10
509.0
 20
628.0
 30
0.0
 11
596.0
 21
628.0
 31
0.0
  0
LINE
  8
0
  6
CONTINUOUS
 62
     1
 10
509.0
 20
629.5
 30
0.0
 11
596.0
 21
629.5
 31
0.0
  0
LINE
  8
0
  6
CONTINUOUS
 62
     1
 10
424.0
 20
732.5
 30
0.0
 11
424.0
 21
743.44954
 31
0.0
  0
LINE
  8
0
  6
CONTINUOUS
 62
     1
 10
424.0
 20
732.5
 30
0.0
 11
424.0
 21
721.55046
 31
0.0
  0
LINE
  8
0
  6
CONTINUOUS
 62
     1
 10
421.0
 20
743.25
 30
0.0
 11
424.0
 21
743.25
 31
0.0
  0
LINE
  8
0
  6
CONTINUOUS
 62
     1
 10
421.0
 20
732.5
 30
0.0
 11
424.000254073
 21
735.500254073
 31
0.0
  0
LINE
  8
0
  6
CONTINUOUS
 62
     1
 10
424.000254073
 20
732.5
 30
0.0
 11
421.0
 21
729.499745927
 31
0.0
  0
LINE
  8
0
  6
CONTINUOUS
 62
     1
 10
421.0
 20
721.75
 30
0.0
 11
424.0
 21
721.75
 31
0.0
  0
LINE
  8
0
  6
CONTINUOUS
 62
     1
 10
424.0
 20
743.25
 30
0.0
 11
435.3
 21
743.25
 31
0.0
  0
LINE
  8
0
  6
CONTINUOUS
 62
     1
 10
435.3
 20
732.5
 30
0.0
 11
435.3
 21
743.25
 31
0.0
  0
LINE
  8
0
  6
CONTINUOUS
 62
     1
 10
435.3
 20
743.25
 30
0.0
 11
436.0
 21
742.037564435
 31
0.0
  0
LINE
  8
0
  6
CONTINUOUS
 62
     1
 10
436.0
 20
732.5
 30
0.0
 11
436.0
 21
742.037564435
 31
0.0
  0
LINE
  8
0
  6
CONTINUOUS
 62
     1
 10
424.0
 20
721.75
 30
0.0
 11
435.3
 21
721.75
 31
0.0
  0
LINE
  8
0
  6
CONTINUOUS
 62
     1
 10
435.3
 20
732.5
 30
0.0
 11
435.3
 21
721.75
 31
0.0
  0
LINE
  8
0
  6
CONTINUOUS
 62
     1
 10
435.3
 20
721.75
 30
0.0
 11
436.0
 21
722.962435565
 31
0.0
  0
LINE
  8
0
  6
CONTINUOUS
 62
     1
 10
436.0
 20
732.5
 30
0.0
 11
436.0
 21
722.962435565
 31
0.0
  0
LINE
  8
0
  6
CONTINUOUS
 62
     1
 10
424.0
 20
642.5
 30
0.0
 11
424.0
 21
631.55046
 31
0.0
  0
LINE
  8
0
  6
CONTINUOUS
 62
     1
 10
424.0
 20
642.5
 30
0.0
 11
424.0
 21
653.44954
 31
0.0
  0
LINE
  8
0
  6
CONTINUOUS
 62
     1
 10
421.0
 20
631.75
 30
0.0
 11
424.0
 21
631.75
 31
0.0
  0
LINE
  8
0
  6
CONTINUOUS
 62
     1
 10
421.0
 20
642.5
 30
0.0
 11
424.000254073
 21
639.499745927
 31
0.0
  0
LINE
  8
0
  6
CONTINUOUS
 62
     1
 10
424.000254073
 20
642.5
 30
0.0
 11
421.0
 21
645.500254073
 31
0.0
  0
LINE
  8
0
  6
CONTINUOUS
 62
     1
 10
421.0
 20
653.25
 30
0.0
 11
424.0
 21
653.25
 31
0.0
  0
LINE
  8
0
  6
CONTINUOUS
 62
     1
 10
424.0
 20
631.75
 30
0.0
 11
435.3
 21
631.75
 31
0.0
  0
LINE
  8
0
  6
CONTINUOUS
 62
     1
 10
435.3
 20
642.5
 30
0.0
 11
435.3
 21
631.75
 31
0.0
  0
LINE
  8
0
  6
CONTINUOUS
 62
     1
 10
435.3
 20
631.75
 30
0.0
 11
436.0
 21
632.962435565
 31
0.0
  0
LINE
  8
0
  6
CONTINUOUS
 62
     1
 10
436.0
 20
642.5
 30
0.0
 11
436.0
 21
632.962435565
 31
0.0
  0
LINE
  8
0
  6
CONTINUOUS
 62
     1
 10
424.0
 20
653.25
 30
0.0
 11
435.3
 21
653.25
 31
0.0
  0
LINE
  8
0
  6
CONTINUOUS
 62
     1
 10
435.3
 20
642.5
 30
0.0
 11
435.3
 21
653.25
 31
0.0
  0
LINE
  8
0
  6
CONTINUOUS
 62
     1
 10
435.3
 20
653.25
 30
0.0
 11
436.0
 21
652.037564435
 31
0.0
  0
LINE
  8
0
  6
CONTINUOUS
 62
     1
 10
436.0
 20
642.5
 30
0.0
 11
436.0
 21
652.037564435
 31
0.0
  0
LINE
  8
0
  6
CONTINUOUS
 62
     1
 10
406.0
 20
630.5
 30
0.0
 11
421.0
 21
630.5
 31
0.0
  0
POINT
  8
0
  6
CONTINUOUS
 62
     1
 10
406.0
 20
630.5
 30
0.0
  0
LINE
  8
0
  6
CONTINUOUS
 62
     1
 10
406.0
 20
630.5
 30
0.0
 11
406.0
 21
744.5
 31
0.0
  0
LINE
  8
0
  6
LTYPE3
 62
     2
 10
345.1
 20
623.5
 30
0.0
 11
310.9
 21
623.5
 31
0.0
  0
LINE
  8
0
  6
LTYPE3
 62
     2
 10
346.1
 20
751.5
 30
0.0
 11
310.9
 21
751.5
 31
0.0
  0
LINE
  8
0
  6
LTYPE3
 62
     2
 10
385.0
 20
732.5
 30
0.0
 11
438.0
 21
732.5
 31
0.0
  0
LINE
  8
0
  6
LTYPE3
 62
     2
 10
466.0
 20
656.0
 30
0.0
 11
466.0
 21
719.0
 31
0.0
  0
LINE
  8
0
  6
LTYPE3
 62
     2
 10
385.0
 20
642.5
 30
0.0
 11
438.0
 21
642.5
 31
0.0
  0
LINE
  8
0
  6
LTYPE2
 62
     2
 10
550.0
 20
616.3
 30
0.0
 11
550.0
 21
631.15
 31
0.0
  0
LINE
  8
0
  6
CONTINUOUS
 62
     2
 10
320.0
 20
437.3625
 30
0.0
 11
332.074072829
 21
434.127261936
 31
0.0
  0
LINE
  8
0
  6
CONTINUOUS
 62
     2
 10
320.0
 20
437.3625
 30
0.0
 11
332.074072829
 21
440.597738064
 31
0.0
  0
LINE
  8
0
  6
CONTINUOUS
 62
     2
 10
320.0
 20
437.3625
 30
0.0
 11
406.0
 21
437.3625
 31
0.0
  0
LINE
  8
0
  6
CONTINUOUS
 62
     2
 10
406.0
 20
437.3625
 30
0.0
 11
393.925927171
 21
440.597738064
 31
0.0
  0
LINE
  8
0
  6
CONTINUOUS
 62
     2
 10
406.0
 20
437.3625
 30
0.0
 11
393.925927171
 21
434.127261936
 31
0.0
  0
LINE
  8
0
  6
CONTINUOUS
 62
     2
 10
406.0
 20
437.3625
 30
0.0
 11
418.074072829
 21
434.127261936
 31
0.0
  0
LINE
  8
0
  6
CONTINUOUS
 62
     2
 10
406.0
 20
437.3625
 30
0.0
 11
418.074072829
 21
440.597738064
 31
0.0
  0
LINE
  8
0
  6
CONTINUOUS
 62
     2
 10
406.0
 20
437.3625
 30
0.0
 11
466.0
 21
437.3625
 31
0.0
  0
LINE
  8
0
  6
CONTINUOUS
 62
     2
 10
466.0
 20
437.3625
 30
0.0
 11
453.925927171
 21
440.597738064
 31
0.0
  0
LINE
  8
0
  6
CONTINUOUS
 62
     2
 10
466.0
 20
437.3625
 30
0.0
 11
453.925927171
 21
434.127261936
 31
0.0
  0
LINE
  8
0
  6
CONTINUOUS
 62
     2
 10
466.0
 20
437.3625
 30
0.0
 11
478.074072829
 21
434.127261936
 31
0.0
  0
LINE
  8
0
  6
CONTINUOUS
 62
     2
 10
466.0
 20
437.3625
 30
0.0
 11
478.074072829
 21
440.597738064
 31
0.0
  0
LINE
  8
0
  6
CONTINUOUS
 62
     2
 10
466.0
 20
437.3625
 30
0.0
 11
1097.0
 21
437.3625
 31
0.0
  0
LINE
  8
0
  6
CONTINUOUS
 62
     2
 10
466.0
 20
480.7
 30
0.0
 11
478.074072829
 21
477.464761936
 31
0.0
  0
LINE
  8
0
  6
CONTINUOUS
 62
     2
 10
466.0
 20
480.7
 30
0.0
 11
478.074072829
 21
483.935238064
 31
0.0
  0
LINE
  8
0
  6
CONTINUOUS
 62
     2
 10
466.0
 20
480.7
 30
0.0
 11
992.0
 21
480.7
 31
0.0
  0
LINE
  8
0
  6
CONTINUOUS
 62
     2
 10
320.0
 20
429.8625
 30
0.0
 11
320.0
 21
385.5
 31
0.0
  0
LINE
  8
0
  6
CONTINUOUS
 62
     2
 10
320.0
 20
393.0
 30
0.0
 11
332.074072829
 21
389.764761936
 31
0.0
  0
LINE
  8
0
  6
CONTINUOUS
 62
     2
 10
320.0
 20
393.0
 30
0.0
 11
332.074072829
 21
396.235238064
 31
0.0
  0
LINE
  8
0
  6
CONTINUOUS
 62
     2
 10
320.0
 20
393.0
 30
0.0
 11
1097.0
 21
393.0
 31
0.0
  0
LINE
  8
0
  6
CONTINUOUS
 62
     2
 10
320.0
 20
601.875
 30
0.0
 11
320.0
 21
429.8625
 31
0.0
  0
LINE
  8
0
  6
CONTINUOUS
 62
     2
 10
406.0
 20
605.875
 30
0.0
 11
406.0
 21
429.8625
 31
0.0
  0
LINE
  8
0
  6
CONTINUOUS
 62
     2
 10
466.0
 20
659.375
 30
0.0
 11
466.0
 21
429.8625
 31
0.0
  0
ARC
  8
0
  6
CONTINUOUS
 62
     1
 10
418.0
 20
757.0
 30
0.0
 40
2.0
 50
90.0
 51
180.0
  0
ARC
  8
0
  6
CONTINUOUS
 62
     1
 10
418.0
 20
888.0
 30
0.0
 40
2.0
 50
180.0
 51
270.0
  0
LINE
  8
0
  6
CONTINUOUS
 62
     1
 10
453.0
 20
886.0
 30
0.0
 11
453.0
 21
759.0
 31
0.0
  0
LINE
  8
0
  6
CONTINUOUS
 62
     1
 10
639.000005395
 20
759.0
 30
0.0
 11
418.0
 21
759.0
 31
0.0
  0
LINE
  8
0
  6
CONTINUOUS
 62
     1
 10
639.0
 20
886.0
 30
0.0
 11
418.0
 21
886.0
 31
0.0
  0
LINE
  8
0
  6
CONTINUOUS
 62
     1
 10
551.05
 20
905.5
 30
0.0
 11
551.05
 21
939.5
 31
0.0
  0
LINE
  8
0
  6
CONTINUOUS
 62
     1
 10
551.05
 20
905.5
 30
0.0
 11
525.05
 21
905.5
 31
0.0
  0
LINE
  8
0
  6
CONTINUOUS
 62
     1
 10
551.05
 20
939.5
 30
0.0
 11
525.05
 21
939.5
 31
0.0
  0
LINE
  8
0
  6
LTYPE2
 62
     2
 10
557.979475845
 20
922.5
 30
0.0
 11
517.979475845
 21
922.5
 31
0.0
  0
LINE
  8
0
  6
CONTINUOUS
 62
     1
 10
455.05
 20
897.5
 30
0.0
 11
455.05
 21
900.5
 31
0.0
  0
ARC
  8
0
  6
CONTINUOUS
 62
     1
 10
459.05
 20
894.5
 30
0.0
 40
3.0
 50
0.0
 51
90.0
  0
LINE
  8
0
  6
CONTINUOUS
 62
     1
 10
515.05
 20
897.5
 30
0.0
 11
515.05
 21
900.5
 31
0.0
  0
ARC
  8
0
  6
CONTINUOUS
 62
     1
 10
511.05
 20
894.5
 30
0.0
 40
3.0
 50
90.0
 51
180.0
  0
LINE
  8
0
  6
CONTINUOUS
 62
     1
 10
515.05
 20
897.5
 30
0.0
 11
455.05
 21
897.5
 31
0.0
  0
LINE
  8
0
  6
CONTINUOUS
 62
     1
 10
439.962087912
 20
902.5
 30
0.0
 11
532.05
 21
946.520045888
 31
0.0
  0
LINE
  8
0
  6
CONTINUOUS
 62
     1
 10
438.05
 20
906.5
 30
0.0
 11
439.962087912
 21
902.5
 31
0.0
  0
LINE
  8
0
  6
CONTINUOUS
 62
     1
 10
438.05
 20
906.5
 30
0.0
 11
530.137912088
 21
950.520045888
 31
0.0
  0
LINE
  8
0
  6
CONTINUOUS
 62
     1
 10
530.137912088
 20
950.520045888
 30
0.0
 11
532.05
 21
946.520045888
 31
0.0
  0
LINE
  8
0
  6
CONTINUOUS
 62
     1
 10
445.05
 20
909.846153846
 30
0.0
 11
445.05
 21
949.5
 31
0.0
  0
ARC
  8
0
  6
CONTINUOUS
 62
     1
 10
448.05
 20
949.5
 30
0.0
 40
3.0
 50
90.0
 51
180.0
  0
LINE
  8
0
  6
CONTINUOUS
 62
     1
 10
445.05
 20
903.5
 30
0.0
 11
445.05
 21
904.9321338
 31
0.0
  0
ARC
  8
0
  6
CONTINUOUS
 62
     1
 10
448.05
 20
903.5
 30
0.0
 40
3.0
 50
180.0
 51
270.0
  0
LINE
  8
0
  6
CONTINUOUS
 62
     1
 10
525.05
 20
903.5
 30
0.0
 11
525.05
 21
943.173892042
 31
0.0
  0
LINE
  8
0
  6
CONTINUOUS
 62
     1
 10
522.05
 20
900.5
 30
0.0
 11
448.05
 21
900.5
 31
0.0
  0
ARC
  8
0
  6
CONTINUOUS
 62
     1
 10
522.05
 20
903.5
 30
0.0
 40
3.0
 50
270.0
 51
0.0
  0
LINE
  8
0
  6
CONTINUOUS
 62
     1
 10
525.05
 20
948.087912088
 30
0.0
 11
525.05
 21
949.5
 31
0.0
  0
LINE
  8
0
  6
CONTINUOUS
 62
     1
 10
522.05
 20
952.5
 30
0.0
 11
448.05
 21
952.5
 31
0.0
  0
ARC
  8
0
  6
CONTINUOUS
 62
     1
 10
522.05
 20
949.5
 30
0.0
 40
3.0
 50
0.0
 51
90.0
  0
ARC
  8
0
  6
CONTINUOUS
 62
     1
 10
465.05
 20
889.0
 30
0.0
 40
3.0
 50
180.0
 51
270.0
  0
ARC
  8
0
  6
CONTINUOUS
 62
     1
 10
505.05
 20
889.0
 30
0.0
 40
3.0
 50
270.0
 51
0.0
  0
LINE
  8
0
  6
CONTINUOUS
 62
     1
 10
508.05
 20
889.000005395
 30
0.0
 11
508.05
 21
894.5
 31
0.0
  0
LINE
  8
0
  6
CONTINUOUS
 62
     1
 10
462.05
 20
889.000005395
 30
0.0
 11
462.05
 21
894.5
 31
0.0
  0
ARC
  8
0
  6
CONTINUOUS
 62
     1
 10
414.0
 20
900.5
 30
0.0
 40
2.0
 50
0.0
 51
90.0
  0
LINE
  8
0
  6
CONTINUOUS
 62
     1
 10
416.0
 20
900.5
 30
0.0
 11
416.0
 21
744.5
 31
0.0
  0
LINE
  8
0
  6
CONTINUOUS
 62
     1
 10
421.4999
 20
874.120720777
 30
0.0
 11
420.440300598
 21
875.956000777
 31
0.0
  0
LINE
  8
0
  6
CONTINUOUS
 62
     1
 10
421.4999
 20
868.461940777
 30
0.0
 11
421.4999
 21
874.120720777
 31
0.0
  0
LINE
  8
0
  6
CONTINUOUS
 62
     1
 10
421.4999
 20
862.803160777
 30
0.0
 11
420.440300598
 21
860.967880777
 31
0.0
  0
LINE
  8
0
  6
CONTINUOUS
 62
     1
 10
421.4999
 20
868.461940777
 30
0.0
 11
421.4999
 21
862.803160777
 31
0.0
  0
ARC
  8
0
  6
CONTINUOUS
 62
     1
 10
414.344844663
 20
868.461940777
 30
0.0
 40
7.155055337
 50
328.419912243
 51
31.580087757
  0
ARC
  8
0
  6
CONTINUOUS
 62
     1
 10
419.314476233
 20
874.082485777
 30
0.0
 40
2.185758211
 50
301.002313915
 51
2.989498403
  0
LINE
  8
0
  6
CONTINUOUS
 62
     1
 10
421.4999
 20
862.803160777
 30
0.0
 11
420.440300598
 21
860.967880777
 31
0.0
  0
ARC
  8
0
  6
CONTINUOUS
 62
     1
 10
419.314476233
 20
862.841395777
 30
0.0
 40
2.185758211
 50
357.010501597
 51
58.997686085
  0
LINE
  8
0
  6
CONTINUOUS
 62
     1
 10
416.0
 20
875.956000777
 30
0.0
 11
420.440300598
 21
875.956000777
 31
0.0
  0
LINE
  8
0
  6
CONTINUOUS
 62
     1
 10
416.0
 20
872.208970777
 30
0.0
 11
420.440300598
 21
872.208970777
 31
0.0
  0
LINE
  8
0
  6
CONTINUOUS
 62
     1
 10
416.0
 20
864.714910777
 30
0.0
 11
420.440300598
 21
864.714910777
 31
0.0
  0
LINE
  8
0
  6
CONTINUOUS
 62
     1
 10
416.0
 20
860.967880777
 30
0.0
 11
420.440300598
 21
860.967880777
 31
0.0
  0
LINE
  8
0
  6
LTYPE2
 62
     2
 10
411.0
 20
868.461940777
 30
0.0
 11
425.8
 21
868.461940777
 31
0.0
  0
LINE
  8
0
  6
LTYPE2
 62
     2
 10
485.0
 20
879.5
 30
0.0
 11
485.0
 21
954.5
 31
0.0
  0
LINE
  8
0
  6
CONTINUOUS
 62
     1
 10
421.4999
 20
770.879279223
 30
0.0
 11
420.440300598
 21
769.043999223
 31
0.0
  0
LINE
  8
0
  6
CONTINUOUS
 62
     1
 10
421.4999
 20
776.538059223
 30
0.0
 11
421.4999
 21
770.879279223
 31
0.0
  0
LINE
  8
0
  6
CONTINUOUS
 62
     1
 10
421.4999
 20
782.196839223
 30
0.0
 11
420.440300598
 21
784.032119223
 31
0.0
  0
LINE
  8
0
  6
CONTINUOUS
 62
     1
 10
421.4999
 20
776.538059223
 30
0.0
 11
421.4999
 21
782.196839223
 31
0.0
  0
ARC
  8
0
  6
CONTINUOUS
 62
     1
 10
414.344844663
 20
776.538059223
 30
0.0
 40
7.155055337
 50
328.419912243
 51
31.580087757
  0
ARC
  8
0
  6
CONTINUOUS
 62
     1
 10
419.314476233
 20
770.917514223
 30
0.0
 40
2.185758211
 50
357.010501597
 51
58.997686085
  0
LINE
  8
0
  6
CONTINUOUS
 62
     1
 10
421.4999
 20
782.196839223
 30
0.0
 11
420.440300598
 21
784.032119223
 31
0.0
  0
ARC
  8
0
  6
CONTINUOUS
 62
     1
 10
419.314476233
 20
782.158604223
 30
0.0
 40
2.185758211
 50
301.002313915
 51
2.989498403
  0
LINE
  8
0
  6
CONTINUOUS
 62
     1
 10
416.0
 20
769.043999223
 30
0.0
 11
420.440300598
 21
769.043999223
 31
0.0
  0
LINE
  8
0
  6
CONTINUOUS
 62
     1
 10
416.0
 20
772.791029223
 30
0.0
 11
420.440300598
 21
772.791029223
 31
0.0
  0
LINE
  8
0
  6
CONTINUOUS
 62
     1
 10
416.0
 20
780.285089223
 30
0.0
 11
420.440300598
 21
780.285089223
 31
0.0
  0
LINE
  8
0
  6
CONTINUOUS
 62
     1
 10
416.0
 20
784.032119223
 30
0.0
 11
420.440300598
 21
784.032119223
 31
0.0
  0
LINE
  8
0
  6
LTYPE2
 62
     2
 10
411.0
 20
776.538059223
 30
0.0
 11
425.8
 21
776.538059223
 31
0.0
  0
LINE
  8
0
  6
CONTINUOUS
 62
     2
 10
551.05
 20
922.5
 30
0.0
 11
562.118811641
 21
928.307874727
 31
0.0
  0
LINE
  8
0
  6
CONTINUOUS
 62
     2
 10
551.05
 20
922.5
 30
0.0
 11
557.731934708
 21
933.064172876
 31
0.0
  0
LINE
  8
0
  6
CONTINUOUS
 62
     2
 10
551.05
 20
922.5
 30
0.0
 11
581.008113477
 21
950.131269711
 31
0.0
  0
LINE
  8
0
  6
CONTINUOUS
 62
     2
 10
581.008113477
 20
950.131269711
 30
0.0
 11
654.508113477
 21
950.131269711
 31
0.0
  0
ARC
  8
0
  6
CONTINUOUS
 62
     1
 10
414.0
 20
744.5
 30
0.0
 40
2.0
 50
270.0
 51
0.0
  0
LINE
  8
0
  6
CONTINUOUS
 62
     1
 10
414.0
 20
742.5
 30
0.0
 11
406.0
 21
742.5
 31
0.0
  0
LINE
  8
0
  6
CONTINUOUS
 62
     1
 10
301.0
 20
805.5
 30
0.0
 11
301.0
 21
839.5
 31
0.0
  0
LINE
  8
0
  6
CONTINUOUS
 62
     1
 10
331.0
 20
805.5
 30
0.0
 11
331.0
 21
839.5
 31
0.0
  0
LINE
  8
0
  6
CONTINUOUS
 62
     1
 10
335.0
 20
839.5
 30
0.0
 11
301.0
 21
839.5
 31
0.0
  0
LINE
  8
0
  6
CONTINUOUS
 62
     1
 10
335.0
 20
805.5
 30
0.0
 11
301.0
 21
805.5
 31
0.0
  0
LINE
  8
0
  6
CONTINUOUS
 62
     1
 10
335.0
 20
804.0
 30
0.0
 11
320.0
 21
804.0
 31
0.0
  0
LINE
  8
0
  6
CONTINUOUS
 62
     1
 10
320.0
 20
795.0
 30
0.0
 11
320.0
 21
787.50594
 31
0.0
  0
LINE
  8
0
  6
CONTINUOUS
 62
     1
 10
320.0
 20
795.0
 30
0.0
 11
320.0
 21
802.49406
 31
0.0
  0
LINE
  8
0
  6
CONTINUOUS
 62
     1
 10
314.5001
 20
789.34122
 30
0.0
 11
315.559699402
 21
787.50594
 31
0.0
  0
LINE
  8
0
  6
CONTINUOUS
 62
     1
 10
314.5001
 20
795.0
 30
0.0
 11
314.5001
 21
789.34122
 31
0.0
  0
LINE
  8
0
  6
CONTINUOUS
 62
     1
 10
314.5001
 20
800.65878
 30
0.0
 11
315.559699402
 21
802.49406
 31
0.0
  0
LINE
  8
0
  6
CONTINUOUS
 62
     1
 10
314.5001
 20
795.0
 30
0.0
 11
314.5001
 21
800.65878
 31
0.0
  0
ARC
  8
0
  6
CONTINUOUS
 62
     1
 10
321.655155337
 20
795.0
 30
0.0
 40
7.155055337
 50
148.419912243
 51
211.580087757
  0
ARC
  8
0
  6
CONTINUOUS
 62
     1
 10
316.685523767
 20
789.379455
 30
0.0
 40
2.185758211
 50
121.002313915
 51
182.989498403
  0
LINE
  8
0
  6
CONTINUOUS
 62
     1
 10
314.5001
 20
800.65878
 30
0.0
 11
315.559699402
 21
802.49406
 31
0.0
  0
ARC
  8
0
  6
CONTINUOUS
 62
     1
 10
316.685523767
 20
800.620545
 30
0.0
 40
2.185758211
 50
177.010501597
 51
238.997686085
  0
LINE
  8
0
  6
CONTINUOUS
 62
     1
 10
320.0
 20
787.50594
 30
0.0
 11
315.559699402
 21
787.50594
 31
0.0
  0
LINE
  8
0
  6
CONTINUOUS
 62
     1
 10
320.0
 20
791.25297
 30
0.0
 11
315.559699402
 21
791.25297
 31
0.0
  0
LINE
  8
0
  6
CONTINUOUS
 62
     1
 10
320.0
 20
798.74703
 30
0.0
 11
315.559699402
 21
798.74703
 31
0.0
  0
LINE
  8
0
  6
CONTINUOUS
 62
     1
 10
320.0
 20
802.49406
 30
0.0
 11
315.559699402
 21
802.49406
 31
0.0
  0
LINE
  8
0
  6
CONTINUOUS
 62
     1
 10
363.0
 20
865.5
 30
0.0
 11
335.0
 21
865.5
 31
0.0
  0
ARC
  8
0
  6
CONTINUOUS
 62
     1
 10
363.0
 20
871.5
 30
0.0
 40
6.0
 50
270.0
 51
360.0
  0
LINE
  8
0
  6
LTYPE3
 62
     2
 10
350.6
 20
795.0
 30
0.0
 11
311.3
 21
795.0
 31
0.0
  0
LINE
  8
0
  6
CONTINUOUS
 62
     2
 10
325.5
 20
839.3
 30
0.0
 11
324.019645058
 21
851.712032438
 31
0.0
  0
LINE
  8
0
  6
CONTINUOUS
 62
     2
 10
325.5
 20
839.3
 30
0.0
 11
318.011958794
 21
849.308957933
 31
0.0
  0
LINE
  8
0
  6
CONTINUOUS
 62
     2
 10
301.0
 20
847.0
 30
0.0
 11
301.0
 21
1043.4
 31
0.0
  0
LINE
  8
0
  6
CONTINUOUS
 62
     2
 10
301.0
 20
1035.9
 30
0.0
 11
313.074072829
 21
1032.664761936
 31
0.0
  0
LINE
  8
0
  6
CONTINUOUS
 62
     2
 10
301.0
 20
1035.9
 30
0.0
 11
313.074072829
 21
1039.135238064
 31
0.0
  0
LINE
  8
0
  6
CONTINUOUS
 62
     2
 10
301.0
 20
1035.9
 30
0.0
 11
406.0
 21
1035.9
 31
0.0
  0
LINE
  8
0
  6
CONTINUOUS
 62
     2
 10
406.0
 20
1035.9
 30
0.0
 11
393.925927171
 21
1039.135238064
 31
0.0
  0
LINE
  8
0
  6
CONTINUOUS
 62
     2
 10
406.0
 20
1035.9
 30
0.0
 11
393.925927171
 21
1032.664761936
 31
0.0
  0
LINE
  8
0
  6
CONTINUOUS
 62
     2
 10
325.5
 20
839.3
 30
0.0
 11
285.58
 21
939.1
 31
0.0
  0
LINE
  8
0
  6
CONTINUOUS
 62
     1
 10
335.0
 20
610.0
 30
0.0
 11
335.0
 21
865.5
 31
0.0
  0
LINE
  8
0
  6
CONTINUOUS
 62
     1
 10
320.0
 20
610.0
 30
0.0
 11
320.0
 21
804.0
 31
0.0
  0
LINE
  8
0
  6
CONTINUOUS
 62
     2
 10
406.0
 20
1035.9
 30
0.0
 11
418.074072829
 21
1032.664761936
 31
0.0
  0
LINE
  8
0
  6
CONTINUOUS
 62
     2
 10
406.0
 20
1035.9
 30
0.0
 11
418.074072829
 21
1039.135238064
 31
0.0
  0
LINE
  8
0
  6
CONTINUOUS
 62
     2
 10
406.0
 20
1035.9
 30
0.0
 11
682.99181787
 21
1035.9
 31
0.0
  0
LINE
  8
0
  6
LTYPE3
 62
     2
 10
693.0
 20
822.5
 30
0.0
 11
291.6
 21
822.5
 31
0.0
  0
TEXT
  8
0
  6
CONTINUOUS
 62
     2
 10
348.75
 20
442.3625
 30
0.0
 40
18.0
  1
８６
 50
0.0
 41
0.9
 51
0.0
  7
KANJI34
  0
TEXT
  8
0
  6
CONTINUOUS
 62
     2
 10
421.75
 20
442.3625
 30
0.0
 40
18.0
  1
６０
 50
0.0
 41
0.9
 51
0.0
  7
KANJI34
  0
TEXT
  8
0
  6
CONTINUOUS
 62
     2
 10
581.008113477
 20
955.131269711
 30
0.0
 40
18.0
  1
ＰＦ３／４
 50
0.0
 41
0.9
 51
0.0
  7
KANJI34
  0
TEXT
  8
0
  6
CONTINUOUS
 62
     2
 10
331.75
 20
1040.9
 30
0.0
 40
18.0
  1
１１３
 50
0.0
 41
0.9
 51
0.0
  7
KANJI34
  0
TEXT
  8
0
  6
CONTINUOUS
 62
     2
 10
504.75
 20
1040.9
 30
0.0
 40
18.0
  1
２７７
 50
0.0
 41
0.9
 51
0.0
  7
KANJI34
  0
TEXT
  8
0
  6
CONTINUOUS
 62
     2
 10
462.540009455
 20
799.5
 30
0.0
 40
18.0
  1
日本電産
 50
0.0
 41
0.9
 51
0.0
  7
KANJI34
  0
TEXT
  8
0
  6
CONTINUOUS
 62
     2
 10
462.540009455
 20
778.5
 30
0.0
 40
18.0
  1
エコノストップモータ
 50
0.0
 41
0.9
 51
0.0
  7
KANJI34
  0
LINE
  8
0
  6
CONTINUOUS
 62
     1
 10
398.5
 20
762.5
 30
0.0
 11
355.5
 21
762.5
 31
0.0
  0
TEXT
  8
0
  6
CONTINUOUS
 62
     2
 10
360.5
 20
751.5
 30
5.0
 40
20.0
  1
銘板
 50
270.0
 41
0.925
 51
0.0
  7
KANJI35
  0
LINE
  8
0
  6
CONTINUOUS
 62
     1
 10
355.5
 20
762.5
 30
0.0
 11
355.5
 21
692.5
 31
0.0
  0
LINE
  8
0
  6
CONTINUOUS
 62
     1
 10
398.5
 20
692.5
 30
0.0
 11
355.5
 21
692.5
 31
0.0
  0
LINE
  8
0
  6
CONTINUOUS
 62
     1
 10
398.5
 20
762.5
 30
0.0
 11
398.5
 21
692.5
 31
0.0
  0
LINE
  8
0
  6
LTYPE3
 62
     2
 10
471.682501379
 20
537.5
 30
0.0
 11
1063.032501379
 21
537.5
 31
0.0
  0
LINE
  8
0
  6
LTYPE3
 62
     2
 10
696.0
 20
687.5
 30
0.0
 11
294.9
 21
687.5
 31
0.0
  0
LINE
  8
0
  6
CONTINUOUS
 62
     2
 10
132.6199996
 20
278.6999876
 30
0.0
 11
140.34740621
 21
276.629435239
 31
0.0
  0
LINE
  8
0
  6
CONTINUOUS
 62
     2
 10
132.6199996
 20
278.6999876
 30
0.0
 11
140.34740621
 21
280.770539961
 31
0.0
  0
LINE
  8
0
  6
CONTINUOUS
 62
     2
 10
132.6199996
 20
278.6999876
 30
0.0
 11
270.2199996
 21
278.6999876
 31
0.0
  0
LINE
  8
0
  6
CONTINUOUS
 62
     2
 10
270.2199996
 20
278.6999876
 30
0.0
 11
262.49259299
 21
280.770539961
 31
0.0
  0
LINE
  8
0
  6
CONTINUOUS
 62
     2
 10
270.2199996
 20
278.6999876
 30
0.0
 11
262.49259299
 21
276.629435239
 31
0.0
  0
LINE
  8
0
  6
CONTINUOUS
 62
     2
 10
270.2199996
 20
277.4999876
 30
0.0
 11
270.2199996
 21
274.6999876
 31
0.0
  0
LINE
  8
0
  6
CONTINUOUS
 62
     2
 10
270.2199996
 20
278.6999876
 30
0.0
 11
277.94740621
 21
276.629435239
 31
0.0
  0
LINE
  8
0
  6
CONTINUOUS
 62
     2
 10
270.2199996
 20
278.6999876
 30
0.0
 11
277.94740621
 21
280.770539961
 31
0.0
  0
LINE
  8
0
  6
CONTINUOUS
 62
     2
 10
270.2199996
 20
278.6999876
 30
0.0
 11
472.6199996
 21
278.6999876
 31
0.0
  0
LINE
  8
0
  6
CONTINUOUS
 62
     2
 10
472.6199996
 20
278.6999876
 30
0.0
 11
464.89259299
 21
280.770539961
 31
0.0
  0
LINE
  8
0
  6
CONTINUOUS
 62
     2
 10
472.6199996
 20
278.6999876
 30
0.0
 11
464.89259299
 21
276.629435239
 31
0.0
  0
LINE
  8
0
  6
CONTINUOUS
 62
     2
 10
270.2199996
 20
252.370539961
 30
0.0
 11
262.49259299
 21
254.441092322
 31
0.0
  0
LINE
  8
0
  6
CONTINUOUS
 62
     2
 10
270.2199996
 20
252.370539961
 30
0.0
 11
262.49259299
 21
250.2999876
 31
0.0
  0
LINE
  8
0
  6
CONTINUOUS
 62
     2
 10
258.2199996
 20
252.370539961
 30
0.0
 11
270.2199996
 21
252.370539961
 31
0.0
  0
LINE
  8
0
  6
CONTINUOUS
 62
     2
 10
270.2199996
 20
252.370539961
 30
0.0
 11
291.0199996
 21
252.370539961
 31
0.0
  0
LINE
  8
0
  6
CONTINUOUS
 62
     2
 10
291.0199996
 20
252.370539961
 30
0.0
 11
298.74740621
 21
250.2999876
 31
0.0
  0
LINE
  8
0
  6
CONTINUOUS
 62
     2
 10
291.0199996
 20
252.370539961
 30
0.0
 11
298.74740621
 21
254.441092322
 31
0.0
  0
LINE
  8
0
  6
CONTINUOUS
 62
     2
 10
132.6199996
 20
227.0999876
 30
0.0
 11
132.6199996
 21
221.0999876
 31
0.0
  0
LINE
  8
0
  6
CONTINUOUS
 62
     2
 10
132.6199996
 20
225.0999876
 30
0.0
 11
140.34740621
 21
223.029435239
 31
0.0
  0
LINE
  8
0
  6
CONTINUOUS
 62
     2
 10
132.6199996
 20
225.0999876
 30
0.0
 11
140.34740621
 21
227.170539961
 31
0.0
  0
LINE
  8
0
  6
CONTINUOUS
 62
     2
 10
132.6199996
 20
225.0999876
 30
0.0
 11
291.0199996
 21
225.0999876
 31
0.0
  0
LINE
  8
0
  6
CONTINUOUS
 62
     2
 10
291.0199996
 20
225.0999876
 30
0.0
 11
283.29259299
 21
227.170539961
 31
0.0
  0
LINE
  8
0
  6
CONTINUOUS
 62
     2
 10
291.0199996
 20
225.0999876
 30
0.0
 11
283.29259299
 21
223.029435239
 31
0.0
  0
LINE
  8
0
  6
CONTINUOUS
 62
     2
 10
291.0199996
 20
226.2999876
 30
0.0
 11
291.0199996
 21
221.0999876
 31
0.0
  0
LINE
  8
0
  6
CONTINUOUS
 62
     2
 10
291.0199996
 20
225.0999876
 30
0.0
 11
298.74740621
 21
223.029435239
 31
0.0
  0
LINE
  8
0
  6
CONTINUOUS
 62
     2
 10
291.0199996
 20
225.0999876
 30
0.0
 11
298.74740621
 21
227.170539961
 31
0.0
  0
LINE
  8
0
  6
CONTINUOUS
 62
     2
 10
472.6199996
 20
221.4999876
 30
0.0
 11
472.6199996
 21
221.0999876
 31
0.0
  0
LINE
  8
0
  6
CONTINUOUS
 62
     2
 10
132.6199996
 20
195.8999876
 30
0.0
 11
140.34740621
 21
193.829435239
 31
0.0
  0
LINE
  8
0
  6
CONTINUOUS
 62
     2
 10
132.6199996
 20
195.8999876
 30
0.0
 11
140.34740621
 21
197.970539961
 31
0.0
  0
LINE
  8
0
  6
CONTINUOUS
 62
     2
 10
132.6199996
 20
195.8999876
 30
0.0
 11
450.2199996
 21
195.8999876
 31
0.0
  0
LINE
  8
0
  6
CONTINUOUS
 62
     2
 10
450.2199996
 20
195.8999876
 30
0.0
 11
442.49259299
 21
197.970539961
 31
0.0
  0
LINE
  8
0
  6
CONTINUOUS
 62
     2
 10
450.2199996
 20
195.8999876
 30
0.0
 11
442.49259299
 21
193.829435239
 31
0.0
  0
LINE
  8
0
  6
CONTINUOUS
 62
     2
 10
450.2199996
 20
196.6999876
 30
0.0
 11
450.2199996
 21
191.8999876
 31
0.0
  0
LINE
  8
0
  6
CONTINUOUS
 62
     2
 10
450.2199996
 20
195.8999876
 30
0.0
 11
442.49259299
 21
197.970539961
 31
0.0
  0
LINE
  8
0
  6
CONTINUOUS
 62
     2
 10
450.2199996
 20
195.8999876
 30
0.0
 11
442.49259299
 21
193.829435239
 31
0.0
  0
LINE
  8
0
  6
CONTINUOUS
 62
     2
 10
438.2199996
 20
195.8999876
 30
0.0
 11
450.2199996
 21
195.8999876
 31
0.0
  0
LINE
  8
0
  6
CONTINUOUS
 62
     2
 10
450.2199996
 20
195.8999876
 30
0.0
 11
472.6199996
 21
195.8999876
 31
0.0
  0
LINE
  8
0
  6
CONTINUOUS
 62
     2
 10
472.6199996
 20
195.8999876
 30
0.0
 11
480.34740621
 21
193.829435239
 31
0.0
  0
LINE
  8
0
  6
CONTINUOUS
 62
     2
 10
472.6199996
 20
195.8999876
 30
0.0
 11
480.34740621
 21
197.970539961
 31
0.0
  0
LINE
  8
0
  6
CONTINUOUS
 62
     2
 10
132.6199996
 20
289.4999876
 30
0.0
 11
132.6199996
 21
274.6999876
 31
0.0
  0
LINE
  8
0
  6
CONTINUOUS
 62
     2
 10
472.6199996
 20
289.4999876
 30
0.0
 11
472.6199996
 21
274.6999876
 31
0.0
  0
LINE
  8
0
  6
CONTINUOUS
 62
     2
 10
270.2199996
 20
278.2999876
 30
0.0
 11
270.2199996
 21
289.4999876
 31
0.0
  0
LINE
  8
0
  6
CONTINUOUS
 62
     2
 10
291.0199996
 20
265.170539961
 30
0.0
 11
291.0199996
 21
248.370539961
 31
0.0
  0
LINE
  8
0
  6
CONTINUOUS
 62
     2
 10
132.6199996
 20
274.6999876
 30
0.0
 11
132.6199996
 21
182.6999876
 31
0.0
  0
LINE
  8
0
  6
CONTINUOUS
 62
     2
 10
472.6199996
 20
278.6999876
 30
0.0
 11
472.6199996
 21
183.8999876
 31
0.0
  0
LINE
  8
0
  6
CONTINUOUS
 62
     2
 10
291.0199996
 20
252.370539961
 30
0.0
 11
291.0199996
 21
215.8999876
 31
0.0
  0
LINE
  8
0
  6
CONTINUOUS
 62
     2
 10
270.2199996
 20
278.6999876
 30
0.0
 11
270.2199996
 21
243.0999876
 31
0.0
  0
TEXT
  8
0
  6
CONTINUOUS
 62
     3
 10
174.4199996
 20
280.6999876
 30
0.0
 40
15.0
  1
ｍｉｎ．Ｌ
 50
0.0
 41
0.9
 51
0.0
  7
KANJI36
  0
TEXT
  8
0
  6
CONTINUOUS
 62
     3
 10
328.2199996
 20
280.6999876
 30
0.0
 40
15.0
  1
機械的ストローク
 50
0.0
 41
0.9
 51
0.0
  7
KANJI36
  0
TEXT
  8
0
  6
CONTINUOUS
 62
     3
 10
303.0199996
 20
254.370539961
 30
0.0
 40
15.0
  1
余裕
 50
0.0
 41
0.9
 51
0.0
  7
KANJI36
  0
TEXT
  8
0
  6
CONTINUOUS
 62
     3
 10
184.8199996
 20
227.0999876
 30
0.0
 40
15.0
  1
常用ｍｉｎ
 50
0.0
 41
0.9
 51
0.0
  7
KANJI36
  0
TEXT
  8
0
  6
CONTINUOUS
 62
     3
 10
264.4199996
 20
197.8999876
 30
0.0
 40
15.0
  1
常用ｍａｘ
 50
0.0
 41
0.9
 51
0.0
  7
KANJI36
  0
TEXT
  8
0
  6
CONTINUOUS
 62
     3
 10
484.6199996
 20
197.8999876
 30
0.0
 40
15.0
  1
余裕
 50
0.0
 41
0.9
 51
0.0
  7
KANJI36
  0
LINE
  8
0
  6
CONTINUOUS
 62
     2
 10
291.0199996
 20
252.370539961
 30
0.0
 11
331.1199996
 21
252.370539961
 31
0.0
  0
LINE
  8
0
  6
CONTINUOUS
 62
     2
 10
472.6199996
 20
195.8999876
 30
0.0
 11
515.1199996
 21
195.8999876
 31
0.0
  0
ARC
  8
0
  6
CONTINUOUS
 62
     2
 10
249.0
 20
823.0
 30
0.0
 40
20.0
 50
231.952957468
 51
156.801409486
  0
LINE
  8
0
  6
CONTINUOUS
 62
     2
 10
230.6170994
 20
830.878385972
 30
0.0
 11
232.91179211
 21
840.715824749
 31
0.0
  0
TEXT
  8
0
  6
CONTINUOUS
 62
     2
 10
168.6170994
 20
813.878385972
 30
0.0
 40
15.0
  1
前進方向
 50
0.0
 41
0.9
 51
0.0
  7
KANJI36
  0
LINE
  8
0
  6
CONTINUOUS
 62
     2
 10
230.6170994
 20
830.878385972
 30
0.0
 11
238.885260778
 21
835.785722507
 31
0.0
  0
TEXT
  8
0
  6
CONTINUOUS
 62
     2
 10
194.6
 20
944.1
 30
0.0
 40
18.0
  1
手動軸カバー
 50
0.0
 41
0.9
 51
0.0
  7
KANJI34
  0
LINE
  8
0
  6
CONTINUOUS
 62
     2
 10
285.58
 20
939.1
 30
0.0
 11
187.0
 21
939.1
 31
0.0
  0
LINE
  8
0
  6
LTYPE2
 62
     2
 10
443.532501379
 20
565.5
 30
0.0
 11
830.792501379
 21
565.5
 31
0.0
  0
LINE
  8
0
  6
LTYPE1
 62
     2
 10
698.032501379
 20
579.5
 30
0.0
 11
463.032501379
 21
579.5
 31
0.0
  0
LINE
  8
0
  6
LTYPE1
 62
     2
 10
698.032501379
 20
585.5
 30
0.0
 11
463.032501379
 21
585.5
 31
0.0
  0
LINE
  8
0
  6
LTYPE1
 62
     2
 10
463.032501379
 20
552.5
 30
0.0
 11
479.032501379
 21
552.5
 31
0.0
  0
LINE
  8
0
  6
LTYPE1
 62
     2
 10
460.532501379
 20
575.3
 30
0.0
 11
454.918142025
 21
575.3
 31
0.0
  0
LINE
  8
0
  6
LTYPE1
 62
     2
 10
460.532501379
 20
570.4
 30
0.0
 11
454.918142025
 21
570.4
 31
0.0
  0
LINE
  8
0
  6
LTYPE1
 62
     2
 10
460.532501379
 20
565.5
 30
0.0
 11
460.532501379
 21
575.3
 31
0.0
  0
LINE
  8
0
  6
LTYPE1
 62
     2
 10
463.032501379
 20
574.7
 30
0.0
 11
460.532501379
 21
574.7
 31
0.0
  0
LINE
  8
0
  6
LTYPE1
 62
     2
 10
460.532501384
 20
565.5
 30
0.0
 11
463.032501379
 21
567.999999996
 31
0.0
  0
LINE
  8
0
  6
LTYPE1
 62
     2
 10
460.532501379
 20
555.7
 30
0.0
 11
454.918142025
 21
555.7
 31
0.0
  0
LINE
  8
0
  6
LTYPE1
 62
     2
 10
460.532501379
 20
560.6
 30
0.0
 11
454.918142025
 21
560.6
 31
0.0
  0
LINE
  8
0
  6
LTYPE1
 62
     2
 10
460.532501379
 20
565.5
 30
0.0
 11
460.532501379
 21
555.7
 31
0.0
  0
LINE
  8
0
  6
LTYPE1
 62
     2
 10
463.032501379
 20
565.5
 30
0.0
 11
460.532501384
 21
563.000000004
 31
0.0
  0
LINE
  8
0
  6
LTYPE1
 62
     2
 10
463.032501379
 20
556.3
 30
0.0
 11
460.532501379
 21
556.3
 31
0.0
  0
LINE
  8
0
  6
LTYPE1
 62
     2
 10
453.532501379
 20
565.5
 30
0.0
 11
453.532501379
 21
572.9
 31
0.0
  0
LINE
  8
0
  6
LTYPE1
 62
     2
 10
453.532501379
 20
572.9
 30
0.0
 11
454.918142025
 21
575.3
 31
0.0
  0
LINE
  8
0
  6
LTYPE1
 62
     2
 10
453.532501379
 20
572.9
 30
0.0
 11
454.918142025
 21
575.3
 31
0.0
  0
ARC
  8
0
  6
LTYPE1
 62
     2
 10
456.390385212
 20
572.85
 30
0.0
 40
2.858321186
 50
177.010501597
 51
238.997686085
  0
LINE
  8
0
  6
LTYPE1
 62
     2
 10
449.032501379
 20
569.5
 30
0.0
 11
453.532501379
 21
569.5
 31
0.0
  0
LINE
  8
0
  6
LTYPE1
 62
     2
 10
449.032501379
 20
568.5
 30
0.0
 11
453.532501379
 21
568.5
 31
0.0
  0
LINE
  8
0
  6
LTYPE1
 62
     2
 10
453.532501379
 20
558.1
 30
0.0
 11
454.918142025
 21
555.7
 31
0.0
  0
LINE
  8
0
  6
LTYPE1
 62
     2
 10
453.532501379
 20
565.5
 30
0.0
 11
453.532501379
 21
558.1
 31
0.0
  0
ARC
  8
0
  6
LTYPE1
 62
     2
 10
456.390385212
 20
558.15
 30
0.0
 40
2.858321186
 50
121.002313915
 51
182.989498403
  0
LINE
  8
0
  6
LTYPE1
 62
     2
 10
449.032501379
 20
561.5
 30
0.0
 11
453.532501379
 21
561.5
 31
0.0
  0
LINE
  8
0
  6
LTYPE1
 62
     2
 10
449.032501379
 20
562.5
 30
0.0
 11
453.532501379
 21
562.5
 31
0.0
  0
ARC
  8
0
  6
LTYPE1
 62
     2
 10
462.889184179
 20
565.5
 30
0.0
 40
9.3566828
 50
148.419912243
 51
211.580087757
  0
LINE
  8
0
  6
LTYPE1
 62
     2
 10
449.032501379
 20
561.5
 30
0.0
 11
449.032501379
 21
569.5
 31
0.0
  0
LINE
  8
0
  6
LTYPE1
 62
     2
 10
463.032501379
 20
552.5
 30
0.0
 11
463.032501379
 21
585.5
 31
0.0
  0
LINE
  8
0
  6
LTYPE1
 62
     2
 10
465.373721379
 20
590.9999
 30
0.0
 11
463.538441379
 21
589.940300598
 31
0.0
  0
LINE
  8
0
  6
LTYPE1
 62
     2
 10
463.538441379
 20
585.5
 30
0.0
 11
463.538441379
 21
589.940300598
 31
0.0
  0
LINE
  8
0
  6
LTYPE3
 62
     2
 10
482.032501379
 20
565.5
 30
0.0
 11
493.532501379
 21
565.5
 31
0.0
  0
LINE
  8
0
  6
LTYPE1
 62
     2
 10
479.032501379
 20
575.9
 30
0.0
 11
485.532501379
 21
575.9
 31
0.0
  0
ARC
  8
0
  6
LTYPE1
 62
     2
 10
482.632501379
 20
573.3
 30
0.0
 40
3.9
 50
317.9
 51
42.1
  0
LINE
  8
0
  6
LTYPE1
 62
     2
 10
485.532501379
 20
570.7
 30
0.0
 11
479.032501379
 21
570.7
 31
0.0
  0
LINE
  8
0
  6
LTYPE1
 62
     2
 10
486.532501379
 20
569.5
 30
0.0
 11
494.032501379
 21
569.5
 31
0.0
  0
LINE
  8
0
  6
LTYPE1
 62
     2
 10
486.532501379
 20
568.5
 30
0.0
 11
494.032501379
 21
568.5
 31
0.0
  0
LINE
  8
0
  6
LTYPE1
 62
     2
 10
474.779531379
 20
585.5
 30
0.0
 11
474.779531379
 21
589.940300598
 31
0.0
  0
LINE
  8
0
  6
LTYPE1
 62
     2
 10
478.526561379
 20
585.5
 30
0.0
 11
478.526561379
 21
589.940300598
 31
0.0
  0
LINE
  8
0
  6
LTYPE1
 62
     2
 10
479.032501379
 20
555.1
 30
0.0
 11
485.532501379
 21
555.1
 31
0.0
  0
ARC
  8
0
  6
LTYPE1
 62
     2
 10
482.632501379
 20
557.7
 30
0.0
 40
3.9
 50
317.9
 51
42.1
  0
LINE
  8
0
  6
LTYPE1
 62
     2
 10
479.032501379
 20
560.3
 30
0.0
 11
485.532501379
 21
560.3
 31
0.0
  0
LINE
  8
0
  6
LTYPE1
 62
     2
 10
486.532501379
 20
562.5
 30
0.0
 11
494.032501379
 21
562.5
 31
0.0
  0
LINE
  8
0
  6
LTYPE1
 62
     2
 10
486.532501379
 20
561.5
 30
0.0
 11
494.032501379
 21
561.5
 31
0.0
  0
LINE
  8
0
  6
LTYPE1
 62
     2
 10
479.032501379
 20
552.5
 30
0.0
 11
479.032501379
 21
579.5
 31
0.0
  0
LINE
  8
0
  6
LTYPE1
 62
     2
 10
479.032501379
 20
575.9
 30
0.0
 11
479.032501379
 21
555.1
 31
0.0
  0
ARC
  8
0
  6
LTYPE1
 62
     2
 10
472.532501379
 20
565.5
 30
0.0
 40
14.0
 50
338.2
 51
21.8
  0
LINE
  8
0
  6
LTYPE1
 62
     2
 10
486.532501379
 20
557.7
 30
0.0
 11
486.532501379
 21
573.3
 31
0.0
  0
LINE
  8
0
  6
LTYPE1
 62
     2
 10
526.032501379
 20
577.5
 30
0.0
 11
494.032501379
 21
577.5
 31
0.0
  0
LINE
  8
0
  6
LTYPE1
 62
     2
 10
526.032501379
 20
571.5
 30
0.0
 11
494.032501379
 21
571.5
 31
0.0
  0
LINE
  8
0
  6
LTYPE1
 62
     2
 10
494.032501379
 20
559.5
 30
0.0
 11
526.032501379
 21
559.5
 31
0.0
  0
LINE
  8
0
  6
LTYPE1
 62
     2
 10
494.032501379
 20
569.5
 30
0.0
 11
499.032501379
 21
569.5
 31
0.0
  0
LINE
  8
0
  6
LTYPE1
 62
     2
 10
494.032501379
 20
568.5
 30
0.0
 11
499.032501379
 21
568.5
 31
0.0
  0
LINE
  8
0
  6
LTYPE1
 62
     2
 10
494.032501379
 20
561.5
 30
0.0
 11
499.032501379
 21
561.5
 31
0.0
  0
LINE
  8
0
  6
LTYPE1
 62
     2
 10
494.032501379
 20
562.5
 30
0.0
 11
499.032501379
 21
562.5
 31
0.0
  0
LINE
  8
0
  6
LTYPE1
 62
     2
 10
494.032501379
 20
524.5
 30
0.0
 11
494.032501379
 21
577.5
 31
0.0
  0
LINE
  8
0
  6
LTYPE1
 62
     2
 10
499.032501379
 20
559.5
 30
0.0
 11
499.032501379
 21
571.5
 31
0.0
  0
ARC
  8
0
  6
LTYPE1
 62
     2
 10
471.032501379
 20
583.844844663
 30
0.0
 40
7.155055337
 50
58.419912243
 51
121.580087757
  0
LINE
  8
0
  6
LTYPE1
 62
     2
 10
476.691281379
 20
590.9999
 30
0.0
 11
478.526561379
 21
589.940300598
 31
0.0
  0
LINE
  8
0
  6
LTYPE1
 62
     2
 10
471.032501379
 20
590.9999
 30
0.0
 11
476.691281379
 21
590.9999
 31
0.0
  0
LINE
  8
0
  6
LTYPE1
 62
     2
 10
476.691281379
 20
590.9999
 30
0.0
 11
478.526561379
 21
589.940300598
 31
0.0
  0
ARC
  8
0
  6
LTYPE1
 62
     2
 10
476.653046379
 20
588.814476233
 30
0.0
 40
2.185758211
 50
87.010501597
 51
148.997686085
  0
LINE
  8
0
  6
LTYPE1
 62
     2
 10
471.032501379
 20
575.5
 30
0.0
 11
471.032501379
 21
591.5
 31
0.0
  0
LINE
  8
0
  6
LTYPE1
 62
     2
 10
471.032501379
 20
590.9999
 30
0.0
 11
465.373721379
 21
590.9999
 31
0.0
  0
ARC
  8
0
  6
LTYPE1
 62
     2
 10
465.411956379
 20
588.814476233
 30
0.0
 40
2.185758211
 50
31.002313915
 51
92.989498403
  0
LINE
  8
0
  6
LTYPE1
 62
     2
 10
467.285471379
 20
585.5
 30
0.0
 11
467.285471379
 21
589.940300598
 31
0.0
  0
LINE
  8
0
  6
LTYPE1
 62
     2
 10
526.032501379
 20
573.5
 30
0.0
 11
798.482501379
 21
573.5
 31
0.0
  0
LINE
  8
0
  6
LTYPE1
 62
     2
 10
526.032501379
 20
557.5
 30
0.0
 11
798.482501379
 21
557.5
 31
0.0
  0
LINE
  8
0
  6
CONTINUOUS
 62
     1
 10
635.0
 20
585.0
 30
0.0
 11
506.0
 21
585.0
 31
0.0
  0
LINE
  8
0
  6
CONTINUOUS
 62
     1
 10
635.0
 20
583.5
 30
0.0
 11
506.0
 21
583.5
 31
0.0
  0
LINE
  8
0
  6
CONTINUOUS
 62
     1
 10
506.0
 20
578.5
 30
0.0
 11
506.0
 21
625.0
 31
0.0
  0
LINE
  8
0
  6
CONTINUOUS
 62
     1
 10
634.0
 20
577.5
 30
0.0
 11
507.0
 21
577.5
 31
0.0
  0
ARC
  8
0
  6
CONTINUOUS
 62
     1
 10
507.0
 20
578.5
 30
0.0
 40
1.0
 50
180.0
 51
270.0
  0
ARC
  8
0
  6
CONTINUOUS
 62
     1
 10
510.0
 20
577.5
 30
0.0
 40
1.0
 50
180.0
 51
270.0
  0
LINE
  8
0
  6
CONTINUOUS
 62
     1
 10
631.0
 20
576.5
 30
0.0
 11
510.1
 21
576.5
 31
0.0
  0
LINE
  8
0
  6
LTYPE1
 62
     2
 10
526.032501379
 20
524.5
 30
0.0
 11
526.032501379
 21
577.5
 31
0.0
  0
LINE
  8
0
  6
CONTINUOUS
 62
     1
 10
520.8
 20
576.5
 30
0.0
 11
510.2
 21
576.5
 31
0.0
  0
ARC
  8
0
  6
CONTINUOUS
 62
     1
 10
515.9
 20
577.5
 30
0.0
 40
5.0
 50
272.3
 51
348.5
  0
ARC
  8
0
  6
CONTINUOUS
 62
     1
 10
515.1
 20
577.5
 30
0.0
 40
5.0
 50
191.5
 51
267.7
  0
LINE
  8
0
  6
CONTINUOUS
 62
     1
 10
516.1
 20
572.5
 30
0.0
 11
514.9
 21
572.5
 31
0.0
  0
LINE
  8
0
  6
LTYPE4
 62
     2
 10
515.5
 20
569.1
 30
0.0
 11
515.5
 21
582.5
 31
0.0
  0
LINE
  8
0
  6
CONTINUOUS
 62
     2
 10
515.292647059
 20
595.2
 30
0.0
 11
594.8
 21
595.2
 31
0.0
  0
TEXT
  8
0
  6
CONTINUOUS
 62
     2
 10
515.3
 20
597.2
 30
0.0
 40
15.0
  1
推力リミッタ
 50
0.0
 41
0.92
 51
0.0
  7
KANJI37
  0
LINE
  8
0
  6
CONTINUOUS
 62
     1
 10
568.032501379
 20
545.5
 30
0.0
 11
823.882501379
 21
545.5
 31
0.0
  0
LINE
  8
0
  6
LTYPE1
 62
     2
 10
491.532501379
 20
547.3
 30
0.0
 11
485.918142025
 21
547.3
 31
0.0
  0
LINE
  8
0
  6
LTYPE1
 62
     2
 10
484.532501379
 20
544.9
 30
0.0
 11
485.918142025
 21
547.3
 31
0.0
  0
LINE
  8
0
  6
LTYPE1
 62
     2
 10
484.532501379
 20
544.9
 30
0.0
 11
485.918142025
 21
547.3
 31
0.0
  0
LINE
  8
0
  6
LTYPE1
 62
     2
 10
484.532501379
 20
537.5
 30
0.0
 11
484.532501379
 21
544.9
 31
0.0
  0
LINE
  8
0
  6
LTYPE1
 62
     2
 10
491.532501379
 20
542.4
 30
0.0
 11
485.918142025
 21
542.4
 31
0.0
  0
ARC
  8
0
  6
LTYPE1
 62
     2
 10
487.390385212
 20
544.85
 30
0.0
 40
2.858321186
 50
177.010501597
 51
238.997686085
  0
LINE
  8
0
  6
LTYPE1
 62
     2
 10
476.032501379
 20
541.5
 30
0.0
 11
484.532501379
 21
541.5
 31
0.0
  0
ARC
  8
0
  6
LTYPE1
 62
     2
 10
493.889184179
 20
537.5
 30
0.0
 40
9.3566828
 50
148.419912243
 51
211.580087757
  0
LINE
  8
0
  6
LTYPE1
 62
     2
 10
476.032501379
 20
533.5
 30
0.0
 11
476.032501379
 21
541.5
 31
0.0
  0
LINE
  8
0
  6
LTYPE1
 62
     2
 10
476.032501379
 20
540.5
 30
0.0
 11
484.532501379
 21
540.5
 31
0.0
  0
LINE
  8
0
  6
CONTINUOUS
 62
     1
 10
512.532501379
 20
546.05
 30
0.0
 11
512.532501379
 21
530.05
 31
0.0
  0
LINE
  8
0
  6
CONTINUOUS
 62
     1
 10
512.532501379
 20
546.05
 30
0.0
 11
526.032501379
 21
546.05
 31
0.0
  0
LINE
  8
0
  6
LTYPE1
 62
     2
 10
494.032501379
 20
546.7
 30
0.0
 11
491.532501379
 21
546.7
 31
0.0
  0
LINE
  8
0
  6
LTYPE1
 62
     2
 10
491.532501379
 20
537.5
 30
0.0
 11
491.532501379
 21
547.3
 31
0.0
  0
LINE
  8
0
  6
CONTINUOUS
 62
     1
 10
526.032501379
 20
548.5
 30
0.0
 11
534.692755417
 21
553.5
 31
0.0
  0
LINE
  8
0
  6
CONTINUOUS
 62
     1
 10
526.032501379
 20
526.5
 30
0.0
 11
526.032501379
 21
548.5
 31
0.0
  0
LINE
  8
0
  6
CONTINUOUS
 62
     1
 10
559.382501379
 20
521.5
 30
0.0
 11
559.382501379
 21
553.5
 31
0.0
  0
LINE
  8
0
  6
LTYPE2
 62
     2
 10
547.032501379
 20
527.5
 30
0.0
 11
547.032501379
 21
547.5
 31
0.0
  0
LINE
  8
0
  6
CONTINUOUS
 62
     1
 10
534.682501379
 20
553.5
 30
0.0
 11
559.382501379
 21
553.5
 31
0.0
  0
LINE
  8
0
  6
CONTINUOUS
 62
     1
 10
568.032501379
 20
548.5
 30
0.0
 11
559.372247342
 21
553.5
 31
0.0
  0
CIRCLE
  8
0
  6
CONTINUOUS
 62
     2
 10
547.032501379
 20
537.5
 30
0.0
 40
5.0
  0
CIRCLE
  8
0
  6
CONTINUOUS
 62
     2
 10
547.032501379
 20
537.5
 30
0.0
 40
4.0
  0
LINE
  8
0
  6
CONTINUOUS
 62
     1
 10
568.032501379
 20
526.5
 30
0.0
 11
568.032501379
 21
548.5
 31
0.0
  0
LINE
  8
0
  6
CONTINUOUS
 62
     1
 10
534.682501379
 20
521.5
 30
0.0
 11
534.682501379
 21
553.5
 31
0.0
  0
LINE
  8
0
  6
CONTINUOUS
 62
     1
 10
568.032501379
 20
529.5
 30
0.0
 11
855.182501379
 21
529.5
 31
0.0
  0
LINE
  8
0
  6
LTYPE1
 62
     2
 10
491.532501379
 20
527.7
 30
0.0
 11
485.918142025
 21
527.7
 31
0.0
  0
LINE
  8
0
  6
LTYPE1
 62
     2
 10
484.532501379
 20
530.1
 30
0.0
 11
485.918142025
 21
527.7
 31
0.0
  0
LINE
  8
0
  6
LTYPE1
 62
     2
 10
484.532501379
 20
537.5
 30
0.0
 11
484.532501379
 21
530.1
 31
0.0
  0
LINE
  8
0
  6
LTYPE1
 62
     2
 10
491.532501379
 20
532.6
 30
0.0
 11
485.918142025
 21
532.6
 31
0.0
  0
ARC
  8
0
  6
LTYPE1
 62
     2
 10
487.390385212
 20
530.15
 30
0.0
 40
2.858321186
 50
121.002313915
 51
182.989498403
  0
LINE
  8
0
  6
LTYPE1
 62
     2
 10
476.032501379
 20
533.5
 30
0.0
 11
484.532501379
 21
533.5
 31
0.0
  0
LINE
  8
0
  6
LTYPE1
 62
     2
 10
476.032501379
 20
534.5
 30
0.0
 11
484.532501379
 21
534.5
 31
0.0
  0
LINE
  8
0
  6
CONTINUOUS
 62
     1
 10
512.532501379
 20
530.05
 30
0.0
 11
526.032501379
 21
530.05
 31
0.0
  0
LINE
  8
0
  6
LTYPE1
 62
     2
 10
494.032501379
 20
524.5
 30
0.0
 11
526.032501379
 21
524.5
 31
0.0
  0
LINE
  8
0
  6
LTYPE1
 62
     2
 10
491.532501379
 20
537.5
 30
0.0
 11
491.532501379
 21
527.7
 31
0.0
  0
LINE
  8
0
  6
LTYPE1
 62
     2
 10
494.032501379
 20
528.3
 30
0.0
 11
491.532501379
 21
528.3
 31
0.0
  0
LINE
  8
0
  6
LTYPE1
 62
     2
 10
494.032501379
 20
537.5
 30
0.0
 11
491.532501384
 21
535.000000004
 31
0.0
  0
LINE
  8
0
  6
CONTINUOUS
 62
     1
 10
526.032501379
 20
526.5
 30
0.0
 11
534.692755417
 21
521.5
 31
0.0
  0
LINE
  8
0
  6
CONTINUOUS
 62
     1
 10
534.682501379
 20
521.5
 30
0.0
 11
559.382501379
 21
521.5
 31
0.0
  0
LINE
  8
0
  6
CONTINUOUS
 62
     1
 10
568.032501379
 20
526.5
 30
0.0
 11
559.372247342
 21
521.5
 31
0.0
  0
LINE
  8
0
  6
LTYPE1
 62
     2
 10
491.532501384
 20
537.5
 30
0.0
 11
494.032501379
 21
539.999999996
 31
0.0
  0
CIRCLE
  8
0
  6
CONTINUOUS
 62
     1
 10
762.0
 20
687.5
 30
0.0
 40
19.5
  0
LINE
  8
0
  6
CONTINUOUS
 62
     1
 10
742.0
 20
707.5
 30
0.0
 11
782.0
 21
707.5
 31
0.0
  0
LINE
  8
0
  6
CONTINUOUS
 62
     1
 10
782.0
 20
667.5
 30
0.0
 11
782.0
 21
707.5
 31
0.0
  0
LINE
  8
0
  6
CONTINUOUS
 62
     1
 10
742.0
 20
667.5
 30
0.0
 11
782.0
 21
667.5
 31
0.0
  0
LINE
  8
0
  6
CONTINUOUS
 62
     1
 10
742.0
 20
667.5
 30
0.0
 11
742.0
 21
707.5
 31
0.0
  0
LINE
  8
0
  6
LTYPE3
 62
     2
 10
762.0
 20
662.4
 30
0.0
 11
762.0
 21
712.3
 31
0.0
  0
LINE
  8
0
  6
CONTINUOUS
 62
     2
 10
768.1
 20
698.3
 30
0.0
 11
775.588041206
 21
708.308957933
 31
0.0
  0
LINE
  8
0
  6
CONTINUOUS
 62
     2
 10
768.1
 20
698.3
 30
0.0
 11
769.580354942
 21
710.712032438
 31
0.0
  0
LINE
  8
0
  6
CONTINUOUS
 62
     2
 10
768.1
 20
698.3
 30
0.0
 11
818.1
 21
823.3
 31
0.0
  0
LINE
  8
0
  6
CONTINUOUS
 62
     1
 10
806.182501379
 20
585.5
 30
0.0
 11
936.182501379
 21
585.5
 31
0.0
  0
LINE
  8
0
  6
CONTINUOUS
 62
     1
 10
806.182501379
 20
579.5
 30
0.0
 11
806.182501379
 21
585.5
 31
0.0
  0
LINE
  8
0
  6
CONTINUOUS
 62
     1
 10
806.182501379
 20
579.5
 30
0.0
 11
936.182501379
 21
579.5
 31
0.0
  0
LINE
  8
0
  6
CONTINUOUS
 62
     1
 10
849.782501379
 20
579.5
 30
0.0
 11
849.782501379
 21
539.5
 31
0.0
  0
LINE
  8
0
  6
LTYPE1
 62
     2
 10
854.882501379
 20
548.73
 30
0.0
 11
849.882501379
 21
548.73
 31
0.0
  0
LINE
  8
0
  6
LTYPE1
 62
     2
 10
854.882501379
 20
549.885
 30
0.0
 11
849.882501379
 21
549.885
 31
0.0
  0
LINE
  8
0
  6
LTYPE1
 62
     2
 10
854.882501379
 20
569.67
 30
0.0
 11
849.882501379
 21
569.67
 31
0.0
  0
LINE
  8
0
  6
LTYPE1
 62
     2
 10
854.882501379
 20
568.515
 30
0.0
 11
849.882501379
 21
568.515
 31
0.0
  0
LINE
  8
0
  6
LTYPE1
 62
     2
 10
854.882501379
 20
569.67
 30
0.0
 11
849.882501379
 21
569.67
 31
0.0
  0
LINE
  8
0
  6
CONTINUOUS
 62
     1
 10
798.482501379
 20
578.5
 30
0.0
 11
798.482501379
 21
553.1
 31
0.0
  0
LINE
  8
0
  6
CONTINUOUS
 62
     1
 10
823.882501379
 20
578.5
 30
0.0
 11
798.482501379
 21
578.5
 31
0.0
  0
LINE
  8
0
  6
CONTINUOUS
 62
     1
 10
823.882501379
 20
553.1
 30
0.0
 11
798.482501379
 21
553.1
 31
0.0
  0
LINE
  8
0
  6
CONTINUOUS
 62
     1
 10
823.882501379
 20
579.5
 30
0.0
 11
823.882501379
 21
539.5
 31
0.0
  0
LINE
  8
0
  6
CONTINUOUS
 62
     1
 10
855.182501379
 20
524.5
 30
0.0
 11
855.182501379
 21
539.5
 31
0.0
  0
LINE
  8
0
  6
CONTINUOUS
 62
     1
 10
855.182501379
 20
524.5
 30
0.0
 11
887.182501379
 21
524.5
 31
0.0
  0
LINE
  8
0
  6
LTYPE5
 62
     2
 10
854.882501379
 20
558.2
 30
0.0
 11
845.782501379
 21
558.2
 31
0.0
  0
LINE
  8
0
  6
CONTINUOUS
 62
     1
 10
823.882501379
 20
545.5
 30
0.0
 11
918.482501379
 21
545.5
 31
0.0
  0
LINE
  8
0
  6
CONTINUOUS
 62
     1
 10
823.882501379
 20
539.5
 30
0.0
 11
918.482501379
 21
539.5
 31
0.0
  0
LINE
  8
0
  6
CONTINUOUS
 62
     2
 10
863.0
 20
527.375
 30
0.0
 11
853.458760731
 21
519.299434806
 31
0.0
  0
LINE
  8
0
  6
CONTINUOUS
 62
     2
 10
863.0
 20
527.375
 30
0.0
 11
846.0
 21
502.875
 31
0.0
  0
LINE
  8
0
  6
CONTINUOUS
 62
     2
 10
846.0
 20
502.875
 30
0.0
 11
757.5
 21
502.875
 31
0.0
  0
LINE
  8
2
  6
CONTINUOUS
 62
     2
 10
676.2
 20
843.0
 30
0.0
 11
754.7
 21
988.0
 31
0.0
  0
LINE
  8
2
  6
CONTINUOUS
 62
     2
 10
754.7
 20
988.0
 30
0.0
 11
889.7
 21
988.0
 31
0.0
  0
TEXT
  8
0
  6
CONTINUOUS
 62
     2
 10
818.1
 20
828.3
 30
0.0
 40
18.0
  1
給脂口
 50
0.0
 41
0.9
 51
0.0
  7
KANJI34
  0
TEXT
  8
0
  6
CONTINUOUS
 62
     2
 10
744.75
 20
442.3625
 30
0.0
 40
18.0
  1
ｍｉｎ．Ｌ
 50
0.0
 41
0.9
 51
0.0
  7
KANJI34
  0
TEXT
  8
0
  6
CONTINUOUS
 62
     2
 10
664.25
 20
398.0
 30
0.0
 40
18.0
  1
ｍｉｎ．ＡＬ
 50
0.0
 41
0.9
 51
0.0
  7
KANJI34
  0
TEXT
  8
0
  6
CONTINUOUS
 62
     2
 10
722.25
 20
485.7
 30
0.0
 40
18.0
  1
Ｃ
 50
0.0
 41
0.9
 51
0.0
  7
KANJI34
  0
TEXT
  8
0
  6
CONTINUOUS
 62
     2
 10
757.5
 20
507.875
 30
0.0
 40
18.0
  1
ＬＳユニット
 50
0.0
 41
0.9
 51
0.0
  7
KANJI34
  0
TEXT
  8
2
  6
CONTINUOUS
 62
     2
 10
754.7
 20
993.0
 30
0.0
 40
18.0
  1
ブレーキ解放装置
 50
0.0
 41
0.9
 51
0.0
  7
KANJI34
  0
LINE
  8
0
  6
CONTINUOUS
 62
     2
 10
734.240009455
 20
886.3
 30
0.0
 11
731.004771391
 21
874.225927171
 31
0.0
  0
LINE
  8
0
  6
CONTINUOUS
 62
     2
 10
734.240009455
 20
886.3
 30
0.0
 11
737.475247519
 21
874.225927171
 31
0.0
  0
LINE
  8
0
  6
CONTINUOUS
 62
     2
 10
734.240009455
 20
886.3
 30
0.0
 11
734.240009455
 21
759.3
 31
0.0
  0
LINE
  8
0
  6
CONTINUOUS
 62
     2
 10
734.240009455
 20
759.3
 30
0.0
 11
737.475247519
 21
771.374072829
 31
0.0
  0
LINE
  8
0
  6
CONTINUOUS
 62
     2
 10
734.240009455
 20
759.3
 30
0.0
 11
731.004771391
 21
771.374072829
 31
0.0
  0
TEXT
  8
0
  6
CONTINUOUS
 62
     2
 10
729.240009455
 20
795.05
 30
0.0
 40
18.0
  1
φ１２７
 50
90.0
 41
0.9
 51
0.0
  7
KANJI34
  0
LINE
  8
0
  6
CONTINUOUS
 62
     2
 10
649.0
 20
886.3
 30
0.0
 11
745.1
 21
886.3
 31
0.0
  0
LINE
  8
0
  6
CONTINUOUS
 62
     2
 10
649.0
 20
759.3
 30
0.0
 11
745.1
 21
759.3
 31
0.0
  0
LINE
  8
0
  6
CONTINUOUS
 62
     2
 10
818.1
 20
823.3
 30
0.0
 11
874.0
 21
823.3
 31
0.0
  0
LINE
  8
0
  6
CONTINUOUS
 62
     1
 10
855.182501379
 20
248.6
 30
0.0
 11
887.182501379
 21
248.6
 31
0.0
  0
LINE
  8
0
  6
CONTINUOUS
 62
     1
 10
855.182501379
 20
216.6
 30
0.0
 11
855.182501379
 21
248.6
 31
0.0
  0
ARC
  8
0
  6
CONTINUOUS
 62
     1
 10
816.182501379
 20
305.1
 30
0.0
 40
10.0
 50
90.0
 51
180.0
  0
LINE
  8
0
  6
CONTINUOUS
 62
     1
 10
816.182501379
 20
315.1
 30
0.0
 11
926.182501379
 21
315.1
 31
0.0
  0
LINE
  8
0
  6
LTYPE3
 62
     2
 10
937.443522596
 20
290.6
 30
0.0
 11
846.182501379
 21
290.6
 31
0.0
  0
LINE
  8
7
  6
CONTINUOUS
 62
     2
 10
849.782501379
 20
290.6
 30
0.0
 11
841.47402349
 21
285.035002681
 31
0.0
  0
LINE
  8
7
  6
CONTINUOUS
 62
     2
 10
849.782501379
 20
290.6
 30
0.0
 11
845.36964712
 21
281.626332005
 31
0.0
  0
LINE
  8
7
  6
CONTINUOUS
 62
     2
 10
849.782501379
 20
290.6
 30
0.0
 11
838.582501379
 21
277.8
 31
0.0
  0
LINE
  8
7
  6
CONTINUOUS
 62
     2
 10
838.582501379
 20
277.8
 30
0.0
 11
779.782501379
 21
277.8
 31
0.0
  0
TEXT
  8
7
  6
CONTINUOUS
 62
     2
 10
779.782501379
 20
281.8
 30
1.2
 40
12.0
  1
ＰＦ１／２
 50
0.0
 41
0.9
 51
0.0
  7
KANJI38
  0
LINE
  8
0
  6
CONTINUOUS
 62
     1
 10
806.182501379
 20
294.8
 30
0.0
 11
806.182501379
 21
305.1
 31
0.0
  0
LINE
  8
0
  6
CONTINUOUS
 62
     1
 10
806.182501379
 20
240.6
 30
0.0
 11
806.182501379
 21
274.8
 31
0.0
  0
LINE
  8
0
  6
LTYPE3
 62
     2
 10
861.222501379
 20
305.7
 30
0.0
 11
849.782501379
 21
305.7
 31
0.0
  0
LINE
  8
0
  6
LTYPE3
 62
     2
 10
854.782501379
 20
309.6
 30
0.0
 11
854.782501379
 21
300.62
 31
0.0
  0
LINE
  8
0
  6
CONTINUOUS
 62
     1
 10
916.482501379
 20
310.6
 30
0.0
 11
851.782501379
 21
310.6
 31
0.0
  0
LINE
  8
0
  6
CONTINUOUS
 62
     1
 10
849.782501379
 20
308.6
 30
0.0
 11
849.782501379
 21
272.6
 31
0.0
  0
ARC
  8
0
  6
CONTINUOUS
 62
     1
 10
851.782501379
 20
308.6
 30
0.0
 40
2.0
 50
90.0
 51
180.0
  0
LINE
  8
0
  6
LTYPE3
 62
     2
 10
860.682501379
 20
275.5
 30
0.0
 11
849.782501379
 21
275.5
 31
0.0
  0
LINE
  8
0
  6
LTYPE3
 62
     2
 10
854.782501379
 20
281.52
 30
0.0
 11
854.782501379
 21
271.6
 31
0.0
  0
LINE
  8
0
  6
CONTINUOUS
 62
     1
 10
916.482501379
 20
270.6
 30
0.0
 11
851.782501379
 21
270.6
 31
0.0
  0
ARC
  8
0
  6
CONTINUOUS
 62
     1
 10
851.782501379
 20
272.6
 30
0.0
 40
2.0
 50
180.0
 51
270.0
  0
LINE
  8
0
  6
CONTINUOUS
 62
     2
 10
810.182501379
 20
315.1
 30
0.0
 11
749.0
 21
315.1
 31
0.0
  0
LINE
  8
0
  6
CONTINUOUS
 62
     2
 10
755.0
 20
315.1
 30
0.0
 11
751.894171459
 21
303.508890085
 31
0.0
  0
LINE
  8
0
  6
CONTINUOUS
 62
     2
 10
755.0
 20
315.1
 30
0.0
 11
758.105828541
 21
303.508890085
 31
0.0
  0
LINE
  8
0
  6
CONTINUOUS
 62
     2
 10
755.0
 20
315.1
 30
0.0
 11
755.0
 21
150.1
 31
0.0
  0
TEXT
  8
0
  6
CONTINUOUS
 62
     3
 10
752.0
 20
208.3
 30
0.0
 40
18.0
  1
１６５
 50
90.0
 41
0.9
 51
0.0
  7
KANJI34
  0
LINE
  8
0
  6
LTYPE2
 62
     2
 10
841.182501379
 20
624.75
 30
0.0
 11
841.182501379
 21
730.4
 31
0.0
  0
LINE
  8
0
  6
CONTINUOUS
 62
     1
 10
845.182501379
 20
670.5
 30
0.0
 11
845.182501379
 21
727.00001079
 31
0.0
  0
LINE
  8
0
  6
CONTINUOUS
 62
     1
 10
837.182501379
 20
670.5
 30
0.0
 11
837.182501379
 21
727.00001079
 31
0.0
  0
ARC
  8
0
  6
CONTINUOUS
 62
     1
 10
841.182501379
 20
727.0
 30
0.0
 40
4.0
 50
0.00015455
 51
179.99984545
  0
LINE
  8
0
  6
CONTINUOUS
 62
     1
 10
834.182501379
 20
586.0
 30
0.0
 11
834.182501379
 21
670.5
 31
0.0
  0
LINE
  8
0
  6
CONTINUOUS
 62
     1
 10
848.182501379
 20
670.5
 30
0.0
 11
834.182501379
 21
670.5
 31
0.0
  0
LINE
  8
0
  6
CONTINUOUS
 62
     1
 10
848.182501379
 20
585.5
 30
0.0
 11
848.182501379
 21
670.5
 31
0.0
  0
LINE
  8
0
  6
CONTINUOUS
 62
     1
 10
848.182501379
 20
650.5
 30
0.0
 11
834.182501379
 21
650.5
 31
0.0
  0
TEXT
  8
0
  6
CONTINUOUS
 62
     2
 10
720.0
 20
665.75
 30
0.0
 40
18.0
  1
φ７０
 50
90.0
 41
0.9
 51
0.0
  7
KANJI34
  0
LINE
  8
0
  6
CONTINUOUS
 62
     2
 10
725.0
 20
652.5
 30
0.0
 11
725.0
 21
722.5
 31
0.0
  0
LINE
  8
0
  6
CONTINUOUS
 62
     2
 10
725.0
 20
652.5
 30
0.0
 11
728.235238064
 21
664.574072829
 31
0.0
  0
LINE
  8
0
  6
CONTINUOUS
 62
     2
 10
725.0
 20
652.5
 30
0.0
 11
721.764761936
 21
664.574072829
 31
0.0
  0
LINE
  8
0
  6
CONTINUOUS
 62
     1
 10
742.0
 20
707.5
 30
0.0
 11
782.0
 21
707.5
 31
0.0
  0
LINE
  8
0
  6
CONTINUOUS
 62
     1
 10
742.0
 20
667.5
 30
0.0
 11
742.0
 21
707.5
 31
0.0
  0
LINE
  8
0
  6
CONTINUOUS
 62
     2
 10
725.0
 20
722.5
 30
0.0
 11
721.764761936
 21
710.425927171
 31
0.0
  0
LINE
  8
0
  6
CONTINUOUS
 62
     2
 10
725.0
 20
722.5
 30
0.0
 11
728.235238064
 21
710.425927171
 31
0.0
  0
LINE
  8
0
  6
CONTINUOUS
 62
     1
 10
897.182501379
 20
722.5
 30
0.0
 11
845.182501379
 21
722.5
 31
0.0
  0
LINE
  8
0
  6
CONTINUOUS
 62
     1
 10
837.182501379
 20
722.5
 30
0.0
 11
597.0
 21
722.5
 31
0.0
  0
LINE
  8
0
  6
CONTINUOUS
 62
     1
 10
834.182501379
 20
652.5
 30
0.0
 11
597.0
 21
652.5
 31
0.0
  0
LINE
  8
0
  6
CONTINUOUS
 62
     1
 10
894.182501379
 20
652.5
 30
0.0
 11
848.182501379
 21
652.5
 31
0.0
  0
LINE
  8
0
  6
LTYPE3
 62
     2
 10
1115.283472275
 20
687.5
 30
0.0
 11
722.0
 21
687.5
 31
0.0
  0
LINE
  8
0
  6
CONTINUOUS
 62
     1
 10
887.182501379
 20
216.6
 30
0.0
 11
855.182501379
 21
216.6
 31
0.0
  0
LINE
  8
0
  6
LTYPE3
 62
     2
 10
823.882501379
 20
159.5
 30
0.0
 11
833.842501379
 21
159.5
 31
0.0
  0
LINE
  8
0
  6
LTYPE3
 62
     2
 10
828.882501379
 20
155.6
 30
0.0
 11
828.882501379
 21
163.48
 31
0.0
  0
LINE
  8
0
  6
LTYPE3
 62
     2
 10
823.882501379
 20
189.7
 30
0.0
 11
833.682501379
 21
189.7
 31
0.0
  0
LINE
  8
0
  6
LTYPE3
 62
     2
 10
828.882501379
 20
183.58
 30
0.0
 11
828.882501379
 21
193.6
 31
0.0
  0
LINE
  8
0
  6
LTYPE3
 62
     2
 10
825.182501379
 20
212.6
 30
0.0
 11
802.182501379
 21
212.6
 31
0.0
  0
ARC
  8
0
  6
CONTINUOUS
 62
     1
 10
825.882501379
 20
156.6
 30
0.0
 40
2.0
 50
180.0
 51
270.0
  0
LINE
  8
0
  6
CONTINUOUS
 62
     1
 10
800.482501379
 20
161.9
 30
0.0
 11
823.882501379
 21
161.9
 31
0.0
  0
ARC
  8
0
  6
CONTINUOUS
 62
     1
 10
800.482501379
 20
163.9
 30
0.0
 40
2.0
 50
180.0
 51
270.0
  0
LINE
  8
0
  6
CONTINUOUS
 62
     1
 10
798.482501379
 20
163.9
 30
0.0
 11
798.482501379
 21
185.3
 31
0.0
  0
ARC
  8
0
  6
CONTINUOUS
 62
     1
 10
800.482501379
 20
185.3
 30
0.0
 40
2.0
 50
90.0
 51
180.0
  0
LINE
  8
0
  6
CONTINUOUS
 62
     1
 10
823.882501379
 20
156.6
 30
0.0
 11
823.882501379
 21
192.6
 31
0.0
  0
ARC
  8
0
  6
CONTINUOUS
 62
     1
 10
825.882501379
 20
192.6
 30
0.0
 40
2.0
 50
90.0
 51
180.0
  0
LINE
  8
0
  6
CONTINUOUS
 62
     1
 10
825.882501379
 20
194.6
 30
0.0
 11
890.582501379
 21
194.6
 31
0.0
  0
LINE
  8
0
  6
CONTINUOUS
 62
     1
 10
825.882501379
 20
154.6
 30
0.0
 11
890.582501379
 21
154.6
 31
0.0
  0
LINE
  8
0
  6
CONTINUOUS
 62
     1
 10
806.182501379
 20
161.9
 30
0.0
 11
806.182501379
 21
160.1
 31
0.0
  0
LINE
  8
0
  6
CONTINUOUS
 62
     1
 10
926.182501379
 20
150.1
 30
0.0
 11
816.182501379
 21
150.1
 31
0.0
  0
ARC
  8
0
  6
CONTINUOUS
 62
     1
 10
816.182501379
 20
160.1
 30
0.0
 40
10.0
 50
180.0
 51
270.0
  0
LINE
  8
0
  6
CONTINUOUS
 62
     1
 10
808.190817392
 20
174.915789474
 30
0.0
 11
810.188045388
 21
212.810526316
 31
0.0
  0
LINE
  8
0
  6
CONTINUOUS
 62
     1
 10
820.174185367
 20
174.915789474
 30
0.0
 11
818.176957371
 21
212.810526316
 31
0.0
  0
ARC
  8
0
  6
CONTINUOUS
 62
     1
 10
814.182501379
 20
212.6
 30
0.0
 40
4.0
 50
356.983042101
 51
183.016952287
  0
ARC
  8
0
  6
CONTINUOUS
 62
     1
 10
814.182501379
 20
212.6
 30
0.0
 40
8.75
 50
300.219855722
 51
239.780144278
  0
ARC
  8
0
  6
CONTINUOUS
 62
     1
 10
814.182501379
 20
174.6
 30
0.0
 40
6.0
 50
176.983045121
 51
3.016954879
  0
LINE
  8
0
  6
CONTINUOUS
 62
     1
 10
819.521480162
 20
187.3
 30
0.0
 11
823.882501379
 21
187.3
 31
0.0
  0
LINE
  8
0
  6
CONTINUOUS
 62
     1
 10
800.482501379
 20
187.3
 30
0.0
 11
808.843522596
 21
187.3
 31
0.0
  0
LINE
  8
0
  6
LTYPE3
 62
     2
 10
814.182501379
 20
165.5
 30
0.0
 11
814.182501379
 21
223.0
 31
0.0
  0
LINE
  8
0
  6
LTYPE3
 62
     2
 10
804.921480162
 20
174.6
 30
0.0
 11
896.182501379
 21
174.6
 31
0.0
  0
LINE
  8
0
  6
CONTINUOUS
 62
     1
 10
806.182501379
 20
209.05563828
 30
0.0
 11
806.182501379
 21
187.25
 31
0.0
  0
LINE
  8
0
  6
CONTINUOUS
 62
     1
 10
806.182501379
 20
224.6
 30
0.0
 11
806.182501379
 21
216.14436172
 31
0.0
  0
LINE
  8
0
  6
CONTINUOUS
 62
     1
 10
789.803444363
 20
224.6
 30
0.0
 11
855.182501379
 21
224.6
 31
0.0
  0
LINE
  8
0
  6
CONTINUOUS
 62
     1
 10
855.182501379
 20
240.6
 30
0.0
 11
789.873079342
 21
240.6
 31
0.0
  0
ARC
  8
0
  6
CONTINUOUS
 62
     1
 10
795.427969957
 20
236.6
 30
0.0
 40
6.845203412
 50
144.242860688
 51
215.757139312
  0
ARC
  8
0
  6
CONTINUOUS
 62
     1
 10
784.318188727
 20
236.6
 30
0.0
 40
6.845203412
 50
324.242860688
 51
35.757139312
  0
ARC
  8
0
  6
CONTINUOUS
 62
     1
 10
784.318188727
 20
228.6
 30
0.0
 40
6.845203412
 50
324.242860688
 51
35.757139312
  0
LINE
  8
0
  6
LTYPE2
 62
     2
 10
1019.682501379
 20
232.6
 30
0.0
 11
784.838261852
 21
232.6
 31
0.0
  0
LINE
  8
0
  6
CONTINUOUS
 62
     1
 10
936.182501379
 20
303.3
 30
0.0
 11
936.182501379
 21
305.1
 31
0.0
  0
ARC
  8
0
  6
CONTINUOUS
 62
     1
 10
926.182501379
 20
305.1
 30
0.0
 40
10.0
 50
0.0
 51
90.0
  0
LINE
  8
0
  6
LTYPE3
 62
     2
 10
881.682501379
 20
189.7
 30
0.0
 11
892.582501379
 21
189.7
 31
0.0
  0
LINE
  8
0
  6
LTYPE3
 62
     2
 10
887.582501379
 20
183.68
 30
0.0
 11
887.582501379
 21
193.6
 31
0.0
  0
LINE
  8
0
  6
LTYPE3
 62
     2
 10
881.142501379
 20
159.5
 30
0.0
 11
892.582501379
 21
159.5
 31
0.0
  0
LINE
  8
0
  6
LTYPE3
 62
     2
 10
887.582501379
 20
155.6
 30
0.0
 11
887.582501379
 21
164.58
 31
0.0
  0
ARC
  8
0
  6
CONTINUOUS
 62
     1
 10
890.582501379
 20
192.6
 30
0.0
 40
2.0
 50
0.0
 51
90.0
  0
LINE
  8
0
  6
CONTINUOUS
 62
     1
 10
892.582501379
 20
156.6
 30
0.0
 11
892.582501379
 21
192.6
 31
0.0
  0
ARC
  8
0
  6
CONTINUOUS
 62
     1
 10
890.582501379
 20
156.6
 30
0.0
 40
2.0
 50
270.0
 51
0.0
  0
ARC
  8
0
  6
CONTINUOUS
 62
     1
 10
926.182501379
 20
160.1
 30
0.0
 40
10.0
 50
270.0
 51
0.0
  0
LINE
  8
0
  6
CONTINUOUS
 62
     1
 10
887.182501379
 20
216.6
 30
0.0
 11
887.182501379
 21
248.6
 31
0.0
  0
LINE
  8
0
  6
CONTINUOUS
 62
     1
 10
936.182501379
 20
256.14436172
 30
0.0
 11
936.182501379
 21
277.95
 31
0.0
  0
LINE
  8
0
  6
CONTINUOUS
 62
     1
 10
936.182501379
 20
240.6
 30
0.0
 11
936.182501379
 21
249.05563828
 31
0.0
  0
LINE
  8
0
  6
LTYPE2
 62
     2
 10
967.682501379
 20
222.6
 30
0.0
 11
967.682501379
 21
242.6
 31
0.0
  0
CIRCLE
  8
0
  6
CONTINUOUS
 62
     2
 10
967.682501379
 20
232.6
 30
0.0
 40
5.0
  0
CIRCLE
  8
0
  6
CONTINUOUS
 62
     2
 10
967.682501379
 20
232.6
 30
0.0
 40
4.0
  0
LINE
  8
7
  6
CONTINUOUS
 62
     2
 10
892.582501379
 20
174.6
 30
0.0
 11
900.949808964
 21
180.076144975
 31
0.0
  0
LINE
  8
7
  6
CONTINUOUS
 62
     2
 10
892.582501379
 20
174.6
 30
0.0
 11
897.090729822
 21
183.526134455
 31
0.0
  0
LINE
  8
7
  6
CONTINUOUS
 62
     2
 10
892.582501379
 20
174.6
 30
0.0
 11
905.232501379
 21
188.75
 31
0.0
  0
LINE
  8
7
  6
CONTINUOUS
 62
     2
 10
905.232501379
 20
188.75
 30
0.0
 11
964.032501379
 21
188.75
 31
0.0
  0
TEXT
  8
7
  6
CONTINUOUS
 62
     2
 10
905.232501379
 20
192.75
 30
1.2
 40
12.0
  1
ＰＦ１／２
 50
0.0
 41
0.9
 51
0.0
  7
KANJI38
  0
LINE
  8
0
  6
CONTINUOUS
 62
     1
 10
936.182501379
 20
185.8
 30
0.0
 11
936.182501379
 21
160.1
 31
0.0
  0
LINE
  8
0
  6
LTYPE3
 62
     2
 10
918.482501379
 20
305.7
 30
0.0
 11
908.522501379
 21
305.7
 31
0.0
  0
LINE
  8
0
  6
LTYPE3
 62
     2
 10
913.482501379
 20
309.6
 30
0.0
 11
913.482501379
 21
301.72
 31
0.0
  0
ARC
  8
0
  6
CONTINUOUS
 62
     1
 10
916.482501379
 20
308.6
 30
0.0
 40
2.0
 50
0.0
 51
90.0
  0
LINE
  8
0
  6
CONTINUOUS
 62
     1
 10
941.882501379
 20
303.3
 30
0.0
 11
918.482501379
 21
303.3
 31
0.0
  0
LINE
  8
0
  6
CONTINUOUS
 62
     1
 10
918.482501379
 20
308.6
 30
0.0
 11
918.482501379
 21
272.6
 31
0.0
  0
LINE
  8
0
  6
LTYPE3
 62
     2
 10
918.482501379
 20
275.5
 30
0.0
 11
908.682501379
 21
275.5
 31
0.0
  0
LINE
  8
0
  6
LTYPE3
 62
     2
 10
913.482501379
 20
281.62
 30
0.0
 11
913.482501379
 21
271.6
 31
0.0
  0
ARC
  8
0
  6
CONTINUOUS
 62
     1
 10
916.482501379
 20
272.6
 30
0.0
 40
2.0
 50
270.0
 51
0.0
  0
LINE
  8
0
  6
CONTINUOUS
 62
     1
 10
922.843522596
 20
277.9
 30
0.0
 11
918.482501379
 21
277.9
 31
0.0
  0
ARC
  8
0
  6
CONTINUOUS
 62
     1
 10
941.882501379
 20
301.3
 30
0.0
 40
2.0
 50
0.0
 51
90.0
  0
LINE
  8
0
  6
CONTINUOUS
 62
     1
 10
943.882501379
 20
301.3
 30
0.0
 11
943.882501379
 21
279.9
 31
0.0
  0
ARC
  8
0
  6
CONTINUOUS
 62
     1
 10
928.182501379
 20
290.6
 30
0.0
 40
6.0
 50
356.983045121
 51
183.016954879
  0
LINE
  8
0
  6
LTYPE3
 62
     2
 10
928.182501379
 20
299.7
 30
0.0
 11
928.182501379
 21
242.2
 31
0.0
  0
LINE
  8
0
  6
CONTINUOUS
 62
     1
 10
934.174185367
 20
290.284210526
 30
0.0
 11
932.176957371
 21
252.389473684
 31
0.0
  0
LINE
  8
0
  6
CONTINUOUS
 62
     1
 10
922.190817392
 20
290.284210526
 30
0.0
 11
924.188045388
 21
252.389473684
 31
0.0
  0
ARC
  8
0
  6
CONTINUOUS
 62
     1
 10
941.882501379
 20
279.9
 30
0.0
 40
2.0
 50
270.0
 51
0.0
  0
LINE
  8
0
  6
CONTINUOUS
 62
     1
 10
941.882501379
 20
277.9
 30
0.0
 11
933.521480162
 21
277.9
 31
0.0
  0
LINE
  8
0
  6
LTYPE3
 62
     2
 10
917.182501379
 20
252.6
 30
0.0
 11
940.182501379
 21
252.6
 31
0.0
  0
ARC
  8
0
  6
CONTINUOUS
 62
     1
 10
928.182501379
 20
252.6
 30
0.0
 40
8.75
 50
120.219855722
 51
59.780144278
  0
ARC
  8
0
  6
CONTINUOUS
 62
     1
 10
928.182501379
 20
252.6
 30
0.0
 40
4.0
 50
176.983042101
 51
3.016952287
  0
LINE
  8
0
  6
LTYPE2
 62
     2
 10
871.182501379
 20
201.0
 30
0.0
 11
871.182501379
 21
539.5
 31
0.0
  0
LINE
  8
0
  6
CONTINUOUS
 62
     2
 10
755.0
 20
150.1
 30
0.0
 11
758.105828541
 21
161.691109915
 31
0.0
  0
LINE
  8
0
  6
CONTINUOUS
 62
     2
 10
755.0
 20
150.1
 30
0.0
 11
751.894171459
 21
161.691109915
 31
0.0
  0
LINE
  8
0
  6
CONTINUOUS
 62
     2
 10
810.182512169
 20
150.1
 30
0.0
 11
749.0
 21
150.1
 31
0.0
  0
LINE
  8
0
  6
CONTINUOUS
 62
     2
 10
806.182501379
 20
155.9
 30
0.0
 11
806.182501379
 21
111.1
 31
0.0
  0
LINE
  8
0
  6
CONTINUOUS
 62
     2
 10
806.182501379
 20
117.1
 30
0.0
 11
817.773611295
 21
113.994171459
 31
0.0
  0
LINE
  8
0
  6
CONTINUOUS
 62
     2
 10
806.182501379
 20
117.1
 30
0.0
 11
817.773611295
 21
120.205828541
 31
0.0
  0
LINE
  8
0
  6
CONTINUOUS
 62
     2
 10
806.182501379
 20
117.1
 30
0.0
 11
936.182501379
 21
117.1
 31
0.0
  0
LINE
  8
0
  6
CONTINUOUS
 62
     2
 10
936.182501379
 20
117.1
 30
0.0
 11
924.591391464
 21
120.205828541
 31
0.0
  0
LINE
  8
0
  6
CONTINUOUS
 62
     2
 10
936.182501379
 20
117.1
 30
0.0
 11
924.591391464
 21
113.994171459
 31
0.0
  0
LINE
  8
0
  6
CONTINUOUS
 62
     2
 10
936.182501379
 20
154.100010093
 30
0.0
 11
936.182501379
 21
111.1
 31
0.0
  0
TEXT
  8
0
  6
CONTINUOUS
 62
     3
 10
846.882501379
 20
120.1
 30
0.0
 40
18.0
  1
１３０
 50
0.0
 41
0.9
 51
0.0
  7
KANJI34
  0
LINE
  8
0
  6
CONTINUOUS
 62
     1
 10
918.482501379
 20
579.5
 30
0.0
 11
918.482501379
 21
539.5
 31
0.0
  0
LINE
  8
0
  6
LTYPE3
 62
     2
 10
871.182501379
 20
523.5
 30
0.0
 11
871.182501379
 21
588.8
 31
0.0
  0
LINE
  8
0
  6
LTYPE3
 62
     2
 10
928.182501379
 20
564.6875
 30
0.0
 11
928.182501379
 21
524.7
 31
0.0
  0
LINE
  8
0
  6
CONTINUOUS
 62
     1
 10
887.182501379
 20
524.5
 30
0.0
 11
887.182501379
 21
539.5
 31
0.0
  0
LINE
  8
0
  6
CONTINUOUS
 62
     2
 10
863.0
 20
527.375
 30
0.0
 11
858.774827007
 21
515.610735757
 31
0.0
  0
LINE
  8
0
  6
LTYPE1
 62
     2
 10
963.182501379
 20
543.5
 30
0.0
 11
1005.182501379
 21
543.5
 31
0.0
  0
LINE
  8
0
  6
LTYPE1
 62
     2
 10
963.182501379
 20
531.5
 30
0.0
 11
1005.182501379
 21
531.5
 31
0.0
  0
LINE
  8
0
  6
CONTINUOUS
 62
     1
 10
887.182501379
 20
531.5
 30
0.0
 11
963.182501379
 21
531.5
 31
0.0
  0
LINE
  8
0
  6
CONTINUOUS
 62
     1
 10
918.482501379
 20
543.5
 30
0.0
 11
963.182501379
 21
543.5
 31
0.0
  0
LINE
  8
0
  6
CONTINUOUS
 62
     1
 10
943.882501379
 20
578.5
 30
0.0
 11
943.882501379
 21
553.1
 31
0.0
  0
LINE
  8
0
  6
CONTINUOUS
 62
     1
 10
918.482501379
 20
578.5
 30
0.0
 11
943.882501379
 21
578.5
 31
0.0
  0
LINE
  8
0
  6
CONTINUOUS
 62
     1
 10
936.182501379
 20
579.5
 30
0.0
 11
936.182501379
 21
585.5
 31
0.0
  0
LINE
  8
0
  6
CONTINUOUS
 62
     1
 10
918.482501379
 20
553.1
 30
0.0
 11
943.882501379
 21
553.1
 31
0.0
  0
LINE
  8
0
  6
CONTINUOUS
 62
     1
 10
957.0
 20
652.5
 30
0.0
 11
957.0
 21
722.5
 31
0.0
  0
LINE
  8
0
  6
CONTINUOUS
 62
     1
 10
897.182501379
 20
670.5
 30
0.0
 11
897.182501379
 21
727.00001079
 31
0.0
  0
LINE
  8
0
  6
LTYPE2
 62
     2
 10
901.182501379
 20
624.75
 30
0.0
 11
901.182501379
 21
730.4
 31
0.0
  0
LINE
  8
0
  6
CONTINUOUS
 62
     1
 10
905.182501379
 20
670.5
 30
0.0
 11
905.182501379
 21
727.00001079
 31
0.0
  0
LINE
  8
0
  6
CONTINUOUS
 62
     1
 10
894.182501379
 20
586.0
 30
0.0
 11
894.182501379
 21
670.5
 31
0.0
  0
LINE
  8
0
  6
CONTINUOUS
 62
     1
 10
908.182501379
 20
670.5
 30
0.0
 11
894.182501379
 21
670.5
 31
0.0
  0
LINE
  8
0
  6
CONTINUOUS
 62
     1
 10
908.182501379
 20
585.5
 30
0.0
 11
908.182501379
 21
670.5
 31
0.0
  0
LINE
  8
0
  6
CONTINUOUS
 62
     1
 10
908.182501379
 20
650.5
 30
0.0
 11
894.182501379
 21
650.5
 31
0.0
  0
LINE
  8
0
  6
CONTINUOUS
 62
     1
 10
992.0
 20
652.5
 30
0.0
 11
908.182501379
 21
652.5
 31
0.0
  0
LINE
  8
0
  6
CONTINUOUS
 62
     1
 10
909.183009455
 20
722.5
 30
0.0
 11
992.0
 21
722.5
 31
0.0
  0
ARC
  8
0
  6
CONTINUOUS
 62
     1
 10
901.182501379
 20
727.0
 30
0.0
 40
4.0
 50
0.00015455
 51
179.99984545
  0
LINE
  8
0
  6
CONTINUOUS
 62
     1
 10
924.71890784
 20
722.5
 30
0.0
 11
905.182501379
 21
722.5
 31
0.0
  0
LINE
  8
0
  6
CONTINUOUS
 62
     2
 10
635.0
 20
602.0
 30
0.0
 11
719.0
 21
619.5
 31
0.0
  0
LINE
  8
0
  6
CONTINUOUS
 62
     2
 10
719.0
 20
619.5
 30
0.0
 11
800.0
 21
619.5
 31
0.0
  0
TEXT
  8
0
  6
CONTINUOUS
 62
     3
 10
719.0
 20
622.5
 30
0.0
 40
18.0
  1
ＰＦ１／２
 50
0.0
 41
0.9
 51
0.0
  7
KANJI34
  0
LINE
  8
0
  6
CONTINUOUS
 62
     1
 10
588.0
 20
629.5
 30
0.0
 11
588.0
 21
740.5
 31
0.0
  0
LINE
  8
0
  6
CONTINUOUS
 62
     1
 10
596.0
 20
628.0
 30
0.0
 11
596.0
 21
627.0
 31
0.0
  0
LINE
  8
0
  6
CONTINUOUS
 62
     1
 10
596.0
 20
627.0
 30
0.0
 11
632.0
 21
627.0
 31
0.0
  0
ARC
  8
0
  6
CONTINUOUS
 62
     1
 10
632.0
 20
624.0
 30
0.0
 40
3.0
 50
0.0
 51
90.0
  0
LINE
  8
0
  6
CONTINUOUS
 62
     1
 10
597.0
 20
636.5
 30
0.0
 11
597.0
 21
738.5
 31
0.0
  0
LINE
  8
0
  6
CONTINUOUS
 62
     1
 10
597.0
 20
738.5
 30
0.0
 11
588.0
 21
738.5
 31
0.0
  0
LINE
  8
0
  6
CONTINUOUS
 62
     1
 10
597.0
 20
636.5
 30
0.0
 11
588.0
 21
636.5
 31
0.0
  0
LINE
  8
0
  6
CONTINUOUS
 62
     1
 10
597.0
 20
735.0
 30
0.0
 11
588.0
 21
735.0
 31
0.0
  0
LINE
  8
0
  6
CONTINUOUS
 62
     1
 10
597.0
 20
640.0
 30
0.0
 11
588.0
 21
640.0
 31
0.0
  0
LINE
  8
0
  6
CONTINUOUS
 62
     1
 10
597.0
 20
683.5
 30
0.0
 11
588.0
 21
683.5
 31
0.0
  0
LINE
  8
0
  6
CONTINUOUS
 62
     1
 10
597.0
 20
691.5
 30
0.0
 11
588.0
 21
691.5
 31
0.0
  0
LINE
  8
0
  6
LTYPE1
 62
     2
 10
635.0
 20
611.3
 30
0.0
 11
625.0
 21
611.3
 31
0.0
  0
LINE
  8
0
  6
LTYPE1
 62
     2
 10
635.0
 20
612.5
 30
0.0
 11
625.0
 21
612.5
 31
0.0
  0
LINE
  8
0
  6
LTYPE1
 62
     2
 10
635.0
 20
592.7
 30
0.0
 11
625.0
 21
592.7
 31
0.0
  0
LINE
  8
0
  6
LTYPE1
 62
     2
 10
635.0
 20
591.5
 30
0.0
 11
625.0
 21
591.5
 31
0.0
  0
LINE
  8
0
  6
LTYPE2
 62
     2
 10
641.2
 20
602.0
 30
0.0
 11
621.5
 21
602.0
 31
0.0
  0
LINE
  8
0
  6
CONTINUOUS
 62
     1
 10
642.810381815
 20
864.327582684
 30
0.0
 11
660.189618185
 21
862.672417316
 31
0.0
  0
ARC
  8
0
  6
CONTINUOUS
 62
     1
 10
643.0
 20
866.318573629
 30
0.0
 40
2.0
 50
180.0
 51
264.559667969
  0
LINE
  8
0
  6
CONTINUOUS
 62
     1
 10
642.810381815
 20
874.327582684
 30
0.0
 11
660.189618185
 21
872.672417316
 31
0.0
  0
ARC
  8
0
  6
CONTINUOUS
 62
     1
 10
643.0
 20
876.318573629
 30
0.0
 40
2.0
 50
180.0
 51
264.559667969
  0
LINE
  8
0
  6
CONTINUOUS
 62
     1
 10
642.810381815
 20
780.672417316
 30
0.0
 11
660.189618185
 21
782.327582684
 31
0.0
  0
ARC
  8
0
  6
CONTINUOUS
 62
     1
 10
643.0
 20
778.681426371
 30
0.0
 40
2.0
 50
95.440332031
 51
180.0
  0
ARC
  8
0
  6
CONTINUOUS
 62
     1
 10
664.0
 20
847.5
 30
0.0
 40
2.0
 50
180.0
 51
270.0
  0
LINE
  8
0
  6
CONTINUOUS
 62
     1
 10
673.0
 20
845.5
 30
0.0
 11
664.0
 21
845.5
 31
0.0
  0
ARC
  8
0
  6
CONTINUOUS
 62
     1
 10
673.0
 20
843.5
 30
0.0
 40
2.0
 50
0.0
 51
90.0
  0
LINE
  8
0
  6
CONTINUOUS
 62
     1
 10
675.0
 20
843.5
 30
0.0
 11
675.0
 21
801.5
 31
0.0
  0
ARC
  8
0
  6
CONTINUOUS
 62
     1
 10
673.0
 20
801.5
 30
0.0
 40
2.0
 50
270.0
 51
0.0
  0
ARC
  8
0
  6
CONTINUOUS
 62
     1
 10
664.0
 20
797.5
 30
0.0
 40
2.0
 50
90.0
 51
180.0
  0
LINE
  8
0
  6
CONTINUOUS
 62
     1
 10
673.0
 20
799.5
 30
0.0
 11
664.0
 21
799.5
 31
0.0
  0
LINE
  8
0
  6
CONTINUOUS
 62
     1
 10
678.0
 20
834.0
 30
0.0
 11
675.0
 21
834.0
 31
0.0
  0
LINE
  8
0
  6
CONTINUOUS
 62
     1
 10
678.0
 20
811.0
 30
0.0
 11
675.0
 21
811.0
 31
0.0
  0
LINE
  8
0
  6
CONTINUOUS
 62
     1
 10
678.0
 20
834.0
 30
0.0
 11
678.0
 21
811.0
 31
0.0
  0
ARC
  8
0
  6
CONTINUOUS
 62
     1
 10
639.0
 20
761.0
 30
0.0
 40
2.0
 50
270.0
 51
0.0
  0
ARC
  8
0
  6
CONTINUOUS
 62
     1
 10
639.0
 20
884.0
 30
0.0
 40
2.0
 50
0.0
 51
90.0
  0
LINE
  8
0
  6
CONTINUOUS
 62
     1
 10
633.0
 20
886.0
 30
0.0
 11
633.0
 21
759.0
 31
0.0
  0
ARC
  8
0
  6
CONTINUOUS
 62
     1
 10
660.0
 20
815.318573629
 30
0.0
 40
2.0
 50
275.440332031
 51
0.0
  0
LINE
  8
0
  6
CONTINUOUS
 62
     1
 10
660.189618185
 20
813.327582684
 30
0.0
 11
642.810381815
 21
811.672417316
 31
0.0
  0
ARC
  8
0
  6
CONTINUOUS
 62
     1
 10
643.0
 20
809.681426371
 30
0.0
 40
2.0
 50
95.440332031
 51
180.0
  0
ARC
  8
0
  6
CONTINUOUS
 62
     1
 10
660.0
 20
829.681426371
 30
0.0
 40
2.0
 50
0.0
 51
84.559667969
  0
LINE
  8
0
  6
CONTINUOUS
 62
     1
 10
660.189618185
 20
831.672417316
 30
0.0
 11
642.810381815
 21
833.327582684
 31
0.0
  0
ARC
  8
0
  6
CONTINUOUS
 62
     1
 10
643.0
 20
835.318573629
 30
0.0
 40
2.0
 50
180.0
 51
264.559667969
  0
LINE
  8
0
  6
CONTINUOUS
 62
     1
 10
641.0
 20
884.000001907
 30
0.0
 11
641.0
 21
761.000004672
 31
0.0
  0
LINE
  8
0
  6
LTYPE2
 62
     2
 10
654.5
 20
865.5
 30
0.0
 11
667.7
 21
865.5
 31
0.0
  0
LINE
  8
0
  6
CONTINUOUS
 62
     1
 10
642.810381815
 20
770.672417316
 30
0.0
 11
660.189618185
 21
772.327582684
 31
0.0
  0
LINE
  8
0
  6
LTYPE2
 62
     2
 10
654.5
 20
779.5
 30
0.0
 11
667.7
 21
779.5
 31
0.0
  0
ARC
  8
0
  6
CONTINUOUS
 62
     1
 10
643.0
 20
768.681426371
 30
0.0
 40
2.0
 50
95.440332031
 51
180.0
  0
LINE
  8
0
  6
CONTINUOUS
 62
     1
 10
662.0
 20
870.681426371
 30
0.0
 11
662.0
 21
774.88812
 31
0.0
  0
ARC
  8
0
  6
CONTINUOUS
 62
     1
 10
660.0
 20
860.681426371
 30
0.0
 40
2.0
 50
0.0
 51
84.559667969
  0
ARC
  8
0
  6
CONTINUOUS
 62
     1
 10
660.0
 20
870.681426371
 30
0.0
 40
2.0
 50
0.0
 51
84.559667969
  0
LINE
  8
0
  6
CONTINUOUS
 62
     1
 10
665.5002
 20
868.98244
 30
0.0
 11
664.848117512
 21
870.11188
 31
0.0
  0
LINE
  8
0
  6
CONTINUOUS
 62
     1
 10
665.5002
 20
862.01756
 30
0.0
 11
664.848117512
 21
860.88812
 31
0.0
  0
ARC
  8
0
  6
CONTINUOUS
 62
     1
 10
661.096945074
 20
865.5
 30
0.0
 40
4.403254926
 50
328.419912243
 51
31.580087757
  0
ARC
  8
0
  6
CONTINUOUS
 62
     1
 10
664.155279868
 20
868.95891
 30
0.0
 40
1.34512595
 50
301.002313915
 51
2.989498403
  0
LINE
  8
0
  6
CONTINUOUS
 62
     1
 10
665.5002
 20
862.01756
 30
0.0
 11
664.848117512
 21
860.88812
 31
0.0
  0
ARC
  8
0
  6
CONTINUOUS
 62
     1
 10
664.155279868
 20
862.04109
 30
0.0
 40
1.34512595
 50
357.010501597
 51
58.997686085
  0
LINE
  8
0
  6
CONTINUOUS
 62
     1
 10
662.0
 20
870.11188
 30
0.0
 11
664.848117512
 21
870.11188
 31
0.0
  0
LINE
  8
0
  6
CONTINUOUS
 62
     1
 10
662.0
 20
867.80594
 30
0.0
 11
664.848117512
 21
867.80594
 31
0.0
  0
LINE
  8
0
  6
CONTINUOUS
 62
     1
 10
662.0
 20
863.19406
 30
0.0
 11
664.848117512
 21
863.19406
 31
0.0
  0
LINE
  8
0
  6
CONTINUOUS
 62
     1
 10
662.0
 20
860.88812
 30
0.0
 11
664.848117512
 21
860.88812
 31
0.0
  0
LINE
  8
0
  6
CONTINUOUS
 62
     1
 10
665.5002
 20
868.98244
 30
0.0
 11
665.5002
 21
862.01756
 31
0.0
  0
LINE
  8
0
  6
CONTINUOUS
 62
     1
 10
683.0
 20
826.852902
 30
0.0
 11
682.184924603
 21
828.264654
 31
0.0
  0
LINE
  8
0
  6
CONTINUOUS
 62
     1
 10
683.0
 20
818.147098
 30
0.0
 11
682.184924603
 21
816.735346
 31
0.0
  0
ARC
  8
0
  6
CONTINUOUS
 62
     1
 10
677.496118477
 20
822.5
 30
0.0
 40
5.503881523
 50
328.419912243
 51
31.580087757
  0
ARC
  8
0
  6
CONTINUOUS
 62
     1
 10
681.318906993
 20
826.8234905
 30
0.0
 40
1.681350271
 50
301.002313915
 51
2.989498403
  0
LINE
  8
0
  6
CONTINUOUS
 62
     1
 10
683.0
 20
818.147098
 30
0.0
 11
682.184924603
 21
816.735346
 31
0.0
  0
ARC
  8
0
  6
CONTINUOUS
 62
     1
 10
681.318906993
 20
818.1765095
 30
0.0
 40
1.681350271
 50
357.010501597
 51
58.997686085
  0
LINE
  8
0
  6
CONTINUOUS
 62
     1
 10
679.00039
 20
825.382327
 30
0.0
 11
682.184924603
 21
825.382327
 31
0.0
  0
LINE
  8
0
  6
CONTINUOUS
 62
     1
 10
679.00039
 20
828.264654
 30
0.0
 11
682.184924603
 21
828.264654
 31
0.0
  0
LINE
  8
0
  6
CONTINUOUS
 62
     1
 10
679.00039
 20
819.617673
 30
0.0
 11
682.184924603
 21
819.617673
 31
0.0
  0
LINE
  8
0
  6
CONTINUOUS
 62
     1
 10
679.00039
 20
816.735346
 30
0.0
 11
682.184924603
 21
816.735346
 31
0.0
  0
LINE
  8
0
  6
CONTINUOUS
 62
     1
 10
683.0
 20
818.147098
 30
0.0
 11
683.0
 21
826.852902
 31
0.0
  0
LINE
  8
0
  6
CONTINUOUS
 62
     1
 10
679.00039
 20
829.0
 30
0.0
 11
678.0
 21
829.0
 31
0.0
  0
LINE
  8
0
  6
CONTINUOUS
 62
     1
 10
679.00039
 20
829.0
 30
0.0
 11
679.00039
 21
816.0
 31
0.0
  0
LINE
  8
0
  6
CONTINUOUS
 62
     1
 10
679.00039
 20
816.0
 30
0.0
 11
678.0
 21
816.0
 31
0.0
  0
ARC
  8
0
  6
CONTINUOUS
 62
     1
 10
660.0
 20
784.318573629
 30
0.0
 40
2.0
 50
275.440332031
 51
0.0
  0
LINE
  8
0
  6
CONTINUOUS
 62
     1
 10
665.5002
 20
776.01756
 30
0.0
 11
664.848117512
 21
774.88812
 31
0.0
  0
LINE
  8
0
  6
CONTINUOUS
 62
     1
 10
665.5002
 20
782.98244
 30
0.0
 11
664.848117512
 21
784.11188
 31
0.0
  0
ARC
  8
0
  6
CONTINUOUS
 62
     1
 10
661.096945074
 20
779.5
 30
0.0
 40
4.403254926
 50
328.419912243
 51
31.580087757
  0
ARC
  8
0
  6
CONTINUOUS
 62
     1
 10
664.155279868
 20
776.04109
 30
0.0
 40
1.34512595
 50
357.010501597
 51
58.997686085
  0
LINE
  8
0
  6
CONTINUOUS
 62
     1
 10
665.5002
 20
782.98244
 30
0.0
 11
664.848117512
 21
784.11188
 31
0.0
  0
ARC
  8
0
  6
CONTINUOUS
 62
     1
 10
664.155279868
 20
782.95891
 30
0.0
 40
1.34512595
 50
301.002313915
 51
2.989498403
  0
LINE
  8
0
  6
CONTINUOUS
 62
     1
 10
662.0
 20
774.88812
 30
0.0
 11
664.848117512
 21
774.88812
 31
0.0
  0
LINE
  8
0
  6
CONTINUOUS
 62
     1
 10
662.0
 20
777.19406
 30
0.0
 11
664.848117512
 21
777.19406
 31
0.0
  0
LINE
  8
0
  6
CONTINUOUS
 62
     1
 10
662.0
 20
781.80594
 30
0.0
 11
664.848117512
 21
781.80594
 31
0.0
  0
LINE
  8
0
  6
CONTINUOUS
 62
     1
 10
662.0
 20
784.11188
 30
0.0
 11
664.848117512
 21
784.11188
 31
0.0
  0
LINE
  8
0
  6
CONTINUOUS
 62
     1
 10
665.5002
 20
776.01756
 30
0.0
 11
665.5002
 21
782.98244
 31
0.0
  0
ARC
  8
0
  6
CONTINUOUS
 62
     1
 10
660.0
 20
774.318573629
 30
0.0
 40
2.0
 50
275.440332031
 51
0.0
  0
LINE
  8
0
  6
LTYPE1
 62
     1
 10
670.1
 20
837.0
 30
0.0
 11
662.0
 21
827.8
 31
0.0
  0
ARC
  8
0
  6
LTYPE1
 62
     1
 10
673.5
 20
834.0
 30
0.0
 40
4.5
 50
290.9
 51
137.7
  0
LINE
  8
0
  6
LTYPE1
 62
     1
 10
668.0
 20
827.0
 30
0.0
 11
662.0
 21
827.8
 31
0.0
  0
LINE
  8
0
  6
LTYPE1
 62
     1
 10
675.1
 20
829.8
 30
0.0
 11
668.0
 21
827.0
 31
0.0
  0
LINE
  8
0
  6
LTYPE1
 62
     1
 10
668.0
 20
818.0
 30
0.0
 11
662.0
 21
817.2
 31
0.0
  0
ARC
  8
0
  6
LTYPE1
 62
     1
 10
673.5
 20
811.0
 30
0.0
 40
4.5
 50
222.3
 51
69.1
  0
LINE
  8
0
  6
LTYPE1
 62
     1
 10
670.1
 20
808.0
 30
0.0
 11
662.0
 21
817.2
 31
0.0
  0
LINE
  8
0
  6
LTYPE1
 62
     1
 10
675.1
 20
815.2
 30
0.0
 11
668.0
 21
818.0
 31
0.0
  0
LINE
  8
0
  6
LTYPE1
 62
     1
 10
668.0
 20
827.0
 30
0.0
 11
668.0
 21
818.0
 31
0.0
  0
LINE
  8
2
  6
CONTINUOUS
 62
     2
 10
676.2
 20
843.0
 30
0.0
 11
684.793379441
 21
852.077655522
 31
0.0
  0
LINE
  8
2
  6
CONTINUOUS
 62
     2
 10
676.2
 20
843.0
 30
0.0
 11
679.10325714
 21
855.15817001
 31
0.0
  0
LINE
  8
0
  6
CONTINUOUS
 62
     2
 10
682.99181787
 20
1035.9
 30
0.0
 11
670.917745041
 21
1039.135238064
 31
0.0
  0
LINE
  8
0
  6
CONTINUOUS
 62
     2
 10
682.99181787
 20
1035.9
 30
0.0
 11
670.917745041
 21
1032.664761936
 31
0.0
  0
LINE
  8
0
  6
CONTINUOUS
 62
     2
 10
682.99181787
 20
836.4
 30
0.0
 11
682.99181787
 21
1043.4
 31
0.0
  0
LINE
  8
0
  6
LTYPE3
 62
     2
 10
691.032501379
 20
624.75
 30
0.0
 11
691.032501379
 21
730.4
 31
0.0
  0
LINE
  8
0
  6
LTYPE1
 62
     2
 10
695.032501379
 20
670.5
 30
0.0
 11
695.032501379
 21
727.00001079
 31
0.0
  0
LINE
  8
0
  6
LTYPE1
 62
     2
 10
687.032501379
 20
670.5
 30
0.0
 11
687.032501379
 21
727.00001079
 31
0.0
  0
ARC
  8
0
  6
LTYPE1
 62
     2
 10
691.032501379
 20
727.0
 30
0.0
 40
4.0
 50
0.00015455
 51
179.99984545
  0
LINE
  8
0
  6
LTYPE1
 62
     2
 10
698.032501379
 20
670.5
 30
0.0
 11
684.032501379
 21
670.5
 31
0.0
  0
LINE
  8
0
  6
LTYPE1
 62
     2
 10
698.032501379
 20
650.5
 30
0.0
 11
684.032501379
 21
650.5
 31
0.0
  0
LINE
  8
0
  6
CONTINUOUS
 62
     1
 10
635.0
 20
578.5
 30
0.0
 11
635.0
 21
624.0
 31
0.0
  0
ARC
  8
0
  6
CONTINUOUS
 62
     1
 10
634.0
 20
578.5
 30
0.0
 40
1.0
 50
270.0
 51
0.0
  0
LINE
  8
0
  6
CONTINUOUS
 62
     1
 10
632.0
 20
577.5
 30
0.0
 11
632.0
 21
577.5
 31
0.0
  0
ARC
  8
0
  6
CONTINUOUS
 62
     1
 10
631.0
 20
577.5
 30
0.0
 40
1.0
 50
270.0
 51
0.0
  0
LINE
  8
0
  6
CONTINUOUS
 62
     1
 10
631.3
 20
576.5
 30
0.0
 11
620.7
 21
576.5
 31
0.0
  0
ARC
  8
0
  6
CONTINUOUS
 62
     1
 10
626.4
 20
577.5
 30
0.0
 40
5.0
 50
272.3
 51
348.5
  0
ARC
  8
0
  6
CONTINUOUS
 62
     1
 10
625.6
 20
577.5
 30
0.0
 40
5.0
 50
191.5
 51
267.7
  0
LINE
  8
0
  6
CONTINUOUS
 62
     1
 10
626.6
 20
572.5
 30
0.0
 11
625.4
 21
572.5
 31
0.0
  0
LINE
  8
0
  6
LTYPE4
 62
     2
 10
626.0
 20
569.1
 30
0.0
 11
626.0
 21
582.5
 31
0.0
  0
LINE
  8
0
  6
LTYPE1
 62
     2
 10
698.032501379
 20
579.5
 30
0.0
 11
698.032501379
 21
670.5
 31
0.0
  0
LINE
  8
0
  6
LTYPE1
 62
     2
 10
684.032501379
 20
586.0
 30
0.0
 11
684.032501379
 21
670.5
 31
0.0
  0
LINE
  8
0
  6
LTYPE1
 62
     2
 10
697.532501379
 20
579.5
 30
0.0
 11
697.532501379
 21
574.9
 31
0.0
  0
LINE
  8
0
  6
LTYPE1
 62
     2
 10
682.532501379
 20
579.5
 30
0.0
 11
682.532501379
 21
574.9
 31
0.0
  0
LINE
  8
0
  6
LTYPE1
 62
     2
 10
686.232501379
 20
579.5
 30
0.0
 11
686.232501379
 21
574.9
 31
0.0
  0
LINE
  8
0
  6
LTYPE1
 62
     2
 10
693.832501379
 20
579.5
 30
0.0
 11
693.832501379
 21
574.9
 31
0.0
  0
ARC
  8
0
  6
LTYPE1
 62
     2
 10
684.332501379
 20
577.0
 30
0.0
 40
2.8
 50
228.5
 51
311.5
  0
ARC
  8
0
  6
LTYPE1
 62
     2
 10
690.032501379
 20
584.9
 30
0.0
 40
10.7
 50
249.1
 51
290.9
  0
ARC
  8
0
  6
LTYPE1
 62
     2
 10
695.732501379
 20
577.0
 30
0.0
 40
2.8
 50
228.5
 51
311.5
  0
LINE
  8
0
  6
LTYPE1
 62
     2
 10
690.032501379
 20
570.7
 30
0.0
 11
690.032501379
 21
582.5
 31
0.0
  0
LINE
  8
0
  6
LTYPE2
 62
     2
 10
690.032501379
 20
566.85
 30
0.0
 11
690.032501379
 21
591.15
 31
0.0
  0
LINE
  8
0
  6
LTYPE1
 62
     2
 10
695.732501379
 20
574.2
 30
0.0
 11
684.332501379
 21
574.2
 31
0.0
  0
LINE
  8
0
  6
CONTINUOUS
 62
     2
 10
635.0
 20
602.0
 30
0.0
 11
645.714022707
 21
607.404601506
 31
0.0
  0
LINE
  8
0
  6
CONTINUOUS
 62
     2
 10
635.0
 20
602.0
 30
0.0
 11
646.980916594
 21
601.323510848
 31
0.0
  0
LINE
  8
0
  6
CONTINUOUS
 62
     2
 10
1097.0
 20
437.3625
 30
0.0
 11
1084.925927171
 21
440.597738064
 31
0.0
  0
LINE
  8
0
  6
CONTINUOUS
 62
     2
 10
1097.0
 20
437.3625
 30
0.0
 11
1084.925927171
 21
434.127261936
 31
0.0
  0
LINE
  8
0
  6
CONTINUOUS
 62
     2
 10
1097.0
 20
393.0
 30
0.0
 11
1084.925927171
 21
396.235238064
 31
0.0
  0
LINE
  8
0
  6
CONTINUOUS
 62
     2
 10
1097.0
 20
393.0
 30
0.0
 11
1084.925927171
 21
389.764761936
 31
0.0
  0
LINE
  8
0
  6
CONTINUOUS
 62
     2
 10
1097.0
 20
429.8625
 30
0.0
 11
1097.0
 21
385.5
 31
0.0
  0
LINE
  8
0
  6
CONTINUOUS
 62
     2
 10
1097.0
 20
661.375
 30
0.0
 11
1097.0
 21
429.8625
 31
0.0
  0
LINE
  8
0
  6
CONTINUOUS
 62
     1
 10
1106.482501379
 20
305.1
 30
0.0
 11
1106.482501379
 21
240.4
 31
0.0
  0
LINE
  8
0
  6
CONTINUOUS
 62
     1
 10
1108.482501379
 20
238.4
 30
0.0
 11
1144.482501379
 21
238.4
 31
0.0
  0
ARC
  8
0
  6
CONTINUOUS
 62
     1
 10
1108.482501379
 20
240.4
 30
0.0
 40
2.0
 50
180.0
 51
270.0
  0
LINE
  8
0
  6
CONTINUOUS
 62
     1
 10
1146.482501379
 20
305.1
 30
0.0
 11
1146.482501379
 21
240.4
 31
0.0
  0
ARC
  8
0
  6
CONTINUOUS
 62
     1
 10
1144.482501379
 20
240.4
 30
0.0
 40
2.0
 50
270.0
 51
0.0
  0
ARC
  8
0
  6
CONTINUOUS
 62
     1
 10
1108.482501379
 20
305.1
 30
0.0
 40
2.0
 50
90.0
 51
180.0
  0
LINE
  8
0
  6
CONTINUOUS
 62
     1
 10
1113.782501379
 20
330.5
 30
0.0
 11
1113.782501379
 21
307.1
 31
0.0
  0
LINE
  8
0
  6
CONTINUOUS
 62
     1
 10
1108.482501379
 20
307.1
 30
0.0
 11
1144.482501379
 21
307.1
 31
0.0
  0
ARC
  8
0
  6
CONTINUOUS
 62
     1
 10
1144.482501379
 20
305.1
 30
0.0
 40
2.0
 50
0.0
 51
90.0
  0
ARC
  8
0
  6
CONTINUOUS
 62
     1
 10
1115.782501379
 20
330.5
 30
0.0
 40
2.0
 50
90.0
 51
180.0
  0
ARC
  8
0
  6
CONTINUOUS
 62
     1
 10
1126.482501379
 20
316.8
 30
0.0
 40
6.0
 50
131.983045121
 51
318.016954879
  0
LINE
  8
0
  6
LTYPE3
 62
     2
 10
1120.047829671
 20
310.365328291
 30
0.0
 11
1160.706469589
 21
351.023968209
 31
0.0
  0
LINE
  8
0
  6
CONTINUOUS
 62
     1
 10
1122.469037879
 20
321.260057257
 30
0.0
 11
1150.676916731
 21
346.64342919
 31
0.0
  0
LINE
  8
0
  6
CONTINUOUS
 62
     1
 10
1130.942558636
 20
312.7865365
 30
0.0
 11
1156.325930569
 21
340.994415352
 31
0.0
  0
LINE
  8
0
  6
LTYPE3
 62
     2
 10
1161.130733658
 20
335.891883092
 30
0.0
 11
1144.86727769
 21
352.155339059
 31
0.0
  0
ARC
  8
0
  6
CONTINUOUS
 62
     1
 10
1153.352559064
 20
343.670057685
 30
0.0
 40
8.75
 50
255.219855722
 51
194.780144278
  0
ARC
  8
0
  6
CONTINUOUS
 62
     1
 10
1153.352559064
 20
343.670057685
 30
0.0
 40
4.0
 50
311.983042101
 51
138.016952287
  0
LINE
  8
0
  6
CONTINUOUS
 62
     1
 10
1139.182501379
 20
321.94336985
 30
0.0
 11
1139.182501379
 21
307.1
 31
0.0
  0
LINE
  8
0
  6
CONTINUOUS
 62
     1
 10
1115.782501379
 20
332.5
 30
0.0
 11
1134.959692944
 21
332.5
 31
0.0
  0
LINE
  8
0
  6
LTYPE2
 62
     2
 10
1111.607501379
 20
283.6
 30
0.0
 11
1141.607501379
 21
283.6
 31
0.0
  0
LINE
  8
0
  6
LTYPE2
 62
     2
 10
1141.607501379
 20
283.6
 30
0.0
 11
1141.607501379
 21
293.1
 31
0.0
  0
LINE
  8
0
  6
LTYPE2
 62
     2
 10
1141.607501379
 20
293.1
 30
0.0
 11
1111.607501379
 21
293.1
 31
0.0
  0
LINE
  8
0
  6
LTYPE2
 62
     2
 10
1111.607501379
 20
293.1
 30
0.0
 11
1111.607501379
 21
283.6
 31
0.0
  0
LINE
  8
0
  6
CONTINUOUS
 62
     1
 10
1111.607501379
 20
253.6
 30
0.0
 11
1141.607501379
 21
253.6
 31
0.0
  0
LINE
  8
0
  6
CONTINUOUS
 62
     1
 10
1141.607501379
 20
253.6
 30
0.0
 11
1141.607501379
 21
263.1
 31
0.0
  0
LINE
  8
0
  6
CONTINUOUS
 62
     1
 10
1141.607501379
 20
263.1
 30
0.0
 11
1111.607501379
 21
263.1
 31
0.0
  0
LINE
  8
0
  6
CONTINUOUS
 62
     1
 10
1111.607501379
 20
263.1
 30
0.0
 11
1111.607501379
 21
253.6
 31
0.0
  0
TEXT
  8
0
  6
CONTINUOUS
 62
     2
 10
1110.382501379
 20
296.4
 30
0.0
 40
10.0
  1
４
 50
0.0
 41
0.85
 51
0.0
  7
KANJI39
  0
TEXT
  8
0
  6
CONTINUOUS
 62
     2
 10
1135.382501379
 20
296.4
 30
0.0
 40
10.0
  1
３
 50
0.0
 41
0.85
 51
0.0
  7
KANJI39
  0
POLYLINE
  8
0
  6
CONTINUOUS
 62
     2
 66
     1
 70
     1
  0
VERTEX
  8
0
  6
CONTINUOUS
 62
     2
 10
1121.382501379
 20
295.65
 30
0.0
 42
0.021820078
  0
VERTEX
  8
0
  6
CONTINUOUS
 62
     2
 10
1121.37393945
 20
295.846100421
 30
0.0
 42
0.021820078
  0
VERTEX
  8
0
  6
CONTINUOUS
 62
     2
 10
1121.348318824
 20
296.0407084
 30
0.0
 42
0.021820078
  0
VERTEX
  8
0
  6
CONTINUOUS
 62
     2
 10
1121.305834489
 20
296.232342851
 30
0.0
 42
0.021820078
  0
VERTEX
  8
0
  6
CONTINUOUS
 62
     2
 10
1121.246809776
 20
296.419545322
 30
0.0
 42
0.021820078
  0
VERTEX
  8
0
  6
CONTINUOUS
 62
     2
 10
1121.1716939
 20
296.600891089
 30
0.0
 42
0.021820078
  0
VERTEX
  8
0
  6
CONTINUOUS
 62
     2
 10
1121.081058538
 20
296.775
 30
0.0
 42
0.021820078
  0
VERTEX
  8
0
  6
CONTINUOUS
 62
     2
 10
1120.975593479
 20
296.940546982
 30
0.0
 42
0.021820078
  0
VERTEX
  8
0
  6
CONTINUOUS
 62
     2
 10
1120.856101376
 20
297.096272122
 30
0.0
 42
0.021820078
  0
VERTEX
  8
0
  6
CONTINUOUS
 62
     2
 10
1120.723491637
 20
297.240990258
 30
0.0
 42
0.021820078
  0
VERTEX
  8
0
  6
CONTINUOUS
 62
     2
 10
1120.578773501
 20
297.373599997
 30
0.0
 42
0.021820078
  0
VERTEX
  8
0
  6
CONTINUOUS
 62
     2
 10
1120.423048361
 20
297.4930921
 30
0.0
 42
0.021820078
  0
VERTEX
  8
0
  6
CONTINUOUS
 62
     2
 10
1120.257501379
 20
297.598557159
 30
0.0
 42
0.021820078
  0
VERTEX
  8
0
  6
CONTINUOUS
 62
     2
 10
1120.083392468
 20
297.689192521
 30
0.0
 42
0.021820078
  0
VERTEX
  8
0
  6
CONTINUOUS
 62
     2
 10
1119.902046702
 20
297.764308397
 30
0.0
 42
0.021820078
  0
VERTEX
  8
0
  6
CONTINUOUS
 62
     2
 10
1119.714844231
 20
297.823333109
 30
0.0
 42
0.021820078
  0
VERTEX
  8
0
  6
CONTINUOUS
 62
     2
 10
1119.523209779
 20
297.865817444
 30
0.0
 42
0.021820078
  0
VERTEX
  8
0
  6
CONTINUOUS
 62
     2
 10
1119.328601801
 20
297.891438071
 30
0.0
 42
0.021820078
  0
VERTEX
  8
0
  6
CONTINUOUS
 62
     2
 10
1119.132501379
 20
297.9
 30
0.0
 42
0.021820078
  0
VERTEX
  8
0
  6
CONTINUOUS
 62
     2
 10
1118.936400958
 20
297.891438071
 30
0.0
 42
0.021820078
  0
VERTEX
  8
0
  6
CONTINUOUS
 62
     2
 10
1118.74179298
 20
297.865817444
 30
0.0
 42
0.021820078
  0
VERTEX
  8
0
  6
CONTINUOUS
 62
     2
 10
1118.550158528
 20
297.823333109
 30
0.0
 42
0.021820078
  0
VERTEX
  8
0
  6
CONTINUOUS
 62
     2
 10
1118.362956057
 20
297.764308397
 30
0.0
 42
0.021820078
  0
VERTEX
  8
0
  6
CONTINUOUS
 62
     2
 10
1118.18161029
 20
297.689192521
 30
0.0
 42
0.021820078
  0
VERTEX
  8
0
  6
CONTINUOUS
 62
     2
 10
1118.007501379
 20
297.598557159
 30
0.0
 42
0.021820078
  0
VERTEX
  8
0
  6
CONTINUOUS
 62
     2
 10
1117.841954398
 20
297.4930921
 30
0.0
 42
0.021820078
  0
VERTEX
  8
0
  6
CONTINUOUS
 62
     2
 10
1117.686229258
 20
297.373599997
 30
0.0
 42
0.021820078
  0
VERTEX
  8
0
  6
CONTINUOUS
 62
     2
 10
1117.541511122
 20
297.240990258
 30
0.0
 42
0.021820078
  0
VERTEX
  8
0
  6
CONTINUOUS
 62
     2
 10
1117.408901382
 20
297.096272122
 30
0.0
 42
0.021820078
  0
VERTEX
  8
0
  6
CONTINUOUS
 62
     2
 10
1117.28940928
 20
296.940546982
 30
0.0
 42
0.021820078
  0
VERTEX
  8
0
  6
CONTINUOUS
 62
     2
 10
1117.183944221
 20
296.775
 30
0.0
 42
0.021820078
  0
VERTEX
  8
0
  6
CONTINUOUS
 62
     2
 10
1117.093308859
 20
296.600891089
 30
0.0
 42
0.021820078
  0
VERTEX
  8
0
  6
CONTINUOUS
 62
     2
 10
1117.018192983
 20
296.419545322
 30
0.0
 42
0.021820078
  0
VERTEX
  8
0
  6
CONTINUOUS
 62
     2
 10
1116.95916827
 20
296.232342851
 30
0.0
 42
0.021820078
  0
VERTEX
  8
0
  6
CONTINUOUS
 62
     2
 10
1116.916683935
 20
296.0407084
 30
0.0
 42
0.021820078
  0
VERTEX
  8
0
  6
CONTINUOUS
 62
     2
 10
1116.891063309
 20
295.846100421
 30
0.0
 42
0.021820078
  0
VERTEX
  8
0
  6
CONTINUOUS
 62
     2
 10
1116.882501379
 20
295.65
 30
0.0
 42
0.021820078
  0
VERTEX
  8
0
  6
CONTINUOUS
 62
     2
 10
1116.891063309
 20
295.453899579
 30
0.0
 42
0.021820078
  0
VERTEX
  8
0
  6
CONTINUOUS
 62
     2
 10
1116.916683935
 20
295.2592916
 30
0.0
 42
0.021820078
  0
VERTEX
  8
0
  6
CONTINUOUS
 62
     2
 10
1116.95916827
 20
295.067657149
 30
0.0
 42
0.021820078
  0
VERTEX
  8
0
  6
CONTINUOUS
 62
     2
 10
1117.018192983
 20
294.880454678
 30
0.0
 42
0.021820078
  0
VERTEX
  8
0
  6
CONTINUOUS
 62
     2
 10
1117.093308859
 20
294.699108911
 30
0.0
 42
0.021820078
  0
VERTEX
  8
0
  6
CONTINUOUS
 62
     2
 10
1117.183944221
 20
294.525
 30
0.0
 42
0.021820078
  0
VERTEX
  8
0
  6
CONTINUOUS
 62
     2
 10
1117.28940928
 20
294.359453018
 30
0.0
 42
0.021820078
  0
VERTEX
  8
0
  6
CONTINUOUS
 62
     2
 10
1117.408901382
 20
294.203727878
 30
0.0
 42
0.021820078
  0
VERTEX
  8
0
  6
CONTINUOUS
 62
     2
 10
1117.541511122
 20
294.059009742
 30
0.0
 42
0.021820078
  0
VERTEX
  8
0
  6
CONTINUOUS
 62
     2
 10
1117.686229258
 20
293.926400003
 30
0.0
 42
0.021820078
  0
VERTEX
  8
0
  6
CONTINUOUS
 62
     2
 10
1117.841954398
 20
293.8069079
 30
0.0
 42
0.021820078
  0
VERTEX
  8
0
  6
CONTINUOUS
 62
     2
 10
1118.007501379
 20
293.701442841
 30
0.0
 42
0.021820078
  0
VERTEX
  8
0
  6
CONTINUOUS
 62
     2
 10
1118.18161029
 20
293.610807479
 30
0.0
 42
0.021820078
  0
VERTEX
  8
0
  6
CONTINUOUS
 62
     2
 10
1118.362956057
 20
293.535691603
 30
0.0
 42
0.021820078
  0
VERTEX
  8
0
  6
CONTINUOUS
 62
     2
 10
1118.550158528
 20
293.476666891
 30
0.0
 42
0.021820078
  0
VERTEX
  8
0
  6
CONTINUOUS
 62
     2
 10
1118.74179298
 20
293.434182556
 30
0.0
 42
0.021820078
  0
VERTEX
  8
0
  6
CONTINUOUS
 62
     2
 10
1118.936400958
 20
293.408561929
 30
0.0
 42
0.021820078
  0
VERTEX
  8
0
  6
CONTINUOUS
 62
     2
 10
1119.132501379
 20
293.4
 30
0.0
 42
0.021820078
  0
VERTEX
  8
0
  6
CONTINUOUS
 62
     2
 10
1119.328601801
 20
293.408561929
 30
0.0
 42
0.021820078
  0
VERTEX
  8
0
  6
CONTINUOUS
 62
     2
 10
1119.523209779
 20
293.434182556
 30
0.0
 42
0.021820078
  0
VERTEX
  8
0
  6
CONTINUOUS
 62
     2
 10
1119.714844231
 20
293.476666891
 30
0.0
 42
0.021820078
  0
VERTEX
  8
0
  6
CONTINUOUS
 62
     2
 10
1119.902046702
 20
293.535691603
 30
0.0
 42
0.021820078
  0
VERTEX
  8
0
  6
CONTINUOUS
 62
     2
 10
1120.083392468
 20
293.610807479
 30
0.0
 42
0.021820078
  0
VERTEX
  8
0
  6
CONTINUOUS
 62
     2
 10
1120.257501379
 20
293.701442841
 30
0.0
 42
0.021820078
  0
VERTEX
  8
0
  6
CONTINUOUS
 62
     2
 10
1120.423048361
 20
293.8069079
 30
0.0
 42
0.021820078
  0
VERTEX
  8
0
  6
CONTINUOUS
 62
     2
 10
1120.578773501
 20
293.926400003
 30
0.0
 42
0.021820078
  0
VERTEX
  8
0
  6
CONTINUOUS
 62
     2
 10
1120.723491637
 20
294.059009742
 30
0.0
 42
0.021820078
  0
VERTEX
  8
0
  6
CONTINUOUS
 62
     2
 10
1120.856101376
 20
294.203727878
 30
0.0
 42
0.021820078
  0
VERTEX
  8
0
  6
CONTINUOUS
 62
     2
 10
1120.975593479
 20
294.359453018
 30
0.0
 42
0.021820078
  0
VERTEX
  8
0
  6
CONTINUOUS
 62
     2
 10
1121.081058538
 20
294.525
 30
0.0
 42
0.021820078
  0
VERTEX
  8
0
  6
CONTINUOUS
 62
     2
 10
1121.1716939
 20
294.699108911
 30
0.0
 42
0.021820078
  0
VERTEX
  8
0
  6
CONTINUOUS
 62
     2
 10
1121.246809776
 20
294.880454678
 30
0.0
 42
0.021820078
  0
VERTEX
  8
0
  6
CONTINUOUS
 62
     2
 10
1121.305834489
 20
295.067657149
 30
0.0
 42
0.021820078
  0
VERTEX
  8
0
  6
CONTINUOUS
 62
     2
 10
1121.348318824
 20
295.2592916
 30
0.0
 42
0.021820078
  0
VERTEX
  8
0
  6
CONTINUOUS
 62
     2
 10
1121.37393945
 20
295.453899579
 30
0.0
 42
0.021820078
  0
SEQEND
  8
0
  6
CONTINUOUS
 62
     2
  0
POLYLINE
  8
0
  6
CONTINUOUS
 62
     2
 66
     1
 70
     1
  0
VERTEX
  8
0
  6
CONTINUOUS
 62
     2
 10
1136.382501379
 20
295.65
 30
0.0
 42
0.021820078
  0
VERTEX
  8
0
  6
CONTINUOUS
 62
     2
 10
1136.37393945
 20
295.846100421
 30
0.0
 42
0.021820078
  0
VERTEX
  8
0
  6
CONTINUOUS
 62
     2
 10
1136.348318824
 20
296.0407084
 30
0.0
 42
0.021820078
  0
VERTEX
  8
0
  6
CONTINUOUS
 62
     2
 10
1136.305834489
 20
296.232342851
 30
0.0
 42
0.021820078
  0
VERTEX
  8
0
  6
CONTINUOUS
 62
     2
 10
1136.246809776
 20
296.419545322
 30
0.0
 42
0.021820078
  0
VERTEX
  8
0
  6
CONTINUOUS
 62
     2
 10
1136.1716939
 20
296.600891089
 30
0.0
 42
0.021820078
  0
VERTEX
  8
0
  6
CONTINUOUS
 62
     2
 10
1136.081058538
 20
296.775
 30
0.0
 42
0.021820078
  0
VERTEX
  8
0
  6
CONTINUOUS
 62
     2
 10
1135.975593479
 20
296.940546982
 30
0.0
 42
0.021820078
  0
VERTEX
  8
0
  6
CONTINUOUS
 62
     2
 10
1135.856101376
 20
297.096272122
 30
0.0
 42
0.021820078
  0
VERTEX
  8
0
  6
CONTINUOUS
 62
     2
 10
1135.723491637
 20
297.240990258
 30
0.0
 42
0.021820078
  0
VERTEX
  8
0
  6
CONTINUOUS
 62
     2
 10
1135.578773501
 20
297.373599997
 30
0.0
 42
0.021820078
  0
VERTEX
  8
0
  6
CONTINUOUS
 62
     2
 10
1135.423048361
 20
297.4930921
 30
0.0
 42
0.021820078
  0
VERTEX
  8
0
  6
CONTINUOUS
 62
     2
 10
1135.257501379
 20
297.598557159
 30
0.0
 42
0.021820078
  0
VERTEX
  8
0
  6
CONTINUOUS
 62
     2
 10
1135.083392468
 20
297.689192521
 30
0.0
 42
0.021820078
  0
VERTEX
  8
0
  6
CONTINUOUS
 62
     2
 10
1134.902046702
 20
297.764308397
 30
0.0
 42
0.021820078
  0
VERTEX
  8
0
  6
CONTINUOUS
 62
     2
 10
1134.714844231
 20
297.823333109
 30
0.0
 42
0.021820078
  0
VERTEX
  8
0
  6
CONTINUOUS
 62
     2
 10
1134.523209779
 20
297.865817444
 30
0.0
 42
0.021820078
  0
VERTEX
  8
0
  6
CONTINUOUS
 62
     2
 10
1134.328601801
 20
297.891438071
 30
0.0
 42
0.021820078
  0
VERTEX
  8
0
  6
CONTINUOUS
 62
     2
 10
1134.132501379
 20
297.9
 30
0.0
 42
0.021820078
  0
VERTEX
  8
0
  6
CONTINUOUS
 62
     2
 10
1133.936400958
 20
297.891438071
 30
0.0
 42
0.021820078
  0
VERTEX
  8
0
  6
CONTINUOUS
 62
     2
 10
1133.74179298
 20
297.865817444
 30
0.0
 42
0.021820078
  0
VERTEX
  8
0
  6
CONTINUOUS
 62
     2
 10
1133.550158528
 20
297.823333109
 30
0.0
 42
0.021820078
  0
VERTEX
  8
0
  6
CONTINUOUS
 62
     2
 10
1133.362956057
 20
297.764308397
 30
0.0
 42
0.021820078
  0
VERTEX
  8
0
  6
CONTINUOUS
 62
     2
 10
1133.18161029
 20
297.689192521
 30
0.0
 42
0.021820078
  0
VERTEX
  8
0
  6
CONTINUOUS
 62
     2
 10
1133.007501379
 20
297.598557159
 30
0.0
 42
0.021820078
  0
VERTEX
  8
0
  6
CONTINUOUS
 62
     2
 10
1132.841954398
 20
297.4930921
 30
0.0
 42
0.021820078
  0
VERTEX
  8
0
  6
CONTINUOUS
 62
     2
 10
1132.686229258
 20
297.373599997
 30
0.0
 42
0.021820078
  0
VERTEX
  8
0
  6
CONTINUOUS
 62
     2
 10
1132.541511122
 20
297.240990258
 30
0.0
 42
0.021820078
  0
VERTEX
  8
0
  6
CONTINUOUS
 62
     2
 10
1132.408901382
 20
297.096272122
 30
0.0
 42
0.021820078
  0
VERTEX
  8
0
  6
CONTINUOUS
 62
     2
 10
1132.28940928
 20
296.940546982
 30
0.0
 42
0.021820078
  0
VERTEX
  8
0
  6
CONTINUOUS
 62
     2
 10
1132.183944221
 20
296.775
 30
0.0
 42
0.021820078
  0
VERTEX
  8
0
  6
CONTINUOUS
 62
     2
 10
1132.093308859
 20
296.600891089
 30
0.0
 42
0.021820078
  0
VERTEX
  8
0
  6
CONTINUOUS
 62
     2
 10
1132.018192983
 20
296.419545322
 30
0.0
 42
0.021820078
  0
VERTEX
  8
0
  6
CONTINUOUS
 62
     2
 10
1131.95916827
 20
296.232342851
 30
0.0
 42
0.021820078
  0
VERTEX
  8
0
  6
CONTINUOUS
 62
     2
 10
1131.916683935
 20
296.0407084
 30
0.0
 42
0.021820078
  0
VERTEX
  8
0
  6
CONTINUOUS
 62
     2
 10
1131.891063309
 20
295.846100421
 30
0.0
 42
0.021820078
  0
VERTEX
  8
0
  6
CONTINUOUS
 62
     2
 10
1131.882501379
 20
295.65
 30
0.0
 42
0.021820078
  0
VERTEX
  8
0
  6
CONTINUOUS
 62
     2
 10
1131.891063309
 20
295.453899579
 30
0.0
 42
0.021820078
  0
VERTEX
  8
0
  6
CONTINUOUS
 62
     2
 10
1131.916683935
 20
295.2592916
 30
0.0
 42
0.021820078
  0
VERTEX
  8
0
  6
CONTINUOUS
 62
     2
 10
1131.95916827
 20
295.067657149
 30
0.0
 42
0.021820078
  0
VERTEX
  8
0
  6
CONTINUOUS
 62
     2
 10
1132.018192983
 20
294.880454678
 30
0.0
 42
0.021820078
  0
VERTEX
  8
0
  6
CONTINUOUS
 62
     2
 10
1132.093308859
 20
294.699108911
 30
0.0
 42
0.021820078
  0
VERTEX
  8
0
  6
CONTINUOUS
 62
     2
 10
1132.183944221
 20
294.525
 30
0.0
 42
0.021820078
  0
VERTEX
  8
0
  6
CONTINUOUS
 62
     2
 10
1132.28940928
 20
294.359453018
 30
0.0
 42
0.021820078
  0
VERTEX
  8
0
  6
CONTINUOUS
 62
     2
 10
1132.408901382
 20
294.203727878
 30
0.0
 42
0.021820078
  0
VERTEX
  8
0
  6
CONTINUOUS
 62
     2
 10
1132.541511122
 20
294.059009742
 30
0.0
 42
0.021820078
  0
VERTEX
  8
0
  6
CONTINUOUS
 62
     2
 10
1132.686229258
 20
293.926400003
 30
0.0
 42
0.021820078
  0
VERTEX
  8
0
  6
CONTINUOUS
 62
     2
 10
1132.841954398
 20
293.8069079
 30
0.0
 42
0.021820078
  0
VERTEX
  8
0
  6
CONTINUOUS
 62
     2
 10
1133.007501379
 20
293.701442841
 30
0.0
 42
0.021820078
  0
VERTEX
  8
0
  6
CONTINUOUS
 62
     2
 10
1133.18161029
 20
293.610807479
 30
0.0
 42
0.021820078
  0
VERTEX
  8
0
  6
CONTINUOUS
 62
     2
 10
1133.362956057
 20
293.535691603
 30
0.0
 42
0.021820078
  0
VERTEX
  8
0
  6
CONTINUOUS
 62
     2
 10
1133.550158528
 20
293.476666891
 30
0.0
 42
0.021820078
  0
VERTEX
  8
0
  6
CONTINUOUS
 62
     2
 10
1133.74179298
 20
293.434182556
 30
0.0
 42
0.021820078
  0
VERTEX
  8
0
  6
CONTINUOUS
 62
     2
 10
1133.936400958
 20
293.408561929
 30
0.0
 42
0.021820078
  0
VERTEX
  8
0
  6
CONTINUOUS
 62
     2
 10
1134.132501379
 20
293.4
 30
0.0
 42
0.021820078
  0
VERTEX
  8
0
  6
CONTINUOUS
 62
     2
 10
1134.328601801
 20
293.408561929
 30
0.0
 42
0.021820078
  0
VERTEX
  8
0
  6
CONTINUOUS
 62
     2
 10
1134.523209779
 20
293.434182556
 30
0.0
 42
0.021820078
  0
VERTEX
  8
0
  6
CONTINUOUS
 62
     2
 10
1134.714844231
 20
293.476666891
 30
0.0
 42
0.021820078
  0
VERTEX
  8
0
  6
CONTINUOUS
 62
     2
 10
1134.902046702
 20
293.535691603
 30
0.0
 42
0.021820078
  0
VERTEX
  8
0
  6
CONTINUOUS
 62
     2
 10
1135.083392468
 20
293.610807479
 30
0.0
 42
0.021820078
  0
VERTEX
  8
0
  6
CONTINUOUS
 62
     2
 10
1135.257501379
 20
293.701442841
 30
0.0
 42
0.021820078
  0
VERTEX
  8
0
  6
CONTINUOUS
 62
     2
 10
1135.423048361
 20
293.8069079
 30
0.0
 42
0.021820078
  0
VERTEX
  8
0
  6
CONTINUOUS
 62
     2
 10
1135.578773501
 20
293.926400003
 30
0.0
 42
0.021820078
  0
VERTEX
  8
0
  6
CONTINUOUS
 62
     2
 10
1135.723491637
 20
294.059009742
 30
0.0
 42
0.021820078
  0
VERTEX
  8
0
  6
CONTINUOUS
 62
     2
 10
1135.856101376
 20
294.203727878
 30
0.0
 42
0.021820078
  0
VERTEX
  8
0
  6
CONTINUOUS
 62
     2
 10
1135.975593479
 20
294.359453018
 30
0.0
 42
0.021820078
  0
VERTEX
  8
0
  6
CONTINUOUS
 62
     2
 10
1136.081058538
 20
294.525
 30
0.0
 42
0.021820078
  0
VERTEX
  8
0
  6
CONTINUOUS
 62
     2
 10
1136.1716939
 20
294.699108911
 30
0.0
 42
0.021820078
  0
VERTEX
  8
0
  6
CONTINUOUS
 62
     2
 10
1136.246809776
 20
294.880454678
 30
0.0
 42
0.021820078
  0
VERTEX
  8
0
  6
CONTINUOUS
 62
     2
 10
1136.305834489
 20
295.067657149
 30
0.0
 42
0.021820078
  0
VERTEX
  8
0
  6
CONTINUOUS
 62
     2
 10
1136.348318824
 20
295.2592916
 30
0.0
 42
0.021820078
  0
VERTEX
  8
0
  6
CONTINUOUS
 62
     2
 10
1136.37393945
 20
295.453899579
 30
0.0
 42
0.021820078
  0
SEQEND
  8
0
  6
CONTINUOUS
 62
     2
  0
POLYLINE
  8
0
  6
CONTINUOUS
 62
     2
 66
     1
 70
     1
  0
VERTEX
  8
0
  6
CONTINUOUS
 62
     2
 10
1121.382501379
 20
251.3
 30
0.0
 42
-0.021820078
  0
VERTEX
  8
0
  6
CONTINUOUS
 62
     2
 10
1121.37393945
 20
251.103899579
 30
0.0
 42
-0.021820078
  0
VERTEX
  8
0
  6
CONTINUOUS
 62
     2
 10
1121.348318824
 20
250.9092916
 30
0.0
 42
-0.021820078
  0
VERTEX
  8
0
  6
CONTINUOUS
 62
     2
 10
1121.305834489
 20
250.717657149
 30
0.0
 42
-0.021820078
  0
VERTEX
  8
0
  6
CONTINUOUS
 62
     2
 10
1121.246809776
 20
250.530454678
 30
0.0
 42
-0.021820078
  0
VERTEX
  8
0
  6
CONTINUOUS
 62
     2
 10
1121.1716939
 20
250.349108911
 30
0.0
 42
-0.021820078
  0
VERTEX
  8
0
  6
CONTINUOUS
 62
     2
 10
1121.081058538
 20
250.175
 30
0.0
 42
-0.021820078
  0
VERTEX
  8
0
  6
CONTINUOUS
 62
     2
 10
1120.975593479
 20
250.009453018
 30
0.0
 42
-0.021820078
  0
VERTEX
  8
0
  6
CONTINUOUS
 62
     2
 10
1120.856101376
 20
249.853727878
 30
0.0
 42
-0.021820078
  0
VERTEX
  8
0
  6
CONTINUOUS
 62
     2
 10
1120.723491637
 20
249.709009742
 30
0.0
 42
-0.021820078
  0
VERTEX
  8
0
  6
CONTINUOUS
 62
     2
 10
1120.578773501
 20
249.576400003
 30
0.0
 42
-0.021820078
  0
VERTEX
  8
0
  6
CONTINUOUS
 62
     2
 10
1120.423048361
 20
249.4569079
 30
0.0
 42
-0.021820078
  0
VERTEX
  8
0
  6
CONTINUOUS
 62
     2
 10
1120.257501379
 20
249.351442841
 30
0.0
 42
-0.021820078
  0
VERTEX
  8
0
  6
CONTINUOUS
 62
     2
 10
1120.083392468
 20
249.260807479
 30
0.0
 42
-0.021820078
  0
VERTEX
  8
0
  6
CONTINUOUS
 62
     2
 10
1119.902046702
 20
249.185691603
 30
0.0
 42
-0.021820078
  0
VERTEX
  8
0
  6
CONTINUOUS
 62
     2
 10
1119.714844231
 20
249.126666891
 30
0.0
 42
-0.021820078
  0
VERTEX
  8
0
  6
CONTINUOUS
 62
     2
 10
1119.523209779
 20
249.084182556
 30
0.0
 42
-0.021820078
  0
VERTEX
  8
0
  6
CONTINUOUS
 62
     2
 10
1119.328601801
 20
249.058561929
 30
0.0
 42
-0.021820078
  0
VERTEX
  8
0
  6
CONTINUOUS
 62
     2
 10
1119.132501379
 20
249.05
 30
0.0
 42
-0.021820078
  0
VERTEX
  8
0
  6
CONTINUOUS
 62
     2
 10
1118.936400958
 20
249.058561929
 30
0.0
 42
-0.021820078
  0
VERTEX
  8
0
  6
CONTINUOUS
 62
     2
 10
1118.74179298
 20
249.084182556
 30
0.0
 42
-0.021820078
  0
VERTEX
  8
0
  6
CONTINUOUS
 62
     2
 10
1118.550158528
 20
249.126666891
 30
0.0
 42
-0.021820078
  0
VERTEX
  8
0
  6
CONTINUOUS
 62
     2
 10
1118.362956057
 20
249.185691603
 30
0.0
 42
-0.021820078
  0
VERTEX
  8
0
  6
CONTINUOUS
 62
     2
 10
1118.18161029
 20
249.260807479
 30
0.0
 42
-0.021820078
  0
VERTEX
  8
0
  6
CONTINUOUS
 62
     2
 10
1118.007501379
 20
249.351442841
 30
0.0
 42
-0.021820078
  0
VERTEX
  8
0
  6
CONTINUOUS
 62
     2
 10
1117.841954398
 20
249.4569079
 30
0.0
 42
-0.021820078
  0
VERTEX
  8
0
  6
CONTINUOUS
 62
     2
 10
1117.686229258
 20
249.576400003
 30
0.0
 42
-0.021820078
  0
VERTEX
  8
0
  6
CONTINUOUS
 62
     2
 10
1117.541511122
 20
249.709009742
 30
0.0
 42
-0.021820078
  0
VERTEX
  8
0
  6
CONTINUOUS
 62
     2
 10
1117.408901382
 20
249.853727878
 30
0.0
 42
-0.021820078
  0
VERTEX
  8
0
  6
CONTINUOUS
 62
     2
 10
1117.28940928
 20
250.009453018
 30
0.0
 42
-0.021820078
  0
VERTEX
  8
0
  6
CONTINUOUS
 62
     2
 10
1117.183944221
 20
250.175
 30
0.0
 42
-0.021820078
  0
VERTEX
  8
0
  6
CONTINUOUS
 62
     2
 10
1117.093308859
 20
250.349108911
 30
0.0
 42
-0.021820078
  0
VERTEX
  8
0
  6
CONTINUOUS
 62
     2
 10
1117.018192983
 20
250.530454678
 30
0.0
 42
-0.021820078
  0
VERTEX
  8
0
  6
CONTINUOUS
 62
     2
 10
1116.95916827
 20
250.717657149
 30
0.0
 42
-0.021820078
  0
VERTEX
  8
0
  6
CONTINUOUS
 62
     2
 10
1116.916683935
 20
250.9092916
 30
0.0
 42
-0.021820078
  0
VERTEX
  8
0
  6
CONTINUOUS
 62
     2
 10
1116.891063309
 20
251.103899579
 30
0.0
 42
-0.021820078
  0
VERTEX
  8
0
  6
CONTINUOUS
 62
     2
 10
1116.882501379
 20
251.3
 30
0.0
 42
-0.021820078
  0
VERTEX
  8
0
  6
CONTINUOUS
 62
     2
 10
1116.891063309
 20
251.496100421
 30
0.0
 42
-0.021820078
  0
VERTEX
  8
0
  6
CONTINUOUS
 62
     2
 10
1116.916683935
 20
251.6907084
 30
0.0
 42
-0.021820078
  0
VERTEX
  8
0
  6
CONTINUOUS
 62
     2
 10
1116.95916827
 20
251.882342851
 30
0.0
 42
-0.021820078
  0
VERTEX
  8
0
  6
CONTINUOUS
 62
     2
 10
1117.018192983
 20
252.069545322
 30
0.0
 42
-0.021820078
  0
VERTEX
  8
0
  6
CONTINUOUS
 62
     2
 10
1117.093308859
 20
252.250891089
 30
0.0
 42
-0.021820078
  0
VERTEX
  8
0
  6
CONTINUOUS
 62
     2
 10
1117.183944221
 20
252.425
 30
0.0
 42
-0.021820078
  0
VERTEX
  8
0
  6
CONTINUOUS
 62
     2
 10
1117.28940928
 20
252.590546982
 30
0.0
 42
-0.021820078
  0
VERTEX
  8
0
  6
CONTINUOUS
 62
     2
 10
1117.408901382
 20
252.746272122
 30
0.0
 42
-0.021820078
  0
VERTEX
  8
0
  6
CONTINUOUS
 62
     2
 10
1117.541511122
 20
252.890990258
 30
0.0
 42
-0.021820078
  0
VERTEX
  8
0
  6
CONTINUOUS
 62
     2
 10
1117.686229258
 20
253.023599997
 30
0.0
 42
-0.021820078
  0
VERTEX
  8
0
  6
CONTINUOUS
 62
     2
 10
1117.841954398
 20
253.1430921
 30
0.0
 42
-0.021820078
  0
VERTEX
  8
0
  6
CONTINUOUS
 62
     2
 10
1118.007501379
 20
253.248557159
 30
0.0
 42
-0.021820078
  0
VERTEX
  8
0
  6
CONTINUOUS
 62
     2
 10
1118.18161029
 20
253.339192521
 30
0.0
 42
-0.021820078
  0
VERTEX
  8
0
  6
CONTINUOUS
 62
     2
 10
1118.362956057
 20
253.414308397
 30
0.0
 42
-0.021820078
  0
VERTEX
  8
0
  6
CONTINUOUS
 62
     2
 10
1118.550158528
 20
253.473333109
 30
0.0
 42
-0.021820078
  0
VERTEX
  8
0
  6
CONTINUOUS
 62
     2
 10
1118.74179298
 20
253.515817444
 30
0.0
 42
-0.021820078
  0
VERTEX
  8
0
  6
CONTINUOUS
 62
     2
 10
1118.936400958
 20
253.541438071
 30
0.0
 42
-0.021820078
  0
VERTEX
  8
0
  6
CONTINUOUS
 62
     2
 10
1119.132501379
 20
253.55
 30
0.0
 42
-0.021820078
  0
VERTEX
  8
0
  6
CONTINUOUS
 62
     2
 10
1119.328601801
 20
253.541438071
 30
0.0
 42
-0.021820078
  0
VERTEX
  8
0
  6
CONTINUOUS
 62
     2
 10
1119.523209779
 20
253.515817444
 30
0.0
 42
-0.021820078
  0
VERTEX
  8
0
  6
CONTINUOUS
 62
     2
 10
1119.714844231
 20
253.473333109
 30
0.0
 42
-0.021820078
  0
VERTEX
  8
0
  6
CONTINUOUS
 62
     2
 10
1119.902046702
 20
253.414308397
 30
0.0
 42
-0.021820078
  0
VERTEX
  8
0
  6
CONTINUOUS
 62
     2
 10
1120.083392468
 20
253.339192521
 30
0.0
 42
-0.021820078
  0
VERTEX
  8
0
  6
CONTINUOUS
 62
     2
 10
1120.257501379
 20
253.248557159
 30
0.0
 42
-0.021820078
  0
VERTEX
  8
0
  6
CONTINUOUS
 62
     2
 10
1120.423048361
 20
253.1430921
 30
0.0
 42
-0.021820078
  0
VERTEX
  8
0
  6
CONTINUOUS
 62
     2
 10
1120.578773501
 20
253.023599997
 30
0.0
 42
-0.021820078
  0
VERTEX
  8
0
  6
CONTINUOUS
 62
     2
 10
1120.723491637
 20
252.890990258
 30
0.0
 42
-0.021820078
  0
VERTEX
  8
0
  6
CONTINUOUS
 62
     2
 10
1120.856101376
 20
252.746272122
 30
0.0
 42
-0.021820078
  0
VERTEX
  8
0
  6
CONTINUOUS
 62
     2
 10
1120.975593479
 20
252.590546982
 30
0.0
 42
-0.021820078
  0
VERTEX
  8
0
  6
CONTINUOUS
 62
     2
 10
1121.081058538
 20
252.425
 30
0.0
 42
-0.021820078
  0
VERTEX
  8
0
  6
CONTINUOUS
 62
     2
 10
1121.1716939
 20
252.250891089
 30
0.0
 42
-0.021820078
  0
VERTEX
  8
0
  6
CONTINUOUS
 62
     2
 10
1121.246809776
 20
252.069545322
 30
0.0
 42
-0.021820078
  0
VERTEX
  8
0
  6
CONTINUOUS
 62
     2
 10
1121.305834489
 20
251.882342851
 30
0.0
 42
-0.021820078
  0
VERTEX
  8
0
  6
CONTINUOUS
 62
     2
 10
1121.348318824
 20
251.6907084
 30
0.0
 42
-0.021820078
  0
VERTEX
  8
0
  6
CONTINUOUS
 62
     2
 10
1121.37393945
 20
251.496100421
 30
0.0
 42
-0.021820078
  0
SEQEND
  8
0
  6
CONTINUOUS
 62
     2
  0
POLYLINE
  8
0
  6
CONTINUOUS
 62
     2
 66
     1
 70
     1
  0
VERTEX
  8
0
  6
CONTINUOUS
 62
     2
 10
1136.382501379
 20
251.3
 30
0.0
 42
-0.021820078
  0
VERTEX
  8
0
  6
CONTINUOUS
 62
     2
 10
1136.37393945
 20
251.103899579
 30
0.0
 42
-0.021820078
  0
VERTEX
  8
0
  6
CONTINUOUS
 62
     2
 10
1136.348318824
 20
250.9092916
 30
0.0
 42
-0.021820078
  0
VERTEX
  8
0
  6
CONTINUOUS
 62
     2
 10
1136.305834489
 20
250.717657149
 30
0.0
 42
-0.021820078
  0
VERTEX
  8
0
  6
CONTINUOUS
 62
     2
 10
1136.246809776
 20
250.530454678
 30
0.0
 42
-0.021820078
  0
VERTEX
  8
0
  6
CONTINUOUS
 62
     2
 10
1136.1716939
 20
250.349108911
 30
0.0
 42
-0.021820078
  0
VERTEX
  8
0
  6
CONTINUOUS
 62
     2
 10
1136.081058538
 20
250.175
 30
0.0
 42
-0.021820078
  0
VERTEX
  8
0
  6
CONTINUOUS
 62
     2
 10
1135.975593479
 20
250.009453018
 30
0.0
 42
-0.021820078
  0
VERTEX
  8
0
  6
CONTINUOUS
 62
     2
 10
1135.856101376
 20
249.853727878
 30
0.0
 42
-0.021820078
  0
VERTEX
  8
0
  6
CONTINUOUS
 62
     2
 10
1135.723491637
 20
249.709009742
 30
0.0
 42
-0.021820078
  0
VERTEX
  8
0
  6
CONTINUOUS
 62
     2
 10
1135.578773501
 20
249.576400003
 30
0.0
 42
-0.021820078
  0
VERTEX
  8
0
  6
CONTINUOUS
 62
     2
 10
1135.423048361
 20
249.4569079
 30
0.0
 42
-0.021820078
  0
VERTEX
  8
0
  6
CONTINUOUS
 62
     2
 10
1135.257501379
 20
249.351442841
 30
0.0
 42
-0.021820078
  0
VERTEX
  8
0
  6
CONTINUOUS
 62
     2
 10
1135.083392468
 20
249.260807479
 30
0.0
 42
-0.021820078
  0
VERTEX
  8
0
  6
CONTINUOUS
 62
     2
 10
1134.902046702
 20
249.185691603
 30
0.0
 42
-0.021820078
  0
VERTEX
  8
0
  6
CONTINUOUS
 62
     2
 10
1134.714844231
 20
249.126666891
 30
0.0
 42
-0.021820078
  0
VERTEX
  8
0
  6
CONTINUOUS
 62
     2
 10
1134.523209779
 20
249.084182556
 30
0.0
 42
-0.021820078
  0
VERTEX
  8
0
  6
CONTINUOUS
 62
     2
 10
1134.328601801
 20
249.058561929
 30
0.0
 42
-0.021820078
  0
VERTEX
  8
0
  6
CONTINUOUS
 62
     2
 10
1134.132501379
 20
249.05
 30
0.0
 42
-0.021820078
  0
VERTEX
  8
0
  6
CONTINUOUS
 62
     2
 10
1133.936400958
 20
249.058561929
 30
0.0
 42
-0.021820078
  0
VERTEX
  8
0
  6
CONTINUOUS
 62
     2
 10
1133.74179298
 20
249.084182556
 30
0.0
 42
-0.021820078
  0
VERTEX
  8
0
  6
CONTINUOUS
 62
     2
 10
1133.550158528
 20
249.126666891
 30
0.0
 42
-0.021820078
  0
VERTEX
  8
0
  6
CONTINUOUS
 62
     2
 10
1133.362956057
 20
249.185691603
 30
0.0
 42
-0.021820078
  0
VERTEX
  8
0
  6
CONTINUOUS
 62
     2
 10
1133.18161029
 20
249.260807479
 30
0.0
 42
-0.021820078
  0
VERTEX
  8
0
  6
CONTINUOUS
 62
     2
 10
1133.007501379
 20
249.351442841
 30
0.0
 42
-0.021820078
  0
VERTEX
  8
0
  6
CONTINUOUS
 62
     2
 10
1132.841954398
 20
249.4569079
 30
0.0
 42
-0.021820078
  0
VERTEX
  8
0
  6
CONTINUOUS
 62
     2
 10
1132.686229258
 20
249.576400003
 30
0.0
 42
-0.021820078
  0
VERTEX
  8
0
  6
CONTINUOUS
 62
     2
 10
1132.541511122
 20
249.709009742
 30
0.0
 42
-0.021820078
  0
VERTEX
  8
0
  6
CONTINUOUS
 62
     2
 10
1132.408901382
 20
249.853727878
 30
0.0
 42
-0.021820078
  0
VERTEX
  8
0
  6
CONTINUOUS
 62
     2
 10
1132.28940928
 20
250.009453018
 30
0.0
 42
-0.021820078
  0
VERTEX
  8
0
  6
CONTINUOUS
 62
     2
 10
1132.183944221
 20
250.175
 30
0.0
 42
-0.021820078
  0
VERTEX
  8
0
  6
CONTINUOUS
 62
     2
 10
1132.093308859
 20
250.349108911
 30
0.0
 42
-0.021820078
  0
VERTEX
  8
0
  6
CONTINUOUS
 62
     2
 10
1132.018192983
 20
250.530454678
 30
0.0
 42
-0.021820078
  0
VERTEX
  8
0
  6
CONTINUOUS
 62
     2
 10
1131.95916827
 20
250.717657149
 30
0.0
 42
-0.021820078
  0
VERTEX
  8
0
  6
CONTINUOUS
 62
     2
 10
1131.916683935
 20
250.9092916
 30
0.0
 42
-0.021820078
  0
VERTEX
  8
0
  6
CONTINUOUS
 62
     2
 10
1131.891063309
 20
251.103899579
 30
0.0
 42
-0.021820078
  0
VERTEX
  8
0
  6
CONTINUOUS
 62
     2
 10
1131.882501379
 20
251.3
 30
0.0
 42
-0.021820078
  0
VERTEX
  8
0
  6
CONTINUOUS
 62
     2
 10
1131.891063309
 20
251.496100421
 30
0.0
 42
-0.021820078
  0
VERTEX
  8
0
  6
CONTINUOUS
 62
     2
 10
1131.916683935
 20
251.6907084
 30
0.0
 42
-0.021820078
  0
VERTEX
  8
0
  6
CONTINUOUS
 62
     2
 10
1131.95916827
 20
251.882342851
 30
0.0
 42
-0.021820078
  0
VERTEX
  8
0
  6
CONTINUOUS
 62
     2
 10
1132.018192983
 20
252.069545322
 30
0.0
 42
-0.021820078
  0
VERTEX
  8
0
  6
CONTINUOUS
 62
     2
 10
1132.093308859
 20
252.250891089
 30
0.0
 42
-0.021820078
  0
VERTEX
  8
0
  6
CONTINUOUS
 62
     2
 10
1132.183944221
 20
252.425
 30
0.0
 42
-0.021820078
  0
VERTEX
  8
0
  6
CONTINUOUS
 62
     2
 10
1132.28940928
 20
252.590546982
 30
0.0
 42
-0.021820078
  0
VERTEX
  8
0
  6
CONTINUOUS
 62
     2
 10
1132.408901382
 20
252.746272122
 30
0.0
 42
-0.021820078
  0
VERTEX
  8
0
  6
CONTINUOUS
 62
     2
 10
1132.541511122
 20
252.890990258
 30
0.0
 42
-0.021820078
  0
VERTEX
  8
0
  6
CONTINUOUS
 62
     2
 10
1132.686229258
 20
253.023599997
 30
0.0
 42
-0.021820078
  0
VERTEX
  8
0
  6
CONTINUOUS
 62
     2
 10
1132.841954398
 20
253.1430921
 30
0.0
 42
-0.021820078
  0
VERTEX
  8
0
  6
CONTINUOUS
 62
     2
 10
1133.007501379
 20
253.248557159
 30
0.0
 42
-0.021820078
  0
VERTEX
  8
0
  6
CONTINUOUS
 62
     2
 10
1133.18161029
 20
253.339192521
 30
0.0
 42
-0.021820078
  0
VERTEX
  8
0
  6
CONTINUOUS
 62
     2
 10
1133.362956057
 20
253.414308397
 30
0.0
 42
-0.021820078
  0
VERTEX
  8
0
  6
CONTINUOUS
 62
     2
 10
1133.550158528
 20
253.473333109
 30
0.0
 42
-0.021820078
  0
VERTEX
  8
0
  6
CONTINUOUS
 62
     2
 10
1133.74179298
 20
253.515817444
 30
0.0
 42
-0.021820078
  0
VERTEX
  8
0
  6
CONTINUOUS
 62
     2
 10
1133.936400958
 20
253.541438071
 30
0.0
 42
-0.021820078
  0
VERTEX
  8
0
  6
CONTINUOUS
 62
     2
 10
1134.132501379
 20
253.55
 30
0.0
 42
-0.021820078
  0
VERTEX
  8
0
  6
CONTINUOUS
 62
     2
 10
1134.328601801
 20
253.541438071
 30
0.0
 42
-0.021820078
  0
VERTEX
  8
0
  6
CONTINUOUS
 62
     2
 10
1134.523209779
 20
253.515817444
 30
0.0
 42
-0.021820078
  0
VERTEX
  8
0
  6
CONTINUOUS
 62
     2
 10
1134.714844231
 20
253.473333109
 30
0.0
 42
-0.021820078
  0
VERTEX
  8
0
  6
CONTINUOUS
 62
     2
 10
1134.902046702
 20
253.414308397
 30
0.0
 42
-0.021820078
  0
VERTEX
  8
0
  6
CONTINUOUS
 62
     2
 10
1135.083392468
 20
253.339192521
 30
0.0
 42
-0.021820078
  0
VERTEX
  8
0
  6
CONTINUOUS
 62
     2
 10
1135.257501379
 20
253.248557159
 30
0.0
 42
-0.021820078
  0
VERTEX
  8
0
  6
CONTINUOUS
 62
     2
 10
1135.423048361
 20
253.1430921
 30
0.0
 42
-0.021820078
  0
VERTEX
  8
0
  6
CONTINUOUS
 62
     2
 10
1135.578773501
 20
253.023599997
 30
0.0
 42
-0.021820078
  0
VERTEX
  8
0
  6
CONTINUOUS
 62
     2
 10
1135.723491637
 20
252.890990258
 30
0.0
 42
-0.021820078
  0
VERTEX
  8
0
  6
CONTINUOUS
 62
     2
 10
1135.856101376
 20
252.746272122
 30
0.0
 42
-0.021820078
  0
VERTEX
  8
0
  6
CONTINUOUS
 62
     2
 10
1135.975593479
 20
252.590546982
 30
0.0
 42
-0.021820078
  0
VERTEX
  8
0
  6
CONTINUOUS
 62
     2
 10
1136.081058538
 20
252.425
 30
0.0
 42
-0.021820078
  0
VERTEX
  8
0
  6
CONTINUOUS
 62
     2
 10
1136.1716939
 20
252.250891089
 30
0.0
 42
-0.021820078
  0
VERTEX
  8
0
  6
CONTINUOUS
 62
     2
 10
1136.246809776
 20
252.069545322
 30
0.0
 42
-0.021820078
  0
VERTEX
  8
0
  6
CONTINUOUS
 62
     2
 10
1136.305834489
 20
251.882342851
 30
0.0
 42
-0.021820078
  0
VERTEX
  8
0
  6
CONTINUOUS
 62
     2
 10
1136.348318824
 20
251.6907084
 30
0.0
 42
-0.021820078
  0
VERTEX
  8
0
  6
CONTINUOUS
 62
     2
 10
1136.37393945
 20
251.496100421
 30
0.0
 42
-0.021820078
  0
SEQEND
  8
0
  6
CONTINUOUS
 62
     2
  0
TEXT
  8
0
  6
CONTINUOUS
 62
     2
 10
1110.382501379
 20
240.9
 30
0.0
 40
10.0
  1
１
 50
0.0
 41
0.85
 51
0.0
  7
KANJI39
  0
TEXT
  8
0
  6
CONTINUOUS
 62
     2
 10
1135.382501379
 20
240.9
 30
0.0
 40
10.0
  1
２
 50
0.0
 41
0.85
 51
0.0
  7
KANJI39
  0
TEXT
  8
0
  6
CONTINUOUS
 62
     2
 10
1078.482501379
 20
295.6
 30
0.0
 40
10.0
  1
（ＮＯ）
 50
0.0
 41
0.75
 51
0.0
  7
KANJI40
  0
TEXT
  8
0
  6
CONTINUOUS
 62
     2
 10
1144.482501379
 20
295.6
 30
0.0
 40
10.0
  1
（ＮＯ）
 50
0.0
 41
0.75
 51
0.0
  7
KANJI40
  0
TEXT
  8
0
  6
CONTINUOUS
 62
     2
 10
1078.482501379
 20
238.1
 30
0.0
 40
10.0
  1
（ＮＣ）
 50
0.0
 41
0.75
 51
0.0
  7
KANJI40
  0
TEXT
  8
0
  6
CONTINUOUS
 62
     2
 10
1144.482501379
 20
238.1
 30
0.0
 40
10.0
  1
（ＮＣ）
 50
0.0
 41
0.75
 51
0.0
  7
KANJI40
  0
TEXT
  8
0
  6
CONTINUOUS
 62
     2
 10
1062.357501379
 20
209.1
 30
0.0
 40
15.0
  1
外部ＬＳリミットＳＷ
 50
0.0
 41
0.9
 51
0.0
  7
KANJI36
  0
TEXT
  8
0
  6
CONTINUOUS
 62
     2
 10
1099.607501379
 20
190.1
 30
0.0
 40
15.0
  1
端子符号
 50
0.0
 41
0.9
 51
0.0
  7
KANJI36
  0
LINE
  8
0
  6
CONTINUOUS
 62
     2
 10
1204.107501379
 20
196.6
 30
0.0
 11
1204.107501379
 21
366.35
 31
0.0
  0
LINE
  8
0
  6
CONTINUOUS
 62
     2
 10
1204.107501379
 20
366.35
 30
0.0
 11
1050.857501379
 21
366.35
 31
0.0
  0
LINE
  8
0
  6
CONTINUOUS
 62
     2
 10
1050.857501379
 20
366.35
 30
0.0
 11
1050.857501379
 21
196.6
 31
0.0
  0
LINE
  8
0
  6
CONTINUOUS
 62
     2
 10
1159.107501379
 20
196.6
 30
0.0
 11
1204.107501379
 21
196.6
 31
0.0
  0
LINE
  8
0
  6
CONTINUOUS
 62
     2
 10
1050.857501379
 20
196.6
 30
0.0
 11
1089.857501379
 21
196.6
 31
0.0
  0
ARC
  8
0
  6
CONTINUOUS
 62
     1
 10
1009.437032801
 20
236.6
 30
0.0
 40
6.845203412
 50
324.242860688
 51
35.757139312
  0
ARC
  8
0
  6
CONTINUOUS
 62
     1
 10
1020.546814032
 20
236.6
 30
0.0
 40
6.845203412
 50
144.242860688
 51
215.757139312
  0
ARC
  8
0
  6
CONTINUOUS
 62
     1
 10
1020.546814032
 20
228.6
 30
0.0
 40
6.845203412
 50
144.242860688
 51
215.757139312
  0
LINE
  8
0
  6
CONTINUOUS
 62
     2
 10
992.0
 20
480.7
 30
0.0
 11
979.925927171
 21
483.935238064
 31
0.0
  0
LINE
  8
0
  6
CONTINUOUS
 62
     2
 10
992.0
 20
480.7
 30
0.0
 11
979.925927171
 21
477.464761936
 31
0.0
  0
LINE
  8
0
  6
CONTINUOUS
 62
     2
 10
992.0
 20
480.7
 30
0.0
 11
1004.074072829
 21
477.464761936
 31
0.0
  0
LINE
  8
0
  6
CONTINUOUS
 62
     2
 10
992.0
 20
480.7
 30
0.0
 11
1004.074072829
 21
483.935238064
 31
0.0
  0
LINE
  8
0
  6
CONTINUOUS
 62
     2
 10
992.0
 20
480.7
 30
0.0
 11
1047.0
 21
480.7
 31
0.0
  0
LINE
  8
0
  6
CONTINUOUS
 62
     2
 10
1047.0
 20
480.7
 30
0.0
 11
1034.925927171
 21
483.935238064
 31
0.0
  0
LINE
  8
0
  6
CONTINUOUS
 62
     2
 10
1047.0
 20
480.7
 30
0.0
 11
1034.925927171
 21
477.464761936
 31
0.0
  0
LINE
  8
0
  6
CONTINUOUS
 62
     2
 10
1047.0
 20
603.0
 30
0.0
 11
1047.0
 21
473.2
 31
0.0
  0
LINE
  8
0
  6
CONTINUOUS
 62
     2
 10
1047.0
 20
480.7
 30
0.0
 11
1059.074072829
 21
477.464761936
 31
0.0
  0
LINE
  8
0
  6
CONTINUOUS
 62
     2
 10
1047.0
 20
480.7
 30
0.0
 11
1059.074072829
 21
483.935238064
 31
0.0
  0
LINE
  8
0
  6
CONTINUOUS
 62
     2
 10
1047.0
 20
480.7
 30
0.0
 11
1097.0
 21
480.7
 31
0.0
  0
LINE
  8
0
  6
CONTINUOUS
 62
     2
 10
1097.0
 20
480.7
 30
0.0
 11
1084.925927171
 21
483.935238064
 31
0.0
  0
LINE
  8
0
  6
CONTINUOUS
 62
     2
 10
1097.0
 20
480.7
 30
0.0
 11
1084.925927171
 21
477.464761936
 31
0.0
  0
LINE
  8
0
  6
CONTINUOUS
 62
     1
 10
1047.0
 20
524.5
 30
0.0
 11
1047.0
 21
694.5
 31
0.0
  0
LINE
  8
0
  6
CONTINUOUS
 62
     1
 10
1031.0
 20
524.5
 30
0.0
 11
1047.0
 21
524.5
 31
0.0
  0
LINE
  8
0
  6
CONTINUOUS
 62
     1
 10
1031.0
 20
524.5
 30
0.0
 11
1031.0
 21
707.5
 31
0.0
  0
LINE
  8
0
  6
CONTINUOUS
 62
     1
 10
1047.0
 20
537.5
 30
0.0
 11
1047.0
 21
544.99406
 31
0.0
  0
LINE
  8
0
  6
CONTINUOUS
 62
     1
 10
1047.0
 20
537.5
 30
0.0
 11
1047.0
 21
530.00594
 31
0.0
  0
LINE
  8
0
  6
CONTINUOUS
 62
     1
 10
1052.4999
 20
543.15878
 30
0.0
 11
1051.440300598
 21
544.99406
 31
0.0
  0
LINE
  8
0
  6
CONTINUOUS
 62
     1
 10
1052.4999
 20
537.5
 30
0.0
 11
1052.4999
 21
543.15878
 31
0.0
  0
LINE
  8
0
  6
CONTINUOUS
 62
     1
 10
1052.4999
 20
531.84122
 30
0.0
 11
1051.440300598
 21
530.00594
 31
0.0
  0
LINE
  8
0
  6
CONTINUOUS
 62
     1
 10
1052.4999
 20
537.5
 30
0.0
 11
1052.4999
 21
531.84122
 31
0.0
  0
ARC
  8
0
  6
CONTINUOUS
 62
     1
 10
1045.344844663
 20
537.5
 30
0.0
 40
7.155055337
 50
328.419912243
 51
31.580087757
  0
ARC
  8
0
  6
CONTINUOUS
 62
     1
 10
1050.314476233
 20
543.120545
 30
0.0
 40
2.185758211
 50
301.002313915
 51
2.989498403
  0
LINE
  8
0
  6
CONTINUOUS
 62
     1
 10
1052.4999
 20
531.84122
 30
0.0
 11
1051.440300598
 21
530.00594
 31
0.0
  0
ARC
  8
0
  6
CONTINUOUS
 62
     1
 10
1050.314476233
 20
531.879455
 30
0.0
 40
2.185758211
 50
357.010501597
 51
58.997686085
  0
LINE
  8
0
  6
CONTINUOUS
 62
     1
 10
1047.0
 20
544.99406
 30
0.0
 11
1051.440300598
 21
544.99406
 31
0.0
  0
LINE
  8
0
  6
CONTINUOUS
 62
     1
 10
1047.0
 20
541.24703
 30
0.0
 11
1051.440300598
 21
541.24703
 31
0.0
  0
LINE
  8
0
  6
CONTINUOUS
 62
     1
 10
1047.0
 20
533.75297
 30
0.0
 11
1051.440300598
 21
533.75297
 31
0.0
  0
LINE
  8
0
  6
CONTINUOUS
 62
     1
 10
1047.0
 20
530.00594
 30
0.0
 11
1051.440300598
 21
530.00594
 31
0.0
  0
LINE
  8
0
  6
CONTINUOUS
 62
     1
 10
1052.4999
 20
533.5
 30
0.0
 11
1057.4999
 21
533.5
 31
0.0
  0
LINE
  8
0
  6
CONTINUOUS
 62
     1
 10
1052.4999
 20
541.5
 30
0.0
 11
1057.4999
 21
541.5
 31
0.0
  0
LINE
  8
0
  6
CONTINUOUS
 62
     1
 10
1057.4999
 20
533.5
 30
0.0
 11
1057.4999
 21
541.5
 31
0.0
  0
LINE
  8
0
  6
CONTINUOUS
 62
     2
 10
1052.4999
 20
540.7
 30
0.0
 11
1057.4999
 21
540.7
 31
0.0
  0
LINE
  8
0
  6
CONTINUOUS
 62
     2
 10
1052.4999
 20
534.3
 30
0.0
 11
1057.4999
 21
534.3
 31
0.0
  0
LINE
  8
0
  6
CONTINUOUS
 62
     2
 10
992.0
 20
649.875
 30
0.0
 11
992.0
 21
473.2
 31
0.0
  0
TEXT
  8
0
  6
CONTINUOUS
 62
     2
 10
1057.75
 20
485.7
 30
0.0
 40
18.0
  1
５０
 50
0.0
 41
0.9
 51
0.0
  7
KANJI34
  0
TEXT
  8
0
  6
CONTINUOUS
 62
     2
 10
976.75
 20
455.7
 30
0.0
 40
18.0
  1
ｍｉｎ．Ｐ
 50
0.0
 41
0.9
 51
0.0
  7
KANJI34
  0
LINE
  8
0
  6
CONTINUOUS
 62
     1
 10
1005.182501379
 20
543.5
 30
0.0
 11
1031.0
 21
543.5
 31
0.0
  0
LINE
  8
0
  6
CONTINUOUS
 62
     1
 10
1005.182501379
 20
531.5
 30
0.0
 11
1031.0
 21
531.5
 31
0.0
  0
CIRCLE
  8
0
  6
CONTINUOUS
 62
     2
 10
984.182501379
 20
537.5
 30
0.0
 40
5.0
  0
CIRCLE
  8
0
  6
CONTINUOUS
 62
     2
 10
984.182501379
 20
537.5
 30
0.0
 40
4.0
  0
LINE
  8
0
  6
LTYPE3
 62
     2
 10
984.182501379
 20
527.5
 30
0.0
 11
984.182501379
 21
547.5
 31
0.0
  0
LINE
  8
0
  6
CONTINUOUS
 62
     1
 10
1047.0
 20
687.0
 30
0.0
 11
1047.0
 21
662.0
 31
0.0
  0
LINE
  8
0
  6
CONTINUOUS
 62
     1
 10
1047.0
 20
662.0
 30
0.0
 11
1114.0
 21
662.0
 31
0.0
  0
ARC
  8
0
  6
CONTINUOUS
 62
     1
 10
1114.0
 20
670.0
 30
0.0
 40
8.0
 50
270.0
 51
0.0
  0
LINE
  8
0
  6
CONTINUOUS
 62
     1
 10
1122.0
 20
670.0
 30
0.0
 11
1122.0
 21
704.0
 31
0.0
  0
CIRCLE
  8
0
  6
CONTINUOUS
 62
     1
 10
1097.0
 20
687.0
 30
0.0
 40
12.5
  0
CIRCLE
  8
0
  6
CONTINUOUS
 62
     1
 10
1097.0
 20
687.0
 30
0.0
 40
22.0
  0
LINE
  8
0
  6
CONTINUOUS
 62
     1
 10
1092.8
 20
670.2
 30
0.0
 11
1094.8
 21
669.9
 31
0.0
  0
LINE
  8
0
  6
CONTINUOUS
 62
     1
 10
1095.3
 20
674.6
 30
0.0
 11
1095.064615385
 21
673.030769231
 31
0.0
  0
LINE
  8
0
  6
CONTINUOUS
 62
     1
 10
1095.064615385
 20
673.030769231
 30
0.0
 11
1092.8
 21
670.2
 31
0.0
  0
LINE
  8
0
  6
CONTINUOUS
 62
     1
 10
1097.0
 20
672.6
 30
0.0
 11
1094.8
 21
669.9
 31
0.0
  0
LINE
  8
0
  6
CONTINUOUS
 62
     1
 10
1101.2
 20
670.2
 30
0.0
 11
1099.2
 21
669.9
 31
0.0
  0
LINE
  8
0
  6
CONTINUOUS
 62
     1
 10
1098.7
 20
674.6
 30
0.0
 11
1098.935384615
 21
673.030769231
 31
0.0
  0
LINE
  8
0
  6
CONTINUOUS
 62
     1
 10
1098.935384615
 20
673.030769231
 30
0.0
 11
1101.2
 21
670.2
 31
0.0
  0
LINE
  8
0
  6
CONTINUOUS
 62
     1
 10
1097.0
 20
672.6
 30
0.0
 11
1099.2
 21
669.9
 31
0.0
  0
LINE
  8
0
  6
LTYPE1
 62
     2
 10
1062.0
 20
662.0
 30
0.0
 11
1062.0
 21
712.0
 31
0.0
  0
LINE
  8
0
  6
CONTINUOUS
 62
     2
 10
1177.6
 20
712.0
 30
0.0
 11
1177.6
 21
662.0
 31
0.0
  0
LINE
  8
0
  6
CONTINUOUS
 62
     2
 10
1177.6
 20
662.0
 30
0.0
 11
1180.835238064
 21
674.074072829
 31
0.0
  0
LINE
  8
0
  6
CONTINUOUS
 62
     2
 10
1177.6
 20
662.0
 30
0.0
 11
1174.364761936
 21
674.074072829
 31
0.0
  0
LINE
  8
0
  6
CONTINUOUS
 62
     2
 10
1121.5
 20
662.0
 30
0.0
 11
1185.1
 21
662.0
 31
0.0
  0
LINE
  8
0
  6
CONTINUOUS
 62
     1
 10
1047.0
 20
654.5
 30
0.0
 11
1047.0
 21
712.0
 31
0.0
  0
LINE
  8
0
  6
LTYPE5
 62
     2
 10
1097.0
 20
662.0
 30
0.0
 11
1097.0
 21
719.1
 31
0.0
  0
LINE
  8
0
  6
CONTINUOUS
 62
     1
 10
1031.0
 20
662.5
 30
0.0
 11
992.0
 21
662.5
 31
0.0
  0
LINE
  8
0
  6
CONTINUOUS
 62
     1
 10
1047.0
 20
674.5
 30
0.0
 11
1047.0
 21
704.5
 31
0.0
  0
LINE
  8
0
  6
CONTINUOUS
 62
     1
 10
1031.0
 20
654.5
 30
0.0
 11
1031.0
 21
725.5
 31
0.0
  0
LINE
  8
0
  6
CONTINUOUS
 62
     1
 10
1047.0
 20
687.5
 30
0.0
 11
1047.0
 21
725.5
 31
0.0
  0
LINE
  8
0
  6
CONTINUOUS
 62
     1
 10
1031.0
 20
687.5
 30
0.0
 11
1031.0
 21
720.5
 31
0.0
  0
LINE
  8
0
  6
CONTINUOUS
 62
     1
 10
992.0
 20
652.5
 30
0.0
 11
992.0
 21
722.5
 31
0.0
  0
TEXT
  8
0
  6
CONTINUOUS
 62
     2
 10
1172.6
 20
672.75
 30
0.0
 40
18.0
  1
５０
 50
90.0
 41
0.9
 51
0.0
  7
KANJI34
  0
LINE
  8
0
  6
CONTINUOUS
 62
     1
 10
1047.0
 20
712.0
 30
0.0
 11
1114.0
 21
712.0
 31
0.0
  0
ARC
  8
0
  6
CONTINUOUS
 62
     1
 10
1114.0
 20
704.0
 30
0.0
 40
8.0
 50
0.0
 51
90.0
  0
CIRCLE
  8
0
  6
CONTINUOUS
 62
     1
 10
1097.0
 20
702.5
 30
0.0
 40
3.0
  0
LINE
  8
0
  6
CONTINUOUS
 62
     2
 10
1121.5
 20
712.0
 30
0.0
 11
1185.1
 21
712.0
 31
0.0
  0
LINE
  8
0
  6
CONTINUOUS
 62
     2
 10
1177.6
 20
712.0
 30
0.0
 11
1174.364761936
 21
699.925927171
 31
0.0
  0
LINE
  8
0
  6
CONTINUOUS
 62
     2
 10
1177.6
 20
712.0
 30
0.0
 11
1180.835238064
 21
699.925927171
 31
0.0
  0
LINE
  8
0
  6
CONTINUOUS
 62
     2
 10
1104.5
 20
696.6
 30
0.0
 11
1113.413448812
 21
705.363585469
 31
0.0
  0
LINE
  8
0
  6
CONTINUOUS
 62
     2
 10
1104.5
 20
696.6
 30
0.0
 11
1107.837480372
 21
708.64621205
 31
0.0
  0
LINE
  8
0
  6
CONTINUOUS
 62
     2
 10
1104.5
 20
696.6
 30
0.0
 11
1141.0
 21
758.6
 31
0.0
  0
LINE
  8
0
  6
CONTINUOUS
 62
     2
 10
1141.0
 20
758.6
 30
0.0
 11
1229.5
 21
758.6
 31
0.0
  0
LINE
  8
0
  6
CONTINUOUS
 62
     1
 10
1031.0
 20
725.5
 30
0.0
 11
1047.0
 21
725.5
 31
0.0
  0
LINE
  8
0
  6
CONTINUOUS
 62
     1
 10
1031.0
 20
712.5
 30
0.0
 11
992.0
 21
712.5
 31
0.0
  0
TEXT
  8
0
  6
CONTINUOUS
 62
     2
 10
1141.0
 20
763.6
 30
0.0
 40
18.0
  1
φ２５Ｈ１０
 50
0.0
 41
0.9
 51
0.0
  7
KANJI34
  0
TEXT
  8
0
  6
CONTINUOUS
 62
     2
 10
1185.5
 20
739.1
 30
0.0
 40
18.0
  1
ｄ９
 50
0.0
 41
0.9
 51
0.0
  7
KANJI34
  0
LINE
  8
0
  6
CONTINUOUS
 62
     2
 10
1101.0
 20
962.0
 30
0.0
 11
1086.511112606
 21
965.882285677
 31
0.0
  0
LINE
  8
0
  6
CONTINUOUS
 62
     2
 10
1101.0
 20
962.0
 30
0.0
 11
1086.511112606
 21
958.117714323
 31
0.0
  0
LINE
  8
0
  6
CONTINUOUS
 62
     2
 10
1101.0
 20
962.0
 30
0.0
 11
1051.8
 21
962.0
 31
0.0
  0
TEXT
  8
0
  6
CONTINUOUS
 62
     3
 10
1060.2
 20
974.0
 30
0.0
 40
24.0
  1
前進
 50
0.0
 41
0.925
 51
0.0
  7
KANJI41
  0
LINE
  8
0
  6
CONTINUOUS
 62
     2
 10
1215.5
 20
687.5
 30
0.0
 11
1212.394171459
 21
675.908890085
 31
0.0
  0
LINE
  8
0
  6
CONTINUOUS
 62
     2
 10
1215.5
 20
687.5
 30
0.0
 11
1218.605828541
 21
675.908890085
 31
0.0
  0
LINE
  8
0
  6
CONTINUOUS
 62
     2
 10
1215.5
 20
687.5
 30
0.0
 11
1215.5
 21
521.5
 31
0.0
  0
LINE
  8
0
  6
CONTINUOUS
 62
     2
 10
1215.5
 20
521.5
 30
0.0
 11
1218.605828541
 21
533.091109915
 31
0.0
  0
LINE
  8
0
  6
CONTINUOUS
 62
     2
 10
1215.5
 20
521.5
 30
0.0
 11
1212.394171459
 21
533.091109915
 31
0.0
  0
LINE
  8
0
  6
CONTINUOUS
 62
     2
 10
1002.522247342
 20
521.5
 30
0.0
 11
1221.5
 21
521.5
 31
0.0
  0
TEXT
  8
0
  6
CONTINUOUS
 62
     3
 10
1212.5
 20
580.2
 30
0.0
 40
18.0
  1
１６６
 50
90.0
 41
0.9
 51
0.0
  7
KANJI34
  0
LINE
  8
0
  6
CONTINUOUS
 62
     2
 10
1180.835238064
 20
687.5
 30
0.0
 11
1221.5
 21
687.5
 31
0.0
  0
LINE
  8
0
  6
CONTINUOUS
 62
     2
 10
1115.489995997
 20
687.5
 30
0.0
 11
1149.522247342
 21
687.5
 31
0.0
  0
LINE
  8
7
  6
CONTINUOUS
 62
     2
 10
1319.917646349
 20
730.929835768
 30
0.0
 11
1283.117646349
 21
812.929835768
 31
0.0
  0
TEXT
  8
7
  6
CONTINUOUS
 62
     2
 10
1294.623822488
 20
696.329880312
 30
0.0
 40
15.0
  1
約１５゜
 50
82.5
 41
0.9
 51
0.0
  7
KANJI36
  0
TEXT
  8
7
  6
CONTINUOUS
 62
     2
 10
1216.517091025
 20
816.929835768
 30
0.0
 40
15.0
  1
ＬＳユニット組付位置
 50
0.0
 41
0.9
 51
0.0
  7
KANJI36
  0
ARC
  8
0
  6
CONTINUOUS
 62
     1
 10
1411.0
 20
616.0
 30
0.0
 40
6.0
 50
180.0
 51
270.0
  0
ARC
  8
0
  6
CONTINUOUS
 62
     1
 10
1553.0
 20
616.0
 30
0.0
 40
6.0
 50
270.0
 51
0.0
  0
LINE
  8
0
  6
CONTINUOUS
 62
     1
 10
1562.0
 20
666.5
 30
0.0
 11
1562.0
 21
708.5
 31
0.0
  0
LINE
  8
0
  6
CONTINUOUS
 62
     1
 10
1562.0
 20
708.5
 30
0.0
 11
1528.733285782
 21
712.5
 31
0.0
  0
ARC
  8
0
  6
CONTINUOUS
 62
     1
 10
1434.0
 20
625.0
 30
0.0
 40
3.0
 50
90.0
 51
180.0
  0
LINE
  8
0
  6
CONTINUOUS
 62
     1
 10
1431.0
 20
578.5
 30
0.0
 11
1431.0
 21
625.0
 31
0.0
  0
ARC
  8
0
  6
CONTINUOUS
 62
     1
 10
1432.0
 20
578.5
 30
0.0
 40
1.0
 50
180.0
 51
270.0
  0
ARC
  8
0
  6
CONTINUOUS
 62
     1
 10
1435.0
 20
577.5
 30
0.0
 40
1.0
 50
180.0
 51
270.0
  0
ARC
  8
0
  6
CONTINUOUS
 62
     1
 10
1530.0
 20
625.0
 30
0.0
 40
3.0
 50
0.0
 51
90.0
  0
LINE
  8
0
  6
CONTINUOUS
 62
     1
 10
1533.0
 20
578.5
 30
0.0
 11
1533.0
 21
625.0
 31
0.0
  0
ARC
  8
0
  6
CONTINUOUS
 62
     1
 10
1532.0
 20
578.5
 30
0.0
 40
1.0
 50
270.0
 51
0.0
  0
ARC
  8
0
  6
CONTINUOUS
 62
     1
 10
1529.0
 20
577.5
 30
0.0
 40
1.0
 50
270.0
 51
0.0
  0
LINE
  8
0
  6
CONTINUOUS
 62
     1
 10
1533.0
 20
583.5
 30
0.0
 11
1431.0
 21
583.5
 31
0.0
  0
LINE
  8
0
  6
CONTINUOUS
 62
     1
 10
1533.0
 20
585.0
 30
0.0
 11
1431.0
 21
585.0
 31
0.0
  0
LINE
  8
0
  6
CONTINUOUS
 62
     1
 10
1434.0
 20
628.0
 30
0.0
 11
1530.0
 21
628.0
 31
0.0
  0
LINE
  8
0
  6
CONTINUOUS
 62
     1
 10
1529.0
 20
576.5
 30
0.0
 11
1435.0
 21
576.5
 31
0.0
  0
LINE
  8
0
  6
CONTINUOUS
 62
     1
 10
1532.0
 20
577.5
 30
0.0
 11
1432.0
 21
577.5
 31
0.0
  0
LINE
  8
0
  6
CONTINUOUS
 62
     1
 10
1437.0
 20
629.5
 30
0.0
 11
1527.0
 21
629.5
 31
0.0
  0
CIRCLE
  8
0
  6
CONTINUOUS
 62
     1
 10
1529.0
 20
734.5
 30
0.0
 40
9.0
  0
ARC
  8
0
  6
CONTINUOUS
 62
     1
 10
1536.0
 20
633.5
 30
0.0
 40
5.0
 50
270.0
 51
360.0
  0
ARC
  8
0
  6
CONTINUOUS
 62
     1
 10
1428.0
 20
633.5
 30
0.0
 40
5.0
 50
180.0
 51
270.0
  0
LINE
  8
0
  6
CONTINUOUS
 62
     1
 10
1541.0
 20
711.025046491
 30
0.0
 11
1541.0
 21
741.5
 31
0.0
  0
LINE
  8
0
  6
CONTINUOUS
 62
     1
 10
1541.0
 20
663.974953509
 30
0.0
 11
1541.0
 21
633.5
 31
0.0
  0
LINE
  8
0
  6
CONTINUOUS
 62
     1
 10
1527.0
 20
628.5
 30
0.0
 11
1536.0
 21
628.5
 31
0.0
  0
LINE
  8
0
  6
CONTINUOUS
 62
     1
 10
1437.0
 20
628.5
 30
0.0
 11
1428.0
 21
628.5
 31
0.0
  0
ARC
  8
0
  6
CONTINUOUS
 62
     1
 10
1435.0
 20
640.5
 30
0.0
 40
9.0
 50
77.327684064
 51
282.116861929
  0
ARC
  8
0
  6
CONTINUOUS
 62
     1
 10
1529.0
 20
640.5
 30
0.0
 40
9.0
 50
257.883138071
 51
102.672315936
  0
LINE
  8
0
  6
CONTINUOUS
 62
     1
 10
1509.5
 20
712.5
 30
0.0
 11
1494.5
 21
712.5
 31
0.0
  0
LINE
  8
0
  6
CONTINUOUS
 62
     1
 10
1514.0
 20
665.5
 30
0.0
 11
1514.0
 21
709.5
 31
0.0
  0
LINE
  8
0
  6
CONTINUOUS
 62
     1
 10
1520.0
 20
675.0
 30
0.0
 11
1520.0
 21
700.0
 31
0.0
  0
LINE
  8
0
  6
CONTINUOUS
 62
     1
 10
1520.0
 20
700.0
 30
0.0
 11
1514.0
 21
700.0
 31
0.0
  0
LINE
  8
0
  6
CONTINUOUS
 62
     1
 10
1520.0
 20
675.0
 30
0.0
 11
1514.0
 21
675.0
 31
0.0
  0
LINE
  8
0
  6
CONTINUOUS
 62
     1
 10
1514.0
 20
709.5
 30
0.0
 11
1509.5
 21
709.5
 31
0.0
  0
LINE
  8
0
  6
CONTINUOUS
 62
     1
 10
1514.0
 20
665.5
 30
0.0
 11
1509.5
 21
665.5
 31
0.0
  0
CIRCLE
  8
0
  6
CONTINUOUS
 62
     1
 10
1516.0
 20
687.5
 30
0.0
 40
2.0
  0
LINE
  8
0
  6
CONTINUOUS
 62
     1
 10
1450.0
 20
665.5
 30
0.0
 11
1450.0
 21
709.5
 31
0.0
  0
LINE
  8
0
  6
CONTINUOUS
 62
     1
 10
1444.0
 20
675.0
 30
0.0
 11
1444.0
 21
700.0
 31
0.0
  0
LINE
  8
0
  6
CONTINUOUS
 62
     1
 10
1444.0
 20
700.0
 30
0.0
 11
1450.0
 21
700.0
 31
0.0
  0
LINE
  8
0
  6
CONTINUOUS
 62
     1
 10
1444.0
 20
675.0
 30
0.0
 11
1450.0
 21
675.0
 31
0.0
  0
LINE
  8
0
  6
CONTINUOUS
 62
     1
 10
1450.0
 20
709.5
 30
0.0
 11
1454.5
 21
709.5
 31
0.0
  0
LINE
  8
0
  6
CONTINUOUS
 62
     1
 10
1450.0
 20
665.5
 30
0.0
 11
1454.5
 21
665.5
 31
0.0
  0
CIRCLE
  8
0
  6
CONTINUOUS
 62
     1
 10
1448.0
 20
687.5
 30
0.0
 40
2.0
  0
LINE
  8
0
  6
CONTINUOUS
 62
     1
 10
1494.5
 20
675.0
 30
0.0
 11
1469.5
 21
675.0
 31
0.0
  0
LINE
  8
0
  6
CONTINUOUS
 62
     1
 10
1494.5
 20
700.0
 30
0.0
 11
1469.5
 21
700.0
 31
0.0
  0
LINE
  8
0
  6
CONTINUOUS
 62
     1
 10
1469.5
 20
675.0
 30
0.0
 11
1494.5
 21
675.0
 31
0.0
  0
LINE
  8
0
  6
CONTINUOUS
 62
     1
 10
1469.5
 20
700.0
 30
0.0
 11
1494.5
 21
700.0
 31
0.0
  0
LINE
  8
0
  6
CONTINUOUS
 62
     1
 10
1454.5
 20
712.5
 30
0.0
 11
1494.5
 21
712.5
 31
0.0
  0
LINE
  8
0
  6
CONTINUOUS
 62
     1
 10
1509.5
 20
662.5
 30
0.0
 11
1509.5
 21
712.5
 31
0.0
  0
LINE
  8
0
  6
CONTINUOUS
 62
     1
 10
1454.5
 20
662.5
 30
0.0
 11
1509.5
 21
662.5
 31
0.0
  0
LINE
  8
0
  6
CONTINUOUS
 62
     1
 10
1494.5
 20
662.5
 30
0.0
 11
1494.5
 21
712.5
 31
0.0
  0
LINE
  8
0
  6
CONTINUOUS
 62
     1
 10
1469.5
 20
662.5
 30
0.0
 11
1469.5
 21
712.5
 31
0.0
  0
LINE
  8
0
  6
CONTINUOUS
 62
     1
 10
1454.5
 20
662.5
 30
0.0
 11
1454.5
 21
712.5
 31
0.0
  0
LINE
  8
0
  6
CONTINUOUS
 62
     1
 10
1533.0
 20
610.0
 30
0.0
 11
1553.0
 21
610.0
 31
0.0
  0
LINE
  8
0
  6
CONTINUOUS
 62
     1
 10
1411.0
 20
610.0
 30
0.0
 11
1431.0
 21
610.0
 31
0.0
  0
LINE
  8
0
  6
CONTINUOUS
 62
     1
 10
1559.0
 20
616.0
 30
0.0
 11
1559.0
 21
666.139279073
 31
0.0
  0
LINE
  8
0
  6
CONTINUOUS
 62
     1
 10
1405.0
 20
616.0
 30
0.0
 11
1405.0
 21
666.139279073
 31
0.0
  0
LINE
  8
0
  6
LTYPE1
 62
     2
 10
1427.0
 20
677.5
 30
0.0
 11
1427.0
 21
697.5
 31
0.0
  0
LINE
  8
0
  6
LTYPE1
 62
     2
 10
1427.0
 20
697.5
 30
0.0
 11
1402.0
 21
697.5
 31
0.0
  0
LINE
  8
0
  6
LTYPE1
 62
     2
 10
1427.0
 20
677.5
 30
0.0
 11
1402.0
 21
677.5
 31
0.0
  0
LINE
  8
0
  6
LTYPE1
 62
     2
 10
1537.0
 20
677.5
 30
0.0
 11
1537.0
 21
697.5
 31
0.0
  0
LINE
  8
0
  6
LTYPE1
 62
     2
 10
1537.0
 20
697.5
 30
0.0
 11
1562.0
 21
697.5
 31
0.0
  0
LINE
  8
0
  6
LTYPE1
 62
     2
 10
1537.0
 20
677.5
 30
0.0
 11
1562.0
 21
677.5
 31
0.0
  0
LINE
  8
0
  6
LTYPE3
 62
     2
 10
1527.0
 20
572.8
 30
0.0
 11
1527.0
 21
591.5
 31
0.0
  0
LINE
  8
0
  6
LTYPE3
 62
     2
 10
1437.0
 20
572.8
 30
0.0
 11
1437.0
 21
591.5
 31
0.0
  0
LINE
  8
0
  6
LTYPE3
 62
     2
 10
1447.4
 20
734.5
 30
0.0
 11
1423.6
 21
734.5
 31
0.0
  0
LINE
  8
0
  6
LTYPE3
 62
     2
 10
1435.0
 20
723.165527109
 30
0.0
 11
1435.0
 21
745.265527109
 31
0.0
  0
LINE
  8
0
  6
LTYPE3
 62
     2
 10
1516.6
 20
734.5
 30
0.0
 11
1540.4
 21
734.5
 31
0.0
  0
LINE
  8
0
  6
LTYPE3
 62
     2
 10
1529.0
 20
723.165527109
 30
0.0
 11
1529.0
 21
745.265527109
 31
0.0
  0
LINE
  8
0
  6
LTYPE3
 62
     2
 10
1447.4
 20
640.5
 30
0.0
 11
1423.6
 21
640.5
 31
0.0
  0
LINE
  8
0
  6
LTYPE3
 62
     2
 10
1435.0
 20
630.65
 30
0.0
 11
1435.0
 21
653.75
 31
0.0
  0
LINE
  8
0
  6
LTYPE3
 62
     2
 10
1529.0
 20
630.65
 30
0.0
 11
1529.0
 21
653.75
 31
0.0
  0
LINE
  8
0
  6
LTYPE5
 62
     2
 10
1515.9
 20
683.5
 30
0.0
 11
1515.9
 21
691.7
 31
0.0
  0
LINE
  8
0
  6
LTYPE1
 62
     2
 10
1514.0
 20
700.0
 30
0.0
 11
1494.5
 21
700.0
 31
0.0
  0
LINE
  8
0
  6
LTYPE1
 62
     2
 10
1514.0
 20
675.0
 30
0.0
 11
1494.5
 21
675.0
 31
0.0
  0
LINE
  8
0
  6
LTYPE5
 62
     2
 10
1448.1
 20
683.5
 30
0.0
 11
1448.1
 21
691.7
 31
0.0
  0
LINE
  8
0
  6
LTYPE1
 62
     2
 10
1450.0
 20
700.0
 30
0.0
 11
1469.5
 21
700.0
 31
0.0
  0
LINE
  8
0
  6
LTYPE1
 62
     2
 10
1450.0
 20
675.0
 30
0.0
 11
1469.5
 21
675.0
 31
0.0
  0
LINE
  8
0
  6
CONTINUOUS
 62
     2
 10
1536.5
 20
576.5
 30
0.0
 11
1638.372218677
 21
576.5
 31
0.0
  0
LINE
  8
0
  6
CONTINUOUS
 62
     2
 10
1405.0
 20
608.5
 30
0.0
 11
1405.0
 21
520.8
 31
0.0
  0
LINE
  8
0
  6
CONTINUOUS
 62
     2
 10
1405.0
 20
528.3
 30
0.0
 11
1417.074072829
 21
525.064761936
 31
0.0
  0
LINE
  8
0
  6
CONTINUOUS
 62
     2
 10
1405.0
 20
528.3
 30
0.0
 11
1417.074072829
 21
531.535238064
 31
0.0
  0
LINE
  8
0
  6
CONTINUOUS
 62
     2
 10
1405.0
 20
528.3
 30
0.0
 11
1559.0
 21
528.3
 31
0.0
  0
LINE
  8
0
  6
CONTINUOUS
 62
     2
 10
1559.0
 20
528.3
 30
0.0
 11
1546.925927171
 21
531.535238064
 31
0.0
  0
LINE
  8
0
  6
CONTINUOUS
 62
     2
 10
1559.0
 20
528.3
 30
0.0
 11
1546.925927171
 21
525.064761936
 31
0.0
  0
LINE
  8
0
  6
CONTINUOUS
 62
     2
 10
1559.0
 20
608.5
 30
0.0
 11
1559.0
 21
520.8
 31
0.0
  0
LINE
  8
0
  6
CONTINUOUS
 62
     2
 10
1402.0
 20
659.0
 30
0.0
 11
1402.0
 21
480.3375
 31
0.0
  0
LINE
  8
0
  6
CONTINUOUS
 62
     2
 10
1402.0
 20
487.8375
 30
0.0
 11
1414.074072829
 21
484.602261936
 31
0.0
  0
LINE
  8
0
  6
CONTINUOUS
 62
     2
 10
1402.0
 20
487.8375
 30
0.0
 11
1414.074072829
 21
491.072738064
 31
0.0
  0
LINE
  8
0
  6
CONTINUOUS
 62
     2
 10
1402.0
 20
487.8375
 30
0.0
 11
1562.0
 21
487.8375
 31
0.0
  0
LINE
  8
0
  6
CONTINUOUS
 62
     2
 10
1562.0
 20
487.8375
 30
0.0
 11
1549.925927171
 21
491.072738064
 31
0.0
  0
LINE
  8
0
  6
CONTINUOUS
 62
     2
 10
1562.0
 20
487.8375
 30
0.0
 11
1549.925927171
 21
484.602261936
 31
0.0
  0
LINE
  8
0
  6
CONTINUOUS
 62
     2
 10
1562.0
 20
659.0
 30
0.0
 11
1562.0
 21
480.3375
 31
0.0
  0
LINE
  8
0
  6
LTYPE5
 62
     2
 10
1392.7
 20
687.5
 30
0.0
 11
1520.0
 21
687.5
 31
0.0
  0
LINE
  8
0
  6
LTYPE5
 62
     2
 10
1591.0
 20
687.5
 30
0.0
 11
1444.0
 21
687.5
 31
0.0
  0
CIRCLE
  8
0
  6
CONTINUOUS
 62
     2
 10
1482.0
 20
602.0
 30
0.0
 40
10.4775
  0
CIRCLE
  8
0
  6
CONTINUOUS
 62
     2
 10
1482.0
 20
602.0
 30
0.0
 40
9.3155
  0
LINE
  8
0
  6
LTYPE2
 62
     2
 10
1501.9
 20
602.0
 30
0.0
 11
1461.2
 21
602.0
 31
0.0
  0
ARC
  8
0
  6
CONTINUOUS
 62
     1
 10
1435.0
 20
734.5
 30
0.0
 40
9.0
 50
4.497151615
 51
179.370401392
  0
ARC
  8
0
  6
CONTINUOUS
 62
     1
 10
1435.0
 20
734.5
 30
0.0
 40
9.0
 50
0.0
 51
4.497151615
  0
LINE
  8
0
  6
LTYPE1
 62
     2
 10
1402.0
 20
708.5
 30
0.0
 11
1435.266714218
 21
712.5
 31
0.0
  0
LINE
  8
0
  6
CONTINUOUS
 62
     1
 10
1423.0
 20
657.777223398
 30
0.0
 11
1423.0
 21
633.5
 31
0.0
  0
LINE
  8
0
  6
CONTINUOUS
 62
     2
 10
1608.5
 20
687.5
 30
0.0
 11
1653.372218677
 21
687.5
 31
0.0
  0
LINE
  8
0
  6
CONTINUOUS
 62
     2
 10
1569.5
 20
697.5
 30
0.0
 11
1616.0
 21
697.5
 31
0.0
  0
LINE
  8
0
  6
CONTINUOUS
 62
     2
 10
1608.5
 20
697.5
 30
0.0
 11
1611.735238064
 21
709.574072829
 31
0.0
  0
LINE
  8
0
  6
CONTINUOUS
 62
     2
 10
1608.5
 20
697.5
 30
0.0
 11
1605.264761936
 21
709.574072829
 31
0.0
  0
LINE
  8
0
  6
CONTINUOUS
 62
     2
 10
1608.5
 20
677.5
 30
0.0
 11
1605.264761936
 21
665.425927171
 31
0.0
  0
LINE
  8
0
  6
CONTINUOUS
 62
     2
 10
1608.5
 20
677.5
 30
0.0
 11
1611.735238064
 21
665.425927171
 31
0.0
  0
LINE
  8
0
  6
CONTINUOUS
 62
     2
 10
1569.5
 20
677.5
 30
0.0
 11
1616.0
 21
677.5
 31
0.0
  0
LINE
  8
0
  6
CONTINUOUS
 62
     2
 10
1311.087188375
 20
643.62609696
 30
0.0
 11
1311.087188375
 21
549.1
 31
0.0
  0
LINE
  8
0
  6
CONTINUOUS
 62
     2
 10
1311.087188375
 20
556.6
 30
0.0
 11
1323.161261203
 21
553.364761936
 31
0.0
  0
LINE
  8
0
  6
CONTINUOUS
 62
     2
 10
1311.087188375
 20
556.6
 30
0.0
 11
1323.161261203
 21
559.835238064
 31
0.0
  0
LINE
  8
0
  6
CONTINUOUS
 62
     2
 10
1311.087188375
 20
556.6
 30
0.0
 11
1482.0
 21
556.6
 31
0.0
  0
LINE
  8
0
  6
CONTINUOUS
 62
     2
 10
1482.0
 20
556.6
 30
0.0
 11
1469.925927171
 21
559.835238064
 31
0.0
  0
LINE
  8
0
  6
CONTINUOUS
 62
     2
 10
1482.0
 20
556.6
 30
0.0
 11
1469.925927171
 21
553.364761936
 31
0.0
  0
LINE
  8
0
  6
LTYPE3
 62
     2
 10
1482.0
 20
957.5
 30
0.0
 11
1482.0
 21
552.0
 31
0.0
  0
LINE
  8
0
  6
CONTINUOUS
 62
     1
 10
1559.0
 20
708.860720927
 30
0.0
 11
1559.0
 21
800.797465586
 31
0.0
  0
LINE
  8
0
  6
CONTINUOUS
 62
     2
 10
1638.372218677
 20
576.5
 30
0.0
 11
1689.122218677
 21
576.5
 31
0.0
  0
LINE
  8
0
  6
CONTINUOUS
 62
     2
 10
1681.622218677
 20
576.5
 30
0.0
 11
1684.85745674
 21
588.574072829
 31
0.0
  0
LINE
  8
0
  6
CONTINUOUS
 62
     2
 10
1681.622218677
 20
576.5
 30
0.0
 11
1678.386980613
 21
588.574072829
 31
0.0
  0
LINE
  8
0
  6
CONTINUOUS
 62
     2
 10
1645.872218677
 20
687.5
 30
0.0
 11
1642.636980613
 21
675.425927171
 31
0.0
  0
LINE
  8
0
  6
CONTINUOUS
 62
     2
 10
1645.872218677
 20
687.5
 30
0.0
 11
1649.10745674
 21
675.425927171
 31
0.0
  0
LINE
  8
0
  6
CONTINUOUS
 62
     2
 10
1645.872218677
 20
687.5
 30
0.0
 11
1645.872218677
 21
576.5
 31
0.0
  0
LINE
  8
0
  6
CONTINUOUS
 62
     2
 10
1645.872218677
 20
576.5
 30
0.0
 11
1649.10745674
 21
588.574072829
 31
0.0
  0
LINE
  8
0
  6
CONTINUOUS
 62
     2
 10
1645.872218677
 20
576.5
 30
0.0
 11
1642.636980613
 21
588.574072829
 31
0.0
  0
LINE
  8
0
  6
CONTINUOUS
 62
     2
 10
1645.872218677
 20
687.5
 30
0.0
 11
1649.10745674
 21
699.574072829
 31
0.0
  0
LINE
  8
0
  6
CONTINUOUS
 62
     2
 10
1645.872218677
 20
687.5
 30
0.0
 11
1642.636980613
 21
699.574072829
 31
0.0
  0
LINE
  8
0
  6
CONTINUOUS
 62
     2
 10
1645.872218677
 20
687.5
 30
0.0
 11
1645.872218677
 21
822.5
 31
0.0
  0
LINE
  8
0
  6
CONTINUOUS
 62
     2
 10
1681.622218677
 20
576.5
 30
0.0
 11
1681.622218677
 21
952.5
 31
0.0
  0
LINE
  8
0
  6
CONTINUOUS
 62
     1
 10
1527.0
 20
628.0
 30
0.0
 11
1527.0
 21
659.5
 31
0.0
  0
LINE
  8
0
  6
CONTINUOUS
 62
     1
 10
1562.0
 20
666.5
 30
0.0
 11
1529.0
 21
662.5320698
 31
0.0
  0
TEXT
  8
0
  6
CONTINUOUS
 62
     2
 10
1460.25
 20
533.3
 30
0.0
 40
18.0
  1
１５４
 50
0.0
 41
0.9
 51
0.0
  7
KANJI34
  0
TEXT
  8
0
  6
CONTINUOUS
 62
     2
 10
1460.25
 20
492.8375
 30
0.0
 40
18.0
  1
１６０
 50
0.0
 41
0.9
 51
0.0
  7
KANJI34
  0
TEXT
  8
0
  6
CONTINUOUS
 62
     2
 10
1603.222218677
 20
703.25
 30
0.0
 40
18.0
  1
φ２０Ｈ１０深さ２５
 50
90.0
 41
0.9
 51
0.0
  7
KANJI34
  0
TEXT
  8
0
  6
CONTINUOUS
 62
     2
 10
1640.872218677
 20
610.25
 30
0.0
 40
18.0
  1
１１１
 50
90.0
 41
0.9
 51
0.0
  7
KANJI34
  0
TEXT
  8
0
  6
CONTINUOUS
 62
     2
 10
1346.043594187
 20
561.6
 30
0.0
 40
18.0
  1
１７５
 50
0.0
 41
0.9
 51
0.0
  7
KANJI34
  0
LINE
  8
0
  6
CONTINUOUS
 62
     2
 10
1608.5
 20
861.6
 30
0.0
 11
1608.5
 21
658.75
 31
0.0
  0
LINE
  8
0
  6
CONTINUOUS
 62
     1
 10
1442.3
 20
576.5
 30
0.0
 11
1431.7
 21
576.5
 31
0.0
  0
ARC
  8
0
  6
CONTINUOUS
 62
     1
 10
1437.4
 20
577.5
 30
0.0
 40
5.0
 50
272.3
 51
348.5
  0
ARC
  8
0
  6
CONTINUOUS
 62
     1
 10
1436.6
 20
577.5
 30
0.0
 40
5.0
 50
191.5
 51
267.7
  0
LINE
  8
0
  6
CONTINUOUS
 62
     1
 10
1437.6
 20
572.5
 30
0.0
 11
1436.4
 21
572.5
 31
0.0
  0
LINE
  8
0
  6
LTYPE4
 62
     2
 10
1437.0
 20
569.1
 30
0.0
 11
1437.0
 21
582.5
 31
0.0
  0
LINE
  8
0
  6
CONTINUOUS
 62
     1
 10
1532.3
 20
576.5
 30
0.0
 11
1521.7
 21
576.5
 31
0.0
  0
ARC
  8
0
  6
CONTINUOUS
 62
     1
 10
1527.4
 20
577.5
 30
0.0
 40
5.0
 50
272.3
 51
348.5
  0
ARC
  8
0
  6
CONTINUOUS
 62
     1
 10
1526.6
 20
577.5
 30
0.0
 40
5.0
 50
191.5
 51
267.7
  0
LINE
  8
0
  6
CONTINUOUS
 62
     1
 10
1527.6
 20
572.5
 30
0.0
 11
1526.4
 21
572.5
 31
0.0
  0
LINE
  8
0
  6
LTYPE4
 62
     2
 10
1527.0
 20
569.1
 30
0.0
 11
1527.0
 21
582.5
 31
0.0
  0
LINE
  8
0
  6
CONTINUOUS
 62
     1
 10
1373.933936227
 20
680.221548203
 30
0.0
 11
1400.979859363
 21
672.97461494
 31
0.0
  0
ARC
  8
0
  6
CONTINUOUS
 62
     1
 10
1401.497497453
 20
674.906466593
 30
0.0
 40
2.0
 50
255.0
 51
345.0
  0
LINE
  8
0
  6
CONTINUOUS
 62
     1
 10
1403.429349106
 20
674.388828502
 30
0.0
 11
1403.897755312
 21
676.136944264
 31
0.0
  0
LINE
  8
0
  6
CONTINUOUS
 62
     1
 10
1373.933936227
 20
680.221548203
 30
0.0
 11
1376.550259183
 21
689.985798403
 31
0.0
  0
ARC
  8
0
  6
CONTINUOUS
 62
     1
 10
1435.545138047
 20
651.289562266
 30
0.0
 40
2.0
 50
165.0
 51
255.0
  0
LINE
  8
0
  6
CONTINUOUS
 62
     1
 10
1435.027499957
 20
649.357710613
 30
0.0
 11
1450.482313177
 21
645.216605891
 31
0.0
  0
ARC
  8
0
  6
CONTINUOUS
 62
     1
 10
1450.999951268
 20
647.148457544
 30
0.0
 40
2.0
 50
255.0
 51
345.0
  0
ARC
  8
0
  6
CONTINUOUS
 62
     1
 10
1475.328941507
 20
737.945485215
 30
0.0
 40
2.0
 50
345.0
 51
75.0
  0
LINE
  8
0
  6
CONTINUOUS
 62
     1
 10
1455.721215372
 20
734.31511455
 30
0.0
 11
1457.942276634
 21
742.604228027
 31
0.0
  0
LINE
  8
0
  6
CONTINUOUS
 62
     1
 10
1433.613286394
 20
651.807200356
 30
0.0
 11
1435.834347656
 21
660.096313832
 31
0.0
  0
LINE
  8
0
  6
CONTINUOUS
 62
     1
 10
1475.707878889
 20
731.632292167
 30
0.0
 11
1477.26079316
 21
737.427847125
 31
0.0
  0
LINE
  8
0
  6
CONTINUOUS
 62
     1
 10
1452.93180292
 20
646.630819454
 30
0.0
 11
1454.484717191
 21
652.426374411
 31
0.0
  0
ARC
  8
0
  6
CONTINUOUS
 62
     1
 10
1482.0
 20
687.5
 30
0.0
 40
43.5
 50
254.999979886
 51
274.519344521
  0
ARC
  8
0
  6
CONTINUOUS
 62
     1
 10
1482.0
 20
687.5
 30
0.0
 40
43.5
 50
55.480655479
 51
75.000020114
  0
ARC
  8
0
  6
CONTINUOUS
 62
     1
 10
1482.0
 20
687.5
 30
0.0
 40
43.5
 50
308.024948378
 51
21.428579014
  0
LINE
  8
0
  6
CONTINUOUS
 62
     1
 10
1476.354926502
 20
734.047106733
 30
0.0
 11
1493.258613723
 21
729.517777393
 31
0.0
  0
LINE
  8
0
  6
CONTINUOUS
 62
     1
 10
1453.837669578
 20
650.011559846
 30
0.0
 11
1470.741356799
 21
645.482230506
 31
0.0
  0
LINE
  8
0
  6
CONTINUOUS
 62
     1
 10
1478.5
 20
735.3
 30
0.0
 11
1485.5
 21
735.3
 31
0.0
  0
LINE
  8
0
  6
CONTINUOUS
 62
     1
 10
1485.5
 20
738.179285709
 30
0.0
 11
1485.5
 21
735.3
 31
0.0
  0
LINE
  8
0
  6
CONTINUOUS
 62
     1
 10
1478.5
 20
738.179285709
 30
0.0
 11
1478.5
 21
735.3
 31
0.0
  0
ARC
  8
0
  6
CONTINUOUS
 62
     1
 10
1482.0
 20
687.5
 30
0.0
 40
50.8
 50
93.950673643
 51
96.2156359
  0
LINE
  8
0
  6
CONTINUOUS
 62
     1
 10
1525.146014301
 20
666.631088913
 30
0.0
 11
1521.646014301
 21
660.568911087
 31
0.0
  0
LINE
  8
0
  6
CONTINUOUS
 62
     1
 10
1527.63954887
 20
665.191446059
 30
0.0
 11
1525.146014301
 21
666.631088913
 31
0.0
  0
LINE
  8
0
  6
CONTINUOUS
 62
     1
 10
1524.13954887
 20
659.129268232
 30
0.0
 11
1521.646014301
 21
660.568911087
 31
0.0
  0
ARC
  8
0
  6
CONTINUOUS
 62
     1
 10
1482.0
 20
687.5
 30
0.0
 40
50.8
 50
299.109855557
 51
326.049326357
  0
ARC
  8
0
  6
CONTINUOUS
 62
     1
 10
1482.0
 20
687.5
 30
0.0
 40
50.8
 50
234.264523985
 51
290.955776731
  0
LINE
  8
0
  6
CONTINUOUS
 62
     1
 10
1514.0
 20
671.696010162
 30
0.0
 11
1514.885301409
 21
675.0
 31
0.0
  0
ARC
  8
0
  6
CONTINUOUS
 62
     1
 10
1482.0
 20
687.5
 30
0.0
 40
50.8
 50
38.812254591
 51
86.049326357
  0
ARC
  8
0
  6
CONTINUOUS
 62
     1
 10
1482.0
 20
687.5
 30
0.0
 40
50.8
 50
333.950673643
 51
31.450865162
  0
LINE
  8
0
  6
CONTINUOUS
 62
     1
 10
1437.0
 20
628.0
 30
0.0
 11
1437.0
 21
648.829180819
 31
0.0
  0
LINE
  8
0
  6
LTYPE1
 62
     2
 10
1402.0
 20
675.97461494
 30
0.0
 11
1402.0
 21
708.5
 31
0.0
  0
LINE
  8
0
  6
CONTINUOUS
 62
     1
 10
1402.0
 20
666.5
 30
0.0
 11
1402.0
 21
672.97461494
 31
0.0
  0
LINE
  8
0
  6
CONTINUOUS
 62
     1
 10
1402.0
 20
666.5
 30
0.0
 11
1429.721040822
 21
663.166813483
 31
0.0
  0
LINE
  8
0
  6
CONTINUOUS
 62
     2
 10
1724.32
 20
706.5
 30
0.0
 11
1868.32
 21
706.5
 31
0.0
  0
TEXT
  8
0
  6
CONTINUOUS
 62
     2
 10
1736.92
 20
714.9
 30
12.0
 40
24.0
  1
特記事項
 50
0.0
 41
0.9
 51
0.0
  7
KANJI42
  0
TEXT
  8
0
  6
CONTINUOUS
 62
     2
 10
1730.92
 20
595.2
 30
1.8
 40
21.0
  1
３．ＬＳユニット
 50
0.0
 41
0.857142857
 51
0.0
  7
KANJI43
  0
TEXT
  8
0
  6
CONTINUOUS
 62
     2
 10
1730.92
 20
670.2
 30
1.8
 40
21.0
  1
１．運転時は必ずピストンロッドの回転防止を行って下さい。
 50
0.0
 41
0.857142857
 51
0.0
  7
KANJI43
  0
TEXT
  8
0
  6
CONTINUOUS
 62
     2
 10
1730.92
 20
632.7
 30
1.8
 40
21.0
  1
２．モートル：全閉自冷かご形３０分定格
 50
0.0
 41
0.857142857
 51
0.0
  7
KANJI43
  0
TEXT
  8
0
  6
CONTINUOUS
 62
     2
 10
1730.92
 20
502.2
 30
1.8
 40
21.0
  1
４．呼称ストロークは、機械的ストロークです。
 50
0.0
 41
0.857142857
 51
0.0
  7
KANJI43
  0
TEXT
  8
0
  6
CONTINUOUS
 62
     2
 10
1730.92
 20
535.2
 30
1.8
 40
21.0
  1
　　ストローク７００ｍｍ以上の場合２ロッド方式となります。
 50
0.0
 41
0.857142857
 51
0.0
  7
KANJI43
  0
TEXT
  8
0
  6
CONTINUOUS
 62
     2
 10
1730.92
 20
565.2
 30
1.8
 40
21.0
  1
　　リミットスイッチ：１ＬＳ１－Ｊｘ２ケ（山武）
 50
0.0
 41
0.857142857
 51
0.0
  7
KANJI43
  0
TEXT
  8
0
  6
CONTINUOUS
 62
     2
 10
1730.92
 20
465.24
 30
1.8
 40
21.0
  1
　　必ず、常用はストローク両端に必ず余裕を取って下さい。
 50
0.0
 41
0.857142857
 51
0.0
  7
KANJI43
  0
LINE
  8
0
  6
CONTINUOUS
 62
     1
 10
1321.322294753
 20
713.762575811
 30
0.0
 11
1308.567368687
 21
666.160543685
 31
0.0
  0
LINE
  8
0
  6
LTYPE5
 62
     2
 10
1330.433594693
 20
701.401970447
 30
0.0
 11
1343.374546948
 21
749.698261762
 31
0.0
  0
ARC
  8
0
  6
LTYPE1
 62
     1
 10
1337.111126057
 20
726.322856765
 30
0.0
 40
16.0
 50
255.0
 51
129.340912304
  0
ARC
  8
0
  6
CONTINUOUS
 62
     1
 10
1337.111126057
 20
726.322856765
 30
0.0
 40
16.0
 50
129.340912304
 51
200.659087696
  0
LINE
  8
0
  6
CONTINUOUS
 62
     1
 10
1328.596768035
 20
710.001653255
 30
0.0
 11
1325.806375205
 21
699.58776544
 31
0.0
  0
LINE
  8
0
  6
LTYPE3
 62
     2
 10
1319.184524248
 20
710.420751635
 30
0.0
 11
1337.730300112
 21
705.451425969
 31
0.0
  0
LINE
  8
0
  6
LTYPE1
 62
     2
 10
1330.818671407
 20
716.362057877
 30
0.0
 11
1337.580152191
 21
714.550324562
 31
0.0
  0
LINE
  8
0
  6
LTYPE1
 62
     2
 10
1337.580152191
 20
714.550324562
 30
0.0
 11
1335.630921258
 21
707.275695683
 31
0.0
  0
ARC
  8
0
  6
LTYPE1
 62
     1
 10
1337.111126057
 20
726.322856765
 30
0.0
 40
16.0
 50
200.659087696
 51
255.0
  0
LINE
  8
0
  6
LTYPE1
 62
     1
 10
1321.637730465
 20
714.939797912
 30
0.0
 11
1321.322294753
 21
713.762575811
 31
0.0
  0
LINE
  8
0
  6
LTYPE1
 62
     1
 10
1329.365137075
 20
712.869245551
 30
0.0
 11
1328.596768035
 21
710.001653255
 31
0.0
  0
LINE
  8
0
  6
LTYPE1
 62
     1
 10
1321.637730465
 20
714.939797912
 30
0.0
 11
1331.216494909
 21
712.373175715
 31
0.0
  0
CIRCLE
  8
0
  6
CONTINUOUS
 62
     1
 10
1337.111126057
 20
726.322856765
 30
0.0
 40
6.49995
  0
CIRCLE
  8
0
  6
LTYPE1
 62
     2
 10
1337.111126057
 20
726.322856765
 30
0.0
 40
3.2
  0
CIRCLE
  8
0
  6
CONTINUOUS
 62
     1
 10
1337.111126057
 20
726.322856765
 30
0.0
 40
4.0
  0
LINE
  8
0
  6
CONTINUOUS
 62
     1
 10
1339.048168253
 20
719.074584464
 30
0.0
 11
1331.809462156
 21
721.014189917
 31
0.0
  0
LINE
  8
0
  6
CONTINUOUS
 62
     1
 10
1331.809462156
 20
721.014189917
 30
0.0
 11
1329.872419959
 21
728.262462219
 31
0.0
  0
LINE
  8
0
  6
CONTINUOUS
 62
     1
 10
1339.048168253
 20
719.074584464
 30
0.0
 11
1344.349832154
 21
724.383251312
 31
0.0
  0
LINE
  8
0
  6
CONTINUOUS
 62
     1
 10
1335.630921258
 20
707.275695683
 30
0.0
 11
1333.050818902
 21
697.646622602
 31
0.0
  0
LINE
  8
0
  6
CONTINUOUS
 62
     1
 10
1335.17408386
 20
733.571129067
 30
0.0
 11
1329.872419959
 21
728.262462219
 31
0.0
  0
LINE
  8
0
  6
CONTINUOUS
 62
     1
 10
1342.412789958
 20
731.631523613
 30
0.0
 11
1344.349832154
 21
724.383251312
 31
0.0
  0
LINE
  8
0
  6
CONTINUOUS
 62
     1
 10
1342.412789958
 20
731.631523613
 30
0.0
 11
1335.17408386
 21
733.571129067
 31
0.0
  0
LINE
  8
0
  6
LTYPE1
 62
     2
 10
1336.642099922
 20
738.095388969
 30
0.0
 11
1343.403580706
 21
736.283655653
 31
0.0
  0
LINE
  8
0
  6
LTYPE1
 62
     2
 10
1345.352811639
 20
743.558284533
 30
0.0
 11
1343.403580706
 21
736.283655653
 31
0.0
  0
LINE
  8
7
  6
CONTINUOUS
 62
     2
 10
1319.917646349
 20
730.929835768
 30
0.0
 11
1318.324070101
 21
740.802044981
 31
0.0
  0
LINE
  8
7
  6
CONTINUOUS
 62
     2
 10
1319.917646349
 20
730.929835768
 30
0.0
 11
1313.601464229
 21
738.682631614
 31
0.0
  0
LINE
  8
7
  6
CONTINUOUS
 62
     2
 10
1314.122091391
 20
732.482750039
 30
0.0
 11
1299.40438023
 21
736.426348859
 31
0.0
  0
LINE
  8
7
  6
CONTINUOUS
 62
     2
 10
1305.199935188
 20
734.873434588
 30
0.0
 11
1300.199935188
 21
726.21318055
 31
0.0
  0
LINE
  8
7
  6
CONTINUOUS
 62
     2
 10
1305.199935188
 20
734.873434588
 30
0.0
 11
1305.199935188
 21
724.873434588
 31
0.0
  0
ARC
  8
7
  6
CONTINUOUS
 62
     2
 10
1469.442964258
 20
690.864647586
 30
0.0
 40
170.036895795
 50
165.0
 51
180.0
  0
LINE
  8
0
  6
LTYPE5
 62
     2
 10
1313.5
 20
732.649438925
 30
0.0
 11
1489.163497148
 21
685.580546724
 31
0.0
  0
LINE
  8
0
  6
CONTINUOUS
 62
     1
 10
1321.318852251
 20
717.613431523
 30
0.0
 11
1327.789328379
 21
741.76157718
 31
0.0
  0
LINE
  8
0
  6
CONTINUOUS
 62
     1
 10
1329.987355887
 20
713.25954612
 30
0.0
 11
1326.289338118
 21
699.458355917
 31
0.0
  0
LINE
  8
0
  6
LTYPE1
 62
     2
 10
1330.818671407
 20
716.362057877
 30
0.0
 11
1329.987355887
 21
713.25954612
 31
0.0
  0
LINE
  8
0
  6
CONTINUOUS
 62
     1
 10
1327.789328379
 20
741.76157718
 30
0.0
 11
1468.463435192
 21
733.573435005
 31
0.0
  0
LINE
  8
0
  6
CONTINUOUS
 62
     1
 10
1321.318852251
 20
717.613431523
 30
0.0
 11
1447.240273494
 21
654.36751725
 31
0.0
  0
LINE
  8
0
  6
CONTINUOUS
 62
     1
 10
1382.835718001
 20
738.557521547
 30
0.0
 11
1398.066656155
 21
795.400156585
 31
0.0
  0
LINE
  8
0
  6
CONTINUOUS
 62
     1
 10
1403.862211113
 20
793.847242314
 30
0.0
 11
1388.951983515
 21
738.201515365
 31
0.0
  0
LINE
  8
0
  6
CONTINUOUS
 62
     1
 10
1389.461672308
 20
738.171848183
 30
0.0
 11
1392.051269384
 21
747.836356043
 31
0.0
  0
LINE
  8
0
  6
LTYPE2
 62
     2
 10
1469.004464167
 20
639.0
 30
0.0
 11
1493.882308775
 21
731.84538006
 31
0.0
  0
LINE
  8
0
  6
CONTINUOUS
 62
     1
 10
1494.060469589
 20
726.71473031
 30
0.0
 11
1526.418984769
 21
718.044292299
 31
0.0
  0
LINE
  8
0
  6
CONTINUOUS
 62
     1
 10
1468.463435192
 20
733.573435005
 30
0.0
 11
1491.16269211
 21
727.491187446
 31
0.0
  0
LINE
  8
0
  6
CONTINUOUS
 62
     1
 10
1487.14581554
 20
712.5
 30
0.0
 11
1491.16269211
 21
727.491187446
 31
0.0
  0
LINE
  8
0
  6
CONTINUOUS
 62
     1
 10
1490.251644081
 20
712.5
 30
0.0
 11
1494.060469589
 21
726.71473031
 31
0.0
  0
LINE
  8
0
  6
CONTINUOUS
 62
     1
 10
1447.240273494
 20
654.36751725
 30
0.0
 11
1469.939530411
 21
648.28526969
 31
0.0
  0
LINE
  8
0
  6
CONTINUOUS
 62
     1
 10
1469.939530411
 20
648.28526969
 30
0.0
 11
1473.748355919
 21
662.5
 31
0.0
  0
LINE
  8
0
  6
CONTINUOUS
 62
     1
 10
1472.83730789
 20
647.508812554
 30
0.0
 11
1476.85418446
 21
662.5
 31
0.0
  0
LINE
  8
0
  6
CONTINUOUS
 62
     1
 10
1472.83730789
 20
647.508812554
 30
0.0
 11
1505.195823071
 21
638.838374544
 31
0.0
  0
LINE
  8
0
  6
CONTINUOUS
 62
     1
 10
1505.195823071
 20
638.838374544
 30
0.0
 11
1512.339784081
 21
665.5
 31
0.0
  0
LINE
  8
0
  6
CONTINUOUS
 62
     1
 10
1520.0
 20
694.088315007
 30
0.0
 11
1526.418984769
 21
718.044292299
 31
0.0
  0
LINE
  8
0
  6
LTYPE3
 62
     2
 10
1307.031178551
 20
674.336735944
 30
0.0
 11
1363.054876475
 21
659.325231328
 31
0.0
  0
LINE
  8
0
  6
CONTINUOUS
 62
     1
 10
1312.449654363
 20
680.649431079
 30
0.0
 11
1338.722836839
 21
673.609553052
 31
0.0
  0
LINE
  8
0
  6
CONTINUOUS
 62
     1
 10
1308.567368687
 20
666.160543685
 30
0.0
 11
1334.840551162
 21
659.120665658
 31
0.0
  0
LINE
  8
0
  6
CONTINUOUS
 62
     1
 10
1355.361513714
 20
636.022395247
 30
0.0
 11
1361.157068671
 21
634.469480977
 31
0.0
  0
LINE
  8
0
  6
LTYPE3
 62
     2
 10
1361.078560547
 20
644.222113261
 30
0.0
 11
1315.680046711
 21
656.386608381
 31
0.0
  0
LINE
  8
0
  6
LTYPE3
 62
     2
 10
1324.4623077
 20
685.29874929
 30
0.0
 11
1369.860821535
 21
673.13425417
 31
0.0
  0
LINE
  8
0
  6
CONTINUOUS
 62
     1
 10
1366.878961221
 20
679.006094517
 30
0.0
 11
1356.526199416
 21
640.369061466
 31
0.0
  0
LINE
  8
0
  6
CONTINUOUS
 62
     1
 10
1356.526199416
 20
640.369061466
 30
0.0
 11
1356.622791999
 21
640.343179561
 31
0.0
  0
LINE
  8
0
  6
CONTINUOUS
 62
     1
 10
1317.889166365
 20
650.72182327
 30
0.0
 11
1356.526199416
 21
640.369061466
 31
0.0
  0
LINE
  8
0
  6
CONTINUOUS
 62
     1
 10
1366.878961221
 20
679.006094517
 30
0.0
 11
1328.241928169
 21
689.358856321
 31
0.0
  0
LINE
  8
0
  6
CONTINUOUS
 62
     1
 10
1325.34415069
 20
690.135313457
 30
0.0
 11
1322.108912626
 21
678.061240628
 31
0.0
  0
LINE
  8
0
  6
CONTINUOUS
 62
     1
 10
1339.551057783
 20
676.700515696
 30
0.0
 11
1334.012330218
 21
656.029703014
 31
0.0
  0
ARC
  8
0
  6
CONTINUOUS
 62
     1
 10
1341.482909435
 20
676.182877606
 30
0.0
 40
2.0
 50
75.0
 51
165.0
  0
LINE
  8
0
  6
CONTINUOUS
 62
     1
 10
1335.42654378
 20
653.580213271
 30
0.0
 11
1356.097356463
 21
648.041485706
 31
0.0
  0
ARC
  8
0
  6
CONTINUOUS
 62
     1
 10
1356.614994553
 20
649.973337358
 30
0.0
 40
2.0
 50
255.0
 51
345.0
  0
LINE
  8
0
  6
LTYPE3
 62
     2
 10
1345.399603458
 20
649.458553332
 30
0.0
 11
1352.750064339
 21
676.890846798
 31
0.0
  0
LINE
  8
0
  6
CONTINUOUS
 62
     1
 10
1333.0715573
 20
688.064761096
 30
0.0
 11
1329.810437332
 21
675.894095685
 31
0.0
  0
LINE
  8
0
  6
CONTINUOUS
 62
     1
 10
1328.241928169
 20
689.358856321
 30
0.0
 11
1325.006690105
 21
677.284783493
 31
0.0
  0
LINE
  8
0
  6
CONTINUOUS
 62
     1
 10
1342.000547526
 20
678.114729259
 30
0.0
 11
1362.671360208
 21
672.576001694
 31
0.0
  0
LINE
  8
0
  6
CONTINUOUS
 62
     1
 10
1364.085573771
 20
670.126511951
 30
0.0
 11
1358.546846205
 21
649.455699268
 31
0.0
  0
ARC
  8
0
  6
CONTINUOUS
 62
     1
 10
1362.153722118
 20
670.644150041
 30
0.0
 40
2.0
 50
345.0
 51
75.0
  0
LINE
  8
0
  6
CONTINUOUS
 62
     1
 10
1322.108912626
 20
678.061240628
 30
0.0
 11
1318.22662695
 21
663.572353234
 31
0.0
  0
ARC
  8
0
  6
CONTINUOUS
 62
     1
 10
1335.94418187
 20
655.512064924
 30
0.0
 40
2.0
 50
165.0
 51
255.0
  0
LINE
  8
0
  6
CONTINUOUS
 62
     1
 10
1325.95403356
 20
661.501800873
 30
0.0
 11
1322.718795496
 21
649.427728044
 31
0.0
  0
LINE
  8
0
  6
CONTINUOUS
 62
     1
 10
1321.098522524
 20
662.699303516
 30
0.0
 11
1317.889166365
 21
650.72182327
 31
0.0
  0
LINE
  8
0
  6
CONTINUOUS
 62
     1
 10
1325.709782622
 20
699.613647344
 30
0.0
 11
1325.34415069
 21
690.135313457
 31
0.0
  0
LINE
  8
0
  6
CONTINUOUS
 62
     1
 10
1326.289338118
 20
699.458355917
 30
0.0
 11
1333.050818902
 21
697.646622602
 31
0.0
  0
LINE
  8
0
  6
CONTINUOUS
 62
     1
 10
1376.06729627
 20
690.115207926
 30
0.0
 11
1361.157068671
 21
634.469480977
 31
0.0
  0
LINE
  8
0
  6
CONTINUOUS
 62
     1
 10
1355.361513714
 20
636.022395247
 30
0.0
 11
1370.592451868
 21
692.865030286
 31
0.0
  0
ARC
  8
0
  6
CONTINUOUS
 62
     1
 10
1536.0
 20
741.5
 30
0.0
 40
5.0
 50
0.0
 51
90.0
  0
LINE
  8
0
  6
LTYPE3
 62
     2
 10
1476.4
 20
822.5
 30
0.0
 11
1488.4
 21
822.5
 31
0.0
  0
LINE
  8
0
  6
LTYPE3
 62
     2
 10
1482.0
 20
937.5
 30
0.0
 11
1482.0
 21
868.5
 31
0.0
  0
LINE
  8
0
  6
CONTINUOUS
 62
     1
 10
1512.0
 20
897.5
 30
0.0
 11
1512.0
 21
900.5
 31
0.0
  0
ARC
  8
0
  6
CONTINUOUS
 62
     1
 10
1508.0
 20
894.5
 30
0.0
 40
3.0
 50
90.0
 51
180.0
  0
LINE
  8
0
  6
CONTINUOUS
 62
     1
 10
1505.0
 20
883.653619242
 30
0.0
 11
1505.0
 21
894.5
 31
0.0
  0
ARC
  8
0
  6
CONTINUOUS
 62
     1
 10
1501.0
 20
883.653619242
 30
0.0
 40
4.0
 50
304.936144888
 51
0.0
  0
ARC
  8
0
  6
CONTINUOUS
 62
     1
 10
1456.0
 20
894.5
 30
0.0
 40
3.0
 50
0.0
 51
90.0
  0
LINE
  8
0
  6
CONTINUOUS
 62
     1
 10
1459.0
 20
883.653619242
 30
0.0
 11
1459.0
 21
894.5
 31
0.0
  0
ARC
  8
0
  6
CONTINUOUS
 62
     1
 10
1463.0
 20
883.653619242
 30
0.0
 40
4.0
 50
180.0
 51
235.063855112
  0
CIRCLE
  8
0
  6
CONTINUOUS
 62
     1
 10
1482.0
 20
922.5
 30
0.0
 40
17.0
  0
LINE
  8
0
  6
LTYPE2
 62
     2
 10
1459.0
 20
922.5
 30
0.0
 11
1505.0
 21
922.5
 31
0.0
  0
ARC
  8
0
  6
CONTINUOUS
 62
     1
 10
1440.0
 20
944.520045888
 30
0.0
 40
2.0
 50
90.0
 51
180.0
  0
ARC
  8
0
  6
CONTINUOUS
 62
     1
 10
1448.0
 20
950.5
 30
0.0
 40
2.0
 50
90.0
 51
180.0
  0
LINE
  8
0
  6
CONTINUOUS
 62
     1
 10
1448.0
 20
952.5
 30
0.0
 11
1516.0
 21
952.5
 31
0.0
  0
ARC
  8
0
  6
CONTINUOUS
 62
     1
 10
1516.0
 20
950.5
 30
0.0
 40
2.0
 50
0.0
 51
90.0
  0
LINE
  8
0
  6
CONTINUOUS
 62
     1
 10
1524.0
 20
946.520045888
 30
0.0
 11
1440.0
 21
946.520045888
 31
0.0
  0
ARC
  8
0
  6
CONTINUOUS
 62
     1
 10
1524.0
 20
944.520045888
 30
0.0
 40
2.0
 50
0.0
 51
90.0
  0
ARC
  8
0
  6
CONTINUOUS
 62
     1
 10
1440.0
 20
948.520045888
 30
0.0
 40
2.0
 50
90.0
 51
180.0
  0
ARC
  8
0
  6
CONTINUOUS
 62
     1
 10
1448.0
 20
941.5
 30
0.0
 40
2.0
 50
90.0
 51
180.0
  0
LINE
  8
0
  6
CONTINUOUS
 62
     1
 10
1448.0
 20
943.5
 30
0.0
 11
1516.0
 21
943.5
 31
0.0
  0
ARC
  8
0
  6
CONTINUOUS
 62
     1
 10
1516.0
 20
941.5
 30
0.0
 40
2.0
 50
0.0
 51
90.0
  0
LINE
  8
0
  6
CONTINUOUS
 62
     1
 10
1524.0
 20
950.520045888
 30
0.0
 11
1440.0
 21
950.520045888
 31
0.0
  0
ARC
  8
0
  6
CONTINUOUS
 62
     1
 10
1524.0
 20
948.520045888
 30
0.0
 40
2.0
 50
0.0
 51
90.0
  0
LINE
  8
0
  6
CONTINUOUS
 62
     1
 10
1452.0
 20
897.5
 30
0.0
 11
1512.0
 21
897.5
 31
0.0
  0
LINE
  8
0
  6
CONTINUOUS
 62
     1
 10
1452.0
 20
897.5
 30
0.0
 11
1452.0
 21
900.5
 31
0.0
  0
LINE
  8
0
  6
CONTINUOUS
 62
     1
 10
1518.0
 20
902.5
 30
0.0
 11
1524.0
 21
902.5
 31
0.0
  0
LINE
  8
0
  6
CONTINUOUS
 62
     1
 10
1526.0
 20
904.5
 30
0.0
 11
1526.0
 21
948.520045888
 31
0.0
  0
ARC
  8
0
  6
CONTINUOUS
 62
     1
 10
1524.0
 20
904.5
 30
0.0
 40
2.0
 50
270.0
 51
0.0
  0
LINE
  8
0
  6
CONTINUOUS
 62
     1
 10
1518.0
 20
902.5
 30
0.0
 11
1518.0
 21
941.5
 31
0.0
  0
ARC
  8
0
  6
CONTINUOUS
 62
     1
 10
1516.0
 20
902.5
 30
0.0
 40
2.0
 50
270.0
 51
0.0
  0
LINE
  8
0
  6
CONTINUOUS
 62
     1
 10
1446.0
 20
902.5
 30
0.0
 11
1446.0
 21
941.5
 31
0.0
  0
LINE
  8
0
  6
CONTINUOUS
 62
     1
 10
1448.0
 20
900.5
 30
0.0
 11
1516.0
 21
900.5
 31
0.0
  0
ARC
  8
0
  6
CONTINUOUS
 62
     1
 10
1448.0
 20
902.5
 30
0.0
 40
2.0
 50
180.0
 51
270.0
  0
LINE
  8
0
  6
CONTINUOUS
 62
     1
 10
1446.0
 20
902.5
 30
0.0
 11
1440.0
 21
902.5
 31
0.0
  0
LINE
  8
0
  6
CONTINUOUS
 62
     1
 10
1438.0
 20
904.5
 30
0.0
 11
1438.0
 21
948.520045888
 31
0.0
  0
ARC
  8
0
  6
CONTINUOUS
 62
     1
 10
1440.0
 20
904.5
 30
0.0
 40
2.0
 50
180.0
 51
270.0
  0
CIRCLE
  8
0
  6
CONTINUOUS
 62
     2
 10
1482.0
 20
922.5
 30
0.0
 40
15.0
  0
CIRCLE
  8
0
  6
CONTINUOUS
 62
     1
 10
1482.0
 20
822.5
 30
0.0
 40
63.5
  0
ARC
  8
0
  6
CONTINUOUS
 62
     1
 10
1496.987995196
 20
868.1
 30
0.0
 40
8.0
 50
200.487315115
 51
251.805127661
  0
ARC
  8
0
  6
CONTINUOUS
 62
     1
 10
1467.012004804
 20
868.1
 30
0.0
 40
8.0
 50
288.194872339
 51
339.512684885
  0
ARC
  8
0
  6
CONTINUOUS
 62
     1
 10
1482.0
 20
862.5
 30
0.0
 40
8.0
 50
20.487315115
 51
159.512540111
  0
ARC
  8
0
  6
CONTINUOUS
 62
     1
 10
1496.987995196
 20
776.9
 30
0.0
 40
8.0
 50
108.194872339
 51
159.512684885
  0
ARC
  8
0
  6
CONTINUOUS
 62
     1
 10
1467.012004804
 20
776.9
 30
0.0
 40
8.0
 50
20.487315115
 51
71.805127661
  0
ARC
  8
0
  6
CONTINUOUS
 62
     1
 10
1482.0
 20
782.5
 30
0.0
 40
8.0
 50
200.487459889
 51
339.512684885
  0
ARC
  8
0
  6
CONTINUOUS
 62
     1
 10
1482.0
 20
822.5
 30
0.0
 40
40.0
 50
108.194872339
 51
251.805127661
  0
ARC
  8
0
  6
CONTINUOUS
 62
     1
 10
1528.0
 20
822.5
 30
0.0
 40
9.0
 50
278.674045508
 51
81.325934821
  0
CIRCLE
  8
0
  6
CONTINUOUS
 62
     1
 10
1482.0
 20
822.5
 30
0.0
 40
23.0
  0
ARC
  8
0
  6
CONTINUOUS
 62
     1
 10
1482.0
 20
822.5
 30
0.0
 40
40.0
 50
25.554707728
 51
71.805142343
  0
ARC
  8
0
  6
CONTINUOUS
 62
     1
 10
1482.0
 20
822.5
 30
0.0
 40
40.0
 50
288.194857657
 51
334.445306215
  0
LINE
  8
0
  6
CONTINUOUS
 62
     2
 10
1525.0
 20
839.5
 30
0.0
 11
1525.0
 21
803.5
 31
0.0
  0
LINE
  8
0
  6
CONTINUOUS
 62
     1
 10
1526.0
 20
838.6
 30
0.0
 11
1524.0
 21
838.6
 31
0.0
  0
LINE
  8
0
  6
CONTINUOUS
 62
     1
 10
1524.0
 20
838.6
 30
0.0
 11
1522.0
 21
827.0
 31
0.0
  0
LINE
  8
0
  6
CONTINUOUS
 62
     1
 10
1526.0
 20
838.6
 30
0.0
 11
1528.0
 21
827.0
 31
0.0
  0
LINE
  8
0
  6
CONTINUOUS
 62
     1
 10
1526.0
 20
806.4
 30
0.0
 11
1524.0
 21
806.4
 31
0.0
  0
LINE
  8
0
  6
CONTINUOUS
 62
     1
 10
1524.0
 20
806.4
 30
0.0
 11
1522.0
 21
818.0
 31
0.0
  0
LINE
  8
0
  6
CONTINUOUS
 62
     1
 10
1526.0
 20
806.4
 30
0.0
 11
1528.0
 21
818.0
 31
0.0
  0
ARC
  8
0
  6
CONTINUOUS
 62
     1
 10
1531.619565217
 20
846.2254873
 30
0.0
 40
15.0
 50
205.554693785
 51
235.747997449
  0
ARC
  8
0
  6
CONTINUOUS
 62
     1
 10
1531.619565217
 20
846.2254873
 30
0.0
 40
15.0
 50
252.681090544
 51
261.325827457
  0
ARC
  8
0
  6
CONTINUOUS
 62
     1
 10
1531.619565217
 20
798.7745127
 30
0.0
 40
15.0
 50
124.468179449
 51
154.445306215
  0
ARC
  8
0
  6
CONTINUOUS
 62
     1
 10
1531.619565217
 20
798.7745127
 30
0.0
 40
15.0
 50
98.674172543
 51
107.318909456
  0
CIRCLE
  8
0
  6
CONTINUOUS
 62
     1
 10
1525.0
 20
822.5
 30
0.0
 40
3.0
  0
LINE
  8
0
  6
CONTINUOUS
 62
     1
 10
1522.021304702
 20
827.123567272
 30
0.0
 11
1521.978695298
 21
817.876432728
 31
0.0
  0
LINE
  8
0
  6
CONTINUOUS
 62
     1
 10
1528.021304702
 20
817.876432728
 30
0.0
 11
1527.978695298
 21
827.123567272
 31
0.0
  0
ARC
  8
0
  6
CONTINUOUS
 62
     1
 10
1525.0
 20
822.5
 30
0.0
 40
5.5
 50
304.570397879
 51
57.208673154
  0
ARC
  8
0
  6
CONTINUOUS
 62
     1
 10
1525.0
 20
822.5
 30
0.0
 40
5.5
 50
122.791326846
 51
235.429602121
  0
LINE
  8
0
  6
CONTINUOUS
 62
     1
 10
1484.35
 20
869.570319398
 30
0.0
 11
1479.65
 21
869.570319398
 31
0.0
  0
LINE
  8
0
  6
CONTINUOUS
 62
     1
 10
1479.65
 20
869.570319398
 30
0.0
 11
1477.3
 21
865.5
 31
0.0
  0
LINE
  8
0
  6
CONTINUOUS
 62
     1
 10
1477.3
 20
865.5
 30
0.0
 11
1479.65
 21
861.429680602
 31
0.0
  0
LINE
  8
0
  6
CONTINUOUS
 62
     1
 10
1479.65
 20
861.429680602
 30
0.0
 11
1484.35
 21
861.429680602
 31
0.0
  0
LINE
  8
0
  6
CONTINUOUS
 62
     1
 10
1484.35
 20
861.429680602
 30
0.0
 11
1486.7
 21
865.5
 31
0.0
  0
LINE
  8
0
  6
CONTINUOUS
 62
     1
 10
1486.7
 20
865.5
 30
0.0
 11
1484.35
 21
869.570319398
 31
0.0
  0
LINE
  8
0
  6
CONTINUOUS
 62
     2
 10
1488.0
 20
865.5
 30
0.0
 11
1476.0
 21
865.5
 31
0.0
  0
LINE
  8
0
  6
CONTINUOUS
 62
     1
 10
1484.35
 20
775.429680602
 30
0.0
 11
1479.65
 21
775.429680602
 31
0.0
  0
LINE
  8
0
  6
CONTINUOUS
 62
     1
 10
1479.65
 20
775.429680602
 30
0.0
 11
1477.3
 21
779.5
 31
0.0
  0
LINE
  8
0
  6
CONTINUOUS
 62
     1
 10
1477.3
 20
779.5
 30
0.0
 11
1479.65
 21
783.570319398
 31
0.0
  0
LINE
  8
0
  6
CONTINUOUS
 62
     1
 10
1479.65
 20
783.570319398
 30
0.0
 11
1484.35
 21
783.570319398
 31
0.0
  0
LINE
  8
0
  6
CONTINUOUS
 62
     1
 10
1484.35
 20
783.570319398
 30
0.0
 11
1486.7
 21
779.5
 31
0.0
  0
LINE
  8
0
  6
CONTINUOUS
 62
     1
 10
1486.7
 20
779.5
 30
0.0
 11
1484.35
 21
775.429680602
 31
0.0
  0
LINE
  8
0
  6
CONTINUOUS
 62
     2
 10
1488.0
 20
779.5
 30
0.0
 11
1476.0
 21
779.5
 31
0.0
  0
LINE
  8
0
  6
CONTINUOUS
 62
     1
 10
1477.063655198
 20
825.35
 30
0.0
 11
1477.063655198
 21
819.65
 31
0.0
  0
LINE
  8
0
  6
CONTINUOUS
 62
     1
 10
1477.063655198
 20
819.65
 30
0.0
 11
1482.0
 21
816.8
 31
0.0
  0
LINE
  8
0
  6
CONTINUOUS
 62
     1
 10
1482.0
 20
816.8
 30
0.0
 11
1486.936344802
 21
819.65
 31
0.0
  0
LINE
  8
0
  6
CONTINUOUS
 62
     1
 10
1486.936344802
 20
819.65
 30
0.0
 11
1486.936344802
 21
825.35
 31
0.0
  0
LINE
  8
0
  6
CONTINUOUS
 62
     1
 10
1486.936344802
 20
825.35
 30
0.0
 11
1482.0
 21
828.2
 31
0.0
  0
LINE
  8
0
  6
CONTINUOUS
 62
     1
 10
1482.0
 20
828.2
 30
0.0
 11
1477.063655198
 21
825.35
 31
0.0
  0
CIRCLE
  8
0
  6
CONTINUOUS
 62
     1
 10
1482.0
 20
822.5
 30
0.0
 40
6.5
  0
LINE
  8
0
  6
CONTINUOUS
 62
     1
 10
1439.788059223
 20
874.957131306
 30
0.0
 11
1432.288059223
 21
874.957131306
 31
0.0
  0
LINE
  8
0
  6
CONTINUOUS
 62
     1
 10
1432.288059223
 20
874.957131306
 30
0.0
 11
1428.538059223
 21
868.461940777
 31
0.0
  0
LINE
  8
0
  6
CONTINUOUS
 62
     1
 10
1428.538059223
 20
868.461940777
 30
0.0
 11
1432.288059223
 21
861.966750249
 31
0.0
  0
LINE
  8
0
  6
CONTINUOUS
 62
     1
 10
1441.728418262
 20
871.596330864
 30
0.0
 11
1439.788059223
 21
874.957131306
 31
0.0
  0
LINE
  8
0
  6
LTYPE1
 62
     1
 10
1439.788059223
 20
861.966750249
 30
0.0
 11
1443.538059223
 21
868.461940777
 31
0.0
  0
LINE
  8
0
  6
LTYPE1
 62
     1
 10
1443.538059223
 20
868.461940777
 30
0.0
 11
1441.728418262
 21
871.596330864
 31
0.0
  0
LINE
  8
0
  6
LTYPE1
 62
     1
 10
1432.288059223
 20
861.966750249
 30
0.0
 11
1439.788059223
 21
861.966750249
 31
0.0
  0
ARC
  8
0
  6
LTYPE2
 62
     2
 10
1482.0
 20
822.5
 30
0.0
 40
65.0
 50
125.31362776
 51
144.542425518
  0
LINE
  8
0
  6
LTYPE2
 62
     2
 10
1442.903669136
 20
861.596330864
 30
0.0
 11
1430.0
 21
874.5
 31
0.0
  0
LINE
  8
0
  6
CONTINUOUS
 62
     1
 10
1524.211940777
 20
874.957131306
 30
0.0
 11
1531.711940777
 21
874.957131306
 31
0.0
  0
LINE
  8
0
  6
CONTINUOUS
 62
     1
 10
1531.711940777
 20
874.957131306
 30
0.0
 11
1535.461940777
 21
868.461940777
 31
0.0
  0
LINE
  8
0
  6
CONTINUOUS
 62
     1
 10
1535.461940777
 20
868.461940777
 30
0.0
 11
1531.711940777
 21
861.966750249
 31
0.0
  0
LINE
  8
0
  6
CONTINUOUS
 62
     1
 10
1522.271581738
 20
871.596330864
 30
0.0
 11
1524.211940777
 21
874.957131306
 31
0.0
  0
LINE
  8
0
  6
LTYPE1
 62
     1
 10
1524.211940777
 20
861.966750249
 30
0.0
 11
1520.461940777
 21
868.461940777
 31
0.0
  0
LINE
  8
0
  6
LTYPE1
 62
     1
 10
1520.461940777
 20
868.461940777
 30
0.0
 11
1522.271581738
 21
871.596330864
 31
0.0
  0
LINE
  8
0
  6
LTYPE1
 62
     1
 10
1531.711940777
 20
861.966750249
 30
0.0
 11
1524.211940777
 21
861.966750249
 31
0.0
  0
ARC
  8
0
  6
LTYPE2
 62
     2
 10
1482.0
 20
822.5
 30
0.0
 40
65.0
 50
35.457574482
 51
54.68637224
  0
LINE
  8
0
  6
LTYPE2
 62
     2
 10
1521.096330864
 20
861.596330864
 30
0.0
 11
1534.0
 21
874.5
 31
0.0
  0
ARC
  8
0
  6
LTYPE2
 62
     2
 10
1482.0
 20
822.5
 30
0.0
 40
65.0
 50
305.31362776
 51
324.542425518
  0
LINE
  8
0
  6
LTYPE2
 62
     2
 10
1521.096330864
 20
783.403669136
 30
0.0
 11
1534.0
 21
770.5
 31
0.0
  0
ARC
  8
0
  6
CONTINUOUS
 62
     1
 10
1482.0
 20
822.5
 30
0.0
 40
80.0
 50
110.364134806
 51
0.0
  0
ARC
  8
0
  6
CONTINUOUS
 62
     1
 10
1482.0
 20
822.5
 30
0.0
 40
80.0
 50
0.0
 51
69.635865194
  0
ARC
  8
0
  6
LTYPE1
 62
     1
 10
1482.0
 20
822.5
 30
0.0
 40
80.0
 50
69.635865194
 51
110.364134806
  0
LINE
  8
0
  6
CONTINUOUS
 62
     1
 10
1457.020008006
 20
746.5
 30
0.0
 11
1428.0
 21
746.5
 31
0.0
  0
LINE
  8
0
  6
CONTINUOUS
 62
     2
 10
1519.122218677
 20
952.5
 30
0.0
 11
1638.372218677
 21
952.5
 31
0.0
  0
LINE
  8
0
  6
CONTINUOUS
 62
     2
 10
1645.872218677
 20
822.5
 30
0.0
 11
1642.636980613
 21
810.425927171
 31
0.0
  0
LINE
  8
0
  6
CONTINUOUS
 62
     2
 10
1645.872218677
 20
822.5
 30
0.0
 11
1649.10745674
 21
810.425927171
 31
0.0
  0
LINE
  8
0
  6
CONTINUOUS
 62
     2
 10
1625.0
 20
822.5
 30
0.0
 11
1653.372218677
 21
822.5
 31
0.0
  0
LINE
  8
0
  6
CONTINUOUS
 62
     2
 10
1645.872218677
 20
822.5
 30
0.0
 11
1649.10745674
 21
834.574072829
 31
0.0
  0
LINE
  8
0
  6
CONTINUOUS
 62
     2
 10
1645.872218677
 20
822.5
 30
0.0
 11
1642.636980613
 21
834.574072829
 31
0.0
  0
LINE
  8
0
  6
LTYPE5
 62
     2
 10
1613.872218677
 20
822.5
 30
0.0
 11
1647.0
 21
822.5
 31
0.0
  0
LINE
  8
0
  6
CONTINUOUS
 62
     2
 10
1681.622218677
 20
952.5
 30
0.0
 11
1678.386980613
 21
940.425927171
 31
0.0
  0
LINE
  8
0
  6
CONTINUOUS
 62
     2
 10
1681.622218677
 20
952.5
 30
0.0
 11
1684.85745674
 21
940.425927171
 31
0.0
  0
LINE
  8
0
  6
CONTINUOUS
 62
     2
 10
1638.372218677
 20
952.5
 30
0.0
 11
1689.122218677
 21
952.5
 31
0.0
  0
LINE
  8
0
  6
CONTINUOUS
 62
     2
 10
1645.872218677
 20
952.5
 30
0.0
 11
1642.636980613
 21
940.425927171
 31
0.0
  0
LINE
  8
0
  6
CONTINUOUS
 62
     2
 10
1645.872218677
 20
952.5
 30
0.0
 11
1649.10745674
 21
940.425927171
 31
0.0
  0
LINE
  8
0
  6
CONTINUOUS
 62
     2
 10
1645.872218677
 20
822.5
 30
0.0
 11
1645.872218677
 21
952.5
 31
0.0
  0
TEXT
  8
0
  6
CONTINUOUS
 62
     2
 10
1640.872218677
 20
743.75
 30
0.0
 40
18.0
  1
１３５
 50
90.0
 41
0.9
 51
0.0
  7
KANJI34
  0
TEXT
  8
0
  6
CONTINUOUS
 62
     2
 10
1640.872218677
 20
868.85
 30
0.0
 40
18.0
  1
１３０
 50
90.0
 41
0.9
 51
0.0
  7
KANJI34
  0
TEXT
  8
0
  6
CONTINUOUS
 62
     2
 10
1676.622218677
 20
755.35
 30
0.0
 40
18.0
  1
３７６
 50
90.0
 41
0.9
 51
0.0
  7
KANJI34
  0
LINE
  8
0
  6
LTYPE5
 62
     2
 10
1586.0
 20
822.5
 30
0.0
 11
1586.372218677
 21
822.5
 31
0.0
  0
LINE
  8
0
  6
LTYPE5
 62
     2
 10
1368.324000264
 20
822.5
 30
0.0
 11
1576.0
 21
822.5
 31
0.0
  0
LINE
  8
0
  6
CONTINUOUS
 62
     1
 10
1460.391766377
 20
744.018441589
 30
0.0
 11
1475.846579597
 21
739.877336868
 31
0.0
  0
ARC
  8
0
  6
CONTINUOUS
 62
     1
 10
1459.874128287
 20
742.086589937
 30
0.0
 40
2.0
 50
75.0
 51
165.0
  0
LINE
  8
0
  6
LTYPE3
 62
     2
 10
1335.12233613
 20
786.901769884
 30
0.0
 11
1391.146034055
 21
771.890265268
 31
0.0
  0
LINE
  8
0
  6
LTYPE3
 62
     2
 10
1354.485316932
 20
797.346145139
 30
0.0
 11
1399.883830767
 21
785.181650019
 31
0.0
  0
LINE
  8
0
  6
CONTINUOUS
 62
     1
 10
1396.901970452
 20
791.053490367
 30
0.0
 11
1358.264937401
 21
801.406252171
 31
0.0
  0
CIRCLE
  8
0
  6
CONTINUOUS
 62
     1
 10
1370.861591703
 20
777.325465215
 30
0.0
 40
9.36
  0
LINE
  8
0
  6
LTYPE3
 62
     2
 10
1374.226239289
 20
789.882500957
 30
0.0
 11
1367.496944116
 21
764.768429473
 31
0.0
  0
CIRCLE
  8
0
  6
CONTINUOUS
 62
     2
 10
1370.861591703
 20
777.325465215
 30
0.0
 40
10.47
  0
LINE
  8
0
  6
LTYPE3
 62
     2
 10
1327.219064069
 20
749.678950395
 30
0.0
 11
1348.083061916
 21
744.088459021
 31
0.0
  0
LINE
  8
0
  6
CONTINUOUS
 62
     1
 10
1337.898077468
 20
744.714612637
 30
0.0
 11
1340.688470298
 21
755.128500452
 31
0.0
  0
LINE
  8
0
  6
CONTINUOUS
 62
     1
 10
1329.717737529
 20
745.094794802
 30
0.0
 11
1342.472663595
 21
792.696826929
 31
0.0
  0
LINE
  8
0
  6
LTYPE1
 62
     1
 10
1337.129708428
 20
741.84702034
 30
0.0
 11
1337.898077468
 21
744.714612637
 31
0.0
  0
LINE
  8
0
  6
LTYPE1
 62
     1
 10
1329.402301818
 20
743.917572701
 30
0.0
 11
1338.981066262
 21
741.350950504
 31
0.0
  0
LINE
  8
0
  6
LTYPE1
 62
     2
 10
1338.176141971
 20
743.820511835
 30
0.0
 11
1337.612671341
 21
741.717610818
 31
0.0
  0
LINE
  8
0
  6
CONTINUOUS
 62
     1
 10
1341.171433211
 20
754.999090929
 30
0.0
 11
1347.932913995
 21
753.187357613
 31
0.0
  0
LINE
  8
0
  6
CONTINUOUS
 62
     1
 10
1340.591877716
 20
755.154382356
 30
0.0
 11
1345.014398118
 21
763.545676255
 31
0.0
  0
LINE
  8
0
  6
CONTINUOUS
 62
     1
 10
1347.932913995
 20
753.187357613
 30
0.0
 11
1344.638898324
 21
740.893923767
 31
0.0
  0
LINE
  8
0
  6
CONTINUOUS
 62
     1
 10
1338.590377919
 20
778.207939534
 30
0.0
 11
1351.147413661
 21
774.843291948
 31
0.0
  0
LINE
  8
0
  6
CONTINUOUS
 62
     1
 10
1345.014398118
 20
763.545676255
 30
0.0
 11
1348.249636182
 21
775.619749083
 31
0.0
  0
LINE
  8
0
  6
CONTINUOUS
 62
     1
 10
1363.094566532
 20
800.112156945
 30
0.0
 11
1352.741804728
 21
761.475123894
 31
0.0
  0
LINE
  8
0
  6
CONTINUOUS
 62
     1
 10
1361.782218313
 20
795.214406712
 30
0.0
 11
1352.741804728
 21
761.475123894
 31
0.0
  0
LINE
  8
0
  6
CONTINUOUS
 62
     1
 10
1358.264937401
 20
801.406252171
 30
0.0
 11
1347.912175597
 21
762.769219119
 31
0.0
  0
LINE
  8
0
  6
CONTINUOUS
 62
     1
 10
1342.472663595
 20
792.696826929
 30
0.0
 11
1355.029699337
 21
789.332179342
 31
0.0
  0
LINE
  8
0
  6
LTYPE3
 62
     2
 10
1391.101569779
 20
756.269509111
 30
0.0
 11
1345.703055943
 21
768.43400423
 31
0.0
  0
LINE
  8
0
  6
CONTINUOUS
 62
     1
 10
1347.912175597
 20
762.769219119
 30
0.0
 11
1386.549208648
 21
752.416457315
 31
0.0
  0
LINE
  8
0
  6
CONTINUOUS
 62
     1
 10
1373.363707665
 20
768.890453911
 30
0.0
 11
1385.920743407
 21
765.525806324
 31
0.0
  0
LINE
  8
0
  6
CONTINUOUS
 62
     1
 10
1393.038267147
 20
792.088766547
 30
0.0
 11
1382.685505343
 21
753.451733496
 31
0.0
  0
LINE
  8
0
  6
CONTINUOUS
 62
     1
 10
1377.245993342
 20
783.379341305
 30
0.0
 11
1389.803029084
 21
780.014693719
 31
0.0
  0
LINE
  8
0
  6
CONTINUOUS
 62
     1
 10
1379.787727864
 20
754.228190631
 30
0.0
 11
1383.022965928
 21
766.302263459
 31
0.0
  0
LINE
  8
0
  6
LTYPE1
 62
     1
 10
1341.959337559
 20
740.552925115
 30
0.0
 11
1342.274773271
 21
741.730147215
 31
0.0
  0
LINE
  8
0
  6
CONTINUOUS
 62
     1
 10
1341.171433211
 20
754.999090929
 30
0.0
 11
1337.473415442
 21
741.197900726
 31
0.0
  0
LINE
  8
0
  6
CONTINUOUS
 62
     1
 10
1398.066656155
 20
795.400156585
 30
0.0
 11
1403.862211113
 21
793.847242314
 31
0.0
  0
LINE
  8
0
  6
CONTINUOUS
 62
     1
 10
1392.051269384
 20
747.836356043
 30
0.0
 11
1419.09719252
 21
740.58942278
 31
0.0
  0
TEXT
  8
0
  6
CONTINUOUS
 62
     2
 10
315.632591263
 20
345.871507451
 30
0.0
 40
20.0
  1
推力リミッタの作動値は、約１２００ｋｇ（設計値）
 50
0.0
 41
0.925
 51
0.0
  7
KANJI44
  0
LINE
  8
0
  6
CONTINUOUS
 62
     2
 10
313.632591263
 20
337.871507451
 30
0.0
 11
752.92
 21
337.871507451
 31
0.0
  0
TEXT
  8
0
  6
CONTINUOUS
 62
     2
 10
1730.92
 20
427.464
 30
1.8
 40
21.0
  1
　　前後の推奨余裕寸法は、各々１５ｍｍです。
 50
0.0
 41
0.857142857
 51
0.0
  7
KANJI43
  0
TEXT
  8
0
  6
CONTINUOUS
 62
     3
 10
194.466667
 20
917.766683
 30
1.5
 40
15.0
  1
手動軸□８
 50
0.0
 41
0.9
 51
0.0
  7
KANJI45
  0
LINE
  8
0
  6
CONTINUOUS
 62
     1
 10
963.182501379
 20
548.5
 30
0.0
 11
971.842755417
 21
553.5
 31
0.0
  0
LINE
  8
0
  6
CONTINUOUS
 62
     1
 10
971.832501379
 20
521.5
 30
0.0
 11
971.832501379
 21
553.5
 31
0.0
  0
LINE
  8
0
  6
CONTINUOUS
 62
     1
 10
963.182501379
 20
526.5
 30
0.0
 11
963.182501379
 21
548.5
 31
0.0
  0
LINE
  8
0
  6
CONTINUOUS
 62
     1
 10
971.832501379
 20
553.5
 30
0.0
 11
996.532501379
 21
553.5
 31
0.0
  0
LINE
  8
0
  6
CONTINUOUS
 62
     1
 10
1005.182501379
 20
548.5
 30
0.0
 11
996.522247342
 21
553.5
 31
0.0
  0
LINE
  8
0
  6
CONTINUOUS
 62
     1
 10
1005.182501379
 20
526.5
 30
0.0
 11
1005.182501379
 21
548.5
 31
0.0
  0
LINE
  8
0
  6
CONTINUOUS
 62
     1
 10
996.532501379
 20
521.5
 30
0.0
 11
996.532501379
 21
553.5
 31
0.0
  0
LINE
  8
0
  6
CONTINUOUS
 62
     1
 10
971.832501379
 20
521.5
 30
0.0
 11
996.532501379
 21
521.5
 31
0.0
  0
LINE
  8
0
  6
CONTINUOUS
 62
     1
 10
1005.182501379
 20
526.5
 30
0.0
 11
996.522247342
 21
521.5
 31
0.0
  0
LINE
  8
0
  6
CONTINUOUS
 62
     1
 10
963.182501379
 20
526.5
 30
0.0
 11
971.842755417
 21
521.5
 31
0.0
  0
LINE
  8
0
  6
CONTINUOUS
 62
     1
 10
946.682501379
 20
243.6
 30
0.0
 11
955.342755417
 21
248.6
 31
0.0
  0
LINE
  8
0
  6
CONTINUOUS
 62
     1
 10
955.332501379
 20
216.6
 30
0.0
 11
955.332501379
 21
248.6
 31
0.0
  0
LINE
  8
0
  6
CONTINUOUS
 62
     1
 10
946.682501379
 20
221.6
 30
0.0
 11
946.682501379
 21
243.6
 31
0.0
  0
LINE
  8
0
  6
CONTINUOUS
 62
     1
 10
955.332501379
 20
248.6
 30
0.0
 11
980.032501379
 21
248.6
 31
0.0
  0
LINE
  8
0
  6
CONTINUOUS
 62
     1
 10
988.682501379
 20
243.6
 30
0.0
 11
980.022247342
 21
248.6
 31
0.0
  0
LINE
  8
0
  6
CONTINUOUS
 62
     1
 10
988.682501379
 20
221.6
 30
0.0
 11
988.682501379
 21
243.6
 31
0.0
  0
LINE
  8
0
  6
CONTINUOUS
 62
     1
 10
980.032501379
 20
216.6
 30
0.0
 11
980.032501379
 21
248.6
 31
0.0
  0
LINE
  8
0
  6
CONTINUOUS
 62
     1
 10
955.332501379
 20
216.6
 30
0.0
 11
980.032501379
 21
216.6
 31
0.0
  0
LINE
  8
0
  6
CONTINUOUS
 62
     1
 10
988.682501379
 20
221.6
 30
0.0
 11
980.022247342
 21
216.6
 31
0.0
  0
LINE
  8
0
  6
CONTINUOUS
 62
     1
 10
946.682501379
 20
221.6
 30
0.0
 11
955.342755417
 21
216.6
 31
0.0
  0
LINE
  8
0
  6
CONTINUOUS
 62
     1
 10
988.682501379
 20
240.6
 30
0.0
 11
1014.991923417
 21
240.6
 31
0.0
  0
LINE
  8
0
  6
CONTINUOUS
 62
     1
 10
1014.991923417
 20
224.6
 30
0.0
 11
988.682501379
 21
224.6
 31
0.0
  0
LINE
  8
0
  6
CONTINUOUS
 62
     1
 10
946.682501379
 20
224.6
 30
0.0
 11
887.182501379
 21
224.6
 31
0.0
  0
LINE
  8
0
  6
CONTINUOUS
 62
     1
 10
887.182501379
 20
240.6
 30
0.0
 11
946.682501379
 21
240.6
 31
0.0
  0
LINE
  8
0
  6
CONTINUOUS
 62
     1
 10
1009.12
 20
1491.24
 30
0.0
 11
1786.72
 21
1491.24
 31
0.0
  0
LINE
  8
0
  6
CONTINUOUS
 62
     1
 10
1009.12
 20
1457.64
 30
0.0
 11
1786.72
 21
1457.64
 31
0.0
  0
TEXT
  8
0
  6
CONTINUOUS
 62
     2
 10
1057.12
 20
1467.24
 30
1.536
 40
15.36
  1
形
 50
0.0
 41
0.9
 51
0.0
  7
KANJI46
  0
TEXT
  8
0
  6
CONTINUOUS
 62
     2
 10
1150.72
 20
1467.24
 30
1.536
 40
15.36
  1
式
 50
0.0
 41
0.9
 51
0.0
  7
KANJI46
  0
TEXT
  8
0
  6
CONTINUOUS
 62
     2
 10
1223.2
 20
1466.28
 30
1.44
 40
14.4
  1
ストローク
 50
0.0
 41
0.9
 51
0.0
  7
KANJI47
  0
TEXT
  8
0
  6
CONTINUOUS
 62
     2
 10
1315.36
 20
1465.32
 30
0.0
 40
14.4
  1
ｍｉｎ　
 50
0.0
 41
0.9
 51
0.0
  7
KANJI48
  0
TEXT
  8
0
  6
CONTINUOUS
 62
     2
 10
1411.36
 20
1465.32
 30
0.0
 40
14.4
  1
ｍｉｎ　
 50
0.0
 41
0.9
 51
0.0
  7
KANJI48
  0
TEXT
  8
0
  6
CONTINUOUS
 62
     2
 10
1603.36
 20
1465.32
 30
0.0
 40
14.4
  1
ｍｉｎ　
 50
0.0
 41
0.9
 51
0.0
  7
KANJI48
  0
TEXT
  8
0
  6
CONTINUOUS
 62
     2
 10
1364.32
 20
1466.28
 30
1.68
 40
16.8
  1
ＡＬ
 50
0.0
 41
0.9
 51
0.0
  7
KANJI49
  0
TEXT
  8
0
  6
CONTINUOUS
 62
     2
 10
1460.32
 20
1466.28
 30
1.68
 40
16.8
  1
Ｌ
 50
0.0
 41
0.9
 51
0.0
  7
KANJI49
  0
TEXT
  8
0
  6
CONTINUOUS
 62
     2
 10
1541.92
 20
1466.28
 30
1.68
 40
16.8
  1
Ｃ
 50
0.0
 41
0.9
 51
0.0
  7
KANJI49
  0
TEXT
  8
0
  6
CONTINUOUS
 62
     2
 10
1652.32
 20
1466.28
 30
1.68
 40
16.8
  1
Ｐ
 50
0.0
 41
0.9
 51
0.0
  7
KANJI49
  0
TEXT
  8
0
  6
CONTINUOUS
 62
     2
 10
1751.08
 20
1465.92
 30
0.0
 40
12.96
  1
（ｋｇ）
 50
0.0
 41
0.740740741
 51
0.0
  7
KANJI50
  0
TEXT
  8
0
  6
CONTINUOUS
 62
     2
 10
1693.48
 20
1465.68
 30
1.44
 40
16.8
  1
概算重量
 50
0.0
 41
0.857142857
 51
0.0
  7
KANJI51
  0
LINE
  8
0
  6
CONTINUOUS
 62
     2
 10
1009.12
 20
1424.04
 30
0.0
 11
1786.72
 21
1424.04
 31
0.0
  0
LINE
  8
0
  6
CONTINUOUS
 62
     2
 10
1009.12
 20
1390.44
 30
0.0
 11
1786.72
 21
1390.44
 31
0.0
  0
TEXT
  8
0
  6
CONTINUOUS
 62
     2
 10
1232.32
 20
1432.08
 30
1.44
 40
14.4
  1
　２００
 50
0.0
 41
0.9
 51
0.0
  7
KANJI47
  0
TEXT
  8
0
  6
CONTINUOUS
 62
     2
 10
1232.32
 20
1398.48
 30
1.44
 40
14.4
  1
　３００
 50
0.0
 41
0.9
 51
0.0
  7
KANJI47
  0
TEXT
  8
0
  6
CONTINUOUS
 62
     2
 10
1232.32
 20
1264.08
 30
1.44
 40
14.4
  1
　７００
 50
0.0
 41
0.9
 51
0.0
  7
KANJI47
  0
LINE
  8
0
  6
CONTINUOUS
 62
     2
 10
1009.12
 20
1222.44
 30
0.0
 11
1786.72
 21
1222.44
 31
0.0
  0
LINE
  8
0
  6
CONTINUOUS
 62
     2
 10
1009.12
 20
1323.24
 30
0.0
 11
1786.72
 21
1323.24
 31
0.0
  0
LINE
  8
0
  6
CONTINUOUS
 62
     2
 10
1009.12
 20
1356.84
 30
0.0
 11
1786.72
 21
1356.84
 31
0.0
  0
LINE
  8
0
  6
CONTINUOUS
 62
     2
 10
1009.12
 20
1256.04
 30
0.0
 11
1786.72
 21
1256.04
 31
0.0
  0
LINE
  8
0
  6
CONTINUOUS
 62
     2
 10
1009.12
 20
1289.64
 30
0.0
 11
1786.72
 21
1289.64
 31
0.0
  0
TEXT
  8
0
  6
CONTINUOUS
 62
     2
 10
1232.32
 20
1331.28
 30
1.44
 40
14.4
  1
　５００
 50
0.0
 41
0.9
 51
0.0
  7
KANJI47
  0
TEXT
  8
0
  6
CONTINUOUS
 62
     2
 10
1232.32
 20
1364.88
 30
1.44
 40
14.4
  1
　４００
 50
0.0
 41
0.9
 51
0.0
  7
KANJI47
  0
TEXT
  8
0
  6
CONTINUOUS
 62
     2
 10
1232.32
 20
1297.68
 30
1.44
 40
14.4
  1
　６００
 50
0.0
 41
0.9
 51
0.0
  7
KANJI47
  0
TEXT
  8
0
  6
CONTINUOUS
 62
     2
 10
1232.32
 20
1230.48
 30
1.44
 40
14.4
  1
　８００
 50
0.0
 41
0.9
 51
0.0
  7
KANJI47
  0
TEXT
  8
0
  6
CONTINUOUS
 62
     2
 10
1616.32
 20
1432.08
 30
1.44
 40
14.4
  1
　　４５
 50
0.0
 41
0.9
 51
0.0
  7
KANJI47
  0
TEXT
  8
0
  6
CONTINUOUS
 62
     2
 10
1616.32
 20
1398.48
 30
1.44
 40
14.4
  1
　　４５
 50
0.0
 41
0.9
 51
0.0
  7
KANJI47
  0
TEXT
  8
0
  6
CONTINUOUS
 62
     2
 10
1616.32
 20
1364.88
 30
1.44
 40
14.4
  1
　　４５
 50
0.0
 41
0.9
 51
0.0
  7
KANJI47
  0
TEXT
  8
0
  6
CONTINUOUS
 62
     2
 10
1616.32
 20
1331.28
 30
1.44
 40
14.4
  1
　　４５
 50
0.0
 41
0.9
 51
0.0
  7
KANJI47
  0
TEXT
  8
0
  6
CONTINUOUS
 62
     2
 10
1616.32
 20
1297.68
 30
1.44
 40
14.4
  1
　　４５
 50
0.0
 41
0.9
 51
0.0
  7
KANJI47
  0
TEXT
  8
0
  6
CONTINUOUS
 62
     2
 10
1616.32
 20
1264.08
 30
1.44
 40
14.4
  1
　　４５
 50
0.0
 41
0.9
 51
0.0
  7
KANJI47
  0
TEXT
  8
0
  6
CONTINUOUS
 62
     2
 10
1616.32
 20
1230.48
 30
1.44
 40
14.4
  1
　　４５
 50
0.0
 41
0.9
 51
0.0
  7
KANJI47
  0
LINE
  8
0
  6
CONTINUOUS
 62
     1
 10
1009.12
 20
1055.04
 30
0.0
 11
1786.72
 21
1055.04
 31
0.0
  0
LINE
  8
0
  6
CONTINUOUS
 62
     2
 10
1009.12
 20
1088.64
 30
0.0
 11
1786.72
 21
1088.64
 31
0.0
  0
LINE
  8
0
  6
CONTINUOUS
 62
     1
 10
1009.12
 20
1491.24
 30
0.0
 11
1009.12
 21
1055.04
 31
0.0
  0
LINE
  8
0
  6
CONTINUOUS
 62
     1
 10
1210.72
 20
1491.24
 30
0.0
 11
1210.72
 21
1055.04
 31
0.0
  0
LINE
  8
0
  6
CONTINUOUS
 62
     2
 10
1306.72
 20
1491.24
 30
0.0
 11
1306.72
 21
1055.04
 31
0.0
  0
LINE
  8
0
  6
CONTINUOUS
 62
     2
 10
1402.72
 20
1491.24
 30
0.0
 11
1402.72
 21
1055.04
 31
0.0
  0
LINE
  8
0
  6
CONTINUOUS
 62
     2
 10
1498.72
 20
1491.24
 30
0.0
 11
1498.72
 21
1055.04
 31
0.0
  0
LINE
  8
0
  6
CONTINUOUS
 62
     2
 10
1594.72
 20
1491.24
 30
0.0
 11
1594.72
 21
1055.04
 31
0.0
  0
LINE
  8
0
  6
CONTINUOUS
 62
     2
 10
1690.72
 20
1491.24
 30
0.0
 11
1690.72
 21
1055.04
 31
0.0
  0
LINE
  8
0
  6
CONTINUOUS
 62
     1
 10
1786.72
 20
1491.24
 30
0.0
 11
1786.72
 21
1055.04
 31
0.0
  0
LINE
  8
0
  6
CONTINUOUS
 62
     2
 10
1009.12
 20
1154.84
 30
0.0
 11
1786.72
 21
1154.84
 31
0.0
  0
LINE
  8
0
  6
CONTINUOUS
 62
     2
 10
1009.12
 20
1188.84
 30
0.0
 11
1786.72
 21
1188.84
 31
0.0
  0
TEXT
  8
0
  6
CONTINUOUS
 62
     2
 10
1232.32
 20
1163.28
 30
1.44
 40
14.4
  1
１０００
 50
0.0
 41
0.9
 51
0.0
  7
KANJI47
  0
TEXT
  8
0
  6
CONTINUOUS
 62
     2
 10
1232.32
 20
1196.88
 30
1.44
 40
14.4
  1
　９００
 50
0.0
 41
0.9
 51
0.0
  7
KANJI47
  0
TEXT
  8
0
  6
CONTINUOUS
 62
     2
 10
1616.32
 20
1196.88
 30
1.44
 40
14.4
  1
　　４５
 50
0.0
 41
0.9
 51
0.0
  7
KANJI47
  0
TEXT
  8
0
  6
CONTINUOUS
 62
     2
 10
1616.32
 20
1163.28
 30
1.44
 40
14.4
  1
　　４５
 50
0.0
 41
0.9
 51
0.0
  7
KANJI47
  0
LINE
  8
0
  6
CONTINUOUS
 62
     2
 10
1009.12
 20
1121.84
 30
0.0
 11
1786.72
 21
1121.84
 31
0.0
  0
TEXT
  8
0
  6
CONTINUOUS
 62
     2
 10
1616.32
 20
1129.88
 30
1.44
 40
14.4
  1
　　４５
 50
0.0
 41
0.9
 51
0.0
  7
KANJI47
  0
TEXT
  8
0
  6
CONTINUOUS
 62
     2
 10
1616.32
 20
1096.28
 30
1.44
 40
14.4
  1
　　４５
 50
0.0
 41
0.9
 51
0.0
  7
KANJI47
  0
TEXT
  8
0
  6
CONTINUOUS
 62
     2
 10
1232.32
 20
1129.88
 30
1.44
 40
14.4
  1
１１００
 50
0.0
 41
0.9
 51
0.0
  7
KANJI47
  0
TEXT
  8
0
  6
CONTINUOUS
 62
     2
 10
1232.32
 20
1096.28
 30
1.44
 40
14.4
  1
１２００
 50
0.0
 41
0.9
 51
0.0
  7
KANJI47
  0
TEXT
  8
0
  6
CONTINUOUS
 62
     2
 10
1520.32
 20
1432.08
 30
1.44
 40
14.4
  1
　４３７
 50
0.0
 41
0.9
 51
0.0
  7
KANJI47
  0
TEXT
  8
0
  6
CONTINUOUS
 62
     2
 10
1520.32
 20
1398.48
 30
1.44
 40
14.4
  1
　５３７
 50
0.0
 41
0.9
 51
0.0
  7
KANJI47
  0
TEXT
  8
0
  6
CONTINUOUS
 62
     2
 10
1520.32
 20
1364.88
 30
1.44
 40
14.4
  1
　６３７
 50
0.0
 41
0.9
 51
0.0
  7
KANJI47
  0
TEXT
  8
0
  6
CONTINUOUS
 62
     2
 10
1520.32
 20
1331.28
 30
1.44
 40
14.4
  1
　７３７
 50
0.0
 41
0.9
 51
0.0
  7
KANJI47
  0
TEXT
  8
0
  6
CONTINUOUS
 62
     2
 10
1520.32
 20
1297.68
 30
1.44
 40
14.4
  1
　８７７
 50
0.0
 41
0.9
 51
0.0
  7
KANJI47
  0
TEXT
  8
0
  6
CONTINUOUS
 62
     2
 10
1520.32
 20
1264.08
 30
1.44
 40
14.4
  1
　９７７
 50
0.0
 41
0.9
 51
0.0
  7
KANJI47
  0
TEXT
  8
0
  6
CONTINUOUS
 62
     2
 10
1520.32
 20
1230.48
 30
1.44
 40
14.4
  1
１０７７
 50
0.0
 41
0.9
 51
0.0
  7
KANJI47
  0
TEXT
  8
0
  6
CONTINUOUS
 62
     2
 10
1520.32
 20
1196.88
 30
1.44
 40
14.4
  1
１１７７
 50
0.0
 41
0.9
 51
0.0
  7
KANJI47
  0
TEXT
  8
0
  6
CONTINUOUS
 62
     2
 10
1520.32
 20
1163.28
 30
1.44
 40
14.4
  1
１２７７
 50
0.0
 41
0.9
 51
0.0
  7
KANJI47
  0
TEXT
  8
0
  6
CONTINUOUS
 62
     2
 10
1520.32
 20
1129.88
 30
1.44
 40
14.4
  1
１３７７
 50
0.0
 41
0.9
 51
0.0
  7
KANJI47
  0
TEXT
  8
0
  6
CONTINUOUS
 62
     2
 10
1520.32
 20
1096.28
 30
1.44
 40
14.4
  1
１４７７
 50
0.0
 41
0.9
 51
0.0
  7
KANJI47
  0
TEXT
  8
0
  6
CONTINUOUS
 62
     2
 10
1424.32
 20
1432.08
 30
1.44
 40
14.4
  1
　５３２
 50
0.0
 41
0.9
 51
0.0
  7
KANJI47
  0
TEXT
  8
0
  6
CONTINUOUS
 62
     2
 10
1424.32
 20
1398.48
 30
1.44
 40
14.4
  1
　６３２
 50
0.0
 41
0.9
 51
0.0
  7
KANJI47
  0
TEXT
  8
0
  6
CONTINUOUS
 62
     2
 10
1424.32
 20
1364.88
 30
1.44
 40
14.4
  1
　７３２
 50
0.0
 41
0.9
 51
0.0
  7
KANJI47
  0
TEXT
  8
0
  6
CONTINUOUS
 62
     2
 10
1424.32
 20
1331.28
 30
1.44
 40
14.4
  1
　８３２
 50
0.0
 41
0.9
 51
0.0
  7
KANJI47
  0
TEXT
  8
0
  6
CONTINUOUS
 62
     2
 10
1424.32
 20
1297.68
 30
1.44
 40
14.4
  1
　９７２
 50
0.0
 41
0.9
 51
0.0
  7
KANJI47
  0
TEXT
  8
0
  6
CONTINUOUS
 62
     2
 10
1424.32
 20
1264.08
 30
1.44
 40
14.4
  1
１０７２
 50
0.0
 41
0.9
 51
0.0
  7
KANJI47
  0
TEXT
  8
0
  6
CONTINUOUS
 62
     2
 10
1424.32
 20
1230.48
 30
1.44
 40
14.4
  1
１１７２
 50
0.0
 41
0.9
 51
0.0
  7
KANJI47
  0
TEXT
  8
0
  6
CONTINUOUS
 62
     2
 10
1424.32
 20
1196.88
 30
1.44
 40
14.4
  1
１２７２
 50
0.0
 41
0.9
 51
0.0
  7
KANJI47
  0
TEXT
  8
0
  6
CONTINUOUS
 62
     2
 10
1424.32
 20
1163.28
 30
1.44
 40
14.4
  1
１３７２
 50
0.0
 41
0.9
 51
0.0
  7
KANJI47
  0
TEXT
  8
0
  6
CONTINUOUS
 62
     2
 10
1424.32
 20
1129.88
 30
1.44
 40
14.4
  1
１４７２
 50
0.0
 41
0.9
 51
0.0
  7
KANJI47
  0
TEXT
  8
0
  6
CONTINUOUS
 62
     2
 10
1424.32
 20
1096.28
 30
1.44
 40
14.4
  1
１５７２
 50
0.0
 41
0.9
 51
0.0
  7
KANJI47
  0
TEXT
  8
0
  6
CONTINUOUS
 62
     2
 10
1328.32
 20
1297.68
 30
1.44
 40
14.4
  1
１１１８
 50
0.0
 41
0.9
 51
0.0
  7
KANJI47
  0
TEXT
  8
0
  6
CONTINUOUS
 62
     2
 10
1328.32
 20
1264.08
 30
1.44
 40
14.4
  1
１２１８
 50
0.0
 41
0.9
 51
0.0
  7
KANJI47
  0
TEXT
  8
0
  6
CONTINUOUS
 62
     2
 10
1328.32
 20
1230.48
 30
1.44
 40
14.4
  1
１３１８
 50
0.0
 41
0.9
 51
0.0
  7
KANJI47
  0
TEXT
  8
0
  6
CONTINUOUS
 62
     2
 10
1328.32
 20
1196.88
 30
1.44
 40
14.4
  1
１４１８
 50
0.0
 41
0.9
 51
0.0
  7
KANJI47
  0
TEXT
  8
0
  6
CONTINUOUS
 62
     2
 10
1328.32
 20
1163.28
 30
1.44
 40
14.4
  1
１５１８
 50
0.0
 41
0.9
 51
0.0
  7
KANJI47
  0
TEXT
  8
0
  6
CONTINUOUS
 62
     2
 10
1328.32
 20
1129.88
 30
1.44
 40
14.4
  1
１６１８
 50
0.0
 41
0.9
 51
0.0
  7
KANJI47
  0
TEXT
  8
0
  6
CONTINUOUS
 62
     2
 10
1328.32
 20
1096.28
 30
1.44
 40
14.4
  1
１７１８
 50
0.0
 41
0.9
 51
0.0
  7
KANJI47
  0
TEXT
  8
0
  6
CONTINUOUS
 62
     2
 10
1024.72
 20
1431.72
 30
0.96
 40
14.4
  1
ＭＣＬＣ１Ｂ－　　２Ｌ
 50
0.0
 41
0.833333333
 51
0.0
  7
KANJI52
  0
TEXT
  8
0
  6
CONTINUOUS
 62
     2
 10
1024.72
 20
1398.12
 30
0.96
 40
14.4
  1
ＭＣＬＣ１Ｂ－　　３Ｌ
 50
0.0
 41
0.833333333
 51
0.0
  7
KANJI52
  0
TEXT
  8
0
  6
CONTINUOUS
 62
     2
 10
1024.72
 20
1364.52
 30
0.96
 40
14.4
  1
ＭＣＬＣ１Ｂ－　　４Ｌ
 50
0.0
 41
0.833333333
 51
0.0
  7
KANJI52
  0
TEXT
  8
0
  6
CONTINUOUS
 62
     2
 10
1024.72
 20
1330.92
 30
0.96
 40
14.4
  1
ＭＣＬＣ１Ｂ－　　５Ｌ
 50
0.0
 41
0.833333333
 51
0.0
  7
KANJI52
  0
TEXT
  8
0
  6
CONTINUOUS
 62
     2
 10
1024.72
 20
1297.32
 30
0.96
 40
14.4
  1
ＭＣＬＣ１Ｂ－　　６Ｌ
 50
0.0
 41
0.833333333
 51
0.0
  7
KANJI52
  0
TEXT
  8
0
  6
CONTINUOUS
 62
     2
 10
1024.72
 20
1263.72
 30
0.96
 40
14.4
  1
ＭＣＬＣ１Ｂ－　　７Ｌ
 50
0.0
 41
0.833333333
 51
0.0
  7
KANJI52
  0
TEXT
  8
0
  6
CONTINUOUS
 62
     2
 10
1024.72
 20
1230.12
 30
0.96
 40
14.4
  1
ＭＣＬＣ１Ｂ－　　８Ｌ
 50
0.0
 41
0.833333333
 51
0.0
  7
KANJI52
  0
TEXT
  8
0
  6
CONTINUOUS
 62
     2
 10
1024.72
 20
1196.52
 30
0.96
 40
14.4
  1
ＭＣＬＣ１Ｂ－　　９Ｌ
 50
0.0
 41
0.833333333
 51
0.0
  7
KANJI52
  0
TEXT
  8
0
  6
CONTINUOUS
 62
     2
 10
1024.72
 20
1162.92
 30
0.96
 40
14.4
  1
ＭＣＬＣ１Ｂー　１０Ｌ
 50
0.0
 41
0.833333333
 51
0.0
  7
KANJI52
  0
TEXT
  8
0
  6
CONTINUOUS
 62
     2
 10
1024.72
 20
1129.52
 30
0.96
 40
14.4
  1
ＭＣＬＣ１Ｂ－　１１Ｌ
 50
0.0
 41
0.833333333
 51
0.0
  7
KANJI52
  0
TEXT
  8
0
  6
CONTINUOUS
 62
     2
 10
1024.72
 20
1095.92
 30
0.96
 40
14.4
  1
ＭＣＬＣ１Ｂ－　１２Ｌ
 50
0.0
 41
0.833333333
 51
0.0
  7
KANJI52
  0
TEXT
  8
0
  6
CONTINUOUS
 62
     2
 10
1024.72
 20
1062.12
 30
0.96
 40
14.4
  1
ＭＣＬＣ１Ｂ－　　　Ｌ
 50
0.0
 41
0.833333333
 51
0.0
  7
KANJI52
  0
TEXT
  8
0
  6
CONTINUOUS
 62
     2
 10
1712.32
 20
1432.08
 30
1.44
 40
14.4
  1
　５５
 50
0.0
 41
0.9
 51
0.0
  7
KANJI47
  0
TEXT
  8
0
  6
CONTINUOUS
 62
     2
 10
1712.32
 20
1398.48
 30
1.44
 40
14.4
  1
　５８
 50
0.0
 41
0.9
 51
0.0
  7
KANJI47
  0
TEXT
  8
0
  6
CONTINUOUS
 62
     2
 10
1712.32
 20
1364.88
 30
1.44
 40
14.4
  1
　５９．５
 50
0.0
 41
0.9
 51
0.0
  7
KANJI47
  0
TEXT
  8
0
  6
CONTINUOUS
 62
     2
 10
1712.32
 20
1331.28
 30
1.44
 40
14.4
  1
　６１
 50
0.0
 41
0.9
 51
0.0
  7
KANJI47
  0
TEXT
  8
0
  6
CONTINUOUS
 62
     2
 10
1712.32
 20
1297.68
 30
1.44
 40
14.4
  1
　６３
 50
0.0
 41
0.9
 51
0.0
  7
KANJI47
  0
TEXT
  8
0
  6
CONTINUOUS
 62
     2
 10
1712.32
 20
1264.08
 30
1.44
 40
14.4
  1
　６５
 50
0.0
 41
0.9
 51
0.0
  7
KANJI47
  0
TEXT
  8
0
  6
CONTINUOUS
 62
     2
 10
1712.32
 20
1230.48
 30
1.44
 40
14.4
  1
　６７
 50
0.0
 41
0.9
 51
0.0
  7
KANJI47
  0
TEXT
  8
0
  6
CONTINUOUS
 62
     2
 10
1712.32
 20
1196.88
 30
1.44
 40
14.4
  1
　６９
 50
0.0
 41
0.9
 51
0.0
  7
KANJI47
  0
TEXT
  8
0
  6
CONTINUOUS
 62
     2
 10
1712.32
 20
1163.28
 30
1.44
 40
14.4
  1
　７１
 50
0.0
 41
0.9
 51
0.0
  7
KANJI47
  0
TEXT
  8
0
  6
CONTINUOUS
 62
     2
 10
1712.32
 20
1129.88
 30
1.44
 40
14.4
  1
　７３
 50
0.0
 41
0.9
 51
0.0
  7
KANJI47
  0
TEXT
  8
0
  6
CONTINUOUS
 62
     2
 10
1712.32
 20
1096.28
 30
1.44
 40
14.4
  1
　７５
 50
0.0
 41
0.9
 51
0.0
  7
KANJI47
  0
TEXT
  8
0
  6
CONTINUOUS
 62
     2
 10
1328.32
 20
1432.08
 30
1.44
 40
14.4
  1
　６７８
 50
0.0
 41
0.9
 51
0.0
  7
KANJI47
  0
TEXT
  8
0
  6
CONTINUOUS
 62
     2
 10
1328.32
 20
1398.48
 30
1.44
 40
14.4
  1
　７７８
 50
0.0
 41
0.9
 51
0.0
  7
KANJI47
  0
TEXT
  8
0
  6
CONTINUOUS
 62
     2
 10
1328.32
 20
1364.88
 30
1.44
 40
14.4
  1
　８７８
 50
0.0
 41
0.9
 51
0.0
  7
KANJI47
  0
TEXT
  8
0
  6
CONTINUOUS
 62
     2
 10
1328.32
 20
1331.28
 30
1.44
 40
14.4
  1
　９７８
 50
0.0
 41
0.9
 51
0.0
  7
KANJI47
  0
LINE
  8
0
  6
CONTINUOUS
 62
     2
 10
450.2199996
 20
238.5499876
 30
0.0
 11
450.2199996
 21
183.0999876
 31
0.0
  0
LINE
  8
0
  6
CONTINUOUS
 62
     2
 10
291.0199996
 20
225.0999876
 30
0.0
 11
450.2199996
 21
225.0999876
 31
0.0
  0
LINE
  8
0
  6
CONTINUOUS
 62
     2
 10
450.2199996
 20
225.0999876
 30
0.0
 11
442.49259299
 21
227.170539961
 31
0.0
  0
LINE
  8
0
  6
CONTINUOUS
 62
     2
 10
450.2199996
 20
225.0999876
 30
0.0
 11
442.49259299
 21
223.029435239
 31
0.0
  0
TEXT
  8
0
  6
CONTINUOUS
 62
     3
 10
332.7699996
 20
227.0999876
 30
0.0
 40
15.0
  1
常用ストローク
 50
0.0
 41
0.9
 51
0.0
  7
KANJI36
  0
LINE
  8
0
  6
CONTINUOUS
 62
     2
 10
1372.317964258
 20
787.464647586
 30
0.0
 11
1370.972960148
 21
797.373782965
 31
0.0
  0
LINE
  8
0
  6
CONTINUOUS
 62
     2
 10
1372.317964258
 20
787.464647586
 30
0.0
 11
1366.198588842
 21
795.373708498
 31
0.0
  0
LINE
  8
0
  6
LTYPE1
 62
     2
 10
1405.0
 20
708.860720927
 30
0.0
 11
1405.0
 21
744.366754132
 31
0.0
  0
LINE
  8
0
  6
CONTINUOUS
 62
     1
 10
1405.0
 20
744.366754132
 30
0.0
 11
1405.0
 21
800.797465586
 31
0.0
  0
LINE
  8
0
  6
LTYPE1
 62
     2
 10
1423.0
 20
711.025046491
 30
0.0
 11
1423.0
 21
736.219700758
 31
0.0
  0
ARC
  8
0
  6
CONTINUOUS
 62
     1
 10
1428.0
 20
741.5
 30
0.0
 40
5.0
 50
90.0
 51
179.999876362
  0
LINE
  8
0
  6
CONTINUOUS
 62
     1
 10
1423.0
 20
736.319700758
 30
0.0
 11
1423.0
 21
741.50001079
 31
0.0
  0
LINE
  8
0
  6
CONTINUOUS
 62
     1
 10
1506.979991994
 20
746.5
 30
0.0
 11
1536.0
 21
746.5
 31
0.0
  0
POLYLINE
  8
0
  6
LTYPE1
 62
     1
 66
     1
  0
VERTEX
  8
0
  6
LTYPE1
 62
     1
 10
1524.211940777
 20
783.033249751
 30
0.0
  0
VERTEX
  8
0
  6
LTYPE1
 62
     1
 10
1520.461940777
 20
776.538059223
 30
0.0
  0
VERTEX
  8
0
  6
LTYPE1
 62
     1
 10
1522.271581738
 20
773.403669136
 30
0.0
  0
SEQEND
  0
LINE
  8
0
  6
CONTINUOUS
 62
     1
 10
1524.211940777
 20
770.042868694
 30
0.0
 11
1531.711940777
 21
770.042868694
 31
0.0
  0
LINE
  8
0
  6
CONTINUOUS
 62
     1
 10
1522.271581738
 20
773.403669136
 30
0.0
 11
1524.211940777
 21
770.042868694
 31
0.0
  0
LINE
  8
0
  6
CONTINUOUS
 62
     1
 10
1531.711940777
 20
770.042868694
 30
0.0
 11
1535.461940777
 21
776.538059223
 31
0.0
  0
LINE
  8
0
  6
CONTINUOUS
 62
     1
 10
1535.461940777
 20
776.538059223
 30
0.0
 11
1531.711940777
 21
783.033249751
 31
0.0
  0
LINE
  8
0
  6
LTYPE1
 62
     1
 10
1531.711940777
 20
783.033249751
 30
0.0
 11
1524.211940777
 21
783.033249751
 31
0.0
  0
POLYLINE
  8
0
  6
LTYPE1
 62
     1
 66
     1
  0
VERTEX
  8
0
  6
LTYPE1
 62
     1
 10
1439.788059223
 20
783.033249751
 30
0.0
  0
VERTEX
  8
0
  6
LTYPE1
 62
     1
 10
1443.538059223
 20
776.538059223
 30
0.0
  0
VERTEX
  8
0
  6
LTYPE1
 62
     1
 10
1441.728418262
 20
773.403669136
 30
0.0
  0
SEQEND
  0
LINE
  8
0
  6
CONTINUOUS
 62
     1
 10
1439.788059223
 20
770.042868694
 30
0.0
 11
1432.288059223
 21
770.042868694
 31
0.0
  0
LINE
  8
0
  6
CONTINUOUS
 62
     1
 10
1441.728418262
 20
773.403669136
 30
0.0
 11
1439.788059223
 21
770.042868694
 31
0.0
  0
LINE
  8
0
  6
CONTINUOUS
 62
     1
 10
1432.288059223
 20
770.042868694
 30
0.0
 11
1428.538059223
 21
776.538059223
 31
0.0
  0
LINE
  8
0
  6
CONTINUOUS
 62
     1
 10
1428.538059223
 20
776.538059223
 30
0.0
 11
1432.288059223
 21
783.033249751
 31
0.0
  0
LINE
  8
0
  6
LTYPE1
 62
     1
 10
1432.288059223
 20
783.033249751
 30
0.0
 11
1439.788059223
 21
783.033249751
 31
0.0
  0
LINE
  8
0
  6
CONTINUOUS
 62
     1
 10
1420.51140878
 20
738.139943104
 30
0.0
 11
1420.042999876
 21
736.391817276
 31
0.0
  0
ARC
  8
0
  6
CONTINUOUS
 62
     1
 10
1418.57955443
 20
738.657571128
 30
0.0
 40
2.0
 50
345.000298567
 51
75.0
  0
ARC
  8
0
  6
LTYPE2
 62
     2
 10
1482.0
 20
822.5
 30
0.0
 40
65.0
 50
215.457574482
 51
234.68637224
  0
LINE
  8
0
  6
LTYPE2
 62
     2
 10
1442.903669136
 20
783.403669136
 30
0.0
 11
1430.0
 21
770.5
 31
0.0
  0
LINE
  8
7
  6
CONTINUOUS
 62
     2
 10
1354.381520757
 20
812.929835768
 30
0.0
 11
1207.283705995
 21
812.929835768
 31
0.0
  0
LINE
  8
0
  6
CONTINUOUS
 62
     1
 10
414.0
 20
902.5
 30
0.0
 11
406.0
 21
902.5
 31
0.0
  0
LINE
  8
0
  6
CONTINUOUS
 62
     1
 10
406.0
 20
610.0
 30
0.0
 11
406.0
 21
902.5
 31
0.0
  0
LINE
  8
0
  6
CONTINUOUS
 62
     2
 10
406.0
 20
905.0
 30
0.0
 11
406.0
 21
1043.3
 31
0.0
  0
LINE
  8
0
  6
CONTINUOUS
 62
     1
 10
372.0
 20
897.5
 30
0.0
 11
406.0
 21
897.5
 31
0.0
  0
LINE
  8
0
  6
CONTINUOUS
 62
     1
 10
369.0
 20
871.5
 30
0.0
 11
369.0
 21
894.5
 31
0.0
  0
ARC
  8
0
  6
CONTINUOUS
 62
     1
 10
372.0
 20
894.5
 30
0.0
 40
3.0
 50
90.0
 51
180.0
  0
LINE
  8
0
  6
CONTINUOUS
 62
     1
 10
382.0
 20
903.5
 30
0.0
 11
391.2
 21
903.5
 31
0.0
  0
CIRCLE
  8
0
  6
CONTINUOUS
 62
     1
 10
382.0
 20
917.5
 30
0.0
 40
12.5
  0
LINE
  8
0
  6
CONTINUOUS
 62
     1
 10
382.0
 20
905.0
 30
0.0
 11
391.2
 21
903.5
 31
0.0
  0
ARC
  8
0
  6
CONTINUOUS
 62
     1
 10
382.0
 20
917.5
 30
0.0
 40
20.5
 50
300.423432294
 51
0.0
  0
ARC
  8
0
  6
CONTINUOUS
 62
     1
 10
392.947984073
 20
898.773488336
 30
0.0
 40
1.2
 50
118.393405187
 51
188.554293104
  0
LINE
  8
0
  6
CONTINUOUS
 62
     1
 10
382.0
 20
903.5
 30
0.0
 11
372.8
 21
903.5
 31
0.0
  0
LINE
  8
0
  6
CONTINUOUS
 62
     1
 10
382.0
 20
905.0
 30
0.0
 11
372.8
 21
903.5
 31
0.0
  0
ARC
  8
0
  6
CONTINUOUS
 62
     1
 10
371.052015927
 20
898.773488336
 30
0.0
 40
1.2
 50
351.445706896
 51
61.606594813
  0
ARC
  8
0
  6
CONTINUOUS
 62
     1
 10
382.0
 20
917.5
 30
0.0
 40
20.5
 50
0.0
 51
239.707348078
  0
LINE
  8
0
  6
CONTINUOUS
 62
     1
 10
372.114285714
 20
897.5
 30
0.0
 11
372.8
 21
903.5
 31
0.0
  0
LINE
  8
0
  6
CONTINUOUS
 62
     1
 10
391.885714286
 20
897.5
 30
0.0
 11
391.2
 21
903.5
 31
0.0
  0
LINE
  8
0
  6
LTYPE3
 62
     2
 10
356.475
 20
917.5
 30
0.0
 11
406.0
 21
917.5
 31
0.0
  0
LINE
  8
0
  6
LTYPE3
 62
     2
 10
382.0
 20
886.9
 30
0.0
 11
382.0
 21
940.9
 31
0.0
  0
LINE
  8
0
  6
CONTINUOUS
 62
     1
 10
394.0
 20
798.5
 30
0.0
 11
394.0
 21
865.5
 31
0.0
  0
LINE
  8
0
  6
CONTINUOUS
 62
     1
 10
391.351653344
 20
865.5
 30
0.0
 11
363.0
 21
865.5
 31
0.0
  0
LINE
  8
0
  6
CONTINUOUS
 62
     1
 10
394.328486975
 20
868.127895796
 30
0.0
 11
398.0
 21
897.5
 31
0.0
  0
ARC
  8
0
  6
CONTINUOUS
 62
     1
 10
391.351653344
 20
868.5
 30
0.0
 40
3.0
 50
270.0
 51
352.874983651
  0
LINE
  8
0
  6
CONTINUOUS
 62
     1
 10
388.00001079
 20
792.5
 30
0.0
 11
335.0
 21
792.5
 31
0.0
  0
ARC
  8
0
  6
CONTINUOUS
 62
     1
 10
388.0
 20
798.5
 30
0.0
 40
6.0
 50
270.000103033
 51
0.0
  0
TEXT
  8
0
  6
CONTINUOUS
 62
     2
 10
1643.5200334
 20
126.899994
 30
1.8
 40
21.0
  1
０７．１０．０４
 50
0.0
 41
0.571428571
 51
0.0
  7
KANJI53
  0
LINE
  8
0
  6
CONTINUOUS
 62
     1
 10
936.182501379
 20
224.6
 30
0.0
 11
936.182501379
 21
208.0
 31
0.0
  0
TEXT
  8
2
  6
CONTINUOUS
 62
     2
 10
1231.228145063
 20
865.626926248
 30
0.0
 40
18.0
  1
２－ＰＦ１／２
 50
0.0
 41
0.9
 51
0.0
  7
KANJI34
  0
LINE
  8
0
  6
CONTINUOUS
 62
     2
 10
1372.317964258
 20
787.464647586
 30
0.0
 11
1341.249982657
 21
861.626926248
 31
0.0
  0
LINE
  8
2
  6
CONTINUOUS
 62
     2
 10
1341.249982657
 20
861.626926248
 30
0.0
 11
1229.317964258
 21
861.626926248
 31
0.0
  0
LINE
  8
0
  6
CONTINUOUS
 62
     2
 10
1868.92
 20
896.7
 30
0.0
 11
2393.92
 21
896.7
 31
0.0
  0
LINE
  8
0
  6
CONTINUOUS
 62
     2
 10
1868.92
 20
854.7
 30
0.0
 11
2393.92
 21
854.7
 31
0.0
  0
LINE
  8
0
  6
CONTINUOUS
 62
     2
 10
1916.92
 20
1232.7
 30
0.0
 11
1916.92
 21
896.7
 31
0.0
  0
TEXT
  8
0
  6
CONTINUOUS
 62
     2
 10
1901.92
 20
865.5
 30
79.962857143
 40
22.8
  1
付属品
 50
0.0
 41
0.9
 51
0.0
  7
KANJI54
  0
TEXT
  8
0
  6
CONTINUOUS
 62
     2
 10
1901.92
 20
823.5
 30
180.445714286
 40
22.8
  1
台数
 50
0.0
 41
0.9
 51
0.0
  7
KANJI55
  0
LINE
  8
0
  6
CONTINUOUS
 62
     1
 10
1868.92
 20
1628.7
 30
0.0
 11
2393.92
 21
1628.7
 31
0.0
  0
TEXT
  8
0
  6
CONTINUOUS
 62
     2
 10
1943.92
 20
1584.9
 30
17.09964
 40
27.0
  1
マイティシリンダ仕様
 50
0.0
 41
0.9
 51
0.0
  7
KANJI56
  0
LINE
  8
0
  6
CONTINUOUS
 62
     2
 10
1916.92
 20
938.7
 30
0.0
 11
2393.92
 21
938.7
 31
0.0
  0
LINE
  8
0
  6
CONTINUOUS
 62
     2
 10
1916.92
 20
1064.7
 30
0.0
 11
2393.92
 21
1064.7
 31
0.0
  0
LINE
  8
0
  6
CONTINUOUS
 62
     2
 10
1916.92
 20
1106.7
 30
0.0
 11
2393.92
 21
1106.7
 31
0.0
  0
LINE
  8
0
  6
CONTINUOUS
 62
     2
 10
1868.92
 20
1316.7
 30
0.0
 11
2393.92
 21
1316.7
 31
0.0
  0
LINE
  8
0
  6
CONTINUOUS
 62
     2
 10
1868.92
 20
1274.7
 30
0.0
 11
2393.92
 21
1274.7
 31
0.0
  0
LINE
  8
0
  6
CONTINUOUS
 62
     2
 10
1868.92
 20
1232.7
 30
0.0
 11
2393.92
 21
1232.7
 31
0.0
  0
LINE
  8
0
  6
CONTINUOUS
 62
     2
 10
1916.92
 20
1148.7
 30
0.0
 11
2393.92
 21
1148.7
 31
0.0
  0
LINE
  8
0
  6
CONTINUOUS
 62
     2
 10
1916.92
 20
1190.7
 30
0.0
 11
2393.92
 21
1190.7
 31
0.0
  0
LINE
  8
0
  6
CONTINUOUS
 62
     2
 10
1868.92
 20
1526.7
 30
0.0
 11
2393.92
 21
1526.7
 31
0.0
  0
LINE
  8
0
  6
CONTINUOUS
 62
     2
 10
1868.92
 20
1484.7
 30
0.0
 11
2393.92
 21
1484.7
 31
0.0
  0
LINE
  8
0
  6
CONTINUOUS
 62
     2
 10
1868.92
 20
1442.7
 30
0.0
 11
2393.92
 21
1442.7
 31
0.0
  0
LINE
  8
0
  6
CONTINUOUS
 62
     2
 10
1868.92
 20
1400.7
 30
0.0
 11
2393.92
 21
1400.7
 31
0.0
  0
LINE
  8
0
  6
CONTINUOUS
 62
     2
 10
1868.92
 20
1358.7
 30
0.0
 11
2393.92
 21
1358.7
 31
0.0
  0
LINE
  8
0
  6
CONTINUOUS
 62
     2
 10
1868.92
 20
1568.7
 30
0.0
 11
2393.92
 21
1568.7
 31
0.0
  0
TEXT
  8
0
  6
CONTINUOUS
 62
     2
 10
1943.92
 20
1159.5
 30
33.439782857
 40
22.8
  1
電源電圧
 50
0.0
 41
0.9
 51
0.0
  7
KANJI57
  0
TEXT
  8
0
  6
CONTINUOUS
 62
     2
 10
1943.92
 20
1117.5
 30
60.42
 40
22.8
  1
周波数
 50
0.0
 41
0.9
 51
0.0
  7
KANJI58
  0
TEXT
  8
0
  6
CONTINUOUS
 62
     2
 10
1943.92
 20
1075.5
 30
141.36
 40
22.8
  1
電流
 50
0.0
 41
0.9
 51
0.0
  7
KANJI59
  0
TEXT
  8
0
  6
CONTINUOUS
 62
     2
 10
1943.92
 20
1033.5
 30
60.42
 40
22.8
  1
絶縁級
 50
0.0
 41
0.9
 51
0.0
  7
KANJI58
  0
TEXT
  8
0
  6
CONTINUOUS
 62
     2
 10
1901.92
 20
1537.5
 30
180.445714286
 40
22.8
  1
形式
 50
0.0
 41
0.9
 51
0.0
  7
KANJI55
  0
TEXT
  8
0
  6
CONTINUOUS
 62
     2
 10
1901.92
 20
1495.5
 30
180.445714286
 40
22.8
  1
推力
 50
0.0
 41
0.9
 51
0.0
  7
KANJI55
  0
TEXT
  8
0
  6
CONTINUOUS
 62
     2
 10
1901.92
 20
1453.5
 30
29.721428571
 40
22.8
  1
ストローク
 50
0.0
 41
0.9
 51
0.0
  7
KANJI60
  0
TEXT
  8
0
  6
CONTINUOUS
 62
     2
 10
1901.92
 20
1327.5
 30
180.445714286
 40
22.8
  1
構造
 50
0.0
 41
0.9
 51
0.0
  7
KANJI55
  0
TEXT
  8
0
  6
CONTINUOUS
 62
     2
 10
1901.92
 20
1285.5
 30
12.973851429
 40
22.8
  1
過負荷安全装置
 50
0.0
 41
0.9
 51
0.0
  7
KANJI61
  0
TEXT
  8
0
  6
CONTINUOUS
 62
     2
 10
1901.92
 20
1243.5
 30
79.962857143
 40
22.8
  1
塗装色
 50
0.0
 41
0.9
 51
0.0
  7
KANJI54
  0
TEXT
  8
0
  6
CONTINUOUS
 62
     2
 10
1877.92
 20
1369.5
 30
1.954285714
 40
22.8
  1
ピストンロッド回転トルク
 50
0.0
 41
0.9
 51
0.0
  7
KANJI62
  0
LINE
  8
0
  6
CONTINUOUS
 62
     2
 10
1868.92
 20
1022.7
 30
0.0
 11
2393.92
 21
1022.7
 31
0.0
  0
LINE
  8
0
  6
CONTINUOUS
 62
     2
 10
1916.92
 20
980.7
 30
0.0
 11
2393.92
 21
980.7
 31
0.0
  0
TEXT
  8
0
  6
CONTINUOUS
 62
     2
 10
1893.37
 20
1226.7
 30
13.2
 40
21.0
  1
モ　トル仕様
 50
0.0
 41
0.9
 51
0.0
  7
KANJI63
  0
TEXT
  8
0
  6
CONTINUOUS
 62
     2
 10
1893.37
 20
1004.7
 30
1.2
 40
21.0
  1
ブレ　キ
 50
0.0
 41
0.9
 51
0.0
  7
KANJI64
  0
LINE
  8
0
  6
CONTINUOUS
 62
     2
 10
1891.72
 20
954.9
 30
0.0
 11
1891.72
 21
942.3
 31
0.0
  0
TEXT
  8
0
  6
CONTINUOUS
 62
     2
 10
2203.42
 20
1286.7
 30
9.0
 40
21.0
  1
推力リミッタ
 50
0.0
 41
0.9
 51
0.0
  7
KANJI65
  0
TEXT
  8
0
  6
CONTINUOUS
 62
     2
 10
2260.42
 20
1034.7
 30
1.8
 40
18.0
  1
Ｅ
 50
0.0
 41
0.9
 51
0.0
  7
KANJI66
  0
TEXT
  8
0
  6
CONTINUOUS
 62
     2
 10
2216.92
 20
949.5
 30
12.0
 40
21.0
  1
同時切り
 50
0.0
 41
0.9
 51
0.0
  7
KANJI67
  0
TEXT
  8
0
  6
CONTINUOUS
 62
     2
 10
1943.92
 20
991.5
 30
141.36
 40
22.8
  1
形式
 50
0.0
 41
0.9
 51
0.0
  7
KANJI59
  0
TEXT
  8
0
  6
CONTINUOUS
 62
     2
 10
1943.92
 20
949.5
 30
33.439782857
 40
22.8
  1
操作方式
 50
0.0
 41
0.9
 51
0.0
  7
KANJI57
  0
LINE
  8
0
  6
CONTINUOUS
 62
     2
 10
1891.72
 20
1190.1
 30
0.0
 11
1891.72
 21
1176.3
 31
0.0
  0
TEXT
  8
0
  6
CONTINUOUS
 62
     2
 10
1943.92
 20
1201.5
 30
3.0
 40
22.8
  1
出力　相数　極数
 50
0.0
 41
0.9
 51
0.0
  7
KANJI68
  0
TEXT
  8
0
  6
CONTINUOUS
 62
     2
 10
1901.92
 20
1411.5
 30
12.0
 40
22.8
  1
公称速度
 50
0.0
 41
0.9
 51
0.0
  7
KANJI69
  0
TEXT
  8
0
  6
CONTINUOUS
 62
     2
 10
2025.82
 20
1410.3
 30
0.0
 40
21.0
  1
（５０／６０Ｈｚ）
 50
0.0
 41
0.628571429
 51
0.0
  7
KANJI70
  0
TEXT
  8
0
  6
CONTINUOUS
 62
     2
 10
2146.42
 20
991.95
 30
3.3
 40
20.4
  1
スプリング制動式電磁ブレーキ
 50
0.0
 41
0.705882353
 51
0.0
  7
KANJI71
  0
TEXT
  8
0
  6
CONTINUOUS
 62
     2
 10
2365.42
 20
1159.5
 30
0.216
 40
18.0
  1
Ｖ
 50
0.0
 41
0.8
 51
0.0
  7
KANJI72
  0
TEXT
  8
0
  6
CONTINUOUS
 62
     2
 10
2354.62
 20
1117.5
 30
0.216
 40
18.0
  1
Ｈｚ
 50
0.0
 41
0.8
 51
0.0
  7
KANJI72
  0
TEXT
  8
0
  6
CONTINUOUS
 62
     2
 10
2365.42
 20
1075.5
 30
0.216
 40
18.0
  1
Ａ
 50
0.0
 41
0.8
 51
0.0
  7
KANJI72
  0
TEXT
  8
0
  6
CONTINUOUS
 62
     2
 10
2286.52
 20
1202.7
 30
1.8
 40
18.0
  1
３φ
 50
0.0
 41
0.9
 51
0.0
  7
KANJI66
  0
TEXT
  8
0
  6
CONTINUOUS
 62
     2
 10
2346.52
 20
1202.7
 30
1.8
 40
18.0
  1
４Ｐ
 50
0.0
 41
0.9
 51
0.0
  7
KANJI66
  0
TEXT
  8
0
  6
CONTINUOUS
 62
     2
 10
2144.92
 20
1244.7
 30
1.2
 40
19.2
  1
マンセル　７．５ＧＹ　５／４．５
 50
0.0
 41
0.71875
 51
0.0
  7
KANJI73
  0
TEXT
  8
0
  6
CONTINUOUS
 62
     2
 10
2144.92
 20
1160.7
 30
1.8
 40
18.0
  1
　　　　　　　／　　　
 50
0.0
 41
0.9
 51
0.0
  7
KANJI66
  0
TEXT
  8
0
  6
CONTINUOUS
 62
     2
 10
2144.92
 20
1118.7
 30
1.8
 40
18.0
  1
　　　　５０／　６０
 50
0.0
 41
0.9
 51
0.0
  7
KANJI66
  0
TEXT
  8
0
  6
CONTINUOUS
 62
     2
 10
2144.92
 20
1076.7
 30
1.8
 40
18.0
  1
　　　　　　　／　　　
 50
0.0
 41
0.9
 51
0.0
  7
KANJI66
  0
TEXT
  8
0
  6
CONTINUOUS
 62
     2
 10
2349.52
 20
1455.9
 30
0.1536
 40
19.2
  1
ｍｍ
 50
0.0
 41
0.8
 51
0.0
  7
KANJI74
  0
TEXT
  8
0
  6
CONTINUOUS
 62
     2
 10
2203.42
 20
1328.7
 30
9.0
 40
21.0
  1
全閉屋内形
 50
0.0
 41
0.9
 51
0.0
  7
KANJI65
  0
TEXT
  8
0
  6
CONTINUOUS
 62
     2
 10
2310.52
 20
1412.7
 30
0.0
 40
21.0
  1
ｍｍ／ｓｅｃ
 50
0.0
 41
0.571428571
 51
0.0
  7
KANJI75
  0
TEXT
  8
0
  6
CONTINUOUS
 62
     2
 10
2150.92
 20
1202.7
 30
1.8
 40
18.0
  1
　０．６ＫＷ
 50
0.0
 41
0.9
 51
0.0
  7
KANJI66
  0
TEXT
  8
0
  6
CONTINUOUS
 62
     2
 10
2188.72
 20
1496.7
 30
1.8
 40
18.0
  1
９．８ＫＮ（１ｔｏｎ）
 50
0.0
 41
0.9
 51
0.0
  7
KANJI66
  0
TEXT
  8
0
  6
CONTINUOUS
 62
     2
 10
2158.42
 20
1536.6
 30
1.2
 40
18.0
  1
ＭＣＬＣ１Ｂ－　Ｌ
 50
0.0
 41
0.833333333
 51
0.0
  7
KANJI76
  0
TEXT
  8
0
  6
CONTINUOUS
 62
     2
 10
2147.92
 20
1412.7
 30
1.8
 40
18.0
  1
　２３／　２８
 50
0.0
 41
0.9
 51
0.0
  7
KANJI66
  0
LINE
  8
0
  6
CONTINUOUS
 62
     1
 10
1868.92
 20
770.7
 30
0.0
 11
2393.92
 21
770.7
 31
0.0
  0
LINE
  8
0
  6
CONTINUOUS
 62
     2
 10
1868.92
 20
812.7
 30
0.0
 11
2393.92
 21
812.7
 31
0.0
  0
TEXT
  8
0
  6
CONTINUOUS
 62
     2
 10
2338.72
 20
782.88
 30
0.0
 40
21.0
  1
ｋｇ
 50
0.0
 41
0.9
 51
0.0
  7
KANJI77
  0
TEXT
  8
0
  6
CONTINUOUS
 62
     2
 10
1900.72
 20
781.5
 30
6.0
 40
21.0
  1
概算重量（１台当り）
 50
0.0
 41
0.857142857
 51
0.0
  7
KANJI78
  0
TEXT
  8
0
  6
CONTINUOUS
 62
     2
 10
2159.92
 20
1370.7
 30
0.0
 40
18.0
  1
８．８Ｎ・ｍ（０．９ｋｇ・ｍ）
 50
0.0
 41
0.833333333
 51
0.0
  7
KANJI79
  0
LINE
  8
0
  6
CONTINUOUS
 62
     1
 10
1868.92
 20
1628.7
 30
0.0
 11
1868.92
 21
770.7
 31
0.0
  0
LINE
  8
0
  6
CONTINUOUS
 62
     2
 10
2144.92
 20
1568.7
 30
0.0
 11
2144.92
 21
770.7
 31
0.0
  0
LINE
  8
0
  6
CONTINUOUS
 62
     1
 10
2393.92
 20
1628.7
 30
0.0
 11
2393.92
 21
770.7
 31
0.0
  0
LINE
  8
0
  6
CONTINUOUS
 62
     2
 10
1062.0
 20
858.1
 30
0.0
 11
1062.0
 21
798.1
 31
0.0
  0
LINE
  8
0
  6
CONTINUOUS
 62
     2
 10
1062.0
 20
805.6
 30
0.0
 11
1074.074072829
 21
802.364761936
 31
0.0
  0
LINE
  8
0
  6
CONTINUOUS
 62
     2
 10
1062.0
 20
805.6
 30
0.0
 11
1074.074072829
 21
808.835238064
 31
0.0
  0
LINE
  8
0
  6
CONTINUOUS
 62
     2
 10
1062.0
 20
805.6
 30
0.0
 11
1097.0
 21
805.6
 31
0.0
  0
LINE
  8
0
  6
CONTINUOUS
 62
     2
 10
1097.0
 20
805.6
 30
0.0
 11
1084.925927171
 21
808.835238064
 31
0.0
  0
LINE
  8
0
  6
CONTINUOUS
 62
     2
 10
1097.0
 20
805.6
 30
0.0
 11
1084.925927171
 21
802.364761936
 31
0.0
  0
LINE
  8
0
  6
CONTINUOUS
 62
     2
 10
1097.0
 20
827.6
 30
0.0
 11
1097.0
 21
798.1
 31
0.0
  0
LINE
  8
0
  6
CONTINUOUS
 62
     2
 10
1062.0
 20
805.6
 30
0.0
 11
1074.074072829
 21
802.364761936
 31
0.0
  0
LINE
  8
0
  6
CONTINUOUS
 62
     2
 10
1062.0
 20
805.6
 30
0.0
 11
1074.074072829
 21
808.835238064
 31
0.0
  0
LINE
  8
0
  6
CONTINUOUS
 62
     2
 10
1080.75
 20
805.6
 30
0.0
 11
999.75
 21
805.6
 31
0.0
  0
LINE
  8
0
  6
CONTINUOUS
 62
     2
 10
1047.0
 20
805.6
 30
0.0
 11
1034.925927171
 21
808.835238064
 31
0.0
  0
LINE
  8
0
  6
CONTINUOUS
 62
     2
 10
1047.0
 20
805.6
 30
0.0
 11
1034.925927171
 21
802.364761936
 31
0.0
  0
LINE
  8
0
  6
CONTINUOUS
 62
     2
 10
1047.0
 20
843.1
 30
0.0
 11
1047.0
 21
798.1
 31
0.0
  0
TEXT
  8
0
  6
CONTINUOUS
 62
     2
 10
1065.25
 20
810.6
 30
0.0
 40
18.0
  1
３５
 50
0.0
 41
0.9
 51
0.0
  7
KANJI34
  0
TEXT
  8
0
  6
CONTINUOUS
 62
     2
 10
1000.75
 20
808.6
 30
0.0
 40
18.0
  1
１５
 50
0.0
 41
0.9
 51
0.0
  7
KANJI34
  0
LINE
  8
2
  6
CONTINUOUS
 62
     2
 10
1097.0
 20
809.6
 30
0.0
 11
1097.0
 21
799.6
 31
0.0
  0
LINE
  8
2
  6
CONTINUOUS
 62
     2
 10
1097.0
 20
805.6
 30
0.0
 11
1082.511112606
 21
809.482285677
 31
0.0
  0
LINE
  8
2
  6
CONTINUOUS
 62
     2
 10
1097.0
 20
805.6
 30
0.0
 11
1082.511112606
 21
801.717714323
 31
0.0
  0
LINE
  8
2
  6
CONTINUOUS
 62
     2
 10
1074.5
 20
805.6
 30
0.0
 11
1097.0
 21
805.6
 31
0.0
  0
LINE
  8
2
  6
CONTINUOUS
 62
     2
 10
1097.0
 20
805.6
 30
0.0
 11
1122.0
 21
805.6
 31
0.0
  0
LINE
  8
2
  6
CONTINUOUS
 62
     2
 10
1122.0
 20
805.6
 30
0.0
 11
1176.9
 21
805.6
 31
0.0
  0
LINE
  8
2
  6
CONTINUOUS
 62
     2
 10
1122.0
 20
805.6
 30
0.0
 11
1136.488887394
 21
801.717714323
 31
0.0
  0
LINE
  8
2
  6
CONTINUOUS
 62
     2
 10
1122.0
 20
805.6
 30
0.0
 11
1136.488887394
 21
809.482285677
 31
0.0
  0
LINE
  8
2
  6
CONTINUOUS
 62
     2
 10
1122.0
 20
844.6
 30
0.0
 11
1122.0
 21
799.6
 31
0.0
  0
TEXT
  8
2
  6
CONTINUOUS
 62
     3
 10
1144.5
 20
811.6
 30
0.0
 40
18.0
  1
２５
 50
0.0
 41
0.9
 51
0.0
  7
KANJI34
  0
LINE
  8
0
  6
CONTINUOUS
 62
     1
 10
1062.0
 20
865.6
 30
0.0
 11
1122.0
 21
865.6
 31
0.0
  0
LINE
  8
0
  6
CONTINUOUS
 62
     1
 10
1122.0
 20
850.6
 30
0.0
 11
1122.0
 21
865.6
 31
0.0
  0
LINE
  8
0
  6
CONTINUOUS
 62
     1
 10
1075.0
 20
846.1
 30
0.0
 11
1119.0
 21
846.1
 31
0.0
  0
LINE
  8
0
  6
CONTINUOUS
 62
     1
 10
1084.5
 20
840.1
 30
0.0
 11
1109.5
 21
840.1
 31
0.0
  0
LINE
  8
0
  6
CONTINUOUS
 62
     1
 10
1109.5
 20
840.1
 30
0.0
 11
1109.5
 21
846.1
 31
0.0
  0
LINE
  8
0
  6
CONTINUOUS
 62
     1
 10
1084.5
 20
840.1
 30
0.0
 11
1084.5
 21
846.1
 31
0.0
  0
LINE
  8
0
  6
CONTINUOUS
 62
     1
 10
1119.0
 20
846.1
 30
0.0
 11
1119.0
 21
850.6
 31
0.0
  0
LINE
  8
0
  6
CONTINUOUS
 62
     1
 10
1075.0
 20
846.1
 30
0.0
 11
1075.0
 21
850.6
 31
0.0
  0
CIRCLE
  8
0
  6
CONTINUOUS
 62
     1
 10
1097.0
 20
844.1
 30
0.0
 40
2.0
  0
LINE
  8
0
  6
LTYPE5
 62
     2
 10
1093.0
 20
844.2
 30
0.0
 11
1101.2
 21
844.2
 31
0.0
  0
LINE
  8
0
  6
LTYPE1
 62
     2
 10
1109.5
 20
846.1
 30
0.0
 11
1109.5
 21
865.6
 31
0.0
  0
LINE
  8
0
  6
LTYPE1
 62
     2
 10
1084.5
 20
846.1
 30
0.0
 11
1084.5
 21
865.6
 31
0.0
  0
LINE
  8
0
  6
CONTINUOUS
 62
     1
 10
1062.0
 20
890.6
 30
0.0
 11
1122.0
 21
890.6
 31
0.0
  0
LINE
  8
0
  6
CONTINUOUS
 62
     1
 10
1122.0
 20
905.6
 30
0.0
 11
1122.0
 21
890.6
 31
0.0
  0
LINE
  8
0
  6
CONTINUOUS
 62
     1
 10
1075.0
 20
910.1
 30
0.0
 11
1119.0
 21
910.1
 31
0.0
  0
LINE
  8
0
  6
CONTINUOUS
 62
     1
 10
1084.5
 20
916.1
 30
0.0
 11
1109.5
 21
916.1
 31
0.0
  0
LINE
  8
0
  6
CONTINUOUS
 62
     1
 10
1109.5
 20
916.1
 30
0.0
 11
1109.5
 21
910.1
 31
0.0
  0
LINE
  8
0
  6
CONTINUOUS
 62
     1
 10
1084.5
 20
916.1
 30
0.0
 11
1084.5
 21
910.1
 31
0.0
  0
LINE
  8
0
  6
CONTINUOUS
 62
     1
 10
1119.0
 20
910.1
 30
0.0
 11
1119.0
 21
905.6
 31
0.0
  0
LINE
  8
0
  6
CONTINUOUS
 62
     1
 10
1075.0
 20
910.1
 30
0.0
 11
1075.0
 21
905.6
 31
0.0
  0
CIRCLE
  8
0
  6
CONTINUOUS
 62
     1
 10
1097.0
 20
912.1
 30
0.0
 40
2.0
  0
LINE
  8
0
  6
LTYPE5
 62
     2
 10
1093.0
 20
912.0
 30
0.0
 11
1101.2
 21
912.0
 31
0.0
  0
LINE
  8
0
  6
LTYPE1
 62
     2
 10
1109.5
 20
910.1
 30
0.0
 11
1109.5
 21
890.6
 31
0.0
  0
LINE
  8
0
  6
LTYPE1
 62
     2
 10
1084.5
 20
910.1
 30
0.0
 11
1084.5
 21
890.6
 31
0.0
  0
LINE
  8
0
  6
CONTINUOUS
 62
     1
 10
1062.0
 20
865.6
 30
0.0
 11
1062.0
 21
890.6
 31
0.0
  0
LINE
  8
0
  6
CONTINUOUS
 62
     1
 10
1084.5
 20
865.6
 30
0.0
 11
1084.5
 21
890.6
 31
0.0
  0
LINE
  8
0
  6
CONTINUOUS
 62
     1
 10
1109.5
 20
865.6
 30
0.0
 11
1109.5
 21
890.6
 31
0.0
  0
LINE
  8
0
  6
LTYPE5
 62
     2
 10
1097.0
 20
835.1
 30
0.0
 11
1097.0
 21
916.1
 31
0.0
  0
LINE
  8
0
  6
LTYPE5
 62
     2
 10
1097.0
 20
921.1
 30
0.0
 11
1097.0
 21
840.1
 31
0.0
  0
LINE
  8
0
  6
CONTINUOUS
 62
     1
 10
1084.5
 20
890.6
 30
0.0
 11
1084.5
 21
865.6
 31
0.0
  0
LINE
  8
0
  6
CONTINUOUS
 62
     1
 10
1109.5
 20
890.6
 30
0.0
 11
1109.5
 21
865.6
 31
0.0
  0
LINE
  8
0
  6
LTYPE2
 62
     2
 10
979.7
 20
878.1
 30
0.0
 11
1142.0
 21
878.1
 31
0.0
  0
LINE
  8
0
  6
CONTINUOUS
 62
     1
 10
1047.0
 20
905.6
 30
0.0
 11
1122.0
 21
905.6
 31
0.0
  0
LINE
  8
0
  6
CONTINUOUS
 62
     1
 10
1047.0
 20
850.6
 30
0.0
 11
1047.0
 21
905.6
 31
0.0
  0
LINE
  8
0
  6
CONTINUOUS
 62
     1
 10
1047.0
 20
850.6
 30
0.0
 11
1122.0
 21
850.6
 31
0.0
  0
LINE
  8
0
  6
CONTINUOUS
 62
     1
 10
992.0
 20
853.1
 30
0.0
 11
1047.0
 21
853.1
 31
0.0
  0
LINE
  8
0
  6
CONTINUOUS
 62
     1
 10
992.0
 20
903.1
 30
0.0
 11
1047.0
 21
903.1
 31
0.0
  0
LINE
  8
0
  6
CONTINUOUS
 62
     2
 10
1129.5
 20
865.6
 30
0.0
 11
1178.5
 21
865.6
 31
0.0
  0
LINE
  8
0
  6
CONTINUOUS
 62
     2
 10
1171.0
 20
865.6
 30
0.0
 11
1167.764761936
 21
853.525927171
 31
0.0
  0
LINE
  8
0
  6
CONTINUOUS
 62
     2
 10
1171.0
 20
865.6
 30
0.0
 11
1174.235238064
 21
853.525927171
 31
0.0
  0
LINE
  8
0
  6
CONTINUOUS
 62
     2
 10
1171.0
 20
846.85
 30
0.0
 11
1171.0
 21
937.85
 31
0.0
  0
LINE
  8
0
  6
CONTINUOUS
 62
     2
 10
1129.5
 20
905.6
 30
0.0
 11
1207.0
 21
905.6
 31
0.0
  0
LINE
  8
0
  6
CONTINUOUS
 62
     2
 10
1171.0
 20
890.6
 30
0.0
 11
1174.235238064
 21
902.674072829
 31
0.0
  0
LINE
  8
0
  6
CONTINUOUS
 62
     2
 10
1171.0
 20
890.6
 30
0.0
 11
1167.764761936
 21
902.674072829
 31
0.0
  0
TEXT
  8
0
  6
CONTINUOUS
 62
     2
 10
1166.0
 20
909.35
 30
0.0
 40
18.0
  1
２５
 50
90.0
 41
0.9
 51
0.0
  7
KANJI34
  0
LINE
  8
0
  6
CONTINUOUS
 62
     2
 10
1129.5
 20
890.6
 30
0.0
 11
1178.5
 21
890.6
 31
0.0
  0
LINE
  8
0
  6
CONTINUOUS
 62
     2
 10
1129.5
 20
850.6
 30
0.0
 11
1207.0
 21
850.6
 31
0.0
  0
LINE
  8
0
  6
CONTINUOUS
 62
     2
 10
1199.5
 20
850.6
 30
0.0
 11
1202.735238064
 21
862.674072829
 31
0.0
  0
LINE
  8
0
  6
CONTINUOUS
 62
     2
 10
1199.5
 20
850.6
 30
0.0
 11
1196.264761936
 21
862.674072829
 31
0.0
  0
LINE
  8
0
  6
CONTINUOUS
 62
     2
 10
1199.5
 20
850.6
 30
0.0
 11
1199.5
 21
905.6
 31
0.0
  0
LINE
  8
0
  6
CONTINUOUS
 62
     2
 10
1199.5
 20
905.6
 30
0.0
 11
1196.264761936
 21
893.525927171
 31
0.0
  0
LINE
  8
0
  6
CONTINUOUS
 62
     2
 10
1199.5
 20
905.6
 30
0.0
 11
1202.735238064
 21
893.525927171
 31
0.0
  0
TEXT
  8
0
  6
CONTINUOUS
 62
     2
 10
1194.5
 20
863.85
 30
0.0
 40
18.0
  1
５５
 50
90.0
 41
0.9
 51
0.0
  7
KANJI34
  0
ENDSEC
  0
EOF
