  0
SECTION
  2
HEADER
  9
$ACADVER
  1
AC1009
  9
$DWGCODEPAGE
  3
dos932
  9
$EXTMIN
 10
0.0
 20
0.0
 30
0.0
  9
$EXTMAX
 10
2520.0
 20
1782.0
 30
0.0
  9
$LIMMIN
 10
0.0
 20
0.0
  9
$LIMMAX
 10
2520.0
 20
1782.0
  9
$LTSCALE
 40
1.0
  9
$PDMODE
 70
     0
  0
ENDSEC
  0
SECTION
  2
TABLES
  0
TABLE
  2
VPORT
 70
     1
  0
VPORT
  2
*ACTIVE
 70
     0
 10
0.0
 20
0.0
 11
1.0
 21
1.0
 12
1260.0
 22
891.0
 13
0.0
 23
0.0
 14
10.0
 24
10.0
 15
10.0
 25
10.0
 16
0.0
 26
0.0
 36
1.0
 17
0.0
 27
0.0
 37
0.0
 40
2520.0
 41
1.414141414
 42
50.0
 43
0.0
 44
0.0
 50
0.0
 51
0.0
 71
     0
 72
  1000
 73
     1
 74
     3
 75
     0
 76
     0
 77
     0
 78
     0
  0
ENDTAB
  0
TABLE
  2
LTYPE
 70
     7
  0
LTYPE
  2
CONTINUOUS
 70
    64
  3
Solid line
 72
    65
 73
     0
 40
0.0
  0
LTYPE
  2
LTYPE1
 70
    64
  3
HIDDEN
 72
    65
 73
     2
 40
18.0
 49
10.8
 49
-7.2
  0
LTYPE
  2
LTYPE2
 70
    64
  3
CENTER
 72
    65
 73
     4
 40
90.0
 49
63.0
 49
-9.0
 49
9.0
 49
-9.0
  0
LTYPE
  2
LTYPE3
 70
    64
  3
CENTER
 72
    65
 73
     4
 40
60.0
 49
42.0
 49
-6.0
 49
6.0
 49
-6.0
  0
LTYPE
  2
LTYPE4
 70
    64
  3
PHANTOM
 72
    65
 73
     6
 40
90.0
 49
67.5
 49
-4.5
 49
4.5
 49
-4.5
 49
4.5
 49
-4.5
  0
LTYPE
  2
LTYPE5
 70
    64
  3
CENTER
 72
    65
 73
     4
 40
120.0
 49
84.0
 49
-12.0
 49
12.0
 49
-12.0
  0
LTYPE
  2
LTYPE6
 70
    64
  3
CENTER
 72
    65
 73
     4
 40
54.0
 49
37.8
 49
-5.4
 49
5.4
 49
-5.4
  0
ENDTAB
  0
TABLE
  2
LAYER
 70
   128
  0
LAYER
  2
0
 70
     0
 62
     7
  6
CONTINUOUS
  0
LAYER
  2
2
 70
     0
 62
     7
  6
CONTINUOUS
  0
LAYER
  2
3
 70
     0
 62
     7
  6
CONTINUOUS
  0
LAYER
  2
4
 70
     0
 62
     7
  6
CONTINUOUS
  0
LAYER
  2
5
 70
     0
 62
     7
  6
CONTINUOUS
  0
LAYER
  2
6
 70
     0
 62
     7
  6
CONTINUOUS
  0
LAYER
  2
7
 70
     0
 62
     7
  6
CONTINUOUS
  0
LAYER
  2
8
 70
     0
 62
     7
  6
CONTINUOUS
  0
LAYER
  2
9
 70
     0
 62
     7
  6
CONTINUOUS
  0
LAYER
  2
10
 70
     0
 62
     7
  6
CONTINUOUS
  0
LAYER
  2
11
 70
     0
 62
     7
  6
CONTINUOUS
  0
LAYER
  2
12
 70
     0
 62
     7
  6
CONTINUOUS
  0
LAYER
  2
13
 70
     0
 62
     7
  6
CONTINUOUS
  0
LAYER
  2
14
 70
     0
 62
     7
  6
CONTINUOUS
  0
LAYER
  2
15
 70
     0
 62
     7
  6
CONTINUOUS
  0
LAYER
  2
16
 70
     0
 62
     7
  6
CONTINUOUS
  0
LAYER
  2
17
 70
     0
 62
     7
  6
CONTINUOUS
  0
LAYER
  2
18
 70
     0
 62
     7
  6
CONTINUOUS
  0
LAYER
  2
19
 70
     0
 62
     7
  6
CONTINUOUS
  0
LAYER
  2
20
 70
     0
 62
     7
  6
CONTINUOUS
  0
LAYER
  2
21
 70
     0
 62
     7
  6
CONTINUOUS
  0
LAYER
  2
22
 70
     0
 62
     7
  6
CONTINUOUS
  0
LAYER
  2
23
 70
     0
 62
     7
  6
CONTINUOUS
  0
LAYER
  2
24
 70
     0
 62
     7
  6
CONTINUOUS
  0
LAYER
  2
25
 70
     0
 62
     7
  6
CONTINUOUS
  0
LAYER
  2
26
 70
     0
 62
     7
  6
CONTINUOUS
  0
LAYER
  2
27
 70
     0
 62
     7
  6
CONTINUOUS
  0
LAYER
  2
28
 70
     0
 62
     7
  6
CONTINUOUS
  0
LAYER
  2
29
 70
     0
 62
     7
  6
CONTINUOUS
  0
LAYER
  2
30
 70
     0
 62
     7
  6
CONTINUOUS
  0
LAYER
  2
31
 70
     0
 62
     7
  6
CONTINUOUS
  0
LAYER
  2
32
 70
     0
 62
     7
  6
CONTINUOUS
  0
LAYER
  2
33
 70
     0
 62
     7
  6
CONTINUOUS
  0
LAYER
  2
34
 70
     0
 62
     7
  6
CONTINUOUS
  0
LAYER
  2
35
 70
     0
 62
     7
  6
CONTINUOUS
  0
LAYER
  2
36
 70
     0
 62
     7
  6
CONTINUOUS
  0
LAYER
  2
37
 70
     0
 62
     7
  6
CONTINUOUS
  0
LAYER
  2
38
 70
     0
 62
     7
  6
CONTINUOUS
  0
LAYER
  2
39
 70
     0
 62
     7
  6
CONTINUOUS
  0
LAYER
  2
40
 70
     0
 62
     7
  6
CONTINUOUS
  0
LAYER
  2
41
 70
     0
 62
     7
  6
CONTINUOUS
  0
LAYER
  2
42
 70
     0
 62
     7
  6
CONTINUOUS
  0
LAYER
  2
43
 70
     0
 62
     7
  6
CONTINUOUS
  0
LAYER
  2
44
 70
     0
 62
     7
  6
CONTINUOUS
  0
LAYER
  2
45
 70
     0
 62
     7
  6
CONTINUOUS
  0
LAYER
  2
46
 70
     0
 62
     7
  6
CONTINUOUS
  0
LAYER
  2
47
 70
     0
 62
     7
  6
CONTINUOUS
  0
LAYER
  2
48
 70
     0
 62
     7
  6
CONTINUOUS
  0
LAYER
  2
49
 70
     0
 62
     7
  6
CONTINUOUS
  0
LAYER
  2
50
 70
     0
 62
     7
  6
CONTINUOUS
  0
LAYER
  2
51
 70
     0
 62
     7
  6
CONTINUOUS
  0
LAYER
  2
52
 70
     0
 62
     7
  6
CONTINUOUS
  0
LAYER
  2
53
 70
     0
 62
     7
  6
CONTINUOUS
  0
LAYER
  2
54
 70
     0
 62
     7
  6
CONTINUOUS
  0
LAYER
  2
55
 70
     0
 62
     7
  6
CONTINUOUS
  0
LAYER
  2
56
 70
     0
 62
     7
  6
CONTINUOUS
  0
LAYER
  2
57
 70
     0
 62
     7
  6
CONTINUOUS
  0
LAYER
  2
58
 70
     0
 62
     7
  6
CONTINUOUS
  0
LAYER
  2
59
 70
     0
 62
     7
  6
CONTINUOUS
  0
LAYER
  2
60
 70
     0
 62
     7
  6
CONTINUOUS
  0
LAYER
  2
61
 70
     0
 62
     7
  6
CONTINUOUS
  0
LAYER
  2
62
 70
     0
 62
     7
  6
CONTINUOUS
  0
LAYER
  2
63
 70
     0
 62
     7
  6
CONTINUOUS
  0
LAYER
  2
64
 70
     0
 62
     7
  6
CONTINUOUS
  0
LAYER
  2
65
 70
     0
 62
     7
  6
CONTINUOUS
  0
LAYER
  2
66
 70
     0
 62
     7
  6
CONTINUOUS
  0
LAYER
  2
67
 70
     0
 62
     7
  6
CONTINUOUS
  0
LAYER
  2
68
 70
     0
 62
     7
  6
CONTINUOUS
  0
LAYER
  2
69
 70
     0
 62
     7
  6
CONTINUOUS
  0
LAYER
  2
70
 70
     0
 62
     7
  6
CONTINUOUS
  0
LAYER
  2
71
 70
     0
 62
     7
  6
CONTINUOUS
  0
LAYER
  2
72
 70
     0
 62
     7
  6
CONTINUOUS
  0
LAYER
  2
73
 70
     0
 62
     7
  6
CONTINUOUS
  0
LAYER
  2
74
 70
     0
 62
     7
  6
CONTINUOUS
  0
LAYER
  2
75
 70
     0
 62
     7
  6
CONTINUOUS
  0
LAYER
  2
76
 70
     0
 62
     7
  6
CONTINUOUS
  0
LAYER
  2
77
 70
     0
 62
     7
  6
CONTINUOUS
  0
LAYER
  2
78
 70
     0
 62
     7
  6
CONTINUOUS
  0
LAYER
  2
79
 70
     0
 62
     7
  6
CONTINUOUS
  0
LAYER
  2
80
 70
     0
 62
     7
  6
CONTINUOUS
  0
LAYER
  2
81
 70
     0
 62
     7
  6
CONTINUOUS
  0
LAYER
  2
82
 70
     0
 62
     7
  6
CONTINUOUS
  0
LAYER
  2
83
 70
     0
 62
     7
  6
CONTINUOUS
  0
LAYER
  2
84
 70
     0
 62
     7
  6
CONTINUOUS
  0
LAYER
  2
85
 70
     0
 62
     7
  6
CONTINUOUS
  0
LAYER
  2
86
 70
     0
 62
     7
  6
CONTINUOUS
  0
LAYER
  2
87
 70
     0
 62
     7
  6
CONTINUOUS
  0
LAYER
  2
88
 70
     0
 62
     7
  6
CONTINUOUS
  0
LAYER
  2
89
 70
     0
 62
     7
  6
CONTINUOUS
  0
LAYER
  2
90
 70
     0
 62
     7
  6
CONTINUOUS
  0
LAYER
  2
91
 70
     0
 62
     7
  6
CONTINUOUS
  0
LAYER
  2
92
 70
     0
 62
     7
  6
CONTINUOUS
  0
LAYER
  2
93
 70
     0
 62
     7
  6
CONTINUOUS
  0
LAYER
  2
94
 70
     0
 62
     7
  6
CONTINUOUS
  0
LAYER
  2
95
 70
     0
 62
     7
  6
CONTINUOUS
  0
LAYER
  2
96
 70
     0
 62
     7
  6
CONTINUOUS
  0
LAYER
  2
97
 70
     0
 62
     7
  6
CONTINUOUS
  0
LAYER
  2
98
 70
     0
 62
     7
  6
CONTINUOUS
  0
LAYER
  2
99
 70
     0
 62
     7
  6
CONTINUOUS
  0
LAYER
  2
100
 70
     0
 62
     7
  6
CONTINUOUS
  0
LAYER
  2
101
 70
     0
 62
     7
  6
CONTINUOUS
  0
LAYER
  2
102
 70
     0
 62
     7
  6
CONTINUOUS
  0
LAYER
  2
103
 70
     0
 62
     7
  6
CONTINUOUS
  0
LAYER
  2
104
 70
     0
 62
     7
  6
CONTINUOUS
  0
LAYER
  2
105
 70
     0
 62
     7
  6
CONTINUOUS
  0
LAYER
  2
106
 70
     0
 62
     7
  6
CONTINUOUS
  0
LAYER
  2
107
 70
     0
 62
     7
  6
CONTINUOUS
  0
LAYER
  2
108
 70
     0
 62
     7
  6
CONTINUOUS
  0
LAYER
  2
109
 70
     0
 62
     7
  6
CONTINUOUS
  0
LAYER
  2
110
 70
     0
 62
     7
  6
CONTINUOUS
  0
LAYER
  2
111
 70
     0
 62
     7
  6
CONTINUOUS
  0
LAYER
  2
112
 70
     0
 62
     7
  6
CONTINUOUS
  0
LAYER
  2
113
 70
     0
 62
     7
  6
CONTINUOUS
  0
LAYER
  2
114
 70
     0
 62
     7
  6
CONTINUOUS
  0
LAYER
  2
115
 70
     0
 62
     7
  6
CONTINUOUS
  0
LAYER
  2
116
 70
     0
 62
     7
  6
CONTINUOUS
  0
LAYER
  2
117
 70
     0
 62
     7
  6
CONTINUOUS
  0
LAYER
  2
118
 70
     0
 62
     7
  6
CONTINUOUS
  0
LAYER
  2
119
 70
     0
 62
     7
  6
CONTINUOUS
  0
LAYER
  2
120
 70
     0
 62
     7
  6
CONTINUOUS
  0
LAYER
  2
121
 70
     0
 62
     7
  6
CONTINUOUS
  0
LAYER
  2
122
 70
     0
 62
     7
  6
CONTINUOUS
  0
LAYER
  2
123
 70
     0
 62
     7
  6
CONTINUOUS
  0
LAYER
  2
124
 70
     0
 62
     7
  6
CONTINUOUS
  0
LAYER
  2
125
 70
     0
 62
     7
  6
CONTINUOUS
  0
LAYER
  2
126
 70
     0
 62
     7
  6
CONTINUOUS
  0
LAYER
  2
127
 70
     0
 62
     7
  6
CONTINUOUS
  0
LAYER
  2
128
 70
     0
 62
     7
  6
CONTINUOUS
  0
ENDTAB
  0
TABLE
  2
STYLE
 70
    85
  0
STYLE
  2
STANDARD
 70
     0
 40
0.0
 41
1.0
 50
0.0
 71
     0
 42
0.2
  3
txt.shx
  4
extfont.shx
  0
STYLE
  2
KANJI0
 70
     0
 40
15.5999988
 41
0.75
 50
0.0
 71
     0
 42
15.5999988
  3
txt.shx
  4
extfont.shx
  0
STYLE
  2
KANJI1
 70
     0
 40
11.999997477
 41
0.6
 50
0.0
 71
     0
 42
11.999997477
  3
txt.shx
  4
extfont.shx
  0
STYLE
  2
KANJI2
 70
     0
 40
14.399996972
 41
0.9
 50
0.0
 71
     0
 42
14.399996972
  3
txt.shx
  4
extfont.shx
  0
STYLE
  2
KANJI3
 70
     0
 40
17.999996215
 41
0.9
 50
0.0
 71
     0
 42
17.999996215
  3
txt.shx
  4
extfont.shx
  0
STYLE
  2
KANJI4
 70
     0
 40
10.3999992
 41
0.6
 50
0.0
 71
     0
 42
10.3999992
  3
txt.shx
  4
extfont.shx
  0
STYLE
  2
KANJI5
 70
     0
 40
12.47999904
 41
0.6
 50
0.0
 71
     0
 42
12.47999904
  3
txt.shx
  4
extfont.shx
  0
STYLE
  2
KANJI6
 70
     0
 40
18.1999986
 41
0.42031746
 50
0.0
 71
     0
 42
18.1999986
  3
txt.shx
  4
extfont.shx
  0
STYLE
  2
KANJI7
 70
     0
 40
31.1999976
 41
0.9
 50
0.0
 71
     0
 42
31.1999976
  3
txt.shx
  4
extfont.shx
  0
STYLE
  2
KANJI8
 70
     0
 40
21.6
 41
1.111111111
 50
0.0
 71
     0
 42
21.6
  3
txt.shx
  4
extfont.shx
  0
STYLE
  2
KANJI9
 70
     0
 40
10.3999992
 41
0.8
 50
0.0
 71
     0
 42
10.3999992
  3
txt.shx
  4
extfont.shx
  0
STYLE
  2
KANJI10
 70
     0
 40
12.47999904
 41
0.8
 50
0.0
 71
     0
 42
12.47999904
  3
txt.shx
  4
extfont.shx
  0
STYLE
  2
KANJI11
 70
     0
 40
30.0
 41
1.0
 50
0.0
 71
     0
 42
30.0
  3
txt.shx
  4
extfont.shx
  0
STYLE
  2
KANJI12
 70
     0
 40
30.0
 41
1.0
 50
0.0
 71
     0
 42
30.0
  3
txt.shx
  4
extfont.shx
  0
STYLE
  2
KANJI13
 70
     0
 40
30.0
 41
0.8
 50
0.0
 71
     0
 42
30.0
  3
txt.shx
  4
extfont.shx
  0
STYLE
  2
KANJI14
 70
     0
 40
24.0
 41
1.0
 50
0.0
 71
     0
 42
24.0
  3
txt.shx
  4
extfont.shx
  0
STYLE
  2
KANJI15
 70
     0
 40
21.0
 41
0.857142857
 50
0.0
 71
     0
 42
21.0
  3
txt.shx
  4
extfont.shx
  0
STYLE
  2
KANJI16
 70
     0
 40
27.0
 41
0.666666667
 50
0.0
 71
     0
 42
27.0
  3
txt.shx
  4
extfont.shx
  0
STYLE
  2
KANJI17
 70
     0
 40
13.86
 41
0.9
 50
0.0
 71
     0
 42
13.86
  3
txt.shx
  4
extfont.shx
  0
STYLE
  2
KANJI18
 70
     0
 40
30.0
 41
0.8
 50
0.0
 71
     0
 42
30.0
  3
txt.shx
  4
extfont.shx
  0
STYLE
  2
KANJI19
 70
     0
 40
18.0
 41
0.9
 50
0.0
 71
     0
 42
18.0
  3
txt.shx
  4
extfont.shx
  0
STYLE
  2
KANJI20
 70
     0
 40
16.17
 41
0.9
 50
0.0
 71
     0
 42
16.17
  3
txt.shx
  4
extfont.shx
  0
STYLE
  2
KANJI21
 70
     0
 40
17.031074144
 41
0.880962996
 50
0.0
 71
     0
 42
17.031074144
  3
txt.shx
  4
extfont.shx
  0
STYLE
  2
KANJI22
 70
     0
 40
11.232
 41
0.8
 50
0.0
 71
     0
 42
11.232
  3
txt.shx
  4
extfont.shx
  0
STYLE
  2
KANJI23
 70
     0
 40
14.37696
 41
0.9125
 50
0.0
 71
     0
 42
14.37696
  3
txt.shx
  4
extfont.shx
  0
STYLE
  2
KANJI24
 70
     0
 40
14.4
 41
0.911
 50
0.0
 71
     0
 42
14.4
  3
txt.shx
  4
extfont.shx
  0
STYLE
  2
KANJI25
 70
     0
 40
13.9932
 41
0.943315325
 50
0.0
 71
     0
 42
13.9932
  3
txt.shx
  4
extfont.shx
  0
STYLE
  2
KANJI26
 70
     0
 40
18.0
 41
0.9
 50
0.0
 71
     0
 42
18.0
  3
txt.shx
  4
extfont.shx
  0
STYLE
  2
KANJI27
 70
     0
 40
18.223173404
 41
0.66671875
 50
0.0
 71
     0
 42
18.223173404
  3
txt.shx
  4
extfont.shx
  0
STYLE
  2
KANJI28
 70
     0
 40
21.867808085
 41
0.9
 50
0.0
 71
     0
 42
21.867808085
  3
txt.shx
  4
extfont.shx
  0
STYLE
  2
KANJI29
 70
     0
 40
18.72
 41
0.925
 50
0.0
 71
     0
 42
18.72
  3
txt.shx
  4
extfont.shx
  0
STYLE
  2
KANJI30
 70
     0
 40
17.494246468
 41
0.9
 50
0.0
 71
     0
 42
17.494246468
  3
txt.shx
  4
extfont.shx
  0
STYLE
  2
KANJI31
 70
     0
 40
13.120684851
 41
0.9
 50
0.0
 71
     0
 42
13.120684851
  3
txt.shx
  4
extfont.shx
  0
STYLE
  2
KANJI32
 70
     0
 40
17.5
 41
0.9
 50
0.0
 71
     0
 42
17.5
  3
txt.shx
  4
extfont.shx
  0
STYLE
  2
KANJI33
 70
     0
 40
17.5
 41
0.9
 50
0.0
 71
     0
 42
17.5
  3
txt.shx
  4
extfont.shx
  0
STYLE
  2
KANJI34
 70
     0
 40
17.5
 41
0.9
 50
0.0
 71
     0
 42
17.5
  3
txt.shx
  4
extfont.shx
  0
STYLE
  2
KANJI35
 70
     0
 40
15.0
 41
0.9
 50
0.0
 71
     0
 42
15.0
  3
txt.shx
  4
extfont.shx
  0
STYLE
  2
KANJI36
 70
     0
 40
17.5
 41
0.914285714
 50
0.0
 71
     0
 42
17.5
  3
txt.shx
  4
extfont.shx
  0
STYLE
  2
KANJI37
 70
     0
 40
18.0
 41
0.866666667
 50
0.0
 71
     0
 42
18.0
  3
txt.shx
  4
extfont.shx
  0
STYLE
  2
KANJI38
 70
     0
 40
20.0
 41
0.925
 50
0.0
 71
     0
 42
20.0
  3
txt.shx
  4
extfont.shx
  0
STYLE
  2
KANJI39
 70
     0
 40
15.0
 41
0.9
 50
0.0
 71
     0
 42
15.0
  3
txt.shx
  4
extfont.shx
  0
STYLE
  2
KANJI40
 70
     0
 40
14.4
 41
0.9
 50
0.0
 71
     0
 42
14.4
  3
txt.shx
  4
extfont.shx
  0
STYLE
  2
KANJI41
 70
     0
 40
20.0
 41
0.925
 50
0.0
 71
     0
 42
20.0
  3
txt.shx
  4
extfont.shx
  0
STYLE
  2
KANJI42
 70
     0
 40
21.0
 41
0.857222222
 50
0.0
 71
     0
 42
21.0
  3
txt.shx
  4
extfont.shx
  0
STYLE
  2
KANJI43
 70
     0
 40
24.0
 41
0.9
 50
0.0
 71
     0
 42
24.0
  3
txt.shx
  4
extfont.shx
  0
STYLE
  2
KANJI44
 70
     0
 40
21.0
 41
0.857142857
 50
0.0
 71
     0
 42
21.0
  3
txt.shx
  4
extfont.shx
  0
STYLE
  2
KANJI45
 70
     0
 40
18.0
 41
0.9
 50
0.0
 71
     0
 42
18.0
  3
txt.shx
  4
extfont.shx
  0
STYLE
  2
KANJI46
 70
     0
 40
15.36
 41
0.9
 50
0.0
 71
     0
 42
15.36
  3
txt.shx
  4
extfont.shx
  0
STYLE
  2
KANJI47
 70
     0
 40
14.4
 41
0.9
 50
0.0
 71
     0
 42
14.4
  3
txt.shx
  4
extfont.shx
  0
STYLE
  2
KANJI48
 70
     0
 40
14.4
 41
0.9
 50
0.0
 71
     0
 42
14.4
  3
txt.shx
  4
extfont.shx
  0
STYLE
  2
KANJI49
 70
     0
 40
16.8
 41
0.9
 50
0.0
 71
     0
 42
16.8
  3
txt.shx
  4
extfont.shx
  0
STYLE
  2
KANJI50
 70
     0
 40
12.96
 41
0.740740741
 50
0.0
 71
     0
 42
12.96
  3
txt.shx
  4
extfont.shx
  0
STYLE
  2
KANJI51
 70
     0
 40
16.8
 41
0.857142857
 50
0.0
 71
     0
 42
16.8
  3
txt.shx
  4
extfont.shx
  0
STYLE
  2
KANJI52
 70
     0
 40
14.4
 41
0.833333333
 50
0.0
 71
     0
 42
14.4
  3
txt.shx
  4
extfont.shx
  0
STYLE
  2
KANJI53
 70
     0
 40
21.0
 41
0.793650794
 50
0.0
 71
     0
 42
21.0
  3
txt.shx
  4
extfont.shx
  0
STYLE
  2
KANJI54
 70
     4
 40
180.0
 41
0.216666667
 50
0.0
 71
     0
 42
180.0
  3
txt.shx
  4
extfont.shx
  0
STYLE
  2
KANJI55
 70
     0
 40
18.98208
 41
0.85
 50
0.0
 71
     0
 42
18.98208
  3
txt.shx
  4
extfont.shx
  0
STYLE
  2
KANJI56
 70
     0
 40
16.8
 41
0.714285714
 50
0.0
 71
     0
 42
16.8
  3
txt.shx
  4
extfont.shx
  0
STYLE
  2
KANJI57
 70
     0
 40
21.0
 41
0.571428571
 50
0.0
 71
     0
 42
21.0
  3
txt.shx
  4
extfont.shx
  0
STYLE
  2
KANJI58
 70
     0
 40
22.8
 41
0.9
 50
0.0
 71
     0
 42
22.8
  3
txt.shx
  4
extfont.shx
  0
STYLE
  2
KANJI59
 70
     0
 40
22.8
 41
0.9
 50
0.0
 71
     0
 42
22.8
  3
txt.shx
  4
extfont.shx
  0
STYLE
  2
KANJI60
 70
     0
 40
27.0
 41
0.9
 50
0.0
 71
     0
 42
27.0
  3
txt.shx
  4
extfont.shx
  0
STYLE
  2
KANJI61
 70
     0
 40
22.8
 41
0.9
 50
0.0
 71
     0
 42
22.8
  3
txt.shx
  4
extfont.shx
  0
STYLE
  2
KANJI62
 70
     0
 40
22.8
 41
0.9
 50
0.0
 71
     0
 42
22.8
  3
txt.shx
  4
extfont.shx
  0
STYLE
  2
KANJI63
 70
     0
 40
22.8
 41
0.9
 50
0.0
 71
     0
 42
22.8
  3
txt.shx
  4
extfont.shx
  0
STYLE
  2
KANJI64
 70
     0
 40
22.8
 41
0.9
 50
0.0
 71
     0
 42
22.8
  3
txt.shx
  4
extfont.shx
  0
STYLE
  2
KANJI65
 70
     0
 40
22.8
 41
0.9
 50
0.0
 71
     0
 42
22.8
  3
txt.shx
  4
extfont.shx
  0
STYLE
  2
KANJI66
 70
     0
 40
22.8
 41
0.9
 50
0.0
 71
     0
 42
22.8
  3
txt.shx
  4
extfont.shx
  0
STYLE
  2
KANJI67
 70
     4
 40
21.0
 41
0.9
 50
0.0
 71
     0
 42
21.0
  3
txt.shx
  4
extfont.shx
  0
STYLE
  2
KANJI68
 70
     4
 40
21.0
 41
0.9
 50
0.0
 71
     0
 42
21.0
  3
txt.shx
  4
extfont.shx
  0
STYLE
  2
KANJI69
 70
     0
 40
21.0
 41
0.9
 50
0.0
 71
     0
 42
21.0
  3
txt.shx
  4
extfont.shx
  0
STYLE
  2
KANJI70
 70
     0
 40
18.0
 41
0.9
 50
0.0
 71
     0
 42
18.0
  3
txt.shx
  4
extfont.shx
  0
STYLE
  2
KANJI71
 70
     0
 40
21.0
 41
0.9
 50
0.0
 71
     0
 42
21.0
  3
txt.shx
  4
extfont.shx
  0
STYLE
  2
KANJI72
 70
     0
 40
22.8
 41
0.9
 50
0.0
 71
     0
 42
22.8
  3
txt.shx
  4
extfont.shx
  0
STYLE
  2
KANJI73
 70
     0
 40
22.8
 41
0.9
 50
0.0
 71
     0
 42
22.8
  3
txt.shx
  4
extfont.shx
  0
STYLE
  2
KANJI74
 70
     0
 40
21.0
 41
0.628571429
 50
0.0
 71
     0
 42
21.0
  3
txt.shx
  4
extfont.shx
  0
STYLE
  2
KANJI75
 70
     0
 40
20.4
 41
0.705882353
 50
0.0
 71
     0
 42
20.4
  3
txt.shx
  4
extfont.shx
  0
STYLE
  2
KANJI76
 70
     0
 40
18.0
 41
0.8
 50
0.0
 71
     0
 42
18.0
  3
txt.shx
  4
extfont.shx
  0
STYLE
  2
KANJI77
 70
     0
 40
19.2
 41
0.71875
 50
0.0
 71
     0
 42
19.2
  3
txt.shx
  4
extfont.shx
  0
STYLE
  2
KANJI78
 70
     0
 40
19.2
 41
0.8
 50
0.0
 71
     0
 42
19.2
  3
txt.shx
  4
extfont.shx
  0
STYLE
  2
KANJI79
 70
     0
 40
21.0
 41
0.571428571
 50
0.0
 71
     0
 42
21.0
  3
txt.shx
  4
extfont.shx
  0
STYLE
  2
KANJI80
 70
     0
 40
18.0
 41
0.833333333
 50
0.0
 71
     0
 42
18.0
  3
txt.shx
  4
extfont.shx
  0
STYLE
  2
KANJI81
 70
     0
 40
21.0
 41
0.9
 50
0.0
 71
     0
 42
21.0
  3
txt.shx
  4
extfont.shx
  0
STYLE
  2
KANJI82
 70
     0
 40
21.0
 41
0.857142857
 50
0.0
 71
     0
 42
21.0
  3
txt.shx
  4
extfont.shx
  0
STYLE
  2
KANJI83
 70
     0
 40
18.0
 41
0.833333333
 50
0.0
 71
     0
 42
18.0
  3
txt.shx
  4
extfont.shx
  0
ENDTAB
  0
TABLE
  2
VIEW
 70
     0
  0
ENDTAB
  0
ENDSEC
  0
SECTION
  2
BLOCKS
  0
ENDSEC
  0
SECTION
  2
ENTITIES
  0
POLYLINE
  8
0
  6
CONTINUOUS
 62
     6
 66
     1
  0
VERTEX
  8
0
  6
CONTINUOUS
 62
     6
 10
60.92
 20
64.6
 30
0.0
  0
VERTEX
  8
0
  6
CONTINUOUS
 62
     6
 10
60.92
 20
1678.6
 30
0.0
  0
VERTEX
  8
0
  6
CONTINUOUS
 62
     6
 10
2382.92
 20
1678.6
 30
0.0
  0
SEQEND
  0
LINE
  8
0
  6
CONTINUOUS
 62
     6
 10
66.919998738
 20
154.599981077
 30
0.0
 11
456.919916738
 21
154.599981077
 31
0.0
  0
LINE
  8
0
  6
CONTINUOUS
 62
     6
 10
66.919998738
 20
70.599998738
 30
0.0
 11
456.919916738
 21
70.599998738
 31
0.0
  0
LINE
  8
0
  6
CONTINUOUS
 62
     6
 10
66.919998738
 20
70.599998738
 30
0.0
 11
66.919998738
 21
154.599981077
 31
0.0
  0
LINE
  8
0
  6
CONTINUOUS
 62
     6
 10
66.919998738
 20
112.599989908
 30
0.0
 11
456.919916738
 21
112.599989908
 31
0.0
  0
LINE
  8
0
  6
CONTINUOUS
 62
     4
 10
-7.3800004
 20
69.7999996
 30
0.0
 11
55.0199948
 21
69.7999996
 31
0.0
  0
LINE
  8
0
  6
CONTINUOUS
 62
     4
 10
-7.3800004
 20
100.9999972
 30
0.0
 11
55.0199948
 21
100.9999972
 31
0.0
  0
LINE
  8
0
  6
CONTINUOUS
 62
     4
 10
-7.3800004
 20
132.1999948
 30
0.0
 11
55.0199948
 21
132.1999948
 31
0.0
  0
LINE
  8
0
  6
CONTINUOUS
 62
     4
 10
-7.3800004
 20
163.3999924
 30
0.0
 11
55.0199948
 21
163.3999924
 31
0.0
  0
LINE
  8
0
  6
CONTINUOUS
 62
     4
 10
-7.3800004
 20
194.59999
 30
0.0
 11
55.0199948
 21
194.59999
 31
0.0
  0
LINE
  8
0
  6
CONTINUOUS
 62
     4
 10
-7.3800004
 20
225.7999876
 30
0.0
 11
55.0199948
 21
225.7999876
 31
0.0
  0
LINE
  8
0
  6
CONTINUOUS
 62
     4
 10
-7.3800004
 20
256.9999852
 30
0.0
 11
55.0199948
 21
256.9999852
 31
0.0
  0
LINE
  8
0
  6
CONTINUOUS
 62
     4
 10
-7.3800004
 20
288.1999828
 30
0.0
 11
55.0199948
 21
288.1999828
 31
0.0
  0
LINE
  8
0
  6
CONTINUOUS
 62
     4
 10
-7.3800004
 20
319.3999804
 30
0.0
 11
55.0199948
 21
319.3999804
 31
0.0
  0
LINE
  8
0
  6
CONTINUOUS
 62
     4
 10
-7.3800004
 20
350.599978
 30
0.0
 11
55.0199948
 21
350.599978
 31
0.0
  0
LINE
  8
0
  6
CONTINUOUS
 62
     4
 10
55.0199948
 20
69.7999996
 30
0.0
 11
55.0199948
 21
350.599978
 31
0.0
  0
LINE
  8
0
  6
CONTINUOUS
 62
     4
 10
23.8199972
 20
69.7999996
 30
0.0
 11
23.8199972
 21
319.3999804
 31
0.0
  0
TEXT
  8
0
  6
CONTINUOUS
 62
     4
 10
3.27999878
 20
78.8999989
 30
1.55999988
 40
15.5999988
  1
計
 50
0.0
 41
0.75
 51
0.0
  7
KANJI0
  0
TEXT
  8
0
  6
CONTINUOUS
 62
     4
 10
3.27999878
 20
141.81999406
 30
1.55999988
 40
15.5999988
  1
設
 50
0.0
 41
0.75
 51
0.0
  7
KANJI0
  0
TEXT
  8
0
  6
CONTINUOUS
 62
     4
 10
3.27999878
 20
172.4999917
 30
1.55999988
 40
15.5999988
  1
管
 50
0.0
 41
0.75
 51
0.0
  7
KANJI0
  0
TEXT
  8
0
  6
CONTINUOUS
 62
     4
 10
3.27999878
 20
203.6999893
 30
1.55999988
 40
15.5999988
  1
製
 50
0.0
 41
0.75
 51
0.0
  7
KANJI0
  0
TEXT
  8
0
  6
CONTINUOUS
 62
     4
 10
3.27999878
 20
234.8999869
 30
1.55999988
 40
15.5999988
  1
資
 50
0.0
 41
0.75
 51
0.0
  7
KANJI0
  0
TEXT
  8
0
  6
CONTINUOUS
 62
     4
 10
3.27999878
 20
266.0999845
 30
1.55999988
 40
15.5999988
  1
営
 50
0.0
 41
0.75
 51
0.0
  7
KANJI0
  0
TEXT
  8
0
  6
CONTINUOUS
 62
     4
 10
3.27999878
 20
297.2999821
 30
1.55999988
 40
15.5999988
  1
客
 50
0.0
 41
0.75
 51
0.0
  7
KANJI0
  0
TEXT
  8
0
  6
CONTINUOUS
 62
     4
 10
3.0199988
 20
329.7999796
 30
1.55999988
 40
15.5999988
  1
出　図
 50
0.0
 41
0.75
 51
0.0
  7
KANJI0
  0
LINE
  8
0
  6
CONTINUOUS
 62
     4
 10
-7.3800004
 20
69.7999996
 30
0.0
 11
-7.3800004
 21
350.599978
 31
0.0
  0
LINE
  8
0
  6
CONTINUOUS
 62
     6
 10
2382.92
 20
64.6
 30
0.0
 11
60.92
 21
64.6
 31
0.0
  0
TEXT
  8
0
  6
CONTINUOUS
 62
     4
 10
78.919996215
 20
94.599993692
 30
1.199999748
 40
11.999997477
  1
ＰＡＲＴＳ　ＬＩＳＴ
 50
0.0
 41
0.6
 51
0.0
  7
KANJI1
  0
TEXT
  8
0
  6
CONTINUOUS
 62
     4
 10
78.919996215
 20
76.599997477
 30
1.439999697
 40
14.399996972
  1
部品表
 50
0.0
 41
0.9
 51
0.0
  7
KANJI2
  0
TEXT
  8
0
  6
CONTINUOUS
 62
     3
 10
78.919996215
 20
124.599987385
 30
1.799999622
 40
17.999996215
  1
ＰＬ
 50
0.0
 41
0.9
 51
0.0
  7
KANJI3
  0
TEXT
  8
0
  6
CONTINUOUS
 62
     4
 10
348.919939446
 20
94.599993692
 30
1.199999748
 40
11.999997477
  1
Ｎ０．
 50
0.0
 41
0.6
 51
0.0
  7
KANJI1
  0
TEXT
  8
0
  6
CONTINUOUS
 62
     4
 10
348.919939446
 20
76.599997477
 30
1.439999697
 40
14.399996972
  1
項番
 50
0.0
 41
0.9
 51
0.0
  7
KANJI2
  0
LINE
  8
0
  6
CONTINUOUS
 62
     6
 10
456.919916738
 20
70.599998738
 30
0.0
 11
456.919916738
 21
154.599981077
 31
0.0
  0
LINE
  8
0
  6
CONTINUOUS
 62
     6
 10
336.919941969
 20
70.599998738
 30
0.0
 11
336.919941969
 21
154.599981077
 31
0.0
  0
LINE
  8
0
  6
CONTINUOUS
 62
     6
 10
2382.92
 20
1678.6
 30
0.0
 11
2382.92
 21
64.6
 31
0.0
  0
LINE
  8
0
  6
CONTINUOUS
 62
     6
 10
1576.920062
 20
69.7999996
 30
0.0
 11
1576.920062
 21
402.599974
 31
0.0
  0
LINE
  8
0
  6
CONTINUOUS
 62
     6
 10
2377.7200004
 20
69.7999996
 30
0.0
 11
2377.7200004
 21
402.599974
 31
0.0
  0
LINE
  8
0
  6
CONTINUOUS
 62
     4
 10
1766.7200474
 20
69.7999996
 30
0.0
 11
1766.7200474
 21
402.599974
 31
0.0
  0
LINE
  8
0
  6
CONTINUOUS
 62
     4
 10
1576.920062
 20
111.3999964
 30
0.0
 11
1766.7200474
 21
111.3999964
 31
0.0
  0
TEXT
  8
0
  6
CONTINUOUS
 62
     4
 10
1587.3200612
 20
93.1999978
 30
1.03999992
 40
10.3999992
  1
ＳＣＡＬＥ
 50
0.0
 41
0.6
 51
0.0
  7
KANJI4
  0
TEXT
  8
0
  6
CONTINUOUS
 62
     4
 10
1587.3200612
 20
77.599999
 30
1.247999904
 40
12.47999904
  1
尺度
 50
0.0
 41
0.6
 51
0.0
  7
KANJI5
  0
LINE
  8
0
  6
CONTINUOUS
 62
     6
 10
1166.1200936
 20
111.3999964
 30
0.0
 11
1576.920062
 21
111.3999964
 31
0.0
  0
LINE
  8
0
  6
CONTINUOUS
 62
     6
 10
1166.1200936
 20
69.7999996
 30
0.0
 11
2377.7200004
 21
69.7999996
 31
0.0
  0
TEXT
  8
0
  6
CONTINUOUS
 62
     6
 10
1771.920047
 20
93.1999978
 30
0.0
 40
18.1999986
  1
ＵＮＩＴＥＣ　ＩＮＤＵＳＴＲＹ　ＣＯ．，ＬＴＤ．
 50
0.0
 41
0.42031746
 51
0.0
  7
KANJI6
  0
TEXT
  8
0
  6
CONTINUOUS
 62
     6
 10
2027.175027365
 20
86.43999832
 30
3.11999976
 40
31.1999976
  1
ユニテック工業株式会社
 50
0.0
 41
0.9
 51
0.0
  7
KANJI7
  0
LINE
  8
0
  6
CONTINUOUS
 62
     6
 10
1985.575030565
 20
97.35999748
 30
0.0
 11
1971.847031621
 21
97.35999748
 31
0.0
  0
LINE
  8
0
  6
CONTINUOUS
 62
     6
 10
1985.575030565
 20
99.855997288
 30
0.0
 11
1971.847031621
 21
99.855997288
 31
0.0
  0
LINE
  8
0
  6
CONTINUOUS
 62
     6
 10
1985.575030565
 20
97.35999748
 30
0.0
 11
1999.303029509
 21
97.35999748
 31
0.0
  0
LINE
  8
0
  6
CONTINUOUS
 62
     6
 10
1985.575030565
 20
99.855997288
 30
0.0
 11
1999.303029509
 21
99.855997288
 31
0.0
  0
LINE
  8
0
  6
CONTINUOUS
 62
     6
 10
1999.303029509
 20
99.855997288
 30
0.0
 11
1999.303029509
 21
97.35999748
 31
0.0
  0
ARC
  8
0
  6
CONTINUOUS
 62
     6
 10
2002.423029269
 20
98.607997384
 30
0.0
 40
12.47999904
 50
185.739170477
 51
90.0
  0
ARC
  8
0
  6
CONTINUOUS
 62
     6
 10
2002.423029269
 20
98.607997384
 30
0.0
 40
14.975998848
 50
184.780191847
 51
90.0
  0
LINE
  8
0
  6
CONTINUOUS
 62
     6
 10
1971.847031621
 20
97.35999748
 30
0.0
 11
1971.847031621
 21
99.855997288
 31
0.0
  0
ARC
  8
0
  6
CONTINUOUS
 62
     6
 10
1968.727031861
 20
98.607997384
 30
0.0
 40
12.47999904
 50
90.0
 51
354.260829523
  0
ARC
  8
0
  6
CONTINUOUS
 62
     6
 10
1968.727031861
 20
98.607997384
 30
0.0
 40
14.975998848
 50
90.0
 51
355.219808153
  0
LINE
  8
0
  6
CONTINUOUS
 62
     6
 10
1983.703030709
 20
113.583996232
 30
0.0
 11
1983.703030709
 21
111.087996424
 31
0.0
  0
LINE
  8
0
  6
CONTINUOUS
 62
     6
 10
1968.727031861
 20
111.087996424
 30
0.0
 11
1983.703030709
 21
111.087996424
 31
0.0
  0
LINE
  8
0
  6
CONTINUOUS
 62
     6
 10
1987.447030421
 20
113.583996232
 30
0.0
 11
1987.447030421
 21
111.087996424
 31
0.0
  0
LINE
  8
0
  6
CONTINUOUS
 62
     6
 10
2002.423029269
 20
111.087996424
 30
0.0
 11
1987.447030421
 21
111.087996424
 31
0.0
  0
TEXT
  8
0
  6
CONTINUOUS
 62
     4
 10
1298.7200834
 20
93.1999978
 30
1.03999992
 40
10.3999992
  1
ＢＹ
 50
0.0
 41
0.6
 51
0.0
  7
KANJI4
  0
TEXT
  8
0
  6
CONTINUOUS
 62
     4
 10
1413.1200746
 20
93.1999978
 30
1.03999992
 40
10.3999992
  1
ＤＥＳＣＲＩＰＴＩＯＮ
 50
0.0
 41
0.6
 51
0.0
  7
KANJI4
  0
TEXT
  8
0
  6
CONTINUOUS
 62
     4
 10
1298.7200834
 20
77.599999
 30
1.247999904
 40
12.47999904
  1
担当
 50
0.0
 41
0.6
 51
0.0
  7
KANJI5
  0
TEXT
  8
0
  6
CONTINUOUS
 62
     4
 10
1428.7200734
 20
77.599999
 30
1.247999904
 40
12.47999904
  1
記　　　　事
 50
0.0
 41
0.6
 51
0.0
  7
KANJI5
  0
LINE
  8
0
  6
CONTINUOUS
 62
     4
 10
1188.2200919
 20
103.599997
 30
0.0
 11
1171.3200932
 21
77.599999
 31
0.0
  0
TEXT
  8
0
  6
CONTINUOUS
 62
     4
 10
1231.1200886
 20
93.1999978
 30
1.03999992
 40
10.3999992
  1
ＤＡＴＥ
 50
0.0
 41
0.6
 51
0.0
  7
KANJI4
  0
TEXT
  8
0
  6
CONTINUOUS
 62
     4
 10
1238.920088
 20
77.599999
 30
1.247999904
 40
12.47999904
  1
日付
 50
0.0
 41
0.6
 51
0.0
  7
KANJI5
  0
LINE
  8
0
  6
CONTINUOUS
 62
     4
 10
1171.3200932
 20
77.599999
 30
0.0
 11
1205.1200906
 21
77.599999
 31
0.0
  0
LINE
  8
0
  6
CONTINUOUS
 62
     4
 10
1188.2200919
 20
103.599997
 30
0.0
 11
1205.1200906
 21
77.599999
 31
0.0
  0
LINE
  8
0
  6
CONTINUOUS
 62
     6
 10
1166.1200936
 20
69.7999996
 30
0.0
 11
1166.1200936
 21
111.3999964
 31
0.0
  0
LINE
  8
0
  6
CONTINUOUS
 62
     4
 10
1210.3200902
 20
69.7999996
 30
0.0
 11
1210.3200902
 21
111.3999964
 31
0.0
  0
LINE
  8
0
  6
CONTINUOUS
 62
     4
 10
1283.1200846
 20
69.7999996
 30
0.0
 11
1283.1200846
 21
111.3999964
 31
0.0
  0
LINE
  8
0
  6
CONTINUOUS
 62
     4
 10
1329.920081
 20
69.7999996
 30
0.0
 11
1329.920081
 21
111.3999964
 31
0.0
  0
TEXT
  8
0
  6
CONTINUOUS
 62
     4
 10
1587.3200612
 20
301.1999818
 30
1.03999992
 40
10.3999992
  1
ＣＯＤＥ
 50
0.0
 41
0.6
 51
0.0
  7
KANJI4
  0
LINE
  8
0
  6
CONTINUOUS
 62
     4
 10
1576.920062
 20
319.3999804
 30
0.0
 11
2377.7200004
 21
319.3999804
 31
0.0
  0
TEXT
  8
0
  6
CONTINUOUS
 62
     4
 10
1587.3200612
 20
285.599983
 30
1.247999904
 40
12.47999904
  1
分類
 50
0.0
 41
0.6
 51
0.0
  7
KANJI5
  0
TEXT
  8
0
  6
CONTINUOUS
 62
     4
 10
1595.42
 20
325.6
 30
6.0
 40
21.6
  1
ご注文主
 50
0.0
 41
1.111111111
 51
0.0
  7
KANJI8
  0
TEXT
  8
0
  6
CONTINUOUS
 62
     4
 10
1587.3200612
 20
176.3999914
 30
1.03999992
 40
10.3999992
  1
ＤＲＡＷＮ
 50
0.0
 41
0.6
 51
0.0
  7
KANJI4
  0
TEXT
  8
0
  6
CONTINUOUS
 62
     4
 10
1587.3200612
 20
217.9999882
 30
1.03999992
 40
10.3999992
  1
ＤＥＳＩＧＮ
 50
0.0
 41
0.6
 51
0.0
  7
KANJI4
  0
TEXT
  8
0
  6
CONTINUOUS
 62
     4
 10
1587.3200612
 20
259.599985
 30
1.03999992
 40
10.3999992
  1
ＣＨＥＣＫ
 50
0.0
 41
0.6
 51
0.0
  7
KANJI4
  0
LINE
  8
0
  6
CONTINUOUS
 62
     4
 10
1576.920062
 20
236.1999868
 30
0.0
 11
1766.7200474
 21
236.1999868
 31
0.0
  0
LINE
  8
0
  6
CONTINUOUS
 62
     4
 10
1576.920062
 20
194.59999
 30
0.0
 11
1766.7200474
 21
194.59999
 31
0.0
  0
LINE
  8
0
  6
CONTINUOUS
 62
     4
 10
1576.920062
 20
277.7999836
 30
0.0
 11
1766.7200474
 21
277.7999836
 31
0.0
  0
TEXT
  8
0
  6
CONTINUOUS
 62
     4
 10
1587.3200612
 20
202.3999894
 30
1.247999904
 40
12.47999904
  1
設計
 50
0.0
 41
0.6
 51
0.0
  7
KANJI5
  0
TEXT
  8
0
  6
CONTINUOUS
 62
     4
 10
1587.3200612
 20
243.9999862
 30
1.247999904
 40
12.47999904
  1
検図
 50
0.0
 41
0.6
 51
0.0
  7
KANJI5
  0
LINE
  8
0
  6
CONTINUOUS
 62
     4
 10
1782.06004622
 20
277.7999836
 30
0.0
 11
2377.7200004
 21
277.7999836
 31
0.0
  0
LINE
  8
0
  6
CONTINUOUS
 62
     4
 10
1766.7200474
 20
194.59999
 30
0.0
 11
2377.7200004
 21
194.59999
 31
0.0
  0
TEXT
  8
0
  6
CONTINUOUS
 62
     4
 10
1777.1200466
 20
176.3999914
 30
1.03999992
 40
10.3999992
  1
ＤＲＡＷＩＮＧ　ＮＯ．
 50
0.0
 41
0.8
 51
0.0
  7
KANJI9
  0
TEXT
  8
0
  6
CONTINUOUS
 62
     4
 10
1777.1200466
 20
217.9999882
 30
1.03999992
 40
10.3999992
  1
ＭＦＧ　ＮＯ．
 50
0.0
 41
0.8
 51
0.0
  7
KANJI9
  0
TEXT
  8
0
  6
CONTINUOUS
 62
     4
 10
1777.1200466
 20
259.599985
 30
1.03999992
 40
10.3999992
  1
ＴＹＰＥ
 50
0.0
 41
0.8
 51
0.0
  7
KANJI9
  0
LINE
  8
0
  6
CONTINUOUS
 62
     4
 10
1782.3200462
 20
236.1999868
 30
0.0
 11
2021.5200278
 21
236.1999868
 31
0.0
  0
TEXT
  8
0
  6
CONTINUOUS
 62
     4
 10
1777.1200466
 20
158.1999928
 30
1.247999904
 40
12.47999904
  1
図　面　番　号
 50
0.0
 41
0.8
 51
0.0
  7
KANJI10
  0
TEXT
  8
0
  6
CONTINUOUS
 62
     4
 10
1777.1200466
 20
199.7999896
 30
1.247999904
 40
12.47999904
  1
製番
 50
0.0
 41
0.8
 51
0.0
  7
KANJI10
  0
TEXT
  8
0
  6
CONTINUOUS
 62
     4
 10
1777.1200466
 20
241.3999864
 30
1.247999904
 40
12.47999904
  1
機種
 50
0.0
 41
0.8
 51
0.0
  7
KANJI10
  0
LINE
  8
0
  6
CONTINUOUS
 62
     4
 10
1576.920062
 20
152.9999932
 30
0.0
 11
1766.7200474
 21
152.9999932
 31
0.0
  0
TEXT
  8
0
  6
CONTINUOUS
 62
     4
 10
1587.3200612
 20
134.7999946
 30
1.03999992
 40
10.3999992
  1
ＤＡＴＥ
 50
0.0
 41
0.6
 51
0.0
  7
KANJI4
  0
TEXT
  8
0
  6
CONTINUOUS
 62
     4
 10
1587.3200612
 20
119.1999958
 30
1.247999904
 40
12.47999904
  1
日付
 50
0.0
 41
0.6
 51
0.0
  7
KANJI5
  0
TEXT
  8
0
  6
CONTINUOUS
 62
     4
 10
1587.3200612
 20
160.7999926
 30
1.247999904
 40
12.47999904
  1
作図
 50
0.0
 41
0.6
 51
0.0
  7
KANJI5
  0
LINE
  8
0
  6
CONTINUOUS
 62
     4
 10
1766.7200474
 20
134.7999946
 30
0.0
 11
2377.7200004
 21
134.7999946
 31
0.0
  0
LINE
  8
0
  6
LTYPE1
 62
     4
 10
2203.5200138
 20
142.599994
 30
0.0
 11
2203.5200138
 21
184.1999908
 31
0.0
  0
LINE
  8
0
  6
LTYPE1
 62
     4
 10
2167.1200166
 20
142.599994
 30
0.0
 11
2167.1200166
 21
184.1999908
 31
0.0
  0
LINE
  8
0
  6
LTYPE1
 62
     4
 10
2130.7200194
 20
142.599994
 30
0.0
 11
2130.7200194
 21
184.1999908
 31
0.0
  0
LINE
  8
0
  6
LTYPE1
 62
     4
 10
2094.3200222
 20
142.599994
 30
0.0
 11
2094.3200222
 21
184.1999908
 31
0.0
  0
LINE
  8
0
  6
LTYPE1
 62
     4
 10
2057.920025
 20
142.599994
 30
0.0
 11
2057.920025
 21
184.1999908
 31
0.0
  0
LINE
  8
0
  6
LTYPE1
 62
     4
 10
2021.5200278
 20
142.599994
 30
0.0
 11
2021.5200278
 21
184.1999908
 31
0.0
  0
LINE
  8
0
  6
LTYPE1
 62
     4
 10
1985.1200306
 20
142.599994
 30
0.0
 11
1985.1200306
 21
184.1999908
 31
0.0
  0
LINE
  8
0
  6
LTYPE1
 62
     4
 10
1948.7200334
 20
142.599994
 30
0.0
 11
1948.7200334
 21
184.1999908
 31
0.0
  0
LINE
  8
0
  6
LTYPE1
 62
     4
 10
1948.7200334
 20
184.1999908
 30
0.0
 11
2203.5200138
 21
184.1999908
 31
0.0
  0
LINE
  8
0
  6
LTYPE1
 62
     4
 10
1948.7200334
 20
142.599994
 30
0.0
 11
2203.5200138
 21
142.599994
 31
0.0
  0
LINE
  8
0
  6
CONTINUOUS
 62
     4
 10
2224.3200122
 20
164.6999923
 30
0.0
 11
2234.7200114
 21
164.6999923
 31
0.0
  0
LINE
  8
0
  6
CONTINUOUS
 62
     4
 10
2289.3200072
 20
149.0999935
 30
0.0
 11
2252.92001
 21
149.0999935
 31
0.0
  0
LINE
  8
0
  6
CONTINUOUS
 62
     4
 10
2252.92001
 20
149.0999935
 30
0.0
 11
2271.1200086
 21
180.2999911
 31
0.0
  0
LINE
  8
0
  6
CONTINUOUS
 62
     4
 10
2271.1200086
 20
180.2999911
 30
0.0
 11
2289.3200072
 21
149.0999935
 31
0.0
  0
TEXT
  8
0
  6
CONTINUOUS
 62
     4
 10
2037.1200266
 20
259.599985
 30
1.03999992
 40
10.3999992
  1
ＴＩＴＬＥ
 50
0.0
 41
0.8
 51
0.0
  7
KANJI9
  0
TEXT
  8
0
  6
CONTINUOUS
 62
     4
 10
2037.1200266
 20
241.3999864
 30
1.247999904
 40
12.47999904
  1
名称
 50
0.0
 41
0.8
 51
0.0
  7
KANJI10
  0
TEXT
  8
0
  6
CONTINUOUS
 62
     2
 10
2121.92
 20
202.6
 30
15.0
 40
30.0
  1
外形寸法図
 50
0.0
 41
1.0
 51
0.0
  7
KANJI11
  0
TEXT
  8
0
  6
CONTINUOUS
 62
     2
 10
2085.92
 20
238.6
 30
4.285714286
 40
30.0
  1
マイティシリンダ
 50
0.0
 41
1.0
 51
0.0
  7
KANJI12
  0
TEXT
  8
0
  6
CONTINUOUS
 62
     2
 10
1917.2200334
 20
148.599994
 30
1.8
 40
30.0
  1
Ａ
 50
0.0
 41
0.8
 51
0.0
  7
KANJI13
  0
CIRCLE
  8
0
  6
CONTINUOUS
 62
     2
 10
1878.2200334
 20
213.099994
 30
0.0
 40
15.0
  0
TEXT
  8
0
  6
CONTINUOUS
 62
     2
 10
1866.9700334
 20
201.849994
 30
1.8
 40
24.0
  1
Ｓ
 50
0.0
 41
1.0
 51
0.0
  7
KANJI14
  0
LINE
  8
0
  6
CONTINUOUS
 62
     6
 10
1983.703030709
 20
113.583996232
 30
0.0
 11
1968.727031861
 21
113.583996232
 31
0.0
  0
LINE
  8
0
  6
CONTINUOUS
 62
     6
 10
1987.447030421
 20
113.583996232
 30
0.0
 11
2002.423029269
 21
113.583996232
 31
0.0
  0
TEXT
  8
0
  6
CONTINUOUS
 62
     2
 10
1643.9200334
 20
163.599994
 30
6.0
 40
21.0
  1
岡田
 50
0.0
 41
0.857142857
 51
0.0
  7
KANJI15
  0
LINE
  8
0
  6
CONTINUOUS
 62
     4
 10
2377.7200004
 20
360.9999772
 30
0.0
 11
2377.7200004
 21
402.599974
 31
0.0
  0
LINE
  8
0
  6
CONTINUOUS
 62
     6
 10
1577.670062
 20
360.9999772
 30
0.0
 11
2378.4700004
 21
360.9999772
 31
0.0
  0
LINE
  8
0
  6
CONTINUOUS
 62
     6
 10
1576.920062
 20
402.599974
 30
0.0
 11
2377.7200004
 21
402.599974
 31
0.0
  0
TEXT
  8
0
  6
CONTINUOUS
 62
     4
 10
1595.42
 20
367.1999968
 30
6.0
 40
21.6
  1
ご用途
 50
0.0
 41
1.111111111
 51
0.0
  7
KANJI8
  0
TEXT
  8
0
  6
CONTINUOUS
 62
     2
 10
1686.92
 20
76.6
 30
1.8
 40
27.0
  1
１／６
 50
0.0
 41
0.666666667
 51
0.0
  7
KANJI16
  0
LINE
  8
0
  6
CONTINUOUS
 62
     1
 10
1501.37
 20
1667.8
 30
0.0
 11
1501.37
 21
1547.68
 31
0.0
  0
LINE
  8
0
  6
CONTINUOUS
 62
     2
 10
1432.07
 20
1667.8
 30
0.0
 11
1432.07
 21
1547.68
 31
0.0
  0
LINE
  8
0
  6
CONTINUOUS
 62
     2
 10
1362.77
 20
1667.8
 30
0.0
 11
1362.77
 21
1547.68
 31
0.0
  0
LINE
  8
0
  6
CONTINUOUS
 62
     1
 10
1270.37
 20
1667.8
 30
0.0
 11
1270.37
 21
1547.68
 31
0.0
  0
LINE
  8
0
  6
CONTINUOUS
 62
     1
 10
1270.37
 20
1667.8
 30
0.0
 11
1501.37
 21
1667.8
 31
0.0
  0
LINE
  8
0
  6
CONTINUOUS
 62
     1
 10
1270.37
 20
1630.84
 30
0.0
 11
1501.37
 21
1630.84
 31
0.0
  0
LINE
  8
0
  6
CONTINUOUS
 62
     2
 10
1270.37
 20
1603.12
 30
0.0
 11
1501.37
 21
1603.12
 31
0.0
  0
LINE
  8
0
  6
CONTINUOUS
 62
     2
 10
1270.37
 20
1575.4
 30
0.0
 11
1501.37
 21
1575.4
 31
0.0
  0
LINE
  8
0
  6
CONTINUOUS
 62
     1
 10
1270.37
 20
1547.68
 30
0.0
 11
1501.37
 21
1547.68
 31
0.0
  0
TEXT
  8
0
  6
CONTINUOUS
 62
     2
 10
1441.31
 20
1651.63
 30
1.386
 40
13.86
  1
起動電流
 50
0.0
 41
0.9
 51
0.0
  7
KANJI17
  0
TEXT
  8
0
  6
CONTINUOUS
 62
     2
 10
1441.31
 20
1635.46
 30
1.386
 40
13.86
  1
　　　Ａ
 50
0.0
 41
0.9
 51
0.0
  7
KANJI17
  0
TEXT
  8
0
  6
CONTINUOUS
 62
     2
 10
1372.01
 20
1651.63
 30
1.386
 40
13.86
  1
定格電流
 50
0.0
 41
0.9
 51
0.0
  7
KANJI17
  0
TEXT
  8
0
  6
CONTINUOUS
 62
     2
 10
1372.01
 20
1635.46
 30
1.386
 40
13.86
  1
　　　Ａ
 50
0.0
 41
0.9
 51
0.0
  7
KANJI17
  0
TEXT
  8
0
  6
CONTINUOUS
 62
     2
 10
1278.224
 20
1582.33
 30
1.386
 40
13.86
  1
２００／６０
 50
0.0
 41
0.9
 51
0.0
  7
KANJI17
  0
TEXT
  8
0
  6
CONTINUOUS
 62
     2
 10
1278.224
 20
1651.63
 30
1.386
 40
13.86
  1
電圧／周波数
 50
0.0
 41
0.9
 51
0.0
  7
KANJI17
  0
TEXT
  8
0
  6
CONTINUOUS
 62
     2
 10
1278.224
 20
1635.46
 30
1.386
 40
13.86
  1
　Ｖ／Ｈｚ
 50
0.0
 41
0.9
 51
0.0
  7
KANJI17
  0
TEXT
  8
0
  6
CONTINUOUS
 62
     2
 10
1278.224
 20
1610.05
 30
1.386
 40
13.86
  1
２００／５０
 50
0.0
 41
0.9
 51
0.0
  7
KANJI17
  0
TEXT
  8
0
  6
CONTINUOUS
 62
     2
 10
1278.224
 20
1554.61
 30
1.386
 40
13.86
  1
２２０／６０
 50
0.0
 41
0.9
 51
0.0
  7
KANJI17
  0
LINE
  8
0
  6
CONTINUOUS
 62
     1
 10
1224.17
 20
1667.8
 30
0.0
 11
1224.17
 21
1547.68
 31
0.0
  0
LINE
  8
0
  6
CONTINUOUS
 62
     2
 10
1154.87
 20
1667.8
 30
0.0
 11
1154.87
 21
1547.68
 31
0.0
  0
LINE
  8
0
  6
CONTINUOUS
 62
     2
 10
1085.57
 20
1667.8
 30
0.0
 11
1085.57
 21
1547.68
 31
0.0
  0
LINE
  8
0
  6
CONTINUOUS
 62
     1
 10
993.17
 20
1667.8
 30
0.0
 11
993.17
 21
1547.68
 31
0.0
  0
LINE
  8
0
  6
CONTINUOUS
 62
     1
 10
993.17
 20
1667.8
 30
0.0
 11
1224.17
 21
1667.8
 31
0.0
  0
LINE
  8
0
  6
CONTINUOUS
 62
     1
 10
993.17
 20
1630.84
 30
0.0
 11
1224.17
 21
1630.84
 31
0.0
  0
LINE
  8
0
  6
CONTINUOUS
 62
     2
 10
993.17
 20
1603.12
 30
0.0
 11
1224.17
 21
1603.12
 31
0.0
  0
LINE
  8
0
  6
CONTINUOUS
 62
     2
 10
993.17
 20
1575.4
 30
0.0
 11
1224.17
 21
1575.4
 31
0.0
  0
LINE
  8
0
  6
CONTINUOUS
 62
     1
 10
993.17
 20
1547.68
 30
0.0
 11
1224.17
 21
1547.68
 31
0.0
  0
TEXT
  8
0
  6
CONTINUOUS
 62
     2
 10
1164.11
 20
1651.63
 30
1.386
 40
13.86
  1
起動電流
 50
0.0
 41
0.9
 51
0.0
  7
KANJI17
  0
TEXT
  8
0
  6
CONTINUOUS
 62
     2
 10
1164.11
 20
1635.46
 30
1.386
 40
13.86
  1
　　　Ａ
 50
0.0
 41
0.9
 51
0.0
  7
KANJI17
  0
TEXT
  8
0
  6
CONTINUOUS
 62
     2
 10
1094.81
 20
1651.63
 30
1.386
 40
13.86
  1
定格電流
 50
0.0
 41
0.9
 51
0.0
  7
KANJI17
  0
TEXT
  8
0
  6
CONTINUOUS
 62
     2
 10
1094.81
 20
1635.46
 30
1.386
 40
13.86
  1
　　　Ａ
 50
0.0
 41
0.9
 51
0.0
  7
KANJI17
  0
TEXT
  8
0
  6
CONTINUOUS
 62
     2
 10
1001.024
 20
1651.63
 30
1.386
 40
13.86
  1
電圧／周波数
 50
0.0
 41
0.9
 51
0.0
  7
KANJI17
  0
TEXT
  8
0
  6
CONTINUOUS
 62
     2
 10
1001.024
 20
1635.46
 30
1.386
 40
13.86
  1
　Ｖ／Ｈｚ
 50
0.0
 41
0.9
 51
0.0
  7
KANJI17
  0
TEXT
  8
0
  6
CONTINUOUS
 62
     2
 10
1001.024
 20
1610.05
 30
1.386
 40
13.86
  1
４００／５０
 50
0.0
 41
0.9
 51
0.0
  7
KANJI17
  0
TEXT
  8
0
  6
CONTINUOUS
 62
     2
 10
1001.024
 20
1582.33
 30
1.386
 40
13.86
  1
４００／６０
 50
0.0
 41
0.9
 51
0.0
  7
KANJI17
  0
TEXT
  8
0
  6
CONTINUOUS
 62
     2
 10
1001.024
 20
1554.61
 30
1.386
 40
13.86
  1
４４０／６０
 50
0.0
 41
0.9
 51
0.0
  7
KANJI17
  0
TEXT
  8
0
  6
CONTINUOUS
 62
     2
 10
1094.81
 20
1610.05
 30
1.386
 40
13.86
  1
　２．０
 50
0.0
 41
0.9
 51
0.0
  7
KANJI17
  0
TEXT
  8
0
  6
CONTINUOUS
 62
     2
 10
1094.81
 20
1554.61
 30
1.386
 40
13.86
  1
　１．７
 50
0.0
 41
0.9
 51
0.0
  7
KANJI17
  0
TEXT
  8
0
  6
CONTINUOUS
 62
     2
 10
1094.81
 20
1582.33
 30
1.386
 40
13.86
  1
　１．８
 50
0.0
 41
0.9
 51
0.0
  7
KANJI17
  0
TEXT
  8
0
  6
CONTINUOUS
 62
     2
 10
1372.01
 20
1610.05
 30
1.386
 40
13.86
  1
　４．０
 50
0.0
 41
0.9
 51
0.0
  7
KANJI17
  0
TEXT
  8
0
  6
CONTINUOUS
 62
     2
 10
1372.01
 20
1582.33
 30
1.386
 40
13.86
  1
　３．２
 50
0.0
 41
0.9
 51
0.0
  7
KANJI17
  0
TEXT
  8
0
  6
CONTINUOUS
 62
     2
 10
1372.01
 20
1554.61
 30
1.386
 40
13.86
  1
　３．４
 50
0.0
 41
0.9
 51
0.0
  7
KANJI17
  0
TEXT
  8
0
  6
CONTINUOUS
 62
     2
 10
1164.11
 20
1610.05
 30
1.386
 40
13.86
  1
　６．６
 50
0.0
 41
0.9
 51
0.0
  7
KANJI17
  0
TEXT
  8
0
  6
CONTINUOUS
 62
     2
 10
1164.11
 20
1582.33
 30
1.386
 40
13.86
  1
　５．８
 50
0.0
 41
0.9
 51
0.0
  7
KANJI17
  0
TEXT
  8
0
  6
CONTINUOUS
 62
     2
 10
1164.11
 20
1554.61
 30
1.386
 40
13.86
  1
　６．４
 50
0.0
 41
0.9
 51
0.0
  7
KANJI17
  0
TEXT
  8
0
  6
CONTINUOUS
 62
     2
 10
1441.31
 20
1610.05
 30
1.386
 40
13.86
  1
１３．３
 50
0.0
 41
0.9
 51
0.0
  7
KANJI17
  0
TEXT
  8
0
  6
CONTINUOUS
 62
     2
 10
1441.31
 20
1582.33
 30
1.386
 40
13.86
  1
１１．６
 50
0.0
 41
0.9
 51
0.0
  7
KANJI17
  0
TEXT
  8
0
  6
CONTINUOUS
 62
     2
 10
1441.31
 20
1554.61
 30
1.386
 40
13.86
  1
１２．７
 50
0.0
 41
0.9
 51
0.0
  7
KANJI17
  0
TEXT
  8
0
  6
CONTINUOUS
 62
     2
 10
1954.7200334
 20
148.599994
 30
13.0
 40
30.0
  1
３００２４４５
 50
0.0
 41
0.8
 51
0.0
  7
KANJI18
  0
TEXT
  8
0
  6
CONTINUOUS
 62
     2
 10
154.4
 20
19.3
 30
0.0
 40
18.0
  1
ＦＤ　Ｎｏ．ＭＣ１９２
 50
0.0
 41
0.9
 51
0.0
  7
KANJI19
  0
TEXT
  8
0
  6
CONTINUOUS
 62
     2
 10
1033.133
 20
1526.89
 30
1.617
 40
16.17
  1
注意：サーマルリレー等の選定は、上記の値で選定してさい。
 50
0.0
 41
0.9
 51
0.0
  7
KANJI20
  0
LINE
  8
0
  6
CONTINUOUS
 62
     2
 10
1023.893
 20
1522.27
 30
0.0
 11
1471.0
 21
1522.27
 31
0.0
  0
LINE
  8
0
  6
LTYPE2
 62
     6
 10
95.36
 20
1646.44
 30
0.0
 11
95.36
 21
1140.04
 31
0.0
  0
TEXT
  8
0
  6
CONTINUOUS
 62
     6
 10
222.661963977
 20
1148.109618036
 30
0.0
 40
17.031074144
  1
２カム端子台　接続図
 50
0.0
 41
0.880962996
 51
0.0
  7
KANJI21
  0
LINE
  8
0
  6
LTYPE2
 62
     6
 10
850.64
 20
1646.44
 30
0.0
 11
95.36
 21
1646.44
 31
0.0
  0
LINE
  8
0
  6
LTYPE2
 62
     6
 10
95.36
 20
1140.04
 30
0.0
 11
850.64
 21
1140.04
 31
0.0
  0
CIRCLE
  8
0
  6
CONTINUOUS
 62
     6
 10
241.814412943
 20
1239.542753509
 30
0.0
 40
3.936205455
  0
LINE
  8
0
  6
CONTINUOUS
 62
     6
 10
242.057734816
 20
1235.515699739
 30
0.0
 11
245.815625379
 21
1214.074046359
 31
0.0
  0
LINE
  8
0
  6
CONTINUOUS
 62
     6
 10
242.057734816
 20
1235.515699739
 30
0.0
 11
246.595009475
 21
1236.271912182
 31
0.0
  0
LINE
  8
0
  6
CONTINUOUS
 62
     6
 10
246.595009475
 20
1236.271912182
 30
0.0
 11
250.353195556
 21
1214.830308055
 31
0.0
  0
LINE
  8
0
  6
CONTINUOUS
 62
     6
 10
241.814412943
 20
1243.478958964
 30
0.0
 11
241.814412943
 21
1251.392918711
 31
0.0
  0
LINE
  8
0
  6
CONTINUOUS
 62
     6
 10
292.839298476
 20
1251.392918711
 30
0.0
 11
241.814412943
 21
1251.392918711
 31
0.0
  0
LINE
  8
0
  6
CONTINUOUS
 62
     6
 10
292.839298476
 20
1199.835916515
 30
0.0
 11
292.839298476
 21
1251.392918711
 31
0.0
  0
CIRCLE
  8
0
  6
CONTINUOUS
 62
     6
 10
369.376626774
 20
1239.542753509
 30
0.0
 40
3.936205455
  0
LINE
  8
0
  6
CONTINUOUS
 62
     6
 10
369.133304902
 20
1235.515699739
 30
0.0
 11
365.375414339
 21
1214.074046359
 31
0.0
  0
LINE
  8
0
  6
CONTINUOUS
 62
     6
 10
369.133304902
 20
1235.515699739
 30
0.0
 11
364.596030243
 21
1236.271912182
 31
0.0
  0
LINE
  8
0
  6
CONTINUOUS
 62
     6
 10
364.596030243
 20
1236.271912182
 30
0.0
 11
360.837844161
 21
1214.830308055
 31
0.0
  0
LINE
  8
0
  6
CONTINUOUS
 62
     6
 10
369.376626774
 20
1243.478958964
 30
0.0
 11
369.376626774
 21
1251.392918711
 31
0.0
  0
LINE
  8
0
  6
CONTINUOUS
 62
     6
 10
318.351741242
 20
1251.392918711
 30
0.0
 11
369.376626774
 21
1251.392918711
 31
0.0
  0
LINE
  8
0
  6
CONTINUOUS
 62
     6
 10
318.351741242
 20
1199.835916515
 30
0.0
 11
318.351741242
 21
1251.392918711
 31
0.0
  0
LINE
  8
0
  6
CONTINUOUS
 62
     2
 10
331.107962625
 20
1300.273746261
 30
0.0
 11
331.107962625
 21
1278.405938175
 31
0.0
  0
LINE
  8
0
  6
CONTINUOUS
 62
     2
 10
356.620405391
 20
1300.273746261
 30
0.0
 11
356.620405391
 21
1278.405938175
 31
0.0
  0
LINE
  8
0
  6
CONTINUOUS
 62
     2
 10
382.132848158
 20
1300.273746261
 30
0.0
 11
382.132848158
 21
1278.405938175
 31
0.0
  0
LINE
  8
0
  6
CONTINUOUS
 62
     2
 10
407.645290924
 20
1300.273746261
 30
0.0
 11
407.645290924
 21
1278.405938175
 31
0.0
  0
CIRCLE
  8
0
  6
CONTINUOUS
 62
     6
 10
267.326855709
 20
1313.724635014
 30
0.0
 40
3.936205455
  0
LINE
  8
0
  6
CONTINUOUS
 62
     6
 10
267.083533837
 20
1335.953529485
 30
0.0
 11
263.325643274
 21
1314.511876105
 31
0.0
  0
LINE
  8
0
  6
CONTINUOUS
 62
     6
 10
262.546259178
 20
1336.709741928
 30
0.0
 11
258.788073096
 21
1315.268137801
 31
0.0
  0
LINE
  8
0
  6
CONTINUOUS
 62
     6
 10
263.325643274
 20
1314.511876105
 30
0.0
 11
258.788073096
 21
1315.268137801
 31
0.0
  0
CIRCLE
  8
0
  6
CONTINUOUS
 62
     6
 10
400.042582979
 20
1322.814353908
 30
0.0
 40
3.936205455
  0
LINE
  8
0
  6
CONTINUOUS
 62
     6
 10
396.106377524
 20
1322.814353908
 30
0.0
 11
394.889069541
 21
1322.814353908
 31
0.0
  0
LINE
  8
0
  6
CONTINUOUS
 62
     6
 10
420.158190434
 20
1335.953529485
 30
0.0
 11
416.400299871
 21
1314.511876105
 31
0.0
  0
LINE
  8
0
  6
CONTINUOUS
 62
     6
 10
415.620915776
 20
1336.709741928
 30
0.0
 11
411.862729694
 21
1315.268137801
 31
0.0
  0
LINE
  8
0
  6
CONTINUOUS
 62
     6
 10
416.400299871
 20
1314.511876105
 30
0.0
 11
411.862729694
 21
1315.268137801
 31
0.0
  0
CIRCLE
  8
0
  6
CONTINUOUS
 62
     6
 10
420.401512307
 20
1313.724635014
 30
0.0
 40
3.936205455
  0
LINE
  8
0
  6
CONTINUOUS
 62
     6
 10
267.326855709
 20
1309.788429558
 30
0.0
 11
267.326855709
 21
1300.273746261
 31
0.0
  0
LINE
  8
0
  6
CONTINUOUS
 62
     6
 10
241.814412943
 20
1351.830748456
 30
0.0
 11
241.814412943
 21
1300.273746261
 31
0.0
  0
LINE
  8
0
  6
CONTINUOUS
 62
     6
 10
420.401512307
 20
1309.788429558
 30
0.0
 11
420.401512307
 21
1300.273746261
 31
0.0
  0
LINE
  8
0
  6
CONTINUOUS
 62
     6
 10
394.889069541
 20
1322.814353908
 30
0.0
 11
394.889069541
 21
1300.273746261
 31
0.0
  0
LINE
  8
0
  6
CONTINUOUS
 62
     6
 10
369.376626774
 20
1300.273746261
 30
0.0
 11
369.376626774
 21
1351.830748456
 31
0.0
  0
LINE
  8
0
  6
CONTINUOUS
 62
     6
 10
293.082620348
 20
1335.953529485
 30
0.0
 11
296.840510911
 21
1314.511876105
 31
0.0
  0
LINE
  8
0
  6
CONTINUOUS
 62
     6
 10
297.619895007
 20
1336.709741928
 30
0.0
 11
301.378081089
 21
1315.268137801
 31
0.0
  0
LINE
  8
0
  6
CONTINUOUS
 62
     6
 10
296.840510911
 20
1314.511876105
 30
0.0
 11
301.378081089
 21
1315.268137801
 31
0.0
  0
CIRCLE
  8
0
  6
CONTINUOUS
 62
     6
 10
292.839298476
 20
1313.724635014
 30
0.0
 40
3.936205455
  0
CIRCLE
  8
0
  6
CONTINUOUS
 62
     6
 10
313.198227803
 20
1322.814353908
 30
0.0
 40
3.936205455
  0
LINE
  8
0
  6
CONTINUOUS
 62
     6
 10
317.134433259
 20
1322.814353908
 30
0.0
 11
318.351741242
 21
1322.814353908
 31
0.0
  0
LINE
  8
0
  6
CONTINUOUS
 62
     6
 10
292.839298476
 20
1309.788429558
 30
0.0
 11
292.839298476
 21
1300.273746261
 31
0.0
  0
LINE
  8
0
  6
CONTINUOUS
 62
     6
 10
318.351741242
 20
1322.814353908
 30
0.0
 11
318.351741242
 21
1300.273746261
 31
0.0
  0
LINE
  8
0
  6
CONTINUOUS
 62
     6
 10
343.864184008
 20
1300.273746261
 30
0.0
 11
343.864184008
 21
1351.830748456
 31
0.0
  0
LINE
  8
0
  6
CONTINUOUS
 62
     2
 10
433.15773369
 20
1300.273746261
 30
0.0
 11
433.15773369
 21
1278.405938175
 31
0.0
  0
LINE
  8
0
  6
CONTINUOUS
 62
     2
 10
229.05819156
 20
1300.273746261
 30
0.0
 11
229.05819156
 21
1278.405938175
 31
0.0
  0
LINE
  8
0
  6
CONTINUOUS
 62
     2
 10
254.570634326
 20
1300.273746261
 30
0.0
 11
254.570634326
 21
1278.405938175
 31
0.0
  0
LINE
  8
0
  6
CONTINUOUS
 62
     2
 10
280.083077093
 20
1300.273746261
 30
0.0
 11
280.083077093
 21
1278.405938175
 31
0.0
  0
LINE
  8
0
  6
CONTINUOUS
 62
     2
 10
305.595519859
 20
1300.273746261
 30
0.0
 11
305.595519859
 21
1278.405938175
 31
0.0
  0
LINE
  8
0
  6
CONTINUOUS
 62
     2
 10
178.033306028
 20
1300.273746261
 30
0.0
 11
178.033306028
 21
1278.405938175
 31
0.0
  0
LINE
  8
0
  6
CONTINUOUS
 62
     2
 10
203.545748794
 20
1300.273746261
 30
0.0
 11
203.545748794
 21
1278.405938175
 31
0.0
  0
LINE
  8
0
  6
CONTINUOUS
 62
     2
 10
127.008420495
 20
1300.273746261
 30
0.0
 11
433.15773369
 21
1300.273746261
 31
0.0
  0
LINE
  8
0
  6
CONTINUOUS
 62
     2
 10
127.008420495
 20
1278.405938175
 30
0.0
 11
433.15773369
 21
1278.405938175
 31
0.0
  0
CIRCLE
  8
0
  6
CONTINUOUS
 62
     6
 10
267.326855709
 20
1339.980583255
 30
0.0
 40
3.936205455
  0
LINE
  8
0
  6
CONTINUOUS
 62
     6
 10
267.083533837
 20
1335.953529485
 30
0.0
 11
262.546259178
 21
1336.709741928
 31
0.0
  0
LINE
  8
0
  6
CONTINUOUS
 62
     6
 10
267.326855709
 20
1343.91678871
 30
0.0
 11
267.326855709
 21
1351.830748456
 31
0.0
  0
LINE
  8
0
  6
CONTINUOUS
 62
     6
 10
267.326855709
 20
1351.830748456
 30
0.0
 11
241.814412943
 21
1351.830748456
 31
0.0
  0
LINE
  8
0
  6
CONTINUOUS
 62
     6
 10
420.401512307
 20
1351.830748456
 30
0.0
 11
369.376626774
 21
1351.830748456
 31
0.0
  0
CIRCLE
  8
0
  6
CONTINUOUS
 62
     6
 10
420.401512307
 20
1339.980583255
 30
0.0
 40
3.936205455
  0
LINE
  8
0
  6
CONTINUOUS
 62
     6
 10
420.158190434
 20
1335.953529485
 30
0.0
 11
415.620915776
 21
1336.709741928
 31
0.0
  0
LINE
  8
0
  6
CONTINUOUS
 62
     6
 10
420.401512307
 20
1343.91678871
 30
0.0
 11
420.401512307
 21
1351.830748456
 31
0.0
  0
CIRCLE
  8
0
  6
CONTINUOUS
 62
     6
 10
292.839298476
 20
1339.980583255
 30
0.0
 40
3.936205455
  0
LINE
  8
0
  6
CONTINUOUS
 62
     6
 10
293.082620348
 20
1335.953529485
 30
0.0
 11
297.619895007
 21
1336.709741928
 31
0.0
  0
LINE
  8
0
  6
CONTINUOUS
 62
     6
 10
292.839298476
 20
1343.91678871
 30
0.0
 11
292.839298476
 21
1351.830748456
 31
0.0
  0
LINE
  8
0
  6
CONTINUOUS
 62
     6
 10
343.864184008
 20
1351.830748456
 30
0.0
 11
292.839298476
 21
1351.830748456
 31
0.0
  0
TEXT
  8
0
  6
CONTINUOUS
 62
     6
 10
239.561199775
 20
1356.169123594
 30
0.78624
 40
11.232
  1
ＬＳＡ
 50
0.0
 41
0.8
 51
0.0
  7
KANJI22
  0
TEXT
  8
0
  6
CONTINUOUS
 62
     6
 10
297.411810691
 20
1356.169123594
 30
0.78624
 40
11.232
  1
ＬＳ０１
 50
0.0
 41
0.8
 51
0.0
  7
KANJI22
  0
TEXT
  8
0
  6
CONTINUOUS
 62
     6
 10
376.72718699
 20
1356.169123594
 30
0.78624
 40
11.232
  1
ＬＳ０２
 50
0.0
 41
0.8
 51
0.0
  7
KANJI22
  0
TEXT
  8
0
  6
CONTINUOUS
 62
     6
 10
326.338781457
 20
1255.386688026
 30
0.78624
 40
11.232
  1
ＬＳ１２
 50
0.0
 41
0.8
 51
0.0
  7
KANJI22
  0
TEXT
  8
0
  6
CONTINUOUS
 62
     6
 10
247.023405158
 20
1255.386688026
 30
0.78624
 40
11.232
  1
ＬＳ１１
 50
0.0
 41
0.8
 51
0.0
  7
KANJI22
  0
LINE
  8
0
  6
CONTINUOUS
 62
     2
 10
229.05819156
 20
1199.835916515
 30
0.0
 11
229.05819156
 21
1177.968108429
 31
0.0
  0
LINE
  8
0
  6
CONTINUOUS
 62
     2
 10
203.545748794
 20
1199.835916515
 30
0.0
 11
203.545748794
 21
1177.968108429
 31
0.0
  0
LINE
  8
0
  6
CONTINUOUS
 62
     2
 10
178.033306028
 20
1199.835916515
 30
0.0
 11
178.033306028
 21
1177.968108429
 31
0.0
  0
LINE
  8
0
  6
CONTINUOUS
 62
     2
 10
254.570634326
 20
1199.835916515
 30
0.0
 11
254.570634326
 21
1177.968108429
 31
0.0
  0
LINE
  8
0
  6
CONTINUOUS
 62
     2
 10
280.083077093
 20
1199.835916515
 30
0.0
 11
280.083077093
 21
1177.968108429
 31
0.0
  0
LINE
  8
0
  6
CONTINUOUS
 62
     2
 10
305.595519859
 20
1199.835916515
 30
0.0
 11
305.595519859
 21
1177.968108429
 31
0.0
  0
LINE
  8
0
  6
CONTINUOUS
 62
     2
 10
331.107962625
 20
1199.835916515
 30
0.0
 11
331.107962625
 21
1177.968108429
 31
0.0
  0
LINE
  8
0
  6
CONTINUOUS
 62
     2
 10
356.620405391
 20
1199.835916515
 30
0.0
 11
356.620405391
 21
1177.968108429
 31
0.0
  0
LINE
  8
0
  6
CONTINUOUS
 62
     6
 10
245.815625379
 20
1214.074046359
 30
0.0
 11
250.353195556
 21
1214.830308055
 31
0.0
  0
CIRCLE
  8
0
  6
CONTINUOUS
 62
     6
 10
241.814412943
 20
1213.286805268
 30
0.0
 40
3.936205455
  0
CIRCLE
  8
0
  6
CONTINUOUS
 62
     6
 10
262.173342271
 20
1222.376524162
 30
0.0
 40
3.936205455
  0
LINE
  8
0
  6
CONTINUOUS
 62
     6
 10
266.109547726
 20
1222.376524162
 30
0.0
 11
267.326855709
 21
1222.376524162
 31
0.0
  0
LINE
  8
0
  6
CONTINUOUS
 62
     6
 10
241.814412943
 20
1209.350599813
 30
0.0
 11
241.814412943
 21
1199.835916515
 31
0.0
  0
LINE
  8
0
  6
CONTINUOUS
 62
     6
 10
267.326855709
 20
1222.376524162
 30
0.0
 11
267.326855709
 21
1199.835916515
 31
0.0
  0
LINE
  8
0
  6
CONTINUOUS
 62
     6
 10
365.375414339
 20
1214.074046359
 30
0.0
 11
360.837844161
 21
1214.830308055
 31
0.0
  0
CIRCLE
  8
0
  6
CONTINUOUS
 62
     6
 10
369.376626774
 20
1213.286805268
 30
0.0
 40
3.936205455
  0
CIRCLE
  8
0
  6
CONTINUOUS
 62
     6
 10
349.017697447
 20
1222.376524162
 30
0.0
 40
3.936205455
  0
LINE
  8
0
  6
CONTINUOUS
 62
     6
 10
345.081491992
 20
1222.376524162
 30
0.0
 11
343.864184008
 21
1222.376524162
 31
0.0
  0
LINE
  8
0
  6
CONTINUOUS
 62
     6
 10
369.376626774
 20
1209.350599813
 30
0.0
 11
369.376626774
 21
1199.835916515
 31
0.0
  0
LINE
  8
0
  6
CONTINUOUS
 62
     6
 10
343.864184008
 20
1222.376524162
 30
0.0
 11
343.864184008
 21
1199.835916515
 31
0.0
  0
LINE
  8
0
  6
CONTINUOUS
 62
     2
 10
382.132848158
 20
1199.835916515
 30
0.0
 11
382.132848158
 21
1177.968108429
 31
0.0
  0
LINE
  8
0
  6
CONTINUOUS
 62
     2
 10
178.033306028
 20
1199.835916515
 30
0.0
 11
382.132848158
 21
1199.835916515
 31
0.0
  0
LINE
  8
0
  6
CONTINUOUS
 62
     2
 10
178.033306028
 20
1177.968108429
 30
0.0
 11
382.132848158
 21
1177.968108429
 31
0.0
  0
TEXT
  8
0
  6
CONTINUOUS
 62
     3
 10
235.997767516
 20
1180.92384711
 30
0.0
 40
14.37696
  1
２１　２２　２３　２４　　２５　　２６　　
 50
0.0
 41
0.9125
 51
0.0
  7
KANJI23
  0
LINE
  8
0
  6
CONTINUOUS
 62
     2
 10
127.008420495
 20
1300.273746261
 30
0.0
 11
127.008420495
 21
1278.405938175
 31
0.0
  0
LINE
  8
0
  6
CONTINUOUS
 62
     2
 10
152.520863261
 20
1300.273746261
 30
0.0
 11
152.520863261
 21
1278.405938175
 31
0.0
  0
TEXT
  8
0
  6
CONTINUOUS
 62
     3
 10
132.110909048
 20
1282.050572856
 30
0.0
 40
14.4
  1
　　　　　　　　　　　　４０　４１　１　　２　　　３　　　４　　　５　　　６
 50
0.0
 41
0.911
 51
0.0
  7
KANJI24
  0
TEXT
  8
0
  6
CONTINUOUS
 62
     6
 10
114.408220643
 20
1617.335112111
 30
0.0
 40
13.9932
  1
ＬＳ０１　　　：推力リミッタ（前進時過負荷用）
 50
0.0
 41
0.943315325
 51
0.0
  7
KANJI25
  0
TEXT
  8
0
  6
CONTINUOUS
 62
     6
 10
114.408220643
 20
1584.380112111
 30
0.0
 40
13.9932
  1
ＬＳ０２　　　：推力リミッタ（後進時過負荷用）
 50
0.0
 41
0.943315325
 51
0.0
  7
KANJI25
  0
TEXT
  8
0
  6
CONTINUOUS
 62
     6
 10
114.408220643
 20
1551.425112111
 30
0.0
 40
13.9932
  1
ＬＳＡ　　　　：安全リミットスイッチ
 50
0.0
 41
0.943315325
 51
0.0
  7
KANJI25
  0
TEXT
  8
0
  6
CONTINUOUS
 62
     6
 10
114.408220643
 20
1518.470112111
 30
0.0
 40
13.9932
  1
ＬＳ１１，１２：位置リミットスイッチ　［２カム用］
 50
0.0
 41
0.943315325
 51
0.0
  7
KANJI25
  0
TEXT
  8
0
  6
CONTINUOUS
 62
     6
 10
114.408220643
 20
1485.515112111
 30
0.0
 40
13.9932
  1
ＬＳ１１～１４：位置リミットスイッチ　［４カム用］
 50
0.0
 41
0.943315325
 51
0.0
  7
KANJI25
  0
LINE
  8
0
  6
CONTINUOUS
 62
     6
 10
449.259958074
 20
1613.497311792
 30
0.0
 11
109.717575809
 21
1613.497311792
 31
0.0
  0
LINE
  8
0
  6
CONTINUOUS
 62
     6
 10
449.259958074
 20
1580.542311792
 30
0.0
 11
109.717575809
 21
1580.542311792
 31
0.0
  0
LINE
  8
0
  6
CONTINUOUS
 62
     6
 10
449.259958074
 20
1547.587311792
 30
0.0
 11
109.717575809
 21
1547.587311792
 31
0.0
  0
LINE
  8
0
  6
CONTINUOUS
 62
     6
 10
449.259958074
 20
1514.632311792
 30
0.0
 11
109.717575809
 21
1514.632311792
 31
0.0
  0
LINE
  8
0
  6
CONTINUOUS
 62
     6
 10
449.259958074
 20
1481.677311792
 30
0.0
 11
109.717575809
 21
1481.677311792
 31
0.0
  0
TEXT
  8
0
  6
CONTINUOUS
 62
     6
 10
379.244011737
 20
1405.208448882
 30
0.0
 40
18.0
  1
ポジショナ内端子台配列
 50
0.0
 41
0.9
 51
0.0
  7
KANJI26
  0
TEXT
  8
0
  6
CONTINUOUS
 62
     6
 10
106.814567657
 20
1108.199357623
 30
1.82231734
 40
18.223173404
  1
エコノストップモータ
 50
0.0
 41
0.66671875
 51
0.0
  7
KANJI27
  0
TEXT
  8
0
  6
CONTINUOUS
 62
     6
 10
591.061963977
 20
1148.109618036
 30
0.0
 40
17.031074144
  1
４カム端子台　接続図
 50
0.0
 41
0.880962996
 51
0.0
  7
KANJI21
  0
LINE
  8
0
  6
LTYPE2
 62
     6
 10
850.64
 20
1140.04
 30
0.0
 11
850.64
 21
1646.44
 31
0.0
  0
LINE
  8
0
  6
CONTINUOUS
 62
     2
 10
699.507962625
 20
1300.273746261
 30
0.0
 11
699.507962625
 21
1278.405938175
 31
0.0
  0
LINE
  8
0
  6
CONTINUOUS
 62
     2
 10
725.020405391
 20
1300.273746261
 30
0.0
 11
725.020405391
 21
1278.405938175
 31
0.0
  0
LINE
  8
0
  6
CONTINUOUS
 62
     2
 10
750.532848158
 20
1300.273746261
 30
0.0
 11
750.532848158
 21
1278.405938175
 31
0.0
  0
LINE
  8
0
  6
CONTINUOUS
 62
     2
 10
776.045290924
 20
1300.273746261
 30
0.0
 11
776.045290924
 21
1278.405938175
 31
0.0
  0
LINE
  8
0
  6
CONTINUOUS
 62
     6
 10
635.726855709
 20
1309.788429558
 30
0.0
 11
635.726855709
 21
1300.273746261
 31
0.0
  0
LINE
  8
0
  6
CONTINUOUS
 62
     6
 10
610.214412943
 20
1351.830748456
 30
0.0
 11
610.214412943
 21
1300.273746261
 31
0.0
  0
LINE
  8
0
  6
CONTINUOUS
 62
     6
 10
788.801512307
 20
1309.788429558
 30
0.0
 11
788.801512307
 21
1300.273746261
 31
0.0
  0
LINE
  8
0
  6
CONTINUOUS
 62
     6
 10
763.289069541
 20
1322.814353908
 30
0.0
 11
763.289069541
 21
1300.273746261
 31
0.0
  0
LINE
  8
0
  6
CONTINUOUS
 62
     6
 10
737.776626774
 20
1300.273746261
 30
0.0
 11
737.776626774
 21
1351.830748456
 31
0.0
  0
LINE
  8
0
  6
CONTINUOUS
 62
     6
 10
661.239298476
 20
1309.788429558
 30
0.0
 11
661.239298476
 21
1300.273746261
 31
0.0
  0
LINE
  8
0
  6
CONTINUOUS
 62
     6
 10
686.751741242
 20
1322.814353908
 30
0.0
 11
686.751741242
 21
1300.273746261
 31
0.0
  0
LINE
  8
0
  6
CONTINUOUS
 62
     6
 10
712.264184008
 20
1300.273746261
 30
0.0
 11
712.264184008
 21
1351.830748456
 31
0.0
  0
LINE
  8
0
  6
CONTINUOUS
 62
     2
 10
801.55773369
 20
1300.273746261
 30
0.0
 11
801.55773369
 21
1278.405938175
 31
0.0
  0
LINE
  8
0
  6
CONTINUOUS
 62
     2
 10
597.45819156
 20
1300.273746261
 30
0.0
 11
597.45819156
 21
1278.405938175
 31
0.0
  0
LINE
  8
0
  6
CONTINUOUS
 62
     2
 10
622.970634326
 20
1300.273746261
 30
0.0
 11
622.970634326
 21
1278.405938175
 31
0.0
  0
LINE
  8
0
  6
CONTINUOUS
 62
     2
 10
648.483077093
 20
1300.273746261
 30
0.0
 11
648.483077093
 21
1278.405938175
 31
0.0
  0
LINE
  8
0
  6
CONTINUOUS
 62
     2
 10
673.995519859
 20
1300.273746261
 30
0.0
 11
673.995519859
 21
1278.405938175
 31
0.0
  0
LINE
  8
0
  6
CONTINUOUS
 62
     2
 10
546.433306028
 20
1300.273746261
 30
0.0
 11
546.433306028
 21
1278.405938175
 31
0.0
  0
LINE
  8
0
  6
CONTINUOUS
 62
     2
 10
571.945748794
 20
1300.273746261
 30
0.0
 11
571.945748794
 21
1278.405938175
 31
0.0
  0
LINE
  8
0
  6
CONTINUOUS
 62
     2
 10
495.408420495
 20
1300.273746261
 30
0.0
 11
801.55773369
 21
1300.273746261
 31
0.0
  0
LINE
  8
0
  6
CONTINUOUS
 62
     2
 10
495.408420495
 20
1278.405938175
 30
0.0
 11
801.55773369
 21
1278.405938175
 31
0.0
  0
LINE
  8
0
  6
CONTINUOUS
 62
     2
 10
495.408420495
 20
1300.273746261
 30
0.0
 11
495.408420495
 21
1278.405938175
 31
0.0
  0
LINE
  8
0
  6
CONTINUOUS
 62
     2
 10
520.920863261
 20
1300.273746261
 30
0.0
 11
520.920863261
 21
1278.405938175
 31
0.0
  0
CIRCLE
  8
0
  6
CONTINUOUS
 62
     6
 10
635.726855709
 20
1313.724635014
 30
0.0
 40
3.936205455
  0
LINE
  8
0
  6
CONTINUOUS
 62
     6
 10
635.483533837
 20
1335.953529485
 30
0.0
 11
631.725643274
 21
1314.511876105
 31
0.0
  0
LINE
  8
0
  6
CONTINUOUS
 62
     6
 10
630.946259178
 20
1336.709741928
 30
0.0
 11
627.188073096
 21
1315.268137801
 31
0.0
  0
LINE
  8
0
  6
CONTINUOUS
 62
     6
 10
631.725643274
 20
1314.511876105
 30
0.0
 11
627.188073096
 21
1315.268137801
 31
0.0
  0
CIRCLE
  8
0
  6
CONTINUOUS
 62
     6
 10
768.442582979
 20
1322.814353908
 30
0.0
 40
3.936205455
  0
LINE
  8
0
  6
CONTINUOUS
 62
     6
 10
764.506377524
 20
1322.814353908
 30
0.0
 11
763.289069541
 21
1322.814353908
 31
0.0
  0
LINE
  8
0
  6
CONTINUOUS
 62
     6
 10
788.558190434
 20
1335.953529485
 30
0.0
 11
784.800299871
 21
1314.511876105
 31
0.0
  0
LINE
  8
0
  6
CONTINUOUS
 62
     6
 10
784.020915776
 20
1336.709741928
 30
0.0
 11
780.262729694
 21
1315.268137801
 31
0.0
  0
LINE
  8
0
  6
CONTINUOUS
 62
     6
 10
784.800299871
 20
1314.511876105
 30
0.0
 11
780.262729694
 21
1315.268137801
 31
0.0
  0
CIRCLE
  8
0
  6
CONTINUOUS
 62
     6
 10
788.801512307
 20
1313.724635014
 30
0.0
 40
3.936205455
  0
LINE
  8
0
  6
CONTINUOUS
 62
     6
 10
661.482620348
 20
1335.953529485
 30
0.0
 11
665.240510911
 21
1314.511876105
 31
0.0
  0
LINE
  8
0
  6
CONTINUOUS
 62
     6
 10
666.019895007
 20
1336.709741928
 30
0.0
 11
669.778081089
 21
1315.268137801
 31
0.0
  0
LINE
  8
0
  6
CONTINUOUS
 62
     6
 10
665.240510911
 20
1314.511876105
 30
0.0
 11
669.778081089
 21
1315.268137801
 31
0.0
  0
CIRCLE
  8
0
  6
CONTINUOUS
 62
     6
 10
661.239298476
 20
1313.724635014
 30
0.0
 40
3.936205455
  0
CIRCLE
  8
0
  6
CONTINUOUS
 62
     6
 10
681.598227803
 20
1322.814353908
 30
0.0
 40
3.936205455
  0
LINE
  8
0
  6
CONTINUOUS
 62
     6
 10
685.534433259
 20
1322.814353908
 30
0.0
 11
686.751741242
 21
1322.814353908
 31
0.0
  0
CIRCLE
  8
0
  6
CONTINUOUS
 62
     6
 10
635.726855709
 20
1339.980583255
 30
0.0
 40
3.936205455
  0
LINE
  8
0
  6
CONTINUOUS
 62
     6
 10
635.483533837
 20
1335.953529485
 30
0.0
 11
630.946259178
 21
1336.709741928
 31
0.0
  0
LINE
  8
0
  6
CONTINUOUS
 62
     6
 10
635.726855709
 20
1343.91678871
 30
0.0
 11
635.726855709
 21
1351.830748456
 31
0.0
  0
LINE
  8
0
  6
CONTINUOUS
 62
     6
 10
635.726855709
 20
1351.830748456
 30
0.0
 11
610.214412943
 21
1351.830748456
 31
0.0
  0
LINE
  8
0
  6
CONTINUOUS
 62
     6
 10
788.801512307
 20
1351.830748456
 30
0.0
 11
737.776626774
 21
1351.830748456
 31
0.0
  0
CIRCLE
  8
0
  6
CONTINUOUS
 62
     6
 10
788.801512307
 20
1339.980583255
 30
0.0
 40
3.936205455
  0
LINE
  8
0
  6
CONTINUOUS
 62
     6
 10
788.558190434
 20
1335.953529485
 30
0.0
 11
784.020915776
 21
1336.709741928
 31
0.0
  0
LINE
  8
0
  6
CONTINUOUS
 62
     6
 10
788.801512307
 20
1343.91678871
 30
0.0
 11
788.801512307
 21
1351.830748456
 31
0.0
  0
CIRCLE
  8
0
  6
CONTINUOUS
 62
     6
 10
661.239298476
 20
1339.980583255
 30
0.0
 40
3.936205455
  0
LINE
  8
0
  6
CONTINUOUS
 62
     6
 10
661.482620348
 20
1335.953529485
 30
0.0
 11
666.019895007
 21
1336.709741928
 31
0.0
  0
LINE
  8
0
  6
CONTINUOUS
 62
     6
 10
661.239298476
 20
1343.91678871
 30
0.0
 11
661.239298476
 21
1351.830748456
 31
0.0
  0
LINE
  8
0
  6
CONTINUOUS
 62
     6
 10
712.264184008
 20
1351.830748456
 30
0.0
 11
661.239298476
 21
1351.830748456
 31
0.0
  0
TEXT
  8
0
  6
CONTINUOUS
 62
     6
 10
607.961199775
 20
1356.169123594
 30
0.78624
 40
11.232
  1
ＬＳＡ
 50
0.0
 41
0.8
 51
0.0
  7
KANJI22
  0
TEXT
  8
0
  6
CONTINUOUS
 62
     6
 10
665.811810691
 20
1356.169123594
 30
0.78624
 40
11.232
  1
ＬＳ０１
 50
0.0
 41
0.8
 51
0.0
  7
KANJI22
  0
TEXT
  8
0
  6
CONTINUOUS
 62
     6
 10
745.12718699
 20
1356.169123594
 30
0.78624
 40
11.232
  1
ＬＳ０２
 50
0.0
 41
0.8
 51
0.0
  7
KANJI22
  0
CIRCLE
  8
0
  6
CONTINUOUS
 62
     6
 10
508.164641878
 20
1239.542753509
 30
0.0
 40
3.936205455
  0
LINE
  8
0
  6
CONTINUOUS
 62
     6
 10
508.407963751
 20
1235.515699739
 30
0.0
 11
512.165854314
 21
1214.074046359
 31
0.0
  0
LINE
  8
0
  6
CONTINUOUS
 62
     6
 10
508.407963751
 20
1235.515699739
 30
0.0
 11
512.94523841
 21
1236.271912182
 31
0.0
  0
LINE
  8
0
  6
CONTINUOUS
 62
     6
 10
512.94523841
 20
1236.271912182
 30
0.0
 11
516.703424491
 21
1214.830308055
 31
0.0
  0
LINE
  8
0
  6
CONTINUOUS
 62
     6
 10
508.164641878
 20
1243.478958964
 30
0.0
 11
508.164641878
 21
1251.392918711
 31
0.0
  0
LINE
  8
0
  6
CONTINUOUS
 62
     6
 10
559.189527411
 20
1251.392918711
 30
0.0
 11
508.164641878
 21
1251.392918711
 31
0.0
  0
LINE
  8
0
  6
CONTINUOUS
 62
     6
 10
559.189527411
 20
1199.835916515
 30
0.0
 11
559.189527411
 21
1251.392918711
 31
0.0
  0
CIRCLE
  8
0
  6
CONTINUOUS
 62
     6
 10
635.726855709
 20
1239.542753509
 30
0.0
 40
3.936205455
  0
LINE
  8
0
  6
CONTINUOUS
 62
     6
 10
635.483533837
 20
1235.515699739
 30
0.0
 11
631.725643274
 21
1214.074046359
 31
0.0
  0
LINE
  8
0
  6
CONTINUOUS
 62
     6
 10
635.483533837
 20
1235.515699739
 30
0.0
 11
630.946259178
 21
1236.271912182
 31
0.0
  0
LINE
  8
0
  6
CONTINUOUS
 62
     6
 10
630.946259178
 20
1236.271912182
 30
0.0
 11
627.188073096
 21
1214.830308055
 31
0.0
  0
LINE
  8
0
  6
CONTINUOUS
 62
     6
 10
635.726855709
 20
1243.478958964
 30
0.0
 11
635.726855709
 21
1251.392918711
 31
0.0
  0
LINE
  8
0
  6
CONTINUOUS
 62
     6
 10
584.701970177
 20
1251.392918711
 30
0.0
 11
635.726855709
 21
1251.392918711
 31
0.0
  0
LINE
  8
0
  6
CONTINUOUS
 62
     6
 10
584.701970177
 20
1199.835916515
 30
0.0
 11
584.701970177
 21
1251.392918711
 31
0.0
  0
TEXT
  8
0
  6
CONTINUOUS
 62
     6
 10
592.689010392
 20
1255.386688026
 30
0.78624
 40
11.232
  1
ＬＳ１２
 50
0.0
 41
0.8
 51
0.0
  7
KANJI22
  0
TEXT
  8
0
  6
CONTINUOUS
 62
     6
 10
513.373634093
 20
1255.386688026
 30
0.78624
 40
11.232
  1
ＬＳ１１
 50
0.0
 41
0.8
 51
0.0
  7
KANJI22
  0
LINE
  8
0
  6
CONTINUOUS
 62
     2
 10
495.408420495
 20
1199.835916515
 30
0.0
 11
495.408420495
 21
1177.968108429
 31
0.0
  0
LINE
  8
0
  6
CONTINUOUS
 62
     2
 10
520.920863261
 20
1199.835916515
 30
0.0
 11
520.920863261
 21
1177.968108429
 31
0.0
  0
LINE
  8
0
  6
CONTINUOUS
 62
     2
 10
546.433306028
 20
1199.835916515
 30
0.0
 11
546.433306028
 21
1177.968108429
 31
0.0
  0
LINE
  8
0
  6
CONTINUOUS
 62
     2
 10
571.945748794
 20
1199.835916515
 30
0.0
 11
571.945748794
 21
1177.968108429
 31
0.0
  0
LINE
  8
0
  6
CONTINUOUS
 62
     2
 10
597.45819156
 20
1199.835916515
 30
0.0
 11
597.45819156
 21
1177.968108429
 31
0.0
  0
LINE
  8
0
  6
CONTINUOUS
 62
     2
 10
622.970634326
 20
1199.835916515
 30
0.0
 11
622.970634326
 21
1177.968108429
 31
0.0
  0
LINE
  8
0
  6
CONTINUOUS
 62
     6
 10
512.165854314
 20
1214.074046359
 30
0.0
 11
516.703424491
 21
1214.830308055
 31
0.0
  0
CIRCLE
  8
0
  6
CONTINUOUS
 62
     6
 10
508.164641878
 20
1213.286805268
 30
0.0
 40
3.936205455
  0
CIRCLE
  8
0
  6
CONTINUOUS
 62
     6
 10
528.523571206
 20
1222.376524162
 30
0.0
 40
3.936205455
  0
LINE
  8
0
  6
CONTINUOUS
 62
     6
 10
532.459776661
 20
1222.376524162
 30
0.0
 11
533.677084644
 21
1222.376524162
 31
0.0
  0
LINE
  8
0
  6
CONTINUOUS
 62
     6
 10
508.164641878
 20
1209.350599813
 30
0.0
 11
508.164641878
 21
1199.835916515
 31
0.0
  0
LINE
  8
0
  6
CONTINUOUS
 62
     6
 10
533.677084644
 20
1222.376524162
 30
0.0
 11
533.677084644
 21
1199.835916515
 31
0.0
  0
LINE
  8
0
  6
CONTINUOUS
 62
     6
 10
631.725643274
 20
1214.074046359
 30
0.0
 11
627.188073096
 21
1214.830308055
 31
0.0
  0
CIRCLE
  8
0
  6
CONTINUOUS
 62
     6
 10
635.726855709
 20
1213.286805268
 30
0.0
 40
3.936205455
  0
CIRCLE
  8
0
  6
CONTINUOUS
 62
     6
 10
615.367926382
 20
1222.376524162
 30
0.0
 40
3.936205455
  0
LINE
  8
0
  6
CONTINUOUS
 62
     6
 10
611.431720927
 20
1222.376524162
 30
0.0
 11
610.214412943
 21
1222.376524162
 31
0.0
  0
LINE
  8
0
  6
CONTINUOUS
 62
     6
 10
635.726855709
 20
1209.350599813
 30
0.0
 11
635.726855709
 21
1199.835916515
 31
0.0
  0
LINE
  8
0
  6
CONTINUOUS
 62
     6
 10
610.214412943
 20
1222.376524162
 30
0.0
 11
610.214412943
 21
1199.835916515
 31
0.0
  0
LINE
  8
0
  6
CONTINUOUS
 62
     2
 10
648.483077093
 20
1199.835916515
 30
0.0
 11
648.483077093
 21
1177.968108429
 31
0.0
  0
TEXT
  8
0
  6
CONTINUOUS
 62
     3
 10
502.347996451
 20
1180.92384711
 30
0.0
 40
14.37696
  1
２１　２２　２３　２４　　２５　　２６　　
 50
0.0
 41
0.9125
 51
0.0
  7
KANJI23
  0
LINE
  8
0
  6
CONTINUOUS
 62
     2
 10
495.408420495
 20
1177.968108429
 30
0.0
 11
648.483077093
 21
1177.968108429
 31
0.0
  0
LINE
  8
0
  6
CONTINUOUS
 62
     2
 10
495.408420495
 20
1199.835916515
 30
0.0
 11
648.483077093
 21
1199.835916515
 31
0.0
  0
CIRCLE
  8
0
  6
CONTINUOUS
 62
     6
 10
661.239298476
 20
1239.542753509
 30
0.0
 40
3.936205455
  0
LINE
  8
0
  6
CONTINUOUS
 62
     6
 10
661.482620348
 20
1235.515699739
 30
0.0
 11
665.240510911
 21
1214.074046359
 31
0.0
  0
LINE
  8
0
  6
CONTINUOUS
 62
     6
 10
661.482620348
 20
1235.515699739
 30
0.0
 11
666.019895007
 21
1236.271912182
 31
0.0
  0
LINE
  8
0
  6
CONTINUOUS
 62
     6
 10
666.019895007
 20
1236.271912182
 30
0.0
 11
669.778081089
 21
1214.830308055
 31
0.0
  0
LINE
  8
0
  6
CONTINUOUS
 62
     6
 10
661.239298476
 20
1243.478958964
 30
0.0
 11
661.239298476
 21
1251.392918711
 31
0.0
  0
LINE
  8
0
  6
CONTINUOUS
 62
     6
 10
712.264184008
 20
1251.392918711
 30
0.0
 11
661.239298476
 21
1251.392918711
 31
0.0
  0
LINE
  8
0
  6
CONTINUOUS
 62
     6
 10
712.264184008
 20
1199.835916515
 30
0.0
 11
712.264184008
 21
1251.392918711
 31
0.0
  0
CIRCLE
  8
0
  6
CONTINUOUS
 62
     6
 10
788.801512307
 20
1239.542753509
 30
0.0
 40
3.936205455
  0
LINE
  8
0
  6
CONTINUOUS
 62
     6
 10
788.558190434
 20
1235.515699739
 30
0.0
 11
784.800299871
 21
1214.074046359
 31
0.0
  0
LINE
  8
0
  6
CONTINUOUS
 62
     6
 10
788.558190434
 20
1235.515699739
 30
0.0
 11
784.020915776
 21
1236.271912182
 31
0.0
  0
LINE
  8
0
  6
CONTINUOUS
 62
     6
 10
784.020915776
 20
1236.271912182
 30
0.0
 11
780.262729694
 21
1214.830308055
 31
0.0
  0
LINE
  8
0
  6
CONTINUOUS
 62
     6
 10
788.801512307
 20
1243.478958964
 30
0.0
 11
788.801512307
 21
1251.392918711
 31
0.0
  0
LINE
  8
0
  6
CONTINUOUS
 62
     6
 10
737.776626774
 20
1251.392918711
 30
0.0
 11
788.801512307
 21
1251.392918711
 31
0.0
  0
LINE
  8
0
  6
CONTINUOUS
 62
     6
 10
737.776626774
 20
1199.835916515
 30
0.0
 11
737.776626774
 21
1251.392918711
 31
0.0
  0
LINE
  8
0
  6
CONTINUOUS
 62
     2
 10
673.995519859
 20
1199.835916515
 30
0.0
 11
673.995519859
 21
1177.968108429
 31
0.0
  0
LINE
  8
0
  6
CONTINUOUS
 62
     2
 10
699.507962625
 20
1199.835916515
 30
0.0
 11
699.507962625
 21
1177.968108429
 31
0.0
  0
LINE
  8
0
  6
CONTINUOUS
 62
     2
 10
725.020405391
 20
1199.835916515
 30
0.0
 11
725.020405391
 21
1177.968108429
 31
0.0
  0
LINE
  8
0
  6
CONTINUOUS
 62
     2
 10
750.532848158
 20
1199.835916515
 30
0.0
 11
750.532848158
 21
1177.968108429
 31
0.0
  0
LINE
  8
0
  6
CONTINUOUS
 62
     2
 10
776.045290924
 20
1199.835916515
 30
0.0
 11
776.045290924
 21
1177.968108429
 31
0.0
  0
LINE
  8
0
  6
CONTINUOUS
 62
     6
 10
665.240510911
 20
1214.074046359
 30
0.0
 11
669.778081089
 21
1214.830308055
 31
0.0
  0
CIRCLE
  8
0
  6
CONTINUOUS
 62
     6
 10
661.239298476
 20
1213.286805268
 30
0.0
 40
3.936205455
  0
CIRCLE
  8
0
  6
CONTINUOUS
 62
     6
 10
681.598227803
 20
1222.376524162
 30
0.0
 40
3.936205455
  0
LINE
  8
0
  6
CONTINUOUS
 62
     6
 10
685.534433259
 20
1222.376524162
 30
0.0
 11
686.751741242
 21
1222.376524162
 31
0.0
  0
LINE
  8
0
  6
CONTINUOUS
 62
     6
 10
661.239298476
 20
1209.350599813
 30
0.0
 11
661.239298476
 21
1199.835916515
 31
0.0
  0
LINE
  8
0
  6
CONTINUOUS
 62
     6
 10
686.751741242
 20
1222.376524162
 30
0.0
 11
686.751741242
 21
1199.835916515
 31
0.0
  0
LINE
  8
0
  6
CONTINUOUS
 62
     6
 10
784.800299871
 20
1214.074046359
 30
0.0
 11
780.262729694
 21
1214.830308055
 31
0.0
  0
CIRCLE
  8
0
  6
CONTINUOUS
 62
     6
 10
788.801512307
 20
1213.286805268
 30
0.0
 40
3.936205455
  0
CIRCLE
  8
0
  6
CONTINUOUS
 62
     6
 10
768.44258298
 20
1222.376524162
 30
0.0
 40
3.936205455
  0
LINE
  8
0
  6
CONTINUOUS
 62
     6
 10
764.506377524
 20
1222.376524162
 30
0.0
 11
763.289069541
 21
1222.376524162
 31
0.0
  0
LINE
  8
0
  6
CONTINUOUS
 62
     6
 10
788.801512307
 20
1209.350599813
 30
0.0
 11
788.801512307
 21
1199.835916515
 31
0.0
  0
LINE
  8
0
  6
CONTINUOUS
 62
     6
 10
763.289069541
 20
1222.376524162
 30
0.0
 11
763.289069541
 21
1199.835916515
 31
0.0
  0
LINE
  8
0
  6
CONTINUOUS
 62
     2
 10
801.55773369
 20
1199.835916515
 30
0.0
 11
801.55773369
 21
1177.968108429
 31
0.0
  0
LINE
  8
0
  6
CONTINUOUS
 62
     2
 10
648.483077093
 20
1177.968108429
 30
0.0
 11
801.55773369
 21
1177.968108429
 31
0.0
  0
LINE
  8
0
  6
CONTINUOUS
 62
     2
 10
648.483077093
 20
1199.835916515
 30
0.0
 11
801.55773369
 21
1199.835916515
 31
0.0
  0
TEXT
  8
0
  6
CONTINUOUS
 62
     3
 10
655.422653048
 20
1180.92384711
 30
0.0
 40
14.37696
  1
２７　２８　２９　３０　　３１　　３２　　
 50
0.0
 41
0.9125
 51
0.0
  7
KANJI23
  0
TEXT
  8
0
  6
CONTINUOUS
 62
     6
 10
666.448290691
 20
1255.386688026
 30
0.78624
 40
11.232
  1
ＬＳ１３
 50
0.0
 41
0.8
 51
0.0
  7
KANJI22
  0
TEXT
  8
0
  6
CONTINUOUS
 62
     6
 10
745.76366699
 20
1255.386688026
 30
0.78624
 40
11.232
  1
ＬＳ１４
 50
0.0
 41
0.8
 51
0.0
  7
KANJI22
  0
LINE
  8
0
  6
LTYPE2
 62
     2
 10
462.92
 20
1364.2
 30
0.0
 11
462.92
 21
1148.2
 31
0.0
  0
TEXT
  8
0
  6
CONTINUOUS
 62
     3
 10
500.510909048
 20
1282.050572856
 30
0.0
 40
14.4
  1
　　　　　　　　４０　４１　１　　２　　　３　　　４　　　５　　　６
 50
0.0
 41
0.911
 51
0.0
  7
KANJI24
  0
LINE
  8
0
  6
LTYPE2
 62
     6
 10
250.996315633
 20
1097.8
 30
0.0
 11
94.52
 21
1097.8
 31
0.0
  0
CIRCLE
  8
0
  6
CONTINUOUS
 62
     6
 10
94.52
 20
1074.182767268
 30
0.0
 40
5.24827394
  0
LINE
  8
0
  6
CONTINUOUS
 62
     6
 10
88.490259572
 20
1068.15302684
 30
0.0
 11
100.7362321
 21
1080.398999368
 31
0.0
  0
CIRCLE
  8
0
  6
CONTINUOUS
 62
     6
 10
148.31480789
 20
1043.567835948
 30
0.0
 40
21.867808085
  0
TEXT
  8
0
  6
CONTINUOUS
 62
     6
 10
139.130328494
 20
1033.071288067
 30
2.186780809
 40
21.867808085
  1
Ｍ
 50
0.0
 41
0.9
 51
0.0
  7
KANJI28
  0
LINE
  8
0
  6
CONTINUOUS
 62
     6
 10
119.449301217
 20
1012.952904629
 30
0.0
 11
133.00734223
 21
1028.69772645
 31
0.0
  0
LINE
  8
0
  6
CONTINUOUS
 62
     6
 10
119.449301217
 20
1074.182767268
 30
0.0
 11
133.00734223
 21
1058.437945446
 31
0.0
  0
LINE
  8
0
  6
CONTINUOUS
 62
     6
 10
119.449301217
 20
1074.182767268
 30
0.0
 11
99.76827394
 21
1074.182767268
 31
0.0
  0
LINE
  8
0
  6
CONTINUOUS
 62
     6
 10
126.884355966
 20
1043.567835948
 30
0.0
 11
99.76827394
 21
1043.567835948
 31
0.0
  0
LINE
  8
0
  6
CONTINUOUS
 62
     6
 10
119.449301217
 20
1012.952904629
 30
0.0
 11
99.76827394
 21
1012.952904629
 31
0.0
  0
CIRCLE
  8
0
  6
CONTINUOUS
 62
     6
 10
94.52
 20
1043.567835948
 30
0.0
 40
5.24827394
  0
LINE
  8
0
  6
CONTINUOUS
 62
     6
 10
88.490259572
 20
1037.538095521
 30
0.0
 11
100.7362321
 21
1049.784068048
 31
0.0
  0
CIRCLE
  8
0
  6
CONTINUOUS
 62
     6
 10
94.52
 20
1012.952904629
 30
0.0
 40
5.24827394
  0
LINE
  8
0
  6
CONTINUOUS
 62
     6
 10
88.490259572
 20
1006.923164201
 30
0.0
 11
100.7362321
 21
1019.169136729
 31
0.0
  0
LINE
  8
0
  6
LTYPE2
 62
     6
 10
250.996315633
 20
983.305921469
 30
0.0
 11
94.52
 21
983.305921469
 31
0.0
  0
TEXT
  8
0
  6
CONTINUOUS
 62
     2
 10
100.634472037
 20
953.054685773
 30
0.0
 40
18.72
  1
モーター結線図
 50
0.0
 41
0.925
 51
0.0
  7
KANJI29
  0
TEXT
  8
0
  6
CONTINUOUS
 62
     6
 10
179.804451533
 20
1033.661718886
 30
1.749424647
 40
17.494246468
  1
Ｂ
 50
0.0
 41
0.9
 51
0.0
  7
KANJI30
  0
CIRCLE
  8
0
  6
CONTINUOUS
 62
     6
 10
187.676862444
 20
1043.567835948
 30
0.0
 40
17.494246468
  0
LINE
  8
0
  6
LTYPE2
 62
     6
 10
250.996315633
 20
983.305921469
 30
0.0
 11
250.996315633
 21
1097.8
 31
0.0
  0
LINE
  8
0
  6
LTYPE2
 62
     6
 10
94.52
 20
1097.8
 30
0.0
 11
94.52
 21
1078.118972723
 31
0.0
  0
TEXT
  8
0
  6
CONTINUOUS
 62
     6
 10
73.478309109
 20
1081.617822017
 30
1.312068485
 40
13.120684851
  1
Ｕ
 50
0.0
 41
0.9
 51
0.0
  7
KANJI31
  0
TEXT
  8
0
  6
CONTINUOUS
 62
     6
 10
74.790377594
 20
1050.565534536
 30
1.312068485
 40
13.120684851
  1
Ｖ
 50
0.0
 41
0.9
 51
0.0
  7
KANJI31
  0
TEXT
  8
0
  6
CONTINUOUS
 62
     6
 10
76.102446079
 20
1019.513247054
 30
1.312068485
 40
13.120684851
  1
Ｗ
 50
0.0
 41
0.9
 51
0.0
  7
KANJI31
  0
LINE
  8
0
  6
LTYPE2
 62
     6
 10
94.52
 20
1069.371849489
 30
0.0
 11
94.52
 21
1047.504041404
 31
0.0
  0
LINE
  8
0
  6
LTYPE2
 62
     6
 10
94.52
 20
1038.75691817
 30
0.0
 11
94.52
 21
1018.201178569
 31
0.0
  0
LINE
  8
0
  6
LTYPE2
 62
     6
 10
94.52
 20
1007.704630688
 30
0.0
 11
94.52
 21
983.305921469
 31
0.0
  0
LINE
  8
0
  6
CONTINUOUS
 62
     1
 10
563.066666667
 20
473.0
 30
0.0
 11
472.071629476
 21
482.099503719
 31
0.0
  0
ARC
  8
0
  6
CONTINUOUS
 62
     1
 10
473.066666667
 20
492.049875621
 30
0.0
 40
10.0
 50
180.0
 51
264.289406863
  0
LINE
  8
0
  6
CONTINUOUS
 62
     1
 10
563.066666667
 20
473.0
 30
0.0
 11
472.071629476
 21
482.099503719
 31
0.0
  0
LINE
  8
0
  6
CONTINUOUS
 62
     1
 10
465.066666667
 20
497.0
 30
0.0
 11
563.066666667
 21
497.0
 31
0.0
  0
LINE
  8
0
  6
LTYPE3
 62
     2
 10
456.126666667
 20
565.0
 30
0.0
 11
744.166666667
 21
565.0
 31
0.0
  0
LINE
  8
0
  6
CONTINUOUS
 62
     2
 10
650.066666667
 20
335.7
 30
0.0
 11
463.066666667
 21
335.7
 31
0.0
  0
LINE
  8
0
  6
CONTINUOUS
 62
     2
 10
463.066666667
 20
335.7
 30
0.0
 11
475.140739495
 21
332.464761936
 31
0.0
  0
LINE
  8
0
  6
CONTINUOUS
 62
     2
 10
463.066666667
 20
335.7
 30
0.0
 11
475.140739495
 21
338.935238064
 31
0.0
  0
LINE
  8
0
  6
CONTINUOUS
 62
     2
 10
463.066666667
 20
480.5
 30
0.0
 11
463.066666667
 21
293.2
 31
0.0
  0
LINE
  8
0
  6
CONTINUOUS
 62
     2
 10
463.066666667
 20
301.5375
 30
0.0
 11
475.140739495
 21
304.772738064
 31
0.0
  0
LINE
  8
0
  6
CONTINUOUS
 62
     2
 10
721.066666667
 20
861.3
 30
0.0
 11
463.066666667
 21
861.3
 31
0.0
  0
LINE
  8
0
  6
CONTINUOUS
 62
     2
 10
463.066666667
 20
861.3
 30
0.0
 11
475.140739495
 21
858.064761936
 31
0.0
  0
LINE
  8
0
  6
CONTINUOUS
 62
     2
 10
463.066666667
 20
861.3
 30
0.0
 11
475.140739495
 21
864.535238064
 31
0.0
  0
LINE
  8
0
  6
CONTINUOUS
 62
     1
 10
463.066666667
 20
488.0
 30
0.0
 11
463.066666667
 21
660.950124379
 31
0.0
  0
ARC
  8
0
  6
CONTINUOUS
 62
     1
 10
473.066666667
 20
660.950124379
 30
0.0
 40
10.0
 50
95.710593137
 51
180.0
  0
LINE
  8
0
  6
CONTINUOUS
 62
     1
 10
498.564185262
 20
673.54975186
 30
0.0
 11
472.071629476
 21
670.900496281
 31
0.0
  0
LINE
  8
0
  6
CONTINUOUS
 62
     2
 10
463.066666667
 20
666.0
 30
0.0
 11
463.066666667
 21
868.8
 31
0.0
  0
LINE
  8
0
  6
CONTINUOUS
 62
     1
 10
469.066666667
 20
685.0
 30
0.0
 11
469.066666667
 21
715.0
 31
0.0
  0
LINE
  8
0
  6
CONTINUOUS
 62
     1
 10
469.066666667
 20
715.0
 30
0.0
 11
503.066666667
 21
715.0
 31
0.0
  0
LINE
  8
0
  6
CONTINUOUS
 62
     1
 10
469.066666667
 20
685.0
 30
0.0
 11
503.066666667
 21
685.0
 31
0.0
  0
LINE
  8
0
  6
CONTINUOUS
 62
     2
 10
483.066666667
 20
712.0
 30
0.0
 11
480.239371862
 21
724.176058643
 31
0.0
  0
LINE
  8
0
  6
CONTINUOUS
 62
     2
 10
483.066666667
 20
712.0
 30
0.0
 11
474.53012822
 21
721.131128701
 31
0.0
  0
LINE
  8
0
  6
CONTINUOUS
 62
     2
 10
483.066666667
 20
712.0
 30
0.0
 11
443.066666667
 21
787.0
 31
0.0
  0
LINE
  8
0
  6
CONTINUOUS
 62
     2
 10
443.066666667
 20
787.0
 30
0.0
 11
354.566666667
 21
787.0
 31
0.0
  0
TEXT
  8
0
  6
CONTINUOUS
 62
     2
 10
354.566666667
 20
792.0
 30
1.75
 40
17.5
  1
手動軸カバー
 50
0.0
 41
0.9
 51
0.0
  7
KANJI32
  0
TEXT
  8
0
  6
CONTINUOUS
 62
     2
 10
480.766666667
 20
617.5
 30
1.75
 40
17.5
  1
ポジショナ
 50
0.0
 41
0.9
 51
0.0
  7
KANJI33
  0
LINE
  8
0
  6
CONTINUOUS
 62
     2
 10
566.766666667
 20
610.0
 30
0.0
 11
472.766666667
 21
610.0
 31
0.0
  0
LINE
  8
0
  6
LTYPE2
 62
     2
 10
459.866666667
 20
700.0
 30
0.0
 11
1003.666666667
 21
700.0
 31
0.0
  0
ARC
  8
0
  6
CONTINUOUS
 62
     2
 10
408.0
 20
696.84
 30
0.0
 40
24.0
 50
231.952957468
 51
156.801409486
  0
LINE
  8
0
  6
CONTINUOUS
 62
     2
 10
385.94051928
 20
706.294063166
 30
0.0
 11
388.694150532
 21
718.098989698
 31
0.0
  0
LINE
  8
0
  6
CONTINUOUS
 62
     2
 10
385.94051928
 20
706.294063166
 30
0.0
 11
395.862312933
 21
712.182867008
 31
0.0
  0
TEXT
  8
0
  6
CONTINUOUS
 62
     2
 10
365.54051928
 20
643.894063166
 30
0.0
 40
18.0
  1
前進方向
 50
0.0
 41
0.9
 51
0.0
  7
KANJI26
  0
ARC
  8
0
  6
CONTINUOUS
 62
     1
 10
1039.788885343
 20
511.0
 30
0.0
 40
1.0
 50
195.0
 51
270.0
  0
ARC
  8
0
  6
CONTINUOUS
 62
     1
 10
1039.788886169
 20
511.0
 30
0.0
 40
1.0
 50
270.0
 51
345.0
  0
LINE
  8
0
  6
CONTINUOUS
 62
     1
 10
1044.376852205
 20
524.258819045
 30
0.0
 11
1040.754811995
 21
510.741180955
 31
0.0
  0
ARC
  8
0
  6
CONTINUOUS
 62
     1
 10
1045.342778032
 20
524.0
 30
0.0
 40
1.0
 50
90.0
 51
165.0
  0
ARC
  8
0
  6
CONTINUOUS
 62
     1
 10
1045.342778706
 20
524.0
 30
0.0
 40
1.0
 50
15.0
 51
90.0
  0
LINE
  8
0
  6
CONTINUOUS
 62
     1
 10
1046.308704532
 20
524.258819045
 30
0.0
 11
1049.930744742
 21
510.741180955
 31
0.0
  0
ARC
  8
0
  6
CONTINUOUS
 62
     1
 10
1050.896670568
 20
511.0
 30
0.0
 40
1.0
 50
195.0
 51
270.0
  0
LINE
  8
0
  6
CONTINUOUS
 62
     1
 10
1055.48463743
 20
524.258819045
 30
0.0
 11
1051.86259722
 21
510.741180955
 31
0.0
  0
ARC
  8
0
  6
CONTINUOUS
 62
     1
 10
1056.450563257
 20
524.0
 30
0.0
 40
1.0
 50
90.0
 51
165.0
  0
ARC
  8
0
  6
CONTINUOUS
 62
     1
 10
1050.89667222
 20
511.0
 30
0.0
 40
1.0
 50
270.0
 51
345.0
  0
ARC
  8
0
  6
CONTINUOUS
 62
     1
 10
1039.788885343
 20
619.0
 30
0.0
 40
1.0
 50
90.0
 51
165.0
  0
ARC
  8
0
  6
CONTINUOUS
 62
     1
 10
1039.788886169
 20
619.0
 30
0.0
 40
1.0
 50
15.0
 51
90.0
  0
LINE
  8
0
  6
CONTINUOUS
 62
     1
 10
1044.376852205
 20
605.741180955
 30
0.0
 11
1040.754811995
 21
619.258819045
 31
0.0
  0
ARC
  8
0
  6
CONTINUOUS
 62
     1
 10
1045.342778032
 20
606.0
 30
0.0
 40
1.0
 50
195.0
 51
270.0
  0
ARC
  8
0
  6
CONTINUOUS
 62
     1
 10
1045.342778706
 20
606.0
 30
0.0
 40
1.0
 50
270.0
 51
345.0
  0
LINE
  8
0
  6
CONTINUOUS
 62
     1
 10
1046.308704532
 20
605.741180955
 30
0.0
 11
1049.930744742
 21
619.258819045
 31
0.0
  0
ARC
  8
0
  6
CONTINUOUS
 62
     1
 10
1050.896670568
 20
619.0
 30
0.0
 40
1.0
 50
90.0
 51
165.0
  0
LINE
  8
0
  6
CONTINUOUS
 62
     1
 10
1055.48463743
 20
605.741180955
 30
0.0
 11
1051.86259722
 21
619.258819045
 31
0.0
  0
ARC
  8
0
  6
CONTINUOUS
 62
     1
 10
1056.450563257
 20
606.0
 30
0.0
 40
1.0
 50
195.0
 51
270.0
  0
ARC
  8
0
  6
CONTINUOUS
 62
     1
 10
1050.89667222
 20
619.0
 30
0.0
 40
1.0
 50
15.0
 51
90.0
  0
LINE
  8
0
  6
CONTINUOUS
 62
     1
 10
1039.788885343
 20
620.0
 30
0.0
 11
1039.788885343
 21
565.0
 31
0.0
  0
LINE
  8
0
  6
CONTINUOUS
 62
     1
 10
1045.342778032
 20
565.0
 30
0.0
 11
1045.342778032
 21
605.0
 31
0.0
  0
LINE
  8
0
  6
CONTINUOUS
 62
     1
 10
1050.896671394
 20
620.0
 30
0.0
 11
1050.896671394
 21
565.0
 31
0.0
  0
LINE
  8
0
  6
CONTINUOUS
 62
     1
 10
1056.450563257
 20
605.0
 30
0.0
 11
1056.450563257
 21
565.0
 31
0.0
  0
ARC
  8
0
  6
CONTINUOUS
 62
     1
 10
1131.366400808
 20
606.0
 30
0.0
 40
1.0
 50
195.0
 51
270.0
  0
LINE
  8
0
  6
CONTINUOUS
 62
     1
 10
1130.400474982
 20
605.741180955
 30
0.0
 11
1126.778434772
 21
619.258819045
 31
0.0
  0
ARC
  8
0
  6
CONTINUOUS
 62
     1
 10
1125.812508946
 20
619.0
 30
0.0
 40
1.0
 50
15.0
 51
90.0
  0
ARC
  8
0
  6
CONTINUOUS
 62
     1
 10
1125.812507294
 20
619.0
 30
0.0
 40
1.0
 50
90.0
 51
165.0
  0
ARC
  8
0
  6
CONTINUOUS
 62
     1
 10
1120.258616258
 20
606.0
 30
0.0
 40
1.0
 50
270.0
 51
345.0
  0
LINE
  8
0
  6
CONTINUOUS
 62
     1
 10
1121.224542084
 20
605.741180955
 30
0.0
 11
1124.846582294
 21
619.258819045
 31
0.0
  0
LINE
  8
0
  6
CONTINUOUS
 62
     1
 10
1120.258616258
 20
605.0
 30
0.0
 11
1120.258616258
 21
565.0
 31
0.0
  0
LINE
  8
0
  6
CONTINUOUS
 62
     1
 10
1125.81250812
 20
620.0
 30
0.0
 11
1125.81250812
 21
565.0
 31
0.0
  0
ARC
  8
0
  6
CONTINUOUS
 62
     1
 10
1131.366400808
 20
524.0
 30
0.0
 40
1.0
 50
90.0
 51
165.0
  0
LINE
  8
0
  6
CONTINUOUS
 62
     1
 10
1130.400474982
 20
524.258819045
 30
0.0
 11
1126.778434772
 21
510.741180955
 31
0.0
  0
ARC
  8
0
  6
CONTINUOUS
 62
     1
 10
1125.812508946
 20
511.0
 30
0.0
 40
1.0
 50
270.0
 51
345.0
  0
ARC
  8
0
  6
CONTINUOUS
 62
     1
 10
1125.812507294
 20
511.0
 30
0.0
 40
1.0
 50
195.0
 51
270.0
  0
ARC
  8
0
  6
CONTINUOUS
 62
     1
 10
1120.258616258
 20
524.0
 30
0.0
 40
1.0
 50
15.0
 51
90.0
  0
LINE
  8
0
  6
CONTINUOUS
 62
     1
 10
1121.224542084
 20
524.258819045
 30
0.0
 11
1124.846582294
 21
510.741180955
 31
0.0
  0
LINE
  8
0
  6
CONTINUOUS
 62
     1
 10
1071.042512848
 20
540.0
 30
0.0
 11
1156.666666667
 21
540.0
 31
0.0
  0
LINE
  8
0
  6
CONTINUOUS
 62
     1
 10
1130.416490583
 20
808.741180955
 30
0.0
 11
1134.038530793
 21
822.258819045
 31
0.0
  0
ARC
  8
0
  6
CONTINUOUS
 62
     1
 10
1129.450564757
 20
809.0
 30
0.0
 40
1.0
 50
270.0
 51
345.0
  0
ARC
  8
0
  6
CONTINUOUS
 62
     1
 10
1129.450564083
 20
809.0
 30
0.0
 40
1.0
 50
195.0
 51
270.0
  0
LINE
  8
0
  6
CONTINUOUS
 62
     1
 10
1128.484638256
 20
808.741180955
 30
0.0
 11
1124.862598046
 21
822.258819045
 31
0.0
  0
ARC
  8
0
  6
CONTINUOUS
 62
     1
 10
1123.89667222
 20
822.0
 30
0.0
 40
1.0
 50
15.0
 51
90.0
  0
ARC
  8
0
  6
CONTINUOUS
 62
     1
 10
1123.896670568
 20
822.0
 30
0.0
 40
1.0
 50
90.0
 51
165.0
  0
ARC
  8
0
  6
CONTINUOUS
 62
     1
 10
1118.342779532
 20
809.0
 30
0.0
 40
1.0
 50
270.0
 51
345.0
  0
LINE
  8
0
  6
CONTINUOUS
 62
     1
 10
1119.308705358
 20
808.741180955
 30
0.0
 11
1122.930745568
 21
822.258819045
 31
0.0
  0
LINE
  8
0
  6
CONTINUOUS
 62
     1
 10
1118.342779532
 20
808.0
 30
0.0
 11
1118.342779532
 21
768.0
 31
0.0
  0
LINE
  8
0
  6
CONTINUOUS
 62
     1
 10
1123.896671394
 20
823.0
 30
0.0
 11
1123.896671394
 21
768.0
 31
0.0
  0
LINE
  8
0
  6
CONTINUOUS
 62
     1
 10
1129.450564757
 20
768.0
 30
0.0
 11
1129.450564757
 21
808.0
 31
0.0
  0
LINE
  8
0
  6
CONTINUOUS
 62
     1
 10
1130.416490583
 20
727.258819045
 30
0.0
 11
1134.038530793
 21
713.741180955
 31
0.0
  0
ARC
  8
0
  6
CONTINUOUS
 62
     1
 10
1129.450564757
 20
727.0
 30
0.0
 40
1.0
 50
15.0
 51
90.0
  0
ARC
  8
0
  6
CONTINUOUS
 62
     1
 10
1129.450564083
 20
727.0
 30
0.0
 40
1.0
 50
90.0
 51
165.0
  0
LINE
  8
0
  6
CONTINUOUS
 62
     1
 10
1128.484638256
 20
727.258819045
 30
0.0
 11
1124.862598046
 21
713.741180955
 31
0.0
  0
ARC
  8
0
  6
CONTINUOUS
 62
     1
 10
1123.89667222
 20
714.0
 30
0.0
 40
1.0
 50
270.0
 51
345.0
  0
ARC
  8
0
  6
CONTINUOUS
 62
     1
 10
1123.896670568
 20
714.0
 30
0.0
 40
1.0
 50
195.0
 51
270.0
  0
ARC
  8
0
  6
CONTINUOUS
 62
     1
 10
1118.342779532
 20
727.0
 30
0.0
 40
1.0
 50
15.0
 51
90.0
  0
LINE
  8
0
  6
CONTINUOUS
 62
     1
 10
1119.308705358
 20
727.258819045
 30
0.0
 11
1122.930745568
 21
713.741180955
 31
0.0
  0
LINE
  8
0
  6
CONTINUOUS
 62
     1
 10
1118.342779532
 20
728.0
 30
0.0
 11
1118.342779532
 21
768.0
 31
0.0
  0
LINE
  8
0
  6
CONTINUOUS
 62
     1
 10
1123.896671394
 20
713.0
 30
0.0
 11
1123.896671394
 21
768.0
 31
0.0
  0
LINE
  8
0
  6
CONTINUOUS
 62
     1
 10
1129.450564757
 20
768.0
 30
0.0
 11
1129.450564757
 21
728.0
 31
0.0
  0
LINE
  8
0
  6
LTYPE4
 62
     2
 10
1056.450563257
 20
525.0
 30
0.0
 11
1087.396671394
 21
525.0
 31
0.0
  0
LINE
  8
0
  6
LTYPE4
 62
     2
 10
1050.896670568
 20
510.0
 30
0.0
 11
1087.396671394
 21
510.0
 31
0.0
  0
LINE
  8
0
  6
LTYPE4
 62
     2
 10
1118.342779532
 20
525.0
 30
0.0
 11
1087.396671394
 21
525.0
 31
0.0
  0
LINE
  8
0
  6
LTYPE4
 62
     2
 10
1123.89667222
 20
510.0
 30
0.0
 11
1087.396671394
 21
510.0
 31
0.0
  0
LINE
  8
0
  6
LTYPE4
 62
     2
 10
1056.450563257
 20
605.0
 30
0.0
 11
1087.396671394
 21
605.0
 31
0.0
  0
LINE
  8
0
  6
LTYPE4
 62
     2
 10
1050.896670568
 20
620.0
 30
0.0
 11
1087.396671394
 21
620.0
 31
0.0
  0
LINE
  8
0
  6
LTYPE4
 62
     2
 10
1118.342779532
 20
605.0
 30
0.0
 11
1087.396671394
 21
605.0
 31
0.0
  0
LINE
  8
0
  6
LTYPE4
 62
     2
 10
1123.89667222
 20
620.0
 30
0.0
 11
1087.396671394
 21
620.0
 31
0.0
  0
LINE
  8
0
  6
LTYPE4
 62
     2
 10
1118.342779532
 20
808.0
 30
0.0
 11
1087.396671394
 21
808.0
 31
0.0
  0
LINE
  8
0
  6
LTYPE4
 62
     2
 10
1123.89667222
 20
823.0
 30
0.0
 11
1087.396671394
 21
823.0
 31
0.0
  0
LINE
  8
0
  6
LTYPE4
 62
     2
 10
1118.342779532
 20
728.0
 30
0.0
 11
1087.396671394
 21
728.0
 31
0.0
  0
LINE
  8
0
  6
LTYPE4
 62
     2
 10
1123.89667222
 20
713.0
 30
0.0
 11
1087.396671394
 21
713.0
 31
0.0
  0
LINE
  8
0
  6
CONTINUOUS
 62
     2
 10
1071.042512848
 20
370.8
 30
0.0
 11
1058.968440019
 21
374.035238064
 31
0.0
  0
LINE
  8
0
  6
CONTINUOUS
 62
     2
 10
1071.042512848
 20
370.8
 30
0.0
 11
1058.968440019
 21
367.564761936
 31
0.0
  0
LINE
  8
0
  6
CONTINUOUS
 62
     2
 10
1071.042512848
 20
370.8
 30
0.0
 11
1083.116585676
 21
367.564761936
 31
0.0
  0
LINE
  8
0
  6
CONTINUOUS
 62
     2
 10
1071.042512848
 20
370.8
 30
0.0
 11
1083.116585676
 21
374.035238064
 31
0.0
  0
LINE
  8
0
  6
CONTINUOUS
 62
     2
 10
1071.042512848
 20
526.85
 30
0.0
 11
1071.042512848
 21
361.0625
 31
0.0
  0
CIRCLE
  8
0
  6
CONTINUOUS
 62
     1
 10
974.666666667
 20
565.0
 30
0.0
 40
16.575
  0
LINE
  8
0
  6
CONTINUOUS
 62
     1
 10
957.666666667
 20
582.0
 30
0.0
 11
991.666666667
 21
582.0
 31
0.0
  0
LINE
  8
0
  6
CONTINUOUS
 62
     1
 10
991.666666667
 20
548.0
 30
0.0
 11
991.666666667
 21
582.0
 31
0.0
  0
LINE
  8
0
  6
CONTINUOUS
 62
     1
 10
957.666666667
 20
548.0
 30
0.0
 11
991.666666667
 21
548.0
 31
0.0
  0
LINE
  8
0
  6
CONTINUOUS
 62
     1
 10
957.666666667
 20
548.0
 30
0.0
 11
957.666666667
 21
582.0
 31
0.0
  0
LINE
  8
0
  6
LTYPE3
 62
     2
 10
974.666666667
 20
543.665
 30
0.0
 11
974.666666667
 21
586.08
 31
0.0
  0
ARC
  8
0
  6
CONTINUOUS
 62
     1
 10
678.066666667
 20
749.0
 30
0.0
 40
6.0
 50
270.0
 51
0.0
  0
LINE
  8
0
  6
CONTINUOUS
 62
     1
 10
687.066666667
 20
775.0
 30
0.0
 11
721.066666667
 21
775.0
 31
0.0
  0
LINE
  8
0
  6
CONTINUOUS
 62
     1
 10
684.066666667
 20
749.0
 30
0.0
 11
684.066666667
 21
772.0
 31
0.0
  0
ARC
  8
0
  6
CONTINUOUS
 62
     1
 10
687.066666667
 20
772.0
 30
0.0
 40
3.0
 50
90.0
 51
180.0
  0
LINE
  8
0
  6
CONTINUOUS
 62
     1
 10
650.066666667
 20
743.0
 30
0.0
 11
706.066666667
 21
743.0
 31
0.0
  0
ARC
  8
0
  6
CONTINUOUS
 62
     1
 10
706.066666667
 20
746.0
 30
0.0
 40
3.0
 50
270.0
 51
0.0
  0
LINE
  8
0
  6
CONTINUOUS
 62
     1
 10
713.066666667
 20
775.0
 30
0.0
 11
708.966666667
 21
745.4
 31
0.0
  0
LINE
  8
0
  6
CONTINUOUS
 62
     1
 10
697.066666667
 20
781.0
 30
0.0
 11
706.266666667
 21
781.0
 31
0.0
  0
CIRCLE
  8
0
  6
CONTINUOUS
 62
     1
 10
697.066666667
 20
795.0
 30
0.0
 40
12.5
  0
LINE
  8
0
  6
CONTINUOUS
 62
     1
 10
697.066666667
 20
782.5
 30
0.0
 11
706.266666667
 21
781.0
 31
0.0
  0
ARC
  8
0
  6
CONTINUOUS
 62
     1
 10
697.066666667
 20
795.0
 30
0.0
 40
20.5
 50
300.423432294
 51
0.0
  0
ARC
  8
0
  6
CONTINUOUS
 62
     1
 10
708.014650739
 20
776.273488336
 30
0.0
 40
1.2
 50
118.393405187
 51
188.554293104
  0
LINE
  8
0
  6
CONTINUOUS
 62
     1
 10
697.066666667
 20
781.0
 30
0.0
 11
687.866666667
 21
781.0
 31
0.0
  0
LINE
  8
0
  6
CONTINUOUS
 62
     1
 10
697.066666667
 20
782.5
 30
0.0
 11
687.866666667
 21
781.0
 31
0.0
  0
ARC
  8
0
  6
CONTINUOUS
 62
     1
 10
686.118682594
 20
776.273488336
 30
0.0
 40
1.2
 50
351.445706896
 51
61.606594813
  0
ARC
  8
0
  6
CONTINUOUS
 62
     1
 10
697.066666667
 20
795.0
 30
0.0
 40
20.5
 50
0.0
 51
239.707348078
  0
LINE
  8
0
  6
CONTINUOUS
 62
     1
 10
687.180952381
 20
775.0
 30
0.0
 11
687.866666667
 21
781.0
 31
0.0
  0
LINE
  8
0
  6
CONTINUOUS
 62
     1
 10
706.952380952
 20
775.0
 30
0.0
 11
706.266666667
 21
781.0
 31
0.0
  0
LINE
  8
0
  6
CONTINUOUS
 62
     1
 10
709.066666667
 20
673.0
 30
0.0
 11
709.066666667
 21
745.4
 31
0.0
  0
ARC
  8
0
  6
CONTINUOUS
 62
     1
 10
706.066666667
 20
673.0
 30
0.0
 40
3.0
 50
270.0
 51
360.0
  0
LINE
  8
0
  6
CONTINUOUS
 62
     1
 10
903.066666667
 20
507.0
 30
0.0
 11
903.066666667
 21
618.0
 31
0.0
  0
LINE
  8
0
  6
CONTINUOUS
 62
     1
 10
736.066666667
 20
508.0
 30
0.0
 11
736.066666667
 21
622.0
 31
0.0
  0
CIRCLE
  8
0
  6
CONTINUOUS
 62
     1
 10
781.066666667
 20
565.0
 30
0.0
 40
10.0
  0
CIRCLE
  8
0
  6
CONTINUOUS
 62
     1
 10
781.066666667
 20
565.0
 30
0.0
 40
21.0
  0
CIRCLE
  8
0
  6
CONTINUOUS
 62
     1
 10
781.066666667
 20
565.0
 30
0.0
 40
25.0
  0
LINE
  8
0
  6
CONTINUOUS
 62
     1
 10
721.066666667
 20
622.0
 30
0.0
 11
736.066666667
 21
622.0
 31
0.0
  0
LINE
  8
0
  6
CONTINUOUS
 62
     1
 10
749.966666667
 20
618.0
 30
0.0
 11
903.066666667
 21
618.0
 31
0.0
  0
LINE
  8
0
  6
CONTINUOUS
 62
     1
 10
829.066666667
 20
507.0
 30
0.0
 11
829.066666667
 21
559.4
 31
0.0
  0
LINE
  8
0
  6
CONTINUOUS
 62
     1
 10
749.966666667
 20
512.0
 30
0.0
 11
826.566666667
 21
512.0
 31
0.0
  0
LINE
  8
0
  6
CONTINUOUS
 62
     1
 10
739.066666667
 20
610.0
 30
0.0
 11
739.066666667
 21
620.94954
 31
0.0
  0
LINE
  8
0
  6
CONTINUOUS
 62
     1
 10
739.066666667
 20
610.0
 30
0.0
 11
739.066666667
 21
599.05046
 31
0.0
  0
LINE
  8
0
  6
CONTINUOUS
 62
     1
 10
736.066666667
 20
620.75
 30
0.0
 11
739.066666667
 21
620.75
 31
0.0
  0
LINE
  8
0
  6
CONTINUOUS
 62
     1
 10
736.066666667
 20
610.0
 30
0.0
 11
739.066920739
 21
613.000254073
 31
0.0
  0
LINE
  8
0
  6
CONTINUOUS
 62
     1
 10
739.066920739
 20
610.0
 30
0.0
 11
736.066666667
 21
606.999745927
 31
0.0
  0
LINE
  8
0
  6
CONTINUOUS
 62
     1
 10
736.066666667
 20
599.25
 30
0.0
 11
739.066666667
 21
599.25
 31
0.0
  0
LINE
  8
0
  6
CONTINUOUS
 62
     1
 10
739.066666667
 20
620.75
 30
0.0
 11
750.366666667
 21
620.75
 31
0.0
  0
LINE
  8
0
  6
CONTINUOUS
 62
     1
 10
750.366666667
 20
610.0
 30
0.0
 11
750.366666667
 21
620.75
 31
0.0
  0
LINE
  8
0
  6
CONTINUOUS
 62
     1
 10
750.366666667
 20
620.75
 30
0.0
 11
751.066666667
 21
619.537564435
 31
0.0
  0
LINE
  8
0
  6
CONTINUOUS
 62
     1
 10
751.066666667
 20
610.0
 30
0.0
 11
751.066666667
 21
619.537564435
 31
0.0
  0
LINE
  8
0
  6
CONTINUOUS
 62
     1
 10
739.066666667
 20
599.25
 30
0.0
 11
750.366666667
 21
599.25
 31
0.0
  0
LINE
  8
0
  6
CONTINUOUS
 62
     1
 10
750.366666667
 20
610.0
 30
0.0
 11
750.366666667
 21
599.25
 31
0.0
  0
LINE
  8
0
  6
CONTINUOUS
 62
     1
 10
750.366666667
 20
599.25
 30
0.0
 11
751.066666667
 21
600.462435565
 31
0.0
  0
LINE
  8
0
  6
CONTINUOUS
 62
     1
 10
751.066666667
 20
610.0
 30
0.0
 11
751.066666667
 21
600.462435565
 31
0.0
  0
LINE
  8
0
  6
CONTINUOUS
 62
     1
 10
739.066666667
 20
520.0
 30
0.0
 11
739.066666667
 21
509.05046
 31
0.0
  0
LINE
  8
0
  6
CONTINUOUS
 62
     1
 10
739.066666667
 20
520.0
 30
0.0
 11
739.066666667
 21
530.94954
 31
0.0
  0
LINE
  8
0
  6
CONTINUOUS
 62
     1
 10
736.066666667
 20
509.25
 30
0.0
 11
739.066666667
 21
509.25
 31
0.0
  0
LINE
  8
0
  6
CONTINUOUS
 62
     1
 10
736.066666667
 20
520.0
 30
0.0
 11
739.066920739
 21
516.999745927
 31
0.0
  0
LINE
  8
0
  6
CONTINUOUS
 62
     1
 10
739.066920739
 20
520.0
 30
0.0
 11
736.066666667
 21
523.000254073
 31
0.0
  0
LINE
  8
0
  6
CONTINUOUS
 62
     1
 10
736.066666667
 20
530.75
 30
0.0
 11
739.066666667
 21
530.75
 31
0.0
  0
LINE
  8
0
  6
CONTINUOUS
 62
     1
 10
739.066666667
 20
509.25
 30
0.0
 11
750.366666667
 21
509.25
 31
0.0
  0
LINE
  8
0
  6
CONTINUOUS
 62
     1
 10
750.366666667
 20
520.0
 30
0.0
 11
750.366666667
 21
509.25
 31
0.0
  0
LINE
  8
0
  6
CONTINUOUS
 62
     1
 10
750.366666667
 20
509.25
 30
0.0
 11
751.066666667
 21
510.462435565
 31
0.0
  0
LINE
  8
0
  6
CONTINUOUS
 62
     1
 10
751.066666667
 20
520.0
 30
0.0
 11
751.066666667
 21
510.462435565
 31
0.0
  0
LINE
  8
0
  6
CONTINUOUS
 62
     1
 10
739.066666667
 20
530.75
 30
0.0
 11
750.366666667
 21
530.75
 31
0.0
  0
LINE
  8
0
  6
CONTINUOUS
 62
     1
 10
750.366666667
 20
520.0
 30
0.0
 11
750.366666667
 21
530.75
 31
0.0
  0
LINE
  8
0
  6
CONTINUOUS
 62
     1
 10
750.366666667
 20
530.75
 30
0.0
 11
751.066666667
 21
529.537564435
 31
0.0
  0
LINE
  8
0
  6
CONTINUOUS
 62
     1
 10
751.066666667
 20
520.0
 30
0.0
 11
751.066666667
 21
529.537564435
 31
0.0
  0
LINE
  8
0
  6
CONTINUOUS
 62
     1
 10
721.066666667
 20
508.0
 30
0.0
 11
736.066666667
 21
508.0
 31
0.0
  0
POINT
  8
0
  6
CONTINUOUS
 62
     1
 10
721.066666667
 20
508.0
 30
0.0
  0
LINE
  8
0
  6
CONTINUOUS
 62
     1
 10
721.066666667
 20
508.0
 30
0.0
 11
721.066666667
 21
622.0
 31
0.0
  0
LINE
  8
0
  6
CONTINUOUS
 62
     1
 10
903.066666667
 20
561.0
 30
0.0
 11
912.066666667
 21
561.0
 31
0.0
  0
LINE
  8
0
  6
CONTINUOUS
 62
     1
 10
903.066666667
 20
518.0
 30
0.0
 11
912.066666667
 21
518.0
 31
0.0
  0
LINE
  8
0
  6
CONTINUOUS
 62
     1
 10
903.066666667
 20
514.0
 30
0.0
 11
912.066666667
 21
514.0
 31
0.0
  0
LINE
  8
0
  6
CONTINUOUS
 62
     1
 10
903.066666667
 20
569.0
 30
0.0
 11
912.066666667
 21
569.0
 31
0.0
  0
LINE
  8
0
  6
CONTINUOUS
 62
     1
 10
903.066666667
 20
612.0
 30
0.0
 11
912.066666667
 21
612.0
 31
0.0
  0
LINE
  8
0
  6
CONTINUOUS
 62
     1
 10
903.066666667
 20
616.0
 30
0.0
 11
912.066666667
 21
616.0
 31
0.0
  0
LINE
  8
0
  6
CONTINUOUS
 62
     1
 10
912.066666667
 20
514.0
 30
0.0
 11
912.066666667
 21
616.0
 31
0.0
  0
LINE
  8
0
  6
LTYPE3
 62
     2
 10
671.541666667
 20
795.0
 30
0.0
 11
721.066666667
 21
795.0
 31
0.0
  0
LINE
  8
0
  6
LTYPE3
 62
     2
 10
697.066666667
 20
764.4
 30
0.0
 11
697.066666667
 21
818.4
 31
0.0
  0
LINE
  8
0
  6
LTYPE3
 62
     2
 10
700.066666667
 20
610.0
 30
0.0
 11
753.066666667
 21
610.0
 31
0.0
  0
LINE
  8
0
  6
LTYPE3
 62
     2
 10
781.066666667
 20
533.5
 30
0.0
 11
781.066666667
 21
596.5
 31
0.0
  0
LINE
  8
0
  6
LTYPE3
 62
     2
 10
700.066666667
 20
520.0
 30
0.0
 11
753.066666667
 21
520.0
 31
0.0
  0
LINE
  8
0
  6
CONTINUOUS
 62
     2
 10
721.066666667
 20
861.3
 30
0.0
 11
733.140739495
 21
858.064761936
 31
0.0
  0
LINE
  8
0
  6
CONTINUOUS
 62
     2
 10
721.066666667
 20
861.3
 30
0.0
 11
733.140739495
 21
864.535238064
 31
0.0
  0
LINE
  8
0
  6
CONTINUOUS
 62
     2
 10
781.066666667
 20
370.8
 30
0.0
 11
793.140739495
 21
367.564761936
 31
0.0
  0
LINE
  8
0
  6
CONTINUOUS
 62
     2
 10
781.066666667
 20
370.8
 30
0.0
 11
793.140739495
 21
374.035238064
 31
0.0
  0
LINE
  8
0
  6
CONTINUOUS
 62
     2
 10
781.066666667
 20
533.5
 30
0.0
 11
781.066666667
 21
326.2
 31
0.0
  0
LINE
  8
0
  6
CONTINUOUS
 62
     2
 10
781.066666667
 20
335.7
 30
0.0
 11
793.140739495
 21
332.464761936
 31
0.0
  0
LINE
  8
0
  6
CONTINUOUS
 62
     2
 10
781.066666667
 20
335.7
 30
0.0
 11
793.140739495
 21
338.935238064
 31
0.0
  0
LINE
  8
0
  6
CONTINUOUS
 62
     1
 10
650.066666667
 20
670.0
 30
0.0
 11
706.066666667
 21
670.0
 31
0.0
  0
LINE
  8
0
  6
CONTINUOUS
 62
     1
 10
575.066666667
 20
473.0
 30
0.0
 11
575.066666667
 21
725.0
 31
0.0
  0
LINE
  8
0
  6
CONTINUOUS
 62
     1
 10
563.066666667
 20
725.0
 30
0.0
 11
650.066666667
 21
725.0
 31
0.0
  0
LINE
  8
0
  6
CONTINUOUS
 62
     1
 10
563.066666667
 20
701.0
 30
0.0
 11
563.066666667
 21
725.0
 31
0.0
  0
LINE
  8
0
  6
LTYPE2
 62
     2
 10
546.966666667
 20
713.0
 30
0.0
 11
599.966666667
 21
713.0
 31
0.0
  0
LINE
  8
0
  6
CONTINUOUS
 62
     1
 10
560.566666667
 20
713.0
 30
0.0
 11
560.566666667
 21
703.2
 31
0.0
  0
LINE
  8
0
  6
CONTINUOUS
 62
     1
 10
560.566666667
 20
703.2
 30
0.0
 11
554.952307313
 21
703.2
 31
0.0
  0
LINE
  8
0
  6
CONTINUOUS
 62
     1
 10
553.566666667
 20
705.6
 30
0.0
 11
554.952307313
 21
703.2
 31
0.0
  0
LINE
  8
0
  6
CONTINUOUS
 62
     1
 10
553.566666667
 20
713.0
 30
0.0
 11
553.566666667
 21
705.6
 31
0.0
  0
LINE
  8
0
  6
CONTINUOUS
 62
     1
 10
560.566666667
 20
708.1
 30
0.0
 11
554.952307313
 21
708.1
 31
0.0
  0
LINE
  8
0
  6
CONTINUOUS
 62
     1
 10
560.566666667
 20
713.0
 30
0.0
 11
560.566666667
 21
722.8
 31
0.0
  0
LINE
  8
0
  6
CONTINUOUS
 62
     1
 10
560.566666667
 20
722.8
 30
0.0
 11
554.952307313
 21
722.8
 31
0.0
  0
LINE
  8
0
  6
CONTINUOUS
 62
     1
 10
553.566666667
 20
720.4
 30
0.0
 11
554.952307313
 21
722.8
 31
0.0
  0
LINE
  8
0
  6
CONTINUOUS
 62
     1
 10
553.566666667
 20
713.0
 30
0.0
 11
553.566666667
 21
720.4
 31
0.0
  0
LINE
  8
0
  6
CONTINUOUS
 62
     1
 10
560.566666667
 20
717.9
 30
0.0
 11
554.952307313
 21
717.9
 31
0.0
  0
ARC
  8
0
  6
CONTINUOUS
 62
     1
 10
562.923349467
 20
713.0
 30
0.0
 40
9.3566828
 50
148.419912243
 51
211.580087757
  0
ARC
  8
0
  6
CONTINUOUS
 62
     1
 10
556.424550499
 20
705.65
 30
0.0
 40
2.858321186
 50
121.002313915
 51
182.989498403
  0
LINE
  8
0
  6
CONTINUOUS
 62
     1
 10
553.566666667
 20
720.4
 30
0.0
 11
554.952307313
 21
722.8
 31
0.0
  0
ARC
  8
0
  6
CONTINUOUS
 62
     1
 10
556.424550499
 20
720.35
 30
0.0
 40
2.858321186
 50
177.010501597
 51
238.997686085
  0
LINE
  8
0
  6
CONTINUOUS
 62
     1
 10
563.066666667
 20
703.8
 30
0.0
 11
560.566666667
 21
703.8
 31
0.0
  0
LINE
  8
0
  6
CONTINUOUS
 62
     1
 10
563.066666667
 20
713.0
 30
0.0
 11
560.566666671
 21
710.500000004
 31
0.0
  0
LINE
  8
0
  6
CONTINUOUS
 62
     1
 10
560.566666671
 20
713.0
 30
0.0
 11
563.066666667
 21
715.499999996
 31
0.0
  0
LINE
  8
0
  6
CONTINUOUS
 62
     1
 10
563.066666667
 20
722.2
 30
0.0
 11
560.566666667
 21
722.2
 31
0.0
  0
LINE
  8
0
  6
LTYPE2
 62
     2
 10
546.966666667
 20
485.0
 30
0.0
 11
599.966666667
 21
485.0
 31
0.0
  0
LINE
  8
0
  6
CONTINUOUS
 62
     1
 10
560.566666667
 20
485.0
 30
0.0
 11
560.566666667
 21
494.8
 31
0.0
  0
LINE
  8
0
  6
CONTINUOUS
 62
     1
 10
560.566666667
 20
494.8
 30
0.0
 11
554.952307313
 21
494.8
 31
0.0
  0
LINE
  8
0
  6
CONTINUOUS
 62
     1
 10
553.566666667
 20
492.4
 30
0.0
 11
554.952307313
 21
494.8
 31
0.0
  0
LINE
  8
0
  6
CONTINUOUS
 62
     1
 10
553.566666667
 20
485.0
 30
0.0
 11
553.566666667
 21
492.4
 31
0.0
  0
LINE
  8
0
  6
CONTINUOUS
 62
     1
 10
560.566666667
 20
489.9
 30
0.0
 11
554.952307313
 21
489.9
 31
0.0
  0
LINE
  8
0
  6
CONTINUOUS
 62
     1
 10
560.566666667
 20
485.0
 30
0.0
 11
560.566666667
 21
475.2
 31
0.0
  0
LINE
  8
0
  6
CONTINUOUS
 62
     1
 10
560.566666667
 20
475.2
 30
0.0
 11
554.952307313
 21
475.2
 31
0.0
  0
LINE
  8
0
  6
CONTINUOUS
 62
     1
 10
553.566666667
 20
477.6
 30
0.0
 11
554.952307313
 21
475.2
 31
0.0
  0
LINE
  8
0
  6
CONTINUOUS
 62
     1
 10
553.566666667
 20
485.0
 30
0.0
 11
553.566666667
 21
477.6
 31
0.0
  0
LINE
  8
0
  6
CONTINUOUS
 62
     1
 10
560.566666667
 20
480.1
 30
0.0
 11
554.952307313
 21
480.1
 31
0.0
  0
ARC
  8
0
  6
CONTINUOUS
 62
     1
 10
562.923349467
 20
485.0
 30
0.0
 40
9.3566828
 50
148.419912243
 51
211.580087757
  0
ARC
  8
0
  6
CONTINUOUS
 62
     1
 10
556.424550499
 20
492.35
 30
0.0
 40
2.858321186
 50
177.010501597
 51
238.997686085
  0
LINE
  8
0
  6
CONTINUOUS
 62
     1
 10
553.566666667
 20
477.6
 30
0.0
 11
554.952307313
 21
475.2
 31
0.0
  0
ARC
  8
0
  6
CONTINUOUS
 62
     1
 10
556.424550499
 20
477.65
 30
0.0
 40
2.858321186
 50
121.002313915
 51
182.989498403
  0
LINE
  8
0
  6
CONTINUOUS
 62
     1
 10
563.066666667
 20
494.2
 30
0.0
 11
560.566666667
 21
494.2
 31
0.0
  0
LINE
  8
0
  6
CONTINUOUS
 62
     1
 10
563.066666667
 20
485.0
 30
0.0
 11
560.566666671
 21
487.499999996
 31
0.0
  0
LINE
  8
0
  6
CONTINUOUS
 62
     1
 10
560.566666671
 20
485.0
 30
0.0
 11
563.066666667
 21
482.500000004
 31
0.0
  0
LINE
  8
0
  6
CONTINUOUS
 62
     1
 10
563.066666667
 20
475.8
 30
0.0
 11
560.566666667
 21
475.8
 31
0.0
  0
LINE
  8
0
  6
CONTINUOUS
 62
     1
 10
563.066666667
 20
497.0
 30
0.0
 11
563.066666667
 21
473.0
 31
0.0
  0
LINE
  8
0
  6
CONTINUOUS
 62
     1
 10
563.066666667
 20
473.0
 30
0.0
 11
650.066666667
 21
473.0
 31
0.0
  0
LINE
  8
0
  6
CONTINUOUS
 62
     2
 10
1171.666666667
 20
690.5
 30
0.0
 11
1109.416666667
 21
690.5
 31
0.0
  0
LINE
  8
0
  6
CONTINUOUS
 62
     2
 10
781.066666667
 20
370.8
 30
0.0
 11
1206.666666667
 21
370.8
 31
0.0
  0
LINE
  8
0
  6
CONTINUOUS
 62
     2
 10
781.066666667
 20
335.7
 30
0.0
 11
1206.666666667
 21
335.7
 31
0.0
  0
LINE
  8
0
  6
CONTINUOUS
 62
     2
 10
781.066666667
 20
335.7
 30
0.0
 11
768.992593838
 21
338.935238064
 31
0.0
  0
LINE
  8
0
  6
CONTINUOUS
 62
     2
 10
781.066666667
 20
335.7
 30
0.0
 11
768.992593838
 21
332.464761936
 31
0.0
  0
LINE
  8
0
  6
CONTINUOUS
 62
     2
 10
781.066666667
 20
335.7
 30
0.0
 11
650.066666667
 21
335.7
 31
0.0
  0
LINE
  8
0
  6
CONTINUOUS
 62
     2
 10
650.066666667
 20
335.7
 30
0.0
 11
662.140739495
 21
332.464761936
 31
0.0
  0
LINE
  8
0
  6
CONTINUOUS
 62
     2
 10
650.066666667
 20
335.7
 30
0.0
 11
662.140739495
 21
338.935238064
 31
0.0
  0
LINE
  8
0
  6
CONTINUOUS
 62
     2
 10
650.066666667
 20
465.5
 30
0.0
 11
650.066666667
 21
328.2
 31
0.0
  0
LINE
  8
0
  6
CONTINUOUS
 62
     2
 10
650.066666667
 20
335.7
 30
0.0
 11
637.992593838
 21
338.935238064
 31
0.0
  0
LINE
  8
0
  6
CONTINUOUS
 62
     2
 10
650.066666667
 20
335.7
 30
0.0
 11
637.992593838
 21
332.464761936
 31
0.0
  0
LINE
  8
0
  6
CONTINUOUS
 62
     2
 10
463.066666667
 20
301.5375
 30
0.0
 11
475.140739495
 21
298.302261936
 31
0.0
  0
LINE
  8
0
  6
CONTINUOUS
 62
     2
 10
463.066666667
 20
302.0375
 30
0.0
 11
1206.666666667
 21
302.0375
 31
0.0
  0
LINE
  8
0
  6
CONTINUOUS
 62
     2
 10
721.066666667
 20
861.3
 30
0.0
 11
708.992593838
 21
864.535238064
 31
0.0
  0
LINE
  8
0
  6
CONTINUOUS
 62
     2
 10
721.066666667
 20
861.3
 30
0.0
 11
708.992593838
 21
858.064761936
 31
0.0
  0
LINE
  8
0
  6
CONTINUOUS
 62
     1
 10
503.066666667
 20
701.0
 30
0.0
 11
563.066666667
 21
701.0
 31
0.0
  0
LINE
  8
0
  6
CONTINUOUS
 62
     1
 10
563.066666667
 20
725.0
 30
0.0
 11
507.569148072
 21
719.45024814
 31
0.0
  0
ARC
  8
0
  6
CONTINUOUS
 62
     1
 10
508.066666667
 20
714.475062189
 30
0.0
 40
5.0
 50
95.710593137
 51
180.0
  0
LINE
  8
0
  6
CONTINUOUS
 62
     1
 10
503.066666667
 20
678.524937811
 30
0.0
 11
503.066666667
 21
714.475062189
 31
0.0
  0
ARC
  8
0
  6
CONTINUOUS
 62
     1
 10
498.066666667
 20
678.524937811
 30
0.0
 40
5.0
 50
275.710593138
 51
0.0
  0
LINE
  8
0
  6
CONTINUOUS
 62
     1
 10
499.066666667
 20
685.0
 30
0.0
 11
499.066666667
 21
715.0
 31
0.0
  0
LINE
  8
0
  6
CONTINUOUS
 62
     1
 10
901.066666667
 20
507.0
 30
0.0
 11
827.066666667
 21
507.0
 31
0.0
  0
LINE
  8
0
  6
CONTINUOUS
 62
     1
 10
819.066666667
 20
505.5
 30
0.0
 11
819.066666667
 21
504.5
 31
0.0
  0
ARC
  8
0
  6
CONTINUOUS
 62
     1
 10
906.066666667
 20
502.5
 30
0.0
 40
3.0
 50
0.0
 51
90.0
  0
LINE
  8
0
  6
CONTINUOUS
 62
     1
 10
780.066666667
 20
462.5
 30
0.0
 11
909.066666667
 21
462.5
 31
0.0
  0
LINE
  8
0
  6
CONTINUOUS
 62
     1
 10
819.066666667
 20
504.5
 30
0.0
 11
783.066666667
 21
504.5
 31
0.0
  0
ARC
  8
0
  6
CONTINUOUS
 62
     1
 10
783.066666667
 20
501.5
 30
0.0
 40
3.0
 50
90.0
 51
180.0
  0
LINE
  8
0
  6
CONTINUOUS
 62
     1
 10
780.066666667
 20
461.0
 30
0.0
 11
909.066666667
 21
461.0
 31
0.0
  0
LINE
  8
0
  6
CONTINUOUS
 62
     1
 10
780.066666667
 20
456.0
 30
0.0
 11
780.066666667
 21
501.5
 31
0.0
  0
ARC
  8
0
  6
CONTINUOUS
 62
     1
 10
781.066666667
 20
456.0
 30
0.0
 40
1.0
 50
180.0
 51
270.0
  0
LINE
  8
0
  6
CONTINUOUS
 62
     1
 10
783.066666667
 20
455.0
 30
0.0
 11
783.066666667
 21
455.0
 31
0.0
  0
ARC
  8
0
  6
CONTINUOUS
 62
     1
 10
784.066666667
 20
455.0
 30
0.0
 40
1.0
 50
180.0
 51
270.0
  0
LINE
  8
0
  6
CONTINUOUS
 62
     1
 10
909.066666667
 20
456.0
 30
0.0
 11
909.066666667
 21
502.5
 31
0.0
  0
LINE
  8
0
  6
CONTINUOUS
 62
     1
 10
781.066666667
 20
455.0
 30
0.0
 11
908.066666667
 21
455.0
 31
0.0
  0
ARC
  8
0
  6
CONTINUOUS
 62
     1
 10
908.066666667
 20
456.0
 30
0.0
 40
1.0
 50
270.0
 51
0.0
  0
ARC
  8
0
  6
CONTINUOUS
 62
     1
 10
905.066666667
 20
455.0
 30
0.0
 40
1.0
 50
270.0
 51
0.0
  0
LINE
  8
0
  6
CONTINUOUS
 62
     1
 10
784.066666667
 20
454.0
 30
0.0
 11
904.966666667
 21
454.0
 31
0.0
  0
LINE
  8
0
  6
CONTINUOUS
 62
     1
 10
906.066666667
 20
505.5
 30
0.0
 11
819.066666667
 21
505.5
 31
0.0
  0
LINE
  8
0
  6
CONTINUOUS
 62
     1
 10
906.066666667
 20
507.0
 30
0.0
 11
819.066666667
 21
507.0
 31
0.0
  0
LINE
  8
0
  6
LTYPE1
 62
     2
 10
780.066666667
 20
488.8
 30
0.0
 11
790.066666667
 21
488.8
 31
0.0
  0
LINE
  8
0
  6
LTYPE1
 62
     2
 10
780.066666667
 20
490.0
 30
0.0
 11
790.066666667
 21
490.0
 31
0.0
  0
LINE
  8
0
  6
LTYPE1
 62
     2
 10
780.066666667
 20
470.2
 30
0.0
 11
790.066666667
 21
470.2
 31
0.0
  0
LINE
  8
0
  6
LTYPE1
 62
     2
 10
780.066666667
 20
469.0
 30
0.0
 11
790.066666667
 21
469.0
 31
0.0
  0
LINE
  8
0
  6
LTYPE2
 62
     2
 10
865.066666667
 20
493.8
 30
0.0
 11
865.066666667
 21
508.65
 31
0.0
  0
LINE
  8
0
  6
LTYPE2
 62
     2
 10
773.866666667
 20
479.5
 30
0.0
 11
793.566666667
 21
479.5
 31
0.0
  0
LINE
  8
0
  6
CONTINUOUS
 62
     1
 10
779.866666667
 20
505.5
 30
0.0
 11
779.866666667
 21
462.5
 31
0.0
  0
LINE
  8
0
  6
LTYPE3
 62
     2
 10
797.366666667
 20
479.5
 30
0.0
 11
772.866666667
 21
479.5
 31
0.0
  0
LINE
  8
0
  6
CONTINUOUS
 62
     1
 10
775.066666667
 20
465.65
 30
0.0
 11
775.066666667
 21
493.35
 31
0.0
  0
LINE
  8
0
  6
CONTINUOUS
 62
     1
 10
779.866666667
 20
472.6
 30
0.0
 11
775.066666667
 21
472.6
 31
0.0
  0
LINE
  8
0
  6
CONTINUOUS
 62
     1
 10
779.866666667
 20
486.4
 30
0.0
 11
775.066666667
 21
486.4
 31
0.0
  0
LINE
  8
0
  6
CONTINUOUS
 62
     1
 10
779.866666667
 20
493.35
 30
0.0
 11
775.066666667
 21
493.35
 31
0.0
  0
LINE
  8
0
  6
CONTINUOUS
 62
     1
 10
779.866666667
 20
465.65
 30
0.0
 11
779.866666667
 21
493.35
 31
0.0
  0
LINE
  8
0
  6
CONTINUOUS
 62
     1
 10
779.866666667
 20
465.65
 30
0.0
 11
775.066666667
 21
465.65
 31
0.0
  0
LINE
  8
0
  6
CONTINUOUS
 62
     1
 10
769.866666667
 20
464.85
 30
0.0
 11
769.866666667
 21
494.15
 31
0.0
  0
LINE
  8
0
  6
CONTINUOUS
 62
     1
 10
769.866666667
 20
464.85
 30
0.0
 11
756.866666667
 21
464.85
 31
0.0
  0
ARC
  8
0
  6
CONTINUOUS
 62
     1
 10
756.866666667
 20
466.85
 30
0.0
 40
2.0
 50
180.0
 51
270.0
  0
LINE
  8
0
  6
CONTINUOUS
 62
     1
 10
769.866666667
 20
494.15
 30
0.0
 11
756.866666667
 21
494.15
 31
0.0
  0
LINE
  8
0
  6
CONTINUOUS
 62
     1
 10
754.866666667
 20
466.85
 30
0.0
 11
754.866666667
 21
492.15
 31
0.0
  0
ARC
  8
0
  6
CONTINUOUS
 62
     1
 10
756.866666667
 20
492.15
 30
0.0
 40
2.0
 50
90.0
 51
180.0
  0
LINE
  8
0
  6
CONTINUOUS
 62
     1
 10
758.866666667
 20
492.15
 30
0.0
 11
769.866666667
 21
492.15
 31
0.0
  0
LINE
  8
0
  6
CONTINUOUS
 62
     1
 10
758.866666667
 20
483.25
 30
0.0
 11
769.866666667
 21
483.25
 31
0.0
  0
LINE
  8
0
  6
CONTINUOUS
 62
     1
 10
758.866666667
 20
487.35
 30
0.0
 11
769.866666667
 21
487.35
 31
0.0
  0
LINE
  8
0
  6
CONTINUOUS
 62
     1
 10
758.866666667
 20
487.35
 30
0.0
 11
758.866666667
 21
492.15
 31
0.0
  0
LINE
  8
0
  6
CONTINUOUS
 62
     1
 10
758.866666667
 20
479.5
 30
0.0
 11
758.866666667
 21
483.25
 31
0.0
  0
LINE
  8
0
  6
CONTINUOUS
 62
     1
 10
758.866666667
 20
466.85
 30
0.0
 11
769.866666667
 21
466.85
 31
0.0
  0
LINE
  8
0
  6
CONTINUOUS
 62
     1
 10
758.866666667
 20
475.75
 30
0.0
 11
769.866666667
 21
475.75
 31
0.0
  0
LINE
  8
0
  6
CONTINUOUS
 62
     1
 10
758.866666667
 20
471.65
 30
0.0
 11
769.866666667
 21
471.65
 31
0.0
  0
LINE
  8
0
  6
CONTINUOUS
 62
     1
 10
758.866666667
 20
471.65
 30
0.0
 11
758.866666667
 21
466.85
 31
0.0
  0
LINE
  8
0
  6
CONTINUOUS
 62
     1
 10
758.866666667
 20
479.5
 30
0.0
 11
758.866666667
 21
475.75
 31
0.0
  0
LINE
  8
0
  6
CONTINUOUS
 62
     1
 10
775.166666667
 20
492.2
 30
0.0
 11
769.866666667
 21
492.2
 31
0.0
  0
LINE
  8
0
  6
CONTINUOUS
 62
     1
 10
775.166666667
 20
491.4
 30
0.0
 11
769.866666667
 21
491.4
 31
0.0
  0
LINE
  8
0
  6
CONTINUOUS
 62
     1
 10
775.166666667
 20
466.8
 30
0.0
 11
769.866666667
 21
466.8
 31
0.0
  0
LINE
  8
0
  6
CONTINUOUS
 62
     1
 10
775.166666667
 20
467.6
 30
0.0
 11
769.866666667
 21
467.6
 31
0.0
  0
LINE
  8
0
  6
LTYPE2
 62
     2
 10
590.366666667
 20
507.0
 30
0.0
 11
633.866666667
 21
507.0
 31
0.0
  0
LINE
  8
0
  6
LTYPE2
 62
     2
 10
612.866666667
 20
484.0
 30
0.0
 11
612.866666667
 21
528.5
 31
0.0
  0
ARC
  8
0
  6
CONTINUOUS
 62
     1
 10
612.866666667
 20
507.0
 30
0.0
 40
14.65
 50
17.012546809
 51
338.902050411
  0
ARC
  8
0
  6
CONTINUOUS
 62
     1
 10
612.866666667
 20
507.0
 30
0.0
 40
5.0
 50
87.397437796
 51
272.862405227
  0
CIRCLE
  8
0
  6
CONTINUOUS
 62
     2
 10
612.566666667
 20
580.0
 30
0.0
 40
17.0
  0
CIRCLE
  8
0
  6
CONTINUOUS
 62
     1
 10
612.566666667
 20
580.0
 30
0.0
 40
14.5
  0
LINE
  8
0
  6
LTYPE2
 62
     2
 10
612.566666667
 20
555.0
 30
0.0
 11
612.566666667
 21
610.0
 31
0.0
  0
LINE
  8
0
  6
LTYPE2
 62
     2
 10
582.566666667
 20
580.0
 30
0.0
 11
642.766666667
 21
580.0
 31
0.0
  0
LINE
  8
0
  6
CONTINUOUS
 62
     2
 10
622.766666667
 20
574.0
 30
0.0
 11
624.503892739
 21
561.621306791
 31
0.0
  0
LINE
  8
0
  6
CONTINUOUS
 62
     2
 10
622.766666667
 20
574.0
 30
0.0
 11
630.460495182
 21
564.148350251
 31
0.0
  0
LINE
  8
0
  6
CONTINUOUS
 62
     2
 10
622.766666667
 20
574.0
 30
0.0
 11
692.766666667
 21
409.0
 31
0.0
  0
LINE
  8
0
  6
CONTINUOUS
 62
     2
 10
692.766666667
 20
409.0
 30
0.0
 11
766.266666667
 21
409.0
 31
0.0
  0
LINE
  8
0
  6
CONTINUOUS
 62
     1
 10
636.012636924
 20
500.36336397
 30
0.0
 11
654.606687724
 21
479.90990809
 31
0.0
  0
ARC
  8
0
  6
CONTINUOUS
 62
     1
 10
632.312936557
 20
497.0
 30
0.0
 40
15.0
 50
42.273689006
 51
90.0
  0
ARC
  8
0
  6
CONTINUOUS
 62
     1
 10
665.705788825
 20
490.0
 30
0.0
 40
15.0
 50
222.273689006
 51
270.0
  0
LINE
  8
0
  6
CONTINUOUS
 62
     1
 10
643.412037658
 20
507.09009191
 30
0.0
 11
662.915179367
 21
485.63663603
 31
0.0
  0
ARC
  8
0
  6
CONTINUOUS
 62
     1
 10
666.614879734
 20
489.0
 30
0.0
 40
5.0
 50
222.273689006
 51
270.0
  0
ARC
  8
0
  6
CONTINUOUS
 62
     1
 10
632.312936557
 20
497.0
 30
0.0
 40
5.0
 50
42.273689006
 51
90.0
  0
LINE
  8
0
  6
CONTINUOUS
 62
     1
 10
612.866666667
 20
502.0
 30
0.0
 11
632.312936557
 21
502.0
 31
0.0
  0
LINE
  8
0
  6
CONTINUOUS
 62
     1
 10
612.866666667
 20
512.0
 30
0.0
 11
632.312936557
 21
512.0
 31
0.0
  0
LINE
  8
0
  6
CONTINUOUS
 62
     1
 10
754.866666667
 20
484.0
 30
0.0
 11
666.612936557
 21
484.0
 31
0.0
  0
LINE
  8
0
  6
CONTINUOUS
 62
     1
 10
754.866666667
 20
475.0
 30
0.0
 11
665.012936557
 21
475.0
 31
0.0
  0
LINE
  8
0
  6
CONTINUOUS
 62
     1
 10
650.066666667
 20
473.0
 30
0.0
 11
650.066666667
 21
485.5
 31
0.0
  0
LINE
  8
0
  6
CONTINUOUS
 62
     1
 10
650.066666667
 20
499.77
 30
0.0
 11
650.066666667
 21
743.0
 31
0.0
  0
LINE
  8
0
  6
CONTINUOUS
 62
     1
 10
661.112936557
 20
488.0
 30
0.0
 11
721.066666667
 21
488.0
 31
0.0
  0
LINE
  8
0
  6
CONTINUOUS
 62
     1
 10
721.066666667
 20
488.0
 30
0.0
 11
721.066666667
 21
775.0
 31
0.0
  0
LINE
  8
0
  6
LTYPE5
 62
     2
 10
1102.766666667
 20
768.0
 30
0.0
 11
1231.666666667
 21
768.0
 31
0.0
  0
LINE
  8
7
  6
CONTINUOUS
 62
     2
 10
1079.896671394
 20
823.0
 30
0.0
 11
1066.266666667
 21
823.0
 31
0.0
  0
LINE
  8
7
  6
CONTINUOUS
 62
     2
 10
1073.766666667
 20
823.0
 30
0.0
 11
1070.531428603
 21
810.925927171
 31
0.0
  0
LINE
  8
7
  6
CONTINUOUS
 62
     2
 10
1073.766666667
 20
823.0
 30
0.0
 11
1077.00190473
 21
810.925927171
 31
0.0
  0
LINE
  8
7
  6
CONTINUOUS
 62
     2
 10
1073.766666667
 20
823.0
 30
0.0
 11
1073.766666667
 21
713.0
 31
0.0
  0
LINE
  8
7
  6
CONTINUOUS
 62
     2
 10
1073.766666667
 20
713.0
 30
0.0
 11
1077.00190473
 21
725.074072829
 31
0.0
  0
LINE
  8
7
  6
CONTINUOUS
 62
     2
 10
1073.766666667
 20
713.0
 30
0.0
 11
1070.531428603
 21
725.074072829
 31
0.0
  0
LINE
  8
7
  6
CONTINUOUS
 62
     2
 10
1079.896671394
 20
713.0
 30
0.0
 11
1066.266666667
 21
713.0
 31
0.0
  0
LINE
  8
0
  6
LTYPE3
 62
     2
 10
949.766666667
 20
565.0
 30
0.0
 11
1242.766666667
 21
565.0
 31
0.0
  0
LINE
  8
0
  6
LTYPE3
 62
     2
 10
694.216666667
 20
565.0
 30
0.0
 11
921.766666667
 21
565.0
 31
0.0
  0
LINE
  8
0
  6
CONTINUOUS
 62
     1
 10
912.066666667
 20
530.0
 30
0.0
 11
1071.042512848
 21
530.0
 31
0.0
  0
LINE
  8
0
  6
CONTINUOUS
 62
     1
 10
1022.542512848
 20
528.0
 30
0.0
 11
1032.542512848
 21
528.0
 31
0.0
  0
LINE
  8
0
  6
CONTINUOUS
 62
     1
 10
1022.542512848
 20
530.0
 30
0.0
 11
1022.542512848
 21
528.0
 31
0.0
  0
LINE
  8
0
  6
CONTINUOUS
 62
     1
 10
1032.542512848
 20
530.0
 30
0.0
 11
1032.542512848
 21
528.0
 31
0.0
  0
LINE
  8
0
  6
CONTINUOUS
 62
     1
 10
1020.042512848
 20
530.0
 30
0.0
 11
1035.042512848
 21
530.0
 31
0.0
  0
LINE
  8
0
  6
CONTINUOUS
 62
     1
 10
1032.542512848
 20
530.0
 30
0.0
 11
1038.822959517
 21
510.741180955
 31
0.0
  0
LINE
  8
0
  6
CONTINUOUS
 62
     1
 10
1041.042512848
 20
530.0
 30
0.0
 11
1041.042512848
 21
564.15
 31
0.0
  0
LINE
  8
0
  6
CONTINUOUS
 62
     1
 10
1071.042512848
 20
530.0
 30
0.0
 11
1071.042512848
 21
564.15
 31
0.0
  0
LINE
  8
0
  6
CONTINUOUS
 62
     1
 10
912.066666667
 20
600.0
 30
0.0
 11
1020.042512848
 21
600.0
 31
0.0
  0
LINE
  8
0
  6
CONTINUOUS
 62
     1
 10
1022.542512848
 20
602.0
 30
0.0
 11
1032.542512848
 21
602.0
 31
0.0
  0
LINE
  8
0
  6
CONTINUOUS
 62
     1
 10
1022.542512848
 20
600.0
 30
0.0
 11
1022.542512848
 21
602.0
 31
0.0
  0
LINE
  8
0
  6
CONTINUOUS
 62
     1
 10
1032.542512848
 20
600.0
 30
0.0
 11
1032.542512848
 21
602.0
 31
0.0
  0
LINE
  8
0
  6
CONTINUOUS
 62
     1
 10
1020.042512848
 20
600.0
 30
0.0
 11
1035.042512848
 21
600.0
 31
0.0
  0
LINE
  8
0
  6
CONTINUOUS
 62
     1
 10
1032.542512848
 20
600.0
 30
0.0
 11
1038.822959517
 21
619.258819045
 31
0.0
  0
LINE
  8
0
  6
CONTINUOUS
 62
     1
 10
1032.542512848
 20
565.0
 30
0.0
 11
1032.542512848
 21
600.0
 31
0.0
  0
LINE
  8
0
  6
CONTINUOUS
 62
     1
 10
1020.042512848
 20
565.0
 30
0.0
 11
1020.042512848
 21
600.0
 31
0.0
  0
LINE
  8
0
  6
CONTINUOUS
 62
     2
 10
947.166666667
 20
600.0
 30
0.0
 11
943.931428603
 21
587.925927171
 31
0.0
  0
LINE
  8
0
  6
CONTINUOUS
 62
     2
 10
947.166666667
 20
600.0
 30
0.0
 11
950.40190473
 21
587.925927171
 31
0.0
  0
LINE
  8
0
  6
CONTINUOUS
 62
     2
 10
947.166666667
 20
530.0
 30
0.0
 11
950.40190473
 21
542.074072829
 31
0.0
  0
LINE
  8
0
  6
CONTINUOUS
 62
     2
 10
947.166666667
 20
530.0
 30
0.0
 11
943.931428603
 21
542.074072829
 31
0.0
  0
LINE
  8
0
  6
CONTINUOUS
 62
     2
 10
947.166666667
 20
530.0
 30
0.0
 11
947.166666667
 21
600.0
 31
0.0
  0
LINE
  8
0
  6
CONTINUOUS
 62
     2
 10
992.366666667
 20
581.9
 30
0.0
 11
999.854707873
 21
591.908957933
 31
0.0
  0
LINE
  8
0
  6
CONTINUOUS
 62
     2
 10
992.366666667
 20
581.9
 30
0.0
 11
993.847021609
 21
594.312032438
 31
0.0
  0
TEXT
  8
0
  6
CONTINUOUS
 62
     2
 10
953.326666667
 20
614.15
 30
0.0
 40
17.5
  1
給脂口
 50
0.0
 41
0.9
 51
0.0
  7
KANJI34
  0
LINE
  8
0
  6
CONTINUOUS
 62
     2
 10
953.326666667
 20
609.15
 30
0.0
 11
1003.266666667
 21
609.15
 31
0.0
  0
LINE
  8
0
  6
CONTINUOUS
 62
     2
 10
992.366666667
 20
581.9
 30
0.0
 11
1003.266666667
 21
609.15
 31
0.0
  0
LINE
  8
0
  6
CONTINUOUS
 62
     2
 10
1032.306676122
 20
763.8
 30
0.0
 11
1029.071438058
 21
751.725927171
 31
0.0
  0
LINE
  8
0
  6
CONTINUOUS
 62
     2
 10
1032.306676122
 20
763.8
 30
0.0
 11
1035.541914185
 21
751.725927171
 31
0.0
  0
LINE
  8
0
  6
CONTINUOUS
 62
     2
 10
1032.306676122
 20
763.8
 30
0.0
 11
1032.306676122
 21
636.8
 31
0.0
  0
LINE
  8
0
  6
CONTINUOUS
 62
     2
 10
1032.306676122
 20
636.8
 30
0.0
 11
1035.541914185
 21
648.874072829
 31
0.0
  0
LINE
  8
0
  6
CONTINUOUS
 62
     2
 10
1032.306676122
 20
636.8
 30
0.0
 11
1029.071438058
 21
648.874072829
 31
0.0
  0
LINE
  8
0
  6
CONTINUOUS
 62
     2
 10
975.066666667
 20
636.8
 30
0.0
 11
1043.166666667
 21
636.8
 31
0.0
  0
ARC
  8
0
  6
CONTINUOUS
 62
     1
 10
733.066666667
 20
634.5
 30
0.0
 40
2.0
 50
90.0
 51
180.0
  0
ARC
  8
0
  6
CONTINUOUS
 62
     1
 10
733.066666667
 20
765.5
 30
0.0
 40
2.0
 50
180.0
 51
270.0
  0
LINE
  8
0
  6
CONTINUOUS
 62
     1
 10
768.066666667
 20
763.5
 30
0.0
 11
768.066666667
 21
636.5
 31
0.0
  0
LINE
  8
0
  6
CONTINUOUS
 62
     1
 10
957.877048481
 20
741.827582684
 30
0.0
 11
975.256284852
 21
740.172417316
 31
0.0
  0
ARC
  8
0
  6
CONTINUOUS
 62
     1
 10
958.066666667
 20
743.81857363
 30
0.0
 40
2.0
 50
180.0
 51
264.559667969
  0
LINE
  8
0
  6
CONTINUOUS
 62
     1
 10
957.877048481
 20
751.827582684
 30
0.0
 11
975.256284852
 21
750.172417316
 31
0.0
  0
ARC
  8
0
  6
CONTINUOUS
 62
     1
 10
958.066666667
 20
753.81857363
 30
0.0
 40
2.0
 50
180.0
 51
264.559667969
  0
LINE
  8
0
  6
CONTINUOUS
 62
     1
 10
957.877048481
 20
658.172417316
 30
0.0
 11
975.256284852
 21
659.827582684
 31
0.0
  0
ARC
  8
0
  6
CONTINUOUS
 62
     1
 10
958.066666667
 20
656.181426371
 30
0.0
 40
2.0
 50
95.440332031
 51
180.0
  0
ARC
  8
0
  6
CONTINUOUS
 62
     1
 10
979.066666667
 20
725.0
 30
0.0
 40
2.0
 50
180.0
 51
270.0
  0
LINE
  8
0
  6
CONTINUOUS
 62
     1
 10
988.066666667
 20
723.0
 30
0.0
 11
979.066666667
 21
723.0
 31
0.0
  0
ARC
  8
0
  6
CONTINUOUS
 62
     1
 10
988.066666667
 20
721.0
 30
0.0
 40
2.0
 50
0.0
 51
90.0
  0
LINE
  8
0
  6
CONTINUOUS
 62
     1
 10
990.066666667
 20
721.0
 30
0.0
 11
990.066666667
 21
679.0
 31
0.0
  0
ARC
  8
0
  6
CONTINUOUS
 62
     1
 10
988.066666667
 20
679.0
 30
0.0
 40
2.0
 50
270.0
 51
0.0
  0
ARC
  8
0
  6
CONTINUOUS
 62
     1
 10
979.066666667
 20
675.0
 30
0.0
 40
2.0
 50
90.0
 51
180.0
  0
LINE
  8
0
  6
CONTINUOUS
 62
     1
 10
988.066666667
 20
677.0
 30
0.0
 11
979.066666667
 21
677.0
 31
0.0
  0
LINE
  8
0
  6
CONTINUOUS
 62
     1
 10
993.066666667
 20
711.5
 30
0.0
 11
990.066666667
 21
711.5
 31
0.0
  0
LINE
  8
0
  6
CONTINUOUS
 62
     1
 10
993.066666667
 20
688.5
 30
0.0
 11
990.066666667
 21
688.5
 31
0.0
  0
LINE
  8
0
  6
CONTINUOUS
 62
     1
 10
993.066666667
 20
711.5
 30
0.0
 11
993.066666667
 21
688.5
 31
0.0
  0
ARC
  8
0
  6
CONTINUOUS
 62
     1
 10
954.066666667
 20
638.5
 30
0.0
 40
2.0
 50
270.0
 51
0.0
  0
ARC
  8
0
  6
CONTINUOUS
 62
     1
 10
954.066666667
 20
761.5
 30
0.0
 40
2.0
 50
0.0
 51
90.0
  0
LINE
  8
0
  6
CONTINUOUS
 62
     1
 10
948.066666667
 20
763.5
 30
0.0
 11
948.066666667
 21
636.5
 31
0.0
  0
LINE
  8
0
  6
CONTINUOUS
 62
     1
 10
954.066672061
 20
636.5
 30
0.0
 11
733.066666667
 21
636.5
 31
0.0
  0
LINE
  8
0
  6
CONTINUOUS
 62
     1
 10
954.066666667
 20
763.5
 30
0.0
 11
733.066666667
 21
763.5
 31
0.0
  0
LINE
  8
0
  6
CONTINUOUS
 62
     1
 10
866.116666667
 20
783.0
 30
0.0
 11
866.116666667
 21
817.0
 31
0.0
  0
LINE
  8
0
  6
CONTINUOUS
 62
     1
 10
866.116666667
 20
783.0
 30
0.0
 11
840.116666667
 21
783.0
 31
0.0
  0
LINE
  8
0
  6
CONTINUOUS
 62
     1
 10
866.116666667
 20
817.0
 30
0.0
 11
840.116666667
 21
817.0
 31
0.0
  0
LINE
  8
0
  6
LTYPE2
 62
     2
 10
873.046142512
 20
800.0
 30
0.0
 11
833.046142512
 21
800.0
 31
0.0
  0
LINE
  8
0
  6
CONTINUOUS
 62
     1
 10
770.116666667
 20
775.0
 30
0.0
 11
770.116666667
 21
778.0
 31
0.0
  0
ARC
  8
0
  6
CONTINUOUS
 62
     1
 10
774.116666667
 20
772.0
 30
0.0
 40
3.0
 50
0.0
 51
90.0
  0
LINE
  8
0
  6
CONTINUOUS
 62
     1
 10
830.116666667
 20
775.0
 30
0.0
 11
830.116666667
 21
778.0
 31
0.0
  0
ARC
  8
0
  6
CONTINUOUS
 62
     1
 10
826.116666667
 20
772.0
 30
0.0
 40
3.0
 50
90.0
 51
180.0
  0
LINE
  8
0
  6
CONTINUOUS
 62
     1
 10
830.116666667
 20
775.0
 30
0.0
 11
770.116666667
 21
775.0
 31
0.0
  0
LINE
  8
0
  6
CONTINUOUS
 62
     1
 10
755.028754579
 20
780.0
 30
0.0
 11
847.116666667
 21
824.020045888
 31
0.0
  0
LINE
  8
0
  6
CONTINUOUS
 62
     1
 10
753.116666667
 20
784.0
 30
0.0
 11
755.028754579
 21
780.0
 31
0.0
  0
LINE
  8
0
  6
CONTINUOUS
 62
     1
 10
753.116666667
 20
784.0
 30
0.0
 11
845.204578755
 21
828.020045888
 31
0.0
  0
LINE
  8
0
  6
CONTINUOUS
 62
     1
 10
845.204578755
 20
828.020045888
 30
0.0
 11
847.116666667
 21
824.020045888
 31
0.0
  0
LINE
  8
0
  6
CONTINUOUS
 62
     1
 10
760.116666667
 20
787.346153846
 30
0.0
 11
760.116666667
 21
827.0
 31
0.0
  0
ARC
  8
0
  6
CONTINUOUS
 62
     1
 10
763.116666667
 20
827.0
 30
0.0
 40
3.0
 50
90.0
 51
180.0
  0
LINE
  8
0
  6
CONTINUOUS
 62
     1
 10
760.116666667
 20
781.0
 30
0.0
 11
760.116666667
 21
782.4321338
 31
0.0
  0
ARC
  8
0
  6
CONTINUOUS
 62
     1
 10
763.116666667
 20
781.0
 30
0.0
 40
3.0
 50
180.0
 51
270.0
  0
LINE
  8
0
  6
CONTINUOUS
 62
     1
 10
840.116666667
 20
781.0
 30
0.0
 11
840.116666667
 21
820.673892042
 31
0.0
  0
LINE
  8
0
  6
CONTINUOUS
 62
     1
 10
837.116666667
 20
778.0
 30
0.0
 11
763.116666667
 21
778.0
 31
0.0
  0
ARC
  8
0
  6
CONTINUOUS
 62
     1
 10
837.116666667
 20
781.0
 30
0.0
 40
3.0
 50
270.0
 51
0.0
  0
LINE
  8
0
  6
CONTINUOUS
 62
     1
 10
840.116666667
 20
825.587912088
 30
0.0
 11
840.116666667
 21
827.0
 31
0.0
  0
LINE
  8
0
  6
CONTINUOUS
 62
     1
 10
837.116666667
 20
830.0
 30
0.0
 11
763.116666667
 21
830.0
 31
0.0
  0
ARC
  8
0
  6
CONTINUOUS
 62
     1
 10
837.116666667
 20
827.0
 30
0.0
 40
3.0
 50
0.0
 51
90.0
  0
ARC
  8
0
  6
CONTINUOUS
 62
     1
 10
780.116666667
 20
766.5
 30
0.0
 40
3.0
 50
180.0
 51
270.0
  0
ARC
  8
0
  6
CONTINUOUS
 62
     1
 10
820.116666667
 20
766.5
 30
0.0
 40
3.0
 50
270.0
 51
0.0
  0
LINE
  8
0
  6
CONTINUOUS
 62
     1
 10
823.116666667
 20
766.500005395
 30
0.0
 11
823.116666667
 21
772.0
 31
0.0
  0
LINE
  8
0
  6
CONTINUOUS
 62
     1
 10
777.116666667
 20
766.500005395
 30
0.0
 11
777.116666667
 21
772.0
 31
0.0
  0
ARC
  8
0
  6
CONTINUOUS
 62
     1
 10
975.066666667
 20
692.818573629
 30
0.0
 40
2.0
 50
275.440332031
 51
0.0
  0
LINE
  8
0
  6
CONTINUOUS
 62
     1
 10
975.256284852
 20
690.827582684
 30
0.0
 11
957.877048481
 21
689.172417316
 31
0.0
  0
ARC
  8
0
  6
CONTINUOUS
 62
     1
 10
958.066666667
 20
687.181426371
 30
0.0
 40
2.0
 50
95.440332031
 51
180.0
  0
ARC
  8
0
  6
CONTINUOUS
 62
     1
 10
975.066666667
 20
707.181426371
 30
0.0
 40
2.0
 50
0.0
 51
84.559667969
  0
LINE
  8
0
  6
CONTINUOUS
 62
     1
 10
975.256284852
 20
709.172417316
 30
0.0
 11
957.877048481
 21
710.827582684
 31
0.0
  0
ARC
  8
0
  6
CONTINUOUS
 62
     1
 10
958.066666667
 20
712.818573629
 30
0.0
 40
2.0
 50
180.0
 51
264.559667969
  0
LINE
  8
0
  6
CONTINUOUS
 62
     1
 10
956.066666667
 20
761.500001907
 30
0.0
 11
956.066666667
 21
638.500004672
 31
0.0
  0
ARC
  8
0
  6
CONTINUOUS
 62
     1
 10
729.066666667
 20
778.0
 30
0.0
 40
2.0
 50
0.0
 51
90.0
  0
LINE
  8
0
  6
CONTINUOUS
 62
     1
 10
729.066666667
 20
780.0
 30
0.0
 11
721.066666667
 21
780.0
 31
0.0
  0
ARC
  8
0
  6
CONTINUOUS
 62
     1
 10
729.066666667
 20
622.0
 30
0.0
 40
2.0
 50
270.0
 51
0.0
  0
LINE
  8
0
  6
CONTINUOUS
 62
     1
 10
731.066666667
 20
778.0
 30
0.0
 11
731.066666667
 21
622.0
 31
0.0
  0
LINE
  8
0
  6
CONTINUOUS
 62
     1
 10
736.566566667
 20
751.620720777
 30
0.0
 11
735.506967265
 21
753.456000777
 31
0.0
  0
LINE
  8
0
  6
CONTINUOUS
 62
     1
 10
736.566566667
 20
745.961940777
 30
0.0
 11
736.566566667
 21
751.620720777
 31
0.0
  0
LINE
  8
0
  6
CONTINUOUS
 62
     1
 10
736.566566667
 20
740.303160777
 30
0.0
 11
735.506967265
 21
738.467880777
 31
0.0
  0
LINE
  8
0
  6
CONTINUOUS
 62
     1
 10
736.566566667
 20
745.961940777
 30
0.0
 11
736.566566667
 21
740.303160777
 31
0.0
  0
ARC
  8
0
  6
CONTINUOUS
 62
     1
 10
729.411511329
 20
745.961940777
 30
0.0
 40
7.155055337
 50
328.419912243
 51
31.580087757
  0
ARC
  8
0
  6
CONTINUOUS
 62
     1
 10
734.3811429
 20
751.582485777
 30
0.0
 40
2.185758211
 50
301.002313915
 51
2.989498403
  0
LINE
  8
0
  6
CONTINUOUS
 62
     1
 10
736.566566667
 20
740.303160777
 30
0.0
 11
735.506967265
 21
738.467880777
 31
0.0
  0
ARC
  8
0
  6
CONTINUOUS
 62
     1
 10
734.3811429
 20
740.341395777
 30
0.0
 40
2.185758211
 50
357.010501597
 51
58.997686085
  0
LINE
  8
0
  6
CONTINUOUS
 62
     1
 10
731.066666667
 20
753.456000777
 30
0.0
 11
735.506967265
 21
753.456000777
 31
0.0
  0
LINE
  8
0
  6
CONTINUOUS
 62
     1
 10
731.066666667
 20
749.708970777
 30
0.0
 11
735.506967265
 21
749.708970777
 31
0.0
  0
LINE
  8
0
  6
CONTINUOUS
 62
     1
 10
731.066666667
 20
742.214910777
 30
0.0
 11
735.506967265
 21
742.214910777
 31
0.0
  0
LINE
  8
0
  6
CONTINUOUS
 62
     1
 10
731.066666667
 20
738.467880777
 30
0.0
 11
735.506967265
 21
738.467880777
 31
0.0
  0
LINE
  8
0
  6
LTYPE2
 62
     2
 10
726.066666667
 20
745.961940777
 30
0.0
 11
740.866666667
 21
745.961940777
 31
0.0
  0
LINE
  8
0
  6
LTYPE2
 62
     2
 10
800.066666667
 20
757.0
 30
0.0
 11
800.066666667
 21
832.0
 31
0.0
  0
LINE
  8
0
  6
CONTINUOUS
 62
     1
 10
721.066666667
 20
620.0
 30
0.0
 11
721.066666667
 21
780.0
 31
0.0
  0
LINE
  8
0
  6
CONTINUOUS
 62
     1
 10
729.066666667
 20
620.0
 30
0.0
 11
721.066666667
 21
620.0
 31
0.0
  0
LINE
  8
0
  6
LTYPE2
 62
     2
 10
969.566666667
 20
743.0
 30
0.0
 11
982.766666667
 21
743.0
 31
0.0
  0
LINE
  8
0
  6
CONTINUOUS
 62
     1
 10
957.877048481
 20
648.172417316
 30
0.0
 11
975.256284852
 21
649.827582684
 31
0.0
  0
LINE
  8
0
  6
LTYPE2
 62
     2
 10
969.566666667
 20
657.0
 30
0.0
 11
982.766666667
 21
657.0
 31
0.0
  0
ARC
  8
0
  6
CONTINUOUS
 62
     1
 10
958.066666667
 20
646.181426371
 30
0.0
 40
2.0
 50
95.440332031
 51
180.0
  0
LINE
  8
0
  6
CONTINUOUS
 62
     1
 10
977.066666667
 20
748.181426371
 30
0.0
 11
977.066666667
 21
652.38812
 31
0.0
  0
ARC
  8
0
  6
CONTINUOUS
 62
     1
 10
975.066666667
 20
738.181426371
 30
0.0
 40
2.0
 50
0.0
 51
84.559667969
  0
ARC
  8
0
  6
CONTINUOUS
 62
     1
 10
975.066666667
 20
748.181426371
 30
0.0
 40
2.0
 50
0.0
 51
84.559667969
  0
LINE
  8
0
  6
CONTINUOUS
 62
     1
 10
980.566866667
 20
746.48244
 30
0.0
 11
979.914784179
 21
747.61188
 31
0.0
  0
LINE
  8
0
  6
CONTINUOUS
 62
     1
 10
980.566866667
 20
739.51756
 30
0.0
 11
979.914784179
 21
738.38812
 31
0.0
  0
ARC
  8
0
  6
CONTINUOUS
 62
     1
 10
976.163611741
 20
743.0
 30
0.0
 40
4.403254926
 50
328.419912243
 51
31.580087757
  0
ARC
  8
0
  6
CONTINUOUS
 62
     1
 10
979.221946535
 20
746.45891
 30
0.0
 40
1.34512595
 50
301.002313915
 51
2.989498403
  0
LINE
  8
0
  6
CONTINUOUS
 62
     1
 10
980.566866667
 20
739.51756
 30
0.0
 11
979.914784179
 21
738.38812
 31
0.0
  0
ARC
  8
0
  6
CONTINUOUS
 62
     1
 10
979.221946535
 20
739.54109
 30
0.0
 40
1.34512595
 50
357.010501597
 51
58.997686085
  0
LINE
  8
0
  6
CONTINUOUS
 62
     1
 10
977.066666667
 20
747.61188
 30
0.0
 11
979.914784179
 21
747.61188
 31
0.0
  0
LINE
  8
0
  6
CONTINUOUS
 62
     1
 10
977.066666667
 20
745.30594
 30
0.0
 11
979.914784179
 21
745.30594
 31
0.0
  0
LINE
  8
0
  6
CONTINUOUS
 62
     1
 10
977.066666667
 20
740.69406
 30
0.0
 11
979.914784179
 21
740.69406
 31
0.0
  0
LINE
  8
0
  6
CONTINUOUS
 62
     1
 10
977.066666667
 20
738.38812
 30
0.0
 11
979.914784179
 21
738.38812
 31
0.0
  0
LINE
  8
0
  6
CONTINUOUS
 62
     1
 10
980.566866667
 20
746.48244
 30
0.0
 11
980.566866667
 21
739.51756
 31
0.0
  0
LINE
  8
0
  6
CONTINUOUS
 62
     1
 10
998.066666667
 20
704.352902
 30
0.0
 11
997.251591269
 21
705.764654
 31
0.0
  0
LINE
  8
0
  6
CONTINUOUS
 62
     1
 10
998.066666667
 20
695.647098
 30
0.0
 11
997.251591269
 21
694.235346
 31
0.0
  0
ARC
  8
0
  6
CONTINUOUS
 62
     1
 10
992.562785143
 20
700.0
 30
0.0
 40
5.503881523
 50
328.419912243
 51
31.580087757
  0
ARC
  8
0
  6
CONTINUOUS
 62
     1
 10
996.38557366
 20
704.3234905
 30
0.0
 40
1.681350271
 50
301.002313915
 51
2.989498403
  0
LINE
  8
0
  6
CONTINUOUS
 62
     1
 10
998.066666667
 20
695.647098
 30
0.0
 11
997.251591269
 21
694.235346
 31
0.0
  0
ARC
  8
0
  6
CONTINUOUS
 62
     1
 10
996.38557366
 20
695.6765095
 30
0.0
 40
1.681350271
 50
357.010501597
 51
58.997686085
  0
LINE
  8
0
  6
CONTINUOUS
 62
     1
 10
994.067056667
 20
702.882327
 30
0.0
 11
997.251591269
 21
702.882327
 31
0.0
  0
LINE
  8
0
  6
CONTINUOUS
 62
     1
 10
994.067056667
 20
705.764654
 30
0.0
 11
997.251591269
 21
705.764654
 31
0.0
  0
LINE
  8
0
  6
CONTINUOUS
 62
     1
 10
994.067056667
 20
697.117673
 30
0.0
 11
997.251591269
 21
697.117673
 31
0.0
  0
LINE
  8
0
  6
CONTINUOUS
 62
     1
 10
994.067056667
 20
694.235346
 30
0.0
 11
997.251591269
 21
694.235346
 31
0.0
  0
LINE
  8
0
  6
CONTINUOUS
 62
     1
 10
998.066666667
 20
695.647098
 30
0.0
 11
998.066666667
 21
704.352902
 31
0.0
  0
LINE
  8
0
  6
CONTINUOUS
 62
     1
 10
994.067056667
 20
706.5
 30
0.0
 11
993.066666667
 21
706.5
 31
0.0
  0
LINE
  8
0
  6
CONTINUOUS
 62
     1
 10
994.067056667
 20
706.5
 30
0.0
 11
994.067056667
 21
693.5
 31
0.0
  0
LINE
  8
0
  6
CONTINUOUS
 62
     1
 10
994.067056667
 20
693.5
 30
0.0
 11
993.066666667
 21
693.5
 31
0.0
  0
ARC
  8
0
  6
CONTINUOUS
 62
     1
 10
975.066666667
 20
661.818573629
 30
0.0
 40
2.0
 50
275.440332031
 51
0.0
  0
LINE
  8
0
  6
CONTINUOUS
 62
     1
 10
980.566866667
 20
653.51756
 30
0.0
 11
979.914784179
 21
652.38812
 31
0.0
  0
LINE
  8
0
  6
CONTINUOUS
 62
     1
 10
980.566866667
 20
660.48244
 30
0.0
 11
979.914784179
 21
661.61188
 31
0.0
  0
ARC
  8
0
  6
CONTINUOUS
 62
     1
 10
976.163611741
 20
657.0
 30
0.0
 40
4.403254926
 50
328.419912243
 51
31.580087757
  0
ARC
  8
0
  6
CONTINUOUS
 62
     1
 10
979.221946535
 20
653.54109
 30
0.0
 40
1.34512595
 50
357.010501597
 51
58.997686085
  0
LINE
  8
0
  6
CONTINUOUS
 62
     1
 10
980.566866667
 20
660.48244
 30
0.0
 11
979.914784179
 21
661.61188
 31
0.0
  0
ARC
  8
0
  6
CONTINUOUS
 62
     1
 10
979.221946535
 20
660.45891
 30
0.0
 40
1.34512595
 50
301.002313915
 51
2.989498403
  0
LINE
  8
0
  6
CONTINUOUS
 62
     1
 10
977.066666667
 20
652.38812
 30
0.0
 11
979.914784179
 21
652.38812
 31
0.0
  0
LINE
  8
0
  6
CONTINUOUS
 62
     1
 10
977.066666667
 20
654.69406
 30
0.0
 11
979.914784179
 21
654.69406
 31
0.0
  0
LINE
  8
0
  6
CONTINUOUS
 62
     1
 10
977.066666667
 20
659.30594
 30
0.0
 11
979.914784179
 21
659.30594
 31
0.0
  0
LINE
  8
0
  6
CONTINUOUS
 62
     1
 10
977.066666667
 20
661.61188
 30
0.0
 11
979.914784179
 21
661.61188
 31
0.0
  0
LINE
  8
0
  6
CONTINUOUS
 62
     1
 10
980.566866667
 20
653.51756
 30
0.0
 11
980.566866667
 21
660.48244
 31
0.0
  0
ARC
  8
0
  6
CONTINUOUS
 62
     1
 10
975.066666667
 20
651.818573629
 30
0.0
 40
2.0
 50
275.440332031
 51
0.0
  0
LINE
  8
0
  6
LTYPE1
 62
     1
 10
985.166666667
 20
714.5
 30
0.0
 11
977.066666667
 21
705.3
 31
0.0
  0
ARC
  8
0
  6
LTYPE1
 62
     1
 10
988.566666667
 20
711.5
 30
0.0
 40
4.5
 50
290.9
 51
137.7
  0
LINE
  8
0
  6
LTYPE1
 62
     1
 10
983.066666667
 20
704.5
 30
0.0
 11
977.066666667
 21
705.3
 31
0.0
  0
LINE
  8
0
  6
LTYPE1
 62
     1
 10
990.166666667
 20
707.3
 30
0.0
 11
983.066666667
 21
704.5
 31
0.0
  0
LINE
  8
0
  6
LTYPE1
 62
     1
 10
983.066666667
 20
695.5
 30
0.0
 11
977.066666667
 21
694.7
 31
0.0
  0
ARC
  8
0
  6
LTYPE1
 62
     1
 10
988.566666667
 20
688.5
 30
0.0
 40
4.5
 50
222.3
 51
69.1
  0
LINE
  8
0
  6
LTYPE1
 62
     1
 10
985.166666667
 20
685.5
 30
0.0
 11
977.066666667
 21
694.7
 31
0.0
  0
LINE
  8
0
  6
LTYPE1
 62
     1
 10
990.166666667
 20
692.7
 30
0.0
 11
983.066666667
 21
695.5
 31
0.0
  0
LINE
  8
0
  6
LTYPE1
 62
     1
 10
983.066666667
 20
704.5
 30
0.0
 11
983.066666667
 21
695.5
 31
0.0
  0
LINE
  8
0
  6
CONTINUOUS
 62
     1
 10
736.566566667
 20
648.379279223
 30
0.0
 11
735.506967265
 21
646.543999223
 31
0.0
  0
LINE
  8
0
  6
CONTINUOUS
 62
     1
 10
736.566566667
 20
654.038059223
 30
0.0
 11
736.566566667
 21
648.379279223
 31
0.0
  0
LINE
  8
0
  6
CONTINUOUS
 62
     1
 10
736.566566667
 20
659.696839223
 30
0.0
 11
735.506967265
 21
661.532119223
 31
0.0
  0
LINE
  8
0
  6
CONTINUOUS
 62
     1
 10
736.566566667
 20
654.038059223
 30
0.0
 11
736.566566667
 21
659.696839223
 31
0.0
  0
ARC
  8
0
  6
CONTINUOUS
 62
     1
 10
729.411511329
 20
654.038059223
 30
0.0
 40
7.155055337
 50
328.419912243
 51
31.580087757
  0
ARC
  8
0
  6
CONTINUOUS
 62
     1
 10
734.3811429
 20
648.417514223
 30
0.0
 40
2.185758211
 50
357.010501597
 51
58.997686085
  0
LINE
  8
0
  6
CONTINUOUS
 62
     1
 10
736.566566667
 20
659.696839223
 30
0.0
 11
735.506967265
 21
661.532119223
 31
0.0
  0
ARC
  8
0
  6
CONTINUOUS
 62
     1
 10
734.3811429
 20
659.658604223
 30
0.0
 40
2.185758211
 50
301.002313915
 51
2.989498403
  0
LINE
  8
0
  6
CONTINUOUS
 62
     1
 10
731.066666667
 20
646.543999223
 30
0.0
 11
735.506967265
 21
646.543999223
 31
0.0
  0
LINE
  8
0
  6
CONTINUOUS
 62
     1
 10
731.066666667
 20
650.291029223
 30
0.0
 11
735.506967265
 21
650.291029223
 31
0.0
  0
LINE
  8
0
  6
CONTINUOUS
 62
     1
 10
731.066666667
 20
657.785089223
 30
0.0
 11
735.506967265
 21
657.785089223
 31
0.0
  0
LINE
  8
0
  6
CONTINUOUS
 62
     1
 10
731.066666667
 20
661.532119223
 30
0.0
 11
735.506967265
 21
661.532119223
 31
0.0
  0
LINE
  8
0
  6
LTYPE2
 62
     2
 10
726.066666667
 20
654.038059223
 30
0.0
 11
740.866666667
 21
654.038059223
 31
0.0
  0
LINE
  8
0
  6
CONTINUOUS
 62
     2
 10
975.066666667
 20
763.8
 30
0.0
 11
1043.166666667
 21
763.8
 31
0.0
  0
LINE
  8
0
  6
CONTINUOUS
 62
     2
 10
866.116666667
 20
800.0
 30
0.0
 11
877.185478308
 21
805.807874727
 31
0.0
  0
LINE
  8
0
  6
CONTINUOUS
 62
     2
 10
866.116666667
 20
800.0
 30
0.0
 11
872.798601374
 21
810.564172876
 31
0.0
  0
LINE
  8
0
  6
CONTINUOUS
 62
     2
 10
998.058484537
 20
861.3
 30
0.0
 11
985.984411708
 21
864.535238064
 31
0.0
  0
LINE
  8
0
  6
CONTINUOUS
 62
     2
 10
998.058484537
 20
861.3
 30
0.0
 11
985.984411708
 21
858.064761936
 31
0.0
  0
LINE
  8
0
  6
CONTINUOUS
 62
     2
 10
998.058484537
 20
715.3
 30
0.0
 11
998.058484537
 21
868.8
 31
0.0
  0
LINE
  8
0
  6
CONTINUOUS
 62
     2
 10
721.066666667
 20
861.3
 30
0.0
 11
998.058484537
 21
861.3
 31
0.0
  0
TEXT
  8
0
  6
CONTINUOUS
 62
     2
 10
896.074780143
 20
832.631269711
 30
1.5
 40
15.0
  1
ＰＦ３／４
 50
0.0
 41
0.9
 51
0.0
  7
KANJI35
  0
LINE
  8
0
  6
CONTINUOUS
 62
     2
 10
866.116666667
 20
800.0
 30
0.0
 11
896.074780143
 21
827.631269711
 31
0.0
  0
LINE
  8
0
  6
CONTINUOUS
 62
     2
 10
896.074780143
 20
827.631269711
 30
0.0
 11
969.574780143
 21
827.631269711
 31
0.0
  0
LINE
  8
2
  6
CONTINUOUS
 62
     2
 10
991.266666667
 20
720.5
 30
0.0
 11
999.860046108
 21
729.577655522
 31
0.0
  0
LINE
  8
2
  6
CONTINUOUS
 62
     2
 10
991.266666667
 20
720.5
 30
0.0
 11
994.169923806
 21
732.65817001
 31
0.0
  0
LINE
  8
2
  6
CONTINUOUS
 62
     2
 10
991.266666667
 20
720.5
 30
0.0
 11
1069.766666667
 21
865.5
 31
0.0
  0
TEXT
  8
2
  6
CONTINUOUS
 62
     2
 10
1069.766666667
 20
870.5
 30
1.0
 40
17.5
  1
ブレーキ解放装置
 50
0.0
 41
0.914285714
 51
0.0
  7
KANJI36
  0
LINE
  8
2
  6
CONTINUOUS
 62
     2
 10
1069.766666667
 20
865.5
 30
0.0
 11
1204.766666667
 21
865.5
 31
0.0
  0
TEXT
  8
0
  6
CONTINUOUS
 62
     2
 10
694.316666667
 20
340.7
 30
0.0
 40
18.0
  1
１３１
 50
0.0
 41
0.9
 51
0.0
  7
KANJI26
  0
TEXT
  8
0
  6
CONTINUOUS
 62
     2
 10
535.316666667
 20
340.7
 30
0.0
 40
18.0
  1
１８７
 50
0.0
 41
0.9
 51
0.0
  7
KANJI26
  0
TEXT
  8
0
  6
CONTINUOUS
 62
     2
 10
570.816666667
 20
866.3
 30
0.0
 40
18.0
  1
２５８
 50
0.0
 41
0.9
 51
0.0
  7
KANJI26
  0
TEXT
  8
0
  6
CONTINUOUS
 62
     2
 10
819.816666667
 20
866.3
 30
0.0
 40
18.0
  1
２７７
 50
0.0
 41
0.9
 51
0.0
  7
KANJI26
  0
TEXT
  8
0
  6
CONTINUOUS
 62
     2
 10
942.166666667
 20
537.1
 30
0.0
 40
18.0
  1
φ７０
 50
90.0
 41
0.9
 51
0.0
  7
KANJI26
  0
TEXT
  8
0
  6
CONTINUOUS
 62
     2
 10
1027.306676122
 20
672.55
 30
0.0
 40
18.0
  1
φ１２７
 50
90.0
 41
0.9
 51
0.0
  7
KANJI26
  0
TEXT
  8
7
  6
CONTINUOUS
 62
     2
 10
1068.766666667
 20
738.75
 30
0.0
 40
18.0
  1
φ１１０
 50
90.0
 41
0.9
 51
0.0
  7
KANJI26
  0
TEXT
  8
0
  6
CONTINUOUS
 62
     2
 10
965.616666667
 20
340.7
 30
0.0
 40
18.0
  1
ｍｉｎ．Ｌ
 50
0.0
 41
0.9
 51
0.0
  7
KANJI26
  0
TEXT
  8
0
  6
CONTINUOUS
 62
     2
 10
785.166666667
 20
307.0375
 30
0.0
 40
18.0
  1
ｍｉｎ．ＡＬ
 50
0.0
 41
0.9
 51
0.0
  7
KANJI26
  0
TEXT
  8
0
  6
CONTINUOUS
 62
     2
 10
946.804589757
 20
375.8
 30
0.0
 40
18.0
  1
Ｃ
 50
0.0
 41
0.9
 51
0.0
  7
KANJI26
  0
TEXT
  8
0
  6
CONTINUOUS
 62
     2
 10
793.606676122
 20
677.0
 30
0.0
 40
18.0
  1
日本電産
 50
0.0
 41
0.9
 51
0.0
  7
KANJI26
  0
TEXT
  8
0
  6
CONTINUOUS
 62
     2
 10
780.606676122
 20
652.0
 30
0.0
 40
18.0
  1
エコノストップモータ
 50
0.0
 41
0.9
 51
0.0
  7
KANJI26
  0
TEXT
  8
0
  6
CONTINUOUS
 62
     2
 10
1077.104589757
 20
375.8
 30
0.0
 40
18.0
  1
ｍｉｎ．Ｐ
 50
0.0
 41
0.866666667
 51
0.0
  7
KANJI37
  0
LINE
  8
0
  6
CONTINUOUS
 62
     2
 10
721.066666667
 20
786.14
 30
0.0
 11
721.066666667
 21
868.8
 31
0.0
  0
LINE
  8
0
  6
CONTINUOUS
 62
     1
 10
794.106676122
 20
454.0
 30
0.0
 11
783.506676122
 21
454.0
 31
0.0
  0
ARC
  8
0
  6
CONTINUOUS
 62
     1
 10
789.206676122
 20
455.0
 30
0.0
 40
5.0
 50
272.3
 51
348.5
  0
ARC
  8
0
  6
CONTINUOUS
 62
     1
 10
788.406676122
 20
455.0
 30
0.0
 40
5.0
 50
191.5
 51
267.7
  0
LINE
  8
0
  6
CONTINUOUS
 62
     1
 10
789.406676122
 20
450.0
 30
0.0
 11
788.206676122
 21
450.0
 31
0.0
  0
LINE
  8
0
  6
LTYPE6
 62
     2
 10
788.806676122
 20
446.6
 30
0.0
 11
788.806676122
 21
460.0
 31
0.0
  0
LINE
  8
0
  6
CONTINUOUS
 62
     1
 10
905.606676122
 20
454.0
 30
0.0
 11
895.006676122
 21
454.0
 31
0.0
  0
ARC
  8
0
  6
CONTINUOUS
 62
     1
 10
900.706676122
 20
455.0
 30
0.0
 40
5.0
 50
272.3
 51
348.5
  0
ARC
  8
0
  6
CONTINUOUS
 62
     1
 10
899.906676122
 20
455.0
 30
0.0
 40
5.0
 50
191.5
 51
267.7
  0
LINE
  8
0
  6
CONTINUOUS
 62
     1
 10
900.906676122
 20
450.0
 30
0.0
 11
899.706676122
 21
450.0
 31
0.0
  0
LINE
  8
0
  6
LTYPE6
 62
     2
 10
900.306676122
 20
446.6
 30
0.0
 11
900.306676122
 21
460.0
 31
0.0
  0
TEXT
  8
0
  6
CONTINUOUS
 62
     2
 10
675.566666667
 20
629.0
 30
5.0
 40
20.0
  1
銘板
 50
270.0
 41
0.925
 51
0.0
  7
KANJI38
  0
LINE
  8
0
  6
CONTINUOUS
 62
     1
 10
670.566666667
 20
640.0
 30
0.0
 11
670.566666667
 21
570.0
 31
0.0
  0
LINE
  8
0
  6
CONTINUOUS
 62
     1
 10
713.566666667
 20
640.0
 30
0.0
 11
670.566666667
 21
640.0
 31
0.0
  0
LINE
  8
0
  6
CONTINUOUS
 62
     1
 10
713.566666667
 20
570.0
 30
0.0
 11
670.566666667
 21
570.0
 31
0.0
  0
LINE
  8
0
  6
CONTINUOUS
 62
     1
 10
713.566666667
 20
640.0
 30
0.0
 11
713.566666667
 21
570.0
 31
0.0
  0
LINE
  8
0
  6
CONTINUOUS
 62
     2
 10
538.003319123
 20
182.733311846
 30
0.0
 11
545.730725733
 21
180.662759485
 31
0.0
  0
LINE
  8
0
  6
CONTINUOUS
 62
     2
 10
538.003319123
 20
182.733311846
 30
0.0
 11
545.730725733
 21
184.803864207
 31
0.0
  0
LINE
  8
0
  6
CONTINUOUS
 62
     2
 10
538.003319123
 20
182.733311846
 30
0.0
 11
675.603319123
 21
182.733311846
 31
0.0
  0
LINE
  8
0
  6
CONTINUOUS
 62
     2
 10
675.603319123
 20
182.733311846
 30
0.0
 11
667.875912513
 21
184.803864207
 31
0.0
  0
LINE
  8
0
  6
CONTINUOUS
 62
     2
 10
675.603319123
 20
182.733311846
 30
0.0
 11
667.875912513
 21
180.662759485
 31
0.0
  0
LINE
  8
0
  6
CONTINUOUS
 62
     2
 10
675.603319123
 20
181.533311846
 30
0.0
 11
675.603319123
 21
178.733311846
 31
0.0
  0
LINE
  8
0
  6
CONTINUOUS
 62
     2
 10
675.603319123
 20
182.733311846
 30
0.0
 11
683.330725733
 21
180.662759485
 31
0.0
  0
LINE
  8
0
  6
CONTINUOUS
 62
     2
 10
675.603319123
 20
182.733311846
 30
0.0
 11
683.330725733
 21
184.803864207
 31
0.0
  0
LINE
  8
0
  6
CONTINUOUS
 62
     2
 10
675.603319123
 20
182.733311846
 30
0.0
 11
878.003319123
 21
182.733311846
 31
0.0
  0
LINE
  8
0
  6
CONTINUOUS
 62
     2
 10
878.003319123
 20
182.733311846
 30
0.0
 11
870.275912513
 21
184.803864207
 31
0.0
  0
LINE
  8
0
  6
CONTINUOUS
 62
     2
 10
878.003319123
 20
182.733311846
 30
0.0
 11
870.275912513
 21
180.662759485
 31
0.0
  0
LINE
  8
0
  6
CONTINUOUS
 62
     2
 10
675.603319123
 20
156.403864207
 30
0.0
 11
667.875912513
 21
158.474416568
 31
0.0
  0
LINE
  8
0
  6
CONTINUOUS
 62
     2
 10
675.603319123
 20
156.403864207
 30
0.0
 11
667.875912513
 21
154.333311846
 31
0.0
  0
LINE
  8
0
  6
CONTINUOUS
 62
     2
 10
663.603319123
 20
156.403864207
 30
0.0
 11
675.603319123
 21
156.403864207
 31
0.0
  0
LINE
  8
0
  6
CONTINUOUS
 62
     2
 10
675.603319123
 20
156.403864207
 30
0.0
 11
696.403319123
 21
156.403864207
 31
0.0
  0
LINE
  8
0
  6
CONTINUOUS
 62
     2
 10
696.403319123
 20
156.403864207
 30
0.0
 11
704.130725733
 21
154.333311846
 31
0.0
  0
LINE
  8
0
  6
CONTINUOUS
 62
     2
 10
696.403319123
 20
156.403864207
 30
0.0
 11
704.130725733
 21
158.474416568
 31
0.0
  0
LINE
  8
0
  6
CONTINUOUS
 62
     2
 10
538.003319123
 20
131.133311846
 30
0.0
 11
538.003319123
 21
125.133311846
 31
0.0
  0
LINE
  8
0
  6
CONTINUOUS
 62
     2
 10
538.003319123
 20
129.133311846
 30
0.0
 11
545.730725733
 21
127.062759485
 31
0.0
  0
LINE
  8
0
  6
CONTINUOUS
 62
     2
 10
538.003319123
 20
129.133311846
 30
0.0
 11
545.730725733
 21
131.203864207
 31
0.0
  0
LINE
  8
0
  6
CONTINUOUS
 62
     2
 10
538.003319123
 20
129.133311846
 30
0.0
 11
696.403319123
 21
129.133311846
 31
0.0
  0
LINE
  8
0
  6
CONTINUOUS
 62
     2
 10
696.403319123
 20
129.133311846
 30
0.0
 11
688.675912513
 21
131.203864207
 31
0.0
  0
LINE
  8
0
  6
CONTINUOUS
 62
     2
 10
696.403319123
 20
129.133311846
 30
0.0
 11
688.675912513
 21
127.062759485
 31
0.0
  0
LINE
  8
0
  6
CONTINUOUS
 62
     2
 10
696.403319123
 20
130.333311846
 30
0.0
 11
696.403319123
 21
125.133311846
 31
0.0
  0
LINE
  8
0
  6
CONTINUOUS
 62
     2
 10
696.403319123
 20
129.133311846
 30
0.0
 11
704.130725733
 21
127.062759485
 31
0.0
  0
LINE
  8
0
  6
CONTINUOUS
 62
     2
 10
696.403319123
 20
129.133311846
 30
0.0
 11
704.130725733
 21
131.203864207
 31
0.0
  0
LINE
  8
0
  6
CONTINUOUS
 62
     2
 10
878.003319123
 20
125.533311846
 30
0.0
 11
878.003319123
 21
125.133311846
 31
0.0
  0
LINE
  8
0
  6
CONTINUOUS
 62
     2
 10
538.003319123
 20
99.933311846
 30
0.0
 11
545.730725733
 21
97.862759485
 31
0.0
  0
LINE
  8
0
  6
CONTINUOUS
 62
     2
 10
538.003319123
 20
99.933311846
 30
0.0
 11
545.730725733
 21
102.003864207
 31
0.0
  0
LINE
  8
0
  6
CONTINUOUS
 62
     2
 10
538.003319123
 20
99.933311846
 30
0.0
 11
855.603319123
 21
99.933311846
 31
0.0
  0
LINE
  8
0
  6
CONTINUOUS
 62
     2
 10
855.603319123
 20
99.933311846
 30
0.0
 11
847.875912513
 21
102.003864207
 31
0.0
  0
LINE
  8
0
  6
CONTINUOUS
 62
     2
 10
855.603319123
 20
99.933311846
 30
0.0
 11
847.875912513
 21
97.862759485
 31
0.0
  0
LINE
  8
0
  6
CONTINUOUS
 62
     2
 10
855.603319123
 20
100.733311846
 30
0.0
 11
855.603319123
 21
95.933311846
 31
0.0
  0
LINE
  8
0
  6
CONTINUOUS
 62
     2
 10
855.603319123
 20
99.933311846
 30
0.0
 11
847.875912513
 21
102.003864207
 31
0.0
  0
LINE
  8
0
  6
CONTINUOUS
 62
     2
 10
855.603319123
 20
99.933311846
 30
0.0
 11
847.875912513
 21
97.862759485
 31
0.0
  0
LINE
  8
0
  6
CONTINUOUS
 62
     2
 10
843.603319123
 20
99.933311846
 30
0.0
 11
855.603319123
 21
99.933311846
 31
0.0
  0
LINE
  8
0
  6
CONTINUOUS
 62
     2
 10
855.603319123
 20
99.933311846
 30
0.0
 11
878.003319123
 21
99.933311846
 31
0.0
  0
LINE
  8
0
  6
CONTINUOUS
 62
     2
 10
878.003319123
 20
99.933311846
 30
0.0
 11
885.730725733
 21
97.862759485
 31
0.0
  0
LINE
  8
0
  6
CONTINUOUS
 62
     2
 10
878.003319123
 20
99.933311846
 30
0.0
 11
885.730725733
 21
102.003864207
 31
0.0
  0
LINE
  8
0
  6
CONTINUOUS
 62
     2
 10
538.003319123
 20
193.533311846
 30
0.0
 11
538.003319123
 21
178.733311846
 31
0.0
  0
LINE
  8
0
  6
CONTINUOUS
 62
     2
 10
878.003319123
 20
193.533311846
 30
0.0
 11
878.003319123
 21
178.733311846
 31
0.0
  0
LINE
  8
0
  6
CONTINUOUS
 62
     2
 10
675.603319123
 20
182.333311846
 30
0.0
 11
675.603319123
 21
193.533311846
 31
0.0
  0
LINE
  8
0
  6
CONTINUOUS
 62
     2
 10
696.403319123
 20
169.203864207
 30
0.0
 11
696.403319123
 21
152.403864207
 31
0.0
  0
LINE
  8
0
  6
CONTINUOUS
 62
     2
 10
538.003319123
 20
178.733311846
 30
0.0
 11
538.003319123
 21
86.733311846
 31
0.0
  0
LINE
  8
0
  6
CONTINUOUS
 62
     2
 10
878.003319123
 20
182.733311846
 30
0.0
 11
878.003319123
 21
87.933311846
 31
0.0
  0
LINE
  8
0
  6
CONTINUOUS
 62
     2
 10
696.403319123
 20
156.403864207
 30
0.0
 11
696.403319123
 21
119.933311846
 31
0.0
  0
LINE
  8
0
  6
CONTINUOUS
 62
     2
 10
675.603319123
 20
182.733311846
 30
0.0
 11
675.603319123
 21
147.133311846
 31
0.0
  0
TEXT
  8
0
  6
CONTINUOUS
 62
     3
 10
579.803319123
 20
184.733311846
 30
0.0
 40
15.0
  1
ｍｉｎ．Ｌ
 50
0.0
 41
0.9
 51
0.0
  7
KANJI39
  0
TEXT
  8
0
  6
CONTINUOUS
 62
     3
 10
733.603319123
 20
184.733311846
 30
0.0
 40
15.0
  1
機械的ストローク
 50
0.0
 41
0.9
 51
0.0
  7
KANJI39
  0
TEXT
  8
0
  6
CONTINUOUS
 62
     3
 10
708.403319123
 20
158.403864207
 30
0.0
 40
15.0
  1
余裕
 50
0.0
 41
0.9
 51
0.0
  7
KANJI39
  0
TEXT
  8
0
  6
CONTINUOUS
 62
     3
 10
590.203319123
 20
131.133311846
 30
0.0
 40
15.0
  1
常用ｍｉｎ
 50
0.0
 41
0.9
 51
0.0
  7
KANJI39
  0
TEXT
  8
0
  6
CONTINUOUS
 62
     3
 10
669.803319123
 20
101.933311846
 30
0.0
 40
15.0
  1
常用ｍａｘ
 50
0.0
 41
0.9
 51
0.0
  7
KANJI39
  0
TEXT
  8
0
  6
CONTINUOUS
 62
     3
 10
890.003319123
 20
101.933311846
 30
0.0
 40
15.0
  1
余裕
 50
0.0
 41
0.9
 51
0.0
  7
KANJI39
  0
LINE
  8
0
  6
CONTINUOUS
 62
     2
 10
696.403319123
 20
156.403864207
 30
0.0
 11
736.503319123
 21
156.403864207
 31
0.0
  0
LINE
  8
0
  6
CONTINUOUS
 62
     2
 10
878.003319123
 20
99.933311846
 30
0.0
 11
920.503319123
 21
99.933311846
 31
0.0
  0
TEXT
  8
0
  6
CONTINUOUS
 62
     3
 10
818.066666667
 20
474.9
 30
0.0
 40
14.4
  1
推力リミッタ
 50
0.0
 41
0.9
 51
0.0
  7
KANJI40
  0
LINE
  8
0
  6
CONTINUOUS
 62
     2
 10
818.066666667
 20
472.5
 30
0.0
 11
894.066666667
 21
472.5
 31
0.0
  0
ARC
  8
0
  6
CONTINUOUS
 62
     1
 10
1346.306676122
 20
494.0
 30
0.0
 40
6.0
 50
180.0
 51
270.0
  0
LINE
  8
0
  6
CONTINUOUS
 62
     1
 10
1340.306676122
 20
494.0
 30
0.0
 11
1340.306676122
 21
543.639279073
 31
0.0
  0
LINE
  8
0
  6
LTYPE1
 62
     2
 10
1362.306676122
 20
575.0
 30
0.0
 11
1337.306676122
 21
575.0
 31
0.0
  0
LINE
  8
0
  6
LTYPE1
 62
     2
 10
1362.306676122
 20
555.0
 30
0.0
 11
1337.306676122
 21
555.0
 31
0.0
  0
LINE
  8
0
  6
LTYPE3
 62
     2
 10
1322.306676122
 20
565.0
 30
0.0
 11
1567.566666667
 21
565.0
 31
0.0
  0
LINE
  8
0
  6
CONTINUOUS
 62
     1
 10
1337.306676122
 20
544.0
 30
0.0
 11
1337.306676122
 21
552.2
 31
0.0
  0
LINE
  8
0
  6
CONTINUOUS
 62
     1
 10
1337.306676122
 20
586.0
 30
0.0
 11
1370.57339034
 21
590.0
 31
0.0
  0
LINE
  8
0
  6
CONTINUOUS
 62
     1
 10
1337.306676122
 20
552.2
 30
0.0
 11
1337.306676122
 21
586.0
 31
0.0
  0
LINE
  8
0
  6
CONTINUOUS
 62
     1
 10
1340.306676122
 20
586.360720927
 30
0.0
 11
1340.306676122
 21
617.1
 31
0.0
  0
LINE
  8
0
  6
CONTINUOUS
 62
     1
 10
1307.306676122
 20
483.3
 30
0.0
 11
1307.306676122
 21
715.3
 31
0.0
  0
ARC
  8
0
  6
CONTINUOUS
 62
     1
 10
1317.306676122
 20
715.3
 30
0.0
 40
10.0
 50
90.0
 51
180.0
  0
ARC
  8
0
  6
CONTINUOUS
 62
     1
 10
1136.920294171
 20
619.0
 30
0.0
 40
1.0
 50
15.0
 51
90.0
  0
ARC
  8
0
  6
CONTINUOUS
 62
     1
 10
1136.920293345
 20
619.0
 30
0.0
 40
1.0
 50
90.0
 51
165.0
  0
LINE
  8
0
  6
CONTINUOUS
 62
     1
 10
1132.332327309
 20
605.741180955
 30
0.0
 11
1135.954367519
 21
619.258819045
 31
0.0
  0
ARC
  8
0
  6
CONTINUOUS
 62
     1
 10
1131.366401483
 20
606.0
 30
0.0
 40
1.0
 50
270.0
 51
345.0
  0
LINE
  8
0
  6
CONTINUOUS
 62
     1
 10
1136.920294171
 20
620.0
 30
0.0
 11
1136.920294171
 21
565.0
 31
0.0
  0
LINE
  8
0
  6
CONTINUOUS
 62
     1
 10
1131.366401483
 20
565.0
 30
0.0
 11
1131.366401483
 21
605.0
 31
0.0
  0
LINE
  8
0
  6
CONTINUOUS
 62
     1
 10
1141.666666667
 20
605.15
 30
0.0
 11
1137.886219997
 21
619.258819045
 31
0.0
  0
LINE
  8
0
  6
CONTINUOUS
 62
     1
 10
1141.666666667
 20
565.0
 30
0.0
 11
1141.666666667
 21
605.15
 31
0.0
  0
ARC
  8
0
  6
CONTINUOUS
 62
     1
 10
1136.920294171
 20
511.0
 30
0.0
 40
1.0
 50
270.0
 51
345.0
  0
ARC
  8
0
  6
CONTINUOUS
 62
     1
 10
1136.920293345
 20
511.0
 30
0.0
 40
1.0
 50
195.0
 51
270.0
  0
LINE
  8
0
  6
CONTINUOUS
 62
     1
 10
1132.332327309
 20
524.258819045
 30
0.0
 11
1135.954367519
 21
510.741180955
 31
0.0
  0
ARC
  8
0
  6
CONTINUOUS
 62
     1
 10
1131.366401483
 20
524.0
 30
0.0
 40
1.0
 50
15.0
 51
90.0
  0
LINE
  8
0
  6
CONTINUOUS
 62
     1
 10
1141.666666667
 20
524.85
 30
0.0
 11
1137.886219997
 21
510.741180955
 31
0.0
  0
LINE
  8
0
  6
CONTINUOUS
 62
     1
 10
1141.666666667
 20
524.85
 30
0.0
 11
1141.666666667
 21
539.85
 31
0.0
  0
ARC
  8
0
  6
CONTINUOUS
 62
     1
 10
1135.004457445
 20
822.0
 30
0.0
 40
1.0
 50
15.0
 51
90.0
  0
ARC
  8
0
  6
CONTINUOUS
 62
     1
 10
1135.004456619
 20
822.0
 30
0.0
 40
1.0
 50
90.0
 51
165.0
  0
LINE
  8
0
  6
CONTINUOUS
 62
     1
 10
1141.666666667
 20
801.0
 30
0.0
 11
1135.970383271
 21
822.258819045
 31
0.0
  0
LINE
  8
0
  6
CONTINUOUS
 62
     1
 10
1154.166666667
 20
803.0
 30
0.0
 11
1144.166666667
 21
803.0
 31
0.0
  0
LINE
  8
0
  6
CONTINUOUS
 62
     1
 10
1141.666666667
 20
768.0
 30
0.0
 11
1141.666666667
 21
801.0
 31
0.0
  0
LINE
  8
0
  6
CONTINUOUS
 62
     1
 10
1135.004457445
 20
823.0
 30
0.0
 11
1135.004457445
 21
768.0
 31
0.0
  0
ARC
  8
0
  6
CONTINUOUS
 62
     1
 10
1135.004457445
 20
714.0
 30
0.0
 40
1.0
 50
270.0
 51
345.0
  0
ARC
  8
0
  6
CONTINUOUS
 62
     1
 10
1135.004456619
 20
714.0
 30
0.0
 40
1.0
 50
195.0
 51
270.0
  0
LINE
  8
0
  6
CONTINUOUS
 62
     1
 10
1141.666666667
 20
735.0
 30
0.0
 11
1135.970383271
 21
713.741180955
 31
0.0
  0
LINE
  8
0
  6
CONTINUOUS
 62
     1
 10
1154.166666667
 20
733.0
 30
0.0
 11
1144.166666667
 21
733.0
 31
0.0
  0
LINE
  8
0
  6
CONTINUOUS
 62
     1
 10
1154.166666667
 20
735.0
 30
0.0
 11
1154.166666667
 21
733.0
 31
0.0
  0
LINE
  8
0
  6
CONTINUOUS
 62
     1
 10
1144.166666667
 20
735.0
 30
0.0
 11
1144.166666667
 21
733.0
 31
0.0
  0
LINE
  8
0
  6
CONTINUOUS
 62
     1
 10
1141.666666667
 20
768.0
 30
0.0
 11
1141.666666667
 21
735.0
 31
0.0
  0
LINE
  8
0
  6
CONTINUOUS
 62
     1
 10
1135.004457445
 20
713.0
 30
0.0
 11
1135.004457445
 21
768.0
 31
0.0
  0
LINE
  8
0
  6
CONTINUOUS
 62
     1
 10
1156.666666667
 20
768.0
 30
0.0
 11
1156.666666667
 21
735.0
 31
0.0
  0
LINE
  8
0
  6
CONTINUOUS
 62
     1
 10
1156.666666667
 20
768.0
 30
0.0
 11
1156.666666667
 21
801.0
 31
0.0
  0
LINE
  8
0
  6
CONTINUOUS
 62
     1
 10
1144.166666667
 20
735.15
 30
0.0
 11
1144.166666667
 21
803.0
 31
0.0
  0
LINE
  8
0
  6
CONTINUOUS
 62
     1
 10
1154.166666667
 20
735.0
 30
0.0
 11
1154.166666667
 21
803.0
 31
0.0
  0
LINE
  8
0
  6
CONTINUOUS
 62
     1
 10
1144.866666667
 20
735.0
 30
0.0
 11
1141.666666667
 21
735.0
 31
0.0
  0
LINE
  8
0
  6
CONTINUOUS
 62
     1
 10
1156.666666667
 20
735.0
 30
0.0
 11
1153.566666667
 21
735.0
 31
0.0
  0
LINE
  8
0
  6
CONTINUOUS
 62
     1
 10
1144.066666667
 20
801.0
 30
0.0
 11
1141.666666667
 21
801.0
 31
0.0
  0
LINE
  8
0
  6
CONTINUOUS
 62
     1
 10
1156.666666667
 20
801.0
 30
0.0
 11
1154.066666667
 21
801.0
 31
0.0
  0
TEXT
  8
0
  6
CONTINUOUS
 62
     2
 10
1154.106676122
 20
637.2875
 30
1.5
 40
15.0
  1
φ２５Ｈ１０
 50
0.0
 41
0.9
 51
0.0
  7
KANJI35
  0
LINE
  8
0
  6
CONTINUOUS
 62
     1
 10
1171.666666667
 20
755.5
 30
0.0
 11
1231.666666667
 21
755.5
 31
0.0
  0
LINE
  8
0
  6
CONTINUOUS
 62
     1
 10
1231.666666667
 20
740.5
 30
0.0
 11
1231.666666667
 21
755.5
 31
0.0
  0
LINE
  8
0
  6
CONTINUOUS
 62
     1
 10
1156.666666667
 20
740.5
 30
0.0
 11
1231.666666667
 21
740.5
 31
0.0
  0
LINE
  8
0
  6
CONTINUOUS
 62
     1
 10
1184.666666667
 20
736.0
 30
0.0
 11
1228.666666667
 21
736.0
 31
0.0
  0
LINE
  8
0
  6
CONTINUOUS
 62
     1
 10
1194.166666667
 20
730.0
 30
0.0
 11
1219.166666667
 21
730.0
 31
0.0
  0
LINE
  8
0
  6
CONTINUOUS
 62
     1
 10
1219.166666667
 20
730.0
 30
0.0
 11
1219.166666667
 21
736.0
 31
0.0
  0
LINE
  8
0
  6
CONTINUOUS
 62
     1
 10
1194.166666667
 20
730.0
 30
0.0
 11
1194.166666667
 21
736.0
 31
0.0
  0
LINE
  8
0
  6
CONTINUOUS
 62
     1
 10
1228.666666667
 20
736.0
 30
0.0
 11
1228.666666667
 21
740.5
 31
0.0
  0
LINE
  8
0
  6
CONTINUOUS
 62
     1
 10
1184.666666667
 20
736.0
 30
0.0
 11
1184.666666667
 21
740.5
 31
0.0
  0
CIRCLE
  8
0
  6
CONTINUOUS
 62
     1
 10
1206.666666667
 20
734.0
 30
0.0
 40
2.0
  0
LINE
  8
0
  6
CONTINUOUS
 62
     1
 10
1171.666666667
 20
780.5
 30
0.0
 11
1231.666666667
 21
780.5
 31
0.0
  0
LINE
  8
0
  6
CONTINUOUS
 62
     1
 10
1231.666666667
 20
795.5
 30
0.0
 11
1231.666666667
 21
780.5
 31
0.0
  0
LINE
  8
0
  6
CONTINUOUS
 62
     1
 10
1156.666666667
 20
795.5
 30
0.0
 11
1231.666666667
 21
795.5
 31
0.0
  0
LINE
  8
0
  6
CONTINUOUS
 62
     1
 10
1184.666666667
 20
800.0
 30
0.0
 11
1228.666666667
 21
800.0
 31
0.0
  0
LINE
  8
0
  6
CONTINUOUS
 62
     1
 10
1194.166666667
 20
806.0
 30
0.0
 11
1219.166666667
 21
806.0
 31
0.0
  0
LINE
  8
0
  6
CONTINUOUS
 62
     1
 10
1219.166666667
 20
806.0
 30
0.0
 11
1219.166666667
 21
800.0
 31
0.0
  0
LINE
  8
0
  6
CONTINUOUS
 62
     1
 10
1194.166666667
 20
806.0
 30
0.0
 11
1194.166666667
 21
800.0
 31
0.0
  0
LINE
  8
0
  6
CONTINUOUS
 62
     1
 10
1228.666666667
 20
800.0
 30
0.0
 11
1228.666666667
 21
795.5
 31
0.0
  0
LINE
  8
0
  6
CONTINUOUS
 62
     1
 10
1184.666666667
 20
800.0
 30
0.0
 11
1184.666666667
 21
795.5
 31
0.0
  0
CIRCLE
  8
0
  6
CONTINUOUS
 62
     1
 10
1206.666666667
 20
802.0
 30
0.0
 40
2.0
  0
LINE
  8
0
  6
CONTINUOUS
 62
     1
 10
1171.666666667
 20
755.5
 30
0.0
 11
1171.666666667
 21
780.5
 31
0.0
  0
LINE
  8
0
  6
CONTINUOUS
 62
     1
 10
1194.166666667
 20
780.5
 30
0.0
 11
1194.166666667
 21
755.5
 31
0.0
  0
LINE
  8
0
  6
CONTINUOUS
 62
     1
 10
1219.166666667
 20
780.5
 30
0.0
 11
1219.166666667
 21
755.5
 31
0.0
  0
LINE
  8
0
  6
LTYPE5
 62
     2
 10
1202.666666667
 20
734.1
 30
0.0
 11
1210.866666667
 21
734.1
 31
0.0
  0
LINE
  8
0
  6
LTYPE1
 62
     2
 10
1219.166666667
 20
736.0
 30
0.0
 11
1219.166666667
 21
755.5
 31
0.0
  0
LINE
  8
0
  6
LTYPE1
 62
     2
 10
1194.166666667
 20
736.0
 30
0.0
 11
1194.166666667
 21
755.5
 31
0.0
  0
LINE
  8
0
  6
LTYPE5
 62
     2
 10
1202.666666667
 20
801.9
 30
0.0
 11
1210.866666667
 21
801.9
 31
0.0
  0
LINE
  8
0
  6
LTYPE1
 62
     2
 10
1219.166666667
 20
800.0
 30
0.0
 11
1219.166666667
 21
780.5
 31
0.0
  0
LINE
  8
0
  6
LTYPE1
 62
     2
 10
1194.166666667
 20
800.0
 30
0.0
 11
1194.166666667
 21
780.5
 31
0.0
  0
LINE
  8
0
  6
LTYPE5
 62
     2
 10
1206.666666667
 20
725.0
 30
0.0
 11
1206.666666667
 21
806.0
 31
0.0
  0
LINE
  8
0
  6
LTYPE5
 62
     2
 10
1206.666666667
 20
811.0
 30
0.0
 11
1206.666666667
 21
730.0
 31
0.0
  0
LINE
  8
0
  6
CONTINUOUS
 62
     2
 10
1239.166666667
 20
780.5
 30
0.0
 11
1273.016666667
 21
780.5
 31
0.0
  0
LINE
  8
0
  6
CONTINUOUS
 62
     2
 10
1265.516666667
 20
780.5
 30
0.0
 11
1268.75190473
 21
792.574072829
 31
0.0
  0
LINE
  8
0
  6
CONTINUOUS
 62
     2
 10
1265.516666667
 20
780.5
 30
0.0
 11
1262.281428603
 21
792.574072829
 31
0.0
  0
LINE
  8
0
  6
CONTINUOUS
 62
     2
 10
1265.516666667
 20
827.75
 30
0.0
 11
1265.516666667
 21
736.75
 31
0.0
  0
LINE
  8
0
  6
CONTINUOUS
 62
     2
 10
1265.516666667
 20
755.5
 30
0.0
 11
1262.281428603
 21
743.425927171
 31
0.0
  0
LINE
  8
0
  6
CONTINUOUS
 62
     2
 10
1265.516666667
 20
755.5
 30
0.0
 11
1268.75190473
 21
743.425927171
 31
0.0
  0
LINE
  8
0
  6
CONTINUOUS
 62
     2
 10
1239.166666667
 20
755.5
 30
0.0
 11
1273.016666667
 21
755.5
 31
0.0
  0
LINE
  8
0
  6
CONTINUOUS
 62
     2
 10
1239.166666667
 20
740.5
 30
0.0
 11
1303.016666667
 21
740.5
 31
0.0
  0
LINE
  8
0
  6
CONTINUOUS
 62
     2
 10
1295.516666667
 20
740.5
 30
0.0
 11
1298.75190473
 21
752.574072829
 31
0.0
  0
LINE
  8
0
  6
CONTINUOUS
 62
     2
 10
1295.516666667
 20
740.5
 30
0.0
 11
1292.281428603
 21
752.574072829
 31
0.0
  0
LINE
  8
0
  6
CONTINUOUS
 62
     2
 10
1295.516666667
 20
740.5
 30
0.0
 11
1295.516666667
 21
795.5
 31
0.0
  0
LINE
  8
0
  6
CONTINUOUS
 62
     2
 10
1295.516666667
 20
795.5
 30
0.0
 11
1292.281428603
 21
783.425927171
 31
0.0
  0
LINE
  8
0
  6
CONTINUOUS
 62
     2
 10
1295.516666667
 20
795.5
 30
0.0
 11
1298.75190473
 21
783.425927171
 31
0.0
  0
LINE
  8
0
  6
CONTINUOUS
 62
     2
 10
1239.166666667
 20
795.5
 30
0.0
 11
1303.016666667
 21
795.5
 31
0.0
  0
LINE
  8
0
  6
CONTINUOUS
 62
     2
 10
1206.666666667
 20
717.5
 30
0.0
 11
1206.666666667
 21
683.0
 31
0.0
  0
LINE
  8
0
  6
CONTINUOUS
 62
     2
 10
1206.666666667
 20
690.5
 30
0.0
 11
1194.592593838
 21
693.735238064
 31
0.0
  0
LINE
  8
0
  6
CONTINUOUS
 62
     2
 10
1206.666666667
 20
690.5
 30
0.0
 11
1194.592593838
 21
687.264761936
 31
0.0
  0
LINE
  8
0
  6
CONTINUOUS
 62
     2
 10
1206.666666667
 20
690.5
 30
0.0
 11
1171.666666667
 21
690.5
 31
0.0
  0
LINE
  8
0
  6
CONTINUOUS
 62
     2
 10
1171.666666667
 20
748.0
 30
0.0
 11
1171.666666667
 21
683.0
 31
0.0
  0
LINE
  8
0
  6
CONTINUOUS
 62
     2
 10
1171.666666667
 20
690.5
 30
0.0
 11
1183.740739495
 21
687.264761936
 31
0.0
  0
LINE
  8
0
  6
CONTINUOUS
 62
     2
 10
1171.666666667
 20
690.5
 30
0.0
 11
1183.740739495
 21
693.735238064
 31
0.0
  0
LINE
  8
0
  6
CONTINUOUS
 62
     2
 10
1156.666666667
 20
690.5
 30
0.0
 11
1144.592593838
 21
693.735238064
 31
0.0
  0
LINE
  8
0
  6
CONTINUOUS
 62
     2
 10
1156.666666667
 20
690.5
 30
0.0
 11
1144.592593838
 21
687.264761936
 31
0.0
  0
LINE
  8
0
  6
CONTINUOUS
 62
     2
 10
1156.666666667
 20
715.5
 30
0.0
 11
1156.666666667
 21
683.0
 31
0.0
  0
LINE
  8
0
  6
CONTINUOUS
 62
     1
 10
1156.666666667
 20
538.0
 30
0.0
 11
1223.666666667
 21
538.0
 31
0.0
  0
ARC
  8
0
  6
CONTINUOUS
 62
     1
 10
1223.666666667
 20
546.0
 30
0.0
 40
8.0
 50
270.0
 51
0.0
  0
LINE
  8
0
  6
CONTINUOUS
 62
     1
 10
1156.666666667
 20
588.0
 30
0.0
 11
1223.666666667
 21
588.0
 31
0.0
  0
LINE
  8
0
  6
CONTINUOUS
 62
     1
 10
1231.666666667
 20
546.0
 30
0.0
 11
1231.666666667
 21
580.0
 31
0.0
  0
ARC
  8
0
  6
CONTINUOUS
 62
     1
 10
1223.666666667
 20
580.0
 30
0.0
 40
8.0
 50
0.0
 51
90.0
  0
CIRCLE
  8
0
  6
CONTINUOUS
 62
     1
 10
1206.666666667
 20
563.0
 30
0.0
 40
12.5
  0
CIRCLE
  8
0
  6
CONTINUOUS
 62
     1
 10
1206.666666667
 20
563.0
 30
0.0
 40
22.0
  0
CIRCLE
  8
0
  6
CONTINUOUS
 62
     1
 10
1206.666666667
 20
578.5
 30
0.0
 40
3.0
  0
LINE
  8
0
  6
CONTINUOUS
 62
     1
 10
1202.466666667
 20
546.2
 30
0.0
 11
1204.466666667
 21
545.9
 31
0.0
  0
LINE
  8
0
  6
CONTINUOUS
 62
     1
 10
1204.966666667
 20
550.6
 30
0.0
 11
1204.731282051
 21
549.030769231
 31
0.0
  0
LINE
  8
0
  6
CONTINUOUS
 62
     1
 10
1204.731282051
 20
549.030769231
 30
0.0
 11
1202.466666667
 21
546.2
 31
0.0
  0
LINE
  8
0
  6
CONTINUOUS
 62
     1
 10
1206.666666667
 20
548.6
 30
0.0
 11
1204.466666667
 21
545.9
 31
0.0
  0
LINE
  8
0
  6
CONTINUOUS
 62
     1
 10
1210.866666667
 20
546.2
 30
0.0
 11
1208.866666667
 21
545.9
 31
0.0
  0
LINE
  8
0
  6
CONTINUOUS
 62
     1
 10
1208.366666667
 20
550.6
 30
0.0
 11
1208.602051282
 21
549.030769231
 31
0.0
  0
LINE
  8
0
  6
CONTINUOUS
 62
     1
 10
1208.602051282
 20
549.030769231
 30
0.0
 11
1210.866666667
 21
546.2
 31
0.0
  0
LINE
  8
0
  6
CONTINUOUS
 62
     1
 10
1206.666666667
 20
548.6
 30
0.0
 11
1208.866666667
 21
545.9
 31
0.0
  0
LINE
  8
0
  6
LTYPE5
 62
     2
 10
1206.666666667
 20
538.0
 30
0.0
 11
1206.666666667
 21
588.0
 31
0.0
  0
LINE
  8
0
  6
LTYPE1
 62
     2
 10
1171.666666667
 20
538.0
 30
0.0
 11
1171.666666667
 21
588.0
 31
0.0
  0
LINE
  8
0
  6
CONTINUOUS
 62
     2
 10
1156.666666667
 20
370.8
 30
0.0
 11
1144.592593838
 21
374.035238064
 31
0.0
  0
LINE
  8
0
  6
CONTINUOUS
 62
     2
 10
1156.666666667
 20
370.8
 30
0.0
 11
1144.592593838
 21
367.564761936
 31
0.0
  0
LINE
  8
0
  6
CONTINUOUS
 62
     2
 10
1156.666666667
 20
370.8
 30
0.0
 11
1168.740739495
 21
367.564761936
 31
0.0
  0
LINE
  8
0
  6
CONTINUOUS
 62
     2
 10
1156.666666667
 20
370.8
 30
0.0
 11
1168.740739495
 21
374.035238064
 31
0.0
  0
LINE
  8
0
  6
CONTINUOUS
 62
     2
 10
1206.666666667
 20
370.8
 30
0.0
 11
1194.592593838
 21
374.035238064
 31
0.0
  0
LINE
  8
0
  6
CONTINUOUS
 62
     2
 10
1206.666666667
 20
370.8
 30
0.0
 11
1194.592593838
 21
367.564761936
 31
0.0
  0
LINE
  8
0
  6
CONTINUOUS
 62
     2
 10
1279.666666667
 20
538.0
 30
0.0
 11
1282.90190473
 21
550.074072829
 31
0.0
  0
LINE
  8
0
  6
CONTINUOUS
 62
     2
 10
1279.666666667
 20
538.0
 30
0.0
 11
1276.431428603
 21
550.074072829
 31
0.0
  0
LINE
  8
0
  6
CONTINUOUS
 62
     2
 10
1279.666666667
 20
538.0
 30
0.0
 11
1279.666666667
 21
588.0
 31
0.0
  0
LINE
  8
0
  6
CONTINUOUS
 62
     2
 10
1279.666666667
 20
588.0
 30
0.0
 11
1276.431428603
 21
575.925927171
 31
0.0
  0
LINE
  8
0
  6
CONTINUOUS
 62
     2
 10
1279.666666667
 20
588.0
 30
0.0
 11
1282.90190473
 21
575.925927171
 31
0.0
  0
LINE
  8
0
  6
CONTINUOUS
 62
     2
 10
1206.666666667
 20
335.7
 30
0.0
 11
1194.592593838
 21
338.935238064
 31
0.0
  0
LINE
  8
0
  6
CONTINUOUS
 62
     2
 10
1206.666666667
 20
335.7
 30
0.0
 11
1194.592593838
 21
332.464761936
 31
0.0
  0
LINE
  8
0
  6
CONTINUOUS
 62
     2
 10
1206.666666667
 20
377.8
 30
0.0
 11
1206.666666667
 21
328.2
 31
0.0
  0
LINE
  8
0
  6
CONTINUOUS
 62
     2
 10
1206.666666667
 20
538.0
 30
0.0
 11
1206.666666667
 21
377.8375
 31
0.0
  0
LINE
  8
0
  6
CONTINUOUS
 62
     2
 10
1206.666666667
 20
302.0375
 30
0.0
 11
1194.592593838
 21
305.272738064
 31
0.0
  0
LINE
  8
0
  6
CONTINUOUS
 62
     2
 10
1206.666666667
 20
302.0375
 30
0.0
 11
1194.592593838
 21
298.802261936
 31
0.0
  0
LINE
  8
0
  6
CONTINUOUS
 62
     2
 10
1206.666666667
 20
328.2
 30
0.0
 11
1206.666666667
 21
294.5375
 31
0.0
  0
LINE
  8
0
  6
CONTINUOUS
 62
     2
 10
1210.606676122
 20
573.2875
 30
0.0
 11
1216.889317791
 21
584.093906139
 31
0.0
  0
LINE
  8
0
  6
CONTINUOUS
 62
     2
 10
1210.606676122
 20
573.2875
 30
0.0
 11
1210.644400341
 21
585.787443075
 31
0.0
  0
LINE
  8
0
  6
CONTINUOUS
 62
     2
 10
1210.606676122
 20
573.2875
 30
0.0
 11
1226.606676122
 21
632.2875
 31
0.0
  0
TEXT
  8
0
  6
CONTINUOUS
 62
     2
 10
1185.306676122
 20
615.1875
 30
1.5
 40
15.0
  1
ｄ９
 50
0.0
 41
0.9
 51
0.0
  7
KANJI35
  0
LINE
  8
0
  6
CONTINUOUS
 62
     2
 10
1154.106676122
 20
632.2875
 30
0.0
 11
1226.606676122
 21
632.2875
 31
0.0
  0
LINE
  8
0
  6
LTYPE2
 62
     2
 10
1275.866666667
 20
507.0
 30
0.0
 11
1331.566666667
 21
507.0
 31
0.0
  0
LINE
  8
0
  6
LTYPE2
 62
     2
 10
1264.206676122
 20
507.0
 30
0.0
 11
1313.206676122
 21
507.0
 31
0.0
  0
LINE
  8
0
  6
CONTINUOUS
 62
     1
 10
1302.506676122
 20
520.85
 30
0.0
 11
1302.506676122
 21
493.15
 31
0.0
  0
LINE
  8
0
  6
CONTINUOUS
 62
     1
 10
1307.306676122
 20
513.9
 30
0.0
 11
1302.506676122
 21
513.9
 31
0.0
  0
LINE
  8
0
  6
CONTINUOUS
 62
     1
 10
1307.306676122
 20
500.1
 30
0.0
 11
1302.506676122
 21
500.1
 31
0.0
  0
LINE
  8
0
  6
CONTINUOUS
 62
     1
 10
1307.306676122
 20
493.15
 30
0.0
 11
1302.506676122
 21
493.15
 31
0.0
  0
LINE
  8
0
  6
CONTINUOUS
 62
     1
 10
1307.306676122
 20
520.85
 30
0.0
 11
1307.306676122
 21
493.15
 31
0.0
  0
LINE
  8
0
  6
CONTINUOUS
 62
     1
 10
1307.306676122
 20
520.85
 30
0.0
 11
1302.506676122
 21
520.85
 31
0.0
  0
LINE
  8
0
  6
CONTINUOUS
 62
     1
 10
1297.306676122
 20
521.65
 30
0.0
 11
1297.306676122
 21
492.35
 31
0.0
  0
LINE
  8
0
  6
CONTINUOUS
 62
     1
 10
1297.306676122
 20
521.65
 30
0.0
 11
1284.306676122
 21
521.65
 31
0.0
  0
ARC
  8
0
  6
CONTINUOUS
 62
     1
 10
1284.306676122
 20
519.65
 30
0.0
 40
2.0
 50
90.0
 51
180.0
  0
LINE
  8
0
  6
CONTINUOUS
 62
     1
 10
1297.306676122
 20
492.35
 30
0.0
 11
1284.306676122
 21
492.35
 31
0.0
  0
LINE
  8
0
  6
CONTINUOUS
 62
     1
 10
1282.306676122
 20
519.65
 30
0.0
 11
1282.306676122
 21
494.35
 31
0.0
  0
ARC
  8
0
  6
CONTINUOUS
 62
     1
 10
1284.306676122
 20
494.35
 30
0.0
 40
2.0
 50
180.0
 51
270.0
  0
LINE
  8
0
  6
CONTINUOUS
 62
     1
 10
1286.306676122
 20
494.35
 30
0.0
 11
1297.306676122
 21
494.35
 31
0.0
  0
LINE
  8
0
  6
CONTINUOUS
 62
     1
 10
1286.306676122
 20
503.25
 30
0.0
 11
1297.306676122
 21
503.25
 31
0.0
  0
LINE
  8
0
  6
CONTINUOUS
 62
     1
 10
1286.306676122
 20
499.15
 30
0.0
 11
1297.306676122
 21
499.15
 31
0.0
  0
LINE
  8
0
  6
CONTINUOUS
 62
     1
 10
1286.306676122
 20
499.15
 30
0.0
 11
1286.306676122
 21
494.35
 31
0.0
  0
LINE
  8
0
  6
CONTINUOUS
 62
     1
 10
1286.306676122
 20
507.0
 30
0.0
 11
1286.306676122
 21
503.25
 31
0.0
  0
LINE
  8
0
  6
CONTINUOUS
 62
     1
 10
1286.306676122
 20
519.65
 30
0.0
 11
1297.306676122
 21
519.65
 31
0.0
  0
LINE
  8
0
  6
CONTINUOUS
 62
     1
 10
1286.306676122
 20
510.75
 30
0.0
 11
1297.306676122
 21
510.75
 31
0.0
  0
LINE
  8
0
  6
CONTINUOUS
 62
     1
 10
1286.306676122
 20
514.85
 30
0.0
 11
1297.306676122
 21
514.85
 31
0.0
  0
LINE
  8
0
  6
CONTINUOUS
 62
     1
 10
1286.306676122
 20
514.85
 30
0.0
 11
1286.306676122
 21
519.65
 31
0.0
  0
LINE
  8
0
  6
CONTINUOUS
 62
     1
 10
1286.306676122
 20
507.0
 30
0.0
 11
1286.306676122
 21
510.75
 31
0.0
  0
LINE
  8
0
  6
CONTINUOUS
 62
     1
 10
1302.606676122
 20
494.3
 30
0.0
 11
1297.306676122
 21
494.3
 31
0.0
  0
LINE
  8
0
  6
CONTINUOUS
 62
     1
 10
1302.606676122
 20
495.1
 30
0.0
 11
1297.306676122
 21
495.1
 31
0.0
  0
LINE
  8
0
  6
CONTINUOUS
 62
     1
 10
1302.606676122
 20
519.7
 30
0.0
 11
1297.306676122
 21
519.7
 31
0.0
  0
LINE
  8
0
  6
CONTINUOUS
 62
     1
 10
1302.606676122
 20
518.9
 30
0.0
 11
1297.306676122
 21
518.9
 31
0.0
  0
ARC
  8
0
  6
CONTINUOUS
 62
     1
 10
1317.306676122
 20
483.3
 30
0.0
 40
10.0
 50
180.0
 51
214.508522988
  0
LINE
  8
0
  6
CONTINUOUS
 62
     1
 10
1337.306676122
 20
544.0
 30
0.0
 11
1368.766666667
 21
540.217241013
 31
0.0
  0
LINE
  8
0
  6
CONTINUOUS
 62
     1
 10
1154.166666667
 20
602.15
 30
0.0
 11
1144.166666667
 21
602.15
 31
0.0
  0
LINE
  8
0
  6
CONTINUOUS
 62
     1
 10
1154.166666667
 20
600.15
 30
0.0
 11
1154.166666667
 21
602.15
 31
0.0
  0
LINE
  8
0
  6
CONTINUOUS
 62
     1
 10
1144.166666667
 20
600.15
 30
0.0
 11
1144.166666667
 21
602.15
 31
0.0
  0
LINE
  8
0
  6
CONTINUOUS
 62
     1
 10
1154.166666667
 20
527.85
 30
0.0
 11
1144.166666667
 21
527.85
 31
0.0
  0
LINE
  8
0
  6
CONTINUOUS
 62
     1
 10
1154.166666667
 20
529.85
 30
0.0
 11
1154.166666667
 21
527.85
 31
0.0
  0
LINE
  8
0
  6
CONTINUOUS
 62
     1
 10
1144.166666667
 20
529.85
 30
0.0
 11
1144.166666667
 21
527.85
 31
0.0
  0
LINE
  8
0
  6
CONTINUOUS
 62
     1
 10
1156.666666667
 20
600.15
 30
0.0
 11
1141.666666667
 21
600.15
 31
0.0
  0
LINE
  8
0
  6
CONTINUOUS
 62
     1
 10
1156.666666667
 20
529.85
 30
0.0
 11
1156.666666667
 21
600.15
 31
0.0
  0
LINE
  8
0
  6
CONTINUOUS
 62
     1
 10
1156.666666667
 20
529.85
 30
0.0
 11
1141.666666667
 21
529.85
 31
0.0
  0
LINE
  8
0
  6
CONTINUOUS
 62
     1
 10
1340.306676122
 20
617.1
 30
0.0
 11
1340.306676122
 21
678.597465586
 31
0.0
  0
LINE
  8
0
  6
CONTINUOUS
 62
     1
 10
1341.313255354
 20
725.3
 30
0.0
 11
1317.306676122
 21
725.3
 31
0.0
  0
ARC
  8
0
  6
CONTINUOUS
 62
     1
 10
1417.306676122
 20
700.3
 30
0.0
 40
80.0
 50
110.364134806
 51
0.0
  0
LINE
  8
0
  6
CONTINUOUS
 62
     2
 10
1340.306676122
 20
399.475
 30
0.0
 11
1352.38074895
 21
396.239761936
 31
0.0
  0
LINE
  8
0
  6
CONTINUOUS
 62
     2
 10
1340.306676122
 20
399.475
 30
0.0
 11
1352.38074895
 21
402.710238064
 31
0.0
  0
LINE
  8
0
  6
CONTINUOUS
 62
     2
 10
1340.306676122
 20
399.475
 30
0.0
 11
1494.306676122
 21
399.475
 31
0.0
  0
LINE
  8
0
  6
CONTINUOUS
 62
     2
 10
1497.306676122
 20
362.5
 30
0.0
 11
1337.306676122
 21
362.5
 31
0.0
  0
LINE
  8
0
  6
CONTINUOUS
 62
     2
 10
1337.306676122
 20
362.5
 30
0.0
 11
1349.38074895
 21
359.264761936
 31
0.0
  0
LINE
  8
0
  6
CONTINUOUS
 62
     2
 10
1337.306676122
 20
362.5
 30
0.0
 11
1349.38074895
 21
365.735238064
 31
0.0
  0
LINE
  8
0
  6
CONTINUOUS
 62
     2
 10
1340.306676122
 20
486.5
 30
0.0
 11
1340.306676122
 21
393.875
 31
0.0
  0
LINE
  8
0
  6
CONTINUOUS
 62
     2
 10
1337.306676122
 20
536.5
 30
0.0
 11
1337.306676122
 21
355.775
 31
0.0
  0
ARC
  8
0
  6
CONTINUOUS
 62
     1
 10
1262.306676122
 20
496.5
 30
0.0
 40
6.0
 50
90.0
 51
180.0
  0
LINE
  8
0
  6
CONTINUOUS
 62
     1
 10
1256.306676122
 20
484.0
 30
0.0
 11
1256.306676122
 21
496.5
 31
0.0
  0
ARC
  8
0
  6
CONTINUOUS
 62
     1
 10
1262.306676122
 20
484.0
 30
0.0
 40
6.0
 50
180.0
 51
270.0
  0
ARC
  8
0
  6
CONTINUOUS
 62
     1
 10
1262.306676122
 20
484.0
 30
0.0
 40
15.0
 50
180.0
 51
270.0
  0
ARC
  8
0
  6
CONTINUOUS
 62
     1
 10
1262.306676122
 20
496.5
 30
0.0
 40
15.0
 50
90.0
 51
180.0
  0
LINE
  8
0
  6
CONTINUOUS
 62
     1
 10
1247.306676122
 20
484.0
 30
0.0
 11
1247.306676122
 21
496.5
 31
0.0
  0
ARC
  8
0
  6
LTYPE2
 62
     2
 10
1262.306676122
 20
484.0
 30
0.0
 40
10.5
 50
180.0
 51
270.0
  0
LINE
  8
0
  6
LTYPE2
 62
     2
 10
1251.806676122
 20
484.0
 30
0.0
 11
1251.806676122
 21
496.5
 31
0.0
  0
ARC
  8
0
  6
LTYPE2
 62
     2
 10
1262.306676122
 20
496.5
 30
0.0
 40
10.5
 50
90.0
 51
180.0
  0
LINE
  8
0
  6
CONTINUOUS
 62
     1
 10
1282.306676122
 20
511.5
 30
0.0
 11
1262.306676122
 21
511.5
 31
0.0
  0
LINE
  8
0
  6
CONTINUOUS
 62
     1
 10
1282.306676122
 20
502.5
 30
0.0
 11
1262.306676122
 21
502.5
 31
0.0
  0
LINE
  8
0
  6
CONTINUOUS
 62
     1
 10
1342.706676122
 20
478.0
 30
0.0
 11
1262.306676122
 21
478.0
 31
0.0
  0
LINE
  8
0
  6
CONTINUOUS
 62
     1
 10
1366.306676122
 20
469.0
 30
0.0
 11
1262.306676122
 21
469.0
 31
0.0
  0
LINE
  8
0
  6
LTYPE2
 62
     2
 10
1366.306676122
 20
473.5
 30
0.0
 11
1262.306676122
 21
473.5
 31
0.0
  0
LINE
  8
2
  6
CONTINUOUS
 62
     2
 10
1307.306676122
 20
478.300015259
 30
0.0
 11
1307.306676122
 21
428.5
 31
0.0
  0
LINE
  8
2
  6
CONTINUOUS
 62
     2
 10
1307.306676122
 20
433.5
 30
0.0
 11
1295.232603293
 21
436.735238064
 31
0.0
  0
LINE
  8
2
  6
CONTINUOUS
 62
     2
 10
1307.306676122
 20
433.5
 30
0.0
 11
1295.232603293
 21
430.264761936
 31
0.0
  0
LINE
  8
2
  6
CONTINUOUS
 62
     2
 10
1307.306676122
 20
433.5
 30
0.0
 11
1247.306676122
 21
433.5
 31
0.0
  0
LINE
  8
2
  6
CONTINUOUS
 62
     2
 10
1247.306676122
 20
433.5
 30
0.0
 11
1259.38074895
 21
430.264761936
 31
0.0
  0
LINE
  8
2
  6
CONTINUOUS
 62
     2
 10
1247.306676122
 20
433.5
 30
0.0
 11
1259.38074895
 21
436.735238064
 31
0.0
  0
LINE
  8
2
  6
CONTINUOUS
 62
     2
 10
1247.306676122
 20
479.000018688
 30
0.0
 11
1247.306676122
 21
428.5
 31
0.0
  0
LINE
  8
0
  6
CONTINUOUS
 62
     1
 10
1444.806676122
 20
590.0
 30
0.0
 11
1429.806676122
 21
590.0
 31
0.0
  0
LINE
  8
0
  6
CONTINUOUS
 62
     1
 10
1449.306676122
 20
543.0
 30
0.0
 11
1449.306676122
 21
587.0
 31
0.0
  0
LINE
  8
0
  6
CONTINUOUS
 62
     1
 10
1455.306676122
 20
577.5
 30
0.0
 11
1449.306676122
 21
577.5
 31
0.0
  0
LINE
  8
0
  6
CONTINUOUS
 62
     1
 10
1455.306676122
 20
552.5
 30
0.0
 11
1449.306676122
 21
552.5
 31
0.0
  0
LINE
  8
0
  6
CONTINUOUS
 62
     1
 10
1449.306676122
 20
587.0
 30
0.0
 11
1444.806676122
 21
587.0
 31
0.0
  0
LINE
  8
0
  6
CONTINUOUS
 62
     1
 10
1449.306676122
 20
543.0
 30
0.0
 11
1444.806676122
 21
543.0
 31
0.0
  0
CIRCLE
  8
0
  6
CONTINUOUS
 62
     1
 10
1451.306676122
 20
565.0
 30
0.0
 40
2.0
  0
LINE
  8
0
  6
CONTINUOUS
 62
     1
 10
1385.306676122
 20
543.0
 30
0.0
 11
1385.306676122
 21
587.0
 31
0.0
  0
LINE
  8
0
  6
CONTINUOUS
 62
     1
 10
1379.306676122
 20
552.5
 30
0.0
 11
1379.306676122
 21
577.5
 31
0.0
  0
LINE
  8
0
  6
CONTINUOUS
 62
     1
 10
1379.306676122
 20
577.5
 30
0.0
 11
1385.306676122
 21
577.5
 31
0.0
  0
LINE
  8
0
  6
CONTINUOUS
 62
     1
 10
1379.306676122
 20
552.5
 30
0.0
 11
1385.306676122
 21
552.5
 31
0.0
  0
LINE
  8
0
  6
CONTINUOUS
 62
     1
 10
1385.306676122
 20
587.0
 30
0.0
 11
1389.806676122
 21
587.0
 31
0.0
  0
LINE
  8
0
  6
CONTINUOUS
 62
     1
 10
1385.306676122
 20
543.0
 30
0.0
 11
1389.806676122
 21
543.0
 31
0.0
  0
CIRCLE
  8
0
  6
CONTINUOUS
 62
     1
 10
1383.306676122
 20
565.0
 30
0.0
 40
2.0
  0
LINE
  8
0
  6
CONTINUOUS
 62
     1
 10
1404.806676122
 20
552.5
 30
0.0
 11
1429.806676122
 21
552.5
 31
0.0
  0
LINE
  8
0
  6
CONTINUOUS
 62
     1
 10
1404.806676122
 20
577.5
 30
0.0
 11
1429.806676122
 21
577.5
 31
0.0
  0
LINE
  8
0
  6
CONTINUOUS
 62
     1
 10
1389.806676122
 20
590.0
 30
0.0
 11
1429.806676122
 21
590.0
 31
0.0
  0
LINE
  8
0
  6
CONTINUOUS
 62
     1
 10
1444.806676122
 20
540.0
 30
0.0
 11
1444.806676122
 21
590.0
 31
0.0
  0
LINE
  8
0
  6
CONTINUOUS
 62
     1
 10
1389.806676122
 20
540.0
 30
0.0
 11
1444.806676122
 21
540.0
 31
0.0
  0
LINE
  8
0
  6
CONTINUOUS
 62
     1
 10
1429.806676122
 20
540.0
 30
0.0
 11
1429.806676122
 21
590.0
 31
0.0
  0
LINE
  8
0
  6
CONTINUOUS
 62
     1
 10
1404.806676122
 20
540.0
 30
0.0
 11
1404.806676122
 21
590.0
 31
0.0
  0
LINE
  8
0
  6
CONTINUOUS
 62
     1
 10
1389.806676122
 20
540.0
 30
0.0
 11
1389.806676122
 21
590.0
 31
0.0
  0
ARC
  8
0
  6
CONTINUOUS
 62
     1
 10
1369.306676122
 20
502.5
 30
0.0
 40
3.0
 50
90.0
 51
180.0
  0
LINE
  8
0
  6
CONTINUOUS
 62
     1
 10
1366.306676122
 20
456.0
 30
0.0
 11
1366.306676122
 21
502.5
 31
0.0
  0
ARC
  8
0
  6
CONTINUOUS
 62
     1
 10
1367.306676122
 20
456.0
 30
0.0
 40
1.0
 50
180.0
 51
270.0
  0
ARC
  8
0
  6
CONTINUOUS
 62
     1
 10
1370.306676122
 20
455.0
 30
0.0
 40
1.0
 50
180.0
 51
270.0
  0
LINE
  8
0
  6
CONTINUOUS
 62
     1
 10
1468.306676122
 20
461.0
 30
0.0
 11
1366.306676122
 21
461.0
 31
0.0
  0
LINE
  8
0
  6
CONTINUOUS
 62
     1
 10
1468.306676122
 20
462.5
 30
0.0
 11
1366.306676122
 21
462.5
 31
0.0
  0
LINE
  8
0
  6
CONTINUOUS
 62
     1
 10
1369.306676122
 20
505.5
 30
0.0
 11
1465.306676122
 21
505.5
 31
0.0
  0
LINE
  8
0
  6
CONTINUOUS
 62
     1
 10
1464.306676122
 20
454.0
 30
0.0
 11
1370.306676122
 21
454.0
 31
0.0
  0
LINE
  8
0
  6
CONTINUOUS
 62
     1
 10
1467.306676122
 20
455.0
 30
0.0
 11
1367.306676122
 21
455.0
 31
0.0
  0
LINE
  8
0
  6
CONTINUOUS
 62
     1
 10
1372.306676122
 20
507.0
 30
0.0
 11
1462.306676122
 21
507.0
 31
0.0
  0
ARC
  8
0
  6
CONTINUOUS
 62
     1
 10
1363.306676122
 20
619.0
 30
0.0
 40
5.0
 50
90.0
 51
180.0
  0
ARC
  8
0
  6
CONTINUOUS
 62
     1
 10
1363.306676122
 20
511.0
 30
0.0
 40
5.0
 50
180.0
 51
270.0
  0
LINE
  8
0
  6
CONTINUOUS
 62
     1
 10
1358.306676122
 20
541.474953509
 30
0.0
 11
1358.306676122
 21
511.0
 31
0.0
  0
LINE
  8
0
  6
CONTINUOUS
 62
     1
 10
1417.306676122
 20
624.0
 30
0.0
 11
1471.306676122
 21
624.0
 31
0.0
  0
LINE
  8
0
  6
CONTINUOUS
 62
     1
 10
1372.306676122
 20
506.0
 30
0.0
 11
1363.306676122
 21
506.0
 31
0.0
  0
ARC
  8
0
  6
CONTINUOUS
 62
     1
 10
1370.306676122
 20
518.0
 30
0.0
 40
9.0
 50
77.327684064
 51
282.116861929
  0
LINE
  8
0
  6
CONTINUOUS
 62
     1
 10
1346.306676122
 20
488.0
 30
0.0
 11
1366.306676122
 21
488.0
 31
0.0
  0
LINE
  8
0
  6
LTYPE5
 62
     2
 10
1451.206676122
 20
561.0
 30
0.0
 11
1451.206676122
 21
569.2
 31
0.0
  0
LINE
  8
0
  6
LTYPE1
 62
     2
 10
1449.306676122
 20
577.5
 30
0.0
 11
1429.806676122
 21
577.5
 31
0.0
  0
LINE
  8
0
  6
LTYPE1
 62
     2
 10
1449.306676122
 20
552.5
 30
0.0
 11
1429.806676122
 21
552.5
 31
0.0
  0
LINE
  8
0
  6
LTYPE5
 62
     2
 10
1383.406676122
 20
561.0
 30
0.0
 11
1383.406676122
 21
569.2
 31
0.0
  0
LINE
  8
0
  6
LTYPE1
 62
     2
 10
1385.306676122
 20
577.5
 30
0.0
 11
1404.806676122
 21
577.5
 31
0.0
  0
LINE
  8
0
  6
LTYPE1
 62
     2
 10
1385.306676122
 20
552.5
 30
0.0
 11
1404.806676122
 21
552.5
 31
0.0
  0
LINE
  8
0
  6
LTYPE1
 62
     2
 10
1362.306676122
 20
555.0
 30
0.0
 11
1362.306676122
 21
575.0
 31
0.0
  0
LINE
  8
0
  6
LTYPE3
 62
     2
 10
1372.306676122
 20
450.3
 30
0.0
 11
1372.306676122
 21
469.0
 31
0.0
  0
LINE
  8
0
  6
LTYPE3
 62
     2
 10
1382.706676122
 20
612.0
 30
0.0
 11
1358.906676122
 21
612.0
 31
0.0
  0
LINE
  8
0
  6
LTYPE3
 62
     2
 10
1370.306676122
 20
600.665527109
 30
0.0
 11
1370.306676122
 21
622.765527109
 31
0.0
  0
LINE
  8
0
  6
LTYPE3
 62
     2
 10
1451.906676122
 20
612.0
 30
0.0
 11
1475.706676122
 21
612.0
 31
0.0
  0
LINE
  8
0
  6
LTYPE3
 62
     2
 10
1451.906676122
 20
518.0
 30
0.0
 11
1475.706676122
 21
518.0
 31
0.0
  0
LINE
  8
0
  6
LTYPE3
 62
     2
 10
1382.706676122
 20
518.0
 30
0.0
 11
1358.906676122
 21
518.0
 31
0.0
  0
LINE
  8
0
  6
LTYPE3
 62
     2
 10
1370.306676122
 20
508.15
 30
0.0
 11
1370.306676122
 21
531.25
 31
0.0
  0
LINE
  8
0
  6
LTYPE3
 62
     2
 10
1451.906676122
 20
518.0
 30
0.0
 11
1475.706676122
 21
518.0
 31
0.0
  0
LINE
  8
0
  6
LTYPE3
 62
     2
 10
1411.706676122
 20
700.3
 30
0.0
 11
1423.706676122
 21
700.3
 31
0.0
  0
LINE
  8
0
  6
CONTINUOUS
 62
     1
 10
1372.306676122
 20
505.5
 30
0.0
 11
1372.306676122
 21
533.2
 31
0.0
  0
ARC
  8
0
  6
CONTINUOUS
 62
     1
 10
1370.306676122
 20
612.0
 30
0.0
 40
9.0
 50
23.286064918
 51
152.850318302
  0
LINE
  8
0
  6
CONTINUOUS
 62
     1
 10
1358.306676122
 20
616.2
 30
0.0
 11
1358.306676122
 21
619.0
 31
0.0
  0
LINE
  8
0
  6
CONTINUOUS
 62
     1
 10
1358.306676122
 20
588.525046491
 30
0.0
 11
1358.306676122
 21
616.2
 31
0.0
  0
ARC
  8
0
  6
CONTINUOUS
 62
     1
 10
1370.306676122
 20
612.0
 30
0.0
 40
9.0
 50
152.850318302
 51
0.0
  0
ARC
  8
0
  6
CONTINUOUS
 62
     1
 10
1370.306676122
 20
612.0
 30
0.0
 40
9.0
 50
0.0
 51
23.286064918
  0
CIRCLE
  8
0
  6
LTYPE1
 62
     2
 10
1417.306676122
 20
479.5
 30
0.0
 40
10.4775
  0
CIRCLE
  8
0
  6
LTYPE1
 62
     2
 10
1417.306676122
 20
479.5
 30
0.0
 40
9.3155
  0
LINE
  8
0
  6
LTYPE2
 62
     2
 10
1437.206676122
 20
479.5
 30
0.0
 11
1396.506676122
 21
479.5
 31
0.0
  0
LINE
  8
0
  6
CONTINUOUS
 62
     1
 10
1343.306676122
 20
478.0
 30
0.0
 11
1366.306676122
 21
478.0
 31
0.0
  0
CIRCLE
  8
0
  6
CONTINUOUS
 62
     1
 10
1417.306676122
 20
565.0
 30
0.0
 40
55.0
  0
LINE
  8
0
  6
LTYPE3
 62
     2
 10
1417.306676122
 20
815.3
 30
0.0
 11
1417.306676122
 21
746.3
 31
0.0
  0
LINE
  8
0
  6
CONTINUOUS
 62
     1
 10
1447.306676122
 20
775.3
 30
0.0
 11
1447.306676122
 21
778.3
 31
0.0
  0
ARC
  8
0
  6
CONTINUOUS
 62
     1
 10
1443.306676122
 20
772.3
 30
0.0
 40
3.0
 50
90.0
 51
180.0
  0
LINE
  8
0
  6
CONTINUOUS
 62
     1
 10
1440.306676122
 20
761.453619242
 30
0.0
 11
1440.306676122
 21
772.3
 31
0.0
  0
ARC
  8
0
  6
CONTINUOUS
 62
     1
 10
1436.306676122
 20
761.453619242
 30
0.0
 40
4.0
 50
304.936144888
 51
0.0
  0
ARC
  8
0
  6
CONTINUOUS
 62
     1
 10
1391.306676122
 20
772.3
 30
0.0
 40
3.0
 50
0.0
 51
90.0
  0
LINE
  8
0
  6
CONTINUOUS
 62
     1
 10
1394.306676122
 20
761.453619242
 30
0.0
 11
1394.306676122
 21
772.3
 31
0.0
  0
ARC
  8
0
  6
CONTINUOUS
 62
     1
 10
1398.306676122
 20
761.453619242
 30
0.0
 40
4.0
 50
180.0
 51
235.063855112
  0
CIRCLE
  8
0
  6
CONTINUOUS
 62
     1
 10
1417.306676122
 20
800.3
 30
0.0
 40
17.0
  0
LINE
  8
0
  6
LTYPE2
 62
     2
 10
1394.306676122
 20
800.3
 30
0.0
 11
1440.306676122
 21
800.3
 31
0.0
  0
ARC
  8
0
  6
CONTINUOUS
 62
     1
 10
1375.306676122
 20
822.320045888
 30
0.0
 40
2.0
 50
90.0
 51
180.0
  0
ARC
  8
0
  6
CONTINUOUS
 62
     1
 10
1383.306676122
 20
828.3
 30
0.0
 40
2.0
 50
90.0
 51
180.0
  0
LINE
  8
0
  6
CONTINUOUS
 62
     1
 10
1383.306676122
 20
830.3
 30
0.0
 11
1451.306676122
 21
830.3
 31
0.0
  0
ARC
  8
0
  6
CONTINUOUS
 62
     1
 10
1451.306676122
 20
828.3
 30
0.0
 40
2.0
 50
0.0
 51
90.0
  0
LINE
  8
0
  6
CONTINUOUS
 62
     1
 10
1459.306676122
 20
824.320045888
 30
0.0
 11
1375.306676122
 21
824.320045888
 31
0.0
  0
ARC
  8
0
  6
CONTINUOUS
 62
     1
 10
1375.306676122
 20
826.320045888
 30
0.0
 40
2.0
 50
90.0
 51
180.0
  0
ARC
  8
0
  6
CONTINUOUS
 62
     1
 10
1383.306676122
 20
819.3
 30
0.0
 40
2.0
 50
90.0
 51
180.0
  0
LINE
  8
0
  6
CONTINUOUS
 62
     1
 10
1383.306676122
 20
821.3
 30
0.0
 11
1451.306676122
 21
821.3
 31
0.0
  0
ARC
  8
0
  6
CONTINUOUS
 62
     1
 10
1451.306676122
 20
819.3
 30
0.0
 40
2.0
 50
0.0
 51
90.0
  0
LINE
  8
0
  6
CONTINUOUS
 62
     1
 10
1459.306676122
 20
828.320045888
 30
0.0
 11
1375.306676122
 21
828.320045888
 31
0.0
  0
LINE
  8
0
  6
CONTINUOUS
 62
     1
 10
1387.306676122
 20
775.3
 30
0.0
 11
1447.306676122
 21
775.3
 31
0.0
  0
LINE
  8
0
  6
CONTINUOUS
 62
     1
 10
1387.306676122
 20
775.3
 30
0.0
 11
1387.306676122
 21
778.3
 31
0.0
  0
ARC
  8
0
  6
CONTINUOUS
 62
     1
 10
1451.306676122
 20
780.3
 30
0.0
 40
2.0
 50
270.0
 51
0.0
  0
LINE
  8
0
  6
CONTINUOUS
 62
     1
 10
1381.306676122
 20
780.3
 30
0.0
 11
1381.306676122
 21
819.3
 31
0.0
  0
LINE
  8
0
  6
CONTINUOUS
 62
     1
 10
1383.306676122
 20
778.3
 30
0.0
 11
1451.306676122
 21
778.3
 31
0.0
  0
ARC
  8
0
  6
CONTINUOUS
 62
     1
 10
1383.306676122
 20
780.3
 30
0.0
 40
2.0
 50
180.0
 51
270.0
  0
LINE
  8
0
  6
CONTINUOUS
 62
     1
 10
1381.306676122
 20
780.3
 30
0.0
 11
1375.306676122
 21
780.3
 31
0.0
  0
LINE
  8
0
  6
CONTINUOUS
 62
     1
 10
1373.306676122
 20
782.3
 30
0.0
 11
1373.306676122
 21
826.320045888
 31
0.0
  0
ARC
  8
0
  6
CONTINUOUS
 62
     1
 10
1375.306676122
 20
782.3
 30
0.0
 40
2.0
 50
180.0
 51
270.0
  0
CIRCLE
  8
0
  6
CONTINUOUS
 62
     2
 10
1417.306676122
 20
800.3
 30
0.0
 40
15.0
  0
CIRCLE
  8
0
  6
CONTINUOUS
 62
     1
 10
1417.306676122
 20
700.3
 30
0.0
 40
63.5
  0
ARC
  8
0
  6
CONTINUOUS
 62
     1
 10
1432.294671318
 20
745.9
 30
0.0
 40
8.0
 50
200.487315115
 51
251.805127661
  0
ARC
  8
0
  6
CONTINUOUS
 62
     1
 10
1402.318680926
 20
745.9
 30
0.0
 40
8.0
 50
288.194872339
 51
339.512684885
  0
ARC
  8
0
  6
CONTINUOUS
 62
     1
 10
1417.306676122
 20
740.3
 30
0.0
 40
8.0
 50
20.487315115
 51
159.512540111
  0
ARC
  8
0
  6
CONTINUOUS
 62
     1
 10
1432.294671318
 20
654.7
 30
0.0
 40
8.0
 50
108.194872339
 51
159.512684885
  0
ARC
  8
0
  6
CONTINUOUS
 62
     1
 10
1402.318680926
 20
654.7
 30
0.0
 40
8.0
 50
20.487315115
 51
71.805127661
  0
ARC
  8
0
  6
CONTINUOUS
 62
     1
 10
1417.306676122
 20
660.3
 30
0.0
 40
8.0
 50
200.487459889
 51
339.512684885
  0
ARC
  8
0
  6
CONTINUOUS
 62
     1
 10
1417.306676122
 20
700.3
 30
0.0
 40
40.0
 50
108.194872339
 51
251.805127661
  0
CIRCLE
  8
0
  6
CONTINUOUS
 62
     1
 10
1417.306676122
 20
700.3
 30
0.0
 40
23.0
  0
ARC
  8
0
  6
CONTINUOUS
 62
     1
 10
1417.306676122
 20
700.3
 30
0.0
 40
40.0
 50
25.554707728
 51
71.805142343
  0
ARC
  8
0
  6
CONTINUOUS
 62
     1
 10
1417.306676122
 20
700.3
 30
0.0
 40
40.0
 50
288.194857657
 51
334.445306215
  0
LINE
  8
0
  6
CONTINUOUS
 62
     1
 10
1419.656676122
 20
747.370319398
 30
0.0
 11
1414.956676122
 21
747.370319398
 31
0.0
  0
LINE
  8
0
  6
CONTINUOUS
 62
     1
 10
1414.956676122
 20
747.370319398
 30
0.0
 11
1412.606676122
 21
743.3
 31
0.0
  0
LINE
  8
0
  6
CONTINUOUS
 62
     1
 10
1412.606676122
 20
743.3
 30
0.0
 11
1414.956676122
 21
739.229680602
 31
0.0
  0
LINE
  8
0
  6
CONTINUOUS
 62
     1
 10
1414.956676122
 20
739.229680602
 30
0.0
 11
1419.656676122
 21
739.229680602
 31
0.0
  0
LINE
  8
0
  6
CONTINUOUS
 62
     1
 10
1419.656676122
 20
739.229680602
 30
0.0
 11
1422.006676122
 21
743.3
 31
0.0
  0
LINE
  8
0
  6
CONTINUOUS
 62
     1
 10
1422.006676122
 20
743.3
 30
0.0
 11
1419.656676122
 21
747.370319398
 31
0.0
  0
LINE
  8
0
  6
CONTINUOUS
 62
     2
 10
1423.306676122
 20
743.3
 30
0.0
 11
1411.306676122
 21
743.3
 31
0.0
  0
LINE
  8
0
  6
CONTINUOUS
 62
     1
 10
1419.656676122
 20
653.229680602
 30
0.0
 11
1414.956676122
 21
653.229680602
 31
0.0
  0
LINE
  8
0
  6
CONTINUOUS
 62
     1
 10
1414.956676122
 20
653.229680602
 30
0.0
 11
1412.606676122
 21
657.3
 31
0.0
  0
LINE
  8
0
  6
CONTINUOUS
 62
     1
 10
1412.606676122
 20
657.3
 30
0.0
 11
1414.956676122
 21
661.370319398
 31
0.0
  0
LINE
  8
0
  6
CONTINUOUS
 62
     1
 10
1414.956676122
 20
661.370319398
 30
0.0
 11
1419.656676122
 21
661.370319398
 31
0.0
  0
LINE
  8
0
  6
CONTINUOUS
 62
     1
 10
1419.656676122
 20
661.370319398
 30
0.0
 11
1422.006676122
 21
657.3
 31
0.0
  0
LINE
  8
0
  6
CONTINUOUS
 62
     1
 10
1422.006676122
 20
657.3
 30
0.0
 11
1419.656676122
 21
653.229680602
 31
0.0
  0
LINE
  8
0
  6
CONTINUOUS
 62
     2
 10
1423.306676122
 20
657.3
 30
0.0
 11
1411.306676122
 21
657.3
 31
0.0
  0
LINE
  8
0
  6
CONTINUOUS
 62
     1
 10
1412.37033132
 20
703.15
 30
0.0
 11
1412.37033132
 21
697.45
 31
0.0
  0
LINE
  8
0
  6
CONTINUOUS
 62
     1
 10
1412.37033132
 20
697.45
 30
0.0
 11
1417.306676122
 21
694.6
 31
0.0
  0
LINE
  8
0
  6
CONTINUOUS
 62
     1
 10
1417.306676122
 20
694.6
 30
0.0
 11
1422.243020923
 21
697.45
 31
0.0
  0
LINE
  8
0
  6
CONTINUOUS
 62
     1
 10
1422.243020923
 20
697.45
 30
0.0
 11
1422.243020923
 21
703.15
 31
0.0
  0
LINE
  8
0
  6
CONTINUOUS
 62
     1
 10
1422.243020923
 20
703.15
 30
0.0
 11
1417.306676122
 21
706.0
 31
0.0
  0
LINE
  8
0
  6
CONTINUOUS
 62
     1
 10
1417.306676122
 20
706.0
 30
0.0
 11
1412.37033132
 21
703.15
 31
0.0
  0
CIRCLE
  8
0
  6
CONTINUOUS
 62
     1
 10
1417.306676122
 20
700.3
 30
0.0
 40
6.5
  0
LINE
  8
0
  6
CONTINUOUS
 62
     1
 10
1375.094735345
 20
752.757131306
 30
0.0
 11
1367.594735345
 21
752.757131306
 31
0.0
  0
LINE
  8
0
  6
CONTINUOUS
 62
     1
 10
1367.594735345
 20
752.757131306
 30
0.0
 11
1363.844735345
 21
746.261940777
 31
0.0
  0
LINE
  8
0
  6
CONTINUOUS
 62
     1
 10
1363.844735345
 20
746.261940777
 30
0.0
 11
1367.594735345
 21
739.766750249
 31
0.0
  0
LINE
  8
0
  6
CONTINUOUS
 62
     1
 10
1377.035094384
 20
749.396330864
 30
0.0
 11
1375.094735345
 21
752.757131306
 31
0.0
  0
LINE
  8
0
  6
LTYPE1
 62
     1
 10
1375.094735345
 20
739.766750249
 30
0.0
 11
1378.844735345
 21
746.261940777
 31
0.0
  0
LINE
  8
0
  6
LTYPE1
 62
     1
 10
1378.844735345
 20
746.261940777
 30
0.0
 11
1377.035094384
 21
749.396330864
 31
0.0
  0
LINE
  8
0
  6
LTYPE1
 62
     1
 10
1367.594735345
 20
739.766750249
 30
0.0
 11
1375.094735345
 21
739.766750249
 31
0.0
  0
ARC
  8
0
  6
LTYPE2
 62
     2
 10
1417.306676122
 20
700.3
 30
0.0
 40
65.0
 50
125.31362776
 51
144.542425518
  0
LINE
  8
0
  6
LTYPE2
 62
     2
 10
1378.210345257
 20
739.396330864
 30
0.0
 11
1365.306676122
 21
752.3
 31
0.0
  0
LINE
  8
0
  6
CONTINUOUS
 62
     1
 10
1375.094735345
 20
647.842868694
 30
0.0
 11
1367.594735345
 21
647.842868694
 31
0.0
  0
LINE
  8
0
  6
CONTINUOUS
 62
     1
 10
1367.594735345
 20
647.842868694
 30
0.0
 11
1363.844735345
 21
654.338059223
 31
0.0
  0
LINE
  8
0
  6
CONTINUOUS
 62
     1
 10
1363.844735345
 20
654.338059223
 30
0.0
 11
1367.594735345
 21
660.833249751
 31
0.0
  0
LINE
  8
0
  6
CONTINUOUS
 62
     1
 10
1377.035094384
 20
651.203669136
 30
0.0
 11
1375.094735345
 21
647.842868694
 31
0.0
  0
LINE
  8
0
  6
LTYPE1
 62
     1
 10
1375.094735345
 20
660.833249751
 30
0.0
 11
1378.844735345
 21
654.338059223
 31
0.0
  0
LINE
  8
0
  6
LTYPE1
 62
     1
 10
1378.844735345
 20
654.338059223
 30
0.0
 11
1377.035094384
 21
651.203669136
 31
0.0
  0
LINE
  8
0
  6
LTYPE1
 62
     1
 10
1367.594735345
 20
660.833249751
 30
0.0
 11
1375.094735345
 21
660.833249751
 31
0.0
  0
ARC
  8
0
  6
LTYPE2
 62
     2
 10
1417.306676122
 20
700.3
 30
0.0
 40
65.0
 50
215.457574482
 51
234.68637224
  0
LINE
  8
0
  6
LTYPE2
 62
     2
 10
1378.210345257
 20
661.203669136
 30
0.0
 11
1365.306676122
 21
648.3
 31
0.0
  0
ARC
  8
0
  6
CONTINUOUS
 62
     1
 10
1417.306676122
 20
700.3
 30
0.0
 40
80.0
 50
0.0
 51
69.635865194
  0
ARC
  8
0
  6
LTYPE1
 62
     1
 10
1417.306676122
 20
700.3
 30
0.0
 40
80.0
 50
69.635865194
 51
110.364134806
  0
LINE
  8
0
  6
CONTINUOUS
 62
     1
 10
1393.258599276
 20
624.0
 30
0.0
 11
1363.306676122
 21
624.0
 31
0.0
  0
LINE
  8
0
  6
LTYPE3
 62
     2
 10
1417.306676122
 20
815.3
 30
0.0
 11
1417.306676122
 21
446.5
 31
0.0
  0
TEXT
  8
0
  6
CONTINUOUS
 62
     2
 10
1125.416666667
 20
695.5
 30
0.0
 40
18.0
  1
１５
 50
0.0
 41
0.9
 51
0.0
  7
KANJI26
  0
TEXT
  8
0
  6
CONTINUOUS
 62
     2
 10
1174.916666667
 20
695.5
 30
0.0
 40
18.0
  1
３５
 50
0.0
 41
0.9
 51
0.0
  7
KANJI26
  0
TEXT
  8
0
  6
CONTINUOUS
 62
     2
 10
1260.516666667
 20
799.25
 30
0.0
 40
18.0
  1
２５
 50
90.0
 41
0.9
 51
0.0
  7
KANJI26
  0
TEXT
  8
0
  6
CONTINUOUS
 62
     2
 10
1290.516666667
 20
753.75
 30
0.0
 40
18.0
  1
５５
 50
90.0
 41
0.9
 51
0.0
  7
KANJI26
  0
TEXT
  8
0
  6
CONTINUOUS
 62
     2
 10
1274.666666667
 20
549.25
 30
0.0
 40
18.0
  1
５０
 50
90.0
 41
0.9
 51
0.0
  7
KANJI26
  0
TEXT
  8
2
  6
CONTINUOUS
 62
     2
 10
1261.556676122
 20
438.5
 30
0.0
 40
18.0
  1
６０
 50
0.0
 41
0.9
 51
0.0
  7
KANJI26
  0
TEXT
  8
0
  6
CONTINUOUS
 62
     2
 10
1167.916666667
 20
375.8
 30
0.0
 40
18.0
  1
５０
 50
0.0
 41
0.9
 51
0.0
  7
KANJI26
  0
TEXT
  8
0
  6
CONTINUOUS
 62
     2
 10
1395.556676122
 20
404.475
 30
0.0
 40
18.0
  1
１５４
 50
0.0
 41
0.9
 51
0.0
  7
KANJI26
  0
TEXT
  8
0
  6
CONTINUOUS
 62
     2
 10
1395.556676122
 20
367.5
 30
0.0
 40
18.0
  1
１６０
 50
0.0
 41
0.9
 51
0.0
  7
KANJI26
  0
LINE
  8
2
  6
CONTINUOUS
 62
     2
 10
1206.666666667
 20
693.5
 30
0.0
 11
1206.666666667
 21
684.5
 31
0.0
  0
LINE
  8
2
  6
CONTINUOUS
 62
     2
 10
1206.666666667
 20
690.5
 30
0.0
 11
1192.177779272
 21
694.382285677
 31
0.0
  0
LINE
  8
2
  6
CONTINUOUS
 62
     2
 10
1206.666666667
 20
690.5
 30
0.0
 11
1192.177779272
 21
686.617714323
 31
0.0
  0
LINE
  8
2
  6
CONTINUOUS
 62
     2
 10
1184.166666667
 20
690.5
 30
0.0
 11
1206.666666667
 21
690.5
 31
0.0
  0
LINE
  8
2
  6
CONTINUOUS
 62
     2
 10
1206.666666667
 20
690.5
 30
0.0
 11
1231.666666667
 21
690.5
 31
0.0
  0
LINE
  8
2
  6
CONTINUOUS
 62
     2
 10
1231.666666667
 20
690.5
 30
0.0
 11
1286.566666667
 21
690.5
 31
0.0
  0
LINE
  8
2
  6
CONTINUOUS
 62
     2
 10
1231.666666667
 20
690.5
 30
0.0
 11
1246.155554061
 21
686.617714323
 31
0.0
  0
LINE
  8
2
  6
CONTINUOUS
 62
     2
 10
1231.666666667
 20
690.5
 30
0.0
 11
1246.155554061
 21
694.382285677
 31
0.0
  0
LINE
  8
2
  6
CONTINUOUS
 62
     2
 10
1231.666666667
 20
734.5
 30
0.0
 11
1231.666666667
 21
684.5
 31
0.0
  0
TEXT
  8
2
  6
CONTINUOUS
 62
     3
 10
1254.166666667
 20
696.5
 30
0.0
 40
18.0
  1
２５
 50
0.0
 41
0.9
 51
0.0
  7
KANJI26
  0
LINE
  8
0
  6
LTYPE2
 62
     2
 10
1327.606676122
 20
700.3
 30
0.0
 11
1531.666666667
 21
700.3
 31
0.0
  0
LINE
  8
0
  6
CONTINUOUS
 62
     2
 10
1156.666666667
 20
522.77
 30
0.0
 11
1156.666666667
 21
361.0625
 31
0.0
  0
LINE
  8
0
  6
CONTINUOUS
 62
     2
 10
1231.666666667
 20
538.0
 30
0.0
 11
1287.166666667
 21
538.0
 31
0.0
  0
LINE
  8
0
  6
CONTINUOUS
 62
     2
 10
1231.666666667
 20
588.0
 30
0.0
 11
1287.166666667
 21
588.0
 31
0.0
  0
LINE
  8
0
  6
CONTINUOUS
 62
     1
 10
1377.606676122
 20
454.0
 30
0.0
 11
1367.006676122
 21
454.0
 31
0.0
  0
ARC
  8
0
  6
CONTINUOUS
 62
     1
 10
1372.706676122
 20
455.0
 30
0.0
 40
5.0
 50
272.3
 51
348.5
  0
ARC
  8
0
  6
CONTINUOUS
 62
     1
 10
1371.906676122
 20
455.0
 30
0.0
 40
5.0
 50
191.5
 51
267.7
  0
LINE
  8
0
  6
CONTINUOUS
 62
     1
 10
1372.906676122
 20
450.0
 30
0.0
 11
1371.706676122
 21
450.0
 31
0.0
  0
LINE
  8
0
  6
LTYPE6
 62
     2
 10
1372.306676122
 20
446.6
 30
0.0
 11
1372.306676122
 21
460.0
 31
0.0
  0
LINE
  8
0
  6
CONTINUOUS
 62
     2
 10
1206.806676122
 20
930.5
 30
0.0
 11
1194.732603293
 21
933.735238064
 31
0.0
  0
LINE
  8
0
  6
CONTINUOUS
 62
     2
 10
1206.806676122
 20
930.5
 30
0.0
 11
1194.732603293
 21
927.264761936
 31
0.0
  0
LINE
  8
0
  6
CONTINUOUS
 62
     2
 10
1206.806676122
 20
930.5
 30
0.0
 11
1165.806676122
 21
930.5
 31
0.0
  0
TEXT
  8
0
  6
CONTINUOUS
 62
     3
 10
1172.806676122
 20
940.5
 30
0.0
 40
20.0
  1
前進
 50
0.0
 41
0.925
 51
0.0
  7
KANJI41
  0
LINE
  8
0
  6
CONTINUOUS
 62
     1
 10
1455.306676122
 20
552.5
 30
0.0
 11
1455.306676122
 21
577.5
 31
0.0
  0
LINE
  8
0
  6
CONTINUOUS
 62
     1
 10
1497.306676122
 20
544.0
 30
0.0
 11
1464.039961904
 21
540.0
 31
0.0
  0
LINE
  8
0
  6
CONTINUOUS
 62
     1
 10
1497.306676122
 20
544.0
 30
0.0
 11
1497.306676122
 21
586.0
 31
0.0
  0
LINE
  8
0
  6
CONTINUOUS
 62
     1
 10
1497.306676122
 20
586.0
 30
0.0
 11
1464.039961904
 21
590.0
 31
0.0
  0
ARC
  8
0
  6
CONTINUOUS
 62
     1
 10
1465.306676122
 20
502.5
 30
0.0
 40
3.0
 50
0.0
 51
90.0
  0
LINE
  8
0
  6
CONTINUOUS
 62
     1
 10
1468.306676122
 20
456.0
 30
0.0
 11
1468.306676122
 21
502.5
 31
0.0
  0
ARC
  8
0
  6
CONTINUOUS
 62
     1
 10
1467.306676122
 20
456.0
 30
0.0
 40
1.0
 50
270.0
 51
0.0
  0
ARC
  8
0
  6
CONTINUOUS
 62
     1
 10
1464.306676122
 20
455.0
 30
0.0
 40
1.0
 50
270.0
 51
0.0
  0
LINE
  8
0
  6
CONTINUOUS
 62
     1
 10
1462.306676122
 20
505.5
 30
0.0
 11
1462.306676122
 21
537.0
 31
0.0
  0
ARC
  8
0
  6
CONTINUOUS
 62
     1
 10
1471.306676122
 20
619.0
 30
0.0
 40
5.0
 50
0.0
 51
90.0
  0
CIRCLE
  8
0
  6
CONTINUOUS
 62
     1
 10
1464.306676122
 20
612.0
 30
0.0
 40
9.0
  0
ARC
  8
0
  6
CONTINUOUS
 62
     1
 10
1471.306676122
 20
511.0
 30
0.0
 40
5.0
 50
270.0
 51
360.0
  0
LINE
  8
0
  6
CONTINUOUS
 62
     1
 10
1476.306676122
 20
588.525046491
 30
0.0
 11
1476.306676122
 21
619.0
 31
0.0
  0
LINE
  8
0
  6
CONTINUOUS
 62
     1
 10
1476.306676122
 20
541.474953509
 30
0.0
 11
1476.306676122
 21
511.0
 31
0.0
  0
LINE
  8
0
  6
CONTINUOUS
 62
     1
 10
1462.306676122
 20
506.0
 30
0.0
 11
1471.306676122
 21
506.0
 31
0.0
  0
ARC
  8
0
  6
CONTINUOUS
 62
     1
 10
1464.306676122
 20
518.0
 30
0.0
 40
9.0
 50
257.883138071
 51
102.672315936
  0
ARC
  8
0
  6
CONTINUOUS
 62
     1
 10
1488.306676122
 20
494.0
 30
0.0
 40
6.0
 50
270.0
 51
0.0
  0
LINE
  8
0
  6
CONTINUOUS
 62
     1
 10
1468.306676122
 20
488.0
 30
0.0
 11
1488.306676122
 21
488.0
 31
0.0
  0
LINE
  8
0
  6
CONTINUOUS
 62
     1
 10
1494.306676122
 20
494.0
 30
0.0
 11
1494.306676122
 21
543.639279073
 31
0.0
  0
LINE
  8
0
  6
LTYPE1
 62
     2
 10
1472.306676122
 20
555.0
 30
0.0
 11
1472.306676122
 21
575.0
 31
0.0
  0
LINE
  8
0
  6
LTYPE1
 62
     2
 10
1472.306676122
 20
575.0
 30
0.0
 11
1497.306676122
 21
575.0
 31
0.0
  0
LINE
  8
0
  6
LTYPE1
 62
     2
 10
1472.306676122
 20
555.0
 30
0.0
 11
1497.306676122
 21
555.0
 31
0.0
  0
LINE
  8
0
  6
LTYPE3
 62
     2
 10
1462.306676122
 20
450.3
 30
0.0
 11
1462.306676122
 21
469.0
 31
0.0
  0
LINE
  8
0
  6
LTYPE3
 62
     2
 10
1464.306676122
 20
600.665527109
 30
0.0
 11
1464.306676122
 21
622.765527109
 31
0.0
  0
LINE
  8
0
  6
LTYPE3
 62
     2
 10
1464.306676122
 20
508.15
 30
0.0
 11
1464.306676122
 21
531.25
 31
0.0
  0
LINE
  8
0
  6
CONTINUOUS
 62
     2
 10
1504.806676122
 20
575.0
 30
0.0
 11
1570.256676122
 21
575.0
 31
0.0
  0
LINE
  8
0
  6
CONTINUOUS
 62
     2
 10
1504.806676122
 20
555.0
 30
0.0
 11
1571.756676122
 21
555.0
 31
0.0
  0
ARC
  8
0
  6
CONTINUOUS
 62
     1
 10
1517.306676122
 20
715.3
 30
0.0
 40
10.0
 50
0.0
 51
90.0
  0
LINE
  8
0
  6
CONTINUOUS
 62
     1
 10
1468.306676122
 20
473.3
 30
0.0
 11
1517.306676122
 21
473.3
 31
0.0
  0
ARC
  8
0
  6
CONTINUOUS
 62
     1
 10
1517.306676122
 20
483.3
 30
0.0
 40
10.0
 50
270.0
 51
0.0
  0
ARC
  8
0
  6
CONTINUOUS
 62
     1
 10
1459.306676122
 20
822.320045888
 30
0.0
 40
2.0
 50
0.0
 51
90.0
  0
ARC
  8
0
  6
CONTINUOUS
 62
     1
 10
1459.306676122
 20
826.320045888
 30
0.0
 40
2.0
 50
0.0
 51
90.0
  0
LINE
  8
0
  6
CONTINUOUS
 62
     1
 10
1453.306676122
 20
780.3
 30
0.0
 11
1459.306676122
 21
780.3
 31
0.0
  0
LINE
  8
0
  6
CONTINUOUS
 62
     1
 10
1461.306676122
 20
782.3
 30
0.0
 11
1461.306676122
 21
826.320045888
 31
0.0
  0
ARC
  8
0
  6
CONTINUOUS
 62
     1
 10
1459.306676122
 20
782.3
 30
0.0
 40
2.0
 50
270.0
 51
0.0
  0
LINE
  8
0
  6
CONTINUOUS
 62
     1
 10
1453.306676122
 20
780.3
 30
0.0
 11
1453.306676122
 21
819.3
 31
0.0
  0
ARC
  8
0
  6
CONTINUOUS
 62
     1
 10
1463.306676122
 20
700.3
 30
0.0
 40
9.0
 50
278.674045508
 51
81.325934821
  0
LINE
  8
0
  6
CONTINUOUS
 62
     2
 10
1460.306676122
 20
717.3
 30
0.0
 11
1460.306676122
 21
681.3
 31
0.0
  0
LINE
  8
0
  6
CONTINUOUS
 62
     1
 10
1461.306676122
 20
716.4
 30
0.0
 11
1459.306676122
 21
716.4
 31
0.0
  0
LINE
  8
0
  6
CONTINUOUS
 62
     1
 10
1459.306676122
 20
716.4
 30
0.0
 11
1457.306676122
 21
704.8
 31
0.0
  0
LINE
  8
0
  6
CONTINUOUS
 62
     1
 10
1461.306676122
 20
716.4
 30
0.0
 11
1463.306676122
 21
704.8
 31
0.0
  0
LINE
  8
0
  6
CONTINUOUS
 62
     1
 10
1461.306676122
 20
684.2
 30
0.0
 11
1459.306676122
 21
684.2
 31
0.0
  0
LINE
  8
0
  6
CONTINUOUS
 62
     1
 10
1459.306676122
 20
684.2
 30
0.0
 11
1457.306676122
 21
695.8
 31
0.0
  0
LINE
  8
0
  6
CONTINUOUS
 62
     1
 10
1461.306676122
 20
684.2
 30
0.0
 11
1463.306676122
 21
695.8
 31
0.0
  0
ARC
  8
0
  6
CONTINUOUS
 62
     1
 10
1466.926241339
 20
724.0254873
 30
0.0
 40
15.0
 50
205.554693785
 51
235.747997449
  0
ARC
  8
0
  6
CONTINUOUS
 62
     1
 10
1466.926241339
 20
724.0254873
 30
0.0
 40
15.0
 50
252.681090544
 51
261.325827457
  0
ARC
  8
0
  6
CONTINUOUS
 62
     1
 10
1466.926241339
 20
676.5745127
 30
0.0
 40
15.0
 50
124.468179449
 51
154.445306215
  0
ARC
  8
0
  6
CONTINUOUS
 62
     1
 10
1466.926241339
 20
676.5745127
 30
0.0
 40
15.0
 50
98.674172543
 51
107.318909456
  0
CIRCLE
  8
0
  6
CONTINUOUS
 62
     1
 10
1460.306676122
 20
700.3
 30
0.0
 40
3.0
  0
LINE
  8
0
  6
CONTINUOUS
 62
     1
 10
1457.327980824
 20
704.923567272
 30
0.0
 11
1457.28537142
 21
695.676432728
 31
0.0
  0
LINE
  8
0
  6
CONTINUOUS
 62
     1
 10
1463.327980824
 20
695.676432728
 30
0.0
 11
1463.28537142
 21
704.923567272
 31
0.0
  0
ARC
  8
0
  6
CONTINUOUS
 62
     1
 10
1460.306676122
 20
700.3
 30
0.0
 40
5.5
 50
304.570397879
 51
57.208673154
  0
ARC
  8
0
  6
CONTINUOUS
 62
     1
 10
1460.306676122
 20
700.3
 30
0.0
 40
5.5
 50
122.791326846
 51
235.429602121
  0
LINE
  8
0
  6
CONTINUOUS
 62
     1
 10
1459.518616899
 20
752.757131306
 30
0.0
 11
1467.018616899
 21
752.757131306
 31
0.0
  0
LINE
  8
0
  6
CONTINUOUS
 62
     1
 10
1467.018616899
 20
752.757131306
 30
0.0
 11
1470.768616899
 21
746.261940777
 31
0.0
  0
LINE
  8
0
  6
CONTINUOUS
 62
     1
 10
1470.768616899
 20
746.261940777
 30
0.0
 11
1467.018616899
 21
739.766750249
 31
0.0
  0
LINE
  8
0
  6
CONTINUOUS
 62
     1
 10
1457.578257859
 20
749.396330864
 30
0.0
 11
1459.518616899
 21
752.757131306
 31
0.0
  0
LINE
  8
0
  6
LTYPE1
 62
     1
 10
1459.518616899
 20
739.766750249
 30
0.0
 11
1455.768616899
 21
746.261940777
 31
0.0
  0
LINE
  8
0
  6
LTYPE1
 62
     1
 10
1455.768616899
 20
746.261940777
 30
0.0
 11
1457.578257859
 21
749.396330864
 31
0.0
  0
LINE
  8
0
  6
LTYPE1
 62
     1
 10
1467.018616899
 20
739.766750249
 30
0.0
 11
1459.518616899
 21
739.766750249
 31
0.0
  0
ARC
  8
0
  6
LTYPE2
 62
     2
 10
1417.306676122
 20
700.3
 30
0.0
 40
65.0
 50
35.457574482
 51
54.68637224
  0
LINE
  8
0
  6
LTYPE2
 62
     2
 10
1456.403006986
 20
739.396330864
 30
0.0
 11
1469.306676122
 21
752.3
 31
0.0
  0
LINE
  8
0
  6
CONTINUOUS
 62
     1
 10
1459.518616899
 20
647.842868694
 30
0.0
 11
1467.018616899
 21
647.842868694
 31
0.0
  0
LINE
  8
0
  6
CONTINUOUS
 62
     1
 10
1467.018616899
 20
647.842868694
 30
0.0
 11
1470.768616899
 21
654.338059223
 31
0.0
  0
LINE
  8
0
  6
CONTINUOUS
 62
     1
 10
1470.768616899
 20
654.338059223
 30
0.0
 11
1467.018616899
 21
660.833249751
 31
0.0
  0
LINE
  8
0
  6
CONTINUOUS
 62
     1
 10
1457.578257859
 20
651.203669136
 30
0.0
 11
1459.518616899
 21
647.842868694
 31
0.0
  0
LINE
  8
0
  6
LTYPE1
 62
     1
 10
1459.518616899
 20
660.833249751
 30
0.0
 11
1455.768616899
 21
654.338059223
 31
0.0
  0
LINE
  8
0
  6
LTYPE1
 62
     1
 10
1455.768616899
 20
654.338059223
 30
0.0
 11
1457.578257859
 21
651.203669136
 31
0.0
  0
LINE
  8
0
  6
LTYPE1
 62
     1
 10
1467.018616899
 20
660.833249751
 30
0.0
 11
1459.518616899
 21
660.833249751
 31
0.0
  0
ARC
  8
0
  6
LTYPE2
 62
     2
 10
1417.306676122
 20
700.3
 30
0.0
 40
65.0
 50
305.31362776
 51
324.542425518
  0
LINE
  8
0
  6
LTYPE2
 62
     2
 10
1456.403006986
 20
661.203669136
 30
0.0
 11
1469.306676122
 21
648.3
 31
0.0
  0
LINE
  8
0
  6
CONTINUOUS
 62
     1
 10
1494.306676122
 20
586.360720927
 30
0.0
 11
1494.306676122
 21
678.597465586
 31
0.0
  0
LINE
  8
0
  6
CONTINUOUS
 62
     1
 10
1493.30009689
 20
725.3
 30
0.0
 11
1517.306676122
 21
725.3
 31
0.0
  0
LINE
  8
0
  6
CONTINUOUS
 62
     2
 10
1494.306676122
 20
399.475
 30
0.0
 11
1482.232603293
 21
402.710238064
 31
0.0
  0
LINE
  8
0
  6
CONTINUOUS
 62
     2
 10
1494.306676122
 20
399.475
 30
0.0
 11
1482.232603293
 21
396.239761936
 31
0.0
  0
LINE
  8
0
  6
CONTINUOUS
 62
     2
 10
1497.306676122
 20
362.5
 30
0.0
 11
1485.232603293
 21
365.735238064
 31
0.0
  0
LINE
  8
0
  6
CONTINUOUS
 62
     2
 10
1497.306676122
 20
362.5
 30
0.0
 11
1485.232603293
 21
359.264761936
 31
0.0
  0
LINE
  8
0
  6
CONTINUOUS
 62
     2
 10
1497.306676122
 20
536.5
 30
0.0
 11
1497.306676122
 21
355.775
 31
0.0
  0
LINE
  8
0
  6
CONTINUOUS
 62
     2
 10
1494.306676122
 20
486.5
 30
0.0
 11
1494.306676122
 21
393.875
 31
0.0
  0
LINE
  8
0
  6
CONTINUOUS
 62
     1
 10
1467.606676122
 20
454.0
 30
0.0
 11
1457.006676122
 21
454.0
 31
0.0
  0
ARC
  8
0
  6
CONTINUOUS
 62
     1
 10
1462.706676122
 20
455.0
 30
0.0
 40
5.0
 50
272.3
 51
348.5
  0
ARC
  8
0
  6
CONTINUOUS
 62
     1
 10
1461.906676122
 20
455.0
 30
0.0
 40
5.0
 50
191.5
 51
267.7
  0
LINE
  8
0
  6
CONTINUOUS
 62
     1
 10
1462.906676122
 20
450.0
 30
0.0
 11
1461.706676122
 21
450.0
 31
0.0
  0
LINE
  8
0
  6
LTYPE6
 62
     2
 10
1462.306676122
 20
446.6
 30
0.0
 11
1462.306676122
 21
460.0
 31
0.0
  0
LINE
  8
0
  6
CONTINUOUS
 62
     2
 10
1562.256676122
 20
575.0
 30
0.0
 11
1565.491914186
 21
587.074072829
 31
0.0
  0
LINE
  8
0
  6
CONTINUOUS
 62
     2
 10
1562.256676122
 20
575.0
 30
0.0
 11
1559.021438058
 21
587.074072829
 31
0.0
  0
LINE
  8
0
  6
CONTINUOUS
 62
     2
 10
1562.256676122
 20
555.0
 30
0.0
 11
1559.021438058
 21
542.925927171
 31
0.0
  0
LINE
  8
0
  6
CONTINUOUS
 62
     2
 10
1562.256676122
 20
555.0
 30
0.0
 11
1565.491914186
 21
542.925927171
 31
0.0
  0
LINE
  8
0
  6
CONTINUOUS
 62
     1
 10
1527.306676122
 20
483.3
 30
0.0
 11
1527.306676122
 21
715.3
 31
0.0
  0
TEXT
  8
0
  6
CONTINUOUS
 62
     2
 10
1557.256676122
 20
576.75
 30
0.0
 40
18.0
  1
φ２０Ｈ１０深２５
 50
90.0
 41
0.9
 51
0.0
  7
KANJI26
  0
LINE
  8
0
  6
CONTINUOUS
 62
     2
 10
1562.256676122
 20
536.25
 30
0.0
 11
1562.256676122
 21
720.5
 31
0.0
  0
LINE
  8
0
  6
CONTINUOUS
 62
     2
 10
1683.32
 20
688.9
 30
0.0
 11
1827.32
 21
688.9
 31
0.0
  0
TEXT
  8
0
  6
CONTINUOUS
 62
     2
 10
1689.92
 20
555.1
 30
5.985
 40
21.0
  1
　　カム式位置リミットスイッチ：　４点　　　２点
 50
0.0
 41
0.857222222
 51
0.0
  7
KANJI42
  0
TEXT
  8
0
  6
CONTINUOUS
 62
     2
 10
1695.92
 20
697.3
 30
12.0
 40
24.0
  1
特記事項
 50
0.0
 41
0.9
 51
0.0
  7
KANJI43
  0
TEXT
  8
0
  6
CONTINUOUS
 62
     2
 10
1689.92
 20
660.1
 30
6.0
 40
21.0
  1
１．運転時は必ずピストンロッドの回転防止を行って下さい。
 50
0.0
 41
0.857142857
 51
0.0
  7
KANJI44
  0
TEXT
  8
0
  6
CONTINUOUS
 62
     2
 10
1689.92
 20
585.1
 30
5.985
 40
21.0
  1
３．ポジショナ
 50
0.0
 41
0.857222222
 51
0.0
  7
KANJI42
  0
TEXT
  8
0
  6
CONTINUOUS
 62
     2
 10
1689.92
 20
622.6
 30
5.985
 40
21.0
  1
２．モートル：全閉自冷かご形３０分定格
 50
0.0
 41
0.857222222
 51
0.0
  7
KANJI42
  0
TEXT
  8
0
  6
CONTINUOUS
 62
     2
 10
1689.92
 20
523.3
 30
5.985
 40
21.0
  1
４．呼称ストロークは、機械的ストロークです。
 50
0.0
 41
0.857222222
 51
0.0
  7
KANJI42
  0
TEXT
  8
0
  6
CONTINUOUS
 62
     2
 10
550.552591263
 20
241.971507451
 30
0.0
 40
20.0
  1
推力リミッタの作動値は、約１２００ｋｇ（設計値）
 50
0.0
 41
0.925
 51
0.0
  7
KANJI41
  0
LINE
  8
0
  6
CONTINUOUS
 62
     2
 10
548.552591263
 20
233.971507451
 30
0.0
 11
979.92
 21
233.971507451
 31
0.0
  0
TEXT
  8
0
  6
CONTINUOUS
 62
     2
 10
1689.92
 20
457.3
 30
5.985
 40
21.0
  1
　　前後の推奨余裕寸法は、各々１５ｍｍです。
 50
0.0
 41
0.857222222
 51
0.0
  7
KANJI42
  0
TEXT
  8
0
  6
CONTINUOUS
 62
     3
 10
353.7000004
 20
763.5200196
 30
1.8
 40
18.0
  1
手動軸□８
 50
0.0
 41
0.9
 51
0.0
  7
KANJI45
  0
TEXT
  8
0
  6
CONTINUOUS
 62
     2
 10
692.766666667
 20
414.0
 30
0.0
 40
18.0
  1
２－ＰＦ１
 50
0.0
 41
0.9
 51
0.0
  7
KANJI26
  0
LINE
  8
0
  6
CONTINUOUS
 62
     1
 10
992.12
 20
1484.14
 30
0.0
 11
1769.72
 21
1484.14
 31
0.0
  0
LINE
  8
0
  6
CONTINUOUS
 62
     1
 10
992.12
 20
1450.54
 30
0.0
 11
1769.72
 21
1450.54
 31
0.0
  0
TEXT
  8
0
  6
CONTINUOUS
 62
     2
 10
1040.12
 20
1460.14
 30
1.536
 40
15.36
  1
形
 50
0.0
 41
0.9
 51
0.0
  7
KANJI46
  0
TEXT
  8
0
  6
CONTINUOUS
 62
     2
 10
1133.72
 20
1460.14
 30
1.536
 40
15.36
  1
式
 50
0.0
 41
0.9
 51
0.0
  7
KANJI46
  0
TEXT
  8
0
  6
CONTINUOUS
 62
     2
 10
1206.2
 20
1459.18
 30
1.44
 40
14.4
  1
ストローク
 50
0.0
 41
0.9
 51
0.0
  7
KANJI47
  0
TEXT
  8
0
  6
CONTINUOUS
 62
     2
 10
1298.36
 20
1458.22
 30
0.0
 40
14.4
  1
ｍｉｎ　
 50
0.0
 41
0.9
 51
0.0
  7
KANJI48
  0
TEXT
  8
0
  6
CONTINUOUS
 62
     2
 10
1394.36
 20
1458.22
 30
0.0
 40
14.4
  1
ｍｉｎ　
 50
0.0
 41
0.9
 51
0.0
  7
KANJI48
  0
TEXT
  8
0
  6
CONTINUOUS
 62
     2
 10
1586.36
 20
1458.22
 30
0.0
 40
14.4
  1
ｍｉｎ　
 50
0.0
 41
0.9
 51
0.0
  7
KANJI48
  0
TEXT
  8
0
  6
CONTINUOUS
 62
     2
 10
1347.32
 20
1459.18
 30
1.68
 40
16.8
  1
ＡＬ
 50
0.0
 41
0.9
 51
0.0
  7
KANJI49
  0
TEXT
  8
0
  6
CONTINUOUS
 62
     2
 10
1443.32
 20
1459.18
 30
1.68
 40
16.8
  1
Ｌ
 50
0.0
 41
0.9
 51
0.0
  7
KANJI49
  0
TEXT
  8
0
  6
CONTINUOUS
 62
     2
 10
1524.92
 20
1459.18
 30
1.68
 40
16.8
  1
Ｃ
 50
0.0
 41
0.9
 51
0.0
  7
KANJI49
  0
TEXT
  8
0
  6
CONTINUOUS
 62
     2
 10
1635.32
 20
1459.18
 30
1.68
 40
16.8
  1
Ｐ
 50
0.0
 41
0.9
 51
0.0
  7
KANJI49
  0
TEXT
  8
0
  6
CONTINUOUS
 62
     2
 10
1734.08
 20
1458.82
 30
0.0
 40
12.96
  1
（ｋｇ）
 50
0.0
 41
0.740740741
 51
0.0
  7
KANJI50
  0
TEXT
  8
0
  6
CONTINUOUS
 62
     2
 10
1676.48
 20
1458.58
 30
1.44
 40
16.8
  1
概算重量
 50
0.0
 41
0.857142857
 51
0.0
  7
KANJI51
  0
TEXT
  8
0
  6
CONTINUOUS
 62
     2
 10
1215.32
 20
1424.98
 30
1.44
 40
14.4
  1
　２００
 50
0.0
 41
0.9
 51
0.0
  7
KANJI47
  0
TEXT
  8
0
  6
CONTINUOUS
 62
     2
 10
1215.32
 20
1391.38
 30
1.44
 40
14.4
  1
　３００
 50
0.0
 41
0.9
 51
0.0
  7
KANJI47
  0
TEXT
  8
0
  6
CONTINUOUS
 62
     2
 10
1215.32
 20
1256.98
 30
1.44
 40
14.4
  1
　７００
 50
0.0
 41
0.9
 51
0.0
  7
KANJI47
  0
TEXT
  8
0
  6
CONTINUOUS
 62
     2
 10
1215.32
 20
1324.18
 30
1.44
 40
14.4
  1
　５００
 50
0.0
 41
0.9
 51
0.0
  7
KANJI47
  0
TEXT
  8
0
  6
CONTINUOUS
 62
     2
 10
1215.32
 20
1357.78
 30
1.44
 40
14.4
  1
　４００
 50
0.0
 41
0.9
 51
0.0
  7
KANJI47
  0
TEXT
  8
0
  6
CONTINUOUS
 62
     2
 10
1215.32
 20
1290.58
 30
1.44
 40
14.4
  1
　６００
 50
0.0
 41
0.9
 51
0.0
  7
KANJI47
  0
TEXT
  8
0
  6
CONTINUOUS
 62
     2
 10
1215.32
 20
1223.38
 30
1.44
 40
14.4
  1
　８００
 50
0.0
 41
0.9
 51
0.0
  7
KANJI47
  0
LINE
  8
0
  6
CONTINUOUS
 62
     1
 10
992.12
 20
1047.94
 30
0.0
 11
1769.72
 21
1047.94
 31
0.0
  0
LINE
  8
0
  6
CONTINUOUS
 62
     1
 10
992.12
 20
1484.14
 30
0.0
 11
992.12
 21
1047.94
 31
0.0
  0
LINE
  8
0
  6
CONTINUOUS
 62
     1
 10
1193.72
 20
1484.14
 30
0.0
 11
1193.72
 21
1047.94
 31
0.0
  0
LINE
  8
0
  6
CONTINUOUS
 62
     2
 10
1289.72
 20
1484.14
 30
0.0
 11
1289.72
 21
1047.94
 31
0.0
  0
LINE
  8
0
  6
CONTINUOUS
 62
     2
 10
1385.72
 20
1484.14
 30
0.0
 11
1385.72
 21
1047.94
 31
0.0
  0
LINE
  8
0
  6
CONTINUOUS
 62
     2
 10
1481.72
 20
1484.14
 30
0.0
 11
1481.72
 21
1047.94
 31
0.0
  0
LINE
  8
0
  6
CONTINUOUS
 62
     2
 10
1577.72
 20
1484.14
 30
0.0
 11
1577.72
 21
1047.94
 31
0.0
  0
LINE
  8
0
  6
CONTINUOUS
 62
     2
 10
1673.72
 20
1484.14
 30
0.0
 11
1673.72
 21
1047.94
 31
0.0
  0
LINE
  8
0
  6
CONTINUOUS
 62
     1
 10
1769.72
 20
1484.14
 30
0.0
 11
1769.72
 21
1047.94
 31
0.0
  0
TEXT
  8
0
  6
CONTINUOUS
 62
     2
 10
1215.32
 20
1156.18
 30
1.44
 40
14.4
  1
１０００
 50
0.0
 41
0.9
 51
0.0
  7
KANJI47
  0
TEXT
  8
0
  6
CONTINUOUS
 62
     2
 10
1215.32
 20
1189.78
 30
1.44
 40
14.4
  1
　９００
 50
0.0
 41
0.9
 51
0.0
  7
KANJI47
  0
TEXT
  8
0
  6
CONTINUOUS
 62
     2
 10
1215.32
 20
1122.78
 30
1.44
 40
14.4
  1
１１００
 50
0.0
 41
0.9
 51
0.0
  7
KANJI47
  0
TEXT
  8
0
  6
CONTINUOUS
 62
     2
 10
1215.32
 20
1089.18
 30
1.44
 40
14.4
  1
１２００
 50
0.0
 41
0.9
 51
0.0
  7
KANJI47
  0
TEXT
  8
0
  6
CONTINUOUS
 62
     2
 10
1503.32
 20
1424.98
 30
1.44
 40
14.4
  1
　４３７
 50
0.0
 41
0.9
 51
0.0
  7
KANJI47
  0
TEXT
  8
0
  6
CONTINUOUS
 62
     2
 10
1503.32
 20
1391.38
 30
1.44
 40
14.4
  1
　５３７
 50
0.0
 41
0.9
 51
0.0
  7
KANJI47
  0
TEXT
  8
0
  6
CONTINUOUS
 62
     2
 10
1503.32
 20
1357.78
 30
1.44
 40
14.4
  1
　６３７
 50
0.0
 41
0.9
 51
0.0
  7
KANJI47
  0
TEXT
  8
0
  6
CONTINUOUS
 62
     2
 10
1503.32
 20
1324.18
 30
1.44
 40
14.4
  1
　７３７
 50
0.0
 41
0.9
 51
0.0
  7
KANJI47
  0
TEXT
  8
0
  6
CONTINUOUS
 62
     2
 10
1503.32
 20
1290.58
 30
1.44
 40
14.4
  1
　８７７
 50
0.0
 41
0.9
 51
0.0
  7
KANJI47
  0
TEXT
  8
0
  6
CONTINUOUS
 62
     2
 10
1503.32
 20
1256.98
 30
1.44
 40
14.4
  1
　９７７
 50
0.0
 41
0.9
 51
0.0
  7
KANJI47
  0
TEXT
  8
0
  6
CONTINUOUS
 62
     2
 10
1503.32
 20
1223.38
 30
1.44
 40
14.4
  1
１０７７
 50
0.0
 41
0.9
 51
0.0
  7
KANJI47
  0
TEXT
  8
0
  6
CONTINUOUS
 62
     2
 10
1503.32
 20
1189.78
 30
1.44
 40
14.4
  1
１１７７
 50
0.0
 41
0.9
 51
0.0
  7
KANJI47
  0
TEXT
  8
0
  6
CONTINUOUS
 62
     2
 10
1503.32
 20
1156.18
 30
1.44
 40
14.4
  1
１２７７
 50
0.0
 41
0.9
 51
0.0
  7
KANJI47
  0
TEXT
  8
0
  6
CONTINUOUS
 62
     2
 10
1503.32
 20
1122.78
 30
1.44
 40
14.4
  1
１３７７
 50
0.0
 41
0.9
 51
0.0
  7
KANJI47
  0
TEXT
  8
0
  6
CONTINUOUS
 62
     2
 10
1503.32
 20
1089.18
 30
1.44
 40
14.4
  1
１４７７
 50
0.0
 41
0.9
 51
0.0
  7
KANJI47
  0
TEXT
  8
0
  6
CONTINUOUS
 62
     2
 10
1407.32
 20
1424.98
 30
1.44
 40
14.4
  1
　５３２
 50
0.0
 41
0.9
 51
0.0
  7
KANJI47
  0
TEXT
  8
0
  6
CONTINUOUS
 62
     2
 10
1407.32
 20
1391.38
 30
1.44
 40
14.4
  1
　６３２
 50
0.0
 41
0.9
 51
0.0
  7
KANJI47
  0
LINE
  8
0
  6
CONTINUOUS
 62
     2
 10
992.12
 20
1416.94
 30
0.0
 11
1769.72
 21
1416.94
 31
0.0
  0
LINE
  8
0
  6
CONTINUOUS
 62
     2
 10
992.12
 20
1383.34
 30
0.0
 11
1769.72
 21
1383.34
 31
0.0
  0
LINE
  8
0
  6
CONTINUOUS
 62
     2
 10
992.12
 20
1215.34
 30
0.0
 11
1769.72
 21
1215.34
 31
0.0
  0
LINE
  8
0
  6
CONTINUOUS
 62
     2
 10
992.12
 20
1316.14
 30
0.0
 11
1769.72
 21
1316.14
 31
0.0
  0
LINE
  8
0
  6
CONTINUOUS
 62
     2
 10
992.12
 20
1349.74
 30
0.0
 11
1769.72
 21
1349.74
 31
0.0
  0
LINE
  8
0
  6
CONTINUOUS
 62
     2
 10
992.12
 20
1248.94
 30
0.0
 11
1769.72
 21
1248.94
 31
0.0
  0
LINE
  8
0
  6
CONTINUOUS
 62
     2
 10
992.12
 20
1282.54
 30
0.0
 11
1769.72
 21
1282.54
 31
0.0
  0
TEXT
  8
0
  6
CONTINUOUS
 62
     2
 10
1599.32
 20
1424.98
 30
1.44
 40
14.4
  1
　　４５
 50
0.0
 41
0.9
 51
0.0
  7
KANJI47
  0
TEXT
  8
0
  6
CONTINUOUS
 62
     2
 10
1599.32
 20
1391.38
 30
1.44
 40
14.4
  1
　　４５
 50
0.0
 41
0.9
 51
0.0
  7
KANJI47
  0
TEXT
  8
0
  6
CONTINUOUS
 62
     2
 10
1599.32
 20
1357.78
 30
1.44
 40
14.4
  1
　　８５
 50
0.0
 41
0.9
 51
0.0
  7
KANJI47
  0
TEXT
  8
0
  6
CONTINUOUS
 62
     2
 10
1599.32
 20
1324.18
 30
1.44
 40
14.4
  1
　１１２
 50
0.0
 41
0.9
 51
0.0
  7
KANJI47
  0
TEXT
  8
0
  6
CONTINUOUS
 62
     2
 10
1599.32
 20
1290.58
 30
1.44
 40
14.4
  1
　１２８
 50
0.0
 41
0.9
 51
0.0
  7
KANJI47
  0
TEXT
  8
0
  6
CONTINUOUS
 62
     2
 10
1599.32
 20
1256.98
 30
1.44
 40
14.4
  1
　１４８
 50
0.0
 41
0.9
 51
0.0
  7
KANJI47
  0
TEXT
  8
0
  6
CONTINUOUS
 62
     2
 10
1599.32
 20
1223.38
 30
1.44
 40
14.4
  1
　１６８
 50
0.0
 41
0.9
 51
0.0
  7
KANJI47
  0
LINE
  8
0
  6
CONTINUOUS
 62
     2
 10
992.12
 20
1181.74
 30
0.0
 11
1769.72
 21
1181.74
 31
0.0
  0
LINE
  8
0
  6
CONTINUOUS
 62
     2
 10
992.12
 20
1148.14
 30
0.0
 11
1769.72
 21
1148.14
 31
0.0
  0
TEXT
  8
0
  6
CONTINUOUS
 62
     2
 10
1599.32
 20
1189.78
 30
1.44
 40
14.4
  1
　１９８
 50
0.0
 41
0.9
 51
0.0
  7
KANJI47
  0
TEXT
  8
0
  6
CONTINUOUS
 62
     2
 10
1599.32
 20
1156.18
 30
1.44
 40
14.4
  1
　２３１
 50
0.0
 41
0.9
 51
0.0
  7
KANJI47
  0
LINE
  8
0
  6
CONTINUOUS
 62
     2
 10
992.12
 20
1114.54
 30
0.0
 11
1769.72
 21
1114.54
 31
0.0
  0
LINE
  8
0
  6
CONTINUOUS
 62
     2
 10
992.12
 20
1080.94
 30
0.0
 11
1769.72
 21
1080.94
 31
0.0
  0
TEXT
  8
0
  6
CONTINUOUS
 62
     2
 10
1599.32
 20
1122.58
 30
1.44
 40
14.4
  1
　２４５
 50
0.0
 41
0.9
 51
0.0
  7
KANJI47
  0
TEXT
  8
0
  6
CONTINUOUS
 62
     2
 10
1599.32
 20
1088.98
 30
1.44
 40
14.4
  1
　２６８
 50
0.0
 41
0.9
 51
0.0
  7
KANJI47
  0
TEXT
  8
0
  6
CONTINUOUS
 62
     2
 10
1407.32
 20
1357.78
 30
1.44
 40
14.4
  1
　７７２
 50
0.0
 41
0.9
 51
0.0
  7
KANJI47
  0
TEXT
  8
0
  6
CONTINUOUS
 62
     2
 10
1407.32
 20
1324.18
 30
1.44
 40
14.4
  1
　８９９
 50
0.0
 41
0.9
 51
0.0
  7
KANJI47
  0
TEXT
  8
0
  6
CONTINUOUS
 62
     2
 10
1407.32
 20
1256.98
 30
1.44
 40
14.4
  1
１１７５
 50
0.0
 41
0.9
 51
0.0
  7
KANJI47
  0
TEXT
  8
0
  6
CONTINUOUS
 62
     2
 10
1407.32
 20
1223.38
 30
1.44
 40
14.4
  1
１２９５
 50
0.0
 41
0.9
 51
0.0
  7
KANJI47
  0
TEXT
  8
0
  6
CONTINUOUS
 62
     2
 10
1407.32
 20
1189.78
 30
1.44
 40
14.4
  1
１４２５
 50
0.0
 41
0.9
 51
0.0
  7
KANJI47
  0
TEXT
  8
0
  6
CONTINUOUS
 62
     2
 10
1407.32
 20
1156.18
 30
1.44
 40
14.4
  1
１５５８
 50
0.0
 41
0.9
 51
0.0
  7
KANJI47
  0
TEXT
  8
0
  6
CONTINUOUS
 62
     2
 10
1407.32
 20
1122.78
 30
1.44
 40
14.4
  1
１６７２
 50
0.0
 41
0.9
 51
0.0
  7
KANJI47
  0
TEXT
  8
0
  6
CONTINUOUS
 62
     2
 10
1407.32
 20
1089.18
 30
1.44
 40
14.4
  1
１７９５
 50
0.0
 41
0.9
 51
0.0
  7
KANJI47
  0
TEXT
  8
0
  6
CONTINUOUS
 62
     2
 10
1007.72
 20
1424.62
 30
0.96
 40
14.4
  1
ＭＣＬＣ１Ｂ－　　２ＪＮ
 50
0.0
 41
0.833333333
 51
0.0
  7
KANJI52
  0
TEXT
  8
0
  6
CONTINUOUS
 62
     2
 10
1007.72
 20
1391.02
 30
0.96
 40
14.4
  1
ＭＣＬＣ１Ｂ－　　３ＪＮ
 50
0.0
 41
0.833333333
 51
0.0
  7
KANJI52
  0
TEXT
  8
0
  6
CONTINUOUS
 62
     2
 10
1007.72
 20
1357.42
 30
0.96
 40
14.4
  1
ＭＣＬＣ１Ｂ－　　４ＪＮ
 50
0.0
 41
0.833333333
 51
0.0
  7
KANJI52
  0
TEXT
  8
0
  6
CONTINUOUS
 62
     2
 10
1007.72
 20
1323.82
 30
0.96
 40
14.4
  1
ＭＣＬＣ１Ｂ－　　５ＪＮ
 50
0.0
 41
0.833333333
 51
0.0
  7
KANJI52
  0
TEXT
  8
0
  6
CONTINUOUS
 62
     2
 10
1007.72
 20
1290.22
 30
0.96
 40
14.4
  1
ＭＣＬＣ１Ｂ－　　６ＪＮ
 50
0.0
 41
0.833333333
 51
0.0
  7
KANJI52
  0
TEXT
  8
0
  6
CONTINUOUS
 62
     2
 10
1007.72
 20
1256.62
 30
0.96
 40
14.4
  1
ＭＣＬＣ１Ｂ－　　７ＪＮ
 50
0.0
 41
0.833333333
 51
0.0
  7
KANJI52
  0
TEXT
  8
0
  6
CONTINUOUS
 62
     2
 10
1007.72
 20
1223.02
 30
0.96
 40
14.4
  1
ＭＣＬＣ１Ｂ－　　８ＪＮ
 50
0.0
 41
0.833333333
 51
0.0
  7
KANJI52
  0
TEXT
  8
0
  6
CONTINUOUS
 62
     2
 10
1007.72
 20
1189.42
 30
0.96
 40
14.4
  1
ＭＣＬＣ１Ｂ－　　９ＪＮ
 50
0.0
 41
0.833333333
 51
0.0
  7
KANJI52
  0
TEXT
  8
0
  6
CONTINUOUS
 62
     2
 10
1007.72
 20
1155.82
 30
0.96
 40
14.4
  1
ＭＣＬＣ１Ｂー　１０ＪＮ
 50
0.0
 41
0.833333333
 51
0.0
  7
KANJI52
  0
TEXT
  8
0
  6
CONTINUOUS
 62
     2
 10
1007.72
 20
1122.42
 30
0.96
 40
14.4
  1
ＭＣＬＣ１Ｂ－　１１ＪＮ
 50
0.0
 41
0.833333333
 51
0.0
  7
KANJI52
  0
TEXT
  8
0
  6
CONTINUOUS
 62
     2
 10
1007.72
 20
1088.82
 30
0.96
 40
14.4
  1
ＭＣＬＣ１Ｂ－　１２ＪＮ
 50
0.0
 41
0.833333333
 51
0.0
  7
KANJI52
  0
TEXT
  8
0
  6
CONTINUOUS
 62
     2
 10
1007.72
 20
1055.02
 30
0.96
 40
14.4
  1
ＭＣＬＣ１Ｂ－　　　ＪＮ
 50
0.0
 41
0.833333333
 51
0.0
  7
KANJI52
  0
TEXT
  8
0
  6
CONTINUOUS
 62
     2
 10
1695.32
 20
1424.98
 30
1.44
 40
14.4
  1
　５９
 50
0.0
 41
0.9
 51
0.0
  7
KANJI47
  0
TEXT
  8
0
  6
CONTINUOUS
 62
     2
 10
1695.32
 20
1391.38
 30
1.44
 40
14.4
  1
　６２
 50
0.0
 41
0.9
 51
0.0
  7
KANJI47
  0
TEXT
  8
0
  6
CONTINUOUS
 62
     2
 10
1695.32
 20
1357.78
 30
1.44
 40
14.4
  1
　６４
 50
0.0
 41
0.9
 51
0.0
  7
KANJI47
  0
TEXT
  8
0
  6
CONTINUOUS
 62
     2
 10
1695.32
 20
1324.18
 30
1.44
 40
14.4
  1
　６６
 50
0.0
 41
0.9
 51
0.0
  7
KANJI47
  0
TEXT
  8
0
  6
CONTINUOUS
 62
     2
 10
1695.32
 20
1290.58
 30
1.44
 40
14.4
  1
　６７．５
 50
0.0
 41
0.9
 51
0.0
  7
KANJI47
  0
TEXT
  8
0
  6
CONTINUOUS
 62
     2
 10
1695.32
 20
1256.98
 30
1.44
 40
14.4
  1
　７０
 50
0.0
 41
0.9
 51
0.0
  7
KANJI47
  0
TEXT
  8
0
  6
CONTINUOUS
 62
     2
 10
1695.32
 20
1223.38
 30
1.44
 40
14.4
  1
　７２
 50
0.0
 41
0.9
 51
0.0
  7
KANJI47
  0
TEXT
  8
0
  6
CONTINUOUS
 62
     2
 10
1695.32
 20
1189.78
 30
1.44
 40
14.4
  1
　７４
 50
0.0
 41
0.9
 51
0.0
  7
KANJI47
  0
TEXT
  8
0
  6
CONTINUOUS
 62
     2
 10
1695.32
 20
1156.18
 30
1.44
 40
14.4
  1
　７６
 50
0.0
 41
0.9
 51
0.0
  7
KANJI47
  0
TEXT
  8
0
  6
CONTINUOUS
 62
     2
 10
1695.32
 20
1122.78
 30
1.44
 40
14.4
  1
　７８
 50
0.0
 41
0.9
 51
0.0
  7
KANJI47
  0
TEXT
  8
0
  6
CONTINUOUS
 62
     2
 10
1695.32
 20
1089.18
 30
1.44
 40
14.4
  1
　８０
 50
0.0
 41
0.9
 51
0.0
  7
KANJI47
  0
TEXT
  8
0
  6
CONTINUOUS
 62
     2
 10
1839.92
 20
244.6
 30
0.0
 40
21.0
  1
ＭＣＬＣ１Ｂ－ＪＮ
 50
0.0
 41
0.793650794
 51
0.0
  7
KANJI53
  0
TEXT
  8
0
  6
CONTINUOUS
 62
     2
 10
1311.32
 20
1424.98
 30
1.44
 40
14.4
  1
　８５０
 50
0.0
 41
0.9
 51
0.0
  7
KANJI47
  0
TEXT
  8
0
  6
CONTINUOUS
 62
     2
 10
1407.32
 20
1290.58
 30
1.44
 40
14.4
  1
１０５５
 50
0.0
 41
0.9
 51
0.0
  7
KANJI47
  0
TEXT
  8
0
  6
CONTINUOUS
 62
     2
 10
1311.32
 20
1391.38
 30
1.44
 40
14.4
  1
　９５０
 50
0.0
 41
0.9
 51
0.0
  7
KANJI47
  0
TEXT
  8
0
  6
CONTINUOUS
 62
     2
 10
1311.32
 20
1357.78
 30
1.44
 40
14.4
  1
１０９０
 50
0.0
 41
0.9
 51
0.0
  7
KANJI47
  0
TEXT
  8
0
  6
CONTINUOUS
 62
     2
 10
1311.32
 20
1324.18
 30
1.44
 40
14.4
  1
１２１７
 50
0.0
 41
0.9
 51
0.0
  7
KANJI47
  0
TEXT
  8
0
  6
CONTINUOUS
 62
     2
 10
1311.32
 20
1290.58
 30
1.44
 40
14.4
  1
１３７３
 50
0.0
 41
0.9
 51
0.0
  7
KANJI47
  0
TEXT
  8
0
  6
CONTINUOUS
 62
     2
 10
1311.32
 20
1256.98
 30
1.44
 40
14.4
  1
１４９３
 50
0.0
 41
0.9
 51
0.0
  7
KANJI47
  0
TEXT
  8
0
  6
CONTINUOUS
 62
     2
 10
1311.32
 20
1223.38
 30
1.44
 40
14.4
  1
１６１３
 50
0.0
 41
0.9
 51
0.0
  7
KANJI47
  0
TEXT
  8
0
  6
CONTINUOUS
 62
     2
 10
1311.32
 20
1189.78
 30
1.44
 40
14.4
  1
１７４３
 50
0.0
 41
0.9
 51
0.0
  7
KANJI47
  0
TEXT
  8
0
  6
CONTINUOUS
 62
     2
 10
1311.32
 20
1156.18
 30
1.44
 40
14.4
  1
１８７６
 50
0.0
 41
0.9
 51
0.0
  7
KANJI47
  0
TEXT
  8
0
  6
CONTINUOUS
 62
     2
 10
1311.32
 20
1122.78
 30
1.44
 40
14.4
  1
１９９０
 50
0.0
 41
0.9
 51
0.0
  7
KANJI47
  0
TEXT
  8
0
  6
CONTINUOUS
 62
     2
 10
1311.32
 20
1089.18
 30
1.44
 40
14.4
  1
２１１３
 50
0.0
 41
0.9
 51
0.0
  7
KANJI47
  0
LINE
  8
0
  6
CONTINUOUS
 62
     2
 10
855.603319123
 20
141.583311846
 30
0.0
 11
855.603319123
 21
87.133311846
 31
0.0
  0
LINE
  8
0
  6
CONTINUOUS
 62
     2
 10
696.403319123
 20
129.133311846
 30
0.0
 11
855.603319123
 21
129.133311846
 31
0.0
  0
LINE
  8
0
  6
CONTINUOUS
 62
     2
 10
855.603319123
 20
129.133311846
 30
0.0
 11
847.875912513
 21
131.203864207
 31
0.0
  0
LINE
  8
0
  6
CONTINUOUS
 62
     2
 10
855.603319123
 20
129.133311846
 30
0.0
 11
847.875912513
 21
127.062759485
 31
0.0
  0
TEXT
  8
0
  6
CONTINUOUS
 62
     3
 10
735.703319123
 20
131.133311846
 30
0.0
 40
15.0
  1
常用ストローク
 50
0.0
 41
0.9
 51
0.0
  7
KANJI39
  0
ARC
  8
0
  6
CONTINUOUS
 62
     1
 10
152.306676122
 20
456.0
 30
0.0
 40
1.0
 50
270.0
 51
0.0
  0
ARC
  8
0
  6
CONTINUOUS
 62
     1
 10
149.306676122
 20
455.0
 30
0.0
 40
1.0
 50
270.0
 51
0.0
  0
ARC
  8
0
  6
CONTINUOUS
 62
     1
 10
139.306676122
 20
776.9
 30
0.0
 40
6.0
 50
270.0
 51
0.0
  0
LINE
  8
0
  6
CONTINUOUS
 62
     1
 10
139.306676122
 20
770.9
 30
0.0
 11
138.206676122
 21
770.9
 31
0.0
  0
LINE
  8
0
  6
LTYPE3
 62
     2
 10
147.306676122
 20
450.3
 30
0.0
 11
147.306676122
 21
469.0
 31
0.0
  0
LINE
  8
0
  6
LTYPE3
 62
     2
 10
96.706676122
 20
700.3
 30
0.0
 11
108.706676122
 21
700.3
 31
0.0
  0
LINE
  8
0
  6
LTYPE3
 62
     2
 10
102.306676122
 20
815.3
 30
0.0
 11
102.306676122
 21
746.3
 31
0.0
  0
ARC
  8
0
  6
CONTINUOUS
 62
     1
 10
134.306676122
 20
770.8
 30
0.0
 40
4.0
 50
337.976702835
 51
0.0
  0
LINE
  8
0
  6
CONTINUOUS
 62
     1
 10
153.306676122
 20
456.0
 30
0.0
 11
153.306676122
 21
473.3
 31
0.0
  0
ARC
  8
0
  6
CONTINUOUS
 62
     1
 10
102.306676122
 20
700.3
 30
0.0
 40
78.0
 50
18.671706895
 51
73.994043093
  0
LINE
  8
0
  6
CONTINUOUS
 62
     1
 10
117.306676122
 20
739.75
 30
0.0
 11
117.306676122
 21
775.3
 31
0.0
  0
LINE
  8
0
  6
CONTINUOUS
 62
     1
 10
102.306676122
 20
774.3
 30
0.0
 11
112.306676122
 21
774.3
 31
0.0
  0
LINE
  8
0
  6
CONTINUOUS
 62
     1
 10
112.067261275
 20
776.394879912
 30
0.0
 11
111.506676122
 21
781.3
 31
0.0
  0
LINE
  8
0
  6
CONTINUOUS
 62
     1
 10
112.306676122
 20
774.3
 30
0.0
 11
112.067261275
 21
776.394879912
 31
0.0
  0
ARC
  8
0
  6
CONTINUOUS
 62
     1
 10
102.306676122
 20
811.8
 30
0.0
 40
4.0
 50
0.0
 51
180.0
  0
LINE
  8
0
  6
LTYPE2
 62
     2
 10
95.606676122
 20
795.3
 30
0.0
 11
112.306676122
 21
795.3
 31
0.0
  0
ARC
  8
0
  6
LTYPE1
 62
     2
 10
102.306676122
 20
811.8
 30
0.0
 40
4.0
 50
180.0
 51
0.0
  0
LINE
  8
0
  6
CONTINUOUS
 62
     1
 10
98.306676122
 20
778.3
 30
0.0
 11
98.306676122
 21
811.8
 31
0.0
  0
LINE
  8
0
  6
CONTINUOUS
 62
     1
 10
106.306676122
 20
778.3
 30
0.0
 11
106.306676122
 21
811.8
 31
0.0
  0
ARC
  8
0
  6
CONTINUOUS
 62
     1
 10
108.306676122
 20
778.3
 30
0.0
 40
2.0
 50
180.0
 51
270.0
  0
ARC
  8
0
  6
CONTINUOUS
 62
     1
 10
96.306676122
 20
778.3
 30
0.0
 40
2.0
 50
270.0
 51
0.0
  0
LINE
  8
0
  6
CONTINUOUS
 62
     1
 10
106.306676122
 20
782.147826087
 30
0.0
 11
111.506676122
 21
781.3
 31
0.0
  0
LINE
  8
0
  6
LTYPE1
 62
     2
 10
102.306676122
 20
782.8
 30
0.0
 11
98.306676122
 21
782.147826087
 31
0.0
  0
LINE
  8
0
  6
LTYPE1
 62
     2
 10
102.306676122
 20
782.8
 30
0.0
 11
106.306676122
 21
782.147826087
 31
0.0
  0
ARC
  8
0
  6
CONTINUOUS
 62
     1
 10
134.306676122
 20
822.0
 30
0.0
 40
4.0
 50
360.0
 51
90.0
  0
ARC
  8
0
  6
CONTINUOUS
 62
     1
 10
139.306676122
 20
824.0
 30
0.0
 40
6.0
 50
0.0
 51
90.0
  0
LINE
  8
0
  6
CONTINUOUS
 62
     1
 10
145.306676122
 20
824.0
 30
0.0
 11
145.306676122
 21
776.7
 31
0.0
  0
LINE
  8
0
  6
CONTINUOUS
 62
     1
 10
138.306676122
 20
822.0
 30
0.0
 11
138.306676122
 21
772.1
 31
0.0
  0
ARC
  8
0
  6
CONTINUOUS
 62
     1
 10
102.306676122
 20
700.3
 30
0.0
 40
80.0
 50
18.209956864
 51
62.341889553
  0
LINE
  8
0
  6
LTYPE5
 62
     2
 10
102.306676122
 20
440.4375
 30
0.0
 11
102.306676122
 21
840.9
 31
0.0
  0
ARC
  8
0
  6
CONTINUOUS
 62
     1
 10
202.306676122
 20
483.3
 30
0.0
 40
10.0
 50
270.0
 51
0.0
  0
ARC
  8
0
  6
CONTINUOUS
 62
     1
 10
202.306676122
 20
715.3
 30
0.0
 40
10.0
 50
0.0
 51
90.0
  0
ARC
  8
0
  6
CONTINUOUS
 62
     1
 10
200.306676122
 20
485.3
 30
0.0
 40
12.0
 50
90.0
 51
180.0
  0
LINE
  8
0
  6
CONTINUOUS
 62
     1
 10
200.306676122
 20
497.3
 30
0.0
 11
207.806676122
 21
497.3
 31
0.0
  0
ARC
  8
0
  6
CONTINUOUS
 62
     1
 10
183.306676122
 20
478.3
 30
0.0
 40
5.0
 50
270.0
 51
0.0
  0
LINE
  8
0
  6
CONTINUOUS
 62
     1
 10
188.306676122
 20
485.3
 30
0.0
 11
188.306676122
 21
478.3
 31
0.0
  0
LINE
  8
0
  6
LTYPE2
 62
     2
 10
189.306676122
 20
485.3
 30
0.0
 11
210.306676122
 21
485.3
 31
0.0
  0
LINE
  8
0
  6
LTYPE2
 62
     2
 10
200.306676122
 20
474.3
 30
0.0
 11
200.306676122
 21
495.8
 31
0.0
  0
CIRCLE
  8
0
  6
CONTINUOUS
 62
     1
 10
200.306676122
 20
485.3
 30
0.0
 40
8.5
  0
LINE
  8
0
  6
CONTINUOUS
 62
     1
 10
208.806676122
 20
480.4
 30
0.0
 11
200.306676122
 21
475.5
 31
0.0
  0
LINE
  8
0
  6
CONTINUOUS
 62
     1
 10
191.806676122
 20
490.2
 30
0.0
 11
191.806676122
 21
480.4
 31
0.0
  0
LINE
  8
0
  6
CONTINUOUS
 62
     1
 10
191.806676122
 20
480.4
 30
0.0
 11
200.306676122
 21
475.5
 31
0.0
  0
LINE
  8
0
  6
CONTINUOUS
 62
     1
 10
208.806676122
 20
490.2
 30
0.0
 11
200.306676122
 21
495.1
 31
0.0
  0
LINE
  8
0
  6
CONTINUOUS
 62
     1
 10
191.806676122
 20
490.2
 30
0.0
 11
200.306676122
 21
495.1
 31
0.0
  0
ARC
  8
0
  6
CONTINUOUS
 62
     1
 10
200.306676122
 20
712.7
 30
0.0
 40
12.0
 50
180.0
 51
270.0
  0
LINE
  8
0
  6
CONTINUOUS
 62
     1
 10
200.306676122
 20
700.7
 30
0.0
 11
207.806676122
 21
700.7
 31
0.0
  0
ARC
  8
0
  6
CONTINUOUS
 62
     1
 10
183.306676122
 20
719.7
 30
0.0
 40
5.0
 50
0.0
 51
90.0
  0
LINE
  8
0
  6
CONTINUOUS
 62
     1
 10
188.306676122
 20
712.7
 30
0.0
 11
188.306676122
 21
719.7
 31
0.0
  0
LINE
  8
0
  6
LTYPE2
 62
     2
 10
189.306676122
 20
712.7
 30
0.0
 11
210.306676122
 21
712.7
 31
0.0
  0
LINE
  8
0
  6
LTYPE2
 62
     2
 10
200.306676122
 20
723.7
 30
0.0
 11
200.306676122
 21
702.2
 31
0.0
  0
CIRCLE
  8
0
  6
CONTINUOUS
 62
     1
 10
200.306676122
 20
712.7
 30
0.0
 40
8.5
  0
LINE
  8
0
  6
CONTINUOUS
 62
     1
 10
208.806676122
 20
717.6
 30
0.0
 11
200.306676122
 21
722.5
 31
0.0
  0
LINE
  8
0
  6
CONTINUOUS
 62
     1
 10
191.806676122
 20
707.8
 30
0.0
 11
191.806676122
 21
717.6
 31
0.0
  0
LINE
  8
0
  6
CONTINUOUS
 62
     1
 10
191.806676122
 20
717.6
 30
0.0
 11
200.306676122
 21
722.5
 31
0.0
  0
LINE
  8
0
  6
CONTINUOUS
 62
     1
 10
208.806676122
 20
707.8
 30
0.0
 11
200.306676122
 21
702.9
 31
0.0
  0
LINE
  8
0
  6
CONTINUOUS
 62
     1
 10
191.806676122
 20
707.8
 30
0.0
 11
200.306676122
 21
702.9
 31
0.0
  0
ARC
  8
0
  6
CONTINUOUS
 62
     1
 10
167.306676122
 20
518.3
 30
0.0
 40
35.0
 50
270.0
 51
0.0
  0
ARC
  8
0
  6
CONTINUOUS
 62
     1
 10
167.306676122
 20
635.5
 30
0.0
 40
35.0
 50
0.0
 51
90.0
  0
LINE
  8
0
  6
CONTINUOUS
 62
     1
 10
202.306676122
 20
518.3
 30
0.0
 11
202.306676122
 21
680.3
 31
0.0
  0
ARC
  8
0
  6
CONTINUOUS
 62
     1
 10
167.306676122
 20
680.3
 30
0.0
 40
35.0
 50
0.0
 51
90.0
  0
LINE
  8
0
  6
CONTINUOUS
 62
     2
 10
212.306676122
 20
373.05
 30
0.0
 11
200.232603293
 21
376.285238064
 31
0.0
  0
LINE
  8
0
  6
CONTINUOUS
 62
     2
 10
212.306676122
 20
373.05
 30
0.0
 11
200.232603293
 21
369.814761936
 31
0.0
  0
LINE
  8
0
  6
CONTINUOUS
 62
     1
 10
152.606676122
 20
454.0
 30
0.0
 11
142.006676122
 21
454.0
 31
0.0
  0
ARC
  8
0
  6
CONTINUOUS
 62
     1
 10
147.706676122
 20
455.0
 30
0.0
 40
5.0
 50
272.3
 51
348.5
  0
ARC
  8
0
  6
CONTINUOUS
 62
     1
 10
146.906676122
 20
455.0
 30
0.0
 40
5.0
 50
191.5
 51
267.7
  0
LINE
  8
0
  6
CONTINUOUS
 62
     1
 10
147.906676122
 20
450.0
 30
0.0
 11
146.706676122
 21
450.0
 31
0.0
  0
LINE
  8
0
  6
LTYPE6
 62
     2
 10
147.306676122
 20
446.6
 30
0.0
 11
147.306676122
 21
460.0
 31
0.0
  0
TEXT
  8
0
  6
CONTINUOUS
 62
     2
 10
108.056676122
 20
377.05
 30
0.0
 40
18.0
  1
２２０
 50
0.0
 41
0.9
 51
0.0
  7
KANJI26
  0
LINE
  8
0
  6
CONTINUOUS
 62
     1
 10
153.306676122
 20
461.0
 30
0.0
 11
95.0
 21
461.0
 31
0.0
  0
LINE
  8
0
  6
CONTINUOUS
 62
     1
 10
153.306676122
 20
462.5
 30
0.0
 11
95.0
 21
462.5
 31
0.0
  0
LINE
  8
0
  6
CONTINUOUS
 62
     1
 10
149.306676122
 20
454.0
 30
0.0
 11
95.0
 21
454.0
 31
0.0
  0
LINE
  8
0
  6
CONTINUOUS
 62
     1
 10
152.306676122
 20
455.0
 30
0.0
 11
95.0
 21
455.0
 31
0.0
  0
ARC
  8
0
  6
CONTINUOUS
 62
     1
 10
102.306676122
 20
700.3
 30
0.0
 40
15.0
 50
0.0
 51
119.150920846
  0
ARC
  8
0
  6
CONTINUOUS
 62
     1
 10
102.306676122
 20
700.3
 30
0.0
 40
15.0
 50
240.849079154
 51
0.0
  0
LINE
  8
0
  6
LTYPE3
 62
     2
 10
95.0
 20
700.3
 30
0.0
 11
155.40775477
 21
700.3
 31
0.0
  0
LINE
  8
0
  6
CONTINUOUS
 62
     1
 10
95.0
 20
725.3
 30
0.0
 11
202.306676122
 21
725.3
 31
0.0
  0
LINE
  8
0
  6
CONTINUOUS
 62
     1
 10
95.0
 20
473.3
 30
0.0
 11
202.306676122
 21
473.3
 31
0.0
  0
LINE
  8
0
  6
LTYPE2
 62
     2
 10
223.066666667
 20
564.5
 30
0.0
 11
95.0
 21
564.5
 31
0.0
  0
LINE
  8
0
  6
CONTINUOUS
 62
     1
 10
95.0
 20
483.3
 30
0.0
 11
167.306676122
 21
483.3
 31
0.0
  0
LINE
  8
0
  6
CONTINUOUS
 62
     2
 10
95.0
 20
373.05
 30
0.0
 11
212.306676122
 21
373.05
 31
0.0
  0
ARC
  8
0
  6
CONTINUOUS
 62
     1
 10
102.306676122
 20
700.3
 30
0.0
 40
43.0
 50
36.415496979
 51
99.783324733
  0
LINE
  8
0
  6
CONTINUOUS
 62
     1
 10
95.0
 20
775.3
 30
0.0
 11
123.806676122
 21
775.3
 31
0.0
  0
LINE
  8
0
  6
CONTINUOUS
 62
     1
 10
102.306676122
 20
774.3
 30
0.0
 11
95.0
 21
774.3
 31
0.0
  0
LINE
  8
0
  6
CONTINUOUS
 62
     1
 10
98.306676122
 20
782.147826087
 30
0.0
 11
95.0
 21
781.608694111
 31
0.0
  0
LINE
  8
0
  6
CONTINUOUS
 62
     1
 10
167.306676122
 20
670.5
 30
0.0
 11
95.0
 21
670.5
 31
0.0
  0
LINE
  8
0
  6
CONTINUOUS
 62
     1
 10
95.0
 20
715.3
 30
0.0
 11
167.306676122
 21
715.3
 31
0.0
  0
LINE
  8
0
  6
CONTINUOUS
 62
     1
 10
95.0
 20
826.0
 30
0.0
 11
134.306676122
 21
826.0
 31
0.0
  0
LINE
  8
0
  6
CONTINUOUS
 62
     1
 10
95.0
 20
830.0
 30
0.0
 11
139.306676122
 21
830.0
 31
0.0
  0
ARC
  8
0
  6
LTYPE1
 62
     1
 10
102.306676122
 20
700.3
 30
0.0
 40
80.0
 50
62.341889553
 51
95.240324217
  0
LINE
  8
0
  6
CONTINUOUS
 62
     1
 10
212.306676122
 20
483.3
 30
0.0
 11
212.306676122
 21
715.3
 31
0.0
  0
ARC
  8
0
  6
CONTINUOUS
 62
     1
 10
207.306676122
 20
695.7
 30
0.0
 40
5.0
 50
0.0
 51
90.0
  0
LINE
  8
0
  6
CONTINUOUS
 62
     1
 10
208.806676122
 20
707.8
 30
0.0
 11
208.806676122
 21
717.6
 31
0.0
  0
ARC
  8
0
  6
CONTINUOUS
 62
     1
 10
207.306676122
 20
502.3
 30
0.0
 40
5.0
 50
270.0
 51
0.0
  0
LINE
  8
0
  6
CONTINUOUS
 62
     1
 10
208.806676122
 20
490.2
 30
0.0
 11
208.806676122
 21
480.4
 31
0.0
  0
LINE
  8
0
  6
CONTINUOUS
 62
     2
 10
212.306676122
 20
475.8
 30
0.0
 11
212.306676122
 21
365.55
 31
0.0
  0
LINE
  8
0
  6
CONTINUOUS
 62
     1
 10
217.106676122
 20
520.35
 30
0.0
 11
217.106676122
 21
492.65
 31
0.0
  0
LINE
  8
0
  6
CONTINUOUS
 62
     1
 10
212.306676122
 20
513.4
 30
0.0
 11
217.106676122
 21
513.4
 31
0.0
  0
LINE
  8
0
  6
CONTINUOUS
 62
     1
 10
212.306676122
 20
499.6
 30
0.0
 11
217.106676122
 21
499.6
 31
0.0
  0
LINE
  8
0
  6
CONTINUOUS
 62
     1
 10
212.306676122
 20
492.65
 30
0.0
 11
217.106676122
 21
492.65
 31
0.0
  0
LINE
  8
0
  6
CONTINUOUS
 62
     1
 10
212.306676122
 20
520.35
 30
0.0
 11
217.106676122
 21
520.35
 31
0.0
  0
LINE
  8
0
  6
CONTINUOUS
 62
     1
 10
222.306676122
 20
521.15
 30
0.0
 11
222.306676122
 21
491.85
 31
0.0
  0
LINE
  8
0
  6
CONTINUOUS
 62
     1
 10
222.306676122
 20
521.15
 30
0.0
 11
235.306676122
 21
521.15
 31
0.0
  0
ARC
  8
0
  6
CONTINUOUS
 62
     1
 10
235.306676122
 20
519.15
 30
0.0
 40
2.0
 50
0.0
 51
90.0
  0
LINE
  8
0
  6
CONTINUOUS
 62
     1
 10
222.306676122
 20
491.85
 30
0.0
 11
235.306676122
 21
491.85
 31
0.0
  0
LINE
  8
0
  6
CONTINUOUS
 62
     1
 10
237.306676122
 20
519.15
 30
0.0
 11
237.306676122
 21
493.85
 31
0.0
  0
ARC
  8
0
  6
CONTINUOUS
 62
     1
 10
235.306676122
 20
493.85
 30
0.0
 40
2.0
 50
270.0
 51
0.0
  0
LINE
  8
0
  6
CONTINUOUS
 62
     1
 10
233.306676122
 20
493.85
 30
0.0
 11
222.306676122
 21
493.85
 31
0.0
  0
LINE
  8
0
  6
CONTINUOUS
 62
     1
 10
233.306676122
 20
502.75
 30
0.0
 11
222.306676122
 21
502.75
 31
0.0
  0
LINE
  8
0
  6
CONTINUOUS
 62
     1
 10
233.306676122
 20
498.65
 30
0.0
 11
222.306676122
 21
498.65
 31
0.0
  0
LINE
  8
0
  6
CONTINUOUS
 62
     1
 10
233.306676122
 20
498.65
 30
0.0
 11
233.306676122
 21
493.85
 31
0.0
  0
LINE
  8
0
  6
CONTINUOUS
 62
     1
 10
233.306676122
 20
506.5
 30
0.0
 11
233.306676122
 21
502.75
 31
0.0
  0
LINE
  8
0
  6
CONTINUOUS
 62
     1
 10
233.306676122
 20
519.15
 30
0.0
 11
222.306676122
 21
519.15
 31
0.0
  0
LINE
  8
0
  6
CONTINUOUS
 62
     1
 10
233.306676122
 20
510.25
 30
0.0
 11
222.306676122
 21
510.25
 31
0.0
  0
LINE
  8
0
  6
CONTINUOUS
 62
     1
 10
233.306676122
 20
514.35
 30
0.0
 11
222.306676122
 21
514.35
 31
0.0
  0
LINE
  8
0
  6
CONTINUOUS
 62
     1
 10
233.306676122
 20
514.35
 30
0.0
 11
233.306676122
 21
519.15
 31
0.0
  0
LINE
  8
0
  6
CONTINUOUS
 62
     1
 10
233.306676122
 20
506.5
 30
0.0
 11
233.306676122
 21
510.25
 31
0.0
  0
LINE
  8
0
  6
CONTINUOUS
 62
     1
 10
217.006676122
 20
493.8
 30
0.0
 11
222.306676122
 21
493.8
 31
0.0
  0
LINE
  8
0
  6
CONTINUOUS
 62
     1
 10
217.006676122
 20
494.6
 30
0.0
 11
222.306676122
 21
494.6
 31
0.0
  0
LINE
  8
0
  6
CONTINUOUS
 62
     1
 10
217.006676122
 20
519.2
 30
0.0
 11
222.306676122
 21
519.2
 31
0.0
  0
LINE
  8
0
  6
CONTINUOUS
 62
     1
 10
217.006676122
 20
518.4
 30
0.0
 11
222.306676122
 21
518.4
 31
0.0
  0
ARC
  8
0
  6
CONTINUOUS
 62
     1
 10
257.306676122
 20
496.0
 30
0.0
 40
6.0
 50
0.0
 51
90.0
  0
LINE
  8
0
  6
CONTINUOUS
 62
     1
 10
263.306676122
 20
483.5
 30
0.0
 11
263.306676122
 21
496.0
 31
0.0
  0
ARC
  8
0
  6
CONTINUOUS
 62
     1
 10
257.306676122
 20
483.5
 30
0.0
 40
6.0
 50
270.0
 51
0.0
  0
ARC
  8
0
  6
CONTINUOUS
 62
     1
 10
257.306676122
 20
483.5
 30
0.0
 40
15.0
 50
270.0
 51
0.0
  0
ARC
  8
0
  6
CONTINUOUS
 62
     1
 10
257.306676122
 20
496.0
 30
0.0
 40
15.0
 50
0.0
 51
90.0
  0
LINE
  8
0
  6
CONTINUOUS
 62
     1
 10
272.306676122
 20
483.5
 30
0.0
 11
272.306676122
 21
496.0
 31
0.0
  0
LINE
  8
0
  6
CONTINUOUS
 62
     1
 10
237.306676122
 20
511.0
 30
0.0
 11
257.306676122
 21
511.0
 31
0.0
  0
LINE
  8
0
  6
CONTINUOUS
 62
     1
 10
237.306676122
 20
502.0
 30
0.0
 11
257.306676122
 21
502.0
 31
0.0
  0
LINE
  8
0
  6
CONTINUOUS
 62
     1
 10
153.306676122
 20
468.5
 30
0.0
 11
257.306676122
 21
468.5
 31
0.0
  0
LINE
  8
0
  6
CONTINUOUS
 62
     1
 10
210.452840863
 20
477.5
 30
0.0
 11
257.306676122
 21
477.5
 31
0.0
  0
LINE
  8
0
  6
CONTINUOUS
 62
     2
 10
294.306676122
 20
473.3
 30
0.0
 11
297.541914185
 21
485.374072829
 31
0.0
  0
LINE
  8
0
  6
CONTINUOUS
 62
     2
 10
294.306676122
 20
473.3
 30
0.0
 11
291.071438058
 21
485.374072829
 31
0.0
  0
LINE
  8
0
  6
CONTINUOUS
 62
     2
 10
294.306676122
 20
473.3
 30
0.0
 11
294.306676122
 21
564.5
 31
0.0
  0
LINE
  8
0
  6
CONTINUOUS
 62
     2
 10
294.306676122
 20
564.5
 30
0.0
 11
291.071438058
 21
552.425927171
 31
0.0
  0
LINE
  8
0
  6
CONTINUOUS
 62
     2
 10
294.306676122
 20
564.5
 30
0.0
 11
297.541914185
 21
552.425927171
 31
0.0
  0
TEXT
  8
0
  6
CONTINUOUS
 62
     2
 10
312.306676122
 20
578.05
 30
0.0
 40
18.0
  1
２５２
 50
90.0
 41
0.9
 51
0.0
  7
KANJI26
  0
LINE
  8
0
  6
CONTINUOUS
 62
     2
 10
317.306676122
 20
473.3
 30
0.0
 11
314.071438058
 21
485.374072829
 31
0.0
  0
LINE
  8
0
  6
CONTINUOUS
 62
     2
 10
317.306676122
 20
725.3
 30
0.0
 11
314.071438058
 21
713.225927171
 31
0.0
  0
LINE
  8
0
  6
CONTINUOUS
 62
     2
 10
317.306676122
 20
473.3
 30
0.0
 11
320.541914185
 21
485.374072829
 31
0.0
  0
LINE
  8
0
  6
CONTINUOUS
 62
     2
 10
317.306676122
 20
473.3
 30
0.0
 11
317.306676122
 21
725.3
 31
0.0
  0
TEXT
  8
0
  6
CONTINUOUS
 62
     2
 10
289.306676122
 20
508.9
 30
0.0
 40
18.0
  1
９２　　
 50
90.0
 41
0.9
 51
0.0
  7
KANJI26
  0
LINE
  8
0
  6
CONTINUOUS
 62
     2
 10
317.306676122
 20
725.3
 30
0.0
 11
320.541914185
 21
713.225927171
 31
0.0
  0
LINE
  8
0
  6
CONTINUOUS
 62
     2
 10
208.452840863
 20
473.3
 30
0.0
 11
324.806676122
 21
473.3
 31
0.0
  0
LINE
  8
0
  6
CONTINUOUS
 62
     2
 10
226.452840863
 20
564.5
 30
0.0
 11
301.806676122
 21
564.5
 31
0.0
  0
LINE
  8
0
  6
CONTINUOUS
 62
     2
 10
209.452840863
 20
725.3
 30
0.0
 11
324.806676122
 21
725.3
 31
0.0
  0
TEXT
  8
0
  6
CONTINUOUS
 62
     6
 10
515.12
 20
1646.8
 30
0.0
 40
180.0
  1
｝
 50
0.0
 41
0.216666667
 51
0.0
  7
KANJI54
  0
TEXT
  8
0
  6
CONTINUOUS
 62
     6
 10
500.128537984
 20
1569.423705827
 30
1.77482448
 40
18.98208
  1
電気定格　　　
 50
0.0
 41
0.85
 51
0.0
  7
KANJI55
  0
TEXT
  8
0
  6
CONTINUOUS
 62
     6
 10
518.562679411
 20
1525.397934761
 30
0.0
 40
16.8
  1
ＤＣ１２５Ｖ　０．６Ａ　，ＤＣ２５０Ｖ　０．３Ａ　
 50
0.0
 41
0.714285714
 51
0.0
  7
KANJI56
  0
TEXT
  8
0
  6
CONTINUOUS
 62
     6
 10
518.562679411
 20
1548.070696145
 30
0.0
 40
16.8
  1
ＡＣ１００Ｖ　１２５Ｖ　２５０Ｖ　－１０Ａ
 50
0.0
 41
0.714285714
 51
0.0
  7
KANJI56
  0
LINE
  8
0
  6
CONTINUOUS
 62
     2
 10
1599.706676122
 20
565.0
 30
0.0
 11
1596.471438058
 21
552.925927171
 31
0.0
  0
LINE
  8
0
  6
CONTINUOUS
 62
     2
 10
1599.706676122
 20
565.0
 30
0.0
 11
1602.941914186
 21
552.925927171
 31
0.0
  0
LINE
  8
0
  6
CONTINUOUS
 62
     2
 10
1599.706676122
 20
565.0
 30
0.0
 11
1599.706676122
 21
454.0
 31
0.0
  0
LINE
  8
0
  6
CONTINUOUS
 62
     2
 10
1599.706676122
 20
454.0
 30
0.0
 11
1602.941914186
 21
466.074072829
 31
0.0
  0
LINE
  8
0
  6
CONTINUOUS
 62
     2
 10
1599.706676122
 20
454.0
 30
0.0
 11
1596.471438058
 21
466.074072829
 31
0.0
  0
LINE
  8
0
  6
CONTINUOUS
 62
     2
 10
1599.706676122
 20
565.0
 30
0.0
 11
1602.941914186
 21
577.074072829
 31
0.0
  0
LINE
  8
0
  6
CONTINUOUS
 62
     2
 10
1599.706676122
 20
565.0
 30
0.0
 11
1596.471438058
 21
577.074072829
 31
0.0
  0
LINE
  8
0
  6
CONTINUOUS
 62
     2
 10
1599.706676122
 20
565.0
 30
0.0
 11
1599.706676122
 21
700.3
 31
0.0
  0
LINE
  8
0
  6
CONTINUOUS
 62
     2
 10
1599.706676122
 20
700.3
 30
0.0
 11
1596.471438058
 21
688.225927171
 31
0.0
  0
LINE
  8
0
  6
CONTINUOUS
 62
     2
 10
1599.706676122
 20
700.3
 30
0.0
 11
1602.941914186
 21
688.225927171
 31
0.0
  0
LINE
  8
2
  6
CONTINUOUS
 62
     2
 10
1599.706676122
 20
700.3
 30
0.0
 11
1602.941914186
 21
712.374072829
 31
0.0
  0
LINE
  8
2
  6
CONTINUOUS
 62
     2
 10
1599.706676122
 20
700.3
 30
0.0
 11
1596.471438058
 21
712.374072829
 31
0.0
  0
LINE
  8
2
  6
CONTINUOUS
 62
     2
 10
1599.706676122
 20
700.3
 30
0.0
 11
1599.706676122
 21
830.3
 31
0.0
  0
LINE
  8
2
  6
CONTINUOUS
 62
     2
 10
1599.706676122
 20
830.3
 30
0.0
 11
1596.471438058
 21
818.225927171
 31
0.0
  0
LINE
  8
2
  6
CONTINUOUS
 62
     2
 10
1599.706676122
 20
830.3
 30
0.0
 11
1602.941914186
 21
818.225927171
 31
0.0
  0
TEXT
  8
0
  6
CONTINUOUS
 62
     2
 10
1594.706676122
 20
487.75
 30
0.0
 40
18.0
  1
１１１
 50
90.0
 41
0.9
 51
0.0
  7
KANJI26
  0
TEXT
  8
0
  6
CONTINUOUS
 62
     2
 10
1594.706676122
 20
610.9
 30
0.0
 40
18.0
  1
１３５
 50
90.0
 41
0.9
 51
0.0
  7
KANJI26
  0
TEXT
  8
2
  6
CONTINUOUS
 62
     2
 10
1594.706676122
 20
739.8
 30
0.0
 40
18.0
  1
１３０
 50
90.0
 41
0.9
 51
0.0
  7
KANJI26
  0
LINE
  8
0
  6
CONTINUOUS
 62
     2
 10
1634.006676122
 20
454.0
 30
0.0
 11
1637.241914186
 21
466.074072829
 31
0.0
  0
LINE
  8
0
  6
CONTINUOUS
 62
     2
 10
1634.006676122
 20
454.0
 30
0.0
 11
1630.771438058
 21
466.074072829
 31
0.0
  0
LINE
  8
0
  6
CONTINUOUS
 62
     2
 10
1634.006676122
 20
830.3
 30
0.0
 11
1630.771438058
 21
818.225927171
 31
0.0
  0
LINE
  8
0
  6
CONTINUOUS
 62
     2
 10
1634.006676122
 20
830.3
 30
0.0
 11
1637.241914186
 21
818.225927171
 31
0.0
  0
LINE
  8
0
  6
CONTINUOUS
 62
     2
 10
1634.006676122
 20
454.0
 30
0.0
 11
1634.006676122
 21
830.3
 31
0.0
  0
TEXT
  8
0
  6
CONTINUOUS
 62
     2
 10
1629.006676122
 20
615.65
 30
0.0
 40
18.0
  1
３７６
 50
90.0
 41
0.9
 51
0.0
  7
KANJI26
  0
LINE
  8
0
  6
CONTINUOUS
 62
     2
 10
1593.706676122
 20
454.0
 30
0.0
 11
1641.506676122
 21
454.0
 31
0.0
  0
LINE
  8
0
  6
CONTINUOUS
 62
     2
 10
1567.566666667
 20
565.0
 30
0.0
 11
1606.206676122
 21
565.0
 31
0.0
  0
LINE
  8
0
  6
CONTINUOUS
 62
     2
 10
1560.566666667
 20
700.3
 30
0.0
 11
1607.706676122
 21
700.3
 31
0.0
  0
LINE
  8
0
  6
CONTINUOUS
 62
     2
 10
1459.306676122
 20
830.3
 30
0.0
 11
1641.506676122
 21
830.3
 31
0.0
  0
LINE
  8
0
  6
CONTINUOUS
 62
     2
 10
1472.306676122
 20
454.0
 30
0.0
 11
1593.706676122
 21
454.0
 31
0.0
  0
TEXT
  8
0
  6
CONTINUOUS
 62
     2
 10
1626.5200334
 20
119.799994
 30
1.8
 40
21.0
  1
０７．１０．０４
 50
0.0
 41
0.571428571
 51
0.0
  7
KANJI57
  0
TEXT
  8
0
  6
CONTINUOUS
 62
     2
 10
1689.92
 20
489.1
 30
5.985
 40
21.0
  1
　　必ず、常用はストローク両端に余裕を取って下さい。
 50
0.0
 41
0.857222222
 51
0.0
  7
KANJI42
  0
LINE
  8
0
  6
CONTINUOUS
 62
     2
 10
1851.92
 20
889.6
 30
0.0
 11
2376.92
 21
889.6
 31
0.0
  0
LINE
  8
0
  6
CONTINUOUS
 62
     2
 10
1851.92
 20
847.6
 30
0.0
 11
2376.92
 21
847.6
 31
0.0
  0
LINE
  8
0
  6
CONTINUOUS
 62
     2
 10
1899.92
 20
1225.6
 30
0.0
 11
1899.92
 21
889.6
 31
0.0
  0
TEXT
  8
0
  6
CONTINUOUS
 62
     2
 10
1884.92
 20
858.4
 30
79.962857143
 40
22.8
  1
付属品
 50
0.0
 41
0.9
 51
0.0
  7
KANJI58
  0
TEXT
  8
0
  6
CONTINUOUS
 62
     2
 10
1884.92
 20
816.4
 30
180.445714286
 40
22.8
  1
台数
 50
0.0
 41
0.9
 51
0.0
  7
KANJI59
  0
LINE
  8
0
  6
CONTINUOUS
 62
     1
 10
1851.92
 20
1621.6
 30
0.0
 11
2376.92
 21
1621.6
 31
0.0
  0
TEXT
  8
0
  6
CONTINUOUS
 62
     2
 10
1926.92
 20
1577.8
 30
17.09964
 40
27.0
  1
マイティシリンダ仕様
 50
0.0
 41
0.9
 51
0.0
  7
KANJI60
  0
LINE
  8
0
  6
CONTINUOUS
 62
     2
 10
1899.92
 20
931.6
 30
0.0
 11
2376.92
 21
931.6
 31
0.0
  0
LINE
  8
0
  6
CONTINUOUS
 62
     2
 10
1899.92
 20
1057.6
 30
0.0
 11
2376.92
 21
1057.6
 31
0.0
  0
LINE
  8
0
  6
CONTINUOUS
 62
     2
 10
1899.92
 20
1099.6
 30
0.0
 11
2376.92
 21
1099.6
 31
0.0
  0
LINE
  8
0
  6
CONTINUOUS
 62
     2
 10
1851.92
 20
1309.6
 30
0.0
 11
2376.92
 21
1309.6
 31
0.0
  0
LINE
  8
0
  6
CONTINUOUS
 62
     2
 10
1851.92
 20
1267.6
 30
0.0
 11
2376.92
 21
1267.6
 31
0.0
  0
LINE
  8
0
  6
CONTINUOUS
 62
     2
 10
1851.92
 20
1225.6
 30
0.0
 11
2376.92
 21
1225.6
 31
0.0
  0
LINE
  8
0
  6
CONTINUOUS
 62
     2
 10
1899.92
 20
1141.6
 30
0.0
 11
2376.92
 21
1141.6
 31
0.0
  0
LINE
  8
0
  6
CONTINUOUS
 62
     2
 10
1899.92
 20
1183.6
 30
0.0
 11
2376.92
 21
1183.6
 31
0.0
  0
LINE
  8
0
  6
CONTINUOUS
 62
     2
 10
1851.92
 20
1519.6
 30
0.0
 11
2376.92
 21
1519.6
 31
0.0
  0
LINE
  8
0
  6
CONTINUOUS
 62
     2
 10
1851.92
 20
1477.6
 30
0.0
 11
2376.92
 21
1477.6
 31
0.0
  0
LINE
  8
0
  6
CONTINUOUS
 62
     2
 10
1851.92
 20
1435.6
 30
0.0
 11
2376.92
 21
1435.6
 31
0.0
  0
LINE
  8
0
  6
CONTINUOUS
 62
     2
 10
1851.92
 20
1393.6
 30
0.0
 11
2376.92
 21
1393.6
 31
0.0
  0
LINE
  8
0
  6
CONTINUOUS
 62
     2
 10
1851.92
 20
1351.6
 30
0.0
 11
2376.92
 21
1351.6
 31
0.0
  0
LINE
  8
0
  6
CONTINUOUS
 62
     2
 10
1851.92
 20
1561.6
 30
0.0
 11
2376.92
 21
1561.6
 31
0.0
  0
TEXT
  8
0
  6
CONTINUOUS
 62
     2
 10
1926.92
 20
1152.4
 30
33.439782857
 40
22.8
  1
電源電圧
 50
0.0
 41
0.9
 51
0.0
  7
KANJI61
  0
TEXT
  8
0
  6
CONTINUOUS
 62
     2
 10
1926.92
 20
1110.4
 30
60.42
 40
22.8
  1
周波数
 50
0.0
 41
0.9
 51
0.0
  7
KANJI62
  0
TEXT
  8
0
  6
CONTINUOUS
 62
     2
 10
1926.92
 20
1068.4
 30
141.36
 40
22.8
  1
電流
 50
0.0
 41
0.9
 51
0.0
  7
KANJI63
  0
TEXT
  8
0
  6
CONTINUOUS
 62
     2
 10
1926.92
 20
1026.4
 30
60.42
 40
22.8
  1
絶縁級
 50
0.0
 41
0.9
 51
0.0
  7
KANJI62
  0
TEXT
  8
0
  6
CONTINUOUS
 62
     2
 10
1884.92
 20
1530.4
 30
180.445714286
 40
22.8
  1
形式
 50
0.0
 41
0.9
 51
0.0
  7
KANJI59
  0
TEXT
  8
0
  6
CONTINUOUS
 62
     2
 10
1884.92
 20
1488.4
 30
180.445714286
 40
22.8
  1
推力
 50
0.0
 41
0.9
 51
0.0
  7
KANJI59
  0
TEXT
  8
0
  6
CONTINUOUS
 62
     2
 10
1884.92
 20
1446.4
 30
29.721428571
 40
22.8
  1
ストローク
 50
0.0
 41
0.9
 51
0.0
  7
KANJI64
  0
TEXT
  8
0
  6
CONTINUOUS
 62
     2
 10
1884.92
 20
1320.4
 30
180.445714286
 40
22.8
  1
構造
 50
0.0
 41
0.9
 51
0.0
  7
KANJI59
  0
TEXT
  8
0
  6
CONTINUOUS
 62
     2
 10
1884.92
 20
1278.4
 30
12.973851429
 40
22.8
  1
過負荷安全装置
 50
0.0
 41
0.9
 51
0.0
  7
KANJI65
  0
TEXT
  8
0
  6
CONTINUOUS
 62
     2
 10
1884.92
 20
1236.4
 30
79.962857143
 40
22.8
  1
塗装色
 50
0.0
 41
0.9
 51
0.0
  7
KANJI58
  0
TEXT
  8
0
  6
CONTINUOUS
 62
     2
 10
1860.92
 20
1362.4
 30
1.954285714
 40
22.8
  1
ピストンロッド回転トルク
 50
0.0
 41
0.9
 51
0.0
  7
KANJI66
  0
LINE
  8
0
  6
CONTINUOUS
 62
     2
 10
1851.92
 20
1015.6
 30
0.0
 11
2376.92
 21
1015.6
 31
0.0
  0
LINE
  8
0
  6
CONTINUOUS
 62
     2
 10
1899.92
 20
973.6
 30
0.0
 11
2376.92
 21
973.6
 31
0.0
  0
TEXT
  8
0
  6
CONTINUOUS
 62
     2
 10
1876.37
 20
1219.6
 30
13.2
 40
21.0
  1
モ　トル仕様
 50
0.0
 41
0.9
 51
0.0
  7
KANJI67
  0
TEXT
  8
0
  6
CONTINUOUS
 62
     2
 10
1876.37
 20
997.6
 30
1.2
 40
21.0
  1
ブレ　キ
 50
0.0
 41
0.9
 51
0.0
  7
KANJI68
  0
LINE
  8
0
  6
CONTINUOUS
 62
     2
 10
1874.72
 20
947.8
 30
0.0
 11
1874.72
 21
935.2
 31
0.0
  0
TEXT
  8
0
  6
CONTINUOUS
 62
     2
 10
2186.42
 20
1279.6
 30
9.0
 40
21.0
  1
推力リミッタ
 50
0.0
 41
0.9
 51
0.0
  7
KANJI69
  0
TEXT
  8
0
  6
CONTINUOUS
 62
     2
 10
2243.42
 20
1027.6
 30
1.8
 40
18.0
  1
Ｅ
 50
0.0
 41
0.9
 51
0.0
  7
KANJI70
  0
TEXT
  8
0
  6
CONTINUOUS
 62
     2
 10
2199.92
 20
942.4
 30
12.0
 40
21.0
  1
同時切り
 50
0.0
 41
0.9
 51
0.0
  7
KANJI71
  0
TEXT
  8
0
  6
CONTINUOUS
 62
     2
 10
1926.92
 20
984.4
 30
141.36
 40
22.8
  1
形式
 50
0.0
 41
0.9
 51
0.0
  7
KANJI63
  0
TEXT
  8
0
  6
CONTINUOUS
 62
     2
 10
1926.92
 20
942.4
 30
33.439782857
 40
22.8
  1
操作方式
 50
0.0
 41
0.9
 51
0.0
  7
KANJI61
  0
LINE
  8
0
  6
CONTINUOUS
 62
     2
 10
1874.72
 20
1183.0
 30
0.0
 11
1874.72
 21
1169.2
 31
0.0
  0
TEXT
  8
0
  6
CONTINUOUS
 62
     2
 10
1926.92
 20
1194.4
 30
3.0
 40
22.8
  1
出力　相数　極数
 50
0.0
 41
0.9
 51
0.0
  7
KANJI72
  0
TEXT
  8
0
  6
CONTINUOUS
 62
     2
 10
1884.92
 20
1404.4
 30
12.0
 40
22.8
  1
公称速度
 50
0.0
 41
0.9
 51
0.0
  7
KANJI73
  0
TEXT
  8
0
  6
CONTINUOUS
 62
     2
 10
2008.82
 20
1403.2
 30
0.0
 40
21.0
  1
（５０／６０Ｈｚ）
 50
0.0
 41
0.628571429
 51
0.0
  7
KANJI74
  0
TEXT
  8
0
  6
CONTINUOUS
 62
     2
 10
2129.42
 20
984.85
 30
3.3
 40
20.4
  1
スプリング制動式電磁ブレーキ
 50
0.0
 41
0.705882353
 51
0.0
  7
KANJI75
  0
TEXT
  8
0
  6
CONTINUOUS
 62
     2
 10
2348.42
 20
1152.4
 30
0.216
 40
18.0
  1
Ｖ
 50
0.0
 41
0.8
 51
0.0
  7
KANJI76
  0
TEXT
  8
0
  6
CONTINUOUS
 62
     2
 10
2337.62
 20
1110.4
 30
0.216
 40
18.0
  1
Ｈｚ
 50
0.0
 41
0.8
 51
0.0
  7
KANJI76
  0
TEXT
  8
0
  6
CONTINUOUS
 62
     2
 10
2348.42
 20
1068.4
 30
0.216
 40
18.0
  1
Ａ
 50
0.0
 41
0.8
 51
0.0
  7
KANJI76
  0
TEXT
  8
0
  6
CONTINUOUS
 62
     2
 10
2269.52
 20
1195.6
 30
1.8
 40
18.0
  1
３φ
 50
0.0
 41
0.9
 51
0.0
  7
KANJI70
  0
TEXT
  8
0
  6
CONTINUOUS
 62
     2
 10
2329.52
 20
1195.6
 30
1.8
 40
18.0
  1
４Ｐ
 50
0.0
 41
0.9
 51
0.0
  7
KANJI70
  0
TEXT
  8
0
  6
CONTINUOUS
 62
     2
 10
2127.92
 20
1237.6
 30
1.2
 40
19.2
  1
マンセル　７．５ＧＹ　５／４．５
 50
0.0
 41
0.71875
 51
0.0
  7
KANJI77
  0
TEXT
  8
0
  6
CONTINUOUS
 62
     2
 10
2127.92
 20
1153.6
 30
1.8
 40
18.0
  1
　　　　　　　／　　　
 50
0.0
 41
0.9
 51
0.0
  7
KANJI70
  0
TEXT
  8
0
  6
CONTINUOUS
 62
     2
 10
2127.92
 20
1111.6
 30
1.8
 40
18.0
  1
　　　　５０／　６０
 50
0.0
 41
0.9
 51
0.0
  7
KANJI70
  0
TEXT
  8
0
  6
CONTINUOUS
 62
     2
 10
2127.92
 20
1069.6
 30
1.8
 40
18.0
  1
　　　　　　　／　　　
 50
0.0
 41
0.9
 51
0.0
  7
KANJI70
  0
TEXT
  8
0
  6
CONTINUOUS
 62
     2
 10
2332.52
 20
1448.8
 30
0.1536
 40
19.2
  1
ｍｍ
 50
0.0
 41
0.8
 51
0.0
  7
KANJI78
  0
TEXT
  8
0
  6
CONTINUOUS
 62
     2
 10
2293.52
 20
1405.6
 30
0.0
 40
21.0
  1
ｍｍ／ｓｅｃ
 50
0.0
 41
0.571428571
 51
0.0
  7
KANJI79
  0
TEXT
  8
0
  6
CONTINUOUS
 62
     2
 10
2133.92
 20
1195.6
 30
1.8
 40
18.0
  1
　０．６ＫＷ
 50
0.0
 41
0.9
 51
0.0
  7
KANJI70
  0
TEXT
  8
0
  6
CONTINUOUS
 62
     2
 10
2186.42
 20
1321.6
 30
9.0
 40
21.0
  1
全閉屋外形
 50
0.0
 41
0.9
 51
0.0
  7
KANJI69
  0
TEXT
  8
0
  6
CONTINUOUS
 62
     2
 10
2171.72
 20
1489.6
 30
1.8
 40
18.0
  1
９．８ＫＮ（１ｔｏｎ）
 50
0.0
 41
0.9
 51
0.0
  7
KANJI70
  0
TEXT
  8
0
  6
CONTINUOUS
 62
     2
 10
2141.42
 20
1529.5
 30
1.2
 40
18.0
  1
ＭＣＬＣ１Ｂ－　ＪＮ
 50
0.0
 41
0.833333333
 51
0.0
  7
KANJI80
  0
TEXT
  8
0
  6
CONTINUOUS
 62
     2
 10
2130.92
 20
1405.6
 30
1.8
 40
18.0
  1
　２３／　２８
 50
0.0
 41
0.9
 51
0.0
  7
KANJI70
  0
TEXT
  8
0
  6
CONTINUOUS
 62
     2
 10
2147.0
 20
857.0
 30
0.0
 40
18.0
  1
手動ハンドル
 50
0.0
 41
0.9
 51
0.0
  7
KANJI26
  0
LINE
  8
0
  6
CONTINUOUS
 62
     1
 10
1851.92
 20
763.6
 30
0.0
 11
2376.92
 21
763.6
 31
0.0
  0
LINE
  8
0
  6
CONTINUOUS
 62
     2
 10
1851.92
 20
805.6
 30
0.0
 11
2376.92
 21
805.6
 31
0.0
  0
TEXT
  8
0
  6
CONTINUOUS
 62
     2
 10
2321.72
 20
775.78
 30
0.0
 40
21.0
  1
ｋｇ
 50
0.0
 41
0.9
 51
0.0
  7
KANJI81
  0
TEXT
  8
0
  6
CONTINUOUS
 62
     2
 10
1883.72
 20
774.4
 30
6.0
 40
21.0
  1
概算重量（１台当り）
 50
0.0
 41
0.857142857
 51
0.0
  7
KANJI82
  0
TEXT
  8
0
  6
CONTINUOUS
 62
     2
 10
2142.92
 20
1363.6
 30
0.0
 40
18.0
  1
８．８Ｎ・ｍ（０．９ｋｇ・ｍ）
 50
0.0
 41
0.833333333
 51
0.0
  7
KANJI83
  0
LINE
  8
0
  6
CONTINUOUS
 62
     1
 10
1851.92
 20
1621.6
 30
0.0
 11
1851.92
 21
763.6
 31
0.0
  0
LINE
  8
0
  6
CONTINUOUS
 62
     2
 10
2127.92
 20
1561.6
 30
0.0
 11
2127.92
 21
763.6
 31
0.0
  0
LINE
  8
0
  6
CONTINUOUS
 62
     1
 10
2376.92
 20
1621.6
 30
0.0
 11
2376.92
 21
763.6
 31
0.0
  0
ENDSEC
  0
EOF
